  0
SECTION
  2
HEADER
  9
$ACADVER
  1
AC1018
  9
$ACADMAINTVER
 70
     0
  9
$DWGCODEPAGE
  3
ANSI_1252
  9
$INSBASE
 10
0.0
 20
0.0
 30
0.0
  9
$EXTMIN
 10
-16.9337
 20
-43.3143
 30
0.0
  9
$EXTMAX
 10
16.9337
 20
43.3143
 30
0.0
  9
$LIMMIN
 10
0.0
 20
0.0
  9
$LIMMAX
 10
12.0
 20
9.0
  9
$ORTHOMODE
 70
     0
  9
$REGENMODE
 70
     1
  9
$FILLMODE
 70
     1
  9
$QTEXTMODE
 70
     0
  9
$MIRRTEXT
 70
     1
  9
$LTSCALE
 40
1.0
  9
$ATTMODE
 70
     1
  9
$TEXTSIZE
 40
0.2
  9
$TRACEWID
 40
0.05
  9
$TEXTSTYLE
  7
Standard
  9
$CLAYER
  8
0
  9
$CELTYPE
  6
ByLayer
  9
$CECOLOR
 62
   256
  9
$CELTSCALE
 40
1.0
  9
$DISPSILH
 70
     0
  9
$DIMSCALE
 40
1.0
  9
$DIMASZ
 40
0.18
  9
$DIMEXO
 40
0.0625
  9
$DIMDLI
 40
0.38
  9
$DIMRND
 40
0.0
  9
$DIMDLE
 40
0.0
  9
$DIMEXE
 40
0.18
  9
$DIMTP
 40
0.0
  9
$DIMTM
 40
0.0
  9
$DIMTXT
 40
0.18
  9
$DIMCEN
 40
0.09
  9
$DIMTSZ
 40
0.0
  9
$DIMTOL
 70
     0
  9
$DIMLIM
 70
     0
  9
$DIMTIH
 70
     1
  9
$DIMTOH
 70
     1
  9
$DIMSE1
 70
     0
  9
$DIMSE2
 70
     0
  9
$DIMTAD
 70
     0
  9
$DIMZIN
 70
     0
  9
$DIMBLK
  1

  9
$DIMASO
 70
     1
  9
$DIMSHO
 70
     1
  9
$DIMPOST
  1

  9
$DIMAPOST
  1

  9
$DIMALT
 70
     0
  9
$DIMALTD
 70
     2
  9
$DIMALTF
 40
25.4
  9
$DIMLFAC
 40
1.0
  9
$DIMTOFL
 70
     0
  9
$DIMTVP
 40
0.0
  9
$DIMTIX
 70
     0
  9
$DIMSOXD
 70
     0
  9
$DIMSAH
 70
     0
  9
$DIMBLK1
  1

  9
$DIMBLK2
  1

  9
$DIMSTYLE
  2
Standard
  9
$DIMCLRD
 70
     0
  9
$DIMCLRE
 70
     0
  9
$DIMCLRT
 70
     0
  9
$DIMTFAC
 40
1.0
  9
$DIMGAP
 40
0.09
  9
$DIMJUST
 70
     0
  9
$DIMSD1
 70
     0
  9
$DIMSD2
 70
     0
  9
$DIMTOLJ
 70
     1
  9
$DIMTZIN
 70
     0
  9
$DIMALTZ
 70
     0
  9
$DIMALTTZ
 70
     0
  9
$DIMUPT
 70
     0
  9
$DIMDEC
 70
     4
  9
$DIMTDEC
 70
     4
  9
$DIMALTU
 70
     2
  9
$DIMALTTD
 70
     2
  9
$DIMTXSTY
  7
Standard
  9
$DIMAUNIT
 70
     0
  9
$DIMADEC
 70
     0
  9
$DIMALTRND
 40
0.0
  9
$DIMAZIN
 70
     0
  9
$DIMDSEP
 70
    46
  9
$DIMATFIT
 70
     3
  9
$DIMFRAC
 70
     0
  9
$DIMLDRBLK
  1

  9
$DIMLUNIT
 70
     2
  9
$DIMLWD
 70
    -2
  9
$DIMLWE
 70
    -2
  9
$DIMTMOVE
 70
     0
  9
$LUNITS
 70
     2
  9
$LUPREC
 70
     4
  9
$SKETCHINC
 40
0.1
  9
$FILLETRAD
 40
0.5
  9
$AUNITS
 70
     0
  9
$AUPREC
 70
     0
  9
$MENU
  1
.
  9
$ELEVATION
 40
0.0
  9
$PELEVATION
 40
0.0
  9
$THICKNESS
 40
0.0
  9
$LIMCHECK
 70
     0
  9
$CHAMFERA
 40
0.0
  9
$CHAMFERB
 40
0.0
  9
$CHAMFERC
 40
0.0
  9
$CHAMFERD
 40
0.0
  9
$SKPOLY
 70
     0
  9
$TDCREATE
 40
2458283.789503032
  9
$TDUCREATE
 40
2458283.497836366
  9
$TDUPDATE
 40
2458283.789503056
  9
$TDUUPDATE
 40
2458283.497836389
  9
$TDINDWG
 40
0.0000000116
  9
$TDUSRTIMER
 40
0.0000000116
  9
$USRTIMER
 70
     1
  9
$ANGBASE
 50
0.0
  9
$ANGDIR
 70
     0
  9
$PDMODE
 70
     0
  9
$PDSIZE
 40
0.0
  9
$PLINEWID
 40
0.0
  9
$SPLFRAME
 70
     0
  9
$SPLINETYPE
 70
     6
  9
$SPLINESEGS
 70
     8
  9
$HANDSEED
  5
131
  9
$SURFTAB1
 70
     6
  9
$SURFTAB2
 70
     6
  9
$SURFTYPE
 70
     6
  9
$SURFU
 70
     6
  9
$SURFV
 70
     6
  9
$UCSBASE
  2

  9
$UCSNAME
  2

  9
$UCSORG
 10
0.0
 20
0.0
 30
0.0
  9
$UCSXDIR
 10
1.0
 20
0.0
 30
0.0
  9
$UCSYDIR
 10
0.0
 20
1.0
 30
0.0
  9
$UCSORTHOREF
  2

  9
$UCSORTHOVIEW
 70
     0
  9
$UCSORGTOP
 10
0.0
 20
0.0
 30
0.0
  9
$UCSORGBOTTOM
 10
0.0
 20
0.0
 30
0.0
  9
$UCSORGLEFT
 10
0.0
 20
0.0
 30
0.0
  9
$UCSORGRIGHT
 10
0.0
 20
0.0
 30
0.0
  9
$UCSORGFRONT
 10
0.0
 20
0.0
 30
0.0
  9
$UCSORGBACK
 10
0.0
 20
0.0
 30
0.0
  9
$PUCSBASE
  2

  9
$PUCSNAME
  2

  9
$PUCSORG
 10
0.0
 20
0.0
 30
0.0
  9
$PUCSXDIR
 10
1.0
 20
0.0
 30
0.0
  9
$PUCSYDIR
 10
0.0
 20
1.0
 30
0.0
  9
$PUCSORTHOREF
  2

  9
$PUCSORTHOVIEW
 70
     0
  9
$PUCSORGTOP
 10
0.0
 20
0.0
 30
0.0
  9
$PUCSORGBOTTOM
 10
0.0
 20
0.0
 30
0.0
  9
$PUCSORGLEFT
 10
0.0
 20
0.0
 30
0.0
  9
$PUCSORGRIGHT
 10
0.0
 20
0.0
 30
0.0
  9
$PUCSORGFRONT
 10
0.0
 20
0.0
 30
0.0
  9
$PUCSORGBACK
 10
0.0
 20
0.0
 30
0.0
  9
$USERI1
 70
     0
  9
$USERI2
 70
     0
  9
$USERI3
 70
     0
  9
$USERI4
 70
     0
  9
$USERI5
 70
     0
  9
$USERR1
 40
0.0
  9
$USERR2
 40
0.0
  9
$USERR3
 40
0.0
  9
$USERR4
 40
0.0
  9
$USERR5
 40
0.0
  9
$WORLDVIEW
 70
     1
  9
$SHADEDGE
 70
     3
  9
$SHADEDIF
 70
    70
  9
$TILEMODE
 70
     1
  9
$MAXACTVP
 70
    64
  9
$PINSBASE
 10
0.0
 20
0.0
 30
0.0
  9
$PLIMCHECK
 70
     0
  9
$PEXTMIN
 10
1.000000000000000E+20
 20
1.000000000000000E+20
 30
1.000000000000000E+20
  9
$PEXTMAX
 10
-1.000000000000000E+20
 20
-1.000000000000000E+20
 30
-1.000000000000000E+20
  9
$PLIMMIN
 10
0.0
 20
0.0
  9
$PLIMMAX
 10
12.0
 20
9.0
  9
$UNITMODE
 70
     0
  9
$VISRETAIN
 70
     1
  9
$PLINEGEN
 70
     0
  9
$PSLTSCALE
 70
     1
  9
$TREEDEPTH
 70
  3020
  9
$CMLSTYLE
  2
Standard
  9
$CMLJUST
 70
     0
  9
$CMLSCALE
 40
1.0
  9
$PROXYGRAPHICS
 70
     1
  9
$MEASUREMENT
 70
     0
  9
$CELWEIGHT
370
    -1
  9
$ENDCAPS
280
     0
  9
$JOINSTYLE
280
     0
  9
$LWDISPLAY
290
     0
  9
$INSUNITS
 70
     4
  9
$HYPERLINKBASE
  1

  9
$STYLESHEET
  1

  9
$XEDIT
290
     1
  9
$CEPSNTYPE
380
     0
  9
$PSTYLEMODE
290
     1
  9
$FINGERPRINTGUID
  2
{464F37A7-941D-47CE-9254-7578AAF4B5D4}
  9
$VERSIONGUID
  2
{FAEB1C32-E019-11D5-929B-00C0DF256EC4}
  9
$EXTNAMES
290
     1
  9
$PSVPSCALE
 40
0.0
  9
$OLESTARTUP
290
     0
  9
$SORTENTS
280
   127
  9
$INDEXCTL
280
     0
  9
$HIDETEXT
280
     1
  9
$XCLIPFRAME
290
     0
  9
$HALOGAP
280
     0
  9
$OBSCOLOR
 70
   257
  9
$OBSLTYPE
280
     0
  9
$INTERSECTIONDISPLAY
280
     0
  9
$INTERSECTIONCOLOR
 70
   257
  9
$DIMASSOC
280
     2
  9
$PROJECTNAME
  1

  0
ENDSEC
  0
SECTION
  2
CLASSES
  0
CLASS
  1
ACDBDICTIONARYWDFLT
  2
AcDbDictionaryWithDefault
  3
ObjectDBX Classes
 90
        0
 91
        4
280
     0
281
     0
  0
CLASS
  1
VISUALSTYLE
  2
AcDbVisualStyle
  3
ObjectDBX Classes
 90
     4095
 91
        4
280
     0
281
     0
  0
CLASS
  1
MATERIAL
  2
AcDbMaterial
  3
ObjectDBX Classes
 90
     1153
 91
        4
280
     0
281
     0
  0
CLASS
  1
SCALE
  2
AcDbScale
  3
ObjectDBX Classes
 90
     1153
 91
        4
280
     0
281
     0
  0
CLASS
  1
TABLESTYLE
  2
AcDbTableStyle
  3
ObjectDBX Classes
 90
     4095
 91
        4
280
     0
281
     0
  0
CLASS
  1
MLEADERSTYLE
  2
AcDbMLeaderStyle
  3
ACDB_MLEADERSTYLE_CLASS
 90
     4095
 91
        4
280
     0
281
     0
  0
CLASS
  1
SUN
  2
AcDbSun
  3
SCENEOE
 90
     1153
 91
        4
280
     0
281
     0
  0
CLASS
  1
DICTIONARYVAR
  2
AcDbDictionaryVar
  3
ObjectDBX Classes
 90
        0
 91
        4
280
     0
281
     0
  0
CLASS
  1
CELLSTYLEMAP
  2
AcDbCellStyleMap
  3
ObjectDBX Classes
 90
     1152
 91
        4
280
     0
281
     0
  0
ENDSEC
  0
SECTION
  2
TABLES
  0
TABLE
  2
VPORT
  5
8
102
{ACAD_XDICTIONARY
360
EA
102
}
330
0
100
AcDbSymbolTable
 70
     1
  0
VPORT
  5
29
330
8
100
AcDbSymbolTableRecord
100
AcDbViewportTableRecord
  2
*Active
 70
     0
 10
0.0
 20
0.0
 11
1.0
 21
1.0
 12
10.42990654205607
 22
4.5
 13
0.0
 23
0.0
 14
0.5
 24
0.5
 15
0.5
 25
0.5
 16
0.0
 26
0.0
 36
1.0
 17
0.0
 27
0.0
 37
0.0
 40
9.0
 41
1.972972972850329
 42
50.0
 43
0.0
 44
0.0
 50
0.0
 51
0.0
 71
     0
 72
   100
 73
     1
 74
     3
 75
     0
 76
     0
 77
     0
 78
     0
281
     0
 65
     1
110
0.0
120
0.0
130
0.0
111
1.0
121
0.0
131
0.0
112
0.0
122
1.0
132
0.0
 79
     0
146
0.0
  0
ENDTAB
  0
TABLE
  2
LTYPE
  5
5
330
0
100
AcDbSymbolTable
 70
     1
  0
LTYPE
  5
14
330
5
100
AcDbSymbolTableRecord
100
AcDbLinetypeTableRecord
  2
ByBlock
 70
     0
  3

 72
    65
 73
     0
 40
0.0
  0
LTYPE
  5
15
330
5
100
AcDbSymbolTableRecord
100
AcDbLinetypeTableRecord
  2
ByLayer
 70
     0
  3

 72
    65
 73
     0
 40
0.0
  0
LTYPE
  5
16
330
5
100
AcDbSymbolTableRecord
100
AcDbLinetypeTableRecord
  2
Continuous
 70
     0
  3
Solid line
 72
    65
 73
     0
 40
0.0
  0
ENDTAB
  0
TABLE
  2
LAYER
  5
2
330
0
100
AcDbSymbolTable
 70
     2
  0
LAYER
  5
10
330
2
100
AcDbSymbolTableRecord
100
AcDbLayerTableRecord
  2
0
 70
     0
 62
     7
  6
Continuous
370
    -3
390
F
  0
LAYER
  5
6F
330
2
100
AcDbSymbolTableRecord
100
AcDbLayerTableRecord
  2
Layer 1
 70
     0
 62
     7
  6
Continuous
370
    -3
390
F
  0
ENDTAB
  0
TABLE
  2
STYLE
  5
3
330
0
100
AcDbSymbolTable
 70
     1
  0
STYLE
  5
11
330
3
100
AcDbSymbolTableRecord
100
AcDbTextStyleTableRecord
  2
Standard
 70
     0
 40
0.0
 41
1.0
 50
0.0
 71
     0
 42
0.2
  3
txt
  4

  0
ENDTAB
  0
TABLE
  2
VIEW
  5
6
330
0
100
AcDbSymbolTable
 70
     0
  0
ENDTAB
  0
TABLE
  2
UCS
  5
7
330
0
100
AcDbSymbolTable
 70
     0
  0
ENDTAB
  0
TABLE
  2
APPID
  5
9
330
0
100
AcDbSymbolTable
 70
     3
  0
APPID
  5
12
330
9
100
AcDbSymbolTableRecord
100
AcDbRegAppTableRecord
  2
ACAD
 70
     0
  0
APPID
  5
6E
330
9
100
AcDbSymbolTableRecord
100
AcDbRegAppTableRecord
  2
ODA
 70
     0
  0
APPID
  5
129
330
9
100
AcDbSymbolTableRecord
100
AcDbRegAppTableRecord
  2
ACAD_MLEADERVER
 70
     0
  0
ENDTAB
  0
TABLE
  2
DIMSTYLE
  5
A
330
0
100
AcDbSymbolTable
 70
     1
100
AcDbDimStyleTable
  0
DIMSTYLE
105
27
330
A
100
AcDbSymbolTableRecord
100
AcDbDimStyleTableRecord
  2
Standard
 70
     0
178
     0
340
11
  0
ENDTAB
  0
TABLE
  2
BLOCK_RECORD
  5
1
330
0
100
AcDbSymbolTable
 70
     1
  0
BLOCK_RECORD
  5
1F
330
1
100
AcDbSymbolTableRecord
100
AcDbBlockTableRecord
  2
*Model_Space
340
22
  0
BLOCK_RECORD
  5
1B
330
1
100
AcDbSymbolTableRecord
100
AcDbBlockTableRecord
  2
*Paper_Space
340
1E
  0
BLOCK_RECORD
  5
23
330
1
100
AcDbSymbolTableRecord
100
AcDbBlockTableRecord
  2
*Paper_Space0
340
26
  0
ENDTAB
  0
ENDSEC
  0
SECTION
  2
BLOCKS
  0
BLOCK
  5
20
330
1F
100
AcDbEntity
  8
0
100
AcDbBlockBegin
  2
*Model_Space
 70
     0
 10
0.0
 20
0.0
 30
0.0
  3
*Model_Space
  1
*Model_Space
  0
ENDBLK
  5
21
330
1F
100
AcDbEntity
  8
0
100
AcDbBlockEnd
  0
BLOCK
  5
1C
330
1B
100
AcDbEntity
 67
     1
  8
0
100
AcDbBlockBegin
  2
*Paper_Space
 70
     0
 10
0.0
 20
0.0
 30
0.0
  3
*Paper_Space
  1
*Paper_Space
  0
ENDBLK
  5
1D
330
1B
100
AcDbEntity
 67
     1
  8
0
100
AcDbBlockEnd
  0
BLOCK
  5
24
330
23
100
AcDbEntity
  8
0
100
AcDbBlockBegin
  2
*Paper_Space0
 70
     0
 10
0.0
 20
0.0
 30
0.0
  3
*Paper_Space0
  1
*Paper_Space0
  0
ENDBLK
  5
25
330
23
100
AcDbEntity
  8
0
100
AcDbBlockEnd
  0
ENDSEC
  0
SECTION
  2
ENTITIES
  0
SPLINE
  5
70
330
1F
100
AcDbEntity
  8
Layer 1
 62
   175
100
AcDbSpline
210
0.0
220
0.0
230
1.0
 70
    11
 71
     3
 72
    20
 73
    16
 74
     0
 42
0.000000001
 43
0.0000000001
 40
0.0
 40
0.0
 40
0.0
 40
0.0
 40
0.2
 40
0.2
 40
0.2
 40
0.2
 40
0.4
 40
0.4
 40
0.4
 40
0.4
 40
0.6
 40
0.6
 40
0.6
 40
0.6
 40
1.0
 40
1.0
 40
1.0
 40
1.0
 10
12.5417
 20
33.9739
 30
0.0
 10
12.5417
 20
33.9739
 30
0.0
 10
12.5417
 20
32.427
 30
0.0
 10
12.5417
 20
32.427
 30
0.0
 10
12.5417
 20
32.427
 30
0.0
 10
12.5417
 20
32.427
 30
0.0
 10
14.0057
 20
32.427
 30
0.0
 10
14.0057
 20
32.427
 30
0.0
 10
14.0057
 20
32.427
 30
0.0
 10
14.0057
 20
32.427
 30
0.0
 10
14.0057
 20
33.9739
 30
0.0
 10
14.0057
 20
33.9739
 30
0.0
 10
14.0057
 20
33.9739
 30
0.0
 10
14.0057
 20
33.9739
 30
0.0
 10
12.5417
 20
33.9739
 30
0.0
 10
12.5417
 20
33.9739
 30
0.0
  0
SPLINE
  5
71
330
1F
100
AcDbEntity
  8
Layer 1
 62
   175
100
AcDbSpline
210
0.0
220
0.0
230
1.0
 70
    11
 71
     3
 72
    28
 73
    24
 74
     0
 42
0.000000001
 43
0.0000000001
 40
0.0
 40
0.0
 40
0.0
 40
0.0
 40
0.1428571428571428
 40
0.1428571428571428
 40
0.1428571428571428
 40
0.1428571428571428
 40
0.2857142857142857
 40
0.2857142857142857
 40
0.2857142857142857
 40
0.2857142857142857
 40
0.4285714285714285
 40
0.4285714285714285
 40
0.4285714285714285
 40
0.4285714285714285
 40
0.5714285714285714
 40
0.5714285714285714
 40
0.5714285714285714
 40
0.5714285714285714
 40
0.7142857142857143
 40
0.7142857142857143
 40
0.7142857142857143
 40
0.7142857142857143
 40
1.0
 40
1.0
 40
1.0
 40
1.0
 10
11.3698
 20
35.2115
 30
0.0
 10
11.3698
 20
35.2115
 30
0.0
 10
12.5417
 20
35.2115
 30
0.0
 10
12.5417
 20
35.2115
 30
0.0
 10
12.5417
 20
35.2115
 30
0.0
 10
12.5417
 20
35.2115
 30
0.0
 10
12.8996
 20
35.2115
 30
0.0
 10
12.8996
 20
35.2115
 30
0.0
 10
12.8996
 20
35.2115
 30
0.0
 10
12.8996
 20
35.2115
 30
0.0
 10
12.8996
 20
36.7584
 30
0.0
 10
12.8996
 20
36.7584
 30
0.0
 10
12.8996
 20
36.7584
 30
0.0
 10
12.8996
 20
36.7584
 30
0.0
 10
9.9073
 20
36.7584
 30
0.0
 10
9.9073
 20
36.7584
 30
0.0
 10
9.9073
 20
36.7584
 30
0.0
 10
9.9073
 20
36.7584
 30
0.0
 10
9.9073
 20
35.2115
 30
0.0
 10
9.9073
 20
35.2115
 30
0.0
 10
9.9073
 20
35.2115
 30
0.0
 10
9.9073
 20
35.2115
 30
0.0
 10
11.3698
 20
35.2115
 30
0.0
 10
11.3698
 20
35.2115
 30
0.0
  0
SPLINE
  5
72
330
1F
100
AcDbEntity
  8
Layer 1
 62
   175
100
AcDbSpline
210
0.0
220
0.0
230
1.0
 70
    11
 71
     3
 72
    20
 73
    16
 74
     0
 42
0.000000001
 43
0.0000000001
 40
0.0
 40
0.0
 40
0.0
 40
0.0
 40
0.2
 40
0.2
 40
0.2
 40
0.2
 40
0.4
 40
0.4
 40
0.4
 40
0.4
 40
0.6
 40
0.6
 40
0.6
 40
0.6
 40
1.0
 40
1.0
 40
1.0
 40
1.0
 10
7.2792
 20
27.6438
 30
0.0
 10
7.2792
 20
27.6438
 30
0.0
 10
8.737
 20
27.6438
 30
0.0
 10
8.737
 20
27.6438
 30
0.0
 10
8.737
 20
27.6438
 30
0.0
 10
8.737
 20
27.6438
 30
0.0
 10
8.737
 20
34.2879
 30
0.0
 10
8.737
 20
34.2879
 30
0.0
 10
8.737
 20
34.2879
 30
0.0
 10
8.737
 20
34.2879
 30
0.0
 10
7.2792
 20
34.2879
 30
0.0
 10
7.2792
 20
34.2879
 30
0.0
 10
7.2792
 20
34.2879
 30
0.0
 10
7.2792
 20
34.2879
 30
0.0
 10
7.2792
 20
27.6438
 30
0.0
 10
7.2792
 20
27.6438
 30
0.0
  0
SPLINE
  5
73
330
1F
100
AcDbEntity
  8
Layer 1
 62
   175
100
AcDbSpline
210
0.0
220
0.0
230
1.0
 70
    11
 71
     3
 72
    32
 73
    28
 74
     0
 42
0.000000001
 43
0.0000000001
 40
0.0
 40
0.0
 40
0.0
 40
0.0
 40
0.125
 40
0.125
 40
0.125
 40
0.125
 40
0.25
 40
0.25
 40
0.25
 40
0.25
 40
0.375
 40
0.375
 40
0.375
 40
0.375
 40
0.5
 40
0.5
 40
0.5
 40
0.5
 40
0.625
 40
0.625
 40
0.625
 40
0.625
 40
0.75
 40
0.75
 40
0.75
 40
0.75
 40
1.0
 40
1.0
 40
1.0
 40
1.0
 10
6.1073
 20
36.7584
 30
0.0
 10
6.1073
 20
36.7584
 30
0.0
 10
4.6418
 20
36.7584
 30
0.0
 10
4.6418
 20
36.7584
 30
0.0
 10
4.6418
 20
36.7584
 30
0.0
 10
4.6418
 20
36.7584
 30
0.0
 10
4.6418
 20
36.1891
 30
0.0
 10
4.6418
 20
36.1891
 30
0.0
 10
4.6418
 20
36.1891
 30
0.0
 10
4.6418
 20
36.1891
 30
0.0
 10
4.6418
 20
35.2115
 30
0.0
 10
4.6418
 20
35.2115
 30
0.0
 10
4.6418
 20
35.2115
 30
0.0
 10
4.6418
 20
35.2115
 30
0.0
 10
4.6418
 20
33.9739
 30
0.0
 10
4.6418
 20
33.9739
 30
0.0
 10
4.6418
 20
33.9739
 30
0.0
 10
4.6418
 20
33.9739
 30
0.0
 10
4.6418
 20
27.6438
 30
0.0
 10
4.6418
 20
27.6438
 30
0.0
 10
4.6418
 20
27.6438
 30
0.0
 10
4.6418
 20
27.6438
 30
0.0
 10
6.1073
 20
27.6438
 30
0.0
 10
6.1073
 20
27.6438
 30
0.0
 10
6.1073
 20
27.6438
 30
0.0
 10
6.1073
 20
27.6438
 30
0.0
 10
6.1073
 20
36.7584
 30
0.0
 10
6.1073
 20
36.7584
 30
0.0
  0
SPLINE
  5
74
330
1F
100
AcDbEntity
  8
Layer 1
 62
   175
100
AcDbSpline
210
0.0
220
0.0
230
1.0
 70
    11
 71
     3
 72
    20
 73
    16
 74
     0
 42
0.000000001
 43
0.0000000001
 40
0.0
 40
0.0
 40
0.0
 40
0.0
 40
0.2
 40
0.2
 40
0.2
 40
0.2
 40
0.4
 40
0.4
 40
0.4
 40
0.4
 40
0.6
 40
0.6
 40
0.6
 40
0.6
 40
1.0
 40
1.0
 40
1.0
 40
1.0
 10
3.47
 20
24.8594
 30
0.0
 10
3.47
 20
24.8594
 30
0.0
 10
3.47
 20
33.9739
 30
0.0
 10
3.47
 20
33.9739
 30
0.0
 10
3.47
 20
33.9739
 30
0.0
 10
3.47
 20
33.9739
 30
0.0
 10
2.0044
 20
33.9739
 30
0.0
 10
2.0044
 20
33.9739
 30
0.0
 10
2.0044
 20
33.9739
 30
0.0
 10
2.0044
 20
33.9739
 30
0.0
 10
2.0044
 20
24.8594
 30
0.0
 10
2.0044
 20
24.8594
 30
0.0
 10
2.0044
 20
24.8594
 30
0.0
 10
2.0044
 20
24.8594
 30
0.0
 10
3.47
 20
24.8594
 30
0.0
 10
3.47
 20
24.8594
 30
0.0
  0
SPLINE
  5
75
330
1F
100
AcDbEntity
  8
Layer 1
 62
   175
100
AcDbSpline
210
0.0
220
0.0
230
1.0
 70
    11
 71
     3
 72
    20
 73
    16
 74
     0
 42
0.000000001
 43
0.0000000001
 40
0.0
 40
0.0
 40
0.0
 40
0.0
 40
0.2
 40
0.2
 40
0.2
 40
0.2
 40
0.4
 40
0.4
 40
0.4
 40
0.4
 40
0.6
 40
0.6
 40
0.6
 40
0.6
 40
1.0
 40
1.0
 40
1.0
 40
1.0
 10
8.737
 20
24.8594
 30
0.0
 10
8.737
 20
24.8594
 30
0.0
 10
8.737
 20
26.4063
 30
0.0
 10
8.737
 20
26.4063
 30
0.0
 10
8.737
 20
26.4063
 30
0.0
 10
8.737
 20
26.4063
 30
0.0
 10
4.6418
 20
26.4063
 30
0.0
 10
4.6418
 20
26.4063
 30
0.0
 10
4.6418
 20
26.4063
 30
0.0
 10
4.6418
 20
26.4063
 30
0.0
 10
4.6418
 20
24.8594
 30
0.0
 10
4.6418
 20
24.8594
 30
0.0
 10
4.6418
 20
24.8594
 30
0.0
 10
4.6418
 20
24.8594
 30
0.0
 10
8.737
 20
24.8594
 30
0.0
 10
8.737
 20
24.8594
 30
0.0
  0
SPLINE
  5
76
330
1F
100
AcDbEntity
  8
Layer 1
 62
   175
100
AcDbSpline
210
0.0
220
0.0
230
1.0
 70
    11
 71
     3
 72
    20
 73
    16
 74
     0
 42
0.000000001
 43
0.0000000001
 40
0.0
 40
0.0
 40
0.0
 40
0.0
 40
0.2
 40
0.2
 40
0.2
 40
0.2
 40
0.4
 40
0.4
 40
0.4
 40
0.4
 40
0.6
 40
0.6
 40
0.6
 40
0.6
 40
1.0
 40
1.0
 40
1.0
 40
1.0
 10
11.3698
 20
24.8594
 30
0.0
 10
11.3698
 20
24.8594
 30
0.0
 10
11.3698
 20
33.9739
 30
0.0
 10
11.3698
 20
33.9739
 30
0.0
 10
11.3698
 20
33.9739
 30
0.0
 10
11.3698
 20
33.9739
 30
0.0
 10
9.9073
 20
33.9739
 30
0.0
 10
9.9073
 20
33.9739
 30
0.0
 10
9.9073
 20
33.9739
 30
0.0
 10
9.9073
 20
33.9739
 30
0.0
 10
9.9073
 20
24.8594
 30
0.0
 10
9.9073
 20
24.8594
 30
0.0
 10
9.9073
 20
24.8594
 30
0.0
 10
9.9073
 20
24.8594
 30
0.0
 10
11.3698
 20
24.8594
 30
0.0
 10
11.3698
 20
24.8594
 30
0.0
  0
SPLINE
  5
77
330
1F
100
AcDbEntity
  8
Layer 1
 62
   175
100
AcDbSpline
210
0.0
220
0.0
230
1.0
 70
    11
 71
     3
 72
    28
 73
    24
 74
     0
 42
0.000000001
 43
0.0000000001
 40
0.0
 40
0.0
 40
0.0
 40
0.0
 40
0.1428571428571428
 40
0.1428571428571428
 40
0.1428571428571428
 40
0.1428571428571428
 40
0.2857142857142857
 40
0.2857142857142857
 40
0.2857142857142857
 40
0.2857142857142857
 40
0.4285714285714285
 40
0.4285714285714285
 40
0.4285714285714285
 40
0.4285714285714285
 40
0.5714285714285714
 40
0.5714285714285714
 40
0.5714285714285714
 40
0.5714285714285714
 40
0.7142857142857143
 40
0.7142857142857143
 40
0.7142857142857143
 40
0.7142857142857143
 40
1.0
 40
1.0
 40
1.0
 40
1.0
 10
11.3698
 20
22.0749
 30
0.0
 10
11.3698
 20
22.0749
 30
0.0
 10
11.3698
 20
23.6218
 30
0.0
 10
11.3698
 20
23.6218
 30
0.0
 10
11.3698
 20
23.6218
 30
0.0
 10
11.3698
 20
23.6218
 30
0.0
 10
2.0044
 20
23.6218
 30
0.0
 10
2.0044
 20
23.6218
 30
0.0
 10
2.0044
 20
23.6218
 30
0.0
 10
2.0044
 20
23.6218
 30
0.0
 10
2.0044
 20
22.0749
 30
0.0
 10
2.0044
 20
22.0749
 30
0.0
 10
2.0044
 20
22.0749
 30
0.0
 10
2.0044
 20
22.0749
 30
0.0
 10
6.1073
 20
22.0749
 30
0.0
 10
6.1073
 20
22.0749
 30
0.0
 10
6.1073
 20
22.0749
 30
0.0
 10
6.1073
 20
22.0749
 30
0.0
 10
7.2792
 20
22.0749
 30
0.0
 10
7.2792
 20
22.0749
 30
0.0
 10
7.2792
 20
22.0749
 30
0.0
 10
7.2792
 20
22.0749
 30
0.0
 10
11.3698
 20
22.0749
 30
0.0
 10
11.3698
 20
22.0749
 30
0.0
  0
SPLINE
  5
78
330
1F
100
AcDbEntity
  8
Layer 1
 62
   175
100
AcDbSpline
210
0.0
220
0.0
230
1.0
 70
    11
 71
     3
 72
    20
 73
    16
 74
     0
 42
0.000000001
 43
0.0000000001
 40
0.0
 40
0.0
 40
0.0
 40
0.0
 40
0.2
 40
0.2
 40
0.2
 40
0.2
 40
0.4
 40
0.4
 40
0.4
 40
0.4
 40
0.6
 40
0.6
 40
0.6
 40
0.6
 40
1.0
 40
1.0
 40
1.0
 40
1.0
 10
14.0057
 20
22.0749
 30
0.0
 10
14.0057
 20
22.0749
 30
0.0
 10
14.0057
 20
31.1894
 30
0.0
 10
14.0057
 20
31.1894
 30
0.0
 10
14.0057
 20
31.1894
 30
0.0
 10
14.0057
 20
31.1894
 30
0.0
 10
12.5417
 20
31.1894
 30
0.0
 10
12.5417
 20
31.1894
 30
0.0
 10
12.5417
 20
31.1894
 30
0.0
 10
12.5417
 20
31.1894
 30
0.0
 10
12.5417
 20
22.0749
 30
0.0
 10
12.5417
 20
22.0749
 30
0.0
 10
12.5417
 20
22.0749
 30
0.0
 10
12.5417
 20
22.0749
 30
0.0
 10
14.0057
 20
22.0749
 30
0.0
 10
14.0057
 20
22.0749
 30
0.0
  0
SPLINE
  5
79
330
1F
100
AcDbEntity
  8
Layer 1
 62
   175
100
AcDbSpline
210
0.0
220
0.0
230
1.0
 70
    11
 71
     3
 72
    20
 73
    16
 74
     0
 42
0.000000001
 43
0.0000000001
 40
0.0
 40
0.0
 40
0.0
 40
0.0
 40
0.2
 40
0.2
 40
0.2
 40
0.2
 40
0.4
 40
0.4
 40
0.4
 40
0.4
 40
0.6
 40
0.6
 40
0.6
 40
0.6
 40
1.0
 40
1.0
 40
1.0
 40
1.0
 10
6.1073
 20
19.2904
 30
0.0
 10
6.1073
 20
19.2904
 30
0.0
 10
6.1073
 20
20.8373
 30
0.0
 10
6.1073
 20
20.8373
 30
0.0
 10
6.1073
 20
20.8373
 30
0.0
 10
6.1073
 20
20.8373
 30
0.0
 10
2.8978
 20
20.8373
 30
0.0
 10
2.8978
 20
20.8373
 30
0.0
 10
2.8978
 20
20.8373
 30
0.0
 10
2.8978
 20
20.8373
 30
0.0
 10
2.8978
 20
19.2904
 30
0.0
 10
2.8978
 20
19.2904
 30
0.0
 10
2.8978
 20
19.2904
 30
0.0
 10
2.8978
 20
19.2904
 30
0.0
 10
6.1073
 20
19.2904
 30
0.0
 10
6.1073
 20
19.2904
 30
0.0
  0
SPLINE
  5
7A
330
1F
100
AcDbEntity
  8
Layer 1
 62
   175
100
AcDbSpline
210
0.0
220
0.0
230
1.0
 70
    11
 71
     3
 72
    20
 73
    16
 74
     0
 42
0.000000001
 43
0.0000000001
 40
0.0
 40
0.0
 40
0.0
 40
0.0
 40
0.2
 40
0.2
 40
0.2
 40
0.2
 40
0.4
 40
0.4
 40
0.4
 40
0.4
 40
0.6
 40
0.6
 40
0.6
 40
0.6
 40
1.0
 40
1.0
 40
1.0
 40
1.0
 10
14.0057
 20
19.2904
 30
0.0
 10
14.0057
 20
19.2904
 30
0.0
 10
14.0057
 20
20.8373
 30
0.0
 10
14.0057
 20
20.8373
 30
0.0
 10
14.0057
 20
20.8373
 30
0.0
 10
14.0057
 20
20.8373
 30
0.0
 10
7.2792
 20
20.8373
 30
0.0
 10
7.2792
 20
20.8373
 30
0.0
 10
7.2792
 20
20.8373
 30
0.0
 10
7.2792
 20
20.8373
 30
0.0
 10
7.2792
 20
19.2904
 30
0.0
 10
7.2792
 20
19.2904
 30
0.0
 10
7.2792
 20
19.2904
 30
0.0
 10
7.2792
 20
19.2904
 30
0.0
 10
14.0057
 20
19.2904
 30
0.0
 10
14.0057
 20
19.2904
 30
0.0
  0
SPLINE
  5
7B
330
1F
100
AcDbEntity
  8
Layer 1
 62
   175
100
AcDbSpline
210
0.0
220
0.0
230
1.0
 70
    11
 71
     3
 72
    20
 73
    16
 74
     0
 42
0.000000001
 43
0.0000000001
 40
0.0
 40
0.0
 40
0.0
 40
0.0
 40
0.2
 40
0.2
 40
0.2
 40
0.2
 40
0.4
 40
0.4
 40
0.4
 40
0.4
 40
0.6
 40
0.6
 40
0.6
 40
0.6
 40
1.0
 40
1.0
 40
1.0
 40
1.0
 10
11.3698
 20
16.6621
 30
0.0
 10
11.3698
 20
16.6621
 30
0.0
 10
11.3698
 20
18.0528
 30
0.0
 10
11.3698
 20
18.0528
 30
0.0
 10
11.3698
 20
18.0528
 30
0.0
 10
11.3698
 20
18.0528
 30
0.0
 10
2.0044
 20
18.0528
 30
0.0
 10
2.0044
 20
18.0528
 30
0.0
 10
2.0044
 20
18.0528
 30
0.0
 10
2.0044
 20
18.0528
 30
0.0
 10
2.0044
 20
16.6621
 30
0.0
 10
2.0044
 20
16.6621
 30
0.0
 10
2.0044
 20
16.6621
 30
0.0
 10
2.0044
 20
16.6621
 30
0.0
 10
11.3698
 20
16.6621
 30
0.0
 10
11.3698
 20
16.6621
 30
0.0
  0
SPLINE
  5
7C
330
1F
100
AcDbEntity
  8
Layer 1
 62
   175
100
AcDbSpline
210
0.0
220
0.0
230
1.0
 70
    11
 71
     3
 72
    20
 73
    16
 74
     0
 42
0.000000001
 43
0.0000000001
 40
0.0
 40
0.0
 40
0.0
 40
0.0
 40
0.2
 40
0.2
 40
0.2
 40
0.2
 40
0.4
 40
0.4
 40
0.4
 40
0.4
 40
0.6
 40
0.6
 40
0.6
 40
0.6
 40
1.0
 40
1.0
 40
1.0
 40
1.0
 10
8.737
 20
14.0354
 30
0.0
 10
8.737
 20
14.0354
 30
0.0
 10
8.737
 20
15.4246
 30
0.0
 10
8.737
 20
15.4246
 30
0.0
 10
8.737
 20
15.4246
 30
0.0
 10
8.737
 20
15.4246
 30
0.0
 10
4.6418
 20
15.4246
 30
0.0
 10
4.6418
 20
15.4246
 30
0.0
 10
4.6418
 20
15.4246
 30
0.0
 10
4.6418
 20
15.4246
 30
0.0
 10
4.6418
 20
14.0354
 30
0.0
 10
4.6418
 20
14.0354
 30
0.0
 10
4.6418
 20
14.0354
 30
0.0
 10
4.6418
 20
14.0354
 30
0.0
 10
8.737
 20
14.0354
 30
0.0
 10
8.737
 20
14.0354
 30
0.0
  0
SPLINE
  5
7D
330
1F
100
AcDbEntity
  8
Layer 1
 62
   175
100
AcDbSpline
210
0.0
220
0.0
230
1.0
 70
    11
 71
     3
 72
    20
 73
    16
 74
     0
 42
0.000000001
 43
0.0000000001
 40
0.0
 40
0.0
 40
0.0
 40
0.0
 40
0.2
 40
0.2
 40
0.2
 40
0.2
 40
0.4
 40
0.4
 40
0.4
 40
0.4
 40
0.6
 40
0.6
 40
0.6
 40
0.6
 40
1.0
 40
1.0
 40
1.0
 40
1.0
 10
11.3698
 20
11.7227
 30
0.0
 10
11.3698
 20
11.7227
 30
0.0
 10
11.3698
 20
15.4246
 30
0.0
 10
11.3698
 20
15.4246
 30
0.0
 10
11.3698
 20
15.4246
 30
0.0
 10
11.3698
 20
15.4246
 30
0.0
 10
9.9073
 20
15.4246
 30
0.0
 10
9.9073
 20
15.4246
 30
0.0
 10
9.9073
 20
15.4246
 30
0.0
 10
9.9073
 20
15.4246
 30
0.0
 10
9.9073
 20
11.7227
 30
0.0
 10
9.9073
 20
11.7227
 30
0.0
 10
9.9073
 20
11.7227
 30
0.0
 10
9.9073
 20
11.7227
 30
0.0
 10
11.3698
 20
11.7227
 30
0.0
 10
11.3698
 20
11.7227
 30
0.0
  0
SPLINE
  5
7E
330
1F
100
AcDbEntity
  8
Layer 1
 62
   175
100
AcDbSpline
210
0.0
220
0.0
230
1.0
 70
    11
 71
     3
 72
    20
 73
    16
 74
     0
 42
0.000000001
 43
0.0000000001
 40
0.0
 40
0.0
 40
0.0
 40
0.0
 40
0.2
 40
0.2
 40
0.2
 40
0.2
 40
0.4
 40
0.4
 40
0.4
 40
0.4
 40
0.6
 40
0.6
 40
0.6
 40
0.6
 40
1.0
 40
1.0
 40
1.0
 40
1.0
 10
14.0057
 20
11.7227
 30
0.0
 10
14.0057
 20
11.7227
 30
0.0
 10
14.0057
 20
18.0528
 30
0.0
 10
14.0057
 20
18.0528
 30
0.0
 10
14.0057
 20
18.0528
 30
0.0
 10
14.0057
 20
18.0528
 30
0.0
 10
12.5417
 20
18.0528
 30
0.0
 10
12.5417
 20
18.0528
 30
0.0
 10
12.5417
 20
18.0528
 30
0.0
 10
12.5417
 20
18.0528
 30
0.0
 10
12.5417
 20
11.7227
 30
0.0
 10
12.5417
 20
11.7227
 30
0.0
 10
12.5417
 20
11.7227
 30
0.0
 10
12.5417
 20
11.7227
 30
0.0
 10
14.0057
 20
11.7227
 30
0.0
 10
14.0057
 20
11.7227
 30
0.0
  0
SPLINE
  5
7F
330
1F
100
AcDbEntity
  8
Layer 1
 62
   175
100
AcDbSpline
210
0.0
220
0.0
230
1.0
 70
    11
 71
     3
 72
    28
 73
    24
 74
     0
 42
0.000000001
 43
0.0000000001
 40
0.0
 40
0.0
 40
0.0
 40
0.0
 40
0.1428571428571428
 40
0.1428571428571428
 40
0.1428571428571428
 40
0.1428571428571428
 40
0.2857142857142857
 40
0.2857142857142857
 40
0.2857142857142857
 40
0.2857142857142857
 40
0.4285714285714285
 40
0.4285714285714285
 40
0.4285714285714285
 40
0.4285714285714285
 40
0.5714285714285714
 40
0.5714285714285714
 40
0.5714285714285714
 40
0.5714285714285714
 40
0.7142857142857143
 40
0.7142857142857143
 40
0.7142857142857143
 40
0.7142857142857143
 40
1.0
 40
1.0
 40
1.0
 40
1.0
 10
3.47
 20
5.3664
 30
0.0
 10
3.47
 20
5.3664
 30
0.0
 10
3.47
 20
12.7979
 30
0.0
 10
3.47
 20
12.7979
 30
0.0
 10
3.47
 20
12.7979
 30
0.0
 10
3.47
 20
12.7979
 30
0.0
 10
3.47
 20
14.0354
 30
0.0
 10
3.47
 20
14.0354
 30
0.0
 10
3.47
 20
14.0354
 30
0.0
 10
3.47
 20
14.0354
 30
0.0
 10
3.47
 20
15.4246
 30
0.0
 10
3.47
 20
15.4246
 30
0.0
 10
3.47
 20
15.4246
 30
0.0
 10
3.47
 20
15.4246
 30
0.0
 10
2.0044
 20
15.4246
 30
0.0
 10
2.0044
 20
15.4246
 30
0.0
 10
2.0044
 20
15.4246
 30
0.0
 10
2.0044
 20
15.4246
 30
0.0
 10
2.0044
 20
5.3664
 30
0.0
 10
2.0044
 20
5.3664
 30
0.0
 10
2.0044
 20
5.3664
 30
0.0
 10
2.0044
 20
5.3664
 30
0.0
 10
3.47
 20
5.3664
 30
0.0
 10
3.47
 20
5.3664
 30
0.0
  0
SPLINE
  5
80
330
1F
100
AcDbEntity
  8
Layer 1
 62
   175
100
AcDbSpline
210
0.0
220
0.0
230
1.0
 70
    11
 71
     3
 72
    28
 73
    24
 74
     0
 42
0.000000001
 43
0.0000000001
 40
0.0
 40
0.0
 40
0.0
 40
0.0
 40
0.1428571428571428
 40
0.1428571428571428
 40
0.1428571428571428
 40
0.1428571428571428
 40
0.2857142857142857
 40
0.2857142857142857
 40
0.2857142857142857
 40
0.2857142857142857
 40
0.4285714285714285
 40
0.4285714285714285
 40
0.4285714285714285
 40
0.4285714285714285
 40
0.5714285714285714
 40
0.5714285714285714
 40
0.5714285714285714
 40
0.5714285714285714
 40
0.7142857142857143
 40
0.7142857142857143
 40
0.7142857142857143
 40
0.7142857142857143
 40
1.0
 40
1.0
 40
1.0
 40
1.0
 10
8.737
 20
8.468
 30
0.0
 10
8.737
 20
8.468
 30
0.0
 10
8.737
 20
12.7979
 30
0.0
 10
8.737
 20
12.7979
 30
0.0
 10
8.737
 20
12.7979
 30
0.0
 10
8.737
 20
12.7979
 30
0.0
 10
7.2792
 20
12.7979
 30
0.0
 10
7.2792
 20
12.7979
 30
0.0
 10
7.2792
 20
12.7979
 30
0.0
 10
7.2792
 20
12.7979
 30
0.0
 10
7.2792
 20
6.6967
 30
0.0
 10
7.2792
 20
6.6967
 30
0.0
 10
7.2792
 20
6.6967
 30
0.0
 10
7.2792
 20
6.6967
 30
0.0
 10
7.7121
 20
7.3124
 30
0.0
 10
7.7121
 20
7.3124
 30
0.0
 10
7.7121
 20
7.3124
 30
0.0
 10
7.7121
 20
7.3124
 30
0.0
 10
8.1343
 20
7.8306
 30
0.0
 10
8.1343
 20
7.8306
 30
0.0
 10
8.1343
 20
7.8306
 30
0.0
 10
8.1343
 20
7.8306
 30
0.0
 10
8.737
 20
8.468
 30
0.0
 10
8.737
 20
8.468
 30
0.0
  0
SPLINE
  5
81
330
1F
100
AcDbEntity
  8
Layer 1
 62
   175
100
AcDbSpline
210
0.0
220
0.0
230
1.0
 70
    11
 71
     3
 72
    24
 73
    20
 74
     0
 42
0.000000001
 43
0.0000000001
 40
0.0
 40
0.0
 40
0.0
 40
0.0
 40
0.1666666666666667
 40
0.1666666666666667
 40
0.1666666666666667
 40
0.1666666666666667
 40
0.3333333333333333
 40
0.3333333333333333
 40
0.3333333333333333
 40
0.3333333333333333
 40
0.5
 40
0.5
 40
0.5
 40
0.5
 40
0.6666666666666666
 40
0.6666666666666666
 40
0.6666666666666666
 40
0.6666666666666666
 40
1.0
 40
1.0
 40
1.0
 40
1.0
 10
11.3698
 20
10.2114
 30
0.0
 10
11.3698
 20
10.2114
 30
0.0
 10
11.3698
 20
10.4852
 30
0.0
 10
11.3698
 20
10.4852
 30
0.0
 10
11.3698
 20
10.4852
 30
0.0
 10
11.3698
 20
10.4852
 30
0.0
 10
9.9073
 20
10.4852
 30
0.0
 10
9.9073
 20
10.4852
 30
0.0
 10
9.9073
 20
10.4852
 30
0.0
 10
9.9073
 20
10.4852
 30
0.0
 10
9.9073
 20
9.424
 30
0.0
 10
9.9073
 20
9.424
 30
0.0
 10
9.9073
 20
9.424
 30
0.0
 10
9.9073
 20
9.424
 30
0.0
 10
10.7854
 20
9.9329
 30
0.0
 10
10.7854
 20
9.9329
 30
0.0
 10
10.7854
 20
9.9329
 30
0.0
 10
10.7854
 20
9.9329
 30
0.0
 10
11.3698
 20
10.2114
 30
0.0
 10
11.3698
 20
10.2114
 30
0.0
  0
SPLINE
  5
82
330
1F
100
AcDbEntity
  8
Layer 1
 62
   175
100
AcDbSpline
210
0.0
220
0.0
230
1.0
 70
    11
 71
     3
 72
    20
 73
    16
 74
     0
 42
0.000000001
 43
0.0000000001
 40
0.0
 40
0.0
 40
0.0
 40
0.0
 40
0.2
 40
0.2
 40
0.2
 40
0.2
 40
0.4
 40
0.4
 40
0.4
 40
0.4
 40
0.6
 40
0.6
 40
0.6
 40
0.6
 40
1.0
 40
1.0
 40
1.0
 40
1.0
 10
3.47
 20
1.4897
 30
0.0
 10
3.47
 20
1.4897
 30
0.0
 10
3.47
 20
4.1288
 30
0.0
 10
3.47
 20
4.1288
 30
0.0
 10
3.47
 20
4.1288
 30
0.0
 10
3.47
 20
4.1288
 30
0.0
 10
2.0044
 20
4.1288
 30
0.0
 10
2.0044
 20
4.1288
 30
0.0
 10
2.0044
 20
4.1288
 30
0.0
 10
2.0044
 20
4.1288
 30
0.0
 10
2.0044
 20
1.4897
 30
0.0
 10
2.0044
 20
1.4897
 30
0.0
 10
2.0044
 20
1.4897
 30
0.0
 10
2.0044
 20
1.4897
 30
0.0
 10
3.47
 20
1.4897
 30
0.0
 10
3.47
 20
1.4897
 30
0.0
  0
SPLINE
  5
83
330
1F
100
AcDbEntity
  8
Layer 1
 62
   175
100
AcDbSpline
210
0.0
220
0.0
230
1.0
 70
    11
 71
     3
 72
    28
 73
    24
 74
     0
 42
0.000000001
 43
0.0000000001
 40
0.0
 40
0.0
 40
0.0
 40
0.0
 40
0.1428571428571428
 40
0.1428571428571428
 40
0.1428571428571428
 40
0.1428571428571428
 40
0.2857142857142857
 40
0.2857142857142857
 40
0.2857142857142857
 40
0.2857142857142857
 40
0.4285714285714285
 40
0.4285714285714285
 40
0.4285714285714285
 40
0.4285714285714285
 40
0.5714285714285714
 40
0.5714285714285714
 40
0.5714285714285714
 40
0.5714285714285714
 40
0.7142857142857143
 40
0.7142857142857143
 40
0.7142857142857143
 40
0.7142857142857143
 40
1.0
 40
1.0
 40
1.0
 40
1.0
 10
5.3302
 20
1.4897
 30
0.0
 10
5.3302
 20
1.4897
 30
0.0
 10
5.6453
 20
2.9965
 30
0.0
 10
5.6453
 20
2.9965
 30
0.0
 10
5.6453
 20
2.9965
 30
0.0
 10
5.6453
 20
2.9965
 30
0.0
 10
6.1073
 20
4.415
 30
0.0
 10
6.1073
 20
4.415
 30
0.0
 10
6.1073
 20
4.415
 30
0.0
 10
6.1073
 20
4.415
 30
0.0
 10
6.1073
 20
12.7979
 30
0.0
 10
6.1073
 20
12.7979
 30
0.0
 10
6.1073
 20
12.7979
 30
0.0
 10
6.1073
 20
12.7979
 30
0.0
 10
4.6418
 20
12.7979
 30
0.0
 10
4.6418
 20
12.7979
 30
0.0
 10
4.6418
 20
12.7979
 30
0.0
 10
4.6418
 20
12.7979
 30
0.0
 10
4.6418
 20
1.4897
 30
0.0
 10
4.6418
 20
1.4897
 30
0.0
 10
4.6418
 20
1.4897
 30
0.0
 10
4.6418
 20
1.4897
 30
0.0
 10
5.3302
 20
1.4897
 30
0.0
 10
5.3302
 20
1.4897
 30
0.0
  0
SPLINE
  5
84
330
1F
100
AcDbEntity
  8
Layer 1
 62
   175
100
AcDbSpline
210
0.0
220
0.0
230
1.0
 70
    11
 71
     3
 72
    20
 73
    16
 74
     0
 42
0.000000001
 43
0.0000000001
 40
0.0
 40
0.0
 40
0.0
 40
0.0
 40
0.2
 40
0.2
 40
0.2
 40
0.2
 40
0.4
 40
0.4
 40
0.4
 40
0.4
 40
0.6
 40
0.6
 40
0.6
 40
0.6
 40
1.0
 40
1.0
 40
1.0
 40
1.0
 10
12.5417
 20
-33.9738
 30
0.0
 10
12.5417
 20
-33.9738
 30
0.0
 10
12.5417
 20
-32.4269
 30
0.0
 10
12.5417
 20
-32.4269
 30
0.0
 10
12.5417
 20
-32.4269
 30
0.0
 10
12.5417
 20
-32.4269
 30
0.0
 10
14.0057
 20
-32.4269
 30
0.0
 10
14.0057
 20
-32.4269
 30
0.0
 10
14.0057
 20
-32.4269
 30
0.0
 10
14.0057
 20
-32.4269
 30
0.0
 10
14.0057
 20
-33.9738
 30
0.0
 10
14.0057
 20
-33.9738
 30
0.0
 10
14.0057
 20
-33.9738
 30
0.0
 10
14.0057
 20
-33.9738
 30
0.0
 10
12.5417
 20
-33.9738
 30
0.0
 10
12.5417
 20
-33.9738
 30
0.0
  0
SPLINE
  5
85
330
1F
100
AcDbEntity
  8
Layer 1
 62
   175
100
AcDbSpline
210
0.0
220
0.0
230
1.0
 70
    11
 71
     3
 72
    28
 73
    24
 74
     0
 42
0.000000001
 43
0.0000000001
 40
0.0
 40
0.0
 40
0.0
 40
0.0
 40
0.1428571428571428
 40
0.1428571428571428
 40
0.1428571428571428
 40
0.1428571428571428
 40
0.2857142857142857
 40
0.2857142857142857
 40
0.2857142857142857
 40
0.2857142857142857
 40
0.4285714285714285
 40
0.4285714285714285
 40
0.4285714285714285
 40
0.4285714285714285
 40
0.5714285714285714
 40
0.5714285714285714
 40
0.5714285714285714
 40
0.5714285714285714
 40
0.7142857142857143
 40
0.7142857142857143
 40
0.7142857142857143
 40
0.7142857142857143
 40
1.0
 40
1.0
 40
1.0
 40
1.0
 10
11.3698
 20
-35.2114
 30
0.0
 10
11.3698
 20
-35.2114
 30
0.0
 10
12.5417
 20
-35.2114
 30
0.0
 10
12.5417
 20
-35.2114
 30
0.0
 10
12.5417
 20
-35.2114
 30
0.0
 10
12.5417
 20
-35.2114
 30
0.0
 10
12.8996
 20
-35.2114
 30
0.0
 10
12.8996
 20
-35.2114
 30
0.0
 10
12.8996
 20
-35.2114
 30
0.0
 10
12.8996
 20
-35.2114
 30
0.0
 10
12.8996
 20
-36.7583
 30
0.0
 10
12.8996
 20
-36.7583
 30
0.0
 10
12.8996
 20
-36.7583
 30
0.0
 10
12.8996
 20
-36.7583
 30
0.0
 10
9.9073
 20
-36.7583
 30
0.0
 10
9.9073
 20
-36.7583
 30
0.0
 10
9.9073
 20
-36.7583
 30
0.0
 10
9.9073
 20
-36.7583
 30
0.0
 10
9.9073
 20
-35.2114
 30
0.0
 10
9.9073
 20
-35.2114
 30
0.0
 10
9.9073
 20
-35.2114
 30
0.0
 10
9.9073
 20
-35.2114
 30
0.0
 10
11.3698
 20
-35.2114
 30
0.0
 10
11.3698
 20
-35.2114
 30
0.0
  0
SPLINE
  5
86
330
1F
100
AcDbEntity
  8
Layer 1
 62
   175
100
AcDbSpline
210
0.0
220
0.0
230
1.0
 70
    11
 71
     3
 72
    20
 73
    16
 74
     0
 42
0.000000001
 43
0.0000000001
 40
0.0
 40
0.0
 40
0.0
 40
0.0
 40
0.2
 40
0.2
 40
0.2
 40
0.2
 40
0.4
 40
0.4
 40
0.4
 40
0.4
 40
0.6
 40
0.6
 40
0.6
 40
0.6
 40
1.0
 40
1.0
 40
1.0
 40
1.0
 10
7.2792
 20
-28.5858
 30
0.0
 10
7.2792
 20
-28.5858
 30
0.0
 10
8.737
 20
-28.5858
 30
0.0
 10
8.737
 20
-28.5858
 30
0.0
 10
8.737
 20
-28.5858
 30
0.0
 10
8.737
 20
-28.5858
 30
0.0
 10
8.737
 20
-34.2894
 30
0.0
 10
8.737
 20
-34.2894
 30
0.0
 10
8.737
 20
-34.2894
 30
0.0
 10
8.737
 20
-34.2894
 30
0.0
 10
7.2792
 20
-34.2894
 30
0.0
 10
7.2792
 20
-34.2894
 30
0.0
 10
7.2792
 20
-34.2894
 30
0.0
 10
7.2792
 20
-34.2894
 30
0.0
 10
7.2792
 20
-28.5858
 30
0.0
 10
7.2792
 20
-28.5858
 30
0.0
  0
SPLINE
  5
87
330
1F
100
AcDbEntity
  8
Layer 1
 62
   175
100
AcDbSpline
210
0.0
220
0.0
230
1.0
 70
    11
 71
     3
 72
    32
 73
    28
 74
     0
 42
0.000000001
 43
0.0000000001
 40
0.0
 40
0.0
 40
0.0
 40
0.0
 40
0.125
 40
0.125
 40
0.125
 40
0.125
 40
0.25
 40
0.25
 40
0.25
 40
0.25
 40
0.375
 40
0.375
 40
0.375
 40
0.375
 40
0.5
 40
0.5
 40
0.5
 40
0.5
 40
0.625
 40
0.625
 40
0.625
 40
0.625
 40
0.75
 40
0.75
 40
0.75
 40
0.75
 40
1.0
 40
1.0
 40
1.0
 40
1.0
 10
6.1073
 20
-36.7583
 30
0.0
 10
6.1073
 20
-36.7583
 30
0.0
 10
4.6418
 20
-36.7583
 30
0.0
 10
4.6418
 20
-36.7583
 30
0.0
 10
4.6418
 20
-36.7583
 30
0.0
 10
4.6418
 20
-36.7583
 30
0.0
 10
4.6418
 20
-36.1891
 30
0.0
 10
4.6418
 20
-36.1891
 30
0.0
 10
4.6418
 20
-36.1891
 30
0.0
 10
4.6418
 20
-36.1891
 30
0.0
 10
4.6418
 20
-35.2114
 30
0.0
 10
4.6418
 20
-35.2114
 30
0.0
 10
4.6418
 20
-35.2114
 30
0.0
 10
4.6418
 20
-35.2114
 30
0.0
 10
4.6418
 20
-33.9738
 30
0.0
 10
4.6418
 20
-33.9738
 30
0.0
 10
4.6418
 20
-33.9738
 30
0.0
 10
4.6418
 20
-33.9738
 30
0.0
 10
4.6418
 20
-28.5858
 30
0.0
 10
4.6418
 20
-28.5858
 30
0.0
 10
4.6418
 20
-28.5858
 30
0.0
 10
4.6418
 20
-28.5858
 30
0.0
 10
6.1073
 20
-28.5858
 30
0.0
 10
6.1073
 20
-28.5858
 30
0.0
 10
6.1073
 20
-28.5858
 30
0.0
 10
6.1073
 20
-28.5858
 30
0.0
 10
6.1073
 20
-36.7583
 30
0.0
 10
6.1073
 20
-36.7583
 30
0.0
  0
SPLINE
  5
88
330
1F
100
AcDbEntity
  8
Layer 1
 62
   175
100
AcDbSpline
210
0.0
220
0.0
230
1.0
 70
    11
 71
     3
 72
    20
 73
    16
 74
     0
 42
0.000000001
 43
0.0000000001
 40
0.0
 40
0.0
 40
0.0
 40
0.0
 40
0.2
 40
0.2
 40
0.2
 40
0.2
 40
0.4
 40
0.4
 40
0.4
 40
0.4
 40
0.6
 40
0.6
 40
0.6
 40
0.6
 40
1.0
 40
1.0
 40
1.0
 40
1.0
 10
3.47
 20
-25.8014
 30
0.0
 10
3.47
 20
-25.8014
 30
0.0
 10
3.47
 20
-33.9738
 30
0.0
 10
3.47
 20
-33.9738
 30
0.0
 10
3.47
 20
-33.9738
 30
0.0
 10
3.47
 20
-33.9738
 30
0.0
 10
2.0044
 20
-33.9738
 30
0.0
 10
2.0044
 20
-33.9738
 30
0.0
 10
2.0044
 20
-33.9738
 30
0.0
 10
2.0044
 20
-33.9738
 30
0.0
 10
2.0044
 20
-25.8014
 30
0.0
 10
2.0044
 20
-25.8014
 30
0.0
 10
2.0044
 20
-25.8014
 30
0.0
 10
2.0044
 20
-25.8014
 30
0.0
 10
3.47
 20
-25.8014
 30
0.0
 10
3.47
 20
-25.8014
 30
0.0
  0
SPLINE
  5
89
330
1F
100
AcDbEntity
  8
Layer 1
 62
   175
100
AcDbSpline
210
0.0
220
0.0
230
1.0
 70
    11
 71
     3
 72
    20
 73
    16
 74
     0
 42
0.000000001
 43
0.0000000001
 40
0.0
 40
0.0
 40
0.0
 40
0.0
 40
0.2
 40
0.2
 40
0.2
 40
0.2
 40
0.4
 40
0.4
 40
0.4
 40
0.4
 40
0.6
 40
0.6
 40
0.6
 40
0.6
 40
1.0
 40
1.0
 40
1.0
 40
1.0
 10
8.737
 20
-25.8014
 30
0.0
 10
8.737
 20
-25.8014
 30
0.0
 10
8.737
 20
-27.3483
 30
0.0
 10
8.737
 20
-27.3483
 30
0.0
 10
8.737
 20
-27.3483
 30
0.0
 10
8.737
 20
-27.3483
 30
0.0
 10
4.6418
 20
-27.3483
 30
0.0
 10
4.6418
 20
-27.3483
 30
0.0
 10
4.6418
 20
-27.3483
 30
0.0
 10
4.6418
 20
-27.3483
 30
0.0
 10
4.6418
 20
-25.8014
 30
0.0
 10
4.6418
 20
-25.8014
 30
0.0
 10
4.6418
 20
-25.8014
 30
0.0
 10
4.6418
 20
-25.8014
 30
0.0
 10
8.737
 20
-25.8014
 30
0.0
 10
8.737
 20
-25.8014
 30
0.0
  0
SPLINE
  5
8A
330
1F
100
AcDbEntity
  8
Layer 1
 62
   175
100
AcDbSpline
210
0.0
220
0.0
230
1.0
 70
    11
 71
     3
 72
    20
 73
    16
 74
     0
 42
0.000000001
 43
0.0000000001
 40
0.0
 40
0.0
 40
0.0
 40
0.0
 40
0.2
 40
0.2
 40
0.2
 40
0.2
 40
0.4
 40
0.4
 40
0.4
 40
0.4
 40
0.6
 40
0.6
 40
0.6
 40
0.6
 40
1.0
 40
1.0
 40
1.0
 40
1.0
 10
11.3698
 20
-25.8014
 30
0.0
 10
11.3698
 20
-25.8014
 30
0.0
 10
11.3698
 20
-33.9738
 30
0.0
 10
11.3698
 20
-33.9738
 30
0.0
 10
11.3698
 20
-33.9738
 30
0.0
 10
11.3698
 20
-33.9738
 30
0.0
 10
9.9073
 20
-33.9738
 30
0.0
 10
9.9073
 20
-33.9738
 30
0.0
 10
9.9073
 20
-33.9738
 30
0.0
 10
9.9073
 20
-33.9738
 30
0.0
 10
9.9073
 20
-25.8014
 30
0.0
 10
9.9073
 20
-25.8014
 30
0.0
 10
9.9073
 20
-25.8014
 30
0.0
 10
9.9073
 20
-25.8014
 30
0.0
 10
11.3698
 20
-25.8014
 30
0.0
 10
11.3698
 20
-25.8014
 30
0.0
  0
SPLINE
  5
8B
330
1F
100
AcDbEntity
  8
Layer 1
 62
   175
100
AcDbSpline
210
0.0
220
0.0
230
1.0
 70
    11
 71
     3
 72
    28
 73
    24
 74
     0
 42
0.000000001
 43
0.0000000001
 40
0.0
 40
0.0
 40
0.0
 40
0.0
 40
0.1428571428571428
 40
0.1428571428571428
 40
0.1428571428571428
 40
0.1428571428571428
 40
0.2857142857142857
 40
0.2857142857142857
 40
0.2857142857142857
 40
0.2857142857142857
 40
0.4285714285714285
 40
0.4285714285714285
 40
0.4285714285714285
 40
0.4285714285714285
 40
0.5714285714285714
 40
0.5714285714285714
 40
0.5714285714285714
 40
0.5714285714285714
 40
0.7142857142857143
 40
0.7142857142857143
 40
0.7142857142857143
 40
0.7142857142857143
 40
1.0
 40
1.0
 40
1.0
 40
1.0
 10
11.3698
 20
-23.0169
 30
0.0
 10
11.3698
 20
-23.0169
 30
0.0
 10
11.3698
 20
-24.5638
 30
0.0
 10
11.3698
 20
-24.5638
 30
0.0
 10
11.3698
 20
-24.5638
 30
0.0
 10
11.3698
 20
-24.5638
 30
0.0
 10
2.0044
 20
-24.5638
 30
0.0
 10
2.0044
 20
-24.5638
 30
0.0
 10
2.0044
 20
-24.5638
 30
0.0
 10
2.0044
 20
-24.5638
 30
0.0
 10
2.0044
 20
-23.0169
 30
0.0
 10
2.0044
 20
-23.0169
 30
0.0
 10
2.0044
 20
-23.0169
 30
0.0
 10
2.0044
 20
-23.0169
 30
0.0
 10
6.1073
 20
-23.0169
 30
0.0
 10
6.1073
 20
-23.0169
 30
0.0
 10
6.1073
 20
-23.0169
 30
0.0
 10
6.1073
 20
-23.0169
 30
0.0
 10
7.2792
 20
-23.0169
 30
0.0
 10
7.2792
 20
-23.0169
 30
0.0
 10
7.2792
 20
-23.0169
 30
0.0
 10
7.2792
 20
-23.0169
 30
0.0
 10
11.3698
 20
-23.0169
 30
0.0
 10
11.3698
 20
-23.0169
 30
0.0
  0
SPLINE
  5
8C
330
1F
100
AcDbEntity
  8
Layer 1
 62
   175
100
AcDbSpline
210
0.0
220
0.0
230
1.0
 70
    11
 71
     3
 72
    20
 73
    16
 74
     0
 42
0.000000001
 43
0.0000000001
 40
0.0
 40
0.0
 40
0.0
 40
0.0
 40
0.2
 40
0.2
 40
0.2
 40
0.2
 40
0.4
 40
0.4
 40
0.4
 40
0.4
 40
0.6
 40
0.6
 40
0.6
 40
0.6
 40
1.0
 40
1.0
 40
1.0
 40
1.0
 10
14.0057
 20
-23.0169
 30
0.0
 10
14.0057
 20
-23.0169
 30
0.0
 10
14.0057
 20
-31.1893
 30
0.0
 10
14.0057
 20
-31.1893
 30
0.0
 10
14.0057
 20
-31.1893
 30
0.0
 10
14.0057
 20
-31.1893
 30
0.0
 10
12.5417
 20
-31.1893
 30
0.0
 10
12.5417
 20
-31.1893
 30
0.0
 10
12.5417
 20
-31.1893
 30
0.0
 10
12.5417
 20
-31.1893
 30
0.0
 10
12.5417
 20
-23.0169
 30
0.0
 10
12.5417
 20
-23.0169
 30
0.0
 10
12.5417
 20
-23.0169
 30
0.0
 10
12.5417
 20
-23.0169
 30
0.0
 10
14.0057
 20
-23.0169
 30
0.0
 10
14.0057
 20
-23.0169
 30
0.0
  0
SPLINE
  5
8D
330
1F
100
AcDbEntity
  8
Layer 1
 62
   175
100
AcDbSpline
210
0.0
220
0.0
230
1.0
 70
    11
 71
     3
 72
    20
 73
    16
 74
     0
 42
0.000000001
 43
0.0000000001
 40
0.0
 40
0.0
 40
0.0
 40
0.0
 40
0.2
 40
0.2
 40
0.2
 40
0.2
 40
0.4
 40
0.4
 40
0.4
 40
0.4
 40
0.6
 40
0.6
 40
0.6
 40
0.6
 40
1.0
 40
1.0
 40
1.0
 40
1.0
 10
6.1073
 20
-20.2324
 30
0.0
 10
6.1073
 20
-20.2324
 30
0.0
 10
6.1073
 20
-21.7793
 30
0.0
 10
6.1073
 20
-21.7793
 30
0.0
 10
6.1073
 20
-21.7793
 30
0.0
 10
6.1073
 20
-21.7793
 30
0.0
 10
2.8978
 20
-21.7793
 30
0.0
 10
2.8978
 20
-21.7793
 30
0.0
 10
2.8978
 20
-21.7793
 30
0.0
 10
2.8978
 20
-21.7793
 30
0.0
 10
2.8978
 20
-20.2324
 30
0.0
 10
2.8978
 20
-20.2324
 30
0.0
 10
2.8978
 20
-20.2324
 30
0.0
 10
2.8978
 20
-20.2324
 30
0.0
 10
6.1073
 20
-20.2324
 30
0.0
 10
6.1073
 20
-20.2324
 30
0.0
  0
SPLINE
  5
8E
330
1F
100
AcDbEntity
  8
Layer 1
 62
   175
100
AcDbSpline
210
0.0
220
0.0
230
1.0
 70
    11
 71
     3
 72
    20
 73
    16
 74
     0
 42
0.000000001
 43
0.0000000001
 40
0.0
 40
0.0
 40
0.0
 40
0.0
 40
0.2
 40
0.2
 40
0.2
 40
0.2
 40
0.4
 40
0.4
 40
0.4
 40
0.4
 40
0.6
 40
0.6
 40
0.6
 40
0.6
 40
1.0
 40
1.0
 40
1.0
 40
1.0
 10
14.0057
 20
-20.2324
 30
0.0
 10
14.0057
 20
-20.2324
 30
0.0
 10
14.0057
 20
-21.7793
 30
0.0
 10
14.0057
 20
-21.7793
 30
0.0
 10
14.0057
 20
-21.7793
 30
0.0
 10
14.0057
 20
-21.7793
 30
0.0
 10
7.2792
 20
-21.7793
 30
0.0
 10
7.2792
 20
-21.7793
 30
0.0
 10
7.2792
 20
-21.7793
 30
0.0
 10
7.2792
 20
-21.7793
 30
0.0
 10
7.2792
 20
-20.2324
 30
0.0
 10
7.2792
 20
-20.2324
 30
0.0
 10
7.2792
 20
-20.2324
 30
0.0
 10
7.2792
 20
-20.2324
 30
0.0
 10
14.0057
 20
-20.2324
 30
0.0
 10
14.0057
 20
-20.2324
 30
0.0
  0
SPLINE
  5
8F
330
1F
100
AcDbEntity
  8
Layer 1
 62
   175
100
AcDbSpline
210
0.0
220
0.0
230
1.0
 70
    11
 71
     3
 72
    20
 73
    16
 74
     0
 42
0.000000001
 43
0.0000000001
 40
0.0
 40
0.0
 40
0.0
 40
0.0
 40
0.2
 40
0.2
 40
0.2
 40
0.2
 40
0.4
 40
0.4
 40
0.4
 40
0.4
 40
0.6
 40
0.6
 40
0.6
 40
0.6
 40
1.0
 40
1.0
 40
1.0
 40
1.0
 10
11.3698
 20
-17.6057
 30
0.0
 10
11.3698
 20
-17.6057
 30
0.0
 10
11.3698
 20
-18.9948
 30
0.0
 10
11.3698
 20
-18.9948
 30
0.0
 10
11.3698
 20
-18.9948
 30
0.0
 10
11.3698
 20
-18.9948
 30
0.0
 10
2.0044
 20
-18.9948
 30
0.0
 10
2.0044
 20
-18.9948
 30
0.0
 10
2.0044
 20
-18.9948
 30
0.0
 10
2.0044
 20
-18.9948
 30
0.0
 10
2.0044
 20
-17.6057
 30
0.0
 10
2.0044
 20
-17.6057
 30
0.0
 10
2.0044
 20
-17.6057
 30
0.0
 10
2.0044
 20
-17.6057
 30
0.0
 10
11.3698
 20
-17.6057
 30
0.0
 10
11.3698
 20
-17.6057
 30
0.0
  0
SPLINE
  5
90
330
1F
100
AcDbEntity
  8
Layer 1
 62
   175
100
AcDbSpline
210
0.0
220
0.0
230
1.0
 70
    11
 71
     3
 72
    20
 73
    16
 74
     0
 42
0.000000001
 43
0.0000000001
 40
0.0
 40
0.0
 40
0.0
 40
0.0
 40
0.2
 40
0.2
 40
0.2
 40
0.2
 40
0.4
 40
0.4
 40
0.4
 40
0.4
 40
0.6
 40
0.6
 40
0.6
 40
0.6
 40
1.0
 40
1.0
 40
1.0
 40
1.0
 10
8.737
 20
-14.9774
 30
0.0
 10
8.737
 20
-14.9774
 30
0.0
 10
8.737
 20
-16.3681
 30
0.0
 10
8.737
 20
-16.3681
 30
0.0
 10
8.737
 20
-16.3681
 30
0.0
 10
8.737
 20
-16.3681
 30
0.0
 10
4.6418
 20
-16.3681
 30
0.0
 10
4.6418
 20
-16.3681
 30
0.0
 10
4.6418
 20
-16.3681
 30
0.0
 10
4.6418
 20
-16.3681
 30
0.0
 10
4.6418
 20
-14.9774
 30
0.0
 10
4.6418
 20
-14.9774
 30
0.0
 10
4.6418
 20
-14.9774
 30
0.0
 10
4.6418
 20
-14.9774
 30
0.0
 10
8.737
 20
-14.9774
 30
0.0
 10
8.737
 20
-14.9774
 30
0.0
  0
SPLINE
  5
91
330
1F
100
AcDbEntity
  8
Layer 1
 62
   175
100
AcDbSpline
210
0.0
220
0.0
230
1.0
 70
    11
 71
     3
 72
    20
 73
    16
 74
     0
 42
0.000000001
 43
0.0000000001
 40
0.0
 40
0.0
 40
0.0
 40
0.0
 40
0.2
 40
0.2
 40
0.2
 40
0.2
 40
0.4
 40
0.4
 40
0.4
 40
0.4
 40
0.6
 40
0.6
 40
0.6
 40
0.6
 40
1.0
 40
1.0
 40
1.0
 40
1.0
 10
11.3698
 20
-12.6647
 30
0.0
 10
11.3698
 20
-12.6647
 30
0.0
 10
11.3698
 20
-16.3681
 30
0.0
 10
11.3698
 20
-16.3681
 30
0.0
 10
11.3698
 20
-16.3681
 30
0.0
 10
11.3698
 20
-16.3681
 30
0.0
 10
9.9073
 20
-16.3681
 30
0.0
 10
9.9073
 20
-16.3681
 30
0.0
 10
9.9073
 20
-16.3681
 30
0.0
 10
9.9073
 20
-16.3681
 30
0.0
 10
9.9073
 20
-12.6647
 30
0.0
 10
9.9073
 20
-12.6647
 30
0.0
 10
9.9073
 20
-12.6647
 30
0.0
 10
9.9073
 20
-12.6647
 30
0.0
 10
11.3698
 20
-12.6647
 30
0.0
 10
11.3698
 20
-12.6647
 30
0.0
  0
SPLINE
  5
92
330
1F
100
AcDbEntity
  8
Layer 1
 62
   175
100
AcDbSpline
210
0.0
220
0.0
230
1.0
 70
    11
 71
     3
 72
    20
 73
    16
 74
     0
 42
0.000000001
 43
0.0000000001
 40
0.0
 40
0.0
 40
0.0
 40
0.0
 40
0.2
 40
0.2
 40
0.2
 40
0.2
 40
0.4
 40
0.4
 40
0.4
 40
0.4
 40
0.6
 40
0.6
 40
0.6
 40
0.6
 40
1.0
 40
1.0
 40
1.0
 40
1.0
 10
14.0057
 20
-12.6647
 30
0.0
 10
14.0057
 20
-12.6647
 30
0.0
 10
14.0057
 20
-18.9948
 30
0.0
 10
14.0057
 20
-18.9948
 30
0.0
 10
14.0057
 20
-18.9948
 30
0.0
 10
14.0057
 20
-18.9948
 30
0.0
 10
12.5417
 20
-18.9948
 30
0.0
 10
12.5417
 20
-18.9948
 30
0.0
 10
12.5417
 20
-18.9948
 30
0.0
 10
12.5417
 20
-18.9948
 30
0.0
 10
12.5417
 20
-12.6647
 30
0.0
 10
12.5417
 20
-12.6647
 30
0.0
 10
12.5417
 20
-12.6647
 30
0.0
 10
12.5417
 20
-12.6647
 30
0.0
 10
14.0057
 20
-12.6647
 30
0.0
 10
14.0057
 20
-12.6647
 30
0.0
  0
SPLINE
  5
93
330
1F
100
AcDbEntity
  8
Layer 1
 62
   175
100
AcDbSpline
210
0.0
220
0.0
230
1.0
 70
    11
 71
     3
 72
    28
 73
    24
 74
     0
 42
0.000000001
 43
0.0000000001
 40
0.0
 40
0.0
 40
0.0
 40
0.0
 40
0.1428571428571428
 40
0.1428571428571428
 40
0.1428571428571428
 40
0.1428571428571428
 40
0.2857142857142857
 40
0.2857142857142857
 40
0.2857142857142857
 40
0.2857142857142857
 40
0.4285714285714285
 40
0.4285714285714285
 40
0.4285714285714285
 40
0.4285714285714285
 40
0.5714285714285714
 40
0.5714285714285714
 40
0.5714285714285714
 40
0.5714285714285714
 40
0.7142857142857143
 40
0.7142857142857143
 40
0.7142857142857143
 40
0.7142857142857143
 40
1.0
 40
1.0
 40
1.0
 40
1.0
 10
3.47
 20
-6.3099
 30
0.0
 10
3.47
 20
-6.3099
 30
0.0
 10
3.47
 20
-13.7399
 30
0.0
 10
3.47
 20
-13.7399
 30
0.0
 10
3.47
 20
-13.7399
 30
0.0
 10
3.47
 20
-13.7399
 30
0.0
 10
3.47
 20
-14.9774
 30
0.0
 10
3.47
 20
-14.9774
 30
0.0
 10
3.47
 20
-14.9774
 30
0.0
 10
3.47
 20
-14.9774
 30
0.0
 10
3.47
 20
-16.3681
 30
0.0
 10
3.47
 20
-16.3681
 30
0.0
 10
3.47
 20
-16.3681
 30
0.0
 10
3.47
 20
-16.3681
 30
0.0
 10
2.0044
 20
-16.3681
 30
0.0
 10
2.0044
 20
-16.3681
 30
0.0
 10
2.0044
 20
-16.3681
 30
0.0
 10
2.0044
 20
-16.3681
 30
0.0
 10
2.0044
 20
-6.3099
 30
0.0
 10
2.0044
 20
-6.3099
 30
0.0
 10
2.0044
 20
-6.3099
 30
0.0
 10
2.0044
 20
-6.3099
 30
0.0
 10
3.47
 20
-6.3099
 30
0.0
 10
3.47
 20
-6.3099
 30
0.0
  0
SPLINE
  5
94
330
1F
100
AcDbEntity
  8
Layer 1
 62
   175
100
AcDbSpline
210
0.0
220
0.0
230
1.0
 70
    11
 71
     3
 72
    28
 73
    24
 74
     0
 42
0.000000001
 43
0.0000000001
 40
0.0
 40
0.0
 40
0.0
 40
0.0
 40
0.1428571428571428
 40
0.1428571428571428
 40
0.1428571428571428
 40
0.1428571428571428
 40
0.2857142857142857
 40
0.2857142857142857
 40
0.2857142857142857
 40
0.2857142857142857
 40
0.4285714285714285
 40
0.4285714285714285
 40
0.4285714285714285
 40
0.4285714285714285
 40
0.5714285714285714
 40
0.5714285714285714
 40
0.5714285714285714
 40
0.5714285714285714
 40
0.7142857142857143
 40
0.7142857142857143
 40
0.7142857142857143
 40
0.7142857142857143
 40
1.0
 40
1.0
 40
1.0
 40
1.0
 10
8.737
 20
-9.41
 30
0.0
 10
8.737
 20
-9.41
 30
0.0
 10
8.737
 20
-13.7399
 30
0.0
 10
8.737
 20
-13.7399
 30
0.0
 10
8.737
 20
-13.7399
 30
0.0
 10
8.737
 20
-13.7399
 30
0.0
 10
7.2792
 20
-13.7399
 30
0.0
 10
7.2792
 20
-13.7399
 30
0.0
 10
7.2792
 20
-13.7399
 30
0.0
 10
7.2792
 20
-13.7399
 30
0.0
 10
7.2792
 20
-7.6403
 30
0.0
 10
7.2792
 20
-7.6403
 30
0.0
 10
7.2792
 20
-7.6403
 30
0.0
 10
7.2792
 20
-7.6403
 30
0.0
 10
7.7121
 20
-8.256
 30
0.0
 10
7.7121
 20
-8.256
 30
0.0
 10
7.7121
 20
-8.256
 30
0.0
 10
7.7121
 20
-8.256
 30
0.0
 10
8.1343
 20
-8.7726
 30
0.0
 10
8.1343
 20
-8.7726
 30
0.0
 10
8.1343
 20
-8.7726
 30
0.0
 10
8.1343
 20
-8.7726
 30
0.0
 10
8.737
 20
-9.41
 30
0.0
 10
8.737
 20
-9.41
 30
0.0
  0
SPLINE
  5
95
330
1F
100
AcDbEntity
  8
Layer 1
 62
   175
100
AcDbSpline
210
0.0
220
0.0
230
1.0
 70
    11
 71
     3
 72
    24
 73
    20
 74
     0
 42
0.000000001
 43
0.0000000001
 40
0.0
 40
0.0
 40
0.0
 40
0.0
 40
0.1666666666666667
 40
0.1666666666666667
 40
0.1666666666666667
 40
0.1666666666666667
 40
0.3333333333333333
 40
0.3333333333333333
 40
0.3333333333333333
 40
0.3333333333333333
 40
0.5
 40
0.5
 40
0.5
 40
0.5
 40
0.6666666666666666
 40
0.6666666666666666
 40
0.6666666666666666
 40
0.6666666666666666
 40
1.0
 40
1.0
 40
1.0
 40
1.0
 10
11.3698
 20
-11.1549
 30
0.0
 10
11.3698
 20
-11.1549
 30
0.0
 10
11.3698
 20
-11.4272
 30
0.0
 10
11.3698
 20
-11.4272
 30
0.0
 10
11.3698
 20
-11.4272
 30
0.0
 10
11.3698
 20
-11.4272
 30
0.0
 10
9.9073
 20
-11.4272
 30
0.0
 10
9.9073
 20
-11.4272
 30
0.0
 10
9.9073
 20
-11.4272
 30
0.0
 10
9.9073
 20
-11.4272
 30
0.0
 10
9.9073
 20
-10.366
 30
0.0
 10
9.9073
 20
-10.366
 30
0.0
 10
9.9073
 20
-10.366
 30
0.0
 10
9.9073
 20
-10.366
 30
0.0
 10
10.7854
 20
-10.8765
 30
0.0
 10
10.7854
 20
-10.8765
 30
0.0
 10
10.7854
 20
-10.8765
 30
0.0
 10
10.7854
 20
-10.8765
 30
0.0
 10
11.3698
 20
-11.1549
 30
0.0
 10
11.3698
 20
-11.1549
 30
0.0
  0
SPLINE
  5
96
330
1F
100
AcDbEntity
  8
Layer 1
 62
   175
100
AcDbSpline
210
0.0
220
0.0
230
1.0
 70
    11
 71
     3
 72
    20
 73
    16
 74
     0
 42
0.000000001
 43
0.0000000001
 40
0.0
 40
0.0
 40
0.0
 40
0.0
 40
0.2
 40
0.2
 40
0.2
 40
0.2
 40
0.4
 40
0.4
 40
0.4
 40
0.4
 40
0.6
 40
0.6
 40
0.6
 40
0.6
 40
1.0
 40
1.0
 40
1.0
 40
1.0
 10
3.47
 20
-2.4333
 30
0.0
 10
3.47
 20
-2.4333
 30
0.0
 10
3.47
 20
-5.0724
 30
0.0
 10
3.47
 20
-5.0724
 30
0.0
 10
3.47
 20
-5.0724
 30
0.0
 10
3.47
 20
-5.0724
 30
0.0
 10
2.0044
 20
-5.0724
 30
0.0
 10
2.0044
 20
-5.0724
 30
0.0
 10
2.0044
 20
-5.0724
 30
0.0
 10
2.0044
 20
-5.0724
 30
0.0
 10
2.0044
 20
-2.4333
 30
0.0
 10
2.0044
 20
-2.4333
 30
0.0
 10
2.0044
 20
-2.4333
 30
0.0
 10
2.0044
 20
-2.4333
 30
0.0
 10
3.47
 20
-2.4333
 30
0.0
 10
3.47
 20
-2.4333
 30
0.0
  0
SPLINE
  5
97
330
1F
100
AcDbEntity
  8
Layer 1
 62
   175
100
AcDbSpline
210
0.0
220
0.0
230
1.0
 70
    11
 71
     3
 72
    28
 73
    24
 74
     0
 42
0.000000001
 43
0.0000000001
 40
0.0
 40
0.0
 40
0.0
 40
0.0
 40
0.1428571428571428
 40
0.1428571428571428
 40
0.1428571428571428
 40
0.1428571428571428
 40
0.2857142857142857
 40
0.2857142857142857
 40
0.2857142857142857
 40
0.2857142857142857
 40
0.4285714285714285
 40
0.4285714285714285
 40
0.4285714285714285
 40
0.4285714285714285
 40
0.5714285714285714
 40
0.5714285714285714
 40
0.5714285714285714
 40
0.5714285714285714
 40
0.7142857142857143
 40
0.7142857142857143
 40
0.7142857142857143
 40
0.7142857142857143
 40
1.0
 40
1.0
 40
1.0
 40
1.0
 10
5.3302
 20
-2.4333
 30
0.0
 10
5.3302
 20
-2.4333
 30
0.0
 10
5.6453
 20
-3.94
 30
0.0
 10
5.6453
 20
-3.94
 30
0.0
 10
5.6453
 20
-3.94
 30
0.0
 10
5.6453
 20
-3.94
 30
0.0
 10
6.1073
 20
-5.357
 30
0.0
 10
6.1073
 20
-5.357
 30
0.0
 10
6.1073
 20
-5.357
 30
0.0
 10
6.1073
 20
-5.357
 30
0.0
 10
6.1073
 20
-13.7399
 30
0.0
 10
6.1073
 20
-13.7399
 30
0.0
 10
6.1073
 20
-13.7399
 30
0.0
 10
6.1073
 20
-13.7399
 30
0.0
 10
4.6418
 20
-13.7399
 30
0.0
 10
4.6418
 20
-13.7399
 30
0.0
 10
4.6418
 20
-13.7399
 30
0.0
 10
4.6418
 20
-13.7399
 30
0.0
 10
4.6418
 20
-2.4333
 30
0.0
 10
4.6418
 20
-2.4333
 30
0.0
 10
4.6418
 20
-2.4333
 30
0.0
 10
4.6418
 20
-2.4333
 30
0.0
 10
5.3302
 20
-2.4333
 30
0.0
 10
5.3302
 20
-2.4333
 30
0.0
  0
SPLINE
  5
98
330
1F
100
AcDbEntity
  8
Layer 1
 62
   175
100
AcDbSpline
210
0.0
220
0.0
230
1.0
 70
    11
 71
     3
 72
    60
 73
    56
 74
     0
 42
0.000000001
 43
0.0000000001
 40
0.0
 40
0.0
 40
0.0
 40
0.0
 40
0.0666666666666667
 40
0.0666666666666667
 40
0.0666666666666667
 40
0.0666666666666667
 40
0.1333333333333333
 40
0.1333333333333333
 40
0.1333333333333333
 40
0.1333333333333333
 40
0.2
 40
0.2
 40
0.2
 40
0.2
 40
0.2666666666666667
 40
0.2666666666666667
 40
0.2666666666666667
 40
0.2666666666666667
 40
0.3333333333333333
 40
0.3333333333333333
 40
0.3333333333333333
 40
0.3333333333333333
 40
0.4
 40
0.4
 40
0.4
 40
0.4
 40
0.4666666666666667
 40
0.4666666666666667
 40
0.4666666666666667
 40
0.4666666666666667
 40
0.5333333333333333
 40
0.5333333333333333
 40
0.5333333333333333
 40
0.5333333333333333
 40
0.6
 40
0.6
 40
0.6
 40
0.6
 40
0.6666666666666666
 40
0.6666666666666666
 40
0.6666666666666666
 40
0.6666666666666666
 40
0.7333333333333333
 40
0.7333333333333333
 40
0.7333333333333333
 40
0.7333333333333333
 40
0.8
 40
0.8
 40
0.8
 40
0.8
 40
0.8666666666666667
 40
0.8666666666666667
 40
0.8666666666666667
 40
0.8666666666666667
 40
1.0
 40
1.0
 40
1.0
 40
1.0
 10
5.165
 20
-0.6172
 30
0.0
 10
5.165
 20
-0.6172
 30
0.0
 10
5.1589
 20
-0.6172
 30
0.0
 10
5.1589
 20
-0.6172
 30
0.0
 10
5.1589
 20
-0.6172
 30
0.0
 10
5.1589
 20
-0.6172
 30
0.0
 10
5.1604
 20
-0.3929
 30
0.0
 10
5.1604
 20
-0.3929
 30
0.0
 10
5.1604
 20
-0.3929
 30
0.0
 10
5.1604
 20
-0.3929
 30
0.0
 10
5.1589
 20
-0.3619
 30
0.0
 10
5.1589
 20
-0.3619
 30
0.0
 10
5.1589
 20
-0.3619
 30
0.0
 10
5.1589
 20
-0.3619
 30
0.0
 10
5.1589
 20
-0.3604
 30
0.0
 10
5.1589
 20
-0.3604
 30
0.0
 10
5.1589
 20
-0.3604
 30
0.0
 10
5.1589
 20
-0.3604
 30
0.0
 10
5.1589
 20
-0.3573
 30
0.0
 10
5.1589
 20
-0.3573
 30
0.0
 10
5.1589
 20
-0.3573
 30
0.0
 10
5.1589
 20
-0.3573
 30
0.0
 10
5.1589
 20
-0.3264
 30
0.0
 10
5.1589
 20
-0.3264
 30
0.0
 10
5.1589
 20
-0.3264
 30
0.0
 10
5.1589
 20
-0.3264
 30
0.0
 10
5.165
 20
-0.3264
 30
0.0
 10
5.165
 20
-0.3264
 30
0.0
 10
5.165
 20
-0.3264
 30
0.0
 10
5.165
 20
-0.3264
 30
0.0
 10
5.1925
 20
0.2522
 30
0.0
 10
5.1925
 20
0.2522
 30
0.0
 10
5.1925
 20
0.2522
 30
0.0
 10
5.1925
 20
0.2522
 30
0.0
 10
4.6418
 20
0.2522
 30
0.0
 10
4.6418
 20
0.2522
 30
0.0
 10
4.6418
 20
0.2522
 30
0.0
 10
4.6418
 20
0.2522
 30
0.0
 10
4.6418
 20
-0.3217
 30
0.0
 10
4.6418
 20
-0.3217
 30
0.0
 10
4.6418
 20
-0.3217
 30
0.0
 10
4.6418
 20
-0.3217
 30
0.0
 10
4.6418
 20
-0.6203
 30
0.0
 10
4.6418
 20
-0.6203
 30
0.0
 10
4.6418
 20
-0.6203
 30
0.0
 10
4.6418
 20
-0.6203
 30
0.0
 10
4.6418
 20
-1.1957
 30
0.0
 10
4.6418
 20
-1.1957
 30
0.0
 10
4.6418
 20
-1.1957
 30
0.0
 10
4.6418
 20
-1.1957
 30
0.0
 10
5.1925
 20
-1.1957
 30
0.0
 10
5.1925
 20
-1.1957
 30
0.0
 10
5.1925
 20
-1.1957
 30
0.0
 10
5.1925
 20
-1.1957
 30
0.0
 10
5.165
 20
-0.6172
 30
0.0
 10
5.165
 20
-0.6172
 30
0.0
  0
SPLINE
  5
99
330
1F
100
AcDbEntity
  8
Layer 1
 62
   175
100
AcDbSpline
210
0.0
220
0.0
230
1.0
 70
    11
 71
     3
 72
    20
 73
    16
 74
     0
 42
0.000000001
 43
0.0000000001
 40
0.0
 40
0.0
 40
0.0
 40
0.0
 40
0.2
 40
0.2
 40
0.2
 40
0.2
 40
0.4
 40
0.4
 40
0.4
 40
0.4
 40
0.6
 40
0.6
 40
0.6
 40
0.6
 40
1.0
 40
1.0
 40
1.0
 40
1.0
 10
-12.3298
 20
33.9739
 30
0.0
 10
-12.3298
 20
33.9739
 30
0.0
 10
-12.3298
 20
32.427
 30
0.0
 10
-12.3298
 20
32.427
 30
0.0
 10
-12.3298
 20
32.427
 30
0.0
 10
-12.3298
 20
32.427
 30
0.0
 10
-13.7938
 20
32.427
 30
0.0
 10
-13.7938
 20
32.427
 30
0.0
 10
-13.7938
 20
32.427
 30
0.0
 10
-13.7938
 20
32.427
 30
0.0
 10
-13.7938
 20
33.9739
 30
0.0
 10
-13.7938
 20
33.9739
 30
0.0
 10
-13.7938
 20
33.9739
 30
0.0
 10
-13.7938
 20
33.9739
 30
0.0
 10
-12.3298
 20
33.9739
 30
0.0
 10
-12.3298
 20
33.9739
 30
0.0
  0
SPLINE
  5
9A
330
1F
100
AcDbEntity
  8
Layer 1
 62
   175
100
AcDbSpline
210
0.0
220
0.0
230
1.0
 70
    11
 71
     3
 72
    28
 73
    24
 74
     0
 42
0.000000001
 43
0.0000000001
 40
0.0
 40
0.0
 40
0.0
 40
0.0
 40
0.1428571428571428
 40
0.1428571428571428
 40
0.1428571428571428
 40
0.1428571428571428
 40
0.2857142857142857
 40
0.2857142857142857
 40
0.2857142857142857
 40
0.2857142857142857
 40
0.4285714285714285
 40
0.4285714285714285
 40
0.4285714285714285
 40
0.4285714285714285
 40
0.5714285714285714
 40
0.5714285714285714
 40
0.5714285714285714
 40
0.5714285714285714
 40
0.7142857142857143
 40
0.7142857142857143
 40
0.7142857142857143
 40
0.7142857142857143
 40
1.0
 40
1.0
 40
1.0
 40
1.0
 10
-11.158
 20
35.2115
 30
0.0
 10
-11.158
 20
35.2115
 30
0.0
 10
-12.3298
 20
35.2115
 30
0.0
 10
-12.3298
 20
35.2115
 30
0.0
 10
-12.3298
 20
35.2115
 30
0.0
 10
-12.3298
 20
35.2115
 30
0.0
 10
-12.6878
 20
35.2115
 30
0.0
 10
-12.6878
 20
35.2115
 30
0.0
 10
-12.6878
 20
35.2115
 30
0.0
 10
-12.6878
 20
35.2115
 30
0.0
 10
-12.6878
 20
36.7584
 30
0.0
 10
-12.6878
 20
36.7584
 30
0.0
 10
-12.6878
 20
36.7584
 30
0.0
 10
-12.6878
 20
36.7584
 30
0.0
 10
-9.6955
 20
36.7584
 30
0.0
 10
-9.6955
 20
36.7584
 30
0.0
 10
-9.6955
 20
36.7584
 30
0.0
 10
-9.6955
 20
36.7584
 30
0.0
 10
-9.6955
 20
35.2115
 30
0.0
 10
-9.6955
 20
35.2115
 30
0.0
 10
-9.6955
 20
35.2115
 30
0.0
 10
-9.6955
 20
35.2115
 30
0.0
 10
-11.158
 20
35.2115
 30
0.0
 10
-11.158
 20
35.2115
 30
0.0
  0
SPLINE
  5
9B
330
1F
100
AcDbEntity
  8
Layer 1
 62
   175
100
AcDbSpline
210
0.0
220
0.0
230
1.0
 70
    11
 71
     3
 72
    20
 73
    16
 74
     0
 42
0.000000001
 43
0.0000000001
 40
0.0
 40
0.0
 40
0.0
 40
0.0
 40
0.2
 40
0.2
 40
0.2
 40
0.2
 40
0.4
 40
0.4
 40
0.4
 40
0.4
 40
0.6
 40
0.6
 40
0.6
 40
0.6
 40
1.0
 40
1.0
 40
1.0
 40
1.0
 10
-7.0673
 20
27.6438
 30
0.0
 10
-7.0673
 20
27.6438
 30
0.0
 10
-8.5252
 20
27.6438
 30
0.0
 10
-8.5252
 20
27.6438
 30
0.0
 10
-8.5252
 20
27.6438
 30
0.0
 10
-8.5252
 20
27.6438
 30
0.0
 10
-8.5252
 20
34.2879
 30
0.0
 10
-8.5252
 20
34.2879
 30
0.0
 10
-8.5252
 20
34.2879
 30
0.0
 10
-8.5252
 20
34.2879
 30
0.0
 10
-7.0673
 20
34.2879
 30
0.0
 10
-7.0673
 20
34.2879
 30
0.0
 10
-7.0673
 20
34.2879
 30
0.0
 10
-7.0673
 20
34.2879
 30
0.0
 10
-7.0673
 20
27.6438
 30
0.0
 10
-7.0673
 20
27.6438
 30
0.0
  0
SPLINE
  5
9C
330
1F
100
AcDbEntity
  8
Layer 1
 62
   175
100
AcDbSpline
210
0.0
220
0.0
230
1.0
 70
    11
 71
     3
 72
    32
 73
    28
 74
     0
 42
0.000000001
 43
0.0000000001
 40
0.0
 40
0.0
 40
0.0
 40
0.0
 40
0.125
 40
0.125
 40
0.125
 40
0.125
 40
0.25
 40
0.25
 40
0.25
 40
0.25
 40
0.375
 40
0.375
 40
0.375
 40
0.375
 40
0.5
 40
0.5
 40
0.5
 40
0.5
 40
0.625
 40
0.625
 40
0.625
 40
0.625
 40
0.75
 40
0.75
 40
0.75
 40
0.75
 40
1.0
 40
1.0
 40
1.0
 40
1.0
 10
-5.8955
 20
36.7584
 30
0.0
 10
-5.8955
 20
36.7584
 30
0.0
 10
-4.4299
 20
36.7584
 30
0.0
 10
-4.4299
 20
36.7584
 30
0.0
 10
-4.4299
 20
36.7584
 30
0.0
 10
-4.4299
 20
36.7584
 30
0.0
 10
-4.4299
 20
36.1891
 30
0.0
 10
-4.4299
 20
36.1891
 30
0.0
 10
-4.4299
 20
36.1891
 30
0.0
 10
-4.4299
 20
36.1891
 30
0.0
 10
-4.4299
 20
35.2115
 30
0.0
 10
-4.4299
 20
35.2115
 30
0.0
 10
-4.4299
 20
35.2115
 30
0.0
 10
-4.4299
 20
35.2115
 30
0.0
 10
-4.4299
 20
33.9739
 30
0.0
 10
-4.4299
 20
33.9739
 30
0.0
 10
-4.4299
 20
33.9739
 30
0.0
 10
-4.4299
 20
33.9739
 30
0.0
 10
-4.4299
 20
27.6438
 30
0.0
 10
-4.4299
 20
27.6438
 30
0.0
 10
-4.4299
 20
27.6438
 30
0.0
 10
-4.4299
 20
27.6438
 30
0.0
 10
-5.8955
 20
27.6438
 30
0.0
 10
-5.8955
 20
27.6438
 30
0.0
 10
-5.8955
 20
27.6438
 30
0.0
 10
-5.8955
 20
27.6438
 30
0.0
 10
-5.8955
 20
36.7584
 30
0.0
 10
-5.8955
 20
36.7584
 30
0.0
  0
SPLINE
  5
9D
330
1F
100
AcDbEntity
  8
Layer 1
 62
   175
100
AcDbSpline
210
0.0
220
0.0
230
1.0
 70
    11
 71
     3
 72
    20
 73
    16
 74
     0
 42
0.000000001
 43
0.0000000001
 40
0.0
 40
0.0
 40
0.0
 40
0.0
 40
0.2
 40
0.2
 40
0.2
 40
0.2
 40
0.4
 40
0.4
 40
0.4
 40
0.4
 40
0.6
 40
0.6
 40
0.6
 40
0.6
 40
1.0
 40
1.0
 40
1.0
 40
1.0
 10
-3.2581
 20
24.8594
 30
0.0
 10
-3.2581
 20
24.8594
 30
0.0
 10
-3.2581
 20
33.9739
 30
0.0
 10
-3.2581
 20
33.9739
 30
0.0
 10
-3.2581
 20
33.9739
 30
0.0
 10
-3.2581
 20
33.9739
 30
0.0
 10
-1.7925
 20
33.9739
 30
0.0
 10
-1.7925
 20
33.9739
 30
0.0
 10
-1.7925
 20
33.9739
 30
0.0
 10
-1.7925
 20
33.9739
 30
0.0
 10
-1.7925
 20
24.8594
 30
0.0
 10
-1.7925
 20
24.8594
 30
0.0
 10
-1.7925
 20
24.8594
 30
0.0
 10
-1.7925
 20
24.8594
 30
0.0
 10
-3.2581
 20
24.8594
 30
0.0
 10
-3.2581
 20
24.8594
 30
0.0
  0
SPLINE
  5
9E
330
1F
100
AcDbEntity
  8
Layer 1
 62
   175
100
AcDbSpline
210
0.0
220
0.0
230
1.0
 70
    11
 71
     3
 72
    20
 73
    16
 74
     0
 42
0.000000001
 43
0.0000000001
 40
0.0
 40
0.0
 40
0.0
 40
0.0
 40
0.2
 40
0.2
 40
0.2
 40
0.2
 40
0.4
 40
0.4
 40
0.4
 40
0.4
 40
0.6
 40
0.6
 40
0.6
 40
0.6
 40
1.0
 40
1.0
 40
1.0
 40
1.0
 10
-8.5252
 20
24.8594
 30
0.0
 10
-8.5252
 20
24.8594
 30
0.0
 10
-8.5252
 20
26.4063
 30
0.0
 10
-8.5252
 20
26.4063
 30
0.0
 10
-8.5252
 20
26.4063
 30
0.0
 10
-8.5252
 20
26.4063
 30
0.0
 10
-4.4299
 20
26.4063
 30
0.0
 10
-4.4299
 20
26.4063
 30
0.0
 10
-4.4299
 20
26.4063
 30
0.0
 10
-4.4299
 20
26.4063
 30
0.0
 10
-4.4299
 20
24.8594
 30
0.0
 10
-4.4299
 20
24.8594
 30
0.0
 10
-4.4299
 20
24.8594
 30
0.0
 10
-4.4299
 20
24.8594
 30
0.0
 10
-8.5252
 20
24.8594
 30
0.0
 10
-8.5252
 20
24.8594
 30
0.0
  0
SPLINE
  5
9F
330
1F
100
AcDbEntity
  8
Layer 1
 62
   175
100
AcDbSpline
210
0.0
220
0.0
230
1.0
 70
    11
 71
     3
 72
    20
 73
    16
 74
     0
 42
0.000000001
 43
0.0000000001
 40
0.0
 40
0.0
 40
0.0
 40
0.0
 40
0.2
 40
0.2
 40
0.2
 40
0.2
 40
0.4
 40
0.4
 40
0.4
 40
0.4
 40
0.6
 40
0.6
 40
0.6
 40
0.6
 40
1.0
 40
1.0
 40
1.0
 40
1.0
 10
-11.158
 20
24.8594
 30
0.0
 10
-11.158
 20
24.8594
 30
0.0
 10
-11.158
 20
33.9739
 30
0.0
 10
-11.158
 20
33.9739
 30
0.0
 10
-11.158
 20
33.9739
 30
0.0
 10
-11.158
 20
33.9739
 30
0.0
 10
-9.6955
 20
33.9739
 30
0.0
 10
-9.6955
 20
33.9739
 30
0.0
 10
-9.6955
 20
33.9739
 30
0.0
 10
-9.6955
 20
33.9739
 30
0.0
 10
-9.6955
 20
24.8594
 30
0.0
 10
-9.6955
 20
24.8594
 30
0.0
 10
-9.6955
 20
24.8594
 30
0.0
 10
-9.6955
 20
24.8594
 30
0.0
 10
-11.158
 20
24.8594
 30
0.0
 10
-11.158
 20
24.8594
 30
0.0
  0
SPLINE
  5
A0
330
1F
100
AcDbEntity
  8
Layer 1
 62
   175
100
AcDbSpline
210
0.0
220
0.0
230
1.0
 70
    11
 71
     3
 72
    28
 73
    24
 74
     0
 42
0.000000001
 43
0.0000000001
 40
0.0
 40
0.0
 40
0.0
 40
0.0
 40
0.1428571428571428
 40
0.1428571428571428
 40
0.1428571428571428
 40
0.1428571428571428
 40
0.2857142857142857
 40
0.2857142857142857
 40
0.2857142857142857
 40
0.2857142857142857
 40
0.4285714285714285
 40
0.4285714285714285
 40
0.4285714285714285
 40
0.4285714285714285
 40
0.5714285714285714
 40
0.5714285714285714
 40
0.5714285714285714
 40
0.5714285714285714
 40
0.7142857142857143
 40
0.7142857142857143
 40
0.7142857142857143
 40
0.7142857142857143
 40
1.0
 40
1.0
 40
1.0
 40
1.0
 10
-11.158
 20
22.0749
 30
0.0
 10
-11.158
 20
22.0749
 30
0.0
 10
-11.158
 20
23.6218
 30
0.0
 10
-11.158
 20
23.6218
 30
0.0
 10
-11.158
 20
23.6218
 30
0.0
 10
-11.158
 20
23.6218
 30
0.0
 10
-1.7925
 20
23.6218
 30
0.0
 10
-1.7925
 20
23.6218
 30
0.0
 10
-1.7925
 20
23.6218
 30
0.0
 10
-1.7925
 20
23.6218
 30
0.0
 10
-1.7925
 20
22.0749
 30
0.0
 10
-1.7925
 20
22.0749
 30
0.0
 10
-1.7925
 20
22.0749
 30
0.0
 10
-1.7925
 20
22.0749
 30
0.0
 10
-5.8955
 20
22.0749
 30
0.0
 10
-5.8955
 20
22.0749
 30
0.0
 10
-5.8955
 20
22.0749
 30
0.0
 10
-5.8955
 20
22.0749
 30
0.0
 10
-7.0673
 20
22.0749
 30
0.0
 10
-7.0673
 20
22.0749
 30
0.0
 10
-7.0673
 20
22.0749
 30
0.0
 10
-7.0673
 20
22.0749
 30
0.0
 10
-11.158
 20
22.0749
 30
0.0
 10
-11.158
 20
22.0749
 30
0.0
  0
SPLINE
  5
A1
330
1F
100
AcDbEntity
  8
Layer 1
 62
   175
100
AcDbSpline
210
0.0
220
0.0
230
1.0
 70
    11
 71
     3
 72
    20
 73
    16
 74
     0
 42
0.000000001
 43
0.0000000001
 40
0.0
 40
0.0
 40
0.0
 40
0.0
 40
0.2
 40
0.2
 40
0.2
 40
0.2
 40
0.4
 40
0.4
 40
0.4
 40
0.4
 40
0.6
 40
0.6
 40
0.6
 40
0.6
 40
1.0
 40
1.0
 40
1.0
 40
1.0
 10
-13.7938
 20
22.0749
 30
0.0
 10
-13.7938
 20
22.0749
 30
0.0
 10
-13.7938
 20
31.1894
 30
0.0
 10
-13.7938
 20
31.1894
 30
0.0
 10
-13.7938
 20
31.1894
 30
0.0
 10
-13.7938
 20
31.1894
 30
0.0
 10
-12.3298
 20
31.1894
 30
0.0
 10
-12.3298
 20
31.1894
 30
0.0
 10
-12.3298
 20
31.1894
 30
0.0
 10
-12.3298
 20
31.1894
 30
0.0
 10
-12.3298
 20
22.0749
 30
0.0
 10
-12.3298
 20
22.0749
 30
0.0
 10
-12.3298
 20
22.0749
 30
0.0
 10
-12.3298
 20
22.0749
 30
0.0
 10
-13.7938
 20
22.0749
 30
0.0
 10
-13.7938
 20
22.0749
 30
0.0
  0
SPLINE
  5
A2
330
1F
100
AcDbEntity
  8
Layer 1
 62
   175
100
AcDbSpline
210
0.0
220
0.0
230
1.0
 70
    11
 71
     3
 72
    20
 73
    16
 74
     0
 42
0.000000001
 43
0.0000000001
 40
0.0
 40
0.0
 40
0.0
 40
0.0
 40
0.2
 40
0.2
 40
0.2
 40
0.2
 40
0.4
 40
0.4
 40
0.4
 40
0.4
 40
0.6
 40
0.6
 40
0.6
 40
0.6
 40
1.0
 40
1.0
 40
1.0
 40
1.0
 10
-5.8955
 20
19.2904
 30
0.0
 10
-5.8955
 20
19.2904
 30
0.0
 10
-5.8955
 20
20.8373
 30
0.0
 10
-5.8955
 20
20.8373
 30
0.0
 10
-5.8955
 20
20.8373
 30
0.0
 10
-5.8955
 20
20.8373
 30
0.0
 10
-2.6859
 20
20.8373
 30
0.0
 10
-2.6859
 20
20.8373
 30
0.0
 10
-2.6859
 20
20.8373
 30
0.0
 10
-2.6859
 20
20.8373
 30
0.0
 10
-2.6859
 20
19.2904
 30
0.0
 10
-2.6859
 20
19.2904
 30
0.0
 10
-2.6859
 20
19.2904
 30
0.0
 10
-2.6859
 20
19.2904
 30
0.0
 10
-5.8955
 20
19.2904
 30
0.0
 10
-5.8955
 20
19.2904
 30
0.0
  0
SPLINE
  5
A3
330
1F
100
AcDbEntity
  8
Layer 1
 62
   175
100
AcDbSpline
210
0.0
220
0.0
230
1.0
 70
    11
 71
     3
 72
    20
 73
    16
 74
     0
 42
0.000000001
 43
0.0000000001
 40
0.0
 40
0.0
 40
0.0
 40
0.0
 40
0.2
 40
0.2
 40
0.2
 40
0.2
 40
0.4
 40
0.4
 40
0.4
 40
0.4
 40
0.6
 40
0.6
 40
0.6
 40
0.6
 40
1.0
 40
1.0
 40
1.0
 40
1.0
 10
-13.7938
 20
19.2904
 30
0.0
 10
-13.7938
 20
19.2904
 30
0.0
 10
-13.7938
 20
20.8373
 30
0.0
 10
-13.7938
 20
20.8373
 30
0.0
 10
-13.7938
 20
20.8373
 30
0.0
 10
-13.7938
 20
20.8373
 30
0.0
 10
-7.0673
 20
20.8373
 30
0.0
 10
-7.0673
 20
20.8373
 30
0.0
 10
-7.0673
 20
20.8373
 30
0.0
 10
-7.0673
 20
20.8373
 30
0.0
 10
-7.0673
 20
19.2904
 30
0.0
 10
-7.0673
 20
19.2904
 30
0.0
 10
-7.0673
 20
19.2904
 30
0.0
 10
-7.0673
 20
19.2904
 30
0.0
 10
-13.7938
 20
19.2904
 30
0.0
 10
-13.7938
 20
19.2904
 30
0.0
  0
SPLINE
  5
A4
330
1F
100
AcDbEntity
  8
Layer 1
 62
   175
100
AcDbSpline
210
0.0
220
0.0
230
1.0
 70
    11
 71
     3
 72
    20
 73
    16
 74
     0
 42
0.000000001
 43
0.0000000001
 40
0.0
 40
0.0
 40
0.0
 40
0.0
 40
0.2
 40
0.2
 40
0.2
 40
0.2
 40
0.4
 40
0.4
 40
0.4
 40
0.4
 40
0.6
 40
0.6
 40
0.6
 40
0.6
 40
1.0
 40
1.0
 40
1.0
 40
1.0
 10
-11.158
 20
16.6621
 30
0.0
 10
-11.158
 20
16.6621
 30
0.0
 10
-11.158
 20
18.0528
 30
0.0
 10
-11.158
 20
18.0528
 30
0.0
 10
-11.158
 20
18.0528
 30
0.0
 10
-11.158
 20
18.0528
 30
0.0
 10
-1.7925
 20
18.0528
 30
0.0
 10
-1.7925
 20
18.0528
 30
0.0
 10
-1.7925
 20
18.0528
 30
0.0
 10
-1.7925
 20
18.0528
 30
0.0
 10
-1.7925
 20
16.6621
 30
0.0
 10
-1.7925
 20
16.6621
 30
0.0
 10
-1.7925
 20
16.6621
 30
0.0
 10
-1.7925
 20
16.6621
 30
0.0
 10
-11.158
 20
16.6621
 30
0.0
 10
-11.158
 20
16.6621
 30
0.0
  0
SPLINE
  5
A5
330
1F
100
AcDbEntity
  8
Layer 1
 62
   175
100
AcDbSpline
210
0.0
220
0.0
230
1.0
 70
    11
 71
     3
 72
    20
 73
    16
 74
     0
 42
0.000000001
 43
0.0000000001
 40
0.0
 40
0.0
 40
0.0
 40
0.0
 40
0.2
 40
0.2
 40
0.2
 40
0.2
 40
0.4
 40
0.4
 40
0.4
 40
0.4
 40
0.6
 40
0.6
 40
0.6
 40
0.6
 40
1.0
 40
1.0
 40
1.0
 40
1.0
 10
-8.5252
 20
14.0354
 30
0.0
 10
-8.5252
 20
14.0354
 30
0.0
 10
-8.5252
 20
15.4246
 30
0.0
 10
-8.5252
 20
15.4246
 30
0.0
 10
-8.5252
 20
15.4246
 30
0.0
 10
-8.5252
 20
15.4246
 30
0.0
 10
-4.4299
 20
15.4246
 30
0.0
 10
-4.4299
 20
15.4246
 30
0.0
 10
-4.4299
 20
15.4246
 30
0.0
 10
-4.4299
 20
15.4246
 30
0.0
 10
-4.4299
 20
14.0354
 30
0.0
 10
-4.4299
 20
14.0354
 30
0.0
 10
-4.4299
 20
14.0354
 30
0.0
 10
-4.4299
 20
14.0354
 30
0.0
 10
-8.5252
 20
14.0354
 30
0.0
 10
-8.5252
 20
14.0354
 30
0.0
  0
SPLINE
  5
A6
330
1F
100
AcDbEntity
  8
Layer 1
 62
   175
100
AcDbSpline
210
0.0
220
0.0
230
1.0
 70
    11
 71
     3
 72
    20
 73
    16
 74
     0
 42
0.000000001
 43
0.0000000001
 40
0.0
 40
0.0
 40
0.0
 40
0.0
 40
0.2
 40
0.2
 40
0.2
 40
0.2
 40
0.4
 40
0.4
 40
0.4
 40
0.4
 40
0.6
 40
0.6
 40
0.6
 40
0.6
 40
1.0
 40
1.0
 40
1.0
 40
1.0
 10
-11.158
 20
11.7227
 30
0.0
 10
-11.158
 20
11.7227
 30
0.0
 10
-11.158
 20
15.4246
 30
0.0
 10
-11.158
 20
15.4246
 30
0.0
 10
-11.158
 20
15.4246
 30
0.0
 10
-11.158
 20
15.4246
 30
0.0
 10
-9.6955
 20
15.4246
 30
0.0
 10
-9.6955
 20
15.4246
 30
0.0
 10
-9.6955
 20
15.4246
 30
0.0
 10
-9.6955
 20
15.4246
 30
0.0
 10
-9.6955
 20
11.7227
 30
0.0
 10
-9.6955
 20
11.7227
 30
0.0
 10
-9.6955
 20
11.7227
 30
0.0
 10
-9.6955
 20
11.7227
 30
0.0
 10
-11.158
 20
11.7227
 30
0.0
 10
-11.158
 20
11.7227
 30
0.0
  0
SPLINE
  5
A7
330
1F
100
AcDbEntity
  8
Layer 1
 62
   175
100
AcDbSpline
210
0.0
220
0.0
230
1.0
 70
    11
 71
     3
 72
    20
 73
    16
 74
     0
 42
0.000000001
 43
0.0000000001
 40
0.0
 40
0.0
 40
0.0
 40
0.0
 40
0.2
 40
0.2
 40
0.2
 40
0.2
 40
0.4
 40
0.4
 40
0.4
 40
0.4
 40
0.6
 40
0.6
 40
0.6
 40
0.6
 40
1.0
 40
1.0
 40
1.0
 40
1.0
 10
-13.7938
 20
11.7227
 30
0.0
 10
-13.7938
 20
11.7227
 30
0.0
 10
-13.7938
 20
18.0528
 30
0.0
 10
-13.7938
 20
18.0528
 30
0.0
 10
-13.7938
 20
18.0528
 30
0.0
 10
-13.7938
 20
18.0528
 30
0.0
 10
-12.3298
 20
18.0528
 30
0.0
 10
-12.3298
 20
18.0528
 30
0.0
 10
-12.3298
 20
18.0528
 30
0.0
 10
-12.3298
 20
18.0528
 30
0.0
 10
-12.3298
 20
11.7227
 30
0.0
 10
-12.3298
 20
11.7227
 30
0.0
 10
-12.3298
 20
11.7227
 30
0.0
 10
-12.3298
 20
11.7227
 30
0.0
 10
-13.7938
 20
11.7227
 30
0.0
 10
-13.7938
 20
11.7227
 30
0.0
  0
SPLINE
  5
A8
330
1F
100
AcDbEntity
  8
Layer 1
 62
   175
100
AcDbSpline
210
0.0
220
0.0
230
1.0
 70
    11
 71
     3
 72
    28
 73
    24
 74
     0
 42
0.000000001
 43
0.0000000001
 40
0.0
 40
0.0
 40
0.0
 40
0.0
 40
0.1428571428571428
 40
0.1428571428571428
 40
0.1428571428571428
 40
0.1428571428571428
 40
0.2857142857142857
 40
0.2857142857142857
 40
0.2857142857142857
 40
0.2857142857142857
 40
0.4285714285714285
 40
0.4285714285714285
 40
0.4285714285714285
 40
0.4285714285714285
 40
0.5714285714285714
 40
0.5714285714285714
 40
0.5714285714285714
 40
0.5714285714285714
 40
0.7142857142857143
 40
0.7142857142857143
 40
0.7142857142857143
 40
0.7142857142857143
 40
1.0
 40
1.0
 40
1.0
 40
1.0
 10
-3.2581
 20
5.3664
 30
0.0
 10
-3.2581
 20
5.3664
 30
0.0
 10
-3.2581
 20
12.7979
 30
0.0
 10
-3.2581
 20
12.7979
 30
0.0
 10
-3.2581
 20
12.7979
 30
0.0
 10
-3.2581
 20
12.7979
 30
0.0
 10
-3.2581
 20
14.0354
 30
0.0
 10
-3.2581
 20
14.0354
 30
0.0
 10
-3.2581
 20
14.0354
 30
0.0
 10
-3.2581
 20
14.0354
 30
0.0
 10
-3.2581
 20
15.4246
 30
0.0
 10
-3.2581
 20
15.4246
 30
0.0
 10
-3.2581
 20
15.4246
 30
0.0
 10
-3.2581
 20
15.4246
 30
0.0
 10
-1.7925
 20
15.4246
 30
0.0
 10
-1.7925
 20
15.4246
 30
0.0
 10
-1.7925
 20
15.4246
 30
0.0
 10
-1.7925
 20
15.4246
 30
0.0
 10
-1.7925
 20
5.3664
 30
0.0
 10
-1.7925
 20
5.3664
 30
0.0
 10
-1.7925
 20
5.3664
 30
0.0
 10
-1.7925
 20
5.3664
 30
0.0
 10
-3.2581
 20
5.3664
 30
0.0
 10
-3.2581
 20
5.3664
 30
0.0
  0
SPLINE
  5
A9
330
1F
100
AcDbEntity
  8
Layer 1
 62
   175
100
AcDbSpline
210
0.0
220
0.0
230
1.0
 70
    11
 71
     3
 72
    28
 73
    24
 74
     0
 42
0.000000001
 43
0.0000000001
 40
0.0
 40
0.0
 40
0.0
 40
0.0
 40
0.1428571428571428
 40
0.1428571428571428
 40
0.1428571428571428
 40
0.1428571428571428
 40
0.2857142857142857
 40
0.2857142857142857
 40
0.2857142857142857
 40
0.2857142857142857
 40
0.4285714285714285
 40
0.4285714285714285
 40
0.4285714285714285
 40
0.4285714285714285
 40
0.5714285714285714
 40
0.5714285714285714
 40
0.5714285714285714
 40
0.5714285714285714
 40
0.7142857142857143
 40
0.7142857142857143
 40
0.7142857142857143
 40
0.7142857142857143
 40
1.0
 40
1.0
 40
1.0
 40
1.0
 10
-8.5252
 20
8.468
 30
0.0
 10
-8.5252
 20
8.468
 30
0.0
 10
-8.5252
 20
12.7979
 30
0.0
 10
-8.5252
 20
12.7979
 30
0.0
 10
-8.5252
 20
12.7979
 30
0.0
 10
-8.5252
 20
12.7979
 30
0.0
 10
-7.0673
 20
12.7979
 30
0.0
 10
-7.0673
 20
12.7979
 30
0.0
 10
-7.0673
 20
12.7979
 30
0.0
 10
-7.0673
 20
12.7979
 30
0.0
 10
-7.0673
 20
6.6967
 30
0.0
 10
-7.0673
 20
6.6967
 30
0.0
 10
-7.0673
 20
6.6967
 30
0.0
 10
-7.0673
 20
6.6967
 30
0.0
 10
-7.5002
 20
7.3124
 30
0.0
 10
-7.5002
 20
7.3124
 30
0.0
 10
-7.5002
 20
7.3124
 30
0.0
 10
-7.5002
 20
7.3124
 30
0.0
 10
-7.9224
 20
7.8306
 30
0.0
 10
-7.9224
 20
7.8306
 30
0.0
 10
-7.9224
 20
7.8306
 30
0.0
 10
-7.9224
 20
7.8306
 30
0.0
 10
-8.5252
 20
8.468
 30
0.0
 10
-8.5252
 20
8.468
 30
0.0
  0
SPLINE
  5
AA
330
1F
100
AcDbEntity
  8
Layer 1
 62
   175
100
AcDbSpline
210
0.0
220
0.0
230
1.0
 70
    11
 71
     3
 72
    24
 73
    20
 74
     0
 42
0.000000001
 43
0.0000000001
 40
0.0
 40
0.0
 40
0.0
 40
0.0
 40
0.1666666666666667
 40
0.1666666666666667
 40
0.1666666666666667
 40
0.1666666666666667
 40
0.3333333333333333
 40
0.3333333333333333
 40
0.3333333333333333
 40
0.3333333333333333
 40
0.5
 40
0.5
 40
0.5
 40
0.5
 40
0.6666666666666666
 40
0.6666666666666666
 40
0.6666666666666666
 40
0.6666666666666666
 40
1.0
 40
1.0
 40
1.0
 40
1.0
 10
-11.158
 20
10.2114
 30
0.0
 10
-11.158
 20
10.2114
 30
0.0
 10
-11.158
 20
10.4852
 30
0.0
 10
-11.158
 20
10.4852
 30
0.0
 10
-11.158
 20
10.4852
 30
0.0
 10
-11.158
 20
10.4852
 30
0.0
 10
-9.6955
 20
10.4852
 30
0.0
 10
-9.6955
 20
10.4852
 30
0.0
 10
-9.6955
 20
10.4852
 30
0.0
 10
-9.6955
 20
10.4852
 30
0.0
 10
-9.6955
 20
9.424
 30
0.0
 10
-9.6955
 20
9.424
 30
0.0
 10
-9.6955
 20
9.424
 30
0.0
 10
-9.6955
 20
9.424
 30
0.0
 10
-10.5736
 20
9.9329
 30
0.0
 10
-10.5736
 20
9.9329
 30
0.0
 10
-10.5736
 20
9.9329
 30
0.0
 10
-10.5736
 20
9.9329
 30
0.0
 10
-11.158
 20
10.2114
 30
0.0
 10
-11.158
 20
10.2114
 30
0.0
  0
SPLINE
  5
AB
330
1F
100
AcDbEntity
  8
Layer 1
 62
   175
100
AcDbSpline
210
0.0
220
0.0
230
1.0
 70
    11
 71
     3
 72
    20
 73
    16
 74
     0
 42
0.000000001
 43
0.0000000001
 40
0.0
 40
0.0
 40
0.0
 40
0.0
 40
0.2
 40
0.2
 40
0.2
 40
0.2
 40
0.4
 40
0.4
 40
0.4
 40
0.4
 40
0.6
 40
0.6
 40
0.6
 40
0.6
 40
1.0
 40
1.0
 40
1.0
 40
1.0
 10
-3.2581
 20
1.4897
 30
0.0
 10
-3.2581
 20
1.4897
 30
0.0
 10
-3.2581
 20
4.1288
 30
0.0
 10
-3.2581
 20
4.1288
 30
0.0
 10
-3.2581
 20
4.1288
 30
0.0
 10
-3.2581
 20
4.1288
 30
0.0
 10
-1.7925
 20
4.1288
 30
0.0
 10
-1.7925
 20
4.1288
 30
0.0
 10
-1.7925
 20
4.1288
 30
0.0
 10
-1.7925
 20
4.1288
 30
0.0
 10
-1.7925
 20
1.4897
 30
0.0
 10
-1.7925
 20
1.4897
 30
0.0
 10
-1.7925
 20
1.4897
 30
0.0
 10
-1.7925
 20
1.4897
 30
0.0
 10
-3.2581
 20
1.4897
 30
0.0
 10
-3.2581
 20
1.4897
 30
0.0
  0
SPLINE
  5
AC
330
1F
100
AcDbEntity
  8
Layer 1
 62
   175
100
AcDbSpline
210
0.0
220
0.0
230
1.0
 70
    11
 71
     3
 72
    28
 73
    24
 74
     0
 42
0.000000001
 43
0.0000000001
 40
0.0
 40
0.0
 40
0.0
 40
0.0
 40
0.1428571428571428
 40
0.1428571428571428
 40
0.1428571428571428
 40
0.1428571428571428
 40
0.2857142857142857
 40
0.2857142857142857
 40
0.2857142857142857
 40
0.2857142857142857
 40
0.4285714285714285
 40
0.4285714285714285
 40
0.4285714285714285
 40
0.4285714285714285
 40
0.5714285714285714
 40
0.5714285714285714
 40
0.5714285714285714
 40
0.5714285714285714
 40
0.7142857142857143
 40
0.7142857142857143
 40
0.7142857142857143
 40
0.7142857142857143
 40
1.0
 40
1.0
 40
1.0
 40
1.0
 10
-5.1183
 20
1.4897
 30
0.0
 10
-5.1183
 20
1.4897
 30
0.0
 10
-5.4335
 20
2.9965
 30
0.0
 10
-5.4335
 20
2.9965
 30
0.0
 10
-5.4335
 20
2.9965
 30
0.0
 10
-5.4335
 20
2.9965
 30
0.0
 10
-5.8955
 20
4.415
 30
0.0
 10
-5.8955
 20
4.415
 30
0.0
 10
-5.8955
 20
4.415
 30
0.0
 10
-5.8955
 20
4.415
 30
0.0
 10
-5.8955
 20
12.7979
 30
0.0
 10
-5.8955
 20
12.7979
 30
0.0
 10
-5.8955
 20
12.7979
 30
0.0
 10
-5.8955
 20
12.7979
 30
0.0
 10
-4.4299
 20
12.7979
 30
0.0
 10
-4.4299
 20
12.7979
 30
0.0
 10
-4.4299
 20
12.7979
 30
0.0
 10
-4.4299
 20
12.7979
 30
0.0
 10
-4.4299
 20
1.4897
 30
0.0
 10
-4.4299
 20
1.4897
 30
0.0
 10
-4.4299
 20
1.4897
 30
0.0
 10
-4.4299
 20
1.4897
 30
0.0
 10
-5.1183
 20
1.4897
 30
0.0
 10
-5.1183
 20
1.4897
 30
0.0
  0
SPLINE
  5
AD
330
1F
100
AcDbEntity
  8
Layer 1
 62
   175
100
AcDbSpline
210
0.0
220
0.0
230
1.0
 70
    11
 71
     3
 72
    20
 73
    16
 74
     0
 42
0.000000001
 43
0.0000000001
 40
0.0
 40
0.0
 40
0.0
 40
0.0
 40
0.2
 40
0.2
 40
0.2
 40
0.2
 40
0.4
 40
0.4
 40
0.4
 40
0.4
 40
0.6
 40
0.6
 40
0.6
 40
0.6
 40
1.0
 40
1.0
 40
1.0
 40
1.0
 10
-12.3298
 20
-33.9738
 30
0.0
 10
-12.3298
 20
-33.9738
 30
0.0
 10
-12.3298
 20
-32.4269
 30
0.0
 10
-12.3298
 20
-32.4269
 30
0.0
 10
-12.3298
 20
-32.4269
 30
0.0
 10
-12.3298
 20
-32.4269
 30
0.0
 10
-13.7938
 20
-32.4269
 30
0.0
 10
-13.7938
 20
-32.4269
 30
0.0
 10
-13.7938
 20
-32.4269
 30
0.0
 10
-13.7938
 20
-32.4269
 30
0.0
 10
-13.7938
 20
-33.9738
 30
0.0
 10
-13.7938
 20
-33.9738
 30
0.0
 10
-13.7938
 20
-33.9738
 30
0.0
 10
-13.7938
 20
-33.9738
 30
0.0
 10
-12.3298
 20
-33.9738
 30
0.0
 10
-12.3298
 20
-33.9738
 30
0.0
  0
SPLINE
  5
AE
330
1F
100
AcDbEntity
  8
Layer 1
 62
   175
100
AcDbSpline
210
0.0
220
0.0
230
1.0
 70
    11
 71
     3
 72
    28
 73
    24
 74
     0
 42
0.000000001
 43
0.0000000001
 40
0.0
 40
0.0
 40
0.0
 40
0.0
 40
0.1428571428571428
 40
0.1428571428571428
 40
0.1428571428571428
 40
0.1428571428571428
 40
0.2857142857142857
 40
0.2857142857142857
 40
0.2857142857142857
 40
0.2857142857142857
 40
0.4285714285714285
 40
0.4285714285714285
 40
0.4285714285714285
 40
0.4285714285714285
 40
0.5714285714285714
 40
0.5714285714285714
 40
0.5714285714285714
 40
0.5714285714285714
 40
0.7142857142857143
 40
0.7142857142857143
 40
0.7142857142857143
 40
0.7142857142857143
 40
1.0
 40
1.0
 40
1.0
 40
1.0
 10
-11.158
 20
-35.2114
 30
0.0
 10
-11.158
 20
-35.2114
 30
0.0
 10
-12.3298
 20
-35.2114
 30
0.0
 10
-12.3298
 20
-35.2114
 30
0.0
 10
-12.3298
 20
-35.2114
 30
0.0
 10
-12.3298
 20
-35.2114
 30
0.0
 10
-12.6878
 20
-35.2114
 30
0.0
 10
-12.6878
 20
-35.2114
 30
0.0
 10
-12.6878
 20
-35.2114
 30
0.0
 10
-12.6878
 20
-35.2114
 30
0.0
 10
-12.6878
 20
-36.7583
 30
0.0
 10
-12.6878
 20
-36.7583
 30
0.0
 10
-12.6878
 20
-36.7583
 30
0.0
 10
-12.6878
 20
-36.7583
 30
0.0
 10
-9.6955
 20
-36.7583
 30
0.0
 10
-9.6955
 20
-36.7583
 30
0.0
 10
-9.6955
 20
-36.7583
 30
0.0
 10
-9.6955
 20
-36.7583
 30
0.0
 10
-9.6955
 20
-35.2114
 30
0.0
 10
-9.6955
 20
-35.2114
 30
0.0
 10
-9.6955
 20
-35.2114
 30
0.0
 10
-9.6955
 20
-35.2114
 30
0.0
 10
-11.158
 20
-35.2114
 30
0.0
 10
-11.158
 20
-35.2114
 30
0.0
  0
SPLINE
  5
AF
330
1F
100
AcDbEntity
  8
Layer 1
 62
   175
100
AcDbSpline
210
0.0
220
0.0
230
1.0
 70
    11
 71
     3
 72
    20
 73
    16
 74
     0
 42
0.000000001
 43
0.0000000001
 40
0.0
 40
0.0
 40
0.0
 40
0.0
 40
0.2
 40
0.2
 40
0.2
 40
0.2
 40
0.4
 40
0.4
 40
0.4
 40
0.4
 40
0.6
 40
0.6
 40
0.6
 40
0.6
 40
1.0
 40
1.0
 40
1.0
 40
1.0
 10
-7.0673
 20
-28.5858
 30
0.0
 10
-7.0673
 20
-28.5858
 30
0.0
 10
-8.5252
 20
-28.5858
 30
0.0
 10
-8.5252
 20
-28.5858
 30
0.0
 10
-8.5252
 20
-28.5858
 30
0.0
 10
-8.5252
 20
-28.5858
 30
0.0
 10
-8.5252
 20
-34.2894
 30
0.0
 10
-8.5252
 20
-34.2894
 30
0.0
 10
-8.5252
 20
-34.2894
 30
0.0
 10
-8.5252
 20
-34.2894
 30
0.0
 10
-7.0673
 20
-34.2894
 30
0.0
 10
-7.0673
 20
-34.2894
 30
0.0
 10
-7.0673
 20
-34.2894
 30
0.0
 10
-7.0673
 20
-34.2894
 30
0.0
 10
-7.0673
 20
-28.5858
 30
0.0
 10
-7.0673
 20
-28.5858
 30
0.0
  0
SPLINE
  5
B0
330
1F
100
AcDbEntity
  8
Layer 1
 62
   175
100
AcDbSpline
210
0.0
220
0.0
230
1.0
 70
    11
 71
     3
 72
    32
 73
    28
 74
     0
 42
0.000000001
 43
0.0000000001
 40
0.0
 40
0.0
 40
0.0
 40
0.0
 40
0.125
 40
0.125
 40
0.125
 40
0.125
 40
0.25
 40
0.25
 40
0.25
 40
0.25
 40
0.375
 40
0.375
 40
0.375
 40
0.375
 40
0.5
 40
0.5
 40
0.5
 40
0.5
 40
0.625
 40
0.625
 40
0.625
 40
0.625
 40
0.75
 40
0.75
 40
0.75
 40
0.75
 40
1.0
 40
1.0
 40
1.0
 40
1.0
 10
-5.8955
 20
-36.7583
 30
0.0
 10
-5.8955
 20
-36.7583
 30
0.0
 10
-4.4299
 20
-36.7583
 30
0.0
 10
-4.4299
 20
-36.7583
 30
0.0
 10
-4.4299
 20
-36.7583
 30
0.0
 10
-4.4299
 20
-36.7583
 30
0.0
 10
-4.4299
 20
-36.1891
 30
0.0
 10
-4.4299
 20
-36.1891
 30
0.0
 10
-4.4299
 20
-36.1891
 30
0.0
 10
-4.4299
 20
-36.1891
 30
0.0
 10
-4.4299
 20
-35.2114
 30
0.0
 10
-4.4299
 20
-35.2114
 30
0.0
 10
-4.4299
 20
-35.2114
 30
0.0
 10
-4.4299
 20
-35.2114
 30
0.0
 10
-4.4299
 20
-33.9738
 30
0.0
 10
-4.4299
 20
-33.9738
 30
0.0
 10
-4.4299
 20
-33.9738
 30
0.0
 10
-4.4299
 20
-33.9738
 30
0.0
 10
-4.4299
 20
-28.5858
 30
0.0
 10
-4.4299
 20
-28.5858
 30
0.0
 10
-4.4299
 20
-28.5858
 30
0.0
 10
-4.4299
 20
-28.5858
 30
0.0
 10
-5.8955
 20
-28.5858
 30
0.0
 10
-5.8955
 20
-28.5858
 30
0.0
 10
-5.8955
 20
-28.5858
 30
0.0
 10
-5.8955
 20
-28.5858
 30
0.0
 10
-5.8955
 20
-36.7583
 30
0.0
 10
-5.8955
 20
-36.7583
 30
0.0
  0
SPLINE
  5
B1
330
1F
100
AcDbEntity
  8
Layer 1
 62
   175
100
AcDbSpline
210
0.0
220
0.0
230
1.0
 70
    11
 71
     3
 72
    20
 73
    16
 74
     0
 42
0.000000001
 43
0.0000000001
 40
0.0
 40
0.0
 40
0.0
 40
0.0
 40
0.2
 40
0.2
 40
0.2
 40
0.2
 40
0.4
 40
0.4
 40
0.4
 40
0.4
 40
0.6
 40
0.6
 40
0.6
 40
0.6
 40
1.0
 40
1.0
 40
1.0
 40
1.0
 10
-3.2581
 20
-25.8014
 30
0.0
 10
-3.2581
 20
-25.8014
 30
0.0
 10
-3.2581
 20
-33.9738
 30
0.0
 10
-3.2581
 20
-33.9738
 30
0.0
 10
-3.2581
 20
-33.9738
 30
0.0
 10
-3.2581
 20
-33.9738
 30
0.0
 10
-1.7925
 20
-33.9738
 30
0.0
 10
-1.7925
 20
-33.9738
 30
0.0
 10
-1.7925
 20
-33.9738
 30
0.0
 10
-1.7925
 20
-33.9738
 30
0.0
 10
-1.7925
 20
-25.8014
 30
0.0
 10
-1.7925
 20
-25.8014
 30
0.0
 10
-1.7925
 20
-25.8014
 30
0.0
 10
-1.7925
 20
-25.8014
 30
0.0
 10
-3.2581
 20
-25.8014
 30
0.0
 10
-3.2581
 20
-25.8014
 30
0.0
  0
SPLINE
  5
B2
330
1F
100
AcDbEntity
  8
Layer 1
 62
   175
100
AcDbSpline
210
0.0
220
0.0
230
1.0
 70
    11
 71
     3
 72
    20
 73
    16
 74
     0
 42
0.000000001
 43
0.0000000001
 40
0.0
 40
0.0
 40
0.0
 40
0.0
 40
0.2
 40
0.2
 40
0.2
 40
0.2
 40
0.4
 40
0.4
 40
0.4
 40
0.4
 40
0.6
 40
0.6
 40
0.6
 40
0.6
 40
1.0
 40
1.0
 40
1.0
 40
1.0
 10
-8.5252
 20
-25.8014
 30
0.0
 10
-8.5252
 20
-25.8014
 30
0.0
 10
-8.5252
 20
-27.3483
 30
0.0
 10
-8.5252
 20
-27.3483
 30
0.0
 10
-8.5252
 20
-27.3483
 30
0.0
 10
-8.5252
 20
-27.3483
 30
0.0
 10
-4.4299
 20
-27.3483
 30
0.0
 10
-4.4299
 20
-27.3483
 30
0.0
 10
-4.4299
 20
-27.3483
 30
0.0
 10
-4.4299
 20
-27.3483
 30
0.0
 10
-4.4299
 20
-25.8014
 30
0.0
 10
-4.4299
 20
-25.8014
 30
0.0
 10
-4.4299
 20
-25.8014
 30
0.0
 10
-4.4299
 20
-25.8014
 30
0.0
 10
-8.5252
 20
-25.8014
 30
0.0
 10
-8.5252
 20
-25.8014
 30
0.0
  0
SPLINE
  5
B3
330
1F
100
AcDbEntity
  8
Layer 1
 62
   175
100
AcDbSpline
210
0.0
220
0.0
230
1.0
 70
    11
 71
     3
 72
    20
 73
    16
 74
     0
 42
0.000000001
 43
0.0000000001
 40
0.0
 40
0.0
 40
0.0
 40
0.0
 40
0.2
 40
0.2
 40
0.2
 40
0.2
 40
0.4
 40
0.4
 40
0.4
 40
0.4
 40
0.6
 40
0.6
 40
0.6
 40
0.6
 40
1.0
 40
1.0
 40
1.0
 40
1.0
 10
-11.158
 20
-25.8014
 30
0.0
 10
-11.158
 20
-25.8014
 30
0.0
 10
-11.158
 20
-33.9738
 30
0.0
 10
-11.158
 20
-33.9738
 30
0.0
 10
-11.158
 20
-33.9738
 30
0.0
 10
-11.158
 20
-33.9738
 30
0.0
 10
-9.6955
 20
-33.9738
 30
0.0
 10
-9.6955
 20
-33.9738
 30
0.0
 10
-9.6955
 20
-33.9738
 30
0.0
 10
-9.6955
 20
-33.9738
 30
0.0
 10
-9.6955
 20
-25.8014
 30
0.0
 10
-9.6955
 20
-25.8014
 30
0.0
 10
-9.6955
 20
-25.8014
 30
0.0
 10
-9.6955
 20
-25.8014
 30
0.0
 10
-11.158
 20
-25.8014
 30
0.0
 10
-11.158
 20
-25.8014
 30
0.0
  0
SPLINE
  5
B4
330
1F
100
AcDbEntity
  8
Layer 1
 62
   175
100
AcDbSpline
210
0.0
220
0.0
230
1.0
 70
    11
 71
     3
 72
    28
 73
    24
 74
     0
 42
0.000000001
 43
0.0000000001
 40
0.0
 40
0.0
 40
0.0
 40
0.0
 40
0.1428571428571428
 40
0.1428571428571428
 40
0.1428571428571428
 40
0.1428571428571428
 40
0.2857142857142857
 40
0.2857142857142857
 40
0.2857142857142857
 40
0.2857142857142857
 40
0.4285714285714285
 40
0.4285714285714285
 40
0.4285714285714285
 40
0.4285714285714285
 40
0.5714285714285714
 40
0.5714285714285714
 40
0.5714285714285714
 40
0.5714285714285714
 40
0.7142857142857143
 40
0.7142857142857143
 40
0.7142857142857143
 40
0.7142857142857143
 40
1.0
 40
1.0
 40
1.0
 40
1.0
 10
-11.158
 20
-23.0169
 30
0.0
 10
-11.158
 20
-23.0169
 30
0.0
 10
-11.158
 20
-24.5638
 30
0.0
 10
-11.158
 20
-24.5638
 30
0.0
 10
-11.158
 20
-24.5638
 30
0.0
 10
-11.158
 20
-24.5638
 30
0.0
 10
-1.7925
 20
-24.5638
 30
0.0
 10
-1.7925
 20
-24.5638
 30
0.0
 10
-1.7925
 20
-24.5638
 30
0.0
 10
-1.7925
 20
-24.5638
 30
0.0
 10
-1.7925
 20
-23.0169
 30
0.0
 10
-1.7925
 20
-23.0169
 30
0.0
 10
-1.7925
 20
-23.0169
 30
0.0
 10
-1.7925
 20
-23.0169
 30
0.0
 10
-5.8955
 20
-23.0169
 30
0.0
 10
-5.8955
 20
-23.0169
 30
0.0
 10
-5.8955
 20
-23.0169
 30
0.0
 10
-5.8955
 20
-23.0169
 30
0.0
 10
-7.0673
 20
-23.0169
 30
0.0
 10
-7.0673
 20
-23.0169
 30
0.0
 10
-7.0673
 20
-23.0169
 30
0.0
 10
-7.0673
 20
-23.0169
 30
0.0
 10
-11.158
 20
-23.0169
 30
0.0
 10
-11.158
 20
-23.0169
 30
0.0
  0
SPLINE
  5
B5
330
1F
100
AcDbEntity
  8
Layer 1
 62
   175
100
AcDbSpline
210
0.0
220
0.0
230
1.0
 70
    11
 71
     3
 72
    20
 73
    16
 74
     0
 42
0.000000001
 43
0.0000000001
 40
0.0
 40
0.0
 40
0.0
 40
0.0
 40
0.2
 40
0.2
 40
0.2
 40
0.2
 40
0.4
 40
0.4
 40
0.4
 40
0.4
 40
0.6
 40
0.6
 40
0.6
 40
0.6
 40
1.0
 40
1.0
 40
1.0
 40
1.0
 10
-13.7938
 20
-23.0169
 30
0.0
 10
-13.7938
 20
-23.0169
 30
0.0
 10
-13.7938
 20
-31.1893
 30
0.0
 10
-13.7938
 20
-31.1893
 30
0.0
 10
-13.7938
 20
-31.1893
 30
0.0
 10
-13.7938
 20
-31.1893
 30
0.0
 10
-12.3298
 20
-31.1893
 30
0.0
 10
-12.3298
 20
-31.1893
 30
0.0
 10
-12.3298
 20
-31.1893
 30
0.0
 10
-12.3298
 20
-31.1893
 30
0.0
 10
-12.3298
 20
-23.0169
 30
0.0
 10
-12.3298
 20
-23.0169
 30
0.0
 10
-12.3298
 20
-23.0169
 30
0.0
 10
-12.3298
 20
-23.0169
 30
0.0
 10
-13.7938
 20
-23.0169
 30
0.0
 10
-13.7938
 20
-23.0169
 30
0.0
  0
SPLINE
  5
B6
330
1F
100
AcDbEntity
  8
Layer 1
 62
   175
100
AcDbSpline
210
0.0
220
0.0
230
1.0
 70
    11
 71
     3
 72
    20
 73
    16
 74
     0
 42
0.000000001
 43
0.0000000001
 40
0.0
 40
0.0
 40
0.0
 40
0.0
 40
0.2
 40
0.2
 40
0.2
 40
0.2
 40
0.4
 40
0.4
 40
0.4
 40
0.4
 40
0.6
 40
0.6
 40
0.6
 40
0.6
 40
1.0
 40
1.0
 40
1.0
 40
1.0
 10
-5.8955
 20
-20.2324
 30
0.0
 10
-5.8955
 20
-20.2324
 30
0.0
 10
-5.8955
 20
-21.7793
 30
0.0
 10
-5.8955
 20
-21.7793
 30
0.0
 10
-5.8955
 20
-21.7793
 30
0.0
 10
-5.8955
 20
-21.7793
 30
0.0
 10
-2.6859
 20
-21.7793
 30
0.0
 10
-2.6859
 20
-21.7793
 30
0.0
 10
-2.6859
 20
-21.7793
 30
0.0
 10
-2.6859
 20
-21.7793
 30
0.0
 10
-2.6859
 20
-20.2324
 30
0.0
 10
-2.6859
 20
-20.2324
 30
0.0
 10
-2.6859
 20
-20.2324
 30
0.0
 10
-2.6859
 20
-20.2324
 30
0.0
 10
-5.8955
 20
-20.2324
 30
0.0
 10
-5.8955
 20
-20.2324
 30
0.0
  0
SPLINE
  5
B7
330
1F
100
AcDbEntity
  8
Layer 1
 62
   175
100
AcDbSpline
210
0.0
220
0.0
230
1.0
 70
    11
 71
     3
 72
    20
 73
    16
 74
     0
 42
0.000000001
 43
0.0000000001
 40
0.0
 40
0.0
 40
0.0
 40
0.0
 40
0.2
 40
0.2
 40
0.2
 40
0.2
 40
0.4
 40
0.4
 40
0.4
 40
0.4
 40
0.6
 40
0.6
 40
0.6
 40
0.6
 40
1.0
 40
1.0
 40
1.0
 40
1.0
 10
-13.7938
 20
-20.2324
 30
0.0
 10
-13.7938
 20
-20.2324
 30
0.0
 10
-13.7938
 20
-21.7793
 30
0.0
 10
-13.7938
 20
-21.7793
 30
0.0
 10
-13.7938
 20
-21.7793
 30
0.0
 10
-13.7938
 20
-21.7793
 30
0.0
 10
-7.0673
 20
-21.7793
 30
0.0
 10
-7.0673
 20
-21.7793
 30
0.0
 10
-7.0673
 20
-21.7793
 30
0.0
 10
-7.0673
 20
-21.7793
 30
0.0
 10
-7.0673
 20
-20.2324
 30
0.0
 10
-7.0673
 20
-20.2324
 30
0.0
 10
-7.0673
 20
-20.2324
 30
0.0
 10
-7.0673
 20
-20.2324
 30
0.0
 10
-13.7938
 20
-20.2324
 30
0.0
 10
-13.7938
 20
-20.2324
 30
0.0
  0
SPLINE
  5
B8
330
1F
100
AcDbEntity
  8
Layer 1
 62
   175
100
AcDbSpline
210
0.0
220
0.0
230
1.0
 70
    11
 71
     3
 72
    20
 73
    16
 74
     0
 42
0.000000001
 43
0.0000000001
 40
0.0
 40
0.0
 40
0.0
 40
0.0
 40
0.2
 40
0.2
 40
0.2
 40
0.2
 40
0.4
 40
0.4
 40
0.4
 40
0.4
 40
0.6
 40
0.6
 40
0.6
 40
0.6
 40
1.0
 40
1.0
 40
1.0
 40
1.0
 10
-11.158
 20
-17.6057
 30
0.0
 10
-11.158
 20
-17.6057
 30
0.0
 10
-11.158
 20
-18.9948
 30
0.0
 10
-11.158
 20
-18.9948
 30
0.0
 10
-11.158
 20
-18.9948
 30
0.0
 10
-11.158
 20
-18.9948
 30
0.0
 10
-1.7925
 20
-18.9948
 30
0.0
 10
-1.7925
 20
-18.9948
 30
0.0
 10
-1.7925
 20
-18.9948
 30
0.0
 10
-1.7925
 20
-18.9948
 30
0.0
 10
-1.7925
 20
-17.6057
 30
0.0
 10
-1.7925
 20
-17.6057
 30
0.0
 10
-1.7925
 20
-17.6057
 30
0.0
 10
-1.7925
 20
-17.6057
 30
0.0
 10
-11.158
 20
-17.6057
 30
0.0
 10
-11.158
 20
-17.6057
 30
0.0
  0
SPLINE
  5
B9
330
1F
100
AcDbEntity
  8
Layer 1
 62
   175
100
AcDbSpline
210
0.0
220
0.0
230
1.0
 70
    11
 71
     3
 72
    20
 73
    16
 74
     0
 42
0.000000001
 43
0.0000000001
 40
0.0
 40
0.0
 40
0.0
 40
0.0
 40
0.2
 40
0.2
 40
0.2
 40
0.2
 40
0.4
 40
0.4
 40
0.4
 40
0.4
 40
0.6
 40
0.6
 40
0.6
 40
0.6
 40
1.0
 40
1.0
 40
1.0
 40
1.0
 10
-8.5252
 20
-14.9774
 30
0.0
 10
-8.5252
 20
-14.9774
 30
0.0
 10
-8.5252
 20
-16.3681
 30
0.0
 10
-8.5252
 20
-16.3681
 30
0.0
 10
-8.5252
 20
-16.3681
 30
0.0
 10
-8.5252
 20
-16.3681
 30
0.0
 10
-4.4299
 20
-16.3681
 30
0.0
 10
-4.4299
 20
-16.3681
 30
0.0
 10
-4.4299
 20
-16.3681
 30
0.0
 10
-4.4299
 20
-16.3681
 30
0.0
 10
-4.4299
 20
-14.9774
 30
0.0
 10
-4.4299
 20
-14.9774
 30
0.0
 10
-4.4299
 20
-14.9774
 30
0.0
 10
-4.4299
 20
-14.9774
 30
0.0
 10
-8.5252
 20
-14.9774
 30
0.0
 10
-8.5252
 20
-14.9774
 30
0.0
  0
SPLINE
  5
BA
330
1F
100
AcDbEntity
  8
Layer 1
 62
   175
100
AcDbSpline
210
0.0
220
0.0
230
1.0
 70
    11
 71
     3
 72
    20
 73
    16
 74
     0
 42
0.000000001
 43
0.0000000001
 40
0.0
 40
0.0
 40
0.0
 40
0.0
 40
0.2
 40
0.2
 40
0.2
 40
0.2
 40
0.4
 40
0.4
 40
0.4
 40
0.4
 40
0.6
 40
0.6
 40
0.6
 40
0.6
 40
1.0
 40
1.0
 40
1.0
 40
1.0
 10
-11.158
 20
-12.6647
 30
0.0
 10
-11.158
 20
-12.6647
 30
0.0
 10
-11.158
 20
-16.3681
 30
0.0
 10
-11.158
 20
-16.3681
 30
0.0
 10
-11.158
 20
-16.3681
 30
0.0
 10
-11.158
 20
-16.3681
 30
0.0
 10
-9.6955
 20
-16.3681
 30
0.0
 10
-9.6955
 20
-16.3681
 30
0.0
 10
-9.6955
 20
-16.3681
 30
0.0
 10
-9.6955
 20
-16.3681
 30
0.0
 10
-9.6955
 20
-12.6647
 30
0.0
 10
-9.6955
 20
-12.6647
 30
0.0
 10
-9.6955
 20
-12.6647
 30
0.0
 10
-9.6955
 20
-12.6647
 30
0.0
 10
-11.158
 20
-12.6647
 30
0.0
 10
-11.158
 20
-12.6647
 30
0.0
  0
SPLINE
  5
BB
330
1F
100
AcDbEntity
  8
Layer 1
 62
   175
100
AcDbSpline
210
0.0
220
0.0
230
1.0
 70
    11
 71
     3
 72
    20
 73
    16
 74
     0
 42
0.000000001
 43
0.0000000001
 40
0.0
 40
0.0
 40
0.0
 40
0.0
 40
0.2
 40
0.2
 40
0.2
 40
0.2
 40
0.4
 40
0.4
 40
0.4
 40
0.4
 40
0.6
 40
0.6
 40
0.6
 40
0.6
 40
1.0
 40
1.0
 40
1.0
 40
1.0
 10
-13.7938
 20
-12.6647
 30
0.0
 10
-13.7938
 20
-12.6647
 30
0.0
 10
-13.7938
 20
-18.9948
 30
0.0
 10
-13.7938
 20
-18.9948
 30
0.0
 10
-13.7938
 20
-18.9948
 30
0.0
 10
-13.7938
 20
-18.9948
 30
0.0
 10
-12.3298
 20
-18.9948
 30
0.0
 10
-12.3298
 20
-18.9948
 30
0.0
 10
-12.3298
 20
-18.9948
 30
0.0
 10
-12.3298
 20
-18.9948
 30
0.0
 10
-12.3298
 20
-12.6647
 30
0.0
 10
-12.3298
 20
-12.6647
 30
0.0
 10
-12.3298
 20
-12.6647
 30
0.0
 10
-12.3298
 20
-12.6647
 30
0.0
 10
-13.7938
 20
-12.6647
 30
0.0
 10
-13.7938
 20
-12.6647
 30
0.0
  0
SPLINE
  5
BC
330
1F
100
AcDbEntity
  8
Layer 1
 62
   175
100
AcDbSpline
210
0.0
220
0.0
230
1.0
 70
    11
 71
     3
 72
    28
 73
    24
 74
     0
 42
0.000000001
 43
0.0000000001
 40
0.0
 40
0.0
 40
0.0
 40
0.0
 40
0.1428571428571428
 40
0.1428571428571428
 40
0.1428571428571428
 40
0.1428571428571428
 40
0.2857142857142857
 40
0.2857142857142857
 40
0.2857142857142857
 40
0.2857142857142857
 40
0.4285714285714285
 40
0.4285714285714285
 40
0.4285714285714285
 40
0.4285714285714285
 40
0.5714285714285714
 40
0.5714285714285714
 40
0.5714285714285714
 40
0.5714285714285714
 40
0.7142857142857143
 40
0.7142857142857143
 40
0.7142857142857143
 40
0.7142857142857143
 40
1.0
 40
1.0
 40
1.0
 40
1.0
 10
-3.2581
 20
-6.3099
 30
0.0
 10
-3.2581
 20
-6.3099
 30
0.0
 10
-3.2581
 20
-13.7399
 30
0.0
 10
-3.2581
 20
-13.7399
 30
0.0
 10
-3.2581
 20
-13.7399
 30
0.0
 10
-3.2581
 20
-13.7399
 30
0.0
 10
-3.2581
 20
-14.9774
 30
0.0
 10
-3.2581
 20
-14.9774
 30
0.0
 10
-3.2581
 20
-14.9774
 30
0.0
 10
-3.2581
 20
-14.9774
 30
0.0
 10
-3.2581
 20
-16.3681
 30
0.0
 10
-3.2581
 20
-16.3681
 30
0.0
 10
-3.2581
 20
-16.3681
 30
0.0
 10
-3.2581
 20
-16.3681
 30
0.0
 10
-1.7925
 20
-16.3681
 30
0.0
 10
-1.7925
 20
-16.3681
 30
0.0
 10
-1.7925
 20
-16.3681
 30
0.0
 10
-1.7925
 20
-16.3681
 30
0.0
 10
-1.7925
 20
-6.3099
 30
0.0
 10
-1.7925
 20
-6.3099
 30
0.0
 10
-1.7925
 20
-6.3099
 30
0.0
 10
-1.7925
 20
-6.3099
 30
0.0
 10
-3.2581
 20
-6.3099
 30
0.0
 10
-3.2581
 20
-6.3099
 30
0.0
  0
SPLINE
  5
BD
330
1F
100
AcDbEntity
  8
Layer 1
 62
   175
100
AcDbSpline
210
0.0
220
0.0
230
1.0
 70
    11
 71
     3
 72
    28
 73
    24
 74
     0
 42
0.000000001
 43
0.0000000001
 40
0.0
 40
0.0
 40
0.0
 40
0.0
 40
0.1428571428571428
 40
0.1428571428571428
 40
0.1428571428571428
 40
0.1428571428571428
 40
0.2857142857142857
 40
0.2857142857142857
 40
0.2857142857142857
 40
0.2857142857142857
 40
0.4285714285714285
 40
0.4285714285714285
 40
0.4285714285714285
 40
0.4285714285714285
 40
0.5714285714285714
 40
0.5714285714285714
 40
0.5714285714285714
 40
0.5714285714285714
 40
0.7142857142857143
 40
0.7142857142857143
 40
0.7142857142857143
 40
0.7142857142857143
 40
1.0
 40
1.0
 40
1.0
 40
1.0
 10
-8.5252
 20
-9.41
 30
0.0
 10
-8.5252
 20
-9.41
 30
0.0
 10
-8.5252
 20
-13.7399
 30
0.0
 10
-8.5252
 20
-13.7399
 30
0.0
 10
-8.5252
 20
-13.7399
 30
0.0
 10
-8.5252
 20
-13.7399
 30
0.0
 10
-7.0673
 20
-13.7399
 30
0.0
 10
-7.0673
 20
-13.7399
 30
0.0
 10
-7.0673
 20
-13.7399
 30
0.0
 10
-7.0673
 20
-13.7399
 30
0.0
 10
-7.0673
 20
-7.6403
 30
0.0
 10
-7.0673
 20
-7.6403
 30
0.0
 10
-7.0673
 20
-7.6403
 30
0.0
 10
-7.0673
 20
-7.6403
 30
0.0
 10
-7.5002
 20
-8.256
 30
0.0
 10
-7.5002
 20
-8.256
 30
0.0
 10
-7.5002
 20
-8.256
 30
0.0
 10
-7.5002
 20
-8.256
 30
0.0
 10
-7.9224
 20
-8.7726
 30
0.0
 10
-7.9224
 20
-8.7726
 30
0.0
 10
-7.9224
 20
-8.7726
 30
0.0
 10
-7.9224
 20
-8.7726
 30
0.0
 10
-8.5252
 20
-9.41
 30
0.0
 10
-8.5252
 20
-9.41
 30
0.0
  0
SPLINE
  5
BE
330
1F
100
AcDbEntity
  8
Layer 1
 62
   175
100
AcDbSpline
210
0.0
220
0.0
230
1.0
 70
    11
 71
     3
 72
    24
 73
    20
 74
     0
 42
0.000000001
 43
0.0000000001
 40
0.0
 40
0.0
 40
0.0
 40
0.0
 40
0.1666666666666667
 40
0.1666666666666667
 40
0.1666666666666667
 40
0.1666666666666667
 40
0.3333333333333333
 40
0.3333333333333333
 40
0.3333333333333333
 40
0.3333333333333333
 40
0.5
 40
0.5
 40
0.5
 40
0.5
 40
0.6666666666666666
 40
0.6666666666666666
 40
0.6666666666666666
 40
0.6666666666666666
 40
1.0
 40
1.0
 40
1.0
 40
1.0
 10
-11.158
 20
-11.1549
 30
0.0
 10
-11.158
 20
-11.1549
 30
0.0
 10
-11.158
 20
-11.4272
 30
0.0
 10
-11.158
 20
-11.4272
 30
0.0
 10
-11.158
 20
-11.4272
 30
0.0
 10
-11.158
 20
-11.4272
 30
0.0
 10
-9.6955
 20
-11.4272
 30
0.0
 10
-9.6955
 20
-11.4272
 30
0.0
 10
-9.6955
 20
-11.4272
 30
0.0
 10
-9.6955
 20
-11.4272
 30
0.0
 10
-9.6955
 20
-10.366
 30
0.0
 10
-9.6955
 20
-10.366
 30
0.0
 10
-9.6955
 20
-10.366
 30
0.0
 10
-9.6955
 20
-10.366
 30
0.0
 10
-10.5736
 20
-10.8765
 30
0.0
 10
-10.5736
 20
-10.8765
 30
0.0
 10
-10.5736
 20
-10.8765
 30
0.0
 10
-10.5736
 20
-10.8765
 30
0.0
 10
-11.158
 20
-11.1549
 30
0.0
 10
-11.158
 20
-11.1549
 30
0.0
  0
SPLINE
  5
BF
330
1F
100
AcDbEntity
  8
Layer 1
 62
   175
100
AcDbSpline
210
0.0
220
0.0
230
1.0
 70
    11
 71
     3
 72
    20
 73
    16
 74
     0
 42
0.000000001
 43
0.0000000001
 40
0.0
 40
0.0
 40
0.0
 40
0.0
 40
0.2
 40
0.2
 40
0.2
 40
0.2
 40
0.4
 40
0.4
 40
0.4
 40
0.4
 40
0.6
 40
0.6
 40
0.6
 40
0.6
 40
1.0
 40
1.0
 40
1.0
 40
1.0
 10
-3.2581
 20
-2.4333
 30
0.0
 10
-3.2581
 20
-2.4333
 30
0.0
 10
-3.2581
 20
-5.0724
 30
0.0
 10
-3.2581
 20
-5.0724
 30
0.0
 10
-3.2581
 20
-5.0724
 30
0.0
 10
-3.2581
 20
-5.0724
 30
0.0
 10
-1.7925
 20
-5.0724
 30
0.0
 10
-1.7925
 20
-5.0724
 30
0.0
 10
-1.7925
 20
-5.0724
 30
0.0
 10
-1.7925
 20
-5.0724
 30
0.0
 10
-1.7925
 20
-2.4333
 30
0.0
 10
-1.7925
 20
-2.4333
 30
0.0
 10
-1.7925
 20
-2.4333
 30
0.0
 10
-1.7925
 20
-2.4333
 30
0.0
 10
-3.2581
 20
-2.4333
 30
0.0
 10
-3.2581
 20
-2.4333
 30
0.0
  0
SPLINE
  5
C0
330
1F
100
AcDbEntity
  8
Layer 1
 62
   175
100
AcDbSpline
210
0.0
220
0.0
230
1.0
 70
    11
 71
     3
 72
    28
 73
    24
 74
     0
 42
0.000000001
 43
0.0000000001
 40
0.0
 40
0.0
 40
0.0
 40
0.0
 40
0.1428571428571428
 40
0.1428571428571428
 40
0.1428571428571428
 40
0.1428571428571428
 40
0.2857142857142857
 40
0.2857142857142857
 40
0.2857142857142857
 40
0.2857142857142857
 40
0.4285714285714285
 40
0.4285714285714285
 40
0.4285714285714285
 40
0.4285714285714285
 40
0.5714285714285714
 40
0.5714285714285714
 40
0.5714285714285714
 40
0.5714285714285714
 40
0.7142857142857143
 40
0.7142857142857143
 40
0.7142857142857143
 40
0.7142857142857143
 40
1.0
 40
1.0
 40
1.0
 40
1.0
 10
-5.1183
 20
-2.4333
 30
0.0
 10
-5.1183
 20
-2.4333
 30
0.0
 10
-5.4335
 20
-3.94
 30
0.0
 10
-5.4335
 20
-3.94
 30
0.0
 10
-5.4335
 20
-3.94
 30
0.0
 10
-5.4335
 20
-3.94
 30
0.0
 10
-5.8955
 20
-5.357
 30
0.0
 10
-5.8955
 20
-5.357
 30
0.0
 10
-5.8955
 20
-5.357
 30
0.0
 10
-5.8955
 20
-5.357
 30
0.0
 10
-5.8955
 20
-13.7399
 30
0.0
 10
-5.8955
 20
-13.7399
 30
0.0
 10
-5.8955
 20
-13.7399
 30
0.0
 10
-5.8955
 20
-13.7399
 30
0.0
 10
-4.4299
 20
-13.7399
 30
0.0
 10
-4.4299
 20
-13.7399
 30
0.0
 10
-4.4299
 20
-13.7399
 30
0.0
 10
-4.4299
 20
-13.7399
 30
0.0
 10
-4.4299
 20
-2.4333
 30
0.0
 10
-4.4299
 20
-2.4333
 30
0.0
 10
-4.4299
 20
-2.4333
 30
0.0
 10
-4.4299
 20
-2.4333
 30
0.0
 10
-5.1183
 20
-2.4333
 30
0.0
 10
-5.1183
 20
-2.4333
 30
0.0
  0
SPLINE
  5
C1
330
1F
100
AcDbEntity
  8
Layer 1
 62
   175
100
AcDbSpline
210
0.0
220
0.0
230
1.0
 70
    11
 71
     3
 72
    52
 73
    48
 74
     0
 42
0.000000001
 43
0.0000000001
 40
0.0
 40
0.0
 40
0.0
 40
0.0
 40
0.0769230769230769
 40
0.0769230769230769
 40
0.0769230769230769
 40
0.0769230769230769
 40
0.1538461538461539
 40
0.1538461538461539
 40
0.1538461538461539
 40
0.1538461538461539
 40
0.2307692307692308
 40
0.2307692307692308
 40
0.2307692307692308
 40
0.2307692307692308
 40
0.3076923076923077
 40
0.3076923076923077
 40
0.3076923076923077
 40
0.3076923076923077
 40
0.3846153846153846
 40
0.3846153846153846
 40
0.3846153846153846
 40
0.3846153846153846
 40
0.4615384615384616
 40
0.4615384615384616
 40
0.4615384615384616
 40
0.4615384615384616
 40
0.5384615384615384
 40
0.5384615384615384
 40
0.5384615384615384
 40
0.5384615384615384
 40
0.6153846153846154
 40
0.6153846153846154
 40
0.6153846153846154
 40
0.6153846153846154
 40
0.6923076923076923
 40
0.6923076923076923
 40
0.6923076923076923
 40
0.6923076923076923
 40
0.7692307692307693
 40
0.7692307692307693
 40
0.7692307692307693
 40
0.7692307692307693
 40
0.8461538461538461
 40
0.8461538461538461
 40
0.8461538461538461
 40
0.8461538461538461
 40
1.0
 40
1.0
 40
1.0
 40
1.0
 10
-4.9531
 20
-0.6172
 30
0.0
 10
-4.9531
 20
-0.6172
 30
0.0
 10
-4.947
 20
-0.6172
 30
0.0
 10
-4.947
 20
-0.6172
 30
0.0
 10
-4.947
 20
-0.6172
 30
0.0
 10
-4.947
 20
-0.6172
 30
0.0
 10
-4.9485
 20
-0.3929
 30
0.0
 10
-4.9485
 20
-0.3929
 30
0.0
 10
-4.9485
 20
-0.3929
 30
0.0
 10
-4.9485
 20
-0.3929
 30
0.0
 10
-4.947
 20
-0.3619
 30
0.0
 10
-4.947
 20
-0.3619
 30
0.0
 10
-4.947
 20
-0.3619
 30
0.0
 10
-4.947
 20
-0.3619
 30
0.0
 10
-4.947
 20
-0.3604
 30
0.0
 10
-4.947
 20
-0.3604
 30
0.0
 10
-4.947
 20
-0.3604
 30
0.0
 10
-4.947
 20
-0.3604
 30
0.0
 10
-4.947
 20
-0.3573
 30
0.0
 10
-4.947
 20
-0.3573
 30
0.0
 10
-4.947
 20
-0.3573
 30
0.0
 10
-4.947
 20
-0.3573
 30
0.0
 10
-4.947
 20
-0.3264
 30
0.0
 10
-4.947
 20
-0.3264
 30
0.0
 10
-4.947
 20
-0.3264
 30
0.0
 10
-4.947
 20
-0.3264
 30
0.0
 10
-4.9531
 20
-0.3264
 30
0.0
 10
-4.9531
 20
-0.3264
 30
0.0
 10
-4.9531
 20
-0.3264
 30
0.0
 10
-4.9531
 20
-0.3264
 30
0.0
 10
-4.9806
 20
0.2522
 30
0.0
 10
-4.9806
 20
0.2522
 30
0.0
 10
-4.9806
 20
0.2522
 30
0.0
 10
-4.9806
 20
0.2522
 30
0.0
 10
-4.4299
 20
0.2522
 30
0.0
 10
-4.4299
 20
0.2522
 30
0.0
 10
-4.4299
 20
0.2522
 30
0.0
 10
-4.4299
 20
0.2522
 30
0.0
 10
-4.4299
 20
-1.1957
 30
0.0
 10
-4.4299
 20
-1.1957
 30
0.0
 10
-4.4299
 20
-1.1957
 30
0.0
 10
-4.4299
 20
-1.1957
 30
0.0
 10
-4.9806
 20
-1.1957
 30
0.0
 10
-4.9806
 20
-1.1957
 30
0.0
 10
-4.9806
 20
-1.1957
 30
0.0
 10
-4.9806
 20
-1.1957
 30
0.0
 10
-4.9531
 20
-0.6172
 30
0.0
 10
-4.9531
 20
-0.6172
 30
0.0
  0
SPLINE
  5
C2
330
1F
100
AcDbEntity
  8
Layer 1
 62
   175
100
AcDbSpline
210
0.0
220
0.0
230
1.0
 70
    11
 71
     3
 72
    20
 73
    16
 74
     0
 42
0.000000001
 43
0.0000000001
 40
0.0
 40
0.0
 40
0.0
 40
0.0
 40
0.2
 40
0.2
 40
0.2
 40
0.2
 40
0.4
 40
0.4
 40
0.4
 40
0.4
 40
0.6
 40
0.6
 40
0.6
 40
0.6
 40
1.0
 40
1.0
 40
1.0
 40
1.0
 10
3.47
 20
35.2115
 30
0.0
 10
3.47
 20
35.2115
 30
0.0
 10
3.47
 20
36.7584
 30
0.0
 10
3.47
 20
36.7584
 30
0.0
 10
3.47
 20
36.7584
 30
0.0
 10
3.47
 20
36.7584
 30
0.0
 10
-3.2581
 20
36.7584
 30
0.0
 10
-3.2581
 20
36.7584
 30
0.0
 10
-3.2581
 20
36.7584
 30
0.0
 10
-3.2581
 20
36.7584
 30
0.0
 10
-3.2581
 20
35.2115
 30
0.0
 10
-3.2581
 20
35.2115
 30
0.0
 10
-3.2581
 20
35.2115
 30
0.0
 10
-3.2581
 20
35.2115
 30
0.0
 10
3.47
 20
35.2115
 30
0.0
 10
3.47
 20
35.2115
 30
0.0
  0
SPLINE
  5
C3
330
1F
100
AcDbEntity
  8
Layer 1
 62
   175
100
AcDbSpline
210
0.0
220
0.0
230
1.0
 70
    11
 71
     3
 72
    20
 73
    16
 74
     0
 42
0.000000001
 43
0.0000000001
 40
0.0
 40
0.0
 40
0.0
 40
0.0
 40
0.2
 40
0.2
 40
0.2
 40
0.2
 40
0.4
 40
0.4
 40
0.4
 40
0.4
 40
0.6
 40
0.6
 40
0.6
 40
0.6
 40
1.0
 40
1.0
 40
1.0
 40
1.0
 10
0.8326
 20
32.427
 30
0.0
 10
0.8326
 20
32.427
 30
0.0
 10
0.8326
 20
33.9739
 30
0.0
 10
0.8326
 20
33.9739
 30
0.0
 10
0.8326
 20
33.9739
 30
0.0
 10
0.8326
 20
33.9739
 30
0.0
 10
-0.6207
 20
33.9739
 30
0.0
 10
-0.6207
 20
33.9739
 30
0.0
 10
-0.6207
 20
33.9739
 30
0.0
 10
-0.6207
 20
33.9739
 30
0.0
 10
-0.6207
 20
32.427
 30
0.0
 10
-0.6207
 20
32.427
 30
0.0
 10
-0.6207
 20
32.427
 30
0.0
 10
-0.6207
 20
32.427
 30
0.0
 10
0.8326
 20
32.427
 30
0.0
 10
0.8326
 20
32.427
 30
0.0
  0
SPLINE
  5
C4
330
1F
100
AcDbEntity
  8
Layer 1
 62
   175
100
AcDbSpline
210
0.0
220
0.0
230
1.0
 70
    11
 71
     3
 72
    52
 73
    48
 74
     0
 42
0.000000001
 43
0.0000000001
 40
0.0
 40
0.0
 40
0.0
 40
0.0
 40
0.0769230769230769
 40
0.0769230769230769
 40
0.0769230769230769
 40
0.0769230769230769
 40
0.1538461538461539
 40
0.1538461538461539
 40
0.1538461538461539
 40
0.1538461538461539
 40
0.2307692307692308
 40
0.2307692307692308
 40
0.2307692307692308
 40
0.2307692307692308
 40
0.3076923076923077
 40
0.3076923076923077
 40
0.3076923076923077
 40
0.3076923076923077
 40
0.3846153846153846
 40
0.3846153846153846
 40
0.3846153846153846
 40
0.3846153846153846
 40
0.4615384615384616
 40
0.4615384615384616
 40
0.4615384615384616
 40
0.4615384615384616
 40
0.5384615384615384
 40
0.5384615384615384
 40
0.5384615384615384
 40
0.5384615384615384
 40
0.6153846153846154
 40
0.6153846153846154
 40
0.6153846153846154
 40
0.6153846153846154
 40
0.6923076923076923
 40
0.6923076923076923
 40
0.6923076923076923
 40
0.6923076923076923
 40
0.7692307692307693
 40
0.7692307692307693
 40
0.7692307692307693
 40
0.7692307692307693
 40
0.8461538461538461
 40
0.8461538461538461
 40
0.8461538461538461
 40
0.8461538461538461
 40
1.0
 40
1.0
 40
1.0
 40
1.0
 10
0.8326
 20
22.0749
 30
0.0
 10
0.8326
 20
22.0749
 30
0.0
 10
0.8326
 20
23.6218
 30
0.0
 10
0.8326
 20
23.6218
 30
0.0
 10
0.8326
 20
23.6218
 30
0.0
 10
0.8326
 20
23.6218
 30
0.0
 10
0.8295
 20
23.6218
 30
0.0
 10
0.8295
 20
23.6218
 30
0.0
 10
0.8295
 20
23.6218
 30
0.0
 10
0.8295
 20
23.6218
 30
0.0
 10
0.8295
 20
24.8594
 30
0.0
 10
0.8295
 20
24.8594
 30
0.0
 10
0.8295
 20
24.8594
 30
0.0
 10
0.8295
 20
24.8594
 30
0.0
 10
0.8326
 20
24.8594
 30
0.0
 10
0.8326
 20
24.8594
 30
0.0
 10
0.8326
 20
24.8594
 30
0.0
 10
0.8326
 20
24.8594
 30
0.0
 10
0.8326
 20
31.1894
 30
0.0
 10
0.8326
 20
31.1894
 30
0.0
 10
0.8326
 20
31.1894
 30
0.0
 10
0.8326
 20
31.1894
 30
0.0
 10
-0.6207
 20
31.1894
 30
0.0
 10
-0.6207
 20
31.1894
 30
0.0
 10
-0.6207
 20
31.1894
 30
0.0
 10
-0.6207
 20
31.1894
 30
0.0
 10
-0.6207
 20
24.8594
 30
0.0
 10
-0.6207
 20
24.8594
 30
0.0
 10
-0.6207
 20
24.8594
 30
0.0
 10
-0.6207
 20
24.8594
 30
0.0
 10
-0.6177
 20
24.8594
 30
0.0
 10
-0.6177
 20
24.8594
 30
0.0
 10
-0.6177
 20
24.8594
 30
0.0
 10
-0.6177
 20
24.8594
 30
0.0
 10
-0.6177
 20
23.6218
 30
0.0
 10
-0.6177
 20
23.6218
 30
0.0
 10
-0.6177
 20
23.6218
 30
0.0
 10
-0.6177
 20
23.6218
 30
0.0
 10
-0.6207
 20
23.6218
 30
0.0
 10
-0.6207
 20
23.6218
 30
0.0
 10
-0.6207
 20
23.6218
 30
0.0
 10
-0.6207
 20
23.6218
 30
0.0
 10
-0.6207
 20
22.0749
 30
0.0
 10
-0.6207
 20
22.0749
 30
0.0
 10
-0.6207
 20
22.0749
 30
0.0
 10
-0.6207
 20
22.0749
 30
0.0
 10
0.8326
 20
22.0749
 30
0.0
 10
0.8326
 20
22.0749
 30
0.0
  0
SPLINE
  5
C5
330
1F
100
AcDbEntity
  8
Layer 1
 62
   175
100
AcDbSpline
210
0.0
220
0.0
230
1.0
 70
    11
 71
     3
 72
    20
 73
    16
 74
     0
 42
0.000000001
 43
0.0000000001
 40
0.0
 40
0.0
 40
0.0
 40
0.0
 40
0.2
 40
0.2
 40
0.2
 40
0.2
 40
0.4
 40
0.4
 40
0.4
 40
0.4
 40
0.6
 40
0.6
 40
0.6
 40
0.6
 40
1.0
 40
1.0
 40
1.0
 40
1.0
 10
1.726
 20
19.2904
 30
0.0
 10
1.726
 20
19.2904
 30
0.0
 10
1.726
 20
20.8373
 30
0.0
 10
1.726
 20
20.8373
 30
0.0
 10
1.726
 20
20.8373
 30
0.0
 10
1.726
 20
20.8373
 30
0.0
 10
-1.5141
 20
20.8373
 30
0.0
 10
-1.5141
 20
20.8373
 30
0.0
 10
-1.5141
 20
20.8373
 30
0.0
 10
-1.5141
 20
20.8373
 30
0.0
 10
-1.5141
 20
19.2904
 30
0.0
 10
-1.5141
 20
19.2904
 30
0.0
 10
-1.5141
 20
19.2904
 30
0.0
 10
-1.5141
 20
19.2904
 30
0.0
 10
1.726
 20
19.2904
 30
0.0
 10
1.726
 20
19.2904
 30
0.0
  0
SPLINE
  5
C6
330
1F
100
AcDbEntity
  8
Layer 1
 62
   175
100
AcDbSpline
210
0.0
220
0.0
230
1.0
 70
    11
 71
     3
 72
    52
 73
    48
 74
     0
 42
0.000000001
 43
0.0000000001
 40
0.0
 40
0.0
 40
0.0
 40
0.0
 40
0.0769230769230769
 40
0.0769230769230769
 40
0.0769230769230769
 40
0.0769230769230769
 40
0.1538461538461539
 40
0.1538461538461539
 40
0.1538461538461539
 40
0.1538461538461539
 40
0.2307692307692308
 40
0.2307692307692308
 40
0.2307692307692308
 40
0.2307692307692308
 40
0.3076923076923077
 40
0.3076923076923077
 40
0.3076923076923077
 40
0.3076923076923077
 40
0.3846153846153846
 40
0.3846153846153846
 40
0.3846153846153846
 40
0.3846153846153846
 40
0.4615384615384616
 40
0.4615384615384616
 40
0.4615384615384616
 40
0.4615384615384616
 40
0.5384615384615384
 40
0.5384615384615384
 40
0.5384615384615384
 40
0.5384615384615384
 40
0.6153846153846154
 40
0.6153846153846154
 40
0.6153846153846154
 40
0.6153846153846154
 40
0.6923076923076923
 40
0.6923076923076923
 40
0.6923076923076923
 40
0.6923076923076923
 40
0.7692307692307693
 40
0.7692307692307693
 40
0.7692307692307693
 40
0.7692307692307693
 40
0.8461538461538461
 40
0.8461538461538461
 40
0.8461538461538461
 40
0.8461538461538461
 40
1.0
 40
1.0
 40
1.0
 40
1.0
 10
0.8326
 20
8.1509
 30
0.0
 10
0.8326
 20
8.1509
 30
0.0
 10
0.8326
 20
15.4246
 30
0.0
 10
0.8326
 20
15.4246
 30
0.0
 10
0.8326
 20
15.4246
 30
0.0
 10
0.8326
 20
15.4246
 30
0.0
 10
0.8295
 20
15.4246
 30
0.0
 10
0.8295
 20
15.4246
 30
0.0
 10
0.8295
 20
15.4246
 30
0.0
 10
0.8295
 20
15.4246
 30
0.0
 10
0.8295
 20
16.6621
 30
0.0
 10
0.8295
 20
16.6621
 30
0.0
 10
0.8295
 20
16.6621
 30
0.0
 10
0.8295
 20
16.6621
 30
0.0
 10
0.8326
 20
16.6621
 30
0.0
 10
0.8326
 20
16.6621
 30
0.0
 10
0.8326
 20
16.6621
 30
0.0
 10
0.8326
 20
16.6621
 30
0.0
 10
0.8326
 20
18.0528
 30
0.0
 10
0.8326
 20
18.0528
 30
0.0
 10
0.8326
 20
18.0528
 30
0.0
 10
0.8326
 20
18.0528
 30
0.0
 10
-0.6207
 20
18.0528
 30
0.0
 10
-0.6207
 20
18.0528
 30
0.0
 10
-0.6207
 20
18.0528
 30
0.0
 10
-0.6207
 20
18.0528
 30
0.0
 10
-0.6207
 20
16.6621
 30
0.0
 10
-0.6207
 20
16.6621
 30
0.0
 10
-0.6207
 20
16.6621
 30
0.0
 10
-0.6207
 20
16.6621
 30
0.0
 10
-0.6177
 20
16.6621
 30
0.0
 10
-0.6177
 20
16.6621
 30
0.0
 10
-0.6177
 20
16.6621
 30
0.0
 10
-0.6177
 20
16.6621
 30
0.0
 10
-0.6177
 20
15.4246
 30
0.0
 10
-0.6177
 20
15.4246
 30
0.0
 10
-0.6177
 20
15.4246
 30
0.0
 10
-0.6177
 20
15.4246
 30
0.0
 10
-0.6207
 20
15.4246
 30
0.0
 10
-0.6207
 20
15.4246
 30
0.0
 10
-0.6207
 20
15.4246
 30
0.0
 10
-0.6207
 20
15.4246
 30
0.0
 10
-0.6207
 20
8.1509
 30
0.0
 10
-0.6207
 20
8.1509
 30
0.0
 10
-0.6207
 20
8.1509
 30
0.0
 10
-0.6207
 20
8.1509
 30
0.0
 10
0.8326
 20
8.1509
 30
0.0
 10
0.8326
 20
8.1509
 30
0.0
  0
SPLINE
  5
C7
330
1F
100
AcDbEntity
  8
Layer 1
 62
   175
100
AcDbSpline
210
0.0
220
0.0
230
1.0
 70
    11
 71
     3
 72
    20
 73
    16
 74
     0
 42
0.000000001
 43
0.0000000001
 40
0.0
 40
0.0
 40
0.0
 40
0.0
 40
0.2
 40
0.2
 40
0.2
 40
0.2
 40
0.4
 40
0.4
 40
0.4
 40
0.4
 40
0.6
 40
0.6
 40
0.6
 40
0.6
 40
1.0
 40
1.0
 40
1.0
 40
1.0
 10
0.8326
 20
4.6935
 30
0.0
 10
0.8326
 20
4.6935
 30
0.0
 10
0.8326
 20
6.9133
 30
0.0
 10
0.8326
 20
6.9133
 30
0.0
 10
0.8326
 20
6.9133
 30
0.0
 10
0.8326
 20
6.9133
 30
0.0
 10
-0.6207
 20
6.9133
 30
0.0
 10
-0.6207
 20
6.9133
 30
0.0
 10
-0.6207
 20
6.9133
 30
0.0
 10
-0.6207
 20
6.9133
 30
0.0
 10
-0.6207
 20
4.6935
 30
0.0
 10
-0.6207
 20
4.6935
 30
0.0
 10
-0.6207
 20
4.6935
 30
0.0
 10
-0.6207
 20
4.6935
 30
0.0
 10
0.8326
 20
4.6935
 30
0.0
 10
0.8326
 20
4.6935
 30
0.0
  0
SPLINE
  5
C8
330
1F
100
AcDbEntity
  8
Layer 1
 62
   175
100
AcDbSpline
210
0.0
220
0.0
230
1.0
 70
    11
 71
     3
 72
   148
 73
   144
 74
     0
 42
0.000000001
 43
0.0000000001
 40
0.0
 40
0.0
 40
0.0
 40
0.0
 40
0.027027027027027
 40
0.027027027027027
 40
0.027027027027027
 40
0.027027027027027
 40
0.0540540540540541
 40
0.0540540540540541
 40
0.0540540540540541
 40
0.0540540540540541
 40
0.0810810810810811
 40
0.0810810810810811
 40
0.0810810810810811
 40
0.0810810810810811
 40
0.1081081081081081
 40
0.1081081081081081
 40
0.1081081081081081
 40
0.1081081081081081
 40
0.1351351351351351
 40
0.1351351351351351
 40
0.1351351351351351
 40
0.1351351351351351
 40
0.1621621621621622
 40
0.1621621621621622
 40
0.1621621621621622
 40
0.1621621621621622
 40
0.1891891891891892
 40
0.1891891891891892
 40
0.1891891891891892
 40
0.1891891891891892
 40
0.2162162162162162
 40
0.2162162162162162
 40
0.2162162162162162
 40
0.2162162162162162
 40
0.2432432432432433
 40
0.2432432432432433
 40
0.2432432432432433
 40
0.2432432432432433
 40
0.2702702702702703
 40
0.2702702702702703
 40
0.2702702702702703
 40
0.2702702702702703
 40
0.2972972972972973
 40
0.2972972972972973
 40
0.2972972972972973
 40
0.2972972972972973
 40
0.3243243243243243
 40
0.3243243243243243
 40
0.3243243243243243
 40
0.3243243243243243
 40
0.3513513513513514
 40
0.3513513513513514
 40
0.3513513513513514
 40
0.3513513513513514
 40
0.3783783783783784
 40
0.3783783783783784
 40
0.3783783783783784
 40
0.3783783783783784
 40
0.4054054054054054
 40
0.4054054054054054
 40
0.4054054054054054
 40
0.4054054054054054
 40
0.4324324324324325
 40
0.4324324324324325
 40
0.4324324324324325
 40
0.4324324324324325
 40
0.4594594594594595
 40
0.4594594594594595
 40
0.4594594594594595
 40
0.4594594594594595
 40
0.4864864864864865
 40
0.4864864864864865
 40
0.4864864864864865
 40
0.4864864864864865
 40
0.5135135135135135
 40
0.5135135135135135
 40
0.5135135135135135
 40
0.5135135135135135
 40
0.5405405405405406
 40
0.5405405405405406
 40
0.5405405405405406
 40
0.5405405405405406
 40
0.5675675675675675
 40
0.5675675675675675
 40
0.5675675675675675
 40
0.5675675675675675
 40
0.5945945945945946
 40
0.5945945945945946
 40
0.5945945945945946
 40
0.5945945945945946
 40
0.6216216216216216
 40
0.6216216216216216
 40
0.6216216216216216
 40
0.6216216216216216
 40
0.6486486486486487
 40
0.6486486486486487
 40
0.6486486486486487
 40
0.6486486486486487
 40
0.6756756756756757
 40
0.6756756756756757
 40
0.6756756756756757
 40
0.6756756756756757
 40
0.7027027027027027
 40
0.7027027027027027
 40
0.7027027027027027
 40
0.7027027027027027
 40
0.7297297297297297
 40
0.7297297297297297
 40
0.7297297297297297
 40
0.7297297297297297
 40
0.7567567567567568
 40
0.7567567567567568
 40
0.7567567567567568
 40
0.7567567567567568
 40
0.7837837837837838
 40
0.7837837837837838
 40
0.7837837837837838
 40
0.7837837837837838
 40
0.8108108108108109
 40
0.8108108108108109
 40
0.8108108108108109
 40
0.8108108108108109
 40
0.8378378378378378
 40
0.8378378378378378
 40
0.8378378378378378
 40
0.8378378378378378
 40
0.8648648648648649
 40
0.8648648648648649
 40
0.8648648648648649
 40
0.8648648648648649
 40
0.8918918918918919
 40
0.8918918918918919
 40
0.8918918918918919
 40
0.8918918918918919
 40
0.918918918918919
 40
0.918918918918919
 40
0.918918918918919
 40
0.918918918918919
 40
0.9459459459459459
 40
0.9459459459459459
 40
0.9459459459459459
 40
0.9459459459459459
 40
1.0
 40
1.0
 40
1.0
 40
1.0
 10
0.8326
 20
-4.3995
 30
0.0
 10
0.8326
 20
-4.3995
 30
0.0
 10
0.8326
 20
-2.4333
 30
0.0
 10
0.8326
 20
-2.4333
 30
0.0
 10
0.8326
 20
-2.4333
 30
0.0
 10
0.8326
 20
-2.4333
 30
0.0
 10
0.8295
 20
-2.4333
 30
0.0
 10
0.8295
 20
-2.4333
 30
0.0
 10
0.8295
 20
-2.4333
 30
0.0
 10
0.8295
 20
-2.4333
 30
0.0
 10
0.8295
 20
-1.1957
 30
0.0
 10
0.8295
 20
-1.1957
 30
0.0
 10
0.8295
 20
-1.1957
 30
0.0
 10
0.8295
 20
-1.1957
 30
0.0
 10
0.8326
 20
-1.1957
 30
0.0
 10
0.8326
 20
-1.1957
 30
0.0
 10
0.8326
 20
-1.1957
 30
0.0
 10
0.8326
 20
-1.1957
 30
0.0
 10
0.8326
 20
-1.1942
 30
0.0
 10
0.8326
 20
-1.1942
 30
0.0
 10
0.8326
 20
-1.1942
 30
0.0
 10
0.8326
 20
-1.1942
 30
0.0
 10
2.0044
 20
-1.1942
 30
0.0
 10
2.0044
 20
-1.1942
 30
0.0
 10
2.0044
 20
-1.1942
 30
0.0
 10
2.0044
 20
-1.1942
 30
0.0
 10
2.0044
 20
-1.1957
 30
0.0
 10
2.0044
 20
-1.1957
 30
0.0
 10
2.0044
 20
-1.1957
 30
0.0
 10
2.0044
 20
-1.1957
 30
0.0
 10
3.47
 20
-1.1957
 30
0.0
 10
3.47
 20
-1.1957
 30
0.0
 10
3.47
 20
-1.1957
 30
0.0
 10
3.47
 20
-1.1957
 30
0.0
 10
3.47
 20
0.2522
 30
0.0
 10
3.47
 20
0.2522
 30
0.0
 10
3.47
 20
0.2522
 30
0.0
 10
3.47
 20
0.2522
 30
0.0
 10
2.0044
 20
0.2522
 30
0.0
 10
2.0044
 20
0.2522
 30
0.0
 10
2.0044
 20
0.2522
 30
0.0
 10
2.0044
 20
0.2522
 30
0.0
 10
2.0044
 20
0.2506
 30
0.0
 10
2.0044
 20
0.2506
 30
0.0
 10
2.0044
 20
0.2506
 30
0.0
 10
2.0044
 20
0.2506
 30
0.0
 10
0.8326
 20
0.2506
 30
0.0
 10
0.8326
 20
0.2506
 30
0.0
 10
0.8326
 20
0.2506
 30
0.0
 10
0.8326
 20
0.2506
 30
0.0
 10
0.8326
 20
0.2522
 30
0.0
 10
0.8326
 20
0.2522
 30
0.0
 10
0.8326
 20
0.2522
 30
0.0
 10
0.8326
 20
0.2522
 30
0.0
 10
0.8295
 20
0.2522
 30
0.0
 10
0.8295
 20
0.2522
 30
0.0
 10
0.8295
 20
0.2522
 30
0.0
 10
0.8295
 20
0.2522
 30
0.0
 10
0.8295
 20
1.4897
 30
0.0
 10
0.8295
 20
1.4897
 30
0.0
 10
0.8295
 20
1.4897
 30
0.0
 10
0.8295
 20
1.4897
 30
0.0
 10
0.8326
 20
1.4897
 30
0.0
 10
0.8326
 20
1.4897
 30
0.0
 10
0.8326
 20
1.4897
 30
0.0
 10
0.8326
 20
1.4897
 30
0.0
 10
0.8326
 20
3.4559
 30
0.0
 10
0.8326
 20
3.4559
 30
0.0
 10
0.8326
 20
3.4559
 30
0.0
 10
0.8326
 20
3.4559
 30
0.0
 10
-0.6207
 20
3.4559
 30
0.0
 10
-0.6207
 20
3.4559
 30
0.0
 10
-0.6207
 20
3.4559
 30
0.0
 10
-0.6207
 20
3.4559
 30
0.0
 10
-0.6207
 20
1.4897
 30
0.0
 10
-0.6207
 20
1.4897
 30
0.0
 10
-0.6207
 20
1.4897
 30
0.0
 10
-0.6207
 20
1.4897
 30
0.0
 10
-0.6177
 20
1.4897
 30
0.0
 10
-0.6177
 20
1.4897
 30
0.0
 10
-0.6177
 20
1.4897
 30
0.0
 10
-0.6177
 20
1.4897
 30
0.0
 10
-0.6177
 20
0.2522
 30
0.0
 10
-0.6177
 20
0.2522
 30
0.0
 10
-0.6177
 20
0.2522
 30
0.0
 10
-0.6177
 20
0.2522
 30
0.0
 10
-0.6207
 20
0.2522
 30
0.0
 10
-0.6207
 20
0.2522
 30
0.0
 10
-0.6207
 20
0.2522
 30
0.0
 10
-0.6207
 20
0.2522
 30
0.0
 10
-0.6207
 20
0.2506
 30
0.0
 10
-0.6207
 20
0.2506
 30
0.0
 10
-0.6207
 20
0.2506
 30
0.0
 10
-0.6207
 20
0.2506
 30
0.0
 10
-1.7925
 20
0.2506
 30
0.0
 10
-1.7925
 20
0.2506
 30
0.0
 10
-1.7925
 20
0.2506
 30
0.0
 10
-1.7925
 20
0.2506
 30
0.0
 10
-1.7925
 20
0.2522
 30
0.0
 10
-1.7925
 20
0.2522
 30
0.0
 10
-1.7925
 20
0.2522
 30
0.0
 10
-1.7925
 20
0.2522
 30
0.0
 10
-3.2581
 20
0.2522
 30
0.0
 10
-3.2581
 20
0.2522
 30
0.0
 10
-3.2581
 20
0.2522
 30
0.0
 10
-3.2581
 20
0.2522
 30
0.0
 10
-3.2581
 20
-1.1957
 30
0.0
 10
-3.2581
 20
-1.1957
 30
0.0
 10
-3.2581
 20
-1.1957
 30
0.0
 10
-3.2581
 20
-1.1957
 30
0.0
 10
-1.7925
 20
-1.1957
 30
0.0
 10
-1.7925
 20
-1.1957
 30
0.0
 10
-1.7925
 20
-1.1957
 30
0.0
 10
-1.7925
 20
-1.1957
 30
0.0
 10
-1.7925
 20
-1.1942
 30
0.0
 10
-1.7925
 20
-1.1942
 30
0.0
 10
-1.7925
 20
-1.1942
 30
0.0
 10
-1.7925
 20
-1.1942
 30
0.0
 10
-0.6207
 20
-1.1942
 30
0.0
 10
-0.6207
 20
-1.1942
 30
0.0
 10
-0.6207
 20
-1.1942
 30
0.0
 10
-0.6207
 20
-1.1942
 30
0.0
 10
-0.6207
 20
-1.1957
 30
0.0
 10
-0.6207
 20
-1.1957
 30
0.0
 10
-0.6207
 20
-1.1957
 30
0.0
 10
-0.6207
 20
-1.1957
 30
0.0
 10
-0.6177
 20
-1.1957
 30
0.0
 10
-0.6177
 20
-1.1957
 30
0.0
 10
-0.6177
 20
-1.1957
 30
0.0
 10
-0.6177
 20
-1.1957
 30
0.0
 10
-0.6177
 20
-2.4333
 30
0.0
 10
-0.6177
 20
-2.4333
 30
0.0
 10
-0.6177
 20
-2.4333
 30
0.0
 10
-0.6177
 20
-2.4333
 30
0.0
 10
-0.6207
 20
-2.4333
 30
0.0
 10
-0.6207
 20
-2.4333
 30
0.0
 10
-0.6207
 20
-2.4333
 30
0.0
 10
-0.6207
 20
-2.4333
 30
0.0
 10
-0.6207
 20
-4.3995
 30
0.0
 10
-0.6207
 20
-4.3995
 30
0.0
 10
-0.6207
 20
-4.3995
 30
0.0
 10
-0.6207
 20
-4.3995
 30
0.0
 10
0.8326
 20
-4.3995
 30
0.0
 10
0.8326
 20
-4.3995
 30
0.0
  0
SPLINE
  5
C9
330
1F
100
AcDbEntity
  8
Layer 1
 62
   175
100
AcDbSpline
210
0.0
220
0.0
230
1.0
 70
    11
 71
     3
 72
    20
 73
    16
 74
     0
 42
0.000000001
 43
0.0000000001
 40
0.0
 40
0.0
 40
0.0
 40
0.0
 40
0.2
 40
0.2
 40
0.2
 40
0.2
 40
0.4
 40
0.4
 40
0.4
 40
0.4
 40
0.6
 40
0.6
 40
0.6
 40
0.6
 40
1.0
 40
1.0
 40
1.0
 40
1.0
 10
0.8326
 20
-7.8569
 30
0.0
 10
0.8326
 20
-7.8569
 30
0.0
 10
0.8326
 20
-5.637
 30
0.0
 10
0.8326
 20
-5.637
 30
0.0
 10
0.8326
 20
-5.637
 30
0.0
 10
0.8326
 20
-5.637
 30
0.0
 10
-0.6207
 20
-5.637
 30
0.0
 10
-0.6207
 20
-5.637
 30
0.0
 10
-0.6207
 20
-5.637
 30
0.0
 10
-0.6207
 20
-5.637
 30
0.0
 10
-0.6207
 20
-7.8569
 30
0.0
 10
-0.6207
 20
-7.8569
 30
0.0
 10
-0.6207
 20
-7.8569
 30
0.0
 10
-0.6207
 20
-7.8569
 30
0.0
 10
0.8326
 20
-7.8569
 30
0.0
 10
0.8326
 20
-7.8569
 30
0.0
  0
SPLINE
  5
CA
330
1F
100
AcDbEntity
  8
Layer 1
 62
   175
100
AcDbSpline
210
0.0
220
0.0
230
1.0
 70
    11
 71
     3
 72
    52
 73
    48
 74
     0
 42
0.000000001
 43
0.0000000001
 40
0.0
 40
0.0
 40
0.0
 40
0.0
 40
0.0769230769230769
 40
0.0769230769230769
 40
0.0769230769230769
 40
0.0769230769230769
 40
0.1538461538461539
 40
0.1538461538461539
 40
0.1538461538461539
 40
0.1538461538461539
 40
0.2307692307692308
 40
0.2307692307692308
 40
0.2307692307692308
 40
0.2307692307692308
 40
0.3076923076923077
 40
0.3076923076923077
 40
0.3076923076923077
 40
0.3076923076923077
 40
0.3846153846153846
 40
0.3846153846153846
 40
0.3846153846153846
 40
0.3846153846153846
 40
0.4615384615384616
 40
0.4615384615384616
 40
0.4615384615384616
 40
0.4615384615384616
 40
0.5384615384615384
 40
0.5384615384615384
 40
0.5384615384615384
 40
0.5384615384615384
 40
0.6153846153846154
 40
0.6153846153846154
 40
0.6153846153846154
 40
0.6153846153846154
 40
0.6923076923076923
 40
0.6923076923076923
 40
0.6923076923076923
 40
0.6923076923076923
 40
0.7692307692307693
 40
0.7692307692307693
 40
0.7692307692307693
 40
0.7692307692307693
 40
0.8461538461538461
 40
0.8461538461538461
 40
0.8461538461538461
 40
0.8461538461538461
 40
1.0
 40
1.0
 40
1.0
 40
1.0
 10
0.8326
 20
-18.9948
 30
0.0
 10
0.8326
 20
-18.9948
 30
0.0
 10
0.8326
 20
-17.6057
 30
0.0
 10
0.8326
 20
-17.6057
 30
0.0
 10
0.8326
 20
-17.6057
 30
0.0
 10
0.8326
 20
-17.6057
 30
0.0
 10
0.8295
 20
-17.6057
 30
0.0
 10
0.8295
 20
-17.6057
 30
0.0
 10
0.8295
 20
-17.6057
 30
0.0
 10
0.8295
 20
-17.6057
 30
0.0
 10
0.8295
 20
-16.3681
 30
0.0
 10
0.8295
 20
-16.3681
 30
0.0
 10
0.8295
 20
-16.3681
 30
0.0
 10
0.8295
 20
-16.3681
 30
0.0
 10
0.8326
 20
-16.3681
 30
0.0
 10
0.8326
 20
-16.3681
 30
0.0
 10
0.8326
 20
-16.3681
 30
0.0
 10
0.8326
 20
-16.3681
 30
0.0
 10
0.8326
 20
-9.0944
 30
0.0
 10
0.8326
 20
-9.0944
 30
0.0
 10
0.8326
 20
-9.0944
 30
0.0
 10
0.8326
 20
-9.0944
 30
0.0
 10
-0.6207
 20
-9.0944
 30
0.0
 10
-0.6207
 20
-9.0944
 30
0.0
 10
-0.6207
 20
-9.0944
 30
0.0
 10
-0.6207
 20
-9.0944
 30
0.0
 10
-0.6207
 20
-16.3681
 30
0.0
 10
-0.6207
 20
-16.3681
 30
0.0
 10
-0.6207
 20
-16.3681
 30
0.0
 10
-0.6207
 20
-16.3681
 30
0.0
 10
-0.6177
 20
-16.3681
 30
0.0
 10
-0.6177
 20
-16.3681
 30
0.0
 10
-0.6177
 20
-16.3681
 30
0.0
 10
-0.6177
 20
-16.3681
 30
0.0
 10
-0.6177
 20
-17.6057
 30
0.0
 10
-0.6177
 20
-17.6057
 30
0.0
 10
-0.6177
 20
-17.6057
 30
0.0
 10
-0.6177
 20
-17.6057
 30
0.0
 10
-0.6207
 20
-17.6057
 30
0.0
 10
-0.6207
 20
-17.6057
 30
0.0
 10
-0.6207
 20
-17.6057
 30
0.0
 10
-0.6207
 20
-17.6057
 30
0.0
 10
-0.6207
 20
-18.9948
 30
0.0
 10
-0.6207
 20
-18.9948
 30
0.0
 10
-0.6207
 20
-18.9948
 30
0.0
 10
-0.6207
 20
-18.9948
 30
0.0
 10
0.8326
 20
-18.9948
 30
0.0
 10
0.8326
 20
-18.9948
 30
0.0
  0
SPLINE
  5
CB
330
1F
100
AcDbEntity
  8
Layer 1
 62
   175
100
AcDbSpline
210
0.0
220
0.0
230
1.0
 70
    11
 71
     3
 72
    20
 73
    16
 74
     0
 42
0.000000001
 43
0.0000000001
 40
0.0
 40
0.0
 40
0.0
 40
0.0
 40
0.2
 40
0.2
 40
0.2
 40
0.2
 40
0.4
 40
0.4
 40
0.4
 40
0.4
 40
0.6
 40
0.6
 40
0.6
 40
0.6
 40
1.0
 40
1.0
 40
1.0
 40
1.0
 10
1.726
 20
-21.7793
 30
0.0
 10
1.726
 20
-21.7793
 30
0.0
 10
1.726
 20
-20.2324
 30
0.0
 10
1.726
 20
-20.2324
 30
0.0
 10
1.726
 20
-20.2324
 30
0.0
 10
1.726
 20
-20.2324
 30
0.0
 10
-1.5141
 20
-20.2324
 30
0.0
 10
-1.5141
 20
-20.2324
 30
0.0
 10
-1.5141
 20
-20.2324
 30
0.0
 10
-1.5141
 20
-20.2324
 30
0.0
 10
-1.5141
 20
-21.7793
 30
0.0
 10
-1.5141
 20
-21.7793
 30
0.0
 10
-1.5141
 20
-21.7793
 30
0.0
 10
-1.5141
 20
-21.7793
 30
0.0
 10
1.726
 20
-21.7793
 30
0.0
 10
1.726
 20
-21.7793
 30
0.0
  0
SPLINE
  5
CC
330
1F
100
AcDbEntity
  8
Layer 1
 62
   175
100
AcDbSpline
210
0.0
220
0.0
230
1.0
 70
    11
 71
     3
 72
    52
 73
    48
 74
     0
 42
0.000000001
 43
0.0000000001
 40
0.0
 40
0.0
 40
0.0
 40
0.0
 40
0.0769230769230769
 40
0.0769230769230769
 40
0.0769230769230769
 40
0.0769230769230769
 40
0.1538461538461539
 40
0.1538461538461539
 40
0.1538461538461539
 40
0.1538461538461539
 40
0.2307692307692308
 40
0.2307692307692308
 40
0.2307692307692308
 40
0.2307692307692308
 40
0.3076923076923077
 40
0.3076923076923077
 40
0.3076923076923077
 40
0.3076923076923077
 40
0.3846153846153846
 40
0.3846153846153846
 40
0.3846153846153846
 40
0.3846153846153846
 40
0.4615384615384616
 40
0.4615384615384616
 40
0.4615384615384616
 40
0.4615384615384616
 40
0.5384615384615384
 40
0.5384615384615384
 40
0.5384615384615384
 40
0.5384615384615384
 40
0.6153846153846154
 40
0.6153846153846154
 40
0.6153846153846154
 40
0.6153846153846154
 40
0.6923076923076923
 40
0.6923076923076923
 40
0.6923076923076923
 40
0.6923076923076923
 40
0.7692307692307693
 40
0.7692307692307693
 40
0.7692307692307693
 40
0.7692307692307693
 40
0.8461538461538461
 40
0.8461538461538461
 40
0.8461538461538461
 40
0.8461538461538461
 40
1.0
 40
1.0
 40
1.0
 40
1.0
 10
0.8326
 20
-31.1893
 30
0.0
 10
0.8326
 20
-31.1893
 30
0.0
 10
0.8326
 20
-25.8014
 30
0.0
 10
0.8326
 20
-25.8014
 30
0.0
 10
0.8326
 20
-25.8014
 30
0.0
 10
0.8326
 20
-25.8014
 30
0.0
 10
0.8295
 20
-25.8014
 30
0.0
 10
0.8295
 20
-25.8014
 30
0.0
 10
0.8295
 20
-25.8014
 30
0.0
 10
0.8295
 20
-25.8014
 30
0.0
 10
0.8295
 20
-24.5638
 30
0.0
 10
0.8295
 20
-24.5638
 30
0.0
 10
0.8295
 20
-24.5638
 30
0.0
 10
0.8295
 20
-24.5638
 30
0.0
 10
0.8326
 20
-24.5638
 30
0.0
 10
0.8326
 20
-24.5638
 30
0.0
 10
0.8326
 20
-24.5638
 30
0.0
 10
0.8326
 20
-24.5638
 30
0.0
 10
0.8326
 20
-23.0169
 30
0.0
 10
0.8326
 20
-23.0169
 30
0.0
 10
0.8326
 20
-23.0169
 30
0.0
 10
0.8326
 20
-23.0169
 30
0.0
 10
-0.6207
 20
-23.0169
 30
0.0
 10
-0.6207
 20
-23.0169
 30
0.0
 10
-0.6207
 20
-23.0169
 30
0.0
 10
-0.6207
 20
-23.0169
 30
0.0
 10
-0.6207
 20
-24.5638
 30
0.0
 10
-0.6207
 20
-24.5638
 30
0.0
 10
-0.6207
 20
-24.5638
 30
0.0
 10
-0.6207
 20
-24.5638
 30
0.0
 10
-0.6177
 20
-24.5638
 30
0.0
 10
-0.6177
 20
-24.5638
 30
0.0
 10
-0.6177
 20
-24.5638
 30
0.0
 10
-0.6177
 20
-24.5638
 30
0.0
 10
-0.6177
 20
-25.8014
 30
0.0
 10
-0.6177
 20
-25.8014
 30
0.0
 10
-0.6177
 20
-25.8014
 30
0.0
 10
-0.6177
 20
-25.8014
 30
0.0
 10
-0.6207
 20
-25.8014
 30
0.0
 10
-0.6207
 20
-25.8014
 30
0.0
 10
-0.6207
 20
-25.8014
 30
0.0
 10
-0.6207
 20
-25.8014
 30
0.0
 10
-0.6207
 20
-31.1893
 30
0.0
 10
-0.6207
 20
-31.1893
 30
0.0
 10
-0.6207
 20
-31.1893
 30
0.0
 10
-0.6207
 20
-31.1893
 30
0.0
 10
0.8326
 20
-31.1893
 30
0.0
 10
0.8326
 20
-31.1893
 30
0.0
  0
SPLINE
  5
CD
330
1F
100
AcDbEntity
  8
Layer 1
 62
   175
100
AcDbSpline
210
0.0
220
0.0
230
1.0
 70
    11
 71
     3
 72
    20
 73
    16
 74
     0
 42
0.000000001
 43
0.0000000001
 40
0.0
 40
0.0
 40
0.0
 40
0.0
 40
0.2
 40
0.2
 40
0.2
 40
0.2
 40
0.4
 40
0.4
 40
0.4
 40
0.4
 40
0.6
 40
0.6
 40
0.6
 40
0.6
 40
1.0
 40
1.0
 40
1.0
 40
1.0
 10
0.8326
 20
-33.9738
 30
0.0
 10
0.8326
 20
-33.9738
 30
0.0
 10
0.8326
 20
-32.4269
 30
0.0
 10
0.8326
 20
-32.4269
 30
0.0
 10
0.8326
 20
-32.4269
 30
0.0
 10
0.8326
 20
-32.4269
 30
0.0
 10
-0.6207
 20
-32.4269
 30
0.0
 10
-0.6207
 20
-32.4269
 30
0.0
 10
-0.6207
 20
-32.4269
 30
0.0
 10
-0.6207
 20
-32.4269
 30
0.0
 10
-0.6207
 20
-33.9738
 30
0.0
 10
-0.6207
 20
-33.9738
 30
0.0
 10
-0.6207
 20
-33.9738
 30
0.0
 10
-0.6207
 20
-33.9738
 30
0.0
 10
0.8326
 20
-33.9738
 30
0.0
 10
0.8326
 20
-33.9738
 30
0.0
  0
SPLINE
  5
CE
330
1F
100
AcDbEntity
  8
Layer 1
 62
   175
100
AcDbSpline
210
0.0
220
0.0
230
1.0
 70
    11
 71
     3
 72
    20
 73
    16
 74
     0
 42
0.000000001
 43
0.0000000001
 40
0.0
 40
0.0
 40
0.0
 40
0.0
 40
0.2
 40
0.2
 40
0.2
 40
0.2
 40
0.4
 40
0.4
 40
0.4
 40
0.4
 40
0.6
 40
0.6
 40
0.6
 40
0.6
 40
1.0
 40
1.0
 40
1.0
 40
1.0
 10
3.47
 20
-36.7583
 30
0.0
 10
3.47
 20
-36.7583
 30
0.0
 10
3.47
 20
-35.2114
 30
0.0
 10
3.47
 20
-35.2114
 30
0.0
 10
3.47
 20
-35.2114
 30
0.0
 10
3.47
 20
-35.2114
 30
0.0
 10
-3.2581
 20
-35.2114
 30
0.0
 10
-3.2581
 20
-35.2114
 30
0.0
 10
-3.2581
 20
-35.2114
 30
0.0
 10
-3.2581
 20
-35.2114
 30
0.0
 10
-3.2581
 20
-36.7583
 30
0.0
 10
-3.2581
 20
-36.7583
 30
0.0
 10
-3.2581
 20
-36.7583
 30
0.0
 10
-3.2581
 20
-36.7583
 30
0.0
 10
3.47
 20
-36.7583
 30
0.0
 10
3.47
 20
-36.7583
 30
0.0
  0
SPLINE
  5
CF
330
1F
100
AcDbEntity
  8
Layer 1
 62
   175
100
AcDbSpline
210
0.0
220
0.0
230
1.0
 70
    11
 71
     3
 72
   164
 73
   160
 74
     0
 42
0.000000001
 43
0.0000000001
 40
0.0
 40
0.0
 40
0.0
 40
0.0
 40
0.024390243902439
 40
0.024390243902439
 40
0.024390243902439
 40
0.024390243902439
 40
0.0487804878048781
 40
0.0487804878048781
 40
0.0487804878048781
 40
0.0487804878048781
 40
0.0731707317073171
 40
0.0731707317073171
 40
0.0731707317073171
 40
0.0731707317073171
 40
0.0975609756097561
 40
0.0975609756097561
 40
0.0975609756097561
 40
0.0975609756097561
 40
0.1219512195121951
 40
0.1219512195121951
 40
0.1219512195121951
 40
0.1219512195121951
 40
0.1463414634146341
 40
0.1463414634146341
 40
0.1463414634146341
 40
0.1463414634146341
 40
0.1707317073170732
 40
0.1707317073170732
 40
0.1707317073170732
 40
0.1707317073170732
 40
0.1951219512195122
 40
0.1951219512195122
 40
0.1951219512195122
 40
0.1951219512195122
 40
0.2195121951219512
 40
0.2195121951219512
 40
0.2195121951219512
 40
0.2195121951219512
 40
0.2439024390243902
 40
0.2439024390243902
 40
0.2439024390243902
 40
0.2439024390243902
 40
0.2682926829268293
 40
0.2682926829268293
 40
0.2682926829268293
 40
0.2682926829268293
 40
0.2926829268292683
 40
0.2926829268292683
 40
0.2926829268292683
 40
0.2926829268292683
 40
0.3170731707317073
 40
0.3170731707317073
 40
0.3170731707317073
 40
0.3170731707317073
 40
0.3414634146341464
 40
0.3414634146341464
 40
0.3414634146341464
 40
0.3414634146341464
 40
0.3658536585365854
 40
0.3658536585365854
 40
0.3658536585365854
 40
0.3658536585365854
 40
0.3902439024390244
 40
0.3902439024390244
 40
0.3902439024390244
 40
0.3902439024390244
 40
0.4146341463414634
 40
0.4146341463414634
 40
0.4146341463414634
 40
0.4146341463414634
 40
0.4390243902439024
 40
0.4390243902439024
 40
0.4390243902439024
 40
0.4390243902439024
 40
0.4634146341463415
 40
0.4634146341463415
 40
0.4634146341463415
 40
0.4634146341463415
 40
0.4878048780487805
 40
0.4878048780487805
 40
0.4878048780487805
 40
0.4878048780487805
 40
0.5121951219512195
 40
0.5121951219512195
 40
0.5121951219512195
 40
0.5121951219512195
 40
0.5365853658536586
 40
0.5365853658536586
 40
0.5365853658536586
 40
0.5365853658536586
 40
0.5609756097560976
 40
0.5609756097560976
 40
0.5609756097560976
 40
0.5609756097560976
 40
0.5853658536585366
 40
0.5853658536585366
 40
0.5853658536585366
 40
0.5853658536585366
 40
0.6097560975609756
 40
0.6097560975609756
 40
0.6097560975609756
 40
0.6097560975609756
 40
0.6341463414634146
 40
0.6341463414634146
 40
0.6341463414634146
 40
0.6341463414634146
 40
0.6585365853658537
 40
0.6585365853658537
 40
0.6585365853658537
 40
0.6585365853658537
 40
0.6829268292682927
 40
0.6829268292682927
 40
0.6829268292682927
 40
0.6829268292682927
 40
0.7073170731707317
 40
0.7073170731707317
 40
0.7073170731707317
 40
0.7073170731707317
 40
0.7317073170731707
 40
0.7317073170731707
 40
0.7317073170731707
 40
0.7317073170731707
 40
0.7560975609756098
 40
0.7560975609756098
 40
0.7560975609756098
 40
0.7560975609756098
 40
0.7804878048780488
 40
0.7804878048780488
 40
0.7804878048780488
 40
0.7804878048780488
 40
0.8048780487804879
 40
0.8048780487804879
 40
0.8048780487804879
 40
0.8048780487804879
 40
0.8292682926829268
 40
0.8292682926829268
 40
0.8292682926829268
 40
0.8292682926829268
 40
0.8536585365853658
 40
0.8536585365853658
 40
0.8536585365853658
 40
0.8536585365853658
 40
0.8780487804878049
 40
0.8780487804878049
 40
0.8780487804878049
 40
0.8780487804878049
 40
0.9024390243902439
 40
0.9024390243902439
 40
0.9024390243902439
 40
0.9024390243902439
 40
0.926829268292683
 40
0.926829268292683
 40
0.926829268292683
 40
0.926829268292683
 40
0.9512195121951219
 40
0.9512195121951219
 40
0.9512195121951219
 40
0.9512195121951219
 40
1.0
 40
1.0
 40
1.0
 40
1.0
 10
16.9337
 20
43.3143
 30
0.0
 10
16.9337
 20
43.3143
 30
0.0
 10
16.9337
 20
37.996
 30
0.0
 10
16.9337
 20
37.996
 30
0.0
 10
16.9337
 20
37.996
 30
0.0
 10
16.9337
 20
37.996
 30
0.0
 10
16.9337
 20
36.7584
 30
0.0
 10
16.9337
 20
36.7584
 30
0.0
 10
16.9337
 20
36.7584
 30
0.0
 10
16.9337
 20
36.7584
 30
0.0
 10
16.9337
 20
35.2115
 30
0.0
 10
16.9337
 20
35.2115
 30
0.0
 10
16.9337
 20
35.2115
 30
0.0
 10
16.9337
 20
35.2115
 30
0.0
 10
16.9337
 20
33.9739
 30
0.0
 10
16.9337
 20
33.9739
 30
0.0
 10
16.9337
 20
33.9739
 30
0.0
 10
16.9337
 20
33.9739
 30
0.0
 10
16.9337
 20
22.0749
 30
0.0
 10
16.9337
 20
22.0749
 30
0.0
 10
16.9337
 20
22.0749
 30
0.0
 10
16.9337
 20
22.0749
 30
0.0
 10
16.9337
 20
20.8373
 30
0.0
 10
16.9337
 20
20.8373
 30
0.0
 10
16.9337
 20
20.8373
 30
0.0
 10
16.9337
 20
20.8373
 30
0.0
 10
16.9337
 20
19.2904
 30
0.0
 10
16.9337
 20
19.2904
 30
0.0
 10
16.9337
 20
19.2904
 30
0.0
 10
16.9337
 20
19.2904
 30
0.0
 10
16.9337
 20
18.0528
 30
0.0
 10
16.9337
 20
18.0528
 30
0.0
 10
16.9337
 20
18.0528
 30
0.0
 10
16.9337
 20
18.0528
 30
0.0
 10
16.9337
 20
-18.9948
 30
0.0
 10
16.9337
 20
-18.9948
 30
0.0
 10
16.9337
 20
-18.9948
 30
0.0
 10
16.9337
 20
-18.9948
 30
0.0
 10
16.9337
 20
-20.2324
 30
0.0
 10
16.9337
 20
-20.2324
 30
0.0
 10
16.9337
 20
-20.2324
 30
0.0
 10
16.9337
 20
-20.2324
 30
0.0
 10
16.9337
 20
-21.7793
 30
0.0
 10
16.9337
 20
-21.7793
 30
0.0
 10
16.9337
 20
-21.7793
 30
0.0
 10
16.9337
 20
-21.7793
 30
0.0
 10
16.9337
 20
-23.0169
 30
0.0
 10
16.9337
 20
-23.0169
 30
0.0
 10
16.9337
 20
-23.0169
 30
0.0
 10
16.9337
 20
-23.0169
 30
0.0
 10
16.9337
 20
-33.9738
 30
0.0
 10
16.9337
 20
-33.9738
 30
0.0
 10
16.9337
 20
-33.9738
 30
0.0
 10
16.9337
 20
-33.9738
 30
0.0
 10
16.9337
 20
-35.2114
 30
0.0
 10
16.9337
 20
-35.2114
 30
0.0
 10
16.9337
 20
-35.2114
 30
0.0
 10
16.9337
 20
-35.2114
 30
0.0
 10
16.9337
 20
-36.7583
 30
0.0
 10
16.9337
 20
-36.7583
 30
0.0
 10
16.9337
 20
-36.7583
 30
0.0
 10
16.9337
 20
-36.7583
 30
0.0
 10
16.9337
 20
-37.9959
 30
0.0
 10
16.9337
 20
-37.9959
 30
0.0
 10
16.9337
 20
-37.9959
 30
0.0
 10
16.9337
 20
-37.9959
 30
0.0
 10
16.9337
 20
-43.3143
 30
0.0
 10
16.9337
 20
-43.3143
 30
0.0
 10
16.9337
 20
-43.3143
 30
0.0
 10
16.9337
 20
-43.3143
 30
0.0
 10
0.0154
 20
-43.3143
 30
0.0
 10
0.0154
 20
-43.3143
 30
0.0
 10
0.0154
 20
-43.3143
 30
0.0
 10
0.0154
 20
-43.3143
 30
0.0
 10
-0.0155
 20
-43.3143
 30
0.0
 10
-0.0155
 20
-43.3143
 30
0.0
 10
-0.0155
 20
-43.3143
 30
0.0
 10
-0.0155
 20
-43.3143
 30
0.0
 10
-16.9337
 20
-43.3143
 30
0.0
 10
-16.9337
 20
-43.3143
 30
0.0
 10
-16.9337
 20
-43.3143
 30
0.0
 10
-16.9337
 20
-43.3143
 30
0.0
 10
-16.9337
 20
-37.9959
 30
0.0
 10
-16.9337
 20
-37.9959
 30
0.0
 10
-16.9337
 20
-37.9959
 30
0.0
 10
-16.9337
 20
-37.9959
 30
0.0
 10
-16.9337
 20
-36.7583
 30
0.0
 10
-16.9337
 20
-36.7583
 30
0.0
 10
-16.9337
 20
-36.7583
 30
0.0
 10
-16.9337
 20
-36.7583
 30
0.0
 10
-16.9337
 20
-35.2114
 30
0.0
 10
-16.9337
 20
-35.2114
 30
0.0
 10
-16.9337
 20
-35.2114
 30
0.0
 10
-16.9337
 20
-35.2114
 30
0.0
 10
-16.9337
 20
-33.9738
 30
0.0
 10
-16.9337
 20
-33.9738
 30
0.0
 10
-16.9337
 20
-33.9738
 30
0.0
 10
-16.9337
 20
-33.9738
 30
0.0
 10
-16.9337
 20
-23.0169
 30
0.0
 10
-16.9337
 20
-23.0169
 30
0.0
 10
-16.9337
 20
-23.0169
 30
0.0
 10
-16.9337
 20
-23.0169
 30
0.0
 10
-16.9337
 20
-21.7793
 30
0.0
 10
-16.9337
 20
-21.7793
 30
0.0
 10
-16.9337
 20
-21.7793
 30
0.0
 10
-16.9337
 20
-21.7793
 30
0.0
 10
-16.9337
 20
-20.2324
 30
0.0
 10
-16.9337
 20
-20.2324
 30
0.0
 10
-16.9337
 20
-20.2324
 30
0.0
 10
-16.9337
 20
-20.2324
 30
0.0
 10
-16.9337
 20
-18.9948
 30
0.0
 10
-16.9337
 20
-18.9948
 30
0.0
 10
-16.9337
 20
-18.9948
 30
0.0
 10
-16.9337
 20
-18.9948
 30
0.0
 10
-16.9337
 20
18.0528
 30
0.0
 10
-16.9337
 20
18.0528
 30
0.0
 10
-16.9337
 20
18.0528
 30
0.0
 10
-16.9337
 20
18.0528
 30
0.0
 10
-16.9337
 20
19.2904
 30
0.0
 10
-16.9337
 20
19.2904
 30
0.0
 10
-16.9337
 20
19.2904
 30
0.0
 10
-16.9337
 20
19.2904
 30
0.0
 10
-16.9337
 20
20.8373
 30
0.0
 10
-16.9337
 20
20.8373
 30
0.0
 10
-16.9337
 20
20.8373
 30
0.0
 10
-16.9337
 20
20.8373
 30
0.0
 10
-16.9337
 20
22.0749
 30
0.0
 10
-16.9337
 20
22.0749
 30
0.0
 10
-16.9337
 20
22.0749
 30
0.0
 10
-16.9337
 20
22.0749
 30
0.0
 10
-16.9337
 20
33.9739
 30
0.0
 10
-16.9337
 20
33.9739
 30
0.0
 10
-16.9337
 20
33.9739
 30
0.0
 10
-16.9337
 20
33.9739
 30
0.0
 10
-16.9337
 20
35.2115
 30
0.0
 10
-16.9337
 20
35.2115
 30
0.0
 10
-16.9337
 20
35.2115
 30
0.0
 10
-16.9337
 20
35.2115
 30
0.0
 10
-16.9337
 20
36.7584
 30
0.0
 10
-16.9337
 20
36.7584
 30
0.0
 10
-16.9337
 20
36.7584
 30
0.0
 10
-16.9337
 20
36.7584
 30
0.0
 10
-16.9337
 20
37.996
 30
0.0
 10
-16.9337
 20
37.996
 30
0.0
 10
-16.9337
 20
37.996
 30
0.0
 10
-16.9337
 20
37.996
 30
0.0
 10
-16.9337
 20
43.3143
 30
0.0
 10
-16.9337
 20
43.3143
 30
0.0
 10
-16.9337
 20
43.3143
 30
0.0
 10
-16.9337
 20
43.3143
 30
0.0
 10
-0.0155
 20
43.3143
 30
0.0
 10
-0.0155
 20
43.3143
 30
0.0
 10
-0.0155
 20
43.3143
 30
0.0
 10
-0.0155
 20
43.3143
 30
0.0
 10
0.0154
 20
43.3143
 30
0.0
 10
0.0154
 20
43.3143
 30
0.0
 10
0.0154
 20
43.3143
 30
0.0
 10
0.0154
 20
43.3143
 30
0.0
 10
16.9337
 20
43.3143
 30
0.0
 10
16.9337
 20
43.3143
 30
0.0
  0
SPLINE
  5
D0
330
1F
100
AcDbEntity
  8
Layer 1
 62
   175
100
AcDbSpline
210
0.0
220
0.0
230
1.0
 70
    11
 71
     3
 72
    20
 73
    16
 74
     0
 42
0.000000001
 43
0.0000000001
 40
0.0
 40
0.0
 40
0.0
 40
0.0
 40
0.2
 40
0.2
 40
0.2
 40
0.2
 40
0.4
 40
0.4
 40
0.4
 40
0.4
 40
0.6
 40
0.6
 40
0.6
 40
0.6
 40
1.0
 40
1.0
 40
1.0
 40
1.0
 10
-10.8964
 20
-39.6031
 30
0.0
 10
-10.8964
 20
-39.6031
 30
0.0
 10
-13.7938
 20
-39.6031
 30
0.0
 10
-13.7938
 20
-39.6031
 30
0.0
 10
-13.7938
 20
-39.6031
 30
0.0
 10
-13.7938
 20
-39.6031
 30
0.0
 10
-13.7938
 20
-37.9959
 30
0.0
 10
-13.7938
 20
-37.9959
 30
0.0
 10
-13.7938
 20
-37.9959
 30
0.0
 10
-13.7938
 20
-37.9959
 30
0.0
 10
-10.8964
 20
-37.9959
 30
0.0
 10
-10.8964
 20
-37.9959
 30
0.0
 10
-10.8964
 20
-37.9959
 30
0.0
 10
-10.8964
 20
-37.9959
 30
0.0
 10
-10.8964
 20
-39.6031
 30
0.0
 10
-10.8964
 20
-39.6031
 30
0.0
  0
SPLINE
  5
D1
330
1F
100
AcDbEntity
  8
Layer 1
 62
   175
100
AcDbSpline
210
0.0
220
0.0
230
1.0
 70
    11
 71
     3
 72
    32
 73
    28
 74
     0
 42
0.000000001
 43
0.0000000001
 40
0.0
 40
0.0
 40
0.0
 40
0.0
 40
0.125
 40
0.125
 40
0.125
 40
0.125
 40
0.25
 40
0.25
 40
0.25
 40
0.25
 40
0.375
 40
0.375
 40
0.375
 40
0.375
 40
0.5
 40
0.5
 40
0.5
 40
0.5
 40
0.625
 40
0.625
 40
0.625
 40
0.625
 40
0.75
 40
0.75
 40
0.75
 40
0.75
 40
1.0
 40
1.0
 40
1.0
 40
1.0
 10
-5.8955
 20
-39.6031
 30
0.0
 10
-5.8955
 20
-39.6031
 30
0.0
 10
-5.8955
 20
-39.2876
 30
0.0
 10
-5.8955
 20
-39.2876
 30
0.0
 10
-5.8955
 20
-39.2876
 30
0.0
 10
-5.8955
 20
-39.2876
 30
0.0
 10
-5.8955
 20
-38.8188
 30
0.0
 10
-5.8955
 20
-38.8188
 30
0.0
 10
-5.8955
 20
-38.8188
 30
0.0
 10
-5.8955
 20
-38.8188
 30
0.0
 10
-5.8955
 20
-37.9959
 30
0.0
 10
-5.8955
 20
-37.9959
 30
0.0
 10
-5.8955
 20
-37.9959
 30
0.0
 10
-5.8955
 20
-37.9959
 30
0.0
 10
-3.1862
 20
-37.9959
 30
0.0
 10
-3.1862
 20
-37.9959
 30
0.0
 10
-3.1862
 20
-37.9959
 30
0.0
 10
-3.1862
 20
-37.9959
 30
0.0
 10
-0.4754
 20
-37.9959
 30
0.0
 10
-0.4754
 20
-37.9959
 30
0.0
 10
-0.4754
 20
-37.9959
 30
0.0
 10
-0.4754
 20
-37.9959
 30
0.0
 10
-0.4754
 20
-39.6031
 30
0.0
 10
-0.4754
 20
-39.6031
 30
0.0
 10
-0.4754
 20
-39.6031
 30
0.0
 10
-0.4754
 20
-39.6031
 30
0.0
 10
-5.8955
 20
-39.6031
 30
0.0
 10
-5.8955
 20
-39.6031
 30
0.0
  0
SPLINE
  5
D2
330
1F
100
AcDbEntity
  8
Layer 1
 62
   175
100
AcDbSpline
210
0.0
220
0.0
230
1.0
 70
    11
 71
     3
 72
    52
 73
    48
 74
     0
 42
0.000000001
 43
0.0000000001
 40
0.0
 40
0.0
 40
0.0
 40
0.0
 40
0.0769230769230769
 40
0.0769230769230769
 40
0.0769230769230769
 40
0.0769230769230769
 40
0.1538461538461539
 40
0.1538461538461539
 40
0.1538461538461539
 40
0.1538461538461539
 40
0.2307692307692308
 40
0.2307692307692308
 40
0.2307692307692308
 40
0.2307692307692308
 40
0.3076923076923077
 40
0.3076923076923077
 40
0.3076923076923077
 40
0.3076923076923077
 40
0.3846153846153846
 40
0.3846153846153846
 40
0.3846153846153846
 40
0.3846153846153846
 40
0.4615384615384616
 40
0.4615384615384616
 40
0.4615384615384616
 40
0.4615384615384616
 40
0.5384615384615384
 40
0.5384615384615384
 40
0.5384615384615384
 40
0.5384615384615384
 40
0.6153846153846154
 40
0.6153846153846154
 40
0.6153846153846154
 40
0.6153846153846154
 40
0.6923076923076923
 40
0.6923076923076923
 40
0.6923076923076923
 40
0.6923076923076923
 40
0.7692307692307693
 40
0.7692307692307693
 40
0.7692307692307693
 40
0.7692307692307693
 40
0.8461538461538461
 40
0.8461538461538461
 40
0.8461538461538461
 40
0.8461538461538461
 40
1.0
 40
1.0
 40
1.0
 40
1.0
 10
-7.0673
 20
-39.2876
 30
0.0
 10
-7.0673
 20
-39.2876
 30
0.0
 10
-7.0673
 20
-39.6031
 30
0.0
 10
-7.0673
 20
-39.6031
 30
0.0
 10
-7.0673
 20
-39.6031
 30
0.0
 10
-7.0673
 20
-39.6031
 30
0.0
 10
-9.7245
 20
-39.6031
 30
0.0
 10
-9.7245
 20
-39.6031
 30
0.0
 10
-9.7245
 20
-39.6031
 30
0.0
 10
-9.7245
 20
-39.6031
 30
0.0
 10
-9.7245
 20
-37.9959
 30
0.0
 10
-9.7245
 20
-37.9959
 30
0.0
 10
-9.7245
 20
-37.9959
 30
0.0
 10
-9.7245
 20
-37.9959
 30
0.0
 10
-9.6955
 20
-37.9959
 30
0.0
 10
-9.6955
 20
-37.9959
 30
0.0
 10
-9.6955
 20
-37.9959
 30
0.0
 10
-9.6955
 20
-37.9959
 30
0.0
 10
-8.5252
 20
-37.9959
 30
0.0
 10
-8.5252
 20
-37.9959
 30
0.0
 10
-8.5252
 20
-37.9959
 30
0.0
 10
-8.5252
 20
-37.9959
 30
0.0
 10
-8.5252
 20
-36.7583
 30
0.0
 10
-8.5252
 20
-36.7583
 30
0.0
 10
-8.5252
 20
-36.7583
 30
0.0
 10
-8.5252
 20
-36.7583
 30
0.0
 10
-8.5252
 20
-35.527
 30
0.0
 10
-8.5252
 20
-35.527
 30
0.0
 10
-8.5252
 20
-35.527
 30
0.0
 10
-8.5252
 20
-35.527
 30
0.0
 10
-7.0673
 20
-35.527
 30
0.0
 10
-7.0673
 20
-35.527
 30
0.0
 10
-7.0673
 20
-35.527
 30
0.0
 10
-7.0673
 20
-35.527
 30
0.0
 10
-7.0673
 20
-36.7583
 30
0.0
 10
-7.0673
 20
-36.7583
 30
0.0
 10
-7.0673
 20
-36.7583
 30
0.0
 10
-7.0673
 20
-36.7583
 30
0.0
 10
-7.0673
 20
-37.9959
 30
0.0
 10
-7.0673
 20
-37.9959
 30
0.0
 10
-7.0673
 20
-37.9959
 30
0.0
 10
-7.0673
 20
-37.9959
 30
0.0
 10
-7.0673
 20
-38.8188
 30
0.0
 10
-7.0673
 20
-38.8188
 30
0.0
 10
-7.0673
 20
-38.8188
 30
0.0
 10
-7.0673
 20
-38.8188
 30
0.0
 10
-7.0673
 20
-39.2876
 30
0.0
 10
-7.0673
 20
-39.2876
 30
0.0
  0
SPLINE
  5
D3
330
1F
100
AcDbEntity
  8
Layer 1
 62
   175
100
AcDbSpline
210
0.0
220
0.0
230
1.0
 70
    11
 71
     3
 72
    28
 73
    24
 74
     0
 42
0.000000001
 43
0.0000000001
 40
0.0
 40
0.0
 40
0.0
 40
0.0
 40
0.1428571428571428
 40
0.1428571428571428
 40
0.1428571428571428
 40
0.1428571428571428
 40
0.2857142857142857
 40
0.2857142857142857
 40
0.2857142857142857
 40
0.2857142857142857
 40
0.4285714285714285
 40
0.4285714285714285
 40
0.4285714285714285
 40
0.4285714285714285
 40
0.5714285714285714
 40
0.5714285714285714
 40
0.5714285714285714
 40
0.5714285714285714
 40
0.7142857142857143
 40
0.7142857142857143
 40
0.7142857142857143
 40
0.7142857142857143
 40
1.0
 40
1.0
 40
1.0
 40
1.0
 10
11.1052
 20
-39.6031
 30
0.0
 10
11.1052
 20
-39.6031
 30
0.0
 10
11.1052
 20
-39.1313
 30
0.0
 10
11.1052
 20
-39.1313
 30
0.0
 10
11.1052
 20
-39.1313
 30
0.0
 10
11.1052
 20
-39.1313
 30
0.0
 10
11.1082
 20
-39.1313
 30
0.0
 10
11.1082
 20
-39.1313
 30
0.0
 10
11.1082
 20
-39.1313
 30
0.0
 10
11.1082
 20
-39.1313
 30
0.0
 10
11.1082
 20
-37.9959
 30
0.0
 10
11.1082
 20
-37.9959
 30
0.0
 10
11.1082
 20
-37.9959
 30
0.0
 10
11.1082
 20
-37.9959
 30
0.0
 10
14.0057
 20
-37.9959
 30
0.0
 10
14.0057
 20
-37.9959
 30
0.0
 10
14.0057
 20
-37.9959
 30
0.0
 10
14.0057
 20
-37.9959
 30
0.0
 10
14.0057
 20
-39.6031
 30
0.0
 10
14.0057
 20
-39.6031
 30
0.0
 10
14.0057
 20
-39.6031
 30
0.0
 10
14.0057
 20
-39.6031
 30
0.0
 10
11.1052
 20
-39.6031
 30
0.0
 10
11.1052
 20
-39.6031
 30
0.0
  0
SPLINE
  5
D4
330
1F
100
AcDbEntity
  8
Layer 1
 62
   175
100
AcDbSpline
210
0.0
220
0.0
230
1.0
 70
    11
 71
     3
 72
    44
 73
    40
 74
     0
 42
0.000000001
 43
0.0000000001
 40
0.0
 40
0.0
 40
0.0
 40
0.0
 40
0.0909090909090909
 40
0.0909090909090909
 40
0.0909090909090909
 40
0.0909090909090909
 40
0.1818181818181818
 40
0.1818181818181818
 40
0.1818181818181818
 40
0.1818181818181818
 40
0.2727272727272727
 40
0.2727272727272727
 40
0.2727272727272727
 40
0.2727272727272727
 40
0.3636363636363636
 40
0.3636363636363636
 40
0.3636363636363636
 40
0.3636363636363636
 40
0.4545454545454545
 40
0.4545454545454545
 40
0.4545454545454545
 40
0.4545454545454545
 40
0.5454545454545454
 40
0.5454545454545454
 40
0.5454545454545454
 40
0.5454545454545454
 40
0.6363636363636364
 40
0.6363636363636364
 40
0.6363636363636364
 40
0.6363636363636364
 40
0.7272727272727273
 40
0.7272727272727273
 40
0.7272727272727273
 40
0.7272727272727273
 40
0.8181818181818182
 40
0.8181818181818182
 40
0.8181818181818182
 40
0.8181818181818182
 40
1.0
 40
1.0
 40
1.0
 40
1.0
 10
7.2792
 20
-39.6031
 30
0.0
 10
7.2792
 20
-39.6031
 30
0.0
 10
7.2792
 20
-37.9959
 30
0.0
 10
7.2792
 20
-37.9959
 30
0.0
 10
7.2792
 20
-37.9959
 30
0.0
 10
7.2792
 20
-37.9959
 30
0.0
 10
7.2792
 20
-36.7583
 30
0.0
 10
7.2792
 20
-36.7583
 30
0.0
 10
7.2792
 20
-36.7583
 30
0.0
 10
7.2792
 20
-36.7583
 30
0.0
 10
7.2792
 20
-35.527
 30
0.0
 10
7.2792
 20
-35.527
 30
0.0
 10
7.2792
 20
-35.527
 30
0.0
 10
7.2792
 20
-35.527
 30
0.0
 10
8.737
 20
-35.527
 30
0.0
 10
8.737
 20
-35.527
 30
0.0
 10
8.737
 20
-35.527
 30
0.0
 10
8.737
 20
-35.527
 30
0.0
 10
8.737
 20
-36.7583
 30
0.0
 10
8.737
 20
-36.7583
 30
0.0
 10
8.737
 20
-36.7583
 30
0.0
 10
8.737
 20
-36.7583
 30
0.0
 10
8.737
 20
-37.9959
 30
0.0
 10
8.737
 20
-37.9959
 30
0.0
 10
8.737
 20
-37.9959
 30
0.0
 10
8.737
 20
-37.9959
 30
0.0
 10
9.9073
 20
-37.9959
 30
0.0
 10
9.9073
 20
-37.9959
 30
0.0
 10
9.9073
 20
-37.9959
 30
0.0
 10
9.9073
 20
-37.9959
 30
0.0
 10
9.9364
 20
-37.9959
 30
0.0
 10
9.9364
 20
-37.9959
 30
0.0
 10
9.9364
 20
-37.9959
 30
0.0
 10
9.9364
 20
-37.9959
 30
0.0
 10
9.9349
 20
-39.6031
 30
0.0
 10
9.9349
 20
-39.6031
 30
0.0
 10
9.9349
 20
-39.6031
 30
0.0
 10
9.9349
 20
-39.6031
 30
0.0
 10
7.2792
 20
-39.6031
 30
0.0
 10
7.2792
 20
-39.6031
 30
0.0
  0
SPLINE
  5
D5
330
1F
100
AcDbEntity
  8
Layer 1
 62
   175
100
AcDbSpline
210
0.0
220
0.0
230
1.0
 70
    11
 71
     3
 72
    20
 73
    16
 74
     0
 42
0.000000001
 43
0.0000000001
 40
0.0
 40
0.0
 40
0.0
 40
0.0
 40
0.2
 40
0.2
 40
0.2
 40
0.2
 40
0.4
 40
0.4
 40
0.4
 40
0.4
 40
0.6
 40
0.6
 40
0.6
 40
0.6
 40
1.0
 40
1.0
 40
1.0
 40
1.0
 10
6.1073
 20
-39.6031
 30
0.0
 10
6.1073
 20
-39.6031
 30
0.0
 10
0.6964
 20
-39.6031
 30
0.0
 10
0.6964
 20
-39.6031
 30
0.0
 10
0.6964
 20
-39.6031
 30
0.0
 10
0.6964
 20
-39.6031
 30
0.0
 10
0.6964
 20
-37.9959
 30
0.0
 10
0.6964
 20
-37.9959
 30
0.0
 10
0.6964
 20
-37.9959
 30
0.0
 10
0.6964
 20
-37.9959
 30
0.0
 10
6.1073
 20
-37.9959
 30
0.0
 10
6.1073
 20
-37.9959
 30
0.0
 10
6.1073
 20
-37.9959
 30
0.0
 10
6.1073
 20
-37.9959
 30
0.0
 10
6.1073
 20
-39.6031
 30
0.0
 10
6.1073
 20
-39.6031
 30
0.0
  0
SPLINE
  5
D6
330
1F
100
AcDbEntity
  8
Layer 1
 62
   175
100
AcDbSpline
210
0.0
220
0.0
230
1.0
 70
    11
 71
     3
 72
    52
 73
    48
 74
     0
 42
0.000000001
 43
0.0000000001
 40
0.0
 40
0.0
 40
0.0
 40
0.0
 40
0.0769230769230769
 40
0.0769230769230769
 40
0.0769230769230769
 40
0.0769230769230769
 40
0.1538461538461539
 40
0.1538461538461539
 40
0.1538461538461539
 40
0.1538461538461539
 40
0.2307692307692308
 40
0.2307692307692308
 40
0.2307692307692308
 40
0.2307692307692308
 40
0.3076923076923077
 40
0.3076923076923077
 40
0.3076923076923077
 40
0.3076923076923077
 40
0.3846153846153846
 40
0.3846153846153846
 40
0.3846153846153846
 40
0.3846153846153846
 40
0.4615384615384616
 40
0.4615384615384616
 40
0.4615384615384616
 40
0.4615384615384616
 40
0.5384615384615384
 40
0.5384615384615384
 40
0.5384615384615384
 40
0.5384615384615384
 40
0.6153846153846154
 40
0.6153846153846154
 40
0.6153846153846154
 40
0.6153846153846154
 40
0.6923076923076923
 40
0.6923076923076923
 40
0.6923076923076923
 40
0.6923076923076923
 40
0.7692307692307693
 40
0.7692307692307693
 40
0.7692307692307693
 40
0.7692307692307693
 40
0.8461538461538461
 40
0.8461538461538461
 40
0.8461538461538461
 40
0.8461538461538461
 40
1.0
 40
1.0
 40
1.0
 40
1.0
 10
7.2792
 20
39.6017
 30
0.0
 10
7.2792
 20
39.6017
 30
0.0
 10
9.9349
 20
39.6017
 30
0.0
 10
9.9349
 20
39.6017
 30
0.0
 10
9.9349
 20
39.6017
 30
0.0
 10
9.9349
 20
39.6017
 30
0.0
 10
9.9349
 20
38.7632
 30
0.0
 10
9.9349
 20
38.7632
 30
0.0
 10
9.9349
 20
38.7632
 30
0.0
 10
9.9349
 20
38.7632
 30
0.0
 10
9.9364
 20
38.7632
 30
0.0
 10
9.9364
 20
38.7632
 30
0.0
 10
9.9364
 20
38.7632
 30
0.0
 10
9.9364
 20
38.7632
 30
0.0
 10
9.9364
 20
37.996
 30
0.0
 10
9.9364
 20
37.996
 30
0.0
 10
9.9364
 20
37.996
 30
0.0
 10
9.9364
 20
37.996
 30
0.0
 10
9.9073
 20
37.996
 30
0.0
 10
9.9073
 20
37.996
 30
0.0
 10
9.9073
 20
37.996
 30
0.0
 10
9.9073
 20
37.996
 30
0.0
 10
8.737
 20
37.996
 30
0.0
 10
8.737
 20
37.996
 30
0.0
 10
8.737
 20
37.996
 30
0.0
 10
8.737
 20
37.996
 30
0.0
 10
8.737
 20
36.7584
 30
0.0
 10
8.737
 20
36.7584
 30
0.0
 10
8.737
 20
36.7584
 30
0.0
 10
8.737
 20
36.7584
 30
0.0
 10
8.737
 20
35.5255
 30
0.0
 10
8.737
 20
35.5255
 30
0.0
 10
8.737
 20
35.5255
 30
0.0
 10
8.737
 20
35.5255
 30
0.0
 10
7.2792
 20
35.5255
 30
0.0
 10
7.2792
 20
35.5255
 30
0.0
 10
7.2792
 20
35.5255
 30
0.0
 10
7.2792
 20
35.5255
 30
0.0
 10
7.2792
 20
36.7584
 30
0.0
 10
7.2792
 20
36.7584
 30
0.0
 10
7.2792
 20
36.7584
 30
0.0
 10
7.2792
 20
36.7584
 30
0.0
 10
7.2792
 20
37.996
 30
0.0
 10
7.2792
 20
37.996
 30
0.0
 10
7.2792
 20
37.996
 30
0.0
 10
7.2792
 20
37.996
 30
0.0
 10
7.2792
 20
39.6017
 30
0.0
 10
7.2792
 20
39.6017
 30
0.0
  0
SPLINE
  5
D7
330
1F
100
AcDbEntity
  8
Layer 1
 62
   175
100
AcDbSpline
210
0.0
220
0.0
230
1.0
 70
    11
 71
     3
 72
    20
 73
    16
 74
     0
 42
0.000000001
 43
0.0000000001
 40
0.0
 40
0.0
 40
0.0
 40
0.0
 40
0.2
 40
0.2
 40
0.2
 40
0.2
 40
0.4
 40
0.4
 40
0.4
 40
0.4
 40
0.6
 40
0.6
 40
0.6
 40
0.6
 40
1.0
 40
1.0
 40
1.0
 40
1.0
 10
0.6873
 20
39.6017
 30
0.0
 10
0.6873
 20
39.6017
 30
0.0
 10
6.1073
 20
39.6017
 30
0.0
 10
6.1073
 20
39.6017
 30
0.0
 10
6.1073
 20
39.6017
 30
0.0
 10
6.1073
 20
39.6017
 30
0.0
 10
6.1073
 20
37.996
 30
0.0
 10
6.1073
 20
37.996
 30
0.0
 10
6.1073
 20
37.996
 30
0.0
 10
6.1073
 20
37.996
 30
0.0
 10
0.6873
 20
37.996
 30
0.0
 10
0.6873
 20
37.996
 30
0.0
 10
0.6873
 20
37.996
 30
0.0
 10
0.6873
 20
37.996
 30
0.0
 10
0.6873
 20
39.6017
 30
0.0
 10
0.6873
 20
39.6017
 30
0.0
  0
SPLINE
  5
D8
330
1F
100
AcDbEntity
  8
Layer 1
 62
   175
100
AcDbSpline
210
0.0
220
0.0
230
1.0
 70
    11
 71
     3
 72
    20
 73
    16
 74
     0
 42
0.000000001
 43
0.0000000001
 40
0.0
 40
0.0
 40
0.0
 40
0.0
 40
0.2
 40
0.2
 40
0.2
 40
0.2
 40
0.4
 40
0.4
 40
0.4
 40
0.4
 40
0.6
 40
0.6
 40
0.6
 40
0.6
 40
1.0
 40
1.0
 40
1.0
 40
1.0
 10
-5.8955
 20
39.6017
 30
0.0
 10
-5.8955
 20
39.6017
 30
0.0
 10
-0.4846
 20
39.6017
 30
0.0
 10
-0.4846
 20
39.6017
 30
0.0
 10
-0.4846
 20
39.6017
 30
0.0
 10
-0.4846
 20
39.6017
 30
0.0
 10
-0.4846
 20
37.996
 30
0.0
 10
-0.4846
 20
37.996
 30
0.0
 10
-0.4846
 20
37.996
 30
0.0
 10
-0.4846
 20
37.996
 30
0.0
 10
-5.8955
 20
37.996
 30
0.0
 10
-5.8955
 20
37.996
 30
0.0
 10
-5.8955
 20
37.996
 30
0.0
 10
-5.8955
 20
37.996
 30
0.0
 10
-5.8955
 20
39.6017
 30
0.0
 10
-5.8955
 20
39.6017
 30
0.0
  0
SPLINE
  5
D9
330
1F
100
AcDbEntity
  8
Layer 1
 62
   175
100
AcDbSpline
210
0.0
220
0.0
230
1.0
 70
    11
 71
     3
 72
    44
 73
    40
 74
     0
 42
0.000000001
 43
0.0000000001
 40
0.0
 40
0.0
 40
0.0
 40
0.0
 40
0.0909090909090909
 40
0.0909090909090909
 40
0.0909090909090909
 40
0.0909090909090909
 40
0.1818181818181818
 40
0.1818181818181818
 40
0.1818181818181818
 40
0.1818181818181818
 40
0.2727272727272727
 40
0.2727272727272727
 40
0.2727272727272727
 40
0.2727272727272727
 40
0.3636363636363636
 40
0.3636363636363636
 40
0.3636363636363636
 40
0.3636363636363636
 40
0.4545454545454545
 40
0.4545454545454545
 40
0.4545454545454545
 40
0.4545454545454545
 40
0.5454545454545454
 40
0.5454545454545454
 40
0.5454545454545454
 40
0.5454545454545454
 40
0.6363636363636364
 40
0.6363636363636364
 40
0.6363636363636364
 40
0.6363636363636364
 40
0.7272727272727273
 40
0.7272727272727273
 40
0.7272727272727273
 40
0.7272727272727273
 40
0.8181818181818182
 40
0.8181818181818182
 40
0.8181818181818182
 40
0.8181818181818182
 40
1.0
 40
1.0
 40
1.0
 40
1.0
 10
-9.7245
 20
39.6017
 30
0.0
 10
-9.7245
 20
39.6017
 30
0.0
 10
-7.0673
 20
39.6017
 30
0.0
 10
-7.0673
 20
39.6017
 30
0.0
 10
-7.0673
 20
39.6017
 30
0.0
 10
-7.0673
 20
39.6017
 30
0.0
 10
-7.0673
 20
37.996
 30
0.0
 10
-7.0673
 20
37.996
 30
0.0
 10
-7.0673
 20
37.996
 30
0.0
 10
-7.0673
 20
37.996
 30
0.0
 10
-7.0673
 20
36.7584
 30
0.0
 10
-7.0673
 20
36.7584
 30
0.0
 10
-7.0673
 20
36.7584
 30
0.0
 10
-7.0673
 20
36.7584
 30
0.0
 10
-7.0673
 20
35.5255
 30
0.0
 10
-7.0673
 20
35.5255
 30
0.0
 10
-7.0673
 20
35.5255
 30
0.0
 10
-7.0673
 20
35.5255
 30
0.0
 10
-8.5252
 20
35.5255
 30
0.0
 10
-8.5252
 20
35.5255
 30
0.0
 10
-8.5252
 20
35.5255
 30
0.0
 10
-8.5252
 20
35.5255
 30
0.0
 10
-8.5252
 20
36.7584
 30
0.0
 10
-8.5252
 20
36.7584
 30
0.0
 10
-8.5252
 20
36.7584
 30
0.0
 10
-8.5252
 20
36.7584
 30
0.0
 10
-8.5252
 20
37.996
 30
0.0
 10
-8.5252
 20
37.996
 30
0.0
 10
-8.5252
 20
37.996
 30
0.0
 10
-8.5252
 20
37.996
 30
0.0
 10
-9.6955
 20
37.996
 30
0.0
 10
-9.6955
 20
37.996
 30
0.0
 10
-9.6955
 20
37.996
 30
0.0
 10
-9.6955
 20
37.996
 30
0.0
 10
-9.7245
 20
37.996
 30
0.0
 10
-9.7245
 20
37.996
 30
0.0
 10
-9.7245
 20
37.996
 30
0.0
 10
-9.7245
 20
37.996
 30
0.0
 10
-9.7245
 20
39.6017
 30
0.0
 10
-9.7245
 20
39.6017
 30
0.0
  0
SPLINE
  5
DA
330
1F
100
AcDbEntity
  8
Layer 1
 62
   175
100
AcDbSpline
210
0.0
220
0.0
230
1.0
 70
    11
 71
     3
 72
    20
 73
    16
 74
     0
 42
0.000000001
 43
0.0000000001
 40
0.0
 40
0.0
 40
0.0
 40
0.0
 40
0.2
 40
0.2
 40
0.2
 40
0.2
 40
0.4
 40
0.4
 40
0.4
 40
0.4
 40
0.6
 40
0.6
 40
0.6
 40
0.6
 40
1.0
 40
1.0
 40
1.0
 40
1.0
 10
-10.8964
 20
39.6017
 30
0.0
 10
-10.8964
 20
39.6017
 30
0.0
 10
-10.8964
 20
37.996
 30
0.0
 10
-10.8964
 20
37.996
 30
0.0
 10
-10.8964
 20
37.996
 30
0.0
 10
-10.8964
 20
37.996
 30
0.0
 10
-13.7938
 20
37.996
 30
0.0
 10
-13.7938
 20
37.996
 30
0.0
 10
-13.7938
 20
37.996
 30
0.0
 10
-13.7938
 20
37.996
 30
0.0
 10
-13.7938
 20
39.6017
 30
0.0
 10
-13.7938
 20
39.6017
 30
0.0
 10
-13.7938
 20
39.6017
 30
0.0
 10
-13.7938
 20
39.6017
 30
0.0
 10
-10.8964
 20
39.6017
 30
0.0
 10
-10.8964
 20
39.6017
 30
0.0
  0
SPLINE
  5
DB
330
1F
100
AcDbEntity
  8
Layer 1
 62
   175
100
AcDbSpline
210
0.0
220
0.0
230
1.0
 70
    11
 71
     3
 72
    84
 73
    80
 74
     0
 42
0.000000001
 43
0.0000000001
 40
0.0
 40
0.0
 40
0.0
 40
0.0
 40
0.0476190476190476
 40
0.0476190476190476
 40
0.0476190476190476
 40
0.0476190476190476
 40
0.0952380952380952
 40
0.0952380952380952
 40
0.0952380952380952
 40
0.0952380952380952
 40
0.1428571428571428
 40
0.1428571428571428
 40
0.1428571428571428
 40
0.1428571428571428
 40
0.1904761904761905
 40
0.1904761904761905
 40
0.1904761904761905
 40
0.1904761904761905
 40
0.2380952380952381
 40
0.2380952380952381
 40
0.2380952380952381
 40
0.2380952380952381
 40
0.2857142857142857
 40
0.2857142857142857
 40
0.2857142857142857
 40
0.2857142857142857
 40
0.3333333333333333
 40
0.3333333333333333
 40
0.3333333333333333
 40
0.3333333333333333
 40
0.3809523809523809
 40
0.3809523809523809
 40
0.3809523809523809
 40
0.3809523809523809
 40
0.4285714285714285
 40
0.4285714285714285
 40
0.4285714285714285
 40
0.4285714285714285
 40
0.4761904761904762
 40
0.4761904761904762
 40
0.4761904761904762
 40
0.4761904761904762
 40
0.5238095238095238
 40
0.5238095238095238
 40
0.5238095238095238
 40
0.5238095238095238
 40
0.5714285714285714
 40
0.5714285714285714
 40
0.5714285714285714
 40
0.5714285714285714
 40
0.6190476190476191
 40
0.6190476190476191
 40
0.6190476190476191
 40
0.6190476190476191
 40
0.6666666666666666
 40
0.6666666666666666
 40
0.6666666666666666
 40
0.6666666666666666
 40
0.7142857142857143
 40
0.7142857142857143
 40
0.7142857142857143
 40
0.7142857142857143
 40
0.7619047619047619
 40
0.7619047619047619
 40
0.7619047619047619
 40
0.7619047619047619
 40
0.8095238095238095
 40
0.8095238095238095
 40
0.8095238095238095
 40
0.8095238095238095
 40
0.8571428571428571
 40
0.8571428571428571
 40
0.8571428571428571
 40
0.8571428571428571
 40
0.9047619047619048
 40
0.9047619047619048
 40
0.9047619047619048
 40
0.9047619047619048
 40
1.0
 40
1.0
 40
1.0
 40
1.0
 10
11.7431
 20
4.5233
 30
0.0
 10
11.7431
 20
4.5233
 30
0.0
 10
11.7431
 20
7.1717
 30
0.0
 10
11.7431
 20
7.1717
 30
0.0
 10
11.7431
 20
7.1717
 30
0.0
 10
11.7431
 20
7.1717
 30
0.0
 10
11.073
 20
6.7199
 30
0.0
 10
11.073
 20
6.7199
 30
0.0
 10
11.073
 20
6.7199
 30
0.0
 10
11.073
 20
6.7199
 30
0.0
 10
10.4504
 20
6.1863
 30
0.0
 10
10.4504
 20
6.1863
 30
0.0
 10
10.4504
 20
6.1863
 30
0.0
 10
10.4504
 20
6.1863
 30
0.0
 10
9.8813
 20
5.5752
 30
0.0
 10
9.8813
 20
5.5752
 30
0.0
 10
9.8813
 20
5.5752
 30
0.0
 10
9.8813
 20
5.5752
 30
0.0
 10
9.3704
 20
4.8946
 30
0.0
 10
9.3704
 20
4.8946
 30
0.0
 10
9.3704
 20
4.8946
 30
0.0
 10
9.3704
 20
4.8946
 30
0.0
 10
7.9721
 20
5.651
 30
0.0
 10
7.9721
 20
5.651
 30
0.0
 10
7.9721
 20
5.651
 30
0.0
 10
7.9721
 20
5.651
 30
0.0
 10
8.4846
 20
6.4492
 30
0.0
 10
8.4846
 20
6.4492
 30
0.0
 10
8.4846
 20
6.4492
 30
0.0
 10
8.4846
 20
6.4492
 30
0.0
 10
9.066
 20
7.1809
 30
0.0
 10
9.066
 20
7.1809
 30
0.0
 10
9.066
 20
7.1809
 30
0.0
 10
9.066
 20
7.1809
 30
0.0
 10
9.7161
 20
7.8337
 30
0.0
 10
9.7161
 20
7.8337
 30
0.0
 10
9.7161
 20
7.8337
 30
0.0
 10
9.7161
 20
7.8337
 30
0.0
 10
10.4367
 20
8.3984
 30
0.0
 10
10.4367
 20
8.3984
 30
0.0
 10
10.4367
 20
8.3984
 30
0.0
 10
10.4367
 20
8.3984
 30
0.0
 10
11.226
 20
8.8578
 30
0.0
 10
11.226
 20
8.8578
 30
0.0
 10
11.226
 20
8.8578
 30
0.0
 10
11.226
 20
8.8578
 30
0.0
 10
12.0827
 20
9.2028
 30
0.0
 10
12.0827
 20
9.2028
 30
0.0
 10
12.0827
 20
9.2028
 30
0.0
 10
12.0827
 20
9.2028
 30
0.0
 10
13.0098
 20
9.4178
 30
0.0
 10
13.0098
 20
9.4178
 30
0.0
 10
13.0098
 20
9.4178
 30
0.0
 10
13.0098
 20
9.4178
 30
0.0
 10
14.0057
 20
9.4936
 30
0.0
 10
14.0057
 20
9.4936
 30
0.0
 10
14.0057
 20
9.4936
 30
0.0
 10
14.0057
 20
9.4936
 30
0.0
 10
14.0057
 20
5.4932
 30
0.0
 10
14.0057
 20
5.4932
 30
0.0
 10
14.0057
 20
5.4932
 30
0.0
 10
14.0057
 20
5.4932
 30
0.0
 10
13.6921
 20
5.3958
 30
0.0
 10
13.6921
 20
5.3958
 30
0.0
 10
13.6921
 20
5.3958
 30
0.0
 10
13.6921
 20
5.3958
 30
0.0
 10
13.3479
 20
5.1544
 30
0.0
 10
13.3479
 20
5.1544
 30
0.0
 10
13.3479
 20
5.1544
 30
0.0
 10
13.3479
 20
5.1544
 30
0.0
 10
13.0404
 20
4.8404
 30
0.0
 10
13.0404
 20
4.8404
 30
0.0
 10
13.0404
 20
4.8404
 30
0.0
 10
13.0404
 20
4.8404
 30
0.0
 10
12.84
 20
4.5264
 30
0.0
 10
12.84
 20
4.5264
 30
0.0
 10
12.84
 20
4.5264
 30
0.0
 10
12.84
 20
4.5264
 30
0.0
 10
11.7431
 20
4.5233
 30
0.0
 10
11.7431
 20
4.5233
 30
0.0
  0
SPLINE
  5
DC
330
1F
100
AcDbEntity
  8
Layer 1
 62
   175
100
AcDbSpline
210
0.0
220
0.0
230
1.0
 70
    11
 71
     3
 72
    36
 73
    32
 74
     0
 42
0.000000001
 43
0.0000000001
 40
0.0
 40
0.0
 40
0.0
 40
0.0
 40
0.1111111111111111
 40
0.1111111111111111
 40
0.1111111111111111
 40
0.1111111111111111
 40
0.2222222222222222
 40
0.2222222222222222
 40
0.2222222222222222
 40
0.2222222222222222
 40
0.3333333333333333
 40
0.3333333333333333
 40
0.3333333333333333
 40
0.3333333333333333
 40
0.4444444444444444
 40
0.4444444444444444
 40
0.4444444444444444
 40
0.4444444444444444
 40
0.5555555555555556
 40
0.5555555555555556
 40
0.5555555555555556
 40
0.5555555555555556
 40
0.6666666666666666
 40
0.6666666666666666
 40
0.6666666666666666
 40
0.6666666666666666
 40
0.7777777777777778
 40
0.7777777777777778
 40
0.7777777777777778
 40
0.7777777777777778
 40
1.0
 40
1.0
 40
1.0
 40
1.0
 10
14.0057
 20
3.2904
 30
0.0
 10
14.0057
 20
3.2904
 30
0.0
 10
14.0057
 20
1.4882
 30
0.0
 10
14.0057
 20
1.4882
 30
0.0
 10
14.0057
 20
1.4882
 30
0.0
 10
14.0057
 20
1.4882
 30
0.0
 10
9.2434
 20
1.4836
 30
0.0
 10
9.2434
 20
1.4836
 30
0.0
 10
9.2434
 20
1.4836
 30
0.0
 10
9.2434
 20
1.4836
 30
0.0
 10
9.4576
 20
2.288
 30
0.0
 10
9.4576
 20
2.288
 30
0.0
 10
9.4576
 20
2.288
 30
0.0
 10
9.4576
 20
2.288
 30
0.0
 10
9.7467
 20
3.046
 30
0.0
 10
9.7467
 20
3.046
 30
0.0
 10
9.7467
 20
3.046
 30
0.0
 10
9.7467
 20
3.046
 30
0.0
 10
10.1016
 20
3.7545
 30
0.0
 10
10.1016
 20
3.7545
 30
0.0
 10
10.1016
 20
3.7545
 30
0.0
 10
10.1016
 20
3.7545
 30
0.0
 10
10.5193
 20
4.4026
 30
0.0
 10
10.5193
 20
4.4026
 30
0.0
 10
10.5193
 20
4.4026
 30
0.0
 10
10.5193
 20
4.4026
 30
0.0
 10
10.5193
 20
3.2857
 30
0.0
 10
10.5193
 20
3.2857
 30
0.0
 10
10.5193
 20
3.2857
 30
0.0
 10
10.5193
 20
3.2857
 30
0.0
 10
14.0057
 20
3.2904
 30
0.0
 10
14.0057
 20
3.2904
 30
0.0
  0
SPLINE
  5
DD
330
1F
100
AcDbEntity
  8
Layer 1
 62
   175
100
AcDbSpline
210
0.0
220
0.0
230
1.0
 70
    11
 71
     3
 72
    32
 73
    28
 74
     0
 42
0.000000001
 43
0.0000000001
 40
0.0
 40
0.0
 40
0.0
 40
0.0
 40
0.125
 40
0.125
 40
0.125
 40
0.125
 40
0.25
 40
0.25
 40
0.25
 40
0.25
 40
0.375
 40
0.375
 40
0.375
 40
0.375
 40
0.5
 40
0.5
 40
0.5
 40
0.5
 40
0.625
 40
0.625
 40
0.625
 40
0.625
 40
0.75
 40
0.75
 40
0.75
 40
0.75
 40
1.0
 40
1.0
 40
1.0
 40
1.0
 10
13.2224
 20
-1.1942
 30
0.0
 10
13.2224
 20
-1.1942
 30
0.0
 10
14.0057
 20
-1.1942
 30
0.0
 10
14.0057
 20
-1.1942
 30
0.0
 10
14.0057
 20
-1.1942
 30
0.0
 10
14.0057
 20
-1.1942
 30
0.0
 10
14.0057
 20
-0.8322
 30
0.0
 10
14.0057
 20
-0.8322
 30
0.0
 10
14.0057
 20
-0.8322
 30
0.0
 10
14.0057
 20
-0.8322
 30
0.0
 10
14.0057
 20
-0.4733
 30
0.0
 10
14.0057
 20
-0.4733
 30
0.0
 10
14.0057
 20
-0.4733
 30
0.0
 10
14.0057
 20
-0.4733
 30
0.0
 10
14.0057
 20
-0.1098
 30
0.0
 10
14.0057
 20
-0.1098
 30
0.0
 10
14.0057
 20
-0.1098
 30
0.0
 10
14.0057
 20
-0.1098
 30
0.0
 10
14.0057
 20
0.2506
 30
0.0
 10
14.0057
 20
0.2506
 30
0.0
 10
14.0057
 20
0.2506
 30
0.0
 10
14.0057
 20
0.2506
 30
0.0
 10
13.2224
 20
0.2506
 30
0.0
 10
13.2224
 20
0.2506
 30
0.0
 10
13.2224
 20
0.2506
 30
0.0
 10
13.2224
 20
0.2506
 30
0.0
 10
13.2224
 20
-1.1942
 30
0.0
 10
13.2224
 20
-1.1942
 30
0.0
  0
SPLINE
  5
DE
330
1F
100
AcDbEntity
  8
Layer 1
 62
   175
100
AcDbSpline
210
0.0
220
0.0
230
1.0
 70
    11
 71
     3
 72
    20
 73
    16
 74
     0
 42
0.000000001
 43
0.0000000001
 40
0.0
 40
0.0
 40
0.0
 40
0.0
 40
0.2
 40
0.2
 40
0.2
 40
0.2
 40
0.4
 40
0.4
 40
0.4
 40
0.4
 40
0.6
 40
0.6
 40
0.6
 40
0.6
 40
1.0
 40
1.0
 40
1.0
 40
1.0
 10
11.4371
 20
-1.1942
 30
0.0
 10
11.4371
 20
-1.1942
 30
0.0
 10
12.0521
 20
-1.1942
 30
0.0
 10
12.0521
 20
-1.1942
 30
0.0
 10
12.0521
 20
-1.1942
 30
0.0
 10
12.0521
 20
-1.1942
 30
0.0
 10
12.0521
 20
0.2506
 30
0.0
 10
12.0521
 20
0.2506
 30
0.0
 10
12.0521
 20
0.2506
 30
0.0
 10
12.0521
 20
0.2506
 30
0.0
 10
11.4371
 20
0.2506
 30
0.0
 10
11.4371
 20
0.2506
 30
0.0
 10
11.4371
 20
0.2506
 30
0.0
 10
11.4371
 20
0.2506
 30
0.0
 10
11.4371
 20
-1.1942
 30
0.0
 10
11.4371
 20
-1.1942
 30
0.0
  0
SPLINE
  5
DF
330
1F
100
AcDbEntity
  8
Layer 1
 62
   175
100
AcDbSpline
210
0.0
220
0.0
230
1.0
 70
    11
 71
     3
 72
   108
 73
   104
 74
     0
 42
0.000000001
 43
0.0000000001
 40
0.0
 40
0.0
 40
0.0
 40
0.0
 40
0.037037037037037
 40
0.037037037037037
 40
0.037037037037037
 40
0.037037037037037
 40
0.0740740740740741
 40
0.0740740740740741
 40
0.0740740740740741
 40
0.0740740740740741
 40
0.1111111111111111
 40
0.1111111111111111
 40
0.1111111111111111
 40
0.1111111111111111
 40
0.1481481481481481
 40
0.1481481481481481
 40
0.1481481481481481
 40
0.1481481481481481
 40
0.1851851851851852
 40
0.1851851851851852
 40
0.1851851851851852
 40
0.1851851851851852
 40
0.2222222222222222
 40
0.2222222222222222
 40
0.2222222222222222
 40
0.2222222222222222
 40
0.2592592592592592
 40
0.2592592592592592
 40
0.2592592592592592
 40
0.2592592592592592
 40
0.2962962962962963
 40
0.2962962962962963
 40
0.2962962962962963
 40
0.2962962962962963
 40
0.3333333333333333
 40
0.3333333333333333
 40
0.3333333333333333
 40
0.3333333333333333
 40
0.3703703703703703
 40
0.3703703703703703
 40
0.3703703703703703
 40
0.3703703703703703
 40
0.4074074074074074
 40
0.4074074074074074
 40
0.4074074074074074
 40
0.4074074074074074
 40
0.4444444444444444
 40
0.4444444444444444
 40
0.4444444444444444
 40
0.4444444444444444
 40
0.4814814814814815
 40
0.4814814814814815
 40
0.4814814814814815
 40
0.4814814814814815
 40
0.5185185185185185
 40
0.5185185185185185
 40
0.5185185185185185
 40
0.5185185185185185
 40
0.5555555555555556
 40
0.5555555555555556
 40
0.5555555555555556
 40
0.5555555555555556
 40
0.5925925925925926
 40
0.5925925925925926
 40
0.5925925925925926
 40
0.5925925925925926
 40
0.6296296296296297
 40
0.6296296296296297
 40
0.6296296296296297
 40
0.6296296296296297
 40
0.6666666666666666
 40
0.6666666666666666
 40
0.6666666666666666
 40
0.6666666666666666
 40
0.7037037037037037
 40
0.7037037037037037
 40
0.7037037037037037
 40
0.7037037037037037
 40
0.7407407407407407
 40
0.7407407407407407
 40
0.7407407407407407
 40
0.7407407407407407
 40
0.7777777777777778
 40
0.7777777777777778
 40
0.7777777777777778
 40
0.7777777777777778
 40
0.8148148148148148
 40
0.8148148148148148
 40
0.8148148148148148
 40
0.8148148148148148
 40
0.8518518518518519
 40
0.8518518518518519
 40
0.8518518518518519
 40
0.8518518518518519
 40
0.8888888888888888
 40
0.8888888888888888
 40
0.8888888888888888
 40
0.8888888888888888
 40
0.9259259259259259
 40
0.9259259259259259
 40
0.9259259259259259
 40
0.9259259259259259
 40
1.0
 40
1.0
 40
1.0
 40
1.0
 10
7.4367
 20
-5.4808
 30
0.0
 10
7.4367
 20
-5.4808
 30
0.0
 10
8.7569
 20
-4.7676
 30
0.0
 10
8.7569
 20
-4.7676
 30
0.0
 10
8.7569
 20
-4.7676
 30
0.0
 10
8.7569
 20
-4.7676
 30
0.0
 10
8.4081
 20
-3.9416
 30
0.0
 10
8.4081
 20
-3.9416
 30
0.0
 10
8.4081
 20
-3.9416
 30
0.0
 10
8.4081
 20
-3.9416
 30
0.0
 10
8.1374
 20
-3.0675
 30
0.0
 10
8.1374
 20
-3.0675
 30
0.0
 10
8.1374
 20
-3.0675
 30
0.0
 10
8.1374
 20
-3.0675
 30
0.0
 10
7.9461
 20
-2.1487
 30
0.0
 10
7.9461
 20
-2.1487
 30
0.0
 10
7.9461
 20
-2.1487
 30
0.0
 10
7.9461
 20
-2.1487
 30
0.0
 10
7.8436
 20
-1.1942
 30
0.0
 10
7.8436
 20
-1.1942
 30
0.0
 10
7.8436
 20
-1.1942
 30
0.0
 10
7.8436
 20
-1.1942
 30
0.0
 10
9.069
 20
-1.1942
 30
0.0
 10
9.069
 20
-1.1942
 30
0.0
 10
9.069
 20
-1.1942
 30
0.0
 10
9.069
 20
-1.1942
 30
0.0
 10
9.0705
 20
-1.2004
 30
0.0
 10
9.0705
 20
-1.2004
 30
0.0
 10
9.0705
 20
-1.2004
 30
0.0
 10
9.0705
 20
-1.2004
 30
0.0
 10
10.2668
 20
-1.1942
 30
0.0
 10
10.2668
 20
-1.1942
 30
0.0
 10
10.2668
 20
-1.1942
 30
0.0
 10
10.2668
 20
-1.1942
 30
0.0
 10
10.2668
 20
0.2506
 30
0.0
 10
10.2668
 20
0.2506
 30
0.0
 10
10.2668
 20
0.2506
 30
0.0
 10
10.2668
 20
0.2506
 30
0.0
 10
9.0705
 20
0.2568
 30
0.0
 10
9.0705
 20
0.2568
 30
0.0
 10
9.0705
 20
0.2568
 30
0.0
 10
9.0705
 20
0.2568
 30
0.0
 10
9.069
 20
0.2506
 30
0.0
 10
9.069
 20
0.2506
 30
0.0
 10
9.069
 20
0.2506
 30
0.0
 10
9.069
 20
0.2506
 30
0.0
 10
7.8436
 20
0.2506
 30
0.0
 10
7.8436
 20
0.2506
 30
0.0
 10
7.8436
 20
0.2506
 30
0.0
 10
7.8436
 20
0.2506
 30
0.0
 10
7.9461
 20
1.2051
 30
0.0
 10
7.9461
 20
1.2051
 30
0.0
 10
7.9461
 20
1.2051
 30
0.0
 10
7.9461
 20
1.2051
 30
0.0
 10
8.1374
 20
2.124
 30
0.0
 10
8.1374
 20
2.124
 30
0.0
 10
8.1374
 20
2.124
 30
0.0
 10
8.1374
 20
2.124
 30
0.0
 10
8.4081
 20
2.998
 30
0.0
 10
8.4081
 20
2.998
 30
0.0
 10
8.4081
 20
2.998
 30
0.0
 10
8.4081
 20
2.998
 30
0.0
 10
8.7569
 20
3.8241
 30
0.0
 10
8.7569
 20
3.8241
 30
0.0
 10
8.7569
 20
3.8241
 30
0.0
 10
8.7569
 20
3.8241
 30
0.0
 10
7.4153
 20
4.5496
 30
0.0
 10
7.4153
 20
4.5496
 30
0.0
 10
7.4153
 20
4.5496
 30
0.0
 10
7.4153
 20
4.5496
 30
0.0
 10
6.9564
 20
3.3352
 30
0.0
 10
6.9564
 20
3.3352
 30
0.0
 10
6.9564
 20
3.3352
 30
0.0
 10
6.9564
 20
3.3352
 30
0.0
 10
6.6213
 20
2.0869
 30
0.0
 10
6.6213
 20
2.0869
 30
0.0
 10
6.6213
 20
2.0869
 30
0.0
 10
6.6213
 20
2.0869
 30
0.0
 10
6.4133
 20
0.8338
 30
0.0
 10
6.4133
 20
0.8338
 30
0.0
 10
6.4133
 20
0.8338
 30
0.0
 10
6.4133
 20
0.8338
 30
0.0
 10
6.3322
 20
-0.3929
 30
0.0
 10
6.3322
 20
-0.3929
 30
0.0
 10
6.3322
 20
-0.3929
 30
0.0
 10
6.3322
 20
-0.3929
 30
0.0
 10
6.3521
 20
-0.9544
 30
0.0
 10
6.3521
 20
-0.9544
 30
0.0
 10
6.3521
 20
-0.9544
 30
0.0
 10
6.3521
 20
-0.9544
 30
0.0
 10
6.4638
 20
-2.1053
 30
0.0
 10
6.4638
 20
-2.1053
 30
0.0
 10
6.4638
 20
-2.1053
 30
0.0
 10
6.4638
 20
-2.1053
 30
0.0
 10
6.6764
 20
-3.2733
 30
0.0
 10
6.6764
 20
-3.2733
 30
0.0
 10
6.6764
 20
-3.2733
 30
0.0
 10
6.6764
 20
-3.2733
 30
0.0
 10
6.9977
 20
-4.4118
 30
0.0
 10
6.9977
 20
-4.4118
 30
0.0
 10
6.9977
 20
-4.4118
 30
0.0
 10
6.9977
 20
-4.4118
 30
0.0
 10
7.4367
 20
-5.4808
 30
0.0
 10
7.4367
 20
-5.4808
 30
0.0
  0
SPLINE
  5
E0
330
1F
100
AcDbEntity
  8
Layer 1
 62
   175
100
AcDbSpline
210
0.0
220
0.0
230
1.0
 70
    11
 71
     3
 72
   100
 73
    96
 74
     0
 42
0.000000001
 43
0.0000000001
 40
0.0
 40
0.0
 40
0.0
 40
0.0
 40
0.04
 40
0.04
 40
0.04
 40
0.04
 40
0.08
 40
0.08
 40
0.08
 40
0.08
 40
0.12
 40
0.12
 40
0.12
 40
0.12
 40
0.16
 40
0.16
 40
0.16
 40
0.16
 40
0.2
 40
0.2
 40
0.2
 40
0.2
 40
0.24
 40
0.24
 40
0.24
 40
0.24
 40
0.28
 40
0.28
 40
0.28
 40
0.28
 40
0.32
 40
0.32
 40
0.32
 40
0.32
 40
0.36
 40
0.36
 40
0.36
 40
0.36
 40
0.4
 40
0.4
 40
0.4
 40
0.4
 40
0.44
 40
0.44
 40
0.44
 40
0.44
 40
0.48
 40
0.48
 40
0.48
 40
0.48
 40
0.52
 40
0.52
 40
0.52
 40
0.52
 40
0.56
 40
0.56
 40
0.56
 40
0.56
 40
0.6
 40
0.6
 40
0.6
 40
0.6
 40
0.64
 40
0.64
 40
0.64
 40
0.64
 40
0.68
 40
0.68
 40
0.68
 40
0.68
 40
0.72
 40
0.72
 40
0.72
 40
0.72
 40
0.76
 40
0.76
 40
0.76
 40
0.76
 40
0.8
 40
0.8
 40
0.8
 40
0.8
 40
0.84
 40
0.84
 40
0.84
 40
0.84
 40
0.88
 40
0.88
 40
0.88
 40
0.88
 40
0.92
 40
0.92
 40
0.92
 40
0.92
 40
1.0
 40
1.0
 40
1.0
 40
1.0
 10
14.0057
 20
-6.4368
 30
0.0
 10
14.0057
 20
-6.4368
 30
0.0
 10
13.6921
 20
-6.3393
 30
0.0
 10
13.6921
 20
-6.3393
 30
0.0
 10
13.6921
 20
-6.3393
 30
0.0
 10
13.6921
 20
-6.3393
 30
0.0
 10
13.3479
 20
-6.098
 30
0.0
 10
13.3479
 20
-6.098
 30
0.0
 10
13.3479
 20
-6.098
 30
0.0
 10
13.3479
 20
-6.098
 30
0.0
 10
13.0404
 20
-5.784
 30
0.0
 10
13.0404
 20
-5.784
 30
0.0
 10
13.0404
 20
-5.784
 30
0.0
 10
13.0404
 20
-5.784
 30
0.0
 10
12.84
 20
-5.4699
 30
0.0
 10
12.84
 20
-5.4699
 30
0.0
 10
12.84
 20
-5.4699
 30
0.0
 10
12.84
 20
-5.4699
 30
0.0
 10
11.7431
 20
-5.4699
 30
0.0
 10
11.7431
 20
-5.4699
 30
0.0
 10
11.7431
 20
-5.4699
 30
0.0
 10
11.7431
 20
-5.4699
 30
0.0
 10
11.7431
 20
-8.1152
 30
0.0
 10
11.7431
 20
-8.1152
 30
0.0
 10
11.7431
 20
-8.1152
 30
0.0
 10
11.7431
 20
-8.1152
 30
0.0
 10
11.073
 20
-7.6635
 30
0.0
 10
11.073
 20
-7.6635
 30
0.0
 10
11.073
 20
-7.6635
 30
0.0
 10
11.073
 20
-7.6635
 30
0.0
 10
10.4504
 20
-7.1298
 30
0.0
 10
10.4504
 20
-7.1298
 30
0.0
 10
10.4504
 20
-7.1298
 30
0.0
 10
10.4504
 20
-7.1298
 30
0.0
 10
9.8813
 20
-6.5188
 30
0.0
 10
9.8813
 20
-6.5188
 30
0.0
 10
9.8813
 20
-6.5188
 30
0.0
 10
9.8813
 20
-6.5188
 30
0.0
 10
9.3704
 20
-5.8412
 30
0.0
 10
9.3704
 20
-5.8412
 30
0.0
 10
9.3704
 20
-5.8412
 30
0.0
 10
9.3704
 20
-5.8412
 30
0.0
 10
8.0073
 20
-6.576
 30
0.0
 10
8.0073
 20
-6.576
 30
0.0
 10
8.0073
 20
-6.576
 30
0.0
 10
8.0073
 20
-6.576
 30
0.0
 10
8.5672
 20
-7.4129
 30
0.0
 10
8.5672
 20
-7.4129
 30
0.0
 10
8.5672
 20
-7.4129
 30
0.0
 10
8.5672
 20
-7.4129
 30
0.0
 10
9.1899
 20
-8.1632
 30
0.0
 10
9.1899
 20
-8.1632
 30
0.0
 10
9.1899
 20
-8.1632
 30
0.0
 10
9.1899
 20
-8.1632
 30
0.0
 10
9.1914
 20
-8.1647
 30
0.0
 10
9.1914
 20
-8.1647
 30
0.0
 10
9.1914
 20
-8.1647
 30
0.0
 10
9.1914
 20
-8.1647
 30
0.0
 10
9.1929
 20
-8.1647
 30
0.0
 10
9.1929
 20
-8.1647
 30
0.0
 10
9.1929
 20
-8.1647
 30
0.0
 10
9.1929
 20
-8.1647
 30
0.0
 10
9.7023
 20
-8.6721
 30
0.0
 10
9.7023
 20
-8.6721
 30
0.0
 10
9.7023
 20
-8.6721
 30
0.0
 10
9.7023
 20
-8.6721
 30
0.0
 10
10.2439
 20
-9.1207
 30
0.0
 10
10.2439
 20
-9.1207
 30
0.0
 10
10.2439
 20
-9.1207
 30
0.0
 10
10.2439
 20
-9.1207
 30
0.0
 10
10.813
 20
-9.5074
 30
0.0
 10
10.813
 20
-9.5074
 30
0.0
 10
10.813
 20
-9.5074
 30
0.0
 10
10.813
 20
-9.5074
 30
0.0
 10
11.4096
 20
-9.8338
 30
0.0
 10
11.4096
 20
-9.8338
 30
0.0
 10
11.4096
 20
-9.8338
 30
0.0
 10
11.4096
 20
-9.8338
 30
0.0
 10
12.0292
 20
-10.0922
 30
0.0
 10
12.0292
 20
-10.0922
 30
0.0
 10
12.0292
 20
-10.0922
 30
0.0
 10
12.0292
 20
-10.0922
 30
0.0
 10
12.6702
 20
-10.2809
 30
0.0
 10
12.6702
 20
-10.2809
 30
0.0
 10
12.6702
 20
-10.2809
 30
0.0
 10
12.6702
 20
-10.2809
 30
0.0
 10
13.3295
 20
-10.3969
 30
0.0
 10
13.3295
 20
-10.3969
 30
0.0
 10
13.3295
 20
-10.3969
 30
0.0
 10
13.3295
 20
-10.3969
 30
0.0
 10
14.0057
 20
-10.4356
 30
0.0
 10
14.0057
 20
-10.4356
 30
0.0
 10
14.0057
 20
-10.4356
 30
0.0
 10
14.0057
 20
-10.4356
 30
0.0
 10
14.0057
 20
-6.4368
 30
0.0
 10
14.0057
 20
-6.4368
 30
0.0
  0
SPLINE
  5
E1
330
1F
100
AcDbEntity
  8
Layer 1
 62
   175
100
AcDbSpline
210
0.0
220
0.0
230
1.0
 70
    11
 71
     3
 72
    44
 73
    40
 74
     0
 42
0.000000001
 43
0.0000000001
 40
0.0
 40
0.0
 40
0.0
 40
0.0
 40
0.0909090909090909
 40
0.0909090909090909
 40
0.0909090909090909
 40
0.0909090909090909
 40
0.1818181818181818
 40
0.1818181818181818
 40
0.1818181818181818
 40
0.1818181818181818
 40
0.2727272727272727
 40
0.2727272727272727
 40
0.2727272727272727
 40
0.2727272727272727
 40
0.3636363636363636
 40
0.3636363636363636
 40
0.3636363636363636
 40
0.3636363636363636
 40
0.4545454545454545
 40
0.4545454545454545
 40
0.4545454545454545
 40
0.4545454545454545
 40
0.5454545454545454
 40
0.5454545454545454
 40
0.5454545454545454
 40
0.5454545454545454
 40
0.6363636363636364
 40
0.6363636363636364
 40
0.6363636363636364
 40
0.6363636363636364
 40
0.7272727272727273
 40
0.7272727272727273
 40
0.7272727272727273
 40
0.7272727272727273
 40
0.8181818181818182
 40
0.8181818181818182
 40
0.8181818181818182
 40
0.8181818181818182
 40
1.0
 40
1.0
 40
1.0
 40
1.0
 10
14.0057
 20
-2.4317
 30
0.0
 10
14.0057
 20
-2.4317
 30
0.0
 10
9.2434
 20
-2.4302
 30
0.0
 10
9.2434
 20
-2.4302
 30
0.0
 10
9.2434
 20
-2.4302
 30
0.0
 10
9.2434
 20
-2.4302
 30
0.0
 10
9.4576
 20
-3.2346
 30
0.0
 10
9.4576
 20
-3.2346
 30
0.0
 10
9.4576
 20
-3.2346
 30
0.0
 10
9.4576
 20
-3.2346
 30
0.0
 10
9.7467
 20
-3.9926
 30
0.0
 10
9.7467
 20
-3.9926
 30
0.0
 10
9.7467
 20
-3.9926
 30
0.0
 10
9.7467
 20
-3.9926
 30
0.0
 10
10.1016
 20
-4.698
 30
0.0
 10
10.1016
 20
-4.698
 30
0.0
 10
10.1016
 20
-4.698
 30
0.0
 10
10.1016
 20
-4.698
 30
0.0
 10
10.5193
 20
-5.3462
 30
0.0
 10
10.5193
 20
-5.3462
 30
0.0
 10
10.5193
 20
-5.3462
 30
0.0
 10
10.5193
 20
-5.3462
 30
0.0
 10
10.5193
 20
-4.2324
 30
0.0
 10
10.5193
 20
-4.2324
 30
0.0
 10
10.5193
 20
-4.2324
 30
0.0
 10
10.5193
 20
-4.2324
 30
0.0
 10
13.7165
 20
-4.2324
 30
0.0
 10
13.7165
 20
-4.2324
 30
0.0
 10
13.7165
 20
-4.2324
 30
0.0
 10
13.7165
 20
-4.2324
 30
0.0
 10
13.7165
 20
-4.2339
 30
0.0
 10
13.7165
 20
-4.2339
 30
0.0
 10
13.7165
 20
-4.2339
 30
0.0
 10
13.7165
 20
-4.2339
 30
0.0
 10
14.0057
 20
-4.2339
 30
0.0
 10
14.0057
 20
-4.2339
 30
0.0
 10
14.0057
 20
-4.2339
 30
0.0
 10
14.0057
 20
-4.2339
 30
0.0
 10
14.0057
 20
-2.4317
 30
0.0
 10
14.0057
 20
-2.4317
 30
0.0
  0
SPLINE
  5
E2
330
1F
100
AcDbEntity
  8
Layer 1
 62
   175
100
AcDbSpline
210
0.0
220
0.0
230
1.0
 70
    11
 71
     3
 72
    88
 73
    84
 74
     0
 42
0.000000001
 43
0.0000000001
 40
0.0
 40
0.0
 40
0.0
 40
0.0
 40
0.0454545454545455
 40
0.0454545454545455
 40
0.0454545454545455
 40
0.0454545454545455
 40
0.0909090909090909
 40
0.0909090909090909
 40
0.0909090909090909
 40
0.0909090909090909
 40
0.1363636363636364
 40
0.1363636363636364
 40
0.1363636363636364
 40
0.1363636363636364
 40
0.1818181818181818
 40
0.1818181818181818
 40
0.1818181818181818
 40
0.1818181818181818
 40
0.2272727272727273
 40
0.2272727272727273
 40
0.2272727272727273
 40
0.2272727272727273
 40
0.2727272727272727
 40
0.2727272727272727
 40
0.2727272727272727
 40
0.2727272727272727
 40
0.3181818181818182
 40
0.3181818181818182
 40
0.3181818181818182
 40
0.3181818181818182
 40
0.3636363636363636
 40
0.3636363636363636
 40
0.3636363636363636
 40
0.3636363636363636
 40
0.4090909090909091
 40
0.4090909090909091
 40
0.4090909090909091
 40
0.4090909090909091
 40
0.4545454545454545
 40
0.4545454545454545
 40
0.4545454545454545
 40
0.4545454545454545
 40
0.5
 40
0.5
 40
0.5
 40
0.5
 40
0.5454545454545454
 40
0.5454545454545454
 40
0.5454545454545454
 40
0.5454545454545454
 40
0.5909090909090909
 40
0.5909090909090909
 40
0.5909090909090909
 40
0.5909090909090909
 40
0.6363636363636364
 40
0.6363636363636364
 40
0.6363636363636364
 40
0.6363636363636364
 40
0.6818181818181818
 40
0.6818181818181818
 40
0.6818181818181818
 40
0.6818181818181818
 40
0.7272727272727273
 40
0.7272727272727273
 40
0.7272727272727273
 40
0.7272727272727273
 40
0.7727272727272727
 40
0.7727272727272727
 40
0.7727272727272727
 40
0.7727272727272727
 40
0.8181818181818182
 40
0.8181818181818182
 40
0.8181818181818182
 40
0.8181818181818182
 40
0.8636363636363636
 40
0.8636363636363636
 40
0.8636363636363636
 40
0.8636363636363636
 40
0.9090909090909091
 40
0.9090909090909091
 40
0.9090909090909091
 40
0.9090909090909091
 40
1.0
 40
1.0
 40
1.0
 40
1.0
 10
-13.7938
 20
-6.4368
 30
0.0
 10
-13.7938
 20
-6.4368
 30
0.0
 10
-13.468
 20
-6.3362
 30
0.0
 10
-13.468
 20
-6.3362
 30
0.0
 10
-13.468
 20
-6.3362
 30
0.0
 10
-13.468
 20
-6.3362
 30
0.0
 10
-13.1237
 20
-6.0964
 30
0.0
 10
-13.1237
 20
-6.0964
 30
0.0
 10
-13.1237
 20
-6.0964
 30
0.0
 10
-13.1237
 20
-6.0964
 30
0.0
 10
-12.8209
 20
-5.7824
 30
0.0
 10
-12.8209
 20
-5.7824
 30
0.0
 10
-12.8209
 20
-5.7824
 30
0.0
 10
-12.8209
 20
-5.7824
 30
0.0
 10
-12.6235
 20
-5.4699
 30
0.0
 10
-12.6235
 20
-5.4699
 30
0.0
 10
-12.6235
 20
-5.4699
 30
0.0
 10
-12.6235
 20
-5.4699
 30
0.0
 10
-11.5266
 20
-5.4699
 30
0.0
 10
-11.5266
 20
-5.4699
 30
0.0
 10
-11.5266
 20
-5.4699
 30
0.0
 10
-11.5266
 20
-5.4699
 30
0.0
 10
-11.5266
 20
-7.0091
 30
0.0
 10
-11.5266
 20
-7.0091
 30
0.0
 10
-11.5266
 20
-7.0091
 30
0.0
 10
-11.5266
 20
-7.0091
 30
0.0
 10
-11.5266
 20
-8.1152
 30
0.0
 10
-11.5266
 20
-8.1152
 30
0.0
 10
-11.5266
 20
-8.1152
 30
0.0
 10
-11.5266
 20
-8.1152
 30
0.0
 10
-10.8566
 20
-7.6635
 30
0.0
 10
-10.8566
 20
-7.6635
 30
0.0
 10
-10.8566
 20
-7.6635
 30
0.0
 10
-10.8566
 20
-7.6635
 30
0.0
 10
-10.234
 20
-7.1298
 30
0.0
 10
-10.234
 20
-7.1298
 30
0.0
 10
-10.234
 20
-7.1298
 30
0.0
 10
-10.234
 20
-7.1298
 30
0.0
 10
-9.6649
 20
-6.5188
 30
0.0
 10
-9.6649
 20
-6.5188
 30
0.0
 10
-9.6649
 20
-6.5188
 30
0.0
 10
-9.6649
 20
-6.5188
 30
0.0
 10
-9.1555
 20
-5.8412
 30
0.0
 10
-9.1555
 20
-5.8412
 30
0.0
 10
-9.1555
 20
-5.8412
 30
0.0
 10
-9.1555
 20
-5.8412
 30
0.0
 10
-7.7955
 20
-6.576
 30
0.0
 10
-7.7955
 20
-6.576
 30
0.0
 10
-7.7955
 20
-6.576
 30
0.0
 10
-7.7955
 20
-6.576
 30
0.0
 10
-8.3584
 20
-7.416
 30
0.0
 10
-8.3584
 20
-7.416
 30
0.0
 10
-8.3584
 20
-7.416
 30
0.0
 10
-8.3584
 20
-7.416
 30
0.0
 10
-8.9857
 20
-8.1709
 30
0.0
 10
-8.9857
 20
-8.1709
 30
0.0
 10
-8.9857
 20
-8.1709
 30
0.0
 10
-8.9857
 20
-8.1709
 30
0.0
 10
-9.6725
 20
-8.8299
 30
0.0
 10
-9.6725
 20
-8.8299
 30
0.0
 10
-9.6725
 20
-8.8299
 30
0.0
 10
-9.6725
 20
-8.8299
 30
0.0
 10
-10.4129
 20
-9.3883
 30
0.0
 10
-10.4129
 20
-9.3883
 30
0.0
 10
-10.4129
 20
-9.3883
 30
0.0
 10
-10.4129
 20
-9.3883
 30
0.0
 10
-11.2008
 20
-9.8354
 30
0.0
 10
-11.2008
 20
-9.8354
 30
0.0
 10
-11.2008
 20
-9.8354
 30
0.0
 10
-11.2008
 20
-9.8354
 30
0.0
 10
-12.0299
 20
-10.1649
 30
0.0
 10
-12.0299
 20
-10.1649
 30
0.0
 10
-12.0299
 20
-10.1649
 30
0.0
 10
-12.0299
 20
-10.1649
 30
0.0
 10
-12.8973
 20
-10.366
 30
0.0
 10
-12.8973
 20
-10.366
 30
0.0
 10
-12.8973
 20
-10.366
 30
0.0
 10
-12.8973
 20
-10.366
 30
0.0
 10
-13.7938
 20
-10.4356
 30
0.0
 10
-13.7938
 20
-10.4356
 30
0.0
 10
-13.7938
 20
-10.4356
 30
0.0
 10
-13.7938
 20
-10.4356
 30
0.0
 10
-13.7938
 20
-6.4368
 30
0.0
 10
-13.7938
 20
-6.4368
 30
0.0
  0
SPLINE
  5
E3
330
1F
100
AcDbEntity
  8
Layer 1
 62
   175
100
AcDbSpline
210
0.0
220
0.0
230
1.0
 70
    11
 71
     3
 72
    44
 73
    40
 74
     0
 42
0.000000001
 43
0.0000000001
 40
0.0
 40
0.0
 40
0.0
 40
0.0
 40
0.0909090909090909
 40
0.0909090909090909
 40
0.0909090909090909
 40
0.0909090909090909
 40
0.1818181818181818
 40
0.1818181818181818
 40
0.1818181818181818
 40
0.1818181818181818
 40
0.2727272727272727
 40
0.2727272727272727
 40
0.2727272727272727
 40
0.2727272727272727
 40
0.3636363636363636
 40
0.3636363636363636
 40
0.3636363636363636
 40
0.3636363636363636
 40
0.4545454545454545
 40
0.4545454545454545
 40
0.4545454545454545
 40
0.4545454545454545
 40
0.5454545454545454
 40
0.5454545454545454
 40
0.5454545454545454
 40
0.5454545454545454
 40
0.6363636363636364
 40
0.6363636363636364
 40
0.6363636363636364
 40
0.6363636363636364
 40
0.7272727272727273
 40
0.7272727272727273
 40
0.7272727272727273
 40
0.7272727272727273
 40
0.8181818181818182
 40
0.8181818181818182
 40
0.8181818181818182
 40
0.8181818181818182
 40
1.0
 40
1.0
 40
1.0
 40
1.0
 10
-13.7938
 20
-2.4317
 30
0.0
 10
-13.7938
 20
-2.4317
 30
0.0
 10
-9.027
 20
-2.4302
 30
0.0
 10
-9.027
 20
-2.4302
 30
0.0
 10
-9.027
 20
-2.4302
 30
0.0
 10
-9.027
 20
-2.4302
 30
0.0
 10
-9.2427
 20
-3.2346
 30
0.0
 10
-9.2427
 20
-3.2346
 30
0.0
 10
-9.2427
 20
-3.2346
 30
0.0
 10
-9.2427
 20
-3.2346
 30
0.0
 10
-9.5303
 20
-3.9926
 30
0.0
 10
-9.5303
 20
-3.9926
 30
0.0
 10
-9.5303
 20
-3.9926
 30
0.0
 10
-9.5303
 20
-3.9926
 30
0.0
 10
-9.8852
 20
-4.698
 30
0.0
 10
-9.8852
 20
-4.698
 30
0.0
 10
-9.8852
 20
-4.698
 30
0.0
 10
-9.8852
 20
-4.698
 30
0.0
 10
-10.3028
 20
-5.3462
 30
0.0
 10
-10.3028
 20
-5.3462
 30
0.0
 10
-10.3028
 20
-5.3462
 30
0.0
 10
-10.3028
 20
-5.3462
 30
0.0
 10
-10.3028
 20
-4.2324
 30
0.0
 10
-10.3028
 20
-4.2324
 30
0.0
 10
-10.3028
 20
-4.2324
 30
0.0
 10
-10.3028
 20
-4.2324
 30
0.0
 10
-12.3359
 20
-4.2324
 30
0.0
 10
-12.3359
 20
-4.2324
 30
0.0
 10
-12.3359
 20
-4.2324
 30
0.0
 10
-12.3359
 20
-4.2324
 30
0.0
 10
-12.3359
 20
-4.2324
 30
0.0
 10
-12.3359
 20
-4.2324
 30
0.0
 10
-12.3359
 20
-4.2324
 30
0.0
 10
-12.3359
 20
-4.2324
 30
0.0
 10
-13.7938
 20
-4.2339
 30
0.0
 10
-13.7938
 20
-4.2339
 30
0.0
 10
-13.7938
 20
-4.2339
 30
0.0
 10
-13.7938
 20
-4.2339
 30
0.0
 10
-13.7938
 20
-2.4317
 30
0.0
 10
-13.7938
 20
-2.4317
 30
0.0
  0
SPLINE
  5
E4
330
1F
100
AcDbEntity
  8
Layer 1
 62
   175
100
AcDbSpline
210
0.0
220
0.0
230
1.0
 70
    11
 71
     3
 72
    52
 73
    48
 74
     0
 42
0.000000001
 43
0.0000000001
 40
0.0
 40
0.0
 40
0.0
 40
0.0
 40
0.0769230769230769
 40
0.0769230769230769
 40
0.0769230769230769
 40
0.0769230769230769
 40
0.1538461538461539
 40
0.1538461538461539
 40
0.1538461538461539
 40
0.1538461538461539
 40
0.2307692307692308
 40
0.2307692307692308
 40
0.2307692307692308
 40
0.2307692307692308
 40
0.3076923076923077
 40
0.3076923076923077
 40
0.3076923076923077
 40
0.3076923076923077
 40
0.3846153846153846
 40
0.3846153846153846
 40
0.3846153846153846
 40
0.3846153846153846
 40
0.4615384615384616
 40
0.4615384615384616
 40
0.4615384615384616
 40
0.4615384615384616
 40
0.5384615384615384
 40
0.5384615384615384
 40
0.5384615384615384
 40
0.5384615384615384
 40
0.6153846153846154
 40
0.6153846153846154
 40
0.6153846153846154
 40
0.6153846153846154
 40
0.6923076923076923
 40
0.6923076923076923
 40
0.6923076923076923
 40
0.6923076923076923
 40
0.7692307692307693
 40
0.7692307692307693
 40
0.7692307692307693
 40
0.7692307692307693
 40
0.8461538461538461
 40
0.8461538461538461
 40
0.8461538461538461
 40
0.8461538461538461
 40
1.0
 40
1.0
 40
1.0
 40
1.0
 10
-13.006
 20
0.2522
 30
0.0
 10
-13.006
 20
0.2522
 30
0.0
 10
-13.7938
 20
0.2522
 30
0.0
 10
-13.7938
 20
0.2522
 30
0.0
 10
-13.7938
 20
0.2522
 30
0.0
 10
-13.7938
 20
0.2522
 30
0.0
 10
-13.7938
 20
0.2506
 30
0.0
 10
-13.7938
 20
0.2506
 30
0.0
 10
-13.7938
 20
0.2506
 30
0.0
 10
-13.7938
 20
0.2506
 30
0.0
 10
-13.7938
 20
0.0712
 30
0.0
 10
-13.7938
 20
0.0712
 30
0.0
 10
-13.7938
 20
0.0712
 30
0.0
 10
-13.7938
 20
0.0712
 30
0.0
 10
-13.7938
 20
-0.1098
 30
0.0
 10
-13.7938
 20
-0.1098
 30
0.0
 10
-13.7938
 20
-0.1098
 30
0.0
 10
-13.7938
 20
-0.1098
 30
0.0
 10
-13.7938
 20
-0.2908
 30
0.0
 10
-13.7938
 20
-0.2908
 30
0.0
 10
-13.7938
 20
-0.2908
 30
0.0
 10
-13.7938
 20
-0.2908
 30
0.0
 10
-13.7938
 20
-0.4733
 30
0.0
 10
-13.7938
 20
-0.4733
 30
0.0
 10
-13.7938
 20
-0.4733
 30
0.0
 10
-13.7938
 20
-0.4733
 30
0.0
 10
-13.7938
 20
-0.6528
 30
0.0
 10
-13.7938
 20
-0.6528
 30
0.0
 10
-13.7938
 20
-0.6528
 30
0.0
 10
-13.7938
 20
-0.6528
 30
0.0
 10
-13.7938
 20
-0.8338
 30
0.0
 10
-13.7938
 20
-0.8338
 30
0.0
 10
-13.7938
 20
-0.8338
 30
0.0
 10
-13.7938
 20
-0.8338
 30
0.0
 10
-13.7938
 20
-1.0147
 30
0.0
 10
-13.7938
 20
-1.0147
 30
0.0
 10
-13.7938
 20
-1.0147
 30
0.0
 10
-13.7938
 20
-1.0147
 30
0.0
 10
-13.7938
 20
-1.1942
 30
0.0
 10
-13.7938
 20
-1.1942
 30
0.0
 10
-13.7938
 20
-1.1942
 30
0.0
 10
-13.7938
 20
-1.1942
 30
0.0
 10
-13.006
 20
-1.1942
 30
0.0
 10
-13.006
 20
-1.1942
 30
0.0
 10
-13.006
 20
-1.1942
 30
0.0
 10
-13.006
 20
-1.1942
 30
0.0
 10
-13.006
 20
0.2522
 30
0.0
 10
-13.006
 20
0.2522
 30
0.0
  0
SPLINE
  5
E5
330
1F
100
AcDbEntity
  8
Layer 1
 62
   175
100
AcDbSpline
210
0.0
220
0.0
230
1.0
 70
    11
 71
     3
 72
    20
 73
    16
 74
     0
 42
0.000000001
 43
0.0000000001
 40
0.0
 40
0.0
 40
0.0
 40
0.0
 40
0.2
 40
0.2
 40
0.2
 40
0.2
 40
0.4
 40
0.4
 40
0.4
 40
0.4
 40
0.6
 40
0.6
 40
0.6
 40
0.6
 40
1.0
 40
1.0
 40
1.0
 40
1.0
 10
-11.2222
 20
0.2522
 30
0.0
 10
-11.2222
 20
0.2522
 30
0.0
 10
-11.8357
 20
0.2522
 30
0.0
 10
-11.8357
 20
0.2522
 30
0.0
 10
-11.8357
 20
0.2522
 30
0.0
 10
-11.8357
 20
0.2522
 30
0.0
 10
-11.8357
 20
-1.1942
 30
0.0
 10
-11.8357
 20
-1.1942
 30
0.0
 10
-11.8357
 20
-1.1942
 30
0.0
 10
-11.8357
 20
-1.1942
 30
0.0
 10
-11.2222
 20
-1.1942
 30
0.0
 10
-11.2222
 20
-1.1942
 30
0.0
 10
-11.2222
 20
-1.1942
 30
0.0
 10
-11.2222
 20
-1.1942
 30
0.0
 10
-11.2222
 20
0.2522
 30
0.0
 10
-11.2222
 20
0.2522
 30
0.0
  0
SPLINE
  5
E6
330
1F
100
AcDbEntity
  8
Layer 1
 62
   175
100
AcDbSpline
210
0.0
220
0.0
230
1.0
 70
    11
 71
     3
 72
    88
 73
    84
 74
     0
 42
0.000000001
 43
0.0000000001
 40
0.0
 40
0.0
 40
0.0
 40
0.0
 40
0.0454545454545455
 40
0.0454545454545455
 40
0.0454545454545455
 40
0.0454545454545455
 40
0.0909090909090909
 40
0.0909090909090909
 40
0.0909090909090909
 40
0.0909090909090909
 40
0.1363636363636364
 40
0.1363636363636364
 40
0.1363636363636364
 40
0.1363636363636364
 40
0.1818181818181818
 40
0.1818181818181818
 40
0.1818181818181818
 40
0.1818181818181818
 40
0.2272727272727273
 40
0.2272727272727273
 40
0.2272727272727273
 40
0.2272727272727273
 40
0.2727272727272727
 40
0.2727272727272727
 40
0.2727272727272727
 40
0.2727272727272727
 40
0.3181818181818182
 40
0.3181818181818182
 40
0.3181818181818182
 40
0.3181818181818182
 40
0.3636363636363636
 40
0.3636363636363636
 40
0.3636363636363636
 40
0.3636363636363636
 40
0.4090909090909091
 40
0.4090909090909091
 40
0.4090909090909091
 40
0.4090909090909091
 40
0.4545454545454545
 40
0.4545454545454545
 40
0.4545454545454545
 40
0.4545454545454545
 40
0.5
 40
0.5
 40
0.5
 40
0.5
 40
0.5454545454545454
 40
0.5454545454545454
 40
0.5454545454545454
 40
0.5454545454545454
 40
0.5909090909090909
 40
0.5909090909090909
 40
0.5909090909090909
 40
0.5909090909090909
 40
0.6363636363636364
 40
0.6363636363636364
 40
0.6363636363636364
 40
0.6363636363636364
 40
0.6818181818181818
 40
0.6818181818181818
 40
0.6818181818181818
 40
0.6818181818181818
 40
0.7272727272727273
 40
0.7272727272727273
 40
0.7272727272727273
 40
0.7272727272727273
 40
0.7727272727272727
 40
0.7727272727272727
 40
0.7727272727272727
 40
0.7727272727272727
 40
0.8181818181818182
 40
0.8181818181818182
 40
0.8181818181818182
 40
0.8181818181818182
 40
0.8636363636363636
 40
0.8636363636363636
 40
0.8636363636363636
 40
0.8636363636363636
 40
0.9090909090909091
 40
0.9090909090909091
 40
0.9090909090909091
 40
0.9090909090909091
 40
1.0
 40
1.0
 40
1.0
 40
1.0
 10
-7.182
 20
4.562
 30
0.0
 10
-7.182
 20
4.562
 30
0.0
 10
-8.542
 20
3.8256
 30
0.0
 10
-8.542
 20
3.8256
 30
0.0
 10
-8.542
 20
3.8256
 30
0.0
 10
-8.542
 20
3.8256
 30
0.0
 10
-8.1932
 20
2.9996
 30
0.0
 10
-8.1932
 20
2.9996
 30
0.0
 10
-8.1932
 20
2.9996
 30
0.0
 10
-8.1932
 20
2.9996
 30
0.0
 10
-7.9209
 20
2.1255
 30
0.0
 10
-7.9209
 20
2.1255
 30
0.0
 10
-7.9209
 20
2.1255
 30
0.0
 10
-7.9209
 20
2.1255
 30
0.0
 10
-7.7297
 20
1.2051
 30
0.0
 10
-7.7297
 20
1.2051
 30
0.0
 10
-7.7297
 20
1.2051
 30
0.0
 10
-7.7297
 20
1.2051
 30
0.0
 10
-7.6272
 20
0.2522
 30
0.0
 10
-7.6272
 20
0.2522
 30
0.0
 10
-7.6272
 20
0.2522
 30
0.0
 10
-7.6272
 20
0.2522
 30
0.0
 10
-10.0504
 20
0.2522
 30
0.0
 10
-10.0504
 20
0.2522
 30
0.0
 10
-10.0504
 20
0.2522
 30
0.0
 10
-10.0504
 20
0.2522
 30
0.0
 10
-10.0504
 20
-1.1942
 30
0.0
 10
-10.0504
 20
-1.1942
 30
0.0
 10
-10.0504
 20
-1.1942
 30
0.0
 10
-10.0504
 20
-1.1942
 30
0.0
 10
-7.6272
 20
-1.1942
 30
0.0
 10
-7.6272
 20
-1.1942
 30
0.0
 10
-7.6272
 20
-1.1942
 30
0.0
 10
-7.6272
 20
-1.1942
 30
0.0
 10
-7.7297
 20
-2.1487
 30
0.0
 10
-7.7297
 20
-2.1487
 30
0.0
 10
-7.7297
 20
-2.1487
 30
0.0
 10
-7.7297
 20
-2.1487
 30
0.0
 10
-7.9209
 20
-3.0675
 30
0.0
 10
-7.9209
 20
-3.0675
 30
0.0
 10
-7.9209
 20
-3.0675
 30
0.0
 10
-7.9209
 20
-3.0675
 30
0.0
 10
-8.1932
 20
-3.9416
 30
0.0
 10
-8.1932
 20
-3.9416
 30
0.0
 10
-8.1932
 20
-3.9416
 30
0.0
 10
-8.1932
 20
-3.9416
 30
0.0
 10
-8.542
 20
-4.7676
 30
0.0
 10
-8.542
 20
-4.7676
 30
0.0
 10
-8.542
 20
-4.7676
 30
0.0
 10
-8.542
 20
-4.7676
 30
0.0
 10
-7.2233
 20
-5.4808
 30
0.0
 10
-7.2233
 20
-5.4808
 30
0.0
 10
-7.2233
 20
-5.4808
 30
0.0
 10
-7.2233
 20
-5.4808
 30
0.0
 10
-6.7705
 20
-4.319
 30
0.0
 10
-6.7705
 20
-4.319
 30
0.0
 10
-6.7705
 20
-4.319
 30
0.0
 10
-6.7705
 20
-4.319
 30
0.0
 10
-6.4294
 20
-3.0753
 30
0.0
 10
-6.4294
 20
-3.0753
 30
0.0
 10
-6.4294
 20
-3.0753
 30
0.0
 10
-6.4294
 20
-3.0753
 30
0.0
 10
-6.2106
 20
-1.765
 30
0.0
 10
-6.2106
 20
-1.765
 30
0.0
 10
-6.2106
 20
-1.765
 30
0.0
 10
-6.2106
 20
-1.765
 30
0.0
 10
-6.1203
 20
-0.3929
 30
0.0
 10
-6.1203
 20
-0.3929
 30
0.0
 10
-6.1203
 20
-0.3929
 30
0.0
 10
-6.1203
 20
-0.3929
 30
0.0
 10
-6.206
 20
0.9468
 30
0.0
 10
-6.206
 20
0.9468
 30
0.0
 10
-6.206
 20
0.9468
 30
0.0
 10
-6.206
 20
0.9468
 30
0.0
 10
-6.4187
 20
2.2245
 30
0.0
 10
-6.4187
 20
2.2245
 30
0.0
 10
-6.4187
 20
2.2245
 30
0.0
 10
-6.4187
 20
2.2245
 30
0.0
 10
-6.746
 20
3.4327
 30
0.0
 10
-6.746
 20
3.4327
 30
0.0
 10
-6.746
 20
3.4327
 30
0.0
 10
-6.746
 20
3.4327
 30
0.0
 10
-7.182
 20
4.562
 30
0.0
 10
-7.182
 20
4.562
 30
0.0
  0
SPLINE
  5
E7
330
1F
100
AcDbEntity
  8
Layer 1
 62
   175
100
AcDbSpline
210
0.0
220
0.0
230
1.0
 70
    11
 71
     3
 72
    88
 73
    84
 74
     0
 42
0.000000001
 43
0.0000000001
 40
0.0
 40
0.0
 40
0.0
 40
0.0
 40
0.0454545454545455
 40
0.0454545454545455
 40
0.0454545454545455
 40
0.0454545454545455
 40
0.0909090909090909
 40
0.0909090909090909
 40
0.0909090909090909
 40
0.0909090909090909
 40
0.1363636363636364
 40
0.1363636363636364
 40
0.1363636363636364
 40
0.1363636363636364
 40
0.1818181818181818
 40
0.1818181818181818
 40
0.1818181818181818
 40
0.1818181818181818
 40
0.2272727272727273
 40
0.2272727272727273
 40
0.2272727272727273
 40
0.2272727272727273
 40
0.2727272727272727
 40
0.2727272727272727
 40
0.2727272727272727
 40
0.2727272727272727
 40
0.3181818181818182
 40
0.3181818181818182
 40
0.3181818181818182
 40
0.3181818181818182
 40
0.3636363636363636
 40
0.3636363636363636
 40
0.3636363636363636
 40
0.3636363636363636
 40
0.4090909090909091
 40
0.4090909090909091
 40
0.4090909090909091
 40
0.4090909090909091
 40
0.4545454545454545
 40
0.4545454545454545
 40
0.4545454545454545
 40
0.4545454545454545
 40
0.5
 40
0.5
 40
0.5
 40
0.5
 40
0.5454545454545454
 40
0.5454545454545454
 40
0.5454545454545454
 40
0.5454545454545454
 40
0.5909090909090909
 40
0.5909090909090909
 40
0.5909090909090909
 40
0.5909090909090909
 40
0.6363636363636364
 40
0.6363636363636364
 40
0.6363636363636364
 40
0.6363636363636364
 40
0.6818181818181818
 40
0.6818181818181818
 40
0.6818181818181818
 40
0.6818181818181818
 40
0.7272727272727273
 40
0.7272727272727273
 40
0.7272727272727273
 40
0.7272727272727273
 40
0.7727272727272727
 40
0.7727272727272727
 40
0.7727272727272727
 40
0.7727272727272727
 40
0.8181818181818182
 40
0.8181818181818182
 40
0.8181818181818182
 40
0.8181818181818182
 40
0.8636363636363636
 40
0.8636363636363636
 40
0.8636363636363636
 40
0.8636363636363636
 40
0.9090909090909091
 40
0.9090909090909091
 40
0.9090909090909091
 40
0.9090909090909091
 40
1.0
 40
1.0
 40
1.0
 40
1.0
 10
-13.7938
 20
5.4948
 30
0.0
 10
-13.7938
 20
5.4948
 30
0.0
 10
-13.4741
 20
5.3958
 30
0.0
 10
-13.4741
 20
5.3958
 30
0.0
 10
-13.4741
 20
5.3958
 30
0.0
 10
-13.4741
 20
5.3958
 30
0.0
 10
-13.1283
 20
5.1544
 30
0.0
 10
-13.1283
 20
5.1544
 30
0.0
 10
-13.1283
 20
5.1544
 30
0.0
 10
-13.1283
 20
5.1544
 30
0.0
 10
-12.8239
 20
4.8404
 30
0.0
 10
-12.8239
 20
4.8404
 30
0.0
 10
-12.8239
 20
4.8404
 30
0.0
 10
-12.8239
 20
4.8404
 30
0.0
 10
-12.6235
 20
4.5264
 30
0.0
 10
-12.6235
 20
4.5264
 30
0.0
 10
-12.6235
 20
4.5264
 30
0.0
 10
-12.6235
 20
4.5264
 30
0.0
 10
-11.5266
 20
4.5264
 30
0.0
 10
-11.5266
 20
4.5264
 30
0.0
 10
-11.5266
 20
4.5264
 30
0.0
 10
-11.5266
 20
4.5264
 30
0.0
 10
-11.5266
 20
6.0656
 30
0.0
 10
-11.5266
 20
6.0656
 30
0.0
 10
-11.5266
 20
6.0656
 30
0.0
 10
-11.5266
 20
6.0656
 30
0.0
 10
-11.5266
 20
7.1732
 30
0.0
 10
-11.5266
 20
7.1732
 30
0.0
 10
-11.5266
 20
7.1732
 30
0.0
 10
-11.5266
 20
7.1732
 30
0.0
 10
-10.8566
 20
6.7199
 30
0.0
 10
-10.8566
 20
6.7199
 30
0.0
 10
-10.8566
 20
6.7199
 30
0.0
 10
-10.8566
 20
6.7199
 30
0.0
 10
-10.234
 20
6.1863
 30
0.0
 10
-10.234
 20
6.1863
 30
0.0
 10
-10.234
 20
6.1863
 30
0.0
 10
-10.234
 20
6.1863
 30
0.0
 10
-9.6649
 20
5.5752
 30
0.0
 10
-9.6649
 20
5.5752
 30
0.0
 10
-9.6649
 20
5.5752
 30
0.0
 10
-9.6649
 20
5.5752
 30
0.0
 10
-9.1555
 20
4.8977
 30
0.0
 10
-9.1555
 20
4.8977
 30
0.0
 10
-9.1555
 20
4.8977
 30
0.0
 10
-9.1555
 20
4.8977
 30
0.0
 10
-7.7526
 20
5.6572
 30
0.0
 10
-7.7526
 20
5.6572
 30
0.0
 10
-7.7526
 20
5.6572
 30
0.0
 10
-7.7526
 20
5.6572
 30
0.0
 10
-8.3156
 20
6.4956
 30
0.0
 10
-8.3156
 20
6.4956
 30
0.0
 10
-8.3156
 20
6.4956
 30
0.0
 10
-8.3156
 20
6.4956
 30
0.0
 10
-8.9443
 20
7.249
 30
0.0
 10
-8.9443
 20
7.249
 30
0.0
 10
-8.9443
 20
7.249
 30
0.0
 10
-8.9443
 20
7.249
 30
0.0
 10
-9.6358
 20
7.9034
 30
0.0
 10
-9.6358
 20
7.9034
 30
0.0
 10
-9.6358
 20
7.9034
 30
0.0
 10
-9.6358
 20
7.9034
 30
0.0
 10
-10.3808
 20
8.4572
 30
0.0
 10
-10.3808
 20
8.4572
 30
0.0
 10
-10.3808
 20
8.4572
 30
0.0
 10
-10.3808
 20
8.4572
 30
0.0
 10
-11.1748
 20
8.8996
 30
0.0
 10
-11.1748
 20
8.8996
 30
0.0
 10
-11.1748
 20
8.8996
 30
0.0
 10
-11.1748
 20
8.8996
 30
0.0
 10
-12.0131
 20
9.2244
 30
0.0
 10
-12.0131
 20
9.2244
 30
0.0
 10
-12.0131
 20
9.2244
 30
0.0
 10
-12.0131
 20
9.2244
 30
0.0
 10
-12.8882
 20
9.424
 30
0.0
 10
-12.8882
 20
9.424
 30
0.0
 10
-12.8882
 20
9.424
 30
0.0
 10
-12.8882
 20
9.424
 30
0.0
 10
-13.7938
 20
9.4936
 30
0.0
 10
-13.7938
 20
9.4936
 30
0.0
 10
-13.7938
 20
9.4936
 30
0.0
 10
-13.7938
 20
9.4936
 30
0.0
 10
-13.7938
 20
5.4948
 30
0.0
 10
-13.7938
 20
5.4948
 30
0.0
  0
SPLINE
  5
E8
330
1F
100
AcDbEntity
  8
Layer 1
 62
   175
100
AcDbSpline
210
0.0
220
0.0
230
1.0
 70
    11
 71
     3
 72
    44
 73
    40
 74
     0
 42
0.000000001
 43
0.0000000001
 40
0.0
 40
0.0
 40
0.0
 40
0.0
 40
0.0909090909090909
 40
0.0909090909090909
 40
0.0909090909090909
 40
0.0909090909090909
 40
0.1818181818181818
 40
0.1818181818181818
 40
0.1818181818181818
 40
0.1818181818181818
 40
0.2727272727272727
 40
0.2727272727272727
 40
0.2727272727272727
 40
0.2727272727272727
 40
0.3636363636363636
 40
0.3636363636363636
 40
0.3636363636363636
 40
0.3636363636363636
 40
0.4545454545454545
 40
0.4545454545454545
 40
0.4545454545454545
 40
0.4545454545454545
 40
0.5454545454545454
 40
0.5454545454545454
 40
0.5454545454545454
 40
0.5454545454545454
 40
0.6363636363636364
 40
0.6363636363636364
 40
0.6363636363636364
 40
0.6363636363636364
 40
0.7272727272727273
 40
0.7272727272727273
 40
0.7272727272727273
 40
0.7272727272727273
 40
0.8181818181818182
 40
0.8181818181818182
 40
0.8181818181818182
 40
0.8181818181818182
 40
1.0
 40
1.0
 40
1.0
 40
1.0
 10
-13.7938
 20
1.4897
 30
0.0
 10
-13.7938
 20
1.4897
 30
0.0
 10
-9.027
 20
1.4867
 30
0.0
 10
-9.027
 20
1.4867
 30
0.0
 10
-9.027
 20
1.4867
 30
0.0
 10
-9.027
 20
1.4867
 30
0.0
 10
-9.2427
 20
2.288
 30
0.0
 10
-9.2427
 20
2.288
 30
0.0
 10
-9.2427
 20
2.288
 30
0.0
 10
-9.2427
 20
2.288
 30
0.0
 10
-9.5303
 20
3.0491
 30
0.0
 10
-9.5303
 20
3.0491
 30
0.0
 10
-9.5303
 20
3.0491
 30
0.0
 10
-9.5303
 20
3.0491
 30
0.0
 10
-9.8852
 20
3.756
 30
0.0
 10
-9.8852
 20
3.756
 30
0.0
 10
-9.8852
 20
3.756
 30
0.0
 10
-9.8852
 20
3.756
 30
0.0
 10
-10.3028
 20
4.4042
 30
0.0
 10
-10.3028
 20
4.4042
 30
0.0
 10
-10.3028
 20
4.4042
 30
0.0
 10
-10.3028
 20
4.4042
 30
0.0
 10
-10.3028
 20
3.2888
 30
0.0
 10
-10.3028
 20
3.2888
 30
0.0
 10
-10.3028
 20
3.2888
 30
0.0
 10
-10.3028
 20
3.2888
 30
0.0
 10
-13.5674
 20
3.2904
 30
0.0
 10
-13.5674
 20
3.2904
 30
0.0
 10
-13.5674
 20
3.2904
 30
0.0
 10
-13.5674
 20
3.2904
 30
0.0
 10
-13.5674
 20
3.2919
 30
0.0
 10
-13.5674
 20
3.2919
 30
0.0
 10
-13.5674
 20
3.2919
 30
0.0
 10
-13.5674
 20
3.2919
 30
0.0
 10
-13.7938
 20
3.2919
 30
0.0
 10
-13.7938
 20
3.2919
 30
0.0
 10
-13.7938
 20
3.2919
 30
0.0
 10
-13.7938
 20
3.2919
 30
0.0
 10
-13.7938
 20
1.4897
 30
0.0
 10
-13.7938
 20
1.4897
 30
0.0
  0
SPLINE
  5
E9
330
1F
100
AcDbEntity
  8
Layer 1
 62
   175
100
AcDbSpline
210
0.0
220
0.0
230
1.0
 70
    11
 71
     3
 72
    28
 73
    24
 74
     0
 42
0.000000001
 43
0.0000000001
 40
0.0
 40
0.0
 40
0.0
 40
0.0
 40
0.1428571428571428
 40
0.1428571428571428
 40
0.1428571428571428
 40
0.1428571428571428
 40
0.2857142857142857
 40
0.2857142857142857
 40
0.2857142857142857
 40
0.2857142857142857
 40
0.4285714285714285
 40
0.4285714285714285
 40
0.4285714285714285
 40
0.4285714285714285
 40
0.5714285714285714
 40
0.5714285714285714
 40
0.5714285714285714
 40
0.5714285714285714
 40
0.7142857142857143
 40
0.7142857142857143
 40
0.7142857142857143
 40
0.7142857142857143
 40
1.0
 40
1.0
 40
1.0
 40
1.0
 10
14.0057
 20
39.6017
 30
0.0
 10
14.0057
 20
39.6017
 30
0.0
 10
11.1052
 20
39.6017
 30
0.0
 10
11.1052
 20
39.6017
 30
0.0
 10
11.1052
 20
39.6017
 30
0.0
 10
11.1052
 20
39.6017
 30
0.0
 10
11.1052
 20
39.1299
 30
0.0
 10
11.1052
 20
39.1299
 30
0.0
 10
11.1052
 20
39.1299
 30
0.0
 10
11.1052
 20
39.1299
 30
0.0
 10
11.1082
 20
39.1299
 30
0.0
 10
11.1082
 20
39.1299
 30
0.0
 10
11.1082
 20
39.1299
 30
0.0
 10
11.1082
 20
39.1299
 30
0.0
 10
11.1082
 20
37.996
 30
0.0
 10
11.1082
 20
37.996
 30
0.0
 10
11.1082
 20
37.996
 30
0.0
 10
11.1082
 20
37.996
 30
0.0
 10
14.0057
 20
37.996
 30
0.0
 10
14.0057
 20
37.996
 30
0.0
 10
14.0057
 20
37.996
 30
0.0
 10
14.0057
 20
37.996
 30
0.0
 10
14.0057
 20
39.6017
 30
0.0
 10
14.0057
 20
39.6017
 30
0.0
  0
ENDSEC
  0
SECTION
  2
OBJECTS
  0
DICTIONARY
  5
C
330
0
100
AcDbDictionary
281
     1
  3
ACAD_DETAILVIEWSTYLE
350
12F
  3
ACAD_GROUP
350
D
  3
ACAD_LAYOUT
350
1A
  3
ACAD_MATERIAL
350
43
  3
ACAD_MLEADERSTYLE
350
6B
  3
ACAD_MLINESTYLE
350
17
  3
ACAD_PLOTSETTINGS
350
19
  3
ACAD_PLOTSTYLENAME
350
E
  3
ACAD_SCALELIST
350
47
  3
ACAD_SECTIONVIEWSTYLE
350
130
  3
ACAD_TABLESTYLE
350
69
  3
ACAD_VISUALSTYLE
350
2A
  3
ACDB_RECOMPOSE_DATA
350
12C
  3
AcDbVariableDictionary
350
EC
  0
DICTIONARY
  5
EA
330
8
100
AcDbDictionary
280
     1
281
     1
  3
ACAD_XREC_ROUNDTRIP
360
EB
  0
DICTIONARY
  5
12F
102
{ACAD_REACTORS
330
C
102
}
330
C
100
AcDbDictionary
281
     1
  0
DICTIONARY
  5
D
102
{ACAD_REACTORS
330
C
102
}
330
C
100
AcDbDictionary
281
     1
  0
DICTIONARY
  5
1A
102
{ACAD_REACTORS
330
C
102
}
330
C
100
AcDbDictionary
281
     1
  3
Layout1
350
1E
  3
Layout2
350
26
  3
Model
350
22
  0
DICTIONARY
  5
43
102
{ACAD_REACTORS
330
C
102
}
330
C
100
AcDbDictionary
281
     1
  3
ByBlock
350
45
  3
ByLayer
350
44
  3
Global
350
46
  0
DICTIONARY
  5
6B
102
{ACAD_REACTORS
330
C
102
}
330
C
100
AcDbDictionary
281
     1
  3
Standard
350
6C
  0
DICTIONARY
  5
17
102
{ACAD_REACTORS
330
C
102
}
330
C
100
AcDbDictionary
281
     1
  3
Standard
350
18
  0
DICTIONARY
  5
19
102
{ACAD_REACTORS
330
C
102
}
330
C
100
AcDbDictionary
281
     1
  0
ACDBDICTIONARYWDFLT
  5
E
102
{ACAD_REACTORS
330
C
102
}
330
C
100
AcDbDictionary
281
     1
  3
Normal
350
F
100
AcDbDictionaryWithDefault
340
F
  0
DICTIONARY
  5
47
102
{ACAD_REACTORS
330
C
102
}
330
C
100
AcDbDictionary
281
     1
  3
A0
350
48
  3
A1
350
49
  3
A2
350
4A
  3
A3
350
4B
  3
A4
350
4C
  3
A5
350
4D
  3
A6
350
4E
  3
A7
350
4F
  3
A8
350
50
  3
A9
350
51
  3
B0
350
52
  3
B1
350
53
  3
B2
350
54
  3
B3
350
55
  3
B4
350
56
  3
B5
350
57
  3
B6
350
58
  3
B7
350
59
  3
B8
350
5A
  3
B9
350
5B
  3
C0
350
5C
  3
C1
350
5D
  3
C2
350
5E
  3
C3
350
5F
  3
C4
350
60
  3
C5
350
61
  3
C6
350
62
  3
C7
350
63
  3
C8
350
64
  3
C9
350
65
  3
D0
350
66
  3
D1
350
67
  3
D2
350
68
  0
DICTIONARY
  5
130
102
{ACAD_REACTORS
330
C
102
}
330
C
100
AcDbDictionary
281
     1
  0
DICTIONARY
  5
69
102
{ACAD_REACTORS
330
C
102
}
330
C
100
AcDbDictionary
281
     1
  3
Standard
350
6A
  0
DICTIONARY
  5
2A
102
{ACAD_REACTORS
330
C
102
}
330
C
100
AcDbDictionary
281
     1
  3
2dWireframe
350
2F
  3
Basic
350
32
  3
Brighten
350
36
  3
ColorChange
350
3A
  3
Conceptual
350
34
  3
Dim
350
35
  3
EdgeColorOff
350
3D
  3
Facepattern
350
39
  3
Flat
350
2B
  3
FlatWithEdges
350
2C
  3
Gouraud
350
2D
  3
GouraudWithEdges
350
2E
  3
Hidden
350
31
  3
JitterOff
350
3B
  3
Linepattern
350
38
  3
OverhangOff
350
3C
  3
Realistic
350
33
  3
Shaded
350
42
  3
Shaded with edges
350
41
  3
Shades of Gray
350
3E
  3
Sketchy
350
3F
  3
Thicken
350
37
  3
Wireframe
350
30
  3
X-Ray
350
40
  0
XRECORD
  5
12C
102
{ACAD_REACTORS
330
C
102
}
330
C
100
AcDbXrecord
280
     1
 90
        1
330
6A
  0
DICTIONARY
  5
EC
102
{ACAD_REACTORS
330
C
102
}
330
C
100
AcDbDictionary
281
     1
  3
CANNOSCALE
350
ED
  3
CMLEADERSTYLE
350
12E
  3
CTABLESTYLE
350
12D
  3
MSLTSCALE
350
EE
  3
XCLIPFRAME
350
EF
  0
XRECORD
  5
EB
102
{ACAD_REACTORS
330
EA
102
}
330
EA
100
AcDbXrecord
280
     1
102
VTR_0.000_0.000_1.000_1.000_GRIDDISPLAY
 70
     3
102
VTR_0.000_0.000_1.000_1.000_GRIDMAJOR
 70
     5
102
VTR_0.000_0.000_1.000_1.000_DEFAULTLIGHTING
280
     1
102
VTR_0.000_0.000_1.000_1.000_DEFAULTLIGHTINGTYPE
 70
     1
102
VTR_0.000_0.000_1.000_1.000_BRIGHTNESS
141
0.0
102
VTR_0.000_0.000_1.000_1.000_CONTRAST
142
0.0
  0
LAYOUT
  5
1E
102
{ACAD_REACTORS
330
1A
102
}
330
1A
100
AcDbPlotSettings
  1

  2
none_device
  4

  6

 40
0.0
 41
0.0
 42
0.0
 43
0.0
 44
0.0
 45
0.0
 46
0.0
 47
0.0
 48
0.0
 49
0.0
140
0.0
141
0.0
142
1.0
143
1.0
 70
   688
 72
     0
 73
     0
 74
     5
  7

 75
    16
 76
     0
 77
     2
 78
   300
147
1.0
148
0.0
149
0.0
100
AcDbLayout
  1
Layout1
 70
     1
 71
     1
 10
0.0
 20
0.0
 11
12.0
 21
9.0
 12
0.0
 22
0.0
 32
0.0
 14
1.000000000000000E+20
 24
1.000000000000000E+20
 34
1.000000000000000E+20
 15
-1.000000000000000E+20
 25
-1.000000000000000E+20
 35
-1.000000000000000E+20
146
0.0
 13
0.0
 23
0.0
 33
0.0
 16
1.0
 26
0.0
 36
0.0
 17
0.0
 27
1.0
 37
0.0
 76
     0
330
1B
  0
LAYOUT
  5
26
102
{ACAD_REACTORS
330
1A
102
}
330
1A
100
AcDbPlotSettings
  1

  2
none_device
  4

  6

 40
0.0
 41
0.0
 42
0.0
 43
0.0
 44
0.0
 45
0.0
 46
0.0
 47
0.0
 48
0.0
 49
0.0
140
0.0
141
0.0
142
1.0
143
1.0
 70
   688
 72
     0
 73
     0
 74
     5
  7

 75
    16
 76
     0
 77
     2
 78
   300
147
1.0
148
0.0
149
0.0
100
AcDbLayout
  1
Layout2
 70
     1
 71
     2
 10
0.0
 20
0.0
 11
0.0
 21
0.0
 12
0.0
 22
0.0
 32
0.0
 14
0.0
 24
0.0
 34
0.0
 15
0.0
 25
0.0
 35
0.0
146
0.0
 13
0.0
 23
0.0
 33
0.0
 16
1.0
 26
0.0
 36
0.0
 17
0.0
 27
1.0
 37
0.0
 76
     0
330
23
  0
LAYOUT
  5
22
102
{ACAD_REACTORS
330
1A
102
}
330
1A
100
AcDbPlotSettings
  1

  2
none_device
  4
Letter_(8.50_x_11.00_Inches)
  6

 40
6.35
 41
6.35
 42
6.35000508
 43
6.35000508
 44
215.9
 45
279.4
 46
0.0
 47
0.0
 48
0.0
 49
0.0
140
0.0
141
0.0
142
1.0
143
1.0
 70
  1712
 72
     0
 73
     0
 74
     0
  7

 75
     0
 76
     0
 77
     2
 78
   300
147
1.0
148
0.0
149
0.0
100
AcDbLayout
  1
Model
 70
     1
 71
     0
 10
0.0
 20
0.0
 11
12.0
 21
9.0
 12
0.0
 22
0.0
 32
0.0
 14
-16.9337
 24
-43.3143
 34
0.0
 15
16.9337
 25
43.3143
 35
0.0
146
0.0
 13
0.0
 23
0.0
 33
0.0
 16
1.0
 26
0.0
 36
0.0
 17
0.0
 27
1.0
 37
0.0
 76
     0
330
1F
331
29
  0
MATERIAL
  5
45
102
{ACAD_REACTORS
330
43
102
}
102
{ACAD_XDICTIONARY
360
122
102
}
330
43
100
AcDbMaterial
  1
ByBlock
  0
MATERIAL
  5
44
102
{ACAD_REACTORS
330
43
102
}
102
{ACAD_XDICTIONARY
360
120
102
}
330
43
100
AcDbMaterial
  1
ByLayer
  0
MATERIAL
  5
46
102
{ACAD_REACTORS
330
43
102
}
102
{ACAD_XDICTIONARY
360
124
102
}
330
43
100
AcDbMaterial
  1
Global
  0
MLEADERSTYLE
  5
6C
102
{ACAD_REACTORS
330
6B
102
}
102
{ACAD_XDICTIONARY
360
12A
102
}
330
6B
100
AcDbMLeaderStyle
170
     2
171
     1
172
     0
 90
        2
 40
0.0
 41
0.0
173
     1
 91
-1056964608
340
14
 92
       -2
290
     1
 42
0.09
291
     1
 43
0.36
  3
Standard
341
0
 44
0.18
300

342
11
174
     1
178
     6
175
     1
176
     0
 93
-1056964608
 45
0.18
292
     0
297
     0
 46
0.18
343
0
 94
-1056964608
 47
1.0
 49
1.0
140
1.0
293
     1
141
0.0
294
     1
177
     0
142
1.0
295
     0
296
     0
143
0.125
1001
ACAD_MLEADERVER
1070
     2
  0
MLINESTYLE
  5
18
102
{ACAD_REACTORS
330
17
102
}
330
17
100
AcDbMlineStyle
  2
Standard
 70
     0
  3

 62
   256
 51
90.0
 52
90.0
 71
     2
 49
0.5
 62
   256
  6
BYLAYER
 49
-0.5
 62
   256
  6
BYLAYER
  0
ACDBPLACEHOLDER
  5
F
102
{ACAD_REACTORS
330
E
102
}
330
E
  0
SCALE
  5
48
102
{ACAD_REACTORS
330
47
102
}
330
47
100
AcDbScale
 70
     0
300
1:1
140
1.0
141
1.0
290
     1
  0
SCALE
  5
49
102
{ACAD_REACTORS
330
47
102
}
330
47
100
AcDbScale
 70
     0
300
1:2
140
1.0
141
2.0
290
     0
  0
SCALE
  5
4A
102
{ACAD_REACTORS
330
47
102
}
330
47
100
AcDbScale
 70
     0
300
1:4
140
1.0
141
4.0
290
     0
  0
SCALE
  5
4B
102
{ACAD_REACTORS
330
47
102
}
330
47
100
AcDbScale
 70
     0
300
1:5
140
1.0
141
5.0
290
     0
  0
SCALE
  5
4C
102
{ACAD_REACTORS
330
47
102
}
330
47
100
AcDbScale
 70
     0
300
1:8
140
1.0
141
8.0
290
     0
  0
SCALE
  5
4D
102
{ACAD_REACTORS
330
47
102
}
330
47
100
AcDbScale
 70
     0
300
1:10
140
1.0
141
10.0
290
     0
  0
SCALE
  5
4E
102
{ACAD_REACTORS
330
47
102
}
330
47
100
AcDbScale
 70
     0
300
1:16
140
1.0
141
16.0
290
     0
  0
SCALE
  5
4F
102
{ACAD_REACTORS
330
47
102
}
330
47
100
AcDbScale
 70
     0
300
1:20
140
1.0
141
20.0
290
     0
  0
SCALE
  5
50
102
{ACAD_REACTORS
330
47
102
}
330
47
100
AcDbScale
 70
     0
300
1:30
140
1.0
141
30.0
290
     0
  0
SCALE
  5
51
102
{ACAD_REACTORS
330
47
102
}
330
47
100
AcDbScale
 70
     0
300
1:40
140
1.0
141
40.0
290
     0
  0
SCALE
  5
52
102
{ACAD_REACTORS
330
47
102
}
330
47
100
AcDbScale
 70
     0
300
1:50
140
1.0
141
50.0
290
     0
  0
SCALE
  5
53
102
{ACAD_REACTORS
330
47
102
}
330
47
100
AcDbScale
 70
     0
300
1:100
140
1.0
141
100.0
290
     0
  0
SCALE
  5
54
102
{ACAD_REACTORS
330
47
102
}
330
47
100
AcDbScale
 70
     0
300
2:1
140
2.0
141
1.0
290
     0
  0
SCALE
  5
55
102
{ACAD_REACTORS
330
47
102
}
330
47
100
AcDbScale
 70
     0
300
4:1
140
4.0
141
1.0
290
     0
  0
SCALE
  5
56
102
{ACAD_REACTORS
330
47
102
}
330
47
100
AcDbScale
 70
     0
300
8:1
140
8.0
141
1.0
290
     0
  0
SCALE
  5
57
102
{ACAD_REACTORS
330
47
102
}
330
47
100
AcDbScale
 70
     0
300
10:1
140
10.0
141
1.0
290
     0
  0
SCALE
  5
58
102
{ACAD_REACTORS
330
47
102
}
330
47
100
AcDbScale
 70
     0
300
100:1
140
100.0
141
1.0
290
     0
  0
SCALE
  5
59
102
{ACAD_REACTORS
330
47
102
}
330
47
100
AcDbScale
 70
     0
300
1/128" = 1'-0"
140
0.0078125
141
12.0
290
     0
  0
SCALE
  5
5A
102
{ACAD_REACTORS
330
47
102
}
330
47
100
AcDbScale
 70
     0
300
1/64" = 1'-0"
140
0.015625
141
12.0
290
     0
  0
SCALE
  5
5B
102
{ACAD_REACTORS
330
47
102
}
330
47
100
AcDbScale
 70
     0
300
1/32" = 1'-0"
140
0.03125
141
12.0
290
     0
  0
SCALE
  5
5C
102
{ACAD_REACTORS
330
47
102
}
330
47
100
AcDbScale
 70
     0
300
1/16" = 1'-0"
140
0.0625
141
12.0
290
     0
  0
SCALE
  5
5D
102
{ACAD_REACTORS
330
47
102
}
330
47
100
AcDbScale
 70
     0
300
3/32" = 1'-0"
140
0.09375
141
12.0
290
     0
  0
SCALE
  5
5E
102
{ACAD_REACTORS
330
47
102
}
330
47
100
AcDbScale
 70
     0
300
1/8" = 1'-0"
140
0.125
141
12.0
290
     0
  0
SCALE
  5
5F
102
{ACAD_REACTORS
330
47
102
}
330
47
100
AcDbScale
 70
     0
300
3/16" = 1'-0"
140
0.1875
141
12.0
290
     0
  0
SCALE
  5
60
102
{ACAD_REACTORS
330
47
102
}
330
47
100
AcDbScale
 70
     0
300
1/4" = 1'-0"
140
0.25
141
12.0
290
     0
  0
SCALE
  5
61
102
{ACAD_REACTORS
330
47
102
}
330
47
100
AcDbScale
 70
     0
300
3/8" = 1'-0"
140
0.375
141
12.0
290
     0
  0
SCALE
  5
62
102
{ACAD_REACTORS
330
47
102
}
330
47
100
AcDbScale
 70
     0
300
1/2" = 1'-0"
140
0.5
141
12.0
290
     0
  0
SCALE
  5
63
102
{ACAD_REACTORS
330
47
102
}
330
47
100
AcDbScale
 70
     0
300
3/4" = 1'-0"
140
0.75
141
12.0
290
     0
  0
SCALE
  5
64
102
{ACAD_REACTORS
330
47
102
}
330
47
100
AcDbScale
 70
     0
300
1" = 1'-0"
140
1.0
141
12.0
290
     0
  0
SCALE
  5
65
102
{ACAD_REACTORS
330
47
102
}
330
47
100
AcDbScale
 70
     0
300
1-1/2" = 1'-0"
140
1.5
141
12.0
290
     0
  0
SCALE
  5
66
102
{ACAD_REACTORS
330
47
102
}
330
47
100
AcDbScale
 70
     0
300
3" = 1'-0"
140
3.0
141
12.0
290
     0
  0
SCALE
  5
67
102
{ACAD_REACTORS
330
47
102
}
330
47
100
AcDbScale
 70
     0
300
6" = 1'-0"
140
6.0
141
12.0
290
     0
  0
SCALE
  5
68
102
{ACAD_REACTORS
330
47
102
}
330
47
100
AcDbScale
 70
     0
300
1'-0" = 1'-0"
140
12.0
141
12.0
290
     0
  0
TABLESTYLE
  5
6A
102
{ACAD_REACTORS
330
69
102
}
102
{ACAD_XDICTIONARY
360
126
102
}
330
69
100
AcDbTableStyle
  3
Standard
 70
     0
 71
     0
 40
0.06
 41
0.06
280
     0
281
     0
  7
Standard
140
0.18
170
     2
 62
     0
 63
   257
283
     0
274
    -2
284
     1
 64
     0
275
    -2
285
     1
 65
     0
276
    -2
286
     1
 66
     0
277
    -2
287
     1
 67
     0
278
    -2
288
     1
 68
     0
279
    -2
289
     1
 69
     0
  7
Standard
140
0.25
170
     5
 62
     0
 63
   257
283
     0
274
    -2
284
     1
 64
     0
275
    -2
285
     1
 65
     0
276
    -2
286
     1
 66
     0
277
    -2
287
     1
 67
     0
278
    -2
288
     1
 68
     0
279
    -2
289
     1
 69
     0
  7
Standard
140
0.18
170
     5
 62
     0
 63
   257
283
     0
274
    -2
284
     1
 64
     0
275
    -2
285
     1
 65
     0
276
    -2
286
     1
 66
     0
277
    -2
287
     1
 67
     0
278
    -2
288
     1
 68
     0
279
    -2
289
     1
 69
     0
  0
VISUALSTYLE
  5
2F
102
{ACAD_REACTORS
330
2A
102
}
102
{ACAD_XDICTIONARY
360
F8
102
}
330
2A
100
AcDbVisualStyle
  2
2dWireframe
 70
     4
 71
     0
 72
     2
 73
     0
 90
        0
 40
0.6
 41
30.0
 62
     5
 63
     7
421
 16777215
 74
     1
 91
        4
 64
     7
 65
   257
 75
     1
175
     1
 42
1.0
 92
        0
 66
   257
 43
1.0
 76
     1
 77
     6
 78
     2
 67
     7
 79
     5
170
     0
171
     0
290
     0
174
     0
 93
        1
 44
0.0
173
     0
291
     0
 45
0.0
1001
ACAD
1000
AcDbSavedByObjectVersion
1070
     0
  0
VISUALSTYLE
  5
32
102
{ACAD_REACTORS
330
2A
102
}
102
{ACAD_XDICTIONARY
360
FE
102
}
330
2A
100
AcDbVisualStyle
  2
Basic
 70
     7
 71
     1
 72
     0
 73
     1
 90
        0
 40
0.6
 41
30.0
 62
     5
 63
     7
421
 16777215
 74
     0
 91
        4
 64
     7
 65
   257
 75
     1
175
     1
 42
1.0
 92
        8
 66
     7
 43
1.0
 76
     1
 77
     6
 78
     2
 67
     7
 79
     5
170
     0
171
     0
290
     0
174
     0
 93
        1
 44
0.0
173
     0
291
     1
 45
0.0
1001
ACAD
1000
AcDbSavedByObjectVersion
1070
     0
  0
VISUALSTYLE
  5
36
102
{ACAD_REACTORS
330
2A
102
}
102
{ACAD_XDICTIONARY
360
106
102
}
330
2A
100
AcDbVisualStyle
  2
Brighten
 70
    12
 71
     2
 72
     2
 73
     0
 90
        0
 40
0.6
 41
30.0
 62
     5
 63
     7
421
 16777215
 74
     1
 91
        4
 64
     7
 65
   257
 75
     1
175
     1
 42
1.0
 92
        8
 66
     7
 43
1.0
 76
     1
 77
     6
 78
     2
 67
     7
 79
     5
170
     0
171
     0
290
     0
174
     0
 93
        1
 44
50.0
173
     0
291
     1
 45
0.0
1001
ACAD
1000
AcDbSavedByObjectVersion
1070
     0
  0
VISUALSTYLE
  5
3A
102
{ACAD_REACTORS
330
2A
102
}
102
{ACAD_XDICTIONARY
360
10E
102
}
330
2A
100
AcDbVisualStyle
  2
ColorChange
 70
    16
 71
     2
 72
     2
 73
     3
 90
        0
 40
0.6
 41
30.0
 62
     5
 63
     8
421
  8421504
 74
     1
 91
        4
 64
     7
 65
   257
 75
     1
175
     1
 42
1.0
 92
        8
 66
     8
424
  8421504
 43
1.0
 76
     1
 77
     6
 78
     2
 67
     7
 79
     5
170
     0
171
     0
290
     0
174
     0
 93
        1
 44
0.0
173
     0
291
     1
 45
0.0
1001
ACAD
1000
AcDbSavedByObjectVersion
1070
     0
  0
VISUALSTYLE
  5
34
102
{ACAD_REACTORS
330
2A
102
}
102
{ACAD_XDICTIONARY
360
102
102
}
330
2A
100
AcDbVisualStyle
  2
Conceptual
 70
     9
 71
     3
 72
     2
 73
     0
 90
        0
 40
0.6
 41
30.0
 62
     5
 63
     7
421
 16777215
 74
     2
 91
        2
 64
     7
 65
   257
 75
     1
175
     1
 42
179.0
 92
        8
 66
     7
 43
1.0
 76
     1
 77
     6
 78
     2
 67
     7
 79
     3
170
     0
171
     0
290
     0
174
     0
 93
        1
 44
0.0
173
     0
291
     0
 45
0.0
1001
ACAD
1000
AcDbSavedByObjectVersion
1070
     0
  0
VISUALSTYLE
  5
35
102
{ACAD_REACTORS
330
2A
102
}
102
{ACAD_XDICTIONARY
360
104
102
}
330
2A
100
AcDbVisualStyle
  2
Dim
 70
    11
 71
     2
 72
     2
 73
     0
 90
        0
 40
0.6
 41
30.0
 62
     5
 63
     7
421
 16777215
 74
     1
 91
        4
 64
     7
 65
   257
 75
     1
175
     1
 42
1.0
 92
        8
 66
     7
 43
1.0
 76
     1
 77
     6
 78
     2
 67
     7
 79
     5
170
     0
171
     0
290
     0
174
     0
 93
        1
 44
-50.0
173
     0
291
     1
 45
0.0
1001
ACAD
1000
AcDbSavedByObjectVersion
1070
     0
  0
VISUALSTYLE
  5
3D
102
{ACAD_REACTORS
330
2A
102
}
102
{ACAD_XDICTIONARY
360
114
102
}
330
2A
100
AcDbVisualStyle
  2
EdgeColorOff
 70
    22
 71
     2
 72
     2
 73
     0
 90
        0
 40
0.6
 41
30.0
 62
     5
 63
     7
421
 16777215
 74
     1
 91
        4
 64
     7
 65
   257
 75
     1
175
     1
 42
1.0
 92
        8
 66
     7
 43
1.0
 76
     1
 77
     6
 78
     2
 67
     7
 79
     5
170
     0
171
     0
290
     0
174
     0
 93
        1
 44
0.0
173
     0
291
     1
 45
0.0
1001
ACAD
1000
AcDbSavedByObjectVersion
1070
     0
  0
VISUALSTYLE
  5
39
102
{ACAD_REACTORS
330
2A
102
}
102
{ACAD_XDICTIONARY
360
10C
102
}
330
2A
100
AcDbVisualStyle
  2
Facepattern
 70
    15
 71
     2
 72
     2
 73
     0
 90
        0
 40
0.6
 41
30.0
 62
     5
 63
     7
421
 16777215
 74
     1
 91
        4
 64
     7
 65
   257
 75
     1
175
     1
 42
1.0
 92
        8
 66
     7
 43
1.0
 76
     1
 77
     6
 78
     2
 67
     7
 79
     5
170
     0
171
     0
290
     0
174
     0
 93
        1
 44
0.0
173
     0
291
     1
 45
0.0
1001
ACAD
1000
AcDbSavedByObjectVersion
1070
     0
  0
VISUALSTYLE
  5
2B
102
{ACAD_REACTORS
330
2A
102
}
102
{ACAD_XDICTIONARY
360
F0
102
}
330
2A
100
AcDbVisualStyle
  2
Flat
 70
     0
 71
     2
 72
     1
 73
     1
 90
        2
 40
0.6
 41
30.0
 62
     5
 63
     7
421
 16777215
 74
     0
 91
        0
 64
     7
 65
   257
 75
     1
175
     1
 42
1.0
 92
        8
 66
     7
 43
1.0
 76
     1
 77
     6
 78
     2
 67
     7
 79
     5
170
     0
171
     0
290
     0
174
     0
 93
       13
 44
0.0
173
     0
291
     1
 45
0.0
1001
ACAD
1000
AcDbSavedByObjectVersion
1070
     0
  0
VISUALSTYLE
  5
2C
102
{ACAD_REACTORS
330
2A
102
}
102
{ACAD_XDICTIONARY
360
F2
102
}
330
2A
100
AcDbVisualStyle
  2
FlatWithEdges
 70
     1
 71
     2
 72
     1
 73
     1
 90
        2
 40
0.6
 41
30.0
 62
     5
 63
     7
421
 16777215
 74
     1
 91
        0
 64
     7
 65
   257
 75
     1
175
     1
 42
1.0
 92
        0
 66
   257
 43
1.0
 76
     1
 77
     6
 78
     2
 67
     7
 79
     5
170
     0
171
     0
290
     0
174
     0
 93
       13
 44
0.0
173
     0
291
     1
 45
0.0
1001
ACAD
1000
AcDbSavedByObjectVersion
1070
     0
  0
VISUALSTYLE
  5
2D
102
{ACAD_REACTORS
330
2A
102
}
102
{ACAD_XDICTIONARY
360
F4
102
}
330
2A
100
AcDbVisualStyle
  2
Gouraud
 70
     2
 71
     2
 72
     2
 73
     1
 90
        2
 40
0.6
 41
30.0
 62
     5
 63
     7
421
 16777215
 74
     0
 91
        0
 64
     7
 65
   257
 75
     1
175
     1
 42
1.0
 92
        0
 66
     7
 43
1.0
 76
     1
 77
     6
 78
     2
 67
     7
 79
     5
170
     0
171
     0
290
     0
174
     0
 93
       13
 44
0.0
173
     0
291
     1
 45
0.0
1001
ACAD
1000
AcDbSavedByObjectVersion
1070
     0
  0
VISUALSTYLE
  5
2E
102
{ACAD_REACTORS
330
2A
102
}
102
{ACAD_XDICTIONARY
360
F6
102
}
330
2A
100
AcDbVisualStyle
  2
GouraudWithEdges
 70
     3
 71
     2
 72
     2
 73
     1
 90
        2
 40
0.6
 41
30.0
 62
     5
 63
     7
421
 16777215
 74
     1
 91
        0
 64
     7
 65
   257
 75
     1
175
     1
 42
1.0
 92
        0
 66
   257
 43
1.0
 76
     1
 77
     6
 78
     2
 67
     7
 79
     5
170
     0
171
     0
290
     0
174
     0
 93
       13
 44
0.0
173
     0
291
     1
 45
0.0
1001
ACAD
1000
AcDbSavedByObjectVersion
1070
     0
  0
VISUALSTYLE
  5
31
102
{ACAD_REACTORS
330
2A
102
}
102
{ACAD_XDICTIONARY
360
FC
102
}
330
2A
100
AcDbVisualStyle
  2
Hidden
 70
     6
 71
     1
 72
     2
 73
     2
 90
        0
 40
0.6
 41
30.0
 62
     5
 63
     7
421
 16777215
 74
     2
 91
        2
 64
     7
 65
   257
 75
     2
175
     1
 42
40.0
 92
        0
 66
   257
 43
1.0
 76
     1
 77
     6
 78
     2
 67
     7
 79
     3
170
     0
171
     0
290
     0
174
     0
 93
        1
 44
0.0
173
     0
291
     0
 45
0.0
1001
ACAD
1000
AcDbSavedByObjectVersion
1070
     0
  0
VISUALSTYLE
  5
3B
102
{ACAD_REACTORS
330
2A
102
}
102
{ACAD_XDICTIONARY
360
110
102
}
330
2A
100
AcDbVisualStyle
  2
JitterOff
 70
    20
 71
     2
 72
     2
 73
     0
 90
        0
 40
0.6
 41
30.0
 62
     5
 63
     7
421
 16777215
 74
     1
 91
        4
 64
     7
 65
   257
 75
     1
175
     1
 42
1.0
 92
       10
 66
     7
 43
1.0
 76
     1
 77
     6
 78
     2
 67
     7
 79
     5
170
     0
171
     0
290
     0
174
     0
 93
        1
 44
0.0
173
     0
291
     1
 45
0.0
1001
ACAD
1000
AcDbSavedByObjectVersion
1070
     0
  0
VISUALSTYLE
  5
38
102
{ACAD_REACTORS
330
2A
102
}
102
{ACAD_XDICTIONARY
360
10A
102
}
330
2A
100
AcDbVisualStyle
  2
Linepattern
 70
    14
 71
     2
 72
     2
 73
     0
 90
        0
 40
0.6
 41
30.0
 62
     5
 63
     7
421
 16777215
 74
     1
 91
        4
 64
     7
 65
   257
 75
     7
175
     7
 42
1.0
 92
        8
 66
     7
 43
1.0
 76
     1
 77
     6
 78
     2
 67
     7
 79
     5
170
     0
171
     0
290
     0
174
     0
 93
        1
 44
0.0
173
     0
291
     1
 45
0.0
1001
ACAD
1000
AcDbSavedByObjectVersion
1070
     0
  0
VISUALSTYLE
  5
3C
102
{ACAD_REACTORS
330
2A
102
}
102
{ACAD_XDICTIONARY
360
112
102
}
330
2A
100
AcDbVisualStyle
  2
OverhangOff
 70
    21
 71
     2
 72
     2
 73
     0
 90
        0
 40
0.6
 41
30.0
 62
     5
 63
     7
421
 16777215
 74
     1
 91
        4
 64
     7
 65
   257
 75
     1
175
     1
 42
1.0
 92
        9
 66
     7
 43
1.0
 76
     1
 77
     6
 78
     2
 67
     7
 79
     5
170
     0
171
     0
290
     0
174
     0
 93
        1
 44
0.0
173
     0
291
     1
 45
0.0
1001
ACAD
1000
AcDbSavedByObjectVersion
1070
     0
  0
VISUALSTYLE
  5
33
102
{ACAD_REACTORS
330
2A
102
}
102
{ACAD_XDICTIONARY
360
100
102
}
330
2A
100
AcDbVisualStyle
  2
Realistic
 70
     8
 71
     2
 72
     3
 73
     0
 90
        2
 40
0.6
 41
30.0
 62
     5
 63
     7
421
 16777215
 74
     0
 91
        0
 64
     7
 65
   257
 75
     1
175
     1
 42
1.0
 92
        8
 66
   257
 43
1.0
 76
     1
 77
     6
 78
     2
 67
     7
 79
     3
170
     0
171
     0
290
     0
174
     0
 93
       13
 44
0.0
173
     0
291
     0
 45
0.0
1001
ACAD
1000
AcDbSavedByObjectVersion
1070
     0
  0
VISUALSTYLE
  5
42
102
{ACAD_REACTORS
330
2A
102
}
102
{ACAD_XDICTIONARY
360
11E
102
}
330
2A
100
AcDbVisualStyle
  2
Shaded
 70
    27
 71
     2
 72
     2
 73
     1
 90
        2
 40
0.6
 41
30.0
 62
     5
 63
     7
421
 16777215
 74
     0
 91
        4
 64
     7
 65
   257
 75
     1
175
     1
 42
1.0
 92
        8
 66
   257
 43
1.0
 76
     1
 77
     6
 78
     2
 67
     8
425
  7895160
 79
     3
170
     0
171
     0
290
     0
174
     0
 93
        5
 44
0.0
173
     0
291
     0
 45
0.0
1001
ACAD
1000
AcDbSavedByObjectVersion
1070
     0
  0
VISUALSTYLE
  5
41
102
{ACAD_REACTORS
330
2A
102
}
102
{ACAD_XDICTIONARY
360
11C
102
}
330
2A
100
AcDbVisualStyle
  2
Shaded with edges
 70
    26
 71
     2
 72
     2
 73
     1
 90
        2
 40
0.6
 41
30.0
 62
     5
 63
     7
421
 16777215
 74
     1
 91
       10
 64
     7
 65
   257
 75
     2
175
     1
 42
1.0
 92
        8
 66
   257
 43
1.0
 76
     1
 77
     6
 78
     2
 67
     7
 79
     3
170
     0
171
     0
290
     0
174
     0
 93
        5
 44
0.0
173
     0
291
     0
 45
0.0
1001
ACAD
1000
AcDbSavedByObjectVersion
1070
     0
  0
VISUALSTYLE
  5
3E
102
{ACAD_REACTORS
330
2A
102
}
102
{ACAD_XDICTIONARY
360
116
102
}
330
2A
100
AcDbVisualStyle
  2
Shades of Gray
 70
    23
 71
     2
 72
     2
 73
     3
 90
        0
 40
0.6
 41
30.0
 62
     5
 63
     7
421
 16777215
 74
     2
 91
        2
 64
     7
 65
     7
 75
     1
175
     1
 42
40.0
 92
        8
 66
     7
 43
1.0
 76
     1
 77
     6
 78
     2
 67
     7
 79
     3
170
     0
171
     0
290
     0
174
     0
 93
        1
 44
0.0
173
     0
291
     0
 45
0.0
1001
ACAD
1000
AcDbSavedByObjectVersion
1070
     0
  0
VISUALSTYLE
  5
3F
102
{ACAD_REACTORS
330
2A
102
}
102
{ACAD_XDICTIONARY
360
118
102
}
330
2A
100
AcDbVisualStyle
  2
Sketchy
 70
    24
 71
     1
 72
     2
 73
     2
 90
        0
 40
0.6
 41
30.0
 62
     5
 63
     7
421
 16777215
 74
     2
 91
        2
 64
     7
 65
     7
 75
     1
175
     1
 42
40.0
 92
       11
 66
     7
 43
1.0
 76
     1
 77
     6
 78
     2
 67
     7
 79
     6
170
     0
171
     0
290
     0
174
     0
 93
        1
 44
0.0
173
     0
291
     0
 45
0.0
1001
ACAD
1000
AcDbSavedByObjectVersion
1070
     0
  0
VISUALSTYLE
  5
37
102
{ACAD_REACTORS
330
2A
102
}
102
{ACAD_XDICTIONARY
360
108
102
}
330
2A
100
AcDbVisualStyle
  2
Thicken
 70
    13
 71
     2
 72
     2
 73
     0
 90
        0
 40
0.6
 41
30.0
 62
     5
 63
     7
421
 16777215
 74
     1
 91
        4
 64
     7
 65
   257
 75
     1
175
     1
 42
1.0
 92
       12
 66
     7
 43
1.0
 76
     1
 77
     6
 78
     2
 67
     7
 79
     5
170
     0
171
     0
290
     0
174
     0
 93
        1
 44
0.0
173
     0
291
     1
 45
0.0
1001
ACAD
1000
AcDbSavedByObjectVersion
1070
     0
  0
VISUALSTYLE
  5
30
102
{ACAD_REACTORS
330
2A
102
}
102
{ACAD_XDICTIONARY
360
FA
102
}
330
2A
100
AcDbVisualStyle
  2
Wireframe
 70
     5
 71
     0
 72
     2
 73
     0
 90
        0
 40
0.6
 41
30.0
 62
     5
 63
     7
421
 16777215
 74
     1
 91
        4
 64
     7
 65
   257
 75
     1
175
     1
 42
1.0
 92
        0
 66
   257
 43
1.0
 76
     1
 77
     6
 78
     2
 67
     7
 79
     3
170
     0
171
     0
290
     0
174
     0
 93
        1
 44
0.0
173
     0
291
     0
 45
0.0
1001
ACAD
1000
AcDbSavedByObjectVersion
1070
     0
  0
VISUALSTYLE
  5
40
102
{ACAD_REACTORS
330
2A
102
}
102
{ACAD_XDICTIONARY
360
11A
102
}
330
2A
100
AcDbVisualStyle
  2
X-Ray
 70
    25
 71
     2
 72
     2
 73
     1
 90
        1
 40
0.5
 41
30.0
 62
     5
 63
     7
421
 16777215
 74
     1
 91
        0
 64
     7
 65
   257
 75
     1
175
     1
 42
1.0
 92
        8
 66
     7
 43
1.0
 76
     1
 77
     6
 78
     2
 67
     7
 79
     3
170
     0
171
     0
290
     0
174
     0
 93
       13
 44
0.0
173
     0
291
     0
 45
0.0
1001
ACAD
1000
AcDbSavedByObjectVersion
1070
     0
  0
DICTIONARYVAR
  5
ED
102
{ACAD_REACTORS
330
EC
102
}
330
EC
100
DictionaryVariables
280
     0
  1
1:1
  0
DICTIONARYVAR
  5
12E
102
{ACAD_REACTORS
330
EC
102
}
330
EC
100
DictionaryVariables
280
     0
  1
Standard
  0
DICTIONARYVAR
  5
12D
102
{ACAD_REACTORS
330
EC
102
}
330
EC
100
DictionaryVariables
280
     0
  1
Standard
  0
DICTIONARYVAR
  5
EE
102
{ACAD_REACTORS
330
EC
102
}
330
EC
100
DictionaryVariables
280
     0
  1
1
  0
DICTIONARYVAR
  5
EF
102
{ACAD_REACTORS
330
EC
102
}
330
EC
100
DictionaryVariables
280
     0
  1
2
  0
DICTIONARY
  5
122
330
45
100
AcDbDictionary
280
     1
281
     1
  3
ACAD_XREC_ROUNDTRIP
360
123
  0
DICTIONARY
  5
120
330
44
100
AcDbDictionary
280
     1
281
     1
  3
ACAD_XREC_ROUNDTRIP
360
121
  0
DICTIONARY
  5
124
330
46
100
AcDbDictionary
280
     1
281
     1
  3
ACAD_XREC_ROUNDTRIP
360
125
  0
DICTIONARY
  5
12A
330
6C
100
AcDbDictionary
280
     1
281
     1
  3
ACAD_XREC_ROUNDTRIP
360
12B
  0
DICTIONARY
  5
126
330
6A
100
AcDbDictionary
280
     1
281
     1
  3
ACAD_ROUNDTRIP_2008_TABLESTYLE_CELLSTYLEMAP
360
128
  3
ACAD_XREC_ROUNDTRIP
360
127
  0
DICTIONARY
  5
F8
330
2F
100
AcDbDictionary
280
     1
281
     1
  3
ACAD_XREC_ROUNDTRIP
360
F9
  0
DICTIONARY
  5
FE
330
32
100
AcDbDictionary
280
     1
281
     1
  3
ACAD_XREC_ROUNDTRIP
360
FF
  0
DICTIONARY
  5
106
330
36
100
AcDbDictionary
280
     1
281
     1
  3
ACAD_XREC_ROUNDTRIP
360
107
  0
DICTIONARY
  5
10E
330
3A
100
AcDbDictionary
280
     1
281
     1
  3
ACAD_XREC_ROUNDTRIP
360
10F
  0
DICTIONARY
  5
102
330
34
100
AcDbDictionary
280
     1
281
     1
  3
ACAD_XREC_ROUNDTRIP
360
103
  0
DICTIONARY
  5
104
330
35
100
AcDbDictionary
280
     1
281
     1
  3
ACAD_XREC_ROUNDTRIP
360
105
  0
DICTIONARY
  5
114
330
3D
100
AcDbDictionary
280
     1
281
     1
  3
ACAD_XREC_ROUNDTRIP
360
115
  0
DICTIONARY
  5
10C
330
39
100
AcDbDictionary
280
     1
281
     1
  3
ACAD_XREC_ROUNDTRIP
360
10D
  0
DICTIONARY
  5
F0
330
2B
100
AcDbDictionary
280
     1
281
     1
  3
ACAD_XREC_ROUNDTRIP
360
F1
  0
DICTIONARY
  5
F2
330
2C
100
AcDbDictionary
280
     1
281
     1
  3
ACAD_XREC_ROUNDTRIP
360
F3
  0
DICTIONARY
  5
F4
330
2D
100
AcDbDictionary
280
     1
281
     1
  3
ACAD_XREC_ROUNDTRIP
360
F5
  0
DICTIONARY
  5
F6
330
2E
100
AcDbDictionary
280
     1
281
     1
  3
ACAD_XREC_ROUNDTRIP
360
F7
  0
DICTIONARY
  5
FC
330
31
100
AcDbDictionary
280
     1
281
     1
  3
ACAD_XREC_ROUNDTRIP
360
FD
  0
DICTIONARY
  5
110
330
3B
100
AcDbDictionary
280
     1
281
     1
  3
ACAD_XREC_ROUNDTRIP
360
111
  0
DICTIONARY
  5
10A
330
38
100
AcDbDictionary
280
     1
281
     1
  3
ACAD_XREC_ROUNDTRIP
360
10B
  0
DICTIONARY
  5
112
330
3C
100
AcDbDictionary
280
     1
281
     1
  3
ACAD_XREC_ROUNDTRIP
360
113
  0
DICTIONARY
  5
100
330
33
100
AcDbDictionary
280
     1
281
     1
  3
ACAD_XREC_ROUNDTRIP
360
101
  0
DICTIONARY
  5
11E
330
42
100
AcDbDictionary
280
     1
281
     1
  3
ACAD_XREC_ROUNDTRIP
360
11F
  0
DICTIONARY
  5
11C
330
41
100
AcDbDictionary
280
     1
281
     1
  3
ACAD_XREC_ROUNDTRIP
360
11D
  0
DICTIONARY
  5
116
330
3E
100
AcDbDictionary
280
     1
281
     1
  3
ACAD_XREC_ROUNDTRIP
360
117
  0
DICTIONARY
  5
118
330
3F
100
AcDbDictionary
280
     1
281
     1
  3
ACAD_XREC_ROUNDTRIP
360
119
  0
DICTIONARY
  5
108
330
37
100
AcDbDictionary
280
     1
281
     1
  3
ACAD_XREC_ROUNDTRIP
360
109
  0
DICTIONARY
  5
FA
330
30
100
AcDbDictionary
280
     1
281
     1
  3
ACAD_XREC_ROUNDTRIP
360
FB
  0
DICTIONARY
  5
11A
330
40
100
AcDbDictionary
280
     1
281
     1
  3
ACAD_XREC_ROUNDTRIP
360
11B
  0
XRECORD
  5
123
102
{ACAD_REACTORS
330
122
102
}
330
122
100
AcDbXrecord
280
     1
102
MATERIAL
148
0.0
149
0.0
149
0.0
 93
        0
 94
      127
282
     0
 72
     1
 77
     1
171
     1
175
     1
179
     1
273
     0
  0
XRECORD
  5
121
102
{ACAD_REACTORS
330
120
102
}
330
120
100
AcDbXrecord
280
     1
102
MATERIAL
148
0.0
149
0.0
149
0.0
 93
        0
 94
      127
282
     0
 72
     1
 77
     1
171
     1
175
     1
179
     1
273
     0
  0
XRECORD
  5
125
102
{ACAD_REACTORS
330
124
102
}
330
124
100
AcDbXrecord
280
     1
102
MATERIAL
148
0.0
149
0.0
149
0.0
 93
        0
 94
      127
282
     0
 72
     1
 77
     1
171
     1
175
     1
179
     1
273
     0
  0
XRECORD
  5
12B
102
{ACAD_REACTORS
330
12A
102
}
330
12A
100
AcDbXrecord
280
     1
102
ACAD_ROUNDTRIP_2010_MLEADER_STYLE
  0
CELLSTYLEMAP
  5
128
102
{ACAD_REACTORS
330
126
102
}
330
126
100
AcDbCellStyleMap
 90
        3
300
CELLSTYLE
  1
TABLEFORMAT_BEGIN
 90
        5
170
     1
 91
        0
 92
    32768
 62
   257
 93
        1
300
CONTENTFORMAT
  1
CONTENTFORMAT_BEGIN
 90
        0
 91
        0
 92
        4
 93
        0
300

 40
0.0
140
1.0
 94
        5
 62
     0
340
11
144
0.25
309
CONTENTFORMAT_END
171
     1
301
MARGIN
  1
CELLMARGIN_BEGIN
 40
0.06
 40
0.06
 40
0.06
 40
0.06
 40
0.06
 40
0.06
309
CELLMARGIN_END
 94
        6
 95
        1
302
GRIDFORMAT
  1
GRIDFORMAT_BEGIN
 90
        0
 91
        1
 62
     0
 92
       -2
340
14
 93
        0
 40
0.045
309
GRIDFORMAT_END
 95
        2
302
GRIDFORMAT
  1
GRIDFORMAT_BEGIN
 90
        0
 91
        1
 62
     0
 92
       -2
340
14
 93
        0
 40
0.045
309
GRIDFORMAT_END
 95
        4
302
GRIDFORMAT
  1
GRIDFORMAT_BEGIN
 90
        0
 91
        1
 62
     0
 92
       -2
340
14
 93
        0
 40
0.045
309
GRIDFORMAT_END
 95
        8
302
GRIDFORMAT
  1
GRIDFORMAT_BEGIN
 90
        0
 91
        1
 62
     0
 92
       -2
340
14
 93
        0
 40
0.045
309
GRIDFORMAT_END
 95
       16
302
GRIDFORMAT
  1
GRIDFORMAT_BEGIN
 90
        0
 91
        1
 62
     0
 92
       -2
340
14
 93
        0
 40
0.045
309
GRIDFORMAT_END
 95
       32
302
GRIDFORMAT
  1
GRIDFORMAT_BEGIN
 90
        0
 91
        1
 62
     0
 92
       -2
340
14
 93
        0
 40
0.045
309
GRIDFORMAT_END
309
TABLEFORMAT_END
  1
CELLSTYLE_BEGIN
 90
        1
 91
        1
300
_TITLE
309
CELLSTYLE_END
300
CELLSTYLE
  1
TABLEFORMAT_BEGIN
 90
        5
170
     1
 91
        0
 92
        0
 62
   257
 93
        1
300
CONTENTFORMAT
  1
CONTENTFORMAT_BEGIN
 90
        0
 91
        0
 92
        4
 93
        0
300

 40
0.0
140
1.0
 94
        5
 62
     0
340
11
144
0.18
309
CONTENTFORMAT_END
171
     1
301
MARGIN
  1
CELLMARGIN_BEGIN
 40
0.06
 40
0.06
 40
0.06
 40
0.06
 40
0.06
 40
0.06
309
CELLMARGIN_END
 94
        6
 95
        1
302
GRIDFORMAT
  1
GRIDFORMAT_BEGIN
 90
        0
 91
        1
 62
     0
 92
       -2
340
14
 93
        0
 40
0.045
309
GRIDFORMAT_END
 95
        2
302
GRIDFORMAT
  1
GRIDFORMAT_BEGIN
 90
        0
 91
        1
 62
     0
 92
       -2
340
14
 93
        0
 40
0.045
309
GRIDFORMAT_END
 95
        4
302
GRIDFORMAT
  1
GRIDFORMAT_BEGIN
 90
        0
 91
        1
 62
     0
 92
       -2
340
14
 93
        0
 40
0.045
309
GRIDFORMAT_END
 95
        8
302
GRIDFORMAT
  1
GRIDFORMAT_BEGIN
 90
        0
 91
        1
 62
     0
 92
       -2
340
14
 93
        0
 40
0.045
309
GRIDFORMAT_END
 95
       16
302
GRIDFORMAT
  1
GRIDFORMAT_BEGIN
 90
        0
 91
        1
 62
     0
 92
       -2
340
14
 93
        0
 40
0.045
309
GRIDFORMAT_END
 95
       32
302
GRIDFORMAT
  1
GRIDFORMAT_BEGIN
 90
        0
 91
        1
 62
     0
 92
       -2
340
14
 93
        0
 40
0.045
309
GRIDFORMAT_END
309
TABLEFORMAT_END
  1
CELLSTYLE_BEGIN
 90
        2
 91
        1
300
_HEADER
309
CELLSTYLE_END
300
CELLSTYLE
  1
TABLEFORMAT_BEGIN
 90
        5
170
     1
 91
        0
 92
        0
 62
   257
 93
        1
300
CONTENTFORMAT
  1
CONTENTFORMAT_BEGIN
 90
        0
 91
        0
 92
        4
 93
        0
300

 40
0.0
140
1.0
 94
        2
 62
     0
340
11
144
0.18
309
CONTENTFORMAT_END
171
     1
301
MARGIN
  1
CELLMARGIN_BEGIN
 40
0.06
 40
0.06
 40
0.06
 40
0.06
 40
0.06
 40
0.06
309
CELLMARGIN_END
 94
        6
 95
        1
302
GRIDFORMAT
  1
GRIDFORMAT_BEGIN
 90
        0
 91
        1
 62
     0
 92
       -2
340
14
 93
        0
 40
0.045
309
GRIDFORMAT_END
 95
        2
302
GRIDFORMAT
  1
GRIDFORMAT_BEGIN
 90
        0
 91
        1
 62
     0
 92
       -2
340
14
 93
        0
 40
0.045
309
GRIDFORMAT_END
 95
        4
302
GRIDFORMAT
  1
GRIDFORMAT_BEGIN
 90
        0
 91
        1
 62
     0
 92
       -2
340
14
 93
        0
 40
0.045
309
GRIDFORMAT_END
 95
        8
302
GRIDFORMAT
  1
GRIDFORMAT_BEGIN
 90
        0
 91
        1
 62
     0
 92
       -2
340
14
 93
        0
 40
0.045
309
GRIDFORMAT_END
 95
       16
302
GRIDFORMAT
  1
GRIDFORMAT_BEGIN
 90
        0
 91
        1
 62
     0
 92
       -2
340
14
 93
        0
 40
0.045
309
GRIDFORMAT_END
 95
       32
302
GRIDFORMAT
  1
GRIDFORMAT_BEGIN
 90
        0
 91
        1
 62
     0
 92
       -2
340
14
 93
        0
 40
0.045
309
GRIDFORMAT_END
309
TABLEFORMAT_END
  1
CELLSTYLE_BEGIN
 90
        3
 91
        2
300
_DATA
309
CELLSTYLE_END
  0
XRECORD
  5
127
102
{ACAD_REACTORS
330
126
102
}
330
126
100
AcDbXrecord
280
     1
102
ACAD_ROUNDTRIP_PRE2007_TABLESTYLE
 90
        4
 91
        0
  1

 92
        4
 93
        0
  2

 94
        4
 95
        0
  3

  0
XRECORD
  5
F9
102
{ACAD_REACTORS
330
F8
102
}
330
F8
100
AcDbXrecord
280
     1
102
RTVSPropertyOp0
 70
     1
102
RTVSPropertyOp1
 70
     1
102
RTVSPropertyOp2
 70
     1
102
RTVSPropertyOp3
 70
     1
102
RTVSPropertyOp4
 70
     1
102
RTVSPropertyOp5
 70
     1
102
RTVSPropertyOp6
 70
     1
102
RTVSPropertyOp7
 70
     1
102
RTVSPropertyOp8
 70
     1
102
RTVSPropertyOp9
 70
     1
102
RTVSPropertyOp10
 70
     1
102
RTVSPropertyOp11
 70
     1
102
RTVSPropertyOp12
 70
     1
102
RTVSPropertyOp13
 70
     1
102
RTVSPropertyOp14
 70
     1
102
RTVSPropertyOp15
 70
     1
102
RTVSPropertyOp16
 70
     1
102
RTVSPropertyOp17
 70
     1
102
RTVSPropertyOp18
 70
     1
102
RTVSPropertyOp19
 70
     1
102
RTVSPropertyOp20
 70
     1
102
RTVSPropertyOp21
 70
     1
102
RTVSPropertyOp22
 70
     1
102
RTVSPropertyOp23
 70
     1
102
RTVSPropertyOp24
 70
     1
102
RTVSPropertyOp25
 70
     1
102
RTVSPropertyOp26
 70
     1
102
RTVSPropertyOp27
 70
     1
102
RTVSPropertyOp28
 70
     1
102
RTVSPropertyOp29
 70
     1
102
RTVSPropertyOp30
 70
     1
102
RTVSPropertyOp31
 70
     1
102
RTVSPropertyOp32
 70
     1
102
RTVSPropertyOp33
 70
     1
102
RTVSPropertyOp34
 70
     1
102
RTVSPropertyOp35
 70
     1
102
RTVSPropertyOp36
 70
     1
102
RTVSPropertyOp37
 70
     1
102
RTVSPropertyOp38
 70
     1
102
RTVSPropertyOp39
 70
     1
102
RTVSPropertyOp40
 70
     1
102
RTVSPropertyOp41
 70
     1
102
RTVSPropertyOp42
 70
     1
102
RTVSPropertyOp43
 70
     1
102
RTVSPropertyOp44
 70
     1
102
RTVSPropertyOp45
 70
     1
102
RTVSPropertyOp46
 70
     1
102
RTVSPropertyOp47
 70
     1
102
RTVSPropertyOp48
 70
     1
102
RTVSPropertyOp49
 70
     1
102
RTVSPropertyOp50
 70
     1
102
RTVSPropertyOp51
 70
     0
102
RTVSPropertyOp52
 70
     0
102
RTVSPropertyOp53
 70
     1
102
RTVSPropertyOp54
 70
     1
102
RTVSPropertyOp55
 70
     1
102
RTVSPropertyOp56
 70
     1
102
RTVSPropertyOp57
 70
     1
102
RTVSPost2010Prop28
280
     1
102
RTVSPost2010PropOp28
 70
     1
102
RTVSPost2010Prop29
280
     1
102
RTVSPost2010PropOp29
 70
     1
102
RTVSPost2010Prop30
280
     0
102
RTVSPost2010PropOp30
 70
     1
102
RTVSPost2010Prop31
280
     0
102
RTVSPost2010PropOp31
 70
     1
102
RTVSPost2010Prop32
280
     0
102
RTVSPost2010PropOp32
 70
     1
102
RTVSPost2010Prop33
280
     0
102
RTVSPost2010PropOp33
 70
     1
102
RTVSPost2010Prop34
280
     0
102
RTVSPost2010PropOp34
 70
     1
102
RTVSPost2010Prop35
280
     0
102
RTVSPost2010PropOp35
 70
     1
102
RTVSPost2010Prop36
280
     0
102
RTVSPost2010PropOp36
 70
     1
102
RTVSPost2010Prop37
 90
       50
102
RTVSPost2010PropOp37
 70
     1
102
RTVSPost2010Prop38
140
0.0
102
RTVSPost2010PropOp38
 70
     1
102
RTVSPost2010Prop39
140
1.0
102
RTVSPost2010PropOp39
 70
     1
102
RTVSPost2010Prop40
 90
        0
102
RTVSPost2010PropOp40
 70
     1
102
RTVSPost2010Prop41ColorIndex
 90
       18
102
RTVSPost2010Prop41ColorRGB
 90
        0
102
RTVSPost2010PropOp41
 70
     1
102
RTVSPost2010Prop42
 90
       50
102
RTVSPost2010PropOp42
 70
     1
102
RTVSPost2010Prop43
 90
        3
102
RTVSPost2010PropOp43
 70
     1
102
RTVSPost2010Prop44ColorIndex
 90
        5
102
RTVSPost2010Prop44ColorRGB
 90
      255
102
RTVSPost2010PropOp44
 70
     1
102
RTVSPost2010Prop45
280
     0
102
RTVSPost2010PropOp45
 70
     1
102
RTVSPost2010Prop46
 90
       50
102
RTVSPost2010PropOp46
 70
     1
102
RTVSPost2010Prop47
 90
       50
102
RTVSPost2010PropOp47
 70
     1
102
RTVSPost2010Prop48
 90
       50
102
RTVSPost2010PropOp48
 70
     1
102
RTVSPost2010Prop49
280
     0
102
RTVSPost2010PropOp49
 70
     1
102
RTVSPost2010Prop50
 90
       50
102
RTVSPost2010PropOp50
 70
     1
102
RTVSPost2010Prop51ColorIndex
 90
      256
102
RTVSPost2010Prop51ColorRGB
 90
-16777216
102
RTVSPost2010PropOp51
 70
     0
102
RTVSPost2010Prop52
140
1.0
102
RTVSPost2010PropOp52
 70
     0
102
RTVSPost2010Prop53
 90
        2
102
RTVSPost2010PropOp53
 70
     1
102
RTVSPost2010Prop54
  1
strokes_ogs.tif
102
RTVSPost2010PropOp54
 70
     1
102
RTVSPost2010Prop55
280
     0
102
RTVSPost2010PropOp55
 70
     1
102
RTVSPost2010Prop56
140
1.0
102
RTVSPost2010PropOp56
 70
     1
102
RTVSPost2010Prop57
140
1.0
102
RTVSPost2010PropOp57
 70
     1
  0
XRECORD
  5
FF
102
{ACAD_REACTORS
330
FE
102
}
330
FE
100
AcDbXrecord
280
     1
102
RTVSPropertyOp0
 70
     1
102
RTVSPropertyOp1
 70
     1
102
RTVSPropertyOp2
 70
     1
102
RTVSPropertyOp3
 70
     1
102
RTVSPropertyOp4
 70
     1
102
RTVSPropertyOp5
 70
     1
102
RTVSPropertyOp6
 70
     1
102
RTVSPropertyOp7
 70
     1
102
RTVSPropertyOp8
 70
     1
102
RTVSPropertyOp9
 70
     1
102
RTVSPropertyOp10
 70
     1
102
RTVSPropertyOp11
 70
     1
102
RTVSPropertyOp12
 70
     1
102
RTVSPropertyOp13
 70
     1
102
RTVSPropertyOp14
 70
     1
102
RTVSPropertyOp15
 70
     1
102
RTVSPropertyOp16
 70
     1
102
RTVSPropertyOp17
 70
     1
102
RTVSPropertyOp18
 70
     1
102
RTVSPropertyOp19
 70
     1
102
RTVSPropertyOp20
 70
     1
102
RTVSPropertyOp21
 70
     1
102
RTVSPropertyOp22
 70
     1
102
RTVSPropertyOp23
 70
     1
102
RTVSPropertyOp24
 70
     1
102
RTVSPropertyOp25
 70
     1
102
RTVSPropertyOp26
 70
     1
102
RTVSPropertyOp27
 70
     1
102
RTVSPropertyOp28
 70
     1
102
RTVSPropertyOp29
 70
     1
102
RTVSPropertyOp30
 70
     1
102
RTVSPropertyOp31
 70
     1
102
RTVSPropertyOp32
 70
     1
102
RTVSPropertyOp33
 70
     1
102
RTVSPropertyOp34
 70
     1
102
RTVSPropertyOp35
 70
     1
102
RTVSPropertyOp36
 70
     1
102
RTVSPropertyOp37
 70
     1
102
RTVSPropertyOp38
 70
     1
102
RTVSPropertyOp39
 70
     1
102
RTVSPropertyOp40
 70
     1
102
RTVSPropertyOp41
 70
     1
102
RTVSPropertyOp42
 70
     1
102
RTVSPropertyOp43
 70
     1
102
RTVSPropertyOp44
 70
     1
102
RTVSPropertyOp45
 70
     1
102
RTVSPropertyOp46
 70
     1
102
RTVSPropertyOp47
 70
     1
102
RTVSPropertyOp48
 70
     1
102
RTVSPropertyOp49
 70
     1
102
RTVSPropertyOp50
 70
     1
102
RTVSPropertyOp51
 70
     0
102
RTVSPropertyOp52
 70
     0
102
RTVSPropertyOp53
 70
     1
102
RTVSPropertyOp54
 70
     1
102
RTVSPropertyOp55
 70
     1
102
RTVSPropertyOp56
 70
     1
102
RTVSPropertyOp57
 70
     1
102
RTVSPost2010Prop28
280
     0
102
RTVSPost2010PropOp28
 70
     1
102
RTVSPost2010Prop29
280
     1
102
RTVSPost2010PropOp29
 70
     1
102
RTVSPost2010Prop30
280
     1
102
RTVSPost2010PropOp30
 70
     1
102
RTVSPost2010Prop31
280
     0
102
RTVSPost2010PropOp31
 70
     1
102
RTVSPost2010Prop32
280
     0
102
RTVSPost2010PropOp32
 70
     1
102
RTVSPost2010Prop33
280
     0
102
RTVSPost2010PropOp33
 70
     1
102
RTVSPost2010Prop34
280
     0
102
RTVSPost2010PropOp34
 70
     1
102
RTVSPost2010Prop35
280
     0
102
RTVSPost2010PropOp35
 70
     1
102
RTVSPost2010Prop36
280
     0
102
RTVSPost2010PropOp36
 70
     1
102
RTVSPost2010Prop37
 90
       50
102
RTVSPost2010PropOp37
 70
     1
102
RTVSPost2010Prop38
140
0.0
102
RTVSPost2010PropOp38
 70
     1
102
RTVSPost2010Prop39
140
1.0
102
RTVSPost2010PropOp39
 70
     1
102
RTVSPost2010Prop40
 90
        0
102
RTVSPost2010PropOp40
 70
     1
102
RTVSPost2010Prop41ColorIndex
 90
       18
102
RTVSPost2010Prop41ColorRGB
 90
        0
102
RTVSPost2010PropOp41
 70
     1
102
RTVSPost2010Prop42
 90
       50
102
RTVSPost2010PropOp42
 70
     1
102
RTVSPost2010Prop43
 90
        3
102
RTVSPost2010PropOp43
 70
     1
102
RTVSPost2010Prop44ColorIndex
 90
        5
102
RTVSPost2010Prop44ColorRGB
 90
      255
102
RTVSPost2010PropOp44
 70
     1
102
RTVSPost2010Prop45
280
     0
102
RTVSPost2010PropOp45
 70
     1
102
RTVSPost2010Prop46
 90
       50
102
RTVSPost2010PropOp46
 70
     1
102
RTVSPost2010Prop47
 90
       50
102
RTVSPost2010PropOp47
 70
     1
102
RTVSPost2010Prop48
 90
       50
102
RTVSPost2010PropOp48
 70
     1
102
RTVSPost2010Prop49
280
     0
102
RTVSPost2010PropOp49
 70
     1
102
RTVSPost2010Prop50
 90
       50
102
RTVSPost2010PropOp50
 70
     1
102
RTVSPost2010Prop51ColorIndex
 90
      256
102
RTVSPost2010Prop51ColorRGB
 90
-16777216
102
RTVSPost2010PropOp51
 70
     0
102
RTVSPost2010Prop52
140
1.0
102
RTVSPost2010PropOp52
 70
     0
102
RTVSPost2010Prop53
 90
        2
102
RTVSPost2010PropOp53
 70
     1
102
RTVSPost2010Prop54
  1
strokes_ogs.tif
102
RTVSPost2010PropOp54
 70
     1
102
RTVSPost2010Prop55
280
     0
102
RTVSPost2010PropOp55
 70
     1
102
RTVSPost2010Prop56
140
1.0
102
RTVSPost2010PropOp56
 70
     1
102
RTVSPost2010Prop57
140
1.0
102
RTVSPost2010PropOp57
 70
     1
  0
XRECORD
  5
107
102
{ACAD_REACTORS
330
106
102
}
330
106
100
AcDbXrecord
280
     1
102
RTVSPropertyOp0
 70
     1
102
RTVSPropertyOp1
 70
     1
102
RTVSPropertyOp2
 70
     1
102
RTVSPropertyOp3
 70
     1
102
RTVSPropertyOp4
 70
     1
102
RTVSPropertyOp5
 70
     1
102
RTVSPropertyOp6
 70
     1
102
RTVSPropertyOp7
 70
     1
102
RTVSPropertyOp8
 70
     1
102
RTVSPropertyOp9
 70
     1
102
RTVSPropertyOp10
 70
     1
102
RTVSPropertyOp11
 70
     1
102
RTVSPropertyOp12
 70
     1
102
RTVSPropertyOp13
 70
     1
102
RTVSPropertyOp14
 70
     1
102
RTVSPropertyOp15
 70
     1
102
RTVSPropertyOp16
 70
     1
102
RTVSPropertyOp17
 70
     1
102
RTVSPropertyOp18
 70
     1
102
RTVSPropertyOp19
 70
     1
102
RTVSPropertyOp20
 70
     1
102
RTVSPropertyOp21
 70
     1
102
RTVSPropertyOp22
 70
     1
102
RTVSPropertyOp23
 70
     1
102
RTVSPropertyOp24
 70
     1
102
RTVSPropertyOp25
 70
     1
102
RTVSPropertyOp26
 70
     1
102
RTVSPropertyOp27
 70
     1
102
RTVSPropertyOp28
 70
     1
102
RTVSPropertyOp29
 70
     1
102
RTVSPropertyOp30
 70
     1
102
RTVSPropertyOp31
 70
     1
102
RTVSPropertyOp32
 70
     1
102
RTVSPropertyOp33
 70
     1
102
RTVSPropertyOp34
 70
     1
102
RTVSPropertyOp35
 70
     1
102
RTVSPropertyOp36
 70
     1
102
RTVSPropertyOp37
 70
     1
102
RTVSPropertyOp38
 70
     1
102
RTVSPropertyOp39
 70
     1
102
RTVSPropertyOp40
 70
     1
102
RTVSPropertyOp41
 70
     1
102
RTVSPropertyOp42
 70
     1
102
RTVSPropertyOp43
 70
     1
102
RTVSPropertyOp44
 70
     1
102
RTVSPropertyOp45
 70
     1
102
RTVSPropertyOp46
 70
     1
102
RTVSPropertyOp47
 70
     1
102
RTVSPropertyOp48
 70
     1
102
RTVSPropertyOp49
 70
     1
102
RTVSPropertyOp50
 70
     1
102
RTVSPropertyOp51
 70
     0
102
RTVSPropertyOp52
 70
     0
102
RTVSPropertyOp53
 70
     1
102
RTVSPropertyOp54
 70
     1
102
RTVSPropertyOp55
 70
     1
102
RTVSPropertyOp56
 70
     1
102
RTVSPropertyOp57
 70
     1
102
RTVSPost2010Prop28
280
     0
102
RTVSPost2010PropOp28
 70
     1
102
RTVSPost2010Prop29
280
     1
102
RTVSPost2010PropOp29
 70
     1
102
RTVSPost2010Prop30
280
     1
102
RTVSPost2010PropOp30
 70
     1
102
RTVSPost2010Prop31
280
     0
102
RTVSPost2010PropOp31
 70
     1
102
RTVSPost2010Prop32
280
     0
102
RTVSPost2010PropOp32
 70
     1
102
RTVSPost2010Prop33
280
     0
102
RTVSPost2010PropOp33
 70
     1
102
RTVSPost2010Prop34
280
     0
102
RTVSPost2010PropOp34
 70
     1
102
RTVSPost2010Prop35
280
     0
102
RTVSPost2010PropOp35
 70
     1
102
RTVSPost2010Prop36
280
     0
102
RTVSPost2010PropOp36
 70
     1
102
RTVSPost2010Prop37
 90
       50
102
RTVSPost2010PropOp37
 70
     1
102
RTVSPost2010Prop38
140
0.0
102
RTVSPost2010PropOp38
 70
     1
102
RTVSPost2010Prop39
140
1.0
102
RTVSPost2010PropOp39
 70
     1
102
RTVSPost2010Prop40
 90
        0
102
RTVSPost2010PropOp40
 70
     1
102
RTVSPost2010Prop41ColorIndex
 90
       18
102
RTVSPost2010Prop41ColorRGB
 90
        0
102
RTVSPost2010PropOp41
 70
     1
102
RTVSPost2010Prop42
 90
       50
102
RTVSPost2010PropOp42
 70
     1
102
RTVSPost2010Prop43
 90
        3
102
RTVSPost2010PropOp43
 70
     1
102
RTVSPost2010Prop44ColorIndex
 90
        5
102
RTVSPost2010Prop44ColorRGB
 90
      255
102
RTVSPost2010PropOp44
 70
     1
102
RTVSPost2010Prop45
280
     0
102
RTVSPost2010PropOp45
 70
     1
102
RTVSPost2010Prop46
 90
       50
102
RTVSPost2010PropOp46
 70
     1
102
RTVSPost2010Prop47
 90
       50
102
RTVSPost2010PropOp47
 70
     1
102
RTVSPost2010Prop48
 90
       50
102
RTVSPost2010PropOp48
 70
     1
102
RTVSPost2010Prop49
280
     0
102
RTVSPost2010PropOp49
 70
     1
102
RTVSPost2010Prop50
 90
       50
102
RTVSPost2010PropOp50
 70
     1
102
RTVSPost2010Prop51ColorIndex
 90
      256
102
RTVSPost2010Prop51ColorRGB
 90
-16777216
102
RTVSPost2010PropOp51
 70
     0
102
RTVSPost2010Prop52
140
1.0
102
RTVSPost2010PropOp52
 70
     0
102
RTVSPost2010Prop53
 90
        2
102
RTVSPost2010PropOp53
 70
     1
102
RTVSPost2010Prop54
  1
strokes_ogs.tif
102
RTVSPost2010PropOp54
 70
     1
102
RTVSPost2010Prop55
280
     0
102
RTVSPost2010PropOp55
 70
     1
102
RTVSPost2010Prop56
140
1.0
102
RTVSPost2010PropOp56
 70
     1
102
RTVSPost2010Prop57
140
1.0
102
RTVSPost2010PropOp57
 70
     1
  0
XRECORD
  5
10F
102
{ACAD_REACTORS
330
10E
102
}
330
10E
100
AcDbXrecord
280
     1
102
RTVSPropertyOp0
 70
     1
102
RTVSPropertyOp1
 70
     1
102
RTVSPropertyOp2
 70
     1
102
RTVSPropertyOp3
 70
     1
102
RTVSPropertyOp4
 70
     1
102
RTVSPropertyOp5
 70
     1
102
RTVSPropertyOp6
 70
     1
102
RTVSPropertyOp7
 70
     1
102
RTVSPropertyOp8
 70
     1
102
RTVSPropertyOp9
 70
     1
102
RTVSPropertyOp10
 70
     1
102
RTVSPropertyOp11
 70
     1
102
RTVSPropertyOp12
 70
     1
102
RTVSPropertyOp13
 70
     1
102
RTVSPropertyOp14
 70
     1
102
RTVSPropertyOp15
 70
     1
102
RTVSPropertyOp16
 70
     1
102
RTVSPropertyOp17
 70
     1
102
RTVSPropertyOp18
 70
     1
102
RTVSPropertyOp19
 70
     1
102
RTVSPropertyOp20
 70
     1
102
RTVSPropertyOp21
 70
     1
102
RTVSPropertyOp22
 70
     1
102
RTVSPropertyOp23
 70
     1
102
RTVSPropertyOp24
 70
     1
102
RTVSPropertyOp25
 70
     1
102
RTVSPropertyOp26
 70
     1
102
RTVSPropertyOp27
 70
     1
102
RTVSPropertyOp28
 70
     1
102
RTVSPropertyOp29
 70
     1
102
RTVSPropertyOp30
 70
     1
102
RTVSPropertyOp31
 70
     1
102
RTVSPropertyOp32
 70
     1
102
RTVSPropertyOp33
 70
     1
102
RTVSPropertyOp34
 70
     1
102
RTVSPropertyOp35
 70
     1
102
RTVSPropertyOp36
 70
     1
102
RTVSPropertyOp37
 70
     1
102
RTVSPropertyOp38
 70
     1
102
RTVSPropertyOp39
 70
     1
102
RTVSPropertyOp40
 70
     1
102
RTVSPropertyOp41
 70
     1
102
RTVSPropertyOp42
 70
     1
102
RTVSPropertyOp43
 70
     1
102
RTVSPropertyOp44
 70
     1
102
RTVSPropertyOp45
 70
     1
102
RTVSPropertyOp46
 70
     1
102
RTVSPropertyOp47
 70
     1
102
RTVSPropertyOp48
 70
     1
102
RTVSPropertyOp49
 70
     1
102
RTVSPropertyOp50
 70
     1
102
RTVSPropertyOp51
 70
     0
102
RTVSPropertyOp52
 70
     0
102
RTVSPropertyOp53
 70
     1
102
RTVSPropertyOp54
 70
     1
102
RTVSPropertyOp55
 70
     1
102
RTVSPropertyOp56
 70
     1
102
RTVSPropertyOp57
 70
     1
102
RTVSPost2010Prop28
280
     0
102
RTVSPost2010PropOp28
 70
     1
102
RTVSPost2010Prop29
280
     1
102
RTVSPost2010PropOp29
 70
     1
102
RTVSPost2010Prop30
280
     1
102
RTVSPost2010PropOp30
 70
     1
102
RTVSPost2010Prop31
280
     0
102
RTVSPost2010PropOp31
 70
     1
102
RTVSPost2010Prop32
280
     0
102
RTVSPost2010PropOp32
 70
     1
102
RTVSPost2010Prop33
280
     0
102
RTVSPost2010PropOp33
 70
     1
102
RTVSPost2010Prop34
280
     0
102
RTVSPost2010PropOp34
 70
     1
102
RTVSPost2010Prop35
280
     0
102
RTVSPost2010PropOp35
 70
     1
102
RTVSPost2010Prop36
280
     0
102
RTVSPost2010PropOp36
 70
     1
102
RTVSPost2010Prop37
 90
       50
102
RTVSPost2010PropOp37
 70
     1
102
RTVSPost2010Prop38
140
0.0
102
RTVSPost2010PropOp38
 70
     1
102
RTVSPost2010Prop39
140
1.0
102
RTVSPost2010PropOp39
 70
     1
102
RTVSPost2010Prop40
 90
        0
102
RTVSPost2010PropOp40
 70
     1
102
RTVSPost2010Prop41ColorIndex
 90
       18
102
RTVSPost2010Prop41ColorRGB
 90
        0
102
RTVSPost2010PropOp41
 70
     1
102
RTVSPost2010Prop42
 90
       50
102
RTVSPost2010PropOp42
 70
     1
102
RTVSPost2010Prop43
 90
        3
102
RTVSPost2010PropOp43
 70
     1
102
RTVSPost2010Prop44ColorIndex
 90
        5
102
RTVSPost2010Prop44ColorRGB
 90
      255
102
RTVSPost2010PropOp44
 70
     1
102
RTVSPost2010Prop45
280
     0
102
RTVSPost2010PropOp45
 70
     1
102
RTVSPost2010Prop46
 90
       50
102
RTVSPost2010PropOp46
 70
     1
102
RTVSPost2010Prop47
 90
       50
102
RTVSPost2010PropOp47
 70
     1
102
RTVSPost2010Prop48
 90
       50
102
RTVSPost2010PropOp48
 70
     1
102
RTVSPost2010Prop49
280
     0
102
RTVSPost2010PropOp49
 70
     1
102
RTVSPost2010Prop50
 90
       50
102
RTVSPost2010PropOp50
 70
     1
102
RTVSPost2010Prop51ColorIndex
 90
      256
102
RTVSPost2010Prop51ColorRGB
 90
-16777216
102
RTVSPost2010PropOp51
 70
     0
102
RTVSPost2010Prop52
140
1.0
102
RTVSPost2010PropOp52
 70
     0
102
RTVSPost2010Prop53
 90
        2
102
RTVSPost2010PropOp53
 70
     1
102
RTVSPost2010Prop54
  1
strokes_ogs.tif
102
RTVSPost2010PropOp54
 70
     1
102
RTVSPost2010Prop55
280
     0
102
RTVSPost2010PropOp55
 70
     1
102
RTVSPost2010Prop56
140
1.0
102
RTVSPost2010PropOp56
 70
     1
102
RTVSPost2010Prop57
140
1.0
102
RTVSPost2010PropOp57
 70
     1
  0
XRECORD
  5
103
102
{ACAD_REACTORS
330
102
102
}
330
102
100
AcDbXrecord
280
     1
102
RTVSPropertyOp0
 70
     1
102
RTVSPropertyOp1
 70
     1
102
RTVSPropertyOp2
 70
     1
102
RTVSPropertyOp3
 70
     1
102
RTVSPropertyOp4
 70
     1
102
RTVSPropertyOp5
 70
     1
102
RTVSPropertyOp6
 70
     1
102
RTVSPropertyOp7
 70
     1
102
RTVSPropertyOp8
 70
     1
102
RTVSPropertyOp9
 70
     1
102
RTVSPropertyOp10
 70
     1
102
RTVSPropertyOp11
 70
     1
102
RTVSPropertyOp12
 70
     1
102
RTVSPropertyOp13
 70
     1
102
RTVSPropertyOp14
 70
     1
102
RTVSPropertyOp15
 70
     1
102
RTVSPropertyOp16
 70
     1
102
RTVSPropertyOp17
 70
     1
102
RTVSPropertyOp18
 70
     1
102
RTVSPropertyOp19
 70
     1
102
RTVSPropertyOp20
 70
     1
102
RTVSPropertyOp21
 70
     1
102
RTVSPropertyOp22
 70
     1
102
RTVSPropertyOp23
 70
     1
102
RTVSPropertyOp24
 70
     1
102
RTVSPropertyOp25
 70
     1
102
RTVSPropertyOp26
 70
     1
102
RTVSPropertyOp27
 70
     1
102
RTVSPropertyOp28
 70
     1
102
RTVSPropertyOp29
 70
     1
102
RTVSPropertyOp30
 70
     1
102
RTVSPropertyOp31
 70
     1
102
RTVSPropertyOp32
 70
     1
102
RTVSPropertyOp33
 70
     1
102
RTVSPropertyOp34
 70
     1
102
RTVSPropertyOp35
 70
     1
102
RTVSPropertyOp36
 70
     1
102
RTVSPropertyOp37
 70
     1
102
RTVSPropertyOp38
 70
     1
102
RTVSPropertyOp39
 70
     1
102
RTVSPropertyOp40
 70
     1
102
RTVSPropertyOp41
 70
     1
102
RTVSPropertyOp42
 70
     1
102
RTVSPropertyOp43
 70
     1
102
RTVSPropertyOp44
 70
     1
102
RTVSPropertyOp45
 70
     1
102
RTVSPropertyOp46
 70
     1
102
RTVSPropertyOp47
 70
     1
102
RTVSPropertyOp48
 70
     1
102
RTVSPropertyOp49
 70
     1
102
RTVSPropertyOp50
 70
     1
102
RTVSPropertyOp51
 70
     0
102
RTVSPropertyOp52
 70
     0
102
RTVSPropertyOp53
 70
     1
102
RTVSPropertyOp54
 70
     1
102
RTVSPropertyOp55
 70
     1
102
RTVSPropertyOp56
 70
     1
102
RTVSPropertyOp57
 70
     1
102
RTVSPost2010Prop28
280
     0
102
RTVSPost2010PropOp28
 70
     1
102
RTVSPost2010Prop29
280
     1
102
RTVSPost2010PropOp29
 70
     1
102
RTVSPost2010Prop30
280
     1
102
RTVSPost2010PropOp30
 70
     1
102
RTVSPost2010Prop31
280
     0
102
RTVSPost2010PropOp31
 70
     1
102
RTVSPost2010Prop32
280
     0
102
RTVSPost2010PropOp32
 70
     1
102
RTVSPost2010Prop33
280
     0
102
RTVSPost2010PropOp33
 70
     1
102
RTVSPost2010Prop34
280
     0
102
RTVSPost2010PropOp34
 70
     1
102
RTVSPost2010Prop35
280
     0
102
RTVSPost2010PropOp35
 70
     1
102
RTVSPost2010Prop36
280
     0
102
RTVSPost2010PropOp36
 70
     1
102
RTVSPost2010Prop37
 90
       50
102
RTVSPost2010PropOp37
 70
     1
102
RTVSPost2010Prop38
140
0.0
102
RTVSPost2010PropOp38
 70
     1
102
RTVSPost2010Prop39
140
1.0
102
RTVSPost2010PropOp39
 70
     1
102
RTVSPost2010Prop40
 90
        0
102
RTVSPost2010PropOp40
 70
     1
102
RTVSPost2010Prop41ColorIndex
 90
       18
102
RTVSPost2010Prop41ColorRGB
 90
        0
102
RTVSPost2010PropOp41
 70
     1
102
RTVSPost2010Prop42
 90
       50
102
RTVSPost2010PropOp42
 70
     1
102
RTVSPost2010Prop43
 90
        3
102
RTVSPost2010PropOp43
 70
     1
102
RTVSPost2010Prop44ColorIndex
 90
        5
102
RTVSPost2010Prop44ColorRGB
 90
      255
102
RTVSPost2010PropOp44
 70
     1
102
RTVSPost2010Prop45
280
     0
102
RTVSPost2010PropOp45
 70
     1
102
RTVSPost2010Prop46
 90
       50
102
RTVSPost2010PropOp46
 70
     1
102
RTVSPost2010Prop47
 90
       50
102
RTVSPost2010PropOp47
 70
     1
102
RTVSPost2010Prop48
 90
       50
102
RTVSPost2010PropOp48
 70
     1
102
RTVSPost2010Prop49
280
     0
102
RTVSPost2010PropOp49
 70
     1
102
RTVSPost2010Prop50
 90
       50
102
RTVSPost2010PropOp50
 70
     1
102
RTVSPost2010Prop51ColorIndex
 90
      256
102
RTVSPost2010Prop51ColorRGB
 90
-16777216
102
RTVSPost2010PropOp51
 70
     0
102
RTVSPost2010Prop52
140
1.0
102
RTVSPost2010PropOp52
 70
     0
102
RTVSPost2010Prop53
 90
        2
102
RTVSPost2010PropOp53
 70
     1
102
RTVSPost2010Prop54
  1
strokes_ogs.tif
102
RTVSPost2010PropOp54
 70
     1
102
RTVSPost2010Prop55
280
     0
102
RTVSPost2010PropOp55
 70
     1
102
RTVSPost2010Prop56
140
1.0
102
RTVSPost2010PropOp56
 70
     1
102
RTVSPost2010Prop57
140
1.0
102
RTVSPost2010PropOp57
 70
     1
  0
XRECORD
  5
105
102
{ACAD_REACTORS
330
104
102
}
330
104
100
AcDbXrecord
280
     1
102
RTVSPropertyOp0
 70
     1
102
RTVSPropertyOp1
 70
     1
102
RTVSPropertyOp2
 70
     1
102
RTVSPropertyOp3
 70
     1
102
RTVSPropertyOp4
 70
     1
102
RTVSPropertyOp5
 70
     1
102
RTVSPropertyOp6
 70
     1
102
RTVSPropertyOp7
 70
     1
102
RTVSPropertyOp8
 70
     1
102
RTVSPropertyOp9
 70
     1
102
RTVSPropertyOp10
 70
     1
102
RTVSPropertyOp11
 70
     1
102
RTVSPropertyOp12
 70
     1
102
RTVSPropertyOp13
 70
     1
102
RTVSPropertyOp14
 70
     1
102
RTVSPropertyOp15
 70
     1
102
RTVSPropertyOp16
 70
     1
102
RTVSPropertyOp17
 70
     1
102
RTVSPropertyOp18
 70
     1
102
RTVSPropertyOp19
 70
     1
102
RTVSPropertyOp20
 70
     1
102
RTVSPropertyOp21
 70
     1
102
RTVSPropertyOp22
 70
     1
102
RTVSPropertyOp23
 70
     1
102
RTVSPropertyOp24
 70
     1
102
RTVSPropertyOp25
 70
     1
102
RTVSPropertyOp26
 70
     1
102
RTVSPropertyOp27
 70
     1
102
RTVSPropertyOp28
 70
     1
102
RTVSPropertyOp29
 70
     1
102
RTVSPropertyOp30
 70
     1
102
RTVSPropertyOp31
 70
     1
102
RTVSPropertyOp32
 70
     1
102
RTVSPropertyOp33
 70
     1
102
RTVSPropertyOp34
 70
     1
102
RTVSPropertyOp35
 70
     1
102
RTVSPropertyOp36
 70
     1
102
RTVSPropertyOp37
 70
     1
102
RTVSPropertyOp38
 70
     1
102
RTVSPropertyOp39
 70
     1
102
RTVSPropertyOp40
 70
     1
102
RTVSPropertyOp41
 70
     1
102
RTVSPropertyOp42
 70
     1
102
RTVSPropertyOp43
 70
     1
102
RTVSPropertyOp44
 70
     1
102
RTVSPropertyOp45
 70
     1
102
RTVSPropertyOp46
 70
     1
102
RTVSPropertyOp47
 70
     1
102
RTVSPropertyOp48
 70
     1
102
RTVSPropertyOp49
 70
     1
102
RTVSPropertyOp50
 70
     1
102
RTVSPropertyOp51
 70
     0
102
RTVSPropertyOp52
 70
     0
102
RTVSPropertyOp53
 70
     1
102
RTVSPropertyOp54
 70
     1
102
RTVSPropertyOp55
 70
     1
102
RTVSPropertyOp56
 70
     1
102
RTVSPropertyOp57
 70
     1
102
RTVSPost2010Prop28
280
     0
102
RTVSPost2010PropOp28
 70
     1
102
RTVSPost2010Prop29
280
     1
102
RTVSPost2010PropOp29
 70
     1
102
RTVSPost2010Prop30
280
     1
102
RTVSPost2010PropOp30
 70
     1
102
RTVSPost2010Prop31
280
     0
102
RTVSPost2010PropOp31
 70
     1
102
RTVSPost2010Prop32
280
     0
102
RTVSPost2010PropOp32
 70
     1
102
RTVSPost2010Prop33
280
     0
102
RTVSPost2010PropOp33
 70
     1
102
RTVSPost2010Prop34
280
     0
102
RTVSPost2010PropOp34
 70
     1
102
RTVSPost2010Prop35
280
     0
102
RTVSPost2010PropOp35
 70
     1
102
RTVSPost2010Prop36
280
     0
102
RTVSPost2010PropOp36
 70
     1
102
RTVSPost2010Prop37
 90
       50
102
RTVSPost2010PropOp37
 70
     1
102
RTVSPost2010Prop38
140
0.0
102
RTVSPost2010PropOp38
 70
     1
102
RTVSPost2010Prop39
140
1.0
102
RTVSPost2010PropOp39
 70
     1
102
RTVSPost2010Prop40
 90
        0
102
RTVSPost2010PropOp40
 70
     1
102
RTVSPost2010Prop41ColorIndex
 90
       18
102
RTVSPost2010Prop41ColorRGB
 90
        0
102
RTVSPost2010PropOp41
 70
     1
102
RTVSPost2010Prop42
 90
       50
102
RTVSPost2010PropOp42
 70
     1
102
RTVSPost2010Prop43
 90
        3
102
RTVSPost2010PropOp43
 70
     1
102
RTVSPost2010Prop44ColorIndex
 90
        5
102
RTVSPost2010Prop44ColorRGB
 90
      255
102
RTVSPost2010PropOp44
 70
     1
102
RTVSPost2010Prop45
280
     0
102
RTVSPost2010PropOp45
 70
     1
102
RTVSPost2010Prop46
 90
       50
102
RTVSPost2010PropOp46
 70
     1
102
RTVSPost2010Prop47
 90
       50
102
RTVSPost2010PropOp47
 70
     1
102
RTVSPost2010Prop48
 90
       50
102
RTVSPost2010PropOp48
 70
     1
102
RTVSPost2010Prop49
280
     0
102
RTVSPost2010PropOp49
 70
     1
102
RTVSPost2010Prop50
 90
       50
102
RTVSPost2010PropOp50
 70
     1
102
RTVSPost2010Prop51ColorIndex
 90
      256
102
RTVSPost2010Prop51ColorRGB
 90
-16777216
102
RTVSPost2010PropOp51
 70
     0
102
RTVSPost2010Prop52
140
1.0
102
RTVSPost2010PropOp52
 70
     0
102
RTVSPost2010Prop53
 90
        2
102
RTVSPost2010PropOp53
 70
     1
102
RTVSPost2010Prop54
  1
strokes_ogs.tif
102
RTVSPost2010PropOp54
 70
     1
102
RTVSPost2010Prop55
280
     0
102
RTVSPost2010PropOp55
 70
     1
102
RTVSPost2010Prop56
140
1.0
102
RTVSPost2010PropOp56
 70
     1
102
RTVSPost2010Prop57
140
1.0
102
RTVSPost2010PropOp57
 70
     1
  0
XRECORD
  5
115
102
{ACAD_REACTORS
330
114
102
}
330
114
100
AcDbXrecord
280
     1
102
RTVSPropertyOp0
 70
     0
102
RTVSPropertyOp1
 70
     0
102
RTVSPropertyOp2
 70
     0
102
RTVSPropertyOp3
 70
     0
102
RTVSPropertyOp4
 70
     0
102
RTVSPropertyOp5
 70
     0
102
RTVSPropertyOp6
 70
     0
102
RTVSPropertyOp7
 70
     0
102
RTVSPropertyOp8
 70
     0
102
RTVSPropertyOp9
 70
     0
102
RTVSPropertyOp10
 70
     0
102
RTVSPropertyOp11
 70
     0
102
RTVSPropertyOp12
 70
     0
102
RTVSPropertyOp13
 70
     0
102
RTVSPropertyOp14
 70
     2
102
RTVSPropertyOp15
 70
     0
102
RTVSPropertyOp16
 70
     0
102
RTVSPropertyOp17
 70
     0
102
RTVSPropertyOp18
 70
     0
102
RTVSPropertyOp19
 70
     0
102
RTVSPropertyOp20
 70
     0
102
RTVSPropertyOp21
 70
     0
102
RTVSPropertyOp22
 70
     0
102
RTVSPropertyOp23
 70
     0
102
RTVSPropertyOp24
 70
     0
102
RTVSPropertyOp25
 70
     0
102
RTVSPropertyOp26
 70
     0
102
RTVSPropertyOp27
 70
     0
102
RTVSPropertyOp28
 70
     0
102
RTVSPropertyOp29
 70
     0
102
RTVSPropertyOp30
 70
     0
102
RTVSPropertyOp31
 70
     0
102
RTVSPropertyOp32
 70
     0
102
RTVSPropertyOp33
 70
     0
102
RTVSPropertyOp34
 70
     0
102
RTVSPropertyOp35
 70
     0
102
RTVSPropertyOp36
 70
     0
102
RTVSPropertyOp37
 70
     0
102
RTVSPropertyOp38
 70
     0
102
RTVSPropertyOp39
 70
     0
102
RTVSPropertyOp40
 70
     0
102
RTVSPropertyOp41
 70
     0
102
RTVSPropertyOp42
 70
     0
102
RTVSPropertyOp43
 70
     0
102
RTVSPropertyOp44
 70
     0
102
RTVSPropertyOp45
 70
     0
102
RTVSPropertyOp46
 70
     0
102
RTVSPropertyOp47
 70
     0
102
RTVSPropertyOp48
 70
     0
102
RTVSPropertyOp49
 70
     0
102
RTVSPropertyOp50
 70
     0
102
RTVSPropertyOp51
 70
     0
102
RTVSPropertyOp52
 70
     0
102
RTVSPropertyOp53
 70
     0
102
RTVSPropertyOp54
 70
     0
102
RTVSPropertyOp55
 70
     0
102
RTVSPropertyOp56
 70
     0
102
RTVSPropertyOp57
 70
     0
102
RTVSPost2010Prop28
280
     0
102
RTVSPost2010PropOp28
 70
     0
102
RTVSPost2010Prop29
280
     1
102
RTVSPost2010PropOp29
 70
     0
102
RTVSPost2010Prop30
280
     1
102
RTVSPost2010PropOp30
 70
     0
102
RTVSPost2010Prop31
280
     0
102
RTVSPost2010PropOp31
 70
     0
102
RTVSPost2010Prop32
280
     0
102
RTVSPost2010PropOp32
 70
     0
102
RTVSPost2010Prop33
280
     0
102
RTVSPost2010PropOp33
 70
     0
102
RTVSPost2010Prop34
280
     0
102
RTVSPost2010PropOp34
 70
     0
102
RTVSPost2010Prop35
280
     0
102
RTVSPost2010PropOp35
 70
     0
102
RTVSPost2010Prop36
280
     0
102
RTVSPost2010PropOp36
 70
     0
102
RTVSPost2010Prop37
 90
       50
102
RTVSPost2010PropOp37
 70
     0
102
RTVSPost2010Prop38
140
0.0
102
RTVSPost2010PropOp38
 70
     0
102
RTVSPost2010Prop39
140
1.0
102
RTVSPost2010PropOp39
 70
     0
102
RTVSPost2010Prop40
 90
        0
102
RTVSPost2010PropOp40
 70
     0
102
RTVSPost2010Prop41ColorIndex
 90
       18
102
RTVSPost2010Prop41ColorRGB
 90
        0
102
RTVSPost2010PropOp41
 70
     0
102
RTVSPost2010Prop42
 90
       50
102
RTVSPost2010PropOp42
 70
     0
102
RTVSPost2010Prop43
 90
        3
102
RTVSPost2010PropOp43
 70
     0
102
RTVSPost2010Prop44ColorIndex
 90
        5
102
RTVSPost2010Prop44ColorRGB
 90
      255
102
RTVSPost2010PropOp44
 70
     0
102
RTVSPost2010Prop45
280
     0
102
RTVSPost2010PropOp45
 70
     0
102
RTVSPost2010Prop46
 90
       50
102
RTVSPost2010PropOp46
 70
     0
102
RTVSPost2010Prop47
 90
       50
102
RTVSPost2010PropOp47
 70
     0
102
RTVSPost2010Prop48
 90
       50
102
RTVSPost2010PropOp48
 70
     0
102
RTVSPost2010Prop49
280
     0
102
RTVSPost2010PropOp49
 70
     0
102
RTVSPost2010Prop50
 90
       50
102
RTVSPost2010PropOp50
 70
     0
102
RTVSPost2010Prop51ColorIndex
 90
      256
102
RTVSPost2010Prop51ColorRGB
 90
-16777216
102
RTVSPost2010PropOp51
 70
     0
102
RTVSPost2010Prop52
140
1.0
102
RTVSPost2010PropOp52
 70
     0
102
RTVSPost2010Prop53
 90
        2
102
RTVSPost2010PropOp53
 70
     0
102
RTVSPost2010Prop54
  1
strokes_ogs.tif
102
RTVSPost2010PropOp54
 70
     0
102
RTVSPost2010Prop55
280
     0
102
RTVSPost2010PropOp55
 70
     0
102
RTVSPost2010Prop56
140
1.0
102
RTVSPost2010PropOp56
 70
     0
102
RTVSPost2010Prop57
140
1.0
102
RTVSPost2010PropOp57
 70
     0
  0
XRECORD
  5
10D
102
{ACAD_REACTORS
330
10C
102
}
330
10C
100
AcDbXrecord
280
     1
102
RTVSPropertyOp0
 70
     1
102
RTVSPropertyOp1
 70
     1
102
RTVSPropertyOp2
 70
     1
102
RTVSPropertyOp3
 70
     1
102
RTVSPropertyOp4
 70
     1
102
RTVSPropertyOp5
 70
     1
102
RTVSPropertyOp6
 70
     1
102
RTVSPropertyOp7
 70
     1
102
RTVSPropertyOp8
 70
     1
102
RTVSPropertyOp9
 70
     1
102
RTVSPropertyOp10
 70
     1
102
RTVSPropertyOp11
 70
     1
102
RTVSPropertyOp12
 70
     1
102
RTVSPropertyOp13
 70
     1
102
RTVSPropertyOp14
 70
     1
102
RTVSPropertyOp15
 70
     1
102
RTVSPropertyOp16
 70
     1
102
RTVSPropertyOp17
 70
     1
102
RTVSPropertyOp18
 70
     1
102
RTVSPropertyOp19
 70
     1
102
RTVSPropertyOp20
 70
     1
102
RTVSPropertyOp21
 70
     1
102
RTVSPropertyOp22
 70
     1
102
RTVSPropertyOp23
 70
     1
102
RTVSPropertyOp24
 70
     1
102
RTVSPropertyOp25
 70
     1
102
RTVSPropertyOp26
 70
     1
102
RTVSPropertyOp27
 70
     1
102
RTVSPropertyOp28
 70
     1
102
RTVSPropertyOp29
 70
     1
102
RTVSPropertyOp30
 70
     1
102
RTVSPropertyOp31
 70
     1
102
RTVSPropertyOp32
 70
     1
102
RTVSPropertyOp33
 70
     1
102
RTVSPropertyOp34
 70
     1
102
RTVSPropertyOp35
 70
     1
102
RTVSPropertyOp36
 70
     1
102
RTVSPropertyOp37
 70
     1
102
RTVSPropertyOp38
 70
     1
102
RTVSPropertyOp39
 70
     1
102
RTVSPropertyOp40
 70
     1
102
RTVSPropertyOp41
 70
     1
102
RTVSPropertyOp42
 70
     1
102
RTVSPropertyOp43
 70
     1
102
RTVSPropertyOp44
 70
     1
102
RTVSPropertyOp45
 70
     1
102
RTVSPropertyOp46
 70
     1
102
RTVSPropertyOp47
 70
     1
102
RTVSPropertyOp48
 70
     1
102
RTVSPropertyOp49
 70
     1
102
RTVSPropertyOp50
 70
     1
102
RTVSPropertyOp51
 70
     0
102
RTVSPropertyOp52
 70
     0
102
RTVSPropertyOp53
 70
     1
102
RTVSPropertyOp54
 70
     1
102
RTVSPropertyOp55
 70
     1
102
RTVSPropertyOp56
 70
     1
102
RTVSPropertyOp57
 70
     1
102
RTVSPost2010Prop28
280
     0
102
RTVSPost2010PropOp28
 70
     1
102
RTVSPost2010Prop29
280
     1
102
RTVSPost2010PropOp29
 70
     1
102
RTVSPost2010Prop30
280
     1
102
RTVSPost2010PropOp30
 70
     1
102
RTVSPost2010Prop31
280
     0
102
RTVSPost2010PropOp31
 70
     1
102
RTVSPost2010Prop32
280
     0
102
RTVSPost2010PropOp32
 70
     1
102
RTVSPost2010Prop33
280
     0
102
RTVSPost2010PropOp33
 70
     1
102
RTVSPost2010Prop34
280
     0
102
RTVSPost2010PropOp34
 70
     1
102
RTVSPost2010Prop35
280
     0
102
RTVSPost2010PropOp35
 70
     1
102
RTVSPost2010Prop36
280
     0
102
RTVSPost2010PropOp36
 70
     1
102
RTVSPost2010Prop37
 90
       50
102
RTVSPost2010PropOp37
 70
     1
102
RTVSPost2010Prop38
140
0.0
102
RTVSPost2010PropOp38
 70
     1
102
RTVSPost2010Prop39
140
1.0
102
RTVSPost2010PropOp39
 70
     1
102
RTVSPost2010Prop40
 90
        0
102
RTVSPost2010PropOp40
 70
     1
102
RTVSPost2010Prop41ColorIndex
 90
       18
102
RTVSPost2010Prop41ColorRGB
 90
        0
102
RTVSPost2010PropOp41
 70
     1
102
RTVSPost2010Prop42
 90
       50
102
RTVSPost2010PropOp42
 70
     1
102
RTVSPost2010Prop43
 90
        3
102
RTVSPost2010PropOp43
 70
     1
102
RTVSPost2010Prop44ColorIndex
 90
        5
102
RTVSPost2010Prop44ColorRGB
 90
      255
102
RTVSPost2010PropOp44
 70
     1
102
RTVSPost2010Prop45
280
     0
102
RTVSPost2010PropOp45
 70
     1
102
RTVSPost2010Prop46
 90
       50
102
RTVSPost2010PropOp46
 70
     1
102
RTVSPost2010Prop47
 90
       50
102
RTVSPost2010PropOp47
 70
     1
102
RTVSPost2010Prop48
 90
       50
102
RTVSPost2010PropOp48
 70
     1
102
RTVSPost2010Prop49
280
     0
102
RTVSPost2010PropOp49
 70
     1
102
RTVSPost2010Prop50
 90
       50
102
RTVSPost2010PropOp50
 70
     1
102
RTVSPost2010Prop51ColorIndex
 90
      256
102
RTVSPost2010Prop51ColorRGB
 90
-16777216
102
RTVSPost2010PropOp51
 70
     0
102
RTVSPost2010Prop52
140
1.0
102
RTVSPost2010PropOp52
 70
     0
102
RTVSPost2010Prop53
 90
        2
102
RTVSPost2010PropOp53
 70
     1
102
RTVSPost2010Prop54
  1
strokes_ogs.tif
102
RTVSPost2010PropOp54
 70
     1
102
RTVSPost2010Prop55
280
     0
102
RTVSPost2010PropOp55
 70
     1
102
RTVSPost2010Prop56
140
1.0
102
RTVSPost2010PropOp56
 70
     1
102
RTVSPost2010Prop57
140
1.0
102
RTVSPost2010PropOp57
 70
     1
  0
XRECORD
  5
F1
102
{ACAD_REACTORS
330
F0
102
}
330
F0
100
AcDbXrecord
280
     1
102
RTVSPropertyOp0
 70
     1
102
RTVSPropertyOp1
 70
     1
102
RTVSPropertyOp2
 70
     1
102
RTVSPropertyOp3
 70
     1
102
RTVSPropertyOp4
 70
     1
102
RTVSPropertyOp5
 70
     1
102
RTVSPropertyOp6
 70
     1
102
RTVSPropertyOp7
 70
     1
102
RTVSPropertyOp8
 70
     1
102
RTVSPropertyOp9
 70
     1
102
RTVSPropertyOp10
 70
     1
102
RTVSPropertyOp11
 70
     1
102
RTVSPropertyOp12
 70
     1
102
RTVSPropertyOp13
 70
     1
102
RTVSPropertyOp14
 70
     1
102
RTVSPropertyOp15
 70
     1
102
RTVSPropertyOp16
 70
     1
102
RTVSPropertyOp17
 70
     1
102
RTVSPropertyOp18
 70
     1
102
RTVSPropertyOp19
 70
     1
102
RTVSPropertyOp20
 70
     1
102
RTVSPropertyOp21
 70
     1
102
RTVSPropertyOp22
 70
     1
102
RTVSPropertyOp23
 70
     1
102
RTVSPropertyOp24
 70
     1
102
RTVSPropertyOp25
 70
     1
102
RTVSPropertyOp26
 70
     1
102
RTVSPropertyOp27
 70
     1
102
RTVSPropertyOp28
 70
     1
102
RTVSPropertyOp29
 70
     1
102
RTVSPropertyOp30
 70
     1
102
RTVSPropertyOp31
 70
     1
102
RTVSPropertyOp32
 70
     1
102
RTVSPropertyOp33
 70
     1
102
RTVSPropertyOp34
 70
     1
102
RTVSPropertyOp35
 70
     1
102
RTVSPropertyOp36
 70
     1
102
RTVSPropertyOp37
 70
     1
102
RTVSPropertyOp38
 70
     1
102
RTVSPropertyOp39
 70
     1
102
RTVSPropertyOp40
 70
     1
102
RTVSPropertyOp41
 70
     1
102
RTVSPropertyOp42
 70
     1
102
RTVSPropertyOp43
 70
     1
102
RTVSPropertyOp44
 70
     1
102
RTVSPropertyOp45
 70
     1
102
RTVSPropertyOp46
 70
     1
102
RTVSPropertyOp47
 70
     1
102
RTVSPropertyOp48
 70
     1
102
RTVSPropertyOp49
 70
     1
102
RTVSPropertyOp50
 70
     1
102
RTVSPropertyOp51
 70
     0
102
RTVSPropertyOp52
 70
     0
102
RTVSPropertyOp53
 70
     1
102
RTVSPropertyOp54
 70
     1
102
RTVSPropertyOp55
 70
     1
102
RTVSPropertyOp56
 70
     1
102
RTVSPropertyOp57
 70
     1
102
RTVSPost2010Prop28
280
     0
102
RTVSPost2010PropOp28
 70
     1
102
RTVSPost2010Prop29
280
     1
102
RTVSPost2010PropOp29
 70
     1
102
RTVSPost2010Prop30
280
     1
102
RTVSPost2010PropOp30
 70
     1
102
RTVSPost2010Prop31
280
     0
102
RTVSPost2010PropOp31
 70
     1
102
RTVSPost2010Prop32
280
     0
102
RTVSPost2010PropOp32
 70
     1
102
RTVSPost2010Prop33
280
     0
102
RTVSPost2010PropOp33
 70
     1
102
RTVSPost2010Prop34
280
     0
102
RTVSPost2010PropOp34
 70
     1
102
RTVSPost2010Prop35
280
     0
102
RTVSPost2010PropOp35
 70
     1
102
RTVSPost2010Prop36
280
     0
102
RTVSPost2010PropOp36
 70
     1
102
RTVSPost2010Prop37
 90
       50
102
RTVSPost2010PropOp37
 70
     1
102
RTVSPost2010Prop38
140
0.0
102
RTVSPost2010PropOp38
 70
     1
102
RTVSPost2010Prop39
140
1.0
102
RTVSPost2010PropOp39
 70
     1
102
RTVSPost2010Prop40
 90
        0
102
RTVSPost2010PropOp40
 70
     1
102
RTVSPost2010Prop41ColorIndex
 90
       18
102
RTVSPost2010Prop41ColorRGB
 90
        0
102
RTVSPost2010PropOp41
 70
     1
102
RTVSPost2010Prop42
 90
       50
102
RTVSPost2010PropOp42
 70
     1
102
RTVSPost2010Prop43
 90
        3
102
RTVSPost2010PropOp43
 70
     1
102
RTVSPost2010Prop44ColorIndex
 90
        5
102
RTVSPost2010Prop44ColorRGB
 90
      255
102
RTVSPost2010PropOp44
 70
     1
102
RTVSPost2010Prop45
280
     0
102
RTVSPost2010PropOp45
 70
     1
102
RTVSPost2010Prop46
 90
       50
102
RTVSPost2010PropOp46
 70
     1
102
RTVSPost2010Prop47
 90
       50
102
RTVSPost2010PropOp47
 70
     1
102
RTVSPost2010Prop48
 90
       50
102
RTVSPost2010PropOp48
 70
     1
102
RTVSPost2010Prop49
280
     0
102
RTVSPost2010PropOp49
 70
     1
102
RTVSPost2010Prop50
 90
       50
102
RTVSPost2010PropOp50
 70
     1
102
RTVSPost2010Prop51ColorIndex
 90
      256
102
RTVSPost2010Prop51ColorRGB
 90
-16777216
102
RTVSPost2010PropOp51
 70
     0
102
RTVSPost2010Prop52
140
1.0
102
RTVSPost2010PropOp52
 70
     0
102
RTVSPost2010Prop53
 90
        2
102
RTVSPost2010PropOp53
 70
     1
102
RTVSPost2010Prop54
  1
strokes_ogs.tif
102
RTVSPost2010PropOp54
 70
     1
102
RTVSPost2010Prop55
280
     0
102
RTVSPost2010PropOp55
 70
     1
102
RTVSPost2010Prop56
140
1.0
102
RTVSPost2010PropOp56
 70
     1
102
RTVSPost2010Prop57
140
1.0
102
RTVSPost2010PropOp57
 70
     1
  0
XRECORD
  5
F3
102
{ACAD_REACTORS
330
F2
102
}
330
F2
100
AcDbXrecord
280
     1
102
RTVSPropertyOp0
 70
     1
102
RTVSPropertyOp1
 70
     1
102
RTVSPropertyOp2
 70
     1
102
RTVSPropertyOp3
 70
     1
102
RTVSPropertyOp4
 70
     1
102
RTVSPropertyOp5
 70
     1
102
RTVSPropertyOp6
 70
     1
102
RTVSPropertyOp7
 70
     1
102
RTVSPropertyOp8
 70
     1
102
RTVSPropertyOp9
 70
     1
102
RTVSPropertyOp10
 70
     1
102
RTVSPropertyOp11
 70
     1
102
RTVSPropertyOp12
 70
     1
102
RTVSPropertyOp13
 70
     1
102
RTVSPropertyOp14
 70
     1
102
RTVSPropertyOp15
 70
     1
102
RTVSPropertyOp16
 70
     1
102
RTVSPropertyOp17
 70
     1
102
RTVSPropertyOp18
 70
     1
102
RTVSPropertyOp19
 70
     1
102
RTVSPropertyOp20
 70
     1
102
RTVSPropertyOp21
 70
     1
102
RTVSPropertyOp22
 70
     1
102
RTVSPropertyOp23
 70
     1
102
RTVSPropertyOp24
 70
     1
102
RTVSPropertyOp25
 70
     1
102
RTVSPropertyOp26
 70
     1
102
RTVSPropertyOp27
 70
     1
102
RTVSPropertyOp28
 70
     1
102
RTVSPropertyOp29
 70
     1
102
RTVSPropertyOp30
 70
     1
102
RTVSPropertyOp31
 70
     1
102
RTVSPropertyOp32
 70
     1
102
RTVSPropertyOp33
 70
     1
102
RTVSPropertyOp34
 70
     1
102
RTVSPropertyOp35
 70
     1
102
RTVSPropertyOp36
 70
     1
102
RTVSPropertyOp37
 70
     1
102
RTVSPropertyOp38
 70
     1
102
RTVSPropertyOp39
 70
     1
102
RTVSPropertyOp40
 70
     1
102
RTVSPropertyOp41
 70
     1
102
RTVSPropertyOp42
 70
     1
102
RTVSPropertyOp43
 70
     1
102
RTVSPropertyOp44
 70
     1
102
RTVSPropertyOp45
 70
     1
102
RTVSPropertyOp46
 70
     1
102
RTVSPropertyOp47
 70
     1
102
RTVSPropertyOp48
 70
     1
102
RTVSPropertyOp49
 70
     1
102
RTVSPropertyOp50
 70
     1
102
RTVSPropertyOp51
 70
     0
102
RTVSPropertyOp52
 70
     0
102
RTVSPropertyOp53
 70
     1
102
RTVSPropertyOp54
 70
     1
102
RTVSPropertyOp55
 70
     1
102
RTVSPropertyOp56
 70
     1
102
RTVSPropertyOp57
 70
     1
102
RTVSPost2010Prop28
280
     0
102
RTVSPost2010PropOp28
 70
     1
102
RTVSPost2010Prop29
280
     1
102
RTVSPost2010PropOp29
 70
     1
102
RTVSPost2010Prop30
280
     1
102
RTVSPost2010PropOp30
 70
     1
102
RTVSPost2010Prop31
280
     0
102
RTVSPost2010PropOp31
 70
     1
102
RTVSPost2010Prop32
280
     0
102
RTVSPost2010PropOp32
 70
     1
102
RTVSPost2010Prop33
280
     0
102
RTVSPost2010PropOp33
 70
     1
102
RTVSPost2010Prop34
280
     0
102
RTVSPost2010PropOp34
 70
     1
102
RTVSPost2010Prop35
280
     0
102
RTVSPost2010PropOp35
 70
     1
102
RTVSPost2010Prop36
280
     0
102
RTVSPost2010PropOp36
 70
     1
102
RTVSPost2010Prop37
 90
       50
102
RTVSPost2010PropOp37
 70
     1
102
RTVSPost2010Prop38
140
0.0
102
RTVSPost2010PropOp38
 70
     1
102
RTVSPost2010Prop39
140
1.0
102
RTVSPost2010PropOp39
 70
     1
102
RTVSPost2010Prop40
 90
        0
102
RTVSPost2010PropOp40
 70
     1
102
RTVSPost2010Prop41ColorIndex
 90
       18
102
RTVSPost2010Prop41ColorRGB
 90
        0
102
RTVSPost2010PropOp41
 70
     1
102
RTVSPost2010Prop42
 90
       50
102
RTVSPost2010PropOp42
 70
     1
102
RTVSPost2010Prop43
 90
        3
102
RTVSPost2010PropOp43
 70
     1
102
RTVSPost2010Prop44ColorIndex
 90
        5
102
RTVSPost2010Prop44ColorRGB
 90
      255
102
RTVSPost2010PropOp44
 70
     1
102
RTVSPost2010Prop45
280
     0
102
RTVSPost2010PropOp45
 70
     1
102
RTVSPost2010Prop46
 90
       50
102
RTVSPost2010PropOp46
 70
     1
102
RTVSPost2010Prop47
 90
       50
102
RTVSPost2010PropOp47
 70
     1
102
RTVSPost2010Prop48
 90
       50
102
RTVSPost2010PropOp48
 70
     1
102
RTVSPost2010Prop49
280
     0
102
RTVSPost2010PropOp49
 70
     1
102
RTVSPost2010Prop50
 90
       50
102
RTVSPost2010PropOp50
 70
     1
102
RTVSPost2010Prop51ColorIndex
 90
      256
102
RTVSPost2010Prop51ColorRGB
 90
-16777216
102
RTVSPost2010PropOp51
 70
     0
102
RTVSPost2010Prop52
140
1.0
102
RTVSPost2010PropOp52
 70
     0
102
RTVSPost2010Prop53
 90
        2
102
RTVSPost2010PropOp53
 70
     1
102
RTVSPost2010Prop54
  1
strokes_ogs.tif
102
RTVSPost2010PropOp54
 70
     1
102
RTVSPost2010Prop55
280
     0
102
RTVSPost2010PropOp55
 70
     1
102
RTVSPost2010Prop56
140
1.0
102
RTVSPost2010PropOp56
 70
     1
102
RTVSPost2010Prop57
140
1.0
102
RTVSPost2010PropOp57
 70
     1
  0
XRECORD
  5
F5
102
{ACAD_REACTORS
330
F4
102
}
330
F4
100
AcDbXrecord
280
     1
102
RTVSPropertyOp0
 70
     1
102
RTVSPropertyOp1
 70
     1
102
RTVSPropertyOp2
 70
     1
102
RTVSPropertyOp3
 70
     1
102
RTVSPropertyOp4
 70
     1
102
RTVSPropertyOp5
 70
     1
102
RTVSPropertyOp6
 70
     1
102
RTVSPropertyOp7
 70
     1
102
RTVSPropertyOp8
 70
     1
102
RTVSPropertyOp9
 70
     1
102
RTVSPropertyOp10
 70
     1
102
RTVSPropertyOp11
 70
     1
102
RTVSPropertyOp12
 70
     1
102
RTVSPropertyOp13
 70
     1
102
RTVSPropertyOp14
 70
     1
102
RTVSPropertyOp15
 70
     1
102
RTVSPropertyOp16
 70
     1
102
RTVSPropertyOp17
 70
     1
102
RTVSPropertyOp18
 70
     1
102
RTVSPropertyOp19
 70
     1
102
RTVSPropertyOp20
 70
     1
102
RTVSPropertyOp21
 70
     1
102
RTVSPropertyOp22
 70
     1
102
RTVSPropertyOp23
 70
     1
102
RTVSPropertyOp24
 70
     1
102
RTVSPropertyOp25
 70
     1
102
RTVSPropertyOp26
 70
     1
102
RTVSPropertyOp27
 70
     1
102
RTVSPropertyOp28
 70
     1
102
RTVSPropertyOp29
 70
     1
102
RTVSPropertyOp30
 70
     1
102
RTVSPropertyOp31
 70
     1
102
RTVSPropertyOp32
 70
     1
102
RTVSPropertyOp33
 70
     1
102
RTVSPropertyOp34
 70
     1
102
RTVSPropertyOp35
 70
     1
102
RTVSPropertyOp36
 70
     1
102
RTVSPropertyOp37
 70
     1
102
RTVSPropertyOp38
 70
     1
102
RTVSPropertyOp39
 70
     1
102
RTVSPropertyOp40
 70
     1
102
RTVSPropertyOp41
 70
     1
102
RTVSPropertyOp42
 70
     1
102
RTVSPropertyOp43
 70
     1
102
RTVSPropertyOp44
 70
     1
102
RTVSPropertyOp45
 70
     1
102
RTVSPropertyOp46
 70
     1
102
RTVSPropertyOp47
 70
     1
102
RTVSPropertyOp48
 70
     1
102
RTVSPropertyOp49
 70
     1
102
RTVSPropertyOp50
 70
     1
102
RTVSPropertyOp51
 70
     0
102
RTVSPropertyOp52
 70
     0
102
RTVSPropertyOp53
 70
     1
102
RTVSPropertyOp54
 70
     1
102
RTVSPropertyOp55
 70
     1
102
RTVSPropertyOp56
 70
     1
102
RTVSPropertyOp57
 70
     1
102
RTVSPost2010Prop28
280
     0
102
RTVSPost2010PropOp28
 70
     1
102
RTVSPost2010Prop29
280
     1
102
RTVSPost2010PropOp29
 70
     1
102
RTVSPost2010Prop30
280
     1
102
RTVSPost2010PropOp30
 70
     1
102
RTVSPost2010Prop31
280
     0
102
RTVSPost2010PropOp31
 70
     1
102
RTVSPost2010Prop32
280
     0
102
RTVSPost2010PropOp32
 70
     1
102
RTVSPost2010Prop33
280
     0
102
RTVSPost2010PropOp33
 70
     1
102
RTVSPost2010Prop34
280
     0
102
RTVSPost2010PropOp34
 70
     1
102
RTVSPost2010Prop35
280
     0
102
RTVSPost2010PropOp35
 70
     1
102
RTVSPost2010Prop36
280
     0
102
RTVSPost2010PropOp36
 70
     1
102
RTVSPost2010Prop37
 90
       50
102
RTVSPost2010PropOp37
 70
     1
102
RTVSPost2010Prop38
140
0.0
102
RTVSPost2010PropOp38
 70
     1
102
RTVSPost2010Prop39
140
1.0
102
RTVSPost2010PropOp39
 70
     1
102
RTVSPost2010Prop40
 90
        0
102
RTVSPost2010PropOp40
 70
     1
102
RTVSPost2010Prop41ColorIndex
 90
       18
102
RTVSPost2010Prop41ColorRGB
 90
        0
102
RTVSPost2010PropOp41
 70
     1
102
RTVSPost2010Prop42
 90
       50
102
RTVSPost2010PropOp42
 70
     1
102
RTVSPost2010Prop43
 90
        3
102
RTVSPost2010PropOp43
 70
     1
102
RTVSPost2010Prop44ColorIndex
 90
        5
102
RTVSPost2010Prop44ColorRGB
 90
      255
102
RTVSPost2010PropOp44
 70
     1
102
RTVSPost2010Prop45
280
     0
102
RTVSPost2010PropOp45
 70
     1
102
RTVSPost2010Prop46
 90
       50
102
RTVSPost2010PropOp46
 70
     1
102
RTVSPost2010Prop47
 90
       50
102
RTVSPost2010PropOp47
 70
     1
102
RTVSPost2010Prop48
 90
       50
102
RTVSPost2010PropOp48
 70
     1
102
RTVSPost2010Prop49
280
     0
102
RTVSPost2010PropOp49
 70
     1
102
RTVSPost2010Prop50
 90
       50
102
RTVSPost2010PropOp50
 70
     1
102
RTVSPost2010Prop51ColorIndex
 90
      256
102
RTVSPost2010Prop51ColorRGB
 90
-16777216
102
RTVSPost2010PropOp51
 70
     0
102
RTVSPost2010Prop52
140
1.0
102
RTVSPost2010PropOp52
 70
     0
102
RTVSPost2010Prop53
 90
        2
102
RTVSPost2010PropOp53
 70
     1
102
RTVSPost2010Prop54
  1
strokes_ogs.tif
102
RTVSPost2010PropOp54
 70
     1
102
RTVSPost2010Prop55
280
     0
102
RTVSPost2010PropOp55
 70
     1
102
RTVSPost2010Prop56
140
1.0
102
RTVSPost2010PropOp56
 70
     1
102
RTVSPost2010Prop57
140
1.0
102
RTVSPost2010PropOp57
 70
     1
  0
XRECORD
  5
F7
102
{ACAD_REACTORS
330
F6
102
}
330
F6
100
AcDbXrecord
280
     1
102
RTVSPropertyOp0
 70
     1
102
RTVSPropertyOp1
 70
     1
102
RTVSPropertyOp2
 70
     1
102
RTVSPropertyOp3
 70
     1
102
RTVSPropertyOp4
 70
     1
102
RTVSPropertyOp5
 70
     1
102
RTVSPropertyOp6
 70
     1
102
RTVSPropertyOp7
 70
     1
102
RTVSPropertyOp8
 70
     1
102
RTVSPropertyOp9
 70
     1
102
RTVSPropertyOp10
 70
     1
102
RTVSPropertyOp11
 70
     1
102
RTVSPropertyOp12
 70
     1
102
RTVSPropertyOp13
 70
     1
102
RTVSPropertyOp14
 70
     1
102
RTVSPropertyOp15
 70
     1
102
RTVSPropertyOp16
 70
     1
102
RTVSPropertyOp17
 70
     1
102
RTVSPropertyOp18
 70
     1
102
RTVSPropertyOp19
 70
     1
102
RTVSPropertyOp20
 70
     1
102
RTVSPropertyOp21
 70
     1
102
RTVSPropertyOp22
 70
     1
102
RTVSPropertyOp23
 70
     1
102
RTVSPropertyOp24
 70
     1
102
RTVSPropertyOp25
 70
     1
102
RTVSPropertyOp26
 70
     1
102
RTVSPropertyOp27
 70
     1
102
RTVSPropertyOp28
 70
     1
102
RTVSPropertyOp29
 70
     1
102
RTVSPropertyOp30
 70
     1
102
RTVSPropertyOp31
 70
     1
102
RTVSPropertyOp32
 70
     1
102
RTVSPropertyOp33
 70
     1
102
RTVSPropertyOp34
 70
     1
102
RTVSPropertyOp35
 70
     1
102
RTVSPropertyOp36
 70
     1
102
RTVSPropertyOp37
 70
     1
102
RTVSPropertyOp38
 70
     1
102
RTVSPropertyOp39
 70
     1
102
RTVSPropertyOp40
 70
     1
102
RTVSPropertyOp41
 70
     1
102
RTVSPropertyOp42
 70
     1
102
RTVSPropertyOp43
 70
     1
102
RTVSPropertyOp44
 70
     1
102
RTVSPropertyOp45
 70
     1
102
RTVSPropertyOp46
 70
     1
102
RTVSPropertyOp47
 70
     1
102
RTVSPropertyOp48
 70
     1
102
RTVSPropertyOp49
 70
     1
102
RTVSPropertyOp50
 70
     1
102
RTVSPropertyOp51
 70
     0
102
RTVSPropertyOp52
 70
     0
102
RTVSPropertyOp53
 70
     1
102
RTVSPropertyOp54
 70
     1
102
RTVSPropertyOp55
 70
     1
102
RTVSPropertyOp56
 70
     1
102
RTVSPropertyOp57
 70
     1
102
RTVSPost2010Prop28
280
     0
102
RTVSPost2010PropOp28
 70
     1
102
RTVSPost2010Prop29
280
     1
102
RTVSPost2010PropOp29
 70
     1
102
RTVSPost2010Prop30
280
     1
102
RTVSPost2010PropOp30
 70
     1
102
RTVSPost2010Prop31
280
     0
102
RTVSPost2010PropOp31
 70
     1
102
RTVSPost2010Prop32
280
     0
102
RTVSPost2010PropOp32
 70
     1
102
RTVSPost2010Prop33
280
     0
102
RTVSPost2010PropOp33
 70
     1
102
RTVSPost2010Prop34
280
     0
102
RTVSPost2010PropOp34
 70
     1
102
RTVSPost2010Prop35
280
     0
102
RTVSPost2010PropOp35
 70
     1
102
RTVSPost2010Prop36
280
     0
102
RTVSPost2010PropOp36
 70
     1
102
RTVSPost2010Prop37
 90
       50
102
RTVSPost2010PropOp37
 70
     1
102
RTVSPost2010Prop38
140
0.0
102
RTVSPost2010PropOp38
 70
     1
102
RTVSPost2010Prop39
140
1.0
102
RTVSPost2010PropOp39
 70
     1
102
RTVSPost2010Prop40
 90
        0
102
RTVSPost2010PropOp40
 70
     1
102
RTVSPost2010Prop41ColorIndex
 90
       18
102
RTVSPost2010Prop41ColorRGB
 90
        0
102
RTVSPost2010PropOp41
 70
     1
102
RTVSPost2010Prop42
 90
       50
102
RTVSPost2010PropOp42
 70
     1
102
RTVSPost2010Prop43
 90
        3
102
RTVSPost2010PropOp43
 70
     1
102
RTVSPost2010Prop44ColorIndex
 90
        5
102
RTVSPost2010Prop44ColorRGB
 90
      255
102
RTVSPost2010PropOp44
 70
     1
102
RTVSPost2010Prop45
280
     0
102
RTVSPost2010PropOp45
 70
     1
102
RTVSPost2010Prop46
 90
       50
102
RTVSPost2010PropOp46
 70
     1
102
RTVSPost2010Prop47
 90
       50
102
RTVSPost2010PropOp47
 70
     1
102
RTVSPost2010Prop48
 90
       50
102
RTVSPost2010PropOp48
 70
     1
102
RTVSPost2010Prop49
280
     0
102
RTVSPost2010PropOp49
 70
     1
102
RTVSPost2010Prop50
 90
       50
102
RTVSPost2010PropOp50
 70
     1
102
RTVSPost2010Prop51ColorIndex
 90
      256
102
RTVSPost2010Prop51ColorRGB
 90
-16777216
102
RTVSPost2010PropOp51
 70
     0
102
RTVSPost2010Prop52
140
1.0
102
RTVSPost2010PropOp52
 70
     0
102
RTVSPost2010Prop53
 90
        2
102
RTVSPost2010PropOp53
 70
     1
102
RTVSPost2010Prop54
  1
strokes_ogs.tif
102
RTVSPost2010PropOp54
 70
     1
102
RTVSPost2010Prop55
280
     0
102
RTVSPost2010PropOp55
 70
     1
102
RTVSPost2010Prop56
140
1.0
102
RTVSPost2010PropOp56
 70
     1
102
RTVSPost2010Prop57
140
1.0
102
RTVSPost2010PropOp57
 70
     1
  0
XRECORD
  5
FD
102
{ACAD_REACTORS
330
FC
102
}
330
FC
100
AcDbXrecord
280
     1
102
RTVSPropertyOp0
 70
     1
102
RTVSPropertyOp1
 70
     1
102
RTVSPropertyOp2
 70
     1
102
RTVSPropertyOp3
 70
     1
102
RTVSPropertyOp4
 70
     1
102
RTVSPropertyOp5
 70
     1
102
RTVSPropertyOp6
 70
     1
102
RTVSPropertyOp7
 70
     1
102
RTVSPropertyOp8
 70
     1
102
RTVSPropertyOp9
 70
     1
102
RTVSPropertyOp10
 70
     1
102
RTVSPropertyOp11
 70
     1
102
RTVSPropertyOp12
 70
     1
102
RTVSPropertyOp13
 70
     1
102
RTVSPropertyOp14
 70
     1
102
RTVSPropertyOp15
 70
     1
102
RTVSPropertyOp16
 70
     1
102
RTVSPropertyOp17
 70
     1
102
RTVSPropertyOp18
 70
     1
102
RTVSPropertyOp19
 70
     1
102
RTVSPropertyOp20
 70
     1
102
RTVSPropertyOp21
 70
     1
102
RTVSPropertyOp22
 70
     1
102
RTVSPropertyOp23
 70
     1
102
RTVSPropertyOp24
 70
     1
102
RTVSPropertyOp25
 70
     1
102
RTVSPropertyOp26
 70
     1
102
RTVSPropertyOp27
 70
     1
102
RTVSPropertyOp28
 70
     1
102
RTVSPropertyOp29
 70
     1
102
RTVSPropertyOp30
 70
     1
102
RTVSPropertyOp31
 70
     1
102
RTVSPropertyOp32
 70
     1
102
RTVSPropertyOp33
 70
     1
102
RTVSPropertyOp34
 70
     1
102
RTVSPropertyOp35
 70
     1
102
RTVSPropertyOp36
 70
     1
102
RTVSPropertyOp37
 70
     1
102
RTVSPropertyOp38
 70
     1
102
RTVSPropertyOp39
 70
     1
102
RTVSPropertyOp40
 70
     1
102
RTVSPropertyOp41
 70
     1
102
RTVSPropertyOp42
 70
     1
102
RTVSPropertyOp43
 70
     1
102
RTVSPropertyOp44
 70
     1
102
RTVSPropertyOp45
 70
     1
102
RTVSPropertyOp46
 70
     1
102
RTVSPropertyOp47
 70
     1
102
RTVSPropertyOp48
 70
     1
102
RTVSPropertyOp49
 70
     1
102
RTVSPropertyOp50
 70
     1
102
RTVSPropertyOp51
 70
     0
102
RTVSPropertyOp52
 70
     0
102
RTVSPropertyOp53
 70
     1
102
RTVSPropertyOp54
 70
     1
102
RTVSPropertyOp55
 70
     1
102
RTVSPropertyOp56
 70
     1
102
RTVSPropertyOp57
 70
     1
102
RTVSPost2010Prop28
280
     0
102
RTVSPost2010PropOp28
 70
     1
102
RTVSPost2010Prop29
280
     1
102
RTVSPost2010PropOp29
 70
     1
102
RTVSPost2010Prop30
280
     1
102
RTVSPost2010PropOp30
 70
     1
102
RTVSPost2010Prop31
280
     0
102
RTVSPost2010PropOp31
 70
     1
102
RTVSPost2010Prop32
280
     0
102
RTVSPost2010PropOp32
 70
     1
102
RTVSPost2010Prop33
280
     0
102
RTVSPost2010PropOp33
 70
     1
102
RTVSPost2010Prop34
280
     0
102
RTVSPost2010PropOp34
 70
     1
102
RTVSPost2010Prop35
280
     0
102
RTVSPost2010PropOp35
 70
     1
102
RTVSPost2010Prop36
280
     0
102
RTVSPost2010PropOp36
 70
     1
102
RTVSPost2010Prop37
 90
       50
102
RTVSPost2010PropOp37
 70
     1
102
RTVSPost2010Prop38
140
0.0
102
RTVSPost2010PropOp38
 70
     1
102
RTVSPost2010Prop39
140
1.0
102
RTVSPost2010PropOp39
 70
     1
102
RTVSPost2010Prop40
 90
        0
102
RTVSPost2010PropOp40
 70
     1
102
RTVSPost2010Prop41ColorIndex
 90
       18
102
RTVSPost2010Prop41ColorRGB
 90
        0
102
RTVSPost2010PropOp41
 70
     1
102
RTVSPost2010Prop42
 90
       50
102
RTVSPost2010PropOp42
 70
     1
102
RTVSPost2010Prop43
 90
        3
102
RTVSPost2010PropOp43
 70
     1
102
RTVSPost2010Prop44ColorIndex
 90
        5
102
RTVSPost2010Prop44ColorRGB
 90
      255
102
RTVSPost2010PropOp44
 70
     1
102
RTVSPost2010Prop45
280
     0
102
RTVSPost2010PropOp45
 70
     1
102
RTVSPost2010Prop46
 90
       50
102
RTVSPost2010PropOp46
 70
     1
102
RTVSPost2010Prop47
 90
       50
102
RTVSPost2010PropOp47
 70
     1
102
RTVSPost2010Prop48
 90
       50
102
RTVSPost2010PropOp48
 70
     1
102
RTVSPost2010Prop49
280
     0
102
RTVSPost2010PropOp49
 70
     1
102
RTVSPost2010Prop50
 90
       50
102
RTVSPost2010PropOp50
 70
     1
102
RTVSPost2010Prop51ColorIndex
 90
      256
102
RTVSPost2010Prop51ColorRGB
 90
-16777216
102
RTVSPost2010PropOp51
 70
     0
102
RTVSPost2010Prop52
140
1.0
102
RTVSPost2010PropOp52
 70
     0
102
RTVSPost2010Prop53
 90
        2
102
RTVSPost2010PropOp53
 70
     1
102
RTVSPost2010Prop54
  1
strokes_ogs.tif
102
RTVSPost2010PropOp54
 70
     1
102
RTVSPost2010Prop55
280
     0
102
RTVSPost2010PropOp55
 70
     1
102
RTVSPost2010Prop56
140
1.0
102
RTVSPost2010PropOp56
 70
     1
102
RTVSPost2010Prop57
140
1.0
102
RTVSPost2010PropOp57
 70
     1
  0
XRECORD
  5
111
102
{ACAD_REACTORS
330
110
102
}
330
110
100
AcDbXrecord
280
     1
102
RTVSPropertyOp0
 70
     0
102
RTVSPropertyOp1
 70
     0
102
RTVSPropertyOp2
 70
     0
102
RTVSPropertyOp3
 70
     0
102
RTVSPropertyOp4
 70
     0
102
RTVSPropertyOp5
 70
     0
102
RTVSPropertyOp6
 70
     0
102
RTVSPropertyOp7
 70
     0
102
RTVSPropertyOp8
 70
     0
102
RTVSPropertyOp9
 70
     0
102
RTVSPropertyOp10
 70
     0
102
RTVSPropertyOp11
 70
     0
102
RTVSPropertyOp12
 70
     0
102
RTVSPropertyOp13
 70
     0
102
RTVSPropertyOp14
 70
     2
102
RTVSPropertyOp15
 70
     0
102
RTVSPropertyOp16
 70
     0
102
RTVSPropertyOp17
 70
     0
102
RTVSPropertyOp18
 70
     0
102
RTVSPropertyOp19
 70
     0
102
RTVSPropertyOp20
 70
     0
102
RTVSPropertyOp21
 70
     0
102
RTVSPropertyOp22
 70
     0
102
RTVSPropertyOp23
 70
     0
102
RTVSPropertyOp24
 70
     0
102
RTVSPropertyOp25
 70
     0
102
RTVSPropertyOp26
 70
     0
102
RTVSPropertyOp27
 70
     0
102
RTVSPropertyOp28
 70
     0
102
RTVSPropertyOp29
 70
     0
102
RTVSPropertyOp30
 70
     0
102
RTVSPropertyOp31
 70
     0
102
RTVSPropertyOp32
 70
     0
102
RTVSPropertyOp33
 70
     0
102
RTVSPropertyOp34
 70
     0
102
RTVSPropertyOp35
 70
     0
102
RTVSPropertyOp36
 70
     0
102
RTVSPropertyOp37
 70
     0
102
RTVSPropertyOp38
 70
     0
102
RTVSPropertyOp39
 70
     0
102
RTVSPropertyOp40
 70
     0
102
RTVSPropertyOp41
 70
     0
102
RTVSPropertyOp42
 70
     0
102
RTVSPropertyOp43
 70
     0
102
RTVSPropertyOp44
 70
     0
102
RTVSPropertyOp45
 70
     0
102
RTVSPropertyOp46
 70
     0
102
RTVSPropertyOp47
 70
     0
102
RTVSPropertyOp48
 70
     0
102
RTVSPropertyOp49
 70
     0
102
RTVSPropertyOp50
 70
     0
102
RTVSPropertyOp51
 70
     0
102
RTVSPropertyOp52
 70
     0
102
RTVSPropertyOp53
 70
     0
102
RTVSPropertyOp54
 70
     0
102
RTVSPropertyOp55
 70
     0
102
RTVSPropertyOp56
 70
     0
102
RTVSPropertyOp57
 70
     0
102
RTVSPost2010Prop28
280
     0
102
RTVSPost2010PropOp28
 70
     0
102
RTVSPost2010Prop29
280
     1
102
RTVSPost2010PropOp29
 70
     0
102
RTVSPost2010Prop30
280
     1
102
RTVSPost2010PropOp30
 70
     0
102
RTVSPost2010Prop31
280
     0
102
RTVSPost2010PropOp31
 70
     0
102
RTVSPost2010Prop32
280
     0
102
RTVSPost2010PropOp32
 70
     0
102
RTVSPost2010Prop33
280
     0
102
RTVSPost2010PropOp33
 70
     0
102
RTVSPost2010Prop34
280
     0
102
RTVSPost2010PropOp34
 70
     0
102
RTVSPost2010Prop35
280
     0
102
RTVSPost2010PropOp35
 70
     0
102
RTVSPost2010Prop36
280
     0
102
RTVSPost2010PropOp36
 70
     0
102
RTVSPost2010Prop37
 90
       50
102
RTVSPost2010PropOp37
 70
     0
102
RTVSPost2010Prop38
140
0.0
102
RTVSPost2010PropOp38
 70
     0
102
RTVSPost2010Prop39
140
1.0
102
RTVSPost2010PropOp39
 70
     0
102
RTVSPost2010Prop40
 90
        0
102
RTVSPost2010PropOp40
 70
     0
102
RTVSPost2010Prop41ColorIndex
 90
       18
102
RTVSPost2010Prop41ColorRGB
 90
        0
102
RTVSPost2010PropOp41
 70
     0
102
RTVSPost2010Prop42
 90
       50
102
RTVSPost2010PropOp42
 70
     0
102
RTVSPost2010Prop43
 90
        3
102
RTVSPost2010PropOp43
 70
     0
102
RTVSPost2010Prop44ColorIndex
 90
        5
102
RTVSPost2010Prop44ColorRGB
 90
      255
102
RTVSPost2010PropOp44
 70
     0
102
RTVSPost2010Prop45
280
     0
102
RTVSPost2010PropOp45
 70
     0
102
RTVSPost2010Prop46
 90
       50
102
RTVSPost2010PropOp46
 70
     0
102
RTVSPost2010Prop47
 90
       50
102
RTVSPost2010PropOp47
 70
     0
102
RTVSPost2010Prop48
 90
       50
102
RTVSPost2010PropOp48
 70
     0
102
RTVSPost2010Prop49
280
     0
102
RTVSPost2010PropOp49
 70
     0
102
RTVSPost2010Prop50
 90
       50
102
RTVSPost2010PropOp50
 70
     0
102
RTVSPost2010Prop51ColorIndex
 90
      256
102
RTVSPost2010Prop51ColorRGB
 90
-16777216
102
RTVSPost2010PropOp51
 70
     0
102
RTVSPost2010Prop52
140
1.0
102
RTVSPost2010PropOp52
 70
     0
102
RTVSPost2010Prop53
 90
        2
102
RTVSPost2010PropOp53
 70
     0
102
RTVSPost2010Prop54
  1
strokes_ogs.tif
102
RTVSPost2010PropOp54
 70
     0
102
RTVSPost2010Prop55
280
     0
102
RTVSPost2010PropOp55
 70
     0
102
RTVSPost2010Prop56
140
1.0
102
RTVSPost2010PropOp56
 70
     0
102
RTVSPost2010Prop57
140
1.0
102
RTVSPost2010PropOp57
 70
     0
  0
XRECORD
  5
10B
102
{ACAD_REACTORS
330
10A
102
}
330
10A
100
AcDbXrecord
280
     1
102
RTVSPropertyOp0
 70
     1
102
RTVSPropertyOp1
 70
     1
102
RTVSPropertyOp2
 70
     1
102
RTVSPropertyOp3
 70
     1
102
RTVSPropertyOp4
 70
     1
102
RTVSPropertyOp5
 70
     1
102
RTVSPropertyOp6
 70
     1
102
RTVSPropertyOp7
 70
     1
102
RTVSPropertyOp8
 70
     1
102
RTVSPropertyOp9
 70
     1
102
RTVSPropertyOp10
 70
     1
102
RTVSPropertyOp11
 70
     1
102
RTVSPropertyOp12
 70
     1
102
RTVSPropertyOp13
 70
     1
102
RTVSPropertyOp14
 70
     1
102
RTVSPropertyOp15
 70
     1
102
RTVSPropertyOp16
 70
     1
102
RTVSPropertyOp17
 70
     1
102
RTVSPropertyOp18
 70
     1
102
RTVSPropertyOp19
 70
     1
102
RTVSPropertyOp20
 70
     1
102
RTVSPropertyOp21
 70
     1
102
RTVSPropertyOp22
 70
     1
102
RTVSPropertyOp23
 70
     1
102
RTVSPropertyOp24
 70
     1
102
RTVSPropertyOp25
 70
     1
102
RTVSPropertyOp26
 70
     1
102
RTVSPropertyOp27
 70
     1
102
RTVSPropertyOp28
 70
     1
102
RTVSPropertyOp29
 70
     1
102
RTVSPropertyOp30
 70
     1
102
RTVSPropertyOp31
 70
     1
102
RTVSPropertyOp32
 70
     1
102
RTVSPropertyOp33
 70
     1
102
RTVSPropertyOp34
 70
     1
102
RTVSPropertyOp35
 70
     1
102
RTVSPropertyOp36
 70
     1
102
RTVSPropertyOp37
 70
     1
102
RTVSPropertyOp38
 70
     1
102
RTVSPropertyOp39
 70
     1
102
RTVSPropertyOp40
 70
     1
102
RTVSPropertyOp41
 70
     1
102
RTVSPropertyOp42
 70
     1
102
RTVSPropertyOp43
 70
     1
102
RTVSPropertyOp44
 70
     1
102
RTVSPropertyOp45
 70
     1
102
RTVSPropertyOp46
 70
     1
102
RTVSPropertyOp47
 70
     1
102
RTVSPropertyOp48
 70
     1
102
RTVSPropertyOp49
 70
     1
102
RTVSPropertyOp50
 70
     1
102
RTVSPropertyOp51
 70
     0
102
RTVSPropertyOp52
 70
     0
102
RTVSPropertyOp53
 70
     1
102
RTVSPropertyOp54
 70
     1
102
RTVSPropertyOp55
 70
     1
102
RTVSPropertyOp56
 70
     1
102
RTVSPropertyOp57
 70
     1
102
RTVSPost2010Prop28
280
     0
102
RTVSPost2010PropOp28
 70
     1
102
RTVSPost2010Prop29
280
     1
102
RTVSPost2010PropOp29
 70
     1
102
RTVSPost2010Prop30
280
     1
102
RTVSPost2010PropOp30
 70
     1
102
RTVSPost2010Prop31
280
     0
102
RTVSPost2010PropOp31
 70
     1
102
RTVSPost2010Prop32
280
     0
102
RTVSPost2010PropOp32
 70
     1
102
RTVSPost2010Prop33
280
     0
102
RTVSPost2010PropOp33
 70
     1
102
RTVSPost2010Prop34
280
     0
102
RTVSPost2010PropOp34
 70
     1
102
RTVSPost2010Prop35
280
     0
102
RTVSPost2010PropOp35
 70
     1
102
RTVSPost2010Prop36
280
     0
102
RTVSPost2010PropOp36
 70
     1
102
RTVSPost2010Prop37
 90
       50
102
RTVSPost2010PropOp37
 70
     1
102
RTVSPost2010Prop38
140
0.0
102
RTVSPost2010PropOp38
 70
     1
102
RTVSPost2010Prop39
140
1.0
102
RTVSPost2010PropOp39
 70
     1
102
RTVSPost2010Prop40
 90
        0
102
RTVSPost2010PropOp40
 70
     1
102
RTVSPost2010Prop41ColorIndex
 90
       18
102
RTVSPost2010Prop41ColorRGB
 90
        0
102
RTVSPost2010PropOp41
 70
     1
102
RTVSPost2010Prop42
 90
       50
102
RTVSPost2010PropOp42
 70
     1
102
RTVSPost2010Prop43
 90
        3
102
RTVSPost2010PropOp43
 70
     1
102
RTVSPost2010Prop44ColorIndex
 90
        5
102
RTVSPost2010Prop44ColorRGB
 90
      255
102
RTVSPost2010PropOp44
 70
     1
102
RTVSPost2010Prop45
280
     0
102
RTVSPost2010PropOp45
 70
     1
102
RTVSPost2010Prop46
 90
       50
102
RTVSPost2010PropOp46
 70
     1
102
RTVSPost2010Prop47
 90
       50
102
RTVSPost2010PropOp47
 70
     1
102
RTVSPost2010Prop48
 90
       50
102
RTVSPost2010PropOp48
 70
     1
102
RTVSPost2010Prop49
280
     0
102
RTVSPost2010PropOp49
 70
     1
102
RTVSPost2010Prop50
 90
       50
102
RTVSPost2010PropOp50
 70
     1
102
RTVSPost2010Prop51ColorIndex
 90
      256
102
RTVSPost2010Prop51ColorRGB
 90
-16777216
102
RTVSPost2010PropOp51
 70
     0
102
RTVSPost2010Prop52
140
1.0
102
RTVSPost2010PropOp52
 70
     0
102
RTVSPost2010Prop53
 90
        2
102
RTVSPost2010PropOp53
 70
     1
102
RTVSPost2010Prop54
  1
strokes_ogs.tif
102
RTVSPost2010PropOp54
 70
     1
102
RTVSPost2010Prop55
280
     0
102
RTVSPost2010PropOp55
 70
     1
102
RTVSPost2010Prop56
140
1.0
102
RTVSPost2010PropOp56
 70
     1
102
RTVSPost2010Prop57
140
1.0
102
RTVSPost2010PropOp57
 70
     1
  0
XRECORD
  5
113
102
{ACAD_REACTORS
330
112
102
}
330
112
100
AcDbXrecord
280
     1
102
RTVSPropertyOp0
 70
     0
102
RTVSPropertyOp1
 70
     0
102
RTVSPropertyOp2
 70
     0
102
RTVSPropertyOp3
 70
     0
102
RTVSPropertyOp4
 70
     0
102
RTVSPropertyOp5
 70
     0
102
RTVSPropertyOp6
 70
     0
102
RTVSPropertyOp7
 70
     0
102
RTVSPropertyOp8
 70
     0
102
RTVSPropertyOp9
 70
     0
102
RTVSPropertyOp10
 70
     0
102
RTVSPropertyOp11
 70
     0
102
RTVSPropertyOp12
 70
     0
102
RTVSPropertyOp13
 70
     0
102
RTVSPropertyOp14
 70
     2
102
RTVSPropertyOp15
 70
     0
102
RTVSPropertyOp16
 70
     0
102
RTVSPropertyOp17
 70
     0
102
RTVSPropertyOp18
 70
     0
102
RTVSPropertyOp19
 70
     0
102
RTVSPropertyOp20
 70
     0
102
RTVSPropertyOp21
 70
     0
102
RTVSPropertyOp22
 70
     0
102
RTVSPropertyOp23
 70
     0
102
RTVSPropertyOp24
 70
     0
102
RTVSPropertyOp25
 70
     0
102
RTVSPropertyOp26
 70
     0
102
RTVSPropertyOp27
 70
     0
102
RTVSPropertyOp28
 70
     0
102
RTVSPropertyOp29
 70
     0
102
RTVSPropertyOp30
 70
     0
102
RTVSPropertyOp31
 70
     0
102
RTVSPropertyOp32
 70
     0
102
RTVSPropertyOp33
 70
     0
102
RTVSPropertyOp34
 70
     0
102
RTVSPropertyOp35
 70
     0
102
RTVSPropertyOp36
 70
     0
102
RTVSPropertyOp37
 70
     0
102
RTVSPropertyOp38
 70
     0
102
RTVSPropertyOp39
 70
     0
102
RTVSPropertyOp40
 70
     0
102
RTVSPropertyOp41
 70
     0
102
RTVSPropertyOp42
 70
     0
102
RTVSPropertyOp43
 70
     0
102
RTVSPropertyOp44
 70
     0
102
RTVSPropertyOp45
 70
     0
102
RTVSPropertyOp46
 70
     0
102
RTVSPropertyOp47
 70
     0
102
RTVSPropertyOp48
 70
     0
102
RTVSPropertyOp49
 70
     0
102
RTVSPropertyOp50
 70
     0
102
RTVSPropertyOp51
 70
     0
102
RTVSPropertyOp52
 70
     0
102
RTVSPropertyOp53
 70
     0
102
RTVSPropertyOp54
 70
     0
102
RTVSPropertyOp55
 70
     0
102
RTVSPropertyOp56
 70
     0
102
RTVSPropertyOp57
 70
     0
102
RTVSPost2010Prop28
280
     0
102
RTVSPost2010PropOp28
 70
     0
102
RTVSPost2010Prop29
280
     1
102
RTVSPost2010PropOp29
 70
     0
102
RTVSPost2010Prop30
280
     1
102
RTVSPost2010PropOp30
 70
     0
102
RTVSPost2010Prop31
280
     0
102
RTVSPost2010PropOp31
 70
     0
102
RTVSPost2010Prop32
280
     0
102
RTVSPost2010PropOp32
 70
     0
102
RTVSPost2010Prop33
280
     0
102
RTVSPost2010PropOp33
 70
     0
102
RTVSPost2010Prop34
280
     0
102
RTVSPost2010PropOp34
 70
     0
102
RTVSPost2010Prop35
280
     0
102
RTVSPost2010PropOp35
 70
     0
102
RTVSPost2010Prop36
280
     0
102
RTVSPost2010PropOp36
 70
     0
102
RTVSPost2010Prop37
 90
       50
102
RTVSPost2010PropOp37
 70
     0
102
RTVSPost2010Prop38
140
0.0
102
RTVSPost2010PropOp38
 70
     0
102
RTVSPost2010Prop39
140
1.0
102
RTVSPost2010PropOp39
 70
     0
102
RTVSPost2010Prop40
 90
        0
102
RTVSPost2010PropOp40
 70
     0
102
RTVSPost2010Prop41ColorIndex
 90
       18
102
RTVSPost2010Prop41ColorRGB
 90
        0
102
RTVSPost2010PropOp41
 70
     0
102
RTVSPost2010Prop42
 90
       50
102
RTVSPost2010PropOp42
 70
     0
102
RTVSPost2010Prop43
 90
        3
102
RTVSPost2010PropOp43
 70
     0
102
RTVSPost2010Prop44ColorIndex
 90
        5
102
RTVSPost2010Prop44ColorRGB
 90
      255
102
RTVSPost2010PropOp44
 70
     0
102
RTVSPost2010Prop45
280
     0
102
RTVSPost2010PropOp45
 70
     0
102
RTVSPost2010Prop46
 90
       50
102
RTVSPost2010PropOp46
 70
     0
102
RTVSPost2010Prop47
 90
       50
102
RTVSPost2010PropOp47
 70
     0
102
RTVSPost2010Prop48
 90
       50
102
RTVSPost2010PropOp48
 70
     0
102
RTVSPost2010Prop49
280
     0
102
RTVSPost2010PropOp49
 70
     0
102
RTVSPost2010Prop50
 90
       50
102
RTVSPost2010PropOp50
 70
     0
102
RTVSPost2010Prop51ColorIndex
 90
      256
102
RTVSPost2010Prop51ColorRGB
 90
-16777216
102
RTVSPost2010PropOp51
 70
     0
102
RTVSPost2010Prop52
140
1.0
102
RTVSPost2010PropOp52
 70
     0
102
RTVSPost2010Prop53
 90
        2
102
RTVSPost2010PropOp53
 70
     0
102
RTVSPost2010Prop54
  1
strokes_ogs.tif
102
RTVSPost2010PropOp54
 70
     0
102
RTVSPost2010Prop55
280
     0
102
RTVSPost2010PropOp55
 70
     0
102
RTVSPost2010Prop56
140
1.0
102
RTVSPost2010PropOp56
 70
     0
102
RTVSPost2010Prop57
140
1.0
102
RTVSPost2010PropOp57
 70
     0
  0
XRECORD
  5
101
102
{ACAD_REACTORS
330
100
102
}
330
100
100
AcDbXrecord
280
     1
102
RTVSPropertyOp0
 70
     1
102
RTVSPropertyOp1
 70
     1
102
RTVSPropertyOp2
 70
     1
102
RTVSPropertyOp3
 70
     1
102
RTVSPropertyOp4
 70
     1
102
RTVSPropertyOp5
 70
     1
102
RTVSPropertyOp6
 70
     1
102
RTVSPropertyOp7
 70
     1
102
RTVSPropertyOp8
 70
     1
102
RTVSPropertyOp9
 70
     1
102
RTVSPropertyOp10
 70
     1
102
RTVSPropertyOp11
 70
     1
102
RTVSPropertyOp12
 70
     1
102
RTVSPropertyOp13
 70
     1
102
RTVSPropertyOp14
 70
     1
102
RTVSPropertyOp15
 70
     1
102
RTVSPropertyOp16
 70
     1
102
RTVSPropertyOp17
 70
     1
102
RTVSPropertyOp18
 70
     1
102
RTVSPropertyOp19
 70
     1
102
RTVSPropertyOp20
 70
     1
102
RTVSPropertyOp21
 70
     1
102
RTVSPropertyOp22
 70
     1
102
RTVSPropertyOp23
 70
     1
102
RTVSPropertyOp24
 70
     1
102
RTVSPropertyOp25
 70
     1
102
RTVSPropertyOp26
 70
     1
102
RTVSPropertyOp27
 70
     1
102
RTVSPropertyOp28
 70
     1
102
RTVSPropertyOp29
 70
     1
102
RTVSPropertyOp30
 70
     1
102
RTVSPropertyOp31
 70
     1
102
RTVSPropertyOp32
 70
     1
102
RTVSPropertyOp33
 70
     1
102
RTVSPropertyOp34
 70
     1
102
RTVSPropertyOp35
 70
     1
102
RTVSPropertyOp36
 70
     1
102
RTVSPropertyOp37
 70
     1
102
RTVSPropertyOp38
 70
     1
102
RTVSPropertyOp39
 70
     1
102
RTVSPropertyOp40
 70
     1
102
RTVSPropertyOp41
 70
     1
102
RTVSPropertyOp42
 70
     1
102
RTVSPropertyOp43
 70
     1
102
RTVSPropertyOp44
 70
     1
102
RTVSPropertyOp45
 70
     1
102
RTVSPropertyOp46
 70
     1
102
RTVSPropertyOp47
 70
     1
102
RTVSPropertyOp48
 70
     1
102
RTVSPropertyOp49
 70
     1
102
RTVSPropertyOp50
 70
     1
102
RTVSPropertyOp51
 70
     0
102
RTVSPropertyOp52
 70
     0
102
RTVSPropertyOp53
 70
     1
102
RTVSPropertyOp54
 70
     1
102
RTVSPropertyOp55
 70
     1
102
RTVSPropertyOp56
 70
     1
102
RTVSPropertyOp57
 70
     1
102
RTVSPost2010Prop28
280
     0
102
RTVSPost2010PropOp28
 70
     1
102
RTVSPost2010Prop29
280
     1
102
RTVSPost2010PropOp29
 70
     1
102
RTVSPost2010Prop30
280
     1
102
RTVSPost2010PropOp30
 70
     1
102
RTVSPost2010Prop31
280
     0
102
RTVSPost2010PropOp31
 70
     1
102
RTVSPost2010Prop32
280
     0
102
RTVSPost2010PropOp32
 70
     1
102
RTVSPost2010Prop33
280
     0
102
RTVSPost2010PropOp33
 70
     1
102
RTVSPost2010Prop34
280
     0
102
RTVSPost2010PropOp34
 70
     1
102
RTVSPost2010Prop35
280
     0
102
RTVSPost2010PropOp35
 70
     1
102
RTVSPost2010Prop36
280
     0
102
RTVSPost2010PropOp36
 70
     1
102
RTVSPost2010Prop37
 90
       50
102
RTVSPost2010PropOp37
 70
     1
102
RTVSPost2010Prop38
140
0.0
102
RTVSPost2010PropOp38
 70
     1
102
RTVSPost2010Prop39
140
1.0
102
RTVSPost2010PropOp39
 70
     1
102
RTVSPost2010Prop40
 90
        0
102
RTVSPost2010PropOp40
 70
     1
102
RTVSPost2010Prop41ColorIndex
 90
       18
102
RTVSPost2010Prop41ColorRGB
 90
        0
102
RTVSPost2010PropOp41
 70
     1
102
RTVSPost2010Prop42
 90
       50
102
RTVSPost2010PropOp42
 70
     1
102
RTVSPost2010Prop43
 90
        3
102
RTVSPost2010PropOp43
 70
     1
102
RTVSPost2010Prop44ColorIndex
 90
        5
102
RTVSPost2010Prop44ColorRGB
 90
      255
102
RTVSPost2010PropOp44
 70
     1
102
RTVSPost2010Prop45
280
     0
102
RTVSPost2010PropOp45
 70
     1
102
RTVSPost2010Prop46
 90
       50
102
RTVSPost2010PropOp46
 70
     1
102
RTVSPost2010Prop47
 90
       50
102
RTVSPost2010PropOp47
 70
     1
102
RTVSPost2010Prop48
 90
       50
102
RTVSPost2010PropOp48
 70
     1
102
RTVSPost2010Prop49
280
     0
102
RTVSPost2010PropOp49
 70
     1
102
RTVSPost2010Prop50
 90
       50
102
RTVSPost2010PropOp50
 70
     1
102
RTVSPost2010Prop51ColorIndex
 90
      256
102
RTVSPost2010Prop51ColorRGB
 90
-16777216
102
RTVSPost2010PropOp51
 70
     0
102
RTVSPost2010Prop52
140
1.0
102
RTVSPost2010PropOp52
 70
     0
102
RTVSPost2010Prop53
 90
        2
102
RTVSPost2010PropOp53
 70
     1
102
RTVSPost2010Prop54
  1
strokes_ogs.tif
102
RTVSPost2010PropOp54
 70
     1
102
RTVSPost2010Prop55
280
     0
102
RTVSPost2010PropOp55
 70
     1
102
RTVSPost2010Prop56
140
1.0
102
RTVSPost2010PropOp56
 70
     1
102
RTVSPost2010Prop57
140
1.0
102
RTVSPost2010PropOp57
 70
     1
  0
XRECORD
  5
11F
102
{ACAD_REACTORS
330
11E
102
}
330
11E
100
AcDbXrecord
280
     1
102
RTVSPropertyOp0
 70
     1
102
RTVSPropertyOp1
 70
     1
102
RTVSPropertyOp2
 70
     1
102
RTVSPropertyOp3
 70
     1
102
RTVSPropertyOp4
 70
     1
102
RTVSPropertyOp5
 70
     1
102
RTVSPropertyOp6
 70
     1
102
RTVSPropertyOp7
 70
     1
102
RTVSPropertyOp8
 70
     1
102
RTVSPropertyOp9
 70
     1
102
RTVSPropertyOp10
 70
     1
102
RTVSPropertyOp11
 70
     1
102
RTVSPropertyOp12
 70
     1
102
RTVSPropertyOp13
 70
     1
102
RTVSPropertyOp14
 70
     1
102
RTVSPropertyOp15
 70
     1
102
RTVSPropertyOp16
 70
     1
102
RTVSPropertyOp17
 70
     1
102
RTVSPropertyOp18
 70
     1
102
RTVSPropertyOp19
 70
     1
102
RTVSPropertyOp20
 70
     1
102
RTVSPropertyOp21
 70
     1
102
RTVSPropertyOp22
 70
     1
102
RTVSPropertyOp23
 70
     1
102
RTVSPropertyOp24
 70
     1
102
RTVSPropertyOp25
 70
     1
102
RTVSPropertyOp26
 70
     1
102
RTVSPropertyOp27
 70
     1
102
RTVSPropertyOp28
 70
     1
102
RTVSPropertyOp29
 70
     1
102
RTVSPropertyOp30
 70
     1
102
RTVSPropertyOp31
 70
     1
102
RTVSPropertyOp32
 70
     1
102
RTVSPropertyOp33
 70
     1
102
RTVSPropertyOp34
 70
     1
102
RTVSPropertyOp35
 70
     1
102
RTVSPropertyOp36
 70
     1
102
RTVSPropertyOp37
 70
     1
102
RTVSPropertyOp38
 70
     1
102
RTVSPropertyOp39
 70
     1
102
RTVSPropertyOp40
 70
     1
102
RTVSPropertyOp41
 70
     1
102
RTVSPropertyOp42
 70
     1
102
RTVSPropertyOp43
 70
     1
102
RTVSPropertyOp44
 70
     1
102
RTVSPropertyOp45
 70
     1
102
RTVSPropertyOp46
 70
     1
102
RTVSPropertyOp47
 70
     1
102
RTVSPropertyOp48
 70
     1
102
RTVSPropertyOp49
 70
     1
102
RTVSPropertyOp50
 70
     1
102
RTVSPropertyOp51
 70
     0
102
RTVSPropertyOp52
 70
     0
102
RTVSPropertyOp53
 70
     1
102
RTVSPropertyOp54
 70
     1
102
RTVSPropertyOp55
 70
     1
102
RTVSPropertyOp56
 70
     1
102
RTVSPropertyOp57
 70
     1
102
RTVSPost2010Prop28
280
     0
102
RTVSPost2010PropOp28
 70
     1
102
RTVSPost2010Prop29
280
     1
102
RTVSPost2010PropOp29
 70
     1
102
RTVSPost2010Prop30
280
     1
102
RTVSPost2010PropOp30
 70
     1
102
RTVSPost2010Prop31
280
     0
102
RTVSPost2010PropOp31
 70
     1
102
RTVSPost2010Prop32
280
     0
102
RTVSPost2010PropOp32
 70
     1
102
RTVSPost2010Prop33
280
     0
102
RTVSPost2010PropOp33
 70
     1
102
RTVSPost2010Prop34
280
     0
102
RTVSPost2010PropOp34
 70
     1
102
RTVSPost2010Prop35
280
     0
102
RTVSPost2010PropOp35
 70
     1
102
RTVSPost2010Prop36
280
     0
102
RTVSPost2010PropOp36
 70
     1
102
RTVSPost2010Prop37
 90
       50
102
RTVSPost2010PropOp37
 70
     1
102
RTVSPost2010Prop38
140
0.0
102
RTVSPost2010PropOp38
 70
     1
102
RTVSPost2010Prop39
140
1.0
102
RTVSPost2010PropOp39
 70
     1
102
RTVSPost2010Prop40
 90
        0
102
RTVSPost2010PropOp40
 70
     1
102
RTVSPost2010Prop41ColorIndex
 90
       18
102
RTVSPost2010Prop41ColorRGB
 90
        0
102
RTVSPost2010PropOp41
 70
     1
102
RTVSPost2010Prop42
 90
       50
102
RTVSPost2010PropOp42
 70
     1
102
RTVSPost2010Prop43
 90
        3
102
RTVSPost2010PropOp43
 70
     1
102
RTVSPost2010Prop44ColorIndex
 90
        5
102
RTVSPost2010Prop44ColorRGB
 90
      255
102
RTVSPost2010PropOp44
 70
     1
102
RTVSPost2010Prop45
280
     0
102
RTVSPost2010PropOp45
 70
     1
102
RTVSPost2010Prop46
 90
       50
102
RTVSPost2010PropOp46
 70
     1
102
RTVSPost2010Prop47
 90
       50
102
RTVSPost2010PropOp47
 70
     1
102
RTVSPost2010Prop48
 90
       50
102
RTVSPost2010PropOp48
 70
     1
102
RTVSPost2010Prop49
280
     0
102
RTVSPost2010PropOp49
 70
     1
102
RTVSPost2010Prop50
 90
       50
102
RTVSPost2010PropOp50
 70
     1
102
RTVSPost2010Prop51ColorIndex
 90
      256
102
RTVSPost2010Prop51ColorRGB
 90
-16777216
102
RTVSPost2010PropOp51
 70
     0
102
RTVSPost2010Prop52
140
1.0
102
RTVSPost2010PropOp52
 70
     0
102
RTVSPost2010Prop53
 90
        2
102
RTVSPost2010PropOp53
 70
     1
102
RTVSPost2010Prop54
  1
strokes_ogs.tif
102
RTVSPost2010PropOp54
 70
     1
102
RTVSPost2010Prop55
280
     0
102
RTVSPost2010PropOp55
 70
     1
102
RTVSPost2010Prop56
140
1.0
102
RTVSPost2010PropOp56
 70
     1
102
RTVSPost2010Prop57
140
1.0
102
RTVSPost2010PropOp57
 70
     1
  0
XRECORD
  5
11D
102
{ACAD_REACTORS
330
11C
102
}
330
11C
100
AcDbXrecord
280
     1
102
RTVSPropertyOp0
 70
     1
102
RTVSPropertyOp1
 70
     1
102
RTVSPropertyOp2
 70
     1
102
RTVSPropertyOp3
 70
     1
102
RTVSPropertyOp4
 70
     1
102
RTVSPropertyOp5
 70
     1
102
RTVSPropertyOp6
 70
     1
102
RTVSPropertyOp7
 70
     1
102
RTVSPropertyOp8
 70
     1
102
RTVSPropertyOp9
 70
     1
102
RTVSPropertyOp10
 70
     1
102
RTVSPropertyOp11
 70
     1
102
RTVSPropertyOp12
 70
     1
102
RTVSPropertyOp13
 70
     1
102
RTVSPropertyOp14
 70
     1
102
RTVSPropertyOp15
 70
     1
102
RTVSPropertyOp16
 70
     1
102
RTVSPropertyOp17
 70
     1
102
RTVSPropertyOp18
 70
     1
102
RTVSPropertyOp19
 70
     1
102
RTVSPropertyOp20
 70
     1
102
RTVSPropertyOp21
 70
     1
102
RTVSPropertyOp22
 70
     1
102
RTVSPropertyOp23
 70
     1
102
RTVSPropertyOp24
 70
     1
102
RTVSPropertyOp25
 70
     1
102
RTVSPropertyOp26
 70
     1
102
RTVSPropertyOp27
 70
     1
102
RTVSPropertyOp28
 70
     1
102
RTVSPropertyOp29
 70
     1
102
RTVSPropertyOp30
 70
     1
102
RTVSPropertyOp31
 70
     1
102
RTVSPropertyOp32
 70
     1
102
RTVSPropertyOp33
 70
     1
102
RTVSPropertyOp34
 70
     1
102
RTVSPropertyOp35
 70
     1
102
RTVSPropertyOp36
 70
     1
102
RTVSPropertyOp37
 70
     1
102
RTVSPropertyOp38
 70
     1
102
RTVSPropertyOp39
 70
     1
102
RTVSPropertyOp40
 70
     1
102
RTVSPropertyOp41
 70
     1
102
RTVSPropertyOp42
 70
     1
102
RTVSPropertyOp43
 70
     1
102
RTVSPropertyOp44
 70
     1
102
RTVSPropertyOp45
 70
     1
102
RTVSPropertyOp46
 70
     1
102
RTVSPropertyOp47
 70
     1
102
RTVSPropertyOp48
 70
     1
102
RTVSPropertyOp49
 70
     1
102
RTVSPropertyOp50
 70
     1
102
RTVSPropertyOp51
 70
     0
102
RTVSPropertyOp52
 70
     0
102
RTVSPropertyOp53
 70
     1
102
RTVSPropertyOp54
 70
     1
102
RTVSPropertyOp55
 70
     1
102
RTVSPropertyOp56
 70
     1
102
RTVSPropertyOp57
 70
     1
102
RTVSPost2010Prop28
280
     0
102
RTVSPost2010PropOp28
 70
     1
102
RTVSPost2010Prop29
280
     1
102
RTVSPost2010PropOp29
 70
     1
102
RTVSPost2010Prop30
280
     1
102
RTVSPost2010PropOp30
 70
     1
102
RTVSPost2010Prop31
280
     0
102
RTVSPost2010PropOp31
 70
     1
102
RTVSPost2010Prop32
280
     0
102
RTVSPost2010PropOp32
 70
     1
102
RTVSPost2010Prop33
280
     0
102
RTVSPost2010PropOp33
 70
     1
102
RTVSPost2010Prop34
280
     0
102
RTVSPost2010PropOp34
 70
     1
102
RTVSPost2010Prop35
280
     0
102
RTVSPost2010PropOp35
 70
     1
102
RTVSPost2010Prop36
280
     0
102
RTVSPost2010PropOp36
 70
     1
102
RTVSPost2010Prop37
 90
       50
102
RTVSPost2010PropOp37
 70
     1
102
RTVSPost2010Prop38
140
0.0
102
RTVSPost2010PropOp38
 70
     1
102
RTVSPost2010Prop39
140
1.0
102
RTVSPost2010PropOp39
 70
     1
102
RTVSPost2010Prop40
 90
        0
102
RTVSPost2010PropOp40
 70
     1
102
RTVSPost2010Prop41ColorIndex
 90
       18
102
RTVSPost2010Prop41ColorRGB
 90
        0
102
RTVSPost2010PropOp41
 70
     1
102
RTVSPost2010Prop42
 90
       50
102
RTVSPost2010PropOp42
 70
     1
102
RTVSPost2010Prop43
 90
        3
102
RTVSPost2010PropOp43
 70
     1
102
RTVSPost2010Prop44ColorIndex
 90
        5
102
RTVSPost2010Prop44ColorRGB
 90
      255
102
RTVSPost2010PropOp44
 70
     1
102
RTVSPost2010Prop45
280
     0
102
RTVSPost2010PropOp45
 70
     1
102
RTVSPost2010Prop46
 90
       50
102
RTVSPost2010PropOp46
 70
     1
102
RTVSPost2010Prop47
 90
       50
102
RTVSPost2010PropOp47
 70
     1
102
RTVSPost2010Prop48
 90
       50
102
RTVSPost2010PropOp48
 70
     1
102
RTVSPost2010Prop49
280
     0
102
RTVSPost2010PropOp49
 70
     1
102
RTVSPost2010Prop50
 90
       50
102
RTVSPost2010PropOp50
 70
     1
102
RTVSPost2010Prop51ColorIndex
 90
      256
102
RTVSPost2010Prop51ColorRGB
 90
-16777216
102
RTVSPost2010PropOp51
 70
     0
102
RTVSPost2010Prop52
140
1.0
102
RTVSPost2010PropOp52
 70
     0
102
RTVSPost2010Prop53
 90
        2
102
RTVSPost2010PropOp53
 70
     1
102
RTVSPost2010Prop54
  1
strokes_ogs.tif
102
RTVSPost2010PropOp54
 70
     1
102
RTVSPost2010Prop55
280
     0
102
RTVSPost2010PropOp55
 70
     1
102
RTVSPost2010Prop56
140
1.0
102
RTVSPost2010PropOp56
 70
     1
102
RTVSPost2010Prop57
140
1.0
102
RTVSPost2010PropOp57
 70
     1
  0
XRECORD
  5
117
102
{ACAD_REACTORS
330
116
102
}
330
116
100
AcDbXrecord
280
     1
102
RTVSPropertyOp0
 70
     1
102
RTVSPropertyOp1
 70
     1
102
RTVSPropertyOp2
 70
     1
102
RTVSPropertyOp3
 70
     1
102
RTVSPropertyOp4
 70
     1
102
RTVSPropertyOp5
 70
     1
102
RTVSPropertyOp6
 70
     1
102
RTVSPropertyOp7
 70
     1
102
RTVSPropertyOp8
 70
     1
102
RTVSPropertyOp9
 70
     1
102
RTVSPropertyOp10
 70
     1
102
RTVSPropertyOp11
 70
     1
102
RTVSPropertyOp12
 70
     1
102
RTVSPropertyOp13
 70
     1
102
RTVSPropertyOp14
 70
     1
102
RTVSPropertyOp15
 70
     1
102
RTVSPropertyOp16
 70
     1
102
RTVSPropertyOp17
 70
     1
102
RTVSPropertyOp18
 70
     1
102
RTVSPropertyOp19
 70
     1
102
RTVSPropertyOp20
 70
     1
102
RTVSPropertyOp21
 70
     1
102
RTVSPropertyOp22
 70
     1
102
RTVSPropertyOp23
 70
     1
102
RTVSPropertyOp24
 70
     1
102
RTVSPropertyOp25
 70
     1
102
RTVSPropertyOp26
 70
     1
102
RTVSPropertyOp27
 70
     1
102
RTVSPropertyOp28
 70
     1
102
RTVSPropertyOp29
 70
     1
102
RTVSPropertyOp30
 70
     1
102
RTVSPropertyOp31
 70
     1
102
RTVSPropertyOp32
 70
     1
102
RTVSPropertyOp33
 70
     1
102
RTVSPropertyOp34
 70
     1
102
RTVSPropertyOp35
 70
     1
102
RTVSPropertyOp36
 70
     1
102
RTVSPropertyOp37
 70
     1
102
RTVSPropertyOp38
 70
     1
102
RTVSPropertyOp39
 70
     1
102
RTVSPropertyOp40
 70
     1
102
RTVSPropertyOp41
 70
     1
102
RTVSPropertyOp42
 70
     1
102
RTVSPropertyOp43
 70
     1
102
RTVSPropertyOp44
 70
     1
102
RTVSPropertyOp45
 70
     1
102
RTVSPropertyOp46
 70
     1
102
RTVSPropertyOp47
 70
     1
102
RTVSPropertyOp48
 70
     1
102
RTVSPropertyOp49
 70
     1
102
RTVSPropertyOp50
 70
     1
102
RTVSPropertyOp51
 70
     0
102
RTVSPropertyOp52
 70
     0
102
RTVSPropertyOp53
 70
     1
102
RTVSPropertyOp54
 70
     1
102
RTVSPropertyOp55
 70
     1
102
RTVSPropertyOp56
 70
     1
102
RTVSPropertyOp57
 70
     1
102
RTVSPost2010Prop28
280
     0
102
RTVSPost2010PropOp28
 70
     1
102
RTVSPost2010Prop29
280
     1
102
RTVSPost2010PropOp29
 70
     1
102
RTVSPost2010Prop30
280
     1
102
RTVSPost2010PropOp30
 70
     1
102
RTVSPost2010Prop31
280
     0
102
RTVSPost2010PropOp31
 70
     1
102
RTVSPost2010Prop32
280
     0
102
RTVSPost2010PropOp32
 70
     1
102
RTVSPost2010Prop33
280
     0
102
RTVSPost2010PropOp33
 70
     1
102
RTVSPost2010Prop34
280
     0
102
RTVSPost2010PropOp34
 70
     1
102
RTVSPost2010Prop35
280
     0
102
RTVSPost2010PropOp35
 70
     1
102
RTVSPost2010Prop36
280
     0
102
RTVSPost2010PropOp36
 70
     1
102
RTVSPost2010Prop37
 90
       50
102
RTVSPost2010PropOp37
 70
     1
102
RTVSPost2010Prop38
140
0.0
102
RTVSPost2010PropOp38
 70
     1
102
RTVSPost2010Prop39
140
1.0
102
RTVSPost2010PropOp39
 70
     1
102
RTVSPost2010Prop40
 90
        0
102
RTVSPost2010PropOp40
 70
     1
102
RTVSPost2010Prop41ColorIndex
 90
       18
102
RTVSPost2010Prop41ColorRGB
 90
        0
102
RTVSPost2010PropOp41
 70
     1
102
RTVSPost2010Prop42
 90
       50
102
RTVSPost2010PropOp42
 70
     1
102
RTVSPost2010Prop43
 90
        3
102
RTVSPost2010PropOp43
 70
     1
102
RTVSPost2010Prop44ColorIndex
 90
        5
102
RTVSPost2010Prop44ColorRGB
 90
      255
102
RTVSPost2010PropOp44
 70
     1
102
RTVSPost2010Prop45
280
     0
102
RTVSPost2010PropOp45
 70
     1
102
RTVSPost2010Prop46
 90
       50
102
RTVSPost2010PropOp46
 70
     1
102
RTVSPost2010Prop47
 90
       50
102
RTVSPost2010PropOp47
 70
     1
102
RTVSPost2010Prop48
 90
       50
102
RTVSPost2010PropOp48
 70
     1
102
RTVSPost2010Prop49
280
     0
102
RTVSPost2010PropOp49
 70
     1
102
RTVSPost2010Prop50
 90
       50
102
RTVSPost2010PropOp50
 70
     1
102
RTVSPost2010Prop51ColorIndex
 90
      256
102
RTVSPost2010Prop51ColorRGB
 90
-16777216
102
RTVSPost2010PropOp51
 70
     0
102
RTVSPost2010Prop52
140
1.0
102
RTVSPost2010PropOp52
 70
     0
102
RTVSPost2010Prop53
 90
        2
102
RTVSPost2010PropOp53
 70
     1
102
RTVSPost2010Prop54
  1
strokes_ogs.tif
102
RTVSPost2010PropOp54
 70
     1
102
RTVSPost2010Prop55
280
     0
102
RTVSPost2010PropOp55
 70
     1
102
RTVSPost2010Prop56
140
1.0
102
RTVSPost2010PropOp56
 70
     1
102
RTVSPost2010Prop57
140
1.0
102
RTVSPost2010PropOp57
 70
     1
  0
XRECORD
  5
119
102
{ACAD_REACTORS
330
118
102
}
330
118
100
AcDbXrecord
280
     1
102
RTVSPropertyOp0
 70
     1
102
RTVSPropertyOp1
 70
     1
102
RTVSPropertyOp2
 70
     1
102
RTVSPropertyOp3
 70
     1
102
RTVSPropertyOp4
 70
     1
102
RTVSPropertyOp5
 70
     1
102
RTVSPropertyOp6
 70
     1
102
RTVSPropertyOp7
 70
     1
102
RTVSPropertyOp8
 70
     1
102
RTVSPropertyOp9
 70
     1
102
RTVSPropertyOp10
 70
     1
102
RTVSPropertyOp11
 70
     1
102
RTVSPropertyOp12
 70
     1
102
RTVSPropertyOp13
 70
     1
102
RTVSPropertyOp14
 70
     1
102
RTVSPropertyOp15
 70
     1
102
RTVSPropertyOp16
 70
     1
102
RTVSPropertyOp17
 70
     1
102
RTVSPropertyOp18
 70
     1
102
RTVSPropertyOp19
 70
     1
102
RTVSPropertyOp20
 70
     1
102
RTVSPropertyOp21
 70
     1
102
RTVSPropertyOp22
 70
     1
102
RTVSPropertyOp23
 70
     1
102
RTVSPropertyOp24
 70
     1
102
RTVSPropertyOp25
 70
     1
102
RTVSPropertyOp26
 70
     1
102
RTVSPropertyOp27
 70
     1
102
RTVSPropertyOp28
 70
     1
102
RTVSPropertyOp29
 70
     1
102
RTVSPropertyOp30
 70
     1
102
RTVSPropertyOp31
 70
     1
102
RTVSPropertyOp32
 70
     1
102
RTVSPropertyOp33
 70
     1
102
RTVSPropertyOp34
 70
     1
102
RTVSPropertyOp35
 70
     1
102
RTVSPropertyOp36
 70
     1
102
RTVSPropertyOp37
 70
     1
102
RTVSPropertyOp38
 70
     1
102
RTVSPropertyOp39
 70
     1
102
RTVSPropertyOp40
 70
     1
102
RTVSPropertyOp41
 70
     1
102
RTVSPropertyOp42
 70
     1
102
RTVSPropertyOp43
 70
     1
102
RTVSPropertyOp44
 70
     1
102
RTVSPropertyOp45
 70
     1
102
RTVSPropertyOp46
 70
     1
102
RTVSPropertyOp47
 70
     1
102
RTVSPropertyOp48
 70
     1
102
RTVSPropertyOp49
 70
     1
102
RTVSPropertyOp50
 70
     1
102
RTVSPropertyOp51
 70
     0
102
RTVSPropertyOp52
 70
     0
102
RTVSPropertyOp53
 70
     1
102
RTVSPropertyOp54
 70
     1
102
RTVSPropertyOp55
 70
     1
102
RTVSPropertyOp56
 70
     1
102
RTVSPropertyOp57
 70
     1
102
RTVSPost2010Prop28
280
     0
102
RTVSPost2010PropOp28
 70
     1
102
RTVSPost2010Prop29
280
     1
102
RTVSPost2010PropOp29
 70
     1
102
RTVSPost2010Prop30
280
     1
102
RTVSPost2010PropOp30
 70
     1
102
RTVSPost2010Prop31
280
     0
102
RTVSPost2010PropOp31
 70
     1
102
RTVSPost2010Prop32
280
     0
102
RTVSPost2010PropOp32
 70
     1
102
RTVSPost2010Prop33
280
     0
102
RTVSPost2010PropOp33
 70
     1
102
RTVSPost2010Prop34
280
     0
102
RTVSPost2010PropOp34
 70
     1
102
RTVSPost2010Prop35
280
     0
102
RTVSPost2010PropOp35
 70
     1
102
RTVSPost2010Prop36
280
     0
102
RTVSPost2010PropOp36
 70
     1
102
RTVSPost2010Prop37
 90
       50
102
RTVSPost2010PropOp37
 70
     1
102
RTVSPost2010Prop38
140
0.0
102
RTVSPost2010PropOp38
 70
     1
102
RTVSPost2010Prop39
140
1.0
102
RTVSPost2010PropOp39
 70
     1
102
RTVSPost2010Prop40
 90
        0
102
RTVSPost2010PropOp40
 70
     1
102
RTVSPost2010Prop41ColorIndex
 90
       18
102
RTVSPost2010Prop41ColorRGB
 90
        0
102
RTVSPost2010PropOp41
 70
     1
102
RTVSPost2010Prop42
 90
       50
102
RTVSPost2010PropOp42
 70
     1
102
RTVSPost2010Prop43
 90
        3
102
RTVSPost2010PropOp43
 70
     1
102
RTVSPost2010Prop44ColorIndex
 90
        5
102
RTVSPost2010Prop44ColorRGB
 90
      255
102
RTVSPost2010PropOp44
 70
     1
102
RTVSPost2010Prop45
280
     0
102
RTVSPost2010PropOp45
 70
     1
102
RTVSPost2010Prop46
 90
       50
102
RTVSPost2010PropOp46
 70
     1
102
RTVSPost2010Prop47
 90
       50
102
RTVSPost2010PropOp47
 70
     1
102
RTVSPost2010Prop48
 90
       50
102
RTVSPost2010PropOp48
 70
     1
102
RTVSPost2010Prop49
280
     0
102
RTVSPost2010PropOp49
 70
     1
102
RTVSPost2010Prop50
 90
       50
102
RTVSPost2010PropOp50
 70
     1
102
RTVSPost2010Prop51ColorIndex
 90
      256
102
RTVSPost2010Prop51ColorRGB
 90
-16777216
102
RTVSPost2010PropOp51
 70
     0
102
RTVSPost2010Prop52
140
1.0
102
RTVSPost2010PropOp52
 70
     0
102
RTVSPost2010Prop53
 90
        2
102
RTVSPost2010PropOp53
 70
     1
102
RTVSPost2010Prop54
  1
strokes_ogs.tif
102
RTVSPost2010PropOp54
 70
     1
102
RTVSPost2010Prop55
280
     0
102
RTVSPost2010PropOp55
 70
     1
102
RTVSPost2010Prop56
140
1.0
102
RTVSPost2010PropOp56
 70
     1
102
RTVSPost2010Prop57
140
1.0
102
RTVSPost2010PropOp57
 70
     1
  0
XRECORD
  5
109
102
{ACAD_REACTORS
330
108
102
}
330
108
100
AcDbXrecord
280
     1
102
RTVSPropertyOp0
 70
     1
102
RTVSPropertyOp1
 70
     1
102
RTVSPropertyOp2
 70
     1
102
RTVSPropertyOp3
 70
     1
102
RTVSPropertyOp4
 70
     1
102
RTVSPropertyOp5
 70
     1
102
RTVSPropertyOp6
 70
     1
102
RTVSPropertyOp7
 70
     1
102
RTVSPropertyOp8
 70
     1
102
RTVSPropertyOp9
 70
     1
102
RTVSPropertyOp10
 70
     1
102
RTVSPropertyOp11
 70
     1
102
RTVSPropertyOp12
 70
     1
102
RTVSPropertyOp13
 70
     1
102
RTVSPropertyOp14
 70
     1
102
RTVSPropertyOp15
 70
     1
102
RTVSPropertyOp16
 70
     1
102
RTVSPropertyOp17
 70
     1
102
RTVSPropertyOp18
 70
     1
102
RTVSPropertyOp19
 70
     1
102
RTVSPropertyOp20
 70
     1
102
RTVSPropertyOp21
 70
     1
102
RTVSPropertyOp22
 70
     1
102
RTVSPropertyOp23
 70
     1
102
RTVSPropertyOp24
 70
     1
102
RTVSPropertyOp25
 70
     1
102
RTVSPropertyOp26
 70
     1
102
RTVSPropertyOp27
 70
     1
102
RTVSPropertyOp28
 70
     1
102
RTVSPropertyOp29
 70
     1
102
RTVSPropertyOp30
 70
     1
102
RTVSPropertyOp31
 70
     1
102
RTVSPropertyOp32
 70
     1
102
RTVSPropertyOp33
 70
     1
102
RTVSPropertyOp34
 70
     1
102
RTVSPropertyOp35
 70
     1
102
RTVSPropertyOp36
 70
     1
102
RTVSPropertyOp37
 70
     1
102
RTVSPropertyOp38
 70
     1
102
RTVSPropertyOp39
 70
     1
102
RTVSPropertyOp40
 70
     1
102
RTVSPropertyOp41
 70
     1
102
RTVSPropertyOp42
 70
     1
102
RTVSPropertyOp43
 70
     1
102
RTVSPropertyOp44
 70
     1
102
RTVSPropertyOp45
 70
     1
102
RTVSPropertyOp46
 70
     1
102
RTVSPropertyOp47
 70
     1
102
RTVSPropertyOp48
 70
     1
102
RTVSPropertyOp49
 70
     1
102
RTVSPropertyOp50
 70
     1
102
RTVSPropertyOp51
 70
     0
102
RTVSPropertyOp52
 70
     0
102
RTVSPropertyOp53
 70
     1
102
RTVSPropertyOp54
 70
     1
102
RTVSPropertyOp55
 70
     1
102
RTVSPropertyOp56
 70
     1
102
RTVSPropertyOp57
 70
     1
102
RTVSPost2010Prop28
280
     0
102
RTVSPost2010PropOp28
 70
     1
102
RTVSPost2010Prop29
280
     1
102
RTVSPost2010PropOp29
 70
     1
102
RTVSPost2010Prop30
280
     1
102
RTVSPost2010PropOp30
 70
     1
102
RTVSPost2010Prop31
280
     0
102
RTVSPost2010PropOp31
 70
     1
102
RTVSPost2010Prop32
280
     0
102
RTVSPost2010PropOp32
 70
     1
102
RTVSPost2010Prop33
280
     0
102
RTVSPost2010PropOp33
 70
     1
102
RTVSPost2010Prop34
280
     0
102
RTVSPost2010PropOp34
 70
     1
102
RTVSPost2010Prop35
280
     0
102
RTVSPost2010PropOp35
 70
     1
102
RTVSPost2010Prop36
280
     0
102
RTVSPost2010PropOp36
 70
     1
102
RTVSPost2010Prop37
 90
       50
102
RTVSPost2010PropOp37
 70
     1
102
RTVSPost2010Prop38
140
0.0
102
RTVSPost2010PropOp38
 70
     1
102
RTVSPost2010Prop39
140
1.0
102
RTVSPost2010PropOp39
 70
     1
102
RTVSPost2010Prop40
 90
        0
102
RTVSPost2010PropOp40
 70
     1
102
RTVSPost2010Prop41ColorIndex
 90
       18
102
RTVSPost2010Prop41ColorRGB
 90
        0
102
RTVSPost2010PropOp41
 70
     1
102
RTVSPost2010Prop42
 90
       50
102
RTVSPost2010PropOp42
 70
     1
102
RTVSPost2010Prop43
 90
        3
102
RTVSPost2010PropOp43
 70
     1
102
RTVSPost2010Prop44ColorIndex
 90
        5
102
RTVSPost2010Prop44ColorRGB
 90
      255
102
RTVSPost2010PropOp44
 70
     1
102
RTVSPost2010Prop45
280
     0
102
RTVSPost2010PropOp45
 70
     1
102
RTVSPost2010Prop46
 90
       50
102
RTVSPost2010PropOp46
 70
     1
102
RTVSPost2010Prop47
 90
       50
102
RTVSPost2010PropOp47
 70
     1
102
RTVSPost2010Prop48
 90
       50
102
RTVSPost2010PropOp48
 70
     1
102
RTVSPost2010Prop49
280
     0
102
RTVSPost2010PropOp49
 70
     1
102
RTVSPost2010Prop50
 90
       50
102
RTVSPost2010PropOp50
 70
     1
102
RTVSPost2010Prop51ColorIndex
 90
      256
102
RTVSPost2010Prop51ColorRGB
 90
-16777216
102
RTVSPost2010PropOp51
 70
     0
102
RTVSPost2010Prop52
140
1.0
102
RTVSPost2010PropOp52
 70
     0
102
RTVSPost2010Prop53
 90
        2
102
RTVSPost2010PropOp53
 70
     1
102
RTVSPost2010Prop54
  1
strokes_ogs.tif
102
RTVSPost2010PropOp54
 70
     1
102
RTVSPost2010Prop55
280
     0
102
RTVSPost2010PropOp55
 70
     1
102
RTVSPost2010Prop56
140
1.0
102
RTVSPost2010PropOp56
 70
     1
102
RTVSPost2010Prop57
140
1.0
102
RTVSPost2010PropOp57
 70
     1
  0
XRECORD
  5
FB
102
{ACAD_REACTORS
330
FA
102
}
330
FA
100
AcDbXrecord
280
     1
102
RTVSPropertyOp0
 70
     1
102
RTVSPropertyOp1
 70
     1
102
RTVSPropertyOp2
 70
     1
102
RTVSPropertyOp3
 70
     1
102
RTVSPropertyOp4
 70
     1
102
RTVSPropertyOp5
 70
     1
102
RTVSPropertyOp6
 70
     1
102
RTVSPropertyOp7
 70
     1
102
RTVSPropertyOp8
 70
     1
102
RTVSPropertyOp9
 70
     1
102
RTVSPropertyOp10
 70
     1
102
RTVSPropertyOp11
 70
     1
102
RTVSPropertyOp12
 70
     1
102
RTVSPropertyOp13
 70
     1
102
RTVSPropertyOp14
 70
     1
102
RTVSPropertyOp15
 70
     1
102
RTVSPropertyOp16
 70
     1
102
RTVSPropertyOp17
 70
     1
102
RTVSPropertyOp18
 70
     1
102
RTVSPropertyOp19
 70
     1
102
RTVSPropertyOp20
 70
     1
102
RTVSPropertyOp21
 70
     1
102
RTVSPropertyOp22
 70
     1
102
RTVSPropertyOp23
 70
     1
102
RTVSPropertyOp24
 70
     1
102
RTVSPropertyOp25
 70
     1
102
RTVSPropertyOp26
 70
     1
102
RTVSPropertyOp27
 70
     1
102
RTVSPropertyOp28
 70
     1
102
RTVSPropertyOp29
 70
     1
102
RTVSPropertyOp30
 70
     1
102
RTVSPropertyOp31
 70
     1
102
RTVSPropertyOp32
 70
     1
102
RTVSPropertyOp33
 70
     1
102
RTVSPropertyOp34
 70
     1
102
RTVSPropertyOp35
 70
     1
102
RTVSPropertyOp36
 70
     1
102
RTVSPropertyOp37
 70
     1
102
RTVSPropertyOp38
 70
     1
102
RTVSPropertyOp39
 70
     1
102
RTVSPropertyOp40
 70
     1
102
RTVSPropertyOp41
 70
     1
102
RTVSPropertyOp42
 70
     1
102
RTVSPropertyOp43
 70
     1
102
RTVSPropertyOp44
 70
     1
102
RTVSPropertyOp45
 70
     1
102
RTVSPropertyOp46
 70
     1
102
RTVSPropertyOp47
 70
     1
102
RTVSPropertyOp48
 70
     1
102
RTVSPropertyOp49
 70
     1
102
RTVSPropertyOp50
 70
     1
102
RTVSPropertyOp51
 70
     0
102
RTVSPropertyOp52
 70
     0
102
RTVSPropertyOp53
 70
     1
102
RTVSPropertyOp54
 70
     1
102
RTVSPropertyOp55
 70
     1
102
RTVSPropertyOp56
 70
     1
102
RTVSPropertyOp57
 70
     1
102
RTVSPost2010Prop28
280
     0
102
RTVSPost2010PropOp28
 70
     1
102
RTVSPost2010Prop29
280
     1
102
RTVSPost2010PropOp29
 70
     1
102
RTVSPost2010Prop30
280
     1
102
RTVSPost2010PropOp30
 70
     1
102
RTVSPost2010Prop31
280
     0
102
RTVSPost2010PropOp31
 70
     1
102
RTVSPost2010Prop32
280
     0
102
RTVSPost2010PropOp32
 70
     1
102
RTVSPost2010Prop33
280
     0
102
RTVSPost2010PropOp33
 70
     1
102
RTVSPost2010Prop34
280
     0
102
RTVSPost2010PropOp34
 70
     1
102
RTVSPost2010Prop35
280
     0
102
RTVSPost2010PropOp35
 70
     1
102
RTVSPost2010Prop36
280
     0
102
RTVSPost2010PropOp36
 70
     1
102
RTVSPost2010Prop37
 90
       50
102
RTVSPost2010PropOp37
 70
     1
102
RTVSPost2010Prop38
140
0.0
102
RTVSPost2010PropOp38
 70
     1
102
RTVSPost2010Prop39
140
1.0
102
RTVSPost2010PropOp39
 70
     1
102
RTVSPost2010Prop40
 90
        0
102
RTVSPost2010PropOp40
 70
     1
102
RTVSPost2010Prop41ColorIndex
 90
       18
102
RTVSPost2010Prop41ColorRGB
 90
        0
102
RTVSPost2010PropOp41
 70
     1
102
RTVSPost2010Prop42
 90
       50
102
RTVSPost2010PropOp42
 70
     1
102
RTVSPost2010Prop43
 90
        3
102
RTVSPost2010PropOp43
 70
     1
102
RTVSPost2010Prop44ColorIndex
 90
        5
102
RTVSPost2010Prop44ColorRGB
 90
      255
102
RTVSPost2010PropOp44
 70
     1
102
RTVSPost2010Prop45
280
     0
102
RTVSPost2010PropOp45
 70
     1
102
RTVSPost2010Prop46
 90
       50
102
RTVSPost2010PropOp46
 70
     1
102
RTVSPost2010Prop47
 90
       50
102
RTVSPost2010PropOp47
 70
     1
102
RTVSPost2010Prop48
 90
       50
102
RTVSPost2010PropOp48
 70
     1
102
RTVSPost2010Prop49
280
     0
102
RTVSPost2010PropOp49
 70
     1
102
RTVSPost2010Prop50
 90
       50
102
RTVSPost2010PropOp50
 70
     1
102
RTVSPost2010Prop51ColorIndex
 90
      256
102
RTVSPost2010Prop51ColorRGB
 90
-16777216
102
RTVSPost2010PropOp51
 70
     0
102
RTVSPost2010Prop52
140
1.0
102
RTVSPost2010PropOp52
 70
     0
102
RTVSPost2010Prop53
 90
        2
102
RTVSPost2010PropOp53
 70
     1
102
RTVSPost2010Prop54
  1
strokes_ogs.tif
102
RTVSPost2010PropOp54
 70
     1
102
RTVSPost2010Prop55
280
     0
102
RTVSPost2010PropOp55
 70
     1
102
RTVSPost2010Prop56
140
1.0
102
RTVSPost2010PropOp56
 70
     1
102
RTVSPost2010Prop57
140
1.0
102
RTVSPost2010PropOp57
 70
     1
  0
XRECORD
  5
11B
102
{ACAD_REACTORS
330
11A
102
}
330
11A
100
AcDbXrecord
280
     1
102
RTVSPropertyOp0
 70
     1
102
RTVSPropertyOp1
 70
     1
102
RTVSPropertyOp2
 70
     1
102
RTVSPropertyOp3
 70
     1
102
RTVSPropertyOp4
 70
     1
102
RTVSPropertyOp5
 70
     1
102
RTVSPropertyOp6
 70
     1
102
RTVSPropertyOp7
 70
     1
102
RTVSPropertyOp8
 70
     1
102
RTVSPropertyOp9
 70
     1
102
RTVSPropertyOp10
 70
     1
102
RTVSPropertyOp11
 70
     1
102
RTVSPropertyOp12
 70
     1
102
RTVSPropertyOp13
 70
     1
102
RTVSPropertyOp14
 70
     1
102
RTVSPropertyOp15
 70
     1
102
RTVSPropertyOp16
 70
     1
102
RTVSPropertyOp17
 70
     1
102
RTVSPropertyOp18
 70
     1
102
RTVSPropertyOp19
 70
     1
102
RTVSPropertyOp20
 70
     1
102
RTVSPropertyOp21
 70
     1
102
RTVSPropertyOp22
 70
     1
102
RTVSPropertyOp23
 70
     1
102
RTVSPropertyOp24
 70
     1
102
RTVSPropertyOp25
 70
     1
102
RTVSPropertyOp26
 70
     1
102
RTVSPropertyOp27
 70
     1
102
RTVSPropertyOp28
 70
     1
102
RTVSPropertyOp29
 70
     1
102
RTVSPropertyOp30
 70
     1
102
RTVSPropertyOp31
 70
     1
102
RTVSPropertyOp32
 70
     1
102
RTVSPropertyOp33
 70
     1
102
RTVSPropertyOp34
 70
     1
102
RTVSPropertyOp35
 70
     1
102
RTVSPropertyOp36
 70
     1
102
RTVSPropertyOp37
 70
     1
102
RTVSPropertyOp38
 70
     1
102
RTVSPropertyOp39
 70
     1
102
RTVSPropertyOp40
 70
     1
102
RTVSPropertyOp41
 70
     1
102
RTVSPropertyOp42
 70
     1
102
RTVSPropertyOp43
 70
     1
102
RTVSPropertyOp44
 70
     1
102
RTVSPropertyOp45
 70
     1
102
RTVSPropertyOp46
 70
     1
102
RTVSPropertyOp47
 70
     1
102
RTVSPropertyOp48
 70
     1
102
RTVSPropertyOp49
 70
     1
102
RTVSPropertyOp50
 70
     1
102
RTVSPropertyOp51
 70
     0
102
RTVSPropertyOp52
 70
     0
102
RTVSPropertyOp53
 70
     1
102
RTVSPropertyOp54
 70
     1
102
RTVSPropertyOp55
 70
     1
102
RTVSPropertyOp56
 70
     1
102
RTVSPropertyOp57
 70
     1
102
RTVSPost2010Prop28
280
     0
102
RTVSPost2010PropOp28
 70
     1
102
RTVSPost2010Prop29
280
     1
102
RTVSPost2010PropOp29
 70
     1
102
RTVSPost2010Prop30
280
     1
102
RTVSPost2010PropOp30
 70
     1
102
RTVSPost2010Prop31
280
     0
102
RTVSPost2010PropOp31
 70
     1
102
RTVSPost2010Prop32
280
     0
102
RTVSPost2010PropOp32
 70
     1
102
RTVSPost2010Prop33
280
     0
102
RTVSPost2010PropOp33
 70
     1
102
RTVSPost2010Prop34
280
     0
102
RTVSPost2010PropOp34
 70
     1
102
RTVSPost2010Prop35
280
     0
102
RTVSPost2010PropOp35
 70
     1
102
RTVSPost2010Prop36
280
     0
102
RTVSPost2010PropOp36
 70
     1
102
RTVSPost2010Prop37
 90
       50
102
RTVSPost2010PropOp37
 70
     1
102
RTVSPost2010Prop38
140
0.0
102
RTVSPost2010PropOp38
 70
     1
102
RTVSPost2010Prop39
140
1.0
102
RTVSPost2010PropOp39
 70
     1
102
RTVSPost2010Prop40
 90
        0
102
RTVSPost2010PropOp40
 70
     1
102
RTVSPost2010Prop41ColorIndex
 90
       18
102
RTVSPost2010Prop41ColorRGB
 90
        0
102
RTVSPost2010PropOp41
 70
     1
102
RTVSPost2010Prop42
 90
       50
102
RTVSPost2010PropOp42
 70
     1
102
RTVSPost2010Prop43
 90
        3
102
RTVSPost2010PropOp43
 70
     1
102
RTVSPost2010Prop44ColorIndex
 90
        5
102
RTVSPost2010Prop44ColorRGB
 90
      255
102
RTVSPost2010PropOp44
 70
     1
102
RTVSPost2010Prop45
280
     0
102
RTVSPost2010PropOp45
 70
     1
102
RTVSPost2010Prop46
 90
       50
102
RTVSPost2010PropOp46
 70
     1
102
RTVSPost2010Prop47
 90
       50
102
RTVSPost2010PropOp47
 70
     1
102
RTVSPost2010Prop48
 90
       50
102
RTVSPost2010PropOp48
 70
     1
102
RTVSPost2010Prop49
280
     0
102
RTVSPost2010PropOp49
 70
     1
102
RTVSPost2010Prop50
 90
       50
102
RTVSPost2010PropOp50
 70
     1
102
RTVSPost2010Prop51ColorIndex
 90
      256
102
RTVSPost2010Prop51ColorRGB
 90
-16777216
102
RTVSPost2010PropOp51
 70
     0
102
RTVSPost2010Prop52
140
1.0
102
RTVSPost2010PropOp52
 70
     0
102
RTVSPost2010Prop53
 90
        2
102
RTVSPost2010PropOp53
 70
     1
102
RTVSPost2010Prop54
  1
strokes_ogs.tif
102
RTVSPost2010PropOp54
 70
     1
102
RTVSPost2010Prop55
280
     0
102
RTVSPost2010PropOp55
 70
     1
102
RTVSPost2010Prop56
140
1.0
102
RTVSPost2010PropOp56
 70
     1
102
RTVSPost2010Prop57
140
1.0
102
RTVSPost2010PropOp57
 70
     1
  0
ENDSEC
  0
EOF
