  0
SECTION
  2
HEADER
  9
$ACADVER
  1
AC1021
  9
$ACADMAINTVER
 70
    25
  9
$DWGCODEPAGE
  3
ANSI_1256
  9
$INSBASE
 10
0.0
 20
0.0
 30
0.0
  9
$EXTMIN
 10
-89.213
 20
-115.0853
 30
0.0
  9
$EXTMAX
 10
29.1207
 20
131.8128
 30
0.0
  9
$LIMMIN
 10
0.0
 20
0.0
  9
$LIMMAX
 10
12.0
 20
9.0
  9
$ORTHOMODE
 70
     0
  9
$REGENMODE
 70
     1
  9
$FILLMODE
 70
     1
  9
$QTEXTMODE
 70
     0
  9
$MIRRTEXT
 70
     1
  9
$LTSCALE
 40
1.0
  9
$ATTMODE
 70
     1
  9
$TEXTSIZE
 40
0.2
  9
$TRACEWID
 40
0.05
  9
$TEXTSTYLE
  7
Standard
  9
$CLAYER
  8
0
  9
$CELTYPE
  6
ByLayer
  9
$CECOLOR
 62
   256
  9
$CELTSCALE
 40
1.0
  9
$DISPSILH
 70
     0
  9
$DIMSCALE
 40
1.0
  9
$DIMASZ
 40
0.18
  9
$DIMEXO
 40
0.0625
  9
$DIMDLI
 40
0.38
  9
$DIMRND
 40
0.0
  9
$DIMDLE
 40
0.0
  9
$DIMEXE
 40
0.18
  9
$DIMTP
 40
0.0
  9
$DIMTM
 40
0.0
  9
$DIMTXT
 40
0.18
  9
$DIMCEN
 40
0.09
  9
$DIMTSZ
 40
0.0
  9
$DIMTOL
 70
     0
  9
$DIMLIM
 70
     0
  9
$DIMTIH
 70
     1
  9
$DIMTOH
 70
     1
  9
$DIMSE1
 70
     0
  9
$DIMSE2
 70
     0
  9
$DIMTAD
 70
     0
  9
$DIMZIN
 70
     0
  9
$DIMBLK
  1

  9
$DIMASO
 70
     1
  9
$DIMSHO
 70
     1
  9
$DIMPOST
  1

  9
$DIMAPOST
  1

  9
$DIMALT
 70
     0
  9
$DIMALTD
 70
     2
  9
$DIMALTF
 40
25.4
  9
$DIMLFAC
 40
1.0
  9
$DIMTOFL
 70
     0
  9
$DIMTVP
 40
0.0
  9
$DIMTIX
 70
     0
  9
$DIMSOXD
 70
     0
  9
$DIMSAH
 70
     0
  9
$DIMBLK1
  1

  9
$DIMBLK2
  1

  9
$DIMSTYLE
  2
Standard
  9
$DIMCLRD
 70
     0
  9
$DIMCLRE
 70
     0
  9
$DIMCLRT
 70
     0
  9
$DIMTFAC
 40
1.0
  9
$DIMGAP
 40
0.09
  9
$DIMJUST
 70
     0
  9
$DIMSD1
 70
     0
  9
$DIMSD2
 70
     0
  9
$DIMTOLJ
 70
     1
  9
$DIMTZIN
 70
     0
  9
$DIMALTZ
 70
     0
  9
$DIMALTTZ
 70
     0
  9
$DIMUPT
 70
     0
  9
$DIMDEC
 70
     4
  9
$DIMTDEC
 70
     4
  9
$DIMALTU
 70
     2
  9
$DIMALTTD
 70
     2
  9
$DIMTXSTY
  7
Standard
  9
$DIMAUNIT
 70
     0
  9
$DIMADEC
 70
     0
  9
$DIMALTRND
 40
0.0
  9
$DIMAZIN
 70
     0
  9
$DIMDSEP
 70
    46
  9
$DIMATFIT
 70
     3
  9
$DIMFRAC
 70
     0
  9
$DIMLDRBLK
  1

  9
$DIMLUNIT
 70
     2
  9
$DIMLWD
 70
    -2
  9
$DIMLWE
 70
    -2
  9
$DIMTMOVE
 70
     0
  9
$DIMFXL
 40
1.0
  9
$DIMFXLON
 70
     0
  9
$DIMJOGANG
 40
0.7853981633974483
  9
$DIMTFILL
 70
     0
  9
$DIMTFILLCLR
 70
     0
  9
$DIMARCSYM
 70
     0
  9
$DIMLTYPE
  6

  9
$DIMLTEX1
  6

  9
$DIMLTEX2
  6

  9
$LUNITS
 70
     2
  9
$LUPREC
 70
     4
  9
$SKETCHINC
 40
0.1
  9
$FILLETRAD
 40
0.5
  9
$AUNITS
 70
     0
  9
$AUPREC
 70
     0
  9
$MENU
  1
.
  9
$ELEVATION
 40
0.0
  9
$PELEVATION
 40
0.0
  9
$THICKNESS
 40
0.0
  9
$LIMCHECK
 70
     0
  9
$CHAMFERA
 40
0.5
  9
$CHAMFERB
 40
0.5
  9
$CHAMFERC
 40
1.0
  9
$CHAMFERD
 40
0.0
  9
$SKPOLY
 70
     0
  9
$TDCREATE
 40
2458492.959184282
  9
$TDUCREATE
 40
2458492.792517616
  9
$TDUPDATE
 40
2458492.959184456
  9
$TDUUPDATE
 40
2458492.792517789
  9
$TDINDWG
 40
0.0000000116
  9
$TDUSRTIMER
 40
0.0000000116
  9
$USRTIMER
 70
     1
  9
$ANGBASE
 50
0.0
  9
$ANGDIR
 70
     0
  9
$PDMODE
 70
     0
  9
$PDSIZE
 40
0.0
  9
$PLINEWID
 40
0.0
  9
$SPLFRAME
 70
     0
  9
$SPLINETYPE
 70
     6
  9
$SPLINESEGS
 70
     8
  9
$HANDSEED
  5
C7
  9
$SURFTAB1
 70
     6
  9
$SURFTAB2
 70
     6
  9
$SURFTYPE
 70
     6
  9
$SURFU
 70
     6
  9
$SURFV
 70
     6
  9
$UCSBASE
  2

  9
$UCSNAME
  2

  9
$UCSORG
 10
0.0
 20
0.0
 30
0.0
  9
$UCSXDIR
 10
1.0
 20
0.0
 30
0.0
  9
$UCSYDIR
 10
0.0
 20
1.0
 30
0.0
  9
$UCSORTHOREF
  2

  9
$UCSORTHOVIEW
 70
     0
  9
$UCSORGTOP
 10
0.0
 20
0.0
 30
0.0
  9
$UCSORGBOTTOM
 10
0.0
 20
0.0
 30
0.0
  9
$UCSORGLEFT
 10
0.0
 20
0.0
 30
0.0
  9
$UCSORGRIGHT
 10
0.0
 20
0.0
 30
0.0
  9
$UCSORGFRONT
 10
0.0
 20
0.0
 30
0.0
  9
$UCSORGBACK
 10
0.0
 20
0.0
 30
0.0
  9
$PUCSBASE
  2

  9
$PUCSNAME
  2

  9
$PUCSORG
 10
0.0
 20
0.0
 30
0.0
  9
$PUCSXDIR
 10
1.0
 20
0.0
 30
0.0
  9
$PUCSYDIR
 10
0.0
 20
1.0
 30
0.0
  9
$PUCSORTHOREF
  2

  9
$PUCSORTHOVIEW
 70
     0
  9
$PUCSORGTOP
 10
0.0
 20
0.0
 30
0.0
  9
$PUCSORGBOTTOM
 10
0.0
 20
0.0
 30
0.0
  9
$PUCSORGLEFT
 10
0.0
 20
0.0
 30
0.0
  9
$PUCSORGRIGHT
 10
0.0
 20
0.0
 30
0.0
  9
$PUCSORGFRONT
 10
0.0
 20
0.0
 30
0.0
  9
$PUCSORGBACK
 10
0.0
 20
0.0
 30
0.0
  9
$USERI1
 70
     0
  9
$USERI2
 70
     0
  9
$USERI3
 70
     0
  9
$USERI4
 70
     0
  9
$USERI5
 70
     0
  9
$USERR1
 40
0.0
  9
$USERR2
 40
0.0
  9
$USERR3
 40
0.0
  9
$USERR4
 40
0.0
  9
$USERR5
 40
0.0
  9
$WORLDVIEW
 70
     1
  9
$SHADEDGE
 70
     3
  9
$SHADEDIF
 70
    70
  9
$TILEMODE
 70
     1
  9
$MAXACTVP
 70
    64
  9
$PINSBASE
 10
0.0
 20
0.0
 30
0.0
  9
$PLIMCHECK
 70
     0
  9
$PEXTMIN
 10
1.000000000000000E+20
 20
1.000000000000000E+20
 30
1.000000000000000E+20
  9
$PEXTMAX
 10
-1.000000000000000E+20
 20
-1.000000000000000E+20
 30
-1.000000000000000E+20
  9
$PLIMMIN
 10
0.0
 20
0.0
  9
$PLIMMAX
 10
12.0
 20
9.0
  9
$UNITMODE
 70
     0
  9
$VISRETAIN
 70
     1
  9
$PLINEGEN
 70
     0
  9
$PSLTSCALE
 70
     1
  9
$TREEDEPTH
 70
  3020
  9
$CMLSTYLE
  2
Standard
  9
$CMLJUST
 70
     0
  9
$CMLSCALE
 40
1.0
  9
$PROXYGRAPHICS
 70
     1
  9
$MEASUREMENT
 70
     0
  9
$CELWEIGHT
370
    -1
  9
$ENDCAPS
280
     0
  9
$JOINSTYLE
280
     0
  9
$LWDISPLAY
290
     0
  9
$INSUNITS
 70
     4
  9
$HYPERLINKBASE
  1

  9
$STYLESHEET
  1

  9
$XEDIT
290
     1
  9
$CEPSNTYPE
380
     0
  9
$PSTYLEMODE
290
     1
  9
$FINGERPRINTGUID
  2
{1B2111FA-105F-41DE-9C00-08AADD56E301}
  9
$VERSIONGUID
  2
{FAEB1C32-E019-11D5-929B-00C0DF256EC4}
  9
$EXTNAMES
290
     1
  9
$PSVPSCALE
 40
0.0
  9
$OLESTARTUP
290
     0
  9
$SORTENTS
280
   127
  9
$INDEXCTL
280
     0
  9
$HIDETEXT
280
     1
  9
$XCLIPFRAME
290
     0
  9
$HALOGAP
280
     0
  9
$OBSCOLOR
 70
   257
  9
$OBSLTYPE
280
     0
  9
$INTERSECTIONDISPLAY
280
     0
  9
$INTERSECTIONCOLOR
 70
   257
  9
$DIMASSOC
280
     2
  9
$PROJECTNAME
  1

  9
$CAMERADISPLAY
290
     0
  9
$LENSLENGTH
 40
50.0
  9
$CAMERAHEIGHT
 40
0.0
  9
$STEPSPERSEC
 40
2.0
  9
$STEPSIZE
 40
6.0
  9
$3DDWFPREC
 40
2.0
  9
$PSOLWIDTH
 40
0.25
  9
$PSOLHEIGHT
 40
4.0
  9
$LOFTANG1
 40
1.570796326794897
  9
$LOFTANG2
 40
1.570796326794897
  9
$LOFTMAG1
 40
0.0
  9
$LOFTMAG2
 40
0.0
  9
$LOFTPARAM
 70
     7
  9
$LOFTNORMALS
280
     1
  9
$LATITUDE
 40
37.795
  9
$LONGITUDE
 40
-122.394
  9
$NORTHDIRECTION
 40
0.0
  9
$TIMEZONE
 70
 -8000
  9
$LIGHTGLYPHDISPLAY
280
     1
  9
$TILEMODELIGHTSYNCH
280
     1
  9
$SOLIDHIST
280
     1
  9
$SHOWHIST
280
     1
  9
$DWFFRAME
280
     2
  9
$DGNFRAME
280
     2
  9
$REALWORLDSCALE
290
     1
  9
$INTERFERECOLOR
 62
   256
  9
$CSHADOW
280
     0
  9
$SHADOWPLANELOCATION
 40
0.0
  0
ENDSEC
  0
SECTION
  2
CLASSES
  0
CLASS
  1
ACDBDICTIONARYWDFLT
  2
AcDbDictionaryWithDefault
  3
ObjectDBX Classes
 90
        0
 91
        4
280
     0
281
     0
  0
CLASS
  1
VISUALSTYLE
  2
AcDbVisualStyle
  3
ObjectDBX Classes
 90
     4095
 91
        4
280
     0
281
     0
  0
CLASS
  1
MATERIAL
  2
AcDbMaterial
  3
ObjectDBX Classes
 90
     1153
 91
        4
280
     0
281
     0
  0
ENDSEC
  0
SECTION
  2
TABLES
  0
TABLE
  2
VPORT
  5
8
330
0
100
AcDbSymbolTable
 70
     1
  0
VPORT
  5
29
330
8
100
AcDbSymbolTableRecord
100
AcDbViewportTableRecord
  2
*Active
 70
     0
 10
0.0
 20
0.0
 11
1.0
 21
1.0
 12
10.42990654205607
 22
4.5
 13
0.0
 23
0.0
 14
0.5
 24
0.5
 15
0.5
 25
0.5
 16
0.0
 26
0.0
 36
1.0
 17
0.0
 27
0.0
 37
0.0
 40
9.0
 41
1.972972972850329
 42
50.0
 43
0.0
 44
0.0
 50
0.0
 51
0.0
 71
     0
 72
   100
 73
     1
 74
     3
 75
     0
 76
     0
 77
     0
 78
     0
281
     0
 65
     1
110
0.0
120
0.0
130
0.0
111
1.0
121
0.0
131
0.0
112
0.0
122
1.0
132
0.0
 79
     0
146
0.0
 60
     3
 61
     5
292
     1
282
     1
141
0.0
142
0.0
 63
   250
  0
ENDTAB
  0
TABLE
  2
LTYPE
  5
5
330
0
100
AcDbSymbolTable
 70
     1
  0
LTYPE
  5
14
330
5
100
AcDbSymbolTableRecord
100
AcDbLinetypeTableRecord
  2
ByBlock
 70
     0
  3

 72
    65
 73
     0
 40
0.0
  0
LTYPE
  5
15
330
5
100
AcDbSymbolTableRecord
100
AcDbLinetypeTableRecord
  2
ByLayer
 70
     0
  3

 72
    65
 73
     0
 40
0.0
  0
LTYPE
  5
16
330
5
100
AcDbSymbolTableRecord
100
AcDbLinetypeTableRecord
  2
Continuous
 70
     0
  3
Solid line
 72
    65
 73
     0
 40
0.0
  0
ENDTAB
  0
TABLE
  2
LAYER
  5
2
330
0
100
AcDbSymbolTable
 70
     3
  0
LAYER
  5
10
330
2
100
AcDbSymbolTableRecord
100
AcDbLayerTableRecord
  2
0
 70
     0
 62
     7
  6
Continuous
370
    -3
390
F
347
3E
  0
LAYER
  5
40
330
2
100
AcDbSymbolTableRecord
100
AcDbLayerTableRecord
  2
layer 1
 70
     0
 62
     7
  6
Continuous
370
    -3
390
F
347
3E
  0
LAYER
  5
A4
330
2
100
AcDbSymbolTableRecord
100
AcDbLayerTableRecord
  2
Master Guides
 70
     0
 62
     7
  6
Continuous
370
    -3
390
F
347
3E
  0
ENDTAB
  0
TABLE
  2
STYLE
  5
3
330
0
100
AcDbSymbolTable
 70
     1
  0
STYLE
  5
11
330
3
100
AcDbSymbolTableRecord
100
AcDbTextStyleTableRecord
  2
Standard
 70
     0
 40
0.0
 41
1.0
 50
0.0
 71
     0
 42
0.2
  3
txt
  4

  0
ENDTAB
  0
TABLE
  2
VIEW
  5
6
330
0
100
AcDbSymbolTable
 70
     0
  0
ENDTAB
  0
TABLE
  2
UCS
  5
7
330
0
100
AcDbSymbolTable
 70
     0
  0
ENDTAB
  0
TABLE
  2
APPID
  5
9
330
0
100
AcDbSymbolTable
 70
     2
  0
APPID
  5
12
330
9
100
AcDbSymbolTableRecord
100
AcDbRegAppTableRecord
  2
ACAD
 70
     0
  0
APPID
  5
3F
330
9
100
AcDbSymbolTableRecord
100
AcDbRegAppTableRecord
  2
ODA
 70
     0
  0
ENDTAB
  0
TABLE
  2
DIMSTYLE
  5
A
330
0
100
AcDbSymbolTable
 70
     1
100
AcDbDimStyleTable
  0
DIMSTYLE
105
27
330
A
100
AcDbSymbolTableRecord
100
AcDbDimStyleTableRecord
  2
Standard
 70
     0
178
     0
340
11
  0
ENDTAB
  0
TABLE
  2
BLOCK_RECORD
  5
1
330
0
100
AcDbSymbolTable
 70
     1
  0
BLOCK_RECORD
  5
1F
330
1
100
AcDbSymbolTableRecord
100
AcDbBlockTableRecord
  2
*Model_Space
340
22
 70
     0
280
     1
281
     0
  0
BLOCK_RECORD
  5
1B
330
1
100
AcDbSymbolTableRecord
100
AcDbBlockTableRecord
  2
*Paper_Space
340
1E
 70
     0
280
     1
281
     0
  0
BLOCK_RECORD
  5
23
330
1
100
AcDbSymbolTableRecord
100
AcDbBlockTableRecord
  2
*Paper_Space0
340
26
 70
     0
280
     1
281
     0
  0
ENDTAB
  0
ENDSEC
  0
SECTION
  2
BLOCKS
  0
BLOCK
  5
20
330
1F
100
AcDbEntity
  8
0
100
AcDbBlockBegin
  2
*Model_Space
 70
     0
 10
0.0
 20
0.0
 30
0.0
  3
*Model_Space
  1

  0
ENDBLK
  5
21
330
1F
100
AcDbEntity
  8
0
100
AcDbBlockEnd
  0
BLOCK
  5
1C
330
1B
100
AcDbEntity
 67
     1
  8
0
100
AcDbBlockBegin
  2
*Paper_Space
 70
     0
 10
0.0
 20
0.0
 30
0.0
  3
*Paper_Space
  1

  0
ENDBLK
  5
1D
330
1B
100
AcDbEntity
 67
     1
  8
0
100
AcDbBlockEnd
  0
BLOCK
  5
24
330
23
100
AcDbEntity
  8
0
100
AcDbBlockBegin
  2
*Paper_Space0
 70
     0
 10
0.0
 20
0.0
 30
0.0
  3
*Paper_Space0
  1

  0
ENDBLK
  5
25
330
23
100
AcDbEntity
  8
0
100
AcDbBlockEnd
  0
ENDSEC
  0
SECTION
  2
ENTITIES
  0
LWPOLYLINE
  5
41
330
1F
100
AcDbEntity
  8
layer 1
 62
   250
370
     9
100
AcDbPolyline
 90
        5
 70
     1
 43
0.0
 10
-89.1749
 20
-115.0471
 10
29.0825
 20
-115.0471
 10
29.0825
 20
131.7747
 10
-89.1749
 20
131.7747
 10
-89.1749
 20
-115.0471
  0
SPLINE
  5
42
330
1F
100
AcDbEntity
  8
layer 1
 62
     7
100
AcDbSpline
210
0.0
220
0.0
230
1.0
 70
    11
 71
     3
 72
    16
 73
    12
 74
     0
 42
0.0000000001
 43
0.0000000001
 12
1.0
 22
0.0
 32
0.0
 13
1.0
 23
0.0
 33
0.0
 40
0.0
 40
0.0
 40
0.0
 40
0.0
 40
0.25
 40
0.25
 40
0.25
 40
0.25
 40
0.5
 40
0.5
 40
0.5
 40
0.5
 40
1.0
 40
1.0
 40
1.0
 40
1.0
 10
-77.017
 20
127.0519
 30
0.0
 10
-77.017
 20
123.126
 30
0.0
 10
-80.2006
 20
119.9424
 30
0.0
 10
-84.1263
 20
119.9424
 30
0.0
 10
-84.1263
 20
119.9424
 30
0.0
 10
-84.1263
 20
119.9424
 30
0.0
 10
-84.0022
 20
127.0519
 30
0.0
 10
-84.0022
 20
127.0519
 30
0.0
 10
-84.0022
 20
127.0519
 30
0.0
 10
-84.0022
 20
127.0519
 30
0.0
 10
-77.017
 20
127.0519
 30
0.0
 10
-77.017
 20
127.0519
 30
0.0
  0
SPLINE
  5
43
330
1F
100
AcDbEntity
  8
layer 1
 62
     7
100
AcDbSpline
210
0.0
220
0.0
230
1.0
 70
    11
 71
     3
 72
    32
 73
    28
 74
     0
 42
0.0000000001
 43
0.0000000001
 12
1.0
 22
0.0
 32
0.0
 13
1.0
 23
0.0
 33
0.0
 40
0.0
 40
0.0
 40
0.0
 40
0.0
 40
0.125
 40
0.125
 40
0.125
 40
0.125
 40
0.25
 40
0.25
 40
0.25
 40
0.25
 40
0.375
 40
0.375
 40
0.375
 40
0.375
 40
0.5
 40
0.5
 40
0.5
 40
0.5
 40
0.625
 40
0.625
 40
0.625
 40
0.625
 40
0.75
 40
0.75
 40
0.75
 40
0.75
 40
1.0
 40
1.0
 40
1.0
 40
1.0
 10
-84.0866
 20
104.726
 30
0.0
 10
-84.0866
 20
104.726
 30
0.0
 10
-78.1175
 20
98.8167
 30
0.0
 10
-78.1175
 20
98.8167
 30
0.0
 10
-78.1175
 20
98.8167
 30
0.0
 10
-78.1175
 20
98.8167
 30
0.0
 10
-74.1856
 20
102.7486
 30
0.0
 10
-74.1856
 20
102.7486
 30
0.0
 10
-74.1856
 20
102.7486
 30
0.0
 10
-74.1856
 20
102.7486
 30
0.0
 10
-80.1726
 20
108.7482
 30
0.0
 10
-80.1726
 20
108.7482
 30
0.0
 10
-80.1726
 20
108.7482
 30
0.0
 10
-80.1726
 20
108.7482
 30
0.0
 10
-74.1856
 20
114.6426
 30
0.0
 10
-74.1856
 20
114.6426
 30
0.0
 10
-74.1856
 20
114.6426
 30
0.0
 10
-74.1856
 20
114.6426
 30
0.0
 10
-78.1175
 20
118.5745
 30
0.0
 10
-78.1175
 20
118.5745
 30
0.0
 10
-78.1175
 20
118.5745
 30
0.0
 10
-78.1175
 20
118.5745
 30
0.0
 10
-84.0898
 20
112.6654
 30
0.0
 10
-84.0898
 20
112.6654
 30
0.0
 10
-84.0898
 20
112.6654
 30
0.0
 10
-84.0898
 20
112.6654
 30
0.0
 10
-84.0866
 20
104.726
 30
0.0
 10
-84.0866
 20
104.726
 30
0.0
  0
SPLINE
  5
44
330
1F
100
AcDbEntity
  8
layer 1
 62
     7
100
AcDbSpline
210
0.0
220
0.0
230
1.0
 70
    11
 71
     3
 72
    32
 73
    28
 74
     0
 42
0.0000000001
 43
0.0000000001
 12
1.0
 22
0.0
 32
0.0
 13
1.0
 23
0.0
 33
0.0
 40
0.0
 40
0.0
 40
0.0
 40
0.0
 40
0.125
 40
0.125
 40
0.125
 40
0.125
 40
0.25
 40
0.25
 40
0.25
 40
0.25
 40
0.375
 40
0.375
 40
0.375
 40
0.375
 40
0.5
 40
0.5
 40
0.5
 40
0.5
 40
0.625
 40
0.625
 40
0.625
 40
0.625
 40
0.75
 40
0.75
 40
0.75
 40
0.75
 40
1.0
 40
1.0
 40
1.0
 40
1.0
 10
-84.0866
 20
68.1968
 30
0.0
 10
-84.0866
 20
68.1968
 30
0.0
 10
-78.1175
 20
62.2875
 30
0.0
 10
-78.1175
 20
62.2875
 30
0.0
 10
-78.1175
 20
62.2875
 30
0.0
 10
-78.1175
 20
62.2875
 30
0.0
 10
-74.1856
 20
66.2194
 30
0.0
 10
-74.1856
 20
66.2194
 30
0.0
 10
-74.1856
 20
66.2194
 30
0.0
 10
-74.1856
 20
66.2194
 30
0.0
 10
-80.1726
 20
72.219
 30
0.0
 10
-80.1726
 20
72.219
 30
0.0
 10
-80.1726
 20
72.219
 30
0.0
 10
-80.1726
 20
72.219
 30
0.0
 10
-74.1856
 20
78.1134
 30
0.0
 10
-74.1856
 20
78.1134
 30
0.0
 10
-74.1856
 20
78.1134
 30
0.0
 10
-74.1856
 20
78.1134
 30
0.0
 10
-78.1175
 20
82.0453
 30
0.0
 10
-78.1175
 20
82.0453
 30
0.0
 10
-78.1175
 20
82.0453
 30
0.0
 10
-78.1175
 20
82.0453
 30
0.0
 10
-84.0898
 20
76.1362
 30
0.0
 10
-84.0898
 20
76.1362
 30
0.0
 10
-84.0898
 20
76.1362
 30
0.0
 10
-84.0898
 20
76.1362
 30
0.0
 10
-84.0866
 20
68.1968
 30
0.0
 10
-84.0866
 20
68.1968
 30
0.0
  0
SPLINE
  5
45
330
1F
100
AcDbEntity
  8
layer 1
 62
     7
100
AcDbSpline
210
0.0
220
0.0
230
1.0
 70
    11
 71
     3
 72
    32
 73
    28
 74
     0
 42
0.0000000001
 43
0.0000000001
 12
1.0
 22
0.0
 32
0.0
 13
1.0
 23
0.0
 33
0.0
 40
0.0
 40
0.0
 40
0.0
 40
0.0
 40
0.125
 40
0.125
 40
0.125
 40
0.125
 40
0.25
 40
0.25
 40
0.25
 40
0.25
 40
0.375
 40
0.375
 40
0.375
 40
0.375
 40
0.5
 40
0.5
 40
0.5
 40
0.5
 40
0.625
 40
0.625
 40
0.625
 40
0.625
 40
0.75
 40
0.75
 40
0.75
 40
0.75
 40
1.0
 40
1.0
 40
1.0
 40
1.0
 10
-84.1999
 20
31.7213
 30
0.0
 10
-84.1999
 20
31.7213
 30
0.0
 10
-78.2308
 20
25.812
 30
0.0
 10
-78.2308
 20
25.812
 30
0.0
 10
-78.2308
 20
25.812
 30
0.0
 10
-78.2308
 20
25.812
 30
0.0
 10
-74.2988
 20
29.7439
 30
0.0
 10
-74.2988
 20
29.7439
 30
0.0
 10
-74.2988
 20
29.7439
 30
0.0
 10
-74.2988
 20
29.7439
 30
0.0
 10
-80.2859
 20
35.7436
 30
0.0
 10
-80.2859
 20
35.7436
 30
0.0
 10
-80.2859
 20
35.7436
 30
0.0
 10
-80.2859
 20
35.7436
 30
0.0
 10
-74.2988
 20
41.6379
 30
0.0
 10
-74.2988
 20
41.6379
 30
0.0
 10
-74.2988
 20
41.6379
 30
0.0
 10
-74.2988
 20
41.6379
 30
0.0
 10
-78.2308
 20
45.5699
 30
0.0
 10
-78.2308
 20
45.5699
 30
0.0
 10
-78.2308
 20
45.5699
 30
0.0
 10
-78.2308
 20
45.5699
 30
0.0
 10
-84.2031
 20
39.6607
 30
0.0
 10
-84.2031
 20
39.6607
 30
0.0
 10
-84.2031
 20
39.6607
 30
0.0
 10
-84.2031
 20
39.6607
 30
0.0
 10
-84.1999
 20
31.7213
 30
0.0
 10
-84.1999
 20
31.7213
 30
0.0
  0
SPLINE
  5
46
330
1F
100
AcDbEntity
  8
layer 1
 62
     7
100
AcDbSpline
210
0.0
220
0.0
230
1.0
 70
    11
 71
     3
 72
    32
 73
    28
 74
     0
 42
0.0000000001
 43
0.0000000001
 12
1.0
 22
0.0
 32
0.0
 13
1.0
 23
0.0
 33
0.0
 40
0.0
 40
0.0
 40
0.0
 40
0.0
 40
0.125
 40
0.125
 40
0.125
 40
0.125
 40
0.25
 40
0.25
 40
0.25
 40
0.25
 40
0.375
 40
0.375
 40
0.375
 40
0.375
 40
0.5
 40
0.5
 40
0.5
 40
0.5
 40
0.625
 40
0.625
 40
0.625
 40
0.625
 40
0.75
 40
0.75
 40
0.75
 40
0.75
 40
1.0
 40
1.0
 40
1.0
 40
1.0
 10
-84.1999
 20
-4.8079
 30
0.0
 10
-84.1999
 20
-4.8079
 30
0.0
 10
-78.2308
 20
-10.7172
 30
0.0
 10
-78.2308
 20
-10.7172
 30
0.0
 10
-78.2308
 20
-10.7172
 30
0.0
 10
-78.2308
 20
-10.7172
 30
0.0
 10
-74.2988
 20
-6.7853
 30
0.0
 10
-74.2988
 20
-6.7853
 30
0.0
 10
-74.2988
 20
-6.7853
 30
0.0
 10
-74.2988
 20
-6.7853
 30
0.0
 10
-80.2859
 20
-0.7856
 30
0.0
 10
-80.2859
 20
-0.7856
 30
0.0
 10
-80.2859
 20
-0.7856
 30
0.0
 10
-80.2859
 20
-0.7856
 30
0.0
 10
-74.2988
 20
5.1087
 30
0.0
 10
-74.2988
 20
5.1087
 30
0.0
 10
-74.2988
 20
5.1087
 30
0.0
 10
-74.2988
 20
5.1087
 30
0.0
 10
-78.2308
 20
9.0407
 30
0.0
 10
-78.2308
 20
9.0407
 30
0.0
 10
-78.2308
 20
9.0407
 30
0.0
 10
-78.2308
 20
9.0407
 30
0.0
 10
-84.2031
 20
3.1315
 30
0.0
 10
-84.2031
 20
3.1315
 30
0.0
 10
-84.2031
 20
3.1315
 30
0.0
 10
-84.2031
 20
3.1315
 30
0.0
 10
-84.1999
 20
-4.8079
 30
0.0
 10
-84.1999
 20
-4.8079
 30
0.0
  0
SPLINE
  5
47
330
1F
100
AcDbEntity
  8
layer 1
 62
     7
100
AcDbSpline
210
0.0
220
0.0
230
1.0
 70
    11
 71
     3
 72
    32
 73
    28
 74
     0
 42
0.0000000001
 43
0.0000000001
 12
1.0
 22
0.0
 32
0.0
 13
1.0
 23
0.0
 33
0.0
 40
0.0
 40
0.0
 40
0.0
 40
0.0
 40
0.125
 40
0.125
 40
0.125
 40
0.125
 40
0.25
 40
0.25
 40
0.25
 40
0.25
 40
0.375
 40
0.375
 40
0.375
 40
0.375
 40
0.5
 40
0.5
 40
0.5
 40
0.5
 40
0.625
 40
0.625
 40
0.625
 40
0.625
 40
0.75
 40
0.75
 40
0.75
 40
0.75
 40
1.0
 40
1.0
 40
1.0
 40
1.0
 10
-84.3131
 20
-41.3503
 30
0.0
 10
-84.3131
 20
-41.3503
 30
0.0
 10
-78.3441
 20
-47.2597
 30
0.0
 10
-78.3441
 20
-47.2597
 30
0.0
 10
-78.3441
 20
-47.2597
 30
0.0
 10
-78.3441
 20
-47.2597
 30
0.0
 10
-74.4121
 20
-43.3277
 30
0.0
 10
-74.4121
 20
-43.3277
 30
0.0
 10
-74.4121
 20
-43.3277
 30
0.0
 10
-74.4121
 20
-43.3277
 30
0.0
 10
-80.3992
 20
-37.3281
 30
0.0
 10
-80.3992
 20
-37.3281
 30
0.0
 10
-80.3992
 20
-37.3281
 30
0.0
 10
-80.3992
 20
-37.3281
 30
0.0
 10
-74.4121
 20
-31.4338
 30
0.0
 10
-74.4121
 20
-31.4338
 30
0.0
 10
-74.4121
 20
-31.4338
 30
0.0
 10
-74.4121
 20
-31.4338
 30
0.0
 10
-78.3441
 20
-27.5018
 30
0.0
 10
-78.3441
 20
-27.5018
 30
0.0
 10
-78.3441
 20
-27.5018
 30
0.0
 10
-78.3441
 20
-27.5018
 30
0.0
 10
-84.3164
 20
-33.4109
 30
0.0
 10
-84.3164
 20
-33.4109
 30
0.0
 10
-84.3164
 20
-33.4109
 30
0.0
 10
-84.3164
 20
-33.4109
 30
0.0
 10
-84.3131
 20
-41.3503
 30
0.0
 10
-84.3131
 20
-41.3503
 30
0.0
  0
SPLINE
  5
48
330
1F
100
AcDbEntity
  8
layer 1
 62
     7
100
AcDbSpline
210
0.0
220
0.0
230
1.0
 70
    11
 71
     3
 72
    32
 73
    28
 74
     0
 42
0.0000000001
 43
0.0000000001
 12
1.0
 22
0.0
 32
0.0
 13
1.0
 23
0.0
 33
0.0
 40
0.0
 40
0.0
 40
0.0
 40
0.0
 40
0.125
 40
0.125
 40
0.125
 40
0.125
 40
0.25
 40
0.25
 40
0.25
 40
0.25
 40
0.375
 40
0.375
 40
0.375
 40
0.375
 40
0.5
 40
0.5
 40
0.5
 40
0.5
 40
0.625
 40
0.625
 40
0.625
 40
0.625
 40
0.75
 40
0.75
 40
0.75
 40
0.75
 40
1.0
 40
1.0
 40
1.0
 40
1.0
 10
-84.3131
 20
-77.8795
 30
0.0
 10
-84.3131
 20
-77.8795
 30
0.0
 10
-78.3441
 20
-83.7889
 30
0.0
 10
-78.3441
 20
-83.7889
 30
0.0
 10
-78.3441
 20
-83.7889
 30
0.0
 10
-78.3441
 20
-83.7889
 30
0.0
 10
-74.4121
 20
-79.8569
 30
0.0
 10
-74.4121
 20
-79.8569
 30
0.0
 10
-74.4121
 20
-79.8569
 30
0.0
 10
-74.4121
 20
-79.8569
 30
0.0
 10
-80.3992
 20
-73.8573
 30
0.0
 10
-80.3992
 20
-73.8573
 30
0.0
 10
-80.3992
 20
-73.8573
 30
0.0
 10
-80.3992
 20
-73.8573
 30
0.0
 10
-74.4121
 20
-67.963
 30
0.0
 10
-74.4121
 20
-67.963
 30
0.0
 10
-74.4121
 20
-67.963
 30
0.0
 10
-74.4121
 20
-67.963
 30
0.0
 10
-78.3441
 20
-64.031
 30
0.0
 10
-78.3441
 20
-64.031
 30
0.0
 10
-78.3441
 20
-64.031
 30
0.0
 10
-78.3441
 20
-64.031
 30
0.0
 10
-84.3164
 20
-69.9401
 30
0.0
 10
-84.3164
 20
-69.9401
 30
0.0
 10
-84.3164
 20
-69.9401
 30
0.0
 10
-84.3164
 20
-69.9401
 30
0.0
 10
-84.3131
 20
-77.8795
 30
0.0
 10
-84.3131
 20
-77.8795
 30
0.0
  0
SPLINE
  5
49
330
1F
100
AcDbEntity
  8
layer 1
 62
     7
100
AcDbSpline
210
0.0
220
0.0
230
1.0
 70
    11
 71
     3
 72
    16
 73
    12
 74
     0
 42
0.0000000001
 43
0.0000000001
 12
1.0
 22
0.0
 32
0.0
 13
1.0
 23
0.0
 33
0.0
 40
0.0
 40
0.0
 40
0.0
 40
0.0
 40
0.25
 40
0.25
 40
0.25
 40
0.25
 40
0.5
 40
0.5
 40
0.5
 40
0.5
 40
1.0
 40
1.0
 40
1.0
 40
1.0
 10
-84.2817
 20
-85.065
 30
0.0
 10
-84.2817
 20
-85.065
 30
0.0
 10
-84.2817
 20
-99.2838
 30
0.0
 10
-84.2817
 20
-99.2838
 30
0.0
 10
-84.2817
 20
-99.2838
 30
0.0
 10
-80.3559
 20
-99.2838
 30
0.0
 10
-77.1722
 20
-96.1
 30
0.0
 10
-77.1722
 20
-92.1744
 30
0.0
 10
-77.1722
 20
-92.1744
 30
0.0
 10
-77.1722
 20
-88.2489
 30
0.0
 10
-80.3559
 20
-85.065
 30
0.0
 10
-84.2817
 20
-85.065
 30
0.0
  0
SPLINE
  5
4A
330
1F
100
AcDbEntity
  8
layer 1
 62
     7
100
AcDbSpline
210
0.0
220
0.0
230
1.0
 70
    11
 71
     3
 72
    24
 73
    20
 74
     0
 42
0.0000000001
 43
0.0000000001
 12
1.0
 22
0.0
 32
0.0
 13
1.0
 23
0.0
 33
0.0
 40
0.0
 40
0.0
 40
0.0
 40
0.0
 40
0.1666666666666667
 40
0.1666666666666667
 40
0.1666666666666667
 40
0.1666666666666667
 40
0.3333333333333333
 40
0.3333333333333333
 40
0.3333333333333333
 40
0.3333333333333333
 40
0.5
 40
0.5
 40
0.5
 40
0.5
 40
0.6666666666666666
 40
0.6666666666666666
 40
0.6666666666666666
 40
0.6666666666666666
 40
1.0
 40
1.0
 40
1.0
 40
1.0
 10
-84.2627
 20
-106.0259
 30
0.0
 10
-84.2627
 20
-106.0259
 30
0.0
 10
-78.5691
 20
-100.3894
 30
0.0
 10
-78.5691
 20
-100.3894
 30
0.0
 10
-78.5691
 20
-100.3894
 30
0.0
 10
-78.5691
 20
-100.3894
 30
0.0
 10
-74.6372
 20
-104.3213
 30
0.0
 10
-74.6372
 20
-104.3213
 30
0.0
 10
-74.6372
 20
-104.3213
 30
0.0
 10
-74.6372
 20
-104.3213
 30
0.0
 10
-80.6242
 20
-110.3209
 30
0.0
 10
-80.6242
 20
-110.3209
 30
0.0
 10
-80.6242
 20
-110.3209
 30
0.0
 10
-80.6242
 20
-110.3209
 30
0.0
 10
-84.2751
 20
-110.3223
 30
0.0
 10
-84.2751
 20
-110.3223
 30
0.0
 10
-84.2751
 20
-110.3223
 30
0.0
 10
-84.2751
 20
-110.3223
 30
0.0
 10
-84.2627
 20
-106.0259
 30
0.0
 10
-84.2627
 20
-106.0259
 30
0.0
  0
SPLINE
  5
4B
330
1F
100
AcDbEntity
  8
layer 1
 62
     7
100
AcDbSpline
210
0.0
220
0.0
230
1.0
 70
    11
 71
     3
 72
    16
 73
    12
 74
     0
 42
0.0000000001
 43
0.0000000001
 12
1.0
 22
0.0
 32
0.0
 13
1.0
 23
0.0
 33
0.0
 40
0.0
 40
0.0
 40
0.0
 40
0.0
 40
0.25
 40
0.25
 40
0.25
 40
0.25
 40
0.5
 40
0.5
 40
0.5
 40
0.5
 40
1.0
 40
1.0
 40
1.0
 40
1.0
 10
-84.2817
 20
-48.4165
 30
0.0
 10
-84.2817
 20
-48.4165
 30
0.0
 10
-84.2817
 20
-62.6354
 30
0.0
 10
-84.2817
 20
-62.6354
 30
0.0
 10
-84.2817
 20
-62.6354
 30
0.0
 10
-80.3559
 20
-62.6354
 30
0.0
 10
-77.1722
 20
-59.4515
 30
0.0
 10
-77.1722
 20
-55.526
 30
0.0
 10
-77.1722
 20
-55.526
 30
0.0
 10
-77.1722
 20
-51.6004
 30
0.0
 10
-80.3559
 20
-48.4165
 30
0.0
 10
-84.2817
 20
-48.4165
 30
0.0
  0
SPLINE
  5
4C
330
1F
100
AcDbEntity
  8
layer 1
 62
     7
100
AcDbSpline
210
0.0
220
0.0
230
1.0
 70
    11
 71
     3
 72
    16
 73
    12
 74
     0
 42
0.0000000001
 43
0.0000000001
 12
1.0
 22
0.0
 32
0.0
 13
1.0
 23
0.0
 33
0.0
 40
0.0
 40
0.0
 40
0.0
 40
0.0
 40
0.25
 40
0.25
 40
0.25
 40
0.25
 40
0.5
 40
0.5
 40
0.5
 40
0.5
 40
1.0
 40
1.0
 40
1.0
 40
1.0
 10
-84.2817
 20
-11.8817
 30
0.0
 10
-84.2817
 20
-11.8817
 30
0.0
 10
-84.2817
 20
-26.1005
 30
0.0
 10
-84.2817
 20
-26.1005
 30
0.0
 10
-84.2817
 20
-26.1005
 30
0.0
 10
-80.3559
 20
-26.1005
 30
0.0
 10
-77.1722
 20
-22.9166
 30
0.0
 10
-77.1722
 20
-18.9911
 30
0.0
 10
-77.1722
 20
-18.9911
 30
0.0
 10
-77.1722
 20
-15.0656
 30
0.0
 10
-80.3559
 20
-11.8817
 30
0.0
 10
-84.2817
 20
-11.8817
 30
0.0
  0
SPLINE
  5
4D
330
1F
100
AcDbEntity
  8
layer 1
 62
     7
100
AcDbSpline
210
0.0
220
0.0
230
1.0
 70
    11
 71
     3
 72
    16
 73
    12
 74
     0
 42
0.0000000001
 43
0.0000000001
 12
1.0
 22
0.0
 32
0.0
 13
1.0
 23
0.0
 33
0.0
 40
0.0
 40
0.0
 40
0.0
 40
0.0
 40
0.25
 40
0.25
 40
0.25
 40
0.25
 40
0.5
 40
0.5
 40
0.5
 40
0.5
 40
1.0
 40
1.0
 40
1.0
 40
1.0
 10
-84.2817
 20
24.653
 30
0.0
 10
-84.2817
 20
24.653
 30
0.0
 10
-84.2817
 20
10.4342
 30
0.0
 10
-84.2817
 20
10.4342
 30
0.0
 10
-84.2817
 20
10.4342
 30
0.0
 10
-80.3559
 20
10.4342
 30
0.0
 10
-77.1722
 20
13.6181
 30
0.0
 10
-77.1722
 20
17.5436
 30
0.0
 10
-77.1722
 20
17.5436
 30
0.0
 10
-77.1722
 20
21.4691
 30
0.0
 10
-80.3559
 20
24.653
 30
0.0
 10
-84.2817
 20
24.653
 30
0.0
  0
SPLINE
  5
4E
330
1F
100
AcDbEntity
  8
layer 1
 62
     7
100
AcDbSpline
210
0.0
220
0.0
230
1.0
 70
    11
 71
     3
 72
    16
 73
    12
 74
     0
 42
0.0000000001
 43
0.0000000001
 12
1.0
 22
0.0
 32
0.0
 13
1.0
 23
0.0
 33
0.0
 40
0.0
 40
0.0
 40
0.0
 40
0.0
 40
0.25
 40
0.25
 40
0.25
 40
0.25
 40
0.5
 40
0.5
 40
0.5
 40
0.5
 40
1.0
 40
1.0
 40
1.0
 40
1.0
 10
-84.2817
 20
61.0558
 30
0.0
 10
-84.2817
 20
61.0558
 30
0.0
 10
-84.2817
 20
46.837
 30
0.0
 10
-84.2817
 20
46.837
 30
0.0
 10
-84.2817
 20
46.837
 30
0.0
 10
-80.3559
 20
46.837
 30
0.0
 10
-77.1722
 20
50.0209
 30
0.0
 10
-77.1722
 20
53.9464
 30
0.0
 10
-77.1722
 20
53.9464
 30
0.0
 10
-77.1722
 20
57.8719
 30
0.0
 10
-80.3559
 20
61.0558
 30
0.0
 10
-84.2817
 20
61.0558
 30
0.0
  0
SPLINE
  5
4F
330
1F
100
AcDbEntity
  8
layer 1
 62
     7
100
AcDbSpline
210
0.0
220
0.0
230
1.0
 70
    11
 71
     3
 72
    16
 73
    12
 74
     0
 42
0.0000000001
 43
0.0000000001
 12
1.0
 22
0.0
 32
0.0
 13
1.0
 23
0.0
 33
0.0
 40
0.0
 40
0.0
 40
0.0
 40
0.0
 40
0.25
 40
0.25
 40
0.25
 40
0.25
 40
0.5
 40
0.5
 40
0.5
 40
0.5
 40
1.0
 40
1.0
 40
1.0
 40
1.0
 10
-84.2817
 20
97.5404
 30
0.0
 10
-84.2817
 20
97.5404
 30
0.0
 10
-84.2817
 20
83.3215
 30
0.0
 10
-84.2817
 20
83.3215
 30
0.0
 10
-84.2817
 20
83.3215
 30
0.0
 10
-80.3559
 20
83.3215
 30
0.0
 10
-77.1722
 20
86.5054
 30
0.0
 10
-77.1722
 20
90.431
 30
0.0
 10
-77.1722
 20
90.431
 30
0.0
 10
-77.1722
 20
94.3565
 30
0.0
 10
-80.3559
 20
97.5404
 30
0.0
 10
-84.2817
 20
97.5404
 30
0.0
  0
SPLINE
  5
50
330
1F
100
AcDbEntity
  8
layer 1
 62
     7
100
AcDbSpline
210
0.0
220
0.0
230
1.0
 70
    11
 71
     3
 72
    16
 73
    12
 74
     0
 42
0.0000000001
 43
0.0000000001
 12
1.0
 22
0.0
 32
0.0
 13
1.0
 23
0.0
 33
0.0
 40
0.0
 40
0.0
 40
0.0
 40
0.0
 40
0.25
 40
0.25
 40
0.25
 40
0.25
 40
0.5
 40
0.5
 40
0.5
 40
0.5
 40
1.0
 40
1.0
 40
1.0
 40
1.0
 10
-4.8807
 20
126.9655
 30
0.0
 10
-4.8807
 20
123.0396
 30
0.0
 10
-8.0643
 20
119.856
 30
0.0
 10
-11.9901
 20
119.856
 30
0.0
 10
-11.9901
 20
119.856
 30
0.0
 10
-15.9158
 20
119.856
 30
0.0
 10
-19.0996
 20
123.0396
 30
0.0
 10
-19.0996
 20
126.9655
 30
0.0
 10
-19.0996
 20
126.9655
 30
0.0
 10
-19.0996
 20
126.9655
 30
0.0
 10
-4.8807
 20
126.9655
 30
0.0
 10
-4.8807
 20
126.9655
 30
0.0
  0
SPLINE
  5
51
330
1F
100
AcDbEntity
  8
layer 1
 62
     7
100
AcDbSpline
210
0.0
220
0.0
230
1.0
 70
    11
 71
     3
 72
    52
 73
    48
 74
     0
 42
0.0000000001
 43
0.0000000001
 12
1.0
 22
0.0
 32
0.0
 13
1.0
 23
0.0
 33
0.0
 40
0.0
 40
0.0
 40
0.0
 40
0.0
 40
0.0769230769230769
 40
0.0769230769230769
 40
0.0769230769230769
 40
0.0769230769230769
 40
0.1538461538461539
 40
0.1538461538461539
 40
0.1538461538461539
 40
0.1538461538461539
 40
0.2307692307692308
 40
0.2307692307692308
 40
0.2307692307692308
 40
0.2307692307692308
 40
0.3076923076923077
 40
0.3076923076923077
 40
0.3076923076923077
 40
0.3076923076923077
 40
0.3846153846153846
 40
0.3846153846153846
 40
0.3846153846153846
 40
0.3846153846153846
 40
0.4615384615384616
 40
0.4615384615384616
 40
0.4615384615384616
 40
0.4615384615384616
 40
0.5384615384615384
 40
0.5384615384615384
 40
0.5384615384615384
 40
0.5384615384615384
 40
0.6153846153846154
 40
0.6153846153846154
 40
0.6153846153846154
 40
0.6153846153846154
 40
0.6923076923076923
 40
0.6923076923076923
 40
0.6923076923076923
 40
0.6923076923076923
 40
0.7692307692307693
 40
0.7692307692307693
 40
0.7692307692307693
 40
0.7692307692307693
 40
0.8461538461538461
 40
0.8461538461538461
 40
0.8461538461538461
 40
0.8461538461538461
 40
1.0
 40
1.0
 40
1.0
 40
1.0
 10
-11.9424
 20
104.726
 30
0.0
 10
-11.9424
 20
104.726
 30
0.0
 10
-17.9115
 20
98.8167
 30
0.0
 10
-17.9115
 20
98.8167
 30
0.0
 10
-17.9115
 20
98.8167
 30
0.0
 10
-17.9115
 20
98.8167
 30
0.0
 10
-21.8435
 20
102.7486
 30
0.0
 10
-21.8435
 20
102.7486
 30
0.0
 10
-21.8435
 20
102.7486
 30
0.0
 10
-21.8435
 20
102.7486
 30
0.0
 10
-15.8564
 20
108.7482
 30
0.0
 10
-15.8564
 20
108.7482
 30
0.0
 10
-15.8564
 20
108.7482
 30
0.0
 10
-15.8564
 20
108.7482
 30
0.0
 10
-21.8435
 20
114.6426
 30
0.0
 10
-21.8435
 20
114.6426
 30
0.0
 10
-21.8435
 20
114.6426
 30
0.0
 10
-21.8435
 20
114.6426
 30
0.0
 10
-17.9115
 20
118.5745
 30
0.0
 10
-17.9115
 20
118.5745
 30
0.0
 10
-17.9115
 20
118.5745
 30
0.0
 10
-17.9115
 20
118.5745
 30
0.0
 10
-11.9392
 20
112.6654
 30
0.0
 10
-11.9392
 20
112.6654
 30
0.0
 10
-11.9392
 20
112.6654
 30
0.0
 10
-11.9392
 20
112.6654
 30
0.0
 10
-6.0174
 20
118.5746
 30
0.0
 10
-6.0174
 20
118.5746
 30
0.0
 10
-6.0174
 20
118.5746
 30
0.0
 10
-6.0174
 20
118.5746
 30
0.0
 10
-2.0855
 20
114.6427
 30
0.0
 10
-2.0855
 20
114.6427
 30
0.0
 10
-2.0855
 20
114.6427
 30
0.0
 10
-2.0855
 20
114.6427
 30
0.0
 10
-7.9892
 20
108.7516
 30
0.0
 10
-7.9892
 20
108.7516
 30
0.0
 10
-7.9892
 20
108.7516
 30
0.0
 10
-7.9892
 20
108.7516
 30
0.0
 10
-2.0855
 20
102.7485
 30
0.0
 10
-2.0855
 20
102.7485
 30
0.0
 10
-2.0855
 20
102.7485
 30
0.0
 10
-2.0855
 20
102.7485
 30
0.0
 10
-6.0174
 20
98.8166
 30
0.0
 10
-6.0174
 20
98.8166
 30
0.0
 10
-6.0174
 20
98.8166
 30
0.0
 10
-6.0174
 20
98.8166
 30
0.0
 10
-11.9424
 20
104.726
 30
0.0
 10
-11.9424
 20
104.726
 30
0.0
  0
SPLINE
  5
52
330
1F
100
AcDbEntity
  8
layer 1
 62
     7
100
AcDbSpline
210
0.0
220
0.0
230
1.0
 70
    11
 71
     3
 72
    16
 73
    12
 74
     0
 42
0.0000000001
 43
0.0000000001
 12
1.0
 22
0.0
 32
0.0
 13
1.0
 23
0.0
 33
0.0
 40
0.0
 40
0.0
 40
0.0
 40
0.0
 40
0.25
 40
0.25
 40
0.25
 40
0.25
 40
0.5
 40
0.5
 40
0.5
 40
0.5
 40
1.0
 40
1.0
 40
1.0
 40
1.0
 10
-40.9696
 20
126.8956
 30
0.0
 10
-40.9696
 20
122.9698
 30
0.0
 10
-44.1532
 20
119.7862
 30
0.0
 10
-48.0789
 20
119.7862
 30
0.0
 10
-48.0789
 20
119.7862
 30
0.0
 10
-52.0047
 20
119.7862
 30
0.0
 10
-55.1884
 20
122.9698
 30
0.0
 10
-55.1884
 20
126.8956
 30
0.0
 10
-55.1884
 20
126.8956
 30
0.0
 10
-55.1884
 20
126.8956
 30
0.0
 10
-40.9696
 20
126.8956
 30
0.0
 10
-40.9696
 20
126.8956
 30
0.0
  0
SPLINE
  5
53
330
1F
100
AcDbEntity
  8
layer 1
 62
     7
100
AcDbSpline
210
0.0
220
0.0
230
1.0
 70
    11
 71
     3
 72
    52
 73
    48
 74
     0
 42
0.0000000001
 43
0.0000000001
 12
1.0
 22
0.0
 32
0.0
 13
1.0
 23
0.0
 33
0.0
 40
0.0
 40
0.0
 40
0.0
 40
0.0
 40
0.0769230769230769
 40
0.0769230769230769
 40
0.0769230769230769
 40
0.0769230769230769
 40
0.1538461538461539
 40
0.1538461538461539
 40
0.1538461538461539
 40
0.1538461538461539
 40
0.2307692307692308
 40
0.2307692307692308
 40
0.2307692307692308
 40
0.2307692307692308
 40
0.3076923076923077
 40
0.3076923076923077
 40
0.3076923076923077
 40
0.3076923076923077
 40
0.3846153846153846
 40
0.3846153846153846
 40
0.3846153846153846
 40
0.3846153846153846
 40
0.4615384615384616
 40
0.4615384615384616
 40
0.4615384615384616
 40
0.4615384615384616
 40
0.5384615384615384
 40
0.5384615384615384
 40
0.5384615384615384
 40
0.5384615384615384
 40
0.6153846153846154
 40
0.6153846153846154
 40
0.6153846153846154
 40
0.6153846153846154
 40
0.6923076923076923
 40
0.6923076923076923
 40
0.6923076923076923
 40
0.6923076923076923
 40
0.7692307692307693
 40
0.7692307692307693
 40
0.7692307692307693
 40
0.7692307692307693
 40
0.8461538461538461
 40
0.8461538461538461
 40
0.8461538461538461
 40
0.8461538461538461
 40
1.0
 40
1.0
 40
1.0
 40
1.0
 10
-48.0313
 20
104.7048
 30
0.0
 10
-48.0313
 20
104.7048
 30
0.0
 10
-54.0004
 20
98.7954
 30
0.0
 10
-54.0004
 20
98.7954
 30
0.0
 10
-54.0004
 20
98.7954
 30
0.0
 10
-54.0004
 20
98.7954
 30
0.0
 10
-57.9324
 20
102.7273
 30
0.0
 10
-57.9324
 20
102.7273
 30
0.0
 10
-57.9324
 20
102.7273
 30
0.0
 10
-57.9324
 20
102.7273
 30
0.0
 10
-51.9453
 20
108.727
 30
0.0
 10
-51.9453
 20
108.727
 30
0.0
 10
-51.9453
 20
108.727
 30
0.0
 10
-51.9453
 20
108.727
 30
0.0
 10
-57.9324
 20
114.6213
 30
0.0
 10
-57.9324
 20
114.6213
 30
0.0
 10
-57.9324
 20
114.6213
 30
0.0
 10
-57.9324
 20
114.6213
 30
0.0
 10
-54.0004
 20
118.5533
 30
0.0
 10
-54.0004
 20
118.5533
 30
0.0
 10
-54.0004
 20
118.5533
 30
0.0
 10
-54.0004
 20
118.5533
 30
0.0
 10
-48.0281
 20
112.6442
 30
0.0
 10
-48.0281
 20
112.6442
 30
0.0
 10
-48.0281
 20
112.6442
 30
0.0
 10
-48.0281
 20
112.6442
 30
0.0
 10
-42.1063
 20
118.5534
 30
0.0
 10
-42.1063
 20
118.5534
 30
0.0
 10
-42.1063
 20
118.5534
 30
0.0
 10
-42.1063
 20
118.5534
 30
0.0
 10
-38.1744
 20
114.6215
 30
0.0
 10
-38.1744
 20
114.6215
 30
0.0
 10
-38.1744
 20
114.6215
 30
0.0
 10
-38.1744
 20
114.6215
 30
0.0
 10
-44.0781
 20
108.7303
 30
0.0
 10
-44.0781
 20
108.7303
 30
0.0
 10
-44.0781
 20
108.7303
 30
0.0
 10
-44.0781
 20
108.7303
 30
0.0
 10
-38.1744
 20
102.7272
 30
0.0
 10
-38.1744
 20
102.7272
 30
0.0
 10
-38.1744
 20
102.7272
 30
0.0
 10
-38.1744
 20
102.7272
 30
0.0
 10
-42.1063
 20
98.7953
 30
0.0
 10
-42.1063
 20
98.7953
 30
0.0
 10
-42.1063
 20
98.7953
 30
0.0
 10
-42.1063
 20
98.7953
 30
0.0
 10
-48.0313
 20
104.7048
 30
0.0
 10
-48.0313
 20
104.7048
 30
0.0
  0
SPLINE
  5
54
330
1F
100
AcDbEntity
  8
layer 1
 62
     7
100
AcDbSpline
210
0.0
220
0.0
230
1.0
 70
    11
 71
     3
 72
    16
 73
    12
 74
     0
 42
0.0000000001
 43
0.0000000001
 12
1.0
 22
0.0
 32
0.0
 13
1.0
 23
0.0
 33
0.0
 40
0.0
 40
0.0
 40
0.0
 40
0.0
 40
0.25
 40
0.25
 40
0.25
 40
0.25
 40
0.5
 40
0.5
 40
0.5
 40
0.5
 40
1.0
 40
1.0
 40
1.0
 40
1.0
 10
16.9247
 20
127.0519
 30
0.0
 10
16.9247
 20
123.126
 30
0.0
 10
20.1083
 20
119.9424
 30
0.0
 10
24.0341
 20
119.9424
 30
0.0
 10
24.0341
 20
119.9424
 30
0.0
 10
24.0341
 20
119.9424
 30
0.0
 10
23.9099
 20
127.0519
 30
0.0
 10
23.9099
 20
127.0519
 30
0.0
 10
23.9099
 20
127.0519
 30
0.0
 10
23.9099
 20
127.0519
 30
0.0
 10
16.9247
 20
127.0519
 30
0.0
 10
16.9247
 20
127.0519
 30
0.0
  0
SPLINE
  5
55
330
1F
100
AcDbEntity
  8
layer 1
 62
     7
100
AcDbSpline
210
0.0
220
0.0
230
1.0
 70
    11
 71
     3
 72
    32
 73
    28
 74
     0
 42
0.0000000001
 43
0.0000000001
 12
1.0
 22
0.0
 32
0.0
 13
1.0
 23
0.0
 33
0.0
 40
0.0
 40
0.0
 40
0.0
 40
0.0
 40
0.125
 40
0.125
 40
0.125
 40
0.125
 40
0.25
 40
0.25
 40
0.25
 40
0.25
 40
0.375
 40
0.375
 40
0.375
 40
0.375
 40
0.5
 40
0.5
 40
0.5
 40
0.5
 40
0.625
 40
0.625
 40
0.625
 40
0.625
 40
0.75
 40
0.75
 40
0.75
 40
0.75
 40
1.0
 40
1.0
 40
1.0
 40
1.0
 10
23.9943
 20
104.726
 30
0.0
 10
23.9943
 20
104.726
 30
0.0
 10
18.0252
 20
98.8167
 30
0.0
 10
18.0252
 20
98.8167
 30
0.0
 10
18.0252
 20
98.8167
 30
0.0
 10
18.0252
 20
98.8167
 30
0.0
 10
14.0933
 20
102.7486
 30
0.0
 10
14.0933
 20
102.7486
 30
0.0
 10
14.0933
 20
102.7486
 30
0.0
 10
14.0933
 20
102.7486
 30
0.0
 10
20.0803
 20
108.7482
 30
0.0
 10
20.0803
 20
108.7482
 30
0.0
 10
20.0803
 20
108.7482
 30
0.0
 10
20.0803
 20
108.7482
 30
0.0
 10
14.0933
 20
114.6426
 30
0.0
 10
14.0933
 20
114.6426
 30
0.0
 10
14.0933
 20
114.6426
 30
0.0
 10
14.0933
 20
114.6426
 30
0.0
 10
18.0252
 20
118.5745
 30
0.0
 10
18.0252
 20
118.5745
 30
0.0
 10
18.0252
 20
118.5745
 30
0.0
 10
18.0252
 20
118.5745
 30
0.0
 10
23.9975
 20
112.6654
 30
0.0
 10
23.9975
 20
112.6654
 30
0.0
 10
23.9975
 20
112.6654
 30
0.0
 10
23.9975
 20
112.6654
 30
0.0
 10
23.9943
 20
104.726
 30
0.0
 10
23.9943
 20
104.726
 30
0.0
  0
SPLINE
  5
56
330
1F
100
AcDbEntity
  8
layer 1
 62
     7
100
AcDbSpline
210
0.0
220
0.0
230
1.0
 70
    11
 71
     3
 72
    20
 73
    16
 74
     0
 42
0.0000000001
 43
0.0000000001
 12
1.0
 22
0.0
 32
0.0
 13
1.0
 23
0.0
 33
0.0
 40
0.0
 40
0.0
 40
0.0
 40
0.0
 40
0.2
 40
0.2
 40
0.2
 40
0.2
 40
0.4
 40
0.4
 40
0.4
 40
0.4
 40
0.6
 40
0.6
 40
0.6
 40
0.6
 40
1.0
 40
1.0
 40
1.0
 40
1.0
 10
-61.0996
 20
113.7339
 30
0.0
 10
-58.3232
 20
110.9576
 30
0.0
 10
-58.3232
 20
106.4561
 30
0.0
 10
-61.0996
 20
103.6797
 30
0.0
 10
-61.0996
 20
103.6797
 30
0.0
 10
-63.876
 20
100.9033
 30
0.0
 10
-68.3775
 20
100.9033
 30
0.0
 10
-71.1538
 20
103.6797
 30
0.0
 10
-71.1538
 20
103.6797
 30
0.0
 10
-73.9302
 20
106.4561
 30
0.0
 10
-73.9302
 20
110.9576
 30
0.0
 10
-71.1538
 20
113.7339
 30
0.0
 10
-71.1538
 20
113.7339
 30
0.0
 10
-68.3775
 20
116.5103
 30
0.0
 10
-63.876
 20
116.5103
 30
0.0
 10
-61.0996
 20
113.7339
 30
0.0
  0
SPLINE
  5
57
330
1F
100
AcDbEntity
  8
layer 1
 62
     7
100
AcDbSpline
210
0.0
220
0.0
230
1.0
 70
    11
 71
     3
 72
    32
 73
    28
 74
     0
 42
0.0000000001
 43
0.0000000001
 12
1.0
 22
0.0
 32
0.0
 13
1.0
 23
0.0
 33
0.0
 40
0.0
 40
0.0
 40
0.0
 40
0.0
 40
0.125
 40
0.125
 40
0.125
 40
0.125
 40
0.25
 40
0.25
 40
0.25
 40
0.25
 40
0.375
 40
0.375
 40
0.375
 40
0.375
 40
0.5
 40
0.5
 40
0.5
 40
0.5
 40
0.625
 40
0.625
 40
0.625
 40
0.625
 40
0.75
 40
0.75
 40
0.75
 40
0.75
 40
1.0
 40
1.0
 40
1.0
 40
1.0
 10
-66.341
 20
122.9889
 30
0.0
 10
-66.341
 20
122.9889
 30
0.0
 10
-72.3101
 20
117.0795
 30
0.0
 10
-72.3101
 20
117.0795
 30
0.0
 10
-72.3101
 20
117.0795
 30
0.0
 10
-72.3101
 20
117.0795
 30
0.0
 10
-76.242
 20
121.0114
 30
0.0
 10
-76.242
 20
121.0114
 30
0.0
 10
-76.242
 20
121.0114
 30
0.0
 10
-76.242
 20
121.0114
 30
0.0
 10
-70.255
 20
127.0111
 30
0.0
 10
-70.255
 20
127.0111
 30
0.0
 10
-70.255
 20
127.0111
 30
0.0
 10
-70.255
 20
127.0111
 30
0.0
 10
-62.3878
 20
127.0144
 30
0.0
 10
-62.3878
 20
127.0144
 30
0.0
 10
-62.3878
 20
127.0144
 30
0.0
 10
-62.3878
 20
127.0144
 30
0.0
 10
-56.4841
 20
121.0113
 30
0.0
 10
-56.4841
 20
121.0113
 30
0.0
 10
-56.4841
 20
121.0113
 30
0.0
 10
-56.4841
 20
121.0113
 30
0.0
 10
-60.416
 20
117.0794
 30
0.0
 10
-60.416
 20
117.0794
 30
0.0
 10
-60.416
 20
117.0794
 30
0.0
 10
-60.416
 20
117.0794
 30
0.0
 10
-66.341
 20
122.9889
 30
0.0
 10
-66.341
 20
122.9889
 30
0.0
  0
SPLINE
  5
58
330
1F
100
AcDbEntity
  8
layer 1
 62
     7
100
AcDbSpline
210
0.0
220
0.0
230
1.0
 70
    11
 71
     3
 72
    20
 73
    16
 74
     0
 42
0.0000000001
 43
0.0000000001
 12
1.0
 22
0.0
 32
0.0
 13
1.0
 23
0.0
 33
0.0
 40
0.0
 40
0.0
 40
0.0
 40
0.0
 40
0.2
 40
0.2
 40
0.2
 40
0.2
 40
0.4
 40
0.4
 40
0.4
 40
0.4
 40
0.6
 40
0.6
 40
0.6
 40
0.6
 40
1.0
 40
1.0
 40
1.0
 40
1.0
 10
-24.9492
 20
113.7339
 30
0.0
 10
-22.1729
 20
110.9576
 30
0.0
 10
-22.1729
 20
106.4561
 30
0.0
 10
-24.9492
 20
103.6797
 30
0.0
 10
-24.9492
 20
103.6797
 30
0.0
 10
-27.7256
 20
100.9033
 30
0.0
 10
-32.2271
 20
100.9033
 30
0.0
 10
-35.0035
 20
103.6797
 30
0.0
 10
-35.0035
 20
103.6797
 30
0.0
 10
-37.7798
 20
106.4561
 30
0.0
 10
-37.7798
 20
110.9576
 30
0.0
 10
-35.0035
 20
113.7339
 30
0.0
 10
-35.0035
 20
113.7339
 30
0.0
 10
-32.2271
 20
116.5103
 30
0.0
 10
-27.7256
 20
116.5103
 30
0.0
 10
-24.9492
 20
113.7339
 30
0.0
  0
SPLINE
  5
59
330
1F
100
AcDbEntity
  8
layer 1
 62
     7
100
AcDbSpline
210
0.0
220
0.0
230
1.0
 70
    11
 71
     3
 72
    32
 73
    28
 74
     0
 42
0.0000000001
 43
0.0000000001
 12
1.0
 22
0.0
 32
0.0
 13
1.0
 23
0.0
 33
0.0
 40
0.0
 40
0.0
 40
0.0
 40
0.0
 40
0.125
 40
0.125
 40
0.125
 40
0.125
 40
0.25
 40
0.25
 40
0.25
 40
0.25
 40
0.375
 40
0.375
 40
0.375
 40
0.375
 40
0.5
 40
0.5
 40
0.5
 40
0.5
 40
0.625
 40
0.625
 40
0.625
 40
0.625
 40
0.75
 40
0.75
 40
0.75
 40
0.75
 40
1.0
 40
1.0
 40
1.0
 40
1.0
 10
-30.1907
 20
123.0212
 30
0.0
 10
-30.1907
 20
123.0212
 30
0.0
 10
-36.1597
 20
117.1119
 30
0.0
 10
-36.1597
 20
117.1119
 30
0.0
 10
-36.1597
 20
117.1119
 30
0.0
 10
-36.1597
 20
117.1119
 30
0.0
 10
-40.0917
 20
121.0438
 30
0.0
 10
-40.0917
 20
121.0438
 30
0.0
 10
-40.0917
 20
121.0438
 30
0.0
 10
-40.0917
 20
121.0438
 30
0.0
 10
-34.1046
 20
127.0434
 30
0.0
 10
-34.1046
 20
127.0434
 30
0.0
 10
-34.1046
 20
127.0434
 30
0.0
 10
-34.1046
 20
127.0434
 30
0.0
 10
-26.2374
 20
127.0468
 30
0.0
 10
-26.2374
 20
127.0468
 30
0.0
 10
-26.2374
 20
127.0468
 30
0.0
 10
-26.2374
 20
127.0468
 30
0.0
 10
-20.3337
 20
121.0437
 30
0.0
 10
-20.3337
 20
121.0437
 30
0.0
 10
-20.3337
 20
121.0437
 30
0.0
 10
-20.3337
 20
121.0437
 30
0.0
 10
-24.2656
 20
117.1118
 30
0.0
 10
-24.2656
 20
117.1118
 30
0.0
 10
-24.2656
 20
117.1118
 30
0.0
 10
-24.2656
 20
117.1118
 30
0.0
 10
-30.1907
 20
123.0212
 30
0.0
 10
-30.1907
 20
123.0212
 30
0.0
  0
SPLINE
  5
5A
330
1F
100
AcDbEntity
  8
layer 1
 62
     7
100
AcDbSpline
210
0.0
220
0.0
230
1.0
 70
    11
 71
     3
 72
    20
 73
    16
 74
     0
 42
0.0000000001
 43
0.0000000001
 12
1.0
 22
0.0
 32
0.0
 13
1.0
 23
0.0
 33
0.0
 40
0.0
 40
0.0
 40
0.0
 40
0.0
 40
0.2
 40
0.2
 40
0.2
 40
0.2
 40
0.4
 40
0.4
 40
0.4
 40
0.4
 40
0.6
 40
0.6
 40
0.6
 40
0.6
 40
1.0
 40
1.0
 40
1.0
 40
1.0
 10
11.3192
 20
113.7339
 30
0.0
 10
14.0956
 20
110.9576
 30
0.0
 10
14.0956
 20
106.4561
 30
0.0
 10
11.3192
 20
103.6797
 30
0.0
 10
11.3192
 20
103.6797
 30
0.0
 10
8.5429
 20
100.9033
 30
0.0
 10
4.0413
 20
100.9033
 30
0.0
 10
1.265
 20
103.6797
 30
0.0
 10
1.265
 20
103.6797
 30
0.0
 10
-1.5114
 20
106.4561
 30
0.0
 10
-1.5114
 20
110.9576
 30
0.0
 10
1.265
 20
113.7339
 30
0.0
 10
1.265
 20
113.7339
 30
0.0
 10
4.0413
 20
116.5103
 30
0.0
 10
8.5429
 20
116.5103
 30
0.0
 10
11.3192
 20
113.7339
 30
0.0
  0
SPLINE
  5
5B
330
1F
100
AcDbEntity
  8
layer 1
 62
     7
100
AcDbSpline
210
0.0
220
0.0
230
1.0
 70
    11
 71
     3
 72
    32
 73
    28
 74
     0
 42
0.0000000001
 43
0.0000000001
 12
1.0
 22
0.0
 32
0.0
 13
1.0
 23
0.0
 33
0.0
 40
0.0
 40
0.0
 40
0.0
 40
0.0
 40
0.125
 40
0.125
 40
0.125
 40
0.125
 40
0.25
 40
0.25
 40
0.25
 40
0.25
 40
0.375
 40
0.375
 40
0.375
 40
0.375
 40
0.5
 40
0.5
 40
0.5
 40
0.5
 40
0.625
 40
0.625
 40
0.625
 40
0.625
 40
0.75
 40
0.75
 40
0.75
 40
0.75
 40
1.0
 40
1.0
 40
1.0
 40
1.0
 10
6.0778
 20
123.0212
 30
0.0
 10
6.0778
 20
123.0212
 30
0.0
 10
0.1087
 20
117.1119
 30
0.0
 10
0.1087
 20
117.1119
 30
0.0
 10
0.1087
 20
117.1119
 30
0.0
 10
0.1087
 20
117.1119
 30
0.0
 10
-3.8232
 20
121.0438
 30
0.0
 10
-3.8232
 20
121.0438
 30
0.0
 10
-3.8232
 20
121.0438
 30
0.0
 10
-3.8232
 20
121.0438
 30
0.0
 10
2.1639
 20
127.0434
 30
0.0
 10
2.1639
 20
127.0434
 30
0.0
 10
2.1639
 20
127.0434
 30
0.0
 10
2.1639
 20
127.0434
 30
0.0
 10
10.031
 20
127.0468
 30
0.0
 10
10.031
 20
127.0468
 30
0.0
 10
10.031
 20
127.0468
 30
0.0
 10
10.031
 20
127.0468
 30
0.0
 10
15.9348
 20
121.0437
 30
0.0
 10
15.9348
 20
121.0437
 30
0.0
 10
15.9348
 20
121.0437
 30
0.0
 10
15.9348
 20
121.0437
 30
0.0
 10
12.0029
 20
117.1118
 30
0.0
 10
12.0029
 20
117.1118
 30
0.0
 10
12.0029
 20
117.1118
 30
0.0
 10
12.0029
 20
117.1118
 30
0.0
 10
6.0778
 20
123.0212
 30
0.0
 10
6.0778
 20
123.0212
 30
0.0
  0
SPLINE
  5
5C
330
1F
100
AcDbEntity
  8
layer 1
 62
     7
100
AcDbSpline
210
0.0
220
0.0
230
1.0
 70
    11
 71
     3
 72
    52
 73
    48
 74
     0
 42
0.0000000001
 43
0.0000000001
 12
1.0
 22
0.0
 32
0.0
 13
1.0
 23
0.0
 33
0.0
 40
0.0
 40
0.0
 40
0.0
 40
0.0
 40
0.0769230769230769
 40
0.0769230769230769
 40
0.0769230769230769
 40
0.0769230769230769
 40
0.1538461538461539
 40
0.1538461538461539
 40
0.1538461538461539
 40
0.1538461538461539
 40
0.2307692307692308
 40
0.2307692307692308
 40
0.2307692307692308
 40
0.2307692307692308
 40
0.3076923076923077
 40
0.3076923076923077
 40
0.3076923076923077
 40
0.3076923076923077
 40
0.3846153846153846
 40
0.3846153846153846
 40
0.3846153846153846
 40
0.3846153846153846
 40
0.4615384615384616
 40
0.4615384615384616
 40
0.4615384615384616
 40
0.4615384615384616
 40
0.5384615384615384
 40
0.5384615384615384
 40
0.5384615384615384
 40
0.5384615384615384
 40
0.6153846153846154
 40
0.6153846153846154
 40
0.6153846153846154
 40
0.6153846153846154
 40
0.6923076923076923
 40
0.6923076923076923
 40
0.6923076923076923
 40
0.6923076923076923
 40
0.7692307692307693
 40
0.7692307692307693
 40
0.7692307692307693
 40
0.7692307692307693
 40
0.8461538461538461
 40
0.8461538461538461
 40
0.8461538461538461
 40
0.8461538461538461
 40
1.0
 40
1.0
 40
1.0
 40
1.0
 10
-29.8705
 20
86.4307
 30
0.0
 10
-29.8705
 20
86.4307
 30
0.0
 10
-35.8396
 20
80.5214
 30
0.0
 10
-35.8396
 20
80.5214
 30
0.0
 10
-35.8396
 20
80.5214
 30
0.0
 10
-35.8396
 20
80.5214
 30
0.0
 10
-39.7715
 20
84.4533
 30
0.0
 10
-39.7715
 20
84.4533
 30
0.0
 10
-39.7715
 20
84.4533
 30
0.0
 10
-39.7715
 20
84.4533
 30
0.0
 10
-33.7845
 20
90.453
 30
0.0
 10
-33.7845
 20
90.453
 30
0.0
 10
-33.7845
 20
90.453
 30
0.0
 10
-33.7845
 20
90.453
 30
0.0
 10
-39.7715
 20
96.3473
 30
0.0
 10
-39.7715
 20
96.3473
 30
0.0
 10
-39.7715
 20
96.3473
 30
0.0
 10
-39.7715
 20
96.3473
 30
0.0
 10
-35.8396
 20
100.2793
 30
0.0
 10
-35.8396
 20
100.2793
 30
0.0
 10
-35.8396
 20
100.2793
 30
0.0
 10
-35.8396
 20
100.2793
 30
0.0
 10
-29.8673
 20
94.3701
 30
0.0
 10
-29.8673
 20
94.3701
 30
0.0
 10
-29.8673
 20
94.3701
 30
0.0
 10
-29.8673
 20
94.3701
 30
0.0
 10
-23.9455
 20
100.2794
 30
0.0
 10
-23.9455
 20
100.2794
 30
0.0
 10
-23.9455
 20
100.2794
 30
0.0
 10
-23.9455
 20
100.2794
 30
0.0
 10
-20.0136
 20
96.3474
 30
0.0
 10
-20.0136
 20
96.3474
 30
0.0
 10
-20.0136
 20
96.3474
 30
0.0
 10
-20.0136
 20
96.3474
 30
0.0
 10
-25.9173
 20
90.4563
 30
0.0
 10
-25.9173
 20
90.4563
 30
0.0
 10
-25.9173
 20
90.4563
 30
0.0
 10
-25.9173
 20
90.4563
 30
0.0
 10
-20.0136
 20
84.4532
 30
0.0
 10
-20.0136
 20
84.4532
 30
0.0
 10
-20.0136
 20
84.4532
 30
0.0
 10
-20.0136
 20
84.4532
 30
0.0
 10
-23.9455
 20
80.5213
 30
0.0
 10
-23.9455
 20
80.5213
 30
0.0
 10
-23.9455
 20
80.5213
 30
0.0
 10
-23.9455
 20
80.5213
 30
0.0
 10
-29.8705
 20
86.4307
 30
0.0
 10
-29.8705
 20
86.4307
 30
0.0
  0
SPLINE
  5
5D
330
1F
100
AcDbEntity
  8
layer 1
 62
     7
100
AcDbSpline
210
0.0
220
0.0
230
1.0
 70
    11
 71
     3
 72
    52
 73
    48
 74
     0
 42
0.0000000001
 43
0.0000000001
 12
1.0
 22
0.0
 32
0.0
 13
1.0
 23
0.0
 33
0.0
 40
0.0
 40
0.0
 40
0.0
 40
0.0
 40
0.0769230769230769
 40
0.0769230769230769
 40
0.0769230769230769
 40
0.0769230769230769
 40
0.1538461538461539
 40
0.1538461538461539
 40
0.1538461538461539
 40
0.1538461538461539
 40
0.2307692307692308
 40
0.2307692307692308
 40
0.2307692307692308
 40
0.2307692307692308
 40
0.3076923076923077
 40
0.3076923076923077
 40
0.3076923076923077
 40
0.3076923076923077
 40
0.3846153846153846
 40
0.3846153846153846
 40
0.3846153846153846
 40
0.3846153846153846
 40
0.4615384615384616
 40
0.4615384615384616
 40
0.4615384615384616
 40
0.4615384615384616
 40
0.5384615384615384
 40
0.5384615384615384
 40
0.5384615384615384
 40
0.5384615384615384
 40
0.6153846153846154
 40
0.6153846153846154
 40
0.6153846153846154
 40
0.6153846153846154
 40
0.6923076923076923
 40
0.6923076923076923
 40
0.6923076923076923
 40
0.6923076923076923
 40
0.7692307692307693
 40
0.7692307692307693
 40
0.7692307692307693
 40
0.7692307692307693
 40
0.8461538461538461
 40
0.8461538461538461
 40
0.8461538461538461
 40
0.8461538461538461
 40
1.0
 40
1.0
 40
1.0
 40
1.0
 10
-65.9594
 20
86.4095
 30
0.0
 10
-65.9594
 20
86.4095
 30
0.0
 10
-71.9285
 20
80.5001
 30
0.0
 10
-71.9285
 20
80.5001
 30
0.0
 10
-71.9285
 20
80.5001
 30
0.0
 10
-71.9285
 20
80.5001
 30
0.0
 10
-75.8604
 20
84.4321
 30
0.0
 10
-75.8604
 20
84.4321
 30
0.0
 10
-75.8604
 20
84.4321
 30
0.0
 10
-75.8604
 20
84.4321
 30
0.0
 10
-69.8734
 20
90.4317
 30
0.0
 10
-69.8734
 20
90.4317
 30
0.0
 10
-69.8734
 20
90.4317
 30
0.0
 10
-69.8734
 20
90.4317
 30
0.0
 10
-75.8604
 20
96.3261
 30
0.0
 10
-75.8604
 20
96.3261
 30
0.0
 10
-75.8604
 20
96.3261
 30
0.0
 10
-75.8604
 20
96.3261
 30
0.0
 10
-71.9285
 20
100.258
 30
0.0
 10
-71.9285
 20
100.258
 30
0.0
 10
-71.9285
 20
100.258
 30
0.0
 10
-71.9285
 20
100.258
 30
0.0
 10
-65.9562
 20
94.3489
 30
0.0
 10
-65.9562
 20
94.3489
 30
0.0
 10
-65.9562
 20
94.3489
 30
0.0
 10
-65.9562
 20
94.3489
 30
0.0
 10
-60.0344
 20
100.2581
 30
0.0
 10
-60.0344
 20
100.2581
 30
0.0
 10
-60.0344
 20
100.2581
 30
0.0
 10
-60.0344
 20
100.2581
 30
0.0
 10
-56.1024
 20
96.3262
 30
0.0
 10
-56.1024
 20
96.3262
 30
0.0
 10
-56.1024
 20
96.3262
 30
0.0
 10
-56.1024
 20
96.3262
 30
0.0
 10
-62.0062
 20
90.435
 30
0.0
 10
-62.0062
 20
90.435
 30
0.0
 10
-62.0062
 20
90.435
 30
0.0
 10
-62.0062
 20
90.435
 30
0.0
 10
-56.1024
 20
84.432
 30
0.0
 10
-56.1024
 20
84.432
 30
0.0
 10
-56.1024
 20
84.432
 30
0.0
 10
-56.1024
 20
84.432
 30
0.0
 10
-60.0344
 20
80.5
 30
0.0
 10
-60.0344
 20
80.5
 30
0.0
 10
-60.0344
 20
80.5
 30
0.0
 10
-60.0344
 20
80.5
 30
0.0
 10
-65.9594
 20
86.4095
 30
0.0
 10
-65.9594
 20
86.4095
 30
0.0
  0
SPLINE
  5
5E
330
1F
100
AcDbEntity
  8
layer 1
 62
     7
100
AcDbSpline
210
0.0
220
0.0
230
1.0
 70
    11
 71
     3
 72
    52
 73
    48
 74
     0
 42
0.0000000001
 43
0.0000000001
 12
1.0
 22
0.0
 32
0.0
 13
1.0
 23
0.0
 33
0.0
 40
0.0
 40
0.0
 40
0.0
 40
0.0
 40
0.0769230769230769
 40
0.0769230769230769
 40
0.0769230769230769
 40
0.0769230769230769
 40
0.1538461538461539
 40
0.1538461538461539
 40
0.1538461538461539
 40
0.1538461538461539
 40
0.2307692307692308
 40
0.2307692307692308
 40
0.2307692307692308
 40
0.2307692307692308
 40
0.3076923076923077
 40
0.3076923076923077
 40
0.3076923076923077
 40
0.3076923076923077
 40
0.3846153846153846
 40
0.3846153846153846
 40
0.3846153846153846
 40
0.3846153846153846
 40
0.4615384615384616
 40
0.4615384615384616
 40
0.4615384615384616
 40
0.4615384615384616
 40
0.5384615384615384
 40
0.5384615384615384
 40
0.5384615384615384
 40
0.5384615384615384
 40
0.6153846153846154
 40
0.6153846153846154
 40
0.6153846153846154
 40
0.6153846153846154
 40
0.6923076923076923
 40
0.6923076923076923
 40
0.6923076923076923
 40
0.6923076923076923
 40
0.7692307692307693
 40
0.7692307692307693
 40
0.7692307692307693
 40
0.7692307692307693
 40
0.8461538461538461
 40
0.8461538461538461
 40
0.8461538461538461
 40
0.8461538461538461
 40
1.0
 40
1.0
 40
1.0
 40
1.0
 10
6.0662
 20
86.4307
 30
0.0
 10
6.0662
 20
86.4307
 30
0.0
 10
0.0971
 20
80.5214
 30
0.0
 10
0.0971
 20
80.5214
 30
0.0
 10
0.0971
 20
80.5214
 30
0.0
 10
0.0971
 20
80.5214
 30
0.0
 10
-3.8348
 20
84.4533
 30
0.0
 10
-3.8348
 20
84.4533
 30
0.0
 10
-3.8348
 20
84.4533
 30
0.0
 10
-3.8348
 20
84.4533
 30
0.0
 10
2.1522
 20
90.453
 30
0.0
 10
2.1522
 20
90.453
 30
0.0
 10
2.1522
 20
90.453
 30
0.0
 10
2.1522
 20
90.453
 30
0.0
 10
-3.8348
 20
96.3473
 30
0.0
 10
-3.8348
 20
96.3473
 30
0.0
 10
-3.8348
 20
96.3473
 30
0.0
 10
-3.8348
 20
96.3473
 30
0.0
 10
0.0971
 20
100.2793
 30
0.0
 10
0.0971
 20
100.2793
 30
0.0
 10
0.0971
 20
100.2793
 30
0.0
 10
0.0971
 20
100.2793
 30
0.0
 10
6.0694
 20
94.3701
 30
0.0
 10
6.0694
 20
94.3701
 30
0.0
 10
6.0694
 20
94.3701
 30
0.0
 10
6.0694
 20
94.3701
 30
0.0
 10
11.9912
 20
100.2794
 30
0.0
 10
11.9912
 20
100.2794
 30
0.0
 10
11.9912
 20
100.2794
 30
0.0
 10
11.9912
 20
100.2794
 30
0.0
 10
15.9232
 20
96.3474
 30
0.0
 10
15.9232
 20
96.3474
 30
0.0
 10
15.9232
 20
96.3474
 30
0.0
 10
15.9232
 20
96.3474
 30
0.0
 10
10.0194
 20
90.4563
 30
0.0
 10
10.0194
 20
90.4563
 30
0.0
 10
10.0194
 20
90.4563
 30
0.0
 10
10.0194
 20
90.4563
 30
0.0
 10
15.9232
 20
84.4532
 30
0.0
 10
15.9232
 20
84.4532
 30
0.0
 10
15.9232
 20
84.4532
 30
0.0
 10
15.9232
 20
84.4532
 30
0.0
 10
11.9912
 20
80.5213
 30
0.0
 10
11.9912
 20
80.5213
 30
0.0
 10
11.9912
 20
80.5213
 30
0.0
 10
11.9912
 20
80.5213
 30
0.0
 10
6.0662
 20
86.4307
 30
0.0
 10
6.0662
 20
86.4307
 30
0.0
  0
SPLINE
  5
5F
330
1F
100
AcDbEntity
  8
layer 1
 62
     7
100
AcDbSpline
210
0.0
220
0.0
230
1.0
 70
    11
 71
     3
 72
    20
 73
    16
 74
     0
 42
0.0000000001
 43
0.0000000001
 12
1.0
 22
0.0
 32
0.0
 13
1.0
 23
0.0
 33
0.0
 40
0.0
 40
0.0
 40
0.0
 40
0.0
 40
0.2
 40
0.2
 40
0.2
 40
0.2
 40
0.4
 40
0.4
 40
0.4
 40
0.4
 40
0.6
 40
0.6
 40
0.6
 40
0.6
 40
1.0
 40
1.0
 40
1.0
 40
1.0
 10
-42.8773
 20
95.4387
 30
0.0
 10
-40.101
 20
92.6623
 30
0.0
 10
-40.101
 20
88.1608
 30
0.0
 10
-42.8773
 20
85.3844
 30
0.0
 10
-42.8773
 20
85.3844
 30
0.0
 10
-45.6537
 20
82.6081
 30
0.0
 10
-50.1552
 20
82.6081
 30
0.0
 10
-52.9316
 20
85.3844
 30
0.0
 10
-52.9316
 20
85.3844
 30
0.0
 10
-55.7079
 20
88.1608
 30
0.0
 10
-55.7079
 20
92.6623
 30
0.0
 10
-52.9316
 20
95.4387
 30
0.0
 10
-52.9316
 20
95.4387
 30
0.0
 10
-50.1552
 20
98.215
 30
0.0
 10
-45.6537
 20
98.215
 30
0.0
 10
-42.8773
 20
95.4387
 30
0.0
  0
SPLINE
  5
60
330
1F
100
AcDbEntity
  8
layer 1
 62
     7
100
AcDbSpline
210
0.0
220
0.0
230
1.0
 70
    11
 71
     3
 72
    20
 73
    16
 74
     0
 42
0.0000000001
 43
0.0000000001
 12
1.0
 22
0.0
 32
0.0
 13
1.0
 23
0.0
 33
0.0
 40
0.0
 40
0.0
 40
0.0
 40
0.0
 40
0.2
 40
0.2
 40
0.2
 40
0.2
 40
0.4
 40
0.4
 40
0.4
 40
0.4
 40
0.6
 40
0.6
 40
0.6
 40
0.6
 40
1.0
 40
1.0
 40
1.0
 40
1.0
 10
-6.963
 20
95.4633
 30
0.0
 10
-4.1867
 20
92.687
 30
0.0
 10
-4.1867
 20
88.1854
 30
0.0
 10
-6.963
 20
85.4091
 30
0.0
 10
-6.963
 20
85.4091
 30
0.0
 10
-9.7394
 20
82.6327
 30
0.0
 10
-14.2409
 20
82.6327
 30
0.0
 10
-17.0173
 20
85.4091
 30
0.0
 10
-17.0173
 20
85.4091
 30
0.0
 10
-19.7936
 20
88.1854
 30
0.0
 10
-19.7936
 20
92.687
 30
0.0
 10
-17.0173
 20
95.4633
 30
0.0
 10
-17.0173
 20
95.4633
 30
0.0
 10
-14.2409
 20
98.2397
 30
0.0
 10
-9.7394
 20
98.2397
 30
0.0
 10
-6.963
 20
95.4633
 30
0.0
  0
SPLINE
  5
61
330
1F
100
AcDbEntity
  8
layer 1
 62
     7
100
AcDbSpline
210
0.0
220
0.0
230
1.0
 70
    11
 71
     3
 72
    52
 73
    48
 74
     0
 42
0.0000000001
 43
0.0000000001
 12
1.0
 22
0.0
 32
0.0
 13
1.0
 23
0.0
 33
0.0
 40
0.0
 40
0.0
 40
0.0
 40
0.0
 40
0.0769230769230769
 40
0.0769230769230769
 40
0.0769230769230769
 40
0.0769230769230769
 40
0.1538461538461539
 40
0.1538461538461539
 40
0.1538461538461539
 40
0.1538461538461539
 40
0.2307692307692308
 40
0.2307692307692308
 40
0.2307692307692308
 40
0.2307692307692308
 40
0.3076923076923077
 40
0.3076923076923077
 40
0.3076923076923077
 40
0.3076923076923077
 40
0.3846153846153846
 40
0.3846153846153846
 40
0.3846153846153846
 40
0.3846153846153846
 40
0.4615384615384616
 40
0.4615384615384616
 40
0.4615384615384616
 40
0.4615384615384616
 40
0.5384615384615384
 40
0.5384615384615384
 40
0.5384615384615384
 40
0.5384615384615384
 40
0.6153846153846154
 40
0.6153846153846154
 40
0.6153846153846154
 40
0.6153846153846154
 40
0.6923076923076923
 40
0.6923076923076923
 40
0.6923076923076923
 40
0.6923076923076923
 40
0.7692307692307693
 40
0.7692307692307693
 40
0.7692307692307693
 40
0.7692307692307693
 40
0.8461538461538461
 40
0.8461538461538461
 40
0.8461538461538461
 40
0.8461538461538461
 40
1.0
 40
1.0
 40
1.0
 40
1.0
 10
-11.9424
 20
68.1968
 30
0.0
 10
-11.9424
 20
68.1968
 30
0.0
 10
-17.9115
 20
62.2875
 30
0.0
 10
-17.9115
 20
62.2875
 30
0.0
 10
-17.9115
 20
62.2875
 30
0.0
 10
-17.9115
 20
62.2875
 30
0.0
 10
-21.8435
 20
66.2194
 30
0.0
 10
-21.8435
 20
66.2194
 30
0.0
 10
-21.8435
 20
66.2194
 30
0.0
 10
-21.8435
 20
66.2194
 30
0.0
 10
-15.8564
 20
72.219
 30
0.0
 10
-15.8564
 20
72.219
 30
0.0
 10
-15.8564
 20
72.219
 30
0.0
 10
-15.8564
 20
72.219
 30
0.0
 10
-21.8435
 20
78.1134
 30
0.0
 10
-21.8435
 20
78.1134
 30
0.0
 10
-21.8435
 20
78.1134
 30
0.0
 10
-21.8435
 20
78.1134
 30
0.0
 10
-17.9115
 20
82.0453
 30
0.0
 10
-17.9115
 20
82.0453
 30
0.0
 10
-17.9115
 20
82.0453
 30
0.0
 10
-17.9115
 20
82.0453
 30
0.0
 10
-11.9392
 20
76.1362
 30
0.0
 10
-11.9392
 20
76.1362
 30
0.0
 10
-11.9392
 20
76.1362
 30
0.0
 10
-11.9392
 20
76.1362
 30
0.0
 10
-6.0174
 20
82.0454
 30
0.0
 10
-6.0174
 20
82.0454
 30
0.0
 10
-6.0174
 20
82.0454
 30
0.0
 10
-6.0174
 20
82.0454
 30
0.0
 10
-2.0855
 20
78.1135
 30
0.0
 10
-2.0855
 20
78.1135
 30
0.0
 10
-2.0855
 20
78.1135
 30
0.0
 10
-2.0855
 20
78.1135
 30
0.0
 10
-7.9892
 20
72.2224
 30
0.0
 10
-7.9892
 20
72.2224
 30
0.0
 10
-7.9892
 20
72.2224
 30
0.0
 10
-7.9892
 20
72.2224
 30
0.0
 10
-2.0855
 20
66.2193
 30
0.0
 10
-2.0855
 20
66.2193
 30
0.0
 10
-2.0855
 20
66.2193
 30
0.0
 10
-2.0855
 20
66.2193
 30
0.0
 10
-6.0174
 20
62.2874
 30
0.0
 10
-6.0174
 20
62.2874
 30
0.0
 10
-6.0174
 20
62.2874
 30
0.0
 10
-6.0174
 20
62.2874
 30
0.0
 10
-11.9424
 20
68.1968
 30
0.0
 10
-11.9424
 20
68.1968
 30
0.0
  0
SPLINE
  5
62
330
1F
100
AcDbEntity
  8
layer 1
 62
     7
100
AcDbSpline
210
0.0
220
0.0
230
1.0
 70
    11
 71
     3
 72
    52
 73
    48
 74
     0
 42
0.0000000001
 43
0.0000000001
 12
1.0
 22
0.0
 32
0.0
 13
1.0
 23
0.0
 33
0.0
 40
0.0
 40
0.0
 40
0.0
 40
0.0
 40
0.0769230769230769
 40
0.0769230769230769
 40
0.0769230769230769
 40
0.0769230769230769
 40
0.1538461538461539
 40
0.1538461538461539
 40
0.1538461538461539
 40
0.1538461538461539
 40
0.2307692307692308
 40
0.2307692307692308
 40
0.2307692307692308
 40
0.2307692307692308
 40
0.3076923076923077
 40
0.3076923076923077
 40
0.3076923076923077
 40
0.3076923076923077
 40
0.3846153846153846
 40
0.3846153846153846
 40
0.3846153846153846
 40
0.3846153846153846
 40
0.4615384615384616
 40
0.4615384615384616
 40
0.4615384615384616
 40
0.4615384615384616
 40
0.5384615384615384
 40
0.5384615384615384
 40
0.5384615384615384
 40
0.5384615384615384
 40
0.6153846153846154
 40
0.6153846153846154
 40
0.6153846153846154
 40
0.6153846153846154
 40
0.6923076923076923
 40
0.6923076923076923
 40
0.6923076923076923
 40
0.6923076923076923
 40
0.7692307692307693
 40
0.7692307692307693
 40
0.7692307692307693
 40
0.7692307692307693
 40
0.8461538461538461
 40
0.8461538461538461
 40
0.8461538461538461
 40
0.8461538461538461
 40
1.0
 40
1.0
 40
1.0
 40
1.0
 10
-48.0313
 20
68.1756
 30
0.0
 10
-48.0313
 20
68.1756
 30
0.0
 10
-54.0004
 20
62.2662
 30
0.0
 10
-54.0004
 20
62.2662
 30
0.0
 10
-54.0004
 20
62.2662
 30
0.0
 10
-54.0004
 20
62.2662
 30
0.0
 10
-57.9324
 20
66.1981
 30
0.0
 10
-57.9324
 20
66.1981
 30
0.0
 10
-57.9324
 20
66.1981
 30
0.0
 10
-57.9324
 20
66.1981
 30
0.0
 10
-51.9453
 20
72.1978
 30
0.0
 10
-51.9453
 20
72.1978
 30
0.0
 10
-51.9453
 20
72.1978
 30
0.0
 10
-51.9453
 20
72.1978
 30
0.0
 10
-57.9324
 20
78.0921
 30
0.0
 10
-57.9324
 20
78.0921
 30
0.0
 10
-57.9324
 20
78.0921
 30
0.0
 10
-57.9324
 20
78.0921
 30
0.0
 10
-54.0004
 20
82.0241
 30
0.0
 10
-54.0004
 20
82.0241
 30
0.0
 10
-54.0004
 20
82.0241
 30
0.0
 10
-54.0004
 20
82.0241
 30
0.0
 10
-48.0281
 20
76.115
 30
0.0
 10
-48.0281
 20
76.115
 30
0.0
 10
-48.0281
 20
76.115
 30
0.0
 10
-48.0281
 20
76.115
 30
0.0
 10
-42.1063
 20
82.0242
 30
0.0
 10
-42.1063
 20
82.0242
 30
0.0
 10
-42.1063
 20
82.0242
 30
0.0
 10
-42.1063
 20
82.0242
 30
0.0
 10
-38.1744
 20
78.0923
 30
0.0
 10
-38.1744
 20
78.0923
 30
0.0
 10
-38.1744
 20
78.0923
 30
0.0
 10
-38.1744
 20
78.0923
 30
0.0
 10
-44.0781
 20
72.2011
 30
0.0
 10
-44.0781
 20
72.2011
 30
0.0
 10
-44.0781
 20
72.2011
 30
0.0
 10
-44.0781
 20
72.2011
 30
0.0
 10
-38.1744
 20
66.198
 30
0.0
 10
-38.1744
 20
66.198
 30
0.0
 10
-38.1744
 20
66.198
 30
0.0
 10
-38.1744
 20
66.198
 30
0.0
 10
-42.1063
 20
62.2661
 30
0.0
 10
-42.1063
 20
62.2661
 30
0.0
 10
-42.1063
 20
62.2661
 30
0.0
 10
-42.1063
 20
62.2661
 30
0.0
 10
-48.0313
 20
68.1756
 30
0.0
 10
-48.0313
 20
68.1756
 30
0.0
  0
SPLINE
  5
63
330
1F
100
AcDbEntity
  8
layer 1
 62
     7
100
AcDbSpline
210
0.0
220
0.0
230
1.0
 70
    11
 71
     3
 72
    32
 73
    28
 74
     0
 42
0.0000000001
 43
0.0000000001
 12
1.0
 22
0.0
 32
0.0
 13
1.0
 23
0.0
 33
0.0
 40
0.0
 40
0.0
 40
0.0
 40
0.0
 40
0.125
 40
0.125
 40
0.125
 40
0.125
 40
0.25
 40
0.25
 40
0.25
 40
0.25
 40
0.375
 40
0.375
 40
0.375
 40
0.375
 40
0.5
 40
0.5
 40
0.5
 40
0.5
 40
0.625
 40
0.625
 40
0.625
 40
0.625
 40
0.75
 40
0.75
 40
0.75
 40
0.75
 40
1.0
 40
1.0
 40
1.0
 40
1.0
 10
23.9943
 20
68.1968
 30
0.0
 10
23.9943
 20
68.1968
 30
0.0
 10
18.0252
 20
62.2875
 30
0.0
 10
18.0252
 20
62.2875
 30
0.0
 10
18.0252
 20
62.2875
 30
0.0
 10
18.0252
 20
62.2875
 30
0.0
 10
14.0933
 20
66.2194
 30
0.0
 10
14.0933
 20
66.2194
 30
0.0
 10
14.0933
 20
66.2194
 30
0.0
 10
14.0933
 20
66.2194
 30
0.0
 10
20.0803
 20
72.219
 30
0.0
 10
20.0803
 20
72.219
 30
0.0
 10
20.0803
 20
72.219
 30
0.0
 10
20.0803
 20
72.219
 30
0.0
 10
14.0933
 20
78.1134
 30
0.0
 10
14.0933
 20
78.1134
 30
0.0
 10
14.0933
 20
78.1134
 30
0.0
 10
14.0933
 20
78.1134
 30
0.0
 10
18.0252
 20
82.0453
 30
0.0
 10
18.0252
 20
82.0453
 30
0.0
 10
18.0252
 20
82.0453
 30
0.0
 10
18.0252
 20
82.0453
 30
0.0
 10
23.9975
 20
76.1362
 30
0.0
 10
23.9975
 20
76.1362
 30
0.0
 10
23.9975
 20
76.1362
 30
0.0
 10
23.9975
 20
76.1362
 30
0.0
 10
23.9943
 20
68.1968
 30
0.0
 10
23.9943
 20
68.1968
 30
0.0
  0
SPLINE
  5
64
330
1F
100
AcDbEntity
  8
layer 1
 62
     7
100
AcDbSpline
210
0.0
220
0.0
230
1.0
 70
    11
 71
     3
 72
    20
 73
    16
 74
     0
 42
0.0000000001
 43
0.0000000001
 12
1.0
 22
0.0
 32
0.0
 13
1.0
 23
0.0
 33
0.0
 40
0.0
 40
0.0
 40
0.0
 40
0.0
 40
0.2
 40
0.2
 40
0.2
 40
0.2
 40
0.4
 40
0.4
 40
0.4
 40
0.4
 40
0.6
 40
0.6
 40
0.6
 40
0.6
 40
1.0
 40
1.0
 40
1.0
 40
1.0
 10
-61.0996
 20
77.2047
 30
0.0
 10
-58.3232
 20
74.4284
 30
0.0
 10
-58.3232
 20
69.9269
 30
0.0
 10
-61.0996
 20
67.1505
 30
0.0
 10
-61.0996
 20
67.1505
 30
0.0
 10
-63.876
 20
64.3741
 30
0.0
 10
-68.3775
 20
64.3741
 30
0.0
 10
-71.1538
 20
67.1505
 30
0.0
 10
-71.1538
 20
67.1505
 30
0.0
 10
-73.9302
 20
69.9269
 30
0.0
 10
-73.9302
 20
74.4284
 30
0.0
 10
-71.1538
 20
77.2047
 30
0.0
 10
-71.1538
 20
77.2047
 30
0.0
 10
-68.3775
 20
79.9811
 30
0.0
 10
-63.876
 20
79.9811
 30
0.0
 10
-61.0996
 20
77.2047
 30
0.0
  0
SPLINE
  5
65
330
1F
100
AcDbEntity
  8
layer 1
 62
     7
100
AcDbSpline
210
0.0
220
0.0
230
1.0
 70
    11
 71
     3
 72
    20
 73
    16
 74
     0
 42
0.0000000001
 43
0.0000000001
 12
1.0
 22
0.0
 32
0.0
 13
1.0
 23
0.0
 33
0.0
 40
0.0
 40
0.0
 40
0.0
 40
0.0
 40
0.2
 40
0.2
 40
0.2
 40
0.2
 40
0.4
 40
0.4
 40
0.4
 40
0.4
 40
0.6
 40
0.6
 40
0.6
 40
0.6
 40
1.0
 40
1.0
 40
1.0
 40
1.0
 10
-24.9492
 20
77.2047
 30
0.0
 10
-22.1729
 20
74.4284
 30
0.0
 10
-22.1729
 20
69.9269
 30
0.0
 10
-24.9492
 20
67.1505
 30
0.0
 10
-24.9492
 20
67.1505
 30
0.0
 10
-27.7256
 20
64.3741
 30
0.0
 10
-32.2271
 20
64.3741
 30
0.0
 10
-35.0035
 20
67.1505
 30
0.0
 10
-35.0035
 20
67.1505
 30
0.0
 10
-37.7798
 20
69.9269
 30
0.0
 10
-37.7798
 20
74.4284
 30
0.0
 10
-35.0035
 20
77.2047
 30
0.0
 10
-35.0035
 20
77.2047
 30
0.0
 10
-32.2271
 20
79.9811
 30
0.0
 10
-27.7256
 20
79.9811
 30
0.0
 10
-24.9492
 20
77.2047
 30
0.0
  0
SPLINE
  5
66
330
1F
100
AcDbEntity
  8
layer 1
 62
     7
100
AcDbSpline
210
0.0
220
0.0
230
1.0
 70
    11
 71
     3
 72
    20
 73
    16
 74
     0
 42
0.0000000001
 43
0.0000000001
 12
1.0
 22
0.0
 32
0.0
 13
1.0
 23
0.0
 33
0.0
 40
0.0
 40
0.0
 40
0.0
 40
0.0
 40
0.2
 40
0.2
 40
0.2
 40
0.2
 40
0.4
 40
0.4
 40
0.4
 40
0.4
 40
0.6
 40
0.6
 40
0.6
 40
0.6
 40
1.0
 40
1.0
 40
1.0
 40
1.0
 10
11.3192
 20
77.2047
 30
0.0
 10
14.0956
 20
74.4284
 30
0.0
 10
14.0956
 20
69.9269
 30
0.0
 10
11.3192
 20
67.1505
 30
0.0
 10
11.3192
 20
67.1505
 30
0.0
 10
8.5429
 20
64.3741
 30
0.0
 10
4.0413
 20
64.3741
 30
0.0
 10
1.265
 20
67.1505
 30
0.0
 10
1.265
 20
67.1505
 30
0.0
 10
-1.5114
 20
69.9269
 30
0.0
 10
-1.5114
 20
74.4284
 30
0.0
 10
1.265
 20
77.2047
 30
0.0
 10
1.265
 20
77.2047
 30
0.0
 10
4.0413
 20
79.9811
 30
0.0
 10
8.5429
 20
79.9811
 30
0.0
 10
11.3192
 20
77.2047
 30
0.0
  0
SPLINE
  5
67
330
1F
100
AcDbEntity
  8
layer 1
 62
     7
100
AcDbSpline
210
0.0
220
0.0
230
1.0
 70
    11
 71
     3
 72
    52
 73
    48
 74
     0
 42
0.0000000001
 43
0.0000000001
 12
1.0
 22
0.0
 32
0.0
 13
1.0
 23
0.0
 33
0.0
 40
0.0
 40
0.0
 40
0.0
 40
0.0
 40
0.0769230769230769
 40
0.0769230769230769
 40
0.0769230769230769
 40
0.0769230769230769
 40
0.1538461538461539
 40
0.1538461538461539
 40
0.1538461538461539
 40
0.1538461538461539
 40
0.2307692307692308
 40
0.2307692307692308
 40
0.2307692307692308
 40
0.2307692307692308
 40
0.3076923076923077
 40
0.3076923076923077
 40
0.3076923076923077
 40
0.3076923076923077
 40
0.3846153846153846
 40
0.3846153846153846
 40
0.3846153846153846
 40
0.3846153846153846
 40
0.4615384615384616
 40
0.4615384615384616
 40
0.4615384615384616
 40
0.4615384615384616
 40
0.5384615384615384
 40
0.5384615384615384
 40
0.5384615384615384
 40
0.5384615384615384
 40
0.6153846153846154
 40
0.6153846153846154
 40
0.6153846153846154
 40
0.6153846153846154
 40
0.6923076923076923
 40
0.6923076923076923
 40
0.6923076923076923
 40
0.6923076923076923
 40
0.7692307692307693
 40
0.7692307692307693
 40
0.7692307692307693
 40
0.7692307692307693
 40
0.8461538461538461
 40
0.8461538461538461
 40
0.8461538461538461
 40
0.8461538461538461
 40
1.0
 40
1.0
 40
1.0
 40
1.0
 10
-29.8705
 20
49.9015
 30
0.0
 10
-29.8705
 20
49.9015
 30
0.0
 10
-35.8396
 20
43.9922
 30
0.0
 10
-35.8396
 20
43.9922
 30
0.0
 10
-35.8396
 20
43.9922
 30
0.0
 10
-35.8396
 20
43.9922
 30
0.0
 10
-39.7715
 20
47.9241
 30
0.0
 10
-39.7715
 20
47.9241
 30
0.0
 10
-39.7715
 20
47.9241
 30
0.0
 10
-39.7715
 20
47.9241
 30
0.0
 10
-33.7845
 20
53.9238
 30
0.0
 10
-33.7845
 20
53.9238
 30
0.0
 10
-33.7845
 20
53.9238
 30
0.0
 10
-33.7845
 20
53.9238
 30
0.0
 10
-39.7715
 20
59.8181
 30
0.0
 10
-39.7715
 20
59.8181
 30
0.0
 10
-39.7715
 20
59.8181
 30
0.0
 10
-39.7715
 20
59.8181
 30
0.0
 10
-35.8396
 20
63.7501
 30
0.0
 10
-35.8396
 20
63.7501
 30
0.0
 10
-35.8396
 20
63.7501
 30
0.0
 10
-35.8396
 20
63.7501
 30
0.0
 10
-29.8673
 20
57.8409
 30
0.0
 10
-29.8673
 20
57.8409
 30
0.0
 10
-29.8673
 20
57.8409
 30
0.0
 10
-29.8673
 20
57.8409
 30
0.0
 10
-23.9455
 20
63.7502
 30
0.0
 10
-23.9455
 20
63.7502
 30
0.0
 10
-23.9455
 20
63.7502
 30
0.0
 10
-23.9455
 20
63.7502
 30
0.0
 10
-20.0136
 20
59.8182
 30
0.0
 10
-20.0136
 20
59.8182
 30
0.0
 10
-20.0136
 20
59.8182
 30
0.0
 10
-20.0136
 20
59.8182
 30
0.0
 10
-25.9173
 20
53.9271
 30
0.0
 10
-25.9173
 20
53.9271
 30
0.0
 10
-25.9173
 20
53.9271
 30
0.0
 10
-25.9173
 20
53.9271
 30
0.0
 10
-20.0136
 20
47.924
 30
0.0
 10
-20.0136
 20
47.924
 30
0.0
 10
-20.0136
 20
47.924
 30
0.0
 10
-20.0136
 20
47.924
 30
0.0
 10
-23.9455
 20
43.9921
 30
0.0
 10
-23.9455
 20
43.9921
 30
0.0
 10
-23.9455
 20
43.9921
 30
0.0
 10
-23.9455
 20
43.9921
 30
0.0
 10
-29.8705
 20
49.9015
 30
0.0
 10
-29.8705
 20
49.9015
 30
0.0
  0
SPLINE
  5
68
330
1F
100
AcDbEntity
  8
layer 1
 62
     7
100
AcDbSpline
210
0.0
220
0.0
230
1.0
 70
    11
 71
     3
 72
    52
 73
    48
 74
     0
 42
0.0000000001
 43
0.0000000001
 12
1.0
 22
0.0
 32
0.0
 13
1.0
 23
0.0
 33
0.0
 40
0.0
 40
0.0
 40
0.0
 40
0.0
 40
0.0769230769230769
 40
0.0769230769230769
 40
0.0769230769230769
 40
0.0769230769230769
 40
0.1538461538461539
 40
0.1538461538461539
 40
0.1538461538461539
 40
0.1538461538461539
 40
0.2307692307692308
 40
0.2307692307692308
 40
0.2307692307692308
 40
0.2307692307692308
 40
0.3076923076923077
 40
0.3076923076923077
 40
0.3076923076923077
 40
0.3076923076923077
 40
0.3846153846153846
 40
0.3846153846153846
 40
0.3846153846153846
 40
0.3846153846153846
 40
0.4615384615384616
 40
0.4615384615384616
 40
0.4615384615384616
 40
0.4615384615384616
 40
0.5384615384615384
 40
0.5384615384615384
 40
0.5384615384615384
 40
0.5384615384615384
 40
0.6153846153846154
 40
0.6153846153846154
 40
0.6153846153846154
 40
0.6153846153846154
 40
0.6923076923076923
 40
0.6923076923076923
 40
0.6923076923076923
 40
0.6923076923076923
 40
0.7692307692307693
 40
0.7692307692307693
 40
0.7692307692307693
 40
0.7692307692307693
 40
0.8461538461538461
 40
0.8461538461538461
 40
0.8461538461538461
 40
0.8461538461538461
 40
1.0
 40
1.0
 40
1.0
 40
1.0
 10
-65.9594
 20
49.8803
 30
0.0
 10
-65.9594
 20
49.8803
 30
0.0
 10
-71.9285
 20
43.9709
 30
0.0
 10
-71.9285
 20
43.9709
 30
0.0
 10
-71.9285
 20
43.9709
 30
0.0
 10
-71.9285
 20
43.9709
 30
0.0
 10
-75.8604
 20
47.9029
 30
0.0
 10
-75.8604
 20
47.9029
 30
0.0
 10
-75.8604
 20
47.9029
 30
0.0
 10
-75.8604
 20
47.9029
 30
0.0
 10
-69.8734
 20
53.9025
 30
0.0
 10
-69.8734
 20
53.9025
 30
0.0
 10
-69.8734
 20
53.9025
 30
0.0
 10
-69.8734
 20
53.9025
 30
0.0
 10
-75.8604
 20
59.7969
 30
0.0
 10
-75.8604
 20
59.7969
 30
0.0
 10
-75.8604
 20
59.7969
 30
0.0
 10
-75.8604
 20
59.7969
 30
0.0
 10
-71.9285
 20
63.7288
 30
0.0
 10
-71.9285
 20
63.7288
 30
0.0
 10
-71.9285
 20
63.7288
 30
0.0
 10
-71.9285
 20
63.7288
 30
0.0
 10
-65.9562
 20
57.8197
 30
0.0
 10
-65.9562
 20
57.8197
 30
0.0
 10
-65.9562
 20
57.8197
 30
0.0
 10
-65.9562
 20
57.8197
 30
0.0
 10
-60.0344
 20
63.7289
 30
0.0
 10
-60.0344
 20
63.7289
 30
0.0
 10
-60.0344
 20
63.7289
 30
0.0
 10
-60.0344
 20
63.7289
 30
0.0
 10
-56.1024
 20
59.797
 30
0.0
 10
-56.1024
 20
59.797
 30
0.0
 10
-56.1024
 20
59.797
 30
0.0
 10
-56.1024
 20
59.797
 30
0.0
 10
-62.0062
 20
53.9058
 30
0.0
 10
-62.0062
 20
53.9058
 30
0.0
 10
-62.0062
 20
53.9058
 30
0.0
 10
-62.0062
 20
53.9058
 30
0.0
 10
-56.1024
 20
47.9028
 30
0.0
 10
-56.1024
 20
47.9028
 30
0.0
 10
-56.1024
 20
47.9028
 30
0.0
 10
-56.1024
 20
47.9028
 30
0.0
 10
-60.0344
 20
43.9708
 30
0.0
 10
-60.0344
 20
43.9708
 30
0.0
 10
-60.0344
 20
43.9708
 30
0.0
 10
-60.0344
 20
43.9708
 30
0.0
 10
-65.9594
 20
49.8803
 30
0.0
 10
-65.9594
 20
49.8803
 30
0.0
  0
SPLINE
  5
69
330
1F
100
AcDbEntity
  8
layer 1
 62
     7
100
AcDbSpline
210
0.0
220
0.0
230
1.0
 70
    11
 71
     3
 72
    52
 73
    48
 74
     0
 42
0.0000000001
 43
0.0000000001
 12
1.0
 22
0.0
 32
0.0
 13
1.0
 23
0.0
 33
0.0
 40
0.0
 40
0.0
 40
0.0
 40
0.0
 40
0.0769230769230769
 40
0.0769230769230769
 40
0.0769230769230769
 40
0.0769230769230769
 40
0.1538461538461539
 40
0.1538461538461539
 40
0.1538461538461539
 40
0.1538461538461539
 40
0.2307692307692308
 40
0.2307692307692308
 40
0.2307692307692308
 40
0.2307692307692308
 40
0.3076923076923077
 40
0.3076923076923077
 40
0.3076923076923077
 40
0.3076923076923077
 40
0.3846153846153846
 40
0.3846153846153846
 40
0.3846153846153846
 40
0.3846153846153846
 40
0.4615384615384616
 40
0.4615384615384616
 40
0.4615384615384616
 40
0.4615384615384616
 40
0.5384615384615384
 40
0.5384615384615384
 40
0.5384615384615384
 40
0.5384615384615384
 40
0.6153846153846154
 40
0.6153846153846154
 40
0.6153846153846154
 40
0.6153846153846154
 40
0.6923076923076923
 40
0.6923076923076923
 40
0.6923076923076923
 40
0.6923076923076923
 40
0.7692307692307693
 40
0.7692307692307693
 40
0.7692307692307693
 40
0.7692307692307693
 40
0.8461538461538461
 40
0.8461538461538461
 40
0.8461538461538461
 40
0.8461538461538461
 40
1.0
 40
1.0
 40
1.0
 40
1.0
 10
6.0662
 20
49.9015
 30
0.0
 10
6.0662
 20
49.9015
 30
0.0
 10
0.0971
 20
43.9922
 30
0.0
 10
0.0971
 20
43.9922
 30
0.0
 10
0.0971
 20
43.9922
 30
0.0
 10
0.0971
 20
43.9922
 30
0.0
 10
-3.8348
 20
47.9241
 30
0.0
 10
-3.8348
 20
47.9241
 30
0.0
 10
-3.8348
 20
47.9241
 30
0.0
 10
-3.8348
 20
47.9241
 30
0.0
 10
2.1522
 20
53.9238
 30
0.0
 10
2.1522
 20
53.9238
 30
0.0
 10
2.1522
 20
53.9238
 30
0.0
 10
2.1522
 20
53.9238
 30
0.0
 10
-3.8348
 20
59.8181
 30
0.0
 10
-3.8348
 20
59.8181
 30
0.0
 10
-3.8348
 20
59.8181
 30
0.0
 10
-3.8348
 20
59.8181
 30
0.0
 10
0.0971
 20
63.7501
 30
0.0
 10
0.0971
 20
63.7501
 30
0.0
 10
0.0971
 20
63.7501
 30
0.0
 10
0.0971
 20
63.7501
 30
0.0
 10
6.0694
 20
57.8409
 30
0.0
 10
6.0694
 20
57.8409
 30
0.0
 10
6.0694
 20
57.8409
 30
0.0
 10
6.0694
 20
57.8409
 30
0.0
 10
11.9912
 20
63.7502
 30
0.0
 10
11.9912
 20
63.7502
 30
0.0
 10
11.9912
 20
63.7502
 30
0.0
 10
11.9912
 20
63.7502
 30
0.0
 10
15.9232
 20
59.8182
 30
0.0
 10
15.9232
 20
59.8182
 30
0.0
 10
15.9232
 20
59.8182
 30
0.0
 10
15.9232
 20
59.8182
 30
0.0
 10
10.0194
 20
53.9271
 30
0.0
 10
10.0194
 20
53.9271
 30
0.0
 10
10.0194
 20
53.9271
 30
0.0
 10
10.0194
 20
53.9271
 30
0.0
 10
15.9232
 20
47.924
 30
0.0
 10
15.9232
 20
47.924
 30
0.0
 10
15.9232
 20
47.924
 30
0.0
 10
15.9232
 20
47.924
 30
0.0
 10
11.9912
 20
43.9921
 30
0.0
 10
11.9912
 20
43.9921
 30
0.0
 10
11.9912
 20
43.9921
 30
0.0
 10
11.9912
 20
43.9921
 30
0.0
 10
6.0662
 20
49.9015
 30
0.0
 10
6.0662
 20
49.9015
 30
0.0
  0
SPLINE
  5
6A
330
1F
100
AcDbEntity
  8
layer 1
 62
     7
100
AcDbSpline
210
0.0
220
0.0
230
1.0
 70
    11
 71
     3
 72
    20
 73
    16
 74
     0
 42
0.0000000001
 43
0.0000000001
 12
1.0
 22
0.0
 32
0.0
 13
1.0
 23
0.0
 33
0.0
 40
0.0
 40
0.0
 40
0.0
 40
0.0
 40
0.2
 40
0.2
 40
0.2
 40
0.2
 40
0.4
 40
0.4
 40
0.4
 40
0.4
 40
0.6
 40
0.6
 40
0.6
 40
0.6
 40
1.0
 40
1.0
 40
1.0
 40
1.0
 10
-42.8773
 20
58.9095
 30
0.0
 10
-40.101
 20
56.1331
 30
0.0
 10
-40.101
 20
51.6316
 30
0.0
 10
-42.8773
 20
48.8552
 30
0.0
 10
-42.8773
 20
48.8552
 30
0.0
 10
-45.6537
 20
46.0789
 30
0.0
 10
-50.1552
 20
46.0789
 30
0.0
 10
-52.9316
 20
48.8552
 30
0.0
 10
-52.9316
 20
48.8552
 30
0.0
 10
-55.7079
 20
51.6316
 30
0.0
 10
-55.7079
 20
56.1331
 30
0.0
 10
-52.9316
 20
58.9095
 30
0.0
 10
-52.9316
 20
58.9095
 30
0.0
 10
-50.1552
 20
61.6858
 30
0.0
 10
-45.6537
 20
61.6858
 30
0.0
 10
-42.8773
 20
58.9095
 30
0.0
  0
SPLINE
  5
6B
330
1F
100
AcDbEntity
  8
layer 1
 62
     7
100
AcDbSpline
210
0.0
220
0.0
230
1.0
 70
    11
 71
     3
 72
    20
 73
    16
 74
     0
 42
0.0000000001
 43
0.0000000001
 12
1.0
 22
0.0
 32
0.0
 13
1.0
 23
0.0
 33
0.0
 40
0.0
 40
0.0
 40
0.0
 40
0.0
 40
0.2
 40
0.2
 40
0.2
 40
0.2
 40
0.4
 40
0.4
 40
0.4
 40
0.4
 40
0.6
 40
0.6
 40
0.6
 40
0.6
 40
1.0
 40
1.0
 40
1.0
 40
1.0
 10
-6.6088
 20
58.9095
 30
0.0
 10
-3.8325
 20
56.1331
 30
0.0
 10
-3.8325
 20
51.6316
 30
0.0
 10
-6.6088
 20
48.8552
 30
0.0
 10
-6.6088
 20
48.8552
 30
0.0
 10
-9.3852
 20
46.0789
 30
0.0
 10
-13.8867
 20
46.0789
 30
0.0
 10
-16.6631
 20
48.8552
 30
0.0
 10
-16.6631
 20
48.8552
 30
0.0
 10
-19.4394
 20
51.6316
 30
0.0
 10
-19.4394
 20
56.1331
 30
0.0
 10
-16.6631
 20
58.9095
 30
0.0
 10
-16.6631
 20
58.9095
 30
0.0
 10
-13.8867
 20
61.6858
 30
0.0
 10
-9.3852
 20
61.6858
 30
0.0
 10
-6.6088
 20
58.9095
 30
0.0
  0
SPLINE
  5
6C
330
1F
100
AcDbEntity
  8
layer 1
 62
     7
100
AcDbSpline
210
0.0
220
0.0
230
1.0
 70
    11
 71
     3
 72
    52
 73
    48
 74
     0
 42
0.0000000001
 43
0.0000000001
 12
1.0
 22
0.0
 32
0.0
 13
1.0
 23
0.0
 33
0.0
 40
0.0
 40
0.0
 40
0.0
 40
0.0
 40
0.0769230769230769
 40
0.0769230769230769
 40
0.0769230769230769
 40
0.0769230769230769
 40
0.1538461538461539
 40
0.1538461538461539
 40
0.1538461538461539
 40
0.1538461538461539
 40
0.2307692307692308
 40
0.2307692307692308
 40
0.2307692307692308
 40
0.2307692307692308
 40
0.3076923076923077
 40
0.3076923076923077
 40
0.3076923076923077
 40
0.3076923076923077
 40
0.3846153846153846
 40
0.3846153846153846
 40
0.3846153846153846
 40
0.3846153846153846
 40
0.4615384615384616
 40
0.4615384615384616
 40
0.4615384615384616
 40
0.4615384615384616
 40
0.5384615384615384
 40
0.5384615384615384
 40
0.5384615384615384
 40
0.5384615384615384
 40
0.6153846153846154
 40
0.6153846153846154
 40
0.6153846153846154
 40
0.6153846153846154
 40
0.6923076923076923
 40
0.6923076923076923
 40
0.6923076923076923
 40
0.6923076923076923
 40
0.7692307692307693
 40
0.7692307692307693
 40
0.7692307692307693
 40
0.7692307692307693
 40
0.8461538461538461
 40
0.8461538461538461
 40
0.8461538461538461
 40
0.8461538461538461
 40
1.0
 40
1.0
 40
1.0
 40
1.0
 10
-11.8292
 20
31.7213
 30
0.0
 10
-11.8292
 20
31.7213
 30
0.0
 10
-17.7982
 20
25.812
 30
0.0
 10
-17.7982
 20
25.812
 30
0.0
 10
-17.7982
 20
25.812
 30
0.0
 10
-17.7982
 20
25.812
 30
0.0
 10
-21.7302
 20
29.7439
 30
0.0
 10
-21.7302
 20
29.7439
 30
0.0
 10
-21.7302
 20
29.7439
 30
0.0
 10
-21.7302
 20
29.7439
 30
0.0
 10
-15.7431
 20
35.7436
 30
0.0
 10
-15.7431
 20
35.7436
 30
0.0
 10
-15.7431
 20
35.7436
 30
0.0
 10
-15.7431
 20
35.7436
 30
0.0
 10
-21.7302
 20
41.6379
 30
0.0
 10
-21.7302
 20
41.6379
 30
0.0
 10
-21.7302
 20
41.6379
 30
0.0
 10
-21.7302
 20
41.6379
 30
0.0
 10
-17.7982
 20
45.5699
 30
0.0
 10
-17.7982
 20
45.5699
 30
0.0
 10
-17.7982
 20
45.5699
 30
0.0
 10
-17.7982
 20
45.5699
 30
0.0
 10
-11.826
 20
39.6607
 30
0.0
 10
-11.826
 20
39.6607
 30
0.0
 10
-11.826
 20
39.6607
 30
0.0
 10
-11.826
 20
39.6607
 30
0.0
 10
-5.9041
 20
45.57
 30
0.0
 10
-5.9041
 20
45.57
 30
0.0
 10
-5.9041
 20
45.57
 30
0.0
 10
-5.9041
 20
45.57
 30
0.0
 10
-1.9722
 20
41.638
 30
0.0
 10
-1.9722
 20
41.638
 30
0.0
 10
-1.9722
 20
41.638
 30
0.0
 10
-1.9722
 20
41.638
 30
0.0
 10
-7.8759
 20
35.7469
 30
0.0
 10
-7.8759
 20
35.7469
 30
0.0
 10
-7.8759
 20
35.7469
 30
0.0
 10
-7.8759
 20
35.7469
 30
0.0
 10
-1.9722
 20
29.7438
 30
0.0
 10
-1.9722
 20
29.7438
 30
0.0
 10
-1.9722
 20
29.7438
 30
0.0
 10
-1.9722
 20
29.7438
 30
0.0
 10
-5.9041
 20
25.8119
 30
0.0
 10
-5.9041
 20
25.8119
 30
0.0
 10
-5.9041
 20
25.8119
 30
0.0
 10
-5.9041
 20
25.8119
 30
0.0
 10
-11.8292
 20
31.7213
 30
0.0
 10
-11.8292
 20
31.7213
 30
0.0
  0
SPLINE
  5
6D
330
1F
100
AcDbEntity
  8
layer 1
 62
     7
100
AcDbSpline
210
0.0
220
0.0
230
1.0
 70
    11
 71
     3
 72
    52
 73
    48
 74
     0
 42
0.0000000001
 43
0.0000000001
 12
1.0
 22
0.0
 32
0.0
 13
1.0
 23
0.0
 33
0.0
 40
0.0
 40
0.0
 40
0.0
 40
0.0
 40
0.0769230769230769
 40
0.0769230769230769
 40
0.0769230769230769
 40
0.0769230769230769
 40
0.1538461538461539
 40
0.1538461538461539
 40
0.1538461538461539
 40
0.1538461538461539
 40
0.2307692307692308
 40
0.2307692307692308
 40
0.2307692307692308
 40
0.2307692307692308
 40
0.3076923076923077
 40
0.3076923076923077
 40
0.3076923076923077
 40
0.3076923076923077
 40
0.3846153846153846
 40
0.3846153846153846
 40
0.3846153846153846
 40
0.3846153846153846
 40
0.4615384615384616
 40
0.4615384615384616
 40
0.4615384615384616
 40
0.4615384615384616
 40
0.5384615384615384
 40
0.5384615384615384
 40
0.5384615384615384
 40
0.5384615384615384
 40
0.6153846153846154
 40
0.6153846153846154
 40
0.6153846153846154
 40
0.6153846153846154
 40
0.6923076923076923
 40
0.6923076923076923
 40
0.6923076923076923
 40
0.6923076923076923
 40
0.7692307692307693
 40
0.7692307692307693
 40
0.7692307692307693
 40
0.7692307692307693
 40
0.8461538461538461
 40
0.8461538461538461
 40
0.8461538461538461
 40
0.8461538461538461
 40
1.0
 40
1.0
 40
1.0
 40
1.0
 10
-47.9181
 20
31.7001
 30
0.0
 10
-47.9181
 20
31.7001
 30
0.0
 10
-53.8871
 20
25.7907
 30
0.0
 10
-53.8871
 20
25.7907
 30
0.0
 10
-53.8871
 20
25.7907
 30
0.0
 10
-53.8871
 20
25.7907
 30
0.0
 10
-57.8191
 20
29.7227
 30
0.0
 10
-57.8191
 20
29.7227
 30
0.0
 10
-57.8191
 20
29.7227
 30
0.0
 10
-57.8191
 20
29.7227
 30
0.0
 10
-51.832
 20
35.7223
 30
0.0
 10
-51.832
 20
35.7223
 30
0.0
 10
-51.832
 20
35.7223
 30
0.0
 10
-51.832
 20
35.7223
 30
0.0
 10
-57.8191
 20
41.6167
 30
0.0
 10
-57.8191
 20
41.6167
 30
0.0
 10
-57.8191
 20
41.6167
 30
0.0
 10
-57.8191
 20
41.6167
 30
0.0
 10
-53.8871
 20
45.5486
 30
0.0
 10
-53.8871
 20
45.5486
 30
0.0
 10
-53.8871
 20
45.5486
 30
0.0
 10
-53.8871
 20
45.5486
 30
0.0
 10
-47.9149
 20
39.6395
 30
0.0
 10
-47.9149
 20
39.6395
 30
0.0
 10
-47.9149
 20
39.6395
 30
0.0
 10
-47.9149
 20
39.6395
 30
0.0
 10
-41.993
 20
45.5487
 30
0.0
 10
-41.993
 20
45.5487
 30
0.0
 10
-41.993
 20
45.5487
 30
0.0
 10
-41.993
 20
45.5487
 30
0.0
 10
-38.0611
 20
41.6168
 30
0.0
 10
-38.0611
 20
41.6168
 30
0.0
 10
-38.0611
 20
41.6168
 30
0.0
 10
-38.0611
 20
41.6168
 30
0.0
 10
-43.9648
 20
35.7256
 30
0.0
 10
-43.9648
 20
35.7256
 30
0.0
 10
-43.9648
 20
35.7256
 30
0.0
 10
-43.9648
 20
35.7256
 30
0.0
 10
-38.0611
 20
29.7226
 30
0.0
 10
-38.0611
 20
29.7226
 30
0.0
 10
-38.0611
 20
29.7226
 30
0.0
 10
-38.0611
 20
29.7226
 30
0.0
 10
-41.993
 20
25.7906
 30
0.0
 10
-41.993
 20
25.7906
 30
0.0
 10
-41.993
 20
25.7906
 30
0.0
 10
-41.993
 20
25.7906
 30
0.0
 10
-47.9181
 20
31.7001
 30
0.0
 10
-47.9181
 20
31.7001
 30
0.0
  0
SPLINE
  5
6E
330
1F
100
AcDbEntity
  8
layer 1
 62
     7
100
AcDbSpline
210
0.0
220
0.0
230
1.0
 70
    11
 71
     3
 72
    32
 73
    28
 74
     0
 42
0.0000000001
 43
0.0000000001
 12
1.0
 22
0.0
 32
0.0
 13
1.0
 23
0.0
 33
0.0
 40
0.0
 40
0.0
 40
0.0
 40
0.0
 40
0.125
 40
0.125
 40
0.125
 40
0.125
 40
0.25
 40
0.25
 40
0.25
 40
0.25
 40
0.375
 40
0.375
 40
0.375
 40
0.375
 40
0.5
 40
0.5
 40
0.5
 40
0.5
 40
0.625
 40
0.625
 40
0.625
 40
0.625
 40
0.75
 40
0.75
 40
0.75
 40
0.75
 40
1.0
 40
1.0
 40
1.0
 40
1.0
 10
24.1076
 20
31.7213
 30
0.0
 10
24.1076
 20
31.7213
 30
0.0
 10
18.1385
 20
25.812
 30
0.0
 10
18.1385
 20
25.812
 30
0.0
 10
18.1385
 20
25.812
 30
0.0
 10
18.1385
 20
25.812
 30
0.0
 10
14.2066
 20
29.7439
 30
0.0
 10
14.2066
 20
29.7439
 30
0.0
 10
14.2066
 20
29.7439
 30
0.0
 10
14.2066
 20
29.7439
 30
0.0
 10
20.1936
 20
35.7436
 30
0.0
 10
20.1936
 20
35.7436
 30
0.0
 10
20.1936
 20
35.7436
 30
0.0
 10
20.1936
 20
35.7436
 30
0.0
 10
14.2066
 20
41.6379
 30
0.0
 10
14.2066
 20
41.6379
 30
0.0
 10
14.2066
 20
41.6379
 30
0.0
 10
14.2066
 20
41.6379
 30
0.0
 10
18.1385
 20
45.5699
 30
0.0
 10
18.1385
 20
45.5699
 30
0.0
 10
18.1385
 20
45.5699
 30
0.0
 10
18.1385
 20
45.5699
 30
0.0
 10
24.1108
 20
39.6607
 30
0.0
 10
24.1108
 20
39.6607
 30
0.0
 10
24.1108
 20
39.6607
 30
0.0
 10
24.1108
 20
39.6607
 30
0.0
 10
24.1076
 20
31.7213
 30
0.0
 10
24.1076
 20
31.7213
 30
0.0
  0
SPLINE
  5
6F
330
1F
100
AcDbEntity
  8
layer 1
 62
     7
100
AcDbSpline
210
0.0
220
0.0
230
1.0
 70
    11
 71
     3
 72
    20
 73
    16
 74
     0
 42
0.0000000001
 43
0.0000000001
 12
1.0
 22
0.0
 32
0.0
 13
1.0
 23
0.0
 33
0.0
 40
0.0
 40
0.0
 40
0.0
 40
0.0
 40
0.2
 40
0.2
 40
0.2
 40
0.2
 40
0.4
 40
0.4
 40
0.4
 40
0.4
 40
0.6
 40
0.6
 40
0.6
 40
0.6
 40
1.0
 40
1.0
 40
1.0
 40
1.0
 10
-60.9863
 20
40.7293
 30
0.0
 10
-58.21
 20
37.9529
 30
0.0
 10
-58.21
 20
33.4514
 30
0.0
 10
-60.9863
 20
30.675
 30
0.0
 10
-60.9863
 20
30.675
 30
0.0
 10
-63.7627
 20
27.8987
 30
0.0
 10
-68.2642
 20
27.8987
 30
0.0
 10
-71.0406
 20
30.675
 30
0.0
 10
-71.0406
 20
30.675
 30
0.0
 10
-73.8169
 20
33.4514
 30
0.0
 10
-73.8169
 20
37.9529
 30
0.0
 10
-71.0406
 20
40.7293
 30
0.0
 10
-71.0406
 20
40.7293
 30
0.0
 10
-68.2642
 20
43.5056
 30
0.0
 10
-63.7627
 20
43.5056
 30
0.0
 10
-60.9863
 20
40.7293
 30
0.0
  0
SPLINE
  5
70
330
1F
100
AcDbEntity
  8
layer 1
 62
     7
100
AcDbSpline
210
0.0
220
0.0
230
1.0
 70
    11
 71
     3
 72
    20
 73
    16
 74
     0
 42
0.0000000001
 43
0.0000000001
 12
1.0
 22
0.0
 32
0.0
 13
1.0
 23
0.0
 33
0.0
 40
0.0
 40
0.0
 40
0.0
 40
0.0
 40
0.2
 40
0.2
 40
0.2
 40
0.2
 40
0.4
 40
0.4
 40
0.4
 40
0.4
 40
0.6
 40
0.6
 40
0.6
 40
0.6
 40
1.0
 40
1.0
 40
1.0
 40
1.0
 10
-24.836
 20
40.7293
 30
0.0
 10
-22.0596
 20
37.9529
 30
0.0
 10
-22.0596
 20
33.4514
 30
0.0
 10
-24.836
 20
30.675
 30
0.0
 10
-24.836
 20
30.675
 30
0.0
 10
-27.6123
 20
27.8987
 30
0.0
 10
-32.1139
 20
27.8987
 30
0.0
 10
-34.8902
 20
30.675
 30
0.0
 10
-34.8902
 20
30.675
 30
0.0
 10
-37.6666
 20
33.4514
 30
0.0
 10
-37.6666
 20
37.9529
 30
0.0
 10
-34.8902
 20
40.7293
 30
0.0
 10
-34.8902
 20
40.7293
 30
0.0
 10
-32.1139
 20
43.5056
 30
0.0
 10
-27.6123
 20
43.5056
 30
0.0
 10
-24.836
 20
40.7293
 30
0.0
  0
SPLINE
  5
71
330
1F
100
AcDbEntity
  8
layer 1
 62
     7
100
AcDbSpline
210
0.0
220
0.0
230
1.0
 70
    11
 71
     3
 72
    20
 73
    16
 74
     0
 42
0.0000000001
 43
0.0000000001
 12
1.0
 22
0.0
 32
0.0
 13
1.0
 23
0.0
 33
0.0
 40
0.0
 40
0.0
 40
0.0
 40
0.0
 40
0.2
 40
0.2
 40
0.2
 40
0.2
 40
0.4
 40
0.4
 40
0.4
 40
0.4
 40
0.6
 40
0.6
 40
0.6
 40
0.6
 40
1.0
 40
1.0
 40
1.0
 40
1.0
 10
11.4325
 20
40.7293
 30
0.0
 10
14.2089
 20
37.9529
 30
0.0
 10
14.2089
 20
33.4514
 30
0.0
 10
11.4325
 20
30.675
 30
0.0
 10
11.4325
 20
30.675
 30
0.0
 10
8.6562
 20
27.8987
 30
0.0
 10
4.1546
 20
27.8987
 30
0.0
 10
1.3783
 20
30.675
 30
0.0
 10
1.3783
 20
30.675
 30
0.0
 10
-1.3981
 20
33.4514
 30
0.0
 10
-1.3981
 20
37.9529
 30
0.0
 10
1.3783
 20
40.7293
 30
0.0
 10
1.3783
 20
40.7293
 30
0.0
 10
4.1546
 20
43.5056
 30
0.0
 10
8.6562
 20
43.5056
 30
0.0
 10
11.4325
 20
40.7293
 30
0.0
  0
SPLINE
  5
72
330
1F
100
AcDbEntity
  8
layer 1
 62
     7
100
AcDbSpline
210
0.0
220
0.0
230
1.0
 70
    11
 71
     3
 72
    52
 73
    48
 74
     0
 42
0.0000000001
 43
0.0000000001
 12
1.0
 22
0.0
 32
0.0
 13
1.0
 23
0.0
 33
0.0
 40
0.0
 40
0.0
 40
0.0
 40
0.0
 40
0.0769230769230769
 40
0.0769230769230769
 40
0.0769230769230769
 40
0.0769230769230769
 40
0.1538461538461539
 40
0.1538461538461539
 40
0.1538461538461539
 40
0.1538461538461539
 40
0.2307692307692308
 40
0.2307692307692308
 40
0.2307692307692308
 40
0.2307692307692308
 40
0.3076923076923077
 40
0.3076923076923077
 40
0.3076923076923077
 40
0.3076923076923077
 40
0.3846153846153846
 40
0.3846153846153846
 40
0.3846153846153846
 40
0.3846153846153846
 40
0.4615384615384616
 40
0.4615384615384616
 40
0.4615384615384616
 40
0.4615384615384616
 40
0.5384615384615384
 40
0.5384615384615384
 40
0.5384615384615384
 40
0.5384615384615384
 40
0.6153846153846154
 40
0.6153846153846154
 40
0.6153846153846154
 40
0.6153846153846154
 40
0.6923076923076923
 40
0.6923076923076923
 40
0.6923076923076923
 40
0.6923076923076923
 40
0.7692307692307693
 40
0.7692307692307693
 40
0.7692307692307693
 40
0.7692307692307693
 40
0.8461538461538461
 40
0.8461538461538461
 40
0.8461538461538461
 40
0.8461538461538461
 40
1.0
 40
1.0
 40
1.0
 40
1.0
 10
-29.7572
 20
13.4261
 30
0.0
 10
-29.7572
 20
13.4261
 30
0.0
 10
-35.7263
 20
7.5167
 30
0.0
 10
-35.7263
 20
7.5167
 30
0.0
 10
-35.7263
 20
7.5167
 30
0.0
 10
-35.7263
 20
7.5167
 30
0.0
 10
-39.6582
 20
11.4487
 30
0.0
 10
-39.6582
 20
11.4487
 30
0.0
 10
-39.6582
 20
11.4487
 30
0.0
 10
-39.6582
 20
11.4487
 30
0.0
 10
-33.6712
 20
17.4483
 30
0.0
 10
-33.6712
 20
17.4483
 30
0.0
 10
-33.6712
 20
17.4483
 30
0.0
 10
-33.6712
 20
17.4483
 30
0.0
 10
-39.6582
 20
23.3426
 30
0.0
 10
-39.6582
 20
23.3426
 30
0.0
 10
-39.6582
 20
23.3426
 30
0.0
 10
-39.6582
 20
23.3426
 30
0.0
 10
-35.7263
 20
27.2746
 30
0.0
 10
-35.7263
 20
27.2746
 30
0.0
 10
-35.7263
 20
27.2746
 30
0.0
 10
-35.7263
 20
27.2746
 30
0.0
 10
-29.754
 20
21.3655
 30
0.0
 10
-29.754
 20
21.3655
 30
0.0
 10
-29.754
 20
21.3655
 30
0.0
 10
-29.754
 20
21.3655
 30
0.0
 10
-23.8322
 20
27.2747
 30
0.0
 10
-23.8322
 20
27.2747
 30
0.0
 10
-23.8322
 20
27.2747
 30
0.0
 10
-23.8322
 20
27.2747
 30
0.0
 10
-19.9003
 20
23.3428
 30
0.0
 10
-19.9003
 20
23.3428
 30
0.0
 10
-19.9003
 20
23.3428
 30
0.0
 10
-19.9003
 20
23.3428
 30
0.0
 10
-25.804
 20
17.4516
 30
0.0
 10
-25.804
 20
17.4516
 30
0.0
 10
-25.804
 20
17.4516
 30
0.0
 10
-25.804
 20
17.4516
 30
0.0
 10
-19.9003
 20
11.4485
 30
0.0
 10
-19.9003
 20
11.4485
 30
0.0
 10
-19.9003
 20
11.4485
 30
0.0
 10
-19.9003
 20
11.4485
 30
0.0
 10
-23.8322
 20
7.5166
 30
0.0
 10
-23.8322
 20
7.5166
 30
0.0
 10
-23.8322
 20
7.5166
 30
0.0
 10
-23.8322
 20
7.5166
 30
0.0
 10
-29.7572
 20
13.4261
 30
0.0
 10
-29.7572
 20
13.4261
 30
0.0
  0
SPLINE
  5
73
330
1F
100
AcDbEntity
  8
layer 1
 62
     7
100
AcDbSpline
210
0.0
220
0.0
230
1.0
 70
    11
 71
     3
 72
    52
 73
    48
 74
     0
 42
0.0000000001
 43
0.0000000001
 12
1.0
 22
0.0
 32
0.0
 13
1.0
 23
0.0
 33
0.0
 40
0.0
 40
0.0
 40
0.0
 40
0.0
 40
0.0769230769230769
 40
0.0769230769230769
 40
0.0769230769230769
 40
0.0769230769230769
 40
0.1538461538461539
 40
0.1538461538461539
 40
0.1538461538461539
 40
0.1538461538461539
 40
0.2307692307692308
 40
0.2307692307692308
 40
0.2307692307692308
 40
0.2307692307692308
 40
0.3076923076923077
 40
0.3076923076923077
 40
0.3076923076923077
 40
0.3076923076923077
 40
0.3846153846153846
 40
0.3846153846153846
 40
0.3846153846153846
 40
0.3846153846153846
 40
0.4615384615384616
 40
0.4615384615384616
 40
0.4615384615384616
 40
0.4615384615384616
 40
0.5384615384615384
 40
0.5384615384615384
 40
0.5384615384615384
 40
0.5384615384615384
 40
0.6153846153846154
 40
0.6153846153846154
 40
0.6153846153846154
 40
0.6153846153846154
 40
0.6923076923076923
 40
0.6923076923076923
 40
0.6923076923076923
 40
0.6923076923076923
 40
0.7692307692307693
 40
0.7692307692307693
 40
0.7692307692307693
 40
0.7692307692307693
 40
0.8461538461538461
 40
0.8461538461538461
 40
0.8461538461538461
 40
0.8461538461538461
 40
1.0
 40
1.0
 40
1.0
 40
1.0
 10
-65.8461
 20
13.4048
 30
0.0
 10
-65.8461
 20
13.4048
 30
0.0
 10
-71.8152
 20
7.4955
 30
0.0
 10
-71.8152
 20
7.4955
 30
0.0
 10
-71.8152
 20
7.4955
 30
0.0
 10
-71.8152
 20
7.4955
 30
0.0
 10
-75.7471
 20
11.4274
 30
0.0
 10
-75.7471
 20
11.4274
 30
0.0
 10
-75.7471
 20
11.4274
 30
0.0
 10
-75.7471
 20
11.4274
 30
0.0
 10
-69.7601
 20
17.427
 30
0.0
 10
-69.7601
 20
17.427
 30
0.0
 10
-69.7601
 20
17.427
 30
0.0
 10
-69.7601
 20
17.427
 30
0.0
 10
-75.7471
 20
23.3214
 30
0.0
 10
-75.7471
 20
23.3214
 30
0.0
 10
-75.7471
 20
23.3214
 30
0.0
 10
-75.7471
 20
23.3214
 30
0.0
 10
-71.8152
 20
27.2533
 30
0.0
 10
-71.8152
 20
27.2533
 30
0.0
 10
-71.8152
 20
27.2533
 30
0.0
 10
-71.8152
 20
27.2533
 30
0.0
 10
-65.8429
 20
21.3442
 30
0.0
 10
-65.8429
 20
21.3442
 30
0.0
 10
-65.8429
 20
21.3442
 30
0.0
 10
-65.8429
 20
21.3442
 30
0.0
 10
-59.9211
 20
27.2534
 30
0.0
 10
-59.9211
 20
27.2534
 30
0.0
 10
-59.9211
 20
27.2534
 30
0.0
 10
-59.9211
 20
27.2534
 30
0.0
 10
-55.9892
 20
23.3215
 30
0.0
 10
-55.9892
 20
23.3215
 30
0.0
 10
-55.9892
 20
23.3215
 30
0.0
 10
-55.9892
 20
23.3215
 30
0.0
 10
-61.8929
 20
17.4304
 30
0.0
 10
-61.8929
 20
17.4304
 30
0.0
 10
-61.8929
 20
17.4304
 30
0.0
 10
-61.8929
 20
17.4304
 30
0.0
 10
-55.9892
 20
11.4273
 30
0.0
 10
-55.9892
 20
11.4273
 30
0.0
 10
-55.9892
 20
11.4273
 30
0.0
 10
-55.9892
 20
11.4273
 30
0.0
 10
-59.9211
 20
7.4954
 30
0.0
 10
-59.9211
 20
7.4954
 30
0.0
 10
-59.9211
 20
7.4954
 30
0.0
 10
-59.9211
 20
7.4954
 30
0.0
 10
-65.8461
 20
13.4048
 30
0.0
 10
-65.8461
 20
13.4048
 30
0.0
  0
SPLINE
  5
74
330
1F
100
AcDbEntity
  8
layer 1
 62
     7
100
AcDbSpline
210
0.0
220
0.0
230
1.0
 70
    11
 71
     3
 72
    52
 73
    48
 74
     0
 42
0.0000000001
 43
0.0000000001
 12
1.0
 22
0.0
 32
0.0
 13
1.0
 23
0.0
 33
0.0
 40
0.0
 40
0.0
 40
0.0
 40
0.0
 40
0.0769230769230769
 40
0.0769230769230769
 40
0.0769230769230769
 40
0.0769230769230769
 40
0.1538461538461539
 40
0.1538461538461539
 40
0.1538461538461539
 40
0.1538461538461539
 40
0.2307692307692308
 40
0.2307692307692308
 40
0.2307692307692308
 40
0.2307692307692308
 40
0.3076923076923077
 40
0.3076923076923077
 40
0.3076923076923077
 40
0.3076923076923077
 40
0.3846153846153846
 40
0.3846153846153846
 40
0.3846153846153846
 40
0.3846153846153846
 40
0.4615384615384616
 40
0.4615384615384616
 40
0.4615384615384616
 40
0.4615384615384616
 40
0.5384615384615384
 40
0.5384615384615384
 40
0.5384615384615384
 40
0.5384615384615384
 40
0.6153846153846154
 40
0.6153846153846154
 40
0.6153846153846154
 40
0.6153846153846154
 40
0.6923076923076923
 40
0.6923076923076923
 40
0.6923076923076923
 40
0.6923076923076923
 40
0.7692307692307693
 40
0.7692307692307693
 40
0.7692307692307693
 40
0.7692307692307693
 40
0.8461538461538461
 40
0.8461538461538461
 40
0.8461538461538461
 40
0.8461538461538461
 40
1.0
 40
1.0
 40
1.0
 40
1.0
 10
6.1795
 20
13.4261
 30
0.0
 10
6.1795
 20
13.4261
 30
0.0
 10
0.2104
 20
7.5167
 30
0.0
 10
0.2104
 20
7.5167
 30
0.0
 10
0.2104
 20
7.5167
 30
0.0
 10
0.2104
 20
7.5167
 30
0.0
 10
-3.7215
 20
11.4487
 30
0.0
 10
-3.7215
 20
11.4487
 30
0.0
 10
-3.7215
 20
11.4487
 30
0.0
 10
-3.7215
 20
11.4487
 30
0.0
 10
2.2655
 20
17.4483
 30
0.0
 10
2.2655
 20
17.4483
 30
0.0
 10
2.2655
 20
17.4483
 30
0.0
 10
2.2655
 20
17.4483
 30
0.0
 10
-3.7215
 20
23.3426
 30
0.0
 10
-3.7215
 20
23.3426
 30
0.0
 10
-3.7215
 20
23.3426
 30
0.0
 10
-3.7215
 20
23.3426
 30
0.0
 10
0.2104
 20
27.2746
 30
0.0
 10
0.2104
 20
27.2746
 30
0.0
 10
0.2104
 20
27.2746
 30
0.0
 10
0.2104
 20
27.2746
 30
0.0
 10
6.1827
 20
21.3655
 30
0.0
 10
6.1827
 20
21.3655
 30
0.0
 10
6.1827
 20
21.3655
 30
0.0
 10
6.1827
 20
21.3655
 30
0.0
 10
12.1045
 20
27.2747
 30
0.0
 10
12.1045
 20
27.2747
 30
0.0
 10
12.1045
 20
27.2747
 30
0.0
 10
12.1045
 20
27.2747
 30
0.0
 10
16.0365
 20
23.3428
 30
0.0
 10
16.0365
 20
23.3428
 30
0.0
 10
16.0365
 20
23.3428
 30
0.0
 10
16.0365
 20
23.3428
 30
0.0
 10
10.1327
 20
17.4516
 30
0.0
 10
10.1327
 20
17.4516
 30
0.0
 10
10.1327
 20
17.4516
 30
0.0
 10
10.1327
 20
17.4516
 30
0.0
 10
16.0365
 20
11.4485
 30
0.0
 10
16.0365
 20
11.4485
 30
0.0
 10
16.0365
 20
11.4485
 30
0.0
 10
16.0365
 20
11.4485
 30
0.0
 10
12.1045
 20
7.5166
 30
0.0
 10
12.1045
 20
7.5166
 30
0.0
 10
12.1045
 20
7.5166
 30
0.0
 10
12.1045
 20
7.5166
 30
0.0
 10
6.1795
 20
13.4261
 30
0.0
 10
6.1795
 20
13.4261
 30
0.0
  0
SPLINE
  5
75
330
1F
100
AcDbEntity
  8
layer 1
 62
     7
100
AcDbSpline
210
0.0
220
0.0
230
1.0
 70
    11
 71
     3
 72
    20
 73
    16
 74
     0
 42
0.0000000001
 43
0.0000000001
 12
1.0
 22
0.0
 32
0.0
 13
1.0
 23
0.0
 33
0.0
 40
0.0
 40
0.0
 40
0.0
 40
0.0
 40
0.2
 40
0.2
 40
0.2
 40
0.2
 40
0.4
 40
0.4
 40
0.4
 40
0.4
 40
0.6
 40
0.6
 40
0.6
 40
0.6
 40
1.0
 40
1.0
 40
1.0
 40
1.0
 10
-42.764
 20
22.434
 30
0.0
 10
-39.9877
 20
19.6576
 30
0.0
 10
-39.9877
 20
15.1561
 30
0.0
 10
-42.764
 20
12.3798
 30
0.0
 10
-42.764
 20
12.3798
 30
0.0
 10
-45.5404
 20
9.6034
 30
0.0
 10
-50.0419
 20
9.6034
 30
0.0
 10
-52.8183
 20
12.3798
 30
0.0
 10
-52.8183
 20
12.3798
 30
0.0
 10
-55.5946
 20
15.1561
 30
0.0
 10
-55.5946
 20
19.6576
 30
0.0
 10
-52.8183
 20
22.434
 30
0.0
 10
-52.8183
 20
22.434
 30
0.0
 10
-50.0419
 20
25.2104
 30
0.0
 10
-45.5404
 20
25.2104
 30
0.0
 10
-42.764
 20
22.434
 30
0.0
  0
SPLINE
  5
76
330
1F
100
AcDbEntity
  8
layer 1
 62
     7
100
AcDbSpline
210
0.0
220
0.0
230
1.0
 70
    11
 71
     3
 72
    20
 73
    16
 74
     0
 42
0.0000000001
 43
0.0000000001
 12
1.0
 22
0.0
 32
0.0
 13
1.0
 23
0.0
 33
0.0
 40
0.0
 40
0.0
 40
0.0
 40
0.0
 40
0.2
 40
0.2
 40
0.2
 40
0.2
 40
0.4
 40
0.4
 40
0.4
 40
0.4
 40
0.6
 40
0.6
 40
0.6
 40
0.6
 40
1.0
 40
1.0
 40
1.0
 40
1.0
 10
-6.8498
 20
22.4587
 30
0.0
 10
-4.0734
 20
19.6823
 30
0.0
 10
-4.0734
 20
15.1808
 30
0.0
 10
-6.8498
 20
12.4044
 30
0.0
 10
-6.8498
 20
12.4044
 30
0.0
 10
-9.6261
 20
9.6281
 30
0.0
 10
-14.1276
 20
9.6281
 30
0.0
 10
-16.904
 20
12.4044
 30
0.0
 10
-16.904
 20
12.4044
 30
0.0
 10
-19.6804
 20
15.1808
 30
0.0
 10
-19.6804
 20
19.6823
 30
0.0
 10
-16.904
 20
22.4587
 30
0.0
 10
-16.904
 20
22.4587
 30
0.0
 10
-14.1276
 20
25.235
 30
0.0
 10
-9.6261
 20
25.235
 30
0.0
 10
-6.8498
 20
22.4587
 30
0.0
  0
SPLINE
  5
77
330
1F
100
AcDbEntity
  8
layer 1
 62
     7
100
AcDbSpline
210
0.0
220
0.0
230
1.0
 70
    11
 71
     3
 72
    52
 73
    48
 74
     0
 42
0.0000000001
 43
0.0000000001
 12
1.0
 22
0.0
 32
0.0
 13
1.0
 23
0.0
 33
0.0
 40
0.0
 40
0.0
 40
0.0
 40
0.0
 40
0.0769230769230769
 40
0.0769230769230769
 40
0.0769230769230769
 40
0.0769230769230769
 40
0.1538461538461539
 40
0.1538461538461539
 40
0.1538461538461539
 40
0.1538461538461539
 40
0.2307692307692308
 40
0.2307692307692308
 40
0.2307692307692308
 40
0.2307692307692308
 40
0.3076923076923077
 40
0.3076923076923077
 40
0.3076923076923077
 40
0.3076923076923077
 40
0.3846153846153846
 40
0.3846153846153846
 40
0.3846153846153846
 40
0.3846153846153846
 40
0.4615384615384616
 40
0.4615384615384616
 40
0.4615384615384616
 40
0.4615384615384616
 40
0.5384615384615384
 40
0.5384615384615384
 40
0.5384615384615384
 40
0.5384615384615384
 40
0.6153846153846154
 40
0.6153846153846154
 40
0.6153846153846154
 40
0.6153846153846154
 40
0.6923076923076923
 40
0.6923076923076923
 40
0.6923076923076923
 40
0.6923076923076923
 40
0.7692307692307693
 40
0.7692307692307693
 40
0.7692307692307693
 40
0.7692307692307693
 40
0.8461538461538461
 40
0.8461538461538461
 40
0.8461538461538461
 40
0.8461538461538461
 40
1.0
 40
1.0
 40
1.0
 40
1.0
 10
-11.8292
 20
-4.8079
 30
0.0
 10
-11.8292
 20
-4.8079
 30
0.0
 10
-17.7982
 20
-10.7172
 30
0.0
 10
-17.7982
 20
-10.7172
 30
0.0
 10
-17.7982
 20
-10.7172
 30
0.0
 10
-17.7982
 20
-10.7172
 30
0.0
 10
-21.7302
 20
-6.7853
 30
0.0
 10
-21.7302
 20
-6.7853
 30
0.0
 10
-21.7302
 20
-6.7853
 30
0.0
 10
-21.7302
 20
-6.7853
 30
0.0
 10
-15.7431
 20
-0.7856
 30
0.0
 10
-15.7431
 20
-0.7856
 30
0.0
 10
-15.7431
 20
-0.7856
 30
0.0
 10
-15.7431
 20
-0.7856
 30
0.0
 10
-21.7302
 20
5.1087
 30
0.0
 10
-21.7302
 20
5.1087
 30
0.0
 10
-21.7302
 20
5.1087
 30
0.0
 10
-21.7302
 20
5.1087
 30
0.0
 10
-17.7982
 20
9.0407
 30
0.0
 10
-17.7982
 20
9.0407
 30
0.0
 10
-17.7982
 20
9.0407
 30
0.0
 10
-17.7982
 20
9.0407
 30
0.0
 10
-11.826
 20
3.1315
 30
0.0
 10
-11.826
 20
3.1315
 30
0.0
 10
-11.826
 20
3.1315
 30
0.0
 10
-11.826
 20
3.1315
 30
0.0
 10
-5.9041
 20
9.0408
 30
0.0
 10
-5.9041
 20
9.0408
 30
0.0
 10
-5.9041
 20
9.0408
 30
0.0
 10
-5.9041
 20
9.0408
 30
0.0
 10
-1.9722
 20
5.1088
 30
0.0
 10
-1.9722
 20
5.1088
 30
0.0
 10
-1.9722
 20
5.1088
 30
0.0
 10
-1.9722
 20
5.1088
 30
0.0
 10
-7.8759
 20
-0.7823
 30
0.0
 10
-7.8759
 20
-0.7823
 30
0.0
 10
-7.8759
 20
-0.7823
 30
0.0
 10
-7.8759
 20
-0.7823
 30
0.0
 10
-1.9722
 20
-6.7854
 30
0.0
 10
-1.9722
 20
-6.7854
 30
0.0
 10
-1.9722
 20
-6.7854
 30
0.0
 10
-1.9722
 20
-6.7854
 30
0.0
 10
-5.9041
 20
-10.7173
 30
0.0
 10
-5.9041
 20
-10.7173
 30
0.0
 10
-5.9041
 20
-10.7173
 30
0.0
 10
-5.9041
 20
-10.7173
 30
0.0
 10
-11.8292
 20
-4.8079
 30
0.0
 10
-11.8292
 20
-4.8079
 30
0.0
  0
SPLINE
  5
78
330
1F
100
AcDbEntity
  8
layer 1
 62
     7
100
AcDbSpline
210
0.0
220
0.0
230
1.0
 70
    11
 71
     3
 72
    52
 73
    48
 74
     0
 42
0.0000000001
 43
0.0000000001
 12
1.0
 22
0.0
 32
0.0
 13
1.0
 23
0.0
 33
0.0
 40
0.0
 40
0.0
 40
0.0
 40
0.0
 40
0.0769230769230769
 40
0.0769230769230769
 40
0.0769230769230769
 40
0.0769230769230769
 40
0.1538461538461539
 40
0.1538461538461539
 40
0.1538461538461539
 40
0.1538461538461539
 40
0.2307692307692308
 40
0.2307692307692308
 40
0.2307692307692308
 40
0.2307692307692308
 40
0.3076923076923077
 40
0.3076923076923077
 40
0.3076923076923077
 40
0.3076923076923077
 40
0.3846153846153846
 40
0.3846153846153846
 40
0.3846153846153846
 40
0.3846153846153846
 40
0.4615384615384616
 40
0.4615384615384616
 40
0.4615384615384616
 40
0.4615384615384616
 40
0.5384615384615384
 40
0.5384615384615384
 40
0.5384615384615384
 40
0.5384615384615384
 40
0.6153846153846154
 40
0.6153846153846154
 40
0.6153846153846154
 40
0.6153846153846154
 40
0.6923076923076923
 40
0.6923076923076923
 40
0.6923076923076923
 40
0.6923076923076923
 40
0.7692307692307693
 40
0.7692307692307693
 40
0.7692307692307693
 40
0.7692307692307693
 40
0.8461538461538461
 40
0.8461538461538461
 40
0.8461538461538461
 40
0.8461538461538461
 40
1.0
 40
1.0
 40
1.0
 40
1.0
 10
-47.9181
 20
-4.8291
 30
0.0
 10
-47.9181
 20
-4.8291
 30
0.0
 10
-53.8871
 20
-10.7385
 30
0.0
 10
-53.8871
 20
-10.7385
 30
0.0
 10
-53.8871
 20
-10.7385
 30
0.0
 10
-53.8871
 20
-10.7385
 30
0.0
 10
-57.8191
 20
-6.8065
 30
0.0
 10
-57.8191
 20
-6.8065
 30
0.0
 10
-57.8191
 20
-6.8065
 30
0.0
 10
-57.8191
 20
-6.8065
 30
0.0
 10
-51.832
 20
-0.8069
 30
0.0
 10
-51.832
 20
-0.8069
 30
0.0
 10
-51.832
 20
-0.8069
 30
0.0
 10
-51.832
 20
-0.8069
 30
0.0
 10
-57.8191
 20
5.0875
 30
0.0
 10
-57.8191
 20
5.0875
 30
0.0
 10
-57.8191
 20
5.0875
 30
0.0
 10
-57.8191
 20
5.0875
 30
0.0
 10
-53.8871
 20
9.0194
 30
0.0
 10
-53.8871
 20
9.0194
 30
0.0
 10
-53.8871
 20
9.0194
 30
0.0
 10
-53.8871
 20
9.0194
 30
0.0
 10
-47.9149
 20
3.1103
 30
0.0
 10
-47.9149
 20
3.1103
 30
0.0
 10
-47.9149
 20
3.1103
 30
0.0
 10
-47.9149
 20
3.1103
 30
0.0
 10
-41.993
 20
9.0195
 30
0.0
 10
-41.993
 20
9.0195
 30
0.0
 10
-41.993
 20
9.0195
 30
0.0
 10
-41.993
 20
9.0195
 30
0.0
 10
-38.0611
 20
5.0876
 30
0.0
 10
-38.0611
 20
5.0876
 30
0.0
 10
-38.0611
 20
5.0876
 30
0.0
 10
-38.0611
 20
5.0876
 30
0.0
 10
-43.9648
 20
-0.8036
 30
0.0
 10
-43.9648
 20
-0.8036
 30
0.0
 10
-43.9648
 20
-0.8036
 30
0.0
 10
-43.9648
 20
-0.8036
 30
0.0
 10
-38.0611
 20
-6.8066
 30
0.0
 10
-38.0611
 20
-6.8066
 30
0.0
 10
-38.0611
 20
-6.8066
 30
0.0
 10
-38.0611
 20
-6.8066
 30
0.0
 10
-41.993
 20
-10.7386
 30
0.0
 10
-41.993
 20
-10.7386
 30
0.0
 10
-41.993
 20
-10.7386
 30
0.0
 10
-41.993
 20
-10.7386
 30
0.0
 10
-47.9181
 20
-4.8291
 30
0.0
 10
-47.9181
 20
-4.8291
 30
0.0
  0
SPLINE
  5
79
330
1F
100
AcDbEntity
  8
layer 1
 62
     7
100
AcDbSpline
210
0.0
220
0.0
230
1.0
 70
    11
 71
     3
 72
    32
 73
    28
 74
     0
 42
0.0000000001
 43
0.0000000001
 12
1.0
 22
0.0
 32
0.0
 13
1.0
 23
0.0
 33
0.0
 40
0.0
 40
0.0
 40
0.0
 40
0.0
 40
0.125
 40
0.125
 40
0.125
 40
0.125
 40
0.25
 40
0.25
 40
0.25
 40
0.25
 40
0.375
 40
0.375
 40
0.375
 40
0.375
 40
0.5
 40
0.5
 40
0.5
 40
0.5
 40
0.625
 40
0.625
 40
0.625
 40
0.625
 40
0.75
 40
0.75
 40
0.75
 40
0.75
 40
1.0
 40
1.0
 40
1.0
 40
1.0
 10
24.1076
 20
-4.8079
 30
0.0
 10
24.1076
 20
-4.8079
 30
0.0
 10
18.1385
 20
-10.7172
 30
0.0
 10
18.1385
 20
-10.7172
 30
0.0
 10
18.1385
 20
-10.7172
 30
0.0
 10
18.1385
 20
-10.7172
 30
0.0
 10
14.2066
 20
-6.7853
 30
0.0
 10
14.2066
 20
-6.7853
 30
0.0
 10
14.2066
 20
-6.7853
 30
0.0
 10
14.2066
 20
-6.7853
 30
0.0
 10
20.1936
 20
-0.7856
 30
0.0
 10
20.1936
 20
-0.7856
 30
0.0
 10
20.1936
 20
-0.7856
 30
0.0
 10
20.1936
 20
-0.7856
 30
0.0
 10
14.2066
 20
5.1087
 30
0.0
 10
14.2066
 20
5.1087
 30
0.0
 10
14.2066
 20
5.1087
 30
0.0
 10
14.2066
 20
5.1087
 30
0.0
 10
18.1385
 20
9.0407
 30
0.0
 10
18.1385
 20
9.0407
 30
0.0
 10
18.1385
 20
9.0407
 30
0.0
 10
18.1385
 20
9.0407
 30
0.0
 10
24.1108
 20
3.1315
 30
0.0
 10
24.1108
 20
3.1315
 30
0.0
 10
24.1108
 20
3.1315
 30
0.0
 10
24.1108
 20
3.1315
 30
0.0
 10
24.1076
 20
-4.8079
 30
0.0
 10
24.1076
 20
-4.8079
 30
0.0
  0
SPLINE
  5
7A
330
1F
100
AcDbEntity
  8
layer 1
 62
     7
100
AcDbSpline
210
0.0
220
0.0
230
1.0
 70
    11
 71
     3
 72
    20
 73
    16
 74
     0
 42
0.0000000001
 43
0.0000000001
 12
1.0
 22
0.0
 32
0.0
 13
1.0
 23
0.0
 33
0.0
 40
0.0
 40
0.0
 40
0.0
 40
0.0
 40
0.2
 40
0.2
 40
0.2
 40
0.2
 40
0.4
 40
0.4
 40
0.4
 40
0.4
 40
0.6
 40
0.6
 40
0.6
 40
0.6
 40
1.0
 40
1.0
 40
1.0
 40
1.0
 10
-60.9863
 20
4.2001
 30
0.0
 10
-58.21
 20
1.4237
 30
0.0
 10
-58.21
 20
-3.0778
 30
0.0
 10
-60.9863
 20
-5.8542
 30
0.0
 10
-60.9863
 20
-5.8542
 30
0.0
 10
-63.7627
 20
-8.6305
 30
0.0
 10
-68.2642
 20
-8.6305
 30
0.0
 10
-71.0406
 20
-5.8542
 30
0.0
 10
-71.0406
 20
-5.8542
 30
0.0
 10
-73.8169
 20
-3.0778
 30
0.0
 10
-73.8169
 20
1.4237
 30
0.0
 10
-71.0406
 20
4.2001
 30
0.0
 10
-71.0406
 20
4.2001
 30
0.0
 10
-68.2642
 20
6.9764
 30
0.0
 10
-63.7627
 20
6.9764
 30
0.0
 10
-60.9863
 20
4.2001
 30
0.0
  0
SPLINE
  5
7B
330
1F
100
AcDbEntity
  8
layer 1
 62
     7
100
AcDbSpline
210
0.0
220
0.0
230
1.0
 70
    11
 71
     3
 72
    20
 73
    16
 74
     0
 42
0.0000000001
 43
0.0000000001
 12
1.0
 22
0.0
 32
0.0
 13
1.0
 23
0.0
 33
0.0
 40
0.0
 40
0.0
 40
0.0
 40
0.0
 40
0.2
 40
0.2
 40
0.2
 40
0.2
 40
0.4
 40
0.4
 40
0.4
 40
0.4
 40
0.6
 40
0.6
 40
0.6
 40
0.6
 40
1.0
 40
1.0
 40
1.0
 40
1.0
 10
-24.836
 20
4.2001
 30
0.0
 10
-22.0596
 20
1.4237
 30
0.0
 10
-22.0596
 20
-3.0778
 30
0.0
 10
-24.836
 20
-5.8542
 30
0.0
 10
-24.836
 20
-5.8542
 30
0.0
 10
-27.6123
 20
-8.6305
 30
0.0
 10
-32.1139
 20
-8.6305
 30
0.0
 10
-34.8902
 20
-5.8542
 30
0.0
 10
-34.8902
 20
-5.8542
 30
0.0
 10
-37.6666
 20
-3.0778
 30
0.0
 10
-37.6666
 20
1.4237
 30
0.0
 10
-34.8902
 20
4.2001
 30
0.0
 10
-34.8902
 20
4.2001
 30
0.0
 10
-32.1139
 20
6.9764
 30
0.0
 10
-27.6123
 20
6.9764
 30
0.0
 10
-24.836
 20
4.2001
 30
0.0
  0
SPLINE
  5
7C
330
1F
100
AcDbEntity
  8
layer 1
 62
     7
100
AcDbSpline
210
0.0
220
0.0
230
1.0
 70
    11
 71
     3
 72
    20
 73
    16
 74
     0
 42
0.0000000001
 43
0.0000000001
 12
1.0
 22
0.0
 32
0.0
 13
1.0
 23
0.0
 33
0.0
 40
0.0
 40
0.0
 40
0.0
 40
0.0
 40
0.2
 40
0.2
 40
0.2
 40
0.2
 40
0.4
 40
0.4
 40
0.4
 40
0.4
 40
0.6
 40
0.6
 40
0.6
 40
0.6
 40
1.0
 40
1.0
 40
1.0
 40
1.0
 10
11.4325
 20
4.2001
 30
0.0
 10
14.2089
 20
1.4237
 30
0.0
 10
14.2089
 20
-3.0778
 30
0.0
 10
11.4325
 20
-5.8542
 30
0.0
 10
11.4325
 20
-5.8542
 30
0.0
 10
8.6562
 20
-8.6305
 30
0.0
 10
4.1546
 20
-8.6305
 30
0.0
 10
1.3783
 20
-5.8542
 30
0.0
 10
1.3783
 20
-5.8542
 30
0.0
 10
-1.3981
 20
-3.0778
 30
0.0
 10
-1.3981
 20
1.4237
 30
0.0
 10
1.3783
 20
4.2001
 30
0.0
 10
1.3783
 20
4.2001
 30
0.0
 10
4.1546
 20
6.9764
 30
0.0
 10
8.6562
 20
6.9764
 30
0.0
 10
11.4325
 20
4.2001
 30
0.0
  0
SPLINE
  5
7D
330
1F
100
AcDbEntity
  8
layer 1
 62
     7
100
AcDbSpline
210
0.0
220
0.0
230
1.0
 70
    11
 71
     3
 72
    52
 73
    48
 74
     0
 42
0.0000000001
 43
0.0000000001
 12
1.0
 22
0.0
 32
0.0
 13
1.0
 23
0.0
 33
0.0
 40
0.0
 40
0.0
 40
0.0
 40
0.0
 40
0.0769230769230769
 40
0.0769230769230769
 40
0.0769230769230769
 40
0.0769230769230769
 40
0.1538461538461539
 40
0.1538461538461539
 40
0.1538461538461539
 40
0.1538461538461539
 40
0.2307692307692308
 40
0.2307692307692308
 40
0.2307692307692308
 40
0.2307692307692308
 40
0.3076923076923077
 40
0.3076923076923077
 40
0.3076923076923077
 40
0.3076923076923077
 40
0.3846153846153846
 40
0.3846153846153846
 40
0.3846153846153846
 40
0.3846153846153846
 40
0.4615384615384616
 40
0.4615384615384616
 40
0.4615384615384616
 40
0.4615384615384616
 40
0.5384615384615384
 40
0.5384615384615384
 40
0.5384615384615384
 40
0.5384615384615384
 40
0.6153846153846154
 40
0.6153846153846154
 40
0.6153846153846154
 40
0.6153846153846154
 40
0.6923076923076923
 40
0.6923076923076923
 40
0.6923076923076923
 40
0.6923076923076923
 40
0.7692307692307693
 40
0.7692307692307693
 40
0.7692307692307693
 40
0.7692307692307693
 40
0.8461538461538461
 40
0.8461538461538461
 40
0.8461538461538461
 40
0.8461538461538461
 40
1.0
 40
1.0
 40
1.0
 40
1.0
 10
-29.7572
 20
-23.1031
 30
0.0
 10
-29.7572
 20
-23.1031
 30
0.0
 10
-35.7263
 20
-29.0125
 30
0.0
 10
-35.7263
 20
-29.0125
 30
0.0
 10
-35.7263
 20
-29.0125
 30
0.0
 10
-35.7263
 20
-29.0125
 30
0.0
 10
-39.6582
 20
-25.0805
 30
0.0
 10
-39.6582
 20
-25.0805
 30
0.0
 10
-39.6582
 20
-25.0805
 30
0.0
 10
-39.6582
 20
-25.0805
 30
0.0
 10
-33.6712
 20
-19.0809
 30
0.0
 10
-33.6712
 20
-19.0809
 30
0.0
 10
-33.6712
 20
-19.0809
 30
0.0
 10
-33.6712
 20
-19.0809
 30
0.0
 10
-39.6582
 20
-13.1866
 30
0.0
 10
-39.6582
 20
-13.1866
 30
0.0
 10
-39.6582
 20
-13.1866
 30
0.0
 10
-39.6582
 20
-13.1866
 30
0.0
 10
-35.7263
 20
-9.2546
 30
0.0
 10
-35.7263
 20
-9.2546
 30
0.0
 10
-35.7263
 20
-9.2546
 30
0.0
 10
-35.7263
 20
-9.2546
 30
0.0
 10
-29.754
 20
-15.1637
 30
0.0
 10
-29.754
 20
-15.1637
 30
0.0
 10
-29.754
 20
-15.1637
 30
0.0
 10
-29.754
 20
-15.1637
 30
0.0
 10
-23.8322
 20
-9.2545
 30
0.0
 10
-23.8322
 20
-9.2545
 30
0.0
 10
-23.8322
 20
-9.2545
 30
0.0
 10
-23.8322
 20
-9.2545
 30
0.0
 10
-19.9003
 20
-13.1864
 30
0.0
 10
-19.9003
 20
-13.1864
 30
0.0
 10
-19.9003
 20
-13.1864
 30
0.0
 10
-19.9003
 20
-13.1864
 30
0.0
 10
-25.804
 20
-19.0776
 30
0.0
 10
-25.804
 20
-19.0776
 30
0.0
 10
-25.804
 20
-19.0776
 30
0.0
 10
-25.804
 20
-19.0776
 30
0.0
 10
-19.9003
 20
-25.0807
 30
0.0
 10
-19.9003
 20
-25.0807
 30
0.0
 10
-19.9003
 20
-25.0807
 30
0.0
 10
-19.9003
 20
-25.0807
 30
0.0
 10
-23.8322
 20
-29.0126
 30
0.0
 10
-23.8322
 20
-29.0126
 30
0.0
 10
-23.8322
 20
-29.0126
 30
0.0
 10
-23.8322
 20
-29.0126
 30
0.0
 10
-29.7572
 20
-23.1031
 30
0.0
 10
-29.7572
 20
-23.1031
 30
0.0
  0
SPLINE
  5
7E
330
1F
100
AcDbEntity
  8
layer 1
 62
     7
100
AcDbSpline
210
0.0
220
0.0
230
1.0
 70
    11
 71
     3
 72
    52
 73
    48
 74
     0
 42
0.0000000001
 43
0.0000000001
 12
1.0
 22
0.0
 32
0.0
 13
1.0
 23
0.0
 33
0.0
 40
0.0
 40
0.0
 40
0.0
 40
0.0
 40
0.0769230769230769
 40
0.0769230769230769
 40
0.0769230769230769
 40
0.0769230769230769
 40
0.1538461538461539
 40
0.1538461538461539
 40
0.1538461538461539
 40
0.1538461538461539
 40
0.2307692307692308
 40
0.2307692307692308
 40
0.2307692307692308
 40
0.2307692307692308
 40
0.3076923076923077
 40
0.3076923076923077
 40
0.3076923076923077
 40
0.3076923076923077
 40
0.3846153846153846
 40
0.3846153846153846
 40
0.3846153846153846
 40
0.3846153846153846
 40
0.4615384615384616
 40
0.4615384615384616
 40
0.4615384615384616
 40
0.4615384615384616
 40
0.5384615384615384
 40
0.5384615384615384
 40
0.5384615384615384
 40
0.5384615384615384
 40
0.6153846153846154
 40
0.6153846153846154
 40
0.6153846153846154
 40
0.6153846153846154
 40
0.6923076923076923
 40
0.6923076923076923
 40
0.6923076923076923
 40
0.6923076923076923
 40
0.7692307692307693
 40
0.7692307692307693
 40
0.7692307692307693
 40
0.7692307692307693
 40
0.8461538461538461
 40
0.8461538461538461
 40
0.8461538461538461
 40
0.8461538461538461
 40
1.0
 40
1.0
 40
1.0
 40
1.0
 10
-65.8461
 20
-23.1244
 30
0.0
 10
-65.8461
 20
-23.1244
 30
0.0
 10
-71.8152
 20
-29.0337
 30
0.0
 10
-71.8152
 20
-29.0337
 30
0.0
 10
-71.8152
 20
-29.0337
 30
0.0
 10
-71.8152
 20
-29.0337
 30
0.0
 10
-75.7471
 20
-25.1018
 30
0.0
 10
-75.7471
 20
-25.1018
 30
0.0
 10
-75.7471
 20
-25.1018
 30
0.0
 10
-75.7471
 20
-25.1018
 30
0.0
 10
-69.7601
 20
-19.1022
 30
0.0
 10
-69.7601
 20
-19.1022
 30
0.0
 10
-69.7601
 20
-19.1022
 30
0.0
 10
-69.7601
 20
-19.1022
 30
0.0
 10
-75.7471
 20
-13.2078
 30
0.0
 10
-75.7471
 20
-13.2078
 30
0.0
 10
-75.7471
 20
-13.2078
 30
0.0
 10
-75.7471
 20
-13.2078
 30
0.0
 10
-71.8152
 20
-9.2759
 30
0.0
 10
-71.8152
 20
-9.2759
 30
0.0
 10
-71.8152
 20
-9.2759
 30
0.0
 10
-71.8152
 20
-9.2759
 30
0.0
 10
-65.8429
 20
-15.185
 30
0.0
 10
-65.8429
 20
-15.185
 30
0.0
 10
-65.8429
 20
-15.185
 30
0.0
 10
-65.8429
 20
-15.185
 30
0.0
 10
-59.9211
 20
-9.2758
 30
0.0
 10
-59.9211
 20
-9.2758
 30
0.0
 10
-59.9211
 20
-9.2758
 30
0.0
 10
-59.9211
 20
-9.2758
 30
0.0
 10
-55.9892
 20
-13.2077
 30
0.0
 10
-55.9892
 20
-13.2077
 30
0.0
 10
-55.9892
 20
-13.2077
 30
0.0
 10
-55.9892
 20
-13.2077
 30
0.0
 10
-61.8929
 20
-19.0988
 30
0.0
 10
-61.8929
 20
-19.0988
 30
0.0
 10
-61.8929
 20
-19.0988
 30
0.0
 10
-61.8929
 20
-19.0988
 30
0.0
 10
-55.9892
 20
-25.1019
 30
0.0
 10
-55.9892
 20
-25.1019
 30
0.0
 10
-55.9892
 20
-25.1019
 30
0.0
 10
-55.9892
 20
-25.1019
 30
0.0
 10
-59.9211
 20
-29.0338
 30
0.0
 10
-59.9211
 20
-29.0338
 30
0.0
 10
-59.9211
 20
-29.0338
 30
0.0
 10
-59.9211
 20
-29.0338
 30
0.0
 10
-65.8461
 20
-23.1244
 30
0.0
 10
-65.8461
 20
-23.1244
 30
0.0
  0
SPLINE
  5
7F
330
1F
100
AcDbEntity
  8
layer 1
 62
     7
100
AcDbSpline
210
0.0
220
0.0
230
1.0
 70
    11
 71
     3
 72
    52
 73
    48
 74
     0
 42
0.0000000001
 43
0.0000000001
 12
1.0
 22
0.0
 32
0.0
 13
1.0
 23
0.0
 33
0.0
 40
0.0
 40
0.0
 40
0.0
 40
0.0
 40
0.0769230769230769
 40
0.0769230769230769
 40
0.0769230769230769
 40
0.0769230769230769
 40
0.1538461538461539
 40
0.1538461538461539
 40
0.1538461538461539
 40
0.1538461538461539
 40
0.2307692307692308
 40
0.2307692307692308
 40
0.2307692307692308
 40
0.2307692307692308
 40
0.3076923076923077
 40
0.3076923076923077
 40
0.3076923076923077
 40
0.3076923076923077
 40
0.3846153846153846
 40
0.3846153846153846
 40
0.3846153846153846
 40
0.3846153846153846
 40
0.4615384615384616
 40
0.4615384615384616
 40
0.4615384615384616
 40
0.4615384615384616
 40
0.5384615384615384
 40
0.5384615384615384
 40
0.5384615384615384
 40
0.5384615384615384
 40
0.6153846153846154
 40
0.6153846153846154
 40
0.6153846153846154
 40
0.6153846153846154
 40
0.6923076923076923
 40
0.6923076923076923
 40
0.6923076923076923
 40
0.6923076923076923
 40
0.7692307692307693
 40
0.7692307692307693
 40
0.7692307692307693
 40
0.7692307692307693
 40
0.8461538461538461
 40
0.8461538461538461
 40
0.8461538461538461
 40
0.8461538461538461
 40
1.0
 40
1.0
 40
1.0
 40
1.0
 10
6.1795
 20
-23.1031
 30
0.0
 10
6.1795
 20
-23.1031
 30
0.0
 10
0.2104
 20
-29.0125
 30
0.0
 10
0.2104
 20
-29.0125
 30
0.0
 10
0.2104
 20
-29.0125
 30
0.0
 10
0.2104
 20
-29.0125
 30
0.0
 10
-3.7215
 20
-25.0805
 30
0.0
 10
-3.7215
 20
-25.0805
 30
0.0
 10
-3.7215
 20
-25.0805
 30
0.0
 10
-3.7215
 20
-25.0805
 30
0.0
 10
2.2655
 20
-19.0809
 30
0.0
 10
2.2655
 20
-19.0809
 30
0.0
 10
2.2655
 20
-19.0809
 30
0.0
 10
2.2655
 20
-19.0809
 30
0.0
 10
-3.7215
 20
-13.1866
 30
0.0
 10
-3.7215
 20
-13.1866
 30
0.0
 10
-3.7215
 20
-13.1866
 30
0.0
 10
-3.7215
 20
-13.1866
 30
0.0
 10
0.2104
 20
-9.2546
 30
0.0
 10
0.2104
 20
-9.2546
 30
0.0
 10
0.2104
 20
-9.2546
 30
0.0
 10
0.2104
 20
-9.2546
 30
0.0
 10
6.1827
 20
-15.1637
 30
0.0
 10
6.1827
 20
-15.1637
 30
0.0
 10
6.1827
 20
-15.1637
 30
0.0
 10
6.1827
 20
-15.1637
 30
0.0
 10
12.1045
 20
-9.2545
 30
0.0
 10
12.1045
 20
-9.2545
 30
0.0
 10
12.1045
 20
-9.2545
 30
0.0
 10
12.1045
 20
-9.2545
 30
0.0
 10
16.0365
 20
-13.1864
 30
0.0
 10
16.0365
 20
-13.1864
 30
0.0
 10
16.0365
 20
-13.1864
 30
0.0
 10
16.0365
 20
-13.1864
 30
0.0
 10
10.1327
 20
-19.0776
 30
0.0
 10
10.1327
 20
-19.0776
 30
0.0
 10
10.1327
 20
-19.0776
 30
0.0
 10
10.1327
 20
-19.0776
 30
0.0
 10
16.0365
 20
-25.0807
 30
0.0
 10
16.0365
 20
-25.0807
 30
0.0
 10
16.0365
 20
-25.0807
 30
0.0
 10
16.0365
 20
-25.0807
 30
0.0
 10
12.1045
 20
-29.0126
 30
0.0
 10
12.1045
 20
-29.0126
 30
0.0
 10
12.1045
 20
-29.0126
 30
0.0
 10
12.1045
 20
-29.0126
 30
0.0
 10
6.1795
 20
-23.1031
 30
0.0
 10
6.1795
 20
-23.1031
 30
0.0
  0
SPLINE
  5
80
330
1F
100
AcDbEntity
  8
layer 1
 62
     7
100
AcDbSpline
210
0.0
220
0.0
230
1.0
 70
    11
 71
     3
 72
    20
 73
    16
 74
     0
 42
0.0000000001
 43
0.0000000001
 12
1.0
 22
0.0
 32
0.0
 13
1.0
 23
0.0
 33
0.0
 40
0.0
 40
0.0
 40
0.0
 40
0.0
 40
0.2
 40
0.2
 40
0.2
 40
0.2
 40
0.4
 40
0.4
 40
0.4
 40
0.4
 40
0.6
 40
0.6
 40
0.6
 40
0.6
 40
1.0
 40
1.0
 40
1.0
 40
1.0
 10
-42.764
 20
-14.0952
 30
0.0
 10
-39.9877
 20
-16.8716
 30
0.0
 10
-39.9877
 20
-21.3731
 30
0.0
 10
-42.764
 20
-24.1494
 30
0.0
 10
-42.764
 20
-24.1494
 30
0.0
 10
-45.5404
 20
-26.9258
 30
0.0
 10
-50.0419
 20
-26.9258
 30
0.0
 10
-52.8183
 20
-24.1494
 30
0.0
 10
-52.8183
 20
-24.1494
 30
0.0
 10
-55.5946
 20
-21.3731
 30
0.0
 10
-55.5946
 20
-16.8716
 30
0.0
 10
-52.8183
 20
-14.0952
 30
0.0
 10
-52.8183
 20
-14.0952
 30
0.0
 10
-50.0419
 20
-11.3188
 30
0.0
 10
-45.5404
 20
-11.3188
 30
0.0
 10
-42.764
 20
-14.0952
 30
0.0
  0
SPLINE
  5
81
330
1F
100
AcDbEntity
  8
layer 1
 62
     7
100
AcDbSpline
210
0.0
220
0.0
230
1.0
 70
    11
 71
     3
 72
    20
 73
    16
 74
     0
 42
0.0000000001
 43
0.0000000001
 12
1.0
 22
0.0
 32
0.0
 13
1.0
 23
0.0
 33
0.0
 40
0.0
 40
0.0
 40
0.0
 40
0.0
 40
0.2
 40
0.2
 40
0.2
 40
0.2
 40
0.4
 40
0.4
 40
0.4
 40
0.4
 40
0.6
 40
0.6
 40
0.6
 40
0.6
 40
1.0
 40
1.0
 40
1.0
 40
1.0
 10
-6.4955
 20
-14.0952
 30
0.0
 10
-3.7192
 20
-16.8716
 30
0.0
 10
-3.7192
 20
-21.3731
 30
0.0
 10
-6.4955
 20
-24.1494
 30
0.0
 10
-6.4955
 20
-24.1494
 30
0.0
 10
-9.2719
 20
-26.9258
 30
0.0
 10
-13.7734
 20
-26.9258
 30
0.0
 10
-16.5498
 20
-24.1494
 30
0.0
 10
-16.5498
 20
-24.1494
 30
0.0
 10
-19.3261
 20
-21.3731
 30
0.0
 10
-19.3261
 20
-16.8716
 30
0.0
 10
-16.5498
 20
-14.0952
 30
0.0
 10
-16.5498
 20
-14.0952
 30
0.0
 10
-13.7734
 20
-11.3188
 30
0.0
 10
-9.2719
 20
-11.3188
 30
0.0
 10
-6.4955
 20
-14.0952
 30
0.0
  0
SPLINE
  5
82
330
1F
100
AcDbEntity
  8
layer 1
 62
     7
100
AcDbSpline
210
0.0
220
0.0
230
1.0
 70
    11
 71
     3
 72
    52
 73
    48
 74
     0
 42
0.0000000001
 43
0.0000000001
 12
1.0
 22
0.0
 32
0.0
 13
1.0
 23
0.0
 33
0.0
 40
0.0
 40
0.0
 40
0.0
 40
0.0
 40
0.0769230769230769
 40
0.0769230769230769
 40
0.0769230769230769
 40
0.0769230769230769
 40
0.1538461538461539
 40
0.1538461538461539
 40
0.1538461538461539
 40
0.1538461538461539
 40
0.2307692307692308
 40
0.2307692307692308
 40
0.2307692307692308
 40
0.2307692307692308
 40
0.3076923076923077
 40
0.3076923076923077
 40
0.3076923076923077
 40
0.3076923076923077
 40
0.3846153846153846
 40
0.3846153846153846
 40
0.3846153846153846
 40
0.3846153846153846
 40
0.4615384615384616
 40
0.4615384615384616
 40
0.4615384615384616
 40
0.4615384615384616
 40
0.5384615384615384
 40
0.5384615384615384
 40
0.5384615384615384
 40
0.5384615384615384
 40
0.6153846153846154
 40
0.6153846153846154
 40
0.6153846153846154
 40
0.6153846153846154
 40
0.6923076923076923
 40
0.6923076923076923
 40
0.6923076923076923
 40
0.6923076923076923
 40
0.7692307692307693
 40
0.7692307692307693
 40
0.7692307692307693
 40
0.7692307692307693
 40
0.8461538461538461
 40
0.8461538461538461
 40
0.8461538461538461
 40
0.8461538461538461
 40
1.0
 40
1.0
 40
1.0
 40
1.0
 10
-11.7159
 20
-41.3503
 30
0.0
 10
-11.7159
 20
-41.3503
 30
0.0
 10
-17.685
 20
-47.2597
 30
0.0
 10
-17.685
 20
-47.2597
 30
0.0
 10
-17.685
 20
-47.2597
 30
0.0
 10
-17.685
 20
-47.2597
 30
0.0
 10
-21.6169
 20
-43.3277
 30
0.0
 10
-21.6169
 20
-43.3277
 30
0.0
 10
-21.6169
 20
-43.3277
 30
0.0
 10
-21.6169
 20
-43.3277
 30
0.0
 10
-15.6298
 20
-37.3281
 30
0.0
 10
-15.6298
 20
-37.3281
 30
0.0
 10
-15.6298
 20
-37.3281
 30
0.0
 10
-15.6298
 20
-37.3281
 30
0.0
 10
-21.6169
 20
-31.4338
 30
0.0
 10
-21.6169
 20
-31.4338
 30
0.0
 10
-21.6169
 20
-31.4338
 30
0.0
 10
-21.6169
 20
-31.4338
 30
0.0
 10
-17.685
 20
-27.5018
 30
0.0
 10
-17.685
 20
-27.5018
 30
0.0
 10
-17.685
 20
-27.5018
 30
0.0
 10
-17.685
 20
-27.5018
 30
0.0
 10
-11.7127
 20
-33.4109
 30
0.0
 10
-11.7127
 20
-33.4109
 30
0.0
 10
-11.7127
 20
-33.4109
 30
0.0
 10
-11.7127
 20
-33.4109
 30
0.0
 10
-5.7909
 20
-27.5017
 30
0.0
 10
-5.7909
 20
-27.5017
 30
0.0
 10
-5.7909
 20
-27.5017
 30
0.0
 10
-5.7909
 20
-27.5017
 30
0.0
 10
-1.8589
 20
-31.4336
 30
0.0
 10
-1.8589
 20
-31.4336
 30
0.0
 10
-1.8589
 20
-31.4336
 30
0.0
 10
-1.8589
 20
-31.4336
 30
0.0
 10
-7.7627
 20
-37.3248
 30
0.0
 10
-7.7627
 20
-37.3248
 30
0.0
 10
-7.7627
 20
-37.3248
 30
0.0
 10
-7.7627
 20
-37.3248
 30
0.0
 10
-1.8589
 20
-43.3279
 30
0.0
 10
-1.8589
 20
-43.3279
 30
0.0
 10
-1.8589
 20
-43.3279
 30
0.0
 10
-1.8589
 20
-43.3279
 30
0.0
 10
-5.7909
 20
-47.2598
 30
0.0
 10
-5.7909
 20
-47.2598
 30
0.0
 10
-5.7909
 20
-47.2598
 30
0.0
 10
-5.7909
 20
-47.2598
 30
0.0
 10
-11.7159
 20
-41.3503
 30
0.0
 10
-11.7159
 20
-41.3503
 30
0.0
  0
SPLINE
  5
83
330
1F
100
AcDbEntity
  8
layer 1
 62
     7
100
AcDbSpline
210
0.0
220
0.0
230
1.0
 70
    11
 71
     3
 72
    52
 73
    48
 74
     0
 42
0.0000000001
 43
0.0000000001
 12
1.0
 22
0.0
 32
0.0
 13
1.0
 23
0.0
 33
0.0
 40
0.0
 40
0.0
 40
0.0
 40
0.0
 40
0.0769230769230769
 40
0.0769230769230769
 40
0.0769230769230769
 40
0.0769230769230769
 40
0.1538461538461539
 40
0.1538461538461539
 40
0.1538461538461539
 40
0.1538461538461539
 40
0.2307692307692308
 40
0.2307692307692308
 40
0.2307692307692308
 40
0.2307692307692308
 40
0.3076923076923077
 40
0.3076923076923077
 40
0.3076923076923077
 40
0.3076923076923077
 40
0.3846153846153846
 40
0.3846153846153846
 40
0.3846153846153846
 40
0.3846153846153846
 40
0.4615384615384616
 40
0.4615384615384616
 40
0.4615384615384616
 40
0.4615384615384616
 40
0.5384615384615384
 40
0.5384615384615384
 40
0.5384615384615384
 40
0.5384615384615384
 40
0.6153846153846154
 40
0.6153846153846154
 40
0.6153846153846154
 40
0.6153846153846154
 40
0.6923076923076923
 40
0.6923076923076923
 40
0.6923076923076923
 40
0.6923076923076923
 40
0.7692307692307693
 40
0.7692307692307693
 40
0.7692307692307693
 40
0.7692307692307693
 40
0.8461538461538461
 40
0.8461538461538461
 40
0.8461538461538461
 40
0.8461538461538461
 40
1.0
 40
1.0
 40
1.0
 40
1.0
 10
-47.8048
 20
-41.3716
 30
0.0
 10
-47.8048
 20
-41.3716
 30
0.0
 10
-53.7739
 20
-47.2809
 30
0.0
 10
-53.7739
 20
-47.2809
 30
0.0
 10
-53.7739
 20
-47.2809
 30
0.0
 10
-53.7739
 20
-47.2809
 30
0.0
 10
-57.7058
 20
-43.349
 30
0.0
 10
-57.7058
 20
-43.349
 30
0.0
 10
-57.7058
 20
-43.349
 30
0.0
 10
-57.7058
 20
-43.349
 30
0.0
 10
-51.7187
 20
-37.3494
 30
0.0
 10
-51.7187
 20
-37.3494
 30
0.0
 10
-51.7187
 20
-37.3494
 30
0.0
 10
-51.7187
 20
-37.3494
 30
0.0
 10
-57.7058
 20
-31.455
 30
0.0
 10
-57.7058
 20
-31.455
 30
0.0
 10
-57.7058
 20
-31.455
 30
0.0
 10
-57.7058
 20
-31.455
 30
0.0
 10
-53.7739
 20
-27.5231
 30
0.0
 10
-53.7739
 20
-27.5231
 30
0.0
 10
-53.7739
 20
-27.5231
 30
0.0
 10
-53.7739
 20
-27.5231
 30
0.0
 10
-47.8016
 20
-33.4322
 30
0.0
 10
-47.8016
 20
-33.4322
 30
0.0
 10
-47.8016
 20
-33.4322
 30
0.0
 10
-47.8016
 20
-33.4322
 30
0.0
 10
-41.8797
 20
-27.523
 30
0.0
 10
-41.8797
 20
-27.523
 30
0.0
 10
-41.8797
 20
-27.523
 30
0.0
 10
-41.8797
 20
-27.523
 30
0.0
 10
-37.9478
 20
-31.4549
 30
0.0
 10
-37.9478
 20
-31.4549
 30
0.0
 10
-37.9478
 20
-31.4549
 30
0.0
 10
-37.9478
 20
-31.4549
 30
0.0
 10
-43.8516
 20
-37.346
 30
0.0
 10
-43.8516
 20
-37.346
 30
0.0
 10
-43.8516
 20
-37.346
 30
0.0
 10
-43.8516
 20
-37.346
 30
0.0
 10
-37.9478
 20
-43.3491
 30
0.0
 10
-37.9478
 20
-43.3491
 30
0.0
 10
-37.9478
 20
-43.3491
 30
0.0
 10
-37.9478
 20
-43.3491
 30
0.0
 10
-41.8797
 20
-47.2811
 30
0.0
 10
-41.8797
 20
-47.2811
 30
0.0
 10
-41.8797
 20
-47.2811
 30
0.0
 10
-41.8797
 20
-47.2811
 30
0.0
 10
-47.8048
 20
-41.3716
 30
0.0
 10
-47.8048
 20
-41.3716
 30
0.0
  0
SPLINE
  5
84
330
1F
100
AcDbEntity
  8
layer 1
 62
     7
100
AcDbSpline
210
0.0
220
0.0
230
1.0
 70
    11
 71
     3
 72
    32
 73
    28
 74
     0
 42
0.0000000001
 43
0.0000000001
 12
1.0
 22
0.0
 32
0.0
 13
1.0
 23
0.0
 33
0.0
 40
0.0
 40
0.0
 40
0.0
 40
0.0
 40
0.125
 40
0.125
 40
0.125
 40
0.125
 40
0.25
 40
0.25
 40
0.25
 40
0.25
 40
0.375
 40
0.375
 40
0.375
 40
0.375
 40
0.5
 40
0.5
 40
0.5
 40
0.5
 40
0.625
 40
0.625
 40
0.625
 40
0.625
 40
0.75
 40
0.75
 40
0.75
 40
0.75
 40
1.0
 40
1.0
 40
1.0
 40
1.0
 10
24.2209
 20
-41.3503
 30
0.0
 10
24.2209
 20
-41.3503
 30
0.0
 10
18.2518
 20
-47.2597
 30
0.0
 10
18.2518
 20
-47.2597
 30
0.0
 10
18.2518
 20
-47.2597
 30
0.0
 10
18.2518
 20
-47.2597
 30
0.0
 10
14.3198
 20
-43.3277
 30
0.0
 10
14.3198
 20
-43.3277
 30
0.0
 10
14.3198
 20
-43.3277
 30
0.0
 10
14.3198
 20
-43.3277
 30
0.0
 10
20.3069
 20
-37.3281
 30
0.0
 10
20.3069
 20
-37.3281
 30
0.0
 10
20.3069
 20
-37.3281
 30
0.0
 10
20.3069
 20
-37.3281
 30
0.0
 10
14.3198
 20
-31.4338
 30
0.0
 10
14.3198
 20
-31.4338
 30
0.0
 10
14.3198
 20
-31.4338
 30
0.0
 10
14.3198
 20
-31.4338
 30
0.0
 10
18.2518
 20
-27.5018
 30
0.0
 10
18.2518
 20
-27.5018
 30
0.0
 10
18.2518
 20
-27.5018
 30
0.0
 10
18.2518
 20
-27.5018
 30
0.0
 10
24.2241
 20
-33.4109
 30
0.0
 10
24.2241
 20
-33.4109
 30
0.0
 10
24.2241
 20
-33.4109
 30
0.0
 10
24.2241
 20
-33.4109
 30
0.0
 10
24.2209
 20
-41.3503
 30
0.0
 10
24.2209
 20
-41.3503
 30
0.0
  0
SPLINE
  5
85
330
1F
100
AcDbEntity
  8
layer 1
 62
     7
100
AcDbSpline
210
0.0
220
0.0
230
1.0
 70
    11
 71
     3
 72
    20
 73
    16
 74
     0
 42
0.0000000001
 43
0.0000000001
 12
1.0
 22
0.0
 32
0.0
 13
1.0
 23
0.0
 33
0.0
 40
0.0
 40
0.0
 40
0.0
 40
0.0
 40
0.2
 40
0.2
 40
0.2
 40
0.2
 40
0.4
 40
0.4
 40
0.4
 40
0.4
 40
0.6
 40
0.6
 40
0.6
 40
0.6
 40
1.0
 40
1.0
 40
1.0
 40
1.0
 10
-60.873
 20
-32.3424
 30
0.0
 10
-58.0967
 20
-35.1188
 30
0.0
 10
-58.0967
 20
-39.6203
 30
0.0
 10
-60.873
 20
-42.3966
 30
0.0
 10
-60.873
 20
-42.3966
 30
0.0
 10
-63.6494
 20
-45.173
 30
0.0
 10
-68.1509
 20
-45.173
 30
0.0
 10
-70.9273
 20
-42.3966
 30
0.0
 10
-70.9273
 20
-42.3966
 30
0.0
 10
-73.7036
 20
-39.6203
 30
0.0
 10
-73.7036
 20
-35.1188
 30
0.0
 10
-70.9273
 20
-32.3424
 30
0.0
 10
-70.9273
 20
-32.3424
 30
0.0
 10
-68.1509
 20
-29.5661
 30
0.0
 10
-63.6494
 20
-29.5661
 30
0.0
 10
-60.873
 20
-32.3424
 30
0.0
  0
SPLINE
  5
86
330
1F
100
AcDbEntity
  8
layer 1
 62
     7
100
AcDbSpline
210
0.0
220
0.0
230
1.0
 70
    11
 71
     3
 72
    20
 73
    16
 74
     0
 42
0.0000000001
 43
0.0000000001
 12
1.0
 22
0.0
 32
0.0
 13
1.0
 23
0.0
 33
0.0
 40
0.0
 40
0.0
 40
0.0
 40
0.0
 40
0.2
 40
0.2
 40
0.2
 40
0.2
 40
0.4
 40
0.4
 40
0.4
 40
0.4
 40
0.6
 40
0.6
 40
0.6
 40
0.6
 40
1.0
 40
1.0
 40
1.0
 40
1.0
 10
-24.7227
 20
-32.3424
 30
0.0
 10
-21.9463
 20
-35.1188
 30
0.0
 10
-21.9463
 20
-39.6203
 30
0.0
 10
-24.7227
 20
-42.3966
 30
0.0
 10
-24.7227
 20
-42.3966
 30
0.0
 10
-27.499
 20
-45.173
 30
0.0
 10
-32.0006
 20
-45.173
 30
0.0
 10
-34.7769
 20
-42.3966
 30
0.0
 10
-34.7769
 20
-42.3966
 30
0.0
 10
-37.5533
 20
-39.6203
 30
0.0
 10
-37.5533
 20
-35.1188
 30
0.0
 10
-34.7769
 20
-32.3424
 30
0.0
 10
-34.7769
 20
-32.3424
 30
0.0
 10
-32.0006
 20
-29.5661
 30
0.0
 10
-27.499
 20
-29.5661
 30
0.0
 10
-24.7227
 20
-32.3424
 30
0.0
  0
SPLINE
  5
87
330
1F
100
AcDbEntity
  8
layer 1
 62
     7
100
AcDbSpline
210
0.0
220
0.0
230
1.0
 70
    11
 71
     3
 72
    20
 73
    16
 74
     0
 42
0.0000000001
 43
0.0000000001
 12
1.0
 22
0.0
 32
0.0
 13
1.0
 23
0.0
 33
0.0
 40
0.0
 40
0.0
 40
0.0
 40
0.0
 40
0.2
 40
0.2
 40
0.2
 40
0.2
 40
0.4
 40
0.4
 40
0.4
 40
0.4
 40
0.6
 40
0.6
 40
0.6
 40
0.6
 40
1.0
 40
1.0
 40
1.0
 40
1.0
 10
11.5458
 20
-32.3424
 30
0.0
 10
14.3222
 20
-35.1188
 30
0.0
 10
14.3222
 20
-39.6203
 30
0.0
 10
11.5458
 20
-42.3966
 30
0.0
 10
11.5458
 20
-42.3966
 30
0.0
 10
8.7695
 20
-45.173
 30
0.0
 10
4.2679
 20
-45.173
 30
0.0
 10
1.4916
 20
-42.3966
 30
0.0
 10
1.4916
 20
-42.3966
 30
0.0
 10
-1.2848
 20
-39.6203
 30
0.0
 10
-1.2848
 20
-35.1188
 30
0.0
 10
1.4916
 20
-32.3424
 30
0.0
 10
1.4916
 20
-32.3424
 30
0.0
 10
4.2679
 20
-29.5661
 30
0.0
 10
8.7695
 20
-29.5661
 30
0.0
 10
11.5458
 20
-32.3424
 30
0.0
  0
SPLINE
  5
88
330
1F
100
AcDbEntity
  8
layer 1
 62
     7
100
AcDbSpline
210
0.0
220
0.0
230
1.0
 70
    11
 71
     3
 72
    52
 73
    48
 74
     0
 42
0.0000000001
 43
0.0000000001
 12
1.0
 22
0.0
 32
0.0
 13
1.0
 23
0.0
 33
0.0
 40
0.0
 40
0.0
 40
0.0
 40
0.0
 40
0.0769230769230769
 40
0.0769230769230769
 40
0.0769230769230769
 40
0.0769230769230769
 40
0.1538461538461539
 40
0.1538461538461539
 40
0.1538461538461539
 40
0.1538461538461539
 40
0.2307692307692308
 40
0.2307692307692308
 40
0.2307692307692308
 40
0.2307692307692308
 40
0.3076923076923077
 40
0.3076923076923077
 40
0.3076923076923077
 40
0.3076923076923077
 40
0.3846153846153846
 40
0.3846153846153846
 40
0.3846153846153846
 40
0.3846153846153846
 40
0.4615384615384616
 40
0.4615384615384616
 40
0.4615384615384616
 40
0.4615384615384616
 40
0.5384615384615384
 40
0.5384615384615384
 40
0.5384615384615384
 40
0.5384615384615384
 40
0.6153846153846154
 40
0.6153846153846154
 40
0.6153846153846154
 40
0.6153846153846154
 40
0.6923076923076923
 40
0.6923076923076923
 40
0.6923076923076923
 40
0.6923076923076923
 40
0.7692307692307693
 40
0.7692307692307693
 40
0.7692307692307693
 40
0.7692307692307693
 40
0.8461538461538461
 40
0.8461538461538461
 40
0.8461538461538461
 40
0.8461538461538461
 40
1.0
 40
1.0
 40
1.0
 40
1.0
 10
-29.6439
 20
-59.6456
 30
0.0
 10
-29.6439
 20
-59.6456
 30
0.0
 10
-35.613
 20
-65.5549
 30
0.0
 10
-35.613
 20
-65.5549
 30
0.0
 10
-35.613
 20
-65.5549
 30
0.0
 10
-35.613
 20
-65.5549
 30
0.0
 10
-39.545
 20
-61.623
 30
0.0
 10
-39.545
 20
-61.623
 30
0.0
 10
-39.545
 20
-61.623
 30
0.0
 10
-39.545
 20
-61.623
 30
0.0
 10
-33.5579
 20
-55.6234
 30
0.0
 10
-33.5579
 20
-55.6234
 30
0.0
 10
-33.5579
 20
-55.6234
 30
0.0
 10
-33.5579
 20
-55.6234
 30
0.0
 10
-39.545
 20
-49.729
 30
0.0
 10
-39.545
 20
-49.729
 30
0.0
 10
-39.545
 20
-49.729
 30
0.0
 10
-39.545
 20
-49.729
 30
0.0
 10
-35.613
 20
-45.7971
 30
0.0
 10
-35.613
 20
-45.7971
 30
0.0
 10
-35.613
 20
-45.7971
 30
0.0
 10
-35.613
 20
-45.7971
 30
0.0
 10
-29.6407
 20
-51.7062
 30
0.0
 10
-29.6407
 20
-51.7062
 30
0.0
 10
-29.6407
 20
-51.7062
 30
0.0
 10
-29.6407
 20
-51.7062
 30
0.0
 10
-23.7189
 20
-45.797
 30
0.0
 10
-23.7189
 20
-45.797
 30
0.0
 10
-23.7189
 20
-45.797
 30
0.0
 10
-23.7189
 20
-45.797
 30
0.0
 10
-19.787
 20
-49.7289
 30
0.0
 10
-19.787
 20
-49.7289
 30
0.0
 10
-19.787
 20
-49.7289
 30
0.0
 10
-19.787
 20
-49.7289
 30
0.0
 10
-25.6907
 20
-55.6201
 30
0.0
 10
-25.6907
 20
-55.6201
 30
0.0
 10
-25.6907
 20
-55.6201
 30
0.0
 10
-25.6907
 20
-55.6201
 30
0.0
 10
-19.787
 20
-61.6231
 30
0.0
 10
-19.787
 20
-61.6231
 30
0.0
 10
-19.787
 20
-61.6231
 30
0.0
 10
-19.787
 20
-61.6231
 30
0.0
 10
-23.7189
 20
-65.5551
 30
0.0
 10
-23.7189
 20
-65.5551
 30
0.0
 10
-23.7189
 20
-65.5551
 30
0.0
 10
-23.7189
 20
-65.5551
 30
0.0
 10
-29.6439
 20
-59.6456
 30
0.0
 10
-29.6439
 20
-59.6456
 30
0.0
  0
SPLINE
  5
89
330
1F
100
AcDbEntity
  8
layer 1
 62
     7
100
AcDbSpline
210
0.0
220
0.0
230
1.0
 70
    11
 71
     3
 72
    52
 73
    48
 74
     0
 42
0.0000000001
 43
0.0000000001
 12
1.0
 22
0.0
 32
0.0
 13
1.0
 23
0.0
 33
0.0
 40
0.0
 40
0.0
 40
0.0
 40
0.0
 40
0.0769230769230769
 40
0.0769230769230769
 40
0.0769230769230769
 40
0.0769230769230769
 40
0.1538461538461539
 40
0.1538461538461539
 40
0.1538461538461539
 40
0.1538461538461539
 40
0.2307692307692308
 40
0.2307692307692308
 40
0.2307692307692308
 40
0.2307692307692308
 40
0.3076923076923077
 40
0.3076923076923077
 40
0.3076923076923077
 40
0.3076923076923077
 40
0.3846153846153846
 40
0.3846153846153846
 40
0.3846153846153846
 40
0.3846153846153846
 40
0.4615384615384616
 40
0.4615384615384616
 40
0.4615384615384616
 40
0.4615384615384616
 40
0.5384615384615384
 40
0.5384615384615384
 40
0.5384615384615384
 40
0.5384615384615384
 40
0.6153846153846154
 40
0.6153846153846154
 40
0.6153846153846154
 40
0.6153846153846154
 40
0.6923076923076923
 40
0.6923076923076923
 40
0.6923076923076923
 40
0.6923076923076923
 40
0.7692307692307693
 40
0.7692307692307693
 40
0.7692307692307693
 40
0.7692307692307693
 40
0.8461538461538461
 40
0.8461538461538461
 40
0.8461538461538461
 40
0.8461538461538461
 40
1.0
 40
1.0
 40
1.0
 40
1.0
 10
-65.7328
 20
-59.6669
 30
0.0
 10
-65.7328
 20
-59.6669
 30
0.0
 10
-71.7019
 20
-65.5762
 30
0.0
 10
-71.7019
 20
-65.5762
 30
0.0
 10
-71.7019
 20
-65.5762
 30
0.0
 10
-71.7019
 20
-65.5762
 30
0.0
 10
-75.6339
 20
-61.6443
 30
0.0
 10
-75.6339
 20
-61.6443
 30
0.0
 10
-75.6339
 20
-61.6443
 30
0.0
 10
-75.6339
 20
-61.6443
 30
0.0
 10
-69.6468
 20
-55.6446
 30
0.0
 10
-69.6468
 20
-55.6446
 30
0.0
 10
-69.6468
 20
-55.6446
 30
0.0
 10
-69.6468
 20
-55.6446
 30
0.0
 10
-75.6339
 20
-49.7503
 30
0.0
 10
-75.6339
 20
-49.7503
 30
0.0
 10
-75.6339
 20
-49.7503
 30
0.0
 10
-75.6339
 20
-49.7503
 30
0.0
 10
-71.7019
 20
-45.8183
 30
0.0
 10
-71.7019
 20
-45.8183
 30
0.0
 10
-71.7019
 20
-45.8183
 30
0.0
 10
-71.7019
 20
-45.8183
 30
0.0
 10
-65.7296
 20
-51.7275
 30
0.0
 10
-65.7296
 20
-51.7275
 30
0.0
 10
-65.7296
 20
-51.7275
 30
0.0
 10
-65.7296
 20
-51.7275
 30
0.0
 10
-59.8078
 20
-45.8182
 30
0.0
 10
-59.8078
 20
-45.8182
 30
0.0
 10
-59.8078
 20
-45.8182
 30
0.0
 10
-59.8078
 20
-45.8182
 30
0.0
 10
-55.8759
 20
-49.7502
 30
0.0
 10
-55.8759
 20
-49.7502
 30
0.0
 10
-55.8759
 20
-49.7502
 30
0.0
 10
-55.8759
 20
-49.7502
 30
0.0
 10
-61.7796
 20
-55.6413
 30
0.0
 10
-61.7796
 20
-55.6413
 30
0.0
 10
-61.7796
 20
-55.6413
 30
0.0
 10
-61.7796
 20
-55.6413
 30
0.0
 10
-55.8759
 20
-61.6444
 30
0.0
 10
-55.8759
 20
-61.6444
 30
0.0
 10
-55.8759
 20
-61.6444
 30
0.0
 10
-55.8759
 20
-61.6444
 30
0.0
 10
-59.8078
 20
-65.5763
 30
0.0
 10
-59.8078
 20
-65.5763
 30
0.0
 10
-59.8078
 20
-65.5763
 30
0.0
 10
-59.8078
 20
-65.5763
 30
0.0
 10
-65.7328
 20
-59.6669
 30
0.0
 10
-65.7328
 20
-59.6669
 30
0.0
  0
SPLINE
  5
8A
330
1F
100
AcDbEntity
  8
layer 1
 62
     7
100
AcDbSpline
210
0.0
220
0.0
230
1.0
 70
    11
 71
     3
 72
    52
 73
    48
 74
     0
 42
0.0000000001
 43
0.0000000001
 12
1.0
 22
0.0
 32
0.0
 13
1.0
 23
0.0
 33
0.0
 40
0.0
 40
0.0
 40
0.0
 40
0.0
 40
0.0769230769230769
 40
0.0769230769230769
 40
0.0769230769230769
 40
0.0769230769230769
 40
0.1538461538461539
 40
0.1538461538461539
 40
0.1538461538461539
 40
0.1538461538461539
 40
0.2307692307692308
 40
0.2307692307692308
 40
0.2307692307692308
 40
0.2307692307692308
 40
0.3076923076923077
 40
0.3076923076923077
 40
0.3076923076923077
 40
0.3076923076923077
 40
0.3846153846153846
 40
0.3846153846153846
 40
0.3846153846153846
 40
0.3846153846153846
 40
0.4615384615384616
 40
0.4615384615384616
 40
0.4615384615384616
 40
0.4615384615384616
 40
0.5384615384615384
 40
0.5384615384615384
 40
0.5384615384615384
 40
0.5384615384615384
 40
0.6153846153846154
 40
0.6153846153846154
 40
0.6153846153846154
 40
0.6153846153846154
 40
0.6923076923076923
 40
0.6923076923076923
 40
0.6923076923076923
 40
0.6923076923076923
 40
0.7692307692307693
 40
0.7692307692307693
 40
0.7692307692307693
 40
0.7692307692307693
 40
0.8461538461538461
 40
0.8461538461538461
 40
0.8461538461538461
 40
0.8461538461538461
 40
1.0
 40
1.0
 40
1.0
 40
1.0
 10
6.2928
 20
-59.6456
 30
0.0
 10
6.2928
 20
-59.6456
 30
0.0
 10
0.3237
 20
-65.5549
 30
0.0
 10
0.3237
 20
-65.5549
 30
0.0
 10
0.3237
 20
-65.5549
 30
0.0
 10
0.3237
 20
-65.5549
 30
0.0
 10
-3.6082
 20
-61.623
 30
0.0
 10
-3.6082
 20
-61.623
 30
0.0
 10
-3.6082
 20
-61.623
 30
0.0
 10
-3.6082
 20
-61.623
 30
0.0
 10
2.3788
 20
-55.6234
 30
0.0
 10
2.3788
 20
-55.6234
 30
0.0
 10
2.3788
 20
-55.6234
 30
0.0
 10
2.3788
 20
-55.6234
 30
0.0
 10
-3.6082
 20
-49.729
 30
0.0
 10
-3.6082
 20
-49.729
 30
0.0
 10
-3.6082
 20
-49.729
 30
0.0
 10
-3.6082
 20
-49.729
 30
0.0
 10
0.3237
 20
-45.7971
 30
0.0
 10
0.3237
 20
-45.7971
 30
0.0
 10
0.3237
 20
-45.7971
 30
0.0
 10
0.3237
 20
-45.7971
 30
0.0
 10
6.296
 20
-51.7062
 30
0.0
 10
6.296
 20
-51.7062
 30
0.0
 10
6.296
 20
-51.7062
 30
0.0
 10
6.296
 20
-51.7062
 30
0.0
 10
12.2178
 20
-45.797
 30
0.0
 10
12.2178
 20
-45.797
 30
0.0
 10
12.2178
 20
-45.797
 30
0.0
 10
12.2178
 20
-45.797
 30
0.0
 10
16.1497
 20
-49.7289
 30
0.0
 10
16.1497
 20
-49.7289
 30
0.0
 10
16.1497
 20
-49.7289
 30
0.0
 10
16.1497
 20
-49.7289
 30
0.0
 10
10.246
 20
-55.6201
 30
0.0
 10
10.246
 20
-55.6201
 30
0.0
 10
10.246
 20
-55.6201
 30
0.0
 10
10.246
 20
-55.6201
 30
0.0
 10
16.1497
 20
-61.6231
 30
0.0
 10
16.1497
 20
-61.6231
 30
0.0
 10
16.1497
 20
-61.6231
 30
0.0
 10
16.1497
 20
-61.6231
 30
0.0
 10
12.2178
 20
-65.5551
 30
0.0
 10
12.2178
 20
-65.5551
 30
0.0
 10
12.2178
 20
-65.5551
 30
0.0
 10
12.2178
 20
-65.5551
 30
0.0
 10
6.2928
 20
-59.6456
 30
0.0
 10
6.2928
 20
-59.6456
 30
0.0
  0
SPLINE
  5
8B
330
1F
100
AcDbEntity
  8
layer 1
 62
     7
100
AcDbSpline
210
0.0
220
0.0
230
1.0
 70
    11
 71
     3
 72
    20
 73
    16
 74
     0
 42
0.0000000001
 43
0.0000000001
 12
1.0
 22
0.0
 32
0.0
 13
1.0
 23
0.0
 33
0.0
 40
0.0
 40
0.0
 40
0.0
 40
0.0
 40
0.2
 40
0.2
 40
0.2
 40
0.2
 40
0.4
 40
0.4
 40
0.4
 40
0.4
 40
0.6
 40
0.6
 40
0.6
 40
0.6
 40
1.0
 40
1.0
 40
1.0
 40
1.0
 10
-42.6508
 20
-50.6377
 30
0.0
 10
-39.8744
 20
-53.414
 30
0.0
 10
-39.8744
 20
-57.9156
 30
0.0
 10
-42.6508
 20
-60.6919
 30
0.0
 10
-42.6508
 20
-60.6919
 30
0.0
 10
-45.4271
 20
-63.4683
 30
0.0
 10
-49.9286
 20
-63.4683
 30
0.0
 10
-52.705
 20
-60.6919
 30
0.0
 10
-52.705
 20
-60.6919
 30
0.0
 10
-55.4813
 20
-57.9156
 30
0.0
 10
-55.4813
 20
-53.414
 30
0.0
 10
-52.705
 20
-50.6377
 30
0.0
 10
-52.705
 20
-50.6377
 30
0.0
 10
-49.9286
 20
-47.8613
 30
0.0
 10
-45.4271
 20
-47.8613
 30
0.0
 10
-42.6508
 20
-50.6377
 30
0.0
  0
SPLINE
  5
8C
330
1F
100
AcDbEntity
  8
layer 1
 62
     7
100
AcDbSpline
210
0.0
220
0.0
230
1.0
 70
    11
 71
     3
 72
    20
 73
    16
 74
     0
 42
0.0000000001
 43
0.0000000001
 12
1.0
 22
0.0
 32
0.0
 13
1.0
 23
0.0
 33
0.0
 40
0.0
 40
0.0
 40
0.0
 40
0.0
 40
0.2
 40
0.2
 40
0.2
 40
0.2
 40
0.4
 40
0.4
 40
0.4
 40
0.4
 40
0.6
 40
0.6
 40
0.6
 40
0.6
 40
1.0
 40
1.0
 40
1.0
 40
1.0
 10
-6.7365
 20
-50.613
 30
0.0
 10
-3.9601
 20
-53.3894
 30
0.0
 10
-3.9601
 20
-57.8909
 30
0.0
 10
-6.7365
 20
-60.6673
 30
0.0
 10
-6.7365
 20
-60.6673
 30
0.0
 10
-9.5128
 20
-63.4436
 30
0.0
 10
-14.0144
 20
-63.4436
 30
0.0
 10
-16.7907
 20
-60.6673
 30
0.0
 10
-16.7907
 20
-60.6673
 30
0.0
 10
-19.5671
 20
-57.8909
 30
0.0
 10
-19.5671
 20
-53.3894
 30
0.0
 10
-16.7907
 20
-50.613
 30
0.0
 10
-16.7907
 20
-50.613
 30
0.0
 10
-14.0144
 20
-47.8367
 30
0.0
 10
-9.5128
 20
-47.8367
 30
0.0
 10
-6.7365
 20
-50.613
 30
0.0
  0
SPLINE
  5
8D
330
1F
100
AcDbEntity
  8
layer 1
 62
     7
100
AcDbSpline
210
0.0
220
0.0
230
1.0
 70
    11
 71
     3
 72
    52
 73
    48
 74
     0
 42
0.0000000001
 43
0.0000000001
 12
1.0
 22
0.0
 32
0.0
 13
1.0
 23
0.0
 33
0.0
 40
0.0
 40
0.0
 40
0.0
 40
0.0
 40
0.0769230769230769
 40
0.0769230769230769
 40
0.0769230769230769
 40
0.0769230769230769
 40
0.1538461538461539
 40
0.1538461538461539
 40
0.1538461538461539
 40
0.1538461538461539
 40
0.2307692307692308
 40
0.2307692307692308
 40
0.2307692307692308
 40
0.2307692307692308
 40
0.3076923076923077
 40
0.3076923076923077
 40
0.3076923076923077
 40
0.3076923076923077
 40
0.3846153846153846
 40
0.3846153846153846
 40
0.3846153846153846
 40
0.3846153846153846
 40
0.4615384615384616
 40
0.4615384615384616
 40
0.4615384615384616
 40
0.4615384615384616
 40
0.5384615384615384
 40
0.5384615384615384
 40
0.5384615384615384
 40
0.5384615384615384
 40
0.6153846153846154
 40
0.6153846153846154
 40
0.6153846153846154
 40
0.6153846153846154
 40
0.6923076923076923
 40
0.6923076923076923
 40
0.6923076923076923
 40
0.6923076923076923
 40
0.7692307692307693
 40
0.7692307692307693
 40
0.7692307692307693
 40
0.7692307692307693
 40
0.8461538461538461
 40
0.8461538461538461
 40
0.8461538461538461
 40
0.8461538461538461
 40
1.0
 40
1.0
 40
1.0
 40
1.0
 10
-11.7159
 20
-77.8795
 30
0.0
 10
-11.7159
 20
-77.8795
 30
0.0
 10
-17.685
 20
-83.7889
 30
0.0
 10
-17.685
 20
-83.7889
 30
0.0
 10
-17.685
 20
-83.7889
 30
0.0
 10
-17.685
 20
-83.7889
 30
0.0
 10
-21.6169
 20
-79.8569
 30
0.0
 10
-21.6169
 20
-79.8569
 30
0.0
 10
-21.6169
 20
-79.8569
 30
0.0
 10
-21.6169
 20
-79.8569
 30
0.0
 10
-15.6298
 20
-73.8573
 30
0.0
 10
-15.6298
 20
-73.8573
 30
0.0
 10
-15.6298
 20
-73.8573
 30
0.0
 10
-15.6298
 20
-73.8573
 30
0.0
 10
-21.6169
 20
-67.963
 30
0.0
 10
-21.6169
 20
-67.963
 30
0.0
 10
-21.6169
 20
-67.963
 30
0.0
 10
-21.6169
 20
-67.963
 30
0.0
 10
-17.685
 20
-64.031
 30
0.0
 10
-17.685
 20
-64.031
 30
0.0
 10
-17.685
 20
-64.031
 30
0.0
 10
-17.685
 20
-64.031
 30
0.0
 10
-11.7127
 20
-69.9401
 30
0.0
 10
-11.7127
 20
-69.9401
 30
0.0
 10
-11.7127
 20
-69.9401
 30
0.0
 10
-11.7127
 20
-69.9401
 30
0.0
 10
-5.7909
 20
-64.0309
 30
0.0
 10
-5.7909
 20
-64.0309
 30
0.0
 10
-5.7909
 20
-64.0309
 30
0.0
 10
-5.7909
 20
-64.0309
 30
0.0
 10
-1.8589
 20
-67.9628
 30
0.0
 10
-1.8589
 20
-67.9628
 30
0.0
 10
-1.8589
 20
-67.9628
 30
0.0
 10
-1.8589
 20
-67.9628
 30
0.0
 10
-7.7627
 20
-73.854
 30
0.0
 10
-7.7627
 20
-73.854
 30
0.0
 10
-7.7627
 20
-73.854
 30
0.0
 10
-7.7627
 20
-73.854
 30
0.0
 10
-1.8589
 20
-79.8571
 30
0.0
 10
-1.8589
 20
-79.8571
 30
0.0
 10
-1.8589
 20
-79.8571
 30
0.0
 10
-1.8589
 20
-79.8571
 30
0.0
 10
-5.7909
 20
-83.789
 30
0.0
 10
-5.7909
 20
-83.789
 30
0.0
 10
-5.7909
 20
-83.789
 30
0.0
 10
-5.7909
 20
-83.789
 30
0.0
 10
-11.7159
 20
-77.8795
 30
0.0
 10
-11.7159
 20
-77.8795
 30
0.0
  0
SPLINE
  5
8E
330
1F
100
AcDbEntity
  8
layer 1
 62
     7
100
AcDbSpline
210
0.0
220
0.0
230
1.0
 70
    11
 71
     3
 72
    52
 73
    48
 74
     0
 42
0.0000000001
 43
0.0000000001
 12
1.0
 22
0.0
 32
0.0
 13
1.0
 23
0.0
 33
0.0
 40
0.0
 40
0.0
 40
0.0
 40
0.0
 40
0.0769230769230769
 40
0.0769230769230769
 40
0.0769230769230769
 40
0.0769230769230769
 40
0.1538461538461539
 40
0.1538461538461539
 40
0.1538461538461539
 40
0.1538461538461539
 40
0.2307692307692308
 40
0.2307692307692308
 40
0.2307692307692308
 40
0.2307692307692308
 40
0.3076923076923077
 40
0.3076923076923077
 40
0.3076923076923077
 40
0.3076923076923077
 40
0.3846153846153846
 40
0.3846153846153846
 40
0.3846153846153846
 40
0.3846153846153846
 40
0.4615384615384616
 40
0.4615384615384616
 40
0.4615384615384616
 40
0.4615384615384616
 40
0.5384615384615384
 40
0.5384615384615384
 40
0.5384615384615384
 40
0.5384615384615384
 40
0.6153846153846154
 40
0.6153846153846154
 40
0.6153846153846154
 40
0.6153846153846154
 40
0.6923076923076923
 40
0.6923076923076923
 40
0.6923076923076923
 40
0.6923076923076923
 40
0.7692307692307693
 40
0.7692307692307693
 40
0.7692307692307693
 40
0.7692307692307693
 40
0.8461538461538461
 40
0.8461538461538461
 40
0.8461538461538461
 40
0.8461538461538461
 40
1.0
 40
1.0
 40
1.0
 40
1.0
 10
-47.8048
 20
-77.9008
 30
0.0
 10
-47.8048
 20
-77.9008
 30
0.0
 10
-53.7739
 20
-83.8101
 30
0.0
 10
-53.7739
 20
-83.8101
 30
0.0
 10
-53.7739
 20
-83.8101
 30
0.0
 10
-53.7739
 20
-83.8101
 30
0.0
 10
-57.7058
 20
-79.8782
 30
0.0
 10
-57.7058
 20
-79.8782
 30
0.0
 10
-57.7058
 20
-79.8782
 30
0.0
 10
-57.7058
 20
-79.8782
 30
0.0
 10
-51.7187
 20
-73.8786
 30
0.0
 10
-51.7187
 20
-73.8786
 30
0.0
 10
-51.7187
 20
-73.8786
 30
0.0
 10
-51.7187
 20
-73.8786
 30
0.0
 10
-57.7058
 20
-67.9842
 30
0.0
 10
-57.7058
 20
-67.9842
 30
0.0
 10
-57.7058
 20
-67.9842
 30
0.0
 10
-57.7058
 20
-67.9842
 30
0.0
 10
-53.7739
 20
-64.0523
 30
0.0
 10
-53.7739
 20
-64.0523
 30
0.0
 10
-53.7739
 20
-64.0523
 30
0.0
 10
-53.7739
 20
-64.0523
 30
0.0
 10
-47.8016
 20
-69.9614
 30
0.0
 10
-47.8016
 20
-69.9614
 30
0.0
 10
-47.8016
 20
-69.9614
 30
0.0
 10
-47.8016
 20
-69.9614
 30
0.0
 10
-41.8797
 20
-64.0522
 30
0.0
 10
-41.8797
 20
-64.0522
 30
0.0
 10
-41.8797
 20
-64.0522
 30
0.0
 10
-41.8797
 20
-64.0522
 30
0.0
 10
-37.9478
 20
-67.9841
 30
0.0
 10
-37.9478
 20
-67.9841
 30
0.0
 10
-37.9478
 20
-67.9841
 30
0.0
 10
-37.9478
 20
-67.9841
 30
0.0
 10
-43.8516
 20
-73.8752
 30
0.0
 10
-43.8516
 20
-73.8752
 30
0.0
 10
-43.8516
 20
-73.8752
 30
0.0
 10
-43.8516
 20
-73.8752
 30
0.0
 10
-37.9478
 20
-79.8783
 30
0.0
 10
-37.9478
 20
-79.8783
 30
0.0
 10
-37.9478
 20
-79.8783
 30
0.0
 10
-37.9478
 20
-79.8783
 30
0.0
 10
-41.8797
 20
-83.8103
 30
0.0
 10
-41.8797
 20
-83.8103
 30
0.0
 10
-41.8797
 20
-83.8103
 30
0.0
 10
-41.8797
 20
-83.8103
 30
0.0
 10
-47.8048
 20
-77.9008
 30
0.0
 10
-47.8048
 20
-77.9008
 30
0.0
  0
SPLINE
  5
8F
330
1F
100
AcDbEntity
  8
layer 1
 62
     7
100
AcDbSpline
210
0.0
220
0.0
230
1.0
 70
    11
 71
     3
 72
    32
 73
    28
 74
     0
 42
0.0000000001
 43
0.0000000001
 12
1.0
 22
0.0
 32
0.0
 13
1.0
 23
0.0
 33
0.0
 40
0.0
 40
0.0
 40
0.0
 40
0.0
 40
0.125
 40
0.125
 40
0.125
 40
0.125
 40
0.25
 40
0.25
 40
0.25
 40
0.25
 40
0.375
 40
0.375
 40
0.375
 40
0.375
 40
0.5
 40
0.5
 40
0.5
 40
0.5
 40
0.625
 40
0.625
 40
0.625
 40
0.625
 40
0.75
 40
0.75
 40
0.75
 40
0.75
 40
1.0
 40
1.0
 40
1.0
 40
1.0
 10
24.2209
 20
-77.8795
 30
0.0
 10
24.2209
 20
-77.8795
 30
0.0
 10
18.2518
 20
-83.7889
 30
0.0
 10
18.2518
 20
-83.7889
 30
0.0
 10
18.2518
 20
-83.7889
 30
0.0
 10
18.2518
 20
-83.7889
 30
0.0
 10
14.3198
 20
-79.8569
 30
0.0
 10
14.3198
 20
-79.8569
 30
0.0
 10
14.3198
 20
-79.8569
 30
0.0
 10
14.3198
 20
-79.8569
 30
0.0
 10
20.3069
 20
-73.8573
 30
0.0
 10
20.3069
 20
-73.8573
 30
0.0
 10
20.3069
 20
-73.8573
 30
0.0
 10
20.3069
 20
-73.8573
 30
0.0
 10
14.3198
 20
-67.963
 30
0.0
 10
14.3198
 20
-67.963
 30
0.0
 10
14.3198
 20
-67.963
 30
0.0
 10
14.3198
 20
-67.963
 30
0.0
 10
18.2518
 20
-64.031
 30
0.0
 10
18.2518
 20
-64.031
 30
0.0
 10
18.2518
 20
-64.031
 30
0.0
 10
18.2518
 20
-64.031
 30
0.0
 10
24.2241
 20
-69.9401
 30
0.0
 10
24.2241
 20
-69.9401
 30
0.0
 10
24.2241
 20
-69.9401
 30
0.0
 10
24.2241
 20
-69.9401
 30
0.0
 10
24.2209
 20
-77.8795
 30
0.0
 10
24.2209
 20
-77.8795
 30
0.0
  0
SPLINE
  5
90
330
1F
100
AcDbEntity
  8
layer 1
 62
     7
100
AcDbSpline
210
0.0
220
0.0
230
1.0
 70
    11
 71
     3
 72
    20
 73
    16
 74
     0
 42
0.0000000001
 43
0.0000000001
 12
1.0
 22
0.0
 32
0.0
 13
1.0
 23
0.0
 33
0.0
 40
0.0
 40
0.0
 40
0.0
 40
0.0
 40
0.2
 40
0.2
 40
0.2
 40
0.2
 40
0.4
 40
0.4
 40
0.4
 40
0.4
 40
0.6
 40
0.6
 40
0.6
 40
0.6
 40
1.0
 40
1.0
 40
1.0
 40
1.0
 10
-60.873
 20
-68.8716
 30
0.0
 10
-58.0967
 20
-71.648
 30
0.0
 10
-58.0967
 20
-76.1495
 30
0.0
 10
-60.873
 20
-78.9258
 30
0.0
 10
-60.873
 20
-78.9258
 30
0.0
 10
-63.6494
 20
-81.7022
 30
0.0
 10
-68.1509
 20
-81.7022
 30
0.0
 10
-70.9273
 20
-78.9258
 30
0.0
 10
-70.9273
 20
-78.9258
 30
0.0
 10
-73.7036
 20
-76.1495
 30
0.0
 10
-73.7036
 20
-71.648
 30
0.0
 10
-70.9273
 20
-68.8716
 30
0.0
 10
-70.9273
 20
-68.8716
 30
0.0
 10
-68.1509
 20
-66.0953
 30
0.0
 10
-63.6494
 20
-66.0953
 30
0.0
 10
-60.873
 20
-68.8716
 30
0.0
  0
SPLINE
  5
91
330
1F
100
AcDbEntity
  8
layer 1
 62
     7
100
AcDbSpline
210
0.0
220
0.0
230
1.0
 70
    11
 71
     3
 72
    20
 73
    16
 74
     0
 42
0.0000000001
 43
0.0000000001
 12
1.0
 22
0.0
 32
0.0
 13
1.0
 23
0.0
 33
0.0
 40
0.0
 40
0.0
 40
0.0
 40
0.0
 40
0.2
 40
0.2
 40
0.2
 40
0.2
 40
0.4
 40
0.4
 40
0.4
 40
0.4
 40
0.6
 40
0.6
 40
0.6
 40
0.6
 40
1.0
 40
1.0
 40
1.0
 40
1.0
 10
-24.7227
 20
-68.8716
 30
0.0
 10
-21.9463
 20
-71.648
 30
0.0
 10
-21.9463
 20
-76.1495
 30
0.0
 10
-24.7227
 20
-78.9258
 30
0.0
 10
-24.7227
 20
-78.9258
 30
0.0
 10
-27.499
 20
-81.7022
 30
0.0
 10
-32.0006
 20
-81.7022
 30
0.0
 10
-34.7769
 20
-78.9258
 30
0.0
 10
-34.7769
 20
-78.9258
 30
0.0
 10
-37.5533
 20
-76.1495
 30
0.0
 10
-37.5533
 20
-71.648
 30
0.0
 10
-34.7769
 20
-68.8716
 30
0.0
 10
-34.7769
 20
-68.8716
 30
0.0
 10
-32.0006
 20
-66.0953
 30
0.0
 10
-27.499
 20
-66.0953
 30
0.0
 10
-24.7227
 20
-68.8716
 30
0.0
  0
SPLINE
  5
92
330
1F
100
AcDbEntity
  8
layer 1
 62
     7
100
AcDbSpline
210
0.0
220
0.0
230
1.0
 70
    11
 71
     3
 72
    20
 73
    16
 74
     0
 42
0.0000000001
 43
0.0000000001
 12
1.0
 22
0.0
 32
0.0
 13
1.0
 23
0.0
 33
0.0
 40
0.0
 40
0.0
 40
0.0
 40
0.0
 40
0.2
 40
0.2
 40
0.2
 40
0.2
 40
0.4
 40
0.4
 40
0.4
 40
0.4
 40
0.6
 40
0.6
 40
0.6
 40
0.6
 40
1.0
 40
1.0
 40
1.0
 40
1.0
 10
11.5458
 20
-68.8716
 30
0.0
 10
14.3222
 20
-71.648
 30
0.0
 10
14.3222
 20
-76.1495
 30
0.0
 10
11.5458
 20
-78.9258
 30
0.0
 10
11.5458
 20
-78.9258
 30
0.0
 10
8.7695
 20
-81.7022
 30
0.0
 10
4.2679
 20
-81.7022
 30
0.0
 10
1.4916
 20
-78.9258
 30
0.0
 10
1.4916
 20
-78.9258
 30
0.0
 10
-1.2848
 20
-76.1495
 30
0.0
 10
-1.2848
 20
-71.648
 30
0.0
 10
1.4916
 20
-68.8716
 30
0.0
 10
1.4916
 20
-68.8716
 30
0.0
 10
4.2679
 20
-66.0953
 30
0.0
 10
8.7695
 20
-66.0953
 30
0.0
 10
11.5458
 20
-68.8716
 30
0.0
  0
SPLINE
  5
93
330
1F
100
AcDbEntity
  8
layer 1
 62
     7
100
AcDbSpline
210
0.0
220
0.0
230
1.0
 70
    11
 71
     3
 72
    52
 73
    48
 74
     0
 42
0.0000000001
 43
0.0000000001
 12
1.0
 22
0.0
 32
0.0
 13
1.0
 23
0.0
 33
0.0
 40
0.0
 40
0.0
 40
0.0
 40
0.0
 40
0.0769230769230769
 40
0.0769230769230769
 40
0.0769230769230769
 40
0.0769230769230769
 40
0.1538461538461539
 40
0.1538461538461539
 40
0.1538461538461539
 40
0.1538461538461539
 40
0.2307692307692308
 40
0.2307692307692308
 40
0.2307692307692308
 40
0.2307692307692308
 40
0.3076923076923077
 40
0.3076923076923077
 40
0.3076923076923077
 40
0.3076923076923077
 40
0.3846153846153846
 40
0.3846153846153846
 40
0.3846153846153846
 40
0.3846153846153846
 40
0.4615384615384616
 40
0.4615384615384616
 40
0.4615384615384616
 40
0.4615384615384616
 40
0.5384615384615384
 40
0.5384615384615384
 40
0.5384615384615384
 40
0.5384615384615384
 40
0.6153846153846154
 40
0.6153846153846154
 40
0.6153846153846154
 40
0.6153846153846154
 40
0.6923076923076923
 40
0.6923076923076923
 40
0.6923076923076923
 40
0.6923076923076923
 40
0.7692307692307693
 40
0.7692307692307693
 40
0.7692307692307693
 40
0.7692307692307693
 40
0.8461538461538461
 40
0.8461538461538461
 40
0.8461538461538461
 40
0.8461538461538461
 40
1.0
 40
1.0
 40
1.0
 40
1.0
 10
-29.6439
 20
-96.1748
 30
0.0
 10
-29.6439
 20
-96.1748
 30
0.0
 10
-35.613
 20
-102.0842
 30
0.0
 10
-35.613
 20
-102.0842
 30
0.0
 10
-35.613
 20
-102.0842
 30
0.0
 10
-35.613
 20
-102.0842
 30
0.0
 10
-39.545
 20
-98.1522
 30
0.0
 10
-39.545
 20
-98.1522
 30
0.0
 10
-39.545
 20
-98.1522
 30
0.0
 10
-39.545
 20
-98.1522
 30
0.0
 10
-33.5579
 20
-92.1526
 30
0.0
 10
-33.5579
 20
-92.1526
 30
0.0
 10
-33.5579
 20
-92.1526
 30
0.0
 10
-33.5579
 20
-92.1526
 30
0.0
 10
-39.545
 20
-86.2582
 30
0.0
 10
-39.545
 20
-86.2582
 30
0.0
 10
-39.545
 20
-86.2582
 30
0.0
 10
-39.545
 20
-86.2582
 30
0.0
 10
-35.613
 20
-82.3263
 30
0.0
 10
-35.613
 20
-82.3263
 30
0.0
 10
-35.613
 20
-82.3263
 30
0.0
 10
-35.613
 20
-82.3263
 30
0.0
 10
-29.6407
 20
-88.2354
 30
0.0
 10
-29.6407
 20
-88.2354
 30
0.0
 10
-29.6407
 20
-88.2354
 30
0.0
 10
-29.6407
 20
-88.2354
 30
0.0
 10
-23.7189
 20
-82.3262
 30
0.0
 10
-23.7189
 20
-82.3262
 30
0.0
 10
-23.7189
 20
-82.3262
 30
0.0
 10
-23.7189
 20
-82.3262
 30
0.0
 10
-19.787
 20
-86.2581
 30
0.0
 10
-19.787
 20
-86.2581
 30
0.0
 10
-19.787
 20
-86.2581
 30
0.0
 10
-19.787
 20
-86.2581
 30
0.0
 10
-25.6907
 20
-92.1493
 30
0.0
 10
-25.6907
 20
-92.1493
 30
0.0
 10
-25.6907
 20
-92.1493
 30
0.0
 10
-25.6907
 20
-92.1493
 30
0.0
 10
-19.787
 20
-98.1523
 30
0.0
 10
-19.787
 20
-98.1523
 30
0.0
 10
-19.787
 20
-98.1523
 30
0.0
 10
-19.787
 20
-98.1523
 30
0.0
 10
-23.7189
 20
-102.0843
 30
0.0
 10
-23.7189
 20
-102.0843
 30
0.0
 10
-23.7189
 20
-102.0843
 30
0.0
 10
-23.7189
 20
-102.0843
 30
0.0
 10
-29.6439
 20
-96.1748
 30
0.0
 10
-29.6439
 20
-96.1748
 30
0.0
  0
SPLINE
  5
94
330
1F
100
AcDbEntity
  8
layer 1
 62
     7
100
AcDbSpline
210
0.0
220
0.0
230
1.0
 70
    11
 71
     3
 72
    52
 73
    48
 74
     0
 42
0.0000000001
 43
0.0000000001
 12
1.0
 22
0.0
 32
0.0
 13
1.0
 23
0.0
 33
0.0
 40
0.0
 40
0.0
 40
0.0
 40
0.0
 40
0.0769230769230769
 40
0.0769230769230769
 40
0.0769230769230769
 40
0.0769230769230769
 40
0.1538461538461539
 40
0.1538461538461539
 40
0.1538461538461539
 40
0.1538461538461539
 40
0.2307692307692308
 40
0.2307692307692308
 40
0.2307692307692308
 40
0.2307692307692308
 40
0.3076923076923077
 40
0.3076923076923077
 40
0.3076923076923077
 40
0.3076923076923077
 40
0.3846153846153846
 40
0.3846153846153846
 40
0.3846153846153846
 40
0.3846153846153846
 40
0.4615384615384616
 40
0.4615384615384616
 40
0.4615384615384616
 40
0.4615384615384616
 40
0.5384615384615384
 40
0.5384615384615384
 40
0.5384615384615384
 40
0.5384615384615384
 40
0.6153846153846154
 40
0.6153846153846154
 40
0.6153846153846154
 40
0.6153846153846154
 40
0.6923076923076923
 40
0.6923076923076923
 40
0.6923076923076923
 40
0.6923076923076923
 40
0.7692307692307693
 40
0.7692307692307693
 40
0.7692307692307693
 40
0.7692307692307693
 40
0.8461538461538461
 40
0.8461538461538461
 40
0.8461538461538461
 40
0.8461538461538461
 40
1.0
 40
1.0
 40
1.0
 40
1.0
 10
-65.7328
 20
-96.1961
 30
0.0
 10
-65.7328
 20
-96.1961
 30
0.0
 10
-71.7019
 20
-102.1054
 30
0.0
 10
-71.7019
 20
-102.1054
 30
0.0
 10
-71.7019
 20
-102.1054
 30
0.0
 10
-71.7019
 20
-102.1054
 30
0.0
 10
-75.6339
 20
-98.1735
 30
0.0
 10
-75.6339
 20
-98.1735
 30
0.0
 10
-75.6339
 20
-98.1735
 30
0.0
 10
-75.6339
 20
-98.1735
 30
0.0
 10
-69.6468
 20
-92.1738
 30
0.0
 10
-69.6468
 20
-92.1738
 30
0.0
 10
-69.6468
 20
-92.1738
 30
0.0
 10
-69.6468
 20
-92.1738
 30
0.0
 10
-75.6339
 20
-86.2795
 30
0.0
 10
-75.6339
 20
-86.2795
 30
0.0
 10
-75.6339
 20
-86.2795
 30
0.0
 10
-75.6339
 20
-86.2795
 30
0.0
 10
-71.7019
 20
-82.3475
 30
0.0
 10
-71.7019
 20
-82.3475
 30
0.0
 10
-71.7019
 20
-82.3475
 30
0.0
 10
-71.7019
 20
-82.3475
 30
0.0
 10
-65.7296
 20
-88.2567
 30
0.0
 10
-65.7296
 20
-88.2567
 30
0.0
 10
-65.7296
 20
-88.2567
 30
0.0
 10
-65.7296
 20
-88.2567
 30
0.0
 10
-59.8078
 20
-82.3474
 30
0.0
 10
-59.8078
 20
-82.3474
 30
0.0
 10
-59.8078
 20
-82.3474
 30
0.0
 10
-59.8078
 20
-82.3474
 30
0.0
 10
-55.8759
 20
-86.2794
 30
0.0
 10
-55.8759
 20
-86.2794
 30
0.0
 10
-55.8759
 20
-86.2794
 30
0.0
 10
-55.8759
 20
-86.2794
 30
0.0
 10
-61.7796
 20
-92.1705
 30
0.0
 10
-61.7796
 20
-92.1705
 30
0.0
 10
-61.7796
 20
-92.1705
 30
0.0
 10
-61.7796
 20
-92.1705
 30
0.0
 10
-55.8759
 20
-98.1736
 30
0.0
 10
-55.8759
 20
-98.1736
 30
0.0
 10
-55.8759
 20
-98.1736
 30
0.0
 10
-55.8759
 20
-98.1736
 30
0.0
 10
-59.8078
 20
-102.1055
 30
0.0
 10
-59.8078
 20
-102.1055
 30
0.0
 10
-59.8078
 20
-102.1055
 30
0.0
 10
-59.8078
 20
-102.1055
 30
0.0
 10
-65.7328
 20
-96.1961
 30
0.0
 10
-65.7328
 20
-96.1961
 30
0.0
  0
SPLINE
  5
95
330
1F
100
AcDbEntity
  8
layer 1
 62
     7
100
AcDbSpline
210
0.0
220
0.0
230
1.0
 70
    11
 71
     3
 72
    52
 73
    48
 74
     0
 42
0.0000000001
 43
0.0000000001
 12
1.0
 22
0.0
 32
0.0
 13
1.0
 23
0.0
 33
0.0
 40
0.0
 40
0.0
 40
0.0
 40
0.0
 40
0.0769230769230769
 40
0.0769230769230769
 40
0.0769230769230769
 40
0.0769230769230769
 40
0.1538461538461539
 40
0.1538461538461539
 40
0.1538461538461539
 40
0.1538461538461539
 40
0.2307692307692308
 40
0.2307692307692308
 40
0.2307692307692308
 40
0.2307692307692308
 40
0.3076923076923077
 40
0.3076923076923077
 40
0.3076923076923077
 40
0.3076923076923077
 40
0.3846153846153846
 40
0.3846153846153846
 40
0.3846153846153846
 40
0.3846153846153846
 40
0.4615384615384616
 40
0.4615384615384616
 40
0.4615384615384616
 40
0.4615384615384616
 40
0.5384615384615384
 40
0.5384615384615384
 40
0.5384615384615384
 40
0.5384615384615384
 40
0.6153846153846154
 40
0.6153846153846154
 40
0.6153846153846154
 40
0.6153846153846154
 40
0.6923076923076923
 40
0.6923076923076923
 40
0.6923076923076923
 40
0.6923076923076923
 40
0.7692307692307693
 40
0.7692307692307693
 40
0.7692307692307693
 40
0.7692307692307693
 40
0.8461538461538461
 40
0.8461538461538461
 40
0.8461538461538461
 40
0.8461538461538461
 40
1.0
 40
1.0
 40
1.0
 40
1.0
 10
6.2928
 20
-96.1748
 30
0.0
 10
6.2928
 20
-96.1748
 30
0.0
 10
0.3237
 20
-102.0842
 30
0.0
 10
0.3237
 20
-102.0842
 30
0.0
 10
0.3237
 20
-102.0842
 30
0.0
 10
0.3237
 20
-102.0842
 30
0.0
 10
-3.6082
 20
-98.1522
 30
0.0
 10
-3.6082
 20
-98.1522
 30
0.0
 10
-3.6082
 20
-98.1522
 30
0.0
 10
-3.6082
 20
-98.1522
 30
0.0
 10
2.3788
 20
-92.1526
 30
0.0
 10
2.3788
 20
-92.1526
 30
0.0
 10
2.3788
 20
-92.1526
 30
0.0
 10
2.3788
 20
-92.1526
 30
0.0
 10
-3.6082
 20
-86.2582
 30
0.0
 10
-3.6082
 20
-86.2582
 30
0.0
 10
-3.6082
 20
-86.2582
 30
0.0
 10
-3.6082
 20
-86.2582
 30
0.0
 10
0.3237
 20
-82.3263
 30
0.0
 10
0.3237
 20
-82.3263
 30
0.0
 10
0.3237
 20
-82.3263
 30
0.0
 10
0.3237
 20
-82.3263
 30
0.0
 10
6.296
 20
-88.2354
 30
0.0
 10
6.296
 20
-88.2354
 30
0.0
 10
6.296
 20
-88.2354
 30
0.0
 10
6.296
 20
-88.2354
 30
0.0
 10
12.2178
 20
-82.3262
 30
0.0
 10
12.2178
 20
-82.3262
 30
0.0
 10
12.2178
 20
-82.3262
 30
0.0
 10
12.2178
 20
-82.3262
 30
0.0
 10
16.1497
 20
-86.2581
 30
0.0
 10
16.1497
 20
-86.2581
 30
0.0
 10
16.1497
 20
-86.2581
 30
0.0
 10
16.1497
 20
-86.2581
 30
0.0
 10
10.246
 20
-92.1493
 30
0.0
 10
10.246
 20
-92.1493
 30
0.0
 10
10.246
 20
-92.1493
 30
0.0
 10
10.246
 20
-92.1493
 30
0.0
 10
16.1497
 20
-98.1523
 30
0.0
 10
16.1497
 20
-98.1523
 30
0.0
 10
16.1497
 20
-98.1523
 30
0.0
 10
16.1497
 20
-98.1523
 30
0.0
 10
12.2178
 20
-102.0843
 30
0.0
 10
12.2178
 20
-102.0843
 30
0.0
 10
12.2178
 20
-102.0843
 30
0.0
 10
12.2178
 20
-102.0843
 30
0.0
 10
6.2928
 20
-96.1748
 30
0.0
 10
6.2928
 20
-96.1748
 30
0.0
  0
SPLINE
  5
96
330
1F
100
AcDbEntity
  8
layer 1
 62
     7
100
AcDbSpline
210
0.0
220
0.0
230
1.0
 70
    11
 71
     3
 72
    20
 73
    16
 74
     0
 42
0.0000000001
 43
0.0000000001
 12
1.0
 22
0.0
 32
0.0
 13
1.0
 23
0.0
 33
0.0
 40
0.0
 40
0.0
 40
0.0
 40
0.0
 40
0.2
 40
0.2
 40
0.2
 40
0.2
 40
0.4
 40
0.4
 40
0.4
 40
0.4
 40
0.6
 40
0.6
 40
0.6
 40
0.6
 40
1.0
 40
1.0
 40
1.0
 40
1.0
 10
-42.6508
 20
-87.1669
 30
0.0
 10
-39.8744
 20
-89.9432
 30
0.0
 10
-39.8744
 20
-94.4448
 30
0.0
 10
-42.6508
 20
-97.2211
 30
0.0
 10
-42.6508
 20
-97.2211
 30
0.0
 10
-45.4271
 20
-99.9975
 30
0.0
 10
-49.9286
 20
-99.9975
 30
0.0
 10
-52.705
 20
-97.2211
 30
0.0
 10
-52.705
 20
-97.2211
 30
0.0
 10
-55.4813
 20
-94.4448
 30
0.0
 10
-55.4813
 20
-89.9432
 30
0.0
 10
-52.705
 20
-87.1669
 30
0.0
 10
-52.705
 20
-87.1669
 30
0.0
 10
-49.9286
 20
-84.3905
 30
0.0
 10
-45.4271
 20
-84.3905
 30
0.0
 10
-42.6508
 20
-87.1669
 30
0.0
  0
SPLINE
  5
97
330
1F
100
AcDbEntity
  8
layer 1
 62
     7
100
AcDbSpline
210
0.0
220
0.0
230
1.0
 70
    11
 71
     3
 72
    20
 73
    16
 74
     0
 42
0.0000000001
 43
0.0000000001
 12
1.0
 22
0.0
 32
0.0
 13
1.0
 23
0.0
 33
0.0
 40
0.0
 40
0.0
 40
0.0
 40
0.0
 40
0.2
 40
0.2
 40
0.2
 40
0.2
 40
0.4
 40
0.4
 40
0.4
 40
0.4
 40
0.6
 40
0.6
 40
0.6
 40
0.6
 40
1.0
 40
1.0
 40
1.0
 40
1.0
 10
-6.3823
 20
-87.1669
 30
0.0
 10
-3.6059
 20
-89.9432
 30
0.0
 10
-3.6059
 20
-94.4448
 30
0.0
 10
-6.3823
 20
-97.2211
 30
0.0
 10
-6.3823
 20
-97.2211
 30
0.0
 10
-9.1586
 20
-99.9975
 30
0.0
 10
-13.6602
 20
-99.9975
 30
0.0
 10
-16.4365
 20
-97.2211
 30
0.0
 10
-16.4365
 20
-97.2211
 30
0.0
 10
-19.2129
 20
-94.4448
 30
0.0
 10
-19.2129
 20
-89.9432
 30
0.0
 10
-16.4365
 20
-87.1669
 30
0.0
 10
-16.4365
 20
-87.1669
 30
0.0
 10
-13.6602
 20
-84.3905
 30
0.0
 10
-9.1586
 20
-84.3905
 30
0.0
 10
-6.3823
 20
-87.1669
 30
0.0
  0
SPLINE
  5
98
330
1F
100
AcDbEntity
  8
layer 1
 62
     7
100
AcDbSpline
210
0.0
220
0.0
230
1.0
 70
    11
 71
     3
 72
    16
 73
    12
 74
     0
 42
0.0000000001
 43
0.0000000001
 12
1.0
 22
0.0
 32
0.0
 13
1.0
 23
0.0
 33
0.0
 40
0.0
 40
0.0
 40
0.0
 40
0.0
 40
0.25
 40
0.25
 40
0.25
 40
0.25
 40
0.5
 40
0.5
 40
0.5
 40
0.5
 40
1.0
 40
1.0
 40
1.0
 40
1.0
 10
24.1894
 20
-85.065
 30
0.0
 10
24.1894
 20
-85.065
 30
0.0
 10
24.1894
 20
-99.2838
 30
0.0
 10
24.1894
 20
-99.2838
 30
0.0
 10
24.1894
 20
-99.2838
 30
0.0
 10
20.2636
 20
-99.2838
 30
0.0
 10
17.08
 20
-96.1
 30
0.0
 10
17.08
 20
-92.1744
 30
0.0
 10
17.08
 20
-92.1744
 30
0.0
 10
17.08
 20
-88.2489
 30
0.0
 10
20.2636
 20
-85.065
 30
0.0
 10
24.1894
 20
-85.065
 30
0.0
  0
SPLINE
  5
99
330
1F
100
AcDbEntity
  8
layer 1
 62
     7
100
AcDbSpline
210
0.0
220
0.0
230
1.0
 70
    11
 71
     3
 72
    16
 73
    12
 74
     0
 42
0.0000000001
 43
0.0000000001
 12
1.0
 22
0.0
 32
0.0
 13
1.0
 23
0.0
 33
0.0
 40
0.0
 40
0.0
 40
0.0
 40
0.0
 40
0.25
 40
0.25
 40
0.25
 40
0.25
 40
0.5
 40
0.5
 40
0.5
 40
0.5
 40
1.0
 40
1.0
 40
1.0
 40
1.0
 10
-22.5368
 20
-110.3185
 30
0.0
 10
-22.5368
 20
-106.3928
 30
0.0
 10
-25.7203
 20
-103.2092
 30
0.0
 10
-29.6461
 20
-103.2092
 30
0.0
 10
-29.6461
 20
-103.2092
 30
0.0
 10
-33.5718
 20
-103.2092
 30
0.0
 10
-36.7556
 20
-106.3928
 30
0.0
 10
-36.7556
 20
-110.3185
 30
0.0
 10
-36.7556
 20
-110.3185
 30
0.0
 10
-36.7556
 20
-110.3185
 30
0.0
 10
-22.5368
 20
-110.3185
 30
0.0
 10
-22.5368
 20
-110.3185
 30
0.0
  0
SPLINE
  5
9A
330
1F
100
AcDbEntity
  8
layer 1
 62
     7
100
AcDbSpline
210
0.0
220
0.0
230
1.0
 70
    11
 71
     3
 72
    16
 73
    12
 74
     0
 42
0.0000000001
 43
0.0000000001
 12
1.0
 22
0.0
 32
0.0
 13
1.0
 23
0.0
 33
0.0
 40
0.0
 40
0.0
 40
0.0
 40
0.0
 40
0.25
 40
0.25
 40
0.25
 40
0.25
 40
0.5
 40
0.5
 40
0.5
 40
0.5
 40
1.0
 40
1.0
 40
1.0
 40
1.0
 10
13.7414
 20
-110.3185
 30
0.0
 10
13.7414
 20
-106.3928
 30
0.0
 10
10.5579
 20
-103.2092
 30
0.0
 10
6.6321
 20
-103.2092
 30
0.0
 10
6.6321
 20
-103.2092
 30
0.0
 10
2.7063
 20
-103.2092
 30
0.0
 10
-0.4774
 20
-106.3928
 30
0.0
 10
-0.4774
 20
-110.3185
 30
0.0
 10
-0.4774
 20
-110.3185
 30
0.0
 10
-0.4774
 20
-110.3185
 30
0.0
 10
13.7414
 20
-110.3185
 30
0.0
 10
13.7414
 20
-110.3185
 30
0.0
  0
SPLINE
  5
9B
330
1F
100
AcDbEntity
  8
layer 1
 62
     7
100
AcDbSpline
210
0.0
220
0.0
230
1.0
 70
    11
 71
     3
 72
    16
 73
    12
 74
     0
 42
0.0000000001
 43
0.0000000001
 12
1.0
 22
0.0
 32
0.0
 13
1.0
 23
0.0
 33
0.0
 40
0.0
 40
0.0
 40
0.0
 40
0.0
 40
0.25
 40
0.25
 40
0.25
 40
0.25
 40
0.5
 40
0.5
 40
0.5
 40
0.5
 40
1.0
 40
1.0
 40
1.0
 40
1.0
 10
-58.6999
 20
-110.3185
 30
0.0
 10
-58.6999
 20
-106.3928
 30
0.0
 10
-61.8835
 20
-103.2092
 30
0.0
 10
-65.8092
 20
-103.2092
 30
0.0
 10
-65.8092
 20
-103.2092
 30
0.0
 10
-69.735
 20
-103.2092
 30
0.0
 10
-72.9187
 20
-106.3928
 30
0.0
 10
-72.9187
 20
-110.3185
 30
0.0
 10
-72.9187
 20
-110.3185
 30
0.0
 10
-72.9187
 20
-110.3185
 30
0.0
 10
-58.6999
 20
-110.3185
 30
0.0
 10
-58.6999
 20
-110.3185
 30
0.0
  0
SPLINE
  5
9C
330
1F
100
AcDbEntity
  8
layer 1
 62
     7
100
AcDbSpline
210
0.0
220
0.0
230
1.0
 70
    11
 71
     3
 72
    32
 73
    28
 74
     0
 42
0.0000000001
 43
0.0000000001
 12
1.0
 22
0.0
 32
0.0
 13
1.0
 23
0.0
 33
0.0
 40
0.0
 40
0.0
 40
0.0
 40
0.0
 40
0.125
 40
0.125
 40
0.125
 40
0.125
 40
0.25
 40
0.25
 40
0.25
 40
0.25
 40
0.375
 40
0.375
 40
0.375
 40
0.375
 40
0.5
 40
0.5
 40
0.5
 40
0.5
 40
0.625
 40
0.625
 40
0.625
 40
0.625
 40
0.75
 40
0.75
 40
0.75
 40
0.75
 40
1.0
 40
1.0
 40
1.0
 40
1.0
 10
-47.659
 20
-106.2987
 30
0.0
 10
-47.659
 20
-106.2987
 30
0.0
 10
-53.628
 20
-100.3894
 30
0.0
 10
-53.628
 20
-100.3894
 30
0.0
 10
-53.628
 20
-100.3894
 30
0.0
 10
-53.628
 20
-100.3894
 30
0.0
 10
-57.56
 20
-104.3213
 30
0.0
 10
-57.56
 20
-104.3213
 30
0.0
 10
-57.56
 20
-104.3213
 30
0.0
 10
-57.56
 20
-104.3213
 30
0.0
 10
-51.5729
 20
-110.3209
 30
0.0
 10
-51.5729
 20
-110.3209
 30
0.0
 10
-51.5729
 20
-110.3209
 30
0.0
 10
-51.5729
 20
-110.3209
 30
0.0
 10
-43.7057
 20
-110.3242
 30
0.0
 10
-43.7057
 20
-110.3242
 30
0.0
 10
-43.7057
 20
-110.3242
 30
0.0
 10
-43.7057
 20
-110.3242
 30
0.0
 10
-37.802
 20
-104.3212
 30
0.0
 10
-37.802
 20
-104.3212
 30
0.0
 10
-37.802
 20
-104.3212
 30
0.0
 10
-37.802
 20
-104.3212
 30
0.0
 10
-41.7339
 20
-100.3892
 30
0.0
 10
-41.7339
 20
-100.3892
 30
0.0
 10
-41.7339
 20
-100.3892
 30
0.0
 10
-41.7339
 20
-100.3892
 30
0.0
 10
-47.659
 20
-106.2987
 30
0.0
 10
-47.659
 20
-106.2987
 30
0.0
  0
SPLINE
  5
9D
330
1F
100
AcDbEntity
  8
layer 1
 62
     7
100
AcDbSpline
210
0.0
220
0.0
230
1.0
 70
    11
 71
     3
 72
    32
 73
    28
 74
     0
 42
0.0000000001
 43
0.0000000001
 12
1.0
 22
0.0
 32
0.0
 13
1.0
 23
0.0
 33
0.0
 40
0.0
 40
0.0
 40
0.0
 40
0.0
 40
0.125
 40
0.125
 40
0.125
 40
0.125
 40
0.25
 40
0.25
 40
0.25
 40
0.25
 40
0.375
 40
0.375
 40
0.375
 40
0.375
 40
0.5
 40
0.5
 40
0.5
 40
0.5
 40
0.625
 40
0.625
 40
0.625
 40
0.625
 40
0.75
 40
0.75
 40
0.75
 40
0.75
 40
1.0
 40
1.0
 40
1.0
 40
1.0
 10
-11.6026
 20
-106.2987
 30
0.0
 10
-11.6026
 20
-106.2987
 30
0.0
 10
-17.5717
 20
-100.3894
 30
0.0
 10
-17.5717
 20
-100.3894
 30
0.0
 10
-17.5717
 20
-100.3894
 30
0.0
 10
-17.5717
 20
-100.3894
 30
0.0
 10
-21.5037
 20
-104.3213
 30
0.0
 10
-21.5037
 20
-104.3213
 30
0.0
 10
-21.5037
 20
-104.3213
 30
0.0
 10
-21.5037
 20
-104.3213
 30
0.0
 10
-15.5166
 20
-110.3209
 30
0.0
 10
-15.5166
 20
-110.3209
 30
0.0
 10
-15.5166
 20
-110.3209
 30
0.0
 10
-15.5166
 20
-110.3209
 30
0.0
 10
-7.6494
 20
-110.3242
 30
0.0
 10
-7.6494
 20
-110.3242
 30
0.0
 10
-7.6494
 20
-110.3242
 30
0.0
 10
-7.6494
 20
-110.3242
 30
0.0
 10
-1.7457
 20
-104.3212
 30
0.0
 10
-1.7457
 20
-104.3212
 30
0.0
 10
-1.7457
 20
-104.3212
 30
0.0
 10
-1.7457
 20
-104.3212
 30
0.0
 10
-5.6776
 20
-100.3892
 30
0.0
 10
-5.6776
 20
-100.3892
 30
0.0
 10
-5.6776
 20
-100.3892
 30
0.0
 10
-5.6776
 20
-100.3892
 30
0.0
 10
-11.6026
 20
-106.2987
 30
0.0
 10
-11.6026
 20
-106.2987
 30
0.0
  0
SPLINE
  5
9E
330
1F
100
AcDbEntity
  8
layer 1
 62
     7
100
AcDbSpline
210
0.0
220
0.0
230
1.0
 70
    11
 71
     3
 72
    24
 73
    20
 74
     0
 42
0.0000000001
 43
0.0000000001
 12
1.0
 22
0.0
 32
0.0
 13
1.0
 23
0.0
 33
0.0
 40
0.0
 40
0.0
 40
0.0
 40
0.0
 40
0.1666666666666667
 40
0.1666666666666667
 40
0.1666666666666667
 40
0.1666666666666667
 40
0.3333333333333333
 40
0.3333333333333333
 40
0.3333333333333333
 40
0.3333333333333333
 40
0.5
 40
0.5
 40
0.5
 40
0.5
 40
0.6666666666666666
 40
0.6666666666666666
 40
0.6666666666666666
 40
0.6666666666666666
 40
1.0
 40
1.0
 40
1.0
 40
1.0
 10
24.1704
 20
-106.0259
 30
0.0
 10
24.1704
 20
-106.0259
 30
0.0
 10
18.4768
 20
-100.3894
 30
0.0
 10
18.4768
 20
-100.3894
 30
0.0
 10
18.4768
 20
-100.3894
 30
0.0
 10
18.4768
 20
-100.3894
 30
0.0
 10
14.5449
 20
-104.3213
 30
0.0
 10
14.5449
 20
-104.3213
 30
0.0
 10
14.5449
 20
-104.3213
 30
0.0
 10
14.5449
 20
-104.3213
 30
0.0
 10
20.532
 20
-110.3209
 30
0.0
 10
20.532
 20
-110.3209
 30
0.0
 10
20.532
 20
-110.3209
 30
0.0
 10
20.532
 20
-110.3209
 30
0.0
 10
24.1828
 20
-110.3223
 30
0.0
 10
24.1828
 20
-110.3223
 30
0.0
 10
24.1828
 20
-110.3223
 30
0.0
 10
24.1828
 20
-110.3223
 30
0.0
 10
24.1704
 20
-106.0259
 30
0.0
 10
24.1704
 20
-106.0259
 30
0.0
  0
SPLINE
  5
9F
330
1F
100
AcDbEntity
  8
layer 1
 62
     7
100
AcDbSpline
210
0.0
220
0.0
230
1.0
 70
    11
 71
     3
 72
    16
 73
    12
 74
     0
 42
0.0000000001
 43
0.0000000001
 12
1.0
 22
0.0
 32
0.0
 13
1.0
 23
0.0
 33
0.0
 40
0.0
 40
0.0
 40
0.0
 40
0.0
 40
0.25
 40
0.25
 40
0.25
 40
0.25
 40
0.5
 40
0.5
 40
0.5
 40
0.5
 40
1.0
 40
1.0
 40
1.0
 40
1.0
 10
24.1894
 20
-48.4165
 30
0.0
 10
24.1894
 20
-48.4165
 30
0.0
 10
24.1894
 20
-62.6354
 30
0.0
 10
24.1894
 20
-62.6354
 30
0.0
 10
24.1894
 20
-62.6354
 30
0.0
 10
20.2636
 20
-62.6354
 30
0.0
 10
17.08
 20
-59.4515
 30
0.0
 10
17.08
 20
-55.526
 30
0.0
 10
17.08
 20
-55.526
 30
0.0
 10
17.08
 20
-51.6004
 30
0.0
 10
20.2636
 20
-48.4165
 30
0.0
 10
24.1894
 20
-48.4165
 30
0.0
  0
SPLINE
  5
A0
330
1F
100
AcDbEntity
  8
layer 1
 62
     7
100
AcDbSpline
210
0.0
220
0.0
230
1.0
 70
    11
 71
     3
 72
    16
 73
    12
 74
     0
 42
0.0000000001
 43
0.0000000001
 12
1.0
 22
0.0
 32
0.0
 13
1.0
 23
0.0
 33
0.0
 40
0.0
 40
0.0
 40
0.0
 40
0.0
 40
0.25
 40
0.25
 40
0.25
 40
0.25
 40
0.5
 40
0.5
 40
0.5
 40
0.5
 40
1.0
 40
1.0
 40
1.0
 40
1.0
 10
24.1894
 20
-11.8817
 30
0.0
 10
24.1894
 20
-11.8817
 30
0.0
 10
24.1894
 20
-26.1005
 30
0.0
 10
24.1894
 20
-26.1005
 30
0.0
 10
24.1894
 20
-26.1005
 30
0.0
 10
20.2636
 20
-26.1005
 30
0.0
 10
17.08
 20
-22.9166
 30
0.0
 10
17.08
 20
-18.9911
 30
0.0
 10
17.08
 20
-18.9911
 30
0.0
 10
17.08
 20
-15.0656
 30
0.0
 10
20.2636
 20
-11.8817
 30
0.0
 10
24.1894
 20
-11.8817
 30
0.0
  0
SPLINE
  5
A1
330
1F
100
AcDbEntity
  8
layer 1
 62
     7
100
AcDbSpline
210
0.0
220
0.0
230
1.0
 70
    11
 71
     3
 72
    16
 73
    12
 74
     0
 42
0.0000000001
 43
0.0000000001
 12
1.0
 22
0.0
 32
0.0
 13
1.0
 23
0.0
 33
0.0
 40
0.0
 40
0.0
 40
0.0
 40
0.0
 40
0.25
 40
0.25
 40
0.25
 40
0.25
 40
0.5
 40
0.5
 40
0.5
 40
0.5
 40
1.0
 40
1.0
 40
1.0
 40
1.0
 10
24.1894
 20
24.653
 30
0.0
 10
24.1894
 20
24.653
 30
0.0
 10
24.1894
 20
10.4342
 30
0.0
 10
24.1894
 20
10.4342
 30
0.0
 10
24.1894
 20
10.4342
 30
0.0
 10
20.2636
 20
10.4342
 30
0.0
 10
17.08
 20
13.6181
 30
0.0
 10
17.08
 20
17.5436
 30
0.0
 10
17.08
 20
17.5436
 30
0.0
 10
17.08
 20
21.4691
 30
0.0
 10
20.2636
 20
24.653
 30
0.0
 10
24.1894
 20
24.653
 30
0.0
  0
SPLINE
  5
A2
330
1F
100
AcDbEntity
  8
layer 1
 62
     7
100
AcDbSpline
210
0.0
220
0.0
230
1.0
 70
    11
 71
     3
 72
    16
 73
    12
 74
     0
 42
0.0000000001
 43
0.0000000001
 12
1.0
 22
0.0
 32
0.0
 13
1.0
 23
0.0
 33
0.0
 40
0.0
 40
0.0
 40
0.0
 40
0.0
 40
0.25
 40
0.25
 40
0.25
 40
0.25
 40
0.5
 40
0.5
 40
0.5
 40
0.5
 40
1.0
 40
1.0
 40
1.0
 40
1.0
 10
24.1894
 20
61.0558
 30
0.0
 10
24.1894
 20
61.0558
 30
0.0
 10
24.1894
 20
46.837
 30
0.0
 10
24.1894
 20
46.837
 30
0.0
 10
24.1894
 20
46.837
 30
0.0
 10
20.2636
 20
46.837
 30
0.0
 10
17.08
 20
50.0209
 30
0.0
 10
17.08
 20
53.9464
 30
0.0
 10
17.08
 20
53.9464
 30
0.0
 10
17.08
 20
57.8719
 30
0.0
 10
20.2636
 20
61.0558
 30
0.0
 10
24.1894
 20
61.0558
 30
0.0
  0
SPLINE
  5
A3
330
1F
100
AcDbEntity
  8
layer 1
 62
     7
100
AcDbSpline
210
0.0
220
0.0
230
1.0
 70
    11
 71
     3
 72
    16
 73
    12
 74
     0
 42
0.0000000001
 43
0.0000000001
 12
1.0
 22
0.0
 32
0.0
 13
1.0
 23
0.0
 33
0.0
 40
0.0
 40
0.0
 40
0.0
 40
0.0
 40
0.25
 40
0.25
 40
0.25
 40
0.25
 40
0.5
 40
0.5
 40
0.5
 40
0.5
 40
1.0
 40
1.0
 40
1.0
 40
1.0
 10
24.1894
 20
97.5404
 30
0.0
 10
24.1894
 20
97.5404
 30
0.0
 10
24.1894
 20
83.3215
 30
0.0
 10
24.1894
 20
83.3215
 30
0.0
 10
24.1894
 20
83.3215
 30
0.0
 10
20.2636
 20
83.3215
 30
0.0
 10
17.08
 20
86.5054
 30
0.0
 10
17.08
 20
90.431
 30
0.0
 10
17.08
 20
90.431
 30
0.0
 10
17.08
 20
94.3565
 30
0.0
 10
20.2636
 20
97.5404
 30
0.0
 10
24.1894
 20
97.5404
 30
0.0
  0
ENDSEC
  0
SECTION
  2
OBJECTS
  0
DICTIONARY
  5
C
330
0
100
AcDbDictionary
281
     1
  3
ACAD_GROUP
350
D
  3
ACAD_LAYOUT
350
1A
  3
ACAD_MATERIAL
350
3B
  3
ACAD_MLEADERSTYLE
350
C6
  3
ACAD_MLINESTYLE
350
17
  3
ACAD_PLOTSETTINGS
350
19
  3
ACAD_PLOTSTYLENAME
350
E
  3
ACAD_TABLESTYLE
350
C5
  3
ACAD_VISUALSTYLE
350
2A
  0
DICTIONARY
  5
D
102
{ACAD_REACTORS
330
C
102
}
330
C
100
AcDbDictionary
281
     1
  0
DICTIONARY
  5
1A
102
{ACAD_REACTORS
330
C
102
}
330
C
100
AcDbDictionary
281
     1
  3
Layout1
350
1E
  3
Layout2
350
26
  3
Model
350
22
  0
DICTIONARY
  5
3B
102
{ACAD_REACTORS
330
C
102
}
330
C
100
AcDbDictionary
281
     1
  3
ByBlock
350
3D
  3
ByLayer
350
3C
  3
Global
350
3E
  0
DICTIONARY
  5
C6
102
{ACAD_REACTORS
330
C
102
}
330
C
100
AcDbDictionary
281
     1
  0
DICTIONARY
  5
17
102
{ACAD_REACTORS
330
C
102
}
330
C
100
AcDbDictionary
281
     1
  3
Standard
350
18
  0
DICTIONARY
  5
19
102
{ACAD_REACTORS
330
C
102
}
330
C
100
AcDbDictionary
281
     1
  0
ACDBDICTIONARYWDFLT
  5
E
102
{ACAD_REACTORS
330
C
102
}
330
C
100
AcDbDictionary
281
     1
  3
Normal
350
F
100
AcDbDictionaryWithDefault
340
F
  0
DICTIONARY
  5
C5
102
{ACAD_REACTORS
330
C
102
}
330
C
100
AcDbDictionary
281
     1
  0
DICTIONARY
  5
2A
102
{ACAD_REACTORS
330
C
102
}
330
C
100
AcDbDictionary
281
     1
  3
2dWireframe
350
2F
  3
3D Hidden
350
31
  3
3dWireframe
350
30
  3
Basic
350
32
  3
Brighten
350
36
  3
ColorChange
350
3A
  3
Conceptual
350
34
  3
Dim
350
35
  3
Facepattern
350
39
  3
Flat
350
2B
  3
FlatWithEdges
350
2C
  3
Gouraud
350
2D
  3
GouraudWithEdges
350
2E
  3
Linepattern
350
38
  3
Realistic
350
33
  3
Thicken
350
37
  0
LAYOUT
  5
1E
102
{ACAD_REACTORS
330
1A
102
}
330
1A
100
AcDbPlotSettings
  1

  2
none_device
  4

  6

 40
0.0
 41
0.0
 42
0.0
 43
0.0
 44
0.0
 45
0.0
 46
0.0
 47
0.0
 48
0.0
 49
0.0
140
0.0
141
0.0
142
1.0
143
1.0
 70
   688
 72
     0
 73
     0
 74
     5
  7

 75
    16
 76
     0
 77
     2
 78
   300
147
1.0
148
0.0
149
0.0
100
AcDbLayout
  1
Layout1
 70
     1
 71
     1
 10
0.0
 20
0.0
 11
12.0
 21
9.0
 12
0.0
 22
0.0
 32
0.0
 14
1.000000000000000E+20
 24
1.000000000000000E+20
 34
1.000000000000000E+20
 15
-1.000000000000000E+20
 25
-1.000000000000000E+20
 35
-1.000000000000000E+20
146
0.0
 13
0.0
 23
0.0
 33
0.0
 16
1.0
 26
0.0
 36
0.0
 17
0.0
 27
1.0
 37
0.0
 76
     0
330
1B
  0
LAYOUT
  5
26
102
{ACAD_REACTORS
330
1A
102
}
330
1A
100
AcDbPlotSettings
  1

  2
none_device
  4

  6

 40
0.0
 41
0.0
 42
0.0
 43
0.0
 44
0.0
 45
0.0
 46
0.0
 47
0.0
 48
0.0
 49
0.0
140
0.0
141
0.0
142
1.0
143
1.0
 70
   688
 72
     0
 73
     0
 74
     5
  7

 75
    16
 76
     0
 77
     2
 78
   300
147
1.0
148
0.0
149
0.0
100
AcDbLayout
  1
Layout2
 70
     1
 71
     2
 10
0.0
 20
0.0
 11
0.0
 21
0.0
 12
0.0
 22
0.0
 32
0.0
 14
0.0
 24
0.0
 34
0.0
 15
0.0
 25
0.0
 35
0.0
146
0.0
 13
0.0
 23
0.0
 33
0.0
 16
1.0
 26
0.0
 36
0.0
 17
0.0
 27
1.0
 37
0.0
 76
     0
330
23
  0
LAYOUT
  5
22
102
{ACAD_REACTORS
330
1A
102
}
330
1A
100
AcDbPlotSettings
  1

  2
none_device
  4

  6

 40
0.0
 41
0.0
 42
0.0
 43
0.0
 44
0.0
 45
0.0
 46
0.0
 47
0.0
 48
0.0
 49
0.0
140
0.0
141
0.0
142
1.0
143
1.0
 70
  1712
 72
     0
 73
     0
 74
     0
  7

 75
     0
 76
     0
 77
     2
 78
   300
147
1.0
148
0.0
149
0.0
100
AcDbLayout
  1
Model
 70
     1
 71
     0
 10
0.0
 20
0.0
 11
12.0
 21
9.0
 12
0.0
 22
0.0
 32
0.0
 14
-89.213
 24
-115.0853
 34
0.0
 15
29.1207
 25
131.8128
 35
0.0
146
0.0
 13
0.0
 23
0.0
 33
0.0
 16
1.0
 26
0.0
 36
0.0
 17
0.0
 27
1.0
 37
0.0
 76
     0
330
1F
331
29
  0
MATERIAL
  5
3D
102
{ACAD_REACTORS
330
3B
102
}
330
3B
100
AcDbMaterial
  1
ByBlock
 72
     1
 94
      127
  0
MATERIAL
  5
3C
102
{ACAD_REACTORS
330
3B
102
}
330
3B
100
AcDbMaterial
  1
ByLayer
 72
     1
 94
      127
  0
MATERIAL
  5
3E
102
{ACAD_REACTORS
330
3B
102
}
330
3B
100
AcDbMaterial
  1
Global
 72
     1
 94
      127
  0
MLINESTYLE
  5
18
102
{ACAD_REACTORS
330
17
102
}
330
17
100
AcDbMlineStyle
  2
Standard
 70
     0
  3

 62
   256
 51
90.0
 52
90.0
 71
     2
 49
0.5
 62
   256
  6
BYLAYER
 49
-0.5
 62
   256
  6
BYLAYER
  0
ACDBPLACEHOLDER
  5
F
102
{ACAD_REACTORS
330
E
102
}
330
E
  0
VISUALSTYLE
  5
2F
102
{ACAD_REACTORS
330
2A
102
}
102
{ACAD_XDICTIONARY
360
AD
102
}
330
2A
100
AcDbVisualStyle
  2
2dWireframe
 70
     4
 71
     0
 72
     2
 73
     0
 90
        0
 40
-0.6
 41
-30.0
 62
     5
 63
     7
421
 16777215
 74
     1
 91
        4
 64
     7
 65
   257
 75
     1
175
     1
 42
1.0
 92
        0
 66
   257
 43
1.0
 76
     1
 77
     6
 78
     2
 67
     7
 79
     5
170
     0
171
     0
290
     0
174
     0
 93
        1
 44
0.0
173
     0
291
     0
 45
0.0
  0
VISUALSTYLE
  5
31
102
{ACAD_REACTORS
330
2A
102
}
102
{ACAD_XDICTIONARY
360
B1
102
}
330
2A
100
AcDbVisualStyle
  2
3D Hidden
 70
     6
 71
     1
 72
     2
 73
     2
 90
        0
 40
-0.6
 41
-30.0
 62
     5
 63
     7
421
 16777215
 74
     2
 91
        2
 64
     7
 65
   257
 75
     2
175
     1
 42
40.0
 92
        0
 66
   257
 43
1.0
 76
     1
 77
     6
 78
     2
 67
     7
 79
     3
170
     0
171
     0
290
     0
174
     0
 93
        1
 44
0.0
173
     0
291
     0
 45
0.0
  0
VISUALSTYLE
  5
30
102
{ACAD_REACTORS
330
2A
102
}
102
{ACAD_XDICTIONARY
360
AF
102
}
330
2A
100
AcDbVisualStyle
  2
3dWireframe
 70
     5
 71
     0
 72
     2
 73
     0
 90
        0
 40
-0.6
 41
-30.0
 62
     5
 63
     7
421
 16777215
 74
     1
 91
        4
 64
     7
 65
   257
 75
     1
175
     1
 42
1.0
 92
        0
 66
   257
 43
1.0
 76
     1
 77
     6
 78
     2
 67
     7
 79
     5
170
     0
171
     0
290
     0
174
     0
 93
        1
 44
0.0
173
     0
291
     0
 45
0.0
  0
VISUALSTYLE
  5
32
102
{ACAD_REACTORS
330
2A
102
}
102
{ACAD_XDICTIONARY
360
B3
102
}
330
2A
100
AcDbVisualStyle
  2
Basic
 70
     7
 71
     1
 72
     0
 73
     1
 90
        0
 40
-0.6
 41
-30.0
 62
     5
 63
     7
421
 16777215
 74
     0
 91
        4
 64
     7
 65
   257
 75
     1
175
     1
 42
1.0
 92
        8
 66
     7
 43
1.0
 76
     1
 77
     6
 78
     2
 67
     7
 79
     5
170
     0
171
     0
290
     0
174
     0
 93
        1
 44
0.0
173
     0
291
     1
 45
0.0
  0
VISUALSTYLE
  5
36
102
{ACAD_REACTORS
330
2A
102
}
102
{ACAD_XDICTIONARY
360
BB
102
}
330
2A
100
AcDbVisualStyle
  2
Brighten
 70
    12
 71
     2
 72
     2
 73
     0
 90
        0
 40
-0.6
 41
-30.0
 62
     5
 63
     7
421
 16777215
 74
     1
 91
        4
 64
     7
 65
   257
 75
     1
175
     1
 42
1.0
 92
        8
 66
     7
 43
1.0
 76
     1
 77
     6
 78
     2
 67
     7
 79
     5
170
     0
171
     0
290
     0
174
     0
 93
        1
 44
50.0
173
     0
291
     1
 45
0.0
  0
VISUALSTYLE
  5
3A
102
{ACAD_REACTORS
330
2A
102
}
102
{ACAD_XDICTIONARY
360
C3
102
}
330
2A
100
AcDbVisualStyle
  2
ColorChange
 70
    16
 71
     2
 72
     2
 73
     3
 90
        0
 40
-0.6
 41
-30.0
 62
     5
 63
     8
421
  8421504
 74
     1
 91
        4
 64
     7
 65
   257
 75
     1
175
     1
 42
1.0
 92
        8
 66
     8
424
  8421504
 43
1.0
 76
     1
 77
     6
 78
     2
 67
     7
 79
     5
170
     0
171
     0
290
     0
174
     0
 93
        1
 44
0.0
173
     0
291
     1
 45
0.0
  0
VISUALSTYLE
  5
34
102
{ACAD_REACTORS
330
2A
102
}
102
{ACAD_XDICTIONARY
360
B7
102
}
330
2A
100
AcDbVisualStyle
  2
Conceptual
 70
     9
 71
     3
 72
     2
 73
     0
 90
        0
 40
-0.6
 41
-30.0
 62
     5
 63
     7
421
 16777215
 74
     2
 91
        2
 64
     7
 65
   257
 75
     1
175
     1
 42
40.0
 92
        8
 66
     7
 43
1.0
 76
     1
 77
     6
 78
     2
 67
     7
 79
     3
170
     0
171
     0
290
     0
174
     0
 93
        1
 44
0.0
173
     0
291
     0
 45
0.0
  0
VISUALSTYLE
  5
35
102
{ACAD_REACTORS
330
2A
102
}
102
{ACAD_XDICTIONARY
360
B9
102
}
330
2A
100
AcDbVisualStyle
  2
Dim
 70
    11
 71
     2
 72
     2
 73
     0
 90
        0
 40
-0.6
 41
-30.0
 62
     5
 63
     7
421
 16777215
 74
     1
 91
        4
 64
     7
 65
   257
 75
     1
175
     1
 42
1.0
 92
        8
 66
     7
 43
1.0
 76
     1
 77
     6
 78
     2
 67
     7
 79
     5
170
     0
171
     0
290
     0
174
     0
 93
        1
 44
-50.0
173
     0
291
     1
 45
0.0
  0
VISUALSTYLE
  5
39
102
{ACAD_REACTORS
330
2A
102
}
102
{ACAD_XDICTIONARY
360
C1
102
}
330
2A
100
AcDbVisualStyle
  2
Facepattern
 70
    15
 71
     2
 72
     2
 73
     0
 90
        0
 40
-0.6
 41
-30.0
 62
     5
 63
     7
421
 16777215
 74
     1
 91
        4
 64
     7
 65
   257
 75
     1
175
     1
 42
1.0
 92
        8
 66
     7
 43
1.0
 76
     1
 77
     6
 78
     2
 67
     7
 79
     5
170
     0
171
     0
290
     0
174
     0
 93
        1
 44
0.0
173
     0
291
     1
 45
0.0
  0
VISUALSTYLE
  5
2B
102
{ACAD_REACTORS
330
2A
102
}
102
{ACAD_XDICTIONARY
360
A5
102
}
330
2A
100
AcDbVisualStyle
  2
Flat
 70
     0
 71
     2
 72
     1
 73
     1
 90
        2
 40
-0.6
 41
30.0
 62
     5
 63
     7
421
 16777215
 74
     0
 91
        4
 64
     7
 65
   257
 75
     1
175
     1
 42
1.0
 92
        8
 66
     7
 43
1.0
 76
     1
 77
     6
 78
     2
 67
     7
 79
     5
170
     0
171
     0
290
     0
174
     0
 93
       13
 44
0.0
173
     0
291
     1
 45
0.0
  0
VISUALSTYLE
  5
2C
102
{ACAD_REACTORS
330
2A
102
}
102
{ACAD_XDICTIONARY
360
A7
102
}
330
2A
100
AcDbVisualStyle
  2
FlatWithEdges
 70
     1
 71
     2
 72
     1
 73
     1
 90
        2
 40
-0.6
 41
30.0
 62
     5
 63
     7
421
 16777215
 74
     1
 91
        4
 64
     7
 65
   257
 75
     1
175
     1
 42
1.0
 92
        0
 66
   257
 43
1.0
 76
     1
 77
     6
 78
     2
 67
     7
 79
     5
170
     0
171
     0
290
     0
174
     0
 93
       13
 44
0.0
173
     0
291
     1
 45
0.0
  0
VISUALSTYLE
  5
2D
102
{ACAD_REACTORS
330
2A
102
}
102
{ACAD_XDICTIONARY
360
A9
102
}
330
2A
100
AcDbVisualStyle
  2
Gouraud
 70
     2
 71
     2
 72
     2
 73
     1
 90
        2
 40
-0.6
 41
30.0
 62
     5
 63
     7
421
 16777215
 74
     0
 91
        4
 64
     7
 65
   257
 75
     1
175
     1
 42
1.0
 92
        0
 66
     7
 43
1.0
 76
     1
 77
     6
 78
     2
 67
     7
 79
     5
170
     0
171
     0
290
     0
174
     0
 93
       13
 44
0.0
173
     0
291
     1
 45
0.0
  0
VISUALSTYLE
  5
2E
102
{ACAD_REACTORS
330
2A
102
}
102
{ACAD_XDICTIONARY
360
AB
102
}
330
2A
100
AcDbVisualStyle
  2
GouraudWithEdges
 70
     3
 71
     2
 72
     2
 73
     1
 90
        2
 40
-0.6
 41
30.0
 62
     5
 63
     7
421
 16777215
 74
     1
 91
        4
 64
     7
 65
   257
 75
     1
175
     1
 42
1.0
 92
        0
 66
   257
 43
1.0
 76
     1
 77
     6
 78
     2
 67
     7
 79
     5
170
     0
171
     0
290
     0
174
     0
 93
       13
 44
0.0
173
     0
291
     1
 45
0.0
  0
VISUALSTYLE
  5
38
102
{ACAD_REACTORS
330
2A
102
}
102
{ACAD_XDICTIONARY
360
BF
102
}
330
2A
100
AcDbVisualStyle
  2
Linepattern
 70
    14
 71
     2
 72
     2
 73
     0
 90
        0
 40
-0.6
 41
-30.0
 62
     5
 63
     7
421
 16777215
 74
     1
 91
        4
 64
     7
 65
   257
 75
     7
175
     7
 42
1.0
 92
        8
 66
     7
 43
1.0
 76
     1
 77
     6
 78
     2
 67
     7
 79
     5
170
     0
171
     0
290
     0
174
     0
 93
        1
 44
0.0
173
     0
291
     1
 45
0.0
  0
VISUALSTYLE
  5
33
102
{ACAD_REACTORS
330
2A
102
}
102
{ACAD_XDICTIONARY
360
B5
102
}
330
2A
100
AcDbVisualStyle
  2
Realistic
 70
     8
 71
     2
 72
     2
 73
     0
 90
        0
 40
-0.6
 41
-30.0
 62
     5
 63
     7
421
 16777215
 74
     1
 91
        0
 64
     7
 65
   257
 75
     1
175
     1
 42
1.0
 92
        8
 66
     8
424
  7895160
 43
1.0
 76
     1
 77
     6
 78
     2
 67
     7
 79
     5
170
     0
171
     0
290
     0
174
     0
 93
       13
 44
0.0
173
     0
291
     0
 45
0.0
  0
VISUALSTYLE
  5
37
102
{ACAD_REACTORS
330
2A
102
}
102
{ACAD_XDICTIONARY
360
BD
102
}
330
2A
100
AcDbVisualStyle
  2
Thicken
 70
    13
 71
     2
 72
     2
 73
     0
 90
        0
 40
-0.6
 41
-30.0
 62
     5
 63
     7
421
 16777215
 74
     1
 91
        4
 64
     7
 65
   257
 75
     1
175
     1
 42
1.0
 92
       12
 66
     7
 43
1.0
 76
     1
 77
     6
 78
     2
 67
     7
 79
     5
170
     0
171
     0
290
     0
174
     0
 93
        1
 44
0.0
173
     0
291
     1
 45
0.0
  0
DICTIONARY
  5
AD
330
2F
100
AcDbDictionary
280
     1
281
     1
  3
ACAD_XREC_ROUNDTRIP
360
AE
  0
DICTIONARY
  5
B1
330
31
100
AcDbDictionary
280
     1
281
     1
  3
ACAD_XREC_ROUNDTRIP
360
B2
  0
DICTIONARY
  5
AF
330
30
100
AcDbDictionary
280
     1
281
     1
  3
ACAD_XREC_ROUNDTRIP
360
B0
  0
DICTIONARY
  5
B3
330
32
100
AcDbDictionary
280
     1
281
     1
  3
ACAD_XREC_ROUNDTRIP
360
B4
  0
DICTIONARY
  5
BB
330
36
100
AcDbDictionary
280
     1
281
     1
  3
ACAD_XREC_ROUNDTRIP
360
BC
  0
DICTIONARY
  5
C3
330
3A
100
AcDbDictionary
280
     1
281
     1
  3
ACAD_XREC_ROUNDTRIP
360
C4
  0
DICTIONARY
  5
B7
330
34
100
AcDbDictionary
280
     1
281
     1
  3
ACAD_XREC_ROUNDTRIP
360
B8
  0
DICTIONARY
  5
B9
330
35
100
AcDbDictionary
280
     1
281
     1
  3
ACAD_XREC_ROUNDTRIP
360
BA
  0
DICTIONARY
  5
C1
330
39
100
AcDbDictionary
280
     1
281
     1
  3
ACAD_XREC_ROUNDTRIP
360
C2
  0
DICTIONARY
  5
A5
330
2B
100
AcDbDictionary
280
     1
281
     1
  3
ACAD_XREC_ROUNDTRIP
360
A6
  0
DICTIONARY
  5
A7
330
2C
100
AcDbDictionary
280
     1
281
     1
  3
ACAD_XREC_ROUNDTRIP
360
A8
  0
DICTIONARY
  5
A9
330
2D
100
AcDbDictionary
280
     1
281
     1
  3
ACAD_XREC_ROUNDTRIP
360
AA
  0
DICTIONARY
  5
AB
330
2E
100
AcDbDictionary
280
     1
281
     1
  3
ACAD_XREC_ROUNDTRIP
360
AC
  0
DICTIONARY
  5
BF
330
38
100
AcDbDictionary
280
     1
281
     1
  3
ACAD_XREC_ROUNDTRIP
360
C0
  0
DICTIONARY
  5
B5
330
33
100
AcDbDictionary
280
     1
281
     1
  3
ACAD_XREC_ROUNDTRIP
360
B6
  0
DICTIONARY
  5
BD
330
37
100
AcDbDictionary
280
     1
281
     1
  3
ACAD_XREC_ROUNDTRIP
360
BE
  0
XRECORD
  5
AE
102
{ACAD_REACTORS
330
AD
102
}
330
AD
100
AcDbXrecord
280
     1
102
RTVSPropertyOp0
 70
     1
102
RTVSPropertyOp1
 70
     1
102
RTVSPropertyOp2
 70
     1
102
RTVSPropertyOp3
 70
     1
102
RTVSPropertyOp4
 70
     1
102
RTVSPropertyOp5
 70
     1
102
RTVSPropertyOp6
 70
     1
102
RTVSPropertyOp7
 70
     1
102
RTVSPropertyOp8
 70
     1
102
RTVSPropertyOp9
 70
     1
102
RTVSPropertyOp10
 70
     1
102
RTVSPropertyOp11
 70
     1
102
RTVSPropertyOp12
 70
     1
102
RTVSPropertyOp13
 70
     1
102
RTVSPropertyOp14
 70
     1
102
RTVSPropertyOp15
 70
     1
102
RTVSPropertyOp16
 70
     1
102
RTVSPropertyOp17
 70
     1
102
RTVSPropertyOp18
 70
     1
102
RTVSPropertyOp19
 70
     1
102
RTVSPropertyOp20
 70
     1
102
RTVSPropertyOp21
 70
     1
102
RTVSPropertyOp22
 70
     1
102
RTVSPropertyOp23
 70
     1
102
RTVSPropertyOp24
 70
     1
102
RTVSPropertyOp25
 70
     1
102
RTVSPropertyOp26
 70
     1
102
RTVSPropertyOp27
 70
     1
102
RTVSPropertyOp28
 70
     1
102
RTVSPropertyOp29
 70
     1
102
RTVSPropertyOp30
 70
     1
102
RTVSPropertyOp31
 70
     1
102
RTVSPropertyOp32
 70
     1
  0
XRECORD
  5
B2
102
{ACAD_REACTORS
330
B1
102
}
330
B1
100
AcDbXrecord
280
     1
102
RTVSPropertyOp0
 70
     1
102
RTVSPropertyOp1
 70
     1
102
RTVSPropertyOp2
 70
     1
102
RTVSPropertyOp3
 70
     1
102
RTVSPropertyOp4
 70
     1
102
RTVSPropertyOp5
 70
     1
102
RTVSPropertyOp6
 70
     1
102
RTVSPropertyOp7
 70
     1
102
RTVSPropertyOp8
 70
     1
102
RTVSPropertyOp9
 70
     1
102
RTVSPropertyOp10
 70
     1
102
RTVSPropertyOp11
 70
     1
102
RTVSPropertyOp12
 70
     1
102
RTVSPropertyOp13
 70
     1
102
RTVSPropertyOp14
 70
     1
102
RTVSPropertyOp15
 70
     1
102
RTVSPropertyOp16
 70
     1
102
RTVSPropertyOp17
 70
     1
102
RTVSPropertyOp18
 70
     1
102
RTVSPropertyOp19
 70
     1
102
RTVSPropertyOp20
 70
     1
102
RTVSPropertyOp21
 70
     1
102
RTVSPropertyOp22
 70
     1
102
RTVSPropertyOp23
 70
     1
102
RTVSPropertyOp24
 70
     1
102
RTVSPropertyOp25
 70
     1
102
RTVSPropertyOp26
 70
     1
102
RTVSPropertyOp27
 70
     1
102
RTVSPropertyOp28
 70
     1
102
RTVSPropertyOp29
 70
     1
102
RTVSPropertyOp30
 70
     1
102
RTVSPropertyOp31
 70
     1
102
RTVSPropertyOp32
 70
     1
  0
XRECORD
  5
B0
102
{ACAD_REACTORS
330
AF
102
}
330
AF
100
AcDbXrecord
280
     1
102
RTVSPropertyOp0
 70
     1
102
RTVSPropertyOp1
 70
     1
102
RTVSPropertyOp2
 70
     1
102
RTVSPropertyOp3
 70
     1
102
RTVSPropertyOp4
 70
     1
102
RTVSPropertyOp5
 70
     1
102
RTVSPropertyOp6
 70
     1
102
RTVSPropertyOp7
 70
     1
102
RTVSPropertyOp8
 70
     1
102
RTVSPropertyOp9
 70
     1
102
RTVSPropertyOp10
 70
     1
102
RTVSPropertyOp11
 70
     1
102
RTVSPropertyOp12
 70
     1
102
RTVSPropertyOp13
 70
     1
102
RTVSPropertyOp14
 70
     1
102
RTVSPropertyOp15
 70
     1
102
RTVSPropertyOp16
 70
     1
102
RTVSPropertyOp17
 70
     1
102
RTVSPropertyOp18
 70
     1
102
RTVSPropertyOp19
 70
     1
102
RTVSPropertyOp20
 70
     1
102
RTVSPropertyOp21
 70
     1
102
RTVSPropertyOp22
 70
     1
102
RTVSPropertyOp23
 70
     1
102
RTVSPropertyOp24
 70
     1
102
RTVSPropertyOp25
 70
     1
102
RTVSPropertyOp26
 70
     1
102
RTVSPropertyOp27
 70
     1
102
RTVSPropertyOp28
 70
     1
102
RTVSPropertyOp29
 70
     1
102
RTVSPropertyOp30
 70
     1
102
RTVSPropertyOp31
 70
     1
102
RTVSPropertyOp32
 70
     1
  0
XRECORD
  5
B4
102
{ACAD_REACTORS
330
B3
102
}
330
B3
100
AcDbXrecord
280
     1
102
RTVSPropertyOp0
 70
     1
102
RTVSPropertyOp1
 70
     1
102
RTVSPropertyOp2
 70
     1
102
RTVSPropertyOp3
 70
     1
102
RTVSPropertyOp4
 70
     1
102
RTVSPropertyOp5
 70
     1
102
RTVSPropertyOp6
 70
     1
102
RTVSPropertyOp7
 70
     1
102
RTVSPropertyOp8
 70
     1
102
RTVSPropertyOp9
 70
     1
102
RTVSPropertyOp10
 70
     1
102
RTVSPropertyOp11
 70
     1
102
RTVSPropertyOp12
 70
     1
102
RTVSPropertyOp13
 70
     1
102
RTVSPropertyOp14
 70
     1
102
RTVSPropertyOp15
 70
     1
102
RTVSPropertyOp16
 70
     1
102
RTVSPropertyOp17
 70
     1
102
RTVSPropertyOp18
 70
     1
102
RTVSPropertyOp19
 70
     1
102
RTVSPropertyOp20
 70
     1
102
RTVSPropertyOp21
 70
     1
102
RTVSPropertyOp22
 70
     1
102
RTVSPropertyOp23
 70
     1
102
RTVSPropertyOp24
 70
     1
102
RTVSPropertyOp25
 70
     1
102
RTVSPropertyOp26
 70
     1
102
RTVSPropertyOp27
 70
     1
102
RTVSPropertyOp28
 70
     1
102
RTVSPropertyOp29
 70
     1
102
RTVSPropertyOp30
 70
     1
102
RTVSPropertyOp31
 70
     1
102
RTVSPropertyOp32
 70
     1
  0
XRECORD
  5
BC
102
{ACAD_REACTORS
330
BB
102
}
330
BB
100
AcDbXrecord
280
     1
102
RTVSPropertyOp0
 70
     1
102
RTVSPropertyOp1
 70
     1
102
RTVSPropertyOp2
 70
     1
102
RTVSPropertyOp3
 70
     1
102
RTVSPropertyOp4
 70
     1
102
RTVSPropertyOp5
 70
     1
102
RTVSPropertyOp6
 70
     1
102
RTVSPropertyOp7
 70
     1
102
RTVSPropertyOp8
 70
     1
102
RTVSPropertyOp9
 70
     1
102
RTVSPropertyOp10
 70
     1
102
RTVSPropertyOp11
 70
     1
102
RTVSPropertyOp12
 70
     1
102
RTVSPropertyOp13
 70
     1
102
RTVSPropertyOp14
 70
     1
102
RTVSPropertyOp15
 70
     1
102
RTVSPropertyOp16
 70
     1
102
RTVSPropertyOp17
 70
     1
102
RTVSPropertyOp18
 70
     1
102
RTVSPropertyOp19
 70
     1
102
RTVSPropertyOp20
 70
     1
102
RTVSPropertyOp21
 70
     1
102
RTVSPropertyOp22
 70
     1
102
RTVSPropertyOp23
 70
     1
102
RTVSPropertyOp24
 70
     1
102
RTVSPropertyOp25
 70
     1
102
RTVSPropertyOp26
 70
     1
102
RTVSPropertyOp27
 70
     1
102
RTVSPropertyOp28
 70
     1
102
RTVSPropertyOp29
 70
     1
102
RTVSPropertyOp30
 70
     1
102
RTVSPropertyOp31
 70
     1
102
RTVSPropertyOp32
 70
     1
  0
XRECORD
  5
C4
102
{ACAD_REACTORS
330
C3
102
}
330
C3
100
AcDbXrecord
280
     1
102
RTVSPropertyOp0
 70
     1
102
RTVSPropertyOp1
 70
     1
102
RTVSPropertyOp2
 70
     1
102
RTVSPropertyOp3
 70
     1
102
RTVSPropertyOp4
 70
     1
102
RTVSPropertyOp5
 70
     1
102
RTVSPropertyOp6
 70
     1
102
RTVSPropertyOp7
 70
     1
102
RTVSPropertyOp8
 70
     1
102
RTVSPropertyOp9
 70
     1
102
RTVSPropertyOp10
 70
     1
102
RTVSPropertyOp11
 70
     1
102
RTVSPropertyOp12
 70
     1
102
RTVSPropertyOp13
 70
     1
102
RTVSPropertyOp14
 70
     1
102
RTVSPropertyOp15
 70
     1
102
RTVSPropertyOp16
 70
     1
102
RTVSPropertyOp17
 70
     1
102
RTVSPropertyOp18
 70
     1
102
RTVSPropertyOp19
 70
     1
102
RTVSPropertyOp20
 70
     1
102
RTVSPropertyOp21
 70
     1
102
RTVSPropertyOp22
 70
     1
102
RTVSPropertyOp23
 70
     1
102
RTVSPropertyOp24
 70
     1
102
RTVSPropertyOp25
 70
     1
102
RTVSPropertyOp26
 70
     1
102
RTVSPropertyOp27
 70
     1
102
RTVSPropertyOp28
 70
     1
102
RTVSPropertyOp29
 70
     1
102
RTVSPropertyOp30
 70
     1
102
RTVSPropertyOp31
 70
     1
102
RTVSPropertyOp32
 70
     1
  0
XRECORD
  5
B8
102
{ACAD_REACTORS
330
B7
102
}
330
B7
100
AcDbXrecord
280
     1
102
RTVSPropertyOp0
 70
     1
102
RTVSPropertyOp1
 70
     1
102
RTVSPropertyOp2
 70
     1
102
RTVSPropertyOp3
 70
     1
102
RTVSPropertyOp4
 70
     1
102
RTVSPropertyOp5
 70
     1
102
RTVSPropertyOp6
 70
     1
102
RTVSPropertyOp7
 70
     1
102
RTVSPropertyOp8
 70
     1
102
RTVSPropertyOp9
 70
     1
102
RTVSPropertyOp10
 70
     1
102
RTVSPropertyOp11
 70
     1
102
RTVSPropertyOp12
 70
     1
102
RTVSPropertyOp13
 70
     1
102
RTVSPropertyOp14
 70
     1
102
RTVSPropertyOp15
 70
     1
102
RTVSPropertyOp16
 70
     1
102
RTVSPropertyOp17
 70
     1
102
RTVSPropertyOp18
 70
     1
102
RTVSPropertyOp19
 70
     1
102
RTVSPropertyOp20
 70
     1
102
RTVSPropertyOp21
 70
     1
102
RTVSPropertyOp22
 70
     1
102
RTVSPropertyOp23
 70
     1
102
RTVSPropertyOp24
 70
     1
102
RTVSPropertyOp25
 70
     1
102
RTVSPropertyOp26
 70
     1
102
RTVSPropertyOp27
 70
     1
102
RTVSPropertyOp28
 70
     1
102
RTVSPropertyOp29
 70
     1
102
RTVSPropertyOp30
 70
     1
102
RTVSPropertyOp31
 70
     1
102
RTVSPropertyOp32
 70
     1
  0
XRECORD
  5
BA
102
{ACAD_REACTORS
330
B9
102
}
330
B9
100
AcDbXrecord
280
     1
102
RTVSPropertyOp0
 70
     1
102
RTVSPropertyOp1
 70
     1
102
RTVSPropertyOp2
 70
     1
102
RTVSPropertyOp3
 70
     1
102
RTVSPropertyOp4
 70
     1
102
RTVSPropertyOp5
 70
     1
102
RTVSPropertyOp6
 70
     1
102
RTVSPropertyOp7
 70
     1
102
RTVSPropertyOp8
 70
     1
102
RTVSPropertyOp9
 70
     1
102
RTVSPropertyOp10
 70
     1
102
RTVSPropertyOp11
 70
     1
102
RTVSPropertyOp12
 70
     1
102
RTVSPropertyOp13
 70
     1
102
RTVSPropertyOp14
 70
     1
102
RTVSPropertyOp15
 70
     1
102
RTVSPropertyOp16
 70
     1
102
RTVSPropertyOp17
 70
     1
102
RTVSPropertyOp18
 70
     1
102
RTVSPropertyOp19
 70
     1
102
RTVSPropertyOp20
 70
     1
102
RTVSPropertyOp21
 70
     1
102
RTVSPropertyOp22
 70
     1
102
RTVSPropertyOp23
 70
     1
102
RTVSPropertyOp24
 70
     1
102
RTVSPropertyOp25
 70
     1
102
RTVSPropertyOp26
 70
     1
102
RTVSPropertyOp27
 70
     1
102
RTVSPropertyOp28
 70
     1
102
RTVSPropertyOp29
 70
     1
102
RTVSPropertyOp30
 70
     1
102
RTVSPropertyOp31
 70
     1
102
RTVSPropertyOp32
 70
     1
  0
XRECORD
  5
C2
102
{ACAD_REACTORS
330
C1
102
}
330
C1
100
AcDbXrecord
280
     1
102
RTVSPropertyOp0
 70
     1
102
RTVSPropertyOp1
 70
     1
102
RTVSPropertyOp2
 70
     1
102
RTVSPropertyOp3
 70
     1
102
RTVSPropertyOp4
 70
     1
102
RTVSPropertyOp5
 70
     1
102
RTVSPropertyOp6
 70
     1
102
RTVSPropertyOp7
 70
     1
102
RTVSPropertyOp8
 70
     1
102
RTVSPropertyOp9
 70
     1
102
RTVSPropertyOp10
 70
     1
102
RTVSPropertyOp11
 70
     1
102
RTVSPropertyOp12
 70
     1
102
RTVSPropertyOp13
 70
     1
102
RTVSPropertyOp14
 70
     1
102
RTVSPropertyOp15
 70
     1
102
RTVSPropertyOp16
 70
     1
102
RTVSPropertyOp17
 70
     1
102
RTVSPropertyOp18
 70
     1
102
RTVSPropertyOp19
 70
     1
102
RTVSPropertyOp20
 70
     1
102
RTVSPropertyOp21
 70
     1
102
RTVSPropertyOp22
 70
     1
102
RTVSPropertyOp23
 70
     1
102
RTVSPropertyOp24
 70
     1
102
RTVSPropertyOp25
 70
     1
102
RTVSPropertyOp26
 70
     1
102
RTVSPropertyOp27
 70
     1
102
RTVSPropertyOp28
 70
     1
102
RTVSPropertyOp29
 70
     1
102
RTVSPropertyOp30
 70
     1
102
RTVSPropertyOp31
 70
     1
102
RTVSPropertyOp32
 70
     1
  0
XRECORD
  5
A6
102
{ACAD_REACTORS
330
A5
102
}
330
A5
100
AcDbXrecord
280
     1
102
RTVSPropertyOp0
 70
     1
102
RTVSPropertyOp1
 70
     1
102
RTVSPropertyOp2
 70
     1
102
RTVSPropertyOp3
 70
     1
102
RTVSPropertyOp4
 70
     1
102
RTVSPropertyOp5
 70
     1
102
RTVSPropertyOp6
 70
     1
102
RTVSPropertyOp7
 70
     1
102
RTVSPropertyOp8
 70
     1
102
RTVSPropertyOp9
 70
     1
102
RTVSPropertyOp10
 70
     1
102
RTVSPropertyOp11
 70
     1
102
RTVSPropertyOp12
 70
     1
102
RTVSPropertyOp13
 70
     1
102
RTVSPropertyOp14
 70
     1
102
RTVSPropertyOp15
 70
     1
102
RTVSPropertyOp16
 70
     1
102
RTVSPropertyOp17
 70
     1
102
RTVSPropertyOp18
 70
     1
102
RTVSPropertyOp19
 70
     1
102
RTVSPropertyOp20
 70
     1
102
RTVSPropertyOp21
 70
     1
102
RTVSPropertyOp22
 70
     1
102
RTVSPropertyOp23
 70
     1
102
RTVSPropertyOp24
 70
     1
102
RTVSPropertyOp25
 70
     1
102
RTVSPropertyOp26
 70
     1
102
RTVSPropertyOp27
 70
     1
102
RTVSPropertyOp28
 70
     1
102
RTVSPropertyOp29
 70
     1
102
RTVSPropertyOp30
 70
     1
102
RTVSPropertyOp31
 70
     1
102
RTVSPropertyOp32
 70
     1
  0
XRECORD
  5
A8
102
{ACAD_REACTORS
330
A7
102
}
330
A7
100
AcDbXrecord
280
     1
102
RTVSPropertyOp0
 70
     1
102
RTVSPropertyOp1
 70
     1
102
RTVSPropertyOp2
 70
     1
102
RTVSPropertyOp3
 70
     1
102
RTVSPropertyOp4
 70
     1
102
RTVSPropertyOp5
 70
     1
102
RTVSPropertyOp6
 70
     1
102
RTVSPropertyOp7
 70
     1
102
RTVSPropertyOp8
 70
     1
102
RTVSPropertyOp9
 70
     1
102
RTVSPropertyOp10
 70
     1
102
RTVSPropertyOp11
 70
     1
102
RTVSPropertyOp12
 70
     1
102
RTVSPropertyOp13
 70
     1
102
RTVSPropertyOp14
 70
     1
102
RTVSPropertyOp15
 70
     1
102
RTVSPropertyOp16
 70
     1
102
RTVSPropertyOp17
 70
     1
102
RTVSPropertyOp18
 70
     1
102
RTVSPropertyOp19
 70
     1
102
RTVSPropertyOp20
 70
     1
102
RTVSPropertyOp21
 70
     1
102
RTVSPropertyOp22
 70
     1
102
RTVSPropertyOp23
 70
     1
102
RTVSPropertyOp24
 70
     1
102
RTVSPropertyOp25
 70
     1
102
RTVSPropertyOp26
 70
     1
102
RTVSPropertyOp27
 70
     1
102
RTVSPropertyOp28
 70
     1
102
RTVSPropertyOp29
 70
     1
102
RTVSPropertyOp30
 70
     1
102
RTVSPropertyOp31
 70
     1
102
RTVSPropertyOp32
 70
     1
  0
XRECORD
  5
AA
102
{ACAD_REACTORS
330
A9
102
}
330
A9
100
AcDbXrecord
280
     1
102
RTVSPropertyOp0
 70
     1
102
RTVSPropertyOp1
 70
     1
102
RTVSPropertyOp2
 70
     1
102
RTVSPropertyOp3
 70
     1
102
RTVSPropertyOp4
 70
     1
102
RTVSPropertyOp5
 70
     1
102
RTVSPropertyOp6
 70
     1
102
RTVSPropertyOp7
 70
     1
102
RTVSPropertyOp8
 70
     1
102
RTVSPropertyOp9
 70
     1
102
RTVSPropertyOp10
 70
     1
102
RTVSPropertyOp11
 70
     1
102
RTVSPropertyOp12
 70
     1
102
RTVSPropertyOp13
 70
     1
102
RTVSPropertyOp14
 70
     1
102
RTVSPropertyOp15
 70
     1
102
RTVSPropertyOp16
 70
     1
102
RTVSPropertyOp17
 70
     1
102
RTVSPropertyOp18
 70
     1
102
RTVSPropertyOp19
 70
     1
102
RTVSPropertyOp20
 70
     1
102
RTVSPropertyOp21
 70
     1
102
RTVSPropertyOp22
 70
     1
102
RTVSPropertyOp23
 70
     1
102
RTVSPropertyOp24
 70
     1
102
RTVSPropertyOp25
 70
     1
102
RTVSPropertyOp26
 70
     1
102
RTVSPropertyOp27
 70
     1
102
RTVSPropertyOp28
 70
     1
102
RTVSPropertyOp29
 70
     1
102
RTVSPropertyOp30
 70
     1
102
RTVSPropertyOp31
 70
     1
102
RTVSPropertyOp32
 70
     1
  0
XRECORD
  5
AC
102
{ACAD_REACTORS
330
AB
102
}
330
AB
100
AcDbXrecord
280
     1
102
RTVSPropertyOp0
 70
     1
102
RTVSPropertyOp1
 70
     1
102
RTVSPropertyOp2
 70
     1
102
RTVSPropertyOp3
 70
     1
102
RTVSPropertyOp4
 70
     1
102
RTVSPropertyOp5
 70
     1
102
RTVSPropertyOp6
 70
     1
102
RTVSPropertyOp7
 70
     1
102
RTVSPropertyOp8
 70
     1
102
RTVSPropertyOp9
 70
     1
102
RTVSPropertyOp10
 70
     1
102
RTVSPropertyOp11
 70
     1
102
RTVSPropertyOp12
 70
     1
102
RTVSPropertyOp13
 70
     1
102
RTVSPropertyOp14
 70
     1
102
RTVSPropertyOp15
 70
     1
102
RTVSPropertyOp16
 70
     1
102
RTVSPropertyOp17
 70
     1
102
RTVSPropertyOp18
 70
     1
102
RTVSPropertyOp19
 70
     1
102
RTVSPropertyOp20
 70
     1
102
RTVSPropertyOp21
 70
     1
102
RTVSPropertyOp22
 70
     1
102
RTVSPropertyOp23
 70
     1
102
RTVSPropertyOp24
 70
     1
102
RTVSPropertyOp25
 70
     1
102
RTVSPropertyOp26
 70
     1
102
RTVSPropertyOp27
 70
     1
102
RTVSPropertyOp28
 70
     1
102
RTVSPropertyOp29
 70
     1
102
RTVSPropertyOp30
 70
     1
102
RTVSPropertyOp31
 70
     1
102
RTVSPropertyOp32
 70
     1
  0
XRECORD
  5
C0
102
{ACAD_REACTORS
330
BF
102
}
330
BF
100
AcDbXrecord
280
     1
102
RTVSPropertyOp0
 70
     1
102
RTVSPropertyOp1
 70
     1
102
RTVSPropertyOp2
 70
     1
102
RTVSPropertyOp3
 70
     1
102
RTVSPropertyOp4
 70
     1
102
RTVSPropertyOp5
 70
     1
102
RTVSPropertyOp6
 70
     1
102
RTVSPropertyOp7
 70
     1
102
RTVSPropertyOp8
 70
     1
102
RTVSPropertyOp9
 70
     1
102
RTVSPropertyOp10
 70
     1
102
RTVSPropertyOp11
 70
     1
102
RTVSPropertyOp12
 70
     1
102
RTVSPropertyOp13
 70
     1
102
RTVSPropertyOp14
 70
     1
102
RTVSPropertyOp15
 70
     1
102
RTVSPropertyOp16
 70
     1
102
RTVSPropertyOp17
 70
     1
102
RTVSPropertyOp18
 70
     1
102
RTVSPropertyOp19
 70
     1
102
RTVSPropertyOp20
 70
     1
102
RTVSPropertyOp21
 70
     1
102
RTVSPropertyOp22
 70
     1
102
RTVSPropertyOp23
 70
     1
102
RTVSPropertyOp24
 70
     1
102
RTVSPropertyOp25
 70
     1
102
RTVSPropertyOp26
 70
     1
102
RTVSPropertyOp27
 70
     1
102
RTVSPropertyOp28
 70
     1
102
RTVSPropertyOp29
 70
     1
102
RTVSPropertyOp30
 70
     1
102
RTVSPropertyOp31
 70
     1
102
RTVSPropertyOp32
 70
     1
  0
XRECORD
  5
B6
102
{ACAD_REACTORS
330
B5
102
}
330
B5
100
AcDbXrecord
280
     1
102
RTVSPropertyOp0
 70
     1
102
RTVSPropertyOp1
 70
     1
102
RTVSPropertyOp2
 70
     1
102
RTVSPropertyOp3
 70
     1
102
RTVSPropertyOp4
 70
     1
102
RTVSPropertyOp5
 70
     1
102
RTVSPropertyOp6
 70
     1
102
RTVSPropertyOp7
 70
     1
102
RTVSPropertyOp8
 70
     1
102
RTVSPropertyOp9
 70
     1
102
RTVSPropertyOp10
 70
     1
102
RTVSPropertyOp11
 70
     1
102
RTVSPropertyOp12
 70
     1
102
RTVSPropertyOp13
 70
     1
102
RTVSPropertyOp14
 70
     1
102
RTVSPropertyOp15
 70
     1
102
RTVSPropertyOp16
 70
     1
102
RTVSPropertyOp17
 70
     1
102
RTVSPropertyOp18
 70
     1
102
RTVSPropertyOp19
 70
     1
102
RTVSPropertyOp20
 70
     1
102
RTVSPropertyOp21
 70
     1
102
RTVSPropertyOp22
 70
     1
102
RTVSPropertyOp23
 70
     1
102
RTVSPropertyOp24
 70
     1
102
RTVSPropertyOp25
 70
     1
102
RTVSPropertyOp26
 70
     1
102
RTVSPropertyOp27
 70
     1
102
RTVSPropertyOp28
 70
     1
102
RTVSPropertyOp29
 70
     1
102
RTVSPropertyOp30
 70
     1
102
RTVSPropertyOp31
 70
     1
102
RTVSPropertyOp32
 70
     1
  0
XRECORD
  5
BE
102
{ACAD_REACTORS
330
BD
102
}
330
BD
100
AcDbXrecord
280
     1
102
RTVSPropertyOp0
 70
     1
102
RTVSPropertyOp1
 70
     1
102
RTVSPropertyOp2
 70
     1
102
RTVSPropertyOp3
 70
     1
102
RTVSPropertyOp4
 70
     1
102
RTVSPropertyOp5
 70
     1
102
RTVSPropertyOp6
 70
     1
102
RTVSPropertyOp7
 70
     1
102
RTVSPropertyOp8
 70
     1
102
RTVSPropertyOp9
 70
     1
102
RTVSPropertyOp10
 70
     1
102
RTVSPropertyOp11
 70
     1
102
RTVSPropertyOp12
 70
     1
102
RTVSPropertyOp13
 70
     1
102
RTVSPropertyOp14
 70
     1
102
RTVSPropertyOp15
 70
     1
102
RTVSPropertyOp16
 70
     1
102
RTVSPropertyOp17
 70
     1
102
RTVSPropertyOp18
 70
     1
102
RTVSPropertyOp19
 70
     1
102
RTVSPropertyOp20
 70
     1
102
RTVSPropertyOp21
 70
     1
102
RTVSPropertyOp22
 70
     1
102
RTVSPropertyOp23
 70
     1
102
RTVSPropertyOp24
 70
     1
102
RTVSPropertyOp25
 70
     1
102
RTVSPropertyOp26
 70
     1
102
RTVSPropertyOp27
 70
     1
102
RTVSPropertyOp28
 70
     1
102
RTVSPropertyOp29
 70
     1
102
RTVSPropertyOp30
 70
     1
102
RTVSPropertyOp31
 70
     1
102
RTVSPropertyOp32
 70
     1
  0
ENDSEC
  0
EOF
