  0
SECTION
  2
HEADER
  9
$ACADVER
  1
AC1021
  9
$ACADMAINTVER
 70
    25
  9
$DWGCODEPAGE
  3
ANSI_1256
  9
$INSBASE
 10
0.0
 20
0.0
 30
0.0
  9
$EXTMIN
 10
-187.1839
 20
-114.9883
 30
0.0
  9
$EXTMAX
 10
-104.92
 20
131.8048
 30
0.0
  9
$LIMMIN
 10
0.0
 20
0.0
  9
$LIMMAX
 10
12.0
 20
9.0
  9
$ORTHOMODE
 70
     0
  9
$REGENMODE
 70
     1
  9
$FILLMODE
 70
     1
  9
$QTEXTMODE
 70
     0
  9
$MIRRTEXT
 70
     1
  9
$LTSCALE
 40
1.0
  9
$ATTMODE
 70
     1
  9
$TEXTSIZE
 40
0.2
  9
$TRACEWID
 40
0.05
  9
$TEXTSTYLE
  7
Standard
  9
$CLAYER
  8
0
  9
$CELTYPE
  6
ByLayer
  9
$CECOLOR
 62
   256
  9
$CELTSCALE
 40
1.0
  9
$DISPSILH
 70
     0
  9
$DIMSCALE
 40
1.0
  9
$DIMASZ
 40
0.18
  9
$DIMEXO
 40
0.0625
  9
$DIMDLI
 40
0.38
  9
$DIMRND
 40
0.0
  9
$DIMDLE
 40
0.0
  9
$DIMEXE
 40
0.18
  9
$DIMTP
 40
0.0
  9
$DIMTM
 40
0.0
  9
$DIMTXT
 40
0.18
  9
$DIMCEN
 40
0.09
  9
$DIMTSZ
 40
0.0
  9
$DIMTOL
 70
     0
  9
$DIMLIM
 70
     0
  9
$DIMTIH
 70
     1
  9
$DIMTOH
 70
     1
  9
$DIMSE1
 70
     0
  9
$DIMSE2
 70
     0
  9
$DIMTAD
 70
     0
  9
$DIMZIN
 70
     0
  9
$DIMBLK
  1

  9
$DIMASO
 70
     1
  9
$DIMSHO
 70
     1
  9
$DIMPOST
  1

  9
$DIMAPOST
  1

  9
$DIMALT
 70
     0
  9
$DIMALTD
 70
     2
  9
$DIMALTF
 40
25.4
  9
$DIMLFAC
 40
1.0
  9
$DIMTOFL
 70
     0
  9
$DIMTVP
 40
0.0
  9
$DIMTIX
 70
     0
  9
$DIMSOXD
 70
     0
  9
$DIMSAH
 70
     0
  9
$DIMBLK1
  1

  9
$DIMBLK2
  1

  9
$DIMSTYLE
  2
Standard
  9
$DIMCLRD
 70
     0
  9
$DIMCLRE
 70
     0
  9
$DIMCLRT
 70
     0
  9
$DIMTFAC
 40
1.0
  9
$DIMGAP
 40
0.09
  9
$DIMJUST
 70
     0
  9
$DIMSD1
 70
     0
  9
$DIMSD2
 70
     0
  9
$DIMTOLJ
 70
     1
  9
$DIMTZIN
 70
     0
  9
$DIMALTZ
 70
     0
  9
$DIMALTTZ
 70
     0
  9
$DIMUPT
 70
     0
  9
$DIMDEC
 70
     4
  9
$DIMTDEC
 70
     4
  9
$DIMALTU
 70
     2
  9
$DIMALTTD
 70
     2
  9
$DIMTXSTY
  7
Standard
  9
$DIMAUNIT
 70
     0
  9
$DIMADEC
 70
     0
  9
$DIMALTRND
 40
0.0
  9
$DIMAZIN
 70
     0
  9
$DIMDSEP
 70
    46
  9
$DIMATFIT
 70
     3
  9
$DIMFRAC
 70
     0
  9
$DIMLDRBLK
  1

  9
$DIMLUNIT
 70
     2
  9
$DIMLWD
 70
    -2
  9
$DIMLWE
 70
    -2
  9
$DIMTMOVE
 70
     0
  9
$DIMFXL
 40
1.0
  9
$DIMFXLON
 70
     0
  9
$DIMJOGANG
 40
0.7853981633974483
  9
$DIMTFILL
 70
     0
  9
$DIMTFILLCLR
 70
     0
  9
$DIMARCSYM
 70
     0
  9
$DIMLTYPE
  6

  9
$DIMLTEX1
  6

  9
$DIMLTEX2
  6

  9
$LUNITS
 70
     2
  9
$LUPREC
 70
     4
  9
$SKETCHINC
 40
0.1
  9
$FILLETRAD
 40
0.5
  9
$AUNITS
 70
     0
  9
$AUPREC
 70
     0
  9
$MENU
  1
.
  9
$ELEVATION
 40
0.0
  9
$PELEVATION
 40
0.0
  9
$THICKNESS
 40
0.0
  9
$LIMCHECK
 70
     0
  9
$CHAMFERA
 40
0.5
  9
$CHAMFERB
 40
0.5
  9
$CHAMFERC
 40
1.0
  9
$CHAMFERD
 40
0.0
  9
$SKPOLY
 70
     0
  9
$TDCREATE
 40
2458492.958082604
  9
$TDUCREATE
 40
2458492.791415938
  9
$TDUPDATE
 40
2458492.958082778
  9
$TDUUPDATE
 40
2458492.791416111
  9
$TDINDWG
 40
0.0000000116
  9
$TDUSRTIMER
 40
0.0000000116
  9
$USRTIMER
 70
     1
  9
$ANGBASE
 50
0.0
  9
$ANGDIR
 70
     0
  9
$PDMODE
 70
     0
  9
$PDSIZE
 40
0.0
  9
$PLINEWID
 40
0.0
  9
$SPLFRAME
 70
     0
  9
$SPLINETYPE
 70
     6
  9
$SPLINESEGS
 70
     8
  9
$HANDSEED
  5
B4
  9
$SURFTAB1
 70
     6
  9
$SURFTAB2
 70
     6
  9
$SURFTYPE
 70
     6
  9
$SURFU
 70
     6
  9
$SURFV
 70
     6
  9
$UCSBASE
  2

  9
$UCSNAME
  2

  9
$UCSORG
 10
0.0
 20
0.0
 30
0.0
  9
$UCSXDIR
 10
1.0
 20
0.0
 30
0.0
  9
$UCSYDIR
 10
0.0
 20
1.0
 30
0.0
  9
$UCSORTHOREF
  2

  9
$UCSORTHOVIEW
 70
     0
  9
$UCSORGTOP
 10
0.0
 20
0.0
 30
0.0
  9
$UCSORGBOTTOM
 10
0.0
 20
0.0
 30
0.0
  9
$UCSORGLEFT
 10
0.0
 20
0.0
 30
0.0
  9
$UCSORGRIGHT
 10
0.0
 20
0.0
 30
0.0
  9
$UCSORGFRONT
 10
0.0
 20
0.0
 30
0.0
  9
$UCSORGBACK
 10
0.0
 20
0.0
 30
0.0
  9
$PUCSBASE
  2

  9
$PUCSNAME
  2

  9
$PUCSORG
 10
0.0
 20
0.0
 30
0.0
  9
$PUCSXDIR
 10
1.0
 20
0.0
 30
0.0
  9
$PUCSYDIR
 10
0.0
 20
1.0
 30
0.0
  9
$PUCSORTHOREF
  2

  9
$PUCSORTHOVIEW
 70
     0
  9
$PUCSORGTOP
 10
0.0
 20
0.0
 30
0.0
  9
$PUCSORGBOTTOM
 10
0.0
 20
0.0
 30
0.0
  9
$PUCSORGLEFT
 10
0.0
 20
0.0
 30
0.0
  9
$PUCSORGRIGHT
 10
0.0
 20
0.0
 30
0.0
  9
$PUCSORGFRONT
 10
0.0
 20
0.0
 30
0.0
  9
$PUCSORGBACK
 10
0.0
 20
0.0
 30
0.0
  9
$USERI1
 70
     0
  9
$USERI2
 70
     0
  9
$USERI3
 70
     0
  9
$USERI4
 70
     0
  9
$USERI5
 70
     0
  9
$USERR1
 40
0.0
  9
$USERR2
 40
0.0
  9
$USERR3
 40
0.0
  9
$USERR4
 40
0.0
  9
$USERR5
 40
0.0
  9
$WORLDVIEW
 70
     1
  9
$SHADEDGE
 70
     3
  9
$SHADEDIF
 70
    70
  9
$TILEMODE
 70
     1
  9
$MAXACTVP
 70
    64
  9
$PINSBASE
 10
0.0
 20
0.0
 30
0.0
  9
$PLIMCHECK
 70
     0
  9
$PEXTMIN
 10
1.000000000000000E+20
 20
1.000000000000000E+20
 30
1.000000000000000E+20
  9
$PEXTMAX
 10
-1.000000000000000E+20
 20
-1.000000000000000E+20
 30
-1.000000000000000E+20
  9
$PLIMMIN
 10
0.0
 20
0.0
  9
$PLIMMAX
 10
12.0
 20
9.0
  9
$UNITMODE
 70
     0
  9
$VISRETAIN
 70
     1
  9
$PLINEGEN
 70
     0
  9
$PSLTSCALE
 70
     1
  9
$TREEDEPTH
 70
  3020
  9
$CMLSTYLE
  2
Standard
  9
$CMLJUST
 70
     0
  9
$CMLSCALE
 40
1.0
  9
$PROXYGRAPHICS
 70
     1
  9
$MEASUREMENT
 70
     0
  9
$CELWEIGHT
370
    -1
  9
$ENDCAPS
280
     0
  9
$JOINSTYLE
280
     0
  9
$LWDISPLAY
290
     0
  9
$INSUNITS
 70
     4
  9
$HYPERLINKBASE
  1

  9
$STYLESHEET
  1

  9
$XEDIT
290
     1
  9
$CEPSNTYPE
380
     0
  9
$PSTYLEMODE
290
     1
  9
$FINGERPRINTGUID
  2
{C6CEE977-86B8-412B-AA54-E23EAEC9DADD}
  9
$VERSIONGUID
  2
{FAEB1C32-E019-11D5-929B-00C0DF256EC4}
  9
$EXTNAMES
290
     1
  9
$PSVPSCALE
 40
0.0
  9
$OLESTARTUP
290
     0
  9
$SORTENTS
280
   127
  9
$INDEXCTL
280
     0
  9
$HIDETEXT
280
     1
  9
$XCLIPFRAME
290
     0
  9
$HALOGAP
280
     0
  9
$OBSCOLOR
 70
   257
  9
$OBSLTYPE
280
     0
  9
$INTERSECTIONDISPLAY
280
     0
  9
$INTERSECTIONCOLOR
 70
   257
  9
$DIMASSOC
280
     2
  9
$PROJECTNAME
  1

  9
$CAMERADISPLAY
290
     0
  9
$LENSLENGTH
 40
50.0
  9
$CAMERAHEIGHT
 40
0.0
  9
$STEPSPERSEC
 40
2.0
  9
$STEPSIZE
 40
6.0
  9
$3DDWFPREC
 40
2.0
  9
$PSOLWIDTH
 40
0.25
  9
$PSOLHEIGHT
 40
4.0
  9
$LOFTANG1
 40
1.570796326794897
  9
$LOFTANG2
 40
1.570796326794897
  9
$LOFTMAG1
 40
0.0
  9
$LOFTMAG2
 40
0.0
  9
$LOFTPARAM
 70
     7
  9
$LOFTNORMALS
280
     1
  9
$LATITUDE
 40
37.795
  9
$LONGITUDE
 40
-122.394
  9
$NORTHDIRECTION
 40
0.0
  9
$TIMEZONE
 70
 -8000
  9
$LIGHTGLYPHDISPLAY
280
     1
  9
$TILEMODELIGHTSYNCH
280
     1
  9
$SOLIDHIST
280
     1
  9
$SHOWHIST
280
     1
  9
$DWFFRAME
280
     2
  9
$DGNFRAME
280
     2
  9
$REALWORLDSCALE
290
     1
  9
$INTERFERECOLOR
 62
   256
  9
$CSHADOW
280
     0
  9
$SHADOWPLANELOCATION
 40
0.0
  0
ENDSEC
  0
SECTION
  2
CLASSES
  0
CLASS
  1
ACDBDICTIONARYWDFLT
  2
AcDbDictionaryWithDefault
  3
ObjectDBX Classes
 90
        0
 91
        4
280
     0
281
     0
  0
CLASS
  1
VISUALSTYLE
  2
AcDbVisualStyle
  3
ObjectDBX Classes
 90
     4095
 91
        4
280
     0
281
     0
  0
CLASS
  1
MATERIAL
  2
AcDbMaterial
  3
ObjectDBX Classes
 90
     1153
 91
        4
280
     0
281
     0
  0
ENDSEC
  0
SECTION
  2
TABLES
  0
TABLE
  2
VPORT
  5
8
330
0
100
AcDbSymbolTable
 70
     1
  0
VPORT
  5
29
330
8
100
AcDbSymbolTableRecord
100
AcDbViewportTableRecord
  2
*Active
 70
     0
 10
0.0
 20
0.0
 11
1.0
 21
1.0
 12
10.42990654205607
 22
4.5
 13
0.0
 23
0.0
 14
0.5
 24
0.5
 15
0.5
 25
0.5
 16
0.0
 26
0.0
 36
1.0
 17
0.0
 27
0.0
 37
0.0
 40
9.0
 41
1.972972972850329
 42
50.0
 43
0.0
 44
0.0
 50
0.0
 51
0.0
 71
     0
 72
   100
 73
     1
 74
     3
 75
     0
 76
     0
 77
     0
 78
     0
281
     0
 65
     1
110
0.0
120
0.0
130
0.0
111
1.0
121
0.0
131
0.0
112
0.0
122
1.0
132
0.0
 79
     0
146
0.0
 60
     3
 61
     5
292
     1
282
     1
141
0.0
142
0.0
 63
   250
  0
ENDTAB
  0
TABLE
  2
LTYPE
  5
5
330
0
100
AcDbSymbolTable
 70
     1
  0
LTYPE
  5
14
330
5
100
AcDbSymbolTableRecord
100
AcDbLinetypeTableRecord
  2
ByBlock
 70
     0
  3

 72
    65
 73
     0
 40
0.0
  0
LTYPE
  5
15
330
5
100
AcDbSymbolTableRecord
100
AcDbLinetypeTableRecord
  2
ByLayer
 70
     0
  3

 72
    65
 73
     0
 40
0.0
  0
LTYPE
  5
16
330
5
100
AcDbSymbolTableRecord
100
AcDbLinetypeTableRecord
  2
Continuous
 70
     0
  3
Solid line
 72
    65
 73
     0
 40
0.0
  0
ENDTAB
  0
TABLE
  2
LAYER
  5
2
330
0
100
AcDbSymbolTable
 70
     3
  0
LAYER
  5
10
330
2
100
AcDbSymbolTableRecord
100
AcDbLayerTableRecord
  2
0
 70
     0
 62
     7
  6
Continuous
370
    -3
390
F
347
3E
  0
LAYER
  5
40
330
2
100
AcDbSymbolTableRecord
100
AcDbLayerTableRecord
  2
layer 1
 70
     0
 62
     7
  6
Continuous
370
    -3
390
F
347
3E
  0
LAYER
  5
91
330
2
100
AcDbSymbolTableRecord
100
AcDbLayerTableRecord
  2
Master Guides
 70
     0
 62
     7
  6
Continuous
370
    -3
390
F
347
3E
  0
ENDTAB
  0
TABLE
  2
STYLE
  5
3
330
0
100
AcDbSymbolTable
 70
     1
  0
STYLE
  5
11
330
3
100
AcDbSymbolTableRecord
100
AcDbTextStyleTableRecord
  2
Standard
 70
     0
 40
0.0
 41
1.0
 50
0.0
 71
     0
 42
0.2
  3
txt
  4

  0
ENDTAB
  0
TABLE
  2
VIEW
  5
6
330
0
100
AcDbSymbolTable
 70
     0
  0
ENDTAB
  0
TABLE
  2
UCS
  5
7
330
0
100
AcDbSymbolTable
 70
     0
  0
ENDTAB
  0
TABLE
  2
APPID
  5
9
330
0
100
AcDbSymbolTable
 70
     2
  0
APPID
  5
12
330
9
100
AcDbSymbolTableRecord
100
AcDbRegAppTableRecord
  2
ACAD
 70
     0
  0
APPID
  5
3F
330
9
100
AcDbSymbolTableRecord
100
AcDbRegAppTableRecord
  2
ODA
 70
     0
  0
ENDTAB
  0
TABLE
  2
DIMSTYLE
  5
A
330
0
100
AcDbSymbolTable
 70
     1
100
AcDbDimStyleTable
  0
DIMSTYLE
105
27
330
A
100
AcDbSymbolTableRecord
100
AcDbDimStyleTableRecord
  2
Standard
 70
     0
178
     0
340
11
  0
ENDTAB
  0
TABLE
  2
BLOCK_RECORD
  5
1
330
0
100
AcDbSymbolTable
 70
     1
  0
BLOCK_RECORD
  5
1F
330
1
100
AcDbSymbolTableRecord
100
AcDbBlockTableRecord
  2
*Model_Space
340
22
 70
     0
280
     1
281
     0
  0
BLOCK_RECORD
  5
1B
330
1
100
AcDbSymbolTableRecord
100
AcDbBlockTableRecord
  2
*Paper_Space
340
1E
 70
     0
280
     1
281
     0
  0
BLOCK_RECORD
  5
23
330
1
100
AcDbSymbolTableRecord
100
AcDbBlockTableRecord
  2
*Paper_Space0
340
26
 70
     0
280
     1
281
     0
  0
ENDTAB
  0
ENDSEC
  0
SECTION
  2
BLOCKS
  0
BLOCK
  5
20
330
1F
100
AcDbEntity
  8
0
100
AcDbBlockBegin
  2
*Model_Space
 70
     0
 10
0.0
 20
0.0
 30
0.0
  3
*Model_Space
  1

  0
ENDBLK
  5
21
330
1F
100
AcDbEntity
  8
0
100
AcDbBlockEnd
  0
BLOCK
  5
1C
330
1B
100
AcDbEntity
 67
     1
  8
0
100
AcDbBlockBegin
  2
*Paper_Space
 70
     0
 10
0.0
 20
0.0
 30
0.0
  3
*Paper_Space
  1

  0
ENDBLK
  5
1D
330
1B
100
AcDbEntity
 67
     1
  8
0
100
AcDbBlockEnd
  0
BLOCK
  5
24
330
23
100
AcDbEntity
  8
0
100
AcDbBlockBegin
  2
*Paper_Space0
 70
     0
 10
0.0
 20
0.0
 30
0.0
  3
*Paper_Space0
  1

  0
ENDBLK
  5
25
330
23
100
AcDbEntity
  8
0
100
AcDbBlockEnd
  0
ENDSEC
  0
SECTION
  2
ENTITIES
  0
SPLINE
  5
41
330
1F
100
AcDbEntity
  8
layer 1
100
AcDbSpline
210
0.0
220
0.0
230
1.0
 70
    11
 71
     3
 72
    20
 73
    16
 74
     0
 42
0.0000000001
 43
0.0000000001
 12
1.0
 22
0.0
 32
0.0
 13
1.0
 23
0.0
 33
0.0
 40
0.0
 40
0.0
 40
0.0
 40
0.0
 40
0.2
 40
0.2
 40
0.2
 40
0.2
 40
0.4
 40
0.4
 40
0.4
 40
0.4
 40
0.6
 40
0.6
 40
0.6
 40
0.6
 40
1.0
 40
1.0
 40
1.0
 40
1.0
 10
-187.1839
 20
131.8048
 30
0.0
 10
-187.1839
 20
131.8048
 30
0.0
 10
-104.92
 20
131.8048
 30
0.0
 10
-104.92
 20
131.8048
 30
0.0
 10
-104.92
 20
131.8048
 30
0.0
 10
-104.92
 20
131.8048
 30
0.0
 10
-104.92
 20
-114.9883
 30
0.0
 10
-104.92
 20
-114.9883
 30
0.0
 10
-104.92
 20
-114.9883
 30
0.0
 10
-104.92
 20
-114.9883
 30
0.0
 10
-187.1839
 20
-114.9883
 30
0.0
 10
-187.1839
 20
-114.9883
 30
0.0
 10
-187.1839
 20
-114.9883
 30
0.0
 10
-187.1839
 20
-114.9883
 30
0.0
 10
-187.1839
 20
131.8048
 30
0.0
 10
-187.1839
 20
131.8048
 30
0.0
  0
SPLINE
  5
42
330
1F
100
AcDbEntity
  8
layer 1
 62
     7
100
AcDbSpline
210
0.0
220
0.0
230
1.0
 70
    11
 71
     3
 72
    24
 73
    20
 74
     0
 42
0.0000000001
 43
0.0000000001
 12
1.0
 22
0.0
 32
0.0
 13
1.0
 23
0.0
 33
0.0
 40
0.0
 40
0.0
 40
0.0
 40
0.0
 40
0.1666666666666667
 40
0.1666666666666667
 40
0.1666666666666667
 40
0.1666666666666667
 40
0.3333333333333333
 40
0.3333333333333333
 40
0.3333333333333333
 40
0.3333333333333333
 40
0.5
 40
0.5
 40
0.5
 40
0.5
 40
0.6666666666666666
 40
0.6666666666666666
 40
0.6666666666666666
 40
0.6666666666666666
 40
1.0
 40
1.0
 40
1.0
 40
1.0
 10
-148.5737
 20
115.6342
 30
0.0
 10
-148.5737
 20
115.6342
 30
0.0
 10
-151.2695
 20
115.585
 30
0.0
 10
-151.2695
 20
115.585
 30
0.0
 10
-151.2695
 20
115.585
 30
0.0
 10
-151.3219
 20
121.4048
 30
0.0
 10
-156.7036
 20
125.0411
 30
0.0
 10
-159.3308
 20
125.6743
 30
0.0
 10
-159.3308
 20
125.6743
 30
0.0
 10
-155.1216
 20
125.6568
 30
0.0
 10
-153.1191
 20
125.6568
 30
0.0
 10
-149.908
 20
125.652
 30
0.0
 10
-149.908
 20
125.652
 30
0.0
 10
-152.5529
 20
124.6541
 30
0.0
 10
-151.139
 20
122.022
 30
0.0
 10
-148.5753
 20
122.6614
 30
0.0
 10
-148.5753
 20
122.6614
 30
0.0
 10
-148.5753
 20
122.6614
 30
0.0
 10
-148.5737
 20
115.6342
 30
0.0
 10
-148.5737
 20
115.6342
 30
0.0
  0
SPLINE
  5
43
330
1F
100
AcDbEntity
  8
layer 1
 62
     7
100
AcDbSpline
210
0.0
220
0.0
230
1.0
 70
    11
 71
     3
 72
    16
 73
    12
 74
     0
 42
0.0000000001
 43
0.0000000001
 12
1.0
 22
0.0
 32
0.0
 13
1.0
 23
0.0
 33
0.0
 40
0.0
 40
0.0
 40
0.0
 40
0.0
 40
0.25
 40
0.25
 40
0.25
 40
0.25
 40
0.5
 40
0.5
 40
0.5
 40
0.5
 40
1.0
 40
1.0
 40
1.0
 40
1.0
 10
-180.5247
 20
112.8658
 30
0.0
 10
-179.0349
 20
119.2406
 30
0.0
 10
-176.3789
 20
123.0849
 30
0.0
 10
-168.5175
 20
125.6743
 30
0.0
 10
-168.5175
 20
125.6743
 30
0.0
 10
-172.725
 20
125.6568
 30
0.0
 10
-177.3453
 20
125.6568
 30
0.0
 10
-180.5548
 20
125.652
 30
0.0
 10
-180.5548
 20
125.652
 30
0.0
 10
-180.504
 20
122.3123
 30
0.0
 10
-180.5231
 20
116.2053
 30
0.0
 10
-180.5247
 20
112.8658
 30
0.0
  0
SPLINE
  5
44
330
1F
100
AcDbEntity
  8
layer 1
 62
     7
100
AcDbSpline
210
0.0
220
0.0
230
1.0
 70
    11
 71
     3
 72
    24
 73
    20
 74
     0
 42
0.0000000001
 43
0.0000000001
 12
1.0
 22
0.0
 32
0.0
 13
1.0
 23
0.0
 33
0.0
 40
0.0
 40
0.0
 40
0.0
 40
0.0
 40
0.1666666666666667
 40
0.1666666666666667
 40
0.1666666666666667
 40
0.1666666666666667
 40
0.3333333333333333
 40
0.3333333333333333
 40
0.3333333333333333
 40
0.3333333333333333
 40
0.5
 40
0.5
 40
0.5
 40
0.5
 40
0.6666666666666666
 40
0.6666666666666666
 40
0.6666666666666666
 40
0.6666666666666666
 40
1.0
 40
1.0
 40
1.0
 40
1.0
 10
-169.1503
 20
108.6943
 30
0.0
 10
-168.7823
 20
109.9953
 30
0.0
 10
-166.9229
 20
110.7186
 30
0.0
 10
-165.9233
 20
109.57
 30
0.0
 10
-165.9233
 20
109.57
 30
0.0
 10
-167.2385
 20
114.7029
 30
0.0
 10
-160.6081
 20
117.5857
 30
0.0
 10
-157.1415
 20
113.1623
 30
0.0
 10
-157.1415
 20
113.1623
 30
0.0
 10
-153.9172
 20
122.1313
 30
0.0
 10
-167.6747
 20
123.3815
 30
0.0
 10
-171.8713
 20
117.689
 30
0.0
 10
-171.8713
 20
117.689
 30
0.0
 10
-174.0719
 20
115.2914
 30
0.0
 10
-174.9464
 20
105.9478
 30
0.0
 10
-169.444
 20
104.5246
 30
0.0
 10
-169.444
 20
104.5246
 30
0.0
 10
-165.4233
 20
103.5713
 30
0.0
 10
-164.7506
 20
108.8783
 30
0.0
 10
-169.1503
 20
108.6943
 30
0.0
  0
SPLINE
  5
45
330
1F
100
AcDbEntity
  8
layer 1
 62
     7
100
AcDbSpline
210
0.0
220
0.0
230
1.0
 70
    11
 71
     3
 72
    52
 73
    48
 74
     0
 42
0.0000000001
 43
0.0000000001
 12
1.0
 22
0.0
 32
0.0
 13
1.0
 23
0.0
 33
0.0
 40
0.0
 40
0.0
 40
0.0
 40
0.0
 40
0.0769230769230769
 40
0.0769230769230769
 40
0.0769230769230769
 40
0.0769230769230769
 40
0.1538461538461539
 40
0.1538461538461539
 40
0.1538461538461539
 40
0.1538461538461539
 40
0.2307692307692308
 40
0.2307692307692308
 40
0.2307692307692308
 40
0.2307692307692308
 40
0.3076923076923077
 40
0.3076923076923077
 40
0.3076923076923077
 40
0.3076923076923077
 40
0.3846153846153846
 40
0.3846153846153846
 40
0.3846153846153846
 40
0.3846153846153846
 40
0.4615384615384616
 40
0.4615384615384616
 40
0.4615384615384616
 40
0.4615384615384616
 40
0.5384615384615384
 40
0.5384615384615384
 40
0.5384615384615384
 40
0.5384615384615384
 40
0.6153846153846154
 40
0.6153846153846154
 40
0.6153846153846154
 40
0.6153846153846154
 40
0.6923076923076923
 40
0.6923076923076923
 40
0.6923076923076923
 40
0.6923076923076923
 40
0.7692307692307693
 40
0.7692307692307693
 40
0.7692307692307693
 40
0.7692307692307693
 40
0.8461538461538461
 40
0.8461538461538461
 40
0.8461538461538461
 40
0.8461538461538461
 40
1.0
 40
1.0
 40
1.0
 40
1.0
 10
-153.9063
 20
100.9597
 30
0.0
 10
-154.4124
 20
97.255
 30
0.0
 10
-153.9555
 20
97.5993
 30
0.0
 10
-152.9559
 20
96.4507
 30
0.0
 10
-152.9559
 20
96.4507
 30
0.0
 10
-152.1849
 20
99.6112
 30
0.0
 10
-149.2321
 20
98.8162
 30
0.0
 10
-147.8137
 20
104.0997
 30
0.0
 10
-147.8137
 20
104.0997
 30
0.0
 10
-147.282
 20
93.6169
 30
0.0
 10
-153.646
 20
89.0666
 30
0.0
 10
-156.3259
 20
88.9841
 30
0.0
 10
-156.3259
 20
88.9841
 30
0.0
 10
-155.3706
 20
90.1502
 30
0.0
 10
-155.8673
 20
91.6701
 30
0.0
 10
-156.8986
 20
92.238
 30
0.0
 10
-156.8986
 20
92.238
 30
0.0
 10
-157.8729
 20
92.7745
 30
0.0
 10
-159.3404
 20
92.4333
 30
0.0
 10
-159.9656
 20
90.9499
 30
0.0
 10
-159.9656
 20
90.9499
 30
0.0
 10
-159.9656
 20
90.9499
 30
0.0
 10
-159.9051
 20
94.5373
 30
0.0
 10
-159.9051
 20
94.5373
 30
0.0
 10
-159.9051
 20
94.5373
 30
0.0
 10
-170.8765
 20
93.831
 30
0.0
 10
-176.844
 20
104.4388
 30
0.0
 10
-175.5048
 20
108.5912
 30
0.0
 10
-175.5048
 20
108.5912
 30
0.0
 10
-174.4337
 20
100.6425
 30
0.0
 10
-169.7405
 20
101.6038
 30
0.0
 10
-166.9163
 20
99.3207
 30
0.0
 10
-166.9163
 20
99.3207
 30
0.0
 10
-166.4595
 20
100.5583
 30
0.0
 10
-166.9798
 20
101.5498
 30
0.0
 10
-167.9493
 20
102.3337
 30
0.0
 10
-167.9493
 20
102.3337
 30
0.0
 10
-165.0476
 20
101.4231
 30
0.0
 10
-162.8644
 20
103.6537
 30
0.0
 10
-163.4006
 20
106.4714
 30
0.0
 10
-163.4006
 20
106.4714
 30
0.0
 10
-162.4676
 20
105.8463
 30
0.0
 10
-161.8807
 20
105.6404
 30
0.0
 10
-160.578
 20
105.5099
 30
0.0
 10
-160.578
 20
105.5099
 30
0.0
 10
-165.0776
 20
103.3635
 30
0.0
 10
-159.8941
 20
96.7554
 30
0.0
 10
-153.9063
 20
100.9597
 30
0.0
  0
SPLINE
  5
46
330
1F
100
AcDbEntity
  8
layer 1
 62
     7
100
AcDbSpline
210
0.0
220
0.0
230
1.0
 70
    11
 71
     3
 72
    20
 73
    16
 74
     0
 42
0.0000000001
 43
0.0000000001
 12
1.0
 22
0.0
 32
0.0
 13
1.0
 23
0.0
 33
0.0
 40
0.0
 40
0.0
 40
0.0
 40
0.0
 40
0.2
 40
0.2
 40
0.2
 40
0.2
 40
0.4
 40
0.4
 40
0.4
 40
0.4
 40
0.6
 40
0.6
 40
0.6
 40
0.6
 40
1.0
 40
1.0
 40
1.0
 40
1.0
 10
-148.7341
 20
112.9148
 30
0.0
 10
-148.7341
 20
112.9148
 30
0.0
 10
-151.4311
 20
112.964
 30
0.0
 10
-151.4311
 20
112.964
 30
0.0
 10
-151.4311
 20
112.964
 30
0.0
 10
-152.7147
 20
107.3044
 30
0.0
 10
-155.8466
 20
105.9734
 30
0.0
 10
-158.847
 20
105.4466
 30
0.0
 10
-158.847
 20
105.4466
 30
0.0
 10
-156.7305
 20
105.2513
 30
0.0
 10
-156.3892
 20
102.3544
 30
0.0
 10
-158.5423
 20
101.6103
 30
0.0
 10
-158.5423
 20
101.6103
 30
0.0
 10
-151.7467
 20
100.9722
 30
0.0
 10
-147.8248
 20
106.1907
 30
0.0
 10
-148.7341
 20
112.9148
 30
0.0
  0
SPLINE
  5
47
330
1F
100
AcDbEntity
  8
layer 1
 62
     7
100
AcDbSpline
210
0.0
220
0.0
230
1.0
 70
    11
 71
     3
 72
    32
 73
    28
 74
     0
 42
0.0000000001
 43
0.0000000001
 12
1.0
 22
0.0
 32
0.0
 13
1.0
 23
0.0
 33
0.0
 40
0.0
 40
0.0
 40
0.0
 40
0.0
 40
0.125
 40
0.125
 40
0.125
 40
0.125
 40
0.25
 40
0.25
 40
0.25
 40
0.25
 40
0.375
 40
0.375
 40
0.375
 40
0.375
 40
0.5
 40
0.5
 40
0.5
 40
0.5
 40
0.625
 40
0.625
 40
0.625
 40
0.625
 40
0.75
 40
0.75
 40
0.75
 40
0.75
 40
1.0
 40
1.0
 40
1.0
 40
1.0
 10
-165.6061
 20
75.1885
 30
0.0
 10
-165.6061
 20
75.1885
 30
0.0
 10
-165.5582
 20
90.2185
 30
0.0
 10
-165.5582
 20
90.2185
 30
0.0
 10
-165.5582
 20
90.2185
 30
0.0
 10
-171.3766
 20
90.6989
 30
0.0
 10
-179.0365
 20
97.0469
 30
0.0
 10
-180.5279
 20
105.7861
 30
0.0
 10
-180.5279
 20
105.7861
 30
0.0
 10
-180.5279
 20
105.7861
 30
0.0
 10
-180.504
 20
93.9515
 30
0.0
 10
-180.504
 20
93.9515
 30
0.0
 10
-180.504
 20
93.9515
 30
0.0
 10
-177.0499
 20
93.7977
 30
0.0
 10
-175.0654
 20
91.3513
 30
0.0
 10
-175.9171
 20
88.1908
 30
0.0
 10
-175.9171
 20
88.1908
 30
0.0
 10
-171.7636
 20
91.1848
 30
0.0
 10
-169.5089
 20
86.9959
 30
0.0
 10
-170.6625
 20
85.1316
 30
0.0
 10
-170.6625
 20
85.1316
 30
0.0
 10
-171.9253
 20
83.0914
 30
0.0
 10
-175.3176
 20
83.2071
 30
0.0
 10
-175.3383
 20
86.4232
 30
0.0
 10
-175.3383
 20
86.4232
 30
0.0
 10
-180.534
 20
82.5105
 30
0.0
 10
-175.3729
 20
73.3717
 30
0.0
 10
-165.6061
 20
75.1885
 30
0.0
  0
SPLINE
  5
48
330
1F
100
AcDbEntity
  8
layer 1
 62
     7
100
AcDbSpline
210
0.0
220
0.0
230
1.0
 70
    11
 71
     3
 72
    24
 73
    20
 74
     0
 42
0.0000000001
 43
0.0000000001
 12
1.0
 22
0.0
 32
0.0
 13
1.0
 23
0.0
 33
0.0
 40
0.0
 40
0.0
 40
0.0
 40
0.0
 40
0.1666666666666667
 40
0.1666666666666667
 40
0.1666666666666667
 40
0.1666666666666667
 40
0.3333333333333333
 40
0.3333333333333333
 40
0.3333333333333333
 40
0.3333333333333333
 40
0.5
 40
0.5
 40
0.5
 40
0.5
 40
0.6666666666666666
 40
0.6666666666666666
 40
0.6666666666666666
 40
0.6666666666666666
 40
1.0
 40
1.0
 40
1.0
 40
1.0
 10
-160.0481
 20
76.0991
 30
0.0
 10
-160.0481
 20
76.0991
 30
0.0
 10
-160.0955
 20
88.7697
 30
0.0
 10
-160.0955
 20
88.7697
 30
0.0
 10
-160.0955
 20
88.7697
 30
0.0
 10
-158.4964
 20
85.5998
 30
0.0
 10
-154.425
 20
87.0942
 30
0.0
 10
-152.4181
 20
89.0491
 30
0.0
 10
-152.4181
 20
89.0491
 30
0.0
 10
-152.5497
 20
88.1272
 30
0.0
 10
-152.9814
 20
87.532
 30
0.0
 10
-152.3101
 20
85.9362
 30
0.0
 10
-152.3101
 20
85.9362
 30
0.0
 10
-150.9518
 20
86.7278
 30
0.0
 10
-149.4242
 20
88.4634
 30
0.0
 10
-148.3324
 20
91.8398
 30
0.0
 10
-148.3324
 20
91.8398
 30
0.0
 10
-147.9088
 20
87.3371
 30
0.0
 10
-152.9624
 20
79.3769
 30
0.0
 10
-160.0481
 20
76.0991
 30
0.0
  0
SPLINE
  5
49
330
1F
100
AcDbEntity
  8
layer 1
 62
     7
100
AcDbSpline
210
0.0
220
0.0
230
1.0
 70
    11
 71
     3
 72
    20
 73
    16
 74
     0
 42
0.0000000001
 43
0.0000000001
 12
1.0
 22
0.0
 32
0.0
 13
1.0
 23
0.0
 33
0.0
 40
0.0
 40
0.0
 40
0.0
 40
0.0
 40
0.2
 40
0.2
 40
0.2
 40
0.2
 40
0.4
 40
0.4
 40
0.4
 40
0.4
 40
0.6
 40
0.6
 40
0.6
 40
0.6
 40
1.0
 40
1.0
 40
1.0
 40
1.0
 10
-145.9875
 20
58.4023
 30
0.0
 10
-145.9875
 20
58.4023
 30
0.0
 10
-143.4648
 20
54.6468
 30
0.0
 10
-143.4648
 20
54.6468
 30
0.0
 10
-143.4648
 20
54.6468
 30
0.0
 10
-143.4648
 20
54.6468
 30
0.0
 10
-145.9875
 20
50.8914
 30
0.0
 10
-145.9875
 20
50.8914
 30
0.0
 10
-145.9875
 20
50.8914
 30
0.0
 10
-145.9875
 20
50.8914
 30
0.0
 10
-148.5103
 20
54.6468
 30
0.0
 10
-148.5103
 20
54.6468
 30
0.0
 10
-148.5103
 20
54.6468
 30
0.0
 10
-148.5103
 20
54.6468
 30
0.0
 10
-145.9875
 20
58.4023
 30
0.0
 10
-145.9875
 20
58.4023
 30
0.0
  0
SPLINE
  5
4A
330
1F
100
AcDbEntity
  8
layer 1
 62
     7
100
AcDbSpline
210
0.0
220
0.0
230
1.0
 70
    11
 71
     3
 72
    20
 73
    16
 74
     0
 42
0.0000000001
 43
0.0000000001
 12
1.0
 22
0.0
 32
0.0
 13
1.0
 23
0.0
 33
0.0
 40
0.0
 40
0.0
 40
0.0
 40
0.0
 40
0.2
 40
0.2
 40
0.2
 40
0.2
 40
0.4
 40
0.4
 40
0.4
 40
0.4
 40
0.6
 40
0.6
 40
0.6
 40
0.6
 40
1.0
 40
1.0
 40
1.0
 40
1.0
 10
-151.8324
 20
49.7696
 30
0.0
 10
-151.8324
 20
49.7696
 30
0.0
 10
-149.3097
 20
46.0141
 30
0.0
 10
-149.3097
 20
46.0141
 30
0.0
 10
-149.3097
 20
46.0141
 30
0.0
 10
-149.3097
 20
46.0141
 30
0.0
 10
-151.8324
 20
42.2586
 30
0.0
 10
-151.8324
 20
42.2586
 30
0.0
 10
-151.8324
 20
42.2586
 30
0.0
 10
-151.8324
 20
42.2586
 30
0.0
 10
-154.3551
 20
46.0141
 30
0.0
 10
-154.3551
 20
46.0141
 30
0.0
 10
-154.3551
 20
46.0141
 30
0.0
 10
-154.3551
 20
46.0141
 30
0.0
 10
-151.8324
 20
49.7696
 30
0.0
 10
-151.8324
 20
49.7696
 30
0.0
  0
SPLINE
  5
4B
330
1F
100
AcDbEntity
  8
layer 1
 62
     7
100
AcDbSpline
210
0.0
220
0.0
230
1.0
 70
    11
 71
     3
 72
    20
 73
    16
 74
     0
 42
0.0000000001
 43
0.0000000001
 12
1.0
 22
0.0
 32
0.0
 13
1.0
 23
0.0
 33
0.0
 40
0.0
 40
0.0
 40
0.0
 40
0.0
 40
0.2
 40
0.2
 40
0.2
 40
0.2
 40
0.4
 40
0.4
 40
0.4
 40
0.4
 40
0.6
 40
0.6
 40
0.6
 40
0.6
 40
1.0
 40
1.0
 40
1.0
 40
1.0
 10
-140.3569
 20
49.7696
 30
0.0
 10
-140.3569
 20
49.7696
 30
0.0
 10
-137.8353
 20
46.0141
 30
0.0
 10
-137.8353
 20
46.0141
 30
0.0
 10
-137.8353
 20
46.0141
 30
0.0
 10
-137.8353
 20
46.0141
 30
0.0
 10
-140.3569
 20
42.2586
 30
0.0
 10
-140.3569
 20
42.2586
 30
0.0
 10
-140.3569
 20
42.2586
 30
0.0
 10
-140.3569
 20
42.2586
 30
0.0
 10
-142.8791
 20
46.0141
 30
0.0
 10
-142.8791
 20
46.0141
 30
0.0
 10
-142.8791
 20
46.0141
 30
0.0
 10
-142.8791
 20
46.0141
 30
0.0
 10
-140.3569
 20
49.7696
 30
0.0
 10
-140.3569
 20
49.7696
 30
0.0
  0
SPLINE
  5
4C
330
1F
100
AcDbEntity
  8
layer 1
 62
     7
100
AcDbSpline
210
0.0
220
0.0
230
1.0
 70
    11
 71
     3
 72
    20
 73
    16
 74
     0
 42
0.0000000001
 43
0.0000000001
 12
1.0
 22
0.0
 32
0.0
 13
1.0
 23
0.0
 33
0.0
 40
0.0
 40
0.0
 40
0.0
 40
0.0
 40
0.2
 40
0.2
 40
0.2
 40
0.2
 40
0.4
 40
0.4
 40
0.4
 40
0.4
 40
0.6
 40
0.6
 40
0.6
 40
0.6
 40
1.0
 40
1.0
 40
1.0
 40
1.0
 10
-145.9875
 20
41.1893
 30
0.0
 10
-145.9875
 20
41.1893
 30
0.0
 10
-143.4648
 20
37.4338
 30
0.0
 10
-143.4648
 20
37.4338
 30
0.0
 10
-143.4648
 20
37.4338
 30
0.0
 10
-143.4648
 20
37.4338
 30
0.0
 10
-145.9875
 20
33.6782
 30
0.0
 10
-145.9875
 20
33.6782
 30
0.0
 10
-145.9875
 20
33.6782
 30
0.0
 10
-145.9875
 20
33.6782
 30
0.0
 10
-148.5103
 20
37.4338
 30
0.0
 10
-148.5103
 20
37.4338
 30
0.0
 10
-148.5103
 20
37.4338
 30
0.0
 10
-148.5103
 20
37.4338
 30
0.0
 10
-145.9875
 20
41.1893
 30
0.0
 10
-145.9875
 20
41.1893
 30
0.0
  0
SPLINE
  5
4D
330
1F
100
AcDbEntity
  8
layer 1
 62
     7
100
AcDbSpline
210
0.0
220
0.0
230
1.0
 70
    11
 71
     3
 72
    16
 73
    12
 74
     0
 42
0.0000000001
 43
0.0000000001
 12
1.0
 22
0.0
 32
0.0
 13
1.0
 23
0.0
 33
0.0
 40
0.0
 40
0.0
 40
0.0
 40
0.0
 40
0.25
 40
0.25
 40
0.25
 40
0.25
 40
0.5
 40
0.5
 40
0.5
 40
0.5
 40
1.0
 40
1.0
 40
1.0
 40
1.0
 10
-167.1117
 20
72.2154
 30
0.0
 10
-171.6856
 20
72.5643
 30
0.0
 10
-178.811
 20
73.9699
 30
0.0
 10
-180.5548
 20
82.0012
 30
0.0
 10
-180.5548
 20
82.0012
 30
0.0
 10
-180.504
 20
78.6617
 30
0.0
 10
-180.5231
 20
63.1732
 30
0.0
 10
-180.5247
 20
59.8332
 30
0.0
 10
-180.5247
 20
59.8332
 30
0.0
 10
-178.3748
 20
65.6118
 30
0.0
 10
-174.0134
 20
69.7162
 30
0.0
 10
-167.1117
 20
72.2154
 30
0.0
  0
SPLINE
  5
4E
330
1F
100
AcDbEntity
  8
layer 1
 62
     7
100
AcDbSpline
210
0.0
220
0.0
230
1.0
 70
    11
 71
     3
 72
    20
 73
    16
 74
     0
 42
0.0000000001
 43
0.0000000001
 12
1.0
 22
0.0
 32
0.0
 13
1.0
 23
0.0
 33
0.0
 40
0.0
 40
0.0
 40
0.0
 40
0.0
 40
0.2
 40
0.2
 40
0.2
 40
0.2
 40
0.4
 40
0.4
 40
0.4
 40
0.4
 40
0.6
 40
0.6
 40
0.6
 40
0.6
 40
1.0
 40
1.0
 40
1.0
 40
1.0
 10
-175.8411
 20
40.8797
 30
0.0
 10
-177.6941
 20
42.1364
 30
0.0
 10
-178.9415
 20
43.499
 30
0.0
 10
-180.5548
 20
47.5546
 30
0.0
 10
-180.5548
 20
47.5546
 30
0.0
 10
-180.504
 20
44.2164
 30
0.0
 10
-180.5231
 20
34.4316
 30
0.0
 10
-180.5247
 20
31.0917
 30
0.0
 10
-180.5247
 20
31.0917
 30
0.0
 10
-179.4967
 20
33.4593
 30
0.0
 10
-177.3355
 20
34.8378
 30
0.0
 10
-175.0954
 20
34.4459
 30
0.0
 10
-175.0954
 20
34.4459
 30
0.0
 10
-177.5641
 20
35.4454
 30
0.0
 10
-177.6941
 20
39.9276
 30
0.0
 10
-175.8411
 20
40.8797
 30
0.0
  0
SPLINE
  5
4F
330
1F
100
AcDbEntity
  8
layer 1
 62
     7
100
AcDbSpline
210
0.0
220
0.0
230
1.0
 70
    11
 71
     3
 72
    24
 73
    20
 74
     0
 42
0.0000000001
 43
0.0000000001
 12
1.0
 22
0.0
 32
0.0
 13
1.0
 23
0.0
 33
0.0
 40
0.0
 40
0.0
 40
0.0
 40
0.0
 40
0.1666666666666667
 40
0.1666666666666667
 40
0.1666666666666667
 40
0.1666666666666667
 40
0.3333333333333333
 40
0.3333333333333333
 40
0.3333333333333333
 40
0.3333333333333333
 40
0.5
 40
0.5
 40
0.5
 40
0.5
 40
0.6666666666666666
 40
0.6666666666666666
 40
0.6666666666666666
 40
0.6666666666666666
 40
1.0
 40
1.0
 40
1.0
 40
1.0
 10
-178.4781
 20
28.5199
 30
0.0
 10
-175.6458
 20
31.3111
 30
0.0
 10
-173.3436
 20
27.2319
 30
0.0
 10
-175.3383
 20
25.5057
 30
0.0
 10
-175.3383
 20
25.5057
 30
0.0
 10
-176.8774
 20
24.171
 30
0.0
 10
-179.8489
 20
24.9264
 30
0.0
 10
-180.5548
 20
27.933
 30
0.0
 10
-180.5548
 20
27.933
 30
0.0
 10
-180.5548
 20
27.933
 30
0.0
 10
-180.5247
 20
12.5935
 30
0.0
 10
-180.5247
 20
12.5935
 30
0.0
 10
-180.5247
 20
12.5935
 30
0.0
 10
-180.5247
 20
12.5935
 30
0.0
 10
-168.0938
 20
31.292
 30
0.0
 10
-168.0938
 20
31.292
 30
0.0
 10
-168.0938
 20
31.292
 30
0.0
 10
-171.2096
 20
33.6735
 30
0.0
 10
-179.5093
 20
33.7481
 30
0.0
 10
-178.4781
 20
28.5199
 30
0.0
  0
SPLINE
  5
50
330
1F
100
AcDbEntity
  8
layer 1
 62
     7
100
AcDbSpline
210
0.0
220
0.0
230
1.0
 70
    11
 71
     3
 72
    24
 73
    20
 74
     0
 42
0.0000000001
 43
0.0000000001
 12
1.0
 22
0.0
 32
0.0
 13
1.0
 23
0.0
 33
0.0
 40
0.0
 40
0.0
 40
0.0
 40
0.0
 40
0.1666666666666667
 40
0.1666666666666667
 40
0.1666666666666667
 40
0.1666666666666667
 40
0.3333333333333333
 40
0.3333333333333333
 40
0.3333333333333333
 40
0.3333333333333333
 40
0.5
 40
0.5
 40
0.5
 40
0.5
 40
0.6666666666666666
 40
0.6666666666666666
 40
0.6666666666666666
 40
0.6666666666666666
 40
1.0
 40
1.0
 40
1.0
 40
1.0
 10
-169.6405
 20
14.0217
 30
0.0
 10
-167.9208
 20
11.9351
 30
0.0
 10
-164.5874
 20
13.9249
 30
0.0
 10
-165.2632
 20
16.4745
 30
0.0
 10
-165.2632
 20
16.4745
 30
0.0
 10
-165.7851
 20
18.4435
 30
0.0
 10
-168.6649
 20
19.4923
 30
0.0
 10
-170.9416
 20
17.4042
 30
0.0
 10
-170.9416
 20
17.4042
 30
0.0
 10
-170.9416
 20
17.4042
 30
0.0
 10
-163.8826
 20
27.9061
 30
0.0
 10
-163.8826
 20
27.9061
 30
0.0
 10
-163.8826
 20
27.9061
 30
0.0
 10
-159.6687
 20
24.6503
 30
0.0
 10
-159.4404
 20
18.9289
 30
0.0
 10
-160.2702
 20
15.5098
 30
0.0
 10
-160.2702
 20
15.5098
 30
0.0
 10
-162.0979
 20
7.9798
 30
0.0
 10
-169.812
 20
11.0359
 30
0.0
 10
-169.6405
 20
14.0217
 30
0.0
  0
SPLINE
  5
51
330
1F
100
AcDbEntity
  8
layer 1
 62
     7
100
AcDbSpline
210
0.0
220
0.0
230
1.0
 70
    11
 71
     3
 72
    32
 73
    28
 74
     0
 42
0.0000000001
 43
0.0000000001
 12
1.0
 22
0.0
 32
0.0
 13
1.0
 23
0.0
 33
0.0
 40
0.0
 40
0.0
 40
0.0
 40
0.0
 40
0.125
 40
0.125
 40
0.125
 40
0.125
 40
0.25
 40
0.25
 40
0.25
 40
0.25
 40
0.375
 40
0.375
 40
0.375
 40
0.375
 40
0.5
 40
0.5
 40
0.5
 40
0.5
 40
0.625
 40
0.625
 40
0.625
 40
0.625
 40
0.75
 40
0.75
 40
0.75
 40
0.75
 40
1.0
 40
1.0
 40
1.0
 40
1.0
 10
-146.005
 20
21.55
 30
0.0
 10
-152.2309
 20
21.3643
 30
0.0
 10
-155.5721
 20
18.2231
 30
0.0
 10
-157.7394
 20
14.6898
 30
0.0
 10
-157.7394
 20
14.6898
 30
0.0
 10
-156.2653
 20
20.3156
 30
0.0
 10
-156.9985
 20
25.4801
 30
0.0
 10
-162.7198
 20
30.0751
 30
0.0
 10
-162.7198
 20
30.0751
 30
0.0
 10
-162.7198
 20
30.0751
 30
0.0
 10
-159.8892
 20
34.5081
 30
0.0
 10
-159.8892
 20
34.5081
 30
0.0
 10
-159.8892
 20
34.5081
 30
0.0
 10
-159.8892
 20
34.5081
 30
0.0
 10
-155.2263
 20
27.3347
 30
0.0
 10
-155.2263
 20
27.3347
 30
0.0
 10
-155.2263
 20
27.3347
 30
0.0
 10
-155.2263
 20
27.3347
 30
0.0
 10
-150.6618
 20
34.7237
 30
0.0
 10
-150.6618
 20
34.7237
 30
0.0
 10
-150.6618
 20
34.7237
 30
0.0
 10
-150.6618
 20
34.7237
 30
0.0
 10
-146.0319
 20
27.1129
 30
0.0
 10
-146.0319
 20
27.1129
 30
0.0
 10
-146.0319
 20
27.1129
 30
0.0
 10
-146.0319
 20
27.1129
 30
0.0
 10
-146.005
 20
21.55
 30
0.0
 10
-146.005
 20
21.55
 30
0.0
  0
SPLINE
  5
52
330
1F
100
AcDbEntity
  8
layer 1
 62
     7
100
AcDbSpline
210
0.0
220
0.0
230
1.0
 70
    11
 71
     3
 72
    16
 73
    12
 74
     0
 42
0.0000000001
 43
0.0000000001
 12
1.0
 22
0.0
 32
0.0
 13
1.0
 23
0.0
 33
0.0
 40
0.0
 40
0.0
 40
0.0
 40
0.0
 40
0.25
 40
0.25
 40
0.25
 40
0.25
 40
0.5
 40
0.5
 40
0.5
 40
0.5
 40
1.0
 40
1.0
 40
1.0
 40
1.0
 10
-137.8276
 20
10.8612
 30
0.0
 10
-139.3682
 20
12.2718
 30
0.0
 10
-141.6197
 20
12.1146
 30
0.0
 10
-142.8605
 20
11.3148
 30
0.0
 10
-142.8605
 20
11.3148
 30
0.0
 10
-142.4572
 20
13.314
 30
0.0
 10
-143.2143
 20
15.2527
 30
0.0
 10
-144.4104
 20
16.9265
 30
0.0
 10
-144.4104
 20
16.9265
 30
0.0
 10
-141.8244
 20
16.4286
 30
0.0
 10
-138.2813
 20
13.5886
 30
0.0
 10
-137.8276
 20
10.8612
 30
0.0
  0
SPLINE
  5
53
330
1F
100
AcDbEntity
  8
layer 1
 62
     7
100
AcDbSpline
210
0.0
220
0.0
230
1.0
 70
    11
 71
     3
 72
    16
 73
    12
 74
     0
 42
0.0000000001
 43
0.0000000001
 12
1.0
 22
0.0
 32
0.0
 13
1.0
 23
0.0
 33
0.0
 40
0.0
 40
0.0
 40
0.0
 40
0.0
 40
0.25
 40
0.25
 40
0.25
 40
0.25
 40
0.5
 40
0.5
 40
0.5
 40
0.5
 40
1.0
 40
1.0
 40
1.0
 40
1.0
 10
-154.5664
 20
10.8612
 30
0.0
 10
-153.0258
 20
12.2718
 30
0.0
 10
-150.7743
 20
12.1146
 30
0.0
 10
-149.5335
 20
11.3148
 30
0.0
 10
-149.5335
 20
11.3148
 30
0.0
 10
-149.9364
 20
13.314
 30
0.0
 10
-149.1797
 20
15.2527
 30
0.0
 10
-147.9835
 20
16.9265
 30
0.0
 10
-147.9835
 20
16.9265
 30
0.0
 10
-150.5696
 20
16.4286
 30
0.0
 10
-154.1126
 20
13.5886
 30
0.0
 10
-154.5664
 20
10.8612
 30
0.0
  0
SPLINE
  5
54
330
1F
100
AcDbEntity
  8
layer 1
 62
     7
100
AcDbSpline
210
0.0
220
0.0
230
1.0
 70
    11
 71
     3
 72
    16
 73
    12
 74
     0
 42
0.0000000001
 43
0.0000000001
 12
1.0
 22
0.0
 32
0.0
 13
1.0
 23
0.0
 33
0.0
 40
0.0
 40
0.0
 40
0.0
 40
0.0
 40
0.25
 40
0.25
 40
0.25
 40
0.25
 40
0.5
 40
0.5
 40
0.5
 40
0.5
 40
1.0
 40
1.0
 40
1.0
 40
1.0
 10
-137.8276
 20
6.0965
 30
0.0
 10
-139.3682
 20
4.6846
 30
0.0
 10
-141.6197
 20
4.843
 30
0.0
 10
-142.8605
 20
5.6411
 30
0.0
 10
-142.8605
 20
5.6411
 30
0.0
 10
-142.4572
 20
3.6435
 30
0.0
 10
-143.2143
 20
1.7049
 30
0.0
 10
-144.4104
 20
0.031
 30
0.0
 10
-144.4104
 20
0.031
 30
0.0
 10
-141.8244
 20
0.529
 30
0.0
 10
-138.2813
 20
3.3694
 30
0.0
 10
-137.8276
 20
6.0965
 30
0.0
  0
SPLINE
  5
55
330
1F
100
AcDbEntity
  8
layer 1
 62
     7
100
AcDbSpline
210
0.0
220
0.0
230
1.0
 70
    11
 71
     3
 72
    16
 73
    12
 74
     0
 42
0.0000000001
 43
0.0000000001
 12
1.0
 22
0.0
 32
0.0
 13
1.0
 23
0.0
 33
0.0
 40
0.0
 40
0.0
 40
0.0
 40
0.0
 40
0.25
 40
0.25
 40
0.25
 40
0.25
 40
0.5
 40
0.5
 40
0.5
 40
0.5
 40
1.0
 40
1.0
 40
1.0
 40
1.0
 10
-154.5664
 20
6.0965
 30
0.0
 10
-153.0258
 20
4.6846
 30
0.0
 10
-150.7743
 20
4.843
 30
0.0
 10
-149.5335
 20
5.6411
 30
0.0
 10
-149.5335
 20
5.6411
 30
0.0
 10
-149.9364
 20
3.6435
 30
0.0
 10
-149.1797
 20
1.7049
 30
0.0
 10
-147.9835
 20
0.031
 30
0.0
 10
-147.9835
 20
0.031
 30
0.0
 10
-150.5696
 20
0.529
 30
0.0
 10
-154.1126
 20
3.3694
 30
0.0
 10
-154.5664
 20
6.0965
 30
0.0
  0
SPLINE
  5
56
330
1F
100
AcDbEntity
  8
layer 1
 62
     7
100
AcDbSpline
210
0.0
220
0.0
230
1.0
 70
    11
 71
     3
 72
    20
 73
    16
 74
     0
 42
0.0000000001
 43
0.0000000001
 12
1.0
 22
0.0
 32
0.0
 13
1.0
 23
0.0
 33
0.0
 40
0.0
 40
0.0
 40
0.0
 40
0.0
 40
0.2
 40
0.2
 40
0.2
 40
0.2
 40
0.4
 40
0.4
 40
0.4
 40
0.4
 40
0.6
 40
0.6
 40
0.6
 40
0.6
 40
1.0
 40
1.0
 40
1.0
 40
1.0
 10
-143.7756
 20
8.3275
 30
0.0
 10
-143.7756
 20
7.0916
 30
0.0
 10
-144.7768
 20
6.0902
 30
0.0
 10
-146.0128
 20
6.0902
 30
0.0
 10
-146.0128
 20
6.0902
 30
0.0
 10
-147.2487
 20
6.0904
 30
0.0
 10
-148.25
 20
7.0915
 30
0.0
 10
-148.25
 20
8.3274
 30
0.0
 10
-148.25
 20
8.3274
 30
0.0
 10
-148.25
 20
9.5635
 30
0.0
 10
-147.2487
 20
10.5643
 30
0.0
 10
-146.0128
 20
10.5643
 30
0.0
 10
-146.0128
 20
10.5643
 30
0.0
 10
-144.7768
 20
10.5643
 30
0.0
 10
-143.7756
 20
9.5635
 30
0.0
 10
-143.7756
 20
8.3275
 30
0.0
  0
SPLINE
  5
57
330
1F
100
AcDbEntity
  8
layer 1
 62
     7
100
AcDbSpline
210
0.0
220
0.0
230
1.0
 70
    11
 71
     3
 72
    20
 73
    16
 74
     0
 42
0.0000000001
 43
0.0000000001
 12
1.0
 22
0.0
 32
0.0
 13
1.0
 23
0.0
 33
0.0
 40
0.0
 40
0.0
 40
0.0
 40
0.0
 40
0.2
 40
0.2
 40
0.2
 40
0.2
 40
0.4
 40
0.4
 40
0.4
 40
0.4
 40
0.6
 40
0.6
 40
0.6
 40
0.6
 40
1.0
 40
1.0
 40
1.0
 40
1.0
 10
-172.6077
 20
15.0801
 30
0.0
 10
-174.6352
 20
11.756
 30
0.0
 10
-175.1746
 20
10.9404
 30
0.0
 10
-176.8293
 20
8.4083
 30
0.0
 10
-176.8293
 20
8.4083
 30
0.0
 10
-175.1746
 20
5.8759
 30
0.0
 10
-174.6352
 20
5.0607
 30
0.0
 10
-172.6077
 20
1.7365
 30
0.0
 10
-172.6077
 20
1.7365
 30
0.0
 10
-173.0536
 20
4.5781
 30
0.0
 10
-171.0605
 20
7.6784
 30
0.0
 10
-168.0618
 20
8.4083
 30
0.0
 10
-168.0618
 20
8.4083
 30
0.0
 10
-171.0605
 20
9.1383
 30
0.0
 10
-173.0536
 20
12.2381
 30
0.0
 10
-172.6077
 20
15.0801
 30
0.0
  0
SPLINE
  5
58
330
1F
100
AcDbEntity
  8
layer 1
 62
     7
100
AcDbSpline
210
0.0
220
0.0
230
1.0
 70
    11
 71
     3
 72
    16
 73
    12
 74
     0
 42
0.0000000001
 43
0.0000000001
 12
1.0
 22
0.0
 32
0.0
 13
1.0
 23
0.0
 33
0.0
 40
0.0
 40
0.0
 40
0.0
 40
0.0
 40
0.25
 40
0.25
 40
0.25
 40
0.25
 40
0.5
 40
0.5
 40
0.5
 40
0.5
 40
1.0
 40
1.0
 40
1.0
 40
1.0
 10
-158.6979
 20
12.4112
 30
0.0
 10
-159.245
 20
9.725
 30
0.0
 10
-159.1532
 20
6.5598
 30
0.0
 10
-158.6979
 20
4.4051
 30
0.0
 10
-158.6979
 20
4.4051
 30
0.0
 10
-159.8149
 20
7.2581
 30
0.0
 10
-160.8888
 20
7.9164
 30
0.0
 10
-162.9513
 20
8.4083
 30
0.0
 10
-162.9513
 20
8.4083
 30
0.0
 10
-160.8888
 20
8.9002
 30
0.0
 10
-159.8149
 20
9.5586
 30
0.0
 10
-158.6979
 20
12.4112
 30
0.0
  0
SPLINE
  5
59
330
1F
100
AcDbEntity
  8
layer 1
 62
     7
100
AcDbSpline
210
0.0
220
0.0
230
1.0
 70
    11
 71
     3
 72
    60
 73
    56
 74
     0
 42
0.0000000001
 43
0.0000000001
 12
1.0
 22
0.0
 32
0.0
 13
1.0
 23
0.0
 33
0.0
 40
0.0
 40
0.0
 40
0.0
 40
0.0
 40
0.0666666666666667
 40
0.0666666666666667
 40
0.0666666666666667
 40
0.0666666666666667
 40
0.1333333333333333
 40
0.1333333333333333
 40
0.1333333333333333
 40
0.1333333333333333
 40
0.2
 40
0.2
 40
0.2
 40
0.2
 40
0.2666666666666667
 40
0.2666666666666667
 40
0.2666666666666667
 40
0.2666666666666667
 40
0.3333333333333333
 40
0.3333333333333333
 40
0.3333333333333333
 40
0.3333333333333333
 40
0.4
 40
0.4
 40
0.4
 40
0.4
 40
0.4666666666666667
 40
0.4666666666666667
 40
0.4666666666666667
 40
0.4666666666666667
 40
0.5333333333333333
 40
0.5333333333333333
 40
0.5333333333333333
 40
0.5333333333333333
 40
0.6
 40
0.6
 40
0.6
 40
0.6
 40
0.6666666666666666
 40
0.6666666666666666
 40
0.6666666666666666
 40
0.6666666666666666
 40
0.7333333333333333
 40
0.7333333333333333
 40
0.7333333333333333
 40
0.7333333333333333
 40
0.8
 40
0.8
 40
0.8
 40
0.8
 40
0.8666666666666667
 40
0.8666666666666667
 40
0.8666666666666667
 40
0.8666666666666667
 40
1.0
 40
1.0
 40
1.0
 40
1.0
 10
-153.9712
 20
53.0064
 30
0.0
 10
-153.9712
 20
53.0064
 30
0.0
 10
-164.7397
 20
69.2974
 30
0.0
 10
-164.7397
 20
69.2974
 30
0.0
 10
-164.7397
 20
69.2974
 30
0.0
 10
-167.0179
 20
67.8535
 30
0.0
 10
-167.5748
 20
64.4741
 30
0.0
 10
-167.6971
 20
62.4989
 30
0.0
 10
-167.6971
 20
62.4989
 30
0.0
 10
-169.2994
 20
62.9652
 30
0.0
 10
-170.905
 20
63.63
 30
0.0
 10
-170.0707
 20
69.0021
 30
0.0
 10
-170.0707
 20
69.0021
 30
0.0
 10
-175.738
 20
65.3816
 30
0.0
 10
-180.534
 20
56.1367
 30
0.0
 10
-177.2071
 20
47.9973
 30
0.0
 10
-177.2071
 20
47.9973
 30
0.0
 10
-175.6207
 20
45.6822
 30
0.0
 10
-172.1032
 20
40.9146
 30
0.0
 10
-166.7673
 20
44.6558
 30
0.0
 10
-166.7673
 20
44.6558
 30
0.0
 10
-163.7145
 20
46.7963
 30
0.0
 10
-165.8709
 20
52.2398
 30
0.0
 10
-169.9026
 20
50.0359
 30
0.0
 10
-169.9026
 20
50.0359
 30
0.0
 10
-170.3339
 20
55.2671
 30
0.0
 10
-164.5459
 20
55.3097
 30
0.0
 10
-162.2914
 20
52.1127
 30
0.0
 10
-162.2914
 20
52.1127
 30
0.0
 10
-156.1102
 20
41.9077
 30
0.0
 10
-168.5869
 20
37.1067
 30
0.0
 10
-175.0589
 20
40.4592
 30
0.0
 10
-175.0589
 20
40.4592
 30
0.0
 10
-173.9354
 20
35.2473
 30
0.0
 10
-170.2783
 20
34.6823
 30
0.0
 10
-166.8973
 20
33.5019
 30
0.0
 10
-166.8973
 20
33.5019
 30
0.0
 10
-166.8973
 20
33.5019
 30
0.0
 10
-160.5573
 20
43.0186
 30
0.0
 10
-160.5573
 20
43.0186
 30
0.0
 10
-160.5573
 20
43.0186
 30
0.0
 10
-160.5573
 20
43.0186
 30
0.0
 10
-155.977
 20
36.1961
 30
0.0
 10
-155.977
 20
36.1961
 30
0.0
 10
-155.977
 20
36.1961
 30
0.0
 10
-155.977
 20
36.1961
 30
0.0
 10
-153.9664
 20
39.2325
 30
0.0
 10
-153.9664
 20
39.2325
 30
0.0
 10
-153.9664
 20
39.2325
 30
0.0
 10
-153.9664
 20
39.2325
 30
0.0
 10
-158.6755
 20
46.2712
 30
0.0
 10
-158.6755
 20
46.2712
 30
0.0
 10
-158.6755
 20
46.2712
 30
0.0
 10
-158.6755
 20
46.2712
 30
0.0
 10
-153.9712
 20
53.0064
 30
0.0
 10
-153.9712
 20
53.0064
 30
0.0
  0
SPLINE
  5
5A
330
1F
100
AcDbEntity
  8
layer 1
 62
     7
100
AcDbSpline
210
0.0
220
0.0
230
1.0
 70
    11
 71
     3
 72
    24
 73
    20
 74
     0
 42
0.0000000001
 43
0.0000000001
 12
1.0
 22
0.0
 32
0.0
 13
1.0
 23
0.0
 33
0.0
 40
0.0
 40
0.0
 40
0.0
 40
0.0
 40
0.1666666666666667
 40
0.1666666666666667
 40
0.1666666666666667
 40
0.1666666666666667
 40
0.3333333333333333
 40
0.3333333333333333
 40
0.3333333333333333
 40
0.3333333333333333
 40
0.5
 40
0.5
 40
0.5
 40
0.5
 40
0.6666666666666666
 40
0.6666666666666666
 40
0.6666666666666666
 40
0.6666666666666666
 40
1.0
 40
1.0
 40
1.0
 40
1.0
 10
-143.5315
 20
115.6342
 30
0.0
 10
-143.5315
 20
115.6342
 30
0.0
 10
-140.8341
 20
115.585
 30
0.0
 10
-140.8341
 20
115.585
 30
0.0
 10
-140.8341
 20
115.585
 30
0.0
 10
-140.7833
 20
121.4048
 30
0.0
 10
-135.4
 20
125.0411
 30
0.0
 10
-132.7744
 20
125.6743
 30
0.0
 10
-132.7744
 20
125.6743
 30
0.0
 10
-136.9819
 20
125.6568
 30
0.0
 10
-138.9861
 20
125.6568
 30
0.0
 10
-142.1956
 20
125.652
 30
0.0
 10
-142.1956
 20
125.652
 30
0.0
 10
-139.5506
 20
124.6541
 30
0.0
 10
-140.9646
 20
122.022
 30
0.0
 10
-143.5283
 20
122.6614
 30
0.0
 10
-143.5283
 20
122.6614
 30
0.0
 10
-143.5283
 20
122.6614
 30
0.0
 10
-143.5315
 20
115.6342
 30
0.0
 10
-143.5315
 20
115.6342
 30
0.0
  0
SPLINE
  5
5B
330
1F
100
AcDbEntity
  8
layer 1
 62
     7
100
AcDbSpline
210
0.0
220
0.0
230
1.0
 70
    11
 71
     3
 72
    16
 73
    12
 74
     0
 42
0.0000000001
 43
0.0000000001
 12
1.0
 22
0.0
 32
0.0
 13
1.0
 23
0.0
 33
0.0
 40
0.0
 40
0.0
 40
0.0
 40
0.0
 40
0.25
 40
0.25
 40
0.25
 40
0.25
 40
0.5
 40
0.5
 40
0.5
 40
0.5
 40
1.0
 40
1.0
 40
1.0
 40
1.0
 10
-111.5789
 20
112.8658
 30
0.0
 10
-113.0703
 20
119.2406
 30
0.0
 10
-115.7246
 20
123.0849
 30
0.0
 10
-123.5877
 20
125.6743
 30
0.0
 10
-123.5877
 20
125.6743
 30
0.0
 10
-119.3786
 20
125.6568
 30
0.0
 10
-114.7599
 20
125.6568
 30
0.0
 10
-111.5488
 20
125.652
 30
0.0
 10
-111.5488
 20
125.652
 30
0.0
 10
-111.5996
 20
122.3123
 30
0.0
 10
-111.5805
 20
116.2053
 30
0.0
 10
-111.5789
 20
112.8658
 30
0.0
  0
SPLINE
  5
5C
330
1F
100
AcDbEntity
  8
layer 1
 62
     7
100
AcDbSpline
210
0.0
220
0.0
230
1.0
 70
    11
 71
     3
 72
    24
 73
    20
 74
     0
 42
0.0000000001
 43
0.0000000001
 12
1.0
 22
0.0
 32
0.0
 13
1.0
 23
0.0
 33
0.0
 40
0.0
 40
0.0
 40
0.0
 40
0.0
 40
0.1666666666666667
 40
0.1666666666666667
 40
0.1666666666666667
 40
0.1666666666666667
 40
0.3333333333333333
 40
0.3333333333333333
 40
0.3333333333333333
 40
0.3333333333333333
 40
0.5
 40
0.5
 40
0.5
 40
0.5
 40
0.6666666666666666
 40
0.6666666666666666
 40
0.6666666666666666
 40
0.6666666666666666
 40
1.0
 40
1.0
 40
1.0
 40
1.0
 10
-122.9549
 20
108.6943
 30
0.0
 10
-123.3213
 20
109.9953
 30
0.0
 10
-125.1807
 20
110.7186
 30
0.0
 10
-126.1803
 20
109.57
 30
0.0
 10
-126.1803
 20
109.57
 30
0.0
 10
-124.8651
 20
114.7029
 30
0.0
 10
-131.4971
 20
117.5857
 30
0.0
 10
-134.9621
 20
113.1623
 30
0.0
 10
-134.9621
 20
113.1623
 30
0.0
 10
-138.1862
 20
122.1313
 30
0.0
 10
-124.4289
 20
123.3815
 30
0.0
 10
-120.2323
 20
117.689
 30
0.0
 10
-120.2323
 20
117.689
 30
0.0
 10
-118.0333
 20
115.2914
 30
0.0
 10
-117.1572
 20
105.9478
 30
0.0
 10
-122.6596
 20
104.5246
 30
0.0
 10
-122.6596
 20
104.5246
 30
0.0
 10
-126.6802
 20
103.5713
 30
0.0
 10
-127.3529
 20
108.8783
 30
0.0
 10
-122.9549
 20
108.6943
 30
0.0
  0
SPLINE
  5
5D
330
1F
100
AcDbEntity
  8
layer 1
 62
     7
100
AcDbSpline
210
0.0
220
0.0
230
1.0
 70
    11
 71
     3
 72
    52
 73
    48
 74
     0
 42
0.0000000001
 43
0.0000000001
 12
1.0
 22
0.0
 32
0.0
 13
1.0
 23
0.0
 33
0.0
 40
0.0
 40
0.0
 40
0.0
 40
0.0
 40
0.0769230769230769
 40
0.0769230769230769
 40
0.0769230769230769
 40
0.0769230769230769
 40
0.1538461538461539
 40
0.1538461538461539
 40
0.1538461538461539
 40
0.1538461538461539
 40
0.2307692307692308
 40
0.2307692307692308
 40
0.2307692307692308
 40
0.2307692307692308
 40
0.3076923076923077
 40
0.3076923076923077
 40
0.3076923076923077
 40
0.3076923076923077
 40
0.3846153846153846
 40
0.3846153846153846
 40
0.3846153846153846
 40
0.3846153846153846
 40
0.4615384615384616
 40
0.4615384615384616
 40
0.4615384615384616
 40
0.4615384615384616
 40
0.5384615384615384
 40
0.5384615384615384
 40
0.5384615384615384
 40
0.5384615384615384
 40
0.6153846153846154
 40
0.6153846153846154
 40
0.6153846153846154
 40
0.6153846153846154
 40
0.6923076923076923
 40
0.6923076923076923
 40
0.6923076923076923
 40
0.6923076923076923
 40
0.7692307692307693
 40
0.7692307692307693
 40
0.7692307692307693
 40
0.7692307692307693
 40
0.8461538461538461
 40
0.8461538461538461
 40
0.8461538461538461
 40
0.8461538461538461
 40
1.0
 40
1.0
 40
1.0
 40
1.0
 10
-138.1973
 20
100.9597
 30
0.0
 10
-137.6928
 20
97.255
 30
0.0
 10
-138.1481
 20
97.5993
 30
0.0
 10
-139.1477
 20
96.4507
 30
0.0
 10
-139.1477
 20
96.4507
 30
0.0
 10
-139.9186
 20
99.6112
 30
0.0
 10
-142.8714
 20
98.8162
 30
0.0
 10
-144.2898
 20
104.0997
 30
0.0
 10
-144.2898
 20
104.0997
 30
0.0
 10
-144.8215
 20
93.6169
 30
0.0
 10
-138.4576
 20
89.0666
 30
0.0
 10
-135.7777
 20
88.9841
 30
0.0
 10
-135.7777
 20
88.9841
 30
0.0
 10
-136.733
 20
90.1502
 30
0.0
 10
-136.2363
 20
91.6701
 30
0.0
 10
-135.205
 20
92.238
 30
0.0
 10
-135.205
 20
92.238
 30
0.0
 10
-134.2305
 20
92.7745
 30
0.0
 10
-132.7631
 20
92.4333
 30
0.0
 10
-132.1397
 20
90.9499
 30
0.0
 10
-132.1397
 20
90.9499
 30
0.0
 10
-132.1397
 20
90.9499
 30
0.0
 10
-132.1985
 20
94.5373
 30
0.0
 10
-132.1985
 20
94.5373
 30
0.0
 10
-132.1985
 20
94.5373
 30
0.0
 10
-121.2287
 20
93.831
 30
0.0
 10
-115.2612
 20
104.4388
 30
0.0
 10
-116.6004
 20
108.5912
 30
0.0
 10
-116.6004
 20
108.5912
 30
0.0
 10
-117.6697
 20
100.6425
 30
0.0
 10
-122.3631
 20
101.6038
 30
0.0
 10
-125.1873
 20
99.3207
 30
0.0
 10
-125.1873
 20
99.3207
 30
0.0
 10
-125.6441
 20
100.5583
 30
0.0
 10
-125.1238
 20
101.5498
 30
0.0
 10
-124.1543
 20
102.3337
 30
0.0
 10
-124.1543
 20
102.3337
 30
0.0
 10
-127.0576
 20
101.4231
 30
0.0
 10
-129.2392
 20
103.6537
 30
0.0
 10
-128.703
 20
106.4714
 30
0.0
 10
-128.703
 20
106.4714
 30
0.0
 10
-129.636
 20
105.8463
 30
0.0
 10
-130.2229
 20
105.6404
 30
0.0
 10
-131.5254
 20
105.5099
 30
0.0
 10
-131.5254
 20
105.5099
 30
0.0
 10
-127.026
 20
103.3635
 30
0.0
 10
-132.2095
 20
96.7554
 30
0.0
 10
-138.1973
 20
100.9597
 30
0.0
  0
SPLINE
  5
5E
330
1F
100
AcDbEntity
  8
layer 1
 62
     7
100
AcDbSpline
210
0.0
220
0.0
230
1.0
 70
    11
 71
     3
 72
    20
 73
    16
 74
     0
 42
0.0000000001
 43
0.0000000001
 12
1.0
 22
0.0
 32
0.0
 13
1.0
 23
0.0
 33
0.0
 40
0.0
 40
0.0
 40
0.0
 40
0.0
 40
0.2
 40
0.2
 40
0.2
 40
0.2
 40
0.4
 40
0.4
 40
0.4
 40
0.4
 40
0.6
 40
0.6
 40
0.6
 40
0.6
 40
1.0
 40
1.0
 40
1.0
 40
1.0
 10
-143.3694
 20
112.9148
 30
0.0
 10
-143.3694
 20
112.9148
 30
0.0
 10
-140.6741
 20
112.964
 30
0.0
 10
-140.6741
 20
112.964
 30
0.0
 10
-140.6741
 20
112.964
 30
0.0
 10
-139.3889
 20
107.3044
 30
0.0
 10
-136.2586
 20
105.9734
 30
0.0
 10
-133.2566
 20
105.4466
 30
0.0
 10
-133.2566
 20
105.4466
 30
0.0
 10
-135.3731
 20
105.2513
 30
0.0
 10
-135.7144
 20
102.3544
 30
0.0
 10
-133.5629
 20
101.6103
 30
0.0
 10
-133.5629
 20
101.6103
 30
0.0
 10
-140.3569
 20
100.9722
 30
0.0
 10
-144.2788
 20
106.1907
 30
0.0
 10
-143.3694
 20
112.9148
 30
0.0
  0
SPLINE
  5
5F
330
1F
100
AcDbEntity
  8
layer 1
 62
     7
100
AcDbSpline
210
0.0
220
0.0
230
1.0
 70
    11
 71
     3
 72
    32
 73
    28
 74
     0
 42
0.0000000001
 43
0.0000000001
 12
1.0
 22
0.0
 32
0.0
 13
1.0
 23
0.0
 33
0.0
 40
0.0
 40
0.0
 40
0.0
 40
0.0
 40
0.125
 40
0.125
 40
0.125
 40
0.125
 40
0.25
 40
0.25
 40
0.25
 40
0.25
 40
0.375
 40
0.375
 40
0.375
 40
0.375
 40
0.5
 40
0.5
 40
0.5
 40
0.5
 40
0.625
 40
0.625
 40
0.625
 40
0.625
 40
0.75
 40
0.75
 40
0.75
 40
0.75
 40
1.0
 40
1.0
 40
1.0
 40
1.0
 10
-126.4975
 20
75.1885
 30
0.0
 10
-126.4975
 20
75.1885
 30
0.0
 10
-126.5454
 20
90.2185
 30
0.0
 10
-126.5454
 20
90.2185
 30
0.0
 10
-126.5454
 20
90.2185
 30
0.0
 10
-120.727
 20
90.6989
 30
0.0
 10
-113.0671
 20
97.0469
 30
0.0
 10
-111.5756
 20
105.7861
 30
0.0
 10
-111.5756
 20
105.7861
 30
0.0
 10
-111.5756
 20
105.7861
 30
0.0
 10
-111.5996
 20
93.9515
 30
0.0
 10
-111.5996
 20
93.9515
 30
0.0
 10
-111.5996
 20
93.9515
 30
0.0
 10
-115.0536
 20
93.7977
 30
0.0
 10
-117.0382
 20
91.3513
 30
0.0
 10
-116.1865
 20
88.1908
 30
0.0
 10
-116.1865
 20
88.1908
 30
0.0
 10
-120.34
 20
91.1848
 30
0.0
 10
-122.5946
 20
86.9959
 30
0.0
 10
-121.4411
 20
85.1316
 30
0.0
 10
-121.4411
 20
85.1316
 30
0.0
 10
-120.1799
 20
83.0914
 30
0.0
 10
-116.786
 20
83.2071
 30
0.0
 10
-116.7652
 20
86.4232
 30
0.0
 10
-116.7652
 20
86.4232
 30
0.0
 10
-111.5707
 20
82.5105
 30
0.0
 10
-116.7307
 20
73.3717
 30
0.0
 10
-126.4975
 20
75.1885
 30
0.0
  0
SPLINE
  5
60
330
1F
100
AcDbEntity
  8
layer 1
 62
     7
100
AcDbSpline
210
0.0
220
0.0
230
1.0
 70
    11
 71
     3
 72
    24
 73
    20
 74
     0
 42
0.0000000001
 43
0.0000000001
 12
1.0
 22
0.0
 32
0.0
 13
1.0
 23
0.0
 33
0.0
 40
0.0
 40
0.0
 40
0.0
 40
0.0
 40
0.1666666666666667
 40
0.1666666666666667
 40
0.1666666666666667
 40
0.1666666666666667
 40
0.3333333333333333
 40
0.3333333333333333
 40
0.3333333333333333
 40
0.3333333333333333
 40
0.5
 40
0.5
 40
0.5
 40
0.5
 40
0.6666666666666666
 40
0.6666666666666666
 40
0.6666666666666666
 40
0.6666666666666666
 40
1.0
 40
1.0
 40
1.0
 40
1.0
 10
-132.0555
 20
76.0991
 30
0.0
 10
-132.0555
 20
76.0991
 30
0.0
 10
-132.008
 20
88.7697
 30
0.0
 10
-132.008
 20
88.7697
 30
0.0
 10
-132.008
 20
88.7697
 30
0.0
 10
-133.6071
 20
85.5998
 30
0.0
 10
-137.6786
 20
87.0942
 30
0.0
 10
-139.6855
 20
89.0491
 30
0.0
 10
-139.6855
 20
89.0491
 30
0.0
 10
-139.5538
 20
88.1272
 30
0.0
 10
-139.1222
 20
87.532
 30
0.0
 10
-139.7935
 20
85.9362
 30
0.0
 10
-139.7935
 20
85.9362
 30
0.0
 10
-141.1518
 20
86.7278
 30
0.0
 10
-142.6794
 20
88.4634
 30
0.0
 10
-143.7711
 20
91.8398
 30
0.0
 10
-143.7711
 20
91.8398
 30
0.0
 10
-144.1948
 20
87.3371
 30
0.0
 10
-139.1412
 20
79.3769
 30
0.0
 10
-132.0555
 20
76.0991
 30
0.0
  0
SPLINE
  5
61
330
1F
100
AcDbEntity
  8
layer 1
 62
     7
100
AcDbSpline
210
0.0
220
0.0
230
1.0
 70
    11
 71
     3
 72
    52
 73
    48
 74
     0
 42
0.0000000001
 43
0.0000000001
 12
1.0
 22
0.0
 32
0.0
 13
1.0
 23
0.0
 33
0.0
 40
0.0
 40
0.0
 40
0.0
 40
0.0
 40
0.0769230769230769
 40
0.0769230769230769
 40
0.0769230769230769
 40
0.0769230769230769
 40
0.1538461538461539
 40
0.1538461538461539
 40
0.1538461538461539
 40
0.1538461538461539
 40
0.2307692307692308
 40
0.2307692307692308
 40
0.2307692307692308
 40
0.2307692307692308
 40
0.3076923076923077
 40
0.3076923076923077
 40
0.3076923076923077
 40
0.3076923076923077
 40
0.3846153846153846
 40
0.3846153846153846
 40
0.3846153846153846
 40
0.3846153846153846
 40
0.4615384615384616
 40
0.4615384615384616
 40
0.4615384615384616
 40
0.4615384615384616
 40
0.5384615384615384
 40
0.5384615384615384
 40
0.5384615384615384
 40
0.5384615384615384
 40
0.6153846153846154
 40
0.6153846153846154
 40
0.6153846153846154
 40
0.6153846153846154
 40
0.6923076923076923
 40
0.6923076923076923
 40
0.6923076923076923
 40
0.6923076923076923
 40
0.7692307692307693
 40
0.7692307692307693
 40
0.7692307692307693
 40
0.7692307692307693
 40
0.8461538461538461
 40
0.8461538461538461
 40
0.8461538461538461
 40
0.8461538461538461
 40
1.0
 40
1.0
 40
1.0
 40
1.0
 10
-143.709
 20
75.5865
 30
0.0
 10
-142.4303
 20
73.6495
 30
0.0
 10
-139.9442
 20
73.4225
 30
0.0
 10
-138.7891
 20
74.1113
 30
0.0
 10
-138.7891
 20
74.1113
 30
0.0
 10
-142.04
 20
76.0565
 30
0.0
 10
-144.0661
 20
82.3899
 30
0.0
 10
-143.5998
 20
84.3841
 30
0.0
 10
-143.5998
 20
84.3841
 30
0.0
 10
-142.0765
 20
79.4262
 30
0.0
 10
-135.538
 20
74.8741
 30
0.0
 10
-131.6859
 20
72.6832
 30
0.0
 10
-131.6859
 20
72.6832
 30
0.0
 10
-131.6859
 20
72.6832
 30
0.0
 10
-141.4401
 20
57.9755
 30
0.0
 10
-141.4401
 20
57.9755
 30
0.0
 10
-141.4401
 20
57.9755
 30
0.0
 10
-141.4401
 20
57.9755
 30
0.0
 10
-146.1159
 20
64.7187
 30
0.0
 10
-146.1159
 20
64.7187
 30
0.0
 10
-146.1159
 20
64.7187
 30
0.0
 10
-146.1159
 20
64.7187
 30
0.0
 10
-150.6634
 20
57.9755
 30
0.0
 10
-150.6634
 20
57.9755
 30
0.0
 10
-150.6634
 20
57.9755
 30
0.0
 10
-150.6634
 20
57.9755
 30
0.0
 10
-160.4177
 20
72.6833
 30
0.0
 10
-160.4177
 20
72.6833
 30
0.0
 10
-160.4177
 20
72.6833
 30
0.0
 10
-156.5656
 20
74.8741
 30
0.0
 10
-150.0286
 20
79.4261
 30
0.0
 10
-148.5038
 20
84.3841
 30
0.0
 10
-148.5038
 20
84.3841
 30
0.0
 10
-148.0375
 20
82.3899
 30
0.0
 10
-150.0652
 20
76.0564
 30
0.0
 10
-153.3145
 20
74.1113
 30
0.0
 10
-153.3145
 20
74.1113
 30
0.0
 10
-152.1594
 20
73.4225
 30
0.0
 10
-149.6733
 20
73.6495
 30
0.0
 10
-148.3958
 20
75.5865
 30
0.0
 10
-148.3958
 20
75.5865
 30
0.0
 10
-148.9149
 20
71.9818
 30
0.0
 10
-147.4409
 20
68.6215
 30
0.0
 10
-146.0526
 20
67.7632
 30
0.0
 10
-146.0526
 20
67.7632
 30
0.0
 10
-144.6627
 20
68.6216
 30
0.0
 10
-143.1903
 20
71.9818
 30
0.0
 10
-143.709
 20
75.5865
 30
0.0
  0
SPLINE
  5
62
330
1F
100
AcDbEntity
  8
layer 1
 62
     7
100
AcDbSpline
210
0.0
220
0.0
230
1.0
 70
    11
 71
     3
 72
    20
 73
    16
 74
     0
 42
0.0000000001
 43
0.0000000001
 12
1.0
 22
0.0
 32
0.0
 13
1.0
 23
0.0
 33
0.0
 40
0.0
 40
0.0
 40
0.0
 40
0.0
 40
0.2
 40
0.2
 40
0.2
 40
0.2
 40
0.4
 40
0.4
 40
0.4
 40
0.4
 40
0.6
 40
0.6
 40
0.6
 40
0.6
 40
1.0
 40
1.0
 40
1.0
 40
1.0
 10
-146.1159
 20
58.4023
 30
0.0
 10
-146.1159
 20
58.4023
 30
0.0
 10
-148.6386
 20
54.6468
 30
0.0
 10
-148.6386
 20
54.6468
 30
0.0
 10
-148.6386
 20
54.6468
 30
0.0
 10
-148.6386
 20
54.6468
 30
0.0
 10
-146.1159
 20
50.8914
 30
0.0
 10
-146.1159
 20
50.8914
 30
0.0
 10
-146.1159
 20
50.8914
 30
0.0
 10
-146.1159
 20
50.8914
 30
0.0
 10
-143.5948
 20
54.6468
 30
0.0
 10
-143.5948
 20
54.6468
 30
0.0
 10
-143.5948
 20
54.6468
 30
0.0
 10
-143.5948
 20
54.6468
 30
0.0
 10
-146.1159
 20
58.4023
 30
0.0
 10
-146.1159
 20
58.4023
 30
0.0
  0
SPLINE
  5
63
330
1F
100
AcDbEntity
  8
layer 1
 62
     7
100
AcDbSpline
210
0.0
220
0.0
230
1.0
 70
    11
 71
     3
 72
    20
 73
    16
 74
     0
 42
0.0000000001
 43
0.0000000001
 12
1.0
 22
0.0
 32
0.0
 13
1.0
 23
0.0
 33
0.0
 40
0.0
 40
0.0
 40
0.0
 40
0.0
 40
0.2
 40
0.2
 40
0.2
 40
0.2
 40
0.4
 40
0.4
 40
0.4
 40
0.4
 40
0.6
 40
0.6
 40
0.6
 40
0.6
 40
1.0
 40
1.0
 40
1.0
 40
1.0
 10
-140.2711
 20
49.7696
 30
0.0
 10
-140.2711
 20
49.7696
 30
0.0
 10
-142.7939
 20
46.0141
 30
0.0
 10
-142.7939
 20
46.0141
 30
0.0
 10
-142.7939
 20
46.0141
 30
0.0
 10
-142.7939
 20
46.0141
 30
0.0
 10
-140.2711
 20
42.2586
 30
0.0
 10
-140.2711
 20
42.2586
 30
0.0
 10
-140.2711
 20
42.2586
 30
0.0
 10
-140.2711
 20
42.2586
 30
0.0
 10
-137.75
 20
46.0141
 30
0.0
 10
-137.75
 20
46.0141
 30
0.0
 10
-137.75
 20
46.0141
 30
0.0
 10
-137.75
 20
46.0141
 30
0.0
 10
-140.2711
 20
49.7696
 30
0.0
 10
-140.2711
 20
49.7696
 30
0.0
  0
SPLINE
  5
64
330
1F
100
AcDbEntity
  8
layer 1
 62
     7
100
AcDbSpline
210
0.0
220
0.0
230
1.0
 70
    11
 71
     3
 72
    20
 73
    16
 74
     0
 42
0.0000000001
 43
0.0000000001
 12
1.0
 22
0.0
 32
0.0
 13
1.0
 23
0.0
 33
0.0
 40
0.0
 40
0.0
 40
0.0
 40
0.0
 40
0.2
 40
0.2
 40
0.2
 40
0.2
 40
0.4
 40
0.4
 40
0.4
 40
0.4
 40
0.6
 40
0.6
 40
0.6
 40
0.6
 40
1.0
 40
1.0
 40
1.0
 40
1.0
 10
-151.7467
 20
49.7696
 30
0.0
 10
-151.7467
 20
49.7696
 30
0.0
 10
-154.2694
 20
46.0141
 30
0.0
 10
-154.2694
 20
46.0141
 30
0.0
 10
-154.2694
 20
46.0141
 30
0.0
 10
-154.2694
 20
46.0141
 30
0.0
 10
-151.7467
 20
42.2586
 30
0.0
 10
-151.7467
 20
42.2586
 30
0.0
 10
-151.7467
 20
42.2586
 30
0.0
 10
-151.7467
 20
42.2586
 30
0.0
 10
-149.2243
 20
46.0141
 30
0.0
 10
-149.2243
 20
46.0141
 30
0.0
 10
-149.2243
 20
46.0141
 30
0.0
 10
-149.2243
 20
46.0141
 30
0.0
 10
-151.7467
 20
49.7696
 30
0.0
 10
-151.7467
 20
49.7696
 30
0.0
  0
SPLINE
  5
65
330
1F
100
AcDbEntity
  8
layer 1
 62
     7
100
AcDbSpline
210
0.0
220
0.0
230
1.0
 70
    11
 71
     3
 72
    20
 73
    16
 74
     0
 42
0.0000000001
 43
0.0000000001
 12
1.0
 22
0.0
 32
0.0
 13
1.0
 23
0.0
 33
0.0
 40
0.0
 40
0.0
 40
0.0
 40
0.0
 40
0.2
 40
0.2
 40
0.2
 40
0.2
 40
0.4
 40
0.4
 40
0.4
 40
0.4
 40
0.6
 40
0.6
 40
0.6
 40
0.6
 40
1.0
 40
1.0
 40
1.0
 40
1.0
 10
-146.1159
 20
41.1893
 30
0.0
 10
-146.1159
 20
41.1893
 30
0.0
 10
-148.6386
 20
37.4338
 30
0.0
 10
-148.6386
 20
37.4338
 30
0.0
 10
-148.6386
 20
37.4338
 30
0.0
 10
-148.6386
 20
37.4338
 30
0.0
 10
-146.1159
 20
33.6782
 30
0.0
 10
-146.1159
 20
33.6782
 30
0.0
 10
-146.1159
 20
33.6782
 30
0.0
 10
-146.1159
 20
33.6782
 30
0.0
 10
-143.5948
 20
37.4338
 30
0.0
 10
-143.5948
 20
37.4338
 30
0.0
 10
-143.5948
 20
37.4338
 30
0.0
 10
-143.5948
 20
37.4338
 30
0.0
 10
-146.1159
 20
41.1893
 30
0.0
 10
-146.1159
 20
41.1893
 30
0.0
  0
SPLINE
  5
66
330
1F
100
AcDbEntity
  8
layer 1
 62
     7
100
AcDbSpline
210
0.0
220
0.0
230
1.0
 70
    11
 71
     3
 72
    16
 73
    12
 74
     0
 42
0.0000000001
 43
0.0000000001
 12
1.0
 22
0.0
 32
0.0
 13
1.0
 23
0.0
 33
0.0
 40
0.0
 40
0.0
 40
0.0
 40
0.0
 40
0.25
 40
0.25
 40
0.25
 40
0.25
 40
0.5
 40
0.5
 40
0.5
 40
0.5
 40
1.0
 40
1.0
 40
1.0
 40
1.0
 10
-124.9935
 20
72.2154
 30
0.0
 10
-120.4179
 20
72.5643
 30
0.0
 10
-113.2925
 20
73.9699
 30
0.0
 10
-111.5488
 20
82.0012
 30
0.0
 10
-111.5488
 20
82.0012
 30
0.0
 10
-111.5996
 20
78.6617
 30
0.0
 10
-111.5805
 20
63.1732
 30
0.0
 10
-111.5789
 20
59.8332
 30
0.0
 10
-111.5789
 20
59.8332
 30
0.0
 10
-113.7287
 20
65.6118
 30
0.0
 10
-118.0902
 20
69.7162
 30
0.0
 10
-124.9935
 20
72.2154
 30
0.0
  0
SPLINE
  5
67
330
1F
100
AcDbEntity
  8
layer 1
 62
     7
100
AcDbSpline
210
0.0
220
0.0
230
1.0
 70
    11
 71
     3
 72
    20
 73
    16
 74
     0
 42
0.0000000001
 43
0.0000000001
 12
1.0
 22
0.0
 32
0.0
 13
1.0
 23
0.0
 33
0.0
 40
0.0
 40
0.0
 40
0.0
 40
0.0
 40
0.2
 40
0.2
 40
0.2
 40
0.2
 40
0.4
 40
0.4
 40
0.4
 40
0.4
 40
0.6
 40
0.6
 40
0.6
 40
0.6
 40
1.0
 40
1.0
 40
1.0
 40
1.0
 10
-116.2623
 20
40.8797
 30
0.0
 10
-114.4095
 20
42.1364
 30
0.0
 10
-113.1621
 20
43.499
 30
0.0
 10
-111.5488
 20
47.5546
 30
0.0
 10
-111.5488
 20
47.5546
 30
0.0
 10
-111.5996
 20
44.2164
 30
0.0
 10
-111.5805
 20
34.4316
 30
0.0
 10
-111.5789
 20
31.0917
 30
0.0
 10
-111.5789
 20
31.0917
 30
0.0
 10
-112.6068
 20
33.4593
 30
0.0
 10
-114.7681
 20
34.8378
 30
0.0
 10
-117.0082
 20
34.4459
 30
0.0
 10
-117.0082
 20
34.4459
 30
0.0
 10
-114.5411
 20
35.4454
 30
0.0
 10
-114.4111
 20
39.9276
 30
0.0
 10
-116.2623
 20
40.8797
 30
0.0
  0
SPLINE
  5
68
330
1F
100
AcDbEntity
  8
layer 1
 62
     7
100
AcDbSpline
210
0.0
220
0.0
230
1.0
 70
    11
 71
     3
 72
    24
 73
    20
 74
     0
 42
0.0000000001
 43
0.0000000001
 12
1.0
 22
0.0
 32
0.0
 13
1.0
 23
0.0
 33
0.0
 40
0.0
 40
0.0
 40
0.0
 40
0.0
 40
0.1666666666666667
 40
0.1666666666666667
 40
0.1666666666666667
 40
0.1666666666666667
 40
0.3333333333333333
 40
0.3333333333333333
 40
0.3333333333333333
 40
0.3333333333333333
 40
0.5
 40
0.5
 40
0.5
 40
0.5
 40
0.6666666666666666
 40
0.6666666666666666
 40
0.6666666666666666
 40
0.6666666666666666
 40
1.0
 40
1.0
 40
1.0
 40
1.0
 10
-113.6255
 20
28.5199
 30
0.0
 10
-116.4593
 20
31.3111
 30
0.0
 10
-118.76
 20
27.2319
 30
0.0
 10
-116.7652
 20
25.5057
 30
0.0
 10
-116.7652
 20
25.5057
 30
0.0
 10
-115.2262
 20
24.171
 30
0.0
 10
-112.2563
 20
24.9264
 30
0.0
 10
-111.5488
 20
27.933
 30
0.0
 10
-111.5488
 20
27.933
 30
0.0
 10
-111.5488
 20
27.933
 30
0.0
 10
-111.5789
 20
12.5935
 30
0.0
 10
-111.5789
 20
12.5935
 30
0.0
 10
-111.5789
 20
12.5935
 30
0.0
 10
-111.5789
 20
12.5935
 30
0.0
 10
-124.0097
 20
31.292
 30
0.0
 10
-124.0097
 20
31.292
 30
0.0
 10
-124.0097
 20
31.292
 30
0.0
 10
-120.894
 20
33.6735
 30
0.0
 10
-112.5942
 20
33.7481
 30
0.0
 10
-113.6255
 20
28.5199
 30
0.0
  0
SPLINE
  5
69
330
1F
100
AcDbEntity
  8
layer 1
 62
     7
100
AcDbSpline
210
0.0
220
0.0
230
1.0
 70
    11
 71
     3
 72
    24
 73
    20
 74
     0
 42
0.0000000001
 43
0.0000000001
 12
1.0
 22
0.0
 32
0.0
 13
1.0
 23
0.0
 33
0.0
 40
0.0
 40
0.0
 40
0.0
 40
0.0
 40
0.1666666666666667
 40
0.1666666666666667
 40
0.1666666666666667
 40
0.1666666666666667
 40
0.3333333333333333
 40
0.3333333333333333
 40
0.3333333333333333
 40
0.3333333333333333
 40
0.5
 40
0.5
 40
0.5
 40
0.5
 40
0.6666666666666666
 40
0.6666666666666666
 40
0.6666666666666666
 40
0.6666666666666666
 40
1.0
 40
1.0
 40
1.0
 40
1.0
 10
-122.4629
 20
14.0217
 30
0.0
 10
-124.1843
 20
11.9351
 30
0.0
 10
-127.5178
 20
13.9249
 30
0.0
 10
-126.842
 20
16.4745
 30
0.0
 10
-126.842
 20
16.4745
 30
0.0
 10
-126.32
 20
18.4435
 30
0.0
 10
-123.4386
 20
19.4923
 30
0.0
 10
-121.162
 20
17.4042
 30
0.0
 10
-121.162
 20
17.4042
 30
0.0
 10
-121.162
 20
17.4042
 30
0.0
 10
-128.2208
 20
27.9061
 30
0.0
 10
-128.2208
 20
27.9061
 30
0.0
 10
-128.2208
 20
27.9061
 30
0.0
 10
-132.4349
 20
24.6503
 30
0.0
 10
-132.6632
 20
18.9289
 30
0.0
 10
-131.8334
 20
15.5098
 30
0.0
 10
-131.8334
 20
15.5098
 30
0.0
 10
-130.0055
 20
7.9798
 30
0.0
 10
-122.2916
 20
11.0359
 30
0.0
 10
-122.4629
 20
14.0217
 30
0.0
  0
SPLINE
  5
6A
330
1F
100
AcDbEntity
  8
layer 1
 62
     7
100
AcDbSpline
210
0.0
220
0.0
230
1.0
 70
    11
 71
     3
 72
    32
 73
    28
 74
     0
 42
0.0000000001
 43
0.0000000001
 12
1.0
 22
0.0
 32
0.0
 13
1.0
 23
0.0
 33
0.0
 40
0.0
 40
0.0
 40
0.0
 40
0.0
 40
0.125
 40
0.125
 40
0.125
 40
0.125
 40
0.25
 40
0.25
 40
0.25
 40
0.25
 40
0.375
 40
0.375
 40
0.375
 40
0.375
 40
0.5
 40
0.5
 40
0.5
 40
0.5
 40
0.625
 40
0.625
 40
0.625
 40
0.625
 40
0.75
 40
0.75
 40
0.75
 40
0.75
 40
1.0
 40
1.0
 40
1.0
 40
1.0
 10
-146.0985
 20
21.55
 30
0.0
 10
-139.8727
 20
21.3643
 30
0.0
 10
-136.5315
 20
18.2231
 30
0.0
 10
-134.3658
 20
14.6898
 30
0.0
 10
-134.3658
 20
14.6898
 30
0.0
 10
-135.8394
 20
20.3156
 30
0.0
 10
-135.1051
 20
25.4801
 30
0.0
 10
-129.3838
 20
30.0751
 30
0.0
 10
-129.3838
 20
30.0751
 30
0.0
 10
-129.3838
 20
30.0751
 30
0.0
 10
-132.216
 20
34.5081
 30
0.0
 10
-132.216
 20
34.5081
 30
0.0
 10
-132.216
 20
34.5081
 30
0.0
 10
-132.216
 20
34.5081
 30
0.0
 10
-136.8788
 20
27.3347
 30
0.0
 10
-136.8788
 20
27.3347
 30
0.0
 10
-136.8788
 20
27.3347
 30
0.0
 10
-136.8788
 20
27.3347
 30
0.0
 10
-141.4417
 20
34.7237
 30
0.0
 10
-141.4417
 20
34.7237
 30
0.0
 10
-141.4417
 20
34.7237
 30
0.0
 10
-141.4417
 20
34.7237
 30
0.0
 10
-146.0733
 20
27.1129
 30
0.0
 10
-146.0733
 20
27.1129
 30
0.0
 10
-146.0733
 20
27.1129
 30
0.0
 10
-146.0733
 20
27.1129
 30
0.0
 10
-146.0985
 20
21.55
 30
0.0
 10
-146.0985
 20
21.55
 30
0.0
  0
SPLINE
  5
6B
330
1F
100
AcDbEntity
  8
layer 1
 62
     7
100
AcDbSpline
210
0.0
220
0.0
230
1.0
 70
    11
 71
     3
 72
    16
 73
    12
 74
     0
 42
0.0000000001
 43
0.0000000001
 12
1.0
 22
0.0
 32
0.0
 13
1.0
 23
0.0
 33
0.0
 40
0.0
 40
0.0
 40
0.0
 40
0.0
 40
0.25
 40
0.25
 40
0.25
 40
0.25
 40
0.5
 40
0.5
 40
0.5
 40
0.5
 40
1.0
 40
1.0
 40
1.0
 40
1.0
 10
-133.4056
 20
12.4112
 30
0.0
 10
-132.8585
 20
9.725
 30
0.0
 10
-132.9503
 20
6.5598
 30
0.0
 10
-133.4057
 20
4.4051
 30
0.0
 10
-133.4057
 20
4.4051
 30
0.0
 10
-132.2903
 20
7.2581
 30
0.0
 10
-131.2164
 20
7.9164
 30
0.0
 10
-129.1534
 20
8.4083
 30
0.0
 10
-129.1534
 20
8.4083
 30
0.0
 10
-131.2164
 20
8.9002
 30
0.0
 10
-132.2903
 20
9.5586
 30
0.0
 10
-133.4056
 20
12.4112
 30
0.0
  0
SPLINE
  5
6C
330
1F
100
AcDbEntity
  8
layer 1
 62
     7
100
AcDbSpline
210
0.0
220
0.0
230
1.0
 70
    11
 71
     3
 72
    60
 73
    56
 74
     0
 42
0.0000000001
 43
0.0000000001
 12
1.0
 22
0.0
 32
0.0
 13
1.0
 23
0.0
 33
0.0
 40
0.0
 40
0.0
 40
0.0
 40
0.0
 40
0.0666666666666667
 40
0.0666666666666667
 40
0.0666666666666667
 40
0.0666666666666667
 40
0.1333333333333333
 40
0.1333333333333333
 40
0.1333333333333333
 40
0.1333333333333333
 40
0.2
 40
0.2
 40
0.2
 40
0.2
 40
0.2666666666666667
 40
0.2666666666666667
 40
0.2666666666666667
 40
0.2666666666666667
 40
0.3333333333333333
 40
0.3333333333333333
 40
0.3333333333333333
 40
0.3333333333333333
 40
0.4
 40
0.4
 40
0.4
 40
0.4
 40
0.4666666666666667
 40
0.4666666666666667
 40
0.4666666666666667
 40
0.4666666666666667
 40
0.5333333333333333
 40
0.5333333333333333
 40
0.5333333333333333
 40
0.5333333333333333
 40
0.6
 40
0.6
 40
0.6
 40
0.6
 40
0.6666666666666666
 40
0.6666666666666666
 40
0.6666666666666666
 40
0.6666666666666666
 40
0.7333333333333333
 40
0.7333333333333333
 40
0.7333333333333333
 40
0.7333333333333333
 40
0.8
 40
0.8
 40
0.8
 40
0.8
 40
0.8666666666666667
 40
0.8666666666666667
 40
0.8666666666666667
 40
0.8666666666666667
 40
1.0
 40
1.0
 40
1.0
 40
1.0
 10
-138.1322
 20
53.0064
 30
0.0
 10
-138.1322
 20
53.0064
 30
0.0
 10
-127.3655
 20
69.2974
 30
0.0
 10
-127.3655
 20
69.2974
 30
0.0
 10
-127.3655
 20
69.2974
 30
0.0
 10
-125.0856
 20
67.8535
 30
0.0
 10
-124.5288
 20
64.4741
 30
0.0
 10
-124.4065
 20
62.4989
 30
0.0
 10
-124.4065
 20
62.4989
 30
0.0
 10
-122.8042
 20
62.9652
 30
0.0
 10
-121.1986
 20
63.63
 30
0.0
 10
-122.0329
 20
69.0021
 30
0.0
 10
-122.0329
 20
69.0021
 30
0.0
 10
-116.3672
 20
65.3816
 30
0.0
 10
-111.5707
 20
56.1367
 30
0.0
 10
-114.8965
 20
47.9973
 30
0.0
 10
-114.8965
 20
47.9973
 30
0.0
 10
-116.4829
 20
45.6822
 30
0.0
 10
-120.0004
 20
40.9146
 30
0.0
 10
-125.3362
 20
44.6558
 30
0.0
 10
-125.3362
 20
44.6558
 30
0.0
 10
-128.389
 20
46.7963
 30
0.0
 10
-126.2343
 20
52.2398
 30
0.0
 10
-122.201
 20
50.0359
 30
0.0
 10
-122.201
 20
50.0359
 30
0.0
 10
-121.7713
 20
55.2671
 30
0.0
 10
-127.5593
 20
55.3097
 30
0.0
 10
-129.8122
 20
52.1127
 30
0.0
 10
-129.8122
 20
52.1127
 30
0.0
 10
-135.9934
 20
41.9077
 30
0.0
 10
-123.5166
 20
37.1067
 30
0.0
 10
-117.0447
 20
40.4592
 30
0.0
 10
-117.0447
 20
40.4592
 30
0.0
 10
-118.1698
 20
35.2473
 30
0.0
 10
-121.8253
 20
34.6823
 30
0.0
 10
-125.2063
 20
33.5019
 30
0.0
 10
-125.2063
 20
33.5019
 30
0.0
 10
-125.2063
 20
33.5019
 30
0.0
 10
-131.5462
 20
43.0186
 30
0.0
 10
-131.5462
 20
43.0186
 30
0.0
 10
-131.5462
 20
43.0186
 30
0.0
 10
-131.5462
 20
43.0186
 30
0.0
 10
-136.1266
 20
36.1961
 30
0.0
 10
-136.1266
 20
36.1961
 30
0.0
 10
-136.1266
 20
36.1961
 30
0.0
 10
-136.1266
 20
36.1961
 30
0.0
 10
-138.1388
 20
39.2325
 30
0.0
 10
-138.1388
 20
39.2325
 30
0.0
 10
-138.1388
 20
39.2325
 30
0.0
 10
-138.1388
 20
39.2325
 30
0.0
 10
-133.4279
 20
46.2712
 30
0.0
 10
-133.4279
 20
46.2712
 30
0.0
 10
-133.4279
 20
46.2712
 30
0.0
 10
-133.4279
 20
46.2712
 30
0.0
 10
-138.1322
 20
53.0064
 30
0.0
 10
-138.1322
 20
53.0064
 30
0.0
  0
SPLINE
  5
6D
330
1F
100
AcDbEntity
  8
layer 1
 62
     7
100
AcDbSpline
210
0.0
220
0.0
230
1.0
 70
    11
 71
     3
 72
    24
 73
    20
 74
     0
 42
0.0000000001
 43
0.0000000001
 12
1.0
 22
0.0
 32
0.0
 13
1.0
 23
0.0
 33
0.0
 40
0.0
 40
0.0
 40
0.0
 40
0.0
 40
0.1666666666666667
 40
0.1666666666666667
 40
0.1666666666666667
 40
0.1666666666666667
 40
0.3333333333333333
 40
0.3333333333333333
 40
0.3333333333333333
 40
0.3333333333333333
 40
0.5
 40
0.5
 40
0.5
 40
0.5
 40
0.6666666666666666
 40
0.6666666666666666
 40
0.6666666666666666
 40
0.6666666666666666
 40
1.0
 40
1.0
 40
1.0
 40
1.0
 10
-148.5737
 20
-98.8159
 30
0.0
 10
-148.5737
 20
-98.8159
 30
0.0
 10
-151.2695
 20
-98.7684
 30
0.0
 10
-151.2695
 20
-98.7684
 30
0.0
 10
-151.2695
 20
-98.7684
 30
0.0
 10
-151.3219
 20
-104.5868
 30
0.0
 10
-156.7036
 20
-108.2249
 30
0.0
 10
-159.3308
 20
-108.8577
 30
0.0
 10
-159.3308
 20
-108.8577
 30
0.0
 10
-155.1216
 20
-108.8402
 30
0.0
 10
-153.1191
 20
-108.8402
 30
0.0
 10
-149.908
 20
-108.8341
 30
0.0
 10
-149.908
 20
-108.8341
 30
0.0
 10
-152.5529
 20
-107.8374
 30
0.0
 10
-151.139
 20
-105.2054
 30
0.0
 10
-148.5753
 20
-105.8447
 30
0.0
 10
-148.5753
 20
-105.8447
 30
0.0
 10
-148.5753
 20
-105.8447
 30
0.0
 10
-148.5737
 20
-98.8159
 30
0.0
 10
-148.5737
 20
-98.8159
 30
0.0
  0
SPLINE
  5
6E
330
1F
100
AcDbEntity
  8
layer 1
 62
     7
100
AcDbSpline
210
0.0
220
0.0
230
1.0
 70
    11
 71
     3
 72
    16
 73
    12
 74
     0
 42
0.0000000001
 43
0.0000000001
 12
1.0
 22
0.0
 32
0.0
 13
1.0
 23
0.0
 33
0.0
 40
0.0
 40
0.0
 40
0.0
 40
0.0
 40
0.25
 40
0.25
 40
0.25
 40
0.25
 40
0.5
 40
0.5
 40
0.5
 40
0.5
 40
1.0
 40
1.0
 40
1.0
 40
1.0
 10
-180.5247
 20
-96.049
 30
0.0
 10
-179.0349
 20
-102.424
 30
0.0
 10
-176.3789
 20
-106.2683
 30
0.0
 10
-168.5175
 20
-108.8577
 30
0.0
 10
-168.5175
 20
-108.8577
 30
0.0
 10
-172.725
 20
-108.8402
 30
0.0
 10
-177.3453
 20
-108.8402
 30
0.0
 10
-180.5548
 20
-108.8341
 30
0.0
 10
-180.5548
 20
-108.8341
 30
0.0
 10
-180.504
 20
-105.4958
 30
0.0
 10
-180.5231
 20
-99.389
 30
0.0
 10
-180.5247
 20
-96.049
 30
0.0
  0
SPLINE
  5
6F
330
1F
100
AcDbEntity
  8
layer 1
 62
     7
100
AcDbSpline
210
0.0
220
0.0
230
1.0
 70
    11
 71
     3
 72
    24
 73
    20
 74
     0
 42
0.0000000001
 43
0.0000000001
 12
1.0
 22
0.0
 32
0.0
 13
1.0
 23
0.0
 33
0.0
 40
0.0
 40
0.0
 40
0.0
 40
0.0
 40
0.1666666666666667
 40
0.1666666666666667
 40
0.1666666666666667
 40
0.1666666666666667
 40
0.3333333333333333
 40
0.3333333333333333
 40
0.3333333333333333
 40
0.3333333333333333
 40
0.5
 40
0.5
 40
0.5
 40
0.5
 40
0.6666666666666666
 40
0.6666666666666666
 40
0.6666666666666666
 40
0.6666666666666666
 40
1.0
 40
1.0
 40
1.0
 40
1.0
 10
-169.1503
 20
-91.8777
 30
0.0
 10
-168.7823
 20
-93.1791
 30
0.0
 10
-166.9229
 20
-93.9025
 30
0.0
 10
-165.9233
 20
-92.7538
 30
0.0
 10
-165.9233
 20
-92.7538
 30
0.0
 10
-167.2385
 20
-97.8861
 30
0.0
 10
-160.6081
 20
-100.7692
 30
0.0
 10
-157.1415
 20
-96.3456
 30
0.0
 10
-157.1415
 20
-96.3456
 30
0.0
 10
-153.9172
 20
-105.3134
 30
0.0
 10
-167.6747
 20
-106.5653
 30
0.0
 10
-171.8713
 20
-100.8724
 30
0.0
 10
-171.8713
 20
-100.8724
 30
0.0
 10
-174.0719
 20
-98.4752
 30
0.0
 10
-174.9464
 20
-89.1316
 30
0.0
 10
-169.444
 20
-87.7083
 30
0.0
 10
-169.444
 20
-87.7083
 30
0.0
 10
-165.4233
 20
-86.7547
 30
0.0
 10
-164.7506
 20
-92.0622
 30
0.0
 10
-169.1503
 20
-91.8777
 30
0.0
  0
SPLINE
  5
70
330
1F
100
AcDbEntity
  8
layer 1
 62
     7
100
AcDbSpline
210
0.0
220
0.0
230
1.0
 70
    11
 71
     3
 72
    52
 73
    48
 74
     0
 42
0.0000000001
 43
0.0000000001
 12
1.0
 22
0.0
 32
0.0
 13
1.0
 23
0.0
 33
0.0
 40
0.0
 40
0.0
 40
0.0
 40
0.0
 40
0.0769230769230769
 40
0.0769230769230769
 40
0.0769230769230769
 40
0.0769230769230769
 40
0.1538461538461539
 40
0.1538461538461539
 40
0.1538461538461539
 40
0.1538461538461539
 40
0.2307692307692308
 40
0.2307692307692308
 40
0.2307692307692308
 40
0.2307692307692308
 40
0.3076923076923077
 40
0.3076923076923077
 40
0.3076923076923077
 40
0.3076923076923077
 40
0.3846153846153846
 40
0.3846153846153846
 40
0.3846153846153846
 40
0.3846153846153846
 40
0.4615384615384616
 40
0.4615384615384616
 40
0.4615384615384616
 40
0.4615384615384616
 40
0.5384615384615384
 40
0.5384615384615384
 40
0.5384615384615384
 40
0.5384615384615384
 40
0.6153846153846154
 40
0.6153846153846154
 40
0.6153846153846154
 40
0.6153846153846154
 40
0.6923076923076923
 40
0.6923076923076923
 40
0.6923076923076923
 40
0.6923076923076923
 40
0.7692307692307693
 40
0.7692307692307693
 40
0.7692307692307693
 40
0.7692307692307693
 40
0.8461538461538461
 40
0.8461538461538461
 40
0.8461538461538461
 40
0.8461538461538461
 40
1.0
 40
1.0
 40
1.0
 40
1.0
 10
-153.9063
 20
-84.1429
 30
0.0
 10
-154.4124
 20
-80.4383
 30
0.0
 10
-153.9555
 20
-80.7827
 30
0.0
 10
-152.9559
 20
-79.6341
 30
0.0
 10
-152.9559
 20
-79.6341
 30
0.0
 10
-152.1849
 20
-82.7945
 30
0.0
 10
-149.2321
 20
-81.9997
 30
0.0
 10
-147.8137
 20
-87.2831
 30
0.0
 10
-147.8137
 20
-87.2831
 30
0.0
 10
-147.282
 20
-76.8002
 30
0.0
 10
-153.646
 20
-72.2499
 30
0.0
 10
-156.3259
 20
-72.1675
 30
0.0
 10
-156.3259
 20
-72.1675
 30
0.0
 10
-155.3706
 20
-73.3336
 30
0.0
 10
-155.8673
 20
-74.8535
 30
0.0
 10
-156.8986
 20
-75.4217
 30
0.0
 10
-156.8986
 20
-75.4217
 30
0.0
 10
-157.8729
 20
-75.9579
 30
0.0
 10
-159.3404
 20
-75.6166
 30
0.0
 10
-159.9656
 20
-74.1333
 30
0.0
 10
-159.9656
 20
-74.1333
 30
0.0
 10
-159.9656
 20
-74.1333
 30
0.0
 10
-159.9051
 20
-77.7206
 30
0.0
 10
-159.9051
 20
-77.7206
 30
0.0
 10
-159.9051
 20
-77.7206
 30
0.0
 10
-170.8765
 20
-77.0147
 30
0.0
 10
-176.844
 20
-87.6227
 30
0.0
 10
-175.5048
 20
-91.775
 30
0.0
 10
-175.5048
 20
-91.775
 30
0.0
 10
-174.4337
 20
-83.8257
 30
0.0
 10
-169.7405
 20
-84.7872
 30
0.0
 10
-166.9163
 20
-82.5041
 30
0.0
 10
-166.9163
 20
-82.5041
 30
0.0
 10
-166.4595
 20
-83.7417
 30
0.0
 10
-166.9798
 20
-84.7336
 30
0.0
 10
-167.9493
 20
-85.5171
 30
0.0
 10
-167.9493
 20
-85.5171
 30
0.0
 10
-165.0476
 20
-84.6065
 30
0.0
 10
-162.8644
 20
-86.8371
 30
0.0
 10
-163.4006
 20
-89.6551
 30
0.0
 10
-163.4006
 20
-89.6551
 30
0.0
 10
-162.4676
 20
-89.0301
 30
0.0
 10
-161.8807
 20
-88.8237
 30
0.0
 10
-160.578
 20
-88.6938
 30
0.0
 10
-160.578
 20
-88.6938
 30
0.0
 10
-165.0776
 20
-86.5467
 30
0.0
 10
-159.8941
 20
-79.9388
 30
0.0
 10
-153.9063
 20
-84.1429
 30
0.0
  0
SPLINE
  5
71
330
1F
100
AcDbEntity
  8
layer 1
 62
     7
100
AcDbSpline
210
0.0
220
0.0
230
1.0
 70
    11
 71
     3
 72
    20
 73
    16
 74
     0
 42
0.0000000001
 43
0.0000000001
 12
1.0
 22
0.0
 32
0.0
 13
1.0
 23
0.0
 33
0.0
 40
0.0
 40
0.0
 40
0.0
 40
0.0
 40
0.2
 40
0.2
 40
0.2
 40
0.2
 40
0.4
 40
0.4
 40
0.4
 40
0.4
 40
0.6
 40
0.6
 40
0.6
 40
0.6
 40
1.0
 40
1.0
 40
1.0
 40
1.0
 10
-148.7341
 20
-96.0982
 30
0.0
 10
-148.7341
 20
-96.0982
 30
0.0
 10
-151.4311
 20
-96.1458
 30
0.0
 10
-151.4311
 20
-96.1458
 30
0.0
 10
-151.4311
 20
-96.1458
 30
0.0
 10
-152.7147
 20
-90.4881
 30
0.0
 10
-155.8466
 20
-89.1567
 30
0.0
 10
-158.847
 20
-88.63
 30
0.0
 10
-158.847
 20
-88.63
 30
0.0
 10
-156.7305
 20
-88.4334
 30
0.0
 10
-156.3892
 20
-85.5378
 30
0.0
 10
-158.5423
 20
-84.7937
 30
0.0
 10
-158.5423
 20
-84.7937
 30
0.0
 10
-151.7467
 20
-84.1559
 30
0.0
 10
-147.8248
 20
-89.3741
 30
0.0
 10
-148.7341
 20
-96.0982
 30
0.0
  0
SPLINE
  5
72
330
1F
100
AcDbEntity
  8
layer 1
 62
     7
100
AcDbSpline
210
0.0
220
0.0
230
1.0
 70
    11
 71
     3
 72
    32
 73
    28
 74
     0
 42
0.0000000001
 43
0.0000000001
 12
1.0
 22
0.0
 32
0.0
 13
1.0
 23
0.0
 33
0.0
 40
0.0
 40
0.0
 40
0.0
 40
0.0
 40
0.125
 40
0.125
 40
0.125
 40
0.125
 40
0.25
 40
0.25
 40
0.25
 40
0.25
 40
0.375
 40
0.375
 40
0.375
 40
0.375
 40
0.5
 40
0.5
 40
0.5
 40
0.5
 40
0.625
 40
0.625
 40
0.625
 40
0.625
 40
0.75
 40
0.75
 40
0.75
 40
0.75
 40
1.0
 40
1.0
 40
1.0
 40
1.0
 10
-165.6061
 20
-58.3718
 30
0.0
 10
-165.6061
 20
-58.3718
 30
0.0
 10
-165.5582
 20
-73.4019
 30
0.0
 10
-165.5582
 20
-73.4019
 30
0.0
 10
-165.5582
 20
-73.4019
 30
0.0
 10
-171.3766
 20
-73.8827
 30
0.0
 10
-179.0365
 20
-80.2308
 30
0.0
 10
-180.5279
 20
-88.9695
 30
0.0
 10
-180.5279
 20
-88.9695
 30
0.0
 10
-180.5279
 20
-88.9695
 30
0.0
 10
-180.504
 20
-77.1337
 30
0.0
 10
-180.504
 20
-77.1337
 30
0.0
 10
-180.504
 20
-77.1337
 30
0.0
 10
-177.0499
 20
-76.9814
 30
0.0
 10
-175.0654
 20
-74.5346
 30
0.0
 10
-175.9171
 20
-71.3742
 30
0.0
 10
-175.9171
 20
-71.3742
 30
0.0
 10
-171.7636
 20
-74.3681
 30
0.0
 10
-169.5089
 20
-70.1797
 30
0.0
 10
-170.6625
 20
-68.3153
 30
0.0
 10
-170.6625
 20
-68.3153
 30
0.0
 10
-171.9253
 20
-66.2747
 30
0.0
 10
-175.3176
 20
-66.3905
 30
0.0
 10
-175.3383
 20
-69.6066
 30
0.0
 10
-175.3383
 20
-69.6066
 30
0.0
 10
-180.534
 20
-65.6943
 30
0.0
 10
-175.3729
 20
-56.5538
 30
0.0
 10
-165.6061
 20
-58.3718
 30
0.0
  0
SPLINE
  5
73
330
1F
100
AcDbEntity
  8
layer 1
 62
     7
100
AcDbSpline
210
0.0
220
0.0
230
1.0
 70
    11
 71
     3
 72
    24
 73
    20
 74
     0
 42
0.0000000001
 43
0.0000000001
 12
1.0
 22
0.0
 32
0.0
 13
1.0
 23
0.0
 33
0.0
 40
0.0
 40
0.0
 40
0.0
 40
0.0
 40
0.1666666666666667
 40
0.1666666666666667
 40
0.1666666666666667
 40
0.1666666666666667
 40
0.3333333333333333
 40
0.3333333333333333
 40
0.3333333333333333
 40
0.3333333333333333
 40
0.5
 40
0.5
 40
0.5
 40
0.5
 40
0.6666666666666666
 40
0.6666666666666666
 40
0.6666666666666666
 40
0.6666666666666666
 40
1.0
 40
1.0
 40
1.0
 40
1.0
 10
-160.0481
 20
-59.2825
 30
0.0
 10
-160.0481
 20
-59.2825
 30
0.0
 10
-160.0955
 20
-71.9534
 30
0.0
 10
-160.0955
 20
-71.9534
 30
0.0
 10
-160.0955
 20
-71.9534
 30
0.0
 10
-158.4964
 20
-68.7832
 30
0.0
 10
-154.425
 20
-70.2779
 30
0.0
 10
-152.4181
 20
-72.2324
 30
0.0
 10
-152.4181
 20
-72.2324
 30
0.0
 10
-152.5497
 20
-71.3108
 30
0.0
 10
-152.9814
 20
-70.7158
 30
0.0
 10
-152.3101
 20
-69.1195
 30
0.0
 10
-152.3101
 20
-69.1195
 30
0.0
 10
-150.9518
 20
-69.9112
 30
0.0
 10
-149.4242
 20
-71.6455
 30
0.0
 10
-148.3324
 20
-75.0232
 30
0.0
 10
-148.3324
 20
-75.0232
 30
0.0
 10
-147.9088
 20
-70.5192
 30
0.0
 10
-152.9624
 20
-62.5608
 30
0.0
 10
-160.0481
 20
-59.2825
 30
0.0
  0
SPLINE
  5
74
330
1F
100
AcDbEntity
  8
layer 1
 62
     7
100
AcDbSpline
210
0.0
220
0.0
230
1.0
 70
    11
 71
     3
 72
    20
 73
    16
 74
     0
 42
0.0000000001
 43
0.0000000001
 12
1.0
 22
0.0
 32
0.0
 13
1.0
 23
0.0
 33
0.0
 40
0.0
 40
0.0
 40
0.0
 40
0.0
 40
0.2
 40
0.2
 40
0.2
 40
0.2
 40
0.4
 40
0.4
 40
0.4
 40
0.4
 40
0.6
 40
0.6
 40
0.6
 40
0.6
 40
1.0
 40
1.0
 40
1.0
 40
1.0
 10
-145.9875
 20
-41.5856
 30
0.0
 10
-145.9875
 20
-41.5856
 30
0.0
 10
-143.4648
 20
-37.8302
 30
0.0
 10
-143.4648
 20
-37.8302
 30
0.0
 10
-143.4648
 20
-37.8302
 30
0.0
 10
-143.4648
 20
-37.8302
 30
0.0
 10
-145.9875
 20
-34.0747
 30
0.0
 10
-145.9875
 20
-34.0747
 30
0.0
 10
-145.9875
 20
-34.0747
 30
0.0
 10
-145.9875
 20
-34.0747
 30
0.0
 10
-148.5103
 20
-37.8302
 30
0.0
 10
-148.5103
 20
-37.8302
 30
0.0
 10
-148.5103
 20
-37.8302
 30
0.0
 10
-148.5103
 20
-37.8302
 30
0.0
 10
-145.9875
 20
-41.5856
 30
0.0
 10
-145.9875
 20
-41.5856
 30
0.0
  0
SPLINE
  5
75
330
1F
100
AcDbEntity
  8
layer 1
 62
     7
100
AcDbSpline
210
0.0
220
0.0
230
1.0
 70
    11
 71
     3
 72
    20
 73
    16
 74
     0
 42
0.0000000001
 43
0.0000000001
 12
1.0
 22
0.0
 32
0.0
 13
1.0
 23
0.0
 33
0.0
 40
0.0
 40
0.0
 40
0.0
 40
0.0
 40
0.2
 40
0.2
 40
0.2
 40
0.2
 40
0.4
 40
0.4
 40
0.4
 40
0.4
 40
0.6
 40
0.6
 40
0.6
 40
0.6
 40
1.0
 40
1.0
 40
1.0
 40
1.0
 10
-151.8324
 20
-32.9529
 30
0.0
 10
-151.8324
 20
-32.9529
 30
0.0
 10
-149.3097
 20
-29.1974
 30
0.0
 10
-149.3097
 20
-29.1974
 30
0.0
 10
-149.3097
 20
-29.1974
 30
0.0
 10
-149.3097
 20
-29.1974
 30
0.0
 10
-151.8324
 20
-25.4419
 30
0.0
 10
-151.8324
 20
-25.4419
 30
0.0
 10
-151.8324
 20
-25.4419
 30
0.0
 10
-151.8324
 20
-25.4419
 30
0.0
 10
-154.3551
 20
-29.1974
 30
0.0
 10
-154.3551
 20
-29.1974
 30
0.0
 10
-154.3551
 20
-29.1974
 30
0.0
 10
-154.3551
 20
-29.1974
 30
0.0
 10
-151.8324
 20
-32.9529
 30
0.0
 10
-151.8324
 20
-32.9529
 30
0.0
  0
SPLINE
  5
76
330
1F
100
AcDbEntity
  8
layer 1
 62
     7
100
AcDbSpline
210
0.0
220
0.0
230
1.0
 70
    11
 71
     3
 72
    20
 73
    16
 74
     0
 42
0.0000000001
 43
0.0000000001
 12
1.0
 22
0.0
 32
0.0
 13
1.0
 23
0.0
 33
0.0
 40
0.0
 40
0.0
 40
0.0
 40
0.0
 40
0.2
 40
0.2
 40
0.2
 40
0.2
 40
0.4
 40
0.4
 40
0.4
 40
0.4
 40
0.6
 40
0.6
 40
0.6
 40
0.6
 40
1.0
 40
1.0
 40
1.0
 40
1.0
 10
-140.3569
 20
-32.9529
 30
0.0
 10
-140.3569
 20
-32.9529
 30
0.0
 10
-137.8353
 20
-29.1974
 30
0.0
 10
-137.8353
 20
-29.1974
 30
0.0
 10
-137.8353
 20
-29.1974
 30
0.0
 10
-137.8353
 20
-29.1974
 30
0.0
 10
-140.3569
 20
-25.4419
 30
0.0
 10
-140.3569
 20
-25.4419
 30
0.0
 10
-140.3569
 20
-25.4419
 30
0.0
 10
-140.3569
 20
-25.4419
 30
0.0
 10
-142.8791
 20
-29.1974
 30
0.0
 10
-142.8791
 20
-29.1974
 30
0.0
 10
-142.8791
 20
-29.1974
 30
0.0
 10
-142.8791
 20
-29.1974
 30
0.0
 10
-140.3569
 20
-32.9529
 30
0.0
 10
-140.3569
 20
-32.9529
 30
0.0
  0
SPLINE
  5
77
330
1F
100
AcDbEntity
  8
layer 1
 62
     7
100
AcDbSpline
210
0.0
220
0.0
230
1.0
 70
    11
 71
     3
 72
    20
 73
    16
 74
     0
 42
0.0000000001
 43
0.0000000001
 12
1.0
 22
0.0
 32
0.0
 13
1.0
 23
0.0
 33
0.0
 40
0.0
 40
0.0
 40
0.0
 40
0.0
 40
0.2
 40
0.2
 40
0.2
 40
0.2
 40
0.4
 40
0.4
 40
0.4
 40
0.4
 40
0.6
 40
0.6
 40
0.6
 40
0.6
 40
1.0
 40
1.0
 40
1.0
 40
1.0
 10
-145.9875
 20
-24.3725
 30
0.0
 10
-145.9875
 20
-24.3725
 30
0.0
 10
-143.4648
 20
-20.6171
 30
0.0
 10
-143.4648
 20
-20.6171
 30
0.0
 10
-143.4648
 20
-20.6171
 30
0.0
 10
-143.4648
 20
-20.6171
 30
0.0
 10
-145.9875
 20
-16.8616
 30
0.0
 10
-145.9875
 20
-16.8616
 30
0.0
 10
-145.9875
 20
-16.8616
 30
0.0
 10
-145.9875
 20
-16.8616
 30
0.0
 10
-148.5103
 20
-20.6171
 30
0.0
 10
-148.5103
 20
-20.6171
 30
0.0
 10
-148.5103
 20
-20.6171
 30
0.0
 10
-148.5103
 20
-20.6171
 30
0.0
 10
-145.9875
 20
-24.3725
 30
0.0
 10
-145.9875
 20
-24.3725
 30
0.0
  0
SPLINE
  5
78
330
1F
100
AcDbEntity
  8
layer 1
 62
     7
100
AcDbSpline
210
0.0
220
0.0
230
1.0
 70
    11
 71
     3
 72
    16
 73
    12
 74
     0
 42
0.0000000001
 43
0.0000000001
 12
1.0
 22
0.0
 32
0.0
 13
1.0
 23
0.0
 33
0.0
 40
0.0
 40
0.0
 40
0.0
 40
0.0
 40
0.25
 40
0.25
 40
0.25
 40
0.25
 40
0.5
 40
0.5
 40
0.5
 40
0.5
 40
1.0
 40
1.0
 40
1.0
 40
1.0
 10
-167.1117
 20
-55.3987
 30
0.0
 10
-171.6856
 20
-55.7475
 30
0.0
 10
-178.811
 20
-57.1533
 30
0.0
 10
-180.5548
 20
-65.185
 30
0.0
 10
-180.5548
 20
-65.185
 30
0.0
 10
-180.504
 20
-61.8451
 30
0.0
 10
-180.5231
 20
-46.3549
 30
0.0
 10
-180.5247
 20
-43.017
 30
0.0
 10
-180.5247
 20
-43.017
 30
0.0
 10
-178.3748
 20
-48.7951
 30
0.0
 10
-174.0134
 20
-52.8999
 30
0.0
 10
-167.1117
 20
-55.3987
 30
0.0
  0
SPLINE
  5
79
330
1F
100
AcDbEntity
  8
layer 1
 62
     7
100
AcDbSpline
210
0.0
220
0.0
230
1.0
 70
    11
 71
     3
 72
    20
 73
    16
 74
     0
 42
0.0000000001
 43
0.0000000001
 12
1.0
 22
0.0
 32
0.0
 13
1.0
 23
0.0
 33
0.0
 40
0.0
 40
0.0
 40
0.0
 40
0.0
 40
0.2
 40
0.2
 40
0.2
 40
0.2
 40
0.4
 40
0.4
 40
0.4
 40
0.4
 40
0.6
 40
0.6
 40
0.6
 40
0.6
 40
1.0
 40
1.0
 40
1.0
 40
1.0
 10
-175.8411
 20
-24.0634
 30
0.0
 10
-177.6941
 20
-25.3196
 30
0.0
 10
-178.9415
 20
-26.6828
 30
0.0
 10
-180.5548
 20
-30.738
 30
0.0
 10
-180.5548
 20
-30.738
 30
0.0
 10
-180.504
 20
-27.3997
 30
0.0
 10
-180.5231
 20
-17.6139
 30
0.0
 10
-180.5247
 20
-14.2755
 30
0.0
 10
-180.5247
 20
-14.2755
 30
0.0
 10
-179.4967
 20
-16.641
 30
0.0
 10
-177.3355
 20
-18.0217
 30
0.0
 10
-175.0954
 20
-17.6297
 30
0.0
 10
-175.0954
 20
-17.6297
 30
0.0
 10
-177.5641
 20
-18.6293
 30
0.0
 10
-177.6941
 20
-23.1113
 30
0.0
 10
-175.8411
 20
-24.0634
 30
0.0
  0
SPLINE
  5
7A
330
1F
100
AcDbEntity
  8
layer 1
 62
     7
100
AcDbSpline
210
0.0
220
0.0
230
1.0
 70
    11
 71
     3
 72
    24
 73
    20
 74
     0
 42
0.0000000001
 43
0.0000000001
 12
1.0
 22
0.0
 32
0.0
 13
1.0
 23
0.0
 33
0.0
 40
0.0
 40
0.0
 40
0.0
 40
0.0
 40
0.1666666666666667
 40
0.1666666666666667
 40
0.1666666666666667
 40
0.1666666666666667
 40
0.3333333333333333
 40
0.3333333333333333
 40
0.3333333333333333
 40
0.3333333333333333
 40
0.5
 40
0.5
 40
0.5
 40
0.5
 40
0.6666666666666666
 40
0.6666666666666666
 40
0.6666666666666666
 40
0.6666666666666666
 40
1.0
 40
1.0
 40
1.0
 40
1.0
 10
-178.4781
 20
-11.702
 30
0.0
 10
-175.6458
 20
-14.4944
 30
0.0
 10
-173.3436
 20
-10.4153
 30
0.0
 10
-175.3383
 20
-8.6891
 30
0.0
 10
-175.3383
 20
-8.6891
 30
0.0
 10
-176.8774
 20
-7.3548
 30
0.0
 10
-179.8489
 20
-8.1082
 30
0.0
 10
-180.5548
 20
-11.1167
 30
0.0
 10
-180.5548
 20
-11.1167
 30
0.0
 10
-180.5548
 20
-11.1167
 30
0.0
 10
-180.5247
 20
4.2227
 30
0.0
 10
-180.5247
 20
4.2227
 30
0.0
 10
-180.5247
 20
4.2227
 30
0.0
 10
-180.5247
 20
4.2227
 30
0.0
 10
-168.0938
 20
-14.4753
 30
0.0
 10
-168.0938
 20
-14.4753
 30
0.0
 10
-168.0938
 20
-14.4753
 30
0.0
 10
-171.2096
 20
-16.8568
 30
0.0
 10
-179.5093
 20
-16.9315
 30
0.0
 10
-178.4781
 20
-11.702
 30
0.0
  0
SPLINE
  5
7B
330
1F
100
AcDbEntity
  8
layer 1
 62
     7
100
AcDbSpline
210
0.0
220
0.0
230
1.0
 70
    11
 71
     3
 72
    24
 73
    20
 74
     0
 42
0.0000000001
 43
0.0000000001
 12
1.0
 22
0.0
 32
0.0
 13
1.0
 23
0.0
 33
0.0
 40
0.0
 40
0.0
 40
0.0
 40
0.0
 40
0.1666666666666667
 40
0.1666666666666667
 40
0.1666666666666667
 40
0.1666666666666667
 40
0.3333333333333333
 40
0.3333333333333333
 40
0.3333333333333333
 40
0.3333333333333333
 40
0.5
 40
0.5
 40
0.5
 40
0.5
 40
0.6666666666666666
 40
0.6666666666666666
 40
0.6666666666666666
 40
0.6666666666666666
 40
1.0
 40
1.0
 40
1.0
 40
1.0
 10
-169.6405
 20
2.7946
 30
0.0
 10
-167.9208
 20
4.8812
 30
0.0
 10
-164.5874
 20
2.8917
 30
0.0
 10
-165.2632
 20
0.3418
 30
0.0
 10
-165.2632
 20
0.3418
 30
0.0
 10
-165.7851
 20
-1.6269
 30
0.0
 10
-168.6649
 20
-2.6757
 30
0.0
 10
-170.9416
 20
-0.5879
 30
0.0
 10
-170.9416
 20
-0.5879
 30
0.0
 10
-170.9416
 20
-0.5879
 30
0.0
 10
-163.8826
 20
-11.0895
 30
0.0
 10
-163.8826
 20
-11.0895
 30
0.0
 10
-163.8826
 20
-11.0895
 30
0.0
 10
-159.6687
 20
-7.8336
 30
0.0
 10
-159.4404
 20
-2.1128
 30
0.0
 10
-160.2702
 20
1.3064
 30
0.0
 10
-160.2702
 20
1.3064
 30
0.0
 10
-162.0979
 20
8.838
 30
0.0
 10
-169.812
 20
5.7808
 30
0.0
 10
-169.6405
 20
2.7946
 30
0.0
  0
SPLINE
  5
7C
330
1F
100
AcDbEntity
  8
layer 1
 62
     7
100
AcDbSpline
210
0.0
220
0.0
230
1.0
 70
    11
 71
     3
 72
    32
 73
    28
 74
     0
 42
0.0000000001
 43
0.0000000001
 12
1.0
 22
0.0
 32
0.0
 13
1.0
 23
0.0
 33
0.0
 40
0.0
 40
0.0
 40
0.0
 40
0.0
 40
0.125
 40
0.125
 40
0.125
 40
0.125
 40
0.25
 40
0.25
 40
0.25
 40
0.25
 40
0.375
 40
0.375
 40
0.375
 40
0.375
 40
0.5
 40
0.5
 40
0.5
 40
0.5
 40
0.625
 40
0.625
 40
0.625
 40
0.625
 40
0.75
 40
0.75
 40
0.75
 40
0.75
 40
1.0
 40
1.0
 40
1.0
 40
1.0
 10
-146.005
 20
-4.7337
 30
0.0
 10
-152.2309
 20
-4.5481
 30
0.0
 10
-155.5721
 20
-1.4064
 30
0.0
 10
-157.7394
 20
2.1268
 30
0.0
 10
-157.7394
 20
2.1268
 30
0.0
 10
-156.2653
 20
-3.4994
 30
0.0
 10
-156.9985
 20
-8.6635
 30
0.0
 10
-162.7198
 20
-13.2568
 30
0.0
 10
-162.7198
 20
-13.2568
 30
0.0
 10
-162.7198
 20
-13.2568
 30
0.0
 10
-159.8892
 20
-17.6914
 30
0.0
 10
-159.8892
 20
-17.6914
 30
0.0
 10
-159.8892
 20
-17.6914
 30
0.0
 10
-159.8892
 20
-17.6914
 30
0.0
 10
-155.2263
 20
-10.5185
 30
0.0
 10
-155.2263
 20
-10.5185
 30
0.0
 10
-155.2263
 20
-10.5185
 30
0.0
 10
-155.2263
 20
-10.5185
 30
0.0
 10
-150.6618
 20
-17.9071
 30
0.0
 10
-150.6618
 20
-17.9071
 30
0.0
 10
-150.6618
 20
-17.9071
 30
0.0
 10
-150.6618
 20
-17.9071
 30
0.0
 10
-146.0319
 20
-10.2962
 30
0.0
 10
-146.0319
 20
-10.2962
 30
0.0
 10
-146.0319
 20
-10.2962
 30
0.0
 10
-146.0319
 20
-10.2962
 30
0.0
 10
-146.005
 20
-4.7337
 30
0.0
 10
-146.005
 20
-4.7337
 30
0.0
  0
SPLINE
  5
7D
330
1F
100
AcDbEntity
  8
layer 1
 62
     7
100
AcDbSpline
210
0.0
220
0.0
230
1.0
 70
    11
 71
     3
 72
    60
 73
    56
 74
     0
 42
0.0000000001
 43
0.0000000001
 12
1.0
 22
0.0
 32
0.0
 13
1.0
 23
0.0
 33
0.0
 40
0.0
 40
0.0
 40
0.0
 40
0.0
 40
0.0666666666666667
 40
0.0666666666666667
 40
0.0666666666666667
 40
0.0666666666666667
 40
0.1333333333333333
 40
0.1333333333333333
 40
0.1333333333333333
 40
0.1333333333333333
 40
0.2
 40
0.2
 40
0.2
 40
0.2
 40
0.2666666666666667
 40
0.2666666666666667
 40
0.2666666666666667
 40
0.2666666666666667
 40
0.3333333333333333
 40
0.3333333333333333
 40
0.3333333333333333
 40
0.3333333333333333
 40
0.4
 40
0.4
 40
0.4
 40
0.4
 40
0.4666666666666667
 40
0.4666666666666667
 40
0.4666666666666667
 40
0.4666666666666667
 40
0.5333333333333333
 40
0.5333333333333333
 40
0.5333333333333333
 40
0.5333333333333333
 40
0.6
 40
0.6
 40
0.6
 40
0.6
 40
0.6666666666666666
 40
0.6666666666666666
 40
0.6666666666666666
 40
0.6666666666666666
 40
0.7333333333333333
 40
0.7333333333333333
 40
0.7333333333333333
 40
0.7333333333333333
 40
0.8
 40
0.8
 40
0.8
 40
0.8
 40
0.8666666666666667
 40
0.8666666666666667
 40
0.8666666666666667
 40
0.8666666666666667
 40
1.0
 40
1.0
 40
1.0
 40
1.0
 10
-153.9712
 20
-36.1897
 30
0.0
 10
-153.9712
 20
-36.1897
 30
0.0
 10
-164.7397
 20
-52.4807
 30
0.0
 10
-164.7397
 20
-52.4807
 30
0.0
 10
-164.7397
 20
-52.4807
 30
0.0
 10
-167.0179
 20
-51.0356
 30
0.0
 10
-167.5748
 20
-47.6574
 30
0.0
 10
-167.6971
 20
-45.6823
 30
0.0
 10
-167.6971
 20
-45.6823
 30
0.0
 10
-169.2994
 20
-46.1489
 30
0.0
 10
-170.905
 20
-46.8135
 30
0.0
 10
-170.0707
 20
-52.1859
 30
0.0
 10
-170.0707
 20
-52.1859
 30
0.0
 10
-175.738
 20
-48.5653
 30
0.0
 10
-180.534
 20
-39.3201
 30
0.0
 10
-177.2071
 20
-31.1807
 30
0.0
 10
-177.2071
 20
-31.1807
 30
0.0
 10
-175.6207
 20
-28.8659
 30
0.0
 10
-172.1032
 20
-24.0979
 30
0.0
 10
-166.7673
 20
-27.8393
 30
0.0
 10
-166.7673
 20
-27.8393
 30
0.0
 10
-163.7145
 20
-29.9797
 30
0.0
 10
-165.8709
 20
-35.4232
 30
0.0
 10
-169.9026
 20
-33.2193
 30
0.0
 10
-169.9026
 20
-33.2193
 30
0.0
 10
-170.3339
 20
-38.4503
 30
0.0
 10
-164.5459
 20
-38.4935
 30
0.0
 10
-162.2914
 20
-35.2965
 30
0.0
 10
-162.2914
 20
-35.2965
 30
0.0
 10
-156.1102
 20
-25.0914
 30
0.0
 10
-168.5869
 20
-20.2889
 30
0.0
 10
-175.0589
 20
-23.6427
 30
0.0
 10
-175.0589
 20
-23.6427
 30
0.0
 10
-173.9354
 20
-18.4306
 30
0.0
 10
-170.2783
 20
-17.866
 30
0.0
 10
-166.8973
 20
-16.6853
 30
0.0
 10
-166.8973
 20
-16.6853
 30
0.0
 10
-166.8973
 20
-16.6853
 30
0.0
 10
-160.5573
 20
-26.2019
 30
0.0
 10
-160.5573
 20
-26.2019
 30
0.0
 10
-160.5573
 20
-26.2019
 30
0.0
 10
-160.5573
 20
-26.2019
 30
0.0
 10
-155.977
 20
-19.3795
 30
0.0
 10
-155.977
 20
-19.3795
 30
0.0
 10
-155.977
 20
-19.3795
 30
0.0
 10
-155.977
 20
-19.3795
 30
0.0
 10
-153.9664
 20
-22.4164
 30
0.0
 10
-153.9664
 20
-22.4164
 30
0.0
 10
-153.9664
 20
-22.4164
 30
0.0
 10
-153.9664
 20
-22.4164
 30
0.0
 10
-158.6755
 20
-29.4545
 30
0.0
 10
-158.6755
 20
-29.4545
 30
0.0
 10
-158.6755
 20
-29.4545
 30
0.0
 10
-158.6755
 20
-29.4545
 30
0.0
 10
-153.9712
 20
-36.1897
 30
0.0
 10
-153.9712
 20
-36.1897
 30
0.0
  0
SPLINE
  5
7E
330
1F
100
AcDbEntity
  8
layer 1
 62
     7
100
AcDbSpline
210
0.0
220
0.0
230
1.0
 70
    11
 71
     3
 72
    24
 73
    20
 74
     0
 42
0.0000000001
 43
0.0000000001
 12
1.0
 22
0.0
 32
0.0
 13
1.0
 23
0.0
 33
0.0
 40
0.0
 40
0.0
 40
0.0
 40
0.0
 40
0.1666666666666667
 40
0.1666666666666667
 40
0.1666666666666667
 40
0.1666666666666667
 40
0.3333333333333333
 40
0.3333333333333333
 40
0.3333333333333333
 40
0.3333333333333333
 40
0.5
 40
0.5
 40
0.5
 40
0.5
 40
0.6666666666666666
 40
0.6666666666666666
 40
0.6666666666666666
 40
0.6666666666666666
 40
1.0
 40
1.0
 40
1.0
 40
1.0
 10
-143.5315
 20
-98.8159
 30
0.0
 10
-143.5315
 20
-98.8159
 30
0.0
 10
-140.8341
 20
-98.7684
 30
0.0
 10
-140.8341
 20
-98.7684
 30
0.0
 10
-140.8341
 20
-98.7684
 30
0.0
 10
-140.7833
 20
-104.5868
 30
0.0
 10
-135.4
 20
-108.2249
 30
0.0
 10
-132.7744
 20
-108.8577
 30
0.0
 10
-132.7744
 20
-108.8577
 30
0.0
 10
-136.9819
 20
-108.8402
 30
0.0
 10
-138.9861
 20
-108.8402
 30
0.0
 10
-142.1956
 20
-108.8341
 30
0.0
 10
-142.1956
 20
-108.8341
 30
0.0
 10
-139.5506
 20
-107.8374
 30
0.0
 10
-140.9646
 20
-105.2054
 30
0.0
 10
-143.5283
 20
-105.8447
 30
0.0
 10
-143.5283
 20
-105.8447
 30
0.0
 10
-143.5283
 20
-105.8447
 30
0.0
 10
-143.5315
 20
-98.8159
 30
0.0
 10
-143.5315
 20
-98.8159
 30
0.0
  0
SPLINE
  5
7F
330
1F
100
AcDbEntity
  8
layer 1
 62
     7
100
AcDbSpline
210
0.0
220
0.0
230
1.0
 70
    11
 71
     3
 72
    16
 73
    12
 74
     0
 42
0.0000000001
 43
0.0000000001
 12
1.0
 22
0.0
 32
0.0
 13
1.0
 23
0.0
 33
0.0
 40
0.0
 40
0.0
 40
0.0
 40
0.0
 40
0.25
 40
0.25
 40
0.25
 40
0.25
 40
0.5
 40
0.5
 40
0.5
 40
0.5
 40
1.0
 40
1.0
 40
1.0
 40
1.0
 10
-111.5789
 20
-96.049
 30
0.0
 10
-113.0703
 20
-102.424
 30
0.0
 10
-115.7246
 20
-106.2683
 30
0.0
 10
-123.5877
 20
-108.8577
 30
0.0
 10
-123.5877
 20
-108.8577
 30
0.0
 10
-119.3786
 20
-108.8402
 30
0.0
 10
-114.7599
 20
-108.8402
 30
0.0
 10
-111.5488
 20
-108.8341
 30
0.0
 10
-111.5488
 20
-108.8341
 30
0.0
 10
-111.5996
 20
-105.4958
 30
0.0
 10
-111.5805
 20
-99.389
 30
0.0
 10
-111.5789
 20
-96.049
 30
0.0
  0
SPLINE
  5
80
330
1F
100
AcDbEntity
  8
layer 1
 62
     7
100
AcDbSpline
210
0.0
220
0.0
230
1.0
 70
    11
 71
     3
 72
    24
 73
    20
 74
     0
 42
0.0000000001
 43
0.0000000001
 12
1.0
 22
0.0
 32
0.0
 13
1.0
 23
0.0
 33
0.0
 40
0.0
 40
0.0
 40
0.0
 40
0.0
 40
0.1666666666666667
 40
0.1666666666666667
 40
0.1666666666666667
 40
0.1666666666666667
 40
0.3333333333333333
 40
0.3333333333333333
 40
0.3333333333333333
 40
0.3333333333333333
 40
0.5
 40
0.5
 40
0.5
 40
0.5
 40
0.6666666666666666
 40
0.6666666666666666
 40
0.6666666666666666
 40
0.6666666666666666
 40
1.0
 40
1.0
 40
1.0
 40
1.0
 10
-122.9549
 20
-91.8777
 30
0.0
 10
-123.3213
 20
-93.1791
 30
0.0
 10
-125.1807
 20
-93.9025
 30
0.0
 10
-126.1803
 20
-92.7538
 30
0.0
 10
-126.1803
 20
-92.7538
 30
0.0
 10
-124.8651
 20
-97.8861
 30
0.0
 10
-131.4971
 20
-100.7692
 30
0.0
 10
-134.9621
 20
-96.3456
 30
0.0
 10
-134.9621
 20
-96.3456
 30
0.0
 10
-138.1862
 20
-105.3134
 30
0.0
 10
-124.4289
 20
-106.5653
 30
0.0
 10
-120.2323
 20
-100.8724
 30
0.0
 10
-120.2323
 20
-100.8724
 30
0.0
 10
-118.0333
 20
-98.4752
 30
0.0
 10
-117.1572
 20
-89.1316
 30
0.0
 10
-122.6596
 20
-87.7083
 30
0.0
 10
-122.6596
 20
-87.7083
 30
0.0
 10
-126.6802
 20
-86.7547
 30
0.0
 10
-127.3529
 20
-92.0622
 30
0.0
 10
-122.9549
 20
-91.8777
 30
0.0
  0
SPLINE
  5
81
330
1F
100
AcDbEntity
  8
layer 1
 62
     7
100
AcDbSpline
210
0.0
220
0.0
230
1.0
 70
    11
 71
     3
 72
    52
 73
    48
 74
     0
 42
0.0000000001
 43
0.0000000001
 12
1.0
 22
0.0
 32
0.0
 13
1.0
 23
0.0
 33
0.0
 40
0.0
 40
0.0
 40
0.0
 40
0.0
 40
0.0769230769230769
 40
0.0769230769230769
 40
0.0769230769230769
 40
0.0769230769230769
 40
0.1538461538461539
 40
0.1538461538461539
 40
0.1538461538461539
 40
0.1538461538461539
 40
0.2307692307692308
 40
0.2307692307692308
 40
0.2307692307692308
 40
0.2307692307692308
 40
0.3076923076923077
 40
0.3076923076923077
 40
0.3076923076923077
 40
0.3076923076923077
 40
0.3846153846153846
 40
0.3846153846153846
 40
0.3846153846153846
 40
0.3846153846153846
 40
0.4615384615384616
 40
0.4615384615384616
 40
0.4615384615384616
 40
0.4615384615384616
 40
0.5384615384615384
 40
0.5384615384615384
 40
0.5384615384615384
 40
0.5384615384615384
 40
0.6153846153846154
 40
0.6153846153846154
 40
0.6153846153846154
 40
0.6153846153846154
 40
0.6923076923076923
 40
0.6923076923076923
 40
0.6923076923076923
 40
0.6923076923076923
 40
0.7692307692307693
 40
0.7692307692307693
 40
0.7692307692307693
 40
0.7692307692307693
 40
0.8461538461538461
 40
0.8461538461538461
 40
0.8461538461538461
 40
0.8461538461538461
 40
1.0
 40
1.0
 40
1.0
 40
1.0
 10
-138.1973
 20
-84.1429
 30
0.0
 10
-137.6928
 20
-80.4383
 30
0.0
 10
-138.1481
 20
-80.7827
 30
0.0
 10
-139.1477
 20
-79.6341
 30
0.0
 10
-139.1477
 20
-79.6341
 30
0.0
 10
-139.9186
 20
-82.7945
 30
0.0
 10
-142.8714
 20
-81.9997
 30
0.0
 10
-144.2898
 20
-87.2831
 30
0.0
 10
-144.2898
 20
-87.2831
 30
0.0
 10
-144.8215
 20
-76.8002
 30
0.0
 10
-138.4576
 20
-72.2499
 30
0.0
 10
-135.7777
 20
-72.1675
 30
0.0
 10
-135.7777
 20
-72.1675
 30
0.0
 10
-136.733
 20
-73.3336
 30
0.0
 10
-136.2363
 20
-74.8535
 30
0.0
 10
-135.205
 20
-75.4217
 30
0.0
 10
-135.205
 20
-75.4217
 30
0.0
 10
-134.2305
 20
-75.9579
 30
0.0
 10
-132.7631
 20
-75.6166
 30
0.0
 10
-132.1397
 20
-74.1333
 30
0.0
 10
-132.1397
 20
-74.1333
 30
0.0
 10
-132.1397
 20
-74.1333
 30
0.0
 10
-132.1985
 20
-77.7206
 30
0.0
 10
-132.1985
 20
-77.7206
 30
0.0
 10
-132.1985
 20
-77.7206
 30
0.0
 10
-121.2287
 20
-77.0147
 30
0.0
 10
-115.2612
 20
-87.6227
 30
0.0
 10
-116.6004
 20
-91.775
 30
0.0
 10
-116.6004
 20
-91.775
 30
0.0
 10
-117.6697
 20
-83.8257
 30
0.0
 10
-122.3631
 20
-84.7872
 30
0.0
 10
-125.1873
 20
-82.5041
 30
0.0
 10
-125.1873
 20
-82.5041
 30
0.0
 10
-125.6441
 20
-83.7417
 30
0.0
 10
-125.1238
 20
-84.7336
 30
0.0
 10
-124.1543
 20
-85.5171
 30
0.0
 10
-124.1543
 20
-85.5171
 30
0.0
 10
-127.0576
 20
-84.6065
 30
0.0
 10
-129.2392
 20
-86.8371
 30
0.0
 10
-128.703
 20
-89.6551
 30
0.0
 10
-128.703
 20
-89.6551
 30
0.0
 10
-129.636
 20
-89.0301
 30
0.0
 10
-130.2229
 20
-88.8237
 30
0.0
 10
-131.5254
 20
-88.6938
 30
0.0
 10
-131.5254
 20
-88.6938
 30
0.0
 10
-127.026
 20
-86.5467
 30
0.0
 10
-132.2095
 20
-79.9388
 30
0.0
 10
-138.1973
 20
-84.1429
 30
0.0
  0
SPLINE
  5
82
330
1F
100
AcDbEntity
  8
layer 1
 62
     7
100
AcDbSpline
210
0.0
220
0.0
230
1.0
 70
    11
 71
     3
 72
    20
 73
    16
 74
     0
 42
0.0000000001
 43
0.0000000001
 12
1.0
 22
0.0
 32
0.0
 13
1.0
 23
0.0
 33
0.0
 40
0.0
 40
0.0
 40
0.0
 40
0.0
 40
0.2
 40
0.2
 40
0.2
 40
0.2
 40
0.4
 40
0.4
 40
0.4
 40
0.4
 40
0.6
 40
0.6
 40
0.6
 40
0.6
 40
1.0
 40
1.0
 40
1.0
 40
1.0
 10
-143.3694
 20
-96.0982
 30
0.0
 10
-143.3694
 20
-96.0982
 30
0.0
 10
-140.6741
 20
-96.1458
 30
0.0
 10
-140.6741
 20
-96.1458
 30
0.0
 10
-140.6741
 20
-96.1458
 30
0.0
 10
-139.3889
 20
-90.4881
 30
0.0
 10
-136.2586
 20
-89.1567
 30
0.0
 10
-133.2566
 20
-88.63
 30
0.0
 10
-133.2566
 20
-88.63
 30
0.0
 10
-135.3731
 20
-88.4334
 30
0.0
 10
-135.7144
 20
-85.5378
 30
0.0
 10
-133.5629
 20
-84.7937
 30
0.0
 10
-133.5629
 20
-84.7937
 30
0.0
 10
-140.3569
 20
-84.1559
 30
0.0
 10
-144.2788
 20
-89.3741
 30
0.0
 10
-143.3694
 20
-96.0982
 30
0.0
  0
SPLINE
  5
83
330
1F
100
AcDbEntity
  8
layer 1
 62
     7
100
AcDbSpline
210
0.0
220
0.0
230
1.0
 70
    11
 71
     3
 72
    32
 73
    28
 74
     0
 42
0.0000000001
 43
0.0000000001
 12
1.0
 22
0.0
 32
0.0
 13
1.0
 23
0.0
 33
0.0
 40
0.0
 40
0.0
 40
0.0
 40
0.0
 40
0.125
 40
0.125
 40
0.125
 40
0.125
 40
0.25
 40
0.25
 40
0.25
 40
0.25
 40
0.375
 40
0.375
 40
0.375
 40
0.375
 40
0.5
 40
0.5
 40
0.5
 40
0.5
 40
0.625
 40
0.625
 40
0.625
 40
0.625
 40
0.75
 40
0.75
 40
0.75
 40
0.75
 40
1.0
 40
1.0
 40
1.0
 40
1.0
 10
-126.4975
 20
-58.3718
 30
0.0
 10
-126.4975
 20
-58.3718
 30
0.0
 10
-126.5454
 20
-73.4019
 30
0.0
 10
-126.5454
 20
-73.4019
 30
0.0
 10
-126.5454
 20
-73.4019
 30
0.0
 10
-120.727
 20
-73.8827
 30
0.0
 10
-113.0671
 20
-80.2308
 30
0.0
 10
-111.5756
 20
-88.9695
 30
0.0
 10
-111.5756
 20
-88.9695
 30
0.0
 10
-111.5756
 20
-88.9695
 30
0.0
 10
-111.5996
 20
-77.1337
 30
0.0
 10
-111.5996
 20
-77.1337
 30
0.0
 10
-111.5996
 20
-77.1337
 30
0.0
 10
-115.0536
 20
-76.9814
 30
0.0
 10
-117.0382
 20
-74.5346
 30
0.0
 10
-116.1865
 20
-71.3742
 30
0.0
 10
-116.1865
 20
-71.3742
 30
0.0
 10
-120.34
 20
-74.3681
 30
0.0
 10
-122.5946
 20
-70.1797
 30
0.0
 10
-121.4411
 20
-68.3153
 30
0.0
 10
-121.4411
 20
-68.3153
 30
0.0
 10
-120.1799
 20
-66.2747
 30
0.0
 10
-116.786
 20
-66.3905
 30
0.0
 10
-116.7652
 20
-69.6066
 30
0.0
 10
-116.7652
 20
-69.6066
 30
0.0
 10
-111.5707
 20
-65.6943
 30
0.0
 10
-116.7307
 20
-56.5538
 30
0.0
 10
-126.4975
 20
-58.3718
 30
0.0
  0
SPLINE
  5
84
330
1F
100
AcDbEntity
  8
layer 1
 62
     7
100
AcDbSpline
210
0.0
220
0.0
230
1.0
 70
    11
 71
     3
 72
    24
 73
    20
 74
     0
 42
0.0000000001
 43
0.0000000001
 12
1.0
 22
0.0
 32
0.0
 13
1.0
 23
0.0
 33
0.0
 40
0.0
 40
0.0
 40
0.0
 40
0.0
 40
0.1666666666666667
 40
0.1666666666666667
 40
0.1666666666666667
 40
0.1666666666666667
 40
0.3333333333333333
 40
0.3333333333333333
 40
0.3333333333333333
 40
0.3333333333333333
 40
0.5
 40
0.5
 40
0.5
 40
0.5
 40
0.6666666666666666
 40
0.6666666666666666
 40
0.6666666666666666
 40
0.6666666666666666
 40
1.0
 40
1.0
 40
1.0
 40
1.0
 10
-132.0555
 20
-59.2825
 30
0.0
 10
-132.0555
 20
-59.2825
 30
0.0
 10
-132.008
 20
-71.9534
 30
0.0
 10
-132.008
 20
-71.9534
 30
0.0
 10
-132.008
 20
-71.9534
 30
0.0
 10
-133.6071
 20
-68.7832
 30
0.0
 10
-137.6786
 20
-70.2779
 30
0.0
 10
-139.6855
 20
-72.2324
 30
0.0
 10
-139.6855
 20
-72.2324
 30
0.0
 10
-139.5538
 20
-71.3108
 30
0.0
 10
-139.1222
 20
-70.7158
 30
0.0
 10
-139.7935
 20
-69.1195
 30
0.0
 10
-139.7935
 20
-69.1195
 30
0.0
 10
-141.1518
 20
-69.9112
 30
0.0
 10
-142.6794
 20
-71.6455
 30
0.0
 10
-143.7711
 20
-75.0232
 30
0.0
 10
-143.7711
 20
-75.0232
 30
0.0
 10
-144.1948
 20
-70.5192
 30
0.0
 10
-139.1412
 20
-62.5608
 30
0.0
 10
-132.0555
 20
-59.2825
 30
0.0
  0
SPLINE
  5
85
330
1F
100
AcDbEntity
  8
layer 1
 62
     7
100
AcDbSpline
210
0.0
220
0.0
230
1.0
 70
    11
 71
     3
 72
    52
 73
    48
 74
     0
 42
0.0000000001
 43
0.0000000001
 12
1.0
 22
0.0
 32
0.0
 13
1.0
 23
0.0
 33
0.0
 40
0.0
 40
0.0
 40
0.0
 40
0.0
 40
0.0769230769230769
 40
0.0769230769230769
 40
0.0769230769230769
 40
0.0769230769230769
 40
0.1538461538461539
 40
0.1538461538461539
 40
0.1538461538461539
 40
0.1538461538461539
 40
0.2307692307692308
 40
0.2307692307692308
 40
0.2307692307692308
 40
0.2307692307692308
 40
0.3076923076923077
 40
0.3076923076923077
 40
0.3076923076923077
 40
0.3076923076923077
 40
0.3846153846153846
 40
0.3846153846153846
 40
0.3846153846153846
 40
0.3846153846153846
 40
0.4615384615384616
 40
0.4615384615384616
 40
0.4615384615384616
 40
0.4615384615384616
 40
0.5384615384615384
 40
0.5384615384615384
 40
0.5384615384615384
 40
0.5384615384615384
 40
0.6153846153846154
 40
0.6153846153846154
 40
0.6153846153846154
 40
0.6153846153846154
 40
0.6923076923076923
 40
0.6923076923076923
 40
0.6923076923076923
 40
0.6923076923076923
 40
0.7692307692307693
 40
0.7692307692307693
 40
0.7692307692307693
 40
0.7692307692307693
 40
0.8461538461538461
 40
0.8461538461538461
 40
0.8461538461538461
 40
0.8461538461538461
 40
1.0
 40
1.0
 40
1.0
 40
1.0
 10
-143.709
 20
-58.7703
 30
0.0
 10
-142.4303
 20
-56.8313
 30
0.0
 10
-139.9442
 20
-56.6062
 30
0.0
 10
-138.7891
 20
-57.2947
 30
0.0
 10
-138.7891
 20
-57.2947
 30
0.0
 10
-142.04
 20
-59.2382
 30
0.0
 10
-144.0661
 20
-65.5737
 30
0.0
 10
-143.5998
 20
-67.5664
 30
0.0
 10
-143.5998
 20
-67.5664
 30
0.0
 10
-142.0765
 20
-62.6098
 30
0.0
 10
-135.538
 20
-58.0579
 30
0.0
 10
-131.6859
 20
-55.8666
 30
0.0
 10
-131.6859
 20
-55.8666
 30
0.0
 10
-131.6859
 20
-55.8666
 30
0.0
 10
-141.4401
 20
-41.1588
 30
0.0
 10
-141.4401
 20
-41.1588
 30
0.0
 10
-141.4401
 20
-41.1588
 30
0.0
 10
-141.4401
 20
-41.1588
 30
0.0
 10
-146.1159
 20
-47.902
 30
0.0
 10
-146.1159
 20
-47.902
 30
0.0
 10
-146.1159
 20
-47.902
 30
0.0
 10
-146.1159
 20
-47.902
 30
0.0
 10
-150.6634
 20
-41.1588
 30
0.0
 10
-150.6634
 20
-41.1588
 30
0.0
 10
-150.6634
 20
-41.1588
 30
0.0
 10
-150.6634
 20
-41.1588
 30
0.0
 10
-160.4177
 20
-55.8666
 30
0.0
 10
-160.4177
 20
-55.8666
 30
0.0
 10
-160.4177
 20
-55.8666
 30
0.0
 10
-156.5656
 20
-58.0578
 30
0.0
 10
-150.0286
 20
-62.6098
 30
0.0
 10
-148.5038
 20
-67.5664
 30
0.0
 10
-148.5038
 20
-67.5664
 30
0.0
 10
-148.0375
 20
-65.5737
 30
0.0
 10
-150.0652
 20
-59.2382
 30
0.0
 10
-153.3145
 20
-57.2947
 30
0.0
 10
-153.3145
 20
-57.2947
 30
0.0
 10
-152.1594
 20
-56.6062
 30
0.0
 10
-149.6733
 20
-56.8313
 30
0.0
 10
-148.3958
 20
-58.7703
 30
0.0
 10
-148.3958
 20
-58.7703
 30
0.0
 10
-148.9149
 20
-55.1655
 30
0.0
 10
-147.4409
 20
-51.805
 30
0.0
 10
-146.0526
 20
-50.9466
 30
0.0
 10
-146.0526
 20
-50.9466
 30
0.0
 10
-144.6627
 20
-51.805
 30
0.0
 10
-143.1903
 20
-55.1655
 30
0.0
 10
-143.709
 20
-58.7703
 30
0.0
  0
SPLINE
  5
86
330
1F
100
AcDbEntity
  8
layer 1
 62
     7
100
AcDbSpline
210
0.0
220
0.0
230
1.0
 70
    11
 71
     3
 72
    20
 73
    16
 74
     0
 42
0.0000000001
 43
0.0000000001
 12
1.0
 22
0.0
 32
0.0
 13
1.0
 23
0.0
 33
0.0
 40
0.0
 40
0.0
 40
0.0
 40
0.0
 40
0.2
 40
0.2
 40
0.2
 40
0.2
 40
0.4
 40
0.4
 40
0.4
 40
0.4
 40
0.6
 40
0.6
 40
0.6
 40
0.6
 40
1.0
 40
1.0
 40
1.0
 40
1.0
 10
-146.1159
 20
-41.5856
 30
0.0
 10
-146.1159
 20
-41.5856
 30
0.0
 10
-148.6386
 20
-37.8302
 30
0.0
 10
-148.6386
 20
-37.8302
 30
0.0
 10
-148.6386
 20
-37.8302
 30
0.0
 10
-148.6386
 20
-37.8302
 30
0.0
 10
-146.1159
 20
-34.0747
 30
0.0
 10
-146.1159
 20
-34.0747
 30
0.0
 10
-146.1159
 20
-34.0747
 30
0.0
 10
-146.1159
 20
-34.0747
 30
0.0
 10
-143.5948
 20
-37.8302
 30
0.0
 10
-143.5948
 20
-37.8302
 30
0.0
 10
-143.5948
 20
-37.8302
 30
0.0
 10
-143.5948
 20
-37.8302
 30
0.0
 10
-146.1159
 20
-41.5856
 30
0.0
 10
-146.1159
 20
-41.5856
 30
0.0
  0
SPLINE
  5
87
330
1F
100
AcDbEntity
  8
layer 1
 62
     7
100
AcDbSpline
210
0.0
220
0.0
230
1.0
 70
    11
 71
     3
 72
    20
 73
    16
 74
     0
 42
0.0000000001
 43
0.0000000001
 12
1.0
 22
0.0
 32
0.0
 13
1.0
 23
0.0
 33
0.0
 40
0.0
 40
0.0
 40
0.0
 40
0.0
 40
0.2
 40
0.2
 40
0.2
 40
0.2
 40
0.4
 40
0.4
 40
0.4
 40
0.4
 40
0.6
 40
0.6
 40
0.6
 40
0.6
 40
1.0
 40
1.0
 40
1.0
 40
1.0
 10
-140.2711
 20
-32.9529
 30
0.0
 10
-140.2711
 20
-32.9529
 30
0.0
 10
-142.7939
 20
-29.1974
 30
0.0
 10
-142.7939
 20
-29.1974
 30
0.0
 10
-142.7939
 20
-29.1974
 30
0.0
 10
-142.7939
 20
-29.1974
 30
0.0
 10
-140.2711
 20
-25.4419
 30
0.0
 10
-140.2711
 20
-25.4419
 30
0.0
 10
-140.2711
 20
-25.4419
 30
0.0
 10
-140.2711
 20
-25.4419
 30
0.0
 10
-137.75
 20
-29.1974
 30
0.0
 10
-137.75
 20
-29.1974
 30
0.0
 10
-137.75
 20
-29.1974
 30
0.0
 10
-137.75
 20
-29.1974
 30
0.0
 10
-140.2711
 20
-32.9529
 30
0.0
 10
-140.2711
 20
-32.9529
 30
0.0
  0
SPLINE
  5
88
330
1F
100
AcDbEntity
  8
layer 1
 62
     7
100
AcDbSpline
210
0.0
220
0.0
230
1.0
 70
    11
 71
     3
 72
    20
 73
    16
 74
     0
 42
0.0000000001
 43
0.0000000001
 12
1.0
 22
0.0
 32
0.0
 13
1.0
 23
0.0
 33
0.0
 40
0.0
 40
0.0
 40
0.0
 40
0.0
 40
0.2
 40
0.2
 40
0.2
 40
0.2
 40
0.4
 40
0.4
 40
0.4
 40
0.4
 40
0.6
 40
0.6
 40
0.6
 40
0.6
 40
1.0
 40
1.0
 40
1.0
 40
1.0
 10
-151.7467
 20
-32.9529
 30
0.0
 10
-151.7467
 20
-32.9529
 30
0.0
 10
-154.2694
 20
-29.1974
 30
0.0
 10
-154.2694
 20
-29.1974
 30
0.0
 10
-154.2694
 20
-29.1974
 30
0.0
 10
-154.2694
 20
-29.1974
 30
0.0
 10
-151.7467
 20
-25.4419
 30
0.0
 10
-151.7467
 20
-25.4419
 30
0.0
 10
-151.7467
 20
-25.4419
 30
0.0
 10
-151.7467
 20
-25.4419
 30
0.0
 10
-149.2243
 20
-29.1974
 30
0.0
 10
-149.2243
 20
-29.1974
 30
0.0
 10
-149.2243
 20
-29.1974
 30
0.0
 10
-149.2243
 20
-29.1974
 30
0.0
 10
-151.7467
 20
-32.9529
 30
0.0
 10
-151.7467
 20
-32.9529
 30
0.0
  0
SPLINE
  5
89
330
1F
100
AcDbEntity
  8
layer 1
 62
     7
100
AcDbSpline
210
0.0
220
0.0
230
1.0
 70
    11
 71
     3
 72
    20
 73
    16
 74
     0
 42
0.0000000001
 43
0.0000000001
 12
1.0
 22
0.0
 32
0.0
 13
1.0
 23
0.0
 33
0.0
 40
0.0
 40
0.0
 40
0.0
 40
0.0
 40
0.2
 40
0.2
 40
0.2
 40
0.2
 40
0.4
 40
0.4
 40
0.4
 40
0.4
 40
0.6
 40
0.6
 40
0.6
 40
0.6
 40
1.0
 40
1.0
 40
1.0
 40
1.0
 10
-146.1159
 20
-24.3725
 30
0.0
 10
-146.1159
 20
-24.3725
 30
0.0
 10
-148.6386
 20
-20.6171
 30
0.0
 10
-148.6386
 20
-20.6171
 30
0.0
 10
-148.6386
 20
-20.6171
 30
0.0
 10
-148.6386
 20
-20.6171
 30
0.0
 10
-146.1159
 20
-16.8616
 30
0.0
 10
-146.1159
 20
-16.8616
 30
0.0
 10
-146.1159
 20
-16.8616
 30
0.0
 10
-146.1159
 20
-16.8616
 30
0.0
 10
-143.5948
 20
-20.6171
 30
0.0
 10
-143.5948
 20
-20.6171
 30
0.0
 10
-143.5948
 20
-20.6171
 30
0.0
 10
-143.5948
 20
-20.6171
 30
0.0
 10
-146.1159
 20
-24.3725
 30
0.0
 10
-146.1159
 20
-24.3725
 30
0.0
  0
SPLINE
  5
8A
330
1F
100
AcDbEntity
  8
layer 1
 62
     7
100
AcDbSpline
210
0.0
220
0.0
230
1.0
 70
    11
 71
     3
 72
    16
 73
    12
 74
     0
 42
0.0000000001
 43
0.0000000001
 12
1.0
 22
0.0
 32
0.0
 13
1.0
 23
0.0
 33
0.0
 40
0.0
 40
0.0
 40
0.0
 40
0.0
 40
0.25
 40
0.25
 40
0.25
 40
0.25
 40
0.5
 40
0.5
 40
0.5
 40
0.5
 40
1.0
 40
1.0
 40
1.0
 40
1.0
 10
-124.9935
 20
-55.3987
 30
0.0
 10
-120.4179
 20
-55.7475
 30
0.0
 10
-113.2925
 20
-57.1533
 30
0.0
 10
-111.5488
 20
-65.185
 30
0.0
 10
-111.5488
 20
-65.185
 30
0.0
 10
-111.5996
 20
-61.8451
 30
0.0
 10
-111.5805
 20
-46.3549
 30
0.0
 10
-111.5789
 20
-43.017
 30
0.0
 10
-111.5789
 20
-43.017
 30
0.0
 10
-113.7287
 20
-48.7951
 30
0.0
 10
-118.0902
 20
-52.8999
 30
0.0
 10
-124.9935
 20
-55.3987
 30
0.0
  0
SPLINE
  5
8B
330
1F
100
AcDbEntity
  8
layer 1
 62
     7
100
AcDbSpline
210
0.0
220
0.0
230
1.0
 70
    11
 71
     3
 72
    20
 73
    16
 74
     0
 42
0.0000000001
 43
0.0000000001
 12
1.0
 22
0.0
 32
0.0
 13
1.0
 23
0.0
 33
0.0
 40
0.0
 40
0.0
 40
0.0
 40
0.0
 40
0.2
 40
0.2
 40
0.2
 40
0.2
 40
0.4
 40
0.4
 40
0.4
 40
0.4
 40
0.6
 40
0.6
 40
0.6
 40
0.6
 40
1.0
 40
1.0
 40
1.0
 40
1.0
 10
-116.2623
 20
-24.0634
 30
0.0
 10
-114.4095
 20
-25.3196
 30
0.0
 10
-113.1621
 20
-26.6828
 30
0.0
 10
-111.5488
 20
-30.738
 30
0.0
 10
-111.5488
 20
-30.738
 30
0.0
 10
-111.5996
 20
-27.3997
 30
0.0
 10
-111.5805
 20
-17.6139
 30
0.0
 10
-111.5789
 20
-14.2755
 30
0.0
 10
-111.5789
 20
-14.2755
 30
0.0
 10
-112.6068
 20
-16.641
 30
0.0
 10
-114.7681
 20
-18.0217
 30
0.0
 10
-117.0082
 20
-17.6297
 30
0.0
 10
-117.0082
 20
-17.6297
 30
0.0
 10
-114.5411
 20
-18.6293
 30
0.0
 10
-114.4111
 20
-23.1113
 30
0.0
 10
-116.2623
 20
-24.0634
 30
0.0
  0
SPLINE
  5
8C
330
1F
100
AcDbEntity
  8
layer 1
 62
     7
100
AcDbSpline
210
0.0
220
0.0
230
1.0
 70
    11
 71
     3
 72
    24
 73
    20
 74
     0
 42
0.0000000001
 43
0.0000000001
 12
1.0
 22
0.0
 32
0.0
 13
1.0
 23
0.0
 33
0.0
 40
0.0
 40
0.0
 40
0.0
 40
0.0
 40
0.1666666666666667
 40
0.1666666666666667
 40
0.1666666666666667
 40
0.1666666666666667
 40
0.3333333333333333
 40
0.3333333333333333
 40
0.3333333333333333
 40
0.3333333333333333
 40
0.5
 40
0.5
 40
0.5
 40
0.5
 40
0.6666666666666666
 40
0.6666666666666666
 40
0.6666666666666666
 40
0.6666666666666666
 40
1.0
 40
1.0
 40
1.0
 40
1.0
 10
-113.6255
 20
-11.702
 30
0.0
 10
-116.4593
 20
-14.4944
 30
0.0
 10
-118.76
 20
-10.4153
 30
0.0
 10
-116.7652
 20
-8.6891
 30
0.0
 10
-116.7652
 20
-8.6891
 30
0.0
 10
-115.2262
 20
-7.3548
 30
0.0
 10
-112.2563
 20
-8.1082
 30
0.0
 10
-111.5488
 20
-11.1167
 30
0.0
 10
-111.5488
 20
-11.1167
 30
0.0
 10
-111.5488
 20
-11.1167
 30
0.0
 10
-111.5789
 20
4.2227
 30
0.0
 10
-111.5789
 20
4.2227
 30
0.0
 10
-111.5789
 20
4.2227
 30
0.0
 10
-111.5789
 20
4.2227
 30
0.0
 10
-124.0097
 20
-14.4753
 30
0.0
 10
-124.0097
 20
-14.4753
 30
0.0
 10
-124.0097
 20
-14.4753
 30
0.0
 10
-120.894
 20
-16.8568
 30
0.0
 10
-112.5942
 20
-16.9315
 30
0.0
 10
-113.6255
 20
-11.702
 30
0.0
  0
SPLINE
  5
8D
330
1F
100
AcDbEntity
  8
layer 1
 62
     7
100
AcDbSpline
210
0.0
220
0.0
230
1.0
 70
    11
 71
     3
 72
    24
 73
    20
 74
     0
 42
0.0000000001
 43
0.0000000001
 12
1.0
 22
0.0
 32
0.0
 13
1.0
 23
0.0
 33
0.0
 40
0.0
 40
0.0
 40
0.0
 40
0.0
 40
0.1666666666666667
 40
0.1666666666666667
 40
0.1666666666666667
 40
0.1666666666666667
 40
0.3333333333333333
 40
0.3333333333333333
 40
0.3333333333333333
 40
0.3333333333333333
 40
0.5
 40
0.5
 40
0.5
 40
0.5
 40
0.6666666666666666
 40
0.6666666666666666
 40
0.6666666666666666
 40
0.6666666666666666
 40
1.0
 40
1.0
 40
1.0
 40
1.0
 10
-122.4629
 20
2.7946
 30
0.0
 10
-124.1843
 20
4.8812
 30
0.0
 10
-127.5178
 20
2.8917
 30
0.0
 10
-126.842
 20
0.3418
 30
0.0
 10
-126.842
 20
0.3418
 30
0.0
 10
-126.32
 20
-1.6269
 30
0.0
 10
-123.4386
 20
-2.6757
 30
0.0
 10
-121.162
 20
-0.5879
 30
0.0
 10
-121.162
 20
-0.5879
 30
0.0
 10
-121.162
 20
-0.5879
 30
0.0
 10
-128.2208
 20
-11.0895
 30
0.0
 10
-128.2208
 20
-11.0895
 30
0.0
 10
-128.2208
 20
-11.0895
 30
0.0
 10
-132.4349
 20
-7.8336
 30
0.0
 10
-132.6632
 20
-2.1128
 30
0.0
 10
-131.8334
 20
1.3064
 30
0.0
 10
-131.8334
 20
1.3064
 30
0.0
 10
-130.0055
 20
8.838
 30
0.0
 10
-122.2916
 20
5.7808
 30
0.0
 10
-122.4629
 20
2.7946
 30
0.0
  0
SPLINE
  5
8E
330
1F
100
AcDbEntity
  8
layer 1
 62
     7
100
AcDbSpline
210
0.0
220
0.0
230
1.0
 70
    11
 71
     3
 72
    32
 73
    28
 74
     0
 42
0.0000000001
 43
0.0000000001
 12
1.0
 22
0.0
 32
0.0
 13
1.0
 23
0.0
 33
0.0
 40
0.0
 40
0.0
 40
0.0
 40
0.0
 40
0.125
 40
0.125
 40
0.125
 40
0.125
 40
0.25
 40
0.25
 40
0.25
 40
0.25
 40
0.375
 40
0.375
 40
0.375
 40
0.375
 40
0.5
 40
0.5
 40
0.5
 40
0.5
 40
0.625
 40
0.625
 40
0.625
 40
0.625
 40
0.75
 40
0.75
 40
0.75
 40
0.75
 40
1.0
 40
1.0
 40
1.0
 40
1.0
 10
-146.0985
 20
-4.7337
 30
0.0
 10
-139.8727
 20
-4.5481
 30
0.0
 10
-136.5315
 20
-1.4064
 30
0.0
 10
-134.3658
 20
2.1268
 30
0.0
 10
-134.3658
 20
2.1268
 30
0.0
 10
-135.8394
 20
-3.4994
 30
0.0
 10
-135.1051
 20
-8.6635
 30
0.0
 10
-129.3838
 20
-13.2568
 30
0.0
 10
-129.3838
 20
-13.2568
 30
0.0
 10
-129.3838
 20
-13.2568
 30
0.0
 10
-132.216
 20
-17.6914
 30
0.0
 10
-132.216
 20
-17.6914
 30
0.0
 10
-132.216
 20
-17.6914
 30
0.0
 10
-132.216
 20
-17.6914
 30
0.0
 10
-136.8788
 20
-10.5185
 30
0.0
 10
-136.8788
 20
-10.5185
 30
0.0
 10
-136.8788
 20
-10.5185
 30
0.0
 10
-136.8788
 20
-10.5185
 30
0.0
 10
-141.4417
 20
-17.9071
 30
0.0
 10
-141.4417
 20
-17.9071
 30
0.0
 10
-141.4417
 20
-17.9071
 30
0.0
 10
-141.4417
 20
-17.9071
 30
0.0
 10
-146.0733
 20
-10.2962
 30
0.0
 10
-146.0733
 20
-10.2962
 30
0.0
 10
-146.0733
 20
-10.2962
 30
0.0
 10
-146.0733
 20
-10.2962
 30
0.0
 10
-146.0985
 20
-4.7337
 30
0.0
 10
-146.0985
 20
-4.7337
 30
0.0
  0
SPLINE
  5
8F
330
1F
100
AcDbEntity
  8
layer 1
 62
     7
100
AcDbSpline
210
0.0
220
0.0
230
1.0
 70
    11
 71
     3
 72
    20
 73
    16
 74
     0
 42
0.0000000001
 43
0.0000000001
 12
1.0
 22
0.0
 32
0.0
 13
1.0
 23
0.0
 33
0.0
 40
0.0
 40
0.0
 40
0.0
 40
0.0
 40
0.2
 40
0.2
 40
0.2
 40
0.2
 40
0.4
 40
0.4
 40
0.4
 40
0.4
 40
0.6
 40
0.6
 40
0.6
 40
0.6
 40
1.0
 40
1.0
 40
1.0
 40
1.0
 10
-119.4959
 20
1.7366
 30
0.0
 10
-117.4683
 20
5.0607
 30
0.0
 10
-116.929
 20
5.8759
 30
0.0
 10
-115.2742
 20
8.4083
 30
0.0
 10
-115.2742
 20
8.4083
 30
0.0
 10
-116.929
 20
10.9404
 30
0.0
 10
-117.4684
 20
11.7559
 30
0.0
 10
-119.4959
 20
15.0801
 30
0.0
 10
-119.4959
 20
15.0801
 30
0.0
 10
-119.0516
 20
12.2382
 30
0.0
 10
-121.0431
 20
9.1382
 30
0.0
 10
-124.0418
 20
8.4083
 30
0.0
 10
-124.0418
 20
8.4083
 30
0.0
 10
-121.043
 20
7.6784
 30
0.0
 10
-119.0516
 20
4.5781
 30
0.0
 10
-119.4959
 20
1.7366
 30
0.0
  0
SPLINE
  5
90
330
1F
100
AcDbEntity
  8
layer 1
 62
     7
100
AcDbSpline
210
0.0
220
0.0
230
1.0
 70
    11
 71
     3
 72
    60
 73
    56
 74
     0
 42
0.0000000001
 43
0.0000000001
 12
1.0
 22
0.0
 32
0.0
 13
1.0
 23
0.0
 33
0.0
 40
0.0
 40
0.0
 40
0.0
 40
0.0
 40
0.0666666666666667
 40
0.0666666666666667
 40
0.0666666666666667
 40
0.0666666666666667
 40
0.1333333333333333
 40
0.1333333333333333
 40
0.1333333333333333
 40
0.1333333333333333
 40
0.2
 40
0.2
 40
0.2
 40
0.2
 40
0.2666666666666667
 40
0.2666666666666667
 40
0.2666666666666667
 40
0.2666666666666667
 40
0.3333333333333333
 40
0.3333333333333333
 40
0.3333333333333333
 40
0.3333333333333333
 40
0.4
 40
0.4
 40
0.4
 40
0.4
 40
0.4666666666666667
 40
0.4666666666666667
 40
0.4666666666666667
 40
0.4666666666666667
 40
0.5333333333333333
 40
0.5333333333333333
 40
0.5333333333333333
 40
0.5333333333333333
 40
0.6
 40
0.6
 40
0.6
 40
0.6
 40
0.6666666666666666
 40
0.6666666666666666
 40
0.6666666666666666
 40
0.6666666666666666
 40
0.7333333333333333
 40
0.7333333333333333
 40
0.7333333333333333
 40
0.7333333333333333
 40
0.8
 40
0.8
 40
0.8
 40
0.8
 40
0.8666666666666667
 40
0.8666666666666667
 40
0.8666666666666667
 40
0.8666666666666667
 40
1.0
 40
1.0
 40
1.0
 40
1.0
 10
-138.1322
 20
-36.1897
 30
0.0
 10
-138.1322
 20
-36.1897
 30
0.0
 10
-127.3655
 20
-52.4807
 30
0.0
 10
-127.3655
 20
-52.4807
 30
0.0
 10
-127.3655
 20
-52.4807
 30
0.0
 10
-125.0856
 20
-51.0356
 30
0.0
 10
-124.5288
 20
-47.6574
 30
0.0
 10
-124.4065
 20
-45.6823
 30
0.0
 10
-124.4065
 20
-45.6823
 30
0.0
 10
-122.8042
 20
-46.1489
 30
0.0
 10
-121.1986
 20
-46.8135
 30
0.0
 10
-122.0329
 20
-52.1859
 30
0.0
 10
-122.0329
 20
-52.1859
 30
0.0
 10
-116.3672
 20
-48.5653
 30
0.0
 10
-111.5707
 20
-39.3201
 30
0.0
 10
-114.8965
 20
-31.1807
 30
0.0
 10
-114.8965
 20
-31.1807
 30
0.0
 10
-116.4829
 20
-28.8659
 30
0.0
 10
-120.0004
 20
-24.0979
 30
0.0
 10
-125.3362
 20
-27.8393
 30
0.0
 10
-125.3362
 20
-27.8393
 30
0.0
 10
-128.389
 20
-29.9797
 30
0.0
 10
-126.2343
 20
-35.4232
 30
0.0
 10
-122.201
 20
-33.2193
 30
0.0
 10
-122.201
 20
-33.2193
 30
0.0
 10
-121.7713
 20
-38.4503
 30
0.0
 10
-127.5593
 20
-38.4935
 30
0.0
 10
-129.8122
 20
-35.2965
 30
0.0
 10
-129.8122
 20
-35.2965
 30
0.0
 10
-135.9934
 20
-25.0914
 30
0.0
 10
-123.5166
 20
-20.2889
 30
0.0
 10
-117.0447
 20
-23.6427
 30
0.0
 10
-117.0447
 20
-23.6427
 30
0.0
 10
-118.1698
 20
-18.4306
 30
0.0
 10
-121.8253
 20
-17.866
 30
0.0
 10
-125.2063
 20
-16.6853
 30
0.0
 10
-125.2063
 20
-16.6853
 30
0.0
 10
-125.2063
 20
-16.6853
 30
0.0
 10
-131.5462
 20
-26.2019
 30
0.0
 10
-131.5462
 20
-26.2019
 30
0.0
 10
-131.5462
 20
-26.2019
 30
0.0
 10
-131.5462
 20
-26.2019
 30
0.0
 10
-136.1266
 20
-19.3795
 30
0.0
 10
-136.1266
 20
-19.3795
 30
0.0
 10
-136.1266
 20
-19.3795
 30
0.0
 10
-136.1266
 20
-19.3795
 30
0.0
 10
-138.1388
 20
-22.4164
 30
0.0
 10
-138.1388
 20
-22.4164
 30
0.0
 10
-138.1388
 20
-22.4164
 30
0.0
 10
-138.1388
 20
-22.4164
 30
0.0
 10
-133.4279
 20
-29.4545
 30
0.0
 10
-133.4279
 20
-29.4545
 30
0.0
 10
-133.4279
 20
-29.4545
 30
0.0
 10
-133.4279
 20
-29.4545
 30
0.0
 10
-138.1322
 20
-36.1897
 30
0.0
 10
-138.1322
 20
-36.1897
 30
0.0
  0
ENDSEC
  0
SECTION
  2
OBJECTS
  0
DICTIONARY
  5
C
330
0
100
AcDbDictionary
281
     1
  3
ACAD_GROUP
350
D
  3
ACAD_LAYOUT
350
1A
  3
ACAD_MATERIAL
350
3B
  3
ACAD_MLEADERSTYLE
350
B3
  3
ACAD_MLINESTYLE
350
17
  3
ACAD_PLOTSETTINGS
350
19
  3
ACAD_PLOTSTYLENAME
350
E
  3
ACAD_TABLESTYLE
350
B2
  3
ACAD_VISUALSTYLE
350
2A
  0
DICTIONARY
  5
D
102
{ACAD_REACTORS
330
C
102
}
330
C
100
AcDbDictionary
281
     1
  0
DICTIONARY
  5
1A
102
{ACAD_REACTORS
330
C
102
}
330
C
100
AcDbDictionary
281
     1
  3
Layout1
350
1E
  3
Layout2
350
26
  3
Model
350
22
  0
DICTIONARY
  5
3B
102
{ACAD_REACTORS
330
C
102
}
330
C
100
AcDbDictionary
281
     1
  3
ByBlock
350
3D
  3
ByLayer
350
3C
  3
Global
350
3E
  0
DICTIONARY
  5
B3
102
{ACAD_REACTORS
330
C
102
}
330
C
100
AcDbDictionary
281
     1
  0
DICTIONARY
  5
17
102
{ACAD_REACTORS
330
C
102
}
330
C
100
AcDbDictionary
281
     1
  3
Standard
350
18
  0
DICTIONARY
  5
19
102
{ACAD_REACTORS
330
C
102
}
330
C
100
AcDbDictionary
281
     1
  0
ACDBDICTIONARYWDFLT
  5
E
102
{ACAD_REACTORS
330
C
102
}
330
C
100
AcDbDictionary
281
     1
  3
Normal
350
F
100
AcDbDictionaryWithDefault
340
F
  0
DICTIONARY
  5
B2
102
{ACAD_REACTORS
330
C
102
}
330
C
100
AcDbDictionary
281
     1
  0
DICTIONARY
  5
2A
102
{ACAD_REACTORS
330
C
102
}
330
C
100
AcDbDictionary
281
     1
  3
2dWireframe
350
2F
  3
3D Hidden
350
31
  3
3dWireframe
350
30
  3
Basic
350
32
  3
Brighten
350
36
  3
ColorChange
350
3A
  3
Conceptual
350
34
  3
Dim
350
35
  3
Facepattern
350
39
  3
Flat
350
2B
  3
FlatWithEdges
350
2C
  3
Gouraud
350
2D
  3
GouraudWithEdges
350
2E
  3
Linepattern
350
38
  3
Realistic
350
33
  3
Thicken
350
37
  0
LAYOUT
  5
1E
102
{ACAD_REACTORS
330
1A
102
}
330
1A
100
AcDbPlotSettings
  1

  2
none_device
  4

  6

 40
0.0
 41
0.0
 42
0.0
 43
0.0
 44
0.0
 45
0.0
 46
0.0
 47
0.0
 48
0.0
 49
0.0
140
0.0
141
0.0
142
1.0
143
1.0
 70
   688
 72
     0
 73
     0
 74
     5
  7

 75
    16
 76
     0
 77
     2
 78
   300
147
1.0
148
0.0
149
0.0
100
AcDbLayout
  1
Layout1
 70
     1
 71
     1
 10
0.0
 20
0.0
 11
12.0
 21
9.0
 12
0.0
 22
0.0
 32
0.0
 14
1.000000000000000E+20
 24
1.000000000000000E+20
 34
1.000000000000000E+20
 15
-1.000000000000000E+20
 25
-1.000000000000000E+20
 35
-1.000000000000000E+20
146
0.0
 13
0.0
 23
0.0
 33
0.0
 16
1.0
 26
0.0
 36
0.0
 17
0.0
 27
1.0
 37
0.0
 76
     0
330
1B
  0
LAYOUT
  5
26
102
{ACAD_REACTORS
330
1A
102
}
330
1A
100
AcDbPlotSettings
  1

  2
none_device
  4

  6

 40
0.0
 41
0.0
 42
0.0
 43
0.0
 44
0.0
 45
0.0
 46
0.0
 47
0.0
 48
0.0
 49
0.0
140
0.0
141
0.0
142
1.0
143
1.0
 70
   688
 72
     0
 73
     0
 74
     5
  7

 75
    16
 76
     0
 77
     2
 78
   300
147
1.0
148
0.0
149
0.0
100
AcDbLayout
  1
Layout2
 70
     1
 71
     2
 10
0.0
 20
0.0
 11
0.0
 21
0.0
 12
0.0
 22
0.0
 32
0.0
 14
0.0
 24
0.0
 34
0.0
 15
0.0
 25
0.0
 35
0.0
146
0.0
 13
0.0
 23
0.0
 33
0.0
 16
1.0
 26
0.0
 36
0.0
 17
0.0
 27
1.0
 37
0.0
 76
     0
330
23
  0
LAYOUT
  5
22
102
{ACAD_REACTORS
330
1A
102
}
330
1A
100
AcDbPlotSettings
  1

  2
none_device
  4

  6

 40
0.0
 41
0.0
 42
0.0
 43
0.0
 44
0.0
 45
0.0
 46
0.0
 47
0.0
 48
0.0
 49
0.0
140
0.0
141
0.0
142
1.0
143
1.0
 70
  1712
 72
     0
 73
     0
 74
     0
  7

 75
     0
 76
     0
 77
     2
 78
   300
147
1.0
148
0.0
149
0.0
100
AcDbLayout
  1
Model
 70
     1
 71
     0
 10
0.0
 20
0.0
 11
12.0
 21
9.0
 12
0.0
 22
0.0
 32
0.0
 14
-187.1839
 24
-114.9883
 34
0.0
 15
-104.92
 25
131.8048
 35
0.0
146
0.0
 13
0.0
 23
0.0
 33
0.0
 16
1.0
 26
0.0
 36
0.0
 17
0.0
 27
1.0
 37
0.0
 76
     0
330
1F
331
29
  0
MATERIAL
  5
3D
102
{ACAD_REACTORS
330
3B
102
}
330
3B
100
AcDbMaterial
  1
ByBlock
 72
     1
 94
      127
  0
MATERIAL
  5
3C
102
{ACAD_REACTORS
330
3B
102
}
330
3B
100
AcDbMaterial
  1
ByLayer
 72
     1
 94
      127
  0
MATERIAL
  5
3E
102
{ACAD_REACTORS
330
3B
102
}
330
3B
100
AcDbMaterial
  1
Global
 72
     1
 94
      127
  0
MLINESTYLE
  5
18
102
{ACAD_REACTORS
330
17
102
}
330
17
100
AcDbMlineStyle
  2
Standard
 70
     0
  3

 62
   256
 51
90.0
 52
90.0
 71
     2
 49
0.5
 62
   256
  6
BYLAYER
 49
-0.5
 62
   256
  6
BYLAYER
  0
ACDBPLACEHOLDER
  5
F
102
{ACAD_REACTORS
330
E
102
}
330
E
  0
VISUALSTYLE
  5
2F
102
{ACAD_REACTORS
330
2A
102
}
102
{ACAD_XDICTIONARY
360
9A
102
}
330
2A
100
AcDbVisualStyle
  2
2dWireframe
 70
     4
 71
     0
 72
     2
 73
     0
 90
        0
 40
-0.6
 41
-30.0
 62
     5
 63
     7
421
 16777215
 74
     1
 91
        4
 64
     7
 65
   257
 75
     1
175
     1
 42
1.0
 92
        0
 66
   257
 43
1.0
 76
     1
 77
     6
 78
     2
 67
     7
 79
     5
170
     0
171
     0
290
     0
174
     0
 93
        1
 44
0.0
173
     0
291
     0
 45
0.0
  0
VISUALSTYLE
  5
31
102
{ACAD_REACTORS
330
2A
102
}
102
{ACAD_XDICTIONARY
360
9E
102
}
330
2A
100
AcDbVisualStyle
  2
3D Hidden
 70
     6
 71
     1
 72
     2
 73
     2
 90
        0
 40
-0.6
 41
-30.0
 62
     5
 63
     7
421
 16777215
 74
     2
 91
        2
 64
     7
 65
   257
 75
     2
175
     1
 42
40.0
 92
        0
 66
   257
 43
1.0
 76
     1
 77
     6
 78
     2
 67
     7
 79
     3
170
     0
171
     0
290
     0
174
     0
 93
        1
 44
0.0
173
     0
291
     0
 45
0.0
  0
VISUALSTYLE
  5
30
102
{ACAD_REACTORS
330
2A
102
}
102
{ACAD_XDICTIONARY
360
9C
102
}
330
2A
100
AcDbVisualStyle
  2
3dWireframe
 70
     5
 71
     0
 72
     2
 73
     0
 90
        0
 40
-0.6
 41
-30.0
 62
     5
 63
     7
421
 16777215
 74
     1
 91
        4
 64
     7
 65
   257
 75
     1
175
     1
 42
1.0
 92
        0
 66
   257
 43
1.0
 76
     1
 77
     6
 78
     2
 67
     7
 79
     5
170
     0
171
     0
290
     0
174
     0
 93
        1
 44
0.0
173
     0
291
     0
 45
0.0
  0
VISUALSTYLE
  5
32
102
{ACAD_REACTORS
330
2A
102
}
102
{ACAD_XDICTIONARY
360
A0
102
}
330
2A
100
AcDbVisualStyle
  2
Basic
 70
     7
 71
     1
 72
     0
 73
     1
 90
        0
 40
-0.6
 41
-30.0
 62
     5
 63
     7
421
 16777215
 74
     0
 91
        4
 64
     7
 65
   257
 75
     1
175
     1
 42
1.0
 92
        8
 66
     7
 43
1.0
 76
     1
 77
     6
 78
     2
 67
     7
 79
     5
170
     0
171
     0
290
     0
174
     0
 93
        1
 44
0.0
173
     0
291
     1
 45
0.0
  0
VISUALSTYLE
  5
36
102
{ACAD_REACTORS
330
2A
102
}
102
{ACAD_XDICTIONARY
360
A8
102
}
330
2A
100
AcDbVisualStyle
  2
Brighten
 70
    12
 71
     2
 72
     2
 73
     0
 90
        0
 40
-0.6
 41
-30.0
 62
     5
 63
     7
421
 16777215
 74
     1
 91
        4
 64
     7
 65
   257
 75
     1
175
     1
 42
1.0
 92
        8
 66
     7
 43
1.0
 76
     1
 77
     6
 78
     2
 67
     7
 79
     5
170
     0
171
     0
290
     0
174
     0
 93
        1
 44
50.0
173
     0
291
     1
 45
0.0
  0
VISUALSTYLE
  5
3A
102
{ACAD_REACTORS
330
2A
102
}
102
{ACAD_XDICTIONARY
360
B0
102
}
330
2A
100
AcDbVisualStyle
  2
ColorChange
 70
    16
 71
     2
 72
     2
 73
     3
 90
        0
 40
-0.6
 41
-30.0
 62
     5
 63
     8
421
  8421504
 74
     1
 91
        4
 64
     7
 65
   257
 75
     1
175
     1
 42
1.0
 92
        8
 66
     8
424
  8421504
 43
1.0
 76
     1
 77
     6
 78
     2
 67
     7
 79
     5
170
     0
171
     0
290
     0
174
     0
 93
        1
 44
0.0
173
     0
291
     1
 45
0.0
  0
VISUALSTYLE
  5
34
102
{ACAD_REACTORS
330
2A
102
}
102
{ACAD_XDICTIONARY
360
A4
102
}
330
2A
100
AcDbVisualStyle
  2
Conceptual
 70
     9
 71
     3
 72
     2
 73
     0
 90
        0
 40
-0.6
 41
-30.0
 62
     5
 63
     7
421
 16777215
 74
     2
 91
        2
 64
     7
 65
   257
 75
     1
175
     1
 42
40.0
 92
        8
 66
     7
 43
1.0
 76
     1
 77
     6
 78
     2
 67
     7
 79
     3
170
     0
171
     0
290
     0
174
     0
 93
        1
 44
0.0
173
     0
291
     0
 45
0.0
  0
VISUALSTYLE
  5
35
102
{ACAD_REACTORS
330
2A
102
}
102
{ACAD_XDICTIONARY
360
A6
102
}
330
2A
100
AcDbVisualStyle
  2
Dim
 70
    11
 71
     2
 72
     2
 73
     0
 90
        0
 40
-0.6
 41
-30.0
 62
     5
 63
     7
421
 16777215
 74
     1
 91
        4
 64
     7
 65
   257
 75
     1
175
     1
 42
1.0
 92
        8
 66
     7
 43
1.0
 76
     1
 77
     6
 78
     2
 67
     7
 79
     5
170
     0
171
     0
290
     0
174
     0
 93
        1
 44
-50.0
173
     0
291
     1
 45
0.0
  0
VISUALSTYLE
  5
39
102
{ACAD_REACTORS
330
2A
102
}
102
{ACAD_XDICTIONARY
360
AE
102
}
330
2A
100
AcDbVisualStyle
  2
Facepattern
 70
    15
 71
     2
 72
     2
 73
     0
 90
        0
 40
-0.6
 41
-30.0
 62
     5
 63
     7
421
 16777215
 74
     1
 91
        4
 64
     7
 65
   257
 75
     1
175
     1
 42
1.0
 92
        8
 66
     7
 43
1.0
 76
     1
 77
     6
 78
     2
 67
     7
 79
     5
170
     0
171
     0
290
     0
174
     0
 93
        1
 44
0.0
173
     0
291
     1
 45
0.0
  0
VISUALSTYLE
  5
2B
102
{ACAD_REACTORS
330
2A
102
}
102
{ACAD_XDICTIONARY
360
92
102
}
330
2A
100
AcDbVisualStyle
  2
Flat
 70
     0
 71
     2
 72
     1
 73
     1
 90
        2
 40
-0.6
 41
30.0
 62
     5
 63
     7
421
 16777215
 74
     0
 91
        4
 64
     7
 65
   257
 75
     1
175
     1
 42
1.0
 92
        8
 66
     7
 43
1.0
 76
     1
 77
     6
 78
     2
 67
     7
 79
     5
170
     0
171
     0
290
     0
174
     0
 93
       13
 44
0.0
173
     0
291
     1
 45
0.0
  0
VISUALSTYLE
  5
2C
102
{ACAD_REACTORS
330
2A
102
}
102
{ACAD_XDICTIONARY
360
94
102
}
330
2A
100
AcDbVisualStyle
  2
FlatWithEdges
 70
     1
 71
     2
 72
     1
 73
     1
 90
        2
 40
-0.6
 41
30.0
 62
     5
 63
     7
421
 16777215
 74
     1
 91
        4
 64
     7
 65
   257
 75
     1
175
     1
 42
1.0
 92
        0
 66
   257
 43
1.0
 76
     1
 77
     6
 78
     2
 67
     7
 79
     5
170
     0
171
     0
290
     0
174
     0
 93
       13
 44
0.0
173
     0
291
     1
 45
0.0
  0
VISUALSTYLE
  5
2D
102
{ACAD_REACTORS
330
2A
102
}
102
{ACAD_XDICTIONARY
360
96
102
}
330
2A
100
AcDbVisualStyle
  2
Gouraud
 70
     2
 71
     2
 72
     2
 73
     1
 90
        2
 40
-0.6
 41
30.0
 62
     5
 63
     7
421
 16777215
 74
     0
 91
        4
 64
     7
 65
   257
 75
     1
175
     1
 42
1.0
 92
        0
 66
     7
 43
1.0
 76
     1
 77
     6
 78
     2
 67
     7
 79
     5
170
     0
171
     0
290
     0
174
     0
 93
       13
 44
0.0
173
     0
291
     1
 45
0.0
  0
VISUALSTYLE
  5
2E
102
{ACAD_REACTORS
330
2A
102
}
102
{ACAD_XDICTIONARY
360
98
102
}
330
2A
100
AcDbVisualStyle
  2
GouraudWithEdges
 70
     3
 71
     2
 72
     2
 73
     1
 90
        2
 40
-0.6
 41
30.0
 62
     5
 63
     7
421
 16777215
 74
     1
 91
        4
 64
     7
 65
   257
 75
     1
175
     1
 42
1.0
 92
        0
 66
   257
 43
1.0
 76
     1
 77
     6
 78
     2
 67
     7
 79
     5
170
     0
171
     0
290
     0
174
     0
 93
       13
 44
0.0
173
     0
291
     1
 45
0.0
  0
VISUALSTYLE
  5
38
102
{ACAD_REACTORS
330
2A
102
}
102
{ACAD_XDICTIONARY
360
AC
102
}
330
2A
100
AcDbVisualStyle
  2
Linepattern
 70
    14
 71
     2
 72
     2
 73
     0
 90
        0
 40
-0.6
 41
-30.0
 62
     5
 63
     7
421
 16777215
 74
     1
 91
        4
 64
     7
 65
   257
 75
     7
175
     7
 42
1.0
 92
        8
 66
     7
 43
1.0
 76
     1
 77
     6
 78
     2
 67
     7
 79
     5
170
     0
171
     0
290
     0
174
     0
 93
        1
 44
0.0
173
     0
291
     1
 45
0.0
  0
VISUALSTYLE
  5
33
102
{ACAD_REACTORS
330
2A
102
}
102
{ACAD_XDICTIONARY
360
A2
102
}
330
2A
100
AcDbVisualStyle
  2
Realistic
 70
     8
 71
     2
 72
     2
 73
     0
 90
        0
 40
-0.6
 41
-30.0
 62
     5
 63
     7
421
 16777215
 74
     1
 91
        0
 64
     7
 65
   257
 75
     1
175
     1
 42
1.0
 92
        8
 66
     8
424
  7895160
 43
1.0
 76
     1
 77
     6
 78
     2
 67
     7
 79
     5
170
     0
171
     0
290
     0
174
     0
 93
       13
 44
0.0
173
     0
291
     0
 45
0.0
  0
VISUALSTYLE
  5
37
102
{ACAD_REACTORS
330
2A
102
}
102
{ACAD_XDICTIONARY
360
AA
102
}
330
2A
100
AcDbVisualStyle
  2
Thicken
 70
    13
 71
     2
 72
     2
 73
     0
 90
        0
 40
-0.6
 41
-30.0
 62
     5
 63
     7
421
 16777215
 74
     1
 91
        4
 64
     7
 65
   257
 75
     1
175
     1
 42
1.0
 92
       12
 66
     7
 43
1.0
 76
     1
 77
     6
 78
     2
 67
     7
 79
     5
170
     0
171
     0
290
     0
174
     0
 93
        1
 44
0.0
173
     0
291
     1
 45
0.0
  0
DICTIONARY
  5
9A
330
2F
100
AcDbDictionary
280
     1
281
     1
  3
ACAD_XREC_ROUNDTRIP
360
9B
  0
DICTIONARY
  5
9E
330
31
100
AcDbDictionary
280
     1
281
     1
  3
ACAD_XREC_ROUNDTRIP
360
9F
  0
DICTIONARY
  5
9C
330
30
100
AcDbDictionary
280
     1
281
     1
  3
ACAD_XREC_ROUNDTRIP
360
9D
  0
DICTIONARY
  5
A0
330
32
100
AcDbDictionary
280
     1
281
     1
  3
ACAD_XREC_ROUNDTRIP
360
A1
  0
DICTIONARY
  5
A8
330
36
100
AcDbDictionary
280
     1
281
     1
  3
ACAD_XREC_ROUNDTRIP
360
A9
  0
DICTIONARY
  5
B0
330
3A
100
AcDbDictionary
280
     1
281
     1
  3
ACAD_XREC_ROUNDTRIP
360
B1
  0
DICTIONARY
  5
A4
330
34
100
AcDbDictionary
280
     1
281
     1
  3
ACAD_XREC_ROUNDTRIP
360
A5
  0
DICTIONARY
  5
A6
330
35
100
AcDbDictionary
280
     1
281
     1
  3
ACAD_XREC_ROUNDTRIP
360
A7
  0
DICTIONARY
  5
AE
330
39
100
AcDbDictionary
280
     1
281
     1
  3
ACAD_XREC_ROUNDTRIP
360
AF
  0
DICTIONARY
  5
92
330
2B
100
AcDbDictionary
280
     1
281
     1
  3
ACAD_XREC_ROUNDTRIP
360
93
  0
DICTIONARY
  5
94
330
2C
100
AcDbDictionary
280
     1
281
     1
  3
ACAD_XREC_ROUNDTRIP
360
95
  0
DICTIONARY
  5
96
330
2D
100
AcDbDictionary
280
     1
281
     1
  3
ACAD_XREC_ROUNDTRIP
360
97
  0
DICTIONARY
  5
98
330
2E
100
AcDbDictionary
280
     1
281
     1
  3
ACAD_XREC_ROUNDTRIP
360
99
  0
DICTIONARY
  5
AC
330
38
100
AcDbDictionary
280
     1
281
     1
  3
ACAD_XREC_ROUNDTRIP
360
AD
  0
DICTIONARY
  5
A2
330
33
100
AcDbDictionary
280
     1
281
     1
  3
ACAD_XREC_ROUNDTRIP
360
A3
  0
DICTIONARY
  5
AA
330
37
100
AcDbDictionary
280
     1
281
     1
  3
ACAD_XREC_ROUNDTRIP
360
AB
  0
XRECORD
  5
9B
102
{ACAD_REACTORS
330
9A
102
}
330
9A
100
AcDbXrecord
280
     1
102
RTVSPropertyOp0
 70
     1
102
RTVSPropertyOp1
 70
     1
102
RTVSPropertyOp2
 70
     1
102
RTVSPropertyOp3
 70
     1
102
RTVSPropertyOp4
 70
     1
102
RTVSPropertyOp5
 70
     1
102
RTVSPropertyOp6
 70
     1
102
RTVSPropertyOp7
 70
     1
102
RTVSPropertyOp8
 70
     1
102
RTVSPropertyOp9
 70
     1
102
RTVSPropertyOp10
 70
     1
102
RTVSPropertyOp11
 70
     1
102
RTVSPropertyOp12
 70
     1
102
RTVSPropertyOp13
 70
     1
102
RTVSPropertyOp14
 70
     1
102
RTVSPropertyOp15
 70
     1
102
RTVSPropertyOp16
 70
     1
102
RTVSPropertyOp17
 70
     1
102
RTVSPropertyOp18
 70
     1
102
RTVSPropertyOp19
 70
     1
102
RTVSPropertyOp20
 70
     1
102
RTVSPropertyOp21
 70
     1
102
RTVSPropertyOp22
 70
     1
102
RTVSPropertyOp23
 70
     1
102
RTVSPropertyOp24
 70
     1
102
RTVSPropertyOp25
 70
     1
102
RTVSPropertyOp26
 70
     1
102
RTVSPropertyOp27
 70
     1
102
RTVSPropertyOp28
 70
     1
102
RTVSPropertyOp29
 70
     1
102
RTVSPropertyOp30
 70
     1
102
RTVSPropertyOp31
 70
     1
102
RTVSPropertyOp32
 70
     1
  0
XRECORD
  5
9F
102
{ACAD_REACTORS
330
9E
102
}
330
9E
100
AcDbXrecord
280
     1
102
RTVSPropertyOp0
 70
     1
102
RTVSPropertyOp1
 70
     1
102
RTVSPropertyOp2
 70
     1
102
RTVSPropertyOp3
 70
     1
102
RTVSPropertyOp4
 70
     1
102
RTVSPropertyOp5
 70
     1
102
RTVSPropertyOp6
 70
     1
102
RTVSPropertyOp7
 70
     1
102
RTVSPropertyOp8
 70
     1
102
RTVSPropertyOp9
 70
     1
102
RTVSPropertyOp10
 70
     1
102
RTVSPropertyOp11
 70
     1
102
RTVSPropertyOp12
 70
     1
102
RTVSPropertyOp13
 70
     1
102
RTVSPropertyOp14
 70
     1
102
RTVSPropertyOp15
 70
     1
102
RTVSPropertyOp16
 70
     1
102
RTVSPropertyOp17
 70
     1
102
RTVSPropertyOp18
 70
     1
102
RTVSPropertyOp19
 70
     1
102
RTVSPropertyOp20
 70
     1
102
RTVSPropertyOp21
 70
     1
102
RTVSPropertyOp22
 70
     1
102
RTVSPropertyOp23
 70
     1
102
RTVSPropertyOp24
 70
     1
102
RTVSPropertyOp25
 70
     1
102
RTVSPropertyOp26
 70
     1
102
RTVSPropertyOp27
 70
     1
102
RTVSPropertyOp28
 70
     1
102
RTVSPropertyOp29
 70
     1
102
RTVSPropertyOp30
 70
     1
102
RTVSPropertyOp31
 70
     1
102
RTVSPropertyOp32
 70
     1
  0
XRECORD
  5
9D
102
{ACAD_REACTORS
330
9C
102
}
330
9C
100
AcDbXrecord
280
     1
102
RTVSPropertyOp0
 70
     1
102
RTVSPropertyOp1
 70
     1
102
RTVSPropertyOp2
 70
     1
102
RTVSPropertyOp3
 70
     1
102
RTVSPropertyOp4
 70
     1
102
RTVSPropertyOp5
 70
     1
102
RTVSPropertyOp6
 70
     1
102
RTVSPropertyOp7
 70
     1
102
RTVSPropertyOp8
 70
     1
102
RTVSPropertyOp9
 70
     1
102
RTVSPropertyOp10
 70
     1
102
RTVSPropertyOp11
 70
     1
102
RTVSPropertyOp12
 70
     1
102
RTVSPropertyOp13
 70
     1
102
RTVSPropertyOp14
 70
     1
102
RTVSPropertyOp15
 70
     1
102
RTVSPropertyOp16
 70
     1
102
RTVSPropertyOp17
 70
     1
102
RTVSPropertyOp18
 70
     1
102
RTVSPropertyOp19
 70
     1
102
RTVSPropertyOp20
 70
     1
102
RTVSPropertyOp21
 70
     1
102
RTVSPropertyOp22
 70
     1
102
RTVSPropertyOp23
 70
     1
102
RTVSPropertyOp24
 70
     1
102
RTVSPropertyOp25
 70
     1
102
RTVSPropertyOp26
 70
     1
102
RTVSPropertyOp27
 70
     1
102
RTVSPropertyOp28
 70
     1
102
RTVSPropertyOp29
 70
     1
102
RTVSPropertyOp30
 70
     1
102
RTVSPropertyOp31
 70
     1
102
RTVSPropertyOp32
 70
     1
  0
XRECORD
  5
A1
102
{ACAD_REACTORS
330
A0
102
}
330
A0
100
AcDbXrecord
280
     1
102
RTVSPropertyOp0
 70
     1
102
RTVSPropertyOp1
 70
     1
102
RTVSPropertyOp2
 70
     1
102
RTVSPropertyOp3
 70
     1
102
RTVSPropertyOp4
 70
     1
102
RTVSPropertyOp5
 70
     1
102
RTVSPropertyOp6
 70
     1
102
RTVSPropertyOp7
 70
     1
102
RTVSPropertyOp8
 70
     1
102
RTVSPropertyOp9
 70
     1
102
RTVSPropertyOp10
 70
     1
102
RTVSPropertyOp11
 70
     1
102
RTVSPropertyOp12
 70
     1
102
RTVSPropertyOp13
 70
     1
102
RTVSPropertyOp14
 70
     1
102
RTVSPropertyOp15
 70
     1
102
RTVSPropertyOp16
 70
     1
102
RTVSPropertyOp17
 70
     1
102
RTVSPropertyOp18
 70
     1
102
RTVSPropertyOp19
 70
     1
102
RTVSPropertyOp20
 70
     1
102
RTVSPropertyOp21
 70
     1
102
RTVSPropertyOp22
 70
     1
102
RTVSPropertyOp23
 70
     1
102
RTVSPropertyOp24
 70
     1
102
RTVSPropertyOp25
 70
     1
102
RTVSPropertyOp26
 70
     1
102
RTVSPropertyOp27
 70
     1
102
RTVSPropertyOp28
 70
     1
102
RTVSPropertyOp29
 70
     1
102
RTVSPropertyOp30
 70
     1
102
RTVSPropertyOp31
 70
     1
102
RTVSPropertyOp32
 70
     1
  0
XRECORD
  5
A9
102
{ACAD_REACTORS
330
A8
102
}
330
A8
100
AcDbXrecord
280
     1
102
RTVSPropertyOp0
 70
     1
102
RTVSPropertyOp1
 70
     1
102
RTVSPropertyOp2
 70
     1
102
RTVSPropertyOp3
 70
     1
102
RTVSPropertyOp4
 70
     1
102
RTVSPropertyOp5
 70
     1
102
RTVSPropertyOp6
 70
     1
102
RTVSPropertyOp7
 70
     1
102
RTVSPropertyOp8
 70
     1
102
RTVSPropertyOp9
 70
     1
102
RTVSPropertyOp10
 70
     1
102
RTVSPropertyOp11
 70
     1
102
RTVSPropertyOp12
 70
     1
102
RTVSPropertyOp13
 70
     1
102
RTVSPropertyOp14
 70
     1
102
RTVSPropertyOp15
 70
     1
102
RTVSPropertyOp16
 70
     1
102
RTVSPropertyOp17
 70
     1
102
RTVSPropertyOp18
 70
     1
102
RTVSPropertyOp19
 70
     1
102
RTVSPropertyOp20
 70
     1
102
RTVSPropertyOp21
 70
     1
102
RTVSPropertyOp22
 70
     1
102
RTVSPropertyOp23
 70
     1
102
RTVSPropertyOp24
 70
     1
102
RTVSPropertyOp25
 70
     1
102
RTVSPropertyOp26
 70
     1
102
RTVSPropertyOp27
 70
     1
102
RTVSPropertyOp28
 70
     1
102
RTVSPropertyOp29
 70
     1
102
RTVSPropertyOp30
 70
     1
102
RTVSPropertyOp31
 70
     1
102
RTVSPropertyOp32
 70
     1
  0
XRECORD
  5
B1
102
{ACAD_REACTORS
330
B0
102
}
330
B0
100
AcDbXrecord
280
     1
102
RTVSPropertyOp0
 70
     1
102
RTVSPropertyOp1
 70
     1
102
RTVSPropertyOp2
 70
     1
102
RTVSPropertyOp3
 70
     1
102
RTVSPropertyOp4
 70
     1
102
RTVSPropertyOp5
 70
     1
102
RTVSPropertyOp6
 70
     1
102
RTVSPropertyOp7
 70
     1
102
RTVSPropertyOp8
 70
     1
102
RTVSPropertyOp9
 70
     1
102
RTVSPropertyOp10
 70
     1
102
RTVSPropertyOp11
 70
     1
102
RTVSPropertyOp12
 70
     1
102
RTVSPropertyOp13
 70
     1
102
RTVSPropertyOp14
 70
     1
102
RTVSPropertyOp15
 70
     1
102
RTVSPropertyOp16
 70
     1
102
RTVSPropertyOp17
 70
     1
102
RTVSPropertyOp18
 70
     1
102
RTVSPropertyOp19
 70
     1
102
RTVSPropertyOp20
 70
     1
102
RTVSPropertyOp21
 70
     1
102
RTVSPropertyOp22
 70
     1
102
RTVSPropertyOp23
 70
     1
102
RTVSPropertyOp24
 70
     1
102
RTVSPropertyOp25
 70
     1
102
RTVSPropertyOp26
 70
     1
102
RTVSPropertyOp27
 70
     1
102
RTVSPropertyOp28
 70
     1
102
RTVSPropertyOp29
 70
     1
102
RTVSPropertyOp30
 70
     1
102
RTVSPropertyOp31
 70
     1
102
RTVSPropertyOp32
 70
     1
  0
XRECORD
  5
A5
102
{ACAD_REACTORS
330
A4
102
}
330
A4
100
AcDbXrecord
280
     1
102
RTVSPropertyOp0
 70
     1
102
RTVSPropertyOp1
 70
     1
102
RTVSPropertyOp2
 70
     1
102
RTVSPropertyOp3
 70
     1
102
RTVSPropertyOp4
 70
     1
102
RTVSPropertyOp5
 70
     1
102
RTVSPropertyOp6
 70
     1
102
RTVSPropertyOp7
 70
     1
102
RTVSPropertyOp8
 70
     1
102
RTVSPropertyOp9
 70
     1
102
RTVSPropertyOp10
 70
     1
102
RTVSPropertyOp11
 70
     1
102
RTVSPropertyOp12
 70
     1
102
RTVSPropertyOp13
 70
     1
102
RTVSPropertyOp14
 70
     1
102
RTVSPropertyOp15
 70
     1
102
RTVSPropertyOp16
 70
     1
102
RTVSPropertyOp17
 70
     1
102
RTVSPropertyOp18
 70
     1
102
RTVSPropertyOp19
 70
     1
102
RTVSPropertyOp20
 70
     1
102
RTVSPropertyOp21
 70
     1
102
RTVSPropertyOp22
 70
     1
102
RTVSPropertyOp23
 70
     1
102
RTVSPropertyOp24
 70
     1
102
RTVSPropertyOp25
 70
     1
102
RTVSPropertyOp26
 70
     1
102
RTVSPropertyOp27
 70
     1
102
RTVSPropertyOp28
 70
     1
102
RTVSPropertyOp29
 70
     1
102
RTVSPropertyOp30
 70
     1
102
RTVSPropertyOp31
 70
     1
102
RTVSPropertyOp32
 70
     1
  0
XRECORD
  5
A7
102
{ACAD_REACTORS
330
A6
102
}
330
A6
100
AcDbXrecord
280
     1
102
RTVSPropertyOp0
 70
     1
102
RTVSPropertyOp1
 70
     1
102
RTVSPropertyOp2
 70
     1
102
RTVSPropertyOp3
 70
     1
102
RTVSPropertyOp4
 70
     1
102
RTVSPropertyOp5
 70
     1
102
RTVSPropertyOp6
 70
     1
102
RTVSPropertyOp7
 70
     1
102
RTVSPropertyOp8
 70
     1
102
RTVSPropertyOp9
 70
     1
102
RTVSPropertyOp10
 70
     1
102
RTVSPropertyOp11
 70
     1
102
RTVSPropertyOp12
 70
     1
102
RTVSPropertyOp13
 70
     1
102
RTVSPropertyOp14
 70
     1
102
RTVSPropertyOp15
 70
     1
102
RTVSPropertyOp16
 70
     1
102
RTVSPropertyOp17
 70
     1
102
RTVSPropertyOp18
 70
     1
102
RTVSPropertyOp19
 70
     1
102
RTVSPropertyOp20
 70
     1
102
RTVSPropertyOp21
 70
     1
102
RTVSPropertyOp22
 70
     1
102
RTVSPropertyOp23
 70
     1
102
RTVSPropertyOp24
 70
     1
102
RTVSPropertyOp25
 70
     1
102
RTVSPropertyOp26
 70
     1
102
RTVSPropertyOp27
 70
     1
102
RTVSPropertyOp28
 70
     1
102
RTVSPropertyOp29
 70
     1
102
RTVSPropertyOp30
 70
     1
102
RTVSPropertyOp31
 70
     1
102
RTVSPropertyOp32
 70
     1
  0
XRECORD
  5
AF
102
{ACAD_REACTORS
330
AE
102
}
330
AE
100
AcDbXrecord
280
     1
102
RTVSPropertyOp0
 70
     1
102
RTVSPropertyOp1
 70
     1
102
RTVSPropertyOp2
 70
     1
102
RTVSPropertyOp3
 70
     1
102
RTVSPropertyOp4
 70
     1
102
RTVSPropertyOp5
 70
     1
102
RTVSPropertyOp6
 70
     1
102
RTVSPropertyOp7
 70
     1
102
RTVSPropertyOp8
 70
     1
102
RTVSPropertyOp9
 70
     1
102
RTVSPropertyOp10
 70
     1
102
RTVSPropertyOp11
 70
     1
102
RTVSPropertyOp12
 70
     1
102
RTVSPropertyOp13
 70
     1
102
RTVSPropertyOp14
 70
     1
102
RTVSPropertyOp15
 70
     1
102
RTVSPropertyOp16
 70
     1
102
RTVSPropertyOp17
 70
     1
102
RTVSPropertyOp18
 70
     1
102
RTVSPropertyOp19
 70
     1
102
RTVSPropertyOp20
 70
     1
102
RTVSPropertyOp21
 70
     1
102
RTVSPropertyOp22
 70
     1
102
RTVSPropertyOp23
 70
     1
102
RTVSPropertyOp24
 70
     1
102
RTVSPropertyOp25
 70
     1
102
RTVSPropertyOp26
 70
     1
102
RTVSPropertyOp27
 70
     1
102
RTVSPropertyOp28
 70
     1
102
RTVSPropertyOp29
 70
     1
102
RTVSPropertyOp30
 70
     1
102
RTVSPropertyOp31
 70
     1
102
RTVSPropertyOp32
 70
     1
  0
XRECORD
  5
93
102
{ACAD_REACTORS
330
92
102
}
330
92
100
AcDbXrecord
280
     1
102
RTVSPropertyOp0
 70
     1
102
RTVSPropertyOp1
 70
     1
102
RTVSPropertyOp2
 70
     1
102
RTVSPropertyOp3
 70
     1
102
RTVSPropertyOp4
 70
     1
102
RTVSPropertyOp5
 70
     1
102
RTVSPropertyOp6
 70
     1
102
RTVSPropertyOp7
 70
     1
102
RTVSPropertyOp8
 70
     1
102
RTVSPropertyOp9
 70
     1
102
RTVSPropertyOp10
 70
     1
102
RTVSPropertyOp11
 70
     1
102
RTVSPropertyOp12
 70
     1
102
RTVSPropertyOp13
 70
     1
102
RTVSPropertyOp14
 70
     1
102
RTVSPropertyOp15
 70
     1
102
RTVSPropertyOp16
 70
     1
102
RTVSPropertyOp17
 70
     1
102
RTVSPropertyOp18
 70
     1
102
RTVSPropertyOp19
 70
     1
102
RTVSPropertyOp20
 70
     1
102
RTVSPropertyOp21
 70
     1
102
RTVSPropertyOp22
 70
     1
102
RTVSPropertyOp23
 70
     1
102
RTVSPropertyOp24
 70
     1
102
RTVSPropertyOp25
 70
     1
102
RTVSPropertyOp26
 70
     1
102
RTVSPropertyOp27
 70
     1
102
RTVSPropertyOp28
 70
     1
102
RTVSPropertyOp29
 70
     1
102
RTVSPropertyOp30
 70
     1
102
RTVSPropertyOp31
 70
     1
102
RTVSPropertyOp32
 70
     1
  0
XRECORD
  5
95
102
{ACAD_REACTORS
330
94
102
}
330
94
100
AcDbXrecord
280
     1
102
RTVSPropertyOp0
 70
     1
102
RTVSPropertyOp1
 70
     1
102
RTVSPropertyOp2
 70
     1
102
RTVSPropertyOp3
 70
     1
102
RTVSPropertyOp4
 70
     1
102
RTVSPropertyOp5
 70
     1
102
RTVSPropertyOp6
 70
     1
102
RTVSPropertyOp7
 70
     1
102
RTVSPropertyOp8
 70
     1
102
RTVSPropertyOp9
 70
     1
102
RTVSPropertyOp10
 70
     1
102
RTVSPropertyOp11
 70
     1
102
RTVSPropertyOp12
 70
     1
102
RTVSPropertyOp13
 70
     1
102
RTVSPropertyOp14
 70
     1
102
RTVSPropertyOp15
 70
     1
102
RTVSPropertyOp16
 70
     1
102
RTVSPropertyOp17
 70
     1
102
RTVSPropertyOp18
 70
     1
102
RTVSPropertyOp19
 70
     1
102
RTVSPropertyOp20
 70
     1
102
RTVSPropertyOp21
 70
     1
102
RTVSPropertyOp22
 70
     1
102
RTVSPropertyOp23
 70
     1
102
RTVSPropertyOp24
 70
     1
102
RTVSPropertyOp25
 70
     1
102
RTVSPropertyOp26
 70
     1
102
RTVSPropertyOp27
 70
     1
102
RTVSPropertyOp28
 70
     1
102
RTVSPropertyOp29
 70
     1
102
RTVSPropertyOp30
 70
     1
102
RTVSPropertyOp31
 70
     1
102
RTVSPropertyOp32
 70
     1
  0
XRECORD
  5
97
102
{ACAD_REACTORS
330
96
102
}
330
96
100
AcDbXrecord
280
     1
102
RTVSPropertyOp0
 70
     1
102
RTVSPropertyOp1
 70
     1
102
RTVSPropertyOp2
 70
     1
102
RTVSPropertyOp3
 70
     1
102
RTVSPropertyOp4
 70
     1
102
RTVSPropertyOp5
 70
     1
102
RTVSPropertyOp6
 70
     1
102
RTVSPropertyOp7
 70
     1
102
RTVSPropertyOp8
 70
     1
102
RTVSPropertyOp9
 70
     1
102
RTVSPropertyOp10
 70
     1
102
RTVSPropertyOp11
 70
     1
102
RTVSPropertyOp12
 70
     1
102
RTVSPropertyOp13
 70
     1
102
RTVSPropertyOp14
 70
     1
102
RTVSPropertyOp15
 70
     1
102
RTVSPropertyOp16
 70
     1
102
RTVSPropertyOp17
 70
     1
102
RTVSPropertyOp18
 70
     1
102
RTVSPropertyOp19
 70
     1
102
RTVSPropertyOp20
 70
     1
102
RTVSPropertyOp21
 70
     1
102
RTVSPropertyOp22
 70
     1
102
RTVSPropertyOp23
 70
     1
102
RTVSPropertyOp24
 70
     1
102
RTVSPropertyOp25
 70
     1
102
RTVSPropertyOp26
 70
     1
102
RTVSPropertyOp27
 70
     1
102
RTVSPropertyOp28
 70
     1
102
RTVSPropertyOp29
 70
     1
102
RTVSPropertyOp30
 70
     1
102
RTVSPropertyOp31
 70
     1
102
RTVSPropertyOp32
 70
     1
  0
XRECORD
  5
99
102
{ACAD_REACTORS
330
98
102
}
330
98
100
AcDbXrecord
280
     1
102
RTVSPropertyOp0
 70
     1
102
RTVSPropertyOp1
 70
     1
102
RTVSPropertyOp2
 70
     1
102
RTVSPropertyOp3
 70
     1
102
RTVSPropertyOp4
 70
     1
102
RTVSPropertyOp5
 70
     1
102
RTVSPropertyOp6
 70
     1
102
RTVSPropertyOp7
 70
     1
102
RTVSPropertyOp8
 70
     1
102
RTVSPropertyOp9
 70
     1
102
RTVSPropertyOp10
 70
     1
102
RTVSPropertyOp11
 70
     1
102
RTVSPropertyOp12
 70
     1
102
RTVSPropertyOp13
 70
     1
102
RTVSPropertyOp14
 70
     1
102
RTVSPropertyOp15
 70
     1
102
RTVSPropertyOp16
 70
     1
102
RTVSPropertyOp17
 70
     1
102
RTVSPropertyOp18
 70
     1
102
RTVSPropertyOp19
 70
     1
102
RTVSPropertyOp20
 70
     1
102
RTVSPropertyOp21
 70
     1
102
RTVSPropertyOp22
 70
     1
102
RTVSPropertyOp23
 70
     1
102
RTVSPropertyOp24
 70
     1
102
RTVSPropertyOp25
 70
     1
102
RTVSPropertyOp26
 70
     1
102
RTVSPropertyOp27
 70
     1
102
RTVSPropertyOp28
 70
     1
102
RTVSPropertyOp29
 70
     1
102
RTVSPropertyOp30
 70
     1
102
RTVSPropertyOp31
 70
     1
102
RTVSPropertyOp32
 70
     1
  0
XRECORD
  5
AD
102
{ACAD_REACTORS
330
AC
102
}
330
AC
100
AcDbXrecord
280
     1
102
RTVSPropertyOp0
 70
     1
102
RTVSPropertyOp1
 70
     1
102
RTVSPropertyOp2
 70
     1
102
RTVSPropertyOp3
 70
     1
102
RTVSPropertyOp4
 70
     1
102
RTVSPropertyOp5
 70
     1
102
RTVSPropertyOp6
 70
     1
102
RTVSPropertyOp7
 70
     1
102
RTVSPropertyOp8
 70
     1
102
RTVSPropertyOp9
 70
     1
102
RTVSPropertyOp10
 70
     1
102
RTVSPropertyOp11
 70
     1
102
RTVSPropertyOp12
 70
     1
102
RTVSPropertyOp13
 70
     1
102
RTVSPropertyOp14
 70
     1
102
RTVSPropertyOp15
 70
     1
102
RTVSPropertyOp16
 70
     1
102
RTVSPropertyOp17
 70
     1
102
RTVSPropertyOp18
 70
     1
102
RTVSPropertyOp19
 70
     1
102
RTVSPropertyOp20
 70
     1
102
RTVSPropertyOp21
 70
     1
102
RTVSPropertyOp22
 70
     1
102
RTVSPropertyOp23
 70
     1
102
RTVSPropertyOp24
 70
     1
102
RTVSPropertyOp25
 70
     1
102
RTVSPropertyOp26
 70
     1
102
RTVSPropertyOp27
 70
     1
102
RTVSPropertyOp28
 70
     1
102
RTVSPropertyOp29
 70
     1
102
RTVSPropertyOp30
 70
     1
102
RTVSPropertyOp31
 70
     1
102
RTVSPropertyOp32
 70
     1
  0
XRECORD
  5
A3
102
{ACAD_REACTORS
330
A2
102
}
330
A2
100
AcDbXrecord
280
     1
102
RTVSPropertyOp0
 70
     1
102
RTVSPropertyOp1
 70
     1
102
RTVSPropertyOp2
 70
     1
102
RTVSPropertyOp3
 70
     1
102
RTVSPropertyOp4
 70
     1
102
RTVSPropertyOp5
 70
     1
102
RTVSPropertyOp6
 70
     1
102
RTVSPropertyOp7
 70
     1
102
RTVSPropertyOp8
 70
     1
102
RTVSPropertyOp9
 70
     1
102
RTVSPropertyOp10
 70
     1
102
RTVSPropertyOp11
 70
     1
102
RTVSPropertyOp12
 70
     1
102
RTVSPropertyOp13
 70
     1
102
RTVSPropertyOp14
 70
     1
102
RTVSPropertyOp15
 70
     1
102
RTVSPropertyOp16
 70
     1
102
RTVSPropertyOp17
 70
     1
102
RTVSPropertyOp18
 70
     1
102
RTVSPropertyOp19
 70
     1
102
RTVSPropertyOp20
 70
     1
102
RTVSPropertyOp21
 70
     1
102
RTVSPropertyOp22
 70
     1
102
RTVSPropertyOp23
 70
     1
102
RTVSPropertyOp24
 70
     1
102
RTVSPropertyOp25
 70
     1
102
RTVSPropertyOp26
 70
     1
102
RTVSPropertyOp27
 70
     1
102
RTVSPropertyOp28
 70
     1
102
RTVSPropertyOp29
 70
     1
102
RTVSPropertyOp30
 70
     1
102
RTVSPropertyOp31
 70
     1
102
RTVSPropertyOp32
 70
     1
  0
XRECORD
  5
AB
102
{ACAD_REACTORS
330
AA
102
}
330
AA
100
AcDbXrecord
280
     1
102
RTVSPropertyOp0
 70
     1
102
RTVSPropertyOp1
 70
     1
102
RTVSPropertyOp2
 70
     1
102
RTVSPropertyOp3
 70
     1
102
RTVSPropertyOp4
 70
     1
102
RTVSPropertyOp5
 70
     1
102
RTVSPropertyOp6
 70
     1
102
RTVSPropertyOp7
 70
     1
102
RTVSPropertyOp8
 70
     1
102
RTVSPropertyOp9
 70
     1
102
RTVSPropertyOp10
 70
     1
102
RTVSPropertyOp11
 70
     1
102
RTVSPropertyOp12
 70
     1
102
RTVSPropertyOp13
 70
     1
102
RTVSPropertyOp14
 70
     1
102
RTVSPropertyOp15
 70
     1
102
RTVSPropertyOp16
 70
     1
102
RTVSPropertyOp17
 70
     1
102
RTVSPropertyOp18
 70
     1
102
RTVSPropertyOp19
 70
     1
102
RTVSPropertyOp20
 70
     1
102
RTVSPropertyOp21
 70
     1
102
RTVSPropertyOp22
 70
     1
102
RTVSPropertyOp23
 70
     1
102
RTVSPropertyOp24
 70
     1
102
RTVSPropertyOp25
 70
     1
102
RTVSPropertyOp26
 70
     1
102
RTVSPropertyOp27
 70
     1
102
RTVSPropertyOp28
 70
     1
102
RTVSPropertyOp29
 70
     1
102
RTVSPropertyOp30
 70
     1
102
RTVSPropertyOp31
 70
     1
102
RTVSPropertyOp32
 70
     1
  0
ENDSEC
  0
EOF
