  0
SECTION
  2
HEADER
  9
$ACADVER
  1
AC1021
  9
$ACADMAINTVER
 70
    25
  9
$DWGCODEPAGE
  3
ANSI_1256
  9
$INSBASE
 10
0.0
 20
0.0
 30
0.0
  9
$EXTMIN
 10
24.4635
 20
-114.8566
 30
0.0
  9
$EXTMAX
 10
196.2175
 20
131.7298
 30
0.0
  9
$LIMMIN
 10
0.0
 20
0.0
  9
$LIMMAX
 10
12.0
 20
9.0
  9
$ORTHOMODE
 70
     0
  9
$REGENMODE
 70
     1
  9
$FILLMODE
 70
     1
  9
$QTEXTMODE
 70
     0
  9
$MIRRTEXT
 70
     1
  9
$LTSCALE
 40
1.0
  9
$ATTMODE
 70
     1
  9
$TEXTSIZE
 40
0.2
  9
$TRACEWID
 40
0.05
  9
$TEXTSTYLE
  7
Standard
  9
$CLAYER
  8
0
  9
$CELTYPE
  6
ByLayer
  9
$CECOLOR
 62
   256
  9
$CELTSCALE
 40
1.0
  9
$DISPSILH
 70
     0
  9
$DIMSCALE
 40
1.0
  9
$DIMASZ
 40
0.18
  9
$DIMEXO
 40
0.0625
  9
$DIMDLI
 40
0.38
  9
$DIMRND
 40
0.0
  9
$DIMDLE
 40
0.0
  9
$DIMEXE
 40
0.18
  9
$DIMTP
 40
0.0
  9
$DIMTM
 40
0.0
  9
$DIMTXT
 40
0.18
  9
$DIMCEN
 40
0.09
  9
$DIMTSZ
 40
0.0
  9
$DIMTOL
 70
     0
  9
$DIMLIM
 70
     0
  9
$DIMTIH
 70
     1
  9
$DIMTOH
 70
     1
  9
$DIMSE1
 70
     0
  9
$DIMSE2
 70
     0
  9
$DIMTAD
 70
     0
  9
$DIMZIN
 70
     0
  9
$DIMBLK
  1

  9
$DIMASO
 70
     1
  9
$DIMSHO
 70
     1
  9
$DIMPOST
  1

  9
$DIMAPOST
  1

  9
$DIMALT
 70
     0
  9
$DIMALTD
 70
     2
  9
$DIMALTF
 40
25.4
  9
$DIMLFAC
 40
1.0
  9
$DIMTOFL
 70
     0
  9
$DIMTVP
 40
0.0
  9
$DIMTIX
 70
     0
  9
$DIMSOXD
 70
     0
  9
$DIMSAH
 70
     0
  9
$DIMBLK1
  1

  9
$DIMBLK2
  1

  9
$DIMSTYLE
  2
Standard
  9
$DIMCLRD
 70
     0
  9
$DIMCLRE
 70
     0
  9
$DIMCLRT
 70
     0
  9
$DIMTFAC
 40
1.0
  9
$DIMGAP
 40
0.09
  9
$DIMJUST
 70
     0
  9
$DIMSD1
 70
     0
  9
$DIMSD2
 70
     0
  9
$DIMTOLJ
 70
     1
  9
$DIMTZIN
 70
     0
  9
$DIMALTZ
 70
     0
  9
$DIMALTTZ
 70
     0
  9
$DIMUPT
 70
     0
  9
$DIMDEC
 70
     4
  9
$DIMTDEC
 70
     4
  9
$DIMALTU
 70
     2
  9
$DIMALTTD
 70
     2
  9
$DIMTXSTY
  7
Standard
  9
$DIMAUNIT
 70
     0
  9
$DIMADEC
 70
     0
  9
$DIMALTRND
 40
0.0
  9
$DIMAZIN
 70
     0
  9
$DIMDSEP
 70
    46
  9
$DIMATFIT
 70
     3
  9
$DIMFRAC
 70
     0
  9
$DIMLDRBLK
  1

  9
$DIMLUNIT
 70
     2
  9
$DIMLWD
 70
    -2
  9
$DIMLWE
 70
    -2
  9
$DIMTMOVE
 70
     0
  9
$DIMFXL
 40
1.0
  9
$DIMFXLON
 70
     0
  9
$DIMJOGANG
 40
0.7853981633974483
  9
$DIMTFILL
 70
     0
  9
$DIMTFILLCLR
 70
     0
  9
$DIMARCSYM
 70
     0
  9
$DIMLTYPE
  6

  9
$DIMLTEX1
  6

  9
$DIMLTEX2
  6

  9
$LUNITS
 70
     2
  9
$LUPREC
 70
     4
  9
$SKETCHINC
 40
0.1
  9
$FILLETRAD
 40
0.5
  9
$AUNITS
 70
     0
  9
$AUPREC
 70
     0
  9
$MENU
  1
.
  9
$ELEVATION
 40
0.0
  9
$PELEVATION
 40
0.0
  9
$THICKNESS
 40
0.0
  9
$LIMCHECK
 70
     0
  9
$CHAMFERA
 40
0.5
  9
$CHAMFERB
 40
0.5
  9
$CHAMFERC
 40
1.0
  9
$CHAMFERD
 40
0.0
  9
$SKPOLY
 70
     0
  9
$TDCREATE
 40
2458492.957145533
  9
$TDUCREATE
 40
2458492.790478866
  9
$TDUPDATE
 40
2458492.957145717
  9
$TDUUPDATE
 40
2458492.790479051
  9
$TDINDWG
 40
0.0000000116
  9
$TDUSRTIMER
 40
0.0000000116
  9
$USRTIMER
 70
     1
  9
$ANGBASE
 50
0.0
  9
$ANGDIR
 70
     0
  9
$PDMODE
 70
     0
  9
$PDSIZE
 40
0.0
  9
$PLINEWID
 40
0.0
  9
$SPLFRAME
 70
     0
  9
$SPLINETYPE
 70
     6
  9
$SPLINESEGS
 70
     8
  9
$HANDSEED
  5
AB
  9
$SURFTAB1
 70
     6
  9
$SURFTAB2
 70
     6
  9
$SURFTYPE
 70
     6
  9
$SURFU
 70
     6
  9
$SURFV
 70
     6
  9
$UCSBASE
  2

  9
$UCSNAME
  2

  9
$UCSORG
 10
0.0
 20
0.0
 30
0.0
  9
$UCSXDIR
 10
1.0
 20
0.0
 30
0.0
  9
$UCSYDIR
 10
0.0
 20
1.0
 30
0.0
  9
$UCSORTHOREF
  2

  9
$UCSORTHOVIEW
 70
     0
  9
$UCSORGTOP
 10
0.0
 20
0.0
 30
0.0
  9
$UCSORGBOTTOM
 10
0.0
 20
0.0
 30
0.0
  9
$UCSORGLEFT
 10
0.0
 20
0.0
 30
0.0
  9
$UCSORGRIGHT
 10
0.0
 20
0.0
 30
0.0
  9
$UCSORGFRONT
 10
0.0
 20
0.0
 30
0.0
  9
$UCSORGBACK
 10
0.0
 20
0.0
 30
0.0
  9
$PUCSBASE
  2

  9
$PUCSNAME
  2

  9
$PUCSORG
 10
0.0
 20
0.0
 30
0.0
  9
$PUCSXDIR
 10
1.0
 20
0.0
 30
0.0
  9
$PUCSYDIR
 10
0.0
 20
1.0
 30
0.0
  9
$PUCSORTHOREF
  2

  9
$PUCSORTHOVIEW
 70
     0
  9
$PUCSORGTOP
 10
0.0
 20
0.0
 30
0.0
  9
$PUCSORGBOTTOM
 10
0.0
 20
0.0
 30
0.0
  9
$PUCSORGLEFT
 10
0.0
 20
0.0
 30
0.0
  9
$PUCSORGRIGHT
 10
0.0
 20
0.0
 30
0.0
  9
$PUCSORGFRONT
 10
0.0
 20
0.0
 30
0.0
  9
$PUCSORGBACK
 10
0.0
 20
0.0
 30
0.0
  9
$USERI1
 70
     0
  9
$USERI2
 70
     0
  9
$USERI3
 70
     0
  9
$USERI4
 70
     0
  9
$USERI5
 70
     0
  9
$USERR1
 40
0.0
  9
$USERR2
 40
0.0
  9
$USERR3
 40
0.0
  9
$USERR4
 40
0.0
  9
$USERR5
 40
0.0
  9
$WORLDVIEW
 70
     1
  9
$SHADEDGE
 70
     3
  9
$SHADEDIF
 70
    70
  9
$TILEMODE
 70
     1
  9
$MAXACTVP
 70
    64
  9
$PINSBASE
 10
0.0
 20
0.0
 30
0.0
  9
$PLIMCHECK
 70
     0
  9
$PEXTMIN
 10
1.000000000000000E+20
 20
1.000000000000000E+20
 30
1.000000000000000E+20
  9
$PEXTMAX
 10
-1.000000000000000E+20
 20
-1.000000000000000E+20
 30
-1.000000000000000E+20
  9
$PLIMMIN
 10
0.0
 20
0.0
  9
$PLIMMAX
 10
12.0
 20
9.0
  9
$UNITMODE
 70
     0
  9
$VISRETAIN
 70
     1
  9
$PLINEGEN
 70
     0
  9
$PSLTSCALE
 70
     1
  9
$TREEDEPTH
 70
  3020
  9
$CMLSTYLE
  2
Standard
  9
$CMLJUST
 70
     0
  9
$CMLSCALE
 40
1.0
  9
$PROXYGRAPHICS
 70
     1
  9
$MEASUREMENT
 70
     0
  9
$CELWEIGHT
370
    -1
  9
$ENDCAPS
280
     0
  9
$JOINSTYLE
280
     0
  9
$LWDISPLAY
290
     0
  9
$INSUNITS
 70
     4
  9
$HYPERLINKBASE
  1

  9
$STYLESHEET
  1

  9
$XEDIT
290
     1
  9
$CEPSNTYPE
380
     0
  9
$PSTYLEMODE
290
     1
  9
$FINGERPRINTGUID
  2
{11015603-FB0C-47F1-AE38-DF933CA80646}
  9
$VERSIONGUID
  2
{FAEB1C32-E019-11D5-929B-00C0DF256EC4}
  9
$EXTNAMES
290
     1
  9
$PSVPSCALE
 40
0.0
  9
$OLESTARTUP
290
     0
  9
$SORTENTS
280
   127
  9
$INDEXCTL
280
     0
  9
$HIDETEXT
280
     1
  9
$XCLIPFRAME
290
     0
  9
$HALOGAP
280
     0
  9
$OBSCOLOR
 70
   257
  9
$OBSLTYPE
280
     0
  9
$INTERSECTIONDISPLAY
280
     0
  9
$INTERSECTIONCOLOR
 70
   257
  9
$DIMASSOC
280
     2
  9
$PROJECTNAME
  1

  9
$CAMERADISPLAY
290
     0
  9
$LENSLENGTH
 40
50.0
  9
$CAMERAHEIGHT
 40
0.0
  9
$STEPSPERSEC
 40
2.0
  9
$STEPSIZE
 40
6.0
  9
$3DDWFPREC
 40
2.0
  9
$PSOLWIDTH
 40
0.25
  9
$PSOLHEIGHT
 40
4.0
  9
$LOFTANG1
 40
1.570796326794897
  9
$LOFTANG2
 40
1.570796326794897
  9
$LOFTMAG1
 40
0.0
  9
$LOFTMAG2
 40
0.0
  9
$LOFTPARAM
 70
     7
  9
$LOFTNORMALS
280
     1
  9
$LATITUDE
 40
37.795
  9
$LONGITUDE
 40
-122.394
  9
$NORTHDIRECTION
 40
0.0
  9
$TIMEZONE
 70
 -8000
  9
$LIGHTGLYPHDISPLAY
280
     1
  9
$TILEMODELIGHTSYNCH
280
     1
  9
$SOLIDHIST
280
     1
  9
$SHOWHIST
280
     1
  9
$DWFFRAME
280
     2
  9
$DGNFRAME
280
     2
  9
$REALWORLDSCALE
290
     1
  9
$INTERFERECOLOR
 62
   256
  9
$CSHADOW
280
     0
  9
$SHADOWPLANELOCATION
 40
0.0
  0
ENDSEC
  0
SECTION
  2
CLASSES
  0
CLASS
  1
ACDBDICTIONARYWDFLT
  2
AcDbDictionaryWithDefault
  3
ObjectDBX Classes
 90
        0
 91
        4
280
     0
281
     0
  0
CLASS
  1
VISUALSTYLE
  2
AcDbVisualStyle
  3
ObjectDBX Classes
 90
     4095
 91
        4
280
     0
281
     0
  0
CLASS
  1
MATERIAL
  2
AcDbMaterial
  3
ObjectDBX Classes
 90
     1153
 91
        4
280
     0
281
     0
  0
ENDSEC
  0
SECTION
  2
TABLES
  0
TABLE
  2
VPORT
  5
8
330
0
100
AcDbSymbolTable
 70
     1
  0
VPORT
  5
29
330
8
100
AcDbSymbolTableRecord
100
AcDbViewportTableRecord
  2
*Active
 70
     0
 10
0.0
 20
0.0
 11
1.0
 21
1.0
 12
10.42990654205607
 22
4.5
 13
0.0
 23
0.0
 14
0.5
 24
0.5
 15
0.5
 25
0.5
 16
0.0
 26
0.0
 36
1.0
 17
0.0
 27
0.0
 37
0.0
 40
9.0
 41
1.972972972850329
 42
50.0
 43
0.0
 44
0.0
 50
0.0
 51
0.0
 71
     0
 72
   100
 73
     1
 74
     3
 75
     0
 76
     0
 77
     0
 78
     0
281
     0
 65
     1
110
0.0
120
0.0
130
0.0
111
1.0
121
0.0
131
0.0
112
0.0
122
1.0
132
0.0
 79
     0
146
0.0
 60
     3
 61
     5
292
     1
282
     1
141
0.0
142
0.0
 63
   250
  0
ENDTAB
  0
TABLE
  2
LTYPE
  5
5
330
0
100
AcDbSymbolTable
 70
     1
  0
LTYPE
  5
14
330
5
100
AcDbSymbolTableRecord
100
AcDbLinetypeTableRecord
  2
ByBlock
 70
     0
  3

 72
    65
 73
     0
 40
0.0
  0
LTYPE
  5
15
330
5
100
AcDbSymbolTableRecord
100
AcDbLinetypeTableRecord
  2
ByLayer
 70
     0
  3

 72
    65
 73
     0
 40
0.0
  0
LTYPE
  5
16
330
5
100
AcDbSymbolTableRecord
100
AcDbLinetypeTableRecord
  2
Continuous
 70
     0
  3
Solid line
 72
    65
 73
     0
 40
0.0
  0
ENDTAB
  0
TABLE
  2
LAYER
  5
2
330
0
100
AcDbSymbolTable
 70
     3
  0
LAYER
  5
10
330
2
100
AcDbSymbolTableRecord
100
AcDbLayerTableRecord
  2
0
 70
     0
 62
     7
  6
Continuous
370
    -3
390
F
347
3E
  0
LAYER
  5
40
330
2
100
AcDbSymbolTableRecord
100
AcDbLayerTableRecord
  2
layer 1
 70
     0
 62
     7
  6
Continuous
370
    -3
390
F
347
3E
  0
LAYER
  5
88
330
2
100
AcDbSymbolTableRecord
100
AcDbLayerTableRecord
  2
Master Guides
 70
     0
 62
     7
  6
Continuous
370
    -3
390
F
347
3E
  0
ENDTAB
  0
TABLE
  2
STYLE
  5
3
330
0
100
AcDbSymbolTable
 70
     1
  0
STYLE
  5
11
330
3
100
AcDbSymbolTableRecord
100
AcDbTextStyleTableRecord
  2
Standard
 70
     0
 40
0.0
 41
1.0
 50
0.0
 71
     0
 42
0.2
  3
txt
  4

  0
ENDTAB
  0
TABLE
  2
VIEW
  5
6
330
0
100
AcDbSymbolTable
 70
     0
  0
ENDTAB
  0
TABLE
  2
UCS
  5
7
330
0
100
AcDbSymbolTable
 70
     0
  0
ENDTAB
  0
TABLE
  2
APPID
  5
9
330
0
100
AcDbSymbolTable
 70
     2
  0
APPID
  5
12
330
9
100
AcDbSymbolTableRecord
100
AcDbRegAppTableRecord
  2
ACAD
 70
     0
  0
APPID
  5
3F
330
9
100
AcDbSymbolTableRecord
100
AcDbRegAppTableRecord
  2
ODA
 70
     0
  0
ENDTAB
  0
TABLE
  2
DIMSTYLE
  5
A
330
0
100
AcDbSymbolTable
 70
     1
100
AcDbDimStyleTable
  0
DIMSTYLE
105
27
330
A
100
AcDbSymbolTableRecord
100
AcDbDimStyleTableRecord
  2
Standard
 70
     0
178
     0
340
11
  0
ENDTAB
  0
TABLE
  2
BLOCK_RECORD
  5
1
330
0
100
AcDbSymbolTable
 70
     1
  0
BLOCK_RECORD
  5
1F
330
1
100
AcDbSymbolTableRecord
100
AcDbBlockTableRecord
  2
*Model_Space
340
22
 70
     0
280
     1
281
     0
  0
BLOCK_RECORD
  5
1B
330
1
100
AcDbSymbolTableRecord
100
AcDbBlockTableRecord
  2
*Paper_Space
340
1E
 70
     0
280
     1
281
     0
  0
BLOCK_RECORD
  5
23
330
1
100
AcDbSymbolTableRecord
100
AcDbBlockTableRecord
  2
*Paper_Space0
340
26
 70
     0
280
     1
281
     0
  0
ENDTAB
  0
ENDSEC
  0
SECTION
  2
BLOCKS
  0
BLOCK
  5
20
330
1F
100
AcDbEntity
  8
0
100
AcDbBlockBegin
  2
*Model_Space
 70
     0
 10
0.0
 20
0.0
 30
0.0
  3
*Model_Space
  1

  0
ENDBLK
  5
21
330
1F
100
AcDbEntity
  8
0
100
AcDbBlockEnd
  0
BLOCK
  5
1C
330
1B
100
AcDbEntity
 67
     1
  8
0
100
AcDbBlockBegin
  2
*Paper_Space
 70
     0
 10
0.0
 20
0.0
 30
0.0
  3
*Paper_Space
  1

  0
ENDBLK
  5
1D
330
1B
100
AcDbEntity
 67
     1
  8
0
100
AcDbBlockEnd
  0
BLOCK
  5
24
330
23
100
AcDbEntity
  8
0
100
AcDbBlockBegin
  2
*Paper_Space0
 70
     0
 10
0.0
 20
0.0
 30
0.0
  3
*Paper_Space0
  1

  0
ENDBLK
  5
25
330
23
100
AcDbEntity
  8
0
100
AcDbBlockEnd
  0
ENDSEC
  0
SECTION
  2
ENTITIES
  0
LWPOLYLINE
  5
41
330
1F
100
AcDbEntity
  8
layer 1
 62
   250
100
AcDbPolyline
 90
        5
 70
     1
 43
0.0
 10
24.4635
 20
-114.8566
 10
196.2175
 20
-114.8566
 10
196.2175
 20
131.7298
 10
24.4635
 20
131.7298
 10
24.4635
 20
-114.8566
  0
SPLINE
  5
42
330
1F
100
AcDbEntity
  8
layer 1
 62
     7
100
AcDbSpline
210
0.0
220
0.0
230
1.0
 70
    11
 71
     3
 72
    52
 73
    48
 74
     0
 42
0.0000000001
 43
0.0000000001
 12
1.0
 22
0.0
 32
0.0
 13
1.0
 23
0.0
 33
0.0
 40
0.0
 40
0.0
 40
0.0
 40
0.0
 40
0.0769230769230769
 40
0.0769230769230769
 40
0.0769230769230769
 40
0.0769230769230769
 40
0.1538461538461539
 40
0.1538461538461539
 40
0.1538461538461539
 40
0.1538461538461539
 40
0.2307692307692308
 40
0.2307692307692308
 40
0.2307692307692308
 40
0.2307692307692308
 40
0.3076923076923077
 40
0.3076923076923077
 40
0.3076923076923077
 40
0.3076923076923077
 40
0.3846153846153846
 40
0.3846153846153846
 40
0.3846153846153846
 40
0.3846153846153846
 40
0.4615384615384616
 40
0.4615384615384616
 40
0.4615384615384616
 40
0.4615384615384616
 40
0.5384615384615384
 40
0.5384615384615384
 40
0.5384615384615384
 40
0.5384615384615384
 40
0.6153846153846154
 40
0.6153846153846154
 40
0.6153846153846154
 40
0.6153846153846154
 40
0.6923076923076923
 40
0.6923076923076923
 40
0.6923076923076923
 40
0.6923076923076923
 40
0.7692307692307693
 40
0.7692307692307693
 40
0.7692307692307693
 40
0.7692307692307693
 40
0.8461538461538461
 40
0.8461538461538461
 40
0.8461538461538461
 40
0.8461538461538461
 40
1.0
 40
1.0
 40
1.0
 40
1.0
 10
106.2634
 20
124.5295
 30
0.0
 10
103.8547
 20
124.5295
 30
0.0
 10
101.9018
 20
122.5367
 30
0.0
 10
101.9018
 20
120.0786
 30
0.0
 10
101.9018
 20
120.0786
 30
0.0
 10
101.9018
 20
118.3374
 30
0.0
 10
102.8803
 20
116.8309
 30
0.0
 10
104.307
 20
116.0906
 30
0.0
 10
104.307
 20
116.0906
 30
0.0
 10
102.8805
 20
115.3506
 30
0.0
 10
101.9018
 20
113.8443
 30
0.0
 10
101.9018
 20
112.103
 30
0.0
 10
101.9018
 20
112.103
 30
0.0
 10
101.9018
 20
109.645
 30
0.0
 10
103.8545
 20
107.6521
 30
0.0
 10
106.2634
 20
107.6521
 30
0.0
 10
106.2634
 20
107.6521
 30
0.0
 10
107.981
 20
107.6522
 30
0.0
 10
109.4663
 20
108.6648
 30
0.0
 10
110.3428
 20
110.1324
 30
0.0
 10
110.3428
 20
110.1324
 30
0.0
 10
111.2205
 20
108.6601
 30
0.0
 10
112.7035
 20
107.6521
 30
0.0
 10
114.4176
 20
107.6521
 30
0.0
 10
114.4176
 20
107.6521
 30
0.0
 10
116.8265
 20
107.6522
 30
0.0
 10
118.7792
 20
109.6449
 30
0.0
 10
118.7792
 20
112.103
 30
0.0
 10
118.7792
 20
112.103
 30
0.0
 10
118.7792
 20
113.8444
 30
0.0
 10
117.8004
 20
115.3504
 30
0.0
 10
116.3752
 20
116.0906
 30
0.0
 10
116.3752
 20
116.0906
 30
0.0
 10
117.8005
 20
116.831
 30
0.0
 10
118.7792
 20
118.3373
 30
0.0
 10
118.7792
 20
120.0786
 30
0.0
 10
118.7792
 20
120.0786
 30
0.0
 10
118.7792
 20
122.5367
 30
0.0
 10
116.8265
 20
124.5295
 30
0.0
 10
114.4176
 20
124.5295
 30
0.0
 10
114.4176
 20
124.5295
 30
0.0
 10
112.7068
 20
124.5295
 30
0.0
 10
111.2253
 20
123.5248
 30
0.0
 10
110.3322
 20
122.0786
 30
0.0
 10
110.3322
 20
122.0786
 30
0.0
 10
109.4323
 20
123.5402
 30
0.0
 10
107.961
 20
124.5295
 30
0.0
 10
106.2634
 20
124.5295
 30
0.0
  0
SPLINE
  5
43
330
1F
100
AcDbEntity
  8
layer 1
 62
     7
100
AcDbSpline
210
0.0
220
0.0
230
1.0
 70
    11
 71
     3
 72
    52
 73
    48
 74
     0
 42
0.0000000001
 43
0.0000000001
 12
1.0
 22
0.0
 32
0.0
 13
1.0
 23
0.0
 33
0.0
 40
0.0
 40
0.0
 40
0.0
 40
0.0
 40
0.0769230769230769
 40
0.0769230769230769
 40
0.0769230769230769
 40
0.0769230769230769
 40
0.1538461538461539
 40
0.1538461538461539
 40
0.1538461538461539
 40
0.1538461538461539
 40
0.2307692307692308
 40
0.2307692307692308
 40
0.2307692307692308
 40
0.2307692307692308
 40
0.3076923076923077
 40
0.3076923076923077
 40
0.3076923076923077
 40
0.3076923076923077
 40
0.3846153846153846
 40
0.3846153846153846
 40
0.3846153846153846
 40
0.3846153846153846
 40
0.4615384615384616
 40
0.4615384615384616
 40
0.4615384615384616
 40
0.4615384615384616
 40
0.5384615384615384
 40
0.5384615384615384
 40
0.5384615384615384
 40
0.5384615384615384
 40
0.6153846153846154
 40
0.6153846153846154
 40
0.6153846153846154
 40
0.6153846153846154
 40
0.6923076923076923
 40
0.6923076923076923
 40
0.6923076923076923
 40
0.6923076923076923
 40
0.7692307692307693
 40
0.7692307692307693
 40
0.7692307692307693
 40
0.7692307692307693
 40
0.8461538461538461
 40
0.8461538461538461
 40
0.8461538461538461
 40
0.8461538461538461
 40
1.0
 40
1.0
 40
1.0
 40
1.0
 10
82.835
 20
124.5295
 30
0.0
 10
80.4264
 20
124.5295
 30
0.0
 10
78.4734
 20
122.5367
 30
0.0
 10
78.4734
 20
120.0786
 30
0.0
 10
78.4734
 20
120.0786
 30
0.0
 10
78.4734
 20
118.3374
 30
0.0
 10
79.4519
 20
116.8309
 30
0.0
 10
80.8786
 20
116.0906
 30
0.0
 10
80.8786
 20
116.0906
 30
0.0
 10
79.4521
 20
115.3506
 30
0.0
 10
78.4734
 20
113.8443
 30
0.0
 10
78.4734
 20
112.103
 30
0.0
 10
78.4734
 20
112.103
 30
0.0
 10
78.4734
 20
109.645
 30
0.0
 10
80.4262
 20
107.6521
 30
0.0
 10
82.835
 20
107.6521
 30
0.0
 10
82.835
 20
107.6521
 30
0.0
 10
84.5526
 20
107.6522
 30
0.0
 10
86.0379
 20
108.6648
 30
0.0
 10
86.9144
 20
110.1324
 30
0.0
 10
86.9144
 20
110.1324
 30
0.0
 10
87.7922
 20
108.6601
 30
0.0
 10
89.2751
 20
107.6521
 30
0.0
 10
90.9893
 20
107.6521
 30
0.0
 10
90.9893
 20
107.6521
 30
0.0
 10
93.3981
 20
107.6522
 30
0.0
 10
95.3508
 20
109.6449
 30
0.0
 10
95.3508
 20
112.103
 30
0.0
 10
95.3508
 20
112.103
 30
0.0
 10
95.3508
 20
113.8444
 30
0.0
 10
94.3721
 20
115.3504
 30
0.0
 10
92.9469
 20
116.0906
 30
0.0
 10
92.9469
 20
116.0906
 30
0.0
 10
94.3722
 20
116.831
 30
0.0
 10
95.3508
 20
118.3373
 30
0.0
 10
95.3508
 20
120.0786
 30
0.0
 10
95.3508
 20
120.0786
 30
0.0
 10
95.3508
 20
122.5367
 30
0.0
 10
93.3981
 20
124.5295
 30
0.0
 10
90.9893
 20
124.5295
 30
0.0
 10
90.9893
 20
124.5295
 30
0.0
 10
89.2784
 20
124.5295
 30
0.0
 10
87.7969
 20
123.5248
 30
0.0
 10
86.9039
 20
122.0786
 30
0.0
 10
86.9039
 20
122.0786
 30
0.0
 10
86.004
 20
123.5402
 30
0.0
 10
84.5326
 20
124.5295
 30
0.0
 10
82.835
 20
124.5295
 30
0.0
  0
SPLINE
  5
44
330
1F
100
AcDbEntity
  8
layer 1
 62
     7
100
AcDbSpline
210
0.0
220
0.0
230
1.0
 70
    11
 71
     3
 72
    52
 73
    48
 74
     0
 42
0.0000000001
 43
0.0000000001
 12
1.0
 22
0.0
 32
0.0
 13
1.0
 23
0.0
 33
0.0
 40
0.0
 40
0.0
 40
0.0
 40
0.0
 40
0.0769230769230769
 40
0.0769230769230769
 40
0.0769230769230769
 40
0.0769230769230769
 40
0.1538461538461539
 40
0.1538461538461539
 40
0.1538461538461539
 40
0.1538461538461539
 40
0.2307692307692308
 40
0.2307692307692308
 40
0.2307692307692308
 40
0.2307692307692308
 40
0.3076923076923077
 40
0.3076923076923077
 40
0.3076923076923077
 40
0.3076923076923077
 40
0.3846153846153846
 40
0.3846153846153846
 40
0.3846153846153846
 40
0.3846153846153846
 40
0.4615384615384616
 40
0.4615384615384616
 40
0.4615384615384616
 40
0.4615384615384616
 40
0.5384615384615384
 40
0.5384615384615384
 40
0.5384615384615384
 40
0.5384615384615384
 40
0.6153846153846154
 40
0.6153846153846154
 40
0.6153846153846154
 40
0.6153846153846154
 40
0.6923076923076923
 40
0.6923076923076923
 40
0.6923076923076923
 40
0.6923076923076923
 40
0.7692307692307693
 40
0.7692307692307693
 40
0.7692307692307693
 40
0.7692307692307693
 40
0.8461538461538461
 40
0.8461538461538461
 40
0.8461538461538461
 40
0.8461538461538461
 40
1.0
 40
1.0
 40
1.0
 40
1.0
 10
35.9783
 20
124.5295
 30
0.0
 10
33.5696
 20
124.5295
 30
0.0
 10
31.6167
 20
122.5367
 30
0.0
 10
31.6167
 20
120.0786
 30
0.0
 10
31.6167
 20
120.0786
 30
0.0
 10
31.6167
 20
118.3374
 30
0.0
 10
32.5952
 20
116.8309
 30
0.0
 10
34.0219
 20
116.0906
 30
0.0
 10
34.0219
 20
116.0906
 30
0.0
 10
32.5954
 20
115.3506
 30
0.0
 10
31.6167
 20
113.8443
 30
0.0
 10
31.6167
 20
112.103
 30
0.0
 10
31.6167
 20
112.103
 30
0.0
 10
31.6167
 20
109.645
 30
0.0
 10
33.5695
 20
107.6521
 30
0.0
 10
35.9783
 20
107.6521
 30
0.0
 10
35.9783
 20
107.6521
 30
0.0
 10
37.6959
 20
107.6522
 30
0.0
 10
39.1812
 20
108.6648
 30
0.0
 10
40.0577
 20
110.1324
 30
0.0
 10
40.0577
 20
110.1324
 30
0.0
 10
40.9355
 20
108.6601
 30
0.0
 10
42.4184
 20
107.6521
 30
0.0
 10
44.1326
 20
107.6521
 30
0.0
 10
44.1326
 20
107.6521
 30
0.0
 10
46.5414
 20
107.6522
 30
0.0
 10
48.4941
 20
109.6449
 30
0.0
 10
48.4941
 20
112.103
 30
0.0
 10
48.4941
 20
112.103
 30
0.0
 10
48.4941
 20
113.8444
 30
0.0
 10
47.5154
 20
115.3504
 30
0.0
 10
46.0902
 20
116.0906
 30
0.0
 10
46.0902
 20
116.0906
 30
0.0
 10
47.5155
 20
116.831
 30
0.0
 10
48.4941
 20
118.3373
 30
0.0
 10
48.4941
 20
120.0786
 30
0.0
 10
48.4941
 20
120.0786
 30
0.0
 10
48.4941
 20
122.5367
 30
0.0
 10
46.5414
 20
124.5295
 30
0.0
 10
44.1326
 20
124.5295
 30
0.0
 10
44.1326
 20
124.5295
 30
0.0
 10
42.4217
 20
124.5295
 30
0.0
 10
40.9402
 20
123.5248
 30
0.0
 10
40.0472
 20
122.0786
 30
0.0
 10
40.0472
 20
122.0786
 30
0.0
 10
39.1473
 20
123.5402
 30
0.0
 10
37.6759
 20
124.5295
 30
0.0
 10
35.9783
 20
124.5295
 30
0.0
  0
SPLINE
  5
45
330
1F
100
AcDbEntity
  8
layer 1
 62
     7
100
AcDbSpline
210
0.0
220
0.0
230
1.0
 70
    11
 71
     3
 72
    52
 73
    48
 74
     0
 42
0.0000000001
 43
0.0000000001
 12
1.0
 22
0.0
 32
0.0
 13
1.0
 23
0.0
 33
0.0
 40
0.0
 40
0.0
 40
0.0
 40
0.0
 40
0.0769230769230769
 40
0.0769230769230769
 40
0.0769230769230769
 40
0.0769230769230769
 40
0.1538461538461539
 40
0.1538461538461539
 40
0.1538461538461539
 40
0.1538461538461539
 40
0.2307692307692308
 40
0.2307692307692308
 40
0.2307692307692308
 40
0.2307692307692308
 40
0.3076923076923077
 40
0.3076923076923077
 40
0.3076923076923077
 40
0.3076923076923077
 40
0.3846153846153846
 40
0.3846153846153846
 40
0.3846153846153846
 40
0.3846153846153846
 40
0.4615384615384616
 40
0.4615384615384616
 40
0.4615384615384616
 40
0.4615384615384616
 40
0.5384615384615384
 40
0.5384615384615384
 40
0.5384615384615384
 40
0.5384615384615384
 40
0.6153846153846154
 40
0.6153846153846154
 40
0.6153846153846154
 40
0.6153846153846154
 40
0.6923076923076923
 40
0.6923076923076923
 40
0.6923076923076923
 40
0.6923076923076923
 40
0.7692307692307693
 40
0.7692307692307693
 40
0.7692307692307693
 40
0.7692307692307693
 40
0.8461538461538461
 40
0.8461538461538461
 40
0.8461538461538461
 40
0.8461538461538461
 40
1.0
 40
1.0
 40
1.0
 40
1.0
 10
59.4067
 20
124.5295
 30
0.0
 10
56.998
 20
124.5295
 30
0.0
 10
55.0451
 20
122.5367
 30
0.0
 10
55.0451
 20
120.0786
 30
0.0
 10
55.0451
 20
120.0786
 30
0.0
 10
55.0451
 20
118.3374
 30
0.0
 10
56.0236
 20
116.8309
 30
0.0
 10
57.4502
 20
116.0906
 30
0.0
 10
57.4502
 20
116.0906
 30
0.0
 10
56.0238
 20
115.3506
 30
0.0
 10
55.0451
 20
113.8443
 30
0.0
 10
55.0451
 20
112.103
 30
0.0
 10
55.0451
 20
112.103
 30
0.0
 10
55.0451
 20
109.645
 30
0.0
 10
56.9978
 20
107.6521
 30
0.0
 10
59.4067
 20
107.6521
 30
0.0
 10
59.4067
 20
107.6521
 30
0.0
 10
61.1242
 20
107.6522
 30
0.0
 10
62.6096
 20
108.6648
 30
0.0
 10
63.4861
 20
110.1324
 30
0.0
 10
63.4861
 20
110.1324
 30
0.0
 10
64.3638
 20
108.6601
 30
0.0
 10
65.8467
 20
107.6521
 30
0.0
 10
67.5609
 20
107.6521
 30
0.0
 10
67.5609
 20
107.6521
 30
0.0
 10
69.9697
 20
107.6522
 30
0.0
 10
71.9225
 20
109.6449
 30
0.0
 10
71.9225
 20
112.103
 30
0.0
 10
71.9225
 20
112.103
 30
0.0
 10
71.9225
 20
113.8444
 30
0.0
 10
70.9437
 20
115.3504
 30
0.0
 10
69.5185
 20
116.0906
 30
0.0
 10
69.5185
 20
116.0906
 30
0.0
 10
70.9438
 20
116.831
 30
0.0
 10
71.9225
 20
118.3373
 30
0.0
 10
71.9225
 20
120.0786
 30
0.0
 10
71.9225
 20
120.0786
 30
0.0
 10
71.9225
 20
122.5367
 30
0.0
 10
69.9697
 20
124.5295
 30
0.0
 10
67.5609
 20
124.5295
 30
0.0
 10
67.5609
 20
124.5295
 30
0.0
 10
65.8501
 20
124.5295
 30
0.0
 10
64.3686
 20
123.5248
 30
0.0
 10
63.4755
 20
122.0786
 30
0.0
 10
63.4755
 20
122.0786
 30
0.0
 10
62.5756
 20
123.5402
 30
0.0
 10
61.1043
 20
124.5295
 30
0.0
 10
59.4067
 20
124.5295
 30
0.0
  0
SPLINE
  5
46
330
1F
100
AcDbEntity
  8
layer 1
 62
     7
100
AcDbSpline
210
0.0
220
0.0
230
1.0
 70
    11
 71
     3
 72
    52
 73
    48
 74
     0
 42
0.0000000001
 43
0.0000000001
 12
1.0
 22
0.0
 32
0.0
 13
1.0
 23
0.0
 33
0.0
 40
0.0
 40
0.0
 40
0.0
 40
0.0
 40
0.0769230769230769
 40
0.0769230769230769
 40
0.0769230769230769
 40
0.0769230769230769
 40
0.1538461538461539
 40
0.1538461538461539
 40
0.1538461538461539
 40
0.1538461538461539
 40
0.2307692307692308
 40
0.2307692307692308
 40
0.2307692307692308
 40
0.2307692307692308
 40
0.3076923076923077
 40
0.3076923076923077
 40
0.3076923076923077
 40
0.3076923076923077
 40
0.3846153846153846
 40
0.3846153846153846
 40
0.3846153846153846
 40
0.3846153846153846
 40
0.4615384615384616
 40
0.4615384615384616
 40
0.4615384615384616
 40
0.4615384615384616
 40
0.5384615384615384
 40
0.5384615384615384
 40
0.5384615384615384
 40
0.5384615384615384
 40
0.6153846153846154
 40
0.6153846153846154
 40
0.6153846153846154
 40
0.6153846153846154
 40
0.6923076923076923
 40
0.6923076923076923
 40
0.6923076923076923
 40
0.6923076923076923
 40
0.7692307692307693
 40
0.7692307692307693
 40
0.7692307692307693
 40
0.7692307692307693
 40
0.8461538461538461
 40
0.8461538461538461
 40
0.8461538461538461
 40
0.8461538461538461
 40
1.0
 40
1.0
 40
1.0
 40
1.0
 10
129.6917
 20
124.5295
 30
0.0
 10
127.2831
 20
124.5295
 30
0.0
 10
125.3301
 20
122.5367
 30
0.0
 10
125.3301
 20
120.0786
 30
0.0
 10
125.3301
 20
120.0786
 30
0.0
 10
125.3301
 20
118.3374
 30
0.0
 10
126.3087
 20
116.8309
 30
0.0
 10
127.7353
 20
116.0906
 30
0.0
 10
127.7353
 20
116.0906
 30
0.0
 10
126.3088
 20
115.3506
 30
0.0
 10
125.3301
 20
113.8443
 30
0.0
 10
125.3301
 20
112.103
 30
0.0
 10
125.3301
 20
112.103
 30
0.0
 10
125.3301
 20
109.645
 30
0.0
 10
127.2829
 20
107.6521
 30
0.0
 10
129.6917
 20
107.6521
 30
0.0
 10
129.6917
 20
107.6521
 30
0.0
 10
131.4093
 20
107.6522
 30
0.0
 10
132.8946
 20
108.6648
 30
0.0
 10
133.7712
 20
110.1324
 30
0.0
 10
133.7712
 20
110.1324
 30
0.0
 10
134.6489
 20
108.6601
 30
0.0
 10
136.1318
 20
107.6521
 30
0.0
 10
137.846
 20
107.6521
 30
0.0
 10
137.846
 20
107.6521
 30
0.0
 10
140.2548
 20
107.6522
 30
0.0
 10
142.2076
 20
109.6449
 30
0.0
 10
142.2076
 20
112.103
 30
0.0
 10
142.2076
 20
112.103
 30
0.0
 10
142.2076
 20
113.8444
 30
0.0
 10
141.2288
 20
115.3504
 30
0.0
 10
139.8036
 20
116.0906
 30
0.0
 10
139.8036
 20
116.0906
 30
0.0
 10
141.2289
 20
116.831
 30
0.0
 10
142.2076
 20
118.3373
 30
0.0
 10
142.2076
 20
120.0786
 30
0.0
 10
142.2076
 20
120.0786
 30
0.0
 10
142.2076
 20
122.5367
 30
0.0
 10
140.2548
 20
124.5295
 30
0.0
 10
137.846
 20
124.5295
 30
0.0
 10
137.846
 20
124.5295
 30
0.0
 10
136.1351
 20
124.5295
 30
0.0
 10
134.6537
 20
123.5248
 30
0.0
 10
133.7606
 20
122.0786
 30
0.0
 10
133.7606
 20
122.0786
 30
0.0
 10
132.8607
 20
123.5402
 30
0.0
 10
131.3894
 20
124.5295
 30
0.0
 10
129.6917
 20
124.5295
 30
0.0
  0
SPLINE
  5
47
330
1F
100
AcDbEntity
  8
layer 1
 62
     7
100
AcDbSpline
210
0.0
220
0.0
230
1.0
 70
    11
 71
     3
 72
    52
 73
    48
 74
     0
 42
0.0000000001
 43
0.0000000001
 12
1.0
 22
0.0
 32
0.0
 13
1.0
 23
0.0
 33
0.0
 40
0.0
 40
0.0
 40
0.0
 40
0.0
 40
0.0769230769230769
 40
0.0769230769230769
 40
0.0769230769230769
 40
0.0769230769230769
 40
0.1538461538461539
 40
0.1538461538461539
 40
0.1538461538461539
 40
0.1538461538461539
 40
0.2307692307692308
 40
0.2307692307692308
 40
0.2307692307692308
 40
0.2307692307692308
 40
0.3076923076923077
 40
0.3076923076923077
 40
0.3076923076923077
 40
0.3076923076923077
 40
0.3846153846153846
 40
0.3846153846153846
 40
0.3846153846153846
 40
0.3846153846153846
 40
0.4615384615384616
 40
0.4615384615384616
 40
0.4615384615384616
 40
0.4615384615384616
 40
0.5384615384615384
 40
0.5384615384615384
 40
0.5384615384615384
 40
0.5384615384615384
 40
0.6153846153846154
 40
0.6153846153846154
 40
0.6153846153846154
 40
0.6153846153846154
 40
0.6923076923076923
 40
0.6923076923076923
 40
0.6923076923076923
 40
0.6923076923076923
 40
0.7692307692307693
 40
0.7692307692307693
 40
0.7692307692307693
 40
0.7692307692307693
 40
0.8461538461538461
 40
0.8461538461538461
 40
0.8461538461538461
 40
0.8461538461538461
 40
1.0
 40
1.0
 40
1.0
 40
1.0
 10
153.1201
 20
124.5295
 30
0.0
 10
150.7114
 20
124.5295
 30
0.0
 10
148.7585
 20
122.5367
 30
0.0
 10
148.7585
 20
120.0786
 30
0.0
 10
148.7585
 20
120.0786
 30
0.0
 10
148.7585
 20
118.3374
 30
0.0
 10
149.737
 20
116.8309
 30
0.0
 10
151.1637
 20
116.0906
 30
0.0
 10
151.1637
 20
116.0906
 30
0.0
 10
149.7372
 20
115.3506
 30
0.0
 10
148.7585
 20
113.8443
 30
0.0
 10
148.7585
 20
112.103
 30
0.0
 10
148.7585
 20
112.103
 30
0.0
 10
148.7585
 20
109.645
 30
0.0
 10
150.7112
 20
107.6521
 30
0.0
 10
153.1201
 20
107.6521
 30
0.0
 10
153.1201
 20
107.6521
 30
0.0
 10
154.8377
 20
107.6522
 30
0.0
 10
156.323
 20
108.6648
 30
0.0
 10
157.1995
 20
110.1324
 30
0.0
 10
157.1995
 20
110.1324
 30
0.0
 10
158.0772
 20
108.6601
 30
0.0
 10
159.5602
 20
107.6521
 30
0.0
 10
161.2743
 20
107.6521
 30
0.0
 10
161.2743
 20
107.6521
 30
0.0
 10
163.6832
 20
107.6522
 30
0.0
 10
165.6359
 20
109.6449
 30
0.0
 10
165.6359
 20
112.103
 30
0.0
 10
165.6359
 20
112.103
 30
0.0
 10
165.6359
 20
113.8444
 30
0.0
 10
164.6572
 20
115.3504
 30
0.0
 10
163.2319
 20
116.0906
 30
0.0
 10
163.2319
 20
116.0906
 30
0.0
 10
164.6572
 20
116.831
 30
0.0
 10
165.6359
 20
118.3373
 30
0.0
 10
165.6359
 20
120.0786
 30
0.0
 10
165.6359
 20
120.0786
 30
0.0
 10
165.6359
 20
122.5367
 30
0.0
 10
163.6832
 20
124.5295
 30
0.0
 10
161.2743
 20
124.5295
 30
0.0
 10
161.2743
 20
124.5295
 30
0.0
 10
159.5635
 20
124.5295
 30
0.0
 10
158.082
 20
123.5248
 30
0.0
 10
157.1889
 20
122.0786
 30
0.0
 10
157.1889
 20
122.0786
 30
0.0
 10
156.289
 20
123.5402
 30
0.0
 10
154.8177
 20
124.5295
 30
0.0
 10
153.1201
 20
124.5295
 30
0.0
  0
SPLINE
  5
48
330
1F
100
AcDbEntity
  8
layer 1
 62
     7
100
AcDbSpline
210
0.0
220
0.0
230
1.0
 70
    11
 71
     3
 72
    52
 73
    48
 74
     0
 42
0.0000000001
 43
0.0000000001
 12
1.0
 22
0.0
 32
0.0
 13
1.0
 23
0.0
 33
0.0
 40
0.0
 40
0.0
 40
0.0
 40
0.0
 40
0.0769230769230769
 40
0.0769230769230769
 40
0.0769230769230769
 40
0.0769230769230769
 40
0.1538461538461539
 40
0.1538461538461539
 40
0.1538461538461539
 40
0.1538461538461539
 40
0.2307692307692308
 40
0.2307692307692308
 40
0.2307692307692308
 40
0.2307692307692308
 40
0.3076923076923077
 40
0.3076923076923077
 40
0.3076923076923077
 40
0.3076923076923077
 40
0.3846153846153846
 40
0.3846153846153846
 40
0.3846153846153846
 40
0.3846153846153846
 40
0.4615384615384616
 40
0.4615384615384616
 40
0.4615384615384616
 40
0.4615384615384616
 40
0.5384615384615384
 40
0.5384615384615384
 40
0.5384615384615384
 40
0.5384615384615384
 40
0.6153846153846154
 40
0.6153846153846154
 40
0.6153846153846154
 40
0.6153846153846154
 40
0.6923076923076923
 40
0.6923076923076923
 40
0.6923076923076923
 40
0.6923076923076923
 40
0.7692307692307693
 40
0.7692307692307693
 40
0.7692307692307693
 40
0.7692307692307693
 40
0.8461538461538461
 40
0.8461538461538461
 40
0.8461538461538461
 40
0.8461538461538461
 40
1.0
 40
1.0
 40
1.0
 40
1.0
 10
176.5484
 20
124.5295
 30
0.0
 10
174.1398
 20
124.5295
 30
0.0
 10
172.1869
 20
122.5367
 30
0.0
 10
172.1869
 20
120.0786
 30
0.0
 10
172.1869
 20
120.0786
 30
0.0
 10
172.1869
 20
118.3374
 30
0.0
 10
173.1654
 20
116.8309
 30
0.0
 10
174.592
 20
116.0906
 30
0.0
 10
174.592
 20
116.0906
 30
0.0
 10
173.1655
 20
115.3506
 30
0.0
 10
172.1869
 20
113.8443
 30
0.0
 10
172.1869
 20
112.103
 30
0.0
 10
172.1869
 20
112.103
 30
0.0
 10
172.1869
 20
109.645
 30
0.0
 10
174.1396
 20
107.6521
 30
0.0
 10
176.5484
 20
107.6521
 30
0.0
 10
176.5484
 20
107.6521
 30
0.0
 10
178.266
 20
107.6522
 30
0.0
 10
179.7513
 20
108.6648
 30
0.0
 10
180.6279
 20
110.1324
 30
0.0
 10
180.6279
 20
110.1324
 30
0.0
 10
181.5056
 20
108.6601
 30
0.0
 10
182.9885
 20
107.6521
 30
0.0
 10
184.7027
 20
107.6521
 30
0.0
 10
184.7027
 20
107.6521
 30
0.0
 10
187.1115
 20
107.6522
 30
0.0
 10
189.0643
 20
109.6449
 30
0.0
 10
189.0643
 20
112.103
 30
0.0
 10
189.0643
 20
112.103
 30
0.0
 10
189.0643
 20
113.8444
 30
0.0
 10
188.0855
 20
115.3504
 30
0.0
 10
186.6603
 20
116.0906
 30
0.0
 10
186.6603
 20
116.0906
 30
0.0
 10
188.0856
 20
116.831
 30
0.0
 10
189.0643
 20
118.3373
 30
0.0
 10
189.0643
 20
120.0786
 30
0.0
 10
189.0643
 20
120.0786
 30
0.0
 10
189.0643
 20
122.5367
 30
0.0
 10
187.1115
 20
124.5295
 30
0.0
 10
184.7027
 20
124.5295
 30
0.0
 10
184.7027
 20
124.5295
 30
0.0
 10
182.9918
 20
124.5295
 30
0.0
 10
181.5104
 20
123.5248
 30
0.0
 10
180.6173
 20
122.0786
 30
0.0
 10
180.6173
 20
122.0786
 30
0.0
 10
179.7174
 20
123.5402
 30
0.0
 10
178.2461
 20
124.5295
 30
0.0
 10
176.5484
 20
124.5295
 30
0.0
  0
SPLINE
  5
49
330
1F
100
AcDbEntity
  8
layer 1
 62
     7
100
AcDbSpline
210
0.0
220
0.0
230
1.0
 70
    11
 71
     3
 72
    52
 73
    48
 74
     0
 42
0.0000000001
 43
0.0000000001
 12
1.0
 22
0.0
 32
0.0
 13
1.0
 23
0.0
 33
0.0
 40
0.0
 40
0.0
 40
0.0
 40
0.0
 40
0.0769230769230769
 40
0.0769230769230769
 40
0.0769230769230769
 40
0.0769230769230769
 40
0.1538461538461539
 40
0.1538461538461539
 40
0.1538461538461539
 40
0.1538461538461539
 40
0.2307692307692308
 40
0.2307692307692308
 40
0.2307692307692308
 40
0.2307692307692308
 40
0.3076923076923077
 40
0.3076923076923077
 40
0.3076923076923077
 40
0.3076923076923077
 40
0.3846153846153846
 40
0.3846153846153846
 40
0.3846153846153846
 40
0.3846153846153846
 40
0.4615384615384616
 40
0.4615384615384616
 40
0.4615384615384616
 40
0.4615384615384616
 40
0.5384615384615384
 40
0.5384615384615384
 40
0.5384615384615384
 40
0.5384615384615384
 40
0.6153846153846154
 40
0.6153846153846154
 40
0.6153846153846154
 40
0.6153846153846154
 40
0.6923076923076923
 40
0.6923076923076923
 40
0.6923076923076923
 40
0.6923076923076923
 40
0.7692307692307693
 40
0.7692307692307693
 40
0.7692307692307693
 40
0.7692307692307693
 40
0.8461538461538461
 40
0.8461538461538461
 40
0.8461538461538461
 40
0.8461538461538461
 40
1.0
 40
1.0
 40
1.0
 40
1.0
 10
106.2634
 20
100.6064
 30
0.0
 10
103.8547
 20
100.6064
 30
0.0
 10
101.9018
 20
98.6136
 30
0.0
 10
101.9018
 20
96.1555
 30
0.0
 10
101.9018
 20
96.1555
 30
0.0
 10
101.9018
 20
94.4143
 30
0.0
 10
102.8803
 20
92.9078
 30
0.0
 10
104.307
 20
92.1674
 30
0.0
 10
104.307
 20
92.1674
 30
0.0
 10
102.8805
 20
91.4274
 30
0.0
 10
101.9018
 20
89.9211
 30
0.0
 10
101.9018
 20
88.1798
 30
0.0
 10
101.9018
 20
88.1798
 30
0.0
 10
101.9018
 20
85.7218
 30
0.0
 10
103.8545
 20
83.729
 30
0.0
 10
106.2634
 20
83.729
 30
0.0
 10
106.2634
 20
83.729
 30
0.0
 10
107.981
 20
83.7291
 30
0.0
 10
109.4663
 20
84.7417
 30
0.0
 10
110.3428
 20
86.2093
 30
0.0
 10
110.3428
 20
86.2093
 30
0.0
 10
111.2205
 20
84.7369
 30
0.0
 10
112.7035
 20
83.729
 30
0.0
 10
114.4176
 20
83.729
 30
0.0
 10
114.4176
 20
83.729
 30
0.0
 10
116.8265
 20
83.7291
 30
0.0
 10
118.7792
 20
85.7217
 30
0.0
 10
118.7792
 20
88.1798
 30
0.0
 10
118.7792
 20
88.1798
 30
0.0
 10
118.7792
 20
89.9212
 30
0.0
 10
117.8004
 20
91.4272
 30
0.0
 10
116.3752
 20
92.1674
 30
0.0
 10
116.3752
 20
92.1674
 30
0.0
 10
117.8005
 20
92.9079
 30
0.0
 10
118.7792
 20
94.4142
 30
0.0
 10
118.7792
 20
96.1555
 30
0.0
 10
118.7792
 20
96.1555
 30
0.0
 10
118.7792
 20
98.6136
 30
0.0
 10
116.8265
 20
100.6064
 30
0.0
 10
114.4176
 20
100.6064
 30
0.0
 10
114.4176
 20
100.6064
 30
0.0
 10
112.7068
 20
100.6064
 30
0.0
 10
111.2253
 20
99.6016
 30
0.0
 10
110.3322
 20
98.1554
 30
0.0
 10
110.3322
 20
98.1554
 30
0.0
 10
109.4323
 20
99.6171
 30
0.0
 10
107.961
 20
100.6064
 30
0.0
 10
106.2634
 20
100.6064
 30
0.0
  0
SPLINE
  5
4A
330
1F
100
AcDbEntity
  8
layer 1
 62
     7
100
AcDbSpline
210
0.0
220
0.0
230
1.0
 70
    11
 71
     3
 72
    52
 73
    48
 74
     0
 42
0.0000000001
 43
0.0000000001
 12
1.0
 22
0.0
 32
0.0
 13
1.0
 23
0.0
 33
0.0
 40
0.0
 40
0.0
 40
0.0
 40
0.0
 40
0.0769230769230769
 40
0.0769230769230769
 40
0.0769230769230769
 40
0.0769230769230769
 40
0.1538461538461539
 40
0.1538461538461539
 40
0.1538461538461539
 40
0.1538461538461539
 40
0.2307692307692308
 40
0.2307692307692308
 40
0.2307692307692308
 40
0.2307692307692308
 40
0.3076923076923077
 40
0.3076923076923077
 40
0.3076923076923077
 40
0.3076923076923077
 40
0.3846153846153846
 40
0.3846153846153846
 40
0.3846153846153846
 40
0.3846153846153846
 40
0.4615384615384616
 40
0.4615384615384616
 40
0.4615384615384616
 40
0.4615384615384616
 40
0.5384615384615384
 40
0.5384615384615384
 40
0.5384615384615384
 40
0.5384615384615384
 40
0.6153846153846154
 40
0.6153846153846154
 40
0.6153846153846154
 40
0.6153846153846154
 40
0.6923076923076923
 40
0.6923076923076923
 40
0.6923076923076923
 40
0.6923076923076923
 40
0.7692307692307693
 40
0.7692307692307693
 40
0.7692307692307693
 40
0.7692307692307693
 40
0.8461538461538461
 40
0.8461538461538461
 40
0.8461538461538461
 40
0.8461538461538461
 40
1.0
 40
1.0
 40
1.0
 40
1.0
 10
106.2634
 20
76.6832
 30
0.0
 10
103.8547
 20
76.6832
 30
0.0
 10
101.9018
 20
74.6904
 30
0.0
 10
101.9018
 20
72.2323
 30
0.0
 10
101.9018
 20
72.2323
 30
0.0
 10
101.9018
 20
70.4911
 30
0.0
 10
102.8803
 20
68.9846
 30
0.0
 10
104.307
 20
68.2443
 30
0.0
 10
104.307
 20
68.2443
 30
0.0
 10
102.8805
 20
67.5043
 30
0.0
 10
101.9018
 20
65.998
 30
0.0
 10
101.9018
 20
64.2567
 30
0.0
 10
101.9018
 20
64.2567
 30
0.0
 10
101.9018
 20
61.7987
 30
0.0
 10
103.8545
 20
59.8058
 30
0.0
 10
106.2634
 20
59.8058
 30
0.0
 10
106.2634
 20
59.8058
 30
0.0
 10
107.981
 20
59.8059
 30
0.0
 10
109.4663
 20
60.8185
 30
0.0
 10
110.3428
 20
62.2861
 30
0.0
 10
110.3428
 20
62.2861
 30
0.0
 10
111.2205
 20
60.8138
 30
0.0
 10
112.7035
 20
59.8058
 30
0.0
 10
114.4176
 20
59.8058
 30
0.0
 10
114.4176
 20
59.8058
 30
0.0
 10
116.8265
 20
59.8059
 30
0.0
 10
118.7792
 20
61.7986
 30
0.0
 10
118.7792
 20
64.2567
 30
0.0
 10
118.7792
 20
64.2567
 30
0.0
 10
118.7792
 20
65.9981
 30
0.0
 10
117.8004
 20
67.5041
 30
0.0
 10
116.3752
 20
68.2443
 30
0.0
 10
116.3752
 20
68.2443
 30
0.0
 10
117.8005
 20
68.9847
 30
0.0
 10
118.7792
 20
70.491
 30
0.0
 10
118.7792
 20
72.2323
 30
0.0
 10
118.7792
 20
72.2323
 30
0.0
 10
118.7792
 20
74.6904
 30
0.0
 10
116.8265
 20
76.6832
 30
0.0
 10
114.4176
 20
76.6832
 30
0.0
 10
114.4176
 20
76.6832
 30
0.0
 10
112.7068
 20
76.6832
 30
0.0
 10
111.2253
 20
75.6785
 30
0.0
 10
110.3322
 20
74.2323
 30
0.0
 10
110.3322
 20
74.2323
 30
0.0
 10
109.4323
 20
75.6939
 30
0.0
 10
107.961
 20
76.6832
 30
0.0
 10
106.2634
 20
76.6832
 30
0.0
  0
SPLINE
  5
4B
330
1F
100
AcDbEntity
  8
layer 1
 62
     7
100
AcDbSpline
210
0.0
220
0.0
230
1.0
 70
    11
 71
     3
 72
    52
 73
    48
 74
     0
 42
0.0000000001
 43
0.0000000001
 12
1.0
 22
0.0
 32
0.0
 13
1.0
 23
0.0
 33
0.0
 40
0.0
 40
0.0
 40
0.0
 40
0.0
 40
0.0769230769230769
 40
0.0769230769230769
 40
0.0769230769230769
 40
0.0769230769230769
 40
0.1538461538461539
 40
0.1538461538461539
 40
0.1538461538461539
 40
0.1538461538461539
 40
0.2307692307692308
 40
0.2307692307692308
 40
0.2307692307692308
 40
0.2307692307692308
 40
0.3076923076923077
 40
0.3076923076923077
 40
0.3076923076923077
 40
0.3076923076923077
 40
0.3846153846153846
 40
0.3846153846153846
 40
0.3846153846153846
 40
0.3846153846153846
 40
0.4615384615384616
 40
0.4615384615384616
 40
0.4615384615384616
 40
0.4615384615384616
 40
0.5384615384615384
 40
0.5384615384615384
 40
0.5384615384615384
 40
0.5384615384615384
 40
0.6153846153846154
 40
0.6153846153846154
 40
0.6153846153846154
 40
0.6153846153846154
 40
0.6923076923076923
 40
0.6923076923076923
 40
0.6923076923076923
 40
0.6923076923076923
 40
0.7692307692307693
 40
0.7692307692307693
 40
0.7692307692307693
 40
0.7692307692307693
 40
0.8461538461538461
 40
0.8461538461538461
 40
0.8461538461538461
 40
0.8461538461538461
 40
1.0
 40
1.0
 40
1.0
 40
1.0
 10
106.2634
 20
52.7601
 30
0.0
 10
103.8547
 20
52.7601
 30
0.0
 10
101.9018
 20
50.7673
 30
0.0
 10
101.9018
 20
48.3092
 30
0.0
 10
101.9018
 20
48.3092
 30
0.0
 10
101.9018
 20
46.568
 30
0.0
 10
102.8803
 20
45.0615
 30
0.0
 10
104.307
 20
44.3211
 30
0.0
 10
104.307
 20
44.3211
 30
0.0
 10
102.8805
 20
43.5811
 30
0.0
 10
101.9018
 20
42.0748
 30
0.0
 10
101.9018
 20
40.3335
 30
0.0
 10
101.9018
 20
40.3335
 30
0.0
 10
101.9018
 20
37.8755
 30
0.0
 10
103.8545
 20
35.8827
 30
0.0
 10
106.2634
 20
35.8827
 30
0.0
 10
106.2634
 20
35.8827
 30
0.0
 10
107.981
 20
35.8828
 30
0.0
 10
109.4663
 20
36.8954
 30
0.0
 10
110.3428
 20
38.363
 30
0.0
 10
110.3428
 20
38.363
 30
0.0
 10
111.2205
 20
36.8906
 30
0.0
 10
112.7035
 20
35.8827
 30
0.0
 10
114.4176
 20
35.8827
 30
0.0
 10
114.4176
 20
35.8827
 30
0.0
 10
116.8265
 20
35.8828
 30
0.0
 10
118.7792
 20
37.8754
 30
0.0
 10
118.7792
 20
40.3335
 30
0.0
 10
118.7792
 20
40.3335
 30
0.0
 10
118.7792
 20
42.0749
 30
0.0
 10
117.8004
 20
43.5809
 30
0.0
 10
116.3752
 20
44.3211
 30
0.0
 10
116.3752
 20
44.3211
 30
0.0
 10
117.8005
 20
45.0616
 30
0.0
 10
118.7792
 20
46.5679
 30
0.0
 10
118.7792
 20
48.3092
 30
0.0
 10
118.7792
 20
48.3092
 30
0.0
 10
118.7792
 20
50.7673
 30
0.0
 10
116.8265
 20
52.7601
 30
0.0
 10
114.4176
 20
52.7601
 30
0.0
 10
114.4176
 20
52.7601
 30
0.0
 10
112.7068
 20
52.7601
 30
0.0
 10
111.2253
 20
51.7553
 30
0.0
 10
110.3322
 20
50.3091
 30
0.0
 10
110.3322
 20
50.3091
 30
0.0
 10
109.4323
 20
51.7708
 30
0.0
 10
107.961
 20
52.7601
 30
0.0
 10
106.2634
 20
52.7601
 30
0.0
  0
SPLINE
  5
4C
330
1F
100
AcDbEntity
  8
layer 1
 62
     7
100
AcDbSpline
210
0.0
220
0.0
230
1.0
 70
    11
 71
     3
 72
    52
 73
    48
 74
     0
 42
0.0000000001
 43
0.0000000001
 12
1.0
 22
0.0
 32
0.0
 13
1.0
 23
0.0
 33
0.0
 40
0.0
 40
0.0
 40
0.0
 40
0.0
 40
0.0769230769230769
 40
0.0769230769230769
 40
0.0769230769230769
 40
0.0769230769230769
 40
0.1538461538461539
 40
0.1538461538461539
 40
0.1538461538461539
 40
0.1538461538461539
 40
0.2307692307692308
 40
0.2307692307692308
 40
0.2307692307692308
 40
0.2307692307692308
 40
0.3076923076923077
 40
0.3076923076923077
 40
0.3076923076923077
 40
0.3076923076923077
 40
0.3846153846153846
 40
0.3846153846153846
 40
0.3846153846153846
 40
0.3846153846153846
 40
0.4615384615384616
 40
0.4615384615384616
 40
0.4615384615384616
 40
0.4615384615384616
 40
0.5384615384615384
 40
0.5384615384615384
 40
0.5384615384615384
 40
0.5384615384615384
 40
0.6153846153846154
 40
0.6153846153846154
 40
0.6153846153846154
 40
0.6153846153846154
 40
0.6923076923076923
 40
0.6923076923076923
 40
0.6923076923076923
 40
0.6923076923076923
 40
0.7692307692307693
 40
0.7692307692307693
 40
0.7692307692307693
 40
0.7692307692307693
 40
0.8461538461538461
 40
0.8461538461538461
 40
0.8461538461538461
 40
0.8461538461538461
 40
1.0
 40
1.0
 40
1.0
 40
1.0
 10
106.2634
 20
28.8369
 30
0.0
 10
103.8547
 20
28.8369
 30
0.0
 10
101.9018
 20
26.8441
 30
0.0
 10
101.9018
 20
24.386
 30
0.0
 10
101.9018
 20
24.386
 30
0.0
 10
101.9018
 20
22.6448
 30
0.0
 10
102.8803
 20
21.1383
 30
0.0
 10
104.307
 20
20.398
 30
0.0
 10
104.307
 20
20.398
 30
0.0
 10
102.8805
 20
19.658
 30
0.0
 10
101.9018
 20
18.1517
 30
0.0
 10
101.9018
 20
16.4104
 30
0.0
 10
101.9018
 20
16.4104
 30
0.0
 10
101.9018
 20
13.9524
 30
0.0
 10
103.8545
 20
11.9595
 30
0.0
 10
106.2634
 20
11.9595
 30
0.0
 10
106.2634
 20
11.9595
 30
0.0
 10
107.981
 20
11.9596
 30
0.0
 10
109.4663
 20
12.9722
 30
0.0
 10
110.3428
 20
14.4398
 30
0.0
 10
110.3428
 20
14.4398
 30
0.0
 10
111.2205
 20
12.9675
 30
0.0
 10
112.7035
 20
11.9595
 30
0.0
 10
114.4176
 20
11.9595
 30
0.0
 10
114.4176
 20
11.9595
 30
0.0
 10
116.8265
 20
11.9596
 30
0.0
 10
118.7792
 20
13.9523
 30
0.0
 10
118.7792
 20
16.4104
 30
0.0
 10
118.7792
 20
16.4104
 30
0.0
 10
118.7792
 20
18.1518
 30
0.0
 10
117.8004
 20
19.6578
 30
0.0
 10
116.3752
 20
20.398
 30
0.0
 10
116.3752
 20
20.398
 30
0.0
 10
117.8005
 20
21.1384
 30
0.0
 10
118.7792
 20
22.6447
 30
0.0
 10
118.7792
 20
24.386
 30
0.0
 10
118.7792
 20
24.386
 30
0.0
 10
118.7792
 20
26.8441
 30
0.0
 10
116.8265
 20
28.8369
 30
0.0
 10
114.4176
 20
28.8369
 30
0.0
 10
114.4176
 20
28.8369
 30
0.0
 10
112.7068
 20
28.8369
 30
0.0
 10
111.2253
 20
27.8322
 30
0.0
 10
110.3322
 20
26.386
 30
0.0
 10
110.3322
 20
26.386
 30
0.0
 10
109.4323
 20
27.8476
 30
0.0
 10
107.961
 20
28.8369
 30
0.0
 10
106.2634
 20
28.8369
 30
0.0
  0
SPLINE
  5
4D
330
1F
100
AcDbEntity
  8
layer 1
 62
     7
100
AcDbSpline
210
0.0
220
0.0
230
1.0
 70
    11
 71
     3
 72
    52
 73
    48
 74
     0
 42
0.0000000001
 43
0.0000000001
 12
1.0
 22
0.0
 32
0.0
 13
1.0
 23
0.0
 33
0.0
 40
0.0
 40
0.0
 40
0.0
 40
0.0
 40
0.0769230769230769
 40
0.0769230769230769
 40
0.0769230769230769
 40
0.0769230769230769
 40
0.1538461538461539
 40
0.1538461538461539
 40
0.1538461538461539
 40
0.1538461538461539
 40
0.2307692307692308
 40
0.2307692307692308
 40
0.2307692307692308
 40
0.2307692307692308
 40
0.3076923076923077
 40
0.3076923076923077
 40
0.3076923076923077
 40
0.3076923076923077
 40
0.3846153846153846
 40
0.3846153846153846
 40
0.3846153846153846
 40
0.3846153846153846
 40
0.4615384615384616
 40
0.4615384615384616
 40
0.4615384615384616
 40
0.4615384615384616
 40
0.5384615384615384
 40
0.5384615384615384
 40
0.5384615384615384
 40
0.5384615384615384
 40
0.6153846153846154
 40
0.6153846153846154
 40
0.6153846153846154
 40
0.6153846153846154
 40
0.6923076923076923
 40
0.6923076923076923
 40
0.6923076923076923
 40
0.6923076923076923
 40
0.7692307692307693
 40
0.7692307692307693
 40
0.7692307692307693
 40
0.7692307692307693
 40
0.8461538461538461
 40
0.8461538461538461
 40
0.8461538461538461
 40
0.8461538461538461
 40
1.0
 40
1.0
 40
1.0
 40
1.0
 10
106.2634
 20
4.9138
 30
0.0
 10
103.8547
 20
4.9138
 30
0.0
 10
101.9018
 20
2.921
 30
0.0
 10
101.9018
 20
0.4629
 30
0.0
 10
101.9018
 20
0.4629
 30
0.0
 10
101.9018
 20
-1.2783
 30
0.0
 10
102.8803
 20
-2.7848
 30
0.0
 10
104.307
 20
-3.5252
 30
0.0
 10
104.307
 20
-3.5252
 30
0.0
 10
102.8805
 20
-4.2652
 30
0.0
 10
101.9018
 20
-5.7715
 30
0.0
 10
101.9018
 20
-7.5128
 30
0.0
 10
101.9018
 20
-7.5128
 30
0.0
 10
101.9018
 20
-9.9708
 30
0.0
 10
103.8545
 20
-11.9636
 30
0.0
 10
106.2634
 20
-11.9636
 30
0.0
 10
106.2634
 20
-11.9636
 30
0.0
 10
107.981
 20
-11.9635
 30
0.0
 10
109.4663
 20
-10.9509
 30
0.0
 10
110.3428
 20
-9.4833
 30
0.0
 10
110.3428
 20
-9.4833
 30
0.0
 10
111.2205
 20
-10.9557
 30
0.0
 10
112.7035
 20
-11.9636
 30
0.0
 10
114.4176
 20
-11.9636
 30
0.0
 10
114.4176
 20
-11.9636
 30
0.0
 10
116.8265
 20
-11.9635
 30
0.0
 10
118.7792
 20
-9.9709
 30
0.0
 10
118.7792
 20
-7.5128
 30
0.0
 10
118.7792
 20
-7.5128
 30
0.0
 10
118.7792
 20
-5.7714
 30
0.0
 10
117.8004
 20
-4.2654
 30
0.0
 10
116.3752
 20
-3.5252
 30
0.0
 10
116.3752
 20
-3.5252
 30
0.0
 10
117.8005
 20
-2.7847
 30
0.0
 10
118.7792
 20
-1.2784
 30
0.0
 10
118.7792
 20
0.4629
 30
0.0
 10
118.7792
 20
0.4629
 30
0.0
 10
118.7792
 20
2.921
 30
0.0
 10
116.8265
 20
4.9138
 30
0.0
 10
114.4176
 20
4.9138
 30
0.0
 10
114.4176
 20
4.9138
 30
0.0
 10
112.7068
 20
4.9138
 30
0.0
 10
111.2253
 20
3.909
 30
0.0
 10
110.3322
 20
2.4628
 30
0.0
 10
110.3322
 20
2.4628
 30
0.0
 10
109.4323
 20
3.9245
 30
0.0
 10
107.961
 20
4.9138
 30
0.0
 10
106.2634
 20
4.9138
 30
0.0
  0
SPLINE
  5
4E
330
1F
100
AcDbEntity
  8
layer 1
 62
     7
100
AcDbSpline
210
0.0
220
0.0
230
1.0
 70
    11
 71
     3
 72
    52
 73
    48
 74
     0
 42
0.0000000001
 43
0.0000000001
 12
1.0
 22
0.0
 32
0.0
 13
1.0
 23
0.0
 33
0.0
 40
0.0
 40
0.0
 40
0.0
 40
0.0
 40
0.0769230769230769
 40
0.0769230769230769
 40
0.0769230769230769
 40
0.0769230769230769
 40
0.1538461538461539
 40
0.1538461538461539
 40
0.1538461538461539
 40
0.1538461538461539
 40
0.2307692307692308
 40
0.2307692307692308
 40
0.2307692307692308
 40
0.2307692307692308
 40
0.3076923076923077
 40
0.3076923076923077
 40
0.3076923076923077
 40
0.3076923076923077
 40
0.3846153846153846
 40
0.3846153846153846
 40
0.3846153846153846
 40
0.3846153846153846
 40
0.4615384615384616
 40
0.4615384615384616
 40
0.4615384615384616
 40
0.4615384615384616
 40
0.5384615384615384
 40
0.5384615384615384
 40
0.5384615384615384
 40
0.5384615384615384
 40
0.6153846153846154
 40
0.6153846153846154
 40
0.6153846153846154
 40
0.6153846153846154
 40
0.6923076923076923
 40
0.6923076923076923
 40
0.6923076923076923
 40
0.6923076923076923
 40
0.7692307692307693
 40
0.7692307692307693
 40
0.7692307692307693
 40
0.7692307692307693
 40
0.8461538461538461
 40
0.8461538461538461
 40
0.8461538461538461
 40
0.8461538461538461
 40
1.0
 40
1.0
 40
1.0
 40
1.0
 10
106.2634
 20
-19.0094
 30
0.0
 10
103.8547
 20
-19.0094
 30
0.0
 10
101.9018
 20
-21.0022
 30
0.0
 10
101.9018
 20
-23.4603
 30
0.0
 10
101.9018
 20
-23.4603
 30
0.0
 10
101.9018
 20
-25.2015
 30
0.0
 10
102.8803
 20
-26.708
 30
0.0
 10
104.307
 20
-27.4483
 30
0.0
 10
104.307
 20
-27.4483
 30
0.0
 10
102.8805
 20
-28.1883
 30
0.0
 10
101.9018
 20
-29.6946
 30
0.0
 10
101.9018
 20
-31.4359
 30
0.0
 10
101.9018
 20
-31.4359
 30
0.0
 10
101.9018
 20
-33.8939
 30
0.0
 10
103.8545
 20
-35.8868
 30
0.0
 10
106.2634
 20
-35.8868
 30
0.0
 10
106.2634
 20
-35.8868
 30
0.0
 10
107.981
 20
-35.8867
 30
0.0
 10
109.4663
 20
-34.8741
 30
0.0
 10
110.3428
 20
-33.4065
 30
0.0
 10
110.3428
 20
-33.4065
 30
0.0
 10
111.2205
 20
-34.8788
 30
0.0
 10
112.7035
 20
-35.8868
 30
0.0
 10
114.4176
 20
-35.8868
 30
0.0
 10
114.4176
 20
-35.8868
 30
0.0
 10
116.8265
 20
-35.8867
 30
0.0
 10
118.7792
 20
-33.894
 30
0.0
 10
118.7792
 20
-31.4359
 30
0.0
 10
118.7792
 20
-31.4359
 30
0.0
 10
118.7792
 20
-29.6945
 30
0.0
 10
117.8004
 20
-28.1885
 30
0.0
 10
116.3752
 20
-27.4483
 30
0.0
 10
116.3752
 20
-27.4483
 30
0.0
 10
117.8005
 20
-26.7079
 30
0.0
 10
118.7792
 20
-25.2016
 30
0.0
 10
118.7792
 20
-23.4603
 30
0.0
 10
118.7792
 20
-23.4603
 30
0.0
 10
118.7792
 20
-21.0022
 30
0.0
 10
116.8265
 20
-19.0094
 30
0.0
 10
114.4176
 20
-19.0094
 30
0.0
 10
114.4176
 20
-19.0094
 30
0.0
 10
112.7068
 20
-19.0094
 30
0.0
 10
111.2253
 20
-20.0141
 30
0.0
 10
110.3322
 20
-21.4603
 30
0.0
 10
110.3322
 20
-21.4603
 30
0.0
 10
109.4323
 20
-19.9987
 30
0.0
 10
107.961
 20
-19.0094
 30
0.0
 10
106.2634
 20
-19.0094
 30
0.0
  0
SPLINE
  5
4F
330
1F
100
AcDbEntity
  8
layer 1
 62
     7
100
AcDbSpline
210
0.0
220
0.0
230
1.0
 70
    11
 71
     3
 72
    52
 73
    48
 74
     0
 42
0.0000000001
 43
0.0000000001
 12
1.0
 22
0.0
 32
0.0
 13
1.0
 23
0.0
 33
0.0
 40
0.0
 40
0.0
 40
0.0
 40
0.0
 40
0.0769230769230769
 40
0.0769230769230769
 40
0.0769230769230769
 40
0.0769230769230769
 40
0.1538461538461539
 40
0.1538461538461539
 40
0.1538461538461539
 40
0.1538461538461539
 40
0.2307692307692308
 40
0.2307692307692308
 40
0.2307692307692308
 40
0.2307692307692308
 40
0.3076923076923077
 40
0.3076923076923077
 40
0.3076923076923077
 40
0.3076923076923077
 40
0.3846153846153846
 40
0.3846153846153846
 40
0.3846153846153846
 40
0.3846153846153846
 40
0.4615384615384616
 40
0.4615384615384616
 40
0.4615384615384616
 40
0.4615384615384616
 40
0.5384615384615384
 40
0.5384615384615384
 40
0.5384615384615384
 40
0.5384615384615384
 40
0.6153846153846154
 40
0.6153846153846154
 40
0.6153846153846154
 40
0.6153846153846154
 40
0.6923076923076923
 40
0.6923076923076923
 40
0.6923076923076923
 40
0.6923076923076923
 40
0.7692307692307693
 40
0.7692307692307693
 40
0.7692307692307693
 40
0.7692307692307693
 40
0.8461538461538461
 40
0.8461538461538461
 40
0.8461538461538461
 40
0.8461538461538461
 40
1.0
 40
1.0
 40
1.0
 40
1.0
 10
106.2634
 20
-42.9325
 30
0.0
 10
103.8547
 20
-42.9325
 30
0.0
 10
101.9018
 20
-44.9253
 30
0.0
 10
101.9018
 20
-47.3834
 30
0.0
 10
101.9018
 20
-47.3834
 30
0.0
 10
101.9018
 20
-49.1246
 30
0.0
 10
102.8803
 20
-50.6311
 30
0.0
 10
104.307
 20
-51.3715
 30
0.0
 10
104.307
 20
-51.3715
 30
0.0
 10
102.8805
 20
-52.1115
 30
0.0
 10
101.9018
 20
-53.6178
 30
0.0
 10
101.9018
 20
-55.3591
 30
0.0
 10
101.9018
 20
-55.3591
 30
0.0
 10
101.9018
 20
-57.8171
 30
0.0
 10
103.8545
 20
-59.8099
 30
0.0
 10
106.2634
 20
-59.8099
 30
0.0
 10
106.2634
 20
-59.8099
 30
0.0
 10
107.981
 20
-59.8098
 30
0.0
 10
109.4663
 20
-58.7972
 30
0.0
 10
110.3428
 20
-57.3296
 30
0.0
 10
110.3428
 20
-57.3296
 30
0.0
 10
111.2205
 20
-58.802
 30
0.0
 10
112.7035
 20
-59.8099
 30
0.0
 10
114.4176
 20
-59.8099
 30
0.0
 10
114.4176
 20
-59.8099
 30
0.0
 10
116.8265
 20
-59.8098
 30
0.0
 10
118.7792
 20
-57.8172
 30
0.0
 10
118.7792
 20
-55.3591
 30
0.0
 10
118.7792
 20
-55.3591
 30
0.0
 10
118.7792
 20
-53.6177
 30
0.0
 10
117.8004
 20
-52.1117
 30
0.0
 10
116.3752
 20
-51.3715
 30
0.0
 10
116.3752
 20
-51.3715
 30
0.0
 10
117.8005
 20
-50.631
 30
0.0
 10
118.7792
 20
-49.1247
 30
0.0
 10
118.7792
 20
-47.3834
 30
0.0
 10
118.7792
 20
-47.3834
 30
0.0
 10
118.7792
 20
-44.9253
 30
0.0
 10
116.8265
 20
-42.9325
 30
0.0
 10
114.4176
 20
-42.9325
 30
0.0
 10
114.4176
 20
-42.9325
 30
0.0
 10
112.7068
 20
-42.9325
 30
0.0
 10
111.2253
 20
-43.9373
 30
0.0
 10
110.3322
 20
-45.3835
 30
0.0
 10
110.3322
 20
-45.3835
 30
0.0
 10
109.4323
 20
-43.9218
 30
0.0
 10
107.961
 20
-42.9325
 30
0.0
 10
106.2634
 20
-42.9325
 30
0.0
  0
SPLINE
  5
50
330
1F
100
AcDbEntity
  8
layer 1
 62
     7
100
AcDbSpline
210
0.0
220
0.0
230
1.0
 70
    11
 71
     3
 72
    52
 73
    48
 74
     0
 42
0.0000000001
 43
0.0000000001
 12
1.0
 22
0.0
 32
0.0
 13
1.0
 23
0.0
 33
0.0
 40
0.0
 40
0.0
 40
0.0
 40
0.0
 40
0.0769230769230769
 40
0.0769230769230769
 40
0.0769230769230769
 40
0.0769230769230769
 40
0.1538461538461539
 40
0.1538461538461539
 40
0.1538461538461539
 40
0.1538461538461539
 40
0.2307692307692308
 40
0.2307692307692308
 40
0.2307692307692308
 40
0.2307692307692308
 40
0.3076923076923077
 40
0.3076923076923077
 40
0.3076923076923077
 40
0.3076923076923077
 40
0.3846153846153846
 40
0.3846153846153846
 40
0.3846153846153846
 40
0.3846153846153846
 40
0.4615384615384616
 40
0.4615384615384616
 40
0.4615384615384616
 40
0.4615384615384616
 40
0.5384615384615384
 40
0.5384615384615384
 40
0.5384615384615384
 40
0.5384615384615384
 40
0.6153846153846154
 40
0.6153846153846154
 40
0.6153846153846154
 40
0.6153846153846154
 40
0.6923076923076923
 40
0.6923076923076923
 40
0.6923076923076923
 40
0.6923076923076923
 40
0.7692307692307693
 40
0.7692307692307693
 40
0.7692307692307693
 40
0.7692307692307693
 40
0.8461538461538461
 40
0.8461538461538461
 40
0.8461538461538461
 40
0.8461538461538461
 40
1.0
 40
1.0
 40
1.0
 40
1.0
 10
106.2634
 20
-66.8557
 30
0.0
 10
103.8547
 20
-66.8557
 30
0.0
 10
101.9018
 20
-68.8485
 30
0.0
 10
101.9018
 20
-71.3066
 30
0.0
 10
101.9018
 20
-71.3066
 30
0.0
 10
101.9018
 20
-73.0478
 30
0.0
 10
102.8803
 20
-74.5543
 30
0.0
 10
104.307
 20
-75.2946
 30
0.0
 10
104.307
 20
-75.2946
 30
0.0
 10
102.8805
 20
-76.0346
 30
0.0
 10
101.9018
 20
-77.5409
 30
0.0
 10
101.9018
 20
-79.2822
 30
0.0
 10
101.9018
 20
-79.2822
 30
0.0
 10
101.9018
 20
-81.7402
 30
0.0
 10
103.8545
 20
-83.7331
 30
0.0
 10
106.2634
 20
-83.7331
 30
0.0
 10
106.2634
 20
-83.7331
 30
0.0
 10
107.981
 20
-83.733
 30
0.0
 10
109.4663
 20
-82.7204
 30
0.0
 10
110.3428
 20
-81.2528
 30
0.0
 10
110.3428
 20
-81.2528
 30
0.0
 10
111.2205
 20
-82.7251
 30
0.0
 10
112.7035
 20
-83.7331
 30
0.0
 10
114.4176
 20
-83.7331
 30
0.0
 10
114.4176
 20
-83.7331
 30
0.0
 10
116.8265
 20
-83.733
 30
0.0
 10
118.7792
 20
-81.7403
 30
0.0
 10
118.7792
 20
-79.2822
 30
0.0
 10
118.7792
 20
-79.2822
 30
0.0
 10
118.7792
 20
-77.5408
 30
0.0
 10
117.8004
 20
-76.0348
 30
0.0
 10
116.3752
 20
-75.2946
 30
0.0
 10
116.3752
 20
-75.2946
 30
0.0
 10
117.8005
 20
-74.5542
 30
0.0
 10
118.7792
 20
-73.0479
 30
0.0
 10
118.7792
 20
-71.3066
 30
0.0
 10
118.7792
 20
-71.3066
 30
0.0
 10
118.7792
 20
-68.8485
 30
0.0
 10
116.8265
 20
-66.8557
 30
0.0
 10
114.4176
 20
-66.8557
 30
0.0
 10
114.4176
 20
-66.8557
 30
0.0
 10
112.7068
 20
-66.8557
 30
0.0
 10
111.2253
 20
-67.8604
 30
0.0
 10
110.3322
 20
-69.3066
 30
0.0
 10
110.3322
 20
-69.3066
 30
0.0
 10
109.4323
 20
-67.845
 30
0.0
 10
107.961
 20
-66.8557
 30
0.0
 10
106.2634
 20
-66.8557
 30
0.0
  0
SPLINE
  5
51
330
1F
100
AcDbEntity
  8
layer 1
 62
     7
100
AcDbSpline
210
0.0
220
0.0
230
1.0
 70
    11
 71
     3
 72
    52
 73
    48
 74
     0
 42
0.0000000001
 43
0.0000000001
 12
1.0
 22
0.0
 32
0.0
 13
1.0
 23
0.0
 33
0.0
 40
0.0
 40
0.0
 40
0.0
 40
0.0
 40
0.0769230769230769
 40
0.0769230769230769
 40
0.0769230769230769
 40
0.0769230769230769
 40
0.1538461538461539
 40
0.1538461538461539
 40
0.1538461538461539
 40
0.1538461538461539
 40
0.2307692307692308
 40
0.2307692307692308
 40
0.2307692307692308
 40
0.2307692307692308
 40
0.3076923076923077
 40
0.3076923076923077
 40
0.3076923076923077
 40
0.3076923076923077
 40
0.3846153846153846
 40
0.3846153846153846
 40
0.3846153846153846
 40
0.3846153846153846
 40
0.4615384615384616
 40
0.4615384615384616
 40
0.4615384615384616
 40
0.4615384615384616
 40
0.5384615384615384
 40
0.5384615384615384
 40
0.5384615384615384
 40
0.5384615384615384
 40
0.6153846153846154
 40
0.6153846153846154
 40
0.6153846153846154
 40
0.6153846153846154
 40
0.6923076923076923
 40
0.6923076923076923
 40
0.6923076923076923
 40
0.6923076923076923
 40
0.7692307692307693
 40
0.7692307692307693
 40
0.7692307692307693
 40
0.7692307692307693
 40
0.8461538461538461
 40
0.8461538461538461
 40
0.8461538461538461
 40
0.8461538461538461
 40
1.0
 40
1.0
 40
1.0
 40
1.0
 10
106.2634
 20
-90.7788
 30
0.0
 10
103.8547
 20
-90.7788
 30
0.0
 10
101.9018
 20
-92.7716
 30
0.0
 10
101.9018
 20
-95.2297
 30
0.0
 10
101.9018
 20
-95.2297
 30
0.0
 10
101.9018
 20
-96.9709
 30
0.0
 10
102.8803
 20
-98.4774
 30
0.0
 10
104.307
 20
-99.2178
 30
0.0
 10
104.307
 20
-99.2178
 30
0.0
 10
102.8805
 20
-99.9578
 30
0.0
 10
101.9018
 20
-101.4641
 30
0.0
 10
101.9018
 20
-103.2054
 30
0.0
 10
101.9018
 20
-103.2054
 30
0.0
 10
101.9018
 20
-105.6634
 30
0.0
 10
103.8545
 20
-107.6562
 30
0.0
 10
106.2634
 20
-107.6562
 30
0.0
 10
106.2634
 20
-107.6562
 30
0.0
 10
107.981
 20
-107.6561
 30
0.0
 10
109.4663
 20
-106.6435
 30
0.0
 10
110.3428
 20
-105.1759
 30
0.0
 10
110.3428
 20
-105.1759
 30
0.0
 10
111.2205
 20
-106.6483
 30
0.0
 10
112.7035
 20
-107.6562
 30
0.0
 10
114.4176
 20
-107.6562
 30
0.0
 10
114.4176
 20
-107.6562
 30
0.0
 10
116.8265
 20
-107.6561
 30
0.0
 10
118.7792
 20
-105.6635
 30
0.0
 10
118.7792
 20
-103.2054
 30
0.0
 10
118.7792
 20
-103.2054
 30
0.0
 10
118.7792
 20
-101.464
 30
0.0
 10
117.8004
 20
-99.958
 30
0.0
 10
116.3752
 20
-99.2178
 30
0.0
 10
116.3752
 20
-99.2178
 30
0.0
 10
117.8005
 20
-98.4773
 30
0.0
 10
118.7792
 20
-96.971
 30
0.0
 10
118.7792
 20
-95.2297
 30
0.0
 10
118.7792
 20
-95.2297
 30
0.0
 10
118.7792
 20
-92.7716
 30
0.0
 10
116.8265
 20
-90.7788
 30
0.0
 10
114.4176
 20
-90.7788
 30
0.0
 10
114.4176
 20
-90.7788
 30
0.0
 10
112.7068
 20
-90.7788
 30
0.0
 10
111.2253
 20
-91.7836
 30
0.0
 10
110.3322
 20
-93.2298
 30
0.0
 10
110.3322
 20
-93.2298
 30
0.0
 10
109.4323
 20
-91.7681
 30
0.0
 10
107.961
 20
-90.7788
 30
0.0
 10
106.2634
 20
-90.7788
 30
0.0
  0
SPLINE
  5
52
330
1F
100
AcDbEntity
  8
layer 1
 62
     7
100
AcDbSpline
210
0.0
220
0.0
230
1.0
 70
    11
 71
     3
 72
    52
 73
    48
 74
     0
 42
0.0000000001
 43
0.0000000001
 12
1.0
 22
0.0
 32
0.0
 13
1.0
 23
0.0
 33
0.0
 40
0.0
 40
0.0
 40
0.0
 40
0.0
 40
0.0769230769230769
 40
0.0769230769230769
 40
0.0769230769230769
 40
0.0769230769230769
 40
0.1538461538461539
 40
0.1538461538461539
 40
0.1538461538461539
 40
0.1538461538461539
 40
0.2307692307692308
 40
0.2307692307692308
 40
0.2307692307692308
 40
0.2307692307692308
 40
0.3076923076923077
 40
0.3076923076923077
 40
0.3076923076923077
 40
0.3076923076923077
 40
0.3846153846153846
 40
0.3846153846153846
 40
0.3846153846153846
 40
0.3846153846153846
 40
0.4615384615384616
 40
0.4615384615384616
 40
0.4615384615384616
 40
0.4615384615384616
 40
0.5384615384615384
 40
0.5384615384615384
 40
0.5384615384615384
 40
0.5384615384615384
 40
0.6153846153846154
 40
0.6153846153846154
 40
0.6153846153846154
 40
0.6153846153846154
 40
0.6923076923076923
 40
0.6923076923076923
 40
0.6923076923076923
 40
0.6923076923076923
 40
0.7692307692307693
 40
0.7692307692307693
 40
0.7692307692307693
 40
0.7692307692307693
 40
0.8461538461538461
 40
0.8461538461538461
 40
0.8461538461538461
 40
0.8461538461538461
 40
1.0
 40
1.0
 40
1.0
 40
1.0
 10
82.835
 20
100.6064
 30
0.0
 10
80.4264
 20
100.6064
 30
0.0
 10
78.4734
 20
98.6136
 30
0.0
 10
78.4734
 20
96.1555
 30
0.0
 10
78.4734
 20
96.1555
 30
0.0
 10
78.4734
 20
94.4143
 30
0.0
 10
79.4519
 20
92.9078
 30
0.0
 10
80.8786
 20
92.1674
 30
0.0
 10
80.8786
 20
92.1674
 30
0.0
 10
79.4521
 20
91.4274
 30
0.0
 10
78.4734
 20
89.9211
 30
0.0
 10
78.4734
 20
88.1798
 30
0.0
 10
78.4734
 20
88.1798
 30
0.0
 10
78.4734
 20
85.7218
 30
0.0
 10
80.4262
 20
83.729
 30
0.0
 10
82.835
 20
83.729
 30
0.0
 10
82.835
 20
83.729
 30
0.0
 10
84.5526
 20
83.7291
 30
0.0
 10
86.0379
 20
84.7417
 30
0.0
 10
86.9144
 20
86.2093
 30
0.0
 10
86.9144
 20
86.2093
 30
0.0
 10
87.7922
 20
84.7369
 30
0.0
 10
89.2751
 20
83.729
 30
0.0
 10
90.9893
 20
83.729
 30
0.0
 10
90.9893
 20
83.729
 30
0.0
 10
93.3981
 20
83.7291
 30
0.0
 10
95.3508
 20
85.7217
 30
0.0
 10
95.3508
 20
88.1798
 30
0.0
 10
95.3508
 20
88.1798
 30
0.0
 10
95.3508
 20
89.9212
 30
0.0
 10
94.3721
 20
91.4272
 30
0.0
 10
92.9469
 20
92.1674
 30
0.0
 10
92.9469
 20
92.1674
 30
0.0
 10
94.3722
 20
92.9079
 30
0.0
 10
95.3508
 20
94.4142
 30
0.0
 10
95.3508
 20
96.1555
 30
0.0
 10
95.3508
 20
96.1555
 30
0.0
 10
95.3508
 20
98.6136
 30
0.0
 10
93.3981
 20
100.6064
 30
0.0
 10
90.9893
 20
100.6064
 30
0.0
 10
90.9893
 20
100.6064
 30
0.0
 10
89.2784
 20
100.6064
 30
0.0
 10
87.7969
 20
99.6016
 30
0.0
 10
86.9039
 20
98.1554
 30
0.0
 10
86.9039
 20
98.1554
 30
0.0
 10
86.004
 20
99.6171
 30
0.0
 10
84.5326
 20
100.6064
 30
0.0
 10
82.835
 20
100.6064
 30
0.0
  0
SPLINE
  5
53
330
1F
100
AcDbEntity
  8
layer 1
 62
     7
100
AcDbSpline
210
0.0
220
0.0
230
1.0
 70
    11
 71
     3
 72
    52
 73
    48
 74
     0
 42
0.0000000001
 43
0.0000000001
 12
1.0
 22
0.0
 32
0.0
 13
1.0
 23
0.0
 33
0.0
 40
0.0
 40
0.0
 40
0.0
 40
0.0
 40
0.0769230769230769
 40
0.0769230769230769
 40
0.0769230769230769
 40
0.0769230769230769
 40
0.1538461538461539
 40
0.1538461538461539
 40
0.1538461538461539
 40
0.1538461538461539
 40
0.2307692307692308
 40
0.2307692307692308
 40
0.2307692307692308
 40
0.2307692307692308
 40
0.3076923076923077
 40
0.3076923076923077
 40
0.3076923076923077
 40
0.3076923076923077
 40
0.3846153846153846
 40
0.3846153846153846
 40
0.3846153846153846
 40
0.3846153846153846
 40
0.4615384615384616
 40
0.4615384615384616
 40
0.4615384615384616
 40
0.4615384615384616
 40
0.5384615384615384
 40
0.5384615384615384
 40
0.5384615384615384
 40
0.5384615384615384
 40
0.6153846153846154
 40
0.6153846153846154
 40
0.6153846153846154
 40
0.6153846153846154
 40
0.6923076923076923
 40
0.6923076923076923
 40
0.6923076923076923
 40
0.6923076923076923
 40
0.7692307692307693
 40
0.7692307692307693
 40
0.7692307692307693
 40
0.7692307692307693
 40
0.8461538461538461
 40
0.8461538461538461
 40
0.8461538461538461
 40
0.8461538461538461
 40
1.0
 40
1.0
 40
1.0
 40
1.0
 10
82.835
 20
76.6832
 30
0.0
 10
80.4264
 20
76.6832
 30
0.0
 10
78.4734
 20
74.6904
 30
0.0
 10
78.4734
 20
72.2323
 30
0.0
 10
78.4734
 20
72.2323
 30
0.0
 10
78.4734
 20
70.4911
 30
0.0
 10
79.4519
 20
68.9846
 30
0.0
 10
80.8786
 20
68.2443
 30
0.0
 10
80.8786
 20
68.2443
 30
0.0
 10
79.4521
 20
67.5043
 30
0.0
 10
78.4734
 20
65.998
 30
0.0
 10
78.4734
 20
64.2567
 30
0.0
 10
78.4734
 20
64.2567
 30
0.0
 10
78.4734
 20
61.7987
 30
0.0
 10
80.4262
 20
59.8058
 30
0.0
 10
82.835
 20
59.8058
 30
0.0
 10
82.835
 20
59.8058
 30
0.0
 10
84.5526
 20
59.8059
 30
0.0
 10
86.0379
 20
60.8185
 30
0.0
 10
86.9144
 20
62.2861
 30
0.0
 10
86.9144
 20
62.2861
 30
0.0
 10
87.7922
 20
60.8138
 30
0.0
 10
89.2751
 20
59.8058
 30
0.0
 10
90.9893
 20
59.8058
 30
0.0
 10
90.9893
 20
59.8058
 30
0.0
 10
93.3981
 20
59.8059
 30
0.0
 10
95.3508
 20
61.7986
 30
0.0
 10
95.3508
 20
64.2567
 30
0.0
 10
95.3508
 20
64.2567
 30
0.0
 10
95.3508
 20
65.9981
 30
0.0
 10
94.3721
 20
67.5041
 30
0.0
 10
92.9469
 20
68.2443
 30
0.0
 10
92.9469
 20
68.2443
 30
0.0
 10
94.3722
 20
68.9847
 30
0.0
 10
95.3508
 20
70.491
 30
0.0
 10
95.3508
 20
72.2323
 30
0.0
 10
95.3508
 20
72.2323
 30
0.0
 10
95.3508
 20
74.6904
 30
0.0
 10
93.3981
 20
76.6832
 30
0.0
 10
90.9893
 20
76.6832
 30
0.0
 10
90.9893
 20
76.6832
 30
0.0
 10
89.2784
 20
76.6832
 30
0.0
 10
87.7969
 20
75.6785
 30
0.0
 10
86.9039
 20
74.2323
 30
0.0
 10
86.9039
 20
74.2323
 30
0.0
 10
86.004
 20
75.6939
 30
0.0
 10
84.5326
 20
76.6832
 30
0.0
 10
82.835
 20
76.6832
 30
0.0
  0
SPLINE
  5
54
330
1F
100
AcDbEntity
  8
layer 1
 62
     7
100
AcDbSpline
210
0.0
220
0.0
230
1.0
 70
    11
 71
     3
 72
    52
 73
    48
 74
     0
 42
0.0000000001
 43
0.0000000001
 12
1.0
 22
0.0
 32
0.0
 13
1.0
 23
0.0
 33
0.0
 40
0.0
 40
0.0
 40
0.0
 40
0.0
 40
0.0769230769230769
 40
0.0769230769230769
 40
0.0769230769230769
 40
0.0769230769230769
 40
0.1538461538461539
 40
0.1538461538461539
 40
0.1538461538461539
 40
0.1538461538461539
 40
0.2307692307692308
 40
0.2307692307692308
 40
0.2307692307692308
 40
0.2307692307692308
 40
0.3076923076923077
 40
0.3076923076923077
 40
0.3076923076923077
 40
0.3076923076923077
 40
0.3846153846153846
 40
0.3846153846153846
 40
0.3846153846153846
 40
0.3846153846153846
 40
0.4615384615384616
 40
0.4615384615384616
 40
0.4615384615384616
 40
0.4615384615384616
 40
0.5384615384615384
 40
0.5384615384615384
 40
0.5384615384615384
 40
0.5384615384615384
 40
0.6153846153846154
 40
0.6153846153846154
 40
0.6153846153846154
 40
0.6153846153846154
 40
0.6923076923076923
 40
0.6923076923076923
 40
0.6923076923076923
 40
0.6923076923076923
 40
0.7692307692307693
 40
0.7692307692307693
 40
0.7692307692307693
 40
0.7692307692307693
 40
0.8461538461538461
 40
0.8461538461538461
 40
0.8461538461538461
 40
0.8461538461538461
 40
1.0
 40
1.0
 40
1.0
 40
1.0
 10
82.835
 20
52.7601
 30
0.0
 10
80.4264
 20
52.7601
 30
0.0
 10
78.4734
 20
50.7673
 30
0.0
 10
78.4734
 20
48.3092
 30
0.0
 10
78.4734
 20
48.3092
 30
0.0
 10
78.4734
 20
46.568
 30
0.0
 10
79.4519
 20
45.0615
 30
0.0
 10
80.8786
 20
44.3211
 30
0.0
 10
80.8786
 20
44.3211
 30
0.0
 10
79.4521
 20
43.5811
 30
0.0
 10
78.4734
 20
42.0748
 30
0.0
 10
78.4734
 20
40.3335
 30
0.0
 10
78.4734
 20
40.3335
 30
0.0
 10
78.4734
 20
37.8755
 30
0.0
 10
80.4262
 20
35.8827
 30
0.0
 10
82.835
 20
35.8827
 30
0.0
 10
82.835
 20
35.8827
 30
0.0
 10
84.5526
 20
35.8828
 30
0.0
 10
86.0379
 20
36.8954
 30
0.0
 10
86.9144
 20
38.363
 30
0.0
 10
86.9144
 20
38.363
 30
0.0
 10
87.7922
 20
36.8906
 30
0.0
 10
89.2751
 20
35.8827
 30
0.0
 10
90.9893
 20
35.8827
 30
0.0
 10
90.9893
 20
35.8827
 30
0.0
 10
93.3981
 20
35.8828
 30
0.0
 10
95.3508
 20
37.8754
 30
0.0
 10
95.3508
 20
40.3335
 30
0.0
 10
95.3508
 20
40.3335
 30
0.0
 10
95.3508
 20
42.0749
 30
0.0
 10
94.3721
 20
43.5809
 30
0.0
 10
92.9469
 20
44.3211
 30
0.0
 10
92.9469
 20
44.3211
 30
0.0
 10
94.3722
 20
45.0616
 30
0.0
 10
95.3508
 20
46.5679
 30
0.0
 10
95.3508
 20
48.3092
 30
0.0
 10
95.3508
 20
48.3092
 30
0.0
 10
95.3508
 20
50.7673
 30
0.0
 10
93.3981
 20
52.7601
 30
0.0
 10
90.9893
 20
52.7601
 30
0.0
 10
90.9893
 20
52.7601
 30
0.0
 10
89.2784
 20
52.7601
 30
0.0
 10
87.7969
 20
51.7553
 30
0.0
 10
86.9039
 20
50.3091
 30
0.0
 10
86.9039
 20
50.3091
 30
0.0
 10
86.004
 20
51.7708
 30
0.0
 10
84.5326
 20
52.7601
 30
0.0
 10
82.835
 20
52.7601
 30
0.0
  0
SPLINE
  5
55
330
1F
100
AcDbEntity
  8
layer 1
 62
     7
100
AcDbSpline
210
0.0
220
0.0
230
1.0
 70
    11
 71
     3
 72
    52
 73
    48
 74
     0
 42
0.0000000001
 43
0.0000000001
 12
1.0
 22
0.0
 32
0.0
 13
1.0
 23
0.0
 33
0.0
 40
0.0
 40
0.0
 40
0.0
 40
0.0
 40
0.0769230769230769
 40
0.0769230769230769
 40
0.0769230769230769
 40
0.0769230769230769
 40
0.1538461538461539
 40
0.1538461538461539
 40
0.1538461538461539
 40
0.1538461538461539
 40
0.2307692307692308
 40
0.2307692307692308
 40
0.2307692307692308
 40
0.2307692307692308
 40
0.3076923076923077
 40
0.3076923076923077
 40
0.3076923076923077
 40
0.3076923076923077
 40
0.3846153846153846
 40
0.3846153846153846
 40
0.3846153846153846
 40
0.3846153846153846
 40
0.4615384615384616
 40
0.4615384615384616
 40
0.4615384615384616
 40
0.4615384615384616
 40
0.5384615384615384
 40
0.5384615384615384
 40
0.5384615384615384
 40
0.5384615384615384
 40
0.6153846153846154
 40
0.6153846153846154
 40
0.6153846153846154
 40
0.6153846153846154
 40
0.6923076923076923
 40
0.6923076923076923
 40
0.6923076923076923
 40
0.6923076923076923
 40
0.7692307692307693
 40
0.7692307692307693
 40
0.7692307692307693
 40
0.7692307692307693
 40
0.8461538461538461
 40
0.8461538461538461
 40
0.8461538461538461
 40
0.8461538461538461
 40
1.0
 40
1.0
 40
1.0
 40
1.0
 10
82.835
 20
28.8369
 30
0.0
 10
80.4264
 20
28.8369
 30
0.0
 10
78.4734
 20
26.8441
 30
0.0
 10
78.4734
 20
24.386
 30
0.0
 10
78.4734
 20
24.386
 30
0.0
 10
78.4734
 20
22.6448
 30
0.0
 10
79.4519
 20
21.1383
 30
0.0
 10
80.8786
 20
20.398
 30
0.0
 10
80.8786
 20
20.398
 30
0.0
 10
79.4521
 20
19.658
 30
0.0
 10
78.4734
 20
18.1517
 30
0.0
 10
78.4734
 20
16.4104
 30
0.0
 10
78.4734
 20
16.4104
 30
0.0
 10
78.4734
 20
13.9524
 30
0.0
 10
80.4262
 20
11.9595
 30
0.0
 10
82.835
 20
11.9595
 30
0.0
 10
82.835
 20
11.9595
 30
0.0
 10
84.5526
 20
11.9596
 30
0.0
 10
86.0379
 20
12.9722
 30
0.0
 10
86.9144
 20
14.4398
 30
0.0
 10
86.9144
 20
14.4398
 30
0.0
 10
87.7922
 20
12.9675
 30
0.0
 10
89.2751
 20
11.9595
 30
0.0
 10
90.9893
 20
11.9595
 30
0.0
 10
90.9893
 20
11.9595
 30
0.0
 10
93.3981
 20
11.9596
 30
0.0
 10
95.3508
 20
13.9523
 30
0.0
 10
95.3508
 20
16.4104
 30
0.0
 10
95.3508
 20
16.4104
 30
0.0
 10
95.3508
 20
18.1518
 30
0.0
 10
94.3721
 20
19.6578
 30
0.0
 10
92.9469
 20
20.398
 30
0.0
 10
92.9469
 20
20.398
 30
0.0
 10
94.3722
 20
21.1384
 30
0.0
 10
95.3508
 20
22.6447
 30
0.0
 10
95.3508
 20
24.386
 30
0.0
 10
95.3508
 20
24.386
 30
0.0
 10
95.3508
 20
26.8441
 30
0.0
 10
93.3981
 20
28.8369
 30
0.0
 10
90.9893
 20
28.8369
 30
0.0
 10
90.9893
 20
28.8369
 30
0.0
 10
89.2784
 20
28.8369
 30
0.0
 10
87.7969
 20
27.8322
 30
0.0
 10
86.9039
 20
26.386
 30
0.0
 10
86.9039
 20
26.386
 30
0.0
 10
86.004
 20
27.8476
 30
0.0
 10
84.5326
 20
28.8369
 30
0.0
 10
82.835
 20
28.8369
 30
0.0
  0
SPLINE
  5
56
330
1F
100
AcDbEntity
  8
layer 1
 62
     7
100
AcDbSpline
210
0.0
220
0.0
230
1.0
 70
    11
 71
     3
 72
    52
 73
    48
 74
     0
 42
0.0000000001
 43
0.0000000001
 12
1.0
 22
0.0
 32
0.0
 13
1.0
 23
0.0
 33
0.0
 40
0.0
 40
0.0
 40
0.0
 40
0.0
 40
0.0769230769230769
 40
0.0769230769230769
 40
0.0769230769230769
 40
0.0769230769230769
 40
0.1538461538461539
 40
0.1538461538461539
 40
0.1538461538461539
 40
0.1538461538461539
 40
0.2307692307692308
 40
0.2307692307692308
 40
0.2307692307692308
 40
0.2307692307692308
 40
0.3076923076923077
 40
0.3076923076923077
 40
0.3076923076923077
 40
0.3076923076923077
 40
0.3846153846153846
 40
0.3846153846153846
 40
0.3846153846153846
 40
0.3846153846153846
 40
0.4615384615384616
 40
0.4615384615384616
 40
0.4615384615384616
 40
0.4615384615384616
 40
0.5384615384615384
 40
0.5384615384615384
 40
0.5384615384615384
 40
0.5384615384615384
 40
0.6153846153846154
 40
0.6153846153846154
 40
0.6153846153846154
 40
0.6153846153846154
 40
0.6923076923076923
 40
0.6923076923076923
 40
0.6923076923076923
 40
0.6923076923076923
 40
0.7692307692307693
 40
0.7692307692307693
 40
0.7692307692307693
 40
0.7692307692307693
 40
0.8461538461538461
 40
0.8461538461538461
 40
0.8461538461538461
 40
0.8461538461538461
 40
1.0
 40
1.0
 40
1.0
 40
1.0
 10
82.835
 20
4.9138
 30
0.0
 10
80.4264
 20
4.9138
 30
0.0
 10
78.4734
 20
2.921
 30
0.0
 10
78.4734
 20
0.4629
 30
0.0
 10
78.4734
 20
0.4629
 30
0.0
 10
78.4734
 20
-1.2783
 30
0.0
 10
79.4519
 20
-2.7848
 30
0.0
 10
80.8786
 20
-3.5252
 30
0.0
 10
80.8786
 20
-3.5252
 30
0.0
 10
79.4521
 20
-4.2652
 30
0.0
 10
78.4734
 20
-5.7715
 30
0.0
 10
78.4734
 20
-7.5128
 30
0.0
 10
78.4734
 20
-7.5128
 30
0.0
 10
78.4734
 20
-9.9708
 30
0.0
 10
80.4262
 20
-11.9636
 30
0.0
 10
82.835
 20
-11.9636
 30
0.0
 10
82.835
 20
-11.9636
 30
0.0
 10
84.5526
 20
-11.9635
 30
0.0
 10
86.0379
 20
-10.9509
 30
0.0
 10
86.9144
 20
-9.4833
 30
0.0
 10
86.9144
 20
-9.4833
 30
0.0
 10
87.7922
 20
-10.9557
 30
0.0
 10
89.2751
 20
-11.9636
 30
0.0
 10
90.9893
 20
-11.9636
 30
0.0
 10
90.9893
 20
-11.9636
 30
0.0
 10
93.3981
 20
-11.9635
 30
0.0
 10
95.3508
 20
-9.9709
 30
0.0
 10
95.3508
 20
-7.5128
 30
0.0
 10
95.3508
 20
-7.5128
 30
0.0
 10
95.3508
 20
-5.7714
 30
0.0
 10
94.3721
 20
-4.2654
 30
0.0
 10
92.9469
 20
-3.5252
 30
0.0
 10
92.9469
 20
-3.5252
 30
0.0
 10
94.3722
 20
-2.7847
 30
0.0
 10
95.3508
 20
-1.2784
 30
0.0
 10
95.3508
 20
0.4629
 30
0.0
 10
95.3508
 20
0.4629
 30
0.0
 10
95.3508
 20
2.921
 30
0.0
 10
93.3981
 20
4.9138
 30
0.0
 10
90.9893
 20
4.9138
 30
0.0
 10
90.9893
 20
4.9138
 30
0.0
 10
89.2784
 20
4.9138
 30
0.0
 10
87.7969
 20
3.909
 30
0.0
 10
86.9039
 20
2.4628
 30
0.0
 10
86.9039
 20
2.4628
 30
0.0
 10
86.004
 20
3.9245
 30
0.0
 10
84.5326
 20
4.9138
 30
0.0
 10
82.835
 20
4.9138
 30
0.0
  0
SPLINE
  5
57
330
1F
100
AcDbEntity
  8
layer 1
 62
     7
100
AcDbSpline
210
0.0
220
0.0
230
1.0
 70
    11
 71
     3
 72
    52
 73
    48
 74
     0
 42
0.0000000001
 43
0.0000000001
 12
1.0
 22
0.0
 32
0.0
 13
1.0
 23
0.0
 33
0.0
 40
0.0
 40
0.0
 40
0.0
 40
0.0
 40
0.0769230769230769
 40
0.0769230769230769
 40
0.0769230769230769
 40
0.0769230769230769
 40
0.1538461538461539
 40
0.1538461538461539
 40
0.1538461538461539
 40
0.1538461538461539
 40
0.2307692307692308
 40
0.2307692307692308
 40
0.2307692307692308
 40
0.2307692307692308
 40
0.3076923076923077
 40
0.3076923076923077
 40
0.3076923076923077
 40
0.3076923076923077
 40
0.3846153846153846
 40
0.3846153846153846
 40
0.3846153846153846
 40
0.3846153846153846
 40
0.4615384615384616
 40
0.4615384615384616
 40
0.4615384615384616
 40
0.4615384615384616
 40
0.5384615384615384
 40
0.5384615384615384
 40
0.5384615384615384
 40
0.5384615384615384
 40
0.6153846153846154
 40
0.6153846153846154
 40
0.6153846153846154
 40
0.6153846153846154
 40
0.6923076923076923
 40
0.6923076923076923
 40
0.6923076923076923
 40
0.6923076923076923
 40
0.7692307692307693
 40
0.7692307692307693
 40
0.7692307692307693
 40
0.7692307692307693
 40
0.8461538461538461
 40
0.8461538461538461
 40
0.8461538461538461
 40
0.8461538461538461
 40
1.0
 40
1.0
 40
1.0
 40
1.0
 10
82.835
 20
-19.0094
 30
0.0
 10
80.4264
 20
-19.0094
 30
0.0
 10
78.4734
 20
-21.0022
 30
0.0
 10
78.4734
 20
-23.4603
 30
0.0
 10
78.4734
 20
-23.4603
 30
0.0
 10
78.4734
 20
-25.2015
 30
0.0
 10
79.4519
 20
-26.708
 30
0.0
 10
80.8786
 20
-27.4483
 30
0.0
 10
80.8786
 20
-27.4483
 30
0.0
 10
79.4521
 20
-28.1883
 30
0.0
 10
78.4734
 20
-29.6946
 30
0.0
 10
78.4734
 20
-31.4359
 30
0.0
 10
78.4734
 20
-31.4359
 30
0.0
 10
78.4734
 20
-33.8939
 30
0.0
 10
80.4262
 20
-35.8868
 30
0.0
 10
82.835
 20
-35.8868
 30
0.0
 10
82.835
 20
-35.8868
 30
0.0
 10
84.5526
 20
-35.8867
 30
0.0
 10
86.0379
 20
-34.8741
 30
0.0
 10
86.9144
 20
-33.4065
 30
0.0
 10
86.9144
 20
-33.4065
 30
0.0
 10
87.7922
 20
-34.8788
 30
0.0
 10
89.2751
 20
-35.8868
 30
0.0
 10
90.9893
 20
-35.8868
 30
0.0
 10
90.9893
 20
-35.8868
 30
0.0
 10
93.3981
 20
-35.8867
 30
0.0
 10
95.3508
 20
-33.894
 30
0.0
 10
95.3508
 20
-31.4359
 30
0.0
 10
95.3508
 20
-31.4359
 30
0.0
 10
95.3508
 20
-29.6945
 30
0.0
 10
94.3721
 20
-28.1885
 30
0.0
 10
92.9469
 20
-27.4483
 30
0.0
 10
92.9469
 20
-27.4483
 30
0.0
 10
94.3722
 20
-26.7079
 30
0.0
 10
95.3508
 20
-25.2016
 30
0.0
 10
95.3508
 20
-23.4603
 30
0.0
 10
95.3508
 20
-23.4603
 30
0.0
 10
95.3508
 20
-21.0022
 30
0.0
 10
93.3981
 20
-19.0094
 30
0.0
 10
90.9893
 20
-19.0094
 30
0.0
 10
90.9893
 20
-19.0094
 30
0.0
 10
89.2784
 20
-19.0094
 30
0.0
 10
87.7969
 20
-20.0141
 30
0.0
 10
86.9039
 20
-21.4603
 30
0.0
 10
86.9039
 20
-21.4603
 30
0.0
 10
86.004
 20
-19.9987
 30
0.0
 10
84.5326
 20
-19.0094
 30
0.0
 10
82.835
 20
-19.0094
 30
0.0
  0
SPLINE
  5
58
330
1F
100
AcDbEntity
  8
layer 1
 62
     7
100
AcDbSpline
210
0.0
220
0.0
230
1.0
 70
    11
 71
     3
 72
    52
 73
    48
 74
     0
 42
0.0000000001
 43
0.0000000001
 12
1.0
 22
0.0
 32
0.0
 13
1.0
 23
0.0
 33
0.0
 40
0.0
 40
0.0
 40
0.0
 40
0.0
 40
0.0769230769230769
 40
0.0769230769230769
 40
0.0769230769230769
 40
0.0769230769230769
 40
0.1538461538461539
 40
0.1538461538461539
 40
0.1538461538461539
 40
0.1538461538461539
 40
0.2307692307692308
 40
0.2307692307692308
 40
0.2307692307692308
 40
0.2307692307692308
 40
0.3076923076923077
 40
0.3076923076923077
 40
0.3076923076923077
 40
0.3076923076923077
 40
0.3846153846153846
 40
0.3846153846153846
 40
0.3846153846153846
 40
0.3846153846153846
 40
0.4615384615384616
 40
0.4615384615384616
 40
0.4615384615384616
 40
0.4615384615384616
 40
0.5384615384615384
 40
0.5384615384615384
 40
0.5384615384615384
 40
0.5384615384615384
 40
0.6153846153846154
 40
0.6153846153846154
 40
0.6153846153846154
 40
0.6153846153846154
 40
0.6923076923076923
 40
0.6923076923076923
 40
0.6923076923076923
 40
0.6923076923076923
 40
0.7692307692307693
 40
0.7692307692307693
 40
0.7692307692307693
 40
0.7692307692307693
 40
0.8461538461538461
 40
0.8461538461538461
 40
0.8461538461538461
 40
0.8461538461538461
 40
1.0
 40
1.0
 40
1.0
 40
1.0
 10
82.835
 20
-42.9325
 30
0.0
 10
80.4264
 20
-42.9325
 30
0.0
 10
78.4734
 20
-44.9253
 30
0.0
 10
78.4734
 20
-47.3834
 30
0.0
 10
78.4734
 20
-47.3834
 30
0.0
 10
78.4734
 20
-49.1246
 30
0.0
 10
79.4519
 20
-50.6311
 30
0.0
 10
80.8786
 20
-51.3715
 30
0.0
 10
80.8786
 20
-51.3715
 30
0.0
 10
79.4521
 20
-52.1115
 30
0.0
 10
78.4734
 20
-53.6178
 30
0.0
 10
78.4734
 20
-55.3591
 30
0.0
 10
78.4734
 20
-55.3591
 30
0.0
 10
78.4734
 20
-57.8171
 30
0.0
 10
80.4262
 20
-59.8099
 30
0.0
 10
82.835
 20
-59.8099
 30
0.0
 10
82.835
 20
-59.8099
 30
0.0
 10
84.5526
 20
-59.8098
 30
0.0
 10
86.0379
 20
-58.7972
 30
0.0
 10
86.9144
 20
-57.3296
 30
0.0
 10
86.9144
 20
-57.3296
 30
0.0
 10
87.7922
 20
-58.802
 30
0.0
 10
89.2751
 20
-59.8099
 30
0.0
 10
90.9893
 20
-59.8099
 30
0.0
 10
90.9893
 20
-59.8099
 30
0.0
 10
93.3981
 20
-59.8098
 30
0.0
 10
95.3508
 20
-57.8172
 30
0.0
 10
95.3508
 20
-55.3591
 30
0.0
 10
95.3508
 20
-55.3591
 30
0.0
 10
95.3508
 20
-53.6177
 30
0.0
 10
94.3721
 20
-52.1117
 30
0.0
 10
92.9469
 20
-51.3715
 30
0.0
 10
92.9469
 20
-51.3715
 30
0.0
 10
94.3722
 20
-50.631
 30
0.0
 10
95.3508
 20
-49.1247
 30
0.0
 10
95.3508
 20
-47.3834
 30
0.0
 10
95.3508
 20
-47.3834
 30
0.0
 10
95.3508
 20
-44.9253
 30
0.0
 10
93.3981
 20
-42.9325
 30
0.0
 10
90.9893
 20
-42.9325
 30
0.0
 10
90.9893
 20
-42.9325
 30
0.0
 10
89.2784
 20
-42.9325
 30
0.0
 10
87.7969
 20
-43.9373
 30
0.0
 10
86.9039
 20
-45.3835
 30
0.0
 10
86.9039
 20
-45.3835
 30
0.0
 10
86.004
 20
-43.9218
 30
0.0
 10
84.5326
 20
-42.9325
 30
0.0
 10
82.835
 20
-42.9325
 30
0.0
  0
SPLINE
  5
59
330
1F
100
AcDbEntity
  8
layer 1
 62
     7
100
AcDbSpline
210
0.0
220
0.0
230
1.0
 70
    11
 71
     3
 72
    52
 73
    48
 74
     0
 42
0.0000000001
 43
0.0000000001
 12
1.0
 22
0.0
 32
0.0
 13
1.0
 23
0.0
 33
0.0
 40
0.0
 40
0.0
 40
0.0
 40
0.0
 40
0.0769230769230769
 40
0.0769230769230769
 40
0.0769230769230769
 40
0.0769230769230769
 40
0.1538461538461539
 40
0.1538461538461539
 40
0.1538461538461539
 40
0.1538461538461539
 40
0.2307692307692308
 40
0.2307692307692308
 40
0.2307692307692308
 40
0.2307692307692308
 40
0.3076923076923077
 40
0.3076923076923077
 40
0.3076923076923077
 40
0.3076923076923077
 40
0.3846153846153846
 40
0.3846153846153846
 40
0.3846153846153846
 40
0.3846153846153846
 40
0.4615384615384616
 40
0.4615384615384616
 40
0.4615384615384616
 40
0.4615384615384616
 40
0.5384615384615384
 40
0.5384615384615384
 40
0.5384615384615384
 40
0.5384615384615384
 40
0.6153846153846154
 40
0.6153846153846154
 40
0.6153846153846154
 40
0.6153846153846154
 40
0.6923076923076923
 40
0.6923076923076923
 40
0.6923076923076923
 40
0.6923076923076923
 40
0.7692307692307693
 40
0.7692307692307693
 40
0.7692307692307693
 40
0.7692307692307693
 40
0.8461538461538461
 40
0.8461538461538461
 40
0.8461538461538461
 40
0.8461538461538461
 40
1.0
 40
1.0
 40
1.0
 40
1.0
 10
82.835
 20
-66.8557
 30
0.0
 10
80.4264
 20
-66.8557
 30
0.0
 10
78.4734
 20
-68.8485
 30
0.0
 10
78.4734
 20
-71.3066
 30
0.0
 10
78.4734
 20
-71.3066
 30
0.0
 10
78.4734
 20
-73.0478
 30
0.0
 10
79.4519
 20
-74.5543
 30
0.0
 10
80.8786
 20
-75.2946
 30
0.0
 10
80.8786
 20
-75.2946
 30
0.0
 10
79.4521
 20
-76.0346
 30
0.0
 10
78.4734
 20
-77.5409
 30
0.0
 10
78.4734
 20
-79.2822
 30
0.0
 10
78.4734
 20
-79.2822
 30
0.0
 10
78.4734
 20
-81.7402
 30
0.0
 10
80.4262
 20
-83.7331
 30
0.0
 10
82.835
 20
-83.7331
 30
0.0
 10
82.835
 20
-83.7331
 30
0.0
 10
84.5526
 20
-83.733
 30
0.0
 10
86.0379
 20
-82.7204
 30
0.0
 10
86.9144
 20
-81.2528
 30
0.0
 10
86.9144
 20
-81.2528
 30
0.0
 10
87.7922
 20
-82.7251
 30
0.0
 10
89.2751
 20
-83.7331
 30
0.0
 10
90.9893
 20
-83.7331
 30
0.0
 10
90.9893
 20
-83.7331
 30
0.0
 10
93.3981
 20
-83.733
 30
0.0
 10
95.3508
 20
-81.7403
 30
0.0
 10
95.3508
 20
-79.2822
 30
0.0
 10
95.3508
 20
-79.2822
 30
0.0
 10
95.3508
 20
-77.5408
 30
0.0
 10
94.3721
 20
-76.0348
 30
0.0
 10
92.9469
 20
-75.2946
 30
0.0
 10
92.9469
 20
-75.2946
 30
0.0
 10
94.3722
 20
-74.5542
 30
0.0
 10
95.3508
 20
-73.0479
 30
0.0
 10
95.3508
 20
-71.3066
 30
0.0
 10
95.3508
 20
-71.3066
 30
0.0
 10
95.3508
 20
-68.8485
 30
0.0
 10
93.3981
 20
-66.8557
 30
0.0
 10
90.9893
 20
-66.8557
 30
0.0
 10
90.9893
 20
-66.8557
 30
0.0
 10
89.2784
 20
-66.8557
 30
0.0
 10
87.7969
 20
-67.8604
 30
0.0
 10
86.9039
 20
-69.3066
 30
0.0
 10
86.9039
 20
-69.3066
 30
0.0
 10
86.004
 20
-67.845
 30
0.0
 10
84.5326
 20
-66.8557
 30
0.0
 10
82.835
 20
-66.8557
 30
0.0
  0
SPLINE
  5
5A
330
1F
100
AcDbEntity
  8
layer 1
 62
     7
100
AcDbSpline
210
0.0
220
0.0
230
1.0
 70
    11
 71
     3
 72
    52
 73
    48
 74
     0
 42
0.0000000001
 43
0.0000000001
 12
1.0
 22
0.0
 32
0.0
 13
1.0
 23
0.0
 33
0.0
 40
0.0
 40
0.0
 40
0.0
 40
0.0
 40
0.0769230769230769
 40
0.0769230769230769
 40
0.0769230769230769
 40
0.0769230769230769
 40
0.1538461538461539
 40
0.1538461538461539
 40
0.1538461538461539
 40
0.1538461538461539
 40
0.2307692307692308
 40
0.2307692307692308
 40
0.2307692307692308
 40
0.2307692307692308
 40
0.3076923076923077
 40
0.3076923076923077
 40
0.3076923076923077
 40
0.3076923076923077
 40
0.3846153846153846
 40
0.3846153846153846
 40
0.3846153846153846
 40
0.3846153846153846
 40
0.4615384615384616
 40
0.4615384615384616
 40
0.4615384615384616
 40
0.4615384615384616
 40
0.5384615384615384
 40
0.5384615384615384
 40
0.5384615384615384
 40
0.5384615384615384
 40
0.6153846153846154
 40
0.6153846153846154
 40
0.6153846153846154
 40
0.6153846153846154
 40
0.6923076923076923
 40
0.6923076923076923
 40
0.6923076923076923
 40
0.6923076923076923
 40
0.7692307692307693
 40
0.7692307692307693
 40
0.7692307692307693
 40
0.7692307692307693
 40
0.8461538461538461
 40
0.8461538461538461
 40
0.8461538461538461
 40
0.8461538461538461
 40
1.0
 40
1.0
 40
1.0
 40
1.0
 10
82.835
 20
-90.7788
 30
0.0
 10
80.4264
 20
-90.7788
 30
0.0
 10
78.4734
 20
-92.7716
 30
0.0
 10
78.4734
 20
-95.2297
 30
0.0
 10
78.4734
 20
-95.2297
 30
0.0
 10
78.4734
 20
-96.9709
 30
0.0
 10
79.4519
 20
-98.4774
 30
0.0
 10
80.8786
 20
-99.2178
 30
0.0
 10
80.8786
 20
-99.2178
 30
0.0
 10
79.4521
 20
-99.9578
 30
0.0
 10
78.4734
 20
-101.4641
 30
0.0
 10
78.4734
 20
-103.2054
 30
0.0
 10
78.4734
 20
-103.2054
 30
0.0
 10
78.4734
 20
-105.6634
 30
0.0
 10
80.4262
 20
-107.6562
 30
0.0
 10
82.835
 20
-107.6562
 30
0.0
 10
82.835
 20
-107.6562
 30
0.0
 10
84.5526
 20
-107.6561
 30
0.0
 10
86.0379
 20
-106.6435
 30
0.0
 10
86.9144
 20
-105.1759
 30
0.0
 10
86.9144
 20
-105.1759
 30
0.0
 10
87.7922
 20
-106.6483
 30
0.0
 10
89.2751
 20
-107.6562
 30
0.0
 10
90.9893
 20
-107.6562
 30
0.0
 10
90.9893
 20
-107.6562
 30
0.0
 10
93.3981
 20
-107.6561
 30
0.0
 10
95.3508
 20
-105.6635
 30
0.0
 10
95.3508
 20
-103.2054
 30
0.0
 10
95.3508
 20
-103.2054
 30
0.0
 10
95.3508
 20
-101.464
 30
0.0
 10
94.3721
 20
-99.958
 30
0.0
 10
92.9469
 20
-99.2178
 30
0.0
 10
92.9469
 20
-99.2178
 30
0.0
 10
94.3722
 20
-98.4773
 30
0.0
 10
95.3508
 20
-96.971
 30
0.0
 10
95.3508
 20
-95.2297
 30
0.0
 10
95.3508
 20
-95.2297
 30
0.0
 10
95.3508
 20
-92.7716
 30
0.0
 10
93.3981
 20
-90.7788
 30
0.0
 10
90.9893
 20
-90.7788
 30
0.0
 10
90.9893
 20
-90.7788
 30
0.0
 10
89.2784
 20
-90.7788
 30
0.0
 10
87.7969
 20
-91.7836
 30
0.0
 10
86.9039
 20
-93.2298
 30
0.0
 10
86.9039
 20
-93.2298
 30
0.0
 10
86.004
 20
-91.7681
 30
0.0
 10
84.5326
 20
-90.7788
 30
0.0
 10
82.835
 20
-90.7788
 30
0.0
  0
SPLINE
  5
5B
330
1F
100
AcDbEntity
  8
layer 1
 62
     7
100
AcDbSpline
210
0.0
220
0.0
230
1.0
 70
    11
 71
     3
 72
    52
 73
    48
 74
     0
 42
0.0000000001
 43
0.0000000001
 12
1.0
 22
0.0
 32
0.0
 13
1.0
 23
0.0
 33
0.0
 40
0.0
 40
0.0
 40
0.0
 40
0.0
 40
0.0769230769230769
 40
0.0769230769230769
 40
0.0769230769230769
 40
0.0769230769230769
 40
0.1538461538461539
 40
0.1538461538461539
 40
0.1538461538461539
 40
0.1538461538461539
 40
0.2307692307692308
 40
0.2307692307692308
 40
0.2307692307692308
 40
0.2307692307692308
 40
0.3076923076923077
 40
0.3076923076923077
 40
0.3076923076923077
 40
0.3076923076923077
 40
0.3846153846153846
 40
0.3846153846153846
 40
0.3846153846153846
 40
0.3846153846153846
 40
0.4615384615384616
 40
0.4615384615384616
 40
0.4615384615384616
 40
0.4615384615384616
 40
0.5384615384615384
 40
0.5384615384615384
 40
0.5384615384615384
 40
0.5384615384615384
 40
0.6153846153846154
 40
0.6153846153846154
 40
0.6153846153846154
 40
0.6153846153846154
 40
0.6923076923076923
 40
0.6923076923076923
 40
0.6923076923076923
 40
0.6923076923076923
 40
0.7692307692307693
 40
0.7692307692307693
 40
0.7692307692307693
 40
0.7692307692307693
 40
0.8461538461538461
 40
0.8461538461538461
 40
0.8461538461538461
 40
0.8461538461538461
 40
1.0
 40
1.0
 40
1.0
 40
1.0
 10
35.9783
 20
100.6064
 30
0.0
 10
33.5696
 20
100.6064
 30
0.0
 10
31.6167
 20
98.6136
 30
0.0
 10
31.6167
 20
96.1555
 30
0.0
 10
31.6167
 20
96.1555
 30
0.0
 10
31.6167
 20
94.4143
 30
0.0
 10
32.5952
 20
92.9078
 30
0.0
 10
34.0219
 20
92.1674
 30
0.0
 10
34.0219
 20
92.1674
 30
0.0
 10
32.5954
 20
91.4274
 30
0.0
 10
31.6167
 20
89.9211
 30
0.0
 10
31.6167
 20
88.1798
 30
0.0
 10
31.6167
 20
88.1798
 30
0.0
 10
31.6167
 20
85.7218
 30
0.0
 10
33.5695
 20
83.729
 30
0.0
 10
35.9783
 20
83.729
 30
0.0
 10
35.9783
 20
83.729
 30
0.0
 10
37.6959
 20
83.7291
 30
0.0
 10
39.1812
 20
84.7417
 30
0.0
 10
40.0577
 20
86.2093
 30
0.0
 10
40.0577
 20
86.2093
 30
0.0
 10
40.9355
 20
84.7369
 30
0.0
 10
42.4184
 20
83.729
 30
0.0
 10
44.1326
 20
83.729
 30
0.0
 10
44.1326
 20
83.729
 30
0.0
 10
46.5414
 20
83.7291
 30
0.0
 10
48.4941
 20
85.7217
 30
0.0
 10
48.4941
 20
88.1798
 30
0.0
 10
48.4941
 20
88.1798
 30
0.0
 10
48.4941
 20
89.9212
 30
0.0
 10
47.5154
 20
91.4272
 30
0.0
 10
46.0902
 20
92.1674
 30
0.0
 10
46.0902
 20
92.1674
 30
0.0
 10
47.5155
 20
92.9079
 30
0.0
 10
48.4941
 20
94.4142
 30
0.0
 10
48.4941
 20
96.1555
 30
0.0
 10
48.4941
 20
96.1555
 30
0.0
 10
48.4941
 20
98.6136
 30
0.0
 10
46.5414
 20
100.6064
 30
0.0
 10
44.1326
 20
100.6064
 30
0.0
 10
44.1326
 20
100.6064
 30
0.0
 10
42.4217
 20
100.6064
 30
0.0
 10
40.9402
 20
99.6016
 30
0.0
 10
40.0472
 20
98.1554
 30
0.0
 10
40.0472
 20
98.1554
 30
0.0
 10
39.1473
 20
99.6171
 30
0.0
 10
37.6759
 20
100.6064
 30
0.0
 10
35.9783
 20
100.6064
 30
0.0
  0
SPLINE
  5
5C
330
1F
100
AcDbEntity
  8
layer 1
 62
     7
100
AcDbSpline
210
0.0
220
0.0
230
1.0
 70
    11
 71
     3
 72
    52
 73
    48
 74
     0
 42
0.0000000001
 43
0.0000000001
 12
1.0
 22
0.0
 32
0.0
 13
1.0
 23
0.0
 33
0.0
 40
0.0
 40
0.0
 40
0.0
 40
0.0
 40
0.0769230769230769
 40
0.0769230769230769
 40
0.0769230769230769
 40
0.0769230769230769
 40
0.1538461538461539
 40
0.1538461538461539
 40
0.1538461538461539
 40
0.1538461538461539
 40
0.2307692307692308
 40
0.2307692307692308
 40
0.2307692307692308
 40
0.2307692307692308
 40
0.3076923076923077
 40
0.3076923076923077
 40
0.3076923076923077
 40
0.3076923076923077
 40
0.3846153846153846
 40
0.3846153846153846
 40
0.3846153846153846
 40
0.3846153846153846
 40
0.4615384615384616
 40
0.4615384615384616
 40
0.4615384615384616
 40
0.4615384615384616
 40
0.5384615384615384
 40
0.5384615384615384
 40
0.5384615384615384
 40
0.5384615384615384
 40
0.6153846153846154
 40
0.6153846153846154
 40
0.6153846153846154
 40
0.6153846153846154
 40
0.6923076923076923
 40
0.6923076923076923
 40
0.6923076923076923
 40
0.6923076923076923
 40
0.7692307692307693
 40
0.7692307692307693
 40
0.7692307692307693
 40
0.7692307692307693
 40
0.8461538461538461
 40
0.8461538461538461
 40
0.8461538461538461
 40
0.8461538461538461
 40
1.0
 40
1.0
 40
1.0
 40
1.0
 10
35.9783
 20
76.6832
 30
0.0
 10
33.5696
 20
76.6832
 30
0.0
 10
31.6167
 20
74.6904
 30
0.0
 10
31.6167
 20
72.2323
 30
0.0
 10
31.6167
 20
72.2323
 30
0.0
 10
31.6167
 20
70.4911
 30
0.0
 10
32.5952
 20
68.9846
 30
0.0
 10
34.0219
 20
68.2443
 30
0.0
 10
34.0219
 20
68.2443
 30
0.0
 10
32.5954
 20
67.5043
 30
0.0
 10
31.6167
 20
65.998
 30
0.0
 10
31.6167
 20
64.2567
 30
0.0
 10
31.6167
 20
64.2567
 30
0.0
 10
31.6167
 20
61.7987
 30
0.0
 10
33.5695
 20
59.8058
 30
0.0
 10
35.9783
 20
59.8058
 30
0.0
 10
35.9783
 20
59.8058
 30
0.0
 10
37.6959
 20
59.8059
 30
0.0
 10
39.1812
 20
60.8185
 30
0.0
 10
40.0577
 20
62.2861
 30
0.0
 10
40.0577
 20
62.2861
 30
0.0
 10
40.9355
 20
60.8138
 30
0.0
 10
42.4184
 20
59.8058
 30
0.0
 10
44.1326
 20
59.8058
 30
0.0
 10
44.1326
 20
59.8058
 30
0.0
 10
46.5414
 20
59.8059
 30
0.0
 10
48.4941
 20
61.7986
 30
0.0
 10
48.4941
 20
64.2567
 30
0.0
 10
48.4941
 20
64.2567
 30
0.0
 10
48.4941
 20
65.9981
 30
0.0
 10
47.5154
 20
67.5041
 30
0.0
 10
46.0902
 20
68.2443
 30
0.0
 10
46.0902
 20
68.2443
 30
0.0
 10
47.5155
 20
68.9847
 30
0.0
 10
48.4941
 20
70.491
 30
0.0
 10
48.4941
 20
72.2323
 30
0.0
 10
48.4941
 20
72.2323
 30
0.0
 10
48.4941
 20
74.6904
 30
0.0
 10
46.5414
 20
76.6832
 30
0.0
 10
44.1326
 20
76.6832
 30
0.0
 10
44.1326
 20
76.6832
 30
0.0
 10
42.4217
 20
76.6832
 30
0.0
 10
40.9402
 20
75.6785
 30
0.0
 10
40.0472
 20
74.2323
 30
0.0
 10
40.0472
 20
74.2323
 30
0.0
 10
39.1473
 20
75.6939
 30
0.0
 10
37.6759
 20
76.6832
 30
0.0
 10
35.9783
 20
76.6832
 30
0.0
  0
SPLINE
  5
5D
330
1F
100
AcDbEntity
  8
layer 1
 62
     7
100
AcDbSpline
210
0.0
220
0.0
230
1.0
 70
    11
 71
     3
 72
    52
 73
    48
 74
     0
 42
0.0000000001
 43
0.0000000001
 12
1.0
 22
0.0
 32
0.0
 13
1.0
 23
0.0
 33
0.0
 40
0.0
 40
0.0
 40
0.0
 40
0.0
 40
0.0769230769230769
 40
0.0769230769230769
 40
0.0769230769230769
 40
0.0769230769230769
 40
0.1538461538461539
 40
0.1538461538461539
 40
0.1538461538461539
 40
0.1538461538461539
 40
0.2307692307692308
 40
0.2307692307692308
 40
0.2307692307692308
 40
0.2307692307692308
 40
0.3076923076923077
 40
0.3076923076923077
 40
0.3076923076923077
 40
0.3076923076923077
 40
0.3846153846153846
 40
0.3846153846153846
 40
0.3846153846153846
 40
0.3846153846153846
 40
0.4615384615384616
 40
0.4615384615384616
 40
0.4615384615384616
 40
0.4615384615384616
 40
0.5384615384615384
 40
0.5384615384615384
 40
0.5384615384615384
 40
0.5384615384615384
 40
0.6153846153846154
 40
0.6153846153846154
 40
0.6153846153846154
 40
0.6153846153846154
 40
0.6923076923076923
 40
0.6923076923076923
 40
0.6923076923076923
 40
0.6923076923076923
 40
0.7692307692307693
 40
0.7692307692307693
 40
0.7692307692307693
 40
0.7692307692307693
 40
0.8461538461538461
 40
0.8461538461538461
 40
0.8461538461538461
 40
0.8461538461538461
 40
1.0
 40
1.0
 40
1.0
 40
1.0
 10
35.9783
 20
52.7601
 30
0.0
 10
33.5696
 20
52.7601
 30
0.0
 10
31.6167
 20
50.7673
 30
0.0
 10
31.6167
 20
48.3092
 30
0.0
 10
31.6167
 20
48.3092
 30
0.0
 10
31.6167
 20
46.568
 30
0.0
 10
32.5952
 20
45.0615
 30
0.0
 10
34.0219
 20
44.3211
 30
0.0
 10
34.0219
 20
44.3211
 30
0.0
 10
32.5954
 20
43.5811
 30
0.0
 10
31.6167
 20
42.0748
 30
0.0
 10
31.6167
 20
40.3335
 30
0.0
 10
31.6167
 20
40.3335
 30
0.0
 10
31.6167
 20
37.8755
 30
0.0
 10
33.5695
 20
35.8827
 30
0.0
 10
35.9783
 20
35.8827
 30
0.0
 10
35.9783
 20
35.8827
 30
0.0
 10
37.6959
 20
35.8828
 30
0.0
 10
39.1812
 20
36.8954
 30
0.0
 10
40.0577
 20
38.363
 30
0.0
 10
40.0577
 20
38.363
 30
0.0
 10
40.9355
 20
36.8906
 30
0.0
 10
42.4184
 20
35.8827
 30
0.0
 10
44.1326
 20
35.8827
 30
0.0
 10
44.1326
 20
35.8827
 30
0.0
 10
46.5414
 20
35.8828
 30
0.0
 10
48.4941
 20
37.8754
 30
0.0
 10
48.4941
 20
40.3335
 30
0.0
 10
48.4941
 20
40.3335
 30
0.0
 10
48.4941
 20
42.0749
 30
0.0
 10
47.5154
 20
43.5809
 30
0.0
 10
46.0902
 20
44.3211
 30
0.0
 10
46.0902
 20
44.3211
 30
0.0
 10
47.5155
 20
45.0616
 30
0.0
 10
48.4941
 20
46.5679
 30
0.0
 10
48.4941
 20
48.3092
 30
0.0
 10
48.4941
 20
48.3092
 30
0.0
 10
48.4941
 20
50.7673
 30
0.0
 10
46.5414
 20
52.7601
 30
0.0
 10
44.1326
 20
52.7601
 30
0.0
 10
44.1326
 20
52.7601
 30
0.0
 10
42.4217
 20
52.7601
 30
0.0
 10
40.9402
 20
51.7553
 30
0.0
 10
40.0472
 20
50.3091
 30
0.0
 10
40.0472
 20
50.3091
 30
0.0
 10
39.1473
 20
51.7708
 30
0.0
 10
37.6759
 20
52.7601
 30
0.0
 10
35.9783
 20
52.7601
 30
0.0
  0
SPLINE
  5
5E
330
1F
100
AcDbEntity
  8
layer 1
 62
     7
100
AcDbSpline
210
0.0
220
0.0
230
1.0
 70
    11
 71
     3
 72
    52
 73
    48
 74
     0
 42
0.0000000001
 43
0.0000000001
 12
1.0
 22
0.0
 32
0.0
 13
1.0
 23
0.0
 33
0.0
 40
0.0
 40
0.0
 40
0.0
 40
0.0
 40
0.0769230769230769
 40
0.0769230769230769
 40
0.0769230769230769
 40
0.0769230769230769
 40
0.1538461538461539
 40
0.1538461538461539
 40
0.1538461538461539
 40
0.1538461538461539
 40
0.2307692307692308
 40
0.2307692307692308
 40
0.2307692307692308
 40
0.2307692307692308
 40
0.3076923076923077
 40
0.3076923076923077
 40
0.3076923076923077
 40
0.3076923076923077
 40
0.3846153846153846
 40
0.3846153846153846
 40
0.3846153846153846
 40
0.3846153846153846
 40
0.4615384615384616
 40
0.4615384615384616
 40
0.4615384615384616
 40
0.4615384615384616
 40
0.5384615384615384
 40
0.5384615384615384
 40
0.5384615384615384
 40
0.5384615384615384
 40
0.6153846153846154
 40
0.6153846153846154
 40
0.6153846153846154
 40
0.6153846153846154
 40
0.6923076923076923
 40
0.6923076923076923
 40
0.6923076923076923
 40
0.6923076923076923
 40
0.7692307692307693
 40
0.7692307692307693
 40
0.7692307692307693
 40
0.7692307692307693
 40
0.8461538461538461
 40
0.8461538461538461
 40
0.8461538461538461
 40
0.8461538461538461
 40
1.0
 40
1.0
 40
1.0
 40
1.0
 10
35.9783
 20
28.8369
 30
0.0
 10
33.5696
 20
28.8369
 30
0.0
 10
31.6167
 20
26.8441
 30
0.0
 10
31.6167
 20
24.386
 30
0.0
 10
31.6167
 20
24.386
 30
0.0
 10
31.6167
 20
22.6448
 30
0.0
 10
32.5952
 20
21.1383
 30
0.0
 10
34.0219
 20
20.398
 30
0.0
 10
34.0219
 20
20.398
 30
0.0
 10
32.5954
 20
19.658
 30
0.0
 10
31.6167
 20
18.1517
 30
0.0
 10
31.6167
 20
16.4104
 30
0.0
 10
31.6167
 20
16.4104
 30
0.0
 10
31.6167
 20
13.9524
 30
0.0
 10
33.5695
 20
11.9595
 30
0.0
 10
35.9783
 20
11.9595
 30
0.0
 10
35.9783
 20
11.9595
 30
0.0
 10
37.6959
 20
11.9596
 30
0.0
 10
39.1812
 20
12.9722
 30
0.0
 10
40.0577
 20
14.4398
 30
0.0
 10
40.0577
 20
14.4398
 30
0.0
 10
40.9355
 20
12.9675
 30
0.0
 10
42.4184
 20
11.9595
 30
0.0
 10
44.1326
 20
11.9595
 30
0.0
 10
44.1326
 20
11.9595
 30
0.0
 10
46.5414
 20
11.9596
 30
0.0
 10
48.4941
 20
13.9523
 30
0.0
 10
48.4941
 20
16.4104
 30
0.0
 10
48.4941
 20
16.4104
 30
0.0
 10
48.4941
 20
18.1518
 30
0.0
 10
47.5154
 20
19.6578
 30
0.0
 10
46.0902
 20
20.398
 30
0.0
 10
46.0902
 20
20.398
 30
0.0
 10
47.5155
 20
21.1384
 30
0.0
 10
48.4941
 20
22.6447
 30
0.0
 10
48.4941
 20
24.386
 30
0.0
 10
48.4941
 20
24.386
 30
0.0
 10
48.4941
 20
26.8441
 30
0.0
 10
46.5414
 20
28.8369
 30
0.0
 10
44.1326
 20
28.8369
 30
0.0
 10
44.1326
 20
28.8369
 30
0.0
 10
42.4217
 20
28.8369
 30
0.0
 10
40.9402
 20
27.8322
 30
0.0
 10
40.0472
 20
26.386
 30
0.0
 10
40.0472
 20
26.386
 30
0.0
 10
39.1473
 20
27.8476
 30
0.0
 10
37.6759
 20
28.8369
 30
0.0
 10
35.9783
 20
28.8369
 30
0.0
  0
SPLINE
  5
5F
330
1F
100
AcDbEntity
  8
layer 1
 62
     7
100
AcDbSpline
210
0.0
220
0.0
230
1.0
 70
    11
 71
     3
 72
    52
 73
    48
 74
     0
 42
0.0000000001
 43
0.0000000001
 12
1.0
 22
0.0
 32
0.0
 13
1.0
 23
0.0
 33
0.0
 40
0.0
 40
0.0
 40
0.0
 40
0.0
 40
0.0769230769230769
 40
0.0769230769230769
 40
0.0769230769230769
 40
0.0769230769230769
 40
0.1538461538461539
 40
0.1538461538461539
 40
0.1538461538461539
 40
0.1538461538461539
 40
0.2307692307692308
 40
0.2307692307692308
 40
0.2307692307692308
 40
0.2307692307692308
 40
0.3076923076923077
 40
0.3076923076923077
 40
0.3076923076923077
 40
0.3076923076923077
 40
0.3846153846153846
 40
0.3846153846153846
 40
0.3846153846153846
 40
0.3846153846153846
 40
0.4615384615384616
 40
0.4615384615384616
 40
0.4615384615384616
 40
0.4615384615384616
 40
0.5384615384615384
 40
0.5384615384615384
 40
0.5384615384615384
 40
0.5384615384615384
 40
0.6153846153846154
 40
0.6153846153846154
 40
0.6153846153846154
 40
0.6153846153846154
 40
0.6923076923076923
 40
0.6923076923076923
 40
0.6923076923076923
 40
0.6923076923076923
 40
0.7692307692307693
 40
0.7692307692307693
 40
0.7692307692307693
 40
0.7692307692307693
 40
0.8461538461538461
 40
0.8461538461538461
 40
0.8461538461538461
 40
0.8461538461538461
 40
1.0
 40
1.0
 40
1.0
 40
1.0
 10
35.9783
 20
4.9138
 30
0.0
 10
33.5696
 20
4.9138
 30
0.0
 10
31.6167
 20
2.921
 30
0.0
 10
31.6167
 20
0.4629
 30
0.0
 10
31.6167
 20
0.4629
 30
0.0
 10
31.6167
 20
-1.2783
 30
0.0
 10
32.5952
 20
-2.7848
 30
0.0
 10
34.0219
 20
-3.5252
 30
0.0
 10
34.0219
 20
-3.5252
 30
0.0
 10
32.5954
 20
-4.2652
 30
0.0
 10
31.6167
 20
-5.7715
 30
0.0
 10
31.6167
 20
-7.5128
 30
0.0
 10
31.6167
 20
-7.5128
 30
0.0
 10
31.6167
 20
-9.9708
 30
0.0
 10
33.5695
 20
-11.9636
 30
0.0
 10
35.9783
 20
-11.9636
 30
0.0
 10
35.9783
 20
-11.9636
 30
0.0
 10
37.6959
 20
-11.9635
 30
0.0
 10
39.1812
 20
-10.9509
 30
0.0
 10
40.0577
 20
-9.4833
 30
0.0
 10
40.0577
 20
-9.4833
 30
0.0
 10
40.9355
 20
-10.9557
 30
0.0
 10
42.4184
 20
-11.9636
 30
0.0
 10
44.1326
 20
-11.9636
 30
0.0
 10
44.1326
 20
-11.9636
 30
0.0
 10
46.5414
 20
-11.9635
 30
0.0
 10
48.4941
 20
-9.9709
 30
0.0
 10
48.4941
 20
-7.5128
 30
0.0
 10
48.4941
 20
-7.5128
 30
0.0
 10
48.4941
 20
-5.7714
 30
0.0
 10
47.5154
 20
-4.2654
 30
0.0
 10
46.0902
 20
-3.5252
 30
0.0
 10
46.0902
 20
-3.5252
 30
0.0
 10
47.5155
 20
-2.7847
 30
0.0
 10
48.4941
 20
-1.2784
 30
0.0
 10
48.4941
 20
0.4629
 30
0.0
 10
48.4941
 20
0.4629
 30
0.0
 10
48.4941
 20
2.921
 30
0.0
 10
46.5414
 20
4.9138
 30
0.0
 10
44.1326
 20
4.9138
 30
0.0
 10
44.1326
 20
4.9138
 30
0.0
 10
42.4217
 20
4.9138
 30
0.0
 10
40.9402
 20
3.909
 30
0.0
 10
40.0472
 20
2.4628
 30
0.0
 10
40.0472
 20
2.4628
 30
0.0
 10
39.1473
 20
3.9245
 30
0.0
 10
37.6759
 20
4.9138
 30
0.0
 10
35.9783
 20
4.9138
 30
0.0
  0
SPLINE
  5
60
330
1F
100
AcDbEntity
  8
layer 1
 62
     7
100
AcDbSpline
210
0.0
220
0.0
230
1.0
 70
    11
 71
     3
 72
    52
 73
    48
 74
     0
 42
0.0000000001
 43
0.0000000001
 12
1.0
 22
0.0
 32
0.0
 13
1.0
 23
0.0
 33
0.0
 40
0.0
 40
0.0
 40
0.0
 40
0.0
 40
0.0769230769230769
 40
0.0769230769230769
 40
0.0769230769230769
 40
0.0769230769230769
 40
0.1538461538461539
 40
0.1538461538461539
 40
0.1538461538461539
 40
0.1538461538461539
 40
0.2307692307692308
 40
0.2307692307692308
 40
0.2307692307692308
 40
0.2307692307692308
 40
0.3076923076923077
 40
0.3076923076923077
 40
0.3076923076923077
 40
0.3076923076923077
 40
0.3846153846153846
 40
0.3846153846153846
 40
0.3846153846153846
 40
0.3846153846153846
 40
0.4615384615384616
 40
0.4615384615384616
 40
0.4615384615384616
 40
0.4615384615384616
 40
0.5384615384615384
 40
0.5384615384615384
 40
0.5384615384615384
 40
0.5384615384615384
 40
0.6153846153846154
 40
0.6153846153846154
 40
0.6153846153846154
 40
0.6153846153846154
 40
0.6923076923076923
 40
0.6923076923076923
 40
0.6923076923076923
 40
0.6923076923076923
 40
0.7692307692307693
 40
0.7692307692307693
 40
0.7692307692307693
 40
0.7692307692307693
 40
0.8461538461538461
 40
0.8461538461538461
 40
0.8461538461538461
 40
0.8461538461538461
 40
1.0
 40
1.0
 40
1.0
 40
1.0
 10
35.9783
 20
-19.0094
 30
0.0
 10
33.5696
 20
-19.0094
 30
0.0
 10
31.6167
 20
-21.0022
 30
0.0
 10
31.6167
 20
-23.4603
 30
0.0
 10
31.6167
 20
-23.4603
 30
0.0
 10
31.6167
 20
-25.2015
 30
0.0
 10
32.5952
 20
-26.708
 30
0.0
 10
34.0219
 20
-27.4483
 30
0.0
 10
34.0219
 20
-27.4483
 30
0.0
 10
32.5954
 20
-28.1883
 30
0.0
 10
31.6167
 20
-29.6946
 30
0.0
 10
31.6167
 20
-31.4359
 30
0.0
 10
31.6167
 20
-31.4359
 30
0.0
 10
31.6167
 20
-33.8939
 30
0.0
 10
33.5695
 20
-35.8868
 30
0.0
 10
35.9783
 20
-35.8868
 30
0.0
 10
35.9783
 20
-35.8868
 30
0.0
 10
37.6959
 20
-35.8867
 30
0.0
 10
39.1812
 20
-34.8741
 30
0.0
 10
40.0577
 20
-33.4065
 30
0.0
 10
40.0577
 20
-33.4065
 30
0.0
 10
40.9355
 20
-34.8788
 30
0.0
 10
42.4184
 20
-35.8868
 30
0.0
 10
44.1326
 20
-35.8868
 30
0.0
 10
44.1326
 20
-35.8868
 30
0.0
 10
46.5414
 20
-35.8867
 30
0.0
 10
48.4941
 20
-33.894
 30
0.0
 10
48.4941
 20
-31.4359
 30
0.0
 10
48.4941
 20
-31.4359
 30
0.0
 10
48.4941
 20
-29.6945
 30
0.0
 10
47.5154
 20
-28.1885
 30
0.0
 10
46.0902
 20
-27.4483
 30
0.0
 10
46.0902
 20
-27.4483
 30
0.0
 10
47.5155
 20
-26.7079
 30
0.0
 10
48.4941
 20
-25.2016
 30
0.0
 10
48.4941
 20
-23.4603
 30
0.0
 10
48.4941
 20
-23.4603
 30
0.0
 10
48.4941
 20
-21.0022
 30
0.0
 10
46.5414
 20
-19.0094
 30
0.0
 10
44.1326
 20
-19.0094
 30
0.0
 10
44.1326
 20
-19.0094
 30
0.0
 10
42.4217
 20
-19.0094
 30
0.0
 10
40.9402
 20
-20.0141
 30
0.0
 10
40.0472
 20
-21.4603
 30
0.0
 10
40.0472
 20
-21.4603
 30
0.0
 10
39.1473
 20
-19.9987
 30
0.0
 10
37.6759
 20
-19.0094
 30
0.0
 10
35.9783
 20
-19.0094
 30
0.0
  0
SPLINE
  5
61
330
1F
100
AcDbEntity
  8
layer 1
 62
     7
100
AcDbSpline
210
0.0
220
0.0
230
1.0
 70
    11
 71
     3
 72
    52
 73
    48
 74
     0
 42
0.0000000001
 43
0.0000000001
 12
1.0
 22
0.0
 32
0.0
 13
1.0
 23
0.0
 33
0.0
 40
0.0
 40
0.0
 40
0.0
 40
0.0
 40
0.0769230769230769
 40
0.0769230769230769
 40
0.0769230769230769
 40
0.0769230769230769
 40
0.1538461538461539
 40
0.1538461538461539
 40
0.1538461538461539
 40
0.1538461538461539
 40
0.2307692307692308
 40
0.2307692307692308
 40
0.2307692307692308
 40
0.2307692307692308
 40
0.3076923076923077
 40
0.3076923076923077
 40
0.3076923076923077
 40
0.3076923076923077
 40
0.3846153846153846
 40
0.3846153846153846
 40
0.3846153846153846
 40
0.3846153846153846
 40
0.4615384615384616
 40
0.4615384615384616
 40
0.4615384615384616
 40
0.4615384615384616
 40
0.5384615384615384
 40
0.5384615384615384
 40
0.5384615384615384
 40
0.5384615384615384
 40
0.6153846153846154
 40
0.6153846153846154
 40
0.6153846153846154
 40
0.6153846153846154
 40
0.6923076923076923
 40
0.6923076923076923
 40
0.6923076923076923
 40
0.6923076923076923
 40
0.7692307692307693
 40
0.7692307692307693
 40
0.7692307692307693
 40
0.7692307692307693
 40
0.8461538461538461
 40
0.8461538461538461
 40
0.8461538461538461
 40
0.8461538461538461
 40
1.0
 40
1.0
 40
1.0
 40
1.0
 10
35.9783
 20
-42.9325
 30
0.0
 10
33.5696
 20
-42.9325
 30
0.0
 10
31.6167
 20
-44.9253
 30
0.0
 10
31.6167
 20
-47.3834
 30
0.0
 10
31.6167
 20
-47.3834
 30
0.0
 10
31.6167
 20
-49.1246
 30
0.0
 10
32.5952
 20
-50.6311
 30
0.0
 10
34.0219
 20
-51.3715
 30
0.0
 10
34.0219
 20
-51.3715
 30
0.0
 10
32.5954
 20
-52.1115
 30
0.0
 10
31.6167
 20
-53.6178
 30
0.0
 10
31.6167
 20
-55.3591
 30
0.0
 10
31.6167
 20
-55.3591
 30
0.0
 10
31.6167
 20
-57.8171
 30
0.0
 10
33.5695
 20
-59.8099
 30
0.0
 10
35.9783
 20
-59.8099
 30
0.0
 10
35.9783
 20
-59.8099
 30
0.0
 10
37.6959
 20
-59.8098
 30
0.0
 10
39.1812
 20
-58.7972
 30
0.0
 10
40.0577
 20
-57.3296
 30
0.0
 10
40.0577
 20
-57.3296
 30
0.0
 10
40.9355
 20
-58.802
 30
0.0
 10
42.4184
 20
-59.8099
 30
0.0
 10
44.1326
 20
-59.8099
 30
0.0
 10
44.1326
 20
-59.8099
 30
0.0
 10
46.5414
 20
-59.8098
 30
0.0
 10
48.4941
 20
-57.8172
 30
0.0
 10
48.4941
 20
-55.3591
 30
0.0
 10
48.4941
 20
-55.3591
 30
0.0
 10
48.4941
 20
-53.6177
 30
0.0
 10
47.5154
 20
-52.1117
 30
0.0
 10
46.0902
 20
-51.3715
 30
0.0
 10
46.0902
 20
-51.3715
 30
0.0
 10
47.5155
 20
-50.631
 30
0.0
 10
48.4941
 20
-49.1247
 30
0.0
 10
48.4941
 20
-47.3834
 30
0.0
 10
48.4941
 20
-47.3834
 30
0.0
 10
48.4941
 20
-44.9253
 30
0.0
 10
46.5414
 20
-42.9325
 30
0.0
 10
44.1326
 20
-42.9325
 30
0.0
 10
44.1326
 20
-42.9325
 30
0.0
 10
42.4217
 20
-42.9325
 30
0.0
 10
40.9402
 20
-43.9373
 30
0.0
 10
40.0472
 20
-45.3835
 30
0.0
 10
40.0472
 20
-45.3835
 30
0.0
 10
39.1473
 20
-43.9218
 30
0.0
 10
37.6759
 20
-42.9325
 30
0.0
 10
35.9783
 20
-42.9325
 30
0.0
  0
SPLINE
  5
62
330
1F
100
AcDbEntity
  8
layer 1
 62
     7
100
AcDbSpline
210
0.0
220
0.0
230
1.0
 70
    11
 71
     3
 72
    52
 73
    48
 74
     0
 42
0.0000000001
 43
0.0000000001
 12
1.0
 22
0.0
 32
0.0
 13
1.0
 23
0.0
 33
0.0
 40
0.0
 40
0.0
 40
0.0
 40
0.0
 40
0.0769230769230769
 40
0.0769230769230769
 40
0.0769230769230769
 40
0.0769230769230769
 40
0.1538461538461539
 40
0.1538461538461539
 40
0.1538461538461539
 40
0.1538461538461539
 40
0.2307692307692308
 40
0.2307692307692308
 40
0.2307692307692308
 40
0.2307692307692308
 40
0.3076923076923077
 40
0.3076923076923077
 40
0.3076923076923077
 40
0.3076923076923077
 40
0.3846153846153846
 40
0.3846153846153846
 40
0.3846153846153846
 40
0.3846153846153846
 40
0.4615384615384616
 40
0.4615384615384616
 40
0.4615384615384616
 40
0.4615384615384616
 40
0.5384615384615384
 40
0.5384615384615384
 40
0.5384615384615384
 40
0.5384615384615384
 40
0.6153846153846154
 40
0.6153846153846154
 40
0.6153846153846154
 40
0.6153846153846154
 40
0.6923076923076923
 40
0.6923076923076923
 40
0.6923076923076923
 40
0.6923076923076923
 40
0.7692307692307693
 40
0.7692307692307693
 40
0.7692307692307693
 40
0.7692307692307693
 40
0.8461538461538461
 40
0.8461538461538461
 40
0.8461538461538461
 40
0.8461538461538461
 40
1.0
 40
1.0
 40
1.0
 40
1.0
 10
35.9783
 20
-66.8557
 30
0.0
 10
33.5696
 20
-66.8557
 30
0.0
 10
31.6167
 20
-68.8485
 30
0.0
 10
31.6167
 20
-71.3066
 30
0.0
 10
31.6167
 20
-71.3066
 30
0.0
 10
31.6167
 20
-73.0478
 30
0.0
 10
32.5952
 20
-74.5543
 30
0.0
 10
34.0219
 20
-75.2946
 30
0.0
 10
34.0219
 20
-75.2946
 30
0.0
 10
32.5954
 20
-76.0346
 30
0.0
 10
31.6167
 20
-77.5409
 30
0.0
 10
31.6167
 20
-79.2822
 30
0.0
 10
31.6167
 20
-79.2822
 30
0.0
 10
31.6167
 20
-81.7402
 30
0.0
 10
33.5695
 20
-83.7331
 30
0.0
 10
35.9783
 20
-83.7331
 30
0.0
 10
35.9783
 20
-83.7331
 30
0.0
 10
37.6959
 20
-83.733
 30
0.0
 10
39.1812
 20
-82.7204
 30
0.0
 10
40.0577
 20
-81.2528
 30
0.0
 10
40.0577
 20
-81.2528
 30
0.0
 10
40.9355
 20
-82.7251
 30
0.0
 10
42.4184
 20
-83.7331
 30
0.0
 10
44.1326
 20
-83.7331
 30
0.0
 10
44.1326
 20
-83.7331
 30
0.0
 10
46.5414
 20
-83.733
 30
0.0
 10
48.4941
 20
-81.7403
 30
0.0
 10
48.4941
 20
-79.2822
 30
0.0
 10
48.4941
 20
-79.2822
 30
0.0
 10
48.4941
 20
-77.5408
 30
0.0
 10
47.5154
 20
-76.0348
 30
0.0
 10
46.0902
 20
-75.2946
 30
0.0
 10
46.0902
 20
-75.2946
 30
0.0
 10
47.5155
 20
-74.5542
 30
0.0
 10
48.4941
 20
-73.0479
 30
0.0
 10
48.4941
 20
-71.3066
 30
0.0
 10
48.4941
 20
-71.3066
 30
0.0
 10
48.4941
 20
-68.8485
 30
0.0
 10
46.5414
 20
-66.8557
 30
0.0
 10
44.1326
 20
-66.8557
 30
0.0
 10
44.1326
 20
-66.8557
 30
0.0
 10
42.4217
 20
-66.8557
 30
0.0
 10
40.9402
 20
-67.8604
 30
0.0
 10
40.0472
 20
-69.3066
 30
0.0
 10
40.0472
 20
-69.3066
 30
0.0
 10
39.1473
 20
-67.845
 30
0.0
 10
37.6759
 20
-66.8557
 30
0.0
 10
35.9783
 20
-66.8557
 30
0.0
  0
SPLINE
  5
63
330
1F
100
AcDbEntity
  8
layer 1
 62
     7
100
AcDbSpline
210
0.0
220
0.0
230
1.0
 70
    11
 71
     3
 72
    52
 73
    48
 74
     0
 42
0.0000000001
 43
0.0000000001
 12
1.0
 22
0.0
 32
0.0
 13
1.0
 23
0.0
 33
0.0
 40
0.0
 40
0.0
 40
0.0
 40
0.0
 40
0.0769230769230769
 40
0.0769230769230769
 40
0.0769230769230769
 40
0.0769230769230769
 40
0.1538461538461539
 40
0.1538461538461539
 40
0.1538461538461539
 40
0.1538461538461539
 40
0.2307692307692308
 40
0.2307692307692308
 40
0.2307692307692308
 40
0.2307692307692308
 40
0.3076923076923077
 40
0.3076923076923077
 40
0.3076923076923077
 40
0.3076923076923077
 40
0.3846153846153846
 40
0.3846153846153846
 40
0.3846153846153846
 40
0.3846153846153846
 40
0.4615384615384616
 40
0.4615384615384616
 40
0.4615384615384616
 40
0.4615384615384616
 40
0.5384615384615384
 40
0.5384615384615384
 40
0.5384615384615384
 40
0.5384615384615384
 40
0.6153846153846154
 40
0.6153846153846154
 40
0.6153846153846154
 40
0.6153846153846154
 40
0.6923076923076923
 40
0.6923076923076923
 40
0.6923076923076923
 40
0.6923076923076923
 40
0.7692307692307693
 40
0.7692307692307693
 40
0.7692307692307693
 40
0.7692307692307693
 40
0.8461538461538461
 40
0.8461538461538461
 40
0.8461538461538461
 40
0.8461538461538461
 40
1.0
 40
1.0
 40
1.0
 40
1.0
 10
35.9783
 20
-90.7788
 30
0.0
 10
33.5696
 20
-90.7788
 30
0.0
 10
31.6167
 20
-92.7716
 30
0.0
 10
31.6167
 20
-95.2297
 30
0.0
 10
31.6167
 20
-95.2297
 30
0.0
 10
31.6167
 20
-96.9709
 30
0.0
 10
32.5952
 20
-98.4774
 30
0.0
 10
34.0219
 20
-99.2178
 30
0.0
 10
34.0219
 20
-99.2178
 30
0.0
 10
32.5954
 20
-99.9578
 30
0.0
 10
31.6167
 20
-101.4641
 30
0.0
 10
31.6167
 20
-103.2054
 30
0.0
 10
31.6167
 20
-103.2054
 30
0.0
 10
31.6167
 20
-105.6634
 30
0.0
 10
33.5695
 20
-107.6562
 30
0.0
 10
35.9783
 20
-107.6562
 30
0.0
 10
35.9783
 20
-107.6562
 30
0.0
 10
37.6959
 20
-107.6561
 30
0.0
 10
39.1812
 20
-106.6435
 30
0.0
 10
40.0577
 20
-105.1759
 30
0.0
 10
40.0577
 20
-105.1759
 30
0.0
 10
40.9355
 20
-106.6483
 30
0.0
 10
42.4184
 20
-107.6562
 30
0.0
 10
44.1326
 20
-107.6562
 30
0.0
 10
44.1326
 20
-107.6562
 30
0.0
 10
46.5414
 20
-107.6561
 30
0.0
 10
48.4941
 20
-105.6635
 30
0.0
 10
48.4941
 20
-103.2054
 30
0.0
 10
48.4941
 20
-103.2054
 30
0.0
 10
48.4941
 20
-101.464
 30
0.0
 10
47.5154
 20
-99.958
 30
0.0
 10
46.0902
 20
-99.2178
 30
0.0
 10
46.0902
 20
-99.2178
 30
0.0
 10
47.5155
 20
-98.4773
 30
0.0
 10
48.4941
 20
-96.971
 30
0.0
 10
48.4941
 20
-95.2297
 30
0.0
 10
48.4941
 20
-95.2297
 30
0.0
 10
48.4941
 20
-92.7716
 30
0.0
 10
46.5414
 20
-90.7788
 30
0.0
 10
44.1326
 20
-90.7788
 30
0.0
 10
44.1326
 20
-90.7788
 30
0.0
 10
42.4217
 20
-90.7788
 30
0.0
 10
40.9402
 20
-91.7836
 30
0.0
 10
40.0472
 20
-93.2298
 30
0.0
 10
40.0472
 20
-93.2298
 30
0.0
 10
39.1473
 20
-91.7681
 30
0.0
 10
37.6759
 20
-90.7788
 30
0.0
 10
35.9783
 20
-90.7788
 30
0.0
  0
SPLINE
  5
64
330
1F
100
AcDbEntity
  8
layer 1
 62
     7
100
AcDbSpline
210
0.0
220
0.0
230
1.0
 70
    11
 71
     3
 72
    52
 73
    48
 74
     0
 42
0.0000000001
 43
0.0000000001
 12
1.0
 22
0.0
 32
0.0
 13
1.0
 23
0.0
 33
0.0
 40
0.0
 40
0.0
 40
0.0
 40
0.0
 40
0.0769230769230769
 40
0.0769230769230769
 40
0.0769230769230769
 40
0.0769230769230769
 40
0.1538461538461539
 40
0.1538461538461539
 40
0.1538461538461539
 40
0.1538461538461539
 40
0.2307692307692308
 40
0.2307692307692308
 40
0.2307692307692308
 40
0.2307692307692308
 40
0.3076923076923077
 40
0.3076923076923077
 40
0.3076923076923077
 40
0.3076923076923077
 40
0.3846153846153846
 40
0.3846153846153846
 40
0.3846153846153846
 40
0.3846153846153846
 40
0.4615384615384616
 40
0.4615384615384616
 40
0.4615384615384616
 40
0.4615384615384616
 40
0.5384615384615384
 40
0.5384615384615384
 40
0.5384615384615384
 40
0.5384615384615384
 40
0.6153846153846154
 40
0.6153846153846154
 40
0.6153846153846154
 40
0.6153846153846154
 40
0.6923076923076923
 40
0.6923076923076923
 40
0.6923076923076923
 40
0.6923076923076923
 40
0.7692307692307693
 40
0.7692307692307693
 40
0.7692307692307693
 40
0.7692307692307693
 40
0.8461538461538461
 40
0.8461538461538461
 40
0.8461538461538461
 40
0.8461538461538461
 40
1.0
 40
1.0
 40
1.0
 40
1.0
 10
59.4067
 20
100.6064
 30
0.0
 10
56.998
 20
100.6064
 30
0.0
 10
55.0451
 20
98.6136
 30
0.0
 10
55.0451
 20
96.1555
 30
0.0
 10
55.0451
 20
96.1555
 30
0.0
 10
55.0451
 20
94.4143
 30
0.0
 10
56.0236
 20
92.9078
 30
0.0
 10
57.4502
 20
92.1674
 30
0.0
 10
57.4502
 20
92.1674
 30
0.0
 10
56.0238
 20
91.4274
 30
0.0
 10
55.0451
 20
89.9211
 30
0.0
 10
55.0451
 20
88.1798
 30
0.0
 10
55.0451
 20
88.1798
 30
0.0
 10
55.0451
 20
85.7218
 30
0.0
 10
56.9978
 20
83.729
 30
0.0
 10
59.4067
 20
83.729
 30
0.0
 10
59.4067
 20
83.729
 30
0.0
 10
61.1242
 20
83.7291
 30
0.0
 10
62.6096
 20
84.7417
 30
0.0
 10
63.4861
 20
86.2093
 30
0.0
 10
63.4861
 20
86.2093
 30
0.0
 10
64.3638
 20
84.7369
 30
0.0
 10
65.8467
 20
83.729
 30
0.0
 10
67.5609
 20
83.729
 30
0.0
 10
67.5609
 20
83.729
 30
0.0
 10
69.9697
 20
83.7291
 30
0.0
 10
71.9225
 20
85.7217
 30
0.0
 10
71.9225
 20
88.1798
 30
0.0
 10
71.9225
 20
88.1798
 30
0.0
 10
71.9225
 20
89.9212
 30
0.0
 10
70.9437
 20
91.4272
 30
0.0
 10
69.5185
 20
92.1674
 30
0.0
 10
69.5185
 20
92.1674
 30
0.0
 10
70.9438
 20
92.9079
 30
0.0
 10
71.9225
 20
94.4142
 30
0.0
 10
71.9225
 20
96.1555
 30
0.0
 10
71.9225
 20
96.1555
 30
0.0
 10
71.9225
 20
98.6136
 30
0.0
 10
69.9697
 20
100.6064
 30
0.0
 10
67.5609
 20
100.6064
 30
0.0
 10
67.5609
 20
100.6064
 30
0.0
 10
65.8501
 20
100.6064
 30
0.0
 10
64.3686
 20
99.6016
 30
0.0
 10
63.4755
 20
98.1554
 30
0.0
 10
63.4755
 20
98.1554
 30
0.0
 10
62.5756
 20
99.6171
 30
0.0
 10
61.1043
 20
100.6064
 30
0.0
 10
59.4067
 20
100.6064
 30
0.0
  0
SPLINE
  5
65
330
1F
100
AcDbEntity
  8
layer 1
 62
     7
100
AcDbSpline
210
0.0
220
0.0
230
1.0
 70
    11
 71
     3
 72
    52
 73
    48
 74
     0
 42
0.0000000001
 43
0.0000000001
 12
1.0
 22
0.0
 32
0.0
 13
1.0
 23
0.0
 33
0.0
 40
0.0
 40
0.0
 40
0.0
 40
0.0
 40
0.0769230769230769
 40
0.0769230769230769
 40
0.0769230769230769
 40
0.0769230769230769
 40
0.1538461538461539
 40
0.1538461538461539
 40
0.1538461538461539
 40
0.1538461538461539
 40
0.2307692307692308
 40
0.2307692307692308
 40
0.2307692307692308
 40
0.2307692307692308
 40
0.3076923076923077
 40
0.3076923076923077
 40
0.3076923076923077
 40
0.3076923076923077
 40
0.3846153846153846
 40
0.3846153846153846
 40
0.3846153846153846
 40
0.3846153846153846
 40
0.4615384615384616
 40
0.4615384615384616
 40
0.4615384615384616
 40
0.4615384615384616
 40
0.5384615384615384
 40
0.5384615384615384
 40
0.5384615384615384
 40
0.5384615384615384
 40
0.6153846153846154
 40
0.6153846153846154
 40
0.6153846153846154
 40
0.6153846153846154
 40
0.6923076923076923
 40
0.6923076923076923
 40
0.6923076923076923
 40
0.6923076923076923
 40
0.7692307692307693
 40
0.7692307692307693
 40
0.7692307692307693
 40
0.7692307692307693
 40
0.8461538461538461
 40
0.8461538461538461
 40
0.8461538461538461
 40
0.8461538461538461
 40
1.0
 40
1.0
 40
1.0
 40
1.0
 10
59.4067
 20
76.6832
 30
0.0
 10
56.998
 20
76.6832
 30
0.0
 10
55.0451
 20
74.6904
 30
0.0
 10
55.0451
 20
72.2323
 30
0.0
 10
55.0451
 20
72.2323
 30
0.0
 10
55.0451
 20
70.4911
 30
0.0
 10
56.0236
 20
68.9846
 30
0.0
 10
57.4502
 20
68.2443
 30
0.0
 10
57.4502
 20
68.2443
 30
0.0
 10
56.0238
 20
67.5043
 30
0.0
 10
55.0451
 20
65.998
 30
0.0
 10
55.0451
 20
64.2567
 30
0.0
 10
55.0451
 20
64.2567
 30
0.0
 10
55.0451
 20
61.7987
 30
0.0
 10
56.9978
 20
59.8058
 30
0.0
 10
59.4067
 20
59.8058
 30
0.0
 10
59.4067
 20
59.8058
 30
0.0
 10
61.1242
 20
59.8059
 30
0.0
 10
62.6096
 20
60.8185
 30
0.0
 10
63.4861
 20
62.2861
 30
0.0
 10
63.4861
 20
62.2861
 30
0.0
 10
64.3638
 20
60.8138
 30
0.0
 10
65.8467
 20
59.8058
 30
0.0
 10
67.5609
 20
59.8058
 30
0.0
 10
67.5609
 20
59.8058
 30
0.0
 10
69.9697
 20
59.8059
 30
0.0
 10
71.9225
 20
61.7986
 30
0.0
 10
71.9225
 20
64.2567
 30
0.0
 10
71.9225
 20
64.2567
 30
0.0
 10
71.9225
 20
65.9981
 30
0.0
 10
70.9437
 20
67.5041
 30
0.0
 10
69.5185
 20
68.2443
 30
0.0
 10
69.5185
 20
68.2443
 30
0.0
 10
70.9438
 20
68.9847
 30
0.0
 10
71.9225
 20
70.491
 30
0.0
 10
71.9225
 20
72.2323
 30
0.0
 10
71.9225
 20
72.2323
 30
0.0
 10
71.9225
 20
74.6904
 30
0.0
 10
69.9697
 20
76.6832
 30
0.0
 10
67.5609
 20
76.6832
 30
0.0
 10
67.5609
 20
76.6832
 30
0.0
 10
65.8501
 20
76.6832
 30
0.0
 10
64.3686
 20
75.6785
 30
0.0
 10
63.4755
 20
74.2323
 30
0.0
 10
63.4755
 20
74.2323
 30
0.0
 10
62.5756
 20
75.6939
 30
0.0
 10
61.1043
 20
76.6832
 30
0.0
 10
59.4067
 20
76.6832
 30
0.0
  0
SPLINE
  5
66
330
1F
100
AcDbEntity
  8
layer 1
 62
     7
100
AcDbSpline
210
0.0
220
0.0
230
1.0
 70
    11
 71
     3
 72
    52
 73
    48
 74
     0
 42
0.0000000001
 43
0.0000000001
 12
1.0
 22
0.0
 32
0.0
 13
1.0
 23
0.0
 33
0.0
 40
0.0
 40
0.0
 40
0.0
 40
0.0
 40
0.0769230769230769
 40
0.0769230769230769
 40
0.0769230769230769
 40
0.0769230769230769
 40
0.1538461538461539
 40
0.1538461538461539
 40
0.1538461538461539
 40
0.1538461538461539
 40
0.2307692307692308
 40
0.2307692307692308
 40
0.2307692307692308
 40
0.2307692307692308
 40
0.3076923076923077
 40
0.3076923076923077
 40
0.3076923076923077
 40
0.3076923076923077
 40
0.3846153846153846
 40
0.3846153846153846
 40
0.3846153846153846
 40
0.3846153846153846
 40
0.4615384615384616
 40
0.4615384615384616
 40
0.4615384615384616
 40
0.4615384615384616
 40
0.5384615384615384
 40
0.5384615384615384
 40
0.5384615384615384
 40
0.5384615384615384
 40
0.6153846153846154
 40
0.6153846153846154
 40
0.6153846153846154
 40
0.6153846153846154
 40
0.6923076923076923
 40
0.6923076923076923
 40
0.6923076923076923
 40
0.6923076923076923
 40
0.7692307692307693
 40
0.7692307692307693
 40
0.7692307692307693
 40
0.7692307692307693
 40
0.8461538461538461
 40
0.8461538461538461
 40
0.8461538461538461
 40
0.8461538461538461
 40
1.0
 40
1.0
 40
1.0
 40
1.0
 10
59.4067
 20
52.7601
 30
0.0
 10
56.998
 20
52.7601
 30
0.0
 10
55.0451
 20
50.7673
 30
0.0
 10
55.0451
 20
48.3092
 30
0.0
 10
55.0451
 20
48.3092
 30
0.0
 10
55.0451
 20
46.568
 30
0.0
 10
56.0236
 20
45.0615
 30
0.0
 10
57.4502
 20
44.3211
 30
0.0
 10
57.4502
 20
44.3211
 30
0.0
 10
56.0238
 20
43.5811
 30
0.0
 10
55.0451
 20
42.0748
 30
0.0
 10
55.0451
 20
40.3335
 30
0.0
 10
55.0451
 20
40.3335
 30
0.0
 10
55.0451
 20
37.8755
 30
0.0
 10
56.9978
 20
35.8827
 30
0.0
 10
59.4067
 20
35.8827
 30
0.0
 10
59.4067
 20
35.8827
 30
0.0
 10
61.1242
 20
35.8828
 30
0.0
 10
62.6096
 20
36.8954
 30
0.0
 10
63.4861
 20
38.363
 30
0.0
 10
63.4861
 20
38.363
 30
0.0
 10
64.3638
 20
36.8906
 30
0.0
 10
65.8467
 20
35.8827
 30
0.0
 10
67.5609
 20
35.8827
 30
0.0
 10
67.5609
 20
35.8827
 30
0.0
 10
69.9697
 20
35.8828
 30
0.0
 10
71.9225
 20
37.8754
 30
0.0
 10
71.9225
 20
40.3335
 30
0.0
 10
71.9225
 20
40.3335
 30
0.0
 10
71.9225
 20
42.0749
 30
0.0
 10
70.9437
 20
43.5809
 30
0.0
 10
69.5185
 20
44.3211
 30
0.0
 10
69.5185
 20
44.3211
 30
0.0
 10
70.9438
 20
45.0616
 30
0.0
 10
71.9225
 20
46.5679
 30
0.0
 10
71.9225
 20
48.3092
 30
0.0
 10
71.9225
 20
48.3092
 30
0.0
 10
71.9225
 20
50.7673
 30
0.0
 10
69.9697
 20
52.7601
 30
0.0
 10
67.5609
 20
52.7601
 30
0.0
 10
67.5609
 20
52.7601
 30
0.0
 10
65.8501
 20
52.7601
 30
0.0
 10
64.3686
 20
51.7553
 30
0.0
 10
63.4755
 20
50.3091
 30
0.0
 10
63.4755
 20
50.3091
 30
0.0
 10
62.5756
 20
51.7708
 30
0.0
 10
61.1043
 20
52.7601
 30
0.0
 10
59.4067
 20
52.7601
 30
0.0
  0
SPLINE
  5
67
330
1F
100
AcDbEntity
  8
layer 1
 62
     7
100
AcDbSpline
210
0.0
220
0.0
230
1.0
 70
    11
 71
     3
 72
    52
 73
    48
 74
     0
 42
0.0000000001
 43
0.0000000001
 12
1.0
 22
0.0
 32
0.0
 13
1.0
 23
0.0
 33
0.0
 40
0.0
 40
0.0
 40
0.0
 40
0.0
 40
0.0769230769230769
 40
0.0769230769230769
 40
0.0769230769230769
 40
0.0769230769230769
 40
0.1538461538461539
 40
0.1538461538461539
 40
0.1538461538461539
 40
0.1538461538461539
 40
0.2307692307692308
 40
0.2307692307692308
 40
0.2307692307692308
 40
0.2307692307692308
 40
0.3076923076923077
 40
0.3076923076923077
 40
0.3076923076923077
 40
0.3076923076923077
 40
0.3846153846153846
 40
0.3846153846153846
 40
0.3846153846153846
 40
0.3846153846153846
 40
0.4615384615384616
 40
0.4615384615384616
 40
0.4615384615384616
 40
0.4615384615384616
 40
0.5384615384615384
 40
0.5384615384615384
 40
0.5384615384615384
 40
0.5384615384615384
 40
0.6153846153846154
 40
0.6153846153846154
 40
0.6153846153846154
 40
0.6153846153846154
 40
0.6923076923076923
 40
0.6923076923076923
 40
0.6923076923076923
 40
0.6923076923076923
 40
0.7692307692307693
 40
0.7692307692307693
 40
0.7692307692307693
 40
0.7692307692307693
 40
0.8461538461538461
 40
0.8461538461538461
 40
0.8461538461538461
 40
0.8461538461538461
 40
1.0
 40
1.0
 40
1.0
 40
1.0
 10
59.4067
 20
28.8369
 30
0.0
 10
56.998
 20
28.8369
 30
0.0
 10
55.0451
 20
26.8441
 30
0.0
 10
55.0451
 20
24.386
 30
0.0
 10
55.0451
 20
24.386
 30
0.0
 10
55.0451
 20
22.6448
 30
0.0
 10
56.0236
 20
21.1383
 30
0.0
 10
57.4502
 20
20.398
 30
0.0
 10
57.4502
 20
20.398
 30
0.0
 10
56.0238
 20
19.658
 30
0.0
 10
55.0451
 20
18.1517
 30
0.0
 10
55.0451
 20
16.4104
 30
0.0
 10
55.0451
 20
16.4104
 30
0.0
 10
55.0451
 20
13.9524
 30
0.0
 10
56.9978
 20
11.9595
 30
0.0
 10
59.4067
 20
11.9595
 30
0.0
 10
59.4067
 20
11.9595
 30
0.0
 10
61.1242
 20
11.9596
 30
0.0
 10
62.6096
 20
12.9722
 30
0.0
 10
63.4861
 20
14.4398
 30
0.0
 10
63.4861
 20
14.4398
 30
0.0
 10
64.3638
 20
12.9675
 30
0.0
 10
65.8467
 20
11.9595
 30
0.0
 10
67.5609
 20
11.9595
 30
0.0
 10
67.5609
 20
11.9595
 30
0.0
 10
69.9697
 20
11.9596
 30
0.0
 10
71.9225
 20
13.9523
 30
0.0
 10
71.9225
 20
16.4104
 30
0.0
 10
71.9225
 20
16.4104
 30
0.0
 10
71.9225
 20
18.1518
 30
0.0
 10
70.9437
 20
19.6578
 30
0.0
 10
69.5185
 20
20.398
 30
0.0
 10
69.5185
 20
20.398
 30
0.0
 10
70.9438
 20
21.1384
 30
0.0
 10
71.9225
 20
22.6447
 30
0.0
 10
71.9225
 20
24.386
 30
0.0
 10
71.9225
 20
24.386
 30
0.0
 10
71.9225
 20
26.8441
 30
0.0
 10
69.9697
 20
28.8369
 30
0.0
 10
67.5609
 20
28.8369
 30
0.0
 10
67.5609
 20
28.8369
 30
0.0
 10
65.8501
 20
28.8369
 30
0.0
 10
64.3686
 20
27.8322
 30
0.0
 10
63.4755
 20
26.386
 30
0.0
 10
63.4755
 20
26.386
 30
0.0
 10
62.5756
 20
27.8476
 30
0.0
 10
61.1043
 20
28.8369
 30
0.0
 10
59.4067
 20
28.8369
 30
0.0
  0
SPLINE
  5
68
330
1F
100
AcDbEntity
  8
layer 1
 62
     7
100
AcDbSpline
210
0.0
220
0.0
230
1.0
 70
    11
 71
     3
 72
    52
 73
    48
 74
     0
 42
0.0000000001
 43
0.0000000001
 12
1.0
 22
0.0
 32
0.0
 13
1.0
 23
0.0
 33
0.0
 40
0.0
 40
0.0
 40
0.0
 40
0.0
 40
0.0769230769230769
 40
0.0769230769230769
 40
0.0769230769230769
 40
0.0769230769230769
 40
0.1538461538461539
 40
0.1538461538461539
 40
0.1538461538461539
 40
0.1538461538461539
 40
0.2307692307692308
 40
0.2307692307692308
 40
0.2307692307692308
 40
0.2307692307692308
 40
0.3076923076923077
 40
0.3076923076923077
 40
0.3076923076923077
 40
0.3076923076923077
 40
0.3846153846153846
 40
0.3846153846153846
 40
0.3846153846153846
 40
0.3846153846153846
 40
0.4615384615384616
 40
0.4615384615384616
 40
0.4615384615384616
 40
0.4615384615384616
 40
0.5384615384615384
 40
0.5384615384615384
 40
0.5384615384615384
 40
0.5384615384615384
 40
0.6153846153846154
 40
0.6153846153846154
 40
0.6153846153846154
 40
0.6153846153846154
 40
0.6923076923076923
 40
0.6923076923076923
 40
0.6923076923076923
 40
0.6923076923076923
 40
0.7692307692307693
 40
0.7692307692307693
 40
0.7692307692307693
 40
0.7692307692307693
 40
0.8461538461538461
 40
0.8461538461538461
 40
0.8461538461538461
 40
0.8461538461538461
 40
1.0
 40
1.0
 40
1.0
 40
1.0
 10
59.4067
 20
4.9138
 30
0.0
 10
56.998
 20
4.9138
 30
0.0
 10
55.0451
 20
2.921
 30
0.0
 10
55.0451
 20
0.4629
 30
0.0
 10
55.0451
 20
0.4629
 30
0.0
 10
55.0451
 20
-1.2783
 30
0.0
 10
56.0236
 20
-2.7848
 30
0.0
 10
57.4502
 20
-3.5252
 30
0.0
 10
57.4502
 20
-3.5252
 30
0.0
 10
56.0238
 20
-4.2652
 30
0.0
 10
55.0451
 20
-5.7715
 30
0.0
 10
55.0451
 20
-7.5128
 30
0.0
 10
55.0451
 20
-7.5128
 30
0.0
 10
55.0451
 20
-9.9708
 30
0.0
 10
56.9978
 20
-11.9636
 30
0.0
 10
59.4067
 20
-11.9636
 30
0.0
 10
59.4067
 20
-11.9636
 30
0.0
 10
61.1242
 20
-11.9635
 30
0.0
 10
62.6096
 20
-10.9509
 30
0.0
 10
63.4861
 20
-9.4833
 30
0.0
 10
63.4861
 20
-9.4833
 30
0.0
 10
64.3638
 20
-10.9557
 30
0.0
 10
65.8467
 20
-11.9636
 30
0.0
 10
67.5609
 20
-11.9636
 30
0.0
 10
67.5609
 20
-11.9636
 30
0.0
 10
69.9697
 20
-11.9635
 30
0.0
 10
71.9225
 20
-9.9709
 30
0.0
 10
71.9225
 20
-7.5128
 30
0.0
 10
71.9225
 20
-7.5128
 30
0.0
 10
71.9225
 20
-5.7714
 30
0.0
 10
70.9437
 20
-4.2654
 30
0.0
 10
69.5185
 20
-3.5252
 30
0.0
 10
69.5185
 20
-3.5252
 30
0.0
 10
70.9438
 20
-2.7847
 30
0.0
 10
71.9225
 20
-1.2784
 30
0.0
 10
71.9225
 20
0.4629
 30
0.0
 10
71.9225
 20
0.4629
 30
0.0
 10
71.9225
 20
2.921
 30
0.0
 10
69.9697
 20
4.9138
 30
0.0
 10
67.5609
 20
4.9138
 30
0.0
 10
67.5609
 20
4.9138
 30
0.0
 10
65.8501
 20
4.9138
 30
0.0
 10
64.3686
 20
3.909
 30
0.0
 10
63.4755
 20
2.4628
 30
0.0
 10
63.4755
 20
2.4628
 30
0.0
 10
62.5756
 20
3.9245
 30
0.0
 10
61.1043
 20
4.9138
 30
0.0
 10
59.4067
 20
4.9138
 30
0.0
  0
SPLINE
  5
69
330
1F
100
AcDbEntity
  8
layer 1
 62
     7
100
AcDbSpline
210
0.0
220
0.0
230
1.0
 70
    11
 71
     3
 72
    52
 73
    48
 74
     0
 42
0.0000000001
 43
0.0000000001
 12
1.0
 22
0.0
 32
0.0
 13
1.0
 23
0.0
 33
0.0
 40
0.0
 40
0.0
 40
0.0
 40
0.0
 40
0.0769230769230769
 40
0.0769230769230769
 40
0.0769230769230769
 40
0.0769230769230769
 40
0.1538461538461539
 40
0.1538461538461539
 40
0.1538461538461539
 40
0.1538461538461539
 40
0.2307692307692308
 40
0.2307692307692308
 40
0.2307692307692308
 40
0.2307692307692308
 40
0.3076923076923077
 40
0.3076923076923077
 40
0.3076923076923077
 40
0.3076923076923077
 40
0.3846153846153846
 40
0.3846153846153846
 40
0.3846153846153846
 40
0.3846153846153846
 40
0.4615384615384616
 40
0.4615384615384616
 40
0.4615384615384616
 40
0.4615384615384616
 40
0.5384615384615384
 40
0.5384615384615384
 40
0.5384615384615384
 40
0.5384615384615384
 40
0.6153846153846154
 40
0.6153846153846154
 40
0.6153846153846154
 40
0.6153846153846154
 40
0.6923076923076923
 40
0.6923076923076923
 40
0.6923076923076923
 40
0.6923076923076923
 40
0.7692307692307693
 40
0.7692307692307693
 40
0.7692307692307693
 40
0.7692307692307693
 40
0.8461538461538461
 40
0.8461538461538461
 40
0.8461538461538461
 40
0.8461538461538461
 40
1.0
 40
1.0
 40
1.0
 40
1.0
 10
59.4067
 20
-19.0094
 30
0.0
 10
56.998
 20
-19.0094
 30
0.0
 10
55.0451
 20
-21.0022
 30
0.0
 10
55.0451
 20
-23.4603
 30
0.0
 10
55.0451
 20
-23.4603
 30
0.0
 10
55.0451
 20
-25.2015
 30
0.0
 10
56.0236
 20
-26.708
 30
0.0
 10
57.4502
 20
-27.4483
 30
0.0
 10
57.4502
 20
-27.4483
 30
0.0
 10
56.0238
 20
-28.1883
 30
0.0
 10
55.0451
 20
-29.6946
 30
0.0
 10
55.0451
 20
-31.4359
 30
0.0
 10
55.0451
 20
-31.4359
 30
0.0
 10
55.0451
 20
-33.8939
 30
0.0
 10
56.9978
 20
-35.8868
 30
0.0
 10
59.4067
 20
-35.8868
 30
0.0
 10
59.4067
 20
-35.8868
 30
0.0
 10
61.1242
 20
-35.8867
 30
0.0
 10
62.6096
 20
-34.8741
 30
0.0
 10
63.4861
 20
-33.4065
 30
0.0
 10
63.4861
 20
-33.4065
 30
0.0
 10
64.3638
 20
-34.8788
 30
0.0
 10
65.8467
 20
-35.8868
 30
0.0
 10
67.5609
 20
-35.8868
 30
0.0
 10
67.5609
 20
-35.8868
 30
0.0
 10
69.9697
 20
-35.8867
 30
0.0
 10
71.9225
 20
-33.894
 30
0.0
 10
71.9225
 20
-31.4359
 30
0.0
 10
71.9225
 20
-31.4359
 30
0.0
 10
71.9225
 20
-29.6945
 30
0.0
 10
70.9437
 20
-28.1885
 30
0.0
 10
69.5185
 20
-27.4483
 30
0.0
 10
69.5185
 20
-27.4483
 30
0.0
 10
70.9438
 20
-26.7079
 30
0.0
 10
71.9225
 20
-25.2016
 30
0.0
 10
71.9225
 20
-23.4603
 30
0.0
 10
71.9225
 20
-23.4603
 30
0.0
 10
71.9225
 20
-21.0022
 30
0.0
 10
69.9697
 20
-19.0094
 30
0.0
 10
67.5609
 20
-19.0094
 30
0.0
 10
67.5609
 20
-19.0094
 30
0.0
 10
65.8501
 20
-19.0094
 30
0.0
 10
64.3686
 20
-20.0141
 30
0.0
 10
63.4755
 20
-21.4603
 30
0.0
 10
63.4755
 20
-21.4603
 30
0.0
 10
62.5756
 20
-19.9987
 30
0.0
 10
61.1043
 20
-19.0094
 30
0.0
 10
59.4067
 20
-19.0094
 30
0.0
  0
SPLINE
  5
6A
330
1F
100
AcDbEntity
  8
layer 1
 62
     7
100
AcDbSpline
210
0.0
220
0.0
230
1.0
 70
    11
 71
     3
 72
    52
 73
    48
 74
     0
 42
0.0000000001
 43
0.0000000001
 12
1.0
 22
0.0
 32
0.0
 13
1.0
 23
0.0
 33
0.0
 40
0.0
 40
0.0
 40
0.0
 40
0.0
 40
0.0769230769230769
 40
0.0769230769230769
 40
0.0769230769230769
 40
0.0769230769230769
 40
0.1538461538461539
 40
0.1538461538461539
 40
0.1538461538461539
 40
0.1538461538461539
 40
0.2307692307692308
 40
0.2307692307692308
 40
0.2307692307692308
 40
0.2307692307692308
 40
0.3076923076923077
 40
0.3076923076923077
 40
0.3076923076923077
 40
0.3076923076923077
 40
0.3846153846153846
 40
0.3846153846153846
 40
0.3846153846153846
 40
0.3846153846153846
 40
0.4615384615384616
 40
0.4615384615384616
 40
0.4615384615384616
 40
0.4615384615384616
 40
0.5384615384615384
 40
0.5384615384615384
 40
0.5384615384615384
 40
0.5384615384615384
 40
0.6153846153846154
 40
0.6153846153846154
 40
0.6153846153846154
 40
0.6153846153846154
 40
0.6923076923076923
 40
0.6923076923076923
 40
0.6923076923076923
 40
0.6923076923076923
 40
0.7692307692307693
 40
0.7692307692307693
 40
0.7692307692307693
 40
0.7692307692307693
 40
0.8461538461538461
 40
0.8461538461538461
 40
0.8461538461538461
 40
0.8461538461538461
 40
1.0
 40
1.0
 40
1.0
 40
1.0
 10
59.4067
 20
-42.9325
 30
0.0
 10
56.998
 20
-42.9325
 30
0.0
 10
55.0451
 20
-44.9253
 30
0.0
 10
55.0451
 20
-47.3834
 30
0.0
 10
55.0451
 20
-47.3834
 30
0.0
 10
55.0451
 20
-49.1246
 30
0.0
 10
56.0236
 20
-50.6311
 30
0.0
 10
57.4502
 20
-51.3715
 30
0.0
 10
57.4502
 20
-51.3715
 30
0.0
 10
56.0238
 20
-52.1115
 30
0.0
 10
55.0451
 20
-53.6178
 30
0.0
 10
55.0451
 20
-55.3591
 30
0.0
 10
55.0451
 20
-55.3591
 30
0.0
 10
55.0451
 20
-57.8171
 30
0.0
 10
56.9978
 20
-59.8099
 30
0.0
 10
59.4067
 20
-59.8099
 30
0.0
 10
59.4067
 20
-59.8099
 30
0.0
 10
61.1242
 20
-59.8098
 30
0.0
 10
62.6096
 20
-58.7972
 30
0.0
 10
63.4861
 20
-57.3296
 30
0.0
 10
63.4861
 20
-57.3296
 30
0.0
 10
64.3638
 20
-58.802
 30
0.0
 10
65.8467
 20
-59.8099
 30
0.0
 10
67.5609
 20
-59.8099
 30
0.0
 10
67.5609
 20
-59.8099
 30
0.0
 10
69.9697
 20
-59.8098
 30
0.0
 10
71.9225
 20
-57.8172
 30
0.0
 10
71.9225
 20
-55.3591
 30
0.0
 10
71.9225
 20
-55.3591
 30
0.0
 10
71.9225
 20
-53.6177
 30
0.0
 10
70.9437
 20
-52.1117
 30
0.0
 10
69.5185
 20
-51.3715
 30
0.0
 10
69.5185
 20
-51.3715
 30
0.0
 10
70.9438
 20
-50.631
 30
0.0
 10
71.9225
 20
-49.1247
 30
0.0
 10
71.9225
 20
-47.3834
 30
0.0
 10
71.9225
 20
-47.3834
 30
0.0
 10
71.9225
 20
-44.9253
 30
0.0
 10
69.9697
 20
-42.9325
 30
0.0
 10
67.5609
 20
-42.9325
 30
0.0
 10
67.5609
 20
-42.9325
 30
0.0
 10
65.8501
 20
-42.9325
 30
0.0
 10
64.3686
 20
-43.9373
 30
0.0
 10
63.4755
 20
-45.3835
 30
0.0
 10
63.4755
 20
-45.3835
 30
0.0
 10
62.5756
 20
-43.9218
 30
0.0
 10
61.1043
 20
-42.9325
 30
0.0
 10
59.4067
 20
-42.9325
 30
0.0
  0
SPLINE
  5
6B
330
1F
100
AcDbEntity
  8
layer 1
 62
     7
100
AcDbSpline
210
0.0
220
0.0
230
1.0
 70
    11
 71
     3
 72
    52
 73
    48
 74
     0
 42
0.0000000001
 43
0.0000000001
 12
1.0
 22
0.0
 32
0.0
 13
1.0
 23
0.0
 33
0.0
 40
0.0
 40
0.0
 40
0.0
 40
0.0
 40
0.0769230769230769
 40
0.0769230769230769
 40
0.0769230769230769
 40
0.0769230769230769
 40
0.1538461538461539
 40
0.1538461538461539
 40
0.1538461538461539
 40
0.1538461538461539
 40
0.2307692307692308
 40
0.2307692307692308
 40
0.2307692307692308
 40
0.2307692307692308
 40
0.3076923076923077
 40
0.3076923076923077
 40
0.3076923076923077
 40
0.3076923076923077
 40
0.3846153846153846
 40
0.3846153846153846
 40
0.3846153846153846
 40
0.3846153846153846
 40
0.4615384615384616
 40
0.4615384615384616
 40
0.4615384615384616
 40
0.4615384615384616
 40
0.5384615384615384
 40
0.5384615384615384
 40
0.5384615384615384
 40
0.5384615384615384
 40
0.6153846153846154
 40
0.6153846153846154
 40
0.6153846153846154
 40
0.6153846153846154
 40
0.6923076923076923
 40
0.6923076923076923
 40
0.6923076923076923
 40
0.6923076923076923
 40
0.7692307692307693
 40
0.7692307692307693
 40
0.7692307692307693
 40
0.7692307692307693
 40
0.8461538461538461
 40
0.8461538461538461
 40
0.8461538461538461
 40
0.8461538461538461
 40
1.0
 40
1.0
 40
1.0
 40
1.0
 10
59.4067
 20
-66.8557
 30
0.0
 10
56.998
 20
-66.8557
 30
0.0
 10
55.0451
 20
-68.8485
 30
0.0
 10
55.0451
 20
-71.3066
 30
0.0
 10
55.0451
 20
-71.3066
 30
0.0
 10
55.0451
 20
-73.0478
 30
0.0
 10
56.0236
 20
-74.5543
 30
0.0
 10
57.4502
 20
-75.2946
 30
0.0
 10
57.4502
 20
-75.2946
 30
0.0
 10
56.0238
 20
-76.0346
 30
0.0
 10
55.0451
 20
-77.5409
 30
0.0
 10
55.0451
 20
-79.2822
 30
0.0
 10
55.0451
 20
-79.2822
 30
0.0
 10
55.0451
 20
-81.7402
 30
0.0
 10
56.9978
 20
-83.7331
 30
0.0
 10
59.4067
 20
-83.7331
 30
0.0
 10
59.4067
 20
-83.7331
 30
0.0
 10
61.1242
 20
-83.733
 30
0.0
 10
62.6096
 20
-82.7204
 30
0.0
 10
63.4861
 20
-81.2528
 30
0.0
 10
63.4861
 20
-81.2528
 30
0.0
 10
64.3638
 20
-82.7251
 30
0.0
 10
65.8467
 20
-83.7331
 30
0.0
 10
67.5609
 20
-83.7331
 30
0.0
 10
67.5609
 20
-83.7331
 30
0.0
 10
69.9697
 20
-83.733
 30
0.0
 10
71.9225
 20
-81.7403
 30
0.0
 10
71.9225
 20
-79.2822
 30
0.0
 10
71.9225
 20
-79.2822
 30
0.0
 10
71.9225
 20
-77.5408
 30
0.0
 10
70.9437
 20
-76.0348
 30
0.0
 10
69.5185
 20
-75.2946
 30
0.0
 10
69.5185
 20
-75.2946
 30
0.0
 10
70.9438
 20
-74.5542
 30
0.0
 10
71.9225
 20
-73.0479
 30
0.0
 10
71.9225
 20
-71.3066
 30
0.0
 10
71.9225
 20
-71.3066
 30
0.0
 10
71.9225
 20
-68.8485
 30
0.0
 10
69.9697
 20
-66.8557
 30
0.0
 10
67.5609
 20
-66.8557
 30
0.0
 10
67.5609
 20
-66.8557
 30
0.0
 10
65.8501
 20
-66.8557
 30
0.0
 10
64.3686
 20
-67.8604
 30
0.0
 10
63.4755
 20
-69.3066
 30
0.0
 10
63.4755
 20
-69.3066
 30
0.0
 10
62.5756
 20
-67.845
 30
0.0
 10
61.1043
 20
-66.8557
 30
0.0
 10
59.4067
 20
-66.8557
 30
0.0
  0
SPLINE
  5
6C
330
1F
100
AcDbEntity
  8
layer 1
 62
     7
100
AcDbSpline
210
0.0
220
0.0
230
1.0
 70
    11
 71
     3
 72
    52
 73
    48
 74
     0
 42
0.0000000001
 43
0.0000000001
 12
1.0
 22
0.0
 32
0.0
 13
1.0
 23
0.0
 33
0.0
 40
0.0
 40
0.0
 40
0.0
 40
0.0
 40
0.0769230769230769
 40
0.0769230769230769
 40
0.0769230769230769
 40
0.0769230769230769
 40
0.1538461538461539
 40
0.1538461538461539
 40
0.1538461538461539
 40
0.1538461538461539
 40
0.2307692307692308
 40
0.2307692307692308
 40
0.2307692307692308
 40
0.2307692307692308
 40
0.3076923076923077
 40
0.3076923076923077
 40
0.3076923076923077
 40
0.3076923076923077
 40
0.3846153846153846
 40
0.3846153846153846
 40
0.3846153846153846
 40
0.3846153846153846
 40
0.4615384615384616
 40
0.4615384615384616
 40
0.4615384615384616
 40
0.4615384615384616
 40
0.5384615384615384
 40
0.5384615384615384
 40
0.5384615384615384
 40
0.5384615384615384
 40
0.6153846153846154
 40
0.6153846153846154
 40
0.6153846153846154
 40
0.6153846153846154
 40
0.6923076923076923
 40
0.6923076923076923
 40
0.6923076923076923
 40
0.6923076923076923
 40
0.7692307692307693
 40
0.7692307692307693
 40
0.7692307692307693
 40
0.7692307692307693
 40
0.8461538461538461
 40
0.8461538461538461
 40
0.8461538461538461
 40
0.8461538461538461
 40
1.0
 40
1.0
 40
1.0
 40
1.0
 10
59.4067
 20
-90.7788
 30
0.0
 10
56.998
 20
-90.7788
 30
0.0
 10
55.0451
 20
-92.7716
 30
0.0
 10
55.0451
 20
-95.2297
 30
0.0
 10
55.0451
 20
-95.2297
 30
0.0
 10
55.0451
 20
-96.9709
 30
0.0
 10
56.0236
 20
-98.4774
 30
0.0
 10
57.4502
 20
-99.2178
 30
0.0
 10
57.4502
 20
-99.2178
 30
0.0
 10
56.0238
 20
-99.9578
 30
0.0
 10
55.0451
 20
-101.4641
 30
0.0
 10
55.0451
 20
-103.2054
 30
0.0
 10
55.0451
 20
-103.2054
 30
0.0
 10
55.0451
 20
-105.6634
 30
0.0
 10
56.9978
 20
-107.6562
 30
0.0
 10
59.4067
 20
-107.6562
 30
0.0
 10
59.4067
 20
-107.6562
 30
0.0
 10
61.1242
 20
-107.6561
 30
0.0
 10
62.6096
 20
-106.6435
 30
0.0
 10
63.4861
 20
-105.1759
 30
0.0
 10
63.4861
 20
-105.1759
 30
0.0
 10
64.3638
 20
-106.6483
 30
0.0
 10
65.8467
 20
-107.6562
 30
0.0
 10
67.5609
 20
-107.6562
 30
0.0
 10
67.5609
 20
-107.6562
 30
0.0
 10
69.9697
 20
-107.6561
 30
0.0
 10
71.9225
 20
-105.6635
 30
0.0
 10
71.9225
 20
-103.2054
 30
0.0
 10
71.9225
 20
-103.2054
 30
0.0
 10
71.9225
 20
-101.464
 30
0.0
 10
70.9437
 20
-99.958
 30
0.0
 10
69.5185
 20
-99.2178
 30
0.0
 10
69.5185
 20
-99.2178
 30
0.0
 10
70.9438
 20
-98.4773
 30
0.0
 10
71.9225
 20
-96.971
 30
0.0
 10
71.9225
 20
-95.2297
 30
0.0
 10
71.9225
 20
-95.2297
 30
0.0
 10
71.9225
 20
-92.7716
 30
0.0
 10
69.9697
 20
-90.7788
 30
0.0
 10
67.5609
 20
-90.7788
 30
0.0
 10
67.5609
 20
-90.7788
 30
0.0
 10
65.8501
 20
-90.7788
 30
0.0
 10
64.3686
 20
-91.7836
 30
0.0
 10
63.4755
 20
-93.2298
 30
0.0
 10
63.4755
 20
-93.2298
 30
0.0
 10
62.5756
 20
-91.7681
 30
0.0
 10
61.1043
 20
-90.7788
 30
0.0
 10
59.4067
 20
-90.7788
 30
0.0
  0
SPLINE
  5
6D
330
1F
100
AcDbEntity
  8
layer 1
 62
     7
100
AcDbSpline
210
0.0
220
0.0
230
1.0
 70
    11
 71
     3
 72
    52
 73
    48
 74
     0
 42
0.0000000001
 43
0.0000000001
 12
1.0
 22
0.0
 32
0.0
 13
1.0
 23
0.0
 33
0.0
 40
0.0
 40
0.0
 40
0.0
 40
0.0
 40
0.0769230769230769
 40
0.0769230769230769
 40
0.0769230769230769
 40
0.0769230769230769
 40
0.1538461538461539
 40
0.1538461538461539
 40
0.1538461538461539
 40
0.1538461538461539
 40
0.2307692307692308
 40
0.2307692307692308
 40
0.2307692307692308
 40
0.2307692307692308
 40
0.3076923076923077
 40
0.3076923076923077
 40
0.3076923076923077
 40
0.3076923076923077
 40
0.3846153846153846
 40
0.3846153846153846
 40
0.3846153846153846
 40
0.3846153846153846
 40
0.4615384615384616
 40
0.4615384615384616
 40
0.4615384615384616
 40
0.4615384615384616
 40
0.5384615384615384
 40
0.5384615384615384
 40
0.5384615384615384
 40
0.5384615384615384
 40
0.6153846153846154
 40
0.6153846153846154
 40
0.6153846153846154
 40
0.6153846153846154
 40
0.6923076923076923
 40
0.6923076923076923
 40
0.6923076923076923
 40
0.6923076923076923
 40
0.7692307692307693
 40
0.7692307692307693
 40
0.7692307692307693
 40
0.7692307692307693
 40
0.8461538461538461
 40
0.8461538461538461
 40
0.8461538461538461
 40
0.8461538461538461
 40
1.0
 40
1.0
 40
1.0
 40
1.0
 10
129.6917
 20
100.6064
 30
0.0
 10
127.2831
 20
100.6064
 30
0.0
 10
125.3301
 20
98.6136
 30
0.0
 10
125.3301
 20
96.1555
 30
0.0
 10
125.3301
 20
96.1555
 30
0.0
 10
125.3301
 20
94.4143
 30
0.0
 10
126.3087
 20
92.9078
 30
0.0
 10
127.7353
 20
92.1674
 30
0.0
 10
127.7353
 20
92.1674
 30
0.0
 10
126.3088
 20
91.4274
 30
0.0
 10
125.3301
 20
89.9211
 30
0.0
 10
125.3301
 20
88.1798
 30
0.0
 10
125.3301
 20
88.1798
 30
0.0
 10
125.3301
 20
85.7218
 30
0.0
 10
127.2829
 20
83.729
 30
0.0
 10
129.6917
 20
83.729
 30
0.0
 10
129.6917
 20
83.729
 30
0.0
 10
131.4093
 20
83.7291
 30
0.0
 10
132.8946
 20
84.7417
 30
0.0
 10
133.7712
 20
86.2093
 30
0.0
 10
133.7712
 20
86.2093
 30
0.0
 10
134.6489
 20
84.7369
 30
0.0
 10
136.1318
 20
83.729
 30
0.0
 10
137.846
 20
83.729
 30
0.0
 10
137.846
 20
83.729
 30
0.0
 10
140.2548
 20
83.7291
 30
0.0
 10
142.2076
 20
85.7217
 30
0.0
 10
142.2076
 20
88.1798
 30
0.0
 10
142.2076
 20
88.1798
 30
0.0
 10
142.2076
 20
89.9212
 30
0.0
 10
141.2288
 20
91.4272
 30
0.0
 10
139.8036
 20
92.1674
 30
0.0
 10
139.8036
 20
92.1674
 30
0.0
 10
141.2289
 20
92.9079
 30
0.0
 10
142.2076
 20
94.4142
 30
0.0
 10
142.2076
 20
96.1555
 30
0.0
 10
142.2076
 20
96.1555
 30
0.0
 10
142.2076
 20
98.6136
 30
0.0
 10
140.2548
 20
100.6064
 30
0.0
 10
137.846
 20
100.6064
 30
0.0
 10
137.846
 20
100.6064
 30
0.0
 10
136.1351
 20
100.6064
 30
0.0
 10
134.6537
 20
99.6016
 30
0.0
 10
133.7606
 20
98.1554
 30
0.0
 10
133.7606
 20
98.1554
 30
0.0
 10
132.8607
 20
99.6171
 30
0.0
 10
131.3894
 20
100.6064
 30
0.0
 10
129.6917
 20
100.6064
 30
0.0
  0
SPLINE
  5
6E
330
1F
100
AcDbEntity
  8
layer 1
 62
     7
100
AcDbSpline
210
0.0
220
0.0
230
1.0
 70
    11
 71
     3
 72
    52
 73
    48
 74
     0
 42
0.0000000001
 43
0.0000000001
 12
1.0
 22
0.0
 32
0.0
 13
1.0
 23
0.0
 33
0.0
 40
0.0
 40
0.0
 40
0.0
 40
0.0
 40
0.0769230769230769
 40
0.0769230769230769
 40
0.0769230769230769
 40
0.0769230769230769
 40
0.1538461538461539
 40
0.1538461538461539
 40
0.1538461538461539
 40
0.1538461538461539
 40
0.2307692307692308
 40
0.2307692307692308
 40
0.2307692307692308
 40
0.2307692307692308
 40
0.3076923076923077
 40
0.3076923076923077
 40
0.3076923076923077
 40
0.3076923076923077
 40
0.3846153846153846
 40
0.3846153846153846
 40
0.3846153846153846
 40
0.3846153846153846
 40
0.4615384615384616
 40
0.4615384615384616
 40
0.4615384615384616
 40
0.4615384615384616
 40
0.5384615384615384
 40
0.5384615384615384
 40
0.5384615384615384
 40
0.5384615384615384
 40
0.6153846153846154
 40
0.6153846153846154
 40
0.6153846153846154
 40
0.6153846153846154
 40
0.6923076923076923
 40
0.6923076923076923
 40
0.6923076923076923
 40
0.6923076923076923
 40
0.7692307692307693
 40
0.7692307692307693
 40
0.7692307692307693
 40
0.7692307692307693
 40
0.8461538461538461
 40
0.8461538461538461
 40
0.8461538461538461
 40
0.8461538461538461
 40
1.0
 40
1.0
 40
1.0
 40
1.0
 10
129.6917
 20
76.6832
 30
0.0
 10
127.2831
 20
76.6832
 30
0.0
 10
125.3301
 20
74.6904
 30
0.0
 10
125.3301
 20
72.2323
 30
0.0
 10
125.3301
 20
72.2323
 30
0.0
 10
125.3301
 20
70.4911
 30
0.0
 10
126.3087
 20
68.9846
 30
0.0
 10
127.7353
 20
68.2443
 30
0.0
 10
127.7353
 20
68.2443
 30
0.0
 10
126.3088
 20
67.5043
 30
0.0
 10
125.3301
 20
65.998
 30
0.0
 10
125.3301
 20
64.2567
 30
0.0
 10
125.3301
 20
64.2567
 30
0.0
 10
125.3301
 20
61.7987
 30
0.0
 10
127.2829
 20
59.8058
 30
0.0
 10
129.6917
 20
59.8058
 30
0.0
 10
129.6917
 20
59.8058
 30
0.0
 10
131.4093
 20
59.8059
 30
0.0
 10
132.8946
 20
60.8185
 30
0.0
 10
133.7712
 20
62.2861
 30
0.0
 10
133.7712
 20
62.2861
 30
0.0
 10
134.6489
 20
60.8138
 30
0.0
 10
136.1318
 20
59.8058
 30
0.0
 10
137.846
 20
59.8058
 30
0.0
 10
137.846
 20
59.8058
 30
0.0
 10
140.2548
 20
59.8059
 30
0.0
 10
142.2076
 20
61.7986
 30
0.0
 10
142.2076
 20
64.2567
 30
0.0
 10
142.2076
 20
64.2567
 30
0.0
 10
142.2076
 20
65.9981
 30
0.0
 10
141.2288
 20
67.5041
 30
0.0
 10
139.8036
 20
68.2443
 30
0.0
 10
139.8036
 20
68.2443
 30
0.0
 10
141.2289
 20
68.9847
 30
0.0
 10
142.2076
 20
70.491
 30
0.0
 10
142.2076
 20
72.2323
 30
0.0
 10
142.2076
 20
72.2323
 30
0.0
 10
142.2076
 20
74.6904
 30
0.0
 10
140.2548
 20
76.6832
 30
0.0
 10
137.846
 20
76.6832
 30
0.0
 10
137.846
 20
76.6832
 30
0.0
 10
136.1351
 20
76.6832
 30
0.0
 10
134.6537
 20
75.6785
 30
0.0
 10
133.7606
 20
74.2323
 30
0.0
 10
133.7606
 20
74.2323
 30
0.0
 10
132.8607
 20
75.6939
 30
0.0
 10
131.3894
 20
76.6832
 30
0.0
 10
129.6917
 20
76.6832
 30
0.0
  0
SPLINE
  5
6F
330
1F
100
AcDbEntity
  8
layer 1
 62
     7
100
AcDbSpline
210
0.0
220
0.0
230
1.0
 70
    11
 71
     3
 72
    52
 73
    48
 74
     0
 42
0.0000000001
 43
0.0000000001
 12
1.0
 22
0.0
 32
0.0
 13
1.0
 23
0.0
 33
0.0
 40
0.0
 40
0.0
 40
0.0
 40
0.0
 40
0.0769230769230769
 40
0.0769230769230769
 40
0.0769230769230769
 40
0.0769230769230769
 40
0.1538461538461539
 40
0.1538461538461539
 40
0.1538461538461539
 40
0.1538461538461539
 40
0.2307692307692308
 40
0.2307692307692308
 40
0.2307692307692308
 40
0.2307692307692308
 40
0.3076923076923077
 40
0.3076923076923077
 40
0.3076923076923077
 40
0.3076923076923077
 40
0.3846153846153846
 40
0.3846153846153846
 40
0.3846153846153846
 40
0.3846153846153846
 40
0.4615384615384616
 40
0.4615384615384616
 40
0.4615384615384616
 40
0.4615384615384616
 40
0.5384615384615384
 40
0.5384615384615384
 40
0.5384615384615384
 40
0.5384615384615384
 40
0.6153846153846154
 40
0.6153846153846154
 40
0.6153846153846154
 40
0.6153846153846154
 40
0.6923076923076923
 40
0.6923076923076923
 40
0.6923076923076923
 40
0.6923076923076923
 40
0.7692307692307693
 40
0.7692307692307693
 40
0.7692307692307693
 40
0.7692307692307693
 40
0.8461538461538461
 40
0.8461538461538461
 40
0.8461538461538461
 40
0.8461538461538461
 40
1.0
 40
1.0
 40
1.0
 40
1.0
 10
129.6917
 20
52.7601
 30
0.0
 10
127.2831
 20
52.7601
 30
0.0
 10
125.3301
 20
50.7673
 30
0.0
 10
125.3301
 20
48.3092
 30
0.0
 10
125.3301
 20
48.3092
 30
0.0
 10
125.3301
 20
46.568
 30
0.0
 10
126.3087
 20
45.0615
 30
0.0
 10
127.7353
 20
44.3211
 30
0.0
 10
127.7353
 20
44.3211
 30
0.0
 10
126.3088
 20
43.5811
 30
0.0
 10
125.3301
 20
42.0748
 30
0.0
 10
125.3301
 20
40.3335
 30
0.0
 10
125.3301
 20
40.3335
 30
0.0
 10
125.3301
 20
37.8755
 30
0.0
 10
127.2829
 20
35.8827
 30
0.0
 10
129.6917
 20
35.8827
 30
0.0
 10
129.6917
 20
35.8827
 30
0.0
 10
131.4093
 20
35.8828
 30
0.0
 10
132.8946
 20
36.8954
 30
0.0
 10
133.7712
 20
38.363
 30
0.0
 10
133.7712
 20
38.363
 30
0.0
 10
134.6489
 20
36.8906
 30
0.0
 10
136.1318
 20
35.8827
 30
0.0
 10
137.846
 20
35.8827
 30
0.0
 10
137.846
 20
35.8827
 30
0.0
 10
140.2548
 20
35.8828
 30
0.0
 10
142.2076
 20
37.8754
 30
0.0
 10
142.2076
 20
40.3335
 30
0.0
 10
142.2076
 20
40.3335
 30
0.0
 10
142.2076
 20
42.0749
 30
0.0
 10
141.2288
 20
43.5809
 30
0.0
 10
139.8036
 20
44.3211
 30
0.0
 10
139.8036
 20
44.3211
 30
0.0
 10
141.2289
 20
45.0616
 30
0.0
 10
142.2076
 20
46.5679
 30
0.0
 10
142.2076
 20
48.3092
 30
0.0
 10
142.2076
 20
48.3092
 30
0.0
 10
142.2076
 20
50.7673
 30
0.0
 10
140.2548
 20
52.7601
 30
0.0
 10
137.846
 20
52.7601
 30
0.0
 10
137.846
 20
52.7601
 30
0.0
 10
136.1351
 20
52.7601
 30
0.0
 10
134.6537
 20
51.7553
 30
0.0
 10
133.7606
 20
50.3091
 30
0.0
 10
133.7606
 20
50.3091
 30
0.0
 10
132.8607
 20
51.7708
 30
0.0
 10
131.3894
 20
52.7601
 30
0.0
 10
129.6917
 20
52.7601
 30
0.0
  0
SPLINE
  5
70
330
1F
100
AcDbEntity
  8
layer 1
 62
     7
100
AcDbSpline
210
0.0
220
0.0
230
1.0
 70
    11
 71
     3
 72
    52
 73
    48
 74
     0
 42
0.0000000001
 43
0.0000000001
 12
1.0
 22
0.0
 32
0.0
 13
1.0
 23
0.0
 33
0.0
 40
0.0
 40
0.0
 40
0.0
 40
0.0
 40
0.0769230769230769
 40
0.0769230769230769
 40
0.0769230769230769
 40
0.0769230769230769
 40
0.1538461538461539
 40
0.1538461538461539
 40
0.1538461538461539
 40
0.1538461538461539
 40
0.2307692307692308
 40
0.2307692307692308
 40
0.2307692307692308
 40
0.2307692307692308
 40
0.3076923076923077
 40
0.3076923076923077
 40
0.3076923076923077
 40
0.3076923076923077
 40
0.3846153846153846
 40
0.3846153846153846
 40
0.3846153846153846
 40
0.3846153846153846
 40
0.4615384615384616
 40
0.4615384615384616
 40
0.4615384615384616
 40
0.4615384615384616
 40
0.5384615384615384
 40
0.5384615384615384
 40
0.5384615384615384
 40
0.5384615384615384
 40
0.6153846153846154
 40
0.6153846153846154
 40
0.6153846153846154
 40
0.6153846153846154
 40
0.6923076923076923
 40
0.6923076923076923
 40
0.6923076923076923
 40
0.6923076923076923
 40
0.7692307692307693
 40
0.7692307692307693
 40
0.7692307692307693
 40
0.7692307692307693
 40
0.8461538461538461
 40
0.8461538461538461
 40
0.8461538461538461
 40
0.8461538461538461
 40
1.0
 40
1.0
 40
1.0
 40
1.0
 10
129.6917
 20
28.8369
 30
0.0
 10
127.2831
 20
28.8369
 30
0.0
 10
125.3301
 20
26.8441
 30
0.0
 10
125.3301
 20
24.386
 30
0.0
 10
125.3301
 20
24.386
 30
0.0
 10
125.3301
 20
22.6448
 30
0.0
 10
126.3087
 20
21.1383
 30
0.0
 10
127.7353
 20
20.398
 30
0.0
 10
127.7353
 20
20.398
 30
0.0
 10
126.3088
 20
19.658
 30
0.0
 10
125.3301
 20
18.1517
 30
0.0
 10
125.3301
 20
16.4104
 30
0.0
 10
125.3301
 20
16.4104
 30
0.0
 10
125.3301
 20
13.9524
 30
0.0
 10
127.2829
 20
11.9595
 30
0.0
 10
129.6917
 20
11.9595
 30
0.0
 10
129.6917
 20
11.9595
 30
0.0
 10
131.4093
 20
11.9596
 30
0.0
 10
132.8946
 20
12.9722
 30
0.0
 10
133.7712
 20
14.4398
 30
0.0
 10
133.7712
 20
14.4398
 30
0.0
 10
134.6489
 20
12.9675
 30
0.0
 10
136.1318
 20
11.9595
 30
0.0
 10
137.846
 20
11.9595
 30
0.0
 10
137.846
 20
11.9595
 30
0.0
 10
140.2548
 20
11.9596
 30
0.0
 10
142.2076
 20
13.9523
 30
0.0
 10
142.2076
 20
16.4104
 30
0.0
 10
142.2076
 20
16.4104
 30
0.0
 10
142.2076
 20
18.1518
 30
0.0
 10
141.2288
 20
19.6578
 30
0.0
 10
139.8036
 20
20.398
 30
0.0
 10
139.8036
 20
20.398
 30
0.0
 10
141.2289
 20
21.1384
 30
0.0
 10
142.2076
 20
22.6447
 30
0.0
 10
142.2076
 20
24.386
 30
0.0
 10
142.2076
 20
24.386
 30
0.0
 10
142.2076
 20
26.8441
 30
0.0
 10
140.2548
 20
28.8369
 30
0.0
 10
137.846
 20
28.8369
 30
0.0
 10
137.846
 20
28.8369
 30
0.0
 10
136.1351
 20
28.8369
 30
0.0
 10
134.6537
 20
27.8322
 30
0.0
 10
133.7606
 20
26.386
 30
0.0
 10
133.7606
 20
26.386
 30
0.0
 10
132.8607
 20
27.8476
 30
0.0
 10
131.3894
 20
28.8369
 30
0.0
 10
129.6917
 20
28.8369
 30
0.0
  0
SPLINE
  5
71
330
1F
100
AcDbEntity
  8
layer 1
 62
     7
100
AcDbSpline
210
0.0
220
0.0
230
1.0
 70
    11
 71
     3
 72
    52
 73
    48
 74
     0
 42
0.0000000001
 43
0.0000000001
 12
1.0
 22
0.0
 32
0.0
 13
1.0
 23
0.0
 33
0.0
 40
0.0
 40
0.0
 40
0.0
 40
0.0
 40
0.0769230769230769
 40
0.0769230769230769
 40
0.0769230769230769
 40
0.0769230769230769
 40
0.1538461538461539
 40
0.1538461538461539
 40
0.1538461538461539
 40
0.1538461538461539
 40
0.2307692307692308
 40
0.2307692307692308
 40
0.2307692307692308
 40
0.2307692307692308
 40
0.3076923076923077
 40
0.3076923076923077
 40
0.3076923076923077
 40
0.3076923076923077
 40
0.3846153846153846
 40
0.3846153846153846
 40
0.3846153846153846
 40
0.3846153846153846
 40
0.4615384615384616
 40
0.4615384615384616
 40
0.4615384615384616
 40
0.4615384615384616
 40
0.5384615384615384
 40
0.5384615384615384
 40
0.5384615384615384
 40
0.5384615384615384
 40
0.6153846153846154
 40
0.6153846153846154
 40
0.6153846153846154
 40
0.6153846153846154
 40
0.6923076923076923
 40
0.6923076923076923
 40
0.6923076923076923
 40
0.6923076923076923
 40
0.7692307692307693
 40
0.7692307692307693
 40
0.7692307692307693
 40
0.7692307692307693
 40
0.8461538461538461
 40
0.8461538461538461
 40
0.8461538461538461
 40
0.8461538461538461
 40
1.0
 40
1.0
 40
1.0
 40
1.0
 10
129.6917
 20
4.9138
 30
0.0
 10
127.2831
 20
4.9138
 30
0.0
 10
125.3301
 20
2.921
 30
0.0
 10
125.3301
 20
0.4629
 30
0.0
 10
125.3301
 20
0.4629
 30
0.0
 10
125.3301
 20
-1.2783
 30
0.0
 10
126.3087
 20
-2.7848
 30
0.0
 10
127.7353
 20
-3.5252
 30
0.0
 10
127.7353
 20
-3.5252
 30
0.0
 10
126.3088
 20
-4.2652
 30
0.0
 10
125.3301
 20
-5.7715
 30
0.0
 10
125.3301
 20
-7.5128
 30
0.0
 10
125.3301
 20
-7.5128
 30
0.0
 10
125.3301
 20
-9.9708
 30
0.0
 10
127.2829
 20
-11.9636
 30
0.0
 10
129.6917
 20
-11.9636
 30
0.0
 10
129.6917
 20
-11.9636
 30
0.0
 10
131.4093
 20
-11.9635
 30
0.0
 10
132.8946
 20
-10.9509
 30
0.0
 10
133.7712
 20
-9.4833
 30
0.0
 10
133.7712
 20
-9.4833
 30
0.0
 10
134.6489
 20
-10.9557
 30
0.0
 10
136.1318
 20
-11.9636
 30
0.0
 10
137.846
 20
-11.9636
 30
0.0
 10
137.846
 20
-11.9636
 30
0.0
 10
140.2548
 20
-11.9635
 30
0.0
 10
142.2076
 20
-9.9709
 30
0.0
 10
142.2076
 20
-7.5128
 30
0.0
 10
142.2076
 20
-7.5128
 30
0.0
 10
142.2076
 20
-5.7714
 30
0.0
 10
141.2288
 20
-4.2654
 30
0.0
 10
139.8036
 20
-3.5252
 30
0.0
 10
139.8036
 20
-3.5252
 30
0.0
 10
141.2289
 20
-2.7847
 30
0.0
 10
142.2076
 20
-1.2784
 30
0.0
 10
142.2076
 20
0.4629
 30
0.0
 10
142.2076
 20
0.4629
 30
0.0
 10
142.2076
 20
2.921
 30
0.0
 10
140.2548
 20
4.9138
 30
0.0
 10
137.846
 20
4.9138
 30
0.0
 10
137.846
 20
4.9138
 30
0.0
 10
136.1351
 20
4.9138
 30
0.0
 10
134.6537
 20
3.909
 30
0.0
 10
133.7606
 20
2.4628
 30
0.0
 10
133.7606
 20
2.4628
 30
0.0
 10
132.8607
 20
3.9245
 30
0.0
 10
131.3894
 20
4.9138
 30
0.0
 10
129.6917
 20
4.9138
 30
0.0
  0
SPLINE
  5
72
330
1F
100
AcDbEntity
  8
layer 1
 62
     7
100
AcDbSpline
210
0.0
220
0.0
230
1.0
 70
    11
 71
     3
 72
    52
 73
    48
 74
     0
 42
0.0000000001
 43
0.0000000001
 12
1.0
 22
0.0
 32
0.0
 13
1.0
 23
0.0
 33
0.0
 40
0.0
 40
0.0
 40
0.0
 40
0.0
 40
0.0769230769230769
 40
0.0769230769230769
 40
0.0769230769230769
 40
0.0769230769230769
 40
0.1538461538461539
 40
0.1538461538461539
 40
0.1538461538461539
 40
0.1538461538461539
 40
0.2307692307692308
 40
0.2307692307692308
 40
0.2307692307692308
 40
0.2307692307692308
 40
0.3076923076923077
 40
0.3076923076923077
 40
0.3076923076923077
 40
0.3076923076923077
 40
0.3846153846153846
 40
0.3846153846153846
 40
0.3846153846153846
 40
0.3846153846153846
 40
0.4615384615384616
 40
0.4615384615384616
 40
0.4615384615384616
 40
0.4615384615384616
 40
0.5384615384615384
 40
0.5384615384615384
 40
0.5384615384615384
 40
0.5384615384615384
 40
0.6153846153846154
 40
0.6153846153846154
 40
0.6153846153846154
 40
0.6153846153846154
 40
0.6923076923076923
 40
0.6923076923076923
 40
0.6923076923076923
 40
0.6923076923076923
 40
0.7692307692307693
 40
0.7692307692307693
 40
0.7692307692307693
 40
0.7692307692307693
 40
0.8461538461538461
 40
0.8461538461538461
 40
0.8461538461538461
 40
0.8461538461538461
 40
1.0
 40
1.0
 40
1.0
 40
1.0
 10
129.6917
 20
-19.0094
 30
0.0
 10
127.2831
 20
-19.0094
 30
0.0
 10
125.3301
 20
-21.0022
 30
0.0
 10
125.3301
 20
-23.4603
 30
0.0
 10
125.3301
 20
-23.4603
 30
0.0
 10
125.3301
 20
-25.2015
 30
0.0
 10
126.3087
 20
-26.708
 30
0.0
 10
127.7353
 20
-27.4483
 30
0.0
 10
127.7353
 20
-27.4483
 30
0.0
 10
126.3088
 20
-28.1883
 30
0.0
 10
125.3301
 20
-29.6946
 30
0.0
 10
125.3301
 20
-31.4359
 30
0.0
 10
125.3301
 20
-31.4359
 30
0.0
 10
125.3301
 20
-33.8939
 30
0.0
 10
127.2829
 20
-35.8868
 30
0.0
 10
129.6917
 20
-35.8868
 30
0.0
 10
129.6917
 20
-35.8868
 30
0.0
 10
131.4093
 20
-35.8867
 30
0.0
 10
132.8946
 20
-34.8741
 30
0.0
 10
133.7712
 20
-33.4065
 30
0.0
 10
133.7712
 20
-33.4065
 30
0.0
 10
134.6489
 20
-34.8788
 30
0.0
 10
136.1318
 20
-35.8868
 30
0.0
 10
137.846
 20
-35.8868
 30
0.0
 10
137.846
 20
-35.8868
 30
0.0
 10
140.2548
 20
-35.8867
 30
0.0
 10
142.2076
 20
-33.894
 30
0.0
 10
142.2076
 20
-31.4359
 30
0.0
 10
142.2076
 20
-31.4359
 30
0.0
 10
142.2076
 20
-29.6945
 30
0.0
 10
141.2288
 20
-28.1885
 30
0.0
 10
139.8036
 20
-27.4483
 30
0.0
 10
139.8036
 20
-27.4483
 30
0.0
 10
141.2289
 20
-26.7079
 30
0.0
 10
142.2076
 20
-25.2016
 30
0.0
 10
142.2076
 20
-23.4603
 30
0.0
 10
142.2076
 20
-23.4603
 30
0.0
 10
142.2076
 20
-21.0022
 30
0.0
 10
140.2548
 20
-19.0094
 30
0.0
 10
137.846
 20
-19.0094
 30
0.0
 10
137.846
 20
-19.0094
 30
0.0
 10
136.1351
 20
-19.0094
 30
0.0
 10
134.6537
 20
-20.0141
 30
0.0
 10
133.7606
 20
-21.4603
 30
0.0
 10
133.7606
 20
-21.4603
 30
0.0
 10
132.8607
 20
-19.9987
 30
0.0
 10
131.3894
 20
-19.0094
 30
0.0
 10
129.6917
 20
-19.0094
 30
0.0
  0
SPLINE
  5
73
330
1F
100
AcDbEntity
  8
layer 1
 62
     7
100
AcDbSpline
210
0.0
220
0.0
230
1.0
 70
    11
 71
     3
 72
    52
 73
    48
 74
     0
 42
0.0000000001
 43
0.0000000001
 12
1.0
 22
0.0
 32
0.0
 13
1.0
 23
0.0
 33
0.0
 40
0.0
 40
0.0
 40
0.0
 40
0.0
 40
0.0769230769230769
 40
0.0769230769230769
 40
0.0769230769230769
 40
0.0769230769230769
 40
0.1538461538461539
 40
0.1538461538461539
 40
0.1538461538461539
 40
0.1538461538461539
 40
0.2307692307692308
 40
0.2307692307692308
 40
0.2307692307692308
 40
0.2307692307692308
 40
0.3076923076923077
 40
0.3076923076923077
 40
0.3076923076923077
 40
0.3076923076923077
 40
0.3846153846153846
 40
0.3846153846153846
 40
0.3846153846153846
 40
0.3846153846153846
 40
0.4615384615384616
 40
0.4615384615384616
 40
0.4615384615384616
 40
0.4615384615384616
 40
0.5384615384615384
 40
0.5384615384615384
 40
0.5384615384615384
 40
0.5384615384615384
 40
0.6153846153846154
 40
0.6153846153846154
 40
0.6153846153846154
 40
0.6153846153846154
 40
0.6923076923076923
 40
0.6923076923076923
 40
0.6923076923076923
 40
0.6923076923076923
 40
0.7692307692307693
 40
0.7692307692307693
 40
0.7692307692307693
 40
0.7692307692307693
 40
0.8461538461538461
 40
0.8461538461538461
 40
0.8461538461538461
 40
0.8461538461538461
 40
1.0
 40
1.0
 40
1.0
 40
1.0
 10
129.6917
 20
-42.9325
 30
0.0
 10
127.2831
 20
-42.9325
 30
0.0
 10
125.3301
 20
-44.9253
 30
0.0
 10
125.3301
 20
-47.3834
 30
0.0
 10
125.3301
 20
-47.3834
 30
0.0
 10
125.3301
 20
-49.1246
 30
0.0
 10
126.3087
 20
-50.6311
 30
0.0
 10
127.7353
 20
-51.3715
 30
0.0
 10
127.7353
 20
-51.3715
 30
0.0
 10
126.3088
 20
-52.1115
 30
0.0
 10
125.3301
 20
-53.6178
 30
0.0
 10
125.3301
 20
-55.3591
 30
0.0
 10
125.3301
 20
-55.3591
 30
0.0
 10
125.3301
 20
-57.8171
 30
0.0
 10
127.2829
 20
-59.8099
 30
0.0
 10
129.6917
 20
-59.8099
 30
0.0
 10
129.6917
 20
-59.8099
 30
0.0
 10
131.4093
 20
-59.8098
 30
0.0
 10
132.8946
 20
-58.7972
 30
0.0
 10
133.7712
 20
-57.3296
 30
0.0
 10
133.7712
 20
-57.3296
 30
0.0
 10
134.6489
 20
-58.802
 30
0.0
 10
136.1318
 20
-59.8099
 30
0.0
 10
137.846
 20
-59.8099
 30
0.0
 10
137.846
 20
-59.8099
 30
0.0
 10
140.2548
 20
-59.8098
 30
0.0
 10
142.2076
 20
-57.8172
 30
0.0
 10
142.2076
 20
-55.3591
 30
0.0
 10
142.2076
 20
-55.3591
 30
0.0
 10
142.2076
 20
-53.6177
 30
0.0
 10
141.2288
 20
-52.1117
 30
0.0
 10
139.8036
 20
-51.3715
 30
0.0
 10
139.8036
 20
-51.3715
 30
0.0
 10
141.2289
 20
-50.631
 30
0.0
 10
142.2076
 20
-49.1247
 30
0.0
 10
142.2076
 20
-47.3834
 30
0.0
 10
142.2076
 20
-47.3834
 30
0.0
 10
142.2076
 20
-44.9253
 30
0.0
 10
140.2548
 20
-42.9325
 30
0.0
 10
137.846
 20
-42.9325
 30
0.0
 10
137.846
 20
-42.9325
 30
0.0
 10
136.1351
 20
-42.9325
 30
0.0
 10
134.6537
 20
-43.9373
 30
0.0
 10
133.7606
 20
-45.3835
 30
0.0
 10
133.7606
 20
-45.3835
 30
0.0
 10
132.8607
 20
-43.9218
 30
0.0
 10
131.3894
 20
-42.9325
 30
0.0
 10
129.6917
 20
-42.9325
 30
0.0
  0
SPLINE
  5
74
330
1F
100
AcDbEntity
  8
layer 1
 62
     7
100
AcDbSpline
210
0.0
220
0.0
230
1.0
 70
    11
 71
     3
 72
    52
 73
    48
 74
     0
 42
0.0000000001
 43
0.0000000001
 12
1.0
 22
0.0
 32
0.0
 13
1.0
 23
0.0
 33
0.0
 40
0.0
 40
0.0
 40
0.0
 40
0.0
 40
0.0769230769230769
 40
0.0769230769230769
 40
0.0769230769230769
 40
0.0769230769230769
 40
0.1538461538461539
 40
0.1538461538461539
 40
0.1538461538461539
 40
0.1538461538461539
 40
0.2307692307692308
 40
0.2307692307692308
 40
0.2307692307692308
 40
0.2307692307692308
 40
0.3076923076923077
 40
0.3076923076923077
 40
0.3076923076923077
 40
0.3076923076923077
 40
0.3846153846153846
 40
0.3846153846153846
 40
0.3846153846153846
 40
0.3846153846153846
 40
0.4615384615384616
 40
0.4615384615384616
 40
0.4615384615384616
 40
0.4615384615384616
 40
0.5384615384615384
 40
0.5384615384615384
 40
0.5384615384615384
 40
0.5384615384615384
 40
0.6153846153846154
 40
0.6153846153846154
 40
0.6153846153846154
 40
0.6153846153846154
 40
0.6923076923076923
 40
0.6923076923076923
 40
0.6923076923076923
 40
0.6923076923076923
 40
0.7692307692307693
 40
0.7692307692307693
 40
0.7692307692307693
 40
0.7692307692307693
 40
0.8461538461538461
 40
0.8461538461538461
 40
0.8461538461538461
 40
0.8461538461538461
 40
1.0
 40
1.0
 40
1.0
 40
1.0
 10
129.6917
 20
-66.8557
 30
0.0
 10
127.2831
 20
-66.8557
 30
0.0
 10
125.3301
 20
-68.8485
 30
0.0
 10
125.3301
 20
-71.3066
 30
0.0
 10
125.3301
 20
-71.3066
 30
0.0
 10
125.3301
 20
-73.0478
 30
0.0
 10
126.3087
 20
-74.5543
 30
0.0
 10
127.7353
 20
-75.2946
 30
0.0
 10
127.7353
 20
-75.2946
 30
0.0
 10
126.3088
 20
-76.0346
 30
0.0
 10
125.3301
 20
-77.5409
 30
0.0
 10
125.3301
 20
-79.2822
 30
0.0
 10
125.3301
 20
-79.2822
 30
0.0
 10
125.3301
 20
-81.7402
 30
0.0
 10
127.2829
 20
-83.7331
 30
0.0
 10
129.6917
 20
-83.7331
 30
0.0
 10
129.6917
 20
-83.7331
 30
0.0
 10
131.4093
 20
-83.733
 30
0.0
 10
132.8946
 20
-82.7204
 30
0.0
 10
133.7712
 20
-81.2528
 30
0.0
 10
133.7712
 20
-81.2528
 30
0.0
 10
134.6489
 20
-82.7251
 30
0.0
 10
136.1318
 20
-83.7331
 30
0.0
 10
137.846
 20
-83.7331
 30
0.0
 10
137.846
 20
-83.7331
 30
0.0
 10
140.2548
 20
-83.733
 30
0.0
 10
142.2076
 20
-81.7403
 30
0.0
 10
142.2076
 20
-79.2822
 30
0.0
 10
142.2076
 20
-79.2822
 30
0.0
 10
142.2076
 20
-77.5408
 30
0.0
 10
141.2288
 20
-76.0348
 30
0.0
 10
139.8036
 20
-75.2946
 30
0.0
 10
139.8036
 20
-75.2946
 30
0.0
 10
141.2289
 20
-74.5542
 30
0.0
 10
142.2076
 20
-73.0479
 30
0.0
 10
142.2076
 20
-71.3066
 30
0.0
 10
142.2076
 20
-71.3066
 30
0.0
 10
142.2076
 20
-68.8485
 30
0.0
 10
140.2548
 20
-66.8557
 30
0.0
 10
137.846
 20
-66.8557
 30
0.0
 10
137.846
 20
-66.8557
 30
0.0
 10
136.1351
 20
-66.8557
 30
0.0
 10
134.6537
 20
-67.8604
 30
0.0
 10
133.7606
 20
-69.3066
 30
0.0
 10
133.7606
 20
-69.3066
 30
0.0
 10
132.8607
 20
-67.845
 30
0.0
 10
131.3894
 20
-66.8557
 30
0.0
 10
129.6917
 20
-66.8557
 30
0.0
  0
SPLINE
  5
75
330
1F
100
AcDbEntity
  8
layer 1
 62
     7
100
AcDbSpline
210
0.0
220
0.0
230
1.0
 70
    11
 71
     3
 72
    52
 73
    48
 74
     0
 42
0.0000000001
 43
0.0000000001
 12
1.0
 22
0.0
 32
0.0
 13
1.0
 23
0.0
 33
0.0
 40
0.0
 40
0.0
 40
0.0
 40
0.0
 40
0.0769230769230769
 40
0.0769230769230769
 40
0.0769230769230769
 40
0.0769230769230769
 40
0.1538461538461539
 40
0.1538461538461539
 40
0.1538461538461539
 40
0.1538461538461539
 40
0.2307692307692308
 40
0.2307692307692308
 40
0.2307692307692308
 40
0.2307692307692308
 40
0.3076923076923077
 40
0.3076923076923077
 40
0.3076923076923077
 40
0.3076923076923077
 40
0.3846153846153846
 40
0.3846153846153846
 40
0.3846153846153846
 40
0.3846153846153846
 40
0.4615384615384616
 40
0.4615384615384616
 40
0.4615384615384616
 40
0.4615384615384616
 40
0.5384615384615384
 40
0.5384615384615384
 40
0.5384615384615384
 40
0.5384615384615384
 40
0.6153846153846154
 40
0.6153846153846154
 40
0.6153846153846154
 40
0.6153846153846154
 40
0.6923076923076923
 40
0.6923076923076923
 40
0.6923076923076923
 40
0.6923076923076923
 40
0.7692307692307693
 40
0.7692307692307693
 40
0.7692307692307693
 40
0.7692307692307693
 40
0.8461538461538461
 40
0.8461538461538461
 40
0.8461538461538461
 40
0.8461538461538461
 40
1.0
 40
1.0
 40
1.0
 40
1.0
 10
129.6917
 20
-90.7788
 30
0.0
 10
127.2831
 20
-90.7788
 30
0.0
 10
125.3301
 20
-92.7716
 30
0.0
 10
125.3301
 20
-95.2297
 30
0.0
 10
125.3301
 20
-95.2297
 30
0.0
 10
125.3301
 20
-96.9709
 30
0.0
 10
126.3087
 20
-98.4774
 30
0.0
 10
127.7353
 20
-99.2178
 30
0.0
 10
127.7353
 20
-99.2178
 30
0.0
 10
126.3088
 20
-99.9578
 30
0.0
 10
125.3301
 20
-101.4641
 30
0.0
 10
125.3301
 20
-103.2054
 30
0.0
 10
125.3301
 20
-103.2054
 30
0.0
 10
125.3301
 20
-105.6634
 30
0.0
 10
127.2829
 20
-107.6562
 30
0.0
 10
129.6917
 20
-107.6562
 30
0.0
 10
129.6917
 20
-107.6562
 30
0.0
 10
131.4093
 20
-107.6561
 30
0.0
 10
132.8946
 20
-106.6435
 30
0.0
 10
133.7712
 20
-105.1759
 30
0.0
 10
133.7712
 20
-105.1759
 30
0.0
 10
134.6489
 20
-106.6483
 30
0.0
 10
136.1318
 20
-107.6562
 30
0.0
 10
137.846
 20
-107.6562
 30
0.0
 10
137.846
 20
-107.6562
 30
0.0
 10
140.2548
 20
-107.6561
 30
0.0
 10
142.2076
 20
-105.6635
 30
0.0
 10
142.2076
 20
-103.2054
 30
0.0
 10
142.2076
 20
-103.2054
 30
0.0
 10
142.2076
 20
-101.464
 30
0.0
 10
141.2288
 20
-99.958
 30
0.0
 10
139.8036
 20
-99.2178
 30
0.0
 10
139.8036
 20
-99.2178
 30
0.0
 10
141.2289
 20
-98.4773
 30
0.0
 10
142.2076
 20
-96.971
 30
0.0
 10
142.2076
 20
-95.2297
 30
0.0
 10
142.2076
 20
-95.2297
 30
0.0
 10
142.2076
 20
-92.7716
 30
0.0
 10
140.2548
 20
-90.7788
 30
0.0
 10
137.846
 20
-90.7788
 30
0.0
 10
137.846
 20
-90.7788
 30
0.0
 10
136.1351
 20
-90.7788
 30
0.0
 10
134.6537
 20
-91.7836
 30
0.0
 10
133.7606
 20
-93.2298
 30
0.0
 10
133.7606
 20
-93.2298
 30
0.0
 10
132.8607
 20
-91.7681
 30
0.0
 10
131.3894
 20
-90.7788
 30
0.0
 10
129.6917
 20
-90.7788
 30
0.0
  0
SPLINE
  5
76
330
1F
100
AcDbEntity
  8
layer 1
 62
     7
100
AcDbSpline
210
0.0
220
0.0
230
1.0
 70
    11
 71
     3
 72
    52
 73
    48
 74
     0
 42
0.0000000001
 43
0.0000000001
 12
1.0
 22
0.0
 32
0.0
 13
1.0
 23
0.0
 33
0.0
 40
0.0
 40
0.0
 40
0.0
 40
0.0
 40
0.0769230769230769
 40
0.0769230769230769
 40
0.0769230769230769
 40
0.0769230769230769
 40
0.1538461538461539
 40
0.1538461538461539
 40
0.1538461538461539
 40
0.1538461538461539
 40
0.2307692307692308
 40
0.2307692307692308
 40
0.2307692307692308
 40
0.2307692307692308
 40
0.3076923076923077
 40
0.3076923076923077
 40
0.3076923076923077
 40
0.3076923076923077
 40
0.3846153846153846
 40
0.3846153846153846
 40
0.3846153846153846
 40
0.3846153846153846
 40
0.4615384615384616
 40
0.4615384615384616
 40
0.4615384615384616
 40
0.4615384615384616
 40
0.5384615384615384
 40
0.5384615384615384
 40
0.5384615384615384
 40
0.5384615384615384
 40
0.6153846153846154
 40
0.6153846153846154
 40
0.6153846153846154
 40
0.6153846153846154
 40
0.6923076923076923
 40
0.6923076923076923
 40
0.6923076923076923
 40
0.6923076923076923
 40
0.7692307692307693
 40
0.7692307692307693
 40
0.7692307692307693
 40
0.7692307692307693
 40
0.8461538461538461
 40
0.8461538461538461
 40
0.8461538461538461
 40
0.8461538461538461
 40
1.0
 40
1.0
 40
1.0
 40
1.0
 10
153.1201
 20
100.6064
 30
0.0
 10
150.7114
 20
100.6064
 30
0.0
 10
148.7585
 20
98.6136
 30
0.0
 10
148.7585
 20
96.1555
 30
0.0
 10
148.7585
 20
96.1555
 30
0.0
 10
148.7585
 20
94.4143
 30
0.0
 10
149.737
 20
92.9078
 30
0.0
 10
151.1637
 20
92.1674
 30
0.0
 10
151.1637
 20
92.1674
 30
0.0
 10
149.7372
 20
91.4274
 30
0.0
 10
148.7585
 20
89.9211
 30
0.0
 10
148.7585
 20
88.1798
 30
0.0
 10
148.7585
 20
88.1798
 30
0.0
 10
148.7585
 20
85.7218
 30
0.0
 10
150.7112
 20
83.729
 30
0.0
 10
153.1201
 20
83.729
 30
0.0
 10
153.1201
 20
83.729
 30
0.0
 10
154.8377
 20
83.7291
 30
0.0
 10
156.323
 20
84.7417
 30
0.0
 10
157.1995
 20
86.2093
 30
0.0
 10
157.1995
 20
86.2093
 30
0.0
 10
158.0772
 20
84.7369
 30
0.0
 10
159.5602
 20
83.729
 30
0.0
 10
161.2743
 20
83.729
 30
0.0
 10
161.2743
 20
83.729
 30
0.0
 10
163.6832
 20
83.7291
 30
0.0
 10
165.6359
 20
85.7217
 30
0.0
 10
165.6359
 20
88.1798
 30
0.0
 10
165.6359
 20
88.1798
 30
0.0
 10
165.6359
 20
89.9212
 30
0.0
 10
164.6572
 20
91.4272
 30
0.0
 10
163.2319
 20
92.1674
 30
0.0
 10
163.2319
 20
92.1674
 30
0.0
 10
164.6572
 20
92.9079
 30
0.0
 10
165.6359
 20
94.4142
 30
0.0
 10
165.6359
 20
96.1555
 30
0.0
 10
165.6359
 20
96.1555
 30
0.0
 10
165.6359
 20
98.6136
 30
0.0
 10
163.6832
 20
100.6064
 30
0.0
 10
161.2743
 20
100.6064
 30
0.0
 10
161.2743
 20
100.6064
 30
0.0
 10
159.5635
 20
100.6064
 30
0.0
 10
158.082
 20
99.6016
 30
0.0
 10
157.1889
 20
98.1554
 30
0.0
 10
157.1889
 20
98.1554
 30
0.0
 10
156.289
 20
99.6171
 30
0.0
 10
154.8177
 20
100.6064
 30
0.0
 10
153.1201
 20
100.6064
 30
0.0
  0
SPLINE
  5
77
330
1F
100
AcDbEntity
  8
layer 1
 62
     7
100
AcDbSpline
210
0.0
220
0.0
230
1.0
 70
    11
 71
     3
 72
    52
 73
    48
 74
     0
 42
0.0000000001
 43
0.0000000001
 12
1.0
 22
0.0
 32
0.0
 13
1.0
 23
0.0
 33
0.0
 40
0.0
 40
0.0
 40
0.0
 40
0.0
 40
0.0769230769230769
 40
0.0769230769230769
 40
0.0769230769230769
 40
0.0769230769230769
 40
0.1538461538461539
 40
0.1538461538461539
 40
0.1538461538461539
 40
0.1538461538461539
 40
0.2307692307692308
 40
0.2307692307692308
 40
0.2307692307692308
 40
0.2307692307692308
 40
0.3076923076923077
 40
0.3076923076923077
 40
0.3076923076923077
 40
0.3076923076923077
 40
0.3846153846153846
 40
0.3846153846153846
 40
0.3846153846153846
 40
0.3846153846153846
 40
0.4615384615384616
 40
0.4615384615384616
 40
0.4615384615384616
 40
0.4615384615384616
 40
0.5384615384615384
 40
0.5384615384615384
 40
0.5384615384615384
 40
0.5384615384615384
 40
0.6153846153846154
 40
0.6153846153846154
 40
0.6153846153846154
 40
0.6153846153846154
 40
0.6923076923076923
 40
0.6923076923076923
 40
0.6923076923076923
 40
0.6923076923076923
 40
0.7692307692307693
 40
0.7692307692307693
 40
0.7692307692307693
 40
0.7692307692307693
 40
0.8461538461538461
 40
0.8461538461538461
 40
0.8461538461538461
 40
0.8461538461538461
 40
1.0
 40
1.0
 40
1.0
 40
1.0
 10
153.1201
 20
76.6832
 30
0.0
 10
150.7114
 20
76.6832
 30
0.0
 10
148.7585
 20
74.6904
 30
0.0
 10
148.7585
 20
72.2323
 30
0.0
 10
148.7585
 20
72.2323
 30
0.0
 10
148.7585
 20
70.4911
 30
0.0
 10
149.737
 20
68.9846
 30
0.0
 10
151.1637
 20
68.2443
 30
0.0
 10
151.1637
 20
68.2443
 30
0.0
 10
149.7372
 20
67.5043
 30
0.0
 10
148.7585
 20
65.998
 30
0.0
 10
148.7585
 20
64.2567
 30
0.0
 10
148.7585
 20
64.2567
 30
0.0
 10
148.7585
 20
61.7987
 30
0.0
 10
150.7112
 20
59.8058
 30
0.0
 10
153.1201
 20
59.8058
 30
0.0
 10
153.1201
 20
59.8058
 30
0.0
 10
154.8377
 20
59.8059
 30
0.0
 10
156.323
 20
60.8185
 30
0.0
 10
157.1995
 20
62.2861
 30
0.0
 10
157.1995
 20
62.2861
 30
0.0
 10
158.0772
 20
60.8138
 30
0.0
 10
159.5602
 20
59.8058
 30
0.0
 10
161.2743
 20
59.8058
 30
0.0
 10
161.2743
 20
59.8058
 30
0.0
 10
163.6832
 20
59.8059
 30
0.0
 10
165.6359
 20
61.7986
 30
0.0
 10
165.6359
 20
64.2567
 30
0.0
 10
165.6359
 20
64.2567
 30
0.0
 10
165.6359
 20
65.9981
 30
0.0
 10
164.6572
 20
67.5041
 30
0.0
 10
163.2319
 20
68.2443
 30
0.0
 10
163.2319
 20
68.2443
 30
0.0
 10
164.6572
 20
68.9847
 30
0.0
 10
165.6359
 20
70.491
 30
0.0
 10
165.6359
 20
72.2323
 30
0.0
 10
165.6359
 20
72.2323
 30
0.0
 10
165.6359
 20
74.6904
 30
0.0
 10
163.6832
 20
76.6832
 30
0.0
 10
161.2743
 20
76.6832
 30
0.0
 10
161.2743
 20
76.6832
 30
0.0
 10
159.5635
 20
76.6832
 30
0.0
 10
158.082
 20
75.6785
 30
0.0
 10
157.1889
 20
74.2323
 30
0.0
 10
157.1889
 20
74.2323
 30
0.0
 10
156.289
 20
75.6939
 30
0.0
 10
154.8177
 20
76.6832
 30
0.0
 10
153.1201
 20
76.6832
 30
0.0
  0
SPLINE
  5
78
330
1F
100
AcDbEntity
  8
layer 1
 62
     7
100
AcDbSpline
210
0.0
220
0.0
230
1.0
 70
    11
 71
     3
 72
    52
 73
    48
 74
     0
 42
0.0000000001
 43
0.0000000001
 12
1.0
 22
0.0
 32
0.0
 13
1.0
 23
0.0
 33
0.0
 40
0.0
 40
0.0
 40
0.0
 40
0.0
 40
0.0769230769230769
 40
0.0769230769230769
 40
0.0769230769230769
 40
0.0769230769230769
 40
0.1538461538461539
 40
0.1538461538461539
 40
0.1538461538461539
 40
0.1538461538461539
 40
0.2307692307692308
 40
0.2307692307692308
 40
0.2307692307692308
 40
0.2307692307692308
 40
0.3076923076923077
 40
0.3076923076923077
 40
0.3076923076923077
 40
0.3076923076923077
 40
0.3846153846153846
 40
0.3846153846153846
 40
0.3846153846153846
 40
0.3846153846153846
 40
0.4615384615384616
 40
0.4615384615384616
 40
0.4615384615384616
 40
0.4615384615384616
 40
0.5384615384615384
 40
0.5384615384615384
 40
0.5384615384615384
 40
0.5384615384615384
 40
0.6153846153846154
 40
0.6153846153846154
 40
0.6153846153846154
 40
0.6153846153846154
 40
0.6923076923076923
 40
0.6923076923076923
 40
0.6923076923076923
 40
0.6923076923076923
 40
0.7692307692307693
 40
0.7692307692307693
 40
0.7692307692307693
 40
0.7692307692307693
 40
0.8461538461538461
 40
0.8461538461538461
 40
0.8461538461538461
 40
0.8461538461538461
 40
1.0
 40
1.0
 40
1.0
 40
1.0
 10
153.1201
 20
52.7601
 30
0.0
 10
150.7114
 20
52.7601
 30
0.0
 10
148.7585
 20
50.7673
 30
0.0
 10
148.7585
 20
48.3092
 30
0.0
 10
148.7585
 20
48.3092
 30
0.0
 10
148.7585
 20
46.568
 30
0.0
 10
149.737
 20
45.0615
 30
0.0
 10
151.1637
 20
44.3211
 30
0.0
 10
151.1637
 20
44.3211
 30
0.0
 10
149.7372
 20
43.5811
 30
0.0
 10
148.7585
 20
42.0748
 30
0.0
 10
148.7585
 20
40.3335
 30
0.0
 10
148.7585
 20
40.3335
 30
0.0
 10
148.7585
 20
37.8755
 30
0.0
 10
150.7112
 20
35.8827
 30
0.0
 10
153.1201
 20
35.8827
 30
0.0
 10
153.1201
 20
35.8827
 30
0.0
 10
154.8377
 20
35.8828
 30
0.0
 10
156.323
 20
36.8954
 30
0.0
 10
157.1995
 20
38.363
 30
0.0
 10
157.1995
 20
38.363
 30
0.0
 10
158.0772
 20
36.8906
 30
0.0
 10
159.5602
 20
35.8827
 30
0.0
 10
161.2743
 20
35.8827
 30
0.0
 10
161.2743
 20
35.8827
 30
0.0
 10
163.6832
 20
35.8828
 30
0.0
 10
165.6359
 20
37.8754
 30
0.0
 10
165.6359
 20
40.3335
 30
0.0
 10
165.6359
 20
40.3335
 30
0.0
 10
165.6359
 20
42.0749
 30
0.0
 10
164.6572
 20
43.5809
 30
0.0
 10
163.2319
 20
44.3211
 30
0.0
 10
163.2319
 20
44.3211
 30
0.0
 10
164.6572
 20
45.0616
 30
0.0
 10
165.6359
 20
46.5679
 30
0.0
 10
165.6359
 20
48.3092
 30
0.0
 10
165.6359
 20
48.3092
 30
0.0
 10
165.6359
 20
50.7673
 30
0.0
 10
163.6832
 20
52.7601
 30
0.0
 10
161.2743
 20
52.7601
 30
0.0
 10
161.2743
 20
52.7601
 30
0.0
 10
159.5635
 20
52.7601
 30
0.0
 10
158.082
 20
51.7553
 30
0.0
 10
157.1889
 20
50.3091
 30
0.0
 10
157.1889
 20
50.3091
 30
0.0
 10
156.289
 20
51.7708
 30
0.0
 10
154.8177
 20
52.7601
 30
0.0
 10
153.1201
 20
52.7601
 30
0.0
  0
SPLINE
  5
79
330
1F
100
AcDbEntity
  8
layer 1
 62
     7
100
AcDbSpline
210
0.0
220
0.0
230
1.0
 70
    11
 71
     3
 72
    52
 73
    48
 74
     0
 42
0.0000000001
 43
0.0000000001
 12
1.0
 22
0.0
 32
0.0
 13
1.0
 23
0.0
 33
0.0
 40
0.0
 40
0.0
 40
0.0
 40
0.0
 40
0.0769230769230769
 40
0.0769230769230769
 40
0.0769230769230769
 40
0.0769230769230769
 40
0.1538461538461539
 40
0.1538461538461539
 40
0.1538461538461539
 40
0.1538461538461539
 40
0.2307692307692308
 40
0.2307692307692308
 40
0.2307692307692308
 40
0.2307692307692308
 40
0.3076923076923077
 40
0.3076923076923077
 40
0.3076923076923077
 40
0.3076923076923077
 40
0.3846153846153846
 40
0.3846153846153846
 40
0.3846153846153846
 40
0.3846153846153846
 40
0.4615384615384616
 40
0.4615384615384616
 40
0.4615384615384616
 40
0.4615384615384616
 40
0.5384615384615384
 40
0.5384615384615384
 40
0.5384615384615384
 40
0.5384615384615384
 40
0.6153846153846154
 40
0.6153846153846154
 40
0.6153846153846154
 40
0.6153846153846154
 40
0.6923076923076923
 40
0.6923076923076923
 40
0.6923076923076923
 40
0.6923076923076923
 40
0.7692307692307693
 40
0.7692307692307693
 40
0.7692307692307693
 40
0.7692307692307693
 40
0.8461538461538461
 40
0.8461538461538461
 40
0.8461538461538461
 40
0.8461538461538461
 40
1.0
 40
1.0
 40
1.0
 40
1.0
 10
153.1201
 20
28.8369
 30
0.0
 10
150.7114
 20
28.8369
 30
0.0
 10
148.7585
 20
26.8441
 30
0.0
 10
148.7585
 20
24.386
 30
0.0
 10
148.7585
 20
24.386
 30
0.0
 10
148.7585
 20
22.6448
 30
0.0
 10
149.737
 20
21.1383
 30
0.0
 10
151.1637
 20
20.398
 30
0.0
 10
151.1637
 20
20.398
 30
0.0
 10
149.7372
 20
19.658
 30
0.0
 10
148.7585
 20
18.1517
 30
0.0
 10
148.7585
 20
16.4104
 30
0.0
 10
148.7585
 20
16.4104
 30
0.0
 10
148.7585
 20
13.9524
 30
0.0
 10
150.7112
 20
11.9595
 30
0.0
 10
153.1201
 20
11.9595
 30
0.0
 10
153.1201
 20
11.9595
 30
0.0
 10
154.8377
 20
11.9596
 30
0.0
 10
156.323
 20
12.9722
 30
0.0
 10
157.1995
 20
14.4398
 30
0.0
 10
157.1995
 20
14.4398
 30
0.0
 10
158.0772
 20
12.9675
 30
0.0
 10
159.5602
 20
11.9595
 30
0.0
 10
161.2743
 20
11.9595
 30
0.0
 10
161.2743
 20
11.9595
 30
0.0
 10
163.6832
 20
11.9596
 30
0.0
 10
165.6359
 20
13.9523
 30
0.0
 10
165.6359
 20
16.4104
 30
0.0
 10
165.6359
 20
16.4104
 30
0.0
 10
165.6359
 20
18.1518
 30
0.0
 10
164.6572
 20
19.6578
 30
0.0
 10
163.2319
 20
20.398
 30
0.0
 10
163.2319
 20
20.398
 30
0.0
 10
164.6572
 20
21.1384
 30
0.0
 10
165.6359
 20
22.6447
 30
0.0
 10
165.6359
 20
24.386
 30
0.0
 10
165.6359
 20
24.386
 30
0.0
 10
165.6359
 20
26.8441
 30
0.0
 10
163.6832
 20
28.8369
 30
0.0
 10
161.2743
 20
28.8369
 30
0.0
 10
161.2743
 20
28.8369
 30
0.0
 10
159.5635
 20
28.8369
 30
0.0
 10
158.082
 20
27.8322
 30
0.0
 10
157.1889
 20
26.386
 30
0.0
 10
157.1889
 20
26.386
 30
0.0
 10
156.289
 20
27.8476
 30
0.0
 10
154.8177
 20
28.8369
 30
0.0
 10
153.1201
 20
28.8369
 30
0.0
  0
SPLINE
  5
7A
330
1F
100
AcDbEntity
  8
layer 1
 62
     7
100
AcDbSpline
210
0.0
220
0.0
230
1.0
 70
    11
 71
     3
 72
    52
 73
    48
 74
     0
 42
0.0000000001
 43
0.0000000001
 12
1.0
 22
0.0
 32
0.0
 13
1.0
 23
0.0
 33
0.0
 40
0.0
 40
0.0
 40
0.0
 40
0.0
 40
0.0769230769230769
 40
0.0769230769230769
 40
0.0769230769230769
 40
0.0769230769230769
 40
0.1538461538461539
 40
0.1538461538461539
 40
0.1538461538461539
 40
0.1538461538461539
 40
0.2307692307692308
 40
0.2307692307692308
 40
0.2307692307692308
 40
0.2307692307692308
 40
0.3076923076923077
 40
0.3076923076923077
 40
0.3076923076923077
 40
0.3076923076923077
 40
0.3846153846153846
 40
0.3846153846153846
 40
0.3846153846153846
 40
0.3846153846153846
 40
0.4615384615384616
 40
0.4615384615384616
 40
0.4615384615384616
 40
0.4615384615384616
 40
0.5384615384615384
 40
0.5384615384615384
 40
0.5384615384615384
 40
0.5384615384615384
 40
0.6153846153846154
 40
0.6153846153846154
 40
0.6153846153846154
 40
0.6153846153846154
 40
0.6923076923076923
 40
0.6923076923076923
 40
0.6923076923076923
 40
0.6923076923076923
 40
0.7692307692307693
 40
0.7692307692307693
 40
0.7692307692307693
 40
0.7692307692307693
 40
0.8461538461538461
 40
0.8461538461538461
 40
0.8461538461538461
 40
0.8461538461538461
 40
1.0
 40
1.0
 40
1.0
 40
1.0
 10
153.1201
 20
4.9138
 30
0.0
 10
150.7114
 20
4.9138
 30
0.0
 10
148.7585
 20
2.921
 30
0.0
 10
148.7585
 20
0.4629
 30
0.0
 10
148.7585
 20
0.4629
 30
0.0
 10
148.7585
 20
-1.2783
 30
0.0
 10
149.737
 20
-2.7848
 30
0.0
 10
151.1637
 20
-3.5252
 30
0.0
 10
151.1637
 20
-3.5252
 30
0.0
 10
149.7372
 20
-4.2652
 30
0.0
 10
148.7585
 20
-5.7715
 30
0.0
 10
148.7585
 20
-7.5128
 30
0.0
 10
148.7585
 20
-7.5128
 30
0.0
 10
148.7585
 20
-9.9708
 30
0.0
 10
150.7112
 20
-11.9636
 30
0.0
 10
153.1201
 20
-11.9636
 30
0.0
 10
153.1201
 20
-11.9636
 30
0.0
 10
154.8377
 20
-11.9635
 30
0.0
 10
156.323
 20
-10.9509
 30
0.0
 10
157.1995
 20
-9.4833
 30
0.0
 10
157.1995
 20
-9.4833
 30
0.0
 10
158.0772
 20
-10.9557
 30
0.0
 10
159.5602
 20
-11.9636
 30
0.0
 10
161.2743
 20
-11.9636
 30
0.0
 10
161.2743
 20
-11.9636
 30
0.0
 10
163.6832
 20
-11.9635
 30
0.0
 10
165.6359
 20
-9.9709
 30
0.0
 10
165.6359
 20
-7.5128
 30
0.0
 10
165.6359
 20
-7.5128
 30
0.0
 10
165.6359
 20
-5.7714
 30
0.0
 10
164.6572
 20
-4.2654
 30
0.0
 10
163.2319
 20
-3.5252
 30
0.0
 10
163.2319
 20
-3.5252
 30
0.0
 10
164.6572
 20
-2.7847
 30
0.0
 10
165.6359
 20
-1.2784
 30
0.0
 10
165.6359
 20
0.4629
 30
0.0
 10
165.6359
 20
0.4629
 30
0.0
 10
165.6359
 20
2.921
 30
0.0
 10
163.6832
 20
4.9138
 30
0.0
 10
161.2743
 20
4.9138
 30
0.0
 10
161.2743
 20
4.9138
 30
0.0
 10
159.5635
 20
4.9138
 30
0.0
 10
158.082
 20
3.909
 30
0.0
 10
157.1889
 20
2.4628
 30
0.0
 10
157.1889
 20
2.4628
 30
0.0
 10
156.289
 20
3.9245
 30
0.0
 10
154.8177
 20
4.9138
 30
0.0
 10
153.1201
 20
4.9138
 30
0.0
  0
SPLINE
  5
7B
330
1F
100
AcDbEntity
  8
layer 1
 62
     7
100
AcDbSpline
210
0.0
220
0.0
230
1.0
 70
    11
 71
     3
 72
    52
 73
    48
 74
     0
 42
0.0000000001
 43
0.0000000001
 12
1.0
 22
0.0
 32
0.0
 13
1.0
 23
0.0
 33
0.0
 40
0.0
 40
0.0
 40
0.0
 40
0.0
 40
0.0769230769230769
 40
0.0769230769230769
 40
0.0769230769230769
 40
0.0769230769230769
 40
0.1538461538461539
 40
0.1538461538461539
 40
0.1538461538461539
 40
0.1538461538461539
 40
0.2307692307692308
 40
0.2307692307692308
 40
0.2307692307692308
 40
0.2307692307692308
 40
0.3076923076923077
 40
0.3076923076923077
 40
0.3076923076923077
 40
0.3076923076923077
 40
0.3846153846153846
 40
0.3846153846153846
 40
0.3846153846153846
 40
0.3846153846153846
 40
0.4615384615384616
 40
0.4615384615384616
 40
0.4615384615384616
 40
0.4615384615384616
 40
0.5384615384615384
 40
0.5384615384615384
 40
0.5384615384615384
 40
0.5384615384615384
 40
0.6153846153846154
 40
0.6153846153846154
 40
0.6153846153846154
 40
0.6153846153846154
 40
0.6923076923076923
 40
0.6923076923076923
 40
0.6923076923076923
 40
0.6923076923076923
 40
0.7692307692307693
 40
0.7692307692307693
 40
0.7692307692307693
 40
0.7692307692307693
 40
0.8461538461538461
 40
0.8461538461538461
 40
0.8461538461538461
 40
0.8461538461538461
 40
1.0
 40
1.0
 40
1.0
 40
1.0
 10
153.1201
 20
-19.0094
 30
0.0
 10
150.7114
 20
-19.0094
 30
0.0
 10
148.7585
 20
-21.0022
 30
0.0
 10
148.7585
 20
-23.4603
 30
0.0
 10
148.7585
 20
-23.4603
 30
0.0
 10
148.7585
 20
-25.2015
 30
0.0
 10
149.737
 20
-26.708
 30
0.0
 10
151.1637
 20
-27.4483
 30
0.0
 10
151.1637
 20
-27.4483
 30
0.0
 10
149.7372
 20
-28.1883
 30
0.0
 10
148.7585
 20
-29.6946
 30
0.0
 10
148.7585
 20
-31.4359
 30
0.0
 10
148.7585
 20
-31.4359
 30
0.0
 10
148.7585
 20
-33.8939
 30
0.0
 10
150.7112
 20
-35.8868
 30
0.0
 10
153.1201
 20
-35.8868
 30
0.0
 10
153.1201
 20
-35.8868
 30
0.0
 10
154.8377
 20
-35.8867
 30
0.0
 10
156.323
 20
-34.8741
 30
0.0
 10
157.1995
 20
-33.4065
 30
0.0
 10
157.1995
 20
-33.4065
 30
0.0
 10
158.0772
 20
-34.8788
 30
0.0
 10
159.5602
 20
-35.8868
 30
0.0
 10
161.2743
 20
-35.8868
 30
0.0
 10
161.2743
 20
-35.8868
 30
0.0
 10
163.6832
 20
-35.8867
 30
0.0
 10
165.6359
 20
-33.894
 30
0.0
 10
165.6359
 20
-31.4359
 30
0.0
 10
165.6359
 20
-31.4359
 30
0.0
 10
165.6359
 20
-29.6945
 30
0.0
 10
164.6572
 20
-28.1885
 30
0.0
 10
163.2319
 20
-27.4483
 30
0.0
 10
163.2319
 20
-27.4483
 30
0.0
 10
164.6572
 20
-26.7079
 30
0.0
 10
165.6359
 20
-25.2016
 30
0.0
 10
165.6359
 20
-23.4603
 30
0.0
 10
165.6359
 20
-23.4603
 30
0.0
 10
165.6359
 20
-21.0022
 30
0.0
 10
163.6832
 20
-19.0094
 30
0.0
 10
161.2743
 20
-19.0094
 30
0.0
 10
161.2743
 20
-19.0094
 30
0.0
 10
159.5635
 20
-19.0094
 30
0.0
 10
158.082
 20
-20.0141
 30
0.0
 10
157.1889
 20
-21.4603
 30
0.0
 10
157.1889
 20
-21.4603
 30
0.0
 10
156.289
 20
-19.9987
 30
0.0
 10
154.8177
 20
-19.0094
 30
0.0
 10
153.1201
 20
-19.0094
 30
0.0
  0
SPLINE
  5
7C
330
1F
100
AcDbEntity
  8
layer 1
 62
     7
100
AcDbSpline
210
0.0
220
0.0
230
1.0
 70
    11
 71
     3
 72
    52
 73
    48
 74
     0
 42
0.0000000001
 43
0.0000000001
 12
1.0
 22
0.0
 32
0.0
 13
1.0
 23
0.0
 33
0.0
 40
0.0
 40
0.0
 40
0.0
 40
0.0
 40
0.0769230769230769
 40
0.0769230769230769
 40
0.0769230769230769
 40
0.0769230769230769
 40
0.1538461538461539
 40
0.1538461538461539
 40
0.1538461538461539
 40
0.1538461538461539
 40
0.2307692307692308
 40
0.2307692307692308
 40
0.2307692307692308
 40
0.2307692307692308
 40
0.3076923076923077
 40
0.3076923076923077
 40
0.3076923076923077
 40
0.3076923076923077
 40
0.3846153846153846
 40
0.3846153846153846
 40
0.3846153846153846
 40
0.3846153846153846
 40
0.4615384615384616
 40
0.4615384615384616
 40
0.4615384615384616
 40
0.4615384615384616
 40
0.5384615384615384
 40
0.5384615384615384
 40
0.5384615384615384
 40
0.5384615384615384
 40
0.6153846153846154
 40
0.6153846153846154
 40
0.6153846153846154
 40
0.6153846153846154
 40
0.6923076923076923
 40
0.6923076923076923
 40
0.6923076923076923
 40
0.6923076923076923
 40
0.7692307692307693
 40
0.7692307692307693
 40
0.7692307692307693
 40
0.7692307692307693
 40
0.8461538461538461
 40
0.8461538461538461
 40
0.8461538461538461
 40
0.8461538461538461
 40
1.0
 40
1.0
 40
1.0
 40
1.0
 10
153.1201
 20
-42.9325
 30
0.0
 10
150.7114
 20
-42.9325
 30
0.0
 10
148.7585
 20
-44.9253
 30
0.0
 10
148.7585
 20
-47.3834
 30
0.0
 10
148.7585
 20
-47.3834
 30
0.0
 10
148.7585
 20
-49.1246
 30
0.0
 10
149.737
 20
-50.6311
 30
0.0
 10
151.1637
 20
-51.3715
 30
0.0
 10
151.1637
 20
-51.3715
 30
0.0
 10
149.7372
 20
-52.1115
 30
0.0
 10
148.7585
 20
-53.6178
 30
0.0
 10
148.7585
 20
-55.3591
 30
0.0
 10
148.7585
 20
-55.3591
 30
0.0
 10
148.7585
 20
-57.8171
 30
0.0
 10
150.7112
 20
-59.8099
 30
0.0
 10
153.1201
 20
-59.8099
 30
0.0
 10
153.1201
 20
-59.8099
 30
0.0
 10
154.8377
 20
-59.8098
 30
0.0
 10
156.323
 20
-58.7972
 30
0.0
 10
157.1995
 20
-57.3296
 30
0.0
 10
157.1995
 20
-57.3296
 30
0.0
 10
158.0772
 20
-58.802
 30
0.0
 10
159.5602
 20
-59.8099
 30
0.0
 10
161.2743
 20
-59.8099
 30
0.0
 10
161.2743
 20
-59.8099
 30
0.0
 10
163.6832
 20
-59.8098
 30
0.0
 10
165.6359
 20
-57.8172
 30
0.0
 10
165.6359
 20
-55.3591
 30
0.0
 10
165.6359
 20
-55.3591
 30
0.0
 10
165.6359
 20
-53.6177
 30
0.0
 10
164.6572
 20
-52.1117
 30
0.0
 10
163.2319
 20
-51.3715
 30
0.0
 10
163.2319
 20
-51.3715
 30
0.0
 10
164.6572
 20
-50.631
 30
0.0
 10
165.6359
 20
-49.1247
 30
0.0
 10
165.6359
 20
-47.3834
 30
0.0
 10
165.6359
 20
-47.3834
 30
0.0
 10
165.6359
 20
-44.9253
 30
0.0
 10
163.6832
 20
-42.9325
 30
0.0
 10
161.2743
 20
-42.9325
 30
0.0
 10
161.2743
 20
-42.9325
 30
0.0
 10
159.5635
 20
-42.9325
 30
0.0
 10
158.082
 20
-43.9373
 30
0.0
 10
157.1889
 20
-45.3835
 30
0.0
 10
157.1889
 20
-45.3835
 30
0.0
 10
156.289
 20
-43.9218
 30
0.0
 10
154.8177
 20
-42.9325
 30
0.0
 10
153.1201
 20
-42.9325
 30
0.0
  0
SPLINE
  5
7D
330
1F
100
AcDbEntity
  8
layer 1
 62
     7
100
AcDbSpline
210
0.0
220
0.0
230
1.0
 70
    11
 71
     3
 72
    52
 73
    48
 74
     0
 42
0.0000000001
 43
0.0000000001
 12
1.0
 22
0.0
 32
0.0
 13
1.0
 23
0.0
 33
0.0
 40
0.0
 40
0.0
 40
0.0
 40
0.0
 40
0.0769230769230769
 40
0.0769230769230769
 40
0.0769230769230769
 40
0.0769230769230769
 40
0.1538461538461539
 40
0.1538461538461539
 40
0.1538461538461539
 40
0.1538461538461539
 40
0.2307692307692308
 40
0.2307692307692308
 40
0.2307692307692308
 40
0.2307692307692308
 40
0.3076923076923077
 40
0.3076923076923077
 40
0.3076923076923077
 40
0.3076923076923077
 40
0.3846153846153846
 40
0.3846153846153846
 40
0.3846153846153846
 40
0.3846153846153846
 40
0.4615384615384616
 40
0.4615384615384616
 40
0.4615384615384616
 40
0.4615384615384616
 40
0.5384615384615384
 40
0.5384615384615384
 40
0.5384615384615384
 40
0.5384615384615384
 40
0.6153846153846154
 40
0.6153846153846154
 40
0.6153846153846154
 40
0.6153846153846154
 40
0.6923076923076923
 40
0.6923076923076923
 40
0.6923076923076923
 40
0.6923076923076923
 40
0.7692307692307693
 40
0.7692307692307693
 40
0.7692307692307693
 40
0.7692307692307693
 40
0.8461538461538461
 40
0.8461538461538461
 40
0.8461538461538461
 40
0.8461538461538461
 40
1.0
 40
1.0
 40
1.0
 40
1.0
 10
153.1201
 20
-66.8557
 30
0.0
 10
150.7114
 20
-66.8557
 30
0.0
 10
148.7585
 20
-68.8485
 30
0.0
 10
148.7585
 20
-71.3066
 30
0.0
 10
148.7585
 20
-71.3066
 30
0.0
 10
148.7585
 20
-73.0478
 30
0.0
 10
149.737
 20
-74.5543
 30
0.0
 10
151.1637
 20
-75.2946
 30
0.0
 10
151.1637
 20
-75.2946
 30
0.0
 10
149.7372
 20
-76.0346
 30
0.0
 10
148.7585
 20
-77.5409
 30
0.0
 10
148.7585
 20
-79.2822
 30
0.0
 10
148.7585
 20
-79.2822
 30
0.0
 10
148.7585
 20
-81.7402
 30
0.0
 10
150.7112
 20
-83.7331
 30
0.0
 10
153.1201
 20
-83.7331
 30
0.0
 10
153.1201
 20
-83.7331
 30
0.0
 10
154.8377
 20
-83.733
 30
0.0
 10
156.323
 20
-82.7204
 30
0.0
 10
157.1995
 20
-81.2528
 30
0.0
 10
157.1995
 20
-81.2528
 30
0.0
 10
158.0772
 20
-82.7251
 30
0.0
 10
159.5602
 20
-83.7331
 30
0.0
 10
161.2743
 20
-83.7331
 30
0.0
 10
161.2743
 20
-83.7331
 30
0.0
 10
163.6832
 20
-83.733
 30
0.0
 10
165.6359
 20
-81.7403
 30
0.0
 10
165.6359
 20
-79.2822
 30
0.0
 10
165.6359
 20
-79.2822
 30
0.0
 10
165.6359
 20
-77.5408
 30
0.0
 10
164.6572
 20
-76.0348
 30
0.0
 10
163.2319
 20
-75.2946
 30
0.0
 10
163.2319
 20
-75.2946
 30
0.0
 10
164.6572
 20
-74.5542
 30
0.0
 10
165.6359
 20
-73.0479
 30
0.0
 10
165.6359
 20
-71.3066
 30
0.0
 10
165.6359
 20
-71.3066
 30
0.0
 10
165.6359
 20
-68.8485
 30
0.0
 10
163.6832
 20
-66.8557
 30
0.0
 10
161.2743
 20
-66.8557
 30
0.0
 10
161.2743
 20
-66.8557
 30
0.0
 10
159.5635
 20
-66.8557
 30
0.0
 10
158.082
 20
-67.8604
 30
0.0
 10
157.1889
 20
-69.3066
 30
0.0
 10
157.1889
 20
-69.3066
 30
0.0
 10
156.289
 20
-67.845
 30
0.0
 10
154.8177
 20
-66.8557
 30
0.0
 10
153.1201
 20
-66.8557
 30
0.0
  0
SPLINE
  5
7E
330
1F
100
AcDbEntity
  8
layer 1
 62
     7
100
AcDbSpline
210
0.0
220
0.0
230
1.0
 70
    11
 71
     3
 72
    52
 73
    48
 74
     0
 42
0.0000000001
 43
0.0000000001
 12
1.0
 22
0.0
 32
0.0
 13
1.0
 23
0.0
 33
0.0
 40
0.0
 40
0.0
 40
0.0
 40
0.0
 40
0.0769230769230769
 40
0.0769230769230769
 40
0.0769230769230769
 40
0.0769230769230769
 40
0.1538461538461539
 40
0.1538461538461539
 40
0.1538461538461539
 40
0.1538461538461539
 40
0.2307692307692308
 40
0.2307692307692308
 40
0.2307692307692308
 40
0.2307692307692308
 40
0.3076923076923077
 40
0.3076923076923077
 40
0.3076923076923077
 40
0.3076923076923077
 40
0.3846153846153846
 40
0.3846153846153846
 40
0.3846153846153846
 40
0.3846153846153846
 40
0.4615384615384616
 40
0.4615384615384616
 40
0.4615384615384616
 40
0.4615384615384616
 40
0.5384615384615384
 40
0.5384615384615384
 40
0.5384615384615384
 40
0.5384615384615384
 40
0.6153846153846154
 40
0.6153846153846154
 40
0.6153846153846154
 40
0.6153846153846154
 40
0.6923076923076923
 40
0.6923076923076923
 40
0.6923076923076923
 40
0.6923076923076923
 40
0.7692307692307693
 40
0.7692307692307693
 40
0.7692307692307693
 40
0.7692307692307693
 40
0.8461538461538461
 40
0.8461538461538461
 40
0.8461538461538461
 40
0.8461538461538461
 40
1.0
 40
1.0
 40
1.0
 40
1.0
 10
153.1201
 20
-90.7788
 30
0.0
 10
150.7114
 20
-90.7788
 30
0.0
 10
148.7585
 20
-92.7716
 30
0.0
 10
148.7585
 20
-95.2297
 30
0.0
 10
148.7585
 20
-95.2297
 30
0.0
 10
148.7585
 20
-96.9709
 30
0.0
 10
149.737
 20
-98.4774
 30
0.0
 10
151.1637
 20
-99.2178
 30
0.0
 10
151.1637
 20
-99.2178
 30
0.0
 10
149.7372
 20
-99.9578
 30
0.0
 10
148.7585
 20
-101.4641
 30
0.0
 10
148.7585
 20
-103.2054
 30
0.0
 10
148.7585
 20
-103.2054
 30
0.0
 10
148.7585
 20
-105.6634
 30
0.0
 10
150.7112
 20
-107.6562
 30
0.0
 10
153.1201
 20
-107.6562
 30
0.0
 10
153.1201
 20
-107.6562
 30
0.0
 10
154.8377
 20
-107.6561
 30
0.0
 10
156.323
 20
-106.6435
 30
0.0
 10
157.1995
 20
-105.1759
 30
0.0
 10
157.1995
 20
-105.1759
 30
0.0
 10
158.0772
 20
-106.6483
 30
0.0
 10
159.5602
 20
-107.6562
 30
0.0
 10
161.2743
 20
-107.6562
 30
0.0
 10
161.2743
 20
-107.6562
 30
0.0
 10
163.6832
 20
-107.6561
 30
0.0
 10
165.6359
 20
-105.6635
 30
0.0
 10
165.6359
 20
-103.2054
 30
0.0
 10
165.6359
 20
-103.2054
 30
0.0
 10
165.6359
 20
-101.464
 30
0.0
 10
164.6572
 20
-99.958
 30
0.0
 10
163.2319
 20
-99.2178
 30
0.0
 10
163.2319
 20
-99.2178
 30
0.0
 10
164.6572
 20
-98.4773
 30
0.0
 10
165.6359
 20
-96.971
 30
0.0
 10
165.6359
 20
-95.2297
 30
0.0
 10
165.6359
 20
-95.2297
 30
0.0
 10
165.6359
 20
-92.7716
 30
0.0
 10
163.6832
 20
-90.7788
 30
0.0
 10
161.2743
 20
-90.7788
 30
0.0
 10
161.2743
 20
-90.7788
 30
0.0
 10
159.5635
 20
-90.7788
 30
0.0
 10
158.082
 20
-91.7836
 30
0.0
 10
157.1889
 20
-93.2298
 30
0.0
 10
157.1889
 20
-93.2298
 30
0.0
 10
156.289
 20
-91.7681
 30
0.0
 10
154.8177
 20
-90.7788
 30
0.0
 10
153.1201
 20
-90.7788
 30
0.0
  0
SPLINE
  5
7F
330
1F
100
AcDbEntity
  8
layer 1
 62
     7
100
AcDbSpline
210
0.0
220
0.0
230
1.0
 70
    11
 71
     3
 72
    52
 73
    48
 74
     0
 42
0.0000000001
 43
0.0000000001
 12
1.0
 22
0.0
 32
0.0
 13
1.0
 23
0.0
 33
0.0
 40
0.0
 40
0.0
 40
0.0
 40
0.0
 40
0.0769230769230769
 40
0.0769230769230769
 40
0.0769230769230769
 40
0.0769230769230769
 40
0.1538461538461539
 40
0.1538461538461539
 40
0.1538461538461539
 40
0.1538461538461539
 40
0.2307692307692308
 40
0.2307692307692308
 40
0.2307692307692308
 40
0.2307692307692308
 40
0.3076923076923077
 40
0.3076923076923077
 40
0.3076923076923077
 40
0.3076923076923077
 40
0.3846153846153846
 40
0.3846153846153846
 40
0.3846153846153846
 40
0.3846153846153846
 40
0.4615384615384616
 40
0.4615384615384616
 40
0.4615384615384616
 40
0.4615384615384616
 40
0.5384615384615384
 40
0.5384615384615384
 40
0.5384615384615384
 40
0.5384615384615384
 40
0.6153846153846154
 40
0.6153846153846154
 40
0.6153846153846154
 40
0.6153846153846154
 40
0.6923076923076923
 40
0.6923076923076923
 40
0.6923076923076923
 40
0.6923076923076923
 40
0.7692307692307693
 40
0.7692307692307693
 40
0.7692307692307693
 40
0.7692307692307693
 40
0.8461538461538461
 40
0.8461538461538461
 40
0.8461538461538461
 40
0.8461538461538461
 40
1.0
 40
1.0
 40
1.0
 40
1.0
 10
176.5484
 20
100.6064
 30
0.0
 10
174.1398
 20
100.6064
 30
0.0
 10
172.1869
 20
98.6136
 30
0.0
 10
172.1869
 20
96.1555
 30
0.0
 10
172.1869
 20
96.1555
 30
0.0
 10
172.1869
 20
94.4143
 30
0.0
 10
173.1654
 20
92.9078
 30
0.0
 10
174.592
 20
92.1674
 30
0.0
 10
174.592
 20
92.1674
 30
0.0
 10
173.1655
 20
91.4274
 30
0.0
 10
172.1869
 20
89.9211
 30
0.0
 10
172.1869
 20
88.1798
 30
0.0
 10
172.1869
 20
88.1798
 30
0.0
 10
172.1869
 20
85.7218
 30
0.0
 10
174.1396
 20
83.729
 30
0.0
 10
176.5484
 20
83.729
 30
0.0
 10
176.5484
 20
83.729
 30
0.0
 10
178.266
 20
83.7291
 30
0.0
 10
179.7513
 20
84.7417
 30
0.0
 10
180.6279
 20
86.2093
 30
0.0
 10
180.6279
 20
86.2093
 30
0.0
 10
181.5056
 20
84.7369
 30
0.0
 10
182.9885
 20
83.729
 30
0.0
 10
184.7027
 20
83.729
 30
0.0
 10
184.7027
 20
83.729
 30
0.0
 10
187.1115
 20
83.7291
 30
0.0
 10
189.0643
 20
85.7217
 30
0.0
 10
189.0643
 20
88.1798
 30
0.0
 10
189.0643
 20
88.1798
 30
0.0
 10
189.0643
 20
89.9212
 30
0.0
 10
188.0855
 20
91.4272
 30
0.0
 10
186.6603
 20
92.1674
 30
0.0
 10
186.6603
 20
92.1674
 30
0.0
 10
188.0856
 20
92.9079
 30
0.0
 10
189.0643
 20
94.4142
 30
0.0
 10
189.0643
 20
96.1555
 30
0.0
 10
189.0643
 20
96.1555
 30
0.0
 10
189.0643
 20
98.6136
 30
0.0
 10
187.1115
 20
100.6064
 30
0.0
 10
184.7027
 20
100.6064
 30
0.0
 10
184.7027
 20
100.6064
 30
0.0
 10
182.9918
 20
100.6064
 30
0.0
 10
181.5104
 20
99.6016
 30
0.0
 10
180.6173
 20
98.1554
 30
0.0
 10
180.6173
 20
98.1554
 30
0.0
 10
179.7174
 20
99.6171
 30
0.0
 10
178.2461
 20
100.6064
 30
0.0
 10
176.5484
 20
100.6064
 30
0.0
  0
SPLINE
  5
80
330
1F
100
AcDbEntity
  8
layer 1
 62
     7
100
AcDbSpline
210
0.0
220
0.0
230
1.0
 70
    11
 71
     3
 72
    52
 73
    48
 74
     0
 42
0.0000000001
 43
0.0000000001
 12
1.0
 22
0.0
 32
0.0
 13
1.0
 23
0.0
 33
0.0
 40
0.0
 40
0.0
 40
0.0
 40
0.0
 40
0.0769230769230769
 40
0.0769230769230769
 40
0.0769230769230769
 40
0.0769230769230769
 40
0.1538461538461539
 40
0.1538461538461539
 40
0.1538461538461539
 40
0.1538461538461539
 40
0.2307692307692308
 40
0.2307692307692308
 40
0.2307692307692308
 40
0.2307692307692308
 40
0.3076923076923077
 40
0.3076923076923077
 40
0.3076923076923077
 40
0.3076923076923077
 40
0.3846153846153846
 40
0.3846153846153846
 40
0.3846153846153846
 40
0.3846153846153846
 40
0.4615384615384616
 40
0.4615384615384616
 40
0.4615384615384616
 40
0.4615384615384616
 40
0.5384615384615384
 40
0.5384615384615384
 40
0.5384615384615384
 40
0.5384615384615384
 40
0.6153846153846154
 40
0.6153846153846154
 40
0.6153846153846154
 40
0.6153846153846154
 40
0.6923076923076923
 40
0.6923076923076923
 40
0.6923076923076923
 40
0.6923076923076923
 40
0.7692307692307693
 40
0.7692307692307693
 40
0.7692307692307693
 40
0.7692307692307693
 40
0.8461538461538461
 40
0.8461538461538461
 40
0.8461538461538461
 40
0.8461538461538461
 40
1.0
 40
1.0
 40
1.0
 40
1.0
 10
176.5484
 20
76.6832
 30
0.0
 10
174.1398
 20
76.6832
 30
0.0
 10
172.1869
 20
74.6904
 30
0.0
 10
172.1869
 20
72.2323
 30
0.0
 10
172.1869
 20
72.2323
 30
0.0
 10
172.1869
 20
70.4911
 30
0.0
 10
173.1654
 20
68.9846
 30
0.0
 10
174.592
 20
68.2443
 30
0.0
 10
174.592
 20
68.2443
 30
0.0
 10
173.1655
 20
67.5043
 30
0.0
 10
172.1869
 20
65.998
 30
0.0
 10
172.1869
 20
64.2567
 30
0.0
 10
172.1869
 20
64.2567
 30
0.0
 10
172.1869
 20
61.7987
 30
0.0
 10
174.1396
 20
59.8058
 30
0.0
 10
176.5484
 20
59.8058
 30
0.0
 10
176.5484
 20
59.8058
 30
0.0
 10
178.266
 20
59.8059
 30
0.0
 10
179.7513
 20
60.8185
 30
0.0
 10
180.6279
 20
62.2861
 30
0.0
 10
180.6279
 20
62.2861
 30
0.0
 10
181.5056
 20
60.8138
 30
0.0
 10
182.9885
 20
59.8058
 30
0.0
 10
184.7027
 20
59.8058
 30
0.0
 10
184.7027
 20
59.8058
 30
0.0
 10
187.1115
 20
59.8059
 30
0.0
 10
189.0643
 20
61.7986
 30
0.0
 10
189.0643
 20
64.2567
 30
0.0
 10
189.0643
 20
64.2567
 30
0.0
 10
189.0643
 20
65.9981
 30
0.0
 10
188.0855
 20
67.5041
 30
0.0
 10
186.6603
 20
68.2443
 30
0.0
 10
186.6603
 20
68.2443
 30
0.0
 10
188.0856
 20
68.9847
 30
0.0
 10
189.0643
 20
70.491
 30
0.0
 10
189.0643
 20
72.2323
 30
0.0
 10
189.0643
 20
72.2323
 30
0.0
 10
189.0643
 20
74.6904
 30
0.0
 10
187.1115
 20
76.6832
 30
0.0
 10
184.7027
 20
76.6832
 30
0.0
 10
184.7027
 20
76.6832
 30
0.0
 10
182.9918
 20
76.6832
 30
0.0
 10
181.5104
 20
75.6785
 30
0.0
 10
180.6173
 20
74.2323
 30
0.0
 10
180.6173
 20
74.2323
 30
0.0
 10
179.7174
 20
75.6939
 30
0.0
 10
178.2461
 20
76.6832
 30
0.0
 10
176.5484
 20
76.6832
 30
0.0
  0
SPLINE
  5
81
330
1F
100
AcDbEntity
  8
layer 1
 62
     7
100
AcDbSpline
210
0.0
220
0.0
230
1.0
 70
    11
 71
     3
 72
    52
 73
    48
 74
     0
 42
0.0000000001
 43
0.0000000001
 12
1.0
 22
0.0
 32
0.0
 13
1.0
 23
0.0
 33
0.0
 40
0.0
 40
0.0
 40
0.0
 40
0.0
 40
0.0769230769230769
 40
0.0769230769230769
 40
0.0769230769230769
 40
0.0769230769230769
 40
0.1538461538461539
 40
0.1538461538461539
 40
0.1538461538461539
 40
0.1538461538461539
 40
0.2307692307692308
 40
0.2307692307692308
 40
0.2307692307692308
 40
0.2307692307692308
 40
0.3076923076923077
 40
0.3076923076923077
 40
0.3076923076923077
 40
0.3076923076923077
 40
0.3846153846153846
 40
0.3846153846153846
 40
0.3846153846153846
 40
0.3846153846153846
 40
0.4615384615384616
 40
0.4615384615384616
 40
0.4615384615384616
 40
0.4615384615384616
 40
0.5384615384615384
 40
0.5384615384615384
 40
0.5384615384615384
 40
0.5384615384615384
 40
0.6153846153846154
 40
0.6153846153846154
 40
0.6153846153846154
 40
0.6153846153846154
 40
0.6923076923076923
 40
0.6923076923076923
 40
0.6923076923076923
 40
0.6923076923076923
 40
0.7692307692307693
 40
0.7692307692307693
 40
0.7692307692307693
 40
0.7692307692307693
 40
0.8461538461538461
 40
0.8461538461538461
 40
0.8461538461538461
 40
0.8461538461538461
 40
1.0
 40
1.0
 40
1.0
 40
1.0
 10
176.5484
 20
52.7601
 30
0.0
 10
174.1398
 20
52.7601
 30
0.0
 10
172.1869
 20
50.7673
 30
0.0
 10
172.1869
 20
48.3092
 30
0.0
 10
172.1869
 20
48.3092
 30
0.0
 10
172.1869
 20
46.568
 30
0.0
 10
173.1654
 20
45.0615
 30
0.0
 10
174.592
 20
44.3211
 30
0.0
 10
174.592
 20
44.3211
 30
0.0
 10
173.1655
 20
43.5811
 30
0.0
 10
172.1869
 20
42.0748
 30
0.0
 10
172.1869
 20
40.3335
 30
0.0
 10
172.1869
 20
40.3335
 30
0.0
 10
172.1869
 20
37.8755
 30
0.0
 10
174.1396
 20
35.8827
 30
0.0
 10
176.5484
 20
35.8827
 30
0.0
 10
176.5484
 20
35.8827
 30
0.0
 10
178.266
 20
35.8828
 30
0.0
 10
179.7513
 20
36.8954
 30
0.0
 10
180.6279
 20
38.363
 30
0.0
 10
180.6279
 20
38.363
 30
0.0
 10
181.5056
 20
36.8906
 30
0.0
 10
182.9885
 20
35.8827
 30
0.0
 10
184.7027
 20
35.8827
 30
0.0
 10
184.7027
 20
35.8827
 30
0.0
 10
187.1115
 20
35.8828
 30
0.0
 10
189.0643
 20
37.8754
 30
0.0
 10
189.0643
 20
40.3335
 30
0.0
 10
189.0643
 20
40.3335
 30
0.0
 10
189.0643
 20
42.0749
 30
0.0
 10
188.0855
 20
43.5809
 30
0.0
 10
186.6603
 20
44.3211
 30
0.0
 10
186.6603
 20
44.3211
 30
0.0
 10
188.0856
 20
45.0616
 30
0.0
 10
189.0643
 20
46.5679
 30
0.0
 10
189.0643
 20
48.3092
 30
0.0
 10
189.0643
 20
48.3092
 30
0.0
 10
189.0643
 20
50.7673
 30
0.0
 10
187.1115
 20
52.7601
 30
0.0
 10
184.7027
 20
52.7601
 30
0.0
 10
184.7027
 20
52.7601
 30
0.0
 10
182.9918
 20
52.7601
 30
0.0
 10
181.5104
 20
51.7553
 30
0.0
 10
180.6173
 20
50.3091
 30
0.0
 10
180.6173
 20
50.3091
 30
0.0
 10
179.7174
 20
51.7708
 30
0.0
 10
178.2461
 20
52.7601
 30
0.0
 10
176.5484
 20
52.7601
 30
0.0
  0
SPLINE
  5
82
330
1F
100
AcDbEntity
  8
layer 1
 62
     7
100
AcDbSpline
210
0.0
220
0.0
230
1.0
 70
    11
 71
     3
 72
    52
 73
    48
 74
     0
 42
0.0000000001
 43
0.0000000001
 12
1.0
 22
0.0
 32
0.0
 13
1.0
 23
0.0
 33
0.0
 40
0.0
 40
0.0
 40
0.0
 40
0.0
 40
0.0769230769230769
 40
0.0769230769230769
 40
0.0769230769230769
 40
0.0769230769230769
 40
0.1538461538461539
 40
0.1538461538461539
 40
0.1538461538461539
 40
0.1538461538461539
 40
0.2307692307692308
 40
0.2307692307692308
 40
0.2307692307692308
 40
0.2307692307692308
 40
0.3076923076923077
 40
0.3076923076923077
 40
0.3076923076923077
 40
0.3076923076923077
 40
0.3846153846153846
 40
0.3846153846153846
 40
0.3846153846153846
 40
0.3846153846153846
 40
0.4615384615384616
 40
0.4615384615384616
 40
0.4615384615384616
 40
0.4615384615384616
 40
0.5384615384615384
 40
0.5384615384615384
 40
0.5384615384615384
 40
0.5384615384615384
 40
0.6153846153846154
 40
0.6153846153846154
 40
0.6153846153846154
 40
0.6153846153846154
 40
0.6923076923076923
 40
0.6923076923076923
 40
0.6923076923076923
 40
0.6923076923076923
 40
0.7692307692307693
 40
0.7692307692307693
 40
0.7692307692307693
 40
0.7692307692307693
 40
0.8461538461538461
 40
0.8461538461538461
 40
0.8461538461538461
 40
0.8461538461538461
 40
1.0
 40
1.0
 40
1.0
 40
1.0
 10
176.5484
 20
28.8369
 30
0.0
 10
174.1398
 20
28.8369
 30
0.0
 10
172.1869
 20
26.8441
 30
0.0
 10
172.1869
 20
24.386
 30
0.0
 10
172.1869
 20
24.386
 30
0.0
 10
172.1869
 20
22.6448
 30
0.0
 10
173.1654
 20
21.1383
 30
0.0
 10
174.592
 20
20.398
 30
0.0
 10
174.592
 20
20.398
 30
0.0
 10
173.1655
 20
19.658
 30
0.0
 10
172.1869
 20
18.1517
 30
0.0
 10
172.1869
 20
16.4104
 30
0.0
 10
172.1869
 20
16.4104
 30
0.0
 10
172.1869
 20
13.9524
 30
0.0
 10
174.1396
 20
11.9595
 30
0.0
 10
176.5484
 20
11.9595
 30
0.0
 10
176.5484
 20
11.9595
 30
0.0
 10
178.266
 20
11.9596
 30
0.0
 10
179.7513
 20
12.9722
 30
0.0
 10
180.6279
 20
14.4398
 30
0.0
 10
180.6279
 20
14.4398
 30
0.0
 10
181.5056
 20
12.9675
 30
0.0
 10
182.9885
 20
11.9595
 30
0.0
 10
184.7027
 20
11.9595
 30
0.0
 10
184.7027
 20
11.9595
 30
0.0
 10
187.1115
 20
11.9596
 30
0.0
 10
189.0643
 20
13.9523
 30
0.0
 10
189.0643
 20
16.4104
 30
0.0
 10
189.0643
 20
16.4104
 30
0.0
 10
189.0643
 20
18.1518
 30
0.0
 10
188.0855
 20
19.6578
 30
0.0
 10
186.6603
 20
20.398
 30
0.0
 10
186.6603
 20
20.398
 30
0.0
 10
188.0856
 20
21.1384
 30
0.0
 10
189.0643
 20
22.6447
 30
0.0
 10
189.0643
 20
24.386
 30
0.0
 10
189.0643
 20
24.386
 30
0.0
 10
189.0643
 20
26.8441
 30
0.0
 10
187.1115
 20
28.8369
 30
0.0
 10
184.7027
 20
28.8369
 30
0.0
 10
184.7027
 20
28.8369
 30
0.0
 10
182.9918
 20
28.8369
 30
0.0
 10
181.5104
 20
27.8322
 30
0.0
 10
180.6173
 20
26.386
 30
0.0
 10
180.6173
 20
26.386
 30
0.0
 10
179.7174
 20
27.8476
 30
0.0
 10
178.2461
 20
28.8369
 30
0.0
 10
176.5484
 20
28.8369
 30
0.0
  0
SPLINE
  5
83
330
1F
100
AcDbEntity
  8
layer 1
 62
     7
100
AcDbSpline
210
0.0
220
0.0
230
1.0
 70
    11
 71
     3
 72
    52
 73
    48
 74
     0
 42
0.0000000001
 43
0.0000000001
 12
1.0
 22
0.0
 32
0.0
 13
1.0
 23
0.0
 33
0.0
 40
0.0
 40
0.0
 40
0.0
 40
0.0
 40
0.0769230769230769
 40
0.0769230769230769
 40
0.0769230769230769
 40
0.0769230769230769
 40
0.1538461538461539
 40
0.1538461538461539
 40
0.1538461538461539
 40
0.1538461538461539
 40
0.2307692307692308
 40
0.2307692307692308
 40
0.2307692307692308
 40
0.2307692307692308
 40
0.3076923076923077
 40
0.3076923076923077
 40
0.3076923076923077
 40
0.3076923076923077
 40
0.3846153846153846
 40
0.3846153846153846
 40
0.3846153846153846
 40
0.3846153846153846
 40
0.4615384615384616
 40
0.4615384615384616
 40
0.4615384615384616
 40
0.4615384615384616
 40
0.5384615384615384
 40
0.5384615384615384
 40
0.5384615384615384
 40
0.5384615384615384
 40
0.6153846153846154
 40
0.6153846153846154
 40
0.6153846153846154
 40
0.6153846153846154
 40
0.6923076923076923
 40
0.6923076923076923
 40
0.6923076923076923
 40
0.6923076923076923
 40
0.7692307692307693
 40
0.7692307692307693
 40
0.7692307692307693
 40
0.7692307692307693
 40
0.8461538461538461
 40
0.8461538461538461
 40
0.8461538461538461
 40
0.8461538461538461
 40
1.0
 40
1.0
 40
1.0
 40
1.0
 10
176.5484
 20
4.9138
 30
0.0
 10
174.1398
 20
4.9138
 30
0.0
 10
172.1869
 20
2.921
 30
0.0
 10
172.1869
 20
0.4629
 30
0.0
 10
172.1869
 20
0.4629
 30
0.0
 10
172.1869
 20
-1.2783
 30
0.0
 10
173.1654
 20
-2.7848
 30
0.0
 10
174.592
 20
-3.5252
 30
0.0
 10
174.592
 20
-3.5252
 30
0.0
 10
173.1655
 20
-4.2652
 30
0.0
 10
172.1869
 20
-5.7715
 30
0.0
 10
172.1869
 20
-7.5128
 30
0.0
 10
172.1869
 20
-7.5128
 30
0.0
 10
172.1869
 20
-9.9708
 30
0.0
 10
174.1396
 20
-11.9636
 30
0.0
 10
176.5484
 20
-11.9636
 30
0.0
 10
176.5484
 20
-11.9636
 30
0.0
 10
178.266
 20
-11.9635
 30
0.0
 10
179.7513
 20
-10.9509
 30
0.0
 10
180.6279
 20
-9.4833
 30
0.0
 10
180.6279
 20
-9.4833
 30
0.0
 10
181.5056
 20
-10.9557
 30
0.0
 10
182.9885
 20
-11.9636
 30
0.0
 10
184.7027
 20
-11.9636
 30
0.0
 10
184.7027
 20
-11.9636
 30
0.0
 10
187.1115
 20
-11.9635
 30
0.0
 10
189.0643
 20
-9.9709
 30
0.0
 10
189.0643
 20
-7.5128
 30
0.0
 10
189.0643
 20
-7.5128
 30
0.0
 10
189.0643
 20
-5.7714
 30
0.0
 10
188.0855
 20
-4.2654
 30
0.0
 10
186.6603
 20
-3.5252
 30
0.0
 10
186.6603
 20
-3.5252
 30
0.0
 10
188.0856
 20
-2.7847
 30
0.0
 10
189.0643
 20
-1.2784
 30
0.0
 10
189.0643
 20
0.4629
 30
0.0
 10
189.0643
 20
0.4629
 30
0.0
 10
189.0643
 20
2.921
 30
0.0
 10
187.1115
 20
4.9138
 30
0.0
 10
184.7027
 20
4.9138
 30
0.0
 10
184.7027
 20
4.9138
 30
0.0
 10
182.9918
 20
4.9138
 30
0.0
 10
181.5104
 20
3.909
 30
0.0
 10
180.6173
 20
2.4628
 30
0.0
 10
180.6173
 20
2.4628
 30
0.0
 10
179.7174
 20
3.9245
 30
0.0
 10
178.2461
 20
4.9138
 30
0.0
 10
176.5484
 20
4.9138
 30
0.0
  0
SPLINE
  5
84
330
1F
100
AcDbEntity
  8
layer 1
 62
     7
100
AcDbSpline
210
0.0
220
0.0
230
1.0
 70
    11
 71
     3
 72
    52
 73
    48
 74
     0
 42
0.0000000001
 43
0.0000000001
 12
1.0
 22
0.0
 32
0.0
 13
1.0
 23
0.0
 33
0.0
 40
0.0
 40
0.0
 40
0.0
 40
0.0
 40
0.0769230769230769
 40
0.0769230769230769
 40
0.0769230769230769
 40
0.0769230769230769
 40
0.1538461538461539
 40
0.1538461538461539
 40
0.1538461538461539
 40
0.1538461538461539
 40
0.2307692307692308
 40
0.2307692307692308
 40
0.2307692307692308
 40
0.2307692307692308
 40
0.3076923076923077
 40
0.3076923076923077
 40
0.3076923076923077
 40
0.3076923076923077
 40
0.3846153846153846
 40
0.3846153846153846
 40
0.3846153846153846
 40
0.3846153846153846
 40
0.4615384615384616
 40
0.4615384615384616
 40
0.4615384615384616
 40
0.4615384615384616
 40
0.5384615384615384
 40
0.5384615384615384
 40
0.5384615384615384
 40
0.5384615384615384
 40
0.6153846153846154
 40
0.6153846153846154
 40
0.6153846153846154
 40
0.6153846153846154
 40
0.6923076923076923
 40
0.6923076923076923
 40
0.6923076923076923
 40
0.6923076923076923
 40
0.7692307692307693
 40
0.7692307692307693
 40
0.7692307692307693
 40
0.7692307692307693
 40
0.8461538461538461
 40
0.8461538461538461
 40
0.8461538461538461
 40
0.8461538461538461
 40
1.0
 40
1.0
 40
1.0
 40
1.0
 10
176.5484
 20
-19.0094
 30
0.0
 10
174.1398
 20
-19.0094
 30
0.0
 10
172.1869
 20
-21.0022
 30
0.0
 10
172.1869
 20
-23.4603
 30
0.0
 10
172.1869
 20
-23.4603
 30
0.0
 10
172.1869
 20
-25.2015
 30
0.0
 10
173.1654
 20
-26.708
 30
0.0
 10
174.592
 20
-27.4483
 30
0.0
 10
174.592
 20
-27.4483
 30
0.0
 10
173.1655
 20
-28.1883
 30
0.0
 10
172.1869
 20
-29.6946
 30
0.0
 10
172.1869
 20
-31.4359
 30
0.0
 10
172.1869
 20
-31.4359
 30
0.0
 10
172.1869
 20
-33.8939
 30
0.0
 10
174.1396
 20
-35.8868
 30
0.0
 10
176.5484
 20
-35.8868
 30
0.0
 10
176.5484
 20
-35.8868
 30
0.0
 10
178.266
 20
-35.8867
 30
0.0
 10
179.7513
 20
-34.8741
 30
0.0
 10
180.6279
 20
-33.4065
 30
0.0
 10
180.6279
 20
-33.4065
 30
0.0
 10
181.5056
 20
-34.8788
 30
0.0
 10
182.9885
 20
-35.8868
 30
0.0
 10
184.7027
 20
-35.8868
 30
0.0
 10
184.7027
 20
-35.8868
 30
0.0
 10
187.1115
 20
-35.8867
 30
0.0
 10
189.0643
 20
-33.894
 30
0.0
 10
189.0643
 20
-31.4359
 30
0.0
 10
189.0643
 20
-31.4359
 30
0.0
 10
189.0643
 20
-29.6945
 30
0.0
 10
188.0855
 20
-28.1885
 30
0.0
 10
186.6603
 20
-27.4483
 30
0.0
 10
186.6603
 20
-27.4483
 30
0.0
 10
188.0856
 20
-26.7079
 30
0.0
 10
189.0643
 20
-25.2016
 30
0.0
 10
189.0643
 20
-23.4603
 30
0.0
 10
189.0643
 20
-23.4603
 30
0.0
 10
189.0643
 20
-21.0022
 30
0.0
 10
187.1115
 20
-19.0094
 30
0.0
 10
184.7027
 20
-19.0094
 30
0.0
 10
184.7027
 20
-19.0094
 30
0.0
 10
182.9918
 20
-19.0094
 30
0.0
 10
181.5104
 20
-20.0141
 30
0.0
 10
180.6173
 20
-21.4603
 30
0.0
 10
180.6173
 20
-21.4603
 30
0.0
 10
179.7174
 20
-19.9987
 30
0.0
 10
178.2461
 20
-19.0094
 30
0.0
 10
176.5484
 20
-19.0094
 30
0.0
  0
SPLINE
  5
85
330
1F
100
AcDbEntity
  8
layer 1
 62
     7
100
AcDbSpline
210
0.0
220
0.0
230
1.0
 70
    11
 71
     3
 72
    52
 73
    48
 74
     0
 42
0.0000000001
 43
0.0000000001
 12
1.0
 22
0.0
 32
0.0
 13
1.0
 23
0.0
 33
0.0
 40
0.0
 40
0.0
 40
0.0
 40
0.0
 40
0.0769230769230769
 40
0.0769230769230769
 40
0.0769230769230769
 40
0.0769230769230769
 40
0.1538461538461539
 40
0.1538461538461539
 40
0.1538461538461539
 40
0.1538461538461539
 40
0.2307692307692308
 40
0.2307692307692308
 40
0.2307692307692308
 40
0.2307692307692308
 40
0.3076923076923077
 40
0.3076923076923077
 40
0.3076923076923077
 40
0.3076923076923077
 40
0.3846153846153846
 40
0.3846153846153846
 40
0.3846153846153846
 40
0.3846153846153846
 40
0.4615384615384616
 40
0.4615384615384616
 40
0.4615384615384616
 40
0.4615384615384616
 40
0.5384615384615384
 40
0.5384615384615384
 40
0.5384615384615384
 40
0.5384615384615384
 40
0.6153846153846154
 40
0.6153846153846154
 40
0.6153846153846154
 40
0.6153846153846154
 40
0.6923076923076923
 40
0.6923076923076923
 40
0.6923076923076923
 40
0.6923076923076923
 40
0.7692307692307693
 40
0.7692307692307693
 40
0.7692307692307693
 40
0.7692307692307693
 40
0.8461538461538461
 40
0.8461538461538461
 40
0.8461538461538461
 40
0.8461538461538461
 40
1.0
 40
1.0
 40
1.0
 40
1.0
 10
176.5484
 20
-42.9325
 30
0.0
 10
174.1398
 20
-42.9325
 30
0.0
 10
172.1869
 20
-44.9253
 30
0.0
 10
172.1869
 20
-47.3834
 30
0.0
 10
172.1869
 20
-47.3834
 30
0.0
 10
172.1869
 20
-49.1246
 30
0.0
 10
173.1654
 20
-50.6311
 30
0.0
 10
174.592
 20
-51.3715
 30
0.0
 10
174.592
 20
-51.3715
 30
0.0
 10
173.1655
 20
-52.1115
 30
0.0
 10
172.1869
 20
-53.6178
 30
0.0
 10
172.1869
 20
-55.3591
 30
0.0
 10
172.1869
 20
-55.3591
 30
0.0
 10
172.1869
 20
-57.8171
 30
0.0
 10
174.1396
 20
-59.8099
 30
0.0
 10
176.5484
 20
-59.8099
 30
0.0
 10
176.5484
 20
-59.8099
 30
0.0
 10
178.266
 20
-59.8098
 30
0.0
 10
179.7513
 20
-58.7972
 30
0.0
 10
180.6279
 20
-57.3296
 30
0.0
 10
180.6279
 20
-57.3296
 30
0.0
 10
181.5056
 20
-58.802
 30
0.0
 10
182.9885
 20
-59.8099
 30
0.0
 10
184.7027
 20
-59.8099
 30
0.0
 10
184.7027
 20
-59.8099
 30
0.0
 10
187.1115
 20
-59.8098
 30
0.0
 10
189.0643
 20
-57.8172
 30
0.0
 10
189.0643
 20
-55.3591
 30
0.0
 10
189.0643
 20
-55.3591
 30
0.0
 10
189.0643
 20
-53.6177
 30
0.0
 10
188.0855
 20
-52.1117
 30
0.0
 10
186.6603
 20
-51.3715
 30
0.0
 10
186.6603
 20
-51.3715
 30
0.0
 10
188.0856
 20
-50.631
 30
0.0
 10
189.0643
 20
-49.1247
 30
0.0
 10
189.0643
 20
-47.3834
 30
0.0
 10
189.0643
 20
-47.3834
 30
0.0
 10
189.0643
 20
-44.9253
 30
0.0
 10
187.1115
 20
-42.9325
 30
0.0
 10
184.7027
 20
-42.9325
 30
0.0
 10
184.7027
 20
-42.9325
 30
0.0
 10
182.9918
 20
-42.9325
 30
0.0
 10
181.5104
 20
-43.9373
 30
0.0
 10
180.6173
 20
-45.3835
 30
0.0
 10
180.6173
 20
-45.3835
 30
0.0
 10
179.7174
 20
-43.9218
 30
0.0
 10
178.2461
 20
-42.9325
 30
0.0
 10
176.5484
 20
-42.9325
 30
0.0
  0
SPLINE
  5
86
330
1F
100
AcDbEntity
  8
layer 1
 62
     7
100
AcDbSpline
210
0.0
220
0.0
230
1.0
 70
    11
 71
     3
 72
    52
 73
    48
 74
     0
 42
0.0000000001
 43
0.0000000001
 12
1.0
 22
0.0
 32
0.0
 13
1.0
 23
0.0
 33
0.0
 40
0.0
 40
0.0
 40
0.0
 40
0.0
 40
0.0769230769230769
 40
0.0769230769230769
 40
0.0769230769230769
 40
0.0769230769230769
 40
0.1538461538461539
 40
0.1538461538461539
 40
0.1538461538461539
 40
0.1538461538461539
 40
0.2307692307692308
 40
0.2307692307692308
 40
0.2307692307692308
 40
0.2307692307692308
 40
0.3076923076923077
 40
0.3076923076923077
 40
0.3076923076923077
 40
0.3076923076923077
 40
0.3846153846153846
 40
0.3846153846153846
 40
0.3846153846153846
 40
0.3846153846153846
 40
0.4615384615384616
 40
0.4615384615384616
 40
0.4615384615384616
 40
0.4615384615384616
 40
0.5384615384615384
 40
0.5384615384615384
 40
0.5384615384615384
 40
0.5384615384615384
 40
0.6153846153846154
 40
0.6153846153846154
 40
0.6153846153846154
 40
0.6153846153846154
 40
0.6923076923076923
 40
0.6923076923076923
 40
0.6923076923076923
 40
0.6923076923076923
 40
0.7692307692307693
 40
0.7692307692307693
 40
0.7692307692307693
 40
0.7692307692307693
 40
0.8461538461538461
 40
0.8461538461538461
 40
0.8461538461538461
 40
0.8461538461538461
 40
1.0
 40
1.0
 40
1.0
 40
1.0
 10
176.5484
 20
-66.8557
 30
0.0
 10
174.1398
 20
-66.8557
 30
0.0
 10
172.1869
 20
-68.8485
 30
0.0
 10
172.1869
 20
-71.3066
 30
0.0
 10
172.1869
 20
-71.3066
 30
0.0
 10
172.1869
 20
-73.0478
 30
0.0
 10
173.1654
 20
-74.5543
 30
0.0
 10
174.592
 20
-75.2946
 30
0.0
 10
174.592
 20
-75.2946
 30
0.0
 10
173.1655
 20
-76.0346
 30
0.0
 10
172.1869
 20
-77.5409
 30
0.0
 10
172.1869
 20
-79.2822
 30
0.0
 10
172.1869
 20
-79.2822
 30
0.0
 10
172.1869
 20
-81.7402
 30
0.0
 10
174.1396
 20
-83.7331
 30
0.0
 10
176.5484
 20
-83.7331
 30
0.0
 10
176.5484
 20
-83.7331
 30
0.0
 10
178.266
 20
-83.733
 30
0.0
 10
179.7513
 20
-82.7204
 30
0.0
 10
180.6279
 20
-81.2528
 30
0.0
 10
180.6279
 20
-81.2528
 30
0.0
 10
181.5056
 20
-82.7251
 30
0.0
 10
182.9885
 20
-83.7331
 30
0.0
 10
184.7027
 20
-83.7331
 30
0.0
 10
184.7027
 20
-83.7331
 30
0.0
 10
187.1115
 20
-83.733
 30
0.0
 10
189.0643
 20
-81.7403
 30
0.0
 10
189.0643
 20
-79.2822
 30
0.0
 10
189.0643
 20
-79.2822
 30
0.0
 10
189.0643
 20
-77.5408
 30
0.0
 10
188.0855
 20
-76.0348
 30
0.0
 10
186.6603
 20
-75.2946
 30
0.0
 10
186.6603
 20
-75.2946
 30
0.0
 10
188.0856
 20
-74.5542
 30
0.0
 10
189.0643
 20
-73.0479
 30
0.0
 10
189.0643
 20
-71.3066
 30
0.0
 10
189.0643
 20
-71.3066
 30
0.0
 10
189.0643
 20
-68.8485
 30
0.0
 10
187.1115
 20
-66.8557
 30
0.0
 10
184.7027
 20
-66.8557
 30
0.0
 10
184.7027
 20
-66.8557
 30
0.0
 10
182.9918
 20
-66.8557
 30
0.0
 10
181.5104
 20
-67.8604
 30
0.0
 10
180.6173
 20
-69.3066
 30
0.0
 10
180.6173
 20
-69.3066
 30
0.0
 10
179.7174
 20
-67.845
 30
0.0
 10
178.2461
 20
-66.8557
 30
0.0
 10
176.5484
 20
-66.8557
 30
0.0
  0
SPLINE
  5
87
330
1F
100
AcDbEntity
  8
layer 1
 62
     7
100
AcDbSpline
210
0.0
220
0.0
230
1.0
 70
    11
 71
     3
 72
    52
 73
    48
 74
     0
 42
0.0000000001
 43
0.0000000001
 12
1.0
 22
0.0
 32
0.0
 13
1.0
 23
0.0
 33
0.0
 40
0.0
 40
0.0
 40
0.0
 40
0.0
 40
0.0769230769230769
 40
0.0769230769230769
 40
0.0769230769230769
 40
0.0769230769230769
 40
0.1538461538461539
 40
0.1538461538461539
 40
0.1538461538461539
 40
0.1538461538461539
 40
0.2307692307692308
 40
0.2307692307692308
 40
0.2307692307692308
 40
0.2307692307692308
 40
0.3076923076923077
 40
0.3076923076923077
 40
0.3076923076923077
 40
0.3076923076923077
 40
0.3846153846153846
 40
0.3846153846153846
 40
0.3846153846153846
 40
0.3846153846153846
 40
0.4615384615384616
 40
0.4615384615384616
 40
0.4615384615384616
 40
0.4615384615384616
 40
0.5384615384615384
 40
0.5384615384615384
 40
0.5384615384615384
 40
0.5384615384615384
 40
0.6153846153846154
 40
0.6153846153846154
 40
0.6153846153846154
 40
0.6153846153846154
 40
0.6923076923076923
 40
0.6923076923076923
 40
0.6923076923076923
 40
0.6923076923076923
 40
0.7692307692307693
 40
0.7692307692307693
 40
0.7692307692307693
 40
0.7692307692307693
 40
0.8461538461538461
 40
0.8461538461538461
 40
0.8461538461538461
 40
0.8461538461538461
 40
1.0
 40
1.0
 40
1.0
 40
1.0
 10
176.5484
 20
-90.7788
 30
0.0
 10
174.1398
 20
-90.7788
 30
0.0
 10
172.1869
 20
-92.7716
 30
0.0
 10
172.1869
 20
-95.2297
 30
0.0
 10
172.1869
 20
-95.2297
 30
0.0
 10
172.1869
 20
-96.9709
 30
0.0
 10
173.1654
 20
-98.4774
 30
0.0
 10
174.592
 20
-99.2178
 30
0.0
 10
174.592
 20
-99.2178
 30
0.0
 10
173.1655
 20
-99.9578
 30
0.0
 10
172.1869
 20
-101.4641
 30
0.0
 10
172.1869
 20
-103.2054
 30
0.0
 10
172.1869
 20
-103.2054
 30
0.0
 10
172.1869
 20
-105.6634
 30
0.0
 10
174.1396
 20
-107.6562
 30
0.0
 10
176.5484
 20
-107.6562
 30
0.0
 10
176.5484
 20
-107.6562
 30
0.0
 10
178.266
 20
-107.6561
 30
0.0
 10
179.7513
 20
-106.6435
 30
0.0
 10
180.6279
 20
-105.1759
 30
0.0
 10
180.6279
 20
-105.1759
 30
0.0
 10
181.5056
 20
-106.6483
 30
0.0
 10
182.9885
 20
-107.6562
 30
0.0
 10
184.7027
 20
-107.6562
 30
0.0
 10
184.7027
 20
-107.6562
 30
0.0
 10
187.1115
 20
-107.6561
 30
0.0
 10
189.0643
 20
-105.6635
 30
0.0
 10
189.0643
 20
-103.2054
 30
0.0
 10
189.0643
 20
-103.2054
 30
0.0
 10
189.0643
 20
-101.464
 30
0.0
 10
188.0855
 20
-99.958
 30
0.0
 10
186.6603
 20
-99.2178
 30
0.0
 10
186.6603
 20
-99.2178
 30
0.0
 10
188.0856
 20
-98.4773
 30
0.0
 10
189.0643
 20
-96.971
 30
0.0
 10
189.0643
 20
-95.2297
 30
0.0
 10
189.0643
 20
-95.2297
 30
0.0
 10
189.0643
 20
-92.7716
 30
0.0
 10
187.1115
 20
-90.7788
 30
0.0
 10
184.7027
 20
-90.7788
 30
0.0
 10
184.7027
 20
-90.7788
 30
0.0
 10
182.9918
 20
-90.7788
 30
0.0
 10
181.5104
 20
-91.7836
 30
0.0
 10
180.6173
 20
-93.2298
 30
0.0
 10
180.6173
 20
-93.2298
 30
0.0
 10
179.7174
 20
-91.7681
 30
0.0
 10
178.2461
 20
-90.7788
 30
0.0
 10
176.5484
 20
-90.7788
 30
0.0
  0
ENDSEC
  0
SECTION
  2
OBJECTS
  0
DICTIONARY
  5
C
330
0
100
AcDbDictionary
281
     1
  3
ACAD_GROUP
350
D
  3
ACAD_LAYOUT
350
1A
  3
ACAD_MATERIAL
350
3B
  3
ACAD_MLEADERSTYLE
350
AA
  3
ACAD_MLINESTYLE
350
17
  3
ACAD_PLOTSETTINGS
350
19
  3
ACAD_PLOTSTYLENAME
350
E
  3
ACAD_TABLESTYLE
350
A9
  3
ACAD_VISUALSTYLE
350
2A
  0
DICTIONARY
  5
D
102
{ACAD_REACTORS
330
C
102
}
330
C
100
AcDbDictionary
281
     1
  0
DICTIONARY
  5
1A
102
{ACAD_REACTORS
330
C
102
}
330
C
100
AcDbDictionary
281
     1
  3
Layout1
350
1E
  3
Layout2
350
26
  3
Model
350
22
  0
DICTIONARY
  5
3B
102
{ACAD_REACTORS
330
C
102
}
330
C
100
AcDbDictionary
281
     1
  3
ByBlock
350
3D
  3
ByLayer
350
3C
  3
Global
350
3E
  0
DICTIONARY
  5
AA
102
{ACAD_REACTORS
330
C
102
}
330
C
100
AcDbDictionary
281
     1
  0
DICTIONARY
  5
17
102
{ACAD_REACTORS
330
C
102
}
330
C
100
AcDbDictionary
281
     1
  3
Standard
350
18
  0
DICTIONARY
  5
19
102
{ACAD_REACTORS
330
C
102
}
330
C
100
AcDbDictionary
281
     1
  0
ACDBDICTIONARYWDFLT
  5
E
102
{ACAD_REACTORS
330
C
102
}
330
C
100
AcDbDictionary
281
     1
  3
Normal
350
F
100
AcDbDictionaryWithDefault
340
F
  0
DICTIONARY
  5
A9
102
{ACAD_REACTORS
330
C
102
}
330
C
100
AcDbDictionary
281
     1
  0
DICTIONARY
  5
2A
102
{ACAD_REACTORS
330
C
102
}
330
C
100
AcDbDictionary
281
     1
  3
2dWireframe
350
2F
  3
3D Hidden
350
31
  3
3dWireframe
350
30
  3
Basic
350
32
  3
Brighten
350
36
  3
ColorChange
350
3A
  3
Conceptual
350
34
  3
Dim
350
35
  3
Facepattern
350
39
  3
Flat
350
2B
  3
FlatWithEdges
350
2C
  3
Gouraud
350
2D
  3
GouraudWithEdges
350
2E
  3
Linepattern
350
38
  3
Realistic
350
33
  3
Thicken
350
37
  0
LAYOUT
  5
1E
102
{ACAD_REACTORS
330
1A
102
}
330
1A
100
AcDbPlotSettings
  1

  2
none_device
  4

  6

 40
0.0
 41
0.0
 42
0.0
 43
0.0
 44
0.0
 45
0.0
 46
0.0
 47
0.0
 48
0.0
 49
0.0
140
0.0
141
0.0
142
1.0
143
1.0
 70
   688
 72
     0
 73
     0
 74
     5
  7

 75
    16
 76
     0
 77
     2
 78
   300
147
1.0
148
0.0
149
0.0
100
AcDbLayout
  1
Layout1
 70
     1
 71
     1
 10
0.0
 20
0.0
 11
12.0
 21
9.0
 12
0.0
 22
0.0
 32
0.0
 14
1.000000000000000E+20
 24
1.000000000000000E+20
 34
1.000000000000000E+20
 15
-1.000000000000000E+20
 25
-1.000000000000000E+20
 35
-1.000000000000000E+20
146
0.0
 13
0.0
 23
0.0
 33
0.0
 16
1.0
 26
0.0
 36
0.0
 17
0.0
 27
1.0
 37
0.0
 76
     0
330
1B
  0
LAYOUT
  5
26
102
{ACAD_REACTORS
330
1A
102
}
330
1A
100
AcDbPlotSettings
  1

  2
none_device
  4

  6

 40
0.0
 41
0.0
 42
0.0
 43
0.0
 44
0.0
 45
0.0
 46
0.0
 47
0.0
 48
0.0
 49
0.0
140
0.0
141
0.0
142
1.0
143
1.0
 70
   688
 72
     0
 73
     0
 74
     5
  7

 75
    16
 76
     0
 77
     2
 78
   300
147
1.0
148
0.0
149
0.0
100
AcDbLayout
  1
Layout2
 70
     1
 71
     2
 10
0.0
 20
0.0
 11
0.0
 21
0.0
 12
0.0
 22
0.0
 32
0.0
 14
0.0
 24
0.0
 34
0.0
 15
0.0
 25
0.0
 35
0.0
146
0.0
 13
0.0
 23
0.0
 33
0.0
 16
1.0
 26
0.0
 36
0.0
 17
0.0
 27
1.0
 37
0.0
 76
     0
330
23
  0
LAYOUT
  5
22
102
{ACAD_REACTORS
330
1A
102
}
330
1A
100
AcDbPlotSettings
  1

  2
none_device
  4

  6

 40
0.0
 41
0.0
 42
0.0
 43
0.0
 44
0.0
 45
0.0
 46
0.0
 47
0.0
 48
0.0
 49
0.0
140
0.0
141
0.0
142
1.0
143
1.0
 70
  1712
 72
     0
 73
     0
 74
     0
  7

 75
     0
 76
     0
 77
     2
 78
   300
147
1.0
148
0.0
149
0.0
100
AcDbLayout
  1
Model
 70
     1
 71
     0
 10
0.0
 20
0.0
 11
12.0
 21
9.0
 12
0.0
 22
0.0
 32
0.0
 14
24.4635
 24
-114.8566
 34
0.0
 15
196.2175
 25
131.7298
 35
0.0
146
0.0
 13
0.0
 23
0.0
 33
0.0
 16
1.0
 26
0.0
 36
0.0
 17
0.0
 27
1.0
 37
0.0
 76
     0
330
1F
331
29
  0
MATERIAL
  5
3D
102
{ACAD_REACTORS
330
3B
102
}
330
3B
100
AcDbMaterial
  1
ByBlock
 72
     1
 94
      127
  0
MATERIAL
  5
3C
102
{ACAD_REACTORS
330
3B
102
}
330
3B
100
AcDbMaterial
  1
ByLayer
 72
     1
 94
      127
  0
MATERIAL
  5
3E
102
{ACAD_REACTORS
330
3B
102
}
330
3B
100
AcDbMaterial
  1
Global
 72
     1
 94
      127
  0
MLINESTYLE
  5
18
102
{ACAD_REACTORS
330
17
102
}
330
17
100
AcDbMlineStyle
  2
Standard
 70
     0
  3

 62
   256
 51
90.0
 52
90.0
 71
     2
 49
0.5
 62
   256
  6
BYLAYER
 49
-0.5
 62
   256
  6
BYLAYER
  0
ACDBPLACEHOLDER
  5
F
102
{ACAD_REACTORS
330
E
102
}
330
E
  0
VISUALSTYLE
  5
2F
102
{ACAD_REACTORS
330
2A
102
}
102
{ACAD_XDICTIONARY
360
91
102
}
330
2A
100
AcDbVisualStyle
  2
2dWireframe
 70
     4
 71
     0
 72
     2
 73
     0
 90
        0
 40
-0.6
 41
-30.0
 62
     5
 63
     7
421
 16777215
 74
     1
 91
        4
 64
     7
 65
   257
 75
     1
175
     1
 42
1.0
 92
        0
 66
   257
 43
1.0
 76
     1
 77
     6
 78
     2
 67
     7
 79
     5
170
     0
171
     0
290
     0
174
     0
 93
        1
 44
0.0
173
     0
291
     0
 45
0.0
  0
VISUALSTYLE
  5
31
102
{ACAD_REACTORS
330
2A
102
}
102
{ACAD_XDICTIONARY
360
95
102
}
330
2A
100
AcDbVisualStyle
  2
3D Hidden
 70
     6
 71
     1
 72
     2
 73
     2
 90
        0
 40
-0.6
 41
-30.0
 62
     5
 63
     7
421
 16777215
 74
     2
 91
        2
 64
     7
 65
   257
 75
     2
175
     1
 42
40.0
 92
        0
 66
   257
 43
1.0
 76
     1
 77
     6
 78
     2
 67
     7
 79
     3
170
     0
171
     0
290
     0
174
     0
 93
        1
 44
0.0
173
     0
291
     0
 45
0.0
  0
VISUALSTYLE
  5
30
102
{ACAD_REACTORS
330
2A
102
}
102
{ACAD_XDICTIONARY
360
93
102
}
330
2A
100
AcDbVisualStyle
  2
3dWireframe
 70
     5
 71
     0
 72
     2
 73
     0
 90
        0
 40
-0.6
 41
-30.0
 62
     5
 63
     7
421
 16777215
 74
     1
 91
        4
 64
     7
 65
   257
 75
     1
175
     1
 42
1.0
 92
        0
 66
   257
 43
1.0
 76
     1
 77
     6
 78
     2
 67
     7
 79
     5
170
     0
171
     0
290
     0
174
     0
 93
        1
 44
0.0
173
     0
291
     0
 45
0.0
  0
VISUALSTYLE
  5
32
102
{ACAD_REACTORS
330
2A
102
}
102
{ACAD_XDICTIONARY
360
97
102
}
330
2A
100
AcDbVisualStyle
  2
Basic
 70
     7
 71
     1
 72
     0
 73
     1
 90
        0
 40
-0.6
 41
-30.0
 62
     5
 63
     7
421
 16777215
 74
     0
 91
        4
 64
     7
 65
   257
 75
     1
175
     1
 42
1.0
 92
        8
 66
     7
 43
1.0
 76
     1
 77
     6
 78
     2
 67
     7
 79
     5
170
     0
171
     0
290
     0
174
     0
 93
        1
 44
0.0
173
     0
291
     1
 45
0.0
  0
VISUALSTYLE
  5
36
102
{ACAD_REACTORS
330
2A
102
}
102
{ACAD_XDICTIONARY
360
9F
102
}
330
2A
100
AcDbVisualStyle
  2
Brighten
 70
    12
 71
     2
 72
     2
 73
     0
 90
        0
 40
-0.6
 41
-30.0
 62
     5
 63
     7
421
 16777215
 74
     1
 91
        4
 64
     7
 65
   257
 75
     1
175
     1
 42
1.0
 92
        8
 66
     7
 43
1.0
 76
     1
 77
     6
 78
     2
 67
     7
 79
     5
170
     0
171
     0
290
     0
174
     0
 93
        1
 44
50.0
173
     0
291
     1
 45
0.0
  0
VISUALSTYLE
  5
3A
102
{ACAD_REACTORS
330
2A
102
}
102
{ACAD_XDICTIONARY
360
A7
102
}
330
2A
100
AcDbVisualStyle
  2
ColorChange
 70
    16
 71
     2
 72
     2
 73
     3
 90
        0
 40
-0.6
 41
-30.0
 62
     5
 63
     8
421
  8421504
 74
     1
 91
        4
 64
     7
 65
   257
 75
     1
175
     1
 42
1.0
 92
        8
 66
     8
424
  8421504
 43
1.0
 76
     1
 77
     6
 78
     2
 67
     7
 79
     5
170
     0
171
     0
290
     0
174
     0
 93
        1
 44
0.0
173
     0
291
     1
 45
0.0
  0
VISUALSTYLE
  5
34
102
{ACAD_REACTORS
330
2A
102
}
102
{ACAD_XDICTIONARY
360
9B
102
}
330
2A
100
AcDbVisualStyle
  2
Conceptual
 70
     9
 71
     3
 72
     2
 73
     0
 90
        0
 40
-0.6
 41
-30.0
 62
     5
 63
     7
421
 16777215
 74
     2
 91
        2
 64
     7
 65
   257
 75
     1
175
     1
 42
40.0
 92
        8
 66
     7
 43
1.0
 76
     1
 77
     6
 78
     2
 67
     7
 79
     3
170
     0
171
     0
290
     0
174
     0
 93
        1
 44
0.0
173
     0
291
     0
 45
0.0
  0
VISUALSTYLE
  5
35
102
{ACAD_REACTORS
330
2A
102
}
102
{ACAD_XDICTIONARY
360
9D
102
}
330
2A
100
AcDbVisualStyle
  2
Dim
 70
    11
 71
     2
 72
     2
 73
     0
 90
        0
 40
-0.6
 41
-30.0
 62
     5
 63
     7
421
 16777215
 74
     1
 91
        4
 64
     7
 65
   257
 75
     1
175
     1
 42
1.0
 92
        8
 66
     7
 43
1.0
 76
     1
 77
     6
 78
     2
 67
     7
 79
     5
170
     0
171
     0
290
     0
174
     0
 93
        1
 44
-50.0
173
     0
291
     1
 45
0.0
  0
VISUALSTYLE
  5
39
102
{ACAD_REACTORS
330
2A
102
}
102
{ACAD_XDICTIONARY
360
A5
102
}
330
2A
100
AcDbVisualStyle
  2
Facepattern
 70
    15
 71
     2
 72
     2
 73
     0
 90
        0
 40
-0.6
 41
-30.0
 62
     5
 63
     7
421
 16777215
 74
     1
 91
        4
 64
     7
 65
   257
 75
     1
175
     1
 42
1.0
 92
        8
 66
     7
 43
1.0
 76
     1
 77
     6
 78
     2
 67
     7
 79
     5
170
     0
171
     0
290
     0
174
     0
 93
        1
 44
0.0
173
     0
291
     1
 45
0.0
  0
VISUALSTYLE
  5
2B
102
{ACAD_REACTORS
330
2A
102
}
102
{ACAD_XDICTIONARY
360
89
102
}
330
2A
100
AcDbVisualStyle
  2
Flat
 70
     0
 71
     2
 72
     1
 73
     1
 90
        2
 40
-0.6
 41
30.0
 62
     5
 63
     7
421
 16777215
 74
     0
 91
        4
 64
     7
 65
   257
 75
     1
175
     1
 42
1.0
 92
        8
 66
     7
 43
1.0
 76
     1
 77
     6
 78
     2
 67
     7
 79
     5
170
     0
171
     0
290
     0
174
     0
 93
       13
 44
0.0
173
     0
291
     1
 45
0.0
  0
VISUALSTYLE
  5
2C
102
{ACAD_REACTORS
330
2A
102
}
102
{ACAD_XDICTIONARY
360
8B
102
}
330
2A
100
AcDbVisualStyle
  2
FlatWithEdges
 70
     1
 71
     2
 72
     1
 73
     1
 90
        2
 40
-0.6
 41
30.0
 62
     5
 63
     7
421
 16777215
 74
     1
 91
        4
 64
     7
 65
   257
 75
     1
175
     1
 42
1.0
 92
        0
 66
   257
 43
1.0
 76
     1
 77
     6
 78
     2
 67
     7
 79
     5
170
     0
171
     0
290
     0
174
     0
 93
       13
 44
0.0
173
     0
291
     1
 45
0.0
  0
VISUALSTYLE
  5
2D
102
{ACAD_REACTORS
330
2A
102
}
102
{ACAD_XDICTIONARY
360
8D
102
}
330
2A
100
AcDbVisualStyle
  2
Gouraud
 70
     2
 71
     2
 72
     2
 73
     1
 90
        2
 40
-0.6
 41
30.0
 62
     5
 63
     7
421
 16777215
 74
     0
 91
        4
 64
     7
 65
   257
 75
     1
175
     1
 42
1.0
 92
        0
 66
     7
 43
1.0
 76
     1
 77
     6
 78
     2
 67
     7
 79
     5
170
     0
171
     0
290
     0
174
     0
 93
       13
 44
0.0
173
     0
291
     1
 45
0.0
  0
VISUALSTYLE
  5
2E
102
{ACAD_REACTORS
330
2A
102
}
102
{ACAD_XDICTIONARY
360
8F
102
}
330
2A
100
AcDbVisualStyle
  2
GouraudWithEdges
 70
     3
 71
     2
 72
     2
 73
     1
 90
        2
 40
-0.6
 41
30.0
 62
     5
 63
     7
421
 16777215
 74
     1
 91
        4
 64
     7
 65
   257
 75
     1
175
     1
 42
1.0
 92
        0
 66
   257
 43
1.0
 76
     1
 77
     6
 78
     2
 67
     7
 79
     5
170
     0
171
     0
290
     0
174
     0
 93
       13
 44
0.0
173
     0
291
     1
 45
0.0
  0
VISUALSTYLE
  5
38
102
{ACAD_REACTORS
330
2A
102
}
102
{ACAD_XDICTIONARY
360
A3
102
}
330
2A
100
AcDbVisualStyle
  2
Linepattern
 70
    14
 71
     2
 72
     2
 73
     0
 90
        0
 40
-0.6
 41
-30.0
 62
     5
 63
     7
421
 16777215
 74
     1
 91
        4
 64
     7
 65
   257
 75
     7
175
     7
 42
1.0
 92
        8
 66
     7
 43
1.0
 76
     1
 77
     6
 78
     2
 67
     7
 79
     5
170
     0
171
     0
290
     0
174
     0
 93
        1
 44
0.0
173
     0
291
     1
 45
0.0
  0
VISUALSTYLE
  5
33
102
{ACAD_REACTORS
330
2A
102
}
102
{ACAD_XDICTIONARY
360
99
102
}
330
2A
100
AcDbVisualStyle
  2
Realistic
 70
     8
 71
     2
 72
     2
 73
     0
 90
        0
 40
-0.6
 41
-30.0
 62
     5
 63
     7
421
 16777215
 74
     1
 91
        0
 64
     7
 65
   257
 75
     1
175
     1
 42
1.0
 92
        8
 66
     8
424
  7895160
 43
1.0
 76
     1
 77
     6
 78
     2
 67
     7
 79
     5
170
     0
171
     0
290
     0
174
     0
 93
       13
 44
0.0
173
     0
291
     0
 45
0.0
  0
VISUALSTYLE
  5
37
102
{ACAD_REACTORS
330
2A
102
}
102
{ACAD_XDICTIONARY
360
A1
102
}
330
2A
100
AcDbVisualStyle
  2
Thicken
 70
    13
 71
     2
 72
     2
 73
     0
 90
        0
 40
-0.6
 41
-30.0
 62
     5
 63
     7
421
 16777215
 74
     1
 91
        4
 64
     7
 65
   257
 75
     1
175
     1
 42
1.0
 92
       12
 66
     7
 43
1.0
 76
     1
 77
     6
 78
     2
 67
     7
 79
     5
170
     0
171
     0
290
     0
174
     0
 93
        1
 44
0.0
173
     0
291
     1
 45
0.0
  0
DICTIONARY
  5
91
330
2F
100
AcDbDictionary
280
     1
281
     1
  3
ACAD_XREC_ROUNDTRIP
360
92
  0
DICTIONARY
  5
95
330
31
100
AcDbDictionary
280
     1
281
     1
  3
ACAD_XREC_ROUNDTRIP
360
96
  0
DICTIONARY
  5
93
330
30
100
AcDbDictionary
280
     1
281
     1
  3
ACAD_XREC_ROUNDTRIP
360
94
  0
DICTIONARY
  5
97
330
32
100
AcDbDictionary
280
     1
281
     1
  3
ACAD_XREC_ROUNDTRIP
360
98
  0
DICTIONARY
  5
9F
330
36
100
AcDbDictionary
280
     1
281
     1
  3
ACAD_XREC_ROUNDTRIP
360
A0
  0
DICTIONARY
  5
A7
330
3A
100
AcDbDictionary
280
     1
281
     1
  3
ACAD_XREC_ROUNDTRIP
360
A8
  0
DICTIONARY
  5
9B
330
34
100
AcDbDictionary
280
     1
281
     1
  3
ACAD_XREC_ROUNDTRIP
360
9C
  0
DICTIONARY
  5
9D
330
35
100
AcDbDictionary
280
     1
281
     1
  3
ACAD_XREC_ROUNDTRIP
360
9E
  0
DICTIONARY
  5
A5
330
39
100
AcDbDictionary
280
     1
281
     1
  3
ACAD_XREC_ROUNDTRIP
360
A6
  0
DICTIONARY
  5
89
330
2B
100
AcDbDictionary
280
     1
281
     1
  3
ACAD_XREC_ROUNDTRIP
360
8A
  0
DICTIONARY
  5
8B
330
2C
100
AcDbDictionary
280
     1
281
     1
  3
ACAD_XREC_ROUNDTRIP
360
8C
  0
DICTIONARY
  5
8D
330
2D
100
AcDbDictionary
280
     1
281
     1
  3
ACAD_XREC_ROUNDTRIP
360
8E
  0
DICTIONARY
  5
8F
330
2E
100
AcDbDictionary
280
     1
281
     1
  3
ACAD_XREC_ROUNDTRIP
360
90
  0
DICTIONARY
  5
A3
330
38
100
AcDbDictionary
280
     1
281
     1
  3
ACAD_XREC_ROUNDTRIP
360
A4
  0
DICTIONARY
  5
99
330
33
100
AcDbDictionary
280
     1
281
     1
  3
ACAD_XREC_ROUNDTRIP
360
9A
  0
DICTIONARY
  5
A1
330
37
100
AcDbDictionary
280
     1
281
     1
  3
ACAD_XREC_ROUNDTRIP
360
A2
  0
XRECORD
  5
92
102
{ACAD_REACTORS
330
91
102
}
330
91
100
AcDbXrecord
280
     1
102
RTVSPropertyOp0
 70
     1
102
RTVSPropertyOp1
 70
     1
102
RTVSPropertyOp2
 70
     1
102
RTVSPropertyOp3
 70
     1
102
RTVSPropertyOp4
 70
     1
102
RTVSPropertyOp5
 70
     1
102
RTVSPropertyOp6
 70
     1
102
RTVSPropertyOp7
 70
     1
102
RTVSPropertyOp8
 70
     1
102
RTVSPropertyOp9
 70
     1
102
RTVSPropertyOp10
 70
     1
102
RTVSPropertyOp11
 70
     1
102
RTVSPropertyOp12
 70
     1
102
RTVSPropertyOp13
 70
     1
102
RTVSPropertyOp14
 70
     1
102
RTVSPropertyOp15
 70
     1
102
RTVSPropertyOp16
 70
     1
102
RTVSPropertyOp17
 70
     1
102
RTVSPropertyOp18
 70
     1
102
RTVSPropertyOp19
 70
     1
102
RTVSPropertyOp20
 70
     1
102
RTVSPropertyOp21
 70
     1
102
RTVSPropertyOp22
 70
     1
102
RTVSPropertyOp23
 70
     1
102
RTVSPropertyOp24
 70
     1
102
RTVSPropertyOp25
 70
     1
102
RTVSPropertyOp26
 70
     1
102
RTVSPropertyOp27
 70
     1
102
RTVSPropertyOp28
 70
     1
102
RTVSPropertyOp29
 70
     1
102
RTVSPropertyOp30
 70
     1
102
RTVSPropertyOp31
 70
     1
102
RTVSPropertyOp32
 70
     1
  0
XRECORD
  5
96
102
{ACAD_REACTORS
330
95
102
}
330
95
100
AcDbXrecord
280
     1
102
RTVSPropertyOp0
 70
     1
102
RTVSPropertyOp1
 70
     1
102
RTVSPropertyOp2
 70
     1
102
RTVSPropertyOp3
 70
     1
102
RTVSPropertyOp4
 70
     1
102
RTVSPropertyOp5
 70
     1
102
RTVSPropertyOp6
 70
     1
102
RTVSPropertyOp7
 70
     1
102
RTVSPropertyOp8
 70
     1
102
RTVSPropertyOp9
 70
     1
102
RTVSPropertyOp10
 70
     1
102
RTVSPropertyOp11
 70
     1
102
RTVSPropertyOp12
 70
     1
102
RTVSPropertyOp13
 70
     1
102
RTVSPropertyOp14
 70
     1
102
RTVSPropertyOp15
 70
     1
102
RTVSPropertyOp16
 70
     1
102
RTVSPropertyOp17
 70
     1
102
RTVSPropertyOp18
 70
     1
102
RTVSPropertyOp19
 70
     1
102
RTVSPropertyOp20
 70
     1
102
RTVSPropertyOp21
 70
     1
102
RTVSPropertyOp22
 70
     1
102
RTVSPropertyOp23
 70
     1
102
RTVSPropertyOp24
 70
     1
102
RTVSPropertyOp25
 70
     1
102
RTVSPropertyOp26
 70
     1
102
RTVSPropertyOp27
 70
     1
102
RTVSPropertyOp28
 70
     1
102
RTVSPropertyOp29
 70
     1
102
RTVSPropertyOp30
 70
     1
102
RTVSPropertyOp31
 70
     1
102
RTVSPropertyOp32
 70
     1
  0
XRECORD
  5
94
102
{ACAD_REACTORS
330
93
102
}
330
93
100
AcDbXrecord
280
     1
102
RTVSPropertyOp0
 70
     1
102
RTVSPropertyOp1
 70
     1
102
RTVSPropertyOp2
 70
     1
102
RTVSPropertyOp3
 70
     1
102
RTVSPropertyOp4
 70
     1
102
RTVSPropertyOp5
 70
     1
102
RTVSPropertyOp6
 70
     1
102
RTVSPropertyOp7
 70
     1
102
RTVSPropertyOp8
 70
     1
102
RTVSPropertyOp9
 70
     1
102
RTVSPropertyOp10
 70
     1
102
RTVSPropertyOp11
 70
     1
102
RTVSPropertyOp12
 70
     1
102
RTVSPropertyOp13
 70
     1
102
RTVSPropertyOp14
 70
     1
102
RTVSPropertyOp15
 70
     1
102
RTVSPropertyOp16
 70
     1
102
RTVSPropertyOp17
 70
     1
102
RTVSPropertyOp18
 70
     1
102
RTVSPropertyOp19
 70
     1
102
RTVSPropertyOp20
 70
     1
102
RTVSPropertyOp21
 70
     1
102
RTVSPropertyOp22
 70
     1
102
RTVSPropertyOp23
 70
     1
102
RTVSPropertyOp24
 70
     1
102
RTVSPropertyOp25
 70
     1
102
RTVSPropertyOp26
 70
     1
102
RTVSPropertyOp27
 70
     1
102
RTVSPropertyOp28
 70
     1
102
RTVSPropertyOp29
 70
     1
102
RTVSPropertyOp30
 70
     1
102
RTVSPropertyOp31
 70
     1
102
RTVSPropertyOp32
 70
     1
  0
XRECORD
  5
98
102
{ACAD_REACTORS
330
97
102
}
330
97
100
AcDbXrecord
280
     1
102
RTVSPropertyOp0
 70
     1
102
RTVSPropertyOp1
 70
     1
102
RTVSPropertyOp2
 70
     1
102
RTVSPropertyOp3
 70
     1
102
RTVSPropertyOp4
 70
     1
102
RTVSPropertyOp5
 70
     1
102
RTVSPropertyOp6
 70
     1
102
RTVSPropertyOp7
 70
     1
102
RTVSPropertyOp8
 70
     1
102
RTVSPropertyOp9
 70
     1
102
RTVSPropertyOp10
 70
     1
102
RTVSPropertyOp11
 70
     1
102
RTVSPropertyOp12
 70
     1
102
RTVSPropertyOp13
 70
     1
102
RTVSPropertyOp14
 70
     1
102
RTVSPropertyOp15
 70
     1
102
RTVSPropertyOp16
 70
     1
102
RTVSPropertyOp17
 70
     1
102
RTVSPropertyOp18
 70
     1
102
RTVSPropertyOp19
 70
     1
102
RTVSPropertyOp20
 70
     1
102
RTVSPropertyOp21
 70
     1
102
RTVSPropertyOp22
 70
     1
102
RTVSPropertyOp23
 70
     1
102
RTVSPropertyOp24
 70
     1
102
RTVSPropertyOp25
 70
     1
102
RTVSPropertyOp26
 70
     1
102
RTVSPropertyOp27
 70
     1
102
RTVSPropertyOp28
 70
     1
102
RTVSPropertyOp29
 70
     1
102
RTVSPropertyOp30
 70
     1
102
RTVSPropertyOp31
 70
     1
102
RTVSPropertyOp32
 70
     1
  0
XRECORD
  5
A0
102
{ACAD_REACTORS
330
9F
102
}
330
9F
100
AcDbXrecord
280
     1
102
RTVSPropertyOp0
 70
     1
102
RTVSPropertyOp1
 70
     1
102
RTVSPropertyOp2
 70
     1
102
RTVSPropertyOp3
 70
     1
102
RTVSPropertyOp4
 70
     1
102
RTVSPropertyOp5
 70
     1
102
RTVSPropertyOp6
 70
     1
102
RTVSPropertyOp7
 70
     1
102
RTVSPropertyOp8
 70
     1
102
RTVSPropertyOp9
 70
     1
102
RTVSPropertyOp10
 70
     1
102
RTVSPropertyOp11
 70
     1
102
RTVSPropertyOp12
 70
     1
102
RTVSPropertyOp13
 70
     1
102
RTVSPropertyOp14
 70
     1
102
RTVSPropertyOp15
 70
     1
102
RTVSPropertyOp16
 70
     1
102
RTVSPropertyOp17
 70
     1
102
RTVSPropertyOp18
 70
     1
102
RTVSPropertyOp19
 70
     1
102
RTVSPropertyOp20
 70
     1
102
RTVSPropertyOp21
 70
     1
102
RTVSPropertyOp22
 70
     1
102
RTVSPropertyOp23
 70
     1
102
RTVSPropertyOp24
 70
     1
102
RTVSPropertyOp25
 70
     1
102
RTVSPropertyOp26
 70
     1
102
RTVSPropertyOp27
 70
     1
102
RTVSPropertyOp28
 70
     1
102
RTVSPropertyOp29
 70
     1
102
RTVSPropertyOp30
 70
     1
102
RTVSPropertyOp31
 70
     1
102
RTVSPropertyOp32
 70
     1
  0
XRECORD
  5
A8
102
{ACAD_REACTORS
330
A7
102
}
330
A7
100
AcDbXrecord
280
     1
102
RTVSPropertyOp0
 70
     1
102
RTVSPropertyOp1
 70
     1
102
RTVSPropertyOp2
 70
     1
102
RTVSPropertyOp3
 70
     1
102
RTVSPropertyOp4
 70
     1
102
RTVSPropertyOp5
 70
     1
102
RTVSPropertyOp6
 70
     1
102
RTVSPropertyOp7
 70
     1
102
RTVSPropertyOp8
 70
     1
102
RTVSPropertyOp9
 70
     1
102
RTVSPropertyOp10
 70
     1
102
RTVSPropertyOp11
 70
     1
102
RTVSPropertyOp12
 70
     1
102
RTVSPropertyOp13
 70
     1
102
RTVSPropertyOp14
 70
     1
102
RTVSPropertyOp15
 70
     1
102
RTVSPropertyOp16
 70
     1
102
RTVSPropertyOp17
 70
     1
102
RTVSPropertyOp18
 70
     1
102
RTVSPropertyOp19
 70
     1
102
RTVSPropertyOp20
 70
     1
102
RTVSPropertyOp21
 70
     1
102
RTVSPropertyOp22
 70
     1
102
RTVSPropertyOp23
 70
     1
102
RTVSPropertyOp24
 70
     1
102
RTVSPropertyOp25
 70
     1
102
RTVSPropertyOp26
 70
     1
102
RTVSPropertyOp27
 70
     1
102
RTVSPropertyOp28
 70
     1
102
RTVSPropertyOp29
 70
     1
102
RTVSPropertyOp30
 70
     1
102
RTVSPropertyOp31
 70
     1
102
RTVSPropertyOp32
 70
     1
  0
XRECORD
  5
9C
102
{ACAD_REACTORS
330
9B
102
}
330
9B
100
AcDbXrecord
280
     1
102
RTVSPropertyOp0
 70
     1
102
RTVSPropertyOp1
 70
     1
102
RTVSPropertyOp2
 70
     1
102
RTVSPropertyOp3
 70
     1
102
RTVSPropertyOp4
 70
     1
102
RTVSPropertyOp5
 70
     1
102
RTVSPropertyOp6
 70
     1
102
RTVSPropertyOp7
 70
     1
102
RTVSPropertyOp8
 70
     1
102
RTVSPropertyOp9
 70
     1
102
RTVSPropertyOp10
 70
     1
102
RTVSPropertyOp11
 70
     1
102
RTVSPropertyOp12
 70
     1
102
RTVSPropertyOp13
 70
     1
102
RTVSPropertyOp14
 70
     1
102
RTVSPropertyOp15
 70
     1
102
RTVSPropertyOp16
 70
     1
102
RTVSPropertyOp17
 70
     1
102
RTVSPropertyOp18
 70
     1
102
RTVSPropertyOp19
 70
     1
102
RTVSPropertyOp20
 70
     1
102
RTVSPropertyOp21
 70
     1
102
RTVSPropertyOp22
 70
     1
102
RTVSPropertyOp23
 70
     1
102
RTVSPropertyOp24
 70
     1
102
RTVSPropertyOp25
 70
     1
102
RTVSPropertyOp26
 70
     1
102
RTVSPropertyOp27
 70
     1
102
RTVSPropertyOp28
 70
     1
102
RTVSPropertyOp29
 70
     1
102
RTVSPropertyOp30
 70
     1
102
RTVSPropertyOp31
 70
     1
102
RTVSPropertyOp32
 70
     1
  0
XRECORD
  5
9E
102
{ACAD_REACTORS
330
9D
102
}
330
9D
100
AcDbXrecord
280
     1
102
RTVSPropertyOp0
 70
     1
102
RTVSPropertyOp1
 70
     1
102
RTVSPropertyOp2
 70
     1
102
RTVSPropertyOp3
 70
     1
102
RTVSPropertyOp4
 70
     1
102
RTVSPropertyOp5
 70
     1
102
RTVSPropertyOp6
 70
     1
102
RTVSPropertyOp7
 70
     1
102
RTVSPropertyOp8
 70
     1
102
RTVSPropertyOp9
 70
     1
102
RTVSPropertyOp10
 70
     1
102
RTVSPropertyOp11
 70
     1
102
RTVSPropertyOp12
 70
     1
102
RTVSPropertyOp13
 70
     1
102
RTVSPropertyOp14
 70
     1
102
RTVSPropertyOp15
 70
     1
102
RTVSPropertyOp16
 70
     1
102
RTVSPropertyOp17
 70
     1
102
RTVSPropertyOp18
 70
     1
102
RTVSPropertyOp19
 70
     1
102
RTVSPropertyOp20
 70
     1
102
RTVSPropertyOp21
 70
     1
102
RTVSPropertyOp22
 70
     1
102
RTVSPropertyOp23
 70
     1
102
RTVSPropertyOp24
 70
     1
102
RTVSPropertyOp25
 70
     1
102
RTVSPropertyOp26
 70
     1
102
RTVSPropertyOp27
 70
     1
102
RTVSPropertyOp28
 70
     1
102
RTVSPropertyOp29
 70
     1
102
RTVSPropertyOp30
 70
     1
102
RTVSPropertyOp31
 70
     1
102
RTVSPropertyOp32
 70
     1
  0
XRECORD
  5
A6
102
{ACAD_REACTORS
330
A5
102
}
330
A5
100
AcDbXrecord
280
     1
102
RTVSPropertyOp0
 70
     1
102
RTVSPropertyOp1
 70
     1
102
RTVSPropertyOp2
 70
     1
102
RTVSPropertyOp3
 70
     1
102
RTVSPropertyOp4
 70
     1
102
RTVSPropertyOp5
 70
     1
102
RTVSPropertyOp6
 70
     1
102
RTVSPropertyOp7
 70
     1
102
RTVSPropertyOp8
 70
     1
102
RTVSPropertyOp9
 70
     1
102
RTVSPropertyOp10
 70
     1
102
RTVSPropertyOp11
 70
     1
102
RTVSPropertyOp12
 70
     1
102
RTVSPropertyOp13
 70
     1
102
RTVSPropertyOp14
 70
     1
102
RTVSPropertyOp15
 70
     1
102
RTVSPropertyOp16
 70
     1
102
RTVSPropertyOp17
 70
     1
102
RTVSPropertyOp18
 70
     1
102
RTVSPropertyOp19
 70
     1
102
RTVSPropertyOp20
 70
     1
102
RTVSPropertyOp21
 70
     1
102
RTVSPropertyOp22
 70
     1
102
RTVSPropertyOp23
 70
     1
102
RTVSPropertyOp24
 70
     1
102
RTVSPropertyOp25
 70
     1
102
RTVSPropertyOp26
 70
     1
102
RTVSPropertyOp27
 70
     1
102
RTVSPropertyOp28
 70
     1
102
RTVSPropertyOp29
 70
     1
102
RTVSPropertyOp30
 70
     1
102
RTVSPropertyOp31
 70
     1
102
RTVSPropertyOp32
 70
     1
  0
XRECORD
  5
8A
102
{ACAD_REACTORS
330
89
102
}
330
89
100
AcDbXrecord
280
     1
102
RTVSPropertyOp0
 70
     1
102
RTVSPropertyOp1
 70
     1
102
RTVSPropertyOp2
 70
     1
102
RTVSPropertyOp3
 70
     1
102
RTVSPropertyOp4
 70
     1
102
RTVSPropertyOp5
 70
     1
102
RTVSPropertyOp6
 70
     1
102
RTVSPropertyOp7
 70
     1
102
RTVSPropertyOp8
 70
     1
102
RTVSPropertyOp9
 70
     1
102
RTVSPropertyOp10
 70
     1
102
RTVSPropertyOp11
 70
     1
102
RTVSPropertyOp12
 70
     1
102
RTVSPropertyOp13
 70
     1
102
RTVSPropertyOp14
 70
     1
102
RTVSPropertyOp15
 70
     1
102
RTVSPropertyOp16
 70
     1
102
RTVSPropertyOp17
 70
     1
102
RTVSPropertyOp18
 70
     1
102
RTVSPropertyOp19
 70
     1
102
RTVSPropertyOp20
 70
     1
102
RTVSPropertyOp21
 70
     1
102
RTVSPropertyOp22
 70
     1
102
RTVSPropertyOp23
 70
     1
102
RTVSPropertyOp24
 70
     1
102
RTVSPropertyOp25
 70
     1
102
RTVSPropertyOp26
 70
     1
102
RTVSPropertyOp27
 70
     1
102
RTVSPropertyOp28
 70
     1
102
RTVSPropertyOp29
 70
     1
102
RTVSPropertyOp30
 70
     1
102
RTVSPropertyOp31
 70
     1
102
RTVSPropertyOp32
 70
     1
  0
XRECORD
  5
8C
102
{ACAD_REACTORS
330
8B
102
}
330
8B
100
AcDbXrecord
280
     1
102
RTVSPropertyOp0
 70
     1
102
RTVSPropertyOp1
 70
     1
102
RTVSPropertyOp2
 70
     1
102
RTVSPropertyOp3
 70
     1
102
RTVSPropertyOp4
 70
     1
102
RTVSPropertyOp5
 70
     1
102
RTVSPropertyOp6
 70
     1
102
RTVSPropertyOp7
 70
     1
102
RTVSPropertyOp8
 70
     1
102
RTVSPropertyOp9
 70
     1
102
RTVSPropertyOp10
 70
     1
102
RTVSPropertyOp11
 70
     1
102
RTVSPropertyOp12
 70
     1
102
RTVSPropertyOp13
 70
     1
102
RTVSPropertyOp14
 70
     1
102
RTVSPropertyOp15
 70
     1
102
RTVSPropertyOp16
 70
     1
102
RTVSPropertyOp17
 70
     1
102
RTVSPropertyOp18
 70
     1
102
RTVSPropertyOp19
 70
     1
102
RTVSPropertyOp20
 70
     1
102
RTVSPropertyOp21
 70
     1
102
RTVSPropertyOp22
 70
     1
102
RTVSPropertyOp23
 70
     1
102
RTVSPropertyOp24
 70
     1
102
RTVSPropertyOp25
 70
     1
102
RTVSPropertyOp26
 70
     1
102
RTVSPropertyOp27
 70
     1
102
RTVSPropertyOp28
 70
     1
102
RTVSPropertyOp29
 70
     1
102
RTVSPropertyOp30
 70
     1
102
RTVSPropertyOp31
 70
     1
102
RTVSPropertyOp32
 70
     1
  0
XRECORD
  5
8E
102
{ACAD_REACTORS
330
8D
102
}
330
8D
100
AcDbXrecord
280
     1
102
RTVSPropertyOp0
 70
     1
102
RTVSPropertyOp1
 70
     1
102
RTVSPropertyOp2
 70
     1
102
RTVSPropertyOp3
 70
     1
102
RTVSPropertyOp4
 70
     1
102
RTVSPropertyOp5
 70
     1
102
RTVSPropertyOp6
 70
     1
102
RTVSPropertyOp7
 70
     1
102
RTVSPropertyOp8
 70
     1
102
RTVSPropertyOp9
 70
     1
102
RTVSPropertyOp10
 70
     1
102
RTVSPropertyOp11
 70
     1
102
RTVSPropertyOp12
 70
     1
102
RTVSPropertyOp13
 70
     1
102
RTVSPropertyOp14
 70
     1
102
RTVSPropertyOp15
 70
     1
102
RTVSPropertyOp16
 70
     1
102
RTVSPropertyOp17
 70
     1
102
RTVSPropertyOp18
 70
     1
102
RTVSPropertyOp19
 70
     1
102
RTVSPropertyOp20
 70
     1
102
RTVSPropertyOp21
 70
     1
102
RTVSPropertyOp22
 70
     1
102
RTVSPropertyOp23
 70
     1
102
RTVSPropertyOp24
 70
     1
102
RTVSPropertyOp25
 70
     1
102
RTVSPropertyOp26
 70
     1
102
RTVSPropertyOp27
 70
     1
102
RTVSPropertyOp28
 70
     1
102
RTVSPropertyOp29
 70
     1
102
RTVSPropertyOp30
 70
     1
102
RTVSPropertyOp31
 70
     1
102
RTVSPropertyOp32
 70
     1
  0
XRECORD
  5
90
102
{ACAD_REACTORS
330
8F
102
}
330
8F
100
AcDbXrecord
280
     1
102
RTVSPropertyOp0
 70
     1
102
RTVSPropertyOp1
 70
     1
102
RTVSPropertyOp2
 70
     1
102
RTVSPropertyOp3
 70
     1
102
RTVSPropertyOp4
 70
     1
102
RTVSPropertyOp5
 70
     1
102
RTVSPropertyOp6
 70
     1
102
RTVSPropertyOp7
 70
     1
102
RTVSPropertyOp8
 70
     1
102
RTVSPropertyOp9
 70
     1
102
RTVSPropertyOp10
 70
     1
102
RTVSPropertyOp11
 70
     1
102
RTVSPropertyOp12
 70
     1
102
RTVSPropertyOp13
 70
     1
102
RTVSPropertyOp14
 70
     1
102
RTVSPropertyOp15
 70
     1
102
RTVSPropertyOp16
 70
     1
102
RTVSPropertyOp17
 70
     1
102
RTVSPropertyOp18
 70
     1
102
RTVSPropertyOp19
 70
     1
102
RTVSPropertyOp20
 70
     1
102
RTVSPropertyOp21
 70
     1
102
RTVSPropertyOp22
 70
     1
102
RTVSPropertyOp23
 70
     1
102
RTVSPropertyOp24
 70
     1
102
RTVSPropertyOp25
 70
     1
102
RTVSPropertyOp26
 70
     1
102
RTVSPropertyOp27
 70
     1
102
RTVSPropertyOp28
 70
     1
102
RTVSPropertyOp29
 70
     1
102
RTVSPropertyOp30
 70
     1
102
RTVSPropertyOp31
 70
     1
102
RTVSPropertyOp32
 70
     1
  0
XRECORD
  5
A4
102
{ACAD_REACTORS
330
A3
102
}
330
A3
100
AcDbXrecord
280
     1
102
RTVSPropertyOp0
 70
     1
102
RTVSPropertyOp1
 70
     1
102
RTVSPropertyOp2
 70
     1
102
RTVSPropertyOp3
 70
     1
102
RTVSPropertyOp4
 70
     1
102
RTVSPropertyOp5
 70
     1
102
RTVSPropertyOp6
 70
     1
102
RTVSPropertyOp7
 70
     1
102
RTVSPropertyOp8
 70
     1
102
RTVSPropertyOp9
 70
     1
102
RTVSPropertyOp10
 70
     1
102
RTVSPropertyOp11
 70
     1
102
RTVSPropertyOp12
 70
     1
102
RTVSPropertyOp13
 70
     1
102
RTVSPropertyOp14
 70
     1
102
RTVSPropertyOp15
 70
     1
102
RTVSPropertyOp16
 70
     1
102
RTVSPropertyOp17
 70
     1
102
RTVSPropertyOp18
 70
     1
102
RTVSPropertyOp19
 70
     1
102
RTVSPropertyOp20
 70
     1
102
RTVSPropertyOp21
 70
     1
102
RTVSPropertyOp22
 70
     1
102
RTVSPropertyOp23
 70
     1
102
RTVSPropertyOp24
 70
     1
102
RTVSPropertyOp25
 70
     1
102
RTVSPropertyOp26
 70
     1
102
RTVSPropertyOp27
 70
     1
102
RTVSPropertyOp28
 70
     1
102
RTVSPropertyOp29
 70
     1
102
RTVSPropertyOp30
 70
     1
102
RTVSPropertyOp31
 70
     1
102
RTVSPropertyOp32
 70
     1
  0
XRECORD
  5
9A
102
{ACAD_REACTORS
330
99
102
}
330
99
100
AcDbXrecord
280
     1
102
RTVSPropertyOp0
 70
     1
102
RTVSPropertyOp1
 70
     1
102
RTVSPropertyOp2
 70
     1
102
RTVSPropertyOp3
 70
     1
102
RTVSPropertyOp4
 70
     1
102
RTVSPropertyOp5
 70
     1
102
RTVSPropertyOp6
 70
     1
102
RTVSPropertyOp7
 70
     1
102
RTVSPropertyOp8
 70
     1
102
RTVSPropertyOp9
 70
     1
102
RTVSPropertyOp10
 70
     1
102
RTVSPropertyOp11
 70
     1
102
RTVSPropertyOp12
 70
     1
102
RTVSPropertyOp13
 70
     1
102
RTVSPropertyOp14
 70
     1
102
RTVSPropertyOp15
 70
     1
102
RTVSPropertyOp16
 70
     1
102
RTVSPropertyOp17
 70
     1
102
RTVSPropertyOp18
 70
     1
102
RTVSPropertyOp19
 70
     1
102
RTVSPropertyOp20
 70
     1
102
RTVSPropertyOp21
 70
     1
102
RTVSPropertyOp22
 70
     1
102
RTVSPropertyOp23
 70
     1
102
RTVSPropertyOp24
 70
     1
102
RTVSPropertyOp25
 70
     1
102
RTVSPropertyOp26
 70
     1
102
RTVSPropertyOp27
 70
     1
102
RTVSPropertyOp28
 70
     1
102
RTVSPropertyOp29
 70
     1
102
RTVSPropertyOp30
 70
     1
102
RTVSPropertyOp31
 70
     1
102
RTVSPropertyOp32
 70
     1
  0
XRECORD
  5
A2
102
{ACAD_REACTORS
330
A1
102
}
330
A1
100
AcDbXrecord
280
     1
102
RTVSPropertyOp0
 70
     1
102
RTVSPropertyOp1
 70
     1
102
RTVSPropertyOp2
 70
     1
102
RTVSPropertyOp3
 70
     1
102
RTVSPropertyOp4
 70
     1
102
RTVSPropertyOp5
 70
     1
102
RTVSPropertyOp6
 70
     1
102
RTVSPropertyOp7
 70
     1
102
RTVSPropertyOp8
 70
     1
102
RTVSPropertyOp9
 70
     1
102
RTVSPropertyOp10
 70
     1
102
RTVSPropertyOp11
 70
     1
102
RTVSPropertyOp12
 70
     1
102
RTVSPropertyOp13
 70
     1
102
RTVSPropertyOp14
 70
     1
102
RTVSPropertyOp15
 70
     1
102
RTVSPropertyOp16
 70
     1
102
RTVSPropertyOp17
 70
     1
102
RTVSPropertyOp18
 70
     1
102
RTVSPropertyOp19
 70
     1
102
RTVSPropertyOp20
 70
     1
102
RTVSPropertyOp21
 70
     1
102
RTVSPropertyOp22
 70
     1
102
RTVSPropertyOp23
 70
     1
102
RTVSPropertyOp24
 70
     1
102
RTVSPropertyOp25
 70
     1
102
RTVSPropertyOp26
 70
     1
102
RTVSPropertyOp27
 70
     1
102
RTVSPropertyOp28
 70
     1
102
RTVSPropertyOp29
 70
     1
102
RTVSPropertyOp30
 70
     1
102
RTVSPropertyOp31
 70
     1
102
RTVSPropertyOp32
 70
     1
  0
ENDSEC
  0
EOF
