  0
SECTION
  2
HEADER
  9
$ACADVER
  1
AC1021
  9
$ACADMAINTVER
 70
    25
  9
$DWGCODEPAGE
  3
ANSI_1256
  9
$INSBASE
 10
0.0
 20
0.0
 30
0.0
  9
$EXTMIN
 10
-187.5376
 20
-115.2238
 30
0.0
  9
$EXTMAX
 10
196.0681
 20
131.7039
 30
0.0
  9
$LIMMIN
 10
0.0
 20
0.0
  9
$LIMMAX
 10
12.0
 20
9.0
  9
$ORTHOMODE
 70
     0
  9
$REGENMODE
 70
     1
  9
$FILLMODE
 70
     1
  9
$QTEXTMODE
 70
     0
  9
$MIRRTEXT
 70
     1
  9
$LTSCALE
 40
1.0
  9
$ATTMODE
 70
     1
  9
$TEXTSIZE
 40
0.2
  9
$TRACEWID
 40
0.05
  9
$TEXTSTYLE
  7
Standard
  9
$CLAYER
  8
0
  9
$CELTYPE
  6
ByLayer
  9
$CECOLOR
 62
   256
  9
$CELTSCALE
 40
1.0
  9
$DISPSILH
 70
     0
  9
$DIMSCALE
 40
1.0
  9
$DIMASZ
 40
0.18
  9
$DIMEXO
 40
0.0625
  9
$DIMDLI
 40
0.38
  9
$DIMRND
 40
0.0
  9
$DIMDLE
 40
0.0
  9
$DIMEXE
 40
0.18
  9
$DIMTP
 40
0.0
  9
$DIMTM
 40
0.0
  9
$DIMTXT
 40
0.18
  9
$DIMCEN
 40
0.09
  9
$DIMTSZ
 40
0.0
  9
$DIMTOL
 70
     0
  9
$DIMLIM
 70
     0
  9
$DIMTIH
 70
     1
  9
$DIMTOH
 70
     1
  9
$DIMSE1
 70
     0
  9
$DIMSE2
 70
     0
  9
$DIMTAD
 70
     0
  9
$DIMZIN
 70
     0
  9
$DIMBLK
  1

  9
$DIMASO
 70
     1
  9
$DIMSHO
 70
     1
  9
$DIMPOST
  1

  9
$DIMAPOST
  1

  9
$DIMALT
 70
     0
  9
$DIMALTD
 70
     2
  9
$DIMALTF
 40
25.4
  9
$DIMLFAC
 40
1.0
  9
$DIMTOFL
 70
     0
  9
$DIMTVP
 40
0.0
  9
$DIMTIX
 70
     0
  9
$DIMSOXD
 70
     0
  9
$DIMSAH
 70
     0
  9
$DIMBLK1
  1

  9
$DIMBLK2
  1

  9
$DIMSTYLE
  2
Standard
  9
$DIMCLRD
 70
     0
  9
$DIMCLRE
 70
     0
  9
$DIMCLRT
 70
     0
  9
$DIMTFAC
 40
1.0
  9
$DIMGAP
 40
0.09
  9
$DIMJUST
 70
     0
  9
$DIMSD1
 70
     0
  9
$DIMSD2
 70
     0
  9
$DIMTOLJ
 70
     1
  9
$DIMTZIN
 70
     0
  9
$DIMALTZ
 70
     0
  9
$DIMALTTZ
 70
     0
  9
$DIMUPT
 70
     0
  9
$DIMDEC
 70
     4
  9
$DIMTDEC
 70
     4
  9
$DIMALTU
 70
     2
  9
$DIMALTTD
 70
     2
  9
$DIMTXSTY
  7
Standard
  9
$DIMAUNIT
 70
     0
  9
$DIMADEC
 70
     0
  9
$DIMALTRND
 40
0.0
  9
$DIMAZIN
 70
     0
  9
$DIMDSEP
 70
    46
  9
$DIMATFIT
 70
     3
  9
$DIMFRAC
 70
     0
  9
$DIMLDRBLK
  1

  9
$DIMLUNIT
 70
     2
  9
$DIMLWD
 70
    -2
  9
$DIMLWE
 70
    -2
  9
$DIMTMOVE
 70
     0
  9
$DIMFXL
 40
1.0
  9
$DIMFXLON
 70
     0
  9
$DIMJOGANG
 40
0.7853981633974483
  9
$DIMTFILL
 70
     0
  9
$DIMTFILLCLR
 70
     0
  9
$DIMARCSYM
 70
     0
  9
$DIMLTYPE
  6

  9
$DIMLTEX1
  6

  9
$DIMLTEX2
  6

  9
$LUNITS
 70
     2
  9
$LUPREC
 70
     4
  9
$SKETCHINC
 40
0.1
  9
$FILLETRAD
 40
0.5
  9
$AUNITS
 70
     0
  9
$AUPREC
 70
     0
  9
$MENU
  1
.
  9
$ELEVATION
 40
0.0
  9
$PELEVATION
 40
0.0
  9
$THICKNESS
 40
0.0
  9
$LIMCHECK
 70
     0
  9
$CHAMFERA
 40
0.5
  9
$CHAMFERB
 40
0.5
  9
$CHAMFERC
 40
1.0
  9
$CHAMFERD
 40
0.0
  9
$SKPOLY
 70
     0
  9
$TDCREATE
 40
2458492.954154826
  9
$TDUCREATE
 40
2458492.78748816
  9
$TDUPDATE
 40
2458492.954155579
  9
$TDUUPDATE
 40
2458492.787488912
  9
$TDINDWG
 40
0.0000000116
  9
$TDUSRTIMER
 40
0.0000000116
  9
$USRTIMER
 70
     1
  9
$ANGBASE
 50
0.0
  9
$ANGDIR
 70
     0
  9
$PDMODE
 70
     0
  9
$PDSIZE
 40
0.0
  9
$PLINEWID
 40
0.0
  9
$SPLFRAME
 70
     0
  9
$SPLINETYPE
 70
     6
  9
$SPLINESEGS
 70
     8
  9
$HANDSEED
  5
180
  9
$SURFTAB1
 70
     6
  9
$SURFTAB2
 70
     6
  9
$SURFTYPE
 70
     6
  9
$SURFU
 70
     6
  9
$SURFV
 70
     6
  9
$UCSBASE
  2

  9
$UCSNAME
  2

  9
$UCSORG
 10
0.0
 20
0.0
 30
0.0
  9
$UCSXDIR
 10
1.0
 20
0.0
 30
0.0
  9
$UCSYDIR
 10
0.0
 20
1.0
 30
0.0
  9
$UCSORTHOREF
  2

  9
$UCSORTHOVIEW
 70
     0
  9
$UCSORGTOP
 10
0.0
 20
0.0
 30
0.0
  9
$UCSORGBOTTOM
 10
0.0
 20
0.0
 30
0.0
  9
$UCSORGLEFT
 10
0.0
 20
0.0
 30
0.0
  9
$UCSORGRIGHT
 10
0.0
 20
0.0
 30
0.0
  9
$UCSORGFRONT
 10
0.0
 20
0.0
 30
0.0
  9
$UCSORGBACK
 10
0.0
 20
0.0
 30
0.0
  9
$PUCSBASE
  2

  9
$PUCSNAME
  2

  9
$PUCSORG
 10
0.0
 20
0.0
 30
0.0
  9
$PUCSXDIR
 10
1.0
 20
0.0
 30
0.0
  9
$PUCSYDIR
 10
0.0
 20
1.0
 30
0.0
  9
$PUCSORTHOREF
  2

  9
$PUCSORTHOVIEW
 70
     0
  9
$PUCSORGTOP
 10
0.0
 20
0.0
 30
0.0
  9
$PUCSORGBOTTOM
 10
0.0
 20
0.0
 30
0.0
  9
$PUCSORGLEFT
 10
0.0
 20
0.0
 30
0.0
  9
$PUCSORGRIGHT
 10
0.0
 20
0.0
 30
0.0
  9
$PUCSORGFRONT
 10
0.0
 20
0.0
 30
0.0
  9
$PUCSORGBACK
 10
0.0
 20
0.0
 30
0.0
  9
$USERI1
 70
     0
  9
$USERI2
 70
     0
  9
$USERI3
 70
     0
  9
$USERI4
 70
     0
  9
$USERI5
 70
     0
  9
$USERR1
 40
0.0
  9
$USERR2
 40
0.0
  9
$USERR3
 40
0.0
  9
$USERR4
 40
0.0
  9
$USERR5
 40
0.0
  9
$WORLDVIEW
 70
     1
  9
$SHADEDGE
 70
     3
  9
$SHADEDIF
 70
    70
  9
$TILEMODE
 70
     1
  9
$MAXACTVP
 70
    64
  9
$PINSBASE
 10
0.0
 20
0.0
 30
0.0
  9
$PLIMCHECK
 70
     0
  9
$PEXTMIN
 10
1.000000000000000E+20
 20
1.000000000000000E+20
 30
1.000000000000000E+20
  9
$PEXTMAX
 10
-1.000000000000000E+20
 20
-1.000000000000000E+20
 30
-1.000000000000000E+20
  9
$PLIMMIN
 10
0.0
 20
0.0
  9
$PLIMMAX
 10
12.0
 20
9.0
  9
$UNITMODE
 70
     0
  9
$VISRETAIN
 70
     1
  9
$PLINEGEN
 70
     0
  9
$PSLTSCALE
 70
     1
  9
$TREEDEPTH
 70
  3020
  9
$CMLSTYLE
  2
Standard
  9
$CMLJUST
 70
     0
  9
$CMLSCALE
 40
1.0
  9
$PROXYGRAPHICS
 70
     1
  9
$MEASUREMENT
 70
     0
  9
$CELWEIGHT
370
    -1
  9
$ENDCAPS
280
     0
  9
$JOINSTYLE
280
     0
  9
$LWDISPLAY
290
     0
  9
$INSUNITS
 70
     4
  9
$HYPERLINKBASE
  1

  9
$STYLESHEET
  1

  9
$XEDIT
290
     1
  9
$CEPSNTYPE
380
     0
  9
$PSTYLEMODE
290
     1
  9
$FINGERPRINTGUID
  2
{86261BE9-2092-462F-B3DC-EEB3F45BF0A3}
  9
$VERSIONGUID
  2
{FAEB1C32-E019-11D5-929B-00C0DF256EC4}
  9
$EXTNAMES
290
     1
  9
$PSVPSCALE
 40
0.0
  9
$OLESTARTUP
290
     0
  9
$SORTENTS
280
   127
  9
$INDEXCTL
280
     0
  9
$HIDETEXT
280
     1
  9
$XCLIPFRAME
290
     0
  9
$HALOGAP
280
     0
  9
$OBSCOLOR
 70
   257
  9
$OBSLTYPE
280
     0
  9
$INTERSECTIONDISPLAY
280
     0
  9
$INTERSECTIONCOLOR
 70
   257
  9
$DIMASSOC
280
     2
  9
$PROJECTNAME
  1

  9
$CAMERADISPLAY
290
     0
  9
$LENSLENGTH
 40
50.0
  9
$CAMERAHEIGHT
 40
0.0
  9
$STEPSPERSEC
 40
2.0
  9
$STEPSIZE
 40
6.0
  9
$3DDWFPREC
 40
2.0
  9
$PSOLWIDTH
 40
0.25
  9
$PSOLHEIGHT
 40
4.0
  9
$LOFTANG1
 40
1.570796326794897
  9
$LOFTANG2
 40
1.570796326794897
  9
$LOFTMAG1
 40
0.0
  9
$LOFTMAG2
 40
0.0
  9
$LOFTPARAM
 70
     7
  9
$LOFTNORMALS
280
     1
  9
$LATITUDE
 40
37.795
  9
$LONGITUDE
 40
-122.394
  9
$NORTHDIRECTION
 40
0.0
  9
$TIMEZONE
 70
 -8000
  9
$LIGHTGLYPHDISPLAY
280
     1
  9
$TILEMODELIGHTSYNCH
280
     1
  9
$SOLIDHIST
280
     1
  9
$SHOWHIST
280
     1
  9
$DWFFRAME
280
     2
  9
$DGNFRAME
280
     2
  9
$REALWORLDSCALE
290
     1
  9
$INTERFERECOLOR
 62
   256
  9
$CSHADOW
280
     0
  9
$SHADOWPLANELOCATION
 40
0.0
  0
ENDSEC
  0
SECTION
  2
CLASSES
  0
CLASS
  1
ACDBDICTIONARYWDFLT
  2
AcDbDictionaryWithDefault
  3
ObjectDBX Classes
 90
        0
 91
        4
280
     0
281
     0
  0
CLASS
  1
VISUALSTYLE
  2
AcDbVisualStyle
  3
ObjectDBX Classes
 90
     4095
 91
        4
280
     0
281
     0
  0
CLASS
  1
MATERIAL
  2
AcDbMaterial
  3
ObjectDBX Classes
 90
     1153
 91
        4
280
     0
281
     0
  0
ENDSEC
  0
SECTION
  2
TABLES
  0
TABLE
  2
VPORT
  5
8
330
0
100
AcDbSymbolTable
 70
     1
  0
VPORT
  5
29
330
8
100
AcDbSymbolTableRecord
100
AcDbViewportTableRecord
  2
*Active
 70
     0
 10
0.0
 20
0.0
 11
1.0
 21
1.0
 12
10.42990654205607
 22
4.5
 13
0.0
 23
0.0
 14
0.5
 24
0.5
 15
0.5
 25
0.5
 16
0.0
 26
0.0
 36
1.0
 17
0.0
 27
0.0
 37
0.0
 40
9.0
 41
1.972972972850329
 42
50.0
 43
0.0
 44
0.0
 50
0.0
 51
0.0
 71
     0
 72
   100
 73
     1
 74
     3
 75
     0
 76
     0
 77
     0
 78
     0
281
     0
 65
     1
110
0.0
120
0.0
130
0.0
111
1.0
121
0.0
131
0.0
112
0.0
122
1.0
132
0.0
 79
     0
146
0.0
 60
     3
 61
     5
292
     1
282
     1
141
0.0
142
0.0
 63
   250
  0
ENDTAB
  0
TABLE
  2
LTYPE
  5
5
330
0
100
AcDbSymbolTable
 70
     1
  0
LTYPE
  5
14
330
5
100
AcDbSymbolTableRecord
100
AcDbLinetypeTableRecord
  2
ByBlock
 70
     0
  3

 72
    65
 73
     0
 40
0.0
  0
LTYPE
  5
15
330
5
100
AcDbSymbolTableRecord
100
AcDbLinetypeTableRecord
  2
ByLayer
 70
     0
  3

 72
    65
 73
     0
 40
0.0
  0
LTYPE
  5
16
330
5
100
AcDbSymbolTableRecord
100
AcDbLinetypeTableRecord
  2
Continuous
 70
     0
  3
Solid line
 72
    65
 73
     0
 40
0.0
  0
ENDTAB
  0
TABLE
  2
LAYER
  5
2
330
0
100
AcDbSymbolTable
 70
     3
  0
LAYER
  5
10
330
2
100
AcDbSymbolTableRecord
100
AcDbLayerTableRecord
  2
0
 70
     0
 62
     7
  6
Continuous
370
    -3
390
F
347
3E
  0
LAYER
  5
40
330
2
100
AcDbSymbolTableRecord
100
AcDbLayerTableRecord
  2
layer 1
 70
     0
 62
     7
  6
Continuous
370
    -3
390
F
347
3E
  0
LAYER
  5
15D
330
2
100
AcDbSymbolTableRecord
100
AcDbLayerTableRecord
  2
Master Guides
 70
     0
 62
     7
  6
Continuous
370
    -3
390
F
347
3E
  0
ENDTAB
  0
TABLE
  2
STYLE
  5
3
330
0
100
AcDbSymbolTable
 70
     1
  0
STYLE
  5
11
330
3
100
AcDbSymbolTableRecord
100
AcDbTextStyleTableRecord
  2
Standard
 70
     0
 40
0.0
 41
1.0
 50
0.0
 71
     0
 42
0.2
  3
txt
  4

  0
ENDTAB
  0
TABLE
  2
VIEW
  5
6
330
0
100
AcDbSymbolTable
 70
     0
  0
ENDTAB
  0
TABLE
  2
UCS
  5
7
330
0
100
AcDbSymbolTable
 70
     0
  0
ENDTAB
  0
TABLE
  2
APPID
  5
9
330
0
100
AcDbSymbolTable
 70
     2
  0
APPID
  5
12
330
9
100
AcDbSymbolTableRecord
100
AcDbRegAppTableRecord
  2
ACAD
 70
     0
  0
APPID
  5
3F
330
9
100
AcDbSymbolTableRecord
100
AcDbRegAppTableRecord
  2
ODA
 70
     0
  0
ENDTAB
  0
TABLE
  2
DIMSTYLE
  5
A
330
0
100
AcDbSymbolTable
 70
     1
100
AcDbDimStyleTable
  0
DIMSTYLE
105
27
330
A
100
AcDbSymbolTableRecord
100
AcDbDimStyleTableRecord
  2
Standard
 70
     0
178
     0
340
11
  0
ENDTAB
  0
TABLE
  2
BLOCK_RECORD
  5
1
330
0
100
AcDbSymbolTable
 70
     1
  0
BLOCK_RECORD
  5
1F
330
1
100
AcDbSymbolTableRecord
100
AcDbBlockTableRecord
  2
*Model_Space
340
22
 70
     0
280
     1
281
     0
  0
BLOCK_RECORD
  5
1B
330
1
100
AcDbSymbolTableRecord
100
AcDbBlockTableRecord
  2
*Paper_Space
340
1E
 70
     0
280
     1
281
     0
  0
BLOCK_RECORD
  5
23
330
1
100
AcDbSymbolTableRecord
100
AcDbBlockTableRecord
  2
*Paper_Space0
340
26
 70
     0
280
     1
281
     0
  0
ENDTAB
  0
ENDSEC
  0
SECTION
  2
BLOCKS
  0
BLOCK
  5
20
330
1F
100
AcDbEntity
  8
0
100
AcDbBlockBegin
  2
*Model_Space
 70
     0
 10
0.0
 20
0.0
 30
0.0
  3
*Model_Space
  1

  0
ENDBLK
  5
21
330
1F
100
AcDbEntity
  8
0
100
AcDbBlockEnd
  0
BLOCK
  5
1C
330
1B
100
AcDbEntity
 67
     1
  8
0
100
AcDbBlockBegin
  2
*Paper_Space
 70
     0
 10
0.0
 20
0.0
 30
0.0
  3
*Paper_Space
  1

  0
ENDBLK
  5
1D
330
1B
100
AcDbEntity
 67
     1
  8
0
100
AcDbBlockEnd
  0
BLOCK
  5
24
330
23
100
AcDbEntity
  8
0
100
AcDbBlockBegin
  2
*Paper_Space0
 70
     0
 10
0.0
 20
0.0
 30
0.0
  3
*Paper_Space0
  1

  0
ENDBLK
  5
25
330
23
100
AcDbEntity
  8
0
100
AcDbBlockEnd
  0
ENDSEC
  0
SECTION
  2
ENTITIES
  0
SPLINE
  5
41
330
1F
100
AcDbEntity
  8
layer 1
 62
   250
100
AcDbSpline
210
0.0
220
0.0
230
1.0
 70
    11
 71
     3
 72
    20
 73
    16
 74
     0
 42
0.0000000001
 43
0.0000000001
 12
1.0
 22
0.0
 32
0.0
 13
1.0
 23
0.0
 33
0.0
 40
0.0
 40
0.0
 40
0.0
 40
0.0
 40
0.2
 40
0.2
 40
0.2
 40
0.2
 40
0.4
 40
0.4
 40
0.4
 40
0.4
 40
0.6
 40
0.6
 40
0.6
 40
0.6
 40
1.0
 40
1.0
 40
1.0
 40
1.0
 10
-187.5376
 20
131.7039
 30
0.0
 10
-187.5376
 20
131.7039
 30
0.0
 10
-0.5569
 20
131.7039
 30
0.0
 10
-0.5569
 20
131.7039
 30
0.0
 10
-0.5569
 20
131.7039
 30
0.0
 10
-0.5569
 20
131.7039
 30
0.0
 10
-0.5569
 20
16.5273
 30
0.0
 10
-0.5569
 20
16.5273
 30
0.0
 10
-0.5569
 20
16.5273
 30
0.0
 10
-0.5569
 20
16.5273
 30
0.0
 10
-187.5376
 20
16.5273
 30
0.0
 10
-187.5376
 20
16.5273
 30
0.0
 10
-187.5376
 20
16.5273
 30
0.0
 10
-187.5376
 20
16.5273
 30
0.0
 10
-187.5376
 20
131.7039
 30
0.0
 10
-187.5376
 20
131.7039
 30
0.0
  0
SPLINE
  5
42
330
1F
100
AcDbEntity
  8
layer 1
 62
     7
100
AcDbSpline
210
0.0
220
0.0
230
1.0
 70
    11
 71
     3
 72
    20
 73
    16
 74
     0
 42
0.0000000001
 43
0.0000000001
 12
1.0
 22
0.0
 32
0.0
 13
1.0
 23
0.0
 33
0.0
 40
0.0
 40
0.0
 40
0.0
 40
0.0
 40
0.2
 40
0.2
 40
0.2
 40
0.2
 40
0.4
 40
0.4
 40
0.4
 40
0.4
 40
0.6
 40
0.6
 40
0.6
 40
0.6
 40
1.0
 40
1.0
 40
1.0
 40
1.0
 10
-182.3203
 20
30.7152
 30
0.0
 10
-182.3203
 20
30.7152
 30
0.0
 10
-169.531
 20
30.7152
 30
0.0
 10
-169.531
 20
30.7152
 30
0.0
 10
-169.531
 20
30.7152
 30
0.0
 10
-169.531
 20
30.7152
 30
0.0
 10
-169.531
 20
21.5751
 30
0.0
 10
-169.531
 20
21.5751
 30
0.0
 10
-169.531
 20
21.5751
 30
0.0
 10
-169.531
 20
21.5751
 30
0.0
 10
-182.3203
 20
21.5751
 30
0.0
 10
-182.3203
 20
21.5751
 30
0.0
 10
-182.3203
 20
21.5751
 30
0.0
 10
-182.3203
 20
21.5751
 30
0.0
 10
-182.3203
 20
30.7152
 30
0.0
 10
-182.3203
 20
30.7152
 30
0.0
  0
SPLINE
  5
43
330
1F
100
AcDbEntity
  8
layer 1
 62
     7
100
AcDbSpline
210
0.0
220
0.0
230
1.0
 70
    11
 71
     3
 72
    20
 73
    16
 74
     0
 42
0.0000000001
 43
0.0000000001
 12
1.0
 22
0.0
 32
0.0
 13
1.0
 23
0.0
 33
0.0
 40
0.0
 40
0.0
 40
0.0
 40
0.0
 40
0.2
 40
0.2
 40
0.2
 40
0.2
 40
0.4
 40
0.4
 40
0.4
 40
0.4
 40
0.6
 40
0.6
 40
0.6
 40
0.6
 40
1.0
 40
1.0
 40
1.0
 40
1.0
 10
-182.3203
 20
69.9778
 30
0.0
 10
-182.3203
 20
69.9778
 30
0.0
 10
-169.531
 20
69.9778
 30
0.0
 10
-169.531
 20
69.9778
 30
0.0
 10
-169.531
 20
69.9778
 30
0.0
 10
-169.531
 20
69.9778
 30
0.0
 10
-169.531
 20
58.0929
 30
0.0
 10
-169.531
 20
58.0929
 30
0.0
 10
-169.531
 20
58.0929
 30
0.0
 10
-169.531
 20
58.0929
 30
0.0
 10
-182.3203
 20
58.0929
 30
0.0
 10
-182.3203
 20
58.0929
 30
0.0
 10
-182.3203
 20
58.0929
 30
0.0
 10
-182.3203
 20
58.0929
 30
0.0
 10
-182.3203
 20
69.9778
 30
0.0
 10
-182.3203
 20
69.9778
 30
0.0
  0
SPLINE
  5
44
330
1F
100
AcDbEntity
  8
layer 1
 62
     7
100
AcDbSpline
210
0.0
220
0.0
230
1.0
 70
    11
 71
     3
 72
    20
 73
    16
 74
     0
 42
0.0000000001
 43
0.0000000001
 12
1.0
 22
0.0
 32
0.0
 13
1.0
 23
0.0
 33
0.0
 40
0.0
 40
0.0
 40
0.0
 40
0.0
 40
0.2
 40
0.2
 40
0.2
 40
0.2
 40
0.4
 40
0.4
 40
0.4
 40
0.4
 40
0.6
 40
0.6
 40
0.6
 40
0.6
 40
1.0
 40
1.0
 40
1.0
 40
1.0
 10
-182.3203
 20
85.5672
 30
0.0
 10
-182.3203
 20
85.5672
 30
0.0
 10
-169.531
 20
85.5672
 30
0.0
 10
-169.531
 20
85.5672
 30
0.0
 10
-169.531
 20
85.5672
 30
0.0
 10
-169.531
 20
85.5672
 30
0.0
 10
-169.531
 20
73.6824
 30
0.0
 10
-169.531
 20
73.6824
 30
0.0
 10
-169.531
 20
73.6824
 30
0.0
 10
-169.531
 20
73.6824
 30
0.0
 10
-182.3203
 20
73.6824
 30
0.0
 10
-182.3203
 20
73.6824
 30
0.0
 10
-182.3203
 20
73.6824
 30
0.0
 10
-182.3203
 20
73.6824
 30
0.0
 10
-182.3203
 20
85.5672
 30
0.0
 10
-182.3203
 20
85.5672
 30
0.0
  0
SPLINE
  5
45
330
1F
100
AcDbEntity
  8
layer 1
 62
     7
100
AcDbSpline
210
0.0
220
0.0
230
1.0
 70
    11
 71
     3
 72
    20
 73
    16
 74
     0
 42
0.0000000001
 43
0.0000000001
 12
1.0
 22
0.0
 32
0.0
 13
1.0
 23
0.0
 33
0.0
 40
0.0
 40
0.0
 40
0.0
 40
0.0
 40
0.2
 40
0.2
 40
0.2
 40
0.2
 40
0.4
 40
0.4
 40
0.4
 40
0.4
 40
0.6
 40
0.6
 40
0.6
 40
0.6
 40
1.0
 40
1.0
 40
1.0
 40
1.0
 10
-182.3203
 20
54.4843
 30
0.0
 10
-182.3203
 20
54.4843
 30
0.0
 10
-169.531
 20
54.4843
 30
0.0
 10
-169.531
 20
54.4843
 30
0.0
 10
-169.531
 20
54.4843
 30
0.0
 10
-169.531
 20
54.4843
 30
0.0
 10
-169.531
 20
34.3912
 30
0.0
 10
-169.531
 20
34.3912
 30
0.0
 10
-169.531
 20
34.3912
 30
0.0
 10
-169.531
 20
34.3912
 30
0.0
 10
-182.3203
 20
34.3912
 30
0.0
 10
-182.3203
 20
34.3912
 30
0.0
 10
-182.3203
 20
34.3912
 30
0.0
 10
-182.3203
 20
34.3912
 30
0.0
 10
-182.3203
 20
54.4843
 30
0.0
 10
-182.3203
 20
54.4843
 30
0.0
  0
SPLINE
  5
46
330
1F
100
AcDbEntity
  8
layer 1
 62
     7
100
AcDbSpline
210
0.0
220
0.0
230
1.0
 70
    11
 71
     3
 72
    20
 73
    16
 74
     0
 42
0.0000000001
 43
0.0000000001
 12
1.0
 22
0.0
 32
0.0
 13
1.0
 23
0.0
 33
0.0
 40
0.0
 40
0.0
 40
0.0
 40
0.0
 40
0.2
 40
0.2
 40
0.2
 40
0.2
 40
0.4
 40
0.4
 40
0.4
 40
0.4
 40
0.6
 40
0.6
 40
0.6
 40
0.6
 40
1.0
 40
1.0
 40
1.0
 40
1.0
 10
-165.8743
 20
85.5672
 30
0.0
 10
-165.8743
 20
85.5672
 30
0.0
 10
-153.0852
 20
85.5672
 30
0.0
 10
-153.0852
 20
85.5672
 30
0.0
 10
-153.0852
 20
85.5672
 30
0.0
 10
-153.0852
 20
85.5672
 30
0.0
 10
-153.0852
 20
73.6824
 30
0.0
 10
-153.0852
 20
73.6824
 30
0.0
 10
-153.0852
 20
73.6824
 30
0.0
 10
-153.0852
 20
73.6824
 30
0.0
 10
-165.8743
 20
73.6824
 30
0.0
 10
-165.8743
 20
73.6824
 30
0.0
 10
-165.8743
 20
73.6824
 30
0.0
 10
-165.8743
 20
73.6824
 30
0.0
 10
-165.8743
 20
85.5672
 30
0.0
 10
-165.8743
 20
85.5672
 30
0.0
  0
SPLINE
  5
47
330
1F
100
AcDbEntity
  8
layer 1
 62
     7
100
AcDbSpline
210
0.0
220
0.0
230
1.0
 70
    11
 71
     3
 72
    20
 73
    16
 74
     0
 42
0.0000000001
 43
0.0000000001
 12
1.0
 22
0.0
 32
0.0
 13
1.0
 23
0.0
 33
0.0
 40
0.0
 40
0.0
 40
0.0
 40
0.0
 40
0.2
 40
0.2
 40
0.2
 40
0.2
 40
0.4
 40
0.4
 40
0.4
 40
0.4
 40
0.6
 40
0.6
 40
0.6
 40
0.6
 40
1.0
 40
1.0
 40
1.0
 40
1.0
 10
-165.8743
 20
69.9778
 30
0.0
 10
-165.8743
 20
69.9778
 30
0.0
 10
-153.0852
 20
69.9778
 30
0.0
 10
-153.0852
 20
69.9778
 30
0.0
 10
-153.0852
 20
69.9778
 30
0.0
 10
-153.0852
 20
69.9778
 30
0.0
 10
-153.0852
 20
58.0929
 30
0.0
 10
-153.0852
 20
58.0929
 30
0.0
 10
-153.0852
 20
58.0929
 30
0.0
 10
-153.0852
 20
58.0929
 30
0.0
 10
-165.8743
 20
58.0929
 30
0.0
 10
-165.8743
 20
58.0929
 30
0.0
 10
-165.8743
 20
58.0929
 30
0.0
 10
-165.8743
 20
58.0929
 30
0.0
 10
-165.8743
 20
69.9778
 30
0.0
 10
-165.8743
 20
69.9778
 30
0.0
  0
SPLINE
  5
48
330
1F
100
AcDbEntity
  8
layer 1
 62
     7
100
AcDbSpline
210
0.0
220
0.0
230
1.0
 70
    11
 71
     3
 72
    20
 73
    16
 74
     0
 42
0.0000000001
 43
0.0000000001
 12
1.0
 22
0.0
 32
0.0
 13
1.0
 23
0.0
 33
0.0
 40
0.0
 40
0.0
 40
0.0
 40
0.0
 40
0.2
 40
0.2
 40
0.2
 40
0.2
 40
0.4
 40
0.4
 40
0.4
 40
0.4
 40
0.6
 40
0.6
 40
0.6
 40
0.6
 40
1.0
 40
1.0
 40
1.0
 40
1.0
 10
-116.575
 20
69.9778
 30
0.0
 10
-116.575
 20
69.9778
 30
0.0
 10
-103.7859
 20
69.9778
 30
0.0
 10
-103.7859
 20
69.9778
 30
0.0
 10
-103.7859
 20
69.9778
 30
0.0
 10
-103.7859
 20
69.9778
 30
0.0
 10
-103.7859
 20
58.0929
 30
0.0
 10
-103.7859
 20
58.0929
 30
0.0
 10
-103.7859
 20
58.0929
 30
0.0
 10
-103.7859
 20
58.0929
 30
0.0
 10
-116.575
 20
58.0929
 30
0.0
 10
-116.575
 20
58.0929
 30
0.0
 10
-116.575
 20
58.0929
 30
0.0
 10
-116.575
 20
58.0929
 30
0.0
 10
-116.575
 20
69.9778
 30
0.0
 10
-116.575
 20
69.9778
 30
0.0
  0
SPLINE
  5
49
330
1F
100
AcDbEntity
  8
layer 1
 62
     7
100
AcDbSpline
210
0.0
220
0.0
230
1.0
 70
    11
 71
     3
 72
    20
 73
    16
 74
     0
 42
0.0000000001
 43
0.0000000001
 12
1.0
 22
0.0
 32
0.0
 13
1.0
 23
0.0
 33
0.0
 40
0.0
 40
0.0
 40
0.0
 40
0.0
 40
0.2
 40
0.2
 40
0.2
 40
0.2
 40
0.4
 40
0.4
 40
0.4
 40
0.4
 40
0.6
 40
0.6
 40
0.6
 40
0.6
 40
1.0
 40
1.0
 40
1.0
 40
1.0
 10
-116.575
 20
85.5672
 30
0.0
 10
-116.575
 20
85.5672
 30
0.0
 10
-103.7859
 20
85.5672
 30
0.0
 10
-103.7859
 20
85.5672
 30
0.0
 10
-103.7859
 20
85.5672
 30
0.0
 10
-103.7859
 20
85.5672
 30
0.0
 10
-103.7859
 20
73.6824
 30
0.0
 10
-103.7859
 20
73.6824
 30
0.0
 10
-103.7859
 20
73.6824
 30
0.0
 10
-103.7859
 20
73.6824
 30
0.0
 10
-116.575
 20
73.6824
 30
0.0
 10
-116.575
 20
73.6824
 30
0.0
 10
-116.575
 20
73.6824
 30
0.0
 10
-116.575
 20
73.6824
 30
0.0
 10
-116.575
 20
85.5672
 30
0.0
 10
-116.575
 20
85.5672
 30
0.0
  0
SPLINE
  5
4A
330
1F
100
AcDbEntity
  8
layer 1
 62
     7
100
AcDbSpline
210
0.0
220
0.0
230
1.0
 70
    11
 71
     3
 72
    20
 73
    16
 74
     0
 42
0.0000000001
 43
0.0000000001
 12
1.0
 22
0.0
 32
0.0
 13
1.0
 23
0.0
 33
0.0
 40
0.0
 40
0.0
 40
0.0
 40
0.0
 40
0.2
 40
0.2
 40
0.2
 40
0.2
 40
0.4
 40
0.4
 40
0.4
 40
0.4
 40
0.6
 40
0.6
 40
0.6
 40
0.6
 40
1.0
 40
1.0
 40
1.0
 40
1.0
 10
-100.1195
 20
85.5672
 30
0.0
 10
-100.1195
 20
85.5672
 30
0.0
 10
-87.3304
 20
85.5672
 30
0.0
 10
-87.3304
 20
85.5672
 30
0.0
 10
-87.3304
 20
85.5672
 30
0.0
 10
-87.3304
 20
85.5672
 30
0.0
 10
-87.3304
 20
73.6824
 30
0.0
 10
-87.3304
 20
73.6824
 30
0.0
 10
-87.3304
 20
73.6824
 30
0.0
 10
-87.3304
 20
73.6824
 30
0.0
 10
-100.1195
 20
73.6824
 30
0.0
 10
-100.1195
 20
73.6824
 30
0.0
 10
-100.1195
 20
73.6824
 30
0.0
 10
-100.1195
 20
73.6824
 30
0.0
 10
-100.1195
 20
85.5672
 30
0.0
 10
-100.1195
 20
85.5672
 30
0.0
  0
SPLINE
  5
4B
330
1F
100
AcDbEntity
  8
layer 1
 62
     7
100
AcDbSpline
210
0.0
220
0.0
230
1.0
 70
    11
 71
     3
 72
    20
 73
    16
 74
     0
 42
0.0000000001
 43
0.0000000001
 12
1.0
 22
0.0
 32
0.0
 13
1.0
 23
0.0
 33
0.0
 40
0.0
 40
0.0
 40
0.0
 40
0.0
 40
0.2
 40
0.2
 40
0.2
 40
0.2
 40
0.4
 40
0.4
 40
0.4
 40
0.4
 40
0.6
 40
0.6
 40
0.6
 40
0.6
 40
1.0
 40
1.0
 40
1.0
 40
1.0
 10
-100.1195
 20
30.7152
 30
0.0
 10
-100.1195
 20
30.7152
 30
0.0
 10
-87.3304
 20
30.7152
 30
0.0
 10
-87.3304
 20
30.7152
 30
0.0
 10
-87.3304
 20
30.7152
 30
0.0
 10
-87.3304
 20
30.7152
 30
0.0
 10
-87.3304
 20
21.5751
 30
0.0
 10
-87.3304
 20
21.5751
 30
0.0
 10
-87.3304
 20
21.5751
 30
0.0
 10
-87.3304
 20
21.5751
 30
0.0
 10
-100.1195
 20
21.5751
 30
0.0
 10
-100.1195
 20
21.5751
 30
0.0
 10
-100.1195
 20
21.5751
 30
0.0
 10
-100.1195
 20
21.5751
 30
0.0
 10
-100.1195
 20
30.7152
 30
0.0
 10
-100.1195
 20
30.7152
 30
0.0
  0
SPLINE
  5
4C
330
1F
100
AcDbEntity
  8
layer 1
 62
     7
100
AcDbSpline
210
0.0
220
0.0
230
1.0
 70
    11
 71
     3
 72
    20
 73
    16
 74
     0
 42
0.0000000001
 43
0.0000000001
 12
1.0
 22
0.0
 32
0.0
 13
1.0
 23
0.0
 33
0.0
 40
0.0
 40
0.0
 40
0.0
 40
0.0
 40
0.2
 40
0.2
 40
0.2
 40
0.2
 40
0.4
 40
0.4
 40
0.4
 40
0.4
 40
0.6
 40
0.6
 40
0.6
 40
0.6
 40
1.0
 40
1.0
 40
1.0
 40
1.0
 10
-83.6639
 20
30.7152
 30
0.0
 10
-83.6639
 20
30.7152
 30
0.0
 10
-70.8748
 20
30.7152
 30
0.0
 10
-70.8748
 20
30.7152
 30
0.0
 10
-70.8748
 20
30.7152
 30
0.0
 10
-70.8748
 20
30.7152
 30
0.0
 10
-70.8748
 20
21.5751
 30
0.0
 10
-70.8748
 20
21.5751
 30
0.0
 10
-70.8748
 20
21.5751
 30
0.0
 10
-70.8748
 20
21.5751
 30
0.0
 10
-83.6639
 20
21.5751
 30
0.0
 10
-83.6639
 20
21.5751
 30
0.0
 10
-83.6639
 20
21.5751
 30
0.0
 10
-83.6639
 20
21.5751
 30
0.0
 10
-83.6639
 20
30.7152
 30
0.0
 10
-83.6639
 20
30.7152
 30
0.0
  0
SPLINE
  5
4D
330
1F
100
AcDbEntity
  8
layer 1
 62
     7
100
AcDbSpline
210
0.0
220
0.0
230
1.0
 70
    11
 71
     3
 72
    20
 73
    16
 74
     0
 42
0.0000000001
 43
0.0000000001
 12
1.0
 22
0.0
 32
0.0
 13
1.0
 23
0.0
 33
0.0
 40
0.0
 40
0.0
 40
0.0
 40
0.0
 40
0.2
 40
0.2
 40
0.2
 40
0.2
 40
0.4
 40
0.4
 40
0.4
 40
0.4
 40
0.6
 40
0.6
 40
0.6
 40
0.6
 40
1.0
 40
1.0
 40
1.0
 40
1.0
 10
-83.6639
 20
85.5672
 30
0.0
 10
-83.6639
 20
85.5672
 30
0.0
 10
-70.8748
 20
85.5672
 30
0.0
 10
-70.8748
 20
85.5672
 30
0.0
 10
-70.8748
 20
85.5672
 30
0.0
 10
-70.8748
 20
85.5672
 30
0.0
 10
-70.8748
 20
73.6824
 30
0.0
 10
-70.8748
 20
73.6824
 30
0.0
 10
-70.8748
 20
73.6824
 30
0.0
 10
-70.8748
 20
73.6824
 30
0.0
 10
-83.6639
 20
73.6824
 30
0.0
 10
-83.6639
 20
73.6824
 30
0.0
 10
-83.6639
 20
73.6824
 30
0.0
 10
-83.6639
 20
73.6824
 30
0.0
 10
-83.6639
 20
85.5672
 30
0.0
 10
-83.6639
 20
85.5672
 30
0.0
  0
SPLINE
  5
4E
330
1F
100
AcDbEntity
  8
layer 1
 62
     7
100
AcDbSpline
210
0.0
220
0.0
230
1.0
 70
    11
 71
     3
 72
    20
 73
    16
 74
     0
 42
0.0000000001
 43
0.0000000001
 12
1.0
 22
0.0
 32
0.0
 13
1.0
 23
0.0
 33
0.0
 40
0.0
 40
0.0
 40
0.0
 40
0.0
 40
0.2
 40
0.2
 40
0.2
 40
0.2
 40
0.4
 40
0.4
 40
0.4
 40
0.4
 40
0.6
 40
0.6
 40
0.6
 40
0.6
 40
1.0
 40
1.0
 40
1.0
 40
1.0
 10
-34.2973
 20
30.7152
 30
0.0
 10
-34.2973
 20
30.7152
 30
0.0
 10
-21.5082
 20
30.7152
 30
0.0
 10
-21.5082
 20
30.7152
 30
0.0
 10
-21.5082
 20
30.7152
 30
0.0
 10
-21.5082
 20
30.7152
 30
0.0
 10
-21.5082
 20
21.5751
 30
0.0
 10
-21.5082
 20
21.5751
 30
0.0
 10
-21.5082
 20
21.5751
 30
0.0
 10
-21.5082
 20
21.5751
 30
0.0
 10
-34.2973
 20
21.5751
 30
0.0
 10
-34.2973
 20
21.5751
 30
0.0
 10
-34.2973
 20
21.5751
 30
0.0
 10
-34.2973
 20
21.5751
 30
0.0
 10
-34.2973
 20
30.7152
 30
0.0
 10
-34.2973
 20
30.7152
 30
0.0
  0
SPLINE
  5
4F
330
1F
100
AcDbEntity
  8
layer 1
 62
     7
100
AcDbSpline
210
0.0
220
0.0
230
1.0
 70
    11
 71
     3
 72
    20
 73
    16
 74
     0
 42
0.0000000001
 43
0.0000000001
 12
1.0
 22
0.0
 32
0.0
 13
1.0
 23
0.0
 33
0.0
 40
0.0
 40
0.0
 40
0.0
 40
0.0
 40
0.2
 40
0.2
 40
0.2
 40
0.2
 40
0.4
 40
0.4
 40
0.4
 40
0.4
 40
0.6
 40
0.6
 40
0.6
 40
0.6
 40
1.0
 40
1.0
 40
1.0
 40
1.0
 10
-17.8417
 20
30.7152
 30
0.0
 10
-17.8417
 20
30.7152
 30
0.0
 10
-5.0526
 20
30.7152
 30
0.0
 10
-5.0526
 20
30.7152
 30
0.0
 10
-5.0526
 20
30.7152
 30
0.0
 10
-5.0526
 20
30.7152
 30
0.0
 10
-5.0526
 20
21.5751
 30
0.0
 10
-5.0526
 20
21.5751
 30
0.0
 10
-5.0526
 20
21.5751
 30
0.0
 10
-5.0526
 20
21.5751
 30
0.0
 10
-17.8417
 20
21.5751
 30
0.0
 10
-17.8417
 20
21.5751
 30
0.0
 10
-17.8417
 20
21.5751
 30
0.0
 10
-17.8417
 20
21.5751
 30
0.0
 10
-17.8417
 20
30.7152
 30
0.0
 10
-17.8417
 20
30.7152
 30
0.0
  0
SPLINE
  5
50
330
1F
100
AcDbEntity
  8
layer 1
 62
     7
100
AcDbSpline
210
0.0
220
0.0
230
1.0
 70
    11
 71
     3
 72
    20
 73
    16
 74
     0
 42
0.0000000001
 43
0.0000000001
 12
1.0
 22
0.0
 32
0.0
 13
1.0
 23
0.0
 33
0.0
 40
0.0
 40
0.0
 40
0.0
 40
0.0
 40
0.2
 40
0.2
 40
0.2
 40
0.2
 40
0.4
 40
0.4
 40
0.4
 40
0.4
 40
0.6
 40
0.6
 40
0.6
 40
0.6
 40
1.0
 40
1.0
 40
1.0
 40
1.0
 10
-17.8417
 20
69.9778
 30
0.0
 10
-17.8417
 20
69.9778
 30
0.0
 10
-5.0526
 20
69.9778
 30
0.0
 10
-5.0526
 20
69.9778
 30
0.0
 10
-5.0526
 20
69.9778
 30
0.0
 10
-5.0526
 20
69.9778
 30
0.0
 10
-5.0526
 20
58.0929
 30
0.0
 10
-5.0526
 20
58.0929
 30
0.0
 10
-5.0526
 20
58.0929
 30
0.0
 10
-5.0526
 20
58.0929
 30
0.0
 10
-17.8417
 20
58.0929
 30
0.0
 10
-17.8417
 20
58.0929
 30
0.0
 10
-17.8417
 20
58.0929
 30
0.0
 10
-17.8417
 20
58.0929
 30
0.0
 10
-17.8417
 20
69.9778
 30
0.0
 10
-17.8417
 20
69.9778
 30
0.0
  0
SPLINE
  5
51
330
1F
100
AcDbEntity
  8
layer 1
 62
     7
100
AcDbSpline
210
0.0
220
0.0
230
1.0
 70
    11
 71
     3
 72
    20
 73
    16
 74
     0
 42
0.0000000001
 43
0.0000000001
 12
1.0
 22
0.0
 32
0.0
 13
1.0
 23
0.0
 33
0.0
 40
0.0
 40
0.0
 40
0.0
 40
0.0
 40
0.2
 40
0.2
 40
0.2
 40
0.2
 40
0.4
 40
0.4
 40
0.4
 40
0.4
 40
0.6
 40
0.6
 40
0.6
 40
0.6
 40
1.0
 40
1.0
 40
1.0
 40
1.0
 10
-17.8417
 20
85.5672
 30
0.0
 10
-17.8417
 20
85.5672
 30
0.0
 10
-5.0526
 20
85.5672
 30
0.0
 10
-5.0526
 20
85.5672
 30
0.0
 10
-5.0526
 20
85.5672
 30
0.0
 10
-5.0526
 20
85.5672
 30
0.0
 10
-5.0526
 20
73.6824
 30
0.0
 10
-5.0526
 20
73.6824
 30
0.0
 10
-5.0526
 20
73.6824
 30
0.0
 10
-5.0526
 20
73.6824
 30
0.0
 10
-17.8417
 20
73.6824
 30
0.0
 10
-17.8417
 20
73.6824
 30
0.0
 10
-17.8417
 20
73.6824
 30
0.0
 10
-17.8417
 20
73.6824
 30
0.0
 10
-17.8417
 20
85.5672
 30
0.0
 10
-17.8417
 20
85.5672
 30
0.0
  0
SPLINE
  5
52
330
1F
100
AcDbEntity
  8
layer 1
 62
     7
100
AcDbSpline
210
0.0
220
0.0
230
1.0
 70
    11
 71
     3
 72
    20
 73
    16
 74
     0
 42
0.0000000001
 43
0.0000000001
 12
1.0
 22
0.0
 32
0.0
 13
1.0
 23
0.0
 33
0.0
 40
0.0
 40
0.0
 40
0.0
 40
0.0
 40
0.2
 40
0.2
 40
0.2
 40
0.2
 40
0.4
 40
0.4
 40
0.4
 40
0.4
 40
0.6
 40
0.6
 40
0.6
 40
0.6
 40
1.0
 40
1.0
 40
1.0
 40
1.0
 10
-17.8417
 20
54.4843
 30
0.0
 10
-17.8417
 20
54.4843
 30
0.0
 10
-5.0526
 20
54.4843
 30
0.0
 10
-5.0526
 20
54.4843
 30
0.0
 10
-5.0526
 20
54.4843
 30
0.0
 10
-5.0526
 20
54.4843
 30
0.0
 10
-5.0526
 20
34.3912
 30
0.0
 10
-5.0526
 20
34.3912
 30
0.0
 10
-5.0526
 20
34.3912
 30
0.0
 10
-5.0526
 20
34.3912
 30
0.0
 10
-17.8417
 20
34.3912
 30
0.0
 10
-17.8417
 20
34.3912
 30
0.0
 10
-17.8417
 20
34.3912
 30
0.0
 10
-17.8417
 20
34.3912
 30
0.0
 10
-17.8417
 20
54.4843
 30
0.0
 10
-17.8417
 20
54.4843
 30
0.0
  0
SPLINE
  5
53
330
1F
100
AcDbEntity
  8
layer 1
 62
     7
100
AcDbSpline
210
0.0
220
0.0
230
1.0
 70
    11
 71
     3
 72
    24
 73
    20
 74
     0
 42
0.0000000001
 43
0.0000000001
 12
1.0
 22
0.0
 32
0.0
 13
1.0
 23
0.0
 33
0.0
 40
0.0
 40
0.0
 40
0.0
 40
0.0
 40
0.1666666666666667
 40
0.1666666666666667
 40
0.1666666666666667
 40
0.1666666666666667
 40
0.3333333333333333
 40
0.3333333333333333
 40
0.3333333333333333
 40
0.3333333333333333
 40
0.5
 40
0.5
 40
0.5
 40
0.5
 40
0.6666666666666666
 40
0.6666666666666666
 40
0.6666666666666666
 40
0.6666666666666666
 40
1.0
 40
1.0
 40
1.0
 40
1.0
 10
-67.2084
 20
30.7152
 30
0.0
 10
-67.2084
 20
30.7152
 30
0.0
 10
-61.9156
 20
30.7152
 30
0.0
 10
-61.9156
 20
30.7152
 30
0.0
 10
-61.9156
 20
30.7152
 30
0.0
 10
-60.5683
 20
27.7321
 30
0.0
 10
-57.7778
 20
25.5187
 30
0.0
 10
-54.4094
 20
24.9415
 30
0.0
 10
-54.4094
 20
24.9415
 30
0.0
 10
-54.4094
 20
24.9415
 30
0.0
 10
-54.4094
 20
21.5732
 30
0.0
 10
-54.4094
 20
21.5732
 30
0.0
 10
-54.4094
 20
21.5732
 30
0.0
 10
-54.4094
 20
21.5732
 30
0.0
 10
-67.2084
 20
21.5732
 30
0.0
 10
-67.2084
 20
21.5732
 30
0.0
 10
-67.2084
 20
21.5732
 30
0.0
 10
-67.2084
 20
21.5732
 30
0.0
 10
-67.2084
 20
30.7152
 30
0.0
 10
-67.2084
 20
30.7152
 30
0.0
  0
SPLINE
  5
54
330
1F
100
AcDbEntity
  8
layer 1
 62
     7
100
AcDbSpline
210
0.0
220
0.0
230
1.0
 70
    11
 71
     3
 72
    24
 73
    20
 74
     0
 42
0.0000000001
 43
0.0000000001
 12
1.0
 22
0.0
 32
0.0
 13
1.0
 23
0.0
 33
0.0
 40
0.0
 40
0.0
 40
0.0
 40
0.0
 40
0.1666666666666667
 40
0.1666666666666667
 40
0.1666666666666667
 40
0.1666666666666667
 40
0.3333333333333333
 40
0.3333333333333333
 40
0.3333333333333333
 40
0.3333333333333333
 40
0.5
 40
0.5
 40
0.5
 40
0.5
 40
0.6666666666666666
 40
0.6666666666666666
 40
0.6666666666666666
 40
0.6666666666666666
 40
1.0
 40
1.0
 40
1.0
 40
1.0
 10
-43.6316
 20
30.7152
 30
0.0
 10
-43.6316
 20
30.7152
 30
0.0
 10
-37.9539
 20
30.7152
 30
0.0
 10
-37.9539
 20
30.7152
 30
0.0
 10
-37.9539
 20
30.7152
 30
0.0
 10
-37.9539
 20
30.7152
 30
0.0
 10
-37.9539
 20
21.5732
 30
0.0
 10
-37.9539
 20
21.5732
 30
0.0
 10
-37.9539
 20
21.5732
 30
0.0
 10
-37.9539
 20
21.5732
 30
0.0
 10
-50.7528
 20
21.5732
 30
0.0
 10
-50.7528
 20
21.5732
 30
0.0
 10
-50.7528
 20
21.5732
 30
0.0
 10
-50.7528
 20
21.5732
 30
0.0
 10
-50.7528
 20
25.0375
 30
0.0
 10
-50.7528
 20
25.0375
 30
0.0
 10
-50.7528
 20
25.0375
 30
0.0
 10
-47.5771
 20
25.7113
 30
0.0
 10
-44.8825
 20
27.8284
 30
0.0
 10
-43.6316
 20
30.7152
 30
0.0
  0
SPLINE
  5
55
330
1F
100
AcDbEntity
  8
layer 1
 62
     7
100
AcDbSpline
210
0.0
220
0.0
230
1.0
 70
    11
 71
     3
 72
    20
 73
    16
 74
     0
 42
0.0000000001
 43
0.0000000001
 12
1.0
 22
0.0
 32
0.0
 13
1.0
 23
0.0
 33
0.0
 40
0.0
 40
0.0
 40
0.0
 40
0.0
 40
0.2
 40
0.2
 40
0.2
 40
0.2
 40
0.4
 40
0.4
 40
0.4
 40
0.4
 40
0.6
 40
0.6
 40
0.6
 40
0.6
 40
1.0
 40
1.0
 40
1.0
 40
1.0
 10
-52.7736
 20
41.3008
 30
0.0
 10
-49.213
 20
41.3008
 30
0.0
 10
-46.3261
 20
38.4137
 30
0.0
 10
-46.3261
 20
34.8533
 30
0.0
 10
-46.3261
 20
34.8533
 30
0.0
 10
-46.3261
 20
31.389
 30
0.0
 10
-49.213
 20
28.5019
 30
0.0
 10
-52.7736
 20
28.5019
 30
0.0
 10
-52.7736
 20
28.5019
 30
0.0
 10
-56.3342
 20
28.5019
 30
0.0
 10
-59.1247
 20
31.389
 30
0.0
 10
-59.1247
 20
34.8533
 30
0.0
 10
-59.1247
 20
34.8533
 30
0.0
 10
-59.1247
 20
38.4137
 30
0.0
 10
-56.3342
 20
41.3008
 30
0.0
 10
-52.7736
 20
41.3008
 30
0.0
  0
SPLINE
  5
56
330
1F
100
AcDbEntity
  8
layer 1
 62
     7
100
AcDbSpline
210
0.0
220
0.0
230
1.0
 70
    11
 71
     3
 72
    24
 73
    20
 74
     0
 42
0.0000000001
 43
0.0000000001
 12
1.0
 22
0.0
 32
0.0
 13
1.0
 23
0.0
 33
0.0
 40
0.0
 40
0.0
 40
0.0
 40
0.0
 40
0.1666666666666667
 40
0.1666666666666667
 40
0.1666666666666667
 40
0.1666666666666667
 40
0.3333333333333333
 40
0.3333333333333333
 40
0.3333333333333333
 40
0.3333333333333333
 40
0.5
 40
0.5
 40
0.5
 40
0.5
 40
0.6666666666666666
 40
0.6666666666666666
 40
0.6666666666666666
 40
0.6666666666666666
 40
1.0
 40
1.0
 40
1.0
 40
1.0
 10
-149.3898
 20
69.9778
 30
0.0
 10
-149.3898
 20
69.9778
 30
0.0
 10
-143.3273
 20
69.9778
 30
0.0
 10
-143.3273
 20
69.9778
 30
0.0
 10
-143.3273
 20
69.9778
 30
0.0
 10
-144.5783
 20
68.3416
 30
0.0
 10
-145.348
 20
66.2246
 30
0.0
 10
-145.348
 20
64.0112
 30
0.0
 10
-145.348
 20
64.0112
 30
0.0
 10
-145.348
 20
61.7979
 30
0.0
 10
-144.6745
 20
59.7771
 30
0.0
 10
-143.4236
 20
58.1412
 30
0.0
 10
-143.4236
 20
58.1412
 30
0.0
 10
-143.4236
 20
58.1412
 30
0.0
 10
-149.3898
 20
58.1412
 30
0.0
 10
-149.3898
 20
58.1412
 30
0.0
 10
-149.3898
 20
58.1412
 30
0.0
 10
-149.3898
 20
58.1412
 30
0.0
 10
-149.3898
 20
69.9778
 30
0.0
 10
-149.3898
 20
69.9778
 30
0.0
  0
SPLINE
  5
57
330
1F
100
AcDbEntity
  8
layer 1
 62
     7
100
AcDbSpline
210
0.0
220
0.0
230
1.0
 70
    11
 71
     3
 72
    24
 73
    20
 74
     0
 42
0.0000000001
 43
0.0000000001
 12
1.0
 22
0.0
 32
0.0
 13
1.0
 23
0.0
 33
0.0
 40
0.0
 40
0.0
 40
0.0
 40
0.0
 40
0.1666666666666667
 40
0.1666666666666667
 40
0.1666666666666667
 40
0.1666666666666667
 40
0.3333333333333333
 40
0.3333333333333333
 40
0.3333333333333333
 40
0.3333333333333333
 40
0.5
 40
0.5
 40
0.5
 40
0.5
 40
0.6666666666666666
 40
0.6666666666666666
 40
0.6666666666666666
 40
0.6666666666666666
 40
1.0
 40
1.0
 40
1.0
 40
1.0
 10
-149.3898
 20
85.5672
 30
0.0
 10
-149.3898
 20
85.5672
 30
0.0
 10
-136.5912
 20
85.5672
 30
0.0
 10
-136.5912
 20
85.5672
 30
0.0
 10
-136.5912
 20
85.5672
 30
0.0
 10
-136.5912
 20
85.5672
 30
0.0
 10
-136.5912
 20
73.923
 30
0.0
 10
-136.5912
 20
73.923
 30
0.0
 10
-136.5912
 20
73.923
 30
0.0
 10
-137.0721
 20
73.923
 30
0.0
 10
-137.5533
 20
73.827
 30
0.0
 10
-138.0345
 20
73.6344
 30
0.0
 10
-138.0345
 20
73.6344
 30
0.0
 10
-138.0345
 20
73.6344
 30
0.0
 10
-149.3898
 20
73.6344
 30
0.0
 10
-149.3898
 20
73.6344
 30
0.0
 10
-149.3898
 20
73.6344
 30
0.0
 10
-149.3898
 20
73.6344
 30
0.0
 10
-149.3898
 20
85.5672
 30
0.0
 10
-149.3898
 20
85.5672
 30
0.0
  0
SPLINE
  5
58
330
1F
100
AcDbEntity
  8
layer 1
 62
     7
100
AcDbSpline
210
0.0
220
0.0
230
1.0
 70
    11
 71
     3
 72
    24
 73
    20
 74
     0
 42
0.0000000001
 43
0.0000000001
 12
1.0
 22
0.0
 32
0.0
 13
1.0
 23
0.0
 33
0.0
 40
0.0
 40
0.0
 40
0.0
 40
0.0
 40
0.1666666666666667
 40
0.1666666666666667
 40
0.1666666666666667
 40
0.1666666666666667
 40
0.3333333333333333
 40
0.3333333333333333
 40
0.3333333333333333
 40
0.3333333333333333
 40
0.5
 40
0.5
 40
0.5
 40
0.5
 40
0.6666666666666666
 40
0.6666666666666666
 40
0.6666666666666666
 40
0.6666666666666666
 40
1.0
 40
1.0
 40
1.0
 40
1.0
 10
-133.0306
 20
85.5672
 30
0.0
 10
-133.0306
 20
85.5672
 30
0.0
 10
-120.2317
 20
85.5672
 30
0.0
 10
-120.2317
 20
85.5672
 30
0.0
 10
-120.2317
 20
85.5672
 30
0.0
 10
-120.2317
 20
85.5672
 30
0.0
 10
-120.2317
 20
73.6344
 30
0.0
 10
-120.2317
 20
73.6344
 30
0.0
 10
-120.2317
 20
73.6344
 30
0.0
 10
-120.2317
 20
73.6344
 30
0.0
 10
-132.5494
 20
73.6344
 30
0.0
 10
-132.5494
 20
73.6344
 30
0.0
 10
-132.5494
 20
73.6344
 30
0.0
 10
-132.7417
 20
73.7307
 30
0.0
 10
-132.838
 20
73.7307
 30
0.0
 10
-133.0306
 20
73.827
 30
0.0
 10
-133.0306
 20
73.827
 30
0.0
 10
-133.0306
 20
73.827
 30
0.0
 10
-133.0306
 20
85.5672
 30
0.0
 10
-133.0306
 20
85.5672
 30
0.0
  0
SPLINE
  5
59
330
1F
100
AcDbEntity
  8
layer 1
 62
     7
100
AcDbSpline
210
0.0
220
0.0
230
1.0
 70
    11
 71
     3
 72
    24
 73
    20
 74
     0
 42
0.0000000001
 43
0.0000000001
 12
1.0
 22
0.0
 32
0.0
 13
1.0
 23
0.0
 33
0.0
 40
0.0
 40
0.0
 40
0.0
 40
0.0
 40
0.1666666666666667
 40
0.1666666666666667
 40
0.1666666666666667
 40
0.1666666666666667
 40
0.3333333333333333
 40
0.3333333333333333
 40
0.3333333333333333
 40
0.3333333333333333
 40
0.5
 40
0.5
 40
0.5
 40
0.5
 40
0.6666666666666666
 40
0.6666666666666666
 40
0.6666666666666666
 40
0.6666666666666666
 40
1.0
 40
1.0
 40
1.0
 40
1.0
 10
-127.2566
 20
69.9778
 30
0.0
 10
-127.2566
 20
69.9778
 30
0.0
 10
-120.2317
 20
69.9778
 30
0.0
 10
-120.2317
 20
69.9778
 30
0.0
 10
-120.2317
 20
69.9778
 30
0.0
 10
-120.2317
 20
69.9778
 30
0.0
 10
-120.2317
 20
58.1412
 30
0.0
 10
-120.2317
 20
58.1412
 30
0.0
 10
-120.2317
 20
58.1412
 30
0.0
 10
-120.2317
 20
58.1412
 30
0.0
 10
-127.0643
 20
58.1412
 30
0.0
 10
-127.0643
 20
58.1412
 30
0.0
 10
-127.0643
 20
58.1412
 30
0.0
 10
-125.9093
 20
59.7771
 30
0.0
 10
-125.2358
 20
61.7979
 30
0.0
 10
-125.2358
 20
64.0112
 30
0.0
 10
-125.2358
 20
64.0112
 30
0.0
 10
-125.2358
 20
66.2246
 30
0.0
 10
-126.0056
 20
68.3416
 30
0.0
 10
-127.2566
 20
69.9778
 30
0.0
  0
SPLINE
  5
5A
330
1F
100
AcDbEntity
  8
layer 1
 62
     7
100
AcDbSpline
210
0.0
220
0.0
230
1.0
 70
    11
 71
     3
 72
    20
 73
    16
 74
     0
 42
0.0000000001
 43
0.0000000001
 12
1.0
 22
0.0
 32
0.0
 13
1.0
 23
0.0
 33
0.0
 40
0.0
 40
0.0
 40
0.0
 40
0.0
 40
0.2
 40
0.2
 40
0.2
 40
0.2
 40
0.4
 40
0.4
 40
0.4
 40
0.4
 40
0.6
 40
0.6
 40
0.6
 40
0.6
 40
1.0
 40
1.0
 40
1.0
 40
1.0
 10
-135.2439
 20
70.3627
 30
0.0
 10
-131.7796
 20
70.3627
 30
0.0
 10
-128.8925
 20
67.5718
 30
0.0
 10
-128.8925
 20
64.0112
 30
0.0
 10
-128.8925
 20
64.0112
 30
0.0
 10
-128.8925
 20
60.4509
 30
0.0
 10
-131.7796
 20
57.5637
 30
0.0
 10
-135.2439
 20
57.5637
 30
0.0
 10
-135.2439
 20
57.5637
 30
0.0
 10
-138.8043
 20
57.5637
 30
0.0
 10
-141.6914
 20
60.4509
 30
0.0
 10
-141.6914
 20
64.0112
 30
0.0
 10
-141.6914
 20
64.0112
 30
0.0
 10
-141.6914
 20
67.5718
 30
0.0
 10
-138.8043
 20
70.3627
 30
0.0
 10
-135.2439
 20
70.3627
 30
0.0
  0
SPLINE
  5
5B
330
1F
100
AcDbEntity
  8
layer 1
 62
     7
100
AcDbSpline
210
0.0
220
0.0
230
1.0
 70
    11
 71
     3
 72
    24
 73
    20
 74
     0
 42
0.0000000001
 43
0.0000000001
 12
1.0
 22
0.0
 32
0.0
 13
1.0
 23
0.0
 33
0.0
 40
0.0
 40
0.0
 40
0.0
 40
0.0
 40
0.1666666666666667
 40
0.1666666666666667
 40
0.1666666666666667
 40
0.1666666666666667
 40
0.3333333333333333
 40
0.3333333333333333
 40
0.3333333333333333
 40
0.3333333333333333
 40
0.5
 40
0.5
 40
0.5
 40
0.5
 40
0.6666666666666666
 40
0.6666666666666666
 40
0.6666666666666666
 40
0.6666666666666666
 40
1.0
 40
1.0
 40
1.0
 40
1.0
 10
-107.5293
 20
30.7152
 30
0.0
 10
-107.5293
 20
30.7152
 30
0.0
 10
-103.7761
 20
30.7152
 30
0.0
 10
-103.7761
 20
30.7152
 30
0.0
 10
-103.7761
 20
30.7152
 30
0.0
 10
-103.7761
 20
30.7152
 30
0.0
 10
-103.7761
 20
21.5732
 30
0.0
 10
-103.7761
 20
21.5732
 30
0.0
 10
-103.7761
 20
21.5732
 30
0.0
 10
-103.7761
 20
21.5732
 30
0.0
 10
-116.575
 20
21.5732
 30
0.0
 10
-116.575
 20
21.5732
 30
0.0
 10
-116.575
 20
21.5732
 30
0.0
 10
-116.575
 20
21.5732
 30
0.0
 10
-116.575
 20
23.6903
 30
0.0
 10
-116.575
 20
23.6903
 30
0.0
 10
-116.575
 20
23.6903
 30
0.0
 10
-112.3409
 20
23.9791
 30
0.0
 10
-108.7803
 20
26.866
 30
0.0
 10
-107.5293
 20
30.7152
 30
0.0
  0
SPLINE
  5
5C
330
1F
100
AcDbEntity
  8
layer 1
 62
     7
100
AcDbSpline
210
0.0
220
0.0
230
1.0
 70
    11
 71
     3
 72
    24
 73
    20
 74
     0
 42
0.0000000001
 43
0.0000000001
 12
1.0
 22
0.0
 32
0.0
 13
1.0
 23
0.0
 33
0.0
 40
0.0
 40
0.0
 40
0.0
 40
0.0
 40
0.1666666666666667
 40
0.1666666666666667
 40
0.1666666666666667
 40
0.1666666666666667
 40
0.3333333333333333
 40
0.3333333333333333
 40
0.3333333333333333
 40
0.3333333333333333
 40
0.5
 40
0.5
 40
0.5
 40
0.5
 40
0.6666666666666666
 40
0.6666666666666666
 40
0.6666666666666666
 40
0.6666666666666666
 40
1.0
 40
1.0
 40
1.0
 40
1.0
 10
-116.575
 20
54.4843
 30
0.0
 10
-116.575
 20
54.4843
 30
0.0
 10
-103.7761
 20
54.4843
 30
0.0
 10
-103.7761
 20
54.4843
 30
0.0
 10
-103.7761
 20
54.4843
 30
0.0
 10
-103.7761
 20
54.4843
 30
0.0
 10
-103.7761
 20
34.3721
 30
0.0
 10
-103.7761
 20
34.3721
 30
0.0
 10
-103.7761
 20
34.3721
 30
0.0
 10
-103.7761
 20
34.3721
 30
0.0
 10
-107.0481
 20
34.3721
 30
0.0
 10
-107.0481
 20
34.3721
 30
0.0
 10
-107.0481
 20
34.3721
 30
0.0
 10
-107.433
 20
39.4723
 30
0.0
 10
-111.4748
 20
43.5141
 30
0.0
 10
-116.575
 20
43.8027
 30
0.0
 10
-116.575
 20
43.8027
 30
0.0
 10
-116.575
 20
43.8027
 30
0.0
 10
-116.575
 20
54.4843
 30
0.0
 10
-116.575
 20
54.4843
 30
0.0
  0
SPLINE
  5
5D
330
1F
100
AcDbEntity
  8
layer 1
 62
     7
100
AcDbSpline
210
0.0
220
0.0
230
1.0
 70
    11
 71
     3
 72
    20
 73
    16
 74
     0
 42
0.0000000001
 43
0.0000000001
 12
1.0
 22
0.0
 32
0.0
 13
1.0
 23
0.0
 33
0.0
 40
0.0
 40
0.0
 40
0.0
 40
0.0
 40
0.2
 40
0.2
 40
0.2
 40
0.2
 40
0.4
 40
0.4
 40
0.4
 40
0.4
 40
0.6
 40
0.6
 40
0.6
 40
0.6
 40
1.0
 40
1.0
 40
1.0
 40
1.0
 10
-117.1522
 20
40.1458
 30
0.0
 10
-113.5919
 20
40.1458
 30
0.0
 10
-110.7048
 20
37.259
 30
0.0
 10
-110.7048
 20
33.7946
 30
0.0
 10
-110.7048
 20
33.7946
 30
0.0
 10
-110.7048
 20
30.234
 30
0.0
 10
-113.5919
 20
27.3472
 30
0.0
 10
-117.1522
 20
27.3472
 30
0.0
 10
-117.1522
 20
27.3472
 30
0.0
 10
-120.6166
 20
27.3472
 30
0.0
 10
-123.5037
 20
30.234
 30
0.0
 10
-123.5037
 20
33.7946
 30
0.0
 10
-123.5037
 20
33.7946
 30
0.0
 10
-123.5037
 20
37.259
 30
0.0
 10
-120.6166
 20
40.1458
 30
0.0
 10
-117.1522
 20
40.1458
 30
0.0
  0
SPLINE
  5
5E
330
1F
100
AcDbEntity
  8
layer 1
 62
     7
100
AcDbSpline
210
0.0
220
0.0
230
1.0
 70
    11
 71
     3
 72
    24
 73
    20
 74
     0
 42
0.0000000001
 43
0.0000000001
 12
1.0
 22
0.0
 32
0.0
 13
1.0
 23
0.0
 33
0.0
 40
0.0
 40
0.0
 40
0.0
 40
0.0
 40
0.1666666666666667
 40
0.1666666666666667
 40
0.1666666666666667
 40
0.1666666666666667
 40
0.3333333333333333
 40
0.3333333333333333
 40
0.3333333333333333
 40
0.3333333333333333
 40
0.5
 40
0.5
 40
0.5
 40
0.5
 40
0.6666666666666666
 40
0.6666666666666666
 40
0.6666666666666666
 40
0.6666666666666666
 40
1.0
 40
1.0
 40
1.0
 40
1.0
 10
-34.2973
 20
54.4843
 30
0.0
 10
-34.2973
 20
54.4843
 30
0.0
 10
-21.4983
 20
54.4843
 30
0.0
 10
-21.4983
 20
54.4843
 30
0.0
 10
-21.4983
 20
54.4843
 30
0.0
 10
-21.4983
 20
54.4843
 30
0.0
 10
-21.4983
 20
34.3721
 30
0.0
 10
-21.4983
 20
34.3721
 30
0.0
 10
-21.4983
 20
34.3721
 30
0.0
 10
-21.4983
 20
34.3721
 30
0.0
 10
-34.2973
 20
34.3721
 30
0.0
 10
-34.2973
 20
34.3721
 30
0.0
 10
-34.2973
 20
34.3721
 30
0.0
 10
-34.2973
 20
34.3721
 30
0.0
 10
-34.2973
 20
54.4843
 30
0.0
 10
-34.2973
 20
54.4843
 30
0.0
 10
-34.2973
 20
54.4843
 30
0.0
 10
-34.2973
 20
54.4843
 30
0.0
 10
-34.2973
 20
54.4843
 30
0.0
 10
-34.2973
 20
54.4843
 30
0.0
  0
SPLINE
  5
5F
330
1F
100
AcDbEntity
  8
layer 1
 62
     7
100
AcDbSpline
210
0.0
220
0.0
230
1.0
 70
    11
 71
     3
 72
    32
 73
    28
 74
     0
 42
0.0000000001
 43
0.0000000001
 12
1.0
 22
0.0
 32
0.0
 13
1.0
 23
0.0
 33
0.0
 40
0.0
 40
0.0
 40
0.0
 40
0.0
 40
0.125
 40
0.125
 40
0.125
 40
0.125
 40
0.25
 40
0.25
 40
0.25
 40
0.25
 40
0.375
 40
0.375
 40
0.375
 40
0.375
 40
0.5
 40
0.5
 40
0.5
 40
0.5
 40
0.625
 40
0.625
 40
0.625
 40
0.625
 40
0.75
 40
0.75
 40
0.75
 40
0.75
 40
1.0
 40
1.0
 40
1.0
 40
1.0
 10
-37.9539
 20
52.0787
 30
0.0
 10
-37.9539
 20
52.0787
 30
0.0
 10
-37.9539
 20
34.3721
 30
0.0
 10
-37.9539
 20
34.3721
 30
0.0
 10
-37.9539
 20
34.3721
 30
0.0
 10
-37.9539
 20
34.3721
 30
0.0
 10
-42.6692
 20
34.3721
 30
0.0
 10
-42.6692
 20
34.3721
 30
0.0
 10
-42.6692
 20
34.3721
 30
0.0
 10
-42.6692
 20
34.5644
 30
0.0
 10
-42.6692
 20
34.757
 30
0.0
 10
-42.6692
 20
34.8533
 30
0.0
 10
-42.6692
 20
34.8533
 30
0.0
 10
-42.6692
 20
39.7609
 30
0.0
 10
-46.1335
 20
43.8027
 30
0.0
 10
-50.7528
 20
44.7651
 30
0.0
 10
-50.7528
 20
44.7651
 30
0.0
 10
-50.7528
 20
44.7651
 30
0.0
 10
-50.7528
 20
51.9824
 30
0.0
 10
-50.7528
 20
51.9824
 30
0.0
 10
-50.7528
 20
51.9824
 30
0.0
 10
-48.8281
 20
51.1163
 30
0.0
 10
-46.711
 20
50.6351
 30
0.0
 10
-44.4976
 20
50.6351
 30
0.0
 10
-44.4976
 20
50.6351
 30
0.0
 10
-42.1883
 20
50.6351
 30
0.0
 10
-39.9749
 20
51.1163
 30
0.0
 10
-37.9539
 20
52.0787
 30
0.0
  0
SPLINE
  5
60
330
1F
100
AcDbEntity
  8
layer 1
 62
     7
100
AcDbSpline
210
0.0
220
0.0
230
1.0
 70
    11
 71
     3
 72
    32
 73
    28
 74
     0
 42
0.0000000001
 43
0.0000000001
 12
1.0
 22
0.0
 32
0.0
 13
1.0
 23
0.0
 33
0.0
 40
0.0
 40
0.0
 40
0.0
 40
0.0
 40
0.125
 40
0.125
 40
0.125
 40
0.125
 40
0.25
 40
0.25
 40
0.25
 40
0.25
 40
0.375
 40
0.375
 40
0.375
 40
0.375
 40
0.5
 40
0.5
 40
0.5
 40
0.5
 40
0.625
 40
0.625
 40
0.625
 40
0.625
 40
0.75
 40
0.75
 40
0.75
 40
0.75
 40
1.0
 40
1.0
 40
1.0
 40
1.0
 10
-67.2084
 20
54.4843
 30
0.0
 10
-67.2084
 20
54.4843
 30
0.0
 10
-54.6983
 20
54.4843
 30
0.0
 10
-54.6983
 20
54.4843
 30
0.0
 10
-54.6983
 20
54.4843
 30
0.0
 10
-54.602
 20
54.3883
 30
0.0
 10
-54.5057
 20
54.292
 30
0.0
 10
-54.4094
 20
54.1957
 30
0.0
 10
-54.4094
 20
54.1957
 30
0.0
 10
-54.4094
 20
54.1957
 30
0.0
 10
-54.4094
 20
44.7651
 30
0.0
 10
-54.4094
 20
44.7651
 30
0.0
 10
-54.4094
 20
44.7651
 30
0.0
 10
-59.1247
 20
43.9953
 30
0.0
 10
-62.7817
 20
39.8572
 30
0.0
 10
-62.7817
 20
34.8533
 30
0.0
 10
-62.7817
 20
34.8533
 30
0.0
 10
-62.7817
 20
34.757
 30
0.0
 10
-62.7817
 20
34.5644
 30
0.0
 10
-62.7817
 20
34.3721
 30
0.0
 10
-62.7817
 20
34.3721
 30
0.0
 10
-62.7817
 20
34.3721
 30
0.0
 10
-67.2084
 20
34.3721
 30
0.0
 10
-67.2084
 20
34.3721
 30
0.0
 10
-67.2084
 20
34.3721
 30
0.0
 10
-67.2084
 20
34.3721
 30
0.0
 10
-67.2084
 20
54.4843
 30
0.0
 10
-67.2084
 20
54.4843
 30
0.0
  0
SPLINE
  5
61
330
1F
100
AcDbEntity
  8
layer 1
 62
     7
100
AcDbSpline
210
0.0
220
0.0
230
1.0
 70
    11
 71
     3
 72
    24
 73
    20
 74
     0
 42
0.0000000001
 43
0.0000000001
 12
1.0
 22
0.0
 32
0.0
 13
1.0
 23
0.0
 33
0.0
 40
0.0
 40
0.0
 40
0.0
 40
0.0
 40
0.1666666666666667
 40
0.1666666666666667
 40
0.1666666666666667
 40
0.1666666666666667
 40
0.3333333333333333
 40
0.3333333333333333
 40
0.3333333333333333
 40
0.3333333333333333
 40
0.5
 40
0.5
 40
0.5
 40
0.5
 40
0.6666666666666666
 40
0.6666666666666666
 40
0.6666666666666666
 40
0.6666666666666666
 40
1.0
 40
1.0
 40
1.0
 40
1.0
 10
-67.2084
 20
69.9778
 30
0.0
 10
-67.2084
 20
69.9778
 30
0.0
 10
-59.5099
 20
69.9778
 30
0.0
 10
-59.5099
 20
69.9778
 30
0.0
 10
-59.5099
 20
69.9778
 30
0.0
 10
-59.7985
 20
68.8228
 30
0.0
 10
-59.9908
 20
67.4755
 30
0.0
 10
-59.9908
 20
66.1283
 30
0.0
 10
-59.9908
 20
66.1283
 30
0.0
 10
-59.9908
 20
63.2414
 30
0.0
 10
-59.1247
 20
60.4509
 30
0.0
 10
-57.7778
 20
58.1412
 30
0.0
 10
-57.7778
 20
58.1412
 30
0.0
 10
-57.7778
 20
58.1412
 30
0.0
 10
-67.2084
 20
58.1412
 30
0.0
 10
-67.2084
 20
58.1412
 30
0.0
 10
-67.2084
 20
58.1412
 30
0.0
 10
-67.2084
 20
58.1412
 30
0.0
 10
-67.2084
 20
69.9778
 30
0.0
 10
-67.2084
 20
69.9778
 30
0.0
  0
SPLINE
  5
62
330
1F
100
AcDbEntity
  8
layer 1
 62
     7
100
AcDbSpline
210
0.0
220
0.0
230
1.0
 70
    11
 71
     3
 72
    24
 73
    20
 74
     0
 42
0.0000000001
 43
0.0000000001
 12
1.0
 22
0.0
 32
0.0
 13
1.0
 23
0.0
 33
0.0
 40
0.0
 40
0.0
 40
0.0
 40
0.0
 40
0.1666666666666667
 40
0.1666666666666667
 40
0.1666666666666667
 40
0.1666666666666667
 40
0.3333333333333333
 40
0.3333333333333333
 40
0.3333333333333333
 40
0.3333333333333333
 40
0.5
 40
0.5
 40
0.5
 40
0.5
 40
0.6666666666666666
 40
0.6666666666666666
 40
0.6666666666666666
 40
0.6666666666666666
 40
1.0
 40
1.0
 40
1.0
 40
1.0
 10
-67.2084
 20
85.5672
 30
0.0
 10
-67.2084
 20
85.5672
 30
0.0
 10
-54.4094
 20
85.5672
 30
0.0
 10
-54.4094
 20
85.5672
 30
0.0
 10
-54.4094
 20
85.5672
 30
0.0
 10
-54.4094
 20
85.5672
 30
0.0
 10
-54.4094
 20
78.0611
 30
0.0
 10
-54.4094
 20
78.0611
 30
0.0
 10
-54.4094
 20
78.0611
 30
0.0
 10
-55.853
 20
76.8101
 30
0.0
 10
-57.104
 20
75.3666
 30
0.0
 10
-58.0664
 20
73.6344
 30
0.0
 10
-58.0664
 20
73.6344
 30
0.0
 10
-58.0664
 20
73.6344
 30
0.0
 10
-67.2084
 20
73.6344
 30
0.0
 10
-67.2084
 20
73.6344
 30
0.0
 10
-67.2084
 20
73.6344
 30
0.0
 10
-67.2084
 20
73.6344
 30
0.0
 10
-67.2084
 20
85.5672
 30
0.0
 10
-67.2084
 20
85.5672
 30
0.0
  0
SPLINE
  5
63
330
1F
100
AcDbEntity
  8
layer 1
 62
     7
100
AcDbSpline
210
0.0
220
0.0
230
1.0
 70
    11
 71
     3
 72
    24
 73
    20
 74
     0
 42
0.0000000001
 43
0.0000000001
 12
1.0
 22
0.0
 32
0.0
 13
1.0
 23
0.0
 33
0.0
 40
0.0
 40
0.0
 40
0.0
 40
0.0
 40
0.1666666666666667
 40
0.1666666666666667
 40
0.1666666666666667
 40
0.1666666666666667
 40
0.3333333333333333
 40
0.3333333333333333
 40
0.3333333333333333
 40
0.3333333333333333
 40
0.5
 40
0.5
 40
0.5
 40
0.5
 40
0.6666666666666666
 40
0.6666666666666666
 40
0.6666666666666666
 40
0.6666666666666666
 40
1.0
 40
1.0
 40
1.0
 40
1.0
 10
-50.7528
 20
85.5672
 30
0.0
 10
-50.7528
 20
85.5672
 30
0.0
 10
-37.9539
 20
85.5672
 30
0.0
 10
-37.9539
 20
85.5672
 30
0.0
 10
-37.9539
 20
85.5672
 30
0.0
 10
-37.9539
 20
85.5672
 30
0.0
 10
-37.9539
 20
80.1782
 30
0.0
 10
-37.9539
 20
80.1782
 30
0.0
 10
-37.9539
 20
80.1782
 30
0.0
 10
-39.9749
 20
81.1405
 30
0.0
 10
-42.1883
 20
81.6217
 30
0.0
 10
-44.4976
 20
81.6217
 30
0.0
 10
-44.4976
 20
81.6217
 30
0.0
 10
-46.711
 20
81.6217
 30
0.0
 10
-48.8281
 20
81.1405
 30
0.0
 10
-50.7528
 20
80.3707
 30
0.0
 10
-50.7528
 20
80.3707
 30
0.0
 10
-50.7528
 20
80.3707
 30
0.0
 10
-50.7528
 20
85.5672
 30
0.0
 10
-50.7528
 20
85.5672
 30
0.0
  0
SPLINE
  5
64
330
1F
100
AcDbEntity
  8
layer 1
 62
     7
100
AcDbSpline
210
0.0
220
0.0
230
1.0
 70
    11
 71
     3
 72
    24
 73
    20
 74
     0
 42
0.0000000001
 43
0.0000000001
 12
1.0
 22
0.0
 32
0.0
 13
1.0
 23
0.0
 33
0.0
 40
0.0
 40
0.0
 40
0.0
 40
0.0
 40
0.1666666666666667
 40
0.1666666666666667
 40
0.1666666666666667
 40
0.1666666666666667
 40
0.3333333333333333
 40
0.3333333333333333
 40
0.3333333333333333
 40
0.3333333333333333
 40
0.5
 40
0.5
 40
0.5
 40
0.5
 40
0.6666666666666666
 40
0.6666666666666666
 40
0.6666666666666666
 40
0.6666666666666666
 40
1.0
 40
1.0
 40
1.0
 40
1.0
 10
-34.2973
 20
85.5672
 30
0.0
 10
-34.2973
 20
85.5672
 30
0.0
 10
-21.4983
 20
85.5672
 30
0.0
 10
-21.4983
 20
85.5672
 30
0.0
 10
-21.4983
 20
85.5672
 30
0.0
 10
-21.4983
 20
85.5672
 30
0.0
 10
-21.4983
 20
73.6344
 30
0.0
 10
-21.4983
 20
73.6344
 30
0.0
 10
-21.4983
 20
73.6344
 30
0.0
 10
-21.4983
 20
73.6344
 30
0.0
 10
-30.9292
 20
73.6344
 30
0.0
 10
-30.9292
 20
73.6344
 30
0.0
 10
-30.9292
 20
73.6344
 30
0.0
 10
-31.7953
 20
75.2703
 30
0.0
 10
-32.95
 20
76.7138
 30
0.0
 10
-34.2973
 20
77.8685
 30
0.0
 10
-34.2973
 20
77.8685
 30
0.0
 10
-34.2973
 20
77.8685
 30
0.0
 10
-34.2973
 20
85.5672
 30
0.0
 10
-34.2973
 20
85.5672
 30
0.0
  0
SPLINE
  5
65
330
1F
100
AcDbEntity
  8
layer 1
 62
     7
100
AcDbSpline
210
0.0
220
0.0
230
1.0
 70
    11
 71
     3
 72
    24
 73
    20
 74
     0
 42
0.0000000001
 43
0.0000000001
 12
1.0
 22
0.0
 32
0.0
 13
1.0
 23
0.0
 33
0.0
 40
0.0
 40
0.0
 40
0.0
 40
0.0
 40
0.1666666666666667
 40
0.1666666666666667
 40
0.1666666666666667
 40
0.1666666666666667
 40
0.3333333333333333
 40
0.3333333333333333
 40
0.3333333333333333
 40
0.3333333333333333
 40
0.5
 40
0.5
 40
0.5
 40
0.5
 40
0.6666666666666666
 40
0.6666666666666666
 40
0.6666666666666666
 40
0.6666666666666666
 40
1.0
 40
1.0
 40
1.0
 40
1.0
 10
-29.4857
 20
69.9778
 30
0.0
 10
-29.4857
 20
69.9778
 30
0.0
 10
-21.4983
 20
69.9778
 30
0.0
 10
-21.4983
 20
69.9778
 30
0.0
 10
-21.4983
 20
69.9778
 30
0.0
 10
-21.4983
 20
69.9778
 30
0.0
 10
-21.4983
 20
58.1412
 30
0.0
 10
-21.4983
 20
58.1412
 30
0.0
 10
-21.4983
 20
58.1412
 30
0.0
 10
-21.4983
 20
58.1412
 30
0.0
 10
-31.2178
 20
58.1412
 30
0.0
 10
-31.2178
 20
58.1412
 30
0.0
 10
-31.2178
 20
58.1412
 30
0.0
 10
-29.7743
 20
60.4509
 30
0.0
 10
-29.0045
 20
63.2414
 30
0.0
 10
-29.0045
 20
66.1283
 30
0.0
 10
-29.0045
 20
66.1283
 30
0.0
 10
-29.0045
 20
67.4755
 30
0.0
 10
-29.1008
 20
68.8228
 30
0.0
 10
-29.4857
 20
69.9778
 30
0.0
  0
SPLINE
  5
66
330
1F
100
AcDbEntity
  8
layer 1
 62
     7
100
AcDbSpline
210
0.0
220
0.0
230
1.0
 70
    11
 71
     3
 72
    20
 73
    16
 74
     0
 42
0.0000000001
 43
0.0000000001
 12
1.0
 22
0.0
 32
0.0
 13
1.0
 23
0.0
 33
0.0
 40
0.0
 40
0.0
 40
0.0
 40
0.0
 40
0.2
 40
0.2
 40
0.2
 40
0.2
 40
0.4
 40
0.4
 40
0.4
 40
0.4
 40
0.6
 40
0.6
 40
0.6
 40
0.6
 40
1.0
 40
1.0
 40
1.0
 40
1.0
 10
-44.4976
 20
77.9648
 30
0.0
 10
-37.9539
 20
77.9648
 30
0.0
 10
-32.6614
 20
72.672
 30
0.0
 10
-32.6614
 20
66.1283
 30
0.0
 10
-32.6614
 20
66.1283
 30
0.0
 10
-32.6614
 20
59.5848
 30
0.0
 10
-37.9539
 20
54.292
 30
0.0
 10
-44.4976
 20
54.292
 30
0.0
 10
-44.4976
 20
54.292
 30
0.0
 10
-51.0414
 20
54.292
 30
0.0
 10
-56.3342
 20
59.5848
 30
0.0
 10
-56.3342
 20
66.1283
 30
0.0
 10
-56.3342
 20
66.1283
 30
0.0
 10
-56.3342
 20
72.672
 30
0.0
 10
-51.0414
 20
77.9648
 30
0.0
 10
-44.4976
 20
77.9648
 30
0.0
  0
SPLINE
  5
67
330
1F
100
AcDbEntity
  8
layer 1
 62
     7
100
AcDbSpline
210
0.0
220
0.0
230
1.0
 70
    11
 71
     3
 72
    20
 73
    16
 74
     0
 42
0.0000000001
 43
0.0000000001
 12
1.0
 22
0.0
 32
0.0
 13
1.0
 23
0.0
 33
0.0
 40
0.0
 40
0.0
 40
0.0
 40
0.0
 40
0.2
 40
0.2
 40
0.2
 40
0.2
 40
0.4
 40
0.4
 40
0.4
 40
0.4
 40
0.6
 40
0.6
 40
0.6
 40
0.6
 40
1.0
 40
1.0
 40
1.0
 40
1.0
 10
-74.8105
 20
69.9778
 30
0.0
 10
-74.8105
 20
69.9778
 30
0.0
 10
-70.8151
 20
69.9778
 30
0.0
 10
-70.8151
 20
69.9778
 30
0.0
 10
-70.8151
 20
69.9778
 30
0.0
 10
-70.8151
 20
69.9778
 30
0.0
 10
-70.8151
 20
58.0929
 30
0.0
 10
-70.8151
 20
58.0929
 30
0.0
 10
-70.8151
 20
58.0929
 30
0.0
 10
-70.8151
 20
58.0929
 30
0.0
 10
-74.8105
 20
58.0929
 30
0.0
 10
-74.8105
 20
58.0929
 30
0.0
 10
-74.8105
 20
58.0929
 30
0.0
 10
-74.8105
 20
58.0929
 30
0.0
 10
-74.8105
 20
69.9778
 30
0.0
 10
-74.8105
 20
69.9778
 30
0.0
  0
SPLINE
  5
68
330
1F
100
AcDbEntity
  8
layer 1
 62
     7
100
AcDbSpline
210
0.0
220
0.0
230
1.0
 70
    11
 71
     3
 72
    20
 73
    16
 74
     0
 42
0.0000000001
 43
0.0000000001
 12
1.0
 22
0.0
 32
0.0
 13
1.0
 23
0.0
 33
0.0
 40
0.0
 40
0.0
 40
0.0
 40
0.0
 40
0.2
 40
0.2
 40
0.2
 40
0.2
 40
0.4
 40
0.4
 40
0.4
 40
0.4
 40
0.6
 40
0.6
 40
0.6
 40
0.6
 40
1.0
 40
1.0
 40
1.0
 40
1.0
 10
-100.1195
 20
69.9778
 30
0.0
 10
-100.1195
 20
69.9778
 30
0.0
 10
-95.8919
 20
69.9778
 30
0.0
 10
-95.8919
 20
69.9778
 30
0.0
 10
-95.8919
 20
69.9778
 30
0.0
 10
-95.8919
 20
69.9778
 30
0.0
 10
-95.8919
 20
58.0929
 30
0.0
 10
-95.8919
 20
58.0929
 30
0.0
 10
-95.8919
 20
58.0929
 30
0.0
 10
-95.8919
 20
58.0929
 30
0.0
 10
-100.1195
 20
58.0929
 30
0.0
 10
-100.1195
 20
58.0929
 30
0.0
 10
-100.1195
 20
58.0929
 30
0.0
 10
-100.1195
 20
58.0929
 30
0.0
 10
-100.1195
 20
69.9778
 30
0.0
 10
-100.1195
 20
69.9778
 30
0.0
  0
SPLINE
  5
69
330
1F
100
AcDbEntity
  8
layer 1
 62
     7
100
AcDbSpline
210
0.0
220
0.0
230
1.0
 70
    11
 71
     3
 72
    28
 73
    24
 74
     0
 42
0.0000000001
 43
0.0000000001
 12
1.0
 22
0.0
 32
0.0
 13
1.0
 23
0.0
 33
0.0
 40
0.0
 40
0.0
 40
0.0
 40
0.0
 40
0.1428571428571428
 40
0.1428571428571428
 40
0.1428571428571428
 40
0.1428571428571428
 40
0.2857142857142857
 40
0.2857142857142857
 40
0.2857142857142857
 40
0.2857142857142857
 40
0.4285714285714285
 40
0.4285714285714285
 40
0.4285714285714285
 40
0.4285714285714285
 40
0.5714285714285714
 40
0.5714285714285714
 40
0.5714285714285714
 40
0.5714285714285714
 40
0.7142857142857143
 40
0.7142857142857143
 40
0.7142857142857143
 40
0.7142857142857143
 40
1.0
 40
1.0
 40
1.0
 40
1.0
 10
-100.1195
 20
54.4843
 30
0.0
 10
-100.1195
 20
54.4843
 30
0.0
 10
-95.8854
 20
54.4843
 30
0.0
 10
-95.8854
 20
54.4843
 30
0.0
 10
-95.8854
 20
54.4843
 30
0.0
 10
-95.8854
 20
54.4843
 30
0.0
 10
-95.8854
 20
44.9574
 30
0.0
 10
-95.8854
 20
44.9574
 30
0.0
 10
-95.8854
 20
44.9574
 30
0.0
 10
-95.8854
 20
44.9574
 30
0.0
 10
-87.3206
 20
44.9574
 30
0.0
 10
-87.3206
 20
44.9574
 30
0.0
 10
-87.3206
 20
44.9574
 30
0.0
 10
-87.3206
 20
44.9574
 30
0.0
 10
-87.3206
 20
34.3721
 30
0.0
 10
-87.3206
 20
34.3721
 30
0.0
 10
-87.3206
 20
34.3721
 30
0.0
 10
-87.3206
 20
34.3721
 30
0.0
 10
-100.1195
 20
34.3721
 30
0.0
 10
-100.1195
 20
34.3721
 30
0.0
 10
-100.1195
 20
34.3721
 30
0.0
 10
-100.1195
 20
34.3721
 30
0.0
 10
-100.1195
 20
54.4843
 30
0.0
 10
-100.1195
 20
54.4843
 30
0.0
  0
SPLINE
  5
6A
330
1F
100
AcDbEntity
  8
layer 1
 62
     7
100
AcDbSpline
210
0.0
220
0.0
230
1.0
 70
    11
 71
     3
 72
    28
 73
    24
 74
     0
 42
0.0000000001
 43
0.0000000001
 12
1.0
 22
0.0
 32
0.0
 13
1.0
 23
0.0
 33
0.0
 40
0.0
 40
0.0
 40
0.0
 40
0.0
 40
0.1428571428571428
 40
0.1428571428571428
 40
0.1428571428571428
 40
0.1428571428571428
 40
0.2857142857142857
 40
0.2857142857142857
 40
0.2857142857142857
 40
0.2857142857142857
 40
0.4285714285714285
 40
0.4285714285714285
 40
0.4285714285714285
 40
0.4285714285714285
 40
0.5714285714285714
 40
0.5714285714285714
 40
0.5714285714285714
 40
0.5714285714285714
 40
0.7142857142857143
 40
0.7142857142857143
 40
0.7142857142857143
 40
0.7142857142857143
 40
1.0
 40
1.0
 40
1.0
 40
1.0
 10
-74.8105
 20
54.4843
 30
0.0
 10
-74.8105
 20
54.4843
 30
0.0
 10
-70.865
 20
54.4843
 30
0.0
 10
-70.865
 20
54.4843
 30
0.0
 10
-70.865
 20
54.4843
 30
0.0
 10
-70.865
 20
54.4843
 30
0.0
 10
-70.865
 20
34.3721
 30
0.0
 10
-70.865
 20
34.3721
 30
0.0
 10
-70.865
 20
34.3721
 30
0.0
 10
-70.865
 20
34.3721
 30
0.0
 10
-83.6639
 20
34.3721
 30
0.0
 10
-83.6639
 20
34.3721
 30
0.0
 10
-83.6639
 20
34.3721
 30
0.0
 10
-83.6639
 20
34.3721
 30
0.0
 10
-83.6639
 20
44.9574
 30
0.0
 10
-83.6639
 20
44.9574
 30
0.0
 10
-83.6639
 20
44.9574
 30
0.0
 10
-83.6639
 20
44.9574
 30
0.0
 10
-74.8105
 20
44.9574
 30
0.0
 10
-74.8105
 20
44.9574
 30
0.0
 10
-74.8105
 20
44.9574
 30
0.0
 10
-74.8105
 20
44.9574
 30
0.0
 10
-74.8105
 20
54.4843
 30
0.0
 10
-74.8105
 20
54.4843
 30
0.0
  0
SPLINE
  5
6B
330
1F
100
AcDbEntity
  8
layer 1
 62
     7
100
AcDbSpline
210
0.0
220
0.0
230
1.0
 70
    11
 71
     3
 72
    20
 73
    16
 74
     0
 42
0.0000000001
 43
0.0000000001
 12
1.0
 22
0.0
 32
0.0
 13
1.0
 23
0.0
 33
0.0
 40
0.0
 40
0.0
 40
0.0
 40
0.0
 40
0.2
 40
0.2
 40
0.2
 40
0.2
 40
0.4
 40
0.4
 40
0.4
 40
0.4
 40
0.6
 40
0.6
 40
0.6
 40
0.6
 40
1.0
 40
1.0
 40
1.0
 40
1.0
 10
-92.2284
 20
66.8983
 30
0.0
 10
-92.2284
 20
66.8983
 30
0.0
 10
-78.525
 20
66.8983
 30
0.0
 10
-78.525
 20
66.8983
 30
0.0
 10
-78.525
 20
66.8983
 30
0.0
 10
-78.525
 20
66.8983
 30
0.0
 10
-78.525
 20
48.6239
 30
0.0
 10
-78.525
 20
48.6239
 30
0.0
 10
-78.525
 20
48.6239
 30
0.0
 10
-78.525
 20
48.6239
 30
0.0
 10
-92.2284
 20
48.6239
 30
0.0
 10
-92.2284
 20
48.6239
 30
0.0
 10
-92.2284
 20
48.6239
 30
0.0
 10
-92.2284
 20
48.6239
 30
0.0
 10
-92.2284
 20
66.8983
 30
0.0
 10
-92.2284
 20
66.8983
 30
0.0
  0
SPLINE
  5
6C
330
1F
100
AcDbEntity
  8
layer 1
 62
     7
100
AcDbSpline
210
0.0
220
0.0
230
1.0
 70
    11
 71
     3
 72
    24
 73
    20
 74
     0
 42
0.0000000001
 43
0.0000000001
 12
1.0
 22
0.0
 32
0.0
 13
1.0
 23
0.0
 33
0.0
 40
0.0
 40
0.0
 40
0.0
 40
0.0
 40
0.1666666666666667
 40
0.1666666666666667
 40
0.1666666666666667
 40
0.1666666666666667
 40
0.3333333333333333
 40
0.3333333333333333
 40
0.3333333333333333
 40
0.3333333333333333
 40
0.5
 40
0.5
 40
0.5
 40
0.5
 40
0.6666666666666666
 40
0.6666666666666666
 40
0.6666666666666666
 40
0.6666666666666666
 40
1.0
 40
1.0
 40
1.0
 40
1.0
 10
-133.0306
 20
30.7152
 30
0.0
 10
-133.0306
 20
30.7152
 30
0.0
 10
-126.6791
 20
30.7152
 30
0.0
 10
-126.6791
 20
30.7152
 30
0.0
 10
-126.6791
 20
30.7152
 30
0.0
 10
-125.717
 20
27.6358
 30
0.0
 10
-123.3111
 20
25.2301
 30
0.0
 10
-120.2317
 20
24.1714
 30
0.0
 10
-120.2317
 20
24.1714
 30
0.0
 10
-120.2317
 20
24.1714
 30
0.0
 10
-120.2317
 20
21.5732
 30
0.0
 10
-120.2317
 20
21.5732
 30
0.0
 10
-120.2317
 20
21.5732
 30
0.0
 10
-120.2317
 20
21.5732
 30
0.0
 10
-133.0306
 20
21.5732
 30
0.0
 10
-133.0306
 20
21.5732
 30
0.0
 10
-133.0306
 20
21.5732
 30
0.0
 10
-133.0306
 20
21.5732
 30
0.0
 10
-133.0306
 20
30.7152
 30
0.0
 10
-133.0306
 20
30.7152
 30
0.0
  0
SPLINE
  5
6D
330
1F
100
AcDbEntity
  8
layer 1
 62
     7
100
AcDbSpline
210
0.0
220
0.0
230
1.0
 70
    11
 71
     3
 72
    16
 73
    12
 74
     0
 42
0.0000000001
 43
0.0000000001
 12
1.0
 22
0.0
 32
0.0
 13
1.0
 23
0.0
 33
0.0
 40
0.0
 40
0.0
 40
0.0
 40
0.0
 40
0.25
 40
0.25
 40
0.25
 40
0.25
 40
0.5
 40
0.5
 40
0.5
 40
0.5
 40
1.0
 40
1.0
 40
1.0
 40
1.0
 10
-136.5912
 20
25.9999
 30
0.0
 10
-136.5912
 20
25.9999
 30
0.0
 10
-136.5912
 20
21.5732
 30
0.0
 10
-136.5912
 20
21.5732
 30
0.0
 10
-136.5912
 20
21.5732
 30
0.0
 10
-136.5912
 20
21.5732
 30
0.0
 10
-142.6538
 20
21.5732
 30
0.0
 10
-142.6538
 20
21.5732
 30
0.0
 10
-142.6538
 20
21.5732
 30
0.0
 10
-140.3441
 20
22.5356
 30
0.0
 10
-138.2271
 20
24.0754
 30
0.0
 10
-136.5912
 20
25.9999
 30
0.0
  0
SPLINE
  5
6E
330
1F
100
AcDbEntity
  8
layer 1
 62
     7
100
AcDbSpline
210
0.0
220
0.0
230
1.0
 70
    11
 71
     3
 72
    20
 73
    16
 74
     0
 42
0.0000000001
 43
0.0000000001
 12
1.0
 22
0.0
 32
0.0
 13
1.0
 23
0.0
 33
0.0
 40
0.0
 40
0.0
 40
0.0
 40
0.0
 40
0.2
 40
0.2
 40
0.2
 40
0.2
 40
0.4
 40
0.4
 40
0.4
 40
0.4
 40
0.6
 40
0.6
 40
0.6
 40
0.6
 40
1.0
 40
1.0
 40
1.0
 40
1.0
 10
-165.8743
 20
30.7152
 30
0.0
 10
-165.8743
 20
30.7152
 30
0.0
 10
-163.1029
 20
30.7152
 30
0.0
 10
-163.1029
 20
30.7152
 30
0.0
 10
-163.1029
 20
30.7152
 30
0.0
 10
-161.6208
 20
26.5774
 30
0.0
 10
-158.426
 20
23.2093
 30
0.0
 10
-154.3938
 20
21.5732
 30
0.0
 10
-154.3938
 20
21.5732
 30
0.0
 10
-154.3938
 20
21.5732
 30
0.0
 10
-165.8743
 20
21.5732
 30
0.0
 10
-165.8743
 20
21.5732
 30
0.0
 10
-165.8743
 20
21.5732
 30
0.0
 10
-165.8743
 20
21.5732
 30
0.0
 10
-165.8743
 20
30.7152
 30
0.0
 10
-165.8743
 20
30.7152
 30
0.0
  0
SPLINE
  5
6F
330
1F
100
AcDbEntity
  8
layer 1
 62
     7
100
AcDbSpline
210
0.0
220
0.0
230
1.0
 70
    11
 71
     3
 72
    28
 73
    24
 74
     0
 42
0.0000000001
 43
0.0000000001
 12
1.0
 22
0.0
 32
0.0
 13
1.0
 23
0.0
 33
0.0
 40
0.0
 40
0.0
 40
0.0
 40
0.0
 40
0.1428571428571428
 40
0.1428571428571428
 40
0.1428571428571428
 40
0.1428571428571428
 40
0.2857142857142857
 40
0.2857142857142857
 40
0.2857142857142857
 40
0.2857142857142857
 40
0.4285714285714285
 40
0.4285714285714285
 40
0.4285714285714285
 40
0.4285714285714285
 40
0.5714285714285714
 40
0.5714285714285714
 40
0.5714285714285714
 40
0.5714285714285714
 40
0.7142857142857143
 40
0.7142857142857143
 40
0.7142857142857143
 40
0.7142857142857143
 40
1.0
 40
1.0
 40
1.0
 40
1.0
 10
-165.8743
 20
54.4843
 30
0.0
 10
-165.8743
 20
54.4843
 30
0.0
 10
-153.0468
 20
54.4843
 30
0.0
 10
-153.0468
 20
54.4843
 30
0.0
 10
-153.0468
 20
54.4843
 30
0.0
 10
-153.0468
 20
54.4843
 30
0.0
 10
-153.0468
 20
50.7314
 30
0.0
 10
-153.0468
 20
50.7314
 30
0.0
 10
-153.0468
 20
50.7314
 30
0.0
 10
-159.4075
 20
48.8066
 30
0.0
 10
-164.0074
 20
42.9366
 30
0.0
 10
-164.0074
 20
35.9117
 30
0.0
 10
-164.0074
 20
35.9117
 30
0.0
 10
-164.0074
 20
35.4305
 30
0.0
 10
-163.9785
 20
34.8533
 30
0.0
 10
-163.9305
 20
34.3721
 30
0.0
 10
-163.9305
 20
34.3721
 30
0.0
 10
-163.9305
 20
34.3721
 30
0.0
 10
-165.8743
 20
34.3721
 30
0.0
 10
-165.8743
 20
34.3721
 30
0.0
 10
-165.8743
 20
34.3721
 30
0.0
 10
-165.8743
 20
34.3721
 30
0.0
 10
-165.8743
 20
54.4843
 30
0.0
 10
-165.8743
 20
54.4843
 30
0.0
  0
SPLINE
  5
70
330
1F
100
AcDbEntity
  8
layer 1
 62
     7
100
AcDbSpline
210
0.0
220
0.0
230
1.0
 70
    11
 71
     3
 72
    24
 73
    20
 74
     0
 42
0.0000000001
 43
0.0000000001
 12
1.0
 22
0.0
 32
0.0
 13
1.0
 23
0.0
 33
0.0
 40
0.0
 40
0.0
 40
0.0
 40
0.0
 40
0.1666666666666667
 40
0.1666666666666667
 40
0.1666666666666667
 40
0.1666666666666667
 40
0.3333333333333333
 40
0.3333333333333333
 40
0.3333333333333333
 40
0.3333333333333333
 40
0.5
 40
0.5
 40
0.5
 40
0.5
 40
0.6666666666666666
 40
0.6666666666666666
 40
0.6666666666666666
 40
0.6666666666666666
 40
1.0
 40
1.0
 40
1.0
 40
1.0
 10
-149.3898
 20
54.4843
 30
0.0
 10
-149.3898
 20
54.4843
 30
0.0
 10
-136.5912
 20
54.4843
 30
0.0
 10
-136.5912
 20
54.4843
 30
0.0
 10
-136.5912
 20
54.4843
 30
0.0
 10
-136.5912
 20
54.4843
 30
0.0
 10
-136.5912
 20
45.9198
 30
0.0
 10
-136.5912
 20
45.9198
 30
0.0
 10
-136.5912
 20
45.9198
 30
0.0
 10
-139.4781
 20
49.2878
 30
0.0
 10
-143.7122
 20
51.5012
 30
0.0
 10
-148.5238
 20
51.5012
 30
0.0
 10
-148.5238
 20
51.5012
 30
0.0
 10
-148.8124
 20
51.5012
 30
0.0
 10
-149.1012
 20
51.4049
 30
0.0
 10
-149.3898
 20
51.4049
 30
0.0
 10
-149.3898
 20
51.4049
 30
0.0
 10
-149.3898
 20
51.4049
 30
0.0
 10
-149.3898
 20
54.4843
 30
0.0
 10
-149.3898
 20
54.4843
 30
0.0
  0
SPLINE
  5
71
330
1F
100
AcDbEntity
  8
layer 1
 62
     7
100
AcDbSpline
210
0.0
220
0.0
230
1.0
 70
    11
 71
     3
 72
    28
 73
    24
 74
     0
 42
0.0000000001
 43
0.0000000001
 12
1.0
 22
0.0
 32
0.0
 13
1.0
 23
0.0
 33
0.0
 40
0.0
 40
0.0
 40
0.0
 40
0.0
 40
0.1428571428571428
 40
0.1428571428571428
 40
0.1428571428571428
 40
0.1428571428571428
 40
0.2857142857142857
 40
0.2857142857142857
 40
0.2857142857142857
 40
0.2857142857142857
 40
0.4285714285714285
 40
0.4285714285714285
 40
0.4285714285714285
 40
0.4285714285714285
 40
0.5714285714285714
 40
0.5714285714285714
 40
0.5714285714285714
 40
0.5714285714285714
 40
0.7142857142857143
 40
0.7142857142857143
 40
0.7142857142857143
 40
0.7142857142857143
 40
1.0
 40
1.0
 40
1.0
 40
1.0
 10
-132.0682
 20
54.4843
 30
0.0
 10
-132.0682
 20
54.4843
 30
0.0
 10
-120.2317
 20
54.4843
 30
0.0
 10
-120.2317
 20
54.4843
 30
0.0
 10
-120.2317
 20
54.4843
 30
0.0
 10
-120.2317
 20
54.4843
 30
0.0
 10
-120.2317
 20
43.3215
 30
0.0
 10
-120.2317
 20
43.3215
 30
0.0
 10
-120.2317
 20
43.3215
 30
0.0
 10
-124.0809
 20
42.0706
 30
0.0
 10
-126.8717
 20
38.6062
 30
0.0
 10
-127.1603
 20
34.3721
 30
0.0
 10
-127.1603
 20
34.3721
 30
0.0
 10
-127.1603
 20
34.3721
 30
0.0
 10
-133.0306
 20
34.3721
 30
0.0
 10
-133.0306
 20
34.3721
 30
0.0
 10
-133.0306
 20
34.3721
 30
0.0
 10
-133.0306
 20
34.3721
 30
0.0
 10
-133.0306
 20
54.1957
 30
0.0
 10
-133.0306
 20
54.1957
 30
0.0
 10
-133.0306
 20
54.1957
 30
0.0
 10
-132.6457
 20
54.292
 30
0.0
 10
-132.3568
 20
54.3883
 30
0.0
 10
-132.0682
 20
54.4843
 30
0.0
  0
SPLINE
  5
72
330
1F
100
AcDbEntity
  8
layer 1
 62
     7
100
AcDbSpline
210
0.0
220
0.0
230
1.0
 70
    11
 71
     3
 72
    20
 73
    16
 74
     0
 42
0.0000000001
 43
0.0000000001
 12
1.0
 22
0.0
 32
0.0
 13
1.0
 23
0.0
 33
0.0
 40
0.0
 40
0.0
 40
0.0
 40
0.0
 40
0.2
 40
0.2
 40
0.2
 40
0.2
 40
0.4
 40
0.4
 40
0.4
 40
0.4
 40
0.6
 40
0.6
 40
0.6
 40
0.6
 40
1.0
 40
1.0
 40
1.0
 40
1.0
 10
-148.5238
 20
47.8445
 30
0.0
 10
-141.98
 20
47.8445
 30
0.0
 10
-136.6872
 20
42.4555
 30
0.0
 10
-136.6872
 20
35.9117
 30
0.0
 10
-136.6872
 20
35.9117
 30
0.0
 10
-136.6872
 20
29.3679
 30
0.0
 10
-141.98
 20
24.0754
 30
0.0
 10
-148.5238
 20
24.0754
 30
0.0
 10
-148.5238
 20
24.0754
 30
0.0
 10
-155.0675
 20
24.0754
 30
0.0
 10
-160.3505
 20
29.3679
 30
0.0
 10
-160.3505
 20
35.9117
 30
0.0
 10
-160.3505
 20
35.9117
 30
0.0
 10
-160.3505
 20
42.4555
 30
0.0
 10
-155.0675
 20
47.8445
 30
0.0
 10
-148.5238
 20
47.8445
 30
0.0
  0
SPLINE
  5
73
330
1F
100
AcDbEntity
  8
layer 1
 62
     7
100
AcDbSpline
210
0.0
220
0.0
230
1.0
 70
    11
 71
     3
 72
    20
 73
    16
 74
     0
 42
0.0000000001
 43
0.0000000001
 12
1.0
 22
0.0
 32
0.0
 13
1.0
 23
0.0
 33
0.0
 40
0.0
 40
0.0
 40
0.0
 40
0.0
 40
0.2
 40
0.2
 40
0.2
 40
0.2
 40
0.4
 40
0.4
 40
0.4
 40
0.4
 40
0.6
 40
0.6
 40
0.6
 40
0.6
 40
1.0
 40
1.0
 40
1.0
 40
1.0
 10
-165.8743
 20
109.3363
 30
0.0
 10
-165.8743
 20
109.3363
 30
0.0
 10
-153.0852
 20
109.3363
 30
0.0
 10
-153.0852
 20
109.3363
 30
0.0
 10
-153.0852
 20
109.3363
 30
0.0
 10
-153.0852
 20
109.3363
 30
0.0
 10
-153.0852
 20
89.2432
 30
0.0
 10
-153.0852
 20
89.2432
 30
0.0
 10
-153.0852
 20
89.2432
 30
0.0
 10
-153.0852
 20
89.2432
 30
0.0
 10
-165.8743
 20
89.2432
 30
0.0
 10
-165.8743
 20
89.2432
 30
0.0
 10
-165.8743
 20
89.2432
 30
0.0
 10
-165.8743
 20
89.2432
 30
0.0
 10
-165.8743
 20
109.3363
 30
0.0
 10
-165.8743
 20
109.3363
 30
0.0
  0
SPLINE
  5
74
330
1F
100
AcDbEntity
  8
layer 1
 62
     7
100
AcDbSpline
210
0.0
220
0.0
230
1.0
 70
    11
 71
     3
 72
    20
 73
    16
 74
     0
 42
0.0000000001
 43
0.0000000001
 12
1.0
 22
0.0
 32
0.0
 13
1.0
 23
0.0
 33
0.0
 40
0.0
 40
0.0
 40
0.0
 40
0.0
 40
0.2
 40
0.2
 40
0.2
 40
0.2
 40
0.4
 40
0.4
 40
0.4
 40
0.4
 40
0.6
 40
0.6
 40
0.6
 40
0.6
 40
1.0
 40
1.0
 40
1.0
 40
1.0
 10
-165.8743
 20
126.658
 30
0.0
 10
-165.8743
 20
126.658
 30
0.0
 10
-153.0852
 20
126.658
 30
0.0
 10
-153.0852
 20
126.658
 30
0.0
 10
-153.0852
 20
126.658
 30
0.0
 10
-153.0852
 20
126.658
 30
0.0
 10
-153.0852
 20
112.9545
 30
0.0
 10
-153.0852
 20
112.9545
 30
0.0
 10
-153.0852
 20
112.9545
 30
0.0
 10
-153.0852
 20
112.9545
 30
0.0
 10
-165.8743
 20
112.9545
 30
0.0
 10
-165.8743
 20
112.9545
 30
0.0
 10
-165.8743
 20
112.9545
 30
0.0
 10
-165.8743
 20
112.9545
 30
0.0
 10
-165.8743
 20
126.658
 30
0.0
 10
-165.8743
 20
126.658
 30
0.0
  0
SPLINE
  5
75
330
1F
100
AcDbEntity
  8
layer 1
 62
     7
100
AcDbSpline
210
0.0
220
0.0
230
1.0
 70
    11
 71
     3
 72
    20
 73
    16
 74
     0
 42
0.0000000001
 43
0.0000000001
 12
1.0
 22
0.0
 32
0.0
 13
1.0
 23
0.0
 33
0.0
 40
0.0
 40
0.0
 40
0.0
 40
0.0
 40
0.2
 40
0.2
 40
0.2
 40
0.2
 40
0.4
 40
0.4
 40
0.4
 40
0.4
 40
0.6
 40
0.6
 40
0.6
 40
0.6
 40
1.0
 40
1.0
 40
1.0
 40
1.0
 10
-149.3898
 20
109.3363
 30
0.0
 10
-149.3898
 20
109.3363
 30
0.0
 10
-136.6008
 20
109.3363
 30
0.0
 10
-136.6008
 20
109.3363
 30
0.0
 10
-136.6008
 20
109.3363
 30
0.0
 10
-136.6008
 20
109.3363
 30
0.0
 10
-136.6008
 20
89.2432
 30
0.0
 10
-136.6008
 20
89.2432
 30
0.0
 10
-136.6008
 20
89.2432
 30
0.0
 10
-136.6008
 20
89.2432
 30
0.0
 10
-149.3898
 20
89.2432
 30
0.0
 10
-149.3898
 20
89.2432
 30
0.0
 10
-149.3898
 20
89.2432
 30
0.0
 10
-149.3898
 20
89.2432
 30
0.0
 10
-149.3898
 20
109.3363
 30
0.0
 10
-149.3898
 20
109.3363
 30
0.0
  0
SPLINE
  5
76
330
1F
100
AcDbEntity
  8
layer 1
 62
     7
100
AcDbSpline
210
0.0
220
0.0
230
1.0
 70
    11
 71
     3
 72
    20
 73
    16
 74
     0
 42
0.0000000001
 43
0.0000000001
 12
1.0
 22
0.0
 32
0.0
 13
1.0
 23
0.0
 33
0.0
 40
0.0
 40
0.0
 40
0.0
 40
0.0
 40
0.2
 40
0.2
 40
0.2
 40
0.2
 40
0.4
 40
0.4
 40
0.4
 40
0.4
 40
0.6
 40
0.6
 40
0.6
 40
0.6
 40
1.0
 40
1.0
 40
1.0
 40
1.0
 10
-133.0306
 20
109.3363
 30
0.0
 10
-133.0306
 20
109.3363
 30
0.0
 10
-120.2415
 20
109.3363
 30
0.0
 10
-120.2415
 20
109.3363
 30
0.0
 10
-120.2415
 20
109.3363
 30
0.0
 10
-120.2415
 20
109.3363
 30
0.0
 10
-120.2415
 20
89.2432
 30
0.0
 10
-120.2415
 20
89.2432
 30
0.0
 10
-120.2415
 20
89.2432
 30
0.0
 10
-120.2415
 20
89.2432
 30
0.0
 10
-133.0306
 20
89.2432
 30
0.0
 10
-133.0306
 20
89.2432
 30
0.0
 10
-133.0306
 20
89.2432
 30
0.0
 10
-133.0306
 20
89.2432
 30
0.0
 10
-133.0306
 20
109.3363
 30
0.0
 10
-133.0306
 20
109.3363
 30
0.0
  0
SPLINE
  5
77
330
1F
100
AcDbEntity
  8
layer 1
 62
     7
100
AcDbSpline
210
0.0
220
0.0
230
1.0
 70
    11
 71
     3
 72
    20
 73
    16
 74
     0
 42
0.0000000001
 43
0.0000000001
 12
1.0
 22
0.0
 32
0.0
 13
1.0
 23
0.0
 33
0.0
 40
0.0
 40
0.0
 40
0.0
 40
0.0
 40
0.2
 40
0.2
 40
0.2
 40
0.2
 40
0.4
 40
0.4
 40
0.4
 40
0.4
 40
0.6
 40
0.6
 40
0.6
 40
0.6
 40
1.0
 40
1.0
 40
1.0
 40
1.0
 10
-116.575
 20
126.658
 30
0.0
 10
-116.575
 20
126.658
 30
0.0
 10
-103.7859
 20
126.658
 30
0.0
 10
-103.7859
 20
126.658
 30
0.0
 10
-103.7859
 20
126.658
 30
0.0
 10
-103.7859
 20
126.658
 30
0.0
 10
-103.7859
 20
112.9545
 30
0.0
 10
-103.7859
 20
112.9545
 30
0.0
 10
-103.7859
 20
112.9545
 30
0.0
 10
-103.7859
 20
112.9545
 30
0.0
 10
-116.575
 20
112.9545
 30
0.0
 10
-116.575
 20
112.9545
 30
0.0
 10
-116.575
 20
112.9545
 30
0.0
 10
-116.575
 20
112.9545
 30
0.0
 10
-116.575
 20
126.658
 30
0.0
 10
-116.575
 20
126.658
 30
0.0
  0
SPLINE
  5
78
330
1F
100
AcDbEntity
  8
layer 1
 62
     7
100
AcDbSpline
210
0.0
220
0.0
230
1.0
 70
    11
 71
     3
 72
    20
 73
    16
 74
     0
 42
0.0000000001
 43
0.0000000001
 12
1.0
 22
0.0
 32
0.0
 13
1.0
 23
0.0
 33
0.0
 40
0.0
 40
0.0
 40
0.0
 40
0.0
 40
0.2
 40
0.2
 40
0.2
 40
0.2
 40
0.4
 40
0.4
 40
0.4
 40
0.4
 40
0.6
 40
0.6
 40
0.6
 40
0.6
 40
1.0
 40
1.0
 40
1.0
 40
1.0
 10
-116.575
 20
109.3363
 30
0.0
 10
-116.575
 20
109.3363
 30
0.0
 10
-103.7859
 20
109.3363
 30
0.0
 10
-103.7859
 20
109.3363
 30
0.0
 10
-103.7859
 20
109.3363
 30
0.0
 10
-103.7859
 20
109.3363
 30
0.0
 10
-103.7859
 20
89.2432
 30
0.0
 10
-103.7859
 20
89.2432
 30
0.0
 10
-103.7859
 20
89.2432
 30
0.0
 10
-103.7859
 20
89.2432
 30
0.0
 10
-116.575
 20
89.2432
 30
0.0
 10
-116.575
 20
89.2432
 30
0.0
 10
-116.575
 20
89.2432
 30
0.0
 10
-116.575
 20
89.2432
 30
0.0
 10
-116.575
 20
109.3363
 30
0.0
 10
-116.575
 20
109.3363
 30
0.0
  0
SPLINE
  5
79
330
1F
100
AcDbEntity
  8
layer 1
 62
     7
100
AcDbSpline
210
0.0
220
0.0
230
1.0
 70
    11
 71
     3
 72
    20
 73
    16
 74
     0
 42
0.0000000001
 43
0.0000000001
 12
1.0
 22
0.0
 32
0.0
 13
1.0
 23
0.0
 33
0.0
 40
0.0
 40
0.0
 40
0.0
 40
0.0
 40
0.2
 40
0.2
 40
0.2
 40
0.2
 40
0.4
 40
0.4
 40
0.4
 40
0.4
 40
0.6
 40
0.6
 40
0.6
 40
0.6
 40
1.0
 40
1.0
 40
1.0
 40
1.0
 10
-100.1195
 20
109.3363
 30
0.0
 10
-100.1195
 20
109.3363
 30
0.0
 10
-87.3304
 20
109.3363
 30
0.0
 10
-87.3304
 20
109.3363
 30
0.0
 10
-87.3304
 20
109.3363
 30
0.0
 10
-87.3304
 20
109.3363
 30
0.0
 10
-87.3304
 20
89.2432
 30
0.0
 10
-87.3304
 20
89.2432
 30
0.0
 10
-87.3304
 20
89.2432
 30
0.0
 10
-87.3304
 20
89.2432
 30
0.0
 10
-100.1195
 20
89.2432
 30
0.0
 10
-100.1195
 20
89.2432
 30
0.0
 10
-100.1195
 20
89.2432
 30
0.0
 10
-100.1195
 20
89.2432
 30
0.0
 10
-100.1195
 20
109.3363
 30
0.0
 10
-100.1195
 20
109.3363
 30
0.0
  0
SPLINE
  5
7A
330
1F
100
AcDbEntity
  8
layer 1
 62
     7
100
AcDbSpline
210
0.0
220
0.0
230
1.0
 70
    11
 71
     3
 72
    20
 73
    16
 74
     0
 42
0.0000000001
 43
0.0000000001
 12
1.0
 22
0.0
 32
0.0
 13
1.0
 23
0.0
 33
0.0
 40
0.0
 40
0.0
 40
0.0
 40
0.0
 40
0.2
 40
0.2
 40
0.2
 40
0.2
 40
0.4
 40
0.4
 40
0.4
 40
0.4
 40
0.6
 40
0.6
 40
0.6
 40
0.6
 40
1.0
 40
1.0
 40
1.0
 40
1.0
 10
-100.1195
 20
126.658
 30
0.0
 10
-100.1195
 20
126.658
 30
0.0
 10
-87.3304
 20
126.658
 30
0.0
 10
-87.3304
 20
126.658
 30
0.0
 10
-87.3304
 20
126.658
 30
0.0
 10
-87.3304
 20
126.658
 30
0.0
 10
-87.3304
 20
112.9545
 30
0.0
 10
-87.3304
 20
112.9545
 30
0.0
 10
-87.3304
 20
112.9545
 30
0.0
 10
-87.3304
 20
112.9545
 30
0.0
 10
-100.1195
 20
112.9545
 30
0.0
 10
-100.1195
 20
112.9545
 30
0.0
 10
-100.1195
 20
112.9545
 30
0.0
 10
-100.1195
 20
112.9545
 30
0.0
 10
-100.1195
 20
126.658
 30
0.0
 10
-100.1195
 20
126.658
 30
0.0
  0
SPLINE
  5
7B
330
1F
100
AcDbEntity
  8
layer 1
 62
     7
100
AcDbSpline
210
0.0
220
0.0
230
1.0
 70
    11
 71
     3
 72
    20
 73
    16
 74
     0
 42
0.0000000001
 43
0.0000000001
 12
1.0
 22
0.0
 32
0.0
 13
1.0
 23
0.0
 33
0.0
 40
0.0
 40
0.0
 40
0.0
 40
0.0
 40
0.2
 40
0.2
 40
0.2
 40
0.2
 40
0.4
 40
0.4
 40
0.4
 40
0.4
 40
0.6
 40
0.6
 40
0.6
 40
0.6
 40
1.0
 40
1.0
 40
1.0
 40
1.0
 10
-83.6639
 20
126.658
 30
0.0
 10
-83.6639
 20
126.658
 30
0.0
 10
-70.8748
 20
126.658
 30
0.0
 10
-70.8748
 20
126.658
 30
0.0
 10
-70.8748
 20
126.658
 30
0.0
 10
-70.8748
 20
126.658
 30
0.0
 10
-70.8748
 20
112.9545
 30
0.0
 10
-70.8748
 20
112.9545
 30
0.0
 10
-70.8748
 20
112.9545
 30
0.0
 10
-70.8748
 20
112.9545
 30
0.0
 10
-83.6639
 20
112.9545
 30
0.0
 10
-83.6639
 20
112.9545
 30
0.0
 10
-83.6639
 20
112.9545
 30
0.0
 10
-83.6639
 20
112.9545
 30
0.0
 10
-83.6639
 20
126.658
 30
0.0
 10
-83.6639
 20
126.658
 30
0.0
  0
SPLINE
  5
7C
330
1F
100
AcDbEntity
  8
layer 1
 62
     7
100
AcDbSpline
210
0.0
220
0.0
230
1.0
 70
    11
 71
     3
 72
    20
 73
    16
 74
     0
 42
0.0000000001
 43
0.0000000001
 12
1.0
 22
0.0
 32
0.0
 13
1.0
 23
0.0
 33
0.0
 40
0.0
 40
0.0
 40
0.0
 40
0.0
 40
0.2
 40
0.2
 40
0.2
 40
0.2
 40
0.4
 40
0.4
 40
0.4
 40
0.4
 40
0.6
 40
0.6
 40
0.6
 40
0.6
 40
1.0
 40
1.0
 40
1.0
 40
1.0
 10
-83.6639
 20
109.3363
 30
0.0
 10
-83.6639
 20
109.3363
 30
0.0
 10
-70.8748
 20
109.3363
 30
0.0
 10
-70.8748
 20
109.3363
 30
0.0
 10
-70.8748
 20
109.3363
 30
0.0
 10
-70.8748
 20
109.3363
 30
0.0
 10
-70.8748
 20
89.2432
 30
0.0
 10
-70.8748
 20
89.2432
 30
0.0
 10
-70.8748
 20
89.2432
 30
0.0
 10
-70.8748
 20
89.2432
 30
0.0
 10
-83.6639
 20
89.2432
 30
0.0
 10
-83.6639
 20
89.2432
 30
0.0
 10
-83.6639
 20
89.2432
 30
0.0
 10
-83.6639
 20
89.2432
 30
0.0
 10
-83.6639
 20
109.3363
 30
0.0
 10
-83.6639
 20
109.3363
 30
0.0
  0
SPLINE
  5
7D
330
1F
100
AcDbEntity
  8
layer 1
 62
     7
100
AcDbSpline
210
0.0
220
0.0
230
1.0
 70
    11
 71
     3
 72
    32
 73
    28
 74
     0
 42
0.0000000001
 43
0.0000000001
 12
1.0
 22
0.0
 32
0.0
 13
1.0
 23
0.0
 33
0.0
 40
0.0
 40
0.0
 40
0.0
 40
0.0
 40
0.125
 40
0.125
 40
0.125
 40
0.125
 40
0.25
 40
0.25
 40
0.25
 40
0.25
 40
0.375
 40
0.375
 40
0.375
 40
0.375
 40
0.5
 40
0.5
 40
0.5
 40
0.5
 40
0.625
 40
0.625
 40
0.625
 40
0.625
 40
0.75
 40
0.75
 40
0.75
 40
0.75
 40
1.0
 40
1.0
 40
1.0
 40
1.0
 10
-34.2973
 20
109.3363
 30
0.0
 10
-34.2973
 20
109.3363
 30
0.0
 10
-31.3141
 20
109.3363
 30
0.0
 10
-31.3141
 20
109.3363
 30
0.0
 10
-31.3141
 20
109.3363
 30
0.0
 10
-31.6027
 20
108.374
 30
0.0
 10
-31.7953
 20
107.5079
 30
0.0
 10
-31.7953
 20
106.4492
 30
0.0
 10
-31.7953
 20
106.4492
 30
0.0
 10
-31.7953
 20
100.9641
 30
0.0
 10
-27.2723
 20
96.4411
 30
0.0
 10
-21.6909
 20
96.4411
 30
0.0
 10
-21.6909
 20
96.4411
 30
0.0
 10
-21.5946
 20
96.4411
 30
0.0
 10
-21.5946
 20
96.4411
 30
0.0
 10
-21.4983
 20
96.4411
 30
0.0
 10
-21.4983
 20
96.4411
 30
0.0
 10
-21.4983
 20
96.4411
 30
0.0
 10
-21.4983
 20
89.2239
 30
0.0
 10
-21.4983
 20
89.2239
 30
0.0
 10
-21.4983
 20
89.2239
 30
0.0
 10
-21.4983
 20
89.2239
 30
0.0
 10
-34.2973
 20
89.2239
 30
0.0
 10
-34.2973
 20
89.2239
 30
0.0
 10
-34.2973
 20
89.2239
 30
0.0
 10
-34.2973
 20
89.2239
 30
0.0
 10
-34.2973
 20
109.3363
 30
0.0
 10
-34.2973
 20
109.3363
 30
0.0
  0
SPLINE
  5
7E
330
1F
100
AcDbEntity
  8
layer 1
 62
     7
100
AcDbSpline
210
0.0
220
0.0
230
1.0
 70
    11
 71
     3
 72
    28
 73
    24
 74
     0
 42
0.0000000001
 43
0.0000000001
 12
1.0
 22
0.0
 32
0.0
 13
1.0
 23
0.0
 33
0.0
 40
0.0
 40
0.0
 40
0.0
 40
0.0
 40
0.1428571428571428
 40
0.1428571428571428
 40
0.1428571428571428
 40
0.1428571428571428
 40
0.2857142857142857
 40
0.2857142857142857
 40
0.2857142857142857
 40
0.2857142857142857
 40
0.4285714285714285
 40
0.4285714285714285
 40
0.4285714285714285
 40
0.4285714285714285
 40
0.5714285714285714
 40
0.5714285714285714
 40
0.5714285714285714
 40
0.5714285714285714
 40
0.7142857142857143
 40
0.7142857142857143
 40
0.7142857142857143
 40
0.7142857142857143
 40
1.0
 40
1.0
 40
1.0
 40
1.0
 10
-34.2973
 20
126.658
 30
0.0
 10
-34.2973
 20
126.658
 30
0.0
 10
-21.4983
 20
126.658
 30
0.0
 10
-21.4983
 20
126.658
 30
0.0
 10
-21.4983
 20
126.658
 30
0.0
 10
-21.4983
 20
126.658
 30
0.0
 10
-21.4983
 20
116.5536
 30
0.0
 10
-21.4983
 20
116.5536
 30
0.0
 10
-21.4983
 20
116.5536
 30
0.0
 10
-21.5946
 20
116.5536
 30
0.0
 10
-21.5946
 20
116.5536
 30
0.0
 10
-21.6909
 20
116.5536
 30
0.0
 10
-21.6909
 20
116.5536
 30
0.0
 10
-24.7703
 20
116.5536
 30
0.0
 10
-27.5609
 20
115.11
 30
0.0
 10
-29.3894
 20
112.993
 30
0.0
 10
-29.3894
 20
112.993
 30
0.0
 10
-29.3894
 20
112.993
 30
0.0
 10
-34.2973
 20
112.993
 30
0.0
 10
-34.2973
 20
112.993
 30
0.0
 10
-34.2973
 20
112.993
 30
0.0
 10
-34.2973
 20
112.993
 30
0.0
 10
-34.2973
 20
126.658
 30
0.0
 10
-34.2973
 20
126.658
 30
0.0
  0
SPLINE
  5
7F
330
1F
100
AcDbEntity
  8
layer 1
 62
     7
100
AcDbSpline
210
0.0
220
0.0
230
1.0
 70
    11
 71
     3
 72
    24
 73
    20
 74
     0
 42
0.0000000001
 43
0.0000000001
 12
1.0
 22
0.0
 32
0.0
 13
1.0
 23
0.0
 33
0.0
 40
0.0
 40
0.0
 40
0.0
 40
0.0
 40
0.1666666666666667
 40
0.1666666666666667
 40
0.1666666666666667
 40
0.1666666666666667
 40
0.3333333333333333
 40
0.3333333333333333
 40
0.3333333333333333
 40
0.3333333333333333
 40
0.5
 40
0.5
 40
0.5
 40
0.5
 40
0.6666666666666666
 40
0.6666666666666666
 40
0.6666666666666666
 40
0.6666666666666666
 40
1.0
 40
1.0
 40
1.0
 40
1.0
 10
-17.8417
 20
126.658
 30
0.0
 10
-17.8417
 20
126.658
 30
0.0
 10
-5.0428
 20
126.658
 30
0.0
 10
-5.0428
 20
126.658
 30
0.0
 10
-5.0428
 20
126.658
 30
0.0
 10
-5.0428
 20
126.658
 30
0.0
 10
-5.0428
 20
112.993
 30
0.0
 10
-5.0428
 20
112.993
 30
0.0
 10
-5.0428
 20
112.993
 30
0.0
 10
-5.0428
 20
112.993
 30
0.0
 10
-13.9925
 20
112.993
 30
0.0
 10
-13.9925
 20
112.993
 30
0.0
 10
-13.9925
 20
112.993
 30
0.0
 10
-15.0509
 20
114.1479
 30
0.0
 10
-16.3981
 20
115.2063
 30
0.0
 10
-17.8417
 20
115.7838
 30
0.0
 10
-17.8417
 20
115.7838
 30
0.0
 10
-17.8417
 20
115.7838
 30
0.0
 10
-17.8417
 20
126.658
 30
0.0
 10
-17.8417
 20
126.658
 30
0.0
  0
SPLINE
  5
80
330
1F
100
AcDbEntity
  8
layer 1
 62
     7
100
AcDbSpline
210
0.0
220
0.0
230
1.0
 70
    11
 71
     3
 72
    28
 73
    24
 74
     0
 42
0.0000000001
 43
0.0000000001
 12
1.0
 22
0.0
 32
0.0
 13
1.0
 23
0.0
 33
0.0
 40
0.0
 40
0.0
 40
0.0
 40
0.0
 40
0.1428571428571428
 40
0.1428571428571428
 40
0.1428571428571428
 40
0.1428571428571428
 40
0.2857142857142857
 40
0.2857142857142857
 40
0.2857142857142857
 40
0.2857142857142857
 40
0.4285714285714285
 40
0.4285714285714285
 40
0.4285714285714285
 40
0.4285714285714285
 40
0.5714285714285714
 40
0.5714285714285714
 40
0.5714285714285714
 40
0.5714285714285714
 40
0.7142857142857143
 40
0.7142857142857143
 40
0.7142857142857143
 40
0.7142857142857143
 40
1.0
 40
1.0
 40
1.0
 40
1.0
 10
-12.0677
 20
109.3363
 30
0.0
 10
-12.0677
 20
109.3363
 30
0.0
 10
-5.0428
 20
109.3363
 30
0.0
 10
-5.0428
 20
109.3363
 30
0.0
 10
-5.0428
 20
109.3363
 30
0.0
 10
-5.0428
 20
109.3363
 30
0.0
 10
-5.0428
 20
89.2239
 30
0.0
 10
-5.0428
 20
89.2239
 30
0.0
 10
-5.0428
 20
89.2239
 30
0.0
 10
-5.0428
 20
89.2239
 30
0.0
 10
-17.8417
 20
89.2239
 30
0.0
 10
-17.8417
 20
89.2239
 30
0.0
 10
-17.8417
 20
89.2239
 30
0.0
 10
-17.8417
 20
89.2239
 30
0.0
 10
-17.8417
 20
97.2112
 30
0.0
 10
-17.8417
 20
97.2112
 30
0.0
 10
-17.8417
 20
97.2112
 30
0.0
 10
-14.1848
 20
98.7508
 30
0.0
 10
-11.6828
 20
102.3114
 30
0.0
 10
-11.6828
 20
106.4492
 30
0.0
 10
-11.6828
 20
106.4492
 30
0.0
 10
-11.6828
 20
107.5079
 30
0.0
 10
-11.7791
 20
108.374
 30
0.0
 10
-12.0677
 20
109.3363
 30
0.0
  0
SPLINE
  5
81
330
1F
100
AcDbEntity
  8
layer 1
 62
     7
100
AcDbSpline
210
0.0
220
0.0
230
1.0
 70
    11
 71
     3
 72
    20
 73
    16
 74
     0
 42
0.0000000001
 43
0.0000000001
 12
1.0
 22
0.0
 32
0.0
 13
1.0
 23
0.0
 33
0.0
 40
0.0
 40
0.0
 40
0.0
 40
0.0
 40
0.2
 40
0.2
 40
0.2
 40
0.2
 40
0.4
 40
0.4
 40
0.4
 40
0.4
 40
0.6
 40
0.6
 40
0.6
 40
0.6
 40
1.0
 40
1.0
 40
1.0
 40
1.0
 10
-21.6909
 20
112.8967
 30
0.0
 10
-18.1303
 20
112.8967
 30
0.0
 10
-15.3397
 20
110.0098
 30
0.0
 10
-15.3397
 20
106.4492
 30
0.0
 10
-15.3397
 20
106.4492
 30
0.0
 10
-15.3397
 20
102.9849
 30
0.0
 10
-18.1303
 20
100.098
 30
0.0
 10
-21.6909
 20
100.098
 30
0.0
 10
-21.6909
 20
100.098
 30
0.0
 10
-25.2515
 20
100.098
 30
0.0
 10
-28.1384
 20
102.9849
 30
0.0
 10
-28.1384
 20
106.4492
 30
0.0
 10
-28.1384
 20
106.4492
 30
0.0
 10
-28.1384
 20
110.0098
 30
0.0
 10
-25.2515
 20
112.8967
 30
0.0
 10
-21.6909
 20
112.8967
 30
0.0
  0
SPLINE
  5
82
330
1F
100
AcDbEntity
  8
layer 1
 62
     7
100
AcDbSpline
210
0.0
220
0.0
230
1.0
 70
    11
 71
     3
 72
    28
 73
    24
 74
     0
 42
0.0000000001
 43
0.0000000001
 12
1.0
 22
0.0
 32
0.0
 13
1.0
 23
0.0
 33
0.0
 40
0.0
 40
0.0
 40
0.0
 40
0.0
 40
0.1428571428571428
 40
0.1428571428571428
 40
0.1428571428571428
 40
0.1428571428571428
 40
0.2857142857142857
 40
0.2857142857142857
 40
0.2857142857142857
 40
0.2857142857142857
 40
0.4285714285714285
 40
0.4285714285714285
 40
0.4285714285714285
 40
0.4285714285714285
 40
0.5714285714285714
 40
0.5714285714285714
 40
0.5714285714285714
 40
0.5714285714285714
 40
0.7142857142857143
 40
0.7142857142857143
 40
0.7142857142857143
 40
0.7142857142857143
 40
1.0
 40
1.0
 40
1.0
 40
1.0
 10
-67.2084
 20
126.658
 30
0.0
 10
-67.2084
 20
126.658
 30
0.0
 10
-54.4094
 20
126.658
 30
0.0
 10
-54.4094
 20
126.658
 30
0.0
 10
-54.4094
 20
126.658
 30
0.0
 10
-54.4094
 20
126.658
 30
0.0
 10
-54.4094
 20
121.9427
 30
0.0
 10
-54.4094
 20
121.9427
 30
0.0
 10
-54.4094
 20
121.9427
 30
0.0
 10
-54.4094
 20
121.9427
 30
0.0
 10
-64.6101
 20
121.9427
 30
0.0
 10
-64.6101
 20
121.9427
 30
0.0
 10
-64.6101
 20
121.9427
 30
0.0
 10
-64.6101
 20
121.9427
 30
0.0
 10
-64.6101
 20
112.993
 30
0.0
 10
-64.6101
 20
112.993
 30
0.0
 10
-64.6101
 20
112.993
 30
0.0
 10
-64.6101
 20
112.993
 30
0.0
 10
-67.2084
 20
112.993
 30
0.0
 10
-67.2084
 20
112.993
 30
0.0
 10
-67.2084
 20
112.993
 30
0.0
 10
-67.2084
 20
112.993
 30
0.0
 10
-67.2084
 20
126.658
 30
0.0
 10
-67.2084
 20
126.658
 30
0.0
  0
SPLINE
  5
83
330
1F
100
AcDbEntity
  8
layer 1
 62
     7
100
AcDbSpline
210
0.0
220
0.0
230
1.0
 70
    11
 71
     3
 72
    28
 73
    24
 74
     0
 42
0.0000000001
 43
0.0000000001
 12
1.0
 22
0.0
 32
0.0
 13
1.0
 23
0.0
 33
0.0
 40
0.0
 40
0.0
 40
0.0
 40
0.0
 40
0.1428571428571428
 40
0.1428571428571428
 40
0.1428571428571428
 40
0.1428571428571428
 40
0.2857142857142857
 40
0.2857142857142857
 40
0.2857142857142857
 40
0.2857142857142857
 40
0.4285714285714285
 40
0.4285714285714285
 40
0.4285714285714285
 40
0.4285714285714285
 40
0.5714285714285714
 40
0.5714285714285714
 40
0.5714285714285714
 40
0.5714285714285714
 40
0.7142857142857143
 40
0.7142857142857143
 40
0.7142857142857143
 40
0.7142857142857143
 40
1.0
 40
1.0
 40
1.0
 40
1.0
 10
-67.2084
 20
109.3363
 30
0.0
 10
-67.2084
 20
109.3363
 30
0.0
 10
-64.6101
 20
109.3363
 30
0.0
 10
-64.6101
 20
109.3363
 30
0.0
 10
-64.6101
 20
109.3363
 30
0.0
 10
-64.6101
 20
109.3363
 30
0.0
 10
-64.6101
 20
98.1733
 30
0.0
 10
-64.6101
 20
98.1733
 30
0.0
 10
-64.6101
 20
98.1733
 30
0.0
 10
-64.6101
 20
98.1733
 30
0.0
 10
-54.4094
 20
98.1733
 30
0.0
 10
-54.4094
 20
98.1733
 30
0.0
 10
-54.4094
 20
98.1733
 30
0.0
 10
-54.4094
 20
98.1733
 30
0.0
 10
-54.4094
 20
89.2239
 30
0.0
 10
-54.4094
 20
89.2239
 30
0.0
 10
-54.4094
 20
89.2239
 30
0.0
 10
-54.4094
 20
89.2239
 30
0.0
 10
-67.2084
 20
89.2239
 30
0.0
 10
-67.2084
 20
89.2239
 30
0.0
 10
-67.2084
 20
89.2239
 30
0.0
 10
-67.2084
 20
89.2239
 30
0.0
 10
-67.2084
 20
109.3363
 30
0.0
 10
-67.2084
 20
109.3363
 30
0.0
  0
SPLINE
  5
84
330
1F
100
AcDbEntity
  8
layer 1
 62
     7
100
AcDbSpline
210
0.0
220
0.0
230
1.0
 70
    11
 71
     3
 72
    28
 73
    24
 74
     0
 42
0.0000000001
 43
0.0000000001
 12
1.0
 22
0.0
 32
0.0
 13
1.0
 23
0.0
 33
0.0
 40
0.0
 40
0.0
 40
0.0
 40
0.0
 40
0.1428571428571428
 40
0.1428571428571428
 40
0.1428571428571428
 40
0.1428571428571428
 40
0.2857142857142857
 40
0.2857142857142857
 40
0.2857142857142857
 40
0.2857142857142857
 40
0.4285714285714285
 40
0.4285714285714285
 40
0.4285714285714285
 40
0.4285714285714285
 40
0.5714285714285714
 40
0.5714285714285714
 40
0.5714285714285714
 40
0.5714285714285714
 40
0.7142857142857143
 40
0.7142857142857143
 40
0.7142857142857143
 40
0.7142857142857143
 40
1.0
 40
1.0
 40
1.0
 40
1.0
 10
-40.841
 20
109.3363
 30
0.0
 10
-40.841
 20
109.3363
 30
0.0
 10
-37.9539
 20
109.3363
 30
0.0
 10
-37.9539
 20
109.3363
 30
0.0
 10
-37.9539
 20
109.3363
 30
0.0
 10
-37.9539
 20
109.3363
 30
0.0
 10
-37.9539
 20
89.2239
 30
0.0
 10
-37.9539
 20
89.2239
 30
0.0
 10
-37.9539
 20
89.2239
 30
0.0
 10
-37.9539
 20
89.2239
 30
0.0
 10
-50.7528
 20
89.2239
 30
0.0
 10
-50.7528
 20
89.2239
 30
0.0
 10
-50.7528
 20
89.2239
 30
0.0
 10
-50.7528
 20
89.2239
 30
0.0
 10
-50.7528
 20
98.1733
 30
0.0
 10
-50.7528
 20
98.1733
 30
0.0
 10
-50.7528
 20
98.1733
 30
0.0
 10
-50.7528
 20
98.1733
 30
0.0
 10
-40.841
 20
98.1733
 30
0.0
 10
-40.841
 20
98.1733
 30
0.0
 10
-40.841
 20
98.1733
 30
0.0
 10
-40.841
 20
98.1733
 30
0.0
 10
-40.841
 20
109.3363
 30
0.0
 10
-40.841
 20
109.3363
 30
0.0
  0
SPLINE
  5
85
330
1F
100
AcDbEntity
  8
layer 1
 62
     7
100
AcDbSpline
210
0.0
220
0.0
230
1.0
 70
    11
 71
     3
 72
    28
 73
    24
 74
     0
 42
0.0000000001
 43
0.0000000001
 12
1.0
 22
0.0
 32
0.0
 13
1.0
 23
0.0
 33
0.0
 40
0.0
 40
0.0
 40
0.0
 40
0.0
 40
0.1428571428571428
 40
0.1428571428571428
 40
0.1428571428571428
 40
0.1428571428571428
 40
0.2857142857142857
 40
0.2857142857142857
 40
0.2857142857142857
 40
0.2857142857142857
 40
0.4285714285714285
 40
0.4285714285714285
 40
0.4285714285714285
 40
0.4285714285714285
 40
0.5714285714285714
 40
0.5714285714285714
 40
0.5714285714285714
 40
0.5714285714285714
 40
0.7142857142857143
 40
0.7142857142857143
 40
0.7142857142857143
 40
0.7142857142857143
 40
1.0
 40
1.0
 40
1.0
 40
1.0
 10
-50.7528
 20
126.658
 30
0.0
 10
-50.7528
 20
126.658
 30
0.0
 10
-37.9539
 20
126.658
 30
0.0
 10
-37.9539
 20
126.658
 30
0.0
 10
-37.9539
 20
126.658
 30
0.0
 10
-37.9539
 20
126.658
 30
0.0
 10
-37.9539
 20
112.993
 30
0.0
 10
-37.9539
 20
112.993
 30
0.0
 10
-37.9539
 20
112.993
 30
0.0
 10
-37.9539
 20
112.993
 30
0.0
 10
-40.841
 20
112.993
 30
0.0
 10
-40.841
 20
112.993
 30
0.0
 10
-40.841
 20
112.993
 30
0.0
 10
-40.841
 20
112.993
 30
0.0
 10
-40.841
 20
121.9427
 30
0.0
 10
-40.841
 20
121.9427
 30
0.0
 10
-40.841
 20
121.9427
 30
0.0
 10
-40.841
 20
121.9427
 30
0.0
 10
-50.7528
 20
121.9427
 30
0.0
 10
-50.7528
 20
121.9427
 30
0.0
 10
-50.7528
 20
121.9427
 30
0.0
 10
-50.7528
 20
121.9427
 30
0.0
 10
-50.7528
 20
126.658
 30
0.0
 10
-50.7528
 20
126.658
 30
0.0
  0
SPLINE
  5
86
330
1F
100
AcDbEntity
  8
layer 1
 62
     7
100
AcDbSpline
210
0.0
220
0.0
230
1.0
 70
    11
 71
     3
 72
    20
 73
    16
 74
     0
 42
0.0000000001
 43
0.0000000001
 12
1.0
 22
0.0
 32
0.0
 13
1.0
 23
0.0
 33
0.0
 40
0.0
 40
0.0
 40
0.0
 40
0.0
 40
0.2
 40
0.2
 40
0.2
 40
0.2
 40
0.4
 40
0.4
 40
0.4
 40
0.4
 40
0.6
 40
0.6
 40
0.6
 40
0.6
 40
1.0
 40
1.0
 40
1.0
 40
1.0
 10
-61.4344
 20
118.8632
 30
0.0
 10
-61.4344
 20
118.8632
 30
0.0
 10
-43.9106
 20
118.8632
 30
0.0
 10
-43.9106
 20
118.8632
 30
0.0
 10
-43.9106
 20
118.8632
 30
0.0
 10
-43.9106
 20
118.8632
 30
0.0
 10
-43.9106
 20
101.3395
 30
0.0
 10
-43.9106
 20
101.3395
 30
0.0
 10
-43.9106
 20
101.3395
 30
0.0
 10
-43.9106
 20
101.3395
 30
0.0
 10
-61.4344
 20
101.3395
 30
0.0
 10
-61.4344
 20
101.3395
 30
0.0
 10
-61.4344
 20
101.3395
 30
0.0
 10
-61.4344
 20
101.3395
 30
0.0
 10
-61.4344
 20
118.8632
 30
0.0
 10
-61.4344
 20
118.8632
 30
0.0
  0
SPLINE
  5
87
330
1F
100
AcDbEntity
  8
layer 1
 62
     7
100
AcDbSpline
210
0.0
220
0.0
230
1.0
 70
    11
 71
     3
 72
    28
 73
    24
 74
     0
 42
0.0000000001
 43
0.0000000001
 12
1.0
 22
0.0
 32
0.0
 13
1.0
 23
0.0
 33
0.0
 40
0.0
 40
0.0
 40
0.0
 40
0.0
 40
0.1428571428571428
 40
0.1428571428571428
 40
0.1428571428571428
 40
0.1428571428571428
 40
0.2857142857142857
 40
0.2857142857142857
 40
0.2857142857142857
 40
0.2857142857142857
 40
0.4285714285714285
 40
0.4285714285714285
 40
0.4285714285714285
 40
0.4285714285714285
 40
0.5714285714285714
 40
0.5714285714285714
 40
0.5714285714285714
 40
0.5714285714285714
 40
0.7142857142857143
 40
0.7142857142857143
 40
0.7142857142857143
 40
0.7142857142857143
 40
1.0
 40
1.0
 40
1.0
 40
1.0
 10
-149.3898
 20
126.658
 30
0.0
 10
-149.3898
 20
126.658
 30
0.0
 10
-138.8043
 20
126.658
 30
0.0
 10
-138.8043
 20
126.658
 30
0.0
 10
-138.8043
 20
126.658
 30
0.0
 10
-138.9969
 20
125.7919
 30
0.0
 10
-139.1895
 20
124.8295
 30
0.0
 10
-139.1895
 20
123.7709
 30
0.0
 10
-139.1895
 20
123.7709
 30
0.0
 10
-139.1895
 20
121.2689
 30
0.0
 10
-138.2271
 20
118.8632
 30
0.0
 10
-136.5912
 20
117.1311
 30
0.0
 10
-136.5912
 20
117.1311
 30
0.0
 10
-136.5912
 20
117.1311
 30
0.0
 10
-136.5912
 20
112.993
 30
0.0
 10
-136.5912
 20
112.993
 30
0.0
 10
-136.5912
 20
112.993
 30
0.0
 10
-136.5912
 20
112.993
 30
0.0
 10
-149.3898
 20
112.993
 30
0.0
 10
-149.3898
 20
112.993
 30
0.0
 10
-149.3898
 20
112.993
 30
0.0
 10
-149.3898
 20
112.993
 30
0.0
 10
-149.3898
 20
126.658
 30
0.0
 10
-149.3898
 20
126.658
 30
0.0
  0
SPLINE
  5
88
330
1F
100
AcDbEntity
  8
layer 1
 62
     7
100
AcDbSpline
210
0.0
220
0.0
230
1.0
 70
    11
 71
     3
 72
    24
 73
    20
 74
     0
 42
0.0000000001
 43
0.0000000001
 12
1.0
 22
0.0
 32
0.0
 13
1.0
 23
0.0
 33
0.0
 40
0.0
 40
0.0
 40
0.0
 40
0.0
 40
0.1666666666666667
 40
0.1666666666666667
 40
0.1666666666666667
 40
0.1666666666666667
 40
0.3333333333333333
 40
0.3333333333333333
 40
0.3333333333333333
 40
0.3333333333333333
 40
0.5
 40
0.5
 40
0.5
 40
0.5
 40
0.6666666666666666
 40
0.6666666666666666
 40
0.6666666666666666
 40
0.6666666666666666
 40
1.0
 40
1.0
 40
1.0
 40
1.0
 10
-120.2317
 20
119.2481
 30
0.0
 10
-120.2317
 20
119.2481
 30
0.0
 10
-120.2317
 20
112.993
 30
0.0
 10
-120.2317
 20
112.993
 30
0.0
 10
-120.2317
 20
112.993
 30
0.0
 10
-120.2317
 20
112.993
 30
0.0
 10
-133.0306
 20
112.993
 30
0.0
 10
-133.0306
 20
112.993
 30
0.0
 10
-133.0306
 20
112.993
 30
0.0
 10
-133.0306
 20
112.993
 30
0.0
 10
-133.0306
 20
114.5328
 30
0.0
 10
-133.0306
 20
114.5328
 30
0.0
 10
-133.0306
 20
114.5328
 30
0.0
 10
-131.7796
 20
114.0517
 30
0.0
 10
-130.5286
 20
113.7628
 30
0.0
 10
-129.1814
 20
113.7628
 30
0.0
 10
-129.1814
 20
113.7628
 30
0.0
 10
-125.2358
 20
113.7628
 30
0.0
 10
-121.8678
 20
115.9761
 30
0.0
 10
-120.2317
 20
119.2481
 30
0.0
  0
SPLINE
  5
89
330
1F
100
AcDbEntity
  8
layer 1
 62
     7
100
AcDbSpline
210
0.0
220
0.0
230
1.0
 70
    11
 71
     3
 72
    24
 73
    20
 74
     0
 42
0.0000000001
 43
0.0000000001
 12
1.0
 22
0.0
 32
0.0
 13
1.0
 23
0.0
 33
0.0
 40
0.0
 40
0.0
 40
0.0
 40
0.0
 40
0.1666666666666667
 40
0.1666666666666667
 40
0.1666666666666667
 40
0.1666666666666667
 40
0.3333333333333333
 40
0.3333333333333333
 40
0.3333333333333333
 40
0.3333333333333333
 40
0.5
 40
0.5
 40
0.5
 40
0.5
 40
0.6666666666666666
 40
0.6666666666666666
 40
0.6666666666666666
 40
0.6666666666666666
 40
1.0
 40
1.0
 40
1.0
 40
1.0
 10
-123.4074
 20
126.658
 30
0.0
 10
-123.0225
 20
125.7919
 30
0.0
 10
-122.7339
 20
124.8295
 30
0.0
 10
-122.7339
 20
123.7709
 30
0.0
 10
-122.7339
 20
123.7709
 30
0.0
 10
-122.7339
 20
120.3065
 30
0.0
 10
-125.6207
 20
117.4197
 30
0.0
 10
-129.1814
 20
117.4197
 30
0.0
 10
-129.1814
 20
117.4197
 30
0.0
 10
-132.6457
 20
117.4197
 30
0.0
 10
-135.5325
 20
120.3065
 30
0.0
 10
-135.5325
 20
123.7709
 30
0.0
 10
-135.5325
 20
123.7709
 30
0.0
 10
-135.5325
 20
124.8295
 30
0.0
 10
-135.2439
 20
125.7919
 30
0.0
 10
-134.859
 20
126.658
 30
0.0
 10
-134.859
 20
126.658
 30
0.0
 10
-134.859
 20
126.658
 30
0.0
 10
-123.4074
 20
126.658
 30
0.0
 10
-123.4074
 20
126.658
 30
0.0
  0
SPLINE
  5
8A
330
1F
100
AcDbEntity
  8
layer 1
 62
     7
100
AcDbSpline
210
0.0
220
0.0
230
1.0
 70
    11
 71
     3
 72
    24
 73
    20
 74
     0
 42
0.0000000001
 43
0.0000000001
 12
1.0
 22
0.0
 32
0.0
 13
1.0
 23
0.0
 33
0.0
 40
0.0
 40
0.0
 40
0.0
 40
0.0
 40
0.1666666666666667
 40
0.1666666666666667
 40
0.1666666666666667
 40
0.1666666666666667
 40
0.3333333333333333
 40
0.3333333333333333
 40
0.3333333333333333
 40
0.3333333333333333
 40
0.5
 40
0.5
 40
0.5
 40
0.5
 40
0.6666666666666666
 40
0.6666666666666666
 40
0.6666666666666666
 40
0.6666666666666666
 40
1.0
 40
1.0
 40
1.0
 40
1.0
 10
-172.4276
 20
109.3363
 30
0.0
 10
-172.4276
 20
109.3363
 30
0.0
 10
-169.531
 20
109.3363
 30
0.0
 10
-169.531
 20
109.3363
 30
0.0
 10
-169.531
 20
109.3363
 30
0.0
 10
-169.531
 20
109.3363
 30
0.0
 10
-169.531
 20
89.2239
 30
0.0
 10
-169.531
 20
89.2239
 30
0.0
 10
-169.531
 20
89.2239
 30
0.0
 10
-169.531
 20
89.2239
 30
0.0
 10
-182.3203
 20
89.2239
 30
0.0
 10
-182.3203
 20
89.2239
 30
0.0
 10
-182.3203
 20
89.2239
 30
0.0
 10
-182.3203
 20
89.2239
 30
0.0
 10
-182.3203
 20
99.4246
 30
0.0
 10
-182.3203
 20
99.4246
 30
0.0
 10
-182.3203
 20
99.4246
 30
0.0
 10
-176.9023
 20
99.5206
 30
0.0
 10
-172.5239
 20
103.851
 30
0.0
 10
-172.4276
 20
109.3363
 30
0.0
  0
SPLINE
  5
8B
330
1F
100
AcDbEntity
  8
layer 1
 62
     7
100
AcDbSpline
210
0.0
220
0.0
230
1.0
 70
    11
 71
     3
 72
    24
 73
    20
 74
     0
 42
0.0000000001
 43
0.0000000001
 12
1.0
 22
0.0
 32
0.0
 13
1.0
 23
0.0
 33
0.0
 40
0.0
 40
0.0
 40
0.0
 40
0.0
 40
0.1666666666666667
 40
0.1666666666666667
 40
0.1666666666666667
 40
0.1666666666666667
 40
0.3333333333333333
 40
0.3333333333333333
 40
0.3333333333333333
 40
0.3333333333333333
 40
0.5
 40
0.5
 40
0.5
 40
0.5
 40
0.6666666666666666
 40
0.6666666666666666
 40
0.6666666666666666
 40
0.6666666666666666
 40
1.0
 40
1.0
 40
1.0
 40
1.0
 10
-182.3203
 20
126.658
 30
0.0
 10
-182.3203
 20
126.658
 30
0.0
 10
-169.531
 20
126.658
 30
0.0
 10
-169.531
 20
126.658
 30
0.0
 10
-169.531
 20
126.658
 30
0.0
 10
-169.531
 20
126.658
 30
0.0
 10
-169.531
 20
112.993
 30
0.0
 10
-169.531
 20
112.993
 30
0.0
 10
-169.531
 20
112.993
 30
0.0
 10
-169.531
 20
112.993
 30
0.0
 10
-173.0531
 20
112.993
 30
0.0
 10
-173.0531
 20
112.993
 30
0.0
 10
-173.0531
 20
112.993
 30
0.0
 10
-174.4484
 20
116.7462
 30
0.0
 10
-178.0668
 20
119.4405
 30
0.0
 10
-182.3203
 20
119.5367
 30
0.0
 10
-182.3203
 20
119.5367
 30
0.0
 10
-182.3203
 20
119.5367
 30
0.0
 10
-182.3203
 20
126.658
 30
0.0
 10
-182.3203
 20
126.658
 30
0.0
  0
SPLINE
  5
8C
330
1F
100
AcDbEntity
  8
layer 1
 62
     7
100
AcDbSpline
210
0.0
220
0.0
230
1.0
 70
    11
 71
     3
 72
    24
 73
    20
 74
     0
 42
0.0000000001
 43
0.0000000001
 12
1.0
 22
0.0
 32
0.0
 13
1.0
 23
0.0
 33
0.0
 40
0.0
 40
0.0
 40
0.0
 40
0.0
 40
0.1666666666666667
 40
0.1666666666666667
 40
0.1666666666666667
 40
0.1666666666666667
 40
0.3333333333333333
 40
0.3333333333333333
 40
0.3333333333333333
 40
0.3333333333333333
 40
0.5
 40
0.5
 40
0.5
 40
0.5
 40
0.6666666666666666
 40
0.6666666666666666
 40
0.6666666666666666
 40
0.6666666666666666
 40
1.0
 40
1.0
 40
1.0
 40
1.0
 10
-182.4837
 20
115.8801
 30
0.0
 10
-178.952
 20
115.8801
 30
0.0
 10
-176.0845
 20
112.993
 30
0.0
 10
-176.0845
 20
109.4324
 30
0.0
 10
-176.0845
 20
109.4324
 30
0.0
 10
-176.0845
 20
105.968
 30
0.0
 10
-178.952
 20
103.0812
 30
0.0
 10
-182.4837
 20
103.0812
 30
0.0
 10
-182.4837
 20
103.0812
 30
0.0
 10
-182.6763
 20
103.0812
 30
0.0
 10
-182.8686
 20
103.0812
 30
0.0
 10
-183.0517
 20
103.0812
 30
0.0
 10
-183.0517
 20
103.0812
 30
0.0
 10
-183.0517
 20
103.0812
 30
0.0
 10
-183.0517
 20
115.8801
 30
0.0
 10
-183.0517
 20
115.8801
 30
0.0
 10
-183.0517
 20
115.8801
 30
0.0
 10
-182.8686
 20
115.8801
 30
0.0
 10
-182.6763
 20
115.8801
 30
0.0
 10
-182.4837
 20
115.8801
 30
0.0
  0
SPLINE
  5
8D
330
1F
100
AcDbEntity
  8
layer 1
 62
   250
100
AcDbSpline
210
0.0
220
0.0
230
1.0
 70
    11
 71
     3
 72
    20
 73
    16
 74
     0
 42
0.0000000001
 43
0.0000000001
 12
1.0
 22
0.0
 32
0.0
 13
1.0
 23
0.0
 33
0.0
 40
0.0
 40
0.0
 40
0.0
 40
0.0
 40
0.2
 40
0.2
 40
0.2
 40
0.2
 40
0.4
 40
0.4
 40
0.4
 40
0.4
 40
0.6
 40
0.6
 40
0.6
 40
0.6
 40
1.0
 40
1.0
 40
1.0
 40
1.0
 10
9.2257
 20
0.2619
 30
0.0
 10
9.2257
 20
0.2619
 30
0.0
 10
196.0559
 20
0.2619
 30
0.0
 10
196.0559
 20
0.2619
 30
0.0
 10
196.0559
 20
0.2619
 30
0.0
 10
196.0559
 20
0.2619
 30
0.0
 10
196.0559
 20
-114.8221
 30
0.0
 10
196.0559
 20
-114.8221
 30
0.0
 10
196.0559
 20
-114.8221
 30
0.0
 10
196.0559
 20
-114.8221
 30
0.0
 10
9.2257
 20
-114.8221
 30
0.0
 10
9.2257
 20
-114.8221
 30
0.0
 10
9.2257
 20
-114.8221
 30
0.0
 10
9.2257
 20
-114.8221
 30
0.0
 10
9.2257
 20
0.2619
 30
0.0
 10
9.2257
 20
0.2619
 30
0.0
  0
SPLINE
  5
8E
330
1F
100
AcDbEntity
  8
layer 1
 62
     7
100
AcDbSpline
210
0.0
220
0.0
230
1.0
 70
    11
 71
     3
 72
    20
 73
    16
 74
     0
 42
0.0000000001
 43
0.0000000001
 12
1.0
 22
0.0
 32
0.0
 13
1.0
 23
0.0
 33
0.0
 40
0.0
 40
0.0
 40
0.0
 40
0.0
 40
0.2
 40
0.2
 40
0.2
 40
0.2
 40
0.4
 40
0.4
 40
0.4
 40
0.4
 40
0.6
 40
0.6
 40
0.6
 40
0.6
 40
1.0
 40
1.0
 40
1.0
 40
1.0
 10
13.63
 20
-86.9711
 30
0.0
 10
13.63
 20
-86.9711
 30
0.0
 10
17.9215
 20
-86.9711
 30
0.0
 10
17.9215
 20
-86.9711
 30
0.0
 10
17.9215
 20
-86.9711
 30
0.0
 10
17.9215
 20
-86.9711
 30
0.0
 10
17.9215
 20
-91.5354
 30
0.0
 10
17.9215
 20
-91.5354
 30
0.0
 10
17.9215
 20
-91.5354
 30
0.0
 10
17.9215
 20
-91.5354
 30
0.0
 10
13.63
 20
-91.5354
 30
0.0
 10
13.63
 20
-91.5354
 30
0.0
 10
13.63
 20
-91.5354
 30
0.0
 10
13.63
 20
-91.5354
 30
0.0
 10
13.63
 20
-86.9711
 30
0.0
 10
13.63
 20
-86.9711
 30
0.0
  0
SPLINE
  5
8F
330
1F
100
AcDbEntity
  8
layer 1
 62
     7
100
AcDbSpline
210
0.0
220
0.0
230
1.0
 70
    11
 71
     3
 72
    20
 73
    16
 74
     0
 42
0.0000000001
 43
0.0000000001
 12
1.0
 22
0.0
 32
0.0
 13
1.0
 23
0.0
 33
0.0
 40
0.0
 40
0.0
 40
0.0
 40
0.0
 40
0.2
 40
0.2
 40
0.2
 40
0.2
 40
0.4
 40
0.4
 40
0.4
 40
0.4
 40
0.6
 40
0.6
 40
0.6
 40
0.6
 40
1.0
 40
1.0
 40
1.0
 40
1.0
 10
13.63
 20
-96.0962
 30
0.0
 10
13.63
 20
-96.0962
 30
0.0
 10
27.0532
 20
-96.0962
 30
0.0
 10
27.0532
 20
-96.0962
 30
0.0
 10
27.0532
 20
-96.0962
 30
0.0
 10
27.0532
 20
-96.0962
 30
0.0
 10
27.0532
 20
-100.6605
 30
0.0
 10
27.0532
 20
-100.6605
 30
0.0
 10
27.0532
 20
-100.6605
 30
0.0
 10
27.0532
 20
-100.6605
 30
0.0
 10
13.63
 20
-100.6605
 30
0.0
 10
13.63
 20
-100.6605
 30
0.0
 10
13.63
 20
-100.6605
 30
0.0
 10
13.63
 20
-100.6605
 30
0.0
 10
13.63
 20
-96.0962
 30
0.0
 10
13.63
 20
-96.0962
 30
0.0
  0
SPLINE
  5
90
330
1F
100
AcDbEntity
  8
layer 1
 62
     7
100
AcDbSpline
210
0.0
220
0.0
230
1.0
 70
    11
 71
     3
 72
    20
 73
    16
 74
     0
 42
0.0000000001
 43
0.0000000001
 12
1.0
 22
0.0
 32
0.0
 13
1.0
 23
0.0
 33
0.0
 40
0.0
 40
0.0
 40
0.0
 40
0.0
 40
0.2
 40
0.2
 40
0.2
 40
0.2
 40
0.4
 40
0.4
 40
0.4
 40
0.4
 40
0.6
 40
0.6
 40
0.6
 40
0.6
 40
1.0
 40
1.0
 40
1.0
 40
1.0
 10
13.63
 20
-105.2306
 30
0.0
 10
13.63
 20
-105.2306
 30
0.0
 10
36.1783
 20
-105.2306
 30
0.0
 10
36.1783
 20
-105.2306
 30
0.0
 10
36.1783
 20
-105.2306
 30
0.0
 10
36.1783
 20
-105.2306
 30
0.0
 10
36.1783
 20
-109.7952
 30
0.0
 10
36.1783
 20
-109.7952
 30
0.0
 10
36.1783
 20
-109.7952
 30
0.0
 10
36.1783
 20
-109.7952
 30
0.0
 10
13.63
 20
-109.7952
 30
0.0
 10
13.63
 20
-109.7952
 30
0.0
 10
13.63
 20
-109.7952
 30
0.0
 10
13.63
 20
-109.7952
 30
0.0
 10
13.63
 20
-105.2306
 30
0.0
 10
13.63
 20
-105.2306
 30
0.0
  0
SPLINE
  5
91
330
1F
100
AcDbEntity
  8
layer 1
 62
     7
100
AcDbSpline
210
0.0
220
0.0
230
1.0
 70
    11
 71
     3
 72
    20
 73
    16
 74
     0
 42
0.0000000001
 43
0.0000000001
 12
1.0
 22
0.0
 32
0.0
 13
1.0
 23
0.0
 33
0.0
 40
0.0
 40
0.0
 40
0.0
 40
0.0
 40
0.2
 40
0.2
 40
0.2
 40
0.2
 40
0.4
 40
0.4
 40
0.4
 40
0.4
 40
0.6
 40
0.6
 40
0.6
 40
0.6
 40
1.0
 40
1.0
 40
1.0
 40
1.0
 10
59.0245
 20
-105.2306
 30
0.0
 10
59.0245
 20
-105.2306
 30
0.0
 10
64.1369
 20
-105.2306
 30
0.0
 10
64.1369
 20
-105.2306
 30
0.0
 10
64.1369
 20
-105.2306
 30
0.0
 10
64.1369
 20
-105.2306
 30
0.0
 10
64.1369
 20
-109.7952
 30
0.0
 10
64.1369
 20
-109.7952
 30
0.0
 10
64.1369
 20
-109.7952
 30
0.0
 10
64.1369
 20
-109.7952
 30
0.0
 10
59.0245
 20
-109.7952
 30
0.0
 10
59.0245
 20
-109.7952
 30
0.0
 10
59.0245
 20
-109.7952
 30
0.0
 10
59.0245
 20
-109.7952
 30
0.0
 10
59.0245
 20
-105.2306
 30
0.0
 10
59.0245
 20
-105.2306
 30
0.0
  0
SPLINE
  5
92
330
1F
100
AcDbEntity
  8
layer 1
 62
     7
100
AcDbSpline
210
0.0
220
0.0
230
1.0
 70
    11
 71
     3
 72
    20
 73
    16
 74
     0
 42
0.0000000001
 43
0.0000000001
 12
1.0
 22
0.0
 32
0.0
 13
1.0
 23
0.0
 33
0.0
 40
0.0
 40
0.0
 40
0.0
 40
0.0
 40
0.2
 40
0.2
 40
0.2
 40
0.2
 40
0.4
 40
0.4
 40
0.4
 40
0.4
 40
0.6
 40
0.6
 40
0.6
 40
0.6
 40
1.0
 40
1.0
 40
1.0
 40
1.0
 10
68.1591
 20
-109.7884
 30
0.0
 10
68.1591
 20
-109.7884
 30
0.0
 10
90.9859
 20
-109.7884
 30
0.0
 10
90.9859
 20
-109.7884
 30
0.0
 10
90.9859
 20
-109.7884
 30
0.0
 10
90.9859
 20
-109.7884
 30
0.0
 10
90.9859
 20
-105.224
 30
0.0
 10
90.9859
 20
-105.224
 30
0.0
 10
90.9859
 20
-105.224
 30
0.0
 10
90.9859
 20
-105.224
 30
0.0
 10
68.1591
 20
-105.224
 30
0.0
 10
68.1591
 20
-105.224
 30
0.0
 10
68.1591
 20
-105.224
 30
0.0
 10
68.1591
 20
-105.224
 30
0.0
 10
68.1591
 20
-109.7884
 30
0.0
 10
68.1591
 20
-109.7884
 30
0.0
  0
SPLINE
  5
93
330
1F
100
AcDbEntity
  8
layer 1
 62
     7
100
AcDbSpline
210
0.0
220
0.0
230
1.0
 70
    11
 71
     3
 72
    20
 73
    16
 74
     0
 42
0.0000000001
 43
0.0000000001
 12
1.0
 22
0.0
 32
0.0
 13
1.0
 23
0.0
 33
0.0
 40
0.0
 40
0.0
 40
0.0
 40
0.0
 40
0.2
 40
0.2
 40
0.2
 40
0.2
 40
0.4
 40
0.4
 40
0.4
 40
0.4
 40
0.6
 40
0.6
 40
0.6
 40
0.6
 40
1.0
 40
1.0
 40
1.0
 40
1.0
 10
49.8898
 20
-96.0962
 30
0.0
 10
49.8898
 20
-96.0962
 30
0.0
 10
55.0023
 20
-96.0962
 30
0.0
 10
55.0023
 20
-96.0962
 30
0.0
 10
55.0023
 20
-96.0962
 30
0.0
 10
55.0023
 20
-96.0962
 30
0.0
 10
55.0023
 20
-109.7884
 30
0.0
 10
55.0023
 20
-109.7884
 30
0.0
 10
55.0023
 20
-109.7884
 30
0.0
 10
55.0023
 20
-109.7884
 30
0.0
 10
49.8898
 20
-109.7884
 30
0.0
 10
49.8898
 20
-109.7884
 30
0.0
 10
49.8898
 20
-109.7884
 30
0.0
 10
49.8898
 20
-109.7884
 30
0.0
 10
49.8898
 20
-96.0962
 30
0.0
 10
49.8898
 20
-96.0962
 30
0.0
  0
SPLINE
  5
94
330
1F
100
AcDbEntity
  8
layer 1
 62
     7
100
AcDbSpline
210
0.0
220
0.0
230
1.0
 70
    11
 71
     3
 72
    20
 73
    16
 74
     0
 42
0.0000000001
 43
0.0000000001
 12
1.0
 22
0.0
 32
0.0
 13
1.0
 23
0.0
 33
0.0
 40
0.0
 40
0.0
 40
0.0
 40
0.0
 40
0.2
 40
0.2
 40
0.2
 40
0.2
 40
0.4
 40
0.4
 40
0.4
 40
0.4
 40
0.6
 40
0.6
 40
0.6
 40
0.6
 40
1.0
 40
1.0
 40
1.0
 40
1.0
 10
59.0245
 20
-100.6635
 30
0.0
 10
59.0245
 20
-100.6635
 30
0.0
 10
81.8513
 20
-100.6635
 30
0.0
 10
81.8513
 20
-100.6635
 30
0.0
 10
81.8513
 20
-100.6635
 30
0.0
 10
81.8513
 20
-100.6635
 30
0.0
 10
81.8513
 20
-96.0989
 30
0.0
 10
81.8513
 20
-96.0989
 30
0.0
 10
81.8513
 20
-96.0989
 30
0.0
 10
81.8513
 20
-96.0989
 30
0.0
 10
59.0245
 20
-96.0989
 30
0.0
 10
59.0245
 20
-96.0989
 30
0.0
 10
59.0245
 20
-96.0989
 30
0.0
 10
59.0245
 20
-96.0989
 30
0.0
 10
59.0245
 20
-100.6635
 30
0.0
 10
59.0245
 20
-100.6635
 30
0.0
  0
SPLINE
  5
95
330
1F
100
AcDbEntity
  8
layer 1
 62
     7
100
AcDbSpline
210
0.0
220
0.0
230
1.0
 70
    11
 71
     3
 72
    20
 73
    16
 74
     0
 42
0.0000000001
 43
0.0000000001
 12
1.0
 22
0.0
 32
0.0
 13
1.0
 23
0.0
 33
0.0
 40
0.0
 40
0.0
 40
0.0
 40
0.0
 40
0.2
 40
0.2
 40
0.2
 40
0.2
 40
0.4
 40
0.4
 40
0.4
 40
0.4
 40
0.6
 40
0.6
 40
0.6
 40
0.6
 40
1.0
 40
1.0
 40
1.0
 40
1.0
 10
40.7552
 20
-86.9711
 30
0.0
 10
40.7552
 20
-86.9711
 30
0.0
 10
45.8676
 20
-86.9711
 30
0.0
 10
45.8676
 20
-86.9711
 30
0.0
 10
45.8676
 20
-86.9711
 30
0.0
 10
45.8676
 20
-86.9711
 30
0.0
 10
45.8676
 20
-109.7979
 30
0.0
 10
45.8676
 20
-109.7979
 30
0.0
 10
45.8676
 20
-109.7979
 30
0.0
 10
45.8676
 20
-109.7979
 30
0.0
 10
40.7552
 20
-109.7979
 30
0.0
 10
40.7552
 20
-109.7979
 30
0.0
 10
40.7552
 20
-109.7979
 30
0.0
 10
40.7552
 20
-109.7979
 30
0.0
 10
40.7552
 20
-86.9711
 30
0.0
 10
40.7552
 20
-86.9711
 30
0.0
  0
SPLINE
  5
96
330
1F
100
AcDbEntity
  8
layer 1
 62
     7
100
AcDbSpline
210
0.0
220
0.0
230
1.0
 70
    11
 71
     3
 72
    20
 73
    16
 74
     0
 42
0.0000000001
 43
0.0000000001
 12
1.0
 22
0.0
 32
0.0
 13
1.0
 23
0.0
 33
0.0
 40
0.0
 40
0.0
 40
0.0
 40
0.0
 40
0.2
 40
0.2
 40
0.2
 40
0.2
 40
0.4
 40
0.4
 40
0.4
 40
0.4
 40
0.6
 40
0.6
 40
0.6
 40
0.6
 40
1.0
 40
1.0
 40
1.0
 40
1.0
 10
49.8898
 20
-91.5384
 30
0.0
 10
49.8898
 20
-91.5384
 30
0.0
 10
72.7166
 20
-91.5384
 30
0.0
 10
72.7166
 20
-91.5384
 30
0.0
 10
72.7166
 20
-91.5384
 30
0.0
 10
72.7166
 20
-91.5384
 30
0.0
 10
72.7166
 20
-86.9741
 30
0.0
 10
72.7166
 20
-86.9741
 30
0.0
 10
72.7166
 20
-86.9741
 30
0.0
 10
72.7166
 20
-86.9741
 30
0.0
 10
49.8898
 20
-86.9741
 30
0.0
 10
49.8898
 20
-86.9741
 30
0.0
 10
49.8898
 20
-86.9741
 30
0.0
 10
49.8898
 20
-86.9741
 30
0.0
 10
49.8898
 20
-91.5384
 30
0.0
 10
49.8898
 20
-91.5384
 30
0.0
  0
SPLINE
  5
97
330
1F
100
AcDbEntity
  8
layer 1
 62
     7
100
AcDbSpline
210
0.0
220
0.0
230
1.0
 70
    11
 71
     3
 72
    20
 73
    16
 74
     0
 42
0.0000000001
 43
0.0000000001
 12
1.0
 22
0.0
 32
0.0
 13
1.0
 23
0.0
 33
0.0
 40
0.0
 40
0.0
 40
0.0
 40
0.0
 40
0.2
 40
0.2
 40
0.2
 40
0.2
 40
0.4
 40
0.4
 40
0.4
 40
0.4
 40
0.6
 40
0.6
 40
0.6
 40
0.6
 40
1.0
 40
1.0
 40
1.0
 40
1.0
 10
31.611
 20
-77.8365
 30
0.0
 10
31.611
 20
-77.8365
 30
0.0
 10
36.7234
 20
-77.8365
 30
0.0
 10
36.7234
 20
-77.8365
 30
0.0
 10
36.7234
 20
-77.8365
 30
0.0
 10
36.7234
 20
-77.8365
 30
0.0
 10
36.7234
 20
-100.6635
 30
0.0
 10
36.7234
 20
-100.6635
 30
0.0
 10
36.7234
 20
-100.6635
 30
0.0
 10
36.7234
 20
-100.6635
 30
0.0
 10
31.611
 20
-100.6635
 30
0.0
 10
31.611
 20
-100.6635
 30
0.0
 10
31.611
 20
-100.6635
 30
0.0
 10
31.611
 20
-100.6635
 30
0.0
 10
31.611
 20
-77.8365
 30
0.0
 10
31.611
 20
-77.8365
 30
0.0
  0
SPLINE
  5
98
330
1F
100
AcDbEntity
  8
layer 1
 62
     7
100
AcDbSpline
210
0.0
220
0.0
230
1.0
 70
    11
 71
     3
 72
    20
 73
    16
 74
     0
 42
0.0000000001
 43
0.0000000001
 12
1.0
 22
0.0
 32
0.0
 13
1.0
 23
0.0
 33
0.0
 40
0.0
 40
0.0
 40
0.0
 40
0.0
 40
0.2
 40
0.2
 40
0.2
 40
0.2
 40
0.4
 40
0.4
 40
0.4
 40
0.4
 40
0.6
 40
0.6
 40
0.6
 40
0.6
 40
1.0
 40
1.0
 40
1.0
 40
1.0
 10
40.7552
 20
-82.4038
 30
0.0
 10
40.7552
 20
-82.4038
 30
0.0
 10
63.5822
 20
-82.4038
 30
0.0
 10
63.5822
 20
-82.4038
 30
0.0
 10
63.5822
 20
-82.4038
 30
0.0
 10
63.5822
 20
-82.4038
 30
0.0
 10
63.5822
 20
-77.8395
 30
0.0
 10
63.5822
 20
-77.8395
 30
0.0
 10
63.5822
 20
-77.8395
 30
0.0
 10
63.5822
 20
-77.8395
 30
0.0
 10
40.7552
 20
-77.8395
 30
0.0
 10
40.7552
 20
-77.8395
 30
0.0
 10
40.7552
 20
-77.8395
 30
0.0
 10
40.7552
 20
-77.8395
 30
0.0
 10
40.7552
 20
-82.4038
 30
0.0
 10
40.7552
 20
-82.4038
 30
0.0
  0
SPLINE
  5
99
330
1F
100
AcDbEntity
  8
layer 1
 62
     7
100
AcDbSpline
210
0.0
220
0.0
230
1.0
 70
    11
 71
     3
 72
    20
 73
    16
 74
     0
 42
0.0000000001
 43
0.0000000001
 12
1.0
 22
0.0
 32
0.0
 13
1.0
 23
0.0
 33
0.0
 40
0.0
 40
0.0
 40
0.0
 40
0.0
 40
0.2
 40
0.2
 40
0.2
 40
0.2
 40
0.4
 40
0.4
 40
0.4
 40
0.4
 40
0.6
 40
0.6
 40
0.6
 40
0.6
 40
1.0
 40
1.0
 40
1.0
 40
1.0
 10
22.4859
 20
-68.7114
 30
0.0
 10
22.4859
 20
-68.7114
 30
0.0
 10
27.5986
 20
-68.7114
 30
0.0
 10
27.5986
 20
-68.7114
 30
0.0
 10
27.5986
 20
-68.7114
 30
0.0
 10
27.5986
 20
-68.7114
 30
0.0
 10
27.5986
 20
-91.5384
 30
0.0
 10
27.5986
 20
-91.5384
 30
0.0
 10
27.5986
 20
-91.5384
 30
0.0
 10
27.5986
 20
-91.5384
 30
0.0
 10
22.4859
 20
-91.5384
 30
0.0
 10
22.4859
 20
-91.5384
 30
0.0
 10
22.4859
 20
-91.5384
 30
0.0
 10
22.4859
 20
-91.5384
 30
0.0
 10
22.4859
 20
-68.7114
 30
0.0
 10
22.4859
 20
-68.7114
 30
0.0
  0
SPLINE
  5
9A
330
1F
100
AcDbEntity
  8
layer 1
 62
     7
100
AcDbSpline
210
0.0
220
0.0
230
1.0
 70
    11
 71
     3
 72
    20
 73
    16
 74
     0
 42
0.0000000001
 43
0.0000000001
 12
1.0
 22
0.0
 32
0.0
 13
1.0
 23
0.0
 33
0.0
 40
0.0
 40
0.0
 40
0.0
 40
0.0
 40
0.2
 40
0.2
 40
0.2
 40
0.2
 40
0.4
 40
0.4
 40
0.4
 40
0.4
 40
0.6
 40
0.6
 40
0.6
 40
0.6
 40
1.0
 40
1.0
 40
1.0
 40
1.0
 10
31.611
 20
-73.2787
 30
0.0
 10
31.611
 20
-73.2787
 30
0.0
 10
54.4378
 20
-73.2787
 30
0.0
 10
54.4378
 20
-73.2787
 30
0.0
 10
54.4378
 20
-73.2787
 30
0.0
 10
54.4378
 20
-73.2787
 30
0.0
 10
54.4378
 20
-68.7144
 30
0.0
 10
54.4378
 20
-68.7144
 30
0.0
 10
54.4378
 20
-68.7144
 30
0.0
 10
54.4378
 20
-68.7144
 30
0.0
 10
31.611
 20
-68.7144
 30
0.0
 10
31.611
 20
-68.7144
 30
0.0
 10
31.611
 20
-68.7144
 30
0.0
 10
31.611
 20
-68.7144
 30
0.0
 10
31.611
 20
-73.2787
 30
0.0
 10
31.611
 20
-73.2787
 30
0.0
  0
SPLINE
  5
9B
330
1F
100
AcDbEntity
  8
layer 1
 62
     7
100
AcDbSpline
210
0.0
220
0.0
230
1.0
 70
    11
 71
     3
 72
    20
 73
    16
 74
     0
 42
0.0000000001
 43
0.0000000001
 12
1.0
 22
0.0
 32
0.0
 13
1.0
 23
0.0
 33
0.0
 40
0.0
 40
0.0
 40
0.0
 40
0.0
 40
0.2
 40
0.2
 40
0.2
 40
0.2
 40
0.4
 40
0.4
 40
0.4
 40
0.4
 40
0.6
 40
0.6
 40
0.6
 40
0.6
 40
1.0
 40
1.0
 40
1.0
 40
1.0
 10
13.63
 20
-59.6154
 30
0.0
 10
13.63
 20
-59.6154
 30
0.0
 10
18.4686
 20
-59.6154
 30
0.0
 10
18.4686
 20
-59.6154
 30
0.0
 10
18.4686
 20
-59.6154
 30
0.0
 10
18.4686
 20
-59.6154
 30
0.0
 10
18.4686
 20
-82.4422
 30
0.0
 10
18.4686
 20
-82.4422
 30
0.0
 10
18.4686
 20
-82.4422
 30
0.0
 10
18.4686
 20
-82.4422
 30
0.0
 10
13.63
 20
-82.4422
 30
0.0
 10
13.63
 20
-82.4422
 30
0.0
 10
13.63
 20
-82.4422
 30
0.0
 10
13.63
 20
-82.4422
 30
0.0
 10
13.63
 20
-59.6154
 30
0.0
 10
13.63
 20
-59.6154
 30
0.0
  0
SPLINE
  5
9C
330
1F
100
AcDbEntity
  8
layer 1
 62
     7
100
AcDbSpline
210
0.0
220
0.0
230
1.0
 70
    11
 71
     3
 72
    20
 73
    16
 74
     0
 42
0.0000000001
 43
0.0000000001
 12
1.0
 22
0.0
 32
0.0
 13
1.0
 23
0.0
 33
0.0
 40
0.0
 40
0.0
 40
0.0
 40
0.0
 40
0.2
 40
0.2
 40
0.2
 40
0.2
 40
0.4
 40
0.4
 40
0.4
 40
0.4
 40
0.6
 40
0.6
 40
0.6
 40
0.6
 40
1.0
 40
1.0
 40
1.0
 40
1.0
 10
22.4859
 20
-64.1345
 30
0.0
 10
22.4859
 20
-64.1345
 30
0.0
 10
45.3129
 20
-64.1345
 30
0.0
 10
45.3129
 20
-64.1345
 30
0.0
 10
45.3129
 20
-64.1345
 30
0.0
 10
45.3129
 20
-64.1345
 30
0.0
 10
45.3129
 20
-59.5702
 30
0.0
 10
45.3129
 20
-59.5702
 30
0.0
 10
45.3129
 20
-59.5702
 30
0.0
 10
45.3129
 20
-59.5702
 30
0.0
 10
22.4859
 20
-59.5702
 30
0.0
 10
22.4859
 20
-59.5702
 30
0.0
 10
22.4859
 20
-59.5702
 30
0.0
 10
22.4859
 20
-59.5702
 30
0.0
 10
22.4859
 20
-64.1345
 30
0.0
 10
22.4859
 20
-64.1345
 30
0.0
  0
SPLINE
  5
9D
330
1F
100
AcDbEntity
  8
layer 1
 62
     7
100
AcDbSpline
210
0.0
220
0.0
230
1.0
 70
    11
 71
     3
 72
    20
 73
    16
 74
     0
 42
0.0000000001
 43
0.0000000001
 12
1.0
 22
0.0
 32
0.0
 13
1.0
 23
0.0
 33
0.0
 40
0.0
 40
0.0
 40
0.0
 40
0.0
 40
0.2
 40
0.2
 40
0.2
 40
0.2
 40
0.4
 40
0.4
 40
0.4
 40
0.4
 40
0.6
 40
0.6
 40
0.6
 40
0.6
 40
1.0
 40
1.0
 40
1.0
 40
1.0
 10
13.63
 20
-50.4808
 30
0.0
 10
13.63
 20
-50.4808
 30
0.0
 10
36.1783
 20
-50.4808
 30
0.0
 10
36.1783
 20
-50.4808
 30
0.0
 10
36.1783
 20
-50.4808
 30
0.0
 10
36.1783
 20
-50.4808
 30
0.0
 10
36.1783
 20
-55.0451
 30
0.0
 10
36.1783
 20
-55.0451
 30
0.0
 10
36.1783
 20
-55.0451
 30
0.0
 10
36.1783
 20
-55.0451
 30
0.0
 10
13.63
 20
-55.0451
 30
0.0
 10
13.63
 20
-55.0451
 30
0.0
 10
13.63
 20
-55.0451
 30
0.0
 10
13.63
 20
-55.0451
 30
0.0
 10
13.63
 20
-50.4808
 30
0.0
 10
13.63
 20
-50.4808
 30
0.0
  0
SPLINE
  5
9E
330
1F
100
AcDbEntity
  8
layer 1
 62
     7
100
AcDbSpline
210
0.0
220
0.0
230
1.0
 70
    11
 71
     3
 72
    20
 73
    16
 74
     0
 42
0.0000000001
 43
0.0000000001
 12
1.0
 22
0.0
 32
0.0
 13
1.0
 23
0.0
 33
0.0
 40
0.0
 40
0.0
 40
0.0
 40
0.0
 40
0.2
 40
0.2
 40
0.2
 40
0.2
 40
0.4
 40
0.4
 40
0.4
 40
0.4
 40
0.6
 40
0.6
 40
0.6
 40
0.6
 40
1.0
 40
1.0
 40
1.0
 40
1.0
 10
13.63
 20
-41.3461
 30
0.0
 10
13.63
 20
-41.3461
 30
0.0
 10
27.0532
 20
-41.3461
 30
0.0
 10
27.0532
 20
-41.3461
 30
0.0
 10
27.0532
 20
-41.3461
 30
0.0
 10
27.0532
 20
-41.3461
 30
0.0
 10
27.0532
 20
-45.9104
 30
0.0
 10
27.0532
 20
-45.9104
 30
0.0
 10
27.0532
 20
-45.9104
 30
0.0
 10
27.0532
 20
-45.9104
 30
0.0
 10
13.63
 20
-45.9104
 30
0.0
 10
13.63
 20
-45.9104
 30
0.0
 10
13.63
 20
-45.9104
 30
0.0
 10
13.63
 20
-45.9104
 30
0.0
 10
13.63
 20
-41.3461
 30
0.0
 10
13.63
 20
-41.3461
 30
0.0
  0
SPLINE
  5
9F
330
1F
100
AcDbEntity
  8
layer 1
 62
     7
100
AcDbSpline
210
0.0
220
0.0
230
1.0
 70
    11
 71
     3
 72
    20
 73
    16
 74
     0
 42
0.0000000001
 43
0.0000000001
 12
1.0
 22
0.0
 32
0.0
 13
1.0
 23
0.0
 33
0.0
 40
0.0
 40
0.0
 40
0.0
 40
0.0
 40
0.2
 40
0.2
 40
0.2
 40
0.2
 40
0.4
 40
0.4
 40
0.4
 40
0.4
 40
0.6
 40
0.6
 40
0.6
 40
0.6
 40
1.0
 40
1.0
 40
1.0
 40
1.0
 10
13.63
 20
-32.2115
 30
0.0
 10
13.63
 20
-32.2115
 30
0.0
 10
17.9215
 20
-32.2115
 30
0.0
 10
17.9215
 20
-32.2115
 30
0.0
 10
17.9215
 20
-32.2115
 30
0.0
 10
17.9215
 20
-32.2115
 30
0.0
 10
17.9215
 20
-36.7769
 30
0.0
 10
17.9215
 20
-36.7769
 30
0.0
 10
17.9215
 20
-36.7769
 30
0.0
 10
17.9215
 20
-36.7769
 30
0.0
 10
13.63
 20
-36.7769
 30
0.0
 10
13.63
 20
-36.7769
 30
0.0
 10
13.63
 20
-36.7769
 30
0.0
 10
13.63
 20
-36.7769
 30
0.0
 10
13.63
 20
-32.2115
 30
0.0
 10
13.63
 20
-32.2115
 30
0.0
  0
SPLINE
  5
A0
330
1F
100
AcDbEntity
  8
layer 1
 62
     7
100
AcDbSpline
210
0.0
220
0.0
230
1.0
 70
    11
 71
     3
 72
    20
 73
    16
 74
     0
 42
0.0000000001
 43
0.0000000001
 12
1.0
 22
0.0
 32
0.0
 13
1.0
 23
0.0
 33
0.0
 40
0.0
 40
0.0
 40
0.0
 40
0.0
 40
0.2
 40
0.2
 40
0.2
 40
0.2
 40
0.4
 40
0.4
 40
0.4
 40
0.4
 40
0.6
 40
0.6
 40
0.6
 40
0.6
 40
1.0
 40
1.0
 40
1.0
 40
1.0
 10
13.63
 20
-4.8075
 30
0.0
 10
13.63
 20
-4.8075
 30
0.0
 10
18.4686
 20
-4.8075
 30
0.0
 10
18.4686
 20
-4.8075
 30
0.0
 10
18.4686
 20
-4.8075
 30
0.0
 10
18.4686
 20
-4.8075
 30
0.0
 10
18.4686
 20
-27.6346
 30
0.0
 10
18.4686
 20
-27.6346
 30
0.0
 10
18.4686
 20
-27.6346
 30
0.0
 10
18.4686
 20
-27.6346
 30
0.0
 10
13.63
 20
-27.6346
 30
0.0
 10
13.63
 20
-27.6346
 30
0.0
 10
13.63
 20
-27.6346
 30
0.0
 10
13.63
 20
-27.6346
 30
0.0
 10
13.63
 20
-4.8075
 30
0.0
 10
13.63
 20
-4.8075
 30
0.0
  0
SPLINE
  5
A1
330
1F
100
AcDbEntity
  8
layer 1
 62
     7
100
AcDbSpline
210
0.0
220
0.0
230
1.0
 70
    11
 71
     3
 72
    20
 73
    16
 74
     0
 42
0.0000000001
 43
0.0000000001
 12
1.0
 22
0.0
 32
0.0
 13
1.0
 23
0.0
 33
0.0
 40
0.0
 40
0.0
 40
0.0
 40
0.0
 40
0.2
 40
0.2
 40
0.2
 40
0.2
 40
0.4
 40
0.4
 40
0.4
 40
0.4
 40
0.6
 40
0.6
 40
0.6
 40
0.6
 40
1.0
 40
1.0
 40
1.0
 40
1.0
 10
22.4859
 20
-9.3269
 30
0.0
 10
22.4859
 20
-9.3269
 30
0.0
 10
45.3129
 20
-9.3269
 30
0.0
 10
45.3129
 20
-9.3269
 30
0.0
 10
45.3129
 20
-9.3269
 30
0.0
 10
45.3129
 20
-9.3269
 30
0.0
 10
45.3129
 20
-4.7626
 30
0.0
 10
45.3129
 20
-4.7626
 30
0.0
 10
45.3129
 20
-4.7626
 30
0.0
 10
45.3129
 20
-4.7626
 30
0.0
 10
22.4859
 20
-4.7626
 30
0.0
 10
22.4859
 20
-4.7626
 30
0.0
 10
22.4859
 20
-4.7626
 30
0.0
 10
22.4859
 20
-4.7626
 30
0.0
 10
22.4859
 20
-9.3269
 30
0.0
 10
22.4859
 20
-9.3269
 30
0.0
  0
SPLINE
  5
A2
330
1F
100
AcDbEntity
  8
layer 1
 62
     7
100
AcDbSpline
210
0.0
220
0.0
230
1.0
 70
    11
 71
     3
 72
    20
 73
    16
 74
     0
 42
0.0000000001
 43
0.0000000001
 12
1.0
 22
0.0
 32
0.0
 13
1.0
 23
0.0
 33
0.0
 40
0.0
 40
0.0
 40
0.0
 40
0.0
 40
0.2
 40
0.2
 40
0.2
 40
0.2
 40
0.4
 40
0.4
 40
0.4
 40
0.4
 40
0.6
 40
0.6
 40
0.6
 40
0.6
 40
1.0
 40
1.0
 40
1.0
 40
1.0
 10
22.4859
 20
-13.9422
 30
0.0
 10
22.4859
 20
-13.9422
 30
0.0
 10
27.5986
 20
-13.9422
 30
0.0
 10
27.5986
 20
-13.9422
 30
0.0
 10
27.5986
 20
-13.9422
 30
0.0
 10
27.5986
 20
-13.9422
 30
0.0
 10
27.5986
 20
-36.7693
 30
0.0
 10
27.5986
 20
-36.7693
 30
0.0
 10
27.5986
 20
-36.7693
 30
0.0
 10
27.5986
 20
-36.7693
 30
0.0
 10
22.4859
 20
-36.7693
 30
0.0
 10
22.4859
 20
-36.7693
 30
0.0
 10
22.4859
 20
-36.7693
 30
0.0
 10
22.4859
 20
-36.7693
 30
0.0
 10
22.4859
 20
-13.9422
 30
0.0
 10
22.4859
 20
-13.9422
 30
0.0
  0
SPLINE
  5
A3
330
1F
100
AcDbEntity
  8
layer 1
 62
     7
100
AcDbSpline
210
0.0
220
0.0
230
1.0
 70
    11
 71
     3
 72
    20
 73
    16
 74
     0
 42
0.0000000001
 43
0.0000000001
 12
1.0
 22
0.0
 32
0.0
 13
1.0
 23
0.0
 33
0.0
 40
0.0
 40
0.0
 40
0.0
 40
0.0
 40
0.2
 40
0.2
 40
0.2
 40
0.2
 40
0.4
 40
0.4
 40
0.4
 40
0.4
 40
0.6
 40
0.6
 40
0.6
 40
0.6
 40
1.0
 40
1.0
 40
1.0
 40
1.0
 10
31.611
 20
-18.4615
 30
0.0
 10
31.611
 20
-18.4615
 30
0.0
 10
54.4378
 20
-18.4615
 30
0.0
 10
54.4378
 20
-18.4615
 30
0.0
 10
54.4378
 20
-18.4615
 30
0.0
 10
54.4378
 20
-18.4615
 30
0.0
 10
54.4378
 20
-13.8969
 30
0.0
 10
54.4378
 20
-13.8969
 30
0.0
 10
54.4378
 20
-13.8969
 30
0.0
 10
54.4378
 20
-13.8969
 30
0.0
 10
31.611
 20
-13.8969
 30
0.0
 10
31.611
 20
-13.8969
 30
0.0
 10
31.611
 20
-13.8969
 30
0.0
 10
31.611
 20
-13.8969
 30
0.0
 10
31.611
 20
-18.4615
 30
0.0
 10
31.611
 20
-18.4615
 30
0.0
  0
SPLINE
  5
A4
330
1F
100
AcDbEntity
  8
layer 1
 62
     7
100
AcDbSpline
210
0.0
220
0.0
230
1.0
 70
    11
 71
     3
 72
    20
 73
    16
 74
     0
 42
0.0000000001
 43
0.0000000001
 12
1.0
 22
0.0
 32
0.0
 13
1.0
 23
0.0
 33
0.0
 40
0.0
 40
0.0
 40
0.0
 40
0.0
 40
0.2
 40
0.2
 40
0.2
 40
0.2
 40
0.4
 40
0.4
 40
0.4
 40
0.4
 40
0.6
 40
0.6
 40
0.6
 40
0.6
 40
1.0
 40
1.0
 40
1.0
 40
1.0
 10
31.611
 20
-23.0768
 30
0.0
 10
31.611
 20
-23.0768
 30
0.0
 10
36.7234
 20
-23.0768
 30
0.0
 10
36.7234
 20
-23.0768
 30
0.0
 10
36.7234
 20
-23.0768
 30
0.0
 10
36.7234
 20
-23.0768
 30
0.0
 10
36.7234
 20
-45.9039
 30
0.0
 10
36.7234
 20
-45.9039
 30
0.0
 10
36.7234
 20
-45.9039
 30
0.0
 10
36.7234
 20
-45.9039
 30
0.0
 10
31.611
 20
-45.9039
 30
0.0
 10
31.611
 20
-45.9039
 30
0.0
 10
31.611
 20
-45.9039
 30
0.0
 10
31.611
 20
-45.9039
 30
0.0
 10
31.611
 20
-23.0768
 30
0.0
 10
31.611
 20
-23.0768
 30
0.0
  0
SPLINE
  5
A5
330
1F
100
AcDbEntity
  8
layer 1
 62
     7
100
AcDbSpline
210
0.0
220
0.0
230
1.0
 70
    11
 71
     3
 72
    20
 73
    16
 74
     0
 42
0.0000000001
 43
0.0000000001
 12
1.0
 22
0.0
 32
0.0
 13
1.0
 23
0.0
 33
0.0
 40
0.0
 40
0.0
 40
0.0
 40
0.0
 40
0.2
 40
0.2
 40
0.2
 40
0.2
 40
0.4
 40
0.4
 40
0.4
 40
0.4
 40
0.6
 40
0.6
 40
0.6
 40
0.6
 40
1.0
 40
1.0
 40
1.0
 40
1.0
 10
40.7552
 20
-27.5962
 30
0.0
 10
40.7552
 20
-27.5962
 30
0.0
 10
63.5822
 20
-27.5962
 30
0.0
 10
63.5822
 20
-27.5962
 30
0.0
 10
63.5822
 20
-27.5962
 30
0.0
 10
63.5822
 20
-27.5962
 30
0.0
 10
63.5822
 20
-23.0316
 30
0.0
 10
63.5822
 20
-23.0316
 30
0.0
 10
63.5822
 20
-23.0316
 30
0.0
 10
63.5822
 20
-23.0316
 30
0.0
 10
40.7552
 20
-23.0316
 30
0.0
 10
40.7552
 20
-23.0316
 30
0.0
 10
40.7552
 20
-23.0316
 30
0.0
 10
40.7552
 20
-23.0316
 30
0.0
 10
40.7552
 20
-27.5962
 30
0.0
 10
40.7552
 20
-27.5962
 30
0.0
  0
SPLINE
  5
A6
330
1F
100
AcDbEntity
  8
layer 1
 62
     7
100
AcDbSpline
210
0.0
220
0.0
230
1.0
 70
    11
 71
     3
 72
    20
 73
    16
 74
     0
 42
0.0000000001
 43
0.0000000001
 12
1.0
 22
0.0
 32
0.0
 13
1.0
 23
0.0
 33
0.0
 40
0.0
 40
0.0
 40
0.0
 40
0.0
 40
0.2
 40
0.2
 40
0.2
 40
0.2
 40
0.4
 40
0.4
 40
0.4
 40
0.4
 40
0.6
 40
0.6
 40
0.6
 40
0.6
 40
1.0
 40
1.0
 40
1.0
 40
1.0
 10
40.7552
 20
-32.2115
 30
0.0
 10
40.7552
 20
-32.2115
 30
0.0
 10
45.8676
 20
-32.2115
 30
0.0
 10
45.8676
 20
-32.2115
 30
0.0
 10
45.8676
 20
-32.2115
 30
0.0
 10
45.8676
 20
-32.2115
 30
0.0
 10
45.8676
 20
-55.0383
 30
0.0
 10
45.8676
 20
-55.0383
 30
0.0
 10
45.8676
 20
-55.0383
 30
0.0
 10
45.8676
 20
-55.0383
 30
0.0
 10
40.7552
 20
-55.0383
 30
0.0
 10
40.7552
 20
-55.0383
 30
0.0
 10
40.7552
 20
-55.0383
 30
0.0
 10
40.7552
 20
-55.0383
 30
0.0
 10
40.7552
 20
-32.2115
 30
0.0
 10
40.7552
 20
-32.2115
 30
0.0
  0
SPLINE
  5
A7
330
1F
100
AcDbEntity
  8
layer 1
 62
     7
100
AcDbSpline
210
0.0
220
0.0
230
1.0
 70
    11
 71
     3
 72
    20
 73
    16
 74
     0
 42
0.0000000001
 43
0.0000000001
 12
1.0
 22
0.0
 32
0.0
 13
1.0
 23
0.0
 33
0.0
 40
0.0
 40
0.0
 40
0.0
 40
0.0
 40
0.2
 40
0.2
 40
0.2
 40
0.2
 40
0.4
 40
0.4
 40
0.4
 40
0.4
 40
0.6
 40
0.6
 40
0.6
 40
0.6
 40
1.0
 40
1.0
 40
1.0
 40
1.0
 10
49.8898
 20
-36.7308
 30
0.0
 10
49.8898
 20
-36.7308
 30
0.0
 10
72.7166
 20
-36.7308
 30
0.0
 10
72.7166
 20
-36.7308
 30
0.0
 10
72.7166
 20
-36.7308
 30
0.0
 10
72.7166
 20
-36.7308
 30
0.0
 10
72.7166
 20
-32.1654
 30
0.0
 10
72.7166
 20
-32.1654
 30
0.0
 10
72.7166
 20
-32.1654
 30
0.0
 10
72.7166
 20
-32.1654
 30
0.0
 10
49.8898
 20
-32.1654
 30
0.0
 10
49.8898
 20
-32.1654
 30
0.0
 10
49.8898
 20
-32.1654
 30
0.0
 10
49.8898
 20
-32.1654
 30
0.0
 10
49.8898
 20
-36.7308
 30
0.0
 10
49.8898
 20
-36.7308
 30
0.0
  0
SPLINE
  5
A8
330
1F
100
AcDbEntity
  8
layer 1
 62
     7
100
AcDbSpline
210
0.0
220
0.0
230
1.0
 70
    11
 71
     3
 72
    20
 73
    16
 74
     0
 42
0.0000000001
 43
0.0000000001
 12
1.0
 22
0.0
 32
0.0
 13
1.0
 23
0.0
 33
0.0
 40
0.0
 40
0.0
 40
0.0
 40
0.0
 40
0.2
 40
0.2
 40
0.2
 40
0.2
 40
0.4
 40
0.4
 40
0.4
 40
0.4
 40
0.6
 40
0.6
 40
0.6
 40
0.6
 40
1.0
 40
1.0
 40
1.0
 40
1.0
 10
49.8898
 20
-41.3461
 30
0.0
 10
49.8898
 20
-41.3461
 30
0.0
 10
55.0023
 20
-41.3461
 30
0.0
 10
55.0023
 20
-41.3461
 30
0.0
 10
55.0023
 20
-41.3461
 30
0.0
 10
55.0023
 20
-41.3461
 30
0.0
 10
55.0023
 20
-64.1729
 30
0.0
 10
55.0023
 20
-64.1729
 30
0.0
 10
55.0023
 20
-64.1729
 30
0.0
 10
55.0023
 20
-64.1729
 30
0.0
 10
49.8898
 20
-64.1729
 30
0.0
 10
49.8898
 20
-64.1729
 30
0.0
 10
49.8898
 20
-64.1729
 30
0.0
 10
49.8898
 20
-64.1729
 30
0.0
 10
49.8898
 20
-41.3461
 30
0.0
 10
49.8898
 20
-41.3461
 30
0.0
  0
SPLINE
  5
A9
330
1F
100
AcDbEntity
  8
layer 1
 62
     7
100
AcDbSpline
210
0.0
220
0.0
230
1.0
 70
    11
 71
     3
 72
    20
 73
    16
 74
     0
 42
0.0000000001
 43
0.0000000001
 12
1.0
 22
0.0
 32
0.0
 13
1.0
 23
0.0
 33
0.0
 40
0.0
 40
0.0
 40
0.0
 40
0.0
 40
0.2
 40
0.2
 40
0.2
 40
0.2
 40
0.4
 40
0.4
 40
0.4
 40
0.4
 40
0.6
 40
0.6
 40
0.6
 40
0.6
 40
1.0
 40
1.0
 40
1.0
 40
1.0
 10
59.0245
 20
-45.8652
 30
0.0
 10
59.0245
 20
-45.8652
 30
0.0
 10
81.8513
 20
-45.8652
 30
0.0
 10
81.8513
 20
-45.8652
 30
0.0
 10
81.8513
 20
-45.8652
 30
0.0
 10
81.8513
 20
-45.8652
 30
0.0
 10
81.8513
 20
-41.3009
 30
0.0
 10
81.8513
 20
-41.3009
 30
0.0
 10
81.8513
 20
-41.3009
 30
0.0
 10
81.8513
 20
-41.3009
 30
0.0
 10
59.0245
 20
-41.3009
 30
0.0
 10
59.0245
 20
-41.3009
 30
0.0
 10
59.0245
 20
-41.3009
 30
0.0
 10
59.0245
 20
-41.3009
 30
0.0
 10
59.0245
 20
-45.8652
 30
0.0
 10
59.0245
 20
-45.8652
 30
0.0
  0
SPLINE
  5
AA
330
1F
100
AcDbEntity
  8
layer 1
 62
     7
100
AcDbSpline
210
0.0
220
0.0
230
1.0
 70
    11
 71
     3
 72
    20
 73
    16
 74
     0
 42
0.0000000001
 43
0.0000000001
 12
1.0
 22
0.0
 32
0.0
 13
1.0
 23
0.0
 33
0.0
 40
0.0
 40
0.0
 40
0.0
 40
0.0
 40
0.2
 40
0.2
 40
0.2
 40
0.2
 40
0.4
 40
0.4
 40
0.4
 40
0.4
 40
0.6
 40
0.6
 40
0.6
 40
0.6
 40
1.0
 40
1.0
 40
1.0
 40
1.0
 10
59.0245
 20
-50.4808
 30
0.0
 10
59.0245
 20
-50.4808
 30
0.0
 10
64.1369
 20
-50.4808
 30
0.0
 10
64.1369
 20
-50.4808
 30
0.0
 10
64.1369
 20
-50.4808
 30
0.0
 10
64.1369
 20
-50.4808
 30
0.0
 10
64.1369
 20
-73.3076
 30
0.0
 10
64.1369
 20
-73.3076
 30
0.0
 10
64.1369
 20
-73.3076
 30
0.0
 10
64.1369
 20
-73.3076
 30
0.0
 10
59.0245
 20
-73.3076
 30
0.0
 10
59.0245
 20
-73.3076
 30
0.0
 10
59.0245
 20
-73.3076
 30
0.0
 10
59.0245
 20
-73.3076
 30
0.0
 10
59.0245
 20
-50.4808
 30
0.0
 10
59.0245
 20
-50.4808
 30
0.0
  0
SPLINE
  5
AB
330
1F
100
AcDbEntity
  8
layer 1
 62
     7
100
AcDbSpline
210
0.0
220
0.0
230
1.0
 70
    11
 71
     3
 72
    20
 73
    16
 74
     0
 42
0.0000000001
 43
0.0000000001
 12
1.0
 22
0.0
 32
0.0
 13
1.0
 23
0.0
 33
0.0
 40
0.0
 40
0.0
 40
0.0
 40
0.0
 40
0.2
 40
0.2
 40
0.2
 40
0.2
 40
0.4
 40
0.4
 40
0.4
 40
0.4
 40
0.6
 40
0.6
 40
0.6
 40
0.6
 40
1.0
 40
1.0
 40
1.0
 40
1.0
 10
68.1591
 20
-54.9998
 30
0.0
 10
68.1591
 20
-54.9998
 30
0.0
 10
90.9859
 20
-54.9998
 30
0.0
 10
90.9859
 20
-54.9998
 30
0.0
 10
90.9859
 20
-54.9998
 30
0.0
 10
90.9859
 20
-54.9998
 30
0.0
 10
90.9859
 20
-50.4355
 30
0.0
 10
90.9859
 20
-50.4355
 30
0.0
 10
90.9859
 20
-50.4355
 30
0.0
 10
90.9859
 20
-50.4355
 30
0.0
 10
68.1591
 20
-50.4355
 30
0.0
 10
68.1591
 20
-50.4355
 30
0.0
 10
68.1591
 20
-50.4355
 30
0.0
 10
68.1591
 20
-50.4355
 30
0.0
 10
68.1591
 20
-54.9998
 30
0.0
 10
68.1591
 20
-54.9998
 30
0.0
  0
SPLINE
  5
AC
330
1F
100
AcDbEntity
  8
layer 1
 62
     7
100
AcDbSpline
210
0.0
220
0.0
230
1.0
 70
    11
 71
     3
 72
    20
 73
    16
 74
     0
 42
0.0000000001
 43
0.0000000001
 12
1.0
 22
0.0
 32
0.0
 13
1.0
 23
0.0
 33
0.0
 40
0.0
 40
0.0
 40
0.0
 40
0.0
 40
0.2
 40
0.2
 40
0.2
 40
0.2
 40
0.4
 40
0.4
 40
0.4
 40
0.4
 40
0.6
 40
0.6
 40
0.6
 40
0.6
 40
1.0
 40
1.0
 40
1.0
 40
1.0
 10
68.1591
 20
-59.6154
 30
0.0
 10
68.1591
 20
-59.6154
 30
0.0
 10
73.2715
 20
-59.6154
 30
0.0
 10
73.2715
 20
-59.6154
 30
0.0
 10
73.2715
 20
-59.6154
 30
0.0
 10
73.2715
 20
-59.6154
 30
0.0
 10
73.2715
 20
-82.4422
 30
0.0
 10
73.2715
 20
-82.4422
 30
0.0
 10
73.2715
 20
-82.4422
 30
0.0
 10
73.2715
 20
-82.4422
 30
0.0
 10
68.1591
 20
-82.4422
 30
0.0
 10
68.1591
 20
-82.4422
 30
0.0
 10
68.1591
 20
-82.4422
 30
0.0
 10
68.1591
 20
-82.4422
 30
0.0
 10
68.1591
 20
-59.6154
 30
0.0
 10
68.1591
 20
-59.6154
 30
0.0
  0
SPLINE
  5
AD
330
1F
100
AcDbEntity
  8
layer 1
 62
     7
100
AcDbSpline
210
0.0
220
0.0
230
1.0
 70
    11
 71
     3
 72
    20
 73
    16
 74
     0
 42
0.0000000001
 43
0.0000000001
 12
1.0
 22
0.0
 32
0.0
 13
1.0
 23
0.0
 33
0.0
 40
0.0
 40
0.0
 40
0.0
 40
0.0
 40
0.2
 40
0.2
 40
0.2
 40
0.2
 40
0.4
 40
0.4
 40
0.4
 40
0.4
 40
0.6
 40
0.6
 40
0.6
 40
0.6
 40
1.0
 40
1.0
 40
1.0
 40
1.0
 10
77.2937
 20
-64.1345
 30
0.0
 10
77.2937
 20
-64.1345
 30
0.0
 10
100.1206
 20
-64.1345
 30
0.0
 10
100.1206
 20
-64.1345
 30
0.0
 10
100.1206
 20
-64.1345
 30
0.0
 10
100.1206
 20
-64.1345
 30
0.0
 10
100.1206
 20
-59.5702
 30
0.0
 10
100.1206
 20
-59.5702
 30
0.0
 10
100.1206
 20
-59.5702
 30
0.0
 10
100.1206
 20
-59.5702
 30
0.0
 10
77.2937
 20
-59.5702
 30
0.0
 10
77.2937
 20
-59.5702
 30
0.0
 10
77.2937
 20
-59.5702
 30
0.0
 10
77.2937
 20
-59.5702
 30
0.0
 10
77.2937
 20
-64.1345
 30
0.0
 10
77.2937
 20
-64.1345
 30
0.0
  0
SPLINE
  5
AE
330
1F
100
AcDbEntity
  8
layer 1
 62
     7
100
AcDbSpline
210
0.0
220
0.0
230
1.0
 70
    11
 71
     3
 72
    20
 73
    16
 74
     0
 42
0.0000000001
 43
0.0000000001
 12
1.0
 22
0.0
 32
0.0
 13
1.0
 23
0.0
 33
0.0
 40
0.0
 40
0.0
 40
0.0
 40
0.0
 40
0.2
 40
0.2
 40
0.2
 40
0.2
 40
0.4
 40
0.4
 40
0.4
 40
0.4
 40
0.6
 40
0.6
 40
0.6
 40
0.6
 40
1.0
 40
1.0
 40
1.0
 40
1.0
 10
77.2937
 20
-68.7114
 30
0.0
 10
77.2937
 20
-68.7114
 30
0.0
 10
82.4062
 20
-68.7114
 30
0.0
 10
82.4062
 20
-68.7114
 30
0.0
 10
82.4062
 20
-68.7114
 30
0.0
 10
82.4062
 20
-68.7114
 30
0.0
 10
82.4062
 20
-91.5384
 30
0.0
 10
82.4062
 20
-91.5384
 30
0.0
 10
82.4062
 20
-91.5384
 30
0.0
 10
82.4062
 20
-91.5384
 30
0.0
 10
77.2937
 20
-91.5384
 30
0.0
 10
77.2937
 20
-91.5384
 30
0.0
 10
77.2937
 20
-91.5384
 30
0.0
 10
77.2937
 20
-91.5384
 30
0.0
 10
77.2937
 20
-68.7114
 30
0.0
 10
77.2937
 20
-68.7114
 30
0.0
  0
SPLINE
  5
AF
330
1F
100
AcDbEntity
  8
layer 1
 62
     7
100
AcDbSpline
210
0.0
220
0.0
230
1.0
 70
    11
 71
     3
 72
    20
 73
    16
 74
     0
 42
0.0000000001
 43
0.0000000001
 12
1.0
 22
0.0
 32
0.0
 13
1.0
 23
0.0
 33
0.0
 40
0.0
 40
0.0
 40
0.0
 40
0.0
 40
0.2
 40
0.2
 40
0.2
 40
0.2
 40
0.4
 40
0.4
 40
0.4
 40
0.4
 40
0.6
 40
0.6
 40
0.6
 40
0.6
 40
1.0
 40
1.0
 40
1.0
 40
1.0
 10
86.4284
 20
-73.2787
 30
0.0
 10
86.4284
 20
-73.2787
 30
0.0
 10
109.2552
 20
-73.2787
 30
0.0
 10
109.2552
 20
-73.2787
 30
0.0
 10
109.2552
 20
-73.2787
 30
0.0
 10
109.2552
 20
-73.2787
 30
0.0
 10
109.2552
 20
-68.7144
 30
0.0
 10
109.2552
 20
-68.7144
 30
0.0
 10
109.2552
 20
-68.7144
 30
0.0
 10
109.2552
 20
-68.7144
 30
0.0
 10
86.4284
 20
-68.7144
 30
0.0
 10
86.4284
 20
-68.7144
 30
0.0
 10
86.4284
 20
-68.7144
 30
0.0
 10
86.4284
 20
-68.7144
 30
0.0
 10
86.4284
 20
-73.2787
 30
0.0
 10
86.4284
 20
-73.2787
 30
0.0
  0
SPLINE
  5
B0
330
1F
100
AcDbEntity
  8
layer 1
 62
     7
100
AcDbSpline
210
0.0
220
0.0
230
1.0
 70
    11
 71
     3
 72
    20
 73
    16
 74
     0
 42
0.0000000001
 43
0.0000000001
 12
1.0
 22
0.0
 32
0.0
 13
1.0
 23
0.0
 33
0.0
 40
0.0
 40
0.0
 40
0.0
 40
0.0
 40
0.2
 40
0.2
 40
0.2
 40
0.2
 40
0.4
 40
0.4
 40
0.4
 40
0.4
 40
0.6
 40
0.6
 40
0.6
 40
0.6
 40
1.0
 40
1.0
 40
1.0
 40
1.0
 10
86.4284
 20
-77.8365
 30
0.0
 10
86.4284
 20
-77.8365
 30
0.0
 10
91.5408
 20
-77.8365
 30
0.0
 10
91.5408
 20
-77.8365
 30
0.0
 10
91.5408
 20
-77.8365
 30
0.0
 10
91.5408
 20
-77.8365
 30
0.0
 10
91.5408
 20
-100.6635
 30
0.0
 10
91.5408
 20
-100.6635
 30
0.0
 10
91.5408
 20
-100.6635
 30
0.0
 10
91.5408
 20
-100.6635
 30
0.0
 10
86.4284
 20
-100.6635
 30
0.0
 10
86.4284
 20
-100.6635
 30
0.0
 10
86.4284
 20
-100.6635
 30
0.0
 10
86.4284
 20
-100.6635
 30
0.0
 10
86.4284
 20
-77.8365
 30
0.0
 10
86.4284
 20
-77.8365
 30
0.0
  0
SPLINE
  5
B1
330
1F
100
AcDbEntity
  8
layer 1
 62
     7
100
AcDbSpline
210
0.0
220
0.0
230
1.0
 70
    11
 71
     3
 72
    20
 73
    16
 74
     0
 42
0.0000000001
 43
0.0000000001
 12
1.0
 22
0.0
 32
0.0
 13
1.0
 23
0.0
 33
0.0
 40
0.0
 40
0.0
 40
0.0
 40
0.0
 40
0.2
 40
0.2
 40
0.2
 40
0.2
 40
0.4
 40
0.4
 40
0.4
 40
0.4
 40
0.6
 40
0.6
 40
0.6
 40
0.6
 40
1.0
 40
1.0
 40
1.0
 40
1.0
 10
95.5628
 20
-82.4038
 30
0.0
 10
95.5628
 20
-82.4038
 30
0.0
 10
118.3898
 20
-82.4038
 30
0.0
 10
118.3898
 20
-82.4038
 30
0.0
 10
118.3898
 20
-82.4038
 30
0.0
 10
118.3898
 20
-82.4038
 30
0.0
 10
118.3898
 20
-77.8395
 30
0.0
 10
118.3898
 20
-77.8395
 30
0.0
 10
118.3898
 20
-77.8395
 30
0.0
 10
118.3898
 20
-77.8395
 30
0.0
 10
95.5628
 20
-77.8395
 30
0.0
 10
95.5628
 20
-77.8395
 30
0.0
 10
95.5628
 20
-77.8395
 30
0.0
 10
95.5628
 20
-77.8395
 30
0.0
 10
95.5628
 20
-82.4038
 30
0.0
 10
95.5628
 20
-82.4038
 30
0.0
  0
SPLINE
  5
B2
330
1F
100
AcDbEntity
  8
layer 1
 62
     7
100
AcDbSpline
210
0.0
220
0.0
230
1.0
 70
    11
 71
     3
 72
    20
 73
    16
 74
     0
 42
0.0000000001
 43
0.0000000001
 12
1.0
 22
0.0
 32
0.0
 13
1.0
 23
0.0
 33
0.0
 40
0.0
 40
0.0
 40
0.0
 40
0.0
 40
0.2
 40
0.2
 40
0.2
 40
0.2
 40
0.4
 40
0.4
 40
0.4
 40
0.4
 40
0.6
 40
0.6
 40
0.6
 40
0.6
 40
1.0
 40
1.0
 40
1.0
 40
1.0
 10
95.5628
 20
-86.9711
 30
0.0
 10
95.5628
 20
-86.9711
 30
0.0
 10
100.6755
 20
-86.9711
 30
0.0
 10
100.6755
 20
-86.9711
 30
0.0
 10
100.6755
 20
-86.9711
 30
0.0
 10
100.6755
 20
-86.9711
 30
0.0
 10
100.6755
 20
-109.7979
 30
0.0
 10
100.6755
 20
-109.7979
 30
0.0
 10
100.6755
 20
-109.7979
 30
0.0
 10
100.6755
 20
-109.7979
 30
0.0
 10
95.5628
 20
-109.7979
 30
0.0
 10
95.5628
 20
-109.7979
 30
0.0
 10
95.5628
 20
-109.7979
 30
0.0
 10
95.5628
 20
-109.7979
 30
0.0
 10
95.5628
 20
-86.9711
 30
0.0
 10
95.5628
 20
-86.9711
 30
0.0
  0
SPLINE
  5
B3
330
1F
100
AcDbEntity
  8
layer 1
 62
     7
100
AcDbSpline
210
0.0
220
0.0
230
1.0
 70
    11
 71
     3
 72
    20
 73
    16
 74
     0
 42
0.0000000001
 43
0.0000000001
 12
1.0
 22
0.0
 32
0.0
 13
1.0
 23
0.0
 33
0.0
 40
0.0
 40
0.0
 40
0.0
 40
0.0
 40
0.2
 40
0.2
 40
0.2
 40
0.2
 40
0.4
 40
0.4
 40
0.4
 40
0.4
 40
0.6
 40
0.6
 40
0.6
 40
0.6
 40
1.0
 40
1.0
 40
1.0
 40
1.0
 10
104.6974
 20
-91.5384
 30
0.0
 10
104.6974
 20
-91.5384
 30
0.0
 10
127.5245
 20
-91.5384
 30
0.0
 10
127.5245
 20
-91.5384
 30
0.0
 10
127.5245
 20
-91.5384
 30
0.0
 10
127.5245
 20
-91.5384
 30
0.0
 10
127.5245
 20
-86.9741
 30
0.0
 10
127.5245
 20
-86.9741
 30
0.0
 10
127.5245
 20
-86.9741
 30
0.0
 10
127.5245
 20
-86.9741
 30
0.0
 10
104.6974
 20
-86.9741
 30
0.0
 10
104.6974
 20
-86.9741
 30
0.0
 10
104.6974
 20
-86.9741
 30
0.0
 10
104.6974
 20
-86.9741
 30
0.0
 10
104.6974
 20
-91.5384
 30
0.0
 10
104.6974
 20
-91.5384
 30
0.0
  0
SPLINE
  5
B4
330
1F
100
AcDbEntity
  8
layer 1
 62
     7
100
AcDbSpline
210
0.0
220
0.0
230
1.0
 70
    11
 71
     3
 72
    20
 73
    16
 74
     0
 42
0.0000000001
 43
0.0000000001
 12
1.0
 22
0.0
 32
0.0
 13
1.0
 23
0.0
 33
0.0
 40
0.0
 40
0.0
 40
0.0
 40
0.0
 40
0.2
 40
0.2
 40
0.2
 40
0.2
 40
0.4
 40
0.4
 40
0.4
 40
0.4
 40
0.6
 40
0.6
 40
0.6
 40
0.6
 40
1.0
 40
1.0
 40
1.0
 40
1.0
 10
104.6974
 20
-96.0962
 30
0.0
 10
104.6974
 20
-96.0962
 30
0.0
 10
109.8101
 20
-96.0962
 30
0.0
 10
109.8101
 20
-96.0962
 30
0.0
 10
109.8101
 20
-96.0962
 30
0.0
 10
109.8101
 20
-96.0962
 30
0.0
 10
109.8101
 20
-109.7884
 30
0.0
 10
109.8101
 20
-109.7884
 30
0.0
 10
109.8101
 20
-109.7884
 30
0.0
 10
109.8101
 20
-109.7884
 30
0.0
 10
104.6974
 20
-109.7884
 30
0.0
 10
104.6974
 20
-109.7884
 30
0.0
 10
104.6974
 20
-109.7884
 30
0.0
 10
104.6974
 20
-109.7884
 30
0.0
 10
104.6974
 20
-96.0962
 30
0.0
 10
104.6974
 20
-96.0962
 30
0.0
  0
SPLINE
  5
B5
330
1F
100
AcDbEntity
  8
layer 1
 62
     7
100
AcDbSpline
210
0.0
220
0.0
230
1.0
 70
    11
 71
     3
 72
    20
 73
    16
 74
     0
 42
0.0000000001
 43
0.0000000001
 12
1.0
 22
0.0
 32
0.0
 13
1.0
 23
0.0
 33
0.0
 40
0.0
 40
0.0
 40
0.0
 40
0.0
 40
0.2
 40
0.2
 40
0.2
 40
0.2
 40
0.4
 40
0.4
 40
0.4
 40
0.4
 40
0.6
 40
0.6
 40
0.6
 40
0.6
 40
1.0
 40
1.0
 40
1.0
 40
1.0
 10
113.7358
 20
-100.6635
 30
0.0
 10
113.7358
 20
-100.6635
 30
0.0
 10
136.5629
 20
-100.6635
 30
0.0
 10
136.5629
 20
-100.6635
 30
0.0
 10
136.5629
 20
-100.6635
 30
0.0
 10
136.5629
 20
-100.6635
 30
0.0
 10
136.5629
 20
-96.0989
 30
0.0
 10
136.5629
 20
-96.0989
 30
0.0
 10
136.5629
 20
-96.0989
 30
0.0
 10
136.5629
 20
-96.0989
 30
0.0
 10
113.7358
 20
-96.0989
 30
0.0
 10
113.7358
 20
-96.0989
 30
0.0
 10
113.7358
 20
-96.0989
 30
0.0
 10
113.7358
 20
-96.0989
 30
0.0
 10
113.7358
 20
-100.6635
 30
0.0
 10
113.7358
 20
-100.6635
 30
0.0
  0
SPLINE
  5
B6
330
1F
100
AcDbEntity
  8
layer 1
 62
     7
100
AcDbSpline
210
0.0
220
0.0
230
1.0
 70
    11
 71
     3
 72
    20
 73
    16
 74
     0
 42
0.0000000001
 43
0.0000000001
 12
1.0
 22
0.0
 32
0.0
 13
1.0
 23
0.0
 33
0.0
 40
0.0
 40
0.0
 40
0.0
 40
0.0
 40
0.2
 40
0.2
 40
0.2
 40
0.2
 40
0.4
 40
0.4
 40
0.4
 40
0.4
 40
0.6
 40
0.6
 40
0.6
 40
0.6
 40
1.0
 40
1.0
 40
1.0
 40
1.0
 10
113.7358
 20
-105.2306
 30
0.0
 10
113.7358
 20
-105.2306
 30
0.0
 10
118.8486
 20
-105.2306
 30
0.0
 10
118.8486
 20
-105.2306
 30
0.0
 10
118.8486
 20
-105.2306
 30
0.0
 10
118.8486
 20
-105.2306
 30
0.0
 10
118.8486
 20
-109.7952
 30
0.0
 10
118.8486
 20
-109.7952
 30
0.0
 10
118.8486
 20
-109.7952
 30
0.0
 10
118.8486
 20
-109.7952
 30
0.0
 10
113.7358
 20
-109.7952
 30
0.0
 10
113.7358
 20
-109.7952
 30
0.0
 10
113.7358
 20
-109.7952
 30
0.0
 10
113.7358
 20
-109.7952
 30
0.0
 10
113.7358
 20
-105.2306
 30
0.0
 10
113.7358
 20
-105.2306
 30
0.0
  0
SPLINE
  5
B7
330
1F
100
AcDbEntity
  8
layer 1
 62
     7
100
AcDbSpline
210
0.0
220
0.0
230
1.0
 70
    11
 71
     3
 72
    20
 73
    16
 74
     0
 42
0.0000000001
 43
0.0000000001
 12
1.0
 22
0.0
 32
0.0
 13
1.0
 23
0.0
 33
0.0
 40
0.0
 40
0.0
 40
0.0
 40
0.0
 40
0.2
 40
0.2
 40
0.2
 40
0.2
 40
0.4
 40
0.4
 40
0.4
 40
0.4
 40
0.6
 40
0.6
 40
0.6
 40
0.6
 40
1.0
 40
1.0
 40
1.0
 40
1.0
 10
122.8705
 20
-109.7884
 30
0.0
 10
122.8705
 20
-109.7884
 30
0.0
 10
145.6976
 20
-109.7884
 30
0.0
 10
145.6976
 20
-109.7884
 30
0.0
 10
145.6976
 20
-109.7884
 30
0.0
 10
145.6976
 20
-109.7884
 30
0.0
 10
145.6976
 20
-105.224
 30
0.0
 10
145.6976
 20
-105.224
 30
0.0
 10
145.6976
 20
-105.224
 30
0.0
 10
145.6976
 20
-105.224
 30
0.0
 10
122.8705
 20
-105.224
 30
0.0
 10
122.8705
 20
-105.224
 30
0.0
 10
122.8705
 20
-105.224
 30
0.0
 10
122.8705
 20
-105.224
 30
0.0
 10
122.8705
 20
-109.7884
 30
0.0
 10
122.8705
 20
-109.7884
 30
0.0
  0
SPLINE
  5
B8
330
1F
100
AcDbEntity
  8
layer 1
 62
     7
100
AcDbSpline
210
0.0
220
0.0
230
1.0
 70
    11
 71
     3
 72
    20
 73
    16
 74
     0
 42
0.0000000001
 43
0.0000000001
 12
1.0
 22
0.0
 32
0.0
 13
1.0
 23
0.0
 33
0.0
 40
0.0
 40
0.0
 40
0.0
 40
0.0
 40
0.2
 40
0.2
 40
0.2
 40
0.2
 40
0.4
 40
0.4
 40
0.4
 40
0.4
 40
0.6
 40
0.6
 40
0.6
 40
0.6
 40
1.0
 40
1.0
 40
1.0
 40
1.0
 10
168.5437
 20
-105.2306
 30
0.0
 10
168.5437
 20
-105.2306
 30
0.0
 10
173.6562
 20
-105.2306
 30
0.0
 10
173.6562
 20
-105.2306
 30
0.0
 10
173.6562
 20
-105.2306
 30
0.0
 10
173.6562
 20
-105.2306
 30
0.0
 10
173.6562
 20
-109.7952
 30
0.0
 10
173.6562
 20
-109.7952
 30
0.0
 10
173.6562
 20
-109.7952
 30
0.0
 10
173.6562
 20
-109.7952
 30
0.0
 10
168.5437
 20
-109.7952
 30
0.0
 10
168.5437
 20
-109.7952
 30
0.0
 10
168.5437
 20
-109.7952
 30
0.0
 10
168.5437
 20
-109.7952
 30
0.0
 10
168.5437
 20
-105.2306
 30
0.0
 10
168.5437
 20
-105.2306
 30
0.0
  0
SPLINE
  5
B9
330
1F
100
AcDbEntity
  8
layer 1
 62
     7
100
AcDbSpline
210
0.0
220
0.0
230
1.0
 70
    11
 71
     3
 72
    20
 73
    16
 74
     0
 42
0.0000000001
 43
0.0000000001
 12
1.0
 22
0.0
 32
0.0
 13
1.0
 23
0.0
 33
0.0
 40
0.0
 40
0.0
 40
0.0
 40
0.0
 40
0.2
 40
0.2
 40
0.2
 40
0.2
 40
0.4
 40
0.4
 40
0.4
 40
0.4
 40
0.6
 40
0.6
 40
0.6
 40
0.6
 40
1.0
 40
1.0
 40
1.0
 40
1.0
 10
177.6784
 20
-109.7884
 30
0.0
 10
177.6784
 20
-109.7884
 30
0.0
 10
191.6494
 20
-109.7884
 30
0.0
 10
191.6494
 20
-109.7884
 30
0.0
 10
191.6494
 20
-109.7884
 30
0.0
 10
191.6494
 20
-109.7884
 30
0.0
 10
191.6494
 20
-105.224
 30
0.0
 10
191.6494
 20
-105.224
 30
0.0
 10
191.6494
 20
-105.224
 30
0.0
 10
191.6494
 20
-105.224
 30
0.0
 10
177.6784
 20
-105.224
 30
0.0
 10
177.6784
 20
-105.224
 30
0.0
 10
177.6784
 20
-105.224
 30
0.0
 10
177.6784
 20
-105.224
 30
0.0
 10
177.6784
 20
-109.7884
 30
0.0
 10
177.6784
 20
-109.7884
 30
0.0
  0
SPLINE
  5
BA
330
1F
100
AcDbEntity
  8
layer 1
 62
     7
100
AcDbSpline
210
0.0
220
0.0
230
1.0
 70
    11
 71
     3
 72
    20
 73
    16
 74
     0
 42
0.0000000001
 43
0.0000000001
 12
1.0
 22
0.0
 32
0.0
 13
1.0
 23
0.0
 33
0.0
 40
0.0
 40
0.0
 40
0.0
 40
0.0
 40
0.2
 40
0.2
 40
0.2
 40
0.2
 40
0.4
 40
0.4
 40
0.4
 40
0.4
 40
0.6
 40
0.6
 40
0.6
 40
0.6
 40
1.0
 40
1.0
 40
1.0
 40
1.0
 10
159.4091
 20
-96.0962
 30
0.0
 10
159.4091
 20
-96.0962
 30
0.0
 10
164.5215
 20
-96.0962
 30
0.0
 10
164.5215
 20
-96.0962
 30
0.0
 10
164.5215
 20
-96.0962
 30
0.0
 10
164.5215
 20
-96.0962
 30
0.0
 10
164.5215
 20
-109.7884
 30
0.0
 10
164.5215
 20
-109.7884
 30
0.0
 10
164.5215
 20
-109.7884
 30
0.0
 10
164.5215
 20
-109.7884
 30
0.0
 10
159.4091
 20
-109.7884
 30
0.0
 10
159.4091
 20
-109.7884
 30
0.0
 10
159.4091
 20
-109.7884
 30
0.0
 10
159.4091
 20
-109.7884
 30
0.0
 10
159.4091
 20
-96.0962
 30
0.0
 10
159.4091
 20
-96.0962
 30
0.0
  0
SPLINE
  5
BB
330
1F
100
AcDbEntity
  8
layer 1
 62
     7
100
AcDbSpline
210
0.0
220
0.0
230
1.0
 70
    11
 71
     3
 72
    20
 73
    16
 74
     0
 42
0.0000000001
 43
0.0000000001
 12
1.0
 22
0.0
 32
0.0
 13
1.0
 23
0.0
 33
0.0
 40
0.0
 40
0.0
 40
0.0
 40
0.0
 40
0.2
 40
0.2
 40
0.2
 40
0.2
 40
0.4
 40
0.4
 40
0.4
 40
0.4
 40
0.6
 40
0.6
 40
0.6
 40
0.6
 40
1.0
 40
1.0
 40
1.0
 40
1.0
 10
168.5437
 20
-100.6635
 30
0.0
 10
168.5437
 20
-100.6635
 30
0.0
 10
191.3705
 20
-100.6635
 30
0.0
 10
191.3705
 20
-100.6635
 30
0.0
 10
191.3705
 20
-100.6635
 30
0.0
 10
191.3705
 20
-100.6635
 30
0.0
 10
191.3705
 20
-96.0989
 30
0.0
 10
191.3705
 20
-96.0989
 30
0.0
 10
191.3705
 20
-96.0989
 30
0.0
 10
191.3705
 20
-96.0989
 30
0.0
 10
168.5437
 20
-96.0989
 30
0.0
 10
168.5437
 20
-96.0989
 30
0.0
 10
168.5437
 20
-96.0989
 30
0.0
 10
168.5437
 20
-96.0989
 30
0.0
 10
168.5437
 20
-100.6635
 30
0.0
 10
168.5437
 20
-100.6635
 30
0.0
  0
SPLINE
  5
BC
330
1F
100
AcDbEntity
  8
layer 1
 62
     7
100
AcDbSpline
210
0.0
220
0.0
230
1.0
 70
    11
 71
     3
 72
    20
 73
    16
 74
     0
 42
0.0000000001
 43
0.0000000001
 12
1.0
 22
0.0
 32
0.0
 13
1.0
 23
0.0
 33
0.0
 40
0.0
 40
0.0
 40
0.0
 40
0.0
 40
0.2
 40
0.2
 40
0.2
 40
0.2
 40
0.4
 40
0.4
 40
0.4
 40
0.4
 40
0.6
 40
0.6
 40
0.6
 40
0.6
 40
1.0
 40
1.0
 40
1.0
 40
1.0
 10
150.2744
 20
-86.9711
 30
0.0
 10
150.2744
 20
-86.9711
 30
0.0
 10
155.3869
 20
-86.9711
 30
0.0
 10
155.3869
 20
-86.9711
 30
0.0
 10
155.3869
 20
-86.9711
 30
0.0
 10
155.3869
 20
-86.9711
 30
0.0
 10
155.3869
 20
-109.7979
 30
0.0
 10
155.3869
 20
-109.7979
 30
0.0
 10
155.3869
 20
-109.7979
 30
0.0
 10
155.3869
 20
-109.7979
 30
0.0
 10
150.2744
 20
-109.7979
 30
0.0
 10
150.2744
 20
-109.7979
 30
0.0
 10
150.2744
 20
-109.7979
 30
0.0
 10
150.2744
 20
-109.7979
 30
0.0
 10
150.2744
 20
-86.9711
 30
0.0
 10
150.2744
 20
-86.9711
 30
0.0
  0
SPLINE
  5
BD
330
1F
100
AcDbEntity
  8
layer 1
 62
     7
100
AcDbSpline
210
0.0
220
0.0
230
1.0
 70
    11
 71
     3
 72
    20
 73
    16
 74
     0
 42
0.0000000001
 43
0.0000000001
 12
1.0
 22
0.0
 32
0.0
 13
1.0
 23
0.0
 33
0.0
 40
0.0
 40
0.0
 40
0.0
 40
0.0
 40
0.2
 40
0.2
 40
0.2
 40
0.2
 40
0.4
 40
0.4
 40
0.4
 40
0.4
 40
0.6
 40
0.6
 40
0.6
 40
0.6
 40
1.0
 40
1.0
 40
1.0
 40
1.0
 10
159.4091
 20
-91.5384
 30
0.0
 10
159.4091
 20
-91.5384
 30
0.0
 10
182.2359
 20
-91.5384
 30
0.0
 10
182.2359
 20
-91.5384
 30
0.0
 10
182.2359
 20
-91.5384
 30
0.0
 10
182.2359
 20
-91.5384
 30
0.0
 10
182.2359
 20
-86.9741
 30
0.0
 10
182.2359
 20
-86.9741
 30
0.0
 10
182.2359
 20
-86.9741
 30
0.0
 10
182.2359
 20
-86.9741
 30
0.0
 10
159.4091
 20
-86.9741
 30
0.0
 10
159.4091
 20
-86.9741
 30
0.0
 10
159.4091
 20
-86.9741
 30
0.0
 10
159.4091
 20
-86.9741
 30
0.0
 10
159.4091
 20
-91.5384
 30
0.0
 10
159.4091
 20
-91.5384
 30
0.0
  0
SPLINE
  5
BE
330
1F
100
AcDbEntity
  8
layer 1
 62
     7
100
AcDbSpline
210
0.0
220
0.0
230
1.0
 70
    11
 71
     3
 72
    20
 73
    16
 74
     0
 42
0.0000000001
 43
0.0000000001
 12
1.0
 22
0.0
 32
0.0
 13
1.0
 23
0.0
 33
0.0
 40
0.0
 40
0.0
 40
0.0
 40
0.0
 40
0.2
 40
0.2
 40
0.2
 40
0.2
 40
0.4
 40
0.4
 40
0.4
 40
0.4
 40
0.6
 40
0.6
 40
0.6
 40
0.6
 40
1.0
 40
1.0
 40
1.0
 40
1.0
 10
141.1398
 20
-77.8365
 30
0.0
 10
141.1398
 20
-77.8365
 30
0.0
 10
146.2522
 20
-77.8365
 30
0.0
 10
146.2522
 20
-77.8365
 30
0.0
 10
146.2522
 20
-77.8365
 30
0.0
 10
146.2522
 20
-77.8365
 30
0.0
 10
146.2522
 20
-100.6635
 30
0.0
 10
146.2522
 20
-100.6635
 30
0.0
 10
146.2522
 20
-100.6635
 30
0.0
 10
146.2522
 20
-100.6635
 30
0.0
 10
141.1398
 20
-100.6635
 30
0.0
 10
141.1398
 20
-100.6635
 30
0.0
 10
141.1398
 20
-100.6635
 30
0.0
 10
141.1398
 20
-100.6635
 30
0.0
 10
141.1398
 20
-77.8365
 30
0.0
 10
141.1398
 20
-77.8365
 30
0.0
  0
SPLINE
  5
BF
330
1F
100
AcDbEntity
  8
layer 1
 62
     7
100
AcDbSpline
210
0.0
220
0.0
230
1.0
 70
    11
 71
     3
 72
    20
 73
    16
 74
     0
 42
0.0000000001
 43
0.0000000001
 12
1.0
 22
0.0
 32
0.0
 13
1.0
 23
0.0
 33
0.0
 40
0.0
 40
0.0
 40
0.0
 40
0.0
 40
0.2
 40
0.2
 40
0.2
 40
0.2
 40
0.4
 40
0.4
 40
0.4
 40
0.4
 40
0.6
 40
0.6
 40
0.6
 40
0.6
 40
1.0
 40
1.0
 40
1.0
 40
1.0
 10
150.2744
 20
-82.4038
 30
0.0
 10
150.2744
 20
-82.4038
 30
0.0
 10
173.1012
 20
-82.4038
 30
0.0
 10
173.1012
 20
-82.4038
 30
0.0
 10
173.1012
 20
-82.4038
 30
0.0
 10
173.1012
 20
-82.4038
 30
0.0
 10
173.1012
 20
-77.8395
 30
0.0
 10
173.1012
 20
-77.8395
 30
0.0
 10
173.1012
 20
-77.8395
 30
0.0
 10
173.1012
 20
-77.8395
 30
0.0
 10
150.2744
 20
-77.8395
 30
0.0
 10
150.2744
 20
-77.8395
 30
0.0
 10
150.2744
 20
-77.8395
 30
0.0
 10
150.2744
 20
-77.8395
 30
0.0
 10
150.2744
 20
-82.4038
 30
0.0
 10
150.2744
 20
-82.4038
 30
0.0
  0
SPLINE
  5
C0
330
1F
100
AcDbEntity
  8
layer 1
 62
     7
100
AcDbSpline
210
0.0
220
0.0
230
1.0
 70
    11
 71
     3
 72
    20
 73
    16
 74
     0
 42
0.0000000001
 43
0.0000000001
 12
1.0
 22
0.0
 32
0.0
 13
1.0
 23
0.0
 33
0.0
 40
0.0
 40
0.0
 40
0.0
 40
0.0
 40
0.2
 40
0.2
 40
0.2
 40
0.2
 40
0.4
 40
0.4
 40
0.4
 40
0.4
 40
0.6
 40
0.6
 40
0.6
 40
0.6
 40
1.0
 40
1.0
 40
1.0
 40
1.0
 10
132.0051
 20
-68.7114
 30
0.0
 10
132.0051
 20
-68.7114
 30
0.0
 10
137.1176
 20
-68.7114
 30
0.0
 10
137.1176
 20
-68.7114
 30
0.0
 10
137.1176
 20
-68.7114
 30
0.0
 10
137.1176
 20
-68.7114
 30
0.0
 10
137.1176
 20
-91.5384
 30
0.0
 10
137.1176
 20
-91.5384
 30
0.0
 10
137.1176
 20
-91.5384
 30
0.0
 10
137.1176
 20
-91.5384
 30
0.0
 10
132.0051
 20
-91.5384
 30
0.0
 10
132.0051
 20
-91.5384
 30
0.0
 10
132.0051
 20
-91.5384
 30
0.0
 10
132.0051
 20
-91.5384
 30
0.0
 10
132.0051
 20
-68.7114
 30
0.0
 10
132.0051
 20
-68.7114
 30
0.0
  0
SPLINE
  5
C1
330
1F
100
AcDbEntity
  8
layer 1
 62
     7
100
AcDbSpline
210
0.0
220
0.0
230
1.0
 70
    11
 71
     3
 72
    20
 73
    16
 74
     0
 42
0.0000000001
 43
0.0000000001
 12
1.0
 22
0.0
 32
0.0
 13
1.0
 23
0.0
 33
0.0
 40
0.0
 40
0.0
 40
0.0
 40
0.0
 40
0.2
 40
0.2
 40
0.2
 40
0.2
 40
0.4
 40
0.4
 40
0.4
 40
0.4
 40
0.6
 40
0.6
 40
0.6
 40
0.6
 40
1.0
 40
1.0
 40
1.0
 40
1.0
 10
141.1398
 20
-73.2787
 30
0.0
 10
141.1398
 20
-73.2787
 30
0.0
 10
163.9669
 20
-73.2787
 30
0.0
 10
163.9669
 20
-73.2787
 30
0.0
 10
163.9669
 20
-73.2787
 30
0.0
 10
163.9669
 20
-73.2787
 30
0.0
 10
163.9669
 20
-68.7144
 30
0.0
 10
163.9669
 20
-68.7144
 30
0.0
 10
163.9669
 20
-68.7144
 30
0.0
 10
163.9669
 20
-68.7144
 30
0.0
 10
141.1398
 20
-68.7144
 30
0.0
 10
141.1398
 20
-68.7144
 30
0.0
 10
141.1398
 20
-68.7144
 30
0.0
 10
141.1398
 20
-68.7144
 30
0.0
 10
141.1398
 20
-73.2787
 30
0.0
 10
141.1398
 20
-73.2787
 30
0.0
  0
SPLINE
  5
C2
330
1F
100
AcDbEntity
  8
layer 1
 62
     7
100
AcDbSpline
210
0.0
220
0.0
230
1.0
 70
    11
 71
     3
 72
    20
 73
    16
 74
     0
 42
0.0000000001
 43
0.0000000001
 12
1.0
 22
0.0
 32
0.0
 13
1.0
 23
0.0
 33
0.0
 40
0.0
 40
0.0
 40
0.0
 40
0.0
 40
0.2
 40
0.2
 40
0.2
 40
0.2
 40
0.4
 40
0.4
 40
0.4
 40
0.4
 40
0.6
 40
0.6
 40
0.6
 40
0.6
 40
1.0
 40
1.0
 40
1.0
 40
1.0
 10
122.8705
 20
-59.6154
 30
0.0
 10
122.8705
 20
-59.6154
 30
0.0
 10
127.9832
 20
-59.6154
 30
0.0
 10
127.9832
 20
-59.6154
 30
0.0
 10
127.9832
 20
-59.6154
 30
0.0
 10
127.9832
 20
-59.6154
 30
0.0
 10
127.9832
 20
-82.4422
 30
0.0
 10
127.9832
 20
-82.4422
 30
0.0
 10
127.9832
 20
-82.4422
 30
0.0
 10
127.9832
 20
-82.4422
 30
0.0
 10
122.8705
 20
-82.4422
 30
0.0
 10
122.8705
 20
-82.4422
 30
0.0
 10
122.8705
 20
-82.4422
 30
0.0
 10
122.8705
 20
-82.4422
 30
0.0
 10
122.8705
 20
-59.6154
 30
0.0
 10
122.8705
 20
-59.6154
 30
0.0
  0
SPLINE
  5
C3
330
1F
100
AcDbEntity
  8
layer 1
 62
     7
100
AcDbSpline
210
0.0
220
0.0
230
1.0
 70
    11
 71
     3
 72
    20
 73
    16
 74
     0
 42
0.0000000001
 43
0.0000000001
 12
1.0
 22
0.0
 32
0.0
 13
1.0
 23
0.0
 33
0.0
 40
0.0
 40
0.0
 40
0.0
 40
0.0
 40
0.2
 40
0.2
 40
0.2
 40
0.2
 40
0.4
 40
0.4
 40
0.4
 40
0.4
 40
0.6
 40
0.6
 40
0.6
 40
0.6
 40
1.0
 40
1.0
 40
1.0
 40
1.0
 10
132.0051
 20
-64.1345
 30
0.0
 10
132.0051
 20
-64.1345
 30
0.0
 10
154.8322
 20
-64.1345
 30
0.0
 10
154.8322
 20
-64.1345
 30
0.0
 10
154.8322
 20
-64.1345
 30
0.0
 10
154.8322
 20
-64.1345
 30
0.0
 10
154.8322
 20
-59.5702
 30
0.0
 10
154.8322
 20
-59.5702
 30
0.0
 10
154.8322
 20
-59.5702
 30
0.0
 10
154.8322
 20
-59.5702
 30
0.0
 10
132.0051
 20
-59.5702
 30
0.0
 10
132.0051
 20
-59.5702
 30
0.0
 10
132.0051
 20
-59.5702
 30
0.0
 10
132.0051
 20
-59.5702
 30
0.0
 10
132.0051
 20
-64.1345
 30
0.0
 10
132.0051
 20
-64.1345
 30
0.0
  0
SPLINE
  5
C4
330
1F
100
AcDbEntity
  8
layer 1
 62
     7
100
AcDbSpline
210
0.0
220
0.0
230
1.0
 70
    11
 71
     3
 72
    20
 73
    16
 74
     0
 42
0.0000000001
 43
0.0000000001
 12
1.0
 22
0.0
 32
0.0
 13
1.0
 23
0.0
 33
0.0
 40
0.0
 40
0.0
 40
0.0
 40
0.0
 40
0.2
 40
0.2
 40
0.2
 40
0.2
 40
0.4
 40
0.4
 40
0.4
 40
0.4
 40
0.6
 40
0.6
 40
0.6
 40
0.6
 40
1.0
 40
1.0
 40
1.0
 40
1.0
 10
113.7358
 20
-50.4808
 30
0.0
 10
113.7358
 20
-50.4808
 30
0.0
 10
118.8486
 20
-50.4808
 30
0.0
 10
118.8486
 20
-50.4808
 30
0.0
 10
118.8486
 20
-50.4808
 30
0.0
 10
118.8486
 20
-50.4808
 30
0.0
 10
118.8486
 20
-73.3076
 30
0.0
 10
118.8486
 20
-73.3076
 30
0.0
 10
118.8486
 20
-73.3076
 30
0.0
 10
118.8486
 20
-73.3076
 30
0.0
 10
113.7358
 20
-73.3076
 30
0.0
 10
113.7358
 20
-73.3076
 30
0.0
 10
113.7358
 20
-73.3076
 30
0.0
 10
113.7358
 20
-73.3076
 30
0.0
 10
113.7358
 20
-50.4808
 30
0.0
 10
113.7358
 20
-50.4808
 30
0.0
  0
SPLINE
  5
C5
330
1F
100
AcDbEntity
  8
layer 1
 62
     7
100
AcDbSpline
210
0.0
220
0.0
230
1.0
 70
    11
 71
     3
 72
    20
 73
    16
 74
     0
 42
0.0000000001
 43
0.0000000001
 12
1.0
 22
0.0
 32
0.0
 13
1.0
 23
0.0
 33
0.0
 40
0.0
 40
0.0
 40
0.0
 40
0.0
 40
0.2
 40
0.2
 40
0.2
 40
0.2
 40
0.4
 40
0.4
 40
0.4
 40
0.4
 40
0.6
 40
0.6
 40
0.6
 40
0.6
 40
1.0
 40
1.0
 40
1.0
 40
1.0
 10
122.8705
 20
-54.9998
 30
0.0
 10
122.8705
 20
-54.9998
 30
0.0
 10
145.6976
 20
-54.9998
 30
0.0
 10
145.6976
 20
-54.9998
 30
0.0
 10
145.6976
 20
-54.9998
 30
0.0
 10
145.6976
 20
-54.9998
 30
0.0
 10
145.6976
 20
-50.4355
 30
0.0
 10
145.6976
 20
-50.4355
 30
0.0
 10
145.6976
 20
-50.4355
 30
0.0
 10
145.6976
 20
-50.4355
 30
0.0
 10
122.8705
 20
-50.4355
 30
0.0
 10
122.8705
 20
-50.4355
 30
0.0
 10
122.8705
 20
-50.4355
 30
0.0
 10
122.8705
 20
-50.4355
 30
0.0
 10
122.8705
 20
-54.9998
 30
0.0
 10
122.8705
 20
-54.9998
 30
0.0
  0
SPLINE
  5
C6
330
1F
100
AcDbEntity
  8
layer 1
 62
     7
100
AcDbSpline
210
0.0
220
0.0
230
1.0
 70
    11
 71
     3
 72
    20
 73
    16
 74
     0
 42
0.0000000001
 43
0.0000000001
 12
1.0
 22
0.0
 32
0.0
 13
1.0
 23
0.0
 33
0.0
 40
0.0
 40
0.0
 40
0.0
 40
0.0
 40
0.2
 40
0.2
 40
0.2
 40
0.2
 40
0.4
 40
0.4
 40
0.4
 40
0.4
 40
0.6
 40
0.6
 40
0.6
 40
0.6
 40
1.0
 40
1.0
 40
1.0
 40
1.0
 10
104.6974
 20
-41.3461
 30
0.0
 10
104.6974
 20
-41.3461
 30
0.0
 10
109.8101
 20
-41.3461
 30
0.0
 10
109.8101
 20
-41.3461
 30
0.0
 10
109.8101
 20
-41.3461
 30
0.0
 10
109.8101
 20
-41.3461
 30
0.0
 10
109.8101
 20
-64.1729
 30
0.0
 10
109.8101
 20
-64.1729
 30
0.0
 10
109.8101
 20
-64.1729
 30
0.0
 10
109.8101
 20
-64.1729
 30
0.0
 10
104.6974
 20
-64.1729
 30
0.0
 10
104.6974
 20
-64.1729
 30
0.0
 10
104.6974
 20
-64.1729
 30
0.0
 10
104.6974
 20
-64.1729
 30
0.0
 10
104.6974
 20
-41.3461
 30
0.0
 10
104.6974
 20
-41.3461
 30
0.0
  0
SPLINE
  5
C7
330
1F
100
AcDbEntity
  8
layer 1
 62
     7
100
AcDbSpline
210
0.0
220
0.0
230
1.0
 70
    11
 71
     3
 72
    20
 73
    16
 74
     0
 42
0.0000000001
 43
0.0000000001
 12
1.0
 22
0.0
 32
0.0
 13
1.0
 23
0.0
 33
0.0
 40
0.0
 40
0.0
 40
0.0
 40
0.0
 40
0.2
 40
0.2
 40
0.2
 40
0.2
 40
0.4
 40
0.4
 40
0.4
 40
0.4
 40
0.6
 40
0.6
 40
0.6
 40
0.6
 40
1.0
 40
1.0
 40
1.0
 40
1.0
 10
113.7358
 20
-45.8652
 30
0.0
 10
113.7358
 20
-45.8652
 30
0.0
 10
136.5629
 20
-45.8652
 30
0.0
 10
136.5629
 20
-45.8652
 30
0.0
 10
136.5629
 20
-45.8652
 30
0.0
 10
136.5629
 20
-45.8652
 30
0.0
 10
136.5629
 20
-41.3009
 30
0.0
 10
136.5629
 20
-41.3009
 30
0.0
 10
136.5629
 20
-41.3009
 30
0.0
 10
136.5629
 20
-41.3009
 30
0.0
 10
113.7358
 20
-41.3009
 30
0.0
 10
113.7358
 20
-41.3009
 30
0.0
 10
113.7358
 20
-41.3009
 30
0.0
 10
113.7358
 20
-41.3009
 30
0.0
 10
113.7358
 20
-45.8652
 30
0.0
 10
113.7358
 20
-45.8652
 30
0.0
  0
SPLINE
  5
C8
330
1F
100
AcDbEntity
  8
layer 1
 62
     7
100
AcDbSpline
210
0.0
220
0.0
230
1.0
 70
    11
 71
     3
 72
    20
 73
    16
 74
     0
 42
0.0000000001
 43
0.0000000001
 12
1.0
 22
0.0
 32
0.0
 13
1.0
 23
0.0
 33
0.0
 40
0.0
 40
0.0
 40
0.0
 40
0.0
 40
0.2
 40
0.2
 40
0.2
 40
0.2
 40
0.4
 40
0.4
 40
0.4
 40
0.4
 40
0.6
 40
0.6
 40
0.6
 40
0.6
 40
1.0
 40
1.0
 40
1.0
 40
1.0
 10
95.5628
 20
-32.2115
 30
0.0
 10
95.5628
 20
-32.2115
 30
0.0
 10
100.6755
 20
-32.2115
 30
0.0
 10
100.6755
 20
-32.2115
 30
0.0
 10
100.6755
 20
-32.2115
 30
0.0
 10
100.6755
 20
-32.2115
 30
0.0
 10
100.6755
 20
-55.0383
 30
0.0
 10
100.6755
 20
-55.0383
 30
0.0
 10
100.6755
 20
-55.0383
 30
0.0
 10
100.6755
 20
-55.0383
 30
0.0
 10
95.5628
 20
-55.0383
 30
0.0
 10
95.5628
 20
-55.0383
 30
0.0
 10
95.5628
 20
-55.0383
 30
0.0
 10
95.5628
 20
-55.0383
 30
0.0
 10
95.5628
 20
-32.2115
 30
0.0
 10
95.5628
 20
-32.2115
 30
0.0
  0
SPLINE
  5
C9
330
1F
100
AcDbEntity
  8
layer 1
 62
     7
100
AcDbSpline
210
0.0
220
0.0
230
1.0
 70
    11
 71
     3
 72
    20
 73
    16
 74
     0
 42
0.0000000001
 43
0.0000000001
 12
1.0
 22
0.0
 32
0.0
 13
1.0
 23
0.0
 33
0.0
 40
0.0
 40
0.0
 40
0.0
 40
0.0
 40
0.2
 40
0.2
 40
0.2
 40
0.2
 40
0.4
 40
0.4
 40
0.4
 40
0.4
 40
0.6
 40
0.6
 40
0.6
 40
0.6
 40
1.0
 40
1.0
 40
1.0
 40
1.0
 10
104.6974
 20
-36.7308
 30
0.0
 10
104.6974
 20
-36.7308
 30
0.0
 10
127.5245
 20
-36.7308
 30
0.0
 10
127.5245
 20
-36.7308
 30
0.0
 10
127.5245
 20
-36.7308
 30
0.0
 10
127.5245
 20
-36.7308
 30
0.0
 10
127.5245
 20
-32.1654
 30
0.0
 10
127.5245
 20
-32.1654
 30
0.0
 10
127.5245
 20
-32.1654
 30
0.0
 10
127.5245
 20
-32.1654
 30
0.0
 10
104.6974
 20
-32.1654
 30
0.0
 10
104.6974
 20
-32.1654
 30
0.0
 10
104.6974
 20
-32.1654
 30
0.0
 10
104.6974
 20
-32.1654
 30
0.0
 10
104.6974
 20
-36.7308
 30
0.0
 10
104.6974
 20
-36.7308
 30
0.0
  0
SPLINE
  5
CA
330
1F
100
AcDbEntity
  8
layer 1
 62
     7
100
AcDbSpline
210
0.0
220
0.0
230
1.0
 70
    11
 71
     3
 72
    20
 73
    16
 74
     0
 42
0.0000000001
 43
0.0000000001
 12
1.0
 22
0.0
 32
0.0
 13
1.0
 23
0.0
 33
0.0
 40
0.0
 40
0.0
 40
0.0
 40
0.0
 40
0.2
 40
0.2
 40
0.2
 40
0.2
 40
0.4
 40
0.4
 40
0.4
 40
0.4
 40
0.6
 40
0.6
 40
0.6
 40
0.6
 40
1.0
 40
1.0
 40
1.0
 40
1.0
 10
86.4284
 20
-23.0768
 30
0.0
 10
86.4284
 20
-23.0768
 30
0.0
 10
91.5408
 20
-23.0768
 30
0.0
 10
91.5408
 20
-23.0768
 30
0.0
 10
91.5408
 20
-23.0768
 30
0.0
 10
91.5408
 20
-23.0768
 30
0.0
 10
91.5408
 20
-45.9039
 30
0.0
 10
91.5408
 20
-45.9039
 30
0.0
 10
91.5408
 20
-45.9039
 30
0.0
 10
91.5408
 20
-45.9039
 30
0.0
 10
86.4284
 20
-45.9039
 30
0.0
 10
86.4284
 20
-45.9039
 30
0.0
 10
86.4284
 20
-45.9039
 30
0.0
 10
86.4284
 20
-45.9039
 30
0.0
 10
86.4284
 20
-23.0768
 30
0.0
 10
86.4284
 20
-23.0768
 30
0.0
  0
SPLINE
  5
CB
330
1F
100
AcDbEntity
  8
layer 1
 62
     7
100
AcDbSpline
210
0.0
220
0.0
230
1.0
 70
    11
 71
     3
 72
    20
 73
    16
 74
     0
 42
0.0000000001
 43
0.0000000001
 12
1.0
 22
0.0
 32
0.0
 13
1.0
 23
0.0
 33
0.0
 40
0.0
 40
0.0
 40
0.0
 40
0.0
 40
0.2
 40
0.2
 40
0.2
 40
0.2
 40
0.4
 40
0.4
 40
0.4
 40
0.4
 40
0.6
 40
0.6
 40
0.6
 40
0.6
 40
1.0
 40
1.0
 40
1.0
 40
1.0
 10
95.5628
 20
-27.5962
 30
0.0
 10
95.5628
 20
-27.5962
 30
0.0
 10
118.3898
 20
-27.5962
 30
0.0
 10
118.3898
 20
-27.5962
 30
0.0
 10
118.3898
 20
-27.5962
 30
0.0
 10
118.3898
 20
-27.5962
 30
0.0
 10
118.3898
 20
-23.0316
 30
0.0
 10
118.3898
 20
-23.0316
 30
0.0
 10
118.3898
 20
-23.0316
 30
0.0
 10
118.3898
 20
-23.0316
 30
0.0
 10
95.5628
 20
-23.0316
 30
0.0
 10
95.5628
 20
-23.0316
 30
0.0
 10
95.5628
 20
-23.0316
 30
0.0
 10
95.5628
 20
-23.0316
 30
0.0
 10
95.5628
 20
-27.5962
 30
0.0
 10
95.5628
 20
-27.5962
 30
0.0
  0
SPLINE
  5
CC
330
1F
100
AcDbEntity
  8
layer 1
 62
     7
100
AcDbSpline
210
0.0
220
0.0
230
1.0
 70
    11
 71
     3
 72
    20
 73
    16
 74
     0
 42
0.0000000001
 43
0.0000000001
 12
1.0
 22
0.0
 32
0.0
 13
1.0
 23
0.0
 33
0.0
 40
0.0
 40
0.0
 40
0.0
 40
0.0
 40
0.2
 40
0.2
 40
0.2
 40
0.2
 40
0.4
 40
0.4
 40
0.4
 40
0.4
 40
0.6
 40
0.6
 40
0.6
 40
0.6
 40
1.0
 40
1.0
 40
1.0
 40
1.0
 10
77.2937
 20
-13.9422
 30
0.0
 10
77.2937
 20
-13.9422
 30
0.0
 10
82.4062
 20
-13.9422
 30
0.0
 10
82.4062
 20
-13.9422
 30
0.0
 10
82.4062
 20
-13.9422
 30
0.0
 10
82.4062
 20
-13.9422
 30
0.0
 10
82.4062
 20
-36.7693
 30
0.0
 10
82.4062
 20
-36.7693
 30
0.0
 10
82.4062
 20
-36.7693
 30
0.0
 10
82.4062
 20
-36.7693
 30
0.0
 10
77.2937
 20
-36.7693
 30
0.0
 10
77.2937
 20
-36.7693
 30
0.0
 10
77.2937
 20
-36.7693
 30
0.0
 10
77.2937
 20
-36.7693
 30
0.0
 10
77.2937
 20
-13.9422
 30
0.0
 10
77.2937
 20
-13.9422
 30
0.0
  0
SPLINE
  5
CD
330
1F
100
AcDbEntity
  8
layer 1
 62
     7
100
AcDbSpline
210
0.0
220
0.0
230
1.0
 70
    11
 71
     3
 72
    20
 73
    16
 74
     0
 42
0.0000000001
 43
0.0000000001
 12
1.0
 22
0.0
 32
0.0
 13
1.0
 23
0.0
 33
0.0
 40
0.0
 40
0.0
 40
0.0
 40
0.0
 40
0.2
 40
0.2
 40
0.2
 40
0.2
 40
0.4
 40
0.4
 40
0.4
 40
0.4
 40
0.6
 40
0.6
 40
0.6
 40
0.6
 40
1.0
 40
1.0
 40
1.0
 40
1.0
 10
86.4284
 20
-18.4615
 30
0.0
 10
86.4284
 20
-18.4615
 30
0.0
 10
109.2552
 20
-18.4615
 30
0.0
 10
109.2552
 20
-18.4615
 30
0.0
 10
109.2552
 20
-18.4615
 30
0.0
 10
109.2552
 20
-18.4615
 30
0.0
 10
109.2552
 20
-13.8969
 30
0.0
 10
109.2552
 20
-13.8969
 30
0.0
 10
109.2552
 20
-13.8969
 30
0.0
 10
109.2552
 20
-13.8969
 30
0.0
 10
86.4284
 20
-13.8969
 30
0.0
 10
86.4284
 20
-13.8969
 30
0.0
 10
86.4284
 20
-13.8969
 30
0.0
 10
86.4284
 20
-13.8969
 30
0.0
 10
86.4284
 20
-18.4615
 30
0.0
 10
86.4284
 20
-18.4615
 30
0.0
  0
SPLINE
  5
CE
330
1F
100
AcDbEntity
  8
layer 1
 62
     7
100
AcDbSpline
210
0.0
220
0.0
230
1.0
 70
    11
 71
     3
 72
    20
 73
    16
 74
     0
 42
0.0000000001
 43
0.0000000001
 12
1.0
 22
0.0
 32
0.0
 13
1.0
 23
0.0
 33
0.0
 40
0.0
 40
0.0
 40
0.0
 40
0.0
 40
0.2
 40
0.2
 40
0.2
 40
0.2
 40
0.4
 40
0.4
 40
0.4
 40
0.4
 40
0.6
 40
0.6
 40
0.6
 40
0.6
 40
1.0
 40
1.0
 40
1.0
 40
1.0
 10
68.1591
 20
-4.8075
 30
0.0
 10
68.1591
 20
-4.8075
 30
0.0
 10
73.2715
 20
-4.8075
 30
0.0
 10
73.2715
 20
-4.8075
 30
0.0
 10
73.2715
 20
-4.8075
 30
0.0
 10
73.2715
 20
-4.8075
 30
0.0
 10
73.2715
 20
-27.6346
 30
0.0
 10
73.2715
 20
-27.6346
 30
0.0
 10
73.2715
 20
-27.6346
 30
0.0
 10
73.2715
 20
-27.6346
 30
0.0
 10
68.1591
 20
-27.6346
 30
0.0
 10
68.1591
 20
-27.6346
 30
0.0
 10
68.1591
 20
-27.6346
 30
0.0
 10
68.1591
 20
-27.6346
 30
0.0
 10
68.1591
 20
-4.8075
 30
0.0
 10
68.1591
 20
-4.8075
 30
0.0
  0
SPLINE
  5
CF
330
1F
100
AcDbEntity
  8
layer 1
 62
     7
100
AcDbSpline
210
0.0
220
0.0
230
1.0
 70
    11
 71
     3
 72
    20
 73
    16
 74
     0
 42
0.0000000001
 43
0.0000000001
 12
1.0
 22
0.0
 32
0.0
 13
1.0
 23
0.0
 33
0.0
 40
0.0
 40
0.0
 40
0.0
 40
0.0
 40
0.2
 40
0.2
 40
0.2
 40
0.2
 40
0.4
 40
0.4
 40
0.4
 40
0.4
 40
0.6
 40
0.6
 40
0.6
 40
0.6
 40
1.0
 40
1.0
 40
1.0
 40
1.0
 10
77.2937
 20
-9.3269
 30
0.0
 10
77.2937
 20
-9.3269
 30
0.0
 10
100.1206
 20
-9.3269
 30
0.0
 10
100.1206
 20
-9.3269
 30
0.0
 10
100.1206
 20
-9.3269
 30
0.0
 10
100.1206
 20
-9.3269
 30
0.0
 10
100.1206
 20
-4.7626
 30
0.0
 10
100.1206
 20
-4.7626
 30
0.0
 10
100.1206
 20
-4.7626
 30
0.0
 10
100.1206
 20
-4.7626
 30
0.0
 10
77.2937
 20
-4.7626
 30
0.0
 10
77.2937
 20
-4.7626
 30
0.0
 10
77.2937
 20
-4.7626
 30
0.0
 10
77.2937
 20
-4.7626
 30
0.0
 10
77.2937
 20
-9.3269
 30
0.0
 10
77.2937
 20
-9.3269
 30
0.0
  0
SPLINE
  5
D0
330
1F
100
AcDbEntity
  8
layer 1
 62
     7
100
AcDbSpline
210
0.0
220
0.0
230
1.0
 70
    11
 71
     3
 72
    20
 73
    16
 74
     0
 42
0.0000000001
 43
0.0000000001
 12
1.0
 22
0.0
 32
0.0
 13
1.0
 23
0.0
 33
0.0
 40
0.0
 40
0.0
 40
0.0
 40
0.0
 40
0.2
 40
0.2
 40
0.2
 40
0.2
 40
0.4
 40
0.4
 40
0.4
 40
0.4
 40
0.6
 40
0.6
 40
0.6
 40
0.6
 40
1.0
 40
1.0
 40
1.0
 40
1.0
 10
64.1205
 20
-4.8075
 30
0.0
 10
64.1205
 20
-4.8075
 30
0.0
 10
59.0081
 20
-4.8075
 30
0.0
 10
59.0081
 20
-4.8075
 30
0.0
 10
59.0081
 20
-4.8075
 30
0.0
 10
59.0081
 20
-4.8075
 30
0.0
 10
59.0081
 20
-18.5
 30
0.0
 10
59.0081
 20
-18.5
 30
0.0
 10
59.0081
 20
-18.5
 30
0.0
 10
59.0081
 20
-18.5
 30
0.0
 10
64.1205
 20
-18.5
 30
0.0
 10
64.1205
 20
-18.5
 30
0.0
 10
64.1205
 20
-18.5
 30
0.0
 10
64.1205
 20
-18.5
 30
0.0
 10
64.1205
 20
-4.8075
 30
0.0
 10
64.1205
 20
-4.8075
 30
0.0
  0
SPLINE
  5
D1
330
1F
100
AcDbEntity
  8
layer 1
 62
     7
100
AcDbSpline
210
0.0
220
0.0
230
1.0
 70
    11
 71
     3
 72
    20
 73
    16
 74
     0
 42
0.0000000001
 43
0.0000000001
 12
1.0
 22
0.0
 32
0.0
 13
1.0
 23
0.0
 33
0.0
 40
0.0
 40
0.0
 40
0.0
 40
0.0
 40
0.2
 40
0.2
 40
0.2
 40
0.2
 40
0.4
 40
0.4
 40
0.4
 40
0.4
 40
0.6
 40
0.6
 40
0.6
 40
0.6
 40
1.0
 40
1.0
 40
1.0
 40
1.0
 10
54.9859
 20
-4.8075
 30
0.0
 10
54.9859
 20
-4.8075
 30
0.0
 10
49.8735
 20
-4.8075
 30
0.0
 10
49.8735
 20
-4.8075
 30
0.0
 10
49.8735
 20
-4.8075
 30
0.0
 10
49.8735
 20
-4.8075
 30
0.0
 10
49.8735
 20
-9.3721
 30
0.0
 10
49.8735
 20
-9.3721
 30
0.0
 10
49.8735
 20
-9.3721
 30
0.0
 10
49.8735
 20
-9.3721
 30
0.0
 10
54.9859
 20
-9.3721
 30
0.0
 10
54.9859
 20
-9.3721
 30
0.0
 10
54.9859
 20
-9.3721
 30
0.0
 10
54.9859
 20
-9.3721
 30
0.0
 10
54.9859
 20
-4.8075
 30
0.0
 10
54.9859
 20
-4.8075
 30
0.0
  0
SPLINE
  5
D2
330
1F
100
AcDbEntity
  8
layer 1
 62
     7
100
AcDbSpline
210
0.0
220
0.0
230
1.0
 70
    11
 71
     3
 72
    20
 73
    16
 74
     0
 42
0.0000000001
 43
0.0000000001
 12
1.0
 22
0.0
 32
0.0
 13
1.0
 23
0.0
 33
0.0
 40
0.0
 40
0.0
 40
0.0
 40
0.0
 40
0.2
 40
0.2
 40
0.2
 40
0.2
 40
0.4
 40
0.4
 40
0.4
 40
0.4
 40
0.6
 40
0.6
 40
0.6
 40
0.6
 40
1.0
 40
1.0
 40
1.0
 40
1.0
 10
109.7938
 20
-4.8075
 30
0.0
 10
109.7938
 20
-4.8075
 30
0.0
 10
104.6811
 20
-4.8075
 30
0.0
 10
104.6811
 20
-4.8075
 30
0.0
 10
104.6811
 20
-4.8075
 30
0.0
 10
104.6811
 20
-4.8075
 30
0.0
 10
104.6811
 20
-9.3721
 30
0.0
 10
104.6811
 20
-9.3721
 30
0.0
 10
104.6811
 20
-9.3721
 30
0.0
 10
104.6811
 20
-9.3721
 30
0.0
 10
109.7938
 20
-9.3721
 30
0.0
 10
109.7938
 20
-9.3721
 30
0.0
 10
109.7938
 20
-9.3721
 30
0.0
 10
109.7938
 20
-9.3721
 30
0.0
 10
109.7938
 20
-4.8075
 30
0.0
 10
109.7938
 20
-4.8075
 30
0.0
  0
SPLINE
  5
D3
330
1F
100
AcDbEntity
  8
layer 1
 62
     7
100
AcDbSpline
210
0.0
220
0.0
230
1.0
 70
    11
 71
     3
 72
    20
 73
    16
 74
     0
 42
0.0000000001
 43
0.0000000001
 12
1.0
 22
0.0
 32
0.0
 13
1.0
 23
0.0
 33
0.0
 40
0.0
 40
0.0
 40
0.0
 40
0.0
 40
0.2
 40
0.2
 40
0.2
 40
0.2
 40
0.4
 40
0.4
 40
0.4
 40
0.4
 40
0.6
 40
0.6
 40
0.6
 40
0.6
 40
1.0
 40
1.0
 40
1.0
 40
1.0
 10
118.9282
 20
-4.8075
 30
0.0
 10
118.9282
 20
-4.8075
 30
0.0
 10
113.8157
 20
-4.8075
 30
0.0
 10
113.8157
 20
-4.8075
 30
0.0
 10
113.8157
 20
-4.8075
 30
0.0
 10
113.8157
 20
-4.8075
 30
0.0
 10
113.8157
 20
-18.5
 30
0.0
 10
113.8157
 20
-18.5
 30
0.0
 10
113.8157
 20
-18.5
 30
0.0
 10
113.8157
 20
-18.5
 30
0.0
 10
118.9282
 20
-18.5
 30
0.0
 10
118.9282
 20
-18.5
 30
0.0
 10
118.9282
 20
-18.5
 30
0.0
 10
118.9282
 20
-18.5
 30
0.0
 10
118.9282
 20
-4.8075
 30
0.0
 10
118.9282
 20
-4.8075
 30
0.0
  0
SPLINE
  5
D4
330
1F
100
AcDbEntity
  8
layer 1
 62
     7
100
AcDbSpline
210
0.0
220
0.0
230
1.0
 70
    11
 71
     3
 72
    20
 73
    16
 74
     0
 42
0.0000000001
 43
0.0000000001
 12
1.0
 22
0.0
 32
0.0
 13
1.0
 23
0.0
 33
0.0
 40
0.0
 40
0.0
 40
0.0
 40
0.0
 40
0.2
 40
0.2
 40
0.2
 40
0.2
 40
0.4
 40
0.4
 40
0.4
 40
0.4
 40
0.6
 40
0.6
 40
0.6
 40
0.6
 40
1.0
 40
1.0
 40
1.0
 40
1.0
 10
122.8705
 20
-4.8075
 30
0.0
 10
122.8705
 20
-4.8075
 30
0.0
 10
127.9832
 20
-4.8075
 30
0.0
 10
127.9832
 20
-4.8075
 30
0.0
 10
127.9832
 20
-4.8075
 30
0.0
 10
127.9832
 20
-4.8075
 30
0.0
 10
127.9832
 20
-27.6346
 30
0.0
 10
127.9832
 20
-27.6346
 30
0.0
 10
127.9832
 20
-27.6346
 30
0.0
 10
127.9832
 20
-27.6346
 30
0.0
 10
122.8705
 20
-27.6346
 30
0.0
 10
122.8705
 20
-27.6346
 30
0.0
 10
122.8705
 20
-27.6346
 30
0.0
 10
122.8705
 20
-27.6346
 30
0.0
 10
122.8705
 20
-4.8075
 30
0.0
 10
122.8705
 20
-4.8075
 30
0.0
  0
SPLINE
  5
D5
330
1F
100
AcDbEntity
  8
layer 1
 62
     7
100
AcDbSpline
210
0.0
220
0.0
230
1.0
 70
    11
 71
     3
 72
    20
 73
    16
 74
     0
 42
0.0000000001
 43
0.0000000001
 12
1.0
 22
0.0
 32
0.0
 13
1.0
 23
0.0
 33
0.0
 40
0.0
 40
0.0
 40
0.0
 40
0.0
 40
0.2
 40
0.2
 40
0.2
 40
0.2
 40
0.4
 40
0.4
 40
0.4
 40
0.4
 40
0.6
 40
0.6
 40
0.6
 40
0.6
 40
1.0
 40
1.0
 40
1.0
 40
1.0
 10
132.0051
 20
-9.3269
 30
0.0
 10
132.0051
 20
-9.3269
 30
0.0
 10
154.8322
 20
-9.3269
 30
0.0
 10
154.8322
 20
-9.3269
 30
0.0
 10
154.8322
 20
-9.3269
 30
0.0
 10
154.8322
 20
-9.3269
 30
0.0
 10
154.8322
 20
-4.7626
 30
0.0
 10
154.8322
 20
-4.7626
 30
0.0
 10
154.8322
 20
-4.7626
 30
0.0
 10
154.8322
 20
-4.7626
 30
0.0
 10
132.0051
 20
-4.7626
 30
0.0
 10
132.0051
 20
-4.7626
 30
0.0
 10
132.0051
 20
-4.7626
 30
0.0
 10
132.0051
 20
-4.7626
 30
0.0
 10
132.0051
 20
-9.3269
 30
0.0
 10
132.0051
 20
-9.3269
 30
0.0
  0
SPLINE
  5
D6
330
1F
100
AcDbEntity
  8
layer 1
 62
     7
100
AcDbSpline
210
0.0
220
0.0
230
1.0
 70
    11
 71
     3
 72
    20
 73
    16
 74
     0
 42
0.0000000001
 43
0.0000000001
 12
1.0
 22
0.0
 32
0.0
 13
1.0
 23
0.0
 33
0.0
 40
0.0
 40
0.0
 40
0.0
 40
0.0
 40
0.2
 40
0.2
 40
0.2
 40
0.2
 40
0.4
 40
0.4
 40
0.4
 40
0.4
 40
0.6
 40
0.6
 40
0.6
 40
0.6
 40
1.0
 40
1.0
 40
1.0
 40
1.0
 10
132.0051
 20
-13.9422
 30
0.0
 10
132.0051
 20
-13.9422
 30
0.0
 10
137.1176
 20
-13.9422
 30
0.0
 10
137.1176
 20
-13.9422
 30
0.0
 10
137.1176
 20
-13.9422
 30
0.0
 10
137.1176
 20
-13.9422
 30
0.0
 10
137.1176
 20
-36.7693
 30
0.0
 10
137.1176
 20
-36.7693
 30
0.0
 10
137.1176
 20
-36.7693
 30
0.0
 10
137.1176
 20
-36.7693
 30
0.0
 10
132.0051
 20
-36.7693
 30
0.0
 10
132.0051
 20
-36.7693
 30
0.0
 10
132.0051
 20
-36.7693
 30
0.0
 10
132.0051
 20
-36.7693
 30
0.0
 10
132.0051
 20
-13.9422
 30
0.0
 10
132.0051
 20
-13.9422
 30
0.0
  0
SPLINE
  5
D7
330
1F
100
AcDbEntity
  8
layer 1
 62
     7
100
AcDbSpline
210
0.0
220
0.0
230
1.0
 70
    11
 71
     3
 72
    20
 73
    16
 74
     0
 42
0.0000000001
 43
0.0000000001
 12
1.0
 22
0.0
 32
0.0
 13
1.0
 23
0.0
 33
0.0
 40
0.0
 40
0.0
 40
0.0
 40
0.0
 40
0.2
 40
0.2
 40
0.2
 40
0.2
 40
0.4
 40
0.4
 40
0.4
 40
0.4
 40
0.6
 40
0.6
 40
0.6
 40
0.6
 40
1.0
 40
1.0
 40
1.0
 40
1.0
 10
141.1398
 20
-18.4615
 30
0.0
 10
141.1398
 20
-18.4615
 30
0.0
 10
163.9669
 20
-18.4615
 30
0.0
 10
163.9669
 20
-18.4615
 30
0.0
 10
163.9669
 20
-18.4615
 30
0.0
 10
163.9669
 20
-18.4615
 30
0.0
 10
163.9669
 20
-13.8969
 30
0.0
 10
163.9669
 20
-13.8969
 30
0.0
 10
163.9669
 20
-13.8969
 30
0.0
 10
163.9669
 20
-13.8969
 30
0.0
 10
141.1398
 20
-13.8969
 30
0.0
 10
141.1398
 20
-13.8969
 30
0.0
 10
141.1398
 20
-13.8969
 30
0.0
 10
141.1398
 20
-13.8969
 30
0.0
 10
141.1398
 20
-18.4615
 30
0.0
 10
141.1398
 20
-18.4615
 30
0.0
  0
SPLINE
  5
D8
330
1F
100
AcDbEntity
  8
layer 1
 62
     7
100
AcDbSpline
210
0.0
220
0.0
230
1.0
 70
    11
 71
     3
 72
    20
 73
    16
 74
     0
 42
0.0000000001
 43
0.0000000001
 12
1.0
 22
0.0
 32
0.0
 13
1.0
 23
0.0
 33
0.0
 40
0.0
 40
0.0
 40
0.0
 40
0.0
 40
0.2
 40
0.2
 40
0.2
 40
0.2
 40
0.4
 40
0.4
 40
0.4
 40
0.4
 40
0.6
 40
0.6
 40
0.6
 40
0.6
 40
1.0
 40
1.0
 40
1.0
 40
1.0
 10
141.1398
 20
-23.0768
 30
0.0
 10
141.1398
 20
-23.0768
 30
0.0
 10
146.2522
 20
-23.0768
 30
0.0
 10
146.2522
 20
-23.0768
 30
0.0
 10
146.2522
 20
-23.0768
 30
0.0
 10
146.2522
 20
-23.0768
 30
0.0
 10
146.2522
 20
-45.9039
 30
0.0
 10
146.2522
 20
-45.9039
 30
0.0
 10
146.2522
 20
-45.9039
 30
0.0
 10
146.2522
 20
-45.9039
 30
0.0
 10
141.1398
 20
-45.9039
 30
0.0
 10
141.1398
 20
-45.9039
 30
0.0
 10
141.1398
 20
-45.9039
 30
0.0
 10
141.1398
 20
-45.9039
 30
0.0
 10
141.1398
 20
-23.0768
 30
0.0
 10
141.1398
 20
-23.0768
 30
0.0
  0
SPLINE
  5
D9
330
1F
100
AcDbEntity
  8
layer 1
 62
     7
100
AcDbSpline
210
0.0
220
0.0
230
1.0
 70
    11
 71
     3
 72
    20
 73
    16
 74
     0
 42
0.0000000001
 43
0.0000000001
 12
1.0
 22
0.0
 32
0.0
 13
1.0
 23
0.0
 33
0.0
 40
0.0
 40
0.0
 40
0.0
 40
0.0
 40
0.2
 40
0.2
 40
0.2
 40
0.2
 40
0.4
 40
0.4
 40
0.4
 40
0.4
 40
0.6
 40
0.6
 40
0.6
 40
0.6
 40
1.0
 40
1.0
 40
1.0
 40
1.0
 10
150.2744
 20
-27.5962
 30
0.0
 10
150.2744
 20
-27.5962
 30
0.0
 10
173.1012
 20
-27.5962
 30
0.0
 10
173.1012
 20
-27.5962
 30
0.0
 10
173.1012
 20
-27.5962
 30
0.0
 10
173.1012
 20
-27.5962
 30
0.0
 10
173.1012
 20
-23.0316
 30
0.0
 10
173.1012
 20
-23.0316
 30
0.0
 10
173.1012
 20
-23.0316
 30
0.0
 10
173.1012
 20
-23.0316
 30
0.0
 10
150.2744
 20
-23.0316
 30
0.0
 10
150.2744
 20
-23.0316
 30
0.0
 10
150.2744
 20
-23.0316
 30
0.0
 10
150.2744
 20
-23.0316
 30
0.0
 10
150.2744
 20
-27.5962
 30
0.0
 10
150.2744
 20
-27.5962
 30
0.0
  0
SPLINE
  5
DA
330
1F
100
AcDbEntity
  8
layer 1
 62
     7
100
AcDbSpline
210
0.0
220
0.0
230
1.0
 70
    11
 71
     3
 72
    20
 73
    16
 74
     0
 42
0.0000000001
 43
0.0000000001
 12
1.0
 22
0.0
 32
0.0
 13
1.0
 23
0.0
 33
0.0
 40
0.0
 40
0.0
 40
0.0
 40
0.0
 40
0.2
 40
0.2
 40
0.2
 40
0.2
 40
0.4
 40
0.4
 40
0.4
 40
0.4
 40
0.6
 40
0.6
 40
0.6
 40
0.6
 40
1.0
 40
1.0
 40
1.0
 40
1.0
 10
150.2744
 20
-32.2115
 30
0.0
 10
150.2744
 20
-32.2115
 30
0.0
 10
155.3869
 20
-32.2115
 30
0.0
 10
155.3869
 20
-32.2115
 30
0.0
 10
155.3869
 20
-32.2115
 30
0.0
 10
155.3869
 20
-32.2115
 30
0.0
 10
155.3869
 20
-55.0383
 30
0.0
 10
155.3869
 20
-55.0383
 30
0.0
 10
155.3869
 20
-55.0383
 30
0.0
 10
155.3869
 20
-55.0383
 30
0.0
 10
150.2744
 20
-55.0383
 30
0.0
 10
150.2744
 20
-55.0383
 30
0.0
 10
150.2744
 20
-55.0383
 30
0.0
 10
150.2744
 20
-55.0383
 30
0.0
 10
150.2744
 20
-32.2115
 30
0.0
 10
150.2744
 20
-32.2115
 30
0.0
  0
SPLINE
  5
DB
330
1F
100
AcDbEntity
  8
layer 1
 62
     7
100
AcDbSpline
210
0.0
220
0.0
230
1.0
 70
    11
 71
     3
 72
    20
 73
    16
 74
     0
 42
0.0000000001
 43
0.0000000001
 12
1.0
 22
0.0
 32
0.0
 13
1.0
 23
0.0
 33
0.0
 40
0.0
 40
0.0
 40
0.0
 40
0.0
 40
0.2
 40
0.2
 40
0.2
 40
0.2
 40
0.4
 40
0.4
 40
0.4
 40
0.4
 40
0.6
 40
0.6
 40
0.6
 40
0.6
 40
1.0
 40
1.0
 40
1.0
 40
1.0
 10
159.4091
 20
-36.7308
 30
0.0
 10
159.4091
 20
-36.7308
 30
0.0
 10
182.2359
 20
-36.7308
 30
0.0
 10
182.2359
 20
-36.7308
 30
0.0
 10
182.2359
 20
-36.7308
 30
0.0
 10
182.2359
 20
-36.7308
 30
0.0
 10
182.2359
 20
-32.1654
 30
0.0
 10
182.2359
 20
-32.1654
 30
0.0
 10
182.2359
 20
-32.1654
 30
0.0
 10
182.2359
 20
-32.1654
 30
0.0
 10
159.4091
 20
-32.1654
 30
0.0
 10
159.4091
 20
-32.1654
 30
0.0
 10
159.4091
 20
-32.1654
 30
0.0
 10
159.4091
 20
-32.1654
 30
0.0
 10
159.4091
 20
-36.7308
 30
0.0
 10
159.4091
 20
-36.7308
 30
0.0
  0
SPLINE
  5
DC
330
1F
100
AcDbEntity
  8
layer 1
 62
     7
100
AcDbSpline
210
0.0
220
0.0
230
1.0
 70
    11
 71
     3
 72
    20
 73
    16
 74
     0
 42
0.0000000001
 43
0.0000000001
 12
1.0
 22
0.0
 32
0.0
 13
1.0
 23
0.0
 33
0.0
 40
0.0
 40
0.0
 40
0.0
 40
0.0
 40
0.2
 40
0.2
 40
0.2
 40
0.2
 40
0.4
 40
0.4
 40
0.4
 40
0.4
 40
0.6
 40
0.6
 40
0.6
 40
0.6
 40
1.0
 40
1.0
 40
1.0
 40
1.0
 10
159.4091
 20
-41.3461
 30
0.0
 10
159.4091
 20
-41.3461
 30
0.0
 10
164.5215
 20
-41.3461
 30
0.0
 10
164.5215
 20
-41.3461
 30
0.0
 10
164.5215
 20
-41.3461
 30
0.0
 10
164.5215
 20
-41.3461
 30
0.0
 10
164.5215
 20
-64.1729
 30
0.0
 10
164.5215
 20
-64.1729
 30
0.0
 10
164.5215
 20
-64.1729
 30
0.0
 10
164.5215
 20
-64.1729
 30
0.0
 10
159.4091
 20
-64.1729
 30
0.0
 10
159.4091
 20
-64.1729
 30
0.0
 10
159.4091
 20
-64.1729
 30
0.0
 10
159.4091
 20
-64.1729
 30
0.0
 10
159.4091
 20
-41.3461
 30
0.0
 10
159.4091
 20
-41.3461
 30
0.0
  0
SPLINE
  5
DD
330
1F
100
AcDbEntity
  8
layer 1
 62
     7
100
AcDbSpline
210
0.0
220
0.0
230
1.0
 70
    11
 71
     3
 72
    20
 73
    16
 74
     0
 42
0.0000000001
 43
0.0000000001
 12
1.0
 22
0.0
 32
0.0
 13
1.0
 23
0.0
 33
0.0
 40
0.0
 40
0.0
 40
0.0
 40
0.0
 40
0.2
 40
0.2
 40
0.2
 40
0.2
 40
0.4
 40
0.4
 40
0.4
 40
0.4
 40
0.6
 40
0.6
 40
0.6
 40
0.6
 40
1.0
 40
1.0
 40
1.0
 40
1.0
 10
168.5437
 20
-45.8652
 30
0.0
 10
168.5437
 20
-45.8652
 30
0.0
 10
191.3705
 20
-45.8652
 30
0.0
 10
191.3705
 20
-45.8652
 30
0.0
 10
191.3705
 20
-45.8652
 30
0.0
 10
191.3705
 20
-45.8652
 30
0.0
 10
191.3705
 20
-41.3009
 30
0.0
 10
191.3705
 20
-41.3009
 30
0.0
 10
191.3705
 20
-41.3009
 30
0.0
 10
191.3705
 20
-41.3009
 30
0.0
 10
168.5437
 20
-41.3009
 30
0.0
 10
168.5437
 20
-41.3009
 30
0.0
 10
168.5437
 20
-41.3009
 30
0.0
 10
168.5437
 20
-41.3009
 30
0.0
 10
168.5437
 20
-45.8652
 30
0.0
 10
168.5437
 20
-45.8652
 30
0.0
  0
SPLINE
  5
DE
330
1F
100
AcDbEntity
  8
layer 1
 62
     7
100
AcDbSpline
210
0.0
220
0.0
230
1.0
 70
    11
 71
     3
 72
    20
 73
    16
 74
     0
 42
0.0000000001
 43
0.0000000001
 12
1.0
 22
0.0
 32
0.0
 13
1.0
 23
0.0
 33
0.0
 40
0.0
 40
0.0
 40
0.0
 40
0.0
 40
0.2
 40
0.2
 40
0.2
 40
0.2
 40
0.4
 40
0.4
 40
0.4
 40
0.4
 40
0.6
 40
0.6
 40
0.6
 40
0.6
 40
1.0
 40
1.0
 40
1.0
 40
1.0
 10
168.5437
 20
-50.4808
 30
0.0
 10
168.5437
 20
-50.4808
 30
0.0
 10
173.6562
 20
-50.4808
 30
0.0
 10
173.6562
 20
-50.4808
 30
0.0
 10
173.6562
 20
-50.4808
 30
0.0
 10
173.6562
 20
-50.4808
 30
0.0
 10
173.6562
 20
-73.3076
 30
0.0
 10
173.6562
 20
-73.3076
 30
0.0
 10
173.6562
 20
-73.3076
 30
0.0
 10
173.6562
 20
-73.3076
 30
0.0
 10
168.5437
 20
-73.3076
 30
0.0
 10
168.5437
 20
-73.3076
 30
0.0
 10
168.5437
 20
-73.3076
 30
0.0
 10
168.5437
 20
-73.3076
 30
0.0
 10
168.5437
 20
-50.4808
 30
0.0
 10
168.5437
 20
-50.4808
 30
0.0
  0
SPLINE
  5
DF
330
1F
100
AcDbEntity
  8
layer 1
 62
     7
100
AcDbSpline
210
0.0
220
0.0
230
1.0
 70
    11
 71
     3
 72
    20
 73
    16
 74
     0
 42
0.0000000001
 43
0.0000000001
 12
1.0
 22
0.0
 32
0.0
 13
1.0
 23
0.0
 33
0.0
 40
0.0
 40
0.0
 40
0.0
 40
0.0
 40
0.2
 40
0.2
 40
0.2
 40
0.2
 40
0.4
 40
0.4
 40
0.4
 40
0.4
 40
0.6
 40
0.6
 40
0.6
 40
0.6
 40
1.0
 40
1.0
 40
1.0
 40
1.0
 10
177.6784
 20
-54.9998
 30
0.0
 10
177.6784
 20
-54.9998
 30
0.0
 10
191.6494
 20
-54.9998
 30
0.0
 10
191.6494
 20
-54.9998
 30
0.0
 10
191.6494
 20
-54.9998
 30
0.0
 10
191.6494
 20
-54.9998
 30
0.0
 10
191.6494
 20
-50.4355
 30
0.0
 10
191.6494
 20
-50.4355
 30
0.0
 10
191.6494
 20
-50.4355
 30
0.0
 10
191.6494
 20
-50.4355
 30
0.0
 10
177.6784
 20
-50.4355
 30
0.0
 10
177.6784
 20
-50.4355
 30
0.0
 10
177.6784
 20
-50.4355
 30
0.0
 10
177.6784
 20
-50.4355
 30
0.0
 10
177.6784
 20
-54.9998
 30
0.0
 10
177.6784
 20
-54.9998
 30
0.0
  0
SPLINE
  5
E0
330
1F
100
AcDbEntity
  8
layer 1
 62
     7
100
AcDbSpline
210
0.0
220
0.0
230
1.0
 70
    11
 71
     3
 72
    20
 73
    16
 74
     0
 42
0.0000000001
 43
0.0000000001
 12
1.0
 22
0.0
 32
0.0
 13
1.0
 23
0.0
 33
0.0
 40
0.0
 40
0.0
 40
0.0
 40
0.0
 40
0.2
 40
0.2
 40
0.2
 40
0.2
 40
0.4
 40
0.4
 40
0.4
 40
0.4
 40
0.6
 40
0.6
 40
0.6
 40
0.6
 40
1.0
 40
1.0
 40
1.0
 40
1.0
 10
177.6784
 20
-59.6154
 30
0.0
 10
177.6784
 20
-59.6154
 30
0.0
 10
182.7908
 20
-59.6154
 30
0.0
 10
182.7908
 20
-59.6154
 30
0.0
 10
182.7908
 20
-59.6154
 30
0.0
 10
182.7908
 20
-59.6154
 30
0.0
 10
182.7908
 20
-82.4422
 30
0.0
 10
182.7908
 20
-82.4422
 30
0.0
 10
182.7908
 20
-82.4422
 30
0.0
 10
182.7908
 20
-82.4422
 30
0.0
 10
177.6784
 20
-82.4422
 30
0.0
 10
177.6784
 20
-82.4422
 30
0.0
 10
177.6784
 20
-82.4422
 30
0.0
 10
177.6784
 20
-82.4422
 30
0.0
 10
177.6784
 20
-59.6154
 30
0.0
 10
177.6784
 20
-59.6154
 30
0.0
  0
SPLINE
  5
E1
330
1F
100
AcDbEntity
  8
layer 1
 62
     7
100
AcDbSpline
210
0.0
220
0.0
230
1.0
 70
    11
 71
     3
 72
    20
 73
    16
 74
     0
 42
0.0000000001
 43
0.0000000001
 12
1.0
 22
0.0
 32
0.0
 13
1.0
 23
0.0
 33
0.0
 40
0.0
 40
0.0
 40
0.0
 40
0.0
 40
0.2
 40
0.2
 40
0.2
 40
0.2
 40
0.4
 40
0.4
 40
0.4
 40
0.4
 40
0.6
 40
0.6
 40
0.6
 40
0.6
 40
1.0
 40
1.0
 40
1.0
 40
1.0
 10
186.813
 20
-64.1345
 30
0.0
 10
186.813
 20
-64.1345
 30
0.0
 10
191.6513
 20
-64.1345
 30
0.0
 10
191.6513
 20
-64.1345
 30
0.0
 10
191.6513
 20
-64.1345
 30
0.0
 10
191.6513
 20
-64.1345
 30
0.0
 10
191.6513
 20
-59.5702
 30
0.0
 10
191.6513
 20
-59.5702
 30
0.0
 10
191.6513
 20
-59.5702
 30
0.0
 10
191.6513
 20
-59.5702
 30
0.0
 10
186.813
 20
-59.5702
 30
0.0
 10
186.813
 20
-59.5702
 30
0.0
 10
186.813
 20
-59.5702
 30
0.0
 10
186.813
 20
-59.5702
 30
0.0
 10
186.813
 20
-64.1345
 30
0.0
 10
186.813
 20
-64.1345
 30
0.0
  0
SPLINE
  5
E2
330
1F
100
AcDbEntity
  8
layer 1
 62
     7
100
AcDbSpline
210
0.0
220
0.0
230
1.0
 70
    11
 71
     3
 72
    20
 73
    16
 74
     0
 42
0.0000000001
 43
0.0000000001
 12
1.0
 22
0.0
 32
0.0
 13
1.0
 23
0.0
 33
0.0
 40
0.0
 40
0.0
 40
0.0
 40
0.0
 40
0.2
 40
0.2
 40
0.2
 40
0.2
 40
0.4
 40
0.4
 40
0.4
 40
0.4
 40
0.6
 40
0.6
 40
0.6
 40
0.6
 40
1.0
 40
1.0
 40
1.0
 40
1.0
 10
186.813
 20
-68.7114
 30
0.0
 10
186.813
 20
-68.7114
 30
0.0
 10
191.6513
 20
-68.7114
 30
0.0
 10
191.6513
 20
-68.7114
 30
0.0
 10
191.6513
 20
-68.7114
 30
0.0
 10
191.6513
 20
-68.7114
 30
0.0
 10
191.6513
 20
-91.5384
 30
0.0
 10
191.6513
 20
-91.5384
 30
0.0
 10
191.6513
 20
-91.5384
 30
0.0
 10
191.6513
 20
-91.5384
 30
0.0
 10
186.813
 20
-91.5384
 30
0.0
 10
186.813
 20
-91.5384
 30
0.0
 10
186.813
 20
-91.5384
 30
0.0
 10
186.813
 20
-91.5384
 30
0.0
 10
186.813
 20
-68.7114
 30
0.0
 10
186.813
 20
-68.7114
 30
0.0
  0
SPLINE
  5
E3
330
1F
100
AcDbEntity
  8
layer 1
 62
     7
100
AcDbSpline
210
0.0
220
0.0
230
1.0
 70
    11
 71
     3
 72
    20
 73
    16
 74
     0
 42
0.0000000001
 43
0.0000000001
 12
1.0
 22
0.0
 32
0.0
 13
1.0
 23
0.0
 33
0.0
 40
0.0
 40
0.0
 40
0.0
 40
0.0
 40
0.2
 40
0.2
 40
0.2
 40
0.2
 40
0.4
 40
0.4
 40
0.4
 40
0.4
 40
0.6
 40
0.6
 40
0.6
 40
0.6
 40
1.0
 40
1.0
 40
1.0
 40
1.0
 10
186.813
 20
-13.9422
 30
0.0
 10
186.813
 20
-13.9422
 30
0.0
 10
191.6513
 20
-13.9422
 30
0.0
 10
191.6513
 20
-13.9422
 30
0.0
 10
191.6513
 20
-13.9422
 30
0.0
 10
191.6513
 20
-13.9422
 30
0.0
 10
191.6513
 20
-36.7693
 30
0.0
 10
191.6513
 20
-36.7693
 30
0.0
 10
191.6513
 20
-36.7693
 30
0.0
 10
191.6513
 20
-36.7693
 30
0.0
 10
186.813
 20
-36.7693
 30
0.0
 10
186.813
 20
-36.7693
 30
0.0
 10
186.813
 20
-36.7693
 30
0.0
 10
186.813
 20
-36.7693
 30
0.0
 10
186.813
 20
-13.9422
 30
0.0
 10
186.813
 20
-13.9422
 30
0.0
  0
SPLINE
  5
E4
330
1F
100
AcDbEntity
  8
layer 1
 62
     7
100
AcDbSpline
210
0.0
220
0.0
230
1.0
 70
    11
 71
     3
 72
    20
 73
    16
 74
     0
 42
0.0000000001
 43
0.0000000001
 12
1.0
 22
0.0
 32
0.0
 13
1.0
 23
0.0
 33
0.0
 40
0.0
 40
0.0
 40
0.0
 40
0.0
 40
0.2
 40
0.2
 40
0.2
 40
0.2
 40
0.4
 40
0.4
 40
0.4
 40
0.4
 40
0.6
 40
0.6
 40
0.6
 40
0.6
 40
1.0
 40
1.0
 40
1.0
 40
1.0
 10
177.6784
 20
-4.8075
 30
0.0
 10
177.6784
 20
-4.8075
 30
0.0
 10
182.7908
 20
-4.8075
 30
0.0
 10
182.7908
 20
-4.8075
 30
0.0
 10
182.7908
 20
-4.8075
 30
0.0
 10
182.7908
 20
-4.8075
 30
0.0
 10
182.7908
 20
-27.6346
 30
0.0
 10
182.7908
 20
-27.6346
 30
0.0
 10
182.7908
 20
-27.6346
 30
0.0
 10
182.7908
 20
-27.6346
 30
0.0
 10
177.6784
 20
-27.6346
 30
0.0
 10
177.6784
 20
-27.6346
 30
0.0
 10
177.6784
 20
-27.6346
 30
0.0
 10
177.6784
 20
-27.6346
 30
0.0
 10
177.6784
 20
-4.8075
 30
0.0
 10
177.6784
 20
-4.8075
 30
0.0
  0
SPLINE
  5
E5
330
1F
100
AcDbEntity
  8
layer 1
 62
     7
100
AcDbSpline
210
0.0
220
0.0
230
1.0
 70
    11
 71
     3
 72
    20
 73
    16
 74
     0
 42
0.0000000001
 43
0.0000000001
 12
1.0
 22
0.0
 32
0.0
 13
1.0
 23
0.0
 33
0.0
 40
0.0
 40
0.0
 40
0.0
 40
0.0
 40
0.2
 40
0.2
 40
0.2
 40
0.2
 40
0.4
 40
0.4
 40
0.4
 40
0.4
 40
0.6
 40
0.6
 40
0.6
 40
0.6
 40
1.0
 40
1.0
 40
1.0
 40
1.0
 10
186.813
 20
-9.3269
 30
0.0
 10
186.813
 20
-9.3269
 30
0.0
 10
191.6513
 20
-9.3269
 30
0.0
 10
191.6513
 20
-9.3269
 30
0.0
 10
191.6513
 20
-9.3269
 30
0.0
 10
191.6513
 20
-9.3269
 30
0.0
 10
191.6513
 20
-4.7626
 30
0.0
 10
191.6513
 20
-4.7626
 30
0.0
 10
191.6513
 20
-4.7626
 30
0.0
 10
191.6513
 20
-4.7626
 30
0.0
 10
186.813
 20
-4.7626
 30
0.0
 10
186.813
 20
-4.7626
 30
0.0
 10
186.813
 20
-4.7626
 30
0.0
 10
186.813
 20
-4.7626
 30
0.0
 10
186.813
 20
-9.3269
 30
0.0
 10
186.813
 20
-9.3269
 30
0.0
  0
SPLINE
  5
E6
330
1F
100
AcDbEntity
  8
layer 1
 62
     7
100
AcDbSpline
210
0.0
220
0.0
230
1.0
 70
    11
 71
     3
 72
    20
 73
    16
 74
     0
 42
0.0000000001
 43
0.0000000001
 12
1.0
 22
0.0
 32
0.0
 13
1.0
 23
0.0
 33
0.0
 40
0.0
 40
0.0
 40
0.0
 40
0.0
 40
0.2
 40
0.2
 40
0.2
 40
0.2
 40
0.4
 40
0.4
 40
0.4
 40
0.4
 40
0.6
 40
0.6
 40
0.6
 40
0.6
 40
1.0
 40
1.0
 40
1.0
 40
1.0
 10
173.6398
 20
-4.8075
 30
0.0
 10
173.6398
 20
-4.8075
 30
0.0
 10
168.5274
 20
-4.8075
 30
0.0
 10
168.5274
 20
-4.8075
 30
0.0
 10
168.5274
 20
-4.8075
 30
0.0
 10
168.5274
 20
-4.8075
 30
0.0
 10
168.5274
 20
-18.5
 30
0.0
 10
168.5274
 20
-18.5
 30
0.0
 10
168.5274
 20
-18.5
 30
0.0
 10
168.5274
 20
-18.5
 30
0.0
 10
173.6398
 20
-18.5
 30
0.0
 10
173.6398
 20
-18.5
 30
0.0
 10
173.6398
 20
-18.5
 30
0.0
 10
173.6398
 20
-18.5
 30
0.0
 10
173.6398
 20
-4.8075
 30
0.0
 10
173.6398
 20
-4.8075
 30
0.0
  0
SPLINE
  5
E7
330
1F
100
AcDbEntity
  8
layer 1
 62
     7
100
AcDbSpline
210
0.0
220
0.0
230
1.0
 70
    11
 71
     3
 72
    20
 73
    16
 74
     0
 42
0.0000000001
 43
0.0000000001
 12
1.0
 22
0.0
 32
0.0
 13
1.0
 23
0.0
 33
0.0
 40
0.0
 40
0.0
 40
0.0
 40
0.0
 40
0.2
 40
0.2
 40
0.2
 40
0.2
 40
0.4
 40
0.4
 40
0.4
 40
0.4
 40
0.6
 40
0.6
 40
0.6
 40
0.6
 40
1.0
 40
1.0
 40
1.0
 40
1.0
 10
164.5052
 20
-4.8075
 30
0.0
 10
164.5052
 20
-4.8075
 30
0.0
 10
159.3927
 20
-4.8075
 30
0.0
 10
159.3927
 20
-4.8075
 30
0.0
 10
159.3927
 20
-4.8075
 30
0.0
 10
159.3927
 20
-4.8075
 30
0.0
 10
159.3927
 20
-9.3721
 30
0.0
 10
159.3927
 20
-9.3721
 30
0.0
 10
159.3927
 20
-9.3721
 30
0.0
 10
159.3927
 20
-9.3721
 30
0.0
 10
164.5052
 20
-9.3721
 30
0.0
 10
164.5052
 20
-9.3721
 30
0.0
 10
164.5052
 20
-9.3721
 30
0.0
 10
164.5052
 20
-9.3721
 30
0.0
 10
164.5052
 20
-4.8075
 30
0.0
 10
164.5052
 20
-4.8075
 30
0.0
  0
SPLINE
  5
E8
330
1F
100
AcDbEntity
  8
layer 1
 62
   250
100
AcDbSpline
210
0.0
220
0.0
230
1.0
 70
    11
 71
     3
 72
    20
 73
    16
 74
     0
 42
0.0000000001
 43
0.0000000001
 12
1.0
 22
0.0
 32
0.0
 13
1.0
 23
0.0
 33
0.0
 40
0.0
 40
0.0
 40
0.0
 40
0.0
 40
0.2
 40
0.2
 40
0.2
 40
0.2
 40
0.4
 40
0.4
 40
0.4
 40
0.4
 40
0.6
 40
0.6
 40
0.6
 40
0.6
 40
1.0
 40
1.0
 40
1.0
 40
1.0
 10
-187.4904
 20
-0.0741
 30
0.0
 10
-187.4904
 20
-0.0741
 30
0.0
 10
-0.5534
 20
-0.0741
 30
0.0
 10
-0.5534
 20
-0.0741
 30
0.0
 10
-0.5534
 20
-0.0741
 30
0.0
 10
-0.5534
 20
-0.0741
 30
0.0
 10
-0.5534
 20
-115.2238
 30
0.0
 10
-0.5534
 20
-115.2238
 30
0.0
 10
-0.5534
 20
-115.2238
 30
0.0
 10
-0.5534
 20
-115.2238
 30
0.0
 10
-187.4904
 20
-115.2238
 30
0.0
 10
-187.4904
 20
-115.2238
 30
0.0
 10
-187.4904
 20
-115.2238
 30
0.0
 10
-187.4904
 20
-115.2238
 30
0.0
 10
-187.4904
 20
-0.0741
 30
0.0
 10
-187.4904
 20
-0.0741
 30
0.0
  0
SPLINE
  5
E9
330
1F
100
AcDbEntity
  8
layer 1
 62
     7
100
AcDbSpline
210
0.0
220
0.0
230
1.0
 70
    11
 71
     3
 72
    20
 73
    16
 74
     0
 42
0.0000000001
 43
0.0000000001
 12
1.0
 22
0.0
 32
0.0
 13
1.0
 23
0.0
 33
0.0
 40
0.0
 40
0.0
 40
0.0
 40
0.0
 40
0.2
 40
0.2
 40
0.2
 40
0.2
 40
0.4
 40
0.4
 40
0.4
 40
0.4
 40
0.6
 40
0.6
 40
0.6
 40
0.6
 40
1.0
 40
1.0
 40
1.0
 40
1.0
 10
-37.5135
 20
-71.4078
 30
0.0
 10
-37.5135
 20
-71.4078
 30
0.0
 10
-23.1497
 20
-71.4078
 30
0.0
 10
-23.1497
 20
-71.4078
 30
0.0
 10
-23.1497
 20
-71.4078
 30
0.0
 10
-23.1497
 20
-71.4078
 30
0.0
 10
-23.1497
 20
-91.7946
 30
0.0
 10
-23.1497
 20
-91.7946
 30
0.0
 10
-23.1497
 20
-91.7946
 30
0.0
 10
-23.1497
 20
-91.7946
 30
0.0
 10
-37.5135
 20
-91.7946
 30
0.0
 10
-37.5135
 20
-91.7946
 30
0.0
 10
-37.5135
 20
-91.7946
 30
0.0
 10
-37.5135
 20
-91.7946
 30
0.0
 10
-37.5135
 20
-71.4078
 30
0.0
 10
-37.5135
 20
-71.4078
 30
0.0
  0
SPLINE
  5
EA
330
1F
100
AcDbEntity
  8
layer 1
 62
     7
100
AcDbSpline
210
0.0
220
0.0
230
1.0
 70
    11
 71
     3
 72
    20
 73
    16
 74
     0
 42
0.0000000001
 43
0.0000000001
 12
1.0
 22
0.0
 32
0.0
 13
1.0
 23
0.0
 33
0.0
 40
0.0
 40
0.0
 40
0.0
 40
0.0
 40
0.2
 40
0.2
 40
0.2
 40
0.2
 40
0.4
 40
0.4
 40
0.4
 40
0.4
 40
0.6
 40
0.6
 40
0.6
 40
0.6
 40
1.0
 40
1.0
 40
1.0
 40
1.0
 10
-37.5135
 20
-59.6703
 30
0.0
 10
-37.5135
 20
-59.6703
 30
0.0
 10
-23.1497
 20
-59.6703
 30
0.0
 10
-23.1497
 20
-59.6703
 30
0.0
 10
-23.1497
 20
-59.6703
 30
0.0
 10
-23.1497
 20
-59.6703
 30
0.0
 10
-23.1497
 20
-67.3152
 30
0.0
 10
-23.1497
 20
-67.3152
 30
0.0
 10
-23.1497
 20
-67.3152
 30
0.0
 10
-23.1497
 20
-67.3152
 30
0.0
 10
-37.5135
 20
-67.3152
 30
0.0
 10
-37.5135
 20
-67.3152
 30
0.0
 10
-37.5135
 20
-67.3152
 30
0.0
 10
-37.5135
 20
-67.3152
 30
0.0
 10
-37.5135
 20
-59.6703
 30
0.0
 10
-37.5135
 20
-59.6703
 30
0.0
  0
SPLINE
  5
EB
330
1F
100
AcDbEntity
  8
layer 1
 62
     7
100
AcDbSpline
210
0.0
220
0.0
230
1.0
 70
    11
 71
     3
 72
    20
 73
    16
 74
     0
 42
0.0000000001
 43
0.0000000001
 12
1.0
 22
0.0
 32
0.0
 13
1.0
 23
0.0
 33
0.0
 40
0.0
 40
0.0
 40
0.0
 40
0.0
 40
0.2
 40
0.2
 40
0.2
 40
0.2
 40
0.4
 40
0.4
 40
0.4
 40
0.4
 40
0.6
 40
0.6
 40
0.6
 40
0.6
 40
1.0
 40
1.0
 40
1.0
 40
1.0
 10
-37.5135
 20
-47.9328
 30
0.0
 10
-37.5135
 20
-47.9328
 30
0.0
 10
-23.1497
 20
-47.9328
 30
0.0
 10
-23.1497
 20
-47.9328
 30
0.0
 10
-23.1497
 20
-47.9328
 30
0.0
 10
-23.1497
 20
-47.9328
 30
0.0
 10
-23.1497
 20
-55.5787
 30
0.0
 10
-23.1497
 20
-55.5787
 30
0.0
 10
-23.1497
 20
-55.5787
 30
0.0
 10
-23.1497
 20
-55.5787
 30
0.0
 10
-37.5135
 20
-55.5787
 30
0.0
 10
-37.5135
 20
-55.5787
 30
0.0
 10
-37.5135
 20
-55.5787
 30
0.0
 10
-37.5135
 20
-55.5787
 30
0.0
 10
-37.5135
 20
-47.9328
 30
0.0
 10
-37.5135
 20
-47.9328
 30
0.0
  0
SPLINE
  5
EC
330
1F
100
AcDbEntity
  8
layer 1
 62
     7
100
AcDbSpline
210
0.0
220
0.0
230
1.0
 70
    11
 71
     3
 72
    20
 73
    16
 74
     0
 42
0.0000000001
 43
0.0000000001
 12
1.0
 22
0.0
 32
0.0
 13
1.0
 23
0.0
 33
0.0
 40
0.0
 40
0.0
 40
0.0
 40
0.0
 40
0.2
 40
0.2
 40
0.2
 40
0.2
 40
0.4
 40
0.4
 40
0.4
 40
0.4
 40
0.6
 40
0.6
 40
0.6
 40
0.6
 40
1.0
 40
1.0
 40
1.0
 40
1.0
 10
-37.5135
 20
-95.845
 30
0.0
 10
-37.5135
 20
-95.845
 30
0.0
 10
-23.1497
 20
-95.845
 30
0.0
 10
-23.1497
 20
-95.845
 30
0.0
 10
-23.1497
 20
-95.845
 30
0.0
 10
-23.1497
 20
-95.845
 30
0.0
 10
-23.1497
 20
-100.9421
 30
0.0
 10
-23.1497
 20
-100.9421
 30
0.0
 10
-23.1497
 20
-100.9421
 30
0.0
 10
-23.1497
 20
-100.9421
 30
0.0
 10
-37.5135
 20
-100.9421
 30
0.0
 10
-37.5135
 20
-100.9421
 30
0.0
 10
-37.5135
 20
-100.9421
 30
0.0
 10
-37.5135
 20
-100.9421
 30
0.0
 10
-37.5135
 20
-95.845
 30
0.0
 10
-37.5135
 20
-95.845
 30
0.0
  0
SPLINE
  5
ED
330
1F
100
AcDbEntity
  8
layer 1
 62
     7
100
AcDbSpline
210
0.0
220
0.0
230
1.0
 70
    11
 71
     3
 72
    20
 73
    16
 74
     0
 42
0.0000000001
 43
0.0000000001
 12
1.0
 22
0.0
 32
0.0
 13
1.0
 23
0.0
 33
0.0
 40
0.0
 40
0.0
 40
0.0
 40
0.0
 40
0.2
 40
0.2
 40
0.2
 40
0.2
 40
0.4
 40
0.4
 40
0.4
 40
0.4
 40
0.6
 40
0.6
 40
0.6
 40
0.6
 40
1.0
 40
1.0
 40
1.0
 40
1.0
 10
-37.5135
 20
-105.0809
 30
0.0
 10
-37.5135
 20
-105.0809
 30
0.0
 10
-23.1497
 20
-105.0809
 30
0.0
 10
-23.1497
 20
-105.0809
 30
0.0
 10
-23.1497
 20
-105.0809
 30
0.0
 10
-23.1497
 20
-105.0809
 30
0.0
 10
-23.1497
 20
-110.1782
 30
0.0
 10
-23.1497
 20
-110.1782
 30
0.0
 10
-23.1497
 20
-110.1782
 30
0.0
 10
-23.1497
 20
-110.1782
 30
0.0
 10
-37.5135
 20
-110.1782
 30
0.0
 10
-37.5135
 20
-110.1782
 30
0.0
 10
-37.5135
 20
-110.1782
 30
0.0
 10
-37.5135
 20
-110.1782
 30
0.0
 10
-37.5135
 20
-105.0809
 30
0.0
 10
-37.5135
 20
-105.0809
 30
0.0
  0
SPLINE
  5
EE
330
1F
100
AcDbEntity
  8
layer 1
 62
     7
100
AcDbSpline
210
0.0
220
0.0
230
1.0
 70
    11
 71
     3
 72
    20
 73
    16
 74
     0
 42
0.0000000001
 43
0.0000000001
 12
1.0
 22
0.0
 32
0.0
 13
1.0
 23
0.0
 33
0.0
 40
0.0
 40
0.0
 40
0.0
 40
0.0
 40
0.2
 40
0.2
 40
0.2
 40
0.2
 40
0.4
 40
0.4
 40
0.4
 40
0.4
 40
0.6
 40
0.6
 40
0.6
 40
0.6
 40
1.0
 40
1.0
 40
1.0
 40
1.0
 10
-55.697
 20
-71.4078
 30
0.0
 10
-55.697
 20
-71.4078
 30
0.0
 10
-41.3332
 20
-71.4078
 30
0.0
 10
-41.3332
 20
-71.4078
 30
0.0
 10
-41.3332
 20
-71.4078
 30
0.0
 10
-41.3332
 20
-71.4078
 30
0.0
 10
-41.3332
 20
-91.7946
 30
0.0
 10
-41.3332
 20
-91.7946
 30
0.0
 10
-41.3332
 20
-91.7946
 30
0.0
 10
-41.3332
 20
-91.7946
 30
0.0
 10
-55.697
 20
-91.7946
 30
0.0
 10
-55.697
 20
-91.7946
 30
0.0
 10
-55.697
 20
-91.7946
 30
0.0
 10
-55.697
 20
-91.7946
 30
0.0
 10
-55.697
 20
-71.4078
 30
0.0
 10
-55.697
 20
-71.4078
 30
0.0
  0
SPLINE
  5
EF
330
1F
100
AcDbEntity
  8
layer 1
 62
     7
100
AcDbSpline
210
0.0
220
0.0
230
1.0
 70
    11
 71
     3
 72
    20
 73
    16
 74
     0
 42
0.0000000001
 43
0.0000000001
 12
1.0
 22
0.0
 32
0.0
 13
1.0
 23
0.0
 33
0.0
 40
0.0
 40
0.0
 40
0.0
 40
0.0
 40
0.2
 40
0.2
 40
0.2
 40
0.2
 40
0.4
 40
0.4
 40
0.4
 40
0.4
 40
0.6
 40
0.6
 40
0.6
 40
0.6
 40
1.0
 40
1.0
 40
1.0
 40
1.0
 10
-55.697
 20
-59.6703
 30
0.0
 10
-55.697
 20
-59.6703
 30
0.0
 10
-41.3332
 20
-59.6703
 30
0.0
 10
-41.3332
 20
-59.6703
 30
0.0
 10
-41.3332
 20
-59.6703
 30
0.0
 10
-41.3332
 20
-59.6703
 30
0.0
 10
-41.3332
 20
-67.3152
 30
0.0
 10
-41.3332
 20
-67.3152
 30
0.0
 10
-41.3332
 20
-67.3152
 30
0.0
 10
-41.3332
 20
-67.3152
 30
0.0
 10
-55.697
 20
-67.3152
 30
0.0
 10
-55.697
 20
-67.3152
 30
0.0
 10
-55.697
 20
-67.3152
 30
0.0
 10
-55.697
 20
-67.3152
 30
0.0
 10
-55.697
 20
-59.6703
 30
0.0
 10
-55.697
 20
-59.6703
 30
0.0
  0
SPLINE
  5
F0
330
1F
100
AcDbEntity
  8
layer 1
 62
     7
100
AcDbSpline
210
0.0
220
0.0
230
1.0
 70
    11
 71
     3
 72
    20
 73
    16
 74
     0
 42
0.0000000001
 43
0.0000000001
 12
1.0
 22
0.0
 32
0.0
 13
1.0
 23
0.0
 33
0.0
 40
0.0
 40
0.0
 40
0.0
 40
0.0
 40
0.2
 40
0.2
 40
0.2
 40
0.2
 40
0.4
 40
0.4
 40
0.4
 40
0.4
 40
0.6
 40
0.6
 40
0.6
 40
0.6
 40
1.0
 40
1.0
 40
1.0
 40
1.0
 10
-55.697
 20
-47.9328
 30
0.0
 10
-55.697
 20
-47.9328
 30
0.0
 10
-41.3332
 20
-47.9328
 30
0.0
 10
-41.3332
 20
-47.9328
 30
0.0
 10
-41.3332
 20
-47.9328
 30
0.0
 10
-41.3332
 20
-47.9328
 30
0.0
 10
-41.3332
 20
-55.5787
 30
0.0
 10
-41.3332
 20
-55.5787
 30
0.0
 10
-41.3332
 20
-55.5787
 30
0.0
 10
-41.3332
 20
-55.5787
 30
0.0
 10
-55.697
 20
-55.5787
 30
0.0
 10
-55.697
 20
-55.5787
 30
0.0
 10
-55.697
 20
-55.5787
 30
0.0
 10
-55.697
 20
-55.5787
 30
0.0
 10
-55.697
 20
-47.9328
 30
0.0
 10
-55.697
 20
-47.9328
 30
0.0
  0
SPLINE
  5
F1
330
1F
100
AcDbEntity
  8
layer 1
 62
     7
100
AcDbSpline
210
0.0
220
0.0
230
1.0
 70
    11
 71
     3
 72
    20
 73
    16
 74
     0
 42
0.0000000001
 43
0.0000000001
 12
1.0
 22
0.0
 32
0.0
 13
1.0
 23
0.0
 33
0.0
 40
0.0
 40
0.0
 40
0.0
 40
0.0
 40
0.2
 40
0.2
 40
0.2
 40
0.2
 40
0.4
 40
0.4
 40
0.4
 40
0.4
 40
0.6
 40
0.6
 40
0.6
 40
0.6
 40
1.0
 40
1.0
 40
1.0
 40
1.0
 10
-55.697
 20
-95.845
 30
0.0
 10
-55.697
 20
-95.845
 30
0.0
 10
-41.3332
 20
-95.845
 30
0.0
 10
-41.3332
 20
-95.845
 30
0.0
 10
-41.3332
 20
-95.845
 30
0.0
 10
-41.3332
 20
-95.845
 30
0.0
 10
-41.3332
 20
-100.9421
 30
0.0
 10
-41.3332
 20
-100.9421
 30
0.0
 10
-41.3332
 20
-100.9421
 30
0.0
 10
-41.3332
 20
-100.9421
 30
0.0
 10
-55.697
 20
-100.9421
 30
0.0
 10
-55.697
 20
-100.9421
 30
0.0
 10
-55.697
 20
-100.9421
 30
0.0
 10
-55.697
 20
-100.9421
 30
0.0
 10
-55.697
 20
-95.845
 30
0.0
 10
-55.697
 20
-95.845
 30
0.0
  0
SPLINE
  5
F2
330
1F
100
AcDbEntity
  8
layer 1
 62
     7
100
AcDbSpline
210
0.0
220
0.0
230
1.0
 70
    11
 71
     3
 72
    20
 73
    16
 74
     0
 42
0.0000000001
 43
0.0000000001
 12
1.0
 22
0.0
 32
0.0
 13
1.0
 23
0.0
 33
0.0
 40
0.0
 40
0.0
 40
0.0
 40
0.0
 40
0.2
 40
0.2
 40
0.2
 40
0.2
 40
0.4
 40
0.4
 40
0.4
 40
0.4
 40
0.6
 40
0.6
 40
0.6
 40
0.6
 40
1.0
 40
1.0
 40
1.0
 40
1.0
 10
-55.697
 20
-105.0809
 30
0.0
 10
-55.697
 20
-105.0809
 30
0.0
 10
-41.3332
 20
-105.0809
 30
0.0
 10
-41.3332
 20
-105.0809
 30
0.0
 10
-41.3332
 20
-105.0809
 30
0.0
 10
-41.3332
 20
-105.0809
 30
0.0
 10
-41.3332
 20
-110.1782
 30
0.0
 10
-41.3332
 20
-110.1782
 30
0.0
 10
-41.3332
 20
-110.1782
 30
0.0
 10
-41.3332
 20
-110.1782
 30
0.0
 10
-55.697
 20
-110.1782
 30
0.0
 10
-55.697
 20
-110.1782
 30
0.0
 10
-55.697
 20
-110.1782
 30
0.0
 10
-55.697
 20
-110.1782
 30
0.0
 10
-55.697
 20
-105.0809
 30
0.0
 10
-55.697
 20
-105.0809
 30
0.0
  0
SPLINE
  5
F3
330
1F
100
AcDbEntity
  8
layer 1
 62
     7
100
AcDbSpline
210
0.0
220
0.0
230
1.0
 70
    11
 71
     3
 72
    20
 73
    16
 74
     0
 42
0.0000000001
 43
0.0000000001
 12
1.0
 22
0.0
 32
0.0
 13
1.0
 23
0.0
 33
0.0
 40
0.0
 40
0.0
 40
0.0
 40
0.0
 40
0.2
 40
0.2
 40
0.2
 40
0.2
 40
0.4
 40
0.4
 40
0.4
 40
0.4
 40
0.6
 40
0.6
 40
0.6
 40
0.6
 40
1.0
 40
1.0
 40
1.0
 40
1.0
 10
-73.8804
 20
-71.4078
 30
0.0
 10
-73.8804
 20
-71.4078
 30
0.0
 10
-59.5167
 20
-71.4078
 30
0.0
 10
-59.5167
 20
-71.4078
 30
0.0
 10
-59.5167
 20
-71.4078
 30
0.0
 10
-59.5167
 20
-71.4078
 30
0.0
 10
-59.5167
 20
-91.7946
 30
0.0
 10
-59.5167
 20
-91.7946
 30
0.0
 10
-59.5167
 20
-91.7946
 30
0.0
 10
-59.5167
 20
-91.7946
 30
0.0
 10
-73.8804
 20
-91.7946
 30
0.0
 10
-73.8804
 20
-91.7946
 30
0.0
 10
-73.8804
 20
-91.7946
 30
0.0
 10
-73.8804
 20
-91.7946
 30
0.0
 10
-73.8804
 20
-71.4078
 30
0.0
 10
-73.8804
 20
-71.4078
 30
0.0
  0
SPLINE
  5
F4
330
1F
100
AcDbEntity
  8
layer 1
 62
     7
100
AcDbSpline
210
0.0
220
0.0
230
1.0
 70
    11
 71
     3
 72
    20
 73
    16
 74
     0
 42
0.0000000001
 43
0.0000000001
 12
1.0
 22
0.0
 32
0.0
 13
1.0
 23
0.0
 33
0.0
 40
0.0
 40
0.0
 40
0.0
 40
0.0
 40
0.2
 40
0.2
 40
0.2
 40
0.2
 40
0.4
 40
0.4
 40
0.4
 40
0.4
 40
0.6
 40
0.6
 40
0.6
 40
0.6
 40
1.0
 40
1.0
 40
1.0
 40
1.0
 10
-73.8804
 20
-59.6703
 30
0.0
 10
-73.8804
 20
-59.6703
 30
0.0
 10
-59.5167
 20
-59.6703
 30
0.0
 10
-59.5167
 20
-59.6703
 30
0.0
 10
-59.5167
 20
-59.6703
 30
0.0
 10
-59.5167
 20
-59.6703
 30
0.0
 10
-59.5167
 20
-67.3152
 30
0.0
 10
-59.5167
 20
-67.3152
 30
0.0
 10
-59.5167
 20
-67.3152
 30
0.0
 10
-59.5167
 20
-67.3152
 30
0.0
 10
-73.8804
 20
-67.3152
 30
0.0
 10
-73.8804
 20
-67.3152
 30
0.0
 10
-73.8804
 20
-67.3152
 30
0.0
 10
-73.8804
 20
-67.3152
 30
0.0
 10
-73.8804
 20
-59.6703
 30
0.0
 10
-73.8804
 20
-59.6703
 30
0.0
  0
SPLINE
  5
F5
330
1F
100
AcDbEntity
  8
layer 1
 62
     7
100
AcDbSpline
210
0.0
220
0.0
230
1.0
 70
    11
 71
     3
 72
    20
 73
    16
 74
     0
 42
0.0000000001
 43
0.0000000001
 12
1.0
 22
0.0
 32
0.0
 13
1.0
 23
0.0
 33
0.0
 40
0.0
 40
0.0
 40
0.0
 40
0.0
 40
0.2
 40
0.2
 40
0.2
 40
0.2
 40
0.4
 40
0.4
 40
0.4
 40
0.4
 40
0.6
 40
0.6
 40
0.6
 40
0.6
 40
1.0
 40
1.0
 40
1.0
 40
1.0
 10
-73.8804
 20
-47.9328
 30
0.0
 10
-73.8804
 20
-47.9328
 30
0.0
 10
-59.5167
 20
-47.9328
 30
0.0
 10
-59.5167
 20
-47.9328
 30
0.0
 10
-59.5167
 20
-47.9328
 30
0.0
 10
-59.5167
 20
-47.9328
 30
0.0
 10
-59.5167
 20
-55.5787
 30
0.0
 10
-59.5167
 20
-55.5787
 30
0.0
 10
-59.5167
 20
-55.5787
 30
0.0
 10
-59.5167
 20
-55.5787
 30
0.0
 10
-73.8804
 20
-55.5787
 30
0.0
 10
-73.8804
 20
-55.5787
 30
0.0
 10
-73.8804
 20
-55.5787
 30
0.0
 10
-73.8804
 20
-55.5787
 30
0.0
 10
-73.8804
 20
-47.9328
 30
0.0
 10
-73.8804
 20
-47.9328
 30
0.0
  0
SPLINE
  5
F6
330
1F
100
AcDbEntity
  8
layer 1
 62
     7
100
AcDbSpline
210
0.0
220
0.0
230
1.0
 70
    11
 71
     3
 72
    20
 73
    16
 74
     0
 42
0.0000000001
 43
0.0000000001
 12
1.0
 22
0.0
 32
0.0
 13
1.0
 23
0.0
 33
0.0
 40
0.0
 40
0.0
 40
0.0
 40
0.0
 40
0.2
 40
0.2
 40
0.2
 40
0.2
 40
0.4
 40
0.4
 40
0.4
 40
0.4
 40
0.6
 40
0.6
 40
0.6
 40
0.6
 40
1.0
 40
1.0
 40
1.0
 40
1.0
 10
-73.8804
 20
-95.845
 30
0.0
 10
-73.8804
 20
-95.845
 30
0.0
 10
-59.5167
 20
-95.845
 30
0.0
 10
-59.5167
 20
-95.845
 30
0.0
 10
-59.5167
 20
-95.845
 30
0.0
 10
-59.5167
 20
-95.845
 30
0.0
 10
-59.5167
 20
-100.9421
 30
0.0
 10
-59.5167
 20
-100.9421
 30
0.0
 10
-59.5167
 20
-100.9421
 30
0.0
 10
-59.5167
 20
-100.9421
 30
0.0
 10
-73.8804
 20
-100.9421
 30
0.0
 10
-73.8804
 20
-100.9421
 30
0.0
 10
-73.8804
 20
-100.9421
 30
0.0
 10
-73.8804
 20
-100.9421
 30
0.0
 10
-73.8804
 20
-95.845
 30
0.0
 10
-73.8804
 20
-95.845
 30
0.0
  0
SPLINE
  5
F7
330
1F
100
AcDbEntity
  8
layer 1
 62
     7
100
AcDbSpline
210
0.0
220
0.0
230
1.0
 70
    11
 71
     3
 72
    20
 73
    16
 74
     0
 42
0.0000000001
 43
0.0000000001
 12
1.0
 22
0.0
 32
0.0
 13
1.0
 23
0.0
 33
0.0
 40
0.0
 40
0.0
 40
0.0
 40
0.0
 40
0.2
 40
0.2
 40
0.2
 40
0.2
 40
0.4
 40
0.4
 40
0.4
 40
0.4
 40
0.6
 40
0.6
 40
0.6
 40
0.6
 40
1.0
 40
1.0
 40
1.0
 40
1.0
 10
-73.8804
 20
-105.0809
 30
0.0
 10
-73.8804
 20
-105.0809
 30
0.0
 10
-59.5167
 20
-105.0809
 30
0.0
 10
-59.5167
 20
-105.0809
 30
0.0
 10
-59.5167
 20
-105.0809
 30
0.0
 10
-59.5167
 20
-105.0809
 30
0.0
 10
-59.5167
 20
-110.1782
 30
0.0
 10
-59.5167
 20
-110.1782
 30
0.0
 10
-59.5167
 20
-110.1782
 30
0.0
 10
-59.5167
 20
-110.1782
 30
0.0
 10
-73.8804
 20
-110.1782
 30
0.0
 10
-73.8804
 20
-110.1782
 30
0.0
 10
-73.8804
 20
-110.1782
 30
0.0
 10
-73.8804
 20
-110.1782
 30
0.0
 10
-73.8804
 20
-105.0809
 30
0.0
 10
-73.8804
 20
-105.0809
 30
0.0
  0
SPLINE
  5
F8
330
1F
100
AcDbEntity
  8
layer 1
 62
     7
100
AcDbSpline
210
0.0
220
0.0
230
1.0
 70
    11
 71
     3
 72
    20
 73
    16
 74
     0
 42
0.0000000001
 43
0.0000000001
 12
1.0
 22
0.0
 32
0.0
 13
1.0
 23
0.0
 33
0.0
 40
0.0
 40
0.0
 40
0.0
 40
0.0
 40
0.2
 40
0.2
 40
0.2
 40
0.2
 40
0.4
 40
0.4
 40
0.4
 40
0.4
 40
0.6
 40
0.6
 40
0.6
 40
0.6
 40
1.0
 40
1.0
 40
1.0
 40
1.0
 10
-92.0639
 20
-71.4078
 30
0.0
 10
-92.0639
 20
-71.4078
 30
0.0
 10
-77.7001
 20
-71.4078
 30
0.0
 10
-77.7001
 20
-71.4078
 30
0.0
 10
-77.7001
 20
-71.4078
 30
0.0
 10
-77.7001
 20
-71.4078
 30
0.0
 10
-77.7001
 20
-91.7946
 30
0.0
 10
-77.7001
 20
-91.7946
 30
0.0
 10
-77.7001
 20
-91.7946
 30
0.0
 10
-77.7001
 20
-91.7946
 30
0.0
 10
-92.0639
 20
-91.7946
 30
0.0
 10
-92.0639
 20
-91.7946
 30
0.0
 10
-92.0639
 20
-91.7946
 30
0.0
 10
-92.0639
 20
-91.7946
 30
0.0
 10
-92.0639
 20
-71.4078
 30
0.0
 10
-92.0639
 20
-71.4078
 30
0.0
  0
SPLINE
  5
F9
330
1F
100
AcDbEntity
  8
layer 1
 62
     7
100
AcDbSpline
210
0.0
220
0.0
230
1.0
 70
    11
 71
     3
 72
    20
 73
    16
 74
     0
 42
0.0000000001
 43
0.0000000001
 12
1.0
 22
0.0
 32
0.0
 13
1.0
 23
0.0
 33
0.0
 40
0.0
 40
0.0
 40
0.0
 40
0.0
 40
0.2
 40
0.2
 40
0.2
 40
0.2
 40
0.4
 40
0.4
 40
0.4
 40
0.4
 40
0.6
 40
0.6
 40
0.6
 40
0.6
 40
1.0
 40
1.0
 40
1.0
 40
1.0
 10
-92.0639
 20
-59.6703
 30
0.0
 10
-92.0639
 20
-59.6703
 30
0.0
 10
-77.7001
 20
-59.6703
 30
0.0
 10
-77.7001
 20
-59.6703
 30
0.0
 10
-77.7001
 20
-59.6703
 30
0.0
 10
-77.7001
 20
-59.6703
 30
0.0
 10
-77.7001
 20
-67.3152
 30
0.0
 10
-77.7001
 20
-67.3152
 30
0.0
 10
-77.7001
 20
-67.3152
 30
0.0
 10
-77.7001
 20
-67.3152
 30
0.0
 10
-92.0639
 20
-67.3152
 30
0.0
 10
-92.0639
 20
-67.3152
 30
0.0
 10
-92.0639
 20
-67.3152
 30
0.0
 10
-92.0639
 20
-67.3152
 30
0.0
 10
-92.0639
 20
-59.6703
 30
0.0
 10
-92.0639
 20
-59.6703
 30
0.0
  0
SPLINE
  5
FA
330
1F
100
AcDbEntity
  8
layer 1
 62
     7
100
AcDbSpline
210
0.0
220
0.0
230
1.0
 70
    11
 71
     3
 72
    20
 73
    16
 74
     0
 42
0.0000000001
 43
0.0000000001
 12
1.0
 22
0.0
 32
0.0
 13
1.0
 23
0.0
 33
0.0
 40
0.0
 40
0.0
 40
0.0
 40
0.0
 40
0.2
 40
0.2
 40
0.2
 40
0.2
 40
0.4
 40
0.4
 40
0.4
 40
0.4
 40
0.6
 40
0.6
 40
0.6
 40
0.6
 40
1.0
 40
1.0
 40
1.0
 40
1.0
 10
-92.0639
 20
-47.9328
 30
0.0
 10
-92.0639
 20
-47.9328
 30
0.0
 10
-77.7001
 20
-47.9328
 30
0.0
 10
-77.7001
 20
-47.9328
 30
0.0
 10
-77.7001
 20
-47.9328
 30
0.0
 10
-77.7001
 20
-47.9328
 30
0.0
 10
-77.7001
 20
-55.5787
 30
0.0
 10
-77.7001
 20
-55.5787
 30
0.0
 10
-77.7001
 20
-55.5787
 30
0.0
 10
-77.7001
 20
-55.5787
 30
0.0
 10
-92.0639
 20
-55.5787
 30
0.0
 10
-92.0639
 20
-55.5787
 30
0.0
 10
-92.0639
 20
-55.5787
 30
0.0
 10
-92.0639
 20
-55.5787
 30
0.0
 10
-92.0639
 20
-47.9328
 30
0.0
 10
-92.0639
 20
-47.9328
 30
0.0
  0
SPLINE
  5
FB
330
1F
100
AcDbEntity
  8
layer 1
 62
     7
100
AcDbSpline
210
0.0
220
0.0
230
1.0
 70
    11
 71
     3
 72
    20
 73
    16
 74
     0
 42
0.0000000001
 43
0.0000000001
 12
1.0
 22
0.0
 32
0.0
 13
1.0
 23
0.0
 33
0.0
 40
0.0
 40
0.0
 40
0.0
 40
0.0
 40
0.2
 40
0.2
 40
0.2
 40
0.2
 40
0.4
 40
0.4
 40
0.4
 40
0.4
 40
0.6
 40
0.6
 40
0.6
 40
0.6
 40
1.0
 40
1.0
 40
1.0
 40
1.0
 10
-92.0639
 20
-95.845
 30
0.0
 10
-92.0639
 20
-95.845
 30
0.0
 10
-77.7001
 20
-95.845
 30
0.0
 10
-77.7001
 20
-95.845
 30
0.0
 10
-77.7001
 20
-95.845
 30
0.0
 10
-77.7001
 20
-95.845
 30
0.0
 10
-77.7001
 20
-100.9421
 30
0.0
 10
-77.7001
 20
-100.9421
 30
0.0
 10
-77.7001
 20
-100.9421
 30
0.0
 10
-77.7001
 20
-100.9421
 30
0.0
 10
-92.0639
 20
-100.9421
 30
0.0
 10
-92.0639
 20
-100.9421
 30
0.0
 10
-92.0639
 20
-100.9421
 30
0.0
 10
-92.0639
 20
-100.9421
 30
0.0
 10
-92.0639
 20
-95.845
 30
0.0
 10
-92.0639
 20
-95.845
 30
0.0
  0
SPLINE
  5
FC
330
1F
100
AcDbEntity
  8
layer 1
 62
     7
100
AcDbSpline
210
0.0
220
0.0
230
1.0
 70
    11
 71
     3
 72
    20
 73
    16
 74
     0
 42
0.0000000001
 43
0.0000000001
 12
1.0
 22
0.0
 32
0.0
 13
1.0
 23
0.0
 33
0.0
 40
0.0
 40
0.0
 40
0.0
 40
0.0
 40
0.2
 40
0.2
 40
0.2
 40
0.2
 40
0.4
 40
0.4
 40
0.4
 40
0.4
 40
0.6
 40
0.6
 40
0.6
 40
0.6
 40
1.0
 40
1.0
 40
1.0
 40
1.0
 10
-92.0639
 20
-105.0809
 30
0.0
 10
-92.0639
 20
-105.0809
 30
0.0
 10
-77.7001
 20
-105.0809
 30
0.0
 10
-77.7001
 20
-105.0809
 30
0.0
 10
-77.7001
 20
-105.0809
 30
0.0
 10
-77.7001
 20
-105.0809
 30
0.0
 10
-77.7001
 20
-110.1782
 30
0.0
 10
-77.7001
 20
-110.1782
 30
0.0
 10
-77.7001
 20
-110.1782
 30
0.0
 10
-77.7001
 20
-110.1782
 30
0.0
 10
-92.0639
 20
-110.1782
 30
0.0
 10
-92.0639
 20
-110.1782
 30
0.0
 10
-92.0639
 20
-110.1782
 30
0.0
 10
-92.0639
 20
-110.1782
 30
0.0
 10
-92.0639
 20
-105.0809
 30
0.0
 10
-92.0639
 20
-105.0809
 30
0.0
  0
SPLINE
  5
FD
330
1F
100
AcDbEntity
  8
layer 1
 62
     7
100
AcDbSpline
210
0.0
220
0.0
230
1.0
 70
    11
 71
     3
 72
    20
 73
    16
 74
     0
 42
0.0000000001
 43
0.0000000001
 12
1.0
 22
0.0
 32
0.0
 13
1.0
 23
0.0
 33
0.0
 40
0.0
 40
0.0
 40
0.0
 40
0.0
 40
0.2
 40
0.2
 40
0.2
 40
0.2
 40
0.4
 40
0.4
 40
0.4
 40
0.4
 40
0.6
 40
0.6
 40
0.6
 40
0.6
 40
1.0
 40
1.0
 40
1.0
 40
1.0
 10
-110.3437
 20
-71.4078
 30
0.0
 10
-110.3437
 20
-71.4078
 30
0.0
 10
-95.9796
 20
-71.4078
 30
0.0
 10
-95.9796
 20
-71.4078
 30
0.0
 10
-95.9796
 20
-71.4078
 30
0.0
 10
-95.9796
 20
-71.4078
 30
0.0
 10
-95.9796
 20
-91.7946
 30
0.0
 10
-95.9796
 20
-91.7946
 30
0.0
 10
-95.9796
 20
-91.7946
 30
0.0
 10
-95.9796
 20
-91.7946
 30
0.0
 10
-110.3437
 20
-91.7946
 30
0.0
 10
-110.3437
 20
-91.7946
 30
0.0
 10
-110.3437
 20
-91.7946
 30
0.0
 10
-110.3437
 20
-91.7946
 30
0.0
 10
-110.3437
 20
-71.4078
 30
0.0
 10
-110.3437
 20
-71.4078
 30
0.0
  0
SPLINE
  5
FE
330
1F
100
AcDbEntity
  8
layer 1
 62
     7
100
AcDbSpline
210
0.0
220
0.0
230
1.0
 70
    11
 71
     3
 72
    20
 73
    16
 74
     0
 42
0.0000000001
 43
0.0000000001
 12
1.0
 22
0.0
 32
0.0
 13
1.0
 23
0.0
 33
0.0
 40
0.0
 40
0.0
 40
0.0
 40
0.0
 40
0.2
 40
0.2
 40
0.2
 40
0.2
 40
0.4
 40
0.4
 40
0.4
 40
0.4
 40
0.6
 40
0.6
 40
0.6
 40
0.6
 40
1.0
 40
1.0
 40
1.0
 40
1.0
 10
-110.3437
 20
-59.6703
 30
0.0
 10
-110.3437
 20
-59.6703
 30
0.0
 10
-95.9796
 20
-59.6703
 30
0.0
 10
-95.9796
 20
-59.6703
 30
0.0
 10
-95.9796
 20
-59.6703
 30
0.0
 10
-95.9796
 20
-59.6703
 30
0.0
 10
-95.9796
 20
-67.3152
 30
0.0
 10
-95.9796
 20
-67.3152
 30
0.0
 10
-95.9796
 20
-67.3152
 30
0.0
 10
-95.9796
 20
-67.3152
 30
0.0
 10
-110.3437
 20
-67.3152
 30
0.0
 10
-110.3437
 20
-67.3152
 30
0.0
 10
-110.3437
 20
-67.3152
 30
0.0
 10
-110.3437
 20
-67.3152
 30
0.0
 10
-110.3437
 20
-59.6703
 30
0.0
 10
-110.3437
 20
-59.6703
 30
0.0
  0
SPLINE
  5
FF
330
1F
100
AcDbEntity
  8
layer 1
 62
     7
100
AcDbSpline
210
0.0
220
0.0
230
1.0
 70
    11
 71
     3
 72
    20
 73
    16
 74
     0
 42
0.0000000001
 43
0.0000000001
 12
1.0
 22
0.0
 32
0.0
 13
1.0
 23
0.0
 33
0.0
 40
0.0
 40
0.0
 40
0.0
 40
0.0
 40
0.2
 40
0.2
 40
0.2
 40
0.2
 40
0.4
 40
0.4
 40
0.4
 40
0.4
 40
0.6
 40
0.6
 40
0.6
 40
0.6
 40
1.0
 40
1.0
 40
1.0
 40
1.0
 10
-110.3437
 20
-47.9328
 30
0.0
 10
-110.3437
 20
-47.9328
 30
0.0
 10
-95.9796
 20
-47.9328
 30
0.0
 10
-95.9796
 20
-47.9328
 30
0.0
 10
-95.9796
 20
-47.9328
 30
0.0
 10
-95.9796
 20
-47.9328
 30
0.0
 10
-95.9796
 20
-55.5787
 30
0.0
 10
-95.9796
 20
-55.5787
 30
0.0
 10
-95.9796
 20
-55.5787
 30
0.0
 10
-95.9796
 20
-55.5787
 30
0.0
 10
-110.3437
 20
-55.5787
 30
0.0
 10
-110.3437
 20
-55.5787
 30
0.0
 10
-110.3437
 20
-55.5787
 30
0.0
 10
-110.3437
 20
-55.5787
 30
0.0
 10
-110.3437
 20
-47.9328
 30
0.0
 10
-110.3437
 20
-47.9328
 30
0.0
  0
SPLINE
  5
100
330
1F
100
AcDbEntity
  8
layer 1
 62
     7
100
AcDbSpline
210
0.0
220
0.0
230
1.0
 70
    11
 71
     3
 72
    20
 73
    16
 74
     0
 42
0.0000000001
 43
0.0000000001
 12
1.0
 22
0.0
 32
0.0
 13
1.0
 23
0.0
 33
0.0
 40
0.0
 40
0.0
 40
0.0
 40
0.0
 40
0.2
 40
0.2
 40
0.2
 40
0.2
 40
0.4
 40
0.4
 40
0.4
 40
0.4
 40
0.6
 40
0.6
 40
0.6
 40
0.6
 40
1.0
 40
1.0
 40
1.0
 40
1.0
 10
-110.3437
 20
-95.845
 30
0.0
 10
-110.3437
 20
-95.845
 30
0.0
 10
-95.9796
 20
-95.845
 30
0.0
 10
-95.9796
 20
-95.845
 30
0.0
 10
-95.9796
 20
-95.845
 30
0.0
 10
-95.9796
 20
-95.845
 30
0.0
 10
-95.9796
 20
-100.9421
 30
0.0
 10
-95.9796
 20
-100.9421
 30
0.0
 10
-95.9796
 20
-100.9421
 30
0.0
 10
-95.9796
 20
-100.9421
 30
0.0
 10
-110.3437
 20
-100.9421
 30
0.0
 10
-110.3437
 20
-100.9421
 30
0.0
 10
-110.3437
 20
-100.9421
 30
0.0
 10
-110.3437
 20
-100.9421
 30
0.0
 10
-110.3437
 20
-95.845
 30
0.0
 10
-110.3437
 20
-95.845
 30
0.0
  0
SPLINE
  5
101
330
1F
100
AcDbEntity
  8
layer 1
 62
     7
100
AcDbSpline
210
0.0
220
0.0
230
1.0
 70
    11
 71
     3
 72
    20
 73
    16
 74
     0
 42
0.0000000001
 43
0.0000000001
 12
1.0
 22
0.0
 32
0.0
 13
1.0
 23
0.0
 33
0.0
 40
0.0
 40
0.0
 40
0.0
 40
0.0
 40
0.2
 40
0.2
 40
0.2
 40
0.2
 40
0.4
 40
0.4
 40
0.4
 40
0.4
 40
0.6
 40
0.6
 40
0.6
 40
0.6
 40
1.0
 40
1.0
 40
1.0
 40
1.0
 10
-110.3437
 20
-105.0809
 30
0.0
 10
-110.3437
 20
-105.0809
 30
0.0
 10
-95.9796
 20
-105.0809
 30
0.0
 10
-95.9796
 20
-105.0809
 30
0.0
 10
-95.9796
 20
-105.0809
 30
0.0
 10
-95.9796
 20
-105.0809
 30
0.0
 10
-95.9796
 20
-110.1782
 30
0.0
 10
-95.9796
 20
-110.1782
 30
0.0
 10
-95.9796
 20
-110.1782
 30
0.0
 10
-95.9796
 20
-110.1782
 30
0.0
 10
-110.3437
 20
-110.1782
 30
0.0
 10
-110.3437
 20
-110.1782
 30
0.0
 10
-110.3437
 20
-110.1782
 30
0.0
 10
-110.3437
 20
-110.1782
 30
0.0
 10
-110.3437
 20
-105.0809
 30
0.0
 10
-110.3437
 20
-105.0809
 30
0.0
  0
SPLINE
  5
102
330
1F
100
AcDbEntity
  8
layer 1
 62
     7
100
AcDbSpline
210
0.0
220
0.0
230
1.0
 70
    11
 71
     3
 72
    20
 73
    16
 74
     0
 42
0.0000000001
 43
0.0000000001
 12
1.0
 22
0.0
 32
0.0
 13
1.0
 23
0.0
 33
0.0
 40
0.0
 40
0.0
 40
0.0
 40
0.0
 40
0.2
 40
0.2
 40
0.2
 40
0.2
 40
0.4
 40
0.4
 40
0.4
 40
0.4
 40
0.6
 40
0.6
 40
0.6
 40
0.6
 40
1.0
 40
1.0
 40
1.0
 40
1.0
 10
-128.5271
 20
-71.4078
 30
0.0
 10
-128.5271
 20
-71.4078
 30
0.0
 10
-114.1631
 20
-71.4078
 30
0.0
 10
-114.1631
 20
-71.4078
 30
0.0
 10
-114.1631
 20
-71.4078
 30
0.0
 10
-114.1631
 20
-71.4078
 30
0.0
 10
-114.1631
 20
-91.7946
 30
0.0
 10
-114.1631
 20
-91.7946
 30
0.0
 10
-114.1631
 20
-91.7946
 30
0.0
 10
-114.1631
 20
-91.7946
 30
0.0
 10
-128.5271
 20
-91.7946
 30
0.0
 10
-128.5271
 20
-91.7946
 30
0.0
 10
-128.5271
 20
-91.7946
 30
0.0
 10
-128.5271
 20
-91.7946
 30
0.0
 10
-128.5271
 20
-71.4078
 30
0.0
 10
-128.5271
 20
-71.4078
 30
0.0
  0
SPLINE
  5
103
330
1F
100
AcDbEntity
  8
layer 1
 62
     7
100
AcDbSpline
210
0.0
220
0.0
230
1.0
 70
    11
 71
     3
 72
    20
 73
    16
 74
     0
 42
0.0000000001
 43
0.0000000001
 12
1.0
 22
0.0
 32
0.0
 13
1.0
 23
0.0
 33
0.0
 40
0.0
 40
0.0
 40
0.0
 40
0.0
 40
0.2
 40
0.2
 40
0.2
 40
0.2
 40
0.4
 40
0.4
 40
0.4
 40
0.4
 40
0.6
 40
0.6
 40
0.6
 40
0.6
 40
1.0
 40
1.0
 40
1.0
 40
1.0
 10
-128.5271
 20
-59.6703
 30
0.0
 10
-128.5271
 20
-59.6703
 30
0.0
 10
-114.1631
 20
-59.6703
 30
0.0
 10
-114.1631
 20
-59.6703
 30
0.0
 10
-114.1631
 20
-59.6703
 30
0.0
 10
-114.1631
 20
-59.6703
 30
0.0
 10
-114.1631
 20
-67.3152
 30
0.0
 10
-114.1631
 20
-67.3152
 30
0.0
 10
-114.1631
 20
-67.3152
 30
0.0
 10
-114.1631
 20
-67.3152
 30
0.0
 10
-128.5271
 20
-67.3152
 30
0.0
 10
-128.5271
 20
-67.3152
 30
0.0
 10
-128.5271
 20
-67.3152
 30
0.0
 10
-128.5271
 20
-67.3152
 30
0.0
 10
-128.5271
 20
-59.6703
 30
0.0
 10
-128.5271
 20
-59.6703
 30
0.0
  0
SPLINE
  5
104
330
1F
100
AcDbEntity
  8
layer 1
 62
     7
100
AcDbSpline
210
0.0
220
0.0
230
1.0
 70
    11
 71
     3
 72
    20
 73
    16
 74
     0
 42
0.0000000001
 43
0.0000000001
 12
1.0
 22
0.0
 32
0.0
 13
1.0
 23
0.0
 33
0.0
 40
0.0
 40
0.0
 40
0.0
 40
0.0
 40
0.2
 40
0.2
 40
0.2
 40
0.2
 40
0.4
 40
0.4
 40
0.4
 40
0.4
 40
0.6
 40
0.6
 40
0.6
 40
0.6
 40
1.0
 40
1.0
 40
1.0
 40
1.0
 10
-128.5271
 20
-47.9328
 30
0.0
 10
-128.5271
 20
-47.9328
 30
0.0
 10
-114.1631
 20
-47.9328
 30
0.0
 10
-114.1631
 20
-47.9328
 30
0.0
 10
-114.1631
 20
-47.9328
 30
0.0
 10
-114.1631
 20
-47.9328
 30
0.0
 10
-114.1631
 20
-55.5787
 30
0.0
 10
-114.1631
 20
-55.5787
 30
0.0
 10
-114.1631
 20
-55.5787
 30
0.0
 10
-114.1631
 20
-55.5787
 30
0.0
 10
-128.5271
 20
-55.5787
 30
0.0
 10
-128.5271
 20
-55.5787
 30
0.0
 10
-128.5271
 20
-55.5787
 30
0.0
 10
-128.5271
 20
-55.5787
 30
0.0
 10
-128.5271
 20
-47.9328
 30
0.0
 10
-128.5271
 20
-47.9328
 30
0.0
  0
SPLINE
  5
105
330
1F
100
AcDbEntity
  8
layer 1
 62
     7
100
AcDbSpline
210
0.0
220
0.0
230
1.0
 70
    11
 71
     3
 72
    20
 73
    16
 74
     0
 42
0.0000000001
 43
0.0000000001
 12
1.0
 22
0.0
 32
0.0
 13
1.0
 23
0.0
 33
0.0
 40
0.0
 40
0.0
 40
0.0
 40
0.0
 40
0.2
 40
0.2
 40
0.2
 40
0.2
 40
0.4
 40
0.4
 40
0.4
 40
0.4
 40
0.6
 40
0.6
 40
0.6
 40
0.6
 40
1.0
 40
1.0
 40
1.0
 40
1.0
 10
-128.5271
 20
-95.845
 30
0.0
 10
-128.5271
 20
-95.845
 30
0.0
 10
-114.1631
 20
-95.845
 30
0.0
 10
-114.1631
 20
-95.845
 30
0.0
 10
-114.1631
 20
-95.845
 30
0.0
 10
-114.1631
 20
-95.845
 30
0.0
 10
-114.1631
 20
-100.9421
 30
0.0
 10
-114.1631
 20
-100.9421
 30
0.0
 10
-114.1631
 20
-100.9421
 30
0.0
 10
-114.1631
 20
-100.9421
 30
0.0
 10
-128.5271
 20
-100.9421
 30
0.0
 10
-128.5271
 20
-100.9421
 30
0.0
 10
-128.5271
 20
-100.9421
 30
0.0
 10
-128.5271
 20
-100.9421
 30
0.0
 10
-128.5271
 20
-95.845
 30
0.0
 10
-128.5271
 20
-95.845
 30
0.0
  0
SPLINE
  5
106
330
1F
100
AcDbEntity
  8
layer 1
 62
     7
100
AcDbSpline
210
0.0
220
0.0
230
1.0
 70
    11
 71
     3
 72
    20
 73
    16
 74
     0
 42
0.0000000001
 43
0.0000000001
 12
1.0
 22
0.0
 32
0.0
 13
1.0
 23
0.0
 33
0.0
 40
0.0
 40
0.0
 40
0.0
 40
0.0
 40
0.2
 40
0.2
 40
0.2
 40
0.2
 40
0.4
 40
0.4
 40
0.4
 40
0.4
 40
0.6
 40
0.6
 40
0.6
 40
0.6
 40
1.0
 40
1.0
 40
1.0
 40
1.0
 10
-128.5271
 20
-105.0809
 30
0.0
 10
-128.5271
 20
-105.0809
 30
0.0
 10
-114.1631
 20
-105.0809
 30
0.0
 10
-114.1631
 20
-105.0809
 30
0.0
 10
-114.1631
 20
-105.0809
 30
0.0
 10
-114.1631
 20
-105.0809
 30
0.0
 10
-114.1631
 20
-110.1782
 30
0.0
 10
-114.1631
 20
-110.1782
 30
0.0
 10
-114.1631
 20
-110.1782
 30
0.0
 10
-114.1631
 20
-110.1782
 30
0.0
 10
-128.5271
 20
-110.1782
 30
0.0
 10
-128.5271
 20
-110.1782
 30
0.0
 10
-128.5271
 20
-110.1782
 30
0.0
 10
-128.5271
 20
-110.1782
 30
0.0
 10
-128.5271
 20
-105.0809
 30
0.0
 10
-128.5271
 20
-105.0809
 30
0.0
  0
SPLINE
  5
107
330
1F
100
AcDbEntity
  8
layer 1
 62
     7
100
AcDbSpline
210
0.0
220
0.0
230
1.0
 70
    11
 71
     3
 72
    20
 73
    16
 74
     0
 42
0.0000000001
 43
0.0000000001
 12
1.0
 22
0.0
 32
0.0
 13
1.0
 23
0.0
 33
0.0
 40
0.0
 40
0.0
 40
0.0
 40
0.0
 40
0.2
 40
0.2
 40
0.2
 40
0.2
 40
0.4
 40
0.4
 40
0.4
 40
0.4
 40
0.6
 40
0.6
 40
0.6
 40
0.6
 40
1.0
 40
1.0
 40
1.0
 40
1.0
 10
-146.7106
 20
-71.4078
 30
0.0
 10
-146.7106
 20
-71.4078
 30
0.0
 10
-132.3465
 20
-71.4078
 30
0.0
 10
-132.3465
 20
-71.4078
 30
0.0
 10
-132.3465
 20
-71.4078
 30
0.0
 10
-132.3465
 20
-71.4078
 30
0.0
 10
-132.3465
 20
-91.7946
 30
0.0
 10
-132.3465
 20
-91.7946
 30
0.0
 10
-132.3465
 20
-91.7946
 30
0.0
 10
-132.3465
 20
-91.7946
 30
0.0
 10
-146.7106
 20
-91.7946
 30
0.0
 10
-146.7106
 20
-91.7946
 30
0.0
 10
-146.7106
 20
-91.7946
 30
0.0
 10
-146.7106
 20
-91.7946
 30
0.0
 10
-146.7106
 20
-71.4078
 30
0.0
 10
-146.7106
 20
-71.4078
 30
0.0
  0
SPLINE
  5
108
330
1F
100
AcDbEntity
  8
layer 1
 62
     7
100
AcDbSpline
210
0.0
220
0.0
230
1.0
 70
    11
 71
     3
 72
    20
 73
    16
 74
     0
 42
0.0000000001
 43
0.0000000001
 12
1.0
 22
0.0
 32
0.0
 13
1.0
 23
0.0
 33
0.0
 40
0.0
 40
0.0
 40
0.0
 40
0.0
 40
0.2
 40
0.2
 40
0.2
 40
0.2
 40
0.4
 40
0.4
 40
0.4
 40
0.4
 40
0.6
 40
0.6
 40
0.6
 40
0.6
 40
1.0
 40
1.0
 40
1.0
 40
1.0
 10
-146.7106
 20
-59.6703
 30
0.0
 10
-146.7106
 20
-59.6703
 30
0.0
 10
-132.3465
 20
-59.6703
 30
0.0
 10
-132.3465
 20
-59.6703
 30
0.0
 10
-132.3465
 20
-59.6703
 30
0.0
 10
-132.3465
 20
-59.6703
 30
0.0
 10
-132.3465
 20
-67.3152
 30
0.0
 10
-132.3465
 20
-67.3152
 30
0.0
 10
-132.3465
 20
-67.3152
 30
0.0
 10
-132.3465
 20
-67.3152
 30
0.0
 10
-146.7106
 20
-67.3152
 30
0.0
 10
-146.7106
 20
-67.3152
 30
0.0
 10
-146.7106
 20
-67.3152
 30
0.0
 10
-146.7106
 20
-67.3152
 30
0.0
 10
-146.7106
 20
-59.6703
 30
0.0
 10
-146.7106
 20
-59.6703
 30
0.0
  0
SPLINE
  5
109
330
1F
100
AcDbEntity
  8
layer 1
 62
     7
100
AcDbSpline
210
0.0
220
0.0
230
1.0
 70
    11
 71
     3
 72
    20
 73
    16
 74
     0
 42
0.0000000001
 43
0.0000000001
 12
1.0
 22
0.0
 32
0.0
 13
1.0
 23
0.0
 33
0.0
 40
0.0
 40
0.0
 40
0.0
 40
0.0
 40
0.2
 40
0.2
 40
0.2
 40
0.2
 40
0.4
 40
0.4
 40
0.4
 40
0.4
 40
0.6
 40
0.6
 40
0.6
 40
0.6
 40
1.0
 40
1.0
 40
1.0
 40
1.0
 10
-146.7106
 20
-47.9328
 30
0.0
 10
-146.7106
 20
-47.9328
 30
0.0
 10
-132.3465
 20
-47.9328
 30
0.0
 10
-132.3465
 20
-47.9328
 30
0.0
 10
-132.3465
 20
-47.9328
 30
0.0
 10
-132.3465
 20
-47.9328
 30
0.0
 10
-132.3465
 20
-55.5787
 30
0.0
 10
-132.3465
 20
-55.5787
 30
0.0
 10
-132.3465
 20
-55.5787
 30
0.0
 10
-132.3465
 20
-55.5787
 30
0.0
 10
-146.7106
 20
-55.5787
 30
0.0
 10
-146.7106
 20
-55.5787
 30
0.0
 10
-146.7106
 20
-55.5787
 30
0.0
 10
-146.7106
 20
-55.5787
 30
0.0
 10
-146.7106
 20
-47.9328
 30
0.0
 10
-146.7106
 20
-47.9328
 30
0.0
  0
SPLINE
  5
10A
330
1F
100
AcDbEntity
  8
layer 1
 62
     7
100
AcDbSpline
210
0.0
220
0.0
230
1.0
 70
    11
 71
     3
 72
    20
 73
    16
 74
     0
 42
0.0000000001
 43
0.0000000001
 12
1.0
 22
0.0
 32
0.0
 13
1.0
 23
0.0
 33
0.0
 40
0.0
 40
0.0
 40
0.0
 40
0.0
 40
0.2
 40
0.2
 40
0.2
 40
0.2
 40
0.4
 40
0.4
 40
0.4
 40
0.4
 40
0.6
 40
0.6
 40
0.6
 40
0.6
 40
1.0
 40
1.0
 40
1.0
 40
1.0
 10
-146.7106
 20
-95.845
 30
0.0
 10
-146.7106
 20
-95.845
 30
0.0
 10
-132.3465
 20
-95.845
 30
0.0
 10
-132.3465
 20
-95.845
 30
0.0
 10
-132.3465
 20
-95.845
 30
0.0
 10
-132.3465
 20
-95.845
 30
0.0
 10
-132.3465
 20
-100.9421
 30
0.0
 10
-132.3465
 20
-100.9421
 30
0.0
 10
-132.3465
 20
-100.9421
 30
0.0
 10
-132.3465
 20
-100.9421
 30
0.0
 10
-146.7106
 20
-100.9421
 30
0.0
 10
-146.7106
 20
-100.9421
 30
0.0
 10
-146.7106
 20
-100.9421
 30
0.0
 10
-146.7106
 20
-100.9421
 30
0.0
 10
-146.7106
 20
-95.845
 30
0.0
 10
-146.7106
 20
-95.845
 30
0.0
  0
SPLINE
  5
10B
330
1F
100
AcDbEntity
  8
layer 1
 62
     7
100
AcDbSpline
210
0.0
220
0.0
230
1.0
 70
    11
 71
     3
 72
    20
 73
    16
 74
     0
 42
0.0000000001
 43
0.0000000001
 12
1.0
 22
0.0
 32
0.0
 13
1.0
 23
0.0
 33
0.0
 40
0.0
 40
0.0
 40
0.0
 40
0.0
 40
0.2
 40
0.2
 40
0.2
 40
0.2
 40
0.4
 40
0.4
 40
0.4
 40
0.4
 40
0.6
 40
0.6
 40
0.6
 40
0.6
 40
1.0
 40
1.0
 40
1.0
 40
1.0
 10
-146.7106
 20
-105.0809
 30
0.0
 10
-146.7106
 20
-105.0809
 30
0.0
 10
-132.3465
 20
-105.0809
 30
0.0
 10
-132.3465
 20
-105.0809
 30
0.0
 10
-132.3465
 20
-105.0809
 30
0.0
 10
-132.3465
 20
-105.0809
 30
0.0
 10
-132.3465
 20
-110.1782
 30
0.0
 10
-132.3465
 20
-110.1782
 30
0.0
 10
-132.3465
 20
-110.1782
 30
0.0
 10
-132.3465
 20
-110.1782
 30
0.0
 10
-146.7106
 20
-110.1782
 30
0.0
 10
-146.7106
 20
-110.1782
 30
0.0
 10
-146.7106
 20
-110.1782
 30
0.0
 10
-146.7106
 20
-110.1782
 30
0.0
 10
-146.7106
 20
-105.0809
 30
0.0
 10
-146.7106
 20
-105.0809
 30
0.0
  0
SPLINE
  5
10C
330
1F
100
AcDbEntity
  8
layer 1
 62
     7
100
AcDbSpline
210
0.0
220
0.0
230
1.0
 70
    11
 71
     3
 72
    20
 73
    16
 74
     0
 42
0.0000000001
 43
0.0000000001
 12
1.0
 22
0.0
 32
0.0
 13
1.0
 23
0.0
 33
0.0
 40
0.0
 40
0.0
 40
0.0
 40
0.0
 40
0.2
 40
0.2
 40
0.2
 40
0.2
 40
0.4
 40
0.4
 40
0.4
 40
0.4
 40
0.6
 40
0.6
 40
0.6
 40
0.6
 40
1.0
 40
1.0
 40
1.0
 40
1.0
 10
-164.8941
 20
-71.4078
 30
0.0
 10
-164.8941
 20
-71.4078
 30
0.0
 10
-150.53
 20
-71.4078
 30
0.0
 10
-150.53
 20
-71.4078
 30
0.0
 10
-150.53
 20
-71.4078
 30
0.0
 10
-150.53
 20
-71.4078
 30
0.0
 10
-150.53
 20
-91.7946
 30
0.0
 10
-150.53
 20
-91.7946
 30
0.0
 10
-150.53
 20
-91.7946
 30
0.0
 10
-150.53
 20
-91.7946
 30
0.0
 10
-164.8941
 20
-91.7946
 30
0.0
 10
-164.8941
 20
-91.7946
 30
0.0
 10
-164.8941
 20
-91.7946
 30
0.0
 10
-164.8941
 20
-91.7946
 30
0.0
 10
-164.8941
 20
-71.4078
 30
0.0
 10
-164.8941
 20
-71.4078
 30
0.0
  0
SPLINE
  5
10D
330
1F
100
AcDbEntity
  8
layer 1
 62
     7
100
AcDbSpline
210
0.0
220
0.0
230
1.0
 70
    11
 71
     3
 72
    20
 73
    16
 74
     0
 42
0.0000000001
 43
0.0000000001
 12
1.0
 22
0.0
 32
0.0
 13
1.0
 23
0.0
 33
0.0
 40
0.0
 40
0.0
 40
0.0
 40
0.0
 40
0.2
 40
0.2
 40
0.2
 40
0.2
 40
0.4
 40
0.4
 40
0.4
 40
0.4
 40
0.6
 40
0.6
 40
0.6
 40
0.6
 40
1.0
 40
1.0
 40
1.0
 40
1.0
 10
-164.8941
 20
-59.6703
 30
0.0
 10
-164.8941
 20
-59.6703
 30
0.0
 10
-150.53
 20
-59.6703
 30
0.0
 10
-150.53
 20
-59.6703
 30
0.0
 10
-150.53
 20
-59.6703
 30
0.0
 10
-150.53
 20
-59.6703
 30
0.0
 10
-150.53
 20
-67.3152
 30
0.0
 10
-150.53
 20
-67.3152
 30
0.0
 10
-150.53
 20
-67.3152
 30
0.0
 10
-150.53
 20
-67.3152
 30
0.0
 10
-164.8941
 20
-67.3152
 30
0.0
 10
-164.8941
 20
-67.3152
 30
0.0
 10
-164.8941
 20
-67.3152
 30
0.0
 10
-164.8941
 20
-67.3152
 30
0.0
 10
-164.8941
 20
-59.6703
 30
0.0
 10
-164.8941
 20
-59.6703
 30
0.0
  0
SPLINE
  5
10E
330
1F
100
AcDbEntity
  8
layer 1
 62
     7
100
AcDbSpline
210
0.0
220
0.0
230
1.0
 70
    11
 71
     3
 72
    20
 73
    16
 74
     0
 42
0.0000000001
 43
0.0000000001
 12
1.0
 22
0.0
 32
0.0
 13
1.0
 23
0.0
 33
0.0
 40
0.0
 40
0.0
 40
0.0
 40
0.0
 40
0.2
 40
0.2
 40
0.2
 40
0.2
 40
0.4
 40
0.4
 40
0.4
 40
0.4
 40
0.6
 40
0.6
 40
0.6
 40
0.6
 40
1.0
 40
1.0
 40
1.0
 40
1.0
 10
-164.8941
 20
-47.9328
 30
0.0
 10
-164.8941
 20
-47.9328
 30
0.0
 10
-150.53
 20
-47.9328
 30
0.0
 10
-150.53
 20
-47.9328
 30
0.0
 10
-150.53
 20
-47.9328
 30
0.0
 10
-150.53
 20
-47.9328
 30
0.0
 10
-150.53
 20
-55.5787
 30
0.0
 10
-150.53
 20
-55.5787
 30
0.0
 10
-150.53
 20
-55.5787
 30
0.0
 10
-150.53
 20
-55.5787
 30
0.0
 10
-164.8941
 20
-55.5787
 30
0.0
 10
-164.8941
 20
-55.5787
 30
0.0
 10
-164.8941
 20
-55.5787
 30
0.0
 10
-164.8941
 20
-55.5787
 30
0.0
 10
-164.8941
 20
-47.9328
 30
0.0
 10
-164.8941
 20
-47.9328
 30
0.0
  0
SPLINE
  5
10F
330
1F
100
AcDbEntity
  8
layer 1
 62
     7
100
AcDbSpline
210
0.0
220
0.0
230
1.0
 70
    11
 71
     3
 72
    20
 73
    16
 74
     0
 42
0.0000000001
 43
0.0000000001
 12
1.0
 22
0.0
 32
0.0
 13
1.0
 23
0.0
 33
0.0
 40
0.0
 40
0.0
 40
0.0
 40
0.0
 40
0.2
 40
0.2
 40
0.2
 40
0.2
 40
0.4
 40
0.4
 40
0.4
 40
0.4
 40
0.6
 40
0.6
 40
0.6
 40
0.6
 40
1.0
 40
1.0
 40
1.0
 40
1.0
 10
-164.8941
 20
-95.845
 30
0.0
 10
-164.8941
 20
-95.845
 30
0.0
 10
-150.53
 20
-95.845
 30
0.0
 10
-150.53
 20
-95.845
 30
0.0
 10
-150.53
 20
-95.845
 30
0.0
 10
-150.53
 20
-95.845
 30
0.0
 10
-150.53
 20
-100.9421
 30
0.0
 10
-150.53
 20
-100.9421
 30
0.0
 10
-150.53
 20
-100.9421
 30
0.0
 10
-150.53
 20
-100.9421
 30
0.0
 10
-164.8941
 20
-100.9421
 30
0.0
 10
-164.8941
 20
-100.9421
 30
0.0
 10
-164.8941
 20
-100.9421
 30
0.0
 10
-164.8941
 20
-100.9421
 30
0.0
 10
-164.8941
 20
-95.845
 30
0.0
 10
-164.8941
 20
-95.845
 30
0.0
  0
SPLINE
  5
110
330
1F
100
AcDbEntity
  8
layer 1
 62
     7
100
AcDbSpline
210
0.0
220
0.0
230
1.0
 70
    11
 71
     3
 72
    20
 73
    16
 74
     0
 42
0.0000000001
 43
0.0000000001
 12
1.0
 22
0.0
 32
0.0
 13
1.0
 23
0.0
 33
0.0
 40
0.0
 40
0.0
 40
0.0
 40
0.0
 40
0.2
 40
0.2
 40
0.2
 40
0.2
 40
0.4
 40
0.4
 40
0.4
 40
0.4
 40
0.6
 40
0.6
 40
0.6
 40
0.6
 40
1.0
 40
1.0
 40
1.0
 40
1.0
 10
-164.8941
 20
-105.0809
 30
0.0
 10
-164.8941
 20
-105.0809
 30
0.0
 10
-150.53
 20
-105.0809
 30
0.0
 10
-150.53
 20
-105.0809
 30
0.0
 10
-150.53
 20
-105.0809
 30
0.0
 10
-150.53
 20
-105.0809
 30
0.0
 10
-150.53
 20
-110.1782
 30
0.0
 10
-150.53
 20
-110.1782
 30
0.0
 10
-150.53
 20
-110.1782
 30
0.0
 10
-150.53
 20
-110.1782
 30
0.0
 10
-164.8941
 20
-110.1782
 30
0.0
 10
-164.8941
 20
-110.1782
 30
0.0
 10
-164.8941
 20
-110.1782
 30
0.0
 10
-164.8941
 20
-110.1782
 30
0.0
 10
-164.8941
 20
-105.0809
 30
0.0
 10
-164.8941
 20
-105.0809
 30
0.0
  0
SPLINE
  5
111
330
1F
100
AcDbEntity
  8
layer 1
 62
     7
100
AcDbSpline
210
0.0
220
0.0
230
1.0
 70
    11
 71
     3
 72
    20
 73
    16
 74
     0
 42
0.0000000001
 43
0.0000000001
 12
1.0
 22
0.0
 32
0.0
 13
1.0
 23
0.0
 33
0.0
 40
0.0
 40
0.0
 40
0.0
 40
0.0
 40
0.2
 40
0.2
 40
0.2
 40
0.2
 40
0.4
 40
0.4
 40
0.4
 40
0.4
 40
0.6
 40
0.6
 40
0.6
 40
0.6
 40
1.0
 40
1.0
 40
1.0
 40
1.0
 10
-183.0775
 20
-35.8105
 30
0.0
 10
-183.0775
 20
-35.8105
 30
0.0
 10
-168.7135
 20
-35.8105
 30
0.0
 10
-168.7135
 20
-35.8105
 30
0.0
 10
-168.7135
 20
-35.8105
 30
0.0
 10
-168.7135
 20
-35.8105
 30
0.0
 10
-168.7135
 20
-43.8584
 30
0.0
 10
-168.7135
 20
-43.8584
 30
0.0
 10
-168.7135
 20
-43.8584
 30
0.0
 10
-168.7135
 20
-43.8584
 30
0.0
 10
-183.0775
 20
-43.8584
 30
0.0
 10
-183.0775
 20
-43.8584
 30
0.0
 10
-183.0775
 20
-43.8584
 30
0.0
 10
-183.0775
 20
-43.8584
 30
0.0
 10
-183.0775
 20
-35.8105
 30
0.0
 10
-183.0775
 20
-35.8105
 30
0.0
  0
SPLINE
  5
112
330
1F
100
AcDbEntity
  8
layer 1
 62
     7
100
AcDbSpline
210
0.0
220
0.0
230
1.0
 70
    11
 71
     3
 72
    20
 73
    16
 74
     0
 42
0.0000000001
 43
0.0000000001
 12
1.0
 22
0.0
 32
0.0
 13
1.0
 23
0.0
 33
0.0
 40
0.0
 40
0.0
 40
0.0
 40
0.0
 40
0.2
 40
0.2
 40
0.2
 40
0.2
 40
0.4
 40
0.4
 40
0.4
 40
0.4
 40
0.6
 40
0.6
 40
0.6
 40
0.6
 40
1.0
 40
1.0
 40
1.0
 40
1.0
 10
-19.33
 20
-35.8105
 30
0.0
 10
-19.33
 20
-35.8105
 30
0.0
 10
-4.9663
 20
-35.8105
 30
0.0
 10
-4.9663
 20
-35.8105
 30
0.0
 10
-4.9663
 20
-35.8105
 30
0.0
 10
-4.9663
 20
-35.8105
 30
0.0
 10
-4.9663
 20
-43.8584
 30
0.0
 10
-4.9663
 20
-43.8584
 30
0.0
 10
-4.9663
 20
-43.8584
 30
0.0
 10
-4.9663
 20
-43.8584
 30
0.0
 10
-19.33
 20
-43.8584
 30
0.0
 10
-19.33
 20
-43.8584
 30
0.0
 10
-19.33
 20
-43.8584
 30
0.0
 10
-19.33
 20
-43.8584
 30
0.0
 10
-19.33
 20
-35.8105
 30
0.0
 10
-19.33
 20
-35.8105
 30
0.0
  0
SPLINE
  5
113
330
1F
100
AcDbEntity
  8
layer 1
 62
     7
100
AcDbSpline
210
0.0
220
0.0
230
1.0
 70
    11
 71
     3
 72
    20
 73
    16
 74
     0
 42
0.0000000001
 43
0.0000000001
 12
1.0
 22
0.0
 32
0.0
 13
1.0
 23
0.0
 33
0.0
 40
0.0
 40
0.0
 40
0.0
 40
0.0
 40
0.2
 40
0.2
 40
0.2
 40
0.2
 40
0.4
 40
0.4
 40
0.4
 40
0.4
 40
0.6
 40
0.6
 40
0.6
 40
0.6
 40
1.0
 40
1.0
 40
1.0
 40
1.0
 10
-183.0775
 20
-59.6703
 30
0.0
 10
-183.0775
 20
-59.6703
 30
0.0
 10
-168.7135
 20
-59.6703
 30
0.0
 10
-168.7135
 20
-59.6703
 30
0.0
 10
-168.7135
 20
-59.6703
 30
0.0
 10
-168.7135
 20
-59.6703
 30
0.0
 10
-168.7135
 20
-67.3132
 30
0.0
 10
-168.7135
 20
-67.3132
 30
0.0
 10
-168.7135
 20
-67.3132
 30
0.0
 10
-168.7135
 20
-67.3132
 30
0.0
 10
-183.0775
 20
-67.3132
 30
0.0
 10
-183.0775
 20
-67.3132
 30
0.0
 10
-183.0775
 20
-67.3132
 30
0.0
 10
-183.0775
 20
-67.3132
 30
0.0
 10
-183.0775
 20
-59.6703
 30
0.0
 10
-183.0775
 20
-59.6703
 30
0.0
  0
SPLINE
  5
114
330
1F
100
AcDbEntity
  8
layer 1
 62
     7
100
AcDbSpline
210
0.0
220
0.0
230
1.0
 70
    11
 71
     3
 72
    20
 73
    16
 74
     0
 42
0.0000000001
 43
0.0000000001
 12
1.0
 22
0.0
 32
0.0
 13
1.0
 23
0.0
 33
0.0
 40
0.0
 40
0.0
 40
0.0
 40
0.0
 40
0.2
 40
0.2
 40
0.2
 40
0.2
 40
0.4
 40
0.4
 40
0.4
 40
0.4
 40
0.6
 40
0.6
 40
0.6
 40
0.6
 40
1.0
 40
1.0
 40
1.0
 40
1.0
 10
-19.33
 20
-59.6703
 30
0.0
 10
-19.33
 20
-59.6703
 30
0.0
 10
-4.9663
 20
-59.6703
 30
0.0
 10
-4.9663
 20
-59.6703
 30
0.0
 10
-4.9663
 20
-59.6703
 30
0.0
 10
-4.9663
 20
-59.6703
 30
0.0
 10
-4.9663
 20
-67.3132
 30
0.0
 10
-4.9663
 20
-67.3132
 30
0.0
 10
-4.9663
 20
-67.3132
 30
0.0
 10
-4.9663
 20
-67.3132
 30
0.0
 10
-19.33
 20
-67.3132
 30
0.0
 10
-19.33
 20
-67.3132
 30
0.0
 10
-19.33
 20
-67.3132
 30
0.0
 10
-19.33
 20
-67.3132
 30
0.0
 10
-19.33
 20
-59.6703
 30
0.0
 10
-19.33
 20
-59.6703
 30
0.0
  0
SPLINE
  5
115
330
1F
100
AcDbEntity
  8
layer 1
 62
     7
100
AcDbSpline
210
0.0
220
0.0
230
1.0
 70
    11
 71
     3
 72
    20
 73
    16
 74
     0
 42
0.0000000001
 43
0.0000000001
 12
1.0
 22
0.0
 32
0.0
 13
1.0
 23
0.0
 33
0.0
 40
0.0
 40
0.0
 40
0.0
 40
0.0
 40
0.2
 40
0.2
 40
0.2
 40
0.2
 40
0.4
 40
0.4
 40
0.4
 40
0.4
 40
0.6
 40
0.6
 40
0.6
 40
0.6
 40
1.0
 40
1.0
 40
1.0
 40
1.0
 10
-183.0775
 20
-83.7227
 30
0.0
 10
-183.0775
 20
-83.7227
 30
0.0
 10
-168.7135
 20
-83.7227
 30
0.0
 10
-168.7135
 20
-83.7227
 30
0.0
 10
-168.7135
 20
-83.7227
 30
0.0
 10
-168.7135
 20
-83.7227
 30
0.0
 10
-168.7135
 20
-91.7725
 30
0.0
 10
-168.7135
 20
-91.7725
 30
0.0
 10
-168.7135
 20
-91.7725
 30
0.0
 10
-168.7135
 20
-91.7725
 30
0.0
 10
-183.0775
 20
-91.7725
 30
0.0
 10
-183.0775
 20
-91.7725
 30
0.0
 10
-183.0775
 20
-91.7725
 30
0.0
 10
-183.0775
 20
-91.7725
 30
0.0
 10
-183.0775
 20
-83.7227
 30
0.0
 10
-183.0775
 20
-83.7227
 30
0.0
  0
SPLINE
  5
116
330
1F
100
AcDbEntity
  8
layer 1
 62
     7
100
AcDbSpline
210
0.0
220
0.0
230
1.0
 70
    11
 71
     3
 72
    20
 73
    16
 74
     0
 42
0.0000000001
 43
0.0000000001
 12
1.0
 22
0.0
 32
0.0
 13
1.0
 23
0.0
 33
0.0
 40
0.0
 40
0.0
 40
0.0
 40
0.0
 40
0.2
 40
0.2
 40
0.2
 40
0.2
 40
0.4
 40
0.4
 40
0.4
 40
0.4
 40
0.6
 40
0.6
 40
0.6
 40
0.6
 40
1.0
 40
1.0
 40
1.0
 40
1.0
 10
-19.33
 20
-83.7227
 30
0.0
 10
-19.33
 20
-83.7227
 30
0.0
 10
-4.9663
 20
-83.7227
 30
0.0
 10
-4.9663
 20
-83.7227
 30
0.0
 10
-4.9663
 20
-83.7227
 30
0.0
 10
-4.9663
 20
-83.7227
 30
0.0
 10
-4.9663
 20
-91.7725
 30
0.0
 10
-4.9663
 20
-91.7725
 30
0.0
 10
-4.9663
 20
-91.7725
 30
0.0
 10
-4.9663
 20
-91.7725
 30
0.0
 10
-19.33
 20
-91.7725
 30
0.0
 10
-19.33
 20
-91.7725
 30
0.0
 10
-19.33
 20
-91.7725
 30
0.0
 10
-19.33
 20
-91.7725
 30
0.0
 10
-19.33
 20
-83.7227
 30
0.0
 10
-19.33
 20
-83.7227
 30
0.0
  0
SPLINE
  5
117
330
1F
100
AcDbEntity
  8
layer 1
 62
     7
100
AcDbSpline
210
0.0
220
0.0
230
1.0
 70
    11
 71
     3
 72
    20
 73
    16
 74
     0
 42
0.0000000001
 43
0.0000000001
 12
1.0
 22
0.0
 32
0.0
 13
1.0
 23
0.0
 33
0.0
 40
0.0
 40
0.0
 40
0.0
 40
0.0
 40
0.2
 40
0.2
 40
0.2
 40
0.2
 40
0.4
 40
0.4
 40
0.4
 40
0.4
 40
0.6
 40
0.6
 40
0.6
 40
0.6
 40
1.0
 40
1.0
 40
1.0
 40
1.0
 10
-183.0775
 20
-23.4959
 30
0.0
 10
-183.0775
 20
-23.4959
 30
0.0
 10
-168.7135
 20
-23.4959
 30
0.0
 10
-168.7135
 20
-23.4959
 30
0.0
 10
-168.7135
 20
-23.4959
 30
0.0
 10
-168.7135
 20
-23.4959
 30
0.0
 10
-168.7135
 20
-31.5438
 30
0.0
 10
-168.7135
 20
-31.5438
 30
0.0
 10
-168.7135
 20
-31.5438
 30
0.0
 10
-168.7135
 20
-31.5438
 30
0.0
 10
-183.0775
 20
-31.5438
 30
0.0
 10
-183.0775
 20
-31.5438
 30
0.0
 10
-183.0775
 20
-31.5438
 30
0.0
 10
-183.0775
 20
-31.5438
 30
0.0
 10
-183.0775
 20
-23.4959
 30
0.0
 10
-183.0775
 20
-23.4959
 30
0.0
  0
SPLINE
  5
118
330
1F
100
AcDbEntity
  8
layer 1
 62
     7
100
AcDbSpline
210
0.0
220
0.0
230
1.0
 70
    11
 71
     3
 72
    20
 73
    16
 74
     0
 42
0.0000000001
 43
0.0000000001
 12
1.0
 22
0.0
 32
0.0
 13
1.0
 23
0.0
 33
0.0
 40
0.0
 40
0.0
 40
0.0
 40
0.0
 40
0.2
 40
0.2
 40
0.2
 40
0.2
 40
0.4
 40
0.4
 40
0.4
 40
0.4
 40
0.6
 40
0.6
 40
0.6
 40
0.6
 40
1.0
 40
1.0
 40
1.0
 40
1.0
 10
-19.33
 20
-23.4959
 30
0.0
 10
-19.33
 20
-23.4959
 30
0.0
 10
-4.9663
 20
-23.4959
 30
0.0
 10
-4.9663
 20
-23.4959
 30
0.0
 10
-4.9663
 20
-23.4959
 30
0.0
 10
-4.9663
 20
-23.4959
 30
0.0
 10
-4.9663
 20
-31.5438
 30
0.0
 10
-4.9663
 20
-31.5438
 30
0.0
 10
-4.9663
 20
-31.5438
 30
0.0
 10
-4.9663
 20
-31.5438
 30
0.0
 10
-19.33
 20
-31.5438
 30
0.0
 10
-19.33
 20
-31.5438
 30
0.0
 10
-19.33
 20
-31.5438
 30
0.0
 10
-19.33
 20
-31.5438
 30
0.0
 10
-19.33
 20
-23.4959
 30
0.0
 10
-19.33
 20
-23.4959
 30
0.0
  0
SPLINE
  5
119
330
1F
100
AcDbEntity
  8
layer 1
 62
     7
100
AcDbSpline
210
0.0
220
0.0
230
1.0
 70
    11
 71
     3
 72
    20
 73
    16
 74
     0
 42
0.0000000001
 43
0.0000000001
 12
1.0
 22
0.0
 32
0.0
 13
1.0
 23
0.0
 33
0.0
 40
0.0
 40
0.0
 40
0.0
 40
0.0
 40
0.2
 40
0.2
 40
0.2
 40
0.2
 40
0.4
 40
0.4
 40
0.4
 40
0.4
 40
0.6
 40
0.6
 40
0.6
 40
0.6
 40
1.0
 40
1.0
 40
1.0
 40
1.0
 10
-183.0775
 20
-47.9328
 30
0.0
 10
-183.0775
 20
-47.9328
 30
0.0
 10
-168.7135
 20
-47.9328
 30
0.0
 10
-168.7135
 20
-47.9328
 30
0.0
 10
-168.7135
 20
-47.9328
 30
0.0
 10
-168.7135
 20
-47.9328
 30
0.0
 10
-168.7135
 20
-55.5757
 30
0.0
 10
-168.7135
 20
-55.5757
 30
0.0
 10
-168.7135
 20
-55.5757
 30
0.0
 10
-168.7135
 20
-55.5757
 30
0.0
 10
-183.0775
 20
-55.5757
 30
0.0
 10
-183.0775
 20
-55.5757
 30
0.0
 10
-183.0775
 20
-55.5757
 30
0.0
 10
-183.0775
 20
-55.5757
 30
0.0
 10
-183.0775
 20
-47.9328
 30
0.0
 10
-183.0775
 20
-47.9328
 30
0.0
  0
SPLINE
  5
11A
330
1F
100
AcDbEntity
  8
layer 1
 62
     7
100
AcDbSpline
210
0.0
220
0.0
230
1.0
 70
    11
 71
     3
 72
    20
 73
    16
 74
     0
 42
0.0000000001
 43
0.0000000001
 12
1.0
 22
0.0
 32
0.0
 13
1.0
 23
0.0
 33
0.0
 40
0.0
 40
0.0
 40
0.0
 40
0.0
 40
0.2
 40
0.2
 40
0.2
 40
0.2
 40
0.4
 40
0.4
 40
0.4
 40
0.4
 40
0.6
 40
0.6
 40
0.6
 40
0.6
 40
1.0
 40
1.0
 40
1.0
 40
1.0
 10
-19.33
 20
-47.9328
 30
0.0
 10
-19.33
 20
-47.9328
 30
0.0
 10
-4.9663
 20
-47.9328
 30
0.0
 10
-4.9663
 20
-47.9328
 30
0.0
 10
-4.9663
 20
-47.9328
 30
0.0
 10
-4.9663
 20
-47.9328
 30
0.0
 10
-4.9663
 20
-55.5757
 30
0.0
 10
-4.9663
 20
-55.5757
 30
0.0
 10
-4.9663
 20
-55.5757
 30
0.0
 10
-4.9663
 20
-55.5757
 30
0.0
 10
-19.33
 20
-55.5757
 30
0.0
 10
-19.33
 20
-55.5757
 30
0.0
 10
-19.33
 20
-55.5757
 30
0.0
 10
-19.33
 20
-55.5757
 30
0.0
 10
-19.33
 20
-47.9328
 30
0.0
 10
-19.33
 20
-47.9328
 30
0.0
  0
SPLINE
  5
11B
330
1F
100
AcDbEntity
  8
layer 1
 62
     7
100
AcDbSpline
210
0.0
220
0.0
230
1.0
 70
    11
 71
     3
 72
    20
 73
    16
 74
     0
 42
0.0000000001
 43
0.0000000001
 12
1.0
 22
0.0
 32
0.0
 13
1.0
 23
0.0
 33
0.0
 40
0.0
 40
0.0
 40
0.0
 40
0.0
 40
0.2
 40
0.2
 40
0.2
 40
0.2
 40
0.4
 40
0.4
 40
0.4
 40
0.4
 40
0.6
 40
0.6
 40
0.6
 40
0.6
 40
1.0
 40
1.0
 40
1.0
 40
1.0
 10
-183.0775
 20
-71.4078
 30
0.0
 10
-183.0775
 20
-71.4078
 30
0.0
 10
-168.7135
 20
-71.4078
 30
0.0
 10
-168.7135
 20
-71.4078
 30
0.0
 10
-168.7135
 20
-71.4078
 30
0.0
 10
-168.7135
 20
-71.4078
 30
0.0
 10
-168.7135
 20
-79.4576
 30
0.0
 10
-168.7135
 20
-79.4576
 30
0.0
 10
-168.7135
 20
-79.4576
 30
0.0
 10
-168.7135
 20
-79.4576
 30
0.0
 10
-183.0775
 20
-79.4576
 30
0.0
 10
-183.0775
 20
-79.4576
 30
0.0
 10
-183.0775
 20
-79.4576
 30
0.0
 10
-183.0775
 20
-79.4576
 30
0.0
 10
-183.0775
 20
-71.4078
 30
0.0
 10
-183.0775
 20
-71.4078
 30
0.0
  0
SPLINE
  5
11C
330
1F
100
AcDbEntity
  8
layer 1
 62
     7
100
AcDbSpline
210
0.0
220
0.0
230
1.0
 70
    11
 71
     3
 72
    20
 73
    16
 74
     0
 42
0.0000000001
 43
0.0000000001
 12
1.0
 22
0.0
 32
0.0
 13
1.0
 23
0.0
 33
0.0
 40
0.0
 40
0.0
 40
0.0
 40
0.0
 40
0.2
 40
0.2
 40
0.2
 40
0.2
 40
0.4
 40
0.4
 40
0.4
 40
0.4
 40
0.6
 40
0.6
 40
0.6
 40
0.6
 40
1.0
 40
1.0
 40
1.0
 40
1.0
 10
-19.33
 20
-71.4078
 30
0.0
 10
-19.33
 20
-71.4078
 30
0.0
 10
-4.9663
 20
-71.4078
 30
0.0
 10
-4.9663
 20
-71.4078
 30
0.0
 10
-4.9663
 20
-71.4078
 30
0.0
 10
-4.9663
 20
-71.4078
 30
0.0
 10
-4.9663
 20
-79.4576
 30
0.0
 10
-4.9663
 20
-79.4576
 30
0.0
 10
-4.9663
 20
-79.4576
 30
0.0
 10
-4.9663
 20
-79.4576
 30
0.0
 10
-19.33
 20
-79.4576
 30
0.0
 10
-19.33
 20
-79.4576
 30
0.0
 10
-19.33
 20
-79.4576
 30
0.0
 10
-19.33
 20
-79.4576
 30
0.0
 10
-19.33
 20
-71.4078
 30
0.0
 10
-19.33
 20
-71.4078
 30
0.0
  0
SPLINE
  5
11D
330
1F
100
AcDbEntity
  8
layer 1
 62
     7
100
AcDbSpline
210
0.0
220
0.0
230
1.0
 70
    11
 71
     3
 72
    20
 73
    16
 74
     0
 42
0.0000000001
 43
0.0000000001
 12
1.0
 22
0.0
 32
0.0
 13
1.0
 23
0.0
 33
0.0
 40
0.0
 40
0.0
 40
0.0
 40
0.0
 40
0.2
 40
0.2
 40
0.2
 40
0.2
 40
0.4
 40
0.4
 40
0.4
 40
0.4
 40
0.6
 40
0.6
 40
0.6
 40
0.6
 40
1.0
 40
1.0
 40
1.0
 40
1.0
 10
-183.0775
 20
-95.845
 30
0.0
 10
-183.0775
 20
-95.845
 30
0.0
 10
-168.7135
 20
-95.845
 30
0.0
 10
-168.7135
 20
-95.845
 30
0.0
 10
-168.7135
 20
-95.845
 30
0.0
 10
-168.7135
 20
-95.845
 30
0.0
 10
-168.7135
 20
-110.1128
 30
0.0
 10
-168.7135
 20
-110.1128
 30
0.0
 10
-168.7135
 20
-110.1128
 30
0.0
 10
-168.7135
 20
-110.1128
 30
0.0
 10
-183.0775
 20
-110.1128
 30
0.0
 10
-183.0775
 20
-110.1128
 30
0.0
 10
-183.0775
 20
-110.1128
 30
0.0
 10
-183.0775
 20
-110.1128
 30
0.0
 10
-183.0775
 20
-95.845
 30
0.0
 10
-183.0775
 20
-95.845
 30
0.0
  0
SPLINE
  5
11E
330
1F
100
AcDbEntity
  8
layer 1
 62
     7
100
AcDbSpline
210
0.0
220
0.0
230
1.0
 70
    11
 71
     3
 72
    20
 73
    16
 74
     0
 42
0.0000000001
 43
0.0000000001
 12
1.0
 22
0.0
 32
0.0
 13
1.0
 23
0.0
 33
0.0
 40
0.0
 40
0.0
 40
0.0
 40
0.0
 40
0.2
 40
0.2
 40
0.2
 40
0.2
 40
0.4
 40
0.4
 40
0.4
 40
0.4
 40
0.6
 40
0.6
 40
0.6
 40
0.6
 40
1.0
 40
1.0
 40
1.0
 40
1.0
 10
-19.33
 20
-95.845
 30
0.0
 10
-19.33
 20
-95.845
 30
0.0
 10
-4.9663
 20
-95.845
 30
0.0
 10
-4.9663
 20
-95.845
 30
0.0
 10
-4.9663
 20
-95.845
 30
0.0
 10
-4.9663
 20
-95.845
 30
0.0
 10
-4.9663
 20
-110.1128
 30
0.0
 10
-4.9663
 20
-110.1128
 30
0.0
 10
-4.9663
 20
-110.1128
 30
0.0
 10
-4.9663
 20
-110.1128
 30
0.0
 10
-19.33
 20
-110.1128
 30
0.0
 10
-19.33
 20
-110.1128
 30
0.0
 10
-19.33
 20
-110.1128
 30
0.0
 10
-19.33
 20
-110.1128
 30
0.0
 10
-19.33
 20
-95.845
 30
0.0
 10
-19.33
 20
-95.845
 30
0.0
  0
SPLINE
  5
11F
330
1F
100
AcDbEntity
  8
layer 1
 62
     7
100
AcDbSpline
210
0.0
220
0.0
230
1.0
 70
    11
 71
     3
 72
    20
 73
    16
 74
     0
 42
0.0000000001
 43
0.0000000001
 12
1.0
 22
0.0
 32
0.0
 13
1.0
 23
0.0
 33
0.0
 40
0.0
 40
0.0
 40
0.0
 40
0.0
 40
0.2
 40
0.2
 40
0.2
 40
0.2
 40
0.4
 40
0.4
 40
0.4
 40
0.4
 40
0.6
 40
0.6
 40
0.6
 40
0.6
 40
1.0
 40
1.0
 40
1.0
 40
1.0
 10
-183.0775
 20
-5.1199
 30
0.0
 10
-183.0775
 20
-5.1199
 30
0.0
 10
-168.7135
 20
-5.1199
 30
0.0
 10
-168.7135
 20
-5.1199
 30
0.0
 10
-168.7135
 20
-5.1199
 30
0.0
 10
-168.7135
 20
-5.1199
 30
0.0
 10
-168.7135
 20
-19.3877
 30
0.0
 10
-168.7135
 20
-19.3877
 30
0.0
 10
-168.7135
 20
-19.3877
 30
0.0
 10
-168.7135
 20
-19.3877
 30
0.0
 10
-183.0775
 20
-19.3877
 30
0.0
 10
-183.0775
 20
-19.3877
 30
0.0
 10
-183.0775
 20
-19.3877
 30
0.0
 10
-183.0775
 20
-19.3877
 30
0.0
 10
-183.0775
 20
-5.1199
 30
0.0
 10
-183.0775
 20
-5.1199
 30
0.0
  0
SPLINE
  5
120
330
1F
100
AcDbEntity
  8
layer 1
 62
     7
100
AcDbSpline
210
0.0
220
0.0
230
1.0
 70
    11
 71
     3
 72
    20
 73
    16
 74
     0
 42
0.0000000001
 43
0.0000000001
 12
1.0
 22
0.0
 32
0.0
 13
1.0
 23
0.0
 33
0.0
 40
0.0
 40
0.0
 40
0.0
 40
0.0
 40
0.2
 40
0.2
 40
0.2
 40
0.2
 40
0.4
 40
0.4
 40
0.4
 40
0.4
 40
0.6
 40
0.6
 40
0.6
 40
0.6
 40
1.0
 40
1.0
 40
1.0
 40
1.0
 10
-19.33
 20
-5.1199
 30
0.0
 10
-19.33
 20
-5.1199
 30
0.0
 10
-4.9663
 20
-5.1199
 30
0.0
 10
-4.9663
 20
-5.1199
 30
0.0
 10
-4.9663
 20
-5.1199
 30
0.0
 10
-4.9663
 20
-5.1199
 30
0.0
 10
-4.9663
 20
-19.3877
 30
0.0
 10
-4.9663
 20
-19.3877
 30
0.0
 10
-4.9663
 20
-19.3877
 30
0.0
 10
-4.9663
 20
-19.3877
 30
0.0
 10
-19.33
 20
-19.3877
 30
0.0
 10
-19.33
 20
-19.3877
 30
0.0
 10
-19.33
 20
-19.3877
 30
0.0
 10
-19.33
 20
-19.3877
 30
0.0
 10
-19.33
 20
-5.1199
 30
0.0
 10
-19.33
 20
-5.1199
 30
0.0
  0
SPLINE
  5
121
330
1F
100
AcDbEntity
  8
layer 1
 62
     7
100
AcDbSpline
210
0.0
220
0.0
230
1.0
 70
    11
 71
     3
 72
    20
 73
    16
 74
     0
 42
0.0000000001
 43
0.0000000001
 12
1.0
 22
0.0
 32
0.0
 13
1.0
 23
0.0
 33
0.0
 40
0.0
 40
0.0
 40
0.0
 40
0.0
 40
0.2
 40
0.2
 40
0.2
 40
0.2
 40
0.4
 40
0.4
 40
0.4
 40
0.4
 40
0.6
 40
0.6
 40
0.6
 40
0.6
 40
1.0
 40
1.0
 40
1.0
 40
1.0
 10
-164.8941
 20
-23.4959
 30
0.0
 10
-164.8941
 20
-23.4959
 30
0.0
 10
-150.53
 20
-23.4959
 30
0.0
 10
-150.53
 20
-23.4959
 30
0.0
 10
-150.53
 20
-23.4959
 30
0.0
 10
-150.53
 20
-23.4959
 30
0.0
 10
-150.53
 20
-43.8824
 30
0.0
 10
-150.53
 20
-43.8824
 30
0.0
 10
-150.53
 20
-43.8824
 30
0.0
 10
-150.53
 20
-43.8824
 30
0.0
 10
-164.8941
 20
-43.8824
 30
0.0
 10
-164.8941
 20
-43.8824
 30
0.0
 10
-164.8941
 20
-43.8824
 30
0.0
 10
-164.8941
 20
-43.8824
 30
0.0
 10
-164.8941
 20
-23.4959
 30
0.0
 10
-164.8941
 20
-23.4959
 30
0.0
  0
SPLINE
  5
122
330
1F
100
AcDbEntity
  8
layer 1
 62
     7
100
AcDbSpline
210
0.0
220
0.0
230
1.0
 70
    11
 71
     3
 72
    20
 73
    16
 74
     0
 42
0.0000000001
 43
0.0000000001
 12
1.0
 22
0.0
 32
0.0
 13
1.0
 23
0.0
 33
0.0
 40
0.0
 40
0.0
 40
0.0
 40
0.0
 40
0.2
 40
0.2
 40
0.2
 40
0.2
 40
0.4
 40
0.4
 40
0.4
 40
0.4
 40
0.6
 40
0.6
 40
0.6
 40
0.6
 40
1.0
 40
1.0
 40
1.0
 40
1.0
 10
-164.8941
 20
-5.1199
 30
0.0
 10
-164.8941
 20
-5.1199
 30
0.0
 10
-150.53
 20
-5.1199
 30
0.0
 10
-150.53
 20
-5.1199
 30
0.0
 10
-150.53
 20
-5.1199
 30
0.0
 10
-150.53
 20
-5.1199
 30
0.0
 10
-150.53
 20
-10.217
 30
0.0
 10
-150.53
 20
-10.217
 30
0.0
 10
-150.53
 20
-10.217
 30
0.0
 10
-150.53
 20
-10.217
 30
0.0
 10
-164.8941
 20
-10.217
 30
0.0
 10
-164.8941
 20
-10.217
 30
0.0
 10
-164.8941
 20
-10.217
 30
0.0
 10
-164.8941
 20
-10.217
 30
0.0
 10
-164.8941
 20
-5.1199
 30
0.0
 10
-164.8941
 20
-5.1199
 30
0.0
  0
SPLINE
  5
123
330
1F
100
AcDbEntity
  8
layer 1
 62
     7
100
AcDbSpline
210
0.0
220
0.0
230
1.0
 70
    11
 71
     3
 72
    20
 73
    16
 74
     0
 42
0.0000000001
 43
0.0000000001
 12
1.0
 22
0.0
 32
0.0
 13
1.0
 23
0.0
 33
0.0
 40
0.0
 40
0.0
 40
0.0
 40
0.0
 40
0.2
 40
0.2
 40
0.2
 40
0.2
 40
0.4
 40
0.4
 40
0.4
 40
0.4
 40
0.6
 40
0.6
 40
0.6
 40
0.6
 40
1.0
 40
1.0
 40
1.0
 40
1.0
 10
-164.8941
 20
-14.3561
 30
0.0
 10
-164.8941
 20
-14.3561
 30
0.0
 10
-150.53
 20
-14.3561
 30
0.0
 10
-150.53
 20
-14.3561
 30
0.0
 10
-150.53
 20
-14.3561
 30
0.0
 10
-150.53
 20
-14.3561
 30
0.0
 10
-150.53
 20
-19.4532
 30
0.0
 10
-150.53
 20
-19.4532
 30
0.0
 10
-150.53
 20
-19.4532
 30
0.0
 10
-150.53
 20
-19.4532
 30
0.0
 10
-164.8941
 20
-19.4532
 30
0.0
 10
-164.8941
 20
-19.4532
 30
0.0
 10
-164.8941
 20
-19.4532
 30
0.0
 10
-164.8941
 20
-19.4532
 30
0.0
 10
-164.8941
 20
-14.3561
 30
0.0
 10
-164.8941
 20
-14.3561
 30
0.0
  0
SPLINE
  5
124
330
1F
100
AcDbEntity
  8
layer 1
 62
     7
100
AcDbSpline
210
0.0
220
0.0
230
1.0
 70
    11
 71
     3
 72
    20
 73
    16
 74
     0
 42
0.0000000001
 43
0.0000000001
 12
1.0
 22
0.0
 32
0.0
 13
1.0
 23
0.0
 33
0.0
 40
0.0
 40
0.0
 40
0.0
 40
0.0
 40
0.2
 40
0.2
 40
0.2
 40
0.2
 40
0.4
 40
0.4
 40
0.4
 40
0.4
 40
0.6
 40
0.6
 40
0.6
 40
0.6
 40
1.0
 40
1.0
 40
1.0
 40
1.0
 10
-146.7106
 20
-23.4959
 30
0.0
 10
-146.7106
 20
-23.4959
 30
0.0
 10
-132.3465
 20
-23.4959
 30
0.0
 10
-132.3465
 20
-23.4959
 30
0.0
 10
-132.3465
 20
-23.4959
 30
0.0
 10
-132.3465
 20
-23.4959
 30
0.0
 10
-132.3465
 20
-43.8824
 30
0.0
 10
-132.3465
 20
-43.8824
 30
0.0
 10
-132.3465
 20
-43.8824
 30
0.0
 10
-132.3465
 20
-43.8824
 30
0.0
 10
-146.7106
 20
-43.8824
 30
0.0
 10
-146.7106
 20
-43.8824
 30
0.0
 10
-146.7106
 20
-43.8824
 30
0.0
 10
-146.7106
 20
-43.8824
 30
0.0
 10
-146.7106
 20
-23.4959
 30
0.0
 10
-146.7106
 20
-23.4959
 30
0.0
  0
SPLINE
  5
125
330
1F
100
AcDbEntity
  8
layer 1
 62
     7
100
AcDbSpline
210
0.0
220
0.0
230
1.0
 70
    11
 71
     3
 72
    20
 73
    16
 74
     0
 42
0.0000000001
 43
0.0000000001
 12
1.0
 22
0.0
 32
0.0
 13
1.0
 23
0.0
 33
0.0
 40
0.0
 40
0.0
 40
0.0
 40
0.0
 40
0.2
 40
0.2
 40
0.2
 40
0.2
 40
0.4
 40
0.4
 40
0.4
 40
0.4
 40
0.6
 40
0.6
 40
0.6
 40
0.6
 40
1.0
 40
1.0
 40
1.0
 40
1.0
 10
-146.7106
 20
-5.1199
 30
0.0
 10
-146.7106
 20
-5.1199
 30
0.0
 10
-132.3465
 20
-5.1199
 30
0.0
 10
-132.3465
 20
-5.1199
 30
0.0
 10
-132.3465
 20
-5.1199
 30
0.0
 10
-132.3465
 20
-5.1199
 30
0.0
 10
-132.3465
 20
-10.217
 30
0.0
 10
-132.3465
 20
-10.217
 30
0.0
 10
-132.3465
 20
-10.217
 30
0.0
 10
-132.3465
 20
-10.217
 30
0.0
 10
-146.7106
 20
-10.217
 30
0.0
 10
-146.7106
 20
-10.217
 30
0.0
 10
-146.7106
 20
-10.217
 30
0.0
 10
-146.7106
 20
-10.217
 30
0.0
 10
-146.7106
 20
-5.1199
 30
0.0
 10
-146.7106
 20
-5.1199
 30
0.0
  0
SPLINE
  5
126
330
1F
100
AcDbEntity
  8
layer 1
 62
     7
100
AcDbSpline
210
0.0
220
0.0
230
1.0
 70
    11
 71
     3
 72
    20
 73
    16
 74
     0
 42
0.0000000001
 43
0.0000000001
 12
1.0
 22
0.0
 32
0.0
 13
1.0
 23
0.0
 33
0.0
 40
0.0
 40
0.0
 40
0.0
 40
0.0
 40
0.2
 40
0.2
 40
0.2
 40
0.2
 40
0.4
 40
0.4
 40
0.4
 40
0.4
 40
0.6
 40
0.6
 40
0.6
 40
0.6
 40
1.0
 40
1.0
 40
1.0
 40
1.0
 10
-146.7106
 20
-14.3561
 30
0.0
 10
-146.7106
 20
-14.3561
 30
0.0
 10
-132.3465
 20
-14.3561
 30
0.0
 10
-132.3465
 20
-14.3561
 30
0.0
 10
-132.3465
 20
-14.3561
 30
0.0
 10
-132.3465
 20
-14.3561
 30
0.0
 10
-132.3465
 20
-19.4532
 30
0.0
 10
-132.3465
 20
-19.4532
 30
0.0
 10
-132.3465
 20
-19.4532
 30
0.0
 10
-132.3465
 20
-19.4532
 30
0.0
 10
-146.7106
 20
-19.4532
 30
0.0
 10
-146.7106
 20
-19.4532
 30
0.0
 10
-146.7106
 20
-19.4532
 30
0.0
 10
-146.7106
 20
-19.4532
 30
0.0
 10
-146.7106
 20
-14.3561
 30
0.0
 10
-146.7106
 20
-14.3561
 30
0.0
  0
SPLINE
  5
127
330
1F
100
AcDbEntity
  8
layer 1
 62
     7
100
AcDbSpline
210
0.0
220
0.0
230
1.0
 70
    11
 71
     3
 72
    20
 73
    16
 74
     0
 42
0.0000000001
 43
0.0000000001
 12
1.0
 22
0.0
 32
0.0
 13
1.0
 23
0.0
 33
0.0
 40
0.0
 40
0.0
 40
0.0
 40
0.0
 40
0.2
 40
0.2
 40
0.2
 40
0.2
 40
0.4
 40
0.4
 40
0.4
 40
0.4
 40
0.6
 40
0.6
 40
0.6
 40
0.6
 40
1.0
 40
1.0
 40
1.0
 40
1.0
 10
-128.5271
 20
-23.4959
 30
0.0
 10
-128.5271
 20
-23.4959
 30
0.0
 10
-114.1631
 20
-23.4959
 30
0.0
 10
-114.1631
 20
-23.4959
 30
0.0
 10
-114.1631
 20
-23.4959
 30
0.0
 10
-114.1631
 20
-23.4959
 30
0.0
 10
-114.1631
 20
-43.8824
 30
0.0
 10
-114.1631
 20
-43.8824
 30
0.0
 10
-114.1631
 20
-43.8824
 30
0.0
 10
-114.1631
 20
-43.8824
 30
0.0
 10
-128.5271
 20
-43.8824
 30
0.0
 10
-128.5271
 20
-43.8824
 30
0.0
 10
-128.5271
 20
-43.8824
 30
0.0
 10
-128.5271
 20
-43.8824
 30
0.0
 10
-128.5271
 20
-23.4959
 30
0.0
 10
-128.5271
 20
-23.4959
 30
0.0
  0
SPLINE
  5
128
330
1F
100
AcDbEntity
  8
layer 1
 62
     7
100
AcDbSpline
210
0.0
220
0.0
230
1.0
 70
    11
 71
     3
 72
    20
 73
    16
 74
     0
 42
0.0000000001
 43
0.0000000001
 12
1.0
 22
0.0
 32
0.0
 13
1.0
 23
0.0
 33
0.0
 40
0.0
 40
0.0
 40
0.0
 40
0.0
 40
0.2
 40
0.2
 40
0.2
 40
0.2
 40
0.4
 40
0.4
 40
0.4
 40
0.4
 40
0.6
 40
0.6
 40
0.6
 40
0.6
 40
1.0
 40
1.0
 40
1.0
 40
1.0
 10
-128.5271
 20
-5.1199
 30
0.0
 10
-128.5271
 20
-5.1199
 30
0.0
 10
-114.1631
 20
-5.1199
 30
0.0
 10
-114.1631
 20
-5.1199
 30
0.0
 10
-114.1631
 20
-5.1199
 30
0.0
 10
-114.1631
 20
-5.1199
 30
0.0
 10
-114.1631
 20
-10.217
 30
0.0
 10
-114.1631
 20
-10.217
 30
0.0
 10
-114.1631
 20
-10.217
 30
0.0
 10
-114.1631
 20
-10.217
 30
0.0
 10
-128.5271
 20
-10.217
 30
0.0
 10
-128.5271
 20
-10.217
 30
0.0
 10
-128.5271
 20
-10.217
 30
0.0
 10
-128.5271
 20
-10.217
 30
0.0
 10
-128.5271
 20
-5.1199
 30
0.0
 10
-128.5271
 20
-5.1199
 30
0.0
  0
SPLINE
  5
129
330
1F
100
AcDbEntity
  8
layer 1
 62
     7
100
AcDbSpline
210
0.0
220
0.0
230
1.0
 70
    11
 71
     3
 72
    20
 73
    16
 74
     0
 42
0.0000000001
 43
0.0000000001
 12
1.0
 22
0.0
 32
0.0
 13
1.0
 23
0.0
 33
0.0
 40
0.0
 40
0.0
 40
0.0
 40
0.0
 40
0.2
 40
0.2
 40
0.2
 40
0.2
 40
0.4
 40
0.4
 40
0.4
 40
0.4
 40
0.6
 40
0.6
 40
0.6
 40
0.6
 40
1.0
 40
1.0
 40
1.0
 40
1.0
 10
-128.5271
 20
-14.3561
 30
0.0
 10
-128.5271
 20
-14.3561
 30
0.0
 10
-114.1631
 20
-14.3561
 30
0.0
 10
-114.1631
 20
-14.3561
 30
0.0
 10
-114.1631
 20
-14.3561
 30
0.0
 10
-114.1631
 20
-14.3561
 30
0.0
 10
-114.1631
 20
-19.4532
 30
0.0
 10
-114.1631
 20
-19.4532
 30
0.0
 10
-114.1631
 20
-19.4532
 30
0.0
 10
-114.1631
 20
-19.4532
 30
0.0
 10
-128.5271
 20
-19.4532
 30
0.0
 10
-128.5271
 20
-19.4532
 30
0.0
 10
-128.5271
 20
-19.4532
 30
0.0
 10
-128.5271
 20
-19.4532
 30
0.0
 10
-128.5271
 20
-14.3561
 30
0.0
 10
-128.5271
 20
-14.3561
 30
0.0
  0
SPLINE
  5
12A
330
1F
100
AcDbEntity
  8
layer 1
 62
     7
100
AcDbSpline
210
0.0
220
0.0
230
1.0
 70
    11
 71
     3
 72
    20
 73
    16
 74
     0
 42
0.0000000001
 43
0.0000000001
 12
1.0
 22
0.0
 32
0.0
 13
1.0
 23
0.0
 33
0.0
 40
0.0
 40
0.0
 40
0.0
 40
0.0
 40
0.2
 40
0.2
 40
0.2
 40
0.2
 40
0.4
 40
0.4
 40
0.4
 40
0.4
 40
0.6
 40
0.6
 40
0.6
 40
0.6
 40
1.0
 40
1.0
 40
1.0
 40
1.0
 10
-110.3437
 20
-23.4959
 30
0.0
 10
-110.3437
 20
-23.4959
 30
0.0
 10
-95.9796
 20
-23.4959
 30
0.0
 10
-95.9796
 20
-23.4959
 30
0.0
 10
-95.9796
 20
-23.4959
 30
0.0
 10
-95.9796
 20
-23.4959
 30
0.0
 10
-95.9796
 20
-43.8824
 30
0.0
 10
-95.9796
 20
-43.8824
 30
0.0
 10
-95.9796
 20
-43.8824
 30
0.0
 10
-95.9796
 20
-43.8824
 30
0.0
 10
-110.3437
 20
-43.8824
 30
0.0
 10
-110.3437
 20
-43.8824
 30
0.0
 10
-110.3437
 20
-43.8824
 30
0.0
 10
-110.3437
 20
-43.8824
 30
0.0
 10
-110.3437
 20
-23.4959
 30
0.0
 10
-110.3437
 20
-23.4959
 30
0.0
  0
SPLINE
  5
12B
330
1F
100
AcDbEntity
  8
layer 1
 62
     7
100
AcDbSpline
210
0.0
220
0.0
230
1.0
 70
    11
 71
     3
 72
    20
 73
    16
 74
     0
 42
0.0000000001
 43
0.0000000001
 12
1.0
 22
0.0
 32
0.0
 13
1.0
 23
0.0
 33
0.0
 40
0.0
 40
0.0
 40
0.0
 40
0.0
 40
0.2
 40
0.2
 40
0.2
 40
0.2
 40
0.4
 40
0.4
 40
0.4
 40
0.4
 40
0.6
 40
0.6
 40
0.6
 40
0.6
 40
1.0
 40
1.0
 40
1.0
 40
1.0
 10
-110.3437
 20
-5.1199
 30
0.0
 10
-110.3437
 20
-5.1199
 30
0.0
 10
-95.9796
 20
-5.1199
 30
0.0
 10
-95.9796
 20
-5.1199
 30
0.0
 10
-95.9796
 20
-5.1199
 30
0.0
 10
-95.9796
 20
-5.1199
 30
0.0
 10
-95.9796
 20
-10.217
 30
0.0
 10
-95.9796
 20
-10.217
 30
0.0
 10
-95.9796
 20
-10.217
 30
0.0
 10
-95.9796
 20
-10.217
 30
0.0
 10
-110.3437
 20
-10.217
 30
0.0
 10
-110.3437
 20
-10.217
 30
0.0
 10
-110.3437
 20
-10.217
 30
0.0
 10
-110.3437
 20
-10.217
 30
0.0
 10
-110.3437
 20
-5.1199
 30
0.0
 10
-110.3437
 20
-5.1199
 30
0.0
  0
SPLINE
  5
12C
330
1F
100
AcDbEntity
  8
layer 1
 62
     7
100
AcDbSpline
210
0.0
220
0.0
230
1.0
 70
    11
 71
     3
 72
    20
 73
    16
 74
     0
 42
0.0000000001
 43
0.0000000001
 12
1.0
 22
0.0
 32
0.0
 13
1.0
 23
0.0
 33
0.0
 40
0.0
 40
0.0
 40
0.0
 40
0.0
 40
0.2
 40
0.2
 40
0.2
 40
0.2
 40
0.4
 40
0.4
 40
0.4
 40
0.4
 40
0.6
 40
0.6
 40
0.6
 40
0.6
 40
1.0
 40
1.0
 40
1.0
 40
1.0
 10
-110.3437
 20
-14.3561
 30
0.0
 10
-110.3437
 20
-14.3561
 30
0.0
 10
-95.9796
 20
-14.3561
 30
0.0
 10
-95.9796
 20
-14.3561
 30
0.0
 10
-95.9796
 20
-14.3561
 30
0.0
 10
-95.9796
 20
-14.3561
 30
0.0
 10
-95.9796
 20
-19.4532
 30
0.0
 10
-95.9796
 20
-19.4532
 30
0.0
 10
-95.9796
 20
-19.4532
 30
0.0
 10
-95.9796
 20
-19.4532
 30
0.0
 10
-110.3437
 20
-19.4532
 30
0.0
 10
-110.3437
 20
-19.4532
 30
0.0
 10
-110.3437
 20
-19.4532
 30
0.0
 10
-110.3437
 20
-19.4532
 30
0.0
 10
-110.3437
 20
-14.3561
 30
0.0
 10
-110.3437
 20
-14.3561
 30
0.0
  0
SPLINE
  5
12D
330
1F
100
AcDbEntity
  8
layer 1
 62
     7
100
AcDbSpline
210
0.0
220
0.0
230
1.0
 70
    11
 71
     3
 72
    20
 73
    16
 74
     0
 42
0.0000000001
 43
0.0000000001
 12
1.0
 22
0.0
 32
0.0
 13
1.0
 23
0.0
 33
0.0
 40
0.0
 40
0.0
 40
0.0
 40
0.0
 40
0.2
 40
0.2
 40
0.2
 40
0.2
 40
0.4
 40
0.4
 40
0.4
 40
0.4
 40
0.6
 40
0.6
 40
0.6
 40
0.6
 40
1.0
 40
1.0
 40
1.0
 40
1.0
 10
-92.0639
 20
-23.4959
 30
0.0
 10
-92.0639
 20
-23.4959
 30
0.0
 10
-77.7001
 20
-23.4959
 30
0.0
 10
-77.7001
 20
-23.4959
 30
0.0
 10
-77.7001
 20
-23.4959
 30
0.0
 10
-77.7001
 20
-23.4959
 30
0.0
 10
-77.7001
 20
-43.8824
 30
0.0
 10
-77.7001
 20
-43.8824
 30
0.0
 10
-77.7001
 20
-43.8824
 30
0.0
 10
-77.7001
 20
-43.8824
 30
0.0
 10
-92.0639
 20
-43.8824
 30
0.0
 10
-92.0639
 20
-43.8824
 30
0.0
 10
-92.0639
 20
-43.8824
 30
0.0
 10
-92.0639
 20
-43.8824
 30
0.0
 10
-92.0639
 20
-23.4959
 30
0.0
 10
-92.0639
 20
-23.4959
 30
0.0
  0
SPLINE
  5
12E
330
1F
100
AcDbEntity
  8
layer 1
 62
     7
100
AcDbSpline
210
0.0
220
0.0
230
1.0
 70
    11
 71
     3
 72
    20
 73
    16
 74
     0
 42
0.0000000001
 43
0.0000000001
 12
1.0
 22
0.0
 32
0.0
 13
1.0
 23
0.0
 33
0.0
 40
0.0
 40
0.0
 40
0.0
 40
0.0
 40
0.2
 40
0.2
 40
0.2
 40
0.2
 40
0.4
 40
0.4
 40
0.4
 40
0.4
 40
0.6
 40
0.6
 40
0.6
 40
0.6
 40
1.0
 40
1.0
 40
1.0
 40
1.0
 10
-92.0639
 20
-5.1199
 30
0.0
 10
-92.0639
 20
-5.1199
 30
0.0
 10
-77.7001
 20
-5.1199
 30
0.0
 10
-77.7001
 20
-5.1199
 30
0.0
 10
-77.7001
 20
-5.1199
 30
0.0
 10
-77.7001
 20
-5.1199
 30
0.0
 10
-77.7001
 20
-10.217
 30
0.0
 10
-77.7001
 20
-10.217
 30
0.0
 10
-77.7001
 20
-10.217
 30
0.0
 10
-77.7001
 20
-10.217
 30
0.0
 10
-92.0639
 20
-10.217
 30
0.0
 10
-92.0639
 20
-10.217
 30
0.0
 10
-92.0639
 20
-10.217
 30
0.0
 10
-92.0639
 20
-10.217
 30
0.0
 10
-92.0639
 20
-5.1199
 30
0.0
 10
-92.0639
 20
-5.1199
 30
0.0
  0
SPLINE
  5
12F
330
1F
100
AcDbEntity
  8
layer 1
 62
     7
100
AcDbSpline
210
0.0
220
0.0
230
1.0
 70
    11
 71
     3
 72
    20
 73
    16
 74
     0
 42
0.0000000001
 43
0.0000000001
 12
1.0
 22
0.0
 32
0.0
 13
1.0
 23
0.0
 33
0.0
 40
0.0
 40
0.0
 40
0.0
 40
0.0
 40
0.2
 40
0.2
 40
0.2
 40
0.2
 40
0.4
 40
0.4
 40
0.4
 40
0.4
 40
0.6
 40
0.6
 40
0.6
 40
0.6
 40
1.0
 40
1.0
 40
1.0
 40
1.0
 10
-92.0639
 20
-14.3561
 30
0.0
 10
-92.0639
 20
-14.3561
 30
0.0
 10
-77.7001
 20
-14.3561
 30
0.0
 10
-77.7001
 20
-14.3561
 30
0.0
 10
-77.7001
 20
-14.3561
 30
0.0
 10
-77.7001
 20
-14.3561
 30
0.0
 10
-77.7001
 20
-19.4532
 30
0.0
 10
-77.7001
 20
-19.4532
 30
0.0
 10
-77.7001
 20
-19.4532
 30
0.0
 10
-77.7001
 20
-19.4532
 30
0.0
 10
-92.0639
 20
-19.4532
 30
0.0
 10
-92.0639
 20
-19.4532
 30
0.0
 10
-92.0639
 20
-19.4532
 30
0.0
 10
-92.0639
 20
-19.4532
 30
0.0
 10
-92.0639
 20
-14.3561
 30
0.0
 10
-92.0639
 20
-14.3561
 30
0.0
  0
SPLINE
  5
130
330
1F
100
AcDbEntity
  8
layer 1
 62
     7
100
AcDbSpline
210
0.0
220
0.0
230
1.0
 70
    11
 71
     3
 72
    20
 73
    16
 74
     0
 42
0.0000000001
 43
0.0000000001
 12
1.0
 22
0.0
 32
0.0
 13
1.0
 23
0.0
 33
0.0
 40
0.0
 40
0.0
 40
0.0
 40
0.0
 40
0.2
 40
0.2
 40
0.2
 40
0.2
 40
0.4
 40
0.4
 40
0.4
 40
0.4
 40
0.6
 40
0.6
 40
0.6
 40
0.6
 40
1.0
 40
1.0
 40
1.0
 40
1.0
 10
-73.8804
 20
-23.4959
 30
0.0
 10
-73.8804
 20
-23.4959
 30
0.0
 10
-59.5167
 20
-23.4959
 30
0.0
 10
-59.5167
 20
-23.4959
 30
0.0
 10
-59.5167
 20
-23.4959
 30
0.0
 10
-59.5167
 20
-23.4959
 30
0.0
 10
-59.5167
 20
-43.8824
 30
0.0
 10
-59.5167
 20
-43.8824
 30
0.0
 10
-59.5167
 20
-43.8824
 30
0.0
 10
-59.5167
 20
-43.8824
 30
0.0
 10
-73.8804
 20
-43.8824
 30
0.0
 10
-73.8804
 20
-43.8824
 30
0.0
 10
-73.8804
 20
-43.8824
 30
0.0
 10
-73.8804
 20
-43.8824
 30
0.0
 10
-73.8804
 20
-23.4959
 30
0.0
 10
-73.8804
 20
-23.4959
 30
0.0
  0
SPLINE
  5
131
330
1F
100
AcDbEntity
  8
layer 1
 62
     7
100
AcDbSpline
210
0.0
220
0.0
230
1.0
 70
    11
 71
     3
 72
    20
 73
    16
 74
     0
 42
0.0000000001
 43
0.0000000001
 12
1.0
 22
0.0
 32
0.0
 13
1.0
 23
0.0
 33
0.0
 40
0.0
 40
0.0
 40
0.0
 40
0.0
 40
0.2
 40
0.2
 40
0.2
 40
0.2
 40
0.4
 40
0.4
 40
0.4
 40
0.4
 40
0.6
 40
0.6
 40
0.6
 40
0.6
 40
1.0
 40
1.0
 40
1.0
 40
1.0
 10
-73.8804
 20
-5.1199
 30
0.0
 10
-73.8804
 20
-5.1199
 30
0.0
 10
-59.5167
 20
-5.1199
 30
0.0
 10
-59.5167
 20
-5.1199
 30
0.0
 10
-59.5167
 20
-5.1199
 30
0.0
 10
-59.5167
 20
-5.1199
 30
0.0
 10
-59.5167
 20
-10.217
 30
0.0
 10
-59.5167
 20
-10.217
 30
0.0
 10
-59.5167
 20
-10.217
 30
0.0
 10
-59.5167
 20
-10.217
 30
0.0
 10
-73.8804
 20
-10.217
 30
0.0
 10
-73.8804
 20
-10.217
 30
0.0
 10
-73.8804
 20
-10.217
 30
0.0
 10
-73.8804
 20
-10.217
 30
0.0
 10
-73.8804
 20
-5.1199
 30
0.0
 10
-73.8804
 20
-5.1199
 30
0.0
  0
SPLINE
  5
132
330
1F
100
AcDbEntity
  8
layer 1
 62
     7
100
AcDbSpline
210
0.0
220
0.0
230
1.0
 70
    11
 71
     3
 72
    20
 73
    16
 74
     0
 42
0.0000000001
 43
0.0000000001
 12
1.0
 22
0.0
 32
0.0
 13
1.0
 23
0.0
 33
0.0
 40
0.0
 40
0.0
 40
0.0
 40
0.0
 40
0.2
 40
0.2
 40
0.2
 40
0.2
 40
0.4
 40
0.4
 40
0.4
 40
0.4
 40
0.6
 40
0.6
 40
0.6
 40
0.6
 40
1.0
 40
1.0
 40
1.0
 40
1.0
 10
-73.8804
 20
-14.3561
 30
0.0
 10
-73.8804
 20
-14.3561
 30
0.0
 10
-59.5167
 20
-14.3561
 30
0.0
 10
-59.5167
 20
-14.3561
 30
0.0
 10
-59.5167
 20
-14.3561
 30
0.0
 10
-59.5167
 20
-14.3561
 30
0.0
 10
-59.5167
 20
-19.4532
 30
0.0
 10
-59.5167
 20
-19.4532
 30
0.0
 10
-59.5167
 20
-19.4532
 30
0.0
 10
-59.5167
 20
-19.4532
 30
0.0
 10
-73.8804
 20
-19.4532
 30
0.0
 10
-73.8804
 20
-19.4532
 30
0.0
 10
-73.8804
 20
-19.4532
 30
0.0
 10
-73.8804
 20
-19.4532
 30
0.0
 10
-73.8804
 20
-14.3561
 30
0.0
 10
-73.8804
 20
-14.3561
 30
0.0
  0
SPLINE
  5
133
330
1F
100
AcDbEntity
  8
layer 1
 62
     7
100
AcDbSpline
210
0.0
220
0.0
230
1.0
 70
    11
 71
     3
 72
    20
 73
    16
 74
     0
 42
0.0000000001
 43
0.0000000001
 12
1.0
 22
0.0
 32
0.0
 13
1.0
 23
0.0
 33
0.0
 40
0.0
 40
0.0
 40
0.0
 40
0.0
 40
0.2
 40
0.2
 40
0.2
 40
0.2
 40
0.4
 40
0.4
 40
0.4
 40
0.4
 40
0.6
 40
0.6
 40
0.6
 40
0.6
 40
1.0
 40
1.0
 40
1.0
 40
1.0
 10
-55.697
 20
-23.4959
 30
0.0
 10
-55.697
 20
-23.4959
 30
0.0
 10
-41.3332
 20
-23.4959
 30
0.0
 10
-41.3332
 20
-23.4959
 30
0.0
 10
-41.3332
 20
-23.4959
 30
0.0
 10
-41.3332
 20
-23.4959
 30
0.0
 10
-41.3332
 20
-43.8824
 30
0.0
 10
-41.3332
 20
-43.8824
 30
0.0
 10
-41.3332
 20
-43.8824
 30
0.0
 10
-41.3332
 20
-43.8824
 30
0.0
 10
-55.697
 20
-43.8824
 30
0.0
 10
-55.697
 20
-43.8824
 30
0.0
 10
-55.697
 20
-43.8824
 30
0.0
 10
-55.697
 20
-43.8824
 30
0.0
 10
-55.697
 20
-23.4959
 30
0.0
 10
-55.697
 20
-23.4959
 30
0.0
  0
SPLINE
  5
134
330
1F
100
AcDbEntity
  8
layer 1
 62
     7
100
AcDbSpline
210
0.0
220
0.0
230
1.0
 70
    11
 71
     3
 72
    20
 73
    16
 74
     0
 42
0.0000000001
 43
0.0000000001
 12
1.0
 22
0.0
 32
0.0
 13
1.0
 23
0.0
 33
0.0
 40
0.0
 40
0.0
 40
0.0
 40
0.0
 40
0.2
 40
0.2
 40
0.2
 40
0.2
 40
0.4
 40
0.4
 40
0.4
 40
0.4
 40
0.6
 40
0.6
 40
0.6
 40
0.6
 40
1.0
 40
1.0
 40
1.0
 40
1.0
 10
-55.697
 20
-5.1199
 30
0.0
 10
-55.697
 20
-5.1199
 30
0.0
 10
-41.3332
 20
-5.1199
 30
0.0
 10
-41.3332
 20
-5.1199
 30
0.0
 10
-41.3332
 20
-5.1199
 30
0.0
 10
-41.3332
 20
-5.1199
 30
0.0
 10
-41.3332
 20
-10.217
 30
0.0
 10
-41.3332
 20
-10.217
 30
0.0
 10
-41.3332
 20
-10.217
 30
0.0
 10
-41.3332
 20
-10.217
 30
0.0
 10
-55.697
 20
-10.217
 30
0.0
 10
-55.697
 20
-10.217
 30
0.0
 10
-55.697
 20
-10.217
 30
0.0
 10
-55.697
 20
-10.217
 30
0.0
 10
-55.697
 20
-5.1199
 30
0.0
 10
-55.697
 20
-5.1199
 30
0.0
  0
SPLINE
  5
135
330
1F
100
AcDbEntity
  8
layer 1
 62
     7
100
AcDbSpline
210
0.0
220
0.0
230
1.0
 70
    11
 71
     3
 72
    20
 73
    16
 74
     0
 42
0.0000000001
 43
0.0000000001
 12
1.0
 22
0.0
 32
0.0
 13
1.0
 23
0.0
 33
0.0
 40
0.0
 40
0.0
 40
0.0
 40
0.0
 40
0.2
 40
0.2
 40
0.2
 40
0.2
 40
0.4
 40
0.4
 40
0.4
 40
0.4
 40
0.6
 40
0.6
 40
0.6
 40
0.6
 40
1.0
 40
1.0
 40
1.0
 40
1.0
 10
-55.697
 20
-14.3561
 30
0.0
 10
-55.697
 20
-14.3561
 30
0.0
 10
-41.3332
 20
-14.3561
 30
0.0
 10
-41.3332
 20
-14.3561
 30
0.0
 10
-41.3332
 20
-14.3561
 30
0.0
 10
-41.3332
 20
-14.3561
 30
0.0
 10
-41.3332
 20
-19.4532
 30
0.0
 10
-41.3332
 20
-19.4532
 30
0.0
 10
-41.3332
 20
-19.4532
 30
0.0
 10
-41.3332
 20
-19.4532
 30
0.0
 10
-55.697
 20
-19.4532
 30
0.0
 10
-55.697
 20
-19.4532
 30
0.0
 10
-55.697
 20
-19.4532
 30
0.0
 10
-55.697
 20
-19.4532
 30
0.0
 10
-55.697
 20
-14.3561
 30
0.0
 10
-55.697
 20
-14.3561
 30
0.0
  0
SPLINE
  5
136
330
1F
100
AcDbEntity
  8
layer 1
 62
     7
100
AcDbSpline
210
0.0
220
0.0
230
1.0
 70
    11
 71
     3
 72
    20
 73
    16
 74
     0
 42
0.0000000001
 43
0.0000000001
 12
1.0
 22
0.0
 32
0.0
 13
1.0
 23
0.0
 33
0.0
 40
0.0
 40
0.0
 40
0.0
 40
0.0
 40
0.2
 40
0.2
 40
0.2
 40
0.2
 40
0.4
 40
0.4
 40
0.4
 40
0.4
 40
0.6
 40
0.6
 40
0.6
 40
0.6
 40
1.0
 40
1.0
 40
1.0
 40
1.0
 10
-37.5135
 20
-23.4959
 30
0.0
 10
-37.5135
 20
-23.4959
 30
0.0
 10
-23.1497
 20
-23.4959
 30
0.0
 10
-23.1497
 20
-23.4959
 30
0.0
 10
-23.1497
 20
-23.4959
 30
0.0
 10
-23.1497
 20
-23.4959
 30
0.0
 10
-23.1497
 20
-43.8824
 30
0.0
 10
-23.1497
 20
-43.8824
 30
0.0
 10
-23.1497
 20
-43.8824
 30
0.0
 10
-23.1497
 20
-43.8824
 30
0.0
 10
-37.5135
 20
-43.8824
 30
0.0
 10
-37.5135
 20
-43.8824
 30
0.0
 10
-37.5135
 20
-43.8824
 30
0.0
 10
-37.5135
 20
-43.8824
 30
0.0
 10
-37.5135
 20
-23.4959
 30
0.0
 10
-37.5135
 20
-23.4959
 30
0.0
  0
SPLINE
  5
137
330
1F
100
AcDbEntity
  8
layer 1
 62
     7
100
AcDbSpline
210
0.0
220
0.0
230
1.0
 70
    11
 71
     3
 72
    20
 73
    16
 74
     0
 42
0.0000000001
 43
0.0000000001
 12
1.0
 22
0.0
 32
0.0
 13
1.0
 23
0.0
 33
0.0
 40
0.0
 40
0.0
 40
0.0
 40
0.0
 40
0.2
 40
0.2
 40
0.2
 40
0.2
 40
0.4
 40
0.4
 40
0.4
 40
0.4
 40
0.6
 40
0.6
 40
0.6
 40
0.6
 40
1.0
 40
1.0
 40
1.0
 40
1.0
 10
-37.5135
 20
-5.1199
 30
0.0
 10
-37.5135
 20
-5.1199
 30
0.0
 10
-23.1497
 20
-5.1199
 30
0.0
 10
-23.1497
 20
-5.1199
 30
0.0
 10
-23.1497
 20
-5.1199
 30
0.0
 10
-23.1497
 20
-5.1199
 30
0.0
 10
-23.1497
 20
-10.217
 30
0.0
 10
-23.1497
 20
-10.217
 30
0.0
 10
-23.1497
 20
-10.217
 30
0.0
 10
-23.1497
 20
-10.217
 30
0.0
 10
-37.5135
 20
-10.217
 30
0.0
 10
-37.5135
 20
-10.217
 30
0.0
 10
-37.5135
 20
-10.217
 30
0.0
 10
-37.5135
 20
-10.217
 30
0.0
 10
-37.5135
 20
-5.1199
 30
0.0
 10
-37.5135
 20
-5.1199
 30
0.0
  0
SPLINE
  5
138
330
1F
100
AcDbEntity
  8
layer 1
 62
     7
100
AcDbSpline
210
0.0
220
0.0
230
1.0
 70
    11
 71
     3
 72
    20
 73
    16
 74
     0
 42
0.0000000001
 43
0.0000000001
 12
1.0
 22
0.0
 32
0.0
 13
1.0
 23
0.0
 33
0.0
 40
0.0
 40
0.0
 40
0.0
 40
0.0
 40
0.2
 40
0.2
 40
0.2
 40
0.2
 40
0.4
 40
0.4
 40
0.4
 40
0.4
 40
0.6
 40
0.6
 40
0.6
 40
0.6
 40
1.0
 40
1.0
 40
1.0
 40
1.0
 10
-37.5135
 20
-14.3561
 30
0.0
 10
-37.5135
 20
-14.3561
 30
0.0
 10
-23.1497
 20
-14.3561
 30
0.0
 10
-23.1497
 20
-14.3561
 30
0.0
 10
-23.1497
 20
-14.3561
 30
0.0
 10
-23.1497
 20
-14.3561
 30
0.0
 10
-23.1497
 20
-19.4532
 30
0.0
 10
-23.1497
 20
-19.4532
 30
0.0
 10
-23.1497
 20
-19.4532
 30
0.0
 10
-23.1497
 20
-19.4532
 30
0.0
 10
-37.5135
 20
-19.4532
 30
0.0
 10
-37.5135
 20
-19.4532
 30
0.0
 10
-37.5135
 20
-19.4532
 30
0.0
 10
-37.5135
 20
-19.4532
 30
0.0
 10
-37.5135
 20
-14.3561
 30
0.0
 10
-37.5135
 20
-14.3561
 30
0.0
  0
SPLINE
  5
139
330
1F
100
AcDbEntity
  8
layer 1
 62
   250
100
AcDbSpline
210
0.0
220
0.0
230
1.0
 70
    11
 71
     3
 72
    20
 73
    16
 74
     0
 42
0.0000000001
 43
0.0000000001
 12
1.0
 22
0.0
 32
0.0
 13
1.0
 23
0.0
 33
0.0
 40
0.0
 40
0.0
 40
0.0
 40
0.0
 40
0.2
 40
0.2
 40
0.2
 40
0.2
 40
0.4
 40
0.4
 40
0.4
 40
0.4
 40
0.6
 40
0.6
 40
0.6
 40
0.6
 40
1.0
 40
1.0
 40
1.0
 40
1.0
 10
9.5203
 20
131.6849
 30
0.0
 10
9.5203
 20
131.6849
 30
0.0
 10
196.0681
 20
131.6849
 30
0.0
 10
196.0681
 20
131.6849
 30
0.0
 10
196.0681
 20
131.6849
 30
0.0
 10
196.0681
 20
131.6849
 30
0.0
 10
196.0681
 20
16.7749
 30
0.0
 10
196.0681
 20
16.7749
 30
0.0
 10
196.0681
 20
16.7749
 30
0.0
 10
196.0681
 20
16.7749
 30
0.0
 10
9.5203
 20
16.7749
 30
0.0
 10
9.5203
 20
16.7749
 30
0.0
 10
9.5203
 20
16.7749
 30
0.0
 10
9.5203
 20
16.7749
 30
0.0
 10
9.5203
 20
131.6849
 30
0.0
 10
9.5203
 20
131.6849
 30
0.0
  0
SPLINE
  5
13A
330
1F
100
AcDbEntity
  8
layer 1
 62
     7
100
AcDbSpline
210
0.0
220
0.0
230
1.0
 70
    11
 71
     3
 72
    20
 73
    16
 74
     0
 42
0.0000000001
 43
0.0000000001
 12
1.0
 22
0.0
 32
0.0
 13
1.0
 23
0.0
 33
0.0
 40
0.0
 40
0.0
 40
0.0
 40
0.0
 40
0.2
 40
0.2
 40
0.2
 40
0.2
 40
0.4
 40
0.4
 40
0.4
 40
0.4
 40
0.6
 40
0.6
 40
0.6
 40
0.6
 40
1.0
 40
1.0
 40
1.0
 40
1.0
 10
134.3858
 20
78.3677
 30
0.0
 10
134.3858
 20
78.3677
 30
0.0
 10
164.5708
 20
78.3677
 30
0.0
 10
164.5708
 20
78.3677
 30
0.0
 10
164.5708
 20
78.3677
 30
0.0
 10
164.5708
 20
78.3677
 30
0.0
 10
164.5708
 20
70.1275
 30
0.0
 10
164.5708
 20
70.1275
 30
0.0
 10
164.5708
 20
70.1275
 30
0.0
 10
164.5708
 20
70.1275
 30
0.0
 10
134.3858
 20
70.1275
 30
0.0
 10
134.3858
 20
70.1275
 30
0.0
 10
134.3858
 20
70.1275
 30
0.0
 10
134.3858
 20
70.1275
 30
0.0
 10
134.3858
 20
78.3677
 30
0.0
 10
134.3858
 20
78.3677
 30
0.0
  0
SPLINE
  5
13B
330
1F
100
AcDbEntity
  8
layer 1
 62
     7
100
AcDbSpline
210
0.0
220
0.0
230
1.0
 70
    11
 71
     3
 72
    20
 73
    16
 74
     0
 42
0.0000000001
 43
0.0000000001
 12
1.0
 22
0.0
 32
0.0
 13
1.0
 23
0.0
 33
0.0
 40
0.0
 40
0.0
 40
0.0
 40
0.0
 40
0.2
 40
0.2
 40
0.2
 40
0.2
 40
0.4
 40
0.4
 40
0.4
 40
0.4
 40
0.6
 40
0.6
 40
0.6
 40
0.6
 40
1.0
 40
1.0
 40
1.0
 40
1.0
 10
87.7257
 20
78.3677
 30
0.0
 10
87.7257
 20
78.3677
 30
0.0
 10
117.9107
 20
78.3677
 30
0.0
 10
117.9107
 20
78.3677
 30
0.0
 10
117.9107
 20
78.3677
 30
0.0
 10
117.9107
 20
78.3677
 30
0.0
 10
117.9107
 20
70.1275
 30
0.0
 10
117.9107
 20
70.1275
 30
0.0
 10
117.9107
 20
70.1275
 30
0.0
 10
117.9107
 20
70.1275
 30
0.0
 10
87.7257
 20
70.1275
 30
0.0
 10
87.7257
 20
70.1275
 30
0.0
 10
87.7257
 20
70.1275
 30
0.0
 10
87.7257
 20
70.1275
 30
0.0
 10
87.7257
 20
78.3677
 30
0.0
 10
87.7257
 20
78.3677
 30
0.0
  0
SPLINE
  5
13C
330
1F
100
AcDbEntity
  8
layer 1
 62
     7
100
AcDbSpline
210
0.0
220
0.0
230
1.0
 70
    11
 71
     3
 72
    20
 73
    16
 74
     0
 42
0.0000000001
 43
0.0000000001
 12
1.0
 22
0.0
 32
0.0
 13
1.0
 23
0.0
 33
0.0
 40
0.0
 40
0.0
 40
0.0
 40
0.0
 40
0.2
 40
0.2
 40
0.2
 40
0.2
 40
0.4
 40
0.4
 40
0.4
 40
0.4
 40
0.6
 40
0.6
 40
0.6
 40
0.6
 40
1.0
 40
1.0
 40
1.0
 40
1.0
 10
99.9188
 20
85.4724
 30
0.0
 10
99.9188
 20
85.4724
 30
0.0
 10
105.7319
 20
85.4724
 30
0.0
 10
105.7319
 20
85.4724
 30
0.0
 10
105.7319
 20
85.4724
 30
0.0
 10
105.7319
 20
85.4724
 30
0.0
 10
105.7319
 20
120.2083
 30
0.0
 10
105.7319
 20
120.2083
 30
0.0
 10
105.7319
 20
120.2083
 30
0.0
 10
105.7319
 20
120.2083
 30
0.0
 10
99.9188
 20
120.2083
 30
0.0
 10
99.9188
 20
120.2083
 30
0.0
 10
99.9188
 20
120.2083
 30
0.0
 10
99.9188
 20
120.2083
 30
0.0
 10
99.9188
 20
85.4724
 30
0.0
 10
99.9188
 20
85.4724
 30
0.0
  0
SPLINE
  5
13D
330
1F
100
AcDbEntity
  8
layer 1
 62
     7
100
AcDbSpline
210
0.0
220
0.0
230
1.0
 70
    11
 71
     3
 72
    20
 73
    16
 74
     0
 42
0.0000000001
 43
0.0000000001
 12
1.0
 22
0.0
 32
0.0
 13
1.0
 23
0.0
 33
0.0
 40
0.0
 40
0.0
 40
0.0
 40
0.0
 40
0.2
 40
0.2
 40
0.2
 40
0.2
 40
0.4
 40
0.4
 40
0.4
 40
0.4
 40
0.6
 40
0.6
 40
0.6
 40
0.6
 40
1.0
 40
1.0
 40
1.0
 40
1.0
 10
99.9188
 20
28.2512
 30
0.0
 10
99.9188
 20
28.2512
 30
0.0
 10
105.7319
 20
28.2512
 30
0.0
 10
105.7319
 20
28.2512
 30
0.0
 10
105.7319
 20
28.2512
 30
0.0
 10
105.7319
 20
28.2512
 30
0.0
 10
105.7319
 20
62.9871
 30
0.0
 10
105.7319
 20
62.9871
 30
0.0
 10
105.7319
 20
62.9871
 30
0.0
 10
105.7319
 20
62.9871
 30
0.0
 10
99.9188
 20
62.9871
 30
0.0
 10
99.9188
 20
62.9871
 30
0.0
 10
99.9188
 20
62.9871
 30
0.0
 10
99.9188
 20
62.9871
 30
0.0
 10
99.9188
 20
28.2512
 30
0.0
 10
99.9188
 20
28.2512
 30
0.0
  0
SPLINE
  5
13E
330
1F
100
AcDbEntity
  8
layer 1
 62
     7
100
AcDbSpline
210
0.0
220
0.0
230
1.0
 70
    11
 71
     3
 72
    20
 73
    16
 74
     0
 42
0.0000000001
 43
0.0000000001
 12
1.0
 22
0.0
 32
0.0
 13
1.0
 23
0.0
 33
0.0
 40
0.0
 40
0.0
 40
0.0
 40
0.0
 40
0.2
 40
0.2
 40
0.2
 40
0.2
 40
0.4
 40
0.4
 40
0.4
 40
0.4
 40
0.6
 40
0.6
 40
0.6
 40
0.6
 40
1.0
 40
1.0
 40
1.0
 40
1.0
 10
146.0028
 20
85.4724
 30
0.0
 10
146.0028
 20
85.4724
 30
0.0
 10
151.8162
 20
85.4724
 30
0.0
 10
151.8162
 20
85.4724
 30
0.0
 10
151.8162
 20
85.4724
 30
0.0
 10
151.8162
 20
85.4724
 30
0.0
 10
151.8162
 20
120.2083
 30
0.0
 10
151.8162
 20
120.2083
 30
0.0
 10
151.8162
 20
120.2083
 30
0.0
 10
151.8162
 20
120.2083
 30
0.0
 10
146.0028
 20
120.2083
 30
0.0
 10
146.0028
 20
120.2083
 30
0.0
 10
146.0028
 20
120.2083
 30
0.0
 10
146.0028
 20
120.2083
 30
0.0
 10
146.0028
 20
85.4724
 30
0.0
 10
146.0028
 20
85.4724
 30
0.0
  0
SPLINE
  5
13F
330
1F
100
AcDbEntity
  8
layer 1
 62
     7
100
AcDbSpline
210
0.0
220
0.0
230
1.0
 70
    11
 71
     3
 72
    20
 73
    16
 74
     0
 42
0.0000000001
 43
0.0000000001
 12
1.0
 22
0.0
 32
0.0
 13
1.0
 23
0.0
 33
0.0
 40
0.0
 40
0.0
 40
0.0
 40
0.0
 40
0.2
 40
0.2
 40
0.2
 40
0.2
 40
0.4
 40
0.4
 40
0.4
 40
0.4
 40
0.6
 40
0.6
 40
0.6
 40
0.6
 40
1.0
 40
1.0
 40
1.0
 40
1.0
 10
146.0028
 20
28.2512
 30
0.0
 10
146.0028
 20
28.2512
 30
0.0
 10
151.8162
 20
28.2512
 30
0.0
 10
151.8162
 20
28.2512
 30
0.0
 10
151.8162
 20
28.2512
 30
0.0
 10
151.8162
 20
28.2512
 30
0.0
 10
151.8162
 20
62.9871
 30
0.0
 10
151.8162
 20
62.9871
 30
0.0
 10
151.8162
 20
62.9871
 30
0.0
 10
151.8162
 20
62.9871
 30
0.0
 10
146.0028
 20
62.9871
 30
0.0
 10
146.0028
 20
62.9871
 30
0.0
 10
146.0028
 20
62.9871
 30
0.0
 10
146.0028
 20
62.9871
 30
0.0
 10
146.0028
 20
28.2512
 30
0.0
 10
146.0028
 20
28.2512
 30
0.0
  0
SPLINE
  5
140
330
1F
100
AcDbEntity
  8
layer 1
 62
     7
100
AcDbSpline
210
0.0
220
0.0
230
1.0
 70
    11
 71
     3
 72
    20
 73
    16
 74
     0
 42
0.0000000001
 43
0.0000000001
 12
1.0
 22
0.0
 32
0.0
 13
1.0
 23
0.0
 33
0.0
 40
0.0
 40
0.0
 40
0.0
 40
0.0
 40
0.2
 40
0.2
 40
0.2
 40
0.2
 40
0.4
 40
0.4
 40
0.4
 40
0.4
 40
0.6
 40
0.6
 40
0.6
 40
0.6
 40
1.0
 40
1.0
 40
1.0
 40
1.0
 10
53.8345
 20
85.4724
 30
0.0
 10
53.8345
 20
85.4724
 30
0.0
 10
59.6479
 20
85.4724
 30
0.0
 10
59.6479
 20
85.4724
 30
0.0
 10
59.6479
 20
85.4724
 30
0.0
 10
59.6479
 20
85.4724
 30
0.0
 10
59.6479
 20
120.2083
 30
0.0
 10
59.6479
 20
120.2083
 30
0.0
 10
59.6479
 20
120.2083
 30
0.0
 10
59.6479
 20
120.2083
 30
0.0
 10
53.8345
 20
120.2083
 30
0.0
 10
53.8345
 20
120.2083
 30
0.0
 10
53.8345
 20
120.2083
 30
0.0
 10
53.8345
 20
120.2083
 30
0.0
 10
53.8345
 20
85.4724
 30
0.0
 10
53.8345
 20
85.4724
 30
0.0
  0
SPLINE
  5
141
330
1F
100
AcDbEntity
  8
layer 1
 62
     7
100
AcDbSpline
210
0.0
220
0.0
230
1.0
 70
    11
 71
     3
 72
    20
 73
    16
 74
     0
 42
0.0000000001
 43
0.0000000001
 12
1.0
 22
0.0
 32
0.0
 13
1.0
 23
0.0
 33
0.0
 40
0.0
 40
0.0
 40
0.0
 40
0.0
 40
0.2
 40
0.2
 40
0.2
 40
0.2
 40
0.4
 40
0.4
 40
0.4
 40
0.4
 40
0.6
 40
0.6
 40
0.6
 40
0.6
 40
1.0
 40
1.0
 40
1.0
 40
1.0
 10
13.8951
 20
28.1554
 30
0.0
 10
13.8951
 20
28.1554
 30
0.0
 10
25.5026
 20
28.1554
 30
0.0
 10
25.5026
 20
28.1554
 30
0.0
 10
25.5026
 20
28.1554
 30
0.0
 10
25.5026
 20
28.1554
 30
0.0
 10
25.5026
 20
120.3044
 30
0.0
 10
25.5026
 20
120.3044
 30
0.0
 10
25.5026
 20
120.3044
 30
0.0
 10
25.5026
 20
120.3044
 30
0.0
 10
13.8951
 20
120.3044
 30
0.0
 10
13.8951
 20
120.3044
 30
0.0
 10
13.8951
 20
120.3044
 30
0.0
 10
13.8951
 20
120.3044
 30
0.0
 10
13.8951
 20
28.1554
 30
0.0
 10
13.8951
 20
28.1554
 30
0.0
  0
SPLINE
  5
142
330
1F
100
AcDbEntity
  8
layer 1
 62
     7
100
AcDbSpline
210
0.0
220
0.0
230
1.0
 70
    11
 71
     3
 72
    20
 73
    16
 74
     0
 42
0.0000000001
 43
0.0000000001
 12
1.0
 22
0.0
 32
0.0
 13
1.0
 23
0.0
 33
0.0
 40
0.0
 40
0.0
 40
0.0
 40
0.0
 40
0.2
 40
0.2
 40
0.2
 40
0.2
 40
0.4
 40
0.4
 40
0.4
 40
0.4
 40
0.6
 40
0.6
 40
0.6
 40
0.6
 40
1.0
 40
1.0
 40
1.0
 40
1.0
 10
180.0858
 20
28.1554
 30
0.0
 10
180.0858
 20
28.1554
 30
0.0
 10
191.6933
 20
28.1554
 30
0.0
 10
191.6933
 20
28.1554
 30
0.0
 10
191.6933
 20
28.1554
 30
0.0
 10
191.6933
 20
28.1554
 30
0.0
 10
191.6933
 20
120.3044
 30
0.0
 10
191.6933
 20
120.3044
 30
0.0
 10
191.6933
 20
120.3044
 30
0.0
 10
191.6933
 20
120.3044
 30
0.0
 10
180.0858
 20
120.3044
 30
0.0
 10
180.0858
 20
120.3044
 30
0.0
 10
180.0858
 20
120.3044
 30
0.0
 10
180.0858
 20
120.3044
 30
0.0
 10
180.0858
 20
28.1554
 30
0.0
 10
180.0858
 20
28.1554
 30
0.0
  0
SPLINE
  5
143
330
1F
100
AcDbEntity
  8
layer 1
 62
     7
100
AcDbSpline
210
0.0
220
0.0
230
1.0
 70
    11
 71
     3
 72
    20
 73
    16
 74
     0
 42
0.0000000001
 43
0.0000000001
 12
1.0
 22
0.0
 32
0.0
 13
1.0
 23
0.0
 33
0.0
 40
0.0
 40
0.0
 40
0.0
 40
0.0
 40
0.2
 40
0.2
 40
0.2
 40
0.2
 40
0.4
 40
0.4
 40
0.4
 40
0.4
 40
0.6
 40
0.6
 40
0.6
 40
0.6
 40
1.0
 40
1.0
 40
1.0
 40
1.0
 10
64.5874
 20
85.4724
 30
0.0
 10
64.5874
 20
85.4724
 30
0.0
 10
70.4008
 20
85.4724
 30
0.0
 10
70.4008
 20
85.4724
 30
0.0
 10
70.4008
 20
85.4724
 30
0.0
 10
70.4008
 20
85.4724
 30
0.0
 10
70.4008
 20
105.519
 30
0.0
 10
70.4008
 20
105.519
 30
0.0
 10
70.4008
 20
105.519
 30
0.0
 10
70.4008
 20
105.519
 30
0.0
 10
64.5874
 20
105.519
 30
0.0
 10
64.5874
 20
105.519
 30
0.0
 10
64.5874
 20
105.519
 30
0.0
 10
64.5874
 20
105.519
 30
0.0
 10
64.5874
 20
85.4724
 30
0.0
 10
64.5874
 20
85.4724
 30
0.0
  0
SPLINE
  5
144
330
1F
100
AcDbEntity
  8
layer 1
 62
     7
100
AcDbSpline
210
0.0
220
0.0
230
1.0
 70
    11
 71
     3
 72
    20
 73
    16
 74
     0
 42
0.0000000001
 43
0.0000000001
 12
1.0
 22
0.0
 32
0.0
 13
1.0
 23
0.0
 33
0.0
 40
0.0
 40
0.0
 40
0.0
 40
0.0
 40
0.2
 40
0.2
 40
0.2
 40
0.2
 40
0.4
 40
0.4
 40
0.4
 40
0.4
 40
0.6
 40
0.6
 40
0.6
 40
0.6
 40
1.0
 40
1.0
 40
1.0
 40
1.0
 10
64.5874
 20
42.9405
 30
0.0
 10
64.5874
 20
42.9405
 30
0.0
 10
70.4008
 20
42.9405
 30
0.0
 10
70.4008
 20
42.9405
 30
0.0
 10
70.4008
 20
42.9405
 30
0.0
 10
70.4008
 20
42.9405
 30
0.0
 10
70.4008
 20
62.9871
 30
0.0
 10
70.4008
 20
62.9871
 30
0.0
 10
70.4008
 20
62.9871
 30
0.0
 10
70.4008
 20
62.9871
 30
0.0
 10
64.5874
 20
62.9871
 30
0.0
 10
64.5874
 20
62.9871
 30
0.0
 10
64.5874
 20
62.9871
 30
0.0
 10
64.5874
 20
62.9871
 30
0.0
 10
64.5874
 20
42.9405
 30
0.0
 10
64.5874
 20
42.9405
 30
0.0
  0
SPLINE
  5
145
330
1F
100
AcDbEntity
  8
layer 1
 62
     7
100
AcDbSpline
210
0.0
220
0.0
230
1.0
 70
    11
 71
     3
 72
    20
 73
    16
 74
     0
 42
0.0000000001
 43
0.0000000001
 12
1.0
 22
0.0
 32
0.0
 13
1.0
 23
0.0
 33
0.0
 40
0.0
 40
0.0
 40
0.0
 40
0.0
 40
0.2
 40
0.2
 40
0.2
 40
0.2
 40
0.4
 40
0.4
 40
0.4
 40
0.4
 40
0.6
 40
0.6
 40
0.6
 40
0.6
 40
1.0
 40
1.0
 40
1.0
 40
1.0
 10
135.1538
 20
85.4724
 30
0.0
 10
135.1538
 20
85.4724
 30
0.0
 10
140.9672
 20
85.4724
 30
0.0
 10
140.9672
 20
85.4724
 30
0.0
 10
140.9672
 20
85.4724
 30
0.0
 10
140.9672
 20
85.4724
 30
0.0
 10
140.9672
 20
105.519
 30
0.0
 10
140.9672
 20
105.519
 30
0.0
 10
140.9672
 20
105.519
 30
0.0
 10
140.9672
 20
105.519
 30
0.0
 10
135.1538
 20
105.519
 30
0.0
 10
135.1538
 20
105.519
 30
0.0
 10
135.1538
 20
105.519
 30
0.0
 10
135.1538
 20
105.519
 30
0.0
 10
135.1538
 20
85.4724
 30
0.0
 10
135.1538
 20
85.4724
 30
0.0
  0
SPLINE
  5
146
330
1F
100
AcDbEntity
  8
layer 1
 62
     7
100
AcDbSpline
210
0.0
220
0.0
230
1.0
 70
    11
 71
     3
 72
    20
 73
    16
 74
     0
 42
0.0000000001
 43
0.0000000001
 12
1.0
 22
0.0
 32
0.0
 13
1.0
 23
0.0
 33
0.0
 40
0.0
 40
0.0
 40
0.0
 40
0.0
 40
0.2
 40
0.2
 40
0.2
 40
0.2
 40
0.4
 40
0.4
 40
0.4
 40
0.4
 40
0.6
 40
0.6
 40
0.6
 40
0.6
 40
1.0
 40
1.0
 40
1.0
 40
1.0
 10
135.1538
 20
42.9405
 30
0.0
 10
135.1538
 20
42.9405
 30
0.0
 10
140.9672
 20
42.9405
 30
0.0
 10
140.9672
 20
42.9405
 30
0.0
 10
140.9672
 20
42.9405
 30
0.0
 10
140.9672
 20
42.9405
 30
0.0
 10
140.9672
 20
62.9871
 30
0.0
 10
140.9672
 20
62.9871
 30
0.0
 10
140.9672
 20
62.9871
 30
0.0
 10
140.9672
 20
62.9871
 30
0.0
 10
135.1538
 20
62.9871
 30
0.0
 10
135.1538
 20
62.9871
 30
0.0
 10
135.1538
 20
62.9871
 30
0.0
 10
135.1538
 20
62.9871
 30
0.0
 10
135.1538
 20
42.9405
 30
0.0
 10
135.1538
 20
42.9405
 30
0.0
  0
SPLINE
  5
147
330
1F
100
AcDbEntity
  8
layer 1
 62
     7
100
AcDbSpline
210
0.0
220
0.0
230
1.0
 70
    11
 71
     3
 72
    20
 73
    16
 74
     0
 42
0.0000000001
 43
0.0000000001
 12
1.0
 22
0.0
 32
0.0
 13
1.0
 23
0.0
 33
0.0
 40
0.0
 40
0.0
 40
0.0
 40
0.0
 40
0.2
 40
0.2
 40
0.2
 40
0.2
 40
0.4
 40
0.4
 40
0.4
 40
0.4
 40
0.6
 40
0.6
 40
0.6
 40
0.6
 40
1.0
 40
1.0
 40
1.0
 40
1.0
 10
53.8345
 20
28.2512
 30
0.0
 10
53.8345
 20
28.2512
 30
0.0
 10
59.6479
 20
28.2512
 30
0.0
 10
59.6479
 20
28.2512
 30
0.0
 10
59.6479
 20
28.2512
 30
0.0
 10
59.6479
 20
28.2512
 30
0.0
 10
59.6479
 20
62.9871
 30
0.0
 10
59.6479
 20
62.9871
 30
0.0
 10
59.6479
 20
62.9871
 30
0.0
 10
59.6479
 20
62.9871
 30
0.0
 10
53.8345
 20
62.9871
 30
0.0
 10
53.8345
 20
62.9871
 30
0.0
 10
53.8345
 20
62.9871
 30
0.0
 10
53.8345
 20
62.9871
 30
0.0
 10
53.8345
 20
28.2512
 30
0.0
 10
53.8345
 20
28.2512
 30
0.0
  0
SPLINE
  5
148
330
1F
100
AcDbEntity
  8
layer 1
 62
     7
100
AcDbSpline
210
0.0
220
0.0
230
1.0
 70
    11
 71
     3
 72
    20
 73
    16
 74
     0
 42
0.0000000001
 43
0.0000000001
 12
1.0
 22
0.0
 32
0.0
 13
1.0
 23
0.0
 33
0.0
 40
0.0
 40
0.0
 40
0.0
 40
0.0
 40
0.2
 40
0.2
 40
0.2
 40
0.2
 40
0.4
 40
0.4
 40
0.4
 40
0.4
 40
0.6
 40
0.6
 40
0.6
 40
0.6
 40
1.0
 40
1.0
 40
1.0
 40
1.0
 10
41.0655
 20
78.3677
 30
0.0
 10
41.0655
 20
78.3677
 30
0.0
 10
71.2505
 20
78.3677
 30
0.0
 10
71.2505
 20
78.3677
 30
0.0
 10
71.2505
 20
78.3677
 30
0.0
 10
71.2505
 20
78.3677
 30
0.0
 10
71.2505
 20
70.1275
 30
0.0
 10
71.2505
 20
70.1275
 30
0.0
 10
71.2505
 20
70.1275
 30
0.0
 10
71.2505
 20
70.1275
 30
0.0
 10
41.0655
 20
70.1275
 30
0.0
 10
41.0655
 20
70.1275
 30
0.0
 10
41.0655
 20
70.1275
 30
0.0
 10
41.0655
 20
70.1275
 30
0.0
 10
41.0655
 20
78.3677
 30
0.0
 10
41.0655
 20
78.3677
 30
0.0
  0
SPLINE
  5
149
330
1F
100
AcDbEntity
  8
layer 1
 62
     7
100
AcDbSpline
210
0.0
220
0.0
230
1.0
 70
    11
 71
     3
 72
    20
 73
    16
 74
     0
 42
0.0000000001
 43
0.0000000001
 12
1.0
 22
0.0
 32
0.0
 13
1.0
 23
0.0
 33
0.0
 40
0.0
 40
0.0
 40
0.0
 40
0.0
 40
0.2
 40
0.2
 40
0.2
 40
0.2
 40
0.4
 40
0.4
 40
0.4
 40
0.4
 40
0.6
 40
0.6
 40
0.6
 40
0.6
 40
1.0
 40
1.0
 40
1.0
 40
1.0
 10
64.4916
 20
120.2277
 30
0.0
 10
64.4916
 20
120.2277
 30
0.0
 10
94.6766
 20
120.2277
 30
0.0
 10
94.6766
 20
120.2277
 30
0.0
 10
94.6766
 20
120.2277
 30
0.0
 10
94.6766
 20
120.2277
 30
0.0
 10
94.6766
 20
111.9872
 30
0.0
 10
94.6766
 20
111.9872
 30
0.0
 10
94.6766
 20
111.9872
 30
0.0
 10
94.6766
 20
111.9872
 30
0.0
 10
64.4916
 20
111.9872
 30
0.0
 10
64.4916
 20
111.9872
 30
0.0
 10
64.4916
 20
111.9872
 30
0.0
 10
64.4916
 20
111.9872
 30
0.0
 10
64.4916
 20
120.2277
 30
0.0
 10
64.4916
 20
120.2277
 30
0.0
  0
SPLINE
  5
14A
330
1F
100
AcDbEntity
  8
layer 1
 62
     7
100
AcDbSpline
210
0.0
220
0.0
230
1.0
 70
    11
 71
     3
 72
    20
 73
    16
 74
     0
 42
0.0000000001
 43
0.0000000001
 12
1.0
 22
0.0
 32
0.0
 13
1.0
 23
0.0
 33
0.0
 40
0.0
 40
0.0
 40
0.0
 40
0.0
 40
0.2
 40
0.2
 40
0.2
 40
0.2
 40
0.4
 40
0.4
 40
0.4
 40
0.4
 40
0.6
 40
0.6
 40
0.6
 40
0.6
 40
1.0
 40
1.0
 40
1.0
 40
1.0
 10
40.2975
 20
105.2501
 30
0.0
 10
40.2975
 20
105.2501
 30
0.0
 10
49.5843
 20
105.2501
 30
0.0
 10
49.5843
 20
105.2501
 30
0.0
 10
49.5843
 20
105.2501
 30
0.0
 10
49.5843
 20
105.2501
 30
0.0
 10
49.5843
 20
85.5013
 30
0.0
 10
49.5843
 20
85.5013
 30
0.0
 10
49.5843
 20
85.5013
 30
0.0
 10
49.5843
 20
85.5013
 30
0.0
 10
40.2975
 20
85.5013
 30
0.0
 10
40.2975
 20
85.5013
 30
0.0
 10
40.2975
 20
85.5013
 30
0.0
 10
40.2975
 20
85.5013
 30
0.0
 10
40.2975
 20
105.2501
 30
0.0
 10
40.2975
 20
105.2501
 30
0.0
  0
SPLINE
  5
14B
330
1F
100
AcDbEntity
  8
layer 1
 62
     7
100
AcDbSpline
210
0.0
220
0.0
230
1.0
 70
    11
 71
     3
 72
    20
 73
    16
 74
     0
 42
0.0000000001
 43
0.0000000001
 12
1.0
 22
0.0
 32
0.0
 13
1.0
 23
0.0
 33
0.0
 40
0.0
 40
0.0
 40
0.0
 40
0.0
 40
0.2
 40
0.2
 40
0.2
 40
0.2
 40
0.4
 40
0.4
 40
0.4
 40
0.4
 40
0.6
 40
0.6
 40
0.6
 40
0.6
 40
1.0
 40
1.0
 40
1.0
 40
1.0
 10
40.2975
 20
63.0064
 30
0.0
 10
40.2975
 20
63.0064
 30
0.0
 10
49.5843
 20
63.0064
 30
0.0
 10
49.5843
 20
63.0064
 30
0.0
 10
49.5843
 20
63.0064
 30
0.0
 10
49.5843
 20
63.0064
 30
0.0
 10
49.5843
 20
43.2576
 30
0.0
 10
49.5843
 20
43.2576
 30
0.0
 10
49.5843
 20
43.2576
 30
0.0
 10
49.5843
 20
43.2576
 30
0.0
 10
40.2975
 20
43.2576
 30
0.0
 10
40.2975
 20
43.2576
 30
0.0
 10
40.2975
 20
43.2576
 30
0.0
 10
40.2975
 20
43.2576
 30
0.0
 10
40.2975
 20
63.0064
 30
0.0
 10
40.2975
 20
63.0064
 30
0.0
  0
SPLINE
  5
14C
330
1F
100
AcDbEntity
  8
layer 1
 62
     7
100
AcDbSpline
210
0.0
220
0.0
230
1.0
 70
    11
 71
     3
 72
    20
 73
    16
 74
     0
 42
0.0000000001
 43
0.0000000001
 12
1.0
 22
0.0
 32
0.0
 13
1.0
 23
0.0
 33
0.0
 40
0.0
 40
0.0
 40
0.0
 40
0.0
 40
0.2
 40
0.2
 40
0.2
 40
0.2
 40
0.4
 40
0.4
 40
0.4
 40
0.4
 40
0.6
 40
0.6
 40
0.6
 40
0.6
 40
1.0
 40
1.0
 40
1.0
 40
1.0
 10
110.9597
 20
105.2501
 30
0.0
 10
110.9597
 20
105.2501
 30
0.0
 10
120.2465
 20
105.2501
 30
0.0
 10
120.2465
 20
105.2501
 30
0.0
 10
120.2465
 20
105.2501
 30
0.0
 10
120.2465
 20
105.2501
 30
0.0
 10
120.2465
 20
85.5013
 30
0.0
 10
120.2465
 20
85.5013
 30
0.0
 10
120.2465
 20
85.5013
 30
0.0
 10
120.2465
 20
85.5013
 30
0.0
 10
110.9597
 20
85.5013
 30
0.0
 10
110.9597
 20
85.5013
 30
0.0
 10
110.9597
 20
85.5013
 30
0.0
 10
110.9597
 20
85.5013
 30
0.0
 10
110.9597
 20
105.2501
 30
0.0
 10
110.9597
 20
105.2501
 30
0.0
  0
SPLINE
  5
14D
330
1F
100
AcDbEntity
  8
layer 1
 62
     7
100
AcDbSpline
210
0.0
220
0.0
230
1.0
 70
    11
 71
     3
 72
    20
 73
    16
 74
     0
 42
0.0000000001
 43
0.0000000001
 12
1.0
 22
0.0
 32
0.0
 13
1.0
 23
0.0
 33
0.0
 40
0.0
 40
0.0
 40
0.0
 40
0.0
 40
0.2
 40
0.2
 40
0.2
 40
0.2
 40
0.4
 40
0.4
 40
0.4
 40
0.4
 40
0.6
 40
0.6
 40
0.6
 40
0.6
 40
1.0
 40
1.0
 40
1.0
 40
1.0
 10
110.9597
 20
63.0064
 30
0.0
 10
110.9597
 20
63.0064
 30
0.0
 10
120.2465
 20
63.0064
 30
0.0
 10
120.2465
 20
63.0064
 30
0.0
 10
120.2465
 20
63.0064
 30
0.0
 10
120.2465
 20
63.0064
 30
0.0
 10
120.2465
 20
43.2576
 30
0.0
 10
120.2465
 20
43.2576
 30
0.0
 10
120.2465
 20
43.2576
 30
0.0
 10
120.2465
 20
43.2576
 30
0.0
 10
110.9597
 20
43.2576
 30
0.0
 10
110.9597
 20
43.2576
 30
0.0
 10
110.9597
 20
43.2576
 30
0.0
 10
110.9597
 20
43.2576
 30
0.0
 10
110.9597
 20
63.0064
 30
0.0
 10
110.9597
 20
63.0064
 30
0.0
  0
SPLINE
  5
14E
330
1F
100
AcDbEntity
  8
layer 1
 62
     7
100
AcDbSpline
210
0.0
220
0.0
230
1.0
 70
    11
 71
     3
 72
    20
 73
    16
 74
     0
 42
0.0000000001
 43
0.0000000001
 12
1.0
 22
0.0
 32
0.0
 13
1.0
 23
0.0
 33
0.0
 40
0.0
 40
0.0
 40
0.0
 40
0.0
 40
0.2
 40
0.2
 40
0.2
 40
0.2
 40
0.4
 40
0.4
 40
0.4
 40
0.4
 40
0.6
 40
0.6
 40
0.6
 40
0.6
 40
1.0
 40
1.0
 40
1.0
 40
1.0
 10
85.4214
 20
105.2501
 30
0.0
 10
85.4214
 20
105.2501
 30
0.0
 10
94.7082
 20
105.2501
 30
0.0
 10
94.7082
 20
105.2501
 30
0.0
 10
94.7082
 20
105.2501
 30
0.0
 10
94.7082
 20
105.2501
 30
0.0
 10
94.7082
 20
85.5013
 30
0.0
 10
94.7082
 20
85.5013
 30
0.0
 10
94.7082
 20
85.5013
 30
0.0
 10
94.7082
 20
85.5013
 30
0.0
 10
85.4214
 20
85.5013
 30
0.0
 10
85.4214
 20
85.5013
 30
0.0
 10
85.4214
 20
85.5013
 30
0.0
 10
85.4214
 20
85.5013
 30
0.0
 10
85.4214
 20
105.2501
 30
0.0
 10
85.4214
 20
105.2501
 30
0.0
  0
SPLINE
  5
14F
330
1F
100
AcDbEntity
  8
layer 1
 62
     7
100
AcDbSpline
210
0.0
220
0.0
230
1.0
 70
    11
 71
     3
 72
    20
 73
    16
 74
     0
 42
0.0000000001
 43
0.0000000001
 12
1.0
 22
0.0
 32
0.0
 13
1.0
 23
0.0
 33
0.0
 40
0.0
 40
0.0
 40
0.0
 40
0.0
 40
0.2
 40
0.2
 40
0.2
 40
0.2
 40
0.4
 40
0.4
 40
0.4
 40
0.4
 40
0.6
 40
0.6
 40
0.6
 40
0.6
 40
1.0
 40
1.0
 40
1.0
 40
1.0
 10
85.4214
 20
63.0064
 30
0.0
 10
85.4214
 20
63.0064
 30
0.0
 10
94.7082
 20
63.0064
 30
0.0
 10
94.7082
 20
63.0064
 30
0.0
 10
94.7082
 20
63.0064
 30
0.0
 10
94.7082
 20
63.0064
 30
0.0
 10
94.7082
 20
43.2576
 30
0.0
 10
94.7082
 20
43.2576
 30
0.0
 10
94.7082
 20
43.2576
 30
0.0
 10
94.7082
 20
43.2576
 30
0.0
 10
85.4214
 20
43.2576
 30
0.0
 10
85.4214
 20
43.2576
 30
0.0
 10
85.4214
 20
43.2576
 30
0.0
 10
85.4214
 20
43.2576
 30
0.0
 10
85.4214
 20
63.0064
 30
0.0
 10
85.4214
 20
63.0064
 30
0.0
  0
SPLINE
  5
150
330
1F
100
AcDbEntity
  8
layer 1
 62
     7
100
AcDbSpline
210
0.0
220
0.0
230
1.0
 70
    11
 71
     3
 72
    20
 73
    16
 74
     0
 42
0.0000000001
 43
0.0000000001
 12
1.0
 22
0.0
 32
0.0
 13
1.0
 23
0.0
 33
0.0
 40
0.0
 40
0.0
 40
0.0
 40
0.0
 40
0.2
 40
0.2
 40
0.2
 40
0.2
 40
0.4
 40
0.4
 40
0.4
 40
0.4
 40
0.6
 40
0.6
 40
0.6
 40
0.6
 40
1.0
 40
1.0
 40
1.0
 40
1.0
 10
155.9877
 20
105.2501
 30
0.0
 10
155.9877
 20
105.2501
 30
0.0
 10
165.2746
 20
105.2501
 30
0.0
 10
165.2746
 20
105.2501
 30
0.0
 10
165.2746
 20
105.2501
 30
0.0
 10
165.2746
 20
105.2501
 30
0.0
 10
165.2746
 20
85.5013
 30
0.0
 10
165.2746
 20
85.5013
 30
0.0
 10
165.2746
 20
85.5013
 30
0.0
 10
165.2746
 20
85.5013
 30
0.0
 10
155.9877
 20
85.5013
 30
0.0
 10
155.9877
 20
85.5013
 30
0.0
 10
155.9877
 20
85.5013
 30
0.0
 10
155.9877
 20
85.5013
 30
0.0
 10
155.9877
 20
105.2501
 30
0.0
 10
155.9877
 20
105.2501
 30
0.0
  0
SPLINE
  5
151
330
1F
100
AcDbEntity
  8
layer 1
 62
     7
100
AcDbSpline
210
0.0
220
0.0
230
1.0
 70
    11
 71
     3
 72
    20
 73
    16
 74
     0
 42
0.0000000001
 43
0.0000000001
 12
1.0
 22
0.0
 32
0.0
 13
1.0
 23
0.0
 33
0.0
 40
0.0
 40
0.0
 40
0.0
 40
0.0
 40
0.2
 40
0.2
 40
0.2
 40
0.2
 40
0.4
 40
0.4
 40
0.4
 40
0.4
 40
0.6
 40
0.6
 40
0.6
 40
0.6
 40
1.0
 40
1.0
 40
1.0
 40
1.0
 10
155.9877
 20
63.0064
 30
0.0
 10
155.9877
 20
63.0064
 30
0.0
 10
165.2746
 20
63.0064
 30
0.0
 10
165.2746
 20
63.0064
 30
0.0
 10
165.2746
 20
63.0064
 30
0.0
 10
165.2746
 20
63.0064
 30
0.0
 10
165.2746
 20
43.2576
 30
0.0
 10
165.2746
 20
43.2576
 30
0.0
 10
165.2746
 20
43.2576
 30
0.0
 10
165.2746
 20
43.2576
 30
0.0
 10
155.9877
 20
43.2576
 30
0.0
 10
155.9877
 20
43.2576
 30
0.0
 10
155.9877
 20
43.2576
 30
0.0
 10
155.9877
 20
43.2576
 30
0.0
 10
155.9877
 20
63.0064
 30
0.0
 10
155.9877
 20
63.0064
 30
0.0
  0
SPLINE
  5
152
330
1F
100
AcDbEntity
  8
layer 1
 62
     7
100
AcDbSpline
210
0.0
220
0.0
230
1.0
 70
    11
 71
     3
 72
    20
 73
    16
 74
     0
 42
0.0000000001
 43
0.0000000001
 12
1.0
 22
0.0
 32
0.0
 13
1.0
 23
0.0
 33
0.0
 40
0.0
 40
0.0
 40
0.0
 40
0.0
 40
0.2
 40
0.2
 40
0.2
 40
0.2
 40
0.4
 40
0.4
 40
0.4
 40
0.4
 40
0.6
 40
0.6
 40
0.6
 40
0.6
 40
1.0
 40
1.0
 40
1.0
 40
1.0
 10
30.3126
 20
120.2277
 30
0.0
 10
30.3126
 20
120.2277
 30
0.0
 10
48.8901
 20
120.2277
 30
0.0
 10
48.8901
 20
120.2277
 30
0.0
 10
48.8901
 20
120.2277
 30
0.0
 10
48.8901
 20
120.2277
 30
0.0
 10
48.8901
 20
111.9872
 30
0.0
 10
48.8901
 20
111.9872
 30
0.0
 10
48.8901
 20
111.9872
 30
0.0
 10
48.8901
 20
111.9872
 30
0.0
 10
30.3126
 20
111.9872
 30
0.0
 10
30.3126
 20
111.9872
 30
0.0
 10
30.3126
 20
111.9872
 30
0.0
 10
30.3126
 20
111.9872
 30
0.0
 10
30.3126
 20
120.2277
 30
0.0
 10
30.3126
 20
120.2277
 30
0.0
  0
SPLINE
  5
153
330
1F
100
AcDbEntity
  8
layer 1
 62
     7
100
AcDbSpline
210
0.0
220
0.0
230
1.0
 70
    11
 71
     3
 72
    20
 73
    16
 74
     0
 42
0.0000000001
 43
0.0000000001
 12
1.0
 22
0.0
 32
0.0
 13
1.0
 23
0.0
 33
0.0
 40
0.0
 40
0.0
 40
0.0
 40
0.0
 40
0.2
 40
0.2
 40
0.2
 40
0.2
 40
0.4
 40
0.4
 40
0.4
 40
0.4
 40
0.6
 40
0.6
 40
0.6
 40
0.6
 40
1.0
 40
1.0
 40
1.0
 40
1.0
 10
30.3126
 20
36.508
 30
0.0
 10
30.3126
 20
36.508
 30
0.0
 10
48.8901
 20
36.508
 30
0.0
 10
48.8901
 20
36.508
 30
0.0
 10
48.8901
 20
36.508
 30
0.0
 10
48.8901
 20
36.508
 30
0.0
 10
48.8901
 20
28.2676
 30
0.0
 10
48.8901
 20
28.2676
 30
0.0
 10
48.8901
 20
28.2676
 30
0.0
 10
48.8901
 20
28.2676
 30
0.0
 10
30.3126
 20
28.2676
 30
0.0
 10
30.3126
 20
28.2676
 30
0.0
 10
30.3126
 20
28.2676
 30
0.0
 10
30.3126
 20
28.2676
 30
0.0
 10
30.3126
 20
36.508
 30
0.0
 10
30.3126
 20
36.508
 30
0.0
  0
SPLINE
  5
154
330
1F
100
AcDbEntity
  8
layer 1
 62
     7
100
AcDbSpline
210
0.0
220
0.0
230
1.0
 70
    11
 71
     3
 72
    20
 73
    16
 74
     0
 42
0.0000000001
 43
0.0000000001
 12
1.0
 22
0.0
 32
0.0
 13
1.0
 23
0.0
 33
0.0
 40
0.0
 40
0.0
 40
0.0
 40
0.0
 40
0.2
 40
0.2
 40
0.2
 40
0.2
 40
0.4
 40
0.4
 40
0.4
 40
0.4
 40
0.6
 40
0.6
 40
0.6
 40
0.6
 40
1.0
 40
1.0
 40
1.0
 40
1.0
 10
156.6597
 20
120.2277
 30
0.0
 10
156.6597
 20
120.2277
 30
0.0
 10
175.2375
 20
120.2277
 30
0.0
 10
175.2375
 20
120.2277
 30
0.0
 10
175.2375
 20
120.2277
 30
0.0
 10
175.2375
 20
120.2277
 30
0.0
 10
175.2375
 20
111.9872
 30
0.0
 10
175.2375
 20
111.9872
 30
0.0
 10
175.2375
 20
111.9872
 30
0.0
 10
175.2375
 20
111.9872
 30
0.0
 10
156.6597
 20
111.9872
 30
0.0
 10
156.6597
 20
111.9872
 30
0.0
 10
156.6597
 20
111.9872
 30
0.0
 10
156.6597
 20
111.9872
 30
0.0
 10
156.6597
 20
120.2277
 30
0.0
 10
156.6597
 20
120.2277
 30
0.0
  0
SPLINE
  5
155
330
1F
100
AcDbEntity
  8
layer 1
 62
     7
100
AcDbSpline
210
0.0
220
0.0
230
1.0
 70
    11
 71
     3
 72
    20
 73
    16
 74
     0
 42
0.0000000001
 43
0.0000000001
 12
1.0
 22
0.0
 32
0.0
 13
1.0
 23
0.0
 33
0.0
 40
0.0
 40
0.0
 40
0.0
 40
0.0
 40
0.2
 40
0.2
 40
0.2
 40
0.2
 40
0.4
 40
0.4
 40
0.4
 40
0.4
 40
0.6
 40
0.6
 40
0.6
 40
0.6
 40
1.0
 40
1.0
 40
1.0
 40
1.0
 10
156.6597
 20
36.508
 30
0.0
 10
156.6597
 20
36.508
 30
0.0
 10
175.2375
 20
36.508
 30
0.0
 10
175.2375
 20
36.508
 30
0.0
 10
175.2375
 20
36.508
 30
0.0
 10
175.2375
 20
36.508
 30
0.0
 10
175.2375
 20
28.2676
 30
0.0
 10
175.2375
 20
28.2676
 30
0.0
 10
175.2375
 20
28.2676
 30
0.0
 10
175.2375
 20
28.2676
 30
0.0
 10
156.6597
 20
28.2676
 30
0.0
 10
156.6597
 20
28.2676
 30
0.0
 10
156.6597
 20
28.2676
 30
0.0
 10
156.6597
 20
28.2676
 30
0.0
 10
156.6597
 20
36.508
 30
0.0
 10
156.6597
 20
36.508
 30
0.0
  0
SPLINE
  5
156
330
1F
100
AcDbEntity
  8
layer 1
 62
     7
100
AcDbSpline
210
0.0
220
0.0
230
1.0
 70
    11
 71
     3
 72
    20
 73
    16
 74
     0
 42
0.0000000001
 43
0.0000000001
 12
1.0
 22
0.0
 32
0.0
 13
1.0
 23
0.0
 33
0.0
 40
0.0
 40
0.0
 40
0.0
 40
0.0
 40
0.2
 40
0.2
 40
0.2
 40
0.2
 40
0.4
 40
0.4
 40
0.4
 40
0.4
 40
0.6
 40
0.6
 40
0.6
 40
0.6
 40
1.0
 40
1.0
 40
1.0
 40
1.0
 10
64.4916
 20
36.508
 30
0.0
 10
64.4916
 20
36.508
 30
0.0
 10
94.6766
 20
36.508
 30
0.0
 10
94.6766
 20
36.508
 30
0.0
 10
94.6766
 20
36.508
 30
0.0
 10
94.6766
 20
36.508
 30
0.0
 10
94.6766
 20
28.2676
 30
0.0
 10
94.6766
 20
28.2676
 30
0.0
 10
94.6766
 20
28.2676
 30
0.0
 10
94.6766
 20
28.2676
 30
0.0
 10
64.4916
 20
28.2676
 30
0.0
 10
64.4916
 20
28.2676
 30
0.0
 10
64.4916
 20
28.2676
 30
0.0
 10
64.4916
 20
28.2676
 30
0.0
 10
64.4916
 20
36.508
 30
0.0
 10
64.4916
 20
36.508
 30
0.0
  0
SPLINE
  5
157
330
1F
100
AcDbEntity
  8
layer 1
 62
     7
100
AcDbSpline
210
0.0
220
0.0
230
1.0
 70
    11
 71
     3
 72
    20
 73
    16
 74
     0
 42
0.0000000001
 43
0.0000000001
 12
1.0
 22
0.0
 32
0.0
 13
1.0
 23
0.0
 33
0.0
 40
0.0
 40
0.0
 40
0.0
 40
0.0
 40
0.2
 40
0.2
 40
0.2
 40
0.2
 40
0.4
 40
0.4
 40
0.4
 40
0.4
 40
0.6
 40
0.6
 40
0.6
 40
0.6
 40
1.0
 40
1.0
 40
1.0
 40
1.0
 10
110.9597
 20
120.2277
 30
0.0
 10
110.9597
 20
120.2277
 30
0.0
 10
141.1447
 20
120.2277
 30
0.0
 10
141.1447
 20
120.2277
 30
0.0
 10
141.1447
 20
120.2277
 30
0.0
 10
141.1447
 20
120.2277
 30
0.0
 10
141.1447
 20
111.9872
 30
0.0
 10
141.1447
 20
111.9872
 30
0.0
 10
141.1447
 20
111.9872
 30
0.0
 10
141.1447
 20
111.9872
 30
0.0
 10
110.9597
 20
111.9872
 30
0.0
 10
110.9597
 20
111.9872
 30
0.0
 10
110.9597
 20
111.9872
 30
0.0
 10
110.9597
 20
111.9872
 30
0.0
 10
110.9597
 20
120.2277
 30
0.0
 10
110.9597
 20
120.2277
 30
0.0
  0
SPLINE
  5
158
330
1F
100
AcDbEntity
  8
layer 1
 62
     7
100
AcDbSpline
210
0.0
220
0.0
230
1.0
 70
    11
 71
     3
 72
    20
 73
    16
 74
     0
 42
0.0000000001
 43
0.0000000001
 12
1.0
 22
0.0
 32
0.0
 13
1.0
 23
0.0
 33
0.0
 40
0.0
 40
0.0
 40
0.0
 40
0.0
 40
0.2
 40
0.2
 40
0.2
 40
0.2
 40
0.4
 40
0.4
 40
0.4
 40
0.4
 40
0.6
 40
0.6
 40
0.6
 40
0.6
 40
1.0
 40
1.0
 40
1.0
 40
1.0
 10
110.9597
 20
36.508
 30
0.0
 10
110.9597
 20
36.508
 30
0.0
 10
141.1447
 20
36.508
 30
0.0
 10
141.1447
 20
36.508
 30
0.0
 10
141.1447
 20
36.508
 30
0.0
 10
141.1447
 20
36.508
 30
0.0
 10
141.1447
 20
28.2676
 30
0.0
 10
141.1447
 20
28.2676
 30
0.0
 10
141.1447
 20
28.2676
 30
0.0
 10
141.1447
 20
28.2676
 30
0.0
 10
110.9597
 20
28.2676
 30
0.0
 10
110.9597
 20
28.2676
 30
0.0
 10
110.9597
 20
28.2676
 30
0.0
 10
110.9597
 20
28.2676
 30
0.0
 10
110.9597
 20
36.508
 30
0.0
 10
110.9597
 20
36.508
 30
0.0
  0
SPLINE
  5
159
330
1F
100
AcDbEntity
  8
layer 1
 62
     7
100
AcDbSpline
210
0.0
220
0.0
230
1.0
 70
    11
 71
     3
 72
    20
 73
    16
 74
     0
 42
0.0000000001
 43
0.0000000001
 12
1.0
 22
0.0
 32
0.0
 13
1.0
 23
0.0
 33
0.0
 40
0.0
 40
0.0
 40
0.0
 40
0.0
 40
0.2
 40
0.2
 40
0.2
 40
0.2
 40
0.4
 40
0.4
 40
0.4
 40
0.4
 40
0.6
 40
0.6
 40
0.6
 40
0.6
 40
1.0
 40
1.0
 40
1.0
 40
1.0
 10
30.1204
 20
105.1541
 30
0.0
 10
30.1204
 20
105.1541
 30
0.0
 10
35.9338
 20
105.1541
 30
0.0
 10
35.9338
 20
105.1541
 30
0.0
 10
35.9338
 20
105.1541
 30
0.0
 10
35.9338
 20
105.1541
 30
0.0
 10
35.9338
 20
43.2862
 30
0.0
 10
35.9338
 20
43.2862
 30
0.0
 10
35.9338
 20
43.2862
 30
0.0
 10
35.9338
 20
43.2862
 30
0.0
 10
30.1204
 20
43.2862
 30
0.0
 10
30.1204
 20
43.2862
 30
0.0
 10
30.1204
 20
43.2862
 30
0.0
 10
30.1204
 20
43.2862
 30
0.0
 10
30.1204
 20
105.1541
 30
0.0
 10
30.1204
 20
105.1541
 30
0.0
  0
SPLINE
  5
15A
330
1F
100
AcDbEntity
  8
layer 1
 62
     7
100
AcDbSpline
210
0.0
220
0.0
230
1.0
 70
    11
 71
     3
 72
    20
 73
    16
 74
     0
 42
0.0000000001
 43
0.0000000001
 12
1.0
 22
0.0
 32
0.0
 13
1.0
 23
0.0
 33
0.0
 40
0.0
 40
0.0
 40
0.0
 40
0.0
 40
0.2
 40
0.2
 40
0.2
 40
0.2
 40
0.4
 40
0.4
 40
0.4
 40
0.4
 40
0.6
 40
0.6
 40
0.6
 40
0.6
 40
1.0
 40
1.0
 40
1.0
 40
1.0
 10
123.8247
 20
105.1541
 30
0.0
 10
123.8247
 20
105.1541
 30
0.0
 10
129.6381
 20
105.1541
 30
0.0
 10
129.6381
 20
105.1541
 30
0.0
 10
129.6381
 20
105.1541
 30
0.0
 10
129.6381
 20
105.1541
 30
0.0
 10
129.6381
 20
43.2862
 30
0.0
 10
129.6381
 20
43.2862
 30
0.0
 10
129.6381
 20
43.2862
 30
0.0
 10
129.6381
 20
43.2862
 30
0.0
 10
123.8247
 20
43.2862
 30
0.0
 10
123.8247
 20
43.2862
 30
0.0
 10
123.8247
 20
43.2862
 30
0.0
 10
123.8247
 20
43.2862
 30
0.0
 10
123.8247
 20
105.1541
 30
0.0
 10
123.8247
 20
105.1541
 30
0.0
  0
SPLINE
  5
15B
330
1F
100
AcDbEntity
  8
layer 1
 62
     7
100
AcDbSpline
210
0.0
220
0.0
230
1.0
 70
    11
 71
     3
 72
    20
 73
    16
 74
     0
 42
0.0000000001
 43
0.0000000001
 12
1.0
 22
0.0
 32
0.0
 13
1.0
 23
0.0
 33
0.0
 40
0.0
 40
0.0
 40
0.0
 40
0.0
 40
0.2
 40
0.2
 40
0.2
 40
0.2
 40
0.4
 40
0.4
 40
0.4
 40
0.4
 40
0.6
 40
0.6
 40
0.6
 40
0.6
 40
1.0
 40
1.0
 40
1.0
 40
1.0
 10
75.9165
 20
105.1541
 30
0.0
 10
75.9165
 20
105.1541
 30
0.0
 10
81.7299
 20
105.1541
 30
0.0
 10
81.7299
 20
105.1541
 30
0.0
 10
81.7299
 20
105.1541
 30
0.0
 10
81.7299
 20
105.1541
 30
0.0
 10
81.7299
 20
43.2862
 30
0.0
 10
81.7299
 20
43.2862
 30
0.0
 10
81.7299
 20
43.2862
 30
0.0
 10
81.7299
 20
43.2862
 30
0.0
 10
75.9165
 20
43.2862
 30
0.0
 10
75.9165
 20
43.2862
 30
0.0
 10
75.9165
 20
43.2862
 30
0.0
 10
75.9165
 20
43.2862
 30
0.0
 10
75.9165
 20
105.1541
 30
0.0
 10
75.9165
 20
105.1541
 30
0.0
  0
SPLINE
  5
15C
330
1F
100
AcDbEntity
  8
layer 1
 62
     7
100
AcDbSpline
210
0.0
220
0.0
230
1.0
 70
    11
 71
     3
 72
    20
 73
    16
 74
     0
 42
0.0000000001
 43
0.0000000001
 12
1.0
 22
0.0
 32
0.0
 13
1.0
 23
0.0
 33
0.0
 40
0.0
 40
0.0
 40
0.0
 40
0.0
 40
0.2
 40
0.2
 40
0.2
 40
0.2
 40
0.4
 40
0.4
 40
0.4
 40
0.4
 40
0.6
 40
0.6
 40
0.6
 40
0.6
 40
1.0
 40
1.0
 40
1.0
 40
1.0
 10
169.6208
 20
105.1541
 30
0.0
 10
169.6208
 20
105.1541
 30
0.0
 10
175.4342
 20
105.1541
 30
0.0
 10
175.4342
 20
105.1541
 30
0.0
 10
175.4342
 20
105.1541
 30
0.0
 10
175.4342
 20
105.1541
 30
0.0
 10
175.4342
 20
43.2862
 30
0.0
 10
175.4342
 20
43.2862
 30
0.0
 10
175.4342
 20
43.2862
 30
0.0
 10
175.4342
 20
43.2862
 30
0.0
 10
169.6208
 20
43.2862
 30
0.0
 10
169.6208
 20
43.2862
 30
0.0
 10
169.6208
 20
43.2862
 30
0.0
 10
169.6208
 20
43.2862
 30
0.0
 10
169.6208
 20
105.1541
 30
0.0
 10
169.6208
 20
105.1541
 30
0.0
  0
ENDSEC
  0
SECTION
  2
OBJECTS
  0
DICTIONARY
  5
C
330
0
100
AcDbDictionary
281
     1
  3
ACAD_GROUP
350
D
  3
ACAD_LAYOUT
350
1A
  3
ACAD_MATERIAL
350
3B
  3
ACAD_MLEADERSTYLE
350
17F
  3
ACAD_MLINESTYLE
350
17
  3
ACAD_PLOTSETTINGS
350
19
  3
ACAD_PLOTSTYLENAME
350
E
  3
ACAD_TABLESTYLE
350
17E
  3
ACAD_VISUALSTYLE
350
2A
  0
DICTIONARY
  5
D
102
{ACAD_REACTORS
330
C
102
}
330
C
100
AcDbDictionary
281
     1
  0
DICTIONARY
  5
1A
102
{ACAD_REACTORS
330
C
102
}
330
C
100
AcDbDictionary
281
     1
  3
Layout1
350
1E
  3
Layout2
350
26
  3
Model
350
22
  0
DICTIONARY
  5
3B
102
{ACAD_REACTORS
330
C
102
}
330
C
100
AcDbDictionary
281
     1
  3
ByBlock
350
3D
  3
ByLayer
350
3C
  3
Global
350
3E
  0
DICTIONARY
  5
17F
102
{ACAD_REACTORS
330
C
102
}
330
C
100
AcDbDictionary
281
     1
  0
DICTIONARY
  5
17
102
{ACAD_REACTORS
330
C
102
}
330
C
100
AcDbDictionary
281
     1
  3
Standard
350
18
  0
DICTIONARY
  5
19
102
{ACAD_REACTORS
330
C
102
}
330
C
100
AcDbDictionary
281
     1
  0
ACDBDICTIONARYWDFLT
  5
E
102
{ACAD_REACTORS
330
C
102
}
330
C
100
AcDbDictionary
281
     1
  3
Normal
350
F
100
AcDbDictionaryWithDefault
340
F
  0
DICTIONARY
  5
17E
102
{ACAD_REACTORS
330
C
102
}
330
C
100
AcDbDictionary
281
     1
  0
DICTIONARY
  5
2A
102
{ACAD_REACTORS
330
C
102
}
330
C
100
AcDbDictionary
281
     1
  3
2dWireframe
350
2F
  3
3D Hidden
350
31
  3
3dWireframe
350
30
  3
Basic
350
32
  3
Brighten
350
36
  3
ColorChange
350
3A
  3
Conceptual
350
34
  3
Dim
350
35
  3
Facepattern
350
39
  3
Flat
350
2B
  3
FlatWithEdges
350
2C
  3
Gouraud
350
2D
  3
GouraudWithEdges
350
2E
  3
Linepattern
350
38
  3
Realistic
350
33
  3
Thicken
350
37
  0
LAYOUT
  5
1E
102
{ACAD_REACTORS
330
1A
102
}
330
1A
100
AcDbPlotSettings
  1

  2
none_device
  4

  6

 40
0.0
 41
0.0
 42
0.0
 43
0.0
 44
0.0
 45
0.0
 46
0.0
 47
0.0
 48
0.0
 49
0.0
140
0.0
141
0.0
142
1.0
143
1.0
 70
   688
 72
     0
 73
     0
 74
     5
  7

 75
    16
 76
     0
 77
     2
 78
   300
147
1.0
148
0.0
149
0.0
100
AcDbLayout
  1
Layout1
 70
     1
 71
     1
 10
0.0
 20
0.0
 11
12.0
 21
9.0
 12
0.0
 22
0.0
 32
0.0
 14
1.000000000000000E+20
 24
1.000000000000000E+20
 34
1.000000000000000E+20
 15
-1.000000000000000E+20
 25
-1.000000000000000E+20
 35
-1.000000000000000E+20
146
0.0
 13
0.0
 23
0.0
 33
0.0
 16
1.0
 26
0.0
 36
0.0
 17
0.0
 27
1.0
 37
0.0
 76
     0
330
1B
  0
LAYOUT
  5
26
102
{ACAD_REACTORS
330
1A
102
}
330
1A
100
AcDbPlotSettings
  1

  2
none_device
  4

  6

 40
0.0
 41
0.0
 42
0.0
 43
0.0
 44
0.0
 45
0.0
 46
0.0
 47
0.0
 48
0.0
 49
0.0
140
0.0
141
0.0
142
1.0
143
1.0
 70
   688
 72
     0
 73
     0
 74
     5
  7

 75
    16
 76
     0
 77
     2
 78
   300
147
1.0
148
0.0
149
0.0
100
AcDbLayout
  1
Layout2
 70
     1
 71
     2
 10
0.0
 20
0.0
 11
0.0
 21
0.0
 12
0.0
 22
0.0
 32
0.0
 14
0.0
 24
0.0
 34
0.0
 15
0.0
 25
0.0
 35
0.0
146
0.0
 13
0.0
 23
0.0
 33
0.0
 16
1.0
 26
0.0
 36
0.0
 17
0.0
 27
1.0
 37
0.0
 76
     0
330
23
  0
LAYOUT
  5
22
102
{ACAD_REACTORS
330
1A
102
}
330
1A
100
AcDbPlotSettings
  1

  2
none_device
  4

  6

 40
0.0
 41
0.0
 42
0.0
 43
0.0
 44
0.0
 45
0.0
 46
0.0
 47
0.0
 48
0.0
 49
0.0
140
0.0
141
0.0
142
1.0
143
1.0
 70
  1712
 72
     0
 73
     0
 74
     0
  7

 75
     0
 76
     0
 77
     2
 78
   300
147
1.0
148
0.0
149
0.0
100
AcDbLayout
  1
Model
 70
     1
 71
     0
 10
0.0
 20
0.0
 11
12.0
 21
9.0
 12
0.0
 22
0.0
 32
0.0
 14
-187.5376
 24
-115.2238
 34
0.0
 15
196.0681
 25
131.7039
 35
0.0
146
0.0
 13
0.0
 23
0.0
 33
0.0
 16
1.0
 26
0.0
 36
0.0
 17
0.0
 27
1.0
 37
0.0
 76
     0
330
1F
331
29
  0
MATERIAL
  5
3D
102
{ACAD_REACTORS
330
3B
102
}
330
3B
100
AcDbMaterial
  1
ByBlock
 72
     1
 94
      127
  0
MATERIAL
  5
3C
102
{ACAD_REACTORS
330
3B
102
}
330
3B
100
AcDbMaterial
  1
ByLayer
 72
     1
 94
      127
  0
MATERIAL
  5
3E
102
{ACAD_REACTORS
330
3B
102
}
330
3B
100
AcDbMaterial
  1
Global
 72
     1
 94
      127
  0
MLINESTYLE
  5
18
102
{ACAD_REACTORS
330
17
102
}
330
17
100
AcDbMlineStyle
  2
Standard
 70
     0
  3

 62
   256
 51
90.0
 52
90.0
 71
     2
 49
0.5
 62
   256
  6
BYLAYER
 49
-0.5
 62
   256
  6
BYLAYER
  0
ACDBPLACEHOLDER
  5
F
102
{ACAD_REACTORS
330
E
102
}
330
E
  0
VISUALSTYLE
  5
2F
102
{ACAD_REACTORS
330
2A
102
}
102
{ACAD_XDICTIONARY
360
166
102
}
330
2A
100
AcDbVisualStyle
  2
2dWireframe
 70
     4
 71
     0
 72
     2
 73
     0
 90
        0
 40
-0.6
 41
-30.0
 62
     5
 63
     7
421
 16777215
 74
     1
 91
        4
 64
     7
 65
   257
 75
     1
175
     1
 42
1.0
 92
        0
 66
   257
 43
1.0
 76
     1
 77
     6
 78
     2
 67
     7
 79
     5
170
     0
171
     0
290
     0
174
     0
 93
        1
 44
0.0
173
     0
291
     0
 45
0.0
  0
VISUALSTYLE
  5
31
102
{ACAD_REACTORS
330
2A
102
}
102
{ACAD_XDICTIONARY
360
16A
102
}
330
2A
100
AcDbVisualStyle
  2
3D Hidden
 70
     6
 71
     1
 72
     2
 73
     2
 90
        0
 40
-0.6
 41
-30.0
 62
     5
 63
     7
421
 16777215
 74
     2
 91
        2
 64
     7
 65
   257
 75
     2
175
     1
 42
40.0
 92
        0
 66
   257
 43
1.0
 76
     1
 77
     6
 78
     2
 67
     7
 79
     3
170
     0
171
     0
290
     0
174
     0
 93
        1
 44
0.0
173
     0
291
     0
 45
0.0
  0
VISUALSTYLE
  5
30
102
{ACAD_REACTORS
330
2A
102
}
102
{ACAD_XDICTIONARY
360
168
102
}
330
2A
100
AcDbVisualStyle
  2
3dWireframe
 70
     5
 71
     0
 72
     2
 73
     0
 90
        0
 40
-0.6
 41
-30.0
 62
     5
 63
     7
421
 16777215
 74
     1
 91
        4
 64
     7
 65
   257
 75
     1
175
     1
 42
1.0
 92
        0
 66
   257
 43
1.0
 76
     1
 77
     6
 78
     2
 67
     7
 79
     5
170
     0
171
     0
290
     0
174
     0
 93
        1
 44
0.0
173
     0
291
     0
 45
0.0
  0
VISUALSTYLE
  5
32
102
{ACAD_REACTORS
330
2A
102
}
102
{ACAD_XDICTIONARY
360
16C
102
}
330
2A
100
AcDbVisualStyle
  2
Basic
 70
     7
 71
     1
 72
     0
 73
     1
 90
        0
 40
-0.6
 41
-30.0
 62
     5
 63
     7
421
 16777215
 74
     0
 91
        4
 64
     7
 65
   257
 75
     1
175
     1
 42
1.0
 92
        8
 66
     7
 43
1.0
 76
     1
 77
     6
 78
     2
 67
     7
 79
     5
170
     0
171
     0
290
     0
174
     0
 93
        1
 44
0.0
173
     0
291
     1
 45
0.0
  0
VISUALSTYLE
  5
36
102
{ACAD_REACTORS
330
2A
102
}
102
{ACAD_XDICTIONARY
360
174
102
}
330
2A
100
AcDbVisualStyle
  2
Brighten
 70
    12
 71
     2
 72
     2
 73
     0
 90
        0
 40
-0.6
 41
-30.0
 62
     5
 63
     7
421
 16777215
 74
     1
 91
        4
 64
     7
 65
   257
 75
     1
175
     1
 42
1.0
 92
        8
 66
     7
 43
1.0
 76
     1
 77
     6
 78
     2
 67
     7
 79
     5
170
     0
171
     0
290
     0
174
     0
 93
        1
 44
50.0
173
     0
291
     1
 45
0.0
  0
VISUALSTYLE
  5
3A
102
{ACAD_REACTORS
330
2A
102
}
102
{ACAD_XDICTIONARY
360
17C
102
}
330
2A
100
AcDbVisualStyle
  2
ColorChange
 70
    16
 71
     2
 72
     2
 73
     3
 90
        0
 40
-0.6
 41
-30.0
 62
     5
 63
     8
421
  8421504
 74
     1
 91
        4
 64
     7
 65
   257
 75
     1
175
     1
 42
1.0
 92
        8
 66
     8
424
  8421504
 43
1.0
 76
     1
 77
     6
 78
     2
 67
     7
 79
     5
170
     0
171
     0
290
     0
174
     0
 93
        1
 44
0.0
173
     0
291
     1
 45
0.0
  0
VISUALSTYLE
  5
34
102
{ACAD_REACTORS
330
2A
102
}
102
{ACAD_XDICTIONARY
360
170
102
}
330
2A
100
AcDbVisualStyle
  2
Conceptual
 70
     9
 71
     3
 72
     2
 73
     0
 90
        0
 40
-0.6
 41
-30.0
 62
     5
 63
     7
421
 16777215
 74
     2
 91
        2
 64
     7
 65
   257
 75
     1
175
     1
 42
40.0
 92
        8
 66
     7
 43
1.0
 76
     1
 77
     6
 78
     2
 67
     7
 79
     3
170
     0
171
     0
290
     0
174
     0
 93
        1
 44
0.0
173
     0
291
     0
 45
0.0
  0
VISUALSTYLE
  5
35
102
{ACAD_REACTORS
330
2A
102
}
102
{ACAD_XDICTIONARY
360
172
102
}
330
2A
100
AcDbVisualStyle
  2
Dim
 70
    11
 71
     2
 72
     2
 73
     0
 90
        0
 40
-0.6
 41
-30.0
 62
     5
 63
     7
421
 16777215
 74
     1
 91
        4
 64
     7
 65
   257
 75
     1
175
     1
 42
1.0
 92
        8
 66
     7
 43
1.0
 76
     1
 77
     6
 78
     2
 67
     7
 79
     5
170
     0
171
     0
290
     0
174
     0
 93
        1
 44
-50.0
173
     0
291
     1
 45
0.0
  0
VISUALSTYLE
  5
39
102
{ACAD_REACTORS
330
2A
102
}
102
{ACAD_XDICTIONARY
360
17A
102
}
330
2A
100
AcDbVisualStyle
  2
Facepattern
 70
    15
 71
     2
 72
     2
 73
     0
 90
        0
 40
-0.6
 41
-30.0
 62
     5
 63
     7
421
 16777215
 74
     1
 91
        4
 64
     7
 65
   257
 75
     1
175
     1
 42
1.0
 92
        8
 66
     7
 43
1.0
 76
     1
 77
     6
 78
     2
 67
     7
 79
     5
170
     0
171
     0
290
     0
174
     0
 93
        1
 44
0.0
173
     0
291
     1
 45
0.0
  0
VISUALSTYLE
  5
2B
102
{ACAD_REACTORS
330
2A
102
}
102
{ACAD_XDICTIONARY
360
15E
102
}
330
2A
100
AcDbVisualStyle
  2
Flat
 70
     0
 71
     2
 72
     1
 73
     1
 90
        2
 40
-0.6
 41
30.0
 62
     5
 63
     7
421
 16777215
 74
     0
 91
        4
 64
     7
 65
   257
 75
     1
175
     1
 42
1.0
 92
        8
 66
     7
 43
1.0
 76
     1
 77
     6
 78
     2
 67
     7
 79
     5
170
     0
171
     0
290
     0
174
     0
 93
       13
 44
0.0
173
     0
291
     1
 45
0.0
  0
VISUALSTYLE
  5
2C
102
{ACAD_REACTORS
330
2A
102
}
102
{ACAD_XDICTIONARY
360
160
102
}
330
2A
100
AcDbVisualStyle
  2
FlatWithEdges
 70
     1
 71
     2
 72
     1
 73
     1
 90
        2
 40
-0.6
 41
30.0
 62
     5
 63
     7
421
 16777215
 74
     1
 91
        4
 64
     7
 65
   257
 75
     1
175
     1
 42
1.0
 92
        0
 66
   257
 43
1.0
 76
     1
 77
     6
 78
     2
 67
     7
 79
     5
170
     0
171
     0
290
     0
174
     0
 93
       13
 44
0.0
173
     0
291
     1
 45
0.0
  0
VISUALSTYLE
  5
2D
102
{ACAD_REACTORS
330
2A
102
}
102
{ACAD_XDICTIONARY
360
162
102
}
330
2A
100
AcDbVisualStyle
  2
Gouraud
 70
     2
 71
     2
 72
     2
 73
     1
 90
        2
 40
-0.6
 41
30.0
 62
     5
 63
     7
421
 16777215
 74
     0
 91
        4
 64
     7
 65
   257
 75
     1
175
     1
 42
1.0
 92
        0
 66
     7
 43
1.0
 76
     1
 77
     6
 78
     2
 67
     7
 79
     5
170
     0
171
     0
290
     0
174
     0
 93
       13
 44
0.0
173
     0
291
     1
 45
0.0
  0
VISUALSTYLE
  5
2E
102
{ACAD_REACTORS
330
2A
102
}
102
{ACAD_XDICTIONARY
360
164
102
}
330
2A
100
AcDbVisualStyle
  2
GouraudWithEdges
 70
     3
 71
     2
 72
     2
 73
     1
 90
        2
 40
-0.6
 41
30.0
 62
     5
 63
     7
421
 16777215
 74
     1
 91
        4
 64
     7
 65
   257
 75
     1
175
     1
 42
1.0
 92
        0
 66
   257
 43
1.0
 76
     1
 77
     6
 78
     2
 67
     7
 79
     5
170
     0
171
     0
290
     0
174
     0
 93
       13
 44
0.0
173
     0
291
     1
 45
0.0
  0
VISUALSTYLE
  5
38
102
{ACAD_REACTORS
330
2A
102
}
102
{ACAD_XDICTIONARY
360
178
102
}
330
2A
100
AcDbVisualStyle
  2
Linepattern
 70
    14
 71
     2
 72
     2
 73
     0
 90
        0
 40
-0.6
 41
-30.0
 62
     5
 63
     7
421
 16777215
 74
     1
 91
        4
 64
     7
 65
   257
 75
     7
175
     7
 42
1.0
 92
        8
 66
     7
 43
1.0
 76
     1
 77
     6
 78
     2
 67
     7
 79
     5
170
     0
171
     0
290
     0
174
     0
 93
        1
 44
0.0
173
     0
291
     1
 45
0.0
  0
VISUALSTYLE
  5
33
102
{ACAD_REACTORS
330
2A
102
}
102
{ACAD_XDICTIONARY
360
16E
102
}
330
2A
100
AcDbVisualStyle
  2
Realistic
 70
     8
 71
     2
 72
     2
 73
     0
 90
        0
 40
-0.6
 41
-30.0
 62
     5
 63
     7
421
 16777215
 74
     1
 91
        0
 64
     7
 65
   257
 75
     1
175
     1
 42
1.0
 92
        8
 66
     8
424
  7895160
 43
1.0
 76
     1
 77
     6
 78
     2
 67
     7
 79
     5
170
     0
171
     0
290
     0
174
     0
 93
       13
 44
0.0
173
     0
291
     0
 45
0.0
  0
VISUALSTYLE
  5
37
102
{ACAD_REACTORS
330
2A
102
}
102
{ACAD_XDICTIONARY
360
176
102
}
330
2A
100
AcDbVisualStyle
  2
Thicken
 70
    13
 71
     2
 72
     2
 73
     0
 90
        0
 40
-0.6
 41
-30.0
 62
     5
 63
     7
421
 16777215
 74
     1
 91
        4
 64
     7
 65
   257
 75
     1
175
     1
 42
1.0
 92
       12
 66
     7
 43
1.0
 76
     1
 77
     6
 78
     2
 67
     7
 79
     5
170
     0
171
     0
290
     0
174
     0
 93
        1
 44
0.0
173
     0
291
     1
 45
0.0
  0
DICTIONARY
  5
166
330
2F
100
AcDbDictionary
280
     1
281
     1
  3
ACAD_XREC_ROUNDTRIP
360
167
  0
DICTIONARY
  5
16A
330
31
100
AcDbDictionary
280
     1
281
     1
  3
ACAD_XREC_ROUNDTRIP
360
16B
  0
DICTIONARY
  5
168
330
30
100
AcDbDictionary
280
     1
281
     1
  3
ACAD_XREC_ROUNDTRIP
360
169
  0
DICTIONARY
  5
16C
330
32
100
AcDbDictionary
280
     1
281
     1
  3
ACAD_XREC_ROUNDTRIP
360
16D
  0
DICTIONARY
  5
174
330
36
100
AcDbDictionary
280
     1
281
     1
  3
ACAD_XREC_ROUNDTRIP
360
175
  0
DICTIONARY
  5
17C
330
3A
100
AcDbDictionary
280
     1
281
     1
  3
ACAD_XREC_ROUNDTRIP
360
17D
  0
DICTIONARY
  5
170
330
34
100
AcDbDictionary
280
     1
281
     1
  3
ACAD_XREC_ROUNDTRIP
360
171
  0
DICTIONARY
  5
172
330
35
100
AcDbDictionary
280
     1
281
     1
  3
ACAD_XREC_ROUNDTRIP
360
173
  0
DICTIONARY
  5
17A
330
39
100
AcDbDictionary
280
     1
281
     1
  3
ACAD_XREC_ROUNDTRIP
360
17B
  0
DICTIONARY
  5
15E
330
2B
100
AcDbDictionary
280
     1
281
     1
  3
ACAD_XREC_ROUNDTRIP
360
15F
  0
DICTIONARY
  5
160
330
2C
100
AcDbDictionary
280
     1
281
     1
  3
ACAD_XREC_ROUNDTRIP
360
161
  0
DICTIONARY
  5
162
330
2D
100
AcDbDictionary
280
     1
281
     1
  3
ACAD_XREC_ROUNDTRIP
360
163
  0
DICTIONARY
  5
164
330
2E
100
AcDbDictionary
280
     1
281
     1
  3
ACAD_XREC_ROUNDTRIP
360
165
  0
DICTIONARY
  5
178
330
38
100
AcDbDictionary
280
     1
281
     1
  3
ACAD_XREC_ROUNDTRIP
360
179
  0
DICTIONARY
  5
16E
330
33
100
AcDbDictionary
280
     1
281
     1
  3
ACAD_XREC_ROUNDTRIP
360
16F
  0
DICTIONARY
  5
176
330
37
100
AcDbDictionary
280
     1
281
     1
  3
ACAD_XREC_ROUNDTRIP
360
177
  0
XRECORD
  5
167
102
{ACAD_REACTORS
330
166
102
}
330
166
100
AcDbXrecord
280
     1
102
RTVSPropertyOp0
 70
     1
102
RTVSPropertyOp1
 70
     1
102
RTVSPropertyOp2
 70
     1
102
RTVSPropertyOp3
 70
     1
102
RTVSPropertyOp4
 70
     1
102
RTVSPropertyOp5
 70
     1
102
RTVSPropertyOp6
 70
     1
102
RTVSPropertyOp7
 70
     1
102
RTVSPropertyOp8
 70
     1
102
RTVSPropertyOp9
 70
     1
102
RTVSPropertyOp10
 70
     1
102
RTVSPropertyOp11
 70
     1
102
RTVSPropertyOp12
 70
     1
102
RTVSPropertyOp13
 70
     1
102
RTVSPropertyOp14
 70
     1
102
RTVSPropertyOp15
 70
     1
102
RTVSPropertyOp16
 70
     1
102
RTVSPropertyOp17
 70
     1
102
RTVSPropertyOp18
 70
     1
102
RTVSPropertyOp19
 70
     1
102
RTVSPropertyOp20
 70
     1
102
RTVSPropertyOp21
 70
     1
102
RTVSPropertyOp22
 70
     1
102
RTVSPropertyOp23
 70
     1
102
RTVSPropertyOp24
 70
     1
102
RTVSPropertyOp25
 70
     1
102
RTVSPropertyOp26
 70
     1
102
RTVSPropertyOp27
 70
     1
102
RTVSPropertyOp28
 70
     1
102
RTVSPropertyOp29
 70
     1
102
RTVSPropertyOp30
 70
     1
102
RTVSPropertyOp31
 70
     1
102
RTVSPropertyOp32
 70
     1
  0
XRECORD
  5
16B
102
{ACAD_REACTORS
330
16A
102
}
330
16A
100
AcDbXrecord
280
     1
102
RTVSPropertyOp0
 70
     1
102
RTVSPropertyOp1
 70
     1
102
RTVSPropertyOp2
 70
     1
102
RTVSPropertyOp3
 70
     1
102
RTVSPropertyOp4
 70
     1
102
RTVSPropertyOp5
 70
     1
102
RTVSPropertyOp6
 70
     1
102
RTVSPropertyOp7
 70
     1
102
RTVSPropertyOp8
 70
     1
102
RTVSPropertyOp9
 70
     1
102
RTVSPropertyOp10
 70
     1
102
RTVSPropertyOp11
 70
     1
102
RTVSPropertyOp12
 70
     1
102
RTVSPropertyOp13
 70
     1
102
RTVSPropertyOp14
 70
     1
102
RTVSPropertyOp15
 70
     1
102
RTVSPropertyOp16
 70
     1
102
RTVSPropertyOp17
 70
     1
102
RTVSPropertyOp18
 70
     1
102
RTVSPropertyOp19
 70
     1
102
RTVSPropertyOp20
 70
     1
102
RTVSPropertyOp21
 70
     1
102
RTVSPropertyOp22
 70
     1
102
RTVSPropertyOp23
 70
     1
102
RTVSPropertyOp24
 70
     1
102
RTVSPropertyOp25
 70
     1
102
RTVSPropertyOp26
 70
     1
102
RTVSPropertyOp27
 70
     1
102
RTVSPropertyOp28
 70
     1
102
RTVSPropertyOp29
 70
     1
102
RTVSPropertyOp30
 70
     1
102
RTVSPropertyOp31
 70
     1
102
RTVSPropertyOp32
 70
     1
  0
XRECORD
  5
169
102
{ACAD_REACTORS
330
168
102
}
330
168
100
AcDbXrecord
280
     1
102
RTVSPropertyOp0
 70
     1
102
RTVSPropertyOp1
 70
     1
102
RTVSPropertyOp2
 70
     1
102
RTVSPropertyOp3
 70
     1
102
RTVSPropertyOp4
 70
     1
102
RTVSPropertyOp5
 70
     1
102
RTVSPropertyOp6
 70
     1
102
RTVSPropertyOp7
 70
     1
102
RTVSPropertyOp8
 70
     1
102
RTVSPropertyOp9
 70
     1
102
RTVSPropertyOp10
 70
     1
102
RTVSPropertyOp11
 70
     1
102
RTVSPropertyOp12
 70
     1
102
RTVSPropertyOp13
 70
     1
102
RTVSPropertyOp14
 70
     1
102
RTVSPropertyOp15
 70
     1
102
RTVSPropertyOp16
 70
     1
102
RTVSPropertyOp17
 70
     1
102
RTVSPropertyOp18
 70
     1
102
RTVSPropertyOp19
 70
     1
102
RTVSPropertyOp20
 70
     1
102
RTVSPropertyOp21
 70
     1
102
RTVSPropertyOp22
 70
     1
102
RTVSPropertyOp23
 70
     1
102
RTVSPropertyOp24
 70
     1
102
RTVSPropertyOp25
 70
     1
102
RTVSPropertyOp26
 70
     1
102
RTVSPropertyOp27
 70
     1
102
RTVSPropertyOp28
 70
     1
102
RTVSPropertyOp29
 70
     1
102
RTVSPropertyOp30
 70
     1
102
RTVSPropertyOp31
 70
     1
102
RTVSPropertyOp32
 70
     1
  0
XRECORD
  5
16D
102
{ACAD_REACTORS
330
16C
102
}
330
16C
100
AcDbXrecord
280
     1
102
RTVSPropertyOp0
 70
     1
102
RTVSPropertyOp1
 70
     1
102
RTVSPropertyOp2
 70
     1
102
RTVSPropertyOp3
 70
     1
102
RTVSPropertyOp4
 70
     1
102
RTVSPropertyOp5
 70
     1
102
RTVSPropertyOp6
 70
     1
102
RTVSPropertyOp7
 70
     1
102
RTVSPropertyOp8
 70
     1
102
RTVSPropertyOp9
 70
     1
102
RTVSPropertyOp10
 70
     1
102
RTVSPropertyOp11
 70
     1
102
RTVSPropertyOp12
 70
     1
102
RTVSPropertyOp13
 70
     1
102
RTVSPropertyOp14
 70
     1
102
RTVSPropertyOp15
 70
     1
102
RTVSPropertyOp16
 70
     1
102
RTVSPropertyOp17
 70
     1
102
RTVSPropertyOp18
 70
     1
102
RTVSPropertyOp19
 70
     1
102
RTVSPropertyOp20
 70
     1
102
RTVSPropertyOp21
 70
     1
102
RTVSPropertyOp22
 70
     1
102
RTVSPropertyOp23
 70
     1
102
RTVSPropertyOp24
 70
     1
102
RTVSPropertyOp25
 70
     1
102
RTVSPropertyOp26
 70
     1
102
RTVSPropertyOp27
 70
     1
102
RTVSPropertyOp28
 70
     1
102
RTVSPropertyOp29
 70
     1
102
RTVSPropertyOp30
 70
     1
102
RTVSPropertyOp31
 70
     1
102
RTVSPropertyOp32
 70
     1
  0
XRECORD
  5
175
102
{ACAD_REACTORS
330
174
102
}
330
174
100
AcDbXrecord
280
     1
102
RTVSPropertyOp0
 70
     1
102
RTVSPropertyOp1
 70
     1
102
RTVSPropertyOp2
 70
     1
102
RTVSPropertyOp3
 70
     1
102
RTVSPropertyOp4
 70
     1
102
RTVSPropertyOp5
 70
     1
102
RTVSPropertyOp6
 70
     1
102
RTVSPropertyOp7
 70
     1
102
RTVSPropertyOp8
 70
     1
102
RTVSPropertyOp9
 70
     1
102
RTVSPropertyOp10
 70
     1
102
RTVSPropertyOp11
 70
     1
102
RTVSPropertyOp12
 70
     1
102
RTVSPropertyOp13
 70
     1
102
RTVSPropertyOp14
 70
     1
102
RTVSPropertyOp15
 70
     1
102
RTVSPropertyOp16
 70
     1
102
RTVSPropertyOp17
 70
     1
102
RTVSPropertyOp18
 70
     1
102
RTVSPropertyOp19
 70
     1
102
RTVSPropertyOp20
 70
     1
102
RTVSPropertyOp21
 70
     1
102
RTVSPropertyOp22
 70
     1
102
RTVSPropertyOp23
 70
     1
102
RTVSPropertyOp24
 70
     1
102
RTVSPropertyOp25
 70
     1
102
RTVSPropertyOp26
 70
     1
102
RTVSPropertyOp27
 70
     1
102
RTVSPropertyOp28
 70
     1
102
RTVSPropertyOp29
 70
     1
102
RTVSPropertyOp30
 70
     1
102
RTVSPropertyOp31
 70
     1
102
RTVSPropertyOp32
 70
     1
  0
XRECORD
  5
17D
102
{ACAD_REACTORS
330
17C
102
}
330
17C
100
AcDbXrecord
280
     1
102
RTVSPropertyOp0
 70
     1
102
RTVSPropertyOp1
 70
     1
102
RTVSPropertyOp2
 70
     1
102
RTVSPropertyOp3
 70
     1
102
RTVSPropertyOp4
 70
     1
102
RTVSPropertyOp5
 70
     1
102
RTVSPropertyOp6
 70
     1
102
RTVSPropertyOp7
 70
     1
102
RTVSPropertyOp8
 70
     1
102
RTVSPropertyOp9
 70
     1
102
RTVSPropertyOp10
 70
     1
102
RTVSPropertyOp11
 70
     1
102
RTVSPropertyOp12
 70
     1
102
RTVSPropertyOp13
 70
     1
102
RTVSPropertyOp14
 70
     1
102
RTVSPropertyOp15
 70
     1
102
RTVSPropertyOp16
 70
     1
102
RTVSPropertyOp17
 70
     1
102
RTVSPropertyOp18
 70
     1
102
RTVSPropertyOp19
 70
     1
102
RTVSPropertyOp20
 70
     1
102
RTVSPropertyOp21
 70
     1
102
RTVSPropertyOp22
 70
     1
102
RTVSPropertyOp23
 70
     1
102
RTVSPropertyOp24
 70
     1
102
RTVSPropertyOp25
 70
     1
102
RTVSPropertyOp26
 70
     1
102
RTVSPropertyOp27
 70
     1
102
RTVSPropertyOp28
 70
     1
102
RTVSPropertyOp29
 70
     1
102
RTVSPropertyOp30
 70
     1
102
RTVSPropertyOp31
 70
     1
102
RTVSPropertyOp32
 70
     1
  0
XRECORD
  5
171
102
{ACAD_REACTORS
330
170
102
}
330
170
100
AcDbXrecord
280
     1
102
RTVSPropertyOp0
 70
     1
102
RTVSPropertyOp1
 70
     1
102
RTVSPropertyOp2
 70
     1
102
RTVSPropertyOp3
 70
     1
102
RTVSPropertyOp4
 70
     1
102
RTVSPropertyOp5
 70
     1
102
RTVSPropertyOp6
 70
     1
102
RTVSPropertyOp7
 70
     1
102
RTVSPropertyOp8
 70
     1
102
RTVSPropertyOp9
 70
     1
102
RTVSPropertyOp10
 70
     1
102
RTVSPropertyOp11
 70
     1
102
RTVSPropertyOp12
 70
     1
102
RTVSPropertyOp13
 70
     1
102
RTVSPropertyOp14
 70
     1
102
RTVSPropertyOp15
 70
     1
102
RTVSPropertyOp16
 70
     1
102
RTVSPropertyOp17
 70
     1
102
RTVSPropertyOp18
 70
     1
102
RTVSPropertyOp19
 70
     1
102
RTVSPropertyOp20
 70
     1
102
RTVSPropertyOp21
 70
     1
102
RTVSPropertyOp22
 70
     1
102
RTVSPropertyOp23
 70
     1
102
RTVSPropertyOp24
 70
     1
102
RTVSPropertyOp25
 70
     1
102
RTVSPropertyOp26
 70
     1
102
RTVSPropertyOp27
 70
     1
102
RTVSPropertyOp28
 70
     1
102
RTVSPropertyOp29
 70
     1
102
RTVSPropertyOp30
 70
     1
102
RTVSPropertyOp31
 70
     1
102
RTVSPropertyOp32
 70
     1
  0
XRECORD
  5
173
102
{ACAD_REACTORS
330
172
102
}
330
172
100
AcDbXrecord
280
     1
102
RTVSPropertyOp0
 70
     1
102
RTVSPropertyOp1
 70
     1
102
RTVSPropertyOp2
 70
     1
102
RTVSPropertyOp3
 70
     1
102
RTVSPropertyOp4
 70
     1
102
RTVSPropertyOp5
 70
     1
102
RTVSPropertyOp6
 70
     1
102
RTVSPropertyOp7
 70
     1
102
RTVSPropertyOp8
 70
     1
102
RTVSPropertyOp9
 70
     1
102
RTVSPropertyOp10
 70
     1
102
RTVSPropertyOp11
 70
     1
102
RTVSPropertyOp12
 70
     1
102
RTVSPropertyOp13
 70
     1
102
RTVSPropertyOp14
 70
     1
102
RTVSPropertyOp15
 70
     1
102
RTVSPropertyOp16
 70
     1
102
RTVSPropertyOp17
 70
     1
102
RTVSPropertyOp18
 70
     1
102
RTVSPropertyOp19
 70
     1
102
RTVSPropertyOp20
 70
     1
102
RTVSPropertyOp21
 70
     1
102
RTVSPropertyOp22
 70
     1
102
RTVSPropertyOp23
 70
     1
102
RTVSPropertyOp24
 70
     1
102
RTVSPropertyOp25
 70
     1
102
RTVSPropertyOp26
 70
     1
102
RTVSPropertyOp27
 70
     1
102
RTVSPropertyOp28
 70
     1
102
RTVSPropertyOp29
 70
     1
102
RTVSPropertyOp30
 70
     1
102
RTVSPropertyOp31
 70
     1
102
RTVSPropertyOp32
 70
     1
  0
XRECORD
  5
17B
102
{ACAD_REACTORS
330
17A
102
}
330
17A
100
AcDbXrecord
280
     1
102
RTVSPropertyOp0
 70
     1
102
RTVSPropertyOp1
 70
     1
102
RTVSPropertyOp2
 70
     1
102
RTVSPropertyOp3
 70
     1
102
RTVSPropertyOp4
 70
     1
102
RTVSPropertyOp5
 70
     1
102
RTVSPropertyOp6
 70
     1
102
RTVSPropertyOp7
 70
     1
102
RTVSPropertyOp8
 70
     1
102
RTVSPropertyOp9
 70
     1
102
RTVSPropertyOp10
 70
     1
102
RTVSPropertyOp11
 70
     1
102
RTVSPropertyOp12
 70
     1
102
RTVSPropertyOp13
 70
     1
102
RTVSPropertyOp14
 70
     1
102
RTVSPropertyOp15
 70
     1
102
RTVSPropertyOp16
 70
     1
102
RTVSPropertyOp17
 70
     1
102
RTVSPropertyOp18
 70
     1
102
RTVSPropertyOp19
 70
     1
102
RTVSPropertyOp20
 70
     1
102
RTVSPropertyOp21
 70
     1
102
RTVSPropertyOp22
 70
     1
102
RTVSPropertyOp23
 70
     1
102
RTVSPropertyOp24
 70
     1
102
RTVSPropertyOp25
 70
     1
102
RTVSPropertyOp26
 70
     1
102
RTVSPropertyOp27
 70
     1
102
RTVSPropertyOp28
 70
     1
102
RTVSPropertyOp29
 70
     1
102
RTVSPropertyOp30
 70
     1
102
RTVSPropertyOp31
 70
     1
102
RTVSPropertyOp32
 70
     1
  0
XRECORD
  5
15F
102
{ACAD_REACTORS
330
15E
102
}
330
15E
100
AcDbXrecord
280
     1
102
RTVSPropertyOp0
 70
     1
102
RTVSPropertyOp1
 70
     1
102
RTVSPropertyOp2
 70
     1
102
RTVSPropertyOp3
 70
     1
102
RTVSPropertyOp4
 70
     1
102
RTVSPropertyOp5
 70
     1
102
RTVSPropertyOp6
 70
     1
102
RTVSPropertyOp7
 70
     1
102
RTVSPropertyOp8
 70
     1
102
RTVSPropertyOp9
 70
     1
102
RTVSPropertyOp10
 70
     1
102
RTVSPropertyOp11
 70
     1
102
RTVSPropertyOp12
 70
     1
102
RTVSPropertyOp13
 70
     1
102
RTVSPropertyOp14
 70
     1
102
RTVSPropertyOp15
 70
     1
102
RTVSPropertyOp16
 70
     1
102
RTVSPropertyOp17
 70
     1
102
RTVSPropertyOp18
 70
     1
102
RTVSPropertyOp19
 70
     1
102
RTVSPropertyOp20
 70
     1
102
RTVSPropertyOp21
 70
     1
102
RTVSPropertyOp22
 70
     1
102
RTVSPropertyOp23
 70
     1
102
RTVSPropertyOp24
 70
     1
102
RTVSPropertyOp25
 70
     1
102
RTVSPropertyOp26
 70
     1
102
RTVSPropertyOp27
 70
     1
102
RTVSPropertyOp28
 70
     1
102
RTVSPropertyOp29
 70
     1
102
RTVSPropertyOp30
 70
     1
102
RTVSPropertyOp31
 70
     1
102
RTVSPropertyOp32
 70
     1
  0
XRECORD
  5
161
102
{ACAD_REACTORS
330
160
102
}
330
160
100
AcDbXrecord
280
     1
102
RTVSPropertyOp0
 70
     1
102
RTVSPropertyOp1
 70
     1
102
RTVSPropertyOp2
 70
     1
102
RTVSPropertyOp3
 70
     1
102
RTVSPropertyOp4
 70
     1
102
RTVSPropertyOp5
 70
     1
102
RTVSPropertyOp6
 70
     1
102
RTVSPropertyOp7
 70
     1
102
RTVSPropertyOp8
 70
     1
102
RTVSPropertyOp9
 70
     1
102
RTVSPropertyOp10
 70
     1
102
RTVSPropertyOp11
 70
     1
102
RTVSPropertyOp12
 70
     1
102
RTVSPropertyOp13
 70
     1
102
RTVSPropertyOp14
 70
     1
102
RTVSPropertyOp15
 70
     1
102
RTVSPropertyOp16
 70
     1
102
RTVSPropertyOp17
 70
     1
102
RTVSPropertyOp18
 70
     1
102
RTVSPropertyOp19
 70
     1
102
RTVSPropertyOp20
 70
     1
102
RTVSPropertyOp21
 70
     1
102
RTVSPropertyOp22
 70
     1
102
RTVSPropertyOp23
 70
     1
102
RTVSPropertyOp24
 70
     1
102
RTVSPropertyOp25
 70
     1
102
RTVSPropertyOp26
 70
     1
102
RTVSPropertyOp27
 70
     1
102
RTVSPropertyOp28
 70
     1
102
RTVSPropertyOp29
 70
     1
102
RTVSPropertyOp30
 70
     1
102
RTVSPropertyOp31
 70
     1
102
RTVSPropertyOp32
 70
     1
  0
XRECORD
  5
163
102
{ACAD_REACTORS
330
162
102
}
330
162
100
AcDbXrecord
280
     1
102
RTVSPropertyOp0
 70
     1
102
RTVSPropertyOp1
 70
     1
102
RTVSPropertyOp2
 70
     1
102
RTVSPropertyOp3
 70
     1
102
RTVSPropertyOp4
 70
     1
102
RTVSPropertyOp5
 70
     1
102
RTVSPropertyOp6
 70
     1
102
RTVSPropertyOp7
 70
     1
102
RTVSPropertyOp8
 70
     1
102
RTVSPropertyOp9
 70
     1
102
RTVSPropertyOp10
 70
     1
102
RTVSPropertyOp11
 70
     1
102
RTVSPropertyOp12
 70
     1
102
RTVSPropertyOp13
 70
     1
102
RTVSPropertyOp14
 70
     1
102
RTVSPropertyOp15
 70
     1
102
RTVSPropertyOp16
 70
     1
102
RTVSPropertyOp17
 70
     1
102
RTVSPropertyOp18
 70
     1
102
RTVSPropertyOp19
 70
     1
102
RTVSPropertyOp20
 70
     1
102
RTVSPropertyOp21
 70
     1
102
RTVSPropertyOp22
 70
     1
102
RTVSPropertyOp23
 70
     1
102
RTVSPropertyOp24
 70
     1
102
RTVSPropertyOp25
 70
     1
102
RTVSPropertyOp26
 70
     1
102
RTVSPropertyOp27
 70
     1
102
RTVSPropertyOp28
 70
     1
102
RTVSPropertyOp29
 70
     1
102
RTVSPropertyOp30
 70
     1
102
RTVSPropertyOp31
 70
     1
102
RTVSPropertyOp32
 70
     1
  0
XRECORD
  5
165
102
{ACAD_REACTORS
330
164
102
}
330
164
100
AcDbXrecord
280
     1
102
RTVSPropertyOp0
 70
     1
102
RTVSPropertyOp1
 70
     1
102
RTVSPropertyOp2
 70
     1
102
RTVSPropertyOp3
 70
     1
102
RTVSPropertyOp4
 70
     1
102
RTVSPropertyOp5
 70
     1
102
RTVSPropertyOp6
 70
     1
102
RTVSPropertyOp7
 70
     1
102
RTVSPropertyOp8
 70
     1
102
RTVSPropertyOp9
 70
     1
102
RTVSPropertyOp10
 70
     1
102
RTVSPropertyOp11
 70
     1
102
RTVSPropertyOp12
 70
     1
102
RTVSPropertyOp13
 70
     1
102
RTVSPropertyOp14
 70
     1
102
RTVSPropertyOp15
 70
     1
102
RTVSPropertyOp16
 70
     1
102
RTVSPropertyOp17
 70
     1
102
RTVSPropertyOp18
 70
     1
102
RTVSPropertyOp19
 70
     1
102
RTVSPropertyOp20
 70
     1
102
RTVSPropertyOp21
 70
     1
102
RTVSPropertyOp22
 70
     1
102
RTVSPropertyOp23
 70
     1
102
RTVSPropertyOp24
 70
     1
102
RTVSPropertyOp25
 70
     1
102
RTVSPropertyOp26
 70
     1
102
RTVSPropertyOp27
 70
     1
102
RTVSPropertyOp28
 70
     1
102
RTVSPropertyOp29
 70
     1
102
RTVSPropertyOp30
 70
     1
102
RTVSPropertyOp31
 70
     1
102
RTVSPropertyOp32
 70
     1
  0
XRECORD
  5
179
102
{ACAD_REACTORS
330
178
102
}
330
178
100
AcDbXrecord
280
     1
102
RTVSPropertyOp0
 70
     1
102
RTVSPropertyOp1
 70
     1
102
RTVSPropertyOp2
 70
     1
102
RTVSPropertyOp3
 70
     1
102
RTVSPropertyOp4
 70
     1
102
RTVSPropertyOp5
 70
     1
102
RTVSPropertyOp6
 70
     1
102
RTVSPropertyOp7
 70
     1
102
RTVSPropertyOp8
 70
     1
102
RTVSPropertyOp9
 70
     1
102
RTVSPropertyOp10
 70
     1
102
RTVSPropertyOp11
 70
     1
102
RTVSPropertyOp12
 70
     1
102
RTVSPropertyOp13
 70
     1
102
RTVSPropertyOp14
 70
     1
102
RTVSPropertyOp15
 70
     1
102
RTVSPropertyOp16
 70
     1
102
RTVSPropertyOp17
 70
     1
102
RTVSPropertyOp18
 70
     1
102
RTVSPropertyOp19
 70
     1
102
RTVSPropertyOp20
 70
     1
102
RTVSPropertyOp21
 70
     1
102
RTVSPropertyOp22
 70
     1
102
RTVSPropertyOp23
 70
     1
102
RTVSPropertyOp24
 70
     1
102
RTVSPropertyOp25
 70
     1
102
RTVSPropertyOp26
 70
     1
102
RTVSPropertyOp27
 70
     1
102
RTVSPropertyOp28
 70
     1
102
RTVSPropertyOp29
 70
     1
102
RTVSPropertyOp30
 70
     1
102
RTVSPropertyOp31
 70
     1
102
RTVSPropertyOp32
 70
     1
  0
XRECORD
  5
16F
102
{ACAD_REACTORS
330
16E
102
}
330
16E
100
AcDbXrecord
280
     1
102
RTVSPropertyOp0
 70
     1
102
RTVSPropertyOp1
 70
     1
102
RTVSPropertyOp2
 70
     1
102
RTVSPropertyOp3
 70
     1
102
RTVSPropertyOp4
 70
     1
102
RTVSPropertyOp5
 70
     1
102
RTVSPropertyOp6
 70
     1
102
RTVSPropertyOp7
 70
     1
102
RTVSPropertyOp8
 70
     1
102
RTVSPropertyOp9
 70
     1
102
RTVSPropertyOp10
 70
     1
102
RTVSPropertyOp11
 70
     1
102
RTVSPropertyOp12
 70
     1
102
RTVSPropertyOp13
 70
     1
102
RTVSPropertyOp14
 70
     1
102
RTVSPropertyOp15
 70
     1
102
RTVSPropertyOp16
 70
     1
102
RTVSPropertyOp17
 70
     1
102
RTVSPropertyOp18
 70
     1
102
RTVSPropertyOp19
 70
     1
102
RTVSPropertyOp20
 70
     1
102
RTVSPropertyOp21
 70
     1
102
RTVSPropertyOp22
 70
     1
102
RTVSPropertyOp23
 70
     1
102
RTVSPropertyOp24
 70
     1
102
RTVSPropertyOp25
 70
     1
102
RTVSPropertyOp26
 70
     1
102
RTVSPropertyOp27
 70
     1
102
RTVSPropertyOp28
 70
     1
102
RTVSPropertyOp29
 70
     1
102
RTVSPropertyOp30
 70
     1
102
RTVSPropertyOp31
 70
     1
102
RTVSPropertyOp32
 70
     1
  0
XRECORD
  5
177
102
{ACAD_REACTORS
330
176
102
}
330
176
100
AcDbXrecord
280
     1
102
RTVSPropertyOp0
 70
     1
102
RTVSPropertyOp1
 70
     1
102
RTVSPropertyOp2
 70
     1
102
RTVSPropertyOp3
 70
     1
102
RTVSPropertyOp4
 70
     1
102
RTVSPropertyOp5
 70
     1
102
RTVSPropertyOp6
 70
     1
102
RTVSPropertyOp7
 70
     1
102
RTVSPropertyOp8
 70
     1
102
RTVSPropertyOp9
 70
     1
102
RTVSPropertyOp10
 70
     1
102
RTVSPropertyOp11
 70
     1
102
RTVSPropertyOp12
 70
     1
102
RTVSPropertyOp13
 70
     1
102
RTVSPropertyOp14
 70
     1
102
RTVSPropertyOp15
 70
     1
102
RTVSPropertyOp16
 70
     1
102
RTVSPropertyOp17
 70
     1
102
RTVSPropertyOp18
 70
     1
102
RTVSPropertyOp19
 70
     1
102
RTVSPropertyOp20
 70
     1
102
RTVSPropertyOp21
 70
     1
102
RTVSPropertyOp22
 70
     1
102
RTVSPropertyOp23
 70
     1
102
RTVSPropertyOp24
 70
     1
102
RTVSPropertyOp25
 70
     1
102
RTVSPropertyOp26
 70
     1
102
RTVSPropertyOp27
 70
     1
102
RTVSPropertyOp28
 70
     1
102
RTVSPropertyOp29
 70
     1
102
RTVSPropertyOp30
 70
     1
102
RTVSPropertyOp31
 70
     1
102
RTVSPropertyOp32
 70
     1
  0
ENDSEC
  0
EOF
