  0
SECTION
  2
HEADER
  9
$ACADVER
  1
AC1021
  9
$ACADMAINTVER
 70
    25
  9
$DWGCODEPAGE
  3
ANSI_1256
  9
$INSBASE
 10
0.0
 20
0.0
 30
0.0
  9
$EXTMIN
 10
42.6441
 20
-114.9788
 30
0.0
  9
$EXTMAX
 10
196.0116
 20
131.7729
 30
0.0
  9
$LIMMIN
 10
0.0
 20
0.0
  9
$LIMMAX
 10
12.0
 20
9.0
  9
$ORTHOMODE
 70
     0
  9
$REGENMODE
 70
     1
  9
$FILLMODE
 70
     1
  9
$QTEXTMODE
 70
     0
  9
$MIRRTEXT
 70
     1
  9
$LTSCALE
 40
1.0
  9
$ATTMODE
 70
     1
  9
$TEXTSIZE
 40
0.2
  9
$TRACEWID
 40
0.05
  9
$TEXTSTYLE
  7
Standard
  9
$CLAYER
  8
0
  9
$CELTYPE
  6
ByLayer
  9
$CECOLOR
 62
   256
  9
$CELTSCALE
 40
1.0
  9
$DISPSILH
 70
     0
  9
$DIMSCALE
 40
1.0
  9
$DIMASZ
 40
0.18
  9
$DIMEXO
 40
0.0625
  9
$DIMDLI
 40
0.38
  9
$DIMRND
 40
0.0
  9
$DIMDLE
 40
0.0
  9
$DIMEXE
 40
0.18
  9
$DIMTP
 40
0.0
  9
$DIMTM
 40
0.0
  9
$DIMTXT
 40
0.18
  9
$DIMCEN
 40
0.09
  9
$DIMTSZ
 40
0.0
  9
$DIMTOL
 70
     0
  9
$DIMLIM
 70
     0
  9
$DIMTIH
 70
     1
  9
$DIMTOH
 70
     1
  9
$DIMSE1
 70
     0
  9
$DIMSE2
 70
     0
  9
$DIMTAD
 70
     0
  9
$DIMZIN
 70
     0
  9
$DIMBLK
  1

  9
$DIMASO
 70
     1
  9
$DIMSHO
 70
     1
  9
$DIMPOST
  1

  9
$DIMAPOST
  1

  9
$DIMALT
 70
     0
  9
$DIMALTD
 70
     2
  9
$DIMALTF
 40
25.4
  9
$DIMLFAC
 40
1.0
  9
$DIMTOFL
 70
     0
  9
$DIMTVP
 40
0.0
  9
$DIMTIX
 70
     0
  9
$DIMSOXD
 70
     0
  9
$DIMSAH
 70
     0
  9
$DIMBLK1
  1

  9
$DIMBLK2
  1

  9
$DIMSTYLE
  2
Standard
  9
$DIMCLRD
 70
     0
  9
$DIMCLRE
 70
     0
  9
$DIMCLRT
 70
     0
  9
$DIMTFAC
 40
1.0
  9
$DIMGAP
 40
0.09
  9
$DIMJUST
 70
     0
  9
$DIMSD1
 70
     0
  9
$DIMSD2
 70
     0
  9
$DIMTOLJ
 70
     1
  9
$DIMTZIN
 70
     0
  9
$DIMALTZ
 70
     0
  9
$DIMALTTZ
 70
     0
  9
$DIMUPT
 70
     0
  9
$DIMDEC
 70
     4
  9
$DIMTDEC
 70
     4
  9
$DIMALTU
 70
     2
  9
$DIMALTTD
 70
     2
  9
$DIMTXSTY
  7
Standard
  9
$DIMAUNIT
 70
     0
  9
$DIMADEC
 70
     0
  9
$DIMALTRND
 40
0.0
  9
$DIMAZIN
 70
     0
  9
$DIMDSEP
 70
    46
  9
$DIMATFIT
 70
     3
  9
$DIMFRAC
 70
     0
  9
$DIMLDRBLK
  1

  9
$DIMLUNIT
 70
     2
  9
$DIMLWD
 70
    -2
  9
$DIMLWE
 70
    -2
  9
$DIMTMOVE
 70
     0
  9
$DIMFXL
 40
1.0
  9
$DIMFXLON
 70
     0
  9
$DIMJOGANG
 40
0.7853981633974483
  9
$DIMTFILL
 70
     0
  9
$DIMTFILLCLR
 70
     0
  9
$DIMARCSYM
 70
     0
  9
$DIMLTYPE
  6

  9
$DIMLTEX1
  6

  9
$DIMLTEX2
  6

  9
$LUNITS
 70
     2
  9
$LUPREC
 70
     4
  9
$SKETCHINC
 40
0.1
  9
$FILLETRAD
 40
0.5
  9
$AUNITS
 70
     0
  9
$AUPREC
 70
     0
  9
$MENU
  1
.
  9
$ELEVATION
 40
0.0
  9
$PELEVATION
 40
0.0
  9
$THICKNESS
 40
0.0
  9
$LIMCHECK
 70
     0
  9
$CHAMFERA
 40
0.5
  9
$CHAMFERB
 40
0.5
  9
$CHAMFERC
 40
1.0
  9
$CHAMFERD
 40
0.0
  9
$SKPOLY
 70
     0
  9
$TDCREATE
 40
2458492.950985255
  9
$TDUCREATE
 40
2458492.784318588
  9
$TDUPDATE
 40
2458492.950985417
  9
$TDUUPDATE
 40
2458492.78431875
  9
$TDINDWG
 40
0.0000000116
  9
$TDUSRTIMER
 40
0.0000000116
  9
$USRTIMER
 70
     1
  9
$ANGBASE
 50
0.0
  9
$ANGDIR
 70
     0
  9
$PDMODE
 70
     0
  9
$PDSIZE
 40
0.0
  9
$PLINEWID
 40
0.0
  9
$SPLFRAME
 70
     0
  9
$SPLINETYPE
 70
     6
  9
$SPLINESEGS
 70
     8
  9
$HANDSEED
  5
B8
  9
$SURFTAB1
 70
     6
  9
$SURFTAB2
 70
     6
  9
$SURFTYPE
 70
     6
  9
$SURFU
 70
     6
  9
$SURFV
 70
     6
  9
$UCSBASE
  2

  9
$UCSNAME
  2

  9
$UCSORG
 10
0.0
 20
0.0
 30
0.0
  9
$UCSXDIR
 10
1.0
 20
0.0
 30
0.0
  9
$UCSYDIR
 10
0.0
 20
1.0
 30
0.0
  9
$UCSORTHOREF
  2

  9
$UCSORTHOVIEW
 70
     0
  9
$UCSORGTOP
 10
0.0
 20
0.0
 30
0.0
  9
$UCSORGBOTTOM
 10
0.0
 20
0.0
 30
0.0
  9
$UCSORGLEFT
 10
0.0
 20
0.0
 30
0.0
  9
$UCSORGRIGHT
 10
0.0
 20
0.0
 30
0.0
  9
$UCSORGFRONT
 10
0.0
 20
0.0
 30
0.0
  9
$UCSORGBACK
 10
0.0
 20
0.0
 30
0.0
  9
$PUCSBASE
  2

  9
$PUCSNAME
  2

  9
$PUCSORG
 10
0.0
 20
0.0
 30
0.0
  9
$PUCSXDIR
 10
1.0
 20
0.0
 30
0.0
  9
$PUCSYDIR
 10
0.0
 20
1.0
 30
0.0
  9
$PUCSORTHOREF
  2

  9
$PUCSORTHOVIEW
 70
     0
  9
$PUCSORGTOP
 10
0.0
 20
0.0
 30
0.0
  9
$PUCSORGBOTTOM
 10
0.0
 20
0.0
 30
0.0
  9
$PUCSORGLEFT
 10
0.0
 20
0.0
 30
0.0
  9
$PUCSORGRIGHT
 10
0.0
 20
0.0
 30
0.0
  9
$PUCSORGFRONT
 10
0.0
 20
0.0
 30
0.0
  9
$PUCSORGBACK
 10
0.0
 20
0.0
 30
0.0
  9
$USERI1
 70
     0
  9
$USERI2
 70
     0
  9
$USERI3
 70
     0
  9
$USERI4
 70
     0
  9
$USERI5
 70
     0
  9
$USERR1
 40
0.0
  9
$USERR2
 40
0.0
  9
$USERR3
 40
0.0
  9
$USERR4
 40
0.0
  9
$USERR5
 40
0.0
  9
$WORLDVIEW
 70
     1
  9
$SHADEDGE
 70
     3
  9
$SHADEDIF
 70
    70
  9
$TILEMODE
 70
     1
  9
$MAXACTVP
 70
    64
  9
$PINSBASE
 10
0.0
 20
0.0
 30
0.0
  9
$PLIMCHECK
 70
     0
  9
$PEXTMIN
 10
1.000000000000000E+20
 20
1.000000000000000E+20
 30
1.000000000000000E+20
  9
$PEXTMAX
 10
-1.000000000000000E+20
 20
-1.000000000000000E+20
 30
-1.000000000000000E+20
  9
$PLIMMIN
 10
0.0
 20
0.0
  9
$PLIMMAX
 10
12.0
 20
9.0
  9
$UNITMODE
 70
     0
  9
$VISRETAIN
 70
     1
  9
$PLINEGEN
 70
     0
  9
$PSLTSCALE
 70
     1
  9
$TREEDEPTH
 70
  3020
  9
$CMLSTYLE
  2
Standard
  9
$CMLJUST
 70
     0
  9
$CMLSCALE
 40
1.0
  9
$PROXYGRAPHICS
 70
     1
  9
$MEASUREMENT
 70
     0
  9
$CELWEIGHT
370
    -1
  9
$ENDCAPS
280
     0
  9
$JOINSTYLE
280
     0
  9
$LWDISPLAY
290
     0
  9
$INSUNITS
 70
     4
  9
$HYPERLINKBASE
  1

  9
$STYLESHEET
  1

  9
$XEDIT
290
     1
  9
$CEPSNTYPE
380
     0
  9
$PSTYLEMODE
290
     1
  9
$FINGERPRINTGUID
  2
{F85D91A1-6A0F-448F-8186-9E23B3F22C47}
  9
$VERSIONGUID
  2
{FAEB1C32-E019-11D5-929B-00C0DF256EC4}
  9
$EXTNAMES
290
     1
  9
$PSVPSCALE
 40
0.0
  9
$OLESTARTUP
290
     0
  9
$SORTENTS
280
   127
  9
$INDEXCTL
280
     0
  9
$HIDETEXT
280
     1
  9
$XCLIPFRAME
290
     0
  9
$HALOGAP
280
     0
  9
$OBSCOLOR
 70
   257
  9
$OBSLTYPE
280
     0
  9
$INTERSECTIONDISPLAY
280
     0
  9
$INTERSECTIONCOLOR
 70
   257
  9
$DIMASSOC
280
     2
  9
$PROJECTNAME
  1

  9
$CAMERADISPLAY
290
     0
  9
$LENSLENGTH
 40
50.0
  9
$CAMERAHEIGHT
 40
0.0
  9
$STEPSPERSEC
 40
2.0
  9
$STEPSIZE
 40
6.0
  9
$3DDWFPREC
 40
2.0
  9
$PSOLWIDTH
 40
0.25
  9
$PSOLHEIGHT
 40
4.0
  9
$LOFTANG1
 40
1.570796326794897
  9
$LOFTANG2
 40
1.570796326794897
  9
$LOFTMAG1
 40
0.0
  9
$LOFTMAG2
 40
0.0
  9
$LOFTPARAM
 70
     7
  9
$LOFTNORMALS
280
     1
  9
$LATITUDE
 40
37.795
  9
$LONGITUDE
 40
-122.394
  9
$NORTHDIRECTION
 40
0.0
  9
$TIMEZONE
 70
 -8000
  9
$LIGHTGLYPHDISPLAY
280
     1
  9
$TILEMODELIGHTSYNCH
280
     1
  9
$SOLIDHIST
280
     1
  9
$SHOWHIST
280
     1
  9
$DWFFRAME
280
     2
  9
$DGNFRAME
280
     2
  9
$REALWORLDSCALE
290
     1
  9
$INTERFERECOLOR
 62
   256
  9
$CSHADOW
280
     0
  9
$SHADOWPLANELOCATION
 40
0.0
  0
ENDSEC
  0
SECTION
  2
CLASSES
  0
CLASS
  1
ACDBDICTIONARYWDFLT
  2
AcDbDictionaryWithDefault
  3
ObjectDBX Classes
 90
        0
 91
        4
280
     0
281
     0
  0
CLASS
  1
VISUALSTYLE
  2
AcDbVisualStyle
  3
ObjectDBX Classes
 90
     4095
 91
        4
280
     0
281
     0
  0
CLASS
  1
MATERIAL
  2
AcDbMaterial
  3
ObjectDBX Classes
 90
     1153
 91
        4
280
     0
281
     0
  0
ENDSEC
  0
SECTION
  2
TABLES
  0
TABLE
  2
VPORT
  5
8
330
0
100
AcDbSymbolTable
 70
     1
  0
VPORT
  5
29
330
8
100
AcDbSymbolTableRecord
100
AcDbViewportTableRecord
  2
*Active
 70
     0
 10
0.0
 20
0.0
 11
1.0
 21
1.0
 12
10.42990654205607
 22
4.5
 13
0.0
 23
0.0
 14
0.5
 24
0.5
 15
0.5
 25
0.5
 16
0.0
 26
0.0
 36
1.0
 17
0.0
 27
0.0
 37
0.0
 40
9.0
 41
1.972972972850329
 42
50.0
 43
0.0
 44
0.0
 50
0.0
 51
0.0
 71
     0
 72
   100
 73
     1
 74
     3
 75
     0
 76
     0
 77
     0
 78
     0
281
     0
 65
     1
110
0.0
120
0.0
130
0.0
111
1.0
121
0.0
131
0.0
112
0.0
122
1.0
132
0.0
 79
     0
146
0.0
 60
     3
 61
     5
292
     1
282
     1
141
0.0
142
0.0
 63
   250
  0
ENDTAB
  0
TABLE
  2
LTYPE
  5
5
330
0
100
AcDbSymbolTable
 70
     1
  0
LTYPE
  5
14
330
5
100
AcDbSymbolTableRecord
100
AcDbLinetypeTableRecord
  2
ByBlock
 70
     0
  3

 72
    65
 73
     0
 40
0.0
  0
LTYPE
  5
15
330
5
100
AcDbSymbolTableRecord
100
AcDbLinetypeTableRecord
  2
ByLayer
 70
     0
  3

 72
    65
 73
     0
 40
0.0
  0
LTYPE
  5
16
330
5
100
AcDbSymbolTableRecord
100
AcDbLinetypeTableRecord
  2
Continuous
 70
     0
  3
Solid line
 72
    65
 73
     0
 40
0.0
  0
ENDTAB
  0
TABLE
  2
LAYER
  5
2
330
0
100
AcDbSymbolTable
 70
     3
  0
LAYER
  5
10
330
2
100
AcDbSymbolTableRecord
100
AcDbLayerTableRecord
  2
0
 70
     0
 62
     7
  6
Continuous
370
    -3
390
F
347
3E
  0
LAYER
  5
40
330
2
100
AcDbSymbolTableRecord
100
AcDbLayerTableRecord
  2
layer 1
 70
     0
 62
     7
  6
Continuous
370
    -3
390
F
347
3E
  0
LAYER
  5
95
330
2
100
AcDbSymbolTableRecord
100
AcDbLayerTableRecord
  2
Master Guides
 70
     0
 62
     7
  6
Continuous
370
    -3
390
F
347
3E
  0
ENDTAB
  0
TABLE
  2
STYLE
  5
3
330
0
100
AcDbSymbolTable
 70
     1
  0
STYLE
  5
11
330
3
100
AcDbSymbolTableRecord
100
AcDbTextStyleTableRecord
  2
Standard
 70
     0
 40
0.0
 41
1.0
 50
0.0
 71
     0
 42
0.2
  3
txt
  4

  0
ENDTAB
  0
TABLE
  2
VIEW
  5
6
330
0
100
AcDbSymbolTable
 70
     0
  0
ENDTAB
  0
TABLE
  2
UCS
  5
7
330
0
100
AcDbSymbolTable
 70
     0
  0
ENDTAB
  0
TABLE
  2
APPID
  5
9
330
0
100
AcDbSymbolTable
 70
     2
  0
APPID
  5
12
330
9
100
AcDbSymbolTableRecord
100
AcDbRegAppTableRecord
  2
ACAD
 70
     0
  0
APPID
  5
3F
330
9
100
AcDbSymbolTableRecord
100
AcDbRegAppTableRecord
  2
ODA
 70
     0
  0
ENDTAB
  0
TABLE
  2
DIMSTYLE
  5
A
330
0
100
AcDbSymbolTable
 70
     1
100
AcDbDimStyleTable
  0
DIMSTYLE
105
27
330
A
100
AcDbSymbolTableRecord
100
AcDbDimStyleTableRecord
  2
Standard
 70
     0
178
     0
340
11
  0
ENDTAB
  0
TABLE
  2
BLOCK_RECORD
  5
1
330
0
100
AcDbSymbolTable
 70
     1
  0
BLOCK_RECORD
  5
1F
330
1
100
AcDbSymbolTableRecord
100
AcDbBlockTableRecord
  2
*Model_Space
340
22
 70
     0
280
     1
281
     0
  0
BLOCK_RECORD
  5
1B
330
1
100
AcDbSymbolTableRecord
100
AcDbBlockTableRecord
  2
*Paper_Space
340
1E
 70
     0
280
     1
281
     0
  0
BLOCK_RECORD
  5
23
330
1
100
AcDbSymbolTableRecord
100
AcDbBlockTableRecord
  2
*Paper_Space0
340
26
 70
     0
280
     1
281
     0
  0
ENDTAB
  0
ENDSEC
  0
SECTION
  2
BLOCKS
  0
BLOCK
  5
20
330
1F
100
AcDbEntity
  8
0
100
AcDbBlockBegin
  2
*Model_Space
 70
     0
 10
0.0
 20
0.0
 30
0.0
  3
*Model_Space
  1

  0
ENDBLK
  5
21
330
1F
100
AcDbEntity
  8
0
100
AcDbBlockEnd
  0
BLOCK
  5
1C
330
1B
100
AcDbEntity
 67
     1
  8
0
100
AcDbBlockBegin
  2
*Paper_Space
 70
     0
 10
0.0
 20
0.0
 30
0.0
  3
*Paper_Space
  1

  0
ENDBLK
  5
1D
330
1B
100
AcDbEntity
 67
     1
  8
0
100
AcDbBlockEnd
  0
BLOCK
  5
24
330
23
100
AcDbEntity
  8
0
100
AcDbBlockBegin
  2
*Paper_Space0
 70
     0
 10
0.0
 20
0.0
 30
0.0
  3
*Paper_Space0
  1

  0
ENDBLK
  5
25
330
23
100
AcDbEntity
  8
0
100
AcDbBlockEnd
  0
ENDSEC
  0
SECTION
  2
ENTITIES
  0
SPLINE
  5
41
330
1F
100
AcDbEntity
  8
layer 1
 62
   250
100
AcDbSpline
210
0.0
220
0.0
230
1.0
 70
    11
 71
     3
 72
    20
 73
    16
 74
     0
 42
0.0000000001
 43
0.0000000001
 12
1.0
 22
0.0
 32
0.0
 13
1.0
 23
0.0
 33
0.0
 40
0.0
 40
0.0
 40
0.0
 40
0.0
 40
0.2
 40
0.2
 40
0.2
 40
0.2
 40
0.4
 40
0.4
 40
0.4
 40
0.4
 40
0.6
 40
0.6
 40
0.6
 40
0.6
 40
1.0
 40
1.0
 40
1.0
 40
1.0
 10
42.6441
 20
-114.9788
 30
0.0
 10
42.6441
 20
-114.9788
 30
0.0
 10
42.6441
 20
131.7729
 30
0.0
 10
42.6441
 20
131.7729
 30
0.0
 10
42.6441
 20
131.7729
 30
0.0
 10
42.6441
 20
131.7729
 30
0.0
 10
196.0116
 20
131.7729
 30
0.0
 10
196.0116
 20
131.7729
 30
0.0
 10
196.0116
 20
131.7729
 30
0.0
 10
196.0116
 20
131.7729
 30
0.0
 10
196.0116
 20
-114.9788
 30
0.0
 10
196.0116
 20
-114.9788
 30
0.0
 10
196.0116
 20
-114.9788
 30
0.0
 10
196.0116
 20
-114.9788
 30
0.0
 10
42.6441
 20
-114.9788
 30
0.0
 10
42.6441
 20
-114.9788
 30
0.0
  0
SPLINE
  5
42
330
1F
100
AcDbEntity
  8
layer 1
 62
     7
100
AcDbSpline
210
0.0
220
0.0
230
1.0
 70
    11
 71
     3
 72
    16
 73
    12
 74
     0
 42
0.0000000001
 43
0.0000000001
 12
1.0
 22
0.0
 32
0.0
 13
1.0
 23
0.0
 33
0.0
 40
0.0
 40
0.0
 40
0.0
 40
0.0
 40
0.25
 40
0.25
 40
0.25
 40
0.25
 40
0.5
 40
0.5
 40
0.5
 40
0.5
 40
1.0
 40
1.0
 40
1.0
 40
1.0
 10
66.8068
 20
-30.6312
 30
0.0
 10
60.0541
 20
-23.2532
 30
0.0
 10
54.8022
 20
-8.372
 30
0.0
 10
53.8015
 20
2.0069
 30
0.0
 10
53.8015
 20
2.0069
 30
0.0
 10
58.4284
 20
-0.994
 30
0.0
 10
62.4301
 20
-5.4958
 30
0.0
 10
63.6807
 20
-11.2482
 30
0.0
 10
63.6807
 20
-11.2482
 30
0.0
 10
64.9312
 20
-16.7504
 30
0.0
 10
62.1802
 20
-21.6276
 30
0.0
 10
66.8068
 20
-30.6312
 30
0.0
  0
SPLINE
  5
43
330
1F
100
AcDbEntity
  8
layer 1
 62
     7
100
AcDbSpline
210
0.0
220
0.0
230
1.0
 70
    11
 71
     3
 72
    16
 73
    12
 74
     0
 42
0.0000000001
 43
0.0000000001
 12
1.0
 22
0.0
 32
0.0
 13
1.0
 23
0.0
 33
0.0
 40
0.0
 40
0.0
 40
0.0
 40
0.0
 40
0.25
 40
0.25
 40
0.25
 40
0.25
 40
0.5
 40
0.5
 40
0.5
 40
0.5
 40
1.0
 40
1.0
 40
1.0
 40
1.0
 10
66.8068
 20
47.2753
 30
0.0
 10
60.0541
 20
40.0224
 30
0.0
 10
54.8022
 20
25.1413
 30
0.0
 10
53.8015
 20
14.6372
 30
0.0
 10
53.8015
 20
14.6372
 30
0.0
 10
58.4284
 20
17.7633
 30
0.0
 10
62.4301
 20
22.1403
 30
0.0
 10
63.6807
 20
28.0175
 30
0.0
 10
63.6807
 20
28.0175
 30
0.0
 10
64.9312
 20
33.5196
 30
0.0
 10
62.1802
 20
38.3968
 30
0.0
 10
66.8068
 20
47.2753
 30
0.0
  0
SPLINE
  5
44
330
1F
100
AcDbEntity
  8
layer 1
 62
     7
100
AcDbSpline
210
0.0
220
0.0
230
1.0
 70
    11
 71
     3
 72
    16
 73
    12
 74
     0
 42
0.0000000001
 43
0.0000000001
 12
1.0
 22
0.0
 32
0.0
 13
1.0
 23
0.0
 33
0.0
 40
0.0
 40
0.0
 40
0.0
 40
0.0
 40
0.25
 40
0.25
 40
0.25
 40
0.25
 40
0.5
 40
0.5
 40
0.5
 40
0.5
 40
1.0
 40
1.0
 40
1.0
 40
1.0
 10
171.7241
 20
-30.6312
 30
0.0
 10
178.602
 20
-23.2532
 30
0.0
 10
183.7291
 20
-8.372
 30
0.0
 10
184.7294
 20
2.0069
 30
0.0
 10
184.7294
 20
2.0069
 30
0.0
 10
180.1025
 20
-0.994
 30
0.0
 10
176.226
 20
-5.4958
 30
0.0
 10
174.9754
 20
-11.2482
 30
0.0
 10
174.9754
 20
-11.2482
 30
0.0
 10
173.7248
 20
-16.7504
 30
0.0
 10
176.4759
 20
-21.6276
 30
0.0
 10
171.7241
 20
-30.6312
 30
0.0
  0
SPLINE
  5
45
330
1F
100
AcDbEntity
  8
layer 1
 62
     7
100
AcDbSpline
210
0.0
220
0.0
230
1.0
 70
    11
 71
     3
 72
    16
 73
    12
 74
     0
 42
0.0000000001
 43
0.0000000001
 12
1.0
 22
0.0
 32
0.0
 13
1.0
 23
0.0
 33
0.0
 40
0.0
 40
0.0
 40
0.0
 40
0.0
 40
0.25
 40
0.25
 40
0.25
 40
0.25
 40
0.5
 40
0.5
 40
0.5
 40
0.5
 40
1.0
 40
1.0
 40
1.0
 40
1.0
 10
171.7241
 20
47.2753
 30
0.0
 10
178.602
 20
40.0224
 30
0.0
 10
183.7291
 20
25.1413
 30
0.0
 10
184.7294
 20
14.6372
 30
0.0
 10
184.7294
 20
14.6372
 30
0.0
 10
180.1025
 20
17.7633
 30
0.0
 10
176.226
 20
22.1403
 30
0.0
 10
174.9754
 20
28.0175
 30
0.0
 10
174.9754
 20
28.0175
 30
0.0
 10
173.7248
 20
33.5196
 30
0.0
 10
176.4759
 20
38.3968
 30
0.0
 10
171.7241
 20
47.2753
 30
0.0
  0
SPLINE
  5
46
330
1F
100
AcDbEntity
  8
layer 1
 62
     7
100
AcDbSpline
210
0.0
220
0.0
230
1.0
 70
    11
 71
     3
 72
    20
 73
    16
 74
     0
 42
0.0000000001
 43
0.0000000001
 12
1.0
 22
0.0
 32
0.0
 13
1.0
 23
0.0
 33
0.0
 40
0.0
 40
0.0
 40
0.0
 40
0.0
 40
0.2
 40
0.2
 40
0.2
 40
0.2
 40
0.4
 40
0.4
 40
0.4
 40
0.4
 40
0.6
 40
0.6
 40
0.6
 40
0.6
 40
1.0
 40
1.0
 40
1.0
 40
1.0
 10
79.812
 20
-44.1366
 30
0.0
 10
88.5658
 20
-51.8897
 30
0.0
 10
100.8206
 20
-55.8913
 30
0.0
 10
113.0755
 20
-57.1419
 30
0.0
 10
113.0755
 20
-57.1419
 30
0.0
 10
109.8242
 20
-51.7645
 30
0.0
 10
105.5723
 20
-47.0128
 30
0.0
 10
98.9447
 20
-47.2627
 30
0.0
 10
98.9447
 20
-47.2627
 30
0.0
 10
93.1923
 20
-47.513
 30
0.0
 10
85.9395
 20
-46.3875
 30
0.0
 10
81.813
 20
-43.8864
 30
0.0
 10
81.813
 20
-43.8864
 30
0.0
 10
81.1878
 20
-43.3862
 30
0.0
 10
79.9372
 20
-43.7612
 30
0.0
 10
79.812
 20
-44.1366
 30
0.0
  0
SPLINE
  5
47
330
1F
100
AcDbEntity
  8
layer 1
 62
     7
100
AcDbSpline
210
0.0
220
0.0
230
1.0
 70
    11
 71
     3
 72
    20
 73
    16
 74
     0
 42
0.0000000001
 43
0.0000000001
 12
1.0
 22
0.0
 32
0.0
 13
1.0
 23
0.0
 33
0.0
 40
0.0
 40
0.0
 40
0.0
 40
0.0
 40
0.2
 40
0.2
 40
0.2
 40
0.2
 40
0.4
 40
0.4
 40
0.4
 40
0.4
 40
0.6
 40
0.6
 40
0.6
 40
0.6
 40
1.0
 40
1.0
 40
1.0
 40
1.0
 10
79.812
 20
60.9059
 30
0.0
 10
88.5658
 20
68.6589
 30
0.0
 10
100.8206
 20
72.6606
 30
0.0
 10
113.0755
 20
73.786
 30
0.0
 10
113.0755
 20
73.786
 30
0.0
 10
109.8242
 20
68.5338
 30
0.0
 10
105.5723
 20
63.7821
 30
0.0
 10
98.9447
 20
64.032
 30
0.0
 10
98.9447
 20
64.032
 30
0.0
 10
93.1923
 20
64.2822
 30
0.0
 10
85.9395
 20
63.1568
 30
0.0
 10
81.813
 20
60.5305
 30
0.0
 10
81.813
 20
60.5305
 30
0.0
 10
81.1878
 20
60.1555
 30
0.0
 10
79.9372
 20
60.5305
 30
0.0
 10
79.812
 20
60.9059
 30
0.0
  0
SPLINE
  5
48
330
1F
100
AcDbEntity
  8
layer 1
 62
     7
100
AcDbSpline
210
0.0
220
0.0
230
1.0
 70
    11
 71
     3
 72
    20
 73
    16
 74
     0
 42
0.0000000001
 43
0.0000000001
 12
1.0
 22
0.0
 32
0.0
 13
1.0
 23
0.0
 33
0.0
 40
0.0
 40
0.0
 40
0.0
 40
0.0
 40
0.2
 40
0.2
 40
0.2
 40
0.2
 40
0.4
 40
0.4
 40
0.4
 40
0.4
 40
0.6
 40
0.6
 40
0.6
 40
0.6
 40
1.0
 40
1.0
 40
1.0
 40
1.0
 10
158.844
 20
-44.1366
 30
0.0
 10
150.0903
 20
-51.8897
 30
0.0
 10
137.8354
 20
-55.8913
 30
0.0
 10
125.5806
 20
-57.1419
 30
0.0
 10
125.5806
 20
-57.1419
 30
0.0
 10
128.8318
 20
-51.7645
 30
0.0
 10
132.9586
 20
-47.0128
 30
0.0
 10
139.7113
 20
-47.2627
 30
0.0
 10
139.7113
 20
-47.2627
 30
0.0
 10
145.4637
 20
-47.513
 30
0.0
 10
152.7166
 20
-46.3875
 30
0.0
 10
156.843
 20
-43.8864
 30
0.0
 10
156.843
 20
-43.8864
 30
0.0
 10
157.4683
 20
-43.3862
 30
0.0
 10
158.7189
 20
-43.7612
 30
0.0
 10
158.844
 20
-44.1366
 30
0.0
  0
SPLINE
  5
49
330
1F
100
AcDbEntity
  8
layer 1
 62
     7
100
AcDbSpline
210
0.0
220
0.0
230
1.0
 70
    11
 71
     3
 72
    20
 73
    16
 74
     0
 42
0.0000000001
 43
0.0000000001
 12
1.0
 22
0.0
 32
0.0
 13
1.0
 23
0.0
 33
0.0
 40
0.0
 40
0.0
 40
0.0
 40
0.0
 40
0.2
 40
0.2
 40
0.2
 40
0.2
 40
0.4
 40
0.4
 40
0.4
 40
0.4
 40
0.6
 40
0.6
 40
0.6
 40
0.6
 40
1.0
 40
1.0
 40
1.0
 40
1.0
 10
158.844
 20
60.9059
 30
0.0
 10
150.0903
 20
68.6589
 30
0.0
 10
137.8354
 20
72.6606
 30
0.0
 10
125.5806
 20
73.786
 30
0.0
 10
125.5806
 20
73.786
 30
0.0
 10
128.8318
 20
68.5338
 30
0.0
 10
132.9586
 20
63.7821
 30
0.0
 10
139.7113
 20
64.032
 30
0.0
 10
139.7113
 20
64.032
 30
0.0
 10
145.4637
 20
64.2822
 30
0.0
 10
152.7166
 20
63.1568
 30
0.0
 10
156.843
 20
60.5305
 30
0.0
 10
156.843
 20
60.5305
 30
0.0
 10
157.4683
 20
60.1555
 30
0.0
 10
158.7189
 20
60.5305
 30
0.0
 10
158.844
 20
60.9059
 30
0.0
  0
SPLINE
  5
4A
330
1F
100
AcDbEntity
  8
layer 1
 62
     7
100
AcDbSpline
210
0.0
220
0.0
230
1.0
 70
    11
 71
     3
 72
    24
 73
    20
 74
     0
 42
0.0000000001
 43
0.0000000001
 12
1.0
 22
0.0
 32
0.0
 13
1.0
 23
0.0
 33
0.0
 40
0.0
 40
0.0
 40
0.0
 40
0.0
 40
0.1666666666666667
 40
0.1666666666666667
 40
0.1666666666666667
 40
0.1666666666666667
 40
0.3333333333333333
 40
0.3333333333333333
 40
0.3333333333333333
 40
0.3333333333333333
 40
0.5
 40
0.5
 40
0.5
 40
0.5
 40
0.6666666666666666
 40
0.6666666666666666
 40
0.6666666666666666
 40
0.6666666666666666
 40
1.0
 40
1.0
 40
1.0
 40
1.0
 10
117.5773
 20
-57.3918
 30
0.0
 10
117.0771
 20
-57.3918
 30
0.0
 10
116.577
 20
-57.2667
 30
0.0
 10
115.9517
 20
-57.2667
 30
0.0
 10
115.9517
 20
-57.2667
 30
0.0
 10
114.9513
 20
-52.2647
 30
0.0
 10
110.6994
 20
-47.888
 30
0.0
 10
104.4469
 20
-44.7619
 30
0.0
 10
104.4469
 20
-44.7619
 30
0.0
 10
108.5737
 20
-42.7609
 30
0.0
 10
112.4502
 20
-39.8847
 30
0.0
 10
115.8265
 20
-35.133
 30
0.0
 10
115.8265
 20
-35.133
 30
0.0
 10
115.8265
 20
-35.133
 30
0.0
 10
117.5773
 20
-35.133
 30
0.0
 10
117.5773
 20
-35.133
 30
0.0
 10
117.5773
 20
-35.133
 30
0.0
 10
117.5773
 20
-35.133
 30
0.0
 10
117.5773
 20
-57.3918
 30
0.0
 10
117.5773
 20
-57.3918
 30
0.0
  0
SPLINE
  5
4B
330
1F
100
AcDbEntity
  8
layer 1
 62
     7
100
AcDbSpline
210
0.0
220
0.0
230
1.0
 70
    11
 71
     3
 72
    24
 73
    20
 74
     0
 42
0.0000000001
 43
0.0000000001
 12
1.0
 22
0.0
 32
0.0
 13
1.0
 23
0.0
 33
0.0
 40
0.0
 40
0.0
 40
0.0
 40
0.0
 40
0.1666666666666667
 40
0.1666666666666667
 40
0.1666666666666667
 40
0.1666666666666667
 40
0.3333333333333333
 40
0.3333333333333333
 40
0.3333333333333333
 40
0.3333333333333333
 40
0.5
 40
0.5
 40
0.5
 40
0.5
 40
0.6666666666666666
 40
0.6666666666666666
 40
0.6666666666666666
 40
0.6666666666666666
 40
1.0
 40
1.0
 40
1.0
 40
1.0
 10
117.5773
 20
74.1611
 30
0.0
 10
117.0771
 20
74.0359
 30
0.0
 10
116.577
 20
74.0359
 30
0.0
 10
115.9517
 20
74.0359
 30
0.0
 10
115.9517
 20
74.0359
 30
0.0
 10
114.9513
 20
69.034
 30
0.0
 10
110.6994
 20
64.6573
 30
0.0
 10
104.4469
 20
61.406
 30
0.0
 10
104.4469
 20
61.406
 30
0.0
 10
108.5737
 20
59.5302
 30
0.0
 10
112.4502
 20
56.654
 30
0.0
 10
115.8265
 20
51.9023
 30
0.0
 10
115.8265
 20
51.9023
 30
0.0
 10
115.8265
 20
51.9023
 30
0.0
 10
117.5773
 20
51.9023
 30
0.0
 10
117.5773
 20
51.9023
 30
0.0
 10
117.5773
 20
51.9023
 30
0.0
 10
117.5773
 20
51.9023
 30
0.0
 10
117.5773
 20
74.1611
 30
0.0
 10
117.5773
 20
74.1611
 30
0.0
  0
SPLINE
  5
4C
330
1F
100
AcDbEntity
  8
layer 1
 62
     7
100
AcDbSpline
210
0.0
220
0.0
230
1.0
 70
    11
 71
     3
 72
    24
 73
    20
 74
     0
 42
0.0000000001
 43
0.0000000001
 12
1.0
 22
0.0
 32
0.0
 13
1.0
 23
0.0
 33
0.0
 40
0.0
 40
0.0
 40
0.0
 40
0.0
 40
0.1666666666666667
 40
0.1666666666666667
 40
0.1666666666666667
 40
0.1666666666666667
 40
0.3333333333333333
 40
0.3333333333333333
 40
0.3333333333333333
 40
0.3333333333333333
 40
0.5
 40
0.5
 40
0.5
 40
0.5
 40
0.6666666666666666
 40
0.6666666666666666
 40
0.6666666666666666
 40
0.6666666666666666
 40
1.0
 40
1.0
 40
1.0
 40
1.0
 10
120.9536
 20
-57.3918
 30
0.0
 10
121.5789
 20
-57.3918
 30
0.0
 10
122.0791
 20
-57.2667
 30
0.0
 10
122.7044
 20
-57.2667
 30
0.0
 10
122.7044
 20
-57.2667
 30
0.0
 10
123.5796
 20
-52.2647
 30
0.0
 10
127.8315
 20
-47.888
 30
0.0
 10
134.2092
 20
-44.7619
 30
0.0
 10
134.2092
 20
-44.7619
 30
0.0
 10
130.0824
 20
-42.7609
 30
0.0
 10
126.2059
 20
-39.8847
 30
0.0
 10
122.8295
 20
-35.133
 30
0.0
 10
122.8295
 20
-35.133
 30
0.0
 10
122.8295
 20
-35.133
 30
0.0
 10
121.0788
 20
-35.133
 30
0.0
 10
121.0788
 20
-35.133
 30
0.0
 10
121.0788
 20
-35.133
 30
0.0
 10
121.0788
 20
-35.133
 30
0.0
 10
120.9536
 20
-57.3918
 30
0.0
 10
120.9536
 20
-57.3918
 30
0.0
  0
SPLINE
  5
4D
330
1F
100
AcDbEntity
  8
layer 1
 62
     7
100
AcDbSpline
210
0.0
220
0.0
230
1.0
 70
    11
 71
     3
 72
    24
 73
    20
 74
     0
 42
0.0000000001
 43
0.0000000001
 12
1.0
 22
0.0
 32
0.0
 13
1.0
 23
0.0
 33
0.0
 40
0.0
 40
0.0
 40
0.0
 40
0.0
 40
0.1666666666666667
 40
0.1666666666666667
 40
0.1666666666666667
 40
0.1666666666666667
 40
0.3333333333333333
 40
0.3333333333333333
 40
0.3333333333333333
 40
0.3333333333333333
 40
0.5
 40
0.5
 40
0.5
 40
0.5
 40
0.6666666666666666
 40
0.6666666666666666
 40
0.6666666666666666
 40
0.6666666666666666
 40
1.0
 40
1.0
 40
1.0
 40
1.0
 10
120.9536
 20
74.1611
 30
0.0
 10
121.5789
 20
74.0359
 30
0.0
 10
122.0791
 20
74.0359
 30
0.0
 10
122.7044
 20
74.0359
 30
0.0
 10
122.7044
 20
74.0359
 30
0.0
 10
123.5796
 20
69.034
 30
0.0
 10
127.8315
 20
64.6573
 30
0.0
 10
134.2092
 20
61.406
 30
0.0
 10
134.2092
 20
61.406
 30
0.0
 10
130.0824
 20
59.5302
 30
0.0
 10
126.2059
 20
56.654
 30
0.0
 10
122.8295
 20
51.9023
 30
0.0
 10
122.8295
 20
51.9023
 30
0.0
 10
122.8295
 20
51.9023
 30
0.0
 10
121.0788
 20
51.9023
 30
0.0
 10
121.0788
 20
51.9023
 30
0.0
 10
121.0788
 20
51.9023
 30
0.0
 10
121.0788
 20
51.9023
 30
0.0
 10
120.9536
 20
74.1611
 30
0.0
 10
120.9536
 20
74.1611
 30
0.0
  0
SPLINE
  5
4E
330
1F
100
AcDbEntity
  8
layer 1
 62
     7
100
AcDbSpline
210
0.0
220
0.0
230
1.0
 70
    11
 71
     3
 72
    16
 73
    12
 74
     0
 42
0.0000000001
 43
0.0000000001
 12
1.0
 22
0.0
 32
0.0
 13
1.0
 23
0.0
 33
0.0
 40
0.0
 40
0.0
 40
0.0
 40
0.0
 40
0.25
 40
0.25
 40
0.25
 40
0.25
 40
0.5
 40
0.5
 40
0.5
 40
0.5
 40
1.0
 40
1.0
 40
1.0
 40
1.0
 10
54.4268
 20
6.6339
 30
0.0
 10
54.4268
 20
6.6339
 30
0.0
 10
75.6856
 20
6.6339
 30
0.0
 10
75.6856
 20
6.6339
 30
0.0
 10
75.6856
 20
6.6339
 30
0.0
 10
71.4337
 20
3.6326
 30
0.0
 10
68.0573
 20
-0.3687
 30
0.0
 10
65.6813
 20
-5.8712
 30
0.0
 10
65.6813
 20
-5.8712
 30
0.0
 10
63.4304
 20
-0.3687
 30
0.0
 10
59.304
 20
3.3827
 30
0.0
 10
54.4268
 20
6.6339
 30
0.0
  0
SPLINE
  5
4F
330
1F
100
AcDbEntity
  8
layer 1
 62
     7
100
AcDbSpline
210
0.0
220
0.0
230
1.0
 70
    11
 71
     3
 72
    16
 73
    12
 74
     0
 42
0.0000000001
 43
0.0000000001
 12
1.0
 22
0.0
 32
0.0
 13
1.0
 23
0.0
 33
0.0
 40
0.0
 40
0.0
 40
0.0
 40
0.0
 40
0.25
 40
0.25
 40
0.25
 40
0.25
 40
0.5
 40
0.5
 40
0.5
 40
0.5
 40
1.0
 40
1.0
 40
1.0
 40
1.0
 10
54.4268
 20
10.1354
 30
0.0
 10
54.4268
 20
10.1354
 30
0.0
 10
75.6856
 20
10.1354
 30
0.0
 10
75.6856
 20
10.1354
 30
0.0
 10
75.6856
 20
10.1354
 30
0.0
 10
71.4337
 20
13.1367
 30
0.0
 10
68.0573
 20
17.138
 30
0.0
 10
65.6813
 20
22.5154
 30
0.0
 10
65.6813
 20
22.5154
 30
0.0
 10
63.4304
 20
17.138
 30
0.0
 10
59.304
 20
13.3866
 30
0.0
 10
54.4268
 20
10.1354
 30
0.0
  0
SPLINE
  5
50
330
1F
100
AcDbEntity
  8
layer 1
 62
     7
100
AcDbSpline
210
0.0
220
0.0
230
1.0
 70
    11
 71
     3
 72
    16
 73
    12
 74
     0
 42
0.0000000001
 43
0.0000000001
 12
1.0
 22
0.0
 32
0.0
 13
1.0
 23
0.0
 33
0.0
 40
0.0
 40
0.0
 40
0.0
 40
0.0
 40
0.25
 40
0.25
 40
0.25
 40
0.25
 40
0.5
 40
0.5
 40
0.5
 40
0.5
 40
1.0
 40
1.0
 40
1.0
 40
1.0
 10
184.2293
 20
6.6339
 30
0.0
 10
184.2293
 20
6.6339
 30
0.0
 10
162.9704
 20
6.6339
 30
0.0
 10
162.9704
 20
6.6339
 30
0.0
 10
162.9704
 20
6.6339
 30
0.0
 10
167.2223
 20
3.6326
 30
0.0
 10
170.5987
 20
-0.3687
 30
0.0
 10
172.8496
 20
-5.8712
 30
0.0
 10
172.8496
 20
-5.8712
 30
0.0
 10
175.1005
 20
-0.3687
 30
0.0
 10
179.3521
 20
3.3827
 30
0.0
 10
184.2293
 20
6.6339
 30
0.0
  0
SPLINE
  5
51
330
1F
100
AcDbEntity
  8
layer 1
 62
     7
100
AcDbSpline
210
0.0
220
0.0
230
1.0
 70
    11
 71
     3
 72
    16
 73
    12
 74
     0
 42
0.0000000001
 43
0.0000000001
 12
1.0
 22
0.0
 32
0.0
 13
1.0
 23
0.0
 33
0.0
 40
0.0
 40
0.0
 40
0.0
 40
0.0
 40
0.25
 40
0.25
 40
0.25
 40
0.25
 40
0.5
 40
0.5
 40
0.5
 40
0.5
 40
1.0
 40
1.0
 40
1.0
 40
1.0
 10
184.2293
 20
10.1354
 30
0.0
 10
184.2293
 20
10.1354
 30
0.0
 10
162.9704
 20
10.1354
 30
0.0
 10
162.9704
 20
10.1354
 30
0.0
 10
162.9704
 20
10.1354
 30
0.0
 10
167.2223
 20
13.1367
 30
0.0
 10
170.5987
 20
17.138
 30
0.0
 10
172.8496
 20
22.5154
 30
0.0
 10
172.8496
 20
22.5154
 30
0.0
 10
175.1005
 20
17.138
 30
0.0
 10
179.3521
 20
13.3866
 30
0.0
 10
184.2293
 20
10.1354
 30
0.0
  0
SPLINE
  5
52
330
1F
100
AcDbEntity
  8
layer 1
 62
     7
100
AcDbSpline
210
0.0
220
0.0
230
1.0
 70
    11
 71
     3
 72
    32
 73
    28
 74
     0
 42
0.0000000001
 43
0.0000000001
 12
1.0
 22
0.0
 32
0.0
 13
1.0
 23
0.0
 33
0.0
 40
0.0
 40
0.0
 40
0.0
 40
0.0
 40
0.125
 40
0.125
 40
0.125
 40
0.125
 40
0.25
 40
0.25
 40
0.25
 40
0.25
 40
0.375
 40
0.375
 40
0.375
 40
0.375
 40
0.5
 40
0.5
 40
0.5
 40
0.5
 40
0.625
 40
0.625
 40
0.625
 40
0.625
 40
0.75
 40
0.75
 40
0.75
 40
0.75
 40
1.0
 40
1.0
 40
1.0
 40
1.0
 10
96.1937
 20
7.134
 30
0.0
 10
99.57
 20
7.0089
 30
0.0
 10
102.5714
 20
7.134
 30
0.0
 10
105.0722
 20
6.6339
 30
0.0
 10
105.0722
 20
6.6339
 30
0.0
 10
106.8229
 20
6.2588
 30
0.0
 10
109.4492
 20
4.0079
 30
0.0
 10
109.1989
 20
1.5068
 30
0.0
 10
109.1989
 20
1.5068
 30
0.0
 10
108.9487
 20
-1.1192
 30
0.0
 10
106.8229
 20
-2.6196
 30
0.0
 10
104.9474
 20
-4.2456
 30
0.0
 10
104.9474
 20
-4.2456
 30
0.0
 10
103.6968
 20
-5.3711
 30
0.0
 10
102.4462
 20
-6.6213
 30
0.0
 10
101.3208
 20
-7.2466
 30
0.0
 10
101.3208
 20
-7.2466
 30
0.0
 10
101.3208
 20
-4.7458
 30
0.0
 10
101.4459
 20
-2.4949
 30
0.0
 10
100.8206
 20
-0.4939
 30
0.0
 10
100.8206
 20
-0.4939
 30
0.0
 10
100.1953
 20
2.0069
 30
0.0
 10
98.1947
 20
3.3827
 30
0.0
 10
96.4439
 20
5.1334
 30
0.0
 10
96.4439
 20
5.1334
 30
0.0
 10
96.1937
 20
5.5084
 30
0.0
 10
96.1937
 20
6.6339
 30
0.0
 10
96.1937
 20
7.134
 30
0.0
  0
SPLINE
  5
53
330
1F
100
AcDbEntity
  8
layer 1
 62
     7
100
AcDbSpline
210
0.0
220
0.0
230
1.0
 70
    11
 71
     3
 72
    32
 73
    28
 74
     0
 42
0.0000000001
 43
0.0000000001
 12
1.0
 22
0.0
 32
0.0
 13
1.0
 23
0.0
 33
0.0
 40
0.0
 40
0.0
 40
0.0
 40
0.0
 40
0.125
 40
0.125
 40
0.125
 40
0.125
 40
0.25
 40
0.25
 40
0.25
 40
0.25
 40
0.375
 40
0.375
 40
0.375
 40
0.375
 40
0.5
 40
0.5
 40
0.5
 40
0.5
 40
0.625
 40
0.625
 40
0.625
 40
0.625
 40
0.75
 40
0.75
 40
0.75
 40
0.75
 40
1.0
 40
1.0
 40
1.0
 40
1.0
 10
96.1937
 20
9.6352
 30
0.0
 10
99.57
 20
9.7603
 30
0.0
 10
102.5714
 20
9.6352
 30
0.0
 10
105.0722
 20
10.1354
 30
0.0
 10
105.0722
 20
10.1354
 30
0.0
 10
106.8229
 20
10.3853
 30
0.0
 10
109.4492
 20
12.7613
 30
0.0
 10
109.1989
 20
15.1373
 30
0.0
 10
109.1989
 20
15.1373
 30
0.0
 10
108.9487
 20
17.7633
 30
0.0
 10
106.8229
 20
19.3889
 30
0.0
 10
104.9474
 20
21.0149
 30
0.0
 10
104.9474
 20
21.0149
 30
0.0
 10
103.6968
 20
22.1403
 30
0.0
 10
102.4462
 20
23.3905
 30
0.0
 10
101.3208
 20
23.8907
 30
0.0
 10
101.3208
 20
23.8907
 30
0.0
 10
101.3208
 20
21.515
 30
0.0
 10
101.4459
 20
19.139
 30
0.0
 10
100.8206
 20
17.2631
 30
0.0
 10
100.8206
 20
17.2631
 30
0.0
 10
100.1953
 20
14.7623
 30
0.0
 10
98.1947
 20
13.3866
 30
0.0
 10
96.4439
 20
11.5107
 30
0.0
 10
96.4439
 20
11.5107
 30
0.0
 10
96.1937
 20
11.2608
 30
0.0
 10
96.1937
 20
10.1354
 30
0.0
 10
96.1937
 20
9.6352
 30
0.0
  0
SPLINE
  5
54
330
1F
100
AcDbEntity
  8
layer 1
 62
     7
100
AcDbSpline
210
0.0
220
0.0
230
1.0
 70
    11
 71
     3
 72
    32
 73
    28
 74
     0
 42
0.0000000001
 43
0.0000000001
 12
1.0
 22
0.0
 32
0.0
 13
1.0
 23
0.0
 33
0.0
 40
0.0
 40
0.0
 40
0.0
 40
0.0
 40
0.125
 40
0.125
 40
0.125
 40
0.125
 40
0.25
 40
0.25
 40
0.25
 40
0.25
 40
0.375
 40
0.375
 40
0.375
 40
0.375
 40
0.5
 40
0.5
 40
0.5
 40
0.5
 40
0.625
 40
0.625
 40
0.625
 40
0.625
 40
0.75
 40
0.75
 40
0.75
 40
0.75
 40
1.0
 40
1.0
 40
1.0
 40
1.0
 10
142.3372
 20
7.134
 30
0.0
 10
139.086
 20
7.0089
 30
0.0
 10
135.9596
 20
7.134
 30
0.0
 10
133.5839
 20
6.6339
 30
0.0
 10
133.5839
 20
6.6339
 30
0.0
 10
131.8331
 20
6.2588
 30
0.0
 10
129.2068
 20
4.0079
 30
0.0
 10
129.4571
 20
1.5068
 30
0.0
 10
129.4571
 20
1.5068
 30
0.0
 10
129.7074
 20
-1.1192
 30
0.0
 10
131.8331
 20
-2.6196
 30
0.0
 10
133.5839
 20
-4.2456
 30
0.0
 10
133.5839
 20
-4.2456
 30
0.0
 10
134.9592
 20
-5.3711
 30
0.0
 10
136.2098
 20
-6.6213
 30
0.0
 10
137.3353
 20
-7.2466
 30
0.0
 10
137.3353
 20
-7.2466
 30
0.0
 10
137.2101
 20
-4.7458
 30
0.0
 10
137.2101
 20
-2.4949
 30
0.0
 10
137.7103
 20
-0.4939
 30
0.0
 10
137.7103
 20
-0.4939
 30
0.0
 10
138.4607
 20
2.0069
 30
0.0
 10
140.4614
 20
3.3827
 30
0.0
 10
142.2121
 20
5.1334
 30
0.0
 10
142.2121
 20
5.1334
 30
0.0
 10
142.4624
 20
5.5084
 30
0.0
 10
142.3372
 20
6.6339
 30
0.0
 10
142.3372
 20
7.134
 30
0.0
  0
SPLINE
  5
55
330
1F
100
AcDbEntity
  8
layer 1
 62
     7
100
AcDbSpline
210
0.0
220
0.0
230
1.0
 70
    11
 71
     3
 72
    32
 73
    28
 74
     0
 42
0.0000000001
 43
0.0000000001
 12
1.0
 22
0.0
 32
0.0
 13
1.0
 23
0.0
 33
0.0
 40
0.0
 40
0.0
 40
0.0
 40
0.0
 40
0.125
 40
0.125
 40
0.125
 40
0.125
 40
0.25
 40
0.25
 40
0.25
 40
0.25
 40
0.375
 40
0.375
 40
0.375
 40
0.375
 40
0.5
 40
0.5
 40
0.5
 40
0.5
 40
0.625
 40
0.625
 40
0.625
 40
0.625
 40
0.75
 40
0.75
 40
0.75
 40
0.75
 40
1.0
 40
1.0
 40
1.0
 40
1.0
 10
142.3372
 20
9.6352
 30
0.0
 10
139.086
 20
9.7603
 30
0.0
 10
135.9596
 20
9.6352
 30
0.0
 10
133.5839
 20
10.1354
 30
0.0
 10
133.5839
 20
10.1354
 30
0.0
 10
131.8331
 20
10.3853
 30
0.0
 10
129.2068
 20
12.7613
 30
0.0
 10
129.4571
 20
15.1373
 30
0.0
 10
129.4571
 20
15.1373
 30
0.0
 10
129.7074
 20
17.7633
 30
0.0
 10
131.8331
 20
19.3889
 30
0.0
 10
133.5839
 20
21.0149
 30
0.0
 10
133.5839
 20
21.0149
 30
0.0
 10
134.9592
 20
22.1403
 30
0.0
 10
136.2098
 20
23.3905
 30
0.0
 10
137.3353
 20
23.8907
 30
0.0
 10
137.3353
 20
23.8907
 30
0.0
 10
137.2101
 20
21.515
 30
0.0
 10
137.2101
 20
19.139
 30
0.0
 10
137.7103
 20
17.2631
 30
0.0
 10
137.7103
 20
17.2631
 30
0.0
 10
138.4607
 20
14.7623
 30
0.0
 10
140.4614
 20
13.3866
 30
0.0
 10
142.2121
 20
11.5107
 30
0.0
 10
142.2121
 20
11.5107
 30
0.0
 10
142.4624
 20
11.2608
 30
0.0
 10
142.3372
 20
10.1354
 30
0.0
 10
142.3372
 20
9.6352
 30
0.0
  0
SPLINE
  5
56
330
1F
100
AcDbEntity
  8
layer 1
 62
     7
100
AcDbSpline
210
0.0
220
0.0
230
1.0
 70
    11
 71
     3
 72
    24
 73
    20
 74
     0
 42
0.0000000001
 43
0.0000000001
 12
1.0
 22
0.0
 32
0.0
 13
1.0
 23
0.0
 33
0.0
 40
0.0
 40
0.0
 40
0.0
 40
0.0
 40
0.1666666666666667
 40
0.1666666666666667
 40
0.1666666666666667
 40
0.1666666666666667
 40
0.3333333333333333
 40
0.3333333333333333
 40
0.3333333333333333
 40
0.3333333333333333
 40
0.5
 40
0.5
 40
0.5
 40
0.5
 40
0.6666666666666666
 40
0.6666666666666666
 40
0.6666666666666666
 40
0.6666666666666666
 40
1.0
 40
1.0
 40
1.0
 40
1.0
 10
102.6965
 20
-9.4975
 30
0.0
 10
103.0715
 20
-8.2469
 30
0.0
 10
104.4469
 20
-6.8716
 30
0.0
 10
106.0728
 20
-5.2459
 30
0.0
 10
106.0728
 20
-5.2459
 30
0.0
 10
107.1983
 20
-4.2456
 30
0.0
 10
108.3237
 20
-2.8699
 30
0.0
 10
109.8242
 20
-2.2446
 30
0.0
 10
109.8242
 20
-2.2446
 30
0.0
 10
112.8256
 20
-0.994
 30
0.0
 10
115.9517
 20
-2.4949
 30
0.0
 10
117.0771
 20
-5.2459
 30
0.0
 10
117.0771
 20
-5.2459
 30
0.0
 10
117.9523
 20
-7.2466
 30
0.0
 10
117.4521
 20
-12.1238
 30
0.0
 10
117.0771
 20
-14.1244
 30
0.0
 10
117.0771
 20
-14.1244
 30
0.0
 10
113.951
 20
-10.8732
 30
0.0
 10
109.4492
 20
-9.1225
 30
0.0
 10
102.6965
 20
-9.4975
 30
0.0
  0
SPLINE
  5
57
330
1F
100
AcDbEntity
  8
layer 1
 62
     7
100
AcDbSpline
210
0.0
220
0.0
230
1.0
 70
    11
 71
     3
 72
    24
 73
    20
 74
     0
 42
0.0000000001
 43
0.0000000001
 12
1.0
 22
0.0
 32
0.0
 13
1.0
 23
0.0
 33
0.0
 40
0.0
 40
0.0
 40
0.0
 40
0.0
 40
0.1666666666666667
 40
0.1666666666666667
 40
0.1666666666666667
 40
0.1666666666666667
 40
0.3333333333333333
 40
0.3333333333333333
 40
0.3333333333333333
 40
0.3333333333333333
 40
0.5
 40
0.5
 40
0.5
 40
0.5
 40
0.6666666666666666
 40
0.6666666666666666
 40
0.6666666666666666
 40
0.6666666666666666
 40
1.0
 40
1.0
 40
1.0
 40
1.0
 10
102.6965
 20
26.2667
 30
0.0
 10
103.0715
 20
25.0162
 30
0.0
 10
104.4469
 20
23.6408
 30
0.0
 10
106.0728
 20
22.0152
 30
0.0
 10
106.0728
 20
22.0152
 30
0.0
 10
107.1983
 20
21.0149
 30
0.0
 10
108.3237
 20
19.6392
 30
0.0
 10
109.8242
 20
19.0139
 30
0.0
 10
109.8242
 20
19.0139
 30
0.0
 10
112.8256
 20
17.7633
 30
0.0
 10
115.9517
 20
19.2641
 30
0.0
 10
117.0771
 20
22.0152
 30
0.0
 10
117.0771
 20
22.0152
 30
0.0
 10
117.9523
 20
24.0158
 30
0.0
 10
117.4521
 20
28.7679
 30
0.0
 10
117.0771
 20
30.8937
 30
0.0
 10
117.0771
 20
30.8937
 30
0.0
 10
113.951
 20
27.6425
 30
0.0
 10
109.4492
 20
25.8917
 30
0.0
 10
102.6965
 20
26.2667
 30
0.0
  0
SPLINE
  5
58
330
1F
100
AcDbEntity
  8
layer 1
 62
     7
100
AcDbSpline
210
0.0
220
0.0
230
1.0
 70
    11
 71
     3
 72
    24
 73
    20
 74
     0
 42
0.0000000001
 43
0.0000000001
 12
1.0
 22
0.0
 32
0.0
 13
1.0
 23
0.0
 33
0.0
 40
0.0
 40
0.0
 40
0.0
 40
0.0
 40
0.1666666666666667
 40
0.1666666666666667
 40
0.1666666666666667
 40
0.1666666666666667
 40
0.3333333333333333
 40
0.3333333333333333
 40
0.3333333333333333
 40
0.3333333333333333
 40
0.5
 40
0.5
 40
0.5
 40
0.5
 40
0.6666666666666666
 40
0.6666666666666666
 40
0.6666666666666666
 40
0.6666666666666666
 40
1.0
 40
1.0
 40
1.0
 40
1.0
 10
135.9596
 20
-9.4975
 30
0.0
 10
135.5845
 20
-8.2469
 30
0.0
 10
134.2092
 20
-6.8716
 30
0.0
 10
132.5832
 20
-5.2459
 30
0.0
 10
132.5832
 20
-5.2459
 30
0.0
 10
131.4577
 20
-4.2456
 30
0.0
 10
130.3323
 20
-2.8699
 30
0.0
 10
128.8318
 20
-2.2446
 30
0.0
 10
128.8318
 20
-2.2446
 30
0.0
 10
125.8305
 20
-0.994
 30
0.0
 10
122.7044
 20
-2.4949
 30
0.0
 10
121.5789
 20
-5.2459
 30
0.0
 10
121.5789
 20
-5.2459
 30
0.0
 10
120.7037
 20
-7.2466
 30
0.0
 10
121.2039
 20
-12.1238
 30
0.0
 10
121.5789
 20
-14.1244
 30
0.0
 10
121.5789
 20
-14.1244
 30
0.0
 10
124.705
 20
-10.8732
 30
0.0
 10
129.2068
 20
-9.1225
 30
0.0
 10
135.9596
 20
-9.4975
 30
0.0
  0
SPLINE
  5
59
330
1F
100
AcDbEntity
  8
layer 1
 62
     7
100
AcDbSpline
210
0.0
220
0.0
230
1.0
 70
    11
 71
     3
 72
    24
 73
    20
 74
     0
 42
0.0000000001
 43
0.0000000001
 12
1.0
 22
0.0
 32
0.0
 13
1.0
 23
0.0
 33
0.0
 40
0.0
 40
0.0
 40
0.0
 40
0.0
 40
0.1666666666666667
 40
0.1666666666666667
 40
0.1666666666666667
 40
0.1666666666666667
 40
0.3333333333333333
 40
0.3333333333333333
 40
0.3333333333333333
 40
0.3333333333333333
 40
0.5
 40
0.5
 40
0.5
 40
0.5
 40
0.6666666666666666
 40
0.6666666666666666
 40
0.6666666666666666
 40
0.6666666666666666
 40
1.0
 40
1.0
 40
1.0
 40
1.0
 10
135.9596
 20
26.2667
 30
0.0
 10
135.5845
 20
25.0162
 30
0.0
 10
134.2092
 20
23.6408
 30
0.0
 10
132.5832
 20
22.0152
 30
0.0
 10
132.5832
 20
22.0152
 30
0.0
 10
131.4577
 20
21.0149
 30
0.0
 10
130.3323
 20
19.6392
 30
0.0
 10
128.8318
 20
19.0139
 30
0.0
 10
128.8318
 20
19.0139
 30
0.0
 10
125.8305
 20
17.7633
 30
0.0
 10
122.7044
 20
19.2641
 30
0.0
 10
121.5789
 20
22.0152
 30
0.0
 10
121.5789
 20
22.0152
 30
0.0
 10
120.7037
 20
24.0158
 30
0.0
 10
121.2039
 20
28.7679
 30
0.0
 10
121.5789
 20
30.8937
 30
0.0
 10
121.5789
 20
30.8937
 30
0.0
 10
124.705
 20
27.6425
 30
0.0
 10
129.2068
 20
25.8917
 30
0.0
 10
135.9596
 20
26.2667
 30
0.0
  0
SPLINE
  5
5A
330
1F
100
AcDbEntity
  8
layer 1
 62
     7
100
AcDbSpline
210
0.0
220
0.0
230
1.0
 70
    11
 71
     3
 72
    88
 73
    84
 74
     0
 42
0.0000000001
 43
0.0000000001
 12
1.0
 22
0.0
 32
0.0
 13
1.0
 23
0.0
 33
0.0
 40
0.0
 40
0.0
 40
0.0
 40
0.0
 40
0.0454545454545455
 40
0.0454545454545455
 40
0.0454545454545455
 40
0.0454545454545455
 40
0.0909090909090909
 40
0.0909090909090909
 40
0.0909090909090909
 40
0.0909090909090909
 40
0.1363636363636364
 40
0.1363636363636364
 40
0.1363636363636364
 40
0.1363636363636364
 40
0.1818181818181818
 40
0.1818181818181818
 40
0.1818181818181818
 40
0.1818181818181818
 40
0.2272727272727273
 40
0.2272727272727273
 40
0.2272727272727273
 40
0.2272727272727273
 40
0.2727272727272727
 40
0.2727272727272727
 40
0.2727272727272727
 40
0.2727272727272727
 40
0.3181818181818182
 40
0.3181818181818182
 40
0.3181818181818182
 40
0.3181818181818182
 40
0.3636363636363636
 40
0.3636363636363636
 40
0.3636363636363636
 40
0.3636363636363636
 40
0.4090909090909091
 40
0.4090909090909091
 40
0.4090909090909091
 40
0.4090909090909091
 40
0.4545454545454545
 40
0.4545454545454545
 40
0.4545454545454545
 40
0.4545454545454545
 40
0.5
 40
0.5
 40
0.5
 40
0.5
 40
0.5454545454545454
 40
0.5454545454545454
 40
0.5454545454545454
 40
0.5454545454545454
 40
0.5909090909090909
 40
0.5909090909090909
 40
0.5909090909090909
 40
0.5909090909090909
 40
0.6363636363636364
 40
0.6363636363636364
 40
0.6363636363636364
 40
0.6363636363636364
 40
0.6818181818181818
 40
0.6818181818181818
 40
0.6818181818181818
 40
0.6818181818181818
 40
0.7272727272727273
 40
0.7272727272727273
 40
0.7272727272727273
 40
0.7272727272727273
 40
0.7727272727272727
 40
0.7727272727272727
 40
0.7727272727272727
 40
0.7727272727272727
 40
0.8181818181818182
 40
0.8181818181818182
 40
0.8181818181818182
 40
0.8181818181818182
 40
0.8636363636363636
 40
0.8636363636363636
 40
0.8636363636363636
 40
0.8636363636363636
 40
0.9090909090909091
 40
0.9090909090909091
 40
0.9090909090909091
 40
0.9090909090909091
 40
1.0
 40
1.0
 40
1.0
 40
1.0
 10
116.8269
 20
-26.6295
 30
0.0
 10
116.8269
 20
-30.756
 30
0.0
 10
109.9494
 20
-38.2591
 30
0.0
 10
105.4476
 20
-40.3849
 30
0.0
 10
105.4476
 20
-40.3849
 30
0.0
 10
97.194
 20
-44.5117
 30
0.0
 10
88.9408
 20
-43.5113
 30
0.0
 10
82.9385
 20
-40.7603
 30
0.0
 10
82.9385
 20
-40.7603
 30
0.0
 10
71.8087
 20
-35.8831
 30
0.0
 10
62.8051
 20
-23.0029
 30
0.0
 10
70.4334
 20
-4.9957
 30
0.0
 10
70.4334
 20
-4.9957
 30
0.0
 10
76.3106
 20
9.135
 30
0.0
 10
89.441
 20
8.3846
 30
0.0
 10
95.1933
 20
1.757
 30
0.0
 10
95.1933
 20
1.757
 30
0.0
 10
101.1956
 20
-5.1208
 30
0.0
 10
96.0685
 20
-18.6262
 30
0.0
 10
84.5641
 20
-16.8755
 30
0.0
 10
84.5641
 20
-16.8755
 30
0.0
 10
79.437
 20
-16.1251
 30
0.0
 10
78.0613
 20
-10.6229
 30
0.0
 10
79.9372
 20
-8.1221
 30
0.0
 10
79.9372
 20
-8.1221
 30
0.0
 10
81.3129
 20
-6.3714
 30
0.0
 10
85.5644
 20
-4.8706
 30
0.0
 10
87.8153
 20
-8.2469
 30
0.0
 10
87.8153
 20
-8.2469
 30
0.0
 10
88.3155
 20
-8.9973
 30
0.0
 10
88.0656
 20
-12.3737
 30
0.0
 10
91.0666
 20
-11.3734
 30
0.0
 10
91.0666
 20
-11.3734
 30
0.0
 10
92.192
 20
-11.1231
 30
0.0
 10
92.3172
 20
-9.2476
 30
0.0
 10
91.3168
 20
-7.3717
 30
0.0
 10
91.3168
 20
-7.3717
 30
0.0
 10
90.4413
 20
-5.7461
 30
0.0
 10
88.0656
 20
-3.7451
 30
0.0
 10
85.3142
 20
-3.2449
 30
0.0
 10
85.3142
 20
-3.2449
 30
0.0
 10
81.813
 20
-2.7448
 30
0.0
 10
77.6863
 20
-4.1205
 30
0.0
 10
76.5608
 20
-7.622
 30
0.0
 10
76.5608
 20
-7.622
 30
0.0
 10
73.9349
 20
-15.5001
 30
0.0
 10
80.8124
 20
-21.7523
 30
0.0
 10
91.3168
 20
-19.5014
 30
0.0
 10
91.3168
 20
-19.5014
 30
0.0
 10
90.9414
 20
-22.753
 30
0.0
 10
90.9414
 20
-27.5047
 30
0.0
 10
92.3172
 20
-29.8808
 30
0.0
 10
92.3172
 20
-29.8808
 30
0.0
 10
94.8183
 20
-34.5077
 30
0.0
 10
100.1953
 20
-34.7576
 30
0.0
 10
102.3211
 20
-34.2575
 30
0.0
 10
102.3211
 20
-34.2575
 30
0.0
 10
107.6985
 20
-33.132
 30
0.0
 10
109.6991
 20
-24.0033
 30
0.0
 10
105.9477
 20
-20.5021
 30
0.0
 10
105.9477
 20
-20.5021
 30
0.0
 10
104.8223
 20
-19.5014
 30
0.0
 10
100.5704
 20
-16.6256
 30
0.0
 10
99.3201
 20
-19.0013
 30
0.0
 10
99.3201
 20
-19.0013
 30
0.0
 10
98.6948
 20
-20.1267
 30
0.0
 10
101.8209
 20
-21.0023
 30
0.0
 10
103.6968
 20
-22.6279
 30
0.0
 10
103.6968
 20
-22.6279
 30
0.0
 10
104.8223
 20
-23.6282
 30
0.0
 10
105.0722
 20
-25.2538
 30
0.0
 10
105.0722
 20
-26.0043
 30
0.0
 10
105.0722
 20
-26.0043
 30
0.0
 10
105.4476
 20
-32.0065
 30
0.0
 10
99.4449
 20
-33.5074
 30
0.0
 10
95.8186
 20
-29.6305
 30
0.0
 10
95.8186
 20
-29.6305
 30
0.0
 10
94.5681
 20
-28.13
 30
0.0
 10
93.4426
 20
-23.1281
 30
0.0
 10
94.8183
 20
-20.6269
 30
0.0
 10
94.8183
 20
-20.6269
 30
0.0
 10
98.9447
 20
-8.1221
 30
0.0
 10
117.5773
 20
-11.7484
 30
0.0
 10
116.8269
 20
-26.6295
 30
0.0
  0
SPLINE
  5
5B
330
1F
100
AcDbEntity
  8
layer 1
 62
     7
100
AcDbSpline
210
0.0
220
0.0
230
1.0
 70
    11
 71
     3
 72
    88
 73
    84
 74
     0
 42
0.0000000001
 43
0.0000000001
 12
1.0
 22
0.0
 32
0.0
 13
1.0
 23
0.0
 33
0.0
 40
0.0
 40
0.0
 40
0.0
 40
0.0
 40
0.0454545454545455
 40
0.0454545454545455
 40
0.0454545454545455
 40
0.0454545454545455
 40
0.0909090909090909
 40
0.0909090909090909
 40
0.0909090909090909
 40
0.0909090909090909
 40
0.1363636363636364
 40
0.1363636363636364
 40
0.1363636363636364
 40
0.1363636363636364
 40
0.1818181818181818
 40
0.1818181818181818
 40
0.1818181818181818
 40
0.1818181818181818
 40
0.2272727272727273
 40
0.2272727272727273
 40
0.2272727272727273
 40
0.2272727272727273
 40
0.2727272727272727
 40
0.2727272727272727
 40
0.2727272727272727
 40
0.2727272727272727
 40
0.3181818181818182
 40
0.3181818181818182
 40
0.3181818181818182
 40
0.3181818181818182
 40
0.3636363636363636
 40
0.3636363636363636
 40
0.3636363636363636
 40
0.3636363636363636
 40
0.4090909090909091
 40
0.4090909090909091
 40
0.4090909090909091
 40
0.4090909090909091
 40
0.4545454545454545
 40
0.4545454545454545
 40
0.4545454545454545
 40
0.4545454545454545
 40
0.5
 40
0.5
 40
0.5
 40
0.5
 40
0.5454545454545454
 40
0.5454545454545454
 40
0.5454545454545454
 40
0.5454545454545454
 40
0.5909090909090909
 40
0.5909090909090909
 40
0.5909090909090909
 40
0.5909090909090909
 40
0.6363636363636364
 40
0.6363636363636364
 40
0.6363636363636364
 40
0.6363636363636364
 40
0.6818181818181818
 40
0.6818181818181818
 40
0.6818181818181818
 40
0.6818181818181818
 40
0.7272727272727273
 40
0.7272727272727273
 40
0.7272727272727273
 40
0.7272727272727273
 40
0.7727272727272727
 40
0.7727272727272727
 40
0.7727272727272727
 40
0.7727272727272727
 40
0.8181818181818182
 40
0.8181818181818182
 40
0.8181818181818182
 40
0.8181818181818182
 40
0.8636363636363636
 40
0.8636363636363636
 40
0.8636363636363636
 40
0.8636363636363636
 40
0.9090909090909091
 40
0.9090909090909091
 40
0.9090909090909091
 40
0.9090909090909091
 40
1.0
 40
1.0
 40
1.0
 40
1.0
 10
116.8269
 20
43.3988
 30
0.0
 10
116.8269
 20
47.5252
 30
0.0
 10
109.9494
 20
55.0284
 30
0.0
 10
105.4476
 20
57.1541
 30
0.0
 10
105.4476
 20
57.1541
 30
0.0
 10
97.194
 20
61.2809
 30
0.0
 10
88.9408
 20
60.2806
 30
0.0
 10
82.9385
 20
57.5295
 30
0.0
 10
82.9385
 20
57.5295
 30
0.0
 10
71.8087
 20
52.6523
 30
0.0
 10
62.8051
 20
39.7722
 30
0.0
 10
70.4334
 20
21.7649
 30
0.0
 10
70.4334
 20
21.7649
 30
0.0
 10
76.3106
 20
7.6342
 30
0.0
 10
89.441
 20
8.3846
 30
0.0
 10
95.1933
 20
15.0122
 30
0.0
 10
95.1933
 20
15.0122
 30
0.0
 10
101.1956
 20
21.8901
 30
0.0
 10
96.0685
 20
35.3955
 30
0.0
 10
84.5641
 20
33.6448
 30
0.0
 10
84.5641
 20
33.6448
 30
0.0
 10
79.437
 20
32.8943
 30
0.0
 10
78.0613
 20
27.3922
 30
0.0
 10
79.9372
 20
24.8914
 30
0.0
 10
79.9372
 20
24.8914
 30
0.0
 10
81.3129
 20
23.1406
 30
0.0
 10
85.5644
 20
21.6398
 30
0.0
 10
87.8153
 20
24.8914
 30
0.0
 10
87.8153
 20
24.8914
 30
0.0
 10
88.3155
 20
25.6415
 30
0.0
 10
88.0656
 20
29.1429
 30
0.0
 10
91.0666
 20
28.1426
 30
0.0
 10
91.0666
 20
28.1426
 30
0.0
 10
92.192
 20
27.8924
 30
0.0
 10
92.3172
 20
26.0168
 30
0.0
 10
91.3168
 20
24.141
 30
0.0
 10
91.3168
 20
24.141
 30
0.0
 10
90.4413
 20
22.5154
 30
0.0
 10
88.0656
 20
20.5143
 30
0.0
 10
85.3142
 20
20.0142
 30
0.0
 10
85.3142
 20
20.0142
 30
0.0
 10
81.813
 20
19.514
 30
0.0
 10
77.6863
 20
20.8897
 30
0.0
 10
76.5608
 20
24.3912
 30
0.0
 10
76.5608
 20
24.3912
 30
0.0
 10
73.9349
 20
32.1443
 30
0.0
 10
80.8124
 20
38.5216
 30
0.0
 10
91.3168
 20
36.1459
 30
0.0
 10
91.3168
 20
36.1459
 30
0.0
 10
90.9414
 20
39.5223
 30
0.0
 10
90.9414
 20
44.274
 30
0.0
 10
92.3172
 20
46.65
 30
0.0
 10
92.3172
 20
46.65
 30
0.0
 10
94.8183
 20
51.1518
 30
0.0
 10
100.1953
 20
51.4021
 30
0.0
 10
102.3211
 20
51.0267
 30
0.0
 10
102.3211
 20
51.0267
 30
0.0
 10
107.6985
 20
49.9013
 30
0.0
 10
109.6991
 20
40.7725
 30
0.0
 10
105.9477
 20
37.2714
 30
0.0
 10
105.9477
 20
37.2714
 30
0.0
 10
104.8223
 20
36.1459
 30
0.0
 10
100.5704
 20
33.3948
 30
0.0
 10
99.3201
 20
35.7705
 30
0.0
 10
99.3201
 20
35.7705
 30
0.0
 10
98.6948
 20
36.896
 30
0.0
 10
101.8209
 20
37.7715
 30
0.0
 10
103.6968
 20
39.3971
 30
0.0
 10
103.6968
 20
39.3971
 30
0.0
 10
104.8223
 20
40.3975
 30
0.0
 10
105.0722
 20
42.0231
 30
0.0
 10
105.0722
 20
42.7735
 30
0.0
 10
105.0722
 20
42.7735
 30
0.0
 10
105.4476
 20
48.7758
 30
0.0
 10
99.4449
 20
50.2766
 30
0.0
 10
95.8186
 20
46.275
 30
0.0
 10
95.8186
 20
46.275
 30
0.0
 10
94.5681
 20
44.8993
 30
0.0
 10
93.4426
 20
39.8973
 30
0.0
 10
94.8183
 20
37.3961
 30
0.0
 10
94.8183
 20
37.3961
 30
0.0
 10
98.9447
 20
24.8914
 30
0.0
 10
117.5773
 20
28.3925
 30
0.0
 10
116.8269
 20
43.3988
 30
0.0
  0
SPLINE
  5
5C
330
1F
100
AcDbEntity
  8
layer 1
 62
     7
100
AcDbSpline
210
0.0
220
0.0
230
1.0
 70
    11
 71
     3
 72
    88
 73
    84
 74
     0
 42
0.0000000001
 43
0.0000000001
 12
1.0
 22
0.0
 32
0.0
 13
1.0
 23
0.0
 33
0.0
 40
0.0
 40
0.0
 40
0.0
 40
0.0
 40
0.0454545454545455
 40
0.0454545454545455
 40
0.0454545454545455
 40
0.0454545454545455
 40
0.0909090909090909
 40
0.0909090909090909
 40
0.0909090909090909
 40
0.0909090909090909
 40
0.1363636363636364
 40
0.1363636363636364
 40
0.1363636363636364
 40
0.1363636363636364
 40
0.1818181818181818
 40
0.1818181818181818
 40
0.1818181818181818
 40
0.1818181818181818
 40
0.2272727272727273
 40
0.2272727272727273
 40
0.2272727272727273
 40
0.2272727272727273
 40
0.2727272727272727
 40
0.2727272727272727
 40
0.2727272727272727
 40
0.2727272727272727
 40
0.3181818181818182
 40
0.3181818181818182
 40
0.3181818181818182
 40
0.3181818181818182
 40
0.3636363636363636
 40
0.3636363636363636
 40
0.3636363636363636
 40
0.3636363636363636
 40
0.4090909090909091
 40
0.4090909090909091
 40
0.4090909090909091
 40
0.4090909090909091
 40
0.4545454545454545
 40
0.4545454545454545
 40
0.4545454545454545
 40
0.4545454545454545
 40
0.5
 40
0.5
 40
0.5
 40
0.5
 40
0.5454545454545454
 40
0.5454545454545454
 40
0.5454545454545454
 40
0.5454545454545454
 40
0.5909090909090909
 40
0.5909090909090909
 40
0.5909090909090909
 40
0.5909090909090909
 40
0.6363636363636364
 40
0.6363636363636364
 40
0.6363636363636364
 40
0.6363636363636364
 40
0.6818181818181818
 40
0.6818181818181818
 40
0.6818181818181818
 40
0.6818181818181818
 40
0.7272727272727273
 40
0.7272727272727273
 40
0.7272727272727273
 40
0.7272727272727273
 40
0.7727272727272727
 40
0.7727272727272727
 40
0.7727272727272727
 40
0.7727272727272727
 40
0.8181818181818182
 40
0.8181818181818182
 40
0.8181818181818182
 40
0.8181818181818182
 40
0.8636363636363636
 40
0.8636363636363636
 40
0.8636363636363636
 40
0.8636363636363636
 40
0.9090909090909091
 40
0.9090909090909091
 40
0.9090909090909091
 40
0.9090909090909091
 40
1.0
 40
1.0
 40
1.0
 40
1.0
 10
121.7041
 20
-26.6295
 30
0.0
 10
121.8292
 20
-30.756
 30
0.0
 10
128.7067
 20
-38.2591
 30
0.0
 10
133.0837
 20
-40.3849
 30
0.0
 10
133.0837
 20
-40.3849
 30
0.0
 10
141.462
 20
-44.5117
 30
0.0
 10
149.7152
 20
-43.5113
 30
0.0
 10
155.7175
 20
-40.7603
 30
0.0
 10
155.7175
 20
-40.7603
 30
0.0
 10
166.8473
 20
-35.8831
 30
0.0
 10
175.7258
 20
-23.0029
 30
0.0
 10
168.2227
 20
-4.9957
 30
0.0
 10
168.2227
 20
-4.9957
 30
0.0
 10
162.3455
 20
9.135
 30
0.0
 10
149.2151
 20
8.3846
 30
0.0
 10
143.4627
 20
1.757
 30
0.0
 10
143.4627
 20
1.757
 30
0.0
 10
137.4604
 20
-5.1208
 30
0.0
 10
142.5875
 20
-18.6262
 30
0.0
 10
154.0919
 20
-16.8755
 30
0.0
 10
154.0919
 20
-16.8755
 30
0.0
 10
159.219
 20
-16.1251
 30
0.0
 10
160.5947
 20
-10.6229
 30
0.0
 10
158.7189
 20
-8.1221
 30
0.0
 10
158.7189
 20
-8.1221
 30
0.0
 10
157.3432
 20
-6.3714
 30
0.0
 10
153.0916
 20
-4.8706
 30
0.0
 10
150.8407
 20
-8.2469
 30
0.0
 10
150.8407
 20
-8.2469
 30
0.0
 10
150.3405
 20
-8.9973
 30
0.0
 10
150.5904
 20
-12.3737
 30
0.0
 10
147.4643
 20
-11.3734
 30
0.0
 10
147.4643
 20
-11.3734
 30
0.0
 10
146.464
 20
-11.1231
 30
0.0
 10
146.3389
 20
-9.2476
 30
0.0
 10
147.3392
 20
-7.3717
 30
0.0
 10
147.3392
 20
-7.3717
 30
0.0
 10
148.0896
 20
-5.7461
 30
0.0
 10
150.5904
 20
-3.7451
 30
0.0
 10
153.3419
 20
-3.2449
 30
0.0
 10
153.3419
 20
-3.2449
 30
0.0
 10
156.843
 20
-2.7448
 30
0.0
 10
160.9698
 20
-4.1205
 30
0.0
 10
162.0952
 20
-7.622
 30
0.0
 10
162.0952
 20
-7.622
 30
0.0
 10
164.5964
 20
-15.5001
 30
0.0
 10
157.8437
 20
-21.7523
 30
0.0
 10
147.2141
 20
-19.5014
 30
0.0
 10
147.2141
 20
-19.5014
 30
0.0
 10
147.7146
 20
-22.753
 30
0.0
 10
147.7146
 20
-27.5047
 30
0.0
 10
146.3389
 20
-29.8808
 30
0.0
 10
146.3389
 20
-29.8808
 30
0.0
 10
143.713
 20
-34.5077
 30
0.0
 10
138.4607
 20
-34.7576
 30
0.0
 10
136.2098
 20
-34.2575
 30
0.0
 10
136.2098
 20
-34.2575
 30
0.0
 10
130.9576
 20
-33.132
 30
0.0
 10
128.9569
 20
-24.0033
 30
0.0
 10
132.7083
 20
-20.5021
 30
0.0
 10
132.7083
 20
-20.5021
 30
0.0
 10
133.7086
 20
-19.5014
 30
0.0
 10
138.0857
 20
-16.6256
 30
0.0
 10
139.3359
 20
-19.0013
 30
0.0
 10
139.3359
 20
-19.0013
 30
0.0
 10
139.8364
 20
-20.1267
 30
0.0
 10
136.8351
 20
-21.0023
 30
0.0
 10
134.9592
 20
-22.6279
 30
0.0
 10
134.9592
 20
-22.6279
 30
0.0
 10
133.8338
 20
-23.6282
 30
0.0
 10
133.5839
 20
-25.2538
 30
0.0
 10
133.5839
 20
-26.0043
 30
0.0
 10
133.5839
 20
-26.0043
 30
0.0
 10
133.2085
 20
-32.0065
 30
0.0
 10
139.2111
 20
-33.5074
 30
0.0
 10
142.8374
 20
-29.6305
 30
0.0
 10
142.8374
 20
-29.6305
 30
0.0
 10
144.088
 20
-28.13
 30
0.0
 10
145.0883
 20
-23.1281
 30
0.0
 10
143.8377
 20
-20.6269
 30
0.0
 10
143.8377
 20
-20.6269
 30
0.0
 10
139.5862
 20
-8.1221
 30
0.0
 10
121.0788
 20
-11.7484
 30
0.0
 10
121.7041
 20
-26.6295
 30
0.0
  0
SPLINE
  5
5D
330
1F
100
AcDbEntity
  8
layer 1
 62
     7
100
AcDbSpline
210
0.0
220
0.0
230
1.0
 70
    11
 71
     3
 72
    88
 73
    84
 74
     0
 42
0.0000000001
 43
0.0000000001
 12
1.0
 22
0.0
 32
0.0
 13
1.0
 23
0.0
 33
0.0
 40
0.0
 40
0.0
 40
0.0
 40
0.0
 40
0.0454545454545455
 40
0.0454545454545455
 40
0.0454545454545455
 40
0.0454545454545455
 40
0.0909090909090909
 40
0.0909090909090909
 40
0.0909090909090909
 40
0.0909090909090909
 40
0.1363636363636364
 40
0.1363636363636364
 40
0.1363636363636364
 40
0.1363636363636364
 40
0.1818181818181818
 40
0.1818181818181818
 40
0.1818181818181818
 40
0.1818181818181818
 40
0.2272727272727273
 40
0.2272727272727273
 40
0.2272727272727273
 40
0.2272727272727273
 40
0.2727272727272727
 40
0.2727272727272727
 40
0.2727272727272727
 40
0.2727272727272727
 40
0.3181818181818182
 40
0.3181818181818182
 40
0.3181818181818182
 40
0.3181818181818182
 40
0.3636363636363636
 40
0.3636363636363636
 40
0.3636363636363636
 40
0.3636363636363636
 40
0.4090909090909091
 40
0.4090909090909091
 40
0.4090909090909091
 40
0.4090909090909091
 40
0.4545454545454545
 40
0.4545454545454545
 40
0.4545454545454545
 40
0.4545454545454545
 40
0.5
 40
0.5
 40
0.5
 40
0.5
 40
0.5454545454545454
 40
0.5454545454545454
 40
0.5454545454545454
 40
0.5454545454545454
 40
0.5909090909090909
 40
0.5909090909090909
 40
0.5909090909090909
 40
0.5909090909090909
 40
0.6363636363636364
 40
0.6363636363636364
 40
0.6363636363636364
 40
0.6363636363636364
 40
0.6818181818181818
 40
0.6818181818181818
 40
0.6818181818181818
 40
0.6818181818181818
 40
0.7272727272727273
 40
0.7272727272727273
 40
0.7272727272727273
 40
0.7272727272727273
 40
0.7727272727272727
 40
0.7727272727272727
 40
0.7727272727272727
 40
0.7727272727272727
 40
0.8181818181818182
 40
0.8181818181818182
 40
0.8181818181818182
 40
0.8181818181818182
 40
0.8636363636363636
 40
0.8636363636363636
 40
0.8636363636363636
 40
0.8636363636363636
 40
0.9090909090909091
 40
0.9090909090909091
 40
0.9090909090909091
 40
0.9090909090909091
 40
1.0
 40
1.0
 40
1.0
 40
1.0
 10
121.7041
 20
43.3988
 30
0.0
 10
121.8292
 20
47.5252
 30
0.0
 10
128.7067
 20
55.0284
 30
0.0
 10
133.0837
 20
57.1541
 30
0.0
 10
133.0837
 20
57.1541
 30
0.0
 10
141.462
 20
61.2809
 30
0.0
 10
149.7152
 20
60.2806
 30
0.0
 10
155.7175
 20
57.5295
 30
0.0
 10
155.7175
 20
57.5295
 30
0.0
 10
166.8473
 20
52.6523
 30
0.0
 10
175.7258
 20
39.7722
 30
0.0
 10
168.2227
 20
21.7649
 30
0.0
 10
168.2227
 20
21.7649
 30
0.0
 10
162.3455
 20
7.6342
 30
0.0
 10
149.2151
 20
8.3846
 30
0.0
 10
143.4627
 20
15.0122
 30
0.0
 10
143.4627
 20
15.0122
 30
0.0
 10
137.4604
 20
21.8901
 30
0.0
 10
142.5875
 20
35.3955
 30
0.0
 10
154.0919
 20
33.6448
 30
0.0
 10
154.0919
 20
33.6448
 30
0.0
 10
159.219
 20
32.8943
 30
0.0
 10
160.5947
 20
27.3922
 30
0.0
 10
158.7189
 20
24.8914
 30
0.0
 10
158.7189
 20
24.8914
 30
0.0
 10
157.3432
 20
23.1406
 30
0.0
 10
153.0916
 20
21.6398
 30
0.0
 10
150.8407
 20
24.8914
 30
0.0
 10
150.8407
 20
24.8914
 30
0.0
 10
150.3405
 20
25.6415
 30
0.0
 10
150.5904
 20
29.1429
 30
0.0
 10
147.4643
 20
28.1426
 30
0.0
 10
147.4643
 20
28.1426
 30
0.0
 10
146.464
 20
27.8924
 30
0.0
 10
146.3389
 20
26.0168
 30
0.0
 10
147.3392
 20
24.141
 30
0.0
 10
147.3392
 20
24.141
 30
0.0
 10
148.0896
 20
22.5154
 30
0.0
 10
150.5904
 20
20.5143
 30
0.0
 10
153.3419
 20
20.0142
 30
0.0
 10
153.3419
 20
20.0142
 30
0.0
 10
156.843
 20
19.514
 30
0.0
 10
160.9698
 20
20.8897
 30
0.0
 10
162.0952
 20
24.3912
 30
0.0
 10
162.0952
 20
24.3912
 30
0.0
 10
164.5964
 20
32.1443
 30
0.0
 10
157.8437
 20
38.5216
 30
0.0
 10
147.2141
 20
36.1459
 30
0.0
 10
147.2141
 20
36.1459
 30
0.0
 10
147.7146
 20
39.5223
 30
0.0
 10
147.7146
 20
44.274
 30
0.0
 10
146.3389
 20
46.65
 30
0.0
 10
146.3389
 20
46.65
 30
0.0
 10
143.713
 20
51.1518
 30
0.0
 10
138.4607
 20
51.4021
 30
0.0
 10
136.2098
 20
51.0267
 30
0.0
 10
136.2098
 20
51.0267
 30
0.0
 10
130.9576
 20
49.9013
 30
0.0
 10
128.9569
 20
40.7725
 30
0.0
 10
132.7083
 20
37.2714
 30
0.0
 10
132.7083
 20
37.2714
 30
0.0
 10
133.7086
 20
36.1459
 30
0.0
 10
138.0857
 20
33.3948
 30
0.0
 10
139.3359
 20
35.7705
 30
0.0
 10
139.3359
 20
35.7705
 30
0.0
 10
139.8364
 20
36.896
 30
0.0
 10
136.8351
 20
37.7715
 30
0.0
 10
134.9592
 20
39.3971
 30
0.0
 10
134.9592
 20
39.3971
 30
0.0
 10
133.8338
 20
40.3975
 30
0.0
 10
133.5839
 20
42.0231
 30
0.0
 10
133.5839
 20
42.7735
 30
0.0
 10
133.5839
 20
42.7735
 30
0.0
 10
133.2085
 20
48.7758
 30
0.0
 10
139.2111
 20
50.2766
 30
0.0
 10
142.8374
 20
46.275
 30
0.0
 10
142.8374
 20
46.275
 30
0.0
 10
144.088
 20
44.8993
 30
0.0
 10
145.0883
 20
39.8973
 30
0.0
 10
143.8377
 20
37.3961
 30
0.0
 10
143.8377
 20
37.3961
 30
0.0
 10
139.5862
 20
24.8914
 30
0.0
 10
121.0788
 20
28.3925
 30
0.0
 10
121.7041
 20
43.3988
 30
0.0
  0
SPLINE
  5
5E
330
1F
100
AcDbEntity
  8
layer 1
 62
     7
100
AcDbSpline
210
0.0
220
0.0
230
1.0
 70
    11
 71
     3
 72
    28
 73
    24
 74
     0
 42
0.0000000001
 43
0.0000000001
 12
1.0
 22
0.0
 32
0.0
 13
1.0
 23
0.0
 33
0.0
 40
0.0
 40
0.0
 40
0.0
 40
0.0
 40
0.1428571428571428
 40
0.1428571428571428
 40
0.1428571428571428
 40
0.1428571428571428
 40
0.2857142857142857
 40
0.2857142857142857
 40
0.2857142857142857
 40
0.2857142857142857
 40
0.4285714285714285
 40
0.4285714285714285
 40
0.4285714285714285
 40
0.4285714285714285
 40
0.5714285714285714
 40
0.5714285714285714
 40
0.5714285714285714
 40
0.5714285714285714
 40
0.7142857142857143
 40
0.7142857142857143
 40
0.7142857142857143
 40
0.7142857142857143
 40
1.0
 40
1.0
 40
1.0
 40
1.0
 10
51.1756
 20
-62.5189
 30
0.0
 10
51.1756
 20
-62.5189
 30
0.0
 10
51.1756
 20
-11.8735
 30
0.0
 10
51.1756
 20
-11.8735
 30
0.0
 10
51.1756
 20
-11.8735
 30
0.0
 10
51.1756
 20
-11.8735
 30
0.0
 10
52.676
 20
-11.8735
 30
0.0
 10
52.676
 20
-11.8735
 30
0.0
 10
52.676
 20
-11.8735
 30
0.0
 10
56.5529
 20
-26.6295
 30
0.0
 10
65.9316
 20
-39.7596
 30
0.0
 10
77.5611
 20
-47.7629
 30
0.0
 10
77.5611
 20
-47.7629
 30
0.0
 10
77.5611
 20
-47.888
 30
0.0
 10
77.436
 20
-48.1383
 30
0.0
 10
77.3112
 20
-48.2631
 30
0.0
 10
77.3112
 20
-48.2631
 30
0.0
 10
61.8048
 20
-47.2627
 30
0.0
 10
56.3027
 20
-52.3898
 30
0.0
 10
52.676
 20
-62.644
 30
0.0
 10
52.676
 20
-62.644
 30
0.0
 10
52.676
 20
-62.644
 30
0.0
 10
51.1756
 20
-62.5189
 30
0.0
 10
51.1756
 20
-62.5189
 30
0.0
  0
SPLINE
  5
5F
330
1F
100
AcDbEntity
  8
layer 1
 62
     7
100
AcDbSpline
210
0.0
220
0.0
230
1.0
 70
    11
 71
     3
 72
    28
 73
    24
 74
     0
 42
0.0000000001
 43
0.0000000001
 12
1.0
 22
0.0
 32
0.0
 13
1.0
 23
0.0
 33
0.0
 40
0.0
 40
0.0
 40
0.0
 40
0.0
 40
0.1428571428571428
 40
0.1428571428571428
 40
0.1428571428571428
 40
0.1428571428571428
 40
0.2857142857142857
 40
0.2857142857142857
 40
0.2857142857142857
 40
0.2857142857142857
 40
0.4285714285714285
 40
0.4285714285714285
 40
0.4285714285714285
 40
0.4285714285714285
 40
0.5714285714285714
 40
0.5714285714285714
 40
0.5714285714285714
 40
0.5714285714285714
 40
0.7142857142857143
 40
0.7142857142857143
 40
0.7142857142857143
 40
0.7142857142857143
 40
1.0
 40
1.0
 40
1.0
 40
1.0
 10
51.1756
 20
79.2882
 30
0.0
 10
51.1756
 20
79.2882
 30
0.0
 10
51.1756
 20
28.6428
 30
0.0
 10
51.1756
 20
28.6428
 30
0.0
 10
51.1756
 20
28.6428
 30
0.0
 10
51.1756
 20
28.6428
 30
0.0
 10
52.676
 20
28.6428
 30
0.0
 10
52.676
 20
28.6428
 30
0.0
 10
52.676
 20
28.6428
 30
0.0
 10
56.5529
 20
43.3988
 30
0.0
 10
65.9316
 20
56.5288
 30
0.0
 10
77.5611
 20
64.5321
 30
0.0
 10
77.5611
 20
64.5321
 30
0.0
 10
77.5611
 20
64.6573
 30
0.0
 10
77.436
 20
64.9075
 30
0.0
 10
77.3112
 20
65.0323
 30
0.0
 10
77.3112
 20
65.0323
 30
0.0
 10
61.8048
 20
64.032
 30
0.0
 10
56.3027
 20
69.1591
 30
0.0
 10
52.676
 20
79.4133
 30
0.0
 10
52.676
 20
79.4133
 30
0.0
 10
52.676
 20
79.4133
 30
0.0
 10
51.1756
 20
79.2882
 30
0.0
 10
51.1756
 20
79.2882
 30
0.0
  0
SPLINE
  5
60
330
1F
100
AcDbEntity
  8
layer 1
 62
     7
100
AcDbSpline
210
0.0
220
0.0
230
1.0
 70
    11
 71
     3
 72
    28
 73
    24
 74
     0
 42
0.0000000001
 43
0.0000000001
 12
1.0
 22
0.0
 32
0.0
 13
1.0
 23
0.0
 33
0.0
 40
0.0
 40
0.0
 40
0.0
 40
0.0
 40
0.1428571428571428
 40
0.1428571428571428
 40
0.1428571428571428
 40
0.1428571428571428
 40
0.2857142857142857
 40
0.2857142857142857
 40
0.2857142857142857
 40
0.2857142857142857
 40
0.4285714285714285
 40
0.4285714285714285
 40
0.4285714285714285
 40
0.4285714285714285
 40
0.5714285714285714
 40
0.5714285714285714
 40
0.5714285714285714
 40
0.5714285714285714
 40
0.7142857142857143
 40
0.7142857142857143
 40
0.7142857142857143
 40
0.7142857142857143
 40
1.0
 40
1.0
 40
1.0
 40
1.0
 10
187.4805
 20
-62.5189
 30
0.0
 10
187.4805
 20
-62.5189
 30
0.0
 10
187.4805
 20
-11.8735
 30
0.0
 10
187.4805
 20
-11.8735
 30
0.0
 10
187.4805
 20
-11.8735
 30
0.0
 10
187.4805
 20
-11.8735
 30
0.0
 10
185.98
 20
-11.8735
 30
0.0
 10
185.98
 20
-11.8735
 30
0.0
 10
185.98
 20
-11.8735
 30
0.0
 10
182.1031
 20
-26.6295
 30
0.0
 10
172.7245
 20
-39.7596
 30
0.0
 10
161.0949
 20
-47.7629
 30
0.0
 10
161.0949
 20
-47.7629
 30
0.0
 10
161.0949
 20
-47.888
 30
0.0
 10
161.22
 20
-48.1383
 30
0.0
 10
161.3448
 20
-48.2631
 30
0.0
 10
161.3448
 20
-48.2631
 30
0.0
 10
176.8512
 20
-47.2627
 30
0.0
 10
182.3534
 20
-52.3898
 30
0.0
 10
185.98
 20
-62.644
 30
0.0
 10
185.98
 20
-62.644
 30
0.0
 10
185.98
 20
-62.644
 30
0.0
 10
187.4805
 20
-62.5189
 30
0.0
 10
187.4805
 20
-62.5189
 30
0.0
  0
SPLINE
  5
61
330
1F
100
AcDbEntity
  8
layer 1
 62
     7
100
AcDbSpline
210
0.0
220
0.0
230
1.0
 70
    11
 71
     3
 72
    28
 73
    24
 74
     0
 42
0.0000000001
 43
0.0000000001
 12
1.0
 22
0.0
 32
0.0
 13
1.0
 23
0.0
 33
0.0
 40
0.0
 40
0.0
 40
0.0
 40
0.0
 40
0.1428571428571428
 40
0.1428571428571428
 40
0.1428571428571428
 40
0.1428571428571428
 40
0.2857142857142857
 40
0.2857142857142857
 40
0.2857142857142857
 40
0.2857142857142857
 40
0.4285714285714285
 40
0.4285714285714285
 40
0.4285714285714285
 40
0.4285714285714285
 40
0.5714285714285714
 40
0.5714285714285714
 40
0.5714285714285714
 40
0.5714285714285714
 40
0.7142857142857143
 40
0.7142857142857143
 40
0.7142857142857143
 40
0.7142857142857143
 40
1.0
 40
1.0
 40
1.0
 40
1.0
 10
187.4805
 20
79.2882
 30
0.0
 10
187.4805
 20
79.2882
 30
0.0
 10
187.4805
 20
28.6428
 30
0.0
 10
187.4805
 20
28.6428
 30
0.0
 10
187.4805
 20
28.6428
 30
0.0
 10
187.4805
 20
28.6428
 30
0.0
 10
185.98
 20
28.6428
 30
0.0
 10
185.98
 20
28.6428
 30
0.0
 10
185.98
 20
28.6428
 30
0.0
 10
182.1031
 20
43.3988
 30
0.0
 10
172.7245
 20
56.5288
 30
0.0
 10
161.0949
 20
64.5321
 30
0.0
 10
161.0949
 20
64.5321
 30
0.0
 10
161.0949
 20
64.6573
 30
0.0
 10
161.22
 20
64.9075
 30
0.0
 10
161.3448
 20
65.0323
 30
0.0
 10
161.3448
 20
65.0323
 30
0.0
 10
176.8512
 20
64.032
 30
0.0
 10
182.3534
 20
69.1591
 30
0.0
 10
185.98
 20
79.4133
 30
0.0
 10
185.98
 20
79.4133
 30
0.0
 10
185.98
 20
79.4133
 30
0.0
 10
187.4805
 20
79.2882
 30
0.0
 10
187.4805
 20
79.2882
 30
0.0
  0
SPLINE
  5
62
330
1F
100
AcDbEntity
  8
layer 1
 62
     7
100
AcDbSpline
210
0.0
220
0.0
230
1.0
 70
    11
 71
     3
 72
    24
 73
    20
 74
     0
 42
0.0000000001
 43
0.0000000001
 12
1.0
 22
0.0
 32
0.0
 13
1.0
 23
0.0
 33
0.0
 40
0.0
 40
0.0
 40
0.0
 40
0.0
 40
0.1666666666666667
 40
0.1666666666666667
 40
0.1666666666666667
 40
0.1666666666666667
 40
0.3333333333333333
 40
0.3333333333333333
 40
0.3333333333333333
 40
0.3333333333333333
 40
0.5
 40
0.5
 40
0.5
 40
0.5
 40
0.6666666666666666
 40
0.6666666666666666
 40
0.6666666666666666
 40
0.6666666666666666
 40
1.0
 40
1.0
 40
1.0
 40
1.0
 10
51.0504
 20
-86.4912
 30
0.0
 10
51.0504
 20
-86.4912
 30
0.0
 10
51.0504
 20
-74.4111
 30
0.0
 10
51.0504
 20
-74.4111
 30
0.0
 10
51.0504
 20
-74.4111
 30
0.0
 10
51.0504
 20
-74.4111
 30
0.0
 10
52.5513
 20
-74.4111
 30
0.0
 10
52.5513
 20
-74.4111
 30
0.0
 10
52.5513
 20
-74.4111
 30
0.0
 10
53.3013
 20
-79.8885
 30
0.0
 10
56.5529
 20
-83.765
 30
0.0
 10
62.4301
 20
-84.6154
 30
0.0
 10
62.4301
 20
-84.6154
 30
0.0
 10
62.4301
 20
-84.6154
 30
0.0
 10
62.4301
 20
-86.4285
 30
0.0
 10
62.4301
 20
-86.4285
 30
0.0
 10
62.4301
 20
-86.4285
 30
0.0
 10
62.4301
 20
-86.4285
 30
0.0
 10
51.0504
 20
-86.4912
 30
0.0
 10
51.0504
 20
-86.4912
 30
0.0
  0
SPLINE
  5
63
330
1F
100
AcDbEntity
  8
layer 1
 62
     7
100
AcDbSpline
210
0.0
220
0.0
230
1.0
 70
    11
 71
     3
 72
    24
 73
    20
 74
     0
 42
0.0000000001
 43
0.0000000001
 12
1.0
 22
0.0
 32
0.0
 13
1.0
 23
0.0
 33
0.0
 40
0.0
 40
0.0
 40
0.0
 40
0.0
 40
0.1666666666666667
 40
0.1666666666666667
 40
0.1666666666666667
 40
0.1666666666666667
 40
0.3333333333333333
 40
0.3333333333333333
 40
0.3333333333333333
 40
0.3333333333333333
 40
0.5
 40
0.5
 40
0.5
 40
0.5
 40
0.6666666666666666
 40
0.6666666666666666
 40
0.6666666666666666
 40
0.6666666666666666
 40
1.0
 40
1.0
 40
1.0
 40
1.0
 10
51.0504
 20
103.2977
 30
0.0
 10
51.0504
 20
103.2977
 30
0.0
 10
51.0504
 20
91.168
 30
0.0
 10
51.0504
 20
91.168
 30
0.0
 10
51.0504
 20
91.168
 30
0.0
 10
51.0504
 20
91.168
 30
0.0
 10
52.5513
 20
91.168
 30
0.0
 10
52.5513
 20
91.168
 30
0.0
 10
52.5513
 20
91.168
 30
0.0
 10
53.3013
 20
96.6701
 30
0.0
 10
56.5529
 20
100.5466
 30
0.0
 10
62.4301
 20
101.4222
 30
0.0
 10
62.4301
 20
101.4222
 30
0.0
 10
62.4301
 20
101.4222
 30
0.0
 10
62.4301
 20
103.1729
 30
0.0
 10
62.4301
 20
103.1729
 30
0.0
 10
62.4301
 20
103.1729
 30
0.0
 10
62.4301
 20
103.1729
 30
0.0
 10
51.0504
 20
103.2977
 30
0.0
 10
51.0504
 20
103.2977
 30
0.0
  0
SPLINE
  5
64
330
1F
100
AcDbEntity
  8
layer 1
 62
     7
100
AcDbSpline
210
0.0
220
0.0
230
1.0
 70
    11
 71
     3
 72
    24
 73
    20
 74
     0
 42
0.0000000001
 43
0.0000000001
 12
1.0
 22
0.0
 32
0.0
 13
1.0
 23
0.0
 33
0.0
 40
0.0
 40
0.0
 40
0.0
 40
0.0
 40
0.1666666666666667
 40
0.1666666666666667
 40
0.1666666666666667
 40
0.1666666666666667
 40
0.3333333333333333
 40
0.3333333333333333
 40
0.3333333333333333
 40
0.3333333333333333
 40
0.5
 40
0.5
 40
0.5
 40
0.5
 40
0.6666666666666666
 40
0.6666666666666666
 40
0.6666666666666666
 40
0.6666666666666666
 40
1.0
 40
1.0
 40
1.0
 40
1.0
 10
187.6056
 20
-86.4912
 30
0.0
 10
187.6056
 20
-86.4912
 30
0.0
 10
187.6056
 20
-74.4111
 30
0.0
 10
187.6056
 20
-74.4111
 30
0.0
 10
187.6056
 20
-74.4111
 30
0.0
 10
187.6056
 20
-74.4111
 30
0.0
 10
185.98
 20
-74.4111
 30
0.0
 10
185.98
 20
-74.4111
 30
0.0
 10
185.98
 20
-74.4111
 30
0.0
 10
185.3547
 20
-79.8885
 30
0.0
 10
181.9783
 20
-83.765
 30
0.0
 10
176.226
 20
-84.6154
 30
0.0
 10
176.226
 20
-84.6154
 30
0.0
 10
176.226
 20
-84.6154
 30
0.0
 10
176.226
 20
-86.4285
 30
0.0
 10
176.226
 20
-86.4285
 30
0.0
 10
176.226
 20
-86.4285
 30
0.0
 10
176.226
 20
-86.4285
 30
0.0
 10
187.6056
 20
-86.4912
 30
0.0
 10
187.6056
 20
-86.4912
 30
0.0
  0
SPLINE
  5
65
330
1F
100
AcDbEntity
  8
layer 1
 62
     7
100
AcDbSpline
210
0.0
220
0.0
230
1.0
 70
    11
 71
     3
 72
    24
 73
    20
 74
     0
 42
0.0000000001
 43
0.0000000001
 12
1.0
 22
0.0
 32
0.0
 13
1.0
 23
0.0
 33
0.0
 40
0.0
 40
0.0
 40
0.0
 40
0.0
 40
0.1666666666666667
 40
0.1666666666666667
 40
0.1666666666666667
 40
0.1666666666666667
 40
0.3333333333333333
 40
0.3333333333333333
 40
0.3333333333333333
 40
0.3333333333333333
 40
0.5
 40
0.5
 40
0.5
 40
0.5
 40
0.6666666666666666
 40
0.6666666666666666
 40
0.6666666666666666
 40
0.6666666666666666
 40
1.0
 40
1.0
 40
1.0
 40
1.0
 10
187.6056
 20
103.2977
 30
0.0
 10
187.6056
 20
103.2977
 30
0.0
 10
187.6056
 20
91.168
 30
0.0
 10
187.6056
 20
91.168
 30
0.0
 10
187.6056
 20
91.168
 30
0.0
 10
187.6056
 20
91.168
 30
0.0
 10
185.98
 20
91.168
 30
0.0
 10
185.98
 20
91.168
 30
0.0
 10
185.98
 20
91.168
 30
0.0
 10
185.3547
 20
96.6701
 30
0.0
 10
181.9783
 20
100.5466
 30
0.0
 10
176.226
 20
101.4222
 30
0.0
 10
176.226
 20
101.4222
 30
0.0
 10
176.226
 20
101.4222
 30
0.0
 10
176.226
 20
103.1729
 30
0.0
 10
176.226
 20
103.1729
 30
0.0
 10
176.226
 20
103.1729
 30
0.0
 10
176.226
 20
103.1729
 30
0.0
 10
187.6056
 20
103.2977
 30
0.0
 10
187.6056
 20
103.2977
 30
0.0
  0
SPLINE
  5
66
330
1F
100
AcDbEntity
  8
layer 1
 62
     7
100
AcDbSpline
210
0.0
220
0.0
230
1.0
 70
    11
 71
     3
 72
    60
 73
    56
 74
     0
 42
0.0000000001
 43
0.0000000001
 12
1.0
 22
0.0
 32
0.0
 13
1.0
 23
0.0
 33
0.0
 40
0.0
 40
0.0
 40
0.0
 40
0.0
 40
0.0666666666666667
 40
0.0666666666666667
 40
0.0666666666666667
 40
0.0666666666666667
 40
0.1333333333333333
 40
0.1333333333333333
 40
0.1333333333333333
 40
0.1333333333333333
 40
0.2
 40
0.2
 40
0.2
 40
0.2
 40
0.2666666666666667
 40
0.2666666666666667
 40
0.2666666666666667
 40
0.2666666666666667
 40
0.3333333333333333
 40
0.3333333333333333
 40
0.3333333333333333
 40
0.3333333333333333
 40
0.4
 40
0.4
 40
0.4
 40
0.4
 40
0.4666666666666667
 40
0.4666666666666667
 40
0.4666666666666667
 40
0.4666666666666667
 40
0.5333333333333333
 40
0.5333333333333333
 40
0.5333333333333333
 40
0.5333333333333333
 40
0.6
 40
0.6
 40
0.6
 40
0.6
 40
0.6666666666666666
 40
0.6666666666666666
 40
0.6666666666666666
 40
0.6666666666666666
 40
0.7333333333333333
 40
0.7333333333333333
 40
0.7333333333333333
 40
0.7333333333333333
 40
0.8
 40
0.8
 40
0.8
 40
0.8
 40
0.8666666666666667
 40
0.8666666666666667
 40
0.8666666666666667
 40
0.8666666666666667
 40
1.0
 40
1.0
 40
1.0
 40
1.0
 10
96.1937
 20
-86.4912
 30
0.0
 10
96.1937
 20
-86.4912
 30
0.0
 10
72.3093
 20
-86.4912
 30
0.0
 10
72.3093
 20
-86.4912
 30
0.0
 10
72.3093
 20
-86.4912
 30
0.0
 10
72.3093
 20
-86.4912
 30
0.0
 10
72.3093
 20
-85.0156
 30
0.0
 10
72.3093
 20
-85.0156
 30
0.0
 10
72.3093
 20
-85.0156
 30
0.0
 10
87.0649
 20
-81.0139
 30
0.0
 10
83.0633
 20
-56.1412
 30
0.0
 10
68.0573
 20
-59.0174
 30
0.0
 10
68.0573
 20
-59.0174
 30
0.0
 10
55.9276
 20
-61.1432
 30
0.0
 10
60.3043
 20
-78.8254
 30
0.0
 10
68.4324
 20
-77.0998
 30
0.0
 10
68.4324
 20
-77.0998
 30
0.0
 10
69.3079
 20
-76.8995
 30
0.0
 10
69.8081
 20
-75.962
 30
0.0
 10
69.5578
 20
-75.0116
 30
0.0
 10
69.5578
 20
-75.0116
 30
0.0
 10
69.3079
 20
-73.5232
 30
0.0
 10
67.3069
 20
-74.1736
 30
0.0
 10
65.9316
 20
-73.023
 30
0.0
 10
65.9316
 20
-73.023
 30
0.0
 10
62.8051
 20
-70.5222
 30
0.0
 10
63.1805
 20
-64.7698
 30
0.0
 10
67.3069
 20
-63.3941
 30
0.0
 10
67.3069
 20
-63.3941
 30
0.0
 10
73.6846
 20
-61.2683
 30
0.0
 10
80.4373
 20
-67.646
 30
0.0
 10
77.436
 20
-75.9992
 30
0.0
 10
77.436
 20
-75.9992
 30
0.0
 10
76.0606
 20
-79.7509
 30
0.0
 10
72.059
 20
-82.8898
 30
0.0
 10
67.1822
 20
-82.6647
 30
0.0
 10
67.1822
 20
-82.6647
 30
0.0
 10
57.303
 20
-82.1394
 30
0.0
 10
53.9266
 20
-74.0361
 30
0.0
 10
55.3023
 20
-65.645
 30
0.0
 10
55.3023
 20
-65.645
 30
0.0
 10
56.6777
 20
-57.6421
 30
0.0
 10
63.3056
 20
-51.2644
 30
0.0
 10
71.684
 20
-52.1396
 30
0.0
 10
71.684
 20
-52.1396
 30
0.0
 10
82.9385
 20
-53.265
 30
0.0
 10
88.4406
 20
-58.8923
 30
0.0
 10
89.5661
 20
-75.8492
 30
0.0
 10
89.5661
 20
-75.8492
 30
0.0
 10
89.6912
 20
-79.4383
 30
0.0
 10
92.8173
 20
-83.4272
 30
0.0
 10
96.1937
 20
-84.5026
 30
0.0
 10
96.1937
 20
-84.5026
 30
0.0
 10
96.1937
 20
-84.5026
 30
0.0
 10
96.1937
 20
-86.4912
 30
0.0
 10
96.1937
 20
-86.4912
 30
0.0
  0
SPLINE
  5
67
330
1F
100
AcDbEntity
  8
layer 1
 62
     7
100
AcDbSpline
210
0.0
220
0.0
230
1.0
 70
    11
 71
     3
 72
    60
 73
    56
 74
     0
 42
0.0000000001
 43
0.0000000001
 12
1.0
 22
0.0
 32
0.0
 13
1.0
 23
0.0
 33
0.0
 40
0.0
 40
0.0
 40
0.0
 40
0.0
 40
0.0666666666666667
 40
0.0666666666666667
 40
0.0666666666666667
 40
0.0666666666666667
 40
0.1333333333333333
 40
0.1333333333333333
 40
0.1333333333333333
 40
0.1333333333333333
 40
0.2
 40
0.2
 40
0.2
 40
0.2
 40
0.2666666666666667
 40
0.2666666666666667
 40
0.2666666666666667
 40
0.2666666666666667
 40
0.3333333333333333
 40
0.3333333333333333
 40
0.3333333333333333
 40
0.3333333333333333
 40
0.4
 40
0.4
 40
0.4
 40
0.4
 40
0.4666666666666667
 40
0.4666666666666667
 40
0.4666666666666667
 40
0.4666666666666667
 40
0.5333333333333333
 40
0.5333333333333333
 40
0.5333333333333333
 40
0.5333333333333333
 40
0.6
 40
0.6
 40
0.6
 40
0.6
 40
0.6666666666666666
 40
0.6666666666666666
 40
0.6666666666666666
 40
0.6666666666666666
 40
0.7333333333333333
 40
0.7333333333333333
 40
0.7333333333333333
 40
0.7333333333333333
 40
0.8
 40
0.8
 40
0.8
 40
0.8
 40
0.8666666666666667
 40
0.8666666666666667
 40
0.8666666666666667
 40
0.8666666666666667
 40
1.0
 40
1.0
 40
1.0
 40
1.0
 10
96.1937
 20
103.2977
 30
0.0
 10
96.1937
 20
103.2977
 30
0.0
 10
72.3093
 20
103.2977
 30
0.0
 10
72.3093
 20
103.2977
 30
0.0
 10
72.3093
 20
103.2977
 30
0.0
 10
72.3093
 20
103.2977
 30
0.0
 10
72.3093
 20
101.7972
 30
0.0
 10
72.3093
 20
101.7972
 30
0.0
 10
72.3093
 20
101.7972
 30
0.0
 10
87.0649
 20
97.7956
 30
0.0
 10
83.0633
 20
72.9105
 30
0.0
 10
68.0573
 20
75.7867
 30
0.0
 10
68.0573
 20
75.7867
 30
0.0
 10
55.9276
 20
77.9124
 30
0.0
 10
60.3043
 20
95.5447
 30
0.0
 10
68.4324
 20
93.7939
 30
0.0
 10
68.4324
 20
93.7939
 30
0.0
 10
69.3079
 20
93.6688
 30
0.0
 10
69.8081
 20
92.6685
 30
0.0
 10
69.5578
 20
91.7933
 30
0.0
 10
69.5578
 20
91.7933
 30
0.0
 10
69.3079
 20
90.2924
 30
0.0
 10
67.3069
 20
90.9177
 30
0.0
 10
65.9316
 20
89.7923
 30
0.0
 10
65.9316
 20
89.7923
 30
0.0
 10
62.8051
 20
87.2915
 30
0.0
 10
63.1805
 20
81.5391
 30
0.0
 10
67.3069
 20
80.1634
 30
0.0
 10
67.3069
 20
80.1634
 30
0.0
 10
73.6846
 20
77.9124
 30
0.0
 10
80.4373
 20
84.4153
 30
0.0
 10
77.436
 20
92.7936
 30
0.0
 10
77.436
 20
92.7936
 30
0.0
 10
76.0606
 20
96.545
 30
0.0
 10
72.059
 20
99.6714
 30
0.0
 10
67.1822
 20
99.4212
 30
0.0
 10
67.1822
 20
99.4212
 30
0.0
 10
57.303
 20
98.921
 30
0.0
 10
53.9266
 20
90.7929
 30
0.0
 10
55.3023
 20
82.4143
 30
0.0
 10
55.3023
 20
82.4143
 30
0.0
 10
56.6777
 20
74.4113
 30
0.0
 10
63.3056
 20
68.0336
 30
0.0
 10
71.684
 20
68.9088
 30
0.0
 10
71.684
 20
68.9088
 30
0.0
 10
82.9385
 20
70.0343
 30
0.0
 10
88.4406
 20
75.6615
 30
0.0
 10
89.5661
 20
92.5433
 30
0.0
 10
89.5661
 20
92.5433
 30
0.0
 10
89.6912
 20
96.17
 30
0.0
 10
92.8173
 20
100.1716
 30
0.0
 10
96.1937
 20
101.2971
 30
0.0
 10
96.1937
 20
101.2971
 30
0.0
 10
96.1937
 20
101.2971
 30
0.0
 10
96.1937
 20
103.2977
 30
0.0
 10
96.1937
 20
103.2977
 30
0.0
  0
SPLINE
  5
68
330
1F
100
AcDbEntity
  8
layer 1
 62
     7
100
AcDbSpline
210
0.0
220
0.0
230
1.0
 70
    11
 71
     3
 72
    60
 73
    56
 74
     0
 42
0.0000000001
 43
0.0000000001
 12
1.0
 22
0.0
 32
0.0
 13
1.0
 23
0.0
 33
0.0
 40
0.0
 40
0.0
 40
0.0
 40
0.0
 40
0.0666666666666667
 40
0.0666666666666667
 40
0.0666666666666667
 40
0.0666666666666667
 40
0.1333333333333333
 40
0.1333333333333333
 40
0.1333333333333333
 40
0.1333333333333333
 40
0.2
 40
0.2
 40
0.2
 40
0.2
 40
0.2666666666666667
 40
0.2666666666666667
 40
0.2666666666666667
 40
0.2666666666666667
 40
0.3333333333333333
 40
0.3333333333333333
 40
0.3333333333333333
 40
0.3333333333333333
 40
0.4
 40
0.4
 40
0.4
 40
0.4
 40
0.4666666666666667
 40
0.4666666666666667
 40
0.4666666666666667
 40
0.4666666666666667
 40
0.5333333333333333
 40
0.5333333333333333
 40
0.5333333333333333
 40
0.5333333333333333
 40
0.6
 40
0.6
 40
0.6
 40
0.6
 40
0.6666666666666666
 40
0.6666666666666666
 40
0.6666666666666666
 40
0.6666666666666666
 40
0.7333333333333333
 40
0.7333333333333333
 40
0.7333333333333333
 40
0.7333333333333333
 40
0.8
 40
0.8
 40
0.8
 40
0.8
 40
0.8666666666666667
 40
0.8666666666666667
 40
0.8666666666666667
 40
0.8666666666666667
 40
1.0
 40
1.0
 40
1.0
 40
1.0
 10
142.4624
 20
-86.4912
 30
0.0
 10
142.4624
 20
-86.4912
 30
0.0
 10
166.3468
 20
-86.4912
 30
0.0
 10
166.3468
 20
-86.4912
 30
0.0
 10
166.3468
 20
-86.4912
 30
0.0
 10
166.3468
 20
-86.4912
 30
0.0
 10
166.3468
 20
-85.0156
 30
0.0
 10
166.3468
 20
-85.0156
 30
0.0
 10
166.3468
 20
-85.0156
 30
0.0
 10
151.5911
 20
-81.0139
 30
0.0
 10
155.5928
 20
-56.1412
 30
0.0
 10
170.5987
 20
-59.0174
 30
0.0
 10
170.5987
 20
-59.0174
 30
0.0
 10
182.7284
 20
-61.1432
 30
0.0
 10
178.3517
 20
-78.8254
 30
0.0
 10
170.2237
 20
-77.0998
 30
0.0
 10
170.2237
 20
-77.0998
 30
0.0
 10
169.3481
 20
-76.8995
 30
0.0
 10
168.8479
 20
-75.962
 30
0.0
 10
169.0982
 20
-75.0116
 30
0.0
 10
169.0982
 20
-75.0116
 30
0.0
 10
169.3481
 20
-73.5232
 30
0.0
 10
171.3491
 20
-74.1736
 30
0.0
 10
172.7245
 20
-73.023
 30
0.0
 10
172.7245
 20
-73.023
 30
0.0
 10
175.8509
 20
-70.5222
 30
0.0
 10
175.4755
 20
-64.7698
 30
0.0
 10
171.3491
 20
-63.3941
 30
0.0
 10
171.3491
 20
-63.3941
 30
0.0
 10
164.9714
 20
-61.2683
 30
0.0
 10
158.2187
 20
-67.646
 30
0.0
 10
161.22
 20
-75.9992
 30
0.0
 10
161.22
 20
-75.9992
 30
0.0
 10
162.5954
 20
-79.7509
 30
0.0
 10
166.597
 20
-82.8898
 30
0.0
 10
171.3491
 20
-82.6647
 30
0.0
 10
171.3491
 20
-82.6647
 30
0.0
 10
181.3531
 20
-82.1394
 30
0.0
 10
184.7294
 20
-74.0361
 30
0.0
 10
183.3537
 20
-65.645
 30
0.0
 10
183.3537
 20
-65.645
 30
0.0
 10
181.9783
 20
-57.6421
 30
0.0
 10
175.2256
 20
-51.2644
 30
0.0
 10
166.9721
 20
-52.1396
 30
0.0
 10
166.9721
 20
-52.1396
 30
0.0
 10
155.5928
 20
-53.265
 30
0.0
 10
150.2154
 20
-58.8923
 30
0.0
 10
149.09
 20
-75.8492
 30
0.0
 10
149.09
 20
-75.8492
 30
0.0
 10
148.8401
 20
-79.4383
 30
0.0
 10
145.8387
 20
-83.4272
 30
0.0
 10
142.4624
 20
-84.5026
 30
0.0
 10
142.4624
 20
-84.5026
 30
0.0
 10
142.4624
 20
-84.5026
 30
0.0
 10
142.4624
 20
-86.4912
 30
0.0
 10
142.4624
 20
-86.4912
 30
0.0
  0
SPLINE
  5
69
330
1F
100
AcDbEntity
  8
layer 1
 62
     7
100
AcDbSpline
210
0.0
220
0.0
230
1.0
 70
    11
 71
     3
 72
    60
 73
    56
 74
     0
 42
0.0000000001
 43
0.0000000001
 12
1.0
 22
0.0
 32
0.0
 13
1.0
 23
0.0
 33
0.0
 40
0.0
 40
0.0
 40
0.0
 40
0.0
 40
0.0666666666666667
 40
0.0666666666666667
 40
0.0666666666666667
 40
0.0666666666666667
 40
0.1333333333333333
 40
0.1333333333333333
 40
0.1333333333333333
 40
0.1333333333333333
 40
0.2
 40
0.2
 40
0.2
 40
0.2
 40
0.2666666666666667
 40
0.2666666666666667
 40
0.2666666666666667
 40
0.2666666666666667
 40
0.3333333333333333
 40
0.3333333333333333
 40
0.3333333333333333
 40
0.3333333333333333
 40
0.4
 40
0.4
 40
0.4
 40
0.4
 40
0.4666666666666667
 40
0.4666666666666667
 40
0.4666666666666667
 40
0.4666666666666667
 40
0.5333333333333333
 40
0.5333333333333333
 40
0.5333333333333333
 40
0.5333333333333333
 40
0.6
 40
0.6
 40
0.6
 40
0.6
 40
0.6666666666666666
 40
0.6666666666666666
 40
0.6666666666666666
 40
0.6666666666666666
 40
0.7333333333333333
 40
0.7333333333333333
 40
0.7333333333333333
 40
0.7333333333333333
 40
0.8
 40
0.8
 40
0.8
 40
0.8
 40
0.8666666666666667
 40
0.8666666666666667
 40
0.8666666666666667
 40
0.8666666666666667
 40
1.0
 40
1.0
 40
1.0
 40
1.0
 10
142.4624
 20
103.2977
 30
0.0
 10
142.4624
 20
103.2977
 30
0.0
 10
166.3468
 20
103.2977
 30
0.0
 10
166.3468
 20
103.2977
 30
0.0
 10
166.3468
 20
103.2977
 30
0.0
 10
166.3468
 20
103.2977
 30
0.0
 10
166.3468
 20
101.7972
 30
0.0
 10
166.3468
 20
101.7972
 30
0.0
 10
166.3468
 20
101.7972
 30
0.0
 10
151.5911
 20
97.7956
 30
0.0
 10
155.5928
 20
72.9105
 30
0.0
 10
170.5987
 20
75.7867
 30
0.0
 10
170.5987
 20
75.7867
 30
0.0
 10
182.7284
 20
77.9124
 30
0.0
 10
178.3517
 20
95.5447
 30
0.0
 10
170.2237
 20
93.7939
 30
0.0
 10
170.2237
 20
93.7939
 30
0.0
 10
169.3481
 20
93.6688
 30
0.0
 10
168.8479
 20
92.6685
 30
0.0
 10
169.0982
 20
91.7933
 30
0.0
 10
169.0982
 20
91.7933
 30
0.0
 10
169.3481
 20
90.2924
 30
0.0
 10
171.3491
 20
90.9177
 30
0.0
 10
172.7245
 20
89.7923
 30
0.0
 10
172.7245
 20
89.7923
 30
0.0
 10
175.8509
 20
87.2915
 30
0.0
 10
175.4755
 20
81.5391
 30
0.0
 10
171.3491
 20
80.1634
 30
0.0
 10
171.3491
 20
80.1634
 30
0.0
 10
164.9714
 20
77.9124
 30
0.0
 10
158.2187
 20
84.4153
 30
0.0
 10
161.22
 20
92.7936
 30
0.0
 10
161.22
 20
92.7936
 30
0.0
 10
162.5954
 20
96.545
 30
0.0
 10
166.597
 20
99.6714
 30
0.0
 10
171.3491
 20
99.4212
 30
0.0
 10
171.3491
 20
99.4212
 30
0.0
 10
181.3531
 20
98.921
 30
0.0
 10
184.7294
 20
90.7929
 30
0.0
 10
183.3537
 20
82.4143
 30
0.0
 10
183.3537
 20
82.4143
 30
0.0
 10
181.9783
 20
74.4113
 30
0.0
 10
175.2256
 20
68.0336
 30
0.0
 10
166.9721
 20
68.9088
 30
0.0
 10
166.9721
 20
68.9088
 30
0.0
 10
155.5928
 20
70.0343
 30
0.0
 10
150.2154
 20
75.6615
 30
0.0
 10
149.09
 20
92.5433
 30
0.0
 10
149.09
 20
92.5433
 30
0.0
 10
148.8401
 20
96.17
 30
0.0
 10
145.8387
 20
100.1716
 30
0.0
 10
142.4624
 20
101.2971
 30
0.0
 10
142.4624
 20
101.2971
 30
0.0
 10
142.4624
 20
101.2971
 30
0.0
 10
142.4624
 20
103.2977
 30
0.0
 10
142.4624
 20
103.2977
 30
0.0
  0
SPLINE
  5
6A
330
1F
100
AcDbEntity
  8
layer 1
 62
     7
100
AcDbSpline
210
0.0
220
0.0
230
1.0
 70
    11
 71
     3
 72
    44
 73
    40
 74
     0
 42
0.0000000001
 43
0.0000000001
 12
1.0
 22
0.0
 32
0.0
 13
1.0
 23
0.0
 33
0.0
 40
0.0
 40
0.0
 40
0.0
 40
0.0
 40
0.0909090909090909
 40
0.0909090909090909
 40
0.0909090909090909
 40
0.0909090909090909
 40
0.1818181818181818
 40
0.1818181818181818
 40
0.1818181818181818
 40
0.1818181818181818
 40
0.2727272727272727
 40
0.2727272727272727
 40
0.2727272727272727
 40
0.2727272727272727
 40
0.3636363636363636
 40
0.3636363636363636
 40
0.3636363636363636
 40
0.3636363636363636
 40
0.4545454545454545
 40
0.4545454545454545
 40
0.4545454545454545
 40
0.4545454545454545
 40
0.5454545454545454
 40
0.5454545454545454
 40
0.5454545454545454
 40
0.5454545454545454
 40
0.6363636363636364
 40
0.6363636363636364
 40
0.6363636363636364
 40
0.6363636363636364
 40
0.7272727272727273
 40
0.7272727272727273
 40
0.7272727272727273
 40
0.7272727272727273
 40
0.8181818181818182
 40
0.8181818181818182
 40
0.8181818181818182
 40
0.8181818181818182
 40
1.0
 40
1.0
 40
1.0
 40
1.0
 10
106.6978
 20
-72.2729
 30
0.0
 10
106.0728
 20
-70.8972
 30
0.0
 10
103.9467
 20
-71.2723
 30
0.0
 10
102.9464
 20
-70.6473
 30
0.0
 10
102.9464
 20
-70.6473
 30
0.0
 10
101.0705
 20
-69.3968
 30
0.0
 10
101.1956
 20
-66.2703
 30
0.0
 10
101.571
 20
-65.27
 30
0.0
 10
101.571
 20
-65.27
 30
0.0
 10
103.6968
 20
-60.268
 30
0.0
 10
112.0751
 20
-63.5192
 30
0.0
 10
114.576
 20
-67.271
 30
0.0
 10
114.576
 20
-67.271
 30
0.0
 10
117.4521
 20
-71.6477
 30
0.0
 10
117.0771
 20
-82.1394
 30
0.0
 10
107.1983
 20
-83.765
 30
0.0
 10
107.1983
 20
-83.765
 30
0.0
 10
96.4439
 20
-85.0655
 30
0.0
 10
91.3168
 20
-77.7499
 30
0.0
 10
92.0669
 20
-64.1445
 30
0.0
 10
92.0669
 20
-64.1445
 30
0.0
 10
92.3172
 20
-59.893
 30
0.0
 10
87.4403
 20
-58.3921
 30
0.0
 10
86.4396
 20
-53.265
 30
0.0
 10
86.4396
 20
-53.265
 30
0.0
 10
90.9414
 20
-56.1412
 30
0.0
 10
96.0685
 20
-58.3921
 30
0.0
 10
102.196
 20
-59.3928
 30
0.0
 10
102.196
 20
-59.3928
 30
0.0
 10
99.195
 20
-62.3938
 30
0.0
 10
98.1947
 20
-65.5202
 30
0.0
 10
98.3194
 20
-68.2713
 30
0.0
 10
98.3194
 20
-68.2713
 30
0.0
 10
98.6948
 20
-73.5232
 30
0.0
 10
104.8223
 20
-76.1619
 30
0.0
 10
106.3227
 20
-74.5738
 30
0.0
 10
106.3227
 20
-74.5738
 30
0.0
 10
106.8229
 20
-74.1361
 30
0.0
 10
107.3231
 20
-73.3984
 30
0.0
 10
106.6978
 20
-72.2729
 30
0.0
  0
SPLINE
  5
6B
330
1F
100
AcDbEntity
  8
layer 1
 62
     7
100
AcDbSpline
210
0.0
220
0.0
230
1.0
 70
    11
 71
     3
 72
    44
 73
    40
 74
     0
 42
0.0000000001
 43
0.0000000001
 12
1.0
 22
0.0
 32
0.0
 13
1.0
 23
0.0
 33
0.0
 40
0.0
 40
0.0
 40
0.0
 40
0.0
 40
0.0909090909090909
 40
0.0909090909090909
 40
0.0909090909090909
 40
0.0909090909090909
 40
0.1818181818181818
 40
0.1818181818181818
 40
0.1818181818181818
 40
0.1818181818181818
 40
0.2727272727272727
 40
0.2727272727272727
 40
0.2727272727272727
 40
0.2727272727272727
 40
0.3636363636363636
 40
0.3636363636363636
 40
0.3636363636363636
 40
0.3636363636363636
 40
0.4545454545454545
 40
0.4545454545454545
 40
0.4545454545454545
 40
0.4545454545454545
 40
0.5454545454545454
 40
0.5454545454545454
 40
0.5454545454545454
 40
0.5454545454545454
 40
0.6363636363636364
 40
0.6363636363636364
 40
0.6363636363636364
 40
0.6363636363636364
 40
0.7272727272727273
 40
0.7272727272727273
 40
0.7272727272727273
 40
0.7272727272727273
 40
0.8181818181818182
 40
0.8181818181818182
 40
0.8181818181818182
 40
0.8181818181818182
 40
1.0
 40
1.0
 40
1.0
 40
1.0
 10
106.6978
 20
89.0422
 30
0.0
 10
106.0728
 20
87.6665
 30
0.0
 10
103.9467
 20
88.0415
 30
0.0
 10
102.9464
 20
87.4166
 30
0.0
 10
102.9464
 20
87.4166
 30
0.0
 10
101.0705
 20
86.166
 30
0.0
 10
101.1956
 20
83.0395
 30
0.0
 10
101.571
 20
82.0392
 30
0.0
 10
101.571
 20
82.0392
 30
0.0
 10
103.6968
 20
77.0373
 30
0.0
 10
112.0751
 20
80.2885
 30
0.0
 10
114.576
 20
83.9151
 30
0.0
 10
114.576
 20
83.9151
 30
0.0
 10
117.4521
 20
88.4169
 30
0.0
 10
117.0771
 20
98.921
 30
0.0
 10
107.1983
 20
100.5466
 30
0.0
 10
107.1983
 20
100.5466
 30
0.0
 10
96.4439
 20
101.7972
 30
0.0
 10
91.3168
 20
94.5443
 30
0.0
 10
92.0669
 20
80.9138
 30
0.0
 10
92.0669
 20
80.9138
 30
0.0
 10
92.3172
 20
76.6622
 30
0.0
 10
87.4403
 20
75.0366
 30
0.0
 10
86.4396
 20
70.0343
 30
0.0
 10
86.4396
 20
70.0343
 30
0.0
 10
90.9414
 20
72.9105
 30
0.0
 10
96.0685
 20
75.1614
 30
0.0
 10
102.196
 20
76.1621
 30
0.0
 10
102.196
 20
76.1621
 30
0.0
 10
99.195
 20
79.163
 30
0.0
 10
98.1947
 20
82.2895
 30
0.0
 10
98.3194
 20
85.0406
 30
0.0
 10
98.3194
 20
85.0406
 30
0.0
 10
98.6948
 20
90.2924
 30
0.0
 10
104.8223
 20
92.9187
 30
0.0
 10
106.3227
 20
91.2931
 30
0.0
 10
106.3227
 20
91.2931
 30
0.0
 10
106.8229
 20
90.9177
 30
0.0
 10
107.3231
 20
90.1677
 30
0.0
 10
106.6978
 20
89.0422
 30
0.0
  0
SPLINE
  5
6C
330
1F
100
AcDbEntity
  8
layer 1
 62
     7
100
AcDbSpline
210
0.0
220
0.0
230
1.0
 70
    11
 71
     3
 72
    44
 73
    40
 74
     0
 42
0.0000000001
 43
0.0000000001
 12
1.0
 22
0.0
 32
0.0
 13
1.0
 23
0.0
 33
0.0
 40
0.0
 40
0.0
 40
0.0
 40
0.0
 40
0.0909090909090909
 40
0.0909090909090909
 40
0.0909090909090909
 40
0.0909090909090909
 40
0.1818181818181818
 40
0.1818181818181818
 40
0.1818181818181818
 40
0.1818181818181818
 40
0.2727272727272727
 40
0.2727272727272727
 40
0.2727272727272727
 40
0.2727272727272727
 40
0.3636363636363636
 40
0.3636363636363636
 40
0.3636363636363636
 40
0.3636363636363636
 40
0.4545454545454545
 40
0.4545454545454545
 40
0.4545454545454545
 40
0.4545454545454545
 40
0.5454545454545454
 40
0.5454545454545454
 40
0.5454545454545454
 40
0.5454545454545454
 40
0.6363636363636364
 40
0.6363636363636364
 40
0.6363636363636364
 40
0.6363636363636364
 40
0.7272727272727273
 40
0.7272727272727273
 40
0.7272727272727273
 40
0.7272727272727273
 40
0.8181818181818182
 40
0.8181818181818182
 40
0.8181818181818182
 40
0.8181818181818182
 40
1.0
 40
1.0
 40
1.0
 40
1.0
 10
131.8331
 20
-72.2729
 30
0.0
 10
132.5832
 20
-70.8972
 30
0.0
 10
134.7093
 20
-71.2723
 30
0.0
 10
135.7097
 20
-70.6473
 30
0.0
 10
135.7097
 20
-70.6473
 30
0.0
 10
137.5855
 20
-69.3968
 30
0.0
 10
137.4604
 20
-66.2703
 30
0.0
 10
137.085
 20
-65.27
 30
0.0
 10
137.085
 20
-65.27
 30
0.0
 10
134.9592
 20
-60.268
 30
0.0
 10
126.4558
 20
-63.5192
 30
0.0
 10
124.0801
 20
-67.271
 30
0.0
 10
124.0801
 20
-67.271
 30
0.0
 10
121.2039
 20
-71.6477
 30
0.0
 10
121.5789
 20
-82.1394
 30
0.0
 10
131.4577
 20
-83.765
 30
0.0
 10
131.4577
 20
-83.765
 30
0.0
 10
142.2121
 20
-85.0655
 30
0.0
 10
147.2141
 20
-77.7499
 30
0.0
 10
146.5891
 20
-64.1445
 30
0.0
 10
146.5891
 20
-64.1445
 30
0.0
 10
146.3389
 20
-59.893
 30
0.0
 10
151.2157
 20
-58.3921
 30
0.0
 10
152.0913
 20
-53.265
 30
0.0
 10
152.0913
 20
-53.265
 30
0.0
 10
147.7146
 20
-56.1412
 30
0.0
 10
142.4624
 20
-58.3921
 30
0.0
 10
136.4601
 20
-59.3928
 30
0.0
 10
136.4601
 20
-59.3928
 30
0.0
 10
139.461
 20
-62.3938
 30
0.0
 10
140.4614
 20
-65.5202
 30
0.0
 10
140.3366
 20
-68.2713
 30
0.0
 10
140.3366
 20
-68.2713
 30
0.0
 10
139.9612
 20
-73.5232
 30
0.0
 10
133.8338
 20
-76.1619
 30
0.0
 10
132.3333
 20
-74.5738
 30
0.0
 10
132.3333
 20
-74.5738
 30
0.0
 10
131.8331
 20
-74.1361
 30
0.0
 10
131.2078
 20
-73.3984
 30
0.0
 10
131.8331
 20
-72.2729
 30
0.0
  0
SPLINE
  5
6D
330
1F
100
AcDbEntity
  8
layer 1
 62
     7
100
AcDbSpline
210
0.0
220
0.0
230
1.0
 70
    11
 71
     3
 72
    44
 73
    40
 74
     0
 42
0.0000000001
 43
0.0000000001
 12
1.0
 22
0.0
 32
0.0
 13
1.0
 23
0.0
 33
0.0
 40
0.0
 40
0.0
 40
0.0
 40
0.0
 40
0.0909090909090909
 40
0.0909090909090909
 40
0.0909090909090909
 40
0.0909090909090909
 40
0.1818181818181818
 40
0.1818181818181818
 40
0.1818181818181818
 40
0.1818181818181818
 40
0.2727272727272727
 40
0.2727272727272727
 40
0.2727272727272727
 40
0.2727272727272727
 40
0.3636363636363636
 40
0.3636363636363636
 40
0.3636363636363636
 40
0.3636363636363636
 40
0.4545454545454545
 40
0.4545454545454545
 40
0.4545454545454545
 40
0.4545454545454545
 40
0.5454545454545454
 40
0.5454545454545454
 40
0.5454545454545454
 40
0.5454545454545454
 40
0.6363636363636364
 40
0.6363636363636364
 40
0.6363636363636364
 40
0.6363636363636364
 40
0.7272727272727273
 40
0.7272727272727273
 40
0.7272727272727273
 40
0.7272727272727273
 40
0.8181818181818182
 40
0.8181818181818182
 40
0.8181818181818182
 40
0.8181818181818182
 40
1.0
 40
1.0
 40
1.0
 40
1.0
 10
131.8331
 20
89.0422
 30
0.0
 10
132.5832
 20
87.6665
 30
0.0
 10
134.7093
 20
88.0415
 30
0.0
 10
135.7097
 20
87.4166
 30
0.0
 10
135.7097
 20
87.4166
 30
0.0
 10
137.5855
 20
86.166
 30
0.0
 10
137.4604
 20
83.0395
 30
0.0
 10
137.085
 20
82.0392
 30
0.0
 10
137.085
 20
82.0392
 30
0.0
 10
134.9592
 20
77.0373
 30
0.0
 10
126.4558
 20
80.2885
 30
0.0
 10
124.0801
 20
83.9151
 30
0.0
 10
124.0801
 20
83.9151
 30
0.0
 10
121.2039
 20
88.4169
 30
0.0
 10
121.5789
 20
98.921
 30
0.0
 10
131.4577
 20
100.5466
 30
0.0
 10
131.4577
 20
100.5466
 30
0.0
 10
142.2121
 20
101.7972
 30
0.0
 10
147.2141
 20
94.5443
 30
0.0
 10
146.5891
 20
80.9138
 30
0.0
 10
146.5891
 20
80.9138
 30
0.0
 10
146.3389
 20
76.6622
 30
0.0
 10
151.2157
 20
75.0366
 30
0.0
 10
152.0913
 20
70.0343
 30
0.0
 10
152.0913
 20
70.0343
 30
0.0
 10
147.7146
 20
72.9105
 30
0.0
 10
142.4624
 20
75.1614
 30
0.0
 10
136.4601
 20
76.1621
 30
0.0
 10
136.4601
 20
76.1621
 30
0.0
 10
139.461
 20
79.163
 30
0.0
 10
140.4614
 20
82.2895
 30
0.0
 10
140.3366
 20
85.0406
 30
0.0
 10
140.3366
 20
85.0406
 30
0.0
 10
139.9612
 20
90.2924
 30
0.0
 10
133.8338
 20
92.9187
 30
0.0
 10
132.3333
 20
91.2931
 30
0.0
 10
132.3333
 20
91.2931
 30
0.0
 10
131.8331
 20
90.9177
 30
0.0
 10
131.2078
 20
90.1677
 30
0.0
 10
131.8331
 20
89.0422
 30
0.0
  0
SPLINE
  5
6E
330
1F
100
AcDbEntity
  8
layer 1
 62
     7
100
AcDbSpline
210
0.0
220
0.0
230
1.0
 70
    11
 71
     3
 72
    20
 73
    16
 74
     0
 42
0.0000000001
 43
0.0000000001
 12
1.0
 22
0.0
 32
0.0
 13
1.0
 23
0.0
 33
0.0
 40
0.0
 40
0.0
 40
0.0
 40
0.0
 40
0.2
 40
0.2
 40
0.2
 40
0.2
 40
0.4
 40
0.4
 40
0.4
 40
0.4
 40
0.6
 40
0.6
 40
0.6
 40
0.6
 40
1.0
 40
1.0
 40
1.0
 40
1.0
 10
110.9497
 20
8.3846
 30
0.0
 10
110.9497
 20
13.0116
 30
0.0
 10
114.7011
 20
16.6378
 30
0.0
 10
119.328
 20
16.6378
 30
0.0
 10
119.328
 20
16.6378
 30
0.0
 10
123.955
 20
16.6378
 30
0.0
 10
127.5812
 20
13.0116
 30
0.0
 10
127.5812
 20
8.3846
 30
0.0
 10
127.5812
 20
8.3846
 30
0.0
 10
127.5812
 20
3.7577
 30
0.0
 10
123.955
 20
0.0063
 30
0.0
 10
119.328
 20
0.0063
 30
0.0
 10
119.328
 20
0.0063
 30
0.0
 10
114.7011
 20
0.0063
 30
0.0
 10
110.9497
 20
3.7577
 30
0.0
 10
110.9497
 20
8.3846
 30
0.0
  0
SPLINE
  5
6F
330
1F
100
AcDbEntity
  8
layer 1
 62
     7
100
AcDbSpline
210
0.0
220
0.0
230
1.0
 70
    11
 71
     3
 72
    16
 73
    12
 74
     0
 42
0.0000000001
 43
0.0000000001
 12
1.0
 22
0.0
 32
0.0
 13
1.0
 23
0.0
 33
0.0
 40
0.0
 40
0.0
 40
0.0
 40
0.0
 40
0.25
 40
0.25
 40
0.25
 40
0.25
 40
0.5
 40
0.5
 40
0.5
 40
0.5
 40
1.0
 40
1.0
 40
1.0
 40
1.0
 10
112.0751
 20
-86.4912
 30
0.0
 10
112.0751
 20
-86.4912
 30
0.0
 10
126.4558
 20
-86.4912
 30
0.0
 10
126.4558
 20
-86.4912
 30
0.0
 10
126.4558
 20
-86.4912
 30
0.0
 10
123.3297
 20
-84.2403
 30
0.0
 10
120.4535
 20
-81.6768
 30
0.0
 10
119.2029
 20
-78.763
 30
0.0
 10
119.2029
 20
-78.763
 30
0.0
 10
117.3274
 20
-81.6892
 30
0.0
 10
114.576
 20
-84.1024
 30
0.0
 10
112.0751
 20
-86.4912
 30
0.0
  0
SPLINE
  5
70
330
1F
100
AcDbEntity
  8
layer 1
 62
     7
100
AcDbSpline
210
0.0
220
0.0
230
1.0
 70
    11
 71
     3
 72
    16
 73
    12
 74
     0
 42
0.0000000001
 43
0.0000000001
 12
1.0
 22
0.0
 32
0.0
 13
1.0
 23
0.0
 33
0.0
 40
0.0
 40
0.0
 40
0.0
 40
0.0
 40
0.25
 40
0.25
 40
0.25
 40
0.25
 40
0.5
 40
0.5
 40
0.5
 40
0.5
 40
1.0
 40
1.0
 40
1.0
 40
1.0
 10
112.0751
 20
103.1729
 30
0.0
 10
112.0751
 20
103.1729
 30
0.0
 10
126.4558
 20
103.1729
 30
0.0
 10
126.4558
 20
103.1729
 30
0.0
 10
126.4558
 20
103.1729
 30
0.0
 10
123.3297
 20
100.922
 30
0.0
 10
120.4535
 20
98.4209
 30
0.0
 10
119.2029
 20
95.4195
 30
0.0
 10
119.2029
 20
95.4195
 30
0.0
 10
117.3274
 20
98.4209
 30
0.0
 10
114.576
 20
100.7969
 30
0.0
 10
112.0751
 20
103.1729
 30
0.0
  0
SPLINE
  5
71
330
1F
100
AcDbEntity
  8
layer 1
 62
     7
100
AcDbSpline
210
0.0
220
0.0
230
1.0
 70
    11
 71
     3
 72
    16
 73
    12
 74
     0
 42
0.0000000001
 43
0.0000000001
 12
1.0
 22
0.0
 32
0.0
 13
1.0
 23
0.0
 33
0.0
 40
0.0
 40
0.0
 40
0.0
 40
0.0
 40
0.25
 40
0.25
 40
0.25
 40
0.25
 40
0.5
 40
0.5
 40
0.5
 40
0.5
 40
1.0
 40
1.0
 40
1.0
 40
1.0
 10
113.7008
 20
-61.1432
 30
0.0
 10
113.7008
 20
-61.1432
 30
0.0
 10
124.9553
 20
-61.1432
 30
0.0
 10
124.9553
 20
-61.1432
 30
0.0
 10
124.9553
 20
-61.1432
 30
0.0
 10
122.4541
 20
-63.2693
 30
0.0
 10
120.2032
 20
-65.7701
 30
0.0
 10
119.2029
 20
-68.6463
 30
0.0
 10
119.2029
 20
-68.6463
 30
0.0
 10
117.8275
 20
-65.7701
 30
0.0
 10
115.7014
 20
-63.3941
 30
0.0
 10
113.7008
 20
-61.1432
 30
0.0
  0
SPLINE
  5
72
330
1F
100
AcDbEntity
  8
layer 1
 62
     7
100
AcDbSpline
210
0.0
220
0.0
230
1.0
 70
    11
 71
     3
 72
    16
 73
    12
 74
     0
 42
0.0000000001
 43
0.0000000001
 12
1.0
 22
0.0
 32
0.0
 13
1.0
 23
0.0
 33
0.0
 40
0.0
 40
0.0
 40
0.0
 40
0.0
 40
0.25
 40
0.25
 40
0.25
 40
0.25
 40
0.5
 40
0.5
 40
0.5
 40
0.5
 40
1.0
 40
1.0
 40
1.0
 40
1.0
 10
113.7008
 20
77.7877
 30
0.0
 10
113.7008
 20
77.7877
 30
0.0
 10
124.9553
 20
77.7877
 30
0.0
 10
124.9553
 20
77.7877
 30
0.0
 10
124.9553
 20
77.7877
 30
0.0
 10
122.4541
 20
80.0386
 30
0.0
 10
120.2032
 20
82.5394
 30
0.0
 10
119.2029
 20
85.4156
 30
0.0
 10
119.2029
 20
85.4156
 30
0.0
 10
117.8275
 20
82.5394
 30
0.0
 10
115.7014
 20
80.1634
 30
0.0
 10
113.7008
 20
77.7877
 30
0.0
  0
SPLINE
  5
73
330
1F
100
AcDbEntity
  8
layer 1
 62
     7
100
AcDbSpline
210
0.0
220
0.0
230
1.0
 70
    11
 71
     3
 72
    16
 73
    12
 74
     0
 42
0.0000000001
 43
0.0000000001
 12
1.0
 22
0.0
 32
0.0
 13
1.0
 23
0.0
 33
0.0
 40
0.0
 40
0.0
 40
0.0
 40
0.0
 40
0.25
 40
0.25
 40
0.25
 40
0.25
 40
0.5
 40
0.5
 40
0.5
 40
0.5
 40
1.0
 40
1.0
 40
1.0
 40
1.0
 10
187.6056
 20
-96.1074
 30
0.0
 10
187.6056
 20
-96.1074
 30
0.0
 10
187.4805
 20
-103.6105
 30
0.0
 10
187.4805
 20
-103.6105
 30
0.0
 10
187.4805
 20
-103.6105
 30
0.0
 10
186.4802
 20
-102.2724
 30
0.0
 10
185.1045
 20
-100.3841
 30
0.0
 10
183.8539
 20
-99.734
 30
0.0
 10
183.8539
 20
-99.734
 30
0.0
 10
185.2296
 20
-98.9584
 30
0.0
 10
186.4802
 20
-97.3828
 30
0.0
 10
187.6056
 20
-96.1074
 30
0.0
  0
SPLINE
  5
74
330
1F
100
AcDbEntity
  8
layer 1
 62
     7
100
AcDbSpline
210
0.0
220
0.0
230
1.0
 70
    11
 71
     3
 72
    12
 73
     8
 74
     0
 42
0.0000000001
 43
0.0000000001
 12
1.0
 22
0.0
 32
0.0
 13
1.0
 23
0.0
 33
0.0
 40
0.0
 40
0.0
 40
0.0
 40
0.0
 40
0.3333333333333333
 40
0.3333333333333333
 40
0.3333333333333333
 40
0.3333333333333333
 40
1.0
 40
1.0
 40
1.0
 40
1.0
 10
145.5885
 20
-99.3962
 30
0.0
 10
139.461
 20
-95.9199
 30
0.0
 10
132.8335
 20
-96.8702
 30
0.0
 10
127.9566
 20
-99.3962
 30
0.0
 10
127.9566
 20
-99.3962
 30
0.0
 10
133.5839
 20
-102.9976
 30
0.0
 10
140.0863
 20
-102.7601
 30
0.0
 10
145.5885
 20
-99.3962
 30
0.0
  0
SPLINE
  5
75
330
1F
100
AcDbEntity
  8
layer 1
 62
     7
100
AcDbSpline
210
0.0
220
0.0
230
1.0
 70
    11
 71
     3
 72
    12
 73
     8
 74
     0
 42
0.0000000001
 43
0.0000000001
 12
1.0
 22
0.0
 32
0.0
 13
1.0
 23
0.0
 33
0.0
 40
0.0
 40
0.0
 40
0.0
 40
0.0
 40
0.3333333333333333
 40
0.3333333333333333
 40
0.3333333333333333
 40
0.3333333333333333
 40
1.0
 40
1.0
 40
1.0
 40
1.0
 10
161.3448
 20
-99.3962
 30
0.0
 10
167.4722
 20
-95.9199
 30
0.0
 10
174.1002
 20
-96.8702
 30
0.0
 10
178.977
 20
-99.3962
 30
0.0
 10
178.977
 20
-99.3962
 30
0.0
 10
173.3498
 20
-102.9976
 30
0.0
 10
166.8473
 20
-102.7601
 30
0.0
 10
161.3448
 20
-99.3962
 30
0.0
  0
SPLINE
  5
76
330
1F
100
AcDbEntity
  8
layer 1
 62
     7
100
AcDbSpline
210
0.0
220
0.0
230
1.0
 70
    11
 71
     3
 72
    20
 73
    16
 74
     0
 42
0.0000000001
 43
0.0000000001
 12
1.0
 22
0.0
 32
0.0
 13
1.0
 23
0.0
 33
0.0
 40
0.0
 40
0.0
 40
0.0
 40
0.0
 40
0.2
 40
0.2
 40
0.2
 40
0.2
 40
0.4
 40
0.4
 40
0.4
 40
0.4
 40
0.6
 40
0.6
 40
0.6
 40
0.6
 40
1.0
 40
1.0
 40
1.0
 40
1.0
 10
120.4535
 20
-91.4305
 30
0.0
 10
120.4535
 20
-91.4305
 30
0.0
 10
152.8413
 20
-91.4305
 30
0.0
 10
152.8413
 20
-91.4305
 30
0.0
 10
152.8413
 20
-91.4305
 30
0.0
 10
152.5914
 20
-93.3439
 30
0.0
 10
151.091
 20
-95.9698
 30
0.0
 10
147.8394
 20
-98.0456
 30
0.0
 10
147.8394
 20
-98.0456
 30
0.0
 10
140.0863
 20
-94.1067
 30
0.0
 10
133.7086
 20
-93.9192
 30
0.0
 10
125.9556
 20
-98.2831
 30
0.0
 10
125.9556
 20
-98.2831
 30
0.0
 10
122.8295
 20
-96.7203
 30
0.0
 10
121.3287
 20
-94.1315
 30
0.0
 10
120.4535
 20
-91.4305
 30
0.0
  0
SPLINE
  5
77
330
1F
100
AcDbEntity
  8
layer 1
 62
     7
100
AcDbSpline
210
0.0
220
0.0
230
1.0
 70
    11
 71
     3
 72
    20
 73
    16
 74
     0
 42
0.0000000001
 43
0.0000000001
 12
1.0
 22
0.0
 32
0.0
 13
1.0
 23
0.0
 33
0.0
 40
0.0
 40
0.0
 40
0.0
 40
0.0
 40
0.2
 40
0.2
 40
0.2
 40
0.2
 40
0.4
 40
0.4
 40
0.4
 40
0.4
 40
0.6
 40
0.6
 40
0.6
 40
0.6
 40
1.0
 40
1.0
 40
1.0
 40
1.0
 10
186.4802
 20
-91.4305
 30
0.0
 10
186.4802
 20
-91.4305
 30
0.0
 10
154.0919
 20
-91.4305
 30
0.0
 10
154.0919
 20
-91.4305
 30
0.0
 10
154.0919
 20
-91.4305
 30
0.0
 10
154.3422
 20
-93.3439
 30
0.0
 10
155.8427
 20
-95.9698
 30
0.0
 10
158.9691
 20
-98.0456
 30
0.0
 10
158.9691
 20
-98.0456
 30
0.0
 10
166.8473
 20
-94.1067
 30
0.0
 10
173.0995
 20
-93.9192
 30
0.0
 10
180.9777
 20
-98.2831
 30
0.0
 10
180.9777
 20
-98.2831
 30
0.0
 10
183.979
 20
-96.7203
 30
0.0
 10
185.6046
 20
-94.1315
 30
0.0
 10
186.4802
 20
-91.4305
 30
0.0
  0
SPLINE
  5
78
330
1F
100
AcDbEntity
  8
layer 1
 62
     7
100
AcDbSpline
210
0.0
220
0.0
230
1.0
 70
    11
 71
     3
 72
    20
 73
    16
 74
     0
 42
0.0000000001
 43
0.0000000001
 12
1.0
 22
0.0
 32
0.0
 13
1.0
 23
0.0
 33
0.0
 40
0.0
 40
0.0
 40
0.0
 40
0.0
 40
0.2
 40
0.2
 40
0.2
 40
0.2
 40
0.4
 40
0.4
 40
0.4
 40
0.4
 40
0.6
 40
0.6
 40
0.6
 40
0.6
 40
1.0
 40
1.0
 40
1.0
 40
1.0
 10
120.0784
 20
-107.3871
 30
0.0
 10
120.0784
 20
-107.3871
 30
0.0
 10
152.5914
 20
-107.3871
 30
0.0
 10
152.5914
 20
-107.3871
 30
0.0
 10
152.5914
 20
-107.3871
 30
0.0
 10
152.3412
 20
-105.5736
 30
0.0
 10
150.8407
 20
-103.0852
 30
0.0
 10
147.5895
 20
-101.1094
 30
0.0
 10
147.5895
 20
-101.1094
 30
0.0
 10
139.7113
 20
-104.8483
 30
0.0
 10
133.4587
 20
-105.0235
 30
0.0
 10
125.5806
 20
-100.8843
 30
0.0
 10
125.5806
 20
-100.8843
 30
0.0
 10
122.5793
 20
-102.3723
 30
0.0
 10
120.9536
 20
-104.8359
 30
0.0
 10
120.0784
 20
-107.3871
 30
0.0
  0
SPLINE
  5
79
330
1F
100
AcDbEntity
  8
layer 1
 62
     7
100
AcDbSpline
210
0.0
220
0.0
230
1.0
 70
    11
 71
     3
 72
    20
 73
    16
 74
     0
 42
0.0000000001
 43
0.0000000001
 12
1.0
 22
0.0
 32
0.0
 13
1.0
 23
0.0
 33
0.0
 40
0.0
 40
0.0
 40
0.0
 40
0.0
 40
0.2
 40
0.2
 40
0.2
 40
0.2
 40
0.4
 40
0.4
 40
0.4
 40
0.4
 40
0.6
 40
0.6
 40
0.6
 40
0.6
 40
1.0
 40
1.0
 40
1.0
 40
1.0
 10
186.7301
 20
-107.3871
 30
0.0
 10
186.7301
 20
-107.3871
 30
0.0
 10
154.3422
 20
-107.3871
 30
0.0
 10
154.3422
 20
-107.3871
 30
0.0
 10
154.3422
 20
-107.3871
 30
0.0
 10
154.5921
 20
-105.5736
 30
0.0
 10
156.0929
 20
-103.0852
 30
0.0
 10
159.3442
 20
-101.1094
 30
0.0
 10
159.3442
 20
-101.1094
 30
0.0
 10
167.0972
 20
-104.8483
 30
0.0
 10
173.4749
 20
-105.0235
 30
0.0
 10
181.3531
 20
-100.8843
 30
0.0
 10
181.3531
 20
-100.8843
 30
0.0
 10
184.354
 20
-102.3723
 30
0.0
 10
185.98
 20
-104.8359
 30
0.0
 10
186.7301
 20
-107.3871
 30
0.0
  0
SPLINE
  5
7A
330
1F
100
AcDbEntity
  8
layer 1
 62
     7
100
AcDbSpline
210
0.0
220
0.0
230
1.0
 70
    11
 71
     3
 72
    20
 73
    16
 74
     0
 42
0.0000000001
 43
0.0000000001
 12
1.0
 22
0.0
 32
0.0
 13
1.0
 23
0.0
 33
0.0
 40
0.0
 40
0.0
 40
0.0
 40
0.0
 40
0.2
 40
0.2
 40
0.2
 40
0.2
 40
0.4
 40
0.4
 40
0.4
 40
0.4
 40
0.6
 40
0.6
 40
0.6
 40
0.6
 40
1.0
 40
1.0
 40
1.0
 40
1.0
 10
149.8404
 20
-99.5465
 30
0.0
 10
151.2157
 20
-100.5092
 30
0.0
 10
152.4663
 20
-101.8474
 30
0.0
 10
153.3419
 20
-103.2227
 30
0.0
 10
153.3419
 20
-103.2227
 30
0.0
 10
154.2171
 20
-101.8346
 30
0.0
 10
155.3425
 20
-100.3593
 30
0.0
 10
156.843
 20
-99.5965
 30
0.0
 10
156.843
 20
-99.5965
 30
0.0
 10
155.4676
 20
-98.8085
 30
0.0
 10
154.0919
 20
-97.4455
 30
0.0
 10
153.2167
 20
-96.0322
 30
0.0
 10
153.2167
 20
-96.0322
 30
0.0
 10
152.4663
 20
-97.3828
 30
0.0
 10
151.2157
 20
-98.6709
 30
0.0
 10
149.8404
 20
-99.5465
 30
0.0
  0
SPLINE
  5
7B
330
1F
100
AcDbEntity
  8
layer 1
 62
     7
100
AcDbSpline
210
0.0
220
0.0
230
1.0
 70
    11
 71
     3
 72
    16
 73
    12
 74
     0
 42
0.0000000001
 43
0.0000000001
 12
1.0
 22
0.0
 32
0.0
 13
1.0
 23
0.0
 33
0.0
 40
0.0
 40
0.0
 40
0.0
 40
0.0
 40
0.25
 40
0.25
 40
0.25
 40
0.25
 40
0.5
 40
0.5
 40
0.5
 40
0.5
 40
1.0
 40
1.0
 40
1.0
 40
1.0
 10
51.0504
 20
-96.1074
 30
0.0
 10
51.0504
 20
-96.1074
 30
0.0
 10
51.0504
 20
-103.6105
 30
0.0
 10
51.0504
 20
-103.6105
 30
0.0
 10
51.0504
 20
-103.6105
 30
0.0
 10
52.1759
 20
-102.2724
 30
0.0
 10
53.5516
 20
-100.3841
 30
0.0
 10
54.8022
 20
-99.734
 30
0.0
 10
54.8022
 20
-99.734
 30
0.0
 10
53.4265
 20
-98.9584
 30
0.0
 10
52.1759
 20
-97.3828
 30
0.0
 10
51.0504
 20
-96.1074
 30
0.0
  0
SPLINE
  5
7C
330
1F
100
AcDbEntity
  8
layer 1
 62
     7
100
AcDbSpline
210
0.0
220
0.0
230
1.0
 70
    11
 71
     3
 72
    12
 73
     8
 74
     0
 42
0.0000000001
 43
0.0000000001
 12
1.0
 22
0.0
 32
0.0
 13
1.0
 23
0.0
 33
0.0
 40
0.0
 40
0.0
 40
0.0
 40
0.0
 40
0.3333333333333333
 40
0.3333333333333333
 40
0.3333333333333333
 40
0.3333333333333333
 40
1.0
 40
1.0
 40
1.0
 40
1.0
 10
93.0676
 20
-99.3962
 30
0.0
 10
99.195
 20
-95.9199
 30
0.0
 10
105.8226
 20
-96.8702
 30
0.0
 10
110.6994
 20
-99.3962
 30
0.0
 10
110.6994
 20
-99.3962
 30
0.0
 10
105.0722
 20
-102.9976
 30
0.0
 10
98.5697
 20
-102.7601
 30
0.0
 10
93.0676
 20
-99.3962
 30
0.0
  0
SPLINE
  5
7D
330
1F
100
AcDbEntity
  8
layer 1
 62
     7
100
AcDbSpline
210
0.0
220
0.0
230
1.0
 70
    11
 71
     3
 72
    12
 73
     8
 74
     0
 42
0.0000000001
 43
0.0000000001
 12
1.0
 22
0.0
 32
0.0
 13
1.0
 23
0.0
 33
0.0
 40
0.0
 40
0.0
 40
0.0
 40
0.0
 40
0.3333333333333333
 40
0.3333333333333333
 40
0.3333333333333333
 40
0.3333333333333333
 40
1.0
 40
1.0
 40
1.0
 40
1.0
 10
77.3112
 20
-99.3962
 30
0.0
 10
71.1838
 20
-95.9199
 30
0.0
 10
64.5559
 20
-96.8702
 30
0.0
 10
59.679
 20
-99.3962
 30
0.0
 10
59.679
 20
-99.3962
 30
0.0
 10
65.3063
 20
-102.9976
 30
0.0
 10
71.8087
 20
-102.7601
 30
0.0
 10
77.3112
 20
-99.3962
 30
0.0
  0
SPLINE
  5
7E
330
1F
100
AcDbEntity
  8
layer 1
 62
     7
100
AcDbSpline
210
0.0
220
0.0
230
1.0
 70
    11
 71
     3
 72
    20
 73
    16
 74
     0
 42
0.0000000001
 43
0.0000000001
 12
1.0
 22
0.0
 32
0.0
 13
1.0
 23
0.0
 33
0.0
 40
0.0
 40
0.0
 40
0.0
 40
0.0
 40
0.2
 40
0.2
 40
0.2
 40
0.2
 40
0.4
 40
0.4
 40
0.4
 40
0.4
 40
0.6
 40
0.6
 40
0.6
 40
0.6
 40
1.0
 40
1.0
 40
1.0
 40
1.0
 10
118.2026
 20
-91.4305
 30
0.0
 10
118.2026
 20
-91.4305
 30
0.0
 10
85.8147
 20
-91.4305
 30
0.0
 10
85.8147
 20
-91.4305
 30
0.0
 10
85.8147
 20
-91.4305
 30
0.0
 10
86.0646
 20
-93.3439
 30
0.0
 10
87.5651
 20
-95.9698
 30
0.0
 10
90.6915
 20
-98.0456
 30
0.0
 10
90.6915
 20
-98.0456
 30
0.0
 10
98.5697
 20
-94.1067
 30
0.0
 10
104.8223
 20
-93.9192
 30
0.0
 10
112.7004
 20
-98.2831
 30
0.0
 10
112.7004
 20
-98.2831
 30
0.0
 10
115.7014
 20
-96.7203
 30
0.0
 10
117.3274
 20
-94.1315
 30
0.0
 10
118.2026
 20
-91.4305
 30
0.0
  0
SPLINE
  5
7F
330
1F
100
AcDbEntity
  8
layer 1
 62
     7
100
AcDbSpline
210
0.0
220
0.0
230
1.0
 70
    11
 71
     3
 72
    20
 73
    16
 74
     0
 42
0.0000000001
 43
0.0000000001
 12
1.0
 22
0.0
 32
0.0
 13
1.0
 23
0.0
 33
0.0
 40
0.0
 40
0.0
 40
0.0
 40
0.0
 40
0.2
 40
0.2
 40
0.2
 40
0.2
 40
0.4
 40
0.4
 40
0.4
 40
0.4
 40
0.6
 40
0.6
 40
0.6
 40
0.6
 40
1.0
 40
1.0
 40
1.0
 40
1.0
 10
52.1759
 20
-91.4305
 30
0.0
 10
52.1759
 20
-91.4305
 30
0.0
 10
84.5641
 20
-91.4305
 30
0.0
 10
84.5641
 20
-91.4305
 30
0.0
 10
84.5641
 20
-91.4305
 30
0.0
 10
84.3139
 20
-93.3439
 30
0.0
 10
82.8134
 20
-95.9698
 30
0.0
 10
79.5621
 20
-98.0456
 30
0.0
 10
79.5621
 20
-98.0456
 30
0.0
 10
71.8087
 20
-94.1067
 30
0.0
 10
65.4314
 20
-93.9192
 30
0.0
 10
57.6784
 20
-98.2831
 30
0.0
 10
57.6784
 20
-98.2831
 30
0.0
 10
54.677
 20
-96.7203
 30
0.0
 10
53.0514
 20
-94.1315
 30
0.0
 10
52.1759
 20
-91.4305
 30
0.0
  0
SPLINE
  5
80
330
1F
100
AcDbEntity
  8
layer 1
 62
     7
100
AcDbSpline
210
0.0
220
0.0
230
1.0
 70
    11
 71
     3
 72
    20
 73
    16
 74
     0
 42
0.0000000001
 43
0.0000000001
 12
1.0
 22
0.0
 32
0.0
 13
1.0
 23
0.0
 33
0.0
 40
0.0
 40
0.0
 40
0.0
 40
0.0
 40
0.2
 40
0.2
 40
0.2
 40
0.2
 40
0.4
 40
0.4
 40
0.4
 40
0.4
 40
0.6
 40
0.6
 40
0.6
 40
0.6
 40
1.0
 40
1.0
 40
1.0
 40
1.0
 10
118.4528
 20
-107.3871
 30
0.0
 10
118.4528
 20
-107.3871
 30
0.0
 10
86.0646
 20
-107.3871
 30
0.0
 10
86.0646
 20
-107.3871
 30
0.0
 10
86.0646
 20
-107.3871
 30
0.0
 10
86.3149
 20
-105.5736
 30
0.0
 10
87.8153
 20
-103.0852
 30
0.0
 10
91.0666
 20
-101.1094
 30
0.0
 10
91.0666
 20
-101.1094
 30
0.0
 10
98.8196
 20
-104.8483
 30
0.0
 10
105.1973
 20
-105.0235
 30
0.0
 10
113.0755
 20
-100.8843
 30
0.0
 10
113.0755
 20
-100.8843
 30
0.0
 10
116.0768
 20
-102.3723
 30
0.0
 10
117.7024
 20
-104.8359
 30
0.0
 10
118.4528
 20
-107.3871
 30
0.0
  0
SPLINE
  5
81
330
1F
100
AcDbEntity
  8
layer 1
 62
     7
100
AcDbSpline
210
0.0
220
0.0
230
1.0
 70
    11
 71
     3
 72
    20
 73
    16
 74
     0
 42
0.0000000001
 43
0.0000000001
 12
1.0
 22
0.0
 32
0.0
 13
1.0
 23
0.0
 33
0.0
 40
0.0
 40
0.0
 40
0.0
 40
0.0
 40
0.2
 40
0.2
 40
0.2
 40
0.2
 40
0.4
 40
0.4
 40
0.4
 40
0.4
 40
0.6
 40
0.6
 40
0.6
 40
0.6
 40
1.0
 40
1.0
 40
1.0
 40
1.0
 10
51.926
 20
-107.3871
 30
0.0
 10
51.926
 20
-107.3871
 30
0.0
 10
84.3139
 20
-107.3871
 30
0.0
 10
84.3139
 20
-107.3871
 30
0.0
 10
84.3139
 20
-107.3871
 30
0.0
 10
84.0639
 20
-105.5736
 30
0.0
 10
82.5631
 20
-103.0852
 30
0.0
 10
79.3119
 20
-101.1094
 30
0.0
 10
79.3119
 20
-101.1094
 30
0.0
 10
71.5588
 20
-104.8483
 30
0.0
 10
65.1812
 20
-105.0235
 30
0.0
 10
57.303
 20
-100.8843
 30
0.0
 10
57.303
 20
-100.8843
 30
0.0
 10
54.302
 20
-102.3723
 30
0.0
 10
52.676
 20
-104.8359
 30
0.0
 10
51.926
 20
-107.3871
 30
0.0
  0
SPLINE
  5
82
330
1F
100
AcDbEntity
  8
layer 1
 62
     7
100
AcDbSpline
210
0.0
220
0.0
230
1.0
 70
    11
 71
     3
 72
    20
 73
    16
 74
     0
 42
0.0000000001
 43
0.0000000001
 12
1.0
 22
0.0
 32
0.0
 13
1.0
 23
0.0
 33
0.0
 40
0.0
 40
0.0
 40
0.0
 40
0.0
 40
0.2
 40
0.2
 40
0.2
 40
0.2
 40
0.4
 40
0.4
 40
0.4
 40
0.4
 40
0.6
 40
0.6
 40
0.6
 40
0.6
 40
1.0
 40
1.0
 40
1.0
 40
1.0
 10
88.8157
 20
-99.5465
 30
0.0
 10
87.4403
 20
-100.5092
 30
0.0
 10
86.1897
 20
-101.8474
 30
0.0
 10
85.3142
 20
-103.2227
 30
0.0
 10
85.3142
 20
-103.2227
 30
0.0
 10
84.439
 20
-101.8346
 30
0.0
 10
83.3135
 20
-100.3593
 30
0.0
 10
81.813
 20
-99.5965
 30
0.0
 10
81.813
 20
-99.5965
 30
0.0
 10
83.1884
 20
-98.8085
 30
0.0
 10
84.5641
 20
-97.4455
 30
0.0
 10
85.3142
 20
-96.0322
 30
0.0
 10
85.3142
 20
-96.0322
 30
0.0
 10
86.1897
 20
-97.3828
 30
0.0
 10
87.4403
 20
-98.6709
 30
0.0
 10
88.8157
 20
-99.5465
 30
0.0
  0
SPLINE
  5
83
330
1F
100
AcDbEntity
  8
layer 1
 62
     7
100
AcDbSpline
210
0.0
220
0.0
230
1.0
 70
    11
 71
     3
 72
    20
 73
    16
 74
     0
 42
0.0000000001
 43
0.0000000001
 12
1.0
 22
0.0
 32
0.0
 13
1.0
 23
0.0
 33
0.0
 40
0.0
 40
0.0
 40
0.0
 40
0.0
 40
0.2
 40
0.2
 40
0.2
 40
0.2
 40
0.4
 40
0.4
 40
0.4
 40
0.4
 40
0.6
 40
0.6
 40
0.6
 40
0.6
 40
1.0
 40
1.0
 40
1.0
 40
1.0
 10
119.328
 20
-103.6105
 30
0.0
 10
118.2026
 20
-102.2724
 30
0.0
 10
116.8269
 20
-100.3841
 30
0.0
 10
115.5766
 20
-99.734
 30
0.0
 10
115.5766
 20
-99.734
 30
0.0
 10
116.952
 20
-98.9584
 30
0.0
 10
118.2026
 20
-97.3828
 30
0.0
 10
119.328
 20
-96.1074
 30
0.0
 10
119.328
 20
-96.1074
 30
0.0
 10
120.4535
 20
-97.3828
 30
0.0
 10
121.5789
 20
-98.9584
 30
0.0
 10
123.0794
 20
-99.734
 30
0.0
 10
123.0794
 20
-99.734
 30
0.0
 10
121.8292
 20
-100.3841
 30
0.0
 10
120.3283
 20
-102.2724
 30
0.0
 10
119.328
 20
-103.6105
 30
0.0
  0
SPLINE
  5
84
330
1F
100
AcDbEntity
  8
layer 1
 62
     7
100
AcDbSpline
210
0.0
220
0.0
230
1.0
 70
    11
 71
     3
 72
    16
 73
    12
 74
     0
 42
0.0000000001
 43
0.0000000001
 12
1.0
 22
0.0
 32
0.0
 13
1.0
 23
0.0
 33
0.0
 40
0.0
 40
0.0
 40
0.0
 40
0.0
 40
0.25
 40
0.25
 40
0.25
 40
0.25
 40
0.5
 40
0.5
 40
0.5
 40
0.5
 40
1.0
 40
1.0
 40
1.0
 40
1.0
 10
187.6056
 20
119.4294
 30
0.0
 10
187.6056
 20
119.4294
 30
0.0
 10
187.4805
 20
111.9263
 30
0.0
 10
187.4805
 20
111.9263
 30
0.0
 10
187.4805
 20
111.9263
 30
0.0
 10
186.4802
 20
113.302
 30
0.0
 10
185.1045
 20
115.1775
 30
0.0
 10
183.8539
 20
115.8028
 30
0.0
 10
183.8539
 20
115.8028
 30
0.0
 10
185.2296
 20
116.5532
 30
0.0
 10
186.4802
 20
118.1788
 30
0.0
 10
187.6056
 20
119.4294
 30
0.0
  0
SPLINE
  5
85
330
1F
100
AcDbEntity
  8
layer 1
 62
     7
100
AcDbSpline
210
0.0
220
0.0
230
1.0
 70
    11
 71
     3
 72
    12
 73
     8
 74
     0
 42
0.0000000001
 43
0.0000000001
 12
1.0
 22
0.0
 32
0.0
 13
1.0
 23
0.0
 33
0.0
 40
0.0
 40
0.0
 40
0.0
 40
0.0
 40
0.3333333333333333
 40
0.3333333333333333
 40
0.3333333333333333
 40
0.3333333333333333
 40
1.0
 40
1.0
 40
1.0
 40
1.0
 10
145.5885
 20
116.1778
 30
0.0
 10
139.461
 20
119.6793
 30
0.0
 10
132.8335
 20
118.679
 30
0.0
 10
127.9566
 20
116.1778
 30
0.0
 10
127.9566
 20
116.1778
 30
0.0
 10
133.5839
 20
112.5516
 30
0.0
 10
140.0863
 20
112.8015
 30
0.0
 10
145.5885
 20
116.1778
 30
0.0
  0
SPLINE
  5
86
330
1F
100
AcDbEntity
  8
layer 1
 62
     7
100
AcDbSpline
210
0.0
220
0.0
230
1.0
 70
    11
 71
     3
 72
    12
 73
     8
 74
     0
 42
0.0000000001
 43
0.0000000001
 12
1.0
 22
0.0
 32
0.0
 13
1.0
 23
0.0
 33
0.0
 40
0.0
 40
0.0
 40
0.0
 40
0.0
 40
0.3333333333333333
 40
0.3333333333333333
 40
0.3333333333333333
 40
0.3333333333333333
 40
1.0
 40
1.0
 40
1.0
 40
1.0
 10
161.3448
 20
116.1778
 30
0.0
 10
167.4722
 20
119.6793
 30
0.0
 10
174.1002
 20
118.679
 30
0.0
 10
178.977
 20
116.1778
 30
0.0
 10
178.977
 20
116.1778
 30
0.0
 10
173.3498
 20
112.5516
 30
0.0
 10
166.8473
 20
112.8015
 30
0.0
 10
161.3448
 20
116.1778
 30
0.0
  0
SPLINE
  5
87
330
1F
100
AcDbEntity
  8
layer 1
 62
     7
100
AcDbSpline
210
0.0
220
0.0
230
1.0
 70
    11
 71
     3
 72
    20
 73
    16
 74
     0
 42
0.0000000001
 43
0.0000000001
 12
1.0
 22
0.0
 32
0.0
 13
1.0
 23
0.0
 33
0.0
 40
0.0
 40
0.0
 40
0.0
 40
0.0
 40
0.2
 40
0.2
 40
0.2
 40
0.2
 40
0.4
 40
0.4
 40
0.4
 40
0.4
 40
0.6
 40
0.6
 40
0.6
 40
0.6
 40
1.0
 40
1.0
 40
1.0
 40
1.0
 10
120.4535
 20
124.1811
 30
0.0
 10
120.4535
 20
124.1811
 30
0.0
 10
152.8413
 20
124.1811
 30
0.0
 10
152.8413
 20
124.1811
 30
0.0
 10
152.8413
 20
124.1811
 30
0.0
 10
152.5914
 20
122.1805
 30
0.0
 10
151.091
 20
119.5542
 30
0.0
 10
147.8394
 20
117.5536
 30
0.0
 10
147.8394
 20
117.5536
 30
0.0
 10
140.0863
 20
121.4301
 30
0.0
 10
133.7086
 20
121.6803
 30
0.0
 10
125.9556
 20
117.3033
 30
0.0
 10
125.9556
 20
117.3033
 30
0.0
 10
122.8295
 20
118.8041
 30
0.0
 10
121.3287
 20
121.4301
 30
0.0
 10
120.4535
 20
124.1811
 30
0.0
  0
SPLINE
  5
88
330
1F
100
AcDbEntity
  8
layer 1
 62
     7
100
AcDbSpline
210
0.0
220
0.0
230
1.0
 70
    11
 71
     3
 72
    20
 73
    16
 74
     0
 42
0.0000000001
 43
0.0000000001
 12
1.0
 22
0.0
 32
0.0
 13
1.0
 23
0.0
 33
0.0
 40
0.0
 40
0.0
 40
0.0
 40
0.0
 40
0.2
 40
0.2
 40
0.2
 40
0.2
 40
0.4
 40
0.4
 40
0.4
 40
0.4
 40
0.6
 40
0.6
 40
0.6
 40
0.6
 40
1.0
 40
1.0
 40
1.0
 40
1.0
 10
186.4802
 20
124.1811
 30
0.0
 10
186.4802
 20
124.1811
 30
0.0
 10
154.0919
 20
124.1811
 30
0.0
 10
154.0919
 20
124.1811
 30
0.0
 10
154.0919
 20
124.1811
 30
0.0
 10
154.3422
 20
122.1805
 30
0.0
 10
155.8427
 20
119.5542
 30
0.0
 10
158.9691
 20
117.5536
 30
0.0
 10
158.9691
 20
117.5536
 30
0.0
 10
166.8473
 20
121.4301
 30
0.0
 10
173.0995
 20
121.6803
 30
0.0
 10
180.9777
 20
117.3033
 30
0.0
 10
180.9777
 20
117.3033
 30
0.0
 10
183.979
 20
118.8041
 30
0.0
 10
185.6046
 20
121.4301
 30
0.0
 10
186.4802
 20
124.1811
 30
0.0
  0
SPLINE
  5
89
330
1F
100
AcDbEntity
  8
layer 1
 62
     7
100
AcDbSpline
210
0.0
220
0.0
230
1.0
 70
    11
 71
     3
 72
    20
 73
    16
 74
     0
 42
0.0000000001
 43
0.0000000001
 12
1.0
 22
0.0
 32
0.0
 13
1.0
 23
0.0
 33
0.0
 40
0.0
 40
0.0
 40
0.0
 40
0.0
 40
0.2
 40
0.2
 40
0.2
 40
0.2
 40
0.4
 40
0.4
 40
0.4
 40
0.4
 40
0.6
 40
0.6
 40
0.6
 40
0.6
 40
1.0
 40
1.0
 40
1.0
 40
1.0
 10
120.0784
 20
108.1749
 30
0.0
 10
120.0784
 20
108.1749
 30
0.0
 10
152.5914
 20
108.1749
 30
0.0
 10
152.5914
 20
108.1749
 30
0.0
 10
152.5914
 20
108.1749
 30
0.0
 10
152.3412
 20
110.0504
 30
0.0
 10
150.8407
 20
112.4265
 30
0.0
 10
147.5895
 20
114.4275
 30
0.0
 10
147.5895
 20
114.4275
 30
0.0
 10
139.7113
 20
110.6757
 30
0.0
 10
133.4587
 20
110.5506
 30
0.0
 10
125.5806
 20
114.6774
 30
0.0
 10
125.5806
 20
114.6774
 30
0.0
 10
122.5793
 20
113.1769
 30
0.0
 10
120.9536
 20
110.6757
 30
0.0
 10
120.0784
 20
108.1749
 30
0.0
  0
SPLINE
  5
8A
330
1F
100
AcDbEntity
  8
layer 1
 62
     7
100
AcDbSpline
210
0.0
220
0.0
230
1.0
 70
    11
 71
     3
 72
    20
 73
    16
 74
     0
 42
0.0000000001
 43
0.0000000001
 12
1.0
 22
0.0
 32
0.0
 13
1.0
 23
0.0
 33
0.0
 40
0.0
 40
0.0
 40
0.0
 40
0.0
 40
0.2
 40
0.2
 40
0.2
 40
0.2
 40
0.4
 40
0.4
 40
0.4
 40
0.4
 40
0.6
 40
0.6
 40
0.6
 40
0.6
 40
1.0
 40
1.0
 40
1.0
 40
1.0
 10
186.7301
 20
108.1749
 30
0.0
 10
186.7301
 20
108.1749
 30
0.0
 10
154.3422
 20
108.1749
 30
0.0
 10
154.3422
 20
108.1749
 30
0.0
 10
154.3422
 20
108.1749
 30
0.0
 10
154.5921
 20
110.0504
 30
0.0
 10
156.0929
 20
112.4265
 30
0.0
 10
159.3442
 20
114.4275
 30
0.0
 10
159.3442
 20
114.4275
 30
0.0
 10
167.0972
 20
110.6757
 30
0.0
 10
173.4749
 20
110.5506
 30
0.0
 10
181.3531
 20
114.6774
 30
0.0
 10
181.3531
 20
114.6774
 30
0.0
 10
184.354
 20
113.1769
 30
0.0
 10
185.98
 20
110.6757
 30
0.0
 10
186.7301
 20
108.1749
 30
0.0
  0
SPLINE
  5
8B
330
1F
100
AcDbEntity
  8
layer 1
 62
     7
100
AcDbSpline
210
0.0
220
0.0
230
1.0
 70
    11
 71
     3
 72
    20
 73
    16
 74
     0
 42
0.0000000001
 43
0.0000000001
 12
1.0
 22
0.0
 32
0.0
 13
1.0
 23
0.0
 33
0.0
 40
0.0
 40
0.0
 40
0.0
 40
0.0
 40
0.2
 40
0.2
 40
0.2
 40
0.2
 40
0.4
 40
0.4
 40
0.4
 40
0.4
 40
0.6
 40
0.6
 40
0.6
 40
0.6
 40
1.0
 40
1.0
 40
1.0
 40
1.0
 10
149.8404
 20
116.0531
 30
0.0
 10
151.2157
 20
115.0524
 30
0.0
 10
152.4663
 20
113.677
 30
0.0
 10
153.3419
 20
112.3013
 30
0.0
 10
153.3419
 20
112.3013
 30
0.0
 10
154.2171
 20
113.8022
 30
0.0
 10
155.3425
 20
115.1775
 30
0.0
 10
156.843
 20
115.9279
 30
0.0
 10
156.843
 20
115.9279
 30
0.0
 10
155.4676
 20
116.8031
 30
0.0
 10
154.0919
 20
118.1788
 30
0.0
 10
153.2167
 20
119.5542
 30
0.0
 10
153.2167
 20
119.5542
 30
0.0
 10
152.4663
 20
118.1788
 30
0.0
 10
151.2157
 20
116.9283
 30
0.0
 10
149.8404
 20
116.0531
 30
0.0
  0
SPLINE
  5
8C
330
1F
100
AcDbEntity
  8
layer 1
 62
     7
100
AcDbSpline
210
0.0
220
0.0
230
1.0
 70
    11
 71
     3
 72
    16
 73
    12
 74
     0
 42
0.0000000001
 43
0.0000000001
 12
1.0
 22
0.0
 32
0.0
 13
1.0
 23
0.0
 33
0.0
 40
0.0
 40
0.0
 40
0.0
 40
0.0
 40
0.25
 40
0.25
 40
0.25
 40
0.25
 40
0.5
 40
0.5
 40
0.5
 40
0.5
 40
1.0
 40
1.0
 40
1.0
 40
1.0
 10
51.0504
 20
119.4294
 30
0.0
 10
51.0504
 20
119.4294
 30
0.0
 10
51.0504
 20
111.9263
 30
0.0
 10
51.0504
 20
111.9263
 30
0.0
 10
51.0504
 20
111.9263
 30
0.0
 10
52.1759
 20
113.302
 30
0.0
 10
53.5516
 20
115.1775
 30
0.0
 10
54.8022
 20
115.8028
 30
0.0
 10
54.8022
 20
115.8028
 30
0.0
 10
53.4265
 20
116.5532
 30
0.0
 10
52.1759
 20
118.1788
 30
0.0
 10
51.0504
 20
119.4294
 30
0.0
  0
SPLINE
  5
8D
330
1F
100
AcDbEntity
  8
layer 1
 62
     7
100
AcDbSpline
210
0.0
220
0.0
230
1.0
 70
    11
 71
     3
 72
    12
 73
     8
 74
     0
 42
0.0000000001
 43
0.0000000001
 12
1.0
 22
0.0
 32
0.0
 13
1.0
 23
0.0
 33
0.0
 40
0.0
 40
0.0
 40
0.0
 40
0.0
 40
0.3333333333333333
 40
0.3333333333333333
 40
0.3333333333333333
 40
0.3333333333333333
 40
1.0
 40
1.0
 40
1.0
 40
1.0
 10
93.0676
 20
116.1778
 30
0.0
 10
99.195
 20
119.6793
 30
0.0
 10
105.8226
 20
118.679
 30
0.0
 10
110.6994
 20
116.1778
 30
0.0
 10
110.6994
 20
116.1778
 30
0.0
 10
105.0722
 20
112.5516
 30
0.0
 10
98.5697
 20
112.8015
 30
0.0
 10
93.0676
 20
116.1778
 30
0.0
  0
SPLINE
  5
8E
330
1F
100
AcDbEntity
  8
layer 1
 62
     7
100
AcDbSpline
210
0.0
220
0.0
230
1.0
 70
    11
 71
     3
 72
    12
 73
     8
 74
     0
 42
0.0000000001
 43
0.0000000001
 12
1.0
 22
0.0
 32
0.0
 13
1.0
 23
0.0
 33
0.0
 40
0.0
 40
0.0
 40
0.0
 40
0.0
 40
0.3333333333333333
 40
0.3333333333333333
 40
0.3333333333333333
 40
0.3333333333333333
 40
1.0
 40
1.0
 40
1.0
 40
1.0
 10
77.3112
 20
116.1778
 30
0.0
 10
71.1838
 20
119.6793
 30
0.0
 10
64.5559
 20
118.679
 30
0.0
 10
59.679
 20
116.1778
 30
0.0
 10
59.679
 20
116.1778
 30
0.0
 10
65.3063
 20
112.5516
 30
0.0
 10
71.8087
 20
112.8015
 30
0.0
 10
77.3112
 20
116.1778
 30
0.0
  0
SPLINE
  5
8F
330
1F
100
AcDbEntity
  8
layer 1
 62
     7
100
AcDbSpline
210
0.0
220
0.0
230
1.0
 70
    11
 71
     3
 72
    20
 73
    16
 74
     0
 42
0.0000000001
 43
0.0000000001
 12
1.0
 22
0.0
 32
0.0
 13
1.0
 23
0.0
 33
0.0
 40
0.0
 40
0.0
 40
0.0
 40
0.0
 40
0.2
 40
0.2
 40
0.2
 40
0.2
 40
0.4
 40
0.4
 40
0.4
 40
0.4
 40
0.6
 40
0.6
 40
0.6
 40
0.6
 40
1.0
 40
1.0
 40
1.0
 40
1.0
 10
118.2026
 20
124.1811
 30
0.0
 10
118.2026
 20
124.1811
 30
0.0
 10
85.8147
 20
124.1811
 30
0.0
 10
85.8147
 20
124.1811
 30
0.0
 10
85.8147
 20
124.1811
 30
0.0
 10
86.0646
 20
122.1805
 30
0.0
 10
87.5651
 20
119.5542
 30
0.0
 10
90.6915
 20
117.5536
 30
0.0
 10
90.6915
 20
117.5536
 30
0.0
 10
98.5697
 20
121.4301
 30
0.0
 10
104.8223
 20
121.6803
 30
0.0
 10
112.7004
 20
117.3033
 30
0.0
 10
112.7004
 20
117.3033
 30
0.0
 10
115.7014
 20
118.8041
 30
0.0
 10
117.3274
 20
121.4301
 30
0.0
 10
118.2026
 20
124.1811
 30
0.0
  0
SPLINE
  5
90
330
1F
100
AcDbEntity
  8
layer 1
 62
     7
100
AcDbSpline
210
0.0
220
0.0
230
1.0
 70
    11
 71
     3
 72
    20
 73
    16
 74
     0
 42
0.0000000001
 43
0.0000000001
 12
1.0
 22
0.0
 32
0.0
 13
1.0
 23
0.0
 33
0.0
 40
0.0
 40
0.0
 40
0.0
 40
0.0
 40
0.2
 40
0.2
 40
0.2
 40
0.2
 40
0.4
 40
0.4
 40
0.4
 40
0.4
 40
0.6
 40
0.6
 40
0.6
 40
0.6
 40
1.0
 40
1.0
 40
1.0
 40
1.0
 10
52.1759
 20
124.1811
 30
0.0
 10
52.1759
 20
124.1811
 30
0.0
 10
84.5641
 20
124.1811
 30
0.0
 10
84.5641
 20
124.1811
 30
0.0
 10
84.5641
 20
124.1811
 30
0.0
 10
84.3139
 20
122.1805
 30
0.0
 10
82.8134
 20
119.5542
 30
0.0
 10
79.5621
 20
117.5536
 30
0.0
 10
79.5621
 20
117.5536
 30
0.0
 10
71.8087
 20
121.4301
 30
0.0
 10
65.4314
 20
121.6803
 30
0.0
 10
57.6784
 20
117.3033
 30
0.0
 10
57.6784
 20
117.3033
 30
0.0
 10
54.677
 20
118.8041
 30
0.0
 10
53.0514
 20
121.4301
 30
0.0
 10
52.1759
 20
124.1811
 30
0.0
  0
SPLINE
  5
91
330
1F
100
AcDbEntity
  8
layer 1
 62
     7
100
AcDbSpline
210
0.0
220
0.0
230
1.0
 70
    11
 71
     3
 72
    20
 73
    16
 74
     0
 42
0.0000000001
 43
0.0000000001
 12
1.0
 22
0.0
 32
0.0
 13
1.0
 23
0.0
 33
0.0
 40
0.0
 40
0.0
 40
0.0
 40
0.0
 40
0.2
 40
0.2
 40
0.2
 40
0.2
 40
0.4
 40
0.4
 40
0.4
 40
0.4
 40
0.6
 40
0.6
 40
0.6
 40
0.6
 40
1.0
 40
1.0
 40
1.0
 40
1.0
 10
118.4528
 20
108.1749
 30
0.0
 10
118.4528
 20
108.1749
 30
0.0
 10
86.0646
 20
108.1749
 30
0.0
 10
86.0646
 20
108.1749
 30
0.0
 10
86.0646
 20
108.1749
 30
0.0
 10
86.3149
 20
110.0504
 30
0.0
 10
87.8153
 20
112.4265
 30
0.0
 10
91.0666
 20
114.4275
 30
0.0
 10
91.0666
 20
114.4275
 30
0.0
 10
98.8196
 20
110.6757
 30
0.0
 10
105.1973
 20
110.5506
 30
0.0
 10
113.0755
 20
114.6774
 30
0.0
 10
113.0755
 20
114.6774
 30
0.0
 10
116.0768
 20
113.1769
 30
0.0
 10
117.7024
 20
110.6757
 30
0.0
 10
118.4528
 20
108.1749
 30
0.0
  0
SPLINE
  5
92
330
1F
100
AcDbEntity
  8
layer 1
 62
     7
100
AcDbSpline
210
0.0
220
0.0
230
1.0
 70
    11
 71
     3
 72
    20
 73
    16
 74
     0
 42
0.0000000001
 43
0.0000000001
 12
1.0
 22
0.0
 32
0.0
 13
1.0
 23
0.0
 33
0.0
 40
0.0
 40
0.0
 40
0.0
 40
0.0
 40
0.2
 40
0.2
 40
0.2
 40
0.2
 40
0.4
 40
0.4
 40
0.4
 40
0.4
 40
0.6
 40
0.6
 40
0.6
 40
0.6
 40
1.0
 40
1.0
 40
1.0
 40
1.0
 10
51.926
 20
108.1749
 30
0.0
 10
51.926
 20
108.1749
 30
0.0
 10
84.3139
 20
108.1749
 30
0.0
 10
84.3139
 20
108.1749
 30
0.0
 10
84.3139
 20
108.1749
 30
0.0
 10
84.0639
 20
110.0504
 30
0.0
 10
82.5631
 20
112.4265
 30
0.0
 10
79.3119
 20
114.4275
 30
0.0
 10
79.3119
 20
114.4275
 30
0.0
 10
71.5588
 20
110.6757
 30
0.0
 10
65.1812
 20
110.5506
 30
0.0
 10
57.303
 20
114.6774
 30
0.0
 10
57.303
 20
114.6774
 30
0.0
 10
54.302
 20
113.1769
 30
0.0
 10
52.676
 20
110.6757
 30
0.0
 10
51.926
 20
108.1749
 30
0.0
  0
SPLINE
  5
93
330
1F
100
AcDbEntity
  8
layer 1
 62
     7
100
AcDbSpline
210
0.0
220
0.0
230
1.0
 70
    11
 71
     3
 72
    20
 73
    16
 74
     0
 42
0.0000000001
 43
0.0000000001
 12
1.0
 22
0.0
 32
0.0
 13
1.0
 23
0.0
 33
0.0
 40
0.0
 40
0.0
 40
0.0
 40
0.0
 40
0.2
 40
0.2
 40
0.2
 40
0.2
 40
0.4
 40
0.4
 40
0.4
 40
0.4
 40
0.6
 40
0.6
 40
0.6
 40
0.6
 40
1.0
 40
1.0
 40
1.0
 40
1.0
 10
88.8157
 20
116.0531
 30
0.0
 10
87.4403
 20
115.0524
 30
0.0
 10
86.1897
 20
113.677
 30
0.0
 10
85.3142
 20
112.3013
 30
0.0
 10
85.3142
 20
112.3013
 30
0.0
 10
84.439
 20
113.8022
 30
0.0
 10
83.3135
 20
115.1775
 30
0.0
 10
81.813
 20
115.9279
 30
0.0
 10
81.813
 20
115.9279
 30
0.0
 10
83.1884
 20
116.8031
 30
0.0
 10
84.5641
 20
118.1788
 30
0.0
 10
85.3142
 20
119.5542
 30
0.0
 10
85.3142
 20
119.5542
 30
0.0
 10
86.1897
 20
118.1788
 30
0.0
 10
87.4403
 20
116.9283
 30
0.0
 10
88.8157
 20
116.0531
 30
0.0
  0
SPLINE
  5
94
330
1F
100
AcDbEntity
  8
layer 1
 62
     7
100
AcDbSpline
210
0.0
220
0.0
230
1.0
 70
    11
 71
     3
 72
    20
 73
    16
 74
     0
 42
0.0000000001
 43
0.0000000001
 12
1.0
 22
0.0
 32
0.0
 13
1.0
 23
0.0
 33
0.0
 40
0.0
 40
0.0
 40
0.0
 40
0.0
 40
0.2
 40
0.2
 40
0.2
 40
0.2
 40
0.4
 40
0.4
 40
0.4
 40
0.4
 40
0.6
 40
0.6
 40
0.6
 40
0.6
 40
1.0
 40
1.0
 40
1.0
 40
1.0
 10
119.328
 20
111.9263
 30
0.0
 10
118.2026
 20
113.302
 30
0.0
 10
116.8269
 20
115.1775
 30
0.0
 10
115.5766
 20
115.8028
 30
0.0
 10
115.5766
 20
115.8028
 30
0.0
 10
116.952
 20
116.5532
 30
0.0
 10
118.2026
 20
118.1788
 30
0.0
 10
119.328
 20
119.4294
 30
0.0
 10
119.328
 20
119.4294
 30
0.0
 10
120.4535
 20
118.1788
 30
0.0
 10
121.5789
 20
116.5532
 30
0.0
 10
123.0794
 20
115.8028
 30
0.0
 10
123.0794
 20
115.8028
 30
0.0
 10
121.8292
 20
115.1775
 30
0.0
 10
120.3283
 20
113.302
 30
0.0
 10
119.328
 20
111.9263
 30
0.0
  0
ENDSEC
  0
SECTION
  2
OBJECTS
  0
DICTIONARY
  5
C
330
0
100
AcDbDictionary
281
     1
  3
ACAD_GROUP
350
D
  3
ACAD_LAYOUT
350
1A
  3
ACAD_MATERIAL
350
3B
  3
ACAD_MLEADERSTYLE
350
B7
  3
ACAD_MLINESTYLE
350
17
  3
ACAD_PLOTSETTINGS
350
19
  3
ACAD_PLOTSTYLENAME
350
E
  3
ACAD_TABLESTYLE
350
B6
  3
ACAD_VISUALSTYLE
350
2A
  0
DICTIONARY
  5
D
102
{ACAD_REACTORS
330
C
102
}
330
C
100
AcDbDictionary
281
     1
  0
DICTIONARY
  5
1A
102
{ACAD_REACTORS
330
C
102
}
330
C
100
AcDbDictionary
281
     1
  3
Layout1
350
1E
  3
Layout2
350
26
  3
Model
350
22
  0
DICTIONARY
  5
3B
102
{ACAD_REACTORS
330
C
102
}
330
C
100
AcDbDictionary
281
     1
  3
ByBlock
350
3D
  3
ByLayer
350
3C
  3
Global
350
3E
  0
DICTIONARY
  5
B7
102
{ACAD_REACTORS
330
C
102
}
330
C
100
AcDbDictionary
281
     1
  0
DICTIONARY
  5
17
102
{ACAD_REACTORS
330
C
102
}
330
C
100
AcDbDictionary
281
     1
  3
Standard
350
18
  0
DICTIONARY
  5
19
102
{ACAD_REACTORS
330
C
102
}
330
C
100
AcDbDictionary
281
     1
  0
ACDBDICTIONARYWDFLT
  5
E
102
{ACAD_REACTORS
330
C
102
}
330
C
100
AcDbDictionary
281
     1
  3
Normal
350
F
100
AcDbDictionaryWithDefault
340
F
  0
DICTIONARY
  5
B6
102
{ACAD_REACTORS
330
C
102
}
330
C
100
AcDbDictionary
281
     1
  0
DICTIONARY
  5
2A
102
{ACAD_REACTORS
330
C
102
}
330
C
100
AcDbDictionary
281
     1
  3
2dWireframe
350
2F
  3
3D Hidden
350
31
  3
3dWireframe
350
30
  3
Basic
350
32
  3
Brighten
350
36
  3
ColorChange
350
3A
  3
Conceptual
350
34
  3
Dim
350
35
  3
Facepattern
350
39
  3
Flat
350
2B
  3
FlatWithEdges
350
2C
  3
Gouraud
350
2D
  3
GouraudWithEdges
350
2E
  3
Linepattern
350
38
  3
Realistic
350
33
  3
Thicken
350
37
  0
LAYOUT
  5
1E
102
{ACAD_REACTORS
330
1A
102
}
330
1A
100
AcDbPlotSettings
  1

  2
none_device
  4

  6

 40
0.0
 41
0.0
 42
0.0
 43
0.0
 44
0.0
 45
0.0
 46
0.0
 47
0.0
 48
0.0
 49
0.0
140
0.0
141
0.0
142
1.0
143
1.0
 70
   688
 72
     0
 73
     0
 74
     5
  7

 75
    16
 76
     0
 77
     2
 78
   300
147
1.0
148
0.0
149
0.0
100
AcDbLayout
  1
Layout1
 70
     1
 71
     1
 10
0.0
 20
0.0
 11
12.0
 21
9.0
 12
0.0
 22
0.0
 32
0.0
 14
1.000000000000000E+20
 24
1.000000000000000E+20
 34
1.000000000000000E+20
 15
-1.000000000000000E+20
 25
-1.000000000000000E+20
 35
-1.000000000000000E+20
146
0.0
 13
0.0
 23
0.0
 33
0.0
 16
1.0
 26
0.0
 36
0.0
 17
0.0
 27
1.0
 37
0.0
 76
     0
330
1B
  0
LAYOUT
  5
26
102
{ACAD_REACTORS
330
1A
102
}
330
1A
100
AcDbPlotSettings
  1

  2
none_device
  4

  6

 40
0.0
 41
0.0
 42
0.0
 43
0.0
 44
0.0
 45
0.0
 46
0.0
 47
0.0
 48
0.0
 49
0.0
140
0.0
141
0.0
142
1.0
143
1.0
 70
   688
 72
     0
 73
     0
 74
     5
  7

 75
    16
 76
     0
 77
     2
 78
   300
147
1.0
148
0.0
149
0.0
100
AcDbLayout
  1
Layout2
 70
     1
 71
     2
 10
0.0
 20
0.0
 11
0.0
 21
0.0
 12
0.0
 22
0.0
 32
0.0
 14
0.0
 24
0.0
 34
0.0
 15
0.0
 25
0.0
 35
0.0
146
0.0
 13
0.0
 23
0.0
 33
0.0
 16
1.0
 26
0.0
 36
0.0
 17
0.0
 27
1.0
 37
0.0
 76
     0
330
23
  0
LAYOUT
  5
22
102
{ACAD_REACTORS
330
1A
102
}
330
1A
100
AcDbPlotSettings
  1

  2
none_device
  4

  6

 40
0.0
 41
0.0
 42
0.0
 43
0.0
 44
0.0
 45
0.0
 46
0.0
 47
0.0
 48
0.0
 49
0.0
140
0.0
141
0.0
142
1.0
143
1.0
 70
  1712
 72
     0
 73
     0
 74
     0
  7

 75
     0
 76
     0
 77
     2
 78
   300
147
1.0
148
0.0
149
0.0
100
AcDbLayout
  1
Model
 70
     1
 71
     0
 10
0.0
 20
0.0
 11
12.0
 21
9.0
 12
0.0
 22
0.0
 32
0.0
 14
42.6441
 24
-114.9788
 34
0.0
 15
196.0116
 25
131.7729
 35
0.0
146
0.0
 13
0.0
 23
0.0
 33
0.0
 16
1.0
 26
0.0
 36
0.0
 17
0.0
 27
1.0
 37
0.0
 76
     0
330
1F
331
29
  0
MATERIAL
  5
3D
102
{ACAD_REACTORS
330
3B
102
}
330
3B
100
AcDbMaterial
  1
ByBlock
 72
     1
 94
      127
  0
MATERIAL
  5
3C
102
{ACAD_REACTORS
330
3B
102
}
330
3B
100
AcDbMaterial
  1
ByLayer
 72
     1
 94
      127
  0
MATERIAL
  5
3E
102
{ACAD_REACTORS
330
3B
102
}
330
3B
100
AcDbMaterial
  1
Global
 72
     1
 94
      127
  0
MLINESTYLE
  5
18
102
{ACAD_REACTORS
330
17
102
}
330
17
100
AcDbMlineStyle
  2
Standard
 70
     0
  3

 62
   256
 51
90.0
 52
90.0
 71
     2
 49
0.5
 62
   256
  6
BYLAYER
 49
-0.5
 62
   256
  6
BYLAYER
  0
ACDBPLACEHOLDER
  5
F
102
{ACAD_REACTORS
330
E
102
}
330
E
  0
VISUALSTYLE
  5
2F
102
{ACAD_REACTORS
330
2A
102
}
102
{ACAD_XDICTIONARY
360
9E
102
}
330
2A
100
AcDbVisualStyle
  2
2dWireframe
 70
     4
 71
     0
 72
     2
 73
     0
 90
        0
 40
-0.6
 41
-30.0
 62
     5
 63
     7
421
 16777215
 74
     1
 91
        4
 64
     7
 65
   257
 75
     1
175
     1
 42
1.0
 92
        0
 66
   257
 43
1.0
 76
     1
 77
     6
 78
     2
 67
     7
 79
     5
170
     0
171
     0
290
     0
174
     0
 93
        1
 44
0.0
173
     0
291
     0
 45
0.0
  0
VISUALSTYLE
  5
31
102
{ACAD_REACTORS
330
2A
102
}
102
{ACAD_XDICTIONARY
360
A2
102
}
330
2A
100
AcDbVisualStyle
  2
3D Hidden
 70
     6
 71
     1
 72
     2
 73
     2
 90
        0
 40
-0.6
 41
-30.0
 62
     5
 63
     7
421
 16777215
 74
     2
 91
        2
 64
     7
 65
   257
 75
     2
175
     1
 42
40.0
 92
        0
 66
   257
 43
1.0
 76
     1
 77
     6
 78
     2
 67
     7
 79
     3
170
     0
171
     0
290
     0
174
     0
 93
        1
 44
0.0
173
     0
291
     0
 45
0.0
  0
VISUALSTYLE
  5
30
102
{ACAD_REACTORS
330
2A
102
}
102
{ACAD_XDICTIONARY
360
A0
102
}
330
2A
100
AcDbVisualStyle
  2
3dWireframe
 70
     5
 71
     0
 72
     2
 73
     0
 90
        0
 40
-0.6
 41
-30.0
 62
     5
 63
     7
421
 16777215
 74
     1
 91
        4
 64
     7
 65
   257
 75
     1
175
     1
 42
1.0
 92
        0
 66
   257
 43
1.0
 76
     1
 77
     6
 78
     2
 67
     7
 79
     5
170
     0
171
     0
290
     0
174
     0
 93
        1
 44
0.0
173
     0
291
     0
 45
0.0
  0
VISUALSTYLE
  5
32
102
{ACAD_REACTORS
330
2A
102
}
102
{ACAD_XDICTIONARY
360
A4
102
}
330
2A
100
AcDbVisualStyle
  2
Basic
 70
     7
 71
     1
 72
     0
 73
     1
 90
        0
 40
-0.6
 41
-30.0
 62
     5
 63
     7
421
 16777215
 74
     0
 91
        4
 64
     7
 65
   257
 75
     1
175
     1
 42
1.0
 92
        8
 66
     7
 43
1.0
 76
     1
 77
     6
 78
     2
 67
     7
 79
     5
170
     0
171
     0
290
     0
174
     0
 93
        1
 44
0.0
173
     0
291
     1
 45
0.0
  0
VISUALSTYLE
  5
36
102
{ACAD_REACTORS
330
2A
102
}
102
{ACAD_XDICTIONARY
360
AC
102
}
330
2A
100
AcDbVisualStyle
  2
Brighten
 70
    12
 71
     2
 72
     2
 73
     0
 90
        0
 40
-0.6
 41
-30.0
 62
     5
 63
     7
421
 16777215
 74
     1
 91
        4
 64
     7
 65
   257
 75
     1
175
     1
 42
1.0
 92
        8
 66
     7
 43
1.0
 76
     1
 77
     6
 78
     2
 67
     7
 79
     5
170
     0
171
     0
290
     0
174
     0
 93
        1
 44
50.0
173
     0
291
     1
 45
0.0
  0
VISUALSTYLE
  5
3A
102
{ACAD_REACTORS
330
2A
102
}
102
{ACAD_XDICTIONARY
360
B4
102
}
330
2A
100
AcDbVisualStyle
  2
ColorChange
 70
    16
 71
     2
 72
     2
 73
     3
 90
        0
 40
-0.6
 41
-30.0
 62
     5
 63
     8
421
  8421504
 74
     1
 91
        4
 64
     7
 65
   257
 75
     1
175
     1
 42
1.0
 92
        8
 66
     8
424
  8421504
 43
1.0
 76
     1
 77
     6
 78
     2
 67
     7
 79
     5
170
     0
171
     0
290
     0
174
     0
 93
        1
 44
0.0
173
     0
291
     1
 45
0.0
  0
VISUALSTYLE
  5
34
102
{ACAD_REACTORS
330
2A
102
}
102
{ACAD_XDICTIONARY
360
A8
102
}
330
2A
100
AcDbVisualStyle
  2
Conceptual
 70
     9
 71
     3
 72
     2
 73
     0
 90
        0
 40
-0.6
 41
-30.0
 62
     5
 63
     7
421
 16777215
 74
     2
 91
        2
 64
     7
 65
   257
 75
     1
175
     1
 42
40.0
 92
        8
 66
     7
 43
1.0
 76
     1
 77
     6
 78
     2
 67
     7
 79
     3
170
     0
171
     0
290
     0
174
     0
 93
        1
 44
0.0
173
     0
291
     0
 45
0.0
  0
VISUALSTYLE
  5
35
102
{ACAD_REACTORS
330
2A
102
}
102
{ACAD_XDICTIONARY
360
AA
102
}
330
2A
100
AcDbVisualStyle
  2
Dim
 70
    11
 71
     2
 72
     2
 73
     0
 90
        0
 40
-0.6
 41
-30.0
 62
     5
 63
     7
421
 16777215
 74
     1
 91
        4
 64
     7
 65
   257
 75
     1
175
     1
 42
1.0
 92
        8
 66
     7
 43
1.0
 76
     1
 77
     6
 78
     2
 67
     7
 79
     5
170
     0
171
     0
290
     0
174
     0
 93
        1
 44
-50.0
173
     0
291
     1
 45
0.0
  0
VISUALSTYLE
  5
39
102
{ACAD_REACTORS
330
2A
102
}
102
{ACAD_XDICTIONARY
360
B2
102
}
330
2A
100
AcDbVisualStyle
  2
Facepattern
 70
    15
 71
     2
 72
     2
 73
     0
 90
        0
 40
-0.6
 41
-30.0
 62
     5
 63
     7
421
 16777215
 74
     1
 91
        4
 64
     7
 65
   257
 75
     1
175
     1
 42
1.0
 92
        8
 66
     7
 43
1.0
 76
     1
 77
     6
 78
     2
 67
     7
 79
     5
170
     0
171
     0
290
     0
174
     0
 93
        1
 44
0.0
173
     0
291
     1
 45
0.0
  0
VISUALSTYLE
  5
2B
102
{ACAD_REACTORS
330
2A
102
}
102
{ACAD_XDICTIONARY
360
96
102
}
330
2A
100
AcDbVisualStyle
  2
Flat
 70
     0
 71
     2
 72
     1
 73
     1
 90
        2
 40
-0.6
 41
30.0
 62
     5
 63
     7
421
 16777215
 74
     0
 91
        4
 64
     7
 65
   257
 75
     1
175
     1
 42
1.0
 92
        8
 66
     7
 43
1.0
 76
     1
 77
     6
 78
     2
 67
     7
 79
     5
170
     0
171
     0
290
     0
174
     0
 93
       13
 44
0.0
173
     0
291
     1
 45
0.0
  0
VISUALSTYLE
  5
2C
102
{ACAD_REACTORS
330
2A
102
}
102
{ACAD_XDICTIONARY
360
98
102
}
330
2A
100
AcDbVisualStyle
  2
FlatWithEdges
 70
     1
 71
     2
 72
     1
 73
     1
 90
        2
 40
-0.6
 41
30.0
 62
     5
 63
     7
421
 16777215
 74
     1
 91
        4
 64
     7
 65
   257
 75
     1
175
     1
 42
1.0
 92
        0
 66
   257
 43
1.0
 76
     1
 77
     6
 78
     2
 67
     7
 79
     5
170
     0
171
     0
290
     0
174
     0
 93
       13
 44
0.0
173
     0
291
     1
 45
0.0
  0
VISUALSTYLE
  5
2D
102
{ACAD_REACTORS
330
2A
102
}
102
{ACAD_XDICTIONARY
360
9A
102
}
330
2A
100
AcDbVisualStyle
  2
Gouraud
 70
     2
 71
     2
 72
     2
 73
     1
 90
        2
 40
-0.6
 41
30.0
 62
     5
 63
     7
421
 16777215
 74
     0
 91
        4
 64
     7
 65
   257
 75
     1
175
     1
 42
1.0
 92
        0
 66
     7
 43
1.0
 76
     1
 77
     6
 78
     2
 67
     7
 79
     5
170
     0
171
     0
290
     0
174
     0
 93
       13
 44
0.0
173
     0
291
     1
 45
0.0
  0
VISUALSTYLE
  5
2E
102
{ACAD_REACTORS
330
2A
102
}
102
{ACAD_XDICTIONARY
360
9C
102
}
330
2A
100
AcDbVisualStyle
  2
GouraudWithEdges
 70
     3
 71
     2
 72
     2
 73
     1
 90
        2
 40
-0.6
 41
30.0
 62
     5
 63
     7
421
 16777215
 74
     1
 91
        4
 64
     7
 65
   257
 75
     1
175
     1
 42
1.0
 92
        0
 66
   257
 43
1.0
 76
     1
 77
     6
 78
     2
 67
     7
 79
     5
170
     0
171
     0
290
     0
174
     0
 93
       13
 44
0.0
173
     0
291
     1
 45
0.0
  0
VISUALSTYLE
  5
38
102
{ACAD_REACTORS
330
2A
102
}
102
{ACAD_XDICTIONARY
360
B0
102
}
330
2A
100
AcDbVisualStyle
  2
Linepattern
 70
    14
 71
     2
 72
     2
 73
     0
 90
        0
 40
-0.6
 41
-30.0
 62
     5
 63
     7
421
 16777215
 74
     1
 91
        4
 64
     7
 65
   257
 75
     7
175
     7
 42
1.0
 92
        8
 66
     7
 43
1.0
 76
     1
 77
     6
 78
     2
 67
     7
 79
     5
170
     0
171
     0
290
     0
174
     0
 93
        1
 44
0.0
173
     0
291
     1
 45
0.0
  0
VISUALSTYLE
  5
33
102
{ACAD_REACTORS
330
2A
102
}
102
{ACAD_XDICTIONARY
360
A6
102
}
330
2A
100
AcDbVisualStyle
  2
Realistic
 70
     8
 71
     2
 72
     2
 73
     0
 90
        0
 40
-0.6
 41
-30.0
 62
     5
 63
     7
421
 16777215
 74
     1
 91
        0
 64
     7
 65
   257
 75
     1
175
     1
 42
1.0
 92
        8
 66
     8
424
  7895160
 43
1.0
 76
     1
 77
     6
 78
     2
 67
     7
 79
     5
170
     0
171
     0
290
     0
174
     0
 93
       13
 44
0.0
173
     0
291
     0
 45
0.0
  0
VISUALSTYLE
  5
37
102
{ACAD_REACTORS
330
2A
102
}
102
{ACAD_XDICTIONARY
360
AE
102
}
330
2A
100
AcDbVisualStyle
  2
Thicken
 70
    13
 71
     2
 72
     2
 73
     0
 90
        0
 40
-0.6
 41
-30.0
 62
     5
 63
     7
421
 16777215
 74
     1
 91
        4
 64
     7
 65
   257
 75
     1
175
     1
 42
1.0
 92
       12
 66
     7
 43
1.0
 76
     1
 77
     6
 78
     2
 67
     7
 79
     5
170
     0
171
     0
290
     0
174
     0
 93
        1
 44
0.0
173
     0
291
     1
 45
0.0
  0
DICTIONARY
  5
9E
330
2F
100
AcDbDictionary
280
     1
281
     1
  3
ACAD_XREC_ROUNDTRIP
360
9F
  0
DICTIONARY
  5
A2
330
31
100
AcDbDictionary
280
     1
281
     1
  3
ACAD_XREC_ROUNDTRIP
360
A3
  0
DICTIONARY
  5
A0
330
30
100
AcDbDictionary
280
     1
281
     1
  3
ACAD_XREC_ROUNDTRIP
360
A1
  0
DICTIONARY
  5
A4
330
32
100
AcDbDictionary
280
     1
281
     1
  3
ACAD_XREC_ROUNDTRIP
360
A5
  0
DICTIONARY
  5
AC
330
36
100
AcDbDictionary
280
     1
281
     1
  3
ACAD_XREC_ROUNDTRIP
360
AD
  0
DICTIONARY
  5
B4
330
3A
100
AcDbDictionary
280
     1
281
     1
  3
ACAD_XREC_ROUNDTRIP
360
B5
  0
DICTIONARY
  5
A8
330
34
100
AcDbDictionary
280
     1
281
     1
  3
ACAD_XREC_ROUNDTRIP
360
A9
  0
DICTIONARY
  5
AA
330
35
100
AcDbDictionary
280
     1
281
     1
  3
ACAD_XREC_ROUNDTRIP
360
AB
  0
DICTIONARY
  5
B2
330
39
100
AcDbDictionary
280
     1
281
     1
  3
ACAD_XREC_ROUNDTRIP
360
B3
  0
DICTIONARY
  5
96
330
2B
100
AcDbDictionary
280
     1
281
     1
  3
ACAD_XREC_ROUNDTRIP
360
97
  0
DICTIONARY
  5
98
330
2C
100
AcDbDictionary
280
     1
281
     1
  3
ACAD_XREC_ROUNDTRIP
360
99
  0
DICTIONARY
  5
9A
330
2D
100
AcDbDictionary
280
     1
281
     1
  3
ACAD_XREC_ROUNDTRIP
360
9B
  0
DICTIONARY
  5
9C
330
2E
100
AcDbDictionary
280
     1
281
     1
  3
ACAD_XREC_ROUNDTRIP
360
9D
  0
DICTIONARY
  5
B0
330
38
100
AcDbDictionary
280
     1
281
     1
  3
ACAD_XREC_ROUNDTRIP
360
B1
  0
DICTIONARY
  5
A6
330
33
100
AcDbDictionary
280
     1
281
     1
  3
ACAD_XREC_ROUNDTRIP
360
A7
  0
DICTIONARY
  5
AE
330
37
100
AcDbDictionary
280
     1
281
     1
  3
ACAD_XREC_ROUNDTRIP
360
AF
  0
XRECORD
  5
9F
102
{ACAD_REACTORS
330
9E
102
}
330
9E
100
AcDbXrecord
280
     1
102
RTVSPropertyOp0
 70
     1
102
RTVSPropertyOp1
 70
     1
102
RTVSPropertyOp2
 70
     1
102
RTVSPropertyOp3
 70
     1
102
RTVSPropertyOp4
 70
     1
102
RTVSPropertyOp5
 70
     1
102
RTVSPropertyOp6
 70
     1
102
RTVSPropertyOp7
 70
     1
102
RTVSPropertyOp8
 70
     1
102
RTVSPropertyOp9
 70
     1
102
RTVSPropertyOp10
 70
     1
102
RTVSPropertyOp11
 70
     1
102
RTVSPropertyOp12
 70
     1
102
RTVSPropertyOp13
 70
     1
102
RTVSPropertyOp14
 70
     1
102
RTVSPropertyOp15
 70
     1
102
RTVSPropertyOp16
 70
     1
102
RTVSPropertyOp17
 70
     1
102
RTVSPropertyOp18
 70
     1
102
RTVSPropertyOp19
 70
     1
102
RTVSPropertyOp20
 70
     1
102
RTVSPropertyOp21
 70
     1
102
RTVSPropertyOp22
 70
     1
102
RTVSPropertyOp23
 70
     1
102
RTVSPropertyOp24
 70
     1
102
RTVSPropertyOp25
 70
     1
102
RTVSPropertyOp26
 70
     1
102
RTVSPropertyOp27
 70
     1
102
RTVSPropertyOp28
 70
     1
102
RTVSPropertyOp29
 70
     1
102
RTVSPropertyOp30
 70
     1
102
RTVSPropertyOp31
 70
     1
102
RTVSPropertyOp32
 70
     1
  0
XRECORD
  5
A3
102
{ACAD_REACTORS
330
A2
102
}
330
A2
100
AcDbXrecord
280
     1
102
RTVSPropertyOp0
 70
     1
102
RTVSPropertyOp1
 70
     1
102
RTVSPropertyOp2
 70
     1
102
RTVSPropertyOp3
 70
     1
102
RTVSPropertyOp4
 70
     1
102
RTVSPropertyOp5
 70
     1
102
RTVSPropertyOp6
 70
     1
102
RTVSPropertyOp7
 70
     1
102
RTVSPropertyOp8
 70
     1
102
RTVSPropertyOp9
 70
     1
102
RTVSPropertyOp10
 70
     1
102
RTVSPropertyOp11
 70
     1
102
RTVSPropertyOp12
 70
     1
102
RTVSPropertyOp13
 70
     1
102
RTVSPropertyOp14
 70
     1
102
RTVSPropertyOp15
 70
     1
102
RTVSPropertyOp16
 70
     1
102
RTVSPropertyOp17
 70
     1
102
RTVSPropertyOp18
 70
     1
102
RTVSPropertyOp19
 70
     1
102
RTVSPropertyOp20
 70
     1
102
RTVSPropertyOp21
 70
     1
102
RTVSPropertyOp22
 70
     1
102
RTVSPropertyOp23
 70
     1
102
RTVSPropertyOp24
 70
     1
102
RTVSPropertyOp25
 70
     1
102
RTVSPropertyOp26
 70
     1
102
RTVSPropertyOp27
 70
     1
102
RTVSPropertyOp28
 70
     1
102
RTVSPropertyOp29
 70
     1
102
RTVSPropertyOp30
 70
     1
102
RTVSPropertyOp31
 70
     1
102
RTVSPropertyOp32
 70
     1
  0
XRECORD
  5
A1
102
{ACAD_REACTORS
330
A0
102
}
330
A0
100
AcDbXrecord
280
     1
102
RTVSPropertyOp0
 70
     1
102
RTVSPropertyOp1
 70
     1
102
RTVSPropertyOp2
 70
     1
102
RTVSPropertyOp3
 70
     1
102
RTVSPropertyOp4
 70
     1
102
RTVSPropertyOp5
 70
     1
102
RTVSPropertyOp6
 70
     1
102
RTVSPropertyOp7
 70
     1
102
RTVSPropertyOp8
 70
     1
102
RTVSPropertyOp9
 70
     1
102
RTVSPropertyOp10
 70
     1
102
RTVSPropertyOp11
 70
     1
102
RTVSPropertyOp12
 70
     1
102
RTVSPropertyOp13
 70
     1
102
RTVSPropertyOp14
 70
     1
102
RTVSPropertyOp15
 70
     1
102
RTVSPropertyOp16
 70
     1
102
RTVSPropertyOp17
 70
     1
102
RTVSPropertyOp18
 70
     1
102
RTVSPropertyOp19
 70
     1
102
RTVSPropertyOp20
 70
     1
102
RTVSPropertyOp21
 70
     1
102
RTVSPropertyOp22
 70
     1
102
RTVSPropertyOp23
 70
     1
102
RTVSPropertyOp24
 70
     1
102
RTVSPropertyOp25
 70
     1
102
RTVSPropertyOp26
 70
     1
102
RTVSPropertyOp27
 70
     1
102
RTVSPropertyOp28
 70
     1
102
RTVSPropertyOp29
 70
     1
102
RTVSPropertyOp30
 70
     1
102
RTVSPropertyOp31
 70
     1
102
RTVSPropertyOp32
 70
     1
  0
XRECORD
  5
A5
102
{ACAD_REACTORS
330
A4
102
}
330
A4
100
AcDbXrecord
280
     1
102
RTVSPropertyOp0
 70
     1
102
RTVSPropertyOp1
 70
     1
102
RTVSPropertyOp2
 70
     1
102
RTVSPropertyOp3
 70
     1
102
RTVSPropertyOp4
 70
     1
102
RTVSPropertyOp5
 70
     1
102
RTVSPropertyOp6
 70
     1
102
RTVSPropertyOp7
 70
     1
102
RTVSPropertyOp8
 70
     1
102
RTVSPropertyOp9
 70
     1
102
RTVSPropertyOp10
 70
     1
102
RTVSPropertyOp11
 70
     1
102
RTVSPropertyOp12
 70
     1
102
RTVSPropertyOp13
 70
     1
102
RTVSPropertyOp14
 70
     1
102
RTVSPropertyOp15
 70
     1
102
RTVSPropertyOp16
 70
     1
102
RTVSPropertyOp17
 70
     1
102
RTVSPropertyOp18
 70
     1
102
RTVSPropertyOp19
 70
     1
102
RTVSPropertyOp20
 70
     1
102
RTVSPropertyOp21
 70
     1
102
RTVSPropertyOp22
 70
     1
102
RTVSPropertyOp23
 70
     1
102
RTVSPropertyOp24
 70
     1
102
RTVSPropertyOp25
 70
     1
102
RTVSPropertyOp26
 70
     1
102
RTVSPropertyOp27
 70
     1
102
RTVSPropertyOp28
 70
     1
102
RTVSPropertyOp29
 70
     1
102
RTVSPropertyOp30
 70
     1
102
RTVSPropertyOp31
 70
     1
102
RTVSPropertyOp32
 70
     1
  0
XRECORD
  5
AD
102
{ACAD_REACTORS
330
AC
102
}
330
AC
100
AcDbXrecord
280
     1
102
RTVSPropertyOp0
 70
     1
102
RTVSPropertyOp1
 70
     1
102
RTVSPropertyOp2
 70
     1
102
RTVSPropertyOp3
 70
     1
102
RTVSPropertyOp4
 70
     1
102
RTVSPropertyOp5
 70
     1
102
RTVSPropertyOp6
 70
     1
102
RTVSPropertyOp7
 70
     1
102
RTVSPropertyOp8
 70
     1
102
RTVSPropertyOp9
 70
     1
102
RTVSPropertyOp10
 70
     1
102
RTVSPropertyOp11
 70
     1
102
RTVSPropertyOp12
 70
     1
102
RTVSPropertyOp13
 70
     1
102
RTVSPropertyOp14
 70
     1
102
RTVSPropertyOp15
 70
     1
102
RTVSPropertyOp16
 70
     1
102
RTVSPropertyOp17
 70
     1
102
RTVSPropertyOp18
 70
     1
102
RTVSPropertyOp19
 70
     1
102
RTVSPropertyOp20
 70
     1
102
RTVSPropertyOp21
 70
     1
102
RTVSPropertyOp22
 70
     1
102
RTVSPropertyOp23
 70
     1
102
RTVSPropertyOp24
 70
     1
102
RTVSPropertyOp25
 70
     1
102
RTVSPropertyOp26
 70
     1
102
RTVSPropertyOp27
 70
     1
102
RTVSPropertyOp28
 70
     1
102
RTVSPropertyOp29
 70
     1
102
RTVSPropertyOp30
 70
     1
102
RTVSPropertyOp31
 70
     1
102
RTVSPropertyOp32
 70
     1
  0
XRECORD
  5
B5
102
{ACAD_REACTORS
330
B4
102
}
330
B4
100
AcDbXrecord
280
     1
102
RTVSPropertyOp0
 70
     1
102
RTVSPropertyOp1
 70
     1
102
RTVSPropertyOp2
 70
     1
102
RTVSPropertyOp3
 70
     1
102
RTVSPropertyOp4
 70
     1
102
RTVSPropertyOp5
 70
     1
102
RTVSPropertyOp6
 70
     1
102
RTVSPropertyOp7
 70
     1
102
RTVSPropertyOp8
 70
     1
102
RTVSPropertyOp9
 70
     1
102
RTVSPropertyOp10
 70
     1
102
RTVSPropertyOp11
 70
     1
102
RTVSPropertyOp12
 70
     1
102
RTVSPropertyOp13
 70
     1
102
RTVSPropertyOp14
 70
     1
102
RTVSPropertyOp15
 70
     1
102
RTVSPropertyOp16
 70
     1
102
RTVSPropertyOp17
 70
     1
102
RTVSPropertyOp18
 70
     1
102
RTVSPropertyOp19
 70
     1
102
RTVSPropertyOp20
 70
     1
102
RTVSPropertyOp21
 70
     1
102
RTVSPropertyOp22
 70
     1
102
RTVSPropertyOp23
 70
     1
102
RTVSPropertyOp24
 70
     1
102
RTVSPropertyOp25
 70
     1
102
RTVSPropertyOp26
 70
     1
102
RTVSPropertyOp27
 70
     1
102
RTVSPropertyOp28
 70
     1
102
RTVSPropertyOp29
 70
     1
102
RTVSPropertyOp30
 70
     1
102
RTVSPropertyOp31
 70
     1
102
RTVSPropertyOp32
 70
     1
  0
XRECORD
  5
A9
102
{ACAD_REACTORS
330
A8
102
}
330
A8
100
AcDbXrecord
280
     1
102
RTVSPropertyOp0
 70
     1
102
RTVSPropertyOp1
 70
     1
102
RTVSPropertyOp2
 70
     1
102
RTVSPropertyOp3
 70
     1
102
RTVSPropertyOp4
 70
     1
102
RTVSPropertyOp5
 70
     1
102
RTVSPropertyOp6
 70
     1
102
RTVSPropertyOp7
 70
     1
102
RTVSPropertyOp8
 70
     1
102
RTVSPropertyOp9
 70
     1
102
RTVSPropertyOp10
 70
     1
102
RTVSPropertyOp11
 70
     1
102
RTVSPropertyOp12
 70
     1
102
RTVSPropertyOp13
 70
     1
102
RTVSPropertyOp14
 70
     1
102
RTVSPropertyOp15
 70
     1
102
RTVSPropertyOp16
 70
     1
102
RTVSPropertyOp17
 70
     1
102
RTVSPropertyOp18
 70
     1
102
RTVSPropertyOp19
 70
     1
102
RTVSPropertyOp20
 70
     1
102
RTVSPropertyOp21
 70
     1
102
RTVSPropertyOp22
 70
     1
102
RTVSPropertyOp23
 70
     1
102
RTVSPropertyOp24
 70
     1
102
RTVSPropertyOp25
 70
     1
102
RTVSPropertyOp26
 70
     1
102
RTVSPropertyOp27
 70
     1
102
RTVSPropertyOp28
 70
     1
102
RTVSPropertyOp29
 70
     1
102
RTVSPropertyOp30
 70
     1
102
RTVSPropertyOp31
 70
     1
102
RTVSPropertyOp32
 70
     1
  0
XRECORD
  5
AB
102
{ACAD_REACTORS
330
AA
102
}
330
AA
100
AcDbXrecord
280
     1
102
RTVSPropertyOp0
 70
     1
102
RTVSPropertyOp1
 70
     1
102
RTVSPropertyOp2
 70
     1
102
RTVSPropertyOp3
 70
     1
102
RTVSPropertyOp4
 70
     1
102
RTVSPropertyOp5
 70
     1
102
RTVSPropertyOp6
 70
     1
102
RTVSPropertyOp7
 70
     1
102
RTVSPropertyOp8
 70
     1
102
RTVSPropertyOp9
 70
     1
102
RTVSPropertyOp10
 70
     1
102
RTVSPropertyOp11
 70
     1
102
RTVSPropertyOp12
 70
     1
102
RTVSPropertyOp13
 70
     1
102
RTVSPropertyOp14
 70
     1
102
RTVSPropertyOp15
 70
     1
102
RTVSPropertyOp16
 70
     1
102
RTVSPropertyOp17
 70
     1
102
RTVSPropertyOp18
 70
     1
102
RTVSPropertyOp19
 70
     1
102
RTVSPropertyOp20
 70
     1
102
RTVSPropertyOp21
 70
     1
102
RTVSPropertyOp22
 70
     1
102
RTVSPropertyOp23
 70
     1
102
RTVSPropertyOp24
 70
     1
102
RTVSPropertyOp25
 70
     1
102
RTVSPropertyOp26
 70
     1
102
RTVSPropertyOp27
 70
     1
102
RTVSPropertyOp28
 70
     1
102
RTVSPropertyOp29
 70
     1
102
RTVSPropertyOp30
 70
     1
102
RTVSPropertyOp31
 70
     1
102
RTVSPropertyOp32
 70
     1
  0
XRECORD
  5
B3
102
{ACAD_REACTORS
330
B2
102
}
330
B2
100
AcDbXrecord
280
     1
102
RTVSPropertyOp0
 70
     1
102
RTVSPropertyOp1
 70
     1
102
RTVSPropertyOp2
 70
     1
102
RTVSPropertyOp3
 70
     1
102
RTVSPropertyOp4
 70
     1
102
RTVSPropertyOp5
 70
     1
102
RTVSPropertyOp6
 70
     1
102
RTVSPropertyOp7
 70
     1
102
RTVSPropertyOp8
 70
     1
102
RTVSPropertyOp9
 70
     1
102
RTVSPropertyOp10
 70
     1
102
RTVSPropertyOp11
 70
     1
102
RTVSPropertyOp12
 70
     1
102
RTVSPropertyOp13
 70
     1
102
RTVSPropertyOp14
 70
     1
102
RTVSPropertyOp15
 70
     1
102
RTVSPropertyOp16
 70
     1
102
RTVSPropertyOp17
 70
     1
102
RTVSPropertyOp18
 70
     1
102
RTVSPropertyOp19
 70
     1
102
RTVSPropertyOp20
 70
     1
102
RTVSPropertyOp21
 70
     1
102
RTVSPropertyOp22
 70
     1
102
RTVSPropertyOp23
 70
     1
102
RTVSPropertyOp24
 70
     1
102
RTVSPropertyOp25
 70
     1
102
RTVSPropertyOp26
 70
     1
102
RTVSPropertyOp27
 70
     1
102
RTVSPropertyOp28
 70
     1
102
RTVSPropertyOp29
 70
     1
102
RTVSPropertyOp30
 70
     1
102
RTVSPropertyOp31
 70
     1
102
RTVSPropertyOp32
 70
     1
  0
XRECORD
  5
97
102
{ACAD_REACTORS
330
96
102
}
330
96
100
AcDbXrecord
280
     1
102
RTVSPropertyOp0
 70
     1
102
RTVSPropertyOp1
 70
     1
102
RTVSPropertyOp2
 70
     1
102
RTVSPropertyOp3
 70
     1
102
RTVSPropertyOp4
 70
     1
102
RTVSPropertyOp5
 70
     1
102
RTVSPropertyOp6
 70
     1
102
RTVSPropertyOp7
 70
     1
102
RTVSPropertyOp8
 70
     1
102
RTVSPropertyOp9
 70
     1
102
RTVSPropertyOp10
 70
     1
102
RTVSPropertyOp11
 70
     1
102
RTVSPropertyOp12
 70
     1
102
RTVSPropertyOp13
 70
     1
102
RTVSPropertyOp14
 70
     1
102
RTVSPropertyOp15
 70
     1
102
RTVSPropertyOp16
 70
     1
102
RTVSPropertyOp17
 70
     1
102
RTVSPropertyOp18
 70
     1
102
RTVSPropertyOp19
 70
     1
102
RTVSPropertyOp20
 70
     1
102
RTVSPropertyOp21
 70
     1
102
RTVSPropertyOp22
 70
     1
102
RTVSPropertyOp23
 70
     1
102
RTVSPropertyOp24
 70
     1
102
RTVSPropertyOp25
 70
     1
102
RTVSPropertyOp26
 70
     1
102
RTVSPropertyOp27
 70
     1
102
RTVSPropertyOp28
 70
     1
102
RTVSPropertyOp29
 70
     1
102
RTVSPropertyOp30
 70
     1
102
RTVSPropertyOp31
 70
     1
102
RTVSPropertyOp32
 70
     1
  0
XRECORD
  5
99
102
{ACAD_REACTORS
330
98
102
}
330
98
100
AcDbXrecord
280
     1
102
RTVSPropertyOp0
 70
     1
102
RTVSPropertyOp1
 70
     1
102
RTVSPropertyOp2
 70
     1
102
RTVSPropertyOp3
 70
     1
102
RTVSPropertyOp4
 70
     1
102
RTVSPropertyOp5
 70
     1
102
RTVSPropertyOp6
 70
     1
102
RTVSPropertyOp7
 70
     1
102
RTVSPropertyOp8
 70
     1
102
RTVSPropertyOp9
 70
     1
102
RTVSPropertyOp10
 70
     1
102
RTVSPropertyOp11
 70
     1
102
RTVSPropertyOp12
 70
     1
102
RTVSPropertyOp13
 70
     1
102
RTVSPropertyOp14
 70
     1
102
RTVSPropertyOp15
 70
     1
102
RTVSPropertyOp16
 70
     1
102
RTVSPropertyOp17
 70
     1
102
RTVSPropertyOp18
 70
     1
102
RTVSPropertyOp19
 70
     1
102
RTVSPropertyOp20
 70
     1
102
RTVSPropertyOp21
 70
     1
102
RTVSPropertyOp22
 70
     1
102
RTVSPropertyOp23
 70
     1
102
RTVSPropertyOp24
 70
     1
102
RTVSPropertyOp25
 70
     1
102
RTVSPropertyOp26
 70
     1
102
RTVSPropertyOp27
 70
     1
102
RTVSPropertyOp28
 70
     1
102
RTVSPropertyOp29
 70
     1
102
RTVSPropertyOp30
 70
     1
102
RTVSPropertyOp31
 70
     1
102
RTVSPropertyOp32
 70
     1
  0
XRECORD
  5
9B
102
{ACAD_REACTORS
330
9A
102
}
330
9A
100
AcDbXrecord
280
     1
102
RTVSPropertyOp0
 70
     1
102
RTVSPropertyOp1
 70
     1
102
RTVSPropertyOp2
 70
     1
102
RTVSPropertyOp3
 70
     1
102
RTVSPropertyOp4
 70
     1
102
RTVSPropertyOp5
 70
     1
102
RTVSPropertyOp6
 70
     1
102
RTVSPropertyOp7
 70
     1
102
RTVSPropertyOp8
 70
     1
102
RTVSPropertyOp9
 70
     1
102
RTVSPropertyOp10
 70
     1
102
RTVSPropertyOp11
 70
     1
102
RTVSPropertyOp12
 70
     1
102
RTVSPropertyOp13
 70
     1
102
RTVSPropertyOp14
 70
     1
102
RTVSPropertyOp15
 70
     1
102
RTVSPropertyOp16
 70
     1
102
RTVSPropertyOp17
 70
     1
102
RTVSPropertyOp18
 70
     1
102
RTVSPropertyOp19
 70
     1
102
RTVSPropertyOp20
 70
     1
102
RTVSPropertyOp21
 70
     1
102
RTVSPropertyOp22
 70
     1
102
RTVSPropertyOp23
 70
     1
102
RTVSPropertyOp24
 70
     1
102
RTVSPropertyOp25
 70
     1
102
RTVSPropertyOp26
 70
     1
102
RTVSPropertyOp27
 70
     1
102
RTVSPropertyOp28
 70
     1
102
RTVSPropertyOp29
 70
     1
102
RTVSPropertyOp30
 70
     1
102
RTVSPropertyOp31
 70
     1
102
RTVSPropertyOp32
 70
     1
  0
XRECORD
  5
9D
102
{ACAD_REACTORS
330
9C
102
}
330
9C
100
AcDbXrecord
280
     1
102
RTVSPropertyOp0
 70
     1
102
RTVSPropertyOp1
 70
     1
102
RTVSPropertyOp2
 70
     1
102
RTVSPropertyOp3
 70
     1
102
RTVSPropertyOp4
 70
     1
102
RTVSPropertyOp5
 70
     1
102
RTVSPropertyOp6
 70
     1
102
RTVSPropertyOp7
 70
     1
102
RTVSPropertyOp8
 70
     1
102
RTVSPropertyOp9
 70
     1
102
RTVSPropertyOp10
 70
     1
102
RTVSPropertyOp11
 70
     1
102
RTVSPropertyOp12
 70
     1
102
RTVSPropertyOp13
 70
     1
102
RTVSPropertyOp14
 70
     1
102
RTVSPropertyOp15
 70
     1
102
RTVSPropertyOp16
 70
     1
102
RTVSPropertyOp17
 70
     1
102
RTVSPropertyOp18
 70
     1
102
RTVSPropertyOp19
 70
     1
102
RTVSPropertyOp20
 70
     1
102
RTVSPropertyOp21
 70
     1
102
RTVSPropertyOp22
 70
     1
102
RTVSPropertyOp23
 70
     1
102
RTVSPropertyOp24
 70
     1
102
RTVSPropertyOp25
 70
     1
102
RTVSPropertyOp26
 70
     1
102
RTVSPropertyOp27
 70
     1
102
RTVSPropertyOp28
 70
     1
102
RTVSPropertyOp29
 70
     1
102
RTVSPropertyOp30
 70
     1
102
RTVSPropertyOp31
 70
     1
102
RTVSPropertyOp32
 70
     1
  0
XRECORD
  5
B1
102
{ACAD_REACTORS
330
B0
102
}
330
B0
100
AcDbXrecord
280
     1
102
RTVSPropertyOp0
 70
     1
102
RTVSPropertyOp1
 70
     1
102
RTVSPropertyOp2
 70
     1
102
RTVSPropertyOp3
 70
     1
102
RTVSPropertyOp4
 70
     1
102
RTVSPropertyOp5
 70
     1
102
RTVSPropertyOp6
 70
     1
102
RTVSPropertyOp7
 70
     1
102
RTVSPropertyOp8
 70
     1
102
RTVSPropertyOp9
 70
     1
102
RTVSPropertyOp10
 70
     1
102
RTVSPropertyOp11
 70
     1
102
RTVSPropertyOp12
 70
     1
102
RTVSPropertyOp13
 70
     1
102
RTVSPropertyOp14
 70
     1
102
RTVSPropertyOp15
 70
     1
102
RTVSPropertyOp16
 70
     1
102
RTVSPropertyOp17
 70
     1
102
RTVSPropertyOp18
 70
     1
102
RTVSPropertyOp19
 70
     1
102
RTVSPropertyOp20
 70
     1
102
RTVSPropertyOp21
 70
     1
102
RTVSPropertyOp22
 70
     1
102
RTVSPropertyOp23
 70
     1
102
RTVSPropertyOp24
 70
     1
102
RTVSPropertyOp25
 70
     1
102
RTVSPropertyOp26
 70
     1
102
RTVSPropertyOp27
 70
     1
102
RTVSPropertyOp28
 70
     1
102
RTVSPropertyOp29
 70
     1
102
RTVSPropertyOp30
 70
     1
102
RTVSPropertyOp31
 70
     1
102
RTVSPropertyOp32
 70
     1
  0
XRECORD
  5
A7
102
{ACAD_REACTORS
330
A6
102
}
330
A6
100
AcDbXrecord
280
     1
102
RTVSPropertyOp0
 70
     1
102
RTVSPropertyOp1
 70
     1
102
RTVSPropertyOp2
 70
     1
102
RTVSPropertyOp3
 70
     1
102
RTVSPropertyOp4
 70
     1
102
RTVSPropertyOp5
 70
     1
102
RTVSPropertyOp6
 70
     1
102
RTVSPropertyOp7
 70
     1
102
RTVSPropertyOp8
 70
     1
102
RTVSPropertyOp9
 70
     1
102
RTVSPropertyOp10
 70
     1
102
RTVSPropertyOp11
 70
     1
102
RTVSPropertyOp12
 70
     1
102
RTVSPropertyOp13
 70
     1
102
RTVSPropertyOp14
 70
     1
102
RTVSPropertyOp15
 70
     1
102
RTVSPropertyOp16
 70
     1
102
RTVSPropertyOp17
 70
     1
102
RTVSPropertyOp18
 70
     1
102
RTVSPropertyOp19
 70
     1
102
RTVSPropertyOp20
 70
     1
102
RTVSPropertyOp21
 70
     1
102
RTVSPropertyOp22
 70
     1
102
RTVSPropertyOp23
 70
     1
102
RTVSPropertyOp24
 70
     1
102
RTVSPropertyOp25
 70
     1
102
RTVSPropertyOp26
 70
     1
102
RTVSPropertyOp27
 70
     1
102
RTVSPropertyOp28
 70
     1
102
RTVSPropertyOp29
 70
     1
102
RTVSPropertyOp30
 70
     1
102
RTVSPropertyOp31
 70
     1
102
RTVSPropertyOp32
 70
     1
  0
XRECORD
  5
AF
102
{ACAD_REACTORS
330
AE
102
}
330
AE
100
AcDbXrecord
280
     1
102
RTVSPropertyOp0
 70
     1
102
RTVSPropertyOp1
 70
     1
102
RTVSPropertyOp2
 70
     1
102
RTVSPropertyOp3
 70
     1
102
RTVSPropertyOp4
 70
     1
102
RTVSPropertyOp5
 70
     1
102
RTVSPropertyOp6
 70
     1
102
RTVSPropertyOp7
 70
     1
102
RTVSPropertyOp8
 70
     1
102
RTVSPropertyOp9
 70
     1
102
RTVSPropertyOp10
 70
     1
102
RTVSPropertyOp11
 70
     1
102
RTVSPropertyOp12
 70
     1
102
RTVSPropertyOp13
 70
     1
102
RTVSPropertyOp14
 70
     1
102
RTVSPropertyOp15
 70
     1
102
RTVSPropertyOp16
 70
     1
102
RTVSPropertyOp17
 70
     1
102
RTVSPropertyOp18
 70
     1
102
RTVSPropertyOp19
 70
     1
102
RTVSPropertyOp20
 70
     1
102
RTVSPropertyOp21
 70
     1
102
RTVSPropertyOp22
 70
     1
102
RTVSPropertyOp23
 70
     1
102
RTVSPropertyOp24
 70
     1
102
RTVSPropertyOp25
 70
     1
102
RTVSPropertyOp26
 70
     1
102
RTVSPropertyOp27
 70
     1
102
RTVSPropertyOp28
 70
     1
102
RTVSPropertyOp29
 70
     1
102
RTVSPropertyOp30
 70
     1
102
RTVSPropertyOp31
 70
     1
102
RTVSPropertyOp32
 70
     1
  0
ENDSEC
  0
EOF
