  0
SECTION
  2
HEADER
  9
$ACADVER
  1
AC1021
  9
$ACADMAINTVER
 70
    25
  9
$DWGCODEPAGE
  3
ANSI_1256
  9
$INSBASE
 10
0.0
 20
0.0
 30
0.0
  9
$EXTMIN
 10
65.5188
 20
-115.0693
 30
0.0
  9
$EXTMAX
 10
196.3397
 20
132.4969
 30
0.0
  9
$LIMMIN
 10
0.0
 20
0.0
  9
$LIMMAX
 10
12.0
 20
9.0
  9
$ORTHOMODE
 70
     0
  9
$REGENMODE
 70
     1
  9
$FILLMODE
 70
     1
  9
$QTEXTMODE
 70
     0
  9
$MIRRTEXT
 70
     1
  9
$LTSCALE
 40
1.0
  9
$ATTMODE
 70
     1
  9
$TEXTSIZE
 40
0.2
  9
$TRACEWID
 40
0.05
  9
$TEXTSTYLE
  7
Standard
  9
$CLAYER
  8
0
  9
$CELTYPE
  6
ByLayer
  9
$CECOLOR
 62
   256
  9
$CELTSCALE
 40
1.0
  9
$DISPSILH
 70
     0
  9
$DIMSCALE
 40
1.0
  9
$DIMASZ
 40
0.18
  9
$DIMEXO
 40
0.0625
  9
$DIMDLI
 40
0.38
  9
$DIMRND
 40
0.0
  9
$DIMDLE
 40
0.0
  9
$DIMEXE
 40
0.18
  9
$DIMTP
 40
0.0
  9
$DIMTM
 40
0.0
  9
$DIMTXT
 40
0.18
  9
$DIMCEN
 40
0.09
  9
$DIMTSZ
 40
0.0
  9
$DIMTOL
 70
     0
  9
$DIMLIM
 70
     0
  9
$DIMTIH
 70
     1
  9
$DIMTOH
 70
     1
  9
$DIMSE1
 70
     0
  9
$DIMSE2
 70
     0
  9
$DIMTAD
 70
     0
  9
$DIMZIN
 70
     0
  9
$DIMBLK
  1

  9
$DIMASO
 70
     1
  9
$DIMSHO
 70
     1
  9
$DIMPOST
  1

  9
$DIMAPOST
  1

  9
$DIMALT
 70
     0
  9
$DIMALTD
 70
     2
  9
$DIMALTF
 40
25.4
  9
$DIMLFAC
 40
1.0
  9
$DIMTOFL
 70
     0
  9
$DIMTVP
 40
0.0
  9
$DIMTIX
 70
     0
  9
$DIMSOXD
 70
     0
  9
$DIMSAH
 70
     0
  9
$DIMBLK1
  1

  9
$DIMBLK2
  1

  9
$DIMSTYLE
  2
Standard
  9
$DIMCLRD
 70
     0
  9
$DIMCLRE
 70
     0
  9
$DIMCLRT
 70
     0
  9
$DIMTFAC
 40
1.0
  9
$DIMGAP
 40
0.09
  9
$DIMJUST
 70
     0
  9
$DIMSD1
 70
     0
  9
$DIMSD2
 70
     0
  9
$DIMTOLJ
 70
     1
  9
$DIMTZIN
 70
     0
  9
$DIMALTZ
 70
     0
  9
$DIMALTTZ
 70
     0
  9
$DIMUPT
 70
     0
  9
$DIMDEC
 70
     4
  9
$DIMTDEC
 70
     4
  9
$DIMALTU
 70
     2
  9
$DIMALTTD
 70
     2
  9
$DIMTXSTY
  7
Standard
  9
$DIMAUNIT
 70
     0
  9
$DIMADEC
 70
     0
  9
$DIMALTRND
 40
0.0
  9
$DIMAZIN
 70
     0
  9
$DIMDSEP
 70
    46
  9
$DIMATFIT
 70
     3
  9
$DIMFRAC
 70
     0
  9
$DIMLDRBLK
  1

  9
$DIMLUNIT
 70
     2
  9
$DIMLWD
 70
    -2
  9
$DIMLWE
 70
    -2
  9
$DIMTMOVE
 70
     0
  9
$DIMFXL
 40
1.0
  9
$DIMFXLON
 70
     0
  9
$DIMJOGANG
 40
0.7853981633974483
  9
$DIMTFILL
 70
     0
  9
$DIMTFILLCLR
 70
     0
  9
$DIMARCSYM
 70
     0
  9
$DIMLTYPE
  6

  9
$DIMLTEX1
  6

  9
$DIMLTEX2
  6

  9
$LUNITS
 70
     2
  9
$LUPREC
 70
     4
  9
$SKETCHINC
 40
0.1
  9
$FILLETRAD
 40
0.5
  9
$AUNITS
 70
     0
  9
$AUPREC
 70
     0
  9
$MENU
  1
.
  9
$ELEVATION
 40
0.0
  9
$PELEVATION
 40
0.0
  9
$THICKNESS
 40
0.0
  9
$LIMCHECK
 70
     0
  9
$CHAMFERA
 40
0.5
  9
$CHAMFERB
 40
0.5
  9
$CHAMFERC
 40
1.0
  9
$CHAMFERD
 40
0.0
  9
$SKPOLY
 70
     0
  9
$TDCREATE
 40
2458492.949343252
  9
$TDUCREATE
 40
2458492.782676585
  9
$TDUPDATE
 40
2458492.949343415
  9
$TDUUPDATE
 40
2458492.782676748
  9
$TDINDWG
 40
0.0000000116
  9
$TDUSRTIMER
 40
0.0000000116
  9
$USRTIMER
 70
     1
  9
$ANGBASE
 50
0.0
  9
$ANGDIR
 70
     0
  9
$PDMODE
 70
     0
  9
$PDSIZE
 40
0.0
  9
$PLINEWID
 40
0.0
  9
$SPLFRAME
 70
     0
  9
$SPLINETYPE
 70
     6
  9
$SPLINESEGS
 70
     8
  9
$HANDSEED
  5
C3
  9
$SURFTAB1
 70
     6
  9
$SURFTAB2
 70
     6
  9
$SURFTYPE
 70
     6
  9
$SURFU
 70
     6
  9
$SURFV
 70
     6
  9
$UCSBASE
  2

  9
$UCSNAME
  2

  9
$UCSORG
 10
0.0
 20
0.0
 30
0.0
  9
$UCSXDIR
 10
1.0
 20
0.0
 30
0.0
  9
$UCSYDIR
 10
0.0
 20
1.0
 30
0.0
  9
$UCSORTHOREF
  2

  9
$UCSORTHOVIEW
 70
     0
  9
$UCSORGTOP
 10
0.0
 20
0.0
 30
0.0
  9
$UCSORGBOTTOM
 10
0.0
 20
0.0
 30
0.0
  9
$UCSORGLEFT
 10
0.0
 20
0.0
 30
0.0
  9
$UCSORGRIGHT
 10
0.0
 20
0.0
 30
0.0
  9
$UCSORGFRONT
 10
0.0
 20
0.0
 30
0.0
  9
$UCSORGBACK
 10
0.0
 20
0.0
 30
0.0
  9
$PUCSBASE
  2

  9
$PUCSNAME
  2

  9
$PUCSORG
 10
0.0
 20
0.0
 30
0.0
  9
$PUCSXDIR
 10
1.0
 20
0.0
 30
0.0
  9
$PUCSYDIR
 10
0.0
 20
1.0
 30
0.0
  9
$PUCSORTHOREF
  2

  9
$PUCSORTHOVIEW
 70
     0
  9
$PUCSORGTOP
 10
0.0
 20
0.0
 30
0.0
  9
$PUCSORGBOTTOM
 10
0.0
 20
0.0
 30
0.0
  9
$PUCSORGLEFT
 10
0.0
 20
0.0
 30
0.0
  9
$PUCSORGRIGHT
 10
0.0
 20
0.0
 30
0.0
  9
$PUCSORGFRONT
 10
0.0
 20
0.0
 30
0.0
  9
$PUCSORGBACK
 10
0.0
 20
0.0
 30
0.0
  9
$USERI1
 70
     0
  9
$USERI2
 70
     0
  9
$USERI3
 70
     0
  9
$USERI4
 70
     0
  9
$USERI5
 70
     0
  9
$USERR1
 40
0.0
  9
$USERR2
 40
0.0
  9
$USERR3
 40
0.0
  9
$USERR4
 40
0.0
  9
$USERR5
 40
0.0
  9
$WORLDVIEW
 70
     1
  9
$SHADEDGE
 70
     3
  9
$SHADEDIF
 70
    70
  9
$TILEMODE
 70
     1
  9
$MAXACTVP
 70
    64
  9
$PINSBASE
 10
0.0
 20
0.0
 30
0.0
  9
$PLIMCHECK
 70
     0
  9
$PEXTMIN
 10
1.000000000000000E+20
 20
1.000000000000000E+20
 30
1.000000000000000E+20
  9
$PEXTMAX
 10
-1.000000000000000E+20
 20
-1.000000000000000E+20
 30
-1.000000000000000E+20
  9
$PLIMMIN
 10
0.0
 20
0.0
  9
$PLIMMAX
 10
12.0
 20
9.0
  9
$UNITMODE
 70
     0
  9
$VISRETAIN
 70
     1
  9
$PLINEGEN
 70
     0
  9
$PSLTSCALE
 70
     1
  9
$TREEDEPTH
 70
  3020
  9
$CMLSTYLE
  2
Standard
  9
$CMLJUST
 70
     0
  9
$CMLSCALE
 40
1.0
  9
$PROXYGRAPHICS
 70
     1
  9
$MEASUREMENT
 70
     0
  9
$CELWEIGHT
370
    -1
  9
$ENDCAPS
280
     0
  9
$JOINSTYLE
280
     0
  9
$LWDISPLAY
290
     0
  9
$INSUNITS
 70
     4
  9
$HYPERLINKBASE
  1

  9
$STYLESHEET
  1

  9
$XEDIT
290
     1
  9
$CEPSNTYPE
380
     0
  9
$PSTYLEMODE
290
     1
  9
$FINGERPRINTGUID
  2
{31AA3C7A-241D-4311-AEC2-E18138041055}
  9
$VERSIONGUID
  2
{FAEB1C32-E019-11D5-929B-00C0DF256EC4}
  9
$EXTNAMES
290
     1
  9
$PSVPSCALE
 40
0.0
  9
$OLESTARTUP
290
     0
  9
$SORTENTS
280
   127
  9
$INDEXCTL
280
     0
  9
$HIDETEXT
280
     1
  9
$XCLIPFRAME
290
     0
  9
$HALOGAP
280
     0
  9
$OBSCOLOR
 70
   257
  9
$OBSLTYPE
280
     0
  9
$INTERSECTIONDISPLAY
280
     0
  9
$INTERSECTIONCOLOR
 70
   257
  9
$DIMASSOC
280
     2
  9
$PROJECTNAME
  1

  9
$CAMERADISPLAY
290
     0
  9
$LENSLENGTH
 40
50.0
  9
$CAMERAHEIGHT
 40
0.0
  9
$STEPSPERSEC
 40
2.0
  9
$STEPSIZE
 40
6.0
  9
$3DDWFPREC
 40
2.0
  9
$PSOLWIDTH
 40
0.25
  9
$PSOLHEIGHT
 40
4.0
  9
$LOFTANG1
 40
1.570796326794897
  9
$LOFTANG2
 40
1.570796326794897
  9
$LOFTMAG1
 40
0.0
  9
$LOFTMAG2
 40
0.0
  9
$LOFTPARAM
 70
     7
  9
$LOFTNORMALS
280
     1
  9
$LATITUDE
 40
37.795
  9
$LONGITUDE
 40
-122.394
  9
$NORTHDIRECTION
 40
0.0
  9
$TIMEZONE
 70
 -8000
  9
$LIGHTGLYPHDISPLAY
280
     1
  9
$TILEMODELIGHTSYNCH
280
     1
  9
$SOLIDHIST
280
     1
  9
$SHOWHIST
280
     1
  9
$DWFFRAME
280
     2
  9
$DGNFRAME
280
     2
  9
$REALWORLDSCALE
290
     1
  9
$INTERFERECOLOR
 62
   256
  9
$CSHADOW
280
     0
  9
$SHADOWPLANELOCATION
 40
0.0
  0
ENDSEC
  0
SECTION
  2
CLASSES
  0
CLASS
  1
ACDBDICTIONARYWDFLT
  2
AcDbDictionaryWithDefault
  3
ObjectDBX Classes
 90
        0
 91
        4
280
     0
281
     0
  0
CLASS
  1
VISUALSTYLE
  2
AcDbVisualStyle
  3
ObjectDBX Classes
 90
     4095
 91
        4
280
     0
281
     0
  0
CLASS
  1
MATERIAL
  2
AcDbMaterial
  3
ObjectDBX Classes
 90
     1153
 91
        4
280
     0
281
     0
  0
ENDSEC
  0
SECTION
  2
TABLES
  0
TABLE
  2
VPORT
  5
8
330
0
100
AcDbSymbolTable
 70
     1
  0
VPORT
  5
29
330
8
100
AcDbSymbolTableRecord
100
AcDbViewportTableRecord
  2
*Active
 70
     0
 10
0.0
 20
0.0
 11
1.0
 21
1.0
 12
10.42990654205607
 22
4.5
 13
0.0
 23
0.0
 14
0.5
 24
0.5
 15
0.5
 25
0.5
 16
0.0
 26
0.0
 36
1.0
 17
0.0
 27
0.0
 37
0.0
 40
9.0
 41
1.972972972850329
 42
50.0
 43
0.0
 44
0.0
 50
0.0
 51
0.0
 71
     0
 72
   100
 73
     1
 74
     3
 75
     0
 76
     0
 77
     0
 78
     0
281
     0
 65
     1
110
0.0
120
0.0
130
0.0
111
1.0
121
0.0
131
0.0
112
0.0
122
1.0
132
0.0
 79
     0
146
0.0
 60
     3
 61
     5
292
     1
282
     1
141
0.0
142
0.0
 63
   250
  0
ENDTAB
  0
TABLE
  2
LTYPE
  5
5
330
0
100
AcDbSymbolTable
 70
     1
  0
LTYPE
  5
14
330
5
100
AcDbSymbolTableRecord
100
AcDbLinetypeTableRecord
  2
ByBlock
 70
     0
  3

 72
    65
 73
     0
 40
0.0
  0
LTYPE
  5
15
330
5
100
AcDbSymbolTableRecord
100
AcDbLinetypeTableRecord
  2
ByLayer
 70
     0
  3

 72
    65
 73
     0
 40
0.0
  0
LTYPE
  5
16
330
5
100
AcDbSymbolTableRecord
100
AcDbLinetypeTableRecord
  2
Continuous
 70
     0
  3
Solid line
 72
    65
 73
     0
 40
0.0
  0
ENDTAB
  0
TABLE
  2
LAYER
  5
2
330
0
100
AcDbSymbolTable
 70
     3
  0
LAYER
  5
10
330
2
100
AcDbSymbolTableRecord
100
AcDbLayerTableRecord
  2
0
 70
     0
 62
     7
  6
Continuous
370
    -3
390
F
347
3E
  0
LAYER
  5
40
330
2
100
AcDbSymbolTableRecord
100
AcDbLayerTableRecord
  2
layer 1
 70
     0
 62
     7
  6
Continuous
370
    -3
390
F
347
3E
  0
LAYER
  5
A0
330
2
100
AcDbSymbolTableRecord
100
AcDbLayerTableRecord
  2
Master Guides
 70
     0
 62
     7
  6
Continuous
370
    -3
390
F
347
3E
  0
ENDTAB
  0
TABLE
  2
STYLE
  5
3
330
0
100
AcDbSymbolTable
 70
     1
  0
STYLE
  5
11
330
3
100
AcDbSymbolTableRecord
100
AcDbTextStyleTableRecord
  2
Standard
 70
     0
 40
0.0
 41
1.0
 50
0.0
 71
     0
 42
0.2
  3
txt
  4

  0
ENDTAB
  0
TABLE
  2
VIEW
  5
6
330
0
100
AcDbSymbolTable
 70
     0
  0
ENDTAB
  0
TABLE
  2
UCS
  5
7
330
0
100
AcDbSymbolTable
 70
     0
  0
ENDTAB
  0
TABLE
  2
APPID
  5
9
330
0
100
AcDbSymbolTable
 70
     2
  0
APPID
  5
12
330
9
100
AcDbSymbolTableRecord
100
AcDbRegAppTableRecord
  2
ACAD
 70
     0
  0
APPID
  5
3F
330
9
100
AcDbSymbolTableRecord
100
AcDbRegAppTableRecord
  2
ODA
 70
     0
  0
ENDTAB
  0
TABLE
  2
DIMSTYLE
  5
A
330
0
100
AcDbSymbolTable
 70
     1
100
AcDbDimStyleTable
  0
DIMSTYLE
105
27
330
A
100
AcDbSymbolTableRecord
100
AcDbDimStyleTableRecord
  2
Standard
 70
     0
178
     0
340
11
  0
ENDTAB
  0
TABLE
  2
BLOCK_RECORD
  5
1
330
0
100
AcDbSymbolTable
 70
     1
  0
BLOCK_RECORD
  5
1F
330
1
100
AcDbSymbolTableRecord
100
AcDbBlockTableRecord
  2
*Model_Space
340
22
 70
     0
280
     1
281
     0
  0
BLOCK_RECORD
  5
1B
330
1
100
AcDbSymbolTableRecord
100
AcDbBlockTableRecord
  2
*Paper_Space
340
1E
 70
     0
280
     1
281
     0
  0
BLOCK_RECORD
  5
23
330
1
100
AcDbSymbolTableRecord
100
AcDbBlockTableRecord
  2
*Paper_Space0
340
26
 70
     0
280
     1
281
     0
  0
ENDTAB
  0
ENDSEC
  0
SECTION
  2
BLOCKS
  0
BLOCK
  5
20
330
1F
100
AcDbEntity
  8
0
100
AcDbBlockBegin
  2
*Model_Space
 70
     0
 10
0.0
 20
0.0
 30
0.0
  3
*Model_Space
  1

  0
ENDBLK
  5
21
330
1F
100
AcDbEntity
  8
0
100
AcDbBlockEnd
  0
BLOCK
  5
1C
330
1B
100
AcDbEntity
 67
     1
  8
0
100
AcDbBlockBegin
  2
*Paper_Space
 70
     0
 10
0.0
 20
0.0
 30
0.0
  3
*Paper_Space
  1

  0
ENDBLK
  5
1D
330
1B
100
AcDbEntity
 67
     1
  8
0
100
AcDbBlockEnd
  0
BLOCK
  5
24
330
23
100
AcDbEntity
  8
0
100
AcDbBlockBegin
  2
*Paper_Space0
 70
     0
 10
0.0
 20
0.0
 30
0.0
  3
*Paper_Space0
  1

  0
ENDBLK
  5
25
330
23
100
AcDbEntity
  8
0
100
AcDbBlockEnd
  0
ENDSEC
  0
SECTION
  2
ENTITIES
  0
LWPOLYLINE
  5
41
330
1F
100
AcDbEntity
  8
layer 1
 62
   250
100
AcDbPolyline
 90
        5
 70
     1
 43
0.0
 10
65.5188
 20
-115.0693
 10
196.3396
 20
-115.0693
 10
196.3396
 20
132.4969
 10
65.5188
 20
132.4969
 10
65.5188
 20
-115.0693
  0
SPLINE
  5
42
330
1F
100
AcDbEntity
  8
layer 1
 62
     7
100
AcDbSpline
210
0.0
220
0.0
230
1.0
 70
    11
 71
     3
 72
    36
 73
    32
 74
     0
 42
0.0000000001
 43
0.0000000001
 12
1.0
 22
0.0
 32
0.0
 13
1.0
 23
0.0
 33
0.0
 40
0.0
 40
0.0
 40
0.0
 40
0.0
 40
0.1111111111111111
 40
0.1111111111111111
 40
0.1111111111111111
 40
0.1111111111111111
 40
0.2222222222222222
 40
0.2222222222222222
 40
0.2222222222222222
 40
0.2222222222222222
 40
0.3333333333333333
 40
0.3333333333333333
 40
0.3333333333333333
 40
0.3333333333333333
 40
0.4444444444444444
 40
0.4444444444444444
 40
0.4444444444444444
 40
0.4444444444444444
 40
0.5555555555555556
 40
0.5555555555555556
 40
0.5555555555555556
 40
0.5555555555555556
 40
0.6666666666666666
 40
0.6666666666666666
 40
0.6666666666666666
 40
0.6666666666666666
 40
0.7777777777777778
 40
0.7777777777777778
 40
0.7777777777777778
 40
0.7777777777777778
 40
1.0
 40
1.0
 40
1.0
 40
1.0
 10
153.026
 20
109.5615
 30
0.0
 10
155.5898
 20
111.1199
 30
0.0
 10
157.7722
 20
113.0597
 30
0.0
 10
159.2095
 20
115.7449
 30
0.0
 10
159.2095
 20
115.7449
 30
0.0
 10
159.679
 20
116.6213
 30
0.0
 10
161.3032
 20
116.6337
 30
0.0
 10
161.7483
 20
115.7449
 30
0.0
 10
161.7483
 20
115.7449
 30
0.0
 10
163.0859
 20
113.0734
 30
0.0
 10
165.2181
 20
110.9412
 30
0.0
 10
167.931
 20
109.5614
 30
0.0
 10
167.931
 20
109.5614
 30
0.0
 10
168.8181
 20
109.1108
 30
0.0
 10
168.8116
 20
107.4849
 30
0.0
 10
167.931
 20
107.0234
 30
0.0
 10
167.931
 20
107.0234
 30
0.0
 10
165.4875
 20
105.7425
 30
0.0
 10
163.2845
 20
103.936
 30
0.0
 10
161.7483
 20
100.8399
 30
0.0
 10
161.7483
 20
100.8399
 30
0.0
 10
161.3057
 20
99.9494
 30
0.0
 10
159.6351
 20
99.9404
 30
0.0
 10
159.2095
 20
100.8399
 30
0.0
 10
159.2095
 20
100.8399
 30
0.0
 10
157.8861
 20
103.638
 30
0.0
 10
155.5836
 20
105.4299
 30
0.0
 10
153.0259
 20
107.0234
 30
0.0
 10
153.0259
 20
107.0234
 30
0.0
 10
152.1821
 20
107.5486
 30
0.0
 10
152.1767
 20
109.0452
 30
0.0
 10
153.026
 20
109.5615
 30
0.0
  0
SPLINE
  5
43
330
1F
100
AcDbEntity
  8
layer 1
 62
     7
100
AcDbSpline
210
0.0
220
0.0
230
1.0
 70
    11
 71
     3
 72
    36
 73
    32
 74
     0
 42
0.0000000001
 43
0.0000000001
 12
1.0
 22
0.0
 32
0.0
 13
1.0
 23
0.0
 33
0.0
 40
0.0
 40
0.0
 40
0.0
 40
0.0
 40
0.1111111111111111
 40
0.1111111111111111
 40
0.1111111111111111
 40
0.1111111111111111
 40
0.2222222222222222
 40
0.2222222222222222
 40
0.2222222222222222
 40
0.2222222222222222
 40
0.3333333333333333
 40
0.3333333333333333
 40
0.3333333333333333
 40
0.3333333333333333
 40
0.4444444444444444
 40
0.4444444444444444
 40
0.4444444444444444
 40
0.4444444444444444
 40
0.5555555555555556
 40
0.5555555555555556
 40
0.5555555555555556
 40
0.5555555555555556
 40
0.6666666666666666
 40
0.6666666666666666
 40
0.6666666666666666
 40
0.6666666666666666
 40
0.7777777777777778
 40
0.7777777777777778
 40
0.7777777777777778
 40
0.7777777777777778
 40
1.0
 40
1.0
 40
1.0
 40
1.0
 10
135.0245
 20
105.2838
 30
0.0
 10
138.0246
 20
105.3509
 30
0.0
 10
143.1094
 20
105.3653
 30
0.0
 10
146.6465
 20
105.2019
 30
0.0
 10
146.6465
 20
105.2019
 30
0.0
 10
149.7662
 20
105.0574
 30
0.0
 10
152.2395
 20
103.6478
 30
0.0
 10
153.6329
 20
102.3696
 30
0.0
 10
153.6329
 20
102.3696
 30
0.0
 10
155.6096
 20
100.5552
 30
0.0
 10
155.8826
 20
99.8567
 30
0.0
 10
156.9561
 20
97.2067
 30
0.0
 10
156.9561
 20
97.2067
 30
0.0
 10
157.3296
 20
96.2847
 30
0.0
 10
156.6805
 20
94.9677
 30
0.0
 10
155.6868
 20
95.0082
 30
0.0
 10
155.6868
 20
95.0082
 30
0.0
 10
152.9299
 20
95.1214
 30
0.0
 10
148.1018
 20
94.78
 30
0.0
 10
144.0305
 20
94.981
 30
0.0
 10
144.0305
 20
94.981
 30
0.0
 10
139.7627
 20
95.1921
 30
0.0
 10
136.8362
 20
97.7274
 30
0.0
 10
135.8234
 20
98.9859
 30
0.0
 10
135.8234
 20
98.9859
 30
0.0
 10
134.0747
 20
101.1603
 30
0.0
 10
134.002
 20
101.9414
 30
0.0
 10
133.7559
 20
103.085
 30
0.0
 10
133.7559
 20
103.085
 30
0.0
 10
133.5468
 20
104.0575
 30
0.0
 10
134.0307
 20
105.2612
 30
0.0
 10
135.0245
 20
105.2838
 30
0.0
  0
SPLINE
  5
44
330
1F
100
AcDbEntity
  8
layer 1
 62
     7
100
AcDbSpline
210
0.0
220
0.0
230
1.0
 70
    11
 71
     3
 72
    36
 73
    32
 74
     0
 42
0.0000000001
 43
0.0000000001
 12
1.0
 22
0.0
 32
0.0
 13
1.0
 23
0.0
 33
0.0
 40
0.0
 40
0.0
 40
0.0
 40
0.0
 40
0.1111111111111111
 40
0.1111111111111111
 40
0.1111111111111111
 40
0.1111111111111111
 40
0.2222222222222222
 40
0.2222222222222222
 40
0.2222222222222222
 40
0.2222222222222222
 40
0.3333333333333333
 40
0.3333333333333333
 40
0.3333333333333333
 40
0.3333333333333333
 40
0.4444444444444444
 40
0.4444444444444444
 40
0.4444444444444444
 40
0.4444444444444444
 40
0.5555555555555556
 40
0.5555555555555556
 40
0.5555555555555556
 40
0.5555555555555556
 40
0.6666666666666666
 40
0.6666666666666666
 40
0.6666666666666666
 40
0.6666666666666666
 40
0.7777777777777778
 40
0.7777777777777778
 40
0.7777777777777778
 40
0.7777777777777778
 40
1.0
 40
1.0
 40
1.0
 40
1.0
 10
185.8357
 20
105.2838
 30
0.0
 10
182.8363
 20
105.3509
 30
0.0
 10
177.7506
 20
105.3653
 30
0.0
 10
174.2134
 20
105.2019
 30
0.0
 10
174.2134
 20
105.2019
 30
0.0
 10
171.0948
 20
105.0574
 30
0.0
 10
168.6213
 20
103.6478
 30
0.0
 10
167.2282
 20
102.3696
 30
0.0
 10
167.2282
 20
102.3696
 30
0.0
 10
165.2512
 20
100.5552
 30
0.0
 10
164.9785
 20
99.8567
 30
0.0
 10
163.9047
 20
97.2067
 30
0.0
 10
163.9047
 20
97.2067
 30
0.0
 10
163.5313
 20
96.2847
 30
0.0
 10
164.1803
 20
94.9677
 30
0.0
 10
165.174
 20
95.0082
 30
0.0
 10
165.174
 20
95.0082
 30
0.0
 10
167.931
 20
95.1214
 30
0.0
 10
172.7591
 20
94.78
 30
0.0
 10
176.8303
 20
94.981
 30
0.0
 10
176.8303
 20
94.981
 30
0.0
 10
181.0973
 20
95.1921
 30
0.0
 10
184.0249
 20
97.7274
 30
0.0
 10
185.0375
 20
98.9859
 30
0.0
 10
185.0375
 20
98.9859
 30
0.0
 10
186.7862
 20
101.1603
 30
0.0
 10
186.859
 20
101.9414
 30
0.0
 10
187.105
 20
103.085
 30
0.0
 10
187.105
 20
103.085
 30
0.0
 10
187.3142
 20
104.0575
 30
0.0
 10
186.8303
 20
105.2612
 30
0.0
 10
185.8357
 20
105.2838
 30
0.0
  0
SPLINE
  5
45
330
1F
100
AcDbEntity
  8
layer 1
 62
     7
100
AcDbSpline
210
0.0
220
0.0
230
1.0
 70
    11
 71
     3
 72
    36
 73
    32
 74
     0
 42
0.0000000001
 43
0.0000000001
 12
1.0
 22
0.0
 32
0.0
 13
1.0
 23
0.0
 33
0.0
 40
0.0
 40
0.0
 40
0.0
 40
0.0
 40
0.1111111111111111
 40
0.1111111111111111
 40
0.1111111111111111
 40
0.1111111111111111
 40
0.2222222222222222
 40
0.2222222222222222
 40
0.2222222222222222
 40
0.2222222222222222
 40
0.3333333333333333
 40
0.3333333333333333
 40
0.3333333333333333
 40
0.3333333333333333
 40
0.4444444444444444
 40
0.4444444444444444
 40
0.4444444444444444
 40
0.4444444444444444
 40
0.5555555555555556
 40
0.5555555555555556
 40
0.5555555555555556
 40
0.5555555555555556
 40
0.6666666666666666
 40
0.6666666666666666
 40
0.6666666666666666
 40
0.6666666666666666
 40
0.7777777777777778
 40
0.7777777777777778
 40
0.7777777777777778
 40
0.7777777777777778
 40
1.0
 40
1.0
 40
1.0
 40
1.0
 10
135.0245
 20
111.4547
 30
0.0
 10
138.0246
 20
111.3873
 30
0.0
 10
143.1094
 20
111.373
 30
0.0
 10
146.6465
 20
111.5365
 30
0.0
 10
146.6465
 20
111.5365
 30
0.0
 10
149.7662
 20
111.6808
 30
0.0
 10
152.2395
 20
113.0903
 30
0.0
 10
153.6329
 20
114.3688
 30
0.0
 10
153.6329
 20
114.3688
 30
0.0
 10
155.6096
 20
116.183
 30
0.0
 10
155.8826
 20
116.8823
 30
0.0
 10
156.9561
 20
119.5317
 30
0.0
 10
156.9561
 20
119.5317
 30
0.0
 10
157.3296
 20
120.4536
 30
0.0
 10
156.6805
 20
121.7706
 30
0.0
 10
155.6868
 20
121.7302
 30
0.0
 10
155.6868
 20
121.7302
 30
0.0
 10
152.9299
 20
121.6172
 30
0.0
 10
148.1018
 20
121.9582
 30
0.0
 10
144.0305
 20
121.7571
 30
0.0
 10
144.0305
 20
121.7571
 30
0.0
 10
139.7627
 20
121.5461
 30
0.0
 10
136.8362
 20
119.0109
 30
0.0
 10
135.8234
 20
117.7522
 30
0.0
 10
135.8234
 20
117.7522
 30
0.0
 10
134.0747
 20
115.5779
 30
0.0
 10
134.002
 20
114.7969
 30
0.0
 10
133.7559
 20
113.6531
 30
0.0
 10
133.7559
 20
113.6531
 30
0.0
 10
133.5468
 20
112.681
 30
0.0
 10
134.0307
 20
111.4772
 30
0.0
 10
135.0245
 20
111.4547
 30
0.0
  0
SPLINE
  5
46
330
1F
100
AcDbEntity
  8
layer 1
 62
     7
100
AcDbSpline
210
0.0
220
0.0
230
1.0
 70
    11
 71
     3
 72
    36
 73
    32
 74
     0
 42
0.0000000001
 43
0.0000000001
 12
1.0
 22
0.0
 32
0.0
 13
1.0
 23
0.0
 33
0.0
 40
0.0
 40
0.0
 40
0.0
 40
0.0
 40
0.1111111111111111
 40
0.1111111111111111
 40
0.1111111111111111
 40
0.1111111111111111
 40
0.2222222222222222
 40
0.2222222222222222
 40
0.2222222222222222
 40
0.2222222222222222
 40
0.3333333333333333
 40
0.3333333333333333
 40
0.3333333333333333
 40
0.3333333333333333
 40
0.4444444444444444
 40
0.4444444444444444
 40
0.4444444444444444
 40
0.4444444444444444
 40
0.5555555555555556
 40
0.5555555555555556
 40
0.5555555555555556
 40
0.5555555555555556
 40
0.6666666666666666
 40
0.6666666666666666
 40
0.6666666666666666
 40
0.6666666666666666
 40
0.7777777777777778
 40
0.7777777777777778
 40
0.7777777777777778
 40
0.7777777777777778
 40
1.0
 40
1.0
 40
1.0
 40
1.0
 10
185.8357
 20
111.4547
 30
0.0
 10
182.8363
 20
111.3873
 30
0.0
 10
177.7506
 20
111.373
 30
0.0
 10
174.2134
 20
111.5365
 30
0.0
 10
174.2134
 20
111.5365
 30
0.0
 10
171.0948
 20
111.6808
 30
0.0
 10
168.6213
 20
113.0903
 30
0.0
 10
167.2282
 20
114.3688
 30
0.0
 10
167.2282
 20
114.3688
 30
0.0
 10
165.2512
 20
116.183
 30
0.0
 10
164.9785
 20
116.8823
 30
0.0
 10
163.9047
 20
119.5317
 30
0.0
 10
163.9047
 20
119.5317
 30
0.0
 10
163.5313
 20
120.4536
 30
0.0
 10
164.1803
 20
121.7706
 30
0.0
 10
165.174
 20
121.7302
 30
0.0
 10
165.174
 20
121.7302
 30
0.0
 10
167.931
 20
121.6172
 30
0.0
 10
172.7591
 20
121.9582
 30
0.0
 10
176.8303
 20
121.7571
 30
0.0
 10
176.8303
 20
121.7571
 30
0.0
 10
181.0973
 20
121.5461
 30
0.0
 10
184.0249
 20
119.0109
 30
0.0
 10
185.0375
 20
117.7522
 30
0.0
 10
185.0375
 20
117.7522
 30
0.0
 10
186.7862
 20
115.5779
 30
0.0
 10
186.859
 20
114.7969
 30
0.0
 10
187.105
 20
113.6531
 30
0.0
 10
187.105
 20
113.6531
 30
0.0
 10
187.3142
 20
112.681
 30
0.0
 10
186.8303
 20
111.4772
 30
0.0
 10
185.8357
 20
111.4547
 30
0.0
  0
SPLINE
  5
47
330
1F
100
AcDbEntity
  8
layer 1
 62
     7
100
AcDbSpline
210
0.0
220
0.0
230
1.0
 70
    11
 71
     3
 72
    36
 73
    32
 74
     0
 42
0.0000000001
 43
0.0000000001
 12
1.0
 22
0.0
 32
0.0
 13
1.0
 23
0.0
 33
0.0
 40
0.0
 40
0.0
 40
0.0
 40
0.0
 40
0.1111111111111111
 40
0.1111111111111111
 40
0.1111111111111111
 40
0.1111111111111111
 40
0.2222222222222222
 40
0.2222222222222222
 40
0.2222222222222222
 40
0.2222222222222222
 40
0.3333333333333333
 40
0.3333333333333333
 40
0.3333333333333333
 40
0.3333333333333333
 40
0.4444444444444444
 40
0.4444444444444444
 40
0.4444444444444444
 40
0.4444444444444444
 40
0.5555555555555556
 40
0.5555555555555556
 40
0.5555555555555556
 40
0.5555555555555556
 40
0.6666666666666666
 40
0.6666666666666666
 40
0.6666666666666666
 40
0.6666666666666666
 40
0.7777777777777778
 40
0.7777777777777778
 40
0.7777777777777778
 40
0.7777777777777778
 40
1.0
 40
1.0
 40
1.0
 40
1.0
 10
122.6295
 20
93.19
 30
0.0
 10
125.1933
 20
94.7485
 30
0.0
 10
127.3757
 20
96.6883
 30
0.0
 10
128.813
 20
99.3735
 30
0.0
 10
128.813
 20
99.3735
 30
0.0
 10
129.2825
 20
100.2499
 30
0.0
 10
130.9067
 20
100.2622
 30
0.0
 10
131.3518
 20
99.3735
 30
0.0
 10
131.3518
 20
99.3735
 30
0.0
 10
132.6894
 20
96.7019
 30
0.0
 10
134.8216
 20
94.5698
 30
0.0
 10
137.5345
 20
93.19
 30
0.0
 10
137.5345
 20
93.19
 30
0.0
 10
138.4216
 20
92.7394
 30
0.0
 10
138.4151
 20
91.1135
 30
0.0
 10
137.5345
 20
90.652
 30
0.0
 10
137.5345
 20
90.652
 30
0.0
 10
135.091
 20
89.371
 30
0.0
 10
132.888
 20
87.5646
 30
0.0
 10
131.3518
 20
84.4685
 30
0.0
 10
131.3518
 20
84.4685
 30
0.0
 10
130.9092
 20
83.578
 30
0.0
 10
129.2386
 20
83.5689
 30
0.0
 10
128.813
 20
84.4685
 30
0.0
 10
128.813
 20
84.4685
 30
0.0
 10
127.4896
 20
87.2666
 30
0.0
 10
125.1871
 20
89.0585
 30
0.0
 10
122.6294
 20
90.652
 30
0.0
 10
122.6294
 20
90.652
 30
0.0
 10
121.7856
 20
91.1772
 30
0.0
 10
121.7802
 20
92.6737
 30
0.0
 10
122.6295
 20
93.19
 30
0.0
  0
SPLINE
  5
48
330
1F
100
AcDbEntity
  8
layer 1
 62
     7
100
AcDbSpline
210
0.0
220
0.0
230
1.0
 70
    11
 71
     3
 72
    36
 73
    32
 74
     0
 42
0.0000000001
 43
0.0000000001
 12
1.0
 22
0.0
 32
0.0
 13
1.0
 23
0.0
 33
0.0
 40
0.0
 40
0.0
 40
0.0
 40
0.0
 40
0.1111111111111111
 40
0.1111111111111111
 40
0.1111111111111111
 40
0.1111111111111111
 40
0.2222222222222222
 40
0.2222222222222222
 40
0.2222222222222222
 40
0.2222222222222222
 40
0.3333333333333333
 40
0.3333333333333333
 40
0.3333333333333333
 40
0.3333333333333333
 40
0.4444444444444444
 40
0.4444444444444444
 40
0.4444444444444444
 40
0.4444444444444444
 40
0.5555555555555556
 40
0.5555555555555556
 40
0.5555555555555556
 40
0.5555555555555556
 40
0.6666666666666666
 40
0.6666666666666666
 40
0.6666666666666666
 40
0.6666666666666666
 40
0.7777777777777778
 40
0.7777777777777778
 40
0.7777777777777778
 40
0.7777777777777778
 40
1.0
 40
1.0
 40
1.0
 40
1.0
 10
92.5859
 20
109.5615
 30
0.0
 10
95.1497
 20
111.1199
 30
0.0
 10
97.3321
 20
113.0597
 30
0.0
 10
98.7694
 20
115.7449
 30
0.0
 10
98.7694
 20
115.7449
 30
0.0
 10
99.2389
 20
116.6213
 30
0.0
 10
100.8631
 20
116.6337
 30
0.0
 10
101.3082
 20
115.7449
 30
0.0
 10
101.3082
 20
115.7449
 30
0.0
 10
102.6458
 20
113.0734
 30
0.0
 10
104.7781
 20
110.9412
 30
0.0
 10
107.4909
 20
109.5614
 30
0.0
 10
107.4909
 20
109.5614
 30
0.0
 10
108.378
 20
109.1108
 30
0.0
 10
108.3715
 20
107.4849
 30
0.0
 10
107.4909
 20
107.0234
 30
0.0
 10
107.4909
 20
107.0234
 30
0.0
 10
105.0474
 20
105.7425
 30
0.0
 10
102.8444
 20
103.936
 30
0.0
 10
101.3082
 20
100.8399
 30
0.0
 10
101.3082
 20
100.8399
 30
0.0
 10
100.8656
 20
99.9494
 30
0.0
 10
99.195
 20
99.9404
 30
0.0
 10
98.7694
 20
100.8399
 30
0.0
 10
98.7694
 20
100.8399
 30
0.0
 10
97.4461
 20
103.638
 30
0.0
 10
95.1435
 20
105.4299
 30
0.0
 10
92.5858
 20
107.0234
 30
0.0
 10
92.5858
 20
107.0234
 30
0.0
 10
91.742
 20
107.5486
 30
0.0
 10
91.7366
 20
109.0452
 30
0.0
 10
92.5859
 20
109.5615
 30
0.0
  0
SPLINE
  5
49
330
1F
100
AcDbEntity
  8
layer 1
 62
     7
100
AcDbSpline
210
0.0
220
0.0
230
1.0
 70
    11
 71
     3
 72
    36
 73
    32
 74
     0
 42
0.0000000001
 43
0.0000000001
 12
1.0
 22
0.0
 32
0.0
 13
1.0
 23
0.0
 33
0.0
 40
0.0
 40
0.0
 40
0.0
 40
0.0
 40
0.1111111111111111
 40
0.1111111111111111
 40
0.1111111111111111
 40
0.1111111111111111
 40
0.2222222222222222
 40
0.2222222222222222
 40
0.2222222222222222
 40
0.2222222222222222
 40
0.3333333333333333
 40
0.3333333333333333
 40
0.3333333333333333
 40
0.3333333333333333
 40
0.4444444444444444
 40
0.4444444444444444
 40
0.4444444444444444
 40
0.4444444444444444
 40
0.5555555555555556
 40
0.5555555555555556
 40
0.5555555555555556
 40
0.5555555555555556
 40
0.6666666666666666
 40
0.6666666666666666
 40
0.6666666666666666
 40
0.6666666666666666
 40
0.7777777777777778
 40
0.7777777777777778
 40
0.7777777777777778
 40
0.7777777777777778
 40
1.0
 40
1.0
 40
1.0
 40
1.0
 10
74.5844
 20
105.2838
 30
0.0
 10
77.5845
 20
105.3509
 30
0.0
 10
82.6693
 20
105.3653
 30
0.0
 10
86.2065
 20
105.2019
 30
0.0
 10
86.2065
 20
105.2019
 30
0.0
 10
89.3261
 20
105.0574
 30
0.0
 10
91.7994
 20
103.6478
 30
0.0
 10
93.1928
 20
102.3696
 30
0.0
 10
93.1928
 20
102.3696
 30
0.0
 10
95.1695
 20
100.5552
 30
0.0
 10
95.4425
 20
99.8567
 30
0.0
 10
96.516
 20
97.2067
 30
0.0
 10
96.516
 20
97.2067
 30
0.0
 10
96.8895
 20
96.2847
 30
0.0
 10
96.2405
 20
94.9677
 30
0.0
 10
95.2467
 20
95.0082
 30
0.0
 10
95.2467
 20
95.0082
 30
0.0
 10
92.4898
 20
95.1214
 30
0.0
 10
87.6617
 20
94.78
 30
0.0
 10
83.5904
 20
94.981
 30
0.0
 10
83.5904
 20
94.981
 30
0.0
 10
79.3227
 20
95.1921
 30
0.0
 10
76.3961
 20
97.7274
 30
0.0
 10
75.3833
 20
98.9859
 30
0.0
 10
75.3833
 20
98.9859
 30
0.0
 10
73.6346
 20
101.1603
 30
0.0
 10
73.5619
 20
101.9414
 30
0.0
 10
73.3158
 20
103.085
 30
0.0
 10
73.3158
 20
103.085
 30
0.0
 10
73.1067
 20
104.0575
 30
0.0
 10
73.5906
 20
105.2612
 30
0.0
 10
74.5844
 20
105.2838
 30
0.0
  0
SPLINE
  5
4A
330
1F
100
AcDbEntity
  8
layer 1
 62
     7
100
AcDbSpline
210
0.0
220
0.0
230
1.0
 70
    11
 71
     3
 72
    36
 73
    32
 74
     0
 42
0.0000000001
 43
0.0000000001
 12
1.0
 22
0.0
 32
0.0
 13
1.0
 23
0.0
 33
0.0
 40
0.0
 40
0.0
 40
0.0
 40
0.0
 40
0.1111111111111111
 40
0.1111111111111111
 40
0.1111111111111111
 40
0.1111111111111111
 40
0.2222222222222222
 40
0.2222222222222222
 40
0.2222222222222222
 40
0.2222222222222222
 40
0.3333333333333333
 40
0.3333333333333333
 40
0.3333333333333333
 40
0.3333333333333333
 40
0.4444444444444444
 40
0.4444444444444444
 40
0.4444444444444444
 40
0.4444444444444444
 40
0.5555555555555556
 40
0.5555555555555556
 40
0.5555555555555556
 40
0.5555555555555556
 40
0.6666666666666666
 40
0.6666666666666666
 40
0.6666666666666666
 40
0.6666666666666666
 40
0.7777777777777778
 40
0.7777777777777778
 40
0.7777777777777778
 40
0.7777777777777778
 40
1.0
 40
1.0
 40
1.0
 40
1.0
 10
125.3956
 20
105.2838
 30
0.0
 10
122.3962
 20
105.3509
 30
0.0
 10
117.3105
 20
105.3653
 30
0.0
 10
113.7733
 20
105.2019
 30
0.0
 10
113.7733
 20
105.2019
 30
0.0
 10
110.6547
 20
105.0574
 30
0.0
 10
108.1812
 20
103.6478
 30
0.0
 10
106.7881
 20
102.3696
 30
0.0
 10
106.7881
 20
102.3696
 30
0.0
 10
104.8111
 20
100.5552
 30
0.0
 10
104.5384
 20
99.8567
 30
0.0
 10
103.4646
 20
97.2067
 30
0.0
 10
103.4646
 20
97.2067
 30
0.0
 10
103.0912
 20
96.2847
 30
0.0
 10
103.7402
 20
94.9677
 30
0.0
 10
104.7339
 20
95.0082
 30
0.0
 10
104.7339
 20
95.0082
 30
0.0
 10
107.4909
 20
95.1214
 30
0.0
 10
112.319
 20
94.78
 30
0.0
 10
116.3902
 20
94.981
 30
0.0
 10
116.3902
 20
94.981
 30
0.0
 10
120.6572
 20
95.1921
 30
0.0
 10
123.5848
 20
97.7274
 30
0.0
 10
124.5974
 20
98.9859
 30
0.0
 10
124.5974
 20
98.9859
 30
0.0
 10
126.3461
 20
101.1603
 30
0.0
 10
126.419
 20
101.9414
 30
0.0
 10
126.6649
 20
103.085
 30
0.0
 10
126.6649
 20
103.085
 30
0.0
 10
126.8741
 20
104.0575
 30
0.0
 10
126.3902
 20
105.2612
 30
0.0
 10
125.3956
 20
105.2838
 30
0.0
  0
SPLINE
  5
4B
330
1F
100
AcDbEntity
  8
layer 1
 62
     7
100
AcDbSpline
210
0.0
220
0.0
230
1.0
 70
    11
 71
     3
 72
    36
 73
    32
 74
     0
 42
0.0000000001
 43
0.0000000001
 12
1.0
 22
0.0
 32
0.0
 13
1.0
 23
0.0
 33
0.0
 40
0.0
 40
0.0
 40
0.0
 40
0.0
 40
0.1111111111111111
 40
0.1111111111111111
 40
0.1111111111111111
 40
0.1111111111111111
 40
0.2222222222222222
 40
0.2222222222222222
 40
0.2222222222222222
 40
0.2222222222222222
 40
0.3333333333333333
 40
0.3333333333333333
 40
0.3333333333333333
 40
0.3333333333333333
 40
0.4444444444444444
 40
0.4444444444444444
 40
0.4444444444444444
 40
0.4444444444444444
 40
0.5555555555555556
 40
0.5555555555555556
 40
0.5555555555555556
 40
0.5555555555555556
 40
0.6666666666666666
 40
0.6666666666666666
 40
0.6666666666666666
 40
0.6666666666666666
 40
0.7777777777777778
 40
0.7777777777777778
 40
0.7777777777777778
 40
0.7777777777777778
 40
1.0
 40
1.0
 40
1.0
 40
1.0
 10
74.5844
 20
111.4547
 30
0.0
 10
77.5845
 20
111.3873
 30
0.0
 10
82.6693
 20
111.373
 30
0.0
 10
86.2065
 20
111.5365
 30
0.0
 10
86.2065
 20
111.5365
 30
0.0
 10
89.3261
 20
111.6808
 30
0.0
 10
91.7994
 20
113.0903
 30
0.0
 10
93.1928
 20
114.3688
 30
0.0
 10
93.1928
 20
114.3688
 30
0.0
 10
95.1695
 20
116.183
 30
0.0
 10
95.4425
 20
116.8823
 30
0.0
 10
96.516
 20
119.5317
 30
0.0
 10
96.516
 20
119.5317
 30
0.0
 10
96.8895
 20
120.4536
 30
0.0
 10
96.2405
 20
121.7706
 30
0.0
 10
95.2467
 20
121.7302
 30
0.0
 10
95.2467
 20
121.7302
 30
0.0
 10
92.4898
 20
121.6172
 30
0.0
 10
87.6617
 20
121.9582
 30
0.0
 10
83.5904
 20
121.7571
 30
0.0
 10
83.5904
 20
121.7571
 30
0.0
 10
79.3227
 20
121.5461
 30
0.0
 10
76.3961
 20
119.0109
 30
0.0
 10
75.3833
 20
117.7522
 30
0.0
 10
75.3833
 20
117.7522
 30
0.0
 10
73.6346
 20
115.5779
 30
0.0
 10
73.5619
 20
114.7969
 30
0.0
 10
73.3158
 20
113.6531
 30
0.0
 10
73.3158
 20
113.6531
 30
0.0
 10
73.1067
 20
112.681
 30
0.0
 10
73.5906
 20
111.4772
 30
0.0
 10
74.5844
 20
111.4547
 30
0.0
  0
SPLINE
  5
4C
330
1F
100
AcDbEntity
  8
layer 1
 62
     7
100
AcDbSpline
210
0.0
220
0.0
230
1.0
 70
    11
 71
     3
 72
    36
 73
    32
 74
     0
 42
0.0000000001
 43
0.0000000001
 12
1.0
 22
0.0
 32
0.0
 13
1.0
 23
0.0
 33
0.0
 40
0.0
 40
0.0
 40
0.0
 40
0.0
 40
0.1111111111111111
 40
0.1111111111111111
 40
0.1111111111111111
 40
0.1111111111111111
 40
0.2222222222222222
 40
0.2222222222222222
 40
0.2222222222222222
 40
0.2222222222222222
 40
0.3333333333333333
 40
0.3333333333333333
 40
0.3333333333333333
 40
0.3333333333333333
 40
0.4444444444444444
 40
0.4444444444444444
 40
0.4444444444444444
 40
0.4444444444444444
 40
0.5555555555555556
 40
0.5555555555555556
 40
0.5555555555555556
 40
0.5555555555555556
 40
0.6666666666666666
 40
0.6666666666666666
 40
0.6666666666666666
 40
0.6666666666666666
 40
0.7777777777777778
 40
0.7777777777777778
 40
0.7777777777777778
 40
0.7777777777777778
 40
1.0
 40
1.0
 40
1.0
 40
1.0
 10
125.3956
 20
111.4547
 30
0.0
 10
122.3962
 20
111.3873
 30
0.0
 10
117.3105
 20
111.373
 30
0.0
 10
113.7733
 20
111.5365
 30
0.0
 10
113.7733
 20
111.5365
 30
0.0
 10
110.6547
 20
111.6808
 30
0.0
 10
108.1812
 20
113.0903
 30
0.0
 10
106.7881
 20
114.3688
 30
0.0
 10
106.7881
 20
114.3688
 30
0.0
 10
104.8111
 20
116.183
 30
0.0
 10
104.5384
 20
116.8823
 30
0.0
 10
103.4646
 20
119.5317
 30
0.0
 10
103.4646
 20
119.5317
 30
0.0
 10
103.0912
 20
120.4536
 30
0.0
 10
103.7402
 20
121.7706
 30
0.0
 10
104.7339
 20
121.7302
 30
0.0
 10
104.7339
 20
121.7302
 30
0.0
 10
107.4909
 20
121.6172
 30
0.0
 10
112.319
 20
121.9582
 30
0.0
 10
116.3902
 20
121.7571
 30
0.0
 10
116.3902
 20
121.7571
 30
0.0
 10
120.6572
 20
121.5461
 30
0.0
 10
123.5848
 20
119.0109
 30
0.0
 10
124.5974
 20
117.7522
 30
0.0
 10
124.5974
 20
117.7522
 30
0.0
 10
126.3461
 20
115.5779
 30
0.0
 10
126.419
 20
114.7969
 30
0.0
 10
126.6649
 20
113.6531
 30
0.0
 10
126.6649
 20
113.6531
 30
0.0
 10
126.8741
 20
112.681
 30
0.0
 10
126.3902
 20
111.4772
 30
0.0
 10
125.3956
 20
111.4547
 30
0.0
  0
SPLINE
  5
4D
330
1F
100
AcDbEntity
  8
layer 1
 62
     7
100
AcDbSpline
210
0.0
220
0.0
230
1.0
 70
    11
 71
     3
 72
    36
 73
    32
 74
     0
 42
0.0000000001
 43
0.0000000001
 12
1.0
 22
0.0
 32
0.0
 13
1.0
 23
0.0
 33
0.0
 40
0.0
 40
0.0
 40
0.0
 40
0.0
 40
0.1111111111111111
 40
0.1111111111111111
 40
0.1111111111111111
 40
0.1111111111111111
 40
0.2222222222222222
 40
0.2222222222222222
 40
0.2222222222222222
 40
0.2222222222222222
 40
0.3333333333333333
 40
0.3333333333333333
 40
0.3333333333333333
 40
0.3333333333333333
 40
0.4444444444444444
 40
0.4444444444444444
 40
0.4444444444444444
 40
0.4444444444444444
 40
0.5555555555555556
 40
0.5555555555555556
 40
0.5555555555555556
 40
0.5555555555555556
 40
0.6666666666666666
 40
0.6666666666666666
 40
0.6666666666666666
 40
0.6666666666666666
 40
0.7777777777777778
 40
0.7777777777777778
 40
0.7777777777777778
 40
0.7777777777777778
 40
1.0
 40
1.0
 40
1.0
 40
1.0
 10
153.026
 20
75.8785
 30
0.0
 10
155.5898
 20
77.437
 30
0.0
 10
157.7722
 20
79.3768
 30
0.0
 10
159.2095
 20
82.062
 30
0.0
 10
159.2095
 20
82.062
 30
0.0
 10
159.679
 20
82.9384
 30
0.0
 10
161.3032
 20
82.9507
 30
0.0
 10
161.7483
 20
82.062
 30
0.0
 10
161.7483
 20
82.062
 30
0.0
 10
163.0859
 20
79.3904
 30
0.0
 10
165.2181
 20
77.2583
 30
0.0
 10
167.931
 20
75.8785
 30
0.0
 10
167.931
 20
75.8785
 30
0.0
 10
168.8181
 20
75.4279
 30
0.0
 10
168.8116
 20
73.802
 30
0.0
 10
167.931
 20
73.3405
 30
0.0
 10
167.931
 20
73.3405
 30
0.0
 10
165.4875
 20
72.0595
 30
0.0
 10
163.2845
 20
70.2531
 30
0.0
 10
161.7483
 20
67.157
 30
0.0
 10
161.7483
 20
67.157
 30
0.0
 10
161.3057
 20
66.2665
 30
0.0
 10
159.6351
 20
66.2574
 30
0.0
 10
159.2095
 20
67.157
 30
0.0
 10
159.2095
 20
67.157
 30
0.0
 10
157.8861
 20
69.9551
 30
0.0
 10
155.5836
 20
71.747
 30
0.0
 10
153.0259
 20
73.3405
 30
0.0
 10
153.0259
 20
73.3405
 30
0.0
 10
152.1821
 20
73.8657
 30
0.0
 10
152.1767
 20
75.3623
 30
0.0
 10
153.026
 20
75.8785
 30
0.0
  0
SPLINE
  5
4E
330
1F
100
AcDbEntity
  8
layer 1
 62
     7
100
AcDbSpline
210
0.0
220
0.0
230
1.0
 70
    11
 71
     3
 72
    36
 73
    32
 74
     0
 42
0.0000000001
 43
0.0000000001
 12
1.0
 22
0.0
 32
0.0
 13
1.0
 23
0.0
 33
0.0
 40
0.0
 40
0.0
 40
0.0
 40
0.0
 40
0.1111111111111111
 40
0.1111111111111111
 40
0.1111111111111111
 40
0.1111111111111111
 40
0.2222222222222222
 40
0.2222222222222222
 40
0.2222222222222222
 40
0.2222222222222222
 40
0.3333333333333333
 40
0.3333333333333333
 40
0.3333333333333333
 40
0.3333333333333333
 40
0.4444444444444444
 40
0.4444444444444444
 40
0.4444444444444444
 40
0.4444444444444444
 40
0.5555555555555556
 40
0.5555555555555556
 40
0.5555555555555556
 40
0.5555555555555556
 40
0.6666666666666666
 40
0.6666666666666666
 40
0.6666666666666666
 40
0.6666666666666666
 40
0.7777777777777778
 40
0.7777777777777778
 40
0.7777777777777778
 40
0.7777777777777778
 40
1.0
 40
1.0
 40
1.0
 40
1.0
 10
135.0245
 20
71.6008
 30
0.0
 10
138.0246
 20
71.6679
 30
0.0
 10
143.1094
 20
71.6824
 30
0.0
 10
146.6465
 20
71.519
 30
0.0
 10
146.6465
 20
71.519
 30
0.0
 10
149.7662
 20
71.3745
 30
0.0
 10
152.2395
 20
69.9649
 30
0.0
 10
153.6329
 20
68.6867
 30
0.0
 10
153.6329
 20
68.6867
 30
0.0
 10
155.6096
 20
66.8723
 30
0.0
 10
155.8826
 20
66.1738
 30
0.0
 10
156.9561
 20
63.5238
 30
0.0
 10
156.9561
 20
63.5238
 30
0.0
 10
157.3296
 20
62.6018
 30
0.0
 10
156.6805
 20
61.2848
 30
0.0
 10
155.6868
 20
61.3253
 30
0.0
 10
155.6868
 20
61.3253
 30
0.0
 10
152.9299
 20
61.4384
 30
0.0
 10
148.1018
 20
61.0971
 30
0.0
 10
144.0305
 20
61.2981
 30
0.0
 10
144.0305
 20
61.2981
 30
0.0
 10
139.7627
 20
61.5092
 30
0.0
 10
136.8362
 20
64.0445
 30
0.0
 10
135.8234
 20
65.303
 30
0.0
 10
135.8234
 20
65.303
 30
0.0
 10
134.0747
 20
67.4774
 30
0.0
 10
134.002
 20
68.2585
 30
0.0
 10
133.7559
 20
69.4021
 30
0.0
 10
133.7559
 20
69.4021
 30
0.0
 10
133.5468
 20
70.3745
 30
0.0
 10
134.0307
 20
71.5782
 30
0.0
 10
135.0245
 20
71.6008
 30
0.0
  0
SPLINE
  5
4F
330
1F
100
AcDbEntity
  8
layer 1
 62
     7
100
AcDbSpline
210
0.0
220
0.0
230
1.0
 70
    11
 71
     3
 72
    36
 73
    32
 74
     0
 42
0.0000000001
 43
0.0000000001
 12
1.0
 22
0.0
 32
0.0
 13
1.0
 23
0.0
 33
0.0
 40
0.0
 40
0.0
 40
0.0
 40
0.0
 40
0.1111111111111111
 40
0.1111111111111111
 40
0.1111111111111111
 40
0.1111111111111111
 40
0.2222222222222222
 40
0.2222222222222222
 40
0.2222222222222222
 40
0.2222222222222222
 40
0.3333333333333333
 40
0.3333333333333333
 40
0.3333333333333333
 40
0.3333333333333333
 40
0.4444444444444444
 40
0.4444444444444444
 40
0.4444444444444444
 40
0.4444444444444444
 40
0.5555555555555556
 40
0.5555555555555556
 40
0.5555555555555556
 40
0.5555555555555556
 40
0.6666666666666666
 40
0.6666666666666666
 40
0.6666666666666666
 40
0.6666666666666666
 40
0.7777777777777778
 40
0.7777777777777778
 40
0.7777777777777778
 40
0.7777777777777778
 40
1.0
 40
1.0
 40
1.0
 40
1.0
 10
185.8357
 20
71.6008
 30
0.0
 10
182.8363
 20
71.6679
 30
0.0
 10
177.7506
 20
71.6824
 30
0.0
 10
174.2134
 20
71.519
 30
0.0
 10
174.2134
 20
71.519
 30
0.0
 10
171.0948
 20
71.3745
 30
0.0
 10
168.6213
 20
69.9649
 30
0.0
 10
167.2282
 20
68.6867
 30
0.0
 10
167.2282
 20
68.6867
 30
0.0
 10
165.2512
 20
66.8723
 30
0.0
 10
164.9785
 20
66.1738
 30
0.0
 10
163.9047
 20
63.5238
 30
0.0
 10
163.9047
 20
63.5238
 30
0.0
 10
163.5313
 20
62.6018
 30
0.0
 10
164.1803
 20
61.2848
 30
0.0
 10
165.174
 20
61.3253
 30
0.0
 10
165.174
 20
61.3253
 30
0.0
 10
167.931
 20
61.4384
 30
0.0
 10
172.7591
 20
61.0971
 30
0.0
 10
176.8303
 20
61.2981
 30
0.0
 10
176.8303
 20
61.2981
 30
0.0
 10
181.0973
 20
61.5092
 30
0.0
 10
184.0249
 20
64.0445
 30
0.0
 10
185.0375
 20
65.303
 30
0.0
 10
185.0375
 20
65.303
 30
0.0
 10
186.7862
 20
67.4774
 30
0.0
 10
186.859
 20
68.2585
 30
0.0
 10
187.105
 20
69.4021
 30
0.0
 10
187.105
 20
69.4021
 30
0.0
 10
187.3142
 20
70.3745
 30
0.0
 10
186.8303
 20
71.5782
 30
0.0
 10
185.8357
 20
71.6008
 30
0.0
  0
SPLINE
  5
50
330
1F
100
AcDbEntity
  8
layer 1
 62
     7
100
AcDbSpline
210
0.0
220
0.0
230
1.0
 70
    11
 71
     3
 72
    36
 73
    32
 74
     0
 42
0.0000000001
 43
0.0000000001
 12
1.0
 22
0.0
 32
0.0
 13
1.0
 23
0.0
 33
0.0
 40
0.0
 40
0.0
 40
0.0
 40
0.0
 40
0.1111111111111111
 40
0.1111111111111111
 40
0.1111111111111111
 40
0.1111111111111111
 40
0.2222222222222222
 40
0.2222222222222222
 40
0.2222222222222222
 40
0.2222222222222222
 40
0.3333333333333333
 40
0.3333333333333333
 40
0.3333333333333333
 40
0.3333333333333333
 40
0.4444444444444444
 40
0.4444444444444444
 40
0.4444444444444444
 40
0.4444444444444444
 40
0.5555555555555556
 40
0.5555555555555556
 40
0.5555555555555556
 40
0.5555555555555556
 40
0.6666666666666666
 40
0.6666666666666666
 40
0.6666666666666666
 40
0.6666666666666666
 40
0.7777777777777778
 40
0.7777777777777778
 40
0.7777777777777778
 40
0.7777777777777778
 40
1.0
 40
1.0
 40
1.0
 40
1.0
 10
135.0245
 20
77.7718
 30
0.0
 10
138.0246
 20
77.7044
 30
0.0
 10
143.1094
 20
77.6901
 30
0.0
 10
146.6465
 20
77.8536
 30
0.0
 10
146.6465
 20
77.8536
 30
0.0
 10
149.7662
 20
77.9979
 30
0.0
 10
152.2395
 20
79.4074
 30
0.0
 10
153.6329
 20
80.6859
 30
0.0
 10
153.6329
 20
80.6859
 30
0.0
 10
155.6096
 20
82.5001
 30
0.0
 10
155.8826
 20
83.1994
 30
0.0
 10
156.9561
 20
85.8488
 30
0.0
 10
156.9561
 20
85.8488
 30
0.0
 10
157.3296
 20
86.7707
 30
0.0
 10
156.6805
 20
88.0877
 30
0.0
 10
155.6868
 20
88.0473
 30
0.0
 10
155.6868
 20
88.0473
 30
0.0
 10
152.9299
 20
87.9343
 30
0.0
 10
148.1018
 20
88.2753
 30
0.0
 10
144.0305
 20
88.0742
 30
0.0
 10
144.0305
 20
88.0742
 30
0.0
 10
139.7627
 20
87.8632
 30
0.0
 10
136.8362
 20
85.328
 30
0.0
 10
135.8234
 20
84.0693
 30
0.0
 10
135.8234
 20
84.0693
 30
0.0
 10
134.0747
 20
81.895
 30
0.0
 10
134.002
 20
81.114
 30
0.0
 10
133.7559
 20
79.9702
 30
0.0
 10
133.7559
 20
79.9702
 30
0.0
 10
133.5468
 20
78.9981
 30
0.0
 10
134.0307
 20
77.7942
 30
0.0
 10
135.0245
 20
77.7718
 30
0.0
  0
SPLINE
  5
51
330
1F
100
AcDbEntity
  8
layer 1
 62
     7
100
AcDbSpline
210
0.0
220
0.0
230
1.0
 70
    11
 71
     3
 72
    36
 73
    32
 74
     0
 42
0.0000000001
 43
0.0000000001
 12
1.0
 22
0.0
 32
0.0
 13
1.0
 23
0.0
 33
0.0
 40
0.0
 40
0.0
 40
0.0
 40
0.0
 40
0.1111111111111111
 40
0.1111111111111111
 40
0.1111111111111111
 40
0.1111111111111111
 40
0.2222222222222222
 40
0.2222222222222222
 40
0.2222222222222222
 40
0.2222222222222222
 40
0.3333333333333333
 40
0.3333333333333333
 40
0.3333333333333333
 40
0.3333333333333333
 40
0.4444444444444444
 40
0.4444444444444444
 40
0.4444444444444444
 40
0.4444444444444444
 40
0.5555555555555556
 40
0.5555555555555556
 40
0.5555555555555556
 40
0.5555555555555556
 40
0.6666666666666666
 40
0.6666666666666666
 40
0.6666666666666666
 40
0.6666666666666666
 40
0.7777777777777778
 40
0.7777777777777778
 40
0.7777777777777778
 40
0.7777777777777778
 40
1.0
 40
1.0
 40
1.0
 40
1.0
 10
185.8357
 20
77.7718
 30
0.0
 10
182.8363
 20
77.7044
 30
0.0
 10
177.7506
 20
77.6901
 30
0.0
 10
174.2134
 20
77.8536
 30
0.0
 10
174.2134
 20
77.8536
 30
0.0
 10
171.0948
 20
77.9979
 30
0.0
 10
168.6213
 20
79.4074
 30
0.0
 10
167.2282
 20
80.6859
 30
0.0
 10
167.2282
 20
80.6859
 30
0.0
 10
165.2512
 20
82.5001
 30
0.0
 10
164.9785
 20
83.1994
 30
0.0
 10
163.9047
 20
85.8488
 30
0.0
 10
163.9047
 20
85.8488
 30
0.0
 10
163.5313
 20
86.7707
 30
0.0
 10
164.1803
 20
88.0877
 30
0.0
 10
165.174
 20
88.0473
 30
0.0
 10
165.174
 20
88.0473
 30
0.0
 10
167.931
 20
87.9343
 30
0.0
 10
172.7591
 20
88.2753
 30
0.0
 10
176.8303
 20
88.0742
 30
0.0
 10
176.8303
 20
88.0742
 30
0.0
 10
181.0973
 20
87.8632
 30
0.0
 10
184.0249
 20
85.328
 30
0.0
 10
185.0375
 20
84.0693
 30
0.0
 10
185.0375
 20
84.0693
 30
0.0
 10
186.7862
 20
81.895
 30
0.0
 10
186.859
 20
81.114
 30
0.0
 10
187.105
 20
79.9702
 30
0.0
 10
187.105
 20
79.9702
 30
0.0
 10
187.3142
 20
78.9981
 30
0.0
 10
186.8303
 20
77.7942
 30
0.0
 10
185.8357
 20
77.7718
 30
0.0
  0
SPLINE
  5
52
330
1F
100
AcDbEntity
  8
layer 1
 62
     7
100
AcDbSpline
210
0.0
220
0.0
230
1.0
 70
    11
 71
     3
 72
    36
 73
    32
 74
     0
 42
0.0000000001
 43
0.0000000001
 12
1.0
 22
0.0
 32
0.0
 13
1.0
 23
0.0
 33
0.0
 40
0.0
 40
0.0
 40
0.0
 40
0.0
 40
0.1111111111111111
 40
0.1111111111111111
 40
0.1111111111111111
 40
0.1111111111111111
 40
0.2222222222222222
 40
0.2222222222222222
 40
0.2222222222222222
 40
0.2222222222222222
 40
0.3333333333333333
 40
0.3333333333333333
 40
0.3333333333333333
 40
0.3333333333333333
 40
0.4444444444444444
 40
0.4444444444444444
 40
0.4444444444444444
 40
0.4444444444444444
 40
0.5555555555555556
 40
0.5555555555555556
 40
0.5555555555555556
 40
0.5555555555555556
 40
0.6666666666666666
 40
0.6666666666666666
 40
0.6666666666666666
 40
0.6666666666666666
 40
0.7777777777777778
 40
0.7777777777777778
 40
0.7777777777777778
 40
0.7777777777777778
 40
1.0
 40
1.0
 40
1.0
 40
1.0
 10
122.6295
 20
59.5071
 30
0.0
 10
125.1933
 20
61.0655
 30
0.0
 10
127.3757
 20
63.0054
 30
0.0
 10
128.813
 20
65.6906
 30
0.0
 10
128.813
 20
65.6906
 30
0.0
 10
129.2825
 20
66.5669
 30
0.0
 10
130.9067
 20
66.5793
 30
0.0
 10
131.3518
 20
65.6906
 30
0.0
 10
131.3518
 20
65.6906
 30
0.0
 10
132.6894
 20
63.019
 30
0.0
 10
134.8216
 20
60.8868
 30
0.0
 10
137.5345
 20
59.507
 30
0.0
 10
137.5345
 20
59.507
 30
0.0
 10
138.4216
 20
59.0564
 30
0.0
 10
138.4151
 20
57.4306
 30
0.0
 10
137.5345
 20
56.9691
 30
0.0
 10
137.5345
 20
56.9691
 30
0.0
 10
135.091
 20
55.6881
 30
0.0
 10
132.888
 20
53.8817
 30
0.0
 10
131.3518
 20
50.7855
 30
0.0
 10
131.3518
 20
50.7855
 30
0.0
 10
130.9092
 20
49.8951
 30
0.0
 10
129.2386
 20
49.886
 30
0.0
 10
128.813
 20
50.7855
 30
0.0
 10
128.813
 20
50.7855
 30
0.0
 10
127.4896
 20
53.5836
 30
0.0
 10
125.1871
 20
55.3755
 30
0.0
 10
122.6294
 20
56.9691
 30
0.0
 10
122.6294
 20
56.9691
 30
0.0
 10
121.7856
 20
57.4943
 30
0.0
 10
121.7802
 20
58.9908
 30
0.0
 10
122.6295
 20
59.5071
 30
0.0
  0
SPLINE
  5
53
330
1F
100
AcDbEntity
  8
layer 1
 62
     7
100
AcDbSpline
210
0.0
220
0.0
230
1.0
 70
    11
 71
     3
 72
    36
 73
    32
 74
     0
 42
0.0000000001
 43
0.0000000001
 12
1.0
 22
0.0
 32
0.0
 13
1.0
 23
0.0
 33
0.0
 40
0.0
 40
0.0
 40
0.0
 40
0.0
 40
0.1111111111111111
 40
0.1111111111111111
 40
0.1111111111111111
 40
0.1111111111111111
 40
0.2222222222222222
 40
0.2222222222222222
 40
0.2222222222222222
 40
0.2222222222222222
 40
0.3333333333333333
 40
0.3333333333333333
 40
0.3333333333333333
 40
0.3333333333333333
 40
0.4444444444444444
 40
0.4444444444444444
 40
0.4444444444444444
 40
0.4444444444444444
 40
0.5555555555555556
 40
0.5555555555555556
 40
0.5555555555555556
 40
0.5555555555555556
 40
0.6666666666666666
 40
0.6666666666666666
 40
0.6666666666666666
 40
0.6666666666666666
 40
0.7777777777777778
 40
0.7777777777777778
 40
0.7777777777777778
 40
0.7777777777777778
 40
1.0
 40
1.0
 40
1.0
 40
1.0
 10
92.5859
 20
75.8785
 30
0.0
 10
95.1497
 20
77.437
 30
0.0
 10
97.3321
 20
79.3768
 30
0.0
 10
98.7694
 20
82.062
 30
0.0
 10
98.7694
 20
82.062
 30
0.0
 10
99.2389
 20
82.9384
 30
0.0
 10
100.8631
 20
82.9507
 30
0.0
 10
101.3082
 20
82.062
 30
0.0
 10
101.3082
 20
82.062
 30
0.0
 10
102.6458
 20
79.3904
 30
0.0
 10
104.7781
 20
77.2583
 30
0.0
 10
107.4909
 20
75.8785
 30
0.0
 10
107.4909
 20
75.8785
 30
0.0
 10
108.378
 20
75.4279
 30
0.0
 10
108.3715
 20
73.802
 30
0.0
 10
107.4909
 20
73.3405
 30
0.0
 10
107.4909
 20
73.3405
 30
0.0
 10
105.0474
 20
72.0595
 30
0.0
 10
102.8444
 20
70.2531
 30
0.0
 10
101.3082
 20
67.157
 30
0.0
 10
101.3082
 20
67.157
 30
0.0
 10
100.8656
 20
66.2665
 30
0.0
 10
99.195
 20
66.2574
 30
0.0
 10
98.7694
 20
67.157
 30
0.0
 10
98.7694
 20
67.157
 30
0.0
 10
97.4461
 20
69.9551
 30
0.0
 10
95.1435
 20
71.747
 30
0.0
 10
92.5858
 20
73.3405
 30
0.0
 10
92.5858
 20
73.3405
 30
0.0
 10
91.742
 20
73.8657
 30
0.0
 10
91.7366
 20
75.3623
 30
0.0
 10
92.5859
 20
75.8785
 30
0.0
  0
SPLINE
  5
54
330
1F
100
AcDbEntity
  8
layer 1
 62
     7
100
AcDbSpline
210
0.0
220
0.0
230
1.0
 70
    11
 71
     3
 72
    36
 73
    32
 74
     0
 42
0.0000000001
 43
0.0000000001
 12
1.0
 22
0.0
 32
0.0
 13
1.0
 23
0.0
 33
0.0
 40
0.0
 40
0.0
 40
0.0
 40
0.0
 40
0.1111111111111111
 40
0.1111111111111111
 40
0.1111111111111111
 40
0.1111111111111111
 40
0.2222222222222222
 40
0.2222222222222222
 40
0.2222222222222222
 40
0.2222222222222222
 40
0.3333333333333333
 40
0.3333333333333333
 40
0.3333333333333333
 40
0.3333333333333333
 40
0.4444444444444444
 40
0.4444444444444444
 40
0.4444444444444444
 40
0.4444444444444444
 40
0.5555555555555556
 40
0.5555555555555556
 40
0.5555555555555556
 40
0.5555555555555556
 40
0.6666666666666666
 40
0.6666666666666666
 40
0.6666666666666666
 40
0.6666666666666666
 40
0.7777777777777778
 40
0.7777777777777778
 40
0.7777777777777778
 40
0.7777777777777778
 40
1.0
 40
1.0
 40
1.0
 40
1.0
 10
74.5844
 20
71.6008
 30
0.0
 10
77.5845
 20
71.6679
 30
0.0
 10
82.6693
 20
71.6824
 30
0.0
 10
86.2065
 20
71.519
 30
0.0
 10
86.2065
 20
71.519
 30
0.0
 10
89.3261
 20
71.3745
 30
0.0
 10
91.7994
 20
69.9649
 30
0.0
 10
93.1928
 20
68.6867
 30
0.0
 10
93.1928
 20
68.6867
 30
0.0
 10
95.1695
 20
66.8723
 30
0.0
 10
95.4425
 20
66.1738
 30
0.0
 10
96.516
 20
63.5238
 30
0.0
 10
96.516
 20
63.5238
 30
0.0
 10
96.8895
 20
62.6018
 30
0.0
 10
96.2405
 20
61.2848
 30
0.0
 10
95.2467
 20
61.3253
 30
0.0
 10
95.2467
 20
61.3253
 30
0.0
 10
92.4898
 20
61.4384
 30
0.0
 10
87.6617
 20
61.0971
 30
0.0
 10
83.5904
 20
61.2981
 30
0.0
 10
83.5904
 20
61.2981
 30
0.0
 10
79.3227
 20
61.5092
 30
0.0
 10
76.3961
 20
64.0445
 30
0.0
 10
75.3833
 20
65.303
 30
0.0
 10
75.3833
 20
65.303
 30
0.0
 10
73.6346
 20
67.4774
 30
0.0
 10
73.5619
 20
68.2585
 30
0.0
 10
73.3158
 20
69.4021
 30
0.0
 10
73.3158
 20
69.4021
 30
0.0
 10
73.1067
 20
70.3745
 30
0.0
 10
73.5906
 20
71.5782
 30
0.0
 10
74.5844
 20
71.6008
 30
0.0
  0
SPLINE
  5
55
330
1F
100
AcDbEntity
  8
layer 1
 62
     7
100
AcDbSpline
210
0.0
220
0.0
230
1.0
 70
    11
 71
     3
 72
    36
 73
    32
 74
     0
 42
0.0000000001
 43
0.0000000001
 12
1.0
 22
0.0
 32
0.0
 13
1.0
 23
0.0
 33
0.0
 40
0.0
 40
0.0
 40
0.0
 40
0.0
 40
0.1111111111111111
 40
0.1111111111111111
 40
0.1111111111111111
 40
0.1111111111111111
 40
0.2222222222222222
 40
0.2222222222222222
 40
0.2222222222222222
 40
0.2222222222222222
 40
0.3333333333333333
 40
0.3333333333333333
 40
0.3333333333333333
 40
0.3333333333333333
 40
0.4444444444444444
 40
0.4444444444444444
 40
0.4444444444444444
 40
0.4444444444444444
 40
0.5555555555555556
 40
0.5555555555555556
 40
0.5555555555555556
 40
0.5555555555555556
 40
0.6666666666666666
 40
0.6666666666666666
 40
0.6666666666666666
 40
0.6666666666666666
 40
0.7777777777777778
 40
0.7777777777777778
 40
0.7777777777777778
 40
0.7777777777777778
 40
1.0
 40
1.0
 40
1.0
 40
1.0
 10
125.3956
 20
71.6008
 30
0.0
 10
122.3962
 20
71.6679
 30
0.0
 10
117.3105
 20
71.6824
 30
0.0
 10
113.7733
 20
71.519
 30
0.0
 10
113.7733
 20
71.519
 30
0.0
 10
110.6547
 20
71.3745
 30
0.0
 10
108.1812
 20
69.9649
 30
0.0
 10
106.7881
 20
68.6867
 30
0.0
 10
106.7881
 20
68.6867
 30
0.0
 10
104.8111
 20
66.8723
 30
0.0
 10
104.5384
 20
66.1738
 30
0.0
 10
103.4646
 20
63.5238
 30
0.0
 10
103.4646
 20
63.5238
 30
0.0
 10
103.0912
 20
62.6018
 30
0.0
 10
103.7402
 20
61.2848
 30
0.0
 10
104.7339
 20
61.3253
 30
0.0
 10
104.7339
 20
61.3253
 30
0.0
 10
107.4909
 20
61.4384
 30
0.0
 10
112.319
 20
61.0971
 30
0.0
 10
116.3902
 20
61.2981
 30
0.0
 10
116.3902
 20
61.2981
 30
0.0
 10
120.6572
 20
61.5092
 30
0.0
 10
123.5848
 20
64.0445
 30
0.0
 10
124.5974
 20
65.303
 30
0.0
 10
124.5974
 20
65.303
 30
0.0
 10
126.3461
 20
67.4774
 30
0.0
 10
126.419
 20
68.2585
 30
0.0
 10
126.6649
 20
69.4021
 30
0.0
 10
126.6649
 20
69.4021
 30
0.0
 10
126.8741
 20
70.3745
 30
0.0
 10
126.3902
 20
71.5782
 30
0.0
 10
125.3956
 20
71.6008
 30
0.0
  0
SPLINE
  5
56
330
1F
100
AcDbEntity
  8
layer 1
 62
     7
100
AcDbSpline
210
0.0
220
0.0
230
1.0
 70
    11
 71
     3
 72
    36
 73
    32
 74
     0
 42
0.0000000001
 43
0.0000000001
 12
1.0
 22
0.0
 32
0.0
 13
1.0
 23
0.0
 33
0.0
 40
0.0
 40
0.0
 40
0.0
 40
0.0
 40
0.1111111111111111
 40
0.1111111111111111
 40
0.1111111111111111
 40
0.1111111111111111
 40
0.2222222222222222
 40
0.2222222222222222
 40
0.2222222222222222
 40
0.2222222222222222
 40
0.3333333333333333
 40
0.3333333333333333
 40
0.3333333333333333
 40
0.3333333333333333
 40
0.4444444444444444
 40
0.4444444444444444
 40
0.4444444444444444
 40
0.4444444444444444
 40
0.5555555555555556
 40
0.5555555555555556
 40
0.5555555555555556
 40
0.5555555555555556
 40
0.6666666666666666
 40
0.6666666666666666
 40
0.6666666666666666
 40
0.6666666666666666
 40
0.7777777777777778
 40
0.7777777777777778
 40
0.7777777777777778
 40
0.7777777777777778
 40
1.0
 40
1.0
 40
1.0
 40
1.0
 10
74.5844
 20
77.7718
 30
0.0
 10
77.5845
 20
77.7044
 30
0.0
 10
82.6693
 20
77.6901
 30
0.0
 10
86.2065
 20
77.8536
 30
0.0
 10
86.2065
 20
77.8536
 30
0.0
 10
89.3261
 20
77.9979
 30
0.0
 10
91.7994
 20
79.4074
 30
0.0
 10
93.1928
 20
80.6859
 30
0.0
 10
93.1928
 20
80.6859
 30
0.0
 10
95.1695
 20
82.5001
 30
0.0
 10
95.4425
 20
83.1994
 30
0.0
 10
96.516
 20
85.8488
 30
0.0
 10
96.516
 20
85.8488
 30
0.0
 10
96.8895
 20
86.7707
 30
0.0
 10
96.2405
 20
88.0877
 30
0.0
 10
95.2467
 20
88.0473
 30
0.0
 10
95.2467
 20
88.0473
 30
0.0
 10
92.4898
 20
87.9343
 30
0.0
 10
87.6617
 20
88.2753
 30
0.0
 10
83.5904
 20
88.0742
 30
0.0
 10
83.5904
 20
88.0742
 30
0.0
 10
79.3227
 20
87.8632
 30
0.0
 10
76.3961
 20
85.328
 30
0.0
 10
75.3833
 20
84.0693
 30
0.0
 10
75.3833
 20
84.0693
 30
0.0
 10
73.6346
 20
81.895
 30
0.0
 10
73.5619
 20
81.114
 30
0.0
 10
73.3158
 20
79.9702
 30
0.0
 10
73.3158
 20
79.9702
 30
0.0
 10
73.1067
 20
78.9981
 30
0.0
 10
73.5906
 20
77.7942
 30
0.0
 10
74.5844
 20
77.7718
 30
0.0
  0
SPLINE
  5
57
330
1F
100
AcDbEntity
  8
layer 1
 62
     7
100
AcDbSpline
210
0.0
220
0.0
230
1.0
 70
    11
 71
     3
 72
    36
 73
    32
 74
     0
 42
0.0000000001
 43
0.0000000001
 12
1.0
 22
0.0
 32
0.0
 13
1.0
 23
0.0
 33
0.0
 40
0.0
 40
0.0
 40
0.0
 40
0.0
 40
0.1111111111111111
 40
0.1111111111111111
 40
0.1111111111111111
 40
0.1111111111111111
 40
0.2222222222222222
 40
0.2222222222222222
 40
0.2222222222222222
 40
0.2222222222222222
 40
0.3333333333333333
 40
0.3333333333333333
 40
0.3333333333333333
 40
0.3333333333333333
 40
0.4444444444444444
 40
0.4444444444444444
 40
0.4444444444444444
 40
0.4444444444444444
 40
0.5555555555555556
 40
0.5555555555555556
 40
0.5555555555555556
 40
0.5555555555555556
 40
0.6666666666666666
 40
0.6666666666666666
 40
0.6666666666666666
 40
0.6666666666666666
 40
0.7777777777777778
 40
0.7777777777777778
 40
0.7777777777777778
 40
0.7777777777777778
 40
1.0
 40
1.0
 40
1.0
 40
1.0
 10
125.3956
 20
77.7718
 30
0.0
 10
122.3962
 20
77.7044
 30
0.0
 10
117.3105
 20
77.6901
 30
0.0
 10
113.7733
 20
77.8536
 30
0.0
 10
113.7733
 20
77.8536
 30
0.0
 10
110.6547
 20
77.9979
 30
0.0
 10
108.1812
 20
79.4074
 30
0.0
 10
106.7881
 20
80.6859
 30
0.0
 10
106.7881
 20
80.6859
 30
0.0
 10
104.8111
 20
82.5001
 30
0.0
 10
104.5384
 20
83.1994
 30
0.0
 10
103.4646
 20
85.8488
 30
0.0
 10
103.4646
 20
85.8488
 30
0.0
 10
103.0912
 20
86.7707
 30
0.0
 10
103.7402
 20
88.0877
 30
0.0
 10
104.7339
 20
88.0473
 30
0.0
 10
104.7339
 20
88.0473
 30
0.0
 10
107.4909
 20
87.9343
 30
0.0
 10
112.319
 20
88.2753
 30
0.0
 10
116.3902
 20
88.0742
 30
0.0
 10
116.3902
 20
88.0742
 30
0.0
 10
120.6572
 20
87.8632
 30
0.0
 10
123.5848
 20
85.328
 30
0.0
 10
124.5974
 20
84.0693
 30
0.0
 10
124.5974
 20
84.0693
 30
0.0
 10
126.3461
 20
81.895
 30
0.0
 10
126.419
 20
81.114
 30
0.0
 10
126.6649
 20
79.9702
 30
0.0
 10
126.6649
 20
79.9702
 30
0.0
 10
126.8741
 20
78.9981
 30
0.0
 10
126.3902
 20
77.7942
 30
0.0
 10
125.3956
 20
77.7718
 30
0.0
  0
SPLINE
  5
58
330
1F
100
AcDbEntity
  8
layer 1
 62
     7
100
AcDbSpline
210
0.0
220
0.0
230
1.0
 70
    11
 71
     3
 72
    36
 73
    32
 74
     0
 42
0.0000000001
 43
0.0000000001
 12
1.0
 22
0.0
 32
0.0
 13
1.0
 23
0.0
 33
0.0
 40
0.0
 40
0.0
 40
0.0
 40
0.0
 40
0.1111111111111111
 40
0.1111111111111111
 40
0.1111111111111111
 40
0.1111111111111111
 40
0.2222222222222222
 40
0.2222222222222222
 40
0.2222222222222222
 40
0.2222222222222222
 40
0.3333333333333333
 40
0.3333333333333333
 40
0.3333333333333333
 40
0.3333333333333333
 40
0.4444444444444444
 40
0.4444444444444444
 40
0.4444444444444444
 40
0.4444444444444444
 40
0.5555555555555556
 40
0.5555555555555556
 40
0.5555555555555556
 40
0.5555555555555556
 40
0.6666666666666666
 40
0.6666666666666666
 40
0.6666666666666666
 40
0.6666666666666666
 40
0.7777777777777778
 40
0.7777777777777778
 40
0.7777777777777778
 40
0.7777777777777778
 40
1.0
 40
1.0
 40
1.0
 40
1.0
 10
153.026
 20
42.2705
 30
0.0
 10
155.5898
 20
43.829
 30
0.0
 10
157.7722
 20
45.7688
 30
0.0
 10
159.2095
 20
48.454
 30
0.0
 10
159.2095
 20
48.454
 30
0.0
 10
159.679
 20
49.3304
 30
0.0
 10
161.3032
 20
49.3427
 30
0.0
 10
161.7483
 20
48.454
 30
0.0
 10
161.7483
 20
48.454
 30
0.0
 10
163.0859
 20
45.7824
 30
0.0
 10
165.2181
 20
43.6503
 30
0.0
 10
167.931
 20
42.2705
 30
0.0
 10
167.931
 20
42.2705
 30
0.0
 10
168.8181
 20
41.8199
 30
0.0
 10
168.8116
 20
40.194
 30
0.0
 10
167.931
 20
39.7325
 30
0.0
 10
167.931
 20
39.7325
 30
0.0
 10
165.4875
 20
38.4515
 30
0.0
 10
163.2845
 20
36.6451
 30
0.0
 10
161.7483
 20
33.549
 30
0.0
 10
161.7483
 20
33.549
 30
0.0
 10
161.3057
 20
32.6585
 30
0.0
 10
159.6351
 20
32.6494
 30
0.0
 10
159.2095
 20
33.549
 30
0.0
 10
159.2095
 20
33.549
 30
0.0
 10
157.8861
 20
36.3471
 30
0.0
 10
155.5836
 20
38.139
 30
0.0
 10
153.0259
 20
39.7325
 30
0.0
 10
153.0259
 20
39.7325
 30
0.0
 10
152.1821
 20
40.2577
 30
0.0
 10
152.1767
 20
41.7543
 30
0.0
 10
153.026
 20
42.2705
 30
0.0
  0
SPLINE
  5
59
330
1F
100
AcDbEntity
  8
layer 1
 62
     7
100
AcDbSpline
210
0.0
220
0.0
230
1.0
 70
    11
 71
     3
 72
    36
 73
    32
 74
     0
 42
0.0000000001
 43
0.0000000001
 12
1.0
 22
0.0
 32
0.0
 13
1.0
 23
0.0
 33
0.0
 40
0.0
 40
0.0
 40
0.0
 40
0.0
 40
0.1111111111111111
 40
0.1111111111111111
 40
0.1111111111111111
 40
0.1111111111111111
 40
0.2222222222222222
 40
0.2222222222222222
 40
0.2222222222222222
 40
0.2222222222222222
 40
0.3333333333333333
 40
0.3333333333333333
 40
0.3333333333333333
 40
0.3333333333333333
 40
0.4444444444444444
 40
0.4444444444444444
 40
0.4444444444444444
 40
0.4444444444444444
 40
0.5555555555555556
 40
0.5555555555555556
 40
0.5555555555555556
 40
0.5555555555555556
 40
0.6666666666666666
 40
0.6666666666666666
 40
0.6666666666666666
 40
0.6666666666666666
 40
0.7777777777777778
 40
0.7777777777777778
 40
0.7777777777777778
 40
0.7777777777777778
 40
1.0
 40
1.0
 40
1.0
 40
1.0
 10
153.026
 20
-25.0204
 30
0.0
 10
155.5898
 20
-23.462
 30
0.0
 10
157.7722
 20
-21.5221
 30
0.0
 10
159.2095
 20
-18.8369
 30
0.0
 10
159.2095
 20
-18.8369
 30
0.0
 10
159.679
 20
-17.9606
 30
0.0
 10
161.3032
 20
-17.9482
 30
0.0
 10
161.7483
 20
-18.8369
 30
0.0
 10
161.7483
 20
-18.8369
 30
0.0
 10
163.0859
 20
-21.5085
 30
0.0
 10
165.2181
 20
-23.6407
 30
0.0
 10
167.931
 20
-25.0205
 30
0.0
 10
167.931
 20
-25.0205
 30
0.0
 10
168.8181
 20
-25.4711
 30
0.0
 10
168.8116
 20
-27.0969
 30
0.0
 10
167.931
 20
-27.5584
 30
0.0
 10
167.931
 20
-27.5584
 30
0.0
 10
165.4875
 20
-28.8394
 30
0.0
 10
163.2845
 20
-30.6458
 30
0.0
 10
161.7483
 20
-33.742
 30
0.0
 10
161.7483
 20
-33.742
 30
0.0
 10
161.3057
 20
-34.6324
 30
0.0
 10
159.6351
 20
-34.6415
 30
0.0
 10
159.2095
 20
-33.742
 30
0.0
 10
159.2095
 20
-33.742
 30
0.0
 10
157.8861
 20
-30.9439
 30
0.0
 10
155.5836
 20
-29.152
 30
0.0
 10
153.0259
 20
-27.5584
 30
0.0
 10
153.0259
 20
-27.5584
 30
0.0
 10
152.1821
 20
-27.0332
 30
0.0
 10
152.1767
 20
-25.5367
 30
0.0
 10
153.026
 20
-25.0204
 30
0.0
  0
SPLINE
  5
5A
330
1F
100
AcDbEntity
  8
layer 1
 62
     7
100
AcDbSpline
210
0.0
220
0.0
230
1.0
 70
    11
 71
     3
 72
    36
 73
    32
 74
     0
 42
0.0000000001
 43
0.0000000001
 12
1.0
 22
0.0
 32
0.0
 13
1.0
 23
0.0
 33
0.0
 40
0.0
 40
0.0
 40
0.0
 40
0.0
 40
0.1111111111111111
 40
0.1111111111111111
 40
0.1111111111111111
 40
0.1111111111111111
 40
0.2222222222222222
 40
0.2222222222222222
 40
0.2222222222222222
 40
0.2222222222222222
 40
0.3333333333333333
 40
0.3333333333333333
 40
0.3333333333333333
 40
0.3333333333333333
 40
0.4444444444444444
 40
0.4444444444444444
 40
0.4444444444444444
 40
0.4444444444444444
 40
0.5555555555555556
 40
0.5555555555555556
 40
0.5555555555555556
 40
0.5555555555555556
 40
0.6666666666666666
 40
0.6666666666666666
 40
0.6666666666666666
 40
0.6666666666666666
 40
0.7777777777777778
 40
0.7777777777777778
 40
0.7777777777777778
 40
0.7777777777777778
 40
1.0
 40
1.0
 40
1.0
 40
1.0
 10
153.026
 20
-92.3113
 30
0.0
 10
155.5898
 20
-90.7529
 30
0.0
 10
157.7722
 20
-88.813
 30
0.0
 10
159.2095
 20
-86.1278
 30
0.0
 10
159.2095
 20
-86.1278
 30
0.0
 10
159.679
 20
-85.2515
 30
0.0
 10
161.3032
 20
-85.2391
 30
0.0
 10
161.7483
 20
-86.1278
 30
0.0
 10
161.7483
 20
-86.1278
 30
0.0
 10
163.0859
 20
-88.7994
 30
0.0
 10
165.2181
 20
-90.9316
 30
0.0
 10
167.931
 20
-92.3114
 30
0.0
 10
167.931
 20
-92.3114
 30
0.0
 10
168.8181
 20
-92.762
 30
0.0
 10
168.8116
 20
-94.3879
 30
0.0
 10
167.931
 20
-94.8493
 30
0.0
 10
167.931
 20
-94.8493
 30
0.0
 10
165.4875
 20
-96.1303
 30
0.0
 10
163.2845
 20
-97.9368
 30
0.0
 10
161.7483
 20
-101.0329
 30
0.0
 10
161.7483
 20
-101.0329
 30
0.0
 10
161.3057
 20
-101.9234
 30
0.0
 10
159.6351
 20
-101.9324
 30
0.0
 10
159.2095
 20
-101.0329
 30
0.0
 10
159.2095
 20
-101.0329
 30
0.0
 10
157.8861
 20
-98.2348
 30
0.0
 10
155.5836
 20
-96.4429
 30
0.0
 10
153.0259
 20
-94.8493
 30
0.0
 10
153.0259
 20
-94.8493
 30
0.0
 10
152.1821
 20
-94.3241
 30
0.0
 10
152.1767
 20
-92.8276
 30
0.0
 10
153.026
 20
-92.3113
 30
0.0
  0
SPLINE
  5
5B
330
1F
100
AcDbEntity
  8
layer 1
 62
     7
100
AcDbSpline
210
0.0
220
0.0
230
1.0
 70
    11
 71
     3
 72
    36
 73
    32
 74
     0
 42
0.0000000001
 43
0.0000000001
 12
1.0
 22
0.0
 32
0.0
 13
1.0
 23
0.0
 33
0.0
 40
0.0
 40
0.0
 40
0.0
 40
0.0
 40
0.1111111111111111
 40
0.1111111111111111
 40
0.1111111111111111
 40
0.1111111111111111
 40
0.2222222222222222
 40
0.2222222222222222
 40
0.2222222222222222
 40
0.2222222222222222
 40
0.3333333333333333
 40
0.3333333333333333
 40
0.3333333333333333
 40
0.3333333333333333
 40
0.4444444444444444
 40
0.4444444444444444
 40
0.4444444444444444
 40
0.4444444444444444
 40
0.5555555555555556
 40
0.5555555555555556
 40
0.5555555555555556
 40
0.5555555555555556
 40
0.6666666666666666
 40
0.6666666666666666
 40
0.6666666666666666
 40
0.6666666666666666
 40
0.7777777777777778
 40
0.7777777777777778
 40
0.7777777777777778
 40
0.7777777777777778
 40
1.0
 40
1.0
 40
1.0
 40
1.0
 10
135.0245
 20
37.9928
 30
0.0
 10
138.0246
 20
38.0599
 30
0.0
 10
143.1094
 20
38.0744
 30
0.0
 10
146.6465
 20
37.911
 30
0.0
 10
146.6465
 20
37.911
 30
0.0
 10
149.7662
 20
37.7665
 30
0.0
 10
152.2395
 20
36.3569
 30
0.0
 10
153.6329
 20
35.0787
 30
0.0
 10
153.6329
 20
35.0787
 30
0.0
 10
155.6096
 20
33.2643
 30
0.0
 10
155.8826
 20
32.5658
 30
0.0
 10
156.9561
 20
29.9158
 30
0.0
 10
156.9561
 20
29.9158
 30
0.0
 10
157.3296
 20
28.9938
 30
0.0
 10
156.6805
 20
27.6768
 30
0.0
 10
155.6868
 20
27.7173
 30
0.0
 10
155.6868
 20
27.7173
 30
0.0
 10
152.9299
 20
27.8304
 30
0.0
 10
148.1018
 20
27.4891
 30
0.0
 10
144.0305
 20
27.6901
 30
0.0
 10
144.0305
 20
27.6901
 30
0.0
 10
139.7627
 20
27.9012
 30
0.0
 10
136.8362
 20
30.4365
 30
0.0
 10
135.8234
 20
31.695
 30
0.0
 10
135.8234
 20
31.695
 30
0.0
 10
134.0747
 20
33.8694
 30
0.0
 10
134.002
 20
34.6505
 30
0.0
 10
133.7559
 20
35.7941
 30
0.0
 10
133.7559
 20
35.7941
 30
0.0
 10
133.5468
 20
36.7665
 30
0.0
 10
134.0307
 20
37.9702
 30
0.0
 10
135.0245
 20
37.9928
 30
0.0
  0
SPLINE
  5
5C
330
1F
100
AcDbEntity
  8
layer 1
 62
     7
100
AcDbSpline
210
0.0
220
0.0
230
1.0
 70
    11
 71
     3
 72
    36
 73
    32
 74
     0
 42
0.0000000001
 43
0.0000000001
 12
1.0
 22
0.0
 32
0.0
 13
1.0
 23
0.0
 33
0.0
 40
0.0
 40
0.0
 40
0.0
 40
0.0
 40
0.1111111111111111
 40
0.1111111111111111
 40
0.1111111111111111
 40
0.1111111111111111
 40
0.2222222222222222
 40
0.2222222222222222
 40
0.2222222222222222
 40
0.2222222222222222
 40
0.3333333333333333
 40
0.3333333333333333
 40
0.3333333333333333
 40
0.3333333333333333
 40
0.4444444444444444
 40
0.4444444444444444
 40
0.4444444444444444
 40
0.4444444444444444
 40
0.5555555555555556
 40
0.5555555555555556
 40
0.5555555555555556
 40
0.5555555555555556
 40
0.6666666666666666
 40
0.6666666666666666
 40
0.6666666666666666
 40
0.6666666666666666
 40
0.7777777777777778
 40
0.7777777777777778
 40
0.7777777777777778
 40
0.7777777777777778
 40
1.0
 40
1.0
 40
1.0
 40
1.0
 10
135.0245
 20
-29.2981
 30
0.0
 10
138.0246
 20
-29.231
 30
0.0
 10
143.1094
 20
-29.2165
 30
0.0
 10
146.6465
 20
-29.38
 30
0.0
 10
146.6465
 20
-29.38
 30
0.0
 10
149.7662
 20
-29.5245
 30
0.0
 10
152.2395
 20
-30.934
 30
0.0
 10
153.6329
 20
-32.2123
 30
0.0
 10
153.6329
 20
-32.2123
 30
0.0
 10
155.6096
 20
-34.0266
 30
0.0
 10
155.8826
 20
-34.7251
 30
0.0
 10
156.9561
 20
-37.3752
 30
0.0
 10
156.9561
 20
-37.3752
 30
0.0
 10
157.3296
 20
-38.2971
 30
0.0
 10
156.6805
 20
-39.6141
 30
0.0
 10
155.6868
 20
-39.5736
 30
0.0
 10
155.6868
 20
-39.5736
 30
0.0
 10
152.9299
 20
-39.4605
 30
0.0
 10
148.1018
 20
-39.8019
 30
0.0
 10
144.0305
 20
-39.6008
 30
0.0
 10
144.0305
 20
-39.6008
 30
0.0
 10
139.7627
 20
-39.3897
 30
0.0
 10
136.8362
 20
-36.8544
 30
0.0
 10
135.8234
 20
-35.596
 30
0.0
 10
135.8234
 20
-35.596
 30
0.0
 10
134.0747
 20
-33.4216
 30
0.0
 10
134.002
 20
-32.6404
 30
0.0
 10
133.7559
 20
-31.4968
 30
0.0
 10
133.7559
 20
-31.4968
 30
0.0
 10
133.5468
 20
-30.5244
 30
0.0
 10
134.0307
 20
-29.3207
 30
0.0
 10
135.0245
 20
-29.2981
 30
0.0
  0
SPLINE
  5
5D
330
1F
100
AcDbEntity
  8
layer 1
 62
     7
100
AcDbSpline
210
0.0
220
0.0
230
1.0
 70
    11
 71
     3
 72
    36
 73
    32
 74
     0
 42
0.0000000001
 43
0.0000000001
 12
1.0
 22
0.0
 32
0.0
 13
1.0
 23
0.0
 33
0.0
 40
0.0
 40
0.0
 40
0.0
 40
0.0
 40
0.1111111111111111
 40
0.1111111111111111
 40
0.1111111111111111
 40
0.1111111111111111
 40
0.2222222222222222
 40
0.2222222222222222
 40
0.2222222222222222
 40
0.2222222222222222
 40
0.3333333333333333
 40
0.3333333333333333
 40
0.3333333333333333
 40
0.3333333333333333
 40
0.4444444444444444
 40
0.4444444444444444
 40
0.4444444444444444
 40
0.4444444444444444
 40
0.5555555555555556
 40
0.5555555555555556
 40
0.5555555555555556
 40
0.5555555555555556
 40
0.6666666666666666
 40
0.6666666666666666
 40
0.6666666666666666
 40
0.6666666666666666
 40
0.7777777777777778
 40
0.7777777777777778
 40
0.7777777777777778
 40
0.7777777777777778
 40
1.0
 40
1.0
 40
1.0
 40
1.0
 10
135.0245
 20
-96.589
 30
0.0
 10
138.0246
 20
-96.5219
 30
0.0
 10
143.1094
 20
-96.5074
 30
0.0
 10
146.6465
 20
-96.6709
 30
0.0
 10
146.6465
 20
-96.6709
 30
0.0
 10
149.7662
 20
-96.8154
 30
0.0
 10
152.2395
 20
-98.225
 30
0.0
 10
153.6329
 20
-99.5032
 30
0.0
 10
153.6329
 20
-99.5032
 30
0.0
 10
155.6096
 20
-101.3176
 30
0.0
 10
155.8826
 20
-102.0161
 30
0.0
 10
156.9561
 20
-104.6661
 30
0.0
 10
156.9561
 20
-104.6661
 30
0.0
 10
157.3296
 20
-105.588
 30
0.0
 10
156.6805
 20
-106.905
 30
0.0
 10
155.6868
 20
-106.8646
 30
0.0
 10
155.6868
 20
-106.8646
 30
0.0
 10
152.9299
 20
-106.7514
 30
0.0
 10
148.1018
 20
-107.0928
 30
0.0
 10
144.0305
 20
-106.8917
 30
0.0
 10
144.0305
 20
-106.8917
 30
0.0
 10
139.7627
 20
-106.6807
 30
0.0
 10
136.8362
 20
-104.1454
 30
0.0
 10
135.8234
 20
-102.8869
 30
0.0
 10
135.8234
 20
-102.8869
 30
0.0
 10
134.0747
 20
-100.7125
 30
0.0
 10
134.002
 20
-99.9313
 30
0.0
 10
133.7559
 20
-98.7878
 30
0.0
 10
133.7559
 20
-98.7878
 30
0.0
 10
133.5468
 20
-97.8153
 30
0.0
 10
134.0307
 20
-96.6116
 30
0.0
 10
135.0245
 20
-96.589
 30
0.0
  0
SPLINE
  5
5E
330
1F
100
AcDbEntity
  8
layer 1
 62
     7
100
AcDbSpline
210
0.0
220
0.0
230
1.0
 70
    11
 71
     3
 72
    36
 73
    32
 74
     0
 42
0.0000000001
 43
0.0000000001
 12
1.0
 22
0.0
 32
0.0
 13
1.0
 23
0.0
 33
0.0
 40
0.0
 40
0.0
 40
0.0
 40
0.0
 40
0.1111111111111111
 40
0.1111111111111111
 40
0.1111111111111111
 40
0.1111111111111111
 40
0.2222222222222222
 40
0.2222222222222222
 40
0.2222222222222222
 40
0.2222222222222222
 40
0.3333333333333333
 40
0.3333333333333333
 40
0.3333333333333333
 40
0.3333333333333333
 40
0.4444444444444444
 40
0.4444444444444444
 40
0.4444444444444444
 40
0.4444444444444444
 40
0.5555555555555556
 40
0.5555555555555556
 40
0.5555555555555556
 40
0.5555555555555556
 40
0.6666666666666666
 40
0.6666666666666666
 40
0.6666666666666666
 40
0.6666666666666666
 40
0.7777777777777778
 40
0.7777777777777778
 40
0.7777777777777778
 40
0.7777777777777778
 40
1.0
 40
1.0
 40
1.0
 40
1.0
 10
185.8357
 20
37.9928
 30
0.0
 10
182.8363
 20
38.0599
 30
0.0
 10
177.7506
 20
38.0744
 30
0.0
 10
174.2134
 20
37.911
 30
0.0
 10
174.2134
 20
37.911
 30
0.0
 10
171.0948
 20
37.7665
 30
0.0
 10
168.6213
 20
36.3569
 30
0.0
 10
167.2282
 20
35.0787
 30
0.0
 10
167.2282
 20
35.0787
 30
0.0
 10
165.2512
 20
33.2643
 30
0.0
 10
164.9785
 20
32.5658
 30
0.0
 10
163.9047
 20
29.9158
 30
0.0
 10
163.9047
 20
29.9158
 30
0.0
 10
163.5313
 20
28.9938
 30
0.0
 10
164.1803
 20
27.6768
 30
0.0
 10
165.174
 20
27.7173
 30
0.0
 10
165.174
 20
27.7173
 30
0.0
 10
167.931
 20
27.8304
 30
0.0
 10
172.7591
 20
27.4891
 30
0.0
 10
176.8303
 20
27.6901
 30
0.0
 10
176.8303
 20
27.6901
 30
0.0
 10
181.0973
 20
27.9012
 30
0.0
 10
184.0249
 20
30.4365
 30
0.0
 10
185.0375
 20
31.695
 30
0.0
 10
185.0375
 20
31.695
 30
0.0
 10
186.7862
 20
33.8694
 30
0.0
 10
186.859
 20
34.6505
 30
0.0
 10
187.105
 20
35.7941
 30
0.0
 10
187.105
 20
35.7941
 30
0.0
 10
187.3142
 20
36.7665
 30
0.0
 10
186.8303
 20
37.9702
 30
0.0
 10
185.8357
 20
37.9928
 30
0.0
  0
SPLINE
  5
5F
330
1F
100
AcDbEntity
  8
layer 1
 62
     7
100
AcDbSpline
210
0.0
220
0.0
230
1.0
 70
    11
 71
     3
 72
    36
 73
    32
 74
     0
 42
0.0000000001
 43
0.0000000001
 12
1.0
 22
0.0
 32
0.0
 13
1.0
 23
0.0
 33
0.0
 40
0.0
 40
0.0
 40
0.0
 40
0.0
 40
0.1111111111111111
 40
0.1111111111111111
 40
0.1111111111111111
 40
0.1111111111111111
 40
0.2222222222222222
 40
0.2222222222222222
 40
0.2222222222222222
 40
0.2222222222222222
 40
0.3333333333333333
 40
0.3333333333333333
 40
0.3333333333333333
 40
0.3333333333333333
 40
0.4444444444444444
 40
0.4444444444444444
 40
0.4444444444444444
 40
0.4444444444444444
 40
0.5555555555555556
 40
0.5555555555555556
 40
0.5555555555555556
 40
0.5555555555555556
 40
0.6666666666666666
 40
0.6666666666666666
 40
0.6666666666666666
 40
0.6666666666666666
 40
0.7777777777777778
 40
0.7777777777777778
 40
0.7777777777777778
 40
0.7777777777777778
 40
1.0
 40
1.0
 40
1.0
 40
1.0
 10
185.8357
 20
-29.2981
 30
0.0
 10
182.8363
 20
-29.231
 30
0.0
 10
177.7506
 20
-29.2165
 30
0.0
 10
174.2134
 20
-29.38
 30
0.0
 10
174.2134
 20
-29.38
 30
0.0
 10
171.0948
 20
-29.5245
 30
0.0
 10
168.6213
 20
-30.934
 30
0.0
 10
167.2282
 20
-32.2123
 30
0.0
 10
167.2282
 20
-32.2123
 30
0.0
 10
165.2512
 20
-34.0266
 30
0.0
 10
164.9785
 20
-34.7251
 30
0.0
 10
163.9047
 20
-37.3752
 30
0.0
 10
163.9047
 20
-37.3752
 30
0.0
 10
163.5313
 20
-38.2971
 30
0.0
 10
164.1803
 20
-39.6141
 30
0.0
 10
165.174
 20
-39.5736
 30
0.0
 10
165.174
 20
-39.5736
 30
0.0
 10
167.931
 20
-39.4605
 30
0.0
 10
172.7591
 20
-39.8019
 30
0.0
 10
176.8303
 20
-39.6008
 30
0.0
 10
176.8303
 20
-39.6008
 30
0.0
 10
181.0973
 20
-39.3897
 30
0.0
 10
184.0249
 20
-36.8544
 30
0.0
 10
185.0375
 20
-35.596
 30
0.0
 10
185.0375
 20
-35.596
 30
0.0
 10
186.7862
 20
-33.4216
 30
0.0
 10
186.859
 20
-32.6404
 30
0.0
 10
187.105
 20
-31.4968
 30
0.0
 10
187.105
 20
-31.4968
 30
0.0
 10
187.3142
 20
-30.5244
 30
0.0
 10
186.8303
 20
-29.3207
 30
0.0
 10
185.8357
 20
-29.2981
 30
0.0
  0
SPLINE
  5
60
330
1F
100
AcDbEntity
  8
layer 1
 62
     7
100
AcDbSpline
210
0.0
220
0.0
230
1.0
 70
    11
 71
     3
 72
    36
 73
    32
 74
     0
 42
0.0000000001
 43
0.0000000001
 12
1.0
 22
0.0
 32
0.0
 13
1.0
 23
0.0
 33
0.0
 40
0.0
 40
0.0
 40
0.0
 40
0.0
 40
0.1111111111111111
 40
0.1111111111111111
 40
0.1111111111111111
 40
0.1111111111111111
 40
0.2222222222222222
 40
0.2222222222222222
 40
0.2222222222222222
 40
0.2222222222222222
 40
0.3333333333333333
 40
0.3333333333333333
 40
0.3333333333333333
 40
0.3333333333333333
 40
0.4444444444444444
 40
0.4444444444444444
 40
0.4444444444444444
 40
0.4444444444444444
 40
0.5555555555555556
 40
0.5555555555555556
 40
0.5555555555555556
 40
0.5555555555555556
 40
0.6666666666666666
 40
0.6666666666666666
 40
0.6666666666666666
 40
0.6666666666666666
 40
0.7777777777777778
 40
0.7777777777777778
 40
0.7777777777777778
 40
0.7777777777777778
 40
1.0
 40
1.0
 40
1.0
 40
1.0
 10
185.8357
 20
-96.589
 30
0.0
 10
182.8363
 20
-96.5219
 30
0.0
 10
177.7506
 20
-96.5074
 30
0.0
 10
174.2134
 20
-96.6709
 30
0.0
 10
174.2134
 20
-96.6709
 30
0.0
 10
171.0948
 20
-96.8154
 30
0.0
 10
168.6213
 20
-98.225
 30
0.0
 10
167.2282
 20
-99.5032
 30
0.0
 10
167.2282
 20
-99.5032
 30
0.0
 10
165.2512
 20
-101.3176
 30
0.0
 10
164.9785
 20
-102.0161
 30
0.0
 10
163.9047
 20
-104.6661
 30
0.0
 10
163.9047
 20
-104.6661
 30
0.0
 10
163.5313
 20
-105.588
 30
0.0
 10
164.1803
 20
-106.905
 30
0.0
 10
165.174
 20
-106.8646
 30
0.0
 10
165.174
 20
-106.8646
 30
0.0
 10
167.931
 20
-106.7514
 30
0.0
 10
172.7591
 20
-107.0928
 30
0.0
 10
176.8303
 20
-106.8917
 30
0.0
 10
176.8303
 20
-106.8917
 30
0.0
 10
181.0973
 20
-106.6807
 30
0.0
 10
184.0249
 20
-104.1454
 30
0.0
 10
185.0375
 20
-102.8869
 30
0.0
 10
185.0375
 20
-102.8869
 30
0.0
 10
186.7862
 20
-100.7125
 30
0.0
 10
186.859
 20
-99.9313
 30
0.0
 10
187.105
 20
-98.7878
 30
0.0
 10
187.105
 20
-98.7878
 30
0.0
 10
187.3142
 20
-97.8153
 30
0.0
 10
186.8303
 20
-96.6116
 30
0.0
 10
185.8357
 20
-96.589
 30
0.0
  0
SPLINE
  5
61
330
1F
100
AcDbEntity
  8
layer 1
 62
     7
100
AcDbSpline
210
0.0
220
0.0
230
1.0
 70
    11
 71
     3
 72
    36
 73
    32
 74
     0
 42
0.0000000001
 43
0.0000000001
 12
1.0
 22
0.0
 32
0.0
 13
1.0
 23
0.0
 33
0.0
 40
0.0
 40
0.0
 40
0.0
 40
0.0
 40
0.1111111111111111
 40
0.1111111111111111
 40
0.1111111111111111
 40
0.1111111111111111
 40
0.2222222222222222
 40
0.2222222222222222
 40
0.2222222222222222
 40
0.2222222222222222
 40
0.3333333333333333
 40
0.3333333333333333
 40
0.3333333333333333
 40
0.3333333333333333
 40
0.4444444444444444
 40
0.4444444444444444
 40
0.4444444444444444
 40
0.4444444444444444
 40
0.5555555555555556
 40
0.5555555555555556
 40
0.5555555555555556
 40
0.5555555555555556
 40
0.6666666666666666
 40
0.6666666666666666
 40
0.6666666666666666
 40
0.6666666666666666
 40
0.7777777777777778
 40
0.7777777777777778
 40
0.7777777777777778
 40
0.7777777777777778
 40
1.0
 40
1.0
 40
1.0
 40
1.0
 10
135.0245
 20
44.1637
 30
0.0
 10
138.0246
 20
44.0964
 30
0.0
 10
143.1094
 20
44.0821
 30
0.0
 10
146.6465
 20
44.2456
 30
0.0
 10
146.6465
 20
44.2456
 30
0.0
 10
149.7662
 20
44.3899
 30
0.0
 10
152.2395
 20
45.7994
 30
0.0
 10
153.6329
 20
47.0779
 30
0.0
 10
153.6329
 20
47.0779
 30
0.0
 10
155.6096
 20
48.8921
 30
0.0
 10
155.8826
 20
49.5914
 30
0.0
 10
156.9561
 20
52.2408
 30
0.0
 10
156.9561
 20
52.2408
 30
0.0
 10
157.3296
 20
53.1626
 30
0.0
 10
156.6805
 20
54.4797
 30
0.0
 10
155.6868
 20
54.4393
 30
0.0
 10
155.6868
 20
54.4393
 30
0.0
 10
152.9299
 20
54.3263
 30
0.0
 10
148.1018
 20
54.6673
 30
0.0
 10
144.0305
 20
54.4662
 30
0.0
 10
144.0305
 20
54.4662
 30
0.0
 10
139.7627
 20
54.2551
 30
0.0
 10
136.8362
 20
51.72
 30
0.0
 10
135.8234
 20
50.4613
 30
0.0
 10
135.8234
 20
50.4613
 30
0.0
 10
134.0747
 20
48.287
 30
0.0
 10
134.002
 20
47.506
 30
0.0
 10
133.7559
 20
46.3622
 30
0.0
 10
133.7559
 20
46.3622
 30
0.0
 10
133.5468
 20
45.3901
 30
0.0
 10
134.0307
 20
44.1862
 30
0.0
 10
135.0245
 20
44.1637
 30
0.0
  0
SPLINE
  5
62
330
1F
100
AcDbEntity
  8
layer 1
 62
     7
100
AcDbSpline
210
0.0
220
0.0
230
1.0
 70
    11
 71
     3
 72
    36
 73
    32
 74
     0
 42
0.0000000001
 43
0.0000000001
 12
1.0
 22
0.0
 32
0.0
 13
1.0
 23
0.0
 33
0.0
 40
0.0
 40
0.0
 40
0.0
 40
0.0
 40
0.1111111111111111
 40
0.1111111111111111
 40
0.1111111111111111
 40
0.1111111111111111
 40
0.2222222222222222
 40
0.2222222222222222
 40
0.2222222222222222
 40
0.2222222222222222
 40
0.3333333333333333
 40
0.3333333333333333
 40
0.3333333333333333
 40
0.3333333333333333
 40
0.4444444444444444
 40
0.4444444444444444
 40
0.4444444444444444
 40
0.4444444444444444
 40
0.5555555555555556
 40
0.5555555555555556
 40
0.5555555555555556
 40
0.5555555555555556
 40
0.6666666666666666
 40
0.6666666666666666
 40
0.6666666666666666
 40
0.6666666666666666
 40
0.7777777777777778
 40
0.7777777777777778
 40
0.7777777777777778
 40
0.7777777777777778
 40
1.0
 40
1.0
 40
1.0
 40
1.0
 10
135.0245
 20
-23.1272
 30
0.0
 10
138.0246
 20
-23.1945
 30
0.0
 10
143.1094
 20
-23.2088
 30
0.0
 10
146.6465
 20
-23.0454
 30
0.0
 10
146.6465
 20
-23.0454
 30
0.0
 10
149.7662
 20
-22.9011
 30
0.0
 10
152.2395
 20
-21.4916
 30
0.0
 10
153.6329
 20
-20.2131
 30
0.0
 10
153.6329
 20
-20.2131
 30
0.0
 10
155.6096
 20
-18.3988
 30
0.0
 10
155.8826
 20
-17.6995
 30
0.0
 10
156.9561
 20
-15.0502
 30
0.0
 10
156.9561
 20
-15.0502
 30
0.0
 10
157.3296
 20
-14.1283
 30
0.0
 10
156.6805
 20
-12.8112
 30
0.0
 10
155.6868
 20
-12.8517
 30
0.0
 10
155.6868
 20
-12.8517
 30
0.0
 10
152.9299
 20
-12.9646
 30
0.0
 10
148.1018
 20
-12.6237
 30
0.0
 10
144.0305
 20
-12.8248
 30
0.0
 10
144.0305
 20
-12.8248
 30
0.0
 10
139.7627
 20
-13.0358
 30
0.0
 10
136.8362
 20
-15.5709
 30
0.0
 10
135.8234
 20
-16.8296
 30
0.0
 10
135.8234
 20
-16.8296
 30
0.0
 10
134.0747
 20
-19.0039
 30
0.0
 10
134.002
 20
-19.7849
 30
0.0
 10
133.7559
 20
-20.9288
 30
0.0
 10
133.7559
 20
-20.9288
 30
0.0
 10
133.5468
 20
-21.9009
 30
0.0
 10
134.0307
 20
-23.1047
 30
0.0
 10
135.0245
 20
-23.1272
 30
0.0
  0
SPLINE
  5
63
330
1F
100
AcDbEntity
  8
layer 1
 62
     7
100
AcDbSpline
210
0.0
220
0.0
230
1.0
 70
    11
 71
     3
 72
    36
 73
    32
 74
     0
 42
0.0000000001
 43
0.0000000001
 12
1.0
 22
0.0
 32
0.0
 13
1.0
 23
0.0
 33
0.0
 40
0.0
 40
0.0
 40
0.0
 40
0.0
 40
0.1111111111111111
 40
0.1111111111111111
 40
0.1111111111111111
 40
0.1111111111111111
 40
0.2222222222222222
 40
0.2222222222222222
 40
0.2222222222222222
 40
0.2222222222222222
 40
0.3333333333333333
 40
0.3333333333333333
 40
0.3333333333333333
 40
0.3333333333333333
 40
0.4444444444444444
 40
0.4444444444444444
 40
0.4444444444444444
 40
0.4444444444444444
 40
0.5555555555555556
 40
0.5555555555555556
 40
0.5555555555555556
 40
0.5555555555555556
 40
0.6666666666666666
 40
0.6666666666666666
 40
0.6666666666666666
 40
0.6666666666666666
 40
0.7777777777777778
 40
0.7777777777777778
 40
0.7777777777777778
 40
0.7777777777777778
 40
1.0
 40
1.0
 40
1.0
 40
1.0
 10
135.0245
 20
-90.4181
 30
0.0
 10
138.0246
 20
-90.4855
 30
0.0
 10
143.1094
 20
-90.4997
 30
0.0
 10
146.6465
 20
-90.3363
 30
0.0
 10
146.6465
 20
-90.3363
 30
0.0
 10
149.7662
 20
-90.192
 30
0.0
 10
152.2395
 20
-88.7825
 30
0.0
 10
153.6329
 20
-87.504
 30
0.0
 10
153.6329
 20
-87.504
 30
0.0
 10
155.6096
 20
-85.6897
 30
0.0
 10
155.8826
 20
-84.9905
 30
0.0
 10
156.9561
 20
-82.3411
 30
0.0
 10
156.9561
 20
-82.3411
 30
0.0
 10
157.3296
 20
-81.4192
 30
0.0
 10
156.6805
 20
-80.1021
 30
0.0
 10
155.6868
 20
-80.1426
 30
0.0
 10
155.6868
 20
-80.1426
 30
0.0
 10
152.9299
 20
-80.2556
 30
0.0
 10
148.1018
 20
-79.9146
 30
0.0
 10
144.0305
 20
-80.1157
 30
0.0
 10
144.0305
 20
-80.1157
 30
0.0
 10
139.7627
 20
-80.3267
 30
0.0
 10
136.8362
 20
-82.8619
 30
0.0
 10
135.8234
 20
-84.1206
 30
0.0
 10
135.8234
 20
-84.1206
 30
0.0
 10
134.0747
 20
-86.2949
 30
0.0
 10
134.002
 20
-87.0758
 30
0.0
 10
133.7559
 20
-88.2197
 30
0.0
 10
133.7559
 20
-88.2197
 30
0.0
 10
133.5468
 20
-89.1918
 30
0.0
 10
134.0307
 20
-90.3956
 30
0.0
 10
135.0245
 20
-90.4181
 30
0.0
  0
SPLINE
  5
64
330
1F
100
AcDbEntity
  8
layer 1
 62
     7
100
AcDbSpline
210
0.0
220
0.0
230
1.0
 70
    11
 71
     3
 72
    36
 73
    32
 74
     0
 42
0.0000000001
 43
0.0000000001
 12
1.0
 22
0.0
 32
0.0
 13
1.0
 23
0.0
 33
0.0
 40
0.0
 40
0.0
 40
0.0
 40
0.0
 40
0.1111111111111111
 40
0.1111111111111111
 40
0.1111111111111111
 40
0.1111111111111111
 40
0.2222222222222222
 40
0.2222222222222222
 40
0.2222222222222222
 40
0.2222222222222222
 40
0.3333333333333333
 40
0.3333333333333333
 40
0.3333333333333333
 40
0.3333333333333333
 40
0.4444444444444444
 40
0.4444444444444444
 40
0.4444444444444444
 40
0.4444444444444444
 40
0.5555555555555556
 40
0.5555555555555556
 40
0.5555555555555556
 40
0.5555555555555556
 40
0.6666666666666666
 40
0.6666666666666666
 40
0.6666666666666666
 40
0.6666666666666666
 40
0.7777777777777778
 40
0.7777777777777778
 40
0.7777777777777778
 40
0.7777777777777778
 40
1.0
 40
1.0
 40
1.0
 40
1.0
 10
185.8357
 20
44.1637
 30
0.0
 10
182.8363
 20
44.0964
 30
0.0
 10
177.7506
 20
44.0821
 30
0.0
 10
174.2134
 20
44.2456
 30
0.0
 10
174.2134
 20
44.2456
 30
0.0
 10
171.0948
 20
44.3899
 30
0.0
 10
168.6213
 20
45.7994
 30
0.0
 10
167.2282
 20
47.0779
 30
0.0
 10
167.2282
 20
47.0779
 30
0.0
 10
165.2512
 20
48.8921
 30
0.0
 10
164.9785
 20
49.5914
 30
0.0
 10
163.9047
 20
52.2408
 30
0.0
 10
163.9047
 20
52.2408
 30
0.0
 10
163.5313
 20
53.1626
 30
0.0
 10
164.1803
 20
54.4797
 30
0.0
 10
165.174
 20
54.4393
 30
0.0
 10
165.174
 20
54.4393
 30
0.0
 10
167.931
 20
54.3263
 30
0.0
 10
172.7591
 20
54.6673
 30
0.0
 10
176.8303
 20
54.4662
 30
0.0
 10
176.8303
 20
54.4662
 30
0.0
 10
181.0973
 20
54.2551
 30
0.0
 10
184.0249
 20
51.72
 30
0.0
 10
185.0375
 20
50.4613
 30
0.0
 10
185.0375
 20
50.4613
 30
0.0
 10
186.7862
 20
48.287
 30
0.0
 10
186.859
 20
47.506
 30
0.0
 10
187.105
 20
46.3622
 30
0.0
 10
187.105
 20
46.3622
 30
0.0
 10
187.3142
 20
45.3901
 30
0.0
 10
186.8303
 20
44.1862
 30
0.0
 10
185.8357
 20
44.1637
 30
0.0
  0
SPLINE
  5
65
330
1F
100
AcDbEntity
  8
layer 1
 62
     7
100
AcDbSpline
210
0.0
220
0.0
230
1.0
 70
    11
 71
     3
 72
    36
 73
    32
 74
     0
 42
0.0000000001
 43
0.0000000001
 12
1.0
 22
0.0
 32
0.0
 13
1.0
 23
0.0
 33
0.0
 40
0.0
 40
0.0
 40
0.0
 40
0.0
 40
0.1111111111111111
 40
0.1111111111111111
 40
0.1111111111111111
 40
0.1111111111111111
 40
0.2222222222222222
 40
0.2222222222222222
 40
0.2222222222222222
 40
0.2222222222222222
 40
0.3333333333333333
 40
0.3333333333333333
 40
0.3333333333333333
 40
0.3333333333333333
 40
0.4444444444444444
 40
0.4444444444444444
 40
0.4444444444444444
 40
0.4444444444444444
 40
0.5555555555555556
 40
0.5555555555555556
 40
0.5555555555555556
 40
0.5555555555555556
 40
0.6666666666666666
 40
0.6666666666666666
 40
0.6666666666666666
 40
0.6666666666666666
 40
0.7777777777777778
 40
0.7777777777777778
 40
0.7777777777777778
 40
0.7777777777777778
 40
1.0
 40
1.0
 40
1.0
 40
1.0
 10
185.8357
 20
-23.1272
 30
0.0
 10
182.8363
 20
-23.1945
 30
0.0
 10
177.7506
 20
-23.2088
 30
0.0
 10
174.2134
 20
-23.0454
 30
0.0
 10
174.2134
 20
-23.0454
 30
0.0
 10
171.0948
 20
-22.9011
 30
0.0
 10
168.6213
 20
-21.4916
 30
0.0
 10
167.2282
 20
-20.2131
 30
0.0
 10
167.2282
 20
-20.2131
 30
0.0
 10
165.2512
 20
-18.3988
 30
0.0
 10
164.9785
 20
-17.6995
 30
0.0
 10
163.9047
 20
-15.0502
 30
0.0
 10
163.9047
 20
-15.0502
 30
0.0
 10
163.5313
 20
-14.1283
 30
0.0
 10
164.1803
 20
-12.8112
 30
0.0
 10
165.174
 20
-12.8517
 30
0.0
 10
165.174
 20
-12.8517
 30
0.0
 10
167.931
 20
-12.9646
 30
0.0
 10
172.7591
 20
-12.6237
 30
0.0
 10
176.8303
 20
-12.8248
 30
0.0
 10
176.8303
 20
-12.8248
 30
0.0
 10
181.0973
 20
-13.0358
 30
0.0
 10
184.0249
 20
-15.5709
 30
0.0
 10
185.0375
 20
-16.8296
 30
0.0
 10
185.0375
 20
-16.8296
 30
0.0
 10
186.7862
 20
-19.0039
 30
0.0
 10
186.859
 20
-19.7849
 30
0.0
 10
187.105
 20
-20.9288
 30
0.0
 10
187.105
 20
-20.9288
 30
0.0
 10
187.3142
 20
-21.9009
 30
0.0
 10
186.8303
 20
-23.1047
 30
0.0
 10
185.8357
 20
-23.1272
 30
0.0
  0
SPLINE
  5
66
330
1F
100
AcDbEntity
  8
layer 1
 62
     7
100
AcDbSpline
210
0.0
220
0.0
230
1.0
 70
    11
 71
     3
 72
    36
 73
    32
 74
     0
 42
0.0000000001
 43
0.0000000001
 12
1.0
 22
0.0
 32
0.0
 13
1.0
 23
0.0
 33
0.0
 40
0.0
 40
0.0
 40
0.0
 40
0.0
 40
0.1111111111111111
 40
0.1111111111111111
 40
0.1111111111111111
 40
0.1111111111111111
 40
0.2222222222222222
 40
0.2222222222222222
 40
0.2222222222222222
 40
0.2222222222222222
 40
0.3333333333333333
 40
0.3333333333333333
 40
0.3333333333333333
 40
0.3333333333333333
 40
0.4444444444444444
 40
0.4444444444444444
 40
0.4444444444444444
 40
0.4444444444444444
 40
0.5555555555555556
 40
0.5555555555555556
 40
0.5555555555555556
 40
0.5555555555555556
 40
0.6666666666666666
 40
0.6666666666666666
 40
0.6666666666666666
 40
0.6666666666666666
 40
0.7777777777777778
 40
0.7777777777777778
 40
0.7777777777777778
 40
0.7777777777777778
 40
1.0
 40
1.0
 40
1.0
 40
1.0
 10
185.8357
 20
-90.4181
 30
0.0
 10
182.8363
 20
-90.4855
 30
0.0
 10
177.7506
 20
-90.4997
 30
0.0
 10
174.2134
 20
-90.3363
 30
0.0
 10
174.2134
 20
-90.3363
 30
0.0
 10
171.0948
 20
-90.192
 30
0.0
 10
168.6213
 20
-88.7825
 30
0.0
 10
167.2282
 20
-87.504
 30
0.0
 10
167.2282
 20
-87.504
 30
0.0
 10
165.2512
 20
-85.6897
 30
0.0
 10
164.9785
 20
-84.9905
 30
0.0
 10
163.9047
 20
-82.3411
 30
0.0
 10
163.9047
 20
-82.3411
 30
0.0
 10
163.5313
 20
-81.4192
 30
0.0
 10
164.1803
 20
-80.1021
 30
0.0
 10
165.174
 20
-80.1426
 30
0.0
 10
165.174
 20
-80.1426
 30
0.0
 10
167.931
 20
-80.2556
 30
0.0
 10
172.7591
 20
-79.9146
 30
0.0
 10
176.8303
 20
-80.1157
 30
0.0
 10
176.8303
 20
-80.1157
 30
0.0
 10
181.0973
 20
-80.3267
 30
0.0
 10
184.0249
 20
-82.8619
 30
0.0
 10
185.0375
 20
-84.1206
 30
0.0
 10
185.0375
 20
-84.1206
 30
0.0
 10
186.7862
 20
-86.2949
 30
0.0
 10
186.859
 20
-87.0758
 30
0.0
 10
187.105
 20
-88.2197
 30
0.0
 10
187.105
 20
-88.2197
 30
0.0
 10
187.3142
 20
-89.1918
 30
0.0
 10
186.8303
 20
-90.3956
 30
0.0
 10
185.8357
 20
-90.4181
 30
0.0
  0
SPLINE
  5
67
330
1F
100
AcDbEntity
  8
layer 1
 62
     7
100
AcDbSpline
210
0.0
220
0.0
230
1.0
 70
    11
 71
     3
 72
    36
 73
    32
 74
     0
 42
0.0000000001
 43
0.0000000001
 12
1.0
 22
0.0
 32
0.0
 13
1.0
 23
0.0
 33
0.0
 40
0.0
 40
0.0
 40
0.0
 40
0.0
 40
0.1111111111111111
 40
0.1111111111111111
 40
0.1111111111111111
 40
0.1111111111111111
 40
0.2222222222222222
 40
0.2222222222222222
 40
0.2222222222222222
 40
0.2222222222222222
 40
0.3333333333333333
 40
0.3333333333333333
 40
0.3333333333333333
 40
0.3333333333333333
 40
0.4444444444444444
 40
0.4444444444444444
 40
0.4444444444444444
 40
0.4444444444444444
 40
0.5555555555555556
 40
0.5555555555555556
 40
0.5555555555555556
 40
0.5555555555555556
 40
0.6666666666666666
 40
0.6666666666666666
 40
0.6666666666666666
 40
0.6666666666666666
 40
0.7777777777777778
 40
0.7777777777777778
 40
0.7777777777777778
 40
0.7777777777777778
 40
1.0
 40
1.0
 40
1.0
 40
1.0
 10
122.9065
 20
-7.5388
 30
0.0
 10
125.4704
 20
-5.9804
 30
0.0
 10
127.6528
 20
-4.0405
 30
0.0
 10
129.09
 20
-1.3553
 30
0.0
 10
129.09
 20
-1.3553
 30
0.0
 10
129.5596
 20
-0.479
 30
0.0
 10
131.1838
 20
-0.4666
 30
0.0
 10
131.6289
 20
-1.3553
 30
0.0
 10
131.6289
 20
-1.3553
 30
0.0
 10
132.9665
 20
-4.0269
 30
0.0
 10
135.0987
 20
-6.1591
 30
0.0
 10
137.8115
 20
-7.5389
 30
0.0
 10
137.8115
 20
-7.5389
 30
0.0
 10
138.6987
 20
-7.9895
 30
0.0
 10
138.6922
 20
-9.6153
 30
0.0
 10
137.8115
 20
-10.0768
 30
0.0
 10
137.8115
 20
-10.0768
 30
0.0
 10
135.3681
 20
-11.3578
 30
0.0
 10
133.165
 20
-13.1642
 30
0.0
 10
131.6289
 20
-16.2604
 30
0.0
 10
131.6289
 20
-16.2604
 30
0.0
 10
131.1863
 20
-17.1509
 30
0.0
 10
129.5157
 20
-17.1599
 30
0.0
 10
129.09
 20
-16.2604
 30
0.0
 10
129.09
 20
-16.2604
 30
0.0
 10
127.7667
 20
-13.4623
 30
0.0
 10
125.4642
 20
-11.6704
 30
0.0
 10
122.9065
 20
-10.0768
 30
0.0
 10
122.9065
 20
-10.0768
 30
0.0
 10
122.0626
 20
-9.5516
 30
0.0
 10
122.0573
 20
-8.0551
 30
0.0
 10
122.9065
 20
-7.5388
 30
0.0
  0
SPLINE
  5
68
330
1F
100
AcDbEntity
  8
layer 1
 62
     7
100
AcDbSpline
210
0.0
220
0.0
230
1.0
 70
    11
 71
     3
 72
    36
 73
    32
 74
     0
 42
0.0000000001
 43
0.0000000001
 12
1.0
 22
0.0
 32
0.0
 13
1.0
 23
0.0
 33
0.0
 40
0.0
 40
0.0
 40
0.0
 40
0.0
 40
0.1111111111111111
 40
0.1111111111111111
 40
0.1111111111111111
 40
0.1111111111111111
 40
0.2222222222222222
 40
0.2222222222222222
 40
0.2222222222222222
 40
0.2222222222222222
 40
0.3333333333333333
 40
0.3333333333333333
 40
0.3333333333333333
 40
0.3333333333333333
 40
0.4444444444444444
 40
0.4444444444444444
 40
0.4444444444444444
 40
0.4444444444444444
 40
0.5555555555555556
 40
0.5555555555555556
 40
0.5555555555555556
 40
0.5555555555555556
 40
0.6666666666666666
 40
0.6666666666666666
 40
0.6666666666666666
 40
0.6666666666666666
 40
0.7777777777777778
 40
0.7777777777777778
 40
0.7777777777777778
 40
0.7777777777777778
 40
1.0
 40
1.0
 40
1.0
 40
1.0
 10
122.9065
 20
-74.8297
 30
0.0
 10
125.4704
 20
-73.2713
 30
0.0
 10
127.6528
 20
-71.3314
 30
0.0
 10
129.09
 20
-68.6463
 30
0.0
 10
129.09
 20
-68.6463
 30
0.0
 10
129.5596
 20
-67.7699
 30
0.0
 10
131.1838
 20
-67.7575
 30
0.0
 10
131.6289
 20
-68.6463
 30
0.0
 10
131.6289
 20
-68.6463
 30
0.0
 10
132.9665
 20
-71.3178
 30
0.0
 10
135.0987
 20
-73.45
 30
0.0
 10
137.8115
 20
-74.8298
 30
0.0
 10
137.8115
 20
-74.8298
 30
0.0
 10
138.6987
 20
-75.2804
 30
0.0
 10
138.6922
 20
-76.9063
 30
0.0
 10
137.8115
 20
-77.3678
 30
0.0
 10
137.8115
 20
-77.3678
 30
0.0
 10
135.3681
 20
-78.6487
 30
0.0
 10
133.165
 20
-80.4552
 30
0.0
 10
131.6289
 20
-83.5513
 30
0.0
 10
131.6289
 20
-83.5513
 30
0.0
 10
131.1863
 20
-84.4418
 30
0.0
 10
129.5157
 20
-84.4508
 30
0.0
 10
129.09
 20
-83.5513
 30
0.0
 10
129.09
 20
-83.5513
 30
0.0
 10
127.7667
 20
-80.7532
 30
0.0
 10
125.4642
 20
-78.9613
 30
0.0
 10
122.9065
 20
-77.3678
 30
0.0
 10
122.9065
 20
-77.3678
 30
0.0
 10
122.0626
 20
-76.8425
 30
0.0
 10
122.0573
 20
-75.346
 30
0.0
 10
122.9065
 20
-74.8297
 30
0.0
  0
SPLINE
  5
69
330
1F
100
AcDbEntity
  8
layer 1
 62
     7
100
AcDbSpline
210
0.0
220
0.0
230
1.0
 70
    11
 71
     3
 72
    36
 73
    32
 74
     0
 42
0.0000000001
 43
0.0000000001
 12
1.0
 22
0.0
 32
0.0
 13
1.0
 23
0.0
 33
0.0
 40
0.0
 40
0.0
 40
0.0
 40
0.0
 40
0.1111111111111111
 40
0.1111111111111111
 40
0.1111111111111111
 40
0.1111111111111111
 40
0.2222222222222222
 40
0.2222222222222222
 40
0.2222222222222222
 40
0.2222222222222222
 40
0.3333333333333333
 40
0.3333333333333333
 40
0.3333333333333333
 40
0.3333333333333333
 40
0.4444444444444444
 40
0.4444444444444444
 40
0.4444444444444444
 40
0.4444444444444444
 40
0.5555555555555556
 40
0.5555555555555556
 40
0.5555555555555556
 40
0.5555555555555556
 40
0.6666666666666666
 40
0.6666666666666666
 40
0.6666666666666666
 40
0.6666666666666666
 40
0.7777777777777778
 40
0.7777777777777778
 40
0.7777777777777778
 40
0.7777777777777778
 40
1.0
 40
1.0
 40
1.0
 40
1.0
 10
122.6295
 20
25.8991
 30
0.0
 10
125.1933
 20
27.4575
 30
0.0
 10
127.3757
 20
29.3974
 30
0.0
 10
128.813
 20
32.0826
 30
0.0
 10
128.813
 20
32.0826
 30
0.0
 10
129.2825
 20
32.9589
 30
0.0
 10
130.9067
 20
32.9713
 30
0.0
 10
131.3518
 20
32.0826
 30
0.0
 10
131.3518
 20
32.0826
 30
0.0
 10
132.6894
 20
29.411
 30
0.0
 10
134.8216
 20
27.2788
 30
0.0
 10
137.5345
 20
25.899
 30
0.0
 10
137.5345
 20
25.899
 30
0.0
 10
138.4216
 20
25.4484
 30
0.0
 10
138.4151
 20
23.8226
 30
0.0
 10
137.5345
 20
23.3611
 30
0.0
 10
137.5345
 20
23.3611
 30
0.0
 10
135.091
 20
22.0801
 30
0.0
 10
132.888
 20
20.2737
 30
0.0
 10
131.3518
 20
17.1775
 30
0.0
 10
131.3518
 20
17.1775
 30
0.0
 10
130.9092
 20
16.2871
 30
0.0
 10
129.2386
 20
16.278
 30
0.0
 10
128.813
 20
17.1775
 30
0.0
 10
128.813
 20
17.1775
 30
0.0
 10
127.4896
 20
19.9756
 30
0.0
 10
125.1871
 20
21.7675
 30
0.0
 10
122.6294
 20
23.3611
 30
0.0
 10
122.6294
 20
23.3611
 30
0.0
 10
121.7856
 20
23.8863
 30
0.0
 10
121.7802
 20
25.3828
 30
0.0
 10
122.6295
 20
25.8991
 30
0.0
  0
SPLINE
  5
6A
330
1F
100
AcDbEntity
  8
layer 1
 62
     7
100
AcDbSpline
210
0.0
220
0.0
230
1.0
 70
    11
 71
     3
 72
    36
 73
    32
 74
     0
 42
0.0000000001
 43
0.0000000001
 12
1.0
 22
0.0
 32
0.0
 13
1.0
 23
0.0
 33
0.0
 40
0.0
 40
0.0
 40
0.0
 40
0.0
 40
0.1111111111111111
 40
0.1111111111111111
 40
0.1111111111111111
 40
0.1111111111111111
 40
0.2222222222222222
 40
0.2222222222222222
 40
0.2222222222222222
 40
0.2222222222222222
 40
0.3333333333333333
 40
0.3333333333333333
 40
0.3333333333333333
 40
0.3333333333333333
 40
0.4444444444444444
 40
0.4444444444444444
 40
0.4444444444444444
 40
0.4444444444444444
 40
0.5555555555555556
 40
0.5555555555555556
 40
0.5555555555555556
 40
0.5555555555555556
 40
0.6666666666666666
 40
0.6666666666666666
 40
0.6666666666666666
 40
0.6666666666666666
 40
0.7777777777777778
 40
0.7777777777777778
 40
0.7777777777777778
 40
0.7777777777777778
 40
1.0
 40
1.0
 40
1.0
 40
1.0
 10
122.6295
 20
-41.3918
 30
0.0
 10
125.1933
 20
-39.8334
 30
0.0
 10
127.3757
 20
-37.8935
 30
0.0
 10
128.813
 20
-35.2083
 30
0.0
 10
128.813
 20
-35.2083
 30
0.0
 10
129.2825
 20
-34.332
 30
0.0
 10
130.9067
 20
-34.3196
 30
0.0
 10
131.3518
 20
-35.2083
 30
0.0
 10
131.3518
 20
-35.2083
 30
0.0
 10
132.6894
 20
-37.8799
 30
0.0
 10
134.8216
 20
-40.0121
 30
0.0
 10
137.5345
 20
-41.3919
 30
0.0
 10
137.5345
 20
-41.3919
 30
0.0
 10
138.4216
 20
-41.8425
 30
0.0
 10
138.4151
 20
-43.4684
 30
0.0
 10
137.5345
 20
-43.9299
 30
0.0
 10
137.5345
 20
-43.9299
 30
0.0
 10
135.091
 20
-45.2108
 30
0.0
 10
132.888
 20
-47.0173
 30
0.0
 10
131.3518
 20
-50.1134
 30
0.0
 10
131.3518
 20
-50.1134
 30
0.0
 10
130.9092
 20
-51.0039
 30
0.0
 10
129.2386
 20
-51.0129
 30
0.0
 10
128.813
 20
-50.1134
 30
0.0
 10
128.813
 20
-50.1134
 30
0.0
 10
127.4896
 20
-47.3153
 30
0.0
 10
125.1871
 20
-45.5234
 30
0.0
 10
122.6294
 20
-43.9299
 30
0.0
 10
122.6294
 20
-43.9299
 30
0.0
 10
121.7856
 20
-43.4046
 30
0.0
 10
121.7802
 20
-41.9081
 30
0.0
 10
122.6295
 20
-41.3918
 30
0.0
  0
SPLINE
  5
6B
330
1F
100
AcDbEntity
  8
layer 1
 62
     7
100
AcDbSpline
210
0.0
220
0.0
230
1.0
 70
    11
 71
     3
 72
    28
 73
    24
 74
     0
 42
0.0000000001
 43
0.0000000001
 12
1.0
 22
0.0
 32
0.0
 13
1.0
 23
0.0
 33
0.0
 40
0.0
 40
0.0
 40
0.0
 40
0.0
 40
0.1428571428571428
 40
0.1428571428571428
 40
0.1428571428571428
 40
0.1428571428571428
 40
0.2857142857142857
 40
0.2857142857142857
 40
0.2857142857142857
 40
0.2857142857142857
 40
0.4285714285714285
 40
0.4285714285714285
 40
0.4285714285714285
 40
0.4285714285714285
 40
0.5714285714285714
 40
0.5714285714285714
 40
0.5714285714285714
 40
0.5714285714285714
 40
0.7142857142857143
 40
0.7142857142857143
 40
0.7142857142857143
 40
0.7142857142857143
 40
1.0
 40
1.0
 40
1.0
 40
1.0
 10
122.6295
 20
-108.6827
 30
0.0
 10
125.1933
 20
-107.1243
 30
0.0
 10
127.3757
 20
-105.1845
 30
0.0
 10
128.813
 20
-102.4993
 30
0.0
 10
128.813
 20
-102.4993
 30
0.0
 10
129.2825
 20
-101.6229
 30
0.0
 10
130.9067
 20
-101.6105
 30
0.0
 10
131.3518
 20
-102.4993
 30
0.0
 10
131.3518
 20
-102.4993
 30
0.0
 10
132.6894
 20
-105.1708
 30
0.0
 10
134.8216
 20
-107.303
 30
0.0
 10
137.5345
 20
-108.6828
 30
0.0
 10
137.5345
 20
-108.6828
 30
0.0
 10
137.978
 20
-108.9081
 30
0.0
 10
138.1982
 20
-109.4273
 30
0.0
 10
138.1974
 20
-109.9478
 30
0.0
 10
138.1974
 20
-109.9478
 30
0.0
 10
138.1974
 20
-109.9478
 30
0.0
 10
121.9946
 20
-109.9485
 30
0.0
 10
121.9946
 20
-109.9485
 30
0.0
 10
121.9946
 20
-109.9485
 30
0.0
 10
121.9939
 20
-109.4441
 30
0.0
 10
122.2049
 20
-108.9409
 30
0.0
 10
122.6295
 20
-108.6827
 30
0.0
  0
SPLINE
  5
6C
330
1F
100
AcDbEntity
  8
layer 1
 62
     7
100
AcDbSpline
210
0.0
220
0.0
230
1.0
 70
    11
 71
     3
 72
    36
 73
    32
 74
     0
 42
0.0000000001
 43
0.0000000001
 12
1.0
 22
0.0
 32
0.0
 13
1.0
 23
0.0
 33
0.0
 40
0.0
 40
0.0
 40
0.0
 40
0.0
 40
0.1111111111111111
 40
0.1111111111111111
 40
0.1111111111111111
 40
0.1111111111111111
 40
0.2222222222222222
 40
0.2222222222222222
 40
0.2222222222222222
 40
0.2222222222222222
 40
0.3333333333333333
 40
0.3333333333333333
 40
0.3333333333333333
 40
0.3333333333333333
 40
0.4444444444444444
 40
0.4444444444444444
 40
0.4444444444444444
 40
0.4444444444444444
 40
0.5555555555555556
 40
0.5555555555555556
 40
0.5555555555555556
 40
0.5555555555555556
 40
0.6666666666666666
 40
0.6666666666666666
 40
0.6666666666666666
 40
0.6666666666666666
 40
0.7777777777777778
 40
0.7777777777777778
 40
0.7777777777777778
 40
0.7777777777777778
 40
1.0
 40
1.0
 40
1.0
 40
1.0
 10
92.5859
 20
42.2705
 30
0.0
 10
95.1497
 20
43.829
 30
0.0
 10
97.3321
 20
45.7688
 30
0.0
 10
98.7694
 20
48.454
 30
0.0
 10
98.7694
 20
48.454
 30
0.0
 10
99.2389
 20
49.3304
 30
0.0
 10
100.8631
 20
49.3427
 30
0.0
 10
101.3082
 20
48.454
 30
0.0
 10
101.3082
 20
48.454
 30
0.0
 10
102.6458
 20
45.7824
 30
0.0
 10
104.7781
 20
43.6503
 30
0.0
 10
107.4909
 20
42.2705
 30
0.0
 10
107.4909
 20
42.2705
 30
0.0
 10
108.378
 20
41.8199
 30
0.0
 10
108.3715
 20
40.194
 30
0.0
 10
107.4909
 20
39.7325
 30
0.0
 10
107.4909
 20
39.7325
 30
0.0
 10
105.0474
 20
38.4515
 30
0.0
 10
102.8444
 20
36.6451
 30
0.0
 10
101.3082
 20
33.549
 30
0.0
 10
101.3082
 20
33.549
 30
0.0
 10
100.8656
 20
32.6585
 30
0.0
 10
99.195
 20
32.6494
 30
0.0
 10
98.7694
 20
33.549
 30
0.0
 10
98.7694
 20
33.549
 30
0.0
 10
97.4461
 20
36.3471
 30
0.0
 10
95.1435
 20
38.139
 30
0.0
 10
92.5858
 20
39.7325
 30
0.0
 10
92.5858
 20
39.7325
 30
0.0
 10
91.742
 20
40.2577
 30
0.0
 10
91.7366
 20
41.7543
 30
0.0
 10
92.5859
 20
42.2705
 30
0.0
  0
SPLINE
  5
6D
330
1F
100
AcDbEntity
  8
layer 1
 62
     7
100
AcDbSpline
210
0.0
220
0.0
230
1.0
 70
    11
 71
     3
 72
    36
 73
    32
 74
     0
 42
0.0000000001
 43
0.0000000001
 12
1.0
 22
0.0
 32
0.0
 13
1.0
 23
0.0
 33
0.0
 40
0.0
 40
0.0
 40
0.0
 40
0.0
 40
0.1111111111111111
 40
0.1111111111111111
 40
0.1111111111111111
 40
0.1111111111111111
 40
0.2222222222222222
 40
0.2222222222222222
 40
0.2222222222222222
 40
0.2222222222222222
 40
0.3333333333333333
 40
0.3333333333333333
 40
0.3333333333333333
 40
0.3333333333333333
 40
0.4444444444444444
 40
0.4444444444444444
 40
0.4444444444444444
 40
0.4444444444444444
 40
0.5555555555555556
 40
0.5555555555555556
 40
0.5555555555555556
 40
0.5555555555555556
 40
0.6666666666666666
 40
0.6666666666666666
 40
0.6666666666666666
 40
0.6666666666666666
 40
0.7777777777777778
 40
0.7777777777777778
 40
0.7777777777777778
 40
0.7777777777777778
 40
1.0
 40
1.0
 40
1.0
 40
1.0
 10
92.5859
 20
-25.0204
 30
0.0
 10
95.1497
 20
-23.462
 30
0.0
 10
97.3321
 20
-21.5221
 30
0.0
 10
98.7694
 20
-18.8369
 30
0.0
 10
98.7694
 20
-18.8369
 30
0.0
 10
99.2389
 20
-17.9606
 30
0.0
 10
100.8631
 20
-17.9482
 30
0.0
 10
101.3082
 20
-18.8369
 30
0.0
 10
101.3082
 20
-18.8369
 30
0.0
 10
102.6458
 20
-21.5085
 30
0.0
 10
104.7781
 20
-23.6407
 30
0.0
 10
107.4909
 20
-25.0205
 30
0.0
 10
107.4909
 20
-25.0205
 30
0.0
 10
108.378
 20
-25.4711
 30
0.0
 10
108.3715
 20
-27.0969
 30
0.0
 10
107.4909
 20
-27.5584
 30
0.0
 10
107.4909
 20
-27.5584
 30
0.0
 10
105.0474
 20
-28.8394
 30
0.0
 10
102.8444
 20
-30.6458
 30
0.0
 10
101.3082
 20
-33.742
 30
0.0
 10
101.3082
 20
-33.742
 30
0.0
 10
100.8656
 20
-34.6324
 30
0.0
 10
99.195
 20
-34.6415
 30
0.0
 10
98.7694
 20
-33.742
 30
0.0
 10
98.7694
 20
-33.742
 30
0.0
 10
97.4461
 20
-30.9439
 30
0.0
 10
95.1435
 20
-29.152
 30
0.0
 10
92.5858
 20
-27.5584
 30
0.0
 10
92.5858
 20
-27.5584
 30
0.0
 10
91.742
 20
-27.0332
 30
0.0
 10
91.7366
 20
-25.5367
 30
0.0
 10
92.5859
 20
-25.0204
 30
0.0
  0
SPLINE
  5
6E
330
1F
100
AcDbEntity
  8
layer 1
 62
     7
100
AcDbSpline
210
0.0
220
0.0
230
1.0
 70
    11
 71
     3
 72
    36
 73
    32
 74
     0
 42
0.0000000001
 43
0.0000000001
 12
1.0
 22
0.0
 32
0.0
 13
1.0
 23
0.0
 33
0.0
 40
0.0
 40
0.0
 40
0.0
 40
0.0
 40
0.1111111111111111
 40
0.1111111111111111
 40
0.1111111111111111
 40
0.1111111111111111
 40
0.2222222222222222
 40
0.2222222222222222
 40
0.2222222222222222
 40
0.2222222222222222
 40
0.3333333333333333
 40
0.3333333333333333
 40
0.3333333333333333
 40
0.3333333333333333
 40
0.4444444444444444
 40
0.4444444444444444
 40
0.4444444444444444
 40
0.4444444444444444
 40
0.5555555555555556
 40
0.5555555555555556
 40
0.5555555555555556
 40
0.5555555555555556
 40
0.6666666666666666
 40
0.6666666666666666
 40
0.6666666666666666
 40
0.6666666666666666
 40
0.7777777777777778
 40
0.7777777777777778
 40
0.7777777777777778
 40
0.7777777777777778
 40
1.0
 40
1.0
 40
1.0
 40
1.0
 10
92.5859
 20
-92.3113
 30
0.0
 10
95.1497
 20
-90.7529
 30
0.0
 10
97.3321
 20
-88.813
 30
0.0
 10
98.7694
 20
-86.1278
 30
0.0
 10
98.7694
 20
-86.1278
 30
0.0
 10
99.2389
 20
-85.2515
 30
0.0
 10
100.8631
 20
-85.2391
 30
0.0
 10
101.3082
 20
-86.1278
 30
0.0
 10
101.3082
 20
-86.1278
 30
0.0
 10
102.6458
 20
-88.7994
 30
0.0
 10
104.7781
 20
-90.9316
 30
0.0
 10
107.4909
 20
-92.3114
 30
0.0
 10
107.4909
 20
-92.3114
 30
0.0
 10
108.378
 20
-92.762
 30
0.0
 10
108.3715
 20
-94.3879
 30
0.0
 10
107.4909
 20
-94.8493
 30
0.0
 10
107.4909
 20
-94.8493
 30
0.0
 10
105.0474
 20
-96.1303
 30
0.0
 10
102.8444
 20
-97.9368
 30
0.0
 10
101.3082
 20
-101.0329
 30
0.0
 10
101.3082
 20
-101.0329
 30
0.0
 10
100.8656
 20
-101.9234
 30
0.0
 10
99.195
 20
-101.9324
 30
0.0
 10
98.7694
 20
-101.0329
 30
0.0
 10
98.7694
 20
-101.0329
 30
0.0
 10
97.4461
 20
-98.2348
 30
0.0
 10
95.1435
 20
-96.4429
 30
0.0
 10
92.5858
 20
-94.8493
 30
0.0
 10
92.5858
 20
-94.8493
 30
0.0
 10
91.742
 20
-94.3241
 30
0.0
 10
91.7366
 20
-92.8276
 30
0.0
 10
92.5859
 20
-92.3113
 30
0.0
  0
SPLINE
  5
6F
330
1F
100
AcDbEntity
  8
layer 1
 62
     7
100
AcDbSpline
210
0.0
220
0.0
230
1.0
 70
    11
 71
     3
 72
    36
 73
    32
 74
     0
 42
0.0000000001
 43
0.0000000001
 12
1.0
 22
0.0
 32
0.0
 13
1.0
 23
0.0
 33
0.0
 40
0.0
 40
0.0
 40
0.0
 40
0.0
 40
0.1111111111111111
 40
0.1111111111111111
 40
0.1111111111111111
 40
0.1111111111111111
 40
0.2222222222222222
 40
0.2222222222222222
 40
0.2222222222222222
 40
0.2222222222222222
 40
0.3333333333333333
 40
0.3333333333333333
 40
0.3333333333333333
 40
0.3333333333333333
 40
0.4444444444444444
 40
0.4444444444444444
 40
0.4444444444444444
 40
0.4444444444444444
 40
0.5555555555555556
 40
0.5555555555555556
 40
0.5555555555555556
 40
0.5555555555555556
 40
0.6666666666666666
 40
0.6666666666666666
 40
0.6666666666666666
 40
0.6666666666666666
 40
0.7777777777777778
 40
0.7777777777777778
 40
0.7777777777777778
 40
0.7777777777777778
 40
1.0
 40
1.0
 40
1.0
 40
1.0
 10
74.5844
 20
37.9928
 30
0.0
 10
77.5845
 20
38.0599
 30
0.0
 10
82.6693
 20
38.0744
 30
0.0
 10
86.2065
 20
37.911
 30
0.0
 10
86.2065
 20
37.911
 30
0.0
 10
89.3261
 20
37.7665
 30
0.0
 10
91.7994
 20
36.3569
 30
0.0
 10
93.1928
 20
35.0787
 30
0.0
 10
93.1928
 20
35.0787
 30
0.0
 10
95.1695
 20
33.2643
 30
0.0
 10
95.4425
 20
32.5658
 30
0.0
 10
96.516
 20
29.9158
 30
0.0
 10
96.516
 20
29.9158
 30
0.0
 10
96.8895
 20
28.9938
 30
0.0
 10
96.2405
 20
27.6768
 30
0.0
 10
95.2467
 20
27.7173
 30
0.0
 10
95.2467
 20
27.7173
 30
0.0
 10
92.4898
 20
27.8304
 30
0.0
 10
87.6617
 20
27.4891
 30
0.0
 10
83.5904
 20
27.6901
 30
0.0
 10
83.5904
 20
27.6901
 30
0.0
 10
79.3227
 20
27.9012
 30
0.0
 10
76.3961
 20
30.4365
 30
0.0
 10
75.3833
 20
31.695
 30
0.0
 10
75.3833
 20
31.695
 30
0.0
 10
73.6346
 20
33.8694
 30
0.0
 10
73.5619
 20
34.6505
 30
0.0
 10
73.3158
 20
35.7941
 30
0.0
 10
73.3158
 20
35.7941
 30
0.0
 10
73.1067
 20
36.7665
 30
0.0
 10
73.5906
 20
37.9702
 30
0.0
 10
74.5844
 20
37.9928
 30
0.0
  0
SPLINE
  5
70
330
1F
100
AcDbEntity
  8
layer 1
 62
     7
100
AcDbSpline
210
0.0
220
0.0
230
1.0
 70
    11
 71
     3
 72
    36
 73
    32
 74
     0
 42
0.0000000001
 43
0.0000000001
 12
1.0
 22
0.0
 32
0.0
 13
1.0
 23
0.0
 33
0.0
 40
0.0
 40
0.0
 40
0.0
 40
0.0
 40
0.1111111111111111
 40
0.1111111111111111
 40
0.1111111111111111
 40
0.1111111111111111
 40
0.2222222222222222
 40
0.2222222222222222
 40
0.2222222222222222
 40
0.2222222222222222
 40
0.3333333333333333
 40
0.3333333333333333
 40
0.3333333333333333
 40
0.3333333333333333
 40
0.4444444444444444
 40
0.4444444444444444
 40
0.4444444444444444
 40
0.4444444444444444
 40
0.5555555555555556
 40
0.5555555555555556
 40
0.5555555555555556
 40
0.5555555555555556
 40
0.6666666666666666
 40
0.6666666666666666
 40
0.6666666666666666
 40
0.6666666666666666
 40
0.7777777777777778
 40
0.7777777777777778
 40
0.7777777777777778
 40
0.7777777777777778
 40
1.0
 40
1.0
 40
1.0
 40
1.0
 10
74.5844
 20
-29.2981
 30
0.0
 10
77.5845
 20
-29.231
 30
0.0
 10
82.6693
 20
-29.2165
 30
0.0
 10
86.2065
 20
-29.38
 30
0.0
 10
86.2065
 20
-29.38
 30
0.0
 10
89.3261
 20
-29.5245
 30
0.0
 10
91.7994
 20
-30.934
 30
0.0
 10
93.1928
 20
-32.2123
 30
0.0
 10
93.1928
 20
-32.2123
 30
0.0
 10
95.1695
 20
-34.0266
 30
0.0
 10
95.4425
 20
-34.7251
 30
0.0
 10
96.516
 20
-37.3752
 30
0.0
 10
96.516
 20
-37.3752
 30
0.0
 10
96.8895
 20
-38.2971
 30
0.0
 10
96.2405
 20
-39.6141
 30
0.0
 10
95.2467
 20
-39.5736
 30
0.0
 10
95.2467
 20
-39.5736
 30
0.0
 10
92.4898
 20
-39.4605
 30
0.0
 10
87.6617
 20
-39.8019
 30
0.0
 10
83.5904
 20
-39.6008
 30
0.0
 10
83.5904
 20
-39.6008
 30
0.0
 10
79.3227
 20
-39.3897
 30
0.0
 10
76.3961
 20
-36.8544
 30
0.0
 10
75.3833
 20
-35.596
 30
0.0
 10
75.3833
 20
-35.596
 30
0.0
 10
73.6346
 20
-33.4216
 30
0.0
 10
73.5619
 20
-32.6404
 30
0.0
 10
73.3158
 20
-31.4968
 30
0.0
 10
73.3158
 20
-31.4968
 30
0.0
 10
73.1067
 20
-30.5244
 30
0.0
 10
73.5906
 20
-29.3207
 30
0.0
 10
74.5844
 20
-29.2981
 30
0.0
  0
SPLINE
  5
71
330
1F
100
AcDbEntity
  8
layer 1
 62
     7
100
AcDbSpline
210
0.0
220
0.0
230
1.0
 70
    11
 71
     3
 72
    36
 73
    32
 74
     0
 42
0.0000000001
 43
0.0000000001
 12
1.0
 22
0.0
 32
0.0
 13
1.0
 23
0.0
 33
0.0
 40
0.0
 40
0.0
 40
0.0
 40
0.0
 40
0.1111111111111111
 40
0.1111111111111111
 40
0.1111111111111111
 40
0.1111111111111111
 40
0.2222222222222222
 40
0.2222222222222222
 40
0.2222222222222222
 40
0.2222222222222222
 40
0.3333333333333333
 40
0.3333333333333333
 40
0.3333333333333333
 40
0.3333333333333333
 40
0.4444444444444444
 40
0.4444444444444444
 40
0.4444444444444444
 40
0.4444444444444444
 40
0.5555555555555556
 40
0.5555555555555556
 40
0.5555555555555556
 40
0.5555555555555556
 40
0.6666666666666666
 40
0.6666666666666666
 40
0.6666666666666666
 40
0.6666666666666666
 40
0.7777777777777778
 40
0.7777777777777778
 40
0.7777777777777778
 40
0.7777777777777778
 40
1.0
 40
1.0
 40
1.0
 40
1.0
 10
74.5844
 20
-96.589
 30
0.0
 10
77.5845
 20
-96.5219
 30
0.0
 10
82.6693
 20
-96.5074
 30
0.0
 10
86.2065
 20
-96.6709
 30
0.0
 10
86.2065
 20
-96.6709
 30
0.0
 10
89.3261
 20
-96.8154
 30
0.0
 10
91.7994
 20
-98.225
 30
0.0
 10
93.1928
 20
-99.5032
 30
0.0
 10
93.1928
 20
-99.5032
 30
0.0
 10
95.1695
 20
-101.3176
 30
0.0
 10
95.4425
 20
-102.0161
 30
0.0
 10
96.516
 20
-104.6661
 30
0.0
 10
96.516
 20
-104.6661
 30
0.0
 10
96.8895
 20
-105.588
 30
0.0
 10
96.2405
 20
-106.905
 30
0.0
 10
95.2467
 20
-106.8646
 30
0.0
 10
95.2467
 20
-106.8646
 30
0.0
 10
92.4898
 20
-106.7514
 30
0.0
 10
87.6617
 20
-107.0928
 30
0.0
 10
83.5904
 20
-106.8917
 30
0.0
 10
83.5904
 20
-106.8917
 30
0.0
 10
79.3227
 20
-106.6807
 30
0.0
 10
76.3961
 20
-104.1454
 30
0.0
 10
75.3833
 20
-102.8869
 30
0.0
 10
75.3833
 20
-102.8869
 30
0.0
 10
73.6346
 20
-100.7125
 30
0.0
 10
73.5619
 20
-99.9313
 30
0.0
 10
73.3158
 20
-98.7878
 30
0.0
 10
73.3158
 20
-98.7878
 30
0.0
 10
73.1067
 20
-97.8153
 30
0.0
 10
73.5906
 20
-96.6116
 30
0.0
 10
74.5844
 20
-96.589
 30
0.0
  0
SPLINE
  5
72
330
1F
100
AcDbEntity
  8
layer 1
 62
     7
100
AcDbSpline
210
0.0
220
0.0
230
1.0
 70
    11
 71
     3
 72
    36
 73
    32
 74
     0
 42
0.0000000001
 43
0.0000000001
 12
1.0
 22
0.0
 32
0.0
 13
1.0
 23
0.0
 33
0.0
 40
0.0
 40
0.0
 40
0.0
 40
0.0
 40
0.1111111111111111
 40
0.1111111111111111
 40
0.1111111111111111
 40
0.1111111111111111
 40
0.2222222222222222
 40
0.2222222222222222
 40
0.2222222222222222
 40
0.2222222222222222
 40
0.3333333333333333
 40
0.3333333333333333
 40
0.3333333333333333
 40
0.3333333333333333
 40
0.4444444444444444
 40
0.4444444444444444
 40
0.4444444444444444
 40
0.4444444444444444
 40
0.5555555555555556
 40
0.5555555555555556
 40
0.5555555555555556
 40
0.5555555555555556
 40
0.6666666666666666
 40
0.6666666666666666
 40
0.6666666666666666
 40
0.6666666666666666
 40
0.7777777777777778
 40
0.7777777777777778
 40
0.7777777777777778
 40
0.7777777777777778
 40
1.0
 40
1.0
 40
1.0
 40
1.0
 10
125.3956
 20
37.9928
 30
0.0
 10
122.3962
 20
38.0599
 30
0.0
 10
117.3105
 20
38.0744
 30
0.0
 10
113.7733
 20
37.911
 30
0.0
 10
113.7733
 20
37.911
 30
0.0
 10
110.6547
 20
37.7665
 30
0.0
 10
108.1812
 20
36.3569
 30
0.0
 10
106.7881
 20
35.0787
 30
0.0
 10
106.7881
 20
35.0787
 30
0.0
 10
104.8111
 20
33.2643
 30
0.0
 10
104.5384
 20
32.5658
 30
0.0
 10
103.4646
 20
29.9158
 30
0.0
 10
103.4646
 20
29.9158
 30
0.0
 10
103.0912
 20
28.9938
 30
0.0
 10
103.7402
 20
27.6768
 30
0.0
 10
104.7339
 20
27.7173
 30
0.0
 10
104.7339
 20
27.7173
 30
0.0
 10
107.4909
 20
27.8304
 30
0.0
 10
112.319
 20
27.4891
 30
0.0
 10
116.3902
 20
27.6901
 30
0.0
 10
116.3902
 20
27.6901
 30
0.0
 10
120.6572
 20
27.9012
 30
0.0
 10
123.5848
 20
30.4365
 30
0.0
 10
124.5974
 20
31.695
 30
0.0
 10
124.5974
 20
31.695
 30
0.0
 10
126.3461
 20
33.8694
 30
0.0
 10
126.419
 20
34.6505
 30
0.0
 10
126.6649
 20
35.7941
 30
0.0
 10
126.6649
 20
35.7941
 30
0.0
 10
126.8741
 20
36.7665
 30
0.0
 10
126.3902
 20
37.9702
 30
0.0
 10
125.3956
 20
37.9928
 30
0.0
  0
SPLINE
  5
73
330
1F
100
AcDbEntity
  8
layer 1
 62
     7
100
AcDbSpline
210
0.0
220
0.0
230
1.0
 70
    11
 71
     3
 72
    36
 73
    32
 74
     0
 42
0.0000000001
 43
0.0000000001
 12
1.0
 22
0.0
 32
0.0
 13
1.0
 23
0.0
 33
0.0
 40
0.0
 40
0.0
 40
0.0
 40
0.0
 40
0.1111111111111111
 40
0.1111111111111111
 40
0.1111111111111111
 40
0.1111111111111111
 40
0.2222222222222222
 40
0.2222222222222222
 40
0.2222222222222222
 40
0.2222222222222222
 40
0.3333333333333333
 40
0.3333333333333333
 40
0.3333333333333333
 40
0.3333333333333333
 40
0.4444444444444444
 40
0.4444444444444444
 40
0.4444444444444444
 40
0.4444444444444444
 40
0.5555555555555556
 40
0.5555555555555556
 40
0.5555555555555556
 40
0.5555555555555556
 40
0.6666666666666666
 40
0.6666666666666666
 40
0.6666666666666666
 40
0.6666666666666666
 40
0.7777777777777778
 40
0.7777777777777778
 40
0.7777777777777778
 40
0.7777777777777778
 40
1.0
 40
1.0
 40
1.0
 40
1.0
 10
125.3956
 20
-29.2981
 30
0.0
 10
122.3962
 20
-29.231
 30
0.0
 10
117.3105
 20
-29.2165
 30
0.0
 10
113.7733
 20
-29.38
 30
0.0
 10
113.7733
 20
-29.38
 30
0.0
 10
110.6547
 20
-29.5245
 30
0.0
 10
108.1812
 20
-30.934
 30
0.0
 10
106.7881
 20
-32.2123
 30
0.0
 10
106.7881
 20
-32.2123
 30
0.0
 10
104.8111
 20
-34.0266
 30
0.0
 10
104.5384
 20
-34.7251
 30
0.0
 10
103.4646
 20
-37.3752
 30
0.0
 10
103.4646
 20
-37.3752
 30
0.0
 10
103.0912
 20
-38.2971
 30
0.0
 10
103.7402
 20
-39.6141
 30
0.0
 10
104.7339
 20
-39.5736
 30
0.0
 10
104.7339
 20
-39.5736
 30
0.0
 10
107.4909
 20
-39.4605
 30
0.0
 10
112.319
 20
-39.8019
 30
0.0
 10
116.3902
 20
-39.6008
 30
0.0
 10
116.3902
 20
-39.6008
 30
0.0
 10
120.6572
 20
-39.3897
 30
0.0
 10
123.5848
 20
-36.8544
 30
0.0
 10
124.5974
 20
-35.596
 30
0.0
 10
124.5974
 20
-35.596
 30
0.0
 10
126.3461
 20
-33.4216
 30
0.0
 10
126.419
 20
-32.6404
 30
0.0
 10
126.6649
 20
-31.4968
 30
0.0
 10
126.6649
 20
-31.4968
 30
0.0
 10
126.8741
 20
-30.5244
 30
0.0
 10
126.3902
 20
-29.3207
 30
0.0
 10
125.3956
 20
-29.2981
 30
0.0
  0
SPLINE
  5
74
330
1F
100
AcDbEntity
  8
layer 1
 62
     7
100
AcDbSpline
210
0.0
220
0.0
230
1.0
 70
    11
 71
     3
 72
    36
 73
    32
 74
     0
 42
0.0000000001
 43
0.0000000001
 12
1.0
 22
0.0
 32
0.0
 13
1.0
 23
0.0
 33
0.0
 40
0.0
 40
0.0
 40
0.0
 40
0.0
 40
0.1111111111111111
 40
0.1111111111111111
 40
0.1111111111111111
 40
0.1111111111111111
 40
0.2222222222222222
 40
0.2222222222222222
 40
0.2222222222222222
 40
0.2222222222222222
 40
0.3333333333333333
 40
0.3333333333333333
 40
0.3333333333333333
 40
0.3333333333333333
 40
0.4444444444444444
 40
0.4444444444444444
 40
0.4444444444444444
 40
0.4444444444444444
 40
0.5555555555555556
 40
0.5555555555555556
 40
0.5555555555555556
 40
0.5555555555555556
 40
0.6666666666666666
 40
0.6666666666666666
 40
0.6666666666666666
 40
0.6666666666666666
 40
0.7777777777777778
 40
0.7777777777777778
 40
0.7777777777777778
 40
0.7777777777777778
 40
1.0
 40
1.0
 40
1.0
 40
1.0
 10
125.3956
 20
-96.589
 30
0.0
 10
122.3962
 20
-96.5219
 30
0.0
 10
117.3105
 20
-96.5074
 30
0.0
 10
113.7733
 20
-96.6709
 30
0.0
 10
113.7733
 20
-96.6709
 30
0.0
 10
110.6547
 20
-96.8154
 30
0.0
 10
108.1812
 20
-98.225
 30
0.0
 10
106.7881
 20
-99.5032
 30
0.0
 10
106.7881
 20
-99.5032
 30
0.0
 10
104.8111
 20
-101.3176
 30
0.0
 10
104.5384
 20
-102.0161
 30
0.0
 10
103.4646
 20
-104.6661
 30
0.0
 10
103.4646
 20
-104.6661
 30
0.0
 10
103.0912
 20
-105.588
 30
0.0
 10
103.7402
 20
-106.905
 30
0.0
 10
104.7339
 20
-106.8646
 30
0.0
 10
104.7339
 20
-106.8646
 30
0.0
 10
107.4909
 20
-106.7514
 30
0.0
 10
112.319
 20
-107.0928
 30
0.0
 10
116.3902
 20
-106.8917
 30
0.0
 10
116.3902
 20
-106.8917
 30
0.0
 10
120.6572
 20
-106.6807
 30
0.0
 10
123.5848
 20
-104.1454
 30
0.0
 10
124.5974
 20
-102.8869
 30
0.0
 10
124.5974
 20
-102.8869
 30
0.0
 10
126.3461
 20
-100.7125
 30
0.0
 10
126.419
 20
-99.9313
 30
0.0
 10
126.6649
 20
-98.7878
 30
0.0
 10
126.6649
 20
-98.7878
 30
0.0
 10
126.8741
 20
-97.8153
 30
0.0
 10
126.3902
 20
-96.6116
 30
0.0
 10
125.3956
 20
-96.589
 30
0.0
  0
SPLINE
  5
75
330
1F
100
AcDbEntity
  8
layer 1
 62
     7
100
AcDbSpline
210
0.0
220
0.0
230
1.0
 70
    11
 71
     3
 72
    36
 73
    32
 74
     0
 42
0.0000000001
 43
0.0000000001
 12
1.0
 22
0.0
 32
0.0
 13
1.0
 23
0.0
 33
0.0
 40
0.0
 40
0.0
 40
0.0
 40
0.0
 40
0.1111111111111111
 40
0.1111111111111111
 40
0.1111111111111111
 40
0.1111111111111111
 40
0.2222222222222222
 40
0.2222222222222222
 40
0.2222222222222222
 40
0.2222222222222222
 40
0.3333333333333333
 40
0.3333333333333333
 40
0.3333333333333333
 40
0.3333333333333333
 40
0.4444444444444444
 40
0.4444444444444444
 40
0.4444444444444444
 40
0.4444444444444444
 40
0.5555555555555556
 40
0.5555555555555556
 40
0.5555555555555556
 40
0.5555555555555556
 40
0.6666666666666666
 40
0.6666666666666666
 40
0.6666666666666666
 40
0.6666666666666666
 40
0.7777777777777778
 40
0.7777777777777778
 40
0.7777777777777778
 40
0.7777777777777778
 40
1.0
 40
1.0
 40
1.0
 40
1.0
 10
74.5844
 20
44.1637
 30
0.0
 10
77.5845
 20
44.0964
 30
0.0
 10
82.6693
 20
44.0821
 30
0.0
 10
86.2065
 20
44.2456
 30
0.0
 10
86.2065
 20
44.2456
 30
0.0
 10
89.3261
 20
44.3899
 30
0.0
 10
91.7994
 20
45.7994
 30
0.0
 10
93.1928
 20
47.0779
 30
0.0
 10
93.1928
 20
47.0779
 30
0.0
 10
95.1695
 20
48.8921
 30
0.0
 10
95.4425
 20
49.5914
 30
0.0
 10
96.516
 20
52.2408
 30
0.0
 10
96.516
 20
52.2408
 30
0.0
 10
96.8895
 20
53.1626
 30
0.0
 10
96.2405
 20
54.4797
 30
0.0
 10
95.2467
 20
54.4393
 30
0.0
 10
95.2467
 20
54.4393
 30
0.0
 10
92.4898
 20
54.3263
 30
0.0
 10
87.6617
 20
54.6673
 30
0.0
 10
83.5904
 20
54.4662
 30
0.0
 10
83.5904
 20
54.4662
 30
0.0
 10
79.3227
 20
54.2551
 30
0.0
 10
76.3961
 20
51.72
 30
0.0
 10
75.3833
 20
50.4613
 30
0.0
 10
75.3833
 20
50.4613
 30
0.0
 10
73.6346
 20
48.287
 30
0.0
 10
73.5619
 20
47.506
 30
0.0
 10
73.3158
 20
46.3622
 30
0.0
 10
73.3158
 20
46.3622
 30
0.0
 10
73.1067
 20
45.3901
 30
0.0
 10
73.5906
 20
44.1862
 30
0.0
 10
74.5844
 20
44.1637
 30
0.0
  0
SPLINE
  5
76
330
1F
100
AcDbEntity
  8
layer 1
 62
     7
100
AcDbSpline
210
0.0
220
0.0
230
1.0
 70
    11
 71
     3
 72
    36
 73
    32
 74
     0
 42
0.0000000001
 43
0.0000000001
 12
1.0
 22
0.0
 32
0.0
 13
1.0
 23
0.0
 33
0.0
 40
0.0
 40
0.0
 40
0.0
 40
0.0
 40
0.1111111111111111
 40
0.1111111111111111
 40
0.1111111111111111
 40
0.1111111111111111
 40
0.2222222222222222
 40
0.2222222222222222
 40
0.2222222222222222
 40
0.2222222222222222
 40
0.3333333333333333
 40
0.3333333333333333
 40
0.3333333333333333
 40
0.3333333333333333
 40
0.4444444444444444
 40
0.4444444444444444
 40
0.4444444444444444
 40
0.4444444444444444
 40
0.5555555555555556
 40
0.5555555555555556
 40
0.5555555555555556
 40
0.5555555555555556
 40
0.6666666666666666
 40
0.6666666666666666
 40
0.6666666666666666
 40
0.6666666666666666
 40
0.7777777777777778
 40
0.7777777777777778
 40
0.7777777777777778
 40
0.7777777777777778
 40
1.0
 40
1.0
 40
1.0
 40
1.0
 10
74.5844
 20
-23.1272
 30
0.0
 10
77.5845
 20
-23.1945
 30
0.0
 10
82.6693
 20
-23.2088
 30
0.0
 10
86.2065
 20
-23.0454
 30
0.0
 10
86.2065
 20
-23.0454
 30
0.0
 10
89.3261
 20
-22.9011
 30
0.0
 10
91.7994
 20
-21.4916
 30
0.0
 10
93.1928
 20
-20.2131
 30
0.0
 10
93.1928
 20
-20.2131
 30
0.0
 10
95.1695
 20
-18.3988
 30
0.0
 10
95.4425
 20
-17.6995
 30
0.0
 10
96.516
 20
-15.0502
 30
0.0
 10
96.516
 20
-15.0502
 30
0.0
 10
96.8895
 20
-14.1283
 30
0.0
 10
96.2405
 20
-12.8112
 30
0.0
 10
95.2467
 20
-12.8517
 30
0.0
 10
95.2467
 20
-12.8517
 30
0.0
 10
92.4898
 20
-12.9646
 30
0.0
 10
87.6617
 20
-12.6237
 30
0.0
 10
83.5904
 20
-12.8248
 30
0.0
 10
83.5904
 20
-12.8248
 30
0.0
 10
79.3227
 20
-13.0358
 30
0.0
 10
76.3961
 20
-15.5709
 30
0.0
 10
75.3833
 20
-16.8296
 30
0.0
 10
75.3833
 20
-16.8296
 30
0.0
 10
73.6346
 20
-19.0039
 30
0.0
 10
73.5619
 20
-19.7849
 30
0.0
 10
73.3158
 20
-20.9288
 30
0.0
 10
73.3158
 20
-20.9288
 30
0.0
 10
73.1067
 20
-21.9009
 30
0.0
 10
73.5906
 20
-23.1047
 30
0.0
 10
74.5844
 20
-23.1272
 30
0.0
  0
SPLINE
  5
77
330
1F
100
AcDbEntity
  8
layer 1
 62
     7
100
AcDbSpline
210
0.0
220
0.0
230
1.0
 70
    11
 71
     3
 72
    36
 73
    32
 74
     0
 42
0.0000000001
 43
0.0000000001
 12
1.0
 22
0.0
 32
0.0
 13
1.0
 23
0.0
 33
0.0
 40
0.0
 40
0.0
 40
0.0
 40
0.0
 40
0.1111111111111111
 40
0.1111111111111111
 40
0.1111111111111111
 40
0.1111111111111111
 40
0.2222222222222222
 40
0.2222222222222222
 40
0.2222222222222222
 40
0.2222222222222222
 40
0.3333333333333333
 40
0.3333333333333333
 40
0.3333333333333333
 40
0.3333333333333333
 40
0.4444444444444444
 40
0.4444444444444444
 40
0.4444444444444444
 40
0.4444444444444444
 40
0.5555555555555556
 40
0.5555555555555556
 40
0.5555555555555556
 40
0.5555555555555556
 40
0.6666666666666666
 40
0.6666666666666666
 40
0.6666666666666666
 40
0.6666666666666666
 40
0.7777777777777778
 40
0.7777777777777778
 40
0.7777777777777778
 40
0.7777777777777778
 40
1.0
 40
1.0
 40
1.0
 40
1.0
 10
74.5844
 20
-90.4181
 30
0.0
 10
77.5845
 20
-90.4855
 30
0.0
 10
82.6693
 20
-90.4997
 30
0.0
 10
86.2065
 20
-90.3363
 30
0.0
 10
86.2065
 20
-90.3363
 30
0.0
 10
89.3261
 20
-90.192
 30
0.0
 10
91.7994
 20
-88.7825
 30
0.0
 10
93.1928
 20
-87.504
 30
0.0
 10
93.1928
 20
-87.504
 30
0.0
 10
95.1695
 20
-85.6897
 30
0.0
 10
95.4425
 20
-84.9905
 30
0.0
 10
96.516
 20
-82.3411
 30
0.0
 10
96.516
 20
-82.3411
 30
0.0
 10
96.8895
 20
-81.4192
 30
0.0
 10
96.2405
 20
-80.1021
 30
0.0
 10
95.2467
 20
-80.1426
 30
0.0
 10
95.2467
 20
-80.1426
 30
0.0
 10
92.4898
 20
-80.2556
 30
0.0
 10
87.6617
 20
-79.9146
 30
0.0
 10
83.5904
 20
-80.1157
 30
0.0
 10
83.5904
 20
-80.1157
 30
0.0
 10
79.3227
 20
-80.3267
 30
0.0
 10
76.3961
 20
-82.8619
 30
0.0
 10
75.3833
 20
-84.1206
 30
0.0
 10
75.3833
 20
-84.1206
 30
0.0
 10
73.6346
 20
-86.2949
 30
0.0
 10
73.5619
 20
-87.0758
 30
0.0
 10
73.3158
 20
-88.2197
 30
0.0
 10
73.3158
 20
-88.2197
 30
0.0
 10
73.1067
 20
-89.1918
 30
0.0
 10
73.5906
 20
-90.3956
 30
0.0
 10
74.5844
 20
-90.4181
 30
0.0
  0
SPLINE
  5
78
330
1F
100
AcDbEntity
  8
layer 1
 62
     7
100
AcDbSpline
210
0.0
220
0.0
230
1.0
 70
    11
 71
     3
 72
    36
 73
    32
 74
     0
 42
0.0000000001
 43
0.0000000001
 12
1.0
 22
0.0
 32
0.0
 13
1.0
 23
0.0
 33
0.0
 40
0.0
 40
0.0
 40
0.0
 40
0.0
 40
0.1111111111111111
 40
0.1111111111111111
 40
0.1111111111111111
 40
0.1111111111111111
 40
0.2222222222222222
 40
0.2222222222222222
 40
0.2222222222222222
 40
0.2222222222222222
 40
0.3333333333333333
 40
0.3333333333333333
 40
0.3333333333333333
 40
0.3333333333333333
 40
0.4444444444444444
 40
0.4444444444444444
 40
0.4444444444444444
 40
0.4444444444444444
 40
0.5555555555555556
 40
0.5555555555555556
 40
0.5555555555555556
 40
0.5555555555555556
 40
0.6666666666666666
 40
0.6666666666666666
 40
0.6666666666666666
 40
0.6666666666666666
 40
0.7777777777777778
 40
0.7777777777777778
 40
0.7777777777777778
 40
0.7777777777777778
 40
1.0
 40
1.0
 40
1.0
 40
1.0
 10
125.3956
 20
44.1637
 30
0.0
 10
122.3962
 20
44.0964
 30
0.0
 10
117.3105
 20
44.0821
 30
0.0
 10
113.7733
 20
44.2456
 30
0.0
 10
113.7733
 20
44.2456
 30
0.0
 10
110.6547
 20
44.3899
 30
0.0
 10
108.1812
 20
45.7994
 30
0.0
 10
106.7881
 20
47.0779
 30
0.0
 10
106.7881
 20
47.0779
 30
0.0
 10
104.8111
 20
48.8921
 30
0.0
 10
104.5384
 20
49.5914
 30
0.0
 10
103.4646
 20
52.2408
 30
0.0
 10
103.4646
 20
52.2408
 30
0.0
 10
103.0912
 20
53.1626
 30
0.0
 10
103.7402
 20
54.4797
 30
0.0
 10
104.7339
 20
54.4393
 30
0.0
 10
104.7339
 20
54.4393
 30
0.0
 10
107.4909
 20
54.3263
 30
0.0
 10
112.319
 20
54.6673
 30
0.0
 10
116.3902
 20
54.4662
 30
0.0
 10
116.3902
 20
54.4662
 30
0.0
 10
120.6572
 20
54.2551
 30
0.0
 10
123.5848
 20
51.72
 30
0.0
 10
124.5974
 20
50.4613
 30
0.0
 10
124.5974
 20
50.4613
 30
0.0
 10
126.3461
 20
48.287
 30
0.0
 10
126.419
 20
47.506
 30
0.0
 10
126.6649
 20
46.3622
 30
0.0
 10
126.6649
 20
46.3622
 30
0.0
 10
126.8741
 20
45.3901
 30
0.0
 10
126.3902
 20
44.1862
 30
0.0
 10
125.3956
 20
44.1637
 30
0.0
  0
SPLINE
  5
79
330
1F
100
AcDbEntity
  8
layer 1
 62
     7
100
AcDbSpline
210
0.0
220
0.0
230
1.0
 70
    11
 71
     3
 72
    36
 73
    32
 74
     0
 42
0.0000000001
 43
0.0000000001
 12
1.0
 22
0.0
 32
0.0
 13
1.0
 23
0.0
 33
0.0
 40
0.0
 40
0.0
 40
0.0
 40
0.0
 40
0.1111111111111111
 40
0.1111111111111111
 40
0.1111111111111111
 40
0.1111111111111111
 40
0.2222222222222222
 40
0.2222222222222222
 40
0.2222222222222222
 40
0.2222222222222222
 40
0.3333333333333333
 40
0.3333333333333333
 40
0.3333333333333333
 40
0.3333333333333333
 40
0.4444444444444444
 40
0.4444444444444444
 40
0.4444444444444444
 40
0.4444444444444444
 40
0.5555555555555556
 40
0.5555555555555556
 40
0.5555555555555556
 40
0.5555555555555556
 40
0.6666666666666666
 40
0.6666666666666666
 40
0.6666666666666666
 40
0.6666666666666666
 40
0.7777777777777778
 40
0.7777777777777778
 40
0.7777777777777778
 40
0.7777777777777778
 40
1.0
 40
1.0
 40
1.0
 40
1.0
 10
125.3956
 20
-23.1272
 30
0.0
 10
122.3962
 20
-23.1945
 30
0.0
 10
117.3105
 20
-23.2088
 30
0.0
 10
113.7733
 20
-23.0454
 30
0.0
 10
113.7733
 20
-23.0454
 30
0.0
 10
110.6547
 20
-22.9011
 30
0.0
 10
108.1812
 20
-21.4916
 30
0.0
 10
106.7881
 20
-20.2131
 30
0.0
 10
106.7881
 20
-20.2131
 30
0.0
 10
104.8111
 20
-18.3988
 30
0.0
 10
104.5384
 20
-17.6995
 30
0.0
 10
103.4646
 20
-15.0502
 30
0.0
 10
103.4646
 20
-15.0502
 30
0.0
 10
103.0912
 20
-14.1283
 30
0.0
 10
103.7402
 20
-12.8112
 30
0.0
 10
104.7339
 20
-12.8517
 30
0.0
 10
104.7339
 20
-12.8517
 30
0.0
 10
107.4909
 20
-12.9646
 30
0.0
 10
112.319
 20
-12.6237
 30
0.0
 10
116.3902
 20
-12.8248
 30
0.0
 10
116.3902
 20
-12.8248
 30
0.0
 10
120.6572
 20
-13.0358
 30
0.0
 10
123.5848
 20
-15.5709
 30
0.0
 10
124.5974
 20
-16.8296
 30
0.0
 10
124.5974
 20
-16.8296
 30
0.0
 10
126.3461
 20
-19.0039
 30
0.0
 10
126.419
 20
-19.7849
 30
0.0
 10
126.6649
 20
-20.9288
 30
0.0
 10
126.6649
 20
-20.9288
 30
0.0
 10
126.8741
 20
-21.9009
 30
0.0
 10
126.3902
 20
-23.1047
 30
0.0
 10
125.3956
 20
-23.1272
 30
0.0
  0
SPLINE
  5
7A
330
1F
100
AcDbEntity
  8
layer 1
 62
     7
100
AcDbSpline
210
0.0
220
0.0
230
1.0
 70
    11
 71
     3
 72
    36
 73
    32
 74
     0
 42
0.0000000001
 43
0.0000000001
 12
1.0
 22
0.0
 32
0.0
 13
1.0
 23
0.0
 33
0.0
 40
0.0
 40
0.0
 40
0.0
 40
0.0
 40
0.1111111111111111
 40
0.1111111111111111
 40
0.1111111111111111
 40
0.1111111111111111
 40
0.2222222222222222
 40
0.2222222222222222
 40
0.2222222222222222
 40
0.2222222222222222
 40
0.3333333333333333
 40
0.3333333333333333
 40
0.3333333333333333
 40
0.3333333333333333
 40
0.4444444444444444
 40
0.4444444444444444
 40
0.4444444444444444
 40
0.4444444444444444
 40
0.5555555555555556
 40
0.5555555555555556
 40
0.5555555555555556
 40
0.5555555555555556
 40
0.6666666666666666
 40
0.6666666666666666
 40
0.6666666666666666
 40
0.6666666666666666
 40
0.7777777777777778
 40
0.7777777777777778
 40
0.7777777777777778
 40
0.7777777777777778
 40
1.0
 40
1.0
 40
1.0
 40
1.0
 10
125.3956
 20
-90.4181
 30
0.0
 10
122.3962
 20
-90.4855
 30
0.0
 10
117.3105
 20
-90.4997
 30
0.0
 10
113.7733
 20
-90.3363
 30
0.0
 10
113.7733
 20
-90.3363
 30
0.0
 10
110.6547
 20
-90.192
 30
0.0
 10
108.1812
 20
-88.7825
 30
0.0
 10
106.7881
 20
-87.504
 30
0.0
 10
106.7881
 20
-87.504
 30
0.0
 10
104.8111
 20
-85.6897
 30
0.0
 10
104.5384
 20
-84.9905
 30
0.0
 10
103.4646
 20
-82.3411
 30
0.0
 10
103.4646
 20
-82.3411
 30
0.0
 10
103.0912
 20
-81.4192
 30
0.0
 10
103.7402
 20
-80.1021
 30
0.0
 10
104.7339
 20
-80.1426
 30
0.0
 10
104.7339
 20
-80.1426
 30
0.0
 10
107.4909
 20
-80.2556
 30
0.0
 10
112.319
 20
-79.9146
 30
0.0
 10
116.3902
 20
-80.1157
 30
0.0
 10
116.3902
 20
-80.1157
 30
0.0
 10
120.6572
 20
-80.3267
 30
0.0
 10
123.5848
 20
-82.8619
 30
0.0
 10
124.5974
 20
-84.1206
 30
0.0
 10
124.5974
 20
-84.1206
 30
0.0
 10
126.3461
 20
-86.2949
 30
0.0
 10
126.419
 20
-87.0758
 30
0.0
 10
126.6649
 20
-88.2197
 30
0.0
 10
126.6649
 20
-88.2197
 30
0.0
 10
126.8741
 20
-89.1918
 30
0.0
 10
126.3902
 20
-90.3956
 30
0.0
 10
125.3956
 20
-90.4181
 30
0.0
  0
SPLINE
  5
7B
330
1F
100
AcDbEntity
  8
layer 1
 62
     7
100
AcDbSpline
210
0.0
220
0.0
230
1.0
 70
    11
 71
     3
 72
    36
 73
    32
 74
     0
 42
0.0000000001
 43
0.0000000001
 12
1.0
 22
0.0
 32
0.0
 13
1.0
 23
0.0
 33
0.0
 40
0.0
 40
0.0
 40
0.0
 40
0.0
 40
0.1111111111111111
 40
0.1111111111111111
 40
0.1111111111111111
 40
0.1111111111111111
 40
0.2222222222222222
 40
0.2222222222222222
 40
0.2222222222222222
 40
0.2222222222222222
 40
0.3333333333333333
 40
0.3333333333333333
 40
0.3333333333333333
 40
0.3333333333333333
 40
0.4444444444444444
 40
0.4444444444444444
 40
0.4444444444444444
 40
0.4444444444444444
 40
0.5555555555555556
 40
0.5555555555555556
 40
0.5555555555555556
 40
0.5555555555555556
 40
0.6666666666666666
 40
0.6666666666666666
 40
0.6666666666666666
 40
0.6666666666666666
 40
0.7777777777777778
 40
0.7777777777777778
 40
0.7777777777777778
 40
0.7777777777777778
 40
1.0
 40
1.0
 40
1.0
 40
1.0
 10
153.026
 20
8.5876
 30
0.0
 10
155.5898
 20
10.146
 30
0.0
 10
157.7722
 20
12.0859
 30
0.0
 10
159.2095
 20
14.7711
 30
0.0
 10
159.2095
 20
14.7711
 30
0.0
 10
159.679
 20
15.6474
 30
0.0
 10
161.3032
 20
15.6598
 30
0.0
 10
161.7483
 20
14.7711
 30
0.0
 10
161.7483
 20
14.7711
 30
0.0
 10
163.0859
 20
12.0995
 30
0.0
 10
165.2181
 20
9.9673
 30
0.0
 10
167.931
 20
8.5875
 30
0.0
 10
167.931
 20
8.5875
 30
0.0
 10
168.8181
 20
8.1369
 30
0.0
 10
168.8116
 20
6.5111
 30
0.0
 10
167.931
 20
6.0496
 30
0.0
 10
167.931
 20
6.0496
 30
0.0
 10
165.4875
 20
4.7686
 30
0.0
 10
163.2845
 20
2.9622
 30
0.0
 10
161.7483
 20
-0.134
 30
0.0
 10
161.7483
 20
-0.134
 30
0.0
 10
161.3057
 20
-1.0244
 30
0.0
 10
159.6351
 20
-1.0335
 30
0.0
 10
159.2095
 20
-0.134
 30
0.0
 10
159.2095
 20
-0.134
 30
0.0
 10
157.8861
 20
2.6641
 30
0.0
 10
155.5836
 20
4.456
 30
0.0
 10
153.0259
 20
6.0496
 30
0.0
 10
153.0259
 20
6.0496
 30
0.0
 10
152.1821
 20
6.5748
 30
0.0
 10
152.1767
 20
8.0713
 30
0.0
 10
153.026
 20
8.5876
 30
0.0
  0
SPLINE
  5
7C
330
1F
100
AcDbEntity
  8
layer 1
 62
     7
100
AcDbSpline
210
0.0
220
0.0
230
1.0
 70
    11
 71
     3
 72
    36
 73
    32
 74
     0
 42
0.0000000001
 43
0.0000000001
 12
1.0
 22
0.0
 32
0.0
 13
1.0
 23
0.0
 33
0.0
 40
0.0
 40
0.0
 40
0.0
 40
0.0
 40
0.1111111111111111
 40
0.1111111111111111
 40
0.1111111111111111
 40
0.1111111111111111
 40
0.2222222222222222
 40
0.2222222222222222
 40
0.2222222222222222
 40
0.2222222222222222
 40
0.3333333333333333
 40
0.3333333333333333
 40
0.3333333333333333
 40
0.3333333333333333
 40
0.4444444444444444
 40
0.4444444444444444
 40
0.4444444444444444
 40
0.4444444444444444
 40
0.5555555555555556
 40
0.5555555555555556
 40
0.5555555555555556
 40
0.5555555555555556
 40
0.6666666666666666
 40
0.6666666666666666
 40
0.6666666666666666
 40
0.6666666666666666
 40
0.7777777777777778
 40
0.7777777777777778
 40
0.7777777777777778
 40
0.7777777777777778
 40
1.0
 40
1.0
 40
1.0
 40
1.0
 10
153.026
 20
-58.7033
 30
0.0
 10
155.5898
 20
-57.1449
 30
0.0
 10
157.7722
 20
-55.205
 30
0.0
 10
159.2095
 20
-52.5198
 30
0.0
 10
159.2095
 20
-52.5198
 30
0.0
 10
159.679
 20
-51.6435
 30
0.0
 10
161.3032
 20
-51.6311
 30
0.0
 10
161.7483
 20
-52.5198
 30
0.0
 10
161.7483
 20
-52.5198
 30
0.0
 10
163.0859
 20
-55.1914
 30
0.0
 10
165.2181
 20
-57.3236
 30
0.0
 10
167.931
 20
-58.7034
 30
0.0
 10
167.931
 20
-58.7034
 30
0.0
 10
168.8181
 20
-59.154
 30
0.0
 10
168.8116
 20
-60.7798
 30
0.0
 10
167.931
 20
-61.2413
 30
0.0
 10
167.931
 20
-61.2413
 30
0.0
 10
165.4875
 20
-62.5223
 30
0.0
 10
163.2845
 20
-64.3287
 30
0.0
 10
161.7483
 20
-67.4249
 30
0.0
 10
161.7483
 20
-67.4249
 30
0.0
 10
161.3057
 20
-68.3154
 30
0.0
 10
159.6351
 20
-68.3244
 30
0.0
 10
159.2095
 20
-67.4249
 30
0.0
 10
159.2095
 20
-67.4249
 30
0.0
 10
157.8861
 20
-64.6268
 30
0.0
 10
155.5836
 20
-62.8349
 30
0.0
 10
153.0259
 20
-61.2413
 30
0.0
 10
153.0259
 20
-61.2413
 30
0.0
 10
152.1821
 20
-60.7161
 30
0.0
 10
152.1767
 20
-59.2196
 30
0.0
 10
153.026
 20
-58.7033
 30
0.0
  0
SPLINE
  5
7D
330
1F
100
AcDbEntity
  8
layer 1
 62
     7
100
AcDbSpline
210
0.0
220
0.0
230
1.0
 70
    11
 71
     3
 72
    36
 73
    32
 74
     0
 42
0.0000000001
 43
0.0000000001
 12
1.0
 22
0.0
 32
0.0
 13
1.0
 23
0.0
 33
0.0
 40
0.0
 40
0.0
 40
0.0
 40
0.0
 40
0.1111111111111111
 40
0.1111111111111111
 40
0.1111111111111111
 40
0.1111111111111111
 40
0.2222222222222222
 40
0.2222222222222222
 40
0.2222222222222222
 40
0.2222222222222222
 40
0.3333333333333333
 40
0.3333333333333333
 40
0.3333333333333333
 40
0.3333333333333333
 40
0.4444444444444444
 40
0.4444444444444444
 40
0.4444444444444444
 40
0.4444444444444444
 40
0.5555555555555556
 40
0.5555555555555556
 40
0.5555555555555556
 40
0.5555555555555556
 40
0.6666666666666666
 40
0.6666666666666666
 40
0.6666666666666666
 40
0.6666666666666666
 40
0.7777777777777778
 40
0.7777777777777778
 40
0.7777777777777778
 40
0.7777777777777778
 40
1.0
 40
1.0
 40
1.0
 40
1.0
 10
135.0245
 20
4.3099
 30
0.0
 10
138.0246
 20
4.377
 30
0.0
 10
143.1094
 20
4.3915
 30
0.0
 10
146.6465
 20
4.228
 30
0.0
 10
146.6465
 20
4.228
 30
0.0
 10
149.7662
 20
4.0835
 30
0.0
 10
152.2395
 20
2.674
 30
0.0
 10
153.6329
 20
1.3957
 30
0.0
 10
153.6329
 20
1.3957
 30
0.0
 10
155.6096
 20
-0.4186
 30
0.0
 10
155.8826
 20
-1.1171
 30
0.0
 10
156.9561
 20
-3.7672
 30
0.0
 10
156.9561
 20
-3.7672
 30
0.0
 10
157.3296
 20
-4.6891
 30
0.0
 10
156.6805
 20
-6.0061
 30
0.0
 10
155.6868
 20
-5.9656
 30
0.0
 10
155.6868
 20
-5.9656
 30
0.0
 10
152.9299
 20
-5.8525
 30
0.0
 10
148.1018
 20
-6.1939
 30
0.0
 10
144.0305
 20
-5.9928
 30
0.0
 10
144.0305
 20
-5.9928
 30
0.0
 10
139.7627
 20
-5.7817
 30
0.0
 10
136.8362
 20
-3.2464
 30
0.0
 10
135.8234
 20
-1.988
 30
0.0
 10
135.8234
 20
-1.988
 30
0.0
 10
134.0747
 20
0.1864
 30
0.0
 10
134.002
 20
0.9676
 30
0.0
 10
133.7559
 20
2.1112
 30
0.0
 10
133.7559
 20
2.1112
 30
0.0
 10
133.5468
 20
3.0836
 30
0.0
 10
134.0307
 20
4.2873
 30
0.0
 10
135.0245
 20
4.3099
 30
0.0
  0
SPLINE
  5
7E
330
1F
100
AcDbEntity
  8
layer 1
 62
     7
100
AcDbSpline
210
0.0
220
0.0
230
1.0
 70
    11
 71
     3
 72
    36
 73
    32
 74
     0
 42
0.0000000001
 43
0.0000000001
 12
1.0
 22
0.0
 32
0.0
 13
1.0
 23
0.0
 33
0.0
 40
0.0
 40
0.0
 40
0.0
 40
0.0
 40
0.1111111111111111
 40
0.1111111111111111
 40
0.1111111111111111
 40
0.1111111111111111
 40
0.2222222222222222
 40
0.2222222222222222
 40
0.2222222222222222
 40
0.2222222222222222
 40
0.3333333333333333
 40
0.3333333333333333
 40
0.3333333333333333
 40
0.3333333333333333
 40
0.4444444444444444
 40
0.4444444444444444
 40
0.4444444444444444
 40
0.4444444444444444
 40
0.5555555555555556
 40
0.5555555555555556
 40
0.5555555555555556
 40
0.5555555555555556
 40
0.6666666666666666
 40
0.6666666666666666
 40
0.6666666666666666
 40
0.6666666666666666
 40
0.7777777777777778
 40
0.7777777777777778
 40
0.7777777777777778
 40
0.7777777777777778
 40
1.0
 40
1.0
 40
1.0
 40
1.0
 10
135.0245
 20
-62.981
 30
0.0
 10
138.0246
 20
-62.9139
 30
0.0
 10
143.1094
 20
-62.8994
 30
0.0
 10
146.6465
 20
-63.0629
 30
0.0
 10
146.6465
 20
-63.0629
 30
0.0
 10
149.7662
 20
-63.2074
 30
0.0
 10
152.2395
 20
-64.617
 30
0.0
 10
153.6329
 20
-65.8952
 30
0.0
 10
153.6329
 20
-65.8952
 30
0.0
 10
155.6096
 20
-67.7096
 30
0.0
 10
155.8826
 20
-68.4081
 30
0.0
 10
156.9561
 20
-71.0581
 30
0.0
 10
156.9561
 20
-71.0581
 30
0.0
 10
157.3296
 20
-71.98
 30
0.0
 10
156.6805
 20
-73.297
 30
0.0
 10
155.6868
 20
-73.2566
 30
0.0
 10
155.6868
 20
-73.2566
 30
0.0
 10
152.9299
 20
-73.1434
 30
0.0
 10
148.1018
 20
-73.4848
 30
0.0
 10
144.0305
 20
-73.2837
 30
0.0
 10
144.0305
 20
-73.2837
 30
0.0
 10
139.7627
 20
-73.0727
 30
0.0
 10
136.8362
 20
-70.5374
 30
0.0
 10
135.8234
 20
-69.2789
 30
0.0
 10
135.8234
 20
-69.2789
 30
0.0
 10
134.0747
 20
-67.1045
 30
0.0
 10
134.002
 20
-66.3233
 30
0.0
 10
133.7559
 20
-65.1798
 30
0.0
 10
133.7559
 20
-65.1798
 30
0.0
 10
133.5468
 20
-64.2073
 30
0.0
 10
134.0307
 20
-63.0036
 30
0.0
 10
135.0245
 20
-62.981
 30
0.0
  0
SPLINE
  5
7F
330
1F
100
AcDbEntity
  8
layer 1
 62
     7
100
AcDbSpline
210
0.0
220
0.0
230
1.0
 70
    11
 71
     3
 72
    36
 73
    32
 74
     0
 42
0.0000000001
 43
0.0000000001
 12
1.0
 22
0.0
 32
0.0
 13
1.0
 23
0.0
 33
0.0
 40
0.0
 40
0.0
 40
0.0
 40
0.0
 40
0.1111111111111111
 40
0.1111111111111111
 40
0.1111111111111111
 40
0.1111111111111111
 40
0.2222222222222222
 40
0.2222222222222222
 40
0.2222222222222222
 40
0.2222222222222222
 40
0.3333333333333333
 40
0.3333333333333333
 40
0.3333333333333333
 40
0.3333333333333333
 40
0.4444444444444444
 40
0.4444444444444444
 40
0.4444444444444444
 40
0.4444444444444444
 40
0.5555555555555556
 40
0.5555555555555556
 40
0.5555555555555556
 40
0.5555555555555556
 40
0.6666666666666666
 40
0.6666666666666666
 40
0.6666666666666666
 40
0.6666666666666666
 40
0.7777777777777778
 40
0.7777777777777778
 40
0.7777777777777778
 40
0.7777777777777778
 40
1.0
 40
1.0
 40
1.0
 40
1.0
 10
185.8357
 20
4.3099
 30
0.0
 10
182.8363
 20
4.377
 30
0.0
 10
177.7506
 20
4.3915
 30
0.0
 10
174.2134
 20
4.228
 30
0.0
 10
174.2134
 20
4.228
 30
0.0
 10
171.0948
 20
4.0835
 30
0.0
 10
168.6213
 20
2.674
 30
0.0
 10
167.2282
 20
1.3957
 30
0.0
 10
167.2282
 20
1.3957
 30
0.0
 10
165.2512
 20
-0.4186
 30
0.0
 10
164.9785
 20
-1.1171
 30
0.0
 10
163.9047
 20
-3.7672
 30
0.0
 10
163.9047
 20
-3.7672
 30
0.0
 10
163.5313
 20
-4.6891
 30
0.0
 10
164.1803
 20
-6.0061
 30
0.0
 10
165.174
 20
-5.9656
 30
0.0
 10
165.174
 20
-5.9656
 30
0.0
 10
167.931
 20
-5.8525
 30
0.0
 10
172.7591
 20
-6.1939
 30
0.0
 10
176.8303
 20
-5.9928
 30
0.0
 10
176.8303
 20
-5.9928
 30
0.0
 10
181.0973
 20
-5.7817
 30
0.0
 10
184.0249
 20
-3.2464
 30
0.0
 10
185.0375
 20
-1.988
 30
0.0
 10
185.0375
 20
-1.988
 30
0.0
 10
186.7862
 20
0.1864
 30
0.0
 10
186.859
 20
0.9676
 30
0.0
 10
187.105
 20
2.1112
 30
0.0
 10
187.105
 20
2.1112
 30
0.0
 10
187.3142
 20
3.0836
 30
0.0
 10
186.8303
 20
4.2873
 30
0.0
 10
185.8357
 20
4.3099
 30
0.0
  0
SPLINE
  5
80
330
1F
100
AcDbEntity
  8
layer 1
 62
     7
100
AcDbSpline
210
0.0
220
0.0
230
1.0
 70
    11
 71
     3
 72
    36
 73
    32
 74
     0
 42
0.0000000001
 43
0.0000000001
 12
1.0
 22
0.0
 32
0.0
 13
1.0
 23
0.0
 33
0.0
 40
0.0
 40
0.0
 40
0.0
 40
0.0
 40
0.1111111111111111
 40
0.1111111111111111
 40
0.1111111111111111
 40
0.1111111111111111
 40
0.2222222222222222
 40
0.2222222222222222
 40
0.2222222222222222
 40
0.2222222222222222
 40
0.3333333333333333
 40
0.3333333333333333
 40
0.3333333333333333
 40
0.3333333333333333
 40
0.4444444444444444
 40
0.4444444444444444
 40
0.4444444444444444
 40
0.4444444444444444
 40
0.5555555555555556
 40
0.5555555555555556
 40
0.5555555555555556
 40
0.5555555555555556
 40
0.6666666666666666
 40
0.6666666666666666
 40
0.6666666666666666
 40
0.6666666666666666
 40
0.7777777777777778
 40
0.7777777777777778
 40
0.7777777777777778
 40
0.7777777777777778
 40
1.0
 40
1.0
 40
1.0
 40
1.0
 10
185.8357
 20
-62.981
 30
0.0
 10
182.8363
 20
-62.9139
 30
0.0
 10
177.7506
 20
-62.8994
 30
0.0
 10
174.2134
 20
-63.0629
 30
0.0
 10
174.2134
 20
-63.0629
 30
0.0
 10
171.0948
 20
-63.2074
 30
0.0
 10
168.6213
 20
-64.617
 30
0.0
 10
167.2282
 20
-65.8952
 30
0.0
 10
167.2282
 20
-65.8952
 30
0.0
 10
165.2512
 20
-67.7096
 30
0.0
 10
164.9785
 20
-68.4081
 30
0.0
 10
163.9047
 20
-71.0581
 30
0.0
 10
163.9047
 20
-71.0581
 30
0.0
 10
163.5313
 20
-71.98
 30
0.0
 10
164.1803
 20
-73.297
 30
0.0
 10
165.174
 20
-73.2566
 30
0.0
 10
165.174
 20
-73.2566
 30
0.0
 10
167.931
 20
-73.1434
 30
0.0
 10
172.7591
 20
-73.4848
 30
0.0
 10
176.8303
 20
-73.2837
 30
0.0
 10
176.8303
 20
-73.2837
 30
0.0
 10
181.0973
 20
-73.0727
 30
0.0
 10
184.0249
 20
-70.5374
 30
0.0
 10
185.0375
 20
-69.2789
 30
0.0
 10
185.0375
 20
-69.2789
 30
0.0
 10
186.7862
 20
-67.1045
 30
0.0
 10
186.859
 20
-66.3233
 30
0.0
 10
187.105
 20
-65.1798
 30
0.0
 10
187.105
 20
-65.1798
 30
0.0
 10
187.3142
 20
-64.2073
 30
0.0
 10
186.8303
 20
-63.0036
 30
0.0
 10
185.8357
 20
-62.981
 30
0.0
  0
SPLINE
  5
81
330
1F
100
AcDbEntity
  8
layer 1
 62
     7
100
AcDbSpline
210
0.0
220
0.0
230
1.0
 70
    11
 71
     3
 72
    36
 73
    32
 74
     0
 42
0.0000000001
 43
0.0000000001
 12
1.0
 22
0.0
 32
0.0
 13
1.0
 23
0.0
 33
0.0
 40
0.0
 40
0.0
 40
0.0
 40
0.0
 40
0.1111111111111111
 40
0.1111111111111111
 40
0.1111111111111111
 40
0.1111111111111111
 40
0.2222222222222222
 40
0.2222222222222222
 40
0.2222222222222222
 40
0.2222222222222222
 40
0.3333333333333333
 40
0.3333333333333333
 40
0.3333333333333333
 40
0.3333333333333333
 40
0.4444444444444444
 40
0.4444444444444444
 40
0.4444444444444444
 40
0.4444444444444444
 40
0.5555555555555556
 40
0.5555555555555556
 40
0.5555555555555556
 40
0.5555555555555556
 40
0.6666666666666666
 40
0.6666666666666666
 40
0.6666666666666666
 40
0.6666666666666666
 40
0.7777777777777778
 40
0.7777777777777778
 40
0.7777777777777778
 40
0.7777777777777778
 40
1.0
 40
1.0
 40
1.0
 40
1.0
 10
135.0245
 20
10.4808
 30
0.0
 10
138.0246
 20
10.4135
 30
0.0
 10
143.1094
 20
10.3992
 30
0.0
 10
146.6465
 20
10.5627
 30
0.0
 10
146.6465
 20
10.5627
 30
0.0
 10
149.7662
 20
10.7069
 30
0.0
 10
152.2395
 20
12.1165
 30
0.0
 10
153.6329
 20
13.3949
 30
0.0
 10
153.6329
 20
13.3949
 30
0.0
 10
155.6096
 20
15.2092
 30
0.0
 10
155.8826
 20
15.9085
 30
0.0
 10
156.9561
 20
18.5578
 30
0.0
 10
156.9561
 20
18.5578
 30
0.0
 10
157.3296
 20
19.4797
 30
0.0
 10
156.6805
 20
20.7968
 30
0.0
 10
155.6868
 20
20.7563
 30
0.0
 10
155.6868
 20
20.7563
 30
0.0
 10
152.9299
 20
20.6434
 30
0.0
 10
148.1018
 20
20.9843
 30
0.0
 10
144.0305
 20
20.7832
 30
0.0
 10
144.0305
 20
20.7832
 30
0.0
 10
139.7627
 20
20.5722
 30
0.0
 10
136.8362
 20
18.0371
 30
0.0
 10
135.8234
 20
16.7784
 30
0.0
 10
135.8234
 20
16.7784
 30
0.0
 10
134.0747
 20
14.6041
 30
0.0
 10
134.002
 20
13.8231
 30
0.0
 10
133.7559
 20
12.6792
 30
0.0
 10
133.7559
 20
12.6792
 30
0.0
 10
133.5468
 20
11.7071
 30
0.0
 10
134.0307
 20
10.5033
 30
0.0
 10
135.0245
 20
10.4808
 30
0.0
  0
SPLINE
  5
82
330
1F
100
AcDbEntity
  8
layer 1
 62
     7
100
AcDbSpline
210
0.0
220
0.0
230
1.0
 70
    11
 71
     3
 72
    36
 73
    32
 74
     0
 42
0.0000000001
 43
0.0000000001
 12
1.0
 22
0.0
 32
0.0
 13
1.0
 23
0.0
 33
0.0
 40
0.0
 40
0.0
 40
0.0
 40
0.0
 40
0.1111111111111111
 40
0.1111111111111111
 40
0.1111111111111111
 40
0.1111111111111111
 40
0.2222222222222222
 40
0.2222222222222222
 40
0.2222222222222222
 40
0.2222222222222222
 40
0.3333333333333333
 40
0.3333333333333333
 40
0.3333333333333333
 40
0.3333333333333333
 40
0.4444444444444444
 40
0.4444444444444444
 40
0.4444444444444444
 40
0.4444444444444444
 40
0.5555555555555556
 40
0.5555555555555556
 40
0.5555555555555556
 40
0.5555555555555556
 40
0.6666666666666666
 40
0.6666666666666666
 40
0.6666666666666666
 40
0.6666666666666666
 40
0.7777777777777778
 40
0.7777777777777778
 40
0.7777777777777778
 40
0.7777777777777778
 40
1.0
 40
1.0
 40
1.0
 40
1.0
 10
135.0245
 20
-56.8101
 30
0.0
 10
138.0246
 20
-56.8775
 30
0.0
 10
143.1094
 20
-56.8917
 30
0.0
 10
146.6465
 20
-56.7283
 30
0.0
 10
146.6465
 20
-56.7283
 30
0.0
 10
149.7662
 20
-56.584
 30
0.0
 10
152.2395
 20
-55.1745
 30
0.0
 10
153.6329
 20
-53.896
 30
0.0
 10
153.6329
 20
-53.896
 30
0.0
 10
155.6096
 20
-52.0817
 30
0.0
 10
155.8826
 20
-51.3824
 30
0.0
 10
156.9561
 20
-48.7331
 30
0.0
 10
156.9561
 20
-48.7331
 30
0.0
 10
157.3296
 20
-47.8112
 30
0.0
 10
156.6805
 20
-46.4941
 30
0.0
 10
155.6868
 20
-46.5346
 30
0.0
 10
155.6868
 20
-46.5346
 30
0.0
 10
152.9299
 20
-46.6476
 30
0.0
 10
148.1018
 20
-46.3066
 30
0.0
 10
144.0305
 20
-46.5077
 30
0.0
 10
144.0305
 20
-46.5077
 30
0.0
 10
139.7627
 20
-46.7187
 30
0.0
 10
136.8362
 20
-49.2539
 30
0.0
 10
135.8234
 20
-50.5126
 30
0.0
 10
135.8234
 20
-50.5126
 30
0.0
 10
134.0747
 20
-52.6869
 30
0.0
 10
134.002
 20
-53.4678
 30
0.0
 10
133.7559
 20
-54.6117
 30
0.0
 10
133.7559
 20
-54.6117
 30
0.0
 10
133.5468
 20
-55.5838
 30
0.0
 10
134.0307
 20
-56.7876
 30
0.0
 10
135.0245
 20
-56.8101
 30
0.0
  0
SPLINE
  5
83
330
1F
100
AcDbEntity
  8
layer 1
 62
     7
100
AcDbSpline
210
0.0
220
0.0
230
1.0
 70
    11
 71
     3
 72
    36
 73
    32
 74
     0
 42
0.0000000001
 43
0.0000000001
 12
1.0
 22
0.0
 32
0.0
 13
1.0
 23
0.0
 33
0.0
 40
0.0
 40
0.0
 40
0.0
 40
0.0
 40
0.1111111111111111
 40
0.1111111111111111
 40
0.1111111111111111
 40
0.1111111111111111
 40
0.2222222222222222
 40
0.2222222222222222
 40
0.2222222222222222
 40
0.2222222222222222
 40
0.3333333333333333
 40
0.3333333333333333
 40
0.3333333333333333
 40
0.3333333333333333
 40
0.4444444444444444
 40
0.4444444444444444
 40
0.4444444444444444
 40
0.4444444444444444
 40
0.5555555555555556
 40
0.5555555555555556
 40
0.5555555555555556
 40
0.5555555555555556
 40
0.6666666666666666
 40
0.6666666666666666
 40
0.6666666666666666
 40
0.6666666666666666
 40
0.7777777777777778
 40
0.7777777777777778
 40
0.7777777777777778
 40
0.7777777777777778
 40
1.0
 40
1.0
 40
1.0
 40
1.0
 10
185.8357
 20
10.4808
 30
0.0
 10
182.8363
 20
10.4135
 30
0.0
 10
177.7506
 20
10.3992
 30
0.0
 10
174.2134
 20
10.5627
 30
0.0
 10
174.2134
 20
10.5627
 30
0.0
 10
171.0948
 20
10.7069
 30
0.0
 10
168.6213
 20
12.1165
 30
0.0
 10
167.2282
 20
13.3949
 30
0.0
 10
167.2282
 20
13.3949
 30
0.0
 10
165.2512
 20
15.2092
 30
0.0
 10
164.9785
 20
15.9085
 30
0.0
 10
163.9047
 20
18.5578
 30
0.0
 10
163.9047
 20
18.5578
 30
0.0
 10
163.5313
 20
19.4797
 30
0.0
 10
164.1803
 20
20.7968
 30
0.0
 10
165.174
 20
20.7563
 30
0.0
 10
165.174
 20
20.7563
 30
0.0
 10
167.931
 20
20.6434
 30
0.0
 10
172.7591
 20
20.9843
 30
0.0
 10
176.8303
 20
20.7832
 30
0.0
 10
176.8303
 20
20.7832
 30
0.0
 10
181.0973
 20
20.5722
 30
0.0
 10
184.0249
 20
18.0371
 30
0.0
 10
185.0375
 20
16.7784
 30
0.0
 10
185.0375
 20
16.7784
 30
0.0
 10
186.7862
 20
14.6041
 30
0.0
 10
186.859
 20
13.8231
 30
0.0
 10
187.105
 20
12.6792
 30
0.0
 10
187.105
 20
12.6792
 30
0.0
 10
187.3142
 20
11.7071
 30
0.0
 10
186.8303
 20
10.5033
 30
0.0
 10
185.8357
 20
10.4808
 30
0.0
  0
SPLINE
  5
84
330
1F
100
AcDbEntity
  8
layer 1
 62
     7
100
AcDbSpline
210
0.0
220
0.0
230
1.0
 70
    11
 71
     3
 72
    36
 73
    32
 74
     0
 42
0.0000000001
 43
0.0000000001
 12
1.0
 22
0.0
 32
0.0
 13
1.0
 23
0.0
 33
0.0
 40
0.0
 40
0.0
 40
0.0
 40
0.0
 40
0.1111111111111111
 40
0.1111111111111111
 40
0.1111111111111111
 40
0.1111111111111111
 40
0.2222222222222222
 40
0.2222222222222222
 40
0.2222222222222222
 40
0.2222222222222222
 40
0.3333333333333333
 40
0.3333333333333333
 40
0.3333333333333333
 40
0.3333333333333333
 40
0.4444444444444444
 40
0.4444444444444444
 40
0.4444444444444444
 40
0.4444444444444444
 40
0.5555555555555556
 40
0.5555555555555556
 40
0.5555555555555556
 40
0.5555555555555556
 40
0.6666666666666666
 40
0.6666666666666666
 40
0.6666666666666666
 40
0.6666666666666666
 40
0.7777777777777778
 40
0.7777777777777778
 40
0.7777777777777778
 40
0.7777777777777778
 40
1.0
 40
1.0
 40
1.0
 40
1.0
 10
185.8357
 20
-56.8101
 30
0.0
 10
182.8363
 20
-56.8775
 30
0.0
 10
177.7506
 20
-56.8917
 30
0.0
 10
174.2134
 20
-56.7283
 30
0.0
 10
174.2134
 20
-56.7283
 30
0.0
 10
171.0948
 20
-56.584
 30
0.0
 10
168.6213
 20
-55.1745
 30
0.0
 10
167.2282
 20
-53.896
 30
0.0
 10
167.2282
 20
-53.896
 30
0.0
 10
165.2512
 20
-52.0817
 30
0.0
 10
164.9785
 20
-51.3824
 30
0.0
 10
163.9047
 20
-48.7331
 30
0.0
 10
163.9047
 20
-48.7331
 30
0.0
 10
163.5313
 20
-47.8112
 30
0.0
 10
164.1803
 20
-46.4941
 30
0.0
 10
165.174
 20
-46.5346
 30
0.0
 10
165.174
 20
-46.5346
 30
0.0
 10
167.931
 20
-46.6476
 30
0.0
 10
172.7591
 20
-46.3066
 30
0.0
 10
176.8303
 20
-46.5077
 30
0.0
 10
176.8303
 20
-46.5077
 30
0.0
 10
181.0973
 20
-46.7187
 30
0.0
 10
184.0249
 20
-49.2539
 30
0.0
 10
185.0375
 20
-50.5126
 30
0.0
 10
185.0375
 20
-50.5126
 30
0.0
 10
186.7862
 20
-52.6869
 30
0.0
 10
186.859
 20
-53.4678
 30
0.0
 10
187.105
 20
-54.6117
 30
0.0
 10
187.105
 20
-54.6117
 30
0.0
 10
187.3142
 20
-55.5838
 30
0.0
 10
186.8303
 20
-56.7876
 30
0.0
 10
185.8357
 20
-56.8101
 30
0.0
  0
SPLINE
  5
85
330
1F
100
AcDbEntity
  8
layer 1
 62
     7
100
AcDbSpline
210
0.0
220
0.0
230
1.0
 70
    11
 71
     3
 72
    36
 73
    32
 74
     0
 42
0.0000000001
 43
0.0000000001
 12
1.0
 22
0.0
 32
0.0
 13
1.0
 23
0.0
 33
0.0
 40
0.0
 40
0.0
 40
0.0
 40
0.0
 40
0.1111111111111111
 40
0.1111111111111111
 40
0.1111111111111111
 40
0.1111111111111111
 40
0.2222222222222222
 40
0.2222222222222222
 40
0.2222222222222222
 40
0.2222222222222222
 40
0.3333333333333333
 40
0.3333333333333333
 40
0.3333333333333333
 40
0.3333333333333333
 40
0.4444444444444444
 40
0.4444444444444444
 40
0.4444444444444444
 40
0.4444444444444444
 40
0.5555555555555556
 40
0.5555555555555556
 40
0.5555555555555556
 40
0.5555555555555556
 40
0.6666666666666666
 40
0.6666666666666666
 40
0.6666666666666666
 40
0.6666666666666666
 40
0.7777777777777778
 40
0.7777777777777778
 40
0.7777777777777778
 40
0.7777777777777778
 40
1.0
 40
1.0
 40
1.0
 40
1.0
 10
92.5859
 20
8.5876
 30
0.0
 10
95.1497
 20
10.146
 30
0.0
 10
97.3321
 20
12.0859
 30
0.0
 10
98.7694
 20
14.7711
 30
0.0
 10
98.7694
 20
14.7711
 30
0.0
 10
99.2389
 20
15.6474
 30
0.0
 10
100.8631
 20
15.6598
 30
0.0
 10
101.3082
 20
14.7711
 30
0.0
 10
101.3082
 20
14.7711
 30
0.0
 10
102.6458
 20
12.0995
 30
0.0
 10
104.7781
 20
9.9673
 30
0.0
 10
107.4909
 20
8.5875
 30
0.0
 10
107.4909
 20
8.5875
 30
0.0
 10
108.378
 20
8.1369
 30
0.0
 10
108.3715
 20
6.5111
 30
0.0
 10
107.4909
 20
6.0496
 30
0.0
 10
107.4909
 20
6.0496
 30
0.0
 10
105.0474
 20
4.7686
 30
0.0
 10
102.8444
 20
2.9622
 30
0.0
 10
101.3082
 20
-0.134
 30
0.0
 10
101.3082
 20
-0.134
 30
0.0
 10
100.8656
 20
-1.0244
 30
0.0
 10
99.195
 20
-1.0335
 30
0.0
 10
98.7694
 20
-0.134
 30
0.0
 10
98.7694
 20
-0.134
 30
0.0
 10
97.4461
 20
2.6641
 30
0.0
 10
95.1435
 20
4.456
 30
0.0
 10
92.5858
 20
6.0496
 30
0.0
 10
92.5858
 20
6.0496
 30
0.0
 10
91.742
 20
6.5748
 30
0.0
 10
91.7366
 20
8.0713
 30
0.0
 10
92.5859
 20
8.5876
 30
0.0
  0
SPLINE
  5
86
330
1F
100
AcDbEntity
  8
layer 1
 62
     7
100
AcDbSpline
210
0.0
220
0.0
230
1.0
 70
    11
 71
     3
 72
    36
 73
    32
 74
     0
 42
0.0000000001
 43
0.0000000001
 12
1.0
 22
0.0
 32
0.0
 13
1.0
 23
0.0
 33
0.0
 40
0.0
 40
0.0
 40
0.0
 40
0.0
 40
0.1111111111111111
 40
0.1111111111111111
 40
0.1111111111111111
 40
0.1111111111111111
 40
0.2222222222222222
 40
0.2222222222222222
 40
0.2222222222222222
 40
0.2222222222222222
 40
0.3333333333333333
 40
0.3333333333333333
 40
0.3333333333333333
 40
0.3333333333333333
 40
0.4444444444444444
 40
0.4444444444444444
 40
0.4444444444444444
 40
0.4444444444444444
 40
0.5555555555555556
 40
0.5555555555555556
 40
0.5555555555555556
 40
0.5555555555555556
 40
0.6666666666666666
 40
0.6666666666666666
 40
0.6666666666666666
 40
0.6666666666666666
 40
0.7777777777777778
 40
0.7777777777777778
 40
0.7777777777777778
 40
0.7777777777777778
 40
1.0
 40
1.0
 40
1.0
 40
1.0
 10
92.5859
 20
-58.7033
 30
0.0
 10
95.1497
 20
-57.1449
 30
0.0
 10
97.3321
 20
-55.205
 30
0.0
 10
98.7694
 20
-52.5198
 30
0.0
 10
98.7694
 20
-52.5198
 30
0.0
 10
99.2389
 20
-51.6435
 30
0.0
 10
100.8631
 20
-51.6311
 30
0.0
 10
101.3082
 20
-52.5198
 30
0.0
 10
101.3082
 20
-52.5198
 30
0.0
 10
102.6458
 20
-55.1914
 30
0.0
 10
104.7781
 20
-57.3236
 30
0.0
 10
107.4909
 20
-58.7034
 30
0.0
 10
107.4909
 20
-58.7034
 30
0.0
 10
108.378
 20
-59.154
 30
0.0
 10
108.3715
 20
-60.7798
 30
0.0
 10
107.4909
 20
-61.2413
 30
0.0
 10
107.4909
 20
-61.2413
 30
0.0
 10
105.0474
 20
-62.5223
 30
0.0
 10
102.8444
 20
-64.3287
 30
0.0
 10
101.3082
 20
-67.4249
 30
0.0
 10
101.3082
 20
-67.4249
 30
0.0
 10
100.8656
 20
-68.3154
 30
0.0
 10
99.195
 20
-68.3244
 30
0.0
 10
98.7694
 20
-67.4249
 30
0.0
 10
98.7694
 20
-67.4249
 30
0.0
 10
97.4461
 20
-64.6268
 30
0.0
 10
95.1435
 20
-62.8349
 30
0.0
 10
92.5858
 20
-61.2413
 30
0.0
 10
92.5858
 20
-61.2413
 30
0.0
 10
91.742
 20
-60.7161
 30
0.0
 10
91.7366
 20
-59.2196
 30
0.0
 10
92.5859
 20
-58.7033
 30
0.0
  0
SPLINE
  5
87
330
1F
100
AcDbEntity
  8
layer 1
 62
     7
100
AcDbSpline
210
0.0
220
0.0
230
1.0
 70
    11
 71
     3
 72
    36
 73
    32
 74
     0
 42
0.0000000001
 43
0.0000000001
 12
1.0
 22
0.0
 32
0.0
 13
1.0
 23
0.0
 33
0.0
 40
0.0
 40
0.0
 40
0.0
 40
0.0
 40
0.1111111111111111
 40
0.1111111111111111
 40
0.1111111111111111
 40
0.1111111111111111
 40
0.2222222222222222
 40
0.2222222222222222
 40
0.2222222222222222
 40
0.2222222222222222
 40
0.3333333333333333
 40
0.3333333333333333
 40
0.3333333333333333
 40
0.3333333333333333
 40
0.4444444444444444
 40
0.4444444444444444
 40
0.4444444444444444
 40
0.4444444444444444
 40
0.5555555555555556
 40
0.5555555555555556
 40
0.5555555555555556
 40
0.5555555555555556
 40
0.6666666666666666
 40
0.6666666666666666
 40
0.6666666666666666
 40
0.6666666666666666
 40
0.7777777777777778
 40
0.7777777777777778
 40
0.7777777777777778
 40
0.7777777777777778
 40
1.0
 40
1.0
 40
1.0
 40
1.0
 10
74.5844
 20
4.3099
 30
0.0
 10
77.5845
 20
4.377
 30
0.0
 10
82.6693
 20
4.3915
 30
0.0
 10
86.2065
 20
4.228
 30
0.0
 10
86.2065
 20
4.228
 30
0.0
 10
89.3261
 20
4.0835
 30
0.0
 10
91.7994
 20
2.674
 30
0.0
 10
93.1928
 20
1.3957
 30
0.0
 10
93.1928
 20
1.3957
 30
0.0
 10
95.1695
 20
-0.4186
 30
0.0
 10
95.4425
 20
-1.1171
 30
0.0
 10
96.516
 20
-3.7672
 30
0.0
 10
96.516
 20
-3.7672
 30
0.0
 10
96.8895
 20
-4.6891
 30
0.0
 10
96.2405
 20
-6.0061
 30
0.0
 10
95.2467
 20
-5.9656
 30
0.0
 10
95.2467
 20
-5.9656
 30
0.0
 10
92.4898
 20
-5.8525
 30
0.0
 10
87.6617
 20
-6.1939
 30
0.0
 10
83.5904
 20
-5.9928
 30
0.0
 10
83.5904
 20
-5.9928
 30
0.0
 10
79.3227
 20
-5.7817
 30
0.0
 10
76.3961
 20
-3.2464
 30
0.0
 10
75.3833
 20
-1.988
 30
0.0
 10
75.3833
 20
-1.988
 30
0.0
 10
73.6346
 20
0.1864
 30
0.0
 10
73.5619
 20
0.9676
 30
0.0
 10
73.3158
 20
2.1112
 30
0.0
 10
73.3158
 20
2.1112
 30
0.0
 10
73.1067
 20
3.0836
 30
0.0
 10
73.5906
 20
4.2873
 30
0.0
 10
74.5844
 20
4.3099
 30
0.0
  0
SPLINE
  5
88
330
1F
100
AcDbEntity
  8
layer 1
 62
     7
100
AcDbSpline
210
0.0
220
0.0
230
1.0
 70
    11
 71
     3
 72
    36
 73
    32
 74
     0
 42
0.0000000001
 43
0.0000000001
 12
1.0
 22
0.0
 32
0.0
 13
1.0
 23
0.0
 33
0.0
 40
0.0
 40
0.0
 40
0.0
 40
0.0
 40
0.1111111111111111
 40
0.1111111111111111
 40
0.1111111111111111
 40
0.1111111111111111
 40
0.2222222222222222
 40
0.2222222222222222
 40
0.2222222222222222
 40
0.2222222222222222
 40
0.3333333333333333
 40
0.3333333333333333
 40
0.3333333333333333
 40
0.3333333333333333
 40
0.4444444444444444
 40
0.4444444444444444
 40
0.4444444444444444
 40
0.4444444444444444
 40
0.5555555555555556
 40
0.5555555555555556
 40
0.5555555555555556
 40
0.5555555555555556
 40
0.6666666666666666
 40
0.6666666666666666
 40
0.6666666666666666
 40
0.6666666666666666
 40
0.7777777777777778
 40
0.7777777777777778
 40
0.7777777777777778
 40
0.7777777777777778
 40
1.0
 40
1.0
 40
1.0
 40
1.0
 10
74.5844
 20
-62.981
 30
0.0
 10
77.5845
 20
-62.9139
 30
0.0
 10
82.6693
 20
-62.8994
 30
0.0
 10
86.2065
 20
-63.0629
 30
0.0
 10
86.2065
 20
-63.0629
 30
0.0
 10
89.3261
 20
-63.2074
 30
0.0
 10
91.7994
 20
-64.617
 30
0.0
 10
93.1928
 20
-65.8952
 30
0.0
 10
93.1928
 20
-65.8952
 30
0.0
 10
95.1695
 20
-67.7096
 30
0.0
 10
95.4425
 20
-68.4081
 30
0.0
 10
96.516
 20
-71.0581
 30
0.0
 10
96.516
 20
-71.0581
 30
0.0
 10
96.8895
 20
-71.98
 30
0.0
 10
96.2405
 20
-73.297
 30
0.0
 10
95.2467
 20
-73.2566
 30
0.0
 10
95.2467
 20
-73.2566
 30
0.0
 10
92.4898
 20
-73.1434
 30
0.0
 10
87.6617
 20
-73.4848
 30
0.0
 10
83.5904
 20
-73.2837
 30
0.0
 10
83.5904
 20
-73.2837
 30
0.0
 10
79.3227
 20
-73.0727
 30
0.0
 10
76.3961
 20
-70.5374
 30
0.0
 10
75.3833
 20
-69.2789
 30
0.0
 10
75.3833
 20
-69.2789
 30
0.0
 10
73.6346
 20
-67.1045
 30
0.0
 10
73.5619
 20
-66.3233
 30
0.0
 10
73.3158
 20
-65.1798
 30
0.0
 10
73.3158
 20
-65.1798
 30
0.0
 10
73.1067
 20
-64.2073
 30
0.0
 10
73.5906
 20
-63.0036
 30
0.0
 10
74.5844
 20
-62.981
 30
0.0
  0
SPLINE
  5
89
330
1F
100
AcDbEntity
  8
layer 1
 62
     7
100
AcDbSpline
210
0.0
220
0.0
230
1.0
 70
    11
 71
     3
 72
    36
 73
    32
 74
     0
 42
0.0000000001
 43
0.0000000001
 12
1.0
 22
0.0
 32
0.0
 13
1.0
 23
0.0
 33
0.0
 40
0.0
 40
0.0
 40
0.0
 40
0.0
 40
0.1111111111111111
 40
0.1111111111111111
 40
0.1111111111111111
 40
0.1111111111111111
 40
0.2222222222222222
 40
0.2222222222222222
 40
0.2222222222222222
 40
0.2222222222222222
 40
0.3333333333333333
 40
0.3333333333333333
 40
0.3333333333333333
 40
0.3333333333333333
 40
0.4444444444444444
 40
0.4444444444444444
 40
0.4444444444444444
 40
0.4444444444444444
 40
0.5555555555555556
 40
0.5555555555555556
 40
0.5555555555555556
 40
0.5555555555555556
 40
0.6666666666666666
 40
0.6666666666666666
 40
0.6666666666666666
 40
0.6666666666666666
 40
0.7777777777777778
 40
0.7777777777777778
 40
0.7777777777777778
 40
0.7777777777777778
 40
1.0
 40
1.0
 40
1.0
 40
1.0
 10
125.3956
 20
4.3099
 30
0.0
 10
122.3962
 20
4.377
 30
0.0
 10
117.3105
 20
4.3915
 30
0.0
 10
113.7733
 20
4.228
 30
0.0
 10
113.7733
 20
4.228
 30
0.0
 10
110.6547
 20
4.0835
 30
0.0
 10
108.1812
 20
2.674
 30
0.0
 10
106.7881
 20
1.3957
 30
0.0
 10
106.7881
 20
1.3957
 30
0.0
 10
104.8111
 20
-0.4186
 30
0.0
 10
104.5384
 20
-1.1171
 30
0.0
 10
103.4646
 20
-3.7672
 30
0.0
 10
103.4646
 20
-3.7672
 30
0.0
 10
103.0912
 20
-4.6891
 30
0.0
 10
103.7402
 20
-6.0061
 30
0.0
 10
104.7339
 20
-5.9656
 30
0.0
 10
104.7339
 20
-5.9656
 30
0.0
 10
107.4909
 20
-5.8525
 30
0.0
 10
112.319
 20
-6.1939
 30
0.0
 10
116.3902
 20
-5.9928
 30
0.0
 10
116.3902
 20
-5.9928
 30
0.0
 10
120.6572
 20
-5.7817
 30
0.0
 10
123.5848
 20
-3.2464
 30
0.0
 10
124.5974
 20
-1.988
 30
0.0
 10
124.5974
 20
-1.988
 30
0.0
 10
126.3461
 20
0.1864
 30
0.0
 10
126.419
 20
0.9676
 30
0.0
 10
126.6649
 20
2.1112
 30
0.0
 10
126.6649
 20
2.1112
 30
0.0
 10
126.8741
 20
3.0836
 30
0.0
 10
126.3902
 20
4.2873
 30
0.0
 10
125.3956
 20
4.3099
 30
0.0
  0
SPLINE
  5
8A
330
1F
100
AcDbEntity
  8
layer 1
 62
     7
100
AcDbSpline
210
0.0
220
0.0
230
1.0
 70
    11
 71
     3
 72
    36
 73
    32
 74
     0
 42
0.0000000001
 43
0.0000000001
 12
1.0
 22
0.0
 32
0.0
 13
1.0
 23
0.0
 33
0.0
 40
0.0
 40
0.0
 40
0.0
 40
0.0
 40
0.1111111111111111
 40
0.1111111111111111
 40
0.1111111111111111
 40
0.1111111111111111
 40
0.2222222222222222
 40
0.2222222222222222
 40
0.2222222222222222
 40
0.2222222222222222
 40
0.3333333333333333
 40
0.3333333333333333
 40
0.3333333333333333
 40
0.3333333333333333
 40
0.4444444444444444
 40
0.4444444444444444
 40
0.4444444444444444
 40
0.4444444444444444
 40
0.5555555555555556
 40
0.5555555555555556
 40
0.5555555555555556
 40
0.5555555555555556
 40
0.6666666666666666
 40
0.6666666666666666
 40
0.6666666666666666
 40
0.6666666666666666
 40
0.7777777777777778
 40
0.7777777777777778
 40
0.7777777777777778
 40
0.7777777777777778
 40
1.0
 40
1.0
 40
1.0
 40
1.0
 10
125.3956
 20
-62.981
 30
0.0
 10
122.3962
 20
-62.9139
 30
0.0
 10
117.3105
 20
-62.8994
 30
0.0
 10
113.7733
 20
-63.0629
 30
0.0
 10
113.7733
 20
-63.0629
 30
0.0
 10
110.6547
 20
-63.2074
 30
0.0
 10
108.1812
 20
-64.617
 30
0.0
 10
106.7881
 20
-65.8952
 30
0.0
 10
106.7881
 20
-65.8952
 30
0.0
 10
104.8111
 20
-67.7096
 30
0.0
 10
104.5384
 20
-68.4081
 30
0.0
 10
103.4646
 20
-71.0581
 30
0.0
 10
103.4646
 20
-71.0581
 30
0.0
 10
103.0912
 20
-71.98
 30
0.0
 10
103.7402
 20
-73.297
 30
0.0
 10
104.7339
 20
-73.2566
 30
0.0
 10
104.7339
 20
-73.2566
 30
0.0
 10
107.4909
 20
-73.1434
 30
0.0
 10
112.319
 20
-73.4848
 30
0.0
 10
116.3902
 20
-73.2837
 30
0.0
 10
116.3902
 20
-73.2837
 30
0.0
 10
120.6572
 20
-73.0727
 30
0.0
 10
123.5848
 20
-70.5374
 30
0.0
 10
124.5974
 20
-69.2789
 30
0.0
 10
124.5974
 20
-69.2789
 30
0.0
 10
126.3461
 20
-67.1045
 30
0.0
 10
126.419
 20
-66.3233
 30
0.0
 10
126.6649
 20
-65.1798
 30
0.0
 10
126.6649
 20
-65.1798
 30
0.0
 10
126.8741
 20
-64.2073
 30
0.0
 10
126.3902
 20
-63.0036
 30
0.0
 10
125.3956
 20
-62.981
 30
0.0
  0
SPLINE
  5
8B
330
1F
100
AcDbEntity
  8
layer 1
 62
     7
100
AcDbSpline
210
0.0
220
0.0
230
1.0
 70
    11
 71
     3
 72
    36
 73
    32
 74
     0
 42
0.0000000001
 43
0.0000000001
 12
1.0
 22
0.0
 32
0.0
 13
1.0
 23
0.0
 33
0.0
 40
0.0
 40
0.0
 40
0.0
 40
0.0
 40
0.1111111111111111
 40
0.1111111111111111
 40
0.1111111111111111
 40
0.1111111111111111
 40
0.2222222222222222
 40
0.2222222222222222
 40
0.2222222222222222
 40
0.2222222222222222
 40
0.3333333333333333
 40
0.3333333333333333
 40
0.3333333333333333
 40
0.3333333333333333
 40
0.4444444444444444
 40
0.4444444444444444
 40
0.4444444444444444
 40
0.4444444444444444
 40
0.5555555555555556
 40
0.5555555555555556
 40
0.5555555555555556
 40
0.5555555555555556
 40
0.6666666666666666
 40
0.6666666666666666
 40
0.6666666666666666
 40
0.6666666666666666
 40
0.7777777777777778
 40
0.7777777777777778
 40
0.7777777777777778
 40
0.7777777777777778
 40
1.0
 40
1.0
 40
1.0
 40
1.0
 10
74.5844
 20
10.4808
 30
0.0
 10
77.5845
 20
10.4135
 30
0.0
 10
82.6693
 20
10.3992
 30
0.0
 10
86.2065
 20
10.5627
 30
0.0
 10
86.2065
 20
10.5627
 30
0.0
 10
89.3261
 20
10.7069
 30
0.0
 10
91.7994
 20
12.1165
 30
0.0
 10
93.1928
 20
13.3949
 30
0.0
 10
93.1928
 20
13.3949
 30
0.0
 10
95.1695
 20
15.2092
 30
0.0
 10
95.4425
 20
15.9085
 30
0.0
 10
96.516
 20
18.5578
 30
0.0
 10
96.516
 20
18.5578
 30
0.0
 10
96.8895
 20
19.4797
 30
0.0
 10
96.2405
 20
20.7968
 30
0.0
 10
95.2467
 20
20.7563
 30
0.0
 10
95.2467
 20
20.7563
 30
0.0
 10
92.4898
 20
20.6434
 30
0.0
 10
87.6617
 20
20.9843
 30
0.0
 10
83.5904
 20
20.7832
 30
0.0
 10
83.5904
 20
20.7832
 30
0.0
 10
79.3227
 20
20.5722
 30
0.0
 10
76.3961
 20
18.0371
 30
0.0
 10
75.3833
 20
16.7784
 30
0.0
 10
75.3833
 20
16.7784
 30
0.0
 10
73.6346
 20
14.6041
 30
0.0
 10
73.5619
 20
13.8231
 30
0.0
 10
73.3158
 20
12.6792
 30
0.0
 10
73.3158
 20
12.6792
 30
0.0
 10
73.1067
 20
11.7071
 30
0.0
 10
73.5906
 20
10.5033
 30
0.0
 10
74.5844
 20
10.4808
 30
0.0
  0
SPLINE
  5
8C
330
1F
100
AcDbEntity
  8
layer 1
 62
     7
100
AcDbSpline
210
0.0
220
0.0
230
1.0
 70
    11
 71
     3
 72
    36
 73
    32
 74
     0
 42
0.0000000001
 43
0.0000000001
 12
1.0
 22
0.0
 32
0.0
 13
1.0
 23
0.0
 33
0.0
 40
0.0
 40
0.0
 40
0.0
 40
0.0
 40
0.1111111111111111
 40
0.1111111111111111
 40
0.1111111111111111
 40
0.1111111111111111
 40
0.2222222222222222
 40
0.2222222222222222
 40
0.2222222222222222
 40
0.2222222222222222
 40
0.3333333333333333
 40
0.3333333333333333
 40
0.3333333333333333
 40
0.3333333333333333
 40
0.4444444444444444
 40
0.4444444444444444
 40
0.4444444444444444
 40
0.4444444444444444
 40
0.5555555555555556
 40
0.5555555555555556
 40
0.5555555555555556
 40
0.5555555555555556
 40
0.6666666666666666
 40
0.6666666666666666
 40
0.6666666666666666
 40
0.6666666666666666
 40
0.7777777777777778
 40
0.7777777777777778
 40
0.7777777777777778
 40
0.7777777777777778
 40
1.0
 40
1.0
 40
1.0
 40
1.0
 10
74.5844
 20
-56.8101
 30
0.0
 10
77.5845
 20
-56.8775
 30
0.0
 10
82.6693
 20
-56.8917
 30
0.0
 10
86.2065
 20
-56.7283
 30
0.0
 10
86.2065
 20
-56.7283
 30
0.0
 10
89.3261
 20
-56.584
 30
0.0
 10
91.7994
 20
-55.1745
 30
0.0
 10
93.1928
 20
-53.896
 30
0.0
 10
93.1928
 20
-53.896
 30
0.0
 10
95.1695
 20
-52.0817
 30
0.0
 10
95.4425
 20
-51.3824
 30
0.0
 10
96.516
 20
-48.7331
 30
0.0
 10
96.516
 20
-48.7331
 30
0.0
 10
96.8895
 20
-47.8112
 30
0.0
 10
96.2405
 20
-46.4941
 30
0.0
 10
95.2467
 20
-46.5346
 30
0.0
 10
95.2467
 20
-46.5346
 30
0.0
 10
92.4898
 20
-46.6476
 30
0.0
 10
87.6617
 20
-46.3066
 30
0.0
 10
83.5904
 20
-46.5077
 30
0.0
 10
83.5904
 20
-46.5077
 30
0.0
 10
79.3227
 20
-46.7187
 30
0.0
 10
76.3961
 20
-49.2539
 30
0.0
 10
75.3833
 20
-50.5126
 30
0.0
 10
75.3833
 20
-50.5126
 30
0.0
 10
73.6346
 20
-52.6869
 30
0.0
 10
73.5619
 20
-53.4678
 30
0.0
 10
73.3158
 20
-54.6117
 30
0.0
 10
73.3158
 20
-54.6117
 30
0.0
 10
73.1067
 20
-55.5838
 30
0.0
 10
73.5906
 20
-56.7876
 30
0.0
 10
74.5844
 20
-56.8101
 30
0.0
  0
SPLINE
  5
8D
330
1F
100
AcDbEntity
  8
layer 1
 62
     7
100
AcDbSpline
210
0.0
220
0.0
230
1.0
 70
    11
 71
     3
 72
    36
 73
    32
 74
     0
 42
0.0000000001
 43
0.0000000001
 12
1.0
 22
0.0
 32
0.0
 13
1.0
 23
0.0
 33
0.0
 40
0.0
 40
0.0
 40
0.0
 40
0.0
 40
0.1111111111111111
 40
0.1111111111111111
 40
0.1111111111111111
 40
0.1111111111111111
 40
0.2222222222222222
 40
0.2222222222222222
 40
0.2222222222222222
 40
0.2222222222222222
 40
0.3333333333333333
 40
0.3333333333333333
 40
0.3333333333333333
 40
0.3333333333333333
 40
0.4444444444444444
 40
0.4444444444444444
 40
0.4444444444444444
 40
0.4444444444444444
 40
0.5555555555555556
 40
0.5555555555555556
 40
0.5555555555555556
 40
0.5555555555555556
 40
0.6666666666666666
 40
0.6666666666666666
 40
0.6666666666666666
 40
0.6666666666666666
 40
0.7777777777777778
 40
0.7777777777777778
 40
0.7777777777777778
 40
0.7777777777777778
 40
1.0
 40
1.0
 40
1.0
 40
1.0
 10
125.3956
 20
10.4808
 30
0.0
 10
122.3962
 20
10.4135
 30
0.0
 10
117.3105
 20
10.3992
 30
0.0
 10
113.7733
 20
10.5627
 30
0.0
 10
113.7733
 20
10.5627
 30
0.0
 10
110.6547
 20
10.7069
 30
0.0
 10
108.1812
 20
12.1165
 30
0.0
 10
106.7881
 20
13.3949
 30
0.0
 10
106.7881
 20
13.3949
 30
0.0
 10
104.8111
 20
15.2092
 30
0.0
 10
104.5384
 20
15.9085
 30
0.0
 10
103.4646
 20
18.5578
 30
0.0
 10
103.4646
 20
18.5578
 30
0.0
 10
103.0912
 20
19.4797
 30
0.0
 10
103.7402
 20
20.7968
 30
0.0
 10
104.7339
 20
20.7563
 30
0.0
 10
104.7339
 20
20.7563
 30
0.0
 10
107.4909
 20
20.6434
 30
0.0
 10
112.319
 20
20.9843
 30
0.0
 10
116.3902
 20
20.7832
 30
0.0
 10
116.3902
 20
20.7832
 30
0.0
 10
120.6572
 20
20.5722
 30
0.0
 10
123.5848
 20
18.0371
 30
0.0
 10
124.5974
 20
16.7784
 30
0.0
 10
124.5974
 20
16.7784
 30
0.0
 10
126.3461
 20
14.6041
 30
0.0
 10
126.419
 20
13.8231
 30
0.0
 10
126.6649
 20
12.6792
 30
0.0
 10
126.6649
 20
12.6792
 30
0.0
 10
126.8741
 20
11.7071
 30
0.0
 10
126.3902
 20
10.5033
 30
0.0
 10
125.3956
 20
10.4808
 30
0.0
  0
SPLINE
  5
8E
330
1F
100
AcDbEntity
  8
layer 1
 62
     7
100
AcDbSpline
210
0.0
220
0.0
230
1.0
 70
    11
 71
     3
 72
    36
 73
    32
 74
     0
 42
0.0000000001
 43
0.0000000001
 12
1.0
 22
0.0
 32
0.0
 13
1.0
 23
0.0
 33
0.0
 40
0.0
 40
0.0
 40
0.0
 40
0.0
 40
0.1111111111111111
 40
0.1111111111111111
 40
0.1111111111111111
 40
0.1111111111111111
 40
0.2222222222222222
 40
0.2222222222222222
 40
0.2222222222222222
 40
0.2222222222222222
 40
0.3333333333333333
 40
0.3333333333333333
 40
0.3333333333333333
 40
0.3333333333333333
 40
0.4444444444444444
 40
0.4444444444444444
 40
0.4444444444444444
 40
0.4444444444444444
 40
0.5555555555555556
 40
0.5555555555555556
 40
0.5555555555555556
 40
0.5555555555555556
 40
0.6666666666666666
 40
0.6666666666666666
 40
0.6666666666666666
 40
0.6666666666666666
 40
0.7777777777777778
 40
0.7777777777777778
 40
0.7777777777777778
 40
0.7777777777777778
 40
1.0
 40
1.0
 40
1.0
 40
1.0
 10
125.3956
 20
-56.8101
 30
0.0
 10
122.3962
 20
-56.8775
 30
0.0
 10
117.3105
 20
-56.8917
 30
0.0
 10
113.7733
 20
-56.7283
 30
0.0
 10
113.7733
 20
-56.7283
 30
0.0
 10
110.6547
 20
-56.584
 30
0.0
 10
108.1812
 20
-55.1745
 30
0.0
 10
106.7881
 20
-53.896
 30
0.0
 10
106.7881
 20
-53.896
 30
0.0
 10
104.8111
 20
-52.0817
 30
0.0
 10
104.5384
 20
-51.3824
 30
0.0
 10
103.4646
 20
-48.7331
 30
0.0
 10
103.4646
 20
-48.7331
 30
0.0
 10
103.0912
 20
-47.8112
 30
0.0
 10
103.7402
 20
-46.4941
 30
0.0
 10
104.7339
 20
-46.5346
 30
0.0
 10
104.7339
 20
-46.5346
 30
0.0
 10
107.4909
 20
-46.6476
 30
0.0
 10
112.319
 20
-46.3066
 30
0.0
 10
116.3902
 20
-46.5077
 30
0.0
 10
116.3902
 20
-46.5077
 30
0.0
 10
120.6572
 20
-46.7187
 30
0.0
 10
123.5848
 20
-49.2539
 30
0.0
 10
124.5974
 20
-50.5126
 30
0.0
 10
124.5974
 20
-50.5126
 30
0.0
 10
126.3461
 20
-52.6869
 30
0.0
 10
126.419
 20
-53.4678
 30
0.0
 10
126.6649
 20
-54.6117
 30
0.0
 10
126.6649
 20
-54.6117
 30
0.0
 10
126.8741
 20
-55.5838
 30
0.0
 10
126.3902
 20
-56.7876
 30
0.0
 10
125.3956
 20
-56.8101
 30
0.0
  0
SPLINE
  5
8F
330
1F
100
AcDbEntity
  8
layer 1
 62
     7
100
AcDbSpline
210
0.0
220
0.0
230
1.0
 70
    11
 71
     3
 72
    28
 73
    24
 74
     0
 42
0.0000000001
 43
0.0000000001
 12
1.0
 22
0.0
 32
0.0
 13
1.0
 23
0.0
 33
0.0
 40
0.0
 40
0.0
 40
0.0
 40
0.0
 40
0.1428571428571428
 40
0.1428571428571428
 40
0.1428571428571428
 40
0.1428571428571428
 40
0.2857142857142857
 40
0.2857142857142857
 40
0.2857142857142857
 40
0.2857142857142857
 40
0.4285714285714285
 40
0.4285714285714285
 40
0.4285714285714285
 40
0.4285714285714285
 40
0.5714285714285714
 40
0.5714285714285714
 40
0.5714285714285714
 40
0.5714285714285714
 40
0.7142857142857143
 40
0.7142857142857143
 40
0.7142857142857143
 40
0.7142857142857143
 40
1.0
 40
1.0
 40
1.0
 40
1.0
 10
69.9286
 20
100.0355
 30
0.0
 10
70.4489
 20
100.037
 30
0.0
 10
70.9663
 20
99.8179
 30
0.0
 10
71.1888
 20
99.3736
 30
0.0
 10
71.1888
 20
99.3736
 30
0.0
 10
72.5264
 20
96.702
 30
0.0
 10
74.6586
 20
94.5698
 30
0.0
 10
77.3714
 20
93.19
 30
0.0
 10
77.3714
 20
93.19
 30
0.0
 10
78.2586
 20
92.7394
 30
0.0
 10
78.2521
 20
91.1136
 30
0.0
 10
77.3714
 20
90.6521
 30
0.0
 10
77.3714
 20
90.6521
 30
0.0
 10
74.928
 20
89.3711
 30
0.0
 10
72.725
 20
87.5647
 30
0.0
 10
71.1888
 20
84.4685
 30
0.0
 10
71.1888
 20
84.4685
 30
0.0
 10
70.9675
 20
84.0233
 30
0.0
 10
70.4392
 20
83.7984
 30
0.0
 10
69.9131
 20
83.7973
 30
0.0
 10
69.9131
 20
83.7973
 30
0.0
 10
69.9131
 20
83.7973
 30
0.0
 10
69.9286
 20
100.0355
 30
0.0
 10
69.9286
 20
100.0355
 30
0.0
  0
SPLINE
  5
90
330
1F
100
AcDbEntity
  8
layer 1
 62
     7
100
AcDbSpline
210
0.0
220
0.0
230
1.0
 70
    11
 71
     3
 72
    28
 73
    24
 74
     0
 42
0.0000000001
 43
0.0000000001
 12
1.0
 22
0.0
 32
0.0
 13
1.0
 23
0.0
 33
0.0
 40
0.0
 40
0.0
 40
0.0
 40
0.0
 40
0.1428571428571428
 40
0.1428571428571428
 40
0.1428571428571428
 40
0.1428571428571428
 40
0.2857142857142857
 40
0.2857142857142857
 40
0.2857142857142857
 40
0.2857142857142857
 40
0.4285714285714285
 40
0.4285714285714285
 40
0.4285714285714285
 40
0.4285714285714285
 40
0.5714285714285714
 40
0.5714285714285714
 40
0.5714285714285714
 40
0.5714285714285714
 40
0.7142857142857143
 40
0.7142857142857143
 40
0.7142857142857143
 40
0.7142857142857143
 40
1.0
 40
1.0
 40
1.0
 40
1.0
 10
69.9286
 20
66.3525
 30
0.0
 10
70.4489
 20
66.354
 30
0.0
 10
70.9663
 20
66.135
 30
0.0
 10
71.1888
 20
65.6907
 30
0.0
 10
71.1888
 20
65.6907
 30
0.0
 10
72.5264
 20
63.0191
 30
0.0
 10
74.6586
 20
60.8869
 30
0.0
 10
77.3714
 20
59.5071
 30
0.0
 10
77.3714
 20
59.5071
 30
0.0
 10
78.2586
 20
59.0565
 30
0.0
 10
78.2521
 20
57.4306
 30
0.0
 10
77.3714
 20
56.9691
 30
0.0
 10
77.3714
 20
56.9691
 30
0.0
 10
74.928
 20
55.6882
 30
0.0
 10
72.725
 20
53.8817
 30
0.0
 10
71.1888
 20
50.7856
 30
0.0
 10
71.1888
 20
50.7856
 30
0.0
 10
70.9675
 20
50.3404
 30
0.0
 10
70.4392
 20
50.1154
 30
0.0
 10
69.9131
 20
50.1143
 30
0.0
 10
69.9131
 20
50.1143
 30
0.0
 10
69.9131
 20
50.1143
 30
0.0
 10
69.9286
 20
66.3525
 30
0.0
 10
69.9286
 20
66.3525
 30
0.0
  0
SPLINE
  5
91
330
1F
100
AcDbEntity
  8
layer 1
 62
     7
100
AcDbSpline
210
0.0
220
0.0
230
1.0
 70
    11
 71
     3
 72
    28
 73
    24
 74
     0
 42
0.0000000001
 43
0.0000000001
 12
1.0
 22
0.0
 32
0.0
 13
1.0
 23
0.0
 33
0.0
 40
0.0
 40
0.0
 40
0.0
 40
0.0
 40
0.1428571428571428
 40
0.1428571428571428
 40
0.1428571428571428
 40
0.1428571428571428
 40
0.2857142857142857
 40
0.2857142857142857
 40
0.2857142857142857
 40
0.2857142857142857
 40
0.4285714285714285
 40
0.4285714285714285
 40
0.4285714285714285
 40
0.4285714285714285
 40
0.5714285714285714
 40
0.5714285714285714
 40
0.5714285714285714
 40
0.5714285714285714
 40
0.7142857142857143
 40
0.7142857142857143
 40
0.7142857142857143
 40
0.7142857142857143
 40
1.0
 40
1.0
 40
1.0
 40
1.0
 10
69.9286
 20
32.9075
 30
0.0
 10
70.4489
 20
32.909
 30
0.0
 10
70.9663
 20
32.6899
 30
0.0
 10
71.1888
 20
32.2456
 30
0.0
 10
71.1888
 20
32.2456
 30
0.0
 10
72.5264
 20
29.574
 30
0.0
 10
74.6586
 20
27.4418
 30
0.0
 10
77.3714
 20
26.062
 30
0.0
 10
77.3714
 20
26.062
 30
0.0
 10
78.2586
 20
25.6114
 30
0.0
 10
78.2521
 20
23.9856
 30
0.0
 10
77.3714
 20
23.5241
 30
0.0
 10
77.3714
 20
23.5241
 30
0.0
 10
74.928
 20
22.2431
 30
0.0
 10
72.725
 20
20.4367
 30
0.0
 10
71.1888
 20
17.3405
 30
0.0
 10
71.1888
 20
17.3405
 30
0.0
 10
70.9675
 20
16.8953
 30
0.0
 10
70.4392
 20
16.6704
 30
0.0
 10
69.9131
 20
16.6693
 30
0.0
 10
69.9131
 20
16.6693
 30
0.0
 10
69.9131
 20
16.6693
 30
0.0
 10
69.9286
 20
32.9075
 30
0.0
 10
69.9286
 20
32.9075
 30
0.0
  0
SPLINE
  5
92
330
1F
100
AcDbEntity
  8
layer 1
 62
     7
100
AcDbSpline
210
0.0
220
0.0
230
1.0
 70
    11
 71
     3
 72
    28
 73
    24
 74
     0
 42
0.0000000001
 43
0.0000000001
 12
1.0
 22
0.0
 32
0.0
 13
1.0
 23
0.0
 33
0.0
 40
0.0
 40
0.0
 40
0.0
 40
0.0
 40
0.1428571428571428
 40
0.1428571428571428
 40
0.1428571428571428
 40
0.1428571428571428
 40
0.2857142857142857
 40
0.2857142857142857
 40
0.2857142857142857
 40
0.2857142857142857
 40
0.4285714285714285
 40
0.4285714285714285
 40
0.4285714285714285
 40
0.4285714285714285
 40
0.5714285714285714
 40
0.5714285714285714
 40
0.5714285714285714
 40
0.5714285714285714
 40
0.7142857142857143
 40
0.7142857142857143
 40
0.7142857142857143
 40
0.7142857142857143
 40
1.0
 40
1.0
 40
1.0
 40
1.0
 10
69.9286
 20
-0.7755
 30
0.0
 10
70.4489
 20
-0.774
 30
0.0
 10
70.9663
 20
-0.993
 30
0.0
 10
71.1888
 20
-1.4373
 30
0.0
 10
71.1888
 20
-1.4373
 30
0.0
 10
72.5264
 20
-4.1089
 30
0.0
 10
74.6586
 20
-6.2411
 30
0.0
 10
77.3714
 20
-7.6209
 30
0.0
 10
77.3714
 20
-7.6209
 30
0.0
 10
78.2586
 20
-8.0715
 30
0.0
 10
78.2521
 20
-9.6974
 30
0.0
 10
77.3714
 20
-10.1589
 30
0.0
 10
77.3714
 20
-10.1589
 30
0.0
 10
74.928
 20
-11.4398
 30
0.0
 10
72.725
 20
-13.2463
 30
0.0
 10
71.1888
 20
-16.3424
 30
0.0
 10
71.1888
 20
-16.3424
 30
0.0
 10
70.9675
 20
-16.7876
 30
0.0
 10
70.4392
 20
-17.0126
 30
0.0
 10
69.9131
 20
-17.0137
 30
0.0
 10
69.9131
 20
-17.0137
 30
0.0
 10
69.9131
 20
-17.0137
 30
0.0
 10
69.9286
 20
-0.7755
 30
0.0
 10
69.9286
 20
-0.7755
 30
0.0
  0
SPLINE
  5
93
330
1F
100
AcDbEntity
  8
layer 1
 62
     7
100
AcDbSpline
210
0.0
220
0.0
230
1.0
 70
    11
 71
     3
 72
    28
 73
    24
 74
     0
 42
0.0000000001
 43
0.0000000001
 12
1.0
 22
0.0
 32
0.0
 13
1.0
 23
0.0
 33
0.0
 40
0.0
 40
0.0
 40
0.0
 40
0.0
 40
0.1428571428571428
 40
0.1428571428571428
 40
0.1428571428571428
 40
0.1428571428571428
 40
0.2857142857142857
 40
0.2857142857142857
 40
0.2857142857142857
 40
0.2857142857142857
 40
0.4285714285714285
 40
0.4285714285714285
 40
0.4285714285714285
 40
0.4285714285714285
 40
0.5714285714285714
 40
0.5714285714285714
 40
0.5714285714285714
 40
0.5714285714285714
 40
0.7142857142857143
 40
0.7142857142857143
 40
0.7142857142857143
 40
0.7142857142857143
 40
1.0
 40
1.0
 40
1.0
 40
1.0
 10
69.9286
 20
-34.6189
 30
0.0
 10
70.4489
 20
-34.6174
 30
0.0
 10
70.9663
 20
-34.8364
 30
0.0
 10
71.1888
 20
-35.2808
 30
0.0
 10
71.1888
 20
-35.2808
 30
0.0
 10
72.5264
 20
-37.9524
 30
0.0
 10
74.6586
 20
-40.0845
 30
0.0
 10
77.3714
 20
-41.4643
 30
0.0
 10
77.3714
 20
-41.4643
 30
0.0
 10
78.2586
 20
-41.9149
 30
0.0
 10
78.2521
 20
-43.5408
 30
0.0
 10
77.3714
 20
-44.0023
 30
0.0
 10
77.3714
 20
-44.0023
 30
0.0
 10
74.928
 20
-45.2833
 30
0.0
 10
72.725
 20
-47.0897
 30
0.0
 10
71.1888
 20
-50.1858
 30
0.0
 10
71.1888
 20
-50.1858
 30
0.0
 10
70.9675
 20
-50.631
 30
0.0
 10
70.4392
 20
-50.856
 30
0.0
 10
69.9131
 20
-50.8571
 30
0.0
 10
69.9131
 20
-50.8571
 30
0.0
 10
69.9131
 20
-50.8571
 30
0.0
 10
69.9286
 20
-34.6189
 30
0.0
 10
69.9286
 20
-34.6189
 30
0.0
  0
SPLINE
  5
94
330
1F
100
AcDbEntity
  8
layer 1
 62
     7
100
AcDbSpline
210
0.0
220
0.0
230
1.0
 70
    11
 71
     3
 72
    28
 73
    24
 74
     0
 42
0.0000000001
 43
0.0000000001
 12
1.0
 22
0.0
 32
0.0
 13
1.0
 23
0.0
 33
0.0
 40
0.0
 40
0.0
 40
0.0
 40
0.0
 40
0.1428571428571428
 40
0.1428571428571428
 40
0.1428571428571428
 40
0.1428571428571428
 40
0.2857142857142857
 40
0.2857142857142857
 40
0.2857142857142857
 40
0.2857142857142857
 40
0.4285714285714285
 40
0.4285714285714285
 40
0.4285714285714285
 40
0.4285714285714285
 40
0.5714285714285714
 40
0.5714285714285714
 40
0.5714285714285714
 40
0.5714285714285714
 40
0.7142857142857143
 40
0.7142857142857143
 40
0.7142857142857143
 40
0.7142857142857143
 40
1.0
 40
1.0
 40
1.0
 40
1.0
 10
69.9286
 20
-68.1064
 30
0.0
 10
70.4489
 20
-68.1049
 30
0.0
 10
70.9663
 20
-68.3239
 30
0.0
 10
71.1888
 20
-68.7683
 30
0.0
 10
71.1888
 20
-68.7683
 30
0.0
 10
72.5264
 20
-71.4398
 30
0.0
 10
74.6586
 20
-73.572
 30
0.0
 10
77.3714
 20
-74.9518
 30
0.0
 10
77.3714
 20
-74.9518
 30
0.0
 10
78.2586
 20
-75.4024
 30
0.0
 10
78.2521
 20
-77.0283
 30
0.0
 10
77.3714
 20
-77.4898
 30
0.0
 10
77.3714
 20
-77.4898
 30
0.0
 10
74.928
 20
-78.7707
 30
0.0
 10
72.725
 20
-80.5772
 30
0.0
 10
71.1888
 20
-83.6733
 30
0.0
 10
71.1888
 20
-83.6733
 30
0.0
 10
70.9675
 20
-84.1185
 30
0.0
 10
70.4392
 20
-84.3435
 30
0.0
 10
69.9131
 20
-84.3446
 30
0.0
 10
69.9131
 20
-84.3446
 30
0.0
 10
69.9131
 20
-84.3446
 30
0.0
 10
69.9286
 20
-68.1064
 30
0.0
 10
69.9286
 20
-68.1064
 30
0.0
  0
SPLINE
  5
95
330
1F
100
AcDbEntity
  8
layer 1
 62
     7
100
AcDbSpline
210
0.0
220
0.0
230
1.0
 70
    11
 71
     3
 72
    24
 73
    20
 74
     0
 42
0.0000000001
 43
0.0000000001
 12
1.0
 22
0.0
 32
0.0
 13
1.0
 23
0.0
 33
0.0
 40
0.0
 40
0.0
 40
0.0
 40
0.0
 40
0.1666666666666667
 40
0.1666666666666667
 40
0.1666666666666667
 40
0.1666666666666667
 40
0.3333333333333333
 40
0.3333333333333333
 40
0.3333333333333333
 40
0.3333333333333333
 40
0.5
 40
0.5
 40
0.5
 40
0.5
 40
0.6666666666666666
 40
0.6666666666666666
 40
0.6666666666666666
 40
0.6666666666666666
 40
1.0
 40
1.0
 40
1.0
 40
1.0
 10
69.9286
 20
-101.769
 30
0.0
 10
70.4489
 20
-101.7675
 30
0.0
 10
70.9663
 20
-101.9865
 30
0.0
 10
71.1888
 20
-102.4309
 30
0.0
 10
71.1888
 20
-102.4309
 30
0.0
 10
72.5264
 20
-105.1024
 30
0.0
 10
74.6586
 20
-107.2346
 30
0.0
 10
77.3714
 20
-108.6144
 30
0.0
 10
77.3714
 20
-108.6144
 30
0.0
 10
77.815
 20
-108.8397
 30
0.0
 10
78.0352
 20
-109.3589
 30
0.0
 10
78.0344
 20
-109.8794
 30
0.0
 10
78.0344
 20
-109.8794
 30
0.0
 10
78.0344
 20
-109.8794
 30
0.0
 10
69.9209
 20
-109.8681
 30
0.0
 10
69.9209
 20
-109.8681
 30
0.0
 10
69.9209
 20
-109.8681
 30
0.0
 10
69.9209
 20
-109.8681
 30
0.0
 10
69.9286
 20
-101.769
 30
0.0
 10
69.9286
 20
-101.769
 30
0.0
  0
SPLINE
  5
96
330
1F
100
AcDbEntity
  8
layer 1
 62
     7
100
AcDbSpline
210
0.0
220
0.0
230
1.0
 70
    11
 71
     3
 72
    28
 73
    24
 74
     0
 42
0.0000000001
 43
0.0000000001
 12
1.0
 22
0.0
 32
0.0
 13
1.0
 23
0.0
 33
0.0
 40
0.0
 40
0.0
 40
0.0
 40
0.0
 40
0.1428571428571428
 40
0.1428571428571428
 40
0.1428571428571428
 40
0.1428571428571428
 40
0.2857142857142857
 40
0.2857142857142857
 40
0.2857142857142857
 40
0.2857142857142857
 40
0.4285714285714285
 40
0.4285714285714285
 40
0.4285714285714285
 40
0.4285714285714285
 40
0.5714285714285714
 40
0.5714285714285714
 40
0.5714285714285714
 40
0.5714285714285714
 40
0.7142857142857143
 40
0.7142857142857143
 40
0.7142857142857143
 40
0.7142857142857143
 40
1.0
 40
1.0
 40
1.0
 40
1.0
 10
191.0815
 20
100.0355
 30
0.0
 10
190.5612
 20
100.037
 30
0.0
 10
190.0438
 20
99.8179
 30
0.0
 10
189.8213
 20
99.3736
 30
0.0
 10
189.8213
 20
99.3736
 30
0.0
 10
188.4837
 20
96.702
 30
0.0
 10
186.3515
 20
94.5698
 30
0.0
 10
183.6387
 20
93.19
 30
0.0
 10
183.6387
 20
93.19
 30
0.0
 10
182.7515
 20
92.7394
 30
0.0
 10
182.758
 20
91.1136
 30
0.0
 10
183.6387
 20
90.6521
 30
0.0
 10
183.6387
 20
90.6521
 30
0.0
 10
186.0821
 20
89.3711
 30
0.0
 10
188.2851
 20
87.5647
 30
0.0
 10
189.8213
 20
84.4685
 30
0.0
 10
189.8213
 20
84.4685
 30
0.0
 10
190.0426
 20
84.0233
 30
0.0
 10
190.5709
 20
83.7984
 30
0.0
 10
191.097
 20
83.7973
 30
0.0
 10
191.097
 20
83.7973
 30
0.0
 10
191.097
 20
83.7973
 30
0.0
 10
191.0815
 20
100.0355
 30
0.0
 10
191.0815
 20
100.0355
 30
0.0
  0
SPLINE
  5
97
330
1F
100
AcDbEntity
  8
layer 1
 62
     7
100
AcDbSpline
210
0.0
220
0.0
230
1.0
 70
    11
 71
     3
 72
    28
 73
    24
 74
     0
 42
0.0000000001
 43
0.0000000001
 12
1.0
 22
0.0
 32
0.0
 13
1.0
 23
0.0
 33
0.0
 40
0.0
 40
0.0
 40
0.0
 40
0.0
 40
0.1428571428571428
 40
0.1428571428571428
 40
0.1428571428571428
 40
0.1428571428571428
 40
0.2857142857142857
 40
0.2857142857142857
 40
0.2857142857142857
 40
0.2857142857142857
 40
0.4285714285714285
 40
0.4285714285714285
 40
0.4285714285714285
 40
0.4285714285714285
 40
0.5714285714285714
 40
0.5714285714285714
 40
0.5714285714285714
 40
0.5714285714285714
 40
0.7142857142857143
 40
0.7142857142857143
 40
0.7142857142857143
 40
0.7142857142857143
 40
1.0
 40
1.0
 40
1.0
 40
1.0
 10
191.0815
 20
66.3525
 30
0.0
 10
190.5612
 20
66.354
 30
0.0
 10
190.0438
 20
66.135
 30
0.0
 10
189.8213
 20
65.6907
 30
0.0
 10
189.8213
 20
65.6907
 30
0.0
 10
188.4837
 20
63.0191
 30
0.0
 10
186.3515
 20
60.8869
 30
0.0
 10
183.6387
 20
59.5071
 30
0.0
 10
183.6387
 20
59.5071
 30
0.0
 10
182.7515
 20
59.0565
 30
0.0
 10
182.758
 20
57.4306
 30
0.0
 10
183.6387
 20
56.9691
 30
0.0
 10
183.6387
 20
56.9691
 30
0.0
 10
186.0821
 20
55.6882
 30
0.0
 10
188.2851
 20
53.8817
 30
0.0
 10
189.8213
 20
50.7856
 30
0.0
 10
189.8213
 20
50.7856
 30
0.0
 10
190.0426
 20
50.3404
 30
0.0
 10
190.5709
 20
50.1154
 30
0.0
 10
191.097
 20
50.1143
 30
0.0
 10
191.097
 20
50.1143
 30
0.0
 10
191.097
 20
50.1143
 30
0.0
 10
191.0815
 20
66.3525
 30
0.0
 10
191.0815
 20
66.3525
 30
0.0
  0
SPLINE
  5
98
330
1F
100
AcDbEntity
  8
layer 1
 62
     7
100
AcDbSpline
210
0.0
220
0.0
230
1.0
 70
    11
 71
     3
 72
    28
 73
    24
 74
     0
 42
0.0000000001
 43
0.0000000001
 12
1.0
 22
0.0
 32
0.0
 13
1.0
 23
0.0
 33
0.0
 40
0.0
 40
0.0
 40
0.0
 40
0.0
 40
0.1428571428571428
 40
0.1428571428571428
 40
0.1428571428571428
 40
0.1428571428571428
 40
0.2857142857142857
 40
0.2857142857142857
 40
0.2857142857142857
 40
0.2857142857142857
 40
0.4285714285714285
 40
0.4285714285714285
 40
0.4285714285714285
 40
0.4285714285714285
 40
0.5714285714285714
 40
0.5714285714285714
 40
0.5714285714285714
 40
0.5714285714285714
 40
0.7142857142857143
 40
0.7142857142857143
 40
0.7142857142857143
 40
0.7142857142857143
 40
1.0
 40
1.0
 40
1.0
 40
1.0
 10
191.0815
 20
32.9075
 30
0.0
 10
190.5612
 20
32.909
 30
0.0
 10
190.0438
 20
32.6899
 30
0.0
 10
189.8213
 20
32.2456
 30
0.0
 10
189.8213
 20
32.2456
 30
0.0
 10
188.4837
 20
29.574
 30
0.0
 10
186.3515
 20
27.4418
 30
0.0
 10
183.6387
 20
26.062
 30
0.0
 10
183.6387
 20
26.062
 30
0.0
 10
182.7515
 20
25.6114
 30
0.0
 10
182.758
 20
23.9856
 30
0.0
 10
183.6387
 20
23.5241
 30
0.0
 10
183.6387
 20
23.5241
 30
0.0
 10
186.0821
 20
22.2431
 30
0.0
 10
188.2851
 20
20.4367
 30
0.0
 10
189.8213
 20
17.3405
 30
0.0
 10
189.8213
 20
17.3405
 30
0.0
 10
190.0426
 20
16.8953
 30
0.0
 10
190.5709
 20
16.6704
 30
0.0
 10
191.097
 20
16.6693
 30
0.0
 10
191.097
 20
16.6693
 30
0.0
 10
191.097
 20
16.6693
 30
0.0
 10
191.0815
 20
32.9075
 30
0.0
 10
191.0815
 20
32.9075
 30
0.0
  0
SPLINE
  5
99
330
1F
100
AcDbEntity
  8
layer 1
 62
     7
100
AcDbSpline
210
0.0
220
0.0
230
1.0
 70
    11
 71
     3
 72
    28
 73
    24
 74
     0
 42
0.0000000001
 43
0.0000000001
 12
1.0
 22
0.0
 32
0.0
 13
1.0
 23
0.0
 33
0.0
 40
0.0
 40
0.0
 40
0.0
 40
0.0
 40
0.1428571428571428
 40
0.1428571428571428
 40
0.1428571428571428
 40
0.1428571428571428
 40
0.2857142857142857
 40
0.2857142857142857
 40
0.2857142857142857
 40
0.2857142857142857
 40
0.4285714285714285
 40
0.4285714285714285
 40
0.4285714285714285
 40
0.4285714285714285
 40
0.5714285714285714
 40
0.5714285714285714
 40
0.5714285714285714
 40
0.5714285714285714
 40
0.7142857142857143
 40
0.7142857142857143
 40
0.7142857142857143
 40
0.7142857142857143
 40
1.0
 40
1.0
 40
1.0
 40
1.0
 10
191.0815
 20
-0.7755
 30
0.0
 10
190.5612
 20
-0.774
 30
0.0
 10
190.0438
 20
-0.993
 30
0.0
 10
189.8213
 20
-1.4373
 30
0.0
 10
189.8213
 20
-1.4373
 30
0.0
 10
188.4837
 20
-4.1089
 30
0.0
 10
186.3515
 20
-6.2411
 30
0.0
 10
183.6387
 20
-7.6209
 30
0.0
 10
183.6387
 20
-7.6209
 30
0.0
 10
182.7515
 20
-8.0715
 30
0.0
 10
182.758
 20
-9.6974
 30
0.0
 10
183.6387
 20
-10.1589
 30
0.0
 10
183.6387
 20
-10.1589
 30
0.0
 10
186.0821
 20
-11.4398
 30
0.0
 10
188.2851
 20
-13.2463
 30
0.0
 10
189.8213
 20
-16.3424
 30
0.0
 10
189.8213
 20
-16.3424
 30
0.0
 10
190.0426
 20
-16.7876
 30
0.0
 10
190.5709
 20
-17.0126
 30
0.0
 10
191.097
 20
-17.0137
 30
0.0
 10
191.097
 20
-17.0137
 30
0.0
 10
191.097
 20
-17.0137
 30
0.0
 10
191.0815
 20
-0.7755
 30
0.0
 10
191.0815
 20
-0.7755
 30
0.0
  0
SPLINE
  5
9A
330
1F
100
AcDbEntity
  8
layer 1
 62
     7
100
AcDbSpline
210
0.0
220
0.0
230
1.0
 70
    11
 71
     3
 72
    28
 73
    24
 74
     0
 42
0.0000000001
 43
0.0000000001
 12
1.0
 22
0.0
 32
0.0
 13
1.0
 23
0.0
 33
0.0
 40
0.0
 40
0.0
 40
0.0
 40
0.0
 40
0.1428571428571428
 40
0.1428571428571428
 40
0.1428571428571428
 40
0.1428571428571428
 40
0.2857142857142857
 40
0.2857142857142857
 40
0.2857142857142857
 40
0.2857142857142857
 40
0.4285714285714285
 40
0.4285714285714285
 40
0.4285714285714285
 40
0.4285714285714285
 40
0.5714285714285714
 40
0.5714285714285714
 40
0.5714285714285714
 40
0.5714285714285714
 40
0.7142857142857143
 40
0.7142857142857143
 40
0.7142857142857143
 40
0.7142857142857143
 40
1.0
 40
1.0
 40
1.0
 40
1.0
 10
191.0815
 20
-34.6189
 30
0.0
 10
190.5612
 20
-34.6174
 30
0.0
 10
190.0438
 20
-34.8364
 30
0.0
 10
189.8213
 20
-35.2808
 30
0.0
 10
189.8213
 20
-35.2808
 30
0.0
 10
188.4837
 20
-37.9524
 30
0.0
 10
186.3515
 20
-40.0845
 30
0.0
 10
183.6387
 20
-41.4643
 30
0.0
 10
183.6387
 20
-41.4643
 30
0.0
 10
182.7515
 20
-41.9149
 30
0.0
 10
182.758
 20
-43.5408
 30
0.0
 10
183.6387
 20
-44.0023
 30
0.0
 10
183.6387
 20
-44.0023
 30
0.0
 10
186.0821
 20
-45.2833
 30
0.0
 10
188.2851
 20
-47.0897
 30
0.0
 10
189.8213
 20
-50.1858
 30
0.0
 10
189.8213
 20
-50.1858
 30
0.0
 10
190.0426
 20
-50.631
 30
0.0
 10
190.5709
 20
-50.856
 30
0.0
 10
191.097
 20
-50.8571
 30
0.0
 10
191.097
 20
-50.8571
 30
0.0
 10
191.097
 20
-50.8571
 30
0.0
 10
191.0815
 20
-34.6189
 30
0.0
 10
191.0815
 20
-34.6189
 30
0.0
  0
SPLINE
  5
9B
330
1F
100
AcDbEntity
  8
layer 1
 62
     7
100
AcDbSpline
210
0.0
220
0.0
230
1.0
 70
    11
 71
     3
 72
    28
 73
    24
 74
     0
 42
0.0000000001
 43
0.0000000001
 12
1.0
 22
0.0
 32
0.0
 13
1.0
 23
0.0
 33
0.0
 40
0.0
 40
0.0
 40
0.0
 40
0.0
 40
0.1428571428571428
 40
0.1428571428571428
 40
0.1428571428571428
 40
0.1428571428571428
 40
0.2857142857142857
 40
0.2857142857142857
 40
0.2857142857142857
 40
0.2857142857142857
 40
0.4285714285714285
 40
0.4285714285714285
 40
0.4285714285714285
 40
0.4285714285714285
 40
0.5714285714285714
 40
0.5714285714285714
 40
0.5714285714285714
 40
0.5714285714285714
 40
0.7142857142857143
 40
0.7142857142857143
 40
0.7142857142857143
 40
0.7142857142857143
 40
1.0
 40
1.0
 40
1.0
 40
1.0
 10
191.0815
 20
-68.1064
 30
0.0
 10
190.5612
 20
-68.1049
 30
0.0
 10
190.0438
 20
-68.3239
 30
0.0
 10
189.8213
 20
-68.7683
 30
0.0
 10
189.8213
 20
-68.7683
 30
0.0
 10
188.4837
 20
-71.4398
 30
0.0
 10
186.3515
 20
-73.572
 30
0.0
 10
183.6387
 20
-74.9518
 30
0.0
 10
183.6387
 20
-74.9518
 30
0.0
 10
182.7515
 20
-75.4024
 30
0.0
 10
182.758
 20
-77.0283
 30
0.0
 10
183.6387
 20
-77.4898
 30
0.0
 10
183.6387
 20
-77.4898
 30
0.0
 10
186.0821
 20
-78.7707
 30
0.0
 10
188.2851
 20
-80.5772
 30
0.0
 10
189.8213
 20
-83.6733
 30
0.0
 10
189.8213
 20
-83.6733
 30
0.0
 10
190.0426
 20
-84.1185
 30
0.0
 10
190.5709
 20
-84.3435
 30
0.0
 10
191.097
 20
-84.3446
 30
0.0
 10
191.097
 20
-84.3446
 30
0.0
 10
191.097
 20
-84.3446
 30
0.0
 10
191.0815
 20
-68.1064
 30
0.0
 10
191.0815
 20
-68.1064
 30
0.0
  0
SPLINE
  5
9C
330
1F
100
AcDbEntity
  8
layer 1
 62
     7
100
AcDbSpline
210
0.0
220
0.0
230
1.0
 70
    11
 71
     3
 72
    24
 73
    20
 74
     0
 42
0.0000000001
 43
0.0000000001
 12
1.0
 22
0.0
 32
0.0
 13
1.0
 23
0.0
 33
0.0
 40
0.0
 40
0.0
 40
0.0
 40
0.0
 40
0.1666666666666667
 40
0.1666666666666667
 40
0.1666666666666667
 40
0.1666666666666667
 40
0.3333333333333333
 40
0.3333333333333333
 40
0.3333333333333333
 40
0.3333333333333333
 40
0.5
 40
0.5
 40
0.5
 40
0.5
 40
0.6666666666666666
 40
0.6666666666666666
 40
0.6666666666666666
 40
0.6666666666666666
 40
1.0
 40
1.0
 40
1.0
 40
1.0
 10
191.0815
 20
-101.769
 30
0.0
 10
190.5612
 20
-101.7675
 30
0.0
 10
190.0438
 20
-101.9865
 30
0.0
 10
189.8213
 20
-102.4309
 30
0.0
 10
189.8213
 20
-102.4309
 30
0.0
 10
188.4837
 20
-105.1024
 30
0.0
 10
186.3515
 20
-107.2346
 30
0.0
 10
183.6387
 20
-108.6144
 30
0.0
 10
183.6387
 20
-108.6144
 30
0.0
 10
183.1951
 20
-108.8397
 30
0.0
 10
182.9749
 20
-109.3589
 30
0.0
 10
182.9757
 20
-109.8794
 30
0.0
 10
182.9757
 20
-109.8794
 30
0.0
 10
182.9757
 20
-109.8794
 30
0.0
 10
191.0893
 20
-109.9218
 30
0.0
 10
191.0893
 20
-109.9218
 30
0.0
 10
191.0893
 20
-109.9218
 30
0.0
 10
191.0893
 20
-109.9218
 30
0.0
 10
191.0815
 20
-101.769
 30
0.0
 10
191.0815
 20
-101.769
 30
0.0
  0
SPLINE
  5
9D
330
1F
100
AcDbEntity
  8
layer 1
 62
     7
100
AcDbSpline
210
0.0
220
0.0
230
1.0
 70
    11
 71
     3
 72
    28
 73
    24
 74
     0
 42
0.0000000001
 43
0.0000000001
 12
1.0
 22
0.0
 32
0.0
 13
1.0
 23
0.0
 33
0.0
 40
0.0
 40
0.0
 40
0.0
 40
0.0
 40
0.1428571428571428
 40
0.1428571428571428
 40
0.1428571428571428
 40
0.1428571428571428
 40
0.2857142857142857
 40
0.2857142857142857
 40
0.2857142857142857
 40
0.2857142857142857
 40
0.4285714285714285
 40
0.4285714285714285
 40
0.4285714285714285
 40
0.4285714285714285
 40
0.5714285714285714
 40
0.5714285714285714
 40
0.5714285714285714
 40
0.5714285714285714
 40
0.7142857142857143
 40
0.7142857142857143
 40
0.7142857142857143
 40
0.7142857142857143
 40
1.0
 40
1.0
 40
1.0
 40
1.0
 10
122.6295
 20
124.505
 30
0.0
 10
125.1933
 20
122.9465
 30
0.0
 10
127.3757
 20
121.0067
 30
0.0
 10
128.813
 20
118.3215
 30
0.0
 10
128.813
 20
118.3215
 30
0.0
 10
129.2825
 20
117.4451
 30
0.0
 10
130.9067
 20
117.4328
 30
0.0
 10
131.3518
 20
118.3215
 30
0.0
 10
131.3518
 20
118.3215
 30
0.0
 10
132.6894
 20
120.9931
 30
0.0
 10
134.8216
 20
123.1252
 30
0.0
 10
137.5345
 20
124.505
 30
0.0
 10
137.5345
 20
124.505
 30
0.0
 10
137.978
 20
124.7303
 30
0.0
 10
138.1982
 20
125.2495
 30
0.0
 10
138.1974
 20
125.77
 30
0.0
 10
138.1974
 20
125.77
 30
0.0
 10
138.1974
 20
125.77
 30
0.0
 10
121.9946
 20
125.7707
 30
0.0
 10
121.9946
 20
125.7707
 30
0.0
 10
121.9946
 20
125.7707
 30
0.0
 10
121.9939
 20
125.2663
 30
0.0
 10
122.2049
 20
124.7631
 30
0.0
 10
122.6295
 20
124.505
 30
0.0
  0
SPLINE
  5
9E
330
1F
100
AcDbEntity
  8
layer 1
 62
     7
100
AcDbSpline
210
0.0
220
0.0
230
1.0
 70
    11
 71
     3
 72
    24
 73
    20
 74
     0
 42
0.0000000001
 43
0.0000000001
 12
1.0
 22
0.0
 32
0.0
 13
1.0
 23
0.0
 33
0.0
 40
0.0
 40
0.0
 40
0.0
 40
0.0
 40
0.1666666666666667
 40
0.1666666666666667
 40
0.1666666666666667
 40
0.1666666666666667
 40
0.3333333333333333
 40
0.3333333333333333
 40
0.3333333333333333
 40
0.3333333333333333
 40
0.5
 40
0.5
 40
0.5
 40
0.5
 40
0.6666666666666666
 40
0.6666666666666666
 40
0.6666666666666666
 40
0.6666666666666666
 40
1.0
 40
1.0
 40
1.0
 40
1.0
 10
69.9286
 20
117.5912
 30
0.0
 10
70.4489
 20
117.5897
 30
0.0
 10
70.9663
 20
117.8087
 30
0.0
 10
71.1888
 20
118.2531
 30
0.0
 10
71.1888
 20
118.2531
 30
0.0
 10
72.5264
 20
120.9247
 30
0.0
 10
74.6586
 20
123.0568
 30
0.0
 10
77.3714
 20
124.4366
 30
0.0
 10
77.3714
 20
124.4366
 30
0.0
 10
77.815
 20
124.6619
 30
0.0
 10
78.0352
 20
125.1811
 30
0.0
 10
78.0344
 20
125.7016
 30
0.0
 10
78.0344
 20
125.7016
 30
0.0
 10
78.0344
 20
125.7016
 30
0.0
 10
69.9209
 20
125.6904
 30
0.0
 10
69.9209
 20
125.6904
 30
0.0
 10
69.9209
 20
125.6904
 30
0.0
 10
69.9209
 20
125.6904
 30
0.0
 10
69.9286
 20
117.5912
 30
0.0
 10
69.9286
 20
117.5912
 30
0.0
  0
SPLINE
  5
9F
330
1F
100
AcDbEntity
  8
layer 1
 62
     7
100
AcDbSpline
210
0.0
220
0.0
230
1.0
 70
    11
 71
     3
 72
    24
 73
    20
 74
     0
 42
0.0000000001
 43
0.0000000001
 12
1.0
 22
0.0
 32
0.0
 13
1.0
 23
0.0
 33
0.0
 40
0.0
 40
0.0
 40
0.0
 40
0.0
 40
0.1666666666666667
 40
0.1666666666666667
 40
0.1666666666666667
 40
0.1666666666666667
 40
0.3333333333333333
 40
0.3333333333333333
 40
0.3333333333333333
 40
0.3333333333333333
 40
0.5
 40
0.5
 40
0.5
 40
0.5
 40
0.6666666666666666
 40
0.6666666666666666
 40
0.6666666666666666
 40
0.6666666666666666
 40
1.0
 40
1.0
 40
1.0
 40
1.0
 10
191.0815
 20
117.5912
 30
0.0
 10
190.5612
 20
117.5897
 30
0.0
 10
190.0438
 20
117.8087
 30
0.0
 10
189.8213
 20
118.2531
 30
0.0
 10
189.8213
 20
118.2531
 30
0.0
 10
188.4837
 20
120.9247
 30
0.0
 10
186.3515
 20
123.0568
 30
0.0
 10
183.6387
 20
124.4366
 30
0.0
 10
183.6387
 20
124.4366
 30
0.0
 10
183.1951
 20
124.6619
 30
0.0
 10
182.9749
 20
125.1811
 30
0.0
 10
182.9757
 20
125.7016
 30
0.0
 10
182.9757
 20
125.7016
 30
0.0
 10
182.9757
 20
125.7016
 30
0.0
 10
191.0893
 20
125.744
 30
0.0
 10
191.0893
 20
125.744
 30
0.0
 10
191.0893
 20
125.744
 30
0.0
 10
191.0893
 20
125.744
 30
0.0
 10
191.0815
 20
117.5912
 30
0.0
 10
191.0815
 20
117.5912
 30
0.0
  0
ENDSEC
  0
SECTION
  2
OBJECTS
  0
DICTIONARY
  5
C
330
0
100
AcDbDictionary
281
     1
  3
ACAD_GROUP
350
D
  3
ACAD_LAYOUT
350
1A
  3
ACAD_MATERIAL
350
3B
  3
ACAD_MLEADERSTYLE
350
C2
  3
ACAD_MLINESTYLE
350
17
  3
ACAD_PLOTSETTINGS
350
19
  3
ACAD_PLOTSTYLENAME
350
E
  3
ACAD_TABLESTYLE
350
C1
  3
ACAD_VISUALSTYLE
350
2A
  0
DICTIONARY
  5
D
102
{ACAD_REACTORS
330
C
102
}
330
C
100
AcDbDictionary
281
     1
  0
DICTIONARY
  5
1A
102
{ACAD_REACTORS
330
C
102
}
330
C
100
AcDbDictionary
281
     1
  3
Layout1
350
1E
  3
Layout2
350
26
  3
Model
350
22
  0
DICTIONARY
  5
3B
102
{ACAD_REACTORS
330
C
102
}
330
C
100
AcDbDictionary
281
     1
  3
ByBlock
350
3D
  3
ByLayer
350
3C
  3
Global
350
3E
  0
DICTIONARY
  5
C2
102
{ACAD_REACTORS
330
C
102
}
330
C
100
AcDbDictionary
281
     1
  0
DICTIONARY
  5
17
102
{ACAD_REACTORS
330
C
102
}
330
C
100
AcDbDictionary
281
     1
  3
Standard
350
18
  0
DICTIONARY
  5
19
102
{ACAD_REACTORS
330
C
102
}
330
C
100
AcDbDictionary
281
     1
  0
ACDBDICTIONARYWDFLT
  5
E
102
{ACAD_REACTORS
330
C
102
}
330
C
100
AcDbDictionary
281
     1
  3
Normal
350
F
100
AcDbDictionaryWithDefault
340
F
  0
DICTIONARY
  5
C1
102
{ACAD_REACTORS
330
C
102
}
330
C
100
AcDbDictionary
281
     1
  0
DICTIONARY
  5
2A
102
{ACAD_REACTORS
330
C
102
}
330
C
100
AcDbDictionary
281
     1
  3
2dWireframe
350
2F
  3
3D Hidden
350
31
  3
3dWireframe
350
30
  3
Basic
350
32
  3
Brighten
350
36
  3
ColorChange
350
3A
  3
Conceptual
350
34
  3
Dim
350
35
  3
Facepattern
350
39
  3
Flat
350
2B
  3
FlatWithEdges
350
2C
  3
Gouraud
350
2D
  3
GouraudWithEdges
350
2E
  3
Linepattern
350
38
  3
Realistic
350
33
  3
Thicken
350
37
  0
LAYOUT
  5
1E
102
{ACAD_REACTORS
330
1A
102
}
330
1A
100
AcDbPlotSettings
  1

  2
none_device
  4

  6

 40
0.0
 41
0.0
 42
0.0
 43
0.0
 44
0.0
 45
0.0
 46
0.0
 47
0.0
 48
0.0
 49
0.0
140
0.0
141
0.0
142
1.0
143
1.0
 70
   688
 72
     0
 73
     0
 74
     5
  7

 75
    16
 76
     0
 77
     2
 78
   300
147
1.0
148
0.0
149
0.0
100
AcDbLayout
  1
Layout1
 70
     1
 71
     1
 10
0.0
 20
0.0
 11
12.0
 21
9.0
 12
0.0
 22
0.0
 32
0.0
 14
1.000000000000000E+20
 24
1.000000000000000E+20
 34
1.000000000000000E+20
 15
-1.000000000000000E+20
 25
-1.000000000000000E+20
 35
-1.000000000000000E+20
146
0.0
 13
0.0
 23
0.0
 33
0.0
 16
1.0
 26
0.0
 36
0.0
 17
0.0
 27
1.0
 37
0.0
 76
     0
330
1B
  0
LAYOUT
  5
26
102
{ACAD_REACTORS
330
1A
102
}
330
1A
100
AcDbPlotSettings
  1

  2
none_device
  4

  6

 40
0.0
 41
0.0
 42
0.0
 43
0.0
 44
0.0
 45
0.0
 46
0.0
 47
0.0
 48
0.0
 49
0.0
140
0.0
141
0.0
142
1.0
143
1.0
 70
   688
 72
     0
 73
     0
 74
     5
  7

 75
    16
 76
     0
 77
     2
 78
   300
147
1.0
148
0.0
149
0.0
100
AcDbLayout
  1
Layout2
 70
     1
 71
     2
 10
0.0
 20
0.0
 11
0.0
 21
0.0
 12
0.0
 22
0.0
 32
0.0
 14
0.0
 24
0.0
 34
0.0
 15
0.0
 25
0.0
 35
0.0
146
0.0
 13
0.0
 23
0.0
 33
0.0
 16
1.0
 26
0.0
 36
0.0
 17
0.0
 27
1.0
 37
0.0
 76
     0
330
23
  0
LAYOUT
  5
22
102
{ACAD_REACTORS
330
1A
102
}
330
1A
100
AcDbPlotSettings
  1

  2
none_device
  4

  6

 40
0.0
 41
0.0
 42
0.0
 43
0.0
 44
0.0
 45
0.0
 46
0.0
 47
0.0
 48
0.0
 49
0.0
140
0.0
141
0.0
142
1.0
143
1.0
 70
  1712
 72
     0
 73
     0
 74
     0
  7

 75
     0
 76
     0
 77
     2
 78
   300
147
1.0
148
0.0
149
0.0
100
AcDbLayout
  1
Model
 70
     1
 71
     0
 10
0.0
 20
0.0
 11
12.0
 21
9.0
 12
0.0
 22
0.0
 32
0.0
 14
65.5188
 24
-115.0693
 34
0.0
 15
196.3397
 25
132.4969
 35
0.0
146
0.0
 13
0.0
 23
0.0
 33
0.0
 16
1.0
 26
0.0
 36
0.0
 17
0.0
 27
1.0
 37
0.0
 76
     0
330
1F
331
29
  0
MATERIAL
  5
3D
102
{ACAD_REACTORS
330
3B
102
}
330
3B
100
AcDbMaterial
  1
ByBlock
 72
     1
 94
      127
  0
MATERIAL
  5
3C
102
{ACAD_REACTORS
330
3B
102
}
330
3B
100
AcDbMaterial
  1
ByLayer
 72
     1
 94
      127
  0
MATERIAL
  5
3E
102
{ACAD_REACTORS
330
3B
102
}
330
3B
100
AcDbMaterial
  1
Global
 72
     1
 94
      127
  0
MLINESTYLE
  5
18
102
{ACAD_REACTORS
330
17
102
}
330
17
100
AcDbMlineStyle
  2
Standard
 70
     0
  3

 62
   256
 51
90.0
 52
90.0
 71
     2
 49
0.5
 62
   256
  6
BYLAYER
 49
-0.5
 62
   256
  6
BYLAYER
  0
ACDBPLACEHOLDER
  5
F
102
{ACAD_REACTORS
330
E
102
}
330
E
  0
VISUALSTYLE
  5
2F
102
{ACAD_REACTORS
330
2A
102
}
102
{ACAD_XDICTIONARY
360
A9
102
}
330
2A
100
AcDbVisualStyle
  2
2dWireframe
 70
     4
 71
     0
 72
     2
 73
     0
 90
        0
 40
-0.6
 41
-30.0
 62
     5
 63
     7
421
 16777215
 74
     1
 91
        4
 64
     7
 65
   257
 75
     1
175
     1
 42
1.0
 92
        0
 66
   257
 43
1.0
 76
     1
 77
     6
 78
     2
 67
     7
 79
     5
170
     0
171
     0
290
     0
174
     0
 93
        1
 44
0.0
173
     0
291
     0
 45
0.0
  0
VISUALSTYLE
  5
31
102
{ACAD_REACTORS
330
2A
102
}
102
{ACAD_XDICTIONARY
360
AD
102
}
330
2A
100
AcDbVisualStyle
  2
3D Hidden
 70
     6
 71
     1
 72
     2
 73
     2
 90
        0
 40
-0.6
 41
-30.0
 62
     5
 63
     7
421
 16777215
 74
     2
 91
        2
 64
     7
 65
   257
 75
     2
175
     1
 42
40.0
 92
        0
 66
   257
 43
1.0
 76
     1
 77
     6
 78
     2
 67
     7
 79
     3
170
     0
171
     0
290
     0
174
     0
 93
        1
 44
0.0
173
     0
291
     0
 45
0.0
  0
VISUALSTYLE
  5
30
102
{ACAD_REACTORS
330
2A
102
}
102
{ACAD_XDICTIONARY
360
AB
102
}
330
2A
100
AcDbVisualStyle
  2
3dWireframe
 70
     5
 71
     0
 72
     2
 73
     0
 90
        0
 40
-0.6
 41
-30.0
 62
     5
 63
     7
421
 16777215
 74
     1
 91
        4
 64
     7
 65
   257
 75
     1
175
     1
 42
1.0
 92
        0
 66
   257
 43
1.0
 76
     1
 77
     6
 78
     2
 67
     7
 79
     5
170
     0
171
     0
290
     0
174
     0
 93
        1
 44
0.0
173
     0
291
     0
 45
0.0
  0
VISUALSTYLE
  5
32
102
{ACAD_REACTORS
330
2A
102
}
102
{ACAD_XDICTIONARY
360
AF
102
}
330
2A
100
AcDbVisualStyle
  2
Basic
 70
     7
 71
     1
 72
     0
 73
     1
 90
        0
 40
-0.6
 41
-30.0
 62
     5
 63
     7
421
 16777215
 74
     0
 91
        4
 64
     7
 65
   257
 75
     1
175
     1
 42
1.0
 92
        8
 66
     7
 43
1.0
 76
     1
 77
     6
 78
     2
 67
     7
 79
     5
170
     0
171
     0
290
     0
174
     0
 93
        1
 44
0.0
173
     0
291
     1
 45
0.0
  0
VISUALSTYLE
  5
36
102
{ACAD_REACTORS
330
2A
102
}
102
{ACAD_XDICTIONARY
360
B7
102
}
330
2A
100
AcDbVisualStyle
  2
Brighten
 70
    12
 71
     2
 72
     2
 73
     0
 90
        0
 40
-0.6
 41
-30.0
 62
     5
 63
     7
421
 16777215
 74
     1
 91
        4
 64
     7
 65
   257
 75
     1
175
     1
 42
1.0
 92
        8
 66
     7
 43
1.0
 76
     1
 77
     6
 78
     2
 67
     7
 79
     5
170
     0
171
     0
290
     0
174
     0
 93
        1
 44
50.0
173
     0
291
     1
 45
0.0
  0
VISUALSTYLE
  5
3A
102
{ACAD_REACTORS
330
2A
102
}
102
{ACAD_XDICTIONARY
360
BF
102
}
330
2A
100
AcDbVisualStyle
  2
ColorChange
 70
    16
 71
     2
 72
     2
 73
     3
 90
        0
 40
-0.6
 41
-30.0
 62
     5
 63
     8
421
  8421504
 74
     1
 91
        4
 64
     7
 65
   257
 75
     1
175
     1
 42
1.0
 92
        8
 66
     8
424
  8421504
 43
1.0
 76
     1
 77
     6
 78
     2
 67
     7
 79
     5
170
     0
171
     0
290
     0
174
     0
 93
        1
 44
0.0
173
     0
291
     1
 45
0.0
  0
VISUALSTYLE
  5
34
102
{ACAD_REACTORS
330
2A
102
}
102
{ACAD_XDICTIONARY
360
B3
102
}
330
2A
100
AcDbVisualStyle
  2
Conceptual
 70
     9
 71
     3
 72
     2
 73
     0
 90
        0
 40
-0.6
 41
-30.0
 62
     5
 63
     7
421
 16777215
 74
     2
 91
        2
 64
     7
 65
   257
 75
     1
175
     1
 42
40.0
 92
        8
 66
     7
 43
1.0
 76
     1
 77
     6
 78
     2
 67
     7
 79
     3
170
     0
171
     0
290
     0
174
     0
 93
        1
 44
0.0
173
     0
291
     0
 45
0.0
  0
VISUALSTYLE
  5
35
102
{ACAD_REACTORS
330
2A
102
}
102
{ACAD_XDICTIONARY
360
B5
102
}
330
2A
100
AcDbVisualStyle
  2
Dim
 70
    11
 71
     2
 72
     2
 73
     0
 90
        0
 40
-0.6
 41
-30.0
 62
     5
 63
     7
421
 16777215
 74
     1
 91
        4
 64
     7
 65
   257
 75
     1
175
     1
 42
1.0
 92
        8
 66
     7
 43
1.0
 76
     1
 77
     6
 78
     2
 67
     7
 79
     5
170
     0
171
     0
290
     0
174
     0
 93
        1
 44
-50.0
173
     0
291
     1
 45
0.0
  0
VISUALSTYLE
  5
39
102
{ACAD_REACTORS
330
2A
102
}
102
{ACAD_XDICTIONARY
360
BD
102
}
330
2A
100
AcDbVisualStyle
  2
Facepattern
 70
    15
 71
     2
 72
     2
 73
     0
 90
        0
 40
-0.6
 41
-30.0
 62
     5
 63
     7
421
 16777215
 74
     1
 91
        4
 64
     7
 65
   257
 75
     1
175
     1
 42
1.0
 92
        8
 66
     7
 43
1.0
 76
     1
 77
     6
 78
     2
 67
     7
 79
     5
170
     0
171
     0
290
     0
174
     0
 93
        1
 44
0.0
173
     0
291
     1
 45
0.0
  0
VISUALSTYLE
  5
2B
102
{ACAD_REACTORS
330
2A
102
}
102
{ACAD_XDICTIONARY
360
A1
102
}
330
2A
100
AcDbVisualStyle
  2
Flat
 70
     0
 71
     2
 72
     1
 73
     1
 90
        2
 40
-0.6
 41
30.0
 62
     5
 63
     7
421
 16777215
 74
     0
 91
        4
 64
     7
 65
   257
 75
     1
175
     1
 42
1.0
 92
        8
 66
     7
 43
1.0
 76
     1
 77
     6
 78
     2
 67
     7
 79
     5
170
     0
171
     0
290
     0
174
     0
 93
       13
 44
0.0
173
     0
291
     1
 45
0.0
  0
VISUALSTYLE
  5
2C
102
{ACAD_REACTORS
330
2A
102
}
102
{ACAD_XDICTIONARY
360
A3
102
}
330
2A
100
AcDbVisualStyle
  2
FlatWithEdges
 70
     1
 71
     2
 72
     1
 73
     1
 90
        2
 40
-0.6
 41
30.0
 62
     5
 63
     7
421
 16777215
 74
     1
 91
        4
 64
     7
 65
   257
 75
     1
175
     1
 42
1.0
 92
        0
 66
   257
 43
1.0
 76
     1
 77
     6
 78
     2
 67
     7
 79
     5
170
     0
171
     0
290
     0
174
     0
 93
       13
 44
0.0
173
     0
291
     1
 45
0.0
  0
VISUALSTYLE
  5
2D
102
{ACAD_REACTORS
330
2A
102
}
102
{ACAD_XDICTIONARY
360
A5
102
}
330
2A
100
AcDbVisualStyle
  2
Gouraud
 70
     2
 71
     2
 72
     2
 73
     1
 90
        2
 40
-0.6
 41
30.0
 62
     5
 63
     7
421
 16777215
 74
     0
 91
        4
 64
     7
 65
   257
 75
     1
175
     1
 42
1.0
 92
        0
 66
     7
 43
1.0
 76
     1
 77
     6
 78
     2
 67
     7
 79
     5
170
     0
171
     0
290
     0
174
     0
 93
       13
 44
0.0
173
     0
291
     1
 45
0.0
  0
VISUALSTYLE
  5
2E
102
{ACAD_REACTORS
330
2A
102
}
102
{ACAD_XDICTIONARY
360
A7
102
}
330
2A
100
AcDbVisualStyle
  2
GouraudWithEdges
 70
     3
 71
     2
 72
     2
 73
     1
 90
        2
 40
-0.6
 41
30.0
 62
     5
 63
     7
421
 16777215
 74
     1
 91
        4
 64
     7
 65
   257
 75
     1
175
     1
 42
1.0
 92
        0
 66
   257
 43
1.0
 76
     1
 77
     6
 78
     2
 67
     7
 79
     5
170
     0
171
     0
290
     0
174
     0
 93
       13
 44
0.0
173
     0
291
     1
 45
0.0
  0
VISUALSTYLE
  5
38
102
{ACAD_REACTORS
330
2A
102
}
102
{ACAD_XDICTIONARY
360
BB
102
}
330
2A
100
AcDbVisualStyle
  2
Linepattern
 70
    14
 71
     2
 72
     2
 73
     0
 90
        0
 40
-0.6
 41
-30.0
 62
     5
 63
     7
421
 16777215
 74
     1
 91
        4
 64
     7
 65
   257
 75
     7
175
     7
 42
1.0
 92
        8
 66
     7
 43
1.0
 76
     1
 77
     6
 78
     2
 67
     7
 79
     5
170
     0
171
     0
290
     0
174
     0
 93
        1
 44
0.0
173
     0
291
     1
 45
0.0
  0
VISUALSTYLE
  5
33
102
{ACAD_REACTORS
330
2A
102
}
102
{ACAD_XDICTIONARY
360
B1
102
}
330
2A
100
AcDbVisualStyle
  2
Realistic
 70
     8
 71
     2
 72
     2
 73
     0
 90
        0
 40
-0.6
 41
-30.0
 62
     5
 63
     7
421
 16777215
 74
     1
 91
        0
 64
     7
 65
   257
 75
     1
175
     1
 42
1.0
 92
        8
 66
     8
424
  7895160
 43
1.0
 76
     1
 77
     6
 78
     2
 67
     7
 79
     5
170
     0
171
     0
290
     0
174
     0
 93
       13
 44
0.0
173
     0
291
     0
 45
0.0
  0
VISUALSTYLE
  5
37
102
{ACAD_REACTORS
330
2A
102
}
102
{ACAD_XDICTIONARY
360
B9
102
}
330
2A
100
AcDbVisualStyle
  2
Thicken
 70
    13
 71
     2
 72
     2
 73
     0
 90
        0
 40
-0.6
 41
-30.0
 62
     5
 63
     7
421
 16777215
 74
     1
 91
        4
 64
     7
 65
   257
 75
     1
175
     1
 42
1.0
 92
       12
 66
     7
 43
1.0
 76
     1
 77
     6
 78
     2
 67
     7
 79
     5
170
     0
171
     0
290
     0
174
     0
 93
        1
 44
0.0
173
     0
291
     1
 45
0.0
  0
DICTIONARY
  5
A9
330
2F
100
AcDbDictionary
280
     1
281
     1
  3
ACAD_XREC_ROUNDTRIP
360
AA
  0
DICTIONARY
  5
AD
330
31
100
AcDbDictionary
280
     1
281
     1
  3
ACAD_XREC_ROUNDTRIP
360
AE
  0
DICTIONARY
  5
AB
330
30
100
AcDbDictionary
280
     1
281
     1
  3
ACAD_XREC_ROUNDTRIP
360
AC
  0
DICTIONARY
  5
AF
330
32
100
AcDbDictionary
280
     1
281
     1
  3
ACAD_XREC_ROUNDTRIP
360
B0
  0
DICTIONARY
  5
B7
330
36
100
AcDbDictionary
280
     1
281
     1
  3
ACAD_XREC_ROUNDTRIP
360
B8
  0
DICTIONARY
  5
BF
330
3A
100
AcDbDictionary
280
     1
281
     1
  3
ACAD_XREC_ROUNDTRIP
360
C0
  0
DICTIONARY
  5
B3
330
34
100
AcDbDictionary
280
     1
281
     1
  3
ACAD_XREC_ROUNDTRIP
360
B4
  0
DICTIONARY
  5
B5
330
35
100
AcDbDictionary
280
     1
281
     1
  3
ACAD_XREC_ROUNDTRIP
360
B6
  0
DICTIONARY
  5
BD
330
39
100
AcDbDictionary
280
     1
281
     1
  3
ACAD_XREC_ROUNDTRIP
360
BE
  0
DICTIONARY
  5
A1
330
2B
100
AcDbDictionary
280
     1
281
     1
  3
ACAD_XREC_ROUNDTRIP
360
A2
  0
DICTIONARY
  5
A3
330
2C
100
AcDbDictionary
280
     1
281
     1
  3
ACAD_XREC_ROUNDTRIP
360
A4
  0
DICTIONARY
  5
A5
330
2D
100
AcDbDictionary
280
     1
281
     1
  3
ACAD_XREC_ROUNDTRIP
360
A6
  0
DICTIONARY
  5
A7
330
2E
100
AcDbDictionary
280
     1
281
     1
  3
ACAD_XREC_ROUNDTRIP
360
A8
  0
DICTIONARY
  5
BB
330
38
100
AcDbDictionary
280
     1
281
     1
  3
ACAD_XREC_ROUNDTRIP
360
BC
  0
DICTIONARY
  5
B1
330
33
100
AcDbDictionary
280
     1
281
     1
  3
ACAD_XREC_ROUNDTRIP
360
B2
  0
DICTIONARY
  5
B9
330
37
100
AcDbDictionary
280
     1
281
     1
  3
ACAD_XREC_ROUNDTRIP
360
BA
  0
XRECORD
  5
AA
102
{ACAD_REACTORS
330
A9
102
}
330
A9
100
AcDbXrecord
280
     1
102
RTVSPropertyOp0
 70
     1
102
RTVSPropertyOp1
 70
     1
102
RTVSPropertyOp2
 70
     1
102
RTVSPropertyOp3
 70
     1
102
RTVSPropertyOp4
 70
     1
102
RTVSPropertyOp5
 70
     1
102
RTVSPropertyOp6
 70
     1
102
RTVSPropertyOp7
 70
     1
102
RTVSPropertyOp8
 70
     1
102
RTVSPropertyOp9
 70
     1
102
RTVSPropertyOp10
 70
     1
102
RTVSPropertyOp11
 70
     1
102
RTVSPropertyOp12
 70
     1
102
RTVSPropertyOp13
 70
     1
102
RTVSPropertyOp14
 70
     1
102
RTVSPropertyOp15
 70
     1
102
RTVSPropertyOp16
 70
     1
102
RTVSPropertyOp17
 70
     1
102
RTVSPropertyOp18
 70
     1
102
RTVSPropertyOp19
 70
     1
102
RTVSPropertyOp20
 70
     1
102
RTVSPropertyOp21
 70
     1
102
RTVSPropertyOp22
 70
     1
102
RTVSPropertyOp23
 70
     1
102
RTVSPropertyOp24
 70
     1
102
RTVSPropertyOp25
 70
     1
102
RTVSPropertyOp26
 70
     1
102
RTVSPropertyOp27
 70
     1
102
RTVSPropertyOp28
 70
     1
102
RTVSPropertyOp29
 70
     1
102
RTVSPropertyOp30
 70
     1
102
RTVSPropertyOp31
 70
     1
102
RTVSPropertyOp32
 70
     1
  0
XRECORD
  5
AE
102
{ACAD_REACTORS
330
AD
102
}
330
AD
100
AcDbXrecord
280
     1
102
RTVSPropertyOp0
 70
     1
102
RTVSPropertyOp1
 70
     1
102
RTVSPropertyOp2
 70
     1
102
RTVSPropertyOp3
 70
     1
102
RTVSPropertyOp4
 70
     1
102
RTVSPropertyOp5
 70
     1
102
RTVSPropertyOp6
 70
     1
102
RTVSPropertyOp7
 70
     1
102
RTVSPropertyOp8
 70
     1
102
RTVSPropertyOp9
 70
     1
102
RTVSPropertyOp10
 70
     1
102
RTVSPropertyOp11
 70
     1
102
RTVSPropertyOp12
 70
     1
102
RTVSPropertyOp13
 70
     1
102
RTVSPropertyOp14
 70
     1
102
RTVSPropertyOp15
 70
     1
102
RTVSPropertyOp16
 70
     1
102
RTVSPropertyOp17
 70
     1
102
RTVSPropertyOp18
 70
     1
102
RTVSPropertyOp19
 70
     1
102
RTVSPropertyOp20
 70
     1
102
RTVSPropertyOp21
 70
     1
102
RTVSPropertyOp22
 70
     1
102
RTVSPropertyOp23
 70
     1
102
RTVSPropertyOp24
 70
     1
102
RTVSPropertyOp25
 70
     1
102
RTVSPropertyOp26
 70
     1
102
RTVSPropertyOp27
 70
     1
102
RTVSPropertyOp28
 70
     1
102
RTVSPropertyOp29
 70
     1
102
RTVSPropertyOp30
 70
     1
102
RTVSPropertyOp31
 70
     1
102
RTVSPropertyOp32
 70
     1
  0
XRECORD
  5
AC
102
{ACAD_REACTORS
330
AB
102
}
330
AB
100
AcDbXrecord
280
     1
102
RTVSPropertyOp0
 70
     1
102
RTVSPropertyOp1
 70
     1
102
RTVSPropertyOp2
 70
     1
102
RTVSPropertyOp3
 70
     1
102
RTVSPropertyOp4
 70
     1
102
RTVSPropertyOp5
 70
     1
102
RTVSPropertyOp6
 70
     1
102
RTVSPropertyOp7
 70
     1
102
RTVSPropertyOp8
 70
     1
102
RTVSPropertyOp9
 70
     1
102
RTVSPropertyOp10
 70
     1
102
RTVSPropertyOp11
 70
     1
102
RTVSPropertyOp12
 70
     1
102
RTVSPropertyOp13
 70
     1
102
RTVSPropertyOp14
 70
     1
102
RTVSPropertyOp15
 70
     1
102
RTVSPropertyOp16
 70
     1
102
RTVSPropertyOp17
 70
     1
102
RTVSPropertyOp18
 70
     1
102
RTVSPropertyOp19
 70
     1
102
RTVSPropertyOp20
 70
     1
102
RTVSPropertyOp21
 70
     1
102
RTVSPropertyOp22
 70
     1
102
RTVSPropertyOp23
 70
     1
102
RTVSPropertyOp24
 70
     1
102
RTVSPropertyOp25
 70
     1
102
RTVSPropertyOp26
 70
     1
102
RTVSPropertyOp27
 70
     1
102
RTVSPropertyOp28
 70
     1
102
RTVSPropertyOp29
 70
     1
102
RTVSPropertyOp30
 70
     1
102
RTVSPropertyOp31
 70
     1
102
RTVSPropertyOp32
 70
     1
  0
XRECORD
  5
B0
102
{ACAD_REACTORS
330
AF
102
}
330
AF
100
AcDbXrecord
280
     1
102
RTVSPropertyOp0
 70
     1
102
RTVSPropertyOp1
 70
     1
102
RTVSPropertyOp2
 70
     1
102
RTVSPropertyOp3
 70
     1
102
RTVSPropertyOp4
 70
     1
102
RTVSPropertyOp5
 70
     1
102
RTVSPropertyOp6
 70
     1
102
RTVSPropertyOp7
 70
     1
102
RTVSPropertyOp8
 70
     1
102
RTVSPropertyOp9
 70
     1
102
RTVSPropertyOp10
 70
     1
102
RTVSPropertyOp11
 70
     1
102
RTVSPropertyOp12
 70
     1
102
RTVSPropertyOp13
 70
     1
102
RTVSPropertyOp14
 70
     1
102
RTVSPropertyOp15
 70
     1
102
RTVSPropertyOp16
 70
     1
102
RTVSPropertyOp17
 70
     1
102
RTVSPropertyOp18
 70
     1
102
RTVSPropertyOp19
 70
     1
102
RTVSPropertyOp20
 70
     1
102
RTVSPropertyOp21
 70
     1
102
RTVSPropertyOp22
 70
     1
102
RTVSPropertyOp23
 70
     1
102
RTVSPropertyOp24
 70
     1
102
RTVSPropertyOp25
 70
     1
102
RTVSPropertyOp26
 70
     1
102
RTVSPropertyOp27
 70
     1
102
RTVSPropertyOp28
 70
     1
102
RTVSPropertyOp29
 70
     1
102
RTVSPropertyOp30
 70
     1
102
RTVSPropertyOp31
 70
     1
102
RTVSPropertyOp32
 70
     1
  0
XRECORD
  5
B8
102
{ACAD_REACTORS
330
B7
102
}
330
B7
100
AcDbXrecord
280
     1
102
RTVSPropertyOp0
 70
     1
102
RTVSPropertyOp1
 70
     1
102
RTVSPropertyOp2
 70
     1
102
RTVSPropertyOp3
 70
     1
102
RTVSPropertyOp4
 70
     1
102
RTVSPropertyOp5
 70
     1
102
RTVSPropertyOp6
 70
     1
102
RTVSPropertyOp7
 70
     1
102
RTVSPropertyOp8
 70
     1
102
RTVSPropertyOp9
 70
     1
102
RTVSPropertyOp10
 70
     1
102
RTVSPropertyOp11
 70
     1
102
RTVSPropertyOp12
 70
     1
102
RTVSPropertyOp13
 70
     1
102
RTVSPropertyOp14
 70
     1
102
RTVSPropertyOp15
 70
     1
102
RTVSPropertyOp16
 70
     1
102
RTVSPropertyOp17
 70
     1
102
RTVSPropertyOp18
 70
     1
102
RTVSPropertyOp19
 70
     1
102
RTVSPropertyOp20
 70
     1
102
RTVSPropertyOp21
 70
     1
102
RTVSPropertyOp22
 70
     1
102
RTVSPropertyOp23
 70
     1
102
RTVSPropertyOp24
 70
     1
102
RTVSPropertyOp25
 70
     1
102
RTVSPropertyOp26
 70
     1
102
RTVSPropertyOp27
 70
     1
102
RTVSPropertyOp28
 70
     1
102
RTVSPropertyOp29
 70
     1
102
RTVSPropertyOp30
 70
     1
102
RTVSPropertyOp31
 70
     1
102
RTVSPropertyOp32
 70
     1
  0
XRECORD
  5
C0
102
{ACAD_REACTORS
330
BF
102
}
330
BF
100
AcDbXrecord
280
     1
102
RTVSPropertyOp0
 70
     1
102
RTVSPropertyOp1
 70
     1
102
RTVSPropertyOp2
 70
     1
102
RTVSPropertyOp3
 70
     1
102
RTVSPropertyOp4
 70
     1
102
RTVSPropertyOp5
 70
     1
102
RTVSPropertyOp6
 70
     1
102
RTVSPropertyOp7
 70
     1
102
RTVSPropertyOp8
 70
     1
102
RTVSPropertyOp9
 70
     1
102
RTVSPropertyOp10
 70
     1
102
RTVSPropertyOp11
 70
     1
102
RTVSPropertyOp12
 70
     1
102
RTVSPropertyOp13
 70
     1
102
RTVSPropertyOp14
 70
     1
102
RTVSPropertyOp15
 70
     1
102
RTVSPropertyOp16
 70
     1
102
RTVSPropertyOp17
 70
     1
102
RTVSPropertyOp18
 70
     1
102
RTVSPropertyOp19
 70
     1
102
RTVSPropertyOp20
 70
     1
102
RTVSPropertyOp21
 70
     1
102
RTVSPropertyOp22
 70
     1
102
RTVSPropertyOp23
 70
     1
102
RTVSPropertyOp24
 70
     1
102
RTVSPropertyOp25
 70
     1
102
RTVSPropertyOp26
 70
     1
102
RTVSPropertyOp27
 70
     1
102
RTVSPropertyOp28
 70
     1
102
RTVSPropertyOp29
 70
     1
102
RTVSPropertyOp30
 70
     1
102
RTVSPropertyOp31
 70
     1
102
RTVSPropertyOp32
 70
     1
  0
XRECORD
  5
B4
102
{ACAD_REACTORS
330
B3
102
}
330
B3
100
AcDbXrecord
280
     1
102
RTVSPropertyOp0
 70
     1
102
RTVSPropertyOp1
 70
     1
102
RTVSPropertyOp2
 70
     1
102
RTVSPropertyOp3
 70
     1
102
RTVSPropertyOp4
 70
     1
102
RTVSPropertyOp5
 70
     1
102
RTVSPropertyOp6
 70
     1
102
RTVSPropertyOp7
 70
     1
102
RTVSPropertyOp8
 70
     1
102
RTVSPropertyOp9
 70
     1
102
RTVSPropertyOp10
 70
     1
102
RTVSPropertyOp11
 70
     1
102
RTVSPropertyOp12
 70
     1
102
RTVSPropertyOp13
 70
     1
102
RTVSPropertyOp14
 70
     1
102
RTVSPropertyOp15
 70
     1
102
RTVSPropertyOp16
 70
     1
102
RTVSPropertyOp17
 70
     1
102
RTVSPropertyOp18
 70
     1
102
RTVSPropertyOp19
 70
     1
102
RTVSPropertyOp20
 70
     1
102
RTVSPropertyOp21
 70
     1
102
RTVSPropertyOp22
 70
     1
102
RTVSPropertyOp23
 70
     1
102
RTVSPropertyOp24
 70
     1
102
RTVSPropertyOp25
 70
     1
102
RTVSPropertyOp26
 70
     1
102
RTVSPropertyOp27
 70
     1
102
RTVSPropertyOp28
 70
     1
102
RTVSPropertyOp29
 70
     1
102
RTVSPropertyOp30
 70
     1
102
RTVSPropertyOp31
 70
     1
102
RTVSPropertyOp32
 70
     1
  0
XRECORD
  5
B6
102
{ACAD_REACTORS
330
B5
102
}
330
B5
100
AcDbXrecord
280
     1
102
RTVSPropertyOp0
 70
     1
102
RTVSPropertyOp1
 70
     1
102
RTVSPropertyOp2
 70
     1
102
RTVSPropertyOp3
 70
     1
102
RTVSPropertyOp4
 70
     1
102
RTVSPropertyOp5
 70
     1
102
RTVSPropertyOp6
 70
     1
102
RTVSPropertyOp7
 70
     1
102
RTVSPropertyOp8
 70
     1
102
RTVSPropertyOp9
 70
     1
102
RTVSPropertyOp10
 70
     1
102
RTVSPropertyOp11
 70
     1
102
RTVSPropertyOp12
 70
     1
102
RTVSPropertyOp13
 70
     1
102
RTVSPropertyOp14
 70
     1
102
RTVSPropertyOp15
 70
     1
102
RTVSPropertyOp16
 70
     1
102
RTVSPropertyOp17
 70
     1
102
RTVSPropertyOp18
 70
     1
102
RTVSPropertyOp19
 70
     1
102
RTVSPropertyOp20
 70
     1
102
RTVSPropertyOp21
 70
     1
102
RTVSPropertyOp22
 70
     1
102
RTVSPropertyOp23
 70
     1
102
RTVSPropertyOp24
 70
     1
102
RTVSPropertyOp25
 70
     1
102
RTVSPropertyOp26
 70
     1
102
RTVSPropertyOp27
 70
     1
102
RTVSPropertyOp28
 70
     1
102
RTVSPropertyOp29
 70
     1
102
RTVSPropertyOp30
 70
     1
102
RTVSPropertyOp31
 70
     1
102
RTVSPropertyOp32
 70
     1
  0
XRECORD
  5
BE
102
{ACAD_REACTORS
330
BD
102
}
330
BD
100
AcDbXrecord
280
     1
102
RTVSPropertyOp0
 70
     1
102
RTVSPropertyOp1
 70
     1
102
RTVSPropertyOp2
 70
     1
102
RTVSPropertyOp3
 70
     1
102
RTVSPropertyOp4
 70
     1
102
RTVSPropertyOp5
 70
     1
102
RTVSPropertyOp6
 70
     1
102
RTVSPropertyOp7
 70
     1
102
RTVSPropertyOp8
 70
     1
102
RTVSPropertyOp9
 70
     1
102
RTVSPropertyOp10
 70
     1
102
RTVSPropertyOp11
 70
     1
102
RTVSPropertyOp12
 70
     1
102
RTVSPropertyOp13
 70
     1
102
RTVSPropertyOp14
 70
     1
102
RTVSPropertyOp15
 70
     1
102
RTVSPropertyOp16
 70
     1
102
RTVSPropertyOp17
 70
     1
102
RTVSPropertyOp18
 70
     1
102
RTVSPropertyOp19
 70
     1
102
RTVSPropertyOp20
 70
     1
102
RTVSPropertyOp21
 70
     1
102
RTVSPropertyOp22
 70
     1
102
RTVSPropertyOp23
 70
     1
102
RTVSPropertyOp24
 70
     1
102
RTVSPropertyOp25
 70
     1
102
RTVSPropertyOp26
 70
     1
102
RTVSPropertyOp27
 70
     1
102
RTVSPropertyOp28
 70
     1
102
RTVSPropertyOp29
 70
     1
102
RTVSPropertyOp30
 70
     1
102
RTVSPropertyOp31
 70
     1
102
RTVSPropertyOp32
 70
     1
  0
XRECORD
  5
A2
102
{ACAD_REACTORS
330
A1
102
}
330
A1
100
AcDbXrecord
280
     1
102
RTVSPropertyOp0
 70
     1
102
RTVSPropertyOp1
 70
     1
102
RTVSPropertyOp2
 70
     1
102
RTVSPropertyOp3
 70
     1
102
RTVSPropertyOp4
 70
     1
102
RTVSPropertyOp5
 70
     1
102
RTVSPropertyOp6
 70
     1
102
RTVSPropertyOp7
 70
     1
102
RTVSPropertyOp8
 70
     1
102
RTVSPropertyOp9
 70
     1
102
RTVSPropertyOp10
 70
     1
102
RTVSPropertyOp11
 70
     1
102
RTVSPropertyOp12
 70
     1
102
RTVSPropertyOp13
 70
     1
102
RTVSPropertyOp14
 70
     1
102
RTVSPropertyOp15
 70
     1
102
RTVSPropertyOp16
 70
     1
102
RTVSPropertyOp17
 70
     1
102
RTVSPropertyOp18
 70
     1
102
RTVSPropertyOp19
 70
     1
102
RTVSPropertyOp20
 70
     1
102
RTVSPropertyOp21
 70
     1
102
RTVSPropertyOp22
 70
     1
102
RTVSPropertyOp23
 70
     1
102
RTVSPropertyOp24
 70
     1
102
RTVSPropertyOp25
 70
     1
102
RTVSPropertyOp26
 70
     1
102
RTVSPropertyOp27
 70
     1
102
RTVSPropertyOp28
 70
     1
102
RTVSPropertyOp29
 70
     1
102
RTVSPropertyOp30
 70
     1
102
RTVSPropertyOp31
 70
     1
102
RTVSPropertyOp32
 70
     1
  0
XRECORD
  5
A4
102
{ACAD_REACTORS
330
A3
102
}
330
A3
100
AcDbXrecord
280
     1
102
RTVSPropertyOp0
 70
     1
102
RTVSPropertyOp1
 70
     1
102
RTVSPropertyOp2
 70
     1
102
RTVSPropertyOp3
 70
     1
102
RTVSPropertyOp4
 70
     1
102
RTVSPropertyOp5
 70
     1
102
RTVSPropertyOp6
 70
     1
102
RTVSPropertyOp7
 70
     1
102
RTVSPropertyOp8
 70
     1
102
RTVSPropertyOp9
 70
     1
102
RTVSPropertyOp10
 70
     1
102
RTVSPropertyOp11
 70
     1
102
RTVSPropertyOp12
 70
     1
102
RTVSPropertyOp13
 70
     1
102
RTVSPropertyOp14
 70
     1
102
RTVSPropertyOp15
 70
     1
102
RTVSPropertyOp16
 70
     1
102
RTVSPropertyOp17
 70
     1
102
RTVSPropertyOp18
 70
     1
102
RTVSPropertyOp19
 70
     1
102
RTVSPropertyOp20
 70
     1
102
RTVSPropertyOp21
 70
     1
102
RTVSPropertyOp22
 70
     1
102
RTVSPropertyOp23
 70
     1
102
RTVSPropertyOp24
 70
     1
102
RTVSPropertyOp25
 70
     1
102
RTVSPropertyOp26
 70
     1
102
RTVSPropertyOp27
 70
     1
102
RTVSPropertyOp28
 70
     1
102
RTVSPropertyOp29
 70
     1
102
RTVSPropertyOp30
 70
     1
102
RTVSPropertyOp31
 70
     1
102
RTVSPropertyOp32
 70
     1
  0
XRECORD
  5
A6
102
{ACAD_REACTORS
330
A5
102
}
330
A5
100
AcDbXrecord
280
     1
102
RTVSPropertyOp0
 70
     1
102
RTVSPropertyOp1
 70
     1
102
RTVSPropertyOp2
 70
     1
102
RTVSPropertyOp3
 70
     1
102
RTVSPropertyOp4
 70
     1
102
RTVSPropertyOp5
 70
     1
102
RTVSPropertyOp6
 70
     1
102
RTVSPropertyOp7
 70
     1
102
RTVSPropertyOp8
 70
     1
102
RTVSPropertyOp9
 70
     1
102
RTVSPropertyOp10
 70
     1
102
RTVSPropertyOp11
 70
     1
102
RTVSPropertyOp12
 70
     1
102
RTVSPropertyOp13
 70
     1
102
RTVSPropertyOp14
 70
     1
102
RTVSPropertyOp15
 70
     1
102
RTVSPropertyOp16
 70
     1
102
RTVSPropertyOp17
 70
     1
102
RTVSPropertyOp18
 70
     1
102
RTVSPropertyOp19
 70
     1
102
RTVSPropertyOp20
 70
     1
102
RTVSPropertyOp21
 70
     1
102
RTVSPropertyOp22
 70
     1
102
RTVSPropertyOp23
 70
     1
102
RTVSPropertyOp24
 70
     1
102
RTVSPropertyOp25
 70
     1
102
RTVSPropertyOp26
 70
     1
102
RTVSPropertyOp27
 70
     1
102
RTVSPropertyOp28
 70
     1
102
RTVSPropertyOp29
 70
     1
102
RTVSPropertyOp30
 70
     1
102
RTVSPropertyOp31
 70
     1
102
RTVSPropertyOp32
 70
     1
  0
XRECORD
  5
A8
102
{ACAD_REACTORS
330
A7
102
}
330
A7
100
AcDbXrecord
280
     1
102
RTVSPropertyOp0
 70
     1
102
RTVSPropertyOp1
 70
     1
102
RTVSPropertyOp2
 70
     1
102
RTVSPropertyOp3
 70
     1
102
RTVSPropertyOp4
 70
     1
102
RTVSPropertyOp5
 70
     1
102
RTVSPropertyOp6
 70
     1
102
RTVSPropertyOp7
 70
     1
102
RTVSPropertyOp8
 70
     1
102
RTVSPropertyOp9
 70
     1
102
RTVSPropertyOp10
 70
     1
102
RTVSPropertyOp11
 70
     1
102
RTVSPropertyOp12
 70
     1
102
RTVSPropertyOp13
 70
     1
102
RTVSPropertyOp14
 70
     1
102
RTVSPropertyOp15
 70
     1
102
RTVSPropertyOp16
 70
     1
102
RTVSPropertyOp17
 70
     1
102
RTVSPropertyOp18
 70
     1
102
RTVSPropertyOp19
 70
     1
102
RTVSPropertyOp20
 70
     1
102
RTVSPropertyOp21
 70
     1
102
RTVSPropertyOp22
 70
     1
102
RTVSPropertyOp23
 70
     1
102
RTVSPropertyOp24
 70
     1
102
RTVSPropertyOp25
 70
     1
102
RTVSPropertyOp26
 70
     1
102
RTVSPropertyOp27
 70
     1
102
RTVSPropertyOp28
 70
     1
102
RTVSPropertyOp29
 70
     1
102
RTVSPropertyOp30
 70
     1
102
RTVSPropertyOp31
 70
     1
102
RTVSPropertyOp32
 70
     1
  0
XRECORD
  5
BC
102
{ACAD_REACTORS
330
BB
102
}
330
BB
100
AcDbXrecord
280
     1
102
RTVSPropertyOp0
 70
     1
102
RTVSPropertyOp1
 70
     1
102
RTVSPropertyOp2
 70
     1
102
RTVSPropertyOp3
 70
     1
102
RTVSPropertyOp4
 70
     1
102
RTVSPropertyOp5
 70
     1
102
RTVSPropertyOp6
 70
     1
102
RTVSPropertyOp7
 70
     1
102
RTVSPropertyOp8
 70
     1
102
RTVSPropertyOp9
 70
     1
102
RTVSPropertyOp10
 70
     1
102
RTVSPropertyOp11
 70
     1
102
RTVSPropertyOp12
 70
     1
102
RTVSPropertyOp13
 70
     1
102
RTVSPropertyOp14
 70
     1
102
RTVSPropertyOp15
 70
     1
102
RTVSPropertyOp16
 70
     1
102
RTVSPropertyOp17
 70
     1
102
RTVSPropertyOp18
 70
     1
102
RTVSPropertyOp19
 70
     1
102
RTVSPropertyOp20
 70
     1
102
RTVSPropertyOp21
 70
     1
102
RTVSPropertyOp22
 70
     1
102
RTVSPropertyOp23
 70
     1
102
RTVSPropertyOp24
 70
     1
102
RTVSPropertyOp25
 70
     1
102
RTVSPropertyOp26
 70
     1
102
RTVSPropertyOp27
 70
     1
102
RTVSPropertyOp28
 70
     1
102
RTVSPropertyOp29
 70
     1
102
RTVSPropertyOp30
 70
     1
102
RTVSPropertyOp31
 70
     1
102
RTVSPropertyOp32
 70
     1
  0
XRECORD
  5
B2
102
{ACAD_REACTORS
330
B1
102
}
330
B1
100
AcDbXrecord
280
     1
102
RTVSPropertyOp0
 70
     1
102
RTVSPropertyOp1
 70
     1
102
RTVSPropertyOp2
 70
     1
102
RTVSPropertyOp3
 70
     1
102
RTVSPropertyOp4
 70
     1
102
RTVSPropertyOp5
 70
     1
102
RTVSPropertyOp6
 70
     1
102
RTVSPropertyOp7
 70
     1
102
RTVSPropertyOp8
 70
     1
102
RTVSPropertyOp9
 70
     1
102
RTVSPropertyOp10
 70
     1
102
RTVSPropertyOp11
 70
     1
102
RTVSPropertyOp12
 70
     1
102
RTVSPropertyOp13
 70
     1
102
RTVSPropertyOp14
 70
     1
102
RTVSPropertyOp15
 70
     1
102
RTVSPropertyOp16
 70
     1
102
RTVSPropertyOp17
 70
     1
102
RTVSPropertyOp18
 70
     1
102
RTVSPropertyOp19
 70
     1
102
RTVSPropertyOp20
 70
     1
102
RTVSPropertyOp21
 70
     1
102
RTVSPropertyOp22
 70
     1
102
RTVSPropertyOp23
 70
     1
102
RTVSPropertyOp24
 70
     1
102
RTVSPropertyOp25
 70
     1
102
RTVSPropertyOp26
 70
     1
102
RTVSPropertyOp27
 70
     1
102
RTVSPropertyOp28
 70
     1
102
RTVSPropertyOp29
 70
     1
102
RTVSPropertyOp30
 70
     1
102
RTVSPropertyOp31
 70
     1
102
RTVSPropertyOp32
 70
     1
  0
XRECORD
  5
BA
102
{ACAD_REACTORS
330
B9
102
}
330
B9
100
AcDbXrecord
280
     1
102
RTVSPropertyOp0
 70
     1
102
RTVSPropertyOp1
 70
     1
102
RTVSPropertyOp2
 70
     1
102
RTVSPropertyOp3
 70
     1
102
RTVSPropertyOp4
 70
     1
102
RTVSPropertyOp5
 70
     1
102
RTVSPropertyOp6
 70
     1
102
RTVSPropertyOp7
 70
     1
102
RTVSPropertyOp8
 70
     1
102
RTVSPropertyOp9
 70
     1
102
RTVSPropertyOp10
 70
     1
102
RTVSPropertyOp11
 70
     1
102
RTVSPropertyOp12
 70
     1
102
RTVSPropertyOp13
 70
     1
102
RTVSPropertyOp14
 70
     1
102
RTVSPropertyOp15
 70
     1
102
RTVSPropertyOp16
 70
     1
102
RTVSPropertyOp17
 70
     1
102
RTVSPropertyOp18
 70
     1
102
RTVSPropertyOp19
 70
     1
102
RTVSPropertyOp20
 70
     1
102
RTVSPropertyOp21
 70
     1
102
RTVSPropertyOp22
 70
     1
102
RTVSPropertyOp23
 70
     1
102
RTVSPropertyOp24
 70
     1
102
RTVSPropertyOp25
 70
     1
102
RTVSPropertyOp26
 70
     1
102
RTVSPropertyOp27
 70
     1
102
RTVSPropertyOp28
 70
     1
102
RTVSPropertyOp29
 70
     1
102
RTVSPropertyOp30
 70
     1
102
RTVSPropertyOp31
 70
     1
102
RTVSPropertyOp32
 70
     1
  0
ENDSEC
  0
EOF
