  0
SECTION
  2
HEADER
  9
$ACADVER
  1
AC1021
  9
$ACADMAINTVER
 70
    25
  9
$DWGCODEPAGE
  3
ANSI_1256
  9
$INSBASE
 10
0.0
 20
0.0
 30
0.0
  9
$EXTMIN
 10
-21.1053
 20
-115.2919
 30
0.0
  9
$EXTMAX
 10
35.1692
 20
131.6872
 30
0.0
  9
$LIMMIN
 10
0.0
 20
0.0
  9
$LIMMAX
 10
12.0
 20
9.0
  9
$ORTHOMODE
 70
     0
  9
$REGENMODE
 70
     1
  9
$FILLMODE
 70
     1
  9
$QTEXTMODE
 70
     0
  9
$MIRRTEXT
 70
     1
  9
$LTSCALE
 40
1.0
  9
$ATTMODE
 70
     1
  9
$TEXTSIZE
 40
0.2
  9
$TRACEWID
 40
0.05
  9
$TEXTSTYLE
  7
Standard
  9
$CLAYER
  8
0
  9
$CELTYPE
  6
ByLayer
  9
$CECOLOR
 62
   256
  9
$CELTSCALE
 40
1.0
  9
$DISPSILH
 70
     0
  9
$DIMSCALE
 40
1.0
  9
$DIMASZ
 40
0.18
  9
$DIMEXO
 40
0.0625
  9
$DIMDLI
 40
0.38
  9
$DIMRND
 40
0.0
  9
$DIMDLE
 40
0.0
  9
$DIMEXE
 40
0.18
  9
$DIMTP
 40
0.0
  9
$DIMTM
 40
0.0
  9
$DIMTXT
 40
0.18
  9
$DIMCEN
 40
0.09
  9
$DIMTSZ
 40
0.0
  9
$DIMTOL
 70
     0
  9
$DIMLIM
 70
     0
  9
$DIMTIH
 70
     1
  9
$DIMTOH
 70
     1
  9
$DIMSE1
 70
     0
  9
$DIMSE2
 70
     0
  9
$DIMTAD
 70
     0
  9
$DIMZIN
 70
     0
  9
$DIMBLK
  1

  9
$DIMASO
 70
     1
  9
$DIMSHO
 70
     1
  9
$DIMPOST
  1

  9
$DIMAPOST
  1

  9
$DIMALT
 70
     0
  9
$DIMALTD
 70
     2
  9
$DIMALTF
 40
25.4
  9
$DIMLFAC
 40
1.0
  9
$DIMTOFL
 70
     0
  9
$DIMTVP
 40
0.0
  9
$DIMTIX
 70
     0
  9
$DIMSOXD
 70
     0
  9
$DIMSAH
 70
     0
  9
$DIMBLK1
  1

  9
$DIMBLK2
  1

  9
$DIMSTYLE
  2
Standard
  9
$DIMCLRD
 70
     0
  9
$DIMCLRE
 70
     0
  9
$DIMCLRT
 70
     0
  9
$DIMTFAC
 40
1.0
  9
$DIMGAP
 40
0.09
  9
$DIMJUST
 70
     0
  9
$DIMSD1
 70
     0
  9
$DIMSD2
 70
     0
  9
$DIMTOLJ
 70
     1
  9
$DIMTZIN
 70
     0
  9
$DIMALTZ
 70
     0
  9
$DIMALTTZ
 70
     0
  9
$DIMUPT
 70
     0
  9
$DIMDEC
 70
     4
  9
$DIMTDEC
 70
     4
  9
$DIMALTU
 70
     2
  9
$DIMALTTD
 70
     2
  9
$DIMTXSTY
  7
Standard
  9
$DIMAUNIT
 70
     0
  9
$DIMADEC
 70
     0
  9
$DIMALTRND
 40
0.0
  9
$DIMAZIN
 70
     0
  9
$DIMDSEP
 70
    46
  9
$DIMATFIT
 70
     3
  9
$DIMFRAC
 70
     0
  9
$DIMLDRBLK
  1

  9
$DIMLUNIT
 70
     2
  9
$DIMLWD
 70
    -2
  9
$DIMLWE
 70
    -2
  9
$DIMTMOVE
 70
     0
  9
$DIMFXL
 40
1.0
  9
$DIMFXLON
 70
     0
  9
$DIMJOGANG
 40
0.7853981633974483
  9
$DIMTFILL
 70
     0
  9
$DIMTFILLCLR
 70
     0
  9
$DIMARCSYM
 70
     0
  9
$DIMLTYPE
  6

  9
$DIMLTEX1
  6

  9
$DIMLTEX2
  6

  9
$LUNITS
 70
     2
  9
$LUPREC
 70
     4
  9
$SKETCHINC
 40
0.1
  9
$FILLETRAD
 40
0.5
  9
$AUNITS
 70
     0
  9
$AUPREC
 70
     0
  9
$MENU
  1
.
  9
$ELEVATION
 40
0.0
  9
$PELEVATION
 40
0.0
  9
$THICKNESS
 40
0.0
  9
$LIMCHECK
 70
     0
  9
$CHAMFERA
 40
0.5
  9
$CHAMFERB
 40
0.5
  9
$CHAMFERC
 40
1.0
  9
$CHAMFERD
 40
0.0
  9
$SKPOLY
 70
     0
  9
$TDCREATE
 40
2458492.948297789
  9
$TDUCREATE
 40
2458492.781631123
  9
$TDUPDATE
 40
2458492.948297905
  9
$TDUUPDATE
 40
2458492.781631238
  9
$TDINDWG
 40
0.0000000116
  9
$TDUSRTIMER
 40
0.0000000116
  9
$USRTIMER
 70
     1
  9
$ANGBASE
 50
0.0
  9
$ANGDIR
 70
     0
  9
$PDMODE
 70
     0
  9
$PDSIZE
 40
0.0
  9
$PLINEWID
 40
0.0
  9
$SPLFRAME
 70
     0
  9
$SPLINETYPE
 70
     6
  9
$SPLINESEGS
 70
     8
  9
$HANDSEED
  5
87
  9
$SURFTAB1
 70
     6
  9
$SURFTAB2
 70
     6
  9
$SURFTYPE
 70
     6
  9
$SURFU
 70
     6
  9
$SURFV
 70
     6
  9
$UCSBASE
  2

  9
$UCSNAME
  2

  9
$UCSORG
 10
0.0
 20
0.0
 30
0.0
  9
$UCSXDIR
 10
1.0
 20
0.0
 30
0.0
  9
$UCSYDIR
 10
0.0
 20
1.0
 30
0.0
  9
$UCSORTHOREF
  2

  9
$UCSORTHOVIEW
 70
     0
  9
$UCSORGTOP
 10
0.0
 20
0.0
 30
0.0
  9
$UCSORGBOTTOM
 10
0.0
 20
0.0
 30
0.0
  9
$UCSORGLEFT
 10
0.0
 20
0.0
 30
0.0
  9
$UCSORGRIGHT
 10
0.0
 20
0.0
 30
0.0
  9
$UCSORGFRONT
 10
0.0
 20
0.0
 30
0.0
  9
$UCSORGBACK
 10
0.0
 20
0.0
 30
0.0
  9
$PUCSBASE
  2

  9
$PUCSNAME
  2

  9
$PUCSORG
 10
0.0
 20
0.0
 30
0.0
  9
$PUCSXDIR
 10
1.0
 20
0.0
 30
0.0
  9
$PUCSYDIR
 10
0.0
 20
1.0
 30
0.0
  9
$PUCSORTHOREF
  2

  9
$PUCSORTHOVIEW
 70
     0
  9
$PUCSORGTOP
 10
0.0
 20
0.0
 30
0.0
  9
$PUCSORGBOTTOM
 10
0.0
 20
0.0
 30
0.0
  9
$PUCSORGLEFT
 10
0.0
 20
0.0
 30
0.0
  9
$PUCSORGRIGHT
 10
0.0
 20
0.0
 30
0.0
  9
$PUCSORGFRONT
 10
0.0
 20
0.0
 30
0.0
  9
$PUCSORGBACK
 10
0.0
 20
0.0
 30
0.0
  9
$USERI1
 70
     0
  9
$USERI2
 70
     0
  9
$USERI3
 70
     0
  9
$USERI4
 70
     0
  9
$USERI5
 70
     0
  9
$USERR1
 40
0.0
  9
$USERR2
 40
0.0
  9
$USERR3
 40
0.0
  9
$USERR4
 40
0.0
  9
$USERR5
 40
0.0
  9
$WORLDVIEW
 70
     1
  9
$SHADEDGE
 70
     3
  9
$SHADEDIF
 70
    70
  9
$TILEMODE
 70
     1
  9
$MAXACTVP
 70
    64
  9
$PINSBASE
 10
0.0
 20
0.0
 30
0.0
  9
$PLIMCHECK
 70
     0
  9
$PEXTMIN
 10
1.000000000000000E+20
 20
1.000000000000000E+20
 30
1.000000000000000E+20
  9
$PEXTMAX
 10
-1.000000000000000E+20
 20
-1.000000000000000E+20
 30
-1.000000000000000E+20
  9
$PLIMMIN
 10
0.0
 20
0.0
  9
$PLIMMAX
 10
12.0
 20
9.0
  9
$UNITMODE
 70
     0
  9
$VISRETAIN
 70
     1
  9
$PLINEGEN
 70
     0
  9
$PSLTSCALE
 70
     1
  9
$TREEDEPTH
 70
  3020
  9
$CMLSTYLE
  2
Standard
  9
$CMLJUST
 70
     0
  9
$CMLSCALE
 40
1.0
  9
$PROXYGRAPHICS
 70
     1
  9
$MEASUREMENT
 70
     0
  9
$CELWEIGHT
370
    -1
  9
$ENDCAPS
280
     0
  9
$JOINSTYLE
280
     0
  9
$LWDISPLAY
290
     0
  9
$INSUNITS
 70
     4
  9
$HYPERLINKBASE
  1

  9
$STYLESHEET
  1

  9
$XEDIT
290
     1
  9
$CEPSNTYPE
380
     0
  9
$PSTYLEMODE
290
     1
  9
$FINGERPRINTGUID
  2
{67D7433E-57C3-4576-9DA0-F5942B145DED}
  9
$VERSIONGUID
  2
{FAEB1C32-E019-11D5-929B-00C0DF256EC4}
  9
$EXTNAMES
290
     1
  9
$PSVPSCALE
 40
0.0
  9
$OLESTARTUP
290
     0
  9
$SORTENTS
280
   127
  9
$INDEXCTL
280
     0
  9
$HIDETEXT
280
     1
  9
$XCLIPFRAME
290
     0
  9
$HALOGAP
280
     0
  9
$OBSCOLOR
 70
   257
  9
$OBSLTYPE
280
     0
  9
$INTERSECTIONDISPLAY
280
     0
  9
$INTERSECTIONCOLOR
 70
   257
  9
$DIMASSOC
280
     2
  9
$PROJECTNAME
  1

  9
$CAMERADISPLAY
290
     0
  9
$LENSLENGTH
 40
50.0
  9
$CAMERAHEIGHT
 40
0.0
  9
$STEPSPERSEC
 40
2.0
  9
$STEPSIZE
 40
6.0
  9
$3DDWFPREC
 40
2.0
  9
$PSOLWIDTH
 40
0.25
  9
$PSOLHEIGHT
 40
4.0
  9
$LOFTANG1
 40
1.570796326794897
  9
$LOFTANG2
 40
1.570796326794897
  9
$LOFTMAG1
 40
0.0
  9
$LOFTMAG2
 40
0.0
  9
$LOFTPARAM
 70
     7
  9
$LOFTNORMALS
280
     1
  9
$LATITUDE
 40
37.795
  9
$LONGITUDE
 40
-122.394
  9
$NORTHDIRECTION
 40
0.0
  9
$TIMEZONE
 70
 -8000
  9
$LIGHTGLYPHDISPLAY
280
     1
  9
$TILEMODELIGHTSYNCH
280
     1
  9
$SOLIDHIST
280
     1
  9
$SHOWHIST
280
     1
  9
$DWFFRAME
280
     2
  9
$DGNFRAME
280
     2
  9
$REALWORLDSCALE
290
     1
  9
$INTERFERECOLOR
 62
   256
  9
$CSHADOW
280
     0
  9
$SHADOWPLANELOCATION
 40
0.0
  0
ENDSEC
  0
SECTION
  2
CLASSES
  0
CLASS
  1
ACDBDICTIONARYWDFLT
  2
AcDbDictionaryWithDefault
  3
ObjectDBX Classes
 90
        0
 91
        4
280
     0
281
     0
  0
CLASS
  1
VISUALSTYLE
  2
AcDbVisualStyle
  3
ObjectDBX Classes
 90
     4095
 91
        4
280
     0
281
     0
  0
CLASS
  1
MATERIAL
  2
AcDbMaterial
  3
ObjectDBX Classes
 90
     1153
 91
        4
280
     0
281
     0
  0
ENDSEC
  0
SECTION
  2
TABLES
  0
TABLE
  2
VPORT
  5
8
330
0
100
AcDbSymbolTable
 70
     1
  0
VPORT
  5
29
330
8
100
AcDbSymbolTableRecord
100
AcDbViewportTableRecord
  2
*Active
 70
     0
 10
0.0
 20
0.0
 11
1.0
 21
1.0
 12
10.42990654205607
 22
4.5
 13
0.0
 23
0.0
 14
0.5
 24
0.5
 15
0.5
 25
0.5
 16
0.0
 26
0.0
 36
1.0
 17
0.0
 27
0.0
 37
0.0
 40
9.0
 41
1.972972972850329
 42
50.0
 43
0.0
 44
0.0
 50
0.0
 51
0.0
 71
     0
 72
   100
 73
     1
 74
     3
 75
     0
 76
     0
 77
     0
 78
     0
281
     0
 65
     1
110
0.0
120
0.0
130
0.0
111
1.0
121
0.0
131
0.0
112
0.0
122
1.0
132
0.0
 79
     0
146
0.0
 60
     3
 61
     5
292
     1
282
     1
141
0.0
142
0.0
 63
   250
  0
ENDTAB
  0
TABLE
  2
LTYPE
  5
5
330
0
100
AcDbSymbolTable
 70
     1
  0
LTYPE
  5
14
330
5
100
AcDbSymbolTableRecord
100
AcDbLinetypeTableRecord
  2
ByBlock
 70
     0
  3

 72
    65
 73
     0
 40
0.0
  0
LTYPE
  5
15
330
5
100
AcDbSymbolTableRecord
100
AcDbLinetypeTableRecord
  2
ByLayer
 70
     0
  3

 72
    65
 73
     0
 40
0.0
  0
LTYPE
  5
16
330
5
100
AcDbSymbolTableRecord
100
AcDbLinetypeTableRecord
  2
Continuous
 70
     0
  3
Solid line
 72
    65
 73
     0
 40
0.0
  0
ENDTAB
  0
TABLE
  2
LAYER
  5
2
330
0
100
AcDbSymbolTable
 70
     3
  0
LAYER
  5
10
330
2
100
AcDbSymbolTableRecord
100
AcDbLayerTableRecord
  2
0
 70
     0
 62
     7
  6
Continuous
370
    -3
390
F
347
3E
  0
LAYER
  5
40
330
2
100
AcDbSymbolTableRecord
100
AcDbLayerTableRecord
  2
layer 1
 70
     0
 62
     7
  6
Continuous
370
    -3
390
F
347
3E
  0
LAYER
  5
64
330
2
100
AcDbSymbolTableRecord
100
AcDbLayerTableRecord
  2
Master Guides
 70
     0
 62
     7
  6
Continuous
370
    -3
390
F
347
3E
  0
ENDTAB
  0
TABLE
  2
STYLE
  5
3
330
0
100
AcDbSymbolTable
 70
     1
  0
STYLE
  5
11
330
3
100
AcDbSymbolTableRecord
100
AcDbTextStyleTableRecord
  2
Standard
 70
     0
 40
0.0
 41
1.0
 50
0.0
 71
     0
 42
0.2
  3
txt
  4

  0
ENDTAB
  0
TABLE
  2
VIEW
  5
6
330
0
100
AcDbSymbolTable
 70
     0
  0
ENDTAB
  0
TABLE
  2
UCS
  5
7
330
0
100
AcDbSymbolTable
 70
     0
  0
ENDTAB
  0
TABLE
  2
APPID
  5
9
330
0
100
AcDbSymbolTable
 70
     2
  0
APPID
  5
12
330
9
100
AcDbSymbolTableRecord
100
AcDbRegAppTableRecord
  2
ACAD
 70
     0
  0
APPID
  5
3F
330
9
100
AcDbSymbolTableRecord
100
AcDbRegAppTableRecord
  2
ODA
 70
     0
  0
ENDTAB
  0
TABLE
  2
DIMSTYLE
  5
A
330
0
100
AcDbSymbolTable
 70
     1
100
AcDbDimStyleTable
  0
DIMSTYLE
105
27
330
A
100
AcDbSymbolTableRecord
100
AcDbDimStyleTableRecord
  2
Standard
 70
     0
178
     0
340
11
  0
ENDTAB
  0
TABLE
  2
BLOCK_RECORD
  5
1
330
0
100
AcDbSymbolTable
 70
     1
  0
BLOCK_RECORD
  5
1F
330
1
100
AcDbSymbolTableRecord
100
AcDbBlockTableRecord
  2
*Model_Space
340
22
 70
     0
280
     1
281
     0
  0
BLOCK_RECORD
  5
1B
330
1
100
AcDbSymbolTableRecord
100
AcDbBlockTableRecord
  2
*Paper_Space
340
1E
 70
     0
280
     1
281
     0
  0
BLOCK_RECORD
  5
23
330
1
100
AcDbSymbolTableRecord
100
AcDbBlockTableRecord
  2
*Paper_Space0
340
26
 70
     0
280
     1
281
     0
  0
ENDTAB
  0
ENDSEC
  0
SECTION
  2
BLOCKS
  0
BLOCK
  5
20
330
1F
100
AcDbEntity
  8
0
100
AcDbBlockBegin
  2
*Model_Space
 70
     0
 10
0.0
 20
0.0
 30
0.0
  3
*Model_Space
  1

  0
ENDBLK
  5
21
330
1F
100
AcDbEntity
  8
0
100
AcDbBlockEnd
  0
BLOCK
  5
1C
330
1B
100
AcDbEntity
 67
     1
  8
0
100
AcDbBlockBegin
  2
*Paper_Space
 70
     0
 10
0.0
 20
0.0
 30
0.0
  3
*Paper_Space
  1

  0
ENDBLK
  5
1D
330
1B
100
AcDbEntity
 67
     1
  8
0
100
AcDbBlockEnd
  0
BLOCK
  5
24
330
23
100
AcDbEntity
  8
0
100
AcDbBlockBegin
  2
*Paper_Space0
 70
     0
 10
0.0
 20
0.0
 30
0.0
  3
*Paper_Space0
  1

  0
ENDBLK
  5
25
330
23
100
AcDbEntity
  8
0
100
AcDbBlockEnd
  0
ENDSEC
  0
SECTION
  2
ENTITIES
  0
LWPOLYLINE
  5
41
330
1F
100
AcDbEntity
  8
layer 1
 62
   250
370
     9
100
AcDbPolyline
 90
        5
 70
     1
 43
0.0
 10
-21.0672
 20
-115.2537
 10
35.131
 20
-115.2537
 10
35.131
 20
131.6491
 10
-21.0672
 20
131.6491
 10
-21.0672
 20
-115.2537
  0
SPLINE
  5
42
330
1F
100
AcDbEntity
  8
layer 1
 62
     7
370
    20
100
AcDbSpline
210
0.0
220
0.0
230
1.0
 70
    11
 71
     3
 72
    24
 73
    20
 74
     0
 42
0.0000000001
 43
0.0000000001
 12
1.0
 22
0.0
 32
0.0
 13
1.0
 23
0.0
 33
0.0
 40
0.0
 40
0.0
 40
0.0
 40
0.0
 40
0.1666666666666667
 40
0.1666666666666667
 40
0.1666666666666667
 40
0.1666666666666667
 40
0.3333333333333333
 40
0.3333333333333333
 40
0.3333333333333333
 40
0.3333333333333333
 40
0.5
 40
0.5
 40
0.5
 40
0.5
 40
0.6666666666666666
 40
0.6666666666666666
 40
0.6666666666666666
 40
0.6666666666666666
 40
1.0
 40
1.0
 40
1.0
 40
1.0
 10
18.407
 20
-103.3379
 30
0.0
 10
23.1026
 20
-103.4112
 30
0.0
 10
26.3344
 20
-101.6327
 30
0.0
 10
28.0314
 20
-97.9139
 30
0.0
 10
28.0314
 20
-97.9139
 30
0.0
 10
28.0314
 20
-97.9139
 30
0.0
 10
28.0314
 20
-111.0108
 30
0.0
 10
28.0314
 20
-111.0108
 30
0.0
 10
28.0314
 20
-111.0108
 30
0.0
 10
28.0314
 20
-111.0108
 30
0.0
 10
17.481
 20
-111.0108
 30
0.0
 10
17.481
 20
-111.0108
 30
0.0
 10
17.481
 20
-111.0108
 30
0.0
 10
19.2829
 20
-110.2572
 30
0.0
 10
20.3971
 20
-109.0633
 30
0.0
 10
20.656
 20
-107.3397
 30
0.0
 10
20.656
 20
-107.3397
 30
0.0
 10
20.808
 20
-105.5313
 30
0.0
 10
19.9308
 20
-104.2645
 30
0.0
 10
18.407
 20
-103.3379
 30
0.0
  0
SPLINE
  5
43
330
1F
100
AcDbEntity
  8
layer 1
 62
     7
370
    20
100
AcDbSpline
210
0.0
220
0.0
230
1.0
 70
    11
 71
     3
 72
    36
 73
    32
 74
     0
 42
0.0000000001
 43
0.0000000001
 12
1.0
 22
0.0
 32
0.0
 13
1.0
 23
0.0
 33
0.0
 40
0.0
 40
0.0
 40
0.0
 40
0.0
 40
0.1111111111111111
 40
0.1111111111111111
 40
0.1111111111111111
 40
0.1111111111111111
 40
0.2222222222222222
 40
0.2222222222222222
 40
0.2222222222222222
 40
0.2222222222222222
 40
0.3333333333333333
 40
0.3333333333333333
 40
0.3333333333333333
 40
0.3333333333333333
 40
0.4444444444444444
 40
0.4444444444444444
 40
0.4444444444444444
 40
0.4444444444444444
 40
0.5555555555555556
 40
0.5555555555555556
 40
0.5555555555555556
 40
0.5555555555555556
 40
0.6666666666666666
 40
0.6666666666666666
 40
0.6666666666666666
 40
0.6666666666666666
 40
0.7777777777777778
 40
0.7777777777777778
 40
0.7777777777777778
 40
0.7777777777777778
 40
1.0
 40
1.0
 40
1.0
 40
1.0
 10
-13.4968
 20
-108.4974
 30
0.0
 10
-11.2634
 20
-108.482
 30
0.0
 10
-9.4351
 20
-107.1576
 30
0.0
 10
-7.7752
 20
-105.2894
 30
0.0
 10
-7.7752
 20
-105.2894
 30
0.0
 10
-7.9999
 20
-107.2417
 30
0.0
 10
-7.7272
 20
-108.6293
 30
0.0
 10
-6.3199
 20
-108.7289
 30
0.0
 10
-6.3199
 20
-108.7289
 30
0.0
 10
-5.0091
 20
-108.7567
 30
0.0
 10
-3.9924
 20
-107.6097
 30
0.0
 10
-3.2111
 20
-105.5208
 30
0.0
 10
-3.2111
 20
-105.5208
 30
0.0
 10
-1.9239
 20
-107.2875
 30
0.0
 10
-0.5195
 20
-108.7948
 30
0.0
 10
1.3861
 20
-109.192
 30
0.0
 10
1.3861
 20
-109.192
 30
0.0
 10
3.3385
 20
-109.5296
 30
0.0
 10
4.5915
 20
-109.0743
 30
0.0
 10
5.2226
 20
-107.6045
 30
0.0
 10
5.2226
 20
-107.6045
 30
0.0
 10
6.6609
 20
-109.3632
 30
0.0
 10
8.3376
 20
-110.4537
 30
0.0
 10
10.2166
 20
-110.978
 30
0.0
 10
10.2166
 20
-110.978
 30
0.0
 10
10.2166
 20
-110.978
 30
0.0
 10
-13.4968
 20
-110.978
 30
0.0
 10
-13.4968
 20
-110.978
 30
0.0
 10
-13.4968
 20
-110.978
 30
0.0
 10
-13.4968
 20
-110.978
 30
0.0
 10
-13.4968
 20
-108.4974
 30
0.0
 10
-13.4968
 20
-108.4974
 30
0.0
  0
SPLINE
  5
44
330
1F
100
AcDbEntity
  8
layer 1
 62
     7
370
    20
100
AcDbSpline
210
0.0
220
0.0
230
1.0
 70
    11
 71
     3
 72
    56
 73
    52
 74
     0
 42
0.0000000001
 43
0.0000000001
 12
1.0
 22
0.0
 32
0.0
 13
1.0
 23
0.0
 33
0.0
 40
0.0
 40
0.0
 40
0.0
 40
0.0
 40
0.0714285714285714
 40
0.0714285714285714
 40
0.0714285714285714
 40
0.0714285714285714
 40
0.1428571428571428
 40
0.1428571428571428
 40
0.1428571428571428
 40
0.1428571428571428
 40
0.2142857142857143
 40
0.2142857142857143
 40
0.2142857142857143
 40
0.2142857142857143
 40
0.2857142857142857
 40
0.2857142857142857
 40
0.2857142857142857
 40
0.2857142857142857
 40
0.3571428571428572
 40
0.3571428571428572
 40
0.3571428571428572
 40
0.3571428571428572
 40
0.4285714285714285
 40
0.4285714285714285
 40
0.4285714285714285
 40
0.4285714285714285
 40
0.5
 40
0.5
 40
0.5
 40
0.5
 40
0.5714285714285714
 40
0.5714285714285714
 40
0.5714285714285714
 40
0.5714285714285714
 40
0.6428571428571429
 40
0.6428571428571429
 40
0.6428571428571429
 40
0.6428571428571429
 40
0.7142857142857143
 40
0.7142857142857143
 40
0.7142857142857143
 40
0.7142857142857143
 40
0.7857142857142857
 40
0.7857142857142857
 40
0.7857142857142857
 40
0.7857142857142857
 40
0.8571428571428571
 40
0.8571428571428571
 40
0.8571428571428571
 40
0.8571428571428571
 40
1.0
 40
1.0
 40
1.0
 40
1.0
 10
2.6469
 20
-74.3378
 30
0.0
 10
-0.4677
 20
-80.8489
 30
0.0
 10
-1.6468
 20
-86.8764
 30
0.0
 10
-0.5281
 20
-92.3295
 30
0.0
 10
-0.5281
 20
-92.3295
 30
0.0
 10
0.8168
 20
-98.2913
 30
0.0
 10
5.3701
 20
-101.4601
 30
0.0
 10
11.1798
 20
-102.8468
 30
0.0
 10
11.1798
 20
-102.8468
 30
0.0
 10
12.3242
 20
-103.0727
 30
0.0
 10
12.9899
 20
-103.7176
 30
0.0
 10
12.7673
 20
-104.5665
 30
0.0
 10
12.7673
 20
-104.5665
 30
0.0
 10
12.4823
 20
-105.2127
 30
0.0
 10
12.0364
 20
-105.3451
 30
0.0
 10
10.9152
 20
-105.3603
 30
0.0
 10
10.9152
 20
-105.3603
 30
0.0
 10
8.0281
 20
-105.0639
 30
0.0
 10
5.1152
 20
-104.0468
 30
0.0
 10
2.1839
 20
-102.516
 30
0.0
 10
2.1839
 20
-102.516
 30
0.0
 10
2.3928
 20
-103.453
 30
0.0
 10
2.7686
 20
-104.313
 30
0.0
 10
3.3084
 20
-105.0956
 30
0.0
 10
3.3084
 20
-105.0956
 30
0.0
 10
-0.0268
 20
-104.5018
 30
0.0
 10
-2.4628
 20
-102.5813
 30
0.0
 10
-3.1078
 20
-98.018
 30
0.0
 10
-3.1078
 20
-98.018
 30
0.0
 10
-3.9252
 20
-98.475
 30
0.0
 10
-4.6938
 20
-99.1266
 30
0.0
 10
-5.4229
 20
-99.9363
 30
0.0
 10
-5.4229
 20
-99.9363
 30
0.0
 10
-6.074
 20
-95.893
 30
0.0
 10
-5.6538
 20
-92.1174
 30
0.0
 10
-3.8354
 20
-88.6914
 30
0.0
 10
-3.8354
 20
-88.6914
 30
0.0
 10
-4.8046
 20
-88.6388
 30
0.0
 10
-5.919
 20
-88.7276
 30
0.0
 10
-6.8781
 20
-89.6176
 30
0.0
 10
-6.8781
 20
-89.6176
 30
0.0
 10
-6.0656
 20
-86.6736
 30
0.0
 10
-4.9571
 20
-83.6756
 30
0.0
 10
-3.1739
 20
-80.5554
 30
0.0
 10
-3.1739
 20
-80.5554
 30
0.0
 10
-3.9354
 20
-80.3722
 30
0.0
 10
-4.7056
 20
-80.3639
 30
0.0
 10
-5.4891
 20
-80.6216
 30
0.0
 10
-5.4891
 20
-80.6216
 30
0.0
 10
-2.6177
 20
-78.8459
 30
0.0
 10
0.1284
 20
-76.8192
 30
0.0
 10
2.6469
 20
-74.3378
 30
0.0
  0
SPLINE
  5
45
330
1F
100
AcDbEntity
  8
layer 1
 62
     7
370
    20
100
AcDbSpline
210
0.0
220
0.0
230
1.0
 70
    11
 71
     3
 72
    24
 73
    20
 74
     0
 42
0.0000000001
 43
0.0000000001
 12
1.0
 22
0.0
 32
0.0
 13
1.0
 23
0.0
 33
0.0
 40
0.0
 40
0.0
 40
0.0
 40
0.0
 40
0.1666666666666667
 40
0.1666666666666667
 40
0.1666666666666667
 40
0.1666666666666667
 40
0.3333333333333333
 40
0.3333333333333333
 40
0.3333333333333333
 40
0.3333333333333333
 40
0.5
 40
0.5
 40
0.5
 40
0.5
 40
0.6666666666666666
 40
0.6666666666666666
 40
0.6666666666666666
 40
0.6666666666666666
 40
1.0
 40
1.0
 40
1.0
 40
1.0
 10
-13.526
 20
-83.4329
 30
0.0
 10
-11.5663
 20
-83.2412
 30
0.0
 10
-9.7749
 20
-82.6111
 30
0.0
 10
-8.0359
 20
-81.8454
 30
0.0
 10
-8.0359
 20
-81.8454
 30
0.0
 10
-10.3283
 20
-85.3472
 30
0.0
 10
-11.6306
 20
-89.0374
 30
0.0
 10
-12.0708
 20
-92.8919
 30
0.0
 10
-12.0708
 20
-92.8919
 30
0.0
 10
-11.2089
 20
-92.8674
 30
0.0
 10
-10.3971
 20
-92.6296
 30
0.0
 10
-9.6234
 20
-92.2304
 30
0.0
 10
-9.6234
 20
-92.2304
 30
0.0
 10
-11.6269
 20
-95.5551
 30
0.0
 10
-12.9664
 20
-98.9214
 30
0.0
 10
-13.5591
 20
-102.3341
 30
0.0
 10
-13.5591
 20
-102.3341
 30
0.0
 10
-13.5591
 20
-102.3341
 30
0.0
 10
-13.526
 20
-83.4329
 30
0.0
 10
-13.526
 20
-83.4329
 30
0.0
  0
SPLINE
  5
46
330
1F
100
AcDbEntity
  8
layer 1
 62
     7
370
    20
100
AcDbSpline
210
0.0
220
0.0
230
1.0
 70
    11
 71
     3
 72
    28
 73
    24
 74
     0
 42
0.0000000001
 43
0.0000000001
 12
1.0
 22
0.0
 32
0.0
 13
1.0
 23
0.0
 33
0.0
 40
0.0
 40
0.0
 40
0.0
 40
0.0
 40
0.1428571428571428
 40
0.1428571428571428
 40
0.1428571428571428
 40
0.1428571428571428
 40
0.2857142857142857
 40
0.2857142857142857
 40
0.2857142857142857
 40
0.2857142857142857
 40
0.4285714285714285
 40
0.4285714285714285
 40
0.4285714285714285
 40
0.4285714285714285
 40
0.5714285714285714
 40
0.5714285714285714
 40
0.5714285714285714
 40
0.5714285714285714
 40
0.7142857142857143
 40
0.7142857142857143
 40
0.7142857142857143
 40
0.7142857142857143
 40
1.0
 40
1.0
 40
1.0
 40
1.0
 10
-13.518
 20
-63.2333
 30
0.0
 10
-12.8878
 20
-65.7775
 30
0.0
 10
-11.4143
 20
-67.4363
 30
0.0
 10
-9.0201
 20
-68.1282
 30
0.0
 10
-9.0201
 20
-68.1282
 30
0.0
 10
-10.6174
 20
-69.541
 30
0.0
 10
-11.0169
 20
-71.125
 30
0.0
 10
-10.1445
 20
-72.8907
 30
0.0
 10
-10.1445
 20
-72.8907
 30
0.0
 10
-8.5029
 20
-71.6408
 30
0.0
 10
-6.539
 20
-71.1636
 30
0.0
 10
-4.456
 20
-70.9724
 30
0.0
 10
-4.456
 20
-70.9724
 30
0.0
 10
-2.4228
 20
-70.8304
 30
0.0
 10
-0.6965
 20
-70.523
 30
0.0
 10
0.9019
 20
-69.848
 30
0.0
 10
0.9019
 20
-69.848
 30
0.0
 10
-5.3131
 20
-73.3031
 30
0.0
 10
-10.3902
 20
-76.888
 30
0.0
 10
-13.518
 20
-80.6959
 30
0.0
 10
-13.518
 20
-80.6959
 30
0.0
 10
-13.518
 20
-80.6959
 30
0.0
 10
-13.518
 20
-63.2333
 30
0.0
 10
-13.518
 20
-63.2333
 30
0.0
  0
SPLINE
  5
47
330
1F
100
AcDbEntity
  8
layer 1
 62
     7
370
    20
100
AcDbSpline
210
0.0
220
0.0
230
1.0
 70
    11
 71
     3
 72
    48
 73
    44
 74
     0
 42
0.0000000001
 43
0.0000000001
 12
1.0
 22
0.0
 32
0.0
 13
1.0
 23
0.0
 33
0.0
 40
0.0
 40
0.0
 40
0.0
 40
0.0
 40
0.0833333333333333
 40
0.0833333333333333
 40
0.0833333333333333
 40
0.0833333333333333
 40
0.1666666666666667
 40
0.1666666666666667
 40
0.1666666666666667
 40
0.1666666666666667
 40
0.25
 40
0.25
 40
0.25
 40
0.25
 40
0.3333333333333333
 40
0.3333333333333333
 40
0.3333333333333333
 40
0.3333333333333333
 40
0.4166666666666667
 40
0.4166666666666667
 40
0.4166666666666667
 40
0.4166666666666667
 40
0.5
 40
0.5
 40
0.5
 40
0.5
 40
0.5833333333333334
 40
0.5833333333333334
 40
0.5833333333333334
 40
0.5833333333333334
 40
0.6666666666666666
 40
0.6666666666666666
 40
0.6666666666666666
 40
0.6666666666666666
 40
0.75
 40
0.75
 40
0.75
 40
0.75
 40
0.8333333333333334
 40
0.8333333333333334
 40
0.8333333333333334
 40
0.8333333333333334
 40
1.0
 40
1.0
 40
1.0
 40
1.0
 10
9.7657
 20
-71.121
 30
0.0
 10
11.1788
 20
-76.0512
 30
0.0
 10
14.361
 20
-78.5873
 30
0.0
 10
18.7946
 20
-78.9758
 30
0.0
 10
18.7946
 20
-78.9758
 30
0.0
 10
24.157
 20
-78.8681
 30
0.0
 10
27.1357
 20
-75.6165
 30
0.0
 10
28.022
 20
-71.9146
 30
0.0
 10
28.022
 20
-71.9146
 30
0.0
 10
28.022
 20
-71.9146
 30
0.0
 10
27.9559
 20
-93.6768
 30
0.0
 10
27.9559
 20
-93.6768
 30
0.0
 10
27.9559
 20
-93.6768
 30
0.0
 10
27.2659
 20
-91.8653
 30
0.0
 10
25.9783
 20
-90.9019
 30
0.0
 10
23.921
 20
-91.031
 30
0.0
 10
23.921
 20
-91.031
 30
0.0
 10
25.6502
 20
-89.054
 30
0.0
 10
26.7073
 20
-83.3931
 30
0.0
 10
23.921
 20
-81.8367
 30
0.0
 10
23.921
 20
-81.8367
 30
0.0
 10
22.3586
 20
-80.8225
 30
0.0
 10
19.6956
 20
-82.0237
 30
0.0
 10
18.2985
 20
-84.0855
 30
0.0
 10
18.2985
 20
-84.0855
 30
0.0
 10
15.6073
 20
-81.2508
 30
0.0
 10
11.8065
 20
-80.8239
 30
0.0
 10
9.1704
 20
-83.3579
 30
0.0
 10
9.1704
 20
-83.3579
 30
0.0
 10
6.3007
 20
-86.3539
 30
0.0
 10
6.9927
 20
-90.2588
 30
0.0
 10
10.2287
 20
-92.7507
 30
0.0
 10
10.2287
 20
-92.7507
 30
0.0
 10
10.7798
 20
-87.456
 30
0.0
 10
17.4281
 20
-88.0779
 30
0.0
 10
18.034
 20
-91.8246
 30
0.0
 10
18.034
 20
-91.8246
 30
0.0
 10
19.1695
 20
-97.0273
 30
0.0
 10
10.4935
 20
-100.0941
 30
0.0
 10
5.7308
 20
-94.5367
 30
0.0
 10
5.7308
 20
-94.5367
 30
0.0
 10
1.1272
 20
-88.6574
 30
0.0
 10
3.5434
 20
-80.4398
 30
0.0
 10
9.7657
 20
-71.121
 30
0.0
  0
SPLINE
  5
48
330
1F
100
AcDbEntity
  8
layer 1
 62
     7
370
    20
100
AcDbSpline
210
0.0
220
0.0
230
1.0
 70
    11
 71
     3
 72
    52
 73
    48
 74
     0
 42
0.0000000001
 43
0.0000000001
 12
1.0
 22
0.0
 32
0.0
 13
1.0
 23
0.0
 33
0.0
 40
0.0
 40
0.0
 40
0.0
 40
0.0
 40
0.0769230769230769
 40
0.0769230769230769
 40
0.0769230769230769
 40
0.0769230769230769
 40
0.1538461538461539
 40
0.1538461538461539
 40
0.1538461538461539
 40
0.1538461538461539
 40
0.2307692307692308
 40
0.2307692307692308
 40
0.2307692307692308
 40
0.2307692307692308
 40
0.3076923076923077
 40
0.3076923076923077
 40
0.3076923076923077
 40
0.3076923076923077
 40
0.3846153846153846
 40
0.3846153846153846
 40
0.3846153846153846
 40
0.3846153846153846
 40
0.4615384615384616
 40
0.4615384615384616
 40
0.4615384615384616
 40
0.4615384615384616
 40
0.5384615384615384
 40
0.5384615384615384
 40
0.5384615384615384
 40
0.5384615384615384
 40
0.6153846153846154
 40
0.6153846153846154
 40
0.6153846153846154
 40
0.6153846153846154
 40
0.6923076923076923
 40
0.6923076923076923
 40
0.6923076923076923
 40
0.6923076923076923
 40
0.7692307692307693
 40
0.7692307692307693
 40
0.7692307692307693
 40
0.7692307692307693
 40
0.8461538461538461
 40
0.8461538461538461
 40
0.8461538461538461
 40
0.8461538461538461
 40
1.0
 40
1.0
 40
1.0
 40
1.0
 10
24.516
 20
-29.277
 30
0.0
 10
25.7907
 20
-39.6741
 30
0.0
 10
21.7969
 20
-48.9513
 30
0.0
 10
14.1239
 20
-57.4914
 30
0.0
 10
14.1239
 20
-57.4914
 30
0.0
 10
15.9577
 20
-54.0547
 30
0.0
 10
16.2367
 20
-50.521
 30
0.0
 10
15.2484
 20
-46.9081
 30
0.0
 10
15.2484
 20
-46.9081
 30
0.0
 10
16.6383
 20
-47.4766
 30
0.0
 10
18.0035
 20
-47.596
 30
0.0
 10
19.3494
 20
-47.371
 30
0.0
 10
19.3494
 20
-47.371
 30
0.0
 10
18.7016
 20
-46.2594
 30
0.0
 10
18.3235
 20
-44.9741
 30
0.0
 10
18.0265
 20
-43.6668
 30
0.0
 10
18.0265
 20
-43.6668
 30
0.0
 10
17.1685
 20
-40.5021
 30
0.0
 10
14.5189
 20
-38.2329
 30
0.0
 10
9.4275
 20
-37.1845
 30
0.0
 10
9.4275
 20
-37.1845
 30
0.0
 10
7.7043
 20
-36.7912
 30
0.0
 10
7.546
 20
-34.8493
 30
0.0
 10
8.4353
 20
-34.0757
 30
0.0
 10
8.4353
 20
-34.0757
 30
0.0
 10
9.1196
 20
-33.4404
 30
0.0
 10
10.0441
 20
-33.3272
 30
0.0
 10
10.8166
 20
-34.0095
 30
0.0
 10
10.8166
 20
-34.0095
 30
0.0
 10
11.6835
 20
-34.9788
 30
0.0
 10
12.772
 20
-35.3114
 30
0.0
 10
13.9916
 20
-35.2664
 30
0.0
 10
13.9916
 20
-35.2664
 30
0.0
 10
14.6979
 20
-35.2515
 30
0.0
 10
15.3785
 20
-35.3255
 30
0.0
 10
16.0421
 20
-35.4648
 30
0.0
 10
16.0421
 20
-35.4648
 30
0.0
 10
16.079
 20
-33.7279
 30
0.0
 10
15.6966
 20
-32.2847
 30
0.0
 10
14.8515
 20
-31.1652
 30
0.0
 10
14.8515
 20
-31.1652
 30
0.0
 10
17.2777
 20
-31.8536
 30
0.0
 10
19.5251
 20
-31.447
 30
0.0
 10
21.5984
 20
-29.9746
 30
0.0
 10
21.5984
 20
-29.9746
 30
0.0
 10
22.5372
 20
-29.2472
 30
0.0
 10
23.5112
 20
-29.0341
 30
0.0
 10
24.516
 20
-29.277
 30
0.0
  0
SPLINE
  5
49
330
1F
100
AcDbEntity
  8
layer 1
 62
     7
370
    20
100
AcDbSpline
210
0.0
220
0.0
230
1.0
 70
    11
 71
     3
 72
    20
 73
    16
 74
     0
 42
0.0000000001
 43
0.0000000001
 12
1.0
 22
0.0
 32
0.0
 13
1.0
 23
0.0
 33
0.0
 40
0.0
 40
0.0
 40
0.0
 40
0.0
 40
0.2
 40
0.2
 40
0.2
 40
0.2
 40
0.4
 40
0.4
 40
0.4
 40
0.4
 40
0.6
 40
0.6
 40
0.6
 40
0.6
 40
1.0
 40
1.0
 40
1.0
 40
1.0
 10
-5.7844
 20
17.2346
 30
0.0
 10
-3.8523
 20
17.1585
 30
0.0
 10
-2.0167
 20
16.6488
 30
0.0
 10
-0.2612
 20
15.7794
 30
0.0
 10
-0.2612
 20
15.7794
 30
0.0
 10
-1.1245
 20
17.4371
 30
0.0
 10
-1.6249
 20
19.171
 30
0.0
 10
-1.6503
 20
21.0048
 30
0.0
 10
-1.6503
 20
21.0048
 30
0.0
 10
-3.1767
 20
21.4715
 30
0.0
 10
-4.8089
 20
21.6736
 30
0.0
 10
-6.512
 20
21.6995
 30
0.0
 10
-6.512
 20
21.6995
 30
0.0
 10
-6.5081
 20
20.072
 30
0.0
 10
-6.3175
 20
18.5533
 30
0.0
 10
-5.7844
 20
17.2346
 30
0.0
  0
SPLINE
  5
4A
330
1F
100
AcDbEntity
  8
layer 1
 62
     7
370
    20
100
AcDbSpline
210
0.0
220
0.0
230
1.0
 70
    11
 71
     3
 72
    20
 73
    16
 74
     0
 42
0.0000000001
 43
0.0000000001
 12
1.0
 22
0.0
 32
0.0
 13
1.0
 23
0.0
 33
0.0
 40
0.0
 40
0.0
 40
0.0
 40
0.0
 40
0.2
 40
0.2
 40
0.2
 40
0.2
 40
0.4
 40
0.4
 40
0.4
 40
0.4
 40
0.6
 40
0.6
 40
0.6
 40
0.6
 40
1.0
 40
1.0
 40
1.0
 40
1.0
 10
-5.8658
 20
-0.8393
 30
0.0
 10
-3.9337
 20
-0.7632
 30
0.0
 10
-2.0981
 20
-0.2535
 30
0.0
 10
-0.3426
 20
0.6159
 30
0.0
 10
-0.3426
 20
0.6159
 30
0.0
 10
-1.2059
 20
-1.0418
 30
0.0
 10
-1.7063
 20
-2.7757
 30
0.0
 10
-1.7317
 20
-4.6095
 30
0.0
 10
-1.7317
 20
-4.6095
 30
0.0
 10
-3.2581
 20
-5.0763
 30
0.0
 10
-4.8903
 20
-5.2783
 30
0.0
 10
-6.5934
 20
-5.3042
 30
0.0
 10
-6.5934
 20
-5.3042
 30
0.0
 10
-6.5895
 20
-3.6767
 30
0.0
 10
-6.3989
 20
-2.1579
 30
0.0
 10
-5.8658
 20
-0.8393
 30
0.0
  0
SPLINE
  5
4B
330
1F
100
AcDbEntity
  8
layer 1
 62
     7
370
    20
100
AcDbSpline
210
0.0
220
0.0
230
1.0
 70
    11
 71
     3
 72
    36
 73
    32
 74
     0
 42
0.0000000001
 43
0.0000000001
 12
1.0
 22
0.0
 32
0.0
 13
1.0
 23
0.0
 33
0.0
 40
0.0
 40
0.0
 40
0.0
 40
0.0
 40
0.1111111111111111
 40
0.1111111111111111
 40
0.1111111111111111
 40
0.1111111111111111
 40
0.2222222222222222
 40
0.2222222222222222
 40
0.2222222222222222
 40
0.2222222222222222
 40
0.3333333333333333
 40
0.3333333333333333
 40
0.3333333333333333
 40
0.3333333333333333
 40
0.4444444444444444
 40
0.4444444444444444
 40
0.4444444444444444
 40
0.4444444444444444
 40
0.5555555555555556
 40
0.5555555555555556
 40
0.5555555555555556
 40
0.5555555555555556
 40
0.6666666666666666
 40
0.6666666666666666
 40
0.6666666666666666
 40
0.6666666666666666
 40
0.7777777777777778
 40
0.7777777777777778
 40
0.7777777777777778
 40
0.7777777777777778
 40
1.0
 40
1.0
 40
1.0
 40
1.0
 10
-13.4538
 20
14.4859
 30
0.0
 10
-12.4422
 20
15.5672
 30
0.0
 10
-11.4007
 20
16.2119
 30
0.0
 10
-10.0481
 20
16.7846
 30
0.0
 10
-10.0481
 20
16.7846
 30
0.0
 10
-10.9113
 20
19.8502
 30
0.0
 10
-10.9268
 20
22.7039
 30
0.0
 10
-10.3789
 20
25.4166
 30
0.0
 10
-10.3789
 20
25.4166
 30
0.0
 10
-7.3065
 20
25.9759
 30
0.0
 10
-4.4224
 20
25.6734
 30
0.0
 10
-1.6145
 20
24.8213
 30
0.0
 10
-1.6145
 20
24.8213
 30
0.0
 10
-0.9979
 20
28.6896
 30
0.0
 10
1.6982
 20
30.0972
 30
0.0
 10
2.4419
 20
31.3279
 30
0.0
 10
2.4419
 20
31.3279
 30
0.0
 10
1.6204
 20
32.1575
 30
0.0
 10
0.9963
 20
32.9388
 30
0.0
 10
0.5022
 20
33.8833
 30
0.0
 10
0.5022
 20
33.8833
 30
0.0
 10
-1.482
 20
31.1177
 30
0.0
 10
-4.0952
 20
29.5052
 30
0.0
 10
-7.6669
 20
29.6501
 30
0.0
 10
-7.6669
 20
29.6501
 30
0.0
 10
-10.5945
 20
29.9589
 30
0.0
 10
-12.4895
 20
31.4029
 30
0.0
 10
-13.3885
 20
33.9164
 30
0.0
 10
-13.3885
 20
33.9164
 30
0.0
 10
-13.3885
 20
33.9164
 30
0.0
 10
-13.4538
 20
14.4859
 30
0.0
 10
-13.4538
 20
14.4859
 30
0.0
  0
SPLINE
  5
4C
330
1F
100
AcDbEntity
  8
layer 1
 62
     7
370
    20
100
AcDbSpline
210
0.0
220
0.0
230
1.0
 70
    11
 71
     3
 72
    16
 73
    12
 74
     0
 42
0.0000000001
 43
0.0000000001
 12
1.0
 22
0.0
 32
0.0
 13
1.0
 23
0.0
 33
0.0
 40
0.0
 40
0.0
 40
0.0
 40
0.0
 40
0.25
 40
0.25
 40
0.25
 40
0.25
 40
0.5
 40
0.5
 40
0.5
 40
0.5
 40
1.0
 40
1.0
 40
1.0
 40
1.0
 10
5.0474
 20
12.2784
 30
0.0
 10
-3.698
 20
26.1215
 30
0.0
 10
5.5005
 20
25.7477
 30
0.0
 10
6.9414
 20
30.2972
 30
0.0
 10
6.9414
 20
30.2972
 30
0.0
 10
7.5081
 20
26.3724
 30
0.0
 10
17.8394
 20
26.1401
 30
0.0
 10
8.9013
 20
12.2483
 30
0.0
 10
8.9013
 20
12.2483
 30
0.0
 10
7.5701
 20
12.8773
 30
0.0
 10
6.2698
 20
12.9203
 30
0.0
 10
5.0474
 20
12.2784
 30
0.0
  0
SPLINE
  5
4D
330
1F
100
AcDbEntity
  8
layer 1
 62
     7
370
    20
100
AcDbSpline
210
0.0
220
0.0
230
1.0
 70
    11
 71
     3
 72
    16
 73
    12
 74
     0
 42
0.0000000001
 43
0.0000000001
 12
1.0
 22
0.0
 32
0.0
 13
1.0
 23
0.0
 33
0.0
 40
0.0
 40
0.0
 40
0.0
 40
0.0
 40
0.25
 40
0.25
 40
0.25
 40
0.25
 40
0.5
 40
0.5
 40
0.5
 40
0.5
 40
1.0
 40
1.0
 40
1.0
 40
1.0
 10
5.1288
 20
4.1169
 30
0.0
 10
6.3512
 20
3.475
 30
0.0
 10
7.6515
 20
3.518
 30
0.0
 10
8.9827
 20
4.1469
 30
0.0
 10
8.9827
 20
4.1469
 30
0.0
 10
17.9208
 20
-9.7447
 30
0.0
 10
7.5895
 20
-9.9771
 30
0.0
 10
7.0228
 20
-13.9018
 30
0.0
 10
7.0228
 20
-13.9018
 30
0.0
 10
5.5819
 20
-9.3524
 30
0.0
 10
-3.6166
 20
-9.7262
 30
0.0
 10
5.1288
 20
4.1169
 30
0.0
  0
SPLINE
  5
4E
330
1F
100
AcDbEntity
  8
layer 1
 62
     7
370
    20
100
AcDbSpline
210
0.0
220
0.0
230
1.0
 70
    11
 71
     3
 72
    20
 73
    16
 74
     0
 42
0.0000000001
 43
0.0000000001
 12
1.0
 22
0.0
 32
0.0
 13
1.0
 23
0.0
 33
0.0
 40
0.0
 40
0.0
 40
0.0
 40
0.0
 40
0.2
 40
0.2
 40
0.2
 40
0.2
 40
0.4
 40
0.4
 40
0.4
 40
0.4
 40
0.6
 40
0.6
 40
0.6
 40
0.6
 40
1.0
 40
1.0
 40
1.0
 40
1.0
 10
15.1287
 20
0.3019
 30
0.0
 10
16.8319
 20
-0.3125
 30
0.0
 10
18.5627
 20
-0.8036
 30
0.0
 10
20.3543
 20
-1.0209
 30
0.0
 10
20.3543
 20
-1.0209
 30
0.0
 10
21.0182
 20
-2.5986
 30
0.0
 10
21.3001
 20
-3.9852
 30
0.0
 10
21.3465
 20
-5.2542
 30
0.0
 10
21.3465
 20
-5.2542
 30
0.0
 10
19.781
 20
-5.0921
 30
0.0
 10
18.2156
 20
-4.6669
 30
0.0
 10
16.6501
 20
-4.0637
 30
0.0
 10
16.6501
 20
-4.0637
 30
0.0
 10
16.479
 20
-2.6714
 30
0.0
 10
16.0055
 20
-1.2226
 30
0.0
 10
15.1287
 20
0.3019
 30
0.0
  0
SPLINE
  5
4F
330
1F
100
AcDbEntity
  8
layer 1
 62
     7
370
    20
100
AcDbSpline
210
0.0
220
0.0
230
1.0
 70
    11
 71
     3
 72
    20
 73
    16
 74
     0
 42
0.0000000001
 43
0.0000000001
 12
1.0
 22
0.0
 32
0.0
 13
1.0
 23
0.0
 33
0.0
 40
0.0
 40
0.0
 40
0.0
 40
0.0
 40
0.2
 40
0.2
 40
0.2
 40
0.2
 40
0.4
 40
0.4
 40
0.4
 40
0.4
 40
0.6
 40
0.6
 40
0.6
 40
0.6
 40
1.0
 40
1.0
 40
1.0
 40
1.0
 10
15.2101
 20
16.0934
 30
0.0
 10
16.9133
 20
16.7078
 30
0.0
 10
18.6441
 20
17.1989
 30
0.0
 10
20.4357
 20
17.4162
 30
0.0
 10
20.4357
 20
17.4162
 30
0.0
 10
21.0996
 20
18.9938
 30
0.0
 10
21.3815
 20
20.3805
 30
0.0
 10
21.4279
 20
21.6495
 30
0.0
 10
21.4279
 20
21.6495
 30
0.0
 10
19.8624
 20
21.4874
 30
0.0
 10
18.297
 20
21.0621
 30
0.0
 10
16.7315
 20
20.459
 30
0.0
 10
16.7315
 20
20.459
 30
0.0
 10
16.5604
 20
19.0668
 30
0.0
 10
16.0869
 20
17.6179
 30
0.0
 10
15.2101
 20
16.0934
 30
0.0
  0
SPLINE
  5
50
330
1F
100
AcDbEntity
  8
layer 1
 62
     7
370
    20
100
AcDbSpline
210
0.0
220
0.0
230
1.0
 70
    11
 71
     3
 72
    16
 73
    12
 74
     0
 42
0.0000000001
 43
0.0000000001
 12
1.0
 22
0.0
 32
0.0
 13
1.0
 23
0.0
 33
0.0
 40
0.0
 40
0.0
 40
0.0
 40
0.0
 40
0.25
 40
0.25
 40
0.25
 40
0.25
 40
0.5
 40
0.5
 40
0.5
 40
0.5
 40
1.0
 40
1.0
 40
1.0
 40
1.0
 10
29.0982
 20
8.17
 30
0.0
 10
25.1734
 20
8.7367
 30
0.0
 10
24.9411
 20
19.0681
 30
0.0
 10
11.0494
 20
10.1299
 30
0.0
 10
11.0494
 20
10.1299
 30
0.0
 10
11.6784
 20
8.7987
 30
0.0
 10
11.7214
 20
7.4985
 30
0.0
 10
11.0794
 20
6.2761
 30
0.0
 10
11.0794
 20
6.2761
 30
0.0
 10
24.9225
 20
-2.4693
 30
0.0
 10
24.5487
 20
6.7292
 30
0.0
 10
29.0982
 20
8.17
 30
0.0
  0
SPLINE
  5
51
330
1F
100
AcDbEntity
  8
layer 1
 62
     7
370
    20
100
AcDbSpline
210
0.0
220
0.0
230
1.0
 70
    11
 71
     3
 72
    28
 73
    24
 74
     0
 42
0.0000000001
 43
0.0000000001
 12
1.0
 22
0.0
 32
0.0
 13
1.0
 23
0.0
 33
0.0
 40
0.0
 40
0.0
 40
0.0
 40
0.0
 40
0.1428571428571428
 40
0.1428571428571428
 40
0.1428571428571428
 40
0.1428571428571428
 40
0.2857142857142857
 40
0.2857142857142857
 40
0.2857142857142857
 40
0.2857142857142857
 40
0.4285714285714285
 40
0.4285714285714285
 40
0.4285714285714285
 40
0.4285714285714285
 40
0.5714285714285714
 40
0.5714285714285714
 40
0.5714285714285714
 40
0.5714285714285714
 40
0.7142857142857143
 40
0.7142857142857143
 40
0.7142857142857143
 40
0.7142857142857143
 40
1.0
 40
1.0
 40
1.0
 40
1.0
 10
28.0677
 20
1.8071
 30
0.0
 10
28.0677
 20
1.8071
 30
0.0
 10
28.1335
 20
-24.5193
 30
0.0
 10
28.1335
 20
-24.5193
 30
0.0
 10
28.1335
 20
-24.5193
 30
0.0
 10
26.1948
 20
-18.3697
 30
0.0
 10
22.0875
 20
-13.4636
 30
0.0
 10
14.5901
 20
-11.3727
 30
0.0
 10
14.5901
 20
-11.3727
 30
0.0
 10
15.4051
 20
-10.3817
 30
0.0
 10
16.1292
 20
-9.0507
 30
0.0
 10
16.4256
 20
-8.115
 30
0.0
 10
16.4256
 20
-8.115
 30
0.0
 10
19.404
 20
-9.1314
 30
0.0
 10
22.333
 20
-9.4576
 30
0.0
 10
25.2231
 20
-9.2395
 30
0.0
 10
25.2231
 20
-9.2395
 30
0.0
 10
25.3832
 20
-6.0953
 30
0.0
 10
25.1071
 20
-3.1893
 30
0.0
 10
24.297
 20
-0.5744
 30
0.0
 10
24.297
 20
-0.5744
 30
0.0
 10
25.8104
 20
-0.254
 30
0.0
 10
27.0838
 20
0.7373
 30
0.0
 10
28.0677
 20
1.8071
 30
0.0
  0
SPLINE
  5
52
330
1F
100
AcDbEntity
  8
layer 1
 62
     7
370
    20
100
AcDbSpline
210
0.0
220
0.0
230
1.0
 70
    11
 71
     3
 72
    36
 73
    32
 74
     0
 42
0.0000000001
 43
0.0000000001
 12
1.0
 22
0.0
 32
0.0
 13
1.0
 23
0.0
 33
0.0
 40
0.0
 40
0.0
 40
0.0
 40
0.0
 40
0.1111111111111111
 40
0.1111111111111111
 40
0.1111111111111111
 40
0.1111111111111111
 40
0.2222222222222222
 40
0.2222222222222222
 40
0.2222222222222222
 40
0.2222222222222222
 40
0.3333333333333333
 40
0.3333333333333333
 40
0.3333333333333333
 40
0.3333333333333333
 40
0.4444444444444444
 40
0.4444444444444444
 40
0.4444444444444444
 40
0.4444444444444444
 40
0.5555555555555556
 40
0.5555555555555556
 40
0.5555555555555556
 40
0.5555555555555556
 40
0.6666666666666666
 40
0.6666666666666666
 40
0.6666666666666666
 40
0.6666666666666666
 40
0.7777777777777778
 40
0.7777777777777778
 40
0.7777777777777778
 40
0.7777777777777778
 40
1.0
 40
1.0
 40
1.0
 40
1.0
 10
-13.4154
 20
124.8927
 30
0.0
 10
-11.182
 20
124.8773
 30
0.0
 10
-9.3537
 20
123.5529
 30
0.0
 10
-7.6938
 20
121.6847
 30
0.0
 10
-7.6938
 20
121.6847
 30
0.0
 10
-7.9185
 20
123.637
 30
0.0
 10
-7.6458
 20
125.0247
 30
0.0
 10
-6.2385
 20
125.1242
 30
0.0
 10
-6.2385
 20
125.1242
 30
0.0
 10
-4.9277
 20
125.152
 30
0.0
 10
-3.911
 20
124.0051
 30
0.0
 10
-3.1297
 20
121.9162
 30
0.0
 10
-3.1297
 20
121.9162
 30
0.0
 10
-1.8425
 20
123.6828
 30
0.0
 10
-0.4381
 20
125.1901
 30
0.0
 10
1.4675
 20
125.5873
 30
0.0
 10
1.4675
 20
125.5873
 30
0.0
 10
3.4199
 20
125.9248
 30
0.0
 10
4.6729
 20
125.4696
 30
0.0
 10
5.304
 20
123.9998
 30
0.0
 10
5.304
 20
123.9998
 30
0.0
 10
6.7423
 20
125.7585
 30
0.0
 10
8.419
 20
126.849
 30
0.0
 10
10.298
 20
127.3732
 30
0.0
 10
10.298
 20
127.3732
 30
0.0
 10
10.298
 20
127.3732
 30
0.0
 10
-13.4154
 20
127.3732
 30
0.0
 10
-13.4154
 20
127.3732
 30
0.0
 10
-13.4154
 20
127.3732
 30
0.0
 10
-13.4154
 20
127.3732
 30
0.0
 10
-13.4154
 20
124.8927
 30
0.0
 10
-13.4154
 20
124.8927
 30
0.0
  0
SPLINE
  5
53
330
1F
100
AcDbEntity
  8
layer 1
 62
     7
370
    20
100
AcDbSpline
210
0.0
220
0.0
230
1.0
 70
    11
 71
     3
 72
    24
 73
    20
 74
     0
 42
0.0000000001
 43
0.0000000001
 12
1.0
 22
0.0
 32
0.0
 13
1.0
 23
0.0
 33
0.0
 40
0.0
 40
0.0
 40
0.0
 40
0.0
 40
0.1666666666666667
 40
0.1666666666666667
 40
0.1666666666666667
 40
0.1666666666666667
 40
0.3333333333333333
 40
0.3333333333333333
 40
0.3333333333333333
 40
0.3333333333333333
 40
0.5
 40
0.5
 40
0.5
 40
0.5
 40
0.6666666666666666
 40
0.6666666666666666
 40
0.6666666666666666
 40
0.6666666666666666
 40
1.0
 40
1.0
 40
1.0
 40
1.0
 10
-13.4446
 20
99.8282
 30
0.0
 10
-11.4849
 20
99.6364
 30
0.0
 10
-9.6935
 20
99.0064
 30
0.0
 10
-7.9545
 20
98.2407
 30
0.0
 10
-7.9545
 20
98.2407
 30
0.0
 10
-10.2469
 20
101.7426
 30
0.0
 10
-11.5492
 20
105.4328
 30
0.0
 10
-11.9894
 20
109.2872
 30
0.0
 10
-11.9894
 20
109.2872
 30
0.0
 10
-11.1275
 20
109.2628
 30
0.0
 10
-10.3157
 20
109.0249
 30
0.0
 10
-9.542
 20
108.6256
 30
0.0
 10
-9.542
 20
108.6256
 30
0.0
 10
-11.5455
 20
111.9504
 30
0.0
 10
-12.885
 20
115.3167
 30
0.0
 10
-13.4777
 20
118.7294
 30
0.0
 10
-13.4777
 20
118.7294
 30
0.0
 10
-13.4777
 20
118.7294
 30
0.0
 10
-13.4446
 20
99.8282
 30
0.0
 10
-13.4446
 20
99.8282
 30
0.0
  0
SPLINE
  5
54
330
1F
100
AcDbEntity
  8
layer 1
 62
     7
370
    20
100
AcDbSpline
210
0.0
220
0.0
230
1.0
 70
    11
 71
     3
 72
    36
 73
    32
 74
     0
 42
0.0000000001
 43
0.0000000001
 12
1.0
 22
0.0
 32
0.0
 13
1.0
 23
0.0
 33
0.0
 40
0.0
 40
0.0
 40
0.0
 40
0.0
 40
0.1111111111111111
 40
0.1111111111111111
 40
0.1111111111111111
 40
0.1111111111111111
 40
0.2222222222222222
 40
0.2222222222222222
 40
0.2222222222222222
 40
0.2222222222222222
 40
0.3333333333333333
 40
0.3333333333333333
 40
0.3333333333333333
 40
0.3333333333333333
 40
0.4444444444444444
 40
0.4444444444444444
 40
0.4444444444444444
 40
0.4444444444444444
 40
0.5555555555555556
 40
0.5555555555555556
 40
0.5555555555555556
 40
0.5555555555555556
 40
0.6666666666666666
 40
0.6666666666666666
 40
0.6666666666666666
 40
0.6666666666666666
 40
0.7777777777777778
 40
0.7777777777777778
 40
0.7777777777777778
 40
0.7777777777777778
 40
1.0
 40
1.0
 40
1.0
 40
1.0
 10
28.0977
 20
56.4231
 30
0.0
 10
28.0977
 20
56.4231
 30
0.0
 10
28.1971
 20
85.4446
 30
0.0
 10
28.1971
 20
85.4446
 30
0.0
 10
28.1971
 20
85.4446
 30
0.0
 10
28.1886
 20
82.9365
 30
0.0
 10
24.9923
 20
79.849
 30
0.0
 10
25.8488
 20
76.3992
 30
0.0
 10
25.8488
 20
76.3992
 30
0.0
 10
22.9784
 20
76.6989
 30
0.0
 10
21.673
 20
78.0797
 30
0.0
 10
22.0217
 20
80.7166
 30
0.0
 10
22.0217
 20
80.7166
 30
0.0
 10
16.586
 20
78.8834
 30
0.0
 10
14.4984
 20
84.4678
 30
0.0
 10
16.8623
 20
86.8021
 30
0.0
 10
16.8623
 20
86.8021
 30
0.0
 10
18.0434
 20
88.4657
 30
0.0
 10
21.9114
 20
88.8682
 30
0.0
 10
23.6328
 20
85.7589
 30
0.0
 10
23.6328
 20
85.7589
 30
0.0
 10
24.1391
 20
89.4427
 30
0.0
 10
21.2912
 20
91.6549
 30
0.0
 10
17.5144
 20
90.819
 30
0.0
 10
17.5144
 20
90.819
 30
0.0
 10
13.0164
 20
89.4103
 30
0.0
 10
11.997
 20
83.2158
 30
0.0
 10
15.2654
 20
79.5742
 30
0.0
 10
15.2654
 20
79.5742
 30
0.0
 10
22.3872
 20
71.8573
 30
0.0
 10
26.9733
 20
64.1401
 30
0.0
 10
28.0977
 20
56.4231
 30
0.0
  0
SPLINE
  5
55
330
1F
100
AcDbEntity
  8
layer 1
 62
     7
370
    20
100
AcDbSpline
210
0.0
220
0.0
230
1.0
 70
    11
 71
     3
 72
    48
 73
    44
 74
     0
 42
0.0000000001
 43
0.0000000001
 12
1.0
 22
0.0
 32
0.0
 13
1.0
 23
0.0
 33
0.0
 40
0.0
 40
0.0
 40
0.0
 40
0.0
 40
0.0833333333333333
 40
0.0833333333333333
 40
0.0833333333333333
 40
0.0833333333333333
 40
0.1666666666666667
 40
0.1666666666666667
 40
0.1666666666666667
 40
0.1666666666666667
 40
0.25
 40
0.25
 40
0.25
 40
0.25
 40
0.3333333333333333
 40
0.3333333333333333
 40
0.3333333333333333
 40
0.3333333333333333
 40
0.4166666666666667
 40
0.4166666666666667
 40
0.4166666666666667
 40
0.4166666666666667
 40
0.5
 40
0.5
 40
0.5
 40
0.5
 40
0.5833333333333334
 40
0.5833333333333334
 40
0.5833333333333334
 40
0.5833333333333334
 40
0.6666666666666666
 40
0.6666666666666666
 40
0.6666666666666666
 40
0.6666666666666666
 40
0.75
 40
0.75
 40
0.75
 40
0.75
 40
0.8333333333333334
 40
0.8333333333333334
 40
0.8333333333333334
 40
0.8333333333333334
 40
1.0
 40
1.0
 40
1.0
 40
1.0
 10
9.8471
 20
87.5163
 30
0.0
 10
11.2602
 20
92.4465
 30
0.0
 10
14.4424
 20
94.9826
 30
0.0
 10
18.876
 20
95.371
 30
0.0
 10
18.876
 20
95.371
 30
0.0
 10
24.2384
 20
95.2634
 30
0.0
 10
27.2171
 20
92.0118
 30
0.0
 10
28.1034
 20
88.3099
 30
0.0
 10
28.1034
 20
88.3099
 30
0.0
 10
28.1034
 20
88.3099
 30
0.0
 10
28.0373
 20
110.0721
 30
0.0
 10
28.0373
 20
110.0721
 30
0.0
 10
28.0373
 20
110.0721
 30
0.0
 10
27.3473
 20
108.2607
 30
0.0
 10
26.0597
 20
107.2973
 30
0.0
 10
24.0024
 20
107.4263
 30
0.0
 10
24.0024
 20
107.4263
 30
0.0
 10
25.7316
 20
105.4493
 30
0.0
 10
26.7887
 20
99.7884
 30
0.0
 10
24.0024
 20
98.232
 30
0.0
 10
24.0024
 20
98.232
 30
0.0
 10
22.44
 20
97.2178
 30
0.0
 10
19.777
 20
98.419
 30
0.0
 10
18.3799
 20
100.4808
 30
0.0
 10
18.3799
 20
100.4808
 30
0.0
 10
15.6887
 20
97.6461
 30
0.0
 10
11.8879
 20
97.2192
 30
0.0
 10
9.2518
 20
99.7532
 30
0.0
 10
9.2518
 20
99.7532
 30
0.0
 10
6.3821
 20
102.7491
 30
0.0
 10
7.0741
 20
106.6541
 30
0.0
 10
10.3101
 20
109.1461
 30
0.0
 10
10.3101
 20
109.1461
 30
0.0
 10
10.8612
 20
103.8514
 30
0.0
 10
17.5095
 20
104.4732
 30
0.0
 10
18.1154
 20
108.2199
 30
0.0
 10
18.1154
 20
108.2199
 30
0.0
 10
19.2509
 20
113.4226
 30
0.0
 10
10.5749
 20
116.4893
 30
0.0
 10
5.8122
 20
110.932
 30
0.0
 10
5.8122
 20
110.932
 30
0.0
 10
1.2086
 20
105.0526
 30
0.0
 10
3.6248
 20
96.8351
 30
0.0
 10
9.8471
 20
87.5163
 30
0.0
  0
SPLINE
  5
56
330
1F
100
AcDbEntity
  8
layer 1
 62
     7
370
    20
100
AcDbSpline
210
0.0
220
0.0
230
1.0
 70
    11
 71
     3
 72
    56
 73
    52
 74
     0
 42
0.0000000001
 43
0.0000000001
 12
1.0
 22
0.0
 32
0.0
 13
1.0
 23
0.0
 33
0.0
 40
0.0
 40
0.0
 40
0.0
 40
0.0
 40
0.0714285714285714
 40
0.0714285714285714
 40
0.0714285714285714
 40
0.0714285714285714
 40
0.1428571428571428
 40
0.1428571428571428
 40
0.1428571428571428
 40
0.1428571428571428
 40
0.2142857142857143
 40
0.2142857142857143
 40
0.2142857142857143
 40
0.2142857142857143
 40
0.2857142857142857
 40
0.2857142857142857
 40
0.2857142857142857
 40
0.2857142857142857
 40
0.3571428571428572
 40
0.3571428571428572
 40
0.3571428571428572
 40
0.3571428571428572
 40
0.4285714285714285
 40
0.4285714285714285
 40
0.4285714285714285
 40
0.4285714285714285
 40
0.5
 40
0.5
 40
0.5
 40
0.5
 40
0.5714285714285714
 40
0.5714285714285714
 40
0.5714285714285714
 40
0.5714285714285714
 40
0.6428571428571429
 40
0.6428571428571429
 40
0.6428571428571429
 40
0.6428571428571429
 40
0.7142857142857143
 40
0.7142857142857143
 40
0.7142857142857143
 40
0.7142857142857143
 40
0.7857142857142857
 40
0.7857142857142857
 40
0.7857142857142857
 40
0.7857142857142857
 40
0.8571428571428571
 40
0.8571428571428571
 40
0.8571428571428571
 40
0.8571428571428571
 40
1.0
 40
1.0
 40
1.0
 40
1.0
 10
2.7283
 20
90.7331
 30
0.0
 10
-0.3863
 20
97.2442
 30
0.0
 10
-1.5654
 20
103.2716
 30
0.0
 10
-0.4467
 20
108.7248
 30
0.0
 10
-0.4467
 20
108.7248
 30
0.0
 10
0.8982
 20
114.6866
 30
0.0
 10
5.4515
 20
117.8554
 30
0.0
 10
11.2612
 20
119.2421
 30
0.0
 10
11.2612
 20
119.2421
 30
0.0
 10
12.4056
 20
119.468
 30
0.0
 10
13.0713
 20
120.1129
 30
0.0
 10
12.8487
 20
120.9619
 30
0.0
 10
12.8487
 20
120.9619
 30
0.0
 10
12.5637
 20
121.608
 30
0.0
 10
12.1178
 20
121.7404
 30
0.0
 10
10.9966
 20
121.7556
 30
0.0
 10
10.9966
 20
121.7556
 30
0.0
 10
8.1095
 20
121.4592
 30
0.0
 10
5.1966
 20
120.4421
 30
0.0
 10
2.2653
 20
118.9113
 30
0.0
 10
2.2653
 20
118.9113
 30
0.0
 10
2.4742
 20
119.8483
 30
0.0
 10
2.85
 20
120.7083
 30
0.0
 10
3.3898
 20
121.4909
 30
0.0
 10
3.3898
 20
121.4909
 30
0.0
 10
0.0546
 20
120.8972
 30
0.0
 10
-2.3814
 20
118.9766
 30
0.0
 10
-3.0264
 20
114.4133
 30
0.0
 10
-3.0264
 20
114.4133
 30
0.0
 10
-3.8438
 20
114.8703
 30
0.0
 10
-4.6124
 20
115.5219
 30
0.0
 10
-5.3415
 20
116.3316
 30
0.0
 10
-5.3415
 20
116.3316
 30
0.0
 10
-5.9926
 20
112.2884
 30
0.0
 10
-5.5724
 20
108.5127
 30
0.0
 10
-3.754
 20
105.0867
 30
0.0
 10
-3.754
 20
105.0867
 30
0.0
 10
-4.7232
 20
105.0341
 30
0.0
 10
-5.8376
 20
105.1228
 30
0.0
 10
-6.7967
 20
106.0129
 30
0.0
 10
-6.7967
 20
106.0129
 30
0.0
 10
-5.9842
 20
103.0689
 30
0.0
 10
-4.8757
 20
100.071
 30
0.0
 10
-3.0925
 20
96.9507
 30
0.0
 10
-3.0925
 20
96.9507
 30
0.0
 10
-3.854
 20
96.7674
 30
0.0
 10
-4.6242
 20
96.7593
 30
0.0
 10
-5.4077
 20
97.017
 30
0.0
 10
-5.4077
 20
97.017
 30
0.0
 10
-2.5363
 20
95.2412
 30
0.0
 10
0.2098
 20
93.2144
 30
0.0
 10
2.7283
 20
90.7331
 30
0.0
  0
SPLINE
  5
57
330
1F
100
AcDbEntity
  8
layer 1
 62
     7
370
    20
100
AcDbSpline
210
0.0
220
0.0
230
1.0
 70
    11
 71
     3
 72
    24
 73
    20
 74
     0
 42
0.0000000001
 43
0.0000000001
 12
1.0
 22
0.0
 32
0.0
 13
1.0
 23
0.0
 33
0.0
 40
0.0
 40
0.0
 40
0.0
 40
0.0
 40
0.1666666666666667
 40
0.1666666666666667
 40
0.1666666666666667
 40
0.1666666666666667
 40
0.3333333333333333
 40
0.3333333333333333
 40
0.3333333333333333
 40
0.3333333333333333
 40
0.5
 40
0.5
 40
0.5
 40
0.5
 40
0.6666666666666666
 40
0.6666666666666666
 40
0.6666666666666666
 40
0.6666666666666666
 40
1.0
 40
1.0
 40
1.0
 40
1.0
 10
18.4884
 20
119.7332
 30
0.0
 10
23.184
 20
119.8065
 30
0.0
 10
26.4158
 20
118.028
 30
0.0
 10
28.1128
 20
114.3091
 30
0.0
 10
28.1128
 20
114.3091
 30
0.0
 10
28.1128
 20
114.3091
 30
0.0
 10
28.1128
 20
127.4061
 30
0.0
 10
28.1128
 20
127.4061
 30
0.0
 10
28.1128
 20
127.4061
 30
0.0
 10
28.1128
 20
127.4061
 30
0.0
 10
17.5624
 20
127.4061
 30
0.0
 10
17.5624
 20
127.4061
 30
0.0
 10
17.5624
 20
127.4061
 30
0.0
 10
19.3643
 20
126.6525
 30
0.0
 10
20.4785
 20
125.4585
 30
0.0
 10
20.7374
 20
123.735
 30
0.0
 10
20.7374
 20
123.735
 30
0.0
 10
20.8894
 20
121.9266
 30
0.0
 10
20.0122
 20
120.6597
 30
0.0
 10
18.4884
 20
119.7332
 30
0.0
  0
SPLINE
  5
58
330
1F
100
AcDbEntity
  8
layer 1
 62
     7
370
    20
100
AcDbSpline
210
0.0
220
0.0
230
1.0
 70
    11
 71
     3
 72
    92
 73
    88
 74
     0
 42
0.0000000001
 43
0.0000000001
 12
1.0
 22
0.0
 32
0.0
 13
1.0
 23
0.0
 33
0.0
 40
0.0
 40
0.0
 40
0.0
 40
0.0
 40
0.0434782608695652
 40
0.0434782608695652
 40
0.0434782608695652
 40
0.0434782608695652
 40
0.0869565217391304
 40
0.0869565217391304
 40
0.0869565217391304
 40
0.0869565217391304
 40
0.1304347826086956
 40
0.1304347826086956
 40
0.1304347826086956
 40
0.1304347826086956
 40
0.1739130434782609
 40
0.1739130434782609
 40
0.1739130434782609
 40
0.1739130434782609
 40
0.2173913043478261
 40
0.2173913043478261
 40
0.2173913043478261
 40
0.2173913043478261
 40
0.2608695652173913
 40
0.2608695652173913
 40
0.2608695652173913
 40
0.2608695652173913
 40
0.3043478260869565
 40
0.3043478260869565
 40
0.3043478260869565
 40
0.3043478260869565
 40
0.3478260869565217
 40
0.3478260869565217
 40
0.3478260869565217
 40
0.3478260869565217
 40
0.391304347826087
 40
0.391304347826087
 40
0.391304347826087
 40
0.391304347826087
 40
0.4347826086956522
 40
0.4347826086956522
 40
0.4347826086956522
 40
0.4347826086956522
 40
0.4782608695652174
 40
0.4782608695652174
 40
0.4782608695652174
 40
0.4782608695652174
 40
0.5217391304347826
 40
0.5217391304347826
 40
0.5217391304347826
 40
0.5217391304347826
 40
0.5652173913043478
 40
0.5652173913043478
 40
0.5652173913043478
 40
0.5652173913043478
 40
0.6086956521739131
 40
0.6086956521739131
 40
0.6086956521739131
 40
0.6086956521739131
 40
0.6521739130434783
 40
0.6521739130434783
 40
0.6521739130434783
 40
0.6521739130434783
 40
0.6956521739130435
 40
0.6956521739130435
 40
0.6956521739130435
 40
0.6956521739130435
 40
0.7391304347826086
 40
0.7391304347826086
 40
0.7391304347826086
 40
0.7391304347826086
 40
0.782608695652174
 40
0.782608695652174
 40
0.782608695652174
 40
0.782608695652174
 40
0.8260869565217391
 40
0.8260869565217391
 40
0.8260869565217391
 40
0.8260869565217391
 40
0.8695652173913043
 40
0.8695652173913043
 40
0.8695652173913043
 40
0.8695652173913043
 40
0.9130434782608695
 40
0.9130434782608695
 40
0.9130434782608695
 40
0.9130434782608695
 40
1.0
 40
1.0
 40
1.0
 40
1.0
 10
-13.4902
 20
-42.3427
 30
0.0
 10
-11.5608
 20
-43.6619
 30
0.0
 10
-9.5326
 20
-42.8114
 30
0.0
 10
-7.4709
 20
-41.2181
 30
0.0
 10
-7.4709
 20
-41.2181
 30
0.0
 10
-7.7585
 20
-42.2764
 30
0.0
 10
-7.7567
 20
-43.3348
 30
0.0
 10
-7.6032
 20
-44.3931
 30
0.0
 10
-7.6032
 20
-44.3931
 30
0.0
 10
-6.8146
 20
-43.8571
 30
0.0
 10
-5.9663
 20
-43.6503
 30
0.0
 10
-5.0896
 20
-43.5995
 30
0.0
 10
-5.0896
 20
-43.5995
 30
0.0
 10
-2.4342
 20
-43.5498
 30
0.0
 10
-0.9153
 20
-41.8134
 30
0.0
 10
-0.5917
 20
-38.6384
 30
0.0
 10
-0.5917
 20
-38.6384
 30
0.0
 10
-0.4525
 20
-36.9688
 30
0.0
 10
0.7352
 20
-36.1685
 30
0.0
 10
1.8557
 20
-36.9187
 30
0.0
 10
1.8557
 20
-36.9187
 30
0.0
 10
2.8014
 20
-37.7589
 30
0.0
 10
2.499
 20
-39.4348
 30
0.0
 10
1.9218
 20
-41.0197
 30
0.0
 10
1.9218
 20
-41.0197
 30
0.0
 10
-0.4413
 20
-45.5983
 30
0.0
 10
-0.2572
 20
-49.3617
 30
0.0
 10
1.7895
 20
-52.5291
 30
0.0
 10
1.7895
 20
-52.5291
 30
0.0
 10
2.8202
 20
-52.3251
 30
0.0
 10
3.5593
 20
-51.8292
 30
0.0
 10
4.1047
 20
-51.14
 30
0.0
 10
4.1047
 20
-51.14
 30
0.0
 10
4.7935
 20
-52.9892
 30
0.0
 10
5.8372
 20
-54.6148
 30
0.0
 10
7.0151
 20
-56.2332
 30
0.0
 10
7.0151
 20
-56.2332
 30
0.0
 10
8.1414
 20
-58.1715
 30
0.0
 10
7.6143
 20
-59.7631
 30
0.0
 10
6.2213
 20
-61.3927
 30
0.0
 10
6.2213
 20
-61.3927
 30
0.0
 10
7.5654
 20
-61.6662
 30
0.0
 10
8.9565
 20
-61.5381
 30
0.0
 10
10.3885
 20
-61.062
 30
0.0
 10
10.3885
 20
-61.062
 30
0.0
 10
6.8793
 20
-64.0498
 30
0.0
 10
3.0961
 20
-66.3479
 30
0.0
 10
-1.7823
 20
-65.8906
 30
0.0
 10
-1.7823
 20
-65.8906
 30
0.0
 10
-4.0065
 20
-65.5819
 30
0.0
 10
-5.6169
 20
-63.6529
 30
0.0
 10
-4.8912
 20
-61.1942
 30
0.0
 10
-4.8912
 20
-61.1942
 30
0.0
 10
-3.7156
 20
-58.17
 30
0.0
 10
0.0239
 20
-58.7237
 30
0.0
 10
1.1942
 20
-60.5328
 30
0.0
 10
1.1942
 20
-60.5328
 30
0.0
 10
1.9861
 20
-58.2036
 30
0.0
 10
1.8637
 20
-55.9604
 30
0.0
 10
-0.1948
 20
-54.1828
 30
0.0
 10
-0.1948
 20
-54.1828
 30
0.0
 10
-1.6698
 20
-53.0909
 30
0.0
 10
-3.3003
 20
-52.8271
 30
0.0
 10
-4.9573
 20
-53.1906
 30
0.0
 10
-4.9573
 20
-53.1906
 30
0.0
 10
-3.0376
 20
-50.6608
 30
0.0
 10
-4.6333
 20
-46.785
 30
0.0
 10
-8.5292
 20
-47.3036
 30
0.0
 10
-8.5292
 20
-47.3036
 30
0.0
 10
-11.2262
 20
-47.865
 30
0.0
 10
-12.1657
 20
-50.0057
 30
0.0
 10
-11.3239
 20
-53.2734
 30
0.0
 10
-11.3239
 20
-53.2734
 30
0.0
 10
-9.8047
 20
-51.6673
 30
0.0
 10
-7.7548
 20
-53.3685
 30
0.0
 10
-8.6615
 20
-54.8442
 30
0.0
 10
-8.6615
 20
-54.8442
 30
0.0
 10
-9.319
 20
-55.8999
 30
0.0
 10
-9.9822
 20
-56.9919
 30
0.0
 10
-9.9183
 20
-58.5483
 30
0.0
 10
-9.9183
 20
-58.5483
 30
0.0
 10
-11.356
 20
-58.0836
 30
0.0
 10
-12.6261
 20
-58.2628
 30
0.0
 10
-13.4902
 20
-60.0037
 30
0.0
 10
-13.4902
 20
-60.0037
 30
0.0
 10
-13.4902
 20
-60.0037
 30
0.0
 10
-13.4902
 20
-42.3427
 30
0.0
 10
-13.4902
 20
-42.3427
 30
0.0
  0
SPLINE
  5
59
330
1F
100
AcDbEntity
  8
layer 1
 62
     7
370
    20
100
AcDbSpline
210
0.0
220
0.0
230
1.0
 70
    11
 71
     3
 72
    40
 73
    36
 74
     0
 42
0.0000000001
 43
0.0000000001
 12
1.0
 22
0.0
 32
0.0
 13
1.0
 23
0.0
 33
0.0
 40
0.0
 40
0.0
 40
0.0
 40
0.0
 40
0.1
 40
0.1
 40
0.1
 40
0.1
 40
0.2
 40
0.2
 40
0.2
 40
0.2
 40
0.3
 40
0.3
 40
0.3
 40
0.3
 40
0.4
 40
0.4
 40
0.4
 40
0.4
 40
0.5
 40
0.5
 40
0.5
 40
0.5
 40
0.6
 40
0.6
 40
0.6
 40
0.6
 40
0.7
 40
0.7
 40
0.7
 40
0.7
 40
0.8
 40
0.8
 40
0.8
 40
0.8
 40
1.0
 40
1.0
 40
1.0
 40
1.0
 10
-13.4736
 20
-22.238
 30
0.0
 10
-12.2305
 20
-25.3225
 30
0.0
 10
-9.1932
 20
-25.5256
 30
0.0
 10
-7.322
 20
-24.1561
 30
0.0
 10
-7.322
 20
-24.1561
 30
0.0
 10
-5.6011
 20
-22.4485
 30
0.0
 10
-5.5973
 20
-19.6791
 30
0.0
 10
-8.1157
 20
-18.2692
 30
0.0
 10
-8.1157
 20
-18.2692
 30
0.0
 10
-4.8815
 20
-17.0492
 30
0.0
 10
-1.5506
 20
-19.1236
 30
0.0
 10
-1.7657
 20
-22.701
 30
0.0
 10
-1.7657
 20
-22.701
 30
0.0
 10
-1.7259
 20
-26.4213
 30
0.0
 10
-0.7063
 20
-29.2366
 30
0.0
 10
0.4833
 20
-31.8953
 30
0.0
 10
0.4833
 20
-31.8953
 30
0.0
 10
-1.4932
 20
-30.4453
 30
0.0
 10
-3.7416
 20
-29.6025
 30
0.0
 10
-6.5944
 20
-29.7786
 30
0.0
 10
-6.5944
 20
-29.7786
 30
0.0
 10
-7.9792
 20
-29.88
 30
0.0
 10
-9.2888
 20
-29.8315
 30
0.0
 10
-10.497
 20
-29.5801
 30
0.0
 10
-10.497
 20
-29.5801
 30
0.0
 10
-10.3829
 20
-30.9086
 30
0.0
 10
-9.8395
 20
-32.1104
 30
0.0
 10
-8.9756
 20
-33.2183
 30
0.0
 10
-8.9756
 20
-33.2183
 30
0.0
 10
-11.308
 20
-34.546
 30
0.0
 10
-12.7729
 20
-36.7411
 30
0.0
 10
-13.4736
 20
-39.7006
 30
0.0
 10
-13.4736
 20
-39.7006
 30
0.0
 10
-13.4736
 20
-39.7006
 30
0.0
 10
-13.4736
 20
-22.238
 30
0.0
 10
-13.4736
 20
-22.238
 30
0.0
  0
SPLINE
  5
5A
330
1F
100
AcDbEntity
  8
layer 1
 62
     7
370
    20
100
AcDbSpline
210
0.0
220
0.0
230
1.0
 70
    11
 71
     3
 72
    16
 73
    12
 74
     0
 42
0.0000000001
 43
0.0000000001
 12
1.0
 22
0.0
 32
0.0
 13
1.0
 23
0.0
 33
0.0
 40
0.0
 40
0.0
 40
0.0
 40
0.0
 40
0.25
 40
0.25
 40
0.25
 40
0.25
 40
0.5
 40
0.5
 40
0.5
 40
0.5
 40
1.0
 40
1.0
 40
1.0
 40
1.0
 10
2.9372
 20
6.3186
 30
0.0
 10
-10.9059
 20
-2.4268
 30
0.0
 10
-10.4847
 20
6.7517
 30
0.0
 10
-15.0342
 20
8.1927
 30
0.0
 10
-15.0342
 20
8.1927
 30
0.0
 10
-11.1094
 20
8.7594
 30
0.0
 10
-10.8768
 20
19.1045
 30
0.0
 10
3.0149
 20
10.1665
 30
0.0
 10
3.0149
 20
10.1665
 30
0.0
 10
2.3859
 20
8.8352
 30
0.0
 10
2.2952
 20
7.5409
 30
0.0
 10
2.9372
 20
6.3186
 30
0.0
  0
SPLINE
  5
5B
330
1F
100
AcDbEntity
  8
layer 1
 62
     7
370
    20
100
AcDbSpline
210
0.0
220
0.0
230
1.0
 70
    11
 71
     3
 72
    36
 73
    32
 74
     0
 42
0.0000000001
 43
0.0000000001
 12
1.0
 22
0.0
 32
0.0
 13
1.0
 23
0.0
 33
0.0
 40
0.0
 40
0.0
 40
0.0
 40
0.0
 40
0.1111111111111111
 40
0.1111111111111111
 40
0.1111111111111111
 40
0.1111111111111111
 40
0.2222222222222222
 40
0.2222222222222222
 40
0.2222222222222222
 40
0.2222222222222222
 40
0.3333333333333333
 40
0.3333333333333333
 40
0.3333333333333333
 40
0.3333333333333333
 40
0.4444444444444444
 40
0.4444444444444444
 40
0.4444444444444444
 40
0.4444444444444444
 40
0.5555555555555556
 40
0.5555555555555556
 40
0.5555555555555556
 40
0.5555555555555556
 40
0.6666666666666666
 40
0.6666666666666666
 40
0.6666666666666666
 40
0.6666666666666666
 40
0.7777777777777778
 40
0.7777777777777778
 40
0.7777777777777778
 40
0.7777777777777778
 40
1.0
 40
1.0
 40
1.0
 40
1.0
 10
-13.5352
 20
1.9093
 30
0.0
 10
-12.5236
 20
0.8281
 30
0.0
 10
-11.4821
 20
0.1833
 30
0.0
 10
-10.1295
 20
-0.3894
 30
0.0
 10
-10.1295
 20
-0.3894
 30
0.0
 10
-10.9927
 20
-3.4549
 30
0.0
 10
-11.0082
 20
-6.3086
 30
0.0
 10
-10.4603
 20
-9.0213
 30
0.0
 10
-10.4603
 20
-9.0213
 30
0.0
 10
-7.3879
 20
-9.5806
 30
0.0
 10
-4.5038
 20
-9.2781
 30
0.0
 10
-1.6959
 20
-8.4261
 30
0.0
 10
-1.6959
 20
-8.4261
 30
0.0
 10
-1.0793
 20
-12.2943
 30
0.0
 10
1.6168
 20
-13.7019
 30
0.0
 10
2.3605
 20
-14.9326
 30
0.0
 10
2.3605
 20
-14.9326
 30
0.0
 10
1.539
 20
-15.7622
 30
0.0
 10
0.9149
 20
-16.5434
 30
0.0
 10
0.4208
 20
-17.488
 30
0.0
 10
0.4208
 20
-17.488
 30
0.0
 10
-1.5634
 20
-14.7224
 30
0.0
 10
-4.1766
 20
-13.1099
 30
0.0
 10
-7.7483
 20
-13.2547
 30
0.0
 10
-7.7483
 20
-13.2547
 30
0.0
 10
-10.6759
 20
-13.5636
 30
0.0
 10
-12.5709
 20
-15.0076
 30
0.0
 10
-13.4699
 20
-17.5211
 30
0.0
 10
-13.4699
 20
-17.5211
 30
0.0
 10
-13.4699
 20
-17.5211
 30
0.0
 10
-13.5352
 20
1.9093
 30
0.0
 10
-13.5352
 20
1.9093
 30
0.0
  0
SPLINE
  5
5C
330
1F
100
AcDbEntity
  8
layer 1
 62
     7
370
    20
100
AcDbSpline
210
0.0
220
0.0
230
1.0
 70
    11
 71
     3
 72
    32
 73
    28
 74
     0
 42
0.0000000001
 43
0.0000000001
 12
1.0
 22
0.0
 32
0.0
 13
1.0
 23
0.0
 33
0.0
 40
0.0
 40
0.0
 40
0.0
 40
0.0
 40
0.125
 40
0.125
 40
0.125
 40
0.125
 40
0.25
 40
0.25
 40
0.25
 40
0.25
 40
0.375
 40
0.375
 40
0.375
 40
0.375
 40
0.5
 40
0.5
 40
0.5
 40
0.5
 40
0.625
 40
0.625
 40
0.625
 40
0.625
 40
0.75
 40
0.75
 40
0.75
 40
0.75
 40
1.0
 40
1.0
 40
1.0
 40
1.0
 10
3.8349
 20
-29.149
 30
0.0
 10
2.0069
 20
-24.9065
 30
0.0
 10
2.3889
 20
-20.8347
 30
0.0
 10
5.0587
 20
-18.0035
 30
0.0
 10
5.0587
 20
-18.0035
 30
0.0
 10
5.0587
 20
-18.0035
 30
0.0
 10
6.9438
 20
-20.9801
 30
0.0
 10
6.9438
 20
-20.9801
 30
0.0
 10
6.9438
 20
-20.9801
 30
0.0
 10
8.379
 20
-18.693
 30
0.0
 10
10.3816
 20
-16.2368
 30
0.0
 10
12.1032
 20
-14.5308
 30
0.0
 10
12.1032
 20
-14.5308
 30
0.0
 10
18.7324
 20
-15.8811
 30
0.0
 10
22.32
 20
-20.445
 30
0.0
 10
24.2741
 20
-26.7347
 30
0.0
 10
24.2741
 20
-26.7347
 30
0.0
 10
21.4427
 20
-24.6217
 30
0.0
 10
18.2755
 20
-23.0811
 30
0.0
 10
14.253
 20
-22.9974
 30
0.0
 10
14.253
 20
-22.9974
 30
0.0
 10
14.6462
 20
-22.306
 30
0.0
 10
14.9667
 20
-21.5196
 30
0.0
 10
15.0798
 20
-20.5831
 30
0.0
 10
15.0798
 20
-20.5831
 30
0.0
 10
8.8281
 20
-20.1759
 30
0.0
 10
5.3232
 20
-23.6467
 30
0.0
 10
3.8349
 20
-29.149
 30
0.0
  0
SPLINE
  5
5D
330
1F
100
AcDbEntity
  8
layer 1
 62
     7
370
    20
100
AcDbSpline
210
0.0
220
0.0
230
1.0
 70
    11
 71
     3
 72
    36
 73
    32
 74
     0
 42
0.0000000001
 43
0.0000000001
 12
1.0
 22
0.0
 32
0.0
 13
1.0
 23
0.0
 33
0.0
 40
0.0
 40
0.0
 40
0.0
 40
0.0
 40
0.1111111111111111
 40
0.1111111111111111
 40
0.1111111111111111
 40
0.1111111111111111
 40
0.2222222222222222
 40
0.2222222222222222
 40
0.2222222222222222
 40
0.2222222222222222
 40
0.3333333333333333
 40
0.3333333333333333
 40
0.3333333333333333
 40
0.3333333333333333
 40
0.4444444444444444
 40
0.4444444444444444
 40
0.4444444444444444
 40
0.4444444444444444
 40
0.5555555555555556
 40
0.5555555555555556
 40
0.5555555555555556
 40
0.5555555555555556
 40
0.6666666666666666
 40
0.6666666666666666
 40
0.6666666666666666
 40
0.6666666666666666
 40
0.7777777777777778
 40
0.7777777777777778
 40
0.7777777777777778
 40
0.7777777777777778
 40
1.0
 40
1.0
 40
1.0
 40
1.0
 10
28.0163
 20
-40.0279
 30
0.0
 10
28.0163
 20
-40.0279
 30
0.0
 10
28.1157
 20
-69.0493
 30
0.0
 10
28.1157
 20
-69.0493
 30
0.0
 10
28.1157
 20
-69.0493
 30
0.0
 10
28.1072
 20
-66.5412
 30
0.0
 10
24.9109
 20
-63.4536
 30
0.0
 10
25.7674
 20
-60.0039
 30
0.0
 10
25.7674
 20
-60.0039
 30
0.0
 10
22.897
 20
-60.3036
 30
0.0
 10
21.5916
 20
-61.6844
 30
0.0
 10
21.9403
 20
-64.3213
 30
0.0
 10
21.9403
 20
-64.3213
 30
0.0
 10
16.5046
 20
-62.4881
 30
0.0
 10
14.417
 20
-68.0725
 30
0.0
 10
16.7809
 20
-70.4068
 30
0.0
 10
16.7809
 20
-70.4068
 30
0.0
 10
17.962
 20
-72.0704
 30
0.0
 10
21.83
 20
-72.4729
 30
0.0
 10
23.5514
 20
-69.3636
 30
0.0
 10
23.5514
 20
-69.3636
 30
0.0
 10
24.0577
 20
-73.0474
 30
0.0
 10
21.2098
 20
-75.2596
 30
0.0
 10
17.433
 20
-74.4238
 30
0.0
 10
17.433
 20
-74.4238
 30
0.0
 10
12.935
 20
-73.0149
 30
0.0
 10
11.9156
 20
-66.8205
 30
0.0
 10
15.184
 20
-63.1789
 30
0.0
 10
15.184
 20
-63.1789
 30
0.0
 10
22.3058
 20
-55.462
 30
0.0
 10
26.8919
 20
-47.7448
 30
0.0
 10
28.0163
 20
-40.0279
 30
0.0
  0
SPLINE
  5
5E
330
1F
100
AcDbEntity
  8
layer 1
 62
     7
370
    20
100
AcDbSpline
210
0.0
220
0.0
230
1.0
 70
    11
 71
     3
 72
    28
 73
    24
 74
     0
 42
0.0000000001
 43
0.0000000001
 12
1.0
 22
0.0
 32
0.0
 13
1.0
 23
0.0
 33
0.0
 40
0.0
 40
0.0
 40
0.0
 40
0.0
 40
0.1428571428571428
 40
0.1428571428571428
 40
0.1428571428571428
 40
0.1428571428571428
 40
0.2857142857142857
 40
0.2857142857142857
 40
0.2857142857142857
 40
0.2857142857142857
 40
0.4285714285714285
 40
0.4285714285714285
 40
0.4285714285714285
 40
0.4285714285714285
 40
0.5714285714285714
 40
0.5714285714285714
 40
0.5714285714285714
 40
0.5714285714285714
 40
0.7142857142857143
 40
0.7142857142857143
 40
0.7142857142857143
 40
0.7142857142857143
 40
1.0
 40
1.0
 40
1.0
 40
1.0
 10
28.1491
 20
14.5882
 30
0.0
 10
28.1491
 20
14.5882
 30
0.0
 10
28.2149
 20
40.9146
 30
0.0
 10
28.2149
 20
40.9146
 30
0.0
 10
28.2149
 20
40.9146
 30
0.0
 10
26.2762
 20
34.765
 30
0.0
 10
22.1689
 20
29.8589
 30
0.0
 10
14.6715
 20
27.7681
 30
0.0
 10
14.6715
 20
27.7681
 30
0.0
 10
15.4865
 20
26.777
 30
0.0
 10
16.2106
 20
25.446
 30
0.0
 10
16.507
 20
24.5103
 30
0.0
 10
16.507
 20
24.5103
 30
0.0
 10
19.4854
 20
25.5267
 30
0.0
 10
22.4144
 20
25.8529
 30
0.0
 10
25.3045
 20
25.6347
 30
0.0
 10
25.3045
 20
25.6347
 30
0.0
 10
25.4646
 20
22.4906
 30
0.0
 10
25.1885
 20
19.5846
 30
0.0
 10
24.3784
 20
16.9697
 30
0.0
 10
24.3784
 20
16.9697
 30
0.0
 10
25.8918
 20
16.6493
 30
0.0
 10
27.1652
 20
15.658
 30
0.0
 10
28.1491
 20
14.5882
 30
0.0
  0
SPLINE
  5
5F
330
1F
100
AcDbEntity
  8
layer 1
 62
     7
370
    20
100
AcDbSpline
210
0.0
220
0.0
230
1.0
 70
    11
 71
     3
 72
    32
 73
    28
 74
     0
 42
0.0000000001
 43
0.0000000001
 12
1.0
 22
0.0
 32
0.0
 13
1.0
 23
0.0
 33
0.0
 40
0.0
 40
0.0
 40
0.0
 40
0.0
 40
0.125
 40
0.125
 40
0.125
 40
0.125
 40
0.25
 40
0.25
 40
0.25
 40
0.25
 40
0.375
 40
0.375
 40
0.375
 40
0.375
 40
0.5
 40
0.5
 40
0.5
 40
0.5
 40
0.625
 40
0.625
 40
0.625
 40
0.625
 40
0.75
 40
0.75
 40
0.75
 40
0.75
 40
1.0
 40
1.0
 40
1.0
 40
1.0
 10
3.9163
 20
45.5443
 30
0.0
 10
2.0883
 20
41.3018
 30
0.0
 10
2.4703
 20
37.23
 30
0.0
 10
5.1401
 20
34.3988
 30
0.0
 10
5.1401
 20
34.3988
 30
0.0
 10
5.1401
 20
34.3988
 30
0.0
 10
7.0252
 20
37.3754
 30
0.0
 10
7.0252
 20
37.3754
 30
0.0
 10
7.0252
 20
37.3754
 30
0.0
 10
8.4604
 20
35.0883
 30
0.0
 10
10.463
 20
32.6322
 30
0.0
 10
12.1846
 20
30.9262
 30
0.0
 10
12.1846
 20
30.9262
 30
0.0
 10
18.8138
 20
32.2764
 30
0.0
 10
22.4014
 20
36.8403
 30
0.0
 10
24.3555
 20
43.13
 30
0.0
 10
24.3555
 20
43.13
 30
0.0
 10
21.5241
 20
41.017
 30
0.0
 10
18.3569
 20
39.4764
 30
0.0
 10
14.3344
 20
39.3928
 30
0.0
 10
14.3344
 20
39.3928
 30
0.0
 10
14.7276
 20
38.7013
 30
0.0
 10
15.0481
 20
37.9149
 30
0.0
 10
15.1612
 20
36.9784
 30
0.0
 10
15.1612
 20
36.9784
 30
0.0
 10
8.9095
 20
36.5712
 30
0.0
 10
5.4046
 20
40.042
 30
0.0
 10
3.9163
 20
45.5443
 30
0.0
  0
SPLINE
  5
60
330
1F
100
AcDbEntity
  8
layer 1
 62
     7
370
    20
100
AcDbSpline
210
0.0
220
0.0
230
1.0
 70
    11
 71
     3
 72
    28
 73
    24
 74
     0
 42
0.0000000001
 43
0.0000000001
 12
1.0
 22
0.0
 32
0.0
 13
1.0
 23
0.0
 33
0.0
 40
0.0
 40
0.0
 40
0.0
 40
0.0
 40
0.1428571428571428
 40
0.1428571428571428
 40
0.1428571428571428
 40
0.1428571428571428
 40
0.2857142857142857
 40
0.2857142857142857
 40
0.2857142857142857
 40
0.2857142857142857
 40
0.4285714285714285
 40
0.4285714285714285
 40
0.4285714285714285
 40
0.4285714285714285
 40
0.5714285714285714
 40
0.5714285714285714
 40
0.5714285714285714
 40
0.5714285714285714
 40
0.7142857142857143
 40
0.7142857142857143
 40
0.7142857142857143
 40
0.7142857142857143
 40
1.0
 40
1.0
 40
1.0
 40
1.0
 10
-13.4366
 20
79.6286
 30
0.0
 10
-12.8064
 20
82.1728
 30
0.0
 10
-11.3329
 20
83.8316
 30
0.0
 10
-8.9387
 20
84.5234
 30
0.0
 10
-8.9387
 20
84.5234
 30
0.0
 10
-10.536
 20
85.9363
 30
0.0
 10
-10.9355
 20
87.5204
 30
0.0
 10
-10.0631
 20
89.286
 30
0.0
 10
-10.0631
 20
89.286
 30
0.0
 10
-8.4215
 20
88.0361
 30
0.0
 10
-6.4576
 20
87.5589
 30
0.0
 10
-4.3746
 20
87.3677
 30
0.0
 10
-4.3746
 20
87.3677
 30
0.0
 10
-2.3414
 20
87.2257
 30
0.0
 10
-0.6151
 20
86.9183
 30
0.0
 10
0.9833
 20
86.2433
 30
0.0
 10
0.9833
 20
86.2433
 30
0.0
 10
-5.2317
 20
89.6983
 30
0.0
 10
-10.3088
 20
93.2833
 30
0.0
 10
-13.4366
 20
97.0912
 30
0.0
 10
-13.4366
 20
97.0912
 30
0.0
 10
-13.4366
 20
97.0912
 30
0.0
 10
-13.4366
 20
79.6286
 30
0.0
 10
-13.4366
 20
79.6286
 30
0.0
  0
SPLINE
  5
61
330
1F
100
AcDbEntity
  8
layer 1
 62
     7
370
    20
100
AcDbSpline
210
0.0
220
0.0
230
1.0
 70
    11
 71
     3
 72
    52
 73
    48
 74
     0
 42
0.0000000001
 43
0.0000000001
 12
1.0
 22
0.0
 32
0.0
 13
1.0
 23
0.0
 33
0.0
 40
0.0
 40
0.0
 40
0.0
 40
0.0
 40
0.0769230769230769
 40
0.0769230769230769
 40
0.0769230769230769
 40
0.0769230769230769
 40
0.1538461538461539
 40
0.1538461538461539
 40
0.1538461538461539
 40
0.1538461538461539
 40
0.2307692307692308
 40
0.2307692307692308
 40
0.2307692307692308
 40
0.2307692307692308
 40
0.3076923076923077
 40
0.3076923076923077
 40
0.3076923076923077
 40
0.3076923076923077
 40
0.3846153846153846
 40
0.3846153846153846
 40
0.3846153846153846
 40
0.3846153846153846
 40
0.4615384615384616
 40
0.4615384615384616
 40
0.4615384615384616
 40
0.4615384615384616
 40
0.5384615384615384
 40
0.5384615384615384
 40
0.5384615384615384
 40
0.5384615384615384
 40
0.6153846153846154
 40
0.6153846153846154
 40
0.6153846153846154
 40
0.6153846153846154
 40
0.6923076923076923
 40
0.6923076923076923
 40
0.6923076923076923
 40
0.6923076923076923
 40
0.7692307692307693
 40
0.7692307692307693
 40
0.7692307692307693
 40
0.7692307692307693
 40
0.8461538461538461
 40
0.8461538461538461
 40
0.8461538461538461
 40
0.8461538461538461
 40
1.0
 40
1.0
 40
1.0
 40
1.0
 10
24.5974
 20
45.6723
 30
0.0
 10
25.8721
 20
56.0694
 30
0.0
 10
21.8783
 20
65.3466
 30
0.0
 10
14.2053
 20
73.8867
 30
0.0
 10
14.2053
 20
73.8867
 30
0.0
 10
16.0391
 20
70.45
 30
0.0
 10
16.3181
 20
66.9163
 30
0.0
 10
15.3298
 20
63.3034
 30
0.0
 10
15.3298
 20
63.3034
 30
0.0
 10
16.7197
 20
63.8719
 30
0.0
 10
18.0849
 20
63.9913
 30
0.0
 10
19.4308
 20
63.7663
 30
0.0
 10
19.4308
 20
63.7663
 30
0.0
 10
18.783
 20
62.6546
 30
0.0
 10
18.4049
 20
61.3694
 30
0.0
 10
18.1079
 20
60.0621
 30
0.0
 10
18.1079
 20
60.0621
 30
0.0
 10
17.2499
 20
56.8973
 30
0.0
 10
14.6003
 20
54.6282
 30
0.0
 10
9.5089
 20
53.5799
 30
0.0
 10
9.5089
 20
53.5799
 30
0.0
 10
7.7857
 20
53.1865
 30
0.0
 10
7.6274
 20
51.2446
 30
0.0
 10
8.5167
 20
50.471
 30
0.0
 10
8.5167
 20
50.471
 30
0.0
 10
9.201
 20
49.8357
 30
0.0
 10
10.1255
 20
49.7225
 30
0.0
 10
10.898
 20
50.4049
 30
0.0
 10
10.898
 20
50.4049
 30
0.0
 10
11.7649
 20
51.3741
 30
0.0
 10
12.8534
 20
51.7066
 30
0.0
 10
14.073
 20
51.6617
 30
0.0
 10
14.073
 20
51.6617
 30
0.0
 10
14.7793
 20
51.6467
 30
0.0
 10
15.4599
 20
51.7209
 30
0.0
 10
16.1235
 20
51.8601
 30
0.0
 10
16.1235
 20
51.8601
 30
0.0
 10
16.1604
 20
50.1232
 30
0.0
 10
15.778
 20
48.68
 30
0.0
 10
14.9329
 20
47.5605
 30
0.0
 10
14.9329
 20
47.5605
 30
0.0
 10
17.3591
 20
48.249
 30
0.0
 10
19.6065
 20
47.8423
 30
0.0
 10
21.6798
 20
46.37
 30
0.0
 10
21.6798
 20
46.37
 30
0.0
 10
22.6186
 20
45.6425
 30
0.0
 10
23.5926
 20
45.4294
 30
0.0
 10
24.5974
 20
45.6723
 30
0.0
  0
SPLINE
  5
62
330
1F
100
AcDbEntity
  8
layer 1
 62
     7
370
    20
100
AcDbSpline
210
0.0
220
0.0
230
1.0
 70
    11
 71
     3
 72
    40
 73
    36
 74
     0
 42
0.0000000001
 43
0.0000000001
 12
1.0
 22
0.0
 32
0.0
 13
1.0
 23
0.0
 33
0.0
 40
0.0
 40
0.0
 40
0.0
 40
0.0
 40
0.1
 40
0.1
 40
0.1
 40
0.1
 40
0.2
 40
0.2
 40
0.2
 40
0.2
 40
0.3
 40
0.3
 40
0.3
 40
0.3
 40
0.4
 40
0.4
 40
0.4
 40
0.4
 40
0.5
 40
0.5
 40
0.5
 40
0.5
 40
0.6
 40
0.6
 40
0.6
 40
0.6
 40
0.7
 40
0.7
 40
0.7
 40
0.7
 40
0.8
 40
0.8
 40
0.8
 40
0.8
 40
1.0
 40
1.0
 40
1.0
 40
1.0
 10
-13.3922
 20
38.6333
 30
0.0
 10
-12.1491
 20
41.7178
 30
0.0
 10
-9.1118
 20
41.9209
 30
0.0
 10
-7.2406
 20
40.5514
 30
0.0
 10
-7.2406
 20
40.5514
 30
0.0
 10
-5.5197
 20
38.8438
 30
0.0
 10
-5.5159
 20
36.0745
 30
0.0
 10
-8.0343
 20
34.6645
 30
0.0
 10
-8.0343
 20
34.6645
 30
0.0
 10
-4.8001
 20
33.4445
 30
0.0
 10
-1.4692
 20
35.5189
 30
0.0
 10
-1.6843
 20
39.0963
 30
0.0
 10
-1.6843
 20
39.0963
 30
0.0
 10
-1.6445
 20
42.8166
 30
0.0
 10
-0.6249
 20
45.6319
 30
0.0
 10
0.5647
 20
48.2907
 30
0.0
 10
0.5647
 20
48.2907
 30
0.0
 10
-1.4118
 20
46.8406
 30
0.0
 10
-3.6602
 20
45.9978
 30
0.0
 10
-6.513
 20
46.174
 30
0.0
 10
-6.513
 20
46.174
 30
0.0
 10
-7.8978
 20
46.2752
 30
0.0
 10
-9.2074
 20
46.2268
 30
0.0
 10
-10.4156
 20
45.9754
 30
0.0
 10
-10.4156
 20
45.9754
 30
0.0
 10
-10.3015
 20
47.3039
 30
0.0
 10
-9.7581
 20
48.5057
 30
0.0
 10
-8.8942
 20
49.6135
 30
0.0
 10
-8.8942
 20
49.6135
 30
0.0
 10
-11.2266
 20
50.9414
 30
0.0
 10
-12.6915
 20
53.1364
 30
0.0
 10
-13.3922
 20
56.0959
 30
0.0
 10
-13.3922
 20
56.0959
 30
0.0
 10
-13.3922
 20
56.0959
 30
0.0
 10
-13.3922
 20
38.6333
 30
0.0
 10
-13.3922
 20
38.6333
 30
0.0
  0
SPLINE
  5
63
330
1F
100
AcDbEntity
  8
layer 1
 62
     7
370
    20
100
AcDbSpline
210
0.0
220
0.0
230
1.0
 70
    11
 71
     3
 72
    92
 73
    88
 74
     0
 42
0.0000000001
 43
0.0000000001
 12
1.0
 22
0.0
 32
0.0
 13
1.0
 23
0.0
 33
0.0
 40
0.0
 40
0.0
 40
0.0
 40
0.0
 40
0.0434782608695652
 40
0.0434782608695652
 40
0.0434782608695652
 40
0.0434782608695652
 40
0.0869565217391304
 40
0.0869565217391304
 40
0.0869565217391304
 40
0.0869565217391304
 40
0.1304347826086956
 40
0.1304347826086956
 40
0.1304347826086956
 40
0.1304347826086956
 40
0.1739130434782609
 40
0.1739130434782609
 40
0.1739130434782609
 40
0.1739130434782609
 40
0.2173913043478261
 40
0.2173913043478261
 40
0.2173913043478261
 40
0.2173913043478261
 40
0.2608695652173913
 40
0.2608695652173913
 40
0.2608695652173913
 40
0.2608695652173913
 40
0.3043478260869565
 40
0.3043478260869565
 40
0.3043478260869565
 40
0.3043478260869565
 40
0.3478260869565217
 40
0.3478260869565217
 40
0.3478260869565217
 40
0.3478260869565217
 40
0.391304347826087
 40
0.391304347826087
 40
0.391304347826087
 40
0.391304347826087
 40
0.4347826086956522
 40
0.4347826086956522
 40
0.4347826086956522
 40
0.4347826086956522
 40
0.4782608695652174
 40
0.4782608695652174
 40
0.4782608695652174
 40
0.4782608695652174
 40
0.5217391304347826
 40
0.5217391304347826
 40
0.5217391304347826
 40
0.5217391304347826
 40
0.5652173913043478
 40
0.5652173913043478
 40
0.5652173913043478
 40
0.5652173913043478
 40
0.6086956521739131
 40
0.6086956521739131
 40
0.6086956521739131
 40
0.6086956521739131
 40
0.6521739130434783
 40
0.6521739130434783
 40
0.6521739130434783
 40
0.6521739130434783
 40
0.6956521739130435
 40
0.6956521739130435
 40
0.6956521739130435
 40
0.6956521739130435
 40
0.7391304347826086
 40
0.7391304347826086
 40
0.7391304347826086
 40
0.7391304347826086
 40
0.782608695652174
 40
0.782608695652174
 40
0.782608695652174
 40
0.782608695652174
 40
0.8260869565217391
 40
0.8260869565217391
 40
0.8260869565217391
 40
0.8260869565217391
 40
0.8695652173913043
 40
0.8695652173913043
 40
0.8695652173913043
 40
0.8695652173913043
 40
0.9130434782608695
 40
0.9130434782608695
 40
0.9130434782608695
 40
0.9130434782608695
 40
1.0
 40
1.0
 40
1.0
 40
1.0
 10
-13.4088
 20
58.738
 30
0.0
 10
-11.4794
 20
60.0572
 30
0.0
 10
-9.4512
 20
59.2067
 30
0.0
 10
-7.3895
 20
57.6134
 30
0.0
 10
-7.3895
 20
57.6134
 30
0.0
 10
-7.6771
 20
58.6717
 30
0.0
 10
-7.6753
 20
59.7301
 30
0.0
 10
-7.5218
 20
60.7884
 30
0.0
 10
-7.5218
 20
60.7884
 30
0.0
 10
-6.7332
 20
60.2524
 30
0.0
 10
-5.8849
 20
60.0456
 30
0.0
 10
-5.0082
 20
59.9948
 30
0.0
 10
-5.0082
 20
59.9948
 30
0.0
 10
-2.3528
 20
59.9451
 30
0.0
 10
-0.8339
 20
58.2088
 30
0.0
 10
-0.5103
 20
55.0338
 30
0.0
 10
-0.5103
 20
55.0338
 30
0.0
 10
-0.3711
 20
53.3641
 30
0.0
 10
0.8166
 20
52.5639
 30
0.0
 10
1.9371
 20
53.314
 30
0.0
 10
1.9371
 20
53.314
 30
0.0
 10
2.8828
 20
54.1542
 30
0.0
 10
2.5804
 20
55.8301
 30
0.0
 10
2.0032
 20
57.415
 30
0.0
 10
2.0032
 20
57.415
 30
0.0
 10
-0.3599
 20
61.9936
 30
0.0
 10
-0.1758
 20
65.757
 30
0.0
 10
1.8709
 20
68.9244
 30
0.0
 10
1.8709
 20
68.9244
 30
0.0
 10
2.9016
 20
68.7204
 30
0.0
 10
3.6407
 20
68.2245
 30
0.0
 10
4.1861
 20
67.5354
 30
0.0
 10
4.1861
 20
67.5354
 30
0.0
 10
4.8749
 20
69.3845
 30
0.0
 10
5.9186
 20
71.0101
 30
0.0
 10
7.0965
 20
72.6285
 30
0.0
 10
7.0965
 20
72.6285
 30
0.0
 10
8.2228
 20
74.5668
 30
0.0
 10
7.6957
 20
76.1584
 30
0.0
 10
6.3027
 20
77.788
 30
0.0
 10
6.3027
 20
77.788
 30
0.0
 10
7.6468
 20
78.0615
 30
0.0
 10
9.0379
 20
77.9334
 30
0.0
 10
10.4699
 20
77.4573
 30
0.0
 10
10.4699
 20
77.4573
 30
0.0
 10
6.9607
 20
80.4451
 30
0.0
 10
3.1775
 20
82.7432
 30
0.0
 10
-1.7009
 20
82.2858
 30
0.0
 10
-1.7009
 20
82.2858
 30
0.0
 10
-3.9251
 20
81.9772
 30
0.0
 10
-5.5355
 20
80.0482
 30
0.0
 10
-4.8098
 20
77.5896
 30
0.0
 10
-4.8098
 20
77.5896
 30
0.0
 10
-3.6342
 20
74.5653
 30
0.0
 10
0.1053
 20
75.1191
 30
0.0
 10
1.2756
 20
76.9281
 30
0.0
 10
1.2756
 20
76.9281
 30
0.0
 10
2.0675
 20
74.5989
 30
0.0
 10
1.9451
 20
72.3556
 30
0.0
 10
-0.1134
 20
70.5781
 30
0.0
 10
-0.1134
 20
70.5781
 30
0.0
 10
-1.5884
 20
69.4862
 30
0.0
 10
-3.2189
 20
69.2223
 30
0.0
 10
-4.8759
 20
69.5858
 30
0.0
 10
-4.8759
 20
69.5858
 30
0.0
 10
-2.9562
 20
67.0561
 30
0.0
 10
-4.5519
 20
63.1803
 30
0.0
 10
-8.4478
 20
63.6989
 30
0.0
 10
-8.4478
 20
63.6989
 30
0.0
 10
-11.1448
 20
64.2602
 30
0.0
 10
-12.0843
 20
66.401
 30
0.0
 10
-11.2425
 20
69.6686
 30
0.0
 10
-11.2425
 20
69.6686
 30
0.0
 10
-9.7233
 20
68.0626
 30
0.0
 10
-7.6734
 20
69.7638
 30
0.0
 10
-8.5801
 20
71.2396
 30
0.0
 10
-8.5801
 20
71.2396
 30
0.0
 10
-9.2376
 20
72.2951
 30
0.0
 10
-9.9008
 20
73.3872
 30
0.0
 10
-9.8369
 20
74.9436
 30
0.0
 10
-9.8369
 20
74.9436
 30
0.0
 10
-11.2746
 20
74.4789
 30
0.0
 10
-12.5447
 20
74.6581
 30
0.0
 10
-13.4088
 20
76.399
 30
0.0
 10
-13.4088
 20
76.399
 30
0.0
 10
-13.4088
 20
76.399
 30
0.0
 10
-13.4088
 20
58.738
 30
0.0
 10
-13.4088
 20
58.738
 30
0.0
  0
ENDSEC
  0
SECTION
  2
OBJECTS
  0
DICTIONARY
  5
C
330
0
100
AcDbDictionary
281
     1
  3
ACAD_GROUP
350
D
  3
ACAD_LAYOUT
350
1A
  3
ACAD_MATERIAL
350
3B
  3
ACAD_MLEADERSTYLE
350
86
  3
ACAD_MLINESTYLE
350
17
  3
ACAD_PLOTSETTINGS
350
19
  3
ACAD_PLOTSTYLENAME
350
E
  3
ACAD_TABLESTYLE
350
85
  3
ACAD_VISUALSTYLE
350
2A
  0
DICTIONARY
  5
D
102
{ACAD_REACTORS
330
C
102
}
330
C
100
AcDbDictionary
281
     1
  0
DICTIONARY
  5
1A
102
{ACAD_REACTORS
330
C
102
}
330
C
100
AcDbDictionary
281
     1
  3
Layout1
350
1E
  3
Layout2
350
26
  3
Model
350
22
  0
DICTIONARY
  5
3B
102
{ACAD_REACTORS
330
C
102
}
330
C
100
AcDbDictionary
281
     1
  3
ByBlock
350
3D
  3
ByLayer
350
3C
  3
Global
350
3E
  0
DICTIONARY
  5
86
102
{ACAD_REACTORS
330
C
102
}
330
C
100
AcDbDictionary
281
     1
  0
DICTIONARY
  5
17
102
{ACAD_REACTORS
330
C
102
}
330
C
100
AcDbDictionary
281
     1
  3
Standard
350
18
  0
DICTIONARY
  5
19
102
{ACAD_REACTORS
330
C
102
}
330
C
100
AcDbDictionary
281
     1
  0
ACDBDICTIONARYWDFLT
  5
E
102
{ACAD_REACTORS
330
C
102
}
330
C
100
AcDbDictionary
281
     1
  3
Normal
350
F
100
AcDbDictionaryWithDefault
340
F
  0
DICTIONARY
  5
85
102
{ACAD_REACTORS
330
C
102
}
330
C
100
AcDbDictionary
281
     1
  0
DICTIONARY
  5
2A
102
{ACAD_REACTORS
330
C
102
}
330
C
100
AcDbDictionary
281
     1
  3
2dWireframe
350
2F
  3
3D Hidden
350
31
  3
3dWireframe
350
30
  3
Basic
350
32
  3
Brighten
350
36
  3
ColorChange
350
3A
  3
Conceptual
350
34
  3
Dim
350
35
  3
Facepattern
350
39
  3
Flat
350
2B
  3
FlatWithEdges
350
2C
  3
Gouraud
350
2D
  3
GouraudWithEdges
350
2E
  3
Linepattern
350
38
  3
Realistic
350
33
  3
Thicken
350
37
  0
LAYOUT
  5
1E
102
{ACAD_REACTORS
330
1A
102
}
330
1A
100
AcDbPlotSettings
  1

  2
none_device
  4

  6

 40
0.0
 41
0.0
 42
0.0
 43
0.0
 44
0.0
 45
0.0
 46
0.0
 47
0.0
 48
0.0
 49
0.0
140
0.0
141
0.0
142
1.0
143
1.0
 70
   688
 72
     0
 73
     0
 74
     5
  7

 75
    16
 76
     0
 77
     2
 78
   300
147
1.0
148
0.0
149
0.0
100
AcDbLayout
  1
Layout1
 70
     1
 71
     1
 10
0.0
 20
0.0
 11
12.0
 21
9.0
 12
0.0
 22
0.0
 32
0.0
 14
1.000000000000000E+20
 24
1.000000000000000E+20
 34
1.000000000000000E+20
 15
-1.000000000000000E+20
 25
-1.000000000000000E+20
 35
-1.000000000000000E+20
146
0.0
 13
0.0
 23
0.0
 33
0.0
 16
1.0
 26
0.0
 36
0.0
 17
0.0
 27
1.0
 37
0.0
 76
     0
330
1B
  0
LAYOUT
  5
26
102
{ACAD_REACTORS
330
1A
102
}
330
1A
100
AcDbPlotSettings
  1

  2
none_device
  4

  6

 40
0.0
 41
0.0
 42
0.0
 43
0.0
 44
0.0
 45
0.0
 46
0.0
 47
0.0
 48
0.0
 49
0.0
140
0.0
141
0.0
142
1.0
143
1.0
 70
   688
 72
     0
 73
     0
 74
     5
  7

 75
    16
 76
     0
 77
     2
 78
   300
147
1.0
148
0.0
149
0.0
100
AcDbLayout
  1
Layout2
 70
     1
 71
     2
 10
0.0
 20
0.0
 11
0.0
 21
0.0
 12
0.0
 22
0.0
 32
0.0
 14
0.0
 24
0.0
 34
0.0
 15
0.0
 25
0.0
 35
0.0
146
0.0
 13
0.0
 23
0.0
 33
0.0
 16
1.0
 26
0.0
 36
0.0
 17
0.0
 27
1.0
 37
0.0
 76
     0
330
23
  0
LAYOUT
  5
22
102
{ACAD_REACTORS
330
1A
102
}
330
1A
100
AcDbPlotSettings
  1

  2
none_device
  4

  6

 40
0.0
 41
0.0
 42
0.0
 43
0.0
 44
0.0
 45
0.0
 46
0.0
 47
0.0
 48
0.0
 49
0.0
140
0.0
141
0.0
142
1.0
143
1.0
 70
  1712
 72
     0
 73
     0
 74
     0
  7

 75
     0
 76
     0
 77
     2
 78
   300
147
1.0
148
0.0
149
0.0
100
AcDbLayout
  1
Model
 70
     1
 71
     0
 10
0.0
 20
0.0
 11
12.0
 21
9.0
 12
0.0
 22
0.0
 32
0.0
 14
-21.1053
 24
-115.2919
 34
0.0
 15
35.1692
 25
131.6872
 35
0.0
146
0.0
 13
0.0
 23
0.0
 33
0.0
 16
1.0
 26
0.0
 36
0.0
 17
0.0
 27
1.0
 37
0.0
 76
     0
330
1F
331
29
  0
MATERIAL
  5
3D
102
{ACAD_REACTORS
330
3B
102
}
330
3B
100
AcDbMaterial
  1
ByBlock
 72
     1
 94
      127
  0
MATERIAL
  5
3C
102
{ACAD_REACTORS
330
3B
102
}
330
3B
100
AcDbMaterial
  1
ByLayer
 72
     1
 94
      127
  0
MATERIAL
  5
3E
102
{ACAD_REACTORS
330
3B
102
}
330
3B
100
AcDbMaterial
  1
Global
 72
     1
 94
      127
  0
MLINESTYLE
  5
18
102
{ACAD_REACTORS
330
17
102
}
330
17
100
AcDbMlineStyle
  2
Standard
 70
     0
  3

 62
   256
 51
90.0
 52
90.0
 71
     2
 49
0.5
 62
   256
  6
BYLAYER
 49
-0.5
 62
   256
  6
BYLAYER
  0
ACDBPLACEHOLDER
  5
F
102
{ACAD_REACTORS
330
E
102
}
330
E
  0
VISUALSTYLE
  5
2F
102
{ACAD_REACTORS
330
2A
102
}
102
{ACAD_XDICTIONARY
360
6D
102
}
330
2A
100
AcDbVisualStyle
  2
2dWireframe
 70
     4
 71
     0
 72
     2
 73
     0
 90
        0
 40
-0.6
 41
-30.0
 62
     5
 63
     7
421
 16777215
 74
     1
 91
        4
 64
     7
 65
   257
 75
     1
175
     1
 42
1.0
 92
        0
 66
   257
 43
1.0
 76
     1
 77
     6
 78
     2
 67
     7
 79
     5
170
     0
171
     0
290
     0
174
     0
 93
        1
 44
0.0
173
     0
291
     0
 45
0.0
  0
VISUALSTYLE
  5
31
102
{ACAD_REACTORS
330
2A
102
}
102
{ACAD_XDICTIONARY
360
71
102
}
330
2A
100
AcDbVisualStyle
  2
3D Hidden
 70
     6
 71
     1
 72
     2
 73
     2
 90
        0
 40
-0.6
 41
-30.0
 62
     5
 63
     7
421
 16777215
 74
     2
 91
        2
 64
     7
 65
   257
 75
     2
175
     1
 42
40.0
 92
        0
 66
   257
 43
1.0
 76
     1
 77
     6
 78
     2
 67
     7
 79
     3
170
     0
171
     0
290
     0
174
     0
 93
        1
 44
0.0
173
     0
291
     0
 45
0.0
  0
VISUALSTYLE
  5
30
102
{ACAD_REACTORS
330
2A
102
}
102
{ACAD_XDICTIONARY
360
6F
102
}
330
2A
100
AcDbVisualStyle
  2
3dWireframe
 70
     5
 71
     0
 72
     2
 73
     0
 90
        0
 40
-0.6
 41
-30.0
 62
     5
 63
     7
421
 16777215
 74
     1
 91
        4
 64
     7
 65
   257
 75
     1
175
     1
 42
1.0
 92
        0
 66
   257
 43
1.0
 76
     1
 77
     6
 78
     2
 67
     7
 79
     5
170
     0
171
     0
290
     0
174
     0
 93
        1
 44
0.0
173
     0
291
     0
 45
0.0
  0
VISUALSTYLE
  5
32
102
{ACAD_REACTORS
330
2A
102
}
102
{ACAD_XDICTIONARY
360
73
102
}
330
2A
100
AcDbVisualStyle
  2
Basic
 70
     7
 71
     1
 72
     0
 73
     1
 90
        0
 40
-0.6
 41
-30.0
 62
     5
 63
     7
421
 16777215
 74
     0
 91
        4
 64
     7
 65
   257
 75
     1
175
     1
 42
1.0
 92
        8
 66
     7
 43
1.0
 76
     1
 77
     6
 78
     2
 67
     7
 79
     5
170
     0
171
     0
290
     0
174
     0
 93
        1
 44
0.0
173
     0
291
     1
 45
0.0
  0
VISUALSTYLE
  5
36
102
{ACAD_REACTORS
330
2A
102
}
102
{ACAD_XDICTIONARY
360
7B
102
}
330
2A
100
AcDbVisualStyle
  2
Brighten
 70
    12
 71
     2
 72
     2
 73
     0
 90
        0
 40
-0.6
 41
-30.0
 62
     5
 63
     7
421
 16777215
 74
     1
 91
        4
 64
     7
 65
   257
 75
     1
175
     1
 42
1.0
 92
        8
 66
     7
 43
1.0
 76
     1
 77
     6
 78
     2
 67
     7
 79
     5
170
     0
171
     0
290
     0
174
     0
 93
        1
 44
50.0
173
     0
291
     1
 45
0.0
  0
VISUALSTYLE
  5
3A
102
{ACAD_REACTORS
330
2A
102
}
102
{ACAD_XDICTIONARY
360
83
102
}
330
2A
100
AcDbVisualStyle
  2
ColorChange
 70
    16
 71
     2
 72
     2
 73
     3
 90
        0
 40
-0.6
 41
-30.0
 62
     5
 63
     8
421
  8421504
 74
     1
 91
        4
 64
     7
 65
   257
 75
     1
175
     1
 42
1.0
 92
        8
 66
     8
424
  8421504
 43
1.0
 76
     1
 77
     6
 78
     2
 67
     7
 79
     5
170
     0
171
     0
290
     0
174
     0
 93
        1
 44
0.0
173
     0
291
     1
 45
0.0
  0
VISUALSTYLE
  5
34
102
{ACAD_REACTORS
330
2A
102
}
102
{ACAD_XDICTIONARY
360
77
102
}
330
2A
100
AcDbVisualStyle
  2
Conceptual
 70
     9
 71
     3
 72
     2
 73
     0
 90
        0
 40
-0.6
 41
-30.0
 62
     5
 63
     7
421
 16777215
 74
     2
 91
        2
 64
     7
 65
   257
 75
     1
175
     1
 42
40.0
 92
        8
 66
     7
 43
1.0
 76
     1
 77
     6
 78
     2
 67
     7
 79
     3
170
     0
171
     0
290
     0
174
     0
 93
        1
 44
0.0
173
     0
291
     0
 45
0.0
  0
VISUALSTYLE
  5
35
102
{ACAD_REACTORS
330
2A
102
}
102
{ACAD_XDICTIONARY
360
79
102
}
330
2A
100
AcDbVisualStyle
  2
Dim
 70
    11
 71
     2
 72
     2
 73
     0
 90
        0
 40
-0.6
 41
-30.0
 62
     5
 63
     7
421
 16777215
 74
     1
 91
        4
 64
     7
 65
   257
 75
     1
175
     1
 42
1.0
 92
        8
 66
     7
 43
1.0
 76
     1
 77
     6
 78
     2
 67
     7
 79
     5
170
     0
171
     0
290
     0
174
     0
 93
        1
 44
-50.0
173
     0
291
     1
 45
0.0
  0
VISUALSTYLE
  5
39
102
{ACAD_REACTORS
330
2A
102
}
102
{ACAD_XDICTIONARY
360
81
102
}
330
2A
100
AcDbVisualStyle
  2
Facepattern
 70
    15
 71
     2
 72
     2
 73
     0
 90
        0
 40
-0.6
 41
-30.0
 62
     5
 63
     7
421
 16777215
 74
     1
 91
        4
 64
     7
 65
   257
 75
     1
175
     1
 42
1.0
 92
        8
 66
     7
 43
1.0
 76
     1
 77
     6
 78
     2
 67
     7
 79
     5
170
     0
171
     0
290
     0
174
     0
 93
        1
 44
0.0
173
     0
291
     1
 45
0.0
  0
VISUALSTYLE
  5
2B
102
{ACAD_REACTORS
330
2A
102
}
102
{ACAD_XDICTIONARY
360
65
102
}
330
2A
100
AcDbVisualStyle
  2
Flat
 70
     0
 71
     2
 72
     1
 73
     1
 90
        2
 40
-0.6
 41
30.0
 62
     5
 63
     7
421
 16777215
 74
     0
 91
        4
 64
     7
 65
   257
 75
     1
175
     1
 42
1.0
 92
        8
 66
     7
 43
1.0
 76
     1
 77
     6
 78
     2
 67
     7
 79
     5
170
     0
171
     0
290
     0
174
     0
 93
       13
 44
0.0
173
     0
291
     1
 45
0.0
  0
VISUALSTYLE
  5
2C
102
{ACAD_REACTORS
330
2A
102
}
102
{ACAD_XDICTIONARY
360
67
102
}
330
2A
100
AcDbVisualStyle
  2
FlatWithEdges
 70
     1
 71
     2
 72
     1
 73
     1
 90
        2
 40
-0.6
 41
30.0
 62
     5
 63
     7
421
 16777215
 74
     1
 91
        4
 64
     7
 65
   257
 75
     1
175
     1
 42
1.0
 92
        0
 66
   257
 43
1.0
 76
     1
 77
     6
 78
     2
 67
     7
 79
     5
170
     0
171
     0
290
     0
174
     0
 93
       13
 44
0.0
173
     0
291
     1
 45
0.0
  0
VISUALSTYLE
  5
2D
102
{ACAD_REACTORS
330
2A
102
}
102
{ACAD_XDICTIONARY
360
69
102
}
330
2A
100
AcDbVisualStyle
  2
Gouraud
 70
     2
 71
     2
 72
     2
 73
     1
 90
        2
 40
-0.6
 41
30.0
 62
     5
 63
     7
421
 16777215
 74
     0
 91
        4
 64
     7
 65
   257
 75
     1
175
     1
 42
1.0
 92
        0
 66
     7
 43
1.0
 76
     1
 77
     6
 78
     2
 67
     7
 79
     5
170
     0
171
     0
290
     0
174
     0
 93
       13
 44
0.0
173
     0
291
     1
 45
0.0
  0
VISUALSTYLE
  5
2E
102
{ACAD_REACTORS
330
2A
102
}
102
{ACAD_XDICTIONARY
360
6B
102
}
330
2A
100
AcDbVisualStyle
  2
GouraudWithEdges
 70
     3
 71
     2
 72
     2
 73
     1
 90
        2
 40
-0.6
 41
30.0
 62
     5
 63
     7
421
 16777215
 74
     1
 91
        4
 64
     7
 65
   257
 75
     1
175
     1
 42
1.0
 92
        0
 66
   257
 43
1.0
 76
     1
 77
     6
 78
     2
 67
     7
 79
     5
170
     0
171
     0
290
     0
174
     0
 93
       13
 44
0.0
173
     0
291
     1
 45
0.0
  0
VISUALSTYLE
  5
38
102
{ACAD_REACTORS
330
2A
102
}
102
{ACAD_XDICTIONARY
360
7F
102
}
330
2A
100
AcDbVisualStyle
  2
Linepattern
 70
    14
 71
     2
 72
     2
 73
     0
 90
        0
 40
-0.6
 41
-30.0
 62
     5
 63
     7
421
 16777215
 74
     1
 91
        4
 64
     7
 65
   257
 75
     7
175
     7
 42
1.0
 92
        8
 66
     7
 43
1.0
 76
     1
 77
     6
 78
     2
 67
     7
 79
     5
170
     0
171
     0
290
     0
174
     0
 93
        1
 44
0.0
173
     0
291
     1
 45
0.0
  0
VISUALSTYLE
  5
33
102
{ACAD_REACTORS
330
2A
102
}
102
{ACAD_XDICTIONARY
360
75
102
}
330
2A
100
AcDbVisualStyle
  2
Realistic
 70
     8
 71
     2
 72
     2
 73
     0
 90
        0
 40
-0.6
 41
-30.0
 62
     5
 63
     7
421
 16777215
 74
     1
 91
        0
 64
     7
 65
   257
 75
     1
175
     1
 42
1.0
 92
        8
 66
     8
424
  7895160
 43
1.0
 76
     1
 77
     6
 78
     2
 67
     7
 79
     5
170
     0
171
     0
290
     0
174
     0
 93
       13
 44
0.0
173
     0
291
     0
 45
0.0
  0
VISUALSTYLE
  5
37
102
{ACAD_REACTORS
330
2A
102
}
102
{ACAD_XDICTIONARY
360
7D
102
}
330
2A
100
AcDbVisualStyle
  2
Thicken
 70
    13
 71
     2
 72
     2
 73
     0
 90
        0
 40
-0.6
 41
-30.0
 62
     5
 63
     7
421
 16777215
 74
     1
 91
        4
 64
     7
 65
   257
 75
     1
175
     1
 42
1.0
 92
       12
 66
     7
 43
1.0
 76
     1
 77
     6
 78
     2
 67
     7
 79
     5
170
     0
171
     0
290
     0
174
     0
 93
        1
 44
0.0
173
     0
291
     1
 45
0.0
  0
DICTIONARY
  5
6D
330
2F
100
AcDbDictionary
280
     1
281
     1
  3
ACAD_XREC_ROUNDTRIP
360
6E
  0
DICTIONARY
  5
71
330
31
100
AcDbDictionary
280
     1
281
     1
  3
ACAD_XREC_ROUNDTRIP
360
72
  0
DICTIONARY
  5
6F
330
30
100
AcDbDictionary
280
     1
281
     1
  3
ACAD_XREC_ROUNDTRIP
360
70
  0
DICTIONARY
  5
73
330
32
100
AcDbDictionary
280
     1
281
     1
  3
ACAD_XREC_ROUNDTRIP
360
74
  0
DICTIONARY
  5
7B
330
36
100
AcDbDictionary
280
     1
281
     1
  3
ACAD_XREC_ROUNDTRIP
360
7C
  0
DICTIONARY
  5
83
330
3A
100
AcDbDictionary
280
     1
281
     1
  3
ACAD_XREC_ROUNDTRIP
360
84
  0
DICTIONARY
  5
77
330
34
100
AcDbDictionary
280
     1
281
     1
  3
ACAD_XREC_ROUNDTRIP
360
78
  0
DICTIONARY
  5
79
330
35
100
AcDbDictionary
280
     1
281
     1
  3
ACAD_XREC_ROUNDTRIP
360
7A
  0
DICTIONARY
  5
81
330
39
100
AcDbDictionary
280
     1
281
     1
  3
ACAD_XREC_ROUNDTRIP
360
82
  0
DICTIONARY
  5
65
330
2B
100
AcDbDictionary
280
     1
281
     1
  3
ACAD_XREC_ROUNDTRIP
360
66
  0
DICTIONARY
  5
67
330
2C
100
AcDbDictionary
280
     1
281
     1
  3
ACAD_XREC_ROUNDTRIP
360
68
  0
DICTIONARY
  5
69
330
2D
100
AcDbDictionary
280
     1
281
     1
  3
ACAD_XREC_ROUNDTRIP
360
6A
  0
DICTIONARY
  5
6B
330
2E
100
AcDbDictionary
280
     1
281
     1
  3
ACAD_XREC_ROUNDTRIP
360
6C
  0
DICTIONARY
  5
7F
330
38
100
AcDbDictionary
280
     1
281
     1
  3
ACAD_XREC_ROUNDTRIP
360
80
  0
DICTIONARY
  5
75
330
33
100
AcDbDictionary
280
     1
281
     1
  3
ACAD_XREC_ROUNDTRIP
360
76
  0
DICTIONARY
  5
7D
330
37
100
AcDbDictionary
280
     1
281
     1
  3
ACAD_XREC_ROUNDTRIP
360
7E
  0
XRECORD
  5
6E
102
{ACAD_REACTORS
330
6D
102
}
330
6D
100
AcDbXrecord
280
     1
102
RTVSPropertyOp0
 70
     1
102
RTVSPropertyOp1
 70
     1
102
RTVSPropertyOp2
 70
     1
102
RTVSPropertyOp3
 70
     1
102
RTVSPropertyOp4
 70
     1
102
RTVSPropertyOp5
 70
     1
102
RTVSPropertyOp6
 70
     1
102
RTVSPropertyOp7
 70
     1
102
RTVSPropertyOp8
 70
     1
102
RTVSPropertyOp9
 70
     1
102
RTVSPropertyOp10
 70
     1
102
RTVSPropertyOp11
 70
     1
102
RTVSPropertyOp12
 70
     1
102
RTVSPropertyOp13
 70
     1
102
RTVSPropertyOp14
 70
     1
102
RTVSPropertyOp15
 70
     1
102
RTVSPropertyOp16
 70
     1
102
RTVSPropertyOp17
 70
     1
102
RTVSPropertyOp18
 70
     1
102
RTVSPropertyOp19
 70
     1
102
RTVSPropertyOp20
 70
     1
102
RTVSPropertyOp21
 70
     1
102
RTVSPropertyOp22
 70
     1
102
RTVSPropertyOp23
 70
     1
102
RTVSPropertyOp24
 70
     1
102
RTVSPropertyOp25
 70
     1
102
RTVSPropertyOp26
 70
     1
102
RTVSPropertyOp27
 70
     1
102
RTVSPropertyOp28
 70
     1
102
RTVSPropertyOp29
 70
     1
102
RTVSPropertyOp30
 70
     1
102
RTVSPropertyOp31
 70
     1
102
RTVSPropertyOp32
 70
     1
  0
XRECORD
  5
72
102
{ACAD_REACTORS
330
71
102
}
330
71
100
AcDbXrecord
280
     1
102
RTVSPropertyOp0
 70
     1
102
RTVSPropertyOp1
 70
     1
102
RTVSPropertyOp2
 70
     1
102
RTVSPropertyOp3
 70
     1
102
RTVSPropertyOp4
 70
     1
102
RTVSPropertyOp5
 70
     1
102
RTVSPropertyOp6
 70
     1
102
RTVSPropertyOp7
 70
     1
102
RTVSPropertyOp8
 70
     1
102
RTVSPropertyOp9
 70
     1
102
RTVSPropertyOp10
 70
     1
102
RTVSPropertyOp11
 70
     1
102
RTVSPropertyOp12
 70
     1
102
RTVSPropertyOp13
 70
     1
102
RTVSPropertyOp14
 70
     1
102
RTVSPropertyOp15
 70
     1
102
RTVSPropertyOp16
 70
     1
102
RTVSPropertyOp17
 70
     1
102
RTVSPropertyOp18
 70
     1
102
RTVSPropertyOp19
 70
     1
102
RTVSPropertyOp20
 70
     1
102
RTVSPropertyOp21
 70
     1
102
RTVSPropertyOp22
 70
     1
102
RTVSPropertyOp23
 70
     1
102
RTVSPropertyOp24
 70
     1
102
RTVSPropertyOp25
 70
     1
102
RTVSPropertyOp26
 70
     1
102
RTVSPropertyOp27
 70
     1
102
RTVSPropertyOp28
 70
     1
102
RTVSPropertyOp29
 70
     1
102
RTVSPropertyOp30
 70
     1
102
RTVSPropertyOp31
 70
     1
102
RTVSPropertyOp32
 70
     1
  0
XRECORD
  5
70
102
{ACAD_REACTORS
330
6F
102
}
330
6F
100
AcDbXrecord
280
     1
102
RTVSPropertyOp0
 70
     1
102
RTVSPropertyOp1
 70
     1
102
RTVSPropertyOp2
 70
     1
102
RTVSPropertyOp3
 70
     1
102
RTVSPropertyOp4
 70
     1
102
RTVSPropertyOp5
 70
     1
102
RTVSPropertyOp6
 70
     1
102
RTVSPropertyOp7
 70
     1
102
RTVSPropertyOp8
 70
     1
102
RTVSPropertyOp9
 70
     1
102
RTVSPropertyOp10
 70
     1
102
RTVSPropertyOp11
 70
     1
102
RTVSPropertyOp12
 70
     1
102
RTVSPropertyOp13
 70
     1
102
RTVSPropertyOp14
 70
     1
102
RTVSPropertyOp15
 70
     1
102
RTVSPropertyOp16
 70
     1
102
RTVSPropertyOp17
 70
     1
102
RTVSPropertyOp18
 70
     1
102
RTVSPropertyOp19
 70
     1
102
RTVSPropertyOp20
 70
     1
102
RTVSPropertyOp21
 70
     1
102
RTVSPropertyOp22
 70
     1
102
RTVSPropertyOp23
 70
     1
102
RTVSPropertyOp24
 70
     1
102
RTVSPropertyOp25
 70
     1
102
RTVSPropertyOp26
 70
     1
102
RTVSPropertyOp27
 70
     1
102
RTVSPropertyOp28
 70
     1
102
RTVSPropertyOp29
 70
     1
102
RTVSPropertyOp30
 70
     1
102
RTVSPropertyOp31
 70
     1
102
RTVSPropertyOp32
 70
     1
  0
XRECORD
  5
74
102
{ACAD_REACTORS
330
73
102
}
330
73
100
AcDbXrecord
280
     1
102
RTVSPropertyOp0
 70
     1
102
RTVSPropertyOp1
 70
     1
102
RTVSPropertyOp2
 70
     1
102
RTVSPropertyOp3
 70
     1
102
RTVSPropertyOp4
 70
     1
102
RTVSPropertyOp5
 70
     1
102
RTVSPropertyOp6
 70
     1
102
RTVSPropertyOp7
 70
     1
102
RTVSPropertyOp8
 70
     1
102
RTVSPropertyOp9
 70
     1
102
RTVSPropertyOp10
 70
     1
102
RTVSPropertyOp11
 70
     1
102
RTVSPropertyOp12
 70
     1
102
RTVSPropertyOp13
 70
     1
102
RTVSPropertyOp14
 70
     1
102
RTVSPropertyOp15
 70
     1
102
RTVSPropertyOp16
 70
     1
102
RTVSPropertyOp17
 70
     1
102
RTVSPropertyOp18
 70
     1
102
RTVSPropertyOp19
 70
     1
102
RTVSPropertyOp20
 70
     1
102
RTVSPropertyOp21
 70
     1
102
RTVSPropertyOp22
 70
     1
102
RTVSPropertyOp23
 70
     1
102
RTVSPropertyOp24
 70
     1
102
RTVSPropertyOp25
 70
     1
102
RTVSPropertyOp26
 70
     1
102
RTVSPropertyOp27
 70
     1
102
RTVSPropertyOp28
 70
     1
102
RTVSPropertyOp29
 70
     1
102
RTVSPropertyOp30
 70
     1
102
RTVSPropertyOp31
 70
     1
102
RTVSPropertyOp32
 70
     1
  0
XRECORD
  5
7C
102
{ACAD_REACTORS
330
7B
102
}
330
7B
100
AcDbXrecord
280
     1
102
RTVSPropertyOp0
 70
     1
102
RTVSPropertyOp1
 70
     1
102
RTVSPropertyOp2
 70
     1
102
RTVSPropertyOp3
 70
     1
102
RTVSPropertyOp4
 70
     1
102
RTVSPropertyOp5
 70
     1
102
RTVSPropertyOp6
 70
     1
102
RTVSPropertyOp7
 70
     1
102
RTVSPropertyOp8
 70
     1
102
RTVSPropertyOp9
 70
     1
102
RTVSPropertyOp10
 70
     1
102
RTVSPropertyOp11
 70
     1
102
RTVSPropertyOp12
 70
     1
102
RTVSPropertyOp13
 70
     1
102
RTVSPropertyOp14
 70
     1
102
RTVSPropertyOp15
 70
     1
102
RTVSPropertyOp16
 70
     1
102
RTVSPropertyOp17
 70
     1
102
RTVSPropertyOp18
 70
     1
102
RTVSPropertyOp19
 70
     1
102
RTVSPropertyOp20
 70
     1
102
RTVSPropertyOp21
 70
     1
102
RTVSPropertyOp22
 70
     1
102
RTVSPropertyOp23
 70
     1
102
RTVSPropertyOp24
 70
     1
102
RTVSPropertyOp25
 70
     1
102
RTVSPropertyOp26
 70
     1
102
RTVSPropertyOp27
 70
     1
102
RTVSPropertyOp28
 70
     1
102
RTVSPropertyOp29
 70
     1
102
RTVSPropertyOp30
 70
     1
102
RTVSPropertyOp31
 70
     1
102
RTVSPropertyOp32
 70
     1
  0
XRECORD
  5
84
102
{ACAD_REACTORS
330
83
102
}
330
83
100
AcDbXrecord
280
     1
102
RTVSPropertyOp0
 70
     1
102
RTVSPropertyOp1
 70
     1
102
RTVSPropertyOp2
 70
     1
102
RTVSPropertyOp3
 70
     1
102
RTVSPropertyOp4
 70
     1
102
RTVSPropertyOp5
 70
     1
102
RTVSPropertyOp6
 70
     1
102
RTVSPropertyOp7
 70
     1
102
RTVSPropertyOp8
 70
     1
102
RTVSPropertyOp9
 70
     1
102
RTVSPropertyOp10
 70
     1
102
RTVSPropertyOp11
 70
     1
102
RTVSPropertyOp12
 70
     1
102
RTVSPropertyOp13
 70
     1
102
RTVSPropertyOp14
 70
     1
102
RTVSPropertyOp15
 70
     1
102
RTVSPropertyOp16
 70
     1
102
RTVSPropertyOp17
 70
     1
102
RTVSPropertyOp18
 70
     1
102
RTVSPropertyOp19
 70
     1
102
RTVSPropertyOp20
 70
     1
102
RTVSPropertyOp21
 70
     1
102
RTVSPropertyOp22
 70
     1
102
RTVSPropertyOp23
 70
     1
102
RTVSPropertyOp24
 70
     1
102
RTVSPropertyOp25
 70
     1
102
RTVSPropertyOp26
 70
     1
102
RTVSPropertyOp27
 70
     1
102
RTVSPropertyOp28
 70
     1
102
RTVSPropertyOp29
 70
     1
102
RTVSPropertyOp30
 70
     1
102
RTVSPropertyOp31
 70
     1
102
RTVSPropertyOp32
 70
     1
  0
XRECORD
  5
78
102
{ACAD_REACTORS
330
77
102
}
330
77
100
AcDbXrecord
280
     1
102
RTVSPropertyOp0
 70
     1
102
RTVSPropertyOp1
 70
     1
102
RTVSPropertyOp2
 70
     1
102
RTVSPropertyOp3
 70
     1
102
RTVSPropertyOp4
 70
     1
102
RTVSPropertyOp5
 70
     1
102
RTVSPropertyOp6
 70
     1
102
RTVSPropertyOp7
 70
     1
102
RTVSPropertyOp8
 70
     1
102
RTVSPropertyOp9
 70
     1
102
RTVSPropertyOp10
 70
     1
102
RTVSPropertyOp11
 70
     1
102
RTVSPropertyOp12
 70
     1
102
RTVSPropertyOp13
 70
     1
102
RTVSPropertyOp14
 70
     1
102
RTVSPropertyOp15
 70
     1
102
RTVSPropertyOp16
 70
     1
102
RTVSPropertyOp17
 70
     1
102
RTVSPropertyOp18
 70
     1
102
RTVSPropertyOp19
 70
     1
102
RTVSPropertyOp20
 70
     1
102
RTVSPropertyOp21
 70
     1
102
RTVSPropertyOp22
 70
     1
102
RTVSPropertyOp23
 70
     1
102
RTVSPropertyOp24
 70
     1
102
RTVSPropertyOp25
 70
     1
102
RTVSPropertyOp26
 70
     1
102
RTVSPropertyOp27
 70
     1
102
RTVSPropertyOp28
 70
     1
102
RTVSPropertyOp29
 70
     1
102
RTVSPropertyOp30
 70
     1
102
RTVSPropertyOp31
 70
     1
102
RTVSPropertyOp32
 70
     1
  0
XRECORD
  5
7A
102
{ACAD_REACTORS
330
79
102
}
330
79
100
AcDbXrecord
280
     1
102
RTVSPropertyOp0
 70
     1
102
RTVSPropertyOp1
 70
     1
102
RTVSPropertyOp2
 70
     1
102
RTVSPropertyOp3
 70
     1
102
RTVSPropertyOp4
 70
     1
102
RTVSPropertyOp5
 70
     1
102
RTVSPropertyOp6
 70
     1
102
RTVSPropertyOp7
 70
     1
102
RTVSPropertyOp8
 70
     1
102
RTVSPropertyOp9
 70
     1
102
RTVSPropertyOp10
 70
     1
102
RTVSPropertyOp11
 70
     1
102
RTVSPropertyOp12
 70
     1
102
RTVSPropertyOp13
 70
     1
102
RTVSPropertyOp14
 70
     1
102
RTVSPropertyOp15
 70
     1
102
RTVSPropertyOp16
 70
     1
102
RTVSPropertyOp17
 70
     1
102
RTVSPropertyOp18
 70
     1
102
RTVSPropertyOp19
 70
     1
102
RTVSPropertyOp20
 70
     1
102
RTVSPropertyOp21
 70
     1
102
RTVSPropertyOp22
 70
     1
102
RTVSPropertyOp23
 70
     1
102
RTVSPropertyOp24
 70
     1
102
RTVSPropertyOp25
 70
     1
102
RTVSPropertyOp26
 70
     1
102
RTVSPropertyOp27
 70
     1
102
RTVSPropertyOp28
 70
     1
102
RTVSPropertyOp29
 70
     1
102
RTVSPropertyOp30
 70
     1
102
RTVSPropertyOp31
 70
     1
102
RTVSPropertyOp32
 70
     1
  0
XRECORD
  5
82
102
{ACAD_REACTORS
330
81
102
}
330
81
100
AcDbXrecord
280
     1
102
RTVSPropertyOp0
 70
     1
102
RTVSPropertyOp1
 70
     1
102
RTVSPropertyOp2
 70
     1
102
RTVSPropertyOp3
 70
     1
102
RTVSPropertyOp4
 70
     1
102
RTVSPropertyOp5
 70
     1
102
RTVSPropertyOp6
 70
     1
102
RTVSPropertyOp7
 70
     1
102
RTVSPropertyOp8
 70
     1
102
RTVSPropertyOp9
 70
     1
102
RTVSPropertyOp10
 70
     1
102
RTVSPropertyOp11
 70
     1
102
RTVSPropertyOp12
 70
     1
102
RTVSPropertyOp13
 70
     1
102
RTVSPropertyOp14
 70
     1
102
RTVSPropertyOp15
 70
     1
102
RTVSPropertyOp16
 70
     1
102
RTVSPropertyOp17
 70
     1
102
RTVSPropertyOp18
 70
     1
102
RTVSPropertyOp19
 70
     1
102
RTVSPropertyOp20
 70
     1
102
RTVSPropertyOp21
 70
     1
102
RTVSPropertyOp22
 70
     1
102
RTVSPropertyOp23
 70
     1
102
RTVSPropertyOp24
 70
     1
102
RTVSPropertyOp25
 70
     1
102
RTVSPropertyOp26
 70
     1
102
RTVSPropertyOp27
 70
     1
102
RTVSPropertyOp28
 70
     1
102
RTVSPropertyOp29
 70
     1
102
RTVSPropertyOp30
 70
     1
102
RTVSPropertyOp31
 70
     1
102
RTVSPropertyOp32
 70
     1
  0
XRECORD
  5
66
102
{ACAD_REACTORS
330
65
102
}
330
65
100
AcDbXrecord
280
     1
102
RTVSPropertyOp0
 70
     1
102
RTVSPropertyOp1
 70
     1
102
RTVSPropertyOp2
 70
     1
102
RTVSPropertyOp3
 70
     1
102
RTVSPropertyOp4
 70
     1
102
RTVSPropertyOp5
 70
     1
102
RTVSPropertyOp6
 70
     1
102
RTVSPropertyOp7
 70
     1
102
RTVSPropertyOp8
 70
     1
102
RTVSPropertyOp9
 70
     1
102
RTVSPropertyOp10
 70
     1
102
RTVSPropertyOp11
 70
     1
102
RTVSPropertyOp12
 70
     1
102
RTVSPropertyOp13
 70
     1
102
RTVSPropertyOp14
 70
     1
102
RTVSPropertyOp15
 70
     1
102
RTVSPropertyOp16
 70
     1
102
RTVSPropertyOp17
 70
     1
102
RTVSPropertyOp18
 70
     1
102
RTVSPropertyOp19
 70
     1
102
RTVSPropertyOp20
 70
     1
102
RTVSPropertyOp21
 70
     1
102
RTVSPropertyOp22
 70
     1
102
RTVSPropertyOp23
 70
     1
102
RTVSPropertyOp24
 70
     1
102
RTVSPropertyOp25
 70
     1
102
RTVSPropertyOp26
 70
     1
102
RTVSPropertyOp27
 70
     1
102
RTVSPropertyOp28
 70
     1
102
RTVSPropertyOp29
 70
     1
102
RTVSPropertyOp30
 70
     1
102
RTVSPropertyOp31
 70
     1
102
RTVSPropertyOp32
 70
     1
  0
XRECORD
  5
68
102
{ACAD_REACTORS
330
67
102
}
330
67
100
AcDbXrecord
280
     1
102
RTVSPropertyOp0
 70
     1
102
RTVSPropertyOp1
 70
     1
102
RTVSPropertyOp2
 70
     1
102
RTVSPropertyOp3
 70
     1
102
RTVSPropertyOp4
 70
     1
102
RTVSPropertyOp5
 70
     1
102
RTVSPropertyOp6
 70
     1
102
RTVSPropertyOp7
 70
     1
102
RTVSPropertyOp8
 70
     1
102
RTVSPropertyOp9
 70
     1
102
RTVSPropertyOp10
 70
     1
102
RTVSPropertyOp11
 70
     1
102
RTVSPropertyOp12
 70
     1
102
RTVSPropertyOp13
 70
     1
102
RTVSPropertyOp14
 70
     1
102
RTVSPropertyOp15
 70
     1
102
RTVSPropertyOp16
 70
     1
102
RTVSPropertyOp17
 70
     1
102
RTVSPropertyOp18
 70
     1
102
RTVSPropertyOp19
 70
     1
102
RTVSPropertyOp20
 70
     1
102
RTVSPropertyOp21
 70
     1
102
RTVSPropertyOp22
 70
     1
102
RTVSPropertyOp23
 70
     1
102
RTVSPropertyOp24
 70
     1
102
RTVSPropertyOp25
 70
     1
102
RTVSPropertyOp26
 70
     1
102
RTVSPropertyOp27
 70
     1
102
RTVSPropertyOp28
 70
     1
102
RTVSPropertyOp29
 70
     1
102
RTVSPropertyOp30
 70
     1
102
RTVSPropertyOp31
 70
     1
102
RTVSPropertyOp32
 70
     1
  0
XRECORD
  5
6A
102
{ACAD_REACTORS
330
69
102
}
330
69
100
AcDbXrecord
280
     1
102
RTVSPropertyOp0
 70
     1
102
RTVSPropertyOp1
 70
     1
102
RTVSPropertyOp2
 70
     1
102
RTVSPropertyOp3
 70
     1
102
RTVSPropertyOp4
 70
     1
102
RTVSPropertyOp5
 70
     1
102
RTVSPropertyOp6
 70
     1
102
RTVSPropertyOp7
 70
     1
102
RTVSPropertyOp8
 70
     1
102
RTVSPropertyOp9
 70
     1
102
RTVSPropertyOp10
 70
     1
102
RTVSPropertyOp11
 70
     1
102
RTVSPropertyOp12
 70
     1
102
RTVSPropertyOp13
 70
     1
102
RTVSPropertyOp14
 70
     1
102
RTVSPropertyOp15
 70
     1
102
RTVSPropertyOp16
 70
     1
102
RTVSPropertyOp17
 70
     1
102
RTVSPropertyOp18
 70
     1
102
RTVSPropertyOp19
 70
     1
102
RTVSPropertyOp20
 70
     1
102
RTVSPropertyOp21
 70
     1
102
RTVSPropertyOp22
 70
     1
102
RTVSPropertyOp23
 70
     1
102
RTVSPropertyOp24
 70
     1
102
RTVSPropertyOp25
 70
     1
102
RTVSPropertyOp26
 70
     1
102
RTVSPropertyOp27
 70
     1
102
RTVSPropertyOp28
 70
     1
102
RTVSPropertyOp29
 70
     1
102
RTVSPropertyOp30
 70
     1
102
RTVSPropertyOp31
 70
     1
102
RTVSPropertyOp32
 70
     1
  0
XRECORD
  5
6C
102
{ACAD_REACTORS
330
6B
102
}
330
6B
100
AcDbXrecord
280
     1
102
RTVSPropertyOp0
 70
     1
102
RTVSPropertyOp1
 70
     1
102
RTVSPropertyOp2
 70
     1
102
RTVSPropertyOp3
 70
     1
102
RTVSPropertyOp4
 70
     1
102
RTVSPropertyOp5
 70
     1
102
RTVSPropertyOp6
 70
     1
102
RTVSPropertyOp7
 70
     1
102
RTVSPropertyOp8
 70
     1
102
RTVSPropertyOp9
 70
     1
102
RTVSPropertyOp10
 70
     1
102
RTVSPropertyOp11
 70
     1
102
RTVSPropertyOp12
 70
     1
102
RTVSPropertyOp13
 70
     1
102
RTVSPropertyOp14
 70
     1
102
RTVSPropertyOp15
 70
     1
102
RTVSPropertyOp16
 70
     1
102
RTVSPropertyOp17
 70
     1
102
RTVSPropertyOp18
 70
     1
102
RTVSPropertyOp19
 70
     1
102
RTVSPropertyOp20
 70
     1
102
RTVSPropertyOp21
 70
     1
102
RTVSPropertyOp22
 70
     1
102
RTVSPropertyOp23
 70
     1
102
RTVSPropertyOp24
 70
     1
102
RTVSPropertyOp25
 70
     1
102
RTVSPropertyOp26
 70
     1
102
RTVSPropertyOp27
 70
     1
102
RTVSPropertyOp28
 70
     1
102
RTVSPropertyOp29
 70
     1
102
RTVSPropertyOp30
 70
     1
102
RTVSPropertyOp31
 70
     1
102
RTVSPropertyOp32
 70
     1
  0
XRECORD
  5
80
102
{ACAD_REACTORS
330
7F
102
}
330
7F
100
AcDbXrecord
280
     1
102
RTVSPropertyOp0
 70
     1
102
RTVSPropertyOp1
 70
     1
102
RTVSPropertyOp2
 70
     1
102
RTVSPropertyOp3
 70
     1
102
RTVSPropertyOp4
 70
     1
102
RTVSPropertyOp5
 70
     1
102
RTVSPropertyOp6
 70
     1
102
RTVSPropertyOp7
 70
     1
102
RTVSPropertyOp8
 70
     1
102
RTVSPropertyOp9
 70
     1
102
RTVSPropertyOp10
 70
     1
102
RTVSPropertyOp11
 70
     1
102
RTVSPropertyOp12
 70
     1
102
RTVSPropertyOp13
 70
     1
102
RTVSPropertyOp14
 70
     1
102
RTVSPropertyOp15
 70
     1
102
RTVSPropertyOp16
 70
     1
102
RTVSPropertyOp17
 70
     1
102
RTVSPropertyOp18
 70
     1
102
RTVSPropertyOp19
 70
     1
102
RTVSPropertyOp20
 70
     1
102
RTVSPropertyOp21
 70
     1
102
RTVSPropertyOp22
 70
     1
102
RTVSPropertyOp23
 70
     1
102
RTVSPropertyOp24
 70
     1
102
RTVSPropertyOp25
 70
     1
102
RTVSPropertyOp26
 70
     1
102
RTVSPropertyOp27
 70
     1
102
RTVSPropertyOp28
 70
     1
102
RTVSPropertyOp29
 70
     1
102
RTVSPropertyOp30
 70
     1
102
RTVSPropertyOp31
 70
     1
102
RTVSPropertyOp32
 70
     1
  0
XRECORD
  5
76
102
{ACAD_REACTORS
330
75
102
}
330
75
100
AcDbXrecord
280
     1
102
RTVSPropertyOp0
 70
     1
102
RTVSPropertyOp1
 70
     1
102
RTVSPropertyOp2
 70
     1
102
RTVSPropertyOp3
 70
     1
102
RTVSPropertyOp4
 70
     1
102
RTVSPropertyOp5
 70
     1
102
RTVSPropertyOp6
 70
     1
102
RTVSPropertyOp7
 70
     1
102
RTVSPropertyOp8
 70
     1
102
RTVSPropertyOp9
 70
     1
102
RTVSPropertyOp10
 70
     1
102
RTVSPropertyOp11
 70
     1
102
RTVSPropertyOp12
 70
     1
102
RTVSPropertyOp13
 70
     1
102
RTVSPropertyOp14
 70
     1
102
RTVSPropertyOp15
 70
     1
102
RTVSPropertyOp16
 70
     1
102
RTVSPropertyOp17
 70
     1
102
RTVSPropertyOp18
 70
     1
102
RTVSPropertyOp19
 70
     1
102
RTVSPropertyOp20
 70
     1
102
RTVSPropertyOp21
 70
     1
102
RTVSPropertyOp22
 70
     1
102
RTVSPropertyOp23
 70
     1
102
RTVSPropertyOp24
 70
     1
102
RTVSPropertyOp25
 70
     1
102
RTVSPropertyOp26
 70
     1
102
RTVSPropertyOp27
 70
     1
102
RTVSPropertyOp28
 70
     1
102
RTVSPropertyOp29
 70
     1
102
RTVSPropertyOp30
 70
     1
102
RTVSPropertyOp31
 70
     1
102
RTVSPropertyOp32
 70
     1
  0
XRECORD
  5
7E
102
{ACAD_REACTORS
330
7D
102
}
330
7D
100
AcDbXrecord
280
     1
102
RTVSPropertyOp0
 70
     1
102
RTVSPropertyOp1
 70
     1
102
RTVSPropertyOp2
 70
     1
102
RTVSPropertyOp3
 70
     1
102
RTVSPropertyOp4
 70
     1
102
RTVSPropertyOp5
 70
     1
102
RTVSPropertyOp6
 70
     1
102
RTVSPropertyOp7
 70
     1
102
RTVSPropertyOp8
 70
     1
102
RTVSPropertyOp9
 70
     1
102
RTVSPropertyOp10
 70
     1
102
RTVSPropertyOp11
 70
     1
102
RTVSPropertyOp12
 70
     1
102
RTVSPropertyOp13
 70
     1
102
RTVSPropertyOp14
 70
     1
102
RTVSPropertyOp15
 70
     1
102
RTVSPropertyOp16
 70
     1
102
RTVSPropertyOp17
 70
     1
102
RTVSPropertyOp18
 70
     1
102
RTVSPropertyOp19
 70
     1
102
RTVSPropertyOp20
 70
     1
102
RTVSPropertyOp21
 70
     1
102
RTVSPropertyOp22
 70
     1
102
RTVSPropertyOp23
 70
     1
102
RTVSPropertyOp24
 70
     1
102
RTVSPropertyOp25
 70
     1
102
RTVSPropertyOp26
 70
     1
102
RTVSPropertyOp27
 70
     1
102
RTVSPropertyOp28
 70
     1
102
RTVSPropertyOp29
 70
     1
102
RTVSPropertyOp30
 70
     1
102
RTVSPropertyOp31
 70
     1
102
RTVSPropertyOp32
 70
     1
  0
ENDSEC
  0
EOF
