  0
SECTION
  2
HEADER
  9
$ACADVER
  1
AC1021
  9
$ACADMAINTVER
 70
    25
  9
$DWGCODEPAGE
  3
ANSI_1256
  9
$INSBASE
 10
0.0
 20
0.0
 30
0.0
  9
$EXTMIN
 10
-187.4401
 20
-114.9817
 30
0.0
  9
$EXTMAX
 10
-51.4548
 20
131.6894
 30
0.0
  9
$LIMMIN
 10
0.0
 20
0.0
  9
$LIMMAX
 10
12.0
 20
9.0
  9
$ORTHOMODE
 70
     0
  9
$REGENMODE
 70
     1
  9
$FILLMODE
 70
     1
  9
$QTEXTMODE
 70
     0
  9
$MIRRTEXT
 70
     1
  9
$LTSCALE
 40
1.0
  9
$ATTMODE
 70
     1
  9
$TEXTSIZE
 40
0.2
  9
$TRACEWID
 40
0.05
  9
$TEXTSTYLE
  7
Standard
  9
$CLAYER
  8
0
  9
$CELTYPE
  6
ByLayer
  9
$CECOLOR
 62
   256
  9
$CELTSCALE
 40
1.0
  9
$DISPSILH
 70
     0
  9
$DIMSCALE
 40
1.0
  9
$DIMASZ
 40
0.18
  9
$DIMEXO
 40
0.0625
  9
$DIMDLI
 40
0.38
  9
$DIMRND
 40
0.0
  9
$DIMDLE
 40
0.0
  9
$DIMEXE
 40
0.18
  9
$DIMTP
 40
0.0
  9
$DIMTM
 40
0.0
  9
$DIMTXT
 40
0.18
  9
$DIMCEN
 40
0.09
  9
$DIMTSZ
 40
0.0
  9
$DIMTOL
 70
     0
  9
$DIMLIM
 70
     0
  9
$DIMTIH
 70
     1
  9
$DIMTOH
 70
     1
  9
$DIMSE1
 70
     0
  9
$DIMSE2
 70
     0
  9
$DIMTAD
 70
     0
  9
$DIMZIN
 70
     0
  9
$DIMBLK
  1

  9
$DIMASO
 70
     1
  9
$DIMSHO
 70
     1
  9
$DIMPOST
  1

  9
$DIMAPOST
  1

  9
$DIMALT
 70
     0
  9
$DIMALTD
 70
     2
  9
$DIMALTF
 40
25.4
  9
$DIMLFAC
 40
1.0
  9
$DIMTOFL
 70
     0
  9
$DIMTVP
 40
0.0
  9
$DIMTIX
 70
     0
  9
$DIMSOXD
 70
     0
  9
$DIMSAH
 70
     0
  9
$DIMBLK1
  1

  9
$DIMBLK2
  1

  9
$DIMSTYLE
  2
Standard
  9
$DIMCLRD
 70
     0
  9
$DIMCLRE
 70
     0
  9
$DIMCLRT
 70
     0
  9
$DIMTFAC
 40
1.0
  9
$DIMGAP
 40
0.09
  9
$DIMJUST
 70
     0
  9
$DIMSD1
 70
     0
  9
$DIMSD2
 70
     0
  9
$DIMTOLJ
 70
     1
  9
$DIMTZIN
 70
     0
  9
$DIMALTZ
 70
     0
  9
$DIMALTTZ
 70
     0
  9
$DIMUPT
 70
     0
  9
$DIMDEC
 70
     4
  9
$DIMTDEC
 70
     4
  9
$DIMALTU
 70
     2
  9
$DIMALTTD
 70
     2
  9
$DIMTXSTY
  7
Standard
  9
$DIMAUNIT
 70
     0
  9
$DIMADEC
 70
     0
  9
$DIMALTRND
 40
0.0
  9
$DIMAZIN
 70
     0
  9
$DIMDSEP
 70
    46
  9
$DIMATFIT
 70
     3
  9
$DIMFRAC
 70
     0
  9
$DIMLDRBLK
  1

  9
$DIMLUNIT
 70
     2
  9
$DIMLWD
 70
    -2
  9
$DIMLWE
 70
    -2
  9
$DIMTMOVE
 70
     0
  9
$DIMFXL
 40
1.0
  9
$DIMFXLON
 70
     0
  9
$DIMJOGANG
 40
0.7853981633974483
  9
$DIMTFILL
 70
     0
  9
$DIMTFILLCLR
 70
     0
  9
$DIMARCSYM
 70
     0
  9
$DIMLTYPE
  6

  9
$DIMLTEX1
  6

  9
$DIMLTEX2
  6

  9
$LUNITS
 70
     2
  9
$LUPREC
 70
     4
  9
$SKETCHINC
 40
0.1
  9
$FILLETRAD
 40
0.5
  9
$AUNITS
 70
     0
  9
$AUPREC
 70
     0
  9
$MENU
  1
.
  9
$ELEVATION
 40
0.0
  9
$PELEVATION
 40
0.0
  9
$THICKNESS
 40
0.0
  9
$LIMCHECK
 70
     0
  9
$CHAMFERA
 40
0.5
  9
$CHAMFERB
 40
0.5
  9
$CHAMFERC
 40
1.0
  9
$CHAMFERD
 40
0.0
  9
$SKPOLY
 70
     0
  9
$TDCREATE
 40
2458492.947700498
  9
$TDUCREATE
 40
2458492.781033831
  9
$TDUPDATE
 40
2458492.947700636
  9
$TDUUPDATE
 40
2458492.78103397
  9
$TDINDWG
 40
0.0000000116
  9
$TDUSRTIMER
 40
0.0000000116
  9
$USRTIMER
 70
     1
  9
$ANGBASE
 50
0.0
  9
$ANGDIR
 70
     0
  9
$PDMODE
 70
     0
  9
$PDSIZE
 40
0.0
  9
$PLINEWID
 40
0.0
  9
$SPLFRAME
 70
     0
  9
$SPLINETYPE
 70
     6
  9
$SPLINESEGS
 70
     8
  9
$HANDSEED
  5
A7
  9
$SURFTAB1
 70
     6
  9
$SURFTAB2
 70
     6
  9
$SURFTYPE
 70
     6
  9
$SURFU
 70
     6
  9
$SURFV
 70
     6
  9
$UCSBASE
  2

  9
$UCSNAME
  2

  9
$UCSORG
 10
0.0
 20
0.0
 30
0.0
  9
$UCSXDIR
 10
1.0
 20
0.0
 30
0.0
  9
$UCSYDIR
 10
0.0
 20
1.0
 30
0.0
  9
$UCSORTHOREF
  2

  9
$UCSORTHOVIEW
 70
     0
  9
$UCSORGTOP
 10
0.0
 20
0.0
 30
0.0
  9
$UCSORGBOTTOM
 10
0.0
 20
0.0
 30
0.0
  9
$UCSORGLEFT
 10
0.0
 20
0.0
 30
0.0
  9
$UCSORGRIGHT
 10
0.0
 20
0.0
 30
0.0
  9
$UCSORGFRONT
 10
0.0
 20
0.0
 30
0.0
  9
$UCSORGBACK
 10
0.0
 20
0.0
 30
0.0
  9
$PUCSBASE
  2

  9
$PUCSNAME
  2

  9
$PUCSORG
 10
0.0
 20
0.0
 30
0.0
  9
$PUCSXDIR
 10
1.0
 20
0.0
 30
0.0
  9
$PUCSYDIR
 10
0.0
 20
1.0
 30
0.0
  9
$PUCSORTHOREF
  2

  9
$PUCSORTHOVIEW
 70
     0
  9
$PUCSORGTOP
 10
0.0
 20
0.0
 30
0.0
  9
$PUCSORGBOTTOM
 10
0.0
 20
0.0
 30
0.0
  9
$PUCSORGLEFT
 10
0.0
 20
0.0
 30
0.0
  9
$PUCSORGRIGHT
 10
0.0
 20
0.0
 30
0.0
  9
$PUCSORGFRONT
 10
0.0
 20
0.0
 30
0.0
  9
$PUCSORGBACK
 10
0.0
 20
0.0
 30
0.0
  9
$USERI1
 70
     0
  9
$USERI2
 70
     0
  9
$USERI3
 70
     0
  9
$USERI4
 70
     0
  9
$USERI5
 70
     0
  9
$USERR1
 40
0.0
  9
$USERR2
 40
0.0
  9
$USERR3
 40
0.0
  9
$USERR4
 40
0.0
  9
$USERR5
 40
0.0
  9
$WORLDVIEW
 70
     1
  9
$SHADEDGE
 70
     3
  9
$SHADEDIF
 70
    70
  9
$TILEMODE
 70
     1
  9
$MAXACTVP
 70
    64
  9
$PINSBASE
 10
0.0
 20
0.0
 30
0.0
  9
$PLIMCHECK
 70
     0
  9
$PEXTMIN
 10
1.000000000000000E+20
 20
1.000000000000000E+20
 30
1.000000000000000E+20
  9
$PEXTMAX
 10
-1.000000000000000E+20
 20
-1.000000000000000E+20
 30
-1.000000000000000E+20
  9
$PLIMMIN
 10
0.0
 20
0.0
  9
$PLIMMAX
 10
12.0
 20
9.0
  9
$UNITMODE
 70
     0
  9
$VISRETAIN
 70
     1
  9
$PLINEGEN
 70
     0
  9
$PSLTSCALE
 70
     1
  9
$TREEDEPTH
 70
  3020
  9
$CMLSTYLE
  2
Standard
  9
$CMLJUST
 70
     0
  9
$CMLSCALE
 40
1.0
  9
$PROXYGRAPHICS
 70
     1
  9
$MEASUREMENT
 70
     0
  9
$CELWEIGHT
370
    -1
  9
$ENDCAPS
280
     0
  9
$JOINSTYLE
280
     0
  9
$LWDISPLAY
290
     0
  9
$INSUNITS
 70
     4
  9
$HYPERLINKBASE
  1

  9
$STYLESHEET
  1

  9
$XEDIT
290
     1
  9
$CEPSNTYPE
380
     0
  9
$PSTYLEMODE
290
     1
  9
$FINGERPRINTGUID
  2
{BC82A231-4C1D-4D61-B878-FF563498EC32}
  9
$VERSIONGUID
  2
{FAEB1C32-E019-11D5-929B-00C0DF256EC4}
  9
$EXTNAMES
290
     1
  9
$PSVPSCALE
 40
0.0
  9
$OLESTARTUP
290
     0
  9
$SORTENTS
280
   127
  9
$INDEXCTL
280
     0
  9
$HIDETEXT
280
     1
  9
$XCLIPFRAME
290
     0
  9
$HALOGAP
280
     0
  9
$OBSCOLOR
 70
   257
  9
$OBSLTYPE
280
     0
  9
$INTERSECTIONDISPLAY
280
     0
  9
$INTERSECTIONCOLOR
 70
   257
  9
$DIMASSOC
280
     2
  9
$PROJECTNAME
  1

  9
$CAMERADISPLAY
290
     0
  9
$LENSLENGTH
 40
50.0
  9
$CAMERAHEIGHT
 40
0.0
  9
$STEPSPERSEC
 40
2.0
  9
$STEPSIZE
 40
6.0
  9
$3DDWFPREC
 40
2.0
  9
$PSOLWIDTH
 40
0.25
  9
$PSOLHEIGHT
 40
4.0
  9
$LOFTANG1
 40
1.570796326794897
  9
$LOFTANG2
 40
1.570796326794897
  9
$LOFTMAG1
 40
0.0
  9
$LOFTMAG2
 40
0.0
  9
$LOFTPARAM
 70
     7
  9
$LOFTNORMALS
280
     1
  9
$LATITUDE
 40
37.795
  9
$LONGITUDE
 40
-122.394
  9
$NORTHDIRECTION
 40
0.0
  9
$TIMEZONE
 70
 -8000
  9
$LIGHTGLYPHDISPLAY
280
     1
  9
$TILEMODELIGHTSYNCH
280
     1
  9
$SOLIDHIST
280
     1
  9
$SHOWHIST
280
     1
  9
$DWFFRAME
280
     2
  9
$DGNFRAME
280
     2
  9
$REALWORLDSCALE
290
     1
  9
$INTERFERECOLOR
 62
   256
  9
$CSHADOW
280
     0
  9
$SHADOWPLANELOCATION
 40
0.0
  0
ENDSEC
  0
SECTION
  2
CLASSES
  0
CLASS
  1
ACDBDICTIONARYWDFLT
  2
AcDbDictionaryWithDefault
  3
ObjectDBX Classes
 90
        0
 91
        4
280
     0
281
     0
  0
CLASS
  1
VISUALSTYLE
  2
AcDbVisualStyle
  3
ObjectDBX Classes
 90
     4095
 91
        4
280
     0
281
     0
  0
CLASS
  1
MATERIAL
  2
AcDbMaterial
  3
ObjectDBX Classes
 90
     1153
 91
        4
280
     0
281
     0
  0
ENDSEC
  0
SECTION
  2
TABLES
  0
TABLE
  2
VPORT
  5
8
330
0
100
AcDbSymbolTable
 70
     1
  0
VPORT
  5
29
330
8
100
AcDbSymbolTableRecord
100
AcDbViewportTableRecord
  2
*Active
 70
     0
 10
0.0
 20
0.0
 11
1.0
 21
1.0
 12
10.42990654205607
 22
4.5
 13
0.0
 23
0.0
 14
0.5
 24
0.5
 15
0.5
 25
0.5
 16
0.0
 26
0.0
 36
1.0
 17
0.0
 27
0.0
 37
0.0
 40
9.0
 41
1.972972972850329
 42
50.0
 43
0.0
 44
0.0
 50
0.0
 51
0.0
 71
     0
 72
   100
 73
     1
 74
     3
 75
     0
 76
     0
 77
     0
 78
     0
281
     0
 65
     1
110
0.0
120
0.0
130
0.0
111
1.0
121
0.0
131
0.0
112
0.0
122
1.0
132
0.0
 79
     0
146
0.0
 60
     3
 61
     5
292
     1
282
     1
141
0.0
142
0.0
 63
   250
  0
ENDTAB
  0
TABLE
  2
LTYPE
  5
5
330
0
100
AcDbSymbolTable
 70
     1
  0
LTYPE
  5
14
330
5
100
AcDbSymbolTableRecord
100
AcDbLinetypeTableRecord
  2
ByBlock
 70
     0
  3

 72
    65
 73
     0
 40
0.0
  0
LTYPE
  5
15
330
5
100
AcDbSymbolTableRecord
100
AcDbLinetypeTableRecord
  2
ByLayer
 70
     0
  3

 72
    65
 73
     0
 40
0.0
  0
LTYPE
  5
16
330
5
100
AcDbSymbolTableRecord
100
AcDbLinetypeTableRecord
  2
Continuous
 70
     0
  3
Solid line
 72
    65
 73
     0
 40
0.0
  0
ENDTAB
  0
TABLE
  2
LAYER
  5
2
330
0
100
AcDbSymbolTable
 70
     3
  0
LAYER
  5
10
330
2
100
AcDbSymbolTableRecord
100
AcDbLayerTableRecord
  2
0
 70
     0
 62
     7
  6
Continuous
370
    -3
390
F
347
3E
  0
LAYER
  5
40
330
2
100
AcDbSymbolTableRecord
100
AcDbLayerTableRecord
  2
layer 1
 70
     0
 62
     7
  6
Continuous
370
    -3
390
F
347
3E
  0
LAYER
  5
84
330
2
100
AcDbSymbolTableRecord
100
AcDbLayerTableRecord
  2
Master Guides
 70
     0
 62
     7
  6
Continuous
370
    -3
390
F
347
3E
  0
ENDTAB
  0
TABLE
  2
STYLE
  5
3
330
0
100
AcDbSymbolTable
 70
     1
  0
STYLE
  5
11
330
3
100
AcDbSymbolTableRecord
100
AcDbTextStyleTableRecord
  2
Standard
 70
     0
 40
0.0
 41
1.0
 50
0.0
 71
     0
 42
0.2
  3
txt
  4

  0
ENDTAB
  0
TABLE
  2
VIEW
  5
6
330
0
100
AcDbSymbolTable
 70
     0
  0
ENDTAB
  0
TABLE
  2
UCS
  5
7
330
0
100
AcDbSymbolTable
 70
     0
  0
ENDTAB
  0
TABLE
  2
APPID
  5
9
330
0
100
AcDbSymbolTable
 70
     2
  0
APPID
  5
12
330
9
100
AcDbSymbolTableRecord
100
AcDbRegAppTableRecord
  2
ACAD
 70
     0
  0
APPID
  5
3F
330
9
100
AcDbSymbolTableRecord
100
AcDbRegAppTableRecord
  2
ODA
 70
     0
  0
ENDTAB
  0
TABLE
  2
DIMSTYLE
  5
A
330
0
100
AcDbSymbolTable
 70
     1
100
AcDbDimStyleTable
  0
DIMSTYLE
105
27
330
A
100
AcDbSymbolTableRecord
100
AcDbDimStyleTableRecord
  2
Standard
 70
     0
178
     0
340
11
  0
ENDTAB
  0
TABLE
  2
BLOCK_RECORD
  5
1
330
0
100
AcDbSymbolTable
 70
     1
  0
BLOCK_RECORD
  5
1F
330
1
100
AcDbSymbolTableRecord
100
AcDbBlockTableRecord
  2
*Model_Space
340
22
 70
     0
280
     1
281
     0
  0
BLOCK_RECORD
  5
1B
330
1
100
AcDbSymbolTableRecord
100
AcDbBlockTableRecord
  2
*Paper_Space
340
1E
 70
     0
280
     1
281
     0
  0
BLOCK_RECORD
  5
23
330
1
100
AcDbSymbolTableRecord
100
AcDbBlockTableRecord
  2
*Paper_Space0
340
26
 70
     0
280
     1
281
     0
  0
ENDTAB
  0
ENDSEC
  0
SECTION
  2
BLOCKS
  0
BLOCK
  5
20
330
1F
100
AcDbEntity
  8
0
100
AcDbBlockBegin
  2
*Model_Space
 70
     0
 10
0.0
 20
0.0
 30
0.0
  3
*Model_Space
  1

  0
ENDBLK
  5
21
330
1F
100
AcDbEntity
  8
0
100
AcDbBlockEnd
  0
BLOCK
  5
1C
330
1B
100
AcDbEntity
 67
     1
  8
0
100
AcDbBlockBegin
  2
*Paper_Space
 70
     0
 10
0.0
 20
0.0
 30
0.0
  3
*Paper_Space
  1

  0
ENDBLK
  5
1D
330
1B
100
AcDbEntity
 67
     1
  8
0
100
AcDbBlockEnd
  0
BLOCK
  5
24
330
23
100
AcDbEntity
  8
0
100
AcDbBlockBegin
  2
*Paper_Space0
 70
     0
 10
0.0
 20
0.0
 30
0.0
  3
*Paper_Space0
  1

  0
ENDBLK
  5
25
330
23
100
AcDbEntity
  8
0
100
AcDbBlockEnd
  0
ENDSEC
  0
SECTION
  2
ENTITIES
  0
LWPOLYLINE
  5
41
330
1F
100
AcDbEntity
  8
layer 1
 62
   250
100
AcDbPolyline
 90
        5
 70
     1
 43
0.0
 10
-187.4401
 20
-114.9816
 10
-51.4549
 20
-114.9816
 10
-51.4549
 20
131.6894
 10
-187.4401
 20
131.6894
 10
-187.4401
 20
-114.9816
  0
SPLINE
  5
42
330
1F
100
AcDbEntity
  8
layer 1
 62
     7
100
AcDbSpline
210
0.0
220
0.0
230
1.0
 70
    11
 71
     3
 72
    36
 73
    32
 74
     0
 42
0.0000000001
 43
0.0000000001
 12
1.0
 22
0.0
 32
0.0
 13
1.0
 23
0.0
 33
0.0
 40
0.0
 40
0.0
 40
0.0
 40
0.0
 40
0.1111111111111111
 40
0.1111111111111111
 40
0.1111111111111111
 40
0.1111111111111111
 40
0.2222222222222222
 40
0.2222222222222222
 40
0.2222222222222222
 40
0.2222222222222222
 40
0.3333333333333333
 40
0.3333333333333333
 40
0.3333333333333333
 40
0.3333333333333333
 40
0.4444444444444444
 40
0.4444444444444444
 40
0.4444444444444444
 40
0.4444444444444444
 40
0.5555555555555556
 40
0.5555555555555556
 40
0.5555555555555556
 40
0.5555555555555556
 40
0.6666666666666666
 40
0.6666666666666666
 40
0.6666666666666666
 40
0.6666666666666666
 40
0.7777777777777778
 40
0.7777777777777778
 40
0.7777777777777778
 40
0.7777777777777778
 40
1.0
 40
1.0
 40
1.0
 40
1.0
 10
-139.4707
 20
90.8925
 30
0.0
 10
-139.4707
 20
90.8925
 30
0.0
 10
-147.116
 20
83.2463
 30
0.0
 10
-147.116
 20
83.2463
 30
0.0
 10
-147.116
 20
83.2463
 30
0.0
 10
-147.116
 20
83.2463
 30
0.0
 10
-157.9289
 20
83.2463
 30
0.0
 10
-157.9289
 20
83.2463
 30
0.0
 10
-157.9289
 20
83.2463
 30
0.0
 10
-157.9289
 20
83.2463
 30
0.0
 10
-165.575
 20
90.8917
 30
0.0
 10
-165.575
 20
90.8917
 30
0.0
 10
-165.575
 20
90.8917
 30
0.0
 10
-165.575
 20
90.8917
 30
0.0
 10
-165.5759
 20
101.7045
 30
0.0
 10
-165.5759
 20
101.7045
 30
0.0
 10
-165.5759
 20
101.7045
 30
0.0
 10
-165.5759
 20
101.7045
 30
0.0
 10
-157.9305
 20
109.3507
 30
0.0
 10
-157.9305
 20
109.3507
 30
0.0
 10
-157.9305
 20
109.3507
 30
0.0
 10
-157.9305
 20
109.3507
 30
0.0
 10
-147.1175
 20
109.3507
 30
0.0
 10
-147.1175
 20
109.3507
 30
0.0
 10
-147.1175
 20
109.3507
 30
0.0
 10
-147.1175
 20
109.3507
 30
0.0
 10
-139.4716
 20
101.7056
 30
0.0
 10
-139.4716
 20
101.7056
 30
0.0
 10
-139.4716
 20
101.7056
 30
0.0
 10
-139.4716
 20
101.7056
 30
0.0
 10
-139.4707
 20
90.8925
 30
0.0
 10
-139.4707
 20
90.8925
 30
0.0
  0
SPLINE
  5
43
330
1F
100
AcDbEntity
  8
layer 1
 62
     7
100
AcDbSpline
210
0.0
220
0.0
230
1.0
 70
    11
 71
     3
 72
    36
 73
    32
 74
     0
 42
0.0000000001
 43
0.0000000001
 12
1.0
 22
0.0
 32
0.0
 13
1.0
 23
0.0
 33
0.0
 40
0.0
 40
0.0
 40
0.0
 40
0.0
 40
0.1111111111111111
 40
0.1111111111111111
 40
0.1111111111111111
 40
0.1111111111111111
 40
0.2222222222222222
 40
0.2222222222222222
 40
0.2222222222222222
 40
0.2222222222222222
 40
0.3333333333333333
 40
0.3333333333333333
 40
0.3333333333333333
 40
0.3333333333333333
 40
0.4444444444444444
 40
0.4444444444444444
 40
0.4444444444444444
 40
0.4444444444444444
 40
0.5555555555555556
 40
0.5555555555555556
 40
0.5555555555555556
 40
0.5555555555555556
 40
0.6666666666666666
 40
0.6666666666666666
 40
0.6666666666666666
 40
0.6666666666666666
 40
0.7777777777777778
 40
0.7777777777777778
 40
0.7777777777777778
 40
0.7777777777777778
 40
1.0
 40
1.0
 40
1.0
 40
1.0
 10
-155.9257
 20
79.6792
 30
0.0
 10
-155.9257
 20
79.6792
 30
0.0
 10
-148.7073
 20
79.6792
 30
0.0
 10
-148.7073
 20
79.6792
 30
0.0
 10
-148.7073
 20
79.6792
 30
0.0
 10
-147.6927
 20
79.6792
 30
0.0
 10
-146.876
 20
78.8622
 30
0.0
 10
-146.876
 20
77.8475
 30
0.0
 10
-146.876
 20
77.8475
 30
0.0
 10
-146.876
 20
77.8475
 30
0.0
 10
-146.876
 20
70.6294
 30
0.0
 10
-146.876
 20
70.6294
 30
0.0
 10
-146.876
 20
70.6294
 30
0.0
 10
-146.876
 20
69.6147
 30
0.0
 10
-147.6928
 20
68.7983
 30
0.0
 10
-148.7075
 20
68.7983
 30
0.0
 10
-148.7075
 20
68.7983
 30
0.0
 10
-148.7075
 20
68.7983
 30
0.0
 10
-155.9257
 20
68.7983
 30
0.0
 10
-155.9257
 20
68.7983
 30
0.0
 10
-155.9257
 20
68.7983
 30
0.0
 10
-156.9406
 20
68.7983
 30
0.0
 10
-157.7566
 20
69.6144
 30
0.0
 10
-157.7566
 20
70.6292
 30
0.0
 10
-157.7566
 20
70.6292
 30
0.0
 10
-157.7566
 20
70.6292
 30
0.0
 10
-157.7566
 20
77.8477
 30
0.0
 10
-157.7566
 20
77.8477
 30
0.0
 10
-157.7566
 20
77.8477
 30
0.0
 10
-157.7566
 20
78.8624
 30
0.0
 10
-156.9406
 20
79.679
 30
0.0
 10
-155.9257
 20
79.6792
 30
0.0
  0
SPLINE
  5
44
330
1F
100
AcDbEntity
  8
layer 1
 62
     7
100
AcDbSpline
210
0.0
220
0.0
230
1.0
 70
    11
 71
     3
 72
    36
 73
    32
 74
     0
 42
0.0000000001
 43
0.0000000001
 12
1.0
 22
0.0
 32
0.0
 13
1.0
 23
0.0
 33
0.0
 40
0.0
 40
0.0
 40
0.0
 40
0.0
 40
0.1111111111111111
 40
0.1111111111111111
 40
0.1111111111111111
 40
0.1111111111111111
 40
0.2222222222222222
 40
0.2222222222222222
 40
0.2222222222222222
 40
0.2222222222222222
 40
0.3333333333333333
 40
0.3333333333333333
 40
0.3333333333333333
 40
0.3333333333333333
 40
0.4444444444444444
 40
0.4444444444444444
 40
0.4444444444444444
 40
0.4444444444444444
 40
0.5555555555555556
 40
0.5555555555555556
 40
0.5555555555555556
 40
0.5555555555555556
 40
0.6666666666666666
 40
0.6666666666666666
 40
0.6666666666666666
 40
0.6666666666666666
 40
0.7777777777777778
 40
0.7777777777777778
 40
0.7777777777777778
 40
0.7777777777777778
 40
1.0
 40
1.0
 40
1.0
 40
1.0
 10
-134.0005
 20
101.5881
 30
0.0
 10
-134.0005
 20
101.5881
 30
0.0
 10
-126.7821
 20
101.5881
 30
0.0
 10
-126.7821
 20
101.5881
 30
0.0
 10
-126.7821
 20
101.5881
 30
0.0
 10
-125.7674
 20
101.5881
 30
0.0
 10
-124.9514
 20
100.7711
 30
0.0
 10
-124.9514
 20
99.7564
 30
0.0
 10
-124.9514
 20
99.7564
 30
0.0
 10
-124.9514
 20
99.7564
 30
0.0
 10
-124.9514
 20
92.538
 30
0.0
 10
-124.9514
 20
92.538
 30
0.0
 10
-124.9514
 20
92.538
 30
0.0
 10
-124.9514
 20
91.5233
 30
0.0
 10
-125.7675
 20
90.7074
 30
0.0
 10
-126.7822
 20
90.7074
 30
0.0
 10
-126.7822
 20
90.7074
 30
0.0
 10
-126.7822
 20
90.7074
 30
0.0
 10
-134.0005
 20
90.7076
 30
0.0
 10
-134.0005
 20
90.7076
 30
0.0
 10
-134.0005
 20
90.7076
 30
0.0
 10
-135.0152
 20
90.7076
 30
0.0
 10
-135.8323
 20
91.5233
 30
0.0
 10
-135.8323
 20
92.538
 30
0.0
 10
-135.8323
 20
92.538
 30
0.0
 10
-135.8323
 20
92.538
 30
0.0
 10
-135.8322
 20
99.7564
 30
0.0
 10
-135.8322
 20
99.7564
 30
0.0
 10
-135.8322
 20
99.7564
 30
0.0
 10
-135.8322
 20
100.7713
 30
0.0
 10
-135.0153
 20
101.5881
 30
0.0
 10
-134.0005
 20
101.5881
 30
0.0
  0
SPLINE
  5
45
330
1F
100
AcDbEntity
  8
layer 1
 62
     7
100
AcDbSpline
210
0.0
220
0.0
230
1.0
 70
    11
 71
     3
 72
    36
 73
    32
 74
     0
 42
0.0000000001
 43
0.0000000001
 12
1.0
 22
0.0
 32
0.0
 13
1.0
 23
0.0
 33
0.0
 40
0.0
 40
0.0
 40
0.0
 40
0.0
 40
0.1111111111111111
 40
0.1111111111111111
 40
0.1111111111111111
 40
0.1111111111111111
 40
0.2222222222222222
 40
0.2222222222222222
 40
0.2222222222222222
 40
0.2222222222222222
 40
0.3333333333333333
 40
0.3333333333333333
 40
0.3333333333333333
 40
0.3333333333333333
 40
0.4444444444444444
 40
0.4444444444444444
 40
0.4444444444444444
 40
0.4444444444444444
 40
0.5555555555555556
 40
0.5555555555555556
 40
0.5555555555555556
 40
0.5555555555555556
 40
0.6666666666666666
 40
0.6666666666666666
 40
0.6666666666666666
 40
0.6666666666666666
 40
0.7777777777777778
 40
0.7777777777777778
 40
0.7777777777777778
 40
0.7777777777777778
 40
1.0
 40
1.0
 40
1.0
 40
1.0
 10
-95.3205
 20
90.8925
 30
0.0
 10
-95.3205
 20
90.8925
 30
0.0
 10
-102.9655
 20
83.2463
 30
0.0
 10
-102.9655
 20
83.2463
 30
0.0
 10
-102.9655
 20
83.2463
 30
0.0
 10
-102.9655
 20
83.2463
 30
0.0
 10
-113.7784
 20
83.2463
 30
0.0
 10
-113.7784
 20
83.2463
 30
0.0
 10
-113.7784
 20
83.2463
 30
0.0
 10
-113.7784
 20
83.2463
 30
0.0
 10
-121.4248
 20
90.8917
 30
0.0
 10
-121.4248
 20
90.8917
 30
0.0
 10
-121.4248
 20
90.8917
 30
0.0
 10
-121.4248
 20
90.8917
 30
0.0
 10
-121.4248
 20
101.7045
 30
0.0
 10
-121.4248
 20
101.7045
 30
0.0
 10
-121.4248
 20
101.7045
 30
0.0
 10
-121.4248
 20
101.7045
 30
0.0
 10
-113.7794
 20
109.3507
 30
0.0
 10
-113.7794
 20
109.3507
 30
0.0
 10
-113.7794
 20
109.3507
 30
0.0
 10
-113.7794
 20
109.3507
 30
0.0
 10
-102.9664
 20
109.3507
 30
0.0
 10
-102.9664
 20
109.3507
 30
0.0
 10
-102.9664
 20
109.3507
 30
0.0
 10
-102.9664
 20
109.3507
 30
0.0
 10
-95.3205
 20
101.7056
 30
0.0
 10
-95.3205
 20
101.7056
 30
0.0
 10
-95.3205
 20
101.7056
 30
0.0
 10
-95.3205
 20
101.7056
 30
0.0
 10
-95.3205
 20
90.8925
 30
0.0
 10
-95.3205
 20
90.8925
 30
0.0
  0
SPLINE
  5
46
330
1F
100
AcDbEntity
  8
layer 1
 62
     7
100
AcDbSpline
210
0.0
220
0.0
230
1.0
 70
    11
 71
     3
 72
    36
 73
    32
 74
     0
 42
0.0000000001
 43
0.0000000001
 12
1.0
 22
0.0
 32
0.0
 13
1.0
 23
0.0
 33
0.0
 40
0.0
 40
0.0
 40
0.0
 40
0.0
 40
0.1111111111111111
 40
0.1111111111111111
 40
0.1111111111111111
 40
0.1111111111111111
 40
0.2222222222222222
 40
0.2222222222222222
 40
0.2222222222222222
 40
0.2222222222222222
 40
0.3333333333333333
 40
0.3333333333333333
 40
0.3333333333333333
 40
0.3333333333333333
 40
0.4444444444444444
 40
0.4444444444444444
 40
0.4444444444444444
 40
0.4444444444444444
 40
0.5555555555555556
 40
0.5555555555555556
 40
0.5555555555555556
 40
0.5555555555555556
 40
0.6666666666666666
 40
0.6666666666666666
 40
0.6666666666666666
 40
0.6666666666666666
 40
0.7777777777777778
 40
0.7777777777777778
 40
0.7777777777777778
 40
0.7777777777777778
 40
1.0
 40
1.0
 40
1.0
 40
1.0
 10
-117.3674
 20
68.8168
 30
0.0
 10
-117.3674
 20
68.8168
 30
0.0
 10
-125.0128
 20
61.1706
 30
0.0
 10
-125.0128
 20
61.1706
 30
0.0
 10
-125.0128
 20
61.1706
 30
0.0
 10
-125.0128
 20
61.1706
 30
0.0
 10
-135.8257
 20
61.1706
 30
0.0
 10
-135.8257
 20
61.1706
 30
0.0
 10
-135.8257
 20
61.1706
 30
0.0
 10
-135.8257
 20
61.1706
 30
0.0
 10
-143.4717
 20
68.816
 30
0.0
 10
-143.4717
 20
68.816
 30
0.0
 10
-143.4717
 20
68.816
 30
0.0
 10
-143.4717
 20
68.816
 30
0.0
 10
-143.4726
 20
79.6288
 30
0.0
 10
-143.4726
 20
79.6288
 30
0.0
 10
-143.4726
 20
79.6288
 30
0.0
 10
-143.4726
 20
79.6288
 30
0.0
 10
-135.8267
 20
87.275
 30
0.0
 10
-135.8267
 20
87.275
 30
0.0
 10
-135.8267
 20
87.275
 30
0.0
 10
-135.8267
 20
87.275
 30
0.0
 10
-125.0144
 20
87.275
 30
0.0
 10
-125.0144
 20
87.275
 30
0.0
 10
-125.0144
 20
87.275
 30
0.0
 10
-125.0144
 20
87.275
 30
0.0
 10
-117.3674
 20
79.6299
 30
0.0
 10
-117.3674
 20
79.6299
 30
0.0
 10
-117.3674
 20
79.6299
 30
0.0
 10
-117.3674
 20
79.6299
 30
0.0
 10
-117.3674
 20
68.8168
 30
0.0
 10
-117.3674
 20
68.8168
 30
0.0
  0
SPLINE
  5
47
330
1F
100
AcDbEntity
  8
layer 1
 62
     7
100
AcDbSpline
210
0.0
220
0.0
230
1.0
 70
    11
 71
     3
 72
    36
 73
    32
 74
     0
 42
0.0000000001
 43
0.0000000001
 12
1.0
 22
0.0
 32
0.0
 13
1.0
 23
0.0
 33
0.0
 40
0.0
 40
0.0
 40
0.0
 40
0.0
 40
0.1111111111111111
 40
0.1111111111111111
 40
0.1111111111111111
 40
0.1111111111111111
 40
0.2222222222222222
 40
0.2222222222222222
 40
0.2222222222222222
 40
0.2222222222222222
 40
0.3333333333333333
 40
0.3333333333333333
 40
0.3333333333333333
 40
0.3333333333333333
 40
0.4444444444444444
 40
0.4444444444444444
 40
0.4444444444444444
 40
0.4444444444444444
 40
0.5555555555555556
 40
0.5555555555555556
 40
0.5555555555555556
 40
0.5555555555555556
 40
0.6666666666666666
 40
0.6666666666666666
 40
0.6666666666666666
 40
0.6666666666666666
 40
0.7777777777777778
 40
0.7777777777777778
 40
0.7777777777777778
 40
0.7777777777777778
 40
1.0
 40
1.0
 40
1.0
 40
1.0
 10
-111.9852
 20
79.6792
 30
0.0
 10
-111.9852
 20
79.6792
 30
0.0
 10
-104.7659
 20
79.6792
 30
0.0
 10
-104.7659
 20
79.6792
 30
0.0
 10
-104.7659
 20
79.6792
 30
0.0
 10
-103.7522
 20
79.6792
 30
0.0
 10
-102.9354
 20
78.8622
 30
0.0
 10
-102.9354
 20
77.8475
 30
0.0
 10
-102.9354
 20
77.8475
 30
0.0
 10
-102.9354
 20
77.8475
 30
0.0
 10
-102.9353
 20
70.6294
 30
0.0
 10
-102.9353
 20
70.6294
 30
0.0
 10
-102.9353
 20
70.6294
 30
0.0
 10
-102.9353
 20
69.6147
 30
0.0
 10
-103.7522
 20
68.7983
 30
0.0
 10
-104.7659
 20
68.7983
 30
0.0
 10
-104.7659
 20
68.7983
 30
0.0
 10
-104.7659
 20
68.7983
 30
0.0
 10
-111.9852
 20
68.7983
 30
0.0
 10
-111.9852
 20
68.7983
 30
0.0
 10
-111.9852
 20
68.7983
 30
0.0
 10
-112.999
 20
68.7983
 30
0.0
 10
-113.8161
 20
69.6144
 30
0.0
 10
-113.8161
 20
70.6292
 30
0.0
 10
-113.8161
 20
70.6292
 30
0.0
 10
-113.8161
 20
70.6292
 30
0.0
 10
-113.8161
 20
77.8477
 30
0.0
 10
-113.8161
 20
77.8477
 30
0.0
 10
-113.8161
 20
77.8477
 30
0.0
 10
-113.8161
 20
78.8624
 30
0.0
 10
-112.999
 20
79.679
 30
0.0
 10
-111.9852
 20
79.6792
 30
0.0
  0
SPLINE
  5
48
330
1F
100
AcDbEntity
  8
layer 1
 62
     7
100
AcDbSpline
210
0.0
220
0.0
230
1.0
 70
    11
 71
     3
 72
    28
 73
    24
 74
     0
 42
0.0000000001
 43
0.0000000001
 12
1.0
 22
0.0
 32
0.0
 13
1.0
 23
0.0
 33
0.0
 40
0.0
 40
0.0
 40
0.0
 40
0.0
 40
0.1428571428571428
 40
0.1428571428571428
 40
0.1428571428571428
 40
0.1428571428571428
 40
0.2857142857142857
 40
0.2857142857142857
 40
0.2857142857142857
 40
0.2857142857142857
 40
0.4285714285714285
 40
0.4285714285714285
 40
0.4285714285714285
 40
0.4285714285714285
 40
0.5714285714285714
 40
0.5714285714285714
 40
0.5714285714285714
 40
0.5714285714285714
 40
0.7142857142857143
 40
0.7142857142857143
 40
0.7142857142857143
 40
0.7142857142857143
 40
1.0
 40
1.0
 40
1.0
 40
1.0
 10
-161.5552
 20
68.8743
 30
0.0
 10
-161.5552
 20
68.8743
 30
0.0
 10
-169.2005
 20
61.2281
 30
0.0
 10
-169.2005
 20
61.2281
 30
0.0
 10
-169.2005
 20
61.2281
 30
0.0
 10
-169.2005
 20
61.2281
 30
0.0
 10
-180.0134
 20
61.2281
 30
0.0
 10
-180.0134
 20
61.2281
 30
0.0
 10
-180.0134
 20
61.2281
 30
0.0
 10
-180.0134
 20
61.2281
 30
0.0
 10
-180.015
 20
87.3325
 30
0.0
 10
-180.015
 20
87.3325
 30
0.0
 10
-180.015
 20
87.3325
 30
0.0
 10
-180.015
 20
87.3325
 30
0.0
 10
-169.202
 20
87.3325
 30
0.0
 10
-169.202
 20
87.3325
 30
0.0
 10
-169.202
 20
87.3325
 30
0.0
 10
-169.202
 20
87.3325
 30
0.0
 10
-161.5561
 20
79.6874
 30
0.0
 10
-161.5561
 20
79.6874
 30
0.0
 10
-161.5561
 20
79.6874
 30
0.0
 10
-161.5561
 20
79.6874
 30
0.0
 10
-161.5552
 20
68.8743
 30
0.0
 10
-161.5552
 20
68.8743
 30
0.0
  0
SPLINE
  5
49
330
1F
100
AcDbEntity
  8
layer 1
 62
     7
100
AcDbSpline
210
0.0
220
0.0
230
1.0
 70
    11
 71
     3
 72
    36
 73
    32
 74
     0
 42
0.0000000001
 43
0.0000000001
 12
1.0
 22
0.0
 32
0.0
 13
1.0
 23
0.0
 33
0.0
 40
0.0
 40
0.0
 40
0.0
 40
0.0
 40
0.1111111111111111
 40
0.1111111111111111
 40
0.1111111111111111
 40
0.1111111111111111
 40
0.2222222222222222
 40
0.2222222222222222
 40
0.2222222222222222
 40
0.2222222222222222
 40
0.3333333333333333
 40
0.3333333333333333
 40
0.3333333333333333
 40
0.3333333333333333
 40
0.4444444444444444
 40
0.4444444444444444
 40
0.4444444444444444
 40
0.4444444444444444
 40
0.5555555555555556
 40
0.5555555555555556
 40
0.5555555555555556
 40
0.5555555555555556
 40
0.6666666666666666
 40
0.6666666666666666
 40
0.6666666666666666
 40
0.6666666666666666
 40
0.7777777777777778
 40
0.7777777777777778
 40
0.7777777777777778
 40
0.7777777777777778
 40
1.0
 40
1.0
 40
1.0
 40
1.0
 10
-155.9257
 20
123.6788
 30
0.0
 10
-155.9257
 20
123.6788
 30
0.0
 10
-148.7073
 20
123.6788
 30
0.0
 10
-148.7073
 20
123.6788
 30
0.0
 10
-148.7073
 20
123.6788
 30
0.0
 10
-147.6927
 20
123.6788
 30
0.0
 10
-146.876
 20
122.8619
 30
0.0
 10
-146.876
 20
121.8471
 30
0.0
 10
-146.876
 20
121.8471
 30
0.0
 10
-146.876
 20
121.8471
 30
0.0
 10
-146.876
 20
114.629
 30
0.0
 10
-146.876
 20
114.629
 30
0.0
 10
-146.876
 20
114.629
 30
0.0
 10
-146.876
 20
113.6143
 30
0.0
 10
-147.6928
 20
112.7979
 30
0.0
 10
-148.7075
 20
112.7979
 30
0.0
 10
-148.7075
 20
112.7979
 30
0.0
 10
-148.7075
 20
112.7979
 30
0.0
 10
-155.9257
 20
112.7979
 30
0.0
 10
-155.9257
 20
112.7979
 30
0.0
 10
-155.9257
 20
112.7979
 30
0.0
 10
-156.9406
 20
112.7979
 30
0.0
 10
-157.7566
 20
113.614
 30
0.0
 10
-157.7566
 20
114.6288
 30
0.0
 10
-157.7566
 20
114.6288
 30
0.0
 10
-157.7566
 20
114.6288
 30
0.0
 10
-157.7566
 20
121.8473
 30
0.0
 10
-157.7566
 20
121.8473
 30
0.0
 10
-157.7566
 20
121.8473
 30
0.0
 10
-157.7566
 20
122.862
 30
0.0
 10
-156.9406
 20
123.6786
 30
0.0
 10
-155.9257
 20
123.6788
 30
0.0
  0
SPLINE
  5
4A
330
1F
100
AcDbEntity
  8
layer 1
 62
     7
100
AcDbSpline
210
0.0
220
0.0
230
1.0
 70
    11
 71
     3
 72
    28
 73
    24
 74
     0
 42
0.0000000001
 43
0.0000000001
 12
1.0
 22
0.0
 32
0.0
 13
1.0
 23
0.0
 33
0.0
 40
0.0
 40
0.0
 40
0.0
 40
0.0
 40
0.1428571428571428
 40
0.1428571428571428
 40
0.1428571428571428
 40
0.1428571428571428
 40
0.2857142857142857
 40
0.2857142857142857
 40
0.2857142857142857
 40
0.2857142857142857
 40
0.4285714285714285
 40
0.4285714285714285
 40
0.4285714285714285
 40
0.4285714285714285
 40
0.5714285714285714
 40
0.5714285714285714
 40
0.5714285714285714
 40
0.5714285714285714
 40
0.7142857142857143
 40
0.7142857142857143
 40
0.7142857142857143
 40
0.7142857142857143
 40
1.0
 40
1.0
 40
1.0
 40
1.0
 10
-117.3674
 20
112.8164
 30
0.0
 10
-117.3674
 20
112.8164
 30
0.0
 10
-125.0128
 20
105.1702
 30
0.0
 10
-125.0128
 20
105.1702
 30
0.0
 10
-125.0128
 20
105.1702
 30
0.0
 10
-125.0128
 20
105.1702
 30
0.0
 10
-135.8257
 20
105.1702
 30
0.0
 10
-135.8257
 20
105.1702
 30
0.0
 10
-135.8257
 20
105.1702
 30
0.0
 10
-135.8257
 20
105.1702
 30
0.0
 10
-143.4717
 20
112.8156
 30
0.0
 10
-143.4717
 20
112.8156
 30
0.0
 10
-143.4717
 20
112.8156
 30
0.0
 10
-143.4717
 20
112.8156
 30
0.0
 10
-143.4726
 20
123.6285
 30
0.0
 10
-143.4726
 20
123.6285
 30
0.0
 10
-143.4726
 20
123.6285
 30
0.0
 10
-143.4726
 20
123.6285
 30
0.0
 10
-117.3674
 20
123.6295
 30
0.0
 10
-117.3674
 20
123.6295
 30
0.0
 10
-117.3674
 20
123.6295
 30
0.0
 10
-117.3674
 20
123.6295
 30
0.0
 10
-117.3674
 20
112.8164
 30
0.0
 10
-117.3674
 20
112.8164
 30
0.0
  0
SPLINE
  5
4B
330
1F
100
AcDbEntity
  8
layer 1
 62
     7
100
AcDbSpline
210
0.0
220
0.0
230
1.0
 70
    11
 71
     3
 72
    36
 73
    32
 74
     0
 42
0.0000000001
 43
0.0000000001
 12
1.0
 22
0.0
 32
0.0
 13
1.0
 23
0.0
 33
0.0
 40
0.0
 40
0.0
 40
0.0
 40
0.0
 40
0.1111111111111111
 40
0.1111111111111111
 40
0.1111111111111111
 40
0.1111111111111111
 40
0.2222222222222222
 40
0.2222222222222222
 40
0.2222222222222222
 40
0.2222222222222222
 40
0.3333333333333333
 40
0.3333333333333333
 40
0.3333333333333333
 40
0.3333333333333333
 40
0.4444444444444444
 40
0.4444444444444444
 40
0.4444444444444444
 40
0.4444444444444444
 40
0.5555555555555556
 40
0.5555555555555556
 40
0.5555555555555556
 40
0.5555555555555556
 40
0.6666666666666666
 40
0.6666666666666666
 40
0.6666666666666666
 40
0.6666666666666666
 40
0.7777777777777778
 40
0.7777777777777778
 40
0.7777777777777778
 40
0.7777777777777778
 40
1.0
 40
1.0
 40
1.0
 40
1.0
 10
-111.9852
 20
123.6788
 30
0.0
 10
-111.9852
 20
123.6788
 30
0.0
 10
-104.7659
 20
123.6788
 30
0.0
 10
-104.7659
 20
123.6788
 30
0.0
 10
-104.7659
 20
123.6788
 30
0.0
 10
-103.7522
 20
123.6788
 30
0.0
 10
-102.9354
 20
122.8619
 30
0.0
 10
-102.9354
 20
121.8471
 30
0.0
 10
-102.9354
 20
121.8471
 30
0.0
 10
-102.9354
 20
121.8471
 30
0.0
 10
-102.9353
 20
114.629
 30
0.0
 10
-102.9353
 20
114.629
 30
0.0
 10
-102.9353
 20
114.629
 30
0.0
 10
-102.9353
 20
113.6143
 30
0.0
 10
-103.7522
 20
112.7979
 30
0.0
 10
-104.7659
 20
112.7979
 30
0.0
 10
-104.7659
 20
112.7979
 30
0.0
 10
-104.7659
 20
112.7979
 30
0.0
 10
-111.9852
 20
112.7979
 30
0.0
 10
-111.9852
 20
112.7979
 30
0.0
 10
-111.9852
 20
112.7979
 30
0.0
 10
-112.999
 20
112.7979
 30
0.0
 10
-113.8161
 20
113.614
 30
0.0
 10
-113.8161
 20
114.6288
 30
0.0
 10
-113.8161
 20
114.6288
 30
0.0
 10
-113.8161
 20
114.6288
 30
0.0
 10
-113.8161
 20
121.8473
 30
0.0
 10
-113.8161
 20
121.8473
 30
0.0
 10
-113.8161
 20
121.8473
 30
0.0
 10
-113.8161
 20
122.862
 30
0.0
 10
-112.999
 20
123.6786
 30
0.0
 10
-111.9852
 20
123.6788
 30
0.0
  0
SPLINE
  5
4C
330
1F
100
AcDbEntity
  8
layer 1
 62
     7
100
AcDbSpline
210
0.0
220
0.0
230
1.0
 70
    11
 71
     3
 72
    24
 73
    20
 74
     0
 42
0.0000000001
 43
0.0000000001
 12
1.0
 22
0.0
 32
0.0
 13
1.0
 23
0.0
 33
0.0
 40
0.0
 40
0.0
 40
0.0
 40
0.0
 40
0.1666666666666667
 40
0.1666666666666667
 40
0.1666666666666667
 40
0.1666666666666667
 40
0.3333333333333333
 40
0.3333333333333333
 40
0.3333333333333333
 40
0.3333333333333333
 40
0.5
 40
0.5
 40
0.5
 40
0.5
 40
0.6666666666666666
 40
0.6666666666666666
 40
0.6666666666666666
 40
0.6666666666666666
 40
1.0
 40
1.0
 40
1.0
 40
1.0
 10
-161.5552
 20
112.8739
 30
0.0
 10
-161.5552
 20
112.8739
 30
0.0
 10
-169.2005
 20
105.2277
 30
0.0
 10
-169.2005
 20
105.2277
 30
0.0
 10
-169.2005
 20
105.2277
 30
0.0
 10
-169.2005
 20
105.2277
 30
0.0
 10
-180.0134
 20
105.2277
 30
0.0
 10
-180.0134
 20
105.2277
 30
0.0
 10
-180.0134
 20
105.2277
 30
0.0
 10
-180.0134
 20
105.2277
 30
0.0
 10
-179.9227
 20
123.6862
 30
0.0
 10
-179.9227
 20
123.6862
 30
0.0
 10
-179.9227
 20
123.6862
 30
0.0
 10
-179.9227
 20
123.6862
 30
0.0
 10
-161.5561
 20
123.687
 30
0.0
 10
-161.5561
 20
123.687
 30
0.0
 10
-161.5561
 20
123.687
 30
0.0
 10
-161.5561
 20
123.687
 30
0.0
 10
-161.5552
 20
112.8739
 30
0.0
 10
-161.5552
 20
112.8739
 30
0.0
  0
SPLINE
  5
4D
330
1F
100
AcDbEntity
  8
layer 1
 62
     7
100
AcDbSpline
210
0.0
220
0.0
230
1.0
 70
    11
 71
     3
 72
    36
 73
    32
 74
     0
 42
0.0000000001
 43
0.0000000001
 12
1.0
 22
0.0
 32
0.0
 13
1.0
 23
0.0
 33
0.0
 40
0.0
 40
0.0
 40
0.0
 40
0.0
 40
0.1111111111111111
 40
0.1111111111111111
 40
0.1111111111111111
 40
0.1111111111111111
 40
0.2222222222222222
 40
0.2222222222222222
 40
0.2222222222222222
 40
0.2222222222222222
 40
0.3333333333333333
 40
0.3333333333333333
 40
0.3333333333333333
 40
0.3333333333333333
 40
0.4444444444444444
 40
0.4444444444444444
 40
0.4444444444444444
 40
0.4444444444444444
 40
0.5555555555555556
 40
0.5555555555555556
 40
0.5555555555555556
 40
0.5555555555555556
 40
0.6666666666666666
 40
0.6666666666666666
 40
0.6666666666666666
 40
0.6666666666666666
 40
0.7777777777777778
 40
0.7777777777777778
 40
0.7777777777777778
 40
0.7777777777777778
 40
1.0
 40
1.0
 40
1.0
 40
1.0
 10
-178.0435
 20
101.6606
 30
0.0
 10
-178.0435
 20
101.6606
 30
0.0
 10
-170.8251
 20
101.6606
 30
0.0
 10
-170.8251
 20
101.6606
 30
0.0
 10
-170.8251
 20
101.6606
 30
0.0
 10
-169.8104
 20
101.6606
 30
0.0
 10
-168.9937
 20
100.8437
 30
0.0
 10
-168.9937
 20
99.8289
 30
0.0
 10
-168.9937
 20
99.8289
 30
0.0
 10
-168.9937
 20
99.8289
 30
0.0
 10
-168.9937
 20
92.6108
 30
0.0
 10
-168.9937
 20
92.6108
 30
0.0
 10
-168.9937
 20
92.6108
 30
0.0
 10
-168.9937
 20
91.5961
 30
0.0
 10
-169.8105
 20
90.7798
 30
0.0
 10
-170.8252
 20
90.7798
 30
0.0
 10
-170.8252
 20
90.7798
 30
0.0
 10
-170.8252
 20
90.7798
 30
0.0
 10
-178.0435
 20
90.7798
 30
0.0
 10
-178.0435
 20
90.7798
 30
0.0
 10
-178.0435
 20
90.7798
 30
0.0
 10
-179.0583
 20
90.7798
 30
0.0
 10
-179.8744
 20
91.5959
 30
0.0
 10
-179.8744
 20
92.6106
 30
0.0
 10
-179.8744
 20
92.6106
 30
0.0
 10
-179.8744
 20
92.6106
 30
0.0
 10
-179.8743
 20
99.8291
 30
0.0
 10
-179.8743
 20
99.8291
 30
0.0
 10
-179.8743
 20
99.8291
 30
0.0
 10
-179.8743
 20
100.8438
 30
0.0
 10
-179.0583
 20
101.6604
 30
0.0
 10
-178.0435
 20
101.6606
 30
0.0
  0
SPLINE
  5
4E
330
1F
100
AcDbEntity
  8
layer 1
 62
     7
100
AcDbSpline
210
0.0
220
0.0
230
1.0
 70
    11
 71
     3
 72
    36
 73
    32
 74
     0
 42
0.0000000001
 43
0.0000000001
 12
1.0
 22
0.0
 32
0.0
 13
1.0
 23
0.0
 33
0.0
 40
0.0
 40
0.0
 40
0.0
 40
0.0
 40
0.1111111111111111
 40
0.1111111111111111
 40
0.1111111111111111
 40
0.1111111111111111
 40
0.2222222222222222
 40
0.2222222222222222
 40
0.2222222222222222
 40
0.2222222222222222
 40
0.3333333333333333
 40
0.3333333333333333
 40
0.3333333333333333
 40
0.3333333333333333
 40
0.4444444444444444
 40
0.4444444444444444
 40
0.4444444444444444
 40
0.4444444444444444
 40
0.5555555555555556
 40
0.5555555555555556
 40
0.5555555555555556
 40
0.5555555555555556
 40
0.6666666666666666
 40
0.6666666666666666
 40
0.6666666666666666
 40
0.6666666666666666
 40
0.7777777777777778
 40
0.7777777777777778
 40
0.7777777777777778
 40
0.7777777777777778
 40
1.0
 40
1.0
 40
1.0
 40
1.0
 10
-89.945
 20
101.6245
 30
0.0
 10
-89.945
 20
101.6245
 30
0.0
 10
-82.7266
 20
101.6245
 30
0.0
 10
-82.7266
 20
101.6245
 30
0.0
 10
-82.7266
 20
101.6245
 30
0.0
 10
-81.7119
 20
101.6245
 30
0.0
 10
-80.8959
 20
100.8075
 30
0.0
 10
-80.8959
 20
99.7927
 30
0.0
 10
-80.8959
 20
99.7927
 30
0.0
 10
-80.8959
 20
99.7927
 30
0.0
 10
-80.8959
 20
92.5744
 30
0.0
 10
-80.8959
 20
92.5744
 30
0.0
 10
-80.8959
 20
92.5744
 30
0.0
 10
-80.8959
 20
91.5597
 30
0.0
 10
-81.712
 20
90.7438
 30
0.0
 10
-82.7267
 20
90.7438
 30
0.0
 10
-82.7267
 20
90.7438
 30
0.0
 10
-82.7267
 20
90.7438
 30
0.0
 10
-89.945
 20
90.7439
 30
0.0
 10
-89.945
 20
90.7439
 30
0.0
 10
-89.945
 20
90.7439
 30
0.0
 10
-90.9598
 20
90.7439
 30
0.0
 10
-91.7769
 20
91.5596
 30
0.0
 10
-91.7769
 20
92.5744
 30
0.0
 10
-91.7769
 20
92.5744
 30
0.0
 10
-91.7769
 20
92.5744
 30
0.0
 10
-91.7767
 20
99.7927
 30
0.0
 10
-91.7767
 20
99.7927
 30
0.0
 10
-91.7767
 20
99.7927
 30
0.0
 10
-91.7767
 20
100.8077
 30
0.0
 10
-90.9598
 20
101.6245
 30
0.0
 10
-89.945
 20
101.6245
 30
0.0
  0
SPLINE
  5
4F
330
1F
100
AcDbEntity
  8
layer 1
 62
     7
100
AcDbSpline
210
0.0
220
0.0
230
1.0
 70
    11
 71
     3
 72
    28
 73
    24
 74
     0
 42
0.0000000001
 43
0.0000000001
 12
1.0
 22
0.0
 32
0.0
 13
1.0
 23
0.0
 33
0.0
 40
0.0
 40
0.0
 40
0.0
 40
0.0
 40
0.1428571428571428
 40
0.1428571428571428
 40
0.1428571428571428
 40
0.1428571428571428
 40
0.2857142857142857
 40
0.2857142857142857
 40
0.2857142857142857
 40
0.2857142857142857
 40
0.4285714285714285
 40
0.4285714285714285
 40
0.4285714285714285
 40
0.4285714285714285
 40
0.5714285714285714
 40
0.5714285714285714
 40
0.5714285714285714
 40
0.5714285714285714
 40
0.7142857142857143
 40
0.7142857142857143
 40
0.7142857142857143
 40
0.7142857142857143
 40
1.0
 40
1.0
 40
1.0
 40
1.0
 10
-58.9101
 20
83.2826
 30
0.0
 10
-58.9101
 20
83.2826
 30
0.0
 10
-69.723
 20
83.2826
 30
0.0
 10
-69.723
 20
83.2826
 30
0.0
 10
-69.723
 20
83.2826
 30
0.0
 10
-69.723
 20
83.2826
 30
0.0
 10
-77.3693
 20
90.928
 30
0.0
 10
-77.3693
 20
90.928
 30
0.0
 10
-77.3693
 20
90.928
 30
0.0
 10
-77.3693
 20
90.928
 30
0.0
 10
-77.3693
 20
101.7409
 30
0.0
 10
-77.3693
 20
101.7409
 30
0.0
 10
-77.3693
 20
101.7409
 30
0.0
 10
-77.3693
 20
101.7409
 30
0.0
 10
-69.7239
 20
109.3871
 30
0.0
 10
-69.7239
 20
109.3871
 30
0.0
 10
-69.7239
 20
109.3871
 30
0.0
 10
-69.7239
 20
109.3871
 30
0.0
 10
-58.911
 20
109.3871
 30
0.0
 10
-58.911
 20
109.3871
 30
0.0
 10
-58.911
 20
109.3871
 30
0.0
 10
-58.911
 20
109.3871
 30
0.0
 10
-58.9101
 20
83.2826
 30
0.0
 10
-58.9101
 20
83.2826
 30
0.0
  0
SPLINE
  5
50
330
1F
100
AcDbEntity
  8
layer 1
 62
     7
100
AcDbSpline
210
0.0
220
0.0
230
1.0
 70
    11
 71
     3
 72
    36
 73
    32
 74
     0
 42
0.0000000001
 43
0.0000000001
 12
1.0
 22
0.0
 32
0.0
 13
1.0
 23
0.0
 33
0.0
 40
0.0
 40
0.0
 40
0.0
 40
0.0
 40
0.1111111111111111
 40
0.1111111111111111
 40
0.1111111111111111
 40
0.1111111111111111
 40
0.2222222222222222
 40
0.2222222222222222
 40
0.2222222222222222
 40
0.2222222222222222
 40
0.3333333333333333
 40
0.3333333333333333
 40
0.3333333333333333
 40
0.3333333333333333
 40
0.4444444444444444
 40
0.4444444444444444
 40
0.4444444444444444
 40
0.4444444444444444
 40
0.5555555555555556
 40
0.5555555555555556
 40
0.5555555555555556
 40
0.5555555555555556
 40
0.6666666666666666
 40
0.6666666666666666
 40
0.6666666666666666
 40
0.6666666666666666
 40
0.7777777777777778
 40
0.7777777777777778
 40
0.7777777777777778
 40
0.7777777777777778
 40
1.0
 40
1.0
 40
1.0
 40
1.0
 10
-73.3119
 20
68.8531
 30
0.0
 10
-73.3119
 20
68.8531
 30
0.0
 10
-80.9574
 20
61.2069
 30
0.0
 10
-80.9574
 20
61.2069
 30
0.0
 10
-80.9574
 20
61.2069
 30
0.0
 10
-80.9574
 20
61.2069
 30
0.0
 10
-91.7703
 20
61.2069
 30
0.0
 10
-91.7703
 20
61.2069
 30
0.0
 10
-91.7703
 20
61.2069
 30
0.0
 10
-91.7703
 20
61.2069
 30
0.0
 10
-99.4163
 20
68.8523
 30
0.0
 10
-99.4163
 20
68.8523
 30
0.0
 10
-99.4163
 20
68.8523
 30
0.0
 10
-99.4163
 20
68.8523
 30
0.0
 10
-99.4172
 20
79.6652
 30
0.0
 10
-99.4172
 20
79.6652
 30
0.0
 10
-99.4172
 20
79.6652
 30
0.0
 10
-99.4172
 20
79.6652
 30
0.0
 10
-91.7712
 20
87.3114
 30
0.0
 10
-91.7712
 20
87.3114
 30
0.0
 10
-91.7712
 20
87.3114
 30
0.0
 10
-91.7712
 20
87.3114
 30
0.0
 10
-80.9589
 20
87.3114
 30
0.0
 10
-80.9589
 20
87.3114
 30
0.0
 10
-80.9589
 20
87.3114
 30
0.0
 10
-80.9589
 20
87.3114
 30
0.0
 10
-73.3119
 20
79.6663
 30
0.0
 10
-73.3119
 20
79.6663
 30
0.0
 10
-73.3119
 20
79.6663
 30
0.0
 10
-73.3119
 20
79.6663
 30
0.0
 10
-73.3119
 20
68.8531
 30
0.0
 10
-73.3119
 20
68.8531
 30
0.0
  0
SPLINE
  5
51
330
1F
100
AcDbEntity
  8
layer 1
 62
     7
100
AcDbSpline
210
0.0
220
0.0
230
1.0
 70
    11
 71
     3
 72
    36
 73
    32
 74
     0
 42
0.0000000001
 43
0.0000000001
 12
1.0
 22
0.0
 32
0.0
 13
1.0
 23
0.0
 33
0.0
 40
0.0
 40
0.0
 40
0.0
 40
0.0
 40
0.1111111111111111
 40
0.1111111111111111
 40
0.1111111111111111
 40
0.1111111111111111
 40
0.2222222222222222
 40
0.2222222222222222
 40
0.2222222222222222
 40
0.2222222222222222
 40
0.3333333333333333
 40
0.3333333333333333
 40
0.3333333333333333
 40
0.3333333333333333
 40
0.4444444444444444
 40
0.4444444444444444
 40
0.4444444444444444
 40
0.4444444444444444
 40
0.5555555555555556
 40
0.5555555555555556
 40
0.5555555555555556
 40
0.5555555555555556
 40
0.6666666666666666
 40
0.6666666666666666
 40
0.6666666666666666
 40
0.6666666666666666
 40
0.7777777777777778
 40
0.7777777777777778
 40
0.7777777777777778
 40
0.7777777777777778
 40
1.0
 40
1.0
 40
1.0
 40
1.0
 10
-67.9298
 20
79.7156
 30
0.0
 10
-67.9298
 20
79.7156
 30
0.0
 10
-60.7105
 20
79.7156
 30
0.0
 10
-60.7105
 20
79.7156
 30
0.0
 10
-60.7105
 20
79.7156
 30
0.0
 10
-59.6967
 20
79.7156
 30
0.0
 10
-58.8799
 20
78.8986
 30
0.0
 10
-58.8799
 20
77.8839
 30
0.0
 10
-58.8799
 20
77.8839
 30
0.0
 10
-58.8799
 20
77.8839
 30
0.0
 10
-58.8799
 20
70.6657
 30
0.0
 10
-58.8799
 20
70.6657
 30
0.0
 10
-58.8799
 20
70.6657
 30
0.0
 10
-58.8799
 20
69.651
 30
0.0
 10
-59.6967
 20
68.8347
 30
0.0
 10
-60.7105
 20
68.8347
 30
0.0
 10
-60.7105
 20
68.8347
 30
0.0
 10
-60.7105
 20
68.8347
 30
0.0
 10
-67.9298
 20
68.8347
 30
0.0
 10
-67.9298
 20
68.8347
 30
0.0
 10
-67.9298
 20
68.8347
 30
0.0
 10
-68.9435
 20
68.8347
 30
0.0
 10
-69.7606
 20
69.6508
 30
0.0
 10
-69.7606
 20
70.6655
 30
0.0
 10
-69.7606
 20
70.6655
 30
0.0
 10
-69.7606
 20
70.6655
 30
0.0
 10
-69.7606
 20
77.8841
 30
0.0
 10
-69.7606
 20
77.8841
 30
0.0
 10
-69.7606
 20
77.8841
 30
0.0
 10
-69.7606
 20
78.8987
 30
0.0
 10
-68.9436
 20
79.7154
 30
0.0
 10
-67.9298
 20
79.7156
 30
0.0
  0
SPLINE
  5
52
330
1F
100
AcDbEntity
  8
layer 1
 62
     7
100
AcDbSpline
210
0.0
220
0.0
230
1.0
 70
    11
 71
     3
 72
    28
 73
    24
 74
     0
 42
0.0000000001
 43
0.0000000001
 12
1.0
 22
0.0
 32
0.0
 13
1.0
 23
0.0
 33
0.0
 40
0.0
 40
0.0
 40
0.0
 40
0.0
 40
0.1428571428571428
 40
0.1428571428571428
 40
0.1428571428571428
 40
0.1428571428571428
 40
0.2857142857142857
 40
0.2857142857142857
 40
0.2857142857142857
 40
0.2857142857142857
 40
0.4285714285714285
 40
0.4285714285714285
 40
0.4285714285714285
 40
0.4285714285714285
 40
0.5714285714285714
 40
0.5714285714285714
 40
0.5714285714285714
 40
0.5714285714285714
 40
0.7142857142857143
 40
0.7142857142857143
 40
0.7142857142857143
 40
0.7142857142857143
 40
1.0
 40
1.0
 40
1.0
 40
1.0
 10
-73.3119
 20
112.8528
 30
0.0
 10
-73.3119
 20
112.8528
 30
0.0
 10
-80.9574
 20
105.2066
 30
0.0
 10
-80.9574
 20
105.2066
 30
0.0
 10
-80.9574
 20
105.2066
 30
0.0
 10
-80.9574
 20
105.2066
 30
0.0
 10
-91.7703
 20
105.2066
 30
0.0
 10
-91.7703
 20
105.2066
 30
0.0
 10
-91.7703
 20
105.2066
 30
0.0
 10
-91.7703
 20
105.2066
 30
0.0
 10
-99.4163
 20
112.852
 30
0.0
 10
-99.4163
 20
112.852
 30
0.0
 10
-99.4163
 20
112.852
 30
0.0
 10
-99.4163
 20
112.852
 30
0.0
 10
-99.4172
 20
123.6648
 30
0.0
 10
-99.4172
 20
123.6648
 30
0.0
 10
-99.4172
 20
123.6648
 30
0.0
 10
-99.4172
 20
123.6648
 30
0.0
 10
-73.3119
 20
123.6659
 30
0.0
 10
-73.3119
 20
123.6659
 30
0.0
 10
-73.3119
 20
123.6659
 30
0.0
 10
-73.3119
 20
123.6659
 30
0.0
 10
-73.3119
 20
112.8528
 30
0.0
 10
-73.3119
 20
112.8528
 30
0.0
  0
SPLINE
  5
53
330
1F
100
AcDbEntity
  8
layer 1
 62
     7
100
AcDbSpline
210
0.0
220
0.0
230
1.0
 70
    11
 71
     3
 72
    36
 73
    32
 74
     0
 42
0.0000000001
 43
0.0000000001
 12
1.0
 22
0.0
 32
0.0
 13
1.0
 23
0.0
 33
0.0
 40
0.0
 40
0.0
 40
0.0
 40
0.0
 40
0.1111111111111111
 40
0.1111111111111111
 40
0.1111111111111111
 40
0.1111111111111111
 40
0.2222222222222222
 40
0.2222222222222222
 40
0.2222222222222222
 40
0.2222222222222222
 40
0.3333333333333333
 40
0.3333333333333333
 40
0.3333333333333333
 40
0.3333333333333333
 40
0.4444444444444444
 40
0.4444444444444444
 40
0.4444444444444444
 40
0.4444444444444444
 40
0.5555555555555556
 40
0.5555555555555556
 40
0.5555555555555556
 40
0.5555555555555556
 40
0.6666666666666666
 40
0.6666666666666666
 40
0.6666666666666666
 40
0.6666666666666666
 40
0.7777777777777778
 40
0.7777777777777778
 40
0.7777777777777778
 40
0.7777777777777778
 40
1.0
 40
1.0
 40
1.0
 40
1.0
 10
-67.9298
 20
123.7152
 30
0.0
 10
-67.9298
 20
123.7152
 30
0.0
 10
-60.7105
 20
123.7152
 30
0.0
 10
-60.7105
 20
123.7152
 30
0.0
 10
-60.7105
 20
123.7152
 30
0.0
 10
-59.6967
 20
123.7152
 30
0.0
 10
-58.8799
 20
122.8982
 30
0.0
 10
-58.8799
 20
121.8835
 30
0.0
 10
-58.8799
 20
121.8835
 30
0.0
 10
-58.8799
 20
121.8835
 30
0.0
 10
-58.8799
 20
114.6653
 30
0.0
 10
-58.8799
 20
114.6653
 30
0.0
 10
-58.8799
 20
114.6653
 30
0.0
 10
-58.8799
 20
113.6507
 30
0.0
 10
-59.6967
 20
112.8343
 30
0.0
 10
-60.7105
 20
112.8343
 30
0.0
 10
-60.7105
 20
112.8343
 30
0.0
 10
-60.7105
 20
112.8343
 30
0.0
 10
-67.9298
 20
112.8343
 30
0.0
 10
-67.9298
 20
112.8343
 30
0.0
 10
-67.9298
 20
112.8343
 30
0.0
 10
-68.9435
 20
112.8343
 30
0.0
 10
-69.7606
 20
113.6504
 30
0.0
 10
-69.7606
 20
114.6651
 30
0.0
 10
-69.7606
 20
114.6651
 30
0.0
 10
-69.7606
 20
114.6651
 30
0.0
 10
-69.7606
 20
121.8837
 30
0.0
 10
-69.7606
 20
121.8837
 30
0.0
 10
-69.7606
 20
121.8837
 30
0.0
 10
-69.7606
 20
122.8984
 30
0.0
 10
-68.9436
 20
123.715
 30
0.0
 10
-67.9298
 20
123.7152
 30
0.0
  0
SPLINE
  5
54
330
1F
100
AcDbEntity
  8
layer 1
 62
     7
100
AcDbSpline
210
0.0
220
0.0
230
1.0
 70
    11
 71
     3
 72
    36
 73
    32
 74
     0
 42
0.0000000001
 43
0.0000000001
 12
1.0
 22
0.0
 32
0.0
 13
1.0
 23
0.0
 33
0.0
 40
0.0
 40
0.0
 40
0.0
 40
0.0
 40
0.1111111111111111
 40
0.1111111111111111
 40
0.1111111111111111
 40
0.1111111111111111
 40
0.2222222222222222
 40
0.2222222222222222
 40
0.2222222222222222
 40
0.2222222222222222
 40
0.3333333333333333
 40
0.3333333333333333
 40
0.3333333333333333
 40
0.3333333333333333
 40
0.4444444444444444
 40
0.4444444444444444
 40
0.4444444444444444
 40
0.4444444444444444
 40
0.5555555555555556
 40
0.5555555555555556
 40
0.5555555555555556
 40
0.5555555555555556
 40
0.6666666666666666
 40
0.6666666666666666
 40
0.6666666666666666
 40
0.6666666666666666
 40
0.7777777777777778
 40
0.7777777777777778
 40
0.7777777777777778
 40
0.7777777777777778
 40
1.0
 40
1.0
 40
1.0
 40
1.0
 10
-139.4707
 20
47.0069
 30
0.0
 10
-139.4707
 20
47.0069
 30
0.0
 10
-147.116
 20
39.3607
 30
0.0
 10
-147.116
 20
39.3607
 30
0.0
 10
-147.116
 20
39.3607
 30
0.0
 10
-147.116
 20
39.3607
 30
0.0
 10
-157.9289
 20
39.3607
 30
0.0
 10
-157.9289
 20
39.3607
 30
0.0
 10
-157.9289
 20
39.3607
 30
0.0
 10
-157.9289
 20
39.3607
 30
0.0
 10
-165.575
 20
47.0061
 30
0.0
 10
-165.575
 20
47.0061
 30
0.0
 10
-165.575
 20
47.0061
 30
0.0
 10
-165.575
 20
47.0061
 30
0.0
 10
-165.5759
 20
57.819
 30
0.0
 10
-165.5759
 20
57.819
 30
0.0
 10
-165.5759
 20
57.819
 30
0.0
 10
-165.5759
 20
57.819
 30
0.0
 10
-157.9305
 20
65.4652
 30
0.0
 10
-157.9305
 20
65.4652
 30
0.0
 10
-157.9305
 20
65.4652
 30
0.0
 10
-157.9305
 20
65.4652
 30
0.0
 10
-147.1175
 20
65.4652
 30
0.0
 10
-147.1175
 20
65.4652
 30
0.0
 10
-147.1175
 20
65.4652
 30
0.0
 10
-147.1175
 20
65.4652
 30
0.0
 10
-139.4716
 20
57.82
 30
0.0
 10
-139.4716
 20
57.82
 30
0.0
 10
-139.4716
 20
57.82
 30
0.0
 10
-139.4716
 20
57.82
 30
0.0
 10
-139.4707
 20
47.0069
 30
0.0
 10
-139.4707
 20
47.0069
 30
0.0
  0
SPLINE
  5
55
330
1F
100
AcDbEntity
  8
layer 1
 62
     7
100
AcDbSpline
210
0.0
220
0.0
230
1.0
 70
    11
 71
     3
 72
    36
 73
    32
 74
     0
 42
0.0000000001
 43
0.0000000001
 12
1.0
 22
0.0
 32
0.0
 13
1.0
 23
0.0
 33
0.0
 40
0.0
 40
0.0
 40
0.0
 40
0.0
 40
0.1111111111111111
 40
0.1111111111111111
 40
0.1111111111111111
 40
0.1111111111111111
 40
0.2222222222222222
 40
0.2222222222222222
 40
0.2222222222222222
 40
0.2222222222222222
 40
0.3333333333333333
 40
0.3333333333333333
 40
0.3333333333333333
 40
0.3333333333333333
 40
0.4444444444444444
 40
0.4444444444444444
 40
0.4444444444444444
 40
0.4444444444444444
 40
0.5555555555555556
 40
0.5555555555555556
 40
0.5555555555555556
 40
0.5555555555555556
 40
0.6666666666666666
 40
0.6666666666666666
 40
0.6666666666666666
 40
0.6666666666666666
 40
0.7777777777777778
 40
0.7777777777777778
 40
0.7777777777777778
 40
0.7777777777777778
 40
1.0
 40
1.0
 40
1.0
 40
1.0
 10
-155.9257
 20
35.7937
 30
0.0
 10
-155.9257
 20
35.7937
 30
0.0
 10
-148.7073
 20
35.7937
 30
0.0
 10
-148.7073
 20
35.7937
 30
0.0
 10
-148.7073
 20
35.7937
 30
0.0
 10
-147.6927
 20
35.7937
 30
0.0
 10
-146.876
 20
34.9767
 30
0.0
 10
-146.876
 20
33.962
 30
0.0
 10
-146.876
 20
33.962
 30
0.0
 10
-146.876
 20
33.962
 30
0.0
 10
-146.876
 20
26.7438
 30
0.0
 10
-146.876
 20
26.7438
 30
0.0
 10
-146.876
 20
26.7438
 30
0.0
 10
-146.876
 20
25.7292
 30
0.0
 10
-147.6928
 20
24.9128
 30
0.0
 10
-148.7075
 20
24.9128
 30
0.0
 10
-148.7075
 20
24.9128
 30
0.0
 10
-148.7075
 20
24.9128
 30
0.0
 10
-155.9257
 20
24.9128
 30
0.0
 10
-155.9257
 20
24.9128
 30
0.0
 10
-155.9257
 20
24.9128
 30
0.0
 10
-156.9406
 20
24.9128
 30
0.0
 10
-157.7566
 20
25.7289
 30
0.0
 10
-157.7566
 20
26.7436
 30
0.0
 10
-157.7566
 20
26.7436
 30
0.0
 10
-157.7566
 20
26.7436
 30
0.0
 10
-157.7566
 20
33.9622
 30
0.0
 10
-157.7566
 20
33.9622
 30
0.0
 10
-157.7566
 20
33.9622
 30
0.0
 10
-157.7566
 20
34.9769
 30
0.0
 10
-156.9406
 20
35.7935
 30
0.0
 10
-155.9257
 20
35.7937
 30
0.0
  0
SPLINE
  5
56
330
1F
100
AcDbEntity
  8
layer 1
 62
     7
100
AcDbSpline
210
0.0
220
0.0
230
1.0
 70
    11
 71
     3
 72
    36
 73
    32
 74
     0
 42
0.0000000001
 43
0.0000000001
 12
1.0
 22
0.0
 32
0.0
 13
1.0
 23
0.0
 33
0.0
 40
0.0
 40
0.0
 40
0.0
 40
0.0
 40
0.1111111111111111
 40
0.1111111111111111
 40
0.1111111111111111
 40
0.1111111111111111
 40
0.2222222222222222
 40
0.2222222222222222
 40
0.2222222222222222
 40
0.2222222222222222
 40
0.3333333333333333
 40
0.3333333333333333
 40
0.3333333333333333
 40
0.3333333333333333
 40
0.4444444444444444
 40
0.4444444444444444
 40
0.4444444444444444
 40
0.4444444444444444
 40
0.5555555555555556
 40
0.5555555555555556
 40
0.5555555555555556
 40
0.5555555555555556
 40
0.6666666666666666
 40
0.6666666666666666
 40
0.6666666666666666
 40
0.6666666666666666
 40
0.7777777777777778
 40
0.7777777777777778
 40
0.7777777777777778
 40
0.7777777777777778
 40
1.0
 40
1.0
 40
1.0
 40
1.0
 10
-134.0005
 20
57.7026
 30
0.0
 10
-134.0005
 20
57.7026
 30
0.0
 10
-126.7821
 20
57.7026
 30
0.0
 10
-126.7821
 20
57.7026
 30
0.0
 10
-126.7821
 20
57.7026
 30
0.0
 10
-125.7674
 20
57.7026
 30
0.0
 10
-124.9514
 20
56.8856
 30
0.0
 10
-124.9514
 20
55.8708
 30
0.0
 10
-124.9514
 20
55.8708
 30
0.0
 10
-124.9514
 20
55.8708
 30
0.0
 10
-124.9514
 20
48.6525
 30
0.0
 10
-124.9514
 20
48.6525
 30
0.0
 10
-124.9514
 20
48.6525
 30
0.0
 10
-124.9514
 20
47.6378
 30
0.0
 10
-125.7675
 20
46.8219
 30
0.0
 10
-126.7822
 20
46.8219
 30
0.0
 10
-126.7822
 20
46.8219
 30
0.0
 10
-126.7822
 20
46.8219
 30
0.0
 10
-134.0005
 20
46.8221
 30
0.0
 10
-134.0005
 20
46.8221
 30
0.0
 10
-134.0005
 20
46.8221
 30
0.0
 10
-135.0152
 20
46.8221
 30
0.0
 10
-135.8323
 20
47.6378
 30
0.0
 10
-135.8323
 20
48.6525
 30
0.0
 10
-135.8323
 20
48.6525
 30
0.0
 10
-135.8323
 20
48.6525
 30
0.0
 10
-135.8322
 20
55.8708
 30
0.0
 10
-135.8322
 20
55.8708
 30
0.0
 10
-135.8322
 20
55.8708
 30
0.0
 10
-135.8322
 20
56.8858
 30
0.0
 10
-135.0153
 20
57.7026
 30
0.0
 10
-134.0005
 20
57.7026
 30
0.0
  0
SPLINE
  5
57
330
1F
100
AcDbEntity
  8
layer 1
 62
     7
100
AcDbSpline
210
0.0
220
0.0
230
1.0
 70
    11
 71
     3
 72
    36
 73
    32
 74
     0
 42
0.0000000001
 43
0.0000000001
 12
1.0
 22
0.0
 32
0.0
 13
1.0
 23
0.0
 33
0.0
 40
0.0
 40
0.0
 40
0.0
 40
0.0
 40
0.1111111111111111
 40
0.1111111111111111
 40
0.1111111111111111
 40
0.1111111111111111
 40
0.2222222222222222
 40
0.2222222222222222
 40
0.2222222222222222
 40
0.2222222222222222
 40
0.3333333333333333
 40
0.3333333333333333
 40
0.3333333333333333
 40
0.3333333333333333
 40
0.4444444444444444
 40
0.4444444444444444
 40
0.4444444444444444
 40
0.4444444444444444
 40
0.5555555555555556
 40
0.5555555555555556
 40
0.5555555555555556
 40
0.5555555555555556
 40
0.6666666666666666
 40
0.6666666666666666
 40
0.6666666666666666
 40
0.6666666666666666
 40
0.7777777777777778
 40
0.7777777777777778
 40
0.7777777777777778
 40
0.7777777777777778
 40
1.0
 40
1.0
 40
1.0
 40
1.0
 10
-95.3205
 20
47.0069
 30
0.0
 10
-95.3205
 20
47.0069
 30
0.0
 10
-102.9655
 20
39.3607
 30
0.0
 10
-102.9655
 20
39.3607
 30
0.0
 10
-102.9655
 20
39.3607
 30
0.0
 10
-102.9655
 20
39.3607
 30
0.0
 10
-113.7784
 20
39.3607
 30
0.0
 10
-113.7784
 20
39.3607
 30
0.0
 10
-113.7784
 20
39.3607
 30
0.0
 10
-113.7784
 20
39.3607
 30
0.0
 10
-121.4248
 20
47.0061
 30
0.0
 10
-121.4248
 20
47.0061
 30
0.0
 10
-121.4248
 20
47.0061
 30
0.0
 10
-121.4248
 20
47.0061
 30
0.0
 10
-121.4248
 20
57.819
 30
0.0
 10
-121.4248
 20
57.819
 30
0.0
 10
-121.4248
 20
57.819
 30
0.0
 10
-121.4248
 20
57.819
 30
0.0
 10
-113.7794
 20
65.4652
 30
0.0
 10
-113.7794
 20
65.4652
 30
0.0
 10
-113.7794
 20
65.4652
 30
0.0
 10
-113.7794
 20
65.4652
 30
0.0
 10
-102.9664
 20
65.4652
 30
0.0
 10
-102.9664
 20
65.4652
 30
0.0
 10
-102.9664
 20
65.4652
 30
0.0
 10
-102.9664
 20
65.4652
 30
0.0
 10
-95.3205
 20
57.82
 30
0.0
 10
-95.3205
 20
57.82
 30
0.0
 10
-95.3205
 20
57.82
 30
0.0
 10
-95.3205
 20
57.82
 30
0.0
 10
-95.3205
 20
47.0069
 30
0.0
 10
-95.3205
 20
47.0069
 30
0.0
  0
SPLINE
  5
58
330
1F
100
AcDbEntity
  8
layer 1
 62
     7
100
AcDbSpline
210
0.0
220
0.0
230
1.0
 70
    11
 71
     3
 72
    36
 73
    32
 74
     0
 42
0.0000000001
 43
0.0000000001
 12
1.0
 22
0.0
 32
0.0
 13
1.0
 23
0.0
 33
0.0
 40
0.0
 40
0.0
 40
0.0
 40
0.0
 40
0.1111111111111111
 40
0.1111111111111111
 40
0.1111111111111111
 40
0.1111111111111111
 40
0.2222222222222222
 40
0.2222222222222222
 40
0.2222222222222222
 40
0.2222222222222222
 40
0.3333333333333333
 40
0.3333333333333333
 40
0.3333333333333333
 40
0.3333333333333333
 40
0.4444444444444444
 40
0.4444444444444444
 40
0.4444444444444444
 40
0.4444444444444444
 40
0.5555555555555556
 40
0.5555555555555556
 40
0.5555555555555556
 40
0.5555555555555556
 40
0.6666666666666666
 40
0.6666666666666666
 40
0.6666666666666666
 40
0.6666666666666666
 40
0.7777777777777778
 40
0.7777777777777778
 40
0.7777777777777778
 40
0.7777777777777778
 40
1.0
 40
1.0
 40
1.0
 40
1.0
 10
-117.3674
 20
24.9313
 30
0.0
 10
-117.3674
 20
24.9313
 30
0.0
 10
-125.0128
 20
17.2851
 30
0.0
 10
-125.0128
 20
17.2851
 30
0.0
 10
-125.0128
 20
17.2851
 30
0.0
 10
-125.0128
 20
17.2851
 30
0.0
 10
-135.8257
 20
17.2851
 30
0.0
 10
-135.8257
 20
17.2851
 30
0.0
 10
-135.8257
 20
17.2851
 30
0.0
 10
-135.8257
 20
17.2851
 30
0.0
 10
-143.4717
 20
24.9305
 30
0.0
 10
-143.4717
 20
24.9305
 30
0.0
 10
-143.4717
 20
24.9305
 30
0.0
 10
-143.4717
 20
24.9305
 30
0.0
 10
-143.4726
 20
35.7433
 30
0.0
 10
-143.4726
 20
35.7433
 30
0.0
 10
-143.4726
 20
35.7433
 30
0.0
 10
-143.4726
 20
35.7433
 30
0.0
 10
-135.8267
 20
43.3895
 30
0.0
 10
-135.8267
 20
43.3895
 30
0.0
 10
-135.8267
 20
43.3895
 30
0.0
 10
-135.8267
 20
43.3895
 30
0.0
 10
-125.0144
 20
43.3895
 30
0.0
 10
-125.0144
 20
43.3895
 30
0.0
 10
-125.0144
 20
43.3895
 30
0.0
 10
-125.0144
 20
43.3895
 30
0.0
 10
-117.3674
 20
35.7444
 30
0.0
 10
-117.3674
 20
35.7444
 30
0.0
 10
-117.3674
 20
35.7444
 30
0.0
 10
-117.3674
 20
35.7444
 30
0.0
 10
-117.3674
 20
24.9313
 30
0.0
 10
-117.3674
 20
24.9313
 30
0.0
  0
SPLINE
  5
59
330
1F
100
AcDbEntity
  8
layer 1
 62
     7
100
AcDbSpline
210
0.0
220
0.0
230
1.0
 70
    11
 71
     3
 72
    36
 73
    32
 74
     0
 42
0.0000000001
 43
0.0000000001
 12
1.0
 22
0.0
 32
0.0
 13
1.0
 23
0.0
 33
0.0
 40
0.0
 40
0.0
 40
0.0
 40
0.0
 40
0.1111111111111111
 40
0.1111111111111111
 40
0.1111111111111111
 40
0.1111111111111111
 40
0.2222222222222222
 40
0.2222222222222222
 40
0.2222222222222222
 40
0.2222222222222222
 40
0.3333333333333333
 40
0.3333333333333333
 40
0.3333333333333333
 40
0.3333333333333333
 40
0.4444444444444444
 40
0.4444444444444444
 40
0.4444444444444444
 40
0.4444444444444444
 40
0.5555555555555556
 40
0.5555555555555556
 40
0.5555555555555556
 40
0.5555555555555556
 40
0.6666666666666666
 40
0.6666666666666666
 40
0.6666666666666666
 40
0.6666666666666666
 40
0.7777777777777778
 40
0.7777777777777778
 40
0.7777777777777778
 40
0.7777777777777778
 40
1.0
 40
1.0
 40
1.0
 40
1.0
 10
-111.9852
 20
35.7937
 30
0.0
 10
-111.9852
 20
35.7937
 30
0.0
 10
-104.7659
 20
35.7937
 30
0.0
 10
-104.7659
 20
35.7937
 30
0.0
 10
-104.7659
 20
35.7937
 30
0.0
 10
-103.7522
 20
35.7937
 30
0.0
 10
-102.9354
 20
34.9767
 30
0.0
 10
-102.9354
 20
33.962
 30
0.0
 10
-102.9354
 20
33.962
 30
0.0
 10
-102.9354
 20
33.962
 30
0.0
 10
-102.9353
 20
26.7438
 30
0.0
 10
-102.9353
 20
26.7438
 30
0.0
 10
-102.9353
 20
26.7438
 30
0.0
 10
-102.9353
 20
25.7292
 30
0.0
 10
-103.7522
 20
24.9128
 30
0.0
 10
-104.7659
 20
24.9128
 30
0.0
 10
-104.7659
 20
24.9128
 30
0.0
 10
-104.7659
 20
24.9128
 30
0.0
 10
-111.9852
 20
24.9128
 30
0.0
 10
-111.9852
 20
24.9128
 30
0.0
 10
-111.9852
 20
24.9128
 30
0.0
 10
-112.999
 20
24.9128
 30
0.0
 10
-113.8161
 20
25.7289
 30
0.0
 10
-113.8161
 20
26.7436
 30
0.0
 10
-113.8161
 20
26.7436
 30
0.0
 10
-113.8161
 20
26.7436
 30
0.0
 10
-113.8161
 20
33.9622
 30
0.0
 10
-113.8161
 20
33.9622
 30
0.0
 10
-113.8161
 20
33.9622
 30
0.0
 10
-113.8161
 20
34.9769
 30
0.0
 10
-112.999
 20
35.7935
 30
0.0
 10
-111.9852
 20
35.7937
 30
0.0
  0
SPLINE
  5
5A
330
1F
100
AcDbEntity
  8
layer 1
 62
     7
100
AcDbSpline
210
0.0
220
0.0
230
1.0
 70
    11
 71
     3
 72
    28
 73
    24
 74
     0
 42
0.0000000001
 43
0.0000000001
 12
1.0
 22
0.0
 32
0.0
 13
1.0
 23
0.0
 33
0.0
 40
0.0
 40
0.0
 40
0.0
 40
0.0
 40
0.1428571428571428
 40
0.1428571428571428
 40
0.1428571428571428
 40
0.1428571428571428
 40
0.2857142857142857
 40
0.2857142857142857
 40
0.2857142857142857
 40
0.2857142857142857
 40
0.4285714285714285
 40
0.4285714285714285
 40
0.4285714285714285
 40
0.4285714285714285
 40
0.5714285714285714
 40
0.5714285714285714
 40
0.5714285714285714
 40
0.5714285714285714
 40
0.7142857142857143
 40
0.7142857142857143
 40
0.7142857142857143
 40
0.7142857142857143
 40
1.0
 40
1.0
 40
1.0
 40
1.0
 10
-161.5552
 20
24.9887
 30
0.0
 10
-161.5552
 20
24.9887
 30
0.0
 10
-169.2005
 20
17.3425
 30
0.0
 10
-169.2005
 20
17.3425
 30
0.0
 10
-169.2005
 20
17.3425
 30
0.0
 10
-169.2005
 20
17.3425
 30
0.0
 10
-180.0134
 20
17.3425
 30
0.0
 10
-180.0134
 20
17.3425
 30
0.0
 10
-180.0134
 20
17.3425
 30
0.0
 10
-180.0134
 20
17.3425
 30
0.0
 10
-180.015
 20
43.447
 30
0.0
 10
-180.015
 20
43.447
 30
0.0
 10
-180.015
 20
43.447
 30
0.0
 10
-180.015
 20
43.447
 30
0.0
 10
-169.202
 20
43.447
 30
0.0
 10
-169.202
 20
43.447
 30
0.0
 10
-169.202
 20
43.447
 30
0.0
 10
-169.202
 20
43.447
 30
0.0
 10
-161.5561
 20
35.8019
 30
0.0
 10
-161.5561
 20
35.8019
 30
0.0
 10
-161.5561
 20
35.8019
 30
0.0
 10
-161.5561
 20
35.8019
 30
0.0
 10
-161.5552
 20
24.9887
 30
0.0
 10
-161.5552
 20
24.9887
 30
0.0
  0
SPLINE
  5
5B
330
1F
100
AcDbEntity
  8
layer 1
 62
     7
100
AcDbSpline
210
0.0
220
0.0
230
1.0
 70
    11
 71
     3
 72
    36
 73
    32
 74
     0
 42
0.0000000001
 43
0.0000000001
 12
1.0
 22
0.0
 32
0.0
 13
1.0
 23
0.0
 33
0.0
 40
0.0
 40
0.0
 40
0.0
 40
0.0
 40
0.1111111111111111
 40
0.1111111111111111
 40
0.1111111111111111
 40
0.1111111111111111
 40
0.2222222222222222
 40
0.2222222222222222
 40
0.2222222222222222
 40
0.2222222222222222
 40
0.3333333333333333
 40
0.3333333333333333
 40
0.3333333333333333
 40
0.3333333333333333
 40
0.4444444444444444
 40
0.4444444444444444
 40
0.4444444444444444
 40
0.4444444444444444
 40
0.5555555555555556
 40
0.5555555555555556
 40
0.5555555555555556
 40
0.5555555555555556
 40
0.6666666666666666
 40
0.6666666666666666
 40
0.6666666666666666
 40
0.6666666666666666
 40
0.7777777777777778
 40
0.7777777777777778
 40
0.7777777777777778
 40
0.7777777777777778
 40
1.0
 40
1.0
 40
1.0
 40
1.0
 10
-178.0435
 20
57.7751
 30
0.0
 10
-178.0435
 20
57.7751
 30
0.0
 10
-170.8251
 20
57.7751
 30
0.0
 10
-170.8251
 20
57.7751
 30
0.0
 10
-170.8251
 20
57.7751
 30
0.0
 10
-169.8104
 20
57.7751
 30
0.0
 10
-168.9937
 20
56.9582
 30
0.0
 10
-168.9937
 20
55.9434
 30
0.0
 10
-168.9937
 20
55.9434
 30
0.0
 10
-168.9937
 20
55.9434
 30
0.0
 10
-168.9937
 20
48.7253
 30
0.0
 10
-168.9937
 20
48.7253
 30
0.0
 10
-168.9937
 20
48.7253
 30
0.0
 10
-168.9937
 20
47.7106
 30
0.0
 10
-169.8105
 20
46.8942
 30
0.0
 10
-170.8252
 20
46.8942
 30
0.0
 10
-170.8252
 20
46.8942
 30
0.0
 10
-170.8252
 20
46.8942
 30
0.0
 10
-178.0435
 20
46.8942
 30
0.0
 10
-178.0435
 20
46.8942
 30
0.0
 10
-178.0435
 20
46.8942
 30
0.0
 10
-179.0583
 20
46.8942
 30
0.0
 10
-179.8744
 20
47.7103
 30
0.0
 10
-179.8744
 20
48.7251
 30
0.0
 10
-179.8744
 20
48.7251
 30
0.0
 10
-179.8744
 20
48.7251
 30
0.0
 10
-179.8743
 20
55.9436
 30
0.0
 10
-179.8743
 20
55.9436
 30
0.0
 10
-179.8743
 20
55.9436
 30
0.0
 10
-179.8743
 20
56.9583
 30
0.0
 10
-179.0583
 20
57.7749
 30
0.0
 10
-178.0435
 20
57.7751
 30
0.0
  0
SPLINE
  5
5C
330
1F
100
AcDbEntity
  8
layer 1
 62
     7
100
AcDbSpline
210
0.0
220
0.0
230
1.0
 70
    11
 71
     3
 72
    36
 73
    32
 74
     0
 42
0.0000000001
 43
0.0000000001
 12
1.0
 22
0.0
 32
0.0
 13
1.0
 23
0.0
 33
0.0
 40
0.0
 40
0.0
 40
0.0
 40
0.0
 40
0.1111111111111111
 40
0.1111111111111111
 40
0.1111111111111111
 40
0.1111111111111111
 40
0.2222222222222222
 40
0.2222222222222222
 40
0.2222222222222222
 40
0.2222222222222222
 40
0.3333333333333333
 40
0.3333333333333333
 40
0.3333333333333333
 40
0.3333333333333333
 40
0.4444444444444444
 40
0.4444444444444444
 40
0.4444444444444444
 40
0.4444444444444444
 40
0.5555555555555556
 40
0.5555555555555556
 40
0.5555555555555556
 40
0.5555555555555556
 40
0.6666666666666666
 40
0.6666666666666666
 40
0.6666666666666666
 40
0.6666666666666666
 40
0.7777777777777778
 40
0.7777777777777778
 40
0.7777777777777778
 40
0.7777777777777778
 40
1.0
 40
1.0
 40
1.0
 40
1.0
 10
-89.945
 20
57.739
 30
0.0
 10
-89.945
 20
57.739
 30
0.0
 10
-82.7266
 20
57.739
 30
0.0
 10
-82.7266
 20
57.739
 30
0.0
 10
-82.7266
 20
57.739
 30
0.0
 10
-81.7119
 20
57.739
 30
0.0
 10
-80.8959
 20
56.9219
 30
0.0
 10
-80.8959
 20
55.9072
 30
0.0
 10
-80.8959
 20
55.9072
 30
0.0
 10
-80.8959
 20
55.9072
 30
0.0
 10
-80.8959
 20
48.6888
 30
0.0
 10
-80.8959
 20
48.6888
 30
0.0
 10
-80.8959
 20
48.6888
 30
0.0
 10
-80.8959
 20
47.6742
 30
0.0
 10
-81.712
 20
46.8583
 30
0.0
 10
-82.7267
 20
46.8583
 30
0.0
 10
-82.7267
 20
46.8583
 30
0.0
 10
-82.7267
 20
46.8583
 30
0.0
 10
-89.945
 20
46.8584
 30
0.0
 10
-89.945
 20
46.8584
 30
0.0
 10
-89.945
 20
46.8584
 30
0.0
 10
-90.9598
 20
46.8584
 30
0.0
 10
-91.7769
 20
47.6741
 30
0.0
 10
-91.7769
 20
48.6888
 30
0.0
 10
-91.7769
 20
48.6888
 30
0.0
 10
-91.7769
 20
48.6888
 30
0.0
 10
-91.7767
 20
55.9072
 30
0.0
 10
-91.7767
 20
55.9072
 30
0.0
 10
-91.7767
 20
55.9072
 30
0.0
 10
-91.7767
 20
56.9221
 30
0.0
 10
-90.9598
 20
57.739
 30
0.0
 10
-89.945
 20
57.739
 30
0.0
  0
SPLINE
  5
5D
330
1F
100
AcDbEntity
  8
layer 1
 62
     7
100
AcDbSpline
210
0.0
220
0.0
230
1.0
 70
    11
 71
     3
 72
    28
 73
    24
 74
     0
 42
0.0000000001
 43
0.0000000001
 12
1.0
 22
0.0
 32
0.0
 13
1.0
 23
0.0
 33
0.0
 40
0.0
 40
0.0
 40
0.0
 40
0.0
 40
0.1428571428571428
 40
0.1428571428571428
 40
0.1428571428571428
 40
0.1428571428571428
 40
0.2857142857142857
 40
0.2857142857142857
 40
0.2857142857142857
 40
0.2857142857142857
 40
0.4285714285714285
 40
0.4285714285714285
 40
0.4285714285714285
 40
0.4285714285714285
 40
0.5714285714285714
 40
0.5714285714285714
 40
0.5714285714285714
 40
0.5714285714285714
 40
0.7142857142857143
 40
0.7142857142857143
 40
0.7142857142857143
 40
0.7142857142857143
 40
1.0
 40
1.0
 40
1.0
 40
1.0
 10
-58.9101
 20
39.3971
 30
0.0
 10
-58.9101
 20
39.3971
 30
0.0
 10
-69.723
 20
39.3971
 30
0.0
 10
-69.723
 20
39.3971
 30
0.0
 10
-69.723
 20
39.3971
 30
0.0
 10
-69.723
 20
39.3971
 30
0.0
 10
-77.3693
 20
47.0425
 30
0.0
 10
-77.3693
 20
47.0425
 30
0.0
 10
-77.3693
 20
47.0425
 30
0.0
 10
-77.3693
 20
47.0425
 30
0.0
 10
-77.3693
 20
57.8553
 30
0.0
 10
-77.3693
 20
57.8553
 30
0.0
 10
-77.3693
 20
57.8553
 30
0.0
 10
-77.3693
 20
57.8553
 30
0.0
 10
-69.7239
 20
65.5015
 30
0.0
 10
-69.7239
 20
65.5015
 30
0.0
 10
-69.7239
 20
65.5015
 30
0.0
 10
-69.7239
 20
65.5015
 30
0.0
 10
-58.911
 20
65.5015
 30
0.0
 10
-58.911
 20
65.5015
 30
0.0
 10
-58.911
 20
65.5015
 30
0.0
 10
-58.911
 20
65.5015
 30
0.0
 10
-58.9101
 20
39.3971
 30
0.0
 10
-58.9101
 20
39.3971
 30
0.0
  0
SPLINE
  5
5E
330
1F
100
AcDbEntity
  8
layer 1
 62
     7
100
AcDbSpline
210
0.0
220
0.0
230
1.0
 70
    11
 71
     3
 72
    36
 73
    32
 74
     0
 42
0.0000000001
 43
0.0000000001
 12
1.0
 22
0.0
 32
0.0
 13
1.0
 23
0.0
 33
0.0
 40
0.0
 40
0.0
 40
0.0
 40
0.0
 40
0.1111111111111111
 40
0.1111111111111111
 40
0.1111111111111111
 40
0.1111111111111111
 40
0.2222222222222222
 40
0.2222222222222222
 40
0.2222222222222222
 40
0.2222222222222222
 40
0.3333333333333333
 40
0.3333333333333333
 40
0.3333333333333333
 40
0.3333333333333333
 40
0.4444444444444444
 40
0.4444444444444444
 40
0.4444444444444444
 40
0.4444444444444444
 40
0.5555555555555556
 40
0.5555555555555556
 40
0.5555555555555556
 40
0.5555555555555556
 40
0.6666666666666666
 40
0.6666666666666666
 40
0.6666666666666666
 40
0.6666666666666666
 40
0.7777777777777778
 40
0.7777777777777778
 40
0.7777777777777778
 40
0.7777777777777778
 40
1.0
 40
1.0
 40
1.0
 40
1.0
 10
-73.3119
 20
24.9676
 30
0.0
 10
-73.3119
 20
24.9676
 30
0.0
 10
-80.9574
 20
17.3214
 30
0.0
 10
-80.9574
 20
17.3214
 30
0.0
 10
-80.9574
 20
17.3214
 30
0.0
 10
-80.9574
 20
17.3214
 30
0.0
 10
-91.7703
 20
17.3214
 30
0.0
 10
-91.7703
 20
17.3214
 30
0.0
 10
-91.7703
 20
17.3214
 30
0.0
 10
-91.7703
 20
17.3214
 30
0.0
 10
-99.4163
 20
24.9668
 30
0.0
 10
-99.4163
 20
24.9668
 30
0.0
 10
-99.4163
 20
24.9668
 30
0.0
 10
-99.4163
 20
24.9668
 30
0.0
 10
-99.4172
 20
35.7797
 30
0.0
 10
-99.4172
 20
35.7797
 30
0.0
 10
-99.4172
 20
35.7797
 30
0.0
 10
-99.4172
 20
35.7797
 30
0.0
 10
-91.7712
 20
43.4259
 30
0.0
 10
-91.7712
 20
43.4259
 30
0.0
 10
-91.7712
 20
43.4259
 30
0.0
 10
-91.7712
 20
43.4259
 30
0.0
 10
-80.9589
 20
43.4259
 30
0.0
 10
-80.9589
 20
43.4259
 30
0.0
 10
-80.9589
 20
43.4259
 30
0.0
 10
-80.9589
 20
43.4259
 30
0.0
 10
-73.3119
 20
35.7807
 30
0.0
 10
-73.3119
 20
35.7807
 30
0.0
 10
-73.3119
 20
35.7807
 30
0.0
 10
-73.3119
 20
35.7807
 30
0.0
 10
-73.3119
 20
24.9676
 30
0.0
 10
-73.3119
 20
24.9676
 30
0.0
  0
SPLINE
  5
5F
330
1F
100
AcDbEntity
  8
layer 1
 62
     7
100
AcDbSpline
210
0.0
220
0.0
230
1.0
 70
    11
 71
     3
 72
    36
 73
    32
 74
     0
 42
0.0000000001
 43
0.0000000001
 12
1.0
 22
0.0
 32
0.0
 13
1.0
 23
0.0
 33
0.0
 40
0.0
 40
0.0
 40
0.0
 40
0.0
 40
0.1111111111111111
 40
0.1111111111111111
 40
0.1111111111111111
 40
0.1111111111111111
 40
0.2222222222222222
 40
0.2222222222222222
 40
0.2222222222222222
 40
0.2222222222222222
 40
0.3333333333333333
 40
0.3333333333333333
 40
0.3333333333333333
 40
0.3333333333333333
 40
0.4444444444444444
 40
0.4444444444444444
 40
0.4444444444444444
 40
0.4444444444444444
 40
0.5555555555555556
 40
0.5555555555555556
 40
0.5555555555555556
 40
0.5555555555555556
 40
0.6666666666666666
 40
0.6666666666666666
 40
0.6666666666666666
 40
0.6666666666666666
 40
0.7777777777777778
 40
0.7777777777777778
 40
0.7777777777777778
 40
0.7777777777777778
 40
1.0
 40
1.0
 40
1.0
 40
1.0
 10
-67.9298
 20
35.83
 30
0.0
 10
-67.9298
 20
35.83
 30
0.0
 10
-60.7105
 20
35.83
 30
0.0
 10
-60.7105
 20
35.83
 30
0.0
 10
-60.7105
 20
35.83
 30
0.0
 10
-59.6967
 20
35.83
 30
0.0
 10
-58.8799
 20
35.0131
 30
0.0
 10
-58.8799
 20
33.9983
 30
0.0
 10
-58.8799
 20
33.9983
 30
0.0
 10
-58.8799
 20
33.9983
 30
0.0
 10
-58.8799
 20
26.7802
 30
0.0
 10
-58.8799
 20
26.7802
 30
0.0
 10
-58.8799
 20
26.7802
 30
0.0
 10
-58.8799
 20
25.7655
 30
0.0
 10
-59.6967
 20
24.9492
 30
0.0
 10
-60.7105
 20
24.9492
 30
0.0
 10
-60.7105
 20
24.9492
 30
0.0
 10
-60.7105
 20
24.9492
 30
0.0
 10
-67.9298
 20
24.9492
 30
0.0
 10
-67.9298
 20
24.9492
 30
0.0
 10
-67.9298
 20
24.9492
 30
0.0
 10
-68.9435
 20
24.9492
 30
0.0
 10
-69.7606
 20
25.7653
 30
0.0
 10
-69.7606
 20
26.78
 30
0.0
 10
-69.7606
 20
26.78
 30
0.0
 10
-69.7606
 20
26.78
 30
0.0
 10
-69.7606
 20
33.9985
 30
0.0
 10
-69.7606
 20
33.9985
 30
0.0
 10
-69.7606
 20
33.9985
 30
0.0
 10
-69.7606
 20
35.0132
 30
0.0
 10
-68.9436
 20
35.8298
 30
0.0
 10
-67.9298
 20
35.83
 30
0.0
  0
SPLINE
  5
60
330
1F
100
AcDbEntity
  8
layer 1
 62
     7
100
AcDbSpline
210
0.0
220
0.0
230
1.0
 70
    11
 71
     3
 72
    36
 73
    32
 74
     0
 42
0.0000000001
 43
0.0000000001
 12
1.0
 22
0.0
 32
0.0
 13
1.0
 23
0.0
 33
0.0
 40
0.0
 40
0.0
 40
0.0
 40
0.0
 40
0.1111111111111111
 40
0.1111111111111111
 40
0.1111111111111111
 40
0.1111111111111111
 40
0.2222222222222222
 40
0.2222222222222222
 40
0.2222222222222222
 40
0.2222222222222222
 40
0.3333333333333333
 40
0.3333333333333333
 40
0.3333333333333333
 40
0.3333333333333333
 40
0.4444444444444444
 40
0.4444444444444444
 40
0.4444444444444444
 40
0.4444444444444444
 40
0.5555555555555556
 40
0.5555555555555556
 40
0.5555555555555556
 40
0.5555555555555556
 40
0.6666666666666666
 40
0.6666666666666666
 40
0.6666666666666666
 40
0.6666666666666666
 40
0.7777777777777778
 40
0.7777777777777778
 40
0.7777777777777778
 40
0.7777777777777778
 40
1.0
 40
1.0
 40
1.0
 40
1.0
 10
-139.4707
 20
2.9874
 30
0.0
 10
-139.4707
 20
2.9874
 30
0.0
 10
-147.116
 20
-4.6588
 30
0.0
 10
-147.116
 20
-4.6588
 30
0.0
 10
-147.116
 20
-4.6588
 30
0.0
 10
-147.116
 20
-4.6588
 30
0.0
 10
-157.9289
 20
-4.6588
 30
0.0
 10
-157.9289
 20
-4.6588
 30
0.0
 10
-157.9289
 20
-4.6588
 30
0.0
 10
-157.9289
 20
-4.6588
 30
0.0
 10
-165.575
 20
2.9866
 30
0.0
 10
-165.575
 20
2.9866
 30
0.0
 10
-165.575
 20
2.9866
 30
0.0
 10
-165.575
 20
2.9866
 30
0.0
 10
-165.5759
 20
13.7995
 30
0.0
 10
-165.5759
 20
13.7995
 30
0.0
 10
-165.5759
 20
13.7995
 30
0.0
 10
-165.5759
 20
13.7995
 30
0.0
 10
-157.9305
 20
21.4457
 30
0.0
 10
-157.9305
 20
21.4457
 30
0.0
 10
-157.9305
 20
21.4457
 30
0.0
 10
-157.9305
 20
21.4457
 30
0.0
 10
-147.1175
 20
21.4457
 30
0.0
 10
-147.1175
 20
21.4457
 30
0.0
 10
-147.1175
 20
21.4457
 30
0.0
 10
-147.1175
 20
21.4457
 30
0.0
 10
-139.4716
 20
13.8005
 30
0.0
 10
-139.4716
 20
13.8005
 30
0.0
 10
-139.4716
 20
13.8005
 30
0.0
 10
-139.4716
 20
13.8005
 30
0.0
 10
-139.4707
 20
2.9874
 30
0.0
 10
-139.4707
 20
2.9874
 30
0.0
  0
SPLINE
  5
61
330
1F
100
AcDbEntity
  8
layer 1
 62
     7
100
AcDbSpline
210
0.0
220
0.0
230
1.0
 70
    11
 71
     3
 72
    36
 73
    32
 74
     0
 42
0.0000000001
 43
0.0000000001
 12
1.0
 22
0.0
 32
0.0
 13
1.0
 23
0.0
 33
0.0
 40
0.0
 40
0.0
 40
0.0
 40
0.0
 40
0.1111111111111111
 40
0.1111111111111111
 40
0.1111111111111111
 40
0.1111111111111111
 40
0.2222222222222222
 40
0.2222222222222222
 40
0.2222222222222222
 40
0.2222222222222222
 40
0.3333333333333333
 40
0.3333333333333333
 40
0.3333333333333333
 40
0.3333333333333333
 40
0.4444444444444444
 40
0.4444444444444444
 40
0.4444444444444444
 40
0.4444444444444444
 40
0.5555555555555556
 40
0.5555555555555556
 40
0.5555555555555556
 40
0.5555555555555556
 40
0.6666666666666666
 40
0.6666666666666666
 40
0.6666666666666666
 40
0.6666666666666666
 40
0.7777777777777778
 40
0.7777777777777778
 40
0.7777777777777778
 40
0.7777777777777778
 40
1.0
 40
1.0
 40
1.0
 40
1.0
 10
-155.9257
 20
-8.2258
 30
0.0
 10
-155.9257
 20
-8.2258
 30
0.0
 10
-148.7073
 20
-8.2258
 30
0.0
 10
-148.7073
 20
-8.2258
 30
0.0
 10
-148.7073
 20
-8.2258
 30
0.0
 10
-147.6927
 20
-8.2258
 30
0.0
 10
-146.876
 20
-9.0428
 30
0.0
 10
-146.876
 20
-10.0575
 30
0.0
 10
-146.876
 20
-10.0575
 30
0.0
 10
-146.876
 20
-10.0575
 30
0.0
 10
-146.876
 20
-17.2757
 30
0.0
 10
-146.876
 20
-17.2757
 30
0.0
 10
-146.876
 20
-17.2757
 30
0.0
 10
-146.876
 20
-18.2903
 30
0.0
 10
-147.6928
 20
-19.1067
 30
0.0
 10
-148.7075
 20
-19.1067
 30
0.0
 10
-148.7075
 20
-19.1067
 30
0.0
 10
-148.7075
 20
-19.1067
 30
0.0
 10
-155.9257
 20
-19.1067
 30
0.0
 10
-155.9257
 20
-19.1067
 30
0.0
 10
-155.9257
 20
-19.1067
 30
0.0
 10
-156.9406
 20
-19.1067
 30
0.0
 10
-157.7566
 20
-18.2906
 30
0.0
 10
-157.7566
 20
-17.2759
 30
0.0
 10
-157.7566
 20
-17.2759
 30
0.0
 10
-157.7566
 20
-17.2759
 30
0.0
 10
-157.7566
 20
-10.0573
 30
0.0
 10
-157.7566
 20
-10.0573
 30
0.0
 10
-157.7566
 20
-10.0573
 30
0.0
 10
-157.7566
 20
-9.0426
 30
0.0
 10
-156.9406
 20
-8.226
 30
0.0
 10
-155.9257
 20
-8.2258
 30
0.0
  0
SPLINE
  5
62
330
1F
100
AcDbEntity
  8
layer 1
 62
     7
100
AcDbSpline
210
0.0
220
0.0
230
1.0
 70
    11
 71
     3
 72
    36
 73
    32
 74
     0
 42
0.0000000001
 43
0.0000000001
 12
1.0
 22
0.0
 32
0.0
 13
1.0
 23
0.0
 33
0.0
 40
0.0
 40
0.0
 40
0.0
 40
0.0
 40
0.1111111111111111
 40
0.1111111111111111
 40
0.1111111111111111
 40
0.1111111111111111
 40
0.2222222222222222
 40
0.2222222222222222
 40
0.2222222222222222
 40
0.2222222222222222
 40
0.3333333333333333
 40
0.3333333333333333
 40
0.3333333333333333
 40
0.3333333333333333
 40
0.4444444444444444
 40
0.4444444444444444
 40
0.4444444444444444
 40
0.4444444444444444
 40
0.5555555555555556
 40
0.5555555555555556
 40
0.5555555555555556
 40
0.5555555555555556
 40
0.6666666666666666
 40
0.6666666666666666
 40
0.6666666666666666
 40
0.6666666666666666
 40
0.7777777777777778
 40
0.7777777777777778
 40
0.7777777777777778
 40
0.7777777777777778
 40
1.0
 40
1.0
 40
1.0
 40
1.0
 10
-134.0005
 20
13.6831
 30
0.0
 10
-134.0005
 20
13.6831
 30
0.0
 10
-126.7821
 20
13.6831
 30
0.0
 10
-126.7821
 20
13.6831
 30
0.0
 10
-126.7821
 20
13.6831
 30
0.0
 10
-125.7674
 20
13.6831
 30
0.0
 10
-124.9514
 20
12.8661
 30
0.0
 10
-124.9514
 20
11.8513
 30
0.0
 10
-124.9514
 20
11.8513
 30
0.0
 10
-124.9514
 20
11.8513
 30
0.0
 10
-124.9514
 20
4.633
 30
0.0
 10
-124.9514
 20
4.633
 30
0.0
 10
-124.9514
 20
4.633
 30
0.0
 10
-124.9514
 20
3.6183
 30
0.0
 10
-125.7675
 20
2.8024
 30
0.0
 10
-126.7822
 20
2.8024
 30
0.0
 10
-126.7822
 20
2.8024
 30
0.0
 10
-126.7822
 20
2.8024
 30
0.0
 10
-134.0005
 20
2.8026
 30
0.0
 10
-134.0005
 20
2.8026
 30
0.0
 10
-134.0005
 20
2.8026
 30
0.0
 10
-135.0152
 20
2.8026
 30
0.0
 10
-135.8323
 20
3.6183
 30
0.0
 10
-135.8323
 20
4.633
 30
0.0
 10
-135.8323
 20
4.633
 30
0.0
 10
-135.8323
 20
4.633
 30
0.0
 10
-135.8322
 20
11.8513
 30
0.0
 10
-135.8322
 20
11.8513
 30
0.0
 10
-135.8322
 20
11.8513
 30
0.0
 10
-135.8322
 20
12.8663
 30
0.0
 10
-135.0153
 20
13.6831
 30
0.0
 10
-134.0005
 20
13.6831
 30
0.0
  0
SPLINE
  5
63
330
1F
100
AcDbEntity
  8
layer 1
 62
     7
100
AcDbSpline
210
0.0
220
0.0
230
1.0
 70
    11
 71
     3
 72
    36
 73
    32
 74
     0
 42
0.0000000001
 43
0.0000000001
 12
1.0
 22
0.0
 32
0.0
 13
1.0
 23
0.0
 33
0.0
 40
0.0
 40
0.0
 40
0.0
 40
0.0
 40
0.1111111111111111
 40
0.1111111111111111
 40
0.1111111111111111
 40
0.1111111111111111
 40
0.2222222222222222
 40
0.2222222222222222
 40
0.2222222222222222
 40
0.2222222222222222
 40
0.3333333333333333
 40
0.3333333333333333
 40
0.3333333333333333
 40
0.3333333333333333
 40
0.4444444444444444
 40
0.4444444444444444
 40
0.4444444444444444
 40
0.4444444444444444
 40
0.5555555555555556
 40
0.5555555555555556
 40
0.5555555555555556
 40
0.5555555555555556
 40
0.6666666666666666
 40
0.6666666666666666
 40
0.6666666666666666
 40
0.6666666666666666
 40
0.7777777777777778
 40
0.7777777777777778
 40
0.7777777777777778
 40
0.7777777777777778
 40
1.0
 40
1.0
 40
1.0
 40
1.0
 10
-95.3205
 20
2.9874
 30
0.0
 10
-95.3205
 20
2.9874
 30
0.0
 10
-102.9655
 20
-4.6588
 30
0.0
 10
-102.9655
 20
-4.6588
 30
0.0
 10
-102.9655
 20
-4.6588
 30
0.0
 10
-102.9655
 20
-4.6588
 30
0.0
 10
-113.7784
 20
-4.6588
 30
0.0
 10
-113.7784
 20
-4.6588
 30
0.0
 10
-113.7784
 20
-4.6588
 30
0.0
 10
-113.7784
 20
-4.6588
 30
0.0
 10
-121.4248
 20
2.9866
 30
0.0
 10
-121.4248
 20
2.9866
 30
0.0
 10
-121.4248
 20
2.9866
 30
0.0
 10
-121.4248
 20
2.9866
 30
0.0
 10
-121.4248
 20
13.7995
 30
0.0
 10
-121.4248
 20
13.7995
 30
0.0
 10
-121.4248
 20
13.7995
 30
0.0
 10
-121.4248
 20
13.7995
 30
0.0
 10
-113.7794
 20
21.4457
 30
0.0
 10
-113.7794
 20
21.4457
 30
0.0
 10
-113.7794
 20
21.4457
 30
0.0
 10
-113.7794
 20
21.4457
 30
0.0
 10
-102.9664
 20
21.4457
 30
0.0
 10
-102.9664
 20
21.4457
 30
0.0
 10
-102.9664
 20
21.4457
 30
0.0
 10
-102.9664
 20
21.4457
 30
0.0
 10
-95.3205
 20
13.8005
 30
0.0
 10
-95.3205
 20
13.8005
 30
0.0
 10
-95.3205
 20
13.8005
 30
0.0
 10
-95.3205
 20
13.8005
 30
0.0
 10
-95.3205
 20
2.9874
 30
0.0
 10
-95.3205
 20
2.9874
 30
0.0
  0
SPLINE
  5
64
330
1F
100
AcDbEntity
  8
layer 1
 62
     7
100
AcDbSpline
210
0.0
220
0.0
230
1.0
 70
    11
 71
     3
 72
    36
 73
    32
 74
     0
 42
0.0000000001
 43
0.0000000001
 12
1.0
 22
0.0
 32
0.0
 13
1.0
 23
0.0
 33
0.0
 40
0.0
 40
0.0
 40
0.0
 40
0.0
 40
0.1111111111111111
 40
0.1111111111111111
 40
0.1111111111111111
 40
0.1111111111111111
 40
0.2222222222222222
 40
0.2222222222222222
 40
0.2222222222222222
 40
0.2222222222222222
 40
0.3333333333333333
 40
0.3333333333333333
 40
0.3333333333333333
 40
0.3333333333333333
 40
0.4444444444444444
 40
0.4444444444444444
 40
0.4444444444444444
 40
0.4444444444444444
 40
0.5555555555555556
 40
0.5555555555555556
 40
0.5555555555555556
 40
0.5555555555555556
 40
0.6666666666666666
 40
0.6666666666666666
 40
0.6666666666666666
 40
0.6666666666666666
 40
0.7777777777777778
 40
0.7777777777777778
 40
0.7777777777777778
 40
0.7777777777777778
 40
1.0
 40
1.0
 40
1.0
 40
1.0
 10
-117.3674
 20
-19.0882
 30
0.0
 10
-117.3674
 20
-19.0882
 30
0.0
 10
-125.0128
 20
-26.7344
 30
0.0
 10
-125.0128
 20
-26.7344
 30
0.0
 10
-125.0128
 20
-26.7344
 30
0.0
 10
-125.0128
 20
-26.7344
 30
0.0
 10
-135.8257
 20
-26.7344
 30
0.0
 10
-135.8257
 20
-26.7344
 30
0.0
 10
-135.8257
 20
-26.7344
 30
0.0
 10
-135.8257
 20
-26.7344
 30
0.0
 10
-143.4717
 20
-19.089
 30
0.0
 10
-143.4717
 20
-19.089
 30
0.0
 10
-143.4717
 20
-19.089
 30
0.0
 10
-143.4717
 20
-19.089
 30
0.0
 10
-143.4726
 20
-8.2762
 30
0.0
 10
-143.4726
 20
-8.2762
 30
0.0
 10
-143.4726
 20
-8.2762
 30
0.0
 10
-143.4726
 20
-8.2762
 30
0.0
 10
-135.8267
 20
-0.63
 30
0.0
 10
-135.8267
 20
-0.63
 30
0.0
 10
-135.8267
 20
-0.63
 30
0.0
 10
-135.8267
 20
-0.63
 30
0.0
 10
-125.0144
 20
-0.63
 30
0.0
 10
-125.0144
 20
-0.63
 30
0.0
 10
-125.0144
 20
-0.63
 30
0.0
 10
-125.0144
 20
-0.63
 30
0.0
 10
-117.3674
 20
-8.2751
 30
0.0
 10
-117.3674
 20
-8.2751
 30
0.0
 10
-117.3674
 20
-8.2751
 30
0.0
 10
-117.3674
 20
-8.2751
 30
0.0
 10
-117.3674
 20
-19.0882
 30
0.0
 10
-117.3674
 20
-19.0882
 30
0.0
  0
SPLINE
  5
65
330
1F
100
AcDbEntity
  8
layer 1
 62
     7
100
AcDbSpline
210
0.0
220
0.0
230
1.0
 70
    11
 71
     3
 72
    36
 73
    32
 74
     0
 42
0.0000000001
 43
0.0000000001
 12
1.0
 22
0.0
 32
0.0
 13
1.0
 23
0.0
 33
0.0
 40
0.0
 40
0.0
 40
0.0
 40
0.0
 40
0.1111111111111111
 40
0.1111111111111111
 40
0.1111111111111111
 40
0.1111111111111111
 40
0.2222222222222222
 40
0.2222222222222222
 40
0.2222222222222222
 40
0.2222222222222222
 40
0.3333333333333333
 40
0.3333333333333333
 40
0.3333333333333333
 40
0.3333333333333333
 40
0.4444444444444444
 40
0.4444444444444444
 40
0.4444444444444444
 40
0.4444444444444444
 40
0.5555555555555556
 40
0.5555555555555556
 40
0.5555555555555556
 40
0.5555555555555556
 40
0.6666666666666666
 40
0.6666666666666666
 40
0.6666666666666666
 40
0.6666666666666666
 40
0.7777777777777778
 40
0.7777777777777778
 40
0.7777777777777778
 40
0.7777777777777778
 40
1.0
 40
1.0
 40
1.0
 40
1.0
 10
-111.9852
 20
-8.2258
 30
0.0
 10
-111.9852
 20
-8.2258
 30
0.0
 10
-104.7659
 20
-8.2258
 30
0.0
 10
-104.7659
 20
-8.2258
 30
0.0
 10
-104.7659
 20
-8.2258
 30
0.0
 10
-103.7522
 20
-8.2258
 30
0.0
 10
-102.9354
 20
-9.0428
 30
0.0
 10
-102.9354
 20
-10.0575
 30
0.0
 10
-102.9354
 20
-10.0575
 30
0.0
 10
-102.9354
 20
-10.0575
 30
0.0
 10
-102.9353
 20
-17.2757
 30
0.0
 10
-102.9353
 20
-17.2757
 30
0.0
 10
-102.9353
 20
-17.2757
 30
0.0
 10
-102.9353
 20
-18.2903
 30
0.0
 10
-103.7522
 20
-19.1067
 30
0.0
 10
-104.7659
 20
-19.1067
 30
0.0
 10
-104.7659
 20
-19.1067
 30
0.0
 10
-104.7659
 20
-19.1067
 30
0.0
 10
-111.9852
 20
-19.1067
 30
0.0
 10
-111.9852
 20
-19.1067
 30
0.0
 10
-111.9852
 20
-19.1067
 30
0.0
 10
-112.999
 20
-19.1067
 30
0.0
 10
-113.8161
 20
-18.2906
 30
0.0
 10
-113.8161
 20
-17.2759
 30
0.0
 10
-113.8161
 20
-17.2759
 30
0.0
 10
-113.8161
 20
-17.2759
 30
0.0
 10
-113.8161
 20
-10.0573
 30
0.0
 10
-113.8161
 20
-10.0573
 30
0.0
 10
-113.8161
 20
-10.0573
 30
0.0
 10
-113.8161
 20
-9.0426
 30
0.0
 10
-112.999
 20
-8.226
 30
0.0
 10
-111.9852
 20
-8.2258
 30
0.0
  0
SPLINE
  5
66
330
1F
100
AcDbEntity
  8
layer 1
 62
     7
100
AcDbSpline
210
0.0
220
0.0
230
1.0
 70
    11
 71
     3
 72
    28
 73
    24
 74
     0
 42
0.0000000001
 43
0.0000000001
 12
1.0
 22
0.0
 32
0.0
 13
1.0
 23
0.0
 33
0.0
 40
0.0
 40
0.0
 40
0.0
 40
0.0
 40
0.1428571428571428
 40
0.1428571428571428
 40
0.1428571428571428
 40
0.1428571428571428
 40
0.2857142857142857
 40
0.2857142857142857
 40
0.2857142857142857
 40
0.2857142857142857
 40
0.4285714285714285
 40
0.4285714285714285
 40
0.4285714285714285
 40
0.4285714285714285
 40
0.5714285714285714
 40
0.5714285714285714
 40
0.5714285714285714
 40
0.5714285714285714
 40
0.7142857142857143
 40
0.7142857142857143
 40
0.7142857142857143
 40
0.7142857142857143
 40
1.0
 40
1.0
 40
1.0
 40
1.0
 10
-161.5552
 20
-19.0307
 30
0.0
 10
-161.5552
 20
-19.0307
 30
0.0
 10
-169.2005
 20
-26.677
 30
0.0
 10
-169.2005
 20
-26.677
 30
0.0
 10
-169.2005
 20
-26.677
 30
0.0
 10
-169.2005
 20
-26.677
 30
0.0
 10
-180.0134
 20
-26.677
 30
0.0
 10
-180.0134
 20
-26.677
 30
0.0
 10
-180.0134
 20
-26.677
 30
0.0
 10
-180.0134
 20
-26.677
 30
0.0
 10
-180.015
 20
-0.5725
 30
0.0
 10
-180.015
 20
-0.5725
 30
0.0
 10
-180.015
 20
-0.5725
 30
0.0
 10
-180.015
 20
-0.5725
 30
0.0
 10
-169.202
 20
-0.5725
 30
0.0
 10
-169.202
 20
-0.5725
 30
0.0
 10
-169.202
 20
-0.5725
 30
0.0
 10
-169.202
 20
-0.5725
 30
0.0
 10
-161.5561
 20
-8.2176
 30
0.0
 10
-161.5561
 20
-8.2176
 30
0.0
 10
-161.5561
 20
-8.2176
 30
0.0
 10
-161.5561
 20
-8.2176
 30
0.0
 10
-161.5552
 20
-19.0307
 30
0.0
 10
-161.5552
 20
-19.0307
 30
0.0
  0
SPLINE
  5
67
330
1F
100
AcDbEntity
  8
layer 1
 62
     7
100
AcDbSpline
210
0.0
220
0.0
230
1.0
 70
    11
 71
     3
 72
    36
 73
    32
 74
     0
 42
0.0000000001
 43
0.0000000001
 12
1.0
 22
0.0
 32
0.0
 13
1.0
 23
0.0
 33
0.0
 40
0.0
 40
0.0
 40
0.0
 40
0.0
 40
0.1111111111111111
 40
0.1111111111111111
 40
0.1111111111111111
 40
0.1111111111111111
 40
0.2222222222222222
 40
0.2222222222222222
 40
0.2222222222222222
 40
0.2222222222222222
 40
0.3333333333333333
 40
0.3333333333333333
 40
0.3333333333333333
 40
0.3333333333333333
 40
0.4444444444444444
 40
0.4444444444444444
 40
0.4444444444444444
 40
0.4444444444444444
 40
0.5555555555555556
 40
0.5555555555555556
 40
0.5555555555555556
 40
0.5555555555555556
 40
0.6666666666666666
 40
0.6666666666666666
 40
0.6666666666666666
 40
0.6666666666666666
 40
0.7777777777777778
 40
0.7777777777777778
 40
0.7777777777777778
 40
0.7777777777777778
 40
1.0
 40
1.0
 40
1.0
 40
1.0
 10
-178.0435
 20
13.7556
 30
0.0
 10
-178.0435
 20
13.7556
 30
0.0
 10
-170.8251
 20
13.7556
 30
0.0
 10
-170.8251
 20
13.7556
 30
0.0
 10
-170.8251
 20
13.7556
 30
0.0
 10
-169.8104
 20
13.7556
 30
0.0
 10
-168.9937
 20
12.9387
 30
0.0
 10
-168.9937
 20
11.9239
 30
0.0
 10
-168.9937
 20
11.9239
 30
0.0
 10
-168.9937
 20
11.9239
 30
0.0
 10
-168.9937
 20
4.7058
 30
0.0
 10
-168.9937
 20
4.7058
 30
0.0
 10
-168.9937
 20
4.7058
 30
0.0
 10
-168.9937
 20
3.6911
 30
0.0
 10
-169.8105
 20
2.8747
 30
0.0
 10
-170.8252
 20
2.8747
 30
0.0
 10
-170.8252
 20
2.8747
 30
0.0
 10
-170.8252
 20
2.8747
 30
0.0
 10
-178.0435
 20
2.8747
 30
0.0
 10
-178.0435
 20
2.8747
 30
0.0
 10
-178.0435
 20
2.8747
 30
0.0
 10
-179.0583
 20
2.8747
 30
0.0
 10
-179.8744
 20
3.6908
 30
0.0
 10
-179.8744
 20
4.7056
 30
0.0
 10
-179.8744
 20
4.7056
 30
0.0
 10
-179.8744
 20
4.7056
 30
0.0
 10
-179.8743
 20
11.9241
 30
0.0
 10
-179.8743
 20
11.9241
 30
0.0
 10
-179.8743
 20
11.9241
 30
0.0
 10
-179.8743
 20
12.9388
 30
0.0
 10
-179.0583
 20
13.7554
 30
0.0
 10
-178.0435
 20
13.7556
 30
0.0
  0
SPLINE
  5
68
330
1F
100
AcDbEntity
  8
layer 1
 62
     7
100
AcDbSpline
210
0.0
220
0.0
230
1.0
 70
    11
 71
     3
 72
    36
 73
    32
 74
     0
 42
0.0000000001
 43
0.0000000001
 12
1.0
 22
0.0
 32
0.0
 13
1.0
 23
0.0
 33
0.0
 40
0.0
 40
0.0
 40
0.0
 40
0.0
 40
0.1111111111111111
 40
0.1111111111111111
 40
0.1111111111111111
 40
0.1111111111111111
 40
0.2222222222222222
 40
0.2222222222222222
 40
0.2222222222222222
 40
0.2222222222222222
 40
0.3333333333333333
 40
0.3333333333333333
 40
0.3333333333333333
 40
0.3333333333333333
 40
0.4444444444444444
 40
0.4444444444444444
 40
0.4444444444444444
 40
0.4444444444444444
 40
0.5555555555555556
 40
0.5555555555555556
 40
0.5555555555555556
 40
0.5555555555555556
 40
0.6666666666666666
 40
0.6666666666666666
 40
0.6666666666666666
 40
0.6666666666666666
 40
0.7777777777777778
 40
0.7777777777777778
 40
0.7777777777777778
 40
0.7777777777777778
 40
1.0
 40
1.0
 40
1.0
 40
1.0
 10
-89.945
 20
13.7195
 30
0.0
 10
-89.945
 20
13.7195
 30
0.0
 10
-82.7266
 20
13.7195
 30
0.0
 10
-82.7266
 20
13.7195
 30
0.0
 10
-82.7266
 20
13.7195
 30
0.0
 10
-81.7119
 20
13.7195
 30
0.0
 10
-80.8959
 20
12.9024
 30
0.0
 10
-80.8959
 20
11.8877
 30
0.0
 10
-80.8959
 20
11.8877
 30
0.0
 10
-80.8959
 20
11.8877
 30
0.0
 10
-80.8959
 20
4.6693
 30
0.0
 10
-80.8959
 20
4.6693
 30
0.0
 10
-80.8959
 20
4.6693
 30
0.0
 10
-80.8959
 20
3.6547
 30
0.0
 10
-81.712
 20
2.8388
 30
0.0
 10
-82.7267
 20
2.8388
 30
0.0
 10
-82.7267
 20
2.8388
 30
0.0
 10
-82.7267
 20
2.8388
 30
0.0
 10
-89.945
 20
2.8389
 30
0.0
 10
-89.945
 20
2.8389
 30
0.0
 10
-89.945
 20
2.8389
 30
0.0
 10
-90.9598
 20
2.8389
 30
0.0
 10
-91.7769
 20
3.6546
 30
0.0
 10
-91.7769
 20
4.6693
 30
0.0
 10
-91.7769
 20
4.6693
 30
0.0
 10
-91.7769
 20
4.6693
 30
0.0
 10
-91.7767
 20
11.8877
 30
0.0
 10
-91.7767
 20
11.8877
 30
0.0
 10
-91.7767
 20
11.8877
 30
0.0
 10
-91.7767
 20
12.9026
 30
0.0
 10
-90.9598
 20
13.7195
 30
0.0
 10
-89.945
 20
13.7195
 30
0.0
  0
SPLINE
  5
69
330
1F
100
AcDbEntity
  8
layer 1
 62
     7
100
AcDbSpline
210
0.0
220
0.0
230
1.0
 70
    11
 71
     3
 72
    28
 73
    24
 74
     0
 42
0.0000000001
 43
0.0000000001
 12
1.0
 22
0.0
 32
0.0
 13
1.0
 23
0.0
 33
0.0
 40
0.0
 40
0.0
 40
0.0
 40
0.0
 40
0.1428571428571428
 40
0.1428571428571428
 40
0.1428571428571428
 40
0.1428571428571428
 40
0.2857142857142857
 40
0.2857142857142857
 40
0.2857142857142857
 40
0.2857142857142857
 40
0.4285714285714285
 40
0.4285714285714285
 40
0.4285714285714285
 40
0.4285714285714285
 40
0.5714285714285714
 40
0.5714285714285714
 40
0.5714285714285714
 40
0.5714285714285714
 40
0.7142857142857143
 40
0.7142857142857143
 40
0.7142857142857143
 40
0.7142857142857143
 40
1.0
 40
1.0
 40
1.0
 40
1.0
 10
-58.9101
 20
-4.6224
 30
0.0
 10
-58.9101
 20
-4.6224
 30
0.0
 10
-69.723
 20
-4.6224
 30
0.0
 10
-69.723
 20
-4.6224
 30
0.0
 10
-69.723
 20
-4.6224
 30
0.0
 10
-69.723
 20
-4.6224
 30
0.0
 10
-77.3693
 20
3.023
 30
0.0
 10
-77.3693
 20
3.023
 30
0.0
 10
-77.3693
 20
3.023
 30
0.0
 10
-77.3693
 20
3.023
 30
0.0
 10
-77.3693
 20
13.8358
 30
0.0
 10
-77.3693
 20
13.8358
 30
0.0
 10
-77.3693
 20
13.8358
 30
0.0
 10
-77.3693
 20
13.8358
 30
0.0
 10
-69.7239
 20
21.482
 30
0.0
 10
-69.7239
 20
21.482
 30
0.0
 10
-69.7239
 20
21.482
 30
0.0
 10
-69.7239
 20
21.482
 30
0.0
 10
-58.911
 20
21.482
 30
0.0
 10
-58.911
 20
21.482
 30
0.0
 10
-58.911
 20
21.482
 30
0.0
 10
-58.911
 20
21.482
 30
0.0
 10
-58.9101
 20
-4.6224
 30
0.0
 10
-58.9101
 20
-4.6224
 30
0.0
  0
SPLINE
  5
6A
330
1F
100
AcDbEntity
  8
layer 1
 62
     7
100
AcDbSpline
210
0.0
220
0.0
230
1.0
 70
    11
 71
     3
 72
    36
 73
    32
 74
     0
 42
0.0000000001
 43
0.0000000001
 12
1.0
 22
0.0
 32
0.0
 13
1.0
 23
0.0
 33
0.0
 40
0.0
 40
0.0
 40
0.0
 40
0.0
 40
0.1111111111111111
 40
0.1111111111111111
 40
0.1111111111111111
 40
0.1111111111111111
 40
0.2222222222222222
 40
0.2222222222222222
 40
0.2222222222222222
 40
0.2222222222222222
 40
0.3333333333333333
 40
0.3333333333333333
 40
0.3333333333333333
 40
0.3333333333333333
 40
0.4444444444444444
 40
0.4444444444444444
 40
0.4444444444444444
 40
0.4444444444444444
 40
0.5555555555555556
 40
0.5555555555555556
 40
0.5555555555555556
 40
0.5555555555555556
 40
0.6666666666666666
 40
0.6666666666666666
 40
0.6666666666666666
 40
0.6666666666666666
 40
0.7777777777777778
 40
0.7777777777777778
 40
0.7777777777777778
 40
0.7777777777777778
 40
1.0
 40
1.0
 40
1.0
 40
1.0
 10
-73.3119
 20
-19.0519
 30
0.0
 10
-73.3119
 20
-19.0519
 30
0.0
 10
-80.9574
 20
-26.6981
 30
0.0
 10
-80.9574
 20
-26.6981
 30
0.0
 10
-80.9574
 20
-26.6981
 30
0.0
 10
-80.9574
 20
-26.6981
 30
0.0
 10
-91.7703
 20
-26.6981
 30
0.0
 10
-91.7703
 20
-26.6981
 30
0.0
 10
-91.7703
 20
-26.6981
 30
0.0
 10
-91.7703
 20
-26.6981
 30
0.0
 10
-99.4163
 20
-19.0527
 30
0.0
 10
-99.4163
 20
-19.0527
 30
0.0
 10
-99.4163
 20
-19.0527
 30
0.0
 10
-99.4163
 20
-19.0527
 30
0.0
 10
-99.4172
 20
-8.2398
 30
0.0
 10
-99.4172
 20
-8.2398
 30
0.0
 10
-99.4172
 20
-8.2398
 30
0.0
 10
-99.4172
 20
-8.2398
 30
0.0
 10
-91.7712
 20
-0.5936
 30
0.0
 10
-91.7712
 20
-0.5936
 30
0.0
 10
-91.7712
 20
-0.5936
 30
0.0
 10
-91.7712
 20
-0.5936
 30
0.0
 10
-80.9589
 20
-0.5936
 30
0.0
 10
-80.9589
 20
-0.5936
 30
0.0
 10
-80.9589
 20
-0.5936
 30
0.0
 10
-80.9589
 20
-0.5936
 30
0.0
 10
-73.3119
 20
-8.2388
 30
0.0
 10
-73.3119
 20
-8.2388
 30
0.0
 10
-73.3119
 20
-8.2388
 30
0.0
 10
-73.3119
 20
-8.2388
 30
0.0
 10
-73.3119
 20
-19.0519
 30
0.0
 10
-73.3119
 20
-19.0519
 30
0.0
  0
SPLINE
  5
6B
330
1F
100
AcDbEntity
  8
layer 1
 62
     7
100
AcDbSpline
210
0.0
220
0.0
230
1.0
 70
    11
 71
     3
 72
    36
 73
    32
 74
     0
 42
0.0000000001
 43
0.0000000001
 12
1.0
 22
0.0
 32
0.0
 13
1.0
 23
0.0
 33
0.0
 40
0.0
 40
0.0
 40
0.0
 40
0.0
 40
0.1111111111111111
 40
0.1111111111111111
 40
0.1111111111111111
 40
0.1111111111111111
 40
0.2222222222222222
 40
0.2222222222222222
 40
0.2222222222222222
 40
0.2222222222222222
 40
0.3333333333333333
 40
0.3333333333333333
 40
0.3333333333333333
 40
0.3333333333333333
 40
0.4444444444444444
 40
0.4444444444444444
 40
0.4444444444444444
 40
0.4444444444444444
 40
0.5555555555555556
 40
0.5555555555555556
 40
0.5555555555555556
 40
0.5555555555555556
 40
0.6666666666666666
 40
0.6666666666666666
 40
0.6666666666666666
 40
0.6666666666666666
 40
0.7777777777777778
 40
0.7777777777777778
 40
0.7777777777777778
 40
0.7777777777777778
 40
1.0
 40
1.0
 40
1.0
 40
1.0
 10
-67.9298
 20
-8.1895
 30
0.0
 10
-67.9298
 20
-8.1895
 30
0.0
 10
-60.7105
 20
-8.1895
 30
0.0
 10
-60.7105
 20
-8.1895
 30
0.0
 10
-60.7105
 20
-8.1895
 30
0.0
 10
-59.6967
 20
-8.1895
 30
0.0
 10
-58.8799
 20
-9.0064
 30
0.0
 10
-58.8799
 20
-10.0212
 30
0.0
 10
-58.8799
 20
-10.0212
 30
0.0
 10
-58.8799
 20
-10.0212
 30
0.0
 10
-58.8799
 20
-17.2393
 30
0.0
 10
-58.8799
 20
-17.2393
 30
0.0
 10
-58.8799
 20
-17.2393
 30
0.0
 10
-58.8799
 20
-18.254
 30
0.0
 10
-59.6967
 20
-19.0703
 30
0.0
 10
-60.7105
 20
-19.0703
 30
0.0
 10
-60.7105
 20
-19.0703
 30
0.0
 10
-60.7105
 20
-19.0703
 30
0.0
 10
-67.9298
 20
-19.0703
 30
0.0
 10
-67.9298
 20
-19.0703
 30
0.0
 10
-67.9298
 20
-19.0703
 30
0.0
 10
-68.9435
 20
-19.0703
 30
0.0
 10
-69.7606
 20
-18.2542
 30
0.0
 10
-69.7606
 20
-17.2395
 30
0.0
 10
-69.7606
 20
-17.2395
 30
0.0
 10
-69.7606
 20
-17.2395
 30
0.0
 10
-69.7606
 20
-10.021
 30
0.0
 10
-69.7606
 20
-10.021
 30
0.0
 10
-69.7606
 20
-10.021
 30
0.0
 10
-69.7606
 20
-9.0063
 30
0.0
 10
-68.9436
 20
-8.1897
 30
0.0
 10
-67.9298
 20
-8.1895
 30
0.0
  0
SPLINE
  5
6C
330
1F
100
AcDbEntity
  8
layer 1
 62
     7
100
AcDbSpline
210
0.0
220
0.0
230
1.0
 70
    11
 71
     3
 72
    36
 73
    32
 74
     0
 42
0.0000000001
 43
0.0000000001
 12
1.0
 22
0.0
 32
0.0
 13
1.0
 23
0.0
 33
0.0
 40
0.0
 40
0.0
 40
0.0
 40
0.0
 40
0.1111111111111111
 40
0.1111111111111111
 40
0.1111111111111111
 40
0.1111111111111111
 40
0.2222222222222222
 40
0.2222222222222222
 40
0.2222222222222222
 40
0.2222222222222222
 40
0.3333333333333333
 40
0.3333333333333333
 40
0.3333333333333333
 40
0.3333333333333333
 40
0.4444444444444444
 40
0.4444444444444444
 40
0.4444444444444444
 40
0.4444444444444444
 40
0.5555555555555556
 40
0.5555555555555556
 40
0.5555555555555556
 40
0.5555555555555556
 40
0.6666666666666666
 40
0.6666666666666666
 40
0.6666666666666666
 40
0.6666666666666666
 40
0.7777777777777778
 40
0.7777777777777778
 40
0.7777777777777778
 40
0.7777777777777778
 40
1.0
 40
1.0
 40
1.0
 40
1.0
 10
-139.4707
 20
-40.8981
 30
0.0
 10
-139.4707
 20
-40.8981
 30
0.0
 10
-147.116
 20
-48.5443
 30
0.0
 10
-147.116
 20
-48.5443
 30
0.0
 10
-147.116
 20
-48.5443
 30
0.0
 10
-147.116
 20
-48.5443
 30
0.0
 10
-157.9289
 20
-48.5443
 30
0.0
 10
-157.9289
 20
-48.5443
 30
0.0
 10
-157.9289
 20
-48.5443
 30
0.0
 10
-157.9289
 20
-48.5443
 30
0.0
 10
-165.575
 20
-40.8989
 30
0.0
 10
-165.575
 20
-40.8989
 30
0.0
 10
-165.575
 20
-40.8989
 30
0.0
 10
-165.575
 20
-40.8989
 30
0.0
 10
-165.5759
 20
-30.086
 30
0.0
 10
-165.5759
 20
-30.086
 30
0.0
 10
-165.5759
 20
-30.086
 30
0.0
 10
-165.5759
 20
-30.086
 30
0.0
 10
-157.9305
 20
-22.4398
 30
0.0
 10
-157.9305
 20
-22.4398
 30
0.0
 10
-157.9305
 20
-22.4398
 30
0.0
 10
-157.9305
 20
-22.4398
 30
0.0
 10
-147.1175
 20
-22.4398
 30
0.0
 10
-147.1175
 20
-22.4398
 30
0.0
 10
-147.1175
 20
-22.4398
 30
0.0
 10
-147.1175
 20
-22.4398
 30
0.0
 10
-139.4716
 20
-30.085
 30
0.0
 10
-139.4716
 20
-30.085
 30
0.0
 10
-139.4716
 20
-30.085
 30
0.0
 10
-139.4716
 20
-30.085
 30
0.0
 10
-139.4707
 20
-40.8981
 30
0.0
 10
-139.4707
 20
-40.8981
 30
0.0
  0
SPLINE
  5
6D
330
1F
100
AcDbEntity
  8
layer 1
 62
     7
100
AcDbSpline
210
0.0
220
0.0
230
1.0
 70
    11
 71
     3
 72
    36
 73
    32
 74
     0
 42
0.0000000001
 43
0.0000000001
 12
1.0
 22
0.0
 32
0.0
 13
1.0
 23
0.0
 33
0.0
 40
0.0
 40
0.0
 40
0.0
 40
0.0
 40
0.1111111111111111
 40
0.1111111111111111
 40
0.1111111111111111
 40
0.1111111111111111
 40
0.2222222222222222
 40
0.2222222222222222
 40
0.2222222222222222
 40
0.2222222222222222
 40
0.3333333333333333
 40
0.3333333333333333
 40
0.3333333333333333
 40
0.3333333333333333
 40
0.4444444444444444
 40
0.4444444444444444
 40
0.4444444444444444
 40
0.4444444444444444
 40
0.5555555555555556
 40
0.5555555555555556
 40
0.5555555555555556
 40
0.5555555555555556
 40
0.6666666666666666
 40
0.6666666666666666
 40
0.6666666666666666
 40
0.6666666666666666
 40
0.7777777777777778
 40
0.7777777777777778
 40
0.7777777777777778
 40
0.7777777777777778
 40
1.0
 40
1.0
 40
1.0
 40
1.0
 10
-155.9257
 20
-52.1113
 30
0.0
 10
-155.9257
 20
-52.1113
 30
0.0
 10
-148.7073
 20
-52.1113
 30
0.0
 10
-148.7073
 20
-52.1113
 30
0.0
 10
-148.7073
 20
-52.1113
 30
0.0
 10
-147.6927
 20
-52.1113
 30
0.0
 10
-146.876
 20
-52.9283
 30
0.0
 10
-146.876
 20
-53.943
 30
0.0
 10
-146.876
 20
-53.943
 30
0.0
 10
-146.876
 20
-53.943
 30
0.0
 10
-146.876
 20
-61.1612
 30
0.0
 10
-146.876
 20
-61.1612
 30
0.0
 10
-146.876
 20
-61.1612
 30
0.0
 10
-146.876
 20
-62.1759
 30
0.0
 10
-147.6928
 20
-62.9922
 30
0.0
 10
-148.7075
 20
-62.9922
 30
0.0
 10
-148.7075
 20
-62.9922
 30
0.0
 10
-148.7075
 20
-62.9922
 30
0.0
 10
-155.9257
 20
-62.9922
 30
0.0
 10
-155.9257
 20
-62.9922
 30
0.0
 10
-155.9257
 20
-62.9922
 30
0.0
 10
-156.9406
 20
-62.9922
 30
0.0
 10
-157.7566
 20
-62.1761
 30
0.0
 10
-157.7566
 20
-61.1614
 30
0.0
 10
-157.7566
 20
-61.1614
 30
0.0
 10
-157.7566
 20
-61.1614
 30
0.0
 10
-157.7566
 20
-53.9428
 30
0.0
 10
-157.7566
 20
-53.9428
 30
0.0
 10
-157.7566
 20
-53.9428
 30
0.0
 10
-157.7566
 20
-52.9282
 30
0.0
 10
-156.9406
 20
-52.1115
 30
0.0
 10
-155.9257
 20
-52.1113
 30
0.0
  0
SPLINE
  5
6E
330
1F
100
AcDbEntity
  8
layer 1
 62
     7
100
AcDbSpline
210
0.0
220
0.0
230
1.0
 70
    11
 71
     3
 72
    36
 73
    32
 74
     0
 42
0.0000000001
 43
0.0000000001
 12
1.0
 22
0.0
 32
0.0
 13
1.0
 23
0.0
 33
0.0
 40
0.0
 40
0.0
 40
0.0
 40
0.0
 40
0.1111111111111111
 40
0.1111111111111111
 40
0.1111111111111111
 40
0.1111111111111111
 40
0.2222222222222222
 40
0.2222222222222222
 40
0.2222222222222222
 40
0.2222222222222222
 40
0.3333333333333333
 40
0.3333333333333333
 40
0.3333333333333333
 40
0.3333333333333333
 40
0.4444444444444444
 40
0.4444444444444444
 40
0.4444444444444444
 40
0.4444444444444444
 40
0.5555555555555556
 40
0.5555555555555556
 40
0.5555555555555556
 40
0.5555555555555556
 40
0.6666666666666666
 40
0.6666666666666666
 40
0.6666666666666666
 40
0.6666666666666666
 40
0.7777777777777778
 40
0.7777777777777778
 40
0.7777777777777778
 40
0.7777777777777778
 40
1.0
 40
1.0
 40
1.0
 40
1.0
 10
-134.0005
 20
-30.2024
 30
0.0
 10
-134.0005
 20
-30.2024
 30
0.0
 10
-126.7821
 20
-30.2024
 30
0.0
 10
-126.7821
 20
-30.2024
 30
0.0
 10
-126.7821
 20
-30.2024
 30
0.0
 10
-125.7674
 20
-30.2024
 30
0.0
 10
-124.9514
 20
-31.0194
 30
0.0
 10
-124.9514
 20
-32.0342
 30
0.0
 10
-124.9514
 20
-32.0342
 30
0.0
 10
-124.9514
 20
-32.0342
 30
0.0
 10
-124.9514
 20
-39.2525
 30
0.0
 10
-124.9514
 20
-39.2525
 30
0.0
 10
-124.9514
 20
-39.2525
 30
0.0
 10
-124.9514
 20
-40.2672
 30
0.0
 10
-125.7675
 20
-41.0831
 30
0.0
 10
-126.7822
 20
-41.0831
 30
0.0
 10
-126.7822
 20
-41.0831
 30
0.0
 10
-126.7822
 20
-41.0831
 30
0.0
 10
-134.0005
 20
-41.083
 30
0.0
 10
-134.0005
 20
-41.083
 30
0.0
 10
-134.0005
 20
-41.083
 30
0.0
 10
-135.0152
 20
-41.083
 30
0.0
 10
-135.8323
 20
-40.2673
 30
0.0
 10
-135.8323
 20
-39.2525
 30
0.0
 10
-135.8323
 20
-39.2525
 30
0.0
 10
-135.8323
 20
-39.2525
 30
0.0
 10
-135.8322
 20
-32.0342
 30
0.0
 10
-135.8322
 20
-32.0342
 30
0.0
 10
-135.8322
 20
-32.0342
 30
0.0
 10
-135.8322
 20
-31.0192
 30
0.0
 10
-135.0153
 20
-30.2024
 30
0.0
 10
-134.0005
 20
-30.2024
 30
0.0
  0
SPLINE
  5
6F
330
1F
100
AcDbEntity
  8
layer 1
 62
     7
100
AcDbSpline
210
0.0
220
0.0
230
1.0
 70
    11
 71
     3
 72
    36
 73
    32
 74
     0
 42
0.0000000001
 43
0.0000000001
 12
1.0
 22
0.0
 32
0.0
 13
1.0
 23
0.0
 33
0.0
 40
0.0
 40
0.0
 40
0.0
 40
0.0
 40
0.1111111111111111
 40
0.1111111111111111
 40
0.1111111111111111
 40
0.1111111111111111
 40
0.2222222222222222
 40
0.2222222222222222
 40
0.2222222222222222
 40
0.2222222222222222
 40
0.3333333333333333
 40
0.3333333333333333
 40
0.3333333333333333
 40
0.3333333333333333
 40
0.4444444444444444
 40
0.4444444444444444
 40
0.4444444444444444
 40
0.4444444444444444
 40
0.5555555555555556
 40
0.5555555555555556
 40
0.5555555555555556
 40
0.5555555555555556
 40
0.6666666666666666
 40
0.6666666666666666
 40
0.6666666666666666
 40
0.6666666666666666
 40
0.7777777777777778
 40
0.7777777777777778
 40
0.7777777777777778
 40
0.7777777777777778
 40
1.0
 40
1.0
 40
1.0
 40
1.0
 10
-95.3205
 20
-40.8981
 30
0.0
 10
-95.3205
 20
-40.8981
 30
0.0
 10
-102.9655
 20
-48.5443
 30
0.0
 10
-102.9655
 20
-48.5443
 30
0.0
 10
-102.9655
 20
-48.5443
 30
0.0
 10
-102.9655
 20
-48.5443
 30
0.0
 10
-113.7784
 20
-48.5443
 30
0.0
 10
-113.7784
 20
-48.5443
 30
0.0
 10
-113.7784
 20
-48.5443
 30
0.0
 10
-113.7784
 20
-48.5443
 30
0.0
 10
-121.4248
 20
-40.8989
 30
0.0
 10
-121.4248
 20
-40.8989
 30
0.0
 10
-121.4248
 20
-40.8989
 30
0.0
 10
-121.4248
 20
-40.8989
 30
0.0
 10
-121.4248
 20
-30.086
 30
0.0
 10
-121.4248
 20
-30.086
 30
0.0
 10
-121.4248
 20
-30.086
 30
0.0
 10
-121.4248
 20
-30.086
 30
0.0
 10
-113.7794
 20
-22.4398
 30
0.0
 10
-113.7794
 20
-22.4398
 30
0.0
 10
-113.7794
 20
-22.4398
 30
0.0
 10
-113.7794
 20
-22.4398
 30
0.0
 10
-102.9664
 20
-22.4398
 30
0.0
 10
-102.9664
 20
-22.4398
 30
0.0
 10
-102.9664
 20
-22.4398
 30
0.0
 10
-102.9664
 20
-22.4398
 30
0.0
 10
-95.3205
 20
-30.085
 30
0.0
 10
-95.3205
 20
-30.085
 30
0.0
 10
-95.3205
 20
-30.085
 30
0.0
 10
-95.3205
 20
-30.085
 30
0.0
 10
-95.3205
 20
-40.8981
 30
0.0
 10
-95.3205
 20
-40.8981
 30
0.0
  0
SPLINE
  5
70
330
1F
100
AcDbEntity
  8
layer 1
 62
     7
100
AcDbSpline
210
0.0
220
0.0
230
1.0
 70
    11
 71
     3
 72
    36
 73
    32
 74
     0
 42
0.0000000001
 43
0.0000000001
 12
1.0
 22
0.0
 32
0.0
 13
1.0
 23
0.0
 33
0.0
 40
0.0
 40
0.0
 40
0.0
 40
0.0
 40
0.1111111111111111
 40
0.1111111111111111
 40
0.1111111111111111
 40
0.1111111111111111
 40
0.2222222222222222
 40
0.2222222222222222
 40
0.2222222222222222
 40
0.2222222222222222
 40
0.3333333333333333
 40
0.3333333333333333
 40
0.3333333333333333
 40
0.3333333333333333
 40
0.4444444444444444
 40
0.4444444444444444
 40
0.4444444444444444
 40
0.4444444444444444
 40
0.5555555555555556
 40
0.5555555555555556
 40
0.5555555555555556
 40
0.5555555555555556
 40
0.6666666666666666
 40
0.6666666666666666
 40
0.6666666666666666
 40
0.6666666666666666
 40
0.7777777777777778
 40
0.7777777777777778
 40
0.7777777777777778
 40
0.7777777777777778
 40
1.0
 40
1.0
 40
1.0
 40
1.0
 10
-117.3674
 20
-62.9737
 30
0.0
 10
-117.3674
 20
-62.9737
 30
0.0
 10
-125.0128
 20
-70.6199
 30
0.0
 10
-125.0128
 20
-70.6199
 30
0.0
 10
-125.0128
 20
-70.6199
 30
0.0
 10
-125.0128
 20
-70.6199
 30
0.0
 10
-135.8257
 20
-70.6199
 30
0.0
 10
-135.8257
 20
-70.6199
 30
0.0
 10
-135.8257
 20
-70.6199
 30
0.0
 10
-135.8257
 20
-70.6199
 30
0.0
 10
-143.4717
 20
-62.9745
 30
0.0
 10
-143.4717
 20
-62.9745
 30
0.0
 10
-143.4717
 20
-62.9745
 30
0.0
 10
-143.4717
 20
-62.9745
 30
0.0
 10
-143.4726
 20
-52.1617
 30
0.0
 10
-143.4726
 20
-52.1617
 30
0.0
 10
-143.4726
 20
-52.1617
 30
0.0
 10
-143.4726
 20
-52.1617
 30
0.0
 10
-135.8267
 20
-44.5155
 30
0.0
 10
-135.8267
 20
-44.5155
 30
0.0
 10
-135.8267
 20
-44.5155
 30
0.0
 10
-135.8267
 20
-44.5155
 30
0.0
 10
-125.0144
 20
-44.5155
 30
0.0
 10
-125.0144
 20
-44.5155
 30
0.0
 10
-125.0144
 20
-44.5155
 30
0.0
 10
-125.0144
 20
-44.5155
 30
0.0
 10
-117.3674
 20
-52.1606
 30
0.0
 10
-117.3674
 20
-52.1606
 30
0.0
 10
-117.3674
 20
-52.1606
 30
0.0
 10
-117.3674
 20
-52.1606
 30
0.0
 10
-117.3674
 20
-62.9737
 30
0.0
 10
-117.3674
 20
-62.9737
 30
0.0
  0
SPLINE
  5
71
330
1F
100
AcDbEntity
  8
layer 1
 62
     7
100
AcDbSpline
210
0.0
220
0.0
230
1.0
 70
    11
 71
     3
 72
    36
 73
    32
 74
     0
 42
0.0000000001
 43
0.0000000001
 12
1.0
 22
0.0
 32
0.0
 13
1.0
 23
0.0
 33
0.0
 40
0.0
 40
0.0
 40
0.0
 40
0.0
 40
0.1111111111111111
 40
0.1111111111111111
 40
0.1111111111111111
 40
0.1111111111111111
 40
0.2222222222222222
 40
0.2222222222222222
 40
0.2222222222222222
 40
0.2222222222222222
 40
0.3333333333333333
 40
0.3333333333333333
 40
0.3333333333333333
 40
0.3333333333333333
 40
0.4444444444444444
 40
0.4444444444444444
 40
0.4444444444444444
 40
0.4444444444444444
 40
0.5555555555555556
 40
0.5555555555555556
 40
0.5555555555555556
 40
0.5555555555555556
 40
0.6666666666666666
 40
0.6666666666666666
 40
0.6666666666666666
 40
0.6666666666666666
 40
0.7777777777777778
 40
0.7777777777777778
 40
0.7777777777777778
 40
0.7777777777777778
 40
1.0
 40
1.0
 40
1.0
 40
1.0
 10
-111.9852
 20
-52.1113
 30
0.0
 10
-111.9852
 20
-52.1113
 30
0.0
 10
-104.7659
 20
-52.1113
 30
0.0
 10
-104.7659
 20
-52.1113
 30
0.0
 10
-104.7659
 20
-52.1113
 30
0.0
 10
-103.7522
 20
-52.1113
 30
0.0
 10
-102.9354
 20
-52.9283
 30
0.0
 10
-102.9354
 20
-53.943
 30
0.0
 10
-102.9354
 20
-53.943
 30
0.0
 10
-102.9354
 20
-53.943
 30
0.0
 10
-102.9353
 20
-61.1612
 30
0.0
 10
-102.9353
 20
-61.1612
 30
0.0
 10
-102.9353
 20
-61.1612
 30
0.0
 10
-102.9353
 20
-62.1759
 30
0.0
 10
-103.7522
 20
-62.9922
 30
0.0
 10
-104.7659
 20
-62.9922
 30
0.0
 10
-104.7659
 20
-62.9922
 30
0.0
 10
-104.7659
 20
-62.9922
 30
0.0
 10
-111.9852
 20
-62.9922
 30
0.0
 10
-111.9852
 20
-62.9922
 30
0.0
 10
-111.9852
 20
-62.9922
 30
0.0
 10
-112.999
 20
-62.9922
 30
0.0
 10
-113.8161
 20
-62.1761
 30
0.0
 10
-113.8161
 20
-61.1614
 30
0.0
 10
-113.8161
 20
-61.1614
 30
0.0
 10
-113.8161
 20
-61.1614
 30
0.0
 10
-113.8161
 20
-53.9428
 30
0.0
 10
-113.8161
 20
-53.9428
 30
0.0
 10
-113.8161
 20
-53.9428
 30
0.0
 10
-113.8161
 20
-52.9282
 30
0.0
 10
-112.999
 20
-52.1115
 30
0.0
 10
-111.9852
 20
-52.1113
 30
0.0
  0
SPLINE
  5
72
330
1F
100
AcDbEntity
  8
layer 1
 62
     7
100
AcDbSpline
210
0.0
220
0.0
230
1.0
 70
    11
 71
     3
 72
    28
 73
    24
 74
     0
 42
0.0000000001
 43
0.0000000001
 12
1.0
 22
0.0
 32
0.0
 13
1.0
 23
0.0
 33
0.0
 40
0.0
 40
0.0
 40
0.0
 40
0.0
 40
0.1428571428571428
 40
0.1428571428571428
 40
0.1428571428571428
 40
0.1428571428571428
 40
0.2857142857142857
 40
0.2857142857142857
 40
0.2857142857142857
 40
0.2857142857142857
 40
0.4285714285714285
 40
0.4285714285714285
 40
0.4285714285714285
 40
0.4285714285714285
 40
0.5714285714285714
 40
0.5714285714285714
 40
0.5714285714285714
 40
0.5714285714285714
 40
0.7142857142857143
 40
0.7142857142857143
 40
0.7142857142857143
 40
0.7142857142857143
 40
1.0
 40
1.0
 40
1.0
 40
1.0
 10
-161.5552
 20
-62.9163
 30
0.0
 10
-161.5552
 20
-62.9163
 30
0.0
 10
-169.2005
 20
-70.5625
 30
0.0
 10
-169.2005
 20
-70.5625
 30
0.0
 10
-169.2005
 20
-70.5625
 30
0.0
 10
-169.2005
 20
-70.5625
 30
0.0
 10
-180.0134
 20
-70.5625
 30
0.0
 10
-180.0134
 20
-70.5625
 30
0.0
 10
-180.0134
 20
-70.5625
 30
0.0
 10
-180.0134
 20
-70.5625
 30
0.0
 10
-180.015
 20
-44.458
 30
0.0
 10
-180.015
 20
-44.458
 30
0.0
 10
-180.015
 20
-44.458
 30
0.0
 10
-180.015
 20
-44.458
 30
0.0
 10
-169.202
 20
-44.458
 30
0.0
 10
-169.202
 20
-44.458
 30
0.0
 10
-169.202
 20
-44.458
 30
0.0
 10
-169.202
 20
-44.458
 30
0.0
 10
-161.5561
 20
-52.1032
 30
0.0
 10
-161.5561
 20
-52.1032
 30
0.0
 10
-161.5561
 20
-52.1032
 30
0.0
 10
-161.5561
 20
-52.1032
 30
0.0
 10
-161.5552
 20
-62.9163
 30
0.0
 10
-161.5552
 20
-62.9163
 30
0.0
  0
SPLINE
  5
73
330
1F
100
AcDbEntity
  8
layer 1
 62
     7
100
AcDbSpline
210
0.0
220
0.0
230
1.0
 70
    11
 71
     3
 72
    36
 73
    32
 74
     0
 42
0.0000000001
 43
0.0000000001
 12
1.0
 22
0.0
 32
0.0
 13
1.0
 23
0.0
 33
0.0
 40
0.0
 40
0.0
 40
0.0
 40
0.0
 40
0.1111111111111111
 40
0.1111111111111111
 40
0.1111111111111111
 40
0.1111111111111111
 40
0.2222222222222222
 40
0.2222222222222222
 40
0.2222222222222222
 40
0.2222222222222222
 40
0.3333333333333333
 40
0.3333333333333333
 40
0.3333333333333333
 40
0.3333333333333333
 40
0.4444444444444444
 40
0.4444444444444444
 40
0.4444444444444444
 40
0.4444444444444444
 40
0.5555555555555556
 40
0.5555555555555556
 40
0.5555555555555556
 40
0.5555555555555556
 40
0.6666666666666666
 40
0.6666666666666666
 40
0.6666666666666666
 40
0.6666666666666666
 40
0.7777777777777778
 40
0.7777777777777778
 40
0.7777777777777778
 40
0.7777777777777778
 40
1.0
 40
1.0
 40
1.0
 40
1.0
 10
-178.0435
 20
-30.1299
 30
0.0
 10
-178.0435
 20
-30.1299
 30
0.0
 10
-170.8251
 20
-30.1299
 30
0.0
 10
-170.8251
 20
-30.1299
 30
0.0
 10
-170.8251
 20
-30.1299
 30
0.0
 10
-169.8104
 20
-30.1299
 30
0.0
 10
-168.9937
 20
-30.9468
 30
0.0
 10
-168.9937
 20
-31.9616
 30
0.0
 10
-168.9937
 20
-31.9616
 30
0.0
 10
-168.9937
 20
-31.9616
 30
0.0
 10
-168.9937
 20
-39.1797
 30
0.0
 10
-168.9937
 20
-39.1797
 30
0.0
 10
-168.9937
 20
-39.1797
 30
0.0
 10
-168.9937
 20
-40.1944
 30
0.0
 10
-169.8105
 20
-41.0108
 30
0.0
 10
-170.8252
 20
-41.0108
 30
0.0
 10
-170.8252
 20
-41.0108
 30
0.0
 10
-170.8252
 20
-41.0108
 30
0.0
 10
-178.0435
 20
-41.0108
 30
0.0
 10
-178.0435
 20
-41.0108
 30
0.0
 10
-178.0435
 20
-41.0108
 30
0.0
 10
-179.0583
 20
-41.0108
 30
0.0
 10
-179.8744
 20
-40.1947
 30
0.0
 10
-179.8744
 20
-39.1799
 30
0.0
 10
-179.8744
 20
-39.1799
 30
0.0
 10
-179.8744
 20
-39.1799
 30
0.0
 10
-179.8743
 20
-31.9614
 30
0.0
 10
-179.8743
 20
-31.9614
 30
0.0
 10
-179.8743
 20
-31.9614
 30
0.0
 10
-179.8743
 20
-30.9467
 30
0.0
 10
-179.0583
 20
-30.1301
 30
0.0
 10
-178.0435
 20
-30.1299
 30
0.0
  0
SPLINE
  5
74
330
1F
100
AcDbEntity
  8
layer 1
 62
     7
100
AcDbSpline
210
0.0
220
0.0
230
1.0
 70
    11
 71
     3
 72
    36
 73
    32
 74
     0
 42
0.0000000001
 43
0.0000000001
 12
1.0
 22
0.0
 32
0.0
 13
1.0
 23
0.0
 33
0.0
 40
0.0
 40
0.0
 40
0.0
 40
0.0
 40
0.1111111111111111
 40
0.1111111111111111
 40
0.1111111111111111
 40
0.1111111111111111
 40
0.2222222222222222
 40
0.2222222222222222
 40
0.2222222222222222
 40
0.2222222222222222
 40
0.3333333333333333
 40
0.3333333333333333
 40
0.3333333333333333
 40
0.3333333333333333
 40
0.4444444444444444
 40
0.4444444444444444
 40
0.4444444444444444
 40
0.4444444444444444
 40
0.5555555555555556
 40
0.5555555555555556
 40
0.5555555555555556
 40
0.5555555555555556
 40
0.6666666666666666
 40
0.6666666666666666
 40
0.6666666666666666
 40
0.6666666666666666
 40
0.7777777777777778
 40
0.7777777777777778
 40
0.7777777777777778
 40
0.7777777777777778
 40
1.0
 40
1.0
 40
1.0
 40
1.0
 10
-89.945
 20
-30.1661
 30
0.0
 10
-89.945
 20
-30.1661
 30
0.0
 10
-82.7266
 20
-30.1661
 30
0.0
 10
-82.7266
 20
-30.1661
 30
0.0
 10
-82.7266
 20
-30.1661
 30
0.0
 10
-81.7119
 20
-30.1661
 30
0.0
 10
-80.8959
 20
-30.9831
 30
0.0
 10
-80.8959
 20
-31.9978
 30
0.0
 10
-80.8959
 20
-31.9978
 30
0.0
 10
-80.8959
 20
-31.9978
 30
0.0
 10
-80.8959
 20
-39.2162
 30
0.0
 10
-80.8959
 20
-39.2162
 30
0.0
 10
-80.8959
 20
-39.2162
 30
0.0
 10
-80.8959
 20
-40.2308
 30
0.0
 10
-81.712
 20
-41.0467
 30
0.0
 10
-82.7267
 20
-41.0467
 30
0.0
 10
-82.7267
 20
-41.0467
 30
0.0
 10
-82.7267
 20
-41.0467
 30
0.0
 10
-89.945
 20
-41.0466
 30
0.0
 10
-89.945
 20
-41.0466
 30
0.0
 10
-89.945
 20
-41.0466
 30
0.0
 10
-90.9598
 20
-41.0466
 30
0.0
 10
-91.7769
 20
-40.2309
 30
0.0
 10
-91.7769
 20
-39.2162
 30
0.0
 10
-91.7769
 20
-39.2162
 30
0.0
 10
-91.7769
 20
-39.2162
 30
0.0
 10
-91.7767
 20
-31.9978
 30
0.0
 10
-91.7767
 20
-31.9978
 30
0.0
 10
-91.7767
 20
-31.9978
 30
0.0
 10
-91.7767
 20
-30.9829
 30
0.0
 10
-90.9598
 20
-30.1661
 30
0.0
 10
-89.945
 20
-30.1661
 30
0.0
  0
SPLINE
  5
75
330
1F
100
AcDbEntity
  8
layer 1
 62
     7
100
AcDbSpline
210
0.0
220
0.0
230
1.0
 70
    11
 71
     3
 72
    28
 73
    24
 74
     0
 42
0.0000000001
 43
0.0000000001
 12
1.0
 22
0.0
 32
0.0
 13
1.0
 23
0.0
 33
0.0
 40
0.0
 40
0.0
 40
0.0
 40
0.0
 40
0.1428571428571428
 40
0.1428571428571428
 40
0.1428571428571428
 40
0.1428571428571428
 40
0.2857142857142857
 40
0.2857142857142857
 40
0.2857142857142857
 40
0.2857142857142857
 40
0.4285714285714285
 40
0.4285714285714285
 40
0.4285714285714285
 40
0.4285714285714285
 40
0.5714285714285714
 40
0.5714285714285714
 40
0.5714285714285714
 40
0.5714285714285714
 40
0.7142857142857143
 40
0.7142857142857143
 40
0.7142857142857143
 40
0.7142857142857143
 40
1.0
 40
1.0
 40
1.0
 40
1.0
 10
-58.9101
 20
-48.5079
 30
0.0
 10
-58.9101
 20
-48.5079
 30
0.0
 10
-69.723
 20
-48.5079
 30
0.0
 10
-69.723
 20
-48.5079
 30
0.0
 10
-69.723
 20
-48.5079
 30
0.0
 10
-69.723
 20
-48.5079
 30
0.0
 10
-77.3693
 20
-40.8625
 30
0.0
 10
-77.3693
 20
-40.8625
 30
0.0
 10
-77.3693
 20
-40.8625
 30
0.0
 10
-77.3693
 20
-40.8625
 30
0.0
 10
-77.3693
 20
-30.0497
 30
0.0
 10
-77.3693
 20
-30.0497
 30
0.0
 10
-77.3693
 20
-30.0497
 30
0.0
 10
-77.3693
 20
-30.0497
 30
0.0
 10
-69.7239
 20
-22.4035
 30
0.0
 10
-69.7239
 20
-22.4035
 30
0.0
 10
-69.7239
 20
-22.4035
 30
0.0
 10
-69.7239
 20
-22.4035
 30
0.0
 10
-58.911
 20
-22.4035
 30
0.0
 10
-58.911
 20
-22.4035
 30
0.0
 10
-58.911
 20
-22.4035
 30
0.0
 10
-58.911
 20
-22.4035
 30
0.0
 10
-58.9101
 20
-48.5079
 30
0.0
 10
-58.9101
 20
-48.5079
 30
0.0
  0
SPLINE
  5
76
330
1F
100
AcDbEntity
  8
layer 1
 62
     7
100
AcDbSpline
210
0.0
220
0.0
230
1.0
 70
    11
 71
     3
 72
    36
 73
    32
 74
     0
 42
0.0000000001
 43
0.0000000001
 12
1.0
 22
0.0
 32
0.0
 13
1.0
 23
0.0
 33
0.0
 40
0.0
 40
0.0
 40
0.0
 40
0.0
 40
0.1111111111111111
 40
0.1111111111111111
 40
0.1111111111111111
 40
0.1111111111111111
 40
0.2222222222222222
 40
0.2222222222222222
 40
0.2222222222222222
 40
0.2222222222222222
 40
0.3333333333333333
 40
0.3333333333333333
 40
0.3333333333333333
 40
0.3333333333333333
 40
0.4444444444444444
 40
0.4444444444444444
 40
0.4444444444444444
 40
0.4444444444444444
 40
0.5555555555555556
 40
0.5555555555555556
 40
0.5555555555555556
 40
0.5555555555555556
 40
0.6666666666666666
 40
0.6666666666666666
 40
0.6666666666666666
 40
0.6666666666666666
 40
0.7777777777777778
 40
0.7777777777777778
 40
0.7777777777777778
 40
0.7777777777777778
 40
1.0
 40
1.0
 40
1.0
 40
1.0
 10
-73.3119
 20
-62.9374
 30
0.0
 10
-73.3119
 20
-62.9374
 30
0.0
 10
-80.9574
 20
-70.5836
 30
0.0
 10
-80.9574
 20
-70.5836
 30
0.0
 10
-80.9574
 20
-70.5836
 30
0.0
 10
-80.9574
 20
-70.5836
 30
0.0
 10
-91.7703
 20
-70.5836
 30
0.0
 10
-91.7703
 20
-70.5836
 30
0.0
 10
-91.7703
 20
-70.5836
 30
0.0
 10
-91.7703
 20
-70.5836
 30
0.0
 10
-99.4163
 20
-62.9382
 30
0.0
 10
-99.4163
 20
-62.9382
 30
0.0
 10
-99.4163
 20
-62.9382
 30
0.0
 10
-99.4163
 20
-62.9382
 30
0.0
 10
-99.4172
 20
-52.1253
 30
0.0
 10
-99.4172
 20
-52.1253
 30
0.0
 10
-99.4172
 20
-52.1253
 30
0.0
 10
-99.4172
 20
-52.1253
 30
0.0
 10
-91.7712
 20
-44.4791
 30
0.0
 10
-91.7712
 20
-44.4791
 30
0.0
 10
-91.7712
 20
-44.4791
 30
0.0
 10
-91.7712
 20
-44.4791
 30
0.0
 10
-80.9589
 20
-44.4791
 30
0.0
 10
-80.9589
 20
-44.4791
 30
0.0
 10
-80.9589
 20
-44.4791
 30
0.0
 10
-80.9589
 20
-44.4791
 30
0.0
 10
-73.3119
 20
-52.1243
 30
0.0
 10
-73.3119
 20
-52.1243
 30
0.0
 10
-73.3119
 20
-52.1243
 30
0.0
 10
-73.3119
 20
-52.1243
 30
0.0
 10
-73.3119
 20
-62.9374
 30
0.0
 10
-73.3119
 20
-62.9374
 30
0.0
  0
SPLINE
  5
77
330
1F
100
AcDbEntity
  8
layer 1
 62
     7
100
AcDbSpline
210
0.0
220
0.0
230
1.0
 70
    11
 71
     3
 72
    36
 73
    32
 74
     0
 42
0.0000000001
 43
0.0000000001
 12
1.0
 22
0.0
 32
0.0
 13
1.0
 23
0.0
 33
0.0
 40
0.0
 40
0.0
 40
0.0
 40
0.0
 40
0.1111111111111111
 40
0.1111111111111111
 40
0.1111111111111111
 40
0.1111111111111111
 40
0.2222222222222222
 40
0.2222222222222222
 40
0.2222222222222222
 40
0.2222222222222222
 40
0.3333333333333333
 40
0.3333333333333333
 40
0.3333333333333333
 40
0.3333333333333333
 40
0.4444444444444444
 40
0.4444444444444444
 40
0.4444444444444444
 40
0.4444444444444444
 40
0.5555555555555556
 40
0.5555555555555556
 40
0.5555555555555556
 40
0.5555555555555556
 40
0.6666666666666666
 40
0.6666666666666666
 40
0.6666666666666666
 40
0.6666666666666666
 40
0.7777777777777778
 40
0.7777777777777778
 40
0.7777777777777778
 40
0.7777777777777778
 40
1.0
 40
1.0
 40
1.0
 40
1.0
 10
-67.9298
 20
-52.075
 30
0.0
 10
-67.9298
 20
-52.075
 30
0.0
 10
-60.7105
 20
-52.075
 30
0.0
 10
-60.7105
 20
-52.075
 30
0.0
 10
-60.7105
 20
-52.075
 30
0.0
 10
-59.6967
 20
-52.075
 30
0.0
 10
-58.8799
 20
-52.8919
 30
0.0
 10
-58.8799
 20
-53.9067
 30
0.0
 10
-58.8799
 20
-53.9067
 30
0.0
 10
-58.8799
 20
-53.9067
 30
0.0
 10
-58.8799
 20
-61.1248
 30
0.0
 10
-58.8799
 20
-61.1248
 30
0.0
 10
-58.8799
 20
-61.1248
 30
0.0
 10
-58.8799
 20
-62.1395
 30
0.0
 10
-59.6967
 20
-62.9559
 30
0.0
 10
-60.7105
 20
-62.9559
 30
0.0
 10
-60.7105
 20
-62.9559
 30
0.0
 10
-60.7105
 20
-62.9559
 30
0.0
 10
-67.9298
 20
-62.9559
 30
0.0
 10
-67.9298
 20
-62.9559
 30
0.0
 10
-67.9298
 20
-62.9559
 30
0.0
 10
-68.9435
 20
-62.9559
 30
0.0
 10
-69.7606
 20
-62.1398
 30
0.0
 10
-69.7606
 20
-61.125
 30
0.0
 10
-69.7606
 20
-61.125
 30
0.0
 10
-69.7606
 20
-61.125
 30
0.0
 10
-69.7606
 20
-53.9065
 30
0.0
 10
-69.7606
 20
-53.9065
 30
0.0
 10
-69.7606
 20
-53.9065
 30
0.0
 10
-69.7606
 20
-52.8918
 30
0.0
 10
-68.9436
 20
-52.0752
 30
0.0
 10
-67.9298
 20
-52.075
 30
0.0
  0
SPLINE
  5
78
330
1F
100
AcDbEntity
  8
layer 1
 62
     7
100
AcDbSpline
210
0.0
220
0.0
230
1.0
 70
    11
 71
     3
 72
    36
 73
    32
 74
     0
 42
0.0000000001
 43
0.0000000001
 12
1.0
 22
0.0
 32
0.0
 13
1.0
 23
0.0
 33
0.0
 40
0.0
 40
0.0
 40
0.0
 40
0.0
 40
0.1111111111111111
 40
0.1111111111111111
 40
0.1111111111111111
 40
0.1111111111111111
 40
0.2222222222222222
 40
0.2222222222222222
 40
0.2222222222222222
 40
0.2222222222222222
 40
0.3333333333333333
 40
0.3333333333333333
 40
0.3333333333333333
 40
0.3333333333333333
 40
0.4444444444444444
 40
0.4444444444444444
 40
0.4444444444444444
 40
0.4444444444444444
 40
0.5555555555555556
 40
0.5555555555555556
 40
0.5555555555555556
 40
0.5555555555555556
 40
0.6666666666666666
 40
0.6666666666666666
 40
0.6666666666666666
 40
0.6666666666666666
 40
0.7777777777777778
 40
0.7777777777777778
 40
0.7777777777777778
 40
0.7777777777777778
 40
1.0
 40
1.0
 40
1.0
 40
1.0
 10
-139.4707
 20
-84.9133
 30
0.0
 10
-139.4707
 20
-84.9133
 30
0.0
 10
-147.116
 20
-92.5595
 30
0.0
 10
-147.116
 20
-92.5595
 30
0.0
 10
-147.116
 20
-92.5595
 30
0.0
 10
-147.116
 20
-92.5595
 30
0.0
 10
-157.9289
 20
-92.5595
 30
0.0
 10
-157.9289
 20
-92.5595
 30
0.0
 10
-157.9289
 20
-92.5595
 30
0.0
 10
-157.9289
 20
-92.5595
 30
0.0
 10
-165.575
 20
-84.9141
 30
0.0
 10
-165.575
 20
-84.9141
 30
0.0
 10
-165.575
 20
-84.9141
 30
0.0
 10
-165.575
 20
-84.9141
 30
0.0
 10
-165.5759
 20
-74.1013
 30
0.0
 10
-165.5759
 20
-74.1013
 30
0.0
 10
-165.5759
 20
-74.1013
 30
0.0
 10
-165.5759
 20
-74.1013
 30
0.0
 10
-157.9305
 20
-66.4551
 30
0.0
 10
-157.9305
 20
-66.4551
 30
0.0
 10
-157.9305
 20
-66.4551
 30
0.0
 10
-157.9305
 20
-66.4551
 30
0.0
 10
-147.1175
 20
-66.4551
 30
0.0
 10
-147.1175
 20
-66.4551
 30
0.0
 10
-147.1175
 20
-66.4551
 30
0.0
 10
-147.1175
 20
-66.4551
 30
0.0
 10
-139.4716
 20
-74.1002
 30
0.0
 10
-139.4716
 20
-74.1002
 30
0.0
 10
-139.4716
 20
-74.1002
 30
0.0
 10
-139.4716
 20
-74.1002
 30
0.0
 10
-139.4707
 20
-84.9133
 30
0.0
 10
-139.4707
 20
-84.9133
 30
0.0
  0
SPLINE
  5
79
330
1F
100
AcDbEntity
  8
layer 1
 62
     7
100
AcDbSpline
210
0.0
220
0.0
230
1.0
 70
    11
 71
     3
 72
    36
 73
    32
 74
     0
 42
0.0000000001
 43
0.0000000001
 12
1.0
 22
0.0
 32
0.0
 13
1.0
 23
0.0
 33
0.0
 40
0.0
 40
0.0
 40
0.0
 40
0.0
 40
0.1111111111111111
 40
0.1111111111111111
 40
0.1111111111111111
 40
0.1111111111111111
 40
0.2222222222222222
 40
0.2222222222222222
 40
0.2222222222222222
 40
0.2222222222222222
 40
0.3333333333333333
 40
0.3333333333333333
 40
0.3333333333333333
 40
0.3333333333333333
 40
0.4444444444444444
 40
0.4444444444444444
 40
0.4444444444444444
 40
0.4444444444444444
 40
0.5555555555555556
 40
0.5555555555555556
 40
0.5555555555555556
 40
0.5555555555555556
 40
0.6666666666666666
 40
0.6666666666666666
 40
0.6666666666666666
 40
0.6666666666666666
 40
0.7777777777777778
 40
0.7777777777777778
 40
0.7777777777777778
 40
0.7777777777777778
 40
1.0
 40
1.0
 40
1.0
 40
1.0
 10
-155.9257
 20
-96.1266
 30
0.0
 10
-155.9257
 20
-96.1266
 30
0.0
 10
-148.7073
 20
-96.1266
 30
0.0
 10
-148.7073
 20
-96.1266
 30
0.0
 10
-148.7073
 20
-96.1266
 30
0.0
 10
-147.6927
 20
-96.1266
 30
0.0
 10
-146.876
 20
-96.9435
 30
0.0
 10
-146.876
 20
-97.9583
 30
0.0
 10
-146.876
 20
-97.9583
 30
0.0
 10
-146.876
 20
-97.9583
 30
0.0
 10
-146.876
 20
-105.1764
 30
0.0
 10
-146.876
 20
-105.1764
 30
0.0
 10
-146.876
 20
-105.1764
 30
0.0
 10
-146.876
 20
-106.1911
 30
0.0
 10
-147.6928
 20
-107.0075
 30
0.0
 10
-148.7075
 20
-107.0075
 30
0.0
 10
-148.7075
 20
-107.0075
 30
0.0
 10
-148.7075
 20
-107.0075
 30
0.0
 10
-155.9257
 20
-107.0075
 30
0.0
 10
-155.9257
 20
-107.0075
 30
0.0
 10
-155.9257
 20
-107.0075
 30
0.0
 10
-156.9406
 20
-107.0075
 30
0.0
 10
-157.7566
 20
-106.1914
 30
0.0
 10
-157.7566
 20
-105.1766
 30
0.0
 10
-157.7566
 20
-105.1766
 30
0.0
 10
-157.7566
 20
-105.1766
 30
0.0
 10
-157.7566
 20
-97.9581
 30
0.0
 10
-157.7566
 20
-97.9581
 30
0.0
 10
-157.7566
 20
-97.9581
 30
0.0
 10
-157.7566
 20
-96.9434
 30
0.0
 10
-156.9406
 20
-96.1268
 30
0.0
 10
-155.9257
 20
-96.1266
 30
0.0
  0
SPLINE
  5
7A
330
1F
100
AcDbEntity
  8
layer 1
 62
     7
100
AcDbSpline
210
0.0
220
0.0
230
1.0
 70
    11
 71
     3
 72
    36
 73
    32
 74
     0
 42
0.0000000001
 43
0.0000000001
 12
1.0
 22
0.0
 32
0.0
 13
1.0
 23
0.0
 33
0.0
 40
0.0
 40
0.0
 40
0.0
 40
0.0
 40
0.1111111111111111
 40
0.1111111111111111
 40
0.1111111111111111
 40
0.1111111111111111
 40
0.2222222222222222
 40
0.2222222222222222
 40
0.2222222222222222
 40
0.2222222222222222
 40
0.3333333333333333
 40
0.3333333333333333
 40
0.3333333333333333
 40
0.3333333333333333
 40
0.4444444444444444
 40
0.4444444444444444
 40
0.4444444444444444
 40
0.4444444444444444
 40
0.5555555555555556
 40
0.5555555555555556
 40
0.5555555555555556
 40
0.5555555555555556
 40
0.6666666666666666
 40
0.6666666666666666
 40
0.6666666666666666
 40
0.6666666666666666
 40
0.7777777777777778
 40
0.7777777777777778
 40
0.7777777777777778
 40
0.7777777777777778
 40
1.0
 40
1.0
 40
1.0
 40
1.0
 10
-134.0005
 20
-74.2176
 30
0.0
 10
-134.0005
 20
-74.2176
 30
0.0
 10
-126.7821
 20
-74.2176
 30
0.0
 10
-126.7821
 20
-74.2176
 30
0.0
 10
-126.7821
 20
-74.2176
 30
0.0
 10
-125.7674
 20
-74.2176
 30
0.0
 10
-124.9514
 20
-75.0347
 30
0.0
 10
-124.9514
 20
-76.0494
 30
0.0
 10
-124.9514
 20
-76.0494
 30
0.0
 10
-124.9514
 20
-76.0494
 30
0.0
 10
-124.9514
 20
-83.2678
 30
0.0
 10
-124.9514
 20
-83.2678
 30
0.0
 10
-124.9514
 20
-83.2678
 30
0.0
 10
-124.9514
 20
-84.2824
 30
0.0
 10
-125.7675
 20
-85.0983
 30
0.0
 10
-126.7822
 20
-85.0983
 30
0.0
 10
-126.7822
 20
-85.0983
 30
0.0
 10
-126.7822
 20
-85.0983
 30
0.0
 10
-134.0005
 20
-85.0982
 30
0.0
 10
-134.0005
 20
-85.0982
 30
0.0
 10
-134.0005
 20
-85.0982
 30
0.0
 10
-135.0152
 20
-85.0982
 30
0.0
 10
-135.8323
 20
-84.2825
 30
0.0
 10
-135.8323
 20
-83.2678
 30
0.0
 10
-135.8323
 20
-83.2678
 30
0.0
 10
-135.8323
 20
-83.2678
 30
0.0
 10
-135.8322
 20
-76.0494
 30
0.0
 10
-135.8322
 20
-76.0494
 30
0.0
 10
-135.8322
 20
-76.0494
 30
0.0
 10
-135.8322
 20
-75.0345
 30
0.0
 10
-135.0153
 20
-74.2176
 30
0.0
 10
-134.0005
 20
-74.2176
 30
0.0
  0
SPLINE
  5
7B
330
1F
100
AcDbEntity
  8
layer 1
 62
     7
100
AcDbSpline
210
0.0
220
0.0
230
1.0
 70
    11
 71
     3
 72
    36
 73
    32
 74
     0
 42
0.0000000001
 43
0.0000000001
 12
1.0
 22
0.0
 32
0.0
 13
1.0
 23
0.0
 33
0.0
 40
0.0
 40
0.0
 40
0.0
 40
0.0
 40
0.1111111111111111
 40
0.1111111111111111
 40
0.1111111111111111
 40
0.1111111111111111
 40
0.2222222222222222
 40
0.2222222222222222
 40
0.2222222222222222
 40
0.2222222222222222
 40
0.3333333333333333
 40
0.3333333333333333
 40
0.3333333333333333
 40
0.3333333333333333
 40
0.4444444444444444
 40
0.4444444444444444
 40
0.4444444444444444
 40
0.4444444444444444
 40
0.5555555555555556
 40
0.5555555555555556
 40
0.5555555555555556
 40
0.5555555555555556
 40
0.6666666666666666
 40
0.6666666666666666
 40
0.6666666666666666
 40
0.6666666666666666
 40
0.7777777777777778
 40
0.7777777777777778
 40
0.7777777777777778
 40
0.7777777777777778
 40
1.0
 40
1.0
 40
1.0
 40
1.0
 10
-95.3205
 20
-84.9133
 30
0.0
 10
-95.3205
 20
-84.9133
 30
0.0
 10
-102.9655
 20
-92.5595
 30
0.0
 10
-102.9655
 20
-92.5595
 30
0.0
 10
-102.9655
 20
-92.5595
 30
0.0
 10
-102.9655
 20
-92.5595
 30
0.0
 10
-113.7784
 20
-92.5595
 30
0.0
 10
-113.7784
 20
-92.5595
 30
0.0
 10
-113.7784
 20
-92.5595
 30
0.0
 10
-113.7784
 20
-92.5595
 30
0.0
 10
-121.4248
 20
-84.9141
 30
0.0
 10
-121.4248
 20
-84.9141
 30
0.0
 10
-121.4248
 20
-84.9141
 30
0.0
 10
-121.4248
 20
-84.9141
 30
0.0
 10
-121.4248
 20
-74.1013
 30
0.0
 10
-121.4248
 20
-74.1013
 30
0.0
 10
-121.4248
 20
-74.1013
 30
0.0
 10
-121.4248
 20
-74.1013
 30
0.0
 10
-113.7794
 20
-66.4551
 30
0.0
 10
-113.7794
 20
-66.4551
 30
0.0
 10
-113.7794
 20
-66.4551
 30
0.0
 10
-113.7794
 20
-66.4551
 30
0.0
 10
-102.9664
 20
-66.4551
 30
0.0
 10
-102.9664
 20
-66.4551
 30
0.0
 10
-102.9664
 20
-66.4551
 30
0.0
 10
-102.9664
 20
-66.4551
 30
0.0
 10
-95.3205
 20
-74.1002
 30
0.0
 10
-95.3205
 20
-74.1002
 30
0.0
 10
-95.3205
 20
-74.1002
 30
0.0
 10
-95.3205
 20
-74.1002
 30
0.0
 10
-95.3205
 20
-84.9133
 30
0.0
 10
-95.3205
 20
-84.9133
 30
0.0
  0
SPLINE
  5
7C
330
1F
100
AcDbEntity
  8
layer 1
 62
     7
100
AcDbSpline
210
0.0
220
0.0
230
1.0
 70
    11
 71
     3
 72
    28
 73
    24
 74
     0
 42
0.0000000001
 43
0.0000000001
 12
1.0
 22
0.0
 32
0.0
 13
1.0
 23
0.0
 33
0.0
 40
0.0
 40
0.0
 40
0.0
 40
0.0
 40
0.1428571428571428
 40
0.1428571428571428
 40
0.1428571428571428
 40
0.1428571428571428
 40
0.2857142857142857
 40
0.2857142857142857
 40
0.2857142857142857
 40
0.2857142857142857
 40
0.4285714285714285
 40
0.4285714285714285
 40
0.4285714285714285
 40
0.4285714285714285
 40
0.5714285714285714
 40
0.5714285714285714
 40
0.5714285714285714
 40
0.5714285714285714
 40
0.7142857142857143
 40
0.7142857142857143
 40
0.7142857142857143
 40
0.7142857142857143
 40
1.0
 40
1.0
 40
1.0
 40
1.0
 10
-117.3674
 20
-106.989
 30
0.0
 10
-117.3674
 20
-106.989
 30
0.0
 10
-143.4717
 20
-106.9898
 30
0.0
 10
-143.4717
 20
-106.9898
 30
0.0
 10
-143.4717
 20
-106.9898
 30
0.0
 10
-143.4717
 20
-106.9898
 30
0.0
 10
-143.4726
 20
-96.1769
 30
0.0
 10
-143.4726
 20
-96.1769
 30
0.0
 10
-143.4726
 20
-96.1769
 30
0.0
 10
-143.4726
 20
-96.1769
 30
0.0
 10
-135.8267
 20
-88.5307
 30
0.0
 10
-135.8267
 20
-88.5307
 30
0.0
 10
-135.8267
 20
-88.5307
 30
0.0
 10
-135.8267
 20
-88.5307
 30
0.0
 10
-125.0144
 20
-88.5307
 30
0.0
 10
-125.0144
 20
-88.5307
 30
0.0
 10
-125.0144
 20
-88.5307
 30
0.0
 10
-125.0144
 20
-88.5307
 30
0.0
 10
-117.3674
 20
-96.1759
 30
0.0
 10
-117.3674
 20
-96.1759
 30
0.0
 10
-117.3674
 20
-96.1759
 30
0.0
 10
-117.3674
 20
-96.1759
 30
0.0
 10
-117.3674
 20
-106.989
 30
0.0
 10
-117.3674
 20
-106.989
 30
0.0
  0
SPLINE
  5
7D
330
1F
100
AcDbEntity
  8
layer 1
 62
     7
100
AcDbSpline
210
0.0
220
0.0
230
1.0
 70
    11
 71
     3
 72
    36
 73
    32
 74
     0
 42
0.0000000001
 43
0.0000000001
 12
1.0
 22
0.0
 32
0.0
 13
1.0
 23
0.0
 33
0.0
 40
0.0
 40
0.0
 40
0.0
 40
0.0
 40
0.1111111111111111
 40
0.1111111111111111
 40
0.1111111111111111
 40
0.1111111111111111
 40
0.2222222222222222
 40
0.2222222222222222
 40
0.2222222222222222
 40
0.2222222222222222
 40
0.3333333333333333
 40
0.3333333333333333
 40
0.3333333333333333
 40
0.3333333333333333
 40
0.4444444444444444
 40
0.4444444444444444
 40
0.4444444444444444
 40
0.4444444444444444
 40
0.5555555555555556
 40
0.5555555555555556
 40
0.5555555555555556
 40
0.5555555555555556
 40
0.6666666666666666
 40
0.6666666666666666
 40
0.6666666666666666
 40
0.6666666666666666
 40
0.7777777777777778
 40
0.7777777777777778
 40
0.7777777777777778
 40
0.7777777777777778
 40
1.0
 40
1.0
 40
1.0
 40
1.0
 10
-111.9852
 20
-96.1266
 30
0.0
 10
-111.9852
 20
-96.1266
 30
0.0
 10
-104.7659
 20
-96.1266
 30
0.0
 10
-104.7659
 20
-96.1266
 30
0.0
 10
-104.7659
 20
-96.1266
 30
0.0
 10
-103.7522
 20
-96.1266
 30
0.0
 10
-102.9354
 20
-96.9435
 30
0.0
 10
-102.9354
 20
-97.9583
 30
0.0
 10
-102.9354
 20
-97.9583
 30
0.0
 10
-102.9354
 20
-97.9583
 30
0.0
 10
-102.9353
 20
-105.1764
 30
0.0
 10
-102.9353
 20
-105.1764
 30
0.0
 10
-102.9353
 20
-105.1764
 30
0.0
 10
-102.9353
 20
-106.1911
 30
0.0
 10
-103.7522
 20
-107.0075
 30
0.0
 10
-104.7659
 20
-107.0075
 30
0.0
 10
-104.7659
 20
-107.0075
 30
0.0
 10
-104.7659
 20
-107.0075
 30
0.0
 10
-111.9852
 20
-107.0075
 30
0.0
 10
-111.9852
 20
-107.0075
 30
0.0
 10
-111.9852
 20
-107.0075
 30
0.0
 10
-112.999
 20
-107.0075
 30
0.0
 10
-113.8161
 20
-106.1914
 30
0.0
 10
-113.8161
 20
-105.1766
 30
0.0
 10
-113.8161
 20
-105.1766
 30
0.0
 10
-113.8161
 20
-105.1766
 30
0.0
 10
-113.8161
 20
-97.9581
 30
0.0
 10
-113.8161
 20
-97.9581
 30
0.0
 10
-113.8161
 20
-97.9581
 30
0.0
 10
-113.8161
 20
-96.9434
 30
0.0
 10
-112.999
 20
-96.1268
 30
0.0
 10
-111.9852
 20
-96.1266
 30
0.0
  0
SPLINE
  5
7E
330
1F
100
AcDbEntity
  8
layer 1
 62
     7
100
AcDbSpline
210
0.0
220
0.0
230
1.0
 70
    11
 71
     3
 72
    24
 73
    20
 74
     0
 42
0.0000000001
 43
0.0000000001
 12
1.0
 22
0.0
 32
0.0
 13
1.0
 23
0.0
 33
0.0
 40
0.0
 40
0.0
 40
0.0
 40
0.0
 40
0.1666666666666667
 40
0.1666666666666667
 40
0.1666666666666667
 40
0.1666666666666667
 40
0.3333333333333333
 40
0.3333333333333333
 40
0.3333333333333333
 40
0.3333333333333333
 40
0.5
 40
0.5
 40
0.5
 40
0.5
 40
0.6666666666666666
 40
0.6666666666666666
 40
0.6666666666666666
 40
0.6666666666666666
 40
1.0
 40
1.0
 40
1.0
 40
1.0
 10
-161.5281
 20
-106.8656
 30
0.0
 10
-161.5281
 20
-106.8656
 30
0.0
 10
-179.9868
 20
-106.9222
 30
0.0
 10
-179.9868
 20
-106.9222
 30
0.0
 10
-179.9868
 20
-106.9222
 30
0.0
 10
-179.9868
 20
-106.9222
 30
0.0
 10
-179.9879
 20
-88.4073
 30
0.0
 10
-179.9879
 20
-88.4073
 30
0.0
 10
-179.9879
 20
-88.4073
 30
0.0
 10
-179.9879
 20
-88.4073
 30
0.0
 10
-169.202
 20
-88.4733
 30
0.0
 10
-169.202
 20
-88.4733
 30
0.0
 10
-169.202
 20
-88.4733
 30
0.0
 10
-169.202
 20
-88.4733
 30
0.0
 10
-161.5561
 20
-96.1184
 30
0.0
 10
-161.5561
 20
-96.1184
 30
0.0
 10
-161.5561
 20
-96.1184
 30
0.0
 10
-161.5561
 20
-96.1184
 30
0.0
 10
-161.5281
 20
-106.8656
 30
0.0
 10
-161.5281
 20
-106.8656
 30
0.0
  0
SPLINE
  5
7F
330
1F
100
AcDbEntity
  8
layer 1
 62
     7
100
AcDbSpline
210
0.0
220
0.0
230
1.0
 70
    11
 71
     3
 72
    36
 73
    32
 74
     0
 42
0.0000000001
 43
0.0000000001
 12
1.0
 22
0.0
 32
0.0
 13
1.0
 23
0.0
 33
0.0
 40
0.0
 40
0.0
 40
0.0
 40
0.0
 40
0.1111111111111111
 40
0.1111111111111111
 40
0.1111111111111111
 40
0.1111111111111111
 40
0.2222222222222222
 40
0.2222222222222222
 40
0.2222222222222222
 40
0.2222222222222222
 40
0.3333333333333333
 40
0.3333333333333333
 40
0.3333333333333333
 40
0.3333333333333333
 40
0.4444444444444444
 40
0.4444444444444444
 40
0.4444444444444444
 40
0.4444444444444444
 40
0.5555555555555556
 40
0.5555555555555556
 40
0.5555555555555556
 40
0.5555555555555556
 40
0.6666666666666666
 40
0.6666666666666666
 40
0.6666666666666666
 40
0.6666666666666666
 40
0.7777777777777778
 40
0.7777777777777778
 40
0.7777777777777778
 40
0.7777777777777778
 40
1.0
 40
1.0
 40
1.0
 40
1.0
 10
-178.0435
 20
-74.1451
 30
0.0
 10
-178.0435
 20
-74.1451
 30
0.0
 10
-170.8251
 20
-74.1451
 30
0.0
 10
-170.8251
 20
-74.1451
 30
0.0
 10
-170.8251
 20
-74.1451
 30
0.0
 10
-169.8104
 20
-74.1451
 30
0.0
 10
-168.9937
 20
-74.9621
 30
0.0
 10
-168.9937
 20
-75.9768
 30
0.0
 10
-168.9937
 20
-75.9768
 30
0.0
 10
-168.9937
 20
-75.9768
 30
0.0
 10
-168.9937
 20
-83.195
 30
0.0
 10
-168.9937
 20
-83.195
 30
0.0
 10
-168.9937
 20
-83.195
 30
0.0
 10
-168.9937
 20
-84.2097
 30
0.0
 10
-169.8105
 20
-85.026
 30
0.0
 10
-170.8252
 20
-85.026
 30
0.0
 10
-170.8252
 20
-85.026
 30
0.0
 10
-170.8252
 20
-85.026
 30
0.0
 10
-178.0435
 20
-85.026
 30
0.0
 10
-178.0435
 20
-85.026
 30
0.0
 10
-178.0435
 20
-85.026
 30
0.0
 10
-179.0583
 20
-85.026
 30
0.0
 10
-179.8744
 20
-84.2099
 30
0.0
 10
-179.8744
 20
-83.1952
 30
0.0
 10
-179.8744
 20
-83.1952
 30
0.0
 10
-179.8744
 20
-83.1952
 30
0.0
 10
-179.8743
 20
-75.9766
 30
0.0
 10
-179.8743
 20
-75.9766
 30
0.0
 10
-179.8743
 20
-75.9766
 30
0.0
 10
-179.8743
 20
-74.962
 30
0.0
 10
-179.0583
 20
-74.1453
 30
0.0
 10
-178.0435
 20
-74.1451
 30
0.0
  0
SPLINE
  5
80
330
1F
100
AcDbEntity
  8
layer 1
 62
     7
100
AcDbSpline
210
0.0
220
0.0
230
1.0
 70
    11
 71
     3
 72
    36
 73
    32
 74
     0
 42
0.0000000001
 43
0.0000000001
 12
1.0
 22
0.0
 32
0.0
 13
1.0
 23
0.0
 33
0.0
 40
0.0
 40
0.0
 40
0.0
 40
0.0
 40
0.1111111111111111
 40
0.1111111111111111
 40
0.1111111111111111
 40
0.1111111111111111
 40
0.2222222222222222
 40
0.2222222222222222
 40
0.2222222222222222
 40
0.2222222222222222
 40
0.3333333333333333
 40
0.3333333333333333
 40
0.3333333333333333
 40
0.3333333333333333
 40
0.4444444444444444
 40
0.4444444444444444
 40
0.4444444444444444
 40
0.4444444444444444
 40
0.5555555555555556
 40
0.5555555555555556
 40
0.5555555555555556
 40
0.5555555555555556
 40
0.6666666666666666
 40
0.6666666666666666
 40
0.6666666666666666
 40
0.6666666666666666
 40
0.7777777777777778
 40
0.7777777777777778
 40
0.7777777777777778
 40
0.7777777777777778
 40
1.0
 40
1.0
 40
1.0
 40
1.0
 10
-89.945
 20
-74.1813
 30
0.0
 10
-89.945
 20
-74.1813
 30
0.0
 10
-82.7266
 20
-74.1813
 30
0.0
 10
-82.7266
 20
-74.1813
 30
0.0
 10
-82.7266
 20
-74.1813
 30
0.0
 10
-81.7119
 20
-74.1813
 30
0.0
 10
-80.8959
 20
-74.9983
 30
0.0
 10
-80.8959
 20
-76.0131
 30
0.0
 10
-80.8959
 20
-76.0131
 30
0.0
 10
-80.8959
 20
-76.0131
 30
0.0
 10
-80.8959
 20
-83.2314
 30
0.0
 10
-80.8959
 20
-83.2314
 30
0.0
 10
-80.8959
 20
-83.2314
 30
0.0
 10
-80.8959
 20
-84.2461
 30
0.0
 10
-81.712
 20
-85.062
 30
0.0
 10
-82.7267
 20
-85.062
 30
0.0
 10
-82.7267
 20
-85.062
 30
0.0
 10
-82.7267
 20
-85.062
 30
0.0
 10
-89.945
 20
-85.0619
 30
0.0
 10
-89.945
 20
-85.0619
 30
0.0
 10
-89.945
 20
-85.0619
 30
0.0
 10
-90.9598
 20
-85.0619
 30
0.0
 10
-91.7769
 20
-84.2462
 30
0.0
 10
-91.7769
 20
-83.2314
 30
0.0
 10
-91.7769
 20
-83.2314
 30
0.0
 10
-91.7769
 20
-83.2314
 30
0.0
 10
-91.7767
 20
-76.0131
 30
0.0
 10
-91.7767
 20
-76.0131
 30
0.0
 10
-91.7767
 20
-76.0131
 30
0.0
 10
-91.7767
 20
-74.9981
 30
0.0
 10
-90.9598
 20
-74.1813
 30
0.0
 10
-89.945
 20
-74.1813
 30
0.0
  0
SPLINE
  5
81
330
1F
100
AcDbEntity
  8
layer 1
 62
     7
100
AcDbSpline
210
0.0
220
0.0
230
1.0
 70
    11
 71
     3
 72
    28
 73
    24
 74
     0
 42
0.0000000001
 43
0.0000000001
 12
1.0
 22
0.0
 32
0.0
 13
1.0
 23
0.0
 33
0.0
 40
0.0
 40
0.0
 40
0.0
 40
0.0
 40
0.1428571428571428
 40
0.1428571428571428
 40
0.1428571428571428
 40
0.1428571428571428
 40
0.2857142857142857
 40
0.2857142857142857
 40
0.2857142857142857
 40
0.2857142857142857
 40
0.4285714285714285
 40
0.4285714285714285
 40
0.4285714285714285
 40
0.4285714285714285
 40
0.5714285714285714
 40
0.5714285714285714
 40
0.5714285714285714
 40
0.5714285714285714
 40
0.7142857142857143
 40
0.7142857142857143
 40
0.7142857142857143
 40
0.7142857142857143
 40
1.0
 40
1.0
 40
1.0
 40
1.0
 10
-58.9101
 20
-92.5232
 30
0.0
 10
-58.9101
 20
-92.5232
 30
0.0
 10
-69.723
 20
-92.5232
 30
0.0
 10
-69.723
 20
-92.5232
 30
0.0
 10
-69.723
 20
-92.5232
 30
0.0
 10
-69.723
 20
-92.5232
 30
0.0
 10
-77.3693
 20
-84.8778
 30
0.0
 10
-77.3693
 20
-84.8778
 30
0.0
 10
-77.3693
 20
-84.8778
 30
0.0
 10
-77.3693
 20
-84.8778
 30
0.0
 10
-77.3693
 20
-74.0649
 30
0.0
 10
-77.3693
 20
-74.0649
 30
0.0
 10
-77.3693
 20
-74.0649
 30
0.0
 10
-77.3693
 20
-74.0649
 30
0.0
 10
-69.7239
 20
-66.4187
 30
0.0
 10
-69.7239
 20
-66.4187
 30
0.0
 10
-69.7239
 20
-66.4187
 30
0.0
 10
-69.7239
 20
-66.4187
 30
0.0
 10
-58.911
 20
-66.4187
 30
0.0
 10
-58.911
 20
-66.4187
 30
0.0
 10
-58.911
 20
-66.4187
 30
0.0
 10
-58.911
 20
-66.4187
 30
0.0
 10
-58.9101
 20
-92.5232
 30
0.0
 10
-58.9101
 20
-92.5232
 30
0.0
  0
SPLINE
  5
82
330
1F
100
AcDbEntity
  8
layer 1
 62
     7
100
AcDbSpline
210
0.0
220
0.0
230
1.0
 70
    11
 71
     3
 72
    28
 73
    24
 74
     0
 42
0.0000000001
 43
0.0000000001
 12
1.0
 22
0.0
 32
0.0
 13
1.0
 23
0.0
 33
0.0
 40
0.0
 40
0.0
 40
0.0
 40
0.0
 40
0.1428571428571428
 40
0.1428571428571428
 40
0.1428571428571428
 40
0.1428571428571428
 40
0.2857142857142857
 40
0.2857142857142857
 40
0.2857142857142857
 40
0.2857142857142857
 40
0.4285714285714285
 40
0.4285714285714285
 40
0.4285714285714285
 40
0.4285714285714285
 40
0.5714285714285714
 40
0.5714285714285714
 40
0.5714285714285714
 40
0.5714285714285714
 40
0.7142857142857143
 40
0.7142857142857143
 40
0.7142857142857143
 40
0.7142857142857143
 40
1.0
 40
1.0
 40
1.0
 40
1.0
 10
-73.3119
 20
-106.9526
 30
0.0
 10
-73.3119
 20
-106.9526
 30
0.0
 10
-99.4163
 20
-106.9534
 30
0.0
 10
-99.4163
 20
-106.9534
 30
0.0
 10
-99.4163
 20
-106.9534
 30
0.0
 10
-99.4163
 20
-106.9534
 30
0.0
 10
-99.4172
 20
-96.1406
 30
0.0
 10
-99.4172
 20
-96.1406
 30
0.0
 10
-99.4172
 20
-96.1406
 30
0.0
 10
-99.4172
 20
-96.1406
 30
0.0
 10
-91.7712
 20
-88.4944
 30
0.0
 10
-91.7712
 20
-88.4944
 30
0.0
 10
-91.7712
 20
-88.4944
 30
0.0
 10
-91.7712
 20
-88.4944
 30
0.0
 10
-80.9589
 20
-88.4944
 30
0.0
 10
-80.9589
 20
-88.4944
 30
0.0
 10
-80.9589
 20
-88.4944
 30
0.0
 10
-80.9589
 20
-88.4944
 30
0.0
 10
-73.3119
 20
-96.1395
 30
0.0
 10
-73.3119
 20
-96.1395
 30
0.0
 10
-73.3119
 20
-96.1395
 30
0.0
 10
-73.3119
 20
-96.1395
 30
0.0
 10
-73.3119
 20
-106.9526
 30
0.0
 10
-73.3119
 20
-106.9526
 30
0.0
  0
SPLINE
  5
83
330
1F
100
AcDbEntity
  8
layer 1
 62
     7
100
AcDbSpline
210
0.0
220
0.0
230
1.0
 70
    11
 71
     3
 72
    36
 73
    32
 74
     0
 42
0.0000000001
 43
0.0000000001
 12
1.0
 22
0.0
 32
0.0
 13
1.0
 23
0.0
 33
0.0
 40
0.0
 40
0.0
 40
0.0
 40
0.0
 40
0.1111111111111111
 40
0.1111111111111111
 40
0.1111111111111111
 40
0.1111111111111111
 40
0.2222222222222222
 40
0.2222222222222222
 40
0.2222222222222222
 40
0.2222222222222222
 40
0.3333333333333333
 40
0.3333333333333333
 40
0.3333333333333333
 40
0.3333333333333333
 40
0.4444444444444444
 40
0.4444444444444444
 40
0.4444444444444444
 40
0.4444444444444444
 40
0.5555555555555556
 40
0.5555555555555556
 40
0.5555555555555556
 40
0.5555555555555556
 40
0.6666666666666666
 40
0.6666666666666666
 40
0.6666666666666666
 40
0.6666666666666666
 40
0.7777777777777778
 40
0.7777777777777778
 40
0.7777777777777778
 40
0.7777777777777778
 40
1.0
 40
1.0
 40
1.0
 40
1.0
 10
-67.9298
 20
-96.0902
 30
0.0
 10
-67.9298
 20
-96.0902
 30
0.0
 10
-60.7105
 20
-96.0902
 30
0.0
 10
-60.7105
 20
-96.0902
 30
0.0
 10
-60.7105
 20
-96.0902
 30
0.0
 10
-59.6967
 20
-96.0902
 30
0.0
 10
-58.8799
 20
-96.9072
 30
0.0
 10
-58.8799
 20
-97.9219
 30
0.0
 10
-58.8799
 20
-97.9219
 30
0.0
 10
-58.8799
 20
-97.9219
 30
0.0
 10
-58.8799
 20
-105.1401
 30
0.0
 10
-58.8799
 20
-105.1401
 30
0.0
 10
-58.8799
 20
-105.1401
 30
0.0
 10
-58.8799
 20
-106.1547
 30
0.0
 10
-59.6967
 20
-106.9711
 30
0.0
 10
-60.7105
 20
-106.9711
 30
0.0
 10
-60.7105
 20
-106.9711
 30
0.0
 10
-60.7105
 20
-106.9711
 30
0.0
 10
-67.9298
 20
-106.9711
 30
0.0
 10
-67.9298
 20
-106.9711
 30
0.0
 10
-67.9298
 20
-106.9711
 30
0.0
 10
-68.9435
 20
-106.9711
 30
0.0
 10
-69.7606
 20
-106.155
 30
0.0
 10
-69.7606
 20
-105.1403
 30
0.0
 10
-69.7606
 20
-105.1403
 30
0.0
 10
-69.7606
 20
-105.1403
 30
0.0
 10
-69.7606
 20
-97.9217
 30
0.0
 10
-69.7606
 20
-97.9217
 30
0.0
 10
-69.7606
 20
-97.9217
 30
0.0
 10
-69.7606
 20
-96.907
 30
0.0
 10
-68.9436
 20
-96.0904
 30
0.0
 10
-67.9298
 20
-96.0902
 30
0.0
  0
ENDSEC
  0
SECTION
  2
OBJECTS
  0
DICTIONARY
  5
C
330
0
100
AcDbDictionary
281
     1
  3
ACAD_GROUP
350
D
  3
ACAD_LAYOUT
350
1A
  3
ACAD_MATERIAL
350
3B
  3
ACAD_MLEADERSTYLE
350
A6
  3
ACAD_MLINESTYLE
350
17
  3
ACAD_PLOTSETTINGS
350
19
  3
ACAD_PLOTSTYLENAME
350
E
  3
ACAD_TABLESTYLE
350
A5
  3
ACAD_VISUALSTYLE
350
2A
  0
DICTIONARY
  5
D
102
{ACAD_REACTORS
330
C
102
}
330
C
100
AcDbDictionary
281
     1
  0
DICTIONARY
  5
1A
102
{ACAD_REACTORS
330
C
102
}
330
C
100
AcDbDictionary
281
     1
  3
Layout1
350
1E
  3
Layout2
350
26
  3
Model
350
22
  0
DICTIONARY
  5
3B
102
{ACAD_REACTORS
330
C
102
}
330
C
100
AcDbDictionary
281
     1
  3
ByBlock
350
3D
  3
ByLayer
350
3C
  3
Global
350
3E
  0
DICTIONARY
  5
A6
102
{ACAD_REACTORS
330
C
102
}
330
C
100
AcDbDictionary
281
     1
  0
DICTIONARY
  5
17
102
{ACAD_REACTORS
330
C
102
}
330
C
100
AcDbDictionary
281
     1
  3
Standard
350
18
  0
DICTIONARY
  5
19
102
{ACAD_REACTORS
330
C
102
}
330
C
100
AcDbDictionary
281
     1
  0
ACDBDICTIONARYWDFLT
  5
E
102
{ACAD_REACTORS
330
C
102
}
330
C
100
AcDbDictionary
281
     1
  3
Normal
350
F
100
AcDbDictionaryWithDefault
340
F
  0
DICTIONARY
  5
A5
102
{ACAD_REACTORS
330
C
102
}
330
C
100
AcDbDictionary
281
     1
  0
DICTIONARY
  5
2A
102
{ACAD_REACTORS
330
C
102
}
330
C
100
AcDbDictionary
281
     1
  3
2dWireframe
350
2F
  3
3D Hidden
350
31
  3
3dWireframe
350
30
  3
Basic
350
32
  3
Brighten
350
36
  3
ColorChange
350
3A
  3
Conceptual
350
34
  3
Dim
350
35
  3
Facepattern
350
39
  3
Flat
350
2B
  3
FlatWithEdges
350
2C
  3
Gouraud
350
2D
  3
GouraudWithEdges
350
2E
  3
Linepattern
350
38
  3
Realistic
350
33
  3
Thicken
350
37
  0
LAYOUT
  5
1E
102
{ACAD_REACTORS
330
1A
102
}
330
1A
100
AcDbPlotSettings
  1

  2
none_device
  4

  6

 40
0.0
 41
0.0
 42
0.0
 43
0.0
 44
0.0
 45
0.0
 46
0.0
 47
0.0
 48
0.0
 49
0.0
140
0.0
141
0.0
142
1.0
143
1.0
 70
   688
 72
     0
 73
     0
 74
     5
  7

 75
    16
 76
     0
 77
     2
 78
   300
147
1.0
148
0.0
149
0.0
100
AcDbLayout
  1
Layout1
 70
     1
 71
     1
 10
0.0
 20
0.0
 11
12.0
 21
9.0
 12
0.0
 22
0.0
 32
0.0
 14
1.000000000000000E+20
 24
1.000000000000000E+20
 34
1.000000000000000E+20
 15
-1.000000000000000E+20
 25
-1.000000000000000E+20
 35
-1.000000000000000E+20
146
0.0
 13
0.0
 23
0.0
 33
0.0
 16
1.0
 26
0.0
 36
0.0
 17
0.0
 27
1.0
 37
0.0
 76
     0
330
1B
  0
LAYOUT
  5
26
102
{ACAD_REACTORS
330
1A
102
}
330
1A
100
AcDbPlotSettings
  1

  2
none_device
  4

  6

 40
0.0
 41
0.0
 42
0.0
 43
0.0
 44
0.0
 45
0.0
 46
0.0
 47
0.0
 48
0.0
 49
0.0
140
0.0
141
0.0
142
1.0
143
1.0
 70
   688
 72
     0
 73
     0
 74
     5
  7

 75
    16
 76
     0
 77
     2
 78
   300
147
1.0
148
0.0
149
0.0
100
AcDbLayout
  1
Layout2
 70
     1
 71
     2
 10
0.0
 20
0.0
 11
0.0
 21
0.0
 12
0.0
 22
0.0
 32
0.0
 14
0.0
 24
0.0
 34
0.0
 15
0.0
 25
0.0
 35
0.0
146
0.0
 13
0.0
 23
0.0
 33
0.0
 16
1.0
 26
0.0
 36
0.0
 17
0.0
 27
1.0
 37
0.0
 76
     0
330
23
  0
LAYOUT
  5
22
102
{ACAD_REACTORS
330
1A
102
}
330
1A
100
AcDbPlotSettings
  1

  2
none_device
  4

  6

 40
0.0
 41
0.0
 42
0.0
 43
0.0
 44
0.0
 45
0.0
 46
0.0
 47
0.0
 48
0.0
 49
0.0
140
0.0
141
0.0
142
1.0
143
1.0
 70
  1712
 72
     0
 73
     0
 74
     0
  7

 75
     0
 76
     0
 77
     2
 78
   300
147
1.0
148
0.0
149
0.0
100
AcDbLayout
  1
Model
 70
     1
 71
     0
 10
0.0
 20
0.0
 11
12.0
 21
9.0
 12
0.0
 22
0.0
 32
0.0
 14
-187.4401
 24
-114.9817
 34
0.0
 15
-51.4548
 25
131.6894
 35
0.0
146
0.0
 13
0.0
 23
0.0
 33
0.0
 16
1.0
 26
0.0
 36
0.0
 17
0.0
 27
1.0
 37
0.0
 76
     0
330
1F
331
29
  0
MATERIAL
  5
3D
102
{ACAD_REACTORS
330
3B
102
}
330
3B
100
AcDbMaterial
  1
ByBlock
 72
     1
 94
      127
  0
MATERIAL
  5
3C
102
{ACAD_REACTORS
330
3B
102
}
330
3B
100
AcDbMaterial
  1
ByLayer
 72
     1
 94
      127
  0
MATERIAL
  5
3E
102
{ACAD_REACTORS
330
3B
102
}
330
3B
100
AcDbMaterial
  1
Global
 72
     1
 94
      127
  0
MLINESTYLE
  5
18
102
{ACAD_REACTORS
330
17
102
}
330
17
100
AcDbMlineStyle
  2
Standard
 70
     0
  3

 62
   256
 51
90.0
 52
90.0
 71
     2
 49
0.5
 62
   256
  6
BYLAYER
 49
-0.5
 62
   256
  6
BYLAYER
  0
ACDBPLACEHOLDER
  5
F
102
{ACAD_REACTORS
330
E
102
}
330
E
  0
VISUALSTYLE
  5
2F
102
{ACAD_REACTORS
330
2A
102
}
102
{ACAD_XDICTIONARY
360
8D
102
}
330
2A
100
AcDbVisualStyle
  2
2dWireframe
 70
     4
 71
     0
 72
     2
 73
     0
 90
        0
 40
-0.6
 41
-30.0
 62
     5
 63
     7
421
 16777215
 74
     1
 91
        4
 64
     7
 65
   257
 75
     1
175
     1
 42
1.0
 92
        0
 66
   257
 43
1.0
 76
     1
 77
     6
 78
     2
 67
     7
 79
     5
170
     0
171
     0
290
     0
174
     0
 93
        1
 44
0.0
173
     0
291
     0
 45
0.0
  0
VISUALSTYLE
  5
31
102
{ACAD_REACTORS
330
2A
102
}
102
{ACAD_XDICTIONARY
360
91
102
}
330
2A
100
AcDbVisualStyle
  2
3D Hidden
 70
     6
 71
     1
 72
     2
 73
     2
 90
        0
 40
-0.6
 41
-30.0
 62
     5
 63
     7
421
 16777215
 74
     2
 91
        2
 64
     7
 65
   257
 75
     2
175
     1
 42
40.0
 92
        0
 66
   257
 43
1.0
 76
     1
 77
     6
 78
     2
 67
     7
 79
     3
170
     0
171
     0
290
     0
174
     0
 93
        1
 44
0.0
173
     0
291
     0
 45
0.0
  0
VISUALSTYLE
  5
30
102
{ACAD_REACTORS
330
2A
102
}
102
{ACAD_XDICTIONARY
360
8F
102
}
330
2A
100
AcDbVisualStyle
  2
3dWireframe
 70
     5
 71
     0
 72
     2
 73
     0
 90
        0
 40
-0.6
 41
-30.0
 62
     5
 63
     7
421
 16777215
 74
     1
 91
        4
 64
     7
 65
   257
 75
     1
175
     1
 42
1.0
 92
        0
 66
   257
 43
1.0
 76
     1
 77
     6
 78
     2
 67
     7
 79
     5
170
     0
171
     0
290
     0
174
     0
 93
        1
 44
0.0
173
     0
291
     0
 45
0.0
  0
VISUALSTYLE
  5
32
102
{ACAD_REACTORS
330
2A
102
}
102
{ACAD_XDICTIONARY
360
93
102
}
330
2A
100
AcDbVisualStyle
  2
Basic
 70
     7
 71
     1
 72
     0
 73
     1
 90
        0
 40
-0.6
 41
-30.0
 62
     5
 63
     7
421
 16777215
 74
     0
 91
        4
 64
     7
 65
   257
 75
     1
175
     1
 42
1.0
 92
        8
 66
     7
 43
1.0
 76
     1
 77
     6
 78
     2
 67
     7
 79
     5
170
     0
171
     0
290
     0
174
     0
 93
        1
 44
0.0
173
     0
291
     1
 45
0.0
  0
VISUALSTYLE
  5
36
102
{ACAD_REACTORS
330
2A
102
}
102
{ACAD_XDICTIONARY
360
9B
102
}
330
2A
100
AcDbVisualStyle
  2
Brighten
 70
    12
 71
     2
 72
     2
 73
     0
 90
        0
 40
-0.6
 41
-30.0
 62
     5
 63
     7
421
 16777215
 74
     1
 91
        4
 64
     7
 65
   257
 75
     1
175
     1
 42
1.0
 92
        8
 66
     7
 43
1.0
 76
     1
 77
     6
 78
     2
 67
     7
 79
     5
170
     0
171
     0
290
     0
174
     0
 93
        1
 44
50.0
173
     0
291
     1
 45
0.0
  0
VISUALSTYLE
  5
3A
102
{ACAD_REACTORS
330
2A
102
}
102
{ACAD_XDICTIONARY
360
A3
102
}
330
2A
100
AcDbVisualStyle
  2
ColorChange
 70
    16
 71
     2
 72
     2
 73
     3
 90
        0
 40
-0.6
 41
-30.0
 62
     5
 63
     8
421
  8421504
 74
     1
 91
        4
 64
     7
 65
   257
 75
     1
175
     1
 42
1.0
 92
        8
 66
     8
424
  8421504
 43
1.0
 76
     1
 77
     6
 78
     2
 67
     7
 79
     5
170
     0
171
     0
290
     0
174
     0
 93
        1
 44
0.0
173
     0
291
     1
 45
0.0
  0
VISUALSTYLE
  5
34
102
{ACAD_REACTORS
330
2A
102
}
102
{ACAD_XDICTIONARY
360
97
102
}
330
2A
100
AcDbVisualStyle
  2
Conceptual
 70
     9
 71
     3
 72
     2
 73
     0
 90
        0
 40
-0.6
 41
-30.0
 62
     5
 63
     7
421
 16777215
 74
     2
 91
        2
 64
     7
 65
   257
 75
     1
175
     1
 42
40.0
 92
        8
 66
     7
 43
1.0
 76
     1
 77
     6
 78
     2
 67
     7
 79
     3
170
     0
171
     0
290
     0
174
     0
 93
        1
 44
0.0
173
     0
291
     0
 45
0.0
  0
VISUALSTYLE
  5
35
102
{ACAD_REACTORS
330
2A
102
}
102
{ACAD_XDICTIONARY
360
99
102
}
330
2A
100
AcDbVisualStyle
  2
Dim
 70
    11
 71
     2
 72
     2
 73
     0
 90
        0
 40
-0.6
 41
-30.0
 62
     5
 63
     7
421
 16777215
 74
     1
 91
        4
 64
     7
 65
   257
 75
     1
175
     1
 42
1.0
 92
        8
 66
     7
 43
1.0
 76
     1
 77
     6
 78
     2
 67
     7
 79
     5
170
     0
171
     0
290
     0
174
     0
 93
        1
 44
-50.0
173
     0
291
     1
 45
0.0
  0
VISUALSTYLE
  5
39
102
{ACAD_REACTORS
330
2A
102
}
102
{ACAD_XDICTIONARY
360
A1
102
}
330
2A
100
AcDbVisualStyle
  2
Facepattern
 70
    15
 71
     2
 72
     2
 73
     0
 90
        0
 40
-0.6
 41
-30.0
 62
     5
 63
     7
421
 16777215
 74
     1
 91
        4
 64
     7
 65
   257
 75
     1
175
     1
 42
1.0
 92
        8
 66
     7
 43
1.0
 76
     1
 77
     6
 78
     2
 67
     7
 79
     5
170
     0
171
     0
290
     0
174
     0
 93
        1
 44
0.0
173
     0
291
     1
 45
0.0
  0
VISUALSTYLE
  5
2B
102
{ACAD_REACTORS
330
2A
102
}
102
{ACAD_XDICTIONARY
360
85
102
}
330
2A
100
AcDbVisualStyle
  2
Flat
 70
     0
 71
     2
 72
     1
 73
     1
 90
        2
 40
-0.6
 41
30.0
 62
     5
 63
     7
421
 16777215
 74
     0
 91
        4
 64
     7
 65
   257
 75
     1
175
     1
 42
1.0
 92
        8
 66
     7
 43
1.0
 76
     1
 77
     6
 78
     2
 67
     7
 79
     5
170
     0
171
     0
290
     0
174
     0
 93
       13
 44
0.0
173
     0
291
     1
 45
0.0
  0
VISUALSTYLE
  5
2C
102
{ACAD_REACTORS
330
2A
102
}
102
{ACAD_XDICTIONARY
360
87
102
}
330
2A
100
AcDbVisualStyle
  2
FlatWithEdges
 70
     1
 71
     2
 72
     1
 73
     1
 90
        2
 40
-0.6
 41
30.0
 62
     5
 63
     7
421
 16777215
 74
     1
 91
        4
 64
     7
 65
   257
 75
     1
175
     1
 42
1.0
 92
        0
 66
   257
 43
1.0
 76
     1
 77
     6
 78
     2
 67
     7
 79
     5
170
     0
171
     0
290
     0
174
     0
 93
       13
 44
0.0
173
     0
291
     1
 45
0.0
  0
VISUALSTYLE
  5
2D
102
{ACAD_REACTORS
330
2A
102
}
102
{ACAD_XDICTIONARY
360
89
102
}
330
2A
100
AcDbVisualStyle
  2
Gouraud
 70
     2
 71
     2
 72
     2
 73
     1
 90
        2
 40
-0.6
 41
30.0
 62
     5
 63
     7
421
 16777215
 74
     0
 91
        4
 64
     7
 65
   257
 75
     1
175
     1
 42
1.0
 92
        0
 66
     7
 43
1.0
 76
     1
 77
     6
 78
     2
 67
     7
 79
     5
170
     0
171
     0
290
     0
174
     0
 93
       13
 44
0.0
173
     0
291
     1
 45
0.0
  0
VISUALSTYLE
  5
2E
102
{ACAD_REACTORS
330
2A
102
}
102
{ACAD_XDICTIONARY
360
8B
102
}
330
2A
100
AcDbVisualStyle
  2
GouraudWithEdges
 70
     3
 71
     2
 72
     2
 73
     1
 90
        2
 40
-0.6
 41
30.0
 62
     5
 63
     7
421
 16777215
 74
     1
 91
        4
 64
     7
 65
   257
 75
     1
175
     1
 42
1.0
 92
        0
 66
   257
 43
1.0
 76
     1
 77
     6
 78
     2
 67
     7
 79
     5
170
     0
171
     0
290
     0
174
     0
 93
       13
 44
0.0
173
     0
291
     1
 45
0.0
  0
VISUALSTYLE
  5
38
102
{ACAD_REACTORS
330
2A
102
}
102
{ACAD_XDICTIONARY
360
9F
102
}
330
2A
100
AcDbVisualStyle
  2
Linepattern
 70
    14
 71
     2
 72
     2
 73
     0
 90
        0
 40
-0.6
 41
-30.0
 62
     5
 63
     7
421
 16777215
 74
     1
 91
        4
 64
     7
 65
   257
 75
     7
175
     7
 42
1.0
 92
        8
 66
     7
 43
1.0
 76
     1
 77
     6
 78
     2
 67
     7
 79
     5
170
     0
171
     0
290
     0
174
     0
 93
        1
 44
0.0
173
     0
291
     1
 45
0.0
  0
VISUALSTYLE
  5
33
102
{ACAD_REACTORS
330
2A
102
}
102
{ACAD_XDICTIONARY
360
95
102
}
330
2A
100
AcDbVisualStyle
  2
Realistic
 70
     8
 71
     2
 72
     2
 73
     0
 90
        0
 40
-0.6
 41
-30.0
 62
     5
 63
     7
421
 16777215
 74
     1
 91
        0
 64
     7
 65
   257
 75
     1
175
     1
 42
1.0
 92
        8
 66
     8
424
  7895160
 43
1.0
 76
     1
 77
     6
 78
     2
 67
     7
 79
     5
170
     0
171
     0
290
     0
174
     0
 93
       13
 44
0.0
173
     0
291
     0
 45
0.0
  0
VISUALSTYLE
  5
37
102
{ACAD_REACTORS
330
2A
102
}
102
{ACAD_XDICTIONARY
360
9D
102
}
330
2A
100
AcDbVisualStyle
  2
Thicken
 70
    13
 71
     2
 72
     2
 73
     0
 90
        0
 40
-0.6
 41
-30.0
 62
     5
 63
     7
421
 16777215
 74
     1
 91
        4
 64
     7
 65
   257
 75
     1
175
     1
 42
1.0
 92
       12
 66
     7
 43
1.0
 76
     1
 77
     6
 78
     2
 67
     7
 79
     5
170
     0
171
     0
290
     0
174
     0
 93
        1
 44
0.0
173
     0
291
     1
 45
0.0
  0
DICTIONARY
  5
8D
330
2F
100
AcDbDictionary
280
     1
281
     1
  3
ACAD_XREC_ROUNDTRIP
360
8E
  0
DICTIONARY
  5
91
330
31
100
AcDbDictionary
280
     1
281
     1
  3
ACAD_XREC_ROUNDTRIP
360
92
  0
DICTIONARY
  5
8F
330
30
100
AcDbDictionary
280
     1
281
     1
  3
ACAD_XREC_ROUNDTRIP
360
90
  0
DICTIONARY
  5
93
330
32
100
AcDbDictionary
280
     1
281
     1
  3
ACAD_XREC_ROUNDTRIP
360
94
  0
DICTIONARY
  5
9B
330
36
100
AcDbDictionary
280
     1
281
     1
  3
ACAD_XREC_ROUNDTRIP
360
9C
  0
DICTIONARY
  5
A3
330
3A
100
AcDbDictionary
280
     1
281
     1
  3
ACAD_XREC_ROUNDTRIP
360
A4
  0
DICTIONARY
  5
97
330
34
100
AcDbDictionary
280
     1
281
     1
  3
ACAD_XREC_ROUNDTRIP
360
98
  0
DICTIONARY
  5
99
330
35
100
AcDbDictionary
280
     1
281
     1
  3
ACAD_XREC_ROUNDTRIP
360
9A
  0
DICTIONARY
  5
A1
330
39
100
AcDbDictionary
280
     1
281
     1
  3
ACAD_XREC_ROUNDTRIP
360
A2
  0
DICTIONARY
  5
85
330
2B
100
AcDbDictionary
280
     1
281
     1
  3
ACAD_XREC_ROUNDTRIP
360
86
  0
DICTIONARY
  5
87
330
2C
100
AcDbDictionary
280
     1
281
     1
  3
ACAD_XREC_ROUNDTRIP
360
88
  0
DICTIONARY
  5
89
330
2D
100
AcDbDictionary
280
     1
281
     1
  3
ACAD_XREC_ROUNDTRIP
360
8A
  0
DICTIONARY
  5
8B
330
2E
100
AcDbDictionary
280
     1
281
     1
  3
ACAD_XREC_ROUNDTRIP
360
8C
  0
DICTIONARY
  5
9F
330
38
100
AcDbDictionary
280
     1
281
     1
  3
ACAD_XREC_ROUNDTRIP
360
A0
  0
DICTIONARY
  5
95
330
33
100
AcDbDictionary
280
     1
281
     1
  3
ACAD_XREC_ROUNDTRIP
360
96
  0
DICTIONARY
  5
9D
330
37
100
AcDbDictionary
280
     1
281
     1
  3
ACAD_XREC_ROUNDTRIP
360
9E
  0
XRECORD
  5
8E
102
{ACAD_REACTORS
330
8D
102
}
330
8D
100
AcDbXrecord
280
     1
102
RTVSPropertyOp0
 70
     1
102
RTVSPropertyOp1
 70
     1
102
RTVSPropertyOp2
 70
     1
102
RTVSPropertyOp3
 70
     1
102
RTVSPropertyOp4
 70
     1
102
RTVSPropertyOp5
 70
     1
102
RTVSPropertyOp6
 70
     1
102
RTVSPropertyOp7
 70
     1
102
RTVSPropertyOp8
 70
     1
102
RTVSPropertyOp9
 70
     1
102
RTVSPropertyOp10
 70
     1
102
RTVSPropertyOp11
 70
     1
102
RTVSPropertyOp12
 70
     1
102
RTVSPropertyOp13
 70
     1
102
RTVSPropertyOp14
 70
     1
102
RTVSPropertyOp15
 70
     1
102
RTVSPropertyOp16
 70
     1
102
RTVSPropertyOp17
 70
     1
102
RTVSPropertyOp18
 70
     1
102
RTVSPropertyOp19
 70
     1
102
RTVSPropertyOp20
 70
     1
102
RTVSPropertyOp21
 70
     1
102
RTVSPropertyOp22
 70
     1
102
RTVSPropertyOp23
 70
     1
102
RTVSPropertyOp24
 70
     1
102
RTVSPropertyOp25
 70
     1
102
RTVSPropertyOp26
 70
     1
102
RTVSPropertyOp27
 70
     1
102
RTVSPropertyOp28
 70
     1
102
RTVSPropertyOp29
 70
     1
102
RTVSPropertyOp30
 70
     1
102
RTVSPropertyOp31
 70
     1
102
RTVSPropertyOp32
 70
     1
  0
XRECORD
  5
92
102
{ACAD_REACTORS
330
91
102
}
330
91
100
AcDbXrecord
280
     1
102
RTVSPropertyOp0
 70
     1
102
RTVSPropertyOp1
 70
     1
102
RTVSPropertyOp2
 70
     1
102
RTVSPropertyOp3
 70
     1
102
RTVSPropertyOp4
 70
     1
102
RTVSPropertyOp5
 70
     1
102
RTVSPropertyOp6
 70
     1
102
RTVSPropertyOp7
 70
     1
102
RTVSPropertyOp8
 70
     1
102
RTVSPropertyOp9
 70
     1
102
RTVSPropertyOp10
 70
     1
102
RTVSPropertyOp11
 70
     1
102
RTVSPropertyOp12
 70
     1
102
RTVSPropertyOp13
 70
     1
102
RTVSPropertyOp14
 70
     1
102
RTVSPropertyOp15
 70
     1
102
RTVSPropertyOp16
 70
     1
102
RTVSPropertyOp17
 70
     1
102
RTVSPropertyOp18
 70
     1
102
RTVSPropertyOp19
 70
     1
102
RTVSPropertyOp20
 70
     1
102
RTVSPropertyOp21
 70
     1
102
RTVSPropertyOp22
 70
     1
102
RTVSPropertyOp23
 70
     1
102
RTVSPropertyOp24
 70
     1
102
RTVSPropertyOp25
 70
     1
102
RTVSPropertyOp26
 70
     1
102
RTVSPropertyOp27
 70
     1
102
RTVSPropertyOp28
 70
     1
102
RTVSPropertyOp29
 70
     1
102
RTVSPropertyOp30
 70
     1
102
RTVSPropertyOp31
 70
     1
102
RTVSPropertyOp32
 70
     1
  0
XRECORD
  5
90
102
{ACAD_REACTORS
330
8F
102
}
330
8F
100
AcDbXrecord
280
     1
102
RTVSPropertyOp0
 70
     1
102
RTVSPropertyOp1
 70
     1
102
RTVSPropertyOp2
 70
     1
102
RTVSPropertyOp3
 70
     1
102
RTVSPropertyOp4
 70
     1
102
RTVSPropertyOp5
 70
     1
102
RTVSPropertyOp6
 70
     1
102
RTVSPropertyOp7
 70
     1
102
RTVSPropertyOp8
 70
     1
102
RTVSPropertyOp9
 70
     1
102
RTVSPropertyOp10
 70
     1
102
RTVSPropertyOp11
 70
     1
102
RTVSPropertyOp12
 70
     1
102
RTVSPropertyOp13
 70
     1
102
RTVSPropertyOp14
 70
     1
102
RTVSPropertyOp15
 70
     1
102
RTVSPropertyOp16
 70
     1
102
RTVSPropertyOp17
 70
     1
102
RTVSPropertyOp18
 70
     1
102
RTVSPropertyOp19
 70
     1
102
RTVSPropertyOp20
 70
     1
102
RTVSPropertyOp21
 70
     1
102
RTVSPropertyOp22
 70
     1
102
RTVSPropertyOp23
 70
     1
102
RTVSPropertyOp24
 70
     1
102
RTVSPropertyOp25
 70
     1
102
RTVSPropertyOp26
 70
     1
102
RTVSPropertyOp27
 70
     1
102
RTVSPropertyOp28
 70
     1
102
RTVSPropertyOp29
 70
     1
102
RTVSPropertyOp30
 70
     1
102
RTVSPropertyOp31
 70
     1
102
RTVSPropertyOp32
 70
     1
  0
XRECORD
  5
94
102
{ACAD_REACTORS
330
93
102
}
330
93
100
AcDbXrecord
280
     1
102
RTVSPropertyOp0
 70
     1
102
RTVSPropertyOp1
 70
     1
102
RTVSPropertyOp2
 70
     1
102
RTVSPropertyOp3
 70
     1
102
RTVSPropertyOp4
 70
     1
102
RTVSPropertyOp5
 70
     1
102
RTVSPropertyOp6
 70
     1
102
RTVSPropertyOp7
 70
     1
102
RTVSPropertyOp8
 70
     1
102
RTVSPropertyOp9
 70
     1
102
RTVSPropertyOp10
 70
     1
102
RTVSPropertyOp11
 70
     1
102
RTVSPropertyOp12
 70
     1
102
RTVSPropertyOp13
 70
     1
102
RTVSPropertyOp14
 70
     1
102
RTVSPropertyOp15
 70
     1
102
RTVSPropertyOp16
 70
     1
102
RTVSPropertyOp17
 70
     1
102
RTVSPropertyOp18
 70
     1
102
RTVSPropertyOp19
 70
     1
102
RTVSPropertyOp20
 70
     1
102
RTVSPropertyOp21
 70
     1
102
RTVSPropertyOp22
 70
     1
102
RTVSPropertyOp23
 70
     1
102
RTVSPropertyOp24
 70
     1
102
RTVSPropertyOp25
 70
     1
102
RTVSPropertyOp26
 70
     1
102
RTVSPropertyOp27
 70
     1
102
RTVSPropertyOp28
 70
     1
102
RTVSPropertyOp29
 70
     1
102
RTVSPropertyOp30
 70
     1
102
RTVSPropertyOp31
 70
     1
102
RTVSPropertyOp32
 70
     1
  0
XRECORD
  5
9C
102
{ACAD_REACTORS
330
9B
102
}
330
9B
100
AcDbXrecord
280
     1
102
RTVSPropertyOp0
 70
     1
102
RTVSPropertyOp1
 70
     1
102
RTVSPropertyOp2
 70
     1
102
RTVSPropertyOp3
 70
     1
102
RTVSPropertyOp4
 70
     1
102
RTVSPropertyOp5
 70
     1
102
RTVSPropertyOp6
 70
     1
102
RTVSPropertyOp7
 70
     1
102
RTVSPropertyOp8
 70
     1
102
RTVSPropertyOp9
 70
     1
102
RTVSPropertyOp10
 70
     1
102
RTVSPropertyOp11
 70
     1
102
RTVSPropertyOp12
 70
     1
102
RTVSPropertyOp13
 70
     1
102
RTVSPropertyOp14
 70
     1
102
RTVSPropertyOp15
 70
     1
102
RTVSPropertyOp16
 70
     1
102
RTVSPropertyOp17
 70
     1
102
RTVSPropertyOp18
 70
     1
102
RTVSPropertyOp19
 70
     1
102
RTVSPropertyOp20
 70
     1
102
RTVSPropertyOp21
 70
     1
102
RTVSPropertyOp22
 70
     1
102
RTVSPropertyOp23
 70
     1
102
RTVSPropertyOp24
 70
     1
102
RTVSPropertyOp25
 70
     1
102
RTVSPropertyOp26
 70
     1
102
RTVSPropertyOp27
 70
     1
102
RTVSPropertyOp28
 70
     1
102
RTVSPropertyOp29
 70
     1
102
RTVSPropertyOp30
 70
     1
102
RTVSPropertyOp31
 70
     1
102
RTVSPropertyOp32
 70
     1
  0
XRECORD
  5
A4
102
{ACAD_REACTORS
330
A3
102
}
330
A3
100
AcDbXrecord
280
     1
102
RTVSPropertyOp0
 70
     1
102
RTVSPropertyOp1
 70
     1
102
RTVSPropertyOp2
 70
     1
102
RTVSPropertyOp3
 70
     1
102
RTVSPropertyOp4
 70
     1
102
RTVSPropertyOp5
 70
     1
102
RTVSPropertyOp6
 70
     1
102
RTVSPropertyOp7
 70
     1
102
RTVSPropertyOp8
 70
     1
102
RTVSPropertyOp9
 70
     1
102
RTVSPropertyOp10
 70
     1
102
RTVSPropertyOp11
 70
     1
102
RTVSPropertyOp12
 70
     1
102
RTVSPropertyOp13
 70
     1
102
RTVSPropertyOp14
 70
     1
102
RTVSPropertyOp15
 70
     1
102
RTVSPropertyOp16
 70
     1
102
RTVSPropertyOp17
 70
     1
102
RTVSPropertyOp18
 70
     1
102
RTVSPropertyOp19
 70
     1
102
RTVSPropertyOp20
 70
     1
102
RTVSPropertyOp21
 70
     1
102
RTVSPropertyOp22
 70
     1
102
RTVSPropertyOp23
 70
     1
102
RTVSPropertyOp24
 70
     1
102
RTVSPropertyOp25
 70
     1
102
RTVSPropertyOp26
 70
     1
102
RTVSPropertyOp27
 70
     1
102
RTVSPropertyOp28
 70
     1
102
RTVSPropertyOp29
 70
     1
102
RTVSPropertyOp30
 70
     1
102
RTVSPropertyOp31
 70
     1
102
RTVSPropertyOp32
 70
     1
  0
XRECORD
  5
98
102
{ACAD_REACTORS
330
97
102
}
330
97
100
AcDbXrecord
280
     1
102
RTVSPropertyOp0
 70
     1
102
RTVSPropertyOp1
 70
     1
102
RTVSPropertyOp2
 70
     1
102
RTVSPropertyOp3
 70
     1
102
RTVSPropertyOp4
 70
     1
102
RTVSPropertyOp5
 70
     1
102
RTVSPropertyOp6
 70
     1
102
RTVSPropertyOp7
 70
     1
102
RTVSPropertyOp8
 70
     1
102
RTVSPropertyOp9
 70
     1
102
RTVSPropertyOp10
 70
     1
102
RTVSPropertyOp11
 70
     1
102
RTVSPropertyOp12
 70
     1
102
RTVSPropertyOp13
 70
     1
102
RTVSPropertyOp14
 70
     1
102
RTVSPropertyOp15
 70
     1
102
RTVSPropertyOp16
 70
     1
102
RTVSPropertyOp17
 70
     1
102
RTVSPropertyOp18
 70
     1
102
RTVSPropertyOp19
 70
     1
102
RTVSPropertyOp20
 70
     1
102
RTVSPropertyOp21
 70
     1
102
RTVSPropertyOp22
 70
     1
102
RTVSPropertyOp23
 70
     1
102
RTVSPropertyOp24
 70
     1
102
RTVSPropertyOp25
 70
     1
102
RTVSPropertyOp26
 70
     1
102
RTVSPropertyOp27
 70
     1
102
RTVSPropertyOp28
 70
     1
102
RTVSPropertyOp29
 70
     1
102
RTVSPropertyOp30
 70
     1
102
RTVSPropertyOp31
 70
     1
102
RTVSPropertyOp32
 70
     1
  0
XRECORD
  5
9A
102
{ACAD_REACTORS
330
99
102
}
330
99
100
AcDbXrecord
280
     1
102
RTVSPropertyOp0
 70
     1
102
RTVSPropertyOp1
 70
     1
102
RTVSPropertyOp2
 70
     1
102
RTVSPropertyOp3
 70
     1
102
RTVSPropertyOp4
 70
     1
102
RTVSPropertyOp5
 70
     1
102
RTVSPropertyOp6
 70
     1
102
RTVSPropertyOp7
 70
     1
102
RTVSPropertyOp8
 70
     1
102
RTVSPropertyOp9
 70
     1
102
RTVSPropertyOp10
 70
     1
102
RTVSPropertyOp11
 70
     1
102
RTVSPropertyOp12
 70
     1
102
RTVSPropertyOp13
 70
     1
102
RTVSPropertyOp14
 70
     1
102
RTVSPropertyOp15
 70
     1
102
RTVSPropertyOp16
 70
     1
102
RTVSPropertyOp17
 70
     1
102
RTVSPropertyOp18
 70
     1
102
RTVSPropertyOp19
 70
     1
102
RTVSPropertyOp20
 70
     1
102
RTVSPropertyOp21
 70
     1
102
RTVSPropertyOp22
 70
     1
102
RTVSPropertyOp23
 70
     1
102
RTVSPropertyOp24
 70
     1
102
RTVSPropertyOp25
 70
     1
102
RTVSPropertyOp26
 70
     1
102
RTVSPropertyOp27
 70
     1
102
RTVSPropertyOp28
 70
     1
102
RTVSPropertyOp29
 70
     1
102
RTVSPropertyOp30
 70
     1
102
RTVSPropertyOp31
 70
     1
102
RTVSPropertyOp32
 70
     1
  0
XRECORD
  5
A2
102
{ACAD_REACTORS
330
A1
102
}
330
A1
100
AcDbXrecord
280
     1
102
RTVSPropertyOp0
 70
     1
102
RTVSPropertyOp1
 70
     1
102
RTVSPropertyOp2
 70
     1
102
RTVSPropertyOp3
 70
     1
102
RTVSPropertyOp4
 70
     1
102
RTVSPropertyOp5
 70
     1
102
RTVSPropertyOp6
 70
     1
102
RTVSPropertyOp7
 70
     1
102
RTVSPropertyOp8
 70
     1
102
RTVSPropertyOp9
 70
     1
102
RTVSPropertyOp10
 70
     1
102
RTVSPropertyOp11
 70
     1
102
RTVSPropertyOp12
 70
     1
102
RTVSPropertyOp13
 70
     1
102
RTVSPropertyOp14
 70
     1
102
RTVSPropertyOp15
 70
     1
102
RTVSPropertyOp16
 70
     1
102
RTVSPropertyOp17
 70
     1
102
RTVSPropertyOp18
 70
     1
102
RTVSPropertyOp19
 70
     1
102
RTVSPropertyOp20
 70
     1
102
RTVSPropertyOp21
 70
     1
102
RTVSPropertyOp22
 70
     1
102
RTVSPropertyOp23
 70
     1
102
RTVSPropertyOp24
 70
     1
102
RTVSPropertyOp25
 70
     1
102
RTVSPropertyOp26
 70
     1
102
RTVSPropertyOp27
 70
     1
102
RTVSPropertyOp28
 70
     1
102
RTVSPropertyOp29
 70
     1
102
RTVSPropertyOp30
 70
     1
102
RTVSPropertyOp31
 70
     1
102
RTVSPropertyOp32
 70
     1
  0
XRECORD
  5
86
102
{ACAD_REACTORS
330
85
102
}
330
85
100
AcDbXrecord
280
     1
102
RTVSPropertyOp0
 70
     1
102
RTVSPropertyOp1
 70
     1
102
RTVSPropertyOp2
 70
     1
102
RTVSPropertyOp3
 70
     1
102
RTVSPropertyOp4
 70
     1
102
RTVSPropertyOp5
 70
     1
102
RTVSPropertyOp6
 70
     1
102
RTVSPropertyOp7
 70
     1
102
RTVSPropertyOp8
 70
     1
102
RTVSPropertyOp9
 70
     1
102
RTVSPropertyOp10
 70
     1
102
RTVSPropertyOp11
 70
     1
102
RTVSPropertyOp12
 70
     1
102
RTVSPropertyOp13
 70
     1
102
RTVSPropertyOp14
 70
     1
102
RTVSPropertyOp15
 70
     1
102
RTVSPropertyOp16
 70
     1
102
RTVSPropertyOp17
 70
     1
102
RTVSPropertyOp18
 70
     1
102
RTVSPropertyOp19
 70
     1
102
RTVSPropertyOp20
 70
     1
102
RTVSPropertyOp21
 70
     1
102
RTVSPropertyOp22
 70
     1
102
RTVSPropertyOp23
 70
     1
102
RTVSPropertyOp24
 70
     1
102
RTVSPropertyOp25
 70
     1
102
RTVSPropertyOp26
 70
     1
102
RTVSPropertyOp27
 70
     1
102
RTVSPropertyOp28
 70
     1
102
RTVSPropertyOp29
 70
     1
102
RTVSPropertyOp30
 70
     1
102
RTVSPropertyOp31
 70
     1
102
RTVSPropertyOp32
 70
     1
  0
XRECORD
  5
88
102
{ACAD_REACTORS
330
87
102
}
330
87
100
AcDbXrecord
280
     1
102
RTVSPropertyOp0
 70
     1
102
RTVSPropertyOp1
 70
     1
102
RTVSPropertyOp2
 70
     1
102
RTVSPropertyOp3
 70
     1
102
RTVSPropertyOp4
 70
     1
102
RTVSPropertyOp5
 70
     1
102
RTVSPropertyOp6
 70
     1
102
RTVSPropertyOp7
 70
     1
102
RTVSPropertyOp8
 70
     1
102
RTVSPropertyOp9
 70
     1
102
RTVSPropertyOp10
 70
     1
102
RTVSPropertyOp11
 70
     1
102
RTVSPropertyOp12
 70
     1
102
RTVSPropertyOp13
 70
     1
102
RTVSPropertyOp14
 70
     1
102
RTVSPropertyOp15
 70
     1
102
RTVSPropertyOp16
 70
     1
102
RTVSPropertyOp17
 70
     1
102
RTVSPropertyOp18
 70
     1
102
RTVSPropertyOp19
 70
     1
102
RTVSPropertyOp20
 70
     1
102
RTVSPropertyOp21
 70
     1
102
RTVSPropertyOp22
 70
     1
102
RTVSPropertyOp23
 70
     1
102
RTVSPropertyOp24
 70
     1
102
RTVSPropertyOp25
 70
     1
102
RTVSPropertyOp26
 70
     1
102
RTVSPropertyOp27
 70
     1
102
RTVSPropertyOp28
 70
     1
102
RTVSPropertyOp29
 70
     1
102
RTVSPropertyOp30
 70
     1
102
RTVSPropertyOp31
 70
     1
102
RTVSPropertyOp32
 70
     1
  0
XRECORD
  5
8A
102
{ACAD_REACTORS
330
89
102
}
330
89
100
AcDbXrecord
280
     1
102
RTVSPropertyOp0
 70
     1
102
RTVSPropertyOp1
 70
     1
102
RTVSPropertyOp2
 70
     1
102
RTVSPropertyOp3
 70
     1
102
RTVSPropertyOp4
 70
     1
102
RTVSPropertyOp5
 70
     1
102
RTVSPropertyOp6
 70
     1
102
RTVSPropertyOp7
 70
     1
102
RTVSPropertyOp8
 70
     1
102
RTVSPropertyOp9
 70
     1
102
RTVSPropertyOp10
 70
     1
102
RTVSPropertyOp11
 70
     1
102
RTVSPropertyOp12
 70
     1
102
RTVSPropertyOp13
 70
     1
102
RTVSPropertyOp14
 70
     1
102
RTVSPropertyOp15
 70
     1
102
RTVSPropertyOp16
 70
     1
102
RTVSPropertyOp17
 70
     1
102
RTVSPropertyOp18
 70
     1
102
RTVSPropertyOp19
 70
     1
102
RTVSPropertyOp20
 70
     1
102
RTVSPropertyOp21
 70
     1
102
RTVSPropertyOp22
 70
     1
102
RTVSPropertyOp23
 70
     1
102
RTVSPropertyOp24
 70
     1
102
RTVSPropertyOp25
 70
     1
102
RTVSPropertyOp26
 70
     1
102
RTVSPropertyOp27
 70
     1
102
RTVSPropertyOp28
 70
     1
102
RTVSPropertyOp29
 70
     1
102
RTVSPropertyOp30
 70
     1
102
RTVSPropertyOp31
 70
     1
102
RTVSPropertyOp32
 70
     1
  0
XRECORD
  5
8C
102
{ACAD_REACTORS
330
8B
102
}
330
8B
100
AcDbXrecord
280
     1
102
RTVSPropertyOp0
 70
     1
102
RTVSPropertyOp1
 70
     1
102
RTVSPropertyOp2
 70
     1
102
RTVSPropertyOp3
 70
     1
102
RTVSPropertyOp4
 70
     1
102
RTVSPropertyOp5
 70
     1
102
RTVSPropertyOp6
 70
     1
102
RTVSPropertyOp7
 70
     1
102
RTVSPropertyOp8
 70
     1
102
RTVSPropertyOp9
 70
     1
102
RTVSPropertyOp10
 70
     1
102
RTVSPropertyOp11
 70
     1
102
RTVSPropertyOp12
 70
     1
102
RTVSPropertyOp13
 70
     1
102
RTVSPropertyOp14
 70
     1
102
RTVSPropertyOp15
 70
     1
102
RTVSPropertyOp16
 70
     1
102
RTVSPropertyOp17
 70
     1
102
RTVSPropertyOp18
 70
     1
102
RTVSPropertyOp19
 70
     1
102
RTVSPropertyOp20
 70
     1
102
RTVSPropertyOp21
 70
     1
102
RTVSPropertyOp22
 70
     1
102
RTVSPropertyOp23
 70
     1
102
RTVSPropertyOp24
 70
     1
102
RTVSPropertyOp25
 70
     1
102
RTVSPropertyOp26
 70
     1
102
RTVSPropertyOp27
 70
     1
102
RTVSPropertyOp28
 70
     1
102
RTVSPropertyOp29
 70
     1
102
RTVSPropertyOp30
 70
     1
102
RTVSPropertyOp31
 70
     1
102
RTVSPropertyOp32
 70
     1
  0
XRECORD
  5
A0
102
{ACAD_REACTORS
330
9F
102
}
330
9F
100
AcDbXrecord
280
     1
102
RTVSPropertyOp0
 70
     1
102
RTVSPropertyOp1
 70
     1
102
RTVSPropertyOp2
 70
     1
102
RTVSPropertyOp3
 70
     1
102
RTVSPropertyOp4
 70
     1
102
RTVSPropertyOp5
 70
     1
102
RTVSPropertyOp6
 70
     1
102
RTVSPropertyOp7
 70
     1
102
RTVSPropertyOp8
 70
     1
102
RTVSPropertyOp9
 70
     1
102
RTVSPropertyOp10
 70
     1
102
RTVSPropertyOp11
 70
     1
102
RTVSPropertyOp12
 70
     1
102
RTVSPropertyOp13
 70
     1
102
RTVSPropertyOp14
 70
     1
102
RTVSPropertyOp15
 70
     1
102
RTVSPropertyOp16
 70
     1
102
RTVSPropertyOp17
 70
     1
102
RTVSPropertyOp18
 70
     1
102
RTVSPropertyOp19
 70
     1
102
RTVSPropertyOp20
 70
     1
102
RTVSPropertyOp21
 70
     1
102
RTVSPropertyOp22
 70
     1
102
RTVSPropertyOp23
 70
     1
102
RTVSPropertyOp24
 70
     1
102
RTVSPropertyOp25
 70
     1
102
RTVSPropertyOp26
 70
     1
102
RTVSPropertyOp27
 70
     1
102
RTVSPropertyOp28
 70
     1
102
RTVSPropertyOp29
 70
     1
102
RTVSPropertyOp30
 70
     1
102
RTVSPropertyOp31
 70
     1
102
RTVSPropertyOp32
 70
     1
  0
XRECORD
  5
96
102
{ACAD_REACTORS
330
95
102
}
330
95
100
AcDbXrecord
280
     1
102
RTVSPropertyOp0
 70
     1
102
RTVSPropertyOp1
 70
     1
102
RTVSPropertyOp2
 70
     1
102
RTVSPropertyOp3
 70
     1
102
RTVSPropertyOp4
 70
     1
102
RTVSPropertyOp5
 70
     1
102
RTVSPropertyOp6
 70
     1
102
RTVSPropertyOp7
 70
     1
102
RTVSPropertyOp8
 70
     1
102
RTVSPropertyOp9
 70
     1
102
RTVSPropertyOp10
 70
     1
102
RTVSPropertyOp11
 70
     1
102
RTVSPropertyOp12
 70
     1
102
RTVSPropertyOp13
 70
     1
102
RTVSPropertyOp14
 70
     1
102
RTVSPropertyOp15
 70
     1
102
RTVSPropertyOp16
 70
     1
102
RTVSPropertyOp17
 70
     1
102
RTVSPropertyOp18
 70
     1
102
RTVSPropertyOp19
 70
     1
102
RTVSPropertyOp20
 70
     1
102
RTVSPropertyOp21
 70
     1
102
RTVSPropertyOp22
 70
     1
102
RTVSPropertyOp23
 70
     1
102
RTVSPropertyOp24
 70
     1
102
RTVSPropertyOp25
 70
     1
102
RTVSPropertyOp26
 70
     1
102
RTVSPropertyOp27
 70
     1
102
RTVSPropertyOp28
 70
     1
102
RTVSPropertyOp29
 70
     1
102
RTVSPropertyOp30
 70
     1
102
RTVSPropertyOp31
 70
     1
102
RTVSPropertyOp32
 70
     1
  0
XRECORD
  5
9E
102
{ACAD_REACTORS
330
9D
102
}
330
9D
100
AcDbXrecord
280
     1
102
RTVSPropertyOp0
 70
     1
102
RTVSPropertyOp1
 70
     1
102
RTVSPropertyOp2
 70
     1
102
RTVSPropertyOp3
 70
     1
102
RTVSPropertyOp4
 70
     1
102
RTVSPropertyOp5
 70
     1
102
RTVSPropertyOp6
 70
     1
102
RTVSPropertyOp7
 70
     1
102
RTVSPropertyOp8
 70
     1
102
RTVSPropertyOp9
 70
     1
102
RTVSPropertyOp10
 70
     1
102
RTVSPropertyOp11
 70
     1
102
RTVSPropertyOp12
 70
     1
102
RTVSPropertyOp13
 70
     1
102
RTVSPropertyOp14
 70
     1
102
RTVSPropertyOp15
 70
     1
102
RTVSPropertyOp16
 70
     1
102
RTVSPropertyOp17
 70
     1
102
RTVSPropertyOp18
 70
     1
102
RTVSPropertyOp19
 70
     1
102
RTVSPropertyOp20
 70
     1
102
RTVSPropertyOp21
 70
     1
102
RTVSPropertyOp22
 70
     1
102
RTVSPropertyOp23
 70
     1
102
RTVSPropertyOp24
 70
     1
102
RTVSPropertyOp25
 70
     1
102
RTVSPropertyOp26
 70
     1
102
RTVSPropertyOp27
 70
     1
102
RTVSPropertyOp28
 70
     1
102
RTVSPropertyOp29
 70
     1
102
RTVSPropertyOp30
 70
     1
102
RTVSPropertyOp31
 70
     1
102
RTVSPropertyOp32
 70
     1
  0
ENDSEC
  0
EOF
