  0
SECTION
  2
HEADER
  9
$ACADVER
  1
AC1021
  9
$ACADMAINTVER
 70
    25
  9
$DWGCODEPAGE
  3
ANSI_1256
  9
$INSBASE
 10
0.0
 20
0.0
 30
0.0
  9
$EXTMIN
 10
105.3615
 20
-115.2249
 30
0.0
  9
$EXTMAX
 10
196.3741
 20
131.7542
 30
0.0
  9
$LIMMIN
 10
0.0
 20
0.0
  9
$LIMMAX
 10
12.0
 20
9.0
  9
$ORTHOMODE
 70
     0
  9
$REGENMODE
 70
     1
  9
$FILLMODE
 70
     1
  9
$QTEXTMODE
 70
     0
  9
$MIRRTEXT
 70
     1
  9
$LTSCALE
 40
1.0
  9
$ATTMODE
 70
     1
  9
$TEXTSIZE
 40
0.2
  9
$TRACEWID
 40
0.05
  9
$TEXTSTYLE
  7
Standard
  9
$CLAYER
  8
0
  9
$CELTYPE
  6
ByLayer
  9
$CECOLOR
 62
   256
  9
$CELTSCALE
 40
1.0
  9
$DISPSILH
 70
     0
  9
$DIMSCALE
 40
1.0
  9
$DIMASZ
 40
0.18
  9
$DIMEXO
 40
0.0625
  9
$DIMDLI
 40
0.38
  9
$DIMRND
 40
0.0
  9
$DIMDLE
 40
0.0
  9
$DIMEXE
 40
0.18
  9
$DIMTP
 40
0.0
  9
$DIMTM
 40
0.0
  9
$DIMTXT
 40
0.18
  9
$DIMCEN
 40
0.09
  9
$DIMTSZ
 40
0.0
  9
$DIMTOL
 70
     0
  9
$DIMLIM
 70
     0
  9
$DIMTIH
 70
     1
  9
$DIMTOH
 70
     1
  9
$DIMSE1
 70
     0
  9
$DIMSE2
 70
     0
  9
$DIMTAD
 70
     0
  9
$DIMZIN
 70
     0
  9
$DIMBLK
  1

  9
$DIMASO
 70
     1
  9
$DIMSHO
 70
     1
  9
$DIMPOST
  1

  9
$DIMAPOST
  1

  9
$DIMALT
 70
     0
  9
$DIMALTD
 70
     2
  9
$DIMALTF
 40
25.4
  9
$DIMLFAC
 40
1.0
  9
$DIMTOFL
 70
     0
  9
$DIMTVP
 40
0.0
  9
$DIMTIX
 70
     0
  9
$DIMSOXD
 70
     0
  9
$DIMSAH
 70
     0
  9
$DIMBLK1
  1

  9
$DIMBLK2
  1

  9
$DIMSTYLE
  2
Standard
  9
$DIMCLRD
 70
     0
  9
$DIMCLRE
 70
     0
  9
$DIMCLRT
 70
     0
  9
$DIMTFAC
 40
1.0
  9
$DIMGAP
 40
0.09
  9
$DIMJUST
 70
     0
  9
$DIMSD1
 70
     0
  9
$DIMSD2
 70
     0
  9
$DIMTOLJ
 70
     1
  9
$DIMTZIN
 70
     0
  9
$DIMALTZ
 70
     0
  9
$DIMALTTZ
 70
     0
  9
$DIMUPT
 70
     0
  9
$DIMDEC
 70
     4
  9
$DIMTDEC
 70
     4
  9
$DIMALTU
 70
     2
  9
$DIMALTTD
 70
     2
  9
$DIMTXSTY
  7
Standard
  9
$DIMAUNIT
 70
     0
  9
$DIMADEC
 70
     0
  9
$DIMALTRND
 40
0.0
  9
$DIMAZIN
 70
     0
  9
$DIMDSEP
 70
    46
  9
$DIMATFIT
 70
     3
  9
$DIMFRAC
 70
     0
  9
$DIMLDRBLK
  1

  9
$DIMLUNIT
 70
     2
  9
$DIMLWD
 70
    -2
  9
$DIMLWE
 70
    -2
  9
$DIMTMOVE
 70
     0
  9
$DIMFXL
 40
1.0
  9
$DIMFXLON
 70
     0
  9
$DIMJOGANG
 40
0.7853981633974483
  9
$DIMTFILL
 70
     0
  9
$DIMTFILLCLR
 70
     0
  9
$DIMARCSYM
 70
     0
  9
$DIMLTYPE
  6

  9
$DIMLTEX1
  6

  9
$DIMLTEX2
  6

  9
$LUNITS
 70
     2
  9
$LUPREC
 70
     4
  9
$SKETCHINC
 40
0.1
  9
$FILLETRAD
 40
0.5
  9
$AUNITS
 70
     0
  9
$AUPREC
 70
     0
  9
$MENU
  1
.
  9
$ELEVATION
 40
0.0
  9
$PELEVATION
 40
0.0
  9
$THICKNESS
 40
0.0
  9
$LIMCHECK
 70
     0
  9
$CHAMFERA
 40
0.5
  9
$CHAMFERB
 40
0.5
  9
$CHAMFERC
 40
1.0
  9
$CHAMFERD
 40
0.0
  9
$SKPOLY
 70
     0
  9
$TDCREATE
 40
2458492.944872442
  9
$TDUCREATE
 40
2458492.778205776
  9
$TDUPDATE
 40
2458492.944872558
  9
$TDUUPDATE
 40
2458492.778205891
  9
$TDINDWG
 40
0.0000000116
  9
$TDUSRTIMER
 40
0.0000000116
  9
$USRTIMER
 70
     1
  9
$ANGBASE
 50
0.0
  9
$ANGDIR
 70
     0
  9
$PDMODE
 70
     0
  9
$PDSIZE
 40
0.0
  9
$PLINEWID
 40
0.0
  9
$SPLFRAME
 70
     0
  9
$SPLINETYPE
 70
     6
  9
$SPLINESEGS
 70
     8
  9
$HANDSEED
  5
9B
  9
$SURFTAB1
 70
     6
  9
$SURFTAB2
 70
     6
  9
$SURFTYPE
 70
     6
  9
$SURFU
 70
     6
  9
$SURFV
 70
     6
  9
$UCSBASE
  2

  9
$UCSNAME
  2

  9
$UCSORG
 10
0.0
 20
0.0
 30
0.0
  9
$UCSXDIR
 10
1.0
 20
0.0
 30
0.0
  9
$UCSYDIR
 10
0.0
 20
1.0
 30
0.0
  9
$UCSORTHOREF
  2

  9
$UCSORTHOVIEW
 70
     0
  9
$UCSORGTOP
 10
0.0
 20
0.0
 30
0.0
  9
$UCSORGBOTTOM
 10
0.0
 20
0.0
 30
0.0
  9
$UCSORGLEFT
 10
0.0
 20
0.0
 30
0.0
  9
$UCSORGRIGHT
 10
0.0
 20
0.0
 30
0.0
  9
$UCSORGFRONT
 10
0.0
 20
0.0
 30
0.0
  9
$UCSORGBACK
 10
0.0
 20
0.0
 30
0.0
  9
$PUCSBASE
  2

  9
$PUCSNAME
  2

  9
$PUCSORG
 10
0.0
 20
0.0
 30
0.0
  9
$PUCSXDIR
 10
1.0
 20
0.0
 30
0.0
  9
$PUCSYDIR
 10
0.0
 20
1.0
 30
0.0
  9
$PUCSORTHOREF
  2

  9
$PUCSORTHOVIEW
 70
     0
  9
$PUCSORGTOP
 10
0.0
 20
0.0
 30
0.0
  9
$PUCSORGBOTTOM
 10
0.0
 20
0.0
 30
0.0
  9
$PUCSORGLEFT
 10
0.0
 20
0.0
 30
0.0
  9
$PUCSORGRIGHT
 10
0.0
 20
0.0
 30
0.0
  9
$PUCSORGFRONT
 10
0.0
 20
0.0
 30
0.0
  9
$PUCSORGBACK
 10
0.0
 20
0.0
 30
0.0
  9
$USERI1
 70
     0
  9
$USERI2
 70
     0
  9
$USERI3
 70
     0
  9
$USERI4
 70
     0
  9
$USERI5
 70
     0
  9
$USERR1
 40
0.0
  9
$USERR2
 40
0.0
  9
$USERR3
 40
0.0
  9
$USERR4
 40
0.0
  9
$USERR5
 40
0.0
  9
$WORLDVIEW
 70
     1
  9
$SHADEDGE
 70
     3
  9
$SHADEDIF
 70
    70
  9
$TILEMODE
 70
     1
  9
$MAXACTVP
 70
    64
  9
$PINSBASE
 10
0.0
 20
0.0
 30
0.0
  9
$PLIMCHECK
 70
     0
  9
$PEXTMIN
 10
1.000000000000000E+20
 20
1.000000000000000E+20
 30
1.000000000000000E+20
  9
$PEXTMAX
 10
-1.000000000000000E+20
 20
-1.000000000000000E+20
 30
-1.000000000000000E+20
  9
$PLIMMIN
 10
0.0
 20
0.0
  9
$PLIMMAX
 10
12.0
 20
9.0
  9
$UNITMODE
 70
     0
  9
$VISRETAIN
 70
     1
  9
$PLINEGEN
 70
     0
  9
$PSLTSCALE
 70
     1
  9
$TREEDEPTH
 70
  3020
  9
$CMLSTYLE
  2
Standard
  9
$CMLJUST
 70
     0
  9
$CMLSCALE
 40
1.0
  9
$PROXYGRAPHICS
 70
     1
  9
$MEASUREMENT
 70
     0
  9
$CELWEIGHT
370
    -1
  9
$ENDCAPS
280
     0
  9
$JOINSTYLE
280
     0
  9
$LWDISPLAY
290
     0
  9
$INSUNITS
 70
     4
  9
$HYPERLINKBASE
  1

  9
$STYLESHEET
  1

  9
$XEDIT
290
     1
  9
$CEPSNTYPE
380
     0
  9
$PSTYLEMODE
290
     1
  9
$FINGERPRINTGUID
  2
{AD156B26-6CCE-4469-9FAC-0311D79631C8}
  9
$VERSIONGUID
  2
{FAEB1C32-E019-11D5-929B-00C0DF256EC4}
  9
$EXTNAMES
290
     1
  9
$PSVPSCALE
 40
0.0
  9
$OLESTARTUP
290
     0
  9
$SORTENTS
280
   127
  9
$INDEXCTL
280
     0
  9
$HIDETEXT
280
     1
  9
$XCLIPFRAME
290
     0
  9
$HALOGAP
280
     0
  9
$OBSCOLOR
 70
   257
  9
$OBSLTYPE
280
     0
  9
$INTERSECTIONDISPLAY
280
     0
  9
$INTERSECTIONCOLOR
 70
   257
  9
$DIMASSOC
280
     2
  9
$PROJECTNAME
  1

  9
$CAMERADISPLAY
290
     0
  9
$LENSLENGTH
 40
50.0
  9
$CAMERAHEIGHT
 40
0.0
  9
$STEPSPERSEC
 40
2.0
  9
$STEPSIZE
 40
6.0
  9
$3DDWFPREC
 40
2.0
  9
$PSOLWIDTH
 40
0.25
  9
$PSOLHEIGHT
 40
4.0
  9
$LOFTANG1
 40
1.570796326794897
  9
$LOFTANG2
 40
1.570796326794897
  9
$LOFTMAG1
 40
0.0
  9
$LOFTMAG2
 40
0.0
  9
$LOFTPARAM
 70
     7
  9
$LOFTNORMALS
280
     1
  9
$LATITUDE
 40
37.795
  9
$LONGITUDE
 40
-122.394
  9
$NORTHDIRECTION
 40
0.0
  9
$TIMEZONE
 70
 -8000
  9
$LIGHTGLYPHDISPLAY
280
     1
  9
$TILEMODELIGHTSYNCH
280
     1
  9
$SOLIDHIST
280
     1
  9
$SHOWHIST
280
     1
  9
$DWFFRAME
280
     2
  9
$DGNFRAME
280
     2
  9
$REALWORLDSCALE
290
     1
  9
$INTERFERECOLOR
 62
   256
  9
$CSHADOW
280
     0
  9
$SHADOWPLANELOCATION
 40
0.0
  0
ENDSEC
  0
SECTION
  2
CLASSES
  0
CLASS
  1
ACDBDICTIONARYWDFLT
  2
AcDbDictionaryWithDefault
  3
ObjectDBX Classes
 90
        0
 91
        4
280
     0
281
     0
  0
CLASS
  1
VISUALSTYLE
  2
AcDbVisualStyle
  3
ObjectDBX Classes
 90
     4095
 91
        4
280
     0
281
     0
  0
CLASS
  1
MATERIAL
  2
AcDbMaterial
  3
ObjectDBX Classes
 90
     1153
 91
        4
280
     0
281
     0
  0
ENDSEC
  0
SECTION
  2
TABLES
  0
TABLE
  2
VPORT
  5
8
330
0
100
AcDbSymbolTable
 70
     1
  0
VPORT
  5
29
330
8
100
AcDbSymbolTableRecord
100
AcDbViewportTableRecord
  2
*Active
 70
     0
 10
0.0
 20
0.0
 11
1.0
 21
1.0
 12
10.42990654205607
 22
4.5
 13
0.0
 23
0.0
 14
0.5
 24
0.5
 15
0.5
 25
0.5
 16
0.0
 26
0.0
 36
1.0
 17
0.0
 27
0.0
 37
0.0
 40
9.0
 41
1.972972972850329
 42
50.0
 43
0.0
 44
0.0
 50
0.0
 51
0.0
 71
     0
 72
   100
 73
     1
 74
     3
 75
     0
 76
     0
 77
     0
 78
     0
281
     0
 65
     1
110
0.0
120
0.0
130
0.0
111
1.0
121
0.0
131
0.0
112
0.0
122
1.0
132
0.0
 79
     0
146
0.0
 60
     3
 61
     5
292
     1
282
     1
141
0.0
142
0.0
 63
   250
  0
ENDTAB
  0
TABLE
  2
LTYPE
  5
5
330
0
100
AcDbSymbolTable
 70
     1
  0
LTYPE
  5
14
330
5
100
AcDbSymbolTableRecord
100
AcDbLinetypeTableRecord
  2
ByBlock
 70
     0
  3

 72
    65
 73
     0
 40
0.0
  0
LTYPE
  5
15
330
5
100
AcDbSymbolTableRecord
100
AcDbLinetypeTableRecord
  2
ByLayer
 70
     0
  3

 72
    65
 73
     0
 40
0.0
  0
LTYPE
  5
16
330
5
100
AcDbSymbolTableRecord
100
AcDbLinetypeTableRecord
  2
Continuous
 70
     0
  3
Solid line
 72
    65
 73
     0
 40
0.0
  0
ENDTAB
  0
TABLE
  2
LAYER
  5
2
330
0
100
AcDbSymbolTable
 70
     3
  0
LAYER
  5
10
330
2
100
AcDbSymbolTableRecord
100
AcDbLayerTableRecord
  2
0
 70
     0
 62
     7
  6
Continuous
370
    -3
390
F
347
3E
  0
LAYER
  5
40
330
2
100
AcDbSymbolTableRecord
100
AcDbLayerTableRecord
  2
layer 1
 70
     0
 62
     7
  6
Continuous
370
    -3
390
F
347
3E
  0
LAYER
  5
78
330
2
100
AcDbSymbolTableRecord
100
AcDbLayerTableRecord
  2
Master Guides
 70
     0
 62
     7
  6
Continuous
370
    -3
390
F
347
3E
  0
ENDTAB
  0
TABLE
  2
STYLE
  5
3
330
0
100
AcDbSymbolTable
 70
     1
  0
STYLE
  5
11
330
3
100
AcDbSymbolTableRecord
100
AcDbTextStyleTableRecord
  2
Standard
 70
     0
 40
0.0
 41
1.0
 50
0.0
 71
     0
 42
0.2
  3
txt
  4

  0
ENDTAB
  0
TABLE
  2
VIEW
  5
6
330
0
100
AcDbSymbolTable
 70
     0
  0
ENDTAB
  0
TABLE
  2
UCS
  5
7
330
0
100
AcDbSymbolTable
 70
     0
  0
ENDTAB
  0
TABLE
  2
APPID
  5
9
330
0
100
AcDbSymbolTable
 70
     2
  0
APPID
  5
12
330
9
100
AcDbSymbolTableRecord
100
AcDbRegAppTableRecord
  2
ACAD
 70
     0
  0
APPID
  5
3F
330
9
100
AcDbSymbolTableRecord
100
AcDbRegAppTableRecord
  2
ODA
 70
     0
  0
ENDTAB
  0
TABLE
  2
DIMSTYLE
  5
A
330
0
100
AcDbSymbolTable
 70
     1
100
AcDbDimStyleTable
  0
DIMSTYLE
105
27
330
A
100
AcDbSymbolTableRecord
100
AcDbDimStyleTableRecord
  2
Standard
 70
     0
178
     0
340
11
  0
ENDTAB
  0
TABLE
  2
BLOCK_RECORD
  5
1
330
0
100
AcDbSymbolTable
 70
     1
  0
BLOCK_RECORD
  5
1F
330
1
100
AcDbSymbolTableRecord
100
AcDbBlockTableRecord
  2
*Model_Space
340
22
 70
     0
280
     1
281
     0
  0
BLOCK_RECORD
  5
1B
330
1
100
AcDbSymbolTableRecord
100
AcDbBlockTableRecord
  2
*Paper_Space
340
1E
 70
     0
280
     1
281
     0
  0
BLOCK_RECORD
  5
23
330
1
100
AcDbSymbolTableRecord
100
AcDbBlockTableRecord
  2
*Paper_Space0
340
26
 70
     0
280
     1
281
     0
  0
ENDTAB
  0
ENDSEC
  0
SECTION
  2
BLOCKS
  0
BLOCK
  5
20
330
1F
100
AcDbEntity
  8
0
100
AcDbBlockBegin
  2
*Model_Space
 70
     0
 10
0.0
 20
0.0
 30
0.0
  3
*Model_Space
  1

  0
ENDBLK
  5
21
330
1F
100
AcDbEntity
  8
0
100
AcDbBlockEnd
  0
BLOCK
  5
1C
330
1B
100
AcDbEntity
 67
     1
  8
0
100
AcDbBlockBegin
  2
*Paper_Space
 70
     0
 10
0.0
 20
0.0
 30
0.0
  3
*Paper_Space
  1

  0
ENDBLK
  5
1D
330
1B
100
AcDbEntity
 67
     1
  8
0
100
AcDbBlockEnd
  0
BLOCK
  5
24
330
23
100
AcDbEntity
  8
0
100
AcDbBlockBegin
  2
*Paper_Space0
 70
     0
 10
0.0
 20
0.0
 30
0.0
  3
*Paper_Space0
  1

  0
ENDBLK
  5
25
330
23
100
AcDbEntity
  8
0
100
AcDbBlockEnd
  0
ENDSEC
  0
SECTION
  2
ENTITIES
  0
LWPOLYLINE
  5
41
330
1F
100
AcDbEntity
  8
layer 1
 62
   250
370
     9
100
AcDbPolyline
 90
        5
 70
     1
 43
0.0
 10
105.3996
 20
-115.1867
 10
196.336
 20
-115.1867
 10
196.336
 20
131.7161
 10
105.3996
 20
131.7161
 10
105.3996
 20
-115.1867
  0
SPLINE
  5
42
330
1F
100
AcDbEntity
  8
layer 1
 62
     7
370
    20
100
AcDbSpline
210
0.0
220
0.0
230
1.0
 70
    11
 71
     3
 72
    16
 73
    12
 74
     0
 42
0.0000000001
 43
0.0000000001
 12
1.0
 22
0.0
 32
0.0
 13
1.0
 23
0.0
 33
0.0
 40
0.0
 40
0.0
 40
0.0
 40
0.0
 40
0.25
 40
0.25
 40
0.25
 40
0.25
 40
0.5
 40
0.5
 40
0.5
 40
0.5
 40
1.0
 40
1.0
 40
1.0
 40
1.0
 10
153.3184
 20
2.217
 30
0.0
 10
151.6426
 20
1.6092
 30
0.0
 10
149.9884
 20
1.663
 30
0.0
 10
148.3551
 20
2.3533
 30
0.0
 10
148.3551
 20
2.3533
 30
0.0
 10
138.9711
 20
-12.9052
 30
0.0
 10
148.7767
 20
-16.9255
 30
0.0
 10
150.8333
 20
-21.0204
 30
0.0
 10
150.8333
 20
-21.0204
 30
0.0
 10
152.8104
 20
-17.0441
 30
0.0
 10
162.3466
 20
-12.9185
 30
0.0
 10
153.3184
 20
2.217
 30
0.0
  0
SPLINE
  5
43
330
1F
100
AcDbEntity
  8
layer 1
 62
     7
370
    20
100
AcDbSpline
210
0.0
220
0.0
230
1.0
 70
    11
 71
     3
 72
    16
 73
    12
 74
     0
 42
0.0000000001
 43
0.0000000001
 12
1.0
 22
0.0
 32
0.0
 13
1.0
 23
0.0
 33
0.0
 40
0.0
 40
0.0
 40
0.0
 40
0.0
 40
0.25
 40
0.25
 40
0.25
 40
0.25
 40
0.5
 40
0.5
 40
0.5
 40
0.5
 40
1.0
 40
1.0
 40
1.0
 40
1.0
 10
153.3638
 20
14.3124
 30
0.0
 10
151.688
 20
14.9201
 30
0.0
 10
150.0338
 20
14.8663
 30
0.0
 10
148.4005
 20
14.1761
 30
0.0
 10
148.4005
 20
14.1761
 30
0.0
 10
139.0165
 20
29.4347
 30
0.0
 10
148.8221
 20
33.4548
 30
0.0
 10
150.8787
 20
37.5498
 30
0.0
 10
150.8787
 20
37.5498
 30
0.0
 10
152.8558
 20
33.5734
 30
0.0
 10
162.392
 20
29.448
 30
0.0
 10
153.3638
 20
14.3124
 30
0.0
  0
SPLINE
  5
44
330
1F
100
AcDbEntity
  8
layer 1
 62
     7
370
    20
100
AcDbSpline
210
0.0
220
0.0
230
1.0
 70
    11
 71
     3
 72
    16
 73
    12
 74
     0
 42
0.0000000001
 43
0.0000000001
 12
1.0
 22
0.0
 32
0.0
 13
1.0
 23
0.0
 33
0.0
 40
0.0
 40
0.0
 40
0.0
 40
0.0
 40
0.25
 40
0.25
 40
0.25
 40
0.25
 40
0.5
 40
0.5
 40
0.5
 40
0.5
 40
1.0
 40
1.0
 40
1.0
 40
1.0
 10
144.9193
 20
5.7055
 30
0.0
 10
144.3116
 20
7.3813
 30
0.0
 10
144.3654
 20
9.0356
 30
0.0
 10
145.0557
 20
10.6689
 30
0.0
 10
145.0557
 20
10.6689
 30
0.0
 10
129.7971
 20
20.0528
 30
0.0
 10
125.7769
 20
10.2472
 30
0.0
 10
121.6819
 20
8.1907
 30
0.0
 10
121.6819
 20
8.1907
 30
0.0
 10
125.6583
 20
6.2135
 30
0.0
 10
129.7838
 20
-3.3226
 30
0.0
 10
144.9193
 20
5.7055
 30
0.0
  0
SPLINE
  5
45
330
1F
100
AcDbEntity
  8
layer 1
 62
     7
370
    20
100
AcDbSpline
210
0.0
220
0.0
230
1.0
 70
    11
 71
     3
 72
    16
 73
    12
 74
     0
 42
0.0000000001
 43
0.0000000001
 12
1.0
 22
0.0
 32
0.0
 13
1.0
 23
0.0
 33
0.0
 40
0.0
 40
0.0
 40
0.0
 40
0.0
 40
0.25
 40
0.25
 40
0.25
 40
0.25
 40
0.5
 40
0.5
 40
0.5
 40
0.5
 40
1.0
 40
1.0
 40
1.0
 40
1.0
 10
156.8162
 20
10.7798
 30
0.0
 10
157.4239
 20
9.104
 30
0.0
 10
157.3701
 20
7.4498
 30
0.0
 10
156.6798
 20
5.8165
 30
0.0
 10
156.6798
 20
5.8165
 30
0.0
 10
171.9384
 20
-3.5675
 30
0.0
 10
175.9586
 20
6.2381
 30
0.0
 10
180.0536
 20
8.2947
 30
0.0
 10
180.0536
 20
8.2947
 30
0.0
 10
176.0772
 20
10.2718
 30
0.0
 10
171.9517
 20
19.8079
 30
0.0
 10
156.8162
 20
10.7798
 30
0.0
  0
SPLINE
  5
46
330
1F
100
AcDbEntity
  8
layer 1
 62
     7
370
    20
100
AcDbSpline
210
0.0
220
0.0
230
1.0
 70
    11
 71
     3
 72
    20
 73
    16
 74
     0
 42
0.0000000001
 43
0.0000000001
 12
1.0
 22
0.0
 32
0.0
 13
1.0
 23
0.0
 33
0.0
 40
0.0
 40
0.0
 40
0.0
 40
0.0
 40
0.2
 40
0.2
 40
0.2
 40
0.2
 40
0.4
 40
0.4
 40
0.4
 40
0.4
 40
0.6
 40
0.6
 40
0.6
 40
0.6
 40
1.0
 40
1.0
 40
1.0
 40
1.0
 10
167.2503
 20
-2.3478
 30
0.0
 10
164.489
 20
-2.227
 30
0.0
 10
161.9639
 20
-1.4545
 30
0.0
 10
159.6435
 20
-0.3636
 30
0.0
 10
159.6435
 20
-0.3636
 30
0.0
 10
160.9004
 20
-2.6804
 30
0.0
 10
161.65
 20
-5.0361
 30
0.0
 10
161.7602
 20
-7.4412
 30
0.0
 10
161.7602
 20
-7.4412
 30
0.0
 10
163.5803
 20
-8.2968
 30
0.0
 10
165.6505
 20
-8.7025
 30
0.0
 10
167.9118
 20
-8.7642
 30
0.0
 10
167.9118
 20
-8.7642
 30
0.0
 10
168.1855
 20
-6.5402
 30
0.0
 10
168.0349
 20
-4.4836
 30
0.0
 10
167.2503
 20
-2.3478
 30
0.0
  0
SPLINE
  5
47
330
1F
100
AcDbEntity
  8
layer 1
 62
     7
370
    20
100
AcDbSpline
210
0.0
220
0.0
230
1.0
 70
    11
 71
     3
 72
    20
 73
    16
 74
     0
 42
0.0000000001
 43
0.0000000001
 12
1.0
 22
0.0
 32
0.0
 13
1.0
 23
0.0
 33
0.0
 40
0.0
 40
0.0
 40
0.0
 40
0.0
 40
0.2
 40
0.2
 40
0.2
 40
0.2
 40
0.4
 40
0.4
 40
0.4
 40
0.4
 40
0.6
 40
0.6
 40
0.6
 40
0.6
 40
1.0
 40
1.0
 40
1.0
 40
1.0
 10
167.2717
 20
18.9418
 30
0.0
 10
164.5104
 20
18.8211
 30
0.0
 10
161.9853
 20
18.0485
 30
0.0
 10
159.6649
 20
16.9576
 30
0.0
 10
159.6649
 20
16.9576
 30
0.0
 10
160.9218
 20
19.2744
 30
0.0
 10
161.6714
 20
21.6301
 30
0.0
 10
161.7816
 20
24.0352
 30
0.0
 10
161.7816
 20
24.0352
 30
0.0
 10
163.6017
 20
24.8908
 30
0.0
 10
165.6719
 20
25.2965
 30
0.0
 10
167.9332
 20
25.3582
 30
0.0
 10
167.9332
 20
25.3582
 30
0.0
 10
168.2069
 20
23.1343
 30
0.0
 10
168.0563
 20
21.0776
 30
0.0
 10
167.2717
 20
18.9418
 30
0.0
  0
SPLINE
  5
48
330
1F
100
AcDbEntity
  8
layer 1
 62
     7
370
    20
100
AcDbSpline
210
0.0
220
0.0
230
1.0
 70
    11
 71
     3
 72
    20
 73
    16
 74
     0
 42
0.0000000001
 43
0.0000000001
 12
1.0
 22
0.0
 32
0.0
 13
1.0
 23
0.0
 33
0.0
 40
0.0
 40
0.0
 40
0.0
 40
0.0
 40
0.2
 40
0.2
 40
0.2
 40
0.2
 40
0.4
 40
0.4
 40
0.4
 40
0.4
 40
0.6
 40
0.6
 40
0.6
 40
0.6
 40
1.0
 40
1.0
 40
1.0
 40
1.0
 10
134.4638
 20
-2.3683
 30
0.0
 10
137.2251
 20
-2.2475
 30
0.0
 10
139.7502
 20
-1.4751
 30
0.0
 10
142.0706
 20
-0.3841
 30
0.0
 10
142.0706
 20
-0.3841
 30
0.0
 10
140.8137
 20
-2.7009
 30
0.0
 10
140.0641
 20
-5.0566
 30
0.0
 10
139.9539
 20
-7.4617
 30
0.0
 10
139.9539
 20
-7.4617
 30
0.0
 10
138.1338
 20
-8.3173
 30
0.0
 10
136.0636
 20
-8.723
 30
0.0
 10
133.8023
 20
-8.7847
 30
0.0
 10
133.8023
 20
-8.7847
 30
0.0
 10
133.5286
 20
-6.5607
 30
0.0
 10
133.6792
 20
-4.5041
 30
0.0
 10
134.4638
 20
-2.3683
 30
0.0
  0
SPLINE
  5
49
330
1F
100
AcDbEntity
  8
layer 1
 62
     7
370
    20
100
AcDbSpline
210
0.0
220
0.0
230
1.0
 70
    11
 71
     3
 72
    20
 73
    16
 74
     0
 42
0.0000000001
 43
0.0000000001
 12
1.0
 22
0.0
 32
0.0
 13
1.0
 23
0.0
 33
0.0
 40
0.0
 40
0.0
 40
0.0
 40
0.0
 40
0.2
 40
0.2
 40
0.2
 40
0.2
 40
0.4
 40
0.4
 40
0.4
 40
0.4
 40
0.6
 40
0.6
 40
0.6
 40
0.6
 40
1.0
 40
1.0
 40
1.0
 40
1.0
 10
134.5092
 20
18.8977
 30
0.0
 10
137.2705
 20
18.777
 30
0.0
 10
139.7956
 20
18.0044
 30
0.0
 10
142.116
 20
16.9135
 30
0.0
 10
142.116
 20
16.9135
 30
0.0
 10
140.8591
 20
19.2303
 30
0.0
 10
140.1095
 20
21.5861
 30
0.0
 10
139.9993
 20
23.9912
 30
0.0
 10
139.9993
 20
23.9912
 30
0.0
 10
138.1792
 20
24.8467
 30
0.0
 10
136.109
 20
25.2524
 30
0.0
 10
133.8477
 20
25.3141
 30
0.0
 10
133.8477
 20
25.3141
 30
0.0
 10
133.574
 20
23.0902
 30
0.0
 10
133.7246
 20
21.0335
 30
0.0
 10
134.5092
 20
18.8977
 30
0.0
  0
SPLINE
  5
4A
330
1F
100
AcDbEntity
  8
layer 1
 62
     7
370
    20
100
AcDbSpline
210
0.0
220
0.0
230
1.0
 70
    11
 71
     3
 72
    24
 73
    20
 74
     0
 42
0.0000000001
 43
0.0000000001
 12
1.0
 22
0.0
 32
0.0
 13
1.0
 23
0.0
 33
0.0
 40
0.0
 40
0.0
 40
0.0
 40
0.0
 40
0.1666666666666667
 40
0.1666666666666667
 40
0.1666666666666667
 40
0.1666666666666667
 40
0.3333333333333333
 40
0.3333333333333333
 40
0.3333333333333333
 40
0.3333333333333333
 40
0.5
 40
0.5
 40
0.5
 40
0.5
 40
0.6666666666666666
 40
0.6666666666666666
 40
0.6666666666666666
 40
0.6666666666666666
 40
1.0
 40
1.0
 40
1.0
 40
1.0
 10
114.4378
 20
8.273
 30
0.0
 10
117.7424
 20
9.633
 30
0.0
 10
119.4645
 20
12.599
 30
0.0
 10
121.2777
 20
13.9218
 30
0.0
 10
121.2777
 20
13.9218
 30
0.0
 10
115.041
 20
14.3261
 30
0.0
 10
110.8784
 20
17.1995
 30
0.0
 10
109.6359
 20
21.9256
 30
0.0
 10
109.6359
 20
21.9256
 30
0.0
 10
109.6359
 20
21.9256
 30
0.0
 10
109.5905
 20
-5.3962
 30
0.0
 10
109.5905
 20
-5.3962
 30
0.0
 10
109.5905
 20
-5.3962
 30
0.0
 10
110.833
 20
-0.6701
 30
0.0
 10
114.9956
 20
2.2032
 30
0.0
 10
121.2323
 20
2.6076
 30
0.0
 10
121.2323
 20
2.6076
 30
0.0
 10
119.4191
 20
3.9303
 30
0.0
 10
117.7259
 20
6.913
 30
0.0
 10
114.4378
 20
8.273
 30
0.0
  0
SPLINE
  5
4B
330
1F
100
AcDbEntity
  8
layer 1
 62
     7
370
    20
100
AcDbSpline
210
0.0
220
0.0
230
1.0
 70
    11
 71
     3
 72
    24
 73
    20
 74
     0
 42
0.0000000001
 43
0.0000000001
 12
1.0
 22
0.0
 32
0.0
 13
1.0
 23
0.0
 33
0.0
 40
0.0
 40
0.0
 40
0.0
 40
0.0
 40
0.1666666666666667
 40
0.1666666666666667
 40
0.1666666666666667
 40
0.1666666666666667
 40
0.3333333333333333
 40
0.3333333333333333
 40
0.3333333333333333
 40
0.3333333333333333
 40
0.5
 40
0.5
 40
0.5
 40
0.5
 40
0.6666666666666666
 40
0.6666666666666666
 40
0.6666666666666666
 40
0.6666666666666666
 40
1.0
 40
1.0
 40
1.0
 40
1.0
 10
187.3638
 20
8.2719
 30
0.0
 10
184.0674
 20
9.6385
 30
0.0
 10
182.3164
 20
12.5549
 30
0.0
 10
180.5032
 20
13.8778
 30
0.0
 10
180.5032
 20
13.8778
 30
0.0
 10
186.7399
 20
14.282
 30
0.0
 10
190.9025
 20
17.1554
 30
0.0
 10
192.145
 20
21.8814
 30
0.0
 10
192.145
 20
21.8814
 30
0.0
 10
192.145
 20
21.8814
 30
0.0
 10
192.0996
 20
-5.3521
 30
0.0
 10
192.0996
 20
-5.3521
 30
0.0
 10
192.0996
 20
-5.3521
 30
0.0
 10
190.8571
 20
-0.626
 30
0.0
 10
186.6945
 20
2.2473
 30
0.0
 10
180.4578
 20
2.6517
 30
0.0
 10
180.4578
 20
2.6517
 30
0.0
 10
182.271
 20
3.9744
 30
0.0
 10
184.0674
 20
6.9055
 30
0.0
 10
187.3638
 20
8.2719
 30
0.0
  0
SPLINE
  5
4C
330
1F
100
AcDbEntity
  8
layer 1
 62
     7
370
    20
100
AcDbSpline
210
0.0
220
0.0
230
1.0
 70
    11
 71
     3
 72
    28
 73
    24
 74
     0
 42
0.0000000001
 43
0.0000000001
 12
1.0
 22
0.0
 32
0.0
 13
1.0
 23
0.0
 33
0.0
 40
0.0
 40
0.0
 40
0.0
 40
0.0
 40
0.1428571428571428
 40
0.1428571428571428
 40
0.1428571428571428
 40
0.1428571428571428
 40
0.2857142857142857
 40
0.2857142857142857
 40
0.2857142857142857
 40
0.2857142857142857
 40
0.4285714285714285
 40
0.4285714285714285
 40
0.4285714285714285
 40
0.4285714285714285
 40
0.5714285714285714
 40
0.5714285714285714
 40
0.5714285714285714
 40
0.5714285714285714
 40
0.7142857142857143
 40
0.7142857142857143
 40
0.7142857142857143
 40
0.7142857142857143
 40
1.0
 40
1.0
 40
1.0
 40
1.0
 10
115.2631
 20
-9.5299
 30
0.0
 10
113.4065
 20
-8.2815
 30
0.0
 10
113.2611
 20
-5.2109
 30
0.0
 10
114.8332
 20
-3.6759
 30
0.0
 10
114.8332
 20
-3.6759
 30
0.0
 10
117.3521
 20
-0.8352
 30
0.0
 10
122.8758
 20
-0.2438
 30
0.0
 10
127.5663
 20
-1.6916
 30
0.0
 10
127.5663
 20
-1.6916
 30
0.0
 10
125.9649
 20
-3.5458
 30
0.0
 10
126.5937
 20
-5.5203
 30
0.0
 10
128.8892
 20
-6.3217
 30
0.0
 10
128.8892
 20
-6.3217
 30
0.0
 10
126.8222
 20
-7.1422
 30
0.0
 10
125.1039
 20
-8.4075
 30
0.0
 10
123.522
 20
-10.0658
 30
0.0
 10
123.522
 20
-10.0658
 30
0.0
 10
124.4343
 20
-7.7618
 30
0.0
 10
122.9523
 20
-4.7196
 30
0.0
 10
119.8602
 20
-4.4366
 30
0.0
 10
119.8602
 20
-4.4366
 30
0.0
 10
116.7402
 20
-4.4366
 30
0.0
 10
115.208
 20
-6.1344
 30
0.0
 10
115.2631
 20
-9.5299
 30
0.0
  0
SPLINE
  5
4D
330
1F
100
AcDbEntity
  8
layer 1
 62
     7
370
    20
100
AcDbSpline
210
0.0
220
0.0
230
1.0
 70
    11
 71
     3
 72
    28
 73
    24
 74
     0
 42
0.0000000001
 43
0.0000000001
 12
1.0
 22
0.0
 32
0.0
 13
1.0
 23
0.0
 33
0.0
 40
0.0
 40
0.0
 40
0.0
 40
0.0
 40
0.1428571428571428
 40
0.1428571428571428
 40
0.1428571428571428
 40
0.1428571428571428
 40
0.2857142857142857
 40
0.2857142857142857
 40
0.2857142857142857
 40
0.2857142857142857
 40
0.4285714285714285
 40
0.4285714285714285
 40
0.4285714285714285
 40
0.4285714285714285
 40
0.5714285714285714
 40
0.5714285714285714
 40
0.5714285714285714
 40
0.5714285714285714
 40
0.7142857142857143
 40
0.7142857142857143
 40
0.7142857142857143
 40
0.7142857142857143
 40
1.0
 40
1.0
 40
1.0
 40
1.0
 10
115.3085
 20
26.0592
 30
0.0
 10
113.4519
 20
24.8109
 30
0.0
 10
113.3065
 20
21.7404
 30
0.0
 10
114.8786
 20
20.2054
 30
0.0
 10
114.8786
 20
20.2054
 30
0.0
 10
117.3975
 20
17.3645
 30
0.0
 10
122.9212
 20
16.7732
 30
0.0
 10
127.6117
 20
18.2209
 30
0.0
 10
127.6117
 20
18.2209
 30
0.0
 10
126.0103
 20
20.0752
 30
0.0
 10
126.6391
 20
22.0496
 30
0.0
 10
128.9346
 20
22.8511
 30
0.0
 10
128.9346
 20
22.8511
 30
0.0
 10
126.8676
 20
23.6715
 30
0.0
 10
125.1493
 20
24.9369
 30
0.0
 10
123.5674
 20
26.5952
 30
0.0
 10
123.5674
 20
26.5952
 30
0.0
 10
124.4797
 20
24.2913
 30
0.0
 10
122.9977
 20
21.2489
 30
0.0
 10
119.9056
 20
20.966
 30
0.0
 10
119.9056
 20
20.966
 30
0.0
 10
116.7856
 20
20.966
 30
0.0
 10
115.2534
 20
22.6639
 30
0.0
 10
115.3085
 20
26.0592
 30
0.0
  0
SPLINE
  5
4E
330
1F
100
AcDbEntity
  8
layer 1
 62
     7
370
    20
100
AcDbSpline
210
0.0
220
0.0
230
1.0
 70
    11
 71
     3
 72
    28
 73
    24
 74
     0
 42
0.0000000001
 43
0.0000000001
 12
1.0
 22
0.0
 32
0.0
 13
1.0
 23
0.0
 33
0.0
 40
0.0
 40
0.0
 40
0.0
 40
0.0
 40
0.1428571428571428
 40
0.1428571428571428
 40
0.1428571428571428
 40
0.1428571428571428
 40
0.2857142857142857
 40
0.2857142857142857
 40
0.2857142857142857
 40
0.2857142857142857
 40
0.4285714285714285
 40
0.4285714285714285
 40
0.4285714285714285
 40
0.4285714285714285
 40
0.5714285714285714
 40
0.5714285714285714
 40
0.5714285714285714
 40
0.5714285714285714
 40
0.7142857142857143
 40
0.7142857142857143
 40
0.7142857142857143
 40
0.7142857142857143
 40
1.0
 40
1.0
 40
1.0
 40
1.0
 10
186.427
 20
-9.4857
 30
0.0
 10
188.2836
 20
-8.2374
 30
0.0
 10
188.429
 20
-5.1669
 30
0.0
 10
186.8569
 20
-3.6318
 30
0.0
 10
186.8569
 20
-3.6318
 30
0.0
 10
184.338
 20
-0.7911
 30
0.0
 10
178.8143
 20
-0.1997
 30
0.0
 10
174.1238
 20
-1.6474
 30
0.0
 10
174.1238
 20
-1.6474
 30
0.0
 10
175.7252
 20
-3.5017
 30
0.0
 10
175.0964
 20
-5.4762
 30
0.0
 10
172.8009
 20
-6.2776
 30
0.0
 10
172.8009
 20
-6.2776
 30
0.0
 10
174.8679
 20
-7.0981
 30
0.0
 10
176.5862
 20
-8.3634
 30
0.0
 10
178.1681
 20
-10.0217
 30
0.0
 10
178.1681
 20
-10.0217
 30
0.0
 10
177.2558
 20
-7.7178
 30
0.0
 10
178.7378
 20
-4.6755
 30
0.0
 10
181.8299
 20
-4.3925
 30
0.0
 10
181.8299
 20
-4.3925
 30
0.0
 10
184.9499
 20
-4.3925
 30
0.0
 10
186.4821
 20
-6.0904
 30
0.0
 10
186.427
 20
-9.4857
 30
0.0
  0
SPLINE
  5
4F
330
1F
100
AcDbEntity
  8
layer 1
 62
     7
370
    20
100
AcDbSpline
210
0.0
220
0.0
230
1.0
 70
    11
 71
     3
 72
    28
 73
    24
 74
     0
 42
0.0000000001
 43
0.0000000001
 12
1.0
 22
0.0
 32
0.0
 13
1.0
 23
0.0
 33
0.0
 40
0.0
 40
0.0
 40
0.0
 40
0.0
 40
0.1428571428571428
 40
0.1428571428571428
 40
0.1428571428571428
 40
0.1428571428571428
 40
0.2857142857142857
 40
0.2857142857142857
 40
0.2857142857142857
 40
0.2857142857142857
 40
0.4285714285714285
 40
0.4285714285714285
 40
0.4285714285714285
 40
0.4285714285714285
 40
0.5714285714285714
 40
0.5714285714285714
 40
0.5714285714285714
 40
0.5714285714285714
 40
0.7142857142857143
 40
0.7142857142857143
 40
0.7142857142857143
 40
0.7142857142857143
 40
1.0
 40
1.0
 40
1.0
 40
1.0
 10
186.4724
 20
26.0151
 30
0.0
 10
188.329
 20
24.7668
 30
0.0
 10
188.4744
 20
21.6963
 30
0.0
 10
186.9023
 20
20.1613
 30
0.0
 10
186.9023
 20
20.1613
 30
0.0
 10
184.3834
 20
17.3204
 30
0.0
 10
178.8597
 20
16.7291
 30
0.0
 10
174.1692
 20
18.1768
 30
0.0
 10
174.1692
 20
18.1768
 30
0.0
 10
175.7706
 20
20.0311
 30
0.0
 10
175.1418
 20
22.0055
 30
0.0
 10
172.8463
 20
22.8071
 30
0.0
 10
172.8463
 20
22.8071
 30
0.0
 10
174.9133
 20
23.6274
 30
0.0
 10
176.6316
 20
24.8929
 30
0.0
 10
178.2135
 20
26.5512
 30
0.0
 10
178.2135
 20
26.5512
 30
0.0
 10
177.3012
 20
24.2472
 30
0.0
 10
178.7832
 20
21.2048
 30
0.0
 10
181.8753
 20
20.9219
 30
0.0
 10
181.8753
 20
20.9219
 30
0.0
 10
184.9953
 20
20.9219
 30
0.0
 10
186.5275
 20
22.6198
 30
0.0
 10
186.4724
 20
26.0151
 30
0.0
  0
SPLINE
  5
50
330
1F
100
AcDbEntity
  8
layer 1
 62
     7
370
    20
100
AcDbSpline
210
0.0
220
0.0
230
1.0
 70
    11
 71
     3
 72
    32
 73
    28
 74
     0
 42
0.0000000001
 43
0.0000000001
 12
1.0
 22
0.0
 32
0.0
 13
1.0
 23
0.0
 33
0.0
 40
0.0
 40
0.0
 40
0.0
 40
0.0
 40
0.125
 40
0.125
 40
0.125
 40
0.125
 40
0.25
 40
0.25
 40
0.25
 40
0.25
 40
0.375
 40
0.375
 40
0.375
 40
0.375
 40
0.5
 40
0.5
 40
0.5
 40
0.5
 40
0.625
 40
0.625
 40
0.625
 40
0.625
 40
0.75
 40
0.75
 40
0.75
 40
0.75
 40
1.0
 40
1.0
 40
1.0
 40
1.0
 10
109.5909
 20
-9.6454
 30
0.0
 10
111.4918
 20
-15.7624
 30
0.0
 10
117.8217
 20
-16.9011
 30
0.0
 10
121.5303
 20
-13.5812
 30
0.0
 10
121.5303
 20
-13.5812
 30
0.0
 10
119.1673
 20
-20.9465
 30
0.0
 10
120.112
 20
-26.4897
 30
0.0
 10
123.7462
 20
-31.209
 30
0.0
 10
123.7462
 20
-31.209
 30
0.0
 10
122.0467
 20
-29.802
 30
0.0
 10
119.7131
 20
-29.0884
 30
0.0
 10
116.6024
 20
-29.2247
 30
0.0
 10
116.6024
 20
-29.2247
 30
0.0
 10
115.3426
 20
-29.207
 30
0.0
 10
114.0478
 20
-28.9778
 30
0.0
 10
112.6998
 20
-28.431
 30
0.0
 10
112.6998
 20
-28.431
 30
0.0
 10
112.751
 20
-30.6212
 30
0.0
 10
113.5083
 20
-31.9292
 30
0.0
 10
114.618
 20
-32.7965
 30
0.0
 10
114.618
 20
-32.7965
 30
0.0
 10
111.9183
 20
-33.6761
 30
0.0
 10
110.6111
 20
-35.7281
 30
0.0
 10
109.5909
 20
-38.0221
 30
0.0
 10
109.5909
 20
-38.0221
 30
0.0
 10
109.5909
 20
-38.0221
 30
0.0
 10
109.5909
 20
-9.6454
 30
0.0
 10
109.5909
 20
-9.6454
 30
0.0
  0
SPLINE
  5
51
330
1F
100
AcDbEntity
  8
layer 1
 62
     7
370
    20
100
AcDbSpline
210
0.0
220
0.0
230
1.0
 70
    11
 71
     3
 72
    32
 73
    28
 74
     0
 42
0.0000000001
 43
0.0000000001
 12
1.0
 22
0.0
 32
0.0
 13
1.0
 23
0.0
 33
0.0
 40
0.0
 40
0.0
 40
0.0
 40
0.0
 40
0.125
 40
0.125
 40
0.125
 40
0.125
 40
0.25
 40
0.25
 40
0.25
 40
0.25
 40
0.375
 40
0.375
 40
0.375
 40
0.375
 40
0.5
 40
0.5
 40
0.5
 40
0.5
 40
0.625
 40
0.625
 40
0.625
 40
0.625
 40
0.75
 40
0.75
 40
0.75
 40
0.75
 40
1.0
 40
1.0
 40
1.0
 40
1.0
 10
109.6363
 20
26.1748
 30
0.0
 10
111.5372
 20
32.2918
 30
0.0
 10
117.8671
 20
33.4305
 30
0.0
 10
121.5757
 20
30.1105
 30
0.0
 10
121.5757
 20
30.1105
 30
0.0
 10
119.2127
 20
37.4758
 30
0.0
 10
120.1574
 20
43.0191
 30
0.0
 10
123.7916
 20
47.7385
 30
0.0
 10
123.7916
 20
47.7385
 30
0.0
 10
122.0921
 20
46.3314
 30
0.0
 10
119.7585
 20
45.6177
 30
0.0
 10
116.6478
 20
45.7542
 30
0.0
 10
116.6478
 20
45.7542
 30
0.0
 10
115.388
 20
45.7364
 30
0.0
 10
114.0932
 20
45.5071
 30
0.0
 10
112.7452
 20
44.9604
 30
0.0
 10
112.7452
 20
44.9604
 30
0.0
 10
112.7964
 20
47.1507
 30
0.0
 10
113.5537
 20
48.4587
 30
0.0
 10
114.6634
 20
49.326
 30
0.0
 10
114.6634
 20
49.326
 30
0.0
 10
111.9637
 20
50.2055
 30
0.0
 10
110.6565
 20
52.2574
 30
0.0
 10
109.6363
 20
54.5515
 30
0.0
 10
109.6363
 20
54.5515
 30
0.0
 10
109.6363
 20
54.5515
 30
0.0
 10
109.6363
 20
26.1748
 30
0.0
 10
109.6363
 20
26.1748
 30
0.0
  0
SPLINE
  5
52
330
1F
100
AcDbEntity
  8
layer 1
 62
     7
370
    20
100
AcDbSpline
210
0.0
220
0.0
230
1.0
 70
    11
 71
     3
 72
    32
 73
    28
 74
     0
 42
0.0000000001
 43
0.0000000001
 12
1.0
 22
0.0
 32
0.0
 13
1.0
 23
0.0
 33
0.0
 40
0.0
 40
0.0
 40
0.0
 40
0.0
 40
0.125
 40
0.125
 40
0.125
 40
0.125
 40
0.25
 40
0.25
 40
0.25
 40
0.25
 40
0.375
 40
0.375
 40
0.375
 40
0.375
 40
0.5
 40
0.5
 40
0.5
 40
0.5
 40
0.625
 40
0.625
 40
0.625
 40
0.625
 40
0.75
 40
0.75
 40
0.75
 40
0.75
 40
1.0
 40
1.0
 40
1.0
 40
1.0
 10
192.0992
 20
-9.6013
 30
0.0
 10
190.1983
 20
-15.7183
 30
0.0
 10
183.8684
 20
-16.857
 30
0.0
 10
180.1598
 20
-13.537
 30
0.0
 10
180.1598
 20
-13.537
 30
0.0
 10
182.5228
 20
-20.9024
 30
0.0
 10
181.5781
 20
-26.4456
 30
0.0
 10
177.9439
 20
-31.165
 30
0.0
 10
177.9439
 20
-31.165
 30
0.0
 10
179.6434
 20
-29.7579
 30
0.0
 10
181.977
 20
-29.0443
 30
0.0
 10
185.0877
 20
-29.1806
 30
0.0
 10
185.0877
 20
-29.1806
 30
0.0
 10
186.3475
 20
-29.1629
 30
0.0
 10
187.6423
 20
-28.9337
 30
0.0
 10
188.9903
 20
-28.3869
 30
0.0
 10
188.9903
 20
-28.3869
 30
0.0
 10
188.9391
 20
-30.5772
 30
0.0
 10
188.1818
 20
-31.8851
 30
0.0
 10
187.0721
 20
-32.7525
 30
0.0
 10
187.0721
 20
-32.7525
 30
0.0
 10
189.7718
 20
-33.632
 30
0.0
 10
191.079
 20
-35.684
 30
0.0
 10
192.0992
 20
-37.978
 30
0.0
 10
192.0992
 20
-37.978
 30
0.0
 10
192.0992
 20
-37.978
 30
0.0
 10
192.0992
 20
-9.6013
 30
0.0
 10
192.0992
 20
-9.6013
 30
0.0
  0
SPLINE
  5
53
330
1F
100
AcDbEntity
  8
layer 1
 62
     7
370
    20
100
AcDbSpline
210
0.0
220
0.0
230
1.0
 70
    11
 71
     3
 72
    32
 73
    28
 74
     0
 42
0.0000000001
 43
0.0000000001
 12
1.0
 22
0.0
 32
0.0
 13
1.0
 23
0.0
 33
0.0
 40
0.0
 40
0.0
 40
0.0
 40
0.0
 40
0.125
 40
0.125
 40
0.125
 40
0.125
 40
0.25
 40
0.25
 40
0.25
 40
0.25
 40
0.375
 40
0.375
 40
0.375
 40
0.375
 40
0.5
 40
0.5
 40
0.5
 40
0.5
 40
0.625
 40
0.625
 40
0.625
 40
0.625
 40
0.75
 40
0.75
 40
0.75
 40
0.75
 40
1.0
 40
1.0
 40
1.0
 40
1.0
 10
192.1446
 20
26.1307
 30
0.0
 10
190.2437
 20
32.2477
 30
0.0
 10
183.9138
 20
33.3864
 30
0.0
 10
180.2052
 20
30.0664
 30
0.0
 10
180.2052
 20
30.0664
 30
0.0
 10
182.5682
 20
37.4317
 30
0.0
 10
181.6235
 20
42.9749
 30
0.0
 10
177.9893
 20
47.6944
 30
0.0
 10
177.9893
 20
47.6944
 30
0.0
 10
179.6888
 20
46.2872
 30
0.0
 10
182.0224
 20
45.5736
 30
0.0
 10
185.1331
 20
45.7101
 30
0.0
 10
185.1331
 20
45.7101
 30
0.0
 10
186.3929
 20
45.6923
 30
0.0
 10
187.6877
 20
45.463
 30
0.0
 10
189.0357
 20
44.9162
 30
0.0
 10
189.0357
 20
44.9162
 30
0.0
 10
188.9845
 20
47.1066
 30
0.0
 10
188.2272
 20
48.4146
 30
0.0
 10
187.1175
 20
49.2819
 30
0.0
 10
187.1175
 20
49.2819
 30
0.0
 10
189.8172
 20
50.1613
 30
0.0
 10
191.1244
 20
52.2133
 30
0.0
 10
192.1446
 20
54.5075
 30
0.0
 10
192.1446
 20
54.5075
 30
0.0
 10
192.1446
 20
54.5075
 30
0.0
 10
192.1446
 20
26.1307
 30
0.0
 10
192.1446
 20
26.1307
 30
0.0
  0
SPLINE
  5
54
330
1F
100
AcDbEntity
  8
layer 1
 62
     7
370
    20
100
AcDbSpline
210
0.0
220
0.0
230
1.0
 70
    11
 71
     3
 72
    36
 73
    32
 74
     0
 42
0.0000000001
 43
0.0000000001
 12
1.0
 22
0.0
 32
0.0
 13
1.0
 23
0.0
 33
0.0
 40
0.0
 40
0.0
 40
0.0
 40
0.0
 40
0.1111111111111111
 40
0.1111111111111111
 40
0.1111111111111111
 40
0.1111111111111111
 40
0.2222222222222222
 40
0.2222222222222222
 40
0.2222222222222222
 40
0.2222222222222222
 40
0.3333333333333333
 40
0.3333333333333333
 40
0.3333333333333333
 40
0.3333333333333333
 40
0.4444444444444444
 40
0.4444444444444444
 40
0.4444444444444444
 40
0.4444444444444444
 40
0.5555555555555556
 40
0.5555555555555556
 40
0.5555555555555556
 40
0.5555555555555556
 40
0.6666666666666666
 40
0.6666666666666666
 40
0.6666666666666666
 40
0.6666666666666666
 40
0.7777777777777778
 40
0.7777777777777778
 40
0.7777777777777778
 40
0.7777777777777778
 40
1.0
 40
1.0
 40
1.0
 40
1.0
 10
129.865
 20
-12.8535
 30
0.0
 10
132.1228
 20
-13.1103
 30
0.0
 10
134.2439
 20
-13.0594
 30
0.0
 10
136.1489
 20
-12.5228
 30
0.0
 10
136.1489
 20
-12.5228
 30
0.0
 10
135.6033
 20
-16.1633
 30
0.0
 10
138.6567
 20
-17.1946
 30
0.0
 10
141.3744
 20
-15.4993
 30
0.0
 10
141.3744
 20
-15.4993
 30
0.0
 10
143.4469
 20
-19.2254
 30
0.0
 10
146.4787
 20
-21.8934
 30
0.0
 10
147.7905
 20
-26.0827
 30
0.0
 10
147.7905
 20
-26.0827
 30
0.0
 10
144.6951
 20
-23.5446
 30
0.0
 10
141.4272
 20
-21.9833
 30
0.0
 10
137.8025
 20
-22.4446
 30
0.0
 10
137.8025
 20
-22.4446
 30
0.0
 10
138.1211
 20
-21.518
 30
0.0
 10
138.3768
 20
-20.5489
 30
0.0
 10
138.564
 20
-19.5345
 30
0.0
 10
138.564
 20
-19.5345
 30
0.0
 10
132.7738
 20
-19.4184
 30
0.0
 10
128.5618
 20
-22.3846
 30
0.0
 10
126.7403
 20
-27.7365
 30
0.0
 10
126.7403
 20
-27.7365
 30
0.0
 10
122.7851
 20
-20.8704
 30
0.0
 10
123.8076
 20
-14.4317
 30
0.0
 10
129.998
 20
-10.4725
 30
0.0
 10
129.998
 20
-10.4725
 30
0.0
 10
129.7314
 20
-11.2162
 30
0.0
 10
129.5994
 20
-11.9901
 30
0.0
 10
129.865
 20
-12.8535
 30
0.0
  0
SPLINE
  5
55
330
1F
100
AcDbEntity
  8
layer 1
 62
     7
370
    20
100
AcDbSpline
210
0.0
220
0.0
230
1.0
 70
    11
 71
     3
 72
    36
 73
    32
 74
     0
 42
0.0000000001
 43
0.0000000001
 12
1.0
 22
0.0
 32
0.0
 13
1.0
 23
0.0
 33
0.0
 40
0.0
 40
0.0
 40
0.0
 40
0.0
 40
0.1111111111111111
 40
0.1111111111111111
 40
0.1111111111111111
 40
0.1111111111111111
 40
0.2222222222222222
 40
0.2222222222222222
 40
0.2222222222222222
 40
0.2222222222222222
 40
0.3333333333333333
 40
0.3333333333333333
 40
0.3333333333333333
 40
0.3333333333333333
 40
0.4444444444444444
 40
0.4444444444444444
 40
0.4444444444444444
 40
0.4444444444444444
 40
0.5555555555555556
 40
0.5555555555555556
 40
0.5555555555555556
 40
0.5555555555555556
 40
0.6666666666666666
 40
0.6666666666666666
 40
0.6666666666666666
 40
0.6666666666666666
 40
0.7777777777777778
 40
0.7777777777777778
 40
0.7777777777777778
 40
0.7777777777777778
 40
1.0
 40
1.0
 40
1.0
 40
1.0
 10
129.9104
 20
29.3829
 30
0.0
 10
132.1682
 20
29.6398
 30
0.0
 10
134.2893
 20
29.5889
 30
0.0
 10
136.1943
 20
29.0521
 30
0.0
 10
136.1943
 20
29.0521
 30
0.0
 10
135.6487
 20
32.6927
 30
0.0
 10
138.7021
 20
33.7239
 30
0.0
 10
141.4198
 20
32.0287
 30
0.0
 10
141.4198
 20
32.0287
 30
0.0
 10
143.4923
 20
35.7548
 30
0.0
 10
146.5241
 20
38.4228
 30
0.0
 10
147.8359
 20
42.6121
 30
0.0
 10
147.8359
 20
42.6121
 30
0.0
 10
144.7405
 20
40.074
 30
0.0
 10
141.4726
 20
38.5128
 30
0.0
 10
137.8479
 20
38.974
 30
0.0
 10
137.8479
 20
38.974
 30
0.0
 10
138.1665
 20
38.0473
 30
0.0
 10
138.4222
 20
37.0784
 30
0.0
 10
138.6094
 20
36.0638
 30
0.0
 10
138.6094
 20
36.0638
 30
0.0
 10
132.8192
 20
35.9477
 30
0.0
 10
128.6072
 20
38.914
 30
0.0
 10
126.7857
 20
44.266
 30
0.0
 10
126.7857
 20
44.266
 30
0.0
 10
122.8305
 20
37.3997
 30
0.0
 10
123.853
 20
30.9612
 30
0.0
 10
130.0434
 20
27.0019
 30
0.0
 10
130.0434
 20
27.0019
 30
0.0
 10
129.7768
 20
27.7457
 30
0.0
 10
129.6448
 20
28.5194
 30
0.0
 10
129.9104
 20
29.3829
 30
0.0
  0
SPLINE
  5
56
330
1F
100
AcDbEntity
  8
layer 1
 62
     7
370
    20
100
AcDbSpline
210
0.0
220
0.0
230
1.0
 70
    11
 71
     3
 72
    36
 73
    32
 74
     0
 42
0.0000000001
 43
0.0000000001
 12
1.0
 22
0.0
 32
0.0
 13
1.0
 23
0.0
 33
0.0
 40
0.0
 40
0.0
 40
0.0
 40
0.0
 40
0.1111111111111111
 40
0.1111111111111111
 40
0.1111111111111111
 40
0.1111111111111111
 40
0.2222222222222222
 40
0.2222222222222222
 40
0.2222222222222222
 40
0.2222222222222222
 40
0.3333333333333333
 40
0.3333333333333333
 40
0.3333333333333333
 40
0.3333333333333333
 40
0.4444444444444444
 40
0.4444444444444444
 40
0.4444444444444444
 40
0.4444444444444444
 40
0.5555555555555556
 40
0.5555555555555556
 40
0.5555555555555556
 40
0.5555555555555556
 40
0.6666666666666666
 40
0.6666666666666666
 40
0.6666666666666666
 40
0.6666666666666666
 40
0.7777777777777778
 40
0.7777777777777778
 40
0.7777777777777778
 40
0.7777777777777778
 40
1.0
 40
1.0
 40
1.0
 40
1.0
 10
171.8251
 20
-12.8094
 30
0.0
 10
169.5673
 20
-13.0663
 30
0.0
 10
167.4462
 20
-13.0153
 30
0.0
 10
165.5412
 20
-12.4787
 30
0.0
 10
165.5412
 20
-12.4787
 30
0.0
 10
166.0868
 20
-16.1192
 30
0.0
 10
163.0334
 20
-17.1505
 30
0.0
 10
160.3157
 20
-15.4552
 30
0.0
 10
160.3157
 20
-15.4552
 30
0.0
 10
158.2432
 20
-19.1813
 30
0.0
 10
155.2114
 20
-21.8493
 30
0.0
 10
153.8996
 20
-26.0386
 30
0.0
 10
153.8996
 20
-26.0386
 30
0.0
 10
156.995
 20
-23.5005
 30
0.0
 10
160.2629
 20
-21.9392
 30
0.0
 10
163.8876
 20
-22.4005
 30
0.0
 10
163.8876
 20
-22.4005
 30
0.0
 10
163.569
 20
-21.4739
 30
0.0
 10
163.3133
 20
-20.5049
 30
0.0
 10
163.1261
 20
-19.4903
 30
0.0
 10
163.1261
 20
-19.4903
 30
0.0
 10
168.9163
 20
-19.3742
 30
0.0
 10
173.1283
 20
-22.3405
 30
0.0
 10
174.9498
 20
-27.6925
 30
0.0
 10
174.9498
 20
-27.6925
 30
0.0
 10
178.905
 20
-20.8262
 30
0.0
 10
177.8825
 20
-14.3877
 30
0.0
 10
171.6921
 20
-10.4284
 30
0.0
 10
171.6921
 20
-10.4284
 30
0.0
 10
171.9587
 20
-11.1722
 30
0.0
 10
172.0907
 20
-11.9459
 30
0.0
 10
171.8251
 20
-12.8094
 30
0.0
  0
SPLINE
  5
57
330
1F
100
AcDbEntity
  8
layer 1
 62
     7
370
    20
100
AcDbSpline
210
0.0
220
0.0
230
1.0
 70
    11
 71
     3
 72
    36
 73
    32
 74
     0
 42
0.0000000001
 43
0.0000000001
 12
1.0
 22
0.0
 32
0.0
 13
1.0
 23
0.0
 33
0.0
 40
0.0
 40
0.0
 40
0.0
 40
0.0
 40
0.1111111111111111
 40
0.1111111111111111
 40
0.1111111111111111
 40
0.1111111111111111
 40
0.2222222222222222
 40
0.2222222222222222
 40
0.2222222222222222
 40
0.2222222222222222
 40
0.3333333333333333
 40
0.3333333333333333
 40
0.3333333333333333
 40
0.3333333333333333
 40
0.4444444444444444
 40
0.4444444444444444
 40
0.4444444444444444
 40
0.4444444444444444
 40
0.5555555555555556
 40
0.5555555555555556
 40
0.5555555555555556
 40
0.5555555555555556
 40
0.6666666666666666
 40
0.6666666666666666
 40
0.6666666666666666
 40
0.6666666666666666
 40
0.7777777777777778
 40
0.7777777777777778
 40
0.7777777777777778
 40
0.7777777777777778
 40
1.0
 40
1.0
 40
1.0
 40
1.0
 10
171.8705
 20
29.3388
 30
0.0
 10
169.6127
 20
29.5957
 30
0.0
 10
167.4916
 20
29.5448
 30
0.0
 10
165.5866
 20
29.008
 30
0.0
 10
165.5866
 20
29.008
 30
0.0
 10
166.1322
 20
32.6486
 30
0.0
 10
163.0788
 20
33.6798
 30
0.0
 10
160.3611
 20
31.9846
 30
0.0
 10
160.3611
 20
31.9846
 30
0.0
 10
158.2886
 20
35.7107
 30
0.0
 10
155.2568
 20
38.3787
 30
0.0
 10
153.945
 20
42.5679
 30
0.0
 10
153.945
 20
42.5679
 30
0.0
 10
157.0404
 20
40.0299
 30
0.0
 10
160.3083
 20
38.4687
 30
0.0
 10
163.933
 20
38.9299
 30
0.0
 10
163.933
 20
38.9299
 30
0.0
 10
163.6144
 20
38.0032
 30
0.0
 10
163.3587
 20
37.0343
 30
0.0
 10
163.1715
 20
36.0197
 30
0.0
 10
163.1715
 20
36.0197
 30
0.0
 10
168.9617
 20
35.9036
 30
0.0
 10
173.1737
 20
38.8698
 30
0.0
 10
174.9952
 20
44.2219
 30
0.0
 10
174.9952
 20
44.2219
 30
0.0
 10
178.9504
 20
37.3556
 30
0.0
 10
177.9279
 20
30.9171
 30
0.0
 10
171.7375
 20
26.9578
 30
0.0
 10
171.7375
 20
26.9578
 30
0.0
 10
172.0041
 20
27.7016
 30
0.0
 10
172.1361
 20
28.4753
 30
0.0
 10
171.8705
 20
29.3388
 30
0.0
  0
SPLINE
  5
58
330
1F
100
AcDbEntity
  8
layer 1
 62
     7
370
    20
100
AcDbSpline
210
0.0
220
0.0
230
1.0
 70
    11
 71
     3
 72
    76
 73
    72
 74
     0
 42
0.0000000001
 43
0.0000000001
 12
1.0
 22
0.0
 32
0.0
 13
1.0
 23
0.0
 33
0.0
 40
0.0
 40
0.0
 40
0.0
 40
0.0
 40
0.0526315789473684
 40
0.0526315789473684
 40
0.0526315789473684
 40
0.0526315789473684
 40
0.1052631578947368
 40
0.1052631578947368
 40
0.1052631578947368
 40
0.1052631578947368
 40
0.1578947368421053
 40
0.1578947368421053
 40
0.1578947368421053
 40
0.1578947368421053
 40
0.2105263157894737
 40
0.2105263157894737
 40
0.2105263157894737
 40
0.2105263157894737
 40
0.2631578947368421
 40
0.2631578947368421
 40
0.2631578947368421
 40
0.2631578947368421
 40
0.3157894736842105
 40
0.3157894736842105
 40
0.3157894736842105
 40
0.3157894736842105
 40
0.3684210526315789
 40
0.3684210526315789
 40
0.3684210526315789
 40
0.3684210526315789
 40
0.4210526315789473
 40
0.4210526315789473
 40
0.4210526315789473
 40
0.4210526315789473
 40
0.4736842105263158
 40
0.4736842105263158
 40
0.4736842105263158
 40
0.4736842105263158
 40
0.5263157894736842
 40
0.5263157894736842
 40
0.5263157894736842
 40
0.5263157894736842
 40
0.5789473684210527
 40
0.5789473684210527
 40
0.5789473684210527
 40
0.5789473684210527
 40
0.631578947368421
 40
0.631578947368421
 40
0.631578947368421
 40
0.631578947368421
 40
0.6842105263157895
 40
0.6842105263157895
 40
0.6842105263157895
 40
0.6842105263157895
 40
0.7368421052631579
 40
0.7368421052631579
 40
0.7368421052631579
 40
0.7368421052631579
 40
0.7894736842105263
 40
0.7894736842105263
 40
0.7894736842105263
 40
0.7894736842105263
 40
0.8421052631578947
 40
0.8421052631578947
 40
0.8421052631578947
 40
0.8421052631578947
 40
0.8947368421052632
 40
0.8947368421052632
 40
0.8947368421052632
 40
0.8947368421052632
 40
1.0
 40
1.0
 40
1.0
 40
1.0
 10
109.5637
 20
-41.6228
 30
0.0
 10
111.8583
 20
-42.106
 30
0.0
 10
113.8838
 20
-41.6029
 30
0.0
 10
115.7814
 20
-40.6305
 30
0.0
 10
115.7814
 20
-40.6305
 30
0.0
 10
115.701
 20
-41.774
 30
0.0
 10
115.7075
 20
-42.8825
 30
0.0
 10
115.8476
 20
-43.9378
 30
0.0
 10
115.8476
 20
-43.9378
 30
0.0
 10
117.6981
 20
-42.6042
 30
0.0
 10
121.7748
 20
-43.2321
 30
0.0
 10
122.3299
 20
-38.4478
 30
0.0
 10
122.3299
 20
-38.4478
 30
0.0
 10
122.456
 20
-36.6581
 30
0.0
 10
123.885
 20
-35.9816
 30
0.0
 10
124.9096
 20
-36.6619
 30
0.0
 10
124.9096
 20
-36.6619
 30
0.0
 10
126.2136
 20
-37.5931
 30
0.0
 10
126.0018
 20
-39.2454
 30
0.0
 10
124.9757
 20
-40.8952
 30
0.0
 10
124.9757
 20
-40.8952
 30
0.0
 10
123.2168
 20
-43.5466
 30
0.0
 10
122.854
 20
-46.3575
 30
0.0
 10
124.182
 20
-49.3619
 30
0.0
 10
124.182
 20
-49.3619
 30
0.0
 10
124.5532
 20
-50.1741
 30
0.0
 10
124.8297
 20
-51.0262
 30
0.0
 10
124.9757
 20
-51.9416
 30
0.0
 10
124.9757
 20
-51.9416
 30
0.0
 10
125.8734
 20
-51.3486
 30
0.0
 10
126.6368
 20
-50.6627
 30
0.0
 10
127.2477
 20
-49.8713
 30
0.0
 10
127.2477
 20
-49.8713
 30
0.0
 10
127.7891
 20
-52.0995
 30
0.0
 10
128.8816
 20
-53.7676
 30
0.0
 10
129.8705
 20
-55.1827
 30
0.0
 10
129.8705
 20
-55.1827
 30
0.0
 10
131.1154
 20
-56.8278
 30
0.0
 10
130.9132
 20
-58.581
 30
0.0
 10
129.6721
 20
-60.2759
 30
0.0
 10
129.6721
 20
-60.2759
 30
0.0
 10
131.3049
 20
-60.6681
 30
0.0
 10
132.7557
 20
-60.544
 30
0.0
 10
134.0377
 20
-59.9452
 30
0.0
 10
134.0377
 20
-59.9452
 30
0.0
 10
130.4943
 20
-63.4545
 30
0.0
 10
126.2426
 20
-65.6748
 30
0.0
 10
120.4116
 20
-64.84
 30
0.0
 10
120.4116
 20
-64.84
 30
0.0
 10
118.0537
 20
-64.3681
 30
0.0
 10
116.9981
 20
-61.6906
 30
0.0
 10
118.5596
 20
-59.6145
 30
0.0
 10
118.5596
 20
-59.6145
 30
0.0
 10
119.9732
 20
-57.986
 30
0.0
 10
122.366
 20
-58.0731
 30
0.0
 10
123.8512
 20
-59.7468
 30
0.0
 10
123.8512
 20
-59.7468
 30
0.0
 10
125.2964
 20
-56.3967
 30
0.0
 10
122.8032
 20
-53.1304
 30
0.0
 10
119.8163
 20
-52.8013
 30
0.0
 10
119.8163
 20
-52.8013
 30
0.0
 10
116.3911
 20
-52.425
 30
0.0
 10
114.3336
 20
-54.1702
 30
0.0
 10
113.4663
 20
-57.7623
 30
0.0
 10
113.4663
 20
-57.7623
 30
0.0
 10
111.7735
 20
-57.2237
 30
0.0
 10
110.4848
 20
-57.7057
 30
0.0
 10
109.6298
 20
-59.2837
 30
0.0
 10
109.6298
 20
-59.2837
 30
0.0
 10
109.6298
 20
-59.2837
 30
0.0
 10
109.5637
 20
-41.6228
 30
0.0
 10
109.5637
 20
-41.6228
 30
0.0
  0
SPLINE
  5
59
330
1F
100
AcDbEntity
  8
layer 1
 62
     7
370
    20
100
AcDbSpline
210
0.0
220
0.0
230
1.0
 70
    11
 71
     3
 72
    76
 73
    72
 74
     0
 42
0.0000000001
 43
0.0000000001
 12
1.0
 22
0.0
 32
0.0
 13
1.0
 23
0.0
 33
0.0
 40
0.0
 40
0.0
 40
0.0
 40
0.0
 40
0.0526315789473684
 40
0.0526315789473684
 40
0.0526315789473684
 40
0.0526315789473684
 40
0.1052631578947368
 40
0.1052631578947368
 40
0.1052631578947368
 40
0.1052631578947368
 40
0.1578947368421053
 40
0.1578947368421053
 40
0.1578947368421053
 40
0.1578947368421053
 40
0.2105263157894737
 40
0.2105263157894737
 40
0.2105263157894737
 40
0.2105263157894737
 40
0.2631578947368421
 40
0.2631578947368421
 40
0.2631578947368421
 40
0.2631578947368421
 40
0.3157894736842105
 40
0.3157894736842105
 40
0.3157894736842105
 40
0.3157894736842105
 40
0.3684210526315789
 40
0.3684210526315789
 40
0.3684210526315789
 40
0.3684210526315789
 40
0.4210526315789473
 40
0.4210526315789473
 40
0.4210526315789473
 40
0.4210526315789473
 40
0.4736842105263158
 40
0.4736842105263158
 40
0.4736842105263158
 40
0.4736842105263158
 40
0.5263157894736842
 40
0.5263157894736842
 40
0.5263157894736842
 40
0.5263157894736842
 40
0.5789473684210527
 40
0.5789473684210527
 40
0.5789473684210527
 40
0.5789473684210527
 40
0.631578947368421
 40
0.631578947368421
 40
0.631578947368421
 40
0.631578947368421
 40
0.6842105263157895
 40
0.6842105263157895
 40
0.6842105263157895
 40
0.6842105263157895
 40
0.7368421052631579
 40
0.7368421052631579
 40
0.7368421052631579
 40
0.7368421052631579
 40
0.7894736842105263
 40
0.7894736842105263
 40
0.7894736842105263
 40
0.7894736842105263
 40
0.8421052631578947
 40
0.8421052631578947
 40
0.8421052631578947
 40
0.8421052631578947
 40
0.8947368421052632
 40
0.8947368421052632
 40
0.8947368421052632
 40
0.8947368421052632
 40
1.0
 40
1.0
 40
1.0
 40
1.0
 10
109.6091
 20
58.1521
 30
0.0
 10
111.9037
 20
58.6354
 30
0.0
 10
113.9292
 20
58.1323
 30
0.0
 10
115.8268
 20
57.16
 30
0.0
 10
115.8268
 20
57.16
 30
0.0
 10
115.7464
 20
58.3033
 30
0.0
 10
115.7529
 20
59.4119
 30
0.0
 10
115.893
 20
60.4672
 30
0.0
 10
115.893
 20
60.4672
 30
0.0
 10
117.7435
 20
59.1336
 30
0.0
 10
121.8202
 20
59.7615
 30
0.0
 10
122.3753
 20
54.9771
 30
0.0
 10
122.3753
 20
54.9771
 30
0.0
 10
122.5014
 20
53.1875
 30
0.0
 10
123.9304
 20
52.511
 30
0.0
 10
124.955
 20
53.1912
 30
0.0
 10
124.955
 20
53.1912
 30
0.0
 10
126.259
 20
54.1225
 30
0.0
 10
126.0472
 20
55.7747
 30
0.0
 10
125.0211
 20
57.4245
 30
0.0
 10
125.0211
 20
57.4245
 30
0.0
 10
123.2622
 20
60.076
 30
0.0
 10
122.8994
 20
62.8869
 30
0.0
 10
124.2274
 20
65.8912
 30
0.0
 10
124.2274
 20
65.8912
 30
0.0
 10
124.5986
 20
66.7035
 30
0.0
 10
124.8751
 20
67.5555
 30
0.0
 10
125.0211
 20
68.471
 30
0.0
 10
125.0211
 20
68.471
 30
0.0
 10
125.9188
 20
67.8779
 30
0.0
 10
126.6822
 20
67.192
 30
0.0
 10
127.2931
 20
66.4008
 30
0.0
 10
127.2931
 20
66.4008
 30
0.0
 10
127.8345
 20
68.6289
 30
0.0
 10
128.927
 20
70.297
 30
0.0
 10
129.9159
 20
71.712
 30
0.0
 10
129.9159
 20
71.712
 30
0.0
 10
131.1608
 20
73.3572
 30
0.0
 10
130.9586
 20
75.1104
 30
0.0
 10
129.7175
 20
76.8053
 30
0.0
 10
129.7175
 20
76.8053
 30
0.0
 10
131.3503
 20
77.1976
 30
0.0
 10
132.8011
 20
77.0733
 30
0.0
 10
134.0831
 20
76.4745
 30
0.0
 10
134.0831
 20
76.4745
 30
0.0
 10
130.5397
 20
79.9839
 30
0.0
 10
126.288
 20
82.2041
 30
0.0
 10
120.457
 20
81.3694
 30
0.0
 10
120.457
 20
81.3694
 30
0.0
 10
118.0991
 20
80.8976
 30
0.0
 10
117.0435
 20
78.22
 30
0.0
 10
118.605
 20
76.1438
 30
0.0
 10
118.605
 20
76.1438
 30
0.0
 10
120.0186
 20
74.5155
 30
0.0
 10
122.4114
 20
74.6026
 30
0.0
 10
123.8966
 20
76.2761
 30
0.0
 10
123.8966
 20
76.2761
 30
0.0
 10
125.3418
 20
72.9262
 30
0.0
 10
122.8486
 20
69.6599
 30
0.0
 10
119.8617
 20
69.3307
 30
0.0
 10
119.8617
 20
69.3307
 30
0.0
 10
116.4365
 20
68.9543
 30
0.0
 10
114.379
 20
70.6996
 30
0.0
 10
113.5117
 20
74.2918
 30
0.0
 10
113.5117
 20
74.2918
 30
0.0
 10
111.8189
 20
73.7531
 30
0.0
 10
110.5302
 20
74.2351
 30
0.0
 10
109.6752
 20
75.8131
 30
0.0
 10
109.6752
 20
75.8131
 30
0.0
 10
109.6752
 20
75.8131
 30
0.0
 10
109.6091
 20
58.1521
 30
0.0
 10
109.6091
 20
58.1521
 30
0.0
  0
SPLINE
  5
5A
330
1F
100
AcDbEntity
  8
layer 1
 62
     7
370
    20
100
AcDbSpline
210
0.0
220
0.0
230
1.0
 70
    11
 71
     3
 72
    76
 73
    72
 74
     0
 42
0.0000000001
 43
0.0000000001
 12
1.0
 22
0.0
 32
0.0
 13
1.0
 23
0.0
 33
0.0
 40
0.0
 40
0.0
 40
0.0
 40
0.0
 40
0.0526315789473684
 40
0.0526315789473684
 40
0.0526315789473684
 40
0.0526315789473684
 40
0.1052631578947368
 40
0.1052631578947368
 40
0.1052631578947368
 40
0.1052631578947368
 40
0.1578947368421053
 40
0.1578947368421053
 40
0.1578947368421053
 40
0.1578947368421053
 40
0.2105263157894737
 40
0.2105263157894737
 40
0.2105263157894737
 40
0.2105263157894737
 40
0.2631578947368421
 40
0.2631578947368421
 40
0.2631578947368421
 40
0.2631578947368421
 40
0.3157894736842105
 40
0.3157894736842105
 40
0.3157894736842105
 40
0.3157894736842105
 40
0.3684210526315789
 40
0.3684210526315789
 40
0.3684210526315789
 40
0.3684210526315789
 40
0.4210526315789473
 40
0.4210526315789473
 40
0.4210526315789473
 40
0.4210526315789473
 40
0.4736842105263158
 40
0.4736842105263158
 40
0.4736842105263158
 40
0.4736842105263158
 40
0.5263157894736842
 40
0.5263157894736842
 40
0.5263157894736842
 40
0.5263157894736842
 40
0.5789473684210527
 40
0.5789473684210527
 40
0.5789473684210527
 40
0.5789473684210527
 40
0.631578947368421
 40
0.631578947368421
 40
0.631578947368421
 40
0.631578947368421
 40
0.6842105263157895
 40
0.6842105263157895
 40
0.6842105263157895
 40
0.6842105263157895
 40
0.7368421052631579
 40
0.7368421052631579
 40
0.7368421052631579
 40
0.7368421052631579
 40
0.7894736842105263
 40
0.7894736842105263
 40
0.7894736842105263
 40
0.7894736842105263
 40
0.8421052631578947
 40
0.8421052631578947
 40
0.8421052631578947
 40
0.8421052631578947
 40
0.8947368421052632
 40
0.8947368421052632
 40
0.8947368421052632
 40
0.8947368421052632
 40
1.0
 40
1.0
 40
1.0
 40
1.0
 10
192.1264
 20
-41.5786
 30
0.0
 10
189.8318
 20
-42.0619
 30
0.0
 10
187.8063
 20
-41.5588
 30
0.0
 10
185.9087
 20
-40.5864
 30
0.0
 10
185.9087
 20
-40.5864
 30
0.0
 10
185.9891
 20
-41.7298
 30
0.0
 10
185.9826
 20
-42.8384
 30
0.0
 10
185.8425
 20
-43.8937
 30
0.0
 10
185.8425
 20
-43.8937
 30
0.0
 10
183.992
 20
-42.5601
 30
0.0
 10
179.9153
 20
-43.188
 30
0.0
 10
179.3602
 20
-38.4036
 30
0.0
 10
179.3602
 20
-38.4036
 30
0.0
 10
179.2341
 20
-36.614
 30
0.0
 10
177.8051
 20
-35.9375
 30
0.0
 10
176.7805
 20
-36.6178
 30
0.0
 10
176.7805
 20
-36.6178
 30
0.0
 10
175.4765
 20
-37.549
 30
0.0
 10
175.6883
 20
-39.2013
 30
0.0
 10
176.7144
 20
-40.8511
 30
0.0
 10
176.7144
 20
-40.8511
 30
0.0
 10
178.4733
 20
-43.5025
 30
0.0
 10
178.8361
 20
-46.3134
 30
0.0
 10
177.5081
 20
-49.3178
 30
0.0
 10
177.5081
 20
-49.3178
 30
0.0
 10
177.1369
 20
-50.13
 30
0.0
 10
176.8604
 20
-50.9821
 30
0.0
 10
176.7144
 20
-51.8975
 30
0.0
 10
176.7144
 20
-51.8975
 30
0.0
 10
175.8167
 20
-51.3044
 30
0.0
 10
175.0533
 20
-50.6186
 30
0.0
 10
174.4424
 20
-49.8272
 30
0.0
 10
174.4424
 20
-49.8272
 30
0.0
 10
173.901
 20
-52.0554
 30
0.0
 10
172.8085
 20
-53.7235
 30
0.0
 10
171.8196
 20
-55.1386
 30
0.0
 10
171.8196
 20
-55.1386
 30
0.0
 10
170.5747
 20
-56.7837
 30
0.0
 10
170.7769
 20
-58.5369
 30
0.0
 10
172.018
 20
-60.2318
 30
0.0
 10
172.018
 20
-60.2318
 30
0.0
 10
170.3852
 20
-60.624
 30
0.0
 10
168.9344
 20
-60.4998
 30
0.0
 10
167.6524
 20
-59.9011
 30
0.0
 10
167.6524
 20
-59.9011
 30
0.0
 10
171.1958
 20
-63.4104
 30
0.0
 10
175.4475
 20
-65.6306
 30
0.0
 10
181.2785
 20
-64.7959
 30
0.0
 10
181.2785
 20
-64.7959
 30
0.0
 10
183.6364
 20
-64.3241
 30
0.0
 10
184.692
 20
-61.6465
 30
0.0
 10
183.1305
 20
-59.5703
 30
0.0
 10
183.1305
 20
-59.5703
 30
0.0
 10
181.7169
 20
-57.9419
 30
0.0
 10
179.3241
 20
-58.029
 30
0.0
 10
177.8389
 20
-59.7027
 30
0.0
 10
177.8389
 20
-59.7027
 30
0.0
 10
176.3937
 20
-56.3526
 30
0.0
 10
178.8869
 20
-53.0863
 30
0.0
 10
181.8738
 20
-52.7572
 30
0.0
 10
181.8738
 20
-52.7572
 30
0.0
 10
185.299
 20
-52.3809
 30
0.0
 10
187.3565
 20
-54.1261
 30
0.0
 10
188.2238
 20
-57.7183
 30
0.0
 10
188.2238
 20
-57.7183
 30
0.0
 10
189.9166
 20
-57.1796
 30
0.0
 10
191.2053
 20
-57.6616
 30
0.0
 10
192.0603
 20
-59.2396
 30
0.0
 10
192.0603
 20
-59.2396
 30
0.0
 10
192.0603
 20
-59.2396
 30
0.0
 10
192.1264
 20
-41.5786
 30
0.0
 10
192.1264
 20
-41.5786
 30
0.0
  0
SPLINE
  5
5B
330
1F
100
AcDbEntity
  8
layer 1
 62
     7
370
    20
100
AcDbSpline
210
0.0
220
0.0
230
1.0
 70
    11
 71
     3
 72
    76
 73
    72
 74
     0
 42
0.0000000001
 43
0.0000000001
 12
1.0
 22
0.0
 32
0.0
 13
1.0
 23
0.0
 33
0.0
 40
0.0
 40
0.0
 40
0.0
 40
0.0
 40
0.0526315789473684
 40
0.0526315789473684
 40
0.0526315789473684
 40
0.0526315789473684
 40
0.1052631578947368
 40
0.1052631578947368
 40
0.1052631578947368
 40
0.1052631578947368
 40
0.1578947368421053
 40
0.1578947368421053
 40
0.1578947368421053
 40
0.1578947368421053
 40
0.2105263157894737
 40
0.2105263157894737
 40
0.2105263157894737
 40
0.2105263157894737
 40
0.2631578947368421
 40
0.2631578947368421
 40
0.2631578947368421
 40
0.2631578947368421
 40
0.3157894736842105
 40
0.3157894736842105
 40
0.3157894736842105
 40
0.3157894736842105
 40
0.3684210526315789
 40
0.3684210526315789
 40
0.3684210526315789
 40
0.3684210526315789
 40
0.4210526315789473
 40
0.4210526315789473
 40
0.4210526315789473
 40
0.4210526315789473
 40
0.4736842105263158
 40
0.4736842105263158
 40
0.4736842105263158
 40
0.4736842105263158
 40
0.5263157894736842
 40
0.5263157894736842
 40
0.5263157894736842
 40
0.5263157894736842
 40
0.5789473684210527
 40
0.5789473684210527
 40
0.5789473684210527
 40
0.5789473684210527
 40
0.631578947368421
 40
0.631578947368421
 40
0.631578947368421
 40
0.631578947368421
 40
0.6842105263157895
 40
0.6842105263157895
 40
0.6842105263157895
 40
0.6842105263157895
 40
0.7368421052631579
 40
0.7368421052631579
 40
0.7368421052631579
 40
0.7368421052631579
 40
0.7894736842105263
 40
0.7894736842105263
 40
0.7894736842105263
 40
0.7894736842105263
 40
0.8421052631578947
 40
0.8421052631578947
 40
0.8421052631578947
 40
0.8421052631578947
 40
0.8947368421052632
 40
0.8947368421052632
 40
0.8947368421052632
 40
0.8947368421052632
 40
1.0
 40
1.0
 40
1.0
 40
1.0
 10
192.1718
 20
58.108
 30
0.0
 10
189.8772
 20
58.5913
 30
0.0
 10
187.8517
 20
58.0883
 30
0.0
 10
185.9541
 20
57.1159
 30
0.0
 10
185.9541
 20
57.1159
 30
0.0
 10
186.0345
 20
58.2592
 30
0.0
 10
186.028
 20
59.3678
 30
0.0
 10
185.8879
 20
60.4231
 30
0.0
 10
185.8879
 20
60.4231
 30
0.0
 10
184.0374
 20
59.0894
 30
0.0
 10
179.9607
 20
59.7174
 30
0.0
 10
179.4056
 20
54.933
 30
0.0
 10
179.4056
 20
54.933
 30
0.0
 10
179.2795
 20
53.1434
 30
0.0
 10
177.8505
 20
52.4669
 30
0.0
 10
176.8259
 20
53.1471
 30
0.0
 10
176.8259
 20
53.1471
 30
0.0
 10
175.5219
 20
54.0784
 30
0.0
 10
175.7337
 20
55.7306
 30
0.0
 10
176.7598
 20
57.3804
 30
0.0
 10
176.7598
 20
57.3804
 30
0.0
 10
178.5187
 20
60.032
 30
0.0
 10
178.8815
 20
62.8428
 30
0.0
 10
177.5535
 20
65.8471
 30
0.0
 10
177.5535
 20
65.8471
 30
0.0
 10
177.1823
 20
66.6594
 30
0.0
 10
176.9058
 20
67.5114
 30
0.0
 10
176.7598
 20
68.4269
 30
0.0
 10
176.7598
 20
68.4269
 30
0.0
 10
175.8621
 20
67.8338
 30
0.0
 10
175.0987
 20
67.1479
 30
0.0
 10
174.4878
 20
66.3567
 30
0.0
 10
174.4878
 20
66.3567
 30
0.0
 10
173.9464
 20
68.5848
 30
0.0
 10
172.8539
 20
70.2529
 30
0.0
 10
171.865
 20
71.6679
 30
0.0
 10
171.865
 20
71.6679
 30
0.0
 10
170.6201
 20
73.3132
 30
0.0
 10
170.8223
 20
75.0664
 30
0.0
 10
172.0634
 20
76.7612
 30
0.0
 10
172.0634
 20
76.7612
 30
0.0
 10
170.4306
 20
77.1535
 30
0.0
 10
168.9798
 20
77.0292
 30
0.0
 10
167.6978
 20
76.4304
 30
0.0
 10
167.6978
 20
76.4304
 30
0.0
 10
171.2412
 20
79.9398
 30
0.0
 10
175.4929
 20
82.16
 30
0.0
 10
181.3239
 20
81.3253
 30
0.0
 10
181.3239
 20
81.3253
 30
0.0
 10
183.6818
 20
80.8535
 30
0.0
 10
184.7374
 20
78.1759
 30
0.0
 10
183.1759
 20
76.0997
 30
0.0
 10
183.1759
 20
76.0997
 30
0.0
 10
181.7623
 20
74.4714
 30
0.0
 10
179.3695
 20
74.5585
 30
0.0
 10
177.8843
 20
76.232
 30
0.0
 10
177.8843
 20
76.232
 30
0.0
 10
176.4391
 20
72.8821
 30
0.0
 10
178.9323
 20
69.6158
 30
0.0
 10
181.9192
 20
69.2867
 30
0.0
 10
181.9192
 20
69.2867
 30
0.0
 10
185.3444
 20
68.9102
 30
0.0
 10
187.4019
 20
70.6555
 30
0.0
 10
188.2692
 20
74.2477
 30
0.0
 10
188.2692
 20
74.2477
 30
0.0
 10
189.962
 20
73.7089
 30
0.0
 10
191.2507
 20
74.1909
 30
0.0
 10
192.1057
 20
75.7691
 30
0.0
 10
192.1057
 20
75.7691
 30
0.0
 10
192.1057
 20
75.7691
 30
0.0
 10
192.1718
 20
58.108
 30
0.0
 10
192.1718
 20
58.108
 30
0.0
  0
SPLINE
  5
5C
330
1F
100
AcDbEntity
  8
layer 1
 62
     7
370
    20
100
AcDbSpline
210
0.0
220
0.0
230
1.0
 70
    11
 71
     3
 72
    48
 73
    44
 74
     0
 42
0.0000000001
 43
0.0000000001
 12
1.0
 22
0.0
 32
0.0
 13
1.0
 23
0.0
 33
0.0
 40
0.0
 40
0.0
 40
0.0
 40
0.0
 40
0.0833333333333333
 40
0.0833333333333333
 40
0.0833333333333333
 40
0.0833333333333333
 40
0.1666666666666667
 40
0.1666666666666667
 40
0.1666666666666667
 40
0.1666666666666667
 40
0.25
 40
0.25
 40
0.25
 40
0.25
 40
0.3333333333333333
 40
0.3333333333333333
 40
0.3333333333333333
 40
0.3333333333333333
 40
0.4166666666666667
 40
0.4166666666666667
 40
0.4166666666666667
 40
0.4166666666666667
 40
0.5
 40
0.5
 40
0.5
 40
0.5
 40
0.5833333333333334
 40
0.5833333333333334
 40
0.5833333333333334
 40
0.5833333333333334
 40
0.6666666666666666
 40
0.6666666666666666
 40
0.6666666666666666
 40
0.6666666666666666
 40
0.75
 40
0.75
 40
0.75
 40
0.75
 40
0.8333333333333334
 40
0.8333333333333334
 40
0.8333333333333334
 40
0.8333333333333334
 40
1.0
 40
1.0
 40
1.0
 40
1.0
 10
148.1363
 20
-28.8474
 30
0.0
 10
148.6234
 20
-42.5196
 30
0.0
 10
143.3282
 20
-50.4094
 30
0.0
 10
137.0899
 20
-57.3563
 30
0.0
 10
137.0899
 20
-57.3563
 30
0.0
 10
138.7255
 20
-53.3183
 30
0.0
 10
139.2465
 20
-49.5321
 30
0.0
 10
138.1483
 20
-46.1115
 30
0.0
 10
138.1483
 20
-46.1115
 30
0.0
 10
139.6035
 20
-46.7137
 30
0.0
 10
141.0588
 20
-46.7
 30
0.0
 10
142.5139
 20
-46.1115
 30
0.0
 10
142.5139
 20
-46.1115
 30
0.0
 10
141.8118
 20
-45.4877
 30
0.0
 10
141.2539
 20
-44.5748
 30
0.0
 10
140.9925
 20
-43.0688
 30
0.0
 10
140.9925
 20
-43.0688
 30
0.0
 10
140.3581
 20
-39.3616
 30
0.0
 10
137.1657
 20
-38.0092
 30
0.0
 10
133.3858
 20
-37.1156
 30
0.0
 10
133.3858
 20
-37.1156
 30
0.0
 10
130.0465
 20
-36.7458
 30
0.0
 10
130.6213
 20
-32.2333
 30
0.0
 10
133.518
 20
-33.7422
 30
0.0
 10
133.518
 20
-33.7422
 30
0.0
 10
134.6156
 20
-34.4581
 30
0.0
 10
135.7499
 20
-34.4394
 30
0.0
 10
136.8915
 20
-34.2714
 30
0.0
 10
136.8915
 20
-34.2714
 30
0.0
 10
137.7282
 20
-34.0747
 30
0.0
 10
138.2379
 20
-34.336
 30
0.0
 10
138.6113
 20
-34.7345
 30
0.0
 10
138.6113
 20
-34.7345
 30
0.0
 10
138.7597
 20
-33.4336
 30
0.0
 10
138.5732
 20
-32.1328
 30
0.0
 10
137.8837
 20
-30.8319
 30
0.0
 10
137.8837
 20
-30.8319
 30
0.0
 10
140.1828
 20
-30.907
 30
0.0
 10
142.3317
 20
-30.4482
 30
0.0
 10
144.2337
 20
-29.1121
 30
0.0
 10
144.2337
 20
-29.1121
 30
0.0
 10
145.4549
 20
-28.1922
 30
0.0
 10
146.9536
 20
-28.1082
 30
0.0
 10
148.1363
 20
-28.8474
 30
0.0
  0
SPLINE
  5
5D
330
1F
100
AcDbEntity
  8
layer 1
 62
     7
370
    20
100
AcDbSpline
210
0.0
220
0.0
230
1.0
 70
    11
 71
     3
 72
    48
 73
    44
 74
     0
 42
0.0000000001
 43
0.0000000001
 12
1.0
 22
0.0
 32
0.0
 13
1.0
 23
0.0
 33
0.0
 40
0.0
 40
0.0
 40
0.0
 40
0.0
 40
0.0833333333333333
 40
0.0833333333333333
 40
0.0833333333333333
 40
0.0833333333333333
 40
0.1666666666666667
 40
0.1666666666666667
 40
0.1666666666666667
 40
0.1666666666666667
 40
0.25
 40
0.25
 40
0.25
 40
0.25
 40
0.3333333333333333
 40
0.3333333333333333
 40
0.3333333333333333
 40
0.3333333333333333
 40
0.4166666666666667
 40
0.4166666666666667
 40
0.4166666666666667
 40
0.4166666666666667
 40
0.5
 40
0.5
 40
0.5
 40
0.5
 40
0.5833333333333334
 40
0.5833333333333334
 40
0.5833333333333334
 40
0.5833333333333334
 40
0.6666666666666666
 40
0.6666666666666666
 40
0.6666666666666666
 40
0.6666666666666666
 40
0.75
 40
0.75
 40
0.75
 40
0.75
 40
0.8333333333333334
 40
0.8333333333333334
 40
0.8333333333333334
 40
0.8333333333333334
 40
1.0
 40
1.0
 40
1.0
 40
1.0
 10
148.1817
 20
45.3769
 30
0.0
 10
148.6688
 20
59.0489
 30
0.0
 10
143.3736
 20
66.9388
 30
0.0
 10
137.1353
 20
73.8857
 30
0.0
 10
137.1353
 20
73.8857
 30
0.0
 10
138.7709
 20
69.8477
 30
0.0
 10
139.2919
 20
66.0616
 30
0.0
 10
138.1937
 20
62.641
 30
0.0
 10
138.1937
 20
62.641
 30
0.0
 10
139.6489
 20
63.243
 30
0.0
 10
141.1042
 20
63.2295
 30
0.0
 10
142.5593
 20
62.641
 30
0.0
 10
142.5593
 20
62.641
 30
0.0
 10
141.8572
 20
62.0171
 30
0.0
 10
141.2993
 20
61.1043
 30
0.0
 10
141.0379
 20
59.5982
 30
0.0
 10
141.0379
 20
59.5982
 30
0.0
 10
140.4035
 20
55.891
 30
0.0
 10
137.2111
 20
54.5386
 30
0.0
 10
133.4312
 20
53.6451
 30
0.0
 10
133.4312
 20
53.6451
 30
0.0
 10
130.0919
 20
53.2752
 30
0.0
 10
130.6667
 20
48.7627
 30
0.0
 10
133.5634
 20
50.2716
 30
0.0
 10
133.5634
 20
50.2716
 30
0.0
 10
134.661
 20
50.9874
 30
0.0
 10
135.7953
 20
50.9688
 30
0.0
 10
136.9369
 20
50.8009
 30
0.0
 10
136.9369
 20
50.8009
 30
0.0
 10
137.7736
 20
50.604
 30
0.0
 10
138.2833
 20
50.8653
 30
0.0
 10
138.6567
 20
51.2638
 30
0.0
 10
138.6567
 20
51.2638
 30
0.0
 10
138.8051
 20
49.963
 30
0.0
 10
138.6186
 20
48.6621
 30
0.0
 10
137.9291
 20
47.3613
 30
0.0
 10
137.9291
 20
47.3613
 30
0.0
 10
140.2282
 20
47.4363
 30
0.0
 10
142.3771
 20
46.9777
 30
0.0
 10
144.2791
 20
45.6414
 30
0.0
 10
144.2791
 20
45.6414
 30
0.0
 10
145.5003
 20
44.7215
 30
0.0
 10
146.999
 20
44.6376
 30
0.0
 10
148.1817
 20
45.3769
 30
0.0
  0
SPLINE
  5
5E
330
1F
100
AcDbEntity
  8
layer 1
 62
     7
370
    20
100
AcDbSpline
210
0.0
220
0.0
230
1.0
 70
    11
 71
     3
 72
    48
 73
    44
 74
     0
 42
0.0000000001
 43
0.0000000001
 12
1.0
 22
0.0
 32
0.0
 13
1.0
 23
0.0
 33
0.0
 40
0.0
 40
0.0
 40
0.0
 40
0.0
 40
0.0833333333333333
 40
0.0833333333333333
 40
0.0833333333333333
 40
0.0833333333333333
 40
0.1666666666666667
 40
0.1666666666666667
 40
0.1666666666666667
 40
0.1666666666666667
 40
0.25
 40
0.25
 40
0.25
 40
0.25
 40
0.3333333333333333
 40
0.3333333333333333
 40
0.3333333333333333
 40
0.3333333333333333
 40
0.4166666666666667
 40
0.4166666666666667
 40
0.4166666666666667
 40
0.4166666666666667
 40
0.5
 40
0.5
 40
0.5
 40
0.5
 40
0.5833333333333334
 40
0.5833333333333334
 40
0.5833333333333334
 40
0.5833333333333334
 40
0.6666666666666666
 40
0.6666666666666666
 40
0.6666666666666666
 40
0.6666666666666666
 40
0.75
 40
0.75
 40
0.75
 40
0.75
 40
0.8333333333333334
 40
0.8333333333333334
 40
0.8333333333333334
 40
0.8333333333333334
 40
1.0
 40
1.0
 40
1.0
 40
1.0
 10
153.5538
 20
-28.8033
 30
0.0
 10
153.0667
 20
-42.4755
 30
0.0
 10
158.3619
 20
-50.3653
 30
0.0
 10
164.6002
 20
-57.3122
 30
0.0
 10
164.6002
 20
-57.3122
 30
0.0
 10
162.9646
 20
-53.2742
 30
0.0
 10
162.4436
 20
-49.4881
 30
0.0
 10
163.5418
 20
-46.0674
 30
0.0
 10
163.5418
 20
-46.0674
 30
0.0
 10
162.0866
 20
-46.6695
 30
0.0
 10
160.6313
 20
-46.656
 30
0.0
 10
159.1762
 20
-46.0674
 30
0.0
 10
159.1762
 20
-46.0674
 30
0.0
 10
159.8783
 20
-45.4436
 30
0.0
 10
160.4362
 20
-44.5307
 30
0.0
 10
160.6976
 20
-43.0247
 30
0.0
 10
160.6976
 20
-43.0247
 30
0.0
 10
161.332
 20
-39.3175
 30
0.0
 10
164.5244
 20
-37.9651
 30
0.0
 10
168.3043
 20
-37.0715
 30
0.0
 10
168.3043
 20
-37.0715
 30
0.0
 10
171.6436
 20
-36.7017
 30
0.0
 10
171.0688
 20
-32.1892
 30
0.0
 10
168.1721
 20
-33.6981
 30
0.0
 10
168.1721
 20
-33.6981
 30
0.0
 10
167.0745
 20
-34.414
 30
0.0
 10
165.9402
 20
-34.3953
 30
0.0
 10
164.7986
 20
-34.2273
 30
0.0
 10
164.7986
 20
-34.2273
 30
0.0
 10
163.9619
 20
-34.0306
 30
0.0
 10
163.4522
 20
-34.2919
 30
0.0
 10
163.0788
 20
-34.6904
 30
0.0
 10
163.0788
 20
-34.6904
 30
0.0
 10
162.9304
 20
-33.3895
 30
0.0
 10
163.1169
 20
-32.0887
 30
0.0
 10
163.8064
 20
-30.7878
 30
0.0
 10
163.8064
 20
-30.7878
 30
0.0
 10
161.5073
 20
-30.8629
 30
0.0
 10
159.3584
 20
-30.4041
 30
0.0
 10
157.4564
 20
-29.0679
 30
0.0
 10
157.4564
 20
-29.0679
 30
0.0
 10
156.2352
 20
-28.1481
 30
0.0
 10
154.7365
 20
-28.0641
 30
0.0
 10
153.5538
 20
-28.8033
 30
0.0
  0
SPLINE
  5
5F
330
1F
100
AcDbEntity
  8
layer 1
 62
     7
370
    20
100
AcDbSpline
210
0.0
220
0.0
230
1.0
 70
    11
 71
     3
 72
    48
 73
    44
 74
     0
 42
0.0000000001
 43
0.0000000001
 12
1.0
 22
0.0
 32
0.0
 13
1.0
 23
0.0
 33
0.0
 40
0.0
 40
0.0
 40
0.0
 40
0.0
 40
0.0833333333333333
 40
0.0833333333333333
 40
0.0833333333333333
 40
0.0833333333333333
 40
0.1666666666666667
 40
0.1666666666666667
 40
0.1666666666666667
 40
0.1666666666666667
 40
0.25
 40
0.25
 40
0.25
 40
0.25
 40
0.3333333333333333
 40
0.3333333333333333
 40
0.3333333333333333
 40
0.3333333333333333
 40
0.4166666666666667
 40
0.4166666666666667
 40
0.4166666666666667
 40
0.4166666666666667
 40
0.5
 40
0.5
 40
0.5
 40
0.5
 40
0.5833333333333334
 40
0.5833333333333334
 40
0.5833333333333334
 40
0.5833333333333334
 40
0.6666666666666666
 40
0.6666666666666666
 40
0.6666666666666666
 40
0.6666666666666666
 40
0.75
 40
0.75
 40
0.75
 40
0.75
 40
0.8333333333333334
 40
0.8333333333333334
 40
0.8333333333333334
 40
0.8333333333333334
 40
1.0
 40
1.0
 40
1.0
 40
1.0
 10
153.5992
 20
45.3328
 30
0.0
 10
153.1121
 20
59.0048
 30
0.0
 10
158.4073
 20
66.8947
 30
0.0
 10
164.6456
 20
73.8416
 30
0.0
 10
164.6456
 20
73.8416
 30
0.0
 10
163.01
 20
69.8036
 30
0.0
 10
162.489
 20
66.0175
 30
0.0
 10
163.5872
 20
62.5969
 30
0.0
 10
163.5872
 20
62.5969
 30
0.0
 10
162.132
 20
63.1989
 30
0.0
 10
160.6767
 20
63.1854
 30
0.0
 10
159.2216
 20
62.5969
 30
0.0
 10
159.2216
 20
62.5969
 30
0.0
 10
159.9237
 20
61.9729
 30
0.0
 10
160.4816
 20
61.0602
 30
0.0
 10
160.743
 20
59.5541
 30
0.0
 10
160.743
 20
59.5541
 30
0.0
 10
161.3774
 20
55.8469
 30
0.0
 10
164.5698
 20
54.4944
 30
0.0
 10
168.3497
 20
53.601
 30
0.0
 10
168.3497
 20
53.601
 30
0.0
 10
171.689
 20
53.2311
 30
0.0
 10
171.1142
 20
48.7186
 30
0.0
 10
168.2175
 20
50.2276
 30
0.0
 10
168.2175
 20
50.2276
 30
0.0
 10
167.1199
 20
50.9433
 30
0.0
 10
165.9856
 20
50.9247
 30
0.0
 10
164.844
 20
50.7568
 30
0.0
 10
164.844
 20
50.7568
 30
0.0
 10
164.0073
 20
50.5599
 30
0.0
 10
163.4976
 20
50.8212
 30
0.0
 10
163.1242
 20
51.2197
 30
0.0
 10
163.1242
 20
51.2197
 30
0.0
 10
162.9758
 20
49.9188
 30
0.0
 10
163.1623
 20
48.618
 30
0.0
 10
163.8518
 20
47.3171
 30
0.0
 10
163.8518
 20
47.3171
 30
0.0
 10
161.5527
 20
47.3922
 30
0.0
 10
159.4038
 20
46.9336
 30
0.0
 10
157.5018
 20
45.5973
 30
0.0
 10
157.5018
 20
45.5973
 30
0.0
 10
156.2806
 20
44.6774
 30
0.0
 10
154.7819
 20
44.5935
 30
0.0
 10
153.5992
 20
45.3328
 30
0.0
  0
SPLINE
  5
60
330
1F
100
AcDbEntity
  8
layer 1
 62
     7
370
    20
100
AcDbSpline
210
0.0
220
0.0
230
1.0
 70
    11
 71
     3
 72
    28
 73
    24
 74
     0
 42
0.0000000001
 43
0.0000000001
 12
1.0
 22
0.0
 32
0.0
 13
1.0
 23
0.0
 33
0.0
 40
0.0
 40
0.0
 40
0.0
 40
0.0
 40
0.1428571428571428
 40
0.1428571428571428
 40
0.1428571428571428
 40
0.1428571428571428
 40
0.2857142857142857
 40
0.2857142857142857
 40
0.2857142857142857
 40
0.2857142857142857
 40
0.4285714285714285
 40
0.4285714285714285
 40
0.4285714285714285
 40
0.4285714285714285
 40
0.5714285714285714
 40
0.5714285714285714
 40
0.5714285714285714
 40
0.5714285714285714
 40
0.7142857142857143
 40
0.7142857142857143
 40
0.7142857142857143
 40
0.7142857142857143
 40
1.0
 40
1.0
 40
1.0
 40
1.0
 10
150.8244
 20
-49.9474
 30
0.0
 10
143.7769
 20
-57.4853
 30
0.0
 10
142.4105
 20
-69.5408
 30
0.0
 10
146.9219
 20
-73.3962
 30
0.0
 10
146.9219
 20
-73.3962
 30
0.0
 10
140.2782
 20
-75.7942
 30
0.0
 10
135.6125
 20
-65.1301
 30
0.0
 10
142.0271
 20
-58.0668
 30
0.0
 10
142.0271
 20
-58.0668
 30
0.0
 10
146.1061
 20
-52.7124
 30
0.0
 10
149.2227
 20
-47.2207
 30
0.0
 10
150.8223
 20
-41.4896
 30
0.0
 10
150.8223
 20
-41.4896
 30
0.0
 10
152.4219
 20
-47.1726
 30
0.0
 10
155.584
 20
-52.6683
 30
0.0
 10
159.663
 20
-58.0227
 30
0.0
 10
159.663
 20
-58.0227
 30
0.0
 10
166.0776
 20
-65.0861
 30
0.0
 10
161.4119
 20
-75.7501
 30
0.0
 10
154.7682
 20
-73.3521
 30
0.0
 10
154.7682
 20
-73.3521
 30
0.0
 10
159.2796
 20
-69.4967
 30
0.0
 10
157.8719
 20
-57.4853
 30
0.0
 10
150.8244
 20
-49.9474
 30
0.0
  0
SPLINE
  5
61
330
1F
100
AcDbEntity
  8
layer 1
 62
     7
370
    20
100
AcDbSpline
210
0.0
220
0.0
230
1.0
 70
    11
 71
     3
 72
    28
 73
    24
 74
     0
 42
0.0000000001
 43
0.0000000001
 12
1.0
 22
0.0
 32
0.0
 13
1.0
 23
0.0
 33
0.0
 40
0.0
 40
0.0
 40
0.0
 40
0.0
 40
0.1428571428571428
 40
0.1428571428571428
 40
0.1428571428571428
 40
0.1428571428571428
 40
0.2857142857142857
 40
0.2857142857142857
 40
0.2857142857142857
 40
0.2857142857142857
 40
0.4285714285714285
 40
0.4285714285714285
 40
0.4285714285714285
 40
0.4285714285714285
 40
0.5714285714285714
 40
0.5714285714285714
 40
0.5714285714285714
 40
0.5714285714285714
 40
0.7142857142857143
 40
0.7142857142857143
 40
0.7142857142857143
 40
0.7142857142857143
 40
1.0
 40
1.0
 40
1.0
 40
1.0
 10
150.8904
 20
58.0211
 30
0.0
 10
149.2681
 20
63.7502
 30
0.0
 10
146.1515
 20
69.2418
 30
0.0
 10
142.0725
 20
74.5961
 30
0.0
 10
142.0725
 20
74.5961
 30
0.0
 10
135.6579
 20
81.6596
 30
0.0
 10
140.3236
 20
92.3235
 30
0.0
 10
146.9673
 20
89.9256
 30
0.0
 10
146.9673
 20
89.9256
 30
0.0
 10
142.4559
 20
86.0702
 30
0.0
 10
143.8319
 20
74.0032
 30
0.0
 10
150.8643
 20
66.449
 30
0.0
 10
150.8643
 20
66.449
 30
0.0
 10
157.8966
 20
73.9707
 30
0.0
 10
159.325
 20
86.0261
 30
0.0
 10
154.8136
 20
89.8815
 30
0.0
 10
154.8136
 20
89.8815
 30
0.0
 10
161.4573
 20
92.2794
 30
0.0
 10
166.123
 20
81.6155
 30
0.0
 10
159.7084
 20
74.552
 30
0.0
 10
159.7084
 20
74.552
 30
0.0
 10
155.6294
 20
69.1978
 30
0.0
 10
152.5128
 20
63.7061
 30
0.0
 10
150.8904
 20
58.0211
 30
0.0
  0
SPLINE
  5
62
330
1F
100
AcDbEntity
  8
layer 1
 62
     7
370
    20
100
AcDbSpline
210
0.0
220
0.0
230
1.0
 70
    11
 71
     3
 72
    12
 73
     8
 74
     0
 42
0.0000000001
 43
0.0000000001
 12
1.0
 22
0.0
 32
0.0
 13
1.0
 23
0.0
 33
0.0
 40
0.0
 40
0.0
 40
0.0
 40
0.0
 40
0.3333333333333333
 40
0.3333333333333333
 40
0.3333333333333333
 40
0.3333333333333333
 40
1.0
 40
1.0
 40
1.0
 40
1.0
 10
150.8699
 20
73.2028
 30
0.0
 10
147.656
 20
79.0872
 30
0.0
 10
147.4527
 20
86.1078
 30
0.0
 10
150.8904
 20
88.5639
 30
0.0
 10
150.8904
 20
88.5639
 30
0.0
 10
154.3282
 20
86.0637
 30
0.0
 10
154.0838
 20
79.0872
 30
0.0
 10
150.8699
 20
73.2028
 30
0.0
  0
SPLINE
  5
63
330
1F
100
AcDbEntity
  8
layer 1
 62
     7
370
    20
100
AcDbSpline
210
0.0
220
0.0
230
1.0
 70
    11
 71
     3
 72
    12
 73
     8
 74
     0
 42
0.0000000001
 43
0.0000000001
 12
1.0
 22
0.0
 32
0.0
 13
1.0
 23
0.0
 33
0.0
 40
0.0
 40
0.0
 40
0.0
 40
0.0
 40
0.3333333333333333
 40
0.3333333333333333
 40
0.3333333333333333
 40
0.3333333333333333
 40
1.0
 40
1.0
 40
1.0
 40
1.0
 10
150.8244
 20
-71.9968
 30
0.0
 10
154.3145
 20
-69.5118
 30
0.0
 10
154.0384
 20
-62.628
 30
0.0
 10
150.8245
 20
-56.7437
 30
0.0
 10
150.8245
 20
-56.7437
 30
0.0
 10
147.6106
 20
-62.628
 30
0.0
 10
147.3343
 20
-69.5258
 30
0.0
 10
150.8244
 20
-71.9968
 30
0.0
  0
SPLINE
  5
64
330
1F
100
AcDbEntity
  8
layer 1
 62
     7
370
    20
100
AcDbSpline
210
0.0
220
0.0
230
1.0
 70
    11
 71
     3
 72
    24
 73
    20
 74
     0
 42
0.0000000001
 43
0.0000000001
 12
1.0
 22
0.0
 32
0.0
 13
1.0
 23
0.0
 33
0.0
 40
0.0
 40
0.0
 40
0.0
 40
0.0
 40
0.1666666666666667
 40
0.1666666666666667
 40
0.1666666666666667
 40
0.1666666666666667
 40
0.3333333333333333
 40
0.3333333333333333
 40
0.3333333333333333
 40
0.3333333333333333
 40
0.5
 40
0.5
 40
0.5
 40
0.5
 40
0.6666666666666666
 40
0.6666666666666666
 40
0.6666666666666666
 40
0.6666666666666666
 40
1.0
 40
1.0
 40
1.0
 40
1.0
 10
109.583
 20
-62.7463
 30
0.0
 10
110.6359
 20
-64.9486
 30
0.0
 10
112.1462
 20
-66.4749
 30
0.0
 10
114.2132
 20
-67.1781
 30
0.0
 10
114.2132
 20
-67.1781
 30
0.0
 10
112.7331
 20
-68.5035
 30
0.0
 10
112.6287
 20
-70.2183
 30
0.0
 10
113.4856
 20
-72.2051
 30
0.0
 10
113.4856
 20
-72.2051
 30
0.0
 10
116.8817
 20
-70.2815
 30
0.0
 10
120.6725
 20
-69.4096
 30
0.0
 10
124.5982
 20
-68.8978
 30
0.0
 10
124.5982
 20
-68.8978
 30
0.0
 10
118.8718
 20
-71.5519
 30
0.0
 10
113.9865
 20
-75.3275
 30
0.0
 10
109.583
 20
-79.7458
 30
0.0
 10
109.583
 20
-79.7458
 30
0.0
 10
109.583
 20
-79.7458
 30
0.0
 10
109.583
 20
-62.7463
 30
0.0
 10
109.583
 20
-62.7463
 30
0.0
  0
SPLINE
  5
65
330
1F
100
AcDbEntity
  8
layer 1
 62
     7
370
    20
100
AcDbSpline
210
0.0
220
0.0
230
1.0
 70
    11
 71
     3
 72
    24
 73
    20
 74
     0
 42
0.0000000001
 43
0.0000000001
 12
1.0
 22
0.0
 32
0.0
 13
1.0
 23
0.0
 33
0.0
 40
0.0
 40
0.0
 40
0.0
 40
0.0
 40
0.1666666666666667
 40
0.1666666666666667
 40
0.1666666666666667
 40
0.1666666666666667
 40
0.3333333333333333
 40
0.3333333333333333
 40
0.3333333333333333
 40
0.3333333333333333
 40
0.5
 40
0.5
 40
0.5
 40
0.5
 40
0.6666666666666666
 40
0.6666666666666666
 40
0.6666666666666666
 40
0.6666666666666666
 40
1.0
 40
1.0
 40
1.0
 40
1.0
 10
109.6284
 20
79.2757
 30
0.0
 10
110.6813
 20
81.4781
 30
0.0
 10
112.1916
 20
83.0043
 30
0.0
 10
114.2586
 20
83.7075
 30
0.0
 10
114.2586
 20
83.7075
 30
0.0
 10
112.7785
 20
85.033
 30
0.0
 10
112.6741
 20
86.7476
 30
0.0
 10
113.531
 20
88.7346
 30
0.0
 10
113.531
 20
88.7346
 30
0.0
 10
116.9271
 20
86.811
 30
0.0
 10
120.7179
 20
85.939
 30
0.0
 10
124.6436
 20
85.4273
 30
0.0
 10
124.6436
 20
85.4273
 30
0.0
 10
118.9172
 20
88.0813
 30
0.0
 10
114.0319
 20
91.857
 30
0.0
 10
109.6284
 20
96.2752
 30
0.0
 10
109.6284
 20
96.2752
 30
0.0
 10
109.6284
 20
96.2752
 30
0.0
 10
109.6284
 20
79.2757
 30
0.0
 10
109.6284
 20
79.2757
 30
0.0
  0
SPLINE
  5
66
330
1F
100
AcDbEntity
  8
layer 1
 62
     7
370
    20
100
AcDbSpline
210
0.0
220
0.0
230
1.0
 70
    11
 71
     3
 72
    24
 73
    20
 74
     0
 42
0.0000000001
 43
0.0000000001
 12
1.0
 22
0.0
 32
0.0
 13
1.0
 23
0.0
 33
0.0
 40
0.0
 40
0.0
 40
0.0
 40
0.0
 40
0.1666666666666667
 40
0.1666666666666667
 40
0.1666666666666667
 40
0.1666666666666667
 40
0.3333333333333333
 40
0.3333333333333333
 40
0.3333333333333333
 40
0.3333333333333333
 40
0.5
 40
0.5
 40
0.5
 40
0.5
 40
0.6666666666666666
 40
0.6666666666666666
 40
0.6666666666666666
 40
0.6666666666666666
 40
1.0
 40
1.0
 40
1.0
 40
1.0
 10
192.1071
 20
-62.7022
 30
0.0
 10
191.0542
 20
-64.9045
 30
0.0
 10
189.5439
 20
-66.4308
 30
0.0
 10
187.4769
 20
-67.134
 30
0.0
 10
187.4769
 20
-67.134
 30
0.0
 10
188.957
 20
-68.4595
 30
0.0
 10
189.0614
 20
-70.1742
 30
0.0
 10
188.2045
 20
-72.161
 30
0.0
 10
188.2045
 20
-72.161
 30
0.0
 10
184.8084
 20
-70.2375
 30
0.0
 10
181.0176
 20
-69.3655
 30
0.0
 10
177.0919
 20
-68.8538
 30
0.0
 10
177.0919
 20
-68.8538
 30
0.0
 10
182.8183
 20
-71.5078
 30
0.0
 10
187.7036
 20
-75.2834
 30
0.0
 10
192.1071
 20
-79.7017
 30
0.0
 10
192.1071
 20
-79.7017
 30
0.0
 10
192.1071
 20
-79.7017
 30
0.0
 10
192.1071
 20
-62.7022
 30
0.0
 10
192.1071
 20
-62.7022
 30
0.0
  0
SPLINE
  5
67
330
1F
100
AcDbEntity
  8
layer 1
 62
     7
370
    20
100
AcDbSpline
210
0.0
220
0.0
230
1.0
 70
    11
 71
     3
 72
    24
 73
    20
 74
     0
 42
0.0000000001
 43
0.0000000001
 12
1.0
 22
0.0
 32
0.0
 13
1.0
 23
0.0
 33
0.0
 40
0.0
 40
0.0
 40
0.0
 40
0.0
 40
0.1666666666666667
 40
0.1666666666666667
 40
0.1666666666666667
 40
0.1666666666666667
 40
0.3333333333333333
 40
0.3333333333333333
 40
0.3333333333333333
 40
0.3333333333333333
 40
0.5
 40
0.5
 40
0.5
 40
0.5
 40
0.6666666666666666
 40
0.6666666666666666
 40
0.6666666666666666
 40
0.6666666666666666
 40
1.0
 40
1.0
 40
1.0
 40
1.0
 10
192.1525
 20
79.2316
 30
0.0
 10
191.0996
 20
81.434
 30
0.0
 10
189.5893
 20
82.9602
 30
0.0
 10
187.5223
 20
83.6633
 30
0.0
 10
187.5223
 20
83.6633
 30
0.0
 10
189.0024
 20
84.9889
 30
0.0
 10
189.1068
 20
86.7035
 30
0.0
 10
188.2499
 20
88.6905
 30
0.0
 10
188.2499
 20
88.6905
 30
0.0
 10
184.8538
 20
86.7669
 30
0.0
 10
181.063
 20
85.8949
 30
0.0
 10
177.1373
 20
85.3832
 30
0.0
 10
177.1373
 20
85.3832
 30
0.0
 10
182.8637
 20
88.0373
 30
0.0
 10
187.749
 20
91.8129
 30
0.0
 10
192.1525
 20
96.2311
 30
0.0
 10
192.1525
 20
96.2311
 30
0.0
 10
192.1525
 20
96.2311
 30
0.0
 10
192.1525
 20
79.2316
 30
0.0
 10
192.1525
 20
79.2316
 30
0.0
  0
SPLINE
  5
68
330
1F
100
AcDbEntity
  8
layer 1
 62
     7
370
    20
100
AcDbSpline
210
0.0
220
0.0
230
1.0
 70
    11
 71
     3
 72
    76
 73
    72
 74
     0
 42
0.0000000001
 43
0.0000000001
 12
1.0
 22
0.0
 32
0.0
 13
1.0
 23
0.0
 33
0.0
 40
0.0
 40
0.0
 40
0.0
 40
0.0
 40
0.0526315789473684
 40
0.0526315789473684
 40
0.0526315789473684
 40
0.0526315789473684
 40
0.1052631578947368
 40
0.1052631578947368
 40
0.1052631578947368
 40
0.1052631578947368
 40
0.1578947368421053
 40
0.1578947368421053
 40
0.1578947368421053
 40
0.1578947368421053
 40
0.2105263157894737
 40
0.2105263157894737
 40
0.2105263157894737
 40
0.2105263157894737
 40
0.2631578947368421
 40
0.2631578947368421
 40
0.2631578947368421
 40
0.2631578947368421
 40
0.3157894736842105
 40
0.3157894736842105
 40
0.3157894736842105
 40
0.3157894736842105
 40
0.3684210526315789
 40
0.3684210526315789
 40
0.3684210526315789
 40
0.3684210526315789
 40
0.4210526315789473
 40
0.4210526315789473
 40
0.4210526315789473
 40
0.4210526315789473
 40
0.4736842105263158
 40
0.4736842105263158
 40
0.4736842105263158
 40
0.4736842105263158
 40
0.5263157894736842
 40
0.5263157894736842
 40
0.5263157894736842
 40
0.5263157894736842
 40
0.5789473684210527
 40
0.5789473684210527
 40
0.5789473684210527
 40
0.5789473684210527
 40
0.631578947368421
 40
0.631578947368421
 40
0.631578947368421
 40
0.631578947368421
 40
0.6842105263157895
 40
0.6842105263157895
 40
0.6842105263157895
 40
0.6842105263157895
 40
0.7368421052631579
 40
0.7368421052631579
 40
0.7368421052631579
 40
0.7368421052631579
 40
0.7894736842105263
 40
0.7894736842105263
 40
0.7894736842105263
 40
0.7894736842105263
 40
0.8421052631578947
 40
0.8421052631578947
 40
0.8421052631578947
 40
0.8421052631578947
 40
0.8947368421052632
 40
0.8947368421052632
 40
0.8947368421052632
 40
0.8947368421052632
 40
1.0
 40
1.0
 40
1.0
 40
1.0
 10
150.8644
 20
93.1244
 30
0.0
 10
144.9337
 20
97.0755
 30
0.0
 10
136.0853
 20
93.6801
 30
0.0
 10
134.9398
 20
83.9796
 30
0.0
 10
134.9398
 20
83.9796
 30
0.0
 10
124.6571
 20
95.3496
 30
0.0
 10
124.8799
 20
107.7999
 30
0.0
 10
131.5334
 20
111.8935
 30
0.0
 10
131.5334
 20
111.8935
 30
0.0
 10
136.278
 20
115.1442
 30
0.0
 10
141.0104
 20
112.7547
 30
0.0
 10
141.0584
 20
108.1231
 30
0.0
 10
141.0584
 20
108.1231
 30
0.0
 10
140.4384
 20
103.9783
 30
0.0
 10
133.5424
 20
103.514
 30
0.0
 10
133.65
 20
108.4538
 30
0.0
 10
133.65
 20
108.4538
 30
0.0
 10
129.7404
 20
105.9905
 30
0.0
 10
129.2483
 20
101.6024
 30
0.0
 10
131.9302
 20
98.9288
 30
0.0
 10
131.9302
 20
98.9288
 30
0.0
 10
135.4219
 20
96.1218
 30
0.0
 10
139.153
 20
97.3606
 30
0.0
 10
141.5875
 20
99.9211
 30
0.0
 10
141.5875
 20
99.9211
 30
0.0
 10
143.2554
 20
97.5565
 30
0.0
 10
146.1813
 20
97.7434
 30
0.0
 10
147.8714
 20
100.0532
 30
0.0
 10
147.8714
 20
100.0532
 30
0.0
 10
149.106
 20
101.9318
 30
0.0
 10
148.8088
 20
104.6737
 30
0.0
 10
146.9454
 20
106.4695
 30
0.0
 10
146.9454
 20
106.4695
 30
0.0
 10
148.9234
 20
107.1254
 30
0.0
 10
150.1819
 20
108.2279
 30
0.0
 10
150.8512
 20
109.6991
 30
0.0
 10
150.8512
 20
109.6991
 30
0.0
 10
151.5204
 20
108.2706
 30
0.0
 10
152.8575
 20
107.0813
 30
0.0
 10
154.8355
 20
106.4253
 30
0.0
 10
154.8355
 20
106.4253
 30
0.0
 10
152.9721
 20
104.6296
 30
0.0
 10
152.6749
 20
101.8877
 30
0.0
 10
153.9095
 20
100.0092
 30
0.0
 10
153.9095
 20
100.0092
 30
0.0
 10
155.5996
 20
97.6993
 30
0.0
 10
158.5255
 20
97.5124
 30
0.0
 10
160.1934
 20
99.877
 30
0.0
 10
160.1934
 20
99.877
 30
0.0
 10
162.6279
 20
97.3165
 30
0.0
 10
166.359
 20
96.0777
 30
0.0
 10
169.8507
 20
98.8847
 30
0.0
 10
169.8507
 20
98.8847
 30
0.0
 10
172.5326
 20
101.5582
 30
0.0
 10
172.0405
 20
105.9464
 30
0.0
 10
168.1309
 20
108.4097
 30
0.0
 10
168.1309
 20
108.4097
 30
0.0
 10
168.2385
 20
103.4699
 30
0.0
 10
161.3425
 20
103.9342
 30
0.0
 10
160.7225
 20
108.079
 30
0.0
 10
160.7225
 20
108.079
 30
0.0
 10
160.7705
 20
112.7106
 30
0.0
 10
165.5029
 20
115.1001
 30
0.0
 10
170.2475
 20
111.8494
 30
0.0
 10
170.2475
 20
111.8494
 30
0.0
 10
176.901
 20
107.7558
 30
0.0
 10
177.1238
 20
95.3055
 30
0.0
 10
166.8411
 20
83.9355
 30
0.0
 10
166.8411
 20
83.9355
 30
0.0
 10
165.6956
 20
93.636
 30
0.0
 10
156.7951
 20
97.0755
 30
0.0
 10
150.8644
 20
93.1244
 30
0.0
  0
SPLINE
  5
69
330
1F
100
AcDbEntity
  8
layer 1
 62
     7
370
    20
100
AcDbSpline
210
0.0
220
0.0
230
1.0
 70
    11
 71
     3
 72
    76
 73
    72
 74
     0
 42
0.0000000001
 43
0.0000000001
 12
1.0
 22
0.0
 32
0.0
 13
1.0
 23
0.0
 33
0.0
 40
0.0
 40
0.0
 40
0.0
 40
0.0
 40
0.0526315789473684
 40
0.0526315789473684
 40
0.0526315789473684
 40
0.0526315789473684
 40
0.1052631578947368
 40
0.1052631578947368
 40
0.1052631578947368
 40
0.1052631578947368
 40
0.1578947368421053
 40
0.1578947368421053
 40
0.1578947368421053
 40
0.1578947368421053
 40
0.2105263157894737
 40
0.2105263157894737
 40
0.2105263157894737
 40
0.2105263157894737
 40
0.2631578947368421
 40
0.2631578947368421
 40
0.2631578947368421
 40
0.2631578947368421
 40
0.3157894736842105
 40
0.3157894736842105
 40
0.3157894736842105
 40
0.3157894736842105
 40
0.3684210526315789
 40
0.3684210526315789
 40
0.3684210526315789
 40
0.3684210526315789
 40
0.4210526315789473
 40
0.4210526315789473
 40
0.4210526315789473
 40
0.4210526315789473
 40
0.4736842105263158
 40
0.4736842105263158
 40
0.4736842105263158
 40
0.4736842105263158
 40
0.5263157894736842
 40
0.5263157894736842
 40
0.5263157894736842
 40
0.5263157894736842
 40
0.5789473684210527
 40
0.5789473684210527
 40
0.5789473684210527
 40
0.5789473684210527
 40
0.631578947368421
 40
0.631578947368421
 40
0.631578947368421
 40
0.631578947368421
 40
0.6842105263157895
 40
0.6842105263157895
 40
0.6842105263157895
 40
0.6842105263157895
 40
0.7368421052631579
 40
0.7368421052631579
 40
0.7368421052631579
 40
0.7368421052631579
 40
0.7894736842105263
 40
0.7894736842105263
 40
0.7894736842105263
 40
0.7894736842105263
 40
0.8421052631578947
 40
0.8421052631578947
 40
0.8421052631578947
 40
0.8421052631578947
 40
0.8947368421052632
 40
0.8947368421052632
 40
0.8947368421052632
 40
0.8947368421052632
 40
1.0
 40
1.0
 40
1.0
 40
1.0
 10
150.845
 20
-93.1262
 30
0.0
 10
151.5536
 20
-91.6543
 30
0.0
 10
152.8121
 20
-90.5518
 30
0.0
 10
154.7901
 20
-89.896
 30
0.0
 10
154.7901
 20
-89.896
 30
0.0
 10
152.9267
 20
-88.1001
 30
0.0
 10
152.6295
 20
-85.3582
 30
0.0
 10
153.8641
 20
-83.4797
 30
0.0
 10
153.8641
 20
-83.4797
 30
0.0
 10
155.5542
 20
-81.17
 30
0.0
 10
158.4801
 20
-80.983
 30
0.0
 10
160.148
 20
-83.3476
 30
0.0
 10
160.148
 20
-83.3476
 30
0.0
 10
162.5825
 20
-80.7872
 30
0.0
 10
166.3136
 20
-79.5482
 30
0.0
 10
169.8053
 20
-82.3553
 30
0.0
 10
169.8053
 20
-82.3553
 30
0.0
 10
172.4872
 20
-85.0289
 30
0.0
 10
171.9951
 20
-89.417
 30
0.0
 10
168.0855
 20
-91.8803
 30
0.0
 10
168.0855
 20
-91.8803
 30
0.0
 10
168.1931
 20
-86.9405
 30
0.0
 10
161.2971
 20
-87.4047
 30
0.0
 10
160.6771
 20
-91.5496
 30
0.0
 10
160.6771
 20
-91.5496
 30
0.0
 10
160.7251
 20
-96.1812
 30
0.0
 10
165.4575
 20
-98.5708
 30
0.0
 10
170.2021
 20
-95.32
 30
0.0
 10
170.2021
 20
-95.32
 30
0.0
 10
176.8556
 20
-91.2264
 30
0.0
 10
177.0784
 20
-78.7761
 30
0.0
 10
166.7957
 20
-67.4062
 30
0.0
 10
166.7957
 20
-67.4062
 30
0.0
 10
165.6502
 20
-77.1066
 30
0.0
 10
156.7497
 20
-80.546
 30
0.0
 10
150.819
 20
-76.595
 30
0.0
 10
150.819
 20
-76.595
 30
0.0
 10
144.8883
 20
-80.546
 30
0.0
 10
136.0399
 20
-77.1507
 30
0.0
 10
134.8944
 20
-67.4503
 30
0.0
 10
134.8944
 20
-67.4503
 30
0.0
 10
124.6117
 20
-78.8201
 30
0.0
 10
124.8345
 20
-91.2705
 30
0.0
 10
131.488
 20
-95.364
 30
0.0
 10
131.488
 20
-95.364
 30
0.0
 10
136.2326
 20
-98.6149
 30
0.0
 10
140.965
 20
-96.2253
 30
0.0
 10
141.013
 20
-91.5937
 30
0.0
 10
141.013
 20
-91.5937
 30
0.0
 10
140.393
 20
-87.4488
 30
0.0
 10
133.497
 20
-86.9846
 30
0.0
 10
133.6046
 20
-91.9245
 30
0.0
 10
133.6046
 20
-91.9245
 30
0.0
 10
129.695
 20
-89.4611
 30
0.0
 10
129.2029
 20
-85.073
 30
0.0
 10
131.8848
 20
-82.3995
 30
0.0
 10
131.8848
 20
-82.3995
 30
0.0
 10
135.3765
 20
-79.5923
 30
0.0
 10
139.1076
 20
-80.8313
 30
0.0
 10
141.5421
 20
-83.3917
 30
0.0
 10
141.5421
 20
-83.3917
 30
0.0
 10
143.21
 20
-81.0271
 30
0.0
 10
146.1359
 20
-81.2141
 30
0.0
 10
147.826
 20
-83.5238
 30
0.0
 10
147.826
 20
-83.5238
 30
0.0
 10
149.0606
 20
-85.4023
 30
0.0
 10
148.7634
 20
-88.1442
 30
0.0
 10
146.9
 20
-89.9401
 30
0.0
 10
146.9
 20
-89.9401
 30
0.0
 10
148.878
 20
-90.5959
 30
0.0
 10
150.1365
 20
-91.6984
 30
0.0
 10
150.845
 20
-93.1262
 30
0.0
  0
SPLINE
  5
6A
330
1F
100
AcDbEntity
  8
layer 1
 62
     7
370
    20
100
AcDbSpline
210
0.0
220
0.0
230
1.0
 70
    11
 71
     3
 72
    48
 73
    44
 74
     0
 42
0.0000000001
 43
0.0000000001
 12
1.0
 22
0.0
 32
0.0
 13
1.0
 23
0.0
 33
0.0
 40
0.0
 40
0.0
 40
0.0
 40
0.0
 40
0.0833333333333333
 40
0.0833333333333333
 40
0.0833333333333333
 40
0.0833333333333333
 40
0.1666666666666667
 40
0.1666666666666667
 40
0.1666666666666667
 40
0.1666666666666667
 40
0.25
 40
0.25
 40
0.25
 40
0.25
 40
0.3333333333333333
 40
0.3333333333333333
 40
0.3333333333333333
 40
0.3333333333333333
 40
0.4166666666666667
 40
0.4166666666666667
 40
0.4166666666666667
 40
0.4166666666666667
 40
0.5
 40
0.5
 40
0.5
 40
0.5
 40
0.5833333333333334
 40
0.5833333333333334
 40
0.5833333333333334
 40
0.5833333333333334
 40
0.6666666666666666
 40
0.6666666666666666
 40
0.6666666666666666
 40
0.6666666666666666
 40
0.75
 40
0.75
 40
0.75
 40
0.75
 40
0.8333333333333334
 40
0.8333333333333334
 40
0.8333333333333334
 40
0.8333333333333334
 40
1.0
 40
1.0
 40
1.0
 40
1.0
 10
126.3863
 20
-72.8497
 30
0.0
 10
118.9533
 20
-85.4403
 30
0.0
 10
122.1777
 20
-98.6678
 30
0.0
 10
134.7207
 20
-101.8215
 30
0.0
 10
134.7207
 20
-101.8215
 30
0.0
 10
136.4385
 20
-102.3584
 30
0.0
 10
136.0952
 20
-104.239
 30
0.0
 10
134.0592
 20
-104.2028
 30
0.0
 10
134.0592
 20
-104.2028
 30
0.0
 10
131.3175
 20
-104.31
 30
0.0
 10
128.6431
 20
-103.3035
 30
0.0
 10
125.9894
 20
-101.9538
 30
0.0
 10
125.9894
 20
-101.9538
 30
0.0
 10
126.0814
 20
-103.1861
 30
0.0
 10
126.4381
 20
-103.8371
 30
0.0
 10
126.7831
 20
-104.4673
 30
0.0
 10
126.7831
 20
-104.4673
 30
0.0
 10
123.4527
 20
-103.8596
 30
0.0
 10
120.7483
 20
-101.3321
 30
0.0
 10
120.0363
 20
-97.3237
 30
0.0
 10
120.0363
 20
-97.3237
 30
0.0
 10
119.489
 20
-97.5828
 30
0.0
 10
118.9081
 20
-98.0346
 30
0.0
 10
118.3165
 20
-98.6465
 30
0.0
 10
118.3165
 20
-98.6465
 30
0.0
 10
117.3065
 20
-95.2057
 30
0.0
 10
117.6507
 20
-91.4155
 30
0.0
 10
119.3748
 20
-87.2695
 30
0.0
 10
119.3748
 20
-87.2695
 30
0.0
 10
118.6257
 20
-87.395
 30
0.0
 10
117.941
 20
-87.7063
 30
0.0
 10
117.3241
 20
-88.2286
 30
0.0
 10
117.3241
 20
-88.2286
 30
0.0
 10
117.3883
 20
-85.3179
 30
0.0
 10
118.4837
 20
-82.3639
 30
0.0
 10
120.6646
 20
-79.3649
 30
0.0
 10
120.6646
 20
-79.3649
 30
0.0
 10
119.9928
 20
-79.0963
 30
0.0
 10
119.2858
 20
-79.0162
 30
0.0
 10
118.5479
 20
-79.1004
 30
0.0
 10
118.5479
 20
-79.1004
 30
0.0
 10
118.5479
 20
-79.1004
 30
0.0
 10
126.3863
 20
-72.8497
 30
0.0
 10
126.3863
 20
-72.8497
 30
0.0
  0
SPLINE
  5
6B
330
1F
100
AcDbEntity
  8
layer 1
 62
     7
370
    20
100
AcDbSpline
210
0.0
220
0.0
230
1.0
 70
    11
 71
     3
 72
    48
 73
    44
 74
     0
 42
0.0000000001
 43
0.0000000001
 12
1.0
 22
0.0
 32
0.0
 13
1.0
 23
0.0
 33
0.0
 40
0.0
 40
0.0
 40
0.0
 40
0.0
 40
0.0833333333333333
 40
0.0833333333333333
 40
0.0833333333333333
 40
0.0833333333333333
 40
0.1666666666666667
 40
0.1666666666666667
 40
0.1666666666666667
 40
0.1666666666666667
 40
0.25
 40
0.25
 40
0.25
 40
0.25
 40
0.3333333333333333
 40
0.3333333333333333
 40
0.3333333333333333
 40
0.3333333333333333
 40
0.4166666666666667
 40
0.4166666666666667
 40
0.4166666666666667
 40
0.4166666666666667
 40
0.5
 40
0.5
 40
0.5
 40
0.5
 40
0.5833333333333334
 40
0.5833333333333334
 40
0.5833333333333334
 40
0.5833333333333334
 40
0.6666666666666666
 40
0.6666666666666666
 40
0.6666666666666666
 40
0.6666666666666666
 40
0.75
 40
0.75
 40
0.75
 40
0.75
 40
0.8333333333333334
 40
0.8333333333333334
 40
0.8333333333333334
 40
0.8333333333333334
 40
1.0
 40
1.0
 40
1.0
 40
1.0
 10
126.4317
 20
89.379
 30
0.0
 10
118.9987
 20
101.9697
 30
0.0
 10
122.2231
 20
115.1973
 30
0.0
 10
134.7661
 20
118.351
 30
0.0
 10
134.7661
 20
118.351
 30
0.0
 10
136.4839
 20
118.8877
 30
0.0
 10
136.1406
 20
120.7684
 30
0.0
 10
134.1046
 20
120.7322
 30
0.0
 10
134.1046
 20
120.7322
 30
0.0
 10
131.3629
 20
120.8393
 30
0.0
 10
128.6885
 20
119.8329
 30
0.0
 10
126.0348
 20
118.4832
 30
0.0
 10
126.0348
 20
118.4832
 30
0.0
 10
126.1268
 20
119.7155
 30
0.0
 10
126.4835
 20
120.3664
 30
0.0
 10
126.8285
 20
120.9967
 30
0.0
 10
126.8285
 20
120.9967
 30
0.0
 10
123.4981
 20
120.3891
 30
0.0
 10
120.7937
 20
117.8615
 30
0.0
 10
120.0817
 20
113.853
 30
0.0
 10
120.0817
 20
113.853
 30
0.0
 10
119.5344
 20
114.1123
 30
0.0
 10
118.9535
 20
114.5641
 30
0.0
 10
118.3619
 20
115.176
 30
0.0
 10
118.3619
 20
115.176
 30
0.0
 10
117.3519
 20
111.7351
 30
0.0
 10
117.6961
 20
107.945
 30
0.0
 10
119.4202
 20
103.7989
 30
0.0
 10
119.4202
 20
103.7989
 30
0.0
 10
118.6711
 20
103.9245
 30
0.0
 10
117.9864
 20
104.2356
 30
0.0
 10
117.3695
 20
104.758
 30
0.0
 10
117.3695
 20
104.758
 30
0.0
 10
117.4337
 20
101.8473
 30
0.0
 10
118.5291
 20
98.8934
 30
0.0
 10
120.71
 20
95.8944
 30
0.0
 10
120.71
 20
95.8944
 30
0.0
 10
120.0382
 20
95.6256
 30
0.0
 10
119.3312
 20
95.5456
 30
0.0
 10
118.5933
 20
95.6297
 30
0.0
 10
118.5933
 20
95.6297
 30
0.0
 10
118.5933
 20
95.6297
 30
0.0
 10
126.4317
 20
89.379
 30
0.0
 10
126.4317
 20
89.379
 30
0.0
  0
SPLINE
  5
6C
330
1F
100
AcDbEntity
  8
layer 1
 62
     7
370
    20
100
AcDbSpline
210
0.0
220
0.0
230
1.0
 70
    11
 71
     3
 72
    48
 73
    44
 74
     0
 42
0.0000000001
 43
0.0000000001
 12
1.0
 22
0.0
 32
0.0
 13
1.0
 23
0.0
 33
0.0
 40
0.0
 40
0.0
 40
0.0
 40
0.0
 40
0.0833333333333333
 40
0.0833333333333333
 40
0.0833333333333333
 40
0.0833333333333333
 40
0.1666666666666667
 40
0.1666666666666667
 40
0.1666666666666667
 40
0.1666666666666667
 40
0.25
 40
0.25
 40
0.25
 40
0.25
 40
0.3333333333333333
 40
0.3333333333333333
 40
0.3333333333333333
 40
0.3333333333333333
 40
0.4166666666666667
 40
0.4166666666666667
 40
0.4166666666666667
 40
0.4166666666666667
 40
0.5
 40
0.5
 40
0.5
 40
0.5
 40
0.5833333333333334
 40
0.5833333333333334
 40
0.5833333333333334
 40
0.5833333333333334
 40
0.6666666666666666
 40
0.6666666666666666
 40
0.6666666666666666
 40
0.6666666666666666
 40
0.75
 40
0.75
 40
0.75
 40
0.75
 40
0.8333333333333334
 40
0.8333333333333334
 40
0.8333333333333334
 40
0.8333333333333334
 40
1.0
 40
1.0
 40
1.0
 40
1.0
 10
175.3038
 20
-72.8055
 30
0.0
 10
182.7368
 20
-85.3962
 30
0.0
 10
179.5124
 20
-98.6238
 30
0.0
 10
166.9694
 20
-101.7774
 30
0.0
 10
166.9694
 20
-101.7774
 30
0.0
 10
165.2516
 20
-102.3143
 30
0.0
 10
165.5949
 20
-104.1949
 30
0.0
 10
167.6309
 20
-104.1587
 30
0.0
 10
167.6309
 20
-104.1587
 30
0.0
 10
170.3726
 20
-104.2658
 30
0.0
 10
173.047
 20
-103.2594
 30
0.0
 10
175.7007
 20
-101.9097
 30
0.0
 10
175.7007
 20
-101.9097
 30
0.0
 10
175.6087
 20
-103.142
 30
0.0
 10
175.252
 20
-103.7929
 30
0.0
 10
174.907
 20
-104.4232
 30
0.0
 10
174.907
 20
-104.4232
 30
0.0
 10
178.2374
 20
-103.8155
 30
0.0
 10
180.9418
 20
-101.288
 30
0.0
 10
181.6538
 20
-97.2796
 30
0.0
 10
181.6538
 20
-97.2796
 30
0.0
 10
182.2011
 20
-97.5387
 30
0.0
 10
182.782
 20
-97.9906
 30
0.0
 10
183.3736
 20
-98.6024
 30
0.0
 10
183.3736
 20
-98.6024
 30
0.0
 10
184.3836
 20
-95.1616
 30
0.0
 10
184.0394
 20
-91.3715
 30
0.0
 10
182.3153
 20
-87.2254
 30
0.0
 10
182.3153
 20
-87.2254
 30
0.0
 10
183.0644
 20
-87.3509
 30
0.0
 10
183.7491
 20
-87.6621
 30
0.0
 10
184.366
 20
-88.1845
 30
0.0
 10
184.366
 20
-88.1845
 30
0.0
 10
184.3018
 20
-85.2738
 30
0.0
 10
183.2064
 20
-82.3198
 30
0.0
 10
181.0255
 20
-79.3208
 30
0.0
 10
181.0255
 20
-79.3208
 30
0.0
 10
181.6973
 20
-79.0521
 30
0.0
 10
182.4043
 20
-78.9721
 30
0.0
 10
183.1422
 20
-79.0563
 30
0.0
 10
183.1422
 20
-79.0563
 30
0.0
 10
183.1422
 20
-79.0563
 30
0.0
 10
175.3038
 20
-72.8055
 30
0.0
 10
175.3038
 20
-72.8055
 30
0.0
  0
SPLINE
  5
6D
330
1F
100
AcDbEntity
  8
layer 1
 62
     7
370
    20
100
AcDbSpline
210
0.0
220
0.0
230
1.0
 70
    11
 71
     3
 72
    48
 73
    44
 74
     0
 42
0.0000000001
 43
0.0000000001
 12
1.0
 22
0.0
 32
0.0
 13
1.0
 23
0.0
 33
0.0
 40
0.0
 40
0.0
 40
0.0
 40
0.0
 40
0.0833333333333333
 40
0.0833333333333333
 40
0.0833333333333333
 40
0.0833333333333333
 40
0.1666666666666667
 40
0.1666666666666667
 40
0.1666666666666667
 40
0.1666666666666667
 40
0.25
 40
0.25
 40
0.25
 40
0.25
 40
0.3333333333333333
 40
0.3333333333333333
 40
0.3333333333333333
 40
0.3333333333333333
 40
0.4166666666666667
 40
0.4166666666666667
 40
0.4166666666666667
 40
0.4166666666666667
 40
0.5
 40
0.5
 40
0.5
 40
0.5
 40
0.5833333333333334
 40
0.5833333333333334
 40
0.5833333333333334
 40
0.5833333333333334
 40
0.6666666666666666
 40
0.6666666666666666
 40
0.6666666666666666
 40
0.6666666666666666
 40
0.75
 40
0.75
 40
0.75
 40
0.75
 40
0.8333333333333334
 40
0.8333333333333334
 40
0.8333333333333334
 40
0.8333333333333334
 40
1.0
 40
1.0
 40
1.0
 40
1.0
 10
175.3492
 20
89.3349
 30
0.0
 10
182.7822
 20
101.9257
 30
0.0
 10
179.5578
 20
115.1532
 30
0.0
 10
167.0148
 20
118.3069
 30
0.0
 10
167.0148
 20
118.3069
 30
0.0
 10
165.297
 20
118.8436
 30
0.0
 10
165.6403
 20
120.7243
 30
0.0
 10
167.6763
 20
120.688
 30
0.0
 10
167.6763
 20
120.688
 30
0.0
 10
170.418
 20
120.7952
 30
0.0
 10
173.0924
 20
119.7888
 30
0.0
 10
175.7461
 20
118.4391
 30
0.0
 10
175.7461
 20
118.4391
 30
0.0
 10
175.6541
 20
119.6714
 30
0.0
 10
175.2974
 20
120.3223
 30
0.0
 10
174.9524
 20
120.9527
 30
0.0
 10
174.9524
 20
120.9527
 30
0.0
 10
178.2828
 20
120.345
 30
0.0
 10
180.9872
 20
117.8174
 30
0.0
 10
181.6992
 20
113.8089
 30
0.0
 10
181.6992
 20
113.8089
 30
0.0
 10
182.2465
 20
114.0682
 30
0.0
 10
182.8274
 20
114.52
 30
0.0
 10
183.419
 20
115.1319
 30
0.0
 10
183.419
 20
115.1319
 30
0.0
 10
184.429
 20
111.691
 30
0.0
 10
184.0848
 20
107.9009
 30
0.0
 10
182.3607
 20
103.7547
 30
0.0
 10
182.3607
 20
103.7547
 30
0.0
 10
183.1098
 20
103.8804
 30
0.0
 10
183.7945
 20
104.1915
 30
0.0
 10
184.4114
 20
104.7139
 30
0.0
 10
184.4114
 20
104.7139
 30
0.0
 10
184.3472
 20
101.8031
 30
0.0
 10
183.2518
 20
98.8493
 30
0.0
 10
181.0709
 20
95.8503
 30
0.0
 10
181.0709
 20
95.8503
 30
0.0
 10
181.7427
 20
95.5815
 30
0.0
 10
182.4497
 20
95.5015
 30
0.0
 10
183.1876
 20
95.5856
 30
0.0
 10
183.1876
 20
95.5856
 30
0.0
 10
183.1876
 20
95.5856
 30
0.0
 10
175.3492
 20
89.3349
 30
0.0
 10
175.3492
 20
89.3349
 30
0.0
  0
SPLINE
  5
6E
330
1F
100
AcDbEntity
  8
layer 1
 62
     7
370
    20
100
AcDbSpline
210
0.0
220
0.0
230
1.0
 70
    11
 71
     3
 72
    24
 73
    20
 74
     0
 42
0.0000000001
 43
0.0000000001
 12
1.0
 22
0.0
 32
0.0
 13
1.0
 23
0.0
 33
0.0
 40
0.0
 40
0.0
 40
0.0
 40
0.0
 40
0.1666666666666667
 40
0.1666666666666667
 40
0.1666666666666667
 40
0.1666666666666667
 40
0.3333333333333333
 40
0.3333333333333333
 40
0.3333333333333333
 40
0.3333333333333333
 40
0.5
 40
0.5
 40
0.5
 40
0.5
 40
0.6666666666666666
 40
0.6666666666666666
 40
0.6666666666666666
 40
0.6666666666666666
 40
1.0
 40
1.0
 40
1.0
 40
1.0
 10
109.5953
 20
-82.3916
 30
0.0
 10
110.9826
 20
-82.4618
 30
0.0
 10
112.9265
 20
-81.9246
 30
0.0
 10
115.2838
 20
-80.9365
 30
0.0
 10
115.2838
 20
-80.9365
 30
0.0
 10
112.94
 20
-84.4607
 30
0.0
 10
111.7408
 20
-88.1279
 30
0.0
 10
111.5135
 20
-91.9167
 30
0.0
 10
111.5135
 20
-91.9167
 30
0.0
 10
112.3986
 20
-92.1567
 30
0.0
 10
113.208
 20
-91.9415
 30
0.0
 10
113.9609
 20
-91.3875
 30
0.0
 10
113.9609
 20
-91.3875
 30
0.0
 10
111.4271
 20
-94.0466
 30
0.0
 10
110.1009
 20
-97.2833
 30
0.0
 10
109.5953
 20
-100.9125
 30
0.0
 10
109.5953
 20
-100.9125
 30
0.0
 10
109.5953
 20
-100.9125
 30
0.0
 10
109.5953
 20
-82.3916
 30
0.0
 10
109.5953
 20
-82.3916
 30
0.0
  0
SPLINE
  5
6F
330
1F
100
AcDbEntity
  8
layer 1
 62
     7
370
    20
100
AcDbSpline
210
0.0
220
0.0
230
1.0
 70
    11
 71
     3
 72
    24
 73
    20
 74
     0
 42
0.0000000001
 43
0.0000000001
 12
1.0
 22
0.0
 32
0.0
 13
1.0
 23
0.0
 33
0.0
 40
0.0
 40
0.0
 40
0.0
 40
0.0
 40
0.1666666666666667
 40
0.1666666666666667
 40
0.1666666666666667
 40
0.1666666666666667
 40
0.3333333333333333
 40
0.3333333333333333
 40
0.3333333333333333
 40
0.3333333333333333
 40
0.5
 40
0.5
 40
0.5
 40
0.5
 40
0.6666666666666666
 40
0.6666666666666666
 40
0.6666666666666666
 40
0.6666666666666666
 40
1.0
 40
1.0
 40
1.0
 40
1.0
 10
109.6407
 20
98.921
 30
0.0
 10
111.028
 20
98.9912
 30
0.0
 10
112.9719
 20
98.454
 30
0.0
 10
115.3292
 20
97.4658
 30
0.0
 10
115.3292
 20
97.4658
 30
0.0
 10
112.9854
 20
100.9902
 30
0.0
 10
111.7862
 20
104.6574
 30
0.0
 10
111.5589
 20
108.4462
 30
0.0
 10
111.5589
 20
108.4462
 30
0.0
 10
112.444
 20
108.686
 30
0.0
 10
113.2534
 20
108.471
 30
0.0
 10
114.0063
 20
107.9169
 30
0.0
 10
114.0063
 20
107.9169
 30
0.0
 10
111.4725
 20
110.5759
 30
0.0
 10
110.1463
 20
113.8126
 30
0.0
 10
109.6407
 20
117.4419
 30
0.0
 10
109.6407
 20
117.4419
 30
0.0
 10
109.6407
 20
117.4419
 30
0.0
 10
109.6407
 20
98.921
 30
0.0
 10
109.6407
 20
98.921
 30
0.0
  0
SPLINE
  5
70
330
1F
100
AcDbEntity
  8
layer 1
 62
     7
370
    20
100
AcDbSpline
210
0.0
220
0.0
230
1.0
 70
    11
 71
     3
 72
    24
 73
    20
 74
     0
 42
0.0000000001
 43
0.0000000001
 12
1.0
 22
0.0
 32
0.0
 13
1.0
 23
0.0
 33
0.0
 40
0.0
 40
0.0
 40
0.0
 40
0.0
 40
0.1666666666666667
 40
0.1666666666666667
 40
0.1666666666666667
 40
0.1666666666666667
 40
0.3333333333333333
 40
0.3333333333333333
 40
0.3333333333333333
 40
0.3333333333333333
 40
0.5
 40
0.5
 40
0.5
 40
0.5
 40
0.6666666666666666
 40
0.6666666666666666
 40
0.6666666666666666
 40
0.6666666666666666
 40
1.0
 40
1.0
 40
1.0
 40
1.0
 10
192.0948
 20
-82.3475
 30
0.0
 10
190.7075
 20
-82.4177
 30
0.0
 10
188.7636
 20
-81.8805
 30
0.0
 10
186.4063
 20
-80.8924
 30
0.0
 10
186.4063
 20
-80.8924
 30
0.0
 10
188.7501
 20
-84.4166
 30
0.0
 10
189.9493
 20
-88.0838
 30
0.0
 10
190.1766
 20
-91.8726
 30
0.0
 10
190.1766
 20
-91.8726
 30
0.0
 10
189.2915
 20
-92.1126
 30
0.0
 10
188.4821
 20
-91.8974
 30
0.0
 10
187.7292
 20
-91.3434
 30
0.0
 10
187.7292
 20
-91.3434
 30
0.0
 10
190.263
 20
-94.0024
 30
0.0
 10
191.5892
 20
-97.2391
 30
0.0
 10
192.0948
 20
-100.8684
 30
0.0
 10
192.0948
 20
-100.8684
 30
0.0
 10
192.0948
 20
-100.8684
 30
0.0
 10
192.0948
 20
-82.3475
 30
0.0
 10
192.0948
 20
-82.3475
 30
0.0
  0
SPLINE
  5
71
330
1F
100
AcDbEntity
  8
layer 1
 62
     7
370
    20
100
AcDbSpline
210
0.0
220
0.0
230
1.0
 70
    11
 71
     3
 72
    24
 73
    20
 74
     0
 42
0.0000000001
 43
0.0000000001
 12
1.0
 22
0.0
 32
0.0
 13
1.0
 23
0.0
 33
0.0
 40
0.0
 40
0.0
 40
0.0
 40
0.0
 40
0.1666666666666667
 40
0.1666666666666667
 40
0.1666666666666667
 40
0.1666666666666667
 40
0.3333333333333333
 40
0.3333333333333333
 40
0.3333333333333333
 40
0.3333333333333333
 40
0.5
 40
0.5
 40
0.5
 40
0.5
 40
0.6666666666666666
 40
0.6666666666666666
 40
0.6666666666666666
 40
0.6666666666666666
 40
1.0
 40
1.0
 40
1.0
 40
1.0
 10
192.1402
 20
98.8769
 30
0.0
 10
190.7529
 20
98.9471
 30
0.0
 10
188.809
 20
98.4098
 30
0.0
 10
186.4517
 20
97.4217
 30
0.0
 10
186.4517
 20
97.4217
 30
0.0
 10
188.7955
 20
100.9461
 30
0.0
 10
189.9947
 20
104.6133
 30
0.0
 10
190.222
 20
108.4021
 30
0.0
 10
190.222
 20
108.4021
 30
0.0
 10
189.3369
 20
108.6419
 30
0.0
 10
188.5275
 20
108.4269
 30
0.0
 10
187.7746
 20
107.8729
 30
0.0
 10
187.7746
 20
107.8729
 30
0.0
 10
190.3084
 20
110.5318
 30
0.0
 10
191.6346
 20
113.7685
 30
0.0
 10
192.1402
 20
117.3979
 30
0.0
 10
192.1402
 20
117.3979
 30
0.0
 10
192.1402
 20
117.3979
 30
0.0
 10
192.1402
 20
98.8769
 30
0.0
 10
192.1402
 20
98.8769
 30
0.0
  0
SPLINE
  5
72
330
1F
100
AcDbEntity
  8
layer 1
 62
     7
370
    20
100
AcDbSpline
210
0.0
220
0.0
230
1.0
 70
    11
 71
     3
 72
    36
 73
    32
 74
     0
 42
0.0000000001
 43
0.0000000001
 12
1.0
 22
0.0
 32
0.0
 13
1.0
 23
0.0
 33
0.0
 40
0.0
 40
0.0
 40
0.0
 40
0.0
 40
0.1111111111111111
 40
0.1111111111111111
 40
0.1111111111111111
 40
0.1111111111111111
 40
0.2222222222222222
 40
0.2222222222222222
 40
0.2222222222222222
 40
0.2222222222222222
 40
0.3333333333333333
 40
0.3333333333333333
 40
0.3333333333333333
 40
0.3333333333333333
 40
0.4444444444444444
 40
0.4444444444444444
 40
0.4444444444444444
 40
0.4444444444444444
 40
0.5555555555555556
 40
0.5555555555555556
 40
0.5555555555555556
 40
0.5555555555555556
 40
0.6666666666666666
 40
0.6666666666666666
 40
0.6666666666666666
 40
0.6666666666666666
 40
0.7777777777777778
 40
0.7777777777777778
 40
0.7777777777777778
 40
0.7777777777777778
 40
1.0
 40
1.0
 40
1.0
 40
1.0
 10
109.579
 20
-107.0641
 30
0.0
 10
111.6172
 20
-106.7282
 30
0.0
 10
113.5161
 20
-105.8342
 30
0.0
 10
115.2014
 20
-104.0875
 30
0.0
 10
115.2014
 20
-104.0875
 30
0.0
 10
114.754
 20
-105.9017
 30
0.0
 10
115.1327
 20
-107.8061
 30
0.0
 10
116.3921
 20
-108.1224
 30
0.0
 10
116.3921
 20
-108.1224
 30
0.0
 10
117.7371
 20
-108.5566
 30
0.0
 10
119.8813
 20
-106.3765
 30
0.0
 10
120.5096
 20
-104.8813
 30
0.0
 10
120.5096
 20
-104.8813
 30
0.0
 10
122.4263
 20
-107.8722
 30
0.0
 10
124.6081
 20
-109.1527
 30
0.0
 10
126.3801
 20
-108.6516
 30
0.0
 10
126.3801
 20
-108.6516
 30
0.0
 10
127.343
 20
-108.3093
 30
0.0
 10
127.8722
 20
-107.9478
 30
0.0
 10
128.2322
 20
-106.8657
 30
0.0
 10
128.2322
 20
-106.8657
 30
0.0
 10
130.1527
 20
-108.648
 30
0.0
 10
132.1988
 20
-109.6914
 30
0.0
 10
134.3177
 20
-110.3052
 30
0.0
 10
134.3177
 20
-110.3052
 30
0.0
 10
134.3177
 20
-110.3052
 30
0.0
 10
109.579
 20
-110.3052
 30
0.0
 10
109.579
 20
-110.3052
 30
0.0
 10
109.579
 20
-110.3052
 30
0.0
 10
109.579
 20
-110.3052
 30
0.0
 10
109.579
 20
-107.0641
 30
0.0
 10
109.579
 20
-107.0641
 30
0.0
  0
SPLINE
  5
73
330
1F
100
AcDbEntity
  8
layer 1
 62
     7
370
    20
100
AcDbSpline
210
0.0
220
0.0
230
1.0
 70
    11
 71
     3
 72
    36
 73
    32
 74
     0
 42
0.0000000001
 43
0.0000000001
 12
1.0
 22
0.0
 32
0.0
 13
1.0
 23
0.0
 33
0.0
 40
0.0
 40
0.0
 40
0.0
 40
0.0
 40
0.1111111111111111
 40
0.1111111111111111
 40
0.1111111111111111
 40
0.1111111111111111
 40
0.2222222222222222
 40
0.2222222222222222
 40
0.2222222222222222
 40
0.2222222222222222
 40
0.3333333333333333
 40
0.3333333333333333
 40
0.3333333333333333
 40
0.3333333333333333
 40
0.4444444444444444
 40
0.4444444444444444
 40
0.4444444444444444
 40
0.4444444444444444
 40
0.5555555555555556
 40
0.5555555555555556
 40
0.5555555555555556
 40
0.5555555555555556
 40
0.6666666666666666
 40
0.6666666666666666
 40
0.6666666666666666
 40
0.6666666666666666
 40
0.7777777777777778
 40
0.7777777777777778
 40
0.7777777777777778
 40
0.7777777777777778
 40
1.0
 40
1.0
 40
1.0
 40
1.0
 10
109.6244
 20
123.5934
 30
0.0
 10
111.6626
 20
123.2576
 30
0.0
 10
113.5615
 20
122.3637
 30
0.0
 10
115.2468
 20
120.6169
 30
0.0
 10
115.2468
 20
120.6169
 30
0.0
 10
114.7994
 20
122.4311
 30
0.0
 10
115.1781
 20
124.3355
 30
0.0
 10
116.4375
 20
124.6518
 30
0.0
 10
116.4375
 20
124.6518
 30
0.0
 10
117.7825
 20
125.0859
 30
0.0
 10
119.9267
 20
122.9059
 30
0.0
 10
120.555
 20
121.4107
 30
0.0
 10
120.555
 20
121.4107
 30
0.0
 10
122.4717
 20
124.4017
 30
0.0
 10
124.6535
 20
125.6821
 30
0.0
 10
126.4255
 20
125.1809
 30
0.0
 10
126.4255
 20
125.1809
 30
0.0
 10
127.3884
 20
124.8386
 30
0.0
 10
127.9176
 20
124.4773
 30
0.0
 10
128.2776
 20
123.395
 30
0.0
 10
128.2776
 20
123.395
 30
0.0
 10
130.1981
 20
125.1774
 30
0.0
 10
132.2442
 20
126.2209
 30
0.0
 10
134.3631
 20
126.8347
 30
0.0
 10
134.3631
 20
126.8347
 30
0.0
 10
134.3631
 20
126.8347
 30
0.0
 10
109.6244
 20
126.8347
 30
0.0
 10
109.6244
 20
126.8347
 30
0.0
 10
109.6244
 20
126.8347
 30
0.0
 10
109.6244
 20
126.8347
 30
0.0
 10
109.6244
 20
123.5934
 30
0.0
 10
109.6244
 20
123.5934
 30
0.0
  0
SPLINE
  5
74
330
1F
100
AcDbEntity
  8
layer 1
 62
     7
370
    20
100
AcDbSpline
210
0.0
220
0.0
230
1.0
 70
    11
 71
     3
 72
    36
 73
    32
 74
     0
 42
0.0000000001
 43
0.0000000001
 12
1.0
 22
0.0
 32
0.0
 13
1.0
 23
0.0
 33
0.0
 40
0.0
 40
0.0
 40
0.0
 40
0.0
 40
0.1111111111111111
 40
0.1111111111111111
 40
0.1111111111111111
 40
0.1111111111111111
 40
0.2222222222222222
 40
0.2222222222222222
 40
0.2222222222222222
 40
0.2222222222222222
 40
0.3333333333333333
 40
0.3333333333333333
 40
0.3333333333333333
 40
0.3333333333333333
 40
0.4444444444444444
 40
0.4444444444444444
 40
0.4444444444444444
 40
0.4444444444444444
 40
0.5555555555555556
 40
0.5555555555555556
 40
0.5555555555555556
 40
0.5555555555555556
 40
0.6666666666666666
 40
0.6666666666666666
 40
0.6666666666666666
 40
0.6666666666666666
 40
0.7777777777777778
 40
0.7777777777777778
 40
0.7777777777777778
 40
0.7777777777777778
 40
1.0
 40
1.0
 40
1.0
 40
1.0
 10
192.1111
 20
-107.0199
 30
0.0
 10
190.0729
 20
-106.6841
 30
0.0
 10
188.174
 20
-105.7902
 30
0.0
 10
186.4887
 20
-104.0434
 30
0.0
 10
186.4887
 20
-104.0434
 30
0.0
 10
186.9361
 20
-105.8576
 30
0.0
 10
186.5574
 20
-107.762
 30
0.0
 10
185.298
 20
-108.0783
 30
0.0
 10
185.298
 20
-108.0783
 30
0.0
 10
183.953
 20
-108.5125
 30
0.0
 10
181.8088
 20
-106.3324
 30
0.0
 10
181.1805
 20
-104.8372
 30
0.0
 10
181.1805
 20
-104.8372
 30
0.0
 10
179.2638
 20
-107.8281
 30
0.0
 10
177.082
 20
-109.1086
 30
0.0
 10
175.31
 20
-108.6074
 30
0.0
 10
175.31
 20
-108.6074
 30
0.0
 10
174.3471
 20
-108.2651
 30
0.0
 10
173.8179
 20
-107.9037
 30
0.0
 10
173.4579
 20
-106.8216
 30
0.0
 10
173.4579
 20
-106.8216
 30
0.0
 10
171.5374
 20
-108.6039
 30
0.0
 10
169.4913
 20
-109.6474
 30
0.0
 10
167.3724
 20
-110.2611
 30
0.0
 10
167.3724
 20
-110.2611
 30
0.0
 10
167.3724
 20
-110.2611
 30
0.0
 10
192.1111
 20
-110.2611
 30
0.0
 10
192.1111
 20
-110.2611
 30
0.0
 10
192.1111
 20
-110.2611
 30
0.0
 10
192.1111
 20
-110.2611
 30
0.0
 10
192.1111
 20
-107.0199
 30
0.0
 10
192.1111
 20
-107.0199
 30
0.0
  0
SPLINE
  5
75
330
1F
100
AcDbEntity
  8
layer 1
 62
     7
370
    20
100
AcDbSpline
210
0.0
220
0.0
230
1.0
 70
    11
 71
     3
 72
    36
 73
    32
 74
     0
 42
0.0000000001
 43
0.0000000001
 12
1.0
 22
0.0
 32
0.0
 13
1.0
 23
0.0
 33
0.0
 40
0.0
 40
0.0
 40
0.0
 40
0.0
 40
0.1111111111111111
 40
0.1111111111111111
 40
0.1111111111111111
 40
0.1111111111111111
 40
0.2222222222222222
 40
0.2222222222222222
 40
0.2222222222222222
 40
0.2222222222222222
 40
0.3333333333333333
 40
0.3333333333333333
 40
0.3333333333333333
 40
0.3333333333333333
 40
0.4444444444444444
 40
0.4444444444444444
 40
0.4444444444444444
 40
0.4444444444444444
 40
0.5555555555555556
 40
0.5555555555555556
 40
0.5555555555555556
 40
0.5555555555555556
 40
0.6666666666666666
 40
0.6666666666666666
 40
0.6666666666666666
 40
0.6666666666666666
 40
0.7777777777777778
 40
0.7777777777777778
 40
0.7777777777777778
 40
0.7777777777777778
 40
1.0
 40
1.0
 40
1.0
 40
1.0
 10
192.1565
 20
123.5493
 30
0.0
 10
190.1183
 20
123.2135
 30
0.0
 10
188.2194
 20
122.3196
 30
0.0
 10
186.5341
 20
120.5729
 30
0.0
 10
186.5341
 20
120.5729
 30
0.0
 10
186.9815
 20
122.387
 30
0.0
 10
186.6028
 20
124.2914
 30
0.0
 10
185.3434
 20
124.6077
 30
0.0
 10
185.3434
 20
124.6077
 30
0.0
 10
183.9984
 20
125.0418
 30
0.0
 10
181.8542
 20
122.8618
 30
0.0
 10
181.2259
 20
121.3666
 30
0.0
 10
181.2259
 20
121.3666
 30
0.0
 10
179.3092
 20
124.3576
 30
0.0
 10
177.1274
 20
125.638
 30
0.0
 10
175.3554
 20
125.1368
 30
0.0
 10
175.3554
 20
125.1368
 30
0.0
 10
174.3925
 20
124.7945
 30
0.0
 10
173.8633
 20
124.4332
 30
0.0
 10
173.5033
 20
123.3509
 30
0.0
 10
173.5033
 20
123.3509
 30
0.0
 10
171.5828
 20
125.1334
 30
0.0
 10
169.5367
 20
126.1768
 30
0.0
 10
167.4178
 20
126.7906
 30
0.0
 10
167.4178
 20
126.7906
 30
0.0
 10
167.4178
 20
126.7906
 30
0.0
 10
192.1565
 20
126.7906
 30
0.0
 10
192.1565
 20
126.7906
 30
0.0
 10
192.1565
 20
126.7906
 30
0.0
 10
192.1565
 20
126.7906
 30
0.0
 10
192.1565
 20
123.5493
 30
0.0
 10
192.1565
 20
123.5493
 30
0.0
  0
SPLINE
  5
76
330
1F
100
AcDbEntity
  8
layer 1
 62
     7
370
    20
100
AcDbSpline
210
0.0
220
0.0
230
1.0
 70
    11
 71
     3
 72
    24
 73
    20
 74
     0
 42
0.0000000001
 43
0.0000000001
 12
1.0
 22
0.0
 32
0.0
 13
1.0
 23
0.0
 33
0.0
 40
0.0
 40
0.0
 40
0.0
 40
0.0
 40
0.1666666666666667
 40
0.1666666666666667
 40
0.1666666666666667
 40
0.1666666666666667
 40
0.3333333333333333
 40
0.3333333333333333
 40
0.3333333333333333
 40
0.3333333333333333
 40
0.5
 40
0.5
 40
0.5
 40
0.5
 40
0.6666666666666666
 40
0.6666666666666666
 40
0.6666666666666666
 40
0.6666666666666666
 40
1.0
 40
1.0
 40
1.0
 40
1.0
 10
141.1161
 20
-110.3406
 30
0.0
 10
144.8777
 20
-109.414
 30
0.0
 10
145.3666
 20
-105.358
 30
0.0
 10
142.1832
 20
-102.9983
 30
0.0
 10
142.1832
 20
-102.9983
 30
0.0
 10
146.6146
 20
-102.303
 30
0.0
 10
149.9341
 20
-100.8932
 30
0.0
 10
150.8154
 20
-96.2513
 30
0.0
 10
150.8154
 20
-96.2513
 30
0.0
 10
151.6967
 20
-100.8932
 30
0.0
 10
155.0755
 20
-102.259
 30
0.0
 10
159.5069
 20
-102.9541
 30
0.0
 10
159.5069
 20
-102.9541
 30
0.0
 10
156.3235
 20
-105.3139
 30
0.0
 10
156.8124
 20
-109.3699
 30
0.0
 10
160.574
 20
-110.2965
 30
0.0
 10
160.574
 20
-110.2965
 30
0.0
 10
160.574
 20
-110.2965
 30
0.0
 10
141.1161
 20
-110.3406
 30
0.0
 10
141.1161
 20
-110.3406
 30
0.0
  0
SPLINE
  5
77
330
1F
100
AcDbEntity
  8
layer 1
 62
     7
370
    20
100
AcDbSpline
210
0.0
220
0.0
230
1.0
 70
    11
 71
     3
 72
    28
 73
    24
 74
     0
 42
0.0000000001
 43
0.0000000001
 12
1.0
 22
0.0
 32
0.0
 13
1.0
 23
0.0
 33
0.0
 40
0.0
 40
0.0
 40
0.0
 40
0.0
 40
0.1428571428571428
 40
0.1428571428571428
 40
0.1428571428571428
 40
0.1428571428571428
 40
0.2857142857142857
 40
0.2857142857142857
 40
0.2857142857142857
 40
0.2857142857142857
 40
0.4285714285714285
 40
0.4285714285714285
 40
0.4285714285714285
 40
0.4285714285714285
 40
0.5714285714285714
 40
0.5714285714285714
 40
0.5714285714285714
 40
0.5714285714285714
 40
0.7142857142857143
 40
0.7142857142857143
 40
0.7142857142857143
 40
0.7142857142857143
 40
1.0
 40
1.0
 40
1.0
 40
1.0
 10
150.8608
 20
112.7807
 30
0.0
 10
151.7421
 20
117.4227
 30
0.0
 10
155.1209
 20
118.7884
 30
0.0
 10
159.5523
 20
119.4835
 30
0.0
 10
159.5523
 20
119.4835
 30
0.0
 10
156.3689
 20
121.8432
 30
0.0
 10
156.8578
 20
125.8993
 30
0.0
 10
160.6194
 20
126.8258
 30
0.0
 10
160.6194
 20
126.8258
 30
0.0
 10
160.6194
 20
126.8258
 30
0.0
 10
150.8904
 20
126.8478
 30
0.0
 10
150.8904
 20
126.8478
 30
0.0
 10
150.8904
 20
126.8478
 30
0.0
 10
150.8904
 20
126.8478
 30
0.0
 10
141.1615
 20
126.8699
 30
0.0
 10
141.1615
 20
126.8699
 30
0.0
 10
141.1615
 20
126.8699
 30
0.0
 10
144.9231
 20
125.9434
 30
0.0
 10
145.412
 20
121.8873
 30
0.0
 10
142.2286
 20
119.5276
 30
0.0
 10
142.2286
 20
119.5276
 30
0.0
 10
146.66
 20
118.8325
 30
0.0
 10
149.9795
 20
117.4227
 30
0.0
 10
150.8608
 20
112.7807
 30
0.0
  0
ENDSEC
  0
SECTION
  2
OBJECTS
  0
DICTIONARY
  5
C
330
0
100
AcDbDictionary
281
     1
  3
ACAD_GROUP
350
D
  3
ACAD_LAYOUT
350
1A
  3
ACAD_MATERIAL
350
3B
  3
ACAD_MLEADERSTYLE
350
9A
  3
ACAD_MLINESTYLE
350
17
  3
ACAD_PLOTSETTINGS
350
19
  3
ACAD_PLOTSTYLENAME
350
E
  3
ACAD_TABLESTYLE
350
99
  3
ACAD_VISUALSTYLE
350
2A
  0
DICTIONARY
  5
D
102
{ACAD_REACTORS
330
C
102
}
330
C
100
AcDbDictionary
281
     1
  0
DICTIONARY
  5
1A
102
{ACAD_REACTORS
330
C
102
}
330
C
100
AcDbDictionary
281
     1
  3
Layout1
350
1E
  3
Layout2
350
26
  3
Model
350
22
  0
DICTIONARY
  5
3B
102
{ACAD_REACTORS
330
C
102
}
330
C
100
AcDbDictionary
281
     1
  3
ByBlock
350
3D
  3
ByLayer
350
3C
  3
Global
350
3E
  0
DICTIONARY
  5
9A
102
{ACAD_REACTORS
330
C
102
}
330
C
100
AcDbDictionary
281
     1
  0
DICTIONARY
  5
17
102
{ACAD_REACTORS
330
C
102
}
330
C
100
AcDbDictionary
281
     1
  3
Standard
350
18
  0
DICTIONARY
  5
19
102
{ACAD_REACTORS
330
C
102
}
330
C
100
AcDbDictionary
281
     1
  0
ACDBDICTIONARYWDFLT
  5
E
102
{ACAD_REACTORS
330
C
102
}
330
C
100
AcDbDictionary
281
     1
  3
Normal
350
F
100
AcDbDictionaryWithDefault
340
F
  0
DICTIONARY
  5
99
102
{ACAD_REACTORS
330
C
102
}
330
C
100
AcDbDictionary
281
     1
  0
DICTIONARY
  5
2A
102
{ACAD_REACTORS
330
C
102
}
330
C
100
AcDbDictionary
281
     1
  3
2dWireframe
350
2F
  3
3D Hidden
350
31
  3
3dWireframe
350
30
  3
Basic
350
32
  3
Brighten
350
36
  3
ColorChange
350
3A
  3
Conceptual
350
34
  3
Dim
350
35
  3
Facepattern
350
39
  3
Flat
350
2B
  3
FlatWithEdges
350
2C
  3
Gouraud
350
2D
  3
GouraudWithEdges
350
2E
  3
Linepattern
350
38
  3
Realistic
350
33
  3
Thicken
350
37
  0
LAYOUT
  5
1E
102
{ACAD_REACTORS
330
1A
102
}
330
1A
100
AcDbPlotSettings
  1

  2
none_device
  4

  6

 40
0.0
 41
0.0
 42
0.0
 43
0.0
 44
0.0
 45
0.0
 46
0.0
 47
0.0
 48
0.0
 49
0.0
140
0.0
141
0.0
142
1.0
143
1.0
 70
   688
 72
     0
 73
     0
 74
     5
  7

 75
    16
 76
     0
 77
     2
 78
   300
147
1.0
148
0.0
149
0.0
100
AcDbLayout
  1
Layout1
 70
     1
 71
     1
 10
0.0
 20
0.0
 11
12.0
 21
9.0
 12
0.0
 22
0.0
 32
0.0
 14
1.000000000000000E+20
 24
1.000000000000000E+20
 34
1.000000000000000E+20
 15
-1.000000000000000E+20
 25
-1.000000000000000E+20
 35
-1.000000000000000E+20
146
0.0
 13
0.0
 23
0.0
 33
0.0
 16
1.0
 26
0.0
 36
0.0
 17
0.0
 27
1.0
 37
0.0
 76
     0
330
1B
  0
LAYOUT
  5
26
102
{ACAD_REACTORS
330
1A
102
}
330
1A
100
AcDbPlotSettings
  1

  2
none_device
  4

  6

 40
0.0
 41
0.0
 42
0.0
 43
0.0
 44
0.0
 45
0.0
 46
0.0
 47
0.0
 48
0.0
 49
0.0
140
0.0
141
0.0
142
1.0
143
1.0
 70
   688
 72
     0
 73
     0
 74
     5
  7

 75
    16
 76
     0
 77
     2
 78
   300
147
1.0
148
0.0
149
0.0
100
AcDbLayout
  1
Layout2
 70
     1
 71
     2
 10
0.0
 20
0.0
 11
0.0
 21
0.0
 12
0.0
 22
0.0
 32
0.0
 14
0.0
 24
0.0
 34
0.0
 15
0.0
 25
0.0
 35
0.0
146
0.0
 13
0.0
 23
0.0
 33
0.0
 16
1.0
 26
0.0
 36
0.0
 17
0.0
 27
1.0
 37
0.0
 76
     0
330
23
  0
LAYOUT
  5
22
102
{ACAD_REACTORS
330
1A
102
}
330
1A
100
AcDbPlotSettings
  1

  2
none_device
  4

  6

 40
0.0
 41
0.0
 42
0.0
 43
0.0
 44
0.0
 45
0.0
 46
0.0
 47
0.0
 48
0.0
 49
0.0
140
0.0
141
0.0
142
1.0
143
1.0
 70
  1712
 72
     0
 73
     0
 74
     0
  7

 75
     0
 76
     0
 77
     2
 78
   300
147
1.0
148
0.0
149
0.0
100
AcDbLayout
  1
Model
 70
     1
 71
     0
 10
0.0
 20
0.0
 11
12.0
 21
9.0
 12
0.0
 22
0.0
 32
0.0
 14
105.3615
 24
-115.2249
 34
0.0
 15
196.3741
 25
131.7542
 35
0.0
146
0.0
 13
0.0
 23
0.0
 33
0.0
 16
1.0
 26
0.0
 36
0.0
 17
0.0
 27
1.0
 37
0.0
 76
     0
330
1F
331
29
  0
MATERIAL
  5
3D
102
{ACAD_REACTORS
330
3B
102
}
330
3B
100
AcDbMaterial
  1
ByBlock
 72
     1
 94
      127
  0
MATERIAL
  5
3C
102
{ACAD_REACTORS
330
3B
102
}
330
3B
100
AcDbMaterial
  1
ByLayer
 72
     1
 94
      127
  0
MATERIAL
  5
3E
102
{ACAD_REACTORS
330
3B
102
}
330
3B
100
AcDbMaterial
  1
Global
 72
     1
 94
      127
  0
MLINESTYLE
  5
18
102
{ACAD_REACTORS
330
17
102
}
330
17
100
AcDbMlineStyle
  2
Standard
 70
     0
  3

 62
   256
 51
90.0
 52
90.0
 71
     2
 49
0.5
 62
   256
  6
BYLAYER
 49
-0.5
 62
   256
  6
BYLAYER
  0
ACDBPLACEHOLDER
  5
F
102
{ACAD_REACTORS
330
E
102
}
330
E
  0
VISUALSTYLE
  5
2F
102
{ACAD_REACTORS
330
2A
102
}
102
{ACAD_XDICTIONARY
360
81
102
}
330
2A
100
AcDbVisualStyle
  2
2dWireframe
 70
     4
 71
     0
 72
     2
 73
     0
 90
        0
 40
-0.6
 41
-30.0
 62
     5
 63
     7
421
 16777215
 74
     1
 91
        4
 64
     7
 65
   257
 75
     1
175
     1
 42
1.0
 92
        0
 66
   257
 43
1.0
 76
     1
 77
     6
 78
     2
 67
     7
 79
     5
170
     0
171
     0
290
     0
174
     0
 93
        1
 44
0.0
173
     0
291
     0
 45
0.0
  0
VISUALSTYLE
  5
31
102
{ACAD_REACTORS
330
2A
102
}
102
{ACAD_XDICTIONARY
360
85
102
}
330
2A
100
AcDbVisualStyle
  2
3D Hidden
 70
     6
 71
     1
 72
     2
 73
     2
 90
        0
 40
-0.6
 41
-30.0
 62
     5
 63
     7
421
 16777215
 74
     2
 91
        2
 64
     7
 65
   257
 75
     2
175
     1
 42
40.0
 92
        0
 66
   257
 43
1.0
 76
     1
 77
     6
 78
     2
 67
     7
 79
     3
170
     0
171
     0
290
     0
174
     0
 93
        1
 44
0.0
173
     0
291
     0
 45
0.0
  0
VISUALSTYLE
  5
30
102
{ACAD_REACTORS
330
2A
102
}
102
{ACAD_XDICTIONARY
360
83
102
}
330
2A
100
AcDbVisualStyle
  2
3dWireframe
 70
     5
 71
     0
 72
     2
 73
     0
 90
        0
 40
-0.6
 41
-30.0
 62
     5
 63
     7
421
 16777215
 74
     1
 91
        4
 64
     7
 65
   257
 75
     1
175
     1
 42
1.0
 92
        0
 66
   257
 43
1.0
 76
     1
 77
     6
 78
     2
 67
     7
 79
     5
170
     0
171
     0
290
     0
174
     0
 93
        1
 44
0.0
173
     0
291
     0
 45
0.0
  0
VISUALSTYLE
  5
32
102
{ACAD_REACTORS
330
2A
102
}
102
{ACAD_XDICTIONARY
360
87
102
}
330
2A
100
AcDbVisualStyle
  2
Basic
 70
     7
 71
     1
 72
     0
 73
     1
 90
        0
 40
-0.6
 41
-30.0
 62
     5
 63
     7
421
 16777215
 74
     0
 91
        4
 64
     7
 65
   257
 75
     1
175
     1
 42
1.0
 92
        8
 66
     7
 43
1.0
 76
     1
 77
     6
 78
     2
 67
     7
 79
     5
170
     0
171
     0
290
     0
174
     0
 93
        1
 44
0.0
173
     0
291
     1
 45
0.0
  0
VISUALSTYLE
  5
36
102
{ACAD_REACTORS
330
2A
102
}
102
{ACAD_XDICTIONARY
360
8F
102
}
330
2A
100
AcDbVisualStyle
  2
Brighten
 70
    12
 71
     2
 72
     2
 73
     0
 90
        0
 40
-0.6
 41
-30.0
 62
     5
 63
     7
421
 16777215
 74
     1
 91
        4
 64
     7
 65
   257
 75
     1
175
     1
 42
1.0
 92
        8
 66
     7
 43
1.0
 76
     1
 77
     6
 78
     2
 67
     7
 79
     5
170
     0
171
     0
290
     0
174
     0
 93
        1
 44
50.0
173
     0
291
     1
 45
0.0
  0
VISUALSTYLE
  5
3A
102
{ACAD_REACTORS
330
2A
102
}
102
{ACAD_XDICTIONARY
360
97
102
}
330
2A
100
AcDbVisualStyle
  2
ColorChange
 70
    16
 71
     2
 72
     2
 73
     3
 90
        0
 40
-0.6
 41
-30.0
 62
     5
 63
     8
421
  8421504
 74
     1
 91
        4
 64
     7
 65
   257
 75
     1
175
     1
 42
1.0
 92
        8
 66
     8
424
  8421504
 43
1.0
 76
     1
 77
     6
 78
     2
 67
     7
 79
     5
170
     0
171
     0
290
     0
174
     0
 93
        1
 44
0.0
173
     0
291
     1
 45
0.0
  0
VISUALSTYLE
  5
34
102
{ACAD_REACTORS
330
2A
102
}
102
{ACAD_XDICTIONARY
360
8B
102
}
330
2A
100
AcDbVisualStyle
  2
Conceptual
 70
     9
 71
     3
 72
     2
 73
     0
 90
        0
 40
-0.6
 41
-30.0
 62
     5
 63
     7
421
 16777215
 74
     2
 91
        2
 64
     7
 65
   257
 75
     1
175
     1
 42
40.0
 92
        8
 66
     7
 43
1.0
 76
     1
 77
     6
 78
     2
 67
     7
 79
     3
170
     0
171
     0
290
     0
174
     0
 93
        1
 44
0.0
173
     0
291
     0
 45
0.0
  0
VISUALSTYLE
  5
35
102
{ACAD_REACTORS
330
2A
102
}
102
{ACAD_XDICTIONARY
360
8D
102
}
330
2A
100
AcDbVisualStyle
  2
Dim
 70
    11
 71
     2
 72
     2
 73
     0
 90
        0
 40
-0.6
 41
-30.0
 62
     5
 63
     7
421
 16777215
 74
     1
 91
        4
 64
     7
 65
   257
 75
     1
175
     1
 42
1.0
 92
        8
 66
     7
 43
1.0
 76
     1
 77
     6
 78
     2
 67
     7
 79
     5
170
     0
171
     0
290
     0
174
     0
 93
        1
 44
-50.0
173
     0
291
     1
 45
0.0
  0
VISUALSTYLE
  5
39
102
{ACAD_REACTORS
330
2A
102
}
102
{ACAD_XDICTIONARY
360
95
102
}
330
2A
100
AcDbVisualStyle
  2
Facepattern
 70
    15
 71
     2
 72
     2
 73
     0
 90
        0
 40
-0.6
 41
-30.0
 62
     5
 63
     7
421
 16777215
 74
     1
 91
        4
 64
     7
 65
   257
 75
     1
175
     1
 42
1.0
 92
        8
 66
     7
 43
1.0
 76
     1
 77
     6
 78
     2
 67
     7
 79
     5
170
     0
171
     0
290
     0
174
     0
 93
        1
 44
0.0
173
     0
291
     1
 45
0.0
  0
VISUALSTYLE
  5
2B
102
{ACAD_REACTORS
330
2A
102
}
102
{ACAD_XDICTIONARY
360
79
102
}
330
2A
100
AcDbVisualStyle
  2
Flat
 70
     0
 71
     2
 72
     1
 73
     1
 90
        2
 40
-0.6
 41
30.0
 62
     5
 63
     7
421
 16777215
 74
     0
 91
        4
 64
     7
 65
   257
 75
     1
175
     1
 42
1.0
 92
        8
 66
     7
 43
1.0
 76
     1
 77
     6
 78
     2
 67
     7
 79
     5
170
     0
171
     0
290
     0
174
     0
 93
       13
 44
0.0
173
     0
291
     1
 45
0.0
  0
VISUALSTYLE
  5
2C
102
{ACAD_REACTORS
330
2A
102
}
102
{ACAD_XDICTIONARY
360
7B
102
}
330
2A
100
AcDbVisualStyle
  2
FlatWithEdges
 70
     1
 71
     2
 72
     1
 73
     1
 90
        2
 40
-0.6
 41
30.0
 62
     5
 63
     7
421
 16777215
 74
     1
 91
        4
 64
     7
 65
   257
 75
     1
175
     1
 42
1.0
 92
        0
 66
   257
 43
1.0
 76
     1
 77
     6
 78
     2
 67
     7
 79
     5
170
     0
171
     0
290
     0
174
     0
 93
       13
 44
0.0
173
     0
291
     1
 45
0.0
  0
VISUALSTYLE
  5
2D
102
{ACAD_REACTORS
330
2A
102
}
102
{ACAD_XDICTIONARY
360
7D
102
}
330
2A
100
AcDbVisualStyle
  2
Gouraud
 70
     2
 71
     2
 72
     2
 73
     1
 90
        2
 40
-0.6
 41
30.0
 62
     5
 63
     7
421
 16777215
 74
     0
 91
        4
 64
     7
 65
   257
 75
     1
175
     1
 42
1.0
 92
        0
 66
     7
 43
1.0
 76
     1
 77
     6
 78
     2
 67
     7
 79
     5
170
     0
171
     0
290
     0
174
     0
 93
       13
 44
0.0
173
     0
291
     1
 45
0.0
  0
VISUALSTYLE
  5
2E
102
{ACAD_REACTORS
330
2A
102
}
102
{ACAD_XDICTIONARY
360
7F
102
}
330
2A
100
AcDbVisualStyle
  2
GouraudWithEdges
 70
     3
 71
     2
 72
     2
 73
     1
 90
        2
 40
-0.6
 41
30.0
 62
     5
 63
     7
421
 16777215
 74
     1
 91
        4
 64
     7
 65
   257
 75
     1
175
     1
 42
1.0
 92
        0
 66
   257
 43
1.0
 76
     1
 77
     6
 78
     2
 67
     7
 79
     5
170
     0
171
     0
290
     0
174
     0
 93
       13
 44
0.0
173
     0
291
     1
 45
0.0
  0
VISUALSTYLE
  5
38
102
{ACAD_REACTORS
330
2A
102
}
102
{ACAD_XDICTIONARY
360
93
102
}
330
2A
100
AcDbVisualStyle
  2
Linepattern
 70
    14
 71
     2
 72
     2
 73
     0
 90
        0
 40
-0.6
 41
-30.0
 62
     5
 63
     7
421
 16777215
 74
     1
 91
        4
 64
     7
 65
   257
 75
     7
175
     7
 42
1.0
 92
        8
 66
     7
 43
1.0
 76
     1
 77
     6
 78
     2
 67
     7
 79
     5
170
     0
171
     0
290
     0
174
     0
 93
        1
 44
0.0
173
     0
291
     1
 45
0.0
  0
VISUALSTYLE
  5
33
102
{ACAD_REACTORS
330
2A
102
}
102
{ACAD_XDICTIONARY
360
89
102
}
330
2A
100
AcDbVisualStyle
  2
Realistic
 70
     8
 71
     2
 72
     2
 73
     0
 90
        0
 40
-0.6
 41
-30.0
 62
     5
 63
     7
421
 16777215
 74
     1
 91
        0
 64
     7
 65
   257
 75
     1
175
     1
 42
1.0
 92
        8
 66
     8
424
  7895160
 43
1.0
 76
     1
 77
     6
 78
     2
 67
     7
 79
     5
170
     0
171
     0
290
     0
174
     0
 93
       13
 44
0.0
173
     0
291
     0
 45
0.0
  0
VISUALSTYLE
  5
37
102
{ACAD_REACTORS
330
2A
102
}
102
{ACAD_XDICTIONARY
360
91
102
}
330
2A
100
AcDbVisualStyle
  2
Thicken
 70
    13
 71
     2
 72
     2
 73
     0
 90
        0
 40
-0.6
 41
-30.0
 62
     5
 63
     7
421
 16777215
 74
     1
 91
        4
 64
     7
 65
   257
 75
     1
175
     1
 42
1.0
 92
       12
 66
     7
 43
1.0
 76
     1
 77
     6
 78
     2
 67
     7
 79
     5
170
     0
171
     0
290
     0
174
     0
 93
        1
 44
0.0
173
     0
291
     1
 45
0.0
  0
DICTIONARY
  5
81
330
2F
100
AcDbDictionary
280
     1
281
     1
  3
ACAD_XREC_ROUNDTRIP
360
82
  0
DICTIONARY
  5
85
330
31
100
AcDbDictionary
280
     1
281
     1
  3
ACAD_XREC_ROUNDTRIP
360
86
  0
DICTIONARY
  5
83
330
30
100
AcDbDictionary
280
     1
281
     1
  3
ACAD_XREC_ROUNDTRIP
360
84
  0
DICTIONARY
  5
87
330
32
100
AcDbDictionary
280
     1
281
     1
  3
ACAD_XREC_ROUNDTRIP
360
88
  0
DICTIONARY
  5
8F
330
36
100
AcDbDictionary
280
     1
281
     1
  3
ACAD_XREC_ROUNDTRIP
360
90
  0
DICTIONARY
  5
97
330
3A
100
AcDbDictionary
280
     1
281
     1
  3
ACAD_XREC_ROUNDTRIP
360
98
  0
DICTIONARY
  5
8B
330
34
100
AcDbDictionary
280
     1
281
     1
  3
ACAD_XREC_ROUNDTRIP
360
8C
  0
DICTIONARY
  5
8D
330
35
100
AcDbDictionary
280
     1
281
     1
  3
ACAD_XREC_ROUNDTRIP
360
8E
  0
DICTIONARY
  5
95
330
39
100
AcDbDictionary
280
     1
281
     1
  3
ACAD_XREC_ROUNDTRIP
360
96
  0
DICTIONARY
  5
79
330
2B
100
AcDbDictionary
280
     1
281
     1
  3
ACAD_XREC_ROUNDTRIP
360
7A
  0
DICTIONARY
  5
7B
330
2C
100
AcDbDictionary
280
     1
281
     1
  3
ACAD_XREC_ROUNDTRIP
360
7C
  0
DICTIONARY
  5
7D
330
2D
100
AcDbDictionary
280
     1
281
     1
  3
ACAD_XREC_ROUNDTRIP
360
7E
  0
DICTIONARY
  5
7F
330
2E
100
AcDbDictionary
280
     1
281
     1
  3
ACAD_XREC_ROUNDTRIP
360
80
  0
DICTIONARY
  5
93
330
38
100
AcDbDictionary
280
     1
281
     1
  3
ACAD_XREC_ROUNDTRIP
360
94
  0
DICTIONARY
  5
89
330
33
100
AcDbDictionary
280
     1
281
     1
  3
ACAD_XREC_ROUNDTRIP
360
8A
  0
DICTIONARY
  5
91
330
37
100
AcDbDictionary
280
     1
281
     1
  3
ACAD_XREC_ROUNDTRIP
360
92
  0
XRECORD
  5
82
102
{ACAD_REACTORS
330
81
102
}
330
81
100
AcDbXrecord
280
     1
102
RTVSPropertyOp0
 70
     1
102
RTVSPropertyOp1
 70
     1
102
RTVSPropertyOp2
 70
     1
102
RTVSPropertyOp3
 70
     1
102
RTVSPropertyOp4
 70
     1
102
RTVSPropertyOp5
 70
     1
102
RTVSPropertyOp6
 70
     1
102
RTVSPropertyOp7
 70
     1
102
RTVSPropertyOp8
 70
     1
102
RTVSPropertyOp9
 70
     1
102
RTVSPropertyOp10
 70
     1
102
RTVSPropertyOp11
 70
     1
102
RTVSPropertyOp12
 70
     1
102
RTVSPropertyOp13
 70
     1
102
RTVSPropertyOp14
 70
     1
102
RTVSPropertyOp15
 70
     1
102
RTVSPropertyOp16
 70
     1
102
RTVSPropertyOp17
 70
     1
102
RTVSPropertyOp18
 70
     1
102
RTVSPropertyOp19
 70
     1
102
RTVSPropertyOp20
 70
     1
102
RTVSPropertyOp21
 70
     1
102
RTVSPropertyOp22
 70
     1
102
RTVSPropertyOp23
 70
     1
102
RTVSPropertyOp24
 70
     1
102
RTVSPropertyOp25
 70
     1
102
RTVSPropertyOp26
 70
     1
102
RTVSPropertyOp27
 70
     1
102
RTVSPropertyOp28
 70
     1
102
RTVSPropertyOp29
 70
     1
102
RTVSPropertyOp30
 70
     1
102
RTVSPropertyOp31
 70
     1
102
RTVSPropertyOp32
 70
     1
  0
XRECORD
  5
86
102
{ACAD_REACTORS
330
85
102
}
330
85
100
AcDbXrecord
280
     1
102
RTVSPropertyOp0
 70
     1
102
RTVSPropertyOp1
 70
     1
102
RTVSPropertyOp2
 70
     1
102
RTVSPropertyOp3
 70
     1
102
RTVSPropertyOp4
 70
     1
102
RTVSPropertyOp5
 70
     1
102
RTVSPropertyOp6
 70
     1
102
RTVSPropertyOp7
 70
     1
102
RTVSPropertyOp8
 70
     1
102
RTVSPropertyOp9
 70
     1
102
RTVSPropertyOp10
 70
     1
102
RTVSPropertyOp11
 70
     1
102
RTVSPropertyOp12
 70
     1
102
RTVSPropertyOp13
 70
     1
102
RTVSPropertyOp14
 70
     1
102
RTVSPropertyOp15
 70
     1
102
RTVSPropertyOp16
 70
     1
102
RTVSPropertyOp17
 70
     1
102
RTVSPropertyOp18
 70
     1
102
RTVSPropertyOp19
 70
     1
102
RTVSPropertyOp20
 70
     1
102
RTVSPropertyOp21
 70
     1
102
RTVSPropertyOp22
 70
     1
102
RTVSPropertyOp23
 70
     1
102
RTVSPropertyOp24
 70
     1
102
RTVSPropertyOp25
 70
     1
102
RTVSPropertyOp26
 70
     1
102
RTVSPropertyOp27
 70
     1
102
RTVSPropertyOp28
 70
     1
102
RTVSPropertyOp29
 70
     1
102
RTVSPropertyOp30
 70
     1
102
RTVSPropertyOp31
 70
     1
102
RTVSPropertyOp32
 70
     1
  0
XRECORD
  5
84
102
{ACAD_REACTORS
330
83
102
}
330
83
100
AcDbXrecord
280
     1
102
RTVSPropertyOp0
 70
     1
102
RTVSPropertyOp1
 70
     1
102
RTVSPropertyOp2
 70
     1
102
RTVSPropertyOp3
 70
     1
102
RTVSPropertyOp4
 70
     1
102
RTVSPropertyOp5
 70
     1
102
RTVSPropertyOp6
 70
     1
102
RTVSPropertyOp7
 70
     1
102
RTVSPropertyOp8
 70
     1
102
RTVSPropertyOp9
 70
     1
102
RTVSPropertyOp10
 70
     1
102
RTVSPropertyOp11
 70
     1
102
RTVSPropertyOp12
 70
     1
102
RTVSPropertyOp13
 70
     1
102
RTVSPropertyOp14
 70
     1
102
RTVSPropertyOp15
 70
     1
102
RTVSPropertyOp16
 70
     1
102
RTVSPropertyOp17
 70
     1
102
RTVSPropertyOp18
 70
     1
102
RTVSPropertyOp19
 70
     1
102
RTVSPropertyOp20
 70
     1
102
RTVSPropertyOp21
 70
     1
102
RTVSPropertyOp22
 70
     1
102
RTVSPropertyOp23
 70
     1
102
RTVSPropertyOp24
 70
     1
102
RTVSPropertyOp25
 70
     1
102
RTVSPropertyOp26
 70
     1
102
RTVSPropertyOp27
 70
     1
102
RTVSPropertyOp28
 70
     1
102
RTVSPropertyOp29
 70
     1
102
RTVSPropertyOp30
 70
     1
102
RTVSPropertyOp31
 70
     1
102
RTVSPropertyOp32
 70
     1
  0
XRECORD
  5
88
102
{ACAD_REACTORS
330
87
102
}
330
87
100
AcDbXrecord
280
     1
102
RTVSPropertyOp0
 70
     1
102
RTVSPropertyOp1
 70
     1
102
RTVSPropertyOp2
 70
     1
102
RTVSPropertyOp3
 70
     1
102
RTVSPropertyOp4
 70
     1
102
RTVSPropertyOp5
 70
     1
102
RTVSPropertyOp6
 70
     1
102
RTVSPropertyOp7
 70
     1
102
RTVSPropertyOp8
 70
     1
102
RTVSPropertyOp9
 70
     1
102
RTVSPropertyOp10
 70
     1
102
RTVSPropertyOp11
 70
     1
102
RTVSPropertyOp12
 70
     1
102
RTVSPropertyOp13
 70
     1
102
RTVSPropertyOp14
 70
     1
102
RTVSPropertyOp15
 70
     1
102
RTVSPropertyOp16
 70
     1
102
RTVSPropertyOp17
 70
     1
102
RTVSPropertyOp18
 70
     1
102
RTVSPropertyOp19
 70
     1
102
RTVSPropertyOp20
 70
     1
102
RTVSPropertyOp21
 70
     1
102
RTVSPropertyOp22
 70
     1
102
RTVSPropertyOp23
 70
     1
102
RTVSPropertyOp24
 70
     1
102
RTVSPropertyOp25
 70
     1
102
RTVSPropertyOp26
 70
     1
102
RTVSPropertyOp27
 70
     1
102
RTVSPropertyOp28
 70
     1
102
RTVSPropertyOp29
 70
     1
102
RTVSPropertyOp30
 70
     1
102
RTVSPropertyOp31
 70
     1
102
RTVSPropertyOp32
 70
     1
  0
XRECORD
  5
90
102
{ACAD_REACTORS
330
8F
102
}
330
8F
100
AcDbXrecord
280
     1
102
RTVSPropertyOp0
 70
     1
102
RTVSPropertyOp1
 70
     1
102
RTVSPropertyOp2
 70
     1
102
RTVSPropertyOp3
 70
     1
102
RTVSPropertyOp4
 70
     1
102
RTVSPropertyOp5
 70
     1
102
RTVSPropertyOp6
 70
     1
102
RTVSPropertyOp7
 70
     1
102
RTVSPropertyOp8
 70
     1
102
RTVSPropertyOp9
 70
     1
102
RTVSPropertyOp10
 70
     1
102
RTVSPropertyOp11
 70
     1
102
RTVSPropertyOp12
 70
     1
102
RTVSPropertyOp13
 70
     1
102
RTVSPropertyOp14
 70
     1
102
RTVSPropertyOp15
 70
     1
102
RTVSPropertyOp16
 70
     1
102
RTVSPropertyOp17
 70
     1
102
RTVSPropertyOp18
 70
     1
102
RTVSPropertyOp19
 70
     1
102
RTVSPropertyOp20
 70
     1
102
RTVSPropertyOp21
 70
     1
102
RTVSPropertyOp22
 70
     1
102
RTVSPropertyOp23
 70
     1
102
RTVSPropertyOp24
 70
     1
102
RTVSPropertyOp25
 70
     1
102
RTVSPropertyOp26
 70
     1
102
RTVSPropertyOp27
 70
     1
102
RTVSPropertyOp28
 70
     1
102
RTVSPropertyOp29
 70
     1
102
RTVSPropertyOp30
 70
     1
102
RTVSPropertyOp31
 70
     1
102
RTVSPropertyOp32
 70
     1
  0
XRECORD
  5
98
102
{ACAD_REACTORS
330
97
102
}
330
97
100
AcDbXrecord
280
     1
102
RTVSPropertyOp0
 70
     1
102
RTVSPropertyOp1
 70
     1
102
RTVSPropertyOp2
 70
     1
102
RTVSPropertyOp3
 70
     1
102
RTVSPropertyOp4
 70
     1
102
RTVSPropertyOp5
 70
     1
102
RTVSPropertyOp6
 70
     1
102
RTVSPropertyOp7
 70
     1
102
RTVSPropertyOp8
 70
     1
102
RTVSPropertyOp9
 70
     1
102
RTVSPropertyOp10
 70
     1
102
RTVSPropertyOp11
 70
     1
102
RTVSPropertyOp12
 70
     1
102
RTVSPropertyOp13
 70
     1
102
RTVSPropertyOp14
 70
     1
102
RTVSPropertyOp15
 70
     1
102
RTVSPropertyOp16
 70
     1
102
RTVSPropertyOp17
 70
     1
102
RTVSPropertyOp18
 70
     1
102
RTVSPropertyOp19
 70
     1
102
RTVSPropertyOp20
 70
     1
102
RTVSPropertyOp21
 70
     1
102
RTVSPropertyOp22
 70
     1
102
RTVSPropertyOp23
 70
     1
102
RTVSPropertyOp24
 70
     1
102
RTVSPropertyOp25
 70
     1
102
RTVSPropertyOp26
 70
     1
102
RTVSPropertyOp27
 70
     1
102
RTVSPropertyOp28
 70
     1
102
RTVSPropertyOp29
 70
     1
102
RTVSPropertyOp30
 70
     1
102
RTVSPropertyOp31
 70
     1
102
RTVSPropertyOp32
 70
     1
  0
XRECORD
  5
8C
102
{ACAD_REACTORS
330
8B
102
}
330
8B
100
AcDbXrecord
280
     1
102
RTVSPropertyOp0
 70
     1
102
RTVSPropertyOp1
 70
     1
102
RTVSPropertyOp2
 70
     1
102
RTVSPropertyOp3
 70
     1
102
RTVSPropertyOp4
 70
     1
102
RTVSPropertyOp5
 70
     1
102
RTVSPropertyOp6
 70
     1
102
RTVSPropertyOp7
 70
     1
102
RTVSPropertyOp8
 70
     1
102
RTVSPropertyOp9
 70
     1
102
RTVSPropertyOp10
 70
     1
102
RTVSPropertyOp11
 70
     1
102
RTVSPropertyOp12
 70
     1
102
RTVSPropertyOp13
 70
     1
102
RTVSPropertyOp14
 70
     1
102
RTVSPropertyOp15
 70
     1
102
RTVSPropertyOp16
 70
     1
102
RTVSPropertyOp17
 70
     1
102
RTVSPropertyOp18
 70
     1
102
RTVSPropertyOp19
 70
     1
102
RTVSPropertyOp20
 70
     1
102
RTVSPropertyOp21
 70
     1
102
RTVSPropertyOp22
 70
     1
102
RTVSPropertyOp23
 70
     1
102
RTVSPropertyOp24
 70
     1
102
RTVSPropertyOp25
 70
     1
102
RTVSPropertyOp26
 70
     1
102
RTVSPropertyOp27
 70
     1
102
RTVSPropertyOp28
 70
     1
102
RTVSPropertyOp29
 70
     1
102
RTVSPropertyOp30
 70
     1
102
RTVSPropertyOp31
 70
     1
102
RTVSPropertyOp32
 70
     1
  0
XRECORD
  5
8E
102
{ACAD_REACTORS
330
8D
102
}
330
8D
100
AcDbXrecord
280
     1
102
RTVSPropertyOp0
 70
     1
102
RTVSPropertyOp1
 70
     1
102
RTVSPropertyOp2
 70
     1
102
RTVSPropertyOp3
 70
     1
102
RTVSPropertyOp4
 70
     1
102
RTVSPropertyOp5
 70
     1
102
RTVSPropertyOp6
 70
     1
102
RTVSPropertyOp7
 70
     1
102
RTVSPropertyOp8
 70
     1
102
RTVSPropertyOp9
 70
     1
102
RTVSPropertyOp10
 70
     1
102
RTVSPropertyOp11
 70
     1
102
RTVSPropertyOp12
 70
     1
102
RTVSPropertyOp13
 70
     1
102
RTVSPropertyOp14
 70
     1
102
RTVSPropertyOp15
 70
     1
102
RTVSPropertyOp16
 70
     1
102
RTVSPropertyOp17
 70
     1
102
RTVSPropertyOp18
 70
     1
102
RTVSPropertyOp19
 70
     1
102
RTVSPropertyOp20
 70
     1
102
RTVSPropertyOp21
 70
     1
102
RTVSPropertyOp22
 70
     1
102
RTVSPropertyOp23
 70
     1
102
RTVSPropertyOp24
 70
     1
102
RTVSPropertyOp25
 70
     1
102
RTVSPropertyOp26
 70
     1
102
RTVSPropertyOp27
 70
     1
102
RTVSPropertyOp28
 70
     1
102
RTVSPropertyOp29
 70
     1
102
RTVSPropertyOp30
 70
     1
102
RTVSPropertyOp31
 70
     1
102
RTVSPropertyOp32
 70
     1
  0
XRECORD
  5
96
102
{ACAD_REACTORS
330
95
102
}
330
95
100
AcDbXrecord
280
     1
102
RTVSPropertyOp0
 70
     1
102
RTVSPropertyOp1
 70
     1
102
RTVSPropertyOp2
 70
     1
102
RTVSPropertyOp3
 70
     1
102
RTVSPropertyOp4
 70
     1
102
RTVSPropertyOp5
 70
     1
102
RTVSPropertyOp6
 70
     1
102
RTVSPropertyOp7
 70
     1
102
RTVSPropertyOp8
 70
     1
102
RTVSPropertyOp9
 70
     1
102
RTVSPropertyOp10
 70
     1
102
RTVSPropertyOp11
 70
     1
102
RTVSPropertyOp12
 70
     1
102
RTVSPropertyOp13
 70
     1
102
RTVSPropertyOp14
 70
     1
102
RTVSPropertyOp15
 70
     1
102
RTVSPropertyOp16
 70
     1
102
RTVSPropertyOp17
 70
     1
102
RTVSPropertyOp18
 70
     1
102
RTVSPropertyOp19
 70
     1
102
RTVSPropertyOp20
 70
     1
102
RTVSPropertyOp21
 70
     1
102
RTVSPropertyOp22
 70
     1
102
RTVSPropertyOp23
 70
     1
102
RTVSPropertyOp24
 70
     1
102
RTVSPropertyOp25
 70
     1
102
RTVSPropertyOp26
 70
     1
102
RTVSPropertyOp27
 70
     1
102
RTVSPropertyOp28
 70
     1
102
RTVSPropertyOp29
 70
     1
102
RTVSPropertyOp30
 70
     1
102
RTVSPropertyOp31
 70
     1
102
RTVSPropertyOp32
 70
     1
  0
XRECORD
  5
7A
102
{ACAD_REACTORS
330
79
102
}
330
79
100
AcDbXrecord
280
     1
102
RTVSPropertyOp0
 70
     1
102
RTVSPropertyOp1
 70
     1
102
RTVSPropertyOp2
 70
     1
102
RTVSPropertyOp3
 70
     1
102
RTVSPropertyOp4
 70
     1
102
RTVSPropertyOp5
 70
     1
102
RTVSPropertyOp6
 70
     1
102
RTVSPropertyOp7
 70
     1
102
RTVSPropertyOp8
 70
     1
102
RTVSPropertyOp9
 70
     1
102
RTVSPropertyOp10
 70
     1
102
RTVSPropertyOp11
 70
     1
102
RTVSPropertyOp12
 70
     1
102
RTVSPropertyOp13
 70
     1
102
RTVSPropertyOp14
 70
     1
102
RTVSPropertyOp15
 70
     1
102
RTVSPropertyOp16
 70
     1
102
RTVSPropertyOp17
 70
     1
102
RTVSPropertyOp18
 70
     1
102
RTVSPropertyOp19
 70
     1
102
RTVSPropertyOp20
 70
     1
102
RTVSPropertyOp21
 70
     1
102
RTVSPropertyOp22
 70
     1
102
RTVSPropertyOp23
 70
     1
102
RTVSPropertyOp24
 70
     1
102
RTVSPropertyOp25
 70
     1
102
RTVSPropertyOp26
 70
     1
102
RTVSPropertyOp27
 70
     1
102
RTVSPropertyOp28
 70
     1
102
RTVSPropertyOp29
 70
     1
102
RTVSPropertyOp30
 70
     1
102
RTVSPropertyOp31
 70
     1
102
RTVSPropertyOp32
 70
     1
  0
XRECORD
  5
7C
102
{ACAD_REACTORS
330
7B
102
}
330
7B
100
AcDbXrecord
280
     1
102
RTVSPropertyOp0
 70
     1
102
RTVSPropertyOp1
 70
     1
102
RTVSPropertyOp2
 70
     1
102
RTVSPropertyOp3
 70
     1
102
RTVSPropertyOp4
 70
     1
102
RTVSPropertyOp5
 70
     1
102
RTVSPropertyOp6
 70
     1
102
RTVSPropertyOp7
 70
     1
102
RTVSPropertyOp8
 70
     1
102
RTVSPropertyOp9
 70
     1
102
RTVSPropertyOp10
 70
     1
102
RTVSPropertyOp11
 70
     1
102
RTVSPropertyOp12
 70
     1
102
RTVSPropertyOp13
 70
     1
102
RTVSPropertyOp14
 70
     1
102
RTVSPropertyOp15
 70
     1
102
RTVSPropertyOp16
 70
     1
102
RTVSPropertyOp17
 70
     1
102
RTVSPropertyOp18
 70
     1
102
RTVSPropertyOp19
 70
     1
102
RTVSPropertyOp20
 70
     1
102
RTVSPropertyOp21
 70
     1
102
RTVSPropertyOp22
 70
     1
102
RTVSPropertyOp23
 70
     1
102
RTVSPropertyOp24
 70
     1
102
RTVSPropertyOp25
 70
     1
102
RTVSPropertyOp26
 70
     1
102
RTVSPropertyOp27
 70
     1
102
RTVSPropertyOp28
 70
     1
102
RTVSPropertyOp29
 70
     1
102
RTVSPropertyOp30
 70
     1
102
RTVSPropertyOp31
 70
     1
102
RTVSPropertyOp32
 70
     1
  0
XRECORD
  5
7E
102
{ACAD_REACTORS
330
7D
102
}
330
7D
100
AcDbXrecord
280
     1
102
RTVSPropertyOp0
 70
     1
102
RTVSPropertyOp1
 70
     1
102
RTVSPropertyOp2
 70
     1
102
RTVSPropertyOp3
 70
     1
102
RTVSPropertyOp4
 70
     1
102
RTVSPropertyOp5
 70
     1
102
RTVSPropertyOp6
 70
     1
102
RTVSPropertyOp7
 70
     1
102
RTVSPropertyOp8
 70
     1
102
RTVSPropertyOp9
 70
     1
102
RTVSPropertyOp10
 70
     1
102
RTVSPropertyOp11
 70
     1
102
RTVSPropertyOp12
 70
     1
102
RTVSPropertyOp13
 70
     1
102
RTVSPropertyOp14
 70
     1
102
RTVSPropertyOp15
 70
     1
102
RTVSPropertyOp16
 70
     1
102
RTVSPropertyOp17
 70
     1
102
RTVSPropertyOp18
 70
     1
102
RTVSPropertyOp19
 70
     1
102
RTVSPropertyOp20
 70
     1
102
RTVSPropertyOp21
 70
     1
102
RTVSPropertyOp22
 70
     1
102
RTVSPropertyOp23
 70
     1
102
RTVSPropertyOp24
 70
     1
102
RTVSPropertyOp25
 70
     1
102
RTVSPropertyOp26
 70
     1
102
RTVSPropertyOp27
 70
     1
102
RTVSPropertyOp28
 70
     1
102
RTVSPropertyOp29
 70
     1
102
RTVSPropertyOp30
 70
     1
102
RTVSPropertyOp31
 70
     1
102
RTVSPropertyOp32
 70
     1
  0
XRECORD
  5
80
102
{ACAD_REACTORS
330
7F
102
}
330
7F
100
AcDbXrecord
280
     1
102
RTVSPropertyOp0
 70
     1
102
RTVSPropertyOp1
 70
     1
102
RTVSPropertyOp2
 70
     1
102
RTVSPropertyOp3
 70
     1
102
RTVSPropertyOp4
 70
     1
102
RTVSPropertyOp5
 70
     1
102
RTVSPropertyOp6
 70
     1
102
RTVSPropertyOp7
 70
     1
102
RTVSPropertyOp8
 70
     1
102
RTVSPropertyOp9
 70
     1
102
RTVSPropertyOp10
 70
     1
102
RTVSPropertyOp11
 70
     1
102
RTVSPropertyOp12
 70
     1
102
RTVSPropertyOp13
 70
     1
102
RTVSPropertyOp14
 70
     1
102
RTVSPropertyOp15
 70
     1
102
RTVSPropertyOp16
 70
     1
102
RTVSPropertyOp17
 70
     1
102
RTVSPropertyOp18
 70
     1
102
RTVSPropertyOp19
 70
     1
102
RTVSPropertyOp20
 70
     1
102
RTVSPropertyOp21
 70
     1
102
RTVSPropertyOp22
 70
     1
102
RTVSPropertyOp23
 70
     1
102
RTVSPropertyOp24
 70
     1
102
RTVSPropertyOp25
 70
     1
102
RTVSPropertyOp26
 70
     1
102
RTVSPropertyOp27
 70
     1
102
RTVSPropertyOp28
 70
     1
102
RTVSPropertyOp29
 70
     1
102
RTVSPropertyOp30
 70
     1
102
RTVSPropertyOp31
 70
     1
102
RTVSPropertyOp32
 70
     1
  0
XRECORD
  5
94
102
{ACAD_REACTORS
330
93
102
}
330
93
100
AcDbXrecord
280
     1
102
RTVSPropertyOp0
 70
     1
102
RTVSPropertyOp1
 70
     1
102
RTVSPropertyOp2
 70
     1
102
RTVSPropertyOp3
 70
     1
102
RTVSPropertyOp4
 70
     1
102
RTVSPropertyOp5
 70
     1
102
RTVSPropertyOp6
 70
     1
102
RTVSPropertyOp7
 70
     1
102
RTVSPropertyOp8
 70
     1
102
RTVSPropertyOp9
 70
     1
102
RTVSPropertyOp10
 70
     1
102
RTVSPropertyOp11
 70
     1
102
RTVSPropertyOp12
 70
     1
102
RTVSPropertyOp13
 70
     1
102
RTVSPropertyOp14
 70
     1
102
RTVSPropertyOp15
 70
     1
102
RTVSPropertyOp16
 70
     1
102
RTVSPropertyOp17
 70
     1
102
RTVSPropertyOp18
 70
     1
102
RTVSPropertyOp19
 70
     1
102
RTVSPropertyOp20
 70
     1
102
RTVSPropertyOp21
 70
     1
102
RTVSPropertyOp22
 70
     1
102
RTVSPropertyOp23
 70
     1
102
RTVSPropertyOp24
 70
     1
102
RTVSPropertyOp25
 70
     1
102
RTVSPropertyOp26
 70
     1
102
RTVSPropertyOp27
 70
     1
102
RTVSPropertyOp28
 70
     1
102
RTVSPropertyOp29
 70
     1
102
RTVSPropertyOp30
 70
     1
102
RTVSPropertyOp31
 70
     1
102
RTVSPropertyOp32
 70
     1
  0
XRECORD
  5
8A
102
{ACAD_REACTORS
330
89
102
}
330
89
100
AcDbXrecord
280
     1
102
RTVSPropertyOp0
 70
     1
102
RTVSPropertyOp1
 70
     1
102
RTVSPropertyOp2
 70
     1
102
RTVSPropertyOp3
 70
     1
102
RTVSPropertyOp4
 70
     1
102
RTVSPropertyOp5
 70
     1
102
RTVSPropertyOp6
 70
     1
102
RTVSPropertyOp7
 70
     1
102
RTVSPropertyOp8
 70
     1
102
RTVSPropertyOp9
 70
     1
102
RTVSPropertyOp10
 70
     1
102
RTVSPropertyOp11
 70
     1
102
RTVSPropertyOp12
 70
     1
102
RTVSPropertyOp13
 70
     1
102
RTVSPropertyOp14
 70
     1
102
RTVSPropertyOp15
 70
     1
102
RTVSPropertyOp16
 70
     1
102
RTVSPropertyOp17
 70
     1
102
RTVSPropertyOp18
 70
     1
102
RTVSPropertyOp19
 70
     1
102
RTVSPropertyOp20
 70
     1
102
RTVSPropertyOp21
 70
     1
102
RTVSPropertyOp22
 70
     1
102
RTVSPropertyOp23
 70
     1
102
RTVSPropertyOp24
 70
     1
102
RTVSPropertyOp25
 70
     1
102
RTVSPropertyOp26
 70
     1
102
RTVSPropertyOp27
 70
     1
102
RTVSPropertyOp28
 70
     1
102
RTVSPropertyOp29
 70
     1
102
RTVSPropertyOp30
 70
     1
102
RTVSPropertyOp31
 70
     1
102
RTVSPropertyOp32
 70
     1
  0
XRECORD
  5
92
102
{ACAD_REACTORS
330
91
102
}
330
91
100
AcDbXrecord
280
     1
102
RTVSPropertyOp0
 70
     1
102
RTVSPropertyOp1
 70
     1
102
RTVSPropertyOp2
 70
     1
102
RTVSPropertyOp3
 70
     1
102
RTVSPropertyOp4
 70
     1
102
RTVSPropertyOp5
 70
     1
102
RTVSPropertyOp6
 70
     1
102
RTVSPropertyOp7
 70
     1
102
RTVSPropertyOp8
 70
     1
102
RTVSPropertyOp9
 70
     1
102
RTVSPropertyOp10
 70
     1
102
RTVSPropertyOp11
 70
     1
102
RTVSPropertyOp12
 70
     1
102
RTVSPropertyOp13
 70
     1
102
RTVSPropertyOp14
 70
     1
102
RTVSPropertyOp15
 70
     1
102
RTVSPropertyOp16
 70
     1
102
RTVSPropertyOp17
 70
     1
102
RTVSPropertyOp18
 70
     1
102
RTVSPropertyOp19
 70
     1
102
RTVSPropertyOp20
 70
     1
102
RTVSPropertyOp21
 70
     1
102
RTVSPropertyOp22
 70
     1
102
RTVSPropertyOp23
 70
     1
102
RTVSPropertyOp24
 70
     1
102
RTVSPropertyOp25
 70
     1
102
RTVSPropertyOp26
 70
     1
102
RTVSPropertyOp27
 70
     1
102
RTVSPropertyOp28
 70
     1
102
RTVSPropertyOp29
 70
     1
102
RTVSPropertyOp30
 70
     1
102
RTVSPropertyOp31
 70
     1
102
RTVSPropertyOp32
 70
     1
  0
ENDSEC
  0
EOF
