  0
SECTION
  2
HEADER
  9
$ACADVER
  1
AC1021
  9
$ACADMAINTVER
 70
    25
  9
$DWGCODEPAGE
  3
ANSI_1256
  9
$INSBASE
 10
0.0
 20
0.0
 30
0.0
  9
$EXTMIN
 10
-187.3842
 20
-115.0348
 30
0.0
  9
$EXTMAX
 10
-66.0703
 20
131.7354
 30
0.0
  9
$LIMMIN
 10
0.0
 20
0.0
  9
$LIMMAX
 10
12.0
 20
9.0
  9
$ORTHOMODE
 70
     0
  9
$REGENMODE
 70
     1
  9
$FILLMODE
 70
     1
  9
$QTEXTMODE
 70
     0
  9
$MIRRTEXT
 70
     1
  9
$LTSCALE
 40
1.0
  9
$ATTMODE
 70
     1
  9
$TEXTSIZE
 40
0.2
  9
$TRACEWID
 40
0.05
  9
$TEXTSTYLE
  7
Standard
  9
$CLAYER
  8
0
  9
$CELTYPE
  6
ByLayer
  9
$CECOLOR
 62
   256
  9
$CELTSCALE
 40
1.0
  9
$DISPSILH
 70
     0
  9
$DIMSCALE
 40
1.0
  9
$DIMASZ
 40
0.18
  9
$DIMEXO
 40
0.0625
  9
$DIMDLI
 40
0.38
  9
$DIMRND
 40
0.0
  9
$DIMDLE
 40
0.0
  9
$DIMEXE
 40
0.18
  9
$DIMTP
 40
0.0
  9
$DIMTM
 40
0.0
  9
$DIMTXT
 40
0.18
  9
$DIMCEN
 40
0.09
  9
$DIMTSZ
 40
0.0
  9
$DIMTOL
 70
     0
  9
$DIMLIM
 70
     0
  9
$DIMTIH
 70
     1
  9
$DIMTOH
 70
     1
  9
$DIMSE1
 70
     0
  9
$DIMSE2
 70
     0
  9
$DIMTAD
 70
     0
  9
$DIMZIN
 70
     0
  9
$DIMBLK
  1

  9
$DIMASO
 70
     1
  9
$DIMSHO
 70
     1
  9
$DIMPOST
  1

  9
$DIMAPOST
  1

  9
$DIMALT
 70
     0
  9
$DIMALTD
 70
     2
  9
$DIMALTF
 40
25.4
  9
$DIMLFAC
 40
1.0
  9
$DIMTOFL
 70
     0
  9
$DIMTVP
 40
0.0
  9
$DIMTIX
 70
     0
  9
$DIMSOXD
 70
     0
  9
$DIMSAH
 70
     0
  9
$DIMBLK1
  1

  9
$DIMBLK2
  1

  9
$DIMSTYLE
  2
Standard
  9
$DIMCLRD
 70
     0
  9
$DIMCLRE
 70
     0
  9
$DIMCLRT
 70
     0
  9
$DIMTFAC
 40
1.0
  9
$DIMGAP
 40
0.09
  9
$DIMJUST
 70
     0
  9
$DIMSD1
 70
     0
  9
$DIMSD2
 70
     0
  9
$DIMTOLJ
 70
     1
  9
$DIMTZIN
 70
     0
  9
$DIMALTZ
 70
     0
  9
$DIMALTTZ
 70
     0
  9
$DIMUPT
 70
     0
  9
$DIMDEC
 70
     4
  9
$DIMTDEC
 70
     4
  9
$DIMALTU
 70
     2
  9
$DIMALTTD
 70
     2
  9
$DIMTXSTY
  7
Standard
  9
$DIMAUNIT
 70
     0
  9
$DIMADEC
 70
     0
  9
$DIMALTRND
 40
0.0
  9
$DIMAZIN
 70
     0
  9
$DIMDSEP
 70
    46
  9
$DIMATFIT
 70
     3
  9
$DIMFRAC
 70
     0
  9
$DIMLDRBLK
  1

  9
$DIMLUNIT
 70
     2
  9
$DIMLWD
 70
    -2
  9
$DIMLWE
 70
    -2
  9
$DIMTMOVE
 70
     0
  9
$DIMFXL
 40
1.0
  9
$DIMFXLON
 70
     0
  9
$DIMJOGANG
 40
0.7853981633974483
  9
$DIMTFILL
 70
     0
  9
$DIMTFILLCLR
 70
     0
  9
$DIMARCSYM
 70
     0
  9
$DIMLTYPE
  6

  9
$DIMLTEX1
  6

  9
$DIMLTEX2
  6

  9
$LUNITS
 70
     2
  9
$LUPREC
 70
     4
  9
$SKETCHINC
 40
0.1
  9
$FILLETRAD
 40
0.5
  9
$AUNITS
 70
     0
  9
$AUPREC
 70
     0
  9
$MENU
  1
.
  9
$ELEVATION
 40
0.0
  9
$PELEVATION
 40
0.0
  9
$THICKNESS
 40
0.0
  9
$LIMCHECK
 70
     0
  9
$CHAMFERA
 40
0.5
  9
$CHAMFERB
 40
0.5
  9
$CHAMFERC
 40
1.0
  9
$CHAMFERD
 40
0.0
  9
$SKPOLY
 70
     0
  9
$TDCREATE
 40
2458492.943815463
  9
$TDUCREATE
 40
2458492.777148796
  9
$TDUPDATE
 40
2458492.943815636
  9
$TDUUPDATE
 40
2458492.77714897
  9
$TDINDWG
 40
0.0000000116
  9
$TDUSRTIMER
 40
0.0000000116
  9
$USRTIMER
 70
     1
  9
$ANGBASE
 50
0.0
  9
$ANGDIR
 70
     0
  9
$PDMODE
 70
     0
  9
$PDSIZE
 40
0.0
  9
$PLINEWID
 40
0.0
  9
$SPLFRAME
 70
     0
  9
$SPLINETYPE
 70
     6
  9
$SPLINESEGS
 70
     8
  9
$HANDSEED
  5
AC
  9
$SURFTAB1
 70
     6
  9
$SURFTAB2
 70
     6
  9
$SURFTYPE
 70
     6
  9
$SURFU
 70
     6
  9
$SURFV
 70
     6
  9
$UCSBASE
  2

  9
$UCSNAME
  2

  9
$UCSORG
 10
0.0
 20
0.0
 30
0.0
  9
$UCSXDIR
 10
1.0
 20
0.0
 30
0.0
  9
$UCSYDIR
 10
0.0
 20
1.0
 30
0.0
  9
$UCSORTHOREF
  2

  9
$UCSORTHOVIEW
 70
     0
  9
$UCSORGTOP
 10
0.0
 20
0.0
 30
0.0
  9
$UCSORGBOTTOM
 10
0.0
 20
0.0
 30
0.0
  9
$UCSORGLEFT
 10
0.0
 20
0.0
 30
0.0
  9
$UCSORGRIGHT
 10
0.0
 20
0.0
 30
0.0
  9
$UCSORGFRONT
 10
0.0
 20
0.0
 30
0.0
  9
$UCSORGBACK
 10
0.0
 20
0.0
 30
0.0
  9
$PUCSBASE
  2

  9
$PUCSNAME
  2

  9
$PUCSORG
 10
0.0
 20
0.0
 30
0.0
  9
$PUCSXDIR
 10
1.0
 20
0.0
 30
0.0
  9
$PUCSYDIR
 10
0.0
 20
1.0
 30
0.0
  9
$PUCSORTHOREF
  2

  9
$PUCSORTHOVIEW
 70
     0
  9
$PUCSORGTOP
 10
0.0
 20
0.0
 30
0.0
  9
$PUCSORGBOTTOM
 10
0.0
 20
0.0
 30
0.0
  9
$PUCSORGLEFT
 10
0.0
 20
0.0
 30
0.0
  9
$PUCSORGRIGHT
 10
0.0
 20
0.0
 30
0.0
  9
$PUCSORGFRONT
 10
0.0
 20
0.0
 30
0.0
  9
$PUCSORGBACK
 10
0.0
 20
0.0
 30
0.0
  9
$USERI1
 70
     0
  9
$USERI2
 70
     0
  9
$USERI3
 70
     0
  9
$USERI4
 70
     0
  9
$USERI5
 70
     0
  9
$USERR1
 40
0.0
  9
$USERR2
 40
0.0
  9
$USERR3
 40
0.0
  9
$USERR4
 40
0.0
  9
$USERR5
 40
0.0
  9
$WORLDVIEW
 70
     1
  9
$SHADEDGE
 70
     3
  9
$SHADEDIF
 70
    70
  9
$TILEMODE
 70
     1
  9
$MAXACTVP
 70
    64
  9
$PINSBASE
 10
0.0
 20
0.0
 30
0.0
  9
$PLIMCHECK
 70
     0
  9
$PEXTMIN
 10
1.000000000000000E+20
 20
1.000000000000000E+20
 30
1.000000000000000E+20
  9
$PEXTMAX
 10
-1.000000000000000E+20
 20
-1.000000000000000E+20
 30
-1.000000000000000E+20
  9
$PLIMMIN
 10
0.0
 20
0.0
  9
$PLIMMAX
 10
12.0
 20
9.0
  9
$UNITMODE
 70
     0
  9
$VISRETAIN
 70
     1
  9
$PLINEGEN
 70
     0
  9
$PSLTSCALE
 70
     1
  9
$TREEDEPTH
 70
  3020
  9
$CMLSTYLE
  2
Standard
  9
$CMLJUST
 70
     0
  9
$CMLSCALE
 40
1.0
  9
$PROXYGRAPHICS
 70
     1
  9
$MEASUREMENT
 70
     0
  9
$CELWEIGHT
370
    -1
  9
$ENDCAPS
280
     0
  9
$JOINSTYLE
280
     0
  9
$LWDISPLAY
290
     0
  9
$INSUNITS
 70
     4
  9
$HYPERLINKBASE
  1

  9
$STYLESHEET
  1

  9
$XEDIT
290
     1
  9
$CEPSNTYPE
380
     0
  9
$PSTYLEMODE
290
     1
  9
$FINGERPRINTGUID
  2
{730B0CDC-2374-48FD-8411-77D270BD142A}
  9
$VERSIONGUID
  2
{FAEB1C32-E019-11D5-929B-00C0DF256EC4}
  9
$EXTNAMES
290
     1
  9
$PSVPSCALE
 40
0.0
  9
$OLESTARTUP
290
     0
  9
$SORTENTS
280
   127
  9
$INDEXCTL
280
     0
  9
$HIDETEXT
280
     1
  9
$XCLIPFRAME
290
     0
  9
$HALOGAP
280
     0
  9
$OBSCOLOR
 70
   257
  9
$OBSLTYPE
280
     0
  9
$INTERSECTIONDISPLAY
280
     0
  9
$INTERSECTIONCOLOR
 70
   257
  9
$DIMASSOC
280
     2
  9
$PROJECTNAME
  1

  9
$CAMERADISPLAY
290
     0
  9
$LENSLENGTH
 40
50.0
  9
$CAMERAHEIGHT
 40
0.0
  9
$STEPSPERSEC
 40
2.0
  9
$STEPSIZE
 40
6.0
  9
$3DDWFPREC
 40
2.0
  9
$PSOLWIDTH
 40
0.25
  9
$PSOLHEIGHT
 40
4.0
  9
$LOFTANG1
 40
1.570796326794897
  9
$LOFTANG2
 40
1.570796326794897
  9
$LOFTMAG1
 40
0.0
  9
$LOFTMAG2
 40
0.0
  9
$LOFTPARAM
 70
     7
  9
$LOFTNORMALS
280
     1
  9
$LATITUDE
 40
37.795
  9
$LONGITUDE
 40
-122.394
  9
$NORTHDIRECTION
 40
0.0
  9
$TIMEZONE
 70
 -8000
  9
$LIGHTGLYPHDISPLAY
280
     1
  9
$TILEMODELIGHTSYNCH
280
     1
  9
$SOLIDHIST
280
     1
  9
$SHOWHIST
280
     1
  9
$DWFFRAME
280
     2
  9
$DGNFRAME
280
     2
  9
$REALWORLDSCALE
290
     1
  9
$INTERFERECOLOR
 62
   256
  9
$CSHADOW
280
     0
  9
$SHADOWPLANELOCATION
 40
0.0
  0
ENDSEC
  0
SECTION
  2
CLASSES
  0
CLASS
  1
ACDBDICTIONARYWDFLT
  2
AcDbDictionaryWithDefault
  3
ObjectDBX Classes
 90
        0
 91
        4
280
     0
281
     0
  0
CLASS
  1
VISUALSTYLE
  2
AcDbVisualStyle
  3
ObjectDBX Classes
 90
     4095
 91
        4
280
     0
281
     0
  0
CLASS
  1
MATERIAL
  2
AcDbMaterial
  3
ObjectDBX Classes
 90
     1153
 91
        4
280
     0
281
     0
  0
ENDSEC
  0
SECTION
  2
TABLES
  0
TABLE
  2
VPORT
  5
8
330
0
100
AcDbSymbolTable
 70
     1
  0
VPORT
  5
29
330
8
100
AcDbSymbolTableRecord
100
AcDbViewportTableRecord
  2
*Active
 70
     0
 10
0.0
 20
0.0
 11
1.0
 21
1.0
 12
10.42990654205607
 22
4.5
 13
0.0
 23
0.0
 14
0.5
 24
0.5
 15
0.5
 25
0.5
 16
0.0
 26
0.0
 36
1.0
 17
0.0
 27
0.0
 37
0.0
 40
9.0
 41
1.972972972850329
 42
50.0
 43
0.0
 44
0.0
 50
0.0
 51
0.0
 71
     0
 72
   100
 73
     1
 74
     3
 75
     0
 76
     0
 77
     0
 78
     0
281
     0
 65
     1
110
0.0
120
0.0
130
0.0
111
1.0
121
0.0
131
0.0
112
0.0
122
1.0
132
0.0
 79
     0
146
0.0
 60
     3
 61
     5
292
     1
282
     1
141
0.0
142
0.0
 63
   250
  0
ENDTAB
  0
TABLE
  2
LTYPE
  5
5
330
0
100
AcDbSymbolTable
 70
     1
  0
LTYPE
  5
14
330
5
100
AcDbSymbolTableRecord
100
AcDbLinetypeTableRecord
  2
ByBlock
 70
     0
  3

 72
    65
 73
     0
 40
0.0
  0
LTYPE
  5
15
330
5
100
AcDbSymbolTableRecord
100
AcDbLinetypeTableRecord
  2
ByLayer
 70
     0
  3

 72
    65
 73
     0
 40
0.0
  0
LTYPE
  5
16
330
5
100
AcDbSymbolTableRecord
100
AcDbLinetypeTableRecord
  2
Continuous
 70
     0
  3
Solid line
 72
    65
 73
     0
 40
0.0
  0
ENDTAB
  0
TABLE
  2
LAYER
  5
2
330
0
100
AcDbSymbolTable
 70
     3
  0
LAYER
  5
10
330
2
100
AcDbSymbolTableRecord
100
AcDbLayerTableRecord
  2
0
 70
     0
 62
     7
  6
Continuous
370
    -3
390
F
347
3E
  0
LAYER
  5
40
330
2
100
AcDbSymbolTableRecord
100
AcDbLayerTableRecord
  2
layer 1
 70
     0
 62
     7
  6
Continuous
370
    -3
390
F
347
3E
  0
LAYER
  5
89
330
2
100
AcDbSymbolTableRecord
100
AcDbLayerTableRecord
  2
Master Guides
 70
     0
 62
     7
  6
Continuous
370
    -3
390
F
347
3E
  0
ENDTAB
  0
TABLE
  2
STYLE
  5
3
330
0
100
AcDbSymbolTable
 70
     1
  0
STYLE
  5
11
330
3
100
AcDbSymbolTableRecord
100
AcDbTextStyleTableRecord
  2
Standard
 70
     0
 40
0.0
 41
1.0
 50
0.0
 71
     0
 42
0.2
  3
txt
  4

  0
ENDTAB
  0
TABLE
  2
VIEW
  5
6
330
0
100
AcDbSymbolTable
 70
     0
  0
ENDTAB
  0
TABLE
  2
UCS
  5
7
330
0
100
AcDbSymbolTable
 70
     0
  0
ENDTAB
  0
TABLE
  2
APPID
  5
9
330
0
100
AcDbSymbolTable
 70
     2
  0
APPID
  5
12
330
9
100
AcDbSymbolTableRecord
100
AcDbRegAppTableRecord
  2
ACAD
 70
     0
  0
APPID
  5
3F
330
9
100
AcDbSymbolTableRecord
100
AcDbRegAppTableRecord
  2
ODA
 70
     0
  0
ENDTAB
  0
TABLE
  2
DIMSTYLE
  5
A
330
0
100
AcDbSymbolTable
 70
     1
100
AcDbDimStyleTable
  0
DIMSTYLE
105
27
330
A
100
AcDbSymbolTableRecord
100
AcDbDimStyleTableRecord
  2
Standard
 70
     0
178
     0
340
11
  0
ENDTAB
  0
TABLE
  2
BLOCK_RECORD
  5
1
330
0
100
AcDbSymbolTable
 70
     1
  0
BLOCK_RECORD
  5
1F
330
1
100
AcDbSymbolTableRecord
100
AcDbBlockTableRecord
  2
*Model_Space
340
22
 70
     0
280
     1
281
     0
  0
BLOCK_RECORD
  5
1B
330
1
100
AcDbSymbolTableRecord
100
AcDbBlockTableRecord
  2
*Paper_Space
340
1E
 70
     0
280
     1
281
     0
  0
BLOCK_RECORD
  5
23
330
1
100
AcDbSymbolTableRecord
100
AcDbBlockTableRecord
  2
*Paper_Space0
340
26
 70
     0
280
     1
281
     0
  0
ENDTAB
  0
ENDSEC
  0
SECTION
  2
BLOCKS
  0
BLOCK
  5
20
330
1F
100
AcDbEntity
  8
0
100
AcDbBlockBegin
  2
*Model_Space
 70
     0
 10
0.0
 20
0.0
 30
0.0
  3
*Model_Space
  1

  0
ENDBLK
  5
21
330
1F
100
AcDbEntity
  8
0
100
AcDbBlockEnd
  0
BLOCK
  5
1C
330
1B
100
AcDbEntity
 67
     1
  8
0
100
AcDbBlockBegin
  2
*Paper_Space
 70
     0
 10
0.0
 20
0.0
 30
0.0
  3
*Paper_Space
  1

  0
ENDBLK
  5
1D
330
1B
100
AcDbEntity
 67
     1
  8
0
100
AcDbBlockEnd
  0
BLOCK
  5
24
330
23
100
AcDbEntity
  8
0
100
AcDbBlockBegin
  2
*Paper_Space0
 70
     0
 10
0.0
 20
0.0
 30
0.0
  3
*Paper_Space0
  1

  0
ENDBLK
  5
25
330
23
100
AcDbEntity
  8
0
100
AcDbBlockEnd
  0
ENDSEC
  0
SECTION
  2
ENTITIES
  0
LWPOLYLINE
  5
41
330
1F
100
AcDbEntity
  8
layer 1
 62
   250
100
AcDbPolyline
 90
        5
 70
     1
 43
0.0
 10
-187.3842
 20
-115.0348
 10
-66.0704
 20
-115.0348
 10
-66.0704
 20
131.7354
 10
-187.3842
 20
131.7354
 10
-187.3842
 20
-115.0348
  0
SPLINE
  5
42
330
1F
100
AcDbEntity
  8
layer 1
 62
     7
100
AcDbSpline
210
0.0
220
0.0
230
1.0
 70
    11
 71
     3
 72
    20
 73
    16
 74
     0
 42
0.0000000001
 43
0.0000000001
 12
1.0
 22
0.0
 32
0.0
 13
1.0
 23
0.0
 33
0.0
 40
0.0
 40
0.0
 40
0.0
 40
0.0
 40
0.2
 40
0.2
 40
0.2
 40
0.2
 40
0.4
 40
0.4
 40
0.4
 40
0.4
 40
0.6
 40
0.6
 40
0.6
 40
0.6
 40
1.0
 40
1.0
 40
1.0
 40
1.0
 10
-151.9302
 20
72.2032
 30
0.0
 10
-151.9302
 20
69.1984
 30
0.0
 10
-154.3651
 20
66.7635
 30
0.0
 10
-157.3696
 20
66.7635
 30
0.0
 10
-157.3696
 20
66.7635
 30
0.0
 10
-160.3729
 20
66.7636
 30
0.0
 10
-162.8089
 20
69.1984
 30
0.0
 10
-162.8089
 20
72.2031
 30
0.0
 10
-162.8089
 20
72.2031
 30
0.0
 10
-162.8089
 20
75.2066
 30
0.0
 10
-160.373
 20
77.6425
 30
0.0
 10
-157.3696
 20
77.6425
 30
0.0
 10
-157.3696
 20
77.6425
 30
0.0
 10
-154.365
 20
77.6425
 30
0.0
 10
-151.9302
 20
75.2066
 30
0.0
 10
-151.9302
 20
72.2032
 30
0.0
  0
SPLINE
  5
43
330
1F
100
AcDbEntity
  8
layer 1
 62
     7
100
AcDbSpline
210
0.0
220
0.0
230
1.0
 70
    11
 71
     3
 72
    44
 73
    40
 74
     0
 42
0.0000000001
 43
0.0000000001
 12
1.0
 22
0.0
 32
0.0
 13
1.0
 23
0.0
 33
0.0
 40
0.0
 40
0.0
 40
0.0
 40
0.0
 40
0.0909090909090909
 40
0.0909090909090909
 40
0.0909090909090909
 40
0.0909090909090909
 40
0.1818181818181818
 40
0.1818181818181818
 40
0.1818181818181818
 40
0.1818181818181818
 40
0.2727272727272727
 40
0.2727272727272727
 40
0.2727272727272727
 40
0.2727272727272727
 40
0.3636363636363636
 40
0.3636363636363636
 40
0.3636363636363636
 40
0.3636363636363636
 40
0.4545454545454545
 40
0.4545454545454545
 40
0.4545454545454545
 40
0.4545454545454545
 40
0.5454545454545454
 40
0.5454545454545454
 40
0.5454545454545454
 40
0.5454545454545454
 40
0.6363636363636364
 40
0.6363636363636364
 40
0.6363636363636364
 40
0.6363636363636364
 40
0.7272727272727273
 40
0.7272727272727273
 40
0.7272727272727273
 40
0.7272727272727273
 40
0.8181818181818182
 40
0.8181818181818182
 40
0.8181818181818182
 40
0.8181818181818182
 40
1.0
 40
1.0
 40
1.0
 40
1.0
 10
-147.3411
 20
74.5145
 30
0.0
 10
-148.3221
 20
74.2616
 30
0.0
 10
-148.5854
 20
73.7125
 30
0.0
 10
-148.572
 20
72.7296
 30
0.0
 10
-148.572
 20
72.7296
 30
0.0
 10
-148.4979
 20
67.3645
 30
0.0
 10
-152.5409
 20
64.3205
 30
0.0
 10
-154.4761
 20
64.1242
 30
0.0
 10
-154.4761
 20
64.1242
 30
0.0
 10
-155.2032
 20
63.8109
 30
0.0
 10
-155.6865
 20
63.5825
 30
0.0
 10
-155.632
 20
62.3824
 30
0.0
 10
-155.632
 20
62.3824
 30
0.0
 10
-155.6761
 20
60.356
 30
0.0
 10
-155.5107
 20
58.941
 30
0.0
 10
-155.712
 20
56.687
 30
0.0
 10
-155.712
 20
56.687
 30
0.0
 10
-155.6338
 20
55.7722
 30
0.0
 10
-155.1392
 20
55.1242
 30
0.0
 10
-154.653
 20
54.9874
 30
0.0
 10
-154.653
 20
54.9874
 30
0.0
 10
-153.7307
 20
54.7295
 30
0.0
 10
-151.9086
 20
53.6805
 30
0.0
 10
-150.6707
 20
52.4817
 30
0.0
 10
-150.6707
 20
52.4817
 30
0.0
 10
-150.1728
 20
51.8884
 30
0.0
 10
-149.5714
 20
51.5583
 30
0.0
 10
-148.9555
 20
51.8031
 30
0.0
 10
-148.9555
 20
51.8031
 30
0.0
 10
-134.6672
 20
57.2188
 30
0.0
 10
-133.8518
 20
73.9912
 30
0.0
 10
-136.6383
 20
79.5743
 30
0.0
 10
-136.6383
 20
79.5743
 30
0.0
 10
-136.7197
 20
80.138
 30
0.0
 10
-138.0348
 20
81.1486
 30
0.0
 10
-139.2932
 20
80.0989
 30
0.0
 10
-139.2932
 20
80.0989
 30
0.0
 10
-142.2505
 20
76.7397
 30
0.0
 10
-146.8755
 20
74.6359
 30
0.0
 10
-147.3411
 20
74.5145
 30
0.0
  0
SPLINE
  5
44
330
1F
100
AcDbEntity
  8
layer 1
 62
     7
100
AcDbSpline
210
0.0
220
0.0
230
1.0
 70
    11
 71
     3
 72
    44
 73
    40
 74
     0
 42
0.0000000001
 43
0.0000000001
 12
1.0
 22
0.0
 32
0.0
 13
1.0
 23
0.0
 33
0.0
 40
0.0
 40
0.0
 40
0.0
 40
0.0
 40
0.0909090909090909
 40
0.0909090909090909
 40
0.0909090909090909
 40
0.0909090909090909
 40
0.1818181818181818
 40
0.1818181818181818
 40
0.1818181818181818
 40
0.1818181818181818
 40
0.2727272727272727
 40
0.2727272727272727
 40
0.2727272727272727
 40
0.2727272727272727
 40
0.3636363636363636
 40
0.3636363636363636
 40
0.3636363636363636
 40
0.3636363636363636
 40
0.4545454545454545
 40
0.4545454545454545
 40
0.4545454545454545
 40
0.4545454545454545
 40
0.5454545454545454
 40
0.5454545454545454
 40
0.5454545454545454
 40
0.5454545454545454
 40
0.6363636363636364
 40
0.6363636363636364
 40
0.6363636363636364
 40
0.6363636363636364
 40
0.7272727272727273
 40
0.7272727272727273
 40
0.7272727272727273
 40
0.7272727272727273
 40
0.8181818181818182
 40
0.8181818181818182
 40
0.8181818181818182
 40
0.8181818181818182
 40
1.0
 40
1.0
 40
1.0
 40
1.0
 10
-167.151
 20
44.4606
 30
0.0
 10
-166.1702
 20
44.7135
 30
0.0
 10
-165.9071
 20
45.2624
 30
0.0
 10
-165.9202
 20
46.2453
 30
0.0
 10
-165.9202
 20
46.2453
 30
0.0
 10
-165.9943
 20
51.6118
 30
0.0
 10
-161.9512
 20
54.6543
 30
0.0
 10
-160.0163
 20
54.8507
 30
0.0
 10
-160.0163
 20
54.8507
 30
0.0
 10
-159.2892
 20
55.1642
 30
0.0
 10
-158.806
 20
55.3924
 30
0.0
 10
-158.8605
 20
56.5925
 30
0.0
 10
-158.8605
 20
56.5925
 30
0.0
 10
-158.8161
 20
58.6192
 30
0.0
 10
-158.9818
 20
60.0339
 30
0.0
 10
-158.7802
 20
62.2887
 30
0.0
 10
-158.7802
 20
62.2887
 30
0.0
 10
-158.8584
 20
63.203
 30
0.0
 10
-159.353
 20
63.8507
 30
0.0
 10
-159.8394
 20
63.9875
 30
0.0
 10
-159.8394
 20
63.9875
 30
0.0
 10
-160.7617
 20
64.2456
 30
0.0
 10
-162.5838
 20
65.2942
 30
0.0
 10
-163.8218
 20
66.4943
 30
0.0
 10
-163.8218
 20
66.4943
 30
0.0
 10
-164.3191
 20
67.0876
 30
0.0
 10
-164.921
 20
67.4166
 30
0.0
 10
-165.5367
 20
67.1729
 30
0.0
 10
-165.5367
 20
67.1729
 30
0.0
 10
-179.8251
 20
61.7573
 30
0.0
 10
-180.6404
 20
44.9837
 30
0.0
 10
-177.8538
 20
39.4004
 30
0.0
 10
-177.8538
 20
39.4004
 30
0.0
 10
-177.7728
 20
38.8371
 30
0.0
 10
-176.4577
 20
37.8273
 30
0.0
 10
-175.1989
 20
38.8771
 30
0.0
 10
-175.1989
 20
38.8771
 30
0.0
 10
-172.2418
 20
42.2355
 30
0.0
 10
-167.6169
 20
44.3401
 30
0.0
 10
-167.151
 20
44.4606
 30
0.0
  0
SPLINE
  5
45
330
1F
100
AcDbEntity
  8
layer 1
 62
     7
100
AcDbSpline
210
0.0
220
0.0
230
1.0
 70
    11
 71
     3
 72
    52
 73
    48
 74
     0
 42
0.0000000001
 43
0.0000000001
 12
1.0
 22
0.0
 32
0.0
 13
1.0
 23
0.0
 33
0.0
 40
0.0
 40
0.0
 40
0.0
 40
0.0
 40
0.0769230769230769
 40
0.0769230769230769
 40
0.0769230769230769
 40
0.0769230769230769
 40
0.1538461538461539
 40
0.1538461538461539
 40
0.1538461538461539
 40
0.1538461538461539
 40
0.2307692307692308
 40
0.2307692307692308
 40
0.2307692307692308
 40
0.2307692307692308
 40
0.3076923076923077
 40
0.3076923076923077
 40
0.3076923076923077
 40
0.3076923076923077
 40
0.3846153846153846
 40
0.3846153846153846
 40
0.3846153846153846
 40
0.3846153846153846
 40
0.4615384615384616
 40
0.4615384615384616
 40
0.4615384615384616
 40
0.4615384615384616
 40
0.5384615384615384
 40
0.5384615384615384
 40
0.5384615384615384
 40
0.5384615384615384
 40
0.6153846153846154
 40
0.6153846153846154
 40
0.6153846153846154
 40
0.6153846153846154
 40
0.6923076923076923
 40
0.6923076923076923
 40
0.6923076923076923
 40
0.6923076923076923
 40
0.7692307692307693
 40
0.7692307692307693
 40
0.7692307692307693
 40
0.7692307692307693
 40
0.8461538461538461
 40
0.8461538461538461
 40
0.8461538461538461
 40
0.8461538461538461
 40
1.0
 40
1.0
 40
1.0
 40
1.0
 10
-122.8517
 20
96.1548
 30
0.0
 10
-121.6386
 20
95.9348
 30
0.0
 10
-121.5594
 20
95.3094
 30
0.0
 10
-121.4217
 20
94.3358
 30
0.0
 10
-121.4217
 20
94.3358
 30
0.0
 10
-120.9639
 20
91.0978
 30
0.0
 10
-120.0459
 20
88.3874
 30
0.0
 10
-118.6763
 20
86.2292
 30
0.0
 10
-118.6763
 20
86.2292
 30
0.0
 10
-118.0151
 20
85.4169
 30
0.0
 10
-118.0317
 20
84.5232
 30
0.0
 10
-118.5847
 20
83.7901
 30
0.0
 10
-118.5847
 20
83.7901
 30
0.0
 10
-119.2377
 20
82.5604
 30
0.0
 10
-120.7337
 20
79.3514
 30
0.0
 10
-121.397
 20
75.4337
 30
0.0
 10
-121.397
 20
75.4337
 30
0.0
 10
-121.6746
 20
74.121
 30
0.0
 10
-122.0201
 20
73.8215
 30
0.0
 10
-122.6884
 20
73.7681
 30
0.0
 10
-122.6884
 20
73.7681
 30
0.0
 10
-125.3125
 20
73.7126
 30
0.0
 10
-127.6476
 20
73.7062
 30
0.0
 10
-130.8342
 20
73.7681
 30
0.0
 10
-130.8342
 20
73.7681
 30
0.0
 10
-131.5024
 20
73.8216
 30
0.0
 10
-131.8479
 20
74.1208
 30
0.0
 10
-132.1267
 20
75.4337
 30
0.0
 10
-132.1267
 20
75.4337
 30
0.0
 10
-132.7886
 20
79.3515
 30
0.0
 10
-134.2848
 20
82.5603
 30
0.0
 10
-134.9376
 20
83.7901
 30
0.0
 10
-134.9376
 20
83.7901
 30
0.0
 10
-135.4908
 20
84.5234
 30
0.0
 10
-135.5073
 20
85.4169
 30
0.0
 10
-134.8463
 20
86.2292
 30
0.0
 10
-134.8463
 20
86.2292
 30
0.0
 10
-133.4767
 20
88.3876
 30
0.0
 10
-132.5583
 20
91.0978
 30
0.0
 10
-132.1008
 20
94.3358
 30
0.0
 10
-132.1008
 20
94.3358
 30
0.0
 10
-131.9631
 20
95.3097
 30
0.0
 10
-131.851
 20
95.8678
 30
0.0
 10
-130.87
 20
96.1218
 30
0.0
 10
-130.87
 20
96.1218
 30
0.0
 10
-127.9621
 20
96.0917
 30
0.0
 10
-125.3443
 20
96.1494
 30
0.0
 10
-122.8517
 20
96.1548
 30
0.0
  0
SPLINE
  5
46
330
1F
100
AcDbEntity
  8
layer 1
 62
     7
100
AcDbSpline
210
0.0
220
0.0
230
1.0
 70
    11
 71
     3
 72
    20
 73
    16
 74
     0
 42
0.0000000001
 43
0.0000000001
 12
1.0
 22
0.0
 32
0.0
 13
1.0
 23
0.0
 33
0.0
 40
0.0
 40
0.0
 40
0.0
 40
0.0
 40
0.2
 40
0.2
 40
0.2
 40
0.2
 40
0.4
 40
0.4
 40
0.4
 40
0.4
 40
0.6
 40
0.6
 40
0.6
 40
0.6
 40
1.0
 40
1.0
 40
1.0
 40
1.0
 10
-90.8924
 20
72.2032
 30
0.0
 10
-90.8924
 20
69.1984
 30
0.0
 10
-93.3273
 20
66.7635
 30
0.0
 10
-96.3318
 20
66.7635
 30
0.0
 10
-96.3318
 20
66.7635
 30
0.0
 10
-99.3352
 20
66.7636
 30
0.0
 10
-101.7711
 20
69.1984
 30
0.0
 10
-101.7711
 20
72.2031
 30
0.0
 10
-101.7711
 20
72.2031
 30
0.0
 10
-101.7711
 20
75.2066
 30
0.0
 10
-99.3352
 20
77.6425
 30
0.0
 10
-96.3318
 20
77.6425
 30
0.0
 10
-96.3318
 20
77.6425
 30
0.0
 10
-93.3273
 20
77.6425
 30
0.0
 10
-90.8924
 20
75.2066
 30
0.0
 10
-90.8924
 20
72.2032
 30
0.0
  0
SPLINE
  5
47
330
1F
100
AcDbEntity
  8
layer 1
 62
     7
100
AcDbSpline
210
0.0
220
0.0
230
1.0
 70
    11
 71
     3
 72
    44
 73
    40
 74
     0
 42
0.0000000001
 43
0.0000000001
 12
1.0
 22
0.0
 32
0.0
 13
1.0
 23
0.0
 33
0.0
 40
0.0
 40
0.0
 40
0.0
 40
0.0
 40
0.0909090909090909
 40
0.0909090909090909
 40
0.0909090909090909
 40
0.0909090909090909
 40
0.1818181818181818
 40
0.1818181818181818
 40
0.1818181818181818
 40
0.1818181818181818
 40
0.2727272727272727
 40
0.2727272727272727
 40
0.2727272727272727
 40
0.2727272727272727
 40
0.3636363636363636
 40
0.3636363636363636
 40
0.3636363636363636
 40
0.3636363636363636
 40
0.4545454545454545
 40
0.4545454545454545
 40
0.4545454545454545
 40
0.4545454545454545
 40
0.5454545454545454
 40
0.5454545454545454
 40
0.5454545454545454
 40
0.5454545454545454
 40
0.6363636363636364
 40
0.6363636363636364
 40
0.6363636363636364
 40
0.6363636363636364
 40
0.7272727272727273
 40
0.7272727272727273
 40
0.7272727272727273
 40
0.7272727272727273
 40
0.8181818181818182
 40
0.8181818181818182
 40
0.8181818181818182
 40
0.8181818181818182
 40
1.0
 40
1.0
 40
1.0
 40
1.0
 10
-86.3035
 20
74.5145
 30
0.0
 10
-87.2844
 20
74.2616
 30
0.0
 10
-87.5477
 20
73.7125
 30
0.0
 10
-87.5343
 20
72.7296
 30
0.0
 10
-87.5343
 20
72.7296
 30
0.0
 10
-87.4613
 20
67.3645
 30
0.0
 10
-91.5042
 20
64.3205
 30
0.0
 10
-93.4384
 20
64.1242
 30
0.0
 10
-93.4384
 20
64.1242
 30
0.0
 10
-94.1664
 20
63.8109
 30
0.0
 10
-94.6487
 20
63.5825
 30
0.0
 10
-94.5942
 20
62.3824
 30
0.0
 10
-94.5942
 20
62.3824
 30
0.0
 10
-94.6394
 20
60.356
 30
0.0
 10
-94.4729
 20
58.941
 30
0.0
 10
-94.6743
 20
56.687
 30
0.0
 10
-94.6743
 20
56.687
 30
0.0
 10
-94.5962
 20
55.7722
 30
0.0
 10
-94.1018
 20
55.1242
 30
0.0
 10
-93.6153
 20
54.9874
 30
0.0
 10
-93.6153
 20
54.9874
 30
0.0
 10
-92.6939
 20
54.7295
 30
0.0
 10
-90.8709
 20
53.6805
 30
0.0
 10
-89.633
 20
52.4817
 30
0.0
 10
-89.633
 20
52.4817
 30
0.0
 10
-89.1351
 20
51.8884
 30
0.0
 10
-88.5337
 20
51.5583
 30
0.0
 10
-87.9178
 20
51.8031
 30
0.0
 10
-87.9178
 20
51.8031
 30
0.0
 10
-73.6295
 20
57.2188
 30
0.0
 10
-72.8144
 20
73.9912
 30
0.0
 10
-75.6006
 20
79.5743
 30
0.0
 10
-75.6006
 20
79.5743
 30
0.0
 10
-75.6818
 20
80.138
 30
0.0
 10
-76.998
 20
81.1486
 30
0.0
 10
-78.2555
 20
80.0989
 30
0.0
 10
-78.2555
 20
80.0989
 30
0.0
 10
-81.2128
 20
76.7397
 30
0.0
 10
-85.8377
 20
74.6359
 30
0.0
 10
-86.3035
 20
74.5145
 30
0.0
  0
SPLINE
  5
48
330
1F
100
AcDbEntity
  8
layer 1
 62
     7
100
AcDbSpline
210
0.0
220
0.0
230
1.0
 70
    11
 71
     3
 72
    44
 73
    40
 74
     0
 42
0.0000000001
 43
0.0000000001
 12
1.0
 22
0.0
 32
0.0
 13
1.0
 23
0.0
 33
0.0
 40
0.0
 40
0.0
 40
0.0
 40
0.0
 40
0.0909090909090909
 40
0.0909090909090909
 40
0.0909090909090909
 40
0.0909090909090909
 40
0.1818181818181818
 40
0.1818181818181818
 40
0.1818181818181818
 40
0.1818181818181818
 40
0.2727272727272727
 40
0.2727272727272727
 40
0.2727272727272727
 40
0.2727272727272727
 40
0.3636363636363636
 40
0.3636363636363636
 40
0.3636363636363636
 40
0.3636363636363636
 40
0.4545454545454545
 40
0.4545454545454545
 40
0.4545454545454545
 40
0.4545454545454545
 40
0.5454545454545454
 40
0.5454545454545454
 40
0.5454545454545454
 40
0.5454545454545454
 40
0.6363636363636364
 40
0.6363636363636364
 40
0.6363636363636364
 40
0.6363636363636364
 40
0.7272727272727273
 40
0.7272727272727273
 40
0.7272727272727273
 40
0.7272727272727273
 40
0.8181818181818182
 40
0.8181818181818182
 40
0.8181818181818182
 40
0.8181818181818182
 40
1.0
 40
1.0
 40
1.0
 40
1.0
 10
-106.1132
 20
44.4606
 30
0.0
 10
-105.1324
 20
44.7135
 30
0.0
 10
-104.8693
 20
45.2624
 30
0.0
 10
-104.8827
 20
46.2453
 30
0.0
 10
-104.8827
 20
46.2453
 30
0.0
 10
-104.9567
 20
51.6118
 30
0.0
 10
-100.9138
 20
54.6543
 30
0.0
 10
-98.9785
 20
54.8507
 30
0.0
 10
-98.9785
 20
54.8507
 30
0.0
 10
-98.2513
 20
55.1642
 30
0.0
 10
-97.7692
 20
55.3924
 30
0.0
 10
-97.8237
 20
56.5925
 30
0.0
 10
-97.8237
 20
56.5925
 30
0.0
 10
-97.7784
 20
58.6192
 30
0.0
 10
-97.9451
 20
60.0339
 30
0.0
 10
-97.7427
 20
62.2887
 30
0.0
 10
-97.7427
 20
62.2887
 30
0.0
 10
-97.8216
 20
63.203
 30
0.0
 10
-98.3152
 20
63.8507
 30
0.0
 10
-98.8027
 20
63.9875
 30
0.0
 10
-98.8027
 20
63.9875
 30
0.0
 10
-99.7239
 20
64.2456
 30
0.0
 10
-101.5471
 20
65.2942
 30
0.0
 10
-102.784
 20
66.4943
 30
0.0
 10
-102.784
 20
66.4943
 30
0.0
 10
-103.2817
 20
67.0876
 30
0.0
 10
-103.8843
 20
67.4166
 30
0.0
 10
-104.4992
 20
67.1729
 30
0.0
 10
-104.4992
 20
67.1729
 30
0.0
 10
-118.7874
 20
61.7573
 30
0.0
 10
-119.6028
 20
44.9837
 30
0.0
 10
-116.8163
 20
39.4004
 30
0.0
 10
-116.8163
 20
39.4004
 30
0.0
 10
-116.7349
 20
38.8371
 30
0.0
 10
-115.4199
 20
37.8273
 30
0.0
 10
-114.1625
 20
38.8771
 30
0.0
 10
-114.1625
 20
38.8771
 30
0.0
 10
-111.2051
 20
42.2355
 30
0.0
 10
-106.5803
 20
44.3401
 30
0.0
 10
-106.1132
 20
44.4606
 30
0.0
  0
SPLINE
  5
49
330
1F
100
AcDbEntity
  8
layer 1
 62
     7
100
AcDbSpline
210
0.0
220
0.0
230
1.0
 70
    11
 71
     3
 72
    52
 73
    48
 74
     0
 42
0.0000000001
 43
0.0000000001
 12
1.0
 22
0.0
 32
0.0
 13
1.0
 23
0.0
 33
0.0
 40
0.0
 40
0.0
 40
0.0
 40
0.0
 40
0.0769230769230769
 40
0.0769230769230769
 40
0.0769230769230769
 40
0.0769230769230769
 40
0.1538461538461539
 40
0.1538461538461539
 40
0.1538461538461539
 40
0.1538461538461539
 40
0.2307692307692308
 40
0.2307692307692308
 40
0.2307692307692308
 40
0.2307692307692308
 40
0.3076923076923077
 40
0.3076923076923077
 40
0.3076923076923077
 40
0.3076923076923077
 40
0.3846153846153846
 40
0.3846153846153846
 40
0.3846153846153846
 40
0.3846153846153846
 40
0.4615384615384616
 40
0.4615384615384616
 40
0.4615384615384616
 40
0.4615384615384616
 40
0.5384615384615384
 40
0.5384615384615384
 40
0.5384615384615384
 40
0.5384615384615384
 40
0.6153846153846154
 40
0.6153846153846154
 40
0.6153846153846154
 40
0.6153846153846154
 40
0.6923076923076923
 40
0.6923076923076923
 40
0.6923076923076923
 40
0.6923076923076923
 40
0.7692307692307693
 40
0.7692307692307693
 40
0.7692307692307693
 40
0.7692307692307693
 40
0.8461538461538461
 40
0.8461538461538461
 40
0.8461538461538461
 40
0.8461538461538461
 40
1.0
 40
1.0
 40
1.0
 40
1.0
 10
-122.8517
 20
70.3278
 30
0.0
 10
-121.6386
 20
70.1079
 30
0.0
 10
-121.5594
 20
69.4824
 30
0.0
 10
-121.4217
 20
68.5095
 30
0.0
 10
-121.4217
 20
68.5095
 30
0.0
 10
-120.9639
 20
65.272
 30
0.0
 10
-120.0459
 20
62.5604
 30
0.0
 10
-118.6763
 20
60.4022
 30
0.0
 10
-118.6763
 20
60.4022
 30
0.0
 10
-118.0151
 20
59.5899
 30
0.0
 10
-118.0317
 20
58.6973
 30
0.0
 10
-118.5847
 20
57.9632
 30
0.0
 10
-118.5847
 20
57.9632
 30
0.0
 10
-119.2377
 20
56.7334
 30
0.0
 10
-120.7337
 20
53.5244
 30
0.0
 10
-121.397
 20
49.6078
 30
0.0
 10
-121.397
 20
49.6078
 30
0.0
 10
-121.6746
 20
48.294
 30
0.0
 10
-122.0201
 20
47.9945
 30
0.0
 10
-122.6884
 20
47.9421
 30
0.0
 10
-122.6884
 20
47.9421
 30
0.0
 10
-125.3125
 20
47.8857
 30
0.0
 10
-127.6476
 20
47.8802
 30
0.0
 10
-130.8342
 20
47.9421
 30
0.0
 10
-130.8342
 20
47.9421
 30
0.0
 10
-131.5024
 20
47.9946
 30
0.0
 10
-131.8479
 20
48.2938
 30
0.0
 10
-132.1267
 20
49.6078
 30
0.0
 10
-132.1267
 20
49.6078
 30
0.0
 10
-132.7886
 20
53.5246
 30
0.0
 10
-134.2848
 20
56.7333
 30
0.0
 10
-134.9376
 20
57.9632
 30
0.0
 10
-134.9376
 20
57.9632
 30
0.0
 10
-135.4908
 20
58.6974
 30
0.0
 10
-135.5073
 20
59.5899
 30
0.0
 10
-134.8463
 20
60.4022
 30
0.0
 10
-134.8463
 20
60.4022
 30
0.0
 10
-133.4767
 20
62.5604
 30
0.0
 10
-132.5583
 20
65.2719
 30
0.0
 10
-132.1008
 20
68.5095
 30
0.0
 10
-132.1008
 20
68.5095
 30
0.0
 10
-131.9631
 20
69.4827
 30
0.0
 10
-131.851
 20
70.0408
 30
0.0
 10
-130.87
 20
70.2948
 30
0.0
 10
-130.87
 20
70.2948
 30
0.0
 10
-127.9621
 20
70.2648
 30
0.0
 10
-125.3443
 20
70.3224
 30
0.0
 10
-122.8517
 20
70.3278
 30
0.0
  0
SPLINE
  5
4A
330
1F
100
AcDbEntity
  8
layer 1
 62
     7
100
AcDbSpline
210
0.0
220
0.0
230
1.0
 70
    11
 71
     3
 72
    20
 73
    16
 74
     0
 42
0.0000000001
 43
0.0000000001
 12
1.0
 22
0.0
 32
0.0
 13
1.0
 23
0.0
 33
0.0
 40
0.0
 40
0.0
 40
0.0
 40
0.0
 40
0.2
 40
0.2
 40
0.2
 40
0.2
 40
0.4
 40
0.4
 40
0.4
 40
0.4
 40
0.6
 40
0.6
 40
0.6
 40
0.6
 40
1.0
 40
1.0
 40
1.0
 40
1.0
 10
-151.9302
 20
46.697
 30
0.0
 10
-151.9302
 20
43.6933
 30
0.0
 10
-154.3651
 20
41.2575
 30
0.0
 10
-157.3696
 20
41.2575
 30
0.0
 10
-157.3696
 20
41.2575
 30
0.0
 10
-160.3729
 20
41.2577
 30
0.0
 10
-162.8089
 20
43.6933
 30
0.0
 10
-162.8089
 20
46.6968
 30
0.0
 10
-162.8089
 20
46.6968
 30
0.0
 10
-162.8089
 20
49.7012
 30
0.0
 10
-160.373
 20
52.1361
 30
0.0
 10
-157.3696
 20
52.1361
 30
0.0
 10
-157.3696
 20
52.1361
 30
0.0
 10
-154.365
 20
52.1363
 30
0.0
 10
-151.9302
 20
49.7012
 30
0.0
 10
-151.9302
 20
46.697
 30
0.0
  0
SPLINE
  5
4B
330
1F
100
AcDbEntity
  8
layer 1
 62
     7
100
AcDbSpline
210
0.0
220
0.0
230
1.0
 70
    11
 71
     3
 72
    20
 73
    16
 74
     0
 42
0.0000000001
 43
0.0000000001
 12
1.0
 22
0.0
 32
0.0
 13
1.0
 23
0.0
 33
0.0
 40
0.0
 40
0.0
 40
0.0
 40
0.0
 40
0.2
 40
0.2
 40
0.2
 40
0.2
 40
0.4
 40
0.4
 40
0.4
 40
0.4
 40
0.6
 40
0.6
 40
0.6
 40
0.6
 40
1.0
 40
1.0
 40
1.0
 40
1.0
 10
-90.8924
 20
46.697
 30
0.0
 10
-90.8924
 20
43.6933
 30
0.0
 10
-93.3273
 20
41.2575
 30
0.0
 10
-96.3318
 20
41.2575
 30
0.0
 10
-96.3318
 20
41.2575
 30
0.0
 10
-99.3352
 20
41.2577
 30
0.0
 10
-101.7711
 20
43.6933
 30
0.0
 10
-101.7711
 20
46.6968
 30
0.0
 10
-101.7711
 20
46.6968
 30
0.0
 10
-101.7711
 20
49.7012
 30
0.0
 10
-99.3352
 20
52.1361
 30
0.0
 10
-96.3318
 20
52.1361
 30
0.0
 10
-96.3318
 20
52.1361
 30
0.0
 10
-93.3273
 20
52.1363
 30
0.0
 10
-90.8924
 20
49.7012
 30
0.0
 10
-90.8924
 20
46.697
 30
0.0
  0
SPLINE
  5
4C
330
1F
100
AcDbEntity
  8
layer 1
 62
     7
100
AcDbSpline
210
0.0
220
0.0
230
1.0
 70
    11
 71
     3
 72
    20
 73
    16
 74
     0
 42
0.0000000001
 43
0.0000000001
 12
1.0
 22
0.0
 32
0.0
 13
1.0
 23
0.0
 33
0.0
 40
0.0
 40
0.0
 40
0.0
 40
0.0
 40
0.2
 40
0.2
 40
0.2
 40
0.2
 40
0.4
 40
0.4
 40
0.4
 40
0.4
 40
0.6
 40
0.6
 40
0.6
 40
0.6
 40
1.0
 40
1.0
 40
1.0
 40
1.0
 10
-151.9302
 20
97.7859
 30
0.0
 10
-151.9302
 20
94.781
 30
0.0
 10
-154.3651
 20
92.3462
 30
0.0
 10
-157.3696
 20
92.3462
 30
0.0
 10
-157.3696
 20
92.3462
 30
0.0
 10
-160.3729
 20
92.3463
 30
0.0
 10
-162.8089
 20
94.781
 30
0.0
 10
-162.8089
 20
97.7858
 30
0.0
 10
-162.8089
 20
97.7858
 30
0.0
 10
-162.8089
 20
100.7892
 30
0.0
 10
-160.373
 20
103.2251
 30
0.0
 10
-157.3696
 20
103.2251
 30
0.0
 10
-157.3696
 20
103.2251
 30
0.0
 10
-154.365
 20
103.2252
 30
0.0
 10
-151.9302
 20
100.7892
 30
0.0
 10
-151.9302
 20
97.7859
 30
0.0
  0
SPLINE
  5
4D
330
1F
100
AcDbEntity
  8
layer 1
 62
     7
100
AcDbSpline
210
0.0
220
0.0
230
1.0
 70
    11
 71
     3
 72
    44
 73
    40
 74
     0
 42
0.0000000001
 43
0.0000000001
 12
1.0
 22
0.0
 32
0.0
 13
1.0
 23
0.0
 33
0.0
 40
0.0
 40
0.0
 40
0.0
 40
0.0
 40
0.0909090909090909
 40
0.0909090909090909
 40
0.0909090909090909
 40
0.0909090909090909
 40
0.1818181818181818
 40
0.1818181818181818
 40
0.1818181818181818
 40
0.1818181818181818
 40
0.2727272727272727
 40
0.2727272727272727
 40
0.2727272727272727
 40
0.2727272727272727
 40
0.3636363636363636
 40
0.3636363636363636
 40
0.3636363636363636
 40
0.3636363636363636
 40
0.4545454545454545
 40
0.4545454545454545
 40
0.4545454545454545
 40
0.4545454545454545
 40
0.5454545454545454
 40
0.5454545454545454
 40
0.5454545454545454
 40
0.5454545454545454
 40
0.6363636363636364
 40
0.6363636363636364
 40
0.6363636363636364
 40
0.6363636363636364
 40
0.7272727272727273
 40
0.7272727272727273
 40
0.7272727272727273
 40
0.7272727272727273
 40
0.8181818181818182
 40
0.8181818181818182
 40
0.8181818181818182
 40
0.8181818181818182
 40
1.0
 40
1.0
 40
1.0
 40
1.0
 10
-147.3411
 20
100.0972
 30
0.0
 10
-148.3221
 20
99.8443
 30
0.0
 10
-148.5854
 20
99.2951
 30
0.0
 10
-148.572
 20
98.3123
 30
0.0
 10
-148.572
 20
98.3123
 30
0.0
 10
-148.4979
 20
92.9471
 30
0.0
 10
-152.5409
 20
89.9032
 30
0.0
 10
-154.4761
 20
89.7068
 30
0.0
 10
-154.4761
 20
89.7068
 30
0.0
 10
-155.2032
 20
89.3936
 30
0.0
 10
-155.6865
 20
89.1651
 30
0.0
 10
-155.632
 20
87.9651
 30
0.0
 10
-155.632
 20
87.9651
 30
0.0
 10
-155.6761
 20
85.9387
 30
0.0
 10
-155.5107
 20
84.5237
 30
0.0
 10
-155.712
 20
82.2697
 30
0.0
 10
-155.712
 20
82.2697
 30
0.0
 10
-155.6338
 20
81.3548
 30
0.0
 10
-155.1392
 20
80.7069
 30
0.0
 10
-154.653
 20
80.57
 30
0.0
 10
-154.653
 20
80.57
 30
0.0
 10
-153.7307
 20
80.3121
 30
0.0
 10
-151.9086
 20
79.2631
 30
0.0
 10
-150.6707
 20
78.0643
 30
0.0
 10
-150.6707
 20
78.0643
 30
0.0
 10
-150.1728
 20
77.4711
 30
0.0
 10
-149.5714
 20
77.1409
 30
0.0
 10
-148.9555
 20
77.3857
 30
0.0
 10
-148.9555
 20
77.3857
 30
0.0
 10
-134.6672
 20
82.8015
 30
0.0
 10
-133.8518
 20
99.5739
 30
0.0
 10
-136.6383
 20
105.157
 30
0.0
 10
-136.6383
 20
105.157
 30
0.0
 10
-136.7197
 20
105.7207
 30
0.0
 10
-138.0348
 20
106.7313
 30
0.0
 10
-139.2932
 20
105.6815
 30
0.0
 10
-139.2932
 20
105.6815
 30
0.0
 10
-142.2505
 20
102.3223
 30
0.0
 10
-146.8755
 20
100.2186
 30
0.0
 10
-147.3411
 20
100.0972
 30
0.0
  0
SPLINE
  5
4E
330
1F
100
AcDbEntity
  8
layer 1
 62
     7
100
AcDbSpline
210
0.0
220
0.0
230
1.0
 70
    11
 71
     3
 72
    44
 73
    40
 74
     0
 42
0.0000000001
 43
0.0000000001
 12
1.0
 22
0.0
 32
0.0
 13
1.0
 23
0.0
 33
0.0
 40
0.0
 40
0.0
 40
0.0
 40
0.0
 40
0.0909090909090909
 40
0.0909090909090909
 40
0.0909090909090909
 40
0.0909090909090909
 40
0.1818181818181818
 40
0.1818181818181818
 40
0.1818181818181818
 40
0.1818181818181818
 40
0.2727272727272727
 40
0.2727272727272727
 40
0.2727272727272727
 40
0.2727272727272727
 40
0.3636363636363636
 40
0.3636363636363636
 40
0.3636363636363636
 40
0.3636363636363636
 40
0.4545454545454545
 40
0.4545454545454545
 40
0.4545454545454545
 40
0.4545454545454545
 40
0.5454545454545454
 40
0.5454545454545454
 40
0.5454545454545454
 40
0.5454545454545454
 40
0.6363636363636364
 40
0.6363636363636364
 40
0.6363636363636364
 40
0.6363636363636364
 40
0.7272727272727273
 40
0.7272727272727273
 40
0.7272727272727273
 40
0.7272727272727273
 40
0.8181818181818182
 40
0.8181818181818182
 40
0.8181818181818182
 40
0.8181818181818182
 40
1.0
 40
1.0
 40
1.0
 40
1.0
 10
-167.151
 20
70.0433
 30
0.0
 10
-166.1702
 20
70.2961
 30
0.0
 10
-165.9071
 20
70.8451
 30
0.0
 10
-165.9202
 20
71.828
 30
0.0
 10
-165.9202
 20
71.828
 30
0.0
 10
-165.9943
 20
77.1945
 30
0.0
 10
-161.9512
 20
80.237
 30
0.0
 10
-160.0163
 20
80.4334
 30
0.0
 10
-160.0163
 20
80.4334
 30
0.0
 10
-159.2892
 20
80.7468
 30
0.0
 10
-158.806
 20
80.9751
 30
0.0
 10
-158.8605
 20
82.1751
 30
0.0
 10
-158.8605
 20
82.1751
 30
0.0
 10
-158.8161
 20
84.2018
 30
0.0
 10
-158.9818
 20
85.6165
 30
0.0
 10
-158.7802
 20
87.8713
 30
0.0
 10
-158.7802
 20
87.8713
 30
0.0
 10
-158.8584
 20
88.7856
 30
0.0
 10
-159.353
 20
89.4333
 30
0.0
 10
-159.8394
 20
89.5702
 30
0.0
 10
-159.8394
 20
89.5702
 30
0.0
 10
-160.7617
 20
89.8283
 30
0.0
 10
-162.5838
 20
90.8769
 30
0.0
 10
-163.8218
 20
92.077
 30
0.0
 10
-163.8218
 20
92.077
 30
0.0
 10
-164.3191
 20
92.6702
 30
0.0
 10
-164.921
 20
92.9993
 30
0.0
 10
-165.5367
 20
92.7555
 30
0.0
 10
-165.5367
 20
92.7555
 30
0.0
 10
-179.8251
 20
87.3399
 30
0.0
 10
-180.6404
 20
70.5663
 30
0.0
 10
-177.8538
 20
64.983
 30
0.0
 10
-177.8538
 20
64.983
 30
0.0
 10
-177.7728
 20
64.4197
 30
0.0
 10
-176.4577
 20
63.41
 30
0.0
 10
-175.1989
 20
64.4597
 30
0.0
 10
-175.1989
 20
64.4597
 30
0.0
 10
-172.2418
 20
67.8182
 30
0.0
 10
-167.6169
 20
69.9228
 30
0.0
 10
-167.151
 20
70.0433
 30
0.0
  0
SPLINE
  5
4F
330
1F
100
AcDbEntity
  8
layer 1
 62
     7
100
AcDbSpline
210
0.0
220
0.0
230
1.0
 70
    11
 71
     3
 72
    52
 73
    48
 74
     0
 42
0.0000000001
 43
0.0000000001
 12
1.0
 22
0.0
 32
0.0
 13
1.0
 23
0.0
 33
0.0
 40
0.0
 40
0.0
 40
0.0
 40
0.0
 40
0.0769230769230769
 40
0.0769230769230769
 40
0.0769230769230769
 40
0.0769230769230769
 40
0.1538461538461539
 40
0.1538461538461539
 40
0.1538461538461539
 40
0.1538461538461539
 40
0.2307692307692308
 40
0.2307692307692308
 40
0.2307692307692308
 40
0.2307692307692308
 40
0.3076923076923077
 40
0.3076923076923077
 40
0.3076923076923077
 40
0.3076923076923077
 40
0.3846153846153846
 40
0.3846153846153846
 40
0.3846153846153846
 40
0.3846153846153846
 40
0.4615384615384616
 40
0.4615384615384616
 40
0.4615384615384616
 40
0.4615384615384616
 40
0.5384615384615384
 40
0.5384615384615384
 40
0.5384615384615384
 40
0.5384615384615384
 40
0.6153846153846154
 40
0.6153846153846154
 40
0.6153846153846154
 40
0.6153846153846154
 40
0.6923076923076923
 40
0.6923076923076923
 40
0.6923076923076923
 40
0.6923076923076923
 40
0.7692307692307693
 40
0.7692307692307693
 40
0.7692307692307693
 40
0.7692307692307693
 40
0.8461538461538461
 40
0.8461538461538461
 40
0.8461538461538461
 40
0.8461538461538461
 40
1.0
 40
1.0
 40
1.0
 40
1.0
 10
-122.8517
 20
121.7375
 30
0.0
 10
-121.6386
 20
121.5174
 30
0.0
 10
-121.5594
 20
120.8921
 30
0.0
 10
-121.4217
 20
119.9184
 30
0.0
 10
-121.4217
 20
119.9184
 30
0.0
 10
-120.9639
 20
116.6804
 30
0.0
 10
-120.0459
 20
113.97
 30
0.0
 10
-118.6763
 20
111.8118
 30
0.0
 10
-118.6763
 20
111.8118
 30
0.0
 10
-118.0151
 20
110.9995
 30
0.0
 10
-118.0317
 20
110.1058
 30
0.0
 10
-118.5847
 20
109.3727
 30
0.0
 10
-118.5847
 20
109.3727
 30
0.0
 10
-119.2377
 20
108.143
 30
0.0
 10
-120.7337
 20
104.934
 30
0.0
 10
-121.397
 20
101.0163
 30
0.0
 10
-121.397
 20
101.0163
 30
0.0
 10
-121.6746
 20
99.7036
 30
0.0
 10
-122.0201
 20
99.4041
 30
0.0
 10
-122.6884
 20
99.3507
 30
0.0
 10
-122.6884
 20
99.3507
 30
0.0
 10
-125.3125
 20
99.2953
 30
0.0
 10
-127.6476
 20
99.2888
 30
0.0
 10
-130.8342
 20
99.3507
 30
0.0
 10
-130.8342
 20
99.3507
 30
0.0
 10
-131.5024
 20
99.4043
 30
0.0
 10
-131.8479
 20
99.7034
 30
0.0
 10
-132.1267
 20
101.0163
 30
0.0
 10
-132.1267
 20
101.0163
 30
0.0
 10
-132.7886
 20
104.9342
 30
0.0
 10
-134.2848
 20
108.1429
 30
0.0
 10
-134.9376
 20
109.3727
 30
0.0
 10
-134.9376
 20
109.3727
 30
0.0
 10
-135.4908
 20
110.1061
 30
0.0
 10
-135.5073
 20
110.9995
 30
0.0
 10
-134.8463
 20
111.8118
 30
0.0
 10
-134.8463
 20
111.8118
 30
0.0
 10
-133.4767
 20
113.9702
 30
0.0
 10
-132.5583
 20
116.6804
 30
0.0
 10
-132.1008
 20
119.9184
 30
0.0
 10
-132.1008
 20
119.9184
 30
0.0
 10
-131.9631
 20
120.8923
 30
0.0
 10
-131.851
 20
121.4504
 30
0.0
 10
-130.87
 20
121.7044
 30
0.0
 10
-130.87
 20
121.7044
 30
0.0
 10
-127.9621
 20
121.6744
 30
0.0
 10
-125.3443
 20
121.732
 30
0.0
 10
-122.8517
 20
121.7375
 30
0.0
  0
SPLINE
  5
50
330
1F
100
AcDbEntity
  8
layer 1
 62
     7
100
AcDbSpline
210
0.0
220
0.0
230
1.0
 70
    11
 71
     3
 72
    20
 73
    16
 74
     0
 42
0.0000000001
 43
0.0000000001
 12
1.0
 22
0.0
 32
0.0
 13
1.0
 23
0.0
 33
0.0
 40
0.0
 40
0.0
 40
0.0
 40
0.0
 40
0.2
 40
0.2
 40
0.2
 40
0.2
 40
0.4
 40
0.4
 40
0.4
 40
0.4
 40
0.6
 40
0.6
 40
0.6
 40
0.6
 40
1.0
 40
1.0
 40
1.0
 40
1.0
 10
-90.8924
 20
97.7859
 30
0.0
 10
-90.8924
 20
94.781
 30
0.0
 10
-93.3273
 20
92.3462
 30
0.0
 10
-96.3318
 20
92.3462
 30
0.0
 10
-96.3318
 20
92.3462
 30
0.0
 10
-99.3352
 20
92.3463
 30
0.0
 10
-101.7711
 20
94.781
 30
0.0
 10
-101.7711
 20
97.7858
 30
0.0
 10
-101.7711
 20
97.7858
 30
0.0
 10
-101.7711
 20
100.7892
 30
0.0
 10
-99.3352
 20
103.2251
 30
0.0
 10
-96.3318
 20
103.2251
 30
0.0
 10
-96.3318
 20
103.2251
 30
0.0
 10
-93.3273
 20
103.2252
 30
0.0
 10
-90.8924
 20
100.7892
 30
0.0
 10
-90.8924
 20
97.7859
 30
0.0
  0
SPLINE
  5
51
330
1F
100
AcDbEntity
  8
layer 1
 62
     7
100
AcDbSpline
210
0.0
220
0.0
230
1.0
 70
    11
 71
     3
 72
    44
 73
    40
 74
     0
 42
0.0000000001
 43
0.0000000001
 12
1.0
 22
0.0
 32
0.0
 13
1.0
 23
0.0
 33
0.0
 40
0.0
 40
0.0
 40
0.0
 40
0.0
 40
0.0909090909090909
 40
0.0909090909090909
 40
0.0909090909090909
 40
0.0909090909090909
 40
0.1818181818181818
 40
0.1818181818181818
 40
0.1818181818181818
 40
0.1818181818181818
 40
0.2727272727272727
 40
0.2727272727272727
 40
0.2727272727272727
 40
0.2727272727272727
 40
0.3636363636363636
 40
0.3636363636363636
 40
0.3636363636363636
 40
0.3636363636363636
 40
0.4545454545454545
 40
0.4545454545454545
 40
0.4545454545454545
 40
0.4545454545454545
 40
0.5454545454545454
 40
0.5454545454545454
 40
0.5454545454545454
 40
0.5454545454545454
 40
0.6363636363636364
 40
0.6363636363636364
 40
0.6363636363636364
 40
0.6363636363636364
 40
0.7272727272727273
 40
0.7272727272727273
 40
0.7272727272727273
 40
0.7272727272727273
 40
0.8181818181818182
 40
0.8181818181818182
 40
0.8181818181818182
 40
0.8181818181818182
 40
1.0
 40
1.0
 40
1.0
 40
1.0
 10
-86.3035
 20
100.0972
 30
0.0
 10
-87.2844
 20
99.8443
 30
0.0
 10
-87.5477
 20
99.2951
 30
0.0
 10
-87.5343
 20
98.3123
 30
0.0
 10
-87.5343
 20
98.3123
 30
0.0
 10
-87.4613
 20
92.9471
 30
0.0
 10
-91.5042
 20
89.9032
 30
0.0
 10
-93.4384
 20
89.7068
 30
0.0
 10
-93.4384
 20
89.7068
 30
0.0
 10
-94.1664
 20
89.3936
 30
0.0
 10
-94.6487
 20
89.1651
 30
0.0
 10
-94.5942
 20
87.9651
 30
0.0
 10
-94.5942
 20
87.9651
 30
0.0
 10
-94.6394
 20
85.9387
 30
0.0
 10
-94.4729
 20
84.5237
 30
0.0
 10
-94.6743
 20
82.2697
 30
0.0
 10
-94.6743
 20
82.2697
 30
0.0
 10
-94.5962
 20
81.3548
 30
0.0
 10
-94.1018
 20
80.7069
 30
0.0
 10
-93.6153
 20
80.57
 30
0.0
 10
-93.6153
 20
80.57
 30
0.0
 10
-92.6939
 20
80.3121
 30
0.0
 10
-90.8709
 20
79.2631
 30
0.0
 10
-89.633
 20
78.0643
 30
0.0
 10
-89.633
 20
78.0643
 30
0.0
 10
-89.1351
 20
77.4711
 30
0.0
 10
-88.5337
 20
77.1409
 30
0.0
 10
-87.9178
 20
77.3857
 30
0.0
 10
-87.9178
 20
77.3857
 30
0.0
 10
-73.6295
 20
82.8015
 30
0.0
 10
-72.8144
 20
99.5739
 30
0.0
 10
-75.6006
 20
105.157
 30
0.0
 10
-75.6006
 20
105.157
 30
0.0
 10
-75.6818
 20
105.7207
 30
0.0
 10
-76.998
 20
106.7313
 30
0.0
 10
-78.2555
 20
105.6815
 30
0.0
 10
-78.2555
 20
105.6815
 30
0.0
 10
-81.2128
 20
102.3223
 30
0.0
 10
-85.8377
 20
100.2186
 30
0.0
 10
-86.3035
 20
100.0972
 30
0.0
  0
SPLINE
  5
52
330
1F
100
AcDbEntity
  8
layer 1
 62
     7
100
AcDbSpline
210
0.0
220
0.0
230
1.0
 70
    11
 71
     3
 72
    44
 73
    40
 74
     0
 42
0.0000000001
 43
0.0000000001
 12
1.0
 22
0.0
 32
0.0
 13
1.0
 23
0.0
 33
0.0
 40
0.0
 40
0.0
 40
0.0
 40
0.0
 40
0.0909090909090909
 40
0.0909090909090909
 40
0.0909090909090909
 40
0.0909090909090909
 40
0.1818181818181818
 40
0.1818181818181818
 40
0.1818181818181818
 40
0.1818181818181818
 40
0.2727272727272727
 40
0.2727272727272727
 40
0.2727272727272727
 40
0.2727272727272727
 40
0.3636363636363636
 40
0.3636363636363636
 40
0.3636363636363636
 40
0.3636363636363636
 40
0.4545454545454545
 40
0.4545454545454545
 40
0.4545454545454545
 40
0.4545454545454545
 40
0.5454545454545454
 40
0.5454545454545454
 40
0.5454545454545454
 40
0.5454545454545454
 40
0.6363636363636364
 40
0.6363636363636364
 40
0.6363636363636364
 40
0.6363636363636364
 40
0.7272727272727273
 40
0.7272727272727273
 40
0.7272727272727273
 40
0.7272727272727273
 40
0.8181818181818182
 40
0.8181818181818182
 40
0.8181818181818182
 40
0.8181818181818182
 40
1.0
 40
1.0
 40
1.0
 40
1.0
 10
-106.1132
 20
70.0433
 30
0.0
 10
-105.1324
 20
70.2961
 30
0.0
 10
-104.8693
 20
70.8451
 30
0.0
 10
-104.8827
 20
71.828
 30
0.0
 10
-104.8827
 20
71.828
 30
0.0
 10
-104.9567
 20
77.1945
 30
0.0
 10
-100.9138
 20
80.237
 30
0.0
 10
-98.9785
 20
80.4334
 30
0.0
 10
-98.9785
 20
80.4334
 30
0.0
 10
-98.2513
 20
80.7468
 30
0.0
 10
-97.7692
 20
80.9751
 30
0.0
 10
-97.8237
 20
82.1751
 30
0.0
 10
-97.8237
 20
82.1751
 30
0.0
 10
-97.7784
 20
84.2018
 30
0.0
 10
-97.9451
 20
85.6165
 30
0.0
 10
-97.7427
 20
87.8713
 30
0.0
 10
-97.7427
 20
87.8713
 30
0.0
 10
-97.8216
 20
88.7856
 30
0.0
 10
-98.3152
 20
89.4333
 30
0.0
 10
-98.8027
 20
89.5702
 30
0.0
 10
-98.8027
 20
89.5702
 30
0.0
 10
-99.7239
 20
89.8283
 30
0.0
 10
-101.5471
 20
90.8769
 30
0.0
 10
-102.784
 20
92.077
 30
0.0
 10
-102.784
 20
92.077
 30
0.0
 10
-103.2817
 20
92.6702
 30
0.0
 10
-103.8843
 20
92.9993
 30
0.0
 10
-104.4992
 20
92.7555
 30
0.0
 10
-104.4992
 20
92.7555
 30
0.0
 10
-118.7874
 20
87.3399
 30
0.0
 10
-119.6028
 20
70.5663
 30
0.0
 10
-116.8163
 20
64.983
 30
0.0
 10
-116.8163
 20
64.983
 30
0.0
 10
-116.7349
 20
64.4197
 30
0.0
 10
-115.4199
 20
63.41
 30
0.0
 10
-114.1625
 20
64.4597
 30
0.0
 10
-114.1625
 20
64.4597
 30
0.0
 10
-111.2051
 20
67.8182
 30
0.0
 10
-106.5803
 20
69.9228
 30
0.0
 10
-106.1132
 20
70.0433
 30
0.0
  0
SPLINE
  5
53
330
1F
100
AcDbEntity
  8
layer 1
 62
     7
100
AcDbSpline
210
0.0
220
0.0
230
1.0
 70
    11
 71
     3
 72
    16
 73
    12
 74
     0
 42
0.0000000001
 43
0.0000000001
 12
1.0
 22
0.0
 32
0.0
 13
1.0
 23
0.0
 33
0.0
 40
0.0
 40
0.0
 40
0.0
 40
0.0
 40
0.25
 40
0.25
 40
0.25
 40
0.25
 40
0.5
 40
0.5
 40
0.5
 40
0.5
 40
1.0
 40
1.0
 40
1.0
 40
1.0
 10
-151.9302
 20
123.3612
 30
0.0
 10
-151.9302
 20
120.3564
 30
0.0
 10
-154.3651
 20
117.9215
 30
0.0
 10
-157.3696
 20
117.9215
 30
0.0
 10
-157.3696
 20
117.9215
 30
0.0
 10
-160.3729
 20
117.9216
 30
0.0
 10
-162.8089
 20
120.3564
 30
0.0
 10
-162.8089
 20
123.3611
 30
0.0
 10
-162.8089
 20
123.3611
 30
0.0
 10
-162.8089
 20
123.3611
 30
0.0
 10
-151.9302
 20
123.3612
 30
0.0
 10
-151.9302
 20
123.3612
 30
0.0
  0
SPLINE
  5
54
330
1F
100
AcDbEntity
  8
layer 1
 62
     7
100
AcDbSpline
210
0.0
220
0.0
230
1.0
 70
    11
 71
     3
 72
    36
 73
    32
 74
     0
 42
0.0000000001
 43
0.0000000001
 12
1.0
 22
0.0
 32
0.0
 13
1.0
 23
0.0
 33
0.0
 40
0.0
 40
0.0
 40
0.0
 40
0.0
 40
0.1111111111111111
 40
0.1111111111111111
 40
0.1111111111111111
 40
0.1111111111111111
 40
0.2222222222222222
 40
0.2222222222222222
 40
0.2222222222222222
 40
0.2222222222222222
 40
0.3333333333333333
 40
0.3333333333333333
 40
0.3333333333333333
 40
0.3333333333333333
 40
0.4444444444444444
 40
0.4444444444444444
 40
0.4444444444444444
 40
0.4444444444444444
 40
0.5555555555555556
 40
0.5555555555555556
 40
0.5555555555555556
 40
0.5555555555555556
 40
0.6666666666666666
 40
0.6666666666666666
 40
0.6666666666666666
 40
0.6666666666666666
 40
0.7777777777777778
 40
0.7777777777777778
 40
0.7777777777777778
 40
0.7777777777777778
 40
1.0
 40
1.0
 40
1.0
 40
1.0
 10
-148.5789
 20
123.3398
 30
0.0
 10
-148.7748
 20
118.3155
 30
0.0
 10
-152.6078
 20
115.4717
 30
0.0
 10
-154.4761
 20
115.2821
 30
0.0
 10
-154.4761
 20
115.2821
 30
0.0
 10
-155.2032
 20
114.9689
 30
0.0
 10
-155.6865
 20
114.7404
 30
0.0
 10
-155.632
 20
113.5404
 30
0.0
 10
-155.632
 20
113.5404
 30
0.0
 10
-155.6761
 20
111.514
 30
0.0
 10
-155.5107
 20
110.099
 30
0.0
 10
-155.712
 20
107.845
 30
0.0
 10
-155.712
 20
107.845
 30
0.0
 10
-155.6338
 20
106.9301
 30
0.0
 10
-155.1392
 20
106.2822
 30
0.0
 10
-154.653
 20
106.1453
 30
0.0
 10
-154.653
 20
106.1453
 30
0.0
 10
-153.7307
 20
105.8875
 30
0.0
 10
-151.9086
 20
104.8385
 30
0.0
 10
-150.6707
 20
103.6397
 30
0.0
 10
-150.6707
 20
103.6397
 30
0.0
 10
-150.1728
 20
103.0464
 30
0.0
 10
-149.5714
 20
102.7162
 30
0.0
 10
-148.9555
 20
102.9611
 30
0.0
 10
-148.9555
 20
102.9611
 30
0.0
 10
-138.9416
 20
106.7566
 30
0.0
 10
-135.5455
 20
116.1304
 30
0.0
 10
-135.3689
 20
123.321
 30
0.0
 10
-135.3689
 20
123.321
 30
0.0
 10
-135.3689
 20
123.321
 30
0.0
 10
-148.5789
 20
123.3398
 30
0.0
 10
-148.5789
 20
123.3398
 30
0.0
  0
SPLINE
  5
55
330
1F
100
AcDbEntity
  8
layer 1
 62
     7
100
AcDbSpline
210
0.0
220
0.0
230
1.0
 70
    11
 71
     3
 72
    44
 73
    40
 74
     0
 42
0.0000000001
 43
0.0000000001
 12
1.0
 22
0.0
 32
0.0
 13
1.0
 23
0.0
 33
0.0
 40
0.0
 40
0.0
 40
0.0
 40
0.0
 40
0.0909090909090909
 40
0.0909090909090909
 40
0.0909090909090909
 40
0.0909090909090909
 40
0.1818181818181818
 40
0.1818181818181818
 40
0.1818181818181818
 40
0.1818181818181818
 40
0.2727272727272727
 40
0.2727272727272727
 40
0.2727272727272727
 40
0.2727272727272727
 40
0.3636363636363636
 40
0.3636363636363636
 40
0.3636363636363636
 40
0.3636363636363636
 40
0.4545454545454545
 40
0.4545454545454545
 40
0.4545454545454545
 40
0.4545454545454545
 40
0.5454545454545454
 40
0.5454545454545454
 40
0.5454545454545454
 40
0.5454545454545454
 40
0.6363636363636364
 40
0.6363636363636364
 40
0.6363636363636364
 40
0.6363636363636364
 40
0.7272727272727273
 40
0.7272727272727273
 40
0.7272727272727273
 40
0.7272727272727273
 40
0.8181818181818182
 40
0.8181818181818182
 40
0.8181818181818182
 40
0.8181818181818182
 40
1.0
 40
1.0
 40
1.0
 40
1.0
 10
-167.151
 20
95.6186
 30
0.0
 10
-166.1702
 20
95.8715
 30
0.0
 10
-165.9071
 20
96.4204
 30
0.0
 10
-165.9202
 20
97.4033
 30
0.0
 10
-165.9202
 20
97.4033
 30
0.0
 10
-165.9943
 20
102.7698
 30
0.0
 10
-161.9512
 20
105.8123
 30
0.0
 10
-160.0163
 20
106.0087
 30
0.0
 10
-160.0163
 20
106.0087
 30
0.0
 10
-159.2892
 20
106.3222
 30
0.0
 10
-158.806
 20
106.5504
 30
0.0
 10
-158.8605
 20
107.7505
 30
0.0
 10
-158.8605
 20
107.7505
 30
0.0
 10
-158.8161
 20
109.7772
 30
0.0
 10
-158.9818
 20
111.1919
 30
0.0
 10
-158.7802
 20
113.4467
 30
0.0
 10
-158.7802
 20
113.4467
 30
0.0
 10
-158.8584
 20
114.3609
 30
0.0
 10
-159.353
 20
115.0087
 30
0.0
 10
-159.8394
 20
115.1455
 30
0.0
 10
-159.8394
 20
115.1455
 30
0.0
 10
-160.7617
 20
115.4036
 30
0.0
 10
-162.5838
 20
116.4522
 30
0.0
 10
-163.8218
 20
117.6523
 30
0.0
 10
-163.8218
 20
117.6523
 30
0.0
 10
-164.3191
 20
118.2456
 30
0.0
 10
-164.921
 20
118.5746
 30
0.0
 10
-165.5367
 20
118.3309
 30
0.0
 10
-165.5367
 20
118.3309
 30
0.0
 10
-179.8251
 20
112.9153
 30
0.0
 10
-180.6404
 20
96.1417
 30
0.0
 10
-177.8538
 20
90.5583
 30
0.0
 10
-177.8538
 20
90.5583
 30
0.0
 10
-177.7728
 20
89.9951
 30
0.0
 10
-176.4577
 20
88.9853
 30
0.0
 10
-175.1989
 20
90.0351
 30
0.0
 10
-175.1989
 20
90.0351
 30
0.0
 10
-172.2418
 20
93.3935
 30
0.0
 10
-167.6169
 20
95.4981
 30
0.0
 10
-167.151
 20
95.6186
 30
0.0
  0
SPLINE
  5
56
330
1F
100
AcDbEntity
  8
layer 1
 62
     7
100
AcDbSpline
210
0.0
220
0.0
230
1.0
 70
    11
 71
     3
 72
    16
 73
    12
 74
     0
 42
0.0000000001
 43
0.0000000001
 12
1.0
 22
0.0
 32
0.0
 13
1.0
 23
0.0
 33
0.0
 40
0.0
 40
0.0
 40
0.0
 40
0.0
 40
0.25
 40
0.25
 40
0.25
 40
0.25
 40
0.5
 40
0.5
 40
0.5
 40
0.5
 40
1.0
 40
1.0
 40
1.0
 40
1.0
 10
-90.8924
 20
123.3612
 30
0.0
 10
-90.8924
 20
120.3564
 30
0.0
 10
-93.3273
 20
117.9215
 30
0.0
 10
-96.3318
 20
117.9215
 30
0.0
 10
-96.3318
 20
117.9215
 30
0.0
 10
-99.3352
 20
117.9216
 30
0.0
 10
-101.7711
 20
120.3564
 30
0.0
 10
-101.7711
 20
123.3611
 30
0.0
 10
-101.7711
 20
123.3611
 30
0.0
 10
-101.7711
 20
123.3611
 30
0.0
 10
-90.8924
 20
123.3612
 30
0.0
 10
-90.8924
 20
123.3612
 30
0.0
  0
SPLINE
  5
57
330
1F
100
AcDbEntity
  8
layer 1
 62
     7
100
AcDbSpline
210
0.0
220
0.0
230
1.0
 70
    11
 71
     3
 72
    36
 73
    32
 74
     0
 42
0.0000000001
 43
0.0000000001
 12
1.0
 22
0.0
 32
0.0
 13
1.0
 23
0.0
 33
0.0
 40
0.0
 40
0.0
 40
0.0
 40
0.0
 40
0.1111111111111111
 40
0.1111111111111111
 40
0.1111111111111111
 40
0.1111111111111111
 40
0.2222222222222222
 40
0.2222222222222222
 40
0.2222222222222222
 40
0.2222222222222222
 40
0.3333333333333333
 40
0.3333333333333333
 40
0.3333333333333333
 40
0.3333333333333333
 40
0.4444444444444444
 40
0.4444444444444444
 40
0.4444444444444444
 40
0.4444444444444444
 40
0.5555555555555556
 40
0.5555555555555556
 40
0.5555555555555556
 40
0.5555555555555556
 40
0.6666666666666666
 40
0.6666666666666666
 40
0.6666666666666666
 40
0.6666666666666666
 40
0.7777777777777778
 40
0.7777777777777778
 40
0.7777777777777778
 40
0.7777777777777778
 40
1.0
 40
1.0
 40
1.0
 40
1.0
 10
-87.5442
 20
123.2695
 30
0.0
 10
-87.774
 20
118.2891
 30
0.0
 10
-91.5798
 20
115.4709
 30
0.0
 10
-93.4384
 20
115.2821
 30
0.0
 10
-93.4384
 20
115.2821
 30
0.0
 10
-94.1664
 20
114.9689
 30
0.0
 10
-94.6487
 20
114.7404
 30
0.0
 10
-94.5942
 20
113.5404
 30
0.0
 10
-94.5942
 20
113.5404
 30
0.0
 10
-94.6394
 20
111.514
 30
0.0
 10
-94.4729
 20
110.099
 30
0.0
 10
-94.6743
 20
107.845
 30
0.0
 10
-94.6743
 20
107.845
 30
0.0
 10
-94.5962
 20
106.9301
 30
0.0
 10
-94.1018
 20
106.2822
 30
0.0
 10
-93.6153
 20
106.1453
 30
0.0
 10
-93.6153
 20
106.1453
 30
0.0
 10
-92.6939
 20
105.8875
 30
0.0
 10
-90.8709
 20
104.8385
 30
0.0
 10
-89.633
 20
103.6397
 30
0.0
 10
-89.633
 20
103.6397
 30
0.0
 10
-89.1351
 20
103.0464
 30
0.0
 10
-88.5337
 20
102.7162
 30
0.0
 10
-87.9178
 20
102.9611
 30
0.0
 10
-87.9178
 20
102.9611
 30
0.0
 10
-77.9116
 20
106.7537
 30
0.0
 10
-74.513
 20
116.1161
 30
0.0
 10
-74.3317
 20
123.3046
 30
0.0
 10
-74.3317
 20
123.3046
 30
0.0
 10
-74.3317
 20
123.3046
 30
0.0
 10
-87.5442
 20
123.2695
 30
0.0
 10
-87.5442
 20
123.2695
 30
0.0
  0
SPLINE
  5
58
330
1F
100
AcDbEntity
  8
layer 1
 62
     7
100
AcDbSpline
210
0.0
220
0.0
230
1.0
 70
    11
 71
     3
 72
    44
 73
    40
 74
     0
 42
0.0000000001
 43
0.0000000001
 12
1.0
 22
0.0
 32
0.0
 13
1.0
 23
0.0
 33
0.0
 40
0.0
 40
0.0
 40
0.0
 40
0.0
 40
0.0909090909090909
 40
0.0909090909090909
 40
0.0909090909090909
 40
0.0909090909090909
 40
0.1818181818181818
 40
0.1818181818181818
 40
0.1818181818181818
 40
0.1818181818181818
 40
0.2727272727272727
 40
0.2727272727272727
 40
0.2727272727272727
 40
0.2727272727272727
 40
0.3636363636363636
 40
0.3636363636363636
 40
0.3636363636363636
 40
0.3636363636363636
 40
0.4545454545454545
 40
0.4545454545454545
 40
0.4545454545454545
 40
0.4545454545454545
 40
0.5454545454545454
 40
0.5454545454545454
 40
0.5454545454545454
 40
0.5454545454545454
 40
0.6363636363636364
 40
0.6363636363636364
 40
0.6363636363636364
 40
0.6363636363636364
 40
0.7272727272727273
 40
0.7272727272727273
 40
0.7272727272727273
 40
0.7272727272727273
 40
0.8181818181818182
 40
0.8181818181818182
 40
0.8181818181818182
 40
0.8181818181818182
 40
1.0
 40
1.0
 40
1.0
 40
1.0
 10
-106.1132
 20
95.6186
 30
0.0
 10
-105.1324
 20
95.8715
 30
0.0
 10
-104.8693
 20
96.4204
 30
0.0
 10
-104.8827
 20
97.4033
 30
0.0
 10
-104.8827
 20
97.4033
 30
0.0
 10
-104.9567
 20
102.7698
 30
0.0
 10
-100.9138
 20
105.8123
 30
0.0
 10
-98.9785
 20
106.0087
 30
0.0
 10
-98.9785
 20
106.0087
 30
0.0
 10
-98.2513
 20
106.3222
 30
0.0
 10
-97.7692
 20
106.5504
 30
0.0
 10
-97.8237
 20
107.7505
 30
0.0
 10
-97.8237
 20
107.7505
 30
0.0
 10
-97.7784
 20
109.7772
 30
0.0
 10
-97.9451
 20
111.1919
 30
0.0
 10
-97.7427
 20
113.4467
 30
0.0
 10
-97.7427
 20
113.4467
 30
0.0
 10
-97.8216
 20
114.3609
 30
0.0
 10
-98.3152
 20
115.0087
 30
0.0
 10
-98.8027
 20
115.1455
 30
0.0
 10
-98.8027
 20
115.1455
 30
0.0
 10
-99.7239
 20
115.4036
 30
0.0
 10
-101.5471
 20
116.4522
 30
0.0
 10
-102.784
 20
117.6523
 30
0.0
 10
-102.784
 20
117.6523
 30
0.0
 10
-103.2817
 20
118.2456
 30
0.0
 10
-103.8843
 20
118.5746
 30
0.0
 10
-104.4992
 20
118.3309
 30
0.0
 10
-104.4992
 20
118.3309
 30
0.0
 10
-118.7874
 20
112.9153
 30
0.0
 10
-119.6028
 20
96.1417
 30
0.0
 10
-116.8163
 20
90.5583
 30
0.0
 10
-116.8163
 20
90.5583
 30
0.0
 10
-116.7349
 20
89.9951
 30
0.0
 10
-115.4199
 20
88.9853
 30
0.0
 10
-114.1625
 20
90.0351
 30
0.0
 10
-114.1625
 20
90.0351
 30
0.0
 10
-111.2051
 20
93.3935
 30
0.0
 10
-106.5803
 20
95.4981
 30
0.0
 10
-106.1132
 20
95.6186
 30
0.0
  0
SPLINE
  5
59
330
1F
100
AcDbEntity
  8
layer 1
 62
     7
100
AcDbSpline
210
0.0
220
0.0
230
1.0
 70
    11
 71
     3
 72
    20
 73
    16
 74
     0
 42
0.0000000001
 43
0.0000000001
 12
1.0
 22
0.0
 32
0.0
 13
1.0
 23
0.0
 33
0.0
 40
0.0
 40
0.0
 40
0.0
 40
0.0
 40
0.2
 40
0.2
 40
0.2
 40
0.2
 40
0.4
 40
0.4
 40
0.4
 40
0.4
 40
0.6
 40
0.6
 40
0.6
 40
0.6
 40
1.0
 40
1.0
 40
1.0
 40
1.0
 10
-90.8924
 20
97.8177
 30
0.0
 10
-90.8924
 20
94.814
 30
0.0
 10
-93.3273
 20
92.3781
 30
0.0
 10
-96.3318
 20
92.3781
 30
0.0
 10
-96.3318
 20
92.3781
 30
0.0
 10
-99.3352
 20
92.3784
 30
0.0
 10
-101.7711
 20
94.814
 30
0.0
 10
-101.7711
 20
97.8174
 30
0.0
 10
-101.7711
 20
97.8174
 30
0.0
 10
-101.7711
 20
100.8219
 30
0.0
 10
-99.3352
 20
103.2568
 30
0.0
 10
-96.3318
 20
103.2568
 30
0.0
 10
-96.3318
 20
103.2568
 30
0.0
 10
-93.3273
 20
103.257
 30
0.0
 10
-90.8924
 20
100.8219
 30
0.0
 10
-90.8924
 20
97.8177
 30
0.0
  0
SPLINE
  5
5A
330
1F
100
AcDbEntity
  8
layer 1
 62
     7
100
AcDbSpline
210
0.0
220
0.0
230
1.0
 70
    11
 71
     3
 72
    28
 73
    24
 74
     0
 42
0.0000000001
 43
0.0000000001
 12
1.0
 22
0.0
 32
0.0
 13
1.0
 23
0.0
 33
0.0
 40
0.0
 40
0.0
 40
0.0
 40
0.0
 40
0.1428571428571428
 40
0.1428571428571428
 40
0.1428571428571428
 40
0.1428571428571428
 40
0.2857142857142857
 40
0.2857142857142857
 40
0.2857142857142857
 40
0.2857142857142857
 40
0.4285714285714285
 40
0.4285714285714285
 40
0.4285714285714285
 40
0.4285714285714285
 40
0.5714285714285714
 40
0.5714285714285714
 40
0.5714285714285714
 40
0.5714285714285714
 40
0.7142857142857143
 40
0.7142857142857143
 40
0.7142857142857143
 40
0.7142857142857143
 40
1.0
 40
1.0
 40
1.0
 40
1.0
 10
-167.151
 20
121.2013
 30
0.0
 10
-166.1702
 20
121.4541
 30
0.0
 10
-165.9071
 20
122.0031
 30
0.0
 10
-165.9202
 20
122.986
 30
0.0
 10
-165.9202
 20
122.986
 30
0.0
 10
-165.9213
 20
123.0698
 30
0.0
 10
-165.9215
 20
123.1531
 30
0.0
 10
-165.9207
 20
123.2358
 30
0.0
 10
-165.9207
 20
123.2358
 30
0.0
 10
-165.9207
 20
123.2358
 30
0.0
 10
-179.128
 20
123.32
 30
0.0
 10
-179.128
 20
123.32
 30
0.0
 10
-179.128
 20
123.32
 30
0.0
 10
-179.1726
 20
120.3483
 30
0.0
 10
-178.6663
 20
117.7689
 30
0.0
 10
-177.8538
 20
116.141
 30
0.0
 10
-177.8538
 20
116.141
 30
0.0
 10
-177.7728
 20
115.5777
 30
0.0
 10
-176.4577
 20
114.5679
 30
0.0
 10
-175.1989
 20
115.6177
 30
0.0
 10
-175.1989
 20
115.6177
 30
0.0
 10
-172.2418
 20
118.9762
 30
0.0
 10
-167.6169
 20
121.0808
 30
0.0
 10
-167.151
 20
121.2013
 30
0.0
  0
SPLINE
  5
5B
330
1F
100
AcDbEntity
  8
layer 1
 62
     7
100
AcDbSpline
210
0.0
220
0.0
230
1.0
 70
    11
 71
     3
 72
    28
 73
    24
 74
     0
 42
0.0000000001
 43
0.0000000001
 12
1.0
 22
0.0
 32
0.0
 13
1.0
 23
0.0
 33
0.0
 40
0.0
 40
0.0
 40
0.0
 40
0.0
 40
0.1428571428571428
 40
0.1428571428571428
 40
0.1428571428571428
 40
0.1428571428571428
 40
0.2857142857142857
 40
0.2857142857142857
 40
0.2857142857142857
 40
0.2857142857142857
 40
0.4285714285714285
 40
0.4285714285714285
 40
0.4285714285714285
 40
0.4285714285714285
 40
0.5714285714285714
 40
0.5714285714285714
 40
0.5714285714285714
 40
0.5714285714285714
 40
0.7142857142857143
 40
0.7142857142857143
 40
0.7142857142857143
 40
0.7142857142857143
 40
1.0
 40
1.0
 40
1.0
 40
1.0
 10
-106.1132
 20
121.2013
 30
0.0
 10
-105.1324
 20
121.4541
 30
0.0
 10
-104.8693
 20
122.0031
 30
0.0
 10
-104.8827
 20
122.986
 30
0.0
 10
-104.8827
 20
122.986
 30
0.0
 10
-104.8849
 20
123.1536
 30
0.0
 10
-104.8876
 20
123.1533
 30
0.0
 10
-104.882
 20
123.3165
 30
0.0
 10
-104.882
 20
123.3165
 30
0.0
 10
-104.882
 20
123.3165
 30
0.0
 10
-118.131
 20
123.3071
 30
0.0
 10
-118.131
 20
123.3071
 30
0.0
 10
-118.131
 20
123.3071
 30
0.0
 10
-118.1658
 20
120.3678
 30
0.0
 10
-117.6218
 20
117.7548
 30
0.0
 10
-116.8163
 20
116.141
 30
0.0
 10
-116.8163
 20
116.141
 30
0.0
 10
-116.7349
 20
115.5777
 30
0.0
 10
-115.4199
 20
114.5679
 30
0.0
 10
-114.1625
 20
115.6177
 30
0.0
 10
-114.1625
 20
115.6177
 30
0.0
 10
-111.2051
 20
118.9762
 30
0.0
 10
-106.5803
 20
121.0808
 30
0.0
 10
-106.1132
 20
121.2013
 30
0.0
  0
SPLINE
  5
5C
330
1F
100
AcDbEntity
  8
layer 1
 62
     7
100
AcDbSpline
210
0.0
220
0.0
230
1.0
 70
    11
 71
     3
 72
    20
 73
    16
 74
     0
 42
0.0000000001
 43
0.0000000001
 12
1.0
 22
0.0
 32
0.0
 13
1.0
 23
0.0
 33
0.0
 40
0.0
 40
0.0
 40
0.0
 40
0.0
 40
0.2
 40
0.2
 40
0.2
 40
0.2
 40
0.4
 40
0.4
 40
0.4
 40
0.4
 40
0.6
 40
0.6
 40
0.6
 40
0.6
 40
1.0
 40
1.0
 40
1.0
 40
1.0
 10
-151.9302
 20
-30.0298
 30
0.0
 10
-151.9302
 20
-33.0346
 30
0.0
 10
-154.3651
 20
-35.4695
 30
0.0
 10
-157.3696
 20
-35.4695
 30
0.0
 10
-157.3696
 20
-35.4695
 30
0.0
 10
-160.3729
 20
-35.4694
 30
0.0
 10
-162.8089
 20
-33.0346
 30
0.0
 10
-162.8089
 20
-30.0299
 30
0.0
 10
-162.8089
 20
-30.0299
 30
0.0
 10
-162.8089
 20
-27.0264
 30
0.0
 10
-160.373
 20
-24.5905
 30
0.0
 10
-157.3696
 20
-24.5905
 30
0.0
 10
-157.3696
 20
-24.5905
 30
0.0
 10
-154.365
 20
-24.5905
 30
0.0
 10
-151.9302
 20
-27.0264
 30
0.0
 10
-151.9302
 20
-30.0298
 30
0.0
  0
SPLINE
  5
5D
330
1F
100
AcDbEntity
  8
layer 1
 62
     7
100
AcDbSpline
210
0.0
220
0.0
230
1.0
 70
    11
 71
     3
 72
    44
 73
    40
 74
     0
 42
0.0000000001
 43
0.0000000001
 12
1.0
 22
0.0
 32
0.0
 13
1.0
 23
0.0
 33
0.0
 40
0.0
 40
0.0
 40
0.0
 40
0.0
 40
0.0909090909090909
 40
0.0909090909090909
 40
0.0909090909090909
 40
0.0909090909090909
 40
0.1818181818181818
 40
0.1818181818181818
 40
0.1818181818181818
 40
0.1818181818181818
 40
0.2727272727272727
 40
0.2727272727272727
 40
0.2727272727272727
 40
0.2727272727272727
 40
0.3636363636363636
 40
0.3636363636363636
 40
0.3636363636363636
 40
0.3636363636363636
 40
0.4545454545454545
 40
0.4545454545454545
 40
0.4545454545454545
 40
0.4545454545454545
 40
0.5454545454545454
 40
0.5454545454545454
 40
0.5454545454545454
 40
0.5454545454545454
 40
0.6363636363636364
 40
0.6363636363636364
 40
0.6363636363636364
 40
0.6363636363636364
 40
0.7272727272727273
 40
0.7272727272727273
 40
0.7272727272727273
 40
0.7272727272727273
 40
0.8181818181818182
 40
0.8181818181818182
 40
0.8181818181818182
 40
0.8181818181818182
 40
1.0
 40
1.0
 40
1.0
 40
1.0
 10
-147.3411
 20
-27.7185
 30
0.0
 10
-148.3221
 20
-27.9714
 30
0.0
 10
-148.5854
 20
-28.5205
 30
0.0
 10
-148.572
 20
-29.5034
 30
0.0
 10
-148.572
 20
-29.5034
 30
0.0
 10
-148.4979
 20
-34.8685
 30
0.0
 10
-152.5409
 20
-37.9125
 30
0.0
 10
-154.4761
 20
-38.1088
 30
0.0
 10
-154.4761
 20
-38.1088
 30
0.0
 10
-155.2032
 20
-38.4221
 30
0.0
 10
-155.6865
 20
-38.6505
 30
0.0
 10
-155.632
 20
-39.8506
 30
0.0
 10
-155.632
 20
-39.8506
 30
0.0
 10
-155.6761
 20
-41.877
 30
0.0
 10
-155.5107
 20
-43.292
 30
0.0
 10
-155.712
 20
-45.546
 30
0.0
 10
-155.712
 20
-45.546
 30
0.0
 10
-155.6338
 20
-46.4608
 30
0.0
 10
-155.1392
 20
-47.1088
 30
0.0
 10
-154.653
 20
-47.2456
 30
0.0
 10
-154.653
 20
-47.2456
 30
0.0
 10
-153.7307
 20
-47.5035
 30
0.0
 10
-151.9086
 20
-48.5525
 30
0.0
 10
-150.6707
 20
-49.7513
 30
0.0
 10
-150.6707
 20
-49.7513
 30
0.0
 10
-150.1728
 20
-50.3446
 30
0.0
 10
-149.5714
 20
-50.6747
 30
0.0
 10
-148.9555
 20
-50.4299
 30
0.0
 10
-148.9555
 20
-50.4299
 30
0.0
 10
-134.6672
 20
-45.0142
 30
0.0
 10
-133.8518
 20
-28.2418
 30
0.0
 10
-136.6383
 20
-22.6587
 30
0.0
 10
-136.6383
 20
-22.6587
 30
0.0
 10
-136.7197
 20
-22.095
 30
0.0
 10
-138.0348
 20
-21.0844
 30
0.0
 10
-139.2932
 20
-22.1341
 30
0.0
 10
-139.2932
 20
-22.1341
 30
0.0
 10
-142.2505
 20
-25.4933
 30
0.0
 10
-146.8755
 20
-27.5971
 30
0.0
 10
-147.3411
 20
-27.7185
 30
0.0
  0
SPLINE
  5
5E
330
1F
100
AcDbEntity
  8
layer 1
 62
     7
100
AcDbSpline
210
0.0
220
0.0
230
1.0
 70
    11
 71
     3
 72
    44
 73
    40
 74
     0
 42
0.0000000001
 43
0.0000000001
 12
1.0
 22
0.0
 32
0.0
 13
1.0
 23
0.0
 33
0.0
 40
0.0
 40
0.0
 40
0.0
 40
0.0
 40
0.0909090909090909
 40
0.0909090909090909
 40
0.0909090909090909
 40
0.0909090909090909
 40
0.1818181818181818
 40
0.1818181818181818
 40
0.1818181818181818
 40
0.1818181818181818
 40
0.2727272727272727
 40
0.2727272727272727
 40
0.2727272727272727
 40
0.2727272727272727
 40
0.3636363636363636
 40
0.3636363636363636
 40
0.3636363636363636
 40
0.3636363636363636
 40
0.4545454545454545
 40
0.4545454545454545
 40
0.4545454545454545
 40
0.4545454545454545
 40
0.5454545454545454
 40
0.5454545454545454
 40
0.5454545454545454
 40
0.5454545454545454
 40
0.6363636363636364
 40
0.6363636363636364
 40
0.6363636363636364
 40
0.6363636363636364
 40
0.7272727272727273
 40
0.7272727272727273
 40
0.7272727272727273
 40
0.7272727272727273
 40
0.8181818181818182
 40
0.8181818181818182
 40
0.8181818181818182
 40
0.8181818181818182
 40
1.0
 40
1.0
 40
1.0
 40
1.0
 10
-167.151
 20
-57.7724
 30
0.0
 10
-166.1702
 20
-57.5195
 30
0.0
 10
-165.9071
 20
-56.9706
 30
0.0
 10
-165.9202
 20
-55.9877
 30
0.0
 10
-165.9202
 20
-55.9877
 30
0.0
 10
-165.9943
 20
-50.6212
 30
0.0
 10
-161.9512
 20
-47.5787
 30
0.0
 10
-160.0163
 20
-47.3823
 30
0.0
 10
-160.0163
 20
-47.3823
 30
0.0
 10
-159.2892
 20
-47.0688
 30
0.0
 10
-158.806
 20
-46.8406
 30
0.0
 10
-158.8605
 20
-45.6405
 30
0.0
 10
-158.8605
 20
-45.6405
 30
0.0
 10
-158.8161
 20
-43.6138
 30
0.0
 10
-158.9818
 20
-42.1991
 30
0.0
 10
-158.7802
 20
-39.9443
 30
0.0
 10
-158.7802
 20
-39.9443
 30
0.0
 10
-158.8584
 20
-39.03
 30
0.0
 10
-159.353
 20
-38.3823
 30
0.0
 10
-159.8394
 20
-38.2455
 30
0.0
 10
-159.8394
 20
-38.2455
 30
0.0
 10
-160.7617
 20
-37.9874
 30
0.0
 10
-162.5838
 20
-36.9388
 30
0.0
 10
-163.8218
 20
-35.7387
 30
0.0
 10
-163.8218
 20
-35.7387
 30
0.0
 10
-164.3191
 20
-35.1454
 30
0.0
 10
-164.921
 20
-34.8164
 30
0.0
 10
-165.5367
 20
-35.0601
 30
0.0
 10
-165.5367
 20
-35.0601
 30
0.0
 10
-179.8251
 20
-40.4757
 30
0.0
 10
-180.6404
 20
-57.2493
 30
0.0
 10
-177.8538
 20
-62.8327
 30
0.0
 10
-177.8538
 20
-62.8327
 30
0.0
 10
-177.7728
 20
-63.3959
 30
0.0
 10
-176.4577
 20
-64.4057
 30
0.0
 10
-175.1989
 20
-63.3559
 30
0.0
 10
-175.1989
 20
-63.3559
 30
0.0
 10
-172.2418
 20
-59.9975
 30
0.0
 10
-167.6169
 20
-57.8929
 30
0.0
 10
-167.151
 20
-57.7724
 30
0.0
  0
SPLINE
  5
5F
330
1F
100
AcDbEntity
  8
layer 1
 62
     7
100
AcDbSpline
210
0.0
220
0.0
230
1.0
 70
    11
 71
     3
 72
    52
 73
    48
 74
     0
 42
0.0000000001
 43
0.0000000001
 12
1.0
 22
0.0
 32
0.0
 13
1.0
 23
0.0
 33
0.0
 40
0.0
 40
0.0
 40
0.0
 40
0.0
 40
0.0769230769230769
 40
0.0769230769230769
 40
0.0769230769230769
 40
0.0769230769230769
 40
0.1538461538461539
 40
0.1538461538461539
 40
0.1538461538461539
 40
0.1538461538461539
 40
0.2307692307692308
 40
0.2307692307692308
 40
0.2307692307692308
 40
0.2307692307692308
 40
0.3076923076923077
 40
0.3076923076923077
 40
0.3076923076923077
 40
0.3076923076923077
 40
0.3846153846153846
 40
0.3846153846153846
 40
0.3846153846153846
 40
0.3846153846153846
 40
0.4615384615384616
 40
0.4615384615384616
 40
0.4615384615384616
 40
0.4615384615384616
 40
0.5384615384615384
 40
0.5384615384615384
 40
0.5384615384615384
 40
0.5384615384615384
 40
0.6153846153846154
 40
0.6153846153846154
 40
0.6153846153846154
 40
0.6153846153846154
 40
0.6923076923076923
 40
0.6923076923076923
 40
0.6923076923076923
 40
0.6923076923076923
 40
0.7692307692307693
 40
0.7692307692307693
 40
0.7692307692307693
 40
0.7692307692307693
 40
0.8461538461538461
 40
0.8461538461538461
 40
0.8461538461538461
 40
0.8461538461538461
 40
1.0
 40
1.0
 40
1.0
 40
1.0
 10
-122.8517
 20
-6.0782
 30
0.0
 10
-121.6386
 20
-6.2982
 30
0.0
 10
-121.5594
 20
-6.9236
 30
0.0
 10
-121.4217
 20
-7.8972
 30
0.0
 10
-121.4217
 20
-7.8972
 30
0.0
 10
-120.9639
 20
-11.1352
 30
0.0
 10
-120.0459
 20
-13.8456
 30
0.0
 10
-118.6763
 20
-16.0038
 30
0.0
 10
-118.6763
 20
-16.0038
 30
0.0
 10
-118.0151
 20
-16.8161
 30
0.0
 10
-118.0317
 20
-17.7098
 30
0.0
 10
-118.5847
 20
-18.4429
 30
0.0
 10
-118.5847
 20
-18.4429
 30
0.0
 10
-119.2377
 20
-19.6726
 30
0.0
 10
-120.7337
 20
-22.8816
 30
0.0
 10
-121.397
 20
-26.7993
 30
0.0
 10
-121.397
 20
-26.7993
 30
0.0
 10
-121.6746
 20
-28.112
 30
0.0
 10
-122.0201
 20
-28.4115
 30
0.0
 10
-122.6884
 20
-28.465
 30
0.0
 10
-122.6884
 20
-28.465
 30
0.0
 10
-125.3125
 20
-28.5204
 30
0.0
 10
-127.6476
 20
-28.5268
 30
0.0
 10
-130.8342
 20
-28.465
 30
0.0
 10
-130.8342
 20
-28.465
 30
0.0
 10
-131.5024
 20
-28.4114
 30
0.0
 10
-131.8479
 20
-28.1122
 30
0.0
 10
-132.1267
 20
-26.7993
 30
0.0
 10
-132.1267
 20
-26.7993
 30
0.0
 10
-132.7886
 20
-22.8815
 30
0.0
 10
-134.2848
 20
-19.6727
 30
0.0
 10
-134.9376
 20
-18.4429
 30
0.0
 10
-134.9376
 20
-18.4429
 30
0.0
 10
-135.4908
 20
-17.7096
 30
0.0
 10
-135.5073
 20
-16.8161
 30
0.0
 10
-134.8463
 20
-16.0038
 30
0.0
 10
-134.8463
 20
-16.0038
 30
0.0
 10
-133.4767
 20
-13.8454
 30
0.0
 10
-132.5583
 20
-11.1352
 30
0.0
 10
-132.1008
 20
-7.8972
 30
0.0
 10
-132.1008
 20
-7.8972
 30
0.0
 10
-131.9631
 20
-6.9233
 30
0.0
 10
-131.851
 20
-6.3652
 30
0.0
 10
-130.87
 20
-6.1112
 30
0.0
 10
-130.87
 20
-6.1112
 30
0.0
 10
-127.9621
 20
-6.1413
 30
0.0
 10
-125.3443
 20
-6.0836
 30
0.0
 10
-122.8517
 20
-6.0782
 30
0.0
  0
SPLINE
  5
60
330
1F
100
AcDbEntity
  8
layer 1
 62
     7
100
AcDbSpline
210
0.0
220
0.0
230
1.0
 70
    11
 71
     3
 72
    20
 73
    16
 74
     0
 42
0.0000000001
 43
0.0000000001
 12
1.0
 22
0.0
 32
0.0
 13
1.0
 23
0.0
 33
0.0
 40
0.0
 40
0.0
 40
0.0
 40
0.0
 40
0.2
 40
0.2
 40
0.2
 40
0.2
 40
0.4
 40
0.4
 40
0.4
 40
0.4
 40
0.6
 40
0.6
 40
0.6
 40
0.6
 40
1.0
 40
1.0
 40
1.0
 40
1.0
 10
-90.8924
 20
-30.0298
 30
0.0
 10
-90.8924
 20
-33.0346
 30
0.0
 10
-93.3273
 20
-35.4695
 30
0.0
 10
-96.3318
 20
-35.4695
 30
0.0
 10
-96.3318
 20
-35.4695
 30
0.0
 10
-99.3352
 20
-35.4694
 30
0.0
 10
-101.7711
 20
-33.0346
 30
0.0
 10
-101.7711
 20
-30.0299
 30
0.0
 10
-101.7711
 20
-30.0299
 30
0.0
 10
-101.7711
 20
-27.0264
 30
0.0
 10
-99.3352
 20
-24.5905
 30
0.0
 10
-96.3318
 20
-24.5905
 30
0.0
 10
-96.3318
 20
-24.5905
 30
0.0
 10
-93.3273
 20
-24.5905
 30
0.0
 10
-90.8924
 20
-27.0264
 30
0.0
 10
-90.8924
 20
-30.0298
 30
0.0
  0
SPLINE
  5
61
330
1F
100
AcDbEntity
  8
layer 1
 62
     7
100
AcDbSpline
210
0.0
220
0.0
230
1.0
 70
    11
 71
     3
 72
    44
 73
    40
 74
     0
 42
0.0000000001
 43
0.0000000001
 12
1.0
 22
0.0
 32
0.0
 13
1.0
 23
0.0
 33
0.0
 40
0.0
 40
0.0
 40
0.0
 40
0.0
 40
0.0909090909090909
 40
0.0909090909090909
 40
0.0909090909090909
 40
0.0909090909090909
 40
0.1818181818181818
 40
0.1818181818181818
 40
0.1818181818181818
 40
0.1818181818181818
 40
0.2727272727272727
 40
0.2727272727272727
 40
0.2727272727272727
 40
0.2727272727272727
 40
0.3636363636363636
 40
0.3636363636363636
 40
0.3636363636363636
 40
0.3636363636363636
 40
0.4545454545454545
 40
0.4545454545454545
 40
0.4545454545454545
 40
0.4545454545454545
 40
0.5454545454545454
 40
0.5454545454545454
 40
0.5454545454545454
 40
0.5454545454545454
 40
0.6363636363636364
 40
0.6363636363636364
 40
0.6363636363636364
 40
0.6363636363636364
 40
0.7272727272727273
 40
0.7272727272727273
 40
0.7272727272727273
 40
0.7272727272727273
 40
0.8181818181818182
 40
0.8181818181818182
 40
0.8181818181818182
 40
0.8181818181818182
 40
1.0
 40
1.0
 40
1.0
 40
1.0
 10
-86.3035
 20
-27.7185
 30
0.0
 10
-87.2844
 20
-27.9714
 30
0.0
 10
-87.5477
 20
-28.5205
 30
0.0
 10
-87.5343
 20
-29.5034
 30
0.0
 10
-87.5343
 20
-29.5034
 30
0.0
 10
-87.4613
 20
-34.8685
 30
0.0
 10
-91.5042
 20
-37.9125
 30
0.0
 10
-93.4384
 20
-38.1088
 30
0.0
 10
-93.4384
 20
-38.1088
 30
0.0
 10
-94.1664
 20
-38.4221
 30
0.0
 10
-94.6487
 20
-38.6505
 30
0.0
 10
-94.5942
 20
-39.8506
 30
0.0
 10
-94.5942
 20
-39.8506
 30
0.0
 10
-94.6394
 20
-41.877
 30
0.0
 10
-94.4729
 20
-43.292
 30
0.0
 10
-94.6743
 20
-45.546
 30
0.0
 10
-94.6743
 20
-45.546
 30
0.0
 10
-94.5962
 20
-46.4608
 30
0.0
 10
-94.1018
 20
-47.1088
 30
0.0
 10
-93.6153
 20
-47.2456
 30
0.0
 10
-93.6153
 20
-47.2456
 30
0.0
 10
-92.6939
 20
-47.5035
 30
0.0
 10
-90.8709
 20
-48.5525
 30
0.0
 10
-89.633
 20
-49.7513
 30
0.0
 10
-89.633
 20
-49.7513
 30
0.0
 10
-89.1351
 20
-50.3446
 30
0.0
 10
-88.5337
 20
-50.6747
 30
0.0
 10
-87.9178
 20
-50.4299
 30
0.0
 10
-87.9178
 20
-50.4299
 30
0.0
 10
-73.6295
 20
-45.0142
 30
0.0
 10
-72.8144
 20
-28.2418
 30
0.0
 10
-75.6006
 20
-22.6587
 30
0.0
 10
-75.6006
 20
-22.6587
 30
0.0
 10
-75.6818
 20
-22.095
 30
0.0
 10
-76.998
 20
-21.0844
 30
0.0
 10
-78.2555
 20
-22.1341
 30
0.0
 10
-78.2555
 20
-22.1341
 30
0.0
 10
-81.2128
 20
-25.4933
 30
0.0
 10
-85.8377
 20
-27.5971
 30
0.0
 10
-86.3035
 20
-27.7185
 30
0.0
  0
SPLINE
  5
62
330
1F
100
AcDbEntity
  8
layer 1
 62
     7
100
AcDbSpline
210
0.0
220
0.0
230
1.0
 70
    11
 71
     3
 72
    44
 73
    40
 74
     0
 42
0.0000000001
 43
0.0000000001
 12
1.0
 22
0.0
 32
0.0
 13
1.0
 23
0.0
 33
0.0
 40
0.0
 40
0.0
 40
0.0
 40
0.0
 40
0.0909090909090909
 40
0.0909090909090909
 40
0.0909090909090909
 40
0.0909090909090909
 40
0.1818181818181818
 40
0.1818181818181818
 40
0.1818181818181818
 40
0.1818181818181818
 40
0.2727272727272727
 40
0.2727272727272727
 40
0.2727272727272727
 40
0.2727272727272727
 40
0.3636363636363636
 40
0.3636363636363636
 40
0.3636363636363636
 40
0.3636363636363636
 40
0.4545454545454545
 40
0.4545454545454545
 40
0.4545454545454545
 40
0.4545454545454545
 40
0.5454545454545454
 40
0.5454545454545454
 40
0.5454545454545454
 40
0.5454545454545454
 40
0.6363636363636364
 40
0.6363636363636364
 40
0.6363636363636364
 40
0.6363636363636364
 40
0.7272727272727273
 40
0.7272727272727273
 40
0.7272727272727273
 40
0.7272727272727273
 40
0.8181818181818182
 40
0.8181818181818182
 40
0.8181818181818182
 40
0.8181818181818182
 40
1.0
 40
1.0
 40
1.0
 40
1.0
 10
-106.1132
 20
-57.7724
 30
0.0
 10
-105.1324
 20
-57.5195
 30
0.0
 10
-104.8693
 20
-56.9706
 30
0.0
 10
-104.8827
 20
-55.9877
 30
0.0
 10
-104.8827
 20
-55.9877
 30
0.0
 10
-104.9567
 20
-50.6212
 30
0.0
 10
-100.9138
 20
-47.5787
 30
0.0
 10
-98.9785
 20
-47.3823
 30
0.0
 10
-98.9785
 20
-47.3823
 30
0.0
 10
-98.2513
 20
-47.0688
 30
0.0
 10
-97.7692
 20
-46.8406
 30
0.0
 10
-97.8237
 20
-45.6405
 30
0.0
 10
-97.8237
 20
-45.6405
 30
0.0
 10
-97.7784
 20
-43.6138
 30
0.0
 10
-97.9451
 20
-42.1991
 30
0.0
 10
-97.7427
 20
-39.9443
 30
0.0
 10
-97.7427
 20
-39.9443
 30
0.0
 10
-97.8216
 20
-39.03
 30
0.0
 10
-98.3152
 20
-38.3823
 30
0.0
 10
-98.8027
 20
-38.2455
 30
0.0
 10
-98.8027
 20
-38.2455
 30
0.0
 10
-99.7239
 20
-37.9874
 30
0.0
 10
-101.5471
 20
-36.9388
 30
0.0
 10
-102.784
 20
-35.7387
 30
0.0
 10
-102.784
 20
-35.7387
 30
0.0
 10
-103.2817
 20
-35.1454
 30
0.0
 10
-103.8843
 20
-34.8164
 30
0.0
 10
-104.4992
 20
-35.0601
 30
0.0
 10
-104.4992
 20
-35.0601
 30
0.0
 10
-118.7874
 20
-40.4757
 30
0.0
 10
-119.6028
 20
-57.2493
 30
0.0
 10
-116.8163
 20
-62.8327
 30
0.0
 10
-116.8163
 20
-62.8327
 30
0.0
 10
-116.7349
 20
-63.3959
 30
0.0
 10
-115.4199
 20
-64.4057
 30
0.0
 10
-114.1625
 20
-63.3559
 30
0.0
 10
-114.1625
 20
-63.3559
 30
0.0
 10
-111.2051
 20
-59.9975
 30
0.0
 10
-106.5803
 20
-57.8929
 30
0.0
 10
-106.1132
 20
-57.7724
 30
0.0
  0
SPLINE
  5
63
330
1F
100
AcDbEntity
  8
layer 1
 62
     7
100
AcDbSpline
210
0.0
220
0.0
230
1.0
 70
    11
 71
     3
 72
    52
 73
    48
 74
     0
 42
0.0000000001
 43
0.0000000001
 12
1.0
 22
0.0
 32
0.0
 13
1.0
 23
0.0
 33
0.0
 40
0.0
 40
0.0
 40
0.0
 40
0.0
 40
0.0769230769230769
 40
0.0769230769230769
 40
0.0769230769230769
 40
0.0769230769230769
 40
0.1538461538461539
 40
0.1538461538461539
 40
0.1538461538461539
 40
0.1538461538461539
 40
0.2307692307692308
 40
0.2307692307692308
 40
0.2307692307692308
 40
0.2307692307692308
 40
0.3076923076923077
 40
0.3076923076923077
 40
0.3076923076923077
 40
0.3076923076923077
 40
0.3846153846153846
 40
0.3846153846153846
 40
0.3846153846153846
 40
0.3846153846153846
 40
0.4615384615384616
 40
0.4615384615384616
 40
0.4615384615384616
 40
0.4615384615384616
 40
0.5384615384615384
 40
0.5384615384615384
 40
0.5384615384615384
 40
0.5384615384615384
 40
0.6153846153846154
 40
0.6153846153846154
 40
0.6153846153846154
 40
0.6153846153846154
 40
0.6923076923076923
 40
0.6923076923076923
 40
0.6923076923076923
 40
0.6923076923076923
 40
0.7692307692307693
 40
0.7692307692307693
 40
0.7692307692307693
 40
0.7692307692307693
 40
0.8461538461538461
 40
0.8461538461538461
 40
0.8461538461538461
 40
0.8461538461538461
 40
1.0
 40
1.0
 40
1.0
 40
1.0
 10
-122.8517
 20
-31.9052
 30
0.0
 10
-121.6386
 20
-32.1251
 30
0.0
 10
-121.5594
 20
-32.7506
 30
0.0
 10
-121.4217
 20
-33.7235
 30
0.0
 10
-121.4217
 20
-33.7235
 30
0.0
 10
-120.9639
 20
-36.961
 30
0.0
 10
-120.0459
 20
-39.6726
 30
0.0
 10
-118.6763
 20
-41.8308
 30
0.0
 10
-118.6763
 20
-41.8308
 30
0.0
 10
-118.0151
 20
-42.6431
 30
0.0
 10
-118.0317
 20
-43.5357
 30
0.0
 10
-118.5847
 20
-44.2698
 30
0.0
 10
-118.5847
 20
-44.2698
 30
0.0
 10
-119.2377
 20
-45.4996
 30
0.0
 10
-120.7337
 20
-48.7086
 30
0.0
 10
-121.397
 20
-52.6252
 30
0.0
 10
-121.397
 20
-52.6252
 30
0.0
 10
-121.6746
 20
-53.939
 30
0.0
 10
-122.0201
 20
-54.2385
 30
0.0
 10
-122.6884
 20
-54.2909
 30
0.0
 10
-122.6884
 20
-54.2909
 30
0.0
 10
-125.3125
 20
-54.3473
 30
0.0
 10
-127.6476
 20
-54.3528
 30
0.0
 10
-130.8342
 20
-54.2909
 30
0.0
 10
-130.8342
 20
-54.2909
 30
0.0
 10
-131.5024
 20
-54.2384
 30
0.0
 10
-131.8479
 20
-53.9392
 30
0.0
 10
-132.1267
 20
-52.6252
 30
0.0
 10
-132.1267
 20
-52.6252
 30
0.0
 10
-132.7886
 20
-48.7084
 30
0.0
 10
-134.2848
 20
-45.4997
 30
0.0
 10
-134.9376
 20
-44.2698
 30
0.0
 10
-134.9376
 20
-44.2698
 30
0.0
 10
-135.4908
 20
-43.5356
 30
0.0
 10
-135.5073
 20
-42.6431
 30
0.0
 10
-134.8463
 20
-41.8308
 30
0.0
 10
-134.8463
 20
-41.8308
 30
0.0
 10
-133.4767
 20
-39.6726
 30
0.0
 10
-132.5583
 20
-36.9611
 30
0.0
 10
-132.1008
 20
-33.7235
 30
0.0
 10
-132.1008
 20
-33.7235
 30
0.0
 10
-131.9631
 20
-32.7503
 30
0.0
 10
-131.851
 20
-32.1922
 30
0.0
 10
-130.87
 20
-31.9382
 30
0.0
 10
-130.87
 20
-31.9382
 30
0.0
 10
-127.9621
 20
-31.9682
 30
0.0
 10
-125.3443
 20
-31.9106
 30
0.0
 10
-122.8517
 20
-31.9052
 30
0.0
  0
SPLINE
  5
64
330
1F
100
AcDbEntity
  8
layer 1
 62
     7
100
AcDbSpline
210
0.0
220
0.0
230
1.0
 70
    11
 71
     3
 72
    20
 73
    16
 74
     0
 42
0.0000000001
 43
0.0000000001
 12
1.0
 22
0.0
 32
0.0
 13
1.0
 23
0.0
 33
0.0
 40
0.0
 40
0.0
 40
0.0
 40
0.0
 40
0.2
 40
0.2
 40
0.2
 40
0.2
 40
0.4
 40
0.4
 40
0.4
 40
0.4
 40
0.6
 40
0.6
 40
0.6
 40
0.6
 40
1.0
 40
1.0
 40
1.0
 40
1.0
 10
-151.9302
 20
-55.536
 30
0.0
 10
-151.9302
 20
-58.5397
 30
0.0
 10
-154.3651
 20
-60.9755
 30
0.0
 10
-157.3696
 20
-60.9755
 30
0.0
 10
-157.3696
 20
-60.9755
 30
0.0
 10
-160.3729
 20
-60.9753
 30
0.0
 10
-162.8089
 20
-58.5397
 30
0.0
 10
-162.8089
 20
-55.5362
 30
0.0
 10
-162.8089
 20
-55.5362
 30
0.0
 10
-162.8089
 20
-52.5318
 30
0.0
 10
-160.373
 20
-50.0969
 30
0.0
 10
-157.3696
 20
-50.0969
 30
0.0
 10
-157.3696
 20
-50.0969
 30
0.0
 10
-154.365
 20
-50.0967
 30
0.0
 10
-151.9302
 20
-52.5318
 30
0.0
 10
-151.9302
 20
-55.536
 30
0.0
  0
SPLINE
  5
65
330
1F
100
AcDbEntity
  8
layer 1
 62
     7
100
AcDbSpline
210
0.0
220
0.0
230
1.0
 70
    11
 71
     3
 72
    20
 73
    16
 74
     0
 42
0.0000000001
 43
0.0000000001
 12
1.0
 22
0.0
 32
0.0
 13
1.0
 23
0.0
 33
0.0
 40
0.0
 40
0.0
 40
0.0
 40
0.0
 40
0.2
 40
0.2
 40
0.2
 40
0.2
 40
0.4
 40
0.4
 40
0.4
 40
0.4
 40
0.6
 40
0.6
 40
0.6
 40
0.6
 40
1.0
 40
1.0
 40
1.0
 40
1.0
 10
-90.8924
 20
-55.536
 30
0.0
 10
-90.8924
 20
-58.5397
 30
0.0
 10
-93.3273
 20
-60.9755
 30
0.0
 10
-96.3318
 20
-60.9755
 30
0.0
 10
-96.3318
 20
-60.9755
 30
0.0
 10
-99.3352
 20
-60.9753
 30
0.0
 10
-101.7711
 20
-58.5397
 30
0.0
 10
-101.7711
 20
-55.5362
 30
0.0
 10
-101.7711
 20
-55.5362
 30
0.0
 10
-101.7711
 20
-52.5318
 30
0.0
 10
-99.3352
 20
-50.0969
 30
0.0
 10
-96.3318
 20
-50.0969
 30
0.0
 10
-96.3318
 20
-50.0969
 30
0.0
 10
-93.3273
 20
-50.0967
 30
0.0
 10
-90.8924
 20
-52.5318
 30
0.0
 10
-90.8924
 20
-55.536
 30
0.0
  0
SPLINE
  5
66
330
1F
100
AcDbEntity
  8
layer 1
 62
     7
100
AcDbSpline
210
0.0
220
0.0
230
1.0
 70
    11
 71
     3
 72
    20
 73
    16
 74
     0
 42
0.0000000001
 43
0.0000000001
 12
1.0
 22
0.0
 32
0.0
 13
1.0
 23
0.0
 33
0.0
 40
0.0
 40
0.0
 40
0.0
 40
0.0
 40
0.2
 40
0.2
 40
0.2
 40
0.2
 40
0.4
 40
0.4
 40
0.4
 40
0.4
 40
0.6
 40
0.6
 40
0.6
 40
0.6
 40
1.0
 40
1.0
 40
1.0
 40
1.0
 10
-151.9302
 20
-4.4471
 30
0.0
 10
-151.9302
 20
-7.452
 30
0.0
 10
-154.3651
 20
-9.8868
 30
0.0
 10
-157.3696
 20
-9.8868
 30
0.0
 10
-157.3696
 20
-9.8868
 30
0.0
 10
-160.3729
 20
-9.8867
 30
0.0
 10
-162.8089
 20
-7.452
 30
0.0
 10
-162.8089
 20
-4.4472
 30
0.0
 10
-162.8089
 20
-4.4472
 30
0.0
 10
-162.8089
 20
-1.4438
 30
0.0
 10
-160.373
 20
0.9921
 30
0.0
 10
-157.3696
 20
0.9921
 30
0.0
 10
-157.3696
 20
0.9921
 30
0.0
 10
-154.365
 20
0.9922
 30
0.0
 10
-151.9302
 20
-1.4438
 30
0.0
 10
-151.9302
 20
-4.4471
 30
0.0
  0
SPLINE
  5
67
330
1F
100
AcDbEntity
  8
layer 1
 62
     7
100
AcDbSpline
210
0.0
220
0.0
230
1.0
 70
    11
 71
     3
 72
    44
 73
    40
 74
     0
 42
0.0000000001
 43
0.0000000001
 12
1.0
 22
0.0
 32
0.0
 13
1.0
 23
0.0
 33
0.0
 40
0.0
 40
0.0
 40
0.0
 40
0.0
 40
0.0909090909090909
 40
0.0909090909090909
 40
0.0909090909090909
 40
0.0909090909090909
 40
0.1818181818181818
 40
0.1818181818181818
 40
0.1818181818181818
 40
0.1818181818181818
 40
0.2727272727272727
 40
0.2727272727272727
 40
0.2727272727272727
 40
0.2727272727272727
 40
0.3636363636363636
 40
0.3636363636363636
 40
0.3636363636363636
 40
0.3636363636363636
 40
0.4545454545454545
 40
0.4545454545454545
 40
0.4545454545454545
 40
0.4545454545454545
 40
0.5454545454545454
 40
0.5454545454545454
 40
0.5454545454545454
 40
0.5454545454545454
 40
0.6363636363636364
 40
0.6363636363636364
 40
0.6363636363636364
 40
0.6363636363636364
 40
0.7272727272727273
 40
0.7272727272727273
 40
0.7272727272727273
 40
0.7272727272727273
 40
0.8181818181818182
 40
0.8181818181818182
 40
0.8181818181818182
 40
0.8181818181818182
 40
1.0
 40
1.0
 40
1.0
 40
1.0
 10
-147.3411
 20
-2.1358
 30
0.0
 10
-148.3221
 20
-2.3887
 30
0.0
 10
-148.5854
 20
-2.9379
 30
0.0
 10
-148.572
 20
-3.9207
 30
0.0
 10
-148.572
 20
-3.9207
 30
0.0
 10
-148.4979
 20
-9.2859
 30
0.0
 10
-152.5409
 20
-12.3298
 30
0.0
 10
-154.4761
 20
-12.5262
 30
0.0
 10
-154.4761
 20
-12.5262
 30
0.0
 10
-155.2032
 20
-12.8394
 30
0.0
 10
-155.6865
 20
-13.0679
 30
0.0
 10
-155.632
 20
-14.2679
 30
0.0
 10
-155.632
 20
-14.2679
 30
0.0
 10
-155.6761
 20
-16.2943
 30
0.0
 10
-155.5107
 20
-17.7094
 30
0.0
 10
-155.712
 20
-19.9633
 30
0.0
 10
-155.712
 20
-19.9633
 30
0.0
 10
-155.6338
 20
-20.8782
 30
0.0
 10
-155.1392
 20
-21.5262
 30
0.0
 10
-154.653
 20
-21.663
 30
0.0
 10
-154.653
 20
-21.663
 30
0.0
 10
-153.7307
 20
-21.9209
 30
0.0
 10
-151.9086
 20
-22.9699
 30
0.0
 10
-150.6707
 20
-24.1687
 30
0.0
 10
-150.6707
 20
-24.1687
 30
0.0
 10
-150.1728
 20
-24.7619
 30
0.0
 10
-149.5714
 20
-25.0921
 30
0.0
 10
-148.9555
 20
-24.8473
 30
0.0
 10
-148.9555
 20
-24.8473
 30
0.0
 10
-134.6672
 20
-19.4315
 30
0.0
 10
-133.8518
 20
-2.6591
 30
0.0
 10
-136.6383
 20
2.924
 30
0.0
 10
-136.6383
 20
2.924
 30
0.0
 10
-136.7197
 20
3.4877
 30
0.0
 10
-138.0348
 20
4.4983
 30
0.0
 10
-139.2932
 20
3.4485
 30
0.0
 10
-139.2932
 20
3.4485
 30
0.0
 10
-142.2505
 20
0.0893
 30
0.0
 10
-146.8755
 20
-2.0145
 30
0.0
 10
-147.3411
 20
-2.1358
 30
0.0
  0
SPLINE
  5
68
330
1F
100
AcDbEntity
  8
layer 1
 62
     7
100
AcDbSpline
210
0.0
220
0.0
230
1.0
 70
    11
 71
     3
 72
    44
 73
    40
 74
     0
 42
0.0000000001
 43
0.0000000001
 12
1.0
 22
0.0
 32
0.0
 13
1.0
 23
0.0
 33
0.0
 40
0.0
 40
0.0
 40
0.0
 40
0.0
 40
0.0909090909090909
 40
0.0909090909090909
 40
0.0909090909090909
 40
0.0909090909090909
 40
0.1818181818181818
 40
0.1818181818181818
 40
0.1818181818181818
 40
0.1818181818181818
 40
0.2727272727272727
 40
0.2727272727272727
 40
0.2727272727272727
 40
0.2727272727272727
 40
0.3636363636363636
 40
0.3636363636363636
 40
0.3636363636363636
 40
0.3636363636363636
 40
0.4545454545454545
 40
0.4545454545454545
 40
0.4545454545454545
 40
0.4545454545454545
 40
0.5454545454545454
 40
0.5454545454545454
 40
0.5454545454545454
 40
0.5454545454545454
 40
0.6363636363636364
 40
0.6363636363636364
 40
0.6363636363636364
 40
0.6363636363636364
 40
0.7272727272727273
 40
0.7272727272727273
 40
0.7272727272727273
 40
0.7272727272727273
 40
0.8181818181818182
 40
0.8181818181818182
 40
0.8181818181818182
 40
0.8181818181818182
 40
1.0
 40
1.0
 40
1.0
 40
1.0
 10
-167.151
 20
-32.1897
 30
0.0
 10
-166.1702
 20
-31.9369
 30
0.0
 10
-165.9071
 20
-31.3879
 30
0.0
 10
-165.9202
 20
-30.405
 30
0.0
 10
-165.9202
 20
-30.405
 30
0.0
 10
-165.9943
 20
-25.0385
 30
0.0
 10
-161.9512
 20
-21.996
 30
0.0
 10
-160.0163
 20
-21.7996
 30
0.0
 10
-160.0163
 20
-21.7996
 30
0.0
 10
-159.2892
 20
-21.4862
 30
0.0
 10
-158.806
 20
-21.2579
 30
0.0
 10
-158.8605
 20
-20.0579
 30
0.0
 10
-158.8605
 20
-20.0579
 30
0.0
 10
-158.8161
 20
-18.0312
 30
0.0
 10
-158.9818
 20
-16.6165
 30
0.0
 10
-158.7802
 20
-14.3617
 30
0.0
 10
-158.7802
 20
-14.3617
 30
0.0
 10
-158.8584
 20
-13.4474
 30
0.0
 10
-159.353
 20
-12.7997
 30
0.0
 10
-159.8394
 20
-12.6628
 30
0.0
 10
-159.8394
 20
-12.6628
 30
0.0
 10
-160.7617
 20
-12.4047
 30
0.0
 10
-162.5838
 20
-11.3561
 30
0.0
 10
-163.8218
 20
-10.156
 30
0.0
 10
-163.8218
 20
-10.156
 30
0.0
 10
-164.3191
 20
-9.5628
 30
0.0
 10
-164.921
 20
-9.2337
 30
0.0
 10
-165.5367
 20
-9.4775
 30
0.0
 10
-165.5367
 20
-9.4775
 30
0.0
 10
-179.8251
 20
-14.8931
 30
0.0
 10
-180.6404
 20
-31.6667
 30
0.0
 10
-177.8538
 20
-37.25
 30
0.0
 10
-177.8538
 20
-37.25
 30
0.0
 10
-177.7728
 20
-37.8133
 30
0.0
 10
-176.4577
 20
-38.823
 30
0.0
 10
-175.1989
 20
-37.7733
 30
0.0
 10
-175.1989
 20
-37.7733
 30
0.0
 10
-172.2418
 20
-34.4148
 30
0.0
 10
-167.6169
 20
-32.3102
 30
0.0
 10
-167.151
 20
-32.1897
 30
0.0
  0
SPLINE
  5
69
330
1F
100
AcDbEntity
  8
layer 1
 62
     7
100
AcDbSpline
210
0.0
220
0.0
230
1.0
 70
    11
 71
     3
 72
    52
 73
    48
 74
     0
 42
0.0000000001
 43
0.0000000001
 12
1.0
 22
0.0
 32
0.0
 13
1.0
 23
0.0
 33
0.0
 40
0.0
 40
0.0
 40
0.0
 40
0.0
 40
0.0769230769230769
 40
0.0769230769230769
 40
0.0769230769230769
 40
0.0769230769230769
 40
0.1538461538461539
 40
0.1538461538461539
 40
0.1538461538461539
 40
0.1538461538461539
 40
0.2307692307692308
 40
0.2307692307692308
 40
0.2307692307692308
 40
0.2307692307692308
 40
0.3076923076923077
 40
0.3076923076923077
 40
0.3076923076923077
 40
0.3076923076923077
 40
0.3846153846153846
 40
0.3846153846153846
 40
0.3846153846153846
 40
0.3846153846153846
 40
0.4615384615384616
 40
0.4615384615384616
 40
0.4615384615384616
 40
0.4615384615384616
 40
0.5384615384615384
 40
0.5384615384615384
 40
0.5384615384615384
 40
0.5384615384615384
 40
0.6153846153846154
 40
0.6153846153846154
 40
0.6153846153846154
 40
0.6153846153846154
 40
0.6923076923076923
 40
0.6923076923076923
 40
0.6923076923076923
 40
0.6923076923076923
 40
0.7692307692307693
 40
0.7692307692307693
 40
0.7692307692307693
 40
0.7692307692307693
 40
0.8461538461538461
 40
0.8461538461538461
 40
0.8461538461538461
 40
0.8461538461538461
 40
1.0
 40
1.0
 40
1.0
 40
1.0
 10
-122.8517
 20
19.5045
 30
0.0
 10
-121.6386
 20
19.2844
 30
0.0
 10
-121.5594
 20
18.6591
 30
0.0
 10
-121.4217
 20
17.6854
 30
0.0
 10
-121.4217
 20
17.6854
 30
0.0
 10
-120.9639
 20
14.4474
 30
0.0
 10
-120.0459
 20
11.737
 30
0.0
 10
-118.6763
 20
9.5788
 30
0.0
 10
-118.6763
 20
9.5788
 30
0.0
 10
-118.0151
 20
8.7665
 30
0.0
 10
-118.0317
 20
7.8728
 30
0.0
 10
-118.5847
 20
7.1397
 30
0.0
 10
-118.5847
 20
7.1397
 30
0.0
 10
-119.2377
 20
5.91
 30
0.0
 10
-120.7337
 20
2.701
 30
0.0
 10
-121.397
 20
-1.2167
 30
0.0
 10
-121.397
 20
-1.2167
 30
0.0
 10
-121.6746
 20
-2.5294
 30
0.0
 10
-122.0201
 20
-2.8289
 30
0.0
 10
-122.6884
 20
-2.8823
 30
0.0
 10
-122.6884
 20
-2.8823
 30
0.0
 10
-125.3125
 20
-2.9377
 30
0.0
 10
-127.6476
 20
-2.9442
 30
0.0
 10
-130.8342
 20
-2.8823
 30
0.0
 10
-130.8342
 20
-2.8823
 30
0.0
 10
-131.5024
 20
-2.8287
 30
0.0
 10
-131.8479
 20
-2.5296
 30
0.0
 10
-132.1267
 20
-1.2167
 30
0.0
 10
-132.1267
 20
-1.2167
 30
0.0
 10
-132.7886
 20
2.7012
 30
0.0
 10
-134.2848
 20
5.9099
 30
0.0
 10
-134.9376
 20
7.1397
 30
0.0
 10
-134.9376
 20
7.1397
 30
0.0
 10
-135.4908
 20
7.8731
 30
0.0
 10
-135.5073
 20
8.7665
 30
0.0
 10
-134.8463
 20
9.5788
 30
0.0
 10
-134.8463
 20
9.5788
 30
0.0
 10
-133.4767
 20
11.7372
 30
0.0
 10
-132.5583
 20
14.4474
 30
0.0
 10
-132.1008
 20
17.6854
 30
0.0
 10
-132.1008
 20
17.6854
 30
0.0
 10
-131.9631
 20
18.6593
 30
0.0
 10
-131.851
 20
19.2174
 30
0.0
 10
-130.87
 20
19.4714
 30
0.0
 10
-130.87
 20
19.4714
 30
0.0
 10
-127.9621
 20
19.4414
 30
0.0
 10
-125.3443
 20
19.499
 30
0.0
 10
-122.8517
 20
19.5045
 30
0.0
  0
SPLINE
  5
6A
330
1F
100
AcDbEntity
  8
layer 1
 62
     7
100
AcDbSpline
210
0.0
220
0.0
230
1.0
 70
    11
 71
     3
 72
    20
 73
    16
 74
     0
 42
0.0000000001
 43
0.0000000001
 12
1.0
 22
0.0
 32
0.0
 13
1.0
 23
0.0
 33
0.0
 40
0.0
 40
0.0
 40
0.0
 40
0.0
 40
0.2
 40
0.2
 40
0.2
 40
0.2
 40
0.4
 40
0.4
 40
0.4
 40
0.4
 40
0.6
 40
0.6
 40
0.6
 40
0.6
 40
1.0
 40
1.0
 40
1.0
 40
1.0
 10
-90.8924
 20
-4.4471
 30
0.0
 10
-90.8924
 20
-7.452
 30
0.0
 10
-93.3273
 20
-9.8868
 30
0.0
 10
-96.3318
 20
-9.8868
 30
0.0
 10
-96.3318
 20
-9.8868
 30
0.0
 10
-99.3352
 20
-9.8867
 30
0.0
 10
-101.7711
 20
-7.452
 30
0.0
 10
-101.7711
 20
-4.4472
 30
0.0
 10
-101.7711
 20
-4.4472
 30
0.0
 10
-101.7711
 20
-1.4438
 30
0.0
 10
-99.3352
 20
0.9921
 30
0.0
 10
-96.3318
 20
0.9921
 30
0.0
 10
-96.3318
 20
0.9921
 30
0.0
 10
-93.3273
 20
0.9922
 30
0.0
 10
-90.8924
 20
-1.4438
 30
0.0
 10
-90.8924
 20
-4.4471
 30
0.0
  0
SPLINE
  5
6B
330
1F
100
AcDbEntity
  8
layer 1
 62
     7
100
AcDbSpline
210
0.0
220
0.0
230
1.0
 70
    11
 71
     3
 72
    44
 73
    40
 74
     0
 42
0.0000000001
 43
0.0000000001
 12
1.0
 22
0.0
 32
0.0
 13
1.0
 23
0.0
 33
0.0
 40
0.0
 40
0.0
 40
0.0
 40
0.0
 40
0.0909090909090909
 40
0.0909090909090909
 40
0.0909090909090909
 40
0.0909090909090909
 40
0.1818181818181818
 40
0.1818181818181818
 40
0.1818181818181818
 40
0.1818181818181818
 40
0.2727272727272727
 40
0.2727272727272727
 40
0.2727272727272727
 40
0.2727272727272727
 40
0.3636363636363636
 40
0.3636363636363636
 40
0.3636363636363636
 40
0.3636363636363636
 40
0.4545454545454545
 40
0.4545454545454545
 40
0.4545454545454545
 40
0.4545454545454545
 40
0.5454545454545454
 40
0.5454545454545454
 40
0.5454545454545454
 40
0.5454545454545454
 40
0.6363636363636364
 40
0.6363636363636364
 40
0.6363636363636364
 40
0.6363636363636364
 40
0.7272727272727273
 40
0.7272727272727273
 40
0.7272727272727273
 40
0.7272727272727273
 40
0.8181818181818182
 40
0.8181818181818182
 40
0.8181818181818182
 40
0.8181818181818182
 40
1.0
 40
1.0
 40
1.0
 40
1.0
 10
-86.3035
 20
-2.1358
 30
0.0
 10
-87.2844
 20
-2.3887
 30
0.0
 10
-87.5477
 20
-2.9379
 30
0.0
 10
-87.5343
 20
-3.9207
 30
0.0
 10
-87.5343
 20
-3.9207
 30
0.0
 10
-87.4613
 20
-9.2859
 30
0.0
 10
-91.5042
 20
-12.3298
 30
0.0
 10
-93.4384
 20
-12.5262
 30
0.0
 10
-93.4384
 20
-12.5262
 30
0.0
 10
-94.1664
 20
-12.8394
 30
0.0
 10
-94.6487
 20
-13.0679
 30
0.0
 10
-94.5942
 20
-14.2679
 30
0.0
 10
-94.5942
 20
-14.2679
 30
0.0
 10
-94.6394
 20
-16.2943
 30
0.0
 10
-94.4729
 20
-17.7094
 30
0.0
 10
-94.6743
 20
-19.9633
 30
0.0
 10
-94.6743
 20
-19.9633
 30
0.0
 10
-94.5962
 20
-20.8782
 30
0.0
 10
-94.1018
 20
-21.5262
 30
0.0
 10
-93.6153
 20
-21.663
 30
0.0
 10
-93.6153
 20
-21.663
 30
0.0
 10
-92.6939
 20
-21.9209
 30
0.0
 10
-90.8709
 20
-22.9699
 30
0.0
 10
-89.633
 20
-24.1687
 30
0.0
 10
-89.633
 20
-24.1687
 30
0.0
 10
-89.1351
 20
-24.7619
 30
0.0
 10
-88.5337
 20
-25.0921
 30
0.0
 10
-87.9178
 20
-24.8473
 30
0.0
 10
-87.9178
 20
-24.8473
 30
0.0
 10
-73.6295
 20
-19.4315
 30
0.0
 10
-72.8144
 20
-2.6591
 30
0.0
 10
-75.6006
 20
2.924
 30
0.0
 10
-75.6006
 20
2.924
 30
0.0
 10
-75.6818
 20
3.4877
 30
0.0
 10
-76.998
 20
4.4983
 30
0.0
 10
-78.2555
 20
3.4485
 30
0.0
 10
-78.2555
 20
3.4485
 30
0.0
 10
-81.2128
 20
0.0893
 30
0.0
 10
-85.8377
 20
-2.0145
 30
0.0
 10
-86.3035
 20
-2.1358
 30
0.0
  0
SPLINE
  5
6C
330
1F
100
AcDbEntity
  8
layer 1
 62
     7
100
AcDbSpline
210
0.0
220
0.0
230
1.0
 70
    11
 71
     3
 72
    44
 73
    40
 74
     0
 42
0.0000000001
 43
0.0000000001
 12
1.0
 22
0.0
 32
0.0
 13
1.0
 23
0.0
 33
0.0
 40
0.0
 40
0.0
 40
0.0
 40
0.0
 40
0.0909090909090909
 40
0.0909090909090909
 40
0.0909090909090909
 40
0.0909090909090909
 40
0.1818181818181818
 40
0.1818181818181818
 40
0.1818181818181818
 40
0.1818181818181818
 40
0.2727272727272727
 40
0.2727272727272727
 40
0.2727272727272727
 40
0.2727272727272727
 40
0.3636363636363636
 40
0.3636363636363636
 40
0.3636363636363636
 40
0.3636363636363636
 40
0.4545454545454545
 40
0.4545454545454545
 40
0.4545454545454545
 40
0.4545454545454545
 40
0.5454545454545454
 40
0.5454545454545454
 40
0.5454545454545454
 40
0.5454545454545454
 40
0.6363636363636364
 40
0.6363636363636364
 40
0.6363636363636364
 40
0.6363636363636364
 40
0.7272727272727273
 40
0.7272727272727273
 40
0.7272727272727273
 40
0.7272727272727273
 40
0.8181818181818182
 40
0.8181818181818182
 40
0.8181818181818182
 40
0.8181818181818182
 40
1.0
 40
1.0
 40
1.0
 40
1.0
 10
-106.1132
 20
-32.1897
 30
0.0
 10
-105.1324
 20
-31.9369
 30
0.0
 10
-104.8693
 20
-31.3879
 30
0.0
 10
-104.8827
 20
-30.405
 30
0.0
 10
-104.8827
 20
-30.405
 30
0.0
 10
-104.9567
 20
-25.0385
 30
0.0
 10
-100.9138
 20
-21.996
 30
0.0
 10
-98.9785
 20
-21.7996
 30
0.0
 10
-98.9785
 20
-21.7996
 30
0.0
 10
-98.2513
 20
-21.4862
 30
0.0
 10
-97.7692
 20
-21.2579
 30
0.0
 10
-97.8237
 20
-20.0579
 30
0.0
 10
-97.8237
 20
-20.0579
 30
0.0
 10
-97.7784
 20
-18.0312
 30
0.0
 10
-97.9451
 20
-16.6165
 30
0.0
 10
-97.7427
 20
-14.3617
 30
0.0
 10
-97.7427
 20
-14.3617
 30
0.0
 10
-97.8216
 20
-13.4474
 30
0.0
 10
-98.3152
 20
-12.7997
 30
0.0
 10
-98.8027
 20
-12.6628
 30
0.0
 10
-98.8027
 20
-12.6628
 30
0.0
 10
-99.7239
 20
-12.4047
 30
0.0
 10
-101.5471
 20
-11.3561
 30
0.0
 10
-102.784
 20
-10.156
 30
0.0
 10
-102.784
 20
-10.156
 30
0.0
 10
-103.2817
 20
-9.5628
 30
0.0
 10
-103.8843
 20
-9.2337
 30
0.0
 10
-104.4992
 20
-9.4775
 30
0.0
 10
-104.4992
 20
-9.4775
 30
0.0
 10
-118.7874
 20
-14.8931
 30
0.0
 10
-119.6028
 20
-31.6667
 30
0.0
 10
-116.8163
 20
-37.25
 30
0.0
 10
-116.8163
 20
-37.25
 30
0.0
 10
-116.7349
 20
-37.8133
 30
0.0
 10
-115.4199
 20
-38.823
 30
0.0
 10
-114.1625
 20
-37.7733
 30
0.0
 10
-114.1625
 20
-37.7733
 30
0.0
 10
-111.2051
 20
-34.4148
 30
0.0
 10
-106.5803
 20
-32.3102
 30
0.0
 10
-106.1132
 20
-32.1897
 30
0.0
  0
SPLINE
  5
6D
330
1F
100
AcDbEntity
  8
layer 1
 62
     7
100
AcDbSpline
210
0.0
220
0.0
230
1.0
 70
    11
 71
     3
 72
    20
 73
    16
 74
     0
 42
0.0000000001
 43
0.0000000001
 12
1.0
 22
0.0
 32
0.0
 13
1.0
 23
0.0
 33
0.0
 40
0.0
 40
0.0
 40
0.0
 40
0.0
 40
0.2
 40
0.2
 40
0.2
 40
0.2
 40
0.4
 40
0.4
 40
0.4
 40
0.4
 40
0.6
 40
0.6
 40
0.6
 40
0.6
 40
1.0
 40
1.0
 40
1.0
 40
1.0
 10
-151.9302
 20
21.1282
 30
0.0
 10
-151.9302
 20
18.1234
 30
0.0
 10
-154.3651
 20
15.6885
 30
0.0
 10
-157.3696
 20
15.6885
 30
0.0
 10
-157.3696
 20
15.6885
 30
0.0
 10
-160.3729
 20
15.6886
 30
0.0
 10
-162.8089
 20
18.1234
 30
0.0
 10
-162.8089
 20
21.1281
 30
0.0
 10
-162.8089
 20
21.1281
 30
0.0
 10
-162.8089
 20
24.1315
 30
0.0
 10
-160.373
 20
26.5674
 30
0.0
 10
-157.3696
 20
26.5674
 30
0.0
 10
-157.3696
 20
26.5674
 30
0.0
 10
-154.365
 20
26.5675
 30
0.0
 10
-151.9302
 20
24.1315
 30
0.0
 10
-151.9302
 20
21.1282
 30
0.0
  0
SPLINE
  5
6E
330
1F
100
AcDbEntity
  8
layer 1
 62
     7
100
AcDbSpline
210
0.0
220
0.0
230
1.0
 70
    11
 71
     3
 72
    44
 73
    40
 74
     0
 42
0.0000000001
 43
0.0000000001
 12
1.0
 22
0.0
 32
0.0
 13
1.0
 23
0.0
 33
0.0
 40
0.0
 40
0.0
 40
0.0
 40
0.0
 40
0.0909090909090909
 40
0.0909090909090909
 40
0.0909090909090909
 40
0.0909090909090909
 40
0.1818181818181818
 40
0.1818181818181818
 40
0.1818181818181818
 40
0.1818181818181818
 40
0.2727272727272727
 40
0.2727272727272727
 40
0.2727272727272727
 40
0.2727272727272727
 40
0.3636363636363636
 40
0.3636363636363636
 40
0.3636363636363636
 40
0.3636363636363636
 40
0.4545454545454545
 40
0.4545454545454545
 40
0.4545454545454545
 40
0.4545454545454545
 40
0.5454545454545454
 40
0.5454545454545454
 40
0.5454545454545454
 40
0.5454545454545454
 40
0.6363636363636364
 40
0.6363636363636364
 40
0.6363636363636364
 40
0.6363636363636364
 40
0.7272727272727273
 40
0.7272727272727273
 40
0.7272727272727273
 40
0.7272727272727273
 40
0.8181818181818182
 40
0.8181818181818182
 40
0.8181818181818182
 40
0.8181818181818182
 40
1.0
 40
1.0
 40
1.0
 40
1.0
 10
-147.3411
 20
23.4395
 30
0.0
 10
-148.3221
 20
23.1866
 30
0.0
 10
-148.5854
 20
22.6374
 30
0.0
 10
-148.572
 20
21.6546
 30
0.0
 10
-148.572
 20
21.6546
 30
0.0
 10
-148.4979
 20
16.2895
 30
0.0
 10
-152.5409
 20
13.2455
 30
0.0
 10
-154.4761
 20
13.0491
 30
0.0
 10
-154.4761
 20
13.0491
 30
0.0
 10
-155.2032
 20
12.7359
 30
0.0
 10
-155.6865
 20
12.5074
 30
0.0
 10
-155.632
 20
11.3074
 30
0.0
 10
-155.632
 20
11.3074
 30
0.0
 10
-155.6761
 20
9.281
 30
0.0
 10
-155.5107
 20
7.866
 30
0.0
 10
-155.712
 20
5.612
 30
0.0
 10
-155.712
 20
5.612
 30
0.0
 10
-155.6338
 20
4.6971
 30
0.0
 10
-155.1392
 20
4.0492
 30
0.0
 10
-154.653
 20
3.9123
 30
0.0
 10
-154.653
 20
3.9123
 30
0.0
 10
-153.7307
 20
3.6545
 30
0.0
 10
-151.9086
 20
2.6055
 30
0.0
 10
-150.6707
 20
1.4067
 30
0.0
 10
-150.6707
 20
1.4067
 30
0.0
 10
-150.1728
 20
0.8134
 30
0.0
 10
-149.5714
 20
0.4832
 30
0.0
 10
-148.9555
 20
0.7281
 30
0.0
 10
-148.9555
 20
0.7281
 30
0.0
 10
-134.6672
 20
6.1438
 30
0.0
 10
-133.8518
 20
22.9162
 30
0.0
 10
-136.6383
 20
28.4993
 30
0.0
 10
-136.6383
 20
28.4993
 30
0.0
 10
-136.7197
 20
29.063
 30
0.0
 10
-138.0348
 20
30.0736
 30
0.0
 10
-139.2932
 20
29.0239
 30
0.0
 10
-139.2932
 20
29.0239
 30
0.0
 10
-142.2505
 20
25.6647
 30
0.0
 10
-146.8755
 20
23.5609
 30
0.0
 10
-147.3411
 20
23.4395
 30
0.0
  0
SPLINE
  5
6F
330
1F
100
AcDbEntity
  8
layer 1
 62
     7
100
AcDbSpline
210
0.0
220
0.0
230
1.0
 70
    11
 71
     3
 72
    44
 73
    40
 74
     0
 42
0.0000000001
 43
0.0000000001
 12
1.0
 22
0.0
 32
0.0
 13
1.0
 23
0.0
 33
0.0
 40
0.0
 40
0.0
 40
0.0
 40
0.0
 40
0.0909090909090909
 40
0.0909090909090909
 40
0.0909090909090909
 40
0.0909090909090909
 40
0.1818181818181818
 40
0.1818181818181818
 40
0.1818181818181818
 40
0.1818181818181818
 40
0.2727272727272727
 40
0.2727272727272727
 40
0.2727272727272727
 40
0.2727272727272727
 40
0.3636363636363636
 40
0.3636363636363636
 40
0.3636363636363636
 40
0.3636363636363636
 40
0.4545454545454545
 40
0.4545454545454545
 40
0.4545454545454545
 40
0.4545454545454545
 40
0.5454545454545454
 40
0.5454545454545454
 40
0.5454545454545454
 40
0.5454545454545454
 40
0.6363636363636364
 40
0.6363636363636364
 40
0.6363636363636364
 40
0.6363636363636364
 40
0.7272727272727273
 40
0.7272727272727273
 40
0.7272727272727273
 40
0.7272727272727273
 40
0.8181818181818182
 40
0.8181818181818182
 40
0.8181818181818182
 40
0.8181818181818182
 40
1.0
 40
1.0
 40
1.0
 40
1.0
 10
-167.151
 20
-6.6144
 30
0.0
 10
-166.1702
 20
-6.3615
 30
0.0
 10
-165.9071
 20
-5.8126
 30
0.0
 10
-165.9202
 20
-4.8297
 30
0.0
 10
-165.9202
 20
-4.8297
 30
0.0
 10
-165.9943
 20
0.5368
 30
0.0
 10
-161.9512
 20
3.5793
 30
0.0
 10
-160.0163
 20
3.7757
 30
0.0
 10
-160.0163
 20
3.7757
 30
0.0
 10
-159.2892
 20
4.0892
 30
0.0
 10
-158.806
 20
4.3174
 30
0.0
 10
-158.8605
 20
5.5175
 30
0.0
 10
-158.8605
 20
5.5175
 30
0.0
 10
-158.8161
 20
7.5442
 30
0.0
 10
-158.9818
 20
8.9589
 30
0.0
 10
-158.7802
 20
11.2137
 30
0.0
 10
-158.7802
 20
11.2137
 30
0.0
 10
-158.8584
 20
12.1279
 30
0.0
 10
-159.353
 20
12.7757
 30
0.0
 10
-159.8394
 20
12.9125
 30
0.0
 10
-159.8394
 20
12.9125
 30
0.0
 10
-160.7617
 20
13.1706
 30
0.0
 10
-162.5838
 20
14.2192
 30
0.0
 10
-163.8218
 20
15.4193
 30
0.0
 10
-163.8218
 20
15.4193
 30
0.0
 10
-164.3191
 20
16.0126
 30
0.0
 10
-164.921
 20
16.3416
 30
0.0
 10
-165.5367
 20
16.0979
 30
0.0
 10
-165.5367
 20
16.0979
 30
0.0
 10
-179.8251
 20
10.6823
 30
0.0
 10
-180.6404
 20
-6.0913
 30
0.0
 10
-177.8538
 20
-11.6747
 30
0.0
 10
-177.8538
 20
-11.6747
 30
0.0
 10
-177.7728
 20
-12.2379
 30
0.0
 10
-176.4577
 20
-13.2477
 30
0.0
 10
-175.1989
 20
-12.1979
 30
0.0
 10
-175.1989
 20
-12.1979
 30
0.0
 10
-172.2418
 20
-8.8395
 30
0.0
 10
-167.6169
 20
-6.7349
 30
0.0
 10
-167.151
 20
-6.6144
 30
0.0
  0
SPLINE
  5
70
330
1F
100
AcDbEntity
  8
layer 1
 62
     7
100
AcDbSpline
210
0.0
220
0.0
230
1.0
 70
    11
 71
     3
 72
    52
 73
    48
 74
     0
 42
0.0000000001
 43
0.0000000001
 12
1.0
 22
0.0
 32
0.0
 13
1.0
 23
0.0
 33
0.0
 40
0.0
 40
0.0
 40
0.0
 40
0.0
 40
0.0769230769230769
 40
0.0769230769230769
 40
0.0769230769230769
 40
0.0769230769230769
 40
0.1538461538461539
 40
0.1538461538461539
 40
0.1538461538461539
 40
0.1538461538461539
 40
0.2307692307692308
 40
0.2307692307692308
 40
0.2307692307692308
 40
0.2307692307692308
 40
0.3076923076923077
 40
0.3076923076923077
 40
0.3076923076923077
 40
0.3076923076923077
 40
0.3846153846153846
 40
0.3846153846153846
 40
0.3846153846153846
 40
0.3846153846153846
 40
0.4615384615384616
 40
0.4615384615384616
 40
0.4615384615384616
 40
0.4615384615384616
 40
0.5384615384615384
 40
0.5384615384615384
 40
0.5384615384615384
 40
0.5384615384615384
 40
0.6153846153846154
 40
0.6153846153846154
 40
0.6153846153846154
 40
0.6153846153846154
 40
0.6923076923076923
 40
0.6923076923076923
 40
0.6923076923076923
 40
0.6923076923076923
 40
0.7692307692307693
 40
0.7692307692307693
 40
0.7692307692307693
 40
0.7692307692307693
 40
0.8461538461538461
 40
0.8461538461538461
 40
0.8461538461538461
 40
0.8461538461538461
 40
1.0
 40
1.0
 40
1.0
 40
1.0
 10
-122.8517
 20
45.0798
 30
0.0
 10
-121.6386
 20
44.8598
 30
0.0
 10
-121.5594
 20
44.2344
 30
0.0
 10
-121.4217
 20
43.2608
 30
0.0
 10
-121.4217
 20
43.2608
 30
0.0
 10
-120.9639
 20
40.0228
 30
0.0
 10
-120.0459
 20
37.3124
 30
0.0
 10
-118.6763
 20
35.1542
 30
0.0
 10
-118.6763
 20
35.1542
 30
0.0
 10
-118.0151
 20
34.3418
 30
0.0
 10
-118.0317
 20
33.4482
 30
0.0
 10
-118.5847
 20
32.7151
 30
0.0
 10
-118.5847
 20
32.7151
 30
0.0
 10
-119.2377
 20
31.4853
 30
0.0
 10
-120.7337
 20
28.2764
 30
0.0
 10
-121.397
 20
24.3587
 30
0.0
 10
-121.397
 20
24.3587
 30
0.0
 10
-121.6746
 20
23.046
 30
0.0
 10
-122.0201
 20
22.7465
 30
0.0
 10
-122.6884
 20
22.693
 30
0.0
 10
-122.6884
 20
22.693
 30
0.0
 10
-125.3125
 20
22.6376
 30
0.0
 10
-127.6476
 20
22.6312
 30
0.0
 10
-130.8342
 20
22.693
 30
0.0
 10
-130.8342
 20
22.693
 30
0.0
 10
-131.5024
 20
22.7466
 30
0.0
 10
-131.8479
 20
23.0457
 30
0.0
 10
-132.1267
 20
24.3587
 30
0.0
 10
-132.1267
 20
24.3587
 30
0.0
 10
-132.7886
 20
28.2765
 30
0.0
 10
-134.2848
 20
31.4853
 30
0.0
 10
-134.9376
 20
32.7151
 30
0.0
 10
-134.9376
 20
32.7151
 30
0.0
 10
-135.4908
 20
33.4484
 30
0.0
 10
-135.5073
 20
34.3418
 30
0.0
 10
-134.8463
 20
35.1542
 30
0.0
 10
-134.8463
 20
35.1542
 30
0.0
 10
-133.4767
 20
37.3126
 30
0.0
 10
-132.5583
 20
40.0228
 30
0.0
 10
-132.1008
 20
43.2608
 30
0.0
 10
-132.1008
 20
43.2608
 30
0.0
 10
-131.9631
 20
44.2346
 30
0.0
 10
-131.851
 20
44.7928
 30
0.0
 10
-130.87
 20
45.0468
 30
0.0
 10
-130.87
 20
45.0468
 30
0.0
 10
-127.9621
 20
45.0167
 30
0.0
 10
-125.3443
 20
45.0744
 30
0.0
 10
-122.8517
 20
45.0798
 30
0.0
  0
SPLINE
  5
71
330
1F
100
AcDbEntity
  8
layer 1
 62
     7
100
AcDbSpline
210
0.0
220
0.0
230
1.0
 70
    11
 71
     3
 72
    20
 73
    16
 74
     0
 42
0.0000000001
 43
0.0000000001
 12
1.0
 22
0.0
 32
0.0
 13
1.0
 23
0.0
 33
0.0
 40
0.0
 40
0.0
 40
0.0
 40
0.0
 40
0.2
 40
0.2
 40
0.2
 40
0.2
 40
0.4
 40
0.4
 40
0.4
 40
0.4
 40
0.6
 40
0.6
 40
0.6
 40
0.6
 40
1.0
 40
1.0
 40
1.0
 40
1.0
 10
-90.8924
 20
21.1282
 30
0.0
 10
-90.8924
 20
18.1234
 30
0.0
 10
-93.3273
 20
15.6885
 30
0.0
 10
-96.3318
 20
15.6885
 30
0.0
 10
-96.3318
 20
15.6885
 30
0.0
 10
-99.3352
 20
15.6886
 30
0.0
 10
-101.7711
 20
18.1234
 30
0.0
 10
-101.7711
 20
21.1281
 30
0.0
 10
-101.7711
 20
21.1281
 30
0.0
 10
-101.7711
 20
24.1315
 30
0.0
 10
-99.3352
 20
26.5674
 30
0.0
 10
-96.3318
 20
26.5674
 30
0.0
 10
-96.3318
 20
26.5674
 30
0.0
 10
-93.3273
 20
26.5675
 30
0.0
 10
-90.8924
 20
24.1315
 30
0.0
 10
-90.8924
 20
21.1282
 30
0.0
  0
SPLINE
  5
72
330
1F
100
AcDbEntity
  8
layer 1
 62
     7
100
AcDbSpline
210
0.0
220
0.0
230
1.0
 70
    11
 71
     3
 72
    44
 73
    40
 74
     0
 42
0.0000000001
 43
0.0000000001
 12
1.0
 22
0.0
 32
0.0
 13
1.0
 23
0.0
 33
0.0
 40
0.0
 40
0.0
 40
0.0
 40
0.0
 40
0.0909090909090909
 40
0.0909090909090909
 40
0.0909090909090909
 40
0.0909090909090909
 40
0.1818181818181818
 40
0.1818181818181818
 40
0.1818181818181818
 40
0.1818181818181818
 40
0.2727272727272727
 40
0.2727272727272727
 40
0.2727272727272727
 40
0.2727272727272727
 40
0.3636363636363636
 40
0.3636363636363636
 40
0.3636363636363636
 40
0.3636363636363636
 40
0.4545454545454545
 40
0.4545454545454545
 40
0.4545454545454545
 40
0.4545454545454545
 40
0.5454545454545454
 40
0.5454545454545454
 40
0.5454545454545454
 40
0.5454545454545454
 40
0.6363636363636364
 40
0.6363636363636364
 40
0.6363636363636364
 40
0.6363636363636364
 40
0.7272727272727273
 40
0.7272727272727273
 40
0.7272727272727273
 40
0.7272727272727273
 40
0.8181818181818182
 40
0.8181818181818182
 40
0.8181818181818182
 40
0.8181818181818182
 40
1.0
 40
1.0
 40
1.0
 40
1.0
 10
-86.3035
 20
23.4395
 30
0.0
 10
-87.2844
 20
23.1866
 30
0.0
 10
-87.5477
 20
22.6374
 30
0.0
 10
-87.5343
 20
21.6546
 30
0.0
 10
-87.5343
 20
21.6546
 30
0.0
 10
-87.4613
 20
16.2895
 30
0.0
 10
-91.5042
 20
13.2455
 30
0.0
 10
-93.4384
 20
13.0491
 30
0.0
 10
-93.4384
 20
13.0491
 30
0.0
 10
-94.1664
 20
12.7359
 30
0.0
 10
-94.6487
 20
12.5074
 30
0.0
 10
-94.5942
 20
11.3074
 30
0.0
 10
-94.5942
 20
11.3074
 30
0.0
 10
-94.6394
 20
9.281
 30
0.0
 10
-94.4729
 20
7.866
 30
0.0
 10
-94.6743
 20
5.612
 30
0.0
 10
-94.6743
 20
5.612
 30
0.0
 10
-94.5962
 20
4.6971
 30
0.0
 10
-94.1018
 20
4.0492
 30
0.0
 10
-93.6153
 20
3.9123
 30
0.0
 10
-93.6153
 20
3.9123
 30
0.0
 10
-92.6939
 20
3.6545
 30
0.0
 10
-90.8709
 20
2.6055
 30
0.0
 10
-89.633
 20
1.4067
 30
0.0
 10
-89.633
 20
1.4067
 30
0.0
 10
-89.1351
 20
0.8134
 30
0.0
 10
-88.5337
 20
0.4832
 30
0.0
 10
-87.9178
 20
0.7281
 30
0.0
 10
-87.9178
 20
0.7281
 30
0.0
 10
-73.6295
 20
6.1438
 30
0.0
 10
-72.8144
 20
22.9162
 30
0.0
 10
-75.6006
 20
28.4993
 30
0.0
 10
-75.6006
 20
28.4993
 30
0.0
 10
-75.6818
 20
29.063
 30
0.0
 10
-76.998
 20
30.0736
 30
0.0
 10
-78.2555
 20
29.0239
 30
0.0
 10
-78.2555
 20
29.0239
 30
0.0
 10
-81.2128
 20
25.6647
 30
0.0
 10
-85.8377
 20
23.5609
 30
0.0
 10
-86.3035
 20
23.4395
 30
0.0
  0
SPLINE
  5
73
330
1F
100
AcDbEntity
  8
layer 1
 62
     7
100
AcDbSpline
210
0.0
220
0.0
230
1.0
 70
    11
 71
     3
 72
    44
 73
    40
 74
     0
 42
0.0000000001
 43
0.0000000001
 12
1.0
 22
0.0
 32
0.0
 13
1.0
 23
0.0
 33
0.0
 40
0.0
 40
0.0
 40
0.0
 40
0.0
 40
0.0909090909090909
 40
0.0909090909090909
 40
0.0909090909090909
 40
0.0909090909090909
 40
0.1818181818181818
 40
0.1818181818181818
 40
0.1818181818181818
 40
0.1818181818181818
 40
0.2727272727272727
 40
0.2727272727272727
 40
0.2727272727272727
 40
0.2727272727272727
 40
0.3636363636363636
 40
0.3636363636363636
 40
0.3636363636363636
 40
0.3636363636363636
 40
0.4545454545454545
 40
0.4545454545454545
 40
0.4545454545454545
 40
0.4545454545454545
 40
0.5454545454545454
 40
0.5454545454545454
 40
0.5454545454545454
 40
0.5454545454545454
 40
0.6363636363636364
 40
0.6363636363636364
 40
0.6363636363636364
 40
0.6363636363636364
 40
0.7272727272727273
 40
0.7272727272727273
 40
0.7272727272727273
 40
0.7272727272727273
 40
0.8181818181818182
 40
0.8181818181818182
 40
0.8181818181818182
 40
0.8181818181818182
 40
1.0
 40
1.0
 40
1.0
 40
1.0
 10
-106.1132
 20
-6.6144
 30
0.0
 10
-105.1324
 20
-6.3615
 30
0.0
 10
-104.8693
 20
-5.8126
 30
0.0
 10
-104.8827
 20
-4.8297
 30
0.0
 10
-104.8827
 20
-4.8297
 30
0.0
 10
-104.9567
 20
0.5368
 30
0.0
 10
-100.9138
 20
3.5793
 30
0.0
 10
-98.9785
 20
3.7757
 30
0.0
 10
-98.9785
 20
3.7757
 30
0.0
 10
-98.2513
 20
4.0892
 30
0.0
 10
-97.7692
 20
4.3174
 30
0.0
 10
-97.8237
 20
5.5175
 30
0.0
 10
-97.8237
 20
5.5175
 30
0.0
 10
-97.7784
 20
7.5442
 30
0.0
 10
-97.9451
 20
8.9589
 30
0.0
 10
-97.7427
 20
11.2137
 30
0.0
 10
-97.7427
 20
11.2137
 30
0.0
 10
-97.8216
 20
12.1279
 30
0.0
 10
-98.3152
 20
12.7757
 30
0.0
 10
-98.8027
 20
12.9125
 30
0.0
 10
-98.8027
 20
12.9125
 30
0.0
 10
-99.7239
 20
13.1706
 30
0.0
 10
-101.5471
 20
14.2192
 30
0.0
 10
-102.784
 20
15.4193
 30
0.0
 10
-102.784
 20
15.4193
 30
0.0
 10
-103.2817
 20
16.0126
 30
0.0
 10
-103.8843
 20
16.3416
 30
0.0
 10
-104.4992
 20
16.0979
 30
0.0
 10
-104.4992
 20
16.0979
 30
0.0
 10
-118.7874
 20
10.6823
 30
0.0
 10
-119.6028
 20
-6.0913
 30
0.0
 10
-116.8163
 20
-11.6747
 30
0.0
 10
-116.8163
 20
-11.6747
 30
0.0
 10
-116.7349
 20
-12.2379
 30
0.0
 10
-115.4199
 20
-13.2477
 30
0.0
 10
-114.1625
 20
-12.1979
 30
0.0
 10
-114.1625
 20
-12.1979
 30
0.0
 10
-111.2051
 20
-8.8395
 30
0.0
 10
-106.5803
 20
-6.7349
 30
0.0
 10
-106.1132
 20
-6.6144
 30
0.0
  0
SPLINE
  5
74
330
1F
100
AcDbEntity
  8
layer 1
 62
     7
100
AcDbSpline
210
0.0
220
0.0
230
1.0
 70
    11
 71
     3
 72
    20
 73
    16
 74
     0
 42
0.0000000001
 43
0.0000000001
 12
1.0
 22
0.0
 32
0.0
 13
1.0
 23
0.0
 33
0.0
 40
0.0
 40
0.0
 40
0.0
 40
0.0
 40
0.2
 40
0.2
 40
0.2
 40
0.2
 40
0.4
 40
0.4
 40
0.4
 40
0.4
 40
0.6
 40
0.6
 40
0.6
 40
0.6
 40
1.0
 40
1.0
 40
1.0
 40
1.0
 10
-90.8924
 20
-4.4153
 30
0.0
 10
-90.8924
 20
-7.419
 30
0.0
 10
-93.3273
 20
-9.8549
 30
0.0
 10
-96.3318
 20
-9.8549
 30
0.0
 10
-96.3318
 20
-9.8549
 30
0.0
 10
-99.3352
 20
-9.8546
 30
0.0
 10
-101.7711
 20
-7.419
 30
0.0
 10
-101.7711
 20
-4.4156
 30
0.0
 10
-101.7711
 20
-4.4156
 30
0.0
 10
-101.7711
 20
-1.4111
 30
0.0
 10
-99.3352
 20
1.0238
 30
0.0
 10
-96.3318
 20
1.0238
 30
0.0
 10
-96.3318
 20
1.0238
 30
0.0
 10
-93.3273
 20
1.024
 30
0.0
 10
-90.8924
 20
-1.4111
 30
0.0
 10
-90.8924
 20
-4.4153
 30
0.0
  0
SPLINE
  5
75
330
1F
100
AcDbEntity
  8
layer 1
 62
     7
100
AcDbSpline
210
0.0
220
0.0
230
1.0
 70
    11
 71
     3
 72
    44
 73
    40
 74
     0
 42
0.0000000001
 43
0.0000000001
 12
1.0
 22
0.0
 32
0.0
 13
1.0
 23
0.0
 33
0.0
 40
0.0
 40
0.0
 40
0.0
 40
0.0
 40
0.0909090909090909
 40
0.0909090909090909
 40
0.0909090909090909
 40
0.0909090909090909
 40
0.1818181818181818
 40
0.1818181818181818
 40
0.1818181818181818
 40
0.1818181818181818
 40
0.2727272727272727
 40
0.2727272727272727
 40
0.2727272727272727
 40
0.2727272727272727
 40
0.3636363636363636
 40
0.3636363636363636
 40
0.3636363636363636
 40
0.3636363636363636
 40
0.4545454545454545
 40
0.4545454545454545
 40
0.4545454545454545
 40
0.4545454545454545
 40
0.5454545454545454
 40
0.5454545454545454
 40
0.5454545454545454
 40
0.5454545454545454
 40
0.6363636363636364
 40
0.6363636363636364
 40
0.6363636363636364
 40
0.6363636363636364
 40
0.7272727272727273
 40
0.7272727272727273
 40
0.7272727272727273
 40
0.7272727272727273
 40
0.8181818181818182
 40
0.8181818181818182
 40
0.8181818181818182
 40
0.8181818181818182
 40
1.0
 40
1.0
 40
1.0
 40
1.0
 10
-147.3411
 20
49.0221
 30
0.0
 10
-148.3221
 20
48.7693
 30
0.0
 10
-148.5854
 20
48.2201
 30
0.0
 10
-148.572
 20
47.2373
 30
0.0
 10
-148.572
 20
47.2373
 30
0.0
 10
-148.4979
 20
41.8721
 30
0.0
 10
-152.5409
 20
38.8282
 30
0.0
 10
-154.4761
 20
38.6318
 30
0.0
 10
-154.4761
 20
38.6318
 30
0.0
 10
-155.2032
 20
38.3186
 30
0.0
 10
-155.6865
 20
38.0901
 30
0.0
 10
-155.632
 20
36.89
 30
0.0
 10
-155.632
 20
36.89
 30
0.0
 10
-155.6761
 20
34.8636
 30
0.0
 10
-155.5107
 20
33.4486
 30
0.0
 10
-155.712
 20
31.1947
 30
0.0
 10
-155.712
 20
31.1947
 30
0.0
 10
-155.6338
 20
30.2798
 30
0.0
 10
-155.1392
 20
29.6318
 30
0.0
 10
-154.653
 20
29.495
 30
0.0
 10
-154.653
 20
29.495
 30
0.0
 10
-153.7307
 20
29.2371
 30
0.0
 10
-151.9086
 20
28.1881
 30
0.0
 10
-150.6707
 20
26.9893
 30
0.0
 10
-150.6707
 20
26.9893
 30
0.0
 10
-150.1728
 20
26.3961
 30
0.0
 10
-149.5714
 20
26.0659
 30
0.0
 10
-148.9555
 20
26.3107
 30
0.0
 10
-148.9555
 20
26.3107
 30
0.0
 10
-134.6672
 20
31.7264
 30
0.0
 10
-133.8518
 20
48.4989
 30
0.0
 10
-136.6383
 20
54.082
 30
0.0
 10
-136.6383
 20
54.082
 30
0.0
 10
-136.7197
 20
54.6457
 30
0.0
 10
-138.0348
 20
55.6563
 30
0.0
 10
-139.2932
 20
54.6065
 30
0.0
 10
-139.2932
 20
54.6065
 30
0.0
 10
-142.2505
 20
51.2473
 30
0.0
 10
-146.8755
 20
49.1435
 30
0.0
 10
-147.3411
 20
49.0221
 30
0.0
  0
SPLINE
  5
76
330
1F
100
AcDbEntity
  8
layer 1
 62
     7
100
AcDbSpline
210
0.0
220
0.0
230
1.0
 70
    11
 71
     3
 72
    44
 73
    40
 74
     0
 42
0.0000000001
 43
0.0000000001
 12
1.0
 22
0.0
 32
0.0
 13
1.0
 23
0.0
 33
0.0
 40
0.0
 40
0.0
 40
0.0
 40
0.0
 40
0.0909090909090909
 40
0.0909090909090909
 40
0.0909090909090909
 40
0.0909090909090909
 40
0.1818181818181818
 40
0.1818181818181818
 40
0.1818181818181818
 40
0.1818181818181818
 40
0.2727272727272727
 40
0.2727272727272727
 40
0.2727272727272727
 40
0.2727272727272727
 40
0.3636363636363636
 40
0.3636363636363636
 40
0.3636363636363636
 40
0.3636363636363636
 40
0.4545454545454545
 40
0.4545454545454545
 40
0.4545454545454545
 40
0.4545454545454545
 40
0.5454545454545454
 40
0.5454545454545454
 40
0.5454545454545454
 40
0.5454545454545454
 40
0.6363636363636364
 40
0.6363636363636364
 40
0.6363636363636364
 40
0.6363636363636364
 40
0.7272727272727273
 40
0.7272727272727273
 40
0.7272727272727273
 40
0.7272727272727273
 40
0.8181818181818182
 40
0.8181818181818182
 40
0.8181818181818182
 40
0.8181818181818182
 40
1.0
 40
1.0
 40
1.0
 40
1.0
 10
-167.151
 20
18.9683
 30
0.0
 10
-166.1702
 20
19.2211
 30
0.0
 10
-165.9071
 20
19.7701
 30
0.0
 10
-165.9202
 20
20.753
 30
0.0
 10
-165.9202
 20
20.753
 30
0.0
 10
-165.9943
 20
26.1195
 30
0.0
 10
-161.9512
 20
29.162
 30
0.0
 10
-160.0163
 20
29.3584
 30
0.0
 10
-160.0163
 20
29.3584
 30
0.0
 10
-159.2892
 20
29.6718
 30
0.0
 10
-158.806
 20
29.9001
 30
0.0
 10
-158.8605
 20
31.1001
 30
0.0
 10
-158.8605
 20
31.1001
 30
0.0
 10
-158.8161
 20
33.1268
 30
0.0
 10
-158.9818
 20
34.5415
 30
0.0
 10
-158.7802
 20
36.7963
 30
0.0
 10
-158.7802
 20
36.7963
 30
0.0
 10
-158.8584
 20
37.7106
 30
0.0
 10
-159.353
 20
38.3583
 30
0.0
 10
-159.8394
 20
38.4952
 30
0.0
 10
-159.8394
 20
38.4952
 30
0.0
 10
-160.7617
 20
38.7533
 30
0.0
 10
-162.5838
 20
39.8018
 30
0.0
 10
-163.8218
 20
41.002
 30
0.0
 10
-163.8218
 20
41.002
 30
0.0
 10
-164.3191
 20
41.5952
 30
0.0
 10
-164.921
 20
41.9243
 30
0.0
 10
-165.5367
 20
41.6805
 30
0.0
 10
-165.5367
 20
41.6805
 30
0.0
 10
-179.8251
 20
36.2649
 30
0.0
 10
-180.6404
 20
19.4913
 30
0.0
 10
-177.8538
 20
13.908
 30
0.0
 10
-177.8538
 20
13.908
 30
0.0
 10
-177.7728
 20
13.3447
 30
0.0
 10
-176.4577
 20
12.3349
 30
0.0
 10
-175.1989
 20
13.3847
 30
0.0
 10
-175.1989
 20
13.3847
 30
0.0
 10
-172.2418
 20
16.7431
 30
0.0
 10
-167.6169
 20
18.8477
 30
0.0
 10
-167.151
 20
18.9683
 30
0.0
  0
SPLINE
  5
77
330
1F
100
AcDbEntity
  8
layer 1
 62
     7
100
AcDbSpline
210
0.0
220
0.0
230
1.0
 70
    11
 71
     3
 72
    44
 73
    40
 74
     0
 42
0.0000000001
 43
0.0000000001
 12
1.0
 22
0.0
 32
0.0
 13
1.0
 23
0.0
 33
0.0
 40
0.0
 40
0.0
 40
0.0
 40
0.0
 40
0.0909090909090909
 40
0.0909090909090909
 40
0.0909090909090909
 40
0.0909090909090909
 40
0.1818181818181818
 40
0.1818181818181818
 40
0.1818181818181818
 40
0.1818181818181818
 40
0.2727272727272727
 40
0.2727272727272727
 40
0.2727272727272727
 40
0.2727272727272727
 40
0.3636363636363636
 40
0.3636363636363636
 40
0.3636363636363636
 40
0.3636363636363636
 40
0.4545454545454545
 40
0.4545454545454545
 40
0.4545454545454545
 40
0.4545454545454545
 40
0.5454545454545454
 40
0.5454545454545454
 40
0.5454545454545454
 40
0.5454545454545454
 40
0.6363636363636364
 40
0.6363636363636364
 40
0.6363636363636364
 40
0.6363636363636364
 40
0.7272727272727273
 40
0.7272727272727273
 40
0.7272727272727273
 40
0.7272727272727273
 40
0.8181818181818182
 40
0.8181818181818182
 40
0.8181818181818182
 40
0.8181818181818182
 40
1.0
 40
1.0
 40
1.0
 40
1.0
 10
-86.3035
 20
49.0221
 30
0.0
 10
-87.2844
 20
48.7693
 30
0.0
 10
-87.5477
 20
48.2201
 30
0.0
 10
-87.5343
 20
47.2373
 30
0.0
 10
-87.5343
 20
47.2373
 30
0.0
 10
-87.4613
 20
41.8721
 30
0.0
 10
-91.5042
 20
38.8282
 30
0.0
 10
-93.4384
 20
38.6318
 30
0.0
 10
-93.4384
 20
38.6318
 30
0.0
 10
-94.1664
 20
38.3186
 30
0.0
 10
-94.6487
 20
38.0901
 30
0.0
 10
-94.5942
 20
36.89
 30
0.0
 10
-94.5942
 20
36.89
 30
0.0
 10
-94.6394
 20
34.8636
 30
0.0
 10
-94.4729
 20
33.4486
 30
0.0
 10
-94.6743
 20
31.1947
 30
0.0
 10
-94.6743
 20
31.1947
 30
0.0
 10
-94.5962
 20
30.2798
 30
0.0
 10
-94.1018
 20
29.6318
 30
0.0
 10
-93.6153
 20
29.495
 30
0.0
 10
-93.6153
 20
29.495
 30
0.0
 10
-92.6939
 20
29.2371
 30
0.0
 10
-90.8709
 20
28.1881
 30
0.0
 10
-89.633
 20
26.9893
 30
0.0
 10
-89.633
 20
26.9893
 30
0.0
 10
-89.1351
 20
26.3961
 30
0.0
 10
-88.5337
 20
26.0659
 30
0.0
 10
-87.9178
 20
26.3107
 30
0.0
 10
-87.9178
 20
26.3107
 30
0.0
 10
-73.6295
 20
31.7264
 30
0.0
 10
-72.8144
 20
48.4989
 30
0.0
 10
-75.6006
 20
54.082
 30
0.0
 10
-75.6006
 20
54.082
 30
0.0
 10
-75.6818
 20
54.6457
 30
0.0
 10
-76.998
 20
55.6563
 30
0.0
 10
-78.2555
 20
54.6065
 30
0.0
 10
-78.2555
 20
54.6065
 30
0.0
 10
-81.2128
 20
51.2473
 30
0.0
 10
-85.8377
 20
49.1435
 30
0.0
 10
-86.3035
 20
49.0221
 30
0.0
  0
SPLINE
  5
78
330
1F
100
AcDbEntity
  8
layer 1
 62
     7
100
AcDbSpline
210
0.0
220
0.0
230
1.0
 70
    11
 71
     3
 72
    44
 73
    40
 74
     0
 42
0.0000000001
 43
0.0000000001
 12
1.0
 22
0.0
 32
0.0
 13
1.0
 23
0.0
 33
0.0
 40
0.0
 40
0.0
 40
0.0
 40
0.0
 40
0.0909090909090909
 40
0.0909090909090909
 40
0.0909090909090909
 40
0.0909090909090909
 40
0.1818181818181818
 40
0.1818181818181818
 40
0.1818181818181818
 40
0.1818181818181818
 40
0.2727272727272727
 40
0.2727272727272727
 40
0.2727272727272727
 40
0.2727272727272727
 40
0.3636363636363636
 40
0.3636363636363636
 40
0.3636363636363636
 40
0.3636363636363636
 40
0.4545454545454545
 40
0.4545454545454545
 40
0.4545454545454545
 40
0.4545454545454545
 40
0.5454545454545454
 40
0.5454545454545454
 40
0.5454545454545454
 40
0.5454545454545454
 40
0.6363636363636364
 40
0.6363636363636364
 40
0.6363636363636364
 40
0.6363636363636364
 40
0.7272727272727273
 40
0.7272727272727273
 40
0.7272727272727273
 40
0.7272727272727273
 40
0.8181818181818182
 40
0.8181818181818182
 40
0.8181818181818182
 40
0.8181818181818182
 40
1.0
 40
1.0
 40
1.0
 40
1.0
 10
-106.1132
 20
18.9683
 30
0.0
 10
-105.1324
 20
19.2211
 30
0.0
 10
-104.8693
 20
19.7701
 30
0.0
 10
-104.8827
 20
20.753
 30
0.0
 10
-104.8827
 20
20.753
 30
0.0
 10
-104.9567
 20
26.1195
 30
0.0
 10
-100.9138
 20
29.162
 30
0.0
 10
-98.9785
 20
29.3584
 30
0.0
 10
-98.9785
 20
29.3584
 30
0.0
 10
-98.2513
 20
29.6718
 30
0.0
 10
-97.7692
 20
29.9001
 30
0.0
 10
-97.8237
 20
31.1001
 30
0.0
 10
-97.8237
 20
31.1001
 30
0.0
 10
-97.7784
 20
33.1268
 30
0.0
 10
-97.9451
 20
34.5415
 30
0.0
 10
-97.7427
 20
36.7963
 30
0.0
 10
-97.7427
 20
36.7963
 30
0.0
 10
-97.8216
 20
37.7106
 30
0.0
 10
-98.3152
 20
38.3583
 30
0.0
 10
-98.8027
 20
38.4952
 30
0.0
 10
-98.8027
 20
38.4952
 30
0.0
 10
-99.7239
 20
38.7533
 30
0.0
 10
-101.5471
 20
39.8018
 30
0.0
 10
-102.784
 20
41.002
 30
0.0
 10
-102.784
 20
41.002
 30
0.0
 10
-103.2817
 20
41.5952
 30
0.0
 10
-103.8843
 20
41.9243
 30
0.0
 10
-104.4992
 20
41.6805
 30
0.0
 10
-104.4992
 20
41.6805
 30
0.0
 10
-118.7874
 20
36.2649
 30
0.0
 10
-119.6028
 20
19.4913
 30
0.0
 10
-116.8163
 20
13.908
 30
0.0
 10
-116.8163
 20
13.908
 30
0.0
 10
-116.7349
 20
13.3447
 30
0.0
 10
-115.4199
 20
12.3349
 30
0.0
 10
-114.1625
 20
13.3847
 30
0.0
 10
-114.1625
 20
13.3847
 30
0.0
 10
-111.2051
 20
16.7431
 30
0.0
 10
-106.5803
 20
18.8477
 30
0.0
 10
-106.1132
 20
18.9683
 30
0.0
  0
SPLINE
  5
79
330
1F
100
AcDbEntity
  8
layer 1
 62
     7
100
AcDbSpline
210
0.0
220
0.0
230
1.0
 70
    11
 71
     3
 72
    16
 73
    12
 74
     0
 42
0.0000000001
 43
0.0000000001
 12
1.0
 22
0.0
 32
0.0
 13
1.0
 23
0.0
 33
0.0
 40
0.0
 40
0.0
 40
0.0
 40
0.0
 40
0.25
 40
0.25
 40
0.25
 40
0.25
 40
0.5
 40
0.5
 40
0.5
 40
0.5
 40
1.0
 40
1.0
 40
1.0
 40
1.0
 10
-151.9302
 20
-106.6606
 30
0.0
 10
-151.9302
 20
-106.6606
 30
0.0
 10
-162.8089
 20
-106.6607
 30
0.0
 10
-162.8089
 20
-106.6607
 30
0.0
 10
-162.8089
 20
-106.6607
 30
0.0
 10
-162.8089
 20
-103.6572
 30
0.0
 10
-160.373
 20
-101.2214
 30
0.0
 10
-157.3696
 20
-101.2214
 30
0.0
 10
-157.3696
 20
-101.2214
 30
0.0
 10
-154.365
 20
-101.2213
 30
0.0
 10
-151.9302
 20
-103.6572
 30
0.0
 10
-151.9302
 20
-106.6606
 30
0.0
  0
SPLINE
  5
7A
330
1F
100
AcDbEntity
  8
layer 1
 62
     7
100
AcDbSpline
210
0.0
220
0.0
230
1.0
 70
    11
 71
     3
 72
    28
 73
    24
 74
     0
 42
0.0000000001
 43
0.0000000001
 12
1.0
 22
0.0
 32
0.0
 13
1.0
 23
0.0
 33
0.0
 40
0.0
 40
0.0
 40
0.0
 40
0.0
 40
0.1428571428571428
 40
0.1428571428571428
 40
0.1428571428571428
 40
0.1428571428571428
 40
0.2857142857142857
 40
0.2857142857142857
 40
0.2857142857142857
 40
0.2857142857142857
 40
0.4285714285714285
 40
0.4285714285714285
 40
0.4285714285714285
 40
0.4285714285714285
 40
0.5714285714285714
 40
0.5714285714285714
 40
0.5714285714285714
 40
0.5714285714285714
 40
0.7142857142857143
 40
0.7142857142857143
 40
0.7142857142857143
 40
0.7142857142857143
 40
1.0
 40
1.0
 40
1.0
 40
1.0
 10
-147.3411
 20
-104.3493
 30
0.0
 10
-148.3221
 20
-104.6022
 30
0.0
 10
-148.5854
 20
-105.1513
 30
0.0
 10
-148.572
 20
-106.1342
 30
0.0
 10
-148.572
 20
-106.1342
 30
0.0
 10
-148.5697
 20
-106.3018
 30
0.0
 10
-148.5715
 20
-106.4672
 30
0.0
 10
-148.577
 20
-106.6304
 30
0.0
 10
-148.577
 20
-106.6304
 30
0.0
 10
-148.577
 20
-106.6304
 30
0.0
 10
-135.3673
 20
-106.6305
 30
0.0
 10
-135.3673
 20
-106.6305
 30
0.0
 10
-135.3673
 20
-106.6305
 30
0.0
 10
-135.3014
 20
-103.5906
 30
0.0
 10
-135.8112
 20
-100.9469
 30
0.0
 10
-136.6383
 20
-99.2895
 30
0.0
 10
-136.6383
 20
-99.2895
 30
0.0
 10
-136.7197
 20
-98.7258
 30
0.0
 10
-138.0348
 20
-97.7152
 30
0.0
 10
-139.2932
 20
-98.7649
 30
0.0
 10
-139.2932
 20
-98.7649
 30
0.0
 10
-142.2505
 20
-102.1241
 30
0.0
 10
-146.8755
 20
-104.2279
 30
0.0
 10
-147.3411
 20
-104.3493
 30
0.0
  0
SPLINE
  5
7B
330
1F
100
AcDbEntity
  8
layer 1
 62
     7
100
AcDbSpline
210
0.0
220
0.0
230
1.0
 70
    11
 71
     3
 72
    52
 73
    48
 74
     0
 42
0.0000000001
 43
0.0000000001
 12
1.0
 22
0.0
 32
0.0
 13
1.0
 23
0.0
 33
0.0
 40
0.0
 40
0.0
 40
0.0
 40
0.0
 40
0.0769230769230769
 40
0.0769230769230769
 40
0.0769230769230769
 40
0.0769230769230769
 40
0.1538461538461539
 40
0.1538461538461539
 40
0.1538461538461539
 40
0.1538461538461539
 40
0.2307692307692308
 40
0.2307692307692308
 40
0.2307692307692308
 40
0.2307692307692308
 40
0.3076923076923077
 40
0.3076923076923077
 40
0.3076923076923077
 40
0.3076923076923077
 40
0.3846153846153846
 40
0.3846153846153846
 40
0.3846153846153846
 40
0.3846153846153846
 40
0.4615384615384616
 40
0.4615384615384616
 40
0.4615384615384616
 40
0.4615384615384616
 40
0.5384615384615384
 40
0.5384615384615384
 40
0.5384615384615384
 40
0.5384615384615384
 40
0.6153846153846154
 40
0.6153846153846154
 40
0.6153846153846154
 40
0.6153846153846154
 40
0.6923076923076923
 40
0.6923076923076923
 40
0.6923076923076923
 40
0.6923076923076923
 40
0.7692307692307693
 40
0.7692307692307693
 40
0.7692307692307693
 40
0.7692307692307693
 40
0.8461538461538461
 40
0.8461538461538461
 40
0.8461538461538461
 40
0.8461538461538461
 40
1.0
 40
1.0
 40
1.0
 40
1.0
 10
-122.8517
 20
-82.709
 30
0.0
 10
-121.6386
 20
-82.929
 30
0.0
 10
-121.5594
 20
-83.5544
 30
0.0
 10
-121.4217
 20
-84.528
 30
0.0
 10
-121.4217
 20
-84.528
 30
0.0
 10
-120.9639
 20
-87.766
 30
0.0
 10
-120.0459
 20
-90.4764
 30
0.0
 10
-118.6763
 20
-92.6346
 30
0.0
 10
-118.6763
 20
-92.6346
 30
0.0
 10
-118.0151
 20
-93.447
 30
0.0
 10
-118.0317
 20
-94.3406
 30
0.0
 10
-118.5847
 20
-95.0737
 30
0.0
 10
-118.5847
 20
-95.0737
 30
0.0
 10
-119.2377
 20
-96.3035
 30
0.0
 10
-120.7337
 20
-99.5124
 30
0.0
 10
-121.397
 20
-103.4301
 30
0.0
 10
-121.397
 20
-103.4301
 30
0.0
 10
-121.6746
 20
-104.7428
 30
0.0
 10
-122.0201
 20
-105.0423
 30
0.0
 10
-122.6884
 20
-105.0958
 30
0.0
 10
-122.6884
 20
-105.0958
 30
0.0
 10
-125.3125
 20
-105.1512
 30
0.0
 10
-127.6476
 20
-105.1576
 30
0.0
 10
-130.8342
 20
-105.0958
 30
0.0
 10
-130.8342
 20
-105.0958
 30
0.0
 10
-131.5024
 20
-105.0422
 30
0.0
 10
-131.8479
 20
-104.743
 30
0.0
 10
-132.1267
 20
-103.4301
 30
0.0
 10
-132.1267
 20
-103.4301
 30
0.0
 10
-132.7886
 20
-99.5123
 30
0.0
 10
-134.2848
 20
-96.3035
 30
0.0
 10
-134.9376
 20
-95.0737
 30
0.0
 10
-134.9376
 20
-95.0737
 30
0.0
 10
-135.4908
 20
-94.3404
 30
0.0
 10
-135.5073
 20
-93.447
 30
0.0
 10
-134.8463
 20
-92.6346
 30
0.0
 10
-134.8463
 20
-92.6346
 30
0.0
 10
-133.4767
 20
-90.4762
 30
0.0
 10
-132.5583
 20
-87.766
 30
0.0
 10
-132.1008
 20
-84.528
 30
0.0
 10
-132.1008
 20
-84.528
 30
0.0
 10
-131.9631
 20
-83.5541
 30
0.0
 10
-131.851
 20
-82.996
 30
0.0
 10
-130.87
 20
-82.742
 30
0.0
 10
-130.87
 20
-82.742
 30
0.0
 10
-127.9621
 20
-82.7721
 30
0.0
 10
-125.3443
 20
-82.7144
 30
0.0
 10
-122.8517
 20
-82.709
 30
0.0
  0
SPLINE
  5
7C
330
1F
100
AcDbEntity
  8
layer 1
 62
     7
100
AcDbSpline
210
0.0
220
0.0
230
1.0
 70
    11
 71
     3
 72
    20
 73
    16
 74
     0
 42
0.0000000001
 43
0.0000000001
 12
1.0
 22
0.0
 32
0.0
 13
1.0
 23
0.0
 33
0.0
 40
0.0
 40
0.0
 40
0.0
 40
0.0
 40
0.2
 40
0.2
 40
0.2
 40
0.2
 40
0.4
 40
0.4
 40
0.4
 40
0.4
 40
0.6
 40
0.6
 40
0.6
 40
0.6
 40
1.0
 40
1.0
 40
1.0
 40
1.0
 10
-151.9302
 20
-81.0853
 30
0.0
 10
-151.9302
 20
-84.0901
 30
0.0
 10
-154.3651
 20
-86.5249
 30
0.0
 10
-157.3696
 20
-86.5249
 30
0.0
 10
-157.3696
 20
-86.5249
 30
0.0
 10
-160.3729
 20
-86.5249
 30
0.0
 10
-162.8089
 20
-84.0901
 30
0.0
 10
-162.8089
 20
-81.0853
 30
0.0
 10
-162.8089
 20
-81.0853
 30
0.0
 10
-162.8089
 20
-78.0819
 30
0.0
 10
-160.373
 20
-75.646
 30
0.0
 10
-157.3696
 20
-75.646
 30
0.0
 10
-157.3696
 20
-75.646
 30
0.0
 10
-154.365
 20
-75.6459
 30
0.0
 10
-151.9302
 20
-78.0819
 30
0.0
 10
-151.9302
 20
-81.0853
 30
0.0
  0
SPLINE
  5
7D
330
1F
100
AcDbEntity
  8
layer 1
 62
     7
100
AcDbSpline
210
0.0
220
0.0
230
1.0
 70
    11
 71
     3
 72
    44
 73
    40
 74
     0
 42
0.0000000001
 43
0.0000000001
 12
1.0
 22
0.0
 32
0.0
 13
1.0
 23
0.0
 33
0.0
 40
0.0
 40
0.0
 40
0.0
 40
0.0
 40
0.0909090909090909
 40
0.0909090909090909
 40
0.0909090909090909
 40
0.0909090909090909
 40
0.1818181818181818
 40
0.1818181818181818
 40
0.1818181818181818
 40
0.1818181818181818
 40
0.2727272727272727
 40
0.2727272727272727
 40
0.2727272727272727
 40
0.2727272727272727
 40
0.3636363636363636
 40
0.3636363636363636
 40
0.3636363636363636
 40
0.3636363636363636
 40
0.4545454545454545
 40
0.4545454545454545
 40
0.4545454545454545
 40
0.4545454545454545
 40
0.5454545454545454
 40
0.5454545454545454
 40
0.5454545454545454
 40
0.5454545454545454
 40
0.6363636363636364
 40
0.6363636363636364
 40
0.6363636363636364
 40
0.6363636363636364
 40
0.7272727272727273
 40
0.7272727272727273
 40
0.7272727272727273
 40
0.7272727272727273
 40
0.8181818181818182
 40
0.8181818181818182
 40
0.8181818181818182
 40
0.8181818181818182
 40
1.0
 40
1.0
 40
1.0
 40
1.0
 10
-147.3411
 20
-78.774
 30
0.0
 10
-148.3221
 20
-79.0268
 30
0.0
 10
-148.5854
 20
-79.576
 30
0.0
 10
-148.572
 20
-80.5588
 30
0.0
 10
-148.572
 20
-80.5588
 30
0.0
 10
-148.4979
 20
-85.924
 30
0.0
 10
-152.5409
 20
-88.9679
 30
0.0
 10
-154.4761
 20
-89.1643
 30
0.0
 10
-154.4761
 20
-89.1643
 30
0.0
 10
-155.2032
 20
-89.4775
 30
0.0
 10
-155.6865
 20
-89.706
 30
0.0
 10
-155.632
 20
-90.9061
 30
0.0
 10
-155.632
 20
-90.9061
 30
0.0
 10
-155.6761
 20
-92.9325
 30
0.0
 10
-155.5107
 20
-94.3475
 30
0.0
 10
-155.712
 20
-96.6014
 30
0.0
 10
-155.712
 20
-96.6014
 30
0.0
 10
-155.6338
 20
-97.5163
 30
0.0
 10
-155.1392
 20
-98.1643
 30
0.0
 10
-154.653
 20
-98.3011
 30
0.0
 10
-154.653
 20
-98.3011
 30
0.0
 10
-153.7307
 20
-98.559
 30
0.0
 10
-151.9086
 20
-99.608
 30
0.0
 10
-150.6707
 20
-100.8068
 30
0.0
 10
-150.6707
 20
-100.8068
 30
0.0
 10
-150.1728
 20
-101.4
 30
0.0
 10
-149.5714
 20
-101.7302
 30
0.0
 10
-148.9555
 20
-101.4854
 30
0.0
 10
-148.9555
 20
-101.4854
 30
0.0
 10
-134.6672
 20
-96.0697
 30
0.0
 10
-133.8518
 20
-79.2972
 30
0.0
 10
-136.6383
 20
-73.7141
 30
0.0
 10
-136.6383
 20
-73.7141
 30
0.0
 10
-136.7197
 20
-73.1504
 30
0.0
 10
-138.0348
 20
-72.1398
 30
0.0
 10
-139.2932
 20
-73.1896
 30
0.0
 10
-139.2932
 20
-73.1896
 30
0.0
 10
-142.2505
 20
-76.5488
 30
0.0
 10
-146.8755
 20
-78.6526
 30
0.0
 10
-147.3411
 20
-78.774
 30
0.0
  0
SPLINE
  5
7E
330
1F
100
AcDbEntity
  8
layer 1
 62
     7
100
AcDbSpline
210
0.0
220
0.0
230
1.0
 70
    11
 71
     3
 72
    36
 73
    32
 74
     0
 42
0.0000000001
 43
0.0000000001
 12
1.0
 22
0.0
 32
0.0
 13
1.0
 23
0.0
 33
0.0
 40
0.0
 40
0.0
 40
0.0
 40
0.0
 40
0.1111111111111111
 40
0.1111111111111111
 40
0.1111111111111111
 40
0.1111111111111111
 40
0.2222222222222222
 40
0.2222222222222222
 40
0.2222222222222222
 40
0.2222222222222222
 40
0.3333333333333333
 40
0.3333333333333333
 40
0.3333333333333333
 40
0.3333333333333333
 40
0.4444444444444444
 40
0.4444444444444444
 40
0.4444444444444444
 40
0.4444444444444444
 40
0.5555555555555556
 40
0.5555555555555556
 40
0.5555555555555556
 40
0.5555555555555556
 40
0.6666666666666666
 40
0.6666666666666666
 40
0.6666666666666666
 40
0.6666666666666666
 40
0.7777777777777778
 40
0.7777777777777778
 40
0.7777777777777778
 40
0.7777777777777778
 40
1.0
 40
1.0
 40
1.0
 40
1.0
 10
-165.9153
 20
-106.5469
 30
0.0
 10
-165.7437
 20
-101.4892
 30
0.0
 10
-161.8907
 20
-98.6279
 30
0.0
 10
-160.0163
 20
-98.4377
 30
0.0
 10
-160.0163
 20
-98.4377
 30
0.0
 10
-159.2892
 20
-98.1243
 30
0.0
 10
-158.806
 20
-97.896
 30
0.0
 10
-158.8605
 20
-96.696
 30
0.0
 10
-158.8605
 20
-96.696
 30
0.0
 10
-158.8161
 20
-94.6693
 30
0.0
 10
-158.9818
 20
-93.2546
 30
0.0
 10
-158.7802
 20
-90.9998
 30
0.0
 10
-158.7802
 20
-90.9998
 30
0.0
 10
-158.8584
 20
-90.0855
 30
0.0
 10
-159.353
 20
-89.4378
 30
0.0
 10
-159.8394
 20
-89.3009
 30
0.0
 10
-159.8394
 20
-89.3009
 30
0.0
 10
-160.7617
 20
-89.0428
 30
0.0
 10
-162.5838
 20
-87.9943
 30
0.0
 10
-163.8218
 20
-86.7942
 30
0.0
 10
-163.8218
 20
-86.7942
 30
0.0
 10
-164.3191
 20
-86.2009
 30
0.0
 10
-164.921
 20
-85.8718
 30
0.0
 10
-165.5367
 20
-86.1156
 30
0.0
 10
-165.5367
 20
-86.1156
 30
0.0
 10
-175.6222
 20
-89.9381
 30
0.0
 10
-178.9951
 20
-99.4197
 30
0.0
 10
-179.1267
 20
-106.6305
 30
0.0
 10
-179.1267
 20
-106.6305
 30
0.0
 10
-179.1267
 20
-106.6305
 30
0.0
 10
-165.9153
 20
-106.5469
 30
0.0
 10
-165.9153
 20
-106.5469
 30
0.0
  0
SPLINE
  5
7F
330
1F
100
AcDbEntity
  8
layer 1
 62
     7
100
AcDbSpline
210
0.0
220
0.0
230
1.0
 70
    11
 71
     3
 72
    52
 73
    48
 74
     0
 42
0.0000000001
 43
0.0000000001
 12
1.0
 22
0.0
 32
0.0
 13
1.0
 23
0.0
 33
0.0
 40
0.0
 40
0.0
 40
0.0
 40
0.0
 40
0.0769230769230769
 40
0.0769230769230769
 40
0.0769230769230769
 40
0.0769230769230769
 40
0.1538461538461539
 40
0.1538461538461539
 40
0.1538461538461539
 40
0.1538461538461539
 40
0.2307692307692308
 40
0.2307692307692308
 40
0.2307692307692308
 40
0.2307692307692308
 40
0.3076923076923077
 40
0.3076923076923077
 40
0.3076923076923077
 40
0.3076923076923077
 40
0.3846153846153846
 40
0.3846153846153846
 40
0.3846153846153846
 40
0.3846153846153846
 40
0.4615384615384616
 40
0.4615384615384616
 40
0.4615384615384616
 40
0.4615384615384616
 40
0.5384615384615384
 40
0.5384615384615384
 40
0.5384615384615384
 40
0.5384615384615384
 40
0.6153846153846154
 40
0.6153846153846154
 40
0.6153846153846154
 40
0.6153846153846154
 40
0.6923076923076923
 40
0.6923076923076923
 40
0.6923076923076923
 40
0.6923076923076923
 40
0.7692307692307693
 40
0.7692307692307693
 40
0.7692307692307693
 40
0.7692307692307693
 40
0.8461538461538461
 40
0.8461538461538461
 40
0.8461538461538461
 40
0.8461538461538461
 40
1.0
 40
1.0
 40
1.0
 40
1.0
 10
-122.8517
 20
-57.1336
 30
0.0
 10
-121.6386
 20
-57.3537
 30
0.0
 10
-121.5594
 20
-57.979
 30
0.0
 10
-121.4217
 20
-58.9527
 30
0.0
 10
-121.4217
 20
-58.9527
 30
0.0
 10
-120.9639
 20
-62.1907
 30
0.0
 10
-120.0459
 20
-64.9011
 30
0.0
 10
-118.6763
 20
-67.0593
 30
0.0
 10
-118.6763
 20
-67.0593
 30
0.0
 10
-118.0151
 20
-67.8716
 30
0.0
 10
-118.0317
 20
-68.7653
 30
0.0
 10
-118.5847
 20
-69.4984
 30
0.0
 10
-118.5847
 20
-69.4984
 30
0.0
 10
-119.2377
 20
-70.7281
 30
0.0
 10
-120.7337
 20
-73.9371
 30
0.0
 10
-121.397
 20
-77.8548
 30
0.0
 10
-121.397
 20
-77.8548
 30
0.0
 10
-121.6746
 20
-79.1675
 30
0.0
 10
-122.0201
 20
-79.467
 30
0.0
 10
-122.6884
 20
-79.5204
 30
0.0
 10
-122.6884
 20
-79.5204
 30
0.0
 10
-125.3125
 20
-79.5759
 30
0.0
 10
-127.6476
 20
-79.5823
 30
0.0
 10
-130.8342
 20
-79.5204
 30
0.0
 10
-130.8342
 20
-79.5204
 30
0.0
 10
-131.5024
 20
-79.4668
 30
0.0
 10
-131.8479
 20
-79.1677
 30
0.0
 10
-132.1267
 20
-77.8548
 30
0.0
 10
-132.1267
 20
-77.8548
 30
0.0
 10
-132.7886
 20
-73.9369
 30
0.0
 10
-134.2848
 20
-70.7282
 30
0.0
 10
-134.9376
 20
-69.4984
 30
0.0
 10
-134.9376
 20
-69.4984
 30
0.0
 10
-135.4908
 20
-68.7651
 30
0.0
 10
-135.5073
 20
-67.8716
 30
0.0
 10
-134.8463
 20
-67.0593
 30
0.0
 10
-134.8463
 20
-67.0593
 30
0.0
 10
-133.4767
 20
-64.9009
 30
0.0
 10
-132.5583
 20
-62.1907
 30
0.0
 10
-132.1008
 20
-58.9527
 30
0.0
 10
-132.1008
 20
-58.9527
 30
0.0
 10
-131.9631
 20
-57.9788
 30
0.0
 10
-131.851
 20
-57.4207
 30
0.0
 10
-130.87
 20
-57.1667
 30
0.0
 10
-130.87
 20
-57.1667
 30
0.0
 10
-127.9621
 20
-57.1968
 30
0.0
 10
-125.3443
 20
-57.1391
 30
0.0
 10
-122.8517
 20
-57.1336
 30
0.0
  0
SPLINE
  5
80
330
1F
100
AcDbEntity
  8
layer 1
 62
     7
100
AcDbSpline
210
0.0
220
0.0
230
1.0
 70
    11
 71
     3
 72
    20
 73
    16
 74
     0
 42
0.0000000001
 43
0.0000000001
 12
1.0
 22
0.0
 32
0.0
 13
1.0
 23
0.0
 33
0.0
 40
0.0
 40
0.0
 40
0.0
 40
0.0
 40
0.2
 40
0.2
 40
0.2
 40
0.2
 40
0.4
 40
0.4
 40
0.4
 40
0.4
 40
0.6
 40
0.6
 40
0.6
 40
0.6
 40
1.0
 40
1.0
 40
1.0
 40
1.0
 10
-90.8924
 20
-81.0853
 30
0.0
 10
-90.8924
 20
-84.0901
 30
0.0
 10
-93.3273
 20
-86.5249
 30
0.0
 10
-96.3318
 20
-86.5249
 30
0.0
 10
-96.3318
 20
-86.5249
 30
0.0
 10
-99.3352
 20
-86.5249
 30
0.0
 10
-101.7711
 20
-84.0901
 30
0.0
 10
-101.7711
 20
-81.0853
 30
0.0
 10
-101.7711
 20
-81.0853
 30
0.0
 10
-101.7711
 20
-78.0819
 30
0.0
 10
-99.3352
 20
-75.646
 30
0.0
 10
-96.3318
 20
-75.646
 30
0.0
 10
-96.3318
 20
-75.646
 30
0.0
 10
-93.3273
 20
-75.6459
 30
0.0
 10
-90.8924
 20
-78.0819
 30
0.0
 10
-90.8924
 20
-81.0853
 30
0.0
  0
SPLINE
  5
81
330
1F
100
AcDbEntity
  8
layer 1
 62
     7
100
AcDbSpline
210
0.0
220
0.0
230
1.0
 70
    11
 71
     3
 72
    44
 73
    40
 74
     0
 42
0.0000000001
 43
0.0000000001
 12
1.0
 22
0.0
 32
0.0
 13
1.0
 23
0.0
 33
0.0
 40
0.0
 40
0.0
 40
0.0
 40
0.0
 40
0.0909090909090909
 40
0.0909090909090909
 40
0.0909090909090909
 40
0.0909090909090909
 40
0.1818181818181818
 40
0.1818181818181818
 40
0.1818181818181818
 40
0.1818181818181818
 40
0.2727272727272727
 40
0.2727272727272727
 40
0.2727272727272727
 40
0.2727272727272727
 40
0.3636363636363636
 40
0.3636363636363636
 40
0.3636363636363636
 40
0.3636363636363636
 40
0.4545454545454545
 40
0.4545454545454545
 40
0.4545454545454545
 40
0.4545454545454545
 40
0.5454545454545454
 40
0.5454545454545454
 40
0.5454545454545454
 40
0.5454545454545454
 40
0.6363636363636364
 40
0.6363636363636364
 40
0.6363636363636364
 40
0.6363636363636364
 40
0.7272727272727273
 40
0.7272727272727273
 40
0.7272727272727273
 40
0.7272727272727273
 40
0.8181818181818182
 40
0.8181818181818182
 40
0.8181818181818182
 40
0.8181818181818182
 40
1.0
 40
1.0
 40
1.0
 40
1.0
 10
-86.3035
 20
-78.774
 30
0.0
 10
-87.2844
 20
-79.0268
 30
0.0
 10
-87.5477
 20
-79.576
 30
0.0
 10
-87.5343
 20
-80.5588
 30
0.0
 10
-87.5343
 20
-80.5588
 30
0.0
 10
-87.4613
 20
-85.924
 30
0.0
 10
-91.5042
 20
-88.9679
 30
0.0
 10
-93.4384
 20
-89.1643
 30
0.0
 10
-93.4384
 20
-89.1643
 30
0.0
 10
-94.1664
 20
-89.4775
 30
0.0
 10
-94.6487
 20
-89.706
 30
0.0
 10
-94.5942
 20
-90.9061
 30
0.0
 10
-94.5942
 20
-90.9061
 30
0.0
 10
-94.6394
 20
-92.9325
 30
0.0
 10
-94.4729
 20
-94.3475
 30
0.0
 10
-94.6743
 20
-96.6014
 30
0.0
 10
-94.6743
 20
-96.6014
 30
0.0
 10
-94.5962
 20
-97.5163
 30
0.0
 10
-94.1018
 20
-98.1643
 30
0.0
 10
-93.6153
 20
-98.3011
 30
0.0
 10
-93.6153
 20
-98.3011
 30
0.0
 10
-92.6939
 20
-98.559
 30
0.0
 10
-90.8709
 20
-99.608
 30
0.0
 10
-89.633
 20
-100.8068
 30
0.0
 10
-89.633
 20
-100.8068
 30
0.0
 10
-89.1351
 20
-101.4
 30
0.0
 10
-88.5337
 20
-101.7302
 30
0.0
 10
-87.9178
 20
-101.4854
 30
0.0
 10
-87.9178
 20
-101.4854
 30
0.0
 10
-73.6295
 20
-96.0697
 30
0.0
 10
-72.8144
 20
-79.2972
 30
0.0
 10
-75.6006
 20
-73.7141
 30
0.0
 10
-75.6006
 20
-73.7141
 30
0.0
 10
-75.6818
 20
-73.1504
 30
0.0
 10
-76.998
 20
-72.1398
 30
0.0
 10
-78.2555
 20
-73.1896
 30
0.0
 10
-78.2555
 20
-73.1896
 30
0.0
 10
-81.2128
 20
-76.5488
 30
0.0
 10
-85.8377
 20
-78.6526
 30
0.0
 10
-86.3035
 20
-78.774
 30
0.0
  0
SPLINE
  5
82
330
1F
100
AcDbEntity
  8
layer 1
 62
     7
100
AcDbSpline
210
0.0
220
0.0
230
1.0
 70
    11
 71
     3
 72
    44
 73
    40
 74
     0
 42
0.0000000001
 43
0.0000000001
 12
1.0
 22
0.0
 32
0.0
 13
1.0
 23
0.0
 33
0.0
 40
0.0
 40
0.0
 40
0.0
 40
0.0
 40
0.0909090909090909
 40
0.0909090909090909
 40
0.0909090909090909
 40
0.0909090909090909
 40
0.1818181818181818
 40
0.1818181818181818
 40
0.1818181818181818
 40
0.1818181818181818
 40
0.2727272727272727
 40
0.2727272727272727
 40
0.2727272727272727
 40
0.2727272727272727
 40
0.3636363636363636
 40
0.3636363636363636
 40
0.3636363636363636
 40
0.3636363636363636
 40
0.4545454545454545
 40
0.4545454545454545
 40
0.4545454545454545
 40
0.4545454545454545
 40
0.5454545454545454
 40
0.5454545454545454
 40
0.5454545454545454
 40
0.5454545454545454
 40
0.6363636363636364
 40
0.6363636363636364
 40
0.6363636363636364
 40
0.6363636363636364
 40
0.7272727272727273
 40
0.7272727272727273
 40
0.7272727272727273
 40
0.7272727272727273
 40
0.8181818181818182
 40
0.8181818181818182
 40
0.8181818181818182
 40
0.8181818181818182
 40
1.0
 40
1.0
 40
1.0
 40
1.0
 10
-147.3411
 20
-53.1913
 30
0.0
 10
-148.3221
 20
-53.4442
 30
0.0
 10
-148.5854
 20
-53.9934
 30
0.0
 10
-148.572
 20
-54.9762
 30
0.0
 10
-148.572
 20
-54.9762
 30
0.0
 10
-148.4979
 20
-60.3413
 30
0.0
 10
-152.5409
 20
-63.3853
 30
0.0
 10
-154.4761
 20
-63.5817
 30
0.0
 10
-154.4761
 20
-63.5817
 30
0.0
 10
-155.2032
 20
-63.8949
 30
0.0
 10
-155.6865
 20
-64.1234
 30
0.0
 10
-155.632
 20
-65.3234
 30
0.0
 10
-155.632
 20
-65.3234
 30
0.0
 10
-155.6761
 20
-67.3498
 30
0.0
 10
-155.5107
 20
-68.7648
 30
0.0
 10
-155.712
 20
-71.0188
 30
0.0
 10
-155.712
 20
-71.0188
 30
0.0
 10
-155.6338
 20
-71.9337
 30
0.0
 10
-155.1392
 20
-72.5816
 30
0.0
 10
-154.653
 20
-72.7185
 30
0.0
 10
-154.653
 20
-72.7185
 30
0.0
 10
-153.7307
 20
-72.9763
 30
0.0
 10
-151.9086
 20
-74.0254
 30
0.0
 10
-150.6707
 20
-75.2241
 30
0.0
 10
-150.6707
 20
-75.2241
 30
0.0
 10
-150.1728
 20
-75.8174
 30
0.0
 10
-149.5714
 20
-76.1476
 30
0.0
 10
-148.9555
 20
-75.9027
 30
0.0
 10
-148.9555
 20
-75.9027
 30
0.0
 10
-134.6672
 20
-70.487
 30
0.0
 10
-133.8518
 20
-53.7146
 30
0.0
 10
-136.6383
 20
-48.1315
 30
0.0
 10
-136.6383
 20
-48.1315
 30
0.0
 10
-136.7197
 20
-47.5678
 30
0.0
 10
-138.0348
 20
-46.5572
 30
0.0
 10
-139.2932
 20
-47.607
 30
0.0
 10
-139.2932
 20
-47.607
 30
0.0
 10
-142.2505
 20
-50.9661
 30
0.0
 10
-146.8755
 20
-53.0699
 30
0.0
 10
-147.3411
 20
-53.1913
 30
0.0
  0
SPLINE
  5
83
330
1F
100
AcDbEntity
  8
layer 1
 62
     7
100
AcDbSpline
210
0.0
220
0.0
230
1.0
 70
    11
 71
     3
 72
    44
 73
    40
 74
     0
 42
0.0000000001
 43
0.0000000001
 12
1.0
 22
0.0
 32
0.0
 13
1.0
 23
0.0
 33
0.0
 40
0.0
 40
0.0
 40
0.0
 40
0.0
 40
0.0909090909090909
 40
0.0909090909090909
 40
0.0909090909090909
 40
0.0909090909090909
 40
0.1818181818181818
 40
0.1818181818181818
 40
0.1818181818181818
 40
0.1818181818181818
 40
0.2727272727272727
 40
0.2727272727272727
 40
0.2727272727272727
 40
0.2727272727272727
 40
0.3636363636363636
 40
0.3636363636363636
 40
0.3636363636363636
 40
0.3636363636363636
 40
0.4545454545454545
 40
0.4545454545454545
 40
0.4545454545454545
 40
0.4545454545454545
 40
0.5454545454545454
 40
0.5454545454545454
 40
0.5454545454545454
 40
0.5454545454545454
 40
0.6363636363636364
 40
0.6363636363636364
 40
0.6363636363636364
 40
0.6363636363636364
 40
0.7272727272727273
 40
0.7272727272727273
 40
0.7272727272727273
 40
0.7272727272727273
 40
0.8181818181818182
 40
0.8181818181818182
 40
0.8181818181818182
 40
0.8181818181818182
 40
1.0
 40
1.0
 40
1.0
 40
1.0
 10
-167.151
 20
-83.2452
 30
0.0
 10
-166.1702
 20
-82.9923
 30
0.0
 10
-165.9071
 20
-82.4434
 30
0.0
 10
-165.9202
 20
-81.4605
 30
0.0
 10
-165.9202
 20
-81.4605
 30
0.0
 10
-165.9943
 20
-76.094
 30
0.0
 10
-161.9512
 20
-73.0515
 30
0.0
 10
-160.0163
 20
-72.8551
 30
0.0
 10
-160.0163
 20
-72.8551
 30
0.0
 10
-159.2892
 20
-72.5416
 30
0.0
 10
-158.806
 20
-72.3134
 30
0.0
 10
-158.8605
 20
-71.1133
 30
0.0
 10
-158.8605
 20
-71.1133
 30
0.0
 10
-158.8161
 20
-69.0866
 30
0.0
 10
-158.9818
 20
-67.6719
 30
0.0
 10
-158.7802
 20
-65.4171
 30
0.0
 10
-158.7802
 20
-65.4171
 30
0.0
 10
-158.8584
 20
-64.5029
 30
0.0
 10
-159.353
 20
-63.8551
 30
0.0
 10
-159.8394
 20
-63.7183
 30
0.0
 10
-159.8394
 20
-63.7183
 30
0.0
 10
-160.7617
 20
-63.4602
 30
0.0
 10
-162.5838
 20
-62.4116
 30
0.0
 10
-163.8218
 20
-61.2115
 30
0.0
 10
-163.8218
 20
-61.2115
 30
0.0
 10
-164.3191
 20
-60.6182
 30
0.0
 10
-164.921
 20
-60.2892
 30
0.0
 10
-165.5367
 20
-60.5329
 30
0.0
 10
-165.5367
 20
-60.5329
 30
0.0
 10
-179.8251
 20
-65.9485
 30
0.0
 10
-180.6404
 20
-82.7221
 30
0.0
 10
-177.8538
 20
-88.3055
 30
0.0
 10
-177.8538
 20
-88.3055
 30
0.0
 10
-177.7728
 20
-88.8687
 30
0.0
 10
-176.4577
 20
-89.8785
 30
0.0
 10
-175.1989
 20
-88.8287
 30
0.0
 10
-175.1989
 20
-88.8287
 30
0.0
 10
-172.2418
 20
-85.4703
 30
0.0
 10
-167.6169
 20
-83.3657
 30
0.0
 10
-167.151
 20
-83.2452
 30
0.0
  0
SPLINE
  5
84
330
1F
100
AcDbEntity
  8
layer 1
 62
     7
100
AcDbSpline
210
0.0
220
0.0
230
1.0
 70
    11
 71
     3
 72
    44
 73
    40
 74
     0
 42
0.0000000001
 43
0.0000000001
 12
1.0
 22
0.0
 32
0.0
 13
1.0
 23
0.0
 33
0.0
 40
0.0
 40
0.0
 40
0.0
 40
0.0
 40
0.0909090909090909
 40
0.0909090909090909
 40
0.0909090909090909
 40
0.0909090909090909
 40
0.1818181818181818
 40
0.1818181818181818
 40
0.1818181818181818
 40
0.1818181818181818
 40
0.2727272727272727
 40
0.2727272727272727
 40
0.2727272727272727
 40
0.2727272727272727
 40
0.3636363636363636
 40
0.3636363636363636
 40
0.3636363636363636
 40
0.3636363636363636
 40
0.4545454545454545
 40
0.4545454545454545
 40
0.4545454545454545
 40
0.4545454545454545
 40
0.5454545454545454
 40
0.5454545454545454
 40
0.5454545454545454
 40
0.5454545454545454
 40
0.6363636363636364
 40
0.6363636363636364
 40
0.6363636363636364
 40
0.6363636363636364
 40
0.7272727272727273
 40
0.7272727272727273
 40
0.7272727272727273
 40
0.7272727272727273
 40
0.8181818181818182
 40
0.8181818181818182
 40
0.8181818181818182
 40
0.8181818181818182
 40
1.0
 40
1.0
 40
1.0
 40
1.0
 10
-86.3035
 20
-53.1913
 30
0.0
 10
-87.2844
 20
-53.4442
 30
0.0
 10
-87.5477
 20
-53.9934
 30
0.0
 10
-87.5343
 20
-54.9762
 30
0.0
 10
-87.5343
 20
-54.9762
 30
0.0
 10
-87.4613
 20
-60.3413
 30
0.0
 10
-91.5042
 20
-63.3853
 30
0.0
 10
-93.4384
 20
-63.5817
 30
0.0
 10
-93.4384
 20
-63.5817
 30
0.0
 10
-94.1664
 20
-63.8949
 30
0.0
 10
-94.6487
 20
-64.1234
 30
0.0
 10
-94.5942
 20
-65.3234
 30
0.0
 10
-94.5942
 20
-65.3234
 30
0.0
 10
-94.6394
 20
-67.3498
 30
0.0
 10
-94.4729
 20
-68.7648
 30
0.0
 10
-94.6743
 20
-71.0188
 30
0.0
 10
-94.6743
 20
-71.0188
 30
0.0
 10
-94.5962
 20
-71.9337
 30
0.0
 10
-94.1018
 20
-72.5816
 30
0.0
 10
-93.6153
 20
-72.7185
 30
0.0
 10
-93.6153
 20
-72.7185
 30
0.0
 10
-92.6939
 20
-72.9763
 30
0.0
 10
-90.8709
 20
-74.0254
 30
0.0
 10
-89.633
 20
-75.2241
 30
0.0
 10
-89.633
 20
-75.2241
 30
0.0
 10
-89.1351
 20
-75.8174
 30
0.0
 10
-88.5337
 20
-76.1476
 30
0.0
 10
-87.9178
 20
-75.9027
 30
0.0
 10
-87.9178
 20
-75.9027
 30
0.0
 10
-73.6295
 20
-70.487
 30
0.0
 10
-72.8144
 20
-53.7146
 30
0.0
 10
-75.6006
 20
-48.1315
 30
0.0
 10
-75.6006
 20
-48.1315
 30
0.0
 10
-75.6818
 20
-47.5678
 30
0.0
 10
-76.998
 20
-46.5572
 30
0.0
 10
-78.2555
 20
-47.607
 30
0.0
 10
-78.2555
 20
-47.607
 30
0.0
 10
-81.2128
 20
-50.9661
 30
0.0
 10
-85.8377
 20
-53.0699
 30
0.0
 10
-86.3035
 20
-53.1913
 30
0.0
  0
SPLINE
  5
85
330
1F
100
AcDbEntity
  8
layer 1
 62
     7
100
AcDbSpline
210
0.0
220
0.0
230
1.0
 70
    11
 71
     3
 72
    44
 73
    40
 74
     0
 42
0.0000000001
 43
0.0000000001
 12
1.0
 22
0.0
 32
0.0
 13
1.0
 23
0.0
 33
0.0
 40
0.0
 40
0.0
 40
0.0
 40
0.0
 40
0.0909090909090909
 40
0.0909090909090909
 40
0.0909090909090909
 40
0.0909090909090909
 40
0.1818181818181818
 40
0.1818181818181818
 40
0.1818181818181818
 40
0.1818181818181818
 40
0.2727272727272727
 40
0.2727272727272727
 40
0.2727272727272727
 40
0.2727272727272727
 40
0.3636363636363636
 40
0.3636363636363636
 40
0.3636363636363636
 40
0.3636363636363636
 40
0.4545454545454545
 40
0.4545454545454545
 40
0.4545454545454545
 40
0.4545454545454545
 40
0.5454545454545454
 40
0.5454545454545454
 40
0.5454545454545454
 40
0.5454545454545454
 40
0.6363636363636364
 40
0.6363636363636364
 40
0.6363636363636364
 40
0.6363636363636364
 40
0.7272727272727273
 40
0.7272727272727273
 40
0.7272727272727273
 40
0.7272727272727273
 40
0.8181818181818182
 40
0.8181818181818182
 40
0.8181818181818182
 40
0.8181818181818182
 40
1.0
 40
1.0
 40
1.0
 40
1.0
 10
-106.1132
 20
-83.2452
 30
0.0
 10
-105.1324
 20
-82.9923
 30
0.0
 10
-104.8693
 20
-82.4434
 30
0.0
 10
-104.8827
 20
-81.4605
 30
0.0
 10
-104.8827
 20
-81.4605
 30
0.0
 10
-104.9567
 20
-76.094
 30
0.0
 10
-100.9138
 20
-73.0515
 30
0.0
 10
-98.9785
 20
-72.8551
 30
0.0
 10
-98.9785
 20
-72.8551
 30
0.0
 10
-98.2513
 20
-72.5416
 30
0.0
 10
-97.7692
 20
-72.3134
 30
0.0
 10
-97.8237
 20
-71.1133
 30
0.0
 10
-97.8237
 20
-71.1133
 30
0.0
 10
-97.7784
 20
-69.0866
 30
0.0
 10
-97.9451
 20
-67.6719
 30
0.0
 10
-97.7427
 20
-65.4171
 30
0.0
 10
-97.7427
 20
-65.4171
 30
0.0
 10
-97.8216
 20
-64.5029
 30
0.0
 10
-98.3152
 20
-63.8551
 30
0.0
 10
-98.8027
 20
-63.7183
 30
0.0
 10
-98.8027
 20
-63.7183
 30
0.0
 10
-99.7239
 20
-63.4602
 30
0.0
 10
-101.5471
 20
-62.4116
 30
0.0
 10
-102.784
 20
-61.2115
 30
0.0
 10
-102.784
 20
-61.2115
 30
0.0
 10
-103.2817
 20
-60.6182
 30
0.0
 10
-103.8843
 20
-60.2892
 30
0.0
 10
-104.4992
 20
-60.5329
 30
0.0
 10
-104.4992
 20
-60.5329
 30
0.0
 10
-118.7874
 20
-65.9485
 30
0.0
 10
-119.6028
 20
-82.7221
 30
0.0
 10
-116.8163
 20
-88.3055
 30
0.0
 10
-116.8163
 20
-88.3055
 30
0.0
 10
-116.7349
 20
-88.8687
 30
0.0
 10
-115.4199
 20
-89.8785
 30
0.0
 10
-114.1625
 20
-88.8287
 30
0.0
 10
-114.1625
 20
-88.8287
 30
0.0
 10
-111.2051
 20
-85.4703
 30
0.0
 10
-106.5803
 20
-83.3657
 30
0.0
 10
-106.1132
 20
-83.2452
 30
0.0
  0
SPLINE
  5
86
330
1F
100
AcDbEntity
  8
layer 1
 62
     7
100
AcDbSpline
210
0.0
220
0.0
230
1.0
 70
    11
 71
     3
 72
    16
 73
    12
 74
     0
 42
0.0000000001
 43
0.0000000001
 12
1.0
 22
0.0
 32
0.0
 13
1.0
 23
0.0
 33
0.0
 40
0.0
 40
0.0
 40
0.0
 40
0.0
 40
0.25
 40
0.25
 40
0.25
 40
0.25
 40
0.5
 40
0.5
 40
0.5
 40
0.5
 40
1.0
 40
1.0
 40
1.0
 40
1.0
 10
-91.0005
 20
-106.6606
 30
0.0
 10
-91.0005
 20
-106.6606
 30
0.0
 10
-101.8791
 20
-106.6607
 30
0.0
 10
-101.8791
 20
-106.6607
 30
0.0
 10
-101.8791
 20
-106.6607
 30
0.0
 10
-101.8791
 20
-103.6572
 30
0.0
 10
-99.4432
 20
-101.2214
 30
0.0
 10
-96.4398
 20
-101.2214
 30
0.0
 10
-96.4398
 20
-101.2214
 30
0.0
 10
-93.4352
 20
-101.2213
 30
0.0
 10
-91.0005
 20
-103.6572
 30
0.0
 10
-91.0005
 20
-106.6606
 30
0.0
  0
SPLINE
  5
87
330
1F
100
AcDbEntity
  8
layer 1
 62
     7
100
AcDbSpline
210
0.0
220
0.0
230
1.0
 70
    11
 71
     3
 72
    28
 73
    24
 74
     0
 42
0.0000000001
 43
0.0000000001
 12
1.0
 22
0.0
 32
0.0
 13
1.0
 23
0.0
 33
0.0
 40
0.0
 40
0.0
 40
0.0
 40
0.0
 40
0.1428571428571428
 40
0.1428571428571428
 40
0.1428571428571428
 40
0.1428571428571428
 40
0.2857142857142857
 40
0.2857142857142857
 40
0.2857142857142857
 40
0.2857142857142857
 40
0.4285714285714285
 40
0.4285714285714285
 40
0.4285714285714285
 40
0.4285714285714285
 40
0.5714285714285714
 40
0.5714285714285714
 40
0.5714285714285714
 40
0.5714285714285714
 40
0.7142857142857143
 40
0.7142857142857143
 40
0.7142857142857143
 40
0.7142857142857143
 40
1.0
 40
1.0
 40
1.0
 40
1.0
 10
-86.4113
 20
-104.3493
 30
0.0
 10
-87.3924
 20
-104.6022
 30
0.0
 10
-87.6556
 20
-105.1513
 30
0.0
 10
-87.6423
 20
-106.1342
 30
0.0
 10
-87.6423
 20
-106.1342
 30
0.0
 10
-87.6399
 20
-106.3018
 30
0.0
 10
-87.6417
 20
-106.4672
 30
0.0
 10
-87.6473
 20
-106.6304
 30
0.0
 10
-87.6473
 20
-106.6304
 30
0.0
 10
-87.6473
 20
-106.6304
 30
0.0
 10
-74.4375
 20
-106.6305
 30
0.0
 10
-74.4375
 20
-106.6305
 30
0.0
 10
-74.4375
 20
-106.6305
 30
0.0
 10
-74.3716
 20
-103.5906
 30
0.0
 10
-74.8814
 20
-100.9469
 30
0.0
 10
-75.7086
 20
-99.2895
 30
0.0
 10
-75.7086
 20
-99.2895
 30
0.0
 10
-75.7899
 20
-98.7258
 30
0.0
 10
-77.105
 20
-97.7152
 30
0.0
 10
-78.3635
 20
-98.7649
 30
0.0
 10
-78.3635
 20
-98.7649
 30
0.0
 10
-81.3207
 20
-102.1241
 30
0.0
 10
-85.9457
 20
-104.2279
 30
0.0
 10
-86.4113
 20
-104.3493
 30
0.0
  0
SPLINE
  5
88
330
1F
100
AcDbEntity
  8
layer 1
 62
     7
100
AcDbSpline
210
0.0
220
0.0
230
1.0
 70
    11
 71
     3
 72
    36
 73
    32
 74
     0
 42
0.0000000001
 43
0.0000000001
 12
1.0
 22
0.0
 32
0.0
 13
1.0
 23
0.0
 33
0.0
 40
0.0
 40
0.0
 40
0.0
 40
0.0
 40
0.1111111111111111
 40
0.1111111111111111
 40
0.1111111111111111
 40
0.1111111111111111
 40
0.2222222222222222
 40
0.2222222222222222
 40
0.2222222222222222
 40
0.2222222222222222
 40
0.3333333333333333
 40
0.3333333333333333
 40
0.3333333333333333
 40
0.3333333333333333
 40
0.4444444444444444
 40
0.4444444444444444
 40
0.4444444444444444
 40
0.4444444444444444
 40
0.5555555555555556
 40
0.5555555555555556
 40
0.5555555555555556
 40
0.5555555555555556
 40
0.6666666666666666
 40
0.6666666666666666
 40
0.6666666666666666
 40
0.6666666666666666
 40
0.7777777777777778
 40
0.7777777777777778
 40
0.7777777777777778
 40
0.7777777777777778
 40
1.0
 40
1.0
 40
1.0
 40
1.0
 10
-104.9855
 20
-106.5469
 30
0.0
 10
-104.8139
 20
-101.4892
 30
0.0
 10
-100.961
 20
-98.6279
 30
0.0
 10
-99.0865
 20
-98.4377
 30
0.0
 10
-99.0865
 20
-98.4377
 30
0.0
 10
-98.3594
 20
-98.1243
 30
0.0
 10
-97.8762
 20
-97.896
 30
0.0
 10
-97.9307
 20
-96.696
 30
0.0
 10
-97.9307
 20
-96.696
 30
0.0
 10
-97.8864
 20
-94.6693
 30
0.0
 10
-98.052
 20
-93.2546
 30
0.0
 10
-97.8504
 20
-90.9998
 30
0.0
 10
-97.8504
 20
-90.9998
 30
0.0
 10
-97.9286
 20
-90.0855
 30
0.0
 10
-98.4232
 20
-89.4378
 30
0.0
 10
-98.9096
 20
-89.3009
 30
0.0
 10
-98.9096
 20
-89.3009
 30
0.0
 10
-99.832
 20
-89.0428
 30
0.0
 10
-101.6541
 20
-87.9943
 30
0.0
 10
-102.892
 20
-86.7942
 30
0.0
 10
-102.892
 20
-86.7942
 30
0.0
 10
-103.3893
 20
-86.2009
 30
0.0
 10
-103.9912
 20
-85.8718
 30
0.0
 10
-104.6069
 20
-86.1156
 30
0.0
 10
-104.6069
 20
-86.1156
 30
0.0
 10
-114.6924
 20
-89.9381
 30
0.0
 10
-118.0653
 20
-99.4197
 30
0.0
 10
-118.1969
 20
-106.6305
 30
0.0
 10
-118.1969
 20
-106.6305
 30
0.0
 10
-118.1969
 20
-106.6305
 30
0.0
 10
-104.9855
 20
-106.5469
 30
0.0
 10
-104.9855
 20
-106.5469
 30
0.0
  0
ENDSEC
  0
SECTION
  2
OBJECTS
  0
DICTIONARY
  5
C
330
0
100
AcDbDictionary
281
     1
  3
ACAD_GROUP
350
D
  3
ACAD_LAYOUT
350
1A
  3
ACAD_MATERIAL
350
3B
  3
ACAD_MLEADERSTYLE
350
AB
  3
ACAD_MLINESTYLE
350
17
  3
ACAD_PLOTSETTINGS
350
19
  3
ACAD_PLOTSTYLENAME
350
E
  3
ACAD_TABLESTYLE
350
AA
  3
ACAD_VISUALSTYLE
350
2A
  0
DICTIONARY
  5
D
102
{ACAD_REACTORS
330
C
102
}
330
C
100
AcDbDictionary
281
     1
  0
DICTIONARY
  5
1A
102
{ACAD_REACTORS
330
C
102
}
330
C
100
AcDbDictionary
281
     1
  3
Layout1
350
1E
  3
Layout2
350
26
  3
Model
350
22
  0
DICTIONARY
  5
3B
102
{ACAD_REACTORS
330
C
102
}
330
C
100
AcDbDictionary
281
     1
  3
ByBlock
350
3D
  3
ByLayer
350
3C
  3
Global
350
3E
  0
DICTIONARY
  5
AB
102
{ACAD_REACTORS
330
C
102
}
330
C
100
AcDbDictionary
281
     1
  0
DICTIONARY
  5
17
102
{ACAD_REACTORS
330
C
102
}
330
C
100
AcDbDictionary
281
     1
  3
Standard
350
18
  0
DICTIONARY
  5
19
102
{ACAD_REACTORS
330
C
102
}
330
C
100
AcDbDictionary
281
     1
  0
ACDBDICTIONARYWDFLT
  5
E
102
{ACAD_REACTORS
330
C
102
}
330
C
100
AcDbDictionary
281
     1
  3
Normal
350
F
100
AcDbDictionaryWithDefault
340
F
  0
DICTIONARY
  5
AA
102
{ACAD_REACTORS
330
C
102
}
330
C
100
AcDbDictionary
281
     1
  0
DICTIONARY
  5
2A
102
{ACAD_REACTORS
330
C
102
}
330
C
100
AcDbDictionary
281
     1
  3
2dWireframe
350
2F
  3
3D Hidden
350
31
  3
3dWireframe
350
30
  3
Basic
350
32
  3
Brighten
350
36
  3
ColorChange
350
3A
  3
Conceptual
350
34
  3
Dim
350
35
  3
Facepattern
350
39
  3
Flat
350
2B
  3
FlatWithEdges
350
2C
  3
Gouraud
350
2D
  3
GouraudWithEdges
350
2E
  3
Linepattern
350
38
  3
Realistic
350
33
  3
Thicken
350
37
  0
LAYOUT
  5
1E
102
{ACAD_REACTORS
330
1A
102
}
330
1A
100
AcDbPlotSettings
  1

  2
none_device
  4

  6

 40
0.0
 41
0.0
 42
0.0
 43
0.0
 44
0.0
 45
0.0
 46
0.0
 47
0.0
 48
0.0
 49
0.0
140
0.0
141
0.0
142
1.0
143
1.0
 70
   688
 72
     0
 73
     0
 74
     5
  7

 75
    16
 76
     0
 77
     2
 78
   300
147
1.0
148
0.0
149
0.0
100
AcDbLayout
  1
Layout1
 70
     1
 71
     1
 10
0.0
 20
0.0
 11
12.0
 21
9.0
 12
0.0
 22
0.0
 32
0.0
 14
1.000000000000000E+20
 24
1.000000000000000E+20
 34
1.000000000000000E+20
 15
-1.000000000000000E+20
 25
-1.000000000000000E+20
 35
-1.000000000000000E+20
146
0.0
 13
0.0
 23
0.0
 33
0.0
 16
1.0
 26
0.0
 36
0.0
 17
0.0
 27
1.0
 37
0.0
 76
     0
330
1B
  0
LAYOUT
  5
26
102
{ACAD_REACTORS
330
1A
102
}
330
1A
100
AcDbPlotSettings
  1

  2
none_device
  4

  6

 40
0.0
 41
0.0
 42
0.0
 43
0.0
 44
0.0
 45
0.0
 46
0.0
 47
0.0
 48
0.0
 49
0.0
140
0.0
141
0.0
142
1.0
143
1.0
 70
   688
 72
     0
 73
     0
 74
     5
  7

 75
    16
 76
     0
 77
     2
 78
   300
147
1.0
148
0.0
149
0.0
100
AcDbLayout
  1
Layout2
 70
     1
 71
     2
 10
0.0
 20
0.0
 11
0.0
 21
0.0
 12
0.0
 22
0.0
 32
0.0
 14
0.0
 24
0.0
 34
0.0
 15
0.0
 25
0.0
 35
0.0
146
0.0
 13
0.0
 23
0.0
 33
0.0
 16
1.0
 26
0.0
 36
0.0
 17
0.0
 27
1.0
 37
0.0
 76
     0
330
23
  0
LAYOUT
  5
22
102
{ACAD_REACTORS
330
1A
102
}
330
1A
100
AcDbPlotSettings
  1

  2
none_device
  4

  6

 40
0.0
 41
0.0
 42
0.0
 43
0.0
 44
0.0
 45
0.0
 46
0.0
 47
0.0
 48
0.0
 49
0.0
140
0.0
141
0.0
142
1.0
143
1.0
 70
  1712
 72
     0
 73
     0
 74
     0
  7

 75
     0
 76
     0
 77
     2
 78
   300
147
1.0
148
0.0
149
0.0
100
AcDbLayout
  1
Model
 70
     1
 71
     0
 10
0.0
 20
0.0
 11
12.0
 21
9.0
 12
0.0
 22
0.0
 32
0.0
 14
-187.3842
 24
-115.0348
 34
0.0
 15
-66.0703
 25
131.7354
 35
0.0
146
0.0
 13
0.0
 23
0.0
 33
0.0
 16
1.0
 26
0.0
 36
0.0
 17
0.0
 27
1.0
 37
0.0
 76
     0
330
1F
331
29
  0
MATERIAL
  5
3D
102
{ACAD_REACTORS
330
3B
102
}
330
3B
100
AcDbMaterial
  1
ByBlock
 72
     1
 94
      127
  0
MATERIAL
  5
3C
102
{ACAD_REACTORS
330
3B
102
}
330
3B
100
AcDbMaterial
  1
ByLayer
 72
     1
 94
      127
  0
MATERIAL
  5
3E
102
{ACAD_REACTORS
330
3B
102
}
330
3B
100
AcDbMaterial
  1
Global
 72
     1
 94
      127
  0
MLINESTYLE
  5
18
102
{ACAD_REACTORS
330
17
102
}
330
17
100
AcDbMlineStyle
  2
Standard
 70
     0
  3

 62
   256
 51
90.0
 52
90.0
 71
     2
 49
0.5
 62
   256
  6
BYLAYER
 49
-0.5
 62
   256
  6
BYLAYER
  0
ACDBPLACEHOLDER
  5
F
102
{ACAD_REACTORS
330
E
102
}
330
E
  0
VISUALSTYLE
  5
2F
102
{ACAD_REACTORS
330
2A
102
}
102
{ACAD_XDICTIONARY
360
92
102
}
330
2A
100
AcDbVisualStyle
  2
2dWireframe
 70
     4
 71
     0
 72
     2
 73
     0
 90
        0
 40
-0.6
 41
-30.0
 62
     5
 63
     7
421
 16777215
 74
     1
 91
        4
 64
     7
 65
   257
 75
     1
175
     1
 42
1.0
 92
        0
 66
   257
 43
1.0
 76
     1
 77
     6
 78
     2
 67
     7
 79
     5
170
     0
171
     0
290
     0
174
     0
 93
        1
 44
0.0
173
     0
291
     0
 45
0.0
  0
VISUALSTYLE
  5
31
102
{ACAD_REACTORS
330
2A
102
}
102
{ACAD_XDICTIONARY
360
96
102
}
330
2A
100
AcDbVisualStyle
  2
3D Hidden
 70
     6
 71
     1
 72
     2
 73
     2
 90
        0
 40
-0.6
 41
-30.0
 62
     5
 63
     7
421
 16777215
 74
     2
 91
        2
 64
     7
 65
   257
 75
     2
175
     1
 42
40.0
 92
        0
 66
   257
 43
1.0
 76
     1
 77
     6
 78
     2
 67
     7
 79
     3
170
     0
171
     0
290
     0
174
     0
 93
        1
 44
0.0
173
     0
291
     0
 45
0.0
  0
VISUALSTYLE
  5
30
102
{ACAD_REACTORS
330
2A
102
}
102
{ACAD_XDICTIONARY
360
94
102
}
330
2A
100
AcDbVisualStyle
  2
3dWireframe
 70
     5
 71
     0
 72
     2
 73
     0
 90
        0
 40
-0.6
 41
-30.0
 62
     5
 63
     7
421
 16777215
 74
     1
 91
        4
 64
     7
 65
   257
 75
     1
175
     1
 42
1.0
 92
        0
 66
   257
 43
1.0
 76
     1
 77
     6
 78
     2
 67
     7
 79
     5
170
     0
171
     0
290
     0
174
     0
 93
        1
 44
0.0
173
     0
291
     0
 45
0.0
  0
VISUALSTYLE
  5
32
102
{ACAD_REACTORS
330
2A
102
}
102
{ACAD_XDICTIONARY
360
98
102
}
330
2A
100
AcDbVisualStyle
  2
Basic
 70
     7
 71
     1
 72
     0
 73
     1
 90
        0
 40
-0.6
 41
-30.0
 62
     5
 63
     7
421
 16777215
 74
     0
 91
        4
 64
     7
 65
   257
 75
     1
175
     1
 42
1.0
 92
        8
 66
     7
 43
1.0
 76
     1
 77
     6
 78
     2
 67
     7
 79
     5
170
     0
171
     0
290
     0
174
     0
 93
        1
 44
0.0
173
     0
291
     1
 45
0.0
  0
VISUALSTYLE
  5
36
102
{ACAD_REACTORS
330
2A
102
}
102
{ACAD_XDICTIONARY
360
A0
102
}
330
2A
100
AcDbVisualStyle
  2
Brighten
 70
    12
 71
     2
 72
     2
 73
     0
 90
        0
 40
-0.6
 41
-30.0
 62
     5
 63
     7
421
 16777215
 74
     1
 91
        4
 64
     7
 65
   257
 75
     1
175
     1
 42
1.0
 92
        8
 66
     7
 43
1.0
 76
     1
 77
     6
 78
     2
 67
     7
 79
     5
170
     0
171
     0
290
     0
174
     0
 93
        1
 44
50.0
173
     0
291
     1
 45
0.0
  0
VISUALSTYLE
  5
3A
102
{ACAD_REACTORS
330
2A
102
}
102
{ACAD_XDICTIONARY
360
A8
102
}
330
2A
100
AcDbVisualStyle
  2
ColorChange
 70
    16
 71
     2
 72
     2
 73
     3
 90
        0
 40
-0.6
 41
-30.0
 62
     5
 63
     8
421
  8421504
 74
     1
 91
        4
 64
     7
 65
   257
 75
     1
175
     1
 42
1.0
 92
        8
 66
     8
424
  8421504
 43
1.0
 76
     1
 77
     6
 78
     2
 67
     7
 79
     5
170
     0
171
     0
290
     0
174
     0
 93
        1
 44
0.0
173
     0
291
     1
 45
0.0
  0
VISUALSTYLE
  5
34
102
{ACAD_REACTORS
330
2A
102
}
102
{ACAD_XDICTIONARY
360
9C
102
}
330
2A
100
AcDbVisualStyle
  2
Conceptual
 70
     9
 71
     3
 72
     2
 73
     0
 90
        0
 40
-0.6
 41
-30.0
 62
     5
 63
     7
421
 16777215
 74
     2
 91
        2
 64
     7
 65
   257
 75
     1
175
     1
 42
40.0
 92
        8
 66
     7
 43
1.0
 76
     1
 77
     6
 78
     2
 67
     7
 79
     3
170
     0
171
     0
290
     0
174
     0
 93
        1
 44
0.0
173
     0
291
     0
 45
0.0
  0
VISUALSTYLE
  5
35
102
{ACAD_REACTORS
330
2A
102
}
102
{ACAD_XDICTIONARY
360
9E
102
}
330
2A
100
AcDbVisualStyle
  2
Dim
 70
    11
 71
     2
 72
     2
 73
     0
 90
        0
 40
-0.6
 41
-30.0
 62
     5
 63
     7
421
 16777215
 74
     1
 91
        4
 64
     7
 65
   257
 75
     1
175
     1
 42
1.0
 92
        8
 66
     7
 43
1.0
 76
     1
 77
     6
 78
     2
 67
     7
 79
     5
170
     0
171
     0
290
     0
174
     0
 93
        1
 44
-50.0
173
     0
291
     1
 45
0.0
  0
VISUALSTYLE
  5
39
102
{ACAD_REACTORS
330
2A
102
}
102
{ACAD_XDICTIONARY
360
A6
102
}
330
2A
100
AcDbVisualStyle
  2
Facepattern
 70
    15
 71
     2
 72
     2
 73
     0
 90
        0
 40
-0.6
 41
-30.0
 62
     5
 63
     7
421
 16777215
 74
     1
 91
        4
 64
     7
 65
   257
 75
     1
175
     1
 42
1.0
 92
        8
 66
     7
 43
1.0
 76
     1
 77
     6
 78
     2
 67
     7
 79
     5
170
     0
171
     0
290
     0
174
     0
 93
        1
 44
0.0
173
     0
291
     1
 45
0.0
  0
VISUALSTYLE
  5
2B
102
{ACAD_REACTORS
330
2A
102
}
102
{ACAD_XDICTIONARY
360
8A
102
}
330
2A
100
AcDbVisualStyle
  2
Flat
 70
     0
 71
     2
 72
     1
 73
     1
 90
        2
 40
-0.6
 41
30.0
 62
     5
 63
     7
421
 16777215
 74
     0
 91
        4
 64
     7
 65
   257
 75
     1
175
     1
 42
1.0
 92
        8
 66
     7
 43
1.0
 76
     1
 77
     6
 78
     2
 67
     7
 79
     5
170
     0
171
     0
290
     0
174
     0
 93
       13
 44
0.0
173
     0
291
     1
 45
0.0
  0
VISUALSTYLE
  5
2C
102
{ACAD_REACTORS
330
2A
102
}
102
{ACAD_XDICTIONARY
360
8C
102
}
330
2A
100
AcDbVisualStyle
  2
FlatWithEdges
 70
     1
 71
     2
 72
     1
 73
     1
 90
        2
 40
-0.6
 41
30.0
 62
     5
 63
     7
421
 16777215
 74
     1
 91
        4
 64
     7
 65
   257
 75
     1
175
     1
 42
1.0
 92
        0
 66
   257
 43
1.0
 76
     1
 77
     6
 78
     2
 67
     7
 79
     5
170
     0
171
     0
290
     0
174
     0
 93
       13
 44
0.0
173
     0
291
     1
 45
0.0
  0
VISUALSTYLE
  5
2D
102
{ACAD_REACTORS
330
2A
102
}
102
{ACAD_XDICTIONARY
360
8E
102
}
330
2A
100
AcDbVisualStyle
  2
Gouraud
 70
     2
 71
     2
 72
     2
 73
     1
 90
        2
 40
-0.6
 41
30.0
 62
     5
 63
     7
421
 16777215
 74
     0
 91
        4
 64
     7
 65
   257
 75
     1
175
     1
 42
1.0
 92
        0
 66
     7
 43
1.0
 76
     1
 77
     6
 78
     2
 67
     7
 79
     5
170
     0
171
     0
290
     0
174
     0
 93
       13
 44
0.0
173
     0
291
     1
 45
0.0
  0
VISUALSTYLE
  5
2E
102
{ACAD_REACTORS
330
2A
102
}
102
{ACAD_XDICTIONARY
360
90
102
}
330
2A
100
AcDbVisualStyle
  2
GouraudWithEdges
 70
     3
 71
     2
 72
     2
 73
     1
 90
        2
 40
-0.6
 41
30.0
 62
     5
 63
     7
421
 16777215
 74
     1
 91
        4
 64
     7
 65
   257
 75
     1
175
     1
 42
1.0
 92
        0
 66
   257
 43
1.0
 76
     1
 77
     6
 78
     2
 67
     7
 79
     5
170
     0
171
     0
290
     0
174
     0
 93
       13
 44
0.0
173
     0
291
     1
 45
0.0
  0
VISUALSTYLE
  5
38
102
{ACAD_REACTORS
330
2A
102
}
102
{ACAD_XDICTIONARY
360
A4
102
}
330
2A
100
AcDbVisualStyle
  2
Linepattern
 70
    14
 71
     2
 72
     2
 73
     0
 90
        0
 40
-0.6
 41
-30.0
 62
     5
 63
     7
421
 16777215
 74
     1
 91
        4
 64
     7
 65
   257
 75
     7
175
     7
 42
1.0
 92
        8
 66
     7
 43
1.0
 76
     1
 77
     6
 78
     2
 67
     7
 79
     5
170
     0
171
     0
290
     0
174
     0
 93
        1
 44
0.0
173
     0
291
     1
 45
0.0
  0
VISUALSTYLE
  5
33
102
{ACAD_REACTORS
330
2A
102
}
102
{ACAD_XDICTIONARY
360
9A
102
}
330
2A
100
AcDbVisualStyle
  2
Realistic
 70
     8
 71
     2
 72
     2
 73
     0
 90
        0
 40
-0.6
 41
-30.0
 62
     5
 63
     7
421
 16777215
 74
     1
 91
        0
 64
     7
 65
   257
 75
     1
175
     1
 42
1.0
 92
        8
 66
     8
424
  7895160
 43
1.0
 76
     1
 77
     6
 78
     2
 67
     7
 79
     5
170
     0
171
     0
290
     0
174
     0
 93
       13
 44
0.0
173
     0
291
     0
 45
0.0
  0
VISUALSTYLE
  5
37
102
{ACAD_REACTORS
330
2A
102
}
102
{ACAD_XDICTIONARY
360
A2
102
}
330
2A
100
AcDbVisualStyle
  2
Thicken
 70
    13
 71
     2
 72
     2
 73
     0
 90
        0
 40
-0.6
 41
-30.0
 62
     5
 63
     7
421
 16777215
 74
     1
 91
        4
 64
     7
 65
   257
 75
     1
175
     1
 42
1.0
 92
       12
 66
     7
 43
1.0
 76
     1
 77
     6
 78
     2
 67
     7
 79
     5
170
     0
171
     0
290
     0
174
     0
 93
        1
 44
0.0
173
     0
291
     1
 45
0.0
  0
DICTIONARY
  5
92
330
2F
100
AcDbDictionary
280
     1
281
     1
  3
ACAD_XREC_ROUNDTRIP
360
93
  0
DICTIONARY
  5
96
330
31
100
AcDbDictionary
280
     1
281
     1
  3
ACAD_XREC_ROUNDTRIP
360
97
  0
DICTIONARY
  5
94
330
30
100
AcDbDictionary
280
     1
281
     1
  3
ACAD_XREC_ROUNDTRIP
360
95
  0
DICTIONARY
  5
98
330
32
100
AcDbDictionary
280
     1
281
     1
  3
ACAD_XREC_ROUNDTRIP
360
99
  0
DICTIONARY
  5
A0
330
36
100
AcDbDictionary
280
     1
281
     1
  3
ACAD_XREC_ROUNDTRIP
360
A1
  0
DICTIONARY
  5
A8
330
3A
100
AcDbDictionary
280
     1
281
     1
  3
ACAD_XREC_ROUNDTRIP
360
A9
  0
DICTIONARY
  5
9C
330
34
100
AcDbDictionary
280
     1
281
     1
  3
ACAD_XREC_ROUNDTRIP
360
9D
  0
DICTIONARY
  5
9E
330
35
100
AcDbDictionary
280
     1
281
     1
  3
ACAD_XREC_ROUNDTRIP
360
9F
  0
DICTIONARY
  5
A6
330
39
100
AcDbDictionary
280
     1
281
     1
  3
ACAD_XREC_ROUNDTRIP
360
A7
  0
DICTIONARY
  5
8A
330
2B
100
AcDbDictionary
280
     1
281
     1
  3
ACAD_XREC_ROUNDTRIP
360
8B
  0
DICTIONARY
  5
8C
330
2C
100
AcDbDictionary
280
     1
281
     1
  3
ACAD_XREC_ROUNDTRIP
360
8D
  0
DICTIONARY
  5
8E
330
2D
100
AcDbDictionary
280
     1
281
     1
  3
ACAD_XREC_ROUNDTRIP
360
8F
  0
DICTIONARY
  5
90
330
2E
100
AcDbDictionary
280
     1
281
     1
  3
ACAD_XREC_ROUNDTRIP
360
91
  0
DICTIONARY
  5
A4
330
38
100
AcDbDictionary
280
     1
281
     1
  3
ACAD_XREC_ROUNDTRIP
360
A5
  0
DICTIONARY
  5
9A
330
33
100
AcDbDictionary
280
     1
281
     1
  3
ACAD_XREC_ROUNDTRIP
360
9B
  0
DICTIONARY
  5
A2
330
37
100
AcDbDictionary
280
     1
281
     1
  3
ACAD_XREC_ROUNDTRIP
360
A3
  0
XRECORD
  5
93
102
{ACAD_REACTORS
330
92
102
}
330
92
100
AcDbXrecord
280
     1
102
RTVSPropertyOp0
 70
     1
102
RTVSPropertyOp1
 70
     1
102
RTVSPropertyOp2
 70
     1
102
RTVSPropertyOp3
 70
     1
102
RTVSPropertyOp4
 70
     1
102
RTVSPropertyOp5
 70
     1
102
RTVSPropertyOp6
 70
     1
102
RTVSPropertyOp7
 70
     1
102
RTVSPropertyOp8
 70
     1
102
RTVSPropertyOp9
 70
     1
102
RTVSPropertyOp10
 70
     1
102
RTVSPropertyOp11
 70
     1
102
RTVSPropertyOp12
 70
     1
102
RTVSPropertyOp13
 70
     1
102
RTVSPropertyOp14
 70
     1
102
RTVSPropertyOp15
 70
     1
102
RTVSPropertyOp16
 70
     1
102
RTVSPropertyOp17
 70
     1
102
RTVSPropertyOp18
 70
     1
102
RTVSPropertyOp19
 70
     1
102
RTVSPropertyOp20
 70
     1
102
RTVSPropertyOp21
 70
     1
102
RTVSPropertyOp22
 70
     1
102
RTVSPropertyOp23
 70
     1
102
RTVSPropertyOp24
 70
     1
102
RTVSPropertyOp25
 70
     1
102
RTVSPropertyOp26
 70
     1
102
RTVSPropertyOp27
 70
     1
102
RTVSPropertyOp28
 70
     1
102
RTVSPropertyOp29
 70
     1
102
RTVSPropertyOp30
 70
     1
102
RTVSPropertyOp31
 70
     1
102
RTVSPropertyOp32
 70
     1
  0
XRECORD
  5
97
102
{ACAD_REACTORS
330
96
102
}
330
96
100
AcDbXrecord
280
     1
102
RTVSPropertyOp0
 70
     1
102
RTVSPropertyOp1
 70
     1
102
RTVSPropertyOp2
 70
     1
102
RTVSPropertyOp3
 70
     1
102
RTVSPropertyOp4
 70
     1
102
RTVSPropertyOp5
 70
     1
102
RTVSPropertyOp6
 70
     1
102
RTVSPropertyOp7
 70
     1
102
RTVSPropertyOp8
 70
     1
102
RTVSPropertyOp9
 70
     1
102
RTVSPropertyOp10
 70
     1
102
RTVSPropertyOp11
 70
     1
102
RTVSPropertyOp12
 70
     1
102
RTVSPropertyOp13
 70
     1
102
RTVSPropertyOp14
 70
     1
102
RTVSPropertyOp15
 70
     1
102
RTVSPropertyOp16
 70
     1
102
RTVSPropertyOp17
 70
     1
102
RTVSPropertyOp18
 70
     1
102
RTVSPropertyOp19
 70
     1
102
RTVSPropertyOp20
 70
     1
102
RTVSPropertyOp21
 70
     1
102
RTVSPropertyOp22
 70
     1
102
RTVSPropertyOp23
 70
     1
102
RTVSPropertyOp24
 70
     1
102
RTVSPropertyOp25
 70
     1
102
RTVSPropertyOp26
 70
     1
102
RTVSPropertyOp27
 70
     1
102
RTVSPropertyOp28
 70
     1
102
RTVSPropertyOp29
 70
     1
102
RTVSPropertyOp30
 70
     1
102
RTVSPropertyOp31
 70
     1
102
RTVSPropertyOp32
 70
     1
  0
XRECORD
  5
95
102
{ACAD_REACTORS
330
94
102
}
330
94
100
AcDbXrecord
280
     1
102
RTVSPropertyOp0
 70
     1
102
RTVSPropertyOp1
 70
     1
102
RTVSPropertyOp2
 70
     1
102
RTVSPropertyOp3
 70
     1
102
RTVSPropertyOp4
 70
     1
102
RTVSPropertyOp5
 70
     1
102
RTVSPropertyOp6
 70
     1
102
RTVSPropertyOp7
 70
     1
102
RTVSPropertyOp8
 70
     1
102
RTVSPropertyOp9
 70
     1
102
RTVSPropertyOp10
 70
     1
102
RTVSPropertyOp11
 70
     1
102
RTVSPropertyOp12
 70
     1
102
RTVSPropertyOp13
 70
     1
102
RTVSPropertyOp14
 70
     1
102
RTVSPropertyOp15
 70
     1
102
RTVSPropertyOp16
 70
     1
102
RTVSPropertyOp17
 70
     1
102
RTVSPropertyOp18
 70
     1
102
RTVSPropertyOp19
 70
     1
102
RTVSPropertyOp20
 70
     1
102
RTVSPropertyOp21
 70
     1
102
RTVSPropertyOp22
 70
     1
102
RTVSPropertyOp23
 70
     1
102
RTVSPropertyOp24
 70
     1
102
RTVSPropertyOp25
 70
     1
102
RTVSPropertyOp26
 70
     1
102
RTVSPropertyOp27
 70
     1
102
RTVSPropertyOp28
 70
     1
102
RTVSPropertyOp29
 70
     1
102
RTVSPropertyOp30
 70
     1
102
RTVSPropertyOp31
 70
     1
102
RTVSPropertyOp32
 70
     1
  0
XRECORD
  5
99
102
{ACAD_REACTORS
330
98
102
}
330
98
100
AcDbXrecord
280
     1
102
RTVSPropertyOp0
 70
     1
102
RTVSPropertyOp1
 70
     1
102
RTVSPropertyOp2
 70
     1
102
RTVSPropertyOp3
 70
     1
102
RTVSPropertyOp4
 70
     1
102
RTVSPropertyOp5
 70
     1
102
RTVSPropertyOp6
 70
     1
102
RTVSPropertyOp7
 70
     1
102
RTVSPropertyOp8
 70
     1
102
RTVSPropertyOp9
 70
     1
102
RTVSPropertyOp10
 70
     1
102
RTVSPropertyOp11
 70
     1
102
RTVSPropertyOp12
 70
     1
102
RTVSPropertyOp13
 70
     1
102
RTVSPropertyOp14
 70
     1
102
RTVSPropertyOp15
 70
     1
102
RTVSPropertyOp16
 70
     1
102
RTVSPropertyOp17
 70
     1
102
RTVSPropertyOp18
 70
     1
102
RTVSPropertyOp19
 70
     1
102
RTVSPropertyOp20
 70
     1
102
RTVSPropertyOp21
 70
     1
102
RTVSPropertyOp22
 70
     1
102
RTVSPropertyOp23
 70
     1
102
RTVSPropertyOp24
 70
     1
102
RTVSPropertyOp25
 70
     1
102
RTVSPropertyOp26
 70
     1
102
RTVSPropertyOp27
 70
     1
102
RTVSPropertyOp28
 70
     1
102
RTVSPropertyOp29
 70
     1
102
RTVSPropertyOp30
 70
     1
102
RTVSPropertyOp31
 70
     1
102
RTVSPropertyOp32
 70
     1
  0
XRECORD
  5
A1
102
{ACAD_REACTORS
330
A0
102
}
330
A0
100
AcDbXrecord
280
     1
102
RTVSPropertyOp0
 70
     1
102
RTVSPropertyOp1
 70
     1
102
RTVSPropertyOp2
 70
     1
102
RTVSPropertyOp3
 70
     1
102
RTVSPropertyOp4
 70
     1
102
RTVSPropertyOp5
 70
     1
102
RTVSPropertyOp6
 70
     1
102
RTVSPropertyOp7
 70
     1
102
RTVSPropertyOp8
 70
     1
102
RTVSPropertyOp9
 70
     1
102
RTVSPropertyOp10
 70
     1
102
RTVSPropertyOp11
 70
     1
102
RTVSPropertyOp12
 70
     1
102
RTVSPropertyOp13
 70
     1
102
RTVSPropertyOp14
 70
     1
102
RTVSPropertyOp15
 70
     1
102
RTVSPropertyOp16
 70
     1
102
RTVSPropertyOp17
 70
     1
102
RTVSPropertyOp18
 70
     1
102
RTVSPropertyOp19
 70
     1
102
RTVSPropertyOp20
 70
     1
102
RTVSPropertyOp21
 70
     1
102
RTVSPropertyOp22
 70
     1
102
RTVSPropertyOp23
 70
     1
102
RTVSPropertyOp24
 70
     1
102
RTVSPropertyOp25
 70
     1
102
RTVSPropertyOp26
 70
     1
102
RTVSPropertyOp27
 70
     1
102
RTVSPropertyOp28
 70
     1
102
RTVSPropertyOp29
 70
     1
102
RTVSPropertyOp30
 70
     1
102
RTVSPropertyOp31
 70
     1
102
RTVSPropertyOp32
 70
     1
  0
XRECORD
  5
A9
102
{ACAD_REACTORS
330
A8
102
}
330
A8
100
AcDbXrecord
280
     1
102
RTVSPropertyOp0
 70
     1
102
RTVSPropertyOp1
 70
     1
102
RTVSPropertyOp2
 70
     1
102
RTVSPropertyOp3
 70
     1
102
RTVSPropertyOp4
 70
     1
102
RTVSPropertyOp5
 70
     1
102
RTVSPropertyOp6
 70
     1
102
RTVSPropertyOp7
 70
     1
102
RTVSPropertyOp8
 70
     1
102
RTVSPropertyOp9
 70
     1
102
RTVSPropertyOp10
 70
     1
102
RTVSPropertyOp11
 70
     1
102
RTVSPropertyOp12
 70
     1
102
RTVSPropertyOp13
 70
     1
102
RTVSPropertyOp14
 70
     1
102
RTVSPropertyOp15
 70
     1
102
RTVSPropertyOp16
 70
     1
102
RTVSPropertyOp17
 70
     1
102
RTVSPropertyOp18
 70
     1
102
RTVSPropertyOp19
 70
     1
102
RTVSPropertyOp20
 70
     1
102
RTVSPropertyOp21
 70
     1
102
RTVSPropertyOp22
 70
     1
102
RTVSPropertyOp23
 70
     1
102
RTVSPropertyOp24
 70
     1
102
RTVSPropertyOp25
 70
     1
102
RTVSPropertyOp26
 70
     1
102
RTVSPropertyOp27
 70
     1
102
RTVSPropertyOp28
 70
     1
102
RTVSPropertyOp29
 70
     1
102
RTVSPropertyOp30
 70
     1
102
RTVSPropertyOp31
 70
     1
102
RTVSPropertyOp32
 70
     1
  0
XRECORD
  5
9D
102
{ACAD_REACTORS
330
9C
102
}
330
9C
100
AcDbXrecord
280
     1
102
RTVSPropertyOp0
 70
     1
102
RTVSPropertyOp1
 70
     1
102
RTVSPropertyOp2
 70
     1
102
RTVSPropertyOp3
 70
     1
102
RTVSPropertyOp4
 70
     1
102
RTVSPropertyOp5
 70
     1
102
RTVSPropertyOp6
 70
     1
102
RTVSPropertyOp7
 70
     1
102
RTVSPropertyOp8
 70
     1
102
RTVSPropertyOp9
 70
     1
102
RTVSPropertyOp10
 70
     1
102
RTVSPropertyOp11
 70
     1
102
RTVSPropertyOp12
 70
     1
102
RTVSPropertyOp13
 70
     1
102
RTVSPropertyOp14
 70
     1
102
RTVSPropertyOp15
 70
     1
102
RTVSPropertyOp16
 70
     1
102
RTVSPropertyOp17
 70
     1
102
RTVSPropertyOp18
 70
     1
102
RTVSPropertyOp19
 70
     1
102
RTVSPropertyOp20
 70
     1
102
RTVSPropertyOp21
 70
     1
102
RTVSPropertyOp22
 70
     1
102
RTVSPropertyOp23
 70
     1
102
RTVSPropertyOp24
 70
     1
102
RTVSPropertyOp25
 70
     1
102
RTVSPropertyOp26
 70
     1
102
RTVSPropertyOp27
 70
     1
102
RTVSPropertyOp28
 70
     1
102
RTVSPropertyOp29
 70
     1
102
RTVSPropertyOp30
 70
     1
102
RTVSPropertyOp31
 70
     1
102
RTVSPropertyOp32
 70
     1
  0
XRECORD
  5
9F
102
{ACAD_REACTORS
330
9E
102
}
330
9E
100
AcDbXrecord
280
     1
102
RTVSPropertyOp0
 70
     1
102
RTVSPropertyOp1
 70
     1
102
RTVSPropertyOp2
 70
     1
102
RTVSPropertyOp3
 70
     1
102
RTVSPropertyOp4
 70
     1
102
RTVSPropertyOp5
 70
     1
102
RTVSPropertyOp6
 70
     1
102
RTVSPropertyOp7
 70
     1
102
RTVSPropertyOp8
 70
     1
102
RTVSPropertyOp9
 70
     1
102
RTVSPropertyOp10
 70
     1
102
RTVSPropertyOp11
 70
     1
102
RTVSPropertyOp12
 70
     1
102
RTVSPropertyOp13
 70
     1
102
RTVSPropertyOp14
 70
     1
102
RTVSPropertyOp15
 70
     1
102
RTVSPropertyOp16
 70
     1
102
RTVSPropertyOp17
 70
     1
102
RTVSPropertyOp18
 70
     1
102
RTVSPropertyOp19
 70
     1
102
RTVSPropertyOp20
 70
     1
102
RTVSPropertyOp21
 70
     1
102
RTVSPropertyOp22
 70
     1
102
RTVSPropertyOp23
 70
     1
102
RTVSPropertyOp24
 70
     1
102
RTVSPropertyOp25
 70
     1
102
RTVSPropertyOp26
 70
     1
102
RTVSPropertyOp27
 70
     1
102
RTVSPropertyOp28
 70
     1
102
RTVSPropertyOp29
 70
     1
102
RTVSPropertyOp30
 70
     1
102
RTVSPropertyOp31
 70
     1
102
RTVSPropertyOp32
 70
     1
  0
XRECORD
  5
A7
102
{ACAD_REACTORS
330
A6
102
}
330
A6
100
AcDbXrecord
280
     1
102
RTVSPropertyOp0
 70
     1
102
RTVSPropertyOp1
 70
     1
102
RTVSPropertyOp2
 70
     1
102
RTVSPropertyOp3
 70
     1
102
RTVSPropertyOp4
 70
     1
102
RTVSPropertyOp5
 70
     1
102
RTVSPropertyOp6
 70
     1
102
RTVSPropertyOp7
 70
     1
102
RTVSPropertyOp8
 70
     1
102
RTVSPropertyOp9
 70
     1
102
RTVSPropertyOp10
 70
     1
102
RTVSPropertyOp11
 70
     1
102
RTVSPropertyOp12
 70
     1
102
RTVSPropertyOp13
 70
     1
102
RTVSPropertyOp14
 70
     1
102
RTVSPropertyOp15
 70
     1
102
RTVSPropertyOp16
 70
     1
102
RTVSPropertyOp17
 70
     1
102
RTVSPropertyOp18
 70
     1
102
RTVSPropertyOp19
 70
     1
102
RTVSPropertyOp20
 70
     1
102
RTVSPropertyOp21
 70
     1
102
RTVSPropertyOp22
 70
     1
102
RTVSPropertyOp23
 70
     1
102
RTVSPropertyOp24
 70
     1
102
RTVSPropertyOp25
 70
     1
102
RTVSPropertyOp26
 70
     1
102
RTVSPropertyOp27
 70
     1
102
RTVSPropertyOp28
 70
     1
102
RTVSPropertyOp29
 70
     1
102
RTVSPropertyOp30
 70
     1
102
RTVSPropertyOp31
 70
     1
102
RTVSPropertyOp32
 70
     1
  0
XRECORD
  5
8B
102
{ACAD_REACTORS
330
8A
102
}
330
8A
100
AcDbXrecord
280
     1
102
RTVSPropertyOp0
 70
     1
102
RTVSPropertyOp1
 70
     1
102
RTVSPropertyOp2
 70
     1
102
RTVSPropertyOp3
 70
     1
102
RTVSPropertyOp4
 70
     1
102
RTVSPropertyOp5
 70
     1
102
RTVSPropertyOp6
 70
     1
102
RTVSPropertyOp7
 70
     1
102
RTVSPropertyOp8
 70
     1
102
RTVSPropertyOp9
 70
     1
102
RTVSPropertyOp10
 70
     1
102
RTVSPropertyOp11
 70
     1
102
RTVSPropertyOp12
 70
     1
102
RTVSPropertyOp13
 70
     1
102
RTVSPropertyOp14
 70
     1
102
RTVSPropertyOp15
 70
     1
102
RTVSPropertyOp16
 70
     1
102
RTVSPropertyOp17
 70
     1
102
RTVSPropertyOp18
 70
     1
102
RTVSPropertyOp19
 70
     1
102
RTVSPropertyOp20
 70
     1
102
RTVSPropertyOp21
 70
     1
102
RTVSPropertyOp22
 70
     1
102
RTVSPropertyOp23
 70
     1
102
RTVSPropertyOp24
 70
     1
102
RTVSPropertyOp25
 70
     1
102
RTVSPropertyOp26
 70
     1
102
RTVSPropertyOp27
 70
     1
102
RTVSPropertyOp28
 70
     1
102
RTVSPropertyOp29
 70
     1
102
RTVSPropertyOp30
 70
     1
102
RTVSPropertyOp31
 70
     1
102
RTVSPropertyOp32
 70
     1
  0
XRECORD
  5
8D
102
{ACAD_REACTORS
330
8C
102
}
330
8C
100
AcDbXrecord
280
     1
102
RTVSPropertyOp0
 70
     1
102
RTVSPropertyOp1
 70
     1
102
RTVSPropertyOp2
 70
     1
102
RTVSPropertyOp3
 70
     1
102
RTVSPropertyOp4
 70
     1
102
RTVSPropertyOp5
 70
     1
102
RTVSPropertyOp6
 70
     1
102
RTVSPropertyOp7
 70
     1
102
RTVSPropertyOp8
 70
     1
102
RTVSPropertyOp9
 70
     1
102
RTVSPropertyOp10
 70
     1
102
RTVSPropertyOp11
 70
     1
102
RTVSPropertyOp12
 70
     1
102
RTVSPropertyOp13
 70
     1
102
RTVSPropertyOp14
 70
     1
102
RTVSPropertyOp15
 70
     1
102
RTVSPropertyOp16
 70
     1
102
RTVSPropertyOp17
 70
     1
102
RTVSPropertyOp18
 70
     1
102
RTVSPropertyOp19
 70
     1
102
RTVSPropertyOp20
 70
     1
102
RTVSPropertyOp21
 70
     1
102
RTVSPropertyOp22
 70
     1
102
RTVSPropertyOp23
 70
     1
102
RTVSPropertyOp24
 70
     1
102
RTVSPropertyOp25
 70
     1
102
RTVSPropertyOp26
 70
     1
102
RTVSPropertyOp27
 70
     1
102
RTVSPropertyOp28
 70
     1
102
RTVSPropertyOp29
 70
     1
102
RTVSPropertyOp30
 70
     1
102
RTVSPropertyOp31
 70
     1
102
RTVSPropertyOp32
 70
     1
  0
XRECORD
  5
8F
102
{ACAD_REACTORS
330
8E
102
}
330
8E
100
AcDbXrecord
280
     1
102
RTVSPropertyOp0
 70
     1
102
RTVSPropertyOp1
 70
     1
102
RTVSPropertyOp2
 70
     1
102
RTVSPropertyOp3
 70
     1
102
RTVSPropertyOp4
 70
     1
102
RTVSPropertyOp5
 70
     1
102
RTVSPropertyOp6
 70
     1
102
RTVSPropertyOp7
 70
     1
102
RTVSPropertyOp8
 70
     1
102
RTVSPropertyOp9
 70
     1
102
RTVSPropertyOp10
 70
     1
102
RTVSPropertyOp11
 70
     1
102
RTVSPropertyOp12
 70
     1
102
RTVSPropertyOp13
 70
     1
102
RTVSPropertyOp14
 70
     1
102
RTVSPropertyOp15
 70
     1
102
RTVSPropertyOp16
 70
     1
102
RTVSPropertyOp17
 70
     1
102
RTVSPropertyOp18
 70
     1
102
RTVSPropertyOp19
 70
     1
102
RTVSPropertyOp20
 70
     1
102
RTVSPropertyOp21
 70
     1
102
RTVSPropertyOp22
 70
     1
102
RTVSPropertyOp23
 70
     1
102
RTVSPropertyOp24
 70
     1
102
RTVSPropertyOp25
 70
     1
102
RTVSPropertyOp26
 70
     1
102
RTVSPropertyOp27
 70
     1
102
RTVSPropertyOp28
 70
     1
102
RTVSPropertyOp29
 70
     1
102
RTVSPropertyOp30
 70
     1
102
RTVSPropertyOp31
 70
     1
102
RTVSPropertyOp32
 70
     1
  0
XRECORD
  5
91
102
{ACAD_REACTORS
330
90
102
}
330
90
100
AcDbXrecord
280
     1
102
RTVSPropertyOp0
 70
     1
102
RTVSPropertyOp1
 70
     1
102
RTVSPropertyOp2
 70
     1
102
RTVSPropertyOp3
 70
     1
102
RTVSPropertyOp4
 70
     1
102
RTVSPropertyOp5
 70
     1
102
RTVSPropertyOp6
 70
     1
102
RTVSPropertyOp7
 70
     1
102
RTVSPropertyOp8
 70
     1
102
RTVSPropertyOp9
 70
     1
102
RTVSPropertyOp10
 70
     1
102
RTVSPropertyOp11
 70
     1
102
RTVSPropertyOp12
 70
     1
102
RTVSPropertyOp13
 70
     1
102
RTVSPropertyOp14
 70
     1
102
RTVSPropertyOp15
 70
     1
102
RTVSPropertyOp16
 70
     1
102
RTVSPropertyOp17
 70
     1
102
RTVSPropertyOp18
 70
     1
102
RTVSPropertyOp19
 70
     1
102
RTVSPropertyOp20
 70
     1
102
RTVSPropertyOp21
 70
     1
102
RTVSPropertyOp22
 70
     1
102
RTVSPropertyOp23
 70
     1
102
RTVSPropertyOp24
 70
     1
102
RTVSPropertyOp25
 70
     1
102
RTVSPropertyOp26
 70
     1
102
RTVSPropertyOp27
 70
     1
102
RTVSPropertyOp28
 70
     1
102
RTVSPropertyOp29
 70
     1
102
RTVSPropertyOp30
 70
     1
102
RTVSPropertyOp31
 70
     1
102
RTVSPropertyOp32
 70
     1
  0
XRECORD
  5
A5
102
{ACAD_REACTORS
330
A4
102
}
330
A4
100
AcDbXrecord
280
     1
102
RTVSPropertyOp0
 70
     1
102
RTVSPropertyOp1
 70
     1
102
RTVSPropertyOp2
 70
     1
102
RTVSPropertyOp3
 70
     1
102
RTVSPropertyOp4
 70
     1
102
RTVSPropertyOp5
 70
     1
102
RTVSPropertyOp6
 70
     1
102
RTVSPropertyOp7
 70
     1
102
RTVSPropertyOp8
 70
     1
102
RTVSPropertyOp9
 70
     1
102
RTVSPropertyOp10
 70
     1
102
RTVSPropertyOp11
 70
     1
102
RTVSPropertyOp12
 70
     1
102
RTVSPropertyOp13
 70
     1
102
RTVSPropertyOp14
 70
     1
102
RTVSPropertyOp15
 70
     1
102
RTVSPropertyOp16
 70
     1
102
RTVSPropertyOp17
 70
     1
102
RTVSPropertyOp18
 70
     1
102
RTVSPropertyOp19
 70
     1
102
RTVSPropertyOp20
 70
     1
102
RTVSPropertyOp21
 70
     1
102
RTVSPropertyOp22
 70
     1
102
RTVSPropertyOp23
 70
     1
102
RTVSPropertyOp24
 70
     1
102
RTVSPropertyOp25
 70
     1
102
RTVSPropertyOp26
 70
     1
102
RTVSPropertyOp27
 70
     1
102
RTVSPropertyOp28
 70
     1
102
RTVSPropertyOp29
 70
     1
102
RTVSPropertyOp30
 70
     1
102
RTVSPropertyOp31
 70
     1
102
RTVSPropertyOp32
 70
     1
  0
XRECORD
  5
9B
102
{ACAD_REACTORS
330
9A
102
}
330
9A
100
AcDbXrecord
280
     1
102
RTVSPropertyOp0
 70
     1
102
RTVSPropertyOp1
 70
     1
102
RTVSPropertyOp2
 70
     1
102
RTVSPropertyOp3
 70
     1
102
RTVSPropertyOp4
 70
     1
102
RTVSPropertyOp5
 70
     1
102
RTVSPropertyOp6
 70
     1
102
RTVSPropertyOp7
 70
     1
102
RTVSPropertyOp8
 70
     1
102
RTVSPropertyOp9
 70
     1
102
RTVSPropertyOp10
 70
     1
102
RTVSPropertyOp11
 70
     1
102
RTVSPropertyOp12
 70
     1
102
RTVSPropertyOp13
 70
     1
102
RTVSPropertyOp14
 70
     1
102
RTVSPropertyOp15
 70
     1
102
RTVSPropertyOp16
 70
     1
102
RTVSPropertyOp17
 70
     1
102
RTVSPropertyOp18
 70
     1
102
RTVSPropertyOp19
 70
     1
102
RTVSPropertyOp20
 70
     1
102
RTVSPropertyOp21
 70
     1
102
RTVSPropertyOp22
 70
     1
102
RTVSPropertyOp23
 70
     1
102
RTVSPropertyOp24
 70
     1
102
RTVSPropertyOp25
 70
     1
102
RTVSPropertyOp26
 70
     1
102
RTVSPropertyOp27
 70
     1
102
RTVSPropertyOp28
 70
     1
102
RTVSPropertyOp29
 70
     1
102
RTVSPropertyOp30
 70
     1
102
RTVSPropertyOp31
 70
     1
102
RTVSPropertyOp32
 70
     1
  0
XRECORD
  5
A3
102
{ACAD_REACTORS
330
A2
102
}
330
A2
100
AcDbXrecord
280
     1
102
RTVSPropertyOp0
 70
     1
102
RTVSPropertyOp1
 70
     1
102
RTVSPropertyOp2
 70
     1
102
RTVSPropertyOp3
 70
     1
102
RTVSPropertyOp4
 70
     1
102
RTVSPropertyOp5
 70
     1
102
RTVSPropertyOp6
 70
     1
102
RTVSPropertyOp7
 70
     1
102
RTVSPropertyOp8
 70
     1
102
RTVSPropertyOp9
 70
     1
102
RTVSPropertyOp10
 70
     1
102
RTVSPropertyOp11
 70
     1
102
RTVSPropertyOp12
 70
     1
102
RTVSPropertyOp13
 70
     1
102
RTVSPropertyOp14
 70
     1
102
RTVSPropertyOp15
 70
     1
102
RTVSPropertyOp16
 70
     1
102
RTVSPropertyOp17
 70
     1
102
RTVSPropertyOp18
 70
     1
102
RTVSPropertyOp19
 70
     1
102
RTVSPropertyOp20
 70
     1
102
RTVSPropertyOp21
 70
     1
102
RTVSPropertyOp22
 70
     1
102
RTVSPropertyOp23
 70
     1
102
RTVSPropertyOp24
 70
     1
102
RTVSPropertyOp25
 70
     1
102
RTVSPropertyOp26
 70
     1
102
RTVSPropertyOp27
 70
     1
102
RTVSPropertyOp28
 70
     1
102
RTVSPropertyOp29
 70
     1
102
RTVSPropertyOp30
 70
     1
102
RTVSPropertyOp31
 70
     1
102
RTVSPropertyOp32
 70
     1
  0
ENDSEC
  0
EOF
