  0
SECTION
  2
HEADER
  9
$ACADVER
  1
AC1021
  9
$ACADMAINTVER
 70
    25
  9
$DWGCODEPAGE
  3
ANSI_1256
  9
$INSBASE
 10
0.0
 20
0.0
 30
0.0
  9
$EXTMIN
 10
-46.6545
 20
-114.9498
 30
0.0
  9
$EXTMAX
 10
196.3735
 20
131.7435
 30
0.0
  9
$LIMMIN
 10
0.0
 20
0.0
  9
$LIMMAX
 10
12.0
 20
9.0
  9
$ORTHOMODE
 70
     0
  9
$REGENMODE
 70
     1
  9
$FILLMODE
 70
     1
  9
$QTEXTMODE
 70
     0
  9
$MIRRTEXT
 70
     1
  9
$LTSCALE
 40
1.0
  9
$ATTMODE
 70
     1
  9
$TEXTSIZE
 40
0.2
  9
$TRACEWID
 40
0.05
  9
$TEXTSTYLE
  7
Standard
  9
$CLAYER
  8
0
  9
$CELTYPE
  6
ByLayer
  9
$CECOLOR
 62
   256
  9
$CELTSCALE
 40
1.0
  9
$DISPSILH
 70
     0
  9
$DIMSCALE
 40
1.0
  9
$DIMASZ
 40
0.18
  9
$DIMEXO
 40
0.0625
  9
$DIMDLI
 40
0.38
  9
$DIMRND
 40
0.0
  9
$DIMDLE
 40
0.0
  9
$DIMEXE
 40
0.18
  9
$DIMTP
 40
0.0
  9
$DIMTM
 40
0.0
  9
$DIMTXT
 40
0.18
  9
$DIMCEN
 40
0.09
  9
$DIMTSZ
 40
0.0
  9
$DIMTOL
 70
     0
  9
$DIMLIM
 70
     0
  9
$DIMTIH
 70
     1
  9
$DIMTOH
 70
     1
  9
$DIMSE1
 70
     0
  9
$DIMSE2
 70
     0
  9
$DIMTAD
 70
     0
  9
$DIMZIN
 70
     0
  9
$DIMBLK
  1

  9
$DIMASO
 70
     1
  9
$DIMSHO
 70
     1
  9
$DIMPOST
  1

  9
$DIMAPOST
  1

  9
$DIMALT
 70
     0
  9
$DIMALTD
 70
     2
  9
$DIMALTF
 40
25.4
  9
$DIMLFAC
 40
1.0
  9
$DIMTOFL
 70
     0
  9
$DIMTVP
 40
0.0
  9
$DIMTIX
 70
     0
  9
$DIMSOXD
 70
     0
  9
$DIMSAH
 70
     0
  9
$DIMBLK1
  1

  9
$DIMBLK2
  1

  9
$DIMSTYLE
  2
Standard
  9
$DIMCLRD
 70
     0
  9
$DIMCLRE
 70
     0
  9
$DIMCLRT
 70
     0
  9
$DIMTFAC
 40
1.0
  9
$DIMGAP
 40
0.09
  9
$DIMJUST
 70
     0
  9
$DIMSD1
 70
     0
  9
$DIMSD2
 70
     0
  9
$DIMTOLJ
 70
     1
  9
$DIMTZIN
 70
     0
  9
$DIMALTZ
 70
     0
  9
$DIMALTTZ
 70
     0
  9
$DIMUPT
 70
     0
  9
$DIMDEC
 70
     4
  9
$DIMTDEC
 70
     4
  9
$DIMALTU
 70
     2
  9
$DIMALTTD
 70
     2
  9
$DIMTXSTY
  7
Standard
  9
$DIMAUNIT
 70
     0
  9
$DIMADEC
 70
     0
  9
$DIMALTRND
 40
0.0
  9
$DIMAZIN
 70
     0
  9
$DIMDSEP
 70
    46
  9
$DIMATFIT
 70
     3
  9
$DIMFRAC
 70
     0
  9
$DIMLDRBLK
  1

  9
$DIMLUNIT
 70
     2
  9
$DIMLWD
 70
    -2
  9
$DIMLWE
 70
    -2
  9
$DIMTMOVE
 70
     0
  9
$DIMFXL
 40
1.0
  9
$DIMFXLON
 70
     0
  9
$DIMJOGANG
 40
0.7853981633974483
  9
$DIMTFILL
 70
     0
  9
$DIMTFILLCLR
 70
     0
  9
$DIMARCSYM
 70
     0
  9
$DIMLTYPE
  6

  9
$DIMLTEX1
  6

  9
$DIMLTEX2
  6

  9
$LUNITS
 70
     2
  9
$LUPREC
 70
     4
  9
$SKETCHINC
 40
0.1
  9
$FILLETRAD
 40
0.5
  9
$AUNITS
 70
     0
  9
$AUPREC
 70
     0
  9
$MENU
  1
.
  9
$ELEVATION
 40
0.0
  9
$PELEVATION
 40
0.0
  9
$THICKNESS
 40
0.0
  9
$LIMCHECK
 70
     0
  9
$CHAMFERA
 40
0.5
  9
$CHAMFERB
 40
0.5
  9
$CHAMFERC
 40
1.0
  9
$CHAMFERD
 40
0.0
  9
$SKPOLY
 70
     0
  9
$TDCREATE
 40
2458492.943316273
  9
$TDUCREATE
 40
2458492.776649606
  9
$TDUPDATE
 40
2458492.943316401
  9
$TDUUPDATE
 40
2458492.776649734
  9
$TDINDWG
 40
0.0000000116
  9
$TDUSRTIMER
 40
0.0000000116
  9
$USRTIMER
 70
     1
  9
$ANGBASE
 50
0.0
  9
$ANGDIR
 70
     0
  9
$PDMODE
 70
     0
  9
$PDSIZE
 40
0.0
  9
$PLINEWID
 40
0.0
  9
$SPLFRAME
 70
     0
  9
$SPLINETYPE
 70
     6
  9
$SPLINESEGS
 70
     8
  9
$HANDSEED
  5
99
  9
$SURFTAB1
 70
     6
  9
$SURFTAB2
 70
     6
  9
$SURFTYPE
 70
     6
  9
$SURFU
 70
     6
  9
$SURFV
 70
     6
  9
$UCSBASE
  2

  9
$UCSNAME
  2

  9
$UCSORG
 10
0.0
 20
0.0
 30
0.0
  9
$UCSXDIR
 10
1.0
 20
0.0
 30
0.0
  9
$UCSYDIR
 10
0.0
 20
1.0
 30
0.0
  9
$UCSORTHOREF
  2

  9
$UCSORTHOVIEW
 70
     0
  9
$UCSORGTOP
 10
0.0
 20
0.0
 30
0.0
  9
$UCSORGBOTTOM
 10
0.0
 20
0.0
 30
0.0
  9
$UCSORGLEFT
 10
0.0
 20
0.0
 30
0.0
  9
$UCSORGRIGHT
 10
0.0
 20
0.0
 30
0.0
  9
$UCSORGFRONT
 10
0.0
 20
0.0
 30
0.0
  9
$UCSORGBACK
 10
0.0
 20
0.0
 30
0.0
  9
$PUCSBASE
  2

  9
$PUCSNAME
  2

  9
$PUCSORG
 10
0.0
 20
0.0
 30
0.0
  9
$PUCSXDIR
 10
1.0
 20
0.0
 30
0.0
  9
$PUCSYDIR
 10
0.0
 20
1.0
 30
0.0
  9
$PUCSORTHOREF
  2

  9
$PUCSORTHOVIEW
 70
     0
  9
$PUCSORGTOP
 10
0.0
 20
0.0
 30
0.0
  9
$PUCSORGBOTTOM
 10
0.0
 20
0.0
 30
0.0
  9
$PUCSORGLEFT
 10
0.0
 20
0.0
 30
0.0
  9
$PUCSORGRIGHT
 10
0.0
 20
0.0
 30
0.0
  9
$PUCSORGFRONT
 10
0.0
 20
0.0
 30
0.0
  9
$PUCSORGBACK
 10
0.0
 20
0.0
 30
0.0
  9
$USERI1
 70
     0
  9
$USERI2
 70
     0
  9
$USERI3
 70
     0
  9
$USERI4
 70
     0
  9
$USERI5
 70
     0
  9
$USERR1
 40
0.0
  9
$USERR2
 40
0.0
  9
$USERR3
 40
0.0
  9
$USERR4
 40
0.0
  9
$USERR5
 40
0.0
  9
$WORLDVIEW
 70
     1
  9
$SHADEDGE
 70
     3
  9
$SHADEDIF
 70
    70
  9
$TILEMODE
 70
     1
  9
$MAXACTVP
 70
    64
  9
$PINSBASE
 10
0.0
 20
0.0
 30
0.0
  9
$PLIMCHECK
 70
     0
  9
$PEXTMIN
 10
1.000000000000000E+20
 20
1.000000000000000E+20
 30
1.000000000000000E+20
  9
$PEXTMAX
 10
-1.000000000000000E+20
 20
-1.000000000000000E+20
 30
-1.000000000000000E+20
  9
$PLIMMIN
 10
0.0
 20
0.0
  9
$PLIMMAX
 10
12.0
 20
9.0
  9
$UNITMODE
 70
     0
  9
$VISRETAIN
 70
     1
  9
$PLINEGEN
 70
     0
  9
$PSLTSCALE
 70
     1
  9
$TREEDEPTH
 70
  3020
  9
$CMLSTYLE
  2
Standard
  9
$CMLJUST
 70
     0
  9
$CMLSCALE
 40
1.0
  9
$PROXYGRAPHICS
 70
     1
  9
$MEASUREMENT
 70
     0
  9
$CELWEIGHT
370
    -1
  9
$ENDCAPS
280
     0
  9
$JOINSTYLE
280
     0
  9
$LWDISPLAY
290
     0
  9
$INSUNITS
 70
     4
  9
$HYPERLINKBASE
  1

  9
$STYLESHEET
  1

  9
$XEDIT
290
     1
  9
$CEPSNTYPE
380
     0
  9
$PSTYLEMODE
290
     1
  9
$FINGERPRINTGUID
  2
{5B00288E-5697-4AAE-AFAB-32C153CEDADE}
  9
$VERSIONGUID
  2
{FAEB1C32-E019-11D5-929B-00C0DF256EC4}
  9
$EXTNAMES
290
     1
  9
$PSVPSCALE
 40
0.0
  9
$OLESTARTUP
290
     0
  9
$SORTENTS
280
   127
  9
$INDEXCTL
280
     0
  9
$HIDETEXT
280
     1
  9
$XCLIPFRAME
290
     0
  9
$HALOGAP
280
     0
  9
$OBSCOLOR
 70
   257
  9
$OBSLTYPE
280
     0
  9
$INTERSECTIONDISPLAY
280
     0
  9
$INTERSECTIONCOLOR
 70
   257
  9
$DIMASSOC
280
     2
  9
$PROJECTNAME
  1

  9
$CAMERADISPLAY
290
     0
  9
$LENSLENGTH
 40
50.0
  9
$CAMERAHEIGHT
 40
0.0
  9
$STEPSPERSEC
 40
2.0
  9
$STEPSIZE
 40
6.0
  9
$3DDWFPREC
 40
2.0
  9
$PSOLWIDTH
 40
0.25
  9
$PSOLHEIGHT
 40
4.0
  9
$LOFTANG1
 40
1.570796326794897
  9
$LOFTANG2
 40
1.570796326794897
  9
$LOFTMAG1
 40
0.0
  9
$LOFTMAG2
 40
0.0
  9
$LOFTPARAM
 70
     7
  9
$LOFTNORMALS
280
     1
  9
$LATITUDE
 40
37.795
  9
$LONGITUDE
 40
-122.394
  9
$NORTHDIRECTION
 40
0.0
  9
$TIMEZONE
 70
 -8000
  9
$LIGHTGLYPHDISPLAY
280
     1
  9
$TILEMODELIGHTSYNCH
280
     1
  9
$SOLIDHIST
280
     1
  9
$SHOWHIST
280
     1
  9
$DWFFRAME
280
     2
  9
$DGNFRAME
280
     2
  9
$REALWORLDSCALE
290
     1
  9
$INTERFERECOLOR
 62
   256
  9
$CSHADOW
280
     0
  9
$SHADOWPLANELOCATION
 40
0.0
  0
ENDSEC
  0
SECTION
  2
CLASSES
  0
CLASS
  1
ACDBDICTIONARYWDFLT
  2
AcDbDictionaryWithDefault
  3
ObjectDBX Classes
 90
        0
 91
        4
280
     0
281
     0
  0
CLASS
  1
VISUALSTYLE
  2
AcDbVisualStyle
  3
ObjectDBX Classes
 90
     4095
 91
        4
280
     0
281
     0
  0
CLASS
  1
MATERIAL
  2
AcDbMaterial
  3
ObjectDBX Classes
 90
     1153
 91
        4
280
     0
281
     0
  0
ENDSEC
  0
SECTION
  2
TABLES
  0
TABLE
  2
VPORT
  5
8
330
0
100
AcDbSymbolTable
 70
     1
  0
VPORT
  5
29
330
8
100
AcDbSymbolTableRecord
100
AcDbViewportTableRecord
  2
*Active
 70
     0
 10
0.0
 20
0.0
 11
1.0
 21
1.0
 12
10.42990654205607
 22
4.5
 13
0.0
 23
0.0
 14
0.5
 24
0.5
 15
0.5
 25
0.5
 16
0.0
 26
0.0
 36
1.0
 17
0.0
 27
0.0
 37
0.0
 40
9.0
 41
1.972972972850329
 42
50.0
 43
0.0
 44
0.0
 50
0.0
 51
0.0
 71
     0
 72
   100
 73
     1
 74
     3
 75
     0
 76
     0
 77
     0
 78
     0
281
     0
 65
     1
110
0.0
120
0.0
130
0.0
111
1.0
121
0.0
131
0.0
112
0.0
122
1.0
132
0.0
 79
     0
146
0.0
 60
     3
 61
     5
292
     1
282
     1
141
0.0
142
0.0
 63
   250
  0
ENDTAB
  0
TABLE
  2
LTYPE
  5
5
330
0
100
AcDbSymbolTable
 70
     1
  0
LTYPE
  5
14
330
5
100
AcDbSymbolTableRecord
100
AcDbLinetypeTableRecord
  2
ByBlock
 70
     0
  3

 72
    65
 73
     0
 40
0.0
  0
LTYPE
  5
15
330
5
100
AcDbSymbolTableRecord
100
AcDbLinetypeTableRecord
  2
ByLayer
 70
     0
  3

 72
    65
 73
     0
 40
0.0
  0
LTYPE
  5
16
330
5
100
AcDbSymbolTableRecord
100
AcDbLinetypeTableRecord
  2
Continuous
 70
     0
  3
Solid line
 72
    65
 73
     0
 40
0.0
  0
ENDTAB
  0
TABLE
  2
LAYER
  5
2
330
0
100
AcDbSymbolTable
 70
     3
  0
LAYER
  5
10
330
2
100
AcDbSymbolTableRecord
100
AcDbLayerTableRecord
  2
0
 70
     0
 62
     7
  6
Continuous
370
    -3
390
F
347
3E
  0
LAYER
  5
40
330
2
100
AcDbSymbolTableRecord
100
AcDbLayerTableRecord
  2
layer 1
 70
     0
 62
     7
  6
Continuous
370
    -3
390
F
347
3E
  0
LAYER
  5
76
330
2
100
AcDbSymbolTableRecord
100
AcDbLayerTableRecord
  2
Master Guides
 70
     0
 62
     7
  6
Continuous
370
    -3
390
F
347
3E
  0
ENDTAB
  0
TABLE
  2
STYLE
  5
3
330
0
100
AcDbSymbolTable
 70
     1
  0
STYLE
  5
11
330
3
100
AcDbSymbolTableRecord
100
AcDbTextStyleTableRecord
  2
Standard
 70
     0
 40
0.0
 41
1.0
 50
0.0
 71
     0
 42
0.2
  3
txt
  4

  0
ENDTAB
  0
TABLE
  2
VIEW
  5
6
330
0
100
AcDbSymbolTable
 70
     0
  0
ENDTAB
  0
TABLE
  2
UCS
  5
7
330
0
100
AcDbSymbolTable
 70
     0
  0
ENDTAB
  0
TABLE
  2
APPID
  5
9
330
0
100
AcDbSymbolTable
 70
     2
  0
APPID
  5
12
330
9
100
AcDbSymbolTableRecord
100
AcDbRegAppTableRecord
  2
ACAD
 70
     0
  0
APPID
  5
3F
330
9
100
AcDbSymbolTableRecord
100
AcDbRegAppTableRecord
  2
ODA
 70
     0
  0
ENDTAB
  0
TABLE
  2
DIMSTYLE
  5
A
330
0
100
AcDbSymbolTable
 70
     1
100
AcDbDimStyleTable
  0
DIMSTYLE
105
27
330
A
100
AcDbSymbolTableRecord
100
AcDbDimStyleTableRecord
  2
Standard
 70
     0
178
     0
340
11
  0
ENDTAB
  0
TABLE
  2
BLOCK_RECORD
  5
1
330
0
100
AcDbSymbolTable
 70
     1
  0
BLOCK_RECORD
  5
1F
330
1
100
AcDbSymbolTableRecord
100
AcDbBlockTableRecord
  2
*Model_Space
340
22
 70
     0
280
     1
281
     0
  0
BLOCK_RECORD
  5
1B
330
1
100
AcDbSymbolTableRecord
100
AcDbBlockTableRecord
  2
*Paper_Space
340
1E
 70
     0
280
     1
281
     0
  0
BLOCK_RECORD
  5
23
330
1
100
AcDbSymbolTableRecord
100
AcDbBlockTableRecord
  2
*Paper_Space0
340
26
 70
     0
280
     1
281
     0
  0
ENDTAB
  0
ENDSEC
  0
SECTION
  2
BLOCKS
  0
BLOCK
  5
20
330
1F
100
AcDbEntity
  8
0
100
AcDbBlockBegin
  2
*Model_Space
 70
     0
 10
0.0
 20
0.0
 30
0.0
  3
*Model_Space
  1

  0
ENDBLK
  5
21
330
1F
100
AcDbEntity
  8
0
100
AcDbBlockEnd
  0
BLOCK
  5
1C
330
1B
100
AcDbEntity
 67
     1
  8
0
100
AcDbBlockBegin
  2
*Paper_Space
 70
     0
 10
0.0
 20
0.0
 30
0.0
  3
*Paper_Space
  1

  0
ENDBLK
  5
1D
330
1B
100
AcDbEntity
 67
     1
  8
0
100
AcDbBlockEnd
  0
BLOCK
  5
24
330
23
100
AcDbEntity
  8
0
100
AcDbBlockBegin
  2
*Paper_Space0
 70
     0
 10
0.0
 20
0.0
 30
0.0
  3
*Paper_Space0
  1

  0
ENDBLK
  5
25
330
23
100
AcDbEntity
  8
0
100
AcDbBlockEnd
  0
ENDSEC
  0
SECTION
  2
ENTITIES
  0
SPLINE
  5
41
330
1F
100
AcDbEntity
  8
layer 1
100
AcDbSpline
210
0.0
220
0.0
230
1.0
 70
    11
 71
     3
 72
    20
 73
    16
 74
     0
 42
0.0000000001
 43
0.0000000001
 12
1.0
 22
0.0
 32
0.0
 13
1.0
 23
0.0
 33
0.0
 40
0.0
 40
0.0
 40
0.0
 40
0.0
 40
0.2
 40
0.2
 40
0.2
 40
0.2
 40
0.4
 40
0.4
 40
0.4
 40
0.4
 40
0.6
 40
0.6
 40
0.6
 40
0.6
 40
1.0
 40
1.0
 40
1.0
 40
1.0
 10
-46.6545
 20
131.7408
 30
0.0
 10
-46.6545
 20
131.7408
 30
0.0
 10
79.3015
 20
131.7408
 30
0.0
 10
79.3015
 20
131.7408
 30
0.0
 10
79.3015
 20
131.7408
 30
0.0
 10
79.3015
 20
131.7408
 30
0.0
 10
79.3015
 20
-114.9471
 30
0.0
 10
79.3015
 20
-114.9471
 30
0.0
 10
79.3015
 20
-114.9471
 30
0.0
 10
79.3015
 20
-114.9471
 30
0.0
 10
-46.6545
 20
-114.9471
 30
0.0
 10
-46.6545
 20
-114.9471
 30
0.0
 10
-46.6545
 20
-114.9471
 30
0.0
 10
-46.6545
 20
-114.9471
 30
0.0
 10
-46.6545
 20
131.7408
 30
0.0
 10
-46.6545
 20
131.7408
 30
0.0
  0
SPLINE
  5
42
330
1F
100
AcDbEntity
  8
layer 1
 62
     7
100
AcDbSpline
210
0.0
220
0.0
230
1.0
 70
    11
 71
     3
 72
    32
 73
    28
 74
     0
 42
0.0000000001
 43
0.0000000001
 12
1.0
 22
0.0
 32
0.0
 13
1.0
 23
0.0
 33
0.0
 40
0.0
 40
0.0
 40
0.0
 40
0.0
 40
0.125
 40
0.125
 40
0.125
 40
0.125
 40
0.25
 40
0.25
 40
0.25
 40
0.25
 40
0.375
 40
0.375
 40
0.375
 40
0.375
 40
0.5
 40
0.5
 40
0.5
 40
0.5
 40
0.625
 40
0.625
 40
0.625
 40
0.625
 40
0.75
 40
0.75
 40
0.75
 40
0.75
 40
1.0
 40
1.0
 40
1.0
 40
1.0
 10
-38.2433
 20
89.5378
 30
0.0
 10
-38.2559
 20
101.0589
 30
0.0
 10
-38.1204
 20
118.4419
 30
0.0
 10
-38.2607
 20
126.0864
 30
0.0
 10
-38.2607
 20
126.0864
 30
0.0
 10
-29.155
 20
126.1107
 30
0.0
 10
-33.8995
 20
126.1057
 30
0.0
 10
-23.7491
 20
126.0799
 30
0.0
 10
-23.7491
 20
126.0799
 30
0.0
 10
-25.9089
 20
124.7542
 30
0.0
 10
-28.5073
 20
124.6439
 30
0.0
 10
-31.6111
 20
124.5258
 30
0.0
 10
-31.6111
 20
124.5258
 30
0.0
 10
-31.103
 20
119.9815
 30
0.0
 10
-24.7648
 20
115.0022
 30
0.0
 10
-18.3187
 20
114.821
 30
0.0
 10
-18.3187
 20
114.821
 30
0.0
 10
-28.7205
 20
112.0573
 30
0.0
 10
-36.1872
 20
100.9746
 30
0.0
 10
-36.5668
 20
89.5943
 30
0.0
 10
-36.5668
 20
89.5943
 30
0.0
 10
-36.5668
 20
89.5943
 30
0.0
 10
-38.2433
 20
89.538
 30
0.0
 10
-38.2433
 20
89.538
 30
0.0
 10
-38.2433
 20
89.538
 30
0.0
 10
-38.2433
 20
89.538
 30
0.0
 10
-38.2433
 20
89.5378
 30
0.0
 10
-38.2433
 20
89.5378
 30
0.0
  0
SPLINE
  5
43
330
1F
100
AcDbEntity
  8
layer 1
 62
     7
100
AcDbSpline
210
0.0
220
0.0
230
1.0
 70
    11
 71
     3
 72
    36
 73
    32
 74
     0
 42
0.0000000001
 43
0.0000000001
 12
1.0
 22
0.0
 32
0.0
 13
1.0
 23
0.0
 33
0.0
 40
0.0
 40
0.0
 40
0.0
 40
0.0
 40
0.1111111111111111
 40
0.1111111111111111
 40
0.1111111111111111
 40
0.1111111111111111
 40
0.2222222222222222
 40
0.2222222222222222
 40
0.2222222222222222
 40
0.2222222222222222
 40
0.3333333333333333
 40
0.3333333333333333
 40
0.3333333333333333
 40
0.3333333333333333
 40
0.4444444444444444
 40
0.4444444444444444
 40
0.4444444444444444
 40
0.4444444444444444
 40
0.5555555555555556
 40
0.5555555555555556
 40
0.5555555555555556
 40
0.5555555555555556
 40
0.6666666666666666
 40
0.6666666666666666
 40
0.6666666666666666
 40
0.6666666666666666
 40
0.7777777777777778
 40
0.7777777777777778
 40
0.7777777777777778
 40
0.7777777777777778
 40
1.0
 40
1.0
 40
1.0
 40
1.0
 10
-5.1031
 20
89.8237
 30
0.0
 10
-4.2159
 20
93.8547
 30
0.0
 10
-6.7101
 20
99.8805
 30
0.0
 10
-11.7346
 20
100.0254
 30
0.0
 10
-11.7346
 20
100.0254
 30
0.0
 10
-14.1304
 20
100.0945
 30
0.0
 10
-19.0253
 20
97.2488
 30
0.0
 10
-13.6592
 20
90.1598
 30
0.0
 10
-13.6592
 20
90.1598
 30
0.0
 10
-25.3065
 20
92.3846
 30
0.0
 10
-21.7288
 20
110.7903
 30
0.0
 10
-12.6575
 20
112.4831
 30
0.0
 10
-12.6575
 20
112.4831
 30
0.0
 10
-5.6532
 20
114.291
 30
0.0
 10
5.9845
 20
111.6548
 30
0.0
 10
7.2369
 20
103.4702
 30
0.0
 10
7.2369
 20
103.4702
 30
0.0
 10
5.4931
 20
104.8353
 30
0.0
 10
4.526
 20
106.1367
 30
0.0
 10
1.4177
 20
105.7029
 30
0.0
 10
1.4177
 20
105.7029
 30
0.0
 10
-1.7981
 20
101.4997
 30
0.0
 10
6.528
 20
92.86
 30
0.0
 10
5.6041
 20
89.2969
 30
0.0
 10
5.6041
 20
89.2969
 30
0.0
 10
1.6549
 20
92.8927
 30
0.0
 10
-2.8657
 20
92.0919
 30
0.0
 10
-5.1031
 20
89.8236
 30
0.0
 10
-5.1031
 20
89.8236
 30
0.0
 10
-5.1031
 20
89.8236
 30
0.0
 10
-5.1031
 20
89.8237
 30
0.0
 10
-5.1031
 20
89.8237
 30
0.0
  0
SPLINE
  5
44
330
1F
100
AcDbEntity
  8
layer 1
 62
     7
100
AcDbSpline
210
0.0
220
0.0
230
1.0
 70
    11
 71
     3
 72
    40
 73
    36
 74
     0
 42
0.0000000001
 43
0.0000000001
 12
1.0
 22
0.0
 32
0.0
 13
1.0
 23
0.0
 33
0.0
 40
0.0
 40
0.0
 40
0.0
 40
0.0
 40
0.1
 40
0.1
 40
0.1
 40
0.1
 40
0.2
 40
0.2
 40
0.2
 40
0.2
 40
0.3
 40
0.3
 40
0.3
 40
0.3
 40
0.4
 40
0.4
 40
0.4
 40
0.4
 40
0.5
 40
0.5
 40
0.5
 40
0.5
 40
0.6
 40
0.6
 40
0.6
 40
0.6
 40
0.7
 40
0.7
 40
0.7
 40
0.7
 40
0.8
 40
0.8
 40
0.8
 40
0.8
 40
1.0
 40
1.0
 40
1.0
 40
1.0
 10
26.7672
 20
-2.6559
 30
0.0
 10
23.9118
 20
1.9176
 30
0.0
 10
26.426
 20
4.6686
 30
0.0
 10
29.1882
 20
4.9144
 30
0.0
 10
29.1882
 20
4.9144
 30
0.0
 10
24.1669
 20
11.9584
 30
0.0
 10
32.636
 20
16.3639
 30
0.0
 10
32.9687
 20
10.1883
 30
0.0
 10
32.9687
 20
10.1883
 30
0.0
 10
33.1942
 20
7.7678
 30
0.0
 10
36.3477
 20
8.8188
 30
0.0
 10
35.9669
 20
11.2659
 30
0.0
 10
35.9669
 20
11.2659
 30
0.0
 10
34.9286
 20
19.2609
 30
0.0
 10
32.059
 20
20.874
 30
0.0
 10
30.6184
 20
21.7463
 30
0.0
 10
30.6184
 20
21.7463
 30
0.0
 10
25.6173
 20
24.3856
 30
0.0
 10
20.3849
 20
23.2782
 30
0.0
 10
17.8914
 20
21.63
 30
0.0
 10
17.8914
 20
21.63
 30
0.0
 10
18.8848
 20
17.4813
 30
0.0
 10
22.1438
 20
17.5947
 30
0.0
 10
21.6101
 20
11.6671
 30
0.0
 10
21.6101
 20
11.6671
 30
0.0
 10
22.73
 20
12.769
 30
0.0
 10
23.3204
 20
13.1142
 30
0.0
 10
24.0425
 20
13.1013
 30
0.0
 10
24.0425
 20
13.1013
 30
0.0
 10
23.1652
 20
9.795
 30
0.0
 10
21.7873
 20
5.6566
 30
0.0
 10
18.2026
 20
1.4747
 30
0.0
 10
18.2026
 20
1.4747
 30
0.0
 10
19.3164
 20
-0.8192
 30
0.0
 10
21.5701
 20
-3.3081
 30
0.0
 10
26.7672
 20
-2.6559
 30
0.0
  0
SPLINE
  5
45
330
1F
100
AcDbEntity
  8
layer 1
 62
     7
100
AcDbSpline
210
0.0
220
0.0
230
1.0
 70
    11
 71
     3
 72
    16
 73
    12
 74
     0
 42
0.0000000001
 43
0.0000000001
 12
1.0
 22
0.0
 32
0.0
 13
1.0
 23
0.0
 33
0.0
 40
0.0
 40
0.0
 40
0.0
 40
0.0
 40
0.25
 40
0.25
 40
0.25
 40
0.25
 40
0.5
 40
0.5
 40
0.5
 40
0.5
 40
1.0
 40
1.0
 40
1.0
 40
1.0
 10
3.6438
 20
126.0863
 30
0.0
 10
6.6125
 20
126.0482
 30
0.0
 10
5.2241
 20
126.0482
 30
0.0
 10
11.9224
 20
126.0798
 30
0.0
 10
11.9224
 20
126.0798
 30
0.0
 10
9.4302
 20
124.8944
 30
0.0
 10
8.4054
 20
124.2511
 30
0.0
 10
7.0924
 20
122.3358
 30
0.0
 10
7.0924
 20
122.3358
 30
0.0
 10
6.0465
 20
124.1569
 30
0.0
 10
5.1139
 20
125.1593
 30
0.0
 10
3.6438
 20
126.0863
 30
0.0
  0
SPLINE
  5
46
330
1F
100
AcDbEntity
  8
layer 1
 62
     7
100
AcDbSpline
210
0.0
220
0.0
230
1.0
 70
    11
 71
     3
 72
    16
 73
    12
 74
     0
 42
0.0000000001
 43
0.0000000001
 12
1.0
 22
0.0
 32
0.0
 13
1.0
 23
0.0
 33
0.0
 40
0.0
 40
0.0
 40
0.0
 40
0.0
 40
0.25
 40
0.25
 40
0.25
 40
0.25
 40
0.5
 40
0.5
 40
0.5
 40
0.5
 40
1.0
 40
1.0
 40
1.0
 40
1.0
 10
0.6925
 20
126.0863
 30
0.0
 10
-8.4133
 20
126.1105
 30
0.0
 10
-3.6688
 20
126.1055
 30
0.0
 10
-13.8192
 20
126.0798
 30
0.0
 10
-13.8192
 20
126.0798
 30
0.0
 10
-6.7623
 20
125.0095
 30
0.0
 10
-2.1486
 20
121.8984
 30
0.0
 10
0.6749
 20
119.1983
 30
0.0
 10
0.6749
 20
119.1983
 30
0.0
 10
0.6749
 20
119.1983
 30
0.0
 10
0.6925
 20
126.0863
 30
0.0
 10
0.6925
 20
126.0863
 30
0.0
  0
SPLINE
  5
47
330
1F
100
AcDbEntity
  8
layer 1
 62
     7
100
AcDbSpline
210
0.0
220
0.0
230
1.0
 70
    11
 71
     3
 72
    64
 73
    60
 74
     0
 42
0.0000000001
 43
0.0000000001
 12
1.0
 22
0.0
 32
0.0
 13
1.0
 23
0.0
 33
0.0
 40
0.0
 40
0.0
 40
0.0
 40
0.0
 40
0.0625
 40
0.0625
 40
0.0625
 40
0.0625
 40
0.125
 40
0.125
 40
0.125
 40
0.125
 40
0.1875
 40
0.1875
 40
0.1875
 40
0.1875
 40
0.25
 40
0.25
 40
0.25
 40
0.25
 40
0.3125
 40
0.3125
 40
0.3125
 40
0.3125
 40
0.375
 40
0.375
 40
0.375
 40
0.375
 40
0.4375
 40
0.4375
 40
0.4375
 40
0.4375
 40
0.5
 40
0.5
 40
0.5
 40
0.5
 40
0.5625
 40
0.5625
 40
0.5625
 40
0.5625
 40
0.625
 40
0.625
 40
0.625
 40
0.625
 40
0.6875
 40
0.6875
 40
0.6875
 40
0.6875
 40
0.75
 40
0.75
 40
0.75
 40
0.75
 40
0.8125
 40
0.8125
 40
0.8125
 40
0.8125
 40
0.875
 40
0.875
 40
0.875
 40
0.875
 40
1.0
 40
1.0
 40
1.0
 40
1.0
 10
16.8767
 20
126.0863
 30
0.0
 10
19.8455
 20
126.0482
 30
0.0
 10
47.2245
 20
126.0482
 30
0.0
 10
53.9227
 20
126.0798
 30
0.0
 10
53.9227
 20
126.0798
 30
0.0
 10
53.8528
 20
126.0465
 30
0.0
 10
48.778
 20
121.3073
 30
0.0
 10
50.5235
 20
115.0882
 30
0.0
 10
50.5235
 20
115.0882
 30
0.0
 10
51.0896
 20
112.361
 30
0.0
 10
57.0225
 20
110.3491
 30
0.0
 10
58.736
 20
115.941
 30
0.0
 10
58.736
 20
115.941
 30
0.0
 10
59.392
 20
123.6243
 30
0.0
 10
66.4075
 20
116.2875
 30
0.0
 10
60.3394
 20
106.7688
 30
0.0
 10
60.3394
 20
106.7688
 30
0.0
 10
59.2647
 20
104.3809
 30
0.0
 10
51.6565
 20
100.9063
 30
0.0
 10
45.6463
 20
107.1251
 30
0.0
 10
45.6463
 20
107.1251
 30
0.0
 10
43.389
 20
108.6561
 30
0.0
 10
40.2333
 20
110.1706
 30
0.0
 10
36.6141
 20
109.697
 30
0.0
 10
36.6141
 20
109.697
 30
0.0
 10
44.75
 20
115.6238
 30
0.0
 10
44.0262
 20
120.1144
 30
0.0
 10
43.028
 20
121.0037
 30
0.0
 10
43.028
 20
121.0037
 30
0.0
 10
34.8173
 20
112.3649
 30
0.0
 10
23.8841
 20
115.9357
 30
0.0
 10
20.0376
 20
103.3084
 30
0.0
 10
20.0376
 20
103.3084
 30
0.0
 10
19.5818
 20
104.102
 30
0.0
 10
18.4617
 20
112.2712
 30
0.0
 10
16.4814
 20
112.9753
 30
0.0
 10
16.4814
 20
112.9753
 30
0.0
 10
14.2352
 20
109.3652
 30
0.0
 10
12.7698
 20
104.1004
 30
0.0
 10
12.8999
 20
105.2835
 30
0.0
 10
12.8999
 20
105.2835
 30
0.0
 10
9.1819
 20
108.3459
 30
0.0
 10
9.1232
 20
115.9117
 30
0.0
 10
10.186
 20
119.6823
 30
0.0
 10
10.186
 20
119.6823
 30
0.0
 10
10.9068
 20
122.2397
 30
0.0
 10
14.3625
 20
123.2694
 30
0.0
 10
14.7302
 20
118.5811
 30
0.0
 10
14.7302
 20
118.5811
 30
0.0
 10
15.7731
 20
113.8655
 30
0.0
 10
20.9706
 20
115.3573
 30
0.0
 10
21.1401
 20
119.8576
 30
0.0
 10
21.1401
 20
119.8576
 30
0.0
 10
21.4585
 20
124.9993
 30
0.0
 10
17.0071
 20
126.0038
 30
0.0
 10
16.8764
 20
126.0863
 30
0.0
 10
16.8764
 20
126.0863
 30
0.0
 10
16.8764
 20
126.0863
 30
0.0
 10
16.8767
 20
126.0863
 30
0.0
 10
16.8767
 20
126.0863
 30
0.0
  0
SPLINE
  5
48
330
1F
100
AcDbEntity
  8
layer 1
 62
     7
100
AcDbSpline
210
0.0
220
0.0
230
1.0
 70
    11
 71
     3
 72
    20
 73
    16
 74
     0
 42
0.0000000001
 43
0.0000000001
 12
1.0
 22
0.0
 32
0.0
 13
1.0
 23
0.0
 33
0.0
 40
0.0
 40
0.0
 40
0.0
 40
0.0
 40
0.2
 40
0.2
 40
0.2
 40
0.2
 40
0.4
 40
0.4
 40
0.4
 40
0.4
 40
0.6
 40
0.6
 40
0.6
 40
0.6
 40
1.0
 40
1.0
 40
1.0
 40
1.0
 10
70.6931
 20
126.0863
 30
0.0
 10
61.5873
 20
126.1105
 30
0.0
 10
71.7019
 20
126.1055
 30
0.0
 10
61.5515
 20
126.0798
 30
0.0
 10
61.5515
 20
126.0798
 30
0.0
 10
66.7558
 20
123.8006
 30
0.0
 10
68.72
 20
119.7588
 30
0.0
 10
67.7929
 20
112.667
 30
0.0
 10
67.7929
 20
112.667
 30
0.0
 10
67.4271
 20
108.2883
 30
0.0
 10
70.9486
 20
112.945
 30
0.0
 10
70.9635
 20
113.9216
 30
0.0
 10
70.9635
 20
113.9216
 30
0.0
 10
70.9635
 20
113.9216
 30
0.0
 10
70.6931
 20
126.0863
 30
0.0
 10
70.6931
 20
126.0863
 30
0.0
  0
SPLINE
  5
49
330
1F
100
AcDbEntity
  8
layer 1
 62
     7
100
AcDbSpline
210
0.0
220
0.0
230
1.0
 70
    11
 71
     3
 72
    20
 73
    16
 74
     0
 42
0.0000000001
 43
0.0000000001
 12
1.0
 22
0.0
 32
0.0
 13
1.0
 23
0.0
 33
0.0
 40
0.0
 40
0.0
 40
0.0
 40
0.0
 40
0.2
 40
0.2
 40
0.2
 40
0.2
 40
0.4
 40
0.4
 40
0.4
 40
0.4
 40
0.6
 40
0.6
 40
0.6
 40
0.6
 40
1.0
 40
1.0
 40
1.0
 40
1.0
 10
70.5148
 20
67.7388
 30
0.0
 10
70.4692
 20
65.2637
 30
0.0
 10
70.7744
 20
29.1954
 30
0.0
 10
70.812
 20
23.6107
 30
0.0
 10
70.812
 20
23.6107
 30
0.0
 10
66.6584
 20
26.4291
 30
0.0
 10
65.966
 20
31.534
 30
0.0
 10
63.7067
 20
37.6742
 30
0.0
 10
63.7067
 20
37.6742
 30
0.0
 10
60.0155
 20
47.8973
 30
0.0
 10
53.6232
 20
52.0154
 30
0.0
 10
52.2858
 20
52.6528
 30
0.0
 10
52.2858
 20
52.6528
 30
0.0
 10
69.9298
 20
49.1153
 30
0.0
 10
65.3348
 20
68.5482
 30
0.0
 10
70.5148
 20
67.7388
 30
0.0
  0
SPLINE
  5
4A
330
1F
100
AcDbEntity
  8
layer 1
 62
     7
100
AcDbSpline
210
0.0
220
0.0
230
1.0
 70
    11
 71
     3
 72
    48
 73
    44
 74
     0
 42
0.0000000001
 43
0.0000000001
 12
1.0
 22
0.0
 32
0.0
 13
1.0
 23
0.0
 33
0.0
 40
0.0
 40
0.0
 40
0.0
 40
0.0
 40
0.0833333333333333
 40
0.0833333333333333
 40
0.0833333333333333
 40
0.0833333333333333
 40
0.1666666666666667
 40
0.1666666666666667
 40
0.1666666666666667
 40
0.1666666666666667
 40
0.25
 40
0.25
 40
0.25
 40
0.25
 40
0.3333333333333333
 40
0.3333333333333333
 40
0.3333333333333333
 40
0.3333333333333333
 40
0.4166666666666667
 40
0.4166666666666667
 40
0.4166666666666667
 40
0.4166666666666667
 40
0.5
 40
0.5
 40
0.5
 40
0.5
 40
0.5833333333333334
 40
0.5833333333333334
 40
0.5833333333333334
 40
0.5833333333333334
 40
0.6666666666666666
 40
0.6666666666666666
 40
0.6666666666666666
 40
0.6666666666666666
 40
0.75
 40
0.75
 40
0.75
 40
0.75
 40
0.8333333333333334
 40
0.8333333333333334
 40
0.8333333333333334
 40
0.8333333333333334
 40
1.0
 40
1.0
 40
1.0
 40
1.0
 10
70.5148
 20
20.7612
 30
0.0
 10
70.4692
 20
18.2861
 30
0.0
 10
70.7744
 20
-17.7822
 30
0.0
 10
70.812
 20
-23.3669
 30
0.0
 10
70.812
 20
-23.3669
 30
0.0
 10
70.812
 20
-23.3669
 30
0.0
 10
69.6067
 20
-24.5932
 30
0.0
 10
67.9053
 20
-24.5814
 30
0.0
 10
67.9053
 20
-24.5814
 30
0.0
 10
69.0142
 20
-8.6273
 30
0.0
 10
51.5898
 20
-2.4777
 30
0.0
 10
48.6537
 20
-2.9437
 30
0.0
 10
48.6537
 20
-2.9437
 30
0.0
 10
47.9807
 20
-1.0991
 30
0.0
 10
47.3012
 20
0.7623
 30
0.0
 10
46.2847
 20
1.7745
 30
0.0
 10
46.2847
 20
1.7745
 30
0.0
 10
58.611
 20
-0.0137
 30
0.0
 10
59.2066
 20
9.5043
 30
0.0
 10
58.5155
 20
13.0474
 30
0.0
 10
58.5155
 20
13.0474
 30
0.0
 10
55.5009
 20
23.8695
 30
0.0
 10
42.9766
 20
15.1803
 30
0.0
 10
51.6697
 20
8.0526
 30
0.0
 10
51.6697
 20
8.0526
 30
0.0
 10
38.6452
 20
3.9036
 30
0.0
 10
40.7256
 20
19.3669
 30
0.0
 10
33.8222
 20
23.0874
 30
0.0
 10
33.8222
 20
23.0874
 30
0.0
 10
32.1348
 20
23.7805
 30
0.0
 10
32.2912
 20
25.5932
 30
0.0
 10
34.59
 20
25.1392
 30
0.0
 10
34.59
 20
25.1392
 30
0.0
 10
40.1523
 20
25.2788
 30
0.0
 10
53.9154
 20
18.4531
 30
0.0
 10
55.5579
 20
36.4409
 30
0.0
 10
55.5579
 20
36.4409
 30
0.0
 10
57.1421
 20
24.05
 30
0.0
 10
68.5372
 20
19.9677
 30
0.0
 10
70.5148
 20
20.7609
 30
0.0
 10
70.5148
 20
20.7609
 30
0.0
 10
70.5148
 20
20.7609
 30
0.0
 10
70.5148
 20
20.7612
 30
0.0
 10
70.5148
 20
20.7612
 30
0.0
  0
SPLINE
  5
4B
330
1F
100
AcDbEntity
  8
layer 1
 62
     7
100
AcDbSpline
210
0.0
220
0.0
230
1.0
 70
    11
 71
     3
 72
    56
 73
    52
 74
     0
 42
0.0000000001
 43
0.0000000001
 12
1.0
 22
0.0
 32
0.0
 13
1.0
 23
0.0
 33
0.0
 40
0.0
 40
0.0
 40
0.0
 40
0.0
 40
0.0714285714285714
 40
0.0714285714285714
 40
0.0714285714285714
 40
0.0714285714285714
 40
0.1428571428571428
 40
0.1428571428571428
 40
0.1428571428571428
 40
0.1428571428571428
 40
0.2142857142857143
 40
0.2142857142857143
 40
0.2142857142857143
 40
0.2142857142857143
 40
0.2857142857142857
 40
0.2857142857142857
 40
0.2857142857142857
 40
0.2857142857142857
 40
0.3571428571428572
 40
0.3571428571428572
 40
0.3571428571428572
 40
0.3571428571428572
 40
0.4285714285714285
 40
0.4285714285714285
 40
0.4285714285714285
 40
0.4285714285714285
 40
0.5
 40
0.5
 40
0.5
 40
0.5
 40
0.5714285714285714
 40
0.5714285714285714
 40
0.5714285714285714
 40
0.5714285714285714
 40
0.6428571428571429
 40
0.6428571428571429
 40
0.6428571428571429
 40
0.6428571428571429
 40
0.7142857142857143
 40
0.7142857142857143
 40
0.7142857142857143
 40
0.7142857142857143
 40
0.7857142857142857
 40
0.7857142857142857
 40
0.7857142857142857
 40
0.7857142857142857
 40
0.8571428571428571
 40
0.8571428571428571
 40
0.8571428571428571
 40
0.8571428571428571
 40
1.0
 40
1.0
 40
1.0
 40
1.0
 10
70.7872
 20
-36.0992
 30
0.0
 10
70.7416
 20
-38.5743
 30
0.0
 10
70.7744
 20
-70.2513
 30
0.0
 10
70.812
 20
-75.8358
 30
0.0
 10
70.812
 20
-75.8358
 30
0.0
 10
70.812
 20
-75.8358
 30
0.0
 10
65.0662
 20
-73.5037
 30
0.0
 10
63.3647
 20
-73.4919
 30
0.0
 10
63.3647
 20
-73.4919
 30
0.0
 10
68.8326
 20
-69.1975
 30
0.0
 10
68.2994
 20
-60.5495
 30
0.0
 10
63.7287
 20
-57.0026
 30
0.0
 10
63.7287
 20
-57.0026
 30
0.0
 10
58.6058
 20
-52.3567
 30
0.0
 10
49.2993
 20
-55.4923
 30
0.0
 10
52.9143
 20
-63.3386
 30
0.0
 10
52.9143
 20
-63.3386
 30
0.0
 10
53.889
 20
-65.0511
 30
0.0
 10
57.6631
 20
-66.6628
 30
0.0
 10
58.6065
 20
-64.104
 30
0.0
 10
58.6065
 20
-64.104
 30
0.0
 10
60.1327
 20
-61.6862
 30
0.0
 10
62.0475
 20
-64.8483
 30
0.0
 10
61.5685
 20
-67.2817
 30
0.0
 10
61.5685
 20
-67.2817
 30
0.0
 10
59.8955
 20
-77.0334
 30
0.0
 10
44.2675
 20
-74.5929
 30
0.0
 10
37.9091
 20
-69.7365
 30
0.0
 10
37.9091
 20
-69.7365
 30
0.0
 10
40.6715
 20
-68.2107
 30
0.0
 10
43.0073
 20
-63.8237
 30
0.0
 10
41.3105
 20
-56.4035
 30
0.0
 10
41.3105
 20
-56.4035
 30
0.0
 10
48.2202
 20
-58.0855
 30
0.0
 10
48.3871
 20
-57.142
 30
0.0
 10
43.1557
 20
-51.0658
 30
0.0
 10
43.1557
 20
-51.0658
 30
0.0
 10
48.0373
 20
-52.485
 30
0.0
 10
62.0482
 20
-50.9959
 30
0.0
 10
63.7094
 20
-46.3345
 30
0.0
 10
63.7094
 20
-46.3345
 30
0.0
 10
62.9381
 20
-45.7341
 30
0.0
 10
62.2233
 20
-45.271
 30
0.0
 10
60.4621
 20
-44.9504
 30
0.0
 10
60.4621
 20
-44.9504
 30
0.0
 10
64.7707
 20
-43.1071
 30
0.0
 10
69.4455
 20
-38.0284
 30
0.0
 10
70.7875
 20
-36.0993
 30
0.0
 10
70.7875
 20
-36.0993
 30
0.0
 10
70.7875
 20
-36.0993
 30
0.0
 10
70.7872
 20
-36.0992
 30
0.0
 10
70.7872
 20
-36.0992
 30
0.0
  0
SPLINE
  5
4C
330
1F
100
AcDbEntity
  8
layer 1
 62
     7
100
AcDbSpline
210
0.0
220
0.0
230
1.0
 70
    11
 71
     3
 72
    40
 73
    36
 74
     0
 42
0.0000000001
 43
0.0000000001
 12
1.0
 22
0.0
 32
0.0
 13
1.0
 23
0.0
 33
0.0
 40
0.0
 40
0.0
 40
0.0
 40
0.0
 40
0.1
 40
0.1
 40
0.1
 40
0.1
 40
0.2
 40
0.2
 40
0.2
 40
0.2
 40
0.3
 40
0.3
 40
0.3
 40
0.3
 40
0.4
 40
0.4
 40
0.4
 40
0.4
 40
0.5
 40
0.5
 40
0.5
 40
0.5
 40
0.6
 40
0.6
 40
0.6
 40
0.6
 40
0.7
 40
0.7
 40
0.7
 40
0.7
 40
0.8
 40
0.8
 40
0.8
 40
0.8
 40
1.0
 40
1.0
 40
1.0
 40
1.0
 10
70.9937
 20
-109.3009
 30
0.0
 10
70.9937
 20
-109.3009
 30
0.0
 10
61.1612
 20
-109.3158
 30
0.0
 10
59.4598
 20
-109.304
 30
0.0
 10
59.4598
 20
-109.304
 30
0.0
 10
72.5894
 20
-104.5851
 30
0.0
 10
64.7056
 20
-91.9761
 30
0.0
 10
60.0246
 20
-93.781
 30
0.0
 10
60.0246
 20
-93.781
 30
0.0
 10
65.4876
 20
-107.9682
 30
0.0
 10
43.6438
 20
-109.2391
 30
0.0
 10
47.2131
 20
-88.8084
 30
0.0
 10
47.2131
 20
-88.8084
 30
0.0
 10
47.6751
 20
-86.8561
 30
0.0
 10
49.0225
 20
-85.2312
 30
0.0
 10
49.8756
 20
-87.9377
 30
0.0
 10
49.8756
 20
-87.9377
 30
0.0
 10
50.489
 20
-89.4326
 30
0.0
 10
52.4219
 20
-90.0635
 30
0.0
 10
55.0819
 20
-90.3992
 30
0.0
 10
55.0819
 20
-90.3992
 30
0.0
 10
56.3993
 20
-86.846
 30
0.0
 10
53.7775
 20
-81.9159
 30
0.0
 10
51.7437
 20
-78.794
 30
0.0
 10
51.7437
 20
-78.794
 30
0.0
 10
56.688
 20
-81.4935
 30
0.0
 10
68.1737
 20
-82.5474
 30
0.0
 10
70.7872
 20
-78.4227
 30
0.0
 10
70.7872
 20
-78.4227
 30
0.0
 10
70.9484
 20
-92.9522
 30
0.0
 10
70.9292
 20
-99.0081
 30
0.0
 10
70.9937
 20
-109.301
 30
0.0
 10
70.9937
 20
-109.301
 30
0.0
 10
70.9937
 20
-109.301
 30
0.0
 10
70.9937
 20
-109.3009
 30
0.0
 10
70.9937
 20
-109.3009
 30
0.0
  0
SPLINE
  5
4D
330
1F
100
AcDbEntity
  8
layer 1
 62
     7
100
AcDbSpline
210
0.0
220
0.0
230
1.0
 70
    11
 71
     3
 72
    20
 73
    16
 74
     0
 42
0.0000000001
 43
0.0000000001
 12
1.0
 22
0.0
 32
0.0
 13
1.0
 23
0.0
 33
0.0
 40
0.0
 40
0.0
 40
0.0
 40
0.0
 40
0.2
 40
0.2
 40
0.2
 40
0.2
 40
0.4
 40
0.4
 40
0.4
 40
0.4
 40
0.6
 40
0.6
 40
0.6
 40
0.6
 40
1.0
 40
1.0
 40
1.0
 40
1.0
 10
-38.325
 20
-109.0816
 30
0.0
 10
-38.3376
 20
-97.5605
 30
0.0
 10
-38.2021
 20
-93.5863
 30
0.0
 10
-38.3424
 20
-85.9419
 30
0.0
 10
-38.3424
 20
-85.9419
 30
0.0
 10
-36.0936
 20
-83.7347
 30
0.0
 10
-32.9839
 20
-82.3886
 30
0.0
 10
-30.3138
 20
-81.9985
 30
0.0
 10
-30.3138
 20
-81.9985
 30
0.0
 10
-35.5443
 20
-95.3935
 30
0.0
 10
-31.8341
 20
-106.4865
 30
0.0
 10
-24.555
 20
-109.0254
 30
0.0
 10
-24.555
 20
-109.0254
 30
0.0
 10
-24.555
 20
-109.0254
 30
0.0
 10
-38.325
 20
-109.0816
 30
0.0
 10
-38.325
 20
-109.0816
 30
0.0
  0
SPLINE
  5
4E
330
1F
100
AcDbEntity
  8
layer 1
 62
     7
100
AcDbSpline
210
0.0
220
0.0
230
1.0
 70
    11
 71
     3
 72
    20
 73
    16
 74
     0
 42
0.0000000001
 43
0.0000000001
 12
1.0
 22
0.0
 32
0.0
 13
1.0
 23
0.0
 33
0.0
 40
0.0
 40
0.0
 40
0.0
 40
0.0
 40
0.2
 40
0.2
 40
0.2
 40
0.2
 40
0.4
 40
0.4
 40
0.4
 40
0.4
 40
0.6
 40
0.6
 40
0.6
 40
0.6
 40
1.0
 40
1.0
 40
1.0
 40
1.0
 10
26.8871
 20
-109.2812
 30
0.0
 10
29.8558
 20
-109.2431
 30
0.0
 10
43.179
 20
-109.2431
 30
0.0
 10
49.8774
 20
-109.2747
 30
0.0
 10
49.8774
 20
-109.2747
 30
0.0
 10
45.2658
 20
-107.6736
 30
0.0
 10
41.7474
 20
-102.2487
 30
0.0
 10
41.5565
 20
-97.9428
 30
0.0
 10
41.5565
 20
-97.9428
 30
0.0
 10
37.7677
 20
-104.3375
 30
0.0
 10
34.5911
 20
-106.5873
 30
0.0
 10
26.8871
 20
-109.2813
 30
0.0
 10
26.8871
 20
-109.2813
 30
0.0
 10
26.8871
 20
-109.2813
 30
0.0
 10
26.8871
 20
-109.2812
 30
0.0
 10
26.8871
 20
-109.2812
 30
0.0
  0
SPLINE
  5
4F
330
1F
100
AcDbEntity
  8
layer 1
 62
     7
100
AcDbSpline
210
0.0
220
0.0
230
1.0
 70
    11
 71
     3
 72
    44
 73
    40
 74
     0
 42
0.0000000001
 43
0.0000000001
 12
1.0
 22
0.0
 32
0.0
 13
1.0
 23
0.0
 33
0.0
 40
0.0
 40
0.0
 40
0.0
 40
0.0
 40
0.0909090909090909
 40
0.0909090909090909
 40
0.0909090909090909
 40
0.0909090909090909
 40
0.1818181818181818
 40
0.1818181818181818
 40
0.1818181818181818
 40
0.1818181818181818
 40
0.2727272727272727
 40
0.2727272727272727
 40
0.2727272727272727
 40
0.2727272727272727
 40
0.3636363636363636
 40
0.3636363636363636
 40
0.3636363636363636
 40
0.3636363636363636
 40
0.4545454545454545
 40
0.4545454545454545
 40
0.4545454545454545
 40
0.4545454545454545
 40
0.5454545454545454
 40
0.5454545454545454
 40
0.5454545454545454
 40
0.5454545454545454
 40
0.6363636363636364
 40
0.6363636363636364
 40
0.6363636363636364
 40
0.6363636363636364
 40
0.7272727272727273
 40
0.7272727272727273
 40
0.7272727272727273
 40
0.7272727272727273
 40
0.8181818181818182
 40
0.8181818181818182
 40
0.8181818181818182
 40
0.8181818181818182
 40
1.0
 40
1.0
 40
1.0
 40
1.0
 10
-16.1257
 20
-109.2812
 30
0.0
 10
-13.1569
 20
-109.2431
 30
0.0
 10
10.1403
 20
-109.2431
 30
0.0
 10
16.8386
 20
-109.2747
 30
0.0
 10
16.8386
 20
-109.2747
 30
0.0
 10
14.0628
 20
-108.0943
 30
0.0
 10
10.3184
 20
-103.3863
 30
0.0
 10
-0.5061
 20
-104.2441
 30
0.0
 10
-0.5061
 20
-104.2441
 30
0.0
 10
7.7481
 20
-97.2464
 30
0.0
 10
16.1208
 20
-98.5081
 30
0.0
 10
22.4037
 20
-100.1792
 30
0.0
 10
22.4037
 20
-100.1792
 30
0.0
 10
19.6457
 20
-97.4894
 30
0.0
 10
16.6372
 20
-95.5327
 30
0.0
 10
13.7811
 20
-93.8782
 30
0.0
 10
13.7811
 20
-93.8782
 30
0.0
 10
0.255
 20
-86.043
 30
0.0
 10
-1.2454
 20
-79.7231
 30
0.0
 10
-10.8359
 20
-76.7668
 30
0.0
 10
-10.8359
 20
-76.7668
 30
0.0
 10
-25.7275
 20
-72.236
 30
0.0
 10
-30.7262
 20
-87.1274
 30
0.0
 10
-25.2278
 20
-95.3934
 30
0.0
 10
-25.2278
 20
-95.3934
 30
0.0
 10
-20.6207
 20
-100.4037
 30
0.0
 10
-16.4907
 20
-98.8206
 30
0.0
 10
-17.0224
 20
-94.4358
 30
0.0
 10
-17.0224
 20
-94.4358
 30
0.0
 10
-20.9444
 20
-88.1316
 30
0.0
 10
-6.9858
 20
-83.9806
 30
0.0
 10
-5.2063
 20
-96.254
 30
0.0
 10
-5.2063
 20
-96.254
 30
0.0
 10
-4.5016
 20
-102.6808
 30
0.0
 10
-9.358
 20
-106.838
 30
0.0
 10
-16.1257
 20
-109.2815
 30
0.0
 10
-16.1257
 20
-109.2815
 30
0.0
 10
-16.1257
 20
-109.2815
 30
0.0
 10
-16.1257
 20
-109.2812
 30
0.0
 10
-16.1257
 20
-109.2812
 30
0.0
  0
SPLINE
  5
50
330
1F
100
AcDbEntity
  8
layer 1
 62
     7
100
AcDbSpline
210
0.0
220
0.0
230
1.0
 70
    11
 71
     3
 72
    52
 73
    48
 74
     0
 42
0.0000000001
 43
0.0000000001
 12
1.0
 22
0.0
 32
0.0
 13
1.0
 23
0.0
 33
0.0
 40
0.0
 40
0.0
 40
0.0
 40
0.0
 40
0.0769230769230769
 40
0.0769230769230769
 40
0.0769230769230769
 40
0.0769230769230769
 40
0.1538461538461539
 40
0.1538461538461539
 40
0.1538461538461539
 40
0.1538461538461539
 40
0.2307692307692308
 40
0.2307692307692308
 40
0.2307692307692308
 40
0.2307692307692308
 40
0.3076923076923077
 40
0.3076923076923077
 40
0.3076923076923077
 40
0.3076923076923077
 40
0.3846153846153846
 40
0.3846153846153846
 40
0.3846153846153846
 40
0.3846153846153846
 40
0.4615384615384616
 40
0.4615384615384616
 40
0.4615384615384616
 40
0.4615384615384616
 40
0.5384615384615384
 40
0.5384615384615384
 40
0.5384615384615384
 40
0.5384615384615384
 40
0.6153846153846154
 40
0.6153846153846154
 40
0.6153846153846154
 40
0.6153846153846154
 40
0.6923076923076923
 40
0.6923076923076923
 40
0.6923076923076923
 40
0.6923076923076923
 40
0.7692307692307693
 40
0.7692307692307693
 40
0.7692307692307693
 40
0.7692307692307693
 40
0.8461538461538461
 40
0.8461538461538461
 40
0.8461538461538461
 40
0.8461538461538461
 40
1.0
 40
1.0
 40
1.0
 40
1.0
 10
-38.325
 20
-80.0643
 30
0.0
 10
-38.3376
 20
-68.5431
 30
0.0
 10
-37.7646
 20
-15.6096
 30
0.0
 10
-37.9049
 20
-7.9652
 30
0.0
 10
-37.9049
 20
-7.9652
 30
0.0
 10
-31.6101
 20
-13.0519
 30
0.0
 10
-29.8124
 20
-11.2497
 30
0.0
 10
-29.2203
 20
-8.7628
 30
0.0
 10
-29.2203
 20
-8.7628
 30
0.0
 10
-28.4155
 20
-4.4813
 30
0.0
 10
-24.5727
 20
-7.0382
 30
0.0
 10
-23.9943
 20
-9.8283
 30
0.0
 10
-23.9943
 20
-9.8283
 30
0.0
 10
-22.8647
 20
-15.2762
 30
0.0
 10
-21.9426
 20
-23.968
 30
0.0
 10
-22.6824
 20
-26.0896
 30
0.0
 10
-22.6824
 20
-26.0896
 30
0.0
 10
-23.2532
 20
-27.7265
 30
0.0
 10
-27.2261
 20
-22.6427
 30
0.0
 10
-28.4158
 20
-18.1521
 30
0.0
 10
-28.4158
 20
-18.1521
 30
0.0
 10
-33.1787
 20
-37.2884
 30
0.0
 10
-22.0475
 20
-44.013
 30
0.0
 10
-19.6489
 20
-57.1651
 30
0.0
 10
-19.6489
 20
-57.1651
 30
0.0
 10
-22.1602
 20
-55.2791
 30
0.0
 10
-25.9082
 20
-55.0272
 30
0.0
 10
-27.501
 20
-56.0854
 30
0.0
 10
-27.501
 20
-56.0854
 30
0.0
 10
-26.8103
 20
-63.9979
 30
0.0
 10
-19.6107
 20
-64.9834
 30
0.0
 10
-17.8574
 20
-66.5118
 30
0.0
 10
-17.8574
 20
-66.5118
 30
0.0
 10
-15.1824
 20
-68.1704
 30
0.0
 10
-16.3472
 20
-70.3142
 30
0.0
 10
-17.8842
 20
-70.2525
 30
0.0
 10
-17.8842
 20
-70.2525
 30
0.0
 10
-23.4506
 20
-69.7549
 30
0.0
 10
-33.7463
 20
-73.1043
 30
0.0
 10
-35.9145
 20
-79.6312
 30
0.0
 10
-35.9145
 20
-79.6312
 30
0.0
 10
-36.2372
 20
-80.603
 30
0.0
 10
-38.2675
 20
-81.0232
 30
0.0
 10
-38.3248
 20
-80.0641
 30
0.0
 10
-38.3248
 20
-80.0641
 30
0.0
 10
-38.3248
 20
-80.0641
 30
0.0
 10
-38.325
 20
-80.0643
 30
0.0
 10
-38.325
 20
-80.0643
 30
0.0
  0
SPLINE
  5
51
330
1F
100
AcDbEntity
  8
layer 1
 62
     7
100
AcDbSpline
210
0.0
220
0.0
230
1.0
 70
    11
 71
     3
 72
    36
 73
    32
 74
     0
 42
0.0000000001
 43
0.0000000001
 12
1.0
 22
0.0
 32
0.0
 13
1.0
 23
0.0
 33
0.0
 40
0.0
 40
0.0
 40
0.0
 40
0.0
 40
0.1111111111111111
 40
0.1111111111111111
 40
0.1111111111111111
 40
0.1111111111111111
 40
0.2222222222222222
 40
0.2222222222222222
 40
0.2222222222222222
 40
0.2222222222222222
 40
0.3333333333333333
 40
0.3333333333333333
 40
0.3333333333333333
 40
0.3333333333333333
 40
0.4444444444444444
 40
0.4444444444444444
 40
0.4444444444444444
 40
0.4444444444444444
 40
0.5555555555555556
 40
0.5555555555555556
 40
0.5555555555555556
 40
0.5555555555555556
 40
0.6666666666666666
 40
0.6666666666666666
 40
0.6666666666666666
 40
0.6666666666666666
 40
0.7777777777777778
 40
0.7777777777777778
 40
0.7777777777777778
 40
0.7777777777777778
 40
1.0
 40
1.0
 40
1.0
 40
1.0
 10
70.5148
 20
105.9042
 30
0.0
 10
70.4692
 20
103.4291
 30
0.0
 10
70.7744
 20
75.7195
 30
0.0
 10
70.812
 20
70.1349
 30
0.0
 10
70.812
 20
70.1349
 30
0.0
 10
69.8361
 20
70.797
 30
0.0
 10
65.8585
 20
70.4913
 30
0.0
 10
63.5961
 20
66.5947
 30
0.0
 10
63.5961
 20
66.5947
 30
0.0
 10
62.7368
 20
81.147
 30
0.0
 10
55.3564
 20
82.5152
 30
0.0
 10
48.7242
 20
79.6901
 30
0.0
 10
48.7242
 20
79.6901
 30
0.0
 10
50.8327
 20
81.932
 30
0.0
 10
51.5987
 20
87.8161
 30
0.0
 10
51.1335
 20
90.9421
 30
0.0
 10
51.1335
 20
90.9421
 30
0.0
 10
52.9782
 20
88.514
 30
0.0
 10
55.2485
 20
86.843
 30
0.0
 10
57.6345
 20
86.4662
 30
0.0
 10
57.6345
 20
86.4662
 30
0.0
 10
59.5225
 20
91.3679
 30
0.0
 10
56.9239
 20
95.7862
 30
0.0
 10
55.2145
 20
98.895
 30
0.0
 10
55.2145
 20
98.895
 30
0.0
 10
68.9208
 20
97.2359
 30
0.0
 10
67.5876
 20
106.1499
 30
0.0
 10
70.5148
 20
105.9041
 30
0.0
 10
70.5148
 20
105.9041
 30
0.0
 10
70.5148
 20
105.9041
 30
0.0
 10
70.5148
 20
105.9042
 30
0.0
 10
70.5148
 20
105.9042
 30
0.0
  0
SPLINE
  5
52
330
1F
100
AcDbEntity
  8
layer 1
 62
     7
100
AcDbSpline
210
0.0
220
0.0
230
1.0
 70
    11
 71
     3
 72
    44
 73
    40
 74
     0
 42
0.0000000001
 43
0.0000000001
 12
1.0
 22
0.0
 32
0.0
 13
1.0
 23
0.0
 33
0.0
 40
0.0
 40
0.0
 40
0.0
 40
0.0
 40
0.0909090909090909
 40
0.0909090909090909
 40
0.0909090909090909
 40
0.0909090909090909
 40
0.1818181818181818
 40
0.1818181818181818
 40
0.1818181818181818
 40
0.1818181818181818
 40
0.2727272727272727
 40
0.2727272727272727
 40
0.2727272727272727
 40
0.2727272727272727
 40
0.3636363636363636
 40
0.3636363636363636
 40
0.3636363636363636
 40
0.3636363636363636
 40
0.4545454545454545
 40
0.4545454545454545
 40
0.4545454545454545
 40
0.4545454545454545
 40
0.5454545454545454
 40
0.5454545454545454
 40
0.5454545454545454
 40
0.5454545454545454
 40
0.6363636363636364
 40
0.6363636363636364
 40
0.6363636363636364
 40
0.6363636363636364
 40
0.7272727272727273
 40
0.7272727272727273
 40
0.7272727272727273
 40
0.7272727272727273
 40
0.8181818181818182
 40
0.8181818181818182
 40
0.8181818181818182
 40
0.8181818181818182
 40
1.0
 40
1.0
 40
1.0
 40
1.0
 10
-38.325
 20
-2.2041
 30
0.0
 10
-38.3376
 20
9.317
 30
0.0
 10
-38.1002
 20
43.5089
 30
0.0
 10
-38.2405
 20
51.1533
 30
0.0
 10
-38.2405
 20
51.1533
 30
0.0
 10
-30.4358
 20
35.2972
 30
0.0
 10
-18.2374
 20
52.2046
 30
0.0
 10
-29.7236
 20
53.4327
 30
0.0
 10
-29.7236
 20
53.4327
 30
0.0
 10
-32.6396
 20
59.0237
 30
0.0
 10
-20.5243
 20
63.693
 30
0.0
 10
-14.7678
 20
54.3952
 30
0.0
 10
-14.7678
 20
54.3952
 30
0.0
 10
-12.464
 20
49.5068
 30
0.0
 10
-11.8859
 20
38.4404
 30
0.0
 10
-15.6369
 20
33.0288
 30
0.0
 10
-15.6369
 20
33.0288
 30
0.0
 10
-18.2207
 20
32.5108
 30
0.0
 10
-16.2382
 20
38.0841
 30
0.0
 10
-19.6089
 20
43.1341
 30
0.0
 10
-19.6089
 20
43.1341
 30
0.0
 10
-23.7006
 20
36.4457
 30
0.0
 10
-24.8996
 20
21.5391
 30
0.0
 10
-24.8495
 20
15.1004
 30
0.0
 10
-24.8495
 20
15.1004
 30
0.0
 10
-28.8707
 20
22.3011
 30
0.0
 10
-34.7995
 20
20.7347
 30
0.0
 10
-32.5338
 20
17.8583
 30
0.0
 10
-32.5338
 20
17.8583
 30
0.0
 10
-27.4816
 20
12.1837
 30
0.0
 10
-36.2188
 20
8.4009
 30
0.0
 10
-27.923
 20
0.1591
 30
0.0
 10
-27.923
 20
0.1591
 30
0.0
 10
-32.0062
 20
1.5165
 30
0.0
 10
-35.2288
 20
0.3857
 30
0.0
 10
-35.5201
 20
-1.2778
 30
0.0
 10
-35.5201
 20
-1.2778
 30
0.0
 10
-35.8115
 20
-2.9414
 30
0.0
 10
-38.2678
 20
-3.2637
 30
0.0
 10
-38.325
 20
-2.2041
 30
0.0
  0
SPLINE
  5
53
330
1F
100
AcDbEntity
  8
layer 1
 62
     7
100
AcDbSpline
210
0.0
220
0.0
230
1.0
 70
    11
 71
     3
 72
    56
 73
    52
 74
     0
 42
0.0000000001
 43
0.0000000001
 12
1.0
 22
0.0
 32
0.0
 13
1.0
 23
0.0
 33
0.0
 40
0.0
 40
0.0
 40
0.0
 40
0.0
 40
0.0714285714285714
 40
0.0714285714285714
 40
0.0714285714285714
 40
0.0714285714285714
 40
0.1428571428571428
 40
0.1428571428571428
 40
0.1428571428571428
 40
0.1428571428571428
 40
0.2142857142857143
 40
0.2142857142857143
 40
0.2142857142857143
 40
0.2142857142857143
 40
0.2857142857142857
 40
0.2857142857142857
 40
0.2857142857142857
 40
0.2857142857142857
 40
0.3571428571428572
 40
0.3571428571428572
 40
0.3571428571428572
 40
0.3571428571428572
 40
0.4285714285714285
 40
0.4285714285714285
 40
0.4285714285714285
 40
0.4285714285714285
 40
0.5
 40
0.5
 40
0.5
 40
0.5
 40
0.5714285714285714
 40
0.5714285714285714
 40
0.5714285714285714
 40
0.5714285714285714
 40
0.6428571428571429
 40
0.6428571428571429
 40
0.6428571428571429
 40
0.6428571428571429
 40
0.7142857142857143
 40
0.7142857142857143
 40
0.7142857142857143
 40
0.7142857142857143
 40
0.7857142857142857
 40
0.7857142857142857
 40
0.7857142857142857
 40
0.7857142857142857
 40
0.8571428571428571
 40
0.8571428571428571
 40
0.8571428571428571
 40
0.8571428571428571
 40
1.0
 40
1.0
 40
1.0
 40
1.0
 10
-38.2195
 20
57.5691
 30
0.0
 10
-38.2321
 20
69.0903
 30
0.0
 10
-38.2062
 20
70.962
 30
0.0
 10
-38.3466
 20
78.6065
 30
0.0
 10
-38.3466
 20
78.6065
 30
0.0
 10
-35.9382
 20
81.9149
 30
0.0
 10
-30.434
 20
79.0399
 30
0.0
 10
-32.4916
 20
89.7009
 30
0.0
 10
-32.4916
 20
89.7009
 30
0.0
 10
-28.0654
 20
88.6802
 30
0.0
 10
-26.1665
 20
93.2045
 30
0.0
 10
-25.5881
 20
96.7474
 30
0.0
 10
-25.5881
 20
96.7474
 30
0.0
 10
-21.3181
 20
79.8377
 30
0.0
 10
-10.3778
 20
81.2656
 30
0.0
 10
-7.5845
 20
84.9617
 30
0.0
 10
-7.5845
 20
84.9617
 30
0.0
 10
-8.7029
 20
71.3811
 30
0.0
 10
4.9791
 20
76.3898
 30
0.0
 10
2.5528
 20
84.2679
 30
0.0
 10
2.5528
 20
84.2679
 30
0.0
 10
13.3425
 20
81.9543
 30
0.0
 10
11.3622
 20
70.8407
 30
0.0
 10
5.8333
 20
61.6945
 30
0.0
 10
5.8333
 20
61.6945
 30
0.0
 10
2.9402
 20
56.9086
 30
0.0
 10
-1.2779
 20
55.0179
 30
0.0
 10
-4.4397
 20
50.4961
 30
0.0
 10
-4.4397
 20
50.4961
 30
0.0
 10
-6.5095
 20
54.5913
 30
0.0
 10
-2.9261
 20
61.6919
 30
0.0
 10
-6.1972
 20
65.1257
 30
0.0
 10
-6.1972
 20
65.1257
 30
0.0
 10
-8.863
 20
63.3992
 30
0.0
 10
-10.4961
 20
61.7509
 30
0.0
 10
-11.3928
 20
58.4552
 30
0.0
 10
-11.3928
 20
58.4552
 30
0.0
 10
-15.4307
 20
72.1877
 30
0.0
 10
-25.5167
 20
74.9042
 30
0.0
 10
-27.0537
 20
74.9658
 30
0.0
 10
-27.0537
 20
74.9658
 30
0.0
 10
-28.8221
 20
71.6342
 30
0.0
 10
-27.9828
 20
66.2778
 30
0.0
 10
-24.6803
 20
63.967
 30
0.0
 10
-24.6803
 20
63.967
 30
0.0
 10
-34.2198
 20
66.1767
 30
0.0
 10
-38.1627
 20
56.6101
 30
0.0
 10
-38.2201
 20
57.5691
 30
0.0
 10
-38.2201
 20
57.5691
 30
0.0
 10
-38.2201
 20
57.5691
 30
0.0
 10
-38.2195
 20
57.5691
 30
0.0
 10
-38.2195
 20
57.5691
 30
0.0
  0
SPLINE
  5
54
330
1F
100
AcDbEntity
  8
layer 1
 62
     7
100
AcDbSpline
210
0.0
220
0.0
230
1.0
 70
    11
 71
     3
 72
    64
 73
    60
 74
     0
 42
0.0000000001
 43
0.0000000001
 12
1.0
 22
0.0
 32
0.0
 13
1.0
 23
0.0
 33
0.0
 40
0.0
 40
0.0
 40
0.0
 40
0.0
 40
0.0625
 40
0.0625
 40
0.0625
 40
0.0625
 40
0.125
 40
0.125
 40
0.125
 40
0.125
 40
0.1875
 40
0.1875
 40
0.1875
 40
0.1875
 40
0.25
 40
0.25
 40
0.25
 40
0.25
 40
0.3125
 40
0.3125
 40
0.3125
 40
0.3125
 40
0.375
 40
0.375
 40
0.375
 40
0.375
 40
0.4375
 40
0.4375
 40
0.4375
 40
0.4375
 40
0.5
 40
0.5
 40
0.5
 40
0.5
 40
0.5625
 40
0.5625
 40
0.5625
 40
0.5625
 40
0.625
 40
0.625
 40
0.625
 40
0.625
 40
0.6875
 40
0.6875
 40
0.6875
 40
0.6875
 40
0.75
 40
0.75
 40
0.75
 40
0.75
 40
0.8125
 40
0.8125
 40
0.8125
 40
0.8125
 40
0.875
 40
0.875
 40
0.875
 40
0.875
 40
1.0
 40
1.0
 40
1.0
 40
1.0
 10
30.7899
 20
-27.4449
 30
0.0
 10
35.3677
 20
-23.7464
 30
0.0
 10
42.7789
 20
-32.4419
 30
0.0
 10
41.9558
 20
-40.5807
 30
0.0
 10
41.9558
 20
-40.5807
 30
0.0
 10
43.7567
 20
-37.8032
 30
0.0
 10
47.8525
 20
-31.5639
 30
0.0
 10
52.5112
 20
-29.9989
 30
0.0
 10
52.5112
 20
-29.9989
 30
0.0
 10
55.9245
 20
-32.4924
 30
0.0
 10
52.6471
 20
-40.1225
 30
0.0
 10
52.0187
 20
-43.0002
 30
0.0
 10
52.0187
 20
-43.0002
 30
0.0
 10
64.207
 20
-40.4748
 30
0.0
 10
64.7867
 20
-23.2573
 30
0.0
 10
62.7796
 20
-20.1003
 30
0.0
 10
62.7796
 20
-20.1003
 30
0.0
 10
57.4877
 20
-10.3465
 30
0.0
 10
48.6152
 20
-15.0652
 30
0.0
 10
50.6978
 20
-18.7266
 30
0.0
 10
50.6978
 20
-18.7266
 30
0.0
 10
59.4387
 20
-17.5812
 30
0.0
 10
56.6972
 20
-30.7157
 30
0.0
 10
47.2701
 20
-25.9798
 30
0.0
 10
47.2701
 20
-25.9798
 30
0.0
 10
38.1024
 20
-17.9641
 30
0.0
 10
46.4099
 20
-10.945
 30
0.0
 10
50.7209
 20
-10.0077
 30
0.0
 10
50.7209
 20
-10.0077
 30
0.0
 10
44.5626
 20
-7.689
 30
0.0
 10
45.7047
 20
-4.8153
 30
0.0
 10
45.3239
 20
-2.3683
 30
0.0
 10
45.3239
 20
-2.3683
 30
0.0
 10
39.3008
 20
-0.7895
 30
0.0
 10
37.5682
 20
4.3963
 30
0.0
 10
37.7017
 20
6.8726
 30
0.0
 10
37.7017
 20
6.8726
 30
0.0
 10
36.3735
 20
5.429
 30
0.0
 10
34.639
 20
3.8841
 30
0.0
 10
33.02
 20
3.1108
 30
0.0
 10
33.02
 20
3.1108
 30
0.0
 10
36.8992
 20
0.3475
 30
0.0
 10
34.3866
 20
-6.3198
 30
0.0
 10
27.2942
 20
-6.7791
 30
0.0
 10
27.2942
 20
-6.7791
 30
0.0
 10
35.3226
 20
-10.4892
 30
0.0
 10
38.1867
 20
-19.4763
 30
0.0
 10
39.521
 20
-21.6764
 30
0.0
 10
39.521
 20
-21.6764
 30
0.0
 10
36.8074
 20
-22.9413
 30
0.0
 10
34.1176
 20
-22.0913
 30
0.0
 10
32.9955
 20
-20.3655
 30
0.0
 10
32.9955
 20
-20.3655
 30
0.0
 10
32.5557
 20
-23.4632
 30
0.0
 10
31.9766
 20
-25.1081
 30
0.0
 10
30.79
 20
-27.4451
 30
0.0
 10
30.79
 20
-27.4451
 30
0.0
 10
30.79
 20
-27.4451
 30
0.0
 10
30.7899
 20
-27.4449
 30
0.0
 10
30.7899
 20
-27.4449
 30
0.0
  0
SPLINE
  5
55
330
1F
100
AcDbEntity
  8
layer 1
 62
     7
100
AcDbSpline
210
0.0
220
0.0
230
1.0
 70
    11
 71
     3
 72
    36
 73
    32
 74
     0
 42
0.0000000001
 43
0.0000000001
 12
1.0
 22
0.0
 32
0.0
 13
1.0
 23
0.0
 33
0.0
 40
0.0
 40
0.0
 40
0.0
 40
0.0
 40
0.1111111111111111
 40
0.1111111111111111
 40
0.1111111111111111
 40
0.1111111111111111
 40
0.2222222222222222
 40
0.2222222222222222
 40
0.2222222222222222
 40
0.2222222222222222
 40
0.3333333333333333
 40
0.3333333333333333
 40
0.3333333333333333
 40
0.3333333333333333
 40
0.4444444444444444
 40
0.4444444444444444
 40
0.4444444444444444
 40
0.4444444444444444
 40
0.5555555555555556
 40
0.5555555555555556
 40
0.5555555555555556
 40
0.5555555555555556
 40
0.6666666666666666
 40
0.6666666666666666
 40
0.6666666666666666
 40
0.6666666666666666
 40
0.7777777777777778
 40
0.7777777777777778
 40
0.7777777777777778
 40
0.7777777777777778
 40
1.0
 40
1.0
 40
1.0
 40
1.0
 10
6.851
 20
-71.0332
 30
0.0
 10
6.0
 20
-64.9503
 30
0.0
 10
6.639
 20
-60.6358
 30
0.0
 10
7.9141
 20
-57.8025
 30
0.0
 10
7.9141
 20
-57.8025
 30
0.0
 10
8.7122
 20
-59.1144
 30
0.0
 10
10.5858
 20
-61.178
 30
0.0
 10
10.9185
 20
-65.6824
 30
0.0
 10
10.9185
 20
-65.6824
 30
0.0
 10
12.6313
 20
-61.4181
 30
0.0
 10
12.8751
 20
-56.8091
 30
0.0
 10
15.7271
 20
-52.7448
 30
0.0
 10
15.7271
 20
-52.7448
 30
0.0
 10
19.8124
 20
-37.9208
 30
0.0
 10
8.7661
 20
-37.2298
 30
0.0
 10
6.2514
 20
-40.9252
 30
0.0
 10
6.2514
 20
-40.9252
 30
0.0
 10
9.1846
 20
-40.9767
 30
0.0
 10
11.4091
 20
-44.3136
 30
0.0
 10
8.6122
 20
-47.2223
 30
0.0
 10
8.6122
 20
-47.2223
 30
0.0
 10
5.1265
 20
-49.1996
 30
0.0
 10
1.8593
 20
-48.129
 30
0.0
 10
-0.2267
 20
-46.0397
 30
0.0
 10
-0.2267
 20
-46.0397
 30
0.0
 10
0.1112
 20
-48.9267
 30
0.0
 10
3.076
 20
-65.2703
 30
0.0
 10
6.8508
 20
-71.0333
 30
0.0
 10
6.8508
 20
-71.0333
 30
0.0
 10
6.8508
 20
-71.0333
 30
0.0
 10
6.851
 20
-71.0332
 30
0.0
 10
6.851
 20
-71.0332
 30
0.0
  0
SPLINE
  5
56
330
1F
100
AcDbEntity
  8
layer 1
 62
     7
100
AcDbSpline
210
0.0
220
0.0
230
1.0
 70
    11
 71
     3
 72
    48
 73
    44
 74
     0
 42
0.0000000001
 43
0.0000000001
 12
1.0
 22
0.0
 32
0.0
 13
1.0
 23
0.0
 33
0.0
 40
0.0
 40
0.0
 40
0.0
 40
0.0
 40
0.0833333333333333
 40
0.0833333333333333
 40
0.0833333333333333
 40
0.0833333333333333
 40
0.1666666666666667
 40
0.1666666666666667
 40
0.1666666666666667
 40
0.1666666666666667
 40
0.25
 40
0.25
 40
0.25
 40
0.25
 40
0.3333333333333333
 40
0.3333333333333333
 40
0.3333333333333333
 40
0.3333333333333333
 40
0.4166666666666667
 40
0.4166666666666667
 40
0.4166666666666667
 40
0.4166666666666667
 40
0.5
 40
0.5
 40
0.5
 40
0.5
 40
0.5833333333333334
 40
0.5833333333333334
 40
0.5833333333333334
 40
0.5833333333333334
 40
0.6666666666666666
 40
0.6666666666666666
 40
0.6666666666666666
 40
0.6666666666666666
 40
0.75
 40
0.75
 40
0.75
 40
0.75
 40
0.8333333333333334
 40
0.8333333333333334
 40
0.8333333333333334
 40
0.8333333333333334
 40
1.0
 40
1.0
 40
1.0
 40
1.0
 10
35.4348
 20
-81.7574
 30
0.0
 10
37.1385
 20
-87.7907
 30
0.0
 10
29.7715
 20
-86.8657
 30
0.0
 10
27.7563
 20
-83.9849
 30
0.0
 10
27.7563
 20
-83.9849
 30
0.0
 10
25.6219
 20
-80.9335
 30
0.0
 10
25.9189
 20
-76.2195
 30
0.0
 10
29.3516
 20
-74.4158
 30
0.0
 10
29.3516
 20
-74.4158
 30
0.0
 10
30.5475
 20
-73.569
 30
0.0
 10
32.5868
 20
-71.7849
 30
0.0
 10
29.9401
 20
-70.2889
 30
0.0
 10
29.9401
 20
-70.2889
 30
0.0
 10
20.1439
 20
-65.1704
 30
0.0
 10
32.0668
 20
-54.4286
 30
0.0
 10
33.0406
 20
-62.433
 30
0.0
 10
33.0406
 20
-62.433
 30
0.0
 10
33.2661
 20
-64.8535
 30
0.0
 10
35.7796
 20
-63.345
 30
0.0
 10
36.0388
 20
-61.3554
 30
0.0
 10
36.0388
 20
-61.3554
 30
0.0
 10
36.5549
 20
-52.9793
 30
0.0
 10
28.4733
 20
-53.3483
 30
0.0
 10
24.5635
 20
-55.1444
 30
0.0
 10
24.5635
 20
-55.1444
 30
0.0
 10
15.2751
 20
-59.5871
 30
0.0
 10
13.6887
 20
-70.5749
 30
0.0
 10
13.4963
 20
-76.8307
 30
0.0
 10
13.4963
 20
-76.8307
 30
0.0
 10
15.6545
 20
-89.0963
 30
0.0
 10
26.3438
 20
-93.6566
 30
0.0
 10
33.2563
 20
-93.8556
 30
0.0
 10
33.2563
 20
-93.8556
 30
0.0
 10
39.0736
 20
-93.4275
 30
0.0
 10
46.4378
 20
-89.1703
 30
0.0
 10
43.5129
 20
-80.0665
 30
0.0
 10
43.5129
 20
-80.0665
 30
0.0
 10
41.9748
 20
-73.8217
 30
0.0
 10
31.7921
 20
-72.1937
 30
0.0
 10
35.4348
 20
-81.7575
 30
0.0
 10
35.4348
 20
-81.7575
 30
0.0
 10
35.4348
 20
-81.7575
 30
0.0
 10
35.4348
 20
-81.7574
 30
0.0
 10
35.4348
 20
-81.7574
 30
0.0
  0
SPLINE
  5
57
330
1F
100
AcDbEntity
  8
layer 1
 62
     7
100
AcDbSpline
210
0.0
220
0.0
230
1.0
 70
    11
 71
     3
 72
    60
 73
    56
 74
     0
 42
0.0000000001
 43
0.0000000001
 12
1.0
 22
0.0
 32
0.0
 13
1.0
 23
0.0
 33
0.0
 40
0.0
 40
0.0
 40
0.0
 40
0.0
 40
0.0666666666666667
 40
0.0666666666666667
 40
0.0666666666666667
 40
0.0666666666666667
 40
0.1333333333333333
 40
0.1333333333333333
 40
0.1333333333333333
 40
0.1333333333333333
 40
0.2
 40
0.2
 40
0.2
 40
0.2
 40
0.2666666666666667
 40
0.2666666666666667
 40
0.2666666666666667
 40
0.2666666666666667
 40
0.3333333333333333
 40
0.3333333333333333
 40
0.3333333333333333
 40
0.3333333333333333
 40
0.4
 40
0.4
 40
0.4
 40
0.4
 40
0.4666666666666667
 40
0.4666666666666667
 40
0.4666666666666667
 40
0.4666666666666667
 40
0.5333333333333333
 40
0.5333333333333333
 40
0.5333333333333333
 40
0.5333333333333333
 40
0.6
 40
0.6
 40
0.6
 40
0.6
 40
0.6666666666666666
 40
0.6666666666666666
 40
0.6666666666666666
 40
0.6666666666666666
 40
0.7333333333333333
 40
0.7333333333333333
 40
0.7333333333333333
 40
0.7333333333333333
 40
0.8
 40
0.8
 40
0.8
 40
0.8
 40
0.8666666666666667
 40
0.8666666666666667
 40
0.8666666666666667
 40
0.8666666666666667
 40
1.0
 40
1.0
 40
1.0
 40
1.0
 10
23.9604
 20
63.0568
 30
0.0
 10
25.4108
 20
66.6183
 30
0.0
 10
30.7611
 20
67.0395
 30
0.0
 10
30.0582
 20
70.8167
 30
0.0
 10
30.0582
 20
70.8167
 30
0.0
 10
27.8877
 20
69.1952
 30
0.0
 10
22.4296
 20
71.7969
 30
0.0
 10
15.9675
 20
67.1497
 30
0.0
 10
15.9675
 20
67.1497
 30
0.0
 10
20.6542
 20
81.49
 30
0.0
 10
14.6569
 20
91.9127
 30
0.0
 10
25.8685
 20
101.3069
 30
0.0
 10
25.8685
 20
101.3069
 30
0.0
 10
39.3261
 20
110.5625
 30
0.0
 10
53.5943
 20
96.432
 30
0.0
 10
43.6523
 20
85.2992
 30
0.0
 10
43.6523
 20
85.2992
 30
0.0
 10
40.528
 20
81.9876
 30
0.0
 10
34.5268
 20
82.8445
 30
0.0
 10
38.3439
 20
86.9059
 30
0.0
 10
38.3439
 20
86.9059
 30
0.0
 10
41.9067
 20
90.6966
 30
0.0
 10
36.0887
 20
96.884
 30
0.0
 10
30.8193
 20
89.6945
 30
0.0
 10
30.8193
 20
89.6945
 30
0.0
 10
27.7572
 20
85.2305
 30
0.0
 10
30.167
 20
74.088
 30
0.0
 10
40.0329
 20
77.9969
 30
0.0
 10
40.0329
 20
77.9969
 30
0.0
 10
39.1439
 20
76.1276
 30
0.0
 10
38.4737
 20
74.5439
 30
0.0
 10
38.3059
 20
71.7892
 30
0.0
 10
38.3059
 20
71.7892
 30
0.0
 10
40.5193
 20
71.5525
 30
0.0
 10
41.4715
 20
71.3912
 30
0.0
 10
45.7631
 20
76.1399
 30
0.0
 10
45.7631
 20
76.1399
 30
0.0
 10
44.4141
 20
71.6609
 30
0.0
 10
44.4997
 20
68.3577
 30
0.0
 10
48.4419
 20
66.8991
 30
0.0
 10
48.4419
 20
66.8991
 30
0.0
 10
51.9064
 20
65.6173
 30
0.0
 10
56.3958
 20
68.3075
 30
0.0
 10
53.9124
 20
72.9253
 30
0.0
 10
53.9124
 20
72.9253
 30
0.0
 10
60.0464
 20
72.479
 30
0.0
 10
63.3033
 20
54.2594
 30
0.0
 10
47.5098
 20
58.3039
 30
0.0
 10
47.5098
 20
58.3039
 30
0.0
 10
36.3511
 20
63.4964
 30
0.0
 10
27.7752
 20
63.8225
 30
0.0
 10
23.9606
 20
63.057
 30
0.0
 10
23.9606
 20
63.057
 30
0.0
 10
23.9606
 20
63.057
 30
0.0
 10
23.9604
 20
63.0568
 30
0.0
 10
23.9604
 20
63.0568
 30
0.0
  0
SPLINE
  5
58
330
1F
100
AcDbEntity
  8
layer 1
 62
     7
100
AcDbSpline
210
0.0
220
0.0
230
1.0
 70
    11
 71
     3
 72
    28
 73
    24
 74
     0
 42
0.0000000001
 43
0.0000000001
 12
1.0
 22
0.0
 32
0.0
 13
1.0
 23
0.0
 33
0.0
 40
0.0
 40
0.0
 40
0.0
 40
0.0
 40
0.1428571428571428
 40
0.1428571428571428
 40
0.1428571428571428
 40
0.1428571428571428
 40
0.2857142857142857
 40
0.2857142857142857
 40
0.2857142857142857
 40
0.2857142857142857
 40
0.4285714285714285
 40
0.4285714285714285
 40
0.4285714285714285
 40
0.4285714285714285
 40
0.5714285714285714
 40
0.5714285714285714
 40
0.5714285714285714
 40
0.5714285714285714
 40
0.7142857142857143
 40
0.7142857142857143
 40
0.7142857142857143
 40
0.7142857142857143
 40
1.0
 40
1.0
 40
1.0
 40
1.0
 10
18.5457
 20
26.8344
 30
0.0
 10
14.996
 20
29.1073
 30
0.0
 10
14.4517
 20
34.8172
 30
0.0
 10
16.1149
 20
37.484
 30
0.0
 10
16.1149
 20
37.484
 30
0.0
 10
18.118
 20
40.6955
 30
0.0
 10
23.2607
 20
40.6366
 30
0.0
 10
23.8262
 20
35.9499
 30
0.0
 10
23.8262
 20
35.9499
 30
0.0
 10
23.595
 20
35.026
 30
0.0
 10
23.5805
 20
34.2722
 30
0.0
 10
21.4807
 20
33.9783
 30
0.0
 10
21.4807
 20
33.9783
 30
0.0
 10
18.7692
 20
32.6714
 30
0.0
 10
20.3717
 20
29.4969
 30
0.0
 10
22.8655
 20
28.69
 30
0.0
 10
22.8655
 20
28.69
 30
0.0
 10
20.6531
 20
28.362
 30
0.0
 10
19.7185
 20
27.7012
 30
0.0
 10
18.5455
 20
26.8344
 30
0.0
 10
18.5455
 20
26.8344
 30
0.0
 10
18.5455
 20
26.8344
 30
0.0
 10
18.5457
 20
26.8344
 30
0.0
 10
18.5457
 20
26.8344
 30
0.0
  0
SPLINE
  5
59
330
1F
100
AcDbEntity
  8
layer 1
 62
     7
100
AcDbSpline
210
0.0
220
0.0
230
1.0
 70
    11
 71
     3
 72
    64
 73
    60
 74
     0
 42
0.0000000001
 43
0.0000000001
 12
1.0
 22
0.0
 32
0.0
 13
1.0
 23
0.0
 33
0.0
 40
0.0
 40
0.0
 40
0.0
 40
0.0
 40
0.0625
 40
0.0625
 40
0.0625
 40
0.0625
 40
0.125
 40
0.125
 40
0.125
 40
0.125
 40
0.1875
 40
0.1875
 40
0.1875
 40
0.1875
 40
0.25
 40
0.25
 40
0.25
 40
0.25
 40
0.3125
 40
0.3125
 40
0.3125
 40
0.3125
 40
0.375
 40
0.375
 40
0.375
 40
0.375
 40
0.4375
 40
0.4375
 40
0.4375
 40
0.4375
 40
0.5
 40
0.5
 40
0.5
 40
0.5
 40
0.5625
 40
0.5625
 40
0.5625
 40
0.5625
 40
0.625
 40
0.625
 40
0.625
 40
0.625
 40
0.6875
 40
0.6875
 40
0.6875
 40
0.6875
 40
0.75
 40
0.75
 40
0.75
 40
0.75
 40
0.8125
 40
0.8125
 40
0.8125
 40
0.8125
 40
0.875
 40
0.875
 40
0.875
 40
0.875
 40
1.0
 40
1.0
 40
1.0
 40
1.0
 10
27.9584
 20
30.8984
 30
0.0
 10
31.3108
 20
35.3965
 30
0.0
 10
29.9934
 20
43.9447
 30
0.0
 10
21.775
 20
43.389
 30
0.0
 10
21.775
 20
43.389
 30
0.0
 10
23.2517
 20
44.4886
 30
0.0
 10
23.8411
 20
49.1141
 30
0.0
 10
22.2595
 20
50.6667
 30
0.0
 10
22.2595
 20
50.6667
 30
0.0
 10
20.5707
 20
45.0101
 30
0.0
 10
9.575
 20
42.8804
 30
0.0
 10
10.451
 20
34.3774
 30
0.0
 10
10.451
 20
34.3774
 30
0.0
 10
9.3552
 20
35.3332
 30
0.0
 10
8.5589
 20
36.0483
 30
0.0
 10
5.8535
 20
36.1399
 30
0.0
 10
5.8535
 20
36.1399
 30
0.0
 10
6.294
 20
34.3102
 30
0.0
 10
6.7622
 20
32.5952
 30
0.0
 10
6.4149
 20
30.7638
 30
0.0
 10
6.4149
 20
30.7638
 30
0.0
 10
2.7332
 20
35.1011
 30
0.0
 10
-1.1306
 20
35.173
 30
0.0
 10
-2.46
 20
34.7426
 30
0.0
 10
-2.46
 20
34.7426
 30
0.0
 10
-2.5603
 20
33.8328
 30
0.0
 10
-2.1431
 20
32.8035
 30
0.0
 10
-2.6619
 20
32.4531
 30
0.0
 10
-2.6619
 20
32.4531
 30
0.0
 10
-5.8744
 20
33.5437
 30
0.0
 10
-8.1033
 20
32.8226
 30
0.0
 10
-10.7879
 20
31.1388
 30
0.0
 10
-10.7879
 20
31.1388
 30
0.0
 10
1.9539
 20
56.8402
 30
0.0
 10
22.7758
 20
57.1662
 30
0.0
 10
26.9031
 20
57.0146
 30
0.0
 10
26.9031
 20
57.0146
 30
0.0
 10
44.7209
 20
56.8605
 30
0.0
 10
56.1344
 20
39.8836
 30
0.0
 10
47.0777
 20
31.0451
 30
0.0
 10
47.0777
 20
31.0451
 30
0.0
 10
45.5579
 20
30.2148
 30
0.0
 10
44.0306
 20
30.5351
 30
0.0
 10
44.3399
 20
31.9698
 30
0.0
 10
44.3399
 20
31.9698
 30
0.0
 10
45.3633
 20
35.1924
 30
0.0
 10
44.5911
 20
38.2661
 30
0.0
 10
40.8746
 20
38.2108
 30
0.0
 10
40.8746
 20
38.2108
 30
0.0
 10
37.3338
 20
38.1581
 30
0.0
 10
34.0697
 20
36.1672
 30
0.0
 10
36.1441
 20
29.9513
 30
0.0
 10
36.1441
 20
29.9513
 30
0.0
 10
33.3154
 20
30.5576
 30
0.0
 10
30.3077
 20
30.9712
 30
0.0
 10
27.9582
 20
30.8984
 30
0.0
 10
27.9582
 20
30.8984
 30
0.0
 10
27.9582
 20
30.8984
 30
0.0
 10
27.9584
 20
30.8984
 30
0.0
 10
27.9584
 20
30.8984
 30
0.0
  0
SPLINE
  5
5A
330
1F
100
AcDbEntity
  8
layer 1
 62
     7
100
AcDbSpline
210
0.0
220
0.0
230
1.0
 70
    11
 71
     3
 72
    56
 73
    52
 74
     0
 42
0.0000000001
 43
0.0000000001
 12
1.0
 22
0.0
 32
0.0
 13
1.0
 23
0.0
 33
0.0
 40
0.0
 40
0.0
 40
0.0
 40
0.0
 40
0.0714285714285714
 40
0.0714285714285714
 40
0.0714285714285714
 40
0.0714285714285714
 40
0.1428571428571428
 40
0.1428571428571428
 40
0.1428571428571428
 40
0.1428571428571428
 40
0.2142857142857143
 40
0.2142857142857143
 40
0.2142857142857143
 40
0.2142857142857143
 40
0.2857142857142857
 40
0.2857142857142857
 40
0.2857142857142857
 40
0.2857142857142857
 40
0.3571428571428572
 40
0.3571428571428572
 40
0.3571428571428572
 40
0.3571428571428572
 40
0.4285714285714285
 40
0.4285714285714285
 40
0.4285714285714285
 40
0.4285714285714285
 40
0.5
 40
0.5
 40
0.5
 40
0.5
 40
0.5714285714285714
 40
0.5714285714285714
 40
0.5714285714285714
 40
0.5714285714285714
 40
0.6428571428571429
 40
0.6428571428571429
 40
0.6428571428571429
 40
0.6428571428571429
 40
0.7142857142857143
 40
0.7142857142857143
 40
0.7142857142857143
 40
0.7142857142857143
 40
0.7857142857142857
 40
0.7857142857142857
 40
0.7857142857142857
 40
0.7857142857142857
 40
0.8571428571428571
 40
0.8571428571428571
 40
0.8571428571428571
 40
0.8571428571428571
 40
1.0
 40
1.0
 40
1.0
 40
1.0
 10
11.5669
 20
-23.0231
 30
0.0
 10
18.2985
 20
-25.9087
 30
0.0
 10
22.6585
 20
-36.774
 30
0.0
 10
21.8356
 20
-44.9128
 30
0.0
 10
21.8356
 20
-44.9128
 30
0.0
 10
22.8288
 20
-43.6317
 30
0.0
 10
24.2323
 20
-42.7794
 30
0.0
 10
26.6476
 20
-41.6634
 30
0.0
 10
26.6476
 20
-41.6634
 30
0.0
 10
27.6377
 20
-44.2316
 30
0.0
 10
26.5142
 20
-46.7741
 30
0.0
 10
25.4371
 20
-48.8287
 30
0.0
 10
25.4371
 20
-48.8287
 30
0.0
 10
37.6253
 20
-46.3032
 30
0.0
 10
37.2179
 20
-37.69
 30
0.0
 10
35.2107
 20
-34.5329
 30
0.0
 10
35.2107
 20
-34.5329
 30
0.0
 10
33.4186
 20
-41.0898
 30
0.0
 10
22.3924
 20
-37.4287
 30
0.0
 10
27.8852
 20
-30.6902
 30
0.0
 10
27.8852
 20
-30.6902
 30
0.0
 10
22.8959
 20
-30.5173
 30
0.0
 10
19.3466
 20
-28.5384
 30
0.0
 10
18.2655
 20
-24.3262
 30
0.0
 10
18.2655
 20
-24.3262
 30
0.0
 10
16.995
 20
-20.2012
 30
0.0
 10
24.4948
 20
-17.8956
 30
0.0
 10
24.4086
 20
-22.2704
 30
0.0
 10
24.4086
 20
-22.2704
 30
0.0
 10
24.3526
 20
-25.1892
 30
0.0
 10
28.3666
 20
-22.8392
 30
0.0
 10
28.7035
 20
-21.3648
 30
0.0
 10
28.7035
 20
-21.3648
 30
0.0
 10
31.6547
 20
-13.6508
 30
0.0
 10
16.1019
 20
-6.4449
 30
0.0
 10
14.4405
 20
-4.8665
 30
0.0
 10
14.4405
 20
-4.8665
 30
0.0
 10
7.2359
 20
-11.459
 30
0.0
 10
-1.8926
 20
-23.8599
 30
0.0
 10
-0.1629
 20
-39.1766
 30
0.0
 10
-0.1629
 20
-39.1766
 30
0.0
 10
1.3412
 20
-34.0819
 30
0.0
 10
8.8819
 20
-32.1517
 30
0.0
 10
12.3479
 20
-33.808
 30
0.0
 10
12.3479
 20
-33.808
 30
0.0
 10
10.2493
 20
-29.0346
 30
0.0
 10
11.228
 20
-24.7265
 30
0.0
 10
11.5669
 20
-23.0233
 30
0.0
 10
11.5669
 20
-23.0233
 30
0.0
 10
11.5669
 20
-23.0233
 30
0.0
 10
11.5669
 20
-23.0231
 30
0.0
 10
11.5669
 20
-23.0231
 30
0.0
  0
SPLINE
  5
5B
330
1F
100
AcDbEntity
  8
layer 1
 62
     7
100
AcDbSpline
210
0.0
220
0.0
230
1.0
 70
    11
 71
     3
 72
   104
 73
   100
 74
     0
 42
0.0000000001
 43
0.0000000001
 12
1.0
 22
0.0
 32
0.0
 13
1.0
 23
0.0
 33
0.0
 40
0.0
 40
0.0
 40
0.0
 40
0.0
 40
0.0384615384615385
 40
0.0384615384615385
 40
0.0384615384615385
 40
0.0384615384615385
 40
0.0769230769230769
 40
0.0769230769230769
 40
0.0769230769230769
 40
0.0769230769230769
 40
0.1153846153846154
 40
0.1153846153846154
 40
0.1153846153846154
 40
0.1153846153846154
 40
0.1538461538461539
 40
0.1538461538461539
 40
0.1538461538461539
 40
0.1538461538461539
 40
0.1923076923076923
 40
0.1923076923076923
 40
0.1923076923076923
 40
0.1923076923076923
 40
0.2307692307692308
 40
0.2307692307692308
 40
0.2307692307692308
 40
0.2307692307692308
 40
0.2692307692307692
 40
0.2692307692307692
 40
0.2692307692307692
 40
0.2692307692307692
 40
0.3076923076923077
 40
0.3076923076923077
 40
0.3076923076923077
 40
0.3076923076923077
 40
0.3461538461538461
 40
0.3461538461538461
 40
0.3461538461538461
 40
0.3461538461538461
 40
0.3846153846153846
 40
0.3846153846153846
 40
0.3846153846153846
 40
0.3846153846153846
 40
0.4230769230769231
 40
0.4230769230769231
 40
0.4230769230769231
 40
0.4230769230769231
 40
0.4615384615384616
 40
0.4615384615384616
 40
0.4615384615384616
 40
0.4615384615384616
 40
0.5
 40
0.5
 40
0.5
 40
0.5
 40
0.5384615384615384
 40
0.5384615384615384
 40
0.5384615384615384
 40
0.5384615384615384
 40
0.5769230769230769
 40
0.5769230769230769
 40
0.5769230769230769
 40
0.5769230769230769
 40
0.6153846153846154
 40
0.6153846153846154
 40
0.6153846153846154
 40
0.6153846153846154
 40
0.6538461538461539
 40
0.6538461538461539
 40
0.6538461538461539
 40
0.6538461538461539
 40
0.6923076923076923
 40
0.6923076923076923
 40
0.6923076923076923
 40
0.6923076923076923
 40
0.7307692307692307
 40
0.7307692307692307
 40
0.7307692307692307
 40
0.7307692307692307
 40
0.7692307692307693
 40
0.7692307692307693
 40
0.7692307692307693
 40
0.7692307692307693
 40
0.8076923076923077
 40
0.8076923076923077
 40
0.8076923076923077
 40
0.8076923076923077
 40
0.8461538461538461
 40
0.8461538461538461
 40
0.8461538461538461
 40
0.8461538461538461
 40
0.8846153846153846
 40
0.8846153846153846
 40
0.8846153846153846
 40
0.8846153846153846
 40
0.9230769230769231
 40
0.9230769230769231
 40
0.9230769230769231
 40
0.9230769230769231
 40
1.0
 40
1.0
 40
1.0
 40
1.0
 10
-15.9664
 20
-14.867
 30
0.0
 10
-19.4939
 20
-18.4696
 30
0.0
 10
-17.6722
 20
-29.9615
 30
0.0
 10
-17.0047
 20
-38.3333
 30
0.0
 10
-17.0047
 20
-38.3333
 30
0.0
 10
-16.7875
 20
-40.5267
 30
0.0
 10
-11.8534
 20
-68.2303
 30
0.0
 10
-2.1637
 20
-70.2384
 30
0.0
 10
-2.1637
 20
-70.2384
 30
0.0
 10
-3.4086
 20
-67.2171
 30
0.0
 10
-6.127
 20
-62.6526
 30
0.0
 10
-4.4263
 20
-58.0738
 30
0.0
 10
-4.4263
 20
-58.0738
 30
0.0
 10
-3.7091
 20
-57.0322
 30
0.0
 10
-3.9473
 20
-57.0477
 30
0.0
 10
-1.9773
 20
-58.2506
 30
0.0
 10
-1.9773
 20
-58.2506
 30
0.0
 10
-5.4565
 20
-47.9911
 30
0.0
 10
-4.0767
 20
-45.6863
 30
0.0
 10
-5.8002
 20
-36.9515
 30
0.0
 10
-5.8002
 20
-36.9515
 30
0.0
 10
-9.0968
 20
-29.8259
 30
0.0
 10
-4.8528
 20
-35.2656
 30
0.0
 10
-4.6204
 20
-34.3994
 30
0.0
 10
-4.6204
 20
-34.3994
 30
0.0
 10
-4.3125
 20
-20.0751
 30
0.0
 10
2.4603
 20
-9.2622
 30
0.0
 10
11.6363
 20
-1.1278
 30
0.0
 10
11.6363
 20
-1.1278
 30
0.0
 10
11.3191
 20
0.1514
 30
0.0
 10
10.8629
 20
1.4852
 30
0.0
 10
10.1744
 20
2.449
 30
0.0
 10
10.1744
 20
2.449
 30
0.0
 10
8.4515
 20
5.2772
 30
0.0
 10
7.0425
 20
0.4073
 30
0.0
 10
6.8002
 20
0.7886
 30
0.0
 10
6.8002
 20
0.7886
 30
0.0
 10
5.1707
 20
7.3938
 30
0.0
 10
4.3083
 20
12.0879
 30
0.0
 10
8.9957
 20
15.4574
 30
0.0
 10
8.9957
 20
15.4574
 30
0.0
 10
10.5103
 20
16.1991
 30
0.0
 10
10.9125
 20
17.6459
 30
0.0
 10
9.1587
 20
19.1726
 30
0.0
 10
9.1587
 20
19.1726
 30
0.0
 10
4.857
 20
22.1823
 30
0.0
 10
5.7486
 20
24.3492
 30
0.0
 10
3.7746
 20
26.4443
 30
0.0
 10
3.7746
 20
26.4443
 30
0.0
 10
-5.3931
 20
32.2851
 30
0.0
 10
-7.2404
 20
21.5174
 30
0.0
 10
-4.6994
 20
20.9013
 30
0.0
 10
-4.6994
 20
20.9013
 30
0.0
 10
-2.0179
 20
23.745
 30
0.0
 10
0.6161
 20
22.575
 30
0.0
 10
1.1294
 20
19.2017
 30
0.0
 10
1.1294
 20
19.2017
 30
0.0
 10
1.5317
 20
16.5578
 30
0.0
 10
-0.0586
 20
12.6331
 30
0.0
 10
-3.9477
 20
12.8507
 30
0.0
 10
-3.9477
 20
12.8507
 30
0.0
 10
-10.5296
 20
13.9635
 30
0.0
 10
-11.3307
 20
20.0037
 30
0.0
 10
-11.1972
 20
22.48
 30
0.0
 10
-11.1972
 20
22.48
 30
0.0
 10
-12.4322
 20
23.0559
 30
0.0
 10
-13.4213
 20
23.3751
 30
0.0
 10
-15.0403
 20
22.6019
 30
0.0
 10
-15.0403
 20
22.6019
 30
0.0
 10
-14.9643
 20
13.384
 30
0.0
 10
-18.4155
 20
9.0044
 30
0.0
 10
-17.4988
 20
1.9648
 30
0.0
 10
-17.4988
 20
1.9648
 30
0.0
 10
-14.8205
 20
6.5032
 30
0.0
 10
-10.2695
 20
8.5583
 30
0.0
 10
-7.8096
 20
7.9462
 30
0.0
 10
-7.8096
 20
7.9462
 30
0.0
 10
-4.0295
 20
3.5327
 30
0.0
 10
-9.4745
 20
-2.7483
 30
0.0
 10
-12.8963
 20
-4.2577
 30
0.0
 10
-12.8963
 20
-4.2577
 30
0.0
 10
-9.4006
 20
-5.7082
 30
0.0
 10
-8.8328
 20
-6.4816
 30
0.0
 10
-13.22
 20
-8.8032
 30
0.0
 10
-13.22
 20
-8.8032
 30
0.0
 10
-5.471
 20
-8.6297
 30
0.0
 10
-1.9549
 20
-14.3546
 30
0.0
 10
-5.465
 20
-19.1955
 30
0.0
 10
-5.465
 20
-19.1955
 30
0.0
 10
-7.8991
 20
-21.9362
 30
0.0
 10
-13.7563
 20
-22.6213
 30
0.0
 10
-12.1279
 20
-15.649
 30
0.0
 10
-12.1279
 20
-15.649
 30
0.0
 10
-12.2728
 20
-13.5851
 30
0.0
 10
-14.4068
 20
-13.5395
 30
0.0
 10
-15.966
 20
-14.8669
 30
0.0
 10
-15.966
 20
-14.8669
 30
0.0
 10
-15.966
 20
-14.8669
 30
0.0
 10
-15.9664
 20
-14.867
 30
0.0
 10
-15.9664
 20
-14.867
 30
0.0
  0
LWPOLYLINE
  5
5C
330
1F
100
AcDbEntity
  8
layer 1
100
AcDbPolyline
 90
        5
 70
     1
 43
0.0
 10
83.2903
 20
-114.9498
 10
196.3735
 20
-114.9498
 10
196.3735
 20
131.7434
 10
83.2903
 20
131.7434
 10
83.2903
 20
-114.9498
  0
SPLINE
  5
5D
330
1F
100
AcDbEntity
  8
layer 1
 62
     7
100
AcDbSpline
210
0.0
220
0.0
230
1.0
 70
    11
 71
     3
 72
    20
 73
    16
 74
     0
 42
0.0000000001
 43
0.0000000001
 12
1.0
 22
0.0
 32
0.0
 13
1.0
 23
0.0
 33
0.0
 40
0.0
 40
0.0
 40
0.0
 40
0.0
 40
0.2
 40
0.2
 40
0.2
 40
0.2
 40
0.4
 40
0.4
 40
0.4
 40
0.4
 40
0.6
 40
0.6
 40
0.6
 40
0.6
 40
1.0
 40
1.0
 40
1.0
 40
1.0
 10
110.6381
 20
124.7801
 30
0.0
 10
115.8402
 20
124.8958
 30
0.0
 10
119.3053
 20
124.8958
 30
0.0
 10
125.4202
 20
124.8958
 30
0.0
 10
125.4202
 20
124.8958
 30
0.0
 10
123.1236
 20
124.0279
 30
0.0
 10
119.1729
 20
122.0845
 30
0.0
 10
117.9156
 20
117.9019
 30
0.0
 10
117.9156
 20
117.9019
 30
0.0
 10
116.7862
 20
114.3922
 30
0.0
 10
114.0711
 20
111.3919
 30
0.0
 10
110.605
 20
113.3125
 30
0.0
 10
110.605
 20
113.3125
 30
0.0
 10
108.5453
 20
114.5042
 30
0.0
 10
107.8586
 20
123.3546
 30
0.0
 10
110.6381
 20
124.7801
 30
0.0
  0
SPLINE
  5
5E
330
1F
100
AcDbEntity
  8
layer 1
 62
     7
100
AcDbSpline
210
0.0
220
0.0
230
1.0
 70
    11
 71
     3
 72
    28
 73
    24
 74
     0
 42
0.0000000001
 43
0.0000000001
 12
1.0
 22
0.0
 32
0.0
 13
1.0
 23
0.0
 33
0.0
 40
0.0
 40
0.0
 40
0.0
 40
0.0
 40
0.1428571428571428
 40
0.1428571428571428
 40
0.1428571428571428
 40
0.1428571428571428
 40
0.2857142857142857
 40
0.2857142857142857
 40
0.2857142857142857
 40
0.2857142857142857
 40
0.4285714285714285
 40
0.4285714285714285
 40
0.4285714285714285
 40
0.4285714285714285
 40
0.5714285714285714
 40
0.5714285714285714
 40
0.5714285714285714
 40
0.5714285714285714
 40
0.7142857142857143
 40
0.7142857142857143
 40
0.7142857142857143
 40
0.7142857142857143
 40
1.0
 40
1.0
 40
1.0
 40
1.0
 10
143.4531
 20
124.7801
 30
0.0
 10
148.6553
 20
124.8958
 30
0.0
 10
157.0922
 20
124.9752
 30
0.0
 10
163.2072
 20
124.9752
 30
0.0
 10
163.2072
 20
124.9752
 30
0.0
 10
160.0067
 20
123.1558
 30
0.0
 10
156.7791
 20
119.3887
 30
0.0
 10
159.4994
 20
114.3339
 30
0.0
 10
159.4994
 20
114.3339
 30
0.0
 10
161.7693
 20
119.3466
 30
0.0
 10
167.6212
 20
119.7132
 30
0.0
 10
165.6367
 20
112.0851
 30
0.0
 10
165.6367
 20
112.0851
 30
0.0
 10
163.301
 20
103.1071
 30
0.0
 10
155.1181
 20
97.5589
 30
0.0
 10
152.7312
 20
98.8817
 30
0.0
 10
152.7312
 20
98.8817
 30
0.0
 10
152.9315
 20
101.8971
 30
0.0
 10
155.7703
 20
119.6281
 30
0.0
 10
143.4531
 20
124.7803
 30
0.0
 10
143.4531
 20
124.7803
 30
0.0
 10
143.4531
 20
124.7803
 30
0.0
 10
143.4531
 20
124.7801
 30
0.0
 10
143.4531
 20
124.7801
 30
0.0
  0
SPLINE
  5
5F
330
1F
100
AcDbEntity
  8
layer 1
 62
     7
100
AcDbSpline
210
0.0
220
0.0
230
1.0
 70
    11
 71
     3
 72
    32
 73
    28
 74
     0
 42
0.0000000001
 43
0.0000000001
 12
1.0
 22
0.0
 32
0.0
 13
1.0
 23
0.0
 33
0.0
 40
0.0
 40
0.0
 40
0.0
 40
0.0
 40
0.125
 40
0.125
 40
0.125
 40
0.125
 40
0.25
 40
0.25
 40
0.25
 40
0.25
 40
0.375
 40
0.375
 40
0.375
 40
0.375
 40
0.5
 40
0.5
 40
0.5
 40
0.5
 40
0.625
 40
0.625
 40
0.625
 40
0.625
 40
0.75
 40
0.75
 40
0.75
 40
0.75
 40
1.0
 40
1.0
 40
1.0
 40
1.0
 10
190.8473
 20
124.7801
 30
0.0
 10
185.6451
 20
124.8958
 30
0.0
 10
175.6714
 20
124.9752
 30
0.0
 10
169.5564
 20
124.9752
 30
0.0
 10
169.5564
 20
124.9752
 30
0.0
 10
172.7569
 20
123.1558
 30
0.0
 10
172.6397
 20
120.4195
 30
0.0
 10
171.9082
 20
117.5849
 30
0.0
 10
171.9082
 20
117.5849
 30
0.0
 10
174.2788
 20
121.8062
 30
0.0
 10
185.7133
 20
127.9315
 30
0.0
 10
187.0665
 20
113.9231
 30
0.0
 10
187.0665
 20
113.9231
 30
0.0
 10
180.5061
 20
117.0617
 30
0.0
 10
175.5321
 20
113.234
 30
0.0
 10
175.4434
 20
109.865
 30
0.0
 10
175.4434
 20
109.865
 30
0.0
 10
179.9486
 20
111.6706
 30
0.0
 10
189.4876
 20
107.6289
 30
0.0
 10
190.8802
 20
101.1019
 30
0.0
 10
190.8802
 20
101.1019
 30
0.0
 10
190.7516
 20
104.5137
 30
0.0
 10
190.7516
 20
115.3464
 30
0.0
 10
190.847
 20
124.7803
 30
0.0
 10
190.847
 20
124.7803
 30
0.0
 10
190.847
 20
124.7803
 30
0.0
 10
190.8473
 20
124.7801
 30
0.0
 10
190.8473
 20
124.7801
 30
0.0
  0
SPLINE
  5
60
330
1F
100
AcDbEntity
  8
layer 1
 62
     7
100
AcDbSpline
210
0.0
220
0.0
230
1.0
 70
    11
 71
     3
 72
    48
 73
    44
 74
     0
 42
0.0000000001
 43
0.0000000001
 12
1.0
 22
0.0
 32
0.0
 13
1.0
 23
0.0
 33
0.0
 40
0.0
 40
0.0
 40
0.0
 40
0.0
 40
0.0833333333333333
 40
0.0833333333333333
 40
0.0833333333333333
 40
0.0833333333333333
 40
0.1666666666666667
 40
0.1666666666666667
 40
0.1666666666666667
 40
0.1666666666666667
 40
0.25
 40
0.25
 40
0.25
 40
0.25
 40
0.3333333333333333
 40
0.3333333333333333
 40
0.3333333333333333
 40
0.3333333333333333
 40
0.4166666666666667
 40
0.4166666666666667
 40
0.4166666666666667
 40
0.4166666666666667
 40
0.5
 40
0.5
 40
0.5
 40
0.5
 40
0.5833333333333334
 40
0.5833333333333334
 40
0.5833333333333334
 40
0.5833333333333334
 40
0.6666666666666666
 40
0.6666666666666666
 40
0.6666666666666666
 40
0.6666666666666666
 40
0.75
 40
0.75
 40
0.75
 40
0.75
 40
0.8333333333333334
 40
0.8333333333333334
 40
0.8333333333333334
 40
0.8333333333333334
 40
1.0
 40
1.0
 40
1.0
 40
1.0
 10
178.3287
 20
90.2176
 30
0.0
 10
180.4666
 20
89.478
 30
0.0
 10
183.1864
 20
89.8917
 30
0.0
 10
184.3502
 20
91.8815
 30
0.0
 10
184.3502
 20
91.8815
 30
0.0
 10
187.7978
 20
97.7747
 30
0.0
 10
184.1165
 20
102.8677
 30
0.0
 10
173.956
 20
102.6068
 30
0.0
 10
173.956
 20
102.6068
 30
0.0
 10
168.5238
 20
101.8467
 30
0.0
 10
161.051
 20
96.3835
 30
0.0
 10
158.4371
 20
91.5143
 30
0.0
 10
158.4371
 20
91.5143
 30
0.0
 10
164.6257
 20
90.7802
 30
0.0
 10
169.5826
 20
88.2527
 30
0.0
 10
172.3696
 20
84.0873
 30
0.0
 10
172.3696
 20
84.0873
 30
0.0
 10
170.0605
 20
80.7241
 30
0.0
 10
166.1601
 20
80.3254
 30
0.0
 10
165.8514
 20
79.1286
 30
0.0
 10
165.8514
 20
79.1286
 30
0.0
 10
170.0299
 20
78.4338
 30
0.0
 10
175.8597
 20
73.4585
 30
0.0
 10
177.665
 20
68.4098
 30
0.0
 10
177.665
 20
68.4098
 30
0.0
 10
178.7887
 20
61.0029
 30
0.0
 10
192.6176
 20
62.646
 30
0.0
 10
183.4891
 20
76.0075
 30
0.0
 10
183.4891
 20
76.0075
 30
0.0
 10
185.692
 20
77.4457
 30
0.0
 10
188.639
 20
76.7326
 30
0.0
 10
190.8802
 20
75.1734
 30
0.0
 10
190.8802
 20
75.1734
 30
0.0
 10
191.4242
 20
78.7327
 30
0.0
 10
190.9096
 20
78.6095
 30
0.0
 10
190.7565
 20
87.9888
 30
0.0
 10
190.7565
 20
87.9888
 30
0.0
 10
186.8536
 20
83.2098
 30
0.0
 10
179.8873
 20
85.8895
 30
0.0
 10
178.3285
 20
90.2174
 30
0.0
 10
178.3285
 20
90.2174
 30
0.0
 10
178.3285
 20
90.2174
 30
0.0
 10
178.3287
 20
90.2176
 30
0.0
 10
178.3287
 20
90.2176
 30
0.0
  0
SPLINE
  5
61
330
1F
100
AcDbEntity
  8
layer 1
 62
     7
100
AcDbSpline
210
0.0
220
0.0
230
1.0
 70
    11
 71
     3
 72
    20
 73
    16
 74
     0
 42
0.0000000001
 43
0.0000000001
 12
1.0
 22
0.0
 32
0.0
 13
1.0
 23
0.0
 33
0.0
 40
0.0
 40
0.0
 40
0.0
 40
0.0
 40
0.2
 40
0.2
 40
0.2
 40
0.2
 40
0.4
 40
0.4
 40
0.4
 40
0.4
 40
0.6
 40
0.6
 40
0.6
 40
0.6
 40
1.0
 40
1.0
 40
1.0
 40
1.0
 10
181.3119
 20
57.5497
 30
0.0
 10
185.9177
 20
49.3017
 30
0.0
 10
184.8674
 20
29.8346
 30
0.0
 10
170.2136
 20
23.2849
 30
0.0
 10
170.2136
 20
23.2849
 30
0.0
 10
180.0633
 20
24.1421
 30
0.0
 10
186.3386
 20
20.3932
 30
0.0
 10
190.8804
 20
13.9608
 30
0.0
 10
190.8804
 20
13.9608
 30
0.0
 10
190.7518
 20
19.1276
 30
0.0
 10
190.7518
 20
51.2233
 30
0.0
 10
190.7566
 20
63.1885
 30
0.0
 10
190.7566
 20
63.1885
 30
0.0
 10
189.0847
 20
58.4793
 30
0.0
 10
183.8268
 20
57.345
 30
0.0
 10
181.3119
 20
57.5497
 30
0.0
  0
SPLINE
  5
62
330
1F
100
AcDbEntity
  8
layer 1
 62
     7
100
AcDbSpline
210
0.0
220
0.0
230
1.0
 70
    11
 71
     3
 72
    36
 73
    32
 74
     0
 42
0.0000000001
 43
0.0000000001
 12
1.0
 22
0.0
 32
0.0
 13
1.0
 23
0.0
 33
0.0
 40
0.0
 40
0.0
 40
0.0
 40
0.0
 40
0.1111111111111111
 40
0.1111111111111111
 40
0.1111111111111111
 40
0.1111111111111111
 40
0.2222222222222222
 40
0.2222222222222222
 40
0.2222222222222222
 40
0.2222222222222222
 40
0.3333333333333333
 40
0.3333333333333333
 40
0.3333333333333333
 40
0.3333333333333333
 40
0.4444444444444444
 40
0.4444444444444444
 40
0.4444444444444444
 40
0.4444444444444444
 40
0.5555555555555556
 40
0.5555555555555556
 40
0.5555555555555556
 40
0.5555555555555556
 40
0.6666666666666666
 40
0.6666666666666666
 40
0.6666666666666666
 40
0.6666666666666666
 40
0.7777777777777778
 40
0.7777777777777778
 40
0.7777777777777778
 40
0.7777777777777778
 40
1.0
 40
1.0
 40
1.0
 40
1.0
 10
105.5662
 20
50.799
 30
0.0
 10
108.077
 20
49.3612
 30
0.0
 10
110.5451
 20
45.7397
 30
0.0
 10
110.5409
 20
40.7355
 30
0.0
 10
110.5409
 20
40.7355
 30
0.0
 10
110.3227
 20
34.0145
 30
0.0
 10
110.901
 20
29.3726
 30
0.0
 10
109.9728
 20
23.0385
 30
0.0
 10
109.9728
 20
23.0385
 30
0.0
 10
106.9276
 20
27.6017
 30
0.0
 10
100.803
 20
25.6033
 30
0.0
 10
99.0211
 20
27.6882
 30
0.0
 10
99.0211
 20
27.6882
 30
0.0
 10
97.8064
 20
25.9761
 30
0.0
 10
99.3009
 20
21.4794
 30
0.0
 10
102.5132
 20
19.2779
 30
0.0
 10
102.5132
 20
19.2779
 30
0.0
 10
96.9836
 20
20.9192
 30
0.0
 10
90.857
 20
19.1955
 30
0.0
 10
88.6244
 20
16.8133
 30
0.0
 10
88.6244
 20
16.8133
 30
0.0
 10
88.7529
 20
21.98
 30
0.0
 10
88.6784
 20
57.2116
 30
0.0
 10
88.6735
 20
69.1768
 30
0.0
 10
88.6735
 20
69.1768
 30
0.0
 10
90.3455
 20
64.4677
 30
0.0
 10
103.0516
 20
52.4234
 30
0.0
 10
105.5664
 20
50.799
 30
0.0
 10
105.5664
 20
50.799
 30
0.0
 10
105.5664
 20
50.799
 30
0.0
 10
105.5662
 20
50.799
 30
0.0
 10
105.5662
 20
50.799
 30
0.0
  0
SPLINE
  5
63
330
1F
100
AcDbEntity
  8
layer 1
 62
     7
100
AcDbSpline
210
0.0
220
0.0
230
1.0
 70
    11
 71
     3
 72
    24
 73
    20
 74
     0
 42
0.0000000001
 43
0.0000000001
 12
1.0
 22
0.0
 32
0.0
 13
1.0
 23
0.0
 33
0.0
 40
0.0
 40
0.0
 40
0.0
 40
0.0
 40
0.1666666666666667
 40
0.1666666666666667
 40
0.1666666666666667
 40
0.1666666666666667
 40
0.3333333333333333
 40
0.3333333333333333
 40
0.3333333333333333
 40
0.3333333333333333
 40
0.5
 40
0.5
 40
0.5
 40
0.5
 40
0.6666666666666666
 40
0.6666666666666666
 40
0.6666666666666666
 40
0.6666666666666666
 40
1.0
 40
1.0
 40
1.0
 40
1.0
 10
96.3306
 20
92.2174
 30
0.0
 10
95.5748
 20
90.8211
 30
0.0
 10
95.0625
 20
86.5375
 30
0.0
 10
97.2359
 20
83.5265
 30
0.0
 10
97.2359
 20
83.5265
 30
0.0
 10
93.5097
 20
84.0695
 30
0.0
 10
91.2598
 20
82.268
 30
0.0
 10
88.624
 20
77.6998
 30
0.0
 10
88.624
 20
77.6998
 30
0.0
 10
88.7526
 20
82.8666
 30
0.0
 10
88.6781
 20
83.7353
 30
0.0
 10
88.6732
 20
95.7004
 30
0.0
 10
88.6732
 20
95.7004
 30
0.0
 10
90.1085
 20
94.0224
 30
0.0
 10
93.2474
 20
92.1811
 30
0.0
 10
96.3304
 20
92.2175
 30
0.0
 10
96.3304
 20
92.2175
 30
0.0
 10
96.3304
 20
92.2175
 30
0.0
 10
96.3306
 20
92.2174
 30
0.0
 10
96.3306
 20
92.2174
 30
0.0
  0
SPLINE
  5
64
330
1F
100
AcDbEntity
  8
layer 1
 62
     7
100
AcDbSpline
210
0.0
220
0.0
230
1.0
 70
    11
 71
     3
 72
    28
 73
    24
 74
     0
 42
0.0000000001
 43
0.0000000001
 12
1.0
 22
0.0
 32
0.0
 13
1.0
 23
0.0
 33
0.0
 40
0.0
 40
0.0
 40
0.0
 40
0.0
 40
0.1428571428571428
 40
0.1428571428571428
 40
0.1428571428571428
 40
0.1428571428571428
 40
0.2857142857142857
 40
0.2857142857142857
 40
0.2857142857142857
 40
0.2857142857142857
 40
0.4285714285714285
 40
0.4285714285714285
 40
0.4285714285714285
 40
0.4285714285714285
 40
0.5714285714285714
 40
0.5714285714285714
 40
0.5714285714285714
 40
0.5714285714285714
 40
0.7142857142857143
 40
0.7142857142857143
 40
0.7142857142857143
 40
0.7142857142857143
 40
1.0
 40
1.0
 40
1.0
 40
1.0
 10
106.239
 20
124.8665
 30
0.0
 10
103.6087
 20
121.4737
 30
0.0
 10
101.6235
 20
102.9796
 30
0.0
 10
117.1865
 20
108.1895
 30
0.0
 10
117.1865
 20
108.1895
 30
0.0
 10
116.5785
 20
105.6156
 30
0.0
 10
116.7711
 20
102.0386
 30
0.0
 10
118.7015
 20
99.7957
 30
0.0
 10
118.7015
 20
99.7957
 30
0.0
 10
114.9898
 20
101.2173
 30
0.0
 10
109.6784
 20
103.5952
 30
0.0
 10
102.7941
 20
100.4835
 30
0.0
 10
102.7941
 20
100.4835
 30
0.0
 10
92.7453
 20
95.4512
 30
0.0
 10
88.597
 20
101.6807
 30
0.0
 10
88.6242
 20
106.7081
 30
0.0
 10
88.6242
 20
106.7081
 30
0.0
 10
88.7528
 20
111.8748
 30
0.0
 10
88.5443
 20
113.0959
 30
0.0
 10
88.5396
 20
125.061
 30
0.0
 10
88.5396
 20
125.061
 30
0.0
 10
95.1968
 20
124.8958
 30
0.0
 10
99.9425
 20
124.8958
 30
0.0
 10
106.239
 20
124.8665
 30
0.0
  0
SPLINE
  5
65
330
1F
100
AcDbEntity
  8
layer 1
 62
     7
100
AcDbSpline
210
0.0
220
0.0
230
1.0
 70
    11
 71
     3
 72
    24
 73
    20
 74
     0
 42
0.0000000001
 43
0.0000000001
 12
1.0
 22
0.0
 32
0.0
 13
1.0
 23
0.0
 33
0.0
 40
0.0
 40
0.0
 40
0.0
 40
0.0
 40
0.1666666666666667
 40
0.1666666666666667
 40
0.1666666666666667
 40
0.1666666666666667
 40
0.3333333333333333
 40
0.3333333333333333
 40
0.3333333333333333
 40
0.3333333333333333
 40
0.5
 40
0.5
 40
0.5
 40
0.5
 40
0.6666666666666666
 40
0.6666666666666666
 40
0.6666666666666666
 40
0.6666666666666666
 40
1.0
 40
1.0
 40
1.0
 40
1.0
 10
107.7085
 20
7.4625
 30
0.0
 10
93.5809
 20
5.804
 30
0.0
 10
94.7133
 20
-8.882
 30
0.0
 10
101.9666
 20
-12.2424
 30
0.0
 10
101.9666
 20
-12.2424
 30
0.0
 10
99.2791
 20
-13.8371
 30
0.0
 10
97.2923
 20
-16.8069
 30
0.0
 10
97.5588
 20
-18.7736
 30
0.0
 10
97.5588
 20
-18.7736
 30
0.0
 10
95.6443
 20
-14.0789
 30
0.0
 10
93.1331
 20
-11.5747
 30
0.0
 10
88.624
 20
-11.9601
 30
0.0
 10
88.624
 20
-11.9601
 30
0.0
 10
88.7526
 20
-6.7934
 30
0.0
 10
88.6781
 20
-0.9227
 30
0.0
 10
88.6732
 20
11.0424
 30
0.0
 10
88.6732
 20
11.0424
 30
0.0
 10
93.9605
 20
15.7287
 30
0.0
 10
104.3901
 20
14.3719
 30
0.0
 10
107.7085
 20
7.4625
 30
0.0
  0
SPLINE
  5
66
330
1F
100
AcDbEntity
  8
layer 1
 62
     7
100
AcDbSpline
210
0.0
220
0.0
230
1.0
 70
    11
 71
     3
 72
    24
 73
    20
 74
     0
 42
0.0000000001
 43
0.0000000001
 12
1.0
 22
0.0
 32
0.0
 13
1.0
 23
0.0
 33
0.0
 40
0.0
 40
0.0
 40
0.0
 40
0.0
 40
0.1666666666666667
 40
0.1666666666666667
 40
0.1666666666666667
 40
0.1666666666666667
 40
0.3333333333333333
 40
0.3333333333333333
 40
0.3333333333333333
 40
0.3333333333333333
 40
0.5
 40
0.5
 40
0.5
 40
0.5
 40
0.6666666666666666
 40
0.6666666666666666
 40
0.6666666666666666
 40
0.6666666666666666
 40
1.0
 40
1.0
 40
1.0
 40
1.0
 10
107.307
 20
-41.7463
 30
0.0
 10
103.2216
 20
-42.3478
 30
0.0
 10
99.5338
 20
-43.6452
 30
0.0
 10
97.0126
 20
-45.7138
 30
0.0
 10
97.0126
 20
-45.7138
 30
0.0
 10
98.2081
 20
-48.8352
 30
0.0
 10
105.7278
 20
-50.1609
 30
0.0
 10
108.9401
 20
-50.2484
 30
0.0
 10
108.9401
 20
-50.2484
 30
0.0
 10
97.6528
 20
-66.4586
 30
0.0
 10
105.8532
 20
-77.108
 30
0.0
 10
88.6242
 20
-79.9597
 30
0.0
 10
88.6242
 20
-79.9597
 30
0.0
 10
88.7528
 20
-74.793
 30
0.0
 10
88.6782
 20
-30.6358
 30
0.0
 10
88.6734
 20
-18.6707
 30
0.0
 10
88.6734
 20
-18.6707
 30
0.0
 10
98.2452
 20
-20.7961
 30
0.0
 10
91.9379
 20
-31.9006
 30
0.0
 10
107.307
 20
-41.7463
 30
0.0
  0
SPLINE
  5
67
330
1F
100
AcDbEntity
  8
layer 1
 62
     7
100
AcDbSpline
210
0.0
220
0.0
230
1.0
 70
    11
 71
     3
 72
    24
 73
    20
 74
     0
 42
0.0000000001
 43
0.0000000001
 12
1.0
 22
0.0
 32
0.0
 13
1.0
 23
0.0
 33
0.0
 40
0.0
 40
0.0
 40
0.0
 40
0.0
 40
0.1666666666666667
 40
0.1666666666666667
 40
0.1666666666666667
 40
0.1666666666666667
 40
0.3333333333333333
 40
0.3333333333333333
 40
0.3333333333333333
 40
0.3333333333333333
 40
0.5
 40
0.5
 40
0.5
 40
0.5
 40
0.6666666666666666
 40
0.6666666666666666
 40
0.6666666666666666
 40
0.6666666666666666
 40
1.0
 40
1.0
 40
1.0
 40
1.0
 10
100.8955
 20
-83.8829
 30
0.0
 10
99.8148
 20
-89.7056
 30
0.0
 10
107.4684
 20
-105.7117
 30
0.0
 10
116.4383
 20
-108.2654
 30
0.0
 10
116.4383
 20
-108.2654
 30
0.0
 10
107.829
 20
-108.2896
 30
0.0
 10
98.2212
 20
-108.0547
 30
0.0
 10
88.6242
 20
-108.0289
 30
0.0
 10
88.6242
 20
-108.0289
 30
0.0
 10
88.7528
 20
-102.8622
 30
0.0
 10
88.6782
 20
-97.4612
 30
0.0
 10
88.6734
 20
-85.4961
 30
0.0
 10
88.6734
 20
-85.4961
 30
0.0
 10
91.0705
 20
-87.9577
 30
0.0
 10
98.0549
 20
-87.6577
 30
0.0
 10
100.8955
 20
-83.8831
 30
0.0
 10
100.8955
 20
-83.8831
 30
0.0
 10
100.8955
 20
-83.8831
 30
0.0
 10
100.8955
 20
-83.8829
 30
0.0
 10
100.8955
 20
-83.8829
 30
0.0
  0
SPLINE
  5
68
330
1F
100
AcDbEntity
  8
layer 1
 62
     7
100
AcDbSpline
210
0.0
220
0.0
230
1.0
 70
    11
 71
     3
 72
    24
 73
    20
 74
     0
 42
0.0000000001
 43
0.0000000001
 12
1.0
 22
0.0
 32
0.0
 13
1.0
 23
0.0
 33
0.0
 40
0.0
 40
0.0
 40
0.0
 40
0.0
 40
0.1666666666666667
 40
0.1666666666666667
 40
0.1666666666666667
 40
0.1666666666666667
 40
0.3333333333333333
 40
0.3333333333333333
 40
0.3333333333333333
 40
0.3333333333333333
 40
0.5
 40
0.5
 40
0.5
 40
0.5
 40
0.6666666666666666
 40
0.6666666666666666
 40
0.6666666666666666
 40
0.6666666666666666
 40
1.0
 40
1.0
 40
1.0
 40
1.0
 10
150.8389
 20
-85.762
 30
0.0
 10
149.3565
 20
-92.8765
 30
0.0
 10
152.3236
 20
-104.4197
 30
0.0
 10
162.6326
 20
-108.1479
 30
0.0
 10
162.6326
 20
-108.1479
 30
0.0
 10
154.0233
 20
-108.1721
 30
0.0
 10
138.9258
 20
-108.0546
 30
0.0
 10
129.3287
 20
-108.0289
 30
0.0
 10
129.3287
 20
-108.0289
 30
0.0
 10
133.4742
 20
-105.2111
 30
0.0
 10
138.8895
 20
-98.7531
 30
0.0
 10
134.4661
 20
-85.0264
 30
0.0
 10
134.4661
 20
-85.0264
 30
0.0
 10
140.1203
 20
-91.1285
 30
0.0
 10
148.2831
 20
-89.5304
 30
0.0
 10
150.839
 20
-85.762
 30
0.0
 10
150.839
 20
-85.762
 30
0.0
 10
150.839
 20
-85.762
 30
0.0
 10
150.8389
 20
-85.762
 30
0.0
 10
150.8389
 20
-85.762
 30
0.0
  0
SPLINE
  5
69
330
1F
100
AcDbEntity
  8
layer 1
 62
     7
100
AcDbSpline
210
0.0
220
0.0
230
1.0
 70
    11
 71
     3
 72
    36
 73
    32
 74
     0
 42
0.0000000001
 43
0.0000000001
 12
1.0
 22
0.0
 32
0.0
 13
1.0
 23
0.0
 33
0.0
 40
0.0
 40
0.0
 40
0.0
 40
0.0
 40
0.1111111111111111
 40
0.1111111111111111
 40
0.1111111111111111
 40
0.1111111111111111
 40
0.2222222222222222
 40
0.2222222222222222
 40
0.2222222222222222
 40
0.2222222222222222
 40
0.3333333333333333
 40
0.3333333333333333
 40
0.3333333333333333
 40
0.3333333333333333
 40
0.4444444444444444
 40
0.4444444444444444
 40
0.4444444444444444
 40
0.4444444444444444
 40
0.5555555555555556
 40
0.5555555555555556
 40
0.5555555555555556
 40
0.5555555555555556
 40
0.6666666666666666
 40
0.6666666666666666
 40
0.6666666666666666
 40
0.6666666666666666
 40
0.7777777777777778
 40
0.7777777777777778
 40
0.7777777777777778
 40
0.7777777777777778
 40
1.0
 40
1.0
 40
1.0
 40
1.0
 10
190.74
 20
-65.3268
 30
0.0
 10
190.7519
 20
-76.7868
 30
0.0
 10
190.7519
 20
-100.5441
 30
0.0
 10
190.8847
 20
-108.1479
 30
0.0
 10
190.8847
 20
-108.1479
 30
0.0
 10
182.2754
 20
-108.1721
 30
0.0
 10
179.2285
 20
-108.0546
 30
0.0
 10
169.6314
 20
-108.0289
 30
0.0
 10
169.6314
 20
-108.0289
 30
0.0
 10
173.7891
 20
-106.5417
 30
0.0
 10
180.2526
 20
-100.0497
 30
0.0
 10
179.2125
 20
-94.8994
 30
0.0
 10
179.2125
 20
-94.8994
 30
0.0
 10
184.8545
 20
-94.4278
 30
0.0
 10
186.9716
 20
-99.7655
 30
0.0
 10
188.2173
 20
-102.481
 30
0.0
 10
188.2173
 20
-102.481
 30
0.0
 10
190.7518
 20
-90.0391
 30
0.0
 10
181.5971
 20
-87.1825
 30
0.0
 10
181.8858
 20
-85.4868
 30
0.0
 10
181.8858
 20
-85.4868
 30
0.0
 10
182.2388
 20
-80.2301
 30
0.0
 10
182.1037
 20
-77.6983
 30
0.0
 10
181.3296
 20
-72.46
 30
0.0
 10
181.3296
 20
-72.46
 30
0.0
 10
184.5736
 20
-72.8075
 30
0.0
 10
188.8535
 20
-70.7395
 30
0.0
 10
190.74
 20
-65.3269
 30
0.0
 10
190.74
 20
-65.3269
 30
0.0
 10
190.74
 20
-65.3269
 30
0.0
 10
190.74
 20
-65.3268
 30
0.0
 10
190.74
 20
-65.3268
 30
0.0
  0
SPLINE
  5
6A
330
1F
100
AcDbEntity
  8
layer 1
 62
     7
100
AcDbSpline
210
0.0
220
0.0
230
1.0
 70
    11
 71
     3
 72
    40
 73
    36
 74
     0
 42
0.0000000001
 43
0.0000000001
 12
1.0
 22
0.0
 32
0.0
 13
1.0
 23
0.0
 33
0.0
 40
0.0
 40
0.0
 40
0.0
 40
0.0
 40
0.1
 40
0.1
 40
0.1
 40
0.1
 40
0.2
 40
0.2
 40
0.2
 40
0.2
 40
0.3
 40
0.3
 40
0.3
 40
0.3
 40
0.4
 40
0.4
 40
0.4
 40
0.4
 40
0.5
 40
0.5
 40
0.5
 40
0.5
 40
0.6
 40
0.6
 40
0.6
 40
0.6
 40
0.7
 40
0.7
 40
0.7
 40
0.7
 40
0.8
 40
0.8
 40
0.8
 40
0.8
 40
1.0
 40
1.0
 40
1.0
 40
1.0
 10
190.74
 20
-6.6052
 30
0.0
 10
190.7519
 20
-18.0652
 30
0.0
 10
190.7519
 20
-41.8226
 30
0.0
 10
190.8847
 20
-49.4264
 30
0.0
 10
190.8847
 20
-49.4264
 30
0.0
 10
184.2816
 20
-34.6384
 30
0.0
 10
173.2162
 20
-44.2075
 30
0.0
 10
175.8777
 20
-51.1332
 30
0.0
 10
175.8777
 20
-51.1332
 30
0.0
 10
187.4891
 20
-41.6385
 30
0.0
 10
190.7518
 20
-62.5936
 30
0.0
 10
177.3974
 20
-63.0483
 30
0.0
 10
177.3974
 20
-63.0483
 30
0.0
 10
167.6298
 20
-60.9737
 30
0.0
 10
164.8545
 20
-48.3748
 30
0.0
 10
163.8144
 20
-43.2244
 30
0.0
 10
163.8144
 20
-43.2244
 30
0.0
 10
161.4226
 20
-26.5456
 30
0.0
 10
170.7701
 20
-20.0214
 30
0.0
 10
174.292
 20
-19.2137
 30
0.0
 10
174.292
 20
-19.2137
 30
0.0
 10
184.5924
 20
-17.6939
 30
0.0
 10
184.6767
 20
-26.2294
 30
0.0
 10
180.8145
 20
-29.936
 30
0.0
 10
180.8145
 20
-29.936
 30
0.0
 10
190.7516
 20
-33.9574
 30
0.0
 10
190.7516
 20
-17.4498
 30
0.0
 10
182.1329
 20
-14.9127
 30
0.0
 10
182.1329
 20
-14.9127
 30
0.0
 10
185.3769
 20
-13.381
 30
0.0
 10
188.8534
 20
-10.3737
 30
0.0
 10
190.7399
 20
-6.6052
 30
0.0
 10
190.7399
 20
-6.6052
 30
0.0
 10
190.7399
 20
-6.6052
 30
0.0
 10
190.74
 20
-6.6052
 30
0.0
 10
190.74
 20
-6.6052
 30
0.0
  0
SPLINE
  5
6B
330
1F
100
AcDbEntity
  8
layer 1
 62
     7
100
AcDbSpline
210
0.0
220
0.0
230
1.0
 70
    11
 71
     3
 72
    32
 73
    28
 74
     0
 42
0.0000000001
 43
0.0000000001
 12
1.0
 22
0.0
 32
0.0
 13
1.0
 23
0.0
 33
0.0
 40
0.0
 40
0.0
 40
0.0
 40
0.0
 40
0.125
 40
0.125
 40
0.125
 40
0.125
 40
0.25
 40
0.25
 40
0.25
 40
0.25
 40
0.375
 40
0.375
 40
0.375
 40
0.375
 40
0.5
 40
0.5
 40
0.5
 40
0.5
 40
0.625
 40
0.625
 40
0.625
 40
0.625
 40
0.75
 40
0.75
 40
0.75
 40
0.75
 40
1.0
 40
1.0
 40
1.0
 40
1.0
 10
160.7846
 20
21.787
 30
0.0
 10
152.5771
 20
18.6457
 30
0.0
 10
147.9932
 20
14.9915
 30
0.0
 10
144.1743
 20
9.8832
 30
0.0
 10
144.1743
 20
9.8832
 30
0.0
 10
143.7358
 20
28.1372
 30
0.0
 10
121.6056
 20
22.4502
 30
0.0
 10
119.6834
 20
3.7399
 30
0.0
 10
119.6834
 20
3.7399
 30
0.0
 10
112.9199
 20
12.2468
 30
0.0
 10
116.0375
 20
31.6202
 30
0.0
 10
124.7364
 20
37.323
 30
0.0
 10
124.7364
 20
37.323
 30
0.0
 10
136.9336
 20
45.2203
 30
0.0
 10
145.7116
 20
34.7438
 30
0.0
 10
135.2106
 20
26.1847
 30
0.0
 10
135.2106
 20
26.1847
 30
0.0
 10
138.6671
 20
23.9657
 30
0.0
 10
144.5155
 20
29.1046
 30
0.0
 10
143.642
 20
32.4735
 30
0.0
 10
143.642
 20
32.4735
 30
0.0
 10
147.0441
 20
26.2412
 30
0.0
 10
153.2078
 20
22.4552
 30
0.0
 10
160.7844
 20
21.787
 30
0.0
 10
160.7844
 20
21.787
 30
0.0
 10
160.7844
 20
21.787
 30
0.0
 10
160.7846
 20
21.787
 30
0.0
 10
160.7846
 20
21.787
 30
0.0
  0
SPLINE
  5
6C
330
1F
100
AcDbEntity
  8
layer 1
 62
     7
100
AcDbSpline
210
0.0
220
0.0
230
1.0
 70
    11
 71
     3
 72
    28
 73
    24
 74
     0
 42
0.0000000001
 43
0.0000000001
 12
1.0
 22
0.0
 32
0.0
 13
1.0
 23
0.0
 33
0.0
 40
0.0
 40
0.0
 40
0.0
 40
0.0
 40
0.1428571428571428
 40
0.1428571428571428
 40
0.1428571428571428
 40
0.1428571428571428
 40
0.2857142857142857
 40
0.2857142857142857
 40
0.2857142857142857
 40
0.2857142857142857
 40
0.4285714285714285
 40
0.4285714285714285
 40
0.4285714285714285
 40
0.4285714285714285
 40
0.5714285714285714
 40
0.5714285714285714
 40
0.5714285714285714
 40
0.5714285714285714
 40
0.7142857142857143
 40
0.7142857142857143
 40
0.7142857142857143
 40
0.7142857142857143
 40
1.0
 40
1.0
 40
1.0
 40
1.0
 10
142.74
 20
-7.328
 30
0.0
 10
146.8378
 20
-1.8736
 30
0.0
 10
154.899
 20
3.2069
 30
0.0
 10
162.5116
 20
-2.1788
 30
0.0
 10
162.5116
 20
-2.1788
 30
0.0
 10
162.7921
 20
12.1933
 30
0.0
 10
177.651
 20
8.863
 30
0.0
 10
174.3572
 20
-0.2809
 30
0.0
 10
174.3572
 20
-0.2809
 30
0.0
 10
170.5302
 20
3.235
 30
0.0
 10
162.7196
 20
-2.1323
 30
0.0
 10
170.6185
 20
-8.1054
 30
0.0
 10
170.6185
 20
-8.1054
 30
0.0
 10
185.6001
 20
-15.9753
 30
0.0
 10
192.6189
 20
6.3248
 30
0.0
 10
181.7495
 20
12.8748
 30
0.0
 10
181.7495
 20
12.8748
 30
0.0
 10
161.6905
 20
23.4428
 30
0.0
 10
144.0945
 20
1.92
 30
0.0
 10
142.7399
 20
-7.3282
 30
0.0
 10
142.7399
 20
-7.3282
 30
0.0
 10
142.7399
 20
-7.3282
 30
0.0
 10
142.74
 20
-7.328
 30
0.0
 10
142.74
 20
-7.328
 30
0.0
  0
SPLINE
  5
6D
330
1F
100
AcDbEntity
  8
layer 1
 62
     7
100
AcDbSpline
210
0.0
220
0.0
230
1.0
 70
    11
 71
     3
 72
    36
 73
    32
 74
     0
 42
0.0000000001
 43
0.0000000001
 12
1.0
 22
0.0
 32
0.0
 13
1.0
 23
0.0
 33
0.0
 40
0.0
 40
0.0
 40
0.0
 40
0.0
 40
0.1111111111111111
 40
0.1111111111111111
 40
0.1111111111111111
 40
0.1111111111111111
 40
0.2222222222222222
 40
0.2222222222222222
 40
0.2222222222222222
 40
0.2222222222222222
 40
0.3333333333333333
 40
0.3333333333333333
 40
0.3333333333333333
 40
0.3333333333333333
 40
0.4444444444444444
 40
0.4444444444444444
 40
0.4444444444444444
 40
0.4444444444444444
 40
0.5555555555555556
 40
0.5555555555555556
 40
0.5555555555555556
 40
0.5555555555555556
 40
0.6666666666666666
 40
0.6666666666666666
 40
0.6666666666666666
 40
0.6666666666666666
 40
0.7777777777777778
 40
0.7777777777777778
 40
0.7777777777777778
 40
0.7777777777777778
 40
1.0
 40
1.0
 40
1.0
 40
1.0
 10
152.2239
 20
-44.2069
 30
0.0
 10
152.212
 20
-35.841
 30
0.0
 10
152.0539
 20
-28.5423
 30
0.0
 10
153.3438
 20
-24.6388
 30
0.0
 10
153.3438
 20
-24.6388
 30
0.0
 10
156.1533
 20
-25.2401
 30
0.0
 10
157.8929
 20
-27.8772
 30
0.0
 10
159.1828
 20
-30.2275
 30
0.0
 10
159.1828
 20
-30.2275
 30
0.0
 10
160.8881
 20
-23.5229
 30
0.0
 10
164.4083
 20
-17.4293
 30
0.0
 10
170.0944
 20
-14.9453
 30
0.0
 10
170.0944
 20
-14.9453
 30
0.0
 10
167.2602
 20
-13.9196
 30
0.0
 10
166.9147
 20
-13.4995
 30
0.0
 10
165.233
 20
-11.6124
 30
0.0
 10
165.233
 20
-11.6124
 30
0.0
 10
165.8447
 20
-13.9315
 30
0.0
 10
163.3573
 20
-18.4751
 30
0.0
 10
158.3807
 20
-17.9713
 30
0.0
 10
158.3807
 20
-17.9713
 30
0.0
 10
164.1298
 20
-10.5704
 30
0.0
 10
155.4746
 20
-3.881
 30
0.0
 10
149.5042
 20
-9.4465
 30
0.0
 10
149.5042
 20
-9.4465
 30
0.0
 10
135.4518
 20
-22.1704
 30
0.0
 10
145.8335
 20
-39.6727
 30
0.0
 10
152.2241
 20
-44.2069
 30
0.0
 10
152.2241
 20
-44.2069
 30
0.0
 10
152.2241
 20
-44.2069
 30
0.0
 10
152.2239
 20
-44.2069
 30
0.0
 10
152.2239
 20
-44.2069
 30
0.0
  0
SPLINE
  5
6E
330
1F
100
AcDbEntity
  8
layer 1
 62
     7
100
AcDbSpline
210
0.0
220
0.0
230
1.0
 70
    11
 71
     3
 72
    28
 73
    24
 74
     0
 42
0.0000000001
 43
0.0000000001
 12
1.0
 22
0.0
 32
0.0
 13
1.0
 23
0.0
 33
0.0
 40
0.0
 40
0.0
 40
0.0
 40
0.0
 40
0.1428571428571428
 40
0.1428571428571428
 40
0.1428571428571428
 40
0.1428571428571428
 40
0.2857142857142857
 40
0.2857142857142857
 40
0.2857142857142857
 40
0.2857142857142857
 40
0.4285714285714285
 40
0.4285714285714285
 40
0.4285714285714285
 40
0.4285714285714285
 40
0.5714285714285714
 40
0.5714285714285714
 40
0.5714285714285714
 40
0.5714285714285714
 40
0.7142857142857143
 40
0.7142857142857143
 40
0.7142857142857143
 40
0.7142857142857143
 40
1.0
 40
1.0
 40
1.0
 40
1.0
 10
130.2527
 20
-16.201
 30
0.0
 10
130.5568
 20
-12.8262
 30
0.0
 10
131.8214
 20
-8.7163
 30
0.0
 10
132.637
 20
-6.3379
 30
0.0
 10
132.637
 20
-6.3379
 30
0.0
 10
135.1303
 20
-7.7711
 30
0.0
 10
133.3926
 20
-11.3786
 30
0.0
 10
138.002
 20
-17.611
 30
0.0
 10
138.002
 20
-17.611
 30
0.0
 10
137.0203
 20
-9.6585
 30
0.0
 10
137.8533
 20
-1.9013
 30
0.0
 10
141.1683
 20
3.6328
 30
0.0
 10
141.1683
 20
3.6328
 30
0.0
 10
138.72
 20
2.9761
 30
0.0
 10
136.6969
 20
4.1149
 30
0.0
 10
136.0932
 20
6.014
 30
0.0
 10
136.0932
 20
6.014
 30
0.0
 10
144.8456
 20
9.533
 30
0.0
 10
137.6129
 20
19.411
 30
0.0
 10
129.9038
 20
13.0137
 30
0.0
 10
129.9038
 20
13.0137
 30
0.0
 10
118.8546
 20
1.3989
 30
0.0
 10
126.3913
 20
-14.4396
 30
0.0
 10
130.2527
 20
-16.201
 30
0.0
  0
SPLINE
  5
6F
330
1F
100
AcDbEntity
  8
layer 1
 62
     7
100
AcDbSpline
210
0.0
220
0.0
230
1.0
 70
    11
 71
     3
 72
    32
 73
    28
 74
     0
 42
0.0000000001
 43
0.0000000001
 12
1.0
 22
0.0
 32
0.0
 13
1.0
 23
0.0
 33
0.0
 40
0.0
 40
0.0
 40
0.0
 40
0.0
 40
0.125
 40
0.125
 40
0.125
 40
0.125
 40
0.25
 40
0.25
 40
0.25
 40
0.25
 40
0.375
 40
0.375
 40
0.375
 40
0.375
 40
0.5
 40
0.5
 40
0.5
 40
0.5
 40
0.625
 40
0.625
 40
0.625
 40
0.625
 40
0.75
 40
0.75
 40
0.75
 40
0.75
 40
1.0
 40
1.0
 40
1.0
 40
1.0
 10
118.5068
 20
49.2493
 30
0.0
 10
120.7738
 20
49.2597
 30
0.0
 10
123.2465
 20
49.5371
 30
0.0
 10
127.5388
 20
51.5945
 30
0.0
 10
127.5388
 20
51.5945
 30
0.0
 10
124.9563
 20
48.5757
 30
0.0
 10
124.0047
 20
45.802
 30
0.0
 10
124.3284
 20
41.8977
 30
0.0
 10
124.3284
 20
41.8977
 30
0.0
 10
128.969
 20
44.8385
 30
0.0
 10
136.0744
 20
47.1579
 30
0.0
 10
143.4904
 20
39.259
 30
0.0
 10
143.4904
 20
39.259
 30
0.0
 10
141.1611
 20
42.9316
 30
0.0
 10
144.6723
 20
47.4789
 30
0.0
 10
146.8373
 20
48.0084
 30
0.0
 10
146.8373
 20
48.0084
 30
0.0
 10
144.2105
 20
50.0366
 30
0.0
 10
142.3529
 20
53.0529
 30
0.0
 10
142.0143
 20
54.9623
 30
0.0
 10
142.0143
 20
54.9623
 30
0.0
 10
154.772
 20
46.6923
 30
0.0
 10
158.5454
 20
63.7372
 30
0.0
 10
145.5157
 20
67.3908
 30
0.0
 10
145.5157
 20
67.3908
 30
0.0
 10
136.5355
 20
69.9541
 30
0.0
 10
120.803
 20
65.5976
 30
0.0
 10
118.5068
 20
49.2493
 30
0.0
  0
SPLINE
  5
70
330
1F
100
AcDbEntity
  8
layer 1
 62
     7
100
AcDbSpline
210
0.0
220
0.0
230
1.0
 70
    11
 71
     3
 72
    32
 73
    28
 74
     0
 42
0.0000000001
 43
0.0000000001
 12
1.0
 22
0.0
 32
0.0
 13
1.0
 23
0.0
 33
0.0
 40
0.0
 40
0.0
 40
0.0
 40
0.0
 40
0.125
 40
0.125
 40
0.125
 40
0.125
 40
0.25
 40
0.25
 40
0.25
 40
0.25
 40
0.375
 40
0.375
 40
0.375
 40
0.375
 40
0.5
 40
0.5
 40
0.5
 40
0.5
 40
0.625
 40
0.625
 40
0.625
 40
0.625
 40
0.75
 40
0.75
 40
0.75
 40
0.75
 40
1.0
 40
1.0
 40
1.0
 40
1.0
 10
135.5423
 20
77.3864
 30
0.0
 10
135.2381
 20
80.7612
 30
0.0
 10
135.9348
 20
84.9428
 30
0.0
 10
135.1191
 20
87.3211
 30
0.0
 10
135.1191
 20
87.3211
 30
0.0
 10
132.7891
 20
86.8196
 30
0.0
 10
131.3403
 20
85.0039
 30
0.0
 10
129.2639
 20
82.2116
 30
0.0
 10
129.2639
 20
82.2116
 30
0.0
 10
130.0005
 20
87.0821
 30
0.0
 10
129.5762
 20
89.7508
 30
0.0
 10
127.405
 20
94.64
 30
0.0
 10
127.405
 20
94.64
 30
0.0
 10
130.4252
 20
93.9833
 30
0.0
 10
131.8764
 20
97.9889
 30
0.0
 10
131.6629
 20
100.748
 30
0.0
 10
131.6629
 20
100.748
 30
0.0
 10
117.9261
 20
100.1101
 30
0.0
 10
123.1159
 20
123.9643
 30
0.0
 10
138.833
 20
117.1367
 30
0.0
 10
138.833
 20
117.1367
 30
0.0
 10
155.1935
 20
108.0304
 30
0.0
 10
144.8786
 20
84.2363
 30
0.0
 10
135.5425
 20
77.3862
 30
0.0
 10
135.5425
 20
77.3862
 30
0.0
 10
135.5425
 20
77.3862
 30
0.0
 10
135.5423
 20
77.3864
 30
0.0
 10
135.5423
 20
77.3864
 30
0.0
  0
SPLINE
  5
71
330
1F
100
AcDbEntity
  8
layer 1
 62
     7
100
AcDbSpline
210
0.0
220
0.0
230
1.0
 70
    11
 71
     3
 72
    24
 73
    20
 74
     0
 42
0.0000000001
 43
0.0000000001
 12
1.0
 22
0.0
 32
0.0
 13
1.0
 23
0.0
 33
0.0
 40
0.0
 40
0.0
 40
0.0
 40
0.0
 40
0.1666666666666667
 40
0.1666666666666667
 40
0.1666666666666667
 40
0.1666666666666667
 40
0.3333333333333333
 40
0.3333333333333333
 40
0.3333333333333333
 40
0.3333333333333333
 40
0.5
 40
0.5
 40
0.5
 40
0.5
 40
0.6666666666666666
 40
0.6666666666666666
 40
0.6666666666666666
 40
0.6666666666666666
 40
1.0
 40
1.0
 40
1.0
 40
1.0
 10
151.4415
 20
71.6501
 30
0.0
 10
171.7415
 20
72.4374
 30
0.0
 10
180.7134
 20
53.2994
 30
0.0
 10
175.5447
 20
40.3322
 30
0.0
 10
175.5447
 20
40.3322
 30
0.0
 10
171.7593
 20
30.8358
 30
0.0
 10
161.3427
 20
25.1474
 30
0.0
 10
152.3122
 20
33.0038
 30
0.0
 10
152.3122
 20
33.0038
 30
0.0
 10
144.2129
 20
40.6925
 30
0.0
 10
151.6604
 20
49.7727
 30
0.0
 10
157.8434
 20
40.5706
 30
0.0
 10
157.8434
 20
40.5706
 30
0.0
 10
159.0965
 20
42.7322
 30
0.0
 10
157.8164
 20
50.1198
 30
0.0
 10
154.7914
 20
50.4833
 30
0.0
 10
154.7914
 20
50.4833
 30
0.0
 10
159.0371
 20
51.2542
 30
0.0
 10
165.5565
 20
62.3946
 30
0.0
 10
151.4415
 20
71.6501
 30
0.0
  0
SPLINE
  5
72
330
1F
100
AcDbEntity
  8
layer 1
 62
     7
100
AcDbSpline
210
0.0
220
0.0
230
1.0
 70
    11
 71
     3
 72
    28
 73
    24
 74
     0
 42
0.0000000001
 43
0.0000000001
 12
1.0
 22
0.0
 32
0.0
 13
1.0
 23
0.0
 33
0.0
 40
0.0
 40
0.0
 40
0.0
 40
0.0
 40
0.1428571428571428
 40
0.1428571428571428
 40
0.1428571428571428
 40
0.1428571428571428
 40
0.2857142857142857
 40
0.2857142857142857
 40
0.2857142857142857
 40
0.2857142857142857
 40
0.4285714285714285
 40
0.4285714285714285
 40
0.4285714285714285
 40
0.4285714285714285
 40
0.5714285714285714
 40
0.5714285714285714
 40
0.5714285714285714
 40
0.5714285714285714
 40
0.7142857142857143
 40
0.7142857142857143
 40
0.7142857142857143
 40
0.7142857142857143
 40
1.0
 40
1.0
 40
1.0
 40
1.0
 10
130.9345
 20
-49.566
 30
0.0
 10
124.2466
 20
-55.6258
 30
0.0
 10
124.8219
 20
-72.9631
 30
0.0
 10
128.1228
 20
-77.9844
 30
0.0
 10
128.1228
 20
-77.9844
 30
0.0
 10
123.4452
 20
-74.6848
 30
0.0
 10
118.0015
 20
-79.7476
 30
0.0
 10
118.5917
 20
-84.0924
 30
0.0
 10
118.5917
 20
-84.0924
 30
0.0
 10
130.8169
 20
-83.6129
 30
0.0
 10
129.5
 20
-96.2662
 30
0.0
 10
125.1358
 20
-99.1683
 30
0.0
 10
125.1358
 20
-99.1683
 30
0.0
 10
121.6872
 20
-101.4615
 30
0.0
 10
113.5561
 20
-100.6326
 30
0.0
 10
110.7437
 20
-90.9003
 30
0.0
 10
110.7437
 20
-90.9003
 30
0.0
 10
103.4622
 20
-53.3578
 30
0.0
 10
123.9042
 20
-49.5122
 30
0.0
 10
130.9344
 20
-49.566
 30
0.0
 10
130.9344
 20
-49.566
 30
0.0
 10
130.9344
 20
-49.566
 30
0.0
 10
130.9345
 20
-49.566
 30
0.0
 10
130.9345
 20
-49.566
 30
0.0
  0
SPLINE
  5
73
330
1F
100
AcDbEntity
  8
layer 1
 62
     7
100
AcDbSpline
210
0.0
220
0.0
230
1.0
 70
    11
 71
     3
 72
    32
 73
    28
 74
     0
 42
0.0000000001
 43
0.0000000001
 12
1.0
 22
0.0
 32
0.0
 13
1.0
 23
0.0
 33
0.0
 40
0.0
 40
0.0
 40
0.0
 40
0.0
 40
0.125
 40
0.125
 40
0.125
 40
0.125
 40
0.25
 40
0.25
 40
0.25
 40
0.25
 40
0.375
 40
0.375
 40
0.375
 40
0.375
 40
0.5
 40
0.5
 40
0.5
 40
0.5
 40
0.625
 40
0.625
 40
0.625
 40
0.625
 40
0.75
 40
0.75
 40
0.75
 40
0.75
 40
1.0
 40
1.0
 40
1.0
 40
1.0
 10
168.8319
 20
-97.4659
 30
0.0
 10
157.3032
 20
-107.24
 30
0.0
 10
148.8094
 20
-77.5534
 30
0.0
 10
166.3747
 20
-80.395
 30
0.0
 10
166.3747
 20
-80.395
 30
0.0
 10
164.346
 20
-69.3994
 30
0.0
 10
157.2471
 20
-71.149
 30
0.0
 10
153.815
 20
-76.1878
 30
0.0
 10
153.815
 20
-76.1878
 30
0.0
 10
154.5516
 20
-71.3173
 30
0.0
 10
150.5866
 20
-66.6663
 30
0.0
 10
147.1347
 20
-68.6491
 30
0.0
 10
147.1347
 20
-68.6491
 30
0.0
 10
153.1432
 20
-81.0339
 30
0.0
 10
140.7705
 20
-83.7651
 30
0.0
 10
135.4891
 20
-71.7702
 30
0.0
 10
135.4891
 20
-71.7702
 30
0.0
 10
131.2931
 20
-60.3139
 30
0.0
 10
139.0383
 20
-50.2681
 30
0.0
 10
153.214
 20
-54.8742
 30
0.0
 10
153.214
 20
-54.8742
 30
0.0
 10
174.0945
 20
-62.4608
 30
0.0
 10
178.9214
 20
-89.4264
 30
0.0
 10
168.8319
 20
-97.4658
 30
0.0
 10
168.8319
 20
-97.4658
 30
0.0
 10
168.8319
 20
-97.4658
 30
0.0
 10
168.8319
 20
-97.4659
 30
0.0
 10
168.8319
 20
-97.4659
 30
0.0
  0
SPLINE
  5
74
330
1F
100
AcDbEntity
  8
layer 1
 62
     7
100
AcDbSpline
210
0.0
220
0.0
230
1.0
 70
    11
 71
     3
 72
    40
 73
    36
 74
     0
 42
0.0000000001
 43
0.0000000001
 12
1.0
 22
0.0
 32
0.0
 13
1.0
 23
0.0
 33
0.0
 40
0.0
 40
0.0
 40
0.0
 40
0.0
 40
0.1
 40
0.1
 40
0.1
 40
0.1
 40
0.2
 40
0.2
 40
0.2
 40
0.2
 40
0.3
 40
0.3
 40
0.3
 40
0.3
 40
0.4
 40
0.4
 40
0.4
 40
0.4
 40
0.5
 40
0.5
 40
0.5
 40
0.5
 40
0.6
 40
0.6
 40
0.6
 40
0.6
 40
0.7
 40
0.7
 40
0.7
 40
0.7
 40
0.8
 40
0.8
 40
0.8
 40
0.8
 40
1.0
 40
1.0
 40
1.0
 40
1.0
 10
111.1282
 20
0.7645
 30
0.0
 10
114.8485
 20
-1.173
 30
0.0
 10
118.0084
 20
-5.9985
 30
0.0
 10
122.9594
 20
-16.6877
 30
0.0
 10
122.9594
 20
-16.6877
 30
0.0
 10
128.8403
 20
-29.3845
 30
0.0
 10
134.5628
 20
-34.6722
 30
0.0
 10
140.6953
 20
-43.1066
 30
0.0
 10
140.6953
 20
-43.1066
 30
0.0
 10
133.594
 20
-41.5157
 30
0.0
 10
125.5565
 20
-40.8403
 30
0.0
 10
118.9362
 20
-41.2411
 30
0.0
 10
118.9362
 20
-41.2411
 30
0.0
 10
111.0393
 20
-40.6551
 30
0.0
 10
104.2531
 20
-33.2037
 30
0.0
 10
102.0821
 20
-28.3146
 30
0.0
 10
102.0821
 20
-28.3146
 30
0.0
 10
98.6273
 20
-14.6231
 30
0.0
 10
116.0959
 20
-10.717
 30
0.0
 10
110.4296
 20
-28.2847
 30
0.0
 10
110.4296
 20
-28.2847
 30
0.0
 10
116.7999
 20
-26.9299
 30
0.0
 10
116.7642
 20
-16.2283
 30
0.0
 10
109.3067
 20
-11.5971
 30
0.0
 10
109.3067
 20
-11.5971
 30
0.0
 10
110.9775
 20
-10.3979
 30
0.0
 10
112.1356
 20
-7.8952
 30
0.0
 10
110.6829
 20
-5.647
 30
0.0
 10
110.6829
 20
-5.647
 30
0.0
 10
102.9265
 20
-10.4772
 30
0.0
 10
99.8541
 20
-4.3681
 30
0.0
 10
101.8807
 20
-0.763
 30
0.0
 10
101.8807
 20
-0.763
 30
0.0
 10
103.3198
 20
1.7969
 30
0.0
 10
108.1718
 20
3.2022
 30
0.0
 10
111.1282
 20
0.7645
 30
0.0
  0
SPLINE
  5
75
330
1F
100
AcDbEntity
  8
layer 1
 62
     7
100
AcDbSpline
210
0.0
220
0.0
230
1.0
 70
    11
 71
     3
 72
    44
 73
    40
 74
     0
 42
0.0000000001
 43
0.0000000001
 12
1.0
 22
0.0
 32
0.0
 13
1.0
 23
0.0
 33
0.0
 40
0.0
 40
0.0
 40
0.0
 40
0.0
 40
0.0909090909090909
 40
0.0909090909090909
 40
0.0909090909090909
 40
0.0909090909090909
 40
0.1818181818181818
 40
0.1818181818181818
 40
0.1818181818181818
 40
0.1818181818181818
 40
0.2727272727272727
 40
0.2727272727272727
 40
0.2727272727272727
 40
0.2727272727272727
 40
0.3636363636363636
 40
0.3636363636363636
 40
0.3636363636363636
 40
0.3636363636363636
 40
0.4545454545454545
 40
0.4545454545454545
 40
0.4545454545454545
 40
0.4545454545454545
 40
0.5454545454545454
 40
0.5454545454545454
 40
0.5454545454545454
 40
0.5454545454545454
 40
0.6363636363636364
 40
0.6363636363636364
 40
0.6363636363636364
 40
0.6363636363636364
 40
0.7272727272727273
 40
0.7272727272727273
 40
0.7272727272727273
 40
0.7272727272727273
 40
0.8181818181818182
 40
0.8181818181818182
 40
0.8181818181818182
 40
0.8181818181818182
 40
1.0
 40
1.0
 40
1.0
 40
1.0
 10
109.5956
 20
63.0206
 30
0.0
 10
108.9507
 20
60.8156
 30
0.0
 10
109.42
 20
57.823
 30
0.0
 10
109.0588
 20
55.7176
 30
0.0
 10
109.0588
 20
55.7176
 30
0.0
 10
104.116
 20
59.3014
 30
0.0
 10
96.1919
 20
63.8627
 30
0.0
 10
94.3429
 20
71.732
 30
0.0
 10
94.3429
 20
71.732
 30
0.0
 10
93.4891
 20
79.4922
 30
0.0
 10
100.2213
 20
81.7621
 30
0.0
 10
102.4807
 20
74.3955
 30
0.0
 10
102.4807
 20
74.3955
 30
0.0
 10
104.1377
 20
74.7353
 30
0.0
 10
104.7937
 20
80.0362
 30
0.0
 10
101.8537
 20
81.9981
 30
0.0
 10
101.8537
 20
81.9981
 30
0.0
 10
105.2133
 20
80.7404
 30
0.0
 10
108.6729
 20
83.8925
 30
0.0
 10
107.7451
 20
86.9599
 30
0.0
 10
107.7451
 20
86.9599
 30
0.0
 10
97.3047
 20
81.585
 30
0.0
 10
96.6339
 20
100.9524
 30
0.0
 10
115.8396
 20
93.1059
 30
0.0
 10
115.8396
 20
93.1059
 30
0.0
 10
124.0198
 20
88.5527
 30
0.0
 10
124.2241
 20
79.1971
 30
0.0
 10
120.4434
 20
73.0259
 30
0.0
 10
120.4434
 20
73.0259
 30
0.0
 10
116.2836
 20
67.1035
 30
0.0
 10
115.8429
 20
63.907
 30
0.0
 10
113.6756
 20
56.6453
 30
0.0
 10
113.6756
 20
56.6453
 30
0.0
 10
112.7866
 20
59.1833
 30
0.0
 10
111.5983
 20
61.5843
 30
0.0
 10
109.5953
 20
63.0206
 30
0.0
 10
109.5953
 20
63.0206
 30
0.0
 10
109.5953
 20
63.0206
 30
0.0
 10
109.5956
 20
63.0206
 30
0.0
 10
109.5956
 20
63.0206
 30
0.0
  0
ENDSEC
  0
SECTION
  2
OBJECTS
  0
DICTIONARY
  5
C
330
0
100
AcDbDictionary
281
     1
  3
ACAD_GROUP
350
D
  3
ACAD_LAYOUT
350
1A
  3
ACAD_MATERIAL
350
3B
  3
ACAD_MLEADERSTYLE
350
98
  3
ACAD_MLINESTYLE
350
17
  3
ACAD_PLOTSETTINGS
350
19
  3
ACAD_PLOTSTYLENAME
350
E
  3
ACAD_TABLESTYLE
350
97
  3
ACAD_VISUALSTYLE
350
2A
  0
DICTIONARY
  5
D
102
{ACAD_REACTORS
330
C
102
}
330
C
100
AcDbDictionary
281
     1
  0
DICTIONARY
  5
1A
102
{ACAD_REACTORS
330
C
102
}
330
C
100
AcDbDictionary
281
     1
  3
Layout1
350
1E
  3
Layout2
350
26
  3
Model
350
22
  0
DICTIONARY
  5
3B
102
{ACAD_REACTORS
330
C
102
}
330
C
100
AcDbDictionary
281
     1
  3
ByBlock
350
3D
  3
ByLayer
350
3C
  3
Global
350
3E
  0
DICTIONARY
  5
98
102
{ACAD_REACTORS
330
C
102
}
330
C
100
AcDbDictionary
281
     1
  0
DICTIONARY
  5
17
102
{ACAD_REACTORS
330
C
102
}
330
C
100
AcDbDictionary
281
     1
  3
Standard
350
18
  0
DICTIONARY
  5
19
102
{ACAD_REACTORS
330
C
102
}
330
C
100
AcDbDictionary
281
     1
  0
ACDBDICTIONARYWDFLT
  5
E
102
{ACAD_REACTORS
330
C
102
}
330
C
100
AcDbDictionary
281
     1
  3
Normal
350
F
100
AcDbDictionaryWithDefault
340
F
  0
DICTIONARY
  5
97
102
{ACAD_REACTORS
330
C
102
}
330
C
100
AcDbDictionary
281
     1
  0
DICTIONARY
  5
2A
102
{ACAD_REACTORS
330
C
102
}
330
C
100
AcDbDictionary
281
     1
  3
2dWireframe
350
2F
  3
3D Hidden
350
31
  3
3dWireframe
350
30
  3
Basic
350
32
  3
Brighten
350
36
  3
ColorChange
350
3A
  3
Conceptual
350
34
  3
Dim
350
35
  3
Facepattern
350
39
  3
Flat
350
2B
  3
FlatWithEdges
350
2C
  3
Gouraud
350
2D
  3
GouraudWithEdges
350
2E
  3
Linepattern
350
38
  3
Realistic
350
33
  3
Thicken
350
37
  0
LAYOUT
  5
1E
102
{ACAD_REACTORS
330
1A
102
}
330
1A
100
AcDbPlotSettings
  1

  2
none_device
  4

  6

 40
0.0
 41
0.0
 42
0.0
 43
0.0
 44
0.0
 45
0.0
 46
0.0
 47
0.0
 48
0.0
 49
0.0
140
0.0
141
0.0
142
1.0
143
1.0
 70
   688
 72
     0
 73
     0
 74
     5
  7

 75
    16
 76
     0
 77
     2
 78
   300
147
1.0
148
0.0
149
0.0
100
AcDbLayout
  1
Layout1
 70
     1
 71
     1
 10
0.0
 20
0.0
 11
12.0
 21
9.0
 12
0.0
 22
0.0
 32
0.0
 14
1.000000000000000E+20
 24
1.000000000000000E+20
 34
1.000000000000000E+20
 15
-1.000000000000000E+20
 25
-1.000000000000000E+20
 35
-1.000000000000000E+20
146
0.0
 13
0.0
 23
0.0
 33
0.0
 16
1.0
 26
0.0
 36
0.0
 17
0.0
 27
1.0
 37
0.0
 76
     0
330
1B
  0
LAYOUT
  5
26
102
{ACAD_REACTORS
330
1A
102
}
330
1A
100
AcDbPlotSettings
  1

  2
none_device
  4

  6

 40
0.0
 41
0.0
 42
0.0
 43
0.0
 44
0.0
 45
0.0
 46
0.0
 47
0.0
 48
0.0
 49
0.0
140
0.0
141
0.0
142
1.0
143
1.0
 70
   688
 72
     0
 73
     0
 74
     5
  7

 75
    16
 76
     0
 77
     2
 78
   300
147
1.0
148
0.0
149
0.0
100
AcDbLayout
  1
Layout2
 70
     1
 71
     2
 10
0.0
 20
0.0
 11
0.0
 21
0.0
 12
0.0
 22
0.0
 32
0.0
 14
0.0
 24
0.0
 34
0.0
 15
0.0
 25
0.0
 35
0.0
146
0.0
 13
0.0
 23
0.0
 33
0.0
 16
1.0
 26
0.0
 36
0.0
 17
0.0
 27
1.0
 37
0.0
 76
     0
330
23
  0
LAYOUT
  5
22
102
{ACAD_REACTORS
330
1A
102
}
330
1A
100
AcDbPlotSettings
  1

  2
none_device
  4

  6

 40
0.0
 41
0.0
 42
0.0
 43
0.0
 44
0.0
 45
0.0
 46
0.0
 47
0.0
 48
0.0
 49
0.0
140
0.0
141
0.0
142
1.0
143
1.0
 70
  1712
 72
     0
 73
     0
 74
     0
  7

 75
     0
 76
     0
 77
     2
 78
   300
147
1.0
148
0.0
149
0.0
100
AcDbLayout
  1
Model
 70
     1
 71
     0
 10
0.0
 20
0.0
 11
12.0
 21
9.0
 12
0.0
 22
0.0
 32
0.0
 14
-46.6545
 24
-114.9498
 34
0.0
 15
196.3735
 25
131.7435
 35
0.0
146
0.0
 13
0.0
 23
0.0
 33
0.0
 16
1.0
 26
0.0
 36
0.0
 17
0.0
 27
1.0
 37
0.0
 76
     0
330
1F
331
29
  0
MATERIAL
  5
3D
102
{ACAD_REACTORS
330
3B
102
}
330
3B
100
AcDbMaterial
  1
ByBlock
 72
     1
 94
      127
  0
MATERIAL
  5
3C
102
{ACAD_REACTORS
330
3B
102
}
330
3B
100
AcDbMaterial
  1
ByLayer
 72
     1
 94
      127
  0
MATERIAL
  5
3E
102
{ACAD_REACTORS
330
3B
102
}
330
3B
100
AcDbMaterial
  1
Global
 72
     1
 94
      127
  0
MLINESTYLE
  5
18
102
{ACAD_REACTORS
330
17
102
}
330
17
100
AcDbMlineStyle
  2
Standard
 70
     0
  3

 62
   256
 51
90.0
 52
90.0
 71
     2
 49
0.5
 62
   256
  6
BYLAYER
 49
-0.5
 62
   256
  6
BYLAYER
  0
ACDBPLACEHOLDER
  5
F
102
{ACAD_REACTORS
330
E
102
}
330
E
  0
VISUALSTYLE
  5
2F
102
{ACAD_REACTORS
330
2A
102
}
102
{ACAD_XDICTIONARY
360
7F
102
}
330
2A
100
AcDbVisualStyle
  2
2dWireframe
 70
     4
 71
     0
 72
     2
 73
     0
 90
        0
 40
-0.6
 41
-30.0
 62
     5
 63
     7
421
 16777215
 74
     1
 91
        4
 64
     7
 65
   257
 75
     1
175
     1
 42
1.0
 92
        0
 66
   257
 43
1.0
 76
     1
 77
     6
 78
     2
 67
     7
 79
     5
170
     0
171
     0
290
     0
174
     0
 93
        1
 44
0.0
173
     0
291
     0
 45
0.0
  0
VISUALSTYLE
  5
31
102
{ACAD_REACTORS
330
2A
102
}
102
{ACAD_XDICTIONARY
360
83
102
}
330
2A
100
AcDbVisualStyle
  2
3D Hidden
 70
     6
 71
     1
 72
     2
 73
     2
 90
        0
 40
-0.6
 41
-30.0
 62
     5
 63
     7
421
 16777215
 74
     2
 91
        2
 64
     7
 65
   257
 75
     2
175
     1
 42
40.0
 92
        0
 66
   257
 43
1.0
 76
     1
 77
     6
 78
     2
 67
     7
 79
     3
170
     0
171
     0
290
     0
174
     0
 93
        1
 44
0.0
173
     0
291
     0
 45
0.0
  0
VISUALSTYLE
  5
30
102
{ACAD_REACTORS
330
2A
102
}
102
{ACAD_XDICTIONARY
360
81
102
}
330
2A
100
AcDbVisualStyle
  2
3dWireframe
 70
     5
 71
     0
 72
     2
 73
     0
 90
        0
 40
-0.6
 41
-30.0
 62
     5
 63
     7
421
 16777215
 74
     1
 91
        4
 64
     7
 65
   257
 75
     1
175
     1
 42
1.0
 92
        0
 66
   257
 43
1.0
 76
     1
 77
     6
 78
     2
 67
     7
 79
     5
170
     0
171
     0
290
     0
174
     0
 93
        1
 44
0.0
173
     0
291
     0
 45
0.0
  0
VISUALSTYLE
  5
32
102
{ACAD_REACTORS
330
2A
102
}
102
{ACAD_XDICTIONARY
360
85
102
}
330
2A
100
AcDbVisualStyle
  2
Basic
 70
     7
 71
     1
 72
     0
 73
     1
 90
        0
 40
-0.6
 41
-30.0
 62
     5
 63
     7
421
 16777215
 74
     0
 91
        4
 64
     7
 65
   257
 75
     1
175
     1
 42
1.0
 92
        8
 66
     7
 43
1.0
 76
     1
 77
     6
 78
     2
 67
     7
 79
     5
170
     0
171
     0
290
     0
174
     0
 93
        1
 44
0.0
173
     0
291
     1
 45
0.0
  0
VISUALSTYLE
  5
36
102
{ACAD_REACTORS
330
2A
102
}
102
{ACAD_XDICTIONARY
360
8D
102
}
330
2A
100
AcDbVisualStyle
  2
Brighten
 70
    12
 71
     2
 72
     2
 73
     0
 90
        0
 40
-0.6
 41
-30.0
 62
     5
 63
     7
421
 16777215
 74
     1
 91
        4
 64
     7
 65
   257
 75
     1
175
     1
 42
1.0
 92
        8
 66
     7
 43
1.0
 76
     1
 77
     6
 78
     2
 67
     7
 79
     5
170
     0
171
     0
290
     0
174
     0
 93
        1
 44
50.0
173
     0
291
     1
 45
0.0
  0
VISUALSTYLE
  5
3A
102
{ACAD_REACTORS
330
2A
102
}
102
{ACAD_XDICTIONARY
360
95
102
}
330
2A
100
AcDbVisualStyle
  2
ColorChange
 70
    16
 71
     2
 72
     2
 73
     3
 90
        0
 40
-0.6
 41
-30.0
 62
     5
 63
     8
421
  8421504
 74
     1
 91
        4
 64
     7
 65
   257
 75
     1
175
     1
 42
1.0
 92
        8
 66
     8
424
  8421504
 43
1.0
 76
     1
 77
     6
 78
     2
 67
     7
 79
     5
170
     0
171
     0
290
     0
174
     0
 93
        1
 44
0.0
173
     0
291
     1
 45
0.0
  0
VISUALSTYLE
  5
34
102
{ACAD_REACTORS
330
2A
102
}
102
{ACAD_XDICTIONARY
360
89
102
}
330
2A
100
AcDbVisualStyle
  2
Conceptual
 70
     9
 71
     3
 72
     2
 73
     0
 90
        0
 40
-0.6
 41
-30.0
 62
     5
 63
     7
421
 16777215
 74
     2
 91
        2
 64
     7
 65
   257
 75
     1
175
     1
 42
40.0
 92
        8
 66
     7
 43
1.0
 76
     1
 77
     6
 78
     2
 67
     7
 79
     3
170
     0
171
     0
290
     0
174
     0
 93
        1
 44
0.0
173
     0
291
     0
 45
0.0
  0
VISUALSTYLE
  5
35
102
{ACAD_REACTORS
330
2A
102
}
102
{ACAD_XDICTIONARY
360
8B
102
}
330
2A
100
AcDbVisualStyle
  2
Dim
 70
    11
 71
     2
 72
     2
 73
     0
 90
        0
 40
-0.6
 41
-30.0
 62
     5
 63
     7
421
 16777215
 74
     1
 91
        4
 64
     7
 65
   257
 75
     1
175
     1
 42
1.0
 92
        8
 66
     7
 43
1.0
 76
     1
 77
     6
 78
     2
 67
     7
 79
     5
170
     0
171
     0
290
     0
174
     0
 93
        1
 44
-50.0
173
     0
291
     1
 45
0.0
  0
VISUALSTYLE
  5
39
102
{ACAD_REACTORS
330
2A
102
}
102
{ACAD_XDICTIONARY
360
93
102
}
330
2A
100
AcDbVisualStyle
  2
Facepattern
 70
    15
 71
     2
 72
     2
 73
     0
 90
        0
 40
-0.6
 41
-30.0
 62
     5
 63
     7
421
 16777215
 74
     1
 91
        4
 64
     7
 65
   257
 75
     1
175
     1
 42
1.0
 92
        8
 66
     7
 43
1.0
 76
     1
 77
     6
 78
     2
 67
     7
 79
     5
170
     0
171
     0
290
     0
174
     0
 93
        1
 44
0.0
173
     0
291
     1
 45
0.0
  0
VISUALSTYLE
  5
2B
102
{ACAD_REACTORS
330
2A
102
}
102
{ACAD_XDICTIONARY
360
77
102
}
330
2A
100
AcDbVisualStyle
  2
Flat
 70
     0
 71
     2
 72
     1
 73
     1
 90
        2
 40
-0.6
 41
30.0
 62
     5
 63
     7
421
 16777215
 74
     0
 91
        4
 64
     7
 65
   257
 75
     1
175
     1
 42
1.0
 92
        8
 66
     7
 43
1.0
 76
     1
 77
     6
 78
     2
 67
     7
 79
     5
170
     0
171
     0
290
     0
174
     0
 93
       13
 44
0.0
173
     0
291
     1
 45
0.0
  0
VISUALSTYLE
  5
2C
102
{ACAD_REACTORS
330
2A
102
}
102
{ACAD_XDICTIONARY
360
79
102
}
330
2A
100
AcDbVisualStyle
  2
FlatWithEdges
 70
     1
 71
     2
 72
     1
 73
     1
 90
        2
 40
-0.6
 41
30.0
 62
     5
 63
     7
421
 16777215
 74
     1
 91
        4
 64
     7
 65
   257
 75
     1
175
     1
 42
1.0
 92
        0
 66
   257
 43
1.0
 76
     1
 77
     6
 78
     2
 67
     7
 79
     5
170
     0
171
     0
290
     0
174
     0
 93
       13
 44
0.0
173
     0
291
     1
 45
0.0
  0
VISUALSTYLE
  5
2D
102
{ACAD_REACTORS
330
2A
102
}
102
{ACAD_XDICTIONARY
360
7B
102
}
330
2A
100
AcDbVisualStyle
  2
Gouraud
 70
     2
 71
     2
 72
     2
 73
     1
 90
        2
 40
-0.6
 41
30.0
 62
     5
 63
     7
421
 16777215
 74
     0
 91
        4
 64
     7
 65
   257
 75
     1
175
     1
 42
1.0
 92
        0
 66
     7
 43
1.0
 76
     1
 77
     6
 78
     2
 67
     7
 79
     5
170
     0
171
     0
290
     0
174
     0
 93
       13
 44
0.0
173
     0
291
     1
 45
0.0
  0
VISUALSTYLE
  5
2E
102
{ACAD_REACTORS
330
2A
102
}
102
{ACAD_XDICTIONARY
360
7D
102
}
330
2A
100
AcDbVisualStyle
  2
GouraudWithEdges
 70
     3
 71
     2
 72
     2
 73
     1
 90
        2
 40
-0.6
 41
30.0
 62
     5
 63
     7
421
 16777215
 74
     1
 91
        4
 64
     7
 65
   257
 75
     1
175
     1
 42
1.0
 92
        0
 66
   257
 43
1.0
 76
     1
 77
     6
 78
     2
 67
     7
 79
     5
170
     0
171
     0
290
     0
174
     0
 93
       13
 44
0.0
173
     0
291
     1
 45
0.0
  0
VISUALSTYLE
  5
38
102
{ACAD_REACTORS
330
2A
102
}
102
{ACAD_XDICTIONARY
360
91
102
}
330
2A
100
AcDbVisualStyle
  2
Linepattern
 70
    14
 71
     2
 72
     2
 73
     0
 90
        0
 40
-0.6
 41
-30.0
 62
     5
 63
     7
421
 16777215
 74
     1
 91
        4
 64
     7
 65
   257
 75
     7
175
     7
 42
1.0
 92
        8
 66
     7
 43
1.0
 76
     1
 77
     6
 78
     2
 67
     7
 79
     5
170
     0
171
     0
290
     0
174
     0
 93
        1
 44
0.0
173
     0
291
     1
 45
0.0
  0
VISUALSTYLE
  5
33
102
{ACAD_REACTORS
330
2A
102
}
102
{ACAD_XDICTIONARY
360
87
102
}
330
2A
100
AcDbVisualStyle
  2
Realistic
 70
     8
 71
     2
 72
     2
 73
     0
 90
        0
 40
-0.6
 41
-30.0
 62
     5
 63
     7
421
 16777215
 74
     1
 91
        0
 64
     7
 65
   257
 75
     1
175
     1
 42
1.0
 92
        8
 66
     8
424
  7895160
 43
1.0
 76
     1
 77
     6
 78
     2
 67
     7
 79
     5
170
     0
171
     0
290
     0
174
     0
 93
       13
 44
0.0
173
     0
291
     0
 45
0.0
  0
VISUALSTYLE
  5
37
102
{ACAD_REACTORS
330
2A
102
}
102
{ACAD_XDICTIONARY
360
8F
102
}
330
2A
100
AcDbVisualStyle
  2
Thicken
 70
    13
 71
     2
 72
     2
 73
     0
 90
        0
 40
-0.6
 41
-30.0
 62
     5
 63
     7
421
 16777215
 74
     1
 91
        4
 64
     7
 65
   257
 75
     1
175
     1
 42
1.0
 92
       12
 66
     7
 43
1.0
 76
     1
 77
     6
 78
     2
 67
     7
 79
     5
170
     0
171
     0
290
     0
174
     0
 93
        1
 44
0.0
173
     0
291
     1
 45
0.0
  0
DICTIONARY
  5
7F
330
2F
100
AcDbDictionary
280
     1
281
     1
  3
ACAD_XREC_ROUNDTRIP
360
80
  0
DICTIONARY
  5
83
330
31
100
AcDbDictionary
280
     1
281
     1
  3
ACAD_XREC_ROUNDTRIP
360
84
  0
DICTIONARY
  5
81
330
30
100
AcDbDictionary
280
     1
281
     1
  3
ACAD_XREC_ROUNDTRIP
360
82
  0
DICTIONARY
  5
85
330
32
100
AcDbDictionary
280
     1
281
     1
  3
ACAD_XREC_ROUNDTRIP
360
86
  0
DICTIONARY
  5
8D
330
36
100
AcDbDictionary
280
     1
281
     1
  3
ACAD_XREC_ROUNDTRIP
360
8E
  0
DICTIONARY
  5
95
330
3A
100
AcDbDictionary
280
     1
281
     1
  3
ACAD_XREC_ROUNDTRIP
360
96
  0
DICTIONARY
  5
89
330
34
100
AcDbDictionary
280
     1
281
     1
  3
ACAD_XREC_ROUNDTRIP
360
8A
  0
DICTIONARY
  5
8B
330
35
100
AcDbDictionary
280
     1
281
     1
  3
ACAD_XREC_ROUNDTRIP
360
8C
  0
DICTIONARY
  5
93
330
39
100
AcDbDictionary
280
     1
281
     1
  3
ACAD_XREC_ROUNDTRIP
360
94
  0
DICTIONARY
  5
77
330
2B
100
AcDbDictionary
280
     1
281
     1
  3
ACAD_XREC_ROUNDTRIP
360
78
  0
DICTIONARY
  5
79
330
2C
100
AcDbDictionary
280
     1
281
     1
  3
ACAD_XREC_ROUNDTRIP
360
7A
  0
DICTIONARY
  5
7B
330
2D
100
AcDbDictionary
280
     1
281
     1
  3
ACAD_XREC_ROUNDTRIP
360
7C
  0
DICTIONARY
  5
7D
330
2E
100
AcDbDictionary
280
     1
281
     1
  3
ACAD_XREC_ROUNDTRIP
360
7E
  0
DICTIONARY
  5
91
330
38
100
AcDbDictionary
280
     1
281
     1
  3
ACAD_XREC_ROUNDTRIP
360
92
  0
DICTIONARY
  5
87
330
33
100
AcDbDictionary
280
     1
281
     1
  3
ACAD_XREC_ROUNDTRIP
360
88
  0
DICTIONARY
  5
8F
330
37
100
AcDbDictionary
280
     1
281
     1
  3
ACAD_XREC_ROUNDTRIP
360
90
  0
XRECORD
  5
80
102
{ACAD_REACTORS
330
7F
102
}
330
7F
100
AcDbXrecord
280
     1
102
RTVSPropertyOp0
 70
     1
102
RTVSPropertyOp1
 70
     1
102
RTVSPropertyOp2
 70
     1
102
RTVSPropertyOp3
 70
     1
102
RTVSPropertyOp4
 70
     1
102
RTVSPropertyOp5
 70
     1
102
RTVSPropertyOp6
 70
     1
102
RTVSPropertyOp7
 70
     1
102
RTVSPropertyOp8
 70
     1
102
RTVSPropertyOp9
 70
     1
102
RTVSPropertyOp10
 70
     1
102
RTVSPropertyOp11
 70
     1
102
RTVSPropertyOp12
 70
     1
102
RTVSPropertyOp13
 70
     1
102
RTVSPropertyOp14
 70
     1
102
RTVSPropertyOp15
 70
     1
102
RTVSPropertyOp16
 70
     1
102
RTVSPropertyOp17
 70
     1
102
RTVSPropertyOp18
 70
     1
102
RTVSPropertyOp19
 70
     1
102
RTVSPropertyOp20
 70
     1
102
RTVSPropertyOp21
 70
     1
102
RTVSPropertyOp22
 70
     1
102
RTVSPropertyOp23
 70
     1
102
RTVSPropertyOp24
 70
     1
102
RTVSPropertyOp25
 70
     1
102
RTVSPropertyOp26
 70
     1
102
RTVSPropertyOp27
 70
     1
102
RTVSPropertyOp28
 70
     1
102
RTVSPropertyOp29
 70
     1
102
RTVSPropertyOp30
 70
     1
102
RTVSPropertyOp31
 70
     1
102
RTVSPropertyOp32
 70
     1
  0
XRECORD
  5
84
102
{ACAD_REACTORS
330
83
102
}
330
83
100
AcDbXrecord
280
     1
102
RTVSPropertyOp0
 70
     1
102
RTVSPropertyOp1
 70
     1
102
RTVSPropertyOp2
 70
     1
102
RTVSPropertyOp3
 70
     1
102
RTVSPropertyOp4
 70
     1
102
RTVSPropertyOp5
 70
     1
102
RTVSPropertyOp6
 70
     1
102
RTVSPropertyOp7
 70
     1
102
RTVSPropertyOp8
 70
     1
102
RTVSPropertyOp9
 70
     1
102
RTVSPropertyOp10
 70
     1
102
RTVSPropertyOp11
 70
     1
102
RTVSPropertyOp12
 70
     1
102
RTVSPropertyOp13
 70
     1
102
RTVSPropertyOp14
 70
     1
102
RTVSPropertyOp15
 70
     1
102
RTVSPropertyOp16
 70
     1
102
RTVSPropertyOp17
 70
     1
102
RTVSPropertyOp18
 70
     1
102
RTVSPropertyOp19
 70
     1
102
RTVSPropertyOp20
 70
     1
102
RTVSPropertyOp21
 70
     1
102
RTVSPropertyOp22
 70
     1
102
RTVSPropertyOp23
 70
     1
102
RTVSPropertyOp24
 70
     1
102
RTVSPropertyOp25
 70
     1
102
RTVSPropertyOp26
 70
     1
102
RTVSPropertyOp27
 70
     1
102
RTVSPropertyOp28
 70
     1
102
RTVSPropertyOp29
 70
     1
102
RTVSPropertyOp30
 70
     1
102
RTVSPropertyOp31
 70
     1
102
RTVSPropertyOp32
 70
     1
  0
XRECORD
  5
82
102
{ACAD_REACTORS
330
81
102
}
330
81
100
AcDbXrecord
280
     1
102
RTVSPropertyOp0
 70
     1
102
RTVSPropertyOp1
 70
     1
102
RTVSPropertyOp2
 70
     1
102
RTVSPropertyOp3
 70
     1
102
RTVSPropertyOp4
 70
     1
102
RTVSPropertyOp5
 70
     1
102
RTVSPropertyOp6
 70
     1
102
RTVSPropertyOp7
 70
     1
102
RTVSPropertyOp8
 70
     1
102
RTVSPropertyOp9
 70
     1
102
RTVSPropertyOp10
 70
     1
102
RTVSPropertyOp11
 70
     1
102
RTVSPropertyOp12
 70
     1
102
RTVSPropertyOp13
 70
     1
102
RTVSPropertyOp14
 70
     1
102
RTVSPropertyOp15
 70
     1
102
RTVSPropertyOp16
 70
     1
102
RTVSPropertyOp17
 70
     1
102
RTVSPropertyOp18
 70
     1
102
RTVSPropertyOp19
 70
     1
102
RTVSPropertyOp20
 70
     1
102
RTVSPropertyOp21
 70
     1
102
RTVSPropertyOp22
 70
     1
102
RTVSPropertyOp23
 70
     1
102
RTVSPropertyOp24
 70
     1
102
RTVSPropertyOp25
 70
     1
102
RTVSPropertyOp26
 70
     1
102
RTVSPropertyOp27
 70
     1
102
RTVSPropertyOp28
 70
     1
102
RTVSPropertyOp29
 70
     1
102
RTVSPropertyOp30
 70
     1
102
RTVSPropertyOp31
 70
     1
102
RTVSPropertyOp32
 70
     1
  0
XRECORD
  5
86
102
{ACAD_REACTORS
330
85
102
}
330
85
100
AcDbXrecord
280
     1
102
RTVSPropertyOp0
 70
     1
102
RTVSPropertyOp1
 70
     1
102
RTVSPropertyOp2
 70
     1
102
RTVSPropertyOp3
 70
     1
102
RTVSPropertyOp4
 70
     1
102
RTVSPropertyOp5
 70
     1
102
RTVSPropertyOp6
 70
     1
102
RTVSPropertyOp7
 70
     1
102
RTVSPropertyOp8
 70
     1
102
RTVSPropertyOp9
 70
     1
102
RTVSPropertyOp10
 70
     1
102
RTVSPropertyOp11
 70
     1
102
RTVSPropertyOp12
 70
     1
102
RTVSPropertyOp13
 70
     1
102
RTVSPropertyOp14
 70
     1
102
RTVSPropertyOp15
 70
     1
102
RTVSPropertyOp16
 70
     1
102
RTVSPropertyOp17
 70
     1
102
RTVSPropertyOp18
 70
     1
102
RTVSPropertyOp19
 70
     1
102
RTVSPropertyOp20
 70
     1
102
RTVSPropertyOp21
 70
     1
102
RTVSPropertyOp22
 70
     1
102
RTVSPropertyOp23
 70
     1
102
RTVSPropertyOp24
 70
     1
102
RTVSPropertyOp25
 70
     1
102
RTVSPropertyOp26
 70
     1
102
RTVSPropertyOp27
 70
     1
102
RTVSPropertyOp28
 70
     1
102
RTVSPropertyOp29
 70
     1
102
RTVSPropertyOp30
 70
     1
102
RTVSPropertyOp31
 70
     1
102
RTVSPropertyOp32
 70
     1
  0
XRECORD
  5
8E
102
{ACAD_REACTORS
330
8D
102
}
330
8D
100
AcDbXrecord
280
     1
102
RTVSPropertyOp0
 70
     1
102
RTVSPropertyOp1
 70
     1
102
RTVSPropertyOp2
 70
     1
102
RTVSPropertyOp3
 70
     1
102
RTVSPropertyOp4
 70
     1
102
RTVSPropertyOp5
 70
     1
102
RTVSPropertyOp6
 70
     1
102
RTVSPropertyOp7
 70
     1
102
RTVSPropertyOp8
 70
     1
102
RTVSPropertyOp9
 70
     1
102
RTVSPropertyOp10
 70
     1
102
RTVSPropertyOp11
 70
     1
102
RTVSPropertyOp12
 70
     1
102
RTVSPropertyOp13
 70
     1
102
RTVSPropertyOp14
 70
     1
102
RTVSPropertyOp15
 70
     1
102
RTVSPropertyOp16
 70
     1
102
RTVSPropertyOp17
 70
     1
102
RTVSPropertyOp18
 70
     1
102
RTVSPropertyOp19
 70
     1
102
RTVSPropertyOp20
 70
     1
102
RTVSPropertyOp21
 70
     1
102
RTVSPropertyOp22
 70
     1
102
RTVSPropertyOp23
 70
     1
102
RTVSPropertyOp24
 70
     1
102
RTVSPropertyOp25
 70
     1
102
RTVSPropertyOp26
 70
     1
102
RTVSPropertyOp27
 70
     1
102
RTVSPropertyOp28
 70
     1
102
RTVSPropertyOp29
 70
     1
102
RTVSPropertyOp30
 70
     1
102
RTVSPropertyOp31
 70
     1
102
RTVSPropertyOp32
 70
     1
  0
XRECORD
  5
96
102
{ACAD_REACTORS
330
95
102
}
330
95
100
AcDbXrecord
280
     1
102
RTVSPropertyOp0
 70
     1
102
RTVSPropertyOp1
 70
     1
102
RTVSPropertyOp2
 70
     1
102
RTVSPropertyOp3
 70
     1
102
RTVSPropertyOp4
 70
     1
102
RTVSPropertyOp5
 70
     1
102
RTVSPropertyOp6
 70
     1
102
RTVSPropertyOp7
 70
     1
102
RTVSPropertyOp8
 70
     1
102
RTVSPropertyOp9
 70
     1
102
RTVSPropertyOp10
 70
     1
102
RTVSPropertyOp11
 70
     1
102
RTVSPropertyOp12
 70
     1
102
RTVSPropertyOp13
 70
     1
102
RTVSPropertyOp14
 70
     1
102
RTVSPropertyOp15
 70
     1
102
RTVSPropertyOp16
 70
     1
102
RTVSPropertyOp17
 70
     1
102
RTVSPropertyOp18
 70
     1
102
RTVSPropertyOp19
 70
     1
102
RTVSPropertyOp20
 70
     1
102
RTVSPropertyOp21
 70
     1
102
RTVSPropertyOp22
 70
     1
102
RTVSPropertyOp23
 70
     1
102
RTVSPropertyOp24
 70
     1
102
RTVSPropertyOp25
 70
     1
102
RTVSPropertyOp26
 70
     1
102
RTVSPropertyOp27
 70
     1
102
RTVSPropertyOp28
 70
     1
102
RTVSPropertyOp29
 70
     1
102
RTVSPropertyOp30
 70
     1
102
RTVSPropertyOp31
 70
     1
102
RTVSPropertyOp32
 70
     1
  0
XRECORD
  5
8A
102
{ACAD_REACTORS
330
89
102
}
330
89
100
AcDbXrecord
280
     1
102
RTVSPropertyOp0
 70
     1
102
RTVSPropertyOp1
 70
     1
102
RTVSPropertyOp2
 70
     1
102
RTVSPropertyOp3
 70
     1
102
RTVSPropertyOp4
 70
     1
102
RTVSPropertyOp5
 70
     1
102
RTVSPropertyOp6
 70
     1
102
RTVSPropertyOp7
 70
     1
102
RTVSPropertyOp8
 70
     1
102
RTVSPropertyOp9
 70
     1
102
RTVSPropertyOp10
 70
     1
102
RTVSPropertyOp11
 70
     1
102
RTVSPropertyOp12
 70
     1
102
RTVSPropertyOp13
 70
     1
102
RTVSPropertyOp14
 70
     1
102
RTVSPropertyOp15
 70
     1
102
RTVSPropertyOp16
 70
     1
102
RTVSPropertyOp17
 70
     1
102
RTVSPropertyOp18
 70
     1
102
RTVSPropertyOp19
 70
     1
102
RTVSPropertyOp20
 70
     1
102
RTVSPropertyOp21
 70
     1
102
RTVSPropertyOp22
 70
     1
102
RTVSPropertyOp23
 70
     1
102
RTVSPropertyOp24
 70
     1
102
RTVSPropertyOp25
 70
     1
102
RTVSPropertyOp26
 70
     1
102
RTVSPropertyOp27
 70
     1
102
RTVSPropertyOp28
 70
     1
102
RTVSPropertyOp29
 70
     1
102
RTVSPropertyOp30
 70
     1
102
RTVSPropertyOp31
 70
     1
102
RTVSPropertyOp32
 70
     1
  0
XRECORD
  5
8C
102
{ACAD_REACTORS
330
8B
102
}
330
8B
100
AcDbXrecord
280
     1
102
RTVSPropertyOp0
 70
     1
102
RTVSPropertyOp1
 70
     1
102
RTVSPropertyOp2
 70
     1
102
RTVSPropertyOp3
 70
     1
102
RTVSPropertyOp4
 70
     1
102
RTVSPropertyOp5
 70
     1
102
RTVSPropertyOp6
 70
     1
102
RTVSPropertyOp7
 70
     1
102
RTVSPropertyOp8
 70
     1
102
RTVSPropertyOp9
 70
     1
102
RTVSPropertyOp10
 70
     1
102
RTVSPropertyOp11
 70
     1
102
RTVSPropertyOp12
 70
     1
102
RTVSPropertyOp13
 70
     1
102
RTVSPropertyOp14
 70
     1
102
RTVSPropertyOp15
 70
     1
102
RTVSPropertyOp16
 70
     1
102
RTVSPropertyOp17
 70
     1
102
RTVSPropertyOp18
 70
     1
102
RTVSPropertyOp19
 70
     1
102
RTVSPropertyOp20
 70
     1
102
RTVSPropertyOp21
 70
     1
102
RTVSPropertyOp22
 70
     1
102
RTVSPropertyOp23
 70
     1
102
RTVSPropertyOp24
 70
     1
102
RTVSPropertyOp25
 70
     1
102
RTVSPropertyOp26
 70
     1
102
RTVSPropertyOp27
 70
     1
102
RTVSPropertyOp28
 70
     1
102
RTVSPropertyOp29
 70
     1
102
RTVSPropertyOp30
 70
     1
102
RTVSPropertyOp31
 70
     1
102
RTVSPropertyOp32
 70
     1
  0
XRECORD
  5
94
102
{ACAD_REACTORS
330
93
102
}
330
93
100
AcDbXrecord
280
     1
102
RTVSPropertyOp0
 70
     1
102
RTVSPropertyOp1
 70
     1
102
RTVSPropertyOp2
 70
     1
102
RTVSPropertyOp3
 70
     1
102
RTVSPropertyOp4
 70
     1
102
RTVSPropertyOp5
 70
     1
102
RTVSPropertyOp6
 70
     1
102
RTVSPropertyOp7
 70
     1
102
RTVSPropertyOp8
 70
     1
102
RTVSPropertyOp9
 70
     1
102
RTVSPropertyOp10
 70
     1
102
RTVSPropertyOp11
 70
     1
102
RTVSPropertyOp12
 70
     1
102
RTVSPropertyOp13
 70
     1
102
RTVSPropertyOp14
 70
     1
102
RTVSPropertyOp15
 70
     1
102
RTVSPropertyOp16
 70
     1
102
RTVSPropertyOp17
 70
     1
102
RTVSPropertyOp18
 70
     1
102
RTVSPropertyOp19
 70
     1
102
RTVSPropertyOp20
 70
     1
102
RTVSPropertyOp21
 70
     1
102
RTVSPropertyOp22
 70
     1
102
RTVSPropertyOp23
 70
     1
102
RTVSPropertyOp24
 70
     1
102
RTVSPropertyOp25
 70
     1
102
RTVSPropertyOp26
 70
     1
102
RTVSPropertyOp27
 70
     1
102
RTVSPropertyOp28
 70
     1
102
RTVSPropertyOp29
 70
     1
102
RTVSPropertyOp30
 70
     1
102
RTVSPropertyOp31
 70
     1
102
RTVSPropertyOp32
 70
     1
  0
XRECORD
  5
78
102
{ACAD_REACTORS
330
77
102
}
330
77
100
AcDbXrecord
280
     1
102
RTVSPropertyOp0
 70
     1
102
RTVSPropertyOp1
 70
     1
102
RTVSPropertyOp2
 70
     1
102
RTVSPropertyOp3
 70
     1
102
RTVSPropertyOp4
 70
     1
102
RTVSPropertyOp5
 70
     1
102
RTVSPropertyOp6
 70
     1
102
RTVSPropertyOp7
 70
     1
102
RTVSPropertyOp8
 70
     1
102
RTVSPropertyOp9
 70
     1
102
RTVSPropertyOp10
 70
     1
102
RTVSPropertyOp11
 70
     1
102
RTVSPropertyOp12
 70
     1
102
RTVSPropertyOp13
 70
     1
102
RTVSPropertyOp14
 70
     1
102
RTVSPropertyOp15
 70
     1
102
RTVSPropertyOp16
 70
     1
102
RTVSPropertyOp17
 70
     1
102
RTVSPropertyOp18
 70
     1
102
RTVSPropertyOp19
 70
     1
102
RTVSPropertyOp20
 70
     1
102
RTVSPropertyOp21
 70
     1
102
RTVSPropertyOp22
 70
     1
102
RTVSPropertyOp23
 70
     1
102
RTVSPropertyOp24
 70
     1
102
RTVSPropertyOp25
 70
     1
102
RTVSPropertyOp26
 70
     1
102
RTVSPropertyOp27
 70
     1
102
RTVSPropertyOp28
 70
     1
102
RTVSPropertyOp29
 70
     1
102
RTVSPropertyOp30
 70
     1
102
RTVSPropertyOp31
 70
     1
102
RTVSPropertyOp32
 70
     1
  0
XRECORD
  5
7A
102
{ACAD_REACTORS
330
79
102
}
330
79
100
AcDbXrecord
280
     1
102
RTVSPropertyOp0
 70
     1
102
RTVSPropertyOp1
 70
     1
102
RTVSPropertyOp2
 70
     1
102
RTVSPropertyOp3
 70
     1
102
RTVSPropertyOp4
 70
     1
102
RTVSPropertyOp5
 70
     1
102
RTVSPropertyOp6
 70
     1
102
RTVSPropertyOp7
 70
     1
102
RTVSPropertyOp8
 70
     1
102
RTVSPropertyOp9
 70
     1
102
RTVSPropertyOp10
 70
     1
102
RTVSPropertyOp11
 70
     1
102
RTVSPropertyOp12
 70
     1
102
RTVSPropertyOp13
 70
     1
102
RTVSPropertyOp14
 70
     1
102
RTVSPropertyOp15
 70
     1
102
RTVSPropertyOp16
 70
     1
102
RTVSPropertyOp17
 70
     1
102
RTVSPropertyOp18
 70
     1
102
RTVSPropertyOp19
 70
     1
102
RTVSPropertyOp20
 70
     1
102
RTVSPropertyOp21
 70
     1
102
RTVSPropertyOp22
 70
     1
102
RTVSPropertyOp23
 70
     1
102
RTVSPropertyOp24
 70
     1
102
RTVSPropertyOp25
 70
     1
102
RTVSPropertyOp26
 70
     1
102
RTVSPropertyOp27
 70
     1
102
RTVSPropertyOp28
 70
     1
102
RTVSPropertyOp29
 70
     1
102
RTVSPropertyOp30
 70
     1
102
RTVSPropertyOp31
 70
     1
102
RTVSPropertyOp32
 70
     1
  0
XRECORD
  5
7C
102
{ACAD_REACTORS
330
7B
102
}
330
7B
100
AcDbXrecord
280
     1
102
RTVSPropertyOp0
 70
     1
102
RTVSPropertyOp1
 70
     1
102
RTVSPropertyOp2
 70
     1
102
RTVSPropertyOp3
 70
     1
102
RTVSPropertyOp4
 70
     1
102
RTVSPropertyOp5
 70
     1
102
RTVSPropertyOp6
 70
     1
102
RTVSPropertyOp7
 70
     1
102
RTVSPropertyOp8
 70
     1
102
RTVSPropertyOp9
 70
     1
102
RTVSPropertyOp10
 70
     1
102
RTVSPropertyOp11
 70
     1
102
RTVSPropertyOp12
 70
     1
102
RTVSPropertyOp13
 70
     1
102
RTVSPropertyOp14
 70
     1
102
RTVSPropertyOp15
 70
     1
102
RTVSPropertyOp16
 70
     1
102
RTVSPropertyOp17
 70
     1
102
RTVSPropertyOp18
 70
     1
102
RTVSPropertyOp19
 70
     1
102
RTVSPropertyOp20
 70
     1
102
RTVSPropertyOp21
 70
     1
102
RTVSPropertyOp22
 70
     1
102
RTVSPropertyOp23
 70
     1
102
RTVSPropertyOp24
 70
     1
102
RTVSPropertyOp25
 70
     1
102
RTVSPropertyOp26
 70
     1
102
RTVSPropertyOp27
 70
     1
102
RTVSPropertyOp28
 70
     1
102
RTVSPropertyOp29
 70
     1
102
RTVSPropertyOp30
 70
     1
102
RTVSPropertyOp31
 70
     1
102
RTVSPropertyOp32
 70
     1
  0
XRECORD
  5
7E
102
{ACAD_REACTORS
330
7D
102
}
330
7D
100
AcDbXrecord
280
     1
102
RTVSPropertyOp0
 70
     1
102
RTVSPropertyOp1
 70
     1
102
RTVSPropertyOp2
 70
     1
102
RTVSPropertyOp3
 70
     1
102
RTVSPropertyOp4
 70
     1
102
RTVSPropertyOp5
 70
     1
102
RTVSPropertyOp6
 70
     1
102
RTVSPropertyOp7
 70
     1
102
RTVSPropertyOp8
 70
     1
102
RTVSPropertyOp9
 70
     1
102
RTVSPropertyOp10
 70
     1
102
RTVSPropertyOp11
 70
     1
102
RTVSPropertyOp12
 70
     1
102
RTVSPropertyOp13
 70
     1
102
RTVSPropertyOp14
 70
     1
102
RTVSPropertyOp15
 70
     1
102
RTVSPropertyOp16
 70
     1
102
RTVSPropertyOp17
 70
     1
102
RTVSPropertyOp18
 70
     1
102
RTVSPropertyOp19
 70
     1
102
RTVSPropertyOp20
 70
     1
102
RTVSPropertyOp21
 70
     1
102
RTVSPropertyOp22
 70
     1
102
RTVSPropertyOp23
 70
     1
102
RTVSPropertyOp24
 70
     1
102
RTVSPropertyOp25
 70
     1
102
RTVSPropertyOp26
 70
     1
102
RTVSPropertyOp27
 70
     1
102
RTVSPropertyOp28
 70
     1
102
RTVSPropertyOp29
 70
     1
102
RTVSPropertyOp30
 70
     1
102
RTVSPropertyOp31
 70
     1
102
RTVSPropertyOp32
 70
     1
  0
XRECORD
  5
92
102
{ACAD_REACTORS
330
91
102
}
330
91
100
AcDbXrecord
280
     1
102
RTVSPropertyOp0
 70
     1
102
RTVSPropertyOp1
 70
     1
102
RTVSPropertyOp2
 70
     1
102
RTVSPropertyOp3
 70
     1
102
RTVSPropertyOp4
 70
     1
102
RTVSPropertyOp5
 70
     1
102
RTVSPropertyOp6
 70
     1
102
RTVSPropertyOp7
 70
     1
102
RTVSPropertyOp8
 70
     1
102
RTVSPropertyOp9
 70
     1
102
RTVSPropertyOp10
 70
     1
102
RTVSPropertyOp11
 70
     1
102
RTVSPropertyOp12
 70
     1
102
RTVSPropertyOp13
 70
     1
102
RTVSPropertyOp14
 70
     1
102
RTVSPropertyOp15
 70
     1
102
RTVSPropertyOp16
 70
     1
102
RTVSPropertyOp17
 70
     1
102
RTVSPropertyOp18
 70
     1
102
RTVSPropertyOp19
 70
     1
102
RTVSPropertyOp20
 70
     1
102
RTVSPropertyOp21
 70
     1
102
RTVSPropertyOp22
 70
     1
102
RTVSPropertyOp23
 70
     1
102
RTVSPropertyOp24
 70
     1
102
RTVSPropertyOp25
 70
     1
102
RTVSPropertyOp26
 70
     1
102
RTVSPropertyOp27
 70
     1
102
RTVSPropertyOp28
 70
     1
102
RTVSPropertyOp29
 70
     1
102
RTVSPropertyOp30
 70
     1
102
RTVSPropertyOp31
 70
     1
102
RTVSPropertyOp32
 70
     1
  0
XRECORD
  5
88
102
{ACAD_REACTORS
330
87
102
}
330
87
100
AcDbXrecord
280
     1
102
RTVSPropertyOp0
 70
     1
102
RTVSPropertyOp1
 70
     1
102
RTVSPropertyOp2
 70
     1
102
RTVSPropertyOp3
 70
     1
102
RTVSPropertyOp4
 70
     1
102
RTVSPropertyOp5
 70
     1
102
RTVSPropertyOp6
 70
     1
102
RTVSPropertyOp7
 70
     1
102
RTVSPropertyOp8
 70
     1
102
RTVSPropertyOp9
 70
     1
102
RTVSPropertyOp10
 70
     1
102
RTVSPropertyOp11
 70
     1
102
RTVSPropertyOp12
 70
     1
102
RTVSPropertyOp13
 70
     1
102
RTVSPropertyOp14
 70
     1
102
RTVSPropertyOp15
 70
     1
102
RTVSPropertyOp16
 70
     1
102
RTVSPropertyOp17
 70
     1
102
RTVSPropertyOp18
 70
     1
102
RTVSPropertyOp19
 70
     1
102
RTVSPropertyOp20
 70
     1
102
RTVSPropertyOp21
 70
     1
102
RTVSPropertyOp22
 70
     1
102
RTVSPropertyOp23
 70
     1
102
RTVSPropertyOp24
 70
     1
102
RTVSPropertyOp25
 70
     1
102
RTVSPropertyOp26
 70
     1
102
RTVSPropertyOp27
 70
     1
102
RTVSPropertyOp28
 70
     1
102
RTVSPropertyOp29
 70
     1
102
RTVSPropertyOp30
 70
     1
102
RTVSPropertyOp31
 70
     1
102
RTVSPropertyOp32
 70
     1
  0
XRECORD
  5
90
102
{ACAD_REACTORS
330
8F
102
}
330
8F
100
AcDbXrecord
280
     1
102
RTVSPropertyOp0
 70
     1
102
RTVSPropertyOp1
 70
     1
102
RTVSPropertyOp2
 70
     1
102
RTVSPropertyOp3
 70
     1
102
RTVSPropertyOp4
 70
     1
102
RTVSPropertyOp5
 70
     1
102
RTVSPropertyOp6
 70
     1
102
RTVSPropertyOp7
 70
     1
102
RTVSPropertyOp8
 70
     1
102
RTVSPropertyOp9
 70
     1
102
RTVSPropertyOp10
 70
     1
102
RTVSPropertyOp11
 70
     1
102
RTVSPropertyOp12
 70
     1
102
RTVSPropertyOp13
 70
     1
102
RTVSPropertyOp14
 70
     1
102
RTVSPropertyOp15
 70
     1
102
RTVSPropertyOp16
 70
     1
102
RTVSPropertyOp17
 70
     1
102
RTVSPropertyOp18
 70
     1
102
RTVSPropertyOp19
 70
     1
102
RTVSPropertyOp20
 70
     1
102
RTVSPropertyOp21
 70
     1
102
RTVSPropertyOp22
 70
     1
102
RTVSPropertyOp23
 70
     1
102
RTVSPropertyOp24
 70
     1
102
RTVSPropertyOp25
 70
     1
102
RTVSPropertyOp26
 70
     1
102
RTVSPropertyOp27
 70
     1
102
RTVSPropertyOp28
 70
     1
102
RTVSPropertyOp29
 70
     1
102
RTVSPropertyOp30
 70
     1
102
RTVSPropertyOp31
 70
     1
102
RTVSPropertyOp32
 70
     1
  0
ENDSEC
  0
EOF
