  0
SECTION
  2
HEADER
  9
$ACADVER
  1
AC1021
  9
$ACADMAINTVER
 70
    25
  9
$DWGCODEPAGE
  3
ANSI_1256
  9
$INSBASE
 10
0.0
 20
0.0
 30
0.0
  9
$EXTMIN
 10
89.4906
 20
-114.8959
 30
0.0
  9
$EXTMAX
 10
196.3193
 20
131.7723
 30
0.0
  9
$LIMMIN
 10
0.0
 20
0.0
  9
$LIMMAX
 10
12.0
 20
9.0
  9
$ORTHOMODE
 70
     0
  9
$REGENMODE
 70
     1
  9
$FILLMODE
 70
     1
  9
$QTEXTMODE
 70
     0
  9
$MIRRTEXT
 70
     1
  9
$LTSCALE
 40
1.0
  9
$ATTMODE
 70
     1
  9
$TEXTSIZE
 40
0.2
  9
$TRACEWID
 40
0.05
  9
$TEXTSTYLE
  7
Standard
  9
$CLAYER
  8
0
  9
$CELTYPE
  6
ByLayer
  9
$CECOLOR
 62
   256
  9
$CELTSCALE
 40
1.0
  9
$DISPSILH
 70
     0
  9
$DIMSCALE
 40
1.0
  9
$DIMASZ
 40
0.18
  9
$DIMEXO
 40
0.0625
  9
$DIMDLI
 40
0.38
  9
$DIMRND
 40
0.0
  9
$DIMDLE
 40
0.0
  9
$DIMEXE
 40
0.18
  9
$DIMTP
 40
0.0
  9
$DIMTM
 40
0.0
  9
$DIMTXT
 40
0.18
  9
$DIMCEN
 40
0.09
  9
$DIMTSZ
 40
0.0
  9
$DIMTOL
 70
     0
  9
$DIMLIM
 70
     0
  9
$DIMTIH
 70
     1
  9
$DIMTOH
 70
     1
  9
$DIMSE1
 70
     0
  9
$DIMSE2
 70
     0
  9
$DIMTAD
 70
     0
  9
$DIMZIN
 70
     0
  9
$DIMBLK
  1

  9
$DIMASO
 70
     1
  9
$DIMSHO
 70
     1
  9
$DIMPOST
  1

  9
$DIMAPOST
  1

  9
$DIMALT
 70
     0
  9
$DIMALTD
 70
     2
  9
$DIMALTF
 40
25.4
  9
$DIMLFAC
 40
1.0
  9
$DIMTOFL
 70
     0
  9
$DIMTVP
 40
0.0
  9
$DIMTIX
 70
     0
  9
$DIMSOXD
 70
     0
  9
$DIMSAH
 70
     0
  9
$DIMBLK1
  1

  9
$DIMBLK2
  1

  9
$DIMSTYLE
  2
Standard
  9
$DIMCLRD
 70
     0
  9
$DIMCLRE
 70
     0
  9
$DIMCLRT
 70
     0
  9
$DIMTFAC
 40
1.0
  9
$DIMGAP
 40
0.09
  9
$DIMJUST
 70
     0
  9
$DIMSD1
 70
     0
  9
$DIMSD2
 70
     0
  9
$DIMTOLJ
 70
     1
  9
$DIMTZIN
 70
     0
  9
$DIMALTZ
 70
     0
  9
$DIMALTTZ
 70
     0
  9
$DIMUPT
 70
     0
  9
$DIMDEC
 70
     4
  9
$DIMTDEC
 70
     4
  9
$DIMALTU
 70
     2
  9
$DIMALTTD
 70
     2
  9
$DIMTXSTY
  7
Standard
  9
$DIMAUNIT
 70
     0
  9
$DIMADEC
 70
     0
  9
$DIMALTRND
 40
0.0
  9
$DIMAZIN
 70
     0
  9
$DIMDSEP
 70
    46
  9
$DIMATFIT
 70
     3
  9
$DIMFRAC
 70
     0
  9
$DIMLDRBLK
  1

  9
$DIMLUNIT
 70
     2
  9
$DIMLWD
 70
    -2
  9
$DIMLWE
 70
    -2
  9
$DIMTMOVE
 70
     0
  9
$DIMFXL
 40
1.0
  9
$DIMFXLON
 70
     0
  9
$DIMJOGANG
 40
0.7853981633974483
  9
$DIMTFILL
 70
     0
  9
$DIMTFILLCLR
 70
     0
  9
$DIMARCSYM
 70
     0
  9
$DIMLTYPE
  6

  9
$DIMLTEX1
  6

  9
$DIMLTEX2
  6

  9
$LUNITS
 70
     2
  9
$LUPREC
 70
     4
  9
$SKETCHINC
 40
0.1
  9
$FILLETRAD
 40
0.5
  9
$AUNITS
 70
     0
  9
$AUPREC
 70
     0
  9
$MENU
  1
.
  9
$ELEVATION
 40
0.0
  9
$PELEVATION
 40
0.0
  9
$THICKNESS
 40
0.0
  9
$LIMCHECK
 70
     0
  9
$CHAMFERA
 40
0.5
  9
$CHAMFERB
 40
0.5
  9
$CHAMFERC
 40
1.0
  9
$CHAMFERD
 40
0.0
  9
$SKPOLY
 70
     0
  9
$TDCREATE
 40
2458492.942292592
  9
$TDUCREATE
 40
2458492.775625926
  9
$TDUPDATE
 40
2458492.94229272
  9
$TDUUPDATE
 40
2458492.775626053
  9
$TDINDWG
 40
0.0000000116
  9
$TDUSRTIMER
 40
0.0000000116
  9
$USRTIMER
 70
     1
  9
$ANGBASE
 50
0.0
  9
$ANGDIR
 70
     0
  9
$PDMODE
 70
     0
  9
$PDSIZE
 40
0.0
  9
$PLINEWID
 40
0.0
  9
$SPLFRAME
 70
     0
  9
$SPLINETYPE
 70
     6
  9
$SPLINESEGS
 70
     8
  9
$HANDSEED
  5
9B
  9
$SURFTAB1
 70
     6
  9
$SURFTAB2
 70
     6
  9
$SURFTYPE
 70
     6
  9
$SURFU
 70
     6
  9
$SURFV
 70
     6
  9
$UCSBASE
  2

  9
$UCSNAME
  2

  9
$UCSORG
 10
0.0
 20
0.0
 30
0.0
  9
$UCSXDIR
 10
1.0
 20
0.0
 30
0.0
  9
$UCSYDIR
 10
0.0
 20
1.0
 30
0.0
  9
$UCSORTHOREF
  2

  9
$UCSORTHOVIEW
 70
     0
  9
$UCSORGTOP
 10
0.0
 20
0.0
 30
0.0
  9
$UCSORGBOTTOM
 10
0.0
 20
0.0
 30
0.0
  9
$UCSORGLEFT
 10
0.0
 20
0.0
 30
0.0
  9
$UCSORGRIGHT
 10
0.0
 20
0.0
 30
0.0
  9
$UCSORGFRONT
 10
0.0
 20
0.0
 30
0.0
  9
$UCSORGBACK
 10
0.0
 20
0.0
 30
0.0
  9
$PUCSBASE
  2

  9
$PUCSNAME
  2

  9
$PUCSORG
 10
0.0
 20
0.0
 30
0.0
  9
$PUCSXDIR
 10
1.0
 20
0.0
 30
0.0
  9
$PUCSYDIR
 10
0.0
 20
1.0
 30
0.0
  9
$PUCSORTHOREF
  2

  9
$PUCSORTHOVIEW
 70
     0
  9
$PUCSORGTOP
 10
0.0
 20
0.0
 30
0.0
  9
$PUCSORGBOTTOM
 10
0.0
 20
0.0
 30
0.0
  9
$PUCSORGLEFT
 10
0.0
 20
0.0
 30
0.0
  9
$PUCSORGRIGHT
 10
0.0
 20
0.0
 30
0.0
  9
$PUCSORGFRONT
 10
0.0
 20
0.0
 30
0.0
  9
$PUCSORGBACK
 10
0.0
 20
0.0
 30
0.0
  9
$USERI1
 70
     0
  9
$USERI2
 70
     0
  9
$USERI3
 70
     0
  9
$USERI4
 70
     0
  9
$USERI5
 70
     0
  9
$USERR1
 40
0.0
  9
$USERR2
 40
0.0
  9
$USERR3
 40
0.0
  9
$USERR4
 40
0.0
  9
$USERR5
 40
0.0
  9
$WORLDVIEW
 70
     1
  9
$SHADEDGE
 70
     3
  9
$SHADEDIF
 70
    70
  9
$TILEMODE
 70
     1
  9
$MAXACTVP
 70
    64
  9
$PINSBASE
 10
0.0
 20
0.0
 30
0.0
  9
$PLIMCHECK
 70
     0
  9
$PEXTMIN
 10
1.000000000000000E+20
 20
1.000000000000000E+20
 30
1.000000000000000E+20
  9
$PEXTMAX
 10
-1.000000000000000E+20
 20
-1.000000000000000E+20
 30
-1.000000000000000E+20
  9
$PLIMMIN
 10
0.0
 20
0.0
  9
$PLIMMAX
 10
12.0
 20
9.0
  9
$UNITMODE
 70
     0
  9
$VISRETAIN
 70
     1
  9
$PLINEGEN
 70
     0
  9
$PSLTSCALE
 70
     1
  9
$TREEDEPTH
 70
  3020
  9
$CMLSTYLE
  2
Standard
  9
$CMLJUST
 70
     0
  9
$CMLSCALE
 40
1.0
  9
$PROXYGRAPHICS
 70
     1
  9
$MEASUREMENT
 70
     0
  9
$CELWEIGHT
370
    -1
  9
$ENDCAPS
280
     0
  9
$JOINSTYLE
280
     0
  9
$LWDISPLAY
290
     0
  9
$INSUNITS
 70
     4
  9
$HYPERLINKBASE
  1

  9
$STYLESHEET
  1

  9
$XEDIT
290
     1
  9
$CEPSNTYPE
380
     0
  9
$PSTYLEMODE
290
     1
  9
$FINGERPRINTGUID
  2
{0EC8B132-0742-4F3A-B0B4-B92AA021ADC3}
  9
$VERSIONGUID
  2
{FAEB1C32-E019-11D5-929B-00C0DF256EC4}
  9
$EXTNAMES
290
     1
  9
$PSVPSCALE
 40
0.0
  9
$OLESTARTUP
290
     0
  9
$SORTENTS
280
   127
  9
$INDEXCTL
280
     0
  9
$HIDETEXT
280
     1
  9
$XCLIPFRAME
290
     0
  9
$HALOGAP
280
     0
  9
$OBSCOLOR
 70
   257
  9
$OBSLTYPE
280
     0
  9
$INTERSECTIONDISPLAY
280
     0
  9
$INTERSECTIONCOLOR
 70
   257
  9
$DIMASSOC
280
     2
  9
$PROJECTNAME
  1

  9
$CAMERADISPLAY
290
     0
  9
$LENSLENGTH
 40
50.0
  9
$CAMERAHEIGHT
 40
0.0
  9
$STEPSPERSEC
 40
2.0
  9
$STEPSIZE
 40
6.0
  9
$3DDWFPREC
 40
2.0
  9
$PSOLWIDTH
 40
0.25
  9
$PSOLHEIGHT
 40
4.0
  9
$LOFTANG1
 40
1.570796326794897
  9
$LOFTANG2
 40
1.570796326794897
  9
$LOFTMAG1
 40
0.0
  9
$LOFTMAG2
 40
0.0
  9
$LOFTPARAM
 70
     7
  9
$LOFTNORMALS
280
     1
  9
$LATITUDE
 40
37.795
  9
$LONGITUDE
 40
-122.394
  9
$NORTHDIRECTION
 40
0.0
  9
$TIMEZONE
 70
 -8000
  9
$LIGHTGLYPHDISPLAY
280
     1
  9
$TILEMODELIGHTSYNCH
280
     1
  9
$SOLIDHIST
280
     1
  9
$SHOWHIST
280
     1
  9
$DWFFRAME
280
     2
  9
$DGNFRAME
280
     2
  9
$REALWORLDSCALE
290
     1
  9
$INTERFERECOLOR
 62
   256
  9
$CSHADOW
280
     0
  9
$SHADOWPLANELOCATION
 40
0.0
  0
ENDSEC
  0
SECTION
  2
CLASSES
  0
CLASS
  1
ACDBDICTIONARYWDFLT
  2
AcDbDictionaryWithDefault
  3
ObjectDBX Classes
 90
        0
 91
        4
280
     0
281
     0
  0
CLASS
  1
VISUALSTYLE
  2
AcDbVisualStyle
  3
ObjectDBX Classes
 90
     4095
 91
        4
280
     0
281
     0
  0
CLASS
  1
MATERIAL
  2
AcDbMaterial
  3
ObjectDBX Classes
 90
     1153
 91
        4
280
     0
281
     0
  0
ENDSEC
  0
SECTION
  2
TABLES
  0
TABLE
  2
VPORT
  5
8
330
0
100
AcDbSymbolTable
 70
     1
  0
VPORT
  5
29
330
8
100
AcDbSymbolTableRecord
100
AcDbViewportTableRecord
  2
*Active
 70
     0
 10
0.0
 20
0.0
 11
1.0
 21
1.0
 12
10.42990654205607
 22
4.5
 13
0.0
 23
0.0
 14
0.5
 24
0.5
 15
0.5
 25
0.5
 16
0.0
 26
0.0
 36
1.0
 17
0.0
 27
0.0
 37
0.0
 40
9.0
 41
1.972972972850329
 42
50.0
 43
0.0
 44
0.0
 50
0.0
 51
0.0
 71
     0
 72
   100
 73
     1
 74
     3
 75
     0
 76
     0
 77
     0
 78
     0
281
     0
 65
     1
110
0.0
120
0.0
130
0.0
111
1.0
121
0.0
131
0.0
112
0.0
122
1.0
132
0.0
 79
     0
146
0.0
 60
     3
 61
     5
292
     1
282
     1
141
0.0
142
0.0
 63
   250
  0
ENDTAB
  0
TABLE
  2
LTYPE
  5
5
330
0
100
AcDbSymbolTable
 70
     1
  0
LTYPE
  5
14
330
5
100
AcDbSymbolTableRecord
100
AcDbLinetypeTableRecord
  2
ByBlock
 70
     0
  3

 72
    65
 73
     0
 40
0.0
  0
LTYPE
  5
15
330
5
100
AcDbSymbolTableRecord
100
AcDbLinetypeTableRecord
  2
ByLayer
 70
     0
  3

 72
    65
 73
     0
 40
0.0
  0
LTYPE
  5
16
330
5
100
AcDbSymbolTableRecord
100
AcDbLinetypeTableRecord
  2
Continuous
 70
     0
  3
Solid line
 72
    65
 73
     0
 40
0.0
  0
ENDTAB
  0
TABLE
  2
LAYER
  5
2
330
0
100
AcDbSymbolTable
 70
     3
  0
LAYER
  5
10
330
2
100
AcDbSymbolTableRecord
100
AcDbLayerTableRecord
  2
0
 70
     0
 62
     7
  6
Continuous
370
    -3
390
F
347
3E
  0
LAYER
  5
40
330
2
100
AcDbSymbolTableRecord
100
AcDbLayerTableRecord
  2
layer 1
 70
     0
 62
     7
  6
Continuous
370
    -3
390
F
347
3E
  0
LAYER
  5
78
330
2
100
AcDbSymbolTableRecord
100
AcDbLayerTableRecord
  2
Master Guides
 70
     0
 62
     7
  6
Continuous
370
    -3
390
F
347
3E
  0
ENDTAB
  0
TABLE
  2
STYLE
  5
3
330
0
100
AcDbSymbolTable
 70
     1
  0
STYLE
  5
11
330
3
100
AcDbSymbolTableRecord
100
AcDbTextStyleTableRecord
  2
Standard
 70
     0
 40
0.0
 41
1.0
 50
0.0
 71
     0
 42
0.2
  3
txt
  4

  0
ENDTAB
  0
TABLE
  2
VIEW
  5
6
330
0
100
AcDbSymbolTable
 70
     0
  0
ENDTAB
  0
TABLE
  2
UCS
  5
7
330
0
100
AcDbSymbolTable
 70
     0
  0
ENDTAB
  0
TABLE
  2
APPID
  5
9
330
0
100
AcDbSymbolTable
 70
     2
  0
APPID
  5
12
330
9
100
AcDbSymbolTableRecord
100
AcDbRegAppTableRecord
  2
ACAD
 70
     0
  0
APPID
  5
3F
330
9
100
AcDbSymbolTableRecord
100
AcDbRegAppTableRecord
  2
ODA
 70
     0
  0
ENDTAB
  0
TABLE
  2
DIMSTYLE
  5
A
330
0
100
AcDbSymbolTable
 70
     1
100
AcDbDimStyleTable
  0
DIMSTYLE
105
27
330
A
100
AcDbSymbolTableRecord
100
AcDbDimStyleTableRecord
  2
Standard
 70
     0
178
     0
340
11
  0
ENDTAB
  0
TABLE
  2
BLOCK_RECORD
  5
1
330
0
100
AcDbSymbolTable
 70
     1
  0
BLOCK_RECORD
  5
1F
330
1
100
AcDbSymbolTableRecord
100
AcDbBlockTableRecord
  2
*Model_Space
340
22
 70
     0
280
     1
281
     0
  0
BLOCK_RECORD
  5
1B
330
1
100
AcDbSymbolTableRecord
100
AcDbBlockTableRecord
  2
*Paper_Space
340
1E
 70
     0
280
     1
281
     0
  0
BLOCK_RECORD
  5
23
330
1
100
AcDbSymbolTableRecord
100
AcDbBlockTableRecord
  2
*Paper_Space0
340
26
 70
     0
280
     1
281
     0
  0
ENDTAB
  0
ENDSEC
  0
SECTION
  2
BLOCKS
  0
BLOCK
  5
20
330
1F
100
AcDbEntity
  8
0
100
AcDbBlockBegin
  2
*Model_Space
 70
     0
 10
0.0
 20
0.0
 30
0.0
  3
*Model_Space
  1

  0
ENDBLK
  5
21
330
1F
100
AcDbEntity
  8
0
100
AcDbBlockEnd
  0
BLOCK
  5
1C
330
1B
100
AcDbEntity
 67
     1
  8
0
100
AcDbBlockBegin
  2
*Paper_Space
 70
     0
 10
0.0
 20
0.0
 30
0.0
  3
*Paper_Space
  1

  0
ENDBLK
  5
1D
330
1B
100
AcDbEntity
 67
     1
  8
0
100
AcDbBlockEnd
  0
BLOCK
  5
24
330
23
100
AcDbEntity
  8
0
100
AcDbBlockBegin
  2
*Paper_Space0
 70
     0
 10
0.0
 20
0.0
 30
0.0
  3
*Paper_Space0
  1

  0
ENDBLK
  5
25
330
23
100
AcDbEntity
  8
0
100
AcDbBlockEnd
  0
ENDSEC
  0
SECTION
  2
ENTITIES
  0
SPLINE
  5
41
330
1F
100
AcDbEntity
  8
layer 1
 62
   250
370
     9
100
AcDbSpline
210
0.0
220
0.0
230
1.0
 70
    11
 71
     3
 72
    20
 73
    16
 74
     0
 42
0.0000000001
 43
0.0000000001
 12
1.0
 22
0.0
 32
0.0
 13
1.0
 23
0.0
 33
0.0
 40
0.0
 40
0.0
 40
0.0
 40
0.0
 40
0.2
 40
0.2
 40
0.2
 40
0.2
 40
0.4
 40
0.4
 40
0.4
 40
0.4
 40
0.6
 40
0.6
 40
0.6
 40
0.6
 40
1.0
 40
1.0
 40
1.0
 40
1.0
 10
89.5287
 20
131.7342
 30
0.0
 10
89.5287
 20
131.7342
 30
0.0
 10
196.2812
 20
131.7342
 30
0.0
 10
196.2812
 20
131.7342
 30
0.0
 10
196.2812
 20
131.7342
 30
0.0
 10
196.2812
 20
131.7342
 30
0.0
 10
196.2812
 20
-114.8578
 30
0.0
 10
196.2812
 20
-114.8578
 30
0.0
 10
196.2812
 20
-114.8578
 30
0.0
 10
196.2812
 20
-114.8578
 30
0.0
 10
89.5287
 20
-114.8578
 30
0.0
 10
89.5287
 20
-114.8578
 30
0.0
 10
89.5287
 20
-114.8578
 30
0.0
 10
89.5287
 20
-114.8578
 30
0.0
 10
89.5287
 20
131.7342
 30
0.0
 10
89.5287
 20
131.7342
 30
0.0
  0
SPLINE
  5
42
330
1F
100
AcDbEntity
  8
layer 1
 62
     7
370
    13
100
AcDbSpline
210
0.0
220
0.0
230
1.0
 70
    11
 71
     3
 72
    20
 73
    16
 74
     0
 42
0.0000000001
 43
0.0000000001
 12
1.0
 22
0.0
 32
0.0
 13
1.0
 23
0.0
 33
0.0
 40
0.0
 40
0.0
 40
0.0
 40
0.0
 40
0.2
 40
0.2
 40
0.2
 40
0.2
 40
0.4
 40
0.4
 40
0.4
 40
0.4
 40
0.6
 40
0.6
 40
0.6
 40
0.6
 40
1.0
 40
1.0
 40
1.0
 40
1.0
 10
138.6861
 20
115.7287
 30
0.0
 10
132.3325
 20
112.1472
 30
0.0
 10
128.5801
 20
119.3197
 30
0.0
 10
133.6368
 20
122.7119
 30
0.0
 10
133.6368
 20
122.7119
 30
0.0
 10
133.6368
 20
122.7119
 30
0.0
 10
116.5998
 20
122.7119
 30
0.0
 10
116.5998
 20
122.7119
 30
0.0
 10
116.5998
 20
122.7119
 30
0.0
 10
124.2173
 20
120.9828
 30
0.0
 10
124.7232
 20
115.0367
 30
0.0
 10
131.4404
 20
110.4158
 30
0.0
 10
131.4404
 20
110.4158
 30
0.0
 10
134.6915
 20
108.7989
 30
0.0
 10
138.5694
 20
110.7603
 30
0.0
 10
138.6861
 20
115.7287
 30
0.0
  0
SPLINE
  5
43
330
1F
100
AcDbEntity
  8
layer 1
 62
     7
370
    13
100
AcDbSpline
210
0.0
220
0.0
230
1.0
 70
    11
 71
     3
 72
    44
 73
    40
 74
     0
 42
0.0000000001
 43
0.0000000001
 12
1.0
 22
0.0
 32
0.0
 13
1.0
 23
0.0
 33
0.0
 40
0.0
 40
0.0
 40
0.0
 40
0.0
 40
0.0909090909090909
 40
0.0909090909090909
 40
0.0909090909090909
 40
0.0909090909090909
 40
0.1818181818181818
 40
0.1818181818181818
 40
0.1818181818181818
 40
0.1818181818181818
 40
0.2727272727272727
 40
0.2727272727272727
 40
0.2727272727272727
 40
0.2727272727272727
 40
0.3636363636363636
 40
0.3636363636363636
 40
0.3636363636363636
 40
0.3636363636363636
 40
0.4545454545454545
 40
0.4545454545454545
 40
0.4545454545454545
 40
0.4545454545454545
 40
0.5454545454545454
 40
0.5454545454545454
 40
0.5454545454545454
 40
0.5454545454545454
 40
0.6363636363636364
 40
0.6363636363636364
 40
0.6363636363636364
 40
0.6363636363636364
 40
0.7272727272727273
 40
0.7272727272727273
 40
0.7272727272727273
 40
0.7272727272727273
 40
0.8181818181818182
 40
0.8181818181818182
 40
0.8181818181818182
 40
0.8181818181818182
 40
1.0
 40
1.0
 40
1.0
 40
1.0
 10
142.3455
 20
63.7129
 30
0.0
 10
136.2766
 20
78.7995
 30
0.0
 10
123.2017
 20
77.2108
 30
0.0
 10
129.9368
 20
88.4502
 30
0.0
 10
129.9368
 20
88.4502
 30
0.0
 10
127.5793
 20
89.6164
 30
0.0
 10
124.2963
 20
86.417
 30
0.0
 10
122.7162
 20
81.1404
 30
0.0
 10
122.7162
 20
81.1404
 30
0.0
 10
119.4424
 20
96.8129
 30
0.0
 10
131.3214
 20
101.874
 30
0.0
 10
137.8538
 20
96.5178
 30
0.0
 10
137.8538
 20
96.5178
 30
0.0
 10
142.3156
 20
91.388
 30
0.0
 10
134.9334
 20
88.4517
 30
0.0
 10
134.5625
 20
94.6961
 30
0.0
 10
134.5625
 20
94.6961
 30
0.0
 10
126.2394
 20
88.4921
 30
0.0
 10
138.5343
 20
79.2018
 30
0.0
 10
142.3455
 20
88.5842
 30
0.0
 10
142.3455
 20
88.5842
 30
0.0
 10
146.1569
 20
79.2018
 30
0.0
 10
158.4518
 20
88.4921
 30
0.0
 10
150.1287
 20
94.6961
 30
0.0
 10
150.1287
 20
94.6961
 30
0.0
 10
149.7579
 20
88.4517
 30
0.0
 10
142.3757
 20
91.388
 30
0.0
 10
146.8375
 20
96.5178
 30
0.0
 10
146.8375
 20
96.5178
 30
0.0
 10
153.3698
 20
101.874
 30
0.0
 10
165.2489
 20
96.8129
 30
0.0
 10
161.975
 20
81.1404
 30
0.0
 10
161.975
 20
81.1404
 30
0.0
 10
160.395
 20
86.417
 30
0.0
 10
157.1119
 20
89.6164
 30
0.0
 10
154.7544
 20
88.4502
 30
0.0
 10
154.7544
 20
88.4502
 30
0.0
 10
161.4896
 20
77.2108
 30
0.0
 10
148.4147
 20
78.7995
 30
0.0
 10
142.3455
 20
63.7129
 30
0.0
  0
SPLINE
  5
44
330
1F
100
AcDbEntity
  8
layer 1
 62
     7
370
    13
100
AcDbSpline
210
0.0
220
0.0
230
1.0
 70
    11
 71
     3
 72
    28
 73
    24
 74
     0
 42
0.0000000001
 43
0.0000000001
 12
1.0
 22
0.0
 32
0.0
 13
1.0
 23
0.0
 33
0.0
 40
0.0
 40
0.0
 40
0.0
 40
0.0
 40
0.1428571428571428
 40
0.1428571428571428
 40
0.1428571428571428
 40
0.1428571428571428
 40
0.2857142857142857
 40
0.2857142857142857
 40
0.2857142857142857
 40
0.2857142857142857
 40
0.4285714285714285
 40
0.4285714285714285
 40
0.4285714285714285
 40
0.4285714285714285
 40
0.5714285714285714
 40
0.5714285714285714
 40
0.5714285714285714
 40
0.5714285714285714
 40
0.7142857142857143
 40
0.7142857142857143
 40
0.7142857142857143
 40
0.7142857142857143
 40
1.0
 40
1.0
 40
1.0
 40
1.0
 10
142.3455
 20
98.3006
 30
0.0
 10
138.4159
 20
102.9578
 30
0.0
 10
132.8291
 20
102.5276
 30
0.0
 10
129.8476
 20
101.911
 30
0.0
 10
129.8476
 20
101.911
 30
0.0
 10
129.9862
 20
103.2555
 30
0.0
 10
129.9123
 20
104.2458
 30
0.0
 10
129.491
 20
105.8335
 30
0.0
 10
129.491
 20
105.8335
 30
0.0
 10
132.3291
 20
104.4734
 30
0.0
 10
139.6727
 20
103.6335
 30
0.0
 10
142.3455
 20
109.9786
 30
0.0
 10
142.3455
 20
109.9786
 30
0.0
 10
145.0186
 20
103.6335
 30
0.0
 10
152.3622
 20
104.4734
 30
0.0
 10
155.2002
 20
105.8335
 30
0.0
 10
155.2002
 20
105.8335
 30
0.0
 10
154.779
 20
104.2458
 30
0.0
 10
154.7051
 20
103.2555
 30
0.0
 10
154.8437
 20
101.911
 30
0.0
 10
154.8437
 20
101.911
 30
0.0
 10
151.8622
 20
102.5276
 30
0.0
 10
146.2753
 20
102.9578
 30
0.0
 10
142.3455
 20
98.3006
 30
0.0
  0
SPLINE
  5
45
330
1F
100
AcDbEntity
  8
layer 1
 62
     7
370
    13
100
AcDbSpline
210
0.0
220
0.0
230
1.0
 70
    11
 71
     3
 72
    16
 73
    12
 74
     0
 42
0.0000000001
 43
0.0000000001
 12
1.0
 22
0.0
 32
0.0
 13
1.0
 23
0.0
 33
0.0
 40
0.0
 40
0.0
 40
0.0
 40
0.0
 40
0.25
 40
0.25
 40
0.25
 40
0.25
 40
0.5
 40
0.5
 40
0.5
 40
0.5
 40
1.0
 40
1.0
 40
1.0
 40
1.0
 10
142.3455
 20
119.3636
 30
0.0
 10
141.5775
 20
120.6925
 30
0.0
 10
140.0519
 20
122.1945
 30
0.0
 10
137.8707
 20
122.7121
 30
0.0
 10
137.8707
 20
122.7121
 30
0.0
 10
137.8707
 20
122.7121
 30
0.0
 10
146.8206
 20
122.7121
 30
0.0
 10
146.8206
 20
122.7121
 30
0.0
 10
146.8206
 20
122.7121
 30
0.0
 10
144.6393
 20
122.1945
 30
0.0
 10
143.1138
 20
120.6925
 30
0.0
 10
142.3455
 20
119.3636
 30
0.0
  0
SPLINE
  5
46
330
1F
100
AcDbEntity
  8
layer 1
 62
     7
370
    13
100
AcDbSpline
210
0.0
220
0.0
230
1.0
 70
    11
 71
     3
 72
    20
 73
    16
 74
     0
 42
0.0000000001
 43
0.0000000001
 12
1.0
 22
0.0
 32
0.0
 13
1.0
 23
0.0
 33
0.0
 40
0.0
 40
0.0
 40
0.0
 40
0.0
 40
0.2
 40
0.2
 40
0.2
 40
0.2
 40
0.4
 40
0.4
 40
0.4
 40
0.4
 40
0.6
 40
0.6
 40
0.6
 40
0.6
 40
1.0
 40
1.0
 40
1.0
 40
1.0
 10
142.3455
 20
21.7572
 30
0.0
 10
141.0197
 20
26.061
 30
0.0
 10
136.984
 20
28.4926
 30
0.0
 10
133.1291
 20
29.0103
 30
0.0
 10
133.1291
 20
29.0103
 30
0.0
 10
138.3727
 20
33.7529
 30
0.0
 10
141.2734
 20
40.244
 30
0.0
 10
142.3455
 20
45.2892
 30
0.0
 10
142.3455
 20
45.2892
 30
0.0
 10
143.4179
 20
40.244
 30
0.0
 10
146.3186
 20
33.7529
 30
0.0
 10
151.5622
 20
29.0103
 30
0.0
 10
151.5622
 20
29.0103
 30
0.0
 10
147.7073
 20
28.4926
 30
0.0
 10
143.6716
 20
26.061
 30
0.0
 10
142.3455
 20
21.7572
 30
0.0
  0
SPLINE
  5
47
330
1F
100
AcDbEntity
  8
layer 1
 62
     7
370
    13
100
AcDbSpline
210
0.0
220
0.0
230
1.0
 70
    11
 71
     3
 72
    20
 73
    16
 74
     0
 42
0.0000000001
 43
0.0000000001
 12
1.0
 22
0.0
 32
0.0
 13
1.0
 23
0.0
 33
0.0
 40
0.0
 40
0.0
 40
0.0
 40
0.0
 40
0.2
 40
0.2
 40
0.2
 40
0.2
 40
0.4
 40
0.4
 40
0.4
 40
0.4
 40
0.6
 40
0.6
 40
0.6
 40
0.6
 40
1.0
 40
1.0
 40
1.0
 40
1.0
 10
142.3455
 20
-100.1044
 30
0.0
 10
140.7407
 20
-95.8007
 30
0.0
 10
134.5666
 20
-97.9244
 30
0.0
 10
137.0338
 20
-104.3798
 30
0.0
 10
137.0338
 20
-104.3798
 30
0.0
 10
130.0053
 20
-98.1495
 30
0.0
 10
140.5297
 20
-90.8218
 30
0.0
 10
142.3455
 20
-80.0123
 30
0.0
 10
142.3455
 20
-80.0123
 30
0.0
 10
144.1616
 20
-90.8218
 30
0.0
 10
154.6859
 20
-98.1495
 30
0.0
 10
147.6574
 20
-104.3798
 30
0.0
 10
147.6574
 20
-104.3798
 30
0.0
 10
150.1246
 20
-97.9244
 30
0.0
 10
143.9506
 20
-95.8007
 30
0.0
 10
142.3455
 20
-100.1044
 30
0.0
  0
SPLINE
  5
48
330
1F
100
AcDbEntity
  8
layer 1
 62
     7
370
    13
100
AcDbSpline
210
0.0
220
0.0
230
1.0
 70
    11
 71
     3
 72
    20
 73
    16
 74
     0
 42
0.0000000001
 43
0.0000000001
 12
1.0
 22
0.0
 32
0.0
 13
1.0
 23
0.0
 33
0.0
 40
0.0
 40
0.0
 40
0.0
 40
0.0
 40
0.2
 40
0.2
 40
0.2
 40
0.2
 40
0.4
 40
0.4
 40
0.4
 40
0.4
 40
0.6
 40
0.6
 40
0.6
 40
0.6
 40
1.0
 40
1.0
 40
1.0
 40
1.0
 10
142.3455
 20
-73.0423
 30
0.0
 10
141.1125
 20
-67.065
 30
0.0
 10
139.7729
 20
-64.6331
 30
0.0
 10
137.5916
 20
-60.2106
 30
0.0
 10
137.5916
 20
-60.2106
 30
0.0
 10
139.3954
 20
-60.3955
 30
0.0
 10
141.3665
 20
-60.2267
 30
0.0
 10
142.3455
 20
-57.4127
 30
0.0
 10
142.3455
 20
-57.4127
 30
0.0
 10
143.3248
 20
-60.2267
 30
0.0
 10
145.2958
 20
-60.3955
 30
0.0
 10
147.0996
 20
-60.2106
 30
0.0
 10
147.0996
 20
-60.2106
 30
0.0
 10
144.9183
 20
-64.6331
 30
0.0
 10
143.5787
 20
-67.065
 30
0.0
 10
142.3455
 20
-73.0423
 30
0.0
  0
SPLINE
  5
49
330
1F
100
AcDbEntity
  8
layer 1
 62
     7
370
    13
100
AcDbSpline
210
0.0
220
0.0
230
1.0
 70
    11
 71
     3
 72
    44
 73
    40
 74
     0
 42
0.0000000001
 43
0.0000000001
 12
1.0
 22
0.0
 32
0.0
 13
1.0
 23
0.0
 33
0.0
 40
0.0
 40
0.0
 40
0.0
 40
0.0
 40
0.0909090909090909
 40
0.0909090909090909
 40
0.0909090909090909
 40
0.0909090909090909
 40
0.1818181818181818
 40
0.1818181818181818
 40
0.1818181818181818
 40
0.1818181818181818
 40
0.2727272727272727
 40
0.2727272727272727
 40
0.2727272727272727
 40
0.2727272727272727
 40
0.3636363636363636
 40
0.3636363636363636
 40
0.3636363636363636
 40
0.3636363636363636
 40
0.4545454545454545
 40
0.4545454545454545
 40
0.4545454545454545
 40
0.4545454545454545
 40
0.5454545454545454
 40
0.5454545454545454
 40
0.5454545454545454
 40
0.5454545454545454
 40
0.6363636363636364
 40
0.6363636363636364
 40
0.6363636363636364
 40
0.6363636363636364
 40
0.7272727272727273
 40
0.7272727272727273
 40
0.7272727272727273
 40
0.7272727272727273
 40
0.8181818181818182
 40
0.8181818181818182
 40
0.8181818181818182
 40
0.8181818181818182
 40
1.0
 40
1.0
 40
1.0
 40
1.0
 10
142.3455
 20
-39.2003
 30
0.0
 10
142.3156
 20
-44.7672
 30
0.0
 10
138.0548
 20
-45.9184
 30
0.0
 10
139.3571
 20
-50.7712
 30
0.0
 10
139.3571
 20
-50.7712
 30
0.0
 10
135.5459
 20
-46.8848
 30
0.0
 10
137.6942
 20
-58.3941
 30
0.0
 10
137.3126
 20
-55.9775
 30
0.0
 10
137.3126
 20
-55.9775
 30
0.0
 10
135.2577
 20
-57.4657
 30
0.0
 10
131.104
 20
-51.3049
 30
0.0
 10
128.2783
 20
-48.0971
 30
0.0
 10
128.2783
 20
-48.0971
 30
0.0
 10
131.4959
 20
-46.0976
 30
0.0
 10
136.9185
 20
-36.3822
 30
0.0
 10
135.2674
 20
-29.1578
 30
0.0
 10
135.2674
 20
-29.1578
 30
0.0
 10
136.9781
 20
-31.2951
 30
0.0
 10
140.5297
 20
-32.4278
 30
0.0
 10
142.3455
 20
-30.3578
 30
0.0
 10
142.3455
 20
-30.3578
 30
0.0
 10
144.1616
 20
-32.4278
 30
0.0
 10
147.7132
 20
-31.2951
 30
0.0
 10
149.4239
 20
-29.1578
 30
0.0
 10
149.4239
 20
-29.1578
 30
0.0
 10
147.7728
 20
-36.3822
 30
0.0
 10
153.1954
 20
-46.0976
 30
0.0
 10
156.413
 20
-48.0971
 30
0.0
 10
156.413
 20
-48.0971
 30
0.0
 10
153.5872
 20
-51.3049
 30
0.0
 10
149.4336
 20
-57.4657
 30
0.0
 10
147.3786
 20
-55.9775
 30
0.0
 10
147.3786
 20
-55.9775
 30
0.0
 10
146.9971
 20
-58.3941
 30
0.0
 10
149.1454
 20
-46.8848
 30
0.0
 10
145.3342
 20
-50.7712
 30
0.0
 10
145.3342
 20
-50.7712
 30
0.0
 10
146.6365
 20
-45.9184
 30
0.0
 10
142.3757
 20
-44.7672
 30
0.0
 10
142.3455
 20
-39.2003
 30
0.0
  0
SPLINE
  5
4A
330
1F
100
AcDbEntity
  8
layer 1
 62
     7
370
    13
100
AcDbSpline
210
0.0
220
0.0
230
1.0
 70
    11
 71
     3
 72
    44
 73
    40
 74
     0
 42
0.0000000001
 43
0.0000000001
 12
1.0
 22
0.0
 32
0.0
 13
1.0
 23
0.0
 33
0.0
 40
0.0
 40
0.0
 40
0.0
 40
0.0
 40
0.0909090909090909
 40
0.0909090909090909
 40
0.0909090909090909
 40
0.0909090909090909
 40
0.1818181818181818
 40
0.1818181818181818
 40
0.1818181818181818
 40
0.1818181818181818
 40
0.2727272727272727
 40
0.2727272727272727
 40
0.2727272727272727
 40
0.2727272727272727
 40
0.3636363636363636
 40
0.3636363636363636
 40
0.3636363636363636
 40
0.3636363636363636
 40
0.4545454545454545
 40
0.4545454545454545
 40
0.4545454545454545
 40
0.4545454545454545
 40
0.5454545454545454
 40
0.5454545454545454
 40
0.5454545454545454
 40
0.5454545454545454
 40
0.6363636363636364
 40
0.6363636363636364
 40
0.6363636363636364
 40
0.6363636363636364
 40
0.7272727272727273
 40
0.7272727272727273
 40
0.7272727272727273
 40
0.7272727272727273
 40
0.8181818181818182
 40
0.8181818181818182
 40
0.8181818181818182
 40
0.8181818181818182
 40
1.0
 40
1.0
 40
1.0
 40
1.0
 10
142.3455
 20
-3.4382
 30
0.0
 10
141.2056
 20
6.165
 30
0.0
 10
132.9861
 20
10.0843
 30
0.0
 10
128.2944
 20
10.416
 30
0.0
 10
128.2944
 20
10.416
 30
0.0
 10
131.0306
 20
12.763
 30
0.0
 10
130.8199
 20
19.946
 30
0.0
 10
127.1919
 20
21.6145
 30
0.0
 10
127.1919
 20
21.6145
 30
0.0
 10
130.9838
 20
26.7415
 30
0.0
 10
139.6087
 20
25.541
 30
0.0
 10
137.3563
 20
18.6148
 30
0.0
 10
137.3563
 20
18.6148
 30
0.0
 10
135.7548
 20
19.9498
 30
0.0
 10
129.157
 20
18.077
 30
0.0
 10
132.3411
 20
11.9692
 30
0.0
 10
132.3411
 20
11.9692
 30
0.0
 10
135.649
 20
7.7018
 30
0.0
 10
142.3156
 20
10.2063
 30
0.0
 10
142.3455
 20
13.4929
 30
0.0
 10
142.3455
 20
13.4929
 30
0.0
 10
142.3757
 20
10.2063
 30
0.0
 10
149.0423
 20
7.7018
 30
0.0
 10
152.3501
 20
11.9692
 30
0.0
 10
152.3501
 20
11.9692
 30
0.0
 10
155.5342
 20
18.077
 30
0.0
 10
148.9364
 20
19.9498
 30
0.0
 10
147.3349
 20
18.6148
 30
0.0
 10
147.3349
 20
18.6148
 30
0.0
 10
145.0825
 20
25.541
 30
0.0
 10
153.7074
 20
26.7415
 30
0.0
 10
157.4994
 20
21.6145
 30
0.0
 10
157.4994
 20
21.6145
 30
0.0
 10
153.8713
 20
19.946
 30
0.0
 10
153.6606
 20
12.763
 30
0.0
 10
156.3969
 20
10.416
 30
0.0
 10
156.3969
 20
10.416
 30
0.0
 10
151.7051
 20
10.0843
 30
0.0
 10
143.4856
 20
6.165
 30
0.0
 10
142.3455
 20
-3.4382
 30
0.0
  0
SPLINE
  5
4B
330
1F
100
AcDbEntity
  8
layer 1
 62
     7
370
    13
100
AcDbSpline
210
0.0
220
0.0
230
1.0
 70
    11
 71
     3
 72
    16
 73
    12
 74
     0
 42
0.0000000001
 43
0.0000000001
 12
1.0
 22
0.0
 32
0.0
 13
1.0
 23
0.0
 33
0.0
 40
0.0
 40
0.0
 40
0.0
 40
0.0
 40
0.25
 40
0.25
 40
0.25
 40
0.25
 40
0.5
 40
0.5
 40
0.5
 40
0.5
 40
1.0
 40
1.0
 40
1.0
 40
1.0
 10
109.855
 20
122.7122
 30
0.0
 10
103.429
 20
121.3964
 30
0.0
 10
98.2972
 20
117.9177
 30
0.0
 10
96.0901
 20
109.7723
 30
0.0
 10
96.0901
 20
109.7723
 30
0.0
 10
96.0901
 20
109.7723
 30
0.0
 10
96.0901
 20
122.7122
 30
0.0
 10
96.0901
 20
122.7122
 30
0.0
 10
96.0901
 20
122.7122
 30
0.0
 10
96.0901
 20
122.7122
 30
0.0
 10
109.855
 20
122.7122
 30
0.0
 10
109.855
 20
122.7122
 30
0.0
  0
SPLINE
  5
4C
330
1F
100
AcDbEntity
  8
layer 1
 62
     7
370
    13
100
AcDbSpline
210
0.0
220
0.0
230
1.0
 70
    11
 71
     3
 72
    16
 73
    12
 74
     0
 42
0.0000000001
 43
0.0000000001
 12
1.0
 22
0.0
 32
0.0
 13
1.0
 23
0.0
 33
0.0
 40
0.0
 40
0.0
 40
0.0
 40
0.0
 40
0.25
 40
0.25
 40
0.25
 40
0.25
 40
0.5
 40
0.5
 40
0.5
 40
0.5
 40
1.0
 40
1.0
 40
1.0
 40
1.0
 10
104.6172
 20
83.2749
 30
0.0
 10
100.6339
 20
84.6197
 30
0.0
 10
97.6811
 20
83.41
 30
0.0
 10
96.0901
 20
80.7336
 30
0.0
 10
96.0901
 20
80.7336
 30
0.0
 10
96.0901
 20
80.7336
 30
0.0
 10
96.0901
 20
97.6017
 30
0.0
 10
96.0901
 20
97.6017
 30
0.0
 10
96.0901
 20
97.6017
 30
0.0
 10
97.3156
 20
90.4773
 30
0.0
 10
100.2048
 20
86.6288
 30
0.0
 10
104.6172
 20
83.2749
 30
0.0
  0
SPLINE
  5
4D
330
1F
100
AcDbEntity
  8
layer 1
 62
     7
370
    13
100
AcDbSpline
210
0.0
220
0.0
230
1.0
 70
    11
 71
     3
 72
    20
 73
    16
 74
     0
 42
0.0000000001
 43
0.0000000001
 12
1.0
 22
0.0
 32
0.0
 13
1.0
 23
0.0
 33
0.0
 40
0.0
 40
0.0
 40
0.0
 40
0.0
 40
0.2
 40
0.2
 40
0.2
 40
0.2
 40
0.4
 40
0.4
 40
0.4
 40
0.4
 40
0.6
 40
0.6
 40
0.6
 40
0.6
 40
1.0
 40
1.0
 40
1.0
 40
1.0
 10
115.2467
 20
77.3441
 30
0.0
 10
107.9512
 20
76.4551
 30
0.0
 10
100.0687
 20
72.8578
 30
0.0
 10
96.0898
 20
63.8651
 30
0.0
 10
96.0898
 20
63.8651
 30
0.0
 10
96.0898
 20
63.8651
 30
0.0
 10
96.0898
 20
73.3388
 30
0.0
 10
96.0898
 20
73.3388
 30
0.0
 10
96.0898
 20
73.3388
 30
0.0
 10
96.9813
 20
71.9066
 30
0.0
 10
97.8107
 20
71.0284
 30
0.0
 10
99.6869
 20
71.6148
 30
0.0
 10
99.6869
 20
71.6148
 30
0.0
 10
93.7067
 20
81.6182
 30
0.0
 10
112.1027
 20
79.7338
 30
0.0
 10
115.2467
 20
77.3441
 30
0.0
  0
SPLINE
  5
4E
330
1F
100
AcDbEntity
  8
layer 1
 62
     7
370
    13
100
AcDbSpline
210
0.0
220
0.0
230
1.0
 70
    11
 71
     3
 72
    24
 73
    20
 74
     0
 42
0.0000000001
 43
0.0000000001
 12
1.0
 22
0.0
 32
0.0
 13
1.0
 23
0.0
 33
0.0
 40
0.0
 40
0.0
 40
0.0
 40
0.0
 40
0.1666666666666667
 40
0.1666666666666667
 40
0.1666666666666667
 40
0.1666666666666667
 40
0.3333333333333333
 40
0.3333333333333333
 40
0.3333333333333333
 40
0.3333333333333333
 40
0.5
 40
0.5
 40
0.5
 40
0.5
 40
0.6666666666666666
 40
0.6666666666666666
 40
0.6666666666666666
 40
0.6666666666666666
 40
1.0
 40
1.0
 40
1.0
 40
1.0
 10
107.0819
 20
34.3637
 30
0.0
 10
102.2513
 20
36.7097
 30
0.0
 10
97.7578
 20
34.73
 30
0.0
 10
96.0898
 20
30.6671
 30
0.0
 10
96.0898
 20
30.6671
 30
0.0
 10
96.0898
 20
30.6671
 30
0.0
 10
96.0898
 20
48.6905
 30
0.0
 10
96.0898
 20
48.6905
 30
0.0
 10
96.0898
 20
48.6905
 30
0.0
 10
98.7654
 20
44.9471
 30
0.0
 10
101.8316
 20
43.2776
 30
0.0
 10
104.5116
 20
40.7342
 30
0.0
 10
104.5116
 20
40.7342
 30
0.0
 10
106.2113
 20
39.1212
 30
0.0
 10
106.91
 20
37.745
 30
0.0
 10
107.0819
 20
34.364
 30
0.0
 10
107.0819
 20
34.364
 30
0.0
 10
107.0819
 20
34.364
 30
0.0
 10
107.0819
 20
34.3637
 30
0.0
 10
107.0819
 20
34.3637
 30
0.0
  0
SPLINE
  5
4F
330
1F
100
AcDbEntity
  8
layer 1
 62
     7
370
    13
100
AcDbSpline
210
0.0
220
0.0
230
1.0
 70
    11
 71
     3
 72
    24
 73
    20
 74
     0
 42
0.0000000001
 43
0.0000000001
 12
1.0
 22
0.0
 32
0.0
 13
1.0
 23
0.0
 33
0.0
 40
0.0
 40
0.0
 40
0.0
 40
0.0
 40
0.1666666666666667
 40
0.1666666666666667
 40
0.1666666666666667
 40
0.1666666666666667
 40
0.3333333333333333
 40
0.3333333333333333
 40
0.3333333333333333
 40
0.3333333333333333
 40
0.5
 40
0.5
 40
0.5
 40
0.5
 40
0.6666666666666666
 40
0.6666666666666666
 40
0.6666666666666666
 40
0.6666666666666666
 40
1.0
 40
1.0
 40
1.0
 40
1.0
 10
109.9335
 20
16.3275
 30
0.0
 10
107.564
 20
20.475
 30
0.0
 10
100.5117
 20
22.2463
 30
0.0
 10
96.0901
 20
17.0173
 30
0.0
 10
96.0901
 20
17.0173
 30
0.0
 10
96.0901
 20
17.0173
 30
0.0
 10
96.0901
 20
23.1701
 30
0.0
 10
96.0901
 20
23.1701
 30
0.0
 10
96.0901
 20
23.1701
 30
0.0
 10
96.9816
 20
21.7379
 30
0.0
 10
101.2979
 20
20.7489
 30
0.0
 10
103.174
 20
21.3354
 30
0.0
 10
103.174
 20
21.3354
 30
0.0
 10
96.0901
 20
26.4813
 30
0.0
 10
103.4439
 20
32.1318
 30
0.0
 10
107.5427
 20
28.8915
 30
0.0
 10
107.5427
 20
28.8915
 30
0.0
 10
111.9641
 20
24.5611
 30
0.0
 10
109.9455
 20
19.4975
 30
0.0
 10
109.9335
 20
16.3275
 30
0.0
  0
SPLINE
  5
50
330
1F
100
AcDbEntity
  8
layer 1
 62
     7
370
    13
100
AcDbSpline
210
0.0
220
0.0
230
1.0
 70
    11
 71
     3
 72
    28
 73
    24
 74
     0
 42
0.0000000001
 43
0.0000000001
 12
1.0
 22
0.0
 32
0.0
 13
1.0
 23
0.0
 33
0.0
 40
0.0
 40
0.0
 40
0.0
 40
0.0
 40
0.1428571428571428
 40
0.1428571428571428
 40
0.1428571428571428
 40
0.1428571428571428
 40
0.2857142857142857
 40
0.2857142857142857
 40
0.2857142857142857
 40
0.2857142857142857
 40
0.4285714285714285
 40
0.4285714285714285
 40
0.4285714285714285
 40
0.4285714285714285
 40
0.5714285714285714
 40
0.5714285714285714
 40
0.5714285714285714
 40
0.5714285714285714
 40
0.7142857142857143
 40
0.7142857142857143
 40
0.7142857142857143
 40
0.7142857142857143
 40
1.0
 40
1.0
 40
1.0
 40
1.0
 10
104.7308
 20
10.6266
 30
0.0
 10
102.472
 20
7.4132
 30
0.0
 10
96.0898
 20
-1.5529
 30
0.0
 10
96.0898
 20
-6.2837
 30
0.0
 10
96.0898
 20
-6.2837
 30
0.0
 10
96.0898
 20
-6.2837
 30
0.0
 10
96.0898
 20
9.7208
 30
0.0
 10
96.0898
 20
9.7208
 30
0.0
 10
96.0898
 20
9.7208
 30
0.0
 10
96.9813
 20
8.2886
 30
0.0
 10
101.1869
 20
6.9121
 30
0.0
 10
102.7308
 20
11.0407
 30
0.0
 10
102.7308
 20
11.0407
 30
0.0
 10
98.9613
 20
12.1092
 30
0.0
 10
100.1741
 20
15.5721
 30
0.0
 10
102.6122
 20
15.492
 30
0.0
 10
102.6122
 20
15.492
 30
0.0
 10
104.4374
 20
15.4322
 30
0.0
 10
106.6788
 20
13.5933
 30
0.0
 10
104.7308
 20
10.6264
 30
0.0
 10
104.7308
 20
10.6264
 30
0.0
 10
104.7308
 20
10.6264
 30
0.0
 10
104.7308
 20
10.6266
 30
0.0
 10
104.7308
 20
10.6266
 30
0.0
  0
SPLINE
  5
51
330
1F
100
AcDbEntity
  8
layer 1
 62
     7
370
    13
100
AcDbSpline
210
0.0
220
0.0
230
1.0
 70
    11
 71
     3
 72
    16
 73
    12
 74
     0
 42
0.0000000001
 43
0.0000000001
 12
1.0
 22
0.0
 32
0.0
 13
1.0
 23
0.0
 33
0.0
 40
0.0
 40
0.0
 40
0.0
 40
0.0
 40
0.25
 40
0.25
 40
0.25
 40
0.25
 40
0.5
 40
0.5
 40
0.5
 40
0.5
 40
1.0
 40
1.0
 40
1.0
 40
1.0
 10
109.855
 20
-107.7726
 30
0.0
 10
103.429
 20
-106.4568
 30
0.0
 10
98.2972
 20
-102.9781
 30
0.0
 10
96.0901
 20
-94.8327
 30
0.0
 10
96.0901
 20
-94.8327
 30
0.0
 10
96.0901
 20
-94.8327
 30
0.0
 10
96.0901
 20
-107.7726
 30
0.0
 10
96.0901
 20
-107.7726
 30
0.0
 10
96.0901
 20
-107.7726
 30
0.0
 10
96.0901
 20
-107.7726
 30
0.0
 10
109.855
 20
-107.7726
 30
0.0
 10
109.855
 20
-107.7726
 30
0.0
  0
SPLINE
  5
52
330
1F
100
AcDbEntity
  8
layer 1
 62
     7
370
    13
100
AcDbSpline
210
0.0
220
0.0
230
1.0
 70
    11
 71
     3
 72
    12
 73
     8
 74
     0
 42
0.0000000001
 43
0.0000000001
 12
1.0
 22
0.0
 32
0.0
 13
1.0
 23
0.0
 33
0.0
 40
0.0
 40
0.0
 40
0.0
 40
0.0
 40
0.3333333333333333
 40
0.3333333333333333
 40
0.3333333333333333
 40
0.3333333333333333
 40
1.0
 40
1.0
 40
1.0
 40
1.0
 10
96.0898
 20
-66.7985
 30
0.0
 10
96.0898
 20
-66.7985
 30
0.0
 10
96.0898
 20
-82.287
 30
0.0
 10
96.0898
 20
-82.287
 30
0.0
 10
96.0898
 20
-82.287
 30
0.0
 10
100.359
 20
-80.2295
 30
0.0
 10
100.9094
 20
-71.5665
 30
0.0
 10
96.0898
 20
-66.7985
 30
0.0
  0
SPLINE
  5
53
330
1F
100
AcDbEntity
  8
layer 1
 62
     7
370
    13
100
AcDbSpline
210
0.0
220
0.0
230
1.0
 70
    11
 71
     3
 72
    40
 73
    36
 74
     0
 42
0.0000000001
 43
0.0000000001
 12
1.0
 22
0.0
 32
0.0
 13
1.0
 23
0.0
 33
0.0
 40
0.0
 40
0.0
 40
0.0
 40
0.0
 40
0.1
 40
0.1
 40
0.1
 40
0.1
 40
0.2
 40
0.2
 40
0.2
 40
0.2
 40
0.3
 40
0.3
 40
0.3
 40
0.3
 40
0.4
 40
0.4
 40
0.4
 40
0.4
 40
0.5
 40
0.5
 40
0.5
 40
0.5
 40
0.6
 40
0.6
 40
0.6
 40
0.6
 40
0.7
 40
0.7
 40
0.7
 40
0.7
 40
0.8
 40
0.8
 40
0.8
 40
0.8
 40
1.0
 40
1.0
 40
1.0
 40
1.0
 10
106.8642
 20
-58.6202
 30
0.0
 10
108.7757
 20
-52.3725
 30
0.0
 10
99.3808
 20
-47.3706
 30
0.0
 10
96.0901
 20
-55.9919
 30
0.0
 10
96.0901
 20
-55.9919
 30
0.0
 10
96.0901
 20
-55.9919
 30
0.0
 10
96.0901
 20
-23.1038
 30
0.0
 10
96.0901
 20
-23.1038
 30
0.0
 10
96.0901
 20
-23.1038
 30
0.0
 10
96.9816
 20
-24.536
 30
0.0
 10
100.9746
 20
-32.3098
 30
0.0
 10
108.2627
 20
-40.4467
 30
0.0
 10
108.2627
 20
-40.4467
 30
0.0
 10
112.4061
 20
-46.2857
 30
0.0
 10
108.7747
 20
-50.0856
 30
0.0
 10
102.2119
 20
-46.7834
 30
0.0
 10
102.2119
 20
-46.7834
 30
0.0
 10
102.5712
 20
-50.9017
 30
0.0
 10
105.7011
 20
-52.194
 30
0.0
 10
108.6409
 20
-51.7909
 30
0.0
 10
108.6409
 20
-51.7909
 30
0.0
 10
109.2289
 20
-53.2623
 30
0.0
 10
108.7885
 20
-53.873
 30
0.0
 10
108.0875
 20
-55.2415
 30
0.0
 10
108.0875
 20
-55.2415
 30
0.0
 10
110.3933
 20
-56.8356
 30
0.0
 10
113.4802
 20
-53.2398
 30
0.0
 10
113.2168
 20
-53.9888
 30
0.0
 10
113.2168
 20
-53.9888
 30
0.0
 10
113.113
 20
-54.2842
 30
0.0
 10
113.035
 20
-67.1709
 30
0.0
 10
102.1935
 20
-64.2684
 30
0.0
 10
102.1935
 20
-64.2684
 30
0.0
 10
97.1153
 20
-61.5288
 30
0.0
 10
101.2107
 20
-53.0096
 30
0.0
 10
106.8642
 20
-58.6202
 30
0.0
  0
SPLINE
  5
54
330
1F
100
AcDbEntity
  8
layer 1
 62
     7
370
    13
100
AcDbSpline
210
0.0
220
0.0
230
1.0
 70
    11
 71
     3
 72
    36
 73
    32
 74
     0
 42
0.0000000001
 43
0.0000000001
 12
1.0
 22
0.0
 32
0.0
 13
1.0
 23
0.0
 33
0.0
 40
0.0
 40
0.0
 40
0.0
 40
0.0
 40
0.1111111111111111
 40
0.1111111111111111
 40
0.1111111111111111
 40
0.1111111111111111
 40
0.2222222222222222
 40
0.2222222222222222
 40
0.2222222222222222
 40
0.2222222222222222
 40
0.3333333333333333
 40
0.3333333333333333
 40
0.3333333333333333
 40
0.3333333333333333
 40
0.4444444444444444
 40
0.4444444444444444
 40
0.4444444444444444
 40
0.4444444444444444
 40
0.5555555555555556
 40
0.5555555555555556
 40
0.5555555555555556
 40
0.5555555555555556
 40
0.6666666666666666
 40
0.6666666666666666
 40
0.6666666666666666
 40
0.6666666666666666
 40
0.7777777777777778
 40
0.7777777777777778
 40
0.7777777777777778
 40
0.7777777777777778
 40
1.0
 40
1.0
 40
1.0
 40
1.0
 10
114.7265
 20
18.5546
 30
0.0
 10
115.6548
 20
26.0867
 30
0.0
 10
113.8114
 20
31.3617
 30
0.0
 10
108.8235
 20
33.7806
 30
0.0
 10
108.8235
 20
33.7806
 30
0.0
 10
111.1688
 20
35.0714
 30
0.0
 10
110.5473
 20
40.0853
 30
0.0
 10
109.5611
 20
41.7994
 30
0.0
 10
109.5611
 20
41.7994
 30
0.0
 10
110.7012
 20
41.4738
 30
0.0
 10
116.3743
 20
40.8534
 30
0.0
 10
117.643
 20
44.1303
 30
0.0
 10
117.643
 20
44.1303
 30
0.0
 10
116.552
 20
39.5662
 30
0.0
 10
120.065
 20
36.7803
 30
0.0
 10
123.4444
 20
38.0396
 30
0.0
 10
123.4444
 20
38.0396
 30
0.0
 10
126.0746
 20
39.0196
 30
0.0
 10
127.6321
 20
42.8973
 30
0.0
 10
124.7022
 20
45.0474
 30
0.0
 10
124.7022
 20
45.0474
 30
0.0
 10
129.9415
 20
47.1033
 30
0.0
 10
130.4031
 20
40.2411
 30
0.0
 10
127.1973
 20
33.0062
 30
0.0
 10
127.1973
 20
33.0062
 30
0.0
 10
124.324
 20
27.7838
 30
0.0
 10
119.8954
 20
22.0177
 30
0.0
 10
114.7262
 20
18.5546
 30
0.0
 10
114.7262
 20
18.5546
 30
0.0
 10
114.7262
 20
18.5546
 30
0.0
 10
114.7265
 20
18.5546
 30
0.0
 10
114.7265
 20
18.5546
 30
0.0
  0
SPLINE
  5
55
330
1F
100
AcDbEntity
  8
layer 1
 62
     7
370
    13
100
AcDbSpline
210
0.0
220
0.0
230
1.0
 70
    11
 71
     3
 72
    36
 73
    32
 74
     0
 42
0.0000000001
 43
0.0000000001
 12
1.0
 22
0.0
 32
0.0
 13
1.0
 23
0.0
 33
0.0
 40
0.0
 40
0.0
 40
0.0
 40
0.0
 40
0.1111111111111111
 40
0.1111111111111111
 40
0.1111111111111111
 40
0.1111111111111111
 40
0.2222222222222222
 40
0.2222222222222222
 40
0.2222222222222222
 40
0.2222222222222222
 40
0.3333333333333333
 40
0.3333333333333333
 40
0.3333333333333333
 40
0.3333333333333333
 40
0.4444444444444444
 40
0.4444444444444444
 40
0.4444444444444444
 40
0.4444444444444444
 40
0.5555555555555556
 40
0.5555555555555556
 40
0.5555555555555556
 40
0.5555555555555556
 40
0.6666666666666666
 40
0.6666666666666666
 40
0.6666666666666666
 40
0.6666666666666666
 40
0.7777777777777778
 40
0.7777777777777778
 40
0.7777777777777778
 40
0.7777777777777778
 40
1.0
 40
1.0
 40
1.0
 40
1.0
 10
124.8539
 20
-16.7587
 30
0.0
 10
123.5409
 20
-22.5458
 30
0.0
 10
130.0862
 20
-23.2261
 30
0.0
 10
131.7578
 20
-22.0877
 30
0.0
 10
131.7578
 20
-22.0877
 30
0.0
 10
130.9655
 20
-26.2398
 30
0.0
 10
121.5071
 20
-25.7723
 30
0.0
 10
118.7921
 20
-23.4181
 30
0.0
 10
118.7921
 20
-23.4181
 30
0.0
 10
117.1786
 20
-22.0788
 30
0.0
 10
113.6308
 20
-17.1283
 30
0.0
 10
115.604
 20
-11.8662
 30
0.0
 10
115.604
 20
-11.8662
 30
0.0
 10
121.4286
 20
-18.8638
 30
0.0
 10
126.8625
 20
-10.2514
 30
0.0
 10
121.8537
 20
-6.6868
 30
0.0
 10
121.8537
 20
-6.6868
 30
0.0
 10
128.5957
 20
-3.6505
 30
0.0
 10
127.0659
 20
3.6137
 30
0.0
 10
125.8649
 20
5.6999
 30
0.0
 10
125.8649
 20
5.6999
 30
0.0
 10
129.9515
 20
5.2587
 30
0.0
 10
138.5457
 20
1.0857
 30
0.0
 10
137.5168
 20
-10.4394
 30
0.0
 10
137.5168
 20
-10.4394
 30
0.0
 10
136.8465
 20
-16.7633
 30
0.0
 10
131.0842
 20
-21.7985
 30
0.0
 10
124.8536
 20
-16.7584
 30
0.0
 10
124.8536
 20
-16.7584
 30
0.0
 10
124.8536
 20
-16.7584
 30
0.0
 10
124.8539
 20
-16.7587
 30
0.0
 10
124.8539
 20
-16.7587
 30
0.0
  0
SPLINE
  5
56
330
1F
100
AcDbEntity
  8
layer 1
 62
     7
370
    13
100
AcDbSpline
210
0.0
220
0.0
230
1.0
 70
    11
 71
     3
 72
    24
 73
    20
 74
     0
 42
0.0000000001
 43
0.0000000001
 12
1.0
 22
0.0
 32
0.0
 13
1.0
 23
0.0
 33
0.0
 40
0.0
 40
0.0
 40
0.0
 40
0.0
 40
0.1666666666666667
 40
0.1666666666666667
 40
0.1666666666666667
 40
0.1666666666666667
 40
0.3333333333333333
 40
0.3333333333333333
 40
0.3333333333333333
 40
0.3333333333333333
 40
0.5
 40
0.5
 40
0.5
 40
0.5
 40
0.6666666666666666
 40
0.6666666666666666
 40
0.6666666666666666
 40
0.6666666666666666
 40
1.0
 40
1.0
 40
1.0
 40
1.0
 10
113.1357
 20
-8.0502
 30
0.0
 10
112.9199
 20
-2.9802
 30
0.0
 10
108.7358
 20
0.3292
 30
0.0
 10
102.7334
 20
-2.8375
 30
0.0
 10
102.7334
 20
-2.8375
 30
0.0
 10
105.0361
 20
2.5237
 30
0.0
 10
111.9429
 20
6.6536
 30
0.0
 10
117.1154
 20
5.5436
 30
0.0
 10
117.1154
 20
5.5436
 30
0.0
 10
123.089
 20
4.7378
 30
0.0
 10
123.5442
 20
-2.982
 30
0.0
 10
115.6837
 20
-3.137
 30
0.0
 10
115.6837
 20
-3.137
 30
0.0
 10
115.608
 20
-4.3467
 30
0.0
 10
116.262
 20
-5.382
 30
0.0
 10
118.0507
 20
-5.573
 30
0.0
 10
118.0507
 20
-5.573
 30
0.0
 10
114.9472
 20
-5.4935
 30
0.0
 10
113.9874
 20
-6.7507
 30
0.0
 10
113.1357
 20
-8.0502
 30
0.0
  0
SPLINE
  5
57
330
1F
100
AcDbEntity
  8
layer 1
 62
     7
370
    13
100
AcDbSpline
210
0.0
220
0.0
230
1.0
 70
    11
 71
     3
 72
    12
 73
     8
 74
     0
 42
0.0000000001
 43
0.0000000001
 12
1.0
 22
0.0
 32
0.0
 13
1.0
 23
0.0
 33
0.0
 40
0.0
 40
0.0
 40
0.0
 40
0.0
 40
0.3333333333333333
 40
0.3333333333333333
 40
0.3333333333333333
 40
0.3333333333333333
 40
1.0
 40
1.0
 40
1.0
 40
1.0
 10
124.4738
 20
19.4646
 30
0.0
 10
122.6565
 20
16.6835
 30
0.0
 10
118.0627
 20
13.5181
 30
0.0
 10
116.2911
 20
12.0108
 30
0.0
 10
116.2911
 20
12.0108
 30
0.0
 10
122.7023
 20
10.8364
 30
0.0
 10
126.9206
 20
13.5077
 30
0.0
 10
124.4738
 20
19.4646
 30
0.0
  0
SPLINE
  5
58
330
1F
100
AcDbEntity
  8
layer 1
 62
     7
370
    13
100
AcDbSpline
210
0.0
220
0.0
230
1.0
 70
    11
 71
     3
 72
    24
 73
    20
 74
     0
 42
0.0000000001
 43
0.0000000001
 12
1.0
 22
0.0
 32
0.0
 13
1.0
 23
0.0
 33
0.0
 40
0.0
 40
0.0
 40
0.0
 40
0.0
 40
0.1666666666666667
 40
0.1666666666666667
 40
0.1666666666666667
 40
0.1666666666666667
 40
0.3333333333333333
 40
0.3333333333333333
 40
0.3333333333333333
 40
0.3333333333333333
 40
0.5
 40
0.5
 40
0.5
 40
0.5
 40
0.6666666666666666
 40
0.6666666666666666
 40
0.6666666666666666
 40
0.6666666666666666
 40
1.0
 40
1.0
 40
1.0
 40
1.0
 10
110.1412
 20
57.5044
 30
0.0
 10
107.4075
 20
56.0262
 30
0.0
 10
102.1817
 20
57.7295
 30
0.0
 10
101.5239
 20
62.7744
 30
0.0
 10
101.5239
 20
62.7744
 30
0.0
 10
98.1585
 20
57.9154
 30
0.0
 10
98.879
 20
47.7578
 30
0.0
 10
107.8852
 20
46.1936
 30
0.0
 10
107.8852
 20
46.1936
 30
0.0
 10
115.3822
 20
45.3195
 30
0.0
 10
120.8023
 20
52.136
 30
0.0
 10
117.2372
 20
56.1456
 30
0.0
 10
117.2372
 20
56.1456
 30
0.0
 10
115.6464
 20
57.8985
 30
0.0
 10
111.8355
 20
57.7279
 30
0.0
 10
112.2501
 20
53.4996
 30
0.0
 10
112.2501
 20
53.4996
 30
0.0
 10
109.9788
 20
53.4894
 30
0.0
 10
109.4749
 20
56.2768
 30
0.0
 10
110.1412
 20
57.5044
 30
0.0
  0
SPLINE
  5
59
330
1F
100
AcDbEntity
  8
layer 1
 62
     7
370
    13
100
AcDbSpline
210
0.0
220
0.0
230
1.0
 70
    11
 71
     3
 72
    48
 73
    44
 74
     0
 42
0.0000000001
 43
0.0000000001
 12
1.0
 22
0.0
 32
0.0
 13
1.0
 23
0.0
 33
0.0
 40
0.0
 40
0.0
 40
0.0
 40
0.0
 40
0.0833333333333333
 40
0.0833333333333333
 40
0.0833333333333333
 40
0.0833333333333333
 40
0.1666666666666667
 40
0.1666666666666667
 40
0.1666666666666667
 40
0.1666666666666667
 40
0.25
 40
0.25
 40
0.25
 40
0.25
 40
0.3333333333333333
 40
0.3333333333333333
 40
0.3333333333333333
 40
0.3333333333333333
 40
0.4166666666666667
 40
0.4166666666666667
 40
0.4166666666666667
 40
0.4166666666666667
 40
0.5
 40
0.5
 40
0.5
 40
0.5
 40
0.5833333333333334
 40
0.5833333333333334
 40
0.5833333333333334
 40
0.5833333333333334
 40
0.6666666666666666
 40
0.6666666666666666
 40
0.6666666666666666
 40
0.6666666666666666
 40
0.75
 40
0.75
 40
0.75
 40
0.75
 40
0.8333333333333334
 40
0.8333333333333334
 40
0.8333333333333334
 40
0.8333333333333334
 40
1.0
 40
1.0
 40
1.0
 40
1.0
 10
114.2342
 20
61.9329
 30
0.0
 10
120.3895
 20
63.493
 30
0.0
 10
125.9012
 20
56.8747
 30
0.0
 10
122.1739
 20
49.7695
 30
0.0
 10
122.1739
 20
49.7695
 30
0.0
 10
125.0357
 20
52.0273
 30
0.0
 10
133.0529
 20
52.2078
 30
0.0
 10
134.9498
 20
40.1186
 30
0.0
 10
134.9498
 20
40.1186
 30
0.0
 10
135.5503
 20
40.3388
 30
0.0
 10
137.2452
 20
48.7905
 30
0.0
 10
132.266
 20
53.0735
 30
0.0
 10
132.266
 20
53.0735
 30
0.0
 10
134.6191
 20
53.4122
 30
0.0
 10
136.3608
 20
52.7367
 30
0.0
 10
137.4242
 20
51.8851
 30
0.0
 10
137.4242
 20
51.8851
 30
0.0
 10
135.8728
 20
59.4187
 30
0.0
 10
129.7044
 20
63.737
 30
0.0
 10
128.8098
 20
64.4048
 30
0.0
 10
128.8098
 20
64.4048
 30
0.0
 10
131.5645
 20
65.4636
 30
0.0
 10
134.657
 20
63.8851
 30
0.0
 10
137.0472
 20
61.7736
 30
0.0
 10
137.0472
 20
61.7736
 30
0.0
 10
136.5334
 20
72.9179
 30
0.0
 10
119.9632
 20
76.6375
 30
0.0
 10
116.484
 20
65.2628
 30
0.0
 10
116.484
 20
65.2628
 30
0.0
 10
114.6127
 20
68.5845
 30
0.0
 10
116.161
 20
73.4672
 30
0.0
 10
116.9973
 20
74.0864
 30
0.0
 10
116.9973
 20
74.0864
 30
0.0
 10
110.0036
 20
72.5931
 30
0.0
 10
106.1305
 20
70.2126
 30
0.0
 10
105.9067
 20
66.4011
 30
0.0
 10
105.9067
 20
66.4011
 30
0.0
 10
105.3753
 20
63.3076
 30
0.0
 10
111.5762
 20
59.9522
 30
0.0
 10
112.7623
 20
66.829
 30
0.0
 10
112.7623
 20
66.829
 30
0.0
 10
115.4694
 20
66.4802
 30
0.0
 10
115.5733
 20
62.3301
 30
0.0
 10
114.2342
 20
61.9329
 30
0.0
  0
SPLINE
  5
5A
330
1F
100
AcDbEntity
  8
layer 1
 62
     7
370
    13
100
AcDbSpline
210
0.0
220
0.0
230
1.0
 70
    11
 71
     3
 72
    32
 73
    28
 74
     0
 42
0.0000000001
 43
0.0000000001
 12
1.0
 22
0.0
 32
0.0
 13
1.0
 23
0.0
 33
0.0
 40
0.0
 40
0.0
 40
0.0
 40
0.0
 40
0.125
 40
0.125
 40
0.125
 40
0.125
 40
0.25
 40
0.25
 40
0.25
 40
0.25
 40
0.375
 40
0.375
 40
0.375
 40
0.375
 40
0.5
 40
0.5
 40
0.5
 40
0.5
 40
0.625
 40
0.625
 40
0.625
 40
0.625
 40
0.75
 40
0.75
 40
0.75
 40
0.75
 40
1.0
 40
1.0
 40
1.0
 40
1.0
 10
106.1361
 20
98.4575
 30
0.0
 10
112.0329
 20
97.8818
 30
0.0
 10
108.4432
 20
105.6208
 30
0.0
 10
104.6264
 20
101.9224
 30
0.0
 10
104.6264
 20
101.9224
 30
0.0
 10
100.1329
 20
94.6944
 30
0.0
 10
107.566
 20
84.1979
 30
0.0
 10
117.5875
 20
80.8852
 30
0.0
 10
117.5875
 20
80.8852
 30
0.0
 10
115.2728
 20
90.8965
 30
0.0
 10
120.6161
 20
99.8825
 30
0.0
 10
126.1822
 20
101.3797
 30
0.0
 10
126.1822
 20
101.3797
 30
0.0
 10
126.1879
 20
102.4224
 30
0.0
 10
125.4196
 20
103.0182
 30
0.0
 10
124.9654
 20
103.5292
 30
0.0
 10
124.9654
 20
103.5292
 30
0.0
 10
122.3028
 20
99.2465
 30
0.0
 10
119.7893
 20
96.4245
 30
0.0
 10
113.1529
 20
98.9654
 30
0.0
 10
113.1529
 20
98.9654
 30
0.0
 10
112.9687
 20
94.4987
 30
0.0
 10
104.9625
 20
93.8453
 30
0.0
 10
106.1364
 20
98.4575
 30
0.0
 10
106.1364
 20
98.4575
 30
0.0
 10
106.1364
 20
98.4575
 30
0.0
 10
106.1361
 20
98.4575
 30
0.0
 10
106.1361
 20
98.4575
 30
0.0
  0
SPLINE
  5
5B
330
1F
100
AcDbEntity
  8
layer 1
 62
     7
370
    13
100
AcDbSpline
210
0.0
220
0.0
230
1.0
 70
    11
 71
     3
 72
    36
 73
    32
 74
     0
 42
0.0000000001
 43
0.0000000001
 12
1.0
 22
0.0
 32
0.0
 13
1.0
 23
0.0
 33
0.0
 40
0.0
 40
0.0
 40
0.0
 40
0.0
 40
0.1111111111111111
 40
0.1111111111111111
 40
0.1111111111111111
 40
0.1111111111111111
 40
0.2222222222222222
 40
0.2222222222222222
 40
0.2222222222222222
 40
0.2222222222222222
 40
0.3333333333333333
 40
0.3333333333333333
 40
0.3333333333333333
 40
0.3333333333333333
 40
0.4444444444444444
 40
0.4444444444444444
 40
0.4444444444444444
 40
0.4444444444444444
 40
0.5555555555555556
 40
0.5555555555555556
 40
0.5555555555555556
 40
0.5555555555555556
 40
0.6666666666666666
 40
0.6666666666666666
 40
0.6666666666666666
 40
0.6666666666666666
 40
0.7777777777777778
 40
0.7777777777777778
 40
0.7777777777777778
 40
0.7777777777777778
 40
1.0
 40
1.0
 40
1.0
 40
1.0
 10
117.5904
 20
105.5197
 30
0.0
 10
120.3772
 20
105.1376
 30
0.0
 10
121.4002
 20
111.2935
 30
0.0
 10
116.2221
 20
112.9119
 30
0.0
 10
116.2221
 20
112.9119
 30
0.0
 10
114.9702
 20
113.0137
 30
0.0
 10
111.2327
 20
113.0012
 30
0.0
 10
109.9066
 20
106.7652
 30
0.0
 10
109.9066
 20
106.7652
 30
0.0
 10
105.2136
 20
108.1775
 30
0.0
 10
102.8592
 20
106.9964
 30
0.0
 10
101.259
 20
105.2195
 30
0.0
 10
101.259
 20
105.2195
 30
0.0
 10
100.7626
 20
108.9838
 30
0.0
 10
102.8336
 20
112.904
 30
0.0
 10
104.3367
 20
114.3694
 30
0.0
 10
104.3367
 20
114.3694
 30
0.0
 10
108.8685
 20
120.2146
 30
0.0
 10
118.1295
 20
121.2928
 30
0.0
 10
122.1202
 20
113.3385
 30
0.0
 10
122.1202
 20
113.3385
 30
0.0
 10
123.9053
 20
108.4076
 30
0.0
 10
122.3059
 20
102.9446
 30
0.0
 10
119.0975
 20
102.3091
 30
0.0
 10
119.0975
 20
102.3091
 30
0.0
 10
113.3986
 20
101.1802
 30
0.0
 10
113.7938
 20
105.2295
 30
0.0
 10
113.8178
 20
105.9067
 30
0.0
 10
113.8178
 20
105.9067
 30
0.0
 10
113.881
 20
107.6821
 30
0.0
 10
117.3819
 20
109.1821
 30
0.0
 10
117.5904
 20
105.5197
 30
0.0
  0
SPLINE
  5
5C
330
1F
100
AcDbEntity
  8
layer 1
 62
     7
370
    13
100
AcDbSpline
210
0.0
220
0.0
230
1.0
 70
    11
 71
     3
 72
    48
 73
    44
 74
     0
 42
0.0000000001
 43
0.0000000001
 12
1.0
 22
0.0
 32
0.0
 13
1.0
 23
0.0
 33
0.0
 40
0.0
 40
0.0
 40
0.0
 40
0.0
 40
0.0833333333333333
 40
0.0833333333333333
 40
0.0833333333333333
 40
0.0833333333333333
 40
0.1666666666666667
 40
0.1666666666666667
 40
0.1666666666666667
 40
0.1666666666666667
 40
0.25
 40
0.25
 40
0.25
 40
0.25
 40
0.3333333333333333
 40
0.3333333333333333
 40
0.3333333333333333
 40
0.3333333333333333
 40
0.4166666666666667
 40
0.4166666666666667
 40
0.4166666666666667
 40
0.4166666666666667
 40
0.5
 40
0.5
 40
0.5
 40
0.5
 40
0.5833333333333334
 40
0.5833333333333334
 40
0.5833333333333334
 40
0.5833333333333334
 40
0.6666666666666666
 40
0.6666666666666666
 40
0.6666666666666666
 40
0.6666666666666666
 40
0.75
 40
0.75
 40
0.75
 40
0.75
 40
0.8333333333333334
 40
0.8333333333333334
 40
0.8333333333333334
 40
0.8333333333333334
 40
1.0
 40
1.0
 40
1.0
 40
1.0
 10
125.7244
 20
-46.0166
 30
0.0
 10
123.7102
 20
-44.4103
 30
0.0
 10
122.59
 20
-43.632
 30
0.0
 10
121.3834
 20
-42.8689
 30
0.0
 10
121.3834
 20
-42.8689
 30
0.0
 10
124.2856
 20
-42.9029
 30
0.0
 10
126.2633
 20
-37.9071
 30
0.0
 10
122.8434
 20
-35.4869
 30
0.0
 10
122.8434
 20
-35.4869
 30
0.0
 10
122.3864
 20
-38.5321
 30
0.0
 10
119.6732
 20
-41.9812
 30
0.0
 10
114.0308
 20
-36.9662
 30
0.0
 10
114.0308
 20
-36.9662
 30
0.0
 10
107.1676
 20
-30.531
 30
0.0
 10
105.2876
 20
-26.9549
 30
0.0
 10
103.6628
 20
-23.5002
 30
0.0
 10
103.6628
 20
-23.5002
 30
0.0
 10
98.0043
 20
-11.4703
 30
0.0
 10
109.0816
 20
-12.5527
 30
0.0
 10
106.2389
 20
-19.0019
 30
0.0
 10
106.2389
 20
-19.0019
 30
0.0
 10
108.0893
 20
-21.2885
 30
0.0
 10
114.2411
 20
-12.8179
 30
0.0
 10
103.4712
 20
-10.6238
 30
0.0
 10
103.4712
 20
-10.6238
 30
0.0
 10
102.9472
 20
-6.9535
 30
0.0
 10
110.2557
 20
-3.0242
 30
0.0
 10
111.3762
 20
-9.7174
 30
0.0
 10
111.3762
 20
-9.7174
 30
0.0
 10
109.768
 20
-13.8089
 30
0.0
 10
110.5695
 20
-18.7807
 30
0.0
 10
111.4207
 20
-20.9883
 30
0.0
 10
111.4207
 20
-20.9883
 30
0.0
 10
112.0112
 20
-23.3969
 30
0.0
 10
118.2602
 20
-32.1586
 30
0.0
 10
131.8384
 20
-28.7531
 30
0.0
 10
131.8384
 20
-28.7531
 30
0.0
 10
132.9977
 20
-36.6
 30
0.0
 10
128.7075
 20
-44.185
 30
0.0
 10
125.7244
 20
-46.0171
 30
0.0
 10
125.7244
 20
-46.0171
 30
0.0
 10
125.7244
 20
-46.0171
 30
0.0
 10
125.7244
 20
-46.0166
 30
0.0
 10
125.7244
 20
-46.0166
 30
0.0
  0
SPLINE
  5
5D
330
1F
100
AcDbEntity
  8
layer 1
 62
     7
370
    13
100
AcDbSpline
210
0.0
220
0.0
230
1.0
 70
    11
 71
     3
 72
    40
 73
    36
 74
     0
 42
0.0000000001
 43
0.0000000001
 12
1.0
 22
0.0
 32
0.0
 13
1.0
 23
0.0
 33
0.0
 40
0.0
 40
0.0
 40
0.0
 40
0.0
 40
0.1
 40
0.1
 40
0.1
 40
0.1
 40
0.2
 40
0.2
 40
0.2
 40
0.2
 40
0.3
 40
0.3
 40
0.3
 40
0.3
 40
0.4
 40
0.4
 40
0.4
 40
0.4
 40
0.5
 40
0.5
 40
0.5
 40
0.5
 40
0.6
 40
0.6
 40
0.6
 40
0.6
 40
0.7
 40
0.7
 40
0.7
 40
0.7
 40
0.8
 40
0.8
 40
0.8
 40
0.8
 40
1.0
 40
1.0
 40
1.0
 40
1.0
 10
109.3309
 20
-92.3722
 30
0.0
 10
107.9141
 20
-98.5334
 30
0.0
 10
118.1962
 20
-101.7883
 30
0.0
 10
120.7739
 20
-94.5522
 30
0.0
 10
120.7739
 20
-94.5522
 30
0.0
 10
122.1327
 20
-96.4782
 30
0.0
 10
123.3138
 20
-98.0053
 30
0.0
 10
125.371
 20
-99.3193
 30
0.0
 10
125.371
 20
-99.3193
 30
0.0
 10
115.1173
 20
-107.0419
 30
0.0
 10
105.4121
 20
-101.9801
 30
0.0
 10
102.0943
 20
-96.6265
 30
0.0
 10
102.0943
 20
-96.6265
 30
0.0
 10
108.7744
 20
-100.407
 30
0.0
 10
111.6897
 20
-85.2644
 30
0.0
 10
100.6212
 20
-89.4433
 30
0.0
 10
100.6212
 20
-89.4433
 30
0.0
 10
100.4276
 20
-88.0866
 30
0.0
 10
102.1408
 20
-84.5063
 30
0.0
 10
104.017
 20
-83.7974
 30
0.0
 10
104.017
 20
-83.7974
 30
0.0
 10
107.2162
 20
-82.5885
 30
0.0
 10
108.9967
 20
-85.8708
 30
0.0
 10
106.385
 20
-87.4413
 30
0.0
 10
106.385
 20
-87.4413
 30
0.0
 10
110.1542
 20
-91.7816
 30
0.0
 10
117.6279
 20
-80.8202
 30
0.0
 10
106.9274
 20
-79.5921
 30
0.0
 10
106.9274
 20
-79.5921
 30
0.0
 10
117.0282
 20
-77.2704
 30
0.0
 10
120.19
 20
-85.3851
 30
0.0
 10
118.8307
 20
-89.3484
 30
0.0
 10
118.8307
 20
-89.3484
 30
0.0
 10
117.0523
 20
-86.8884
 30
0.0
 10
109.924
 20
-86.2078
 30
0.0
 10
109.3309
 20
-92.3722
 30
0.0
  0
SPLINE
  5
5E
330
1F
100
AcDbEntity
  8
layer 1
 62
     7
370
    13
100
AcDbSpline
210
0.0
220
0.0
230
1.0
 70
    11
 71
     3
 72
    68
 73
    64
 74
     0
 42
0.0000000001
 43
0.0000000001
 12
1.0
 22
0.0
 32
0.0
 13
1.0
 23
0.0
 33
0.0
 40
0.0
 40
0.0
 40
0.0
 40
0.0
 40
0.0588235294117647
 40
0.0588235294117647
 40
0.0588235294117647
 40
0.0588235294117647
 40
0.1176470588235294
 40
0.1176470588235294
 40
0.1176470588235294
 40
0.1176470588235294
 40
0.1764705882352941
 40
0.1764705882352941
 40
0.1764705882352941
 40
0.1764705882352941
 40
0.2352941176470588
 40
0.2352941176470588
 40
0.2352941176470588
 40
0.2352941176470588
 40
0.2941176470588235
 40
0.2941176470588235
 40
0.2941176470588235
 40
0.2941176470588235
 40
0.3529411764705883
 40
0.3529411764705883
 40
0.3529411764705883
 40
0.3529411764705883
 40
0.4117647058823529
 40
0.4117647058823529
 40
0.4117647058823529
 40
0.4117647058823529
 40
0.4705882352941176
 40
0.4705882352941176
 40
0.4705882352941176
 40
0.4705882352941176
 40
0.5294117647058824
 40
0.5294117647058824
 40
0.5294117647058824
 40
0.5294117647058824
 40
0.5882352941176471
 40
0.5882352941176471
 40
0.5882352941176471
 40
0.5882352941176471
 40
0.6470588235294118
 40
0.6470588235294118
 40
0.6470588235294118
 40
0.6470588235294118
 40
0.7058823529411765
 40
0.7058823529411765
 40
0.7058823529411765
 40
0.7058823529411765
 40
0.7647058823529411
 40
0.7647058823529411
 40
0.7647058823529411
 40
0.7647058823529411
 40
0.8235294117647058
 40
0.8235294117647058
 40
0.8235294117647058
 40
0.8235294117647058
 40
0.8823529411764706
 40
0.8823529411764706
 40
0.8823529411764706
 40
0.8823529411764706
 40
1.0
 40
1.0
 40
1.0
 40
1.0
 10
123.0122
 20
-92.5775
 30
0.0
 10
123.836
 20
-89.6267
 30
0.0
 10
123.6122
 20
-83.8197
 30
0.0
 10
122.7542
 20
-81.8115
 30
0.0
 10
122.7542
 20
-81.8115
 30
0.0
 10
137.7559
 20
-82.5923
 30
0.0
 10
131.966
 20
-61.5636
 30
0.0
 10
121.4757
 20
-69.7987
 30
0.0
 10
121.4757
 20
-69.7987
 30
0.0
 10
129.7614
 20
-72.3905
 30
0.0
 10
124.3063
 20
-80.4622
 30
0.0
 10
117.0167
 20
-75.6219
 30
0.0
 10
117.0167
 20
-75.6219
 30
0.0
 10
111.8751
 20
-72.2076
 30
0.0
 10
105.1149
 20
-73.8086
 30
0.0
 10
103.4017
 20
-75.8091
 30
0.0
 10
103.4017
 20
-75.8091
 30
0.0
 10
102.862
 20
-72.959
 30
0.0
 10
102.7746
 20
-71.6731
 30
0.0
 10
102.8922
 20
-69.8118
 30
0.0
 10
102.8922
 20
-69.8118
 30
0.0
 10
106.5203
 20
-71.9795
 30
0.0
 10
112.9915
 20
-70.2665
 30
0.0
 10
115.5265
 20
-65.3633
 30
0.0
 10
115.5265
 20
-65.3633
 30
0.0
 10
116.0748
 20
-67.7282
 30
0.0
 10
120.7258
 20
-68.9202
 30
0.0
 10
124.4245
 20
-66.976
 30
0.0
 10
124.4245
 20
-66.976
 30
0.0
 10
126.4587
 20
-65.9067
 30
0.0
 10
127.8776
 20
-60.5964
 30
0.0
 10
122.6176
 20
-59.5245
 30
0.0
 10
122.6176
 20
-59.5245
 30
0.0
 10
120.7217
 20
-60.9148
 30
0.0
 10
118.8323
 20
-62.2257
 30
0.0
 10
118.2622
 20
-58.1836
 30
0.0
 10
118.2622
 20
-58.1836
 30
0.0
 10
117.6088
 20
-53.5515
 30
0.0
 10
117.8637
 20
-46.6138
 30
0.0
 10
117.776
 20
-45.9711
 30
0.0
 10
117.776
 20
-45.9711
 30
0.0
 10
129.1635
 20
-52.552
 30
0.0
 10
135.8403
 20
-67.8307
 30
0.0
 10
136.6915
 20
-70.0384
 30
0.0
 10
136.6915
 20
-70.0384
 30
0.0
 10
137.4748
 20
-72.6122
 30
0.0
 10
138.9912
 20
-79.6072
 30
0.0
 10
134.9171
 20
-84.8772
 30
0.0
 10
134.9171
 20
-84.8772
 30
0.0
 10
133.6082
 20
-86.5705
 30
0.0
 10
130.4243
 20
-90.0321
 30
0.0
 10
124.392
 20
-86.7945
 30
0.0
 10
124.392
 20
-86.7945
 30
0.0
 10
124.4286
 20
-88.1201
 30
0.0
 10
124.649
 20
-89.9026
 30
0.0
 10
127.5827
 20
-92.0934
 30
0.0
 10
127.5827
 20
-92.0934
 30
0.0
 10
125.5554
 20
-92.0233
 30
0.0
 10
124.0038
 20
-92.1893
 30
0.0
 10
123.0125
 20
-92.5775
 30
0.0
 10
123.0125
 20
-92.5775
 30
0.0
 10
123.0125
 20
-92.5775
 30
0.0
 10
123.0122
 20
-92.5775
 30
0.0
 10
123.0122
 20
-92.5775
 30
0.0
  0
SPLINE
  5
5F
330
1F
100
AcDbEntity
  8
layer 1
 62
     7
370
    13
100
AcDbSpline
210
0.0
220
0.0
230
1.0
 70
    11
 71
     3
 72
    16
 73
    12
 74
     0
 42
0.0000000001
 43
0.0000000001
 12
1.0
 22
0.0
 32
0.0
 13
1.0
 23
0.0
 33
0.0
 40
0.0
 40
0.0
 40
0.0
 40
0.0
 40
0.25
 40
0.25
 40
0.25
 40
0.25
 40
0.5
 40
0.5
 40
0.5
 40
0.5
 40
1.0
 40
1.0
 40
1.0
 40
1.0
 10
133.4928
 20
-107.7726
 30
0.0
 10
131.1729
 20
-106.2673
 30
0.0
 10
130.084
 20
-105.4417
 30
0.0
 10
129.2034
 20
-103.8029
 30
0.0
 10
129.2034
 20
-103.8029
 30
0.0
 10
126.9505
 20
-106.2
 30
0.0
 10
122.9918
 20
-107.2074
 30
0.0
 10
118.0855
 20
-107.7726
 30
0.0
 10
118.0855
 20
-107.7726
 30
0.0
 10
118.0855
 20
-107.7726
 30
0.0
 10
133.4928
 20
-107.7726
 30
0.0
 10
133.4928
 20
-107.7726
 30
0.0
  0
SPLINE
  5
60
330
1F
100
AcDbEntity
  8
layer 1
 62
     7
370
    13
100
AcDbSpline
210
0.0
220
0.0
230
1.0
 70
    11
 71
     3
 72
    16
 73
    12
 74
     0
 42
0.0000000001
 43
0.0000000001
 12
1.0
 22
0.0
 32
0.0
 13
1.0
 23
0.0
 33
0.0
 40
0.0
 40
0.0
 40
0.0
 40
0.0
 40
0.25
 40
0.25
 40
0.25
 40
0.25
 40
0.5
 40
0.5
 40
0.5
 40
0.5
 40
1.0
 40
1.0
 40
1.0
 40
1.0
 10
138.0742
 20
-107.5559
 30
0.0
 10
140.4537
 20
-106.4854
 30
0.0
 10
141.254
 20
-105.7307
 30
0.0
 10
142.3455
 20
-103.2704
 30
0.0
 10
142.3455
 20
-103.2704
 30
0.0
 10
143.4373
 20
-105.7307
 30
0.0
 10
144.2375
 20
-106.4854
 30
0.0
 10
146.617
 20
-107.5559
 30
0.0
 10
146.617
 20
-107.5559
 30
0.0
 10
146.617
 20
-107.5559
 30
0.0
 10
138.0742
 20
-107.5559
 30
0.0
 10
138.0742
 20
-107.5559
 30
0.0
  0
SPLINE
  5
61
330
1F
100
AcDbEntity
  8
layer 1
 62
     7
370
    13
100
AcDbSpline
210
0.0
220
0.0
230
1.0
 70
    11
 71
     3
 72
    20
 73
    16
 74
     0
 42
0.0000000001
 43
0.0000000001
 12
1.0
 22
0.0
 32
0.0
 13
1.0
 23
0.0
 33
0.0
 40
0.0
 40
0.0
 40
0.0
 40
0.0
 40
0.2
 40
0.2
 40
0.2
 40
0.2
 40
0.4
 40
0.4
 40
0.4
 40
0.4
 40
0.6
 40
0.6
 40
0.6
 40
0.6
 40
1.0
 40
1.0
 40
1.0
 40
1.0
 10
146.0052
 20
115.7287
 30
0.0
 10
152.3588
 20
112.1472
 30
0.0
 10
156.1111
 20
119.3197
 30
0.0
 10
151.0544
 20
122.7119
 30
0.0
 10
151.0544
 20
122.7119
 30
0.0
 10
151.0544
 20
122.7119
 30
0.0
 10
168.0914
 20
122.7119
 30
0.0
 10
168.0914
 20
122.7119
 30
0.0
 10
168.0914
 20
122.7119
 30
0.0
 10
160.4739
 20
120.9828
 30
0.0
 10
159.9681
 20
115.0367
 30
0.0
 10
153.2508
 20
110.4158
 30
0.0
 10
153.2508
 20
110.4158
 30
0.0
 10
149.9997
 20
108.7989
 30
0.0
 10
146.1218
 20
110.7603
 30
0.0
 10
146.0052
 20
115.7287
 30
0.0
  0
SPLINE
  5
62
330
1F
100
AcDbEntity
  8
layer 1
 62
     7
370
    13
100
AcDbSpline
210
0.0
220
0.0
230
1.0
 70
    11
 71
     3
 72
    20
 73
    16
 74
     0
 42
0.0000000001
 43
0.0000000001
 12
1.0
 22
0.0
 32
0.0
 13
1.0
 23
0.0
 33
0.0
 40
0.0
 40
0.0
 40
0.0
 40
0.0
 40
0.2
 40
0.2
 40
0.2
 40
0.2
 40
0.4
 40
0.4
 40
0.4
 40
0.4
 40
0.6
 40
0.6
 40
0.6
 40
0.6
 40
1.0
 40
1.0
 40
1.0
 40
1.0
 10
142.3458
 20
-13.4369
 30
0.0
 10
142.3757
 20
-18.854
 30
0.0
 10
145.2958
 20
-20.1386
 30
0.0
 10
145.7979
 20
-24.9743
 30
0.0
 10
145.7979
 20
-24.9743
 30
0.0
 10
145.8477
 20
-26.6075
 30
0.0
 10
145.438
 20
-28.9463
 30
0.0
 10
142.3458
 20
-29.5315
 30
0.0
 10
142.3458
 20
-29.5315
 30
0.0
 10
139.2532
 20
-28.9463
 30
0.0
 10
138.8435
 20
-26.6075
 30
0.0
 10
138.8934
 20
-24.9743
 30
0.0
 10
138.8934
 20
-24.9743
 30
0.0
 10
139.3954
 20
-20.1386
 30
0.0
 10
142.3156
 20
-18.854
 30
0.0
 10
142.3458
 20
-13.4369
 30
0.0
  0
SPLINE
  5
63
330
1F
100
AcDbEntity
  8
layer 1
 62
     7
370
    13
100
AcDbSpline
210
0.0
220
0.0
230
1.0
 70
    11
 71
     3
 72
    16
 73
    12
 74
     0
 42
0.0000000001
 43
0.0000000001
 12
1.0
 22
0.0
 32
0.0
 13
1.0
 23
0.0
 33
0.0
 40
0.0
 40
0.0
 40
0.0
 40
0.0
 40
0.25
 40
0.25
 40
0.25
 40
0.25
 40
0.5
 40
0.5
 40
0.5
 40
0.5
 40
1.0
 40
1.0
 40
1.0
 40
1.0
 10
174.8363
 20
122.7122
 30
0.0
 10
181.2622
 20
121.3964
 30
0.0
 10
186.3941
 20
117.9177
 30
0.0
 10
188.6012
 20
109.7723
 30
0.0
 10
188.6012
 20
109.7723
 30
0.0
 10
188.6012
 20
109.7723
 30
0.0
 10
188.6012
 20
122.7122
 30
0.0
 10
188.6012
 20
122.7122
 30
0.0
 10
188.6012
 20
122.7122
 30
0.0
 10
188.6012
 20
122.7122
 30
0.0
 10
174.8363
 20
122.7122
 30
0.0
 10
174.8363
 20
122.7122
 30
0.0
  0
SPLINE
  5
64
330
1F
100
AcDbEntity
  8
layer 1
 62
     7
370
    13
100
AcDbSpline
210
0.0
220
0.0
230
1.0
 70
    11
 71
     3
 72
    16
 73
    12
 74
     0
 42
0.0000000001
 43
0.0000000001
 12
1.0
 22
0.0
 32
0.0
 13
1.0
 23
0.0
 33
0.0
 40
0.0
 40
0.0
 40
0.0
 40
0.0
 40
0.25
 40
0.25
 40
0.25
 40
0.25
 40
0.5
 40
0.5
 40
0.5
 40
0.5
 40
1.0
 40
1.0
 40
1.0
 40
1.0
 10
180.074
 20
83.2749
 30
0.0
 10
184.0573
 20
84.6197
 30
0.0
 10
187.0102
 20
83.41
 30
0.0
 10
188.6012
 20
80.7336
 30
0.0
 10
188.6012
 20
80.7336
 30
0.0
 10
188.6012
 20
80.7336
 30
0.0
 10
188.6012
 20
97.6017
 30
0.0
 10
188.6012
 20
97.6017
 30
0.0
 10
188.6012
 20
97.6017
 30
0.0
 10
187.3757
 20
90.4773
 30
0.0
 10
184.4865
 20
86.6288
 30
0.0
 10
180.074
 20
83.2749
 30
0.0
  0
SPLINE
  5
65
330
1F
100
AcDbEntity
  8
layer 1
 62
     7
370
    13
100
AcDbSpline
210
0.0
220
0.0
230
1.0
 70
    11
 71
     3
 72
    20
 73
    16
 74
     0
 42
0.0000000001
 43
0.0000000001
 12
1.0
 22
0.0
 32
0.0
 13
1.0
 23
0.0
 33
0.0
 40
0.0
 40
0.0
 40
0.0
 40
0.0
 40
0.2
 40
0.2
 40
0.2
 40
0.2
 40
0.4
 40
0.4
 40
0.4
 40
0.4
 40
0.6
 40
0.6
 40
0.6
 40
0.6
 40
1.0
 40
1.0
 40
1.0
 40
1.0
 10
169.4446
 20
77.3441
 30
0.0
 10
176.7401
 20
76.4551
 30
0.0
 10
184.6225
 20
72.8578
 30
0.0
 10
188.6015
 20
63.8651
 30
0.0
 10
188.6015
 20
63.8651
 30
0.0
 10
188.6015
 20
63.8651
 30
0.0
 10
188.6015
 20
73.3388
 30
0.0
 10
188.6015
 20
73.3388
 30
0.0
 10
188.6015
 20
73.3388
 30
0.0
 10
187.7099
 20
71.9066
 30
0.0
 10
186.8805
 20
71.0284
 30
0.0
 10
185.0043
 20
71.6148
 30
0.0
 10
185.0043
 20
71.6148
 30
0.0
 10
190.9845
 20
81.6182
 30
0.0
 10
172.5885
 20
79.7338
 30
0.0
 10
169.4446
 20
77.3441
 30
0.0
  0
SPLINE
  5
66
330
1F
100
AcDbEntity
  8
layer 1
 62
     7
370
    13
100
AcDbSpline
210
0.0
220
0.0
230
1.0
 70
    11
 71
     3
 72
    24
 73
    20
 74
     0
 42
0.0000000001
 43
0.0000000001
 12
1.0
 22
0.0
 32
0.0
 13
1.0
 23
0.0
 33
0.0
 40
0.0
 40
0.0
 40
0.0
 40
0.0
 40
0.1666666666666667
 40
0.1666666666666667
 40
0.1666666666666667
 40
0.1666666666666667
 40
0.3333333333333333
 40
0.3333333333333333
 40
0.3333333333333333
 40
0.3333333333333333
 40
0.5
 40
0.5
 40
0.5
 40
0.5
 40
0.6666666666666666
 40
0.6666666666666666
 40
0.6666666666666666
 40
0.6666666666666666
 40
1.0
 40
1.0
 40
1.0
 40
1.0
 10
177.6094
 20
34.3637
 30
0.0
 10
182.44
 20
36.7097
 30
0.0
 10
186.9335
 20
34.73
 30
0.0
 10
188.6015
 20
30.6671
 30
0.0
 10
188.6015
 20
30.6671
 30
0.0
 10
188.6015
 20
30.6671
 30
0.0
 10
188.6015
 20
48.6905
 30
0.0
 10
188.6015
 20
48.6905
 30
0.0
 10
188.6015
 20
48.6905
 30
0.0
 10
185.9258
 20
44.9471
 30
0.0
 10
182.8596
 20
43.2776
 30
0.0
 10
180.1796
 20
40.7342
 30
0.0
 10
180.1796
 20
40.7342
 30
0.0
 10
178.4799
 20
39.1212
 30
0.0
 10
177.7812
 20
37.745
 30
0.0
 10
177.6094
 20
34.364
 30
0.0
 10
177.6094
 20
34.364
 30
0.0
 10
177.6094
 20
34.364
 30
0.0
 10
177.6094
 20
34.3637
 30
0.0
 10
177.6094
 20
34.3637
 30
0.0
  0
SPLINE
  5
67
330
1F
100
AcDbEntity
  8
layer 1
 62
     7
370
    13
100
AcDbSpline
210
0.0
220
0.0
230
1.0
 70
    11
 71
     3
 72
    24
 73
    20
 74
     0
 42
0.0000000001
 43
0.0000000001
 12
1.0
 22
0.0
 32
0.0
 13
1.0
 23
0.0
 33
0.0
 40
0.0
 40
0.0
 40
0.0
 40
0.0
 40
0.1666666666666667
 40
0.1666666666666667
 40
0.1666666666666667
 40
0.1666666666666667
 40
0.3333333333333333
 40
0.3333333333333333
 40
0.3333333333333333
 40
0.3333333333333333
 40
0.5
 40
0.5
 40
0.5
 40
0.5
 40
0.6666666666666666
 40
0.6666666666666666
 40
0.6666666666666666
 40
0.6666666666666666
 40
1.0
 40
1.0
 40
1.0
 40
1.0
 10
174.7578
 20
16.3275
 30
0.0
 10
177.1273
 20
20.475
 30
0.0
 10
184.1796
 20
22.2463
 30
0.0
 10
188.6012
 20
17.0173
 30
0.0
 10
188.6012
 20
17.0173
 30
0.0
 10
188.6012
 20
17.0173
 30
0.0
 10
188.6012
 20
23.1701
 30
0.0
 10
188.6012
 20
23.1701
 30
0.0
 10
188.6012
 20
23.1701
 30
0.0
 10
187.7097
 20
21.7379
 30
0.0
 10
183.3934
 20
20.7489
 30
0.0
 10
181.5172
 20
21.3354
 30
0.0
 10
181.5172
 20
21.3354
 30
0.0
 10
188.6012
 20
26.4813
 30
0.0
 10
181.2474
 20
32.1318
 30
0.0
 10
177.1485
 20
28.8915
 30
0.0
 10
177.1485
 20
28.8915
 30
0.0
 10
172.7271
 20
24.5611
 30
0.0
 10
174.7457
 20
19.4975
 30
0.0
 10
174.7578
 20
16.3275
 30
0.0
  0
SPLINE
  5
68
330
1F
100
AcDbEntity
  8
layer 1
 62
     7
370
    13
100
AcDbSpline
210
0.0
220
0.0
230
1.0
 70
    11
 71
     3
 72
    28
 73
    24
 74
     0
 42
0.0000000001
 43
0.0000000001
 12
1.0
 22
0.0
 32
0.0
 13
1.0
 23
0.0
 33
0.0
 40
0.0
 40
0.0
 40
0.0
 40
0.0
 40
0.1428571428571428
 40
0.1428571428571428
 40
0.1428571428571428
 40
0.1428571428571428
 40
0.2857142857142857
 40
0.2857142857142857
 40
0.2857142857142857
 40
0.2857142857142857
 40
0.4285714285714285
 40
0.4285714285714285
 40
0.4285714285714285
 40
0.4285714285714285
 40
0.5714285714285714
 40
0.5714285714285714
 40
0.5714285714285714
 40
0.5714285714285714
 40
0.7142857142857143
 40
0.7142857142857143
 40
0.7142857142857143
 40
0.7142857142857143
 40
1.0
 40
1.0
 40
1.0
 40
1.0
 10
179.9605
 20
10.6266
 30
0.0
 10
182.2192
 20
7.4132
 30
0.0
 10
188.6015
 20
-1.5529
 30
0.0
 10
188.6015
 20
-6.2837
 30
0.0
 10
188.6015
 20
-6.2837
 30
0.0
 10
188.6015
 20
-6.2837
 30
0.0
 10
188.6015
 20
9.7208
 30
0.0
 10
188.6015
 20
9.7208
 30
0.0
 10
188.6015
 20
9.7208
 30
0.0
 10
187.7099
 20
8.2886
 30
0.0
 10
183.5044
 20
6.9121
 30
0.0
 10
181.9604
 20
11.0407
 30
0.0
 10
181.9604
 20
11.0407
 30
0.0
 10
185.7299
 20
12.1092
 30
0.0
 10
184.5171
 20
15.5721
 30
0.0
 10
182.0791
 20
15.492
 30
0.0
 10
182.0791
 20
15.492
 30
0.0
 10
180.2538
 20
15.4322
 30
0.0
 10
178.0124
 20
13.5933
 30
0.0
 10
179.9605
 20
10.6264
 30
0.0
 10
179.9605
 20
10.6264
 30
0.0
 10
179.9605
 20
10.6264
 30
0.0
 10
179.9605
 20
10.6266
 30
0.0
 10
179.9605
 20
10.6266
 30
0.0
  0
SPLINE
  5
69
330
1F
100
AcDbEntity
  8
layer 1
 62
     7
370
    13
100
AcDbSpline
210
0.0
220
0.0
230
1.0
 70
    11
 71
     3
 72
    16
 73
    12
 74
     0
 42
0.0000000001
 43
0.0000000001
 12
1.0
 22
0.0
 32
0.0
 13
1.0
 23
0.0
 33
0.0
 40
0.0
 40
0.0
 40
0.0
 40
0.0
 40
0.25
 40
0.25
 40
0.25
 40
0.25
 40
0.5
 40
0.5
 40
0.5
 40
0.5
 40
1.0
 40
1.0
 40
1.0
 40
1.0
 10
174.8363
 20
-107.7726
 30
0.0
 10
181.2622
 20
-106.4568
 30
0.0
 10
186.3941
 20
-102.9781
 30
0.0
 10
188.6012
 20
-94.8327
 30
0.0
 10
188.6012
 20
-94.8327
 30
0.0
 10
188.6012
 20
-94.8327
 30
0.0
 10
188.6012
 20
-107.7726
 30
0.0
 10
188.6012
 20
-107.7726
 30
0.0
 10
188.6012
 20
-107.7726
 30
0.0
 10
188.6012
 20
-107.7726
 30
0.0
 10
174.8363
 20
-107.7726
 30
0.0
 10
174.8363
 20
-107.7726
 30
0.0
  0
SPLINE
  5
6A
330
1F
100
AcDbEntity
  8
layer 1
 62
     7
370
    13
100
AcDbSpline
210
0.0
220
0.0
230
1.0
 70
    11
 71
     3
 72
    12
 73
     8
 74
     0
 42
0.0000000001
 43
0.0000000001
 12
1.0
 22
0.0
 32
0.0
 13
1.0
 23
0.0
 33
0.0
 40
0.0
 40
0.0
 40
0.0
 40
0.0
 40
0.3333333333333333
 40
0.3333333333333333
 40
0.3333333333333333
 40
0.3333333333333333
 40
1.0
 40
1.0
 40
1.0
 40
1.0
 10
188.6015
 20
-66.7985
 30
0.0
 10
188.6015
 20
-66.7985
 30
0.0
 10
188.6015
 20
-82.287
 30
0.0
 10
188.6015
 20
-82.287
 30
0.0
 10
188.6015
 20
-82.287
 30
0.0
 10
184.3322
 20
-80.2295
 30
0.0
 10
183.7819
 20
-71.5665
 30
0.0
 10
188.6015
 20
-66.7985
 30
0.0
  0
SPLINE
  5
6B
330
1F
100
AcDbEntity
  8
layer 1
 62
     7
370
    13
100
AcDbSpline
210
0.0
220
0.0
230
1.0
 70
    11
 71
     3
 72
    40
 73
    36
 74
     0
 42
0.0000000001
 43
0.0000000001
 12
1.0
 22
0.0
 32
0.0
 13
1.0
 23
0.0
 33
0.0
 40
0.0
 40
0.0
 40
0.0
 40
0.0
 40
0.1
 40
0.1
 40
0.1
 40
0.1
 40
0.2
 40
0.2
 40
0.2
 40
0.2
 40
0.3
 40
0.3
 40
0.3
 40
0.3
 40
0.4
 40
0.4
 40
0.4
 40
0.4
 40
0.5
 40
0.5
 40
0.5
 40
0.5
 40
0.6
 40
0.6
 40
0.6
 40
0.6
 40
0.7
 40
0.7
 40
0.7
 40
0.7
 40
0.8
 40
0.8
 40
0.8
 40
0.8
 40
1.0
 40
1.0
 40
1.0
 40
1.0
 10
177.827
 20
-58.6202
 30
0.0
 10
175.9155
 20
-52.3725
 30
0.0
 10
185.3105
 20
-47.3706
 30
0.0
 10
188.6012
 20
-55.9919
 30
0.0
 10
188.6012
 20
-55.9919
 30
0.0
 10
188.6012
 20
-55.9919
 30
0.0
 10
188.6012
 20
-23.1038
 30
0.0
 10
188.6012
 20
-23.1038
 30
0.0
 10
188.6012
 20
-23.1038
 30
0.0
 10
187.7097
 20
-24.536
 30
0.0
 10
183.7167
 20
-32.3098
 30
0.0
 10
176.4286
 20
-40.4467
 30
0.0
 10
176.4286
 20
-40.4467
 30
0.0
 10
172.2852
 20
-46.2857
 30
0.0
 10
175.9166
 20
-50.0856
 30
0.0
 10
182.4793
 20
-46.7834
 30
0.0
 10
182.4793
 20
-46.7834
 30
0.0
 10
182.12
 20
-50.9017
 30
0.0
 10
178.9902
 20
-52.194
 30
0.0
 10
176.0503
 20
-51.7909
 30
0.0
 10
176.0503
 20
-51.7909
 30
0.0
 10
175.4624
 20
-53.2623
 30
0.0
 10
175.9028
 20
-53.873
 30
0.0
 10
176.6038
 20
-55.2415
 30
0.0
 10
176.6038
 20
-55.2415
 30
0.0
 10
174.2979
 20
-56.8356
 30
0.0
 10
171.211
 20
-53.2398
 30
0.0
 10
171.4745
 20
-53.9888
 30
0.0
 10
171.4745
 20
-53.9888
 30
0.0
 10
171.5783
 20
-54.2842
 30
0.0
 10
171.6563
 20
-67.1709
 30
0.0
 10
182.4978
 20
-64.2684
 30
0.0
 10
182.4978
 20
-64.2684
 30
0.0
 10
187.5759
 20
-61.5288
 30
0.0
 10
183.4806
 20
-53.0096
 30
0.0
 10
177.827
 20
-58.6202
 30
0.0
  0
SPLINE
  5
6C
330
1F
100
AcDbEntity
  8
layer 1
 62
     7
370
    13
100
AcDbSpline
210
0.0
220
0.0
230
1.0
 70
    11
 71
     3
 72
    36
 73
    32
 74
     0
 42
0.0000000001
 43
0.0000000001
 12
1.0
 22
0.0
 32
0.0
 13
1.0
 23
0.0
 33
0.0
 40
0.0
 40
0.0
 40
0.0
 40
0.0
 40
0.1111111111111111
 40
0.1111111111111111
 40
0.1111111111111111
 40
0.1111111111111111
 40
0.2222222222222222
 40
0.2222222222222222
 40
0.2222222222222222
 40
0.2222222222222222
 40
0.3333333333333333
 40
0.3333333333333333
 40
0.3333333333333333
 40
0.3333333333333333
 40
0.4444444444444444
 40
0.4444444444444444
 40
0.4444444444444444
 40
0.4444444444444444
 40
0.5555555555555556
 40
0.5555555555555556
 40
0.5555555555555556
 40
0.5555555555555556
 40
0.6666666666666666
 40
0.6666666666666666
 40
0.6666666666666666
 40
0.6666666666666666
 40
0.7777777777777778
 40
0.7777777777777778
 40
0.7777777777777778
 40
0.7777777777777778
 40
1.0
 40
1.0
 40
1.0
 40
1.0
 10
169.9648
 20
18.5546
 30
0.0
 10
169.0364
 20
26.0867
 30
0.0
 10
170.8798
 20
31.3617
 30
0.0
 10
175.8677
 20
33.7806
 30
0.0
 10
175.8677
 20
33.7806
 30
0.0
 10
173.5225
 20
35.0714
 30
0.0
 10
174.144
 20
40.0853
 30
0.0
 10
175.1301
 20
41.7994
 30
0.0
 10
175.1301
 20
41.7994
 30
0.0
 10
173.99
 20
41.4738
 30
0.0
 10
168.317
 20
40.8534
 30
0.0
 10
167.0482
 20
44.1303
 30
0.0
 10
167.0482
 20
44.1303
 30
0.0
 10
168.1392
 20
39.5662
 30
0.0
 10
164.6263
 20
36.7803
 30
0.0
 10
161.2468
 20
38.0396
 30
0.0
 10
161.2468
 20
38.0396
 30
0.0
 10
158.6167
 20
39.0196
 30
0.0
 10
157.0592
 20
42.8973
 30
0.0
 10
159.989
 20
45.0474
 30
0.0
 10
159.989
 20
45.0474
 30
0.0
 10
154.7498
 20
47.1033
 30
0.0
 10
154.2881
 20
40.2411
 30
0.0
 10
157.4939
 20
33.0062
 30
0.0
 10
157.4939
 20
33.0062
 30
0.0
 10
160.3673
 20
27.7838
 30
0.0
 10
164.7958
 20
22.0177
 30
0.0
 10
169.965
 20
18.5546
 30
0.0
 10
169.965
 20
18.5546
 30
0.0
 10
169.965
 20
18.5546
 30
0.0
 10
169.9648
 20
18.5546
 30
0.0
 10
169.9648
 20
18.5546
 30
0.0
  0
SPLINE
  5
6D
330
1F
100
AcDbEntity
  8
layer 1
 62
     7
370
    13
100
AcDbSpline
210
0.0
220
0.0
230
1.0
 70
    11
 71
     3
 72
    36
 73
    32
 74
     0
 42
0.0000000001
 43
0.0000000001
 12
1.0
 22
0.0
 32
0.0
 13
1.0
 23
0.0
 33
0.0
 40
0.0
 40
0.0
 40
0.0
 40
0.0
 40
0.1111111111111111
 40
0.1111111111111111
 40
0.1111111111111111
 40
0.1111111111111111
 40
0.2222222222222222
 40
0.2222222222222222
 40
0.2222222222222222
 40
0.2222222222222222
 40
0.3333333333333333
 40
0.3333333333333333
 40
0.3333333333333333
 40
0.3333333333333333
 40
0.4444444444444444
 40
0.4444444444444444
 40
0.4444444444444444
 40
0.4444444444444444
 40
0.5555555555555556
 40
0.5555555555555556
 40
0.5555555555555556
 40
0.5555555555555556
 40
0.6666666666666666
 40
0.6666666666666666
 40
0.6666666666666666
 40
0.6666666666666666
 40
0.7777777777777778
 40
0.7777777777777778
 40
0.7777777777777778
 40
0.7777777777777778
 40
1.0
 40
1.0
 40
1.0
 40
1.0
 10
159.8374
 20
-16.7587
 30
0.0
 10
161.1504
 20
-22.5458
 30
0.0
 10
154.605
 20
-23.2261
 30
0.0
 10
152.9334
 20
-22.0877
 30
0.0
 10
152.9334
 20
-22.0877
 30
0.0
 10
153.7257
 20
-26.2398
 30
0.0
 10
163.1841
 20
-25.7723
 30
0.0
 10
165.8991
 20
-23.4181
 30
0.0
 10
165.8991
 20
-23.4181
 30
0.0
 10
167.5127
 20
-22.0788
 30
0.0
 10
171.0604
 20
-17.1283
 30
0.0
 10
169.0873
 20
-11.8662
 30
0.0
 10
169.0873
 20
-11.8662
 30
0.0
 10
163.2626
 20
-18.8638
 30
0.0
 10
157.8287
 20
-10.2514
 30
0.0
 10
162.8376
 20
-6.6868
 30
0.0
 10
162.8376
 20
-6.6868
 30
0.0
 10
156.0955
 20
-3.6505
 30
0.0
 10
157.6254
 20
3.6137
 30
0.0
 10
158.8264
 20
5.6999
 30
0.0
 10
158.8264
 20
5.6999
 30
0.0
 10
154.7398
 20
5.2587
 30
0.0
 10
146.1456
 20
1.0857
 30
0.0
 10
147.1745
 20
-10.4394
 30
0.0
 10
147.1745
 20
-10.4394
 30
0.0
 10
147.8448
 20
-16.7633
 30
0.0
 10
153.6071
 20
-21.7985
 30
0.0
 10
159.8376
 20
-16.7584
 30
0.0
 10
159.8376
 20
-16.7584
 30
0.0
 10
159.8376
 20
-16.7584
 30
0.0
 10
159.8374
 20
-16.7587
 30
0.0
 10
159.8374
 20
-16.7587
 30
0.0
  0
SPLINE
  5
6E
330
1F
100
AcDbEntity
  8
layer 1
 62
     7
370
    13
100
AcDbSpline
210
0.0
220
0.0
230
1.0
 70
    11
 71
     3
 72
    24
 73
    20
 74
     0
 42
0.0000000001
 43
0.0000000001
 12
1.0
 22
0.0
 32
0.0
 13
1.0
 23
0.0
 33
0.0
 40
0.0
 40
0.0
 40
0.0
 40
0.0
 40
0.1666666666666667
 40
0.1666666666666667
 40
0.1666666666666667
 40
0.1666666666666667
 40
0.3333333333333333
 40
0.3333333333333333
 40
0.3333333333333333
 40
0.3333333333333333
 40
0.5
 40
0.5
 40
0.5
 40
0.5
 40
0.6666666666666666
 40
0.6666666666666666
 40
0.6666666666666666
 40
0.6666666666666666
 40
1.0
 40
1.0
 40
1.0
 40
1.0
 10
171.5555
 20
-8.0502
 30
0.0
 10
171.7714
 20
-2.9802
 30
0.0
 10
175.9554
 20
0.3292
 30
0.0
 10
181.9579
 20
-2.8375
 30
0.0
 10
181.9579
 20
-2.8375
 30
0.0
 10
179.6551
 20
2.5237
 30
0.0
 10
172.7483
 20
6.6536
 30
0.0
 10
167.5758
 20
5.5436
 30
0.0
 10
167.5758
 20
5.5436
 30
0.0
 10
161.6023
 20
4.7378
 30
0.0
 10
161.1471
 20
-2.982
 30
0.0
 10
169.0075
 20
-3.137
 30
0.0
 10
169.0075
 20
-3.137
 30
0.0
 10
169.0832
 20
-4.3467
 30
0.0
 10
168.4293
 20
-5.382
 30
0.0
 10
166.6406
 20
-5.573
 30
0.0
 10
166.6406
 20
-5.573
 30
0.0
 10
169.7441
 20
-5.4935
 30
0.0
 10
170.7039
 20
-6.7507
 30
0.0
 10
171.5555
 20
-8.0502
 30
0.0
  0
SPLINE
  5
6F
330
1F
100
AcDbEntity
  8
layer 1
 62
     7
370
    13
100
AcDbSpline
210
0.0
220
0.0
230
1.0
 70
    11
 71
     3
 72
    12
 73
     8
 74
     0
 42
0.0000000001
 43
0.0000000001
 12
1.0
 22
0.0
 32
0.0
 13
1.0
 23
0.0
 33
0.0
 40
0.0
 40
0.0
 40
0.0
 40
0.0
 40
0.3333333333333333
 40
0.3333333333333333
 40
0.3333333333333333
 40
0.3333333333333333
 40
1.0
 40
1.0
 40
1.0
 40
1.0
 10
160.2174
 20
19.4646
 30
0.0
 10
162.0348
 20
16.6835
 30
0.0
 10
166.6285
 20
13.5181
 30
0.0
 10
168.4001
 20
12.0108
 30
0.0
 10
168.4001
 20
12.0108
 30
0.0
 10
161.989
 20
10.8364
 30
0.0
 10
157.7707
 20
13.5077
 30
0.0
 10
160.2174
 20
19.4646
 30
0.0
  0
SPLINE
  5
70
330
1F
100
AcDbEntity
  8
layer 1
 62
     7
370
    13
100
AcDbSpline
210
0.0
220
0.0
230
1.0
 70
    11
 71
     3
 72
    24
 73
    20
 74
     0
 42
0.0000000001
 43
0.0000000001
 12
1.0
 22
0.0
 32
0.0
 13
1.0
 23
0.0
 33
0.0
 40
0.0
 40
0.0
 40
0.0
 40
0.0
 40
0.1666666666666667
 40
0.1666666666666667
 40
0.1666666666666667
 40
0.1666666666666667
 40
0.3333333333333333
 40
0.3333333333333333
 40
0.3333333333333333
 40
0.3333333333333333
 40
0.5
 40
0.5
 40
0.5
 40
0.5
 40
0.6666666666666666
 40
0.6666666666666666
 40
0.6666666666666666
 40
0.6666666666666666
 40
1.0
 40
1.0
 40
1.0
 40
1.0
 10
174.5501
 20
57.5044
 30
0.0
 10
177.2838
 20
56.0262
 30
0.0
 10
182.5095
 20
57.7295
 30
0.0
 10
183.1673
 20
62.7744
 30
0.0
 10
183.1673
 20
62.7744
 30
0.0
 10
186.5327
 20
57.9154
 30
0.0
 10
185.8123
 20
47.7578
 30
0.0
 10
176.8061
 20
46.1936
 30
0.0
 10
176.8061
 20
46.1936
 30
0.0
 10
169.309
 20
45.3195
 30
0.0
 10
163.8889
 20
52.136
 30
0.0
 10
167.4541
 20
56.1456
 30
0.0
 10
167.4541
 20
56.1456
 30
0.0
 10
169.0448
 20
57.8985
 30
0.0
 10
172.8558
 20
57.7279
 30
0.0
 10
172.4412
 20
53.4996
 30
0.0
 10
172.4412
 20
53.4996
 30
0.0
 10
174.7125
 20
53.4894
 30
0.0
 10
175.2163
 20
56.2768
 30
0.0
 10
174.5501
 20
57.5044
 30
0.0
  0
SPLINE
  5
71
330
1F
100
AcDbEntity
  8
layer 1
 62
     7
370
    13
100
AcDbSpline
210
0.0
220
0.0
230
1.0
 70
    11
 71
     3
 72
    48
 73
    44
 74
     0
 42
0.0000000001
 43
0.0000000001
 12
1.0
 22
0.0
 32
0.0
 13
1.0
 23
0.0
 33
0.0
 40
0.0
 40
0.0
 40
0.0
 40
0.0
 40
0.0833333333333333
 40
0.0833333333333333
 40
0.0833333333333333
 40
0.0833333333333333
 40
0.1666666666666667
 40
0.1666666666666667
 40
0.1666666666666667
 40
0.1666666666666667
 40
0.25
 40
0.25
 40
0.25
 40
0.25
 40
0.3333333333333333
 40
0.3333333333333333
 40
0.3333333333333333
 40
0.3333333333333333
 40
0.4166666666666667
 40
0.4166666666666667
 40
0.4166666666666667
 40
0.4166666666666667
 40
0.5
 40
0.5
 40
0.5
 40
0.5
 40
0.5833333333333334
 40
0.5833333333333334
 40
0.5833333333333334
 40
0.5833333333333334
 40
0.6666666666666666
 40
0.6666666666666666
 40
0.6666666666666666
 40
0.6666666666666666
 40
0.75
 40
0.75
 40
0.75
 40
0.75
 40
0.8333333333333334
 40
0.8333333333333334
 40
0.8333333333333334
 40
0.8333333333333334
 40
1.0
 40
1.0
 40
1.0
 40
1.0
 10
170.4571
 20
61.9329
 30
0.0
 10
164.3017
 20
63.493
 30
0.0
 10
158.7901
 20
56.8747
 30
0.0
 10
162.5174
 20
49.7695
 30
0.0
 10
162.5174
 20
49.7695
 30
0.0
 10
159.6555
 20
52.0273
 30
0.0
 10
151.6383
 20
52.2078
 30
0.0
 10
149.7414
 20
40.1186
 30
0.0
 10
149.7414
 20
40.1186
 30
0.0
 10
149.1409
 20
40.3388
 30
0.0
 10
147.4461
 20
48.7905
 30
0.0
 10
152.4253
 20
53.0735
 30
0.0
 10
152.4253
 20
53.0735
 30
0.0
 10
150.0721
 20
53.4122
 30
0.0
 10
148.3305
 20
52.7367
 30
0.0
 10
147.2671
 20
51.8851
 30
0.0
 10
147.2671
 20
51.8851
 30
0.0
 10
148.8184
 20
59.4187
 30
0.0
 10
154.9868
 20
63.737
 30
0.0
 10
155.8814
 20
64.4048
 30
0.0
 10
155.8814
 20
64.4048
 30
0.0
 10
153.1268
 20
65.4636
 30
0.0
 10
150.0343
 20
63.8851
 30
0.0
 10
147.644
 20
61.7736
 30
0.0
 10
147.644
 20
61.7736
 30
0.0
 10
148.1578
 20
72.9179
 30
0.0
 10
164.7281
 20
76.6375
 30
0.0
 10
168.2073
 20
65.2628
 30
0.0
 10
168.2073
 20
65.2628
 30
0.0
 10
170.0786
 20
68.5845
 30
0.0
 10
168.5303
 20
73.4672
 30
0.0
 10
167.694
 20
74.0864
 30
0.0
 10
167.694
 20
74.0864
 30
0.0
 10
174.6877
 20
72.5931
 30
0.0
 10
178.5608
 20
70.2126
 30
0.0
 10
178.7845
 20
66.4011
 30
0.0
 10
178.7845
 20
66.4011
 30
0.0
 10
179.316
 20
63.3076
 30
0.0
 10
173.1151
 20
59.9522
 30
0.0
 10
171.9289
 20
66.829
 30
0.0
 10
171.9289
 20
66.829
 30
0.0
 10
169.2218
 20
66.4802
 30
0.0
 10
169.118
 20
62.3301
 30
0.0
 10
170.4571
 20
61.9329
 30
0.0
  0
SPLINE
  5
72
330
1F
100
AcDbEntity
  8
layer 1
 62
     7
370
    13
100
AcDbSpline
210
0.0
220
0.0
230
1.0
 70
    11
 71
     3
 72
    32
 73
    28
 74
     0
 42
0.0000000001
 43
0.0000000001
 12
1.0
 22
0.0
 32
0.0
 13
1.0
 23
0.0
 33
0.0
 40
0.0
 40
0.0
 40
0.0
 40
0.0
 40
0.125
 40
0.125
 40
0.125
 40
0.125
 40
0.25
 40
0.25
 40
0.25
 40
0.25
 40
0.375
 40
0.375
 40
0.375
 40
0.375
 40
0.5
 40
0.5
 40
0.5
 40
0.5
 40
0.625
 40
0.625
 40
0.625
 40
0.625
 40
0.75
 40
0.75
 40
0.75
 40
0.75
 40
1.0
 40
1.0
 40
1.0
 40
1.0
 10
178.5551
 20
98.4575
 30
0.0
 10
172.6583
 20
97.8818
 30
0.0
 10
176.248
 20
105.6208
 30
0.0
 10
180.0648
 20
101.9224
 30
0.0
 10
180.0648
 20
101.9224
 30
0.0
 10
184.5583
 20
94.6944
 30
0.0
 10
177.1252
 20
84.1979
 30
0.0
 10
167.1037
 20
80.8852
 30
0.0
 10
167.1037
 20
80.8852
 30
0.0
 10
169.4185
 20
90.8965
 30
0.0
 10
164.0751
 20
99.8825
 30
0.0
 10
158.509
 20
101.3797
 30
0.0
 10
158.509
 20
101.3797
 30
0.0
 10
158.5034
 20
102.4224
 30
0.0
 10
159.2717
 20
103.0182
 30
0.0
 10
159.7259
 20
103.5292
 30
0.0
 10
159.7259
 20
103.5292
 30
0.0
 10
162.3885
 20
99.2465
 30
0.0
 10
164.902
 20
96.4245
 30
0.0
 10
171.5384
 20
98.9654
 30
0.0
 10
171.5384
 20
98.9654
 30
0.0
 10
171.7225
 20
94.4987
 30
0.0
 10
179.7288
 20
93.8453
 30
0.0
 10
178.5549
 20
98.4575
 30
0.0
 10
178.5549
 20
98.4575
 30
0.0
 10
178.5549
 20
98.4575
 30
0.0
 10
178.5551
 20
98.4575
 30
0.0
 10
178.5551
 20
98.4575
 30
0.0
  0
SPLINE
  5
73
330
1F
100
AcDbEntity
  8
layer 1
 62
     7
370
    13
100
AcDbSpline
210
0.0
220
0.0
230
1.0
 70
    11
 71
     3
 72
    36
 73
    32
 74
     0
 42
0.0000000001
 43
0.0000000001
 12
1.0
 22
0.0
 32
0.0
 13
1.0
 23
0.0
 33
0.0
 40
0.0
 40
0.0
 40
0.0
 40
0.0
 40
0.1111111111111111
 40
0.1111111111111111
 40
0.1111111111111111
 40
0.1111111111111111
 40
0.2222222222222222
 40
0.2222222222222222
 40
0.2222222222222222
 40
0.2222222222222222
 40
0.3333333333333333
 40
0.3333333333333333
 40
0.3333333333333333
 40
0.3333333333333333
 40
0.4444444444444444
 40
0.4444444444444444
 40
0.4444444444444444
 40
0.4444444444444444
 40
0.5555555555555556
 40
0.5555555555555556
 40
0.5555555555555556
 40
0.5555555555555556
 40
0.6666666666666666
 40
0.6666666666666666
 40
0.6666666666666666
 40
0.6666666666666666
 40
0.7777777777777778
 40
0.7777777777777778
 40
0.7777777777777778
 40
0.7777777777777778
 40
1.0
 40
1.0
 40
1.0
 40
1.0
 10
167.1009
 20
105.5197
 30
0.0
 10
164.314
 20
105.1376
 30
0.0
 10
163.291
 20
111.2935
 30
0.0
 10
168.4692
 20
112.9119
 30
0.0
 10
168.4692
 20
112.9119
 30
0.0
 10
169.721
 20
113.0137
 30
0.0
 10
173.4586
 20
113.0012
 30
0.0
 10
174.7846
 20
106.7652
 30
0.0
 10
174.7846
 20
106.7652
 30
0.0
 10
179.4776
 20
108.1775
 30
0.0
 10
181.832
 20
106.9964
 30
0.0
 10
183.4323
 20
105.2195
 30
0.0
 10
183.4323
 20
105.2195
 30
0.0
 10
183.9287
 20
108.9838
 30
0.0
 10
181.8576
 20
112.904
 30
0.0
 10
180.3546
 20
114.3694
 30
0.0
 10
180.3546
 20
114.3694
 30
0.0
 10
175.8227
 20
120.2146
 30
0.0
 10
166.5618
 20
121.2928
 30
0.0
 10
162.5711
 20
113.3385
 30
0.0
 10
162.5711
 20
113.3385
 30
0.0
 10
160.7859
 20
108.4076
 30
0.0
 10
162.3854
 20
102.9446
 30
0.0
 10
165.5938
 20
102.3091
 30
0.0
 10
165.5938
 20
102.3091
 30
0.0
 10
171.2926
 20
101.1802
 30
0.0
 10
170.8975
 20
105.2295
 30
0.0
 10
170.8735
 20
105.9067
 30
0.0
 10
170.8735
 20
105.9067
 30
0.0
 10
170.8103
 20
107.6821
 30
0.0
 10
167.3093
 20
109.1821
 30
0.0
 10
167.1009
 20
105.5197
 30
0.0
  0
SPLINE
  5
74
330
1F
100
AcDbEntity
  8
layer 1
 62
     7
370
    13
100
AcDbSpline
210
0.0
220
0.0
230
1.0
 70
    11
 71
     3
 72
    48
 73
    44
 74
     0
 42
0.0000000001
 43
0.0000000001
 12
1.0
 22
0.0
 32
0.0
 13
1.0
 23
0.0
 33
0.0
 40
0.0
 40
0.0
 40
0.0
 40
0.0
 40
0.0833333333333333
 40
0.0833333333333333
 40
0.0833333333333333
 40
0.0833333333333333
 40
0.1666666666666667
 40
0.1666666666666667
 40
0.1666666666666667
 40
0.1666666666666667
 40
0.25
 40
0.25
 40
0.25
 40
0.25
 40
0.3333333333333333
 40
0.3333333333333333
 40
0.3333333333333333
 40
0.3333333333333333
 40
0.4166666666666667
 40
0.4166666666666667
 40
0.4166666666666667
 40
0.4166666666666667
 40
0.5
 40
0.5
 40
0.5
 40
0.5
 40
0.5833333333333334
 40
0.5833333333333334
 40
0.5833333333333334
 40
0.5833333333333334
 40
0.6666666666666666
 40
0.6666666666666666
 40
0.6666666666666666
 40
0.6666666666666666
 40
0.75
 40
0.75
 40
0.75
 40
0.75
 40
0.8333333333333334
 40
0.8333333333333334
 40
0.8333333333333334
 40
0.8333333333333334
 40
1.0
 40
1.0
 40
1.0
 40
1.0
 10
158.9668
 20
-46.0166
 30
0.0
 10
160.9811
 20
-44.4103
 30
0.0
 10
162.1013
 20
-43.632
 30
0.0
 10
163.3079
 20
-42.8689
 30
0.0
 10
163.3079
 20
-42.8689
 30
0.0
 10
160.4056
 20
-42.9029
 30
0.0
 10
158.4279
 20
-37.9071
 30
0.0
 10
161.8478
 20
-35.4869
 30
0.0
 10
161.8478
 20
-35.4869
 30
0.0
 10
162.3048
 20
-38.5321
 30
0.0
 10
165.0181
 20
-41.9812
 30
0.0
 10
170.6604
 20
-36.9662
 30
0.0
 10
170.6604
 20
-36.9662
 30
0.0
 10
177.5237
 20
-30.531
 30
0.0
 10
179.4037
 20
-26.9549
 30
0.0
 10
181.0285
 20
-23.5002
 30
0.0
 10
181.0285
 20
-23.5002
 30
0.0
 10
186.6869
 20
-11.4703
 30
0.0
 10
175.6097
 20
-12.5527
 30
0.0
 10
178.4523
 20
-19.0019
 30
0.0
 10
178.4523
 20
-19.0019
 30
0.0
 10
176.602
 20
-21.2885
 30
0.0
 10
170.4502
 20
-12.8179
 30
0.0
 10
181.22
 20
-10.6238
 30
0.0
 10
181.22
 20
-10.6238
 30
0.0
 10
181.7441
 20
-6.9535
 30
0.0
 10
174.4355
 20
-3.0242
 30
0.0
 10
173.3151
 20
-9.7174
 30
0.0
 10
173.3151
 20
-9.7174
 30
0.0
 10
174.9232
 20
-13.8089
 30
0.0
 10
174.1217
 20
-18.7807
 30
0.0
 10
173.2706
 20
-20.9883
 30
0.0
 10
173.2706
 20
-20.9883
 30
0.0
 10
172.6801
 20
-23.3969
 30
0.0
 10
166.4311
 20
-32.1586
 30
0.0
 10
152.8529
 20
-28.7531
 30
0.0
 10
152.8529
 20
-28.7531
 30
0.0
 10
151.6936
 20
-36.6
 30
0.0
 10
155.9837
 20
-44.185
 30
0.0
 10
158.9668
 20
-46.0171
 30
0.0
 10
158.9668
 20
-46.0171
 30
0.0
 10
158.9668
 20
-46.0171
 30
0.0
 10
158.9668
 20
-46.0166
 30
0.0
 10
158.9668
 20
-46.0166
 30
0.0
  0
SPLINE
  5
75
330
1F
100
AcDbEntity
  8
layer 1
 62
     7
370
    13
100
AcDbSpline
210
0.0
220
0.0
230
1.0
 70
    11
 71
     3
 72
    40
 73
    36
 74
     0
 42
0.0000000001
 43
0.0000000001
 12
1.0
 22
0.0
 32
0.0
 13
1.0
 23
0.0
 33
0.0
 40
0.0
 40
0.0
 40
0.0
 40
0.0
 40
0.1
 40
0.1
 40
0.1
 40
0.1
 40
0.2
 40
0.2
 40
0.2
 40
0.2
 40
0.3
 40
0.3
 40
0.3
 40
0.3
 40
0.4
 40
0.4
 40
0.4
 40
0.4
 40
0.5
 40
0.5
 40
0.5
 40
0.5
 40
0.6
 40
0.6
 40
0.6
 40
0.6
 40
0.7
 40
0.7
 40
0.7
 40
0.7
 40
0.8
 40
0.8
 40
0.8
 40
0.8
 40
1.0
 40
1.0
 40
1.0
 40
1.0
 10
175.3603
 20
-92.3722
 30
0.0
 10
176.7772
 20
-98.5334
 30
0.0
 10
166.495
 20
-101.7883
 30
0.0
 10
163.9173
 20
-94.5522
 30
0.0
 10
163.9173
 20
-94.5522
 30
0.0
 10
162.5585
 20
-96.4782
 30
0.0
 10
161.3775
 20
-98.0053
 30
0.0
 10
159.3202
 20
-99.3193
 30
0.0
 10
159.3202
 20
-99.3193
 30
0.0
 10
169.574
 20
-107.0419
 30
0.0
 10
179.2792
 20
-101.9801
 30
0.0
 10
182.597
 20
-96.6265
 30
0.0
 10
182.597
 20
-96.6265
 30
0.0
 10
175.9168
 20
-100.407
 30
0.0
 10
173.0015
 20
-85.2644
 30
0.0
 10
184.0701
 20
-89.4433
 30
0.0
 10
184.0701
 20
-89.4433
 30
0.0
 10
184.2637
 20
-88.0866
 30
0.0
 10
182.5504
 20
-84.5063
 30
0.0
 10
180.6743
 20
-83.7974
 30
0.0
 10
180.6743
 20
-83.7974
 30
0.0
 10
177.4751
 20
-82.5885
 30
0.0
 10
175.6946
 20
-85.8708
 30
0.0
 10
178.3063
 20
-87.4413
 30
0.0
 10
178.3063
 20
-87.4413
 30
0.0
 10
174.5371
 20
-91.7816
 30
0.0
 10
167.0633
 20
-80.8202
 30
0.0
 10
177.7638
 20
-79.5921
 30
0.0
 10
177.7638
 20
-79.5921
 30
0.0
 10
167.663
 20
-77.2704
 30
0.0
 10
164.5012
 20
-85.3851
 30
0.0
 10
165.8605
 20
-89.3484
 30
0.0
 10
165.8605
 20
-89.3484
 30
0.0
 10
167.639
 20
-86.8884
 30
0.0
 10
174.7672
 20
-86.2078
 30
0.0
 10
175.3603
 20
-92.3722
 30
0.0
  0
SPLINE
  5
76
330
1F
100
AcDbEntity
  8
layer 1
 62
     7
370
    13
100
AcDbSpline
210
0.0
220
0.0
230
1.0
 70
    11
 71
     3
 72
    68
 73
    64
 74
     0
 42
0.0000000001
 43
0.0000000001
 12
1.0
 22
0.0
 32
0.0
 13
1.0
 23
0.0
 33
0.0
 40
0.0
 40
0.0
 40
0.0
 40
0.0
 40
0.0588235294117647
 40
0.0588235294117647
 40
0.0588235294117647
 40
0.0588235294117647
 40
0.1176470588235294
 40
0.1176470588235294
 40
0.1176470588235294
 40
0.1176470588235294
 40
0.1764705882352941
 40
0.1764705882352941
 40
0.1764705882352941
 40
0.1764705882352941
 40
0.2352941176470588
 40
0.2352941176470588
 40
0.2352941176470588
 40
0.2352941176470588
 40
0.2941176470588235
 40
0.2941176470588235
 40
0.2941176470588235
 40
0.2941176470588235
 40
0.3529411764705883
 40
0.3529411764705883
 40
0.3529411764705883
 40
0.3529411764705883
 40
0.4117647058823529
 40
0.4117647058823529
 40
0.4117647058823529
 40
0.4117647058823529
 40
0.4705882352941176
 40
0.4705882352941176
 40
0.4705882352941176
 40
0.4705882352941176
 40
0.5294117647058824
 40
0.5294117647058824
 40
0.5294117647058824
 40
0.5294117647058824
 40
0.5882352941176471
 40
0.5882352941176471
 40
0.5882352941176471
 40
0.5882352941176471
 40
0.6470588235294118
 40
0.6470588235294118
 40
0.6470588235294118
 40
0.6470588235294118
 40
0.7058823529411765
 40
0.7058823529411765
 40
0.7058823529411765
 40
0.7058823529411765
 40
0.7647058823529411
 40
0.7647058823529411
 40
0.7647058823529411
 40
0.7647058823529411
 40
0.8235294117647058
 40
0.8235294117647058
 40
0.8235294117647058
 40
0.8235294117647058
 40
0.8823529411764706
 40
0.8823529411764706
 40
0.8823529411764706
 40
0.8823529411764706
 40
1.0
 40
1.0
 40
1.0
 40
1.0
 10
161.679
 20
-92.5775
 30
0.0
 10
160.8553
 20
-89.6267
 30
0.0
 10
161.079
 20
-83.8197
 30
0.0
 10
161.9371
 20
-81.8115
 30
0.0
 10
161.9371
 20
-81.8115
 30
0.0
 10
146.9354
 20
-82.5923
 30
0.0
 10
152.7253
 20
-61.5636
 30
0.0
 10
163.2156
 20
-69.7987
 30
0.0
 10
163.2156
 20
-69.7987
 30
0.0
 10
154.9298
 20
-72.3905
 30
0.0
 10
160.3849
 20
-80.4622
 30
0.0
 10
167.6745
 20
-75.6219
 30
0.0
 10
167.6745
 20
-75.6219
 30
0.0
 10
172.8161
 20
-72.2076
 30
0.0
 10
179.5763
 20
-73.8086
 30
0.0
 10
181.2896
 20
-75.8091
 30
0.0
 10
181.2896
 20
-75.8091
 30
0.0
 10
181.8292
 20
-72.959
 30
0.0
 10
181.9167
 20
-71.6731
 30
0.0
 10
181.799
 20
-69.8118
 30
0.0
 10
181.799
 20
-69.8118
 30
0.0
 10
178.171
 20
-71.9795
 30
0.0
 10
171.6998
 20
-70.2665
 30
0.0
 10
169.1648
 20
-65.3633
 30
0.0
 10
169.1648
 20
-65.3633
 30
0.0
 10
168.6165
 20
-67.7282
 30
0.0
 10
163.9654
 20
-68.9202
 30
0.0
 10
160.2668
 20
-66.976
 30
0.0
 10
160.2668
 20
-66.976
 30
0.0
 10
158.2325
 20
-65.9067
 30
0.0
 10
156.8137
 20
-60.5964
 30
0.0
 10
162.0736
 20
-59.5245
 30
0.0
 10
162.0736
 20
-59.5245
 30
0.0
 10
163.9695
 20
-60.9148
 30
0.0
 10
165.859
 20
-62.2257
 30
0.0
 10
166.429
 20
-58.1836
 30
0.0
 10
166.429
 20
-58.1836
 30
0.0
 10
167.0825
 20
-53.5515
 30
0.0
 10
166.8275
 20
-46.6138
 30
0.0
 10
166.9152
 20
-45.9711
 30
0.0
 10
166.9152
 20
-45.9711
 30
0.0
 10
155.5277
 20
-52.552
 30
0.0
 10
148.8509
 20
-67.8307
 30
0.0
 10
147.9998
 20
-70.0384
 30
0.0
 10
147.9998
 20
-70.0384
 30
0.0
 10
147.2164
 20
-72.6122
 30
0.0
 10
145.7001
 20
-79.6072
 30
0.0
 10
149.7742
 20
-84.8772
 30
0.0
 10
149.7742
 20
-84.8772
 30
0.0
 10
151.0831
 20
-86.5705
 30
0.0
 10
154.2669
 20
-90.0321
 30
0.0
 10
160.2993
 20
-86.7945
 30
0.0
 10
160.2993
 20
-86.7945
 30
0.0
 10
160.2627
 20
-88.1201
 30
0.0
 10
160.0422
 20
-89.9026
 30
0.0
 10
157.1085
 20
-92.0934
 30
0.0
 10
157.1085
 20
-92.0934
 30
0.0
 10
159.1359
 20
-92.0233
 30
0.0
 10
160.6875
 20
-92.1893
 30
0.0
 10
161.6788
 20
-92.5775
 30
0.0
 10
161.6788
 20
-92.5775
 30
0.0
 10
161.6788
 20
-92.5775
 30
0.0
 10
161.679
 20
-92.5775
 30
0.0
 10
161.679
 20
-92.5775
 30
0.0
  0
SPLINE
  5
77
330
1F
100
AcDbEntity
  8
layer 1
 62
     7
370
    13
100
AcDbSpline
210
0.0
220
0.0
230
1.0
 70
    11
 71
     3
 72
    16
 73
    12
 74
     0
 42
0.0000000001
 43
0.0000000001
 12
1.0
 22
0.0
 32
0.0
 13
1.0
 23
0.0
 33
0.0
 40
0.0
 40
0.0
 40
0.0
 40
0.0
 40
0.25
 40
0.25
 40
0.25
 40
0.25
 40
0.5
 40
0.5
 40
0.5
 40
0.5
 40
1.0
 40
1.0
 40
1.0
 40
1.0
 10
151.1984
 20
-107.7726
 30
0.0
 10
153.5183
 20
-106.2673
 30
0.0
 10
154.6073
 20
-105.4417
 30
0.0
 10
155.4878
 20
-103.8029
 30
0.0
 10
155.4878
 20
-103.8029
 30
0.0
 10
157.7407
 20
-106.2
 30
0.0
 10
161.6995
 20
-107.2074
 30
0.0
 10
166.6058
 20
-107.7726
 30
0.0
 10
166.6058
 20
-107.7726
 30
0.0
 10
166.6058
 20
-107.7726
 30
0.0
 10
151.1984
 20
-107.7726
 30
0.0
 10
151.1984
 20
-107.7726
 30
0.0
  0
ENDSEC
  0
SECTION
  2
OBJECTS
  0
DICTIONARY
  5
C
330
0
100
AcDbDictionary
281
     1
  3
ACAD_GROUP
350
D
  3
ACAD_LAYOUT
350
1A
  3
ACAD_MATERIAL
350
3B
  3
ACAD_MLEADERSTYLE
350
9A
  3
ACAD_MLINESTYLE
350
17
  3
ACAD_PLOTSETTINGS
350
19
  3
ACAD_PLOTSTYLENAME
350
E
  3
ACAD_TABLESTYLE
350
99
  3
ACAD_VISUALSTYLE
350
2A
  0
DICTIONARY
  5
D
102
{ACAD_REACTORS
330
C
102
}
330
C
100
AcDbDictionary
281
     1
  0
DICTIONARY
  5
1A
102
{ACAD_REACTORS
330
C
102
}
330
C
100
AcDbDictionary
281
     1
  3
Layout1
350
1E
  3
Layout2
350
26
  3
Model
350
22
  0
DICTIONARY
  5
3B
102
{ACAD_REACTORS
330
C
102
}
330
C
100
AcDbDictionary
281
     1
  3
ByBlock
350
3D
  3
ByLayer
350
3C
  3
Global
350
3E
  0
DICTIONARY
  5
9A
102
{ACAD_REACTORS
330
C
102
}
330
C
100
AcDbDictionary
281
     1
  0
DICTIONARY
  5
17
102
{ACAD_REACTORS
330
C
102
}
330
C
100
AcDbDictionary
281
     1
  3
Standard
350
18
  0
DICTIONARY
  5
19
102
{ACAD_REACTORS
330
C
102
}
330
C
100
AcDbDictionary
281
     1
  0
ACDBDICTIONARYWDFLT
  5
E
102
{ACAD_REACTORS
330
C
102
}
330
C
100
AcDbDictionary
281
     1
  3
Normal
350
F
100
AcDbDictionaryWithDefault
340
F
  0
DICTIONARY
  5
99
102
{ACAD_REACTORS
330
C
102
}
330
C
100
AcDbDictionary
281
     1
  0
DICTIONARY
  5
2A
102
{ACAD_REACTORS
330
C
102
}
330
C
100
AcDbDictionary
281
     1
  3
2dWireframe
350
2F
  3
3D Hidden
350
31
  3
3dWireframe
350
30
  3
Basic
350
32
  3
Brighten
350
36
  3
ColorChange
350
3A
  3
Conceptual
350
34
  3
Dim
350
35
  3
Facepattern
350
39
  3
Flat
350
2B
  3
FlatWithEdges
350
2C
  3
Gouraud
350
2D
  3
GouraudWithEdges
350
2E
  3
Linepattern
350
38
  3
Realistic
350
33
  3
Thicken
350
37
  0
LAYOUT
  5
1E
102
{ACAD_REACTORS
330
1A
102
}
330
1A
100
AcDbPlotSettings
  1

  2
none_device
  4

  6

 40
0.0
 41
0.0
 42
0.0
 43
0.0
 44
0.0
 45
0.0
 46
0.0
 47
0.0
 48
0.0
 49
0.0
140
0.0
141
0.0
142
1.0
143
1.0
 70
   688
 72
     0
 73
     0
 74
     5
  7

 75
    16
 76
     0
 77
     2
 78
   300
147
1.0
148
0.0
149
0.0
100
AcDbLayout
  1
Layout1
 70
     1
 71
     1
 10
0.0
 20
0.0
 11
12.0
 21
9.0
 12
0.0
 22
0.0
 32
0.0
 14
1.000000000000000E+20
 24
1.000000000000000E+20
 34
1.000000000000000E+20
 15
-1.000000000000000E+20
 25
-1.000000000000000E+20
 35
-1.000000000000000E+20
146
0.0
 13
0.0
 23
0.0
 33
0.0
 16
1.0
 26
0.0
 36
0.0
 17
0.0
 27
1.0
 37
0.0
 76
     0
330
1B
  0
LAYOUT
  5
26
102
{ACAD_REACTORS
330
1A
102
}
330
1A
100
AcDbPlotSettings
  1

  2
none_device
  4

  6

 40
0.0
 41
0.0
 42
0.0
 43
0.0
 44
0.0
 45
0.0
 46
0.0
 47
0.0
 48
0.0
 49
0.0
140
0.0
141
0.0
142
1.0
143
1.0
 70
   688
 72
     0
 73
     0
 74
     5
  7

 75
    16
 76
     0
 77
     2
 78
   300
147
1.0
148
0.0
149
0.0
100
AcDbLayout
  1
Layout2
 70
     1
 71
     2
 10
0.0
 20
0.0
 11
0.0
 21
0.0
 12
0.0
 22
0.0
 32
0.0
 14
0.0
 24
0.0
 34
0.0
 15
0.0
 25
0.0
 35
0.0
146
0.0
 13
0.0
 23
0.0
 33
0.0
 16
1.0
 26
0.0
 36
0.0
 17
0.0
 27
1.0
 37
0.0
 76
     0
330
23
  0
LAYOUT
  5
22
102
{ACAD_REACTORS
330
1A
102
}
330
1A
100
AcDbPlotSettings
  1

  2
none_device
  4

  6

 40
0.0
 41
0.0
 42
0.0
 43
0.0
 44
0.0
 45
0.0
 46
0.0
 47
0.0
 48
0.0
 49
0.0
140
0.0
141
0.0
142
1.0
143
1.0
 70
  1712
 72
     0
 73
     0
 74
     0
  7

 75
     0
 76
     0
 77
     2
 78
   300
147
1.0
148
0.0
149
0.0
100
AcDbLayout
  1
Model
 70
     1
 71
     0
 10
0.0
 20
0.0
 11
12.0
 21
9.0
 12
0.0
 22
0.0
 32
0.0
 14
89.4906
 24
-114.8959
 34
0.0
 15
196.3193
 25
131.7723
 35
0.0
146
0.0
 13
0.0
 23
0.0
 33
0.0
 16
1.0
 26
0.0
 36
0.0
 17
0.0
 27
1.0
 37
0.0
 76
     0
330
1F
331
29
  0
MATERIAL
  5
3D
102
{ACAD_REACTORS
330
3B
102
}
330
3B
100
AcDbMaterial
  1
ByBlock
 72
     1
 94
      127
  0
MATERIAL
  5
3C
102
{ACAD_REACTORS
330
3B
102
}
330
3B
100
AcDbMaterial
  1
ByLayer
 72
     1
 94
      127
  0
MATERIAL
  5
3E
102
{ACAD_REACTORS
330
3B
102
}
330
3B
100
AcDbMaterial
  1
Global
 72
     1
 94
      127
  0
MLINESTYLE
  5
18
102
{ACAD_REACTORS
330
17
102
}
330
17
100
AcDbMlineStyle
  2
Standard
 70
     0
  3

 62
   256
 51
90.0
 52
90.0
 71
     2
 49
0.5
 62
   256
  6
BYLAYER
 49
-0.5
 62
   256
  6
BYLAYER
  0
ACDBPLACEHOLDER
  5
F
102
{ACAD_REACTORS
330
E
102
}
330
E
  0
VISUALSTYLE
  5
2F
102
{ACAD_REACTORS
330
2A
102
}
102
{ACAD_XDICTIONARY
360
81
102
}
330
2A
100
AcDbVisualStyle
  2
2dWireframe
 70
     4
 71
     0
 72
     2
 73
     0
 90
        0
 40
-0.6
 41
-30.0
 62
     5
 63
     7
421
 16777215
 74
     1
 91
        4
 64
     7
 65
   257
 75
     1
175
     1
 42
1.0
 92
        0
 66
   257
 43
1.0
 76
     1
 77
     6
 78
     2
 67
     7
 79
     5
170
     0
171
     0
290
     0
174
     0
 93
        1
 44
0.0
173
     0
291
     0
 45
0.0
  0
VISUALSTYLE
  5
31
102
{ACAD_REACTORS
330
2A
102
}
102
{ACAD_XDICTIONARY
360
85
102
}
330
2A
100
AcDbVisualStyle
  2
3D Hidden
 70
     6
 71
     1
 72
     2
 73
     2
 90
        0
 40
-0.6
 41
-30.0
 62
     5
 63
     7
421
 16777215
 74
     2
 91
        2
 64
     7
 65
   257
 75
     2
175
     1
 42
40.0
 92
        0
 66
   257
 43
1.0
 76
     1
 77
     6
 78
     2
 67
     7
 79
     3
170
     0
171
     0
290
     0
174
     0
 93
        1
 44
0.0
173
     0
291
     0
 45
0.0
  0
VISUALSTYLE
  5
30
102
{ACAD_REACTORS
330
2A
102
}
102
{ACAD_XDICTIONARY
360
83
102
}
330
2A
100
AcDbVisualStyle
  2
3dWireframe
 70
     5
 71
     0
 72
     2
 73
     0
 90
        0
 40
-0.6
 41
-30.0
 62
     5
 63
     7
421
 16777215
 74
     1
 91
        4
 64
     7
 65
   257
 75
     1
175
     1
 42
1.0
 92
        0
 66
   257
 43
1.0
 76
     1
 77
     6
 78
     2
 67
     7
 79
     5
170
     0
171
     0
290
     0
174
     0
 93
        1
 44
0.0
173
     0
291
     0
 45
0.0
  0
VISUALSTYLE
  5
32
102
{ACAD_REACTORS
330
2A
102
}
102
{ACAD_XDICTIONARY
360
87
102
}
330
2A
100
AcDbVisualStyle
  2
Basic
 70
     7
 71
     1
 72
     0
 73
     1
 90
        0
 40
-0.6
 41
-30.0
 62
     5
 63
     7
421
 16777215
 74
     0
 91
        4
 64
     7
 65
   257
 75
     1
175
     1
 42
1.0
 92
        8
 66
     7
 43
1.0
 76
     1
 77
     6
 78
     2
 67
     7
 79
     5
170
     0
171
     0
290
     0
174
     0
 93
        1
 44
0.0
173
     0
291
     1
 45
0.0
  0
VISUALSTYLE
  5
36
102
{ACAD_REACTORS
330
2A
102
}
102
{ACAD_XDICTIONARY
360
8F
102
}
330
2A
100
AcDbVisualStyle
  2
Brighten
 70
    12
 71
     2
 72
     2
 73
     0
 90
        0
 40
-0.6
 41
-30.0
 62
     5
 63
     7
421
 16777215
 74
     1
 91
        4
 64
     7
 65
   257
 75
     1
175
     1
 42
1.0
 92
        8
 66
     7
 43
1.0
 76
     1
 77
     6
 78
     2
 67
     7
 79
     5
170
     0
171
     0
290
     0
174
     0
 93
        1
 44
50.0
173
     0
291
     1
 45
0.0
  0
VISUALSTYLE
  5
3A
102
{ACAD_REACTORS
330
2A
102
}
102
{ACAD_XDICTIONARY
360
97
102
}
330
2A
100
AcDbVisualStyle
  2
ColorChange
 70
    16
 71
     2
 72
     2
 73
     3
 90
        0
 40
-0.6
 41
-30.0
 62
     5
 63
     8
421
  8421504
 74
     1
 91
        4
 64
     7
 65
   257
 75
     1
175
     1
 42
1.0
 92
        8
 66
     8
424
  8421504
 43
1.0
 76
     1
 77
     6
 78
     2
 67
     7
 79
     5
170
     0
171
     0
290
     0
174
     0
 93
        1
 44
0.0
173
     0
291
     1
 45
0.0
  0
VISUALSTYLE
  5
34
102
{ACAD_REACTORS
330
2A
102
}
102
{ACAD_XDICTIONARY
360
8B
102
}
330
2A
100
AcDbVisualStyle
  2
Conceptual
 70
     9
 71
     3
 72
     2
 73
     0
 90
        0
 40
-0.6
 41
-30.0
 62
     5
 63
     7
421
 16777215
 74
     2
 91
        2
 64
     7
 65
   257
 75
     1
175
     1
 42
40.0
 92
        8
 66
     7
 43
1.0
 76
     1
 77
     6
 78
     2
 67
     7
 79
     3
170
     0
171
     0
290
     0
174
     0
 93
        1
 44
0.0
173
     0
291
     0
 45
0.0
  0
VISUALSTYLE
  5
35
102
{ACAD_REACTORS
330
2A
102
}
102
{ACAD_XDICTIONARY
360
8D
102
}
330
2A
100
AcDbVisualStyle
  2
Dim
 70
    11
 71
     2
 72
     2
 73
     0
 90
        0
 40
-0.6
 41
-30.0
 62
     5
 63
     7
421
 16777215
 74
     1
 91
        4
 64
     7
 65
   257
 75
     1
175
     1
 42
1.0
 92
        8
 66
     7
 43
1.0
 76
     1
 77
     6
 78
     2
 67
     7
 79
     5
170
     0
171
     0
290
     0
174
     0
 93
        1
 44
-50.0
173
     0
291
     1
 45
0.0
  0
VISUALSTYLE
  5
39
102
{ACAD_REACTORS
330
2A
102
}
102
{ACAD_XDICTIONARY
360
95
102
}
330
2A
100
AcDbVisualStyle
  2
Facepattern
 70
    15
 71
     2
 72
     2
 73
     0
 90
        0
 40
-0.6
 41
-30.0
 62
     5
 63
     7
421
 16777215
 74
     1
 91
        4
 64
     7
 65
   257
 75
     1
175
     1
 42
1.0
 92
        8
 66
     7
 43
1.0
 76
     1
 77
     6
 78
     2
 67
     7
 79
     5
170
     0
171
     0
290
     0
174
     0
 93
        1
 44
0.0
173
     0
291
     1
 45
0.0
  0
VISUALSTYLE
  5
2B
102
{ACAD_REACTORS
330
2A
102
}
102
{ACAD_XDICTIONARY
360
79
102
}
330
2A
100
AcDbVisualStyle
  2
Flat
 70
     0
 71
     2
 72
     1
 73
     1
 90
        2
 40
-0.6
 41
30.0
 62
     5
 63
     7
421
 16777215
 74
     0
 91
        4
 64
     7
 65
   257
 75
     1
175
     1
 42
1.0
 92
        8
 66
     7
 43
1.0
 76
     1
 77
     6
 78
     2
 67
     7
 79
     5
170
     0
171
     0
290
     0
174
     0
 93
       13
 44
0.0
173
     0
291
     1
 45
0.0
  0
VISUALSTYLE
  5
2C
102
{ACAD_REACTORS
330
2A
102
}
102
{ACAD_XDICTIONARY
360
7B
102
}
330
2A
100
AcDbVisualStyle
  2
FlatWithEdges
 70
     1
 71
     2
 72
     1
 73
     1
 90
        2
 40
-0.6
 41
30.0
 62
     5
 63
     7
421
 16777215
 74
     1
 91
        4
 64
     7
 65
   257
 75
     1
175
     1
 42
1.0
 92
        0
 66
   257
 43
1.0
 76
     1
 77
     6
 78
     2
 67
     7
 79
     5
170
     0
171
     0
290
     0
174
     0
 93
       13
 44
0.0
173
     0
291
     1
 45
0.0
  0
VISUALSTYLE
  5
2D
102
{ACAD_REACTORS
330
2A
102
}
102
{ACAD_XDICTIONARY
360
7D
102
}
330
2A
100
AcDbVisualStyle
  2
Gouraud
 70
     2
 71
     2
 72
     2
 73
     1
 90
        2
 40
-0.6
 41
30.0
 62
     5
 63
     7
421
 16777215
 74
     0
 91
        4
 64
     7
 65
   257
 75
     1
175
     1
 42
1.0
 92
        0
 66
     7
 43
1.0
 76
     1
 77
     6
 78
     2
 67
     7
 79
     5
170
     0
171
     0
290
     0
174
     0
 93
       13
 44
0.0
173
     0
291
     1
 45
0.0
  0
VISUALSTYLE
  5
2E
102
{ACAD_REACTORS
330
2A
102
}
102
{ACAD_XDICTIONARY
360
7F
102
}
330
2A
100
AcDbVisualStyle
  2
GouraudWithEdges
 70
     3
 71
     2
 72
     2
 73
     1
 90
        2
 40
-0.6
 41
30.0
 62
     5
 63
     7
421
 16777215
 74
     1
 91
        4
 64
     7
 65
   257
 75
     1
175
     1
 42
1.0
 92
        0
 66
   257
 43
1.0
 76
     1
 77
     6
 78
     2
 67
     7
 79
     5
170
     0
171
     0
290
     0
174
     0
 93
       13
 44
0.0
173
     0
291
     1
 45
0.0
  0
VISUALSTYLE
  5
38
102
{ACAD_REACTORS
330
2A
102
}
102
{ACAD_XDICTIONARY
360
93
102
}
330
2A
100
AcDbVisualStyle
  2
Linepattern
 70
    14
 71
     2
 72
     2
 73
     0
 90
        0
 40
-0.6
 41
-30.0
 62
     5
 63
     7
421
 16777215
 74
     1
 91
        4
 64
     7
 65
   257
 75
     7
175
     7
 42
1.0
 92
        8
 66
     7
 43
1.0
 76
     1
 77
     6
 78
     2
 67
     7
 79
     5
170
     0
171
     0
290
     0
174
     0
 93
        1
 44
0.0
173
     0
291
     1
 45
0.0
  0
VISUALSTYLE
  5
33
102
{ACAD_REACTORS
330
2A
102
}
102
{ACAD_XDICTIONARY
360
89
102
}
330
2A
100
AcDbVisualStyle
  2
Realistic
 70
     8
 71
     2
 72
     2
 73
     0
 90
        0
 40
-0.6
 41
-30.0
 62
     5
 63
     7
421
 16777215
 74
     1
 91
        0
 64
     7
 65
   257
 75
     1
175
     1
 42
1.0
 92
        8
 66
     8
424
  7895160
 43
1.0
 76
     1
 77
     6
 78
     2
 67
     7
 79
     5
170
     0
171
     0
290
     0
174
     0
 93
       13
 44
0.0
173
     0
291
     0
 45
0.0
  0
VISUALSTYLE
  5
37
102
{ACAD_REACTORS
330
2A
102
}
102
{ACAD_XDICTIONARY
360
91
102
}
330
2A
100
AcDbVisualStyle
  2
Thicken
 70
    13
 71
     2
 72
     2
 73
     0
 90
        0
 40
-0.6
 41
-30.0
 62
     5
 63
     7
421
 16777215
 74
     1
 91
        4
 64
     7
 65
   257
 75
     1
175
     1
 42
1.0
 92
       12
 66
     7
 43
1.0
 76
     1
 77
     6
 78
     2
 67
     7
 79
     5
170
     0
171
     0
290
     0
174
     0
 93
        1
 44
0.0
173
     0
291
     1
 45
0.0
  0
DICTIONARY
  5
81
330
2F
100
AcDbDictionary
280
     1
281
     1
  3
ACAD_XREC_ROUNDTRIP
360
82
  0
DICTIONARY
  5
85
330
31
100
AcDbDictionary
280
     1
281
     1
  3
ACAD_XREC_ROUNDTRIP
360
86
  0
DICTIONARY
  5
83
330
30
100
AcDbDictionary
280
     1
281
     1
  3
ACAD_XREC_ROUNDTRIP
360
84
  0
DICTIONARY
  5
87
330
32
100
AcDbDictionary
280
     1
281
     1
  3
ACAD_XREC_ROUNDTRIP
360
88
  0
DICTIONARY
  5
8F
330
36
100
AcDbDictionary
280
     1
281
     1
  3
ACAD_XREC_ROUNDTRIP
360
90
  0
DICTIONARY
  5
97
330
3A
100
AcDbDictionary
280
     1
281
     1
  3
ACAD_XREC_ROUNDTRIP
360
98
  0
DICTIONARY
  5
8B
330
34
100
AcDbDictionary
280
     1
281
     1
  3
ACAD_XREC_ROUNDTRIP
360
8C
  0
DICTIONARY
  5
8D
330
35
100
AcDbDictionary
280
     1
281
     1
  3
ACAD_XREC_ROUNDTRIP
360
8E
  0
DICTIONARY
  5
95
330
39
100
AcDbDictionary
280
     1
281
     1
  3
ACAD_XREC_ROUNDTRIP
360
96
  0
DICTIONARY
  5
79
330
2B
100
AcDbDictionary
280
     1
281
     1
  3
ACAD_XREC_ROUNDTRIP
360
7A
  0
DICTIONARY
  5
7B
330
2C
100
AcDbDictionary
280
     1
281
     1
  3
ACAD_XREC_ROUNDTRIP
360
7C
  0
DICTIONARY
  5
7D
330
2D
100
AcDbDictionary
280
     1
281
     1
  3
ACAD_XREC_ROUNDTRIP
360
7E
  0
DICTIONARY
  5
7F
330
2E
100
AcDbDictionary
280
     1
281
     1
  3
ACAD_XREC_ROUNDTRIP
360
80
  0
DICTIONARY
  5
93
330
38
100
AcDbDictionary
280
     1
281
     1
  3
ACAD_XREC_ROUNDTRIP
360
94
  0
DICTIONARY
  5
89
330
33
100
AcDbDictionary
280
     1
281
     1
  3
ACAD_XREC_ROUNDTRIP
360
8A
  0
DICTIONARY
  5
91
330
37
100
AcDbDictionary
280
     1
281
     1
  3
ACAD_XREC_ROUNDTRIP
360
92
  0
XRECORD
  5
82
102
{ACAD_REACTORS
330
81
102
}
330
81
100
AcDbXrecord
280
     1
102
RTVSPropertyOp0
 70
     1
102
RTVSPropertyOp1
 70
     1
102
RTVSPropertyOp2
 70
     1
102
RTVSPropertyOp3
 70
     1
102
RTVSPropertyOp4
 70
     1
102
RTVSPropertyOp5
 70
     1
102
RTVSPropertyOp6
 70
     1
102
RTVSPropertyOp7
 70
     1
102
RTVSPropertyOp8
 70
     1
102
RTVSPropertyOp9
 70
     1
102
RTVSPropertyOp10
 70
     1
102
RTVSPropertyOp11
 70
     1
102
RTVSPropertyOp12
 70
     1
102
RTVSPropertyOp13
 70
     1
102
RTVSPropertyOp14
 70
     1
102
RTVSPropertyOp15
 70
     1
102
RTVSPropertyOp16
 70
     1
102
RTVSPropertyOp17
 70
     1
102
RTVSPropertyOp18
 70
     1
102
RTVSPropertyOp19
 70
     1
102
RTVSPropertyOp20
 70
     1
102
RTVSPropertyOp21
 70
     1
102
RTVSPropertyOp22
 70
     1
102
RTVSPropertyOp23
 70
     1
102
RTVSPropertyOp24
 70
     1
102
RTVSPropertyOp25
 70
     1
102
RTVSPropertyOp26
 70
     1
102
RTVSPropertyOp27
 70
     1
102
RTVSPropertyOp28
 70
     1
102
RTVSPropertyOp29
 70
     1
102
RTVSPropertyOp30
 70
     1
102
RTVSPropertyOp31
 70
     1
102
RTVSPropertyOp32
 70
     1
  0
XRECORD
  5
86
102
{ACAD_REACTORS
330
85
102
}
330
85
100
AcDbXrecord
280
     1
102
RTVSPropertyOp0
 70
     1
102
RTVSPropertyOp1
 70
     1
102
RTVSPropertyOp2
 70
     1
102
RTVSPropertyOp3
 70
     1
102
RTVSPropertyOp4
 70
     1
102
RTVSPropertyOp5
 70
     1
102
RTVSPropertyOp6
 70
     1
102
RTVSPropertyOp7
 70
     1
102
RTVSPropertyOp8
 70
     1
102
RTVSPropertyOp9
 70
     1
102
RTVSPropertyOp10
 70
     1
102
RTVSPropertyOp11
 70
     1
102
RTVSPropertyOp12
 70
     1
102
RTVSPropertyOp13
 70
     1
102
RTVSPropertyOp14
 70
     1
102
RTVSPropertyOp15
 70
     1
102
RTVSPropertyOp16
 70
     1
102
RTVSPropertyOp17
 70
     1
102
RTVSPropertyOp18
 70
     1
102
RTVSPropertyOp19
 70
     1
102
RTVSPropertyOp20
 70
     1
102
RTVSPropertyOp21
 70
     1
102
RTVSPropertyOp22
 70
     1
102
RTVSPropertyOp23
 70
     1
102
RTVSPropertyOp24
 70
     1
102
RTVSPropertyOp25
 70
     1
102
RTVSPropertyOp26
 70
     1
102
RTVSPropertyOp27
 70
     1
102
RTVSPropertyOp28
 70
     1
102
RTVSPropertyOp29
 70
     1
102
RTVSPropertyOp30
 70
     1
102
RTVSPropertyOp31
 70
     1
102
RTVSPropertyOp32
 70
     1
  0
XRECORD
  5
84
102
{ACAD_REACTORS
330
83
102
}
330
83
100
AcDbXrecord
280
     1
102
RTVSPropertyOp0
 70
     1
102
RTVSPropertyOp1
 70
     1
102
RTVSPropertyOp2
 70
     1
102
RTVSPropertyOp3
 70
     1
102
RTVSPropertyOp4
 70
     1
102
RTVSPropertyOp5
 70
     1
102
RTVSPropertyOp6
 70
     1
102
RTVSPropertyOp7
 70
     1
102
RTVSPropertyOp8
 70
     1
102
RTVSPropertyOp9
 70
     1
102
RTVSPropertyOp10
 70
     1
102
RTVSPropertyOp11
 70
     1
102
RTVSPropertyOp12
 70
     1
102
RTVSPropertyOp13
 70
     1
102
RTVSPropertyOp14
 70
     1
102
RTVSPropertyOp15
 70
     1
102
RTVSPropertyOp16
 70
     1
102
RTVSPropertyOp17
 70
     1
102
RTVSPropertyOp18
 70
     1
102
RTVSPropertyOp19
 70
     1
102
RTVSPropertyOp20
 70
     1
102
RTVSPropertyOp21
 70
     1
102
RTVSPropertyOp22
 70
     1
102
RTVSPropertyOp23
 70
     1
102
RTVSPropertyOp24
 70
     1
102
RTVSPropertyOp25
 70
     1
102
RTVSPropertyOp26
 70
     1
102
RTVSPropertyOp27
 70
     1
102
RTVSPropertyOp28
 70
     1
102
RTVSPropertyOp29
 70
     1
102
RTVSPropertyOp30
 70
     1
102
RTVSPropertyOp31
 70
     1
102
RTVSPropertyOp32
 70
     1
  0
XRECORD
  5
88
102
{ACAD_REACTORS
330
87
102
}
330
87
100
AcDbXrecord
280
     1
102
RTVSPropertyOp0
 70
     1
102
RTVSPropertyOp1
 70
     1
102
RTVSPropertyOp2
 70
     1
102
RTVSPropertyOp3
 70
     1
102
RTVSPropertyOp4
 70
     1
102
RTVSPropertyOp5
 70
     1
102
RTVSPropertyOp6
 70
     1
102
RTVSPropertyOp7
 70
     1
102
RTVSPropertyOp8
 70
     1
102
RTVSPropertyOp9
 70
     1
102
RTVSPropertyOp10
 70
     1
102
RTVSPropertyOp11
 70
     1
102
RTVSPropertyOp12
 70
     1
102
RTVSPropertyOp13
 70
     1
102
RTVSPropertyOp14
 70
     1
102
RTVSPropertyOp15
 70
     1
102
RTVSPropertyOp16
 70
     1
102
RTVSPropertyOp17
 70
     1
102
RTVSPropertyOp18
 70
     1
102
RTVSPropertyOp19
 70
     1
102
RTVSPropertyOp20
 70
     1
102
RTVSPropertyOp21
 70
     1
102
RTVSPropertyOp22
 70
     1
102
RTVSPropertyOp23
 70
     1
102
RTVSPropertyOp24
 70
     1
102
RTVSPropertyOp25
 70
     1
102
RTVSPropertyOp26
 70
     1
102
RTVSPropertyOp27
 70
     1
102
RTVSPropertyOp28
 70
     1
102
RTVSPropertyOp29
 70
     1
102
RTVSPropertyOp30
 70
     1
102
RTVSPropertyOp31
 70
     1
102
RTVSPropertyOp32
 70
     1
  0
XRECORD
  5
90
102
{ACAD_REACTORS
330
8F
102
}
330
8F
100
AcDbXrecord
280
     1
102
RTVSPropertyOp0
 70
     1
102
RTVSPropertyOp1
 70
     1
102
RTVSPropertyOp2
 70
     1
102
RTVSPropertyOp3
 70
     1
102
RTVSPropertyOp4
 70
     1
102
RTVSPropertyOp5
 70
     1
102
RTVSPropertyOp6
 70
     1
102
RTVSPropertyOp7
 70
     1
102
RTVSPropertyOp8
 70
     1
102
RTVSPropertyOp9
 70
     1
102
RTVSPropertyOp10
 70
     1
102
RTVSPropertyOp11
 70
     1
102
RTVSPropertyOp12
 70
     1
102
RTVSPropertyOp13
 70
     1
102
RTVSPropertyOp14
 70
     1
102
RTVSPropertyOp15
 70
     1
102
RTVSPropertyOp16
 70
     1
102
RTVSPropertyOp17
 70
     1
102
RTVSPropertyOp18
 70
     1
102
RTVSPropertyOp19
 70
     1
102
RTVSPropertyOp20
 70
     1
102
RTVSPropertyOp21
 70
     1
102
RTVSPropertyOp22
 70
     1
102
RTVSPropertyOp23
 70
     1
102
RTVSPropertyOp24
 70
     1
102
RTVSPropertyOp25
 70
     1
102
RTVSPropertyOp26
 70
     1
102
RTVSPropertyOp27
 70
     1
102
RTVSPropertyOp28
 70
     1
102
RTVSPropertyOp29
 70
     1
102
RTVSPropertyOp30
 70
     1
102
RTVSPropertyOp31
 70
     1
102
RTVSPropertyOp32
 70
     1
  0
XRECORD
  5
98
102
{ACAD_REACTORS
330
97
102
}
330
97
100
AcDbXrecord
280
     1
102
RTVSPropertyOp0
 70
     1
102
RTVSPropertyOp1
 70
     1
102
RTVSPropertyOp2
 70
     1
102
RTVSPropertyOp3
 70
     1
102
RTVSPropertyOp4
 70
     1
102
RTVSPropertyOp5
 70
     1
102
RTVSPropertyOp6
 70
     1
102
RTVSPropertyOp7
 70
     1
102
RTVSPropertyOp8
 70
     1
102
RTVSPropertyOp9
 70
     1
102
RTVSPropertyOp10
 70
     1
102
RTVSPropertyOp11
 70
     1
102
RTVSPropertyOp12
 70
     1
102
RTVSPropertyOp13
 70
     1
102
RTVSPropertyOp14
 70
     1
102
RTVSPropertyOp15
 70
     1
102
RTVSPropertyOp16
 70
     1
102
RTVSPropertyOp17
 70
     1
102
RTVSPropertyOp18
 70
     1
102
RTVSPropertyOp19
 70
     1
102
RTVSPropertyOp20
 70
     1
102
RTVSPropertyOp21
 70
     1
102
RTVSPropertyOp22
 70
     1
102
RTVSPropertyOp23
 70
     1
102
RTVSPropertyOp24
 70
     1
102
RTVSPropertyOp25
 70
     1
102
RTVSPropertyOp26
 70
     1
102
RTVSPropertyOp27
 70
     1
102
RTVSPropertyOp28
 70
     1
102
RTVSPropertyOp29
 70
     1
102
RTVSPropertyOp30
 70
     1
102
RTVSPropertyOp31
 70
     1
102
RTVSPropertyOp32
 70
     1
  0
XRECORD
  5
8C
102
{ACAD_REACTORS
330
8B
102
}
330
8B
100
AcDbXrecord
280
     1
102
RTVSPropertyOp0
 70
     1
102
RTVSPropertyOp1
 70
     1
102
RTVSPropertyOp2
 70
     1
102
RTVSPropertyOp3
 70
     1
102
RTVSPropertyOp4
 70
     1
102
RTVSPropertyOp5
 70
     1
102
RTVSPropertyOp6
 70
     1
102
RTVSPropertyOp7
 70
     1
102
RTVSPropertyOp8
 70
     1
102
RTVSPropertyOp9
 70
     1
102
RTVSPropertyOp10
 70
     1
102
RTVSPropertyOp11
 70
     1
102
RTVSPropertyOp12
 70
     1
102
RTVSPropertyOp13
 70
     1
102
RTVSPropertyOp14
 70
     1
102
RTVSPropertyOp15
 70
     1
102
RTVSPropertyOp16
 70
     1
102
RTVSPropertyOp17
 70
     1
102
RTVSPropertyOp18
 70
     1
102
RTVSPropertyOp19
 70
     1
102
RTVSPropertyOp20
 70
     1
102
RTVSPropertyOp21
 70
     1
102
RTVSPropertyOp22
 70
     1
102
RTVSPropertyOp23
 70
     1
102
RTVSPropertyOp24
 70
     1
102
RTVSPropertyOp25
 70
     1
102
RTVSPropertyOp26
 70
     1
102
RTVSPropertyOp27
 70
     1
102
RTVSPropertyOp28
 70
     1
102
RTVSPropertyOp29
 70
     1
102
RTVSPropertyOp30
 70
     1
102
RTVSPropertyOp31
 70
     1
102
RTVSPropertyOp32
 70
     1
  0
XRECORD
  5
8E
102
{ACAD_REACTORS
330
8D
102
}
330
8D
100
AcDbXrecord
280
     1
102
RTVSPropertyOp0
 70
     1
102
RTVSPropertyOp1
 70
     1
102
RTVSPropertyOp2
 70
     1
102
RTVSPropertyOp3
 70
     1
102
RTVSPropertyOp4
 70
     1
102
RTVSPropertyOp5
 70
     1
102
RTVSPropertyOp6
 70
     1
102
RTVSPropertyOp7
 70
     1
102
RTVSPropertyOp8
 70
     1
102
RTVSPropertyOp9
 70
     1
102
RTVSPropertyOp10
 70
     1
102
RTVSPropertyOp11
 70
     1
102
RTVSPropertyOp12
 70
     1
102
RTVSPropertyOp13
 70
     1
102
RTVSPropertyOp14
 70
     1
102
RTVSPropertyOp15
 70
     1
102
RTVSPropertyOp16
 70
     1
102
RTVSPropertyOp17
 70
     1
102
RTVSPropertyOp18
 70
     1
102
RTVSPropertyOp19
 70
     1
102
RTVSPropertyOp20
 70
     1
102
RTVSPropertyOp21
 70
     1
102
RTVSPropertyOp22
 70
     1
102
RTVSPropertyOp23
 70
     1
102
RTVSPropertyOp24
 70
     1
102
RTVSPropertyOp25
 70
     1
102
RTVSPropertyOp26
 70
     1
102
RTVSPropertyOp27
 70
     1
102
RTVSPropertyOp28
 70
     1
102
RTVSPropertyOp29
 70
     1
102
RTVSPropertyOp30
 70
     1
102
RTVSPropertyOp31
 70
     1
102
RTVSPropertyOp32
 70
     1
  0
XRECORD
  5
96
102
{ACAD_REACTORS
330
95
102
}
330
95
100
AcDbXrecord
280
     1
102
RTVSPropertyOp0
 70
     1
102
RTVSPropertyOp1
 70
     1
102
RTVSPropertyOp2
 70
     1
102
RTVSPropertyOp3
 70
     1
102
RTVSPropertyOp4
 70
     1
102
RTVSPropertyOp5
 70
     1
102
RTVSPropertyOp6
 70
     1
102
RTVSPropertyOp7
 70
     1
102
RTVSPropertyOp8
 70
     1
102
RTVSPropertyOp9
 70
     1
102
RTVSPropertyOp10
 70
     1
102
RTVSPropertyOp11
 70
     1
102
RTVSPropertyOp12
 70
     1
102
RTVSPropertyOp13
 70
     1
102
RTVSPropertyOp14
 70
     1
102
RTVSPropertyOp15
 70
     1
102
RTVSPropertyOp16
 70
     1
102
RTVSPropertyOp17
 70
     1
102
RTVSPropertyOp18
 70
     1
102
RTVSPropertyOp19
 70
     1
102
RTVSPropertyOp20
 70
     1
102
RTVSPropertyOp21
 70
     1
102
RTVSPropertyOp22
 70
     1
102
RTVSPropertyOp23
 70
     1
102
RTVSPropertyOp24
 70
     1
102
RTVSPropertyOp25
 70
     1
102
RTVSPropertyOp26
 70
     1
102
RTVSPropertyOp27
 70
     1
102
RTVSPropertyOp28
 70
     1
102
RTVSPropertyOp29
 70
     1
102
RTVSPropertyOp30
 70
     1
102
RTVSPropertyOp31
 70
     1
102
RTVSPropertyOp32
 70
     1
  0
XRECORD
  5
7A
102
{ACAD_REACTORS
330
79
102
}
330
79
100
AcDbXrecord
280
     1
102
RTVSPropertyOp0
 70
     1
102
RTVSPropertyOp1
 70
     1
102
RTVSPropertyOp2
 70
     1
102
RTVSPropertyOp3
 70
     1
102
RTVSPropertyOp4
 70
     1
102
RTVSPropertyOp5
 70
     1
102
RTVSPropertyOp6
 70
     1
102
RTVSPropertyOp7
 70
     1
102
RTVSPropertyOp8
 70
     1
102
RTVSPropertyOp9
 70
     1
102
RTVSPropertyOp10
 70
     1
102
RTVSPropertyOp11
 70
     1
102
RTVSPropertyOp12
 70
     1
102
RTVSPropertyOp13
 70
     1
102
RTVSPropertyOp14
 70
     1
102
RTVSPropertyOp15
 70
     1
102
RTVSPropertyOp16
 70
     1
102
RTVSPropertyOp17
 70
     1
102
RTVSPropertyOp18
 70
     1
102
RTVSPropertyOp19
 70
     1
102
RTVSPropertyOp20
 70
     1
102
RTVSPropertyOp21
 70
     1
102
RTVSPropertyOp22
 70
     1
102
RTVSPropertyOp23
 70
     1
102
RTVSPropertyOp24
 70
     1
102
RTVSPropertyOp25
 70
     1
102
RTVSPropertyOp26
 70
     1
102
RTVSPropertyOp27
 70
     1
102
RTVSPropertyOp28
 70
     1
102
RTVSPropertyOp29
 70
     1
102
RTVSPropertyOp30
 70
     1
102
RTVSPropertyOp31
 70
     1
102
RTVSPropertyOp32
 70
     1
  0
XRECORD
  5
7C
102
{ACAD_REACTORS
330
7B
102
}
330
7B
100
AcDbXrecord
280
     1
102
RTVSPropertyOp0
 70
     1
102
RTVSPropertyOp1
 70
     1
102
RTVSPropertyOp2
 70
     1
102
RTVSPropertyOp3
 70
     1
102
RTVSPropertyOp4
 70
     1
102
RTVSPropertyOp5
 70
     1
102
RTVSPropertyOp6
 70
     1
102
RTVSPropertyOp7
 70
     1
102
RTVSPropertyOp8
 70
     1
102
RTVSPropertyOp9
 70
     1
102
RTVSPropertyOp10
 70
     1
102
RTVSPropertyOp11
 70
     1
102
RTVSPropertyOp12
 70
     1
102
RTVSPropertyOp13
 70
     1
102
RTVSPropertyOp14
 70
     1
102
RTVSPropertyOp15
 70
     1
102
RTVSPropertyOp16
 70
     1
102
RTVSPropertyOp17
 70
     1
102
RTVSPropertyOp18
 70
     1
102
RTVSPropertyOp19
 70
     1
102
RTVSPropertyOp20
 70
     1
102
RTVSPropertyOp21
 70
     1
102
RTVSPropertyOp22
 70
     1
102
RTVSPropertyOp23
 70
     1
102
RTVSPropertyOp24
 70
     1
102
RTVSPropertyOp25
 70
     1
102
RTVSPropertyOp26
 70
     1
102
RTVSPropertyOp27
 70
     1
102
RTVSPropertyOp28
 70
     1
102
RTVSPropertyOp29
 70
     1
102
RTVSPropertyOp30
 70
     1
102
RTVSPropertyOp31
 70
     1
102
RTVSPropertyOp32
 70
     1
  0
XRECORD
  5
7E
102
{ACAD_REACTORS
330
7D
102
}
330
7D
100
AcDbXrecord
280
     1
102
RTVSPropertyOp0
 70
     1
102
RTVSPropertyOp1
 70
     1
102
RTVSPropertyOp2
 70
     1
102
RTVSPropertyOp3
 70
     1
102
RTVSPropertyOp4
 70
     1
102
RTVSPropertyOp5
 70
     1
102
RTVSPropertyOp6
 70
     1
102
RTVSPropertyOp7
 70
     1
102
RTVSPropertyOp8
 70
     1
102
RTVSPropertyOp9
 70
     1
102
RTVSPropertyOp10
 70
     1
102
RTVSPropertyOp11
 70
     1
102
RTVSPropertyOp12
 70
     1
102
RTVSPropertyOp13
 70
     1
102
RTVSPropertyOp14
 70
     1
102
RTVSPropertyOp15
 70
     1
102
RTVSPropertyOp16
 70
     1
102
RTVSPropertyOp17
 70
     1
102
RTVSPropertyOp18
 70
     1
102
RTVSPropertyOp19
 70
     1
102
RTVSPropertyOp20
 70
     1
102
RTVSPropertyOp21
 70
     1
102
RTVSPropertyOp22
 70
     1
102
RTVSPropertyOp23
 70
     1
102
RTVSPropertyOp24
 70
     1
102
RTVSPropertyOp25
 70
     1
102
RTVSPropertyOp26
 70
     1
102
RTVSPropertyOp27
 70
     1
102
RTVSPropertyOp28
 70
     1
102
RTVSPropertyOp29
 70
     1
102
RTVSPropertyOp30
 70
     1
102
RTVSPropertyOp31
 70
     1
102
RTVSPropertyOp32
 70
     1
  0
XRECORD
  5
80
102
{ACAD_REACTORS
330
7F
102
}
330
7F
100
AcDbXrecord
280
     1
102
RTVSPropertyOp0
 70
     1
102
RTVSPropertyOp1
 70
     1
102
RTVSPropertyOp2
 70
     1
102
RTVSPropertyOp3
 70
     1
102
RTVSPropertyOp4
 70
     1
102
RTVSPropertyOp5
 70
     1
102
RTVSPropertyOp6
 70
     1
102
RTVSPropertyOp7
 70
     1
102
RTVSPropertyOp8
 70
     1
102
RTVSPropertyOp9
 70
     1
102
RTVSPropertyOp10
 70
     1
102
RTVSPropertyOp11
 70
     1
102
RTVSPropertyOp12
 70
     1
102
RTVSPropertyOp13
 70
     1
102
RTVSPropertyOp14
 70
     1
102
RTVSPropertyOp15
 70
     1
102
RTVSPropertyOp16
 70
     1
102
RTVSPropertyOp17
 70
     1
102
RTVSPropertyOp18
 70
     1
102
RTVSPropertyOp19
 70
     1
102
RTVSPropertyOp20
 70
     1
102
RTVSPropertyOp21
 70
     1
102
RTVSPropertyOp22
 70
     1
102
RTVSPropertyOp23
 70
     1
102
RTVSPropertyOp24
 70
     1
102
RTVSPropertyOp25
 70
     1
102
RTVSPropertyOp26
 70
     1
102
RTVSPropertyOp27
 70
     1
102
RTVSPropertyOp28
 70
     1
102
RTVSPropertyOp29
 70
     1
102
RTVSPropertyOp30
 70
     1
102
RTVSPropertyOp31
 70
     1
102
RTVSPropertyOp32
 70
     1
  0
XRECORD
  5
94
102
{ACAD_REACTORS
330
93
102
}
330
93
100
AcDbXrecord
280
     1
102
RTVSPropertyOp0
 70
     1
102
RTVSPropertyOp1
 70
     1
102
RTVSPropertyOp2
 70
     1
102
RTVSPropertyOp3
 70
     1
102
RTVSPropertyOp4
 70
     1
102
RTVSPropertyOp5
 70
     1
102
RTVSPropertyOp6
 70
     1
102
RTVSPropertyOp7
 70
     1
102
RTVSPropertyOp8
 70
     1
102
RTVSPropertyOp9
 70
     1
102
RTVSPropertyOp10
 70
     1
102
RTVSPropertyOp11
 70
     1
102
RTVSPropertyOp12
 70
     1
102
RTVSPropertyOp13
 70
     1
102
RTVSPropertyOp14
 70
     1
102
RTVSPropertyOp15
 70
     1
102
RTVSPropertyOp16
 70
     1
102
RTVSPropertyOp17
 70
     1
102
RTVSPropertyOp18
 70
     1
102
RTVSPropertyOp19
 70
     1
102
RTVSPropertyOp20
 70
     1
102
RTVSPropertyOp21
 70
     1
102
RTVSPropertyOp22
 70
     1
102
RTVSPropertyOp23
 70
     1
102
RTVSPropertyOp24
 70
     1
102
RTVSPropertyOp25
 70
     1
102
RTVSPropertyOp26
 70
     1
102
RTVSPropertyOp27
 70
     1
102
RTVSPropertyOp28
 70
     1
102
RTVSPropertyOp29
 70
     1
102
RTVSPropertyOp30
 70
     1
102
RTVSPropertyOp31
 70
     1
102
RTVSPropertyOp32
 70
     1
  0
XRECORD
  5
8A
102
{ACAD_REACTORS
330
89
102
}
330
89
100
AcDbXrecord
280
     1
102
RTVSPropertyOp0
 70
     1
102
RTVSPropertyOp1
 70
     1
102
RTVSPropertyOp2
 70
     1
102
RTVSPropertyOp3
 70
     1
102
RTVSPropertyOp4
 70
     1
102
RTVSPropertyOp5
 70
     1
102
RTVSPropertyOp6
 70
     1
102
RTVSPropertyOp7
 70
     1
102
RTVSPropertyOp8
 70
     1
102
RTVSPropertyOp9
 70
     1
102
RTVSPropertyOp10
 70
     1
102
RTVSPropertyOp11
 70
     1
102
RTVSPropertyOp12
 70
     1
102
RTVSPropertyOp13
 70
     1
102
RTVSPropertyOp14
 70
     1
102
RTVSPropertyOp15
 70
     1
102
RTVSPropertyOp16
 70
     1
102
RTVSPropertyOp17
 70
     1
102
RTVSPropertyOp18
 70
     1
102
RTVSPropertyOp19
 70
     1
102
RTVSPropertyOp20
 70
     1
102
RTVSPropertyOp21
 70
     1
102
RTVSPropertyOp22
 70
     1
102
RTVSPropertyOp23
 70
     1
102
RTVSPropertyOp24
 70
     1
102
RTVSPropertyOp25
 70
     1
102
RTVSPropertyOp26
 70
     1
102
RTVSPropertyOp27
 70
     1
102
RTVSPropertyOp28
 70
     1
102
RTVSPropertyOp29
 70
     1
102
RTVSPropertyOp30
 70
     1
102
RTVSPropertyOp31
 70
     1
102
RTVSPropertyOp32
 70
     1
  0
XRECORD
  5
92
102
{ACAD_REACTORS
330
91
102
}
330
91
100
AcDbXrecord
280
     1
102
RTVSPropertyOp0
 70
     1
102
RTVSPropertyOp1
 70
     1
102
RTVSPropertyOp2
 70
     1
102
RTVSPropertyOp3
 70
     1
102
RTVSPropertyOp4
 70
     1
102
RTVSPropertyOp5
 70
     1
102
RTVSPropertyOp6
 70
     1
102
RTVSPropertyOp7
 70
     1
102
RTVSPropertyOp8
 70
     1
102
RTVSPropertyOp9
 70
     1
102
RTVSPropertyOp10
 70
     1
102
RTVSPropertyOp11
 70
     1
102
RTVSPropertyOp12
 70
     1
102
RTVSPropertyOp13
 70
     1
102
RTVSPropertyOp14
 70
     1
102
RTVSPropertyOp15
 70
     1
102
RTVSPropertyOp16
 70
     1
102
RTVSPropertyOp17
 70
     1
102
RTVSPropertyOp18
 70
     1
102
RTVSPropertyOp19
 70
     1
102
RTVSPropertyOp20
 70
     1
102
RTVSPropertyOp21
 70
     1
102
RTVSPropertyOp22
 70
     1
102
RTVSPropertyOp23
 70
     1
102
RTVSPropertyOp24
 70
     1
102
RTVSPropertyOp25
 70
     1
102
RTVSPropertyOp26
 70
     1
102
RTVSPropertyOp27
 70
     1
102
RTVSPropertyOp28
 70
     1
102
RTVSPropertyOp29
 70
     1
102
RTVSPropertyOp30
 70
     1
102
RTVSPropertyOp31
 70
     1
102
RTVSPropertyOp32
 70
     1
  0
ENDSEC
  0
EOF
