  0
SECTION
  2
HEADER
  9
$ACADVER
  1
AC1021
  9
$ACADMAINTVER
 70
    25
  9
$DWGCODEPAGE
  3
ANSI_1256
  9
$INSBASE
 10
0.0
 20
0.0
 30
0.0
  9
$EXTMIN
 10
-80.448
 20
-114.8744
 30
0.0
  9
$EXTMAX
 10
83.8223
 20
131.7379
 30
0.0
  9
$LIMMIN
 10
0.0
 20
0.0
  9
$LIMMAX
 10
12.0
 20
9.0
  9
$ORTHOMODE
 70
     0
  9
$REGENMODE
 70
     1
  9
$FILLMODE
 70
     1
  9
$QTEXTMODE
 70
     0
  9
$MIRRTEXT
 70
     1
  9
$LTSCALE
 40
1.0
  9
$ATTMODE
 70
     1
  9
$TEXTSIZE
 40
0.2
  9
$TRACEWID
 40
0.05
  9
$TEXTSTYLE
  7
Standard
  9
$CLAYER
  8
0
  9
$CELTYPE
  6
ByLayer
  9
$CECOLOR
 62
   256
  9
$CELTSCALE
 40
1.0
  9
$DISPSILH
 70
     0
  9
$DIMSCALE
 40
1.0
  9
$DIMASZ
 40
0.18
  9
$DIMEXO
 40
0.0625
  9
$DIMDLI
 40
0.38
  9
$DIMRND
 40
0.0
  9
$DIMDLE
 40
0.0
  9
$DIMEXE
 40
0.18
  9
$DIMTP
 40
0.0
  9
$DIMTM
 40
0.0
  9
$DIMTXT
 40
0.18
  9
$DIMCEN
 40
0.09
  9
$DIMTSZ
 40
0.0
  9
$DIMTOL
 70
     0
  9
$DIMLIM
 70
     0
  9
$DIMTIH
 70
     1
  9
$DIMTOH
 70
     1
  9
$DIMSE1
 70
     0
  9
$DIMSE2
 70
     0
  9
$DIMTAD
 70
     0
  9
$DIMZIN
 70
     0
  9
$DIMBLK
  1

  9
$DIMASO
 70
     1
  9
$DIMSHO
 70
     1
  9
$DIMPOST
  1

  9
$DIMAPOST
  1

  9
$DIMALT
 70
     0
  9
$DIMALTD
 70
     2
  9
$DIMALTF
 40
25.4
  9
$DIMLFAC
 40
1.0
  9
$DIMTOFL
 70
     0
  9
$DIMTVP
 40
0.0
  9
$DIMTIX
 70
     0
  9
$DIMSOXD
 70
     0
  9
$DIMSAH
 70
     0
  9
$DIMBLK1
  1

  9
$DIMBLK2
  1

  9
$DIMSTYLE
  2
Standard
  9
$DIMCLRD
 70
     0
  9
$DIMCLRE
 70
     0
  9
$DIMCLRT
 70
     0
  9
$DIMTFAC
 40
1.0
  9
$DIMGAP
 40
0.09
  9
$DIMJUST
 70
     0
  9
$DIMSD1
 70
     0
  9
$DIMSD2
 70
     0
  9
$DIMTOLJ
 70
     1
  9
$DIMTZIN
 70
     0
  9
$DIMALTZ
 70
     0
  9
$DIMALTTZ
 70
     0
  9
$DIMUPT
 70
     0
  9
$DIMDEC
 70
     4
  9
$DIMTDEC
 70
     4
  9
$DIMALTU
 70
     2
  9
$DIMALTTD
 70
     2
  9
$DIMTXSTY
  7
Standard
  9
$DIMAUNIT
 70
     0
  9
$DIMADEC
 70
     0
  9
$DIMALTRND
 40
0.0
  9
$DIMAZIN
 70
     0
  9
$DIMDSEP
 70
    46
  9
$DIMATFIT
 70
     3
  9
$DIMFRAC
 70
     0
  9
$DIMLDRBLK
  1

  9
$DIMLUNIT
 70
     2
  9
$DIMLWD
 70
    -2
  9
$DIMLWE
 70
    -2
  9
$DIMTMOVE
 70
     0
  9
$DIMFXL
 40
1.0
  9
$DIMFXLON
 70
     0
  9
$DIMJOGANG
 40
0.7853981633974483
  9
$DIMTFILL
 70
     0
  9
$DIMTFILLCLR
 70
     0
  9
$DIMARCSYM
 70
     0
  9
$DIMLTYPE
  6

  9
$DIMLTEX1
  6

  9
$DIMLTEX2
  6

  9
$LUNITS
 70
     2
  9
$LUPREC
 70
     4
  9
$SKETCHINC
 40
0.1
  9
$FILLETRAD
 40
0.5
  9
$AUNITS
 70
     0
  9
$AUPREC
 70
     0
  9
$MENU
  1
.
  9
$ELEVATION
 40
0.0
  9
$PELEVATION
 40
0.0
  9
$THICKNESS
 40
0.0
  9
$LIMCHECK
 70
     0
  9
$CHAMFERA
 40
0.5
  9
$CHAMFERB
 40
0.5
  9
$CHAMFERC
 40
1.0
  9
$CHAMFERD
 40
0.0
  9
$SKPOLY
 70
     0
  9
$TDCREATE
 40
2458492.941552917
  9
$TDUCREATE
 40
2458492.77488625
  9
$TDUPDATE
 40
2458492.94155309
  9
$TDUUPDATE
 40
2458492.774886424
  9
$TDINDWG
 40
0.0000000116
  9
$TDUSRTIMER
 40
0.0000000116
  9
$USRTIMER
 70
     1
  9
$ANGBASE
 50
0.0
  9
$ANGDIR
 70
     0
  9
$PDMODE
 70
     0
  9
$PDSIZE
 40
0.0
  9
$PLINEWID
 40
0.0
  9
$SPLFRAME
 70
     0
  9
$SPLINETYPE
 70
     6
  9
$SPLINESEGS
 70
     8
  9
$HANDSEED
  5
C4
  9
$SURFTAB1
 70
     6
  9
$SURFTAB2
 70
     6
  9
$SURFTYPE
 70
     6
  9
$SURFU
 70
     6
  9
$SURFV
 70
     6
  9
$UCSBASE
  2

  9
$UCSNAME
  2

  9
$UCSORG
 10
0.0
 20
0.0
 30
0.0
  9
$UCSXDIR
 10
1.0
 20
0.0
 30
0.0
  9
$UCSYDIR
 10
0.0
 20
1.0
 30
0.0
  9
$UCSORTHOREF
  2

  9
$UCSORTHOVIEW
 70
     0
  9
$UCSORGTOP
 10
0.0
 20
0.0
 30
0.0
  9
$UCSORGBOTTOM
 10
0.0
 20
0.0
 30
0.0
  9
$UCSORGLEFT
 10
0.0
 20
0.0
 30
0.0
  9
$UCSORGRIGHT
 10
0.0
 20
0.0
 30
0.0
  9
$UCSORGFRONT
 10
0.0
 20
0.0
 30
0.0
  9
$UCSORGBACK
 10
0.0
 20
0.0
 30
0.0
  9
$PUCSBASE
  2

  9
$PUCSNAME
  2

  9
$PUCSORG
 10
0.0
 20
0.0
 30
0.0
  9
$PUCSXDIR
 10
1.0
 20
0.0
 30
0.0
  9
$PUCSYDIR
 10
0.0
 20
1.0
 30
0.0
  9
$PUCSORTHOREF
  2

  9
$PUCSORTHOVIEW
 70
     0
  9
$PUCSORGTOP
 10
0.0
 20
0.0
 30
0.0
  9
$PUCSORGBOTTOM
 10
0.0
 20
0.0
 30
0.0
  9
$PUCSORGLEFT
 10
0.0
 20
0.0
 30
0.0
  9
$PUCSORGRIGHT
 10
0.0
 20
0.0
 30
0.0
  9
$PUCSORGFRONT
 10
0.0
 20
0.0
 30
0.0
  9
$PUCSORGBACK
 10
0.0
 20
0.0
 30
0.0
  9
$USERI1
 70
     0
  9
$USERI2
 70
     0
  9
$USERI3
 70
     0
  9
$USERI4
 70
     0
  9
$USERI5
 70
     0
  9
$USERR1
 40
0.0
  9
$USERR2
 40
0.0
  9
$USERR3
 40
0.0
  9
$USERR4
 40
0.0
  9
$USERR5
 40
0.0
  9
$WORLDVIEW
 70
     1
  9
$SHADEDGE
 70
     3
  9
$SHADEDIF
 70
    70
  9
$TILEMODE
 70
     1
  9
$MAXACTVP
 70
    64
  9
$PINSBASE
 10
0.0
 20
0.0
 30
0.0
  9
$PLIMCHECK
 70
     0
  9
$PEXTMIN
 10
1.000000000000000E+20
 20
1.000000000000000E+20
 30
1.000000000000000E+20
  9
$PEXTMAX
 10
-1.000000000000000E+20
 20
-1.000000000000000E+20
 30
-1.000000000000000E+20
  9
$PLIMMIN
 10
0.0
 20
0.0
  9
$PLIMMAX
 10
12.0
 20
9.0
  9
$UNITMODE
 70
     0
  9
$VISRETAIN
 70
     1
  9
$PLINEGEN
 70
     0
  9
$PSLTSCALE
 70
     1
  9
$TREEDEPTH
 70
  3020
  9
$CMLSTYLE
  2
Standard
  9
$CMLJUST
 70
     0
  9
$CMLSCALE
 40
1.0
  9
$PROXYGRAPHICS
 70
     1
  9
$MEASUREMENT
 70
     0
  9
$CELWEIGHT
370
    -1
  9
$ENDCAPS
280
     0
  9
$JOINSTYLE
280
     0
  9
$LWDISPLAY
290
     0
  9
$INSUNITS
 70
     4
  9
$HYPERLINKBASE
  1

  9
$STYLESHEET
  1

  9
$XEDIT
290
     1
  9
$CEPSNTYPE
380
     0
  9
$PSTYLEMODE
290
     1
  9
$FINGERPRINTGUID
  2
{0D84F691-A06A-4F49-B8F6-03D5BEDA238F}
  9
$VERSIONGUID
  2
{FAEB1C32-E019-11D5-929B-00C0DF256EC4}
  9
$EXTNAMES
290
     1
  9
$PSVPSCALE
 40
0.0
  9
$OLESTARTUP
290
     0
  9
$SORTENTS
280
   127
  9
$INDEXCTL
280
     0
  9
$HIDETEXT
280
     1
  9
$XCLIPFRAME
290
     0
  9
$HALOGAP
280
     0
  9
$OBSCOLOR
 70
   257
  9
$OBSLTYPE
280
     0
  9
$INTERSECTIONDISPLAY
280
     0
  9
$INTERSECTIONCOLOR
 70
   257
  9
$DIMASSOC
280
     2
  9
$PROJECTNAME
  1

  9
$CAMERADISPLAY
290
     0
  9
$LENSLENGTH
 40
50.0
  9
$CAMERAHEIGHT
 40
0.0
  9
$STEPSPERSEC
 40
2.0
  9
$STEPSIZE
 40
6.0
  9
$3DDWFPREC
 40
2.0
  9
$PSOLWIDTH
 40
0.25
  9
$PSOLHEIGHT
 40
4.0
  9
$LOFTANG1
 40
1.570796326794897
  9
$LOFTANG2
 40
1.570796326794897
  9
$LOFTMAG1
 40
0.0
  9
$LOFTMAG2
 40
0.0
  9
$LOFTPARAM
 70
     7
  9
$LOFTNORMALS
280
     1
  9
$LATITUDE
 40
37.795
  9
$LONGITUDE
 40
-122.394
  9
$NORTHDIRECTION
 40
0.0
  9
$TIMEZONE
 70
 -8000
  9
$LIGHTGLYPHDISPLAY
280
     1
  9
$TILEMODELIGHTSYNCH
280
     1
  9
$SOLIDHIST
280
     1
  9
$SHOWHIST
280
     1
  9
$DWFFRAME
280
     2
  9
$DGNFRAME
280
     2
  9
$REALWORLDSCALE
290
     1
  9
$INTERFERECOLOR
 62
   256
  9
$CSHADOW
280
     0
  9
$SHADOWPLANELOCATION
 40
0.0
  0
ENDSEC
  0
SECTION
  2
CLASSES
  0
CLASS
  1
ACDBDICTIONARYWDFLT
  2
AcDbDictionaryWithDefault
  3
ObjectDBX Classes
 90
        0
 91
        4
280
     0
281
     0
  0
CLASS
  1
VISUALSTYLE
  2
AcDbVisualStyle
  3
ObjectDBX Classes
 90
     4095
 91
        4
280
     0
281
     0
  0
CLASS
  1
MATERIAL
  2
AcDbMaterial
  3
ObjectDBX Classes
 90
     1153
 91
        4
280
     0
281
     0
  0
ENDSEC
  0
SECTION
  2
TABLES
  0
TABLE
  2
VPORT
  5
8
330
0
100
AcDbSymbolTable
 70
     1
  0
VPORT
  5
29
330
8
100
AcDbSymbolTableRecord
100
AcDbViewportTableRecord
  2
*Active
 70
     0
 10
0.0
 20
0.0
 11
1.0
 21
1.0
 12
10.42990654205607
 22
4.5
 13
0.0
 23
0.0
 14
0.5
 24
0.5
 15
0.5
 25
0.5
 16
0.0
 26
0.0
 36
1.0
 17
0.0
 27
0.0
 37
0.0
 40
9.0
 41
1.972972972850329
 42
50.0
 43
0.0
 44
0.0
 50
0.0
 51
0.0
 71
     0
 72
   100
 73
     1
 74
     3
 75
     0
 76
     0
 77
     0
 78
     0
281
     0
 65
     1
110
0.0
120
0.0
130
0.0
111
1.0
121
0.0
131
0.0
112
0.0
122
1.0
132
0.0
 79
     0
146
0.0
 60
     3
 61
     5
292
     1
282
     1
141
0.0
142
0.0
 63
   250
  0
ENDTAB
  0
TABLE
  2
LTYPE
  5
5
330
0
100
AcDbSymbolTable
 70
     1
  0
LTYPE
  5
14
330
5
100
AcDbSymbolTableRecord
100
AcDbLinetypeTableRecord
  2
ByBlock
 70
     0
  3

 72
    65
 73
     0
 40
0.0
  0
LTYPE
  5
15
330
5
100
AcDbSymbolTableRecord
100
AcDbLinetypeTableRecord
  2
ByLayer
 70
     0
  3

 72
    65
 73
     0
 40
0.0
  0
LTYPE
  5
16
330
5
100
AcDbSymbolTableRecord
100
AcDbLinetypeTableRecord
  2
Continuous
 70
     0
  3
Solid line
 72
    65
 73
     0
 40
0.0
  0
ENDTAB
  0
TABLE
  2
LAYER
  5
2
330
0
100
AcDbSymbolTable
 70
     3
  0
LAYER
  5
10
330
2
100
AcDbSymbolTableRecord
100
AcDbLayerTableRecord
  2
0
 70
     0
 62
     7
  6
Continuous
370
    -3
390
F
347
3E
  0
LAYER
  5
40
330
2
100
AcDbSymbolTableRecord
100
AcDbLayerTableRecord
  2
layer 1
 70
     0
 62
     7
  6
Continuous
370
    -3
390
F
347
3E
  0
LAYER
  5
A1
330
2
100
AcDbSymbolTableRecord
100
AcDbLayerTableRecord
  2
Master Guides
 70
     0
 62
     7
  6
Continuous
370
    -3
390
F
347
3E
  0
ENDTAB
  0
TABLE
  2
STYLE
  5
3
330
0
100
AcDbSymbolTable
 70
     1
  0
STYLE
  5
11
330
3
100
AcDbSymbolTableRecord
100
AcDbTextStyleTableRecord
  2
Standard
 70
     0
 40
0.0
 41
1.0
 50
0.0
 71
     0
 42
0.2
  3
txt
  4

  0
ENDTAB
  0
TABLE
  2
VIEW
  5
6
330
0
100
AcDbSymbolTable
 70
     0
  0
ENDTAB
  0
TABLE
  2
UCS
  5
7
330
0
100
AcDbSymbolTable
 70
     0
  0
ENDTAB
  0
TABLE
  2
APPID
  5
9
330
0
100
AcDbSymbolTable
 70
     2
  0
APPID
  5
12
330
9
100
AcDbSymbolTableRecord
100
AcDbRegAppTableRecord
  2
ACAD
 70
     0
  0
APPID
  5
3F
330
9
100
AcDbSymbolTableRecord
100
AcDbRegAppTableRecord
  2
ODA
 70
     0
  0
ENDTAB
  0
TABLE
  2
DIMSTYLE
  5
A
330
0
100
AcDbSymbolTable
 70
     1
100
AcDbDimStyleTable
  0
DIMSTYLE
105
27
330
A
100
AcDbSymbolTableRecord
100
AcDbDimStyleTableRecord
  2
Standard
 70
     0
178
     0
340
11
  0
ENDTAB
  0
TABLE
  2
BLOCK_RECORD
  5
1
330
0
100
AcDbSymbolTable
 70
     1
  0
BLOCK_RECORD
  5
1F
330
1
100
AcDbSymbolTableRecord
100
AcDbBlockTableRecord
  2
*Model_Space
340
22
 70
     0
280
     1
281
     0
  0
BLOCK_RECORD
  5
1B
330
1
100
AcDbSymbolTableRecord
100
AcDbBlockTableRecord
  2
*Paper_Space
340
1E
 70
     0
280
     1
281
     0
  0
BLOCK_RECORD
  5
23
330
1
100
AcDbSymbolTableRecord
100
AcDbBlockTableRecord
  2
*Paper_Space0
340
26
 70
     0
280
     1
281
     0
  0
ENDTAB
  0
ENDSEC
  0
SECTION
  2
BLOCKS
  0
BLOCK
  5
20
330
1F
100
AcDbEntity
  8
0
100
AcDbBlockBegin
  2
*Model_Space
 70
     0
 10
0.0
 20
0.0
 30
0.0
  3
*Model_Space
  1

  0
ENDBLK
  5
21
330
1F
100
AcDbEntity
  8
0
100
AcDbBlockEnd
  0
BLOCK
  5
1C
330
1B
100
AcDbEntity
 67
     1
  8
0
100
AcDbBlockBegin
  2
*Paper_Space
 70
     0
 10
0.0
 20
0.0
 30
0.0
  3
*Paper_Space
  1

  0
ENDBLK
  5
1D
330
1B
100
AcDbEntity
 67
     1
  8
0
100
AcDbBlockEnd
  0
BLOCK
  5
24
330
23
100
AcDbEntity
  8
0
100
AcDbBlockBegin
  2
*Paper_Space0
 70
     0
 10
0.0
 20
0.0
 30
0.0
  3
*Paper_Space0
  1

  0
ENDBLK
  5
25
330
23
100
AcDbEntity
  8
0
100
AcDbBlockEnd
  0
ENDSEC
  0
SECTION
  2
ENTITIES
  0
LWPOLYLINE
  5
41
330
1F
100
AcDbEntity
  8
layer 1
 62
   250
100
AcDbPolyline
 90
        5
 70
     1
 43
0.0
 10
-80.448
 20
-114.8743
 10
83.8222
 20
-114.8743
 10
83.8222
 20
131.7379
 10
-80.448
 20
131.7379
 10
-80.448
 20
-114.8743
  0
SPLINE
  5
42
330
1F
100
AcDbEntity
  8
layer 1
 62
     7
100
AcDbSpline
210
0.0
220
0.0
230
1.0
 70
    11
 71
     3
 72
    24
 73
    20
 74
     0
 42
0.0000000001
 43
0.0000000001
 12
1.0
 22
0.0
 32
0.0
 13
1.0
 23
0.0
 33
0.0
 40
0.0
 40
0.0
 40
0.0
 40
0.0
 40
0.1666666666666667
 40
0.1666666666666667
 40
0.1666666666666667
 40
0.1666666666666667
 40
0.3333333333333333
 40
0.3333333333333333
 40
0.3333333333333333
 40
0.3333333333333333
 40
0.5
 40
0.5
 40
0.5
 40
0.5
 40
0.6666666666666666
 40
0.6666666666666666
 40
0.6666666666666666
 40
0.6666666666666666
 40
1.0
 40
1.0
 40
1.0
 40
1.0
 10
-46.0408
 20
120.3964
 30
0.0
 10
-42.3883
 20
120.6757
 30
0.0
 10
-40.7167
 20
123.0314
 30
0.0
 10
-40.8044
 20
125.4236
 30
0.0
 10
-40.8044
 20
125.4236
 30
0.0
 10
-40.8044
 20
125.4236
 30
0.0
 10
-70.8731
 20
125.4236
 30
0.0
 10
-70.8731
 20
125.4236
 30
0.0
 10
-70.8731
 20
125.4236
 30
0.0
 10
-70.9607
 20
123.0314
 30
0.0
 10
-69.2892
 20
120.6757
 30
0.0
 10
-65.6367
 20
120.3964
 30
0.0
 10
-65.6367
 20
120.3964
 30
0.0
 10
-66.9352
 20
113.166
 30
0.0
 10
-58.9745
 20
111.2407
 30
0.0
 10
-55.8387
 20
115.6639
 30
0.0
 10
-55.8387
 20
115.6639
 30
0.0
 10
-52.7029
 20
111.2407
 30
0.0
 10
-44.7423
 20
113.1662
 30
0.0
 10
-46.0408
 20
120.3964
 30
0.0
  0
SPLINE
  5
43
330
1F
100
AcDbEntity
  8
layer 1
 62
     7
100
AcDbSpline
210
0.0
220
0.0
230
1.0
 70
    11
 71
     3
 72
    24
 73
    20
 74
     0
 42
0.0000000001
 43
0.0000000001
 12
1.0
 22
0.0
 32
0.0
 13
1.0
 23
0.0
 33
0.0
 40
0.0
 40
0.0
 40
0.0
 40
0.0
 40
0.1666666666666667
 40
0.1666666666666667
 40
0.1666666666666667
 40
0.1666666666666667
 40
0.3333333333333333
 40
0.3333333333333333
 40
0.3333333333333333
 40
0.3333333333333333
 40
0.5
 40
0.5
 40
0.5
 40
0.5
 40
0.6666666666666666
 40
0.6666666666666666
 40
0.6666666666666666
 40
0.6666666666666666
 40
1.0
 40
1.0
 40
1.0
 40
1.0
 10
-7.7622
 20
120.3964
 30
0.0
 10
-4.1097
 20
120.6757
 30
0.0
 10
-2.4382
 20
123.0314
 30
0.0
 10
-2.5258
 20
125.4236
 30
0.0
 10
-2.5258
 20
125.4236
 30
0.0
 10
-2.5258
 20
125.4236
 30
0.0
 10
-32.5946
 20
125.4236
 30
0.0
 10
-32.5946
 20
125.4236
 30
0.0
 10
-32.5946
 20
125.4236
 30
0.0
 10
-32.6822
 20
123.0314
 30
0.0
 10
-31.0106
 20
120.6757
 30
0.0
 10
-27.3582
 20
120.3964
 30
0.0
 10
-27.3582
 20
120.3964
 30
0.0
 10
-28.6566
 20
113.166
 30
0.0
 10
-20.696
 20
111.2407
 30
0.0
 10
-17.5602
 20
115.6639
 30
0.0
 10
-17.5602
 20
115.6639
 30
0.0
 10
-14.4244
 20
111.2407
 30
0.0
 10
-6.4638
 20
113.1662
 30
0.0
 10
-7.7622
 20
120.3964
 30
0.0
  0
SPLINE
  5
44
330
1F
100
AcDbEntity
  8
layer 1
 62
     7
100
AcDbSpline
210
0.0
220
0.0
230
1.0
 70
    11
 71
     3
 72
    24
 73
    20
 74
     0
 42
0.0000000001
 43
0.0000000001
 12
1.0
 22
0.0
 32
0.0
 13
1.0
 23
0.0
 33
0.0
 40
0.0
 40
0.0
 40
0.0
 40
0.0
 40
0.1666666666666667
 40
0.1666666666666667
 40
0.1666666666666667
 40
0.1666666666666667
 40
0.3333333333333333
 40
0.3333333333333333
 40
0.3333333333333333
 40
0.3333333333333333
 40
0.5
 40
0.5
 40
0.5
 40
0.5
 40
0.6666666666666666
 40
0.6666666666666666
 40
0.6666666666666666
 40
0.6666666666666666
 40
1.0
 40
1.0
 40
1.0
 40
1.0
 10
30.5163
 20
120.3964
 30
0.0
 10
34.1688
 20
120.6757
 30
0.0
 10
35.8404
 20
123.0314
 30
0.0
 10
35.7527
 20
125.4236
 30
0.0
 10
35.7527
 20
125.4236
 30
0.0
 10
35.7527
 20
125.4236
 30
0.0
 10
5.684
 20
125.4236
 30
0.0
 10
5.684
 20
125.4236
 30
0.0
 10
5.684
 20
125.4236
 30
0.0
 10
5.5964
 20
123.0314
 30
0.0
 10
7.2679
 20
120.6757
 30
0.0
 10
10.9204
 20
120.3964
 30
0.0
 10
10.9204
 20
120.3964
 30
0.0
 10
9.6219
 20
113.166
 30
0.0
 10
17.5826
 20
111.2407
 30
0.0
 10
20.7184
 20
115.6639
 30
0.0
 10
20.7184
 20
115.6639
 30
0.0
 10
23.8542
 20
111.2407
 30
0.0
 10
31.8148
 20
113.1662
 30
0.0
 10
30.5163
 20
120.3964
 30
0.0
  0
SPLINE
  5
45
330
1F
100
AcDbEntity
  8
layer 1
 62
     7
100
AcDbSpline
210
0.0
220
0.0
230
1.0
 70
    11
 71
     3
 72
    24
 73
    20
 74
     0
 42
0.0000000001
 43
0.0000000001
 12
1.0
 22
0.0
 32
0.0
 13
1.0
 23
0.0
 33
0.0
 40
0.0
 40
0.0
 40
0.0
 40
0.0
 40
0.1666666666666667
 40
0.1666666666666667
 40
0.1666666666666667
 40
0.1666666666666667
 40
0.3333333333333333
 40
0.3333333333333333
 40
0.3333333333333333
 40
0.3333333333333333
 40
0.5
 40
0.5
 40
0.5
 40
0.5
 40
0.6666666666666666
 40
0.6666666666666666
 40
0.6666666666666666
 40
0.6666666666666666
 40
1.0
 40
1.0
 40
1.0
 40
1.0
 10
68.7949
 20
120.3964
 30
0.0
 10
72.4474
 20
120.6757
 30
0.0
 10
74.1189
 20
123.0314
 30
0.0
 10
74.0313
 20
125.4236
 30
0.0
 10
74.0313
 20
125.4236
 30
0.0
 10
74.0313
 20
125.4236
 30
0.0
 10
43.9625
 20
125.4236
 30
0.0
 10
43.9625
 20
125.4236
 30
0.0
 10
43.9625
 20
125.4236
 30
0.0
 10
43.8749
 20
123.0314
 30
0.0
 10
45.5465
 20
120.6757
 30
0.0
 10
49.1989
 20
120.3964
 30
0.0
 10
49.1989
 20
120.3964
 30
0.0
 10
47.9005
 20
113.166
 30
0.0
 10
55.8611
 20
111.2407
 30
0.0
 10
58.9969
 20
115.6639
 30
0.0
 10
58.9969
 20
115.6639
 30
0.0
 10
62.1327
 20
111.2407
 30
0.0
 10
70.0933
 20
113.1662
 30
0.0
 10
68.7949
 20
120.3964
 30
0.0
  0
SPLINE
  5
46
330
1F
100
AcDbEntity
  8
layer 1
 62
     7
100
AcDbSpline
210
0.0
220
0.0
230
1.0
 70
    11
 71
     3
 72
    24
 73
    20
 74
     0
 42
0.0000000001
 43
0.0000000001
 12
1.0
 22
0.0
 32
0.0
 13
1.0
 23
0.0
 33
0.0
 40
0.0
 40
0.0
 40
0.0
 40
0.0
 40
0.1666666666666667
 40
0.1666666666666667
 40
0.1666666666666667
 40
0.1666666666666667
 40
0.3333333333333333
 40
0.3333333333333333
 40
0.3333333333333333
 40
0.3333333333333333
 40
0.5
 40
0.5
 40
0.5
 40
0.5
 40
0.6666666666666666
 40
0.6666666666666666
 40
0.6666666666666666
 40
0.6666666666666666
 40
1.0
 40
1.0
 40
1.0
 40
1.0
 10
-69.0041
 20
118.0645
 30
0.0
 10
-72.1767
 20
118.4568
 30
0.0
 10
-74.102
 20
120.0863
 30
0.0
 10
-74.905
 20
123.3559
 30
0.0
 10
-74.905
 20
123.3559
 30
0.0
 10
-74.905
 20
123.3559
 30
0.0
 10
-74.905
 20
94.0998
 30
0.0
 10
-74.905
 20
94.0998
 30
0.0
 10
-74.905
 20
94.0998
 30
0.0
 10
-74.102
 20
97.3693
 30
0.0
 10
-72.1765
 20
98.9988
 30
0.0
 10
-69.0041
 20
99.3911
 30
0.0
 10
-69.0041
 20
99.3911
 30
0.0
 10
-69.415
 20
103.564
 30
0.0
 10
-68.0631
 20
107.803
 30
0.0
 10
-63.934
 20
108.7278
 30
0.0
 10
-63.934
 20
108.7278
 30
0.0
 10
-68.0631
 20
109.6525
 30
0.0
 10
-69.415
 20
113.8915
 30
0.0
 10
-69.0041
 20
118.0645
 30
0.0
  0
SPLINE
  5
47
330
1F
100
AcDbEntity
  8
layer 1
 62
     7
100
AcDbSpline
210
0.0
220
0.0
230
1.0
 70
    11
 71
     3
 72
    24
 73
    20
 74
     0
 42
0.0000000001
 43
0.0000000001
 12
1.0
 22
0.0
 32
0.0
 13
1.0
 23
0.0
 33
0.0
 40
0.0
 40
0.0
 40
0.0
 40
0.0
 40
0.1666666666666667
 40
0.1666666666666667
 40
0.1666666666666667
 40
0.1666666666666667
 40
0.3333333333333333
 40
0.3333333333333333
 40
0.3333333333333333
 40
0.3333333333333333
 40
0.5
 40
0.5
 40
0.5
 40
0.5
 40
0.6666666666666666
 40
0.6666666666666666
 40
0.6666666666666666
 40
0.6666666666666666
 40
1.0
 40
1.0
 40
1.0
 40
1.0
 10
-69.0041
 20
84.6383
 30
0.0
 10
-72.1767
 20
85.0305
 30
0.0
 10
-74.102
 20
86.66
 30
0.0
 10
-74.905
 20
89.9296
 30
0.0
 10
-74.905
 20
89.9296
 30
0.0
 10
-74.905
 20
89.9296
 30
0.0
 10
-74.905
 20
60.6735
 30
0.0
 10
-74.905
 20
60.6735
 30
0.0
 10
-74.905
 20
60.6735
 30
0.0
 10
-74.102
 20
63.943
 30
0.0
 10
-72.1765
 20
65.5726
 30
0.0
 10
-69.0041
 20
65.9648
 30
0.0
 10
-69.0041
 20
65.9648
 30
0.0
 10
-69.415
 20
70.1377
 30
0.0
 10
-68.0631
 20
74.3767
 30
0.0
 10
-63.934
 20
75.3015
 30
0.0
 10
-63.934
 20
75.3015
 30
0.0
 10
-68.0631
 20
76.2262
 30
0.0
 10
-69.415
 20
80.4652
 30
0.0
 10
-69.0041
 20
84.6383
 30
0.0
  0
SPLINE
  5
48
330
1F
100
AcDbEntity
  8
layer 1
 62
     7
100
AcDbSpline
210
0.0
220
0.0
230
1.0
 70
    11
 71
     3
 72
    24
 73
    20
 74
     0
 42
0.0000000001
 43
0.0000000001
 12
1.0
 22
0.0
 32
0.0
 13
1.0
 23
0.0
 33
0.0
 40
0.0
 40
0.0
 40
0.0
 40
0.0
 40
0.1666666666666667
 40
0.1666666666666667
 40
0.1666666666666667
 40
0.1666666666666667
 40
0.3333333333333333
 40
0.3333333333333333
 40
0.3333333333333333
 40
0.3333333333333333
 40
0.5
 40
0.5
 40
0.5
 40
0.5
 40
0.6666666666666666
 40
0.6666666666666666
 40
0.6666666666666666
 40
0.6666666666666666
 40
1.0
 40
1.0
 40
1.0
 40
1.0
 10
-69.0041
 20
51.212
 30
0.0
 10
-72.1767
 20
51.6043
 30
0.0
 10
-74.102
 20
53.2338
 30
0.0
 10
-74.905
 20
56.5033
 30
0.0
 10
-74.905
 20
56.5033
 30
0.0
 10
-74.905
 20
56.5033
 30
0.0
 10
-74.905
 20
27.2472
 30
0.0
 10
-74.905
 20
27.2472
 30
0.0
 10
-74.905
 20
27.2472
 30
0.0
 10
-74.102
 20
30.5168
 30
0.0
 10
-72.1765
 20
32.1463
 30
0.0
 10
-69.0041
 20
32.5386
 30
0.0
 10
-69.0041
 20
32.5386
 30
0.0
 10
-69.415
 20
36.7114
 30
0.0
 10
-68.0631
 20
40.9504
 30
0.0
 10
-63.934
 20
41.8753
 30
0.0
 10
-63.934
 20
41.8753
 30
0.0
 10
-68.0631
 20
42.8
 30
0.0
 10
-69.415
 20
47.039
 30
0.0
 10
-69.0041
 20
51.212
 30
0.0
  0
SPLINE
  5
49
330
1F
100
AcDbEntity
  8
layer 1
 62
     7
100
AcDbSpline
210
0.0
220
0.0
230
1.0
 70
    11
 71
     3
 72
    24
 73
    20
 74
     0
 42
0.0000000001
 43
0.0000000001
 12
1.0
 22
0.0
 32
0.0
 13
1.0
 23
0.0
 33
0.0
 40
0.0
 40
0.0
 40
0.0
 40
0.0
 40
0.1666666666666667
 40
0.1666666666666667
 40
0.1666666666666667
 40
0.1666666666666667
 40
0.3333333333333333
 40
0.3333333333333333
 40
0.3333333333333333
 40
0.3333333333333333
 40
0.5
 40
0.5
 40
0.5
 40
0.5
 40
0.6666666666666666
 40
0.6666666666666666
 40
0.6666666666666666
 40
0.6666666666666666
 40
1.0
 40
1.0
 40
1.0
 40
1.0
 10
-69.0041
 20
17.7857
 30
0.0
 10
-72.1767
 20
18.178
 30
0.0
 10
-74.102
 20
19.8075
 30
0.0
 10
-74.905
 20
23.0771
 30
0.0
 10
-74.905
 20
23.0771
 30
0.0
 10
-74.905
 20
23.0771
 30
0.0
 10
-74.905
 20
-6.179
 30
0.0
 10
-74.905
 20
-6.179
 30
0.0
 10
-74.905
 20
-6.179
 30
0.0
 10
-74.102
 20
-2.9095
 30
0.0
 10
-72.1765
 20
-1.28
 30
0.0
 10
-69.0041
 20
-0.8877
 30
0.0
 10
-69.0041
 20
-0.8877
 30
0.0
 10
-69.415
 20
3.2852
 30
0.0
 10
-68.0631
 20
7.5242
 30
0.0
 10
-63.934
 20
8.449
 30
0.0
 10
-63.934
 20
8.449
 30
0.0
 10
-68.0631
 20
9.3737
 30
0.0
 10
-69.415
 20
13.6127
 30
0.0
 10
-69.0041
 20
17.7857
 30
0.0
  0
SPLINE
  5
4A
330
1F
100
AcDbEntity
  8
layer 1
 62
     7
100
AcDbSpline
210
0.0
220
0.0
230
1.0
 70
    11
 71
     3
 72
    24
 73
    20
 74
     0
 42
0.0000000001
 43
0.0000000001
 12
1.0
 22
0.0
 32
0.0
 13
1.0
 23
0.0
 33
0.0
 40
0.0
 40
0.0
 40
0.0
 40
0.0
 40
0.1666666666666667
 40
0.1666666666666667
 40
0.1666666666666667
 40
0.1666666666666667
 40
0.3333333333333333
 40
0.3333333333333333
 40
0.3333333333333333
 40
0.3333333333333333
 40
0.5
 40
0.5
 40
0.5
 40
0.5
 40
0.6666666666666666
 40
0.6666666666666666
 40
0.6666666666666666
 40
0.6666666666666666
 40
1.0
 40
1.0
 40
1.0
 40
1.0
 10
-69.0041
 20
-15.6405
 30
0.0
 10
-72.1767
 20
-15.2483
 30
0.0
 10
-74.102
 20
-13.6188
 30
0.0
 10
-74.905
 20
-10.3492
 30
0.0
 10
-74.905
 20
-10.3492
 30
0.0
 10
-74.905
 20
-10.3492
 30
0.0
 10
-74.905
 20
-39.6053
 30
0.0
 10
-74.905
 20
-39.6053
 30
0.0
 10
-74.905
 20
-39.6053
 30
0.0
 10
-74.102
 20
-36.3357
 30
0.0
 10
-72.1765
 20
-34.7062
 30
0.0
 10
-69.0041
 20
-34.314
 30
0.0
 10
-69.0041
 20
-34.314
 30
0.0
 10
-69.415
 20
-30.1411
 30
0.0
 10
-68.0631
 20
-25.9021
 30
0.0
 10
-63.934
 20
-24.9772
 30
0.0
 10
-63.934
 20
-24.9772
 30
0.0
 10
-68.0631
 20
-24.0526
 30
0.0
 10
-69.415
 20
-19.8136
 30
0.0
 10
-69.0041
 20
-15.6405
 30
0.0
  0
SPLINE
  5
4B
330
1F
100
AcDbEntity
  8
layer 1
 62
     7
100
AcDbSpline
210
0.0
220
0.0
230
1.0
 70
    11
 71
     3
 72
    24
 73
    20
 74
     0
 42
0.0000000001
 43
0.0000000001
 12
1.0
 22
0.0
 32
0.0
 13
1.0
 23
0.0
 33
0.0
 40
0.0
 40
0.0
 40
0.0
 40
0.0
 40
0.1666666666666667
 40
0.1666666666666667
 40
0.1666666666666667
 40
0.1666666666666667
 40
0.3333333333333333
 40
0.3333333333333333
 40
0.3333333333333333
 40
0.3333333333333333
 40
0.5
 40
0.5
 40
0.5
 40
0.5
 40
0.6666666666666666
 40
0.6666666666666666
 40
0.6666666666666666
 40
0.6666666666666666
 40
1.0
 40
1.0
 40
1.0
 40
1.0
 10
-69.0041
 20
-49.0668
 30
0.0
 10
-72.1767
 20
-48.6745
 30
0.0
 10
-74.102
 20
-47.045
 30
0.0
 10
-74.905
 20
-43.7755
 30
0.0
 10
-74.905
 20
-43.7755
 30
0.0
 10
-74.905
 20
-43.7755
 30
0.0
 10
-74.905
 20
-73.0316
 30
0.0
 10
-74.905
 20
-73.0316
 30
0.0
 10
-74.905
 20
-73.0316
 30
0.0
 10
-74.102
 20
-69.762
 30
0.0
 10
-72.1765
 20
-68.1325
 30
0.0
 10
-69.0041
 20
-67.7402
 30
0.0
 10
-69.0041
 20
-67.7402
 30
0.0
 10
-69.415
 20
-63.5674
 30
0.0
 10
-68.0631
 20
-59.3284
 30
0.0
 10
-63.934
 20
-58.4035
 30
0.0
 10
-63.934
 20
-58.4035
 30
0.0
 10
-68.0631
 20
-57.4788
 30
0.0
 10
-69.415
 20
-53.2398
 30
0.0
 10
-69.0041
 20
-49.0668
 30
0.0
  0
SPLINE
  5
4C
330
1F
100
AcDbEntity
  8
layer 1
 62
     7
100
AcDbSpline
210
0.0
220
0.0
230
1.0
 70
    11
 71
     3
 72
    24
 73
    20
 74
     0
 42
0.0000000001
 43
0.0000000001
 12
1.0
 22
0.0
 32
0.0
 13
1.0
 23
0.0
 33
0.0
 40
0.0
 40
0.0
 40
0.0
 40
0.0
 40
0.1666666666666667
 40
0.1666666666666667
 40
0.1666666666666667
 40
0.1666666666666667
 40
0.3333333333333333
 40
0.3333333333333333
 40
0.3333333333333333
 40
0.3333333333333333
 40
0.5
 40
0.5
 40
0.5
 40
0.5
 40
0.6666666666666666
 40
0.6666666666666666
 40
0.6666666666666666
 40
0.6666666666666666
 40
1.0
 40
1.0
 40
1.0
 40
1.0
 10
-69.0041
 20
-82.4931
 30
0.0
 10
-72.1767
 20
-82.1008
 30
0.0
 10
-74.102
 20
-80.4713
 30
0.0
 10
-74.905
 20
-77.2017
 30
0.0
 10
-74.905
 20
-77.2017
 30
0.0
 10
-74.905
 20
-77.2017
 30
0.0
 10
-74.905
 20
-106.4578
 30
0.0
 10
-74.905
 20
-106.4578
 30
0.0
 10
-74.905
 20
-106.4578
 30
0.0
 10
-74.102
 20
-103.1883
 30
0.0
 10
-72.1765
 20
-101.5588
 30
0.0
 10
-69.0041
 20
-101.1665
 30
0.0
 10
-69.0041
 20
-101.1665
 30
0.0
 10
-69.415
 20
-96.9936
 30
0.0
 10
-68.0631
 20
-92.7546
 30
0.0
 10
-63.934
 20
-91.8298
 30
0.0
 10
-63.934
 20
-91.8298
 30
0.0
 10
-68.0631
 20
-90.9051
 30
0.0
 10
-69.415
 20
-86.6661
 30
0.0
 10
-69.0041
 20
-82.4931
 30
0.0
  0
SPLINE
  5
4D
330
1F
100
AcDbEntity
  8
layer 1
 62
     7
100
AcDbSpline
210
0.0
220
0.0
230
1.0
 70
    11
 71
     3
 72
    36
 73
    32
 74
     0
 42
0.0000000001
 43
0.0000000001
 12
1.0
 22
0.0
 32
0.0
 13
1.0
 23
0.0
 33
0.0
 40
0.0
 40
0.0
 40
0.0
 40
0.0
 40
0.1111111111111111
 40
0.1111111111111111
 40
0.1111111111111111
 40
0.1111111111111111
 40
0.2222222222222222
 40
0.2222222222222222
 40
0.2222222222222222
 40
0.2222222222222222
 40
0.3333333333333333
 40
0.3333333333333333
 40
0.3333333333333333
 40
0.3333333333333333
 40
0.4444444444444444
 40
0.4444444444444444
 40
0.4444444444444444
 40
0.4444444444444444
 40
0.5555555555555556
 40
0.5555555555555556
 40
0.5555555555555556
 40
0.5555555555555556
 40
0.6666666666666666
 40
0.6666666666666666
 40
0.6666666666666666
 40
0.6666666666666666
 40
0.7777777777777778
 40
0.7777777777777778
 40
0.7777777777777778
 40
0.7777777777777778
 40
1.0
 40
1.0
 40
1.0
 40
1.0
 10
-46.0408
 20
86.9701
 30
0.0
 10
-42.3883
 20
87.2494
 30
0.0
 10
-40.7167
 20
89.6052
 30
0.0
 10
-40.8044
 20
91.9973
 30
0.0
 10
-40.8044
 20
91.9973
 30
0.0
 10
-40.7167
 20
94.3895
 30
0.0
 10
-42.3883
 20
96.7452
 30
0.0
 10
-46.0408
 20
97.0245
 30
0.0
 10
-46.0408
 20
97.0245
 30
0.0
 10
-44.7423
 20
104.2549
 30
0.0
 10
-52.7029
 20
106.1802
 30
0.0
 10
-55.8387
 20
101.757
 30
0.0
 10
-55.8387
 20
101.757
 30
0.0
 10
-58.9745
 20
106.1802
 30
0.0
 10
-66.9352
 20
104.2547
 30
0.0
 10
-65.6367
 20
97.0245
 30
0.0
 10
-65.6367
 20
97.0245
 30
0.0
 10
-69.2892
 20
96.7452
 30
0.0
 10
-70.9607
 20
94.3895
 30
0.0
 10
-70.8731
 20
91.9973
 30
0.0
 10
-70.8731
 20
91.9973
 30
0.0
 10
-70.9607
 20
89.6052
 30
0.0
 10
-69.2892
 20
87.2494
 30
0.0
 10
-65.6367
 20
86.9701
 30
0.0
 10
-65.6367
 20
86.9701
 30
0.0
 10
-66.9352
 20
79.7397
 30
0.0
 10
-58.9745
 20
77.8144
 30
0.0
 10
-55.8387
 20
82.2376
 30
0.0
 10
-55.8387
 20
82.2376
 30
0.0
 10
-52.7029
 20
77.8144
 30
0.0
 10
-44.7423
 20
79.7399
 30
0.0
 10
-46.0408
 20
86.9701
 30
0.0
  0
SPLINE
  5
4E
330
1F
100
AcDbEntity
  8
layer 1
 62
     7
100
AcDbSpline
210
0.0
220
0.0
230
1.0
 70
    11
 71
     3
 72
    36
 73
    32
 74
     0
 42
0.0000000001
 43
0.0000000001
 12
1.0
 22
0.0
 32
0.0
 13
1.0
 23
0.0
 33
0.0
 40
0.0
 40
0.0
 40
0.0
 40
0.0
 40
0.1111111111111111
 40
0.1111111111111111
 40
0.1111111111111111
 40
0.1111111111111111
 40
0.2222222222222222
 40
0.2222222222222222
 40
0.2222222222222222
 40
0.2222222222222222
 40
0.3333333333333333
 40
0.3333333333333333
 40
0.3333333333333333
 40
0.3333333333333333
 40
0.4444444444444444
 40
0.4444444444444444
 40
0.4444444444444444
 40
0.4444444444444444
 40
0.5555555555555556
 40
0.5555555555555556
 40
0.5555555555555556
 40
0.5555555555555556
 40
0.6666666666666666
 40
0.6666666666666666
 40
0.6666666666666666
 40
0.6666666666666666
 40
0.7777777777777778
 40
0.7777777777777778
 40
0.7777777777777778
 40
0.7777777777777778
 40
1.0
 40
1.0
 40
1.0
 40
1.0
 10
-46.0408
 20
53.5438
 30
0.0
 10
-42.3883
 20
53.8232
 30
0.0
 10
-40.7167
 20
56.1789
 30
0.0
 10
-40.8044
 20
58.571
 30
0.0
 10
-40.8044
 20
58.571
 30
0.0
 10
-40.7167
 20
60.9632
 30
0.0
 10
-42.3883
 20
63.3189
 30
0.0
 10
-46.0408
 20
63.5983
 30
0.0
 10
-46.0408
 20
63.5983
 30
0.0
 10
-44.7423
 20
70.8286
 30
0.0
 10
-52.7029
 20
72.754
 30
0.0
 10
-55.8387
 20
68.3307
 30
0.0
 10
-55.8387
 20
68.3307
 30
0.0
 10
-58.9745
 20
72.754
 30
0.0
 10
-66.9352
 20
70.8285
 30
0.0
 10
-65.6367
 20
63.5983
 30
0.0
 10
-65.6367
 20
63.5983
 30
0.0
 10
-69.2892
 20
63.3189
 30
0.0
 10
-70.9607
 20
60.9632
 30
0.0
 10
-70.8731
 20
58.571
 30
0.0
 10
-70.8731
 20
58.571
 30
0.0
 10
-70.9607
 20
56.1789
 30
0.0
 10
-69.2892
 20
53.8232
 30
0.0
 10
-65.6367
 20
53.5438
 30
0.0
 10
-65.6367
 20
53.5438
 30
0.0
 10
-66.9352
 20
46.3134
 30
0.0
 10
-58.9745
 20
44.3881
 30
0.0
 10
-55.8387
 20
48.8114
 30
0.0
 10
-55.8387
 20
48.8114
 30
0.0
 10
-52.7029
 20
44.3881
 30
0.0
 10
-44.7423
 20
46.3136
 30
0.0
 10
-46.0408
 20
53.5438
 30
0.0
  0
SPLINE
  5
4F
330
1F
100
AcDbEntity
  8
layer 1
 62
     7
100
AcDbSpline
210
0.0
220
0.0
230
1.0
 70
    11
 71
     3
 72
    36
 73
    32
 74
     0
 42
0.0000000001
 43
0.0000000001
 12
1.0
 22
0.0
 32
0.0
 13
1.0
 23
0.0
 33
0.0
 40
0.0
 40
0.0
 40
0.0
 40
0.0
 40
0.1111111111111111
 40
0.1111111111111111
 40
0.1111111111111111
 40
0.1111111111111111
 40
0.2222222222222222
 40
0.2222222222222222
 40
0.2222222222222222
 40
0.2222222222222222
 40
0.3333333333333333
 40
0.3333333333333333
 40
0.3333333333333333
 40
0.3333333333333333
 40
0.4444444444444444
 40
0.4444444444444444
 40
0.4444444444444444
 40
0.4444444444444444
 40
0.5555555555555556
 40
0.5555555555555556
 40
0.5555555555555556
 40
0.5555555555555556
 40
0.6666666666666666
 40
0.6666666666666666
 40
0.6666666666666666
 40
0.6666666666666666
 40
0.7777777777777778
 40
0.7777777777777778
 40
0.7777777777777778
 40
0.7777777777777778
 40
1.0
 40
1.0
 40
1.0
 40
1.0
 10
-46.0408
 20
20.1176
 30
0.0
 10
-42.3883
 20
20.3969
 30
0.0
 10
-40.7167
 20
22.7526
 30
0.0
 10
-40.8044
 20
25.1448
 30
0.0
 10
-40.8044
 20
25.1448
 30
0.0
 10
-40.7167
 20
27.5369
 30
0.0
 10
-42.3883
 20
29.8926
 30
0.0
 10
-46.0408
 20
30.172
 30
0.0
 10
-46.0408
 20
30.172
 30
0.0
 10
-44.7423
 20
37.4024
 30
0.0
 10
-52.7029
 20
39.3277
 30
0.0
 10
-55.8387
 20
34.9044
 30
0.0
 10
-55.8387
 20
34.9044
 30
0.0
 10
-58.9745
 20
39.3277
 30
0.0
 10
-66.9352
 20
37.4022
 30
0.0
 10
-65.6367
 20
30.172
 30
0.0
 10
-65.6367
 20
30.172
 30
0.0
 10
-69.2892
 20
29.8926
 30
0.0
 10
-70.9607
 20
27.5369
 30
0.0
 10
-70.8731
 20
25.1448
 30
0.0
 10
-70.8731
 20
25.1448
 30
0.0
 10
-70.9607
 20
22.7526
 30
0.0
 10
-69.2892
 20
20.3969
 30
0.0
 10
-65.6367
 20
20.1176
 30
0.0
 10
-65.6367
 20
20.1176
 30
0.0
 10
-66.9352
 20
12.8872
 30
0.0
 10
-58.9745
 20
10.9619
 30
0.0
 10
-55.8387
 20
15.3851
 30
0.0
 10
-55.8387
 20
15.3851
 30
0.0
 10
-52.7029
 20
10.9619
 30
0.0
 10
-44.7423
 20
12.8874
 30
0.0
 10
-46.0408
 20
20.1176
 30
0.0
  0
SPLINE
  5
50
330
1F
100
AcDbEntity
  8
layer 1
 62
     7
100
AcDbSpline
210
0.0
220
0.0
230
1.0
 70
    11
 71
     3
 72
    36
 73
    32
 74
     0
 42
0.0000000001
 43
0.0000000001
 12
1.0
 22
0.0
 32
0.0
 13
1.0
 23
0.0
 33
0.0
 40
0.0
 40
0.0
 40
0.0
 40
0.0
 40
0.1111111111111111
 40
0.1111111111111111
 40
0.1111111111111111
 40
0.1111111111111111
 40
0.2222222222222222
 40
0.2222222222222222
 40
0.2222222222222222
 40
0.2222222222222222
 40
0.3333333333333333
 40
0.3333333333333333
 40
0.3333333333333333
 40
0.3333333333333333
 40
0.4444444444444444
 40
0.4444444444444444
 40
0.4444444444444444
 40
0.4444444444444444
 40
0.5555555555555556
 40
0.5555555555555556
 40
0.5555555555555556
 40
0.5555555555555556
 40
0.6666666666666666
 40
0.6666666666666666
 40
0.6666666666666666
 40
0.6666666666666666
 40
0.7777777777777778
 40
0.7777777777777778
 40
0.7777777777777778
 40
0.7777777777777778
 40
1.0
 40
1.0
 40
1.0
 40
1.0
 10
-46.0408
 20
-13.3087
 30
0.0
 10
-42.3883
 20
-13.0294
 30
0.0
 10
-40.7167
 20
-10.6736
 30
0.0
 10
-40.8044
 20
-8.2815
 30
0.0
 10
-40.8044
 20
-8.2815
 30
0.0
 10
-40.7167
 20
-5.8893
 30
0.0
 10
-42.3883
 20
-3.5336
 30
0.0
 10
-46.0408
 20
-3.2543
 30
0.0
 10
-46.0408
 20
-3.2543
 30
0.0
 10
-44.7423
 20
3.9761
 30
0.0
 10
-52.7029
 20
5.9014
 30
0.0
 10
-55.8387
 20
1.4782
 30
0.0
 10
-55.8387
 20
1.4782
 30
0.0
 10
-58.9745
 20
5.9014
 30
0.0
 10
-66.9352
 20
3.9759
 30
0.0
 10
-65.6367
 20
-3.2543
 30
0.0
 10
-65.6367
 20
-3.2543
 30
0.0
 10
-69.2892
 20
-3.5336
 30
0.0
 10
-70.9607
 20
-5.8893
 30
0.0
 10
-70.8731
 20
-8.2815
 30
0.0
 10
-70.8731
 20
-8.2815
 30
0.0
 10
-70.9607
 20
-10.6736
 30
0.0
 10
-69.2892
 20
-13.0294
 30
0.0
 10
-65.6367
 20
-13.3087
 30
0.0
 10
-65.6367
 20
-13.3087
 30
0.0
 10
-66.9352
 20
-20.5391
 30
0.0
 10
-58.9745
 20
-22.4644
 30
0.0
 10
-55.8387
 20
-18.0412
 30
0.0
 10
-55.8387
 20
-18.0412
 30
0.0
 10
-52.7029
 20
-22.4644
 30
0.0
 10
-44.7423
 20
-20.5389
 30
0.0
 10
-46.0408
 20
-13.3087
 30
0.0
  0
SPLINE
  5
51
330
1F
100
AcDbEntity
  8
layer 1
 62
     7
100
AcDbSpline
210
0.0
220
0.0
230
1.0
 70
    11
 71
     3
 72
    36
 73
    32
 74
     0
 42
0.0000000001
 43
0.0000000001
 12
1.0
 22
0.0
 32
0.0
 13
1.0
 23
0.0
 33
0.0
 40
0.0
 40
0.0
 40
0.0
 40
0.0
 40
0.1111111111111111
 40
0.1111111111111111
 40
0.1111111111111111
 40
0.1111111111111111
 40
0.2222222222222222
 40
0.2222222222222222
 40
0.2222222222222222
 40
0.2222222222222222
 40
0.3333333333333333
 40
0.3333333333333333
 40
0.3333333333333333
 40
0.3333333333333333
 40
0.4444444444444444
 40
0.4444444444444444
 40
0.4444444444444444
 40
0.4444444444444444
 40
0.5555555555555556
 40
0.5555555555555556
 40
0.5555555555555556
 40
0.5555555555555556
 40
0.6666666666666666
 40
0.6666666666666666
 40
0.6666666666666666
 40
0.6666666666666666
 40
0.7777777777777778
 40
0.7777777777777778
 40
0.7777777777777778
 40
0.7777777777777778
 40
1.0
 40
1.0
 40
1.0
 40
1.0
 10
-46.0408
 20
-46.735
 30
0.0
 10
-42.3883
 20
-46.4556
 30
0.0
 10
-40.7167
 20
-44.0999
 30
0.0
 10
-40.8044
 20
-41.7078
 30
0.0
 10
-40.8044
 20
-41.7078
 30
0.0
 10
-40.7167
 20
-39.3156
 30
0.0
 10
-42.3883
 20
-36.9599
 30
0.0
 10
-46.0408
 20
-36.6805
 30
0.0
 10
-46.0408
 20
-36.6805
 30
0.0
 10
-44.7423
 20
-29.4502
 30
0.0
 10
-52.7029
 20
-27.5248
 30
0.0
 10
-55.8387
 20
-31.9481
 30
0.0
 10
-55.8387
 20
-31.9481
 30
0.0
 10
-58.9745
 20
-27.5248
 30
0.0
 10
-66.9352
 20
-29.4503
 30
0.0
 10
-65.6367
 20
-36.6805
 30
0.0
 10
-65.6367
 20
-36.6805
 30
0.0
 10
-69.2892
 20
-36.9599
 30
0.0
 10
-70.9607
 20
-39.3156
 30
0.0
 10
-70.8731
 20
-41.7078
 30
0.0
 10
-70.8731
 20
-41.7078
 30
0.0
 10
-70.9607
 20
-44.0999
 30
0.0
 10
-69.2892
 20
-46.4556
 30
0.0
 10
-65.6367
 20
-46.735
 30
0.0
 10
-65.6367
 20
-46.735
 30
0.0
 10
-66.9352
 20
-53.9653
 30
0.0
 10
-58.9745
 20
-55.8907
 30
0.0
 10
-55.8387
 20
-51.4674
 30
0.0
 10
-55.8387
 20
-51.4674
 30
0.0
 10
-52.7029
 20
-55.8907
 30
0.0
 10
-44.7423
 20
-53.9652
 30
0.0
 10
-46.0408
 20
-46.735
 30
0.0
  0
SPLINE
  5
52
330
1F
100
AcDbEntity
  8
layer 1
 62
     7
100
AcDbSpline
210
0.0
220
0.0
230
1.0
 70
    11
 71
     3
 72
    36
 73
    32
 74
     0
 42
0.0000000001
 43
0.0000000001
 12
1.0
 22
0.0
 32
0.0
 13
1.0
 23
0.0
 33
0.0
 40
0.0
 40
0.0
 40
0.0
 40
0.0
 40
0.1111111111111111
 40
0.1111111111111111
 40
0.1111111111111111
 40
0.1111111111111111
 40
0.2222222222222222
 40
0.2222222222222222
 40
0.2222222222222222
 40
0.2222222222222222
 40
0.3333333333333333
 40
0.3333333333333333
 40
0.3333333333333333
 40
0.3333333333333333
 40
0.4444444444444444
 40
0.4444444444444444
 40
0.4444444444444444
 40
0.4444444444444444
 40
0.5555555555555556
 40
0.5555555555555556
 40
0.5555555555555556
 40
0.5555555555555556
 40
0.6666666666666666
 40
0.6666666666666666
 40
0.6666666666666666
 40
0.6666666666666666
 40
0.7777777777777778
 40
0.7777777777777778
 40
0.7777777777777778
 40
0.7777777777777778
 40
1.0
 40
1.0
 40
1.0
 40
1.0
 10
-46.0408
 20
-80.1612
 30
0.0
 10
-42.3883
 20
-79.8819
 30
0.0
 10
-40.7167
 20
-77.5262
 30
0.0
 10
-40.8044
 20
-75.134
 30
0.0
 10
-40.8044
 20
-75.134
 30
0.0
 10
-40.7167
 20
-72.7419
 30
0.0
 10
-42.3883
 20
-70.3862
 30
0.0
 10
-46.0408
 20
-70.1068
 30
0.0
 10
-46.0408
 20
-70.1068
 30
0.0
 10
-44.7423
 20
-62.8764
 30
0.0
 10
-52.7029
 20
-60.9511
 30
0.0
 10
-55.8387
 20
-65.3744
 30
0.0
 10
-55.8387
 20
-65.3744
 30
0.0
 10
-58.9745
 20
-60.9511
 30
0.0
 10
-66.9352
 20
-62.8766
 30
0.0
 10
-65.6367
 20
-70.1068
 30
0.0
 10
-65.6367
 20
-70.1068
 30
0.0
 10
-69.2892
 20
-70.3862
 30
0.0
 10
-70.9607
 20
-72.7419
 30
0.0
 10
-70.8731
 20
-75.134
 30
0.0
 10
-70.8731
 20
-75.134
 30
0.0
 10
-70.9607
 20
-77.5262
 30
0.0
 10
-69.2892
 20
-79.8819
 30
0.0
 10
-65.6367
 20
-80.1612
 30
0.0
 10
-65.6367
 20
-80.1612
 30
0.0
 10
-66.9352
 20
-87.3916
 30
0.0
 10
-58.9745
 20
-89.3169
 30
0.0
 10
-55.8387
 20
-84.8937
 30
0.0
 10
-55.8387
 20
-84.8937
 30
0.0
 10
-52.7029
 20
-89.3169
 30
0.0
 10
-44.7423
 20
-87.3914
 30
0.0
 10
-46.0408
 20
-80.1612
 30
0.0
  0
SPLINE
  5
53
330
1F
100
AcDbEntity
  8
layer 1
 62
     7
100
AcDbSpline
210
0.0
220
0.0
230
1.0
 70
    11
 71
     3
 72
    24
 73
    20
 74
     0
 42
0.0000000001
 43
0.0000000001
 12
1.0
 22
0.0
 32
0.0
 13
1.0
 23
0.0
 33
0.0
 40
0.0
 40
0.0
 40
0.0
 40
0.0
 40
0.1666666666666667
 40
0.1666666666666667
 40
0.1666666666666667
 40
0.1666666666666667
 40
0.3333333333333333
 40
0.3333333333333333
 40
0.3333333333333333
 40
0.3333333333333333
 40
0.5
 40
0.5
 40
0.5
 40
0.5
 40
0.6666666666666666
 40
0.6666666666666666
 40
0.6666666666666666
 40
0.6666666666666666
 40
1.0
 40
1.0
 40
1.0
 40
1.0
 10
-40.8044
 20
-108.5603
 30
0.0
 10
-40.7167
 20
-106.1681
 30
0.0
 10
-42.3883
 20
-103.8124
 30
0.0
 10
-46.0408
 20
-103.5331
 30
0.0
 10
-46.0408
 20
-103.5331
 30
0.0
 10
-44.7423
 20
-96.3027
 30
0.0
 10
-52.7029
 20
-94.3774
 30
0.0
 10
-55.8387
 20
-98.8006
 30
0.0
 10
-55.8387
 20
-98.8006
 30
0.0
 10
-58.9745
 20
-94.3774
 30
0.0
 10
-66.9352
 20
-96.3029
 30
0.0
 10
-65.6367
 20
-103.5331
 30
0.0
 10
-65.6367
 20
-103.5331
 30
0.0
 10
-69.2892
 20
-103.8124
 30
0.0
 10
-70.9607
 20
-106.1681
 30
0.0
 10
-70.8731
 20
-108.5603
 30
0.0
 10
-70.8731
 20
-108.5603
 30
0.0
 10
-70.8731
 20
-108.5603
 30
0.0
 10
-40.8044
 20
-108.5603
 30
0.0
 10
-40.8044
 20
-108.5603
 30
0.0
  0
SPLINE
  5
54
330
1F
100
AcDbEntity
  8
layer 1
 62
     7
100
AcDbSpline
210
0.0
220
0.0
230
1.0
 70
    11
 71
     3
 72
    20
 73
    16
 74
     0
 42
0.0000000001
 43
0.0000000001
 12
1.0
 22
0.0
 32
0.0
 13
1.0
 23
0.0
 33
0.0
 40
0.0
 40
0.0
 40
0.0
 40
0.0
 40
0.2
 40
0.2
 40
0.2
 40
0.2
 40
0.4
 40
0.4
 40
0.4
 40
0.4
 40
0.6
 40
0.6
 40
0.6
 40
0.6
 40
1.0
 40
1.0
 40
1.0
 40
1.0
 10
-55.8091
 20
111.1642
 30
0.0
 10
-56.6531
 20
110.1922
 30
0.0
 10
-57.8183
 20
109.4484
 30
0.0
 10
-60.2523
 20
108.7278
 30
0.0
 10
-60.2523
 20
108.7278
 30
0.0
 10
-57.8183
 20
108.0072
 30
0.0
 10
-56.6531
 20
107.2634
 30
0.0
 10
-55.8091
 20
106.2914
 30
0.0
 10
-55.8091
 20
106.2914
 30
0.0
 10
-54.5959
 20
107.7226
 30
0.0
 10
-53.1908
 20
108.3149
 30
0.0
 10
-51.1672
 20
108.7278
 30
0.0
 10
-51.1672
 20
108.7278
 30
0.0
 10
-53.191
 20
109.1407
 30
0.0
 10
-54.5959
 20
109.733
 30
0.0
 10
-55.8091
 20
111.1642
 30
0.0
  0
SPLINE
  5
55
330
1F
100
AcDbEntity
  8
layer 1
 62
     7
100
AcDbSpline
210
0.0
220
0.0
230
1.0
 70
    11
 71
     3
 72
    20
 73
    16
 74
     0
 42
0.0000000001
 43
0.0000000001
 12
1.0
 22
0.0
 32
0.0
 13
1.0
 23
0.0
 33
0.0
 40
0.0
 40
0.0
 40
0.0
 40
0.0
 40
0.2
 40
0.2
 40
0.2
 40
0.2
 40
0.4
 40
0.4
 40
0.4
 40
0.4
 40
0.6
 40
0.6
 40
0.6
 40
0.6
 40
1.0
 40
1.0
 40
1.0
 40
1.0
 10
-55.8091
 20
77.7379
 30
0.0
 10
-56.6531
 20
76.766
 30
0.0
 10
-57.8183
 20
76.0221
 30
0.0
 10
-60.2523
 20
75.3015
 30
0.0
 10
-60.2523
 20
75.3015
 30
0.0
 10
-57.8183
 20
74.581
 30
0.0
 10
-56.6531
 20
73.8371
 30
0.0
 10
-55.8091
 20
72.8652
 30
0.0
 10
-55.8091
 20
72.8652
 30
0.0
 10
-54.5959
 20
74.2963
 30
0.0
 10
-53.1908
 20
74.8886
 30
0.0
 10
-51.1672
 20
75.3015
 30
0.0
 10
-51.1672
 20
75.3015
 30
0.0
 10
-53.191
 20
75.7145
 30
0.0
 10
-54.5959
 20
76.3068
 30
0.0
 10
-55.8091
 20
77.7379
 30
0.0
  0
SPLINE
  5
56
330
1F
100
AcDbEntity
  8
layer 1
 62
     7
100
AcDbSpline
210
0.0
220
0.0
230
1.0
 70
    11
 71
     3
 72
    20
 73
    16
 74
     0
 42
0.0000000001
 43
0.0000000001
 12
1.0
 22
0.0
 32
0.0
 13
1.0
 23
0.0
 33
0.0
 40
0.0
 40
0.0
 40
0.0
 40
0.0
 40
0.2
 40
0.2
 40
0.2
 40
0.2
 40
0.4
 40
0.4
 40
0.4
 40
0.4
 40
0.6
 40
0.6
 40
0.6
 40
0.6
 40
1.0
 40
1.0
 40
1.0
 40
1.0
 10
-55.8091
 20
44.3117
 30
0.0
 10
-56.6531
 20
43.3397
 30
0.0
 10
-57.8183
 20
42.5959
 30
0.0
 10
-60.2523
 20
41.8753
 30
0.0
 10
-60.2523
 20
41.8753
 30
0.0
 10
-57.8183
 20
41.1547
 30
0.0
 10
-56.6531
 20
40.4109
 30
0.0
 10
-55.8091
 20
39.4389
 30
0.0
 10
-55.8091
 20
39.4389
 30
0.0
 10
-54.5959
 20
40.8701
 30
0.0
 10
-53.1908
 20
41.4624
 30
0.0
 10
-51.1672
 20
41.8753
 30
0.0
 10
-51.1672
 20
41.8753
 30
0.0
 10
-53.191
 20
42.2882
 30
0.0
 10
-54.5959
 20
42.8805
 30
0.0
 10
-55.8091
 20
44.3117
 30
0.0
  0
SPLINE
  5
57
330
1F
100
AcDbEntity
  8
layer 1
 62
     7
100
AcDbSpline
210
0.0
220
0.0
230
1.0
 70
    11
 71
     3
 72
    20
 73
    16
 74
     0
 42
0.0000000001
 43
0.0000000001
 12
1.0
 22
0.0
 32
0.0
 13
1.0
 23
0.0
 33
0.0
 40
0.0
 40
0.0
 40
0.0
 40
0.0
 40
0.2
 40
0.2
 40
0.2
 40
0.2
 40
0.4
 40
0.4
 40
0.4
 40
0.4
 40
0.6
 40
0.6
 40
0.6
 40
0.6
 40
1.0
 40
1.0
 40
1.0
 40
1.0
 10
-55.8091
 20
10.8854
 30
0.0
 10
-56.6531
 20
9.9134
 30
0.0
 10
-57.8183
 20
9.1696
 30
0.0
 10
-60.2523
 20
8.449
 30
0.0
 10
-60.2523
 20
8.449
 30
0.0
 10
-57.8183
 20
7.7284
 30
0.0
 10
-56.6531
 20
6.9846
 30
0.0
 10
-55.8091
 20
6.0126
 30
0.0
 10
-55.8091
 20
6.0126
 30
0.0
 10
-54.5959
 20
7.4438
 30
0.0
 10
-53.1908
 20
8.0361
 30
0.0
 10
-51.1672
 20
8.449
 30
0.0
 10
-51.1672
 20
8.449
 30
0.0
 10
-53.191
 20
8.8619
 30
0.0
 10
-54.5959
 20
9.4542
 30
0.0
 10
-55.8091
 20
10.8854
 30
0.0
  0
SPLINE
  5
58
330
1F
100
AcDbEntity
  8
layer 1
 62
     7
100
AcDbSpline
210
0.0
220
0.0
230
1.0
 70
    11
 71
     3
 72
    20
 73
    16
 74
     0
 42
0.0000000001
 43
0.0000000001
 12
1.0
 22
0.0
 32
0.0
 13
1.0
 23
0.0
 33
0.0
 40
0.0
 40
0.0
 40
0.0
 40
0.0
 40
0.2
 40
0.2
 40
0.2
 40
0.2
 40
0.4
 40
0.4
 40
0.4
 40
0.4
 40
0.6
 40
0.6
 40
0.6
 40
0.6
 40
1.0
 40
1.0
 40
1.0
 40
1.0
 10
-55.8091
 20
-22.5409
 30
0.0
 10
-56.6531
 20
-23.5128
 30
0.0
 10
-57.8183
 20
-24.2567
 30
0.0
 10
-60.2523
 20
-24.9772
 30
0.0
 10
-60.2523
 20
-24.9772
 30
0.0
 10
-57.8183
 20
-25.6978
 30
0.0
 10
-56.6531
 20
-26.4417
 30
0.0
 10
-55.8091
 20
-27.4136
 30
0.0
 10
-55.8091
 20
-27.4136
 30
0.0
 10
-54.5959
 20
-25.9825
 30
0.0
 10
-53.1908
 20
-25.3902
 30
0.0
 10
-51.1672
 20
-24.9772
 30
0.0
 10
-51.1672
 20
-24.9772
 30
0.0
 10
-53.191
 20
-24.5643
 30
0.0
 10
-54.5959
 20
-23.972
 30
0.0
 10
-55.8091
 20
-22.5409
 30
0.0
  0
SPLINE
  5
59
330
1F
100
AcDbEntity
  8
layer 1
 62
     7
100
AcDbSpline
210
0.0
220
0.0
230
1.0
 70
    11
 71
     3
 72
    20
 73
    16
 74
     0
 42
0.0000000001
 43
0.0000000001
 12
1.0
 22
0.0
 32
0.0
 13
1.0
 23
0.0
 33
0.0
 40
0.0
 40
0.0
 40
0.0
 40
0.0
 40
0.2
 40
0.2
 40
0.2
 40
0.2
 40
0.4
 40
0.4
 40
0.4
 40
0.4
 40
0.6
 40
0.6
 40
0.6
 40
0.6
 40
1.0
 40
1.0
 40
1.0
 40
1.0
 10
-55.8091
 20
-55.9671
 30
0.0
 10
-56.6531
 20
-56.9391
 30
0.0
 10
-57.8183
 20
-57.6829
 30
0.0
 10
-60.2523
 20
-58.4035
 30
0.0
 10
-60.2523
 20
-58.4035
 30
0.0
 10
-57.8183
 20
-59.1241
 30
0.0
 10
-56.6531
 20
-59.8679
 30
0.0
 10
-55.8091
 20
-60.8399
 30
0.0
 10
-55.8091
 20
-60.8399
 30
0.0
 10
-54.5959
 20
-59.4087
 30
0.0
 10
-53.1908
 20
-58.8164
 30
0.0
 10
-51.1672
 20
-58.4035
 30
0.0
 10
-51.1672
 20
-58.4035
 30
0.0
 10
-53.191
 20
-57.9906
 30
0.0
 10
-54.5959
 20
-57.3983
 30
0.0
 10
-55.8091
 20
-55.9671
 30
0.0
  0
SPLINE
  5
5A
330
1F
100
AcDbEntity
  8
layer 1
 62
     7
100
AcDbSpline
210
0.0
220
0.0
230
1.0
 70
    11
 71
     3
 72
    20
 73
    16
 74
     0
 42
0.0000000001
 43
0.0000000001
 12
1.0
 22
0.0
 32
0.0
 13
1.0
 23
0.0
 33
0.0
 40
0.0
 40
0.0
 40
0.0
 40
0.0
 40
0.2
 40
0.2
 40
0.2
 40
0.2
 40
0.4
 40
0.4
 40
0.4
 40
0.4
 40
0.6
 40
0.6
 40
0.6
 40
0.6
 40
1.0
 40
1.0
 40
1.0
 40
1.0
 10
-55.8091
 20
-89.3934
 30
0.0
 10
-56.6531
 20
-90.3654
 30
0.0
 10
-57.8183
 20
-91.1092
 30
0.0
 10
-60.2523
 20
-91.8298
 30
0.0
 10
-60.2523
 20
-91.8298
 30
0.0
 10
-57.8183
 20
-92.5504
 30
0.0
 10
-56.6531
 20
-93.2942
 30
0.0
 10
-55.8091
 20
-94.2662
 30
0.0
 10
-55.8091
 20
-94.2662
 30
0.0
 10
-54.5959
 20
-92.835
 30
0.0
 10
-53.1908
 20
-92.2427
 30
0.0
 10
-51.1672
 20
-91.8298
 30
0.0
 10
-51.1672
 20
-91.8298
 30
0.0
 10
-53.191
 20
-91.4169
 30
0.0
 10
-54.5959
 20
-90.8246
 30
0.0
 10
-55.8091
 20
-89.3934
 30
0.0
  0
SPLINE
  5
5B
330
1F
100
AcDbEntity
  8
layer 1
 62
     7
100
AcDbSpline
210
0.0
220
0.0
230
1.0
 70
    11
 71
     3
 72
    36
 73
    32
 74
     0
 42
0.0000000001
 43
0.0000000001
 12
1.0
 22
0.0
 32
0.0
 13
1.0
 23
0.0
 33
0.0
 40
0.0
 40
0.0
 40
0.0
 40
0.0
 40
0.1111111111111111
 40
0.1111111111111111
 40
0.1111111111111111
 40
0.1111111111111111
 40
0.2222222222222222
 40
0.2222222222222222
 40
0.2222222222222222
 40
0.2222222222222222
 40
0.3333333333333333
 40
0.3333333333333333
 40
0.3333333333333333
 40
0.3333333333333333
 40
0.4444444444444444
 40
0.4444444444444444
 40
0.4444444444444444
 40
0.4444444444444444
 40
0.5555555555555556
 40
0.5555555555555556
 40
0.5555555555555556
 40
0.5555555555555556
 40
0.6666666666666666
 40
0.6666666666666666
 40
0.6666666666666666
 40
0.6666666666666666
 40
0.7777777777777778
 40
0.7777777777777778
 40
0.7777777777777778
 40
0.7777777777777778
 40
1.0
 40
1.0
 40
1.0
 40
1.0
 10
-30.7255
 20
118.0645
 30
0.0
 10
-33.8981
 20
118.4568
 30
0.0
 10
-35.8234
 20
120.0863
 30
0.0
 10
-36.6264
 20
123.3559
 30
0.0
 10
-36.6264
 20
123.3559
 30
0.0
 10
-37.4294
 20
120.0863
 30
0.0
 10
-39.3549
 20
118.4568
 30
0.0
 10
-42.5273
 20
118.0645
 30
0.0
 10
-42.5273
 20
118.0645
 30
0.0
 10
-42.1164
 20
113.8917
 30
0.0
 10
-43.4683
 20
109.6527
 30
0.0
 10
-47.5974
 20
108.7278
 30
0.0
 10
-47.5974
 20
108.7278
 30
0.0
 10
-43.4683
 20
107.8031
 30
0.0
 10
-42.1164
 20
103.5641
 30
0.0
 10
-42.5273
 20
99.3911
 30
0.0
 10
-42.5273
 20
99.3911
 30
0.0
 10
-39.3547
 20
98.9988
 30
0.0
 10
-37.4294
 20
97.3693
 30
0.0
 10
-36.6264
 20
94.0998
 30
0.0
 10
-36.6264
 20
94.0998
 30
0.0
 10
-35.8234
 20
97.3693
 30
0.0
 10
-33.8979
 20
98.9988
 30
0.0
 10
-30.7255
 20
99.3911
 30
0.0
 10
-30.7255
 20
99.3911
 30
0.0
 10
-31.1364
 20
103.564
 30
0.0
 10
-29.7846
 20
107.803
 30
0.0
 10
-25.6554
 20
108.7278
 30
0.0
 10
-25.6554
 20
108.7278
 30
0.0
 10
-29.7846
 20
109.6525
 30
0.0
 10
-31.1364
 20
113.8915
 30
0.0
 10
-30.7255
 20
118.0645
 30
0.0
  0
SPLINE
  5
5C
330
1F
100
AcDbEntity
  8
layer 1
 62
     7
100
AcDbSpline
210
0.0
220
0.0
230
1.0
 70
    11
 71
     3
 72
    36
 73
    32
 74
     0
 42
0.0000000001
 43
0.0000000001
 12
1.0
 22
0.0
 32
0.0
 13
1.0
 23
0.0
 33
0.0
 40
0.0
 40
0.0
 40
0.0
 40
0.0
 40
0.1111111111111111
 40
0.1111111111111111
 40
0.1111111111111111
 40
0.1111111111111111
 40
0.2222222222222222
 40
0.2222222222222222
 40
0.2222222222222222
 40
0.2222222222222222
 40
0.3333333333333333
 40
0.3333333333333333
 40
0.3333333333333333
 40
0.3333333333333333
 40
0.4444444444444444
 40
0.4444444444444444
 40
0.4444444444444444
 40
0.4444444444444444
 40
0.5555555555555556
 40
0.5555555555555556
 40
0.5555555555555556
 40
0.5555555555555556
 40
0.6666666666666666
 40
0.6666666666666666
 40
0.6666666666666666
 40
0.6666666666666666
 40
0.7777777777777778
 40
0.7777777777777778
 40
0.7777777777777778
 40
0.7777777777777778
 40
1.0
 40
1.0
 40
1.0
 40
1.0
 10
-30.7255
 20
84.6383
 30
0.0
 10
-33.8981
 20
85.0305
 30
0.0
 10
-35.8234
 20
86.66
 30
0.0
 10
-36.6264
 20
89.9296
 30
0.0
 10
-36.6264
 20
89.9296
 30
0.0
 10
-37.4294
 20
86.66
 30
0.0
 10
-39.3549
 20
85.0305
 30
0.0
 10
-42.5273
 20
84.6383
 30
0.0
 10
-42.5273
 20
84.6383
 30
0.0
 10
-42.1164
 20
80.4654
 30
0.0
 10
-43.4683
 20
76.2264
 30
0.0
 10
-47.5974
 20
75.3015
 30
0.0
 10
-47.5974
 20
75.3015
 30
0.0
 10
-43.4683
 20
74.3769
 30
0.0
 10
-42.1164
 20
70.1379
 30
0.0
 10
-42.5273
 20
65.9648
 30
0.0
 10
-42.5273
 20
65.9648
 30
0.0
 10
-39.3547
 20
65.5726
 30
0.0
 10
-37.4294
 20
63.943
 30
0.0
 10
-36.6264
 20
60.6735
 30
0.0
 10
-36.6264
 20
60.6735
 30
0.0
 10
-35.8234
 20
63.943
 30
0.0
 10
-33.8979
 20
65.5726
 30
0.0
 10
-30.7255
 20
65.9648
 30
0.0
 10
-30.7255
 20
65.9648
 30
0.0
 10
-31.1364
 20
70.1377
 30
0.0
 10
-29.7846
 20
74.3767
 30
0.0
 10
-25.6554
 20
75.3015
 30
0.0
 10
-25.6554
 20
75.3015
 30
0.0
 10
-29.7846
 20
76.2262
 30
0.0
 10
-31.1364
 20
80.4652
 30
0.0
 10
-30.7255
 20
84.6383
 30
0.0
  0
SPLINE
  5
5D
330
1F
100
AcDbEntity
  8
layer 1
 62
     7
100
AcDbSpline
210
0.0
220
0.0
230
1.0
 70
    11
 71
     3
 72
    36
 73
    32
 74
     0
 42
0.0000000001
 43
0.0000000001
 12
1.0
 22
0.0
 32
0.0
 13
1.0
 23
0.0
 33
0.0
 40
0.0
 40
0.0
 40
0.0
 40
0.0
 40
0.1111111111111111
 40
0.1111111111111111
 40
0.1111111111111111
 40
0.1111111111111111
 40
0.2222222222222222
 40
0.2222222222222222
 40
0.2222222222222222
 40
0.2222222222222222
 40
0.3333333333333333
 40
0.3333333333333333
 40
0.3333333333333333
 40
0.3333333333333333
 40
0.4444444444444444
 40
0.4444444444444444
 40
0.4444444444444444
 40
0.4444444444444444
 40
0.5555555555555556
 40
0.5555555555555556
 40
0.5555555555555556
 40
0.5555555555555556
 40
0.6666666666666666
 40
0.6666666666666666
 40
0.6666666666666666
 40
0.6666666666666666
 40
0.7777777777777778
 40
0.7777777777777778
 40
0.7777777777777778
 40
0.7777777777777778
 40
1.0
 40
1.0
 40
1.0
 40
1.0
 10
-30.7255
 20
51.212
 30
0.0
 10
-33.8981
 20
51.6043
 30
0.0
 10
-35.8234
 20
53.2338
 30
0.0
 10
-36.6264
 20
56.5033
 30
0.0
 10
-36.6264
 20
56.5033
 30
0.0
 10
-37.4294
 20
53.2338
 30
0.0
 10
-39.3549
 20
51.6043
 30
0.0
 10
-42.5273
 20
51.212
 30
0.0
 10
-42.5273
 20
51.212
 30
0.0
 10
-42.1164
 20
47.0391
 30
0.0
 10
-43.4683
 20
42.8001
 30
0.0
 10
-47.5974
 20
41.8753
 30
0.0
 10
-47.5974
 20
41.8753
 30
0.0
 10
-43.4683
 20
40.9506
 30
0.0
 10
-42.1164
 20
36.7116
 30
0.0
 10
-42.5273
 20
32.5386
 30
0.0
 10
-42.5273
 20
32.5386
 30
0.0
 10
-39.3547
 20
32.1463
 30
0.0
 10
-37.4294
 20
30.5168
 30
0.0
 10
-36.6264
 20
27.2472
 30
0.0
 10
-36.6264
 20
27.2472
 30
0.0
 10
-35.8234
 20
30.5168
 30
0.0
 10
-33.8979
 20
32.1463
 30
0.0
 10
-30.7255
 20
32.5386
 30
0.0
 10
-30.7255
 20
32.5386
 30
0.0
 10
-31.1364
 20
36.7114
 30
0.0
 10
-29.7846
 20
40.9504
 30
0.0
 10
-25.6554
 20
41.8753
 30
0.0
 10
-25.6554
 20
41.8753
 30
0.0
 10
-29.7846
 20
42.8
 30
0.0
 10
-31.1364
 20
47.039
 30
0.0
 10
-30.7255
 20
51.212
 30
0.0
  0
SPLINE
  5
5E
330
1F
100
AcDbEntity
  8
layer 1
 62
     7
100
AcDbSpline
210
0.0
220
0.0
230
1.0
 70
    11
 71
     3
 72
    36
 73
    32
 74
     0
 42
0.0000000001
 43
0.0000000001
 12
1.0
 22
0.0
 32
0.0
 13
1.0
 23
0.0
 33
0.0
 40
0.0
 40
0.0
 40
0.0
 40
0.0
 40
0.1111111111111111
 40
0.1111111111111111
 40
0.1111111111111111
 40
0.1111111111111111
 40
0.2222222222222222
 40
0.2222222222222222
 40
0.2222222222222222
 40
0.2222222222222222
 40
0.3333333333333333
 40
0.3333333333333333
 40
0.3333333333333333
 40
0.3333333333333333
 40
0.4444444444444444
 40
0.4444444444444444
 40
0.4444444444444444
 40
0.4444444444444444
 40
0.5555555555555556
 40
0.5555555555555556
 40
0.5555555555555556
 40
0.5555555555555556
 40
0.6666666666666666
 40
0.6666666666666666
 40
0.6666666666666666
 40
0.6666666666666666
 40
0.7777777777777778
 40
0.7777777777777778
 40
0.7777777777777778
 40
0.7777777777777778
 40
1.0
 40
1.0
 40
1.0
 40
1.0
 10
-30.7255
 20
17.7857
 30
0.0
 10
-33.8981
 20
18.178
 30
0.0
 10
-35.8234
 20
19.8075
 30
0.0
 10
-36.6264
 20
23.0771
 30
0.0
 10
-36.6264
 20
23.0771
 30
0.0
 10
-37.4294
 20
19.8075
 30
0.0
 10
-39.3549
 20
18.178
 30
0.0
 10
-42.5273
 20
17.7857
 30
0.0
 10
-42.5273
 20
17.7857
 30
0.0
 10
-42.1164
 20
13.6129
 30
0.0
 10
-43.4683
 20
9.3739
 30
0.0
 10
-47.5974
 20
8.449
 30
0.0
 10
-47.5974
 20
8.449
 30
0.0
 10
-43.4683
 20
7.5243
 30
0.0
 10
-42.1164
 20
3.2853
 30
0.0
 10
-42.5273
 20
-0.8877
 30
0.0
 10
-42.5273
 20
-0.8877
 30
0.0
 10
-39.3547
 20
-1.28
 30
0.0
 10
-37.4294
 20
-2.9095
 30
0.0
 10
-36.6264
 20
-6.179
 30
0.0
 10
-36.6264
 20
-6.179
 30
0.0
 10
-35.8234
 20
-2.9095
 30
0.0
 10
-33.8979
 20
-1.28
 30
0.0
 10
-30.7255
 20
-0.8877
 30
0.0
 10
-30.7255
 20
-0.8877
 30
0.0
 10
-31.1364
 20
3.2852
 30
0.0
 10
-29.7846
 20
7.5242
 30
0.0
 10
-25.6554
 20
8.449
 30
0.0
 10
-25.6554
 20
8.449
 30
0.0
 10
-29.7846
 20
9.3737
 30
0.0
 10
-31.1364
 20
13.6127
 30
0.0
 10
-30.7255
 20
17.7857
 30
0.0
  0
SPLINE
  5
5F
330
1F
100
AcDbEntity
  8
layer 1
 62
     7
100
AcDbSpline
210
0.0
220
0.0
230
1.0
 70
    11
 71
     3
 72
    36
 73
    32
 74
     0
 42
0.0000000001
 43
0.0000000001
 12
1.0
 22
0.0
 32
0.0
 13
1.0
 23
0.0
 33
0.0
 40
0.0
 40
0.0
 40
0.0
 40
0.0
 40
0.1111111111111111
 40
0.1111111111111111
 40
0.1111111111111111
 40
0.1111111111111111
 40
0.2222222222222222
 40
0.2222222222222222
 40
0.2222222222222222
 40
0.2222222222222222
 40
0.3333333333333333
 40
0.3333333333333333
 40
0.3333333333333333
 40
0.3333333333333333
 40
0.4444444444444444
 40
0.4444444444444444
 40
0.4444444444444444
 40
0.4444444444444444
 40
0.5555555555555556
 40
0.5555555555555556
 40
0.5555555555555556
 40
0.5555555555555556
 40
0.6666666666666666
 40
0.6666666666666666
 40
0.6666666666666666
 40
0.6666666666666666
 40
0.7777777777777778
 40
0.7777777777777778
 40
0.7777777777777778
 40
0.7777777777777778
 40
1.0
 40
1.0
 40
1.0
 40
1.0
 10
-30.7255
 20
-15.6405
 30
0.0
 10
-33.8981
 20
-15.2483
 30
0.0
 10
-35.8234
 20
-13.6188
 30
0.0
 10
-36.6264
 20
-10.3492
 30
0.0
 10
-36.6264
 20
-10.3492
 30
0.0
 10
-37.4294
 20
-13.6188
 30
0.0
 10
-39.3549
 20
-15.2483
 30
0.0
 10
-42.5273
 20
-15.6405
 30
0.0
 10
-42.5273
 20
-15.6405
 30
0.0
 10
-42.1164
 20
-19.8134
 30
0.0
 10
-43.4683
 20
-24.0524
 30
0.0
 10
-47.5974
 20
-24.9772
 30
0.0
 10
-47.5974
 20
-24.9772
 30
0.0
 10
-43.4683
 20
-25.9019
 30
0.0
 10
-42.1164
 20
-30.1409
 30
0.0
 10
-42.5273
 20
-34.314
 30
0.0
 10
-42.5273
 20
-34.314
 30
0.0
 10
-39.3547
 20
-34.7062
 30
0.0
 10
-37.4294
 20
-36.3357
 30
0.0
 10
-36.6264
 20
-39.6053
 30
0.0
 10
-36.6264
 20
-39.6053
 30
0.0
 10
-35.8234
 20
-36.3357
 30
0.0
 10
-33.8979
 20
-34.7062
 30
0.0
 10
-30.7255
 20
-34.314
 30
0.0
 10
-30.7255
 20
-34.314
 30
0.0
 10
-31.1364
 20
-30.1411
 30
0.0
 10
-29.7846
 20
-25.9021
 30
0.0
 10
-25.6554
 20
-24.9772
 30
0.0
 10
-25.6554
 20
-24.9772
 30
0.0
 10
-29.7846
 20
-24.0526
 30
0.0
 10
-31.1364
 20
-19.8136
 30
0.0
 10
-30.7255
 20
-15.6405
 30
0.0
  0
SPLINE
  5
60
330
1F
100
AcDbEntity
  8
layer 1
 62
     7
100
AcDbSpline
210
0.0
220
0.0
230
1.0
 70
    11
 71
     3
 72
    36
 73
    32
 74
     0
 42
0.0000000001
 43
0.0000000001
 12
1.0
 22
0.0
 32
0.0
 13
1.0
 23
0.0
 33
0.0
 40
0.0
 40
0.0
 40
0.0
 40
0.0
 40
0.1111111111111111
 40
0.1111111111111111
 40
0.1111111111111111
 40
0.1111111111111111
 40
0.2222222222222222
 40
0.2222222222222222
 40
0.2222222222222222
 40
0.2222222222222222
 40
0.3333333333333333
 40
0.3333333333333333
 40
0.3333333333333333
 40
0.3333333333333333
 40
0.4444444444444444
 40
0.4444444444444444
 40
0.4444444444444444
 40
0.4444444444444444
 40
0.5555555555555556
 40
0.5555555555555556
 40
0.5555555555555556
 40
0.5555555555555556
 40
0.6666666666666666
 40
0.6666666666666666
 40
0.6666666666666666
 40
0.6666666666666666
 40
0.7777777777777778
 40
0.7777777777777778
 40
0.7777777777777778
 40
0.7777777777777778
 40
1.0
 40
1.0
 40
1.0
 40
1.0
 10
-30.7255
 20
-49.0668
 30
0.0
 10
-33.8981
 20
-48.6745
 30
0.0
 10
-35.8234
 20
-47.045
 30
0.0
 10
-36.6264
 20
-43.7755
 30
0.0
 10
-36.6264
 20
-43.7755
 30
0.0
 10
-37.4294
 20
-47.045
 30
0.0
 10
-39.3549
 20
-48.6745
 30
0.0
 10
-42.5273
 20
-49.0668
 30
0.0
 10
-42.5273
 20
-49.0668
 30
0.0
 10
-42.1164
 20
-53.2397
 30
0.0
 10
-43.4683
 20
-57.4787
 30
0.0
 10
-47.5974
 20
-58.4035
 30
0.0
 10
-47.5974
 20
-58.4035
 30
0.0
 10
-43.4683
 20
-59.3282
 30
0.0
 10
-42.1164
 20
-63.5672
 30
0.0
 10
-42.5273
 20
-67.7402
 30
0.0
 10
-42.5273
 20
-67.7402
 30
0.0
 10
-39.3547
 20
-68.1325
 30
0.0
 10
-37.4294
 20
-69.762
 30
0.0
 10
-36.6264
 20
-73.0316
 30
0.0
 10
-36.6264
 20
-73.0316
 30
0.0
 10
-35.8234
 20
-69.762
 30
0.0
 10
-33.8979
 20
-68.1325
 30
0.0
 10
-30.7255
 20
-67.7402
 30
0.0
 10
-30.7255
 20
-67.7402
 30
0.0
 10
-31.1364
 20
-63.5674
 30
0.0
 10
-29.7846
 20
-59.3284
 30
0.0
 10
-25.6554
 20
-58.4035
 30
0.0
 10
-25.6554
 20
-58.4035
 30
0.0
 10
-29.7846
 20
-57.4788
 30
0.0
 10
-31.1364
 20
-53.2398
 30
0.0
 10
-30.7255
 20
-49.0668
 30
0.0
  0
SPLINE
  5
61
330
1F
100
AcDbEntity
  8
layer 1
 62
     7
100
AcDbSpline
210
0.0
220
0.0
230
1.0
 70
    11
 71
     3
 72
    36
 73
    32
 74
     0
 42
0.0000000001
 43
0.0000000001
 12
1.0
 22
0.0
 32
0.0
 13
1.0
 23
0.0
 33
0.0
 40
0.0
 40
0.0
 40
0.0
 40
0.0
 40
0.1111111111111111
 40
0.1111111111111111
 40
0.1111111111111111
 40
0.1111111111111111
 40
0.2222222222222222
 40
0.2222222222222222
 40
0.2222222222222222
 40
0.2222222222222222
 40
0.3333333333333333
 40
0.3333333333333333
 40
0.3333333333333333
 40
0.3333333333333333
 40
0.4444444444444444
 40
0.4444444444444444
 40
0.4444444444444444
 40
0.4444444444444444
 40
0.5555555555555556
 40
0.5555555555555556
 40
0.5555555555555556
 40
0.5555555555555556
 40
0.6666666666666666
 40
0.6666666666666666
 40
0.6666666666666666
 40
0.6666666666666666
 40
0.7777777777777778
 40
0.7777777777777778
 40
0.7777777777777778
 40
0.7777777777777778
 40
1.0
 40
1.0
 40
1.0
 40
1.0
 10
-30.7255
 20
-82.4931
 30
0.0
 10
-33.8981
 20
-82.1008
 30
0.0
 10
-35.8234
 20
-80.4713
 30
0.0
 10
-36.6264
 20
-77.2017
 30
0.0
 10
-36.6264
 20
-77.2017
 30
0.0
 10
-37.4294
 20
-80.4713
 30
0.0
 10
-39.3549
 20
-82.1008
 30
0.0
 10
-42.5273
 20
-82.4931
 30
0.0
 10
-42.5273
 20
-82.4931
 30
0.0
 10
-42.1164
 20
-86.6659
 30
0.0
 10
-43.4683
 20
-90.9049
 30
0.0
 10
-47.5974
 20
-91.8298
 30
0.0
 10
-47.5974
 20
-91.8298
 30
0.0
 10
-43.4683
 20
-92.7545
 30
0.0
 10
-42.1164
 20
-96.9935
 30
0.0
 10
-42.5273
 20
-101.1665
 30
0.0
 10
-42.5273
 20
-101.1665
 30
0.0
 10
-39.3547
 20
-101.5588
 30
0.0
 10
-37.4294
 20
-103.1883
 30
0.0
 10
-36.6264
 20
-106.4578
 30
0.0
 10
-36.6264
 20
-106.4578
 30
0.0
 10
-35.8234
 20
-103.1883
 30
0.0
 10
-33.8979
 20
-101.5588
 30
0.0
 10
-30.7255
 20
-101.1665
 30
0.0
 10
-30.7255
 20
-101.1665
 30
0.0
 10
-31.1364
 20
-96.9936
 30
0.0
 10
-29.7846
 20
-92.7546
 30
0.0
 10
-25.6554
 20
-91.8298
 30
0.0
 10
-25.6554
 20
-91.8298
 30
0.0
 10
-29.7846
 20
-90.9051
 30
0.0
 10
-31.1364
 20
-86.6661
 30
0.0
 10
-30.7255
 20
-82.4931
 30
0.0
  0
SPLINE
  5
62
330
1F
100
AcDbEntity
  8
layer 1
 62
     7
100
AcDbSpline
210
0.0
220
0.0
230
1.0
 70
    11
 71
     3
 72
    36
 73
    32
 74
     0
 42
0.0000000001
 43
0.0000000001
 12
1.0
 22
0.0
 32
0.0
 13
1.0
 23
0.0
 33
0.0
 40
0.0
 40
0.0
 40
0.0
 40
0.0
 40
0.1111111111111111
 40
0.1111111111111111
 40
0.1111111111111111
 40
0.1111111111111111
 40
0.2222222222222222
 40
0.2222222222222222
 40
0.2222222222222222
 40
0.2222222222222222
 40
0.3333333333333333
 40
0.3333333333333333
 40
0.3333333333333333
 40
0.3333333333333333
 40
0.4444444444444444
 40
0.4444444444444444
 40
0.4444444444444444
 40
0.4444444444444444
 40
0.5555555555555556
 40
0.5555555555555556
 40
0.5555555555555556
 40
0.5555555555555556
 40
0.6666666666666666
 40
0.6666666666666666
 40
0.6666666666666666
 40
0.6666666666666666
 40
0.7777777777777778
 40
0.7777777777777778
 40
0.7777777777777778
 40
0.7777777777777778
 40
1.0
 40
1.0
 40
1.0
 40
1.0
 10
7.553
 20
118.0645
 30
0.0
 10
4.3804
 20
118.4568
 30
0.0
 10
2.4551
 20
120.0863
 30
0.0
 10
1.6521
 20
123.3559
 30
0.0
 10
1.6521
 20
123.3559
 30
0.0
 10
0.8492
 20
120.0863
 30
0.0
 10
-1.0763
 20
118.4568
 30
0.0
 10
-4.2487
 20
118.0645
 30
0.0
 10
-4.2487
 20
118.0645
 30
0.0
 10
-3.8378
 20
113.8917
 30
0.0
 10
-5.1897
 20
109.6527
 30
0.0
 10
-9.3188
 20
108.7278
 30
0.0
 10
-9.3188
 20
108.7278
 30
0.0
 10
-5.1897
 20
107.8031
 30
0.0
 10
-3.8378
 20
103.5641
 30
0.0
 10
-4.2487
 20
99.3911
 30
0.0
 10
-4.2487
 20
99.3911
 30
0.0
 10
-1.0761
 20
98.9988
 30
0.0
 10
0.8492
 20
97.3693
 30
0.0
 10
1.6521
 20
94.0998
 30
0.0
 10
1.6521
 20
94.0998
 30
0.0
 10
2.4551
 20
97.3693
 30
0.0
 10
4.3806
 20
98.9988
 30
0.0
 10
7.553
 20
99.3911
 30
0.0
 10
7.553
 20
99.3911
 30
0.0
 10
7.1421
 20
103.564
 30
0.0
 10
8.494
 20
107.803
 30
0.0
 10
12.6231
 20
108.7278
 30
0.0
 10
12.6231
 20
108.7278
 30
0.0
 10
8.494
 20
109.6525
 30
0.0
 10
7.1421
 20
113.8915
 30
0.0
 10
7.553
 20
118.0645
 30
0.0
  0
SPLINE
  5
63
330
1F
100
AcDbEntity
  8
layer 1
 62
     7
100
AcDbSpline
210
0.0
220
0.0
230
1.0
 70
    11
 71
     3
 72
    36
 73
    32
 74
     0
 42
0.0000000001
 43
0.0000000001
 12
1.0
 22
0.0
 32
0.0
 13
1.0
 23
0.0
 33
0.0
 40
0.0
 40
0.0
 40
0.0
 40
0.0
 40
0.1111111111111111
 40
0.1111111111111111
 40
0.1111111111111111
 40
0.1111111111111111
 40
0.2222222222222222
 40
0.2222222222222222
 40
0.2222222222222222
 40
0.2222222222222222
 40
0.3333333333333333
 40
0.3333333333333333
 40
0.3333333333333333
 40
0.3333333333333333
 40
0.4444444444444444
 40
0.4444444444444444
 40
0.4444444444444444
 40
0.4444444444444444
 40
0.5555555555555556
 40
0.5555555555555556
 40
0.5555555555555556
 40
0.5555555555555556
 40
0.6666666666666666
 40
0.6666666666666666
 40
0.6666666666666666
 40
0.6666666666666666
 40
0.7777777777777778
 40
0.7777777777777778
 40
0.7777777777777778
 40
0.7777777777777778
 40
1.0
 40
1.0
 40
1.0
 40
1.0
 10
7.553
 20
84.6383
 30
0.0
 10
4.3804
 20
85.0305
 30
0.0
 10
2.4551
 20
86.66
 30
0.0
 10
1.6521
 20
89.9296
 30
0.0
 10
1.6521
 20
89.9296
 30
0.0
 10
0.8492
 20
86.66
 30
0.0
 10
-1.0763
 20
85.0305
 30
0.0
 10
-4.2487
 20
84.6383
 30
0.0
 10
-4.2487
 20
84.6383
 30
0.0
 10
-3.8378
 20
80.4654
 30
0.0
 10
-5.1897
 20
76.2264
 30
0.0
 10
-9.3188
 20
75.3015
 30
0.0
 10
-9.3188
 20
75.3015
 30
0.0
 10
-5.1897
 20
74.3769
 30
0.0
 10
-3.8378
 20
70.1379
 30
0.0
 10
-4.2487
 20
65.9648
 30
0.0
 10
-4.2487
 20
65.9648
 30
0.0
 10
-1.0761
 20
65.5726
 30
0.0
 10
0.8492
 20
63.943
 30
0.0
 10
1.6521
 20
60.6735
 30
0.0
 10
1.6521
 20
60.6735
 30
0.0
 10
2.4551
 20
63.943
 30
0.0
 10
4.3806
 20
65.5726
 30
0.0
 10
7.553
 20
65.9648
 30
0.0
 10
7.553
 20
65.9648
 30
0.0
 10
7.1421
 20
70.1377
 30
0.0
 10
8.494
 20
74.3767
 30
0.0
 10
12.6231
 20
75.3015
 30
0.0
 10
12.6231
 20
75.3015
 30
0.0
 10
8.494
 20
76.2262
 30
0.0
 10
7.1421
 20
80.4652
 30
0.0
 10
7.553
 20
84.6383
 30
0.0
  0
SPLINE
  5
64
330
1F
100
AcDbEntity
  8
layer 1
 62
     7
100
AcDbSpline
210
0.0
220
0.0
230
1.0
 70
    11
 71
     3
 72
    36
 73
    32
 74
     0
 42
0.0000000001
 43
0.0000000001
 12
1.0
 22
0.0
 32
0.0
 13
1.0
 23
0.0
 33
0.0
 40
0.0
 40
0.0
 40
0.0
 40
0.0
 40
0.1111111111111111
 40
0.1111111111111111
 40
0.1111111111111111
 40
0.1111111111111111
 40
0.2222222222222222
 40
0.2222222222222222
 40
0.2222222222222222
 40
0.2222222222222222
 40
0.3333333333333333
 40
0.3333333333333333
 40
0.3333333333333333
 40
0.3333333333333333
 40
0.4444444444444444
 40
0.4444444444444444
 40
0.4444444444444444
 40
0.4444444444444444
 40
0.5555555555555556
 40
0.5555555555555556
 40
0.5555555555555556
 40
0.5555555555555556
 40
0.6666666666666666
 40
0.6666666666666666
 40
0.6666666666666666
 40
0.6666666666666666
 40
0.7777777777777778
 40
0.7777777777777778
 40
0.7777777777777778
 40
0.7777777777777778
 40
1.0
 40
1.0
 40
1.0
 40
1.0
 10
7.553
 20
51.212
 30
0.0
 10
4.3804
 20
51.6043
 30
0.0
 10
2.4551
 20
53.2338
 30
0.0
 10
1.6521
 20
56.5033
 30
0.0
 10
1.6521
 20
56.5033
 30
0.0
 10
0.8492
 20
53.2338
 30
0.0
 10
-1.0763
 20
51.6043
 30
0.0
 10
-4.2487
 20
51.212
 30
0.0
 10
-4.2487
 20
51.212
 30
0.0
 10
-3.8378
 20
47.0391
 30
0.0
 10
-5.1897
 20
42.8001
 30
0.0
 10
-9.3188
 20
41.8753
 30
0.0
 10
-9.3188
 20
41.8753
 30
0.0
 10
-5.1897
 20
40.9506
 30
0.0
 10
-3.8378
 20
36.7116
 30
0.0
 10
-4.2487
 20
32.5386
 30
0.0
 10
-4.2487
 20
32.5386
 30
0.0
 10
-1.0761
 20
32.1463
 30
0.0
 10
0.8492
 20
30.5168
 30
0.0
 10
1.6521
 20
27.2472
 30
0.0
 10
1.6521
 20
27.2472
 30
0.0
 10
2.4551
 20
30.5168
 30
0.0
 10
4.3806
 20
32.1463
 30
0.0
 10
7.553
 20
32.5386
 30
0.0
 10
7.553
 20
32.5386
 30
0.0
 10
7.1421
 20
36.7114
 30
0.0
 10
8.494
 20
40.9504
 30
0.0
 10
12.6231
 20
41.8753
 30
0.0
 10
12.6231
 20
41.8753
 30
0.0
 10
8.494
 20
42.8
 30
0.0
 10
7.1421
 20
47.039
 30
0.0
 10
7.553
 20
51.212
 30
0.0
  0
SPLINE
  5
65
330
1F
100
AcDbEntity
  8
layer 1
 62
     7
100
AcDbSpline
210
0.0
220
0.0
230
1.0
 70
    11
 71
     3
 72
    36
 73
    32
 74
     0
 42
0.0000000001
 43
0.0000000001
 12
1.0
 22
0.0
 32
0.0
 13
1.0
 23
0.0
 33
0.0
 40
0.0
 40
0.0
 40
0.0
 40
0.0
 40
0.1111111111111111
 40
0.1111111111111111
 40
0.1111111111111111
 40
0.1111111111111111
 40
0.2222222222222222
 40
0.2222222222222222
 40
0.2222222222222222
 40
0.2222222222222222
 40
0.3333333333333333
 40
0.3333333333333333
 40
0.3333333333333333
 40
0.3333333333333333
 40
0.4444444444444444
 40
0.4444444444444444
 40
0.4444444444444444
 40
0.4444444444444444
 40
0.5555555555555556
 40
0.5555555555555556
 40
0.5555555555555556
 40
0.5555555555555556
 40
0.6666666666666666
 40
0.6666666666666666
 40
0.6666666666666666
 40
0.6666666666666666
 40
0.7777777777777778
 40
0.7777777777777778
 40
0.7777777777777778
 40
0.7777777777777778
 40
1.0
 40
1.0
 40
1.0
 40
1.0
 10
7.553
 20
17.7857
 30
0.0
 10
4.3804
 20
18.178
 30
0.0
 10
2.4551
 20
19.8075
 30
0.0
 10
1.6521
 20
23.0771
 30
0.0
 10
1.6521
 20
23.0771
 30
0.0
 10
0.8492
 20
19.8075
 30
0.0
 10
-1.0763
 20
18.178
 30
0.0
 10
-4.2487
 20
17.7857
 30
0.0
 10
-4.2487
 20
17.7857
 30
0.0
 10
-3.8378
 20
13.6129
 30
0.0
 10
-5.1897
 20
9.3739
 30
0.0
 10
-9.3188
 20
8.449
 30
0.0
 10
-9.3188
 20
8.449
 30
0.0
 10
-5.1897
 20
7.5243
 30
0.0
 10
-3.8378
 20
3.2853
 30
0.0
 10
-4.2487
 20
-0.8877
 30
0.0
 10
-4.2487
 20
-0.8877
 30
0.0
 10
-1.0761
 20
-1.28
 30
0.0
 10
0.8492
 20
-2.9095
 30
0.0
 10
1.6521
 20
-6.179
 30
0.0
 10
1.6521
 20
-6.179
 30
0.0
 10
2.4551
 20
-2.9095
 30
0.0
 10
4.3806
 20
-1.28
 30
0.0
 10
7.553
 20
-0.8877
 30
0.0
 10
7.553
 20
-0.8877
 30
0.0
 10
7.1421
 20
3.2852
 30
0.0
 10
8.494
 20
7.5242
 30
0.0
 10
12.6231
 20
8.449
 30
0.0
 10
12.6231
 20
8.449
 30
0.0
 10
8.494
 20
9.3737
 30
0.0
 10
7.1421
 20
13.6127
 30
0.0
 10
7.553
 20
17.7857
 30
0.0
  0
SPLINE
  5
66
330
1F
100
AcDbEntity
  8
layer 1
 62
     7
100
AcDbSpline
210
0.0
220
0.0
230
1.0
 70
    11
 71
     3
 72
    36
 73
    32
 74
     0
 42
0.0000000001
 43
0.0000000001
 12
1.0
 22
0.0
 32
0.0
 13
1.0
 23
0.0
 33
0.0
 40
0.0
 40
0.0
 40
0.0
 40
0.0
 40
0.1111111111111111
 40
0.1111111111111111
 40
0.1111111111111111
 40
0.1111111111111111
 40
0.2222222222222222
 40
0.2222222222222222
 40
0.2222222222222222
 40
0.2222222222222222
 40
0.3333333333333333
 40
0.3333333333333333
 40
0.3333333333333333
 40
0.3333333333333333
 40
0.4444444444444444
 40
0.4444444444444444
 40
0.4444444444444444
 40
0.4444444444444444
 40
0.5555555555555556
 40
0.5555555555555556
 40
0.5555555555555556
 40
0.5555555555555556
 40
0.6666666666666666
 40
0.6666666666666666
 40
0.6666666666666666
 40
0.6666666666666666
 40
0.7777777777777778
 40
0.7777777777777778
 40
0.7777777777777778
 40
0.7777777777777778
 40
1.0
 40
1.0
 40
1.0
 40
1.0
 10
7.553
 20
-15.6405
 30
0.0
 10
4.3804
 20
-15.2483
 30
0.0
 10
2.4551
 20
-13.6188
 30
0.0
 10
1.6521
 20
-10.3492
 30
0.0
 10
1.6521
 20
-10.3492
 30
0.0
 10
0.8492
 20
-13.6188
 30
0.0
 10
-1.0763
 20
-15.2483
 30
0.0
 10
-4.2487
 20
-15.6405
 30
0.0
 10
-4.2487
 20
-15.6405
 30
0.0
 10
-3.8378
 20
-19.8134
 30
0.0
 10
-5.1897
 20
-24.0524
 30
0.0
 10
-9.3188
 20
-24.9772
 30
0.0
 10
-9.3188
 20
-24.9772
 30
0.0
 10
-5.1897
 20
-25.9019
 30
0.0
 10
-3.8378
 20
-30.1409
 30
0.0
 10
-4.2487
 20
-34.314
 30
0.0
 10
-4.2487
 20
-34.314
 30
0.0
 10
-1.0761
 20
-34.7062
 30
0.0
 10
0.8492
 20
-36.3357
 30
0.0
 10
1.6521
 20
-39.6053
 30
0.0
 10
1.6521
 20
-39.6053
 30
0.0
 10
2.4551
 20
-36.3357
 30
0.0
 10
4.3806
 20
-34.7062
 30
0.0
 10
7.553
 20
-34.314
 30
0.0
 10
7.553
 20
-34.314
 30
0.0
 10
7.1421
 20
-30.1411
 30
0.0
 10
8.494
 20
-25.9021
 30
0.0
 10
12.6231
 20
-24.9772
 30
0.0
 10
12.6231
 20
-24.9772
 30
0.0
 10
8.494
 20
-24.0526
 30
0.0
 10
7.1421
 20
-19.8136
 30
0.0
 10
7.553
 20
-15.6405
 30
0.0
  0
SPLINE
  5
67
330
1F
100
AcDbEntity
  8
layer 1
 62
     7
100
AcDbSpline
210
0.0
220
0.0
230
1.0
 70
    11
 71
     3
 72
    36
 73
    32
 74
     0
 42
0.0000000001
 43
0.0000000001
 12
1.0
 22
0.0
 32
0.0
 13
1.0
 23
0.0
 33
0.0
 40
0.0
 40
0.0
 40
0.0
 40
0.0
 40
0.1111111111111111
 40
0.1111111111111111
 40
0.1111111111111111
 40
0.1111111111111111
 40
0.2222222222222222
 40
0.2222222222222222
 40
0.2222222222222222
 40
0.2222222222222222
 40
0.3333333333333333
 40
0.3333333333333333
 40
0.3333333333333333
 40
0.3333333333333333
 40
0.4444444444444444
 40
0.4444444444444444
 40
0.4444444444444444
 40
0.4444444444444444
 40
0.5555555555555556
 40
0.5555555555555556
 40
0.5555555555555556
 40
0.5555555555555556
 40
0.6666666666666666
 40
0.6666666666666666
 40
0.6666666666666666
 40
0.6666666666666666
 40
0.7777777777777778
 40
0.7777777777777778
 40
0.7777777777777778
 40
0.7777777777777778
 40
1.0
 40
1.0
 40
1.0
 40
1.0
 10
7.553
 20
-49.0668
 30
0.0
 10
4.3804
 20
-48.6745
 30
0.0
 10
2.4551
 20
-47.045
 30
0.0
 10
1.6521
 20
-43.7755
 30
0.0
 10
1.6521
 20
-43.7755
 30
0.0
 10
0.8492
 20
-47.045
 30
0.0
 10
-1.0763
 20
-48.6745
 30
0.0
 10
-4.2487
 20
-49.0668
 30
0.0
 10
-4.2487
 20
-49.0668
 30
0.0
 10
-3.8378
 20
-53.2397
 30
0.0
 10
-5.1897
 20
-57.4787
 30
0.0
 10
-9.3188
 20
-58.4035
 30
0.0
 10
-9.3188
 20
-58.4035
 30
0.0
 10
-5.1897
 20
-59.3282
 30
0.0
 10
-3.8378
 20
-63.5672
 30
0.0
 10
-4.2487
 20
-67.7402
 30
0.0
 10
-4.2487
 20
-67.7402
 30
0.0
 10
-1.0761
 20
-68.1325
 30
0.0
 10
0.8492
 20
-69.762
 30
0.0
 10
1.6521
 20
-73.0316
 30
0.0
 10
1.6521
 20
-73.0316
 30
0.0
 10
2.4551
 20
-69.762
 30
0.0
 10
4.3806
 20
-68.1325
 30
0.0
 10
7.553
 20
-67.7402
 30
0.0
 10
7.553
 20
-67.7402
 30
0.0
 10
7.1421
 20
-63.5674
 30
0.0
 10
8.494
 20
-59.3284
 30
0.0
 10
12.6231
 20
-58.4035
 30
0.0
 10
12.6231
 20
-58.4035
 30
0.0
 10
8.494
 20
-57.4788
 30
0.0
 10
7.1421
 20
-53.2398
 30
0.0
 10
7.553
 20
-49.0668
 30
0.0
  0
SPLINE
  5
68
330
1F
100
AcDbEntity
  8
layer 1
 62
     7
100
AcDbSpline
210
0.0
220
0.0
230
1.0
 70
    11
 71
     3
 72
    36
 73
    32
 74
     0
 42
0.0000000001
 43
0.0000000001
 12
1.0
 22
0.0
 32
0.0
 13
1.0
 23
0.0
 33
0.0
 40
0.0
 40
0.0
 40
0.0
 40
0.0
 40
0.1111111111111111
 40
0.1111111111111111
 40
0.1111111111111111
 40
0.1111111111111111
 40
0.2222222222222222
 40
0.2222222222222222
 40
0.2222222222222222
 40
0.2222222222222222
 40
0.3333333333333333
 40
0.3333333333333333
 40
0.3333333333333333
 40
0.3333333333333333
 40
0.4444444444444444
 40
0.4444444444444444
 40
0.4444444444444444
 40
0.4444444444444444
 40
0.5555555555555556
 40
0.5555555555555556
 40
0.5555555555555556
 40
0.5555555555555556
 40
0.6666666666666666
 40
0.6666666666666666
 40
0.6666666666666666
 40
0.6666666666666666
 40
0.7777777777777778
 40
0.7777777777777778
 40
0.7777777777777778
 40
0.7777777777777778
 40
1.0
 40
1.0
 40
1.0
 40
1.0
 10
7.553
 20
-82.4931
 30
0.0
 10
4.3804
 20
-82.1008
 30
0.0
 10
2.4551
 20
-80.4713
 30
0.0
 10
1.6521
 20
-77.2017
 30
0.0
 10
1.6521
 20
-77.2017
 30
0.0
 10
0.8492
 20
-80.4713
 30
0.0
 10
-1.0763
 20
-82.1008
 30
0.0
 10
-4.2487
 20
-82.4931
 30
0.0
 10
-4.2487
 20
-82.4931
 30
0.0
 10
-3.8378
 20
-86.6659
 30
0.0
 10
-5.1897
 20
-90.9049
 30
0.0
 10
-9.3188
 20
-91.8298
 30
0.0
 10
-9.3188
 20
-91.8298
 30
0.0
 10
-5.1897
 20
-92.7545
 30
0.0
 10
-3.8378
 20
-96.9935
 30
0.0
 10
-4.2487
 20
-101.1665
 30
0.0
 10
-4.2487
 20
-101.1665
 30
0.0
 10
-1.0761
 20
-101.5588
 30
0.0
 10
0.8492
 20
-103.1883
 30
0.0
 10
1.6521
 20
-106.4578
 30
0.0
 10
1.6521
 20
-106.4578
 30
0.0
 10
2.4551
 20
-103.1883
 30
0.0
 10
4.3806
 20
-101.5588
 30
0.0
 10
7.553
 20
-101.1665
 30
0.0
 10
7.553
 20
-101.1665
 30
0.0
 10
7.1421
 20
-96.9936
 30
0.0
 10
8.494
 20
-92.7546
 30
0.0
 10
12.6231
 20
-91.8298
 30
0.0
 10
12.6231
 20
-91.8298
 30
0.0
 10
8.494
 20
-90.9051
 30
0.0
 10
7.1421
 20
-86.6661
 30
0.0
 10
7.553
 20
-82.4931
 30
0.0
  0
SPLINE
  5
69
330
1F
100
AcDbEntity
  8
layer 1
 62
     7
100
AcDbSpline
210
0.0
220
0.0
230
1.0
 70
    11
 71
     3
 72
    36
 73
    32
 74
     0
 42
0.0000000001
 43
0.0000000001
 12
1.0
 22
0.0
 32
0.0
 13
1.0
 23
0.0
 33
0.0
 40
0.0
 40
0.0
 40
0.0
 40
0.0
 40
0.1111111111111111
 40
0.1111111111111111
 40
0.1111111111111111
 40
0.1111111111111111
 40
0.2222222222222222
 40
0.2222222222222222
 40
0.2222222222222222
 40
0.2222222222222222
 40
0.3333333333333333
 40
0.3333333333333333
 40
0.3333333333333333
 40
0.3333333333333333
 40
0.4444444444444444
 40
0.4444444444444444
 40
0.4444444444444444
 40
0.4444444444444444
 40
0.5555555555555556
 40
0.5555555555555556
 40
0.5555555555555556
 40
0.5555555555555556
 40
0.6666666666666666
 40
0.6666666666666666
 40
0.6666666666666666
 40
0.6666666666666666
 40
0.7777777777777778
 40
0.7777777777777778
 40
0.7777777777777778
 40
0.7777777777777778
 40
1.0
 40
1.0
 40
1.0
 40
1.0
 10
45.8316
 20
118.0645
 30
0.0
 10
42.659
 20
118.4568
 30
0.0
 10
40.7337
 20
120.0863
 30
0.0
 10
39.9307
 20
123.3559
 30
0.0
 10
39.9307
 20
123.3559
 30
0.0
 10
39.1277
 20
120.0863
 30
0.0
 10
37.2022
 20
118.4568
 30
0.0
 10
34.0298
 20
118.0645
 30
0.0
 10
34.0298
 20
118.0645
 30
0.0
 10
34.4407
 20
113.8917
 30
0.0
 10
33.0889
 20
109.6527
 30
0.0
 10
28.9597
 20
108.7278
 30
0.0
 10
28.9597
 20
108.7278
 30
0.0
 10
33.0889
 20
107.8031
 30
0.0
 10
34.4407
 20
103.5641
 30
0.0
 10
34.0298
 20
99.3911
 30
0.0
 10
34.0298
 20
99.3911
 30
0.0
 10
37.2024
 20
98.9988
 30
0.0
 10
39.1277
 20
97.3693
 30
0.0
 10
39.9307
 20
94.0998
 30
0.0
 10
39.9307
 20
94.0998
 30
0.0
 10
40.7337
 20
97.3693
 30
0.0
 10
42.6592
 20
98.9988
 30
0.0
 10
45.8316
 20
99.3911
 30
0.0
 10
45.8316
 20
99.3911
 30
0.0
 10
45.4207
 20
103.564
 30
0.0
 10
46.7725
 20
107.803
 30
0.0
 10
50.9017
 20
108.7278
 30
0.0
 10
50.9017
 20
108.7278
 30
0.0
 10
46.7725
 20
109.6525
 30
0.0
 10
45.4207
 20
113.8915
 30
0.0
 10
45.8316
 20
118.0645
 30
0.0
  0
SPLINE
  5
6A
330
1F
100
AcDbEntity
  8
layer 1
 62
     7
100
AcDbSpline
210
0.0
220
0.0
230
1.0
 70
    11
 71
     3
 72
    36
 73
    32
 74
     0
 42
0.0000000001
 43
0.0000000001
 12
1.0
 22
0.0
 32
0.0
 13
1.0
 23
0.0
 33
0.0
 40
0.0
 40
0.0
 40
0.0
 40
0.0
 40
0.1111111111111111
 40
0.1111111111111111
 40
0.1111111111111111
 40
0.1111111111111111
 40
0.2222222222222222
 40
0.2222222222222222
 40
0.2222222222222222
 40
0.2222222222222222
 40
0.3333333333333333
 40
0.3333333333333333
 40
0.3333333333333333
 40
0.3333333333333333
 40
0.4444444444444444
 40
0.4444444444444444
 40
0.4444444444444444
 40
0.4444444444444444
 40
0.5555555555555556
 40
0.5555555555555556
 40
0.5555555555555556
 40
0.5555555555555556
 40
0.6666666666666666
 40
0.6666666666666666
 40
0.6666666666666666
 40
0.6666666666666666
 40
0.7777777777777778
 40
0.7777777777777778
 40
0.7777777777777778
 40
0.7777777777777778
 40
1.0
 40
1.0
 40
1.0
 40
1.0
 10
45.8316
 20
84.6383
 30
0.0
 10
42.659
 20
85.0305
 30
0.0
 10
40.7337
 20
86.66
 30
0.0
 10
39.9307
 20
89.9296
 30
0.0
 10
39.9307
 20
89.9296
 30
0.0
 10
39.1277
 20
86.66
 30
0.0
 10
37.2022
 20
85.0305
 30
0.0
 10
34.0298
 20
84.6383
 30
0.0
 10
34.0298
 20
84.6383
 30
0.0
 10
34.4407
 20
80.4654
 30
0.0
 10
33.0889
 20
76.2264
 30
0.0
 10
28.9597
 20
75.3015
 30
0.0
 10
28.9597
 20
75.3015
 30
0.0
 10
33.0889
 20
74.3769
 30
0.0
 10
34.4407
 20
70.1379
 30
0.0
 10
34.0298
 20
65.9648
 30
0.0
 10
34.0298
 20
65.9648
 30
0.0
 10
37.2024
 20
65.5726
 30
0.0
 10
39.1277
 20
63.943
 30
0.0
 10
39.9307
 20
60.6735
 30
0.0
 10
39.9307
 20
60.6735
 30
0.0
 10
40.7337
 20
63.943
 30
0.0
 10
42.6592
 20
65.5726
 30
0.0
 10
45.8316
 20
65.9648
 30
0.0
 10
45.8316
 20
65.9648
 30
0.0
 10
45.4207
 20
70.1377
 30
0.0
 10
46.7725
 20
74.3767
 30
0.0
 10
50.9017
 20
75.3015
 30
0.0
 10
50.9017
 20
75.3015
 30
0.0
 10
46.7725
 20
76.2262
 30
0.0
 10
45.4207
 20
80.4652
 30
0.0
 10
45.8316
 20
84.6383
 30
0.0
  0
SPLINE
  5
6B
330
1F
100
AcDbEntity
  8
layer 1
 62
     7
100
AcDbSpline
210
0.0
220
0.0
230
1.0
 70
    11
 71
     3
 72
    36
 73
    32
 74
     0
 42
0.0000000001
 43
0.0000000001
 12
1.0
 22
0.0
 32
0.0
 13
1.0
 23
0.0
 33
0.0
 40
0.0
 40
0.0
 40
0.0
 40
0.0
 40
0.1111111111111111
 40
0.1111111111111111
 40
0.1111111111111111
 40
0.1111111111111111
 40
0.2222222222222222
 40
0.2222222222222222
 40
0.2222222222222222
 40
0.2222222222222222
 40
0.3333333333333333
 40
0.3333333333333333
 40
0.3333333333333333
 40
0.3333333333333333
 40
0.4444444444444444
 40
0.4444444444444444
 40
0.4444444444444444
 40
0.4444444444444444
 40
0.5555555555555556
 40
0.5555555555555556
 40
0.5555555555555556
 40
0.5555555555555556
 40
0.6666666666666666
 40
0.6666666666666666
 40
0.6666666666666666
 40
0.6666666666666666
 40
0.7777777777777778
 40
0.7777777777777778
 40
0.7777777777777778
 40
0.7777777777777778
 40
1.0
 40
1.0
 40
1.0
 40
1.0
 10
45.8316
 20
51.212
 30
0.0
 10
42.659
 20
51.6043
 30
0.0
 10
40.7337
 20
53.2338
 30
0.0
 10
39.9307
 20
56.5033
 30
0.0
 10
39.9307
 20
56.5033
 30
0.0
 10
39.1277
 20
53.2338
 30
0.0
 10
37.2022
 20
51.6043
 30
0.0
 10
34.0298
 20
51.212
 30
0.0
 10
34.0298
 20
51.212
 30
0.0
 10
34.4407
 20
47.0391
 30
0.0
 10
33.0889
 20
42.8001
 30
0.0
 10
28.9597
 20
41.8753
 30
0.0
 10
28.9597
 20
41.8753
 30
0.0
 10
33.0889
 20
40.9506
 30
0.0
 10
34.4407
 20
36.7116
 30
0.0
 10
34.0298
 20
32.5386
 30
0.0
 10
34.0298
 20
32.5386
 30
0.0
 10
37.2024
 20
32.1463
 30
0.0
 10
39.1277
 20
30.5168
 30
0.0
 10
39.9307
 20
27.2472
 30
0.0
 10
39.9307
 20
27.2472
 30
0.0
 10
40.7337
 20
30.5168
 30
0.0
 10
42.6592
 20
32.1463
 30
0.0
 10
45.8316
 20
32.5386
 30
0.0
 10
45.8316
 20
32.5386
 30
0.0
 10
45.4207
 20
36.7114
 30
0.0
 10
46.7725
 20
40.9504
 30
0.0
 10
50.9017
 20
41.8753
 30
0.0
 10
50.9017
 20
41.8753
 30
0.0
 10
46.7725
 20
42.8
 30
0.0
 10
45.4207
 20
47.039
 30
0.0
 10
45.8316
 20
51.212
 30
0.0
  0
SPLINE
  5
6C
330
1F
100
AcDbEntity
  8
layer 1
 62
     7
100
AcDbSpline
210
0.0
220
0.0
230
1.0
 70
    11
 71
     3
 72
    36
 73
    32
 74
     0
 42
0.0000000001
 43
0.0000000001
 12
1.0
 22
0.0
 32
0.0
 13
1.0
 23
0.0
 33
0.0
 40
0.0
 40
0.0
 40
0.0
 40
0.0
 40
0.1111111111111111
 40
0.1111111111111111
 40
0.1111111111111111
 40
0.1111111111111111
 40
0.2222222222222222
 40
0.2222222222222222
 40
0.2222222222222222
 40
0.2222222222222222
 40
0.3333333333333333
 40
0.3333333333333333
 40
0.3333333333333333
 40
0.3333333333333333
 40
0.4444444444444444
 40
0.4444444444444444
 40
0.4444444444444444
 40
0.4444444444444444
 40
0.5555555555555556
 40
0.5555555555555556
 40
0.5555555555555556
 40
0.5555555555555556
 40
0.6666666666666666
 40
0.6666666666666666
 40
0.6666666666666666
 40
0.6666666666666666
 40
0.7777777777777778
 40
0.7777777777777778
 40
0.7777777777777778
 40
0.7777777777777778
 40
1.0
 40
1.0
 40
1.0
 40
1.0
 10
45.8316
 20
17.7857
 30
0.0
 10
42.659
 20
18.178
 30
0.0
 10
40.7337
 20
19.8075
 30
0.0
 10
39.9307
 20
23.0771
 30
0.0
 10
39.9307
 20
23.0771
 30
0.0
 10
39.1277
 20
19.8075
 30
0.0
 10
37.2022
 20
18.178
 30
0.0
 10
34.0298
 20
17.7857
 30
0.0
 10
34.0298
 20
17.7857
 30
0.0
 10
34.4407
 20
13.6129
 30
0.0
 10
33.0889
 20
9.3739
 30
0.0
 10
28.9597
 20
8.449
 30
0.0
 10
28.9597
 20
8.449
 30
0.0
 10
33.0889
 20
7.5243
 30
0.0
 10
34.4407
 20
3.2853
 30
0.0
 10
34.0298
 20
-0.8877
 30
0.0
 10
34.0298
 20
-0.8877
 30
0.0
 10
37.2024
 20
-1.28
 30
0.0
 10
39.1277
 20
-2.9095
 30
0.0
 10
39.9307
 20
-6.179
 30
0.0
 10
39.9307
 20
-6.179
 30
0.0
 10
40.7337
 20
-2.9095
 30
0.0
 10
42.6592
 20
-1.28
 30
0.0
 10
45.8316
 20
-0.8877
 30
0.0
 10
45.8316
 20
-0.8877
 30
0.0
 10
45.4207
 20
3.2852
 30
0.0
 10
46.7725
 20
7.5242
 30
0.0
 10
50.9017
 20
8.449
 30
0.0
 10
50.9017
 20
8.449
 30
0.0
 10
46.7725
 20
9.3737
 30
0.0
 10
45.4207
 20
13.6127
 30
0.0
 10
45.8316
 20
17.7857
 30
0.0
  0
SPLINE
  5
6D
330
1F
100
AcDbEntity
  8
layer 1
 62
     7
100
AcDbSpline
210
0.0
220
0.0
230
1.0
 70
    11
 71
     3
 72
    36
 73
    32
 74
     0
 42
0.0000000001
 43
0.0000000001
 12
1.0
 22
0.0
 32
0.0
 13
1.0
 23
0.0
 33
0.0
 40
0.0
 40
0.0
 40
0.0
 40
0.0
 40
0.1111111111111111
 40
0.1111111111111111
 40
0.1111111111111111
 40
0.1111111111111111
 40
0.2222222222222222
 40
0.2222222222222222
 40
0.2222222222222222
 40
0.2222222222222222
 40
0.3333333333333333
 40
0.3333333333333333
 40
0.3333333333333333
 40
0.3333333333333333
 40
0.4444444444444444
 40
0.4444444444444444
 40
0.4444444444444444
 40
0.4444444444444444
 40
0.5555555555555556
 40
0.5555555555555556
 40
0.5555555555555556
 40
0.5555555555555556
 40
0.6666666666666666
 40
0.6666666666666666
 40
0.6666666666666666
 40
0.6666666666666666
 40
0.7777777777777778
 40
0.7777777777777778
 40
0.7777777777777778
 40
0.7777777777777778
 40
1.0
 40
1.0
 40
1.0
 40
1.0
 10
45.8316
 20
-15.6405
 30
0.0
 10
42.659
 20
-15.2483
 30
0.0
 10
40.7337
 20
-13.6188
 30
0.0
 10
39.9307
 20
-10.3492
 30
0.0
 10
39.9307
 20
-10.3492
 30
0.0
 10
39.1277
 20
-13.6188
 30
0.0
 10
37.2022
 20
-15.2483
 30
0.0
 10
34.0298
 20
-15.6405
 30
0.0
 10
34.0298
 20
-15.6405
 30
0.0
 10
34.4407
 20
-19.8134
 30
0.0
 10
33.0889
 20
-24.0524
 30
0.0
 10
28.9597
 20
-24.9772
 30
0.0
 10
28.9597
 20
-24.9772
 30
0.0
 10
33.0889
 20
-25.9019
 30
0.0
 10
34.4407
 20
-30.1409
 30
0.0
 10
34.0298
 20
-34.314
 30
0.0
 10
34.0298
 20
-34.314
 30
0.0
 10
37.2024
 20
-34.7062
 30
0.0
 10
39.1277
 20
-36.3357
 30
0.0
 10
39.9307
 20
-39.6053
 30
0.0
 10
39.9307
 20
-39.6053
 30
0.0
 10
40.7337
 20
-36.3357
 30
0.0
 10
42.6592
 20
-34.7062
 30
0.0
 10
45.8316
 20
-34.314
 30
0.0
 10
45.8316
 20
-34.314
 30
0.0
 10
45.4207
 20
-30.1411
 30
0.0
 10
46.7725
 20
-25.9021
 30
0.0
 10
50.9017
 20
-24.9772
 30
0.0
 10
50.9017
 20
-24.9772
 30
0.0
 10
46.7725
 20
-24.0526
 30
0.0
 10
45.4207
 20
-19.8136
 30
0.0
 10
45.8316
 20
-15.6405
 30
0.0
  0
SPLINE
  5
6E
330
1F
100
AcDbEntity
  8
layer 1
 62
     7
100
AcDbSpline
210
0.0
220
0.0
230
1.0
 70
    11
 71
     3
 72
    36
 73
    32
 74
     0
 42
0.0000000001
 43
0.0000000001
 12
1.0
 22
0.0
 32
0.0
 13
1.0
 23
0.0
 33
0.0
 40
0.0
 40
0.0
 40
0.0
 40
0.0
 40
0.1111111111111111
 40
0.1111111111111111
 40
0.1111111111111111
 40
0.1111111111111111
 40
0.2222222222222222
 40
0.2222222222222222
 40
0.2222222222222222
 40
0.2222222222222222
 40
0.3333333333333333
 40
0.3333333333333333
 40
0.3333333333333333
 40
0.3333333333333333
 40
0.4444444444444444
 40
0.4444444444444444
 40
0.4444444444444444
 40
0.4444444444444444
 40
0.5555555555555556
 40
0.5555555555555556
 40
0.5555555555555556
 40
0.5555555555555556
 40
0.6666666666666666
 40
0.6666666666666666
 40
0.6666666666666666
 40
0.6666666666666666
 40
0.7777777777777778
 40
0.7777777777777778
 40
0.7777777777777778
 40
0.7777777777777778
 40
1.0
 40
1.0
 40
1.0
 40
1.0
 10
45.8316
 20
-49.0668
 30
0.0
 10
42.659
 20
-48.6745
 30
0.0
 10
40.7337
 20
-47.045
 30
0.0
 10
39.9307
 20
-43.7755
 30
0.0
 10
39.9307
 20
-43.7755
 30
0.0
 10
39.1277
 20
-47.045
 30
0.0
 10
37.2022
 20
-48.6745
 30
0.0
 10
34.0298
 20
-49.0668
 30
0.0
 10
34.0298
 20
-49.0668
 30
0.0
 10
34.4407
 20
-53.2397
 30
0.0
 10
33.0889
 20
-57.4787
 30
0.0
 10
28.9597
 20
-58.4035
 30
0.0
 10
28.9597
 20
-58.4035
 30
0.0
 10
33.0889
 20
-59.3282
 30
0.0
 10
34.4407
 20
-63.5672
 30
0.0
 10
34.0298
 20
-67.7402
 30
0.0
 10
34.0298
 20
-67.7402
 30
0.0
 10
37.2024
 20
-68.1325
 30
0.0
 10
39.1277
 20
-69.762
 30
0.0
 10
39.9307
 20
-73.0316
 30
0.0
 10
39.9307
 20
-73.0316
 30
0.0
 10
40.7337
 20
-69.762
 30
0.0
 10
42.6592
 20
-68.1325
 30
0.0
 10
45.8316
 20
-67.7402
 30
0.0
 10
45.8316
 20
-67.7402
 30
0.0
 10
45.4207
 20
-63.5674
 30
0.0
 10
46.7725
 20
-59.3284
 30
0.0
 10
50.9017
 20
-58.4035
 30
0.0
 10
50.9017
 20
-58.4035
 30
0.0
 10
46.7725
 20
-57.4788
 30
0.0
 10
45.4207
 20
-53.2398
 30
0.0
 10
45.8316
 20
-49.0668
 30
0.0
  0
SPLINE
  5
6F
330
1F
100
AcDbEntity
  8
layer 1
 62
     7
100
AcDbSpline
210
0.0
220
0.0
230
1.0
 70
    11
 71
     3
 72
    36
 73
    32
 74
     0
 42
0.0000000001
 43
0.0000000001
 12
1.0
 22
0.0
 32
0.0
 13
1.0
 23
0.0
 33
0.0
 40
0.0
 40
0.0
 40
0.0
 40
0.0
 40
0.1111111111111111
 40
0.1111111111111111
 40
0.1111111111111111
 40
0.1111111111111111
 40
0.2222222222222222
 40
0.2222222222222222
 40
0.2222222222222222
 40
0.2222222222222222
 40
0.3333333333333333
 40
0.3333333333333333
 40
0.3333333333333333
 40
0.3333333333333333
 40
0.4444444444444444
 40
0.4444444444444444
 40
0.4444444444444444
 40
0.4444444444444444
 40
0.5555555555555556
 40
0.5555555555555556
 40
0.5555555555555556
 40
0.5555555555555556
 40
0.6666666666666666
 40
0.6666666666666666
 40
0.6666666666666666
 40
0.6666666666666666
 40
0.7777777777777778
 40
0.7777777777777778
 40
0.7777777777777778
 40
0.7777777777777778
 40
1.0
 40
1.0
 40
1.0
 40
1.0
 10
45.8316
 20
-82.4931
 30
0.0
 10
42.659
 20
-82.1008
 30
0.0
 10
40.7337
 20
-80.4713
 30
0.0
 10
39.9307
 20
-77.2017
 30
0.0
 10
39.9307
 20
-77.2017
 30
0.0
 10
39.1277
 20
-80.4713
 30
0.0
 10
37.2022
 20
-82.1008
 30
0.0
 10
34.0298
 20
-82.4931
 30
0.0
 10
34.0298
 20
-82.4931
 30
0.0
 10
34.4407
 20
-86.6659
 30
0.0
 10
33.0889
 20
-90.9049
 30
0.0
 10
28.9597
 20
-91.8298
 30
0.0
 10
28.9597
 20
-91.8298
 30
0.0
 10
33.0889
 20
-92.7545
 30
0.0
 10
34.4407
 20
-96.9935
 30
0.0
 10
34.0298
 20
-101.1665
 30
0.0
 10
34.0298
 20
-101.1665
 30
0.0
 10
37.2024
 20
-101.5588
 30
0.0
 10
39.1277
 20
-103.1883
 30
0.0
 10
39.9307
 20
-106.4578
 30
0.0
 10
39.9307
 20
-106.4578
 30
0.0
 10
40.7337
 20
-103.1883
 30
0.0
 10
42.6592
 20
-101.5588
 30
0.0
 10
45.8316
 20
-101.1665
 30
0.0
 10
45.8316
 20
-101.1665
 30
0.0
 10
45.4207
 20
-96.9936
 30
0.0
 10
46.7725
 20
-92.7546
 30
0.0
 10
50.9017
 20
-91.8298
 30
0.0
 10
50.9017
 20
-91.8298
 30
0.0
 10
46.7725
 20
-90.9051
 30
0.0
 10
45.4207
 20
-86.6661
 30
0.0
 10
45.8316
 20
-82.4931
 30
0.0
  0
SPLINE
  5
70
330
1F
100
AcDbEntity
  8
layer 1
 62
     7
100
AcDbSpline
210
0.0
220
0.0
230
1.0
 70
    11
 71
     3
 72
    36
 73
    32
 74
     0
 42
0.0000000001
 43
0.0000000001
 12
1.0
 22
0.0
 32
0.0
 13
1.0
 23
0.0
 33
0.0
 40
0.0
 40
0.0
 40
0.0
 40
0.0
 40
0.1111111111111111
 40
0.1111111111111111
 40
0.1111111111111111
 40
0.1111111111111111
 40
0.2222222222222222
 40
0.2222222222222222
 40
0.2222222222222222
 40
0.2222222222222222
 40
0.3333333333333333
 40
0.3333333333333333
 40
0.3333333333333333
 40
0.3333333333333333
 40
0.4444444444444444
 40
0.4444444444444444
 40
0.4444444444444444
 40
0.4444444444444444
 40
0.5555555555555556
 40
0.5555555555555556
 40
0.5555555555555556
 40
0.5555555555555556
 40
0.6666666666666666
 40
0.6666666666666666
 40
0.6666666666666666
 40
0.6666666666666666
 40
0.7777777777777778
 40
0.7777777777777778
 40
0.7777777777777778
 40
0.7777777777777778
 40
1.0
 40
1.0
 40
1.0
 40
1.0
 10
-7.7622
 20
86.9701
 30
0.0
 10
-4.1097
 20
87.2494
 30
0.0
 10
-2.4382
 20
89.6052
 30
0.0
 10
-2.5258
 20
91.9973
 30
0.0
 10
-2.5258
 20
91.9973
 30
0.0
 10
-2.4382
 20
94.3895
 30
0.0
 10
-4.1097
 20
96.7452
 30
0.0
 10
-7.7622
 20
97.0245
 30
0.0
 10
-7.7622
 20
97.0245
 30
0.0
 10
-6.4638
 20
104.2549
 30
0.0
 10
-14.4244
 20
106.1802
 30
0.0
 10
-17.5602
 20
101.757
 30
0.0
 10
-17.5602
 20
101.757
 30
0.0
 10
-20.696
 20
106.1802
 30
0.0
 10
-28.6566
 20
104.2547
 30
0.0
 10
-27.3582
 20
97.0245
 30
0.0
 10
-27.3582
 20
97.0245
 30
0.0
 10
-31.0106
 20
96.7452
 30
0.0
 10
-32.6822
 20
94.3895
 30
0.0
 10
-32.5946
 20
91.9973
 30
0.0
 10
-32.5946
 20
91.9973
 30
0.0
 10
-32.6822
 20
89.6052
 30
0.0
 10
-31.0106
 20
87.2494
 30
0.0
 10
-27.3582
 20
86.9701
 30
0.0
 10
-27.3582
 20
86.9701
 30
0.0
 10
-28.6566
 20
79.7397
 30
0.0
 10
-20.696
 20
77.8144
 30
0.0
 10
-17.5602
 20
82.2376
 30
0.0
 10
-17.5602
 20
82.2376
 30
0.0
 10
-14.4244
 20
77.8144
 30
0.0
 10
-6.4638
 20
79.7399
 30
0.0
 10
-7.7622
 20
86.9701
 30
0.0
  0
SPLINE
  5
71
330
1F
100
AcDbEntity
  8
layer 1
 62
     7
100
AcDbSpline
210
0.0
220
0.0
230
1.0
 70
    11
 71
     3
 72
    36
 73
    32
 74
     0
 42
0.0000000001
 43
0.0000000001
 12
1.0
 22
0.0
 32
0.0
 13
1.0
 23
0.0
 33
0.0
 40
0.0
 40
0.0
 40
0.0
 40
0.0
 40
0.1111111111111111
 40
0.1111111111111111
 40
0.1111111111111111
 40
0.1111111111111111
 40
0.2222222222222222
 40
0.2222222222222222
 40
0.2222222222222222
 40
0.2222222222222222
 40
0.3333333333333333
 40
0.3333333333333333
 40
0.3333333333333333
 40
0.3333333333333333
 40
0.4444444444444444
 40
0.4444444444444444
 40
0.4444444444444444
 40
0.4444444444444444
 40
0.5555555555555556
 40
0.5555555555555556
 40
0.5555555555555556
 40
0.5555555555555556
 40
0.6666666666666666
 40
0.6666666666666666
 40
0.6666666666666666
 40
0.6666666666666666
 40
0.7777777777777778
 40
0.7777777777777778
 40
0.7777777777777778
 40
0.7777777777777778
 40
1.0
 40
1.0
 40
1.0
 40
1.0
 10
-7.7622
 20
53.5438
 30
0.0
 10
-4.1097
 20
53.8232
 30
0.0
 10
-2.4382
 20
56.1789
 30
0.0
 10
-2.5258
 20
58.571
 30
0.0
 10
-2.5258
 20
58.571
 30
0.0
 10
-2.4382
 20
60.9632
 30
0.0
 10
-4.1097
 20
63.3189
 30
0.0
 10
-7.7622
 20
63.5983
 30
0.0
 10
-7.7622
 20
63.5983
 30
0.0
 10
-6.4638
 20
70.8286
 30
0.0
 10
-14.4244
 20
72.754
 30
0.0
 10
-17.5602
 20
68.3307
 30
0.0
 10
-17.5602
 20
68.3307
 30
0.0
 10
-20.696
 20
72.754
 30
0.0
 10
-28.6566
 20
70.8285
 30
0.0
 10
-27.3582
 20
63.5983
 30
0.0
 10
-27.3582
 20
63.5983
 30
0.0
 10
-31.0106
 20
63.3189
 30
0.0
 10
-32.6822
 20
60.9632
 30
0.0
 10
-32.5946
 20
58.571
 30
0.0
 10
-32.5946
 20
58.571
 30
0.0
 10
-32.6822
 20
56.1789
 30
0.0
 10
-31.0106
 20
53.8232
 30
0.0
 10
-27.3582
 20
53.5438
 30
0.0
 10
-27.3582
 20
53.5438
 30
0.0
 10
-28.6566
 20
46.3134
 30
0.0
 10
-20.696
 20
44.3881
 30
0.0
 10
-17.5602
 20
48.8114
 30
0.0
 10
-17.5602
 20
48.8114
 30
0.0
 10
-14.4244
 20
44.3881
 30
0.0
 10
-6.4638
 20
46.3136
 30
0.0
 10
-7.7622
 20
53.5438
 30
0.0
  0
SPLINE
  5
72
330
1F
100
AcDbEntity
  8
layer 1
 62
     7
100
AcDbSpline
210
0.0
220
0.0
230
1.0
 70
    11
 71
     3
 72
    36
 73
    32
 74
     0
 42
0.0000000001
 43
0.0000000001
 12
1.0
 22
0.0
 32
0.0
 13
1.0
 23
0.0
 33
0.0
 40
0.0
 40
0.0
 40
0.0
 40
0.0
 40
0.1111111111111111
 40
0.1111111111111111
 40
0.1111111111111111
 40
0.1111111111111111
 40
0.2222222222222222
 40
0.2222222222222222
 40
0.2222222222222222
 40
0.2222222222222222
 40
0.3333333333333333
 40
0.3333333333333333
 40
0.3333333333333333
 40
0.3333333333333333
 40
0.4444444444444444
 40
0.4444444444444444
 40
0.4444444444444444
 40
0.4444444444444444
 40
0.5555555555555556
 40
0.5555555555555556
 40
0.5555555555555556
 40
0.5555555555555556
 40
0.6666666666666666
 40
0.6666666666666666
 40
0.6666666666666666
 40
0.6666666666666666
 40
0.7777777777777778
 40
0.7777777777777778
 40
0.7777777777777778
 40
0.7777777777777778
 40
1.0
 40
1.0
 40
1.0
 40
1.0
 10
-7.7622
 20
20.1176
 30
0.0
 10
-4.1097
 20
20.3969
 30
0.0
 10
-2.4382
 20
22.7526
 30
0.0
 10
-2.5258
 20
25.1448
 30
0.0
 10
-2.5258
 20
25.1448
 30
0.0
 10
-2.4382
 20
27.5369
 30
0.0
 10
-4.1097
 20
29.8926
 30
0.0
 10
-7.7622
 20
30.172
 30
0.0
 10
-7.7622
 20
30.172
 30
0.0
 10
-6.4638
 20
37.4024
 30
0.0
 10
-14.4244
 20
39.3277
 30
0.0
 10
-17.5602
 20
34.9044
 30
0.0
 10
-17.5602
 20
34.9044
 30
0.0
 10
-20.696
 20
39.3277
 30
0.0
 10
-28.6566
 20
37.4022
 30
0.0
 10
-27.3582
 20
30.172
 30
0.0
 10
-27.3582
 20
30.172
 30
0.0
 10
-31.0106
 20
29.8926
 30
0.0
 10
-32.6822
 20
27.5369
 30
0.0
 10
-32.5946
 20
25.1448
 30
0.0
 10
-32.5946
 20
25.1448
 30
0.0
 10
-32.6822
 20
22.7526
 30
0.0
 10
-31.0106
 20
20.3969
 30
0.0
 10
-27.3582
 20
20.1176
 30
0.0
 10
-27.3582
 20
20.1176
 30
0.0
 10
-28.6566
 20
12.8872
 30
0.0
 10
-20.696
 20
10.9619
 30
0.0
 10
-17.5602
 20
15.3851
 30
0.0
 10
-17.5602
 20
15.3851
 30
0.0
 10
-14.4244
 20
10.9619
 30
0.0
 10
-6.4638
 20
12.8874
 30
0.0
 10
-7.7622
 20
20.1176
 30
0.0
  0
SPLINE
  5
73
330
1F
100
AcDbEntity
  8
layer 1
 62
     7
100
AcDbSpline
210
0.0
220
0.0
230
1.0
 70
    11
 71
     3
 72
    36
 73
    32
 74
     0
 42
0.0000000001
 43
0.0000000001
 12
1.0
 22
0.0
 32
0.0
 13
1.0
 23
0.0
 33
0.0
 40
0.0
 40
0.0
 40
0.0
 40
0.0
 40
0.1111111111111111
 40
0.1111111111111111
 40
0.1111111111111111
 40
0.1111111111111111
 40
0.2222222222222222
 40
0.2222222222222222
 40
0.2222222222222222
 40
0.2222222222222222
 40
0.3333333333333333
 40
0.3333333333333333
 40
0.3333333333333333
 40
0.3333333333333333
 40
0.4444444444444444
 40
0.4444444444444444
 40
0.4444444444444444
 40
0.4444444444444444
 40
0.5555555555555556
 40
0.5555555555555556
 40
0.5555555555555556
 40
0.5555555555555556
 40
0.6666666666666666
 40
0.6666666666666666
 40
0.6666666666666666
 40
0.6666666666666666
 40
0.7777777777777778
 40
0.7777777777777778
 40
0.7777777777777778
 40
0.7777777777777778
 40
1.0
 40
1.0
 40
1.0
 40
1.0
 10
-7.7622
 20
-13.3087
 30
0.0
 10
-4.1097
 20
-13.0294
 30
0.0
 10
-2.4382
 20
-10.6736
 30
0.0
 10
-2.5258
 20
-8.2815
 30
0.0
 10
-2.5258
 20
-8.2815
 30
0.0
 10
-2.4382
 20
-5.8893
 30
0.0
 10
-4.1097
 20
-3.5336
 30
0.0
 10
-7.7622
 20
-3.2543
 30
0.0
 10
-7.7622
 20
-3.2543
 30
0.0
 10
-6.4638
 20
3.9761
 30
0.0
 10
-14.4244
 20
5.9014
 30
0.0
 10
-17.5602
 20
1.4782
 30
0.0
 10
-17.5602
 20
1.4782
 30
0.0
 10
-20.696
 20
5.9014
 30
0.0
 10
-28.6566
 20
3.9759
 30
0.0
 10
-27.3582
 20
-3.2543
 30
0.0
 10
-27.3582
 20
-3.2543
 30
0.0
 10
-31.0106
 20
-3.5336
 30
0.0
 10
-32.6822
 20
-5.8893
 30
0.0
 10
-32.5946
 20
-8.2815
 30
0.0
 10
-32.5946
 20
-8.2815
 30
0.0
 10
-32.6822
 20
-10.6736
 30
0.0
 10
-31.0106
 20
-13.0294
 30
0.0
 10
-27.3582
 20
-13.3087
 30
0.0
 10
-27.3582
 20
-13.3087
 30
0.0
 10
-28.6566
 20
-20.5391
 30
0.0
 10
-20.696
 20
-22.4644
 30
0.0
 10
-17.5602
 20
-18.0412
 30
0.0
 10
-17.5602
 20
-18.0412
 30
0.0
 10
-14.4244
 20
-22.4644
 30
0.0
 10
-6.4638
 20
-20.5389
 30
0.0
 10
-7.7622
 20
-13.3087
 30
0.0
  0
SPLINE
  5
74
330
1F
100
AcDbEntity
  8
layer 1
 62
     7
100
AcDbSpline
210
0.0
220
0.0
230
1.0
 70
    11
 71
     3
 72
    36
 73
    32
 74
     0
 42
0.0000000001
 43
0.0000000001
 12
1.0
 22
0.0
 32
0.0
 13
1.0
 23
0.0
 33
0.0
 40
0.0
 40
0.0
 40
0.0
 40
0.0
 40
0.1111111111111111
 40
0.1111111111111111
 40
0.1111111111111111
 40
0.1111111111111111
 40
0.2222222222222222
 40
0.2222222222222222
 40
0.2222222222222222
 40
0.2222222222222222
 40
0.3333333333333333
 40
0.3333333333333333
 40
0.3333333333333333
 40
0.3333333333333333
 40
0.4444444444444444
 40
0.4444444444444444
 40
0.4444444444444444
 40
0.4444444444444444
 40
0.5555555555555556
 40
0.5555555555555556
 40
0.5555555555555556
 40
0.5555555555555556
 40
0.6666666666666666
 40
0.6666666666666666
 40
0.6666666666666666
 40
0.6666666666666666
 40
0.7777777777777778
 40
0.7777777777777778
 40
0.7777777777777778
 40
0.7777777777777778
 40
1.0
 40
1.0
 40
1.0
 40
1.0
 10
-7.7622
 20
-46.735
 30
0.0
 10
-4.1097
 20
-46.4556
 30
0.0
 10
-2.4382
 20
-44.0999
 30
0.0
 10
-2.5258
 20
-41.7078
 30
0.0
 10
-2.5258
 20
-41.7078
 30
0.0
 10
-2.4382
 20
-39.3156
 30
0.0
 10
-4.1097
 20
-36.9599
 30
0.0
 10
-7.7622
 20
-36.6805
 30
0.0
 10
-7.7622
 20
-36.6805
 30
0.0
 10
-6.4638
 20
-29.4502
 30
0.0
 10
-14.4244
 20
-27.5248
 30
0.0
 10
-17.5602
 20
-31.9481
 30
0.0
 10
-17.5602
 20
-31.9481
 30
0.0
 10
-20.696
 20
-27.5248
 30
0.0
 10
-28.6566
 20
-29.4503
 30
0.0
 10
-27.3582
 20
-36.6805
 30
0.0
 10
-27.3582
 20
-36.6805
 30
0.0
 10
-31.0106
 20
-36.9599
 30
0.0
 10
-32.6822
 20
-39.3156
 30
0.0
 10
-32.5946
 20
-41.7078
 30
0.0
 10
-32.5946
 20
-41.7078
 30
0.0
 10
-32.6822
 20
-44.0999
 30
0.0
 10
-31.0106
 20
-46.4556
 30
0.0
 10
-27.3582
 20
-46.735
 30
0.0
 10
-27.3582
 20
-46.735
 30
0.0
 10
-28.6566
 20
-53.9653
 30
0.0
 10
-20.696
 20
-55.8907
 30
0.0
 10
-17.5602
 20
-51.4674
 30
0.0
 10
-17.5602
 20
-51.4674
 30
0.0
 10
-14.4244
 20
-55.8907
 30
0.0
 10
-6.4638
 20
-53.9652
 30
0.0
 10
-7.7622
 20
-46.735
 30
0.0
  0
SPLINE
  5
75
330
1F
100
AcDbEntity
  8
layer 1
 62
     7
100
AcDbSpline
210
0.0
220
0.0
230
1.0
 70
    11
 71
     3
 72
    36
 73
    32
 74
     0
 42
0.0000000001
 43
0.0000000001
 12
1.0
 22
0.0
 32
0.0
 13
1.0
 23
0.0
 33
0.0
 40
0.0
 40
0.0
 40
0.0
 40
0.0
 40
0.1111111111111111
 40
0.1111111111111111
 40
0.1111111111111111
 40
0.1111111111111111
 40
0.2222222222222222
 40
0.2222222222222222
 40
0.2222222222222222
 40
0.2222222222222222
 40
0.3333333333333333
 40
0.3333333333333333
 40
0.3333333333333333
 40
0.3333333333333333
 40
0.4444444444444444
 40
0.4444444444444444
 40
0.4444444444444444
 40
0.4444444444444444
 40
0.5555555555555556
 40
0.5555555555555556
 40
0.5555555555555556
 40
0.5555555555555556
 40
0.6666666666666666
 40
0.6666666666666666
 40
0.6666666666666666
 40
0.6666666666666666
 40
0.7777777777777778
 40
0.7777777777777778
 40
0.7777777777777778
 40
0.7777777777777778
 40
1.0
 40
1.0
 40
1.0
 40
1.0
 10
-7.7622
 20
-80.1612
 30
0.0
 10
-4.1097
 20
-79.8819
 30
0.0
 10
-2.4382
 20
-77.5262
 30
0.0
 10
-2.5258
 20
-75.134
 30
0.0
 10
-2.5258
 20
-75.134
 30
0.0
 10
-2.4382
 20
-72.7419
 30
0.0
 10
-4.1097
 20
-70.3862
 30
0.0
 10
-7.7622
 20
-70.1068
 30
0.0
 10
-7.7622
 20
-70.1068
 30
0.0
 10
-6.4638
 20
-62.8764
 30
0.0
 10
-14.4244
 20
-60.9511
 30
0.0
 10
-17.5602
 20
-65.3744
 30
0.0
 10
-17.5602
 20
-65.3744
 30
0.0
 10
-20.696
 20
-60.9511
 30
0.0
 10
-28.6566
 20
-62.8766
 30
0.0
 10
-27.3582
 20
-70.1068
 30
0.0
 10
-27.3582
 20
-70.1068
 30
0.0
 10
-31.0106
 20
-70.3862
 30
0.0
 10
-32.6822
 20
-72.7419
 30
0.0
 10
-32.5946
 20
-75.134
 30
0.0
 10
-32.5946
 20
-75.134
 30
0.0
 10
-32.6822
 20
-77.5262
 30
0.0
 10
-31.0106
 20
-79.8819
 30
0.0
 10
-27.3582
 20
-80.1612
 30
0.0
 10
-27.3582
 20
-80.1612
 30
0.0
 10
-28.6566
 20
-87.3916
 30
0.0
 10
-20.696
 20
-89.3169
 30
0.0
 10
-17.5602
 20
-84.8937
 30
0.0
 10
-17.5602
 20
-84.8937
 30
0.0
 10
-14.4244
 20
-89.3169
 30
0.0
 10
-6.4638
 20
-87.3914
 30
0.0
 10
-7.7622
 20
-80.1612
 30
0.0
  0
SPLINE
  5
76
330
1F
100
AcDbEntity
  8
layer 1
 62
     7
100
AcDbSpline
210
0.0
220
0.0
230
1.0
 70
    11
 71
     3
 72
    24
 73
    20
 74
     0
 42
0.0000000001
 43
0.0000000001
 12
1.0
 22
0.0
 32
0.0
 13
1.0
 23
0.0
 33
0.0
 40
0.0
 40
0.0
 40
0.0
 40
0.0
 40
0.1666666666666667
 40
0.1666666666666667
 40
0.1666666666666667
 40
0.1666666666666667
 40
0.3333333333333333
 40
0.3333333333333333
 40
0.3333333333333333
 40
0.3333333333333333
 40
0.5
 40
0.5
 40
0.5
 40
0.5
 40
0.6666666666666666
 40
0.6666666666666666
 40
0.6666666666666666
 40
0.6666666666666666
 40
1.0
 40
1.0
 40
1.0
 40
1.0
 10
-2.5258
 20
-108.5603
 30
0.0
 10
-2.4382
 20
-106.1681
 30
0.0
 10
-4.1097
 20
-103.8124
 30
0.0
 10
-7.7622
 20
-103.5331
 30
0.0
 10
-7.7622
 20
-103.5331
 30
0.0
 10
-6.4638
 20
-96.3027
 30
0.0
 10
-14.4244
 20
-94.3774
 30
0.0
 10
-17.5602
 20
-98.8006
 30
0.0
 10
-17.5602
 20
-98.8006
 30
0.0
 10
-20.696
 20
-94.3774
 30
0.0
 10
-28.6566
 20
-96.3029
 30
0.0
 10
-27.3582
 20
-103.5331
 30
0.0
 10
-27.3582
 20
-103.5331
 30
0.0
 10
-31.0106
 20
-103.8124
 30
0.0
 10
-32.6822
 20
-106.1681
 30
0.0
 10
-32.5946
 20
-108.5603
 30
0.0
 10
-32.5946
 20
-108.5603
 30
0.0
 10
-32.5946
 20
-108.5603
 30
0.0
 10
-2.5258
 20
-108.5603
 30
0.0
 10
-2.5258
 20
-108.5603
 30
0.0
  0
SPLINE
  5
77
330
1F
100
AcDbEntity
  8
layer 1
 62
     7
100
AcDbSpline
210
0.0
220
0.0
230
1.0
 70
    11
 71
     3
 72
    36
 73
    32
 74
     0
 42
0.0000000001
 43
0.0000000001
 12
1.0
 22
0.0
 32
0.0
 13
1.0
 23
0.0
 33
0.0
 40
0.0
 40
0.0
 40
0.0
 40
0.0
 40
0.1111111111111111
 40
0.1111111111111111
 40
0.1111111111111111
 40
0.1111111111111111
 40
0.2222222222222222
 40
0.2222222222222222
 40
0.2222222222222222
 40
0.2222222222222222
 40
0.3333333333333333
 40
0.3333333333333333
 40
0.3333333333333333
 40
0.3333333333333333
 40
0.4444444444444444
 40
0.4444444444444444
 40
0.4444444444444444
 40
0.4444444444444444
 40
0.5555555555555556
 40
0.5555555555555556
 40
0.5555555555555556
 40
0.5555555555555556
 40
0.6666666666666666
 40
0.6666666666666666
 40
0.6666666666666666
 40
0.6666666666666666
 40
0.7777777777777778
 40
0.7777777777777778
 40
0.7777777777777778
 40
0.7777777777777778
 40
1.0
 40
1.0
 40
1.0
 40
1.0
 10
30.5163
 20
86.9701
 30
0.0
 10
34.1688
 20
87.2494
 30
0.0
 10
35.8404
 20
89.6052
 30
0.0
 10
35.7527
 20
91.9973
 30
0.0
 10
35.7527
 20
91.9973
 30
0.0
 10
35.8404
 20
94.3895
 30
0.0
 10
34.1688
 20
96.7452
 30
0.0
 10
30.5163
 20
97.0245
 30
0.0
 10
30.5163
 20
97.0245
 30
0.0
 10
31.8148
 20
104.2549
 30
0.0
 10
23.8542
 20
106.1802
 30
0.0
 10
20.7184
 20
101.757
 30
0.0
 10
20.7184
 20
101.757
 30
0.0
 10
17.5826
 20
106.1802
 30
0.0
 10
9.6219
 20
104.2547
 30
0.0
 10
10.9204
 20
97.0245
 30
0.0
 10
10.9204
 20
97.0245
 30
0.0
 10
7.2679
 20
96.7452
 30
0.0
 10
5.5964
 20
94.3895
 30
0.0
 10
5.684
 20
91.9973
 30
0.0
 10
5.684
 20
91.9973
 30
0.0
 10
5.5964
 20
89.6052
 30
0.0
 10
7.2679
 20
87.2494
 30
0.0
 10
10.9204
 20
86.9701
 30
0.0
 10
10.9204
 20
86.9701
 30
0.0
 10
9.6219
 20
79.7397
 30
0.0
 10
17.5826
 20
77.8144
 30
0.0
 10
20.7184
 20
82.2376
 30
0.0
 10
20.7184
 20
82.2376
 30
0.0
 10
23.8542
 20
77.8144
 30
0.0
 10
31.8148
 20
79.7399
 30
0.0
 10
30.5163
 20
86.9701
 30
0.0
  0
SPLINE
  5
78
330
1F
100
AcDbEntity
  8
layer 1
 62
     7
100
AcDbSpline
210
0.0
220
0.0
230
1.0
 70
    11
 71
     3
 72
    36
 73
    32
 74
     0
 42
0.0000000001
 43
0.0000000001
 12
1.0
 22
0.0
 32
0.0
 13
1.0
 23
0.0
 33
0.0
 40
0.0
 40
0.0
 40
0.0
 40
0.0
 40
0.1111111111111111
 40
0.1111111111111111
 40
0.1111111111111111
 40
0.1111111111111111
 40
0.2222222222222222
 40
0.2222222222222222
 40
0.2222222222222222
 40
0.2222222222222222
 40
0.3333333333333333
 40
0.3333333333333333
 40
0.3333333333333333
 40
0.3333333333333333
 40
0.4444444444444444
 40
0.4444444444444444
 40
0.4444444444444444
 40
0.4444444444444444
 40
0.5555555555555556
 40
0.5555555555555556
 40
0.5555555555555556
 40
0.5555555555555556
 40
0.6666666666666666
 40
0.6666666666666666
 40
0.6666666666666666
 40
0.6666666666666666
 40
0.7777777777777778
 40
0.7777777777777778
 40
0.7777777777777778
 40
0.7777777777777778
 40
1.0
 40
1.0
 40
1.0
 40
1.0
 10
30.5163
 20
53.5438
 30
0.0
 10
34.1688
 20
53.8232
 30
0.0
 10
35.8404
 20
56.1789
 30
0.0
 10
35.7527
 20
58.571
 30
0.0
 10
35.7527
 20
58.571
 30
0.0
 10
35.8404
 20
60.9632
 30
0.0
 10
34.1688
 20
63.3189
 30
0.0
 10
30.5163
 20
63.5983
 30
0.0
 10
30.5163
 20
63.5983
 30
0.0
 10
31.8148
 20
70.8286
 30
0.0
 10
23.8542
 20
72.754
 30
0.0
 10
20.7184
 20
68.3307
 30
0.0
 10
20.7184
 20
68.3307
 30
0.0
 10
17.5826
 20
72.754
 30
0.0
 10
9.6219
 20
70.8285
 30
0.0
 10
10.9204
 20
63.5983
 30
0.0
 10
10.9204
 20
63.5983
 30
0.0
 10
7.2679
 20
63.3189
 30
0.0
 10
5.5964
 20
60.9632
 30
0.0
 10
5.684
 20
58.571
 30
0.0
 10
5.684
 20
58.571
 30
0.0
 10
5.5964
 20
56.1789
 30
0.0
 10
7.2679
 20
53.8232
 30
0.0
 10
10.9204
 20
53.5438
 30
0.0
 10
10.9204
 20
53.5438
 30
0.0
 10
9.6219
 20
46.3134
 30
0.0
 10
17.5826
 20
44.3881
 30
0.0
 10
20.7184
 20
48.8114
 30
0.0
 10
20.7184
 20
48.8114
 30
0.0
 10
23.8542
 20
44.3881
 30
0.0
 10
31.8148
 20
46.3136
 30
0.0
 10
30.5163
 20
53.5438
 30
0.0
  0
SPLINE
  5
79
330
1F
100
AcDbEntity
  8
layer 1
 62
     7
100
AcDbSpline
210
0.0
220
0.0
230
1.0
 70
    11
 71
     3
 72
    36
 73
    32
 74
     0
 42
0.0000000001
 43
0.0000000001
 12
1.0
 22
0.0
 32
0.0
 13
1.0
 23
0.0
 33
0.0
 40
0.0
 40
0.0
 40
0.0
 40
0.0
 40
0.1111111111111111
 40
0.1111111111111111
 40
0.1111111111111111
 40
0.1111111111111111
 40
0.2222222222222222
 40
0.2222222222222222
 40
0.2222222222222222
 40
0.2222222222222222
 40
0.3333333333333333
 40
0.3333333333333333
 40
0.3333333333333333
 40
0.3333333333333333
 40
0.4444444444444444
 40
0.4444444444444444
 40
0.4444444444444444
 40
0.4444444444444444
 40
0.5555555555555556
 40
0.5555555555555556
 40
0.5555555555555556
 40
0.5555555555555556
 40
0.6666666666666666
 40
0.6666666666666666
 40
0.6666666666666666
 40
0.6666666666666666
 40
0.7777777777777778
 40
0.7777777777777778
 40
0.7777777777777778
 40
0.7777777777777778
 40
1.0
 40
1.0
 40
1.0
 40
1.0
 10
30.5163
 20
20.1176
 30
0.0
 10
34.1688
 20
20.3969
 30
0.0
 10
35.8404
 20
22.7526
 30
0.0
 10
35.7527
 20
25.1448
 30
0.0
 10
35.7527
 20
25.1448
 30
0.0
 10
35.8404
 20
27.5369
 30
0.0
 10
34.1688
 20
29.8926
 30
0.0
 10
30.5163
 20
30.172
 30
0.0
 10
30.5163
 20
30.172
 30
0.0
 10
31.8148
 20
37.4024
 30
0.0
 10
23.8542
 20
39.3277
 30
0.0
 10
20.7184
 20
34.9044
 30
0.0
 10
20.7184
 20
34.9044
 30
0.0
 10
17.5826
 20
39.3277
 30
0.0
 10
9.6219
 20
37.4022
 30
0.0
 10
10.9204
 20
30.172
 30
0.0
 10
10.9204
 20
30.172
 30
0.0
 10
7.2679
 20
29.8926
 30
0.0
 10
5.5964
 20
27.5369
 30
0.0
 10
5.684
 20
25.1448
 30
0.0
 10
5.684
 20
25.1448
 30
0.0
 10
5.5964
 20
22.7526
 30
0.0
 10
7.2679
 20
20.3969
 30
0.0
 10
10.9204
 20
20.1176
 30
0.0
 10
10.9204
 20
20.1176
 30
0.0
 10
9.6219
 20
12.8872
 30
0.0
 10
17.5826
 20
10.9619
 30
0.0
 10
20.7184
 20
15.3851
 30
0.0
 10
20.7184
 20
15.3851
 30
0.0
 10
23.8542
 20
10.9619
 30
0.0
 10
31.8148
 20
12.8874
 30
0.0
 10
30.5163
 20
20.1176
 30
0.0
  0
SPLINE
  5
7A
330
1F
100
AcDbEntity
  8
layer 1
 62
     7
100
AcDbSpline
210
0.0
220
0.0
230
1.0
 70
    11
 71
     3
 72
    36
 73
    32
 74
     0
 42
0.0000000001
 43
0.0000000001
 12
1.0
 22
0.0
 32
0.0
 13
1.0
 23
0.0
 33
0.0
 40
0.0
 40
0.0
 40
0.0
 40
0.0
 40
0.1111111111111111
 40
0.1111111111111111
 40
0.1111111111111111
 40
0.1111111111111111
 40
0.2222222222222222
 40
0.2222222222222222
 40
0.2222222222222222
 40
0.2222222222222222
 40
0.3333333333333333
 40
0.3333333333333333
 40
0.3333333333333333
 40
0.3333333333333333
 40
0.4444444444444444
 40
0.4444444444444444
 40
0.4444444444444444
 40
0.4444444444444444
 40
0.5555555555555556
 40
0.5555555555555556
 40
0.5555555555555556
 40
0.5555555555555556
 40
0.6666666666666666
 40
0.6666666666666666
 40
0.6666666666666666
 40
0.6666666666666666
 40
0.7777777777777778
 40
0.7777777777777778
 40
0.7777777777777778
 40
0.7777777777777778
 40
1.0
 40
1.0
 40
1.0
 40
1.0
 10
30.5163
 20
-13.3087
 30
0.0
 10
34.1688
 20
-13.0294
 30
0.0
 10
35.8404
 20
-10.6736
 30
0.0
 10
35.7527
 20
-8.2815
 30
0.0
 10
35.7527
 20
-8.2815
 30
0.0
 10
35.8404
 20
-5.8893
 30
0.0
 10
34.1688
 20
-3.5336
 30
0.0
 10
30.5163
 20
-3.2543
 30
0.0
 10
30.5163
 20
-3.2543
 30
0.0
 10
31.8148
 20
3.9761
 30
0.0
 10
23.8542
 20
5.9014
 30
0.0
 10
20.7184
 20
1.4782
 30
0.0
 10
20.7184
 20
1.4782
 30
0.0
 10
17.5826
 20
5.9014
 30
0.0
 10
9.6219
 20
3.9759
 30
0.0
 10
10.9204
 20
-3.2543
 30
0.0
 10
10.9204
 20
-3.2543
 30
0.0
 10
7.2679
 20
-3.5336
 30
0.0
 10
5.5964
 20
-5.8893
 30
0.0
 10
5.684
 20
-8.2815
 30
0.0
 10
5.684
 20
-8.2815
 30
0.0
 10
5.5964
 20
-10.6736
 30
0.0
 10
7.2679
 20
-13.0294
 30
0.0
 10
10.9204
 20
-13.3087
 30
0.0
 10
10.9204
 20
-13.3087
 30
0.0
 10
9.6219
 20
-20.5391
 30
0.0
 10
17.5826
 20
-22.4644
 30
0.0
 10
20.7184
 20
-18.0412
 30
0.0
 10
20.7184
 20
-18.0412
 30
0.0
 10
23.8542
 20
-22.4644
 30
0.0
 10
31.8148
 20
-20.5389
 30
0.0
 10
30.5163
 20
-13.3087
 30
0.0
  0
SPLINE
  5
7B
330
1F
100
AcDbEntity
  8
layer 1
 62
     7
100
AcDbSpline
210
0.0
220
0.0
230
1.0
 70
    11
 71
     3
 72
    36
 73
    32
 74
     0
 42
0.0000000001
 43
0.0000000001
 12
1.0
 22
0.0
 32
0.0
 13
1.0
 23
0.0
 33
0.0
 40
0.0
 40
0.0
 40
0.0
 40
0.0
 40
0.1111111111111111
 40
0.1111111111111111
 40
0.1111111111111111
 40
0.1111111111111111
 40
0.2222222222222222
 40
0.2222222222222222
 40
0.2222222222222222
 40
0.2222222222222222
 40
0.3333333333333333
 40
0.3333333333333333
 40
0.3333333333333333
 40
0.3333333333333333
 40
0.4444444444444444
 40
0.4444444444444444
 40
0.4444444444444444
 40
0.4444444444444444
 40
0.5555555555555556
 40
0.5555555555555556
 40
0.5555555555555556
 40
0.5555555555555556
 40
0.6666666666666666
 40
0.6666666666666666
 40
0.6666666666666666
 40
0.6666666666666666
 40
0.7777777777777778
 40
0.7777777777777778
 40
0.7777777777777778
 40
0.7777777777777778
 40
1.0
 40
1.0
 40
1.0
 40
1.0
 10
30.5163
 20
-46.735
 30
0.0
 10
34.1688
 20
-46.4556
 30
0.0
 10
35.8404
 20
-44.0999
 30
0.0
 10
35.7527
 20
-41.7078
 30
0.0
 10
35.7527
 20
-41.7078
 30
0.0
 10
35.8404
 20
-39.3156
 30
0.0
 10
34.1688
 20
-36.9599
 30
0.0
 10
30.5163
 20
-36.6805
 30
0.0
 10
30.5163
 20
-36.6805
 30
0.0
 10
31.8148
 20
-29.4502
 30
0.0
 10
23.8542
 20
-27.5248
 30
0.0
 10
20.7184
 20
-31.9481
 30
0.0
 10
20.7184
 20
-31.9481
 30
0.0
 10
17.5826
 20
-27.5248
 30
0.0
 10
9.6219
 20
-29.4503
 30
0.0
 10
10.9204
 20
-36.6805
 30
0.0
 10
10.9204
 20
-36.6805
 30
0.0
 10
7.2679
 20
-36.9599
 30
0.0
 10
5.5964
 20
-39.3156
 30
0.0
 10
5.684
 20
-41.7078
 30
0.0
 10
5.684
 20
-41.7078
 30
0.0
 10
5.5964
 20
-44.0999
 30
0.0
 10
7.2679
 20
-46.4556
 30
0.0
 10
10.9204
 20
-46.735
 30
0.0
 10
10.9204
 20
-46.735
 30
0.0
 10
9.6219
 20
-53.9653
 30
0.0
 10
17.5826
 20
-55.8907
 30
0.0
 10
20.7184
 20
-51.4674
 30
0.0
 10
20.7184
 20
-51.4674
 30
0.0
 10
23.8542
 20
-55.8907
 30
0.0
 10
31.8148
 20
-53.9652
 30
0.0
 10
30.5163
 20
-46.735
 30
0.0
  0
SPLINE
  5
7C
330
1F
100
AcDbEntity
  8
layer 1
 62
     7
100
AcDbSpline
210
0.0
220
0.0
230
1.0
 70
    11
 71
     3
 72
    36
 73
    32
 74
     0
 42
0.0000000001
 43
0.0000000001
 12
1.0
 22
0.0
 32
0.0
 13
1.0
 23
0.0
 33
0.0
 40
0.0
 40
0.0
 40
0.0
 40
0.0
 40
0.1111111111111111
 40
0.1111111111111111
 40
0.1111111111111111
 40
0.1111111111111111
 40
0.2222222222222222
 40
0.2222222222222222
 40
0.2222222222222222
 40
0.2222222222222222
 40
0.3333333333333333
 40
0.3333333333333333
 40
0.3333333333333333
 40
0.3333333333333333
 40
0.4444444444444444
 40
0.4444444444444444
 40
0.4444444444444444
 40
0.4444444444444444
 40
0.5555555555555556
 40
0.5555555555555556
 40
0.5555555555555556
 40
0.5555555555555556
 40
0.6666666666666666
 40
0.6666666666666666
 40
0.6666666666666666
 40
0.6666666666666666
 40
0.7777777777777778
 40
0.7777777777777778
 40
0.7777777777777778
 40
0.7777777777777778
 40
1.0
 40
1.0
 40
1.0
 40
1.0
 10
30.5163
 20
-80.1612
 30
0.0
 10
34.1688
 20
-79.8819
 30
0.0
 10
35.8404
 20
-77.5262
 30
0.0
 10
35.7527
 20
-75.134
 30
0.0
 10
35.7527
 20
-75.134
 30
0.0
 10
35.8404
 20
-72.7419
 30
0.0
 10
34.1688
 20
-70.3862
 30
0.0
 10
30.5163
 20
-70.1068
 30
0.0
 10
30.5163
 20
-70.1068
 30
0.0
 10
31.8148
 20
-62.8764
 30
0.0
 10
23.8542
 20
-60.9511
 30
0.0
 10
20.7184
 20
-65.3744
 30
0.0
 10
20.7184
 20
-65.3744
 30
0.0
 10
17.5826
 20
-60.9511
 30
0.0
 10
9.6219
 20
-62.8766
 30
0.0
 10
10.9204
 20
-70.1068
 30
0.0
 10
10.9204
 20
-70.1068
 30
0.0
 10
7.2679
 20
-70.3862
 30
0.0
 10
5.5964
 20
-72.7419
 30
0.0
 10
5.684
 20
-75.134
 30
0.0
 10
5.684
 20
-75.134
 30
0.0
 10
5.5964
 20
-77.5262
 30
0.0
 10
7.2679
 20
-79.8819
 30
0.0
 10
10.9204
 20
-80.1612
 30
0.0
 10
10.9204
 20
-80.1612
 30
0.0
 10
9.6219
 20
-87.3916
 30
0.0
 10
17.5826
 20
-89.3169
 30
0.0
 10
20.7184
 20
-84.8937
 30
0.0
 10
20.7184
 20
-84.8937
 30
0.0
 10
23.8542
 20
-89.3169
 30
0.0
 10
31.8148
 20
-87.3914
 30
0.0
 10
30.5163
 20
-80.1612
 30
0.0
  0
SPLINE
  5
7D
330
1F
100
AcDbEntity
  8
layer 1
 62
     7
100
AcDbSpline
210
0.0
220
0.0
230
1.0
 70
    11
 71
     3
 72
    24
 73
    20
 74
     0
 42
0.0000000001
 43
0.0000000001
 12
1.0
 22
0.0
 32
0.0
 13
1.0
 23
0.0
 33
0.0
 40
0.0
 40
0.0
 40
0.0
 40
0.0
 40
0.1666666666666667
 40
0.1666666666666667
 40
0.1666666666666667
 40
0.1666666666666667
 40
0.3333333333333333
 40
0.3333333333333333
 40
0.3333333333333333
 40
0.3333333333333333
 40
0.5
 40
0.5
 40
0.5
 40
0.5
 40
0.6666666666666666
 40
0.6666666666666666
 40
0.6666666666666666
 40
0.6666666666666666
 40
1.0
 40
1.0
 40
1.0
 40
1.0
 10
35.7527
 20
-108.5603
 30
0.0
 10
35.8404
 20
-106.1681
 30
0.0
 10
34.1688
 20
-103.8124
 30
0.0
 10
30.5163
 20
-103.5331
 30
0.0
 10
30.5163
 20
-103.5331
 30
0.0
 10
31.8148
 20
-96.3027
 30
0.0
 10
23.8542
 20
-94.3774
 30
0.0
 10
20.7184
 20
-98.8006
 30
0.0
 10
20.7184
 20
-98.8006
 30
0.0
 10
17.5826
 20
-94.3774
 30
0.0
 10
9.6219
 20
-96.3029
 30
0.0
 10
10.9204
 20
-103.5331
 30
0.0
 10
10.9204
 20
-103.5331
 30
0.0
 10
7.2679
 20
-103.8124
 30
0.0
 10
5.5964
 20
-106.1681
 30
0.0
 10
5.684
 20
-108.5603
 30
0.0
 10
5.684
 20
-108.5603
 30
0.0
 10
5.684
 20
-108.5603
 30
0.0
 10
35.7527
 20
-108.5603
 30
0.0
 10
35.7527
 20
-108.5603
 30
0.0
  0
SPLINE
  5
7E
330
1F
100
AcDbEntity
  8
layer 1
 62
     7
100
AcDbSpline
210
0.0
220
0.0
230
1.0
 70
    11
 71
     3
 72
    36
 73
    32
 74
     0
 42
0.0000000001
 43
0.0000000001
 12
1.0
 22
0.0
 32
0.0
 13
1.0
 23
0.0
 33
0.0
 40
0.0
 40
0.0
 40
0.0
 40
0.0
 40
0.1111111111111111
 40
0.1111111111111111
 40
0.1111111111111111
 40
0.1111111111111111
 40
0.2222222222222222
 40
0.2222222222222222
 40
0.2222222222222222
 40
0.2222222222222222
 40
0.3333333333333333
 40
0.3333333333333333
 40
0.3333333333333333
 40
0.3333333333333333
 40
0.4444444444444444
 40
0.4444444444444444
 40
0.4444444444444444
 40
0.4444444444444444
 40
0.5555555555555556
 40
0.5555555555555556
 40
0.5555555555555556
 40
0.5555555555555556
 40
0.6666666666666666
 40
0.6666666666666666
 40
0.6666666666666666
 40
0.6666666666666666
 40
0.7777777777777778
 40
0.7777777777777778
 40
0.7777777777777778
 40
0.7777777777777778
 40
1.0
 40
1.0
 40
1.0
 40
1.0
 10
68.7949
 20
86.9701
 30
0.0
 10
72.4474
 20
87.2494
 30
0.0
 10
74.1189
 20
89.6052
 30
0.0
 10
74.0313
 20
91.9973
 30
0.0
 10
74.0313
 20
91.9973
 30
0.0
 10
74.1189
 20
94.3895
 30
0.0
 10
72.4474
 20
96.7452
 30
0.0
 10
68.7949
 20
97.0245
 30
0.0
 10
68.7949
 20
97.0245
 30
0.0
 10
70.0933
 20
104.2549
 30
0.0
 10
62.1327
 20
106.1802
 30
0.0
 10
58.9969
 20
101.757
 30
0.0
 10
58.9969
 20
101.757
 30
0.0
 10
55.8611
 20
106.1802
 30
0.0
 10
47.9005
 20
104.2547
 30
0.0
 10
49.1989
 20
97.0245
 30
0.0
 10
49.1989
 20
97.0245
 30
0.0
 10
45.5465
 20
96.7452
 30
0.0
 10
43.8749
 20
94.3895
 30
0.0
 10
43.9625
 20
91.9973
 30
0.0
 10
43.9625
 20
91.9973
 30
0.0
 10
43.8749
 20
89.6052
 30
0.0
 10
45.5465
 20
87.2494
 30
0.0
 10
49.1989
 20
86.9701
 30
0.0
 10
49.1989
 20
86.9701
 30
0.0
 10
47.9005
 20
79.7397
 30
0.0
 10
55.8611
 20
77.8144
 30
0.0
 10
58.9969
 20
82.2376
 30
0.0
 10
58.9969
 20
82.2376
 30
0.0
 10
62.1327
 20
77.8144
 30
0.0
 10
70.0933
 20
79.7399
 30
0.0
 10
68.7949
 20
86.9701
 30
0.0
  0
SPLINE
  5
7F
330
1F
100
AcDbEntity
  8
layer 1
 62
     7
100
AcDbSpline
210
0.0
220
0.0
230
1.0
 70
    11
 71
     3
 72
    36
 73
    32
 74
     0
 42
0.0000000001
 43
0.0000000001
 12
1.0
 22
0.0
 32
0.0
 13
1.0
 23
0.0
 33
0.0
 40
0.0
 40
0.0
 40
0.0
 40
0.0
 40
0.1111111111111111
 40
0.1111111111111111
 40
0.1111111111111111
 40
0.1111111111111111
 40
0.2222222222222222
 40
0.2222222222222222
 40
0.2222222222222222
 40
0.2222222222222222
 40
0.3333333333333333
 40
0.3333333333333333
 40
0.3333333333333333
 40
0.3333333333333333
 40
0.4444444444444444
 40
0.4444444444444444
 40
0.4444444444444444
 40
0.4444444444444444
 40
0.5555555555555556
 40
0.5555555555555556
 40
0.5555555555555556
 40
0.5555555555555556
 40
0.6666666666666666
 40
0.6666666666666666
 40
0.6666666666666666
 40
0.6666666666666666
 40
0.7777777777777778
 40
0.7777777777777778
 40
0.7777777777777778
 40
0.7777777777777778
 40
1.0
 40
1.0
 40
1.0
 40
1.0
 10
68.7949
 20
53.5438
 30
0.0
 10
72.4474
 20
53.8232
 30
0.0
 10
74.1189
 20
56.1789
 30
0.0
 10
74.0313
 20
58.571
 30
0.0
 10
74.0313
 20
58.571
 30
0.0
 10
74.1189
 20
60.9632
 30
0.0
 10
72.4474
 20
63.3189
 30
0.0
 10
68.7949
 20
63.5983
 30
0.0
 10
68.7949
 20
63.5983
 30
0.0
 10
70.0933
 20
70.8286
 30
0.0
 10
62.1327
 20
72.754
 30
0.0
 10
58.9969
 20
68.3307
 30
0.0
 10
58.9969
 20
68.3307
 30
0.0
 10
55.8611
 20
72.754
 30
0.0
 10
47.9005
 20
70.8285
 30
0.0
 10
49.1989
 20
63.5983
 30
0.0
 10
49.1989
 20
63.5983
 30
0.0
 10
45.5465
 20
63.3189
 30
0.0
 10
43.8749
 20
60.9632
 30
0.0
 10
43.9625
 20
58.571
 30
0.0
 10
43.9625
 20
58.571
 30
0.0
 10
43.8749
 20
56.1789
 30
0.0
 10
45.5465
 20
53.8232
 30
0.0
 10
49.1989
 20
53.5438
 30
0.0
 10
49.1989
 20
53.5438
 30
0.0
 10
47.9005
 20
46.3134
 30
0.0
 10
55.8611
 20
44.3881
 30
0.0
 10
58.9969
 20
48.8114
 30
0.0
 10
58.9969
 20
48.8114
 30
0.0
 10
62.1327
 20
44.3881
 30
0.0
 10
70.0933
 20
46.3136
 30
0.0
 10
68.7949
 20
53.5438
 30
0.0
  0
SPLINE
  5
80
330
1F
100
AcDbEntity
  8
layer 1
 62
     7
100
AcDbSpline
210
0.0
220
0.0
230
1.0
 70
    11
 71
     3
 72
    36
 73
    32
 74
     0
 42
0.0000000001
 43
0.0000000001
 12
1.0
 22
0.0
 32
0.0
 13
1.0
 23
0.0
 33
0.0
 40
0.0
 40
0.0
 40
0.0
 40
0.0
 40
0.1111111111111111
 40
0.1111111111111111
 40
0.1111111111111111
 40
0.1111111111111111
 40
0.2222222222222222
 40
0.2222222222222222
 40
0.2222222222222222
 40
0.2222222222222222
 40
0.3333333333333333
 40
0.3333333333333333
 40
0.3333333333333333
 40
0.3333333333333333
 40
0.4444444444444444
 40
0.4444444444444444
 40
0.4444444444444444
 40
0.4444444444444444
 40
0.5555555555555556
 40
0.5555555555555556
 40
0.5555555555555556
 40
0.5555555555555556
 40
0.6666666666666666
 40
0.6666666666666666
 40
0.6666666666666666
 40
0.6666666666666666
 40
0.7777777777777778
 40
0.7777777777777778
 40
0.7777777777777778
 40
0.7777777777777778
 40
1.0
 40
1.0
 40
1.0
 40
1.0
 10
68.7949
 20
20.1176
 30
0.0
 10
72.4474
 20
20.3969
 30
0.0
 10
74.1189
 20
22.7526
 30
0.0
 10
74.0313
 20
25.1448
 30
0.0
 10
74.0313
 20
25.1448
 30
0.0
 10
74.1189
 20
27.5369
 30
0.0
 10
72.4474
 20
29.8926
 30
0.0
 10
68.7949
 20
30.172
 30
0.0
 10
68.7949
 20
30.172
 30
0.0
 10
70.0933
 20
37.4024
 30
0.0
 10
62.1327
 20
39.3277
 30
0.0
 10
58.9969
 20
34.9044
 30
0.0
 10
58.9969
 20
34.9044
 30
0.0
 10
55.8611
 20
39.3277
 30
0.0
 10
47.9005
 20
37.4022
 30
0.0
 10
49.1989
 20
30.172
 30
0.0
 10
49.1989
 20
30.172
 30
0.0
 10
45.5465
 20
29.8926
 30
0.0
 10
43.8749
 20
27.5369
 30
0.0
 10
43.9625
 20
25.1448
 30
0.0
 10
43.9625
 20
25.1448
 30
0.0
 10
43.8749
 20
22.7526
 30
0.0
 10
45.5465
 20
20.3969
 30
0.0
 10
49.1989
 20
20.1176
 30
0.0
 10
49.1989
 20
20.1176
 30
0.0
 10
47.9005
 20
12.8872
 30
0.0
 10
55.8611
 20
10.9619
 30
0.0
 10
58.9969
 20
15.3851
 30
0.0
 10
58.9969
 20
15.3851
 30
0.0
 10
62.1327
 20
10.9619
 30
0.0
 10
70.0933
 20
12.8874
 30
0.0
 10
68.7949
 20
20.1176
 30
0.0
  0
SPLINE
  5
81
330
1F
100
AcDbEntity
  8
layer 1
 62
     7
100
AcDbSpline
210
0.0
220
0.0
230
1.0
 70
    11
 71
     3
 72
    36
 73
    32
 74
     0
 42
0.0000000001
 43
0.0000000001
 12
1.0
 22
0.0
 32
0.0
 13
1.0
 23
0.0
 33
0.0
 40
0.0
 40
0.0
 40
0.0
 40
0.0
 40
0.1111111111111111
 40
0.1111111111111111
 40
0.1111111111111111
 40
0.1111111111111111
 40
0.2222222222222222
 40
0.2222222222222222
 40
0.2222222222222222
 40
0.2222222222222222
 40
0.3333333333333333
 40
0.3333333333333333
 40
0.3333333333333333
 40
0.3333333333333333
 40
0.4444444444444444
 40
0.4444444444444444
 40
0.4444444444444444
 40
0.4444444444444444
 40
0.5555555555555556
 40
0.5555555555555556
 40
0.5555555555555556
 40
0.5555555555555556
 40
0.6666666666666666
 40
0.6666666666666666
 40
0.6666666666666666
 40
0.6666666666666666
 40
0.7777777777777778
 40
0.7777777777777778
 40
0.7777777777777778
 40
0.7777777777777778
 40
1.0
 40
1.0
 40
1.0
 40
1.0
 10
68.7949
 20
-13.3087
 30
0.0
 10
72.4474
 20
-13.0294
 30
0.0
 10
74.1189
 20
-10.6736
 30
0.0
 10
74.0313
 20
-8.2815
 30
0.0
 10
74.0313
 20
-8.2815
 30
0.0
 10
74.1189
 20
-5.8893
 30
0.0
 10
72.4474
 20
-3.5336
 30
0.0
 10
68.7949
 20
-3.2543
 30
0.0
 10
68.7949
 20
-3.2543
 30
0.0
 10
70.0933
 20
3.9761
 30
0.0
 10
62.1327
 20
5.9014
 30
0.0
 10
58.9969
 20
1.4782
 30
0.0
 10
58.9969
 20
1.4782
 30
0.0
 10
55.8611
 20
5.9014
 30
0.0
 10
47.9005
 20
3.9759
 30
0.0
 10
49.1989
 20
-3.2543
 30
0.0
 10
49.1989
 20
-3.2543
 30
0.0
 10
45.5465
 20
-3.5336
 30
0.0
 10
43.8749
 20
-5.8893
 30
0.0
 10
43.9625
 20
-8.2815
 30
0.0
 10
43.9625
 20
-8.2815
 30
0.0
 10
43.8749
 20
-10.6736
 30
0.0
 10
45.5465
 20
-13.0294
 30
0.0
 10
49.1989
 20
-13.3087
 30
0.0
 10
49.1989
 20
-13.3087
 30
0.0
 10
47.9005
 20
-20.5391
 30
0.0
 10
55.8611
 20
-22.4644
 30
0.0
 10
58.9969
 20
-18.0412
 30
0.0
 10
58.9969
 20
-18.0412
 30
0.0
 10
62.1327
 20
-22.4644
 30
0.0
 10
70.0933
 20
-20.5389
 30
0.0
 10
68.7949
 20
-13.3087
 30
0.0
  0
SPLINE
  5
82
330
1F
100
AcDbEntity
  8
layer 1
 62
     7
100
AcDbSpline
210
0.0
220
0.0
230
1.0
 70
    11
 71
     3
 72
    36
 73
    32
 74
     0
 42
0.0000000001
 43
0.0000000001
 12
1.0
 22
0.0
 32
0.0
 13
1.0
 23
0.0
 33
0.0
 40
0.0
 40
0.0
 40
0.0
 40
0.0
 40
0.1111111111111111
 40
0.1111111111111111
 40
0.1111111111111111
 40
0.1111111111111111
 40
0.2222222222222222
 40
0.2222222222222222
 40
0.2222222222222222
 40
0.2222222222222222
 40
0.3333333333333333
 40
0.3333333333333333
 40
0.3333333333333333
 40
0.3333333333333333
 40
0.4444444444444444
 40
0.4444444444444444
 40
0.4444444444444444
 40
0.4444444444444444
 40
0.5555555555555556
 40
0.5555555555555556
 40
0.5555555555555556
 40
0.5555555555555556
 40
0.6666666666666666
 40
0.6666666666666666
 40
0.6666666666666666
 40
0.6666666666666666
 40
0.7777777777777778
 40
0.7777777777777778
 40
0.7777777777777778
 40
0.7777777777777778
 40
1.0
 40
1.0
 40
1.0
 40
1.0
 10
68.7949
 20
-46.735
 30
0.0
 10
72.4474
 20
-46.4556
 30
0.0
 10
74.1189
 20
-44.0999
 30
0.0
 10
74.0313
 20
-41.7078
 30
0.0
 10
74.0313
 20
-41.7078
 30
0.0
 10
74.1189
 20
-39.3156
 30
0.0
 10
72.4474
 20
-36.9599
 30
0.0
 10
68.7949
 20
-36.6805
 30
0.0
 10
68.7949
 20
-36.6805
 30
0.0
 10
70.0933
 20
-29.4502
 30
0.0
 10
62.1327
 20
-27.5248
 30
0.0
 10
58.9969
 20
-31.9481
 30
0.0
 10
58.9969
 20
-31.9481
 30
0.0
 10
55.8611
 20
-27.5248
 30
0.0
 10
47.9005
 20
-29.4503
 30
0.0
 10
49.1989
 20
-36.6805
 30
0.0
 10
49.1989
 20
-36.6805
 30
0.0
 10
45.5465
 20
-36.9599
 30
0.0
 10
43.8749
 20
-39.3156
 30
0.0
 10
43.9625
 20
-41.7078
 30
0.0
 10
43.9625
 20
-41.7078
 30
0.0
 10
43.8749
 20
-44.0999
 30
0.0
 10
45.5465
 20
-46.4556
 30
0.0
 10
49.1989
 20
-46.735
 30
0.0
 10
49.1989
 20
-46.735
 30
0.0
 10
47.9005
 20
-53.9653
 30
0.0
 10
55.8611
 20
-55.8907
 30
0.0
 10
58.9969
 20
-51.4674
 30
0.0
 10
58.9969
 20
-51.4674
 30
0.0
 10
62.1327
 20
-55.8907
 30
0.0
 10
70.0933
 20
-53.9652
 30
0.0
 10
68.7949
 20
-46.735
 30
0.0
  0
SPLINE
  5
83
330
1F
100
AcDbEntity
  8
layer 1
 62
     7
100
AcDbSpline
210
0.0
220
0.0
230
1.0
 70
    11
 71
     3
 72
    36
 73
    32
 74
     0
 42
0.0000000001
 43
0.0000000001
 12
1.0
 22
0.0
 32
0.0
 13
1.0
 23
0.0
 33
0.0
 40
0.0
 40
0.0
 40
0.0
 40
0.0
 40
0.1111111111111111
 40
0.1111111111111111
 40
0.1111111111111111
 40
0.1111111111111111
 40
0.2222222222222222
 40
0.2222222222222222
 40
0.2222222222222222
 40
0.2222222222222222
 40
0.3333333333333333
 40
0.3333333333333333
 40
0.3333333333333333
 40
0.3333333333333333
 40
0.4444444444444444
 40
0.4444444444444444
 40
0.4444444444444444
 40
0.4444444444444444
 40
0.5555555555555556
 40
0.5555555555555556
 40
0.5555555555555556
 40
0.5555555555555556
 40
0.6666666666666666
 40
0.6666666666666666
 40
0.6666666666666666
 40
0.6666666666666666
 40
0.7777777777777778
 40
0.7777777777777778
 40
0.7777777777777778
 40
0.7777777777777778
 40
1.0
 40
1.0
 40
1.0
 40
1.0
 10
68.7949
 20
-80.1612
 30
0.0
 10
72.4474
 20
-79.8819
 30
0.0
 10
74.1189
 20
-77.5262
 30
0.0
 10
74.0313
 20
-75.134
 30
0.0
 10
74.0313
 20
-75.134
 30
0.0
 10
74.1189
 20
-72.7419
 30
0.0
 10
72.4474
 20
-70.3862
 30
0.0
 10
68.7949
 20
-70.1068
 30
0.0
 10
68.7949
 20
-70.1068
 30
0.0
 10
70.0933
 20
-62.8764
 30
0.0
 10
62.1327
 20
-60.9511
 30
0.0
 10
58.9969
 20
-65.3744
 30
0.0
 10
58.9969
 20
-65.3744
 30
0.0
 10
55.8611
 20
-60.9511
 30
0.0
 10
47.9005
 20
-62.8766
 30
0.0
 10
49.1989
 20
-70.1068
 30
0.0
 10
49.1989
 20
-70.1068
 30
0.0
 10
45.5465
 20
-70.3862
 30
0.0
 10
43.8749
 20
-72.7419
 30
0.0
 10
43.9625
 20
-75.134
 30
0.0
 10
43.9625
 20
-75.134
 30
0.0
 10
43.8749
 20
-77.5262
 30
0.0
 10
45.5465
 20
-79.8819
 30
0.0
 10
49.1989
 20
-80.1612
 30
0.0
 10
49.1989
 20
-80.1612
 30
0.0
 10
47.9005
 20
-87.3916
 30
0.0
 10
55.8611
 20
-89.3169
 30
0.0
 10
58.9969
 20
-84.8937
 30
0.0
 10
58.9969
 20
-84.8937
 30
0.0
 10
62.1327
 20
-89.3169
 30
0.0
 10
70.0933
 20
-87.3914
 30
0.0
 10
68.7949
 20
-80.1612
 30
0.0
  0
SPLINE
  5
84
330
1F
100
AcDbEntity
  8
layer 1
 62
     7
100
AcDbSpline
210
0.0
220
0.0
230
1.0
 70
    11
 71
     3
 72
    24
 73
    20
 74
     0
 42
0.0000000001
 43
0.0000000001
 12
1.0
 22
0.0
 32
0.0
 13
1.0
 23
0.0
 33
0.0
 40
0.0
 40
0.0
 40
0.0
 40
0.0
 40
0.1666666666666667
 40
0.1666666666666667
 40
0.1666666666666667
 40
0.1666666666666667
 40
0.3333333333333333
 40
0.3333333333333333
 40
0.3333333333333333
 40
0.3333333333333333
 40
0.5
 40
0.5
 40
0.5
 40
0.5
 40
0.6666666666666666
 40
0.6666666666666666
 40
0.6666666666666666
 40
0.6666666666666666
 40
1.0
 40
1.0
 40
1.0
 40
1.0
 10
74.0313
 20
-108.5603
 30
0.0
 10
74.1189
 20
-106.1681
 30
0.0
 10
72.4474
 20
-103.8124
 30
0.0
 10
68.7949
 20
-103.5331
 30
0.0
 10
68.7949
 20
-103.5331
 30
0.0
 10
70.0933
 20
-96.3027
 30
0.0
 10
62.1327
 20
-94.3774
 30
0.0
 10
58.9969
 20
-98.8006
 30
0.0
 10
58.9969
 20
-98.8006
 30
0.0
 10
55.8611
 20
-94.3774
 30
0.0
 10
47.9005
 20
-96.3029
 30
0.0
 10
49.1989
 20
-103.5331
 30
0.0
 10
49.1989
 20
-103.5331
 30
0.0
 10
45.5465
 20
-103.8124
 30
0.0
 10
43.8749
 20
-106.1681
 30
0.0
 10
43.9625
 20
-108.5603
 30
0.0
 10
43.9625
 20
-108.5603
 30
0.0
 10
43.9625
 20
-108.5603
 30
0.0
 10
74.0313
 20
-108.5603
 30
0.0
 10
74.0313
 20
-108.5603
 30
0.0
  0
SPLINE
  5
85
330
1F
100
AcDbEntity
  8
layer 1
 62
     7
100
AcDbSpline
210
0.0
220
0.0
230
1.0
 70
    11
 71
     3
 72
    20
 73
    16
 74
     0
 42
0.0000000001
 43
0.0000000001
 12
1.0
 22
0.0
 32
0.0
 13
1.0
 23
0.0
 33
0.0
 40
0.0
 40
0.0
 40
0.0
 40
0.0
 40
0.2
 40
0.2
 40
0.2
 40
0.2
 40
0.4
 40
0.4
 40
0.4
 40
0.4
 40
0.6
 40
0.6
 40
0.6
 40
0.6
 40
1.0
 40
1.0
 40
1.0
 40
1.0
 10
-17.5305
 20
111.1642
 30
0.0
 10
-18.3745
 20
110.1922
 30
0.0
 10
-19.5397
 20
109.4484
 30
0.0
 10
-21.9738
 20
108.7278
 30
0.0
 10
-21.9738
 20
108.7278
 30
0.0
 10
-19.5397
 20
108.0072
 30
0.0
 10
-18.3745
 20
107.2634
 30
0.0
 10
-17.5305
 20
106.2914
 30
0.0
 10
-17.5305
 20
106.2914
 30
0.0
 10
-16.3173
 20
107.7226
 30
0.0
 10
-14.9122
 20
108.3149
 30
0.0
 10
-12.8886
 20
108.7278
 30
0.0
 10
-12.8886
 20
108.7278
 30
0.0
 10
-14.9124
 20
109.1407
 30
0.0
 10
-16.3173
 20
109.733
 30
0.0
 10
-17.5305
 20
111.1642
 30
0.0
  0
SPLINE
  5
86
330
1F
100
AcDbEntity
  8
layer 1
 62
     7
100
AcDbSpline
210
0.0
220
0.0
230
1.0
 70
    11
 71
     3
 72
    20
 73
    16
 74
     0
 42
0.0000000001
 43
0.0000000001
 12
1.0
 22
0.0
 32
0.0
 13
1.0
 23
0.0
 33
0.0
 40
0.0
 40
0.0
 40
0.0
 40
0.0
 40
0.2
 40
0.2
 40
0.2
 40
0.2
 40
0.4
 40
0.4
 40
0.4
 40
0.4
 40
0.6
 40
0.6
 40
0.6
 40
0.6
 40
1.0
 40
1.0
 40
1.0
 40
1.0
 10
-17.5305
 20
77.7379
 30
0.0
 10
-18.3745
 20
76.766
 30
0.0
 10
-19.5397
 20
76.0221
 30
0.0
 10
-21.9738
 20
75.3015
 30
0.0
 10
-21.9738
 20
75.3015
 30
0.0
 10
-19.5397
 20
74.581
 30
0.0
 10
-18.3745
 20
73.8371
 30
0.0
 10
-17.5305
 20
72.8652
 30
0.0
 10
-17.5305
 20
72.8652
 30
0.0
 10
-16.3173
 20
74.2963
 30
0.0
 10
-14.9122
 20
74.8886
 30
0.0
 10
-12.8886
 20
75.3015
 30
0.0
 10
-12.8886
 20
75.3015
 30
0.0
 10
-14.9124
 20
75.7145
 30
0.0
 10
-16.3173
 20
76.3068
 30
0.0
 10
-17.5305
 20
77.7379
 30
0.0
  0
SPLINE
  5
87
330
1F
100
AcDbEntity
  8
layer 1
 62
     7
100
AcDbSpline
210
0.0
220
0.0
230
1.0
 70
    11
 71
     3
 72
    20
 73
    16
 74
     0
 42
0.0000000001
 43
0.0000000001
 12
1.0
 22
0.0
 32
0.0
 13
1.0
 23
0.0
 33
0.0
 40
0.0
 40
0.0
 40
0.0
 40
0.0
 40
0.2
 40
0.2
 40
0.2
 40
0.2
 40
0.4
 40
0.4
 40
0.4
 40
0.4
 40
0.6
 40
0.6
 40
0.6
 40
0.6
 40
1.0
 40
1.0
 40
1.0
 40
1.0
 10
-17.5305
 20
44.3117
 30
0.0
 10
-18.3745
 20
43.3397
 30
0.0
 10
-19.5397
 20
42.5959
 30
0.0
 10
-21.9738
 20
41.8753
 30
0.0
 10
-21.9738
 20
41.8753
 30
0.0
 10
-19.5397
 20
41.1547
 30
0.0
 10
-18.3745
 20
40.4109
 30
0.0
 10
-17.5305
 20
39.4389
 30
0.0
 10
-17.5305
 20
39.4389
 30
0.0
 10
-16.3173
 20
40.8701
 30
0.0
 10
-14.9122
 20
41.4624
 30
0.0
 10
-12.8886
 20
41.8753
 30
0.0
 10
-12.8886
 20
41.8753
 30
0.0
 10
-14.9124
 20
42.2882
 30
0.0
 10
-16.3173
 20
42.8805
 30
0.0
 10
-17.5305
 20
44.3117
 30
0.0
  0
SPLINE
  5
88
330
1F
100
AcDbEntity
  8
layer 1
 62
     7
100
AcDbSpline
210
0.0
220
0.0
230
1.0
 70
    11
 71
     3
 72
    20
 73
    16
 74
     0
 42
0.0000000001
 43
0.0000000001
 12
1.0
 22
0.0
 32
0.0
 13
1.0
 23
0.0
 33
0.0
 40
0.0
 40
0.0
 40
0.0
 40
0.0
 40
0.2
 40
0.2
 40
0.2
 40
0.2
 40
0.4
 40
0.4
 40
0.4
 40
0.4
 40
0.6
 40
0.6
 40
0.6
 40
0.6
 40
1.0
 40
1.0
 40
1.0
 40
1.0
 10
-17.5305
 20
10.8854
 30
0.0
 10
-18.3745
 20
9.9134
 30
0.0
 10
-19.5397
 20
9.1696
 30
0.0
 10
-21.9738
 20
8.449
 30
0.0
 10
-21.9738
 20
8.449
 30
0.0
 10
-19.5397
 20
7.7284
 30
0.0
 10
-18.3745
 20
6.9846
 30
0.0
 10
-17.5305
 20
6.0126
 30
0.0
 10
-17.5305
 20
6.0126
 30
0.0
 10
-16.3173
 20
7.4438
 30
0.0
 10
-14.9122
 20
8.0361
 30
0.0
 10
-12.8886
 20
8.449
 30
0.0
 10
-12.8886
 20
8.449
 30
0.0
 10
-14.9124
 20
8.8619
 30
0.0
 10
-16.3173
 20
9.4542
 30
0.0
 10
-17.5305
 20
10.8854
 30
0.0
  0
SPLINE
  5
89
330
1F
100
AcDbEntity
  8
layer 1
 62
     7
100
AcDbSpline
210
0.0
220
0.0
230
1.0
 70
    11
 71
     3
 72
    20
 73
    16
 74
     0
 42
0.0000000001
 43
0.0000000001
 12
1.0
 22
0.0
 32
0.0
 13
1.0
 23
0.0
 33
0.0
 40
0.0
 40
0.0
 40
0.0
 40
0.0
 40
0.2
 40
0.2
 40
0.2
 40
0.2
 40
0.4
 40
0.4
 40
0.4
 40
0.4
 40
0.6
 40
0.6
 40
0.6
 40
0.6
 40
1.0
 40
1.0
 40
1.0
 40
1.0
 10
-17.5305
 20
-22.5409
 30
0.0
 10
-18.3745
 20
-23.5128
 30
0.0
 10
-19.5397
 20
-24.2567
 30
0.0
 10
-21.9738
 20
-24.9772
 30
0.0
 10
-21.9738
 20
-24.9772
 30
0.0
 10
-19.5397
 20
-25.6978
 30
0.0
 10
-18.3745
 20
-26.4417
 30
0.0
 10
-17.5305
 20
-27.4136
 30
0.0
 10
-17.5305
 20
-27.4136
 30
0.0
 10
-16.3173
 20
-25.9825
 30
0.0
 10
-14.9122
 20
-25.3902
 30
0.0
 10
-12.8886
 20
-24.9772
 30
0.0
 10
-12.8886
 20
-24.9772
 30
0.0
 10
-14.9124
 20
-24.5643
 30
0.0
 10
-16.3173
 20
-23.972
 30
0.0
 10
-17.5305
 20
-22.5409
 30
0.0
  0
SPLINE
  5
8A
330
1F
100
AcDbEntity
  8
layer 1
 62
     7
100
AcDbSpline
210
0.0
220
0.0
230
1.0
 70
    11
 71
     3
 72
    20
 73
    16
 74
     0
 42
0.0000000001
 43
0.0000000001
 12
1.0
 22
0.0
 32
0.0
 13
1.0
 23
0.0
 33
0.0
 40
0.0
 40
0.0
 40
0.0
 40
0.0
 40
0.2
 40
0.2
 40
0.2
 40
0.2
 40
0.4
 40
0.4
 40
0.4
 40
0.4
 40
0.6
 40
0.6
 40
0.6
 40
0.6
 40
1.0
 40
1.0
 40
1.0
 40
1.0
 10
-17.5305
 20
-55.9671
 30
0.0
 10
-18.3745
 20
-56.9391
 30
0.0
 10
-19.5397
 20
-57.6829
 30
0.0
 10
-21.9738
 20
-58.4035
 30
0.0
 10
-21.9738
 20
-58.4035
 30
0.0
 10
-19.5397
 20
-59.1241
 30
0.0
 10
-18.3745
 20
-59.8679
 30
0.0
 10
-17.5305
 20
-60.8399
 30
0.0
 10
-17.5305
 20
-60.8399
 30
0.0
 10
-16.3173
 20
-59.4087
 30
0.0
 10
-14.9122
 20
-58.8164
 30
0.0
 10
-12.8886
 20
-58.4035
 30
0.0
 10
-12.8886
 20
-58.4035
 30
0.0
 10
-14.9124
 20
-57.9906
 30
0.0
 10
-16.3173
 20
-57.3983
 30
0.0
 10
-17.5305
 20
-55.9671
 30
0.0
  0
SPLINE
  5
8B
330
1F
100
AcDbEntity
  8
layer 1
 62
     7
100
AcDbSpline
210
0.0
220
0.0
230
1.0
 70
    11
 71
     3
 72
    20
 73
    16
 74
     0
 42
0.0000000001
 43
0.0000000001
 12
1.0
 22
0.0
 32
0.0
 13
1.0
 23
0.0
 33
0.0
 40
0.0
 40
0.0
 40
0.0
 40
0.0
 40
0.2
 40
0.2
 40
0.2
 40
0.2
 40
0.4
 40
0.4
 40
0.4
 40
0.4
 40
0.6
 40
0.6
 40
0.6
 40
0.6
 40
1.0
 40
1.0
 40
1.0
 40
1.0
 10
-17.5305
 20
-89.3934
 30
0.0
 10
-18.3745
 20
-90.3654
 30
0.0
 10
-19.5397
 20
-91.1092
 30
0.0
 10
-21.9738
 20
-91.8298
 30
0.0
 10
-21.9738
 20
-91.8298
 30
0.0
 10
-19.5397
 20
-92.5504
 30
0.0
 10
-18.3745
 20
-93.2942
 30
0.0
 10
-17.5305
 20
-94.2662
 30
0.0
 10
-17.5305
 20
-94.2662
 30
0.0
 10
-16.3173
 20
-92.835
 30
0.0
 10
-14.9122
 20
-92.2427
 30
0.0
 10
-12.8886
 20
-91.8298
 30
0.0
 10
-12.8886
 20
-91.8298
 30
0.0
 10
-14.9124
 20
-91.4169
 30
0.0
 10
-16.3173
 20
-90.8246
 30
0.0
 10
-17.5305
 20
-89.3934
 30
0.0
  0
SPLINE
  5
8C
330
1F
100
AcDbEntity
  8
layer 1
 62
     7
100
AcDbSpline
210
0.0
220
0.0
230
1.0
 70
    11
 71
     3
 72
    20
 73
    16
 74
     0
 42
0.0000000001
 43
0.0000000001
 12
1.0
 22
0.0
 32
0.0
 13
1.0
 23
0.0
 33
0.0
 40
0.0
 40
0.0
 40
0.0
 40
0.0
 40
0.2
 40
0.2
 40
0.2
 40
0.2
 40
0.4
 40
0.4
 40
0.4
 40
0.4
 40
0.6
 40
0.6
 40
0.6
 40
0.6
 40
1.0
 40
1.0
 40
1.0
 40
1.0
 10
20.748
 20
111.1642
 30
0.0
 10
19.904
 20
110.1922
 30
0.0
 10
18.7388
 20
109.4484
 30
0.0
 10
16.3048
 20
108.7278
 30
0.0
 10
16.3048
 20
108.7278
 30
0.0
 10
18.7388
 20
108.0072
 30
0.0
 10
19.904
 20
107.2634
 30
0.0
 10
20.748
 20
106.2914
 30
0.0
 10
20.748
 20
106.2914
 30
0.0
 10
21.9612
 20
107.7226
 30
0.0
 10
23.3663
 20
108.3149
 30
0.0
 10
25.3899
 20
108.7278
 30
0.0
 10
25.3899
 20
108.7278
 30
0.0
 10
23.3661
 20
109.1407
 30
0.0
 10
21.9612
 20
109.733
 30
0.0
 10
20.748
 20
111.1642
 30
0.0
  0
SPLINE
  5
8D
330
1F
100
AcDbEntity
  8
layer 1
 62
     7
100
AcDbSpline
210
0.0
220
0.0
230
1.0
 70
    11
 71
     3
 72
    20
 73
    16
 74
     0
 42
0.0000000001
 43
0.0000000001
 12
1.0
 22
0.0
 32
0.0
 13
1.0
 23
0.0
 33
0.0
 40
0.0
 40
0.0
 40
0.0
 40
0.0
 40
0.2
 40
0.2
 40
0.2
 40
0.2
 40
0.4
 40
0.4
 40
0.4
 40
0.4
 40
0.6
 40
0.6
 40
0.6
 40
0.6
 40
1.0
 40
1.0
 40
1.0
 40
1.0
 10
20.748
 20
77.7379
 30
0.0
 10
19.904
 20
76.766
 30
0.0
 10
18.7388
 20
76.0221
 30
0.0
 10
16.3048
 20
75.3015
 30
0.0
 10
16.3048
 20
75.3015
 30
0.0
 10
18.7388
 20
74.581
 30
0.0
 10
19.904
 20
73.8371
 30
0.0
 10
20.748
 20
72.8652
 30
0.0
 10
20.748
 20
72.8652
 30
0.0
 10
21.9612
 20
74.2963
 30
0.0
 10
23.3663
 20
74.8886
 30
0.0
 10
25.3899
 20
75.3015
 30
0.0
 10
25.3899
 20
75.3015
 30
0.0
 10
23.3661
 20
75.7145
 30
0.0
 10
21.9612
 20
76.3068
 30
0.0
 10
20.748
 20
77.7379
 30
0.0
  0
SPLINE
  5
8E
330
1F
100
AcDbEntity
  8
layer 1
 62
     7
100
AcDbSpline
210
0.0
220
0.0
230
1.0
 70
    11
 71
     3
 72
    20
 73
    16
 74
     0
 42
0.0000000001
 43
0.0000000001
 12
1.0
 22
0.0
 32
0.0
 13
1.0
 23
0.0
 33
0.0
 40
0.0
 40
0.0
 40
0.0
 40
0.0
 40
0.2
 40
0.2
 40
0.2
 40
0.2
 40
0.4
 40
0.4
 40
0.4
 40
0.4
 40
0.6
 40
0.6
 40
0.6
 40
0.6
 40
1.0
 40
1.0
 40
1.0
 40
1.0
 10
20.748
 20
44.3117
 30
0.0
 10
19.904
 20
43.3397
 30
0.0
 10
18.7388
 20
42.5959
 30
0.0
 10
16.3048
 20
41.8753
 30
0.0
 10
16.3048
 20
41.8753
 30
0.0
 10
18.7388
 20
41.1547
 30
0.0
 10
19.904
 20
40.4109
 30
0.0
 10
20.748
 20
39.4389
 30
0.0
 10
20.748
 20
39.4389
 30
0.0
 10
21.9612
 20
40.8701
 30
0.0
 10
23.3663
 20
41.4624
 30
0.0
 10
25.3899
 20
41.8753
 30
0.0
 10
25.3899
 20
41.8753
 30
0.0
 10
23.3661
 20
42.2882
 30
0.0
 10
21.9612
 20
42.8805
 30
0.0
 10
20.748
 20
44.3117
 30
0.0
  0
SPLINE
  5
8F
330
1F
100
AcDbEntity
  8
layer 1
 62
     7
100
AcDbSpline
210
0.0
220
0.0
230
1.0
 70
    11
 71
     3
 72
    20
 73
    16
 74
     0
 42
0.0000000001
 43
0.0000000001
 12
1.0
 22
0.0
 32
0.0
 13
1.0
 23
0.0
 33
0.0
 40
0.0
 40
0.0
 40
0.0
 40
0.0
 40
0.2
 40
0.2
 40
0.2
 40
0.2
 40
0.4
 40
0.4
 40
0.4
 40
0.4
 40
0.6
 40
0.6
 40
0.6
 40
0.6
 40
1.0
 40
1.0
 40
1.0
 40
1.0
 10
20.748
 20
10.8854
 30
0.0
 10
19.904
 20
9.9134
 30
0.0
 10
18.7388
 20
9.1696
 30
0.0
 10
16.3048
 20
8.449
 30
0.0
 10
16.3048
 20
8.449
 30
0.0
 10
18.7388
 20
7.7284
 30
0.0
 10
19.904
 20
6.9846
 30
0.0
 10
20.748
 20
6.0126
 30
0.0
 10
20.748
 20
6.0126
 30
0.0
 10
21.9612
 20
7.4438
 30
0.0
 10
23.3663
 20
8.0361
 30
0.0
 10
25.3899
 20
8.449
 30
0.0
 10
25.3899
 20
8.449
 30
0.0
 10
23.3661
 20
8.8619
 30
0.0
 10
21.9612
 20
9.4542
 30
0.0
 10
20.748
 20
10.8854
 30
0.0
  0
SPLINE
  5
90
330
1F
100
AcDbEntity
  8
layer 1
 62
     7
100
AcDbSpline
210
0.0
220
0.0
230
1.0
 70
    11
 71
     3
 72
    20
 73
    16
 74
     0
 42
0.0000000001
 43
0.0000000001
 12
1.0
 22
0.0
 32
0.0
 13
1.0
 23
0.0
 33
0.0
 40
0.0
 40
0.0
 40
0.0
 40
0.0
 40
0.2
 40
0.2
 40
0.2
 40
0.2
 40
0.4
 40
0.4
 40
0.4
 40
0.4
 40
0.6
 40
0.6
 40
0.6
 40
0.6
 40
1.0
 40
1.0
 40
1.0
 40
1.0
 10
20.748
 20
-22.5409
 30
0.0
 10
19.904
 20
-23.5128
 30
0.0
 10
18.7388
 20
-24.2567
 30
0.0
 10
16.3048
 20
-24.9772
 30
0.0
 10
16.3048
 20
-24.9772
 30
0.0
 10
18.7388
 20
-25.6978
 30
0.0
 10
19.904
 20
-26.4417
 30
0.0
 10
20.748
 20
-27.4136
 30
0.0
 10
20.748
 20
-27.4136
 30
0.0
 10
21.9612
 20
-25.9825
 30
0.0
 10
23.3663
 20
-25.3902
 30
0.0
 10
25.3899
 20
-24.9772
 30
0.0
 10
25.3899
 20
-24.9772
 30
0.0
 10
23.3661
 20
-24.5643
 30
0.0
 10
21.9612
 20
-23.972
 30
0.0
 10
20.748
 20
-22.5409
 30
0.0
  0
SPLINE
  5
91
330
1F
100
AcDbEntity
  8
layer 1
 62
     7
100
AcDbSpline
210
0.0
220
0.0
230
1.0
 70
    11
 71
     3
 72
    20
 73
    16
 74
     0
 42
0.0000000001
 43
0.0000000001
 12
1.0
 22
0.0
 32
0.0
 13
1.0
 23
0.0
 33
0.0
 40
0.0
 40
0.0
 40
0.0
 40
0.0
 40
0.2
 40
0.2
 40
0.2
 40
0.2
 40
0.4
 40
0.4
 40
0.4
 40
0.4
 40
0.6
 40
0.6
 40
0.6
 40
0.6
 40
1.0
 40
1.0
 40
1.0
 40
1.0
 10
20.748
 20
-55.9671
 30
0.0
 10
19.904
 20
-56.9391
 30
0.0
 10
18.7388
 20
-57.6829
 30
0.0
 10
16.3048
 20
-58.4035
 30
0.0
 10
16.3048
 20
-58.4035
 30
0.0
 10
18.7388
 20
-59.1241
 30
0.0
 10
19.904
 20
-59.8679
 30
0.0
 10
20.748
 20
-60.8399
 30
0.0
 10
20.748
 20
-60.8399
 30
0.0
 10
21.9612
 20
-59.4087
 30
0.0
 10
23.3663
 20
-58.8164
 30
0.0
 10
25.3899
 20
-58.4035
 30
0.0
 10
25.3899
 20
-58.4035
 30
0.0
 10
23.3661
 20
-57.9906
 30
0.0
 10
21.9612
 20
-57.3983
 30
0.0
 10
20.748
 20
-55.9671
 30
0.0
  0
SPLINE
  5
92
330
1F
100
AcDbEntity
  8
layer 1
 62
     7
100
AcDbSpline
210
0.0
220
0.0
230
1.0
 70
    11
 71
     3
 72
    20
 73
    16
 74
     0
 42
0.0000000001
 43
0.0000000001
 12
1.0
 22
0.0
 32
0.0
 13
1.0
 23
0.0
 33
0.0
 40
0.0
 40
0.0
 40
0.0
 40
0.0
 40
0.2
 40
0.2
 40
0.2
 40
0.2
 40
0.4
 40
0.4
 40
0.4
 40
0.4
 40
0.6
 40
0.6
 40
0.6
 40
0.6
 40
1.0
 40
1.0
 40
1.0
 40
1.0
 10
20.748
 20
-89.3934
 30
0.0
 10
19.904
 20
-90.3654
 30
0.0
 10
18.7388
 20
-91.1092
 30
0.0
 10
16.3048
 20
-91.8298
 30
0.0
 10
16.3048
 20
-91.8298
 30
0.0
 10
18.7388
 20
-92.5504
 30
0.0
 10
19.904
 20
-93.2942
 30
0.0
 10
20.748
 20
-94.2662
 30
0.0
 10
20.748
 20
-94.2662
 30
0.0
 10
21.9612
 20
-92.835
 30
0.0
 10
23.3663
 20
-92.2427
 30
0.0
 10
25.3899
 20
-91.8298
 30
0.0
 10
25.3899
 20
-91.8298
 30
0.0
 10
23.3661
 20
-91.4169
 30
0.0
 10
21.9612
 20
-90.8246
 30
0.0
 10
20.748
 20
-89.3934
 30
0.0
  0
SPLINE
  5
93
330
1F
100
AcDbEntity
  8
layer 1
 62
     7
100
AcDbSpline
210
0.0
220
0.0
230
1.0
 70
    11
 71
     3
 72
    20
 73
    16
 74
     0
 42
0.0000000001
 43
0.0000000001
 12
1.0
 22
0.0
 32
0.0
 13
1.0
 23
0.0
 33
0.0
 40
0.0
 40
0.0
 40
0.0
 40
0.0
 40
0.2
 40
0.2
 40
0.2
 40
0.2
 40
0.4
 40
0.4
 40
0.4
 40
0.4
 40
0.6
 40
0.6
 40
0.6
 40
0.6
 40
1.0
 40
1.0
 40
1.0
 40
1.0
 10
59.0266
 20
111.1642
 30
0.0
 10
58.1826
 20
110.1922
 30
0.0
 10
57.0174
 20
109.4484
 30
0.0
 10
54.5833
 20
108.7278
 30
0.0
 10
54.5833
 20
108.7278
 30
0.0
 10
57.0174
 20
108.0072
 30
0.0
 10
58.1826
 20
107.2634
 30
0.0
 10
59.0266
 20
106.2914
 30
0.0
 10
59.0266
 20
106.2914
 30
0.0
 10
60.2398
 20
107.7226
 30
0.0
 10
61.6449
 20
108.3149
 30
0.0
 10
63.6685
 20
108.7278
 30
0.0
 10
63.6685
 20
108.7278
 30
0.0
 10
61.6447
 20
109.1407
 30
0.0
 10
60.2398
 20
109.733
 30
0.0
 10
59.0266
 20
111.1642
 30
0.0
  0
SPLINE
  5
94
330
1F
100
AcDbEntity
  8
layer 1
 62
     7
100
AcDbSpline
210
0.0
220
0.0
230
1.0
 70
    11
 71
     3
 72
    20
 73
    16
 74
     0
 42
0.0000000001
 43
0.0000000001
 12
1.0
 22
0.0
 32
0.0
 13
1.0
 23
0.0
 33
0.0
 40
0.0
 40
0.0
 40
0.0
 40
0.0
 40
0.2
 40
0.2
 40
0.2
 40
0.2
 40
0.4
 40
0.4
 40
0.4
 40
0.4
 40
0.6
 40
0.6
 40
0.6
 40
0.6
 40
1.0
 40
1.0
 40
1.0
 40
1.0
 10
59.0266
 20
77.7379
 30
0.0
 10
58.1826
 20
76.766
 30
0.0
 10
57.0174
 20
76.0221
 30
0.0
 10
54.5833
 20
75.3015
 30
0.0
 10
54.5833
 20
75.3015
 30
0.0
 10
57.0174
 20
74.581
 30
0.0
 10
58.1826
 20
73.8371
 30
0.0
 10
59.0266
 20
72.8652
 30
0.0
 10
59.0266
 20
72.8652
 30
0.0
 10
60.2398
 20
74.2963
 30
0.0
 10
61.6449
 20
74.8886
 30
0.0
 10
63.6685
 20
75.3015
 30
0.0
 10
63.6685
 20
75.3015
 30
0.0
 10
61.6447
 20
75.7145
 30
0.0
 10
60.2398
 20
76.3068
 30
0.0
 10
59.0266
 20
77.7379
 30
0.0
  0
SPLINE
  5
95
330
1F
100
AcDbEntity
  8
layer 1
 62
     7
100
AcDbSpline
210
0.0
220
0.0
230
1.0
 70
    11
 71
     3
 72
    20
 73
    16
 74
     0
 42
0.0000000001
 43
0.0000000001
 12
1.0
 22
0.0
 32
0.0
 13
1.0
 23
0.0
 33
0.0
 40
0.0
 40
0.0
 40
0.0
 40
0.0
 40
0.2
 40
0.2
 40
0.2
 40
0.2
 40
0.4
 40
0.4
 40
0.4
 40
0.4
 40
0.6
 40
0.6
 40
0.6
 40
0.6
 40
1.0
 40
1.0
 40
1.0
 40
1.0
 10
59.0266
 20
44.3117
 30
0.0
 10
58.1826
 20
43.3397
 30
0.0
 10
57.0174
 20
42.5959
 30
0.0
 10
54.5833
 20
41.8753
 30
0.0
 10
54.5833
 20
41.8753
 30
0.0
 10
57.0174
 20
41.1547
 30
0.0
 10
58.1826
 20
40.4109
 30
0.0
 10
59.0266
 20
39.4389
 30
0.0
 10
59.0266
 20
39.4389
 30
0.0
 10
60.2398
 20
40.8701
 30
0.0
 10
61.6449
 20
41.4624
 30
0.0
 10
63.6685
 20
41.8753
 30
0.0
 10
63.6685
 20
41.8753
 30
0.0
 10
61.6447
 20
42.2882
 30
0.0
 10
60.2398
 20
42.8805
 30
0.0
 10
59.0266
 20
44.3117
 30
0.0
  0
SPLINE
  5
96
330
1F
100
AcDbEntity
  8
layer 1
 62
     7
100
AcDbSpline
210
0.0
220
0.0
230
1.0
 70
    11
 71
     3
 72
    20
 73
    16
 74
     0
 42
0.0000000001
 43
0.0000000001
 12
1.0
 22
0.0
 32
0.0
 13
1.0
 23
0.0
 33
0.0
 40
0.0
 40
0.0
 40
0.0
 40
0.0
 40
0.2
 40
0.2
 40
0.2
 40
0.2
 40
0.4
 40
0.4
 40
0.4
 40
0.4
 40
0.6
 40
0.6
 40
0.6
 40
0.6
 40
1.0
 40
1.0
 40
1.0
 40
1.0
 10
59.0266
 20
10.8854
 30
0.0
 10
58.1826
 20
9.9134
 30
0.0
 10
57.0174
 20
9.1696
 30
0.0
 10
54.5833
 20
8.449
 30
0.0
 10
54.5833
 20
8.449
 30
0.0
 10
57.0174
 20
7.7284
 30
0.0
 10
58.1826
 20
6.9846
 30
0.0
 10
59.0266
 20
6.0126
 30
0.0
 10
59.0266
 20
6.0126
 30
0.0
 10
60.2398
 20
7.4438
 30
0.0
 10
61.6449
 20
8.0361
 30
0.0
 10
63.6685
 20
8.449
 30
0.0
 10
63.6685
 20
8.449
 30
0.0
 10
61.6447
 20
8.8619
 30
0.0
 10
60.2398
 20
9.4542
 30
0.0
 10
59.0266
 20
10.8854
 30
0.0
  0
SPLINE
  5
97
330
1F
100
AcDbEntity
  8
layer 1
 62
     7
100
AcDbSpline
210
0.0
220
0.0
230
1.0
 70
    11
 71
     3
 72
    20
 73
    16
 74
     0
 42
0.0000000001
 43
0.0000000001
 12
1.0
 22
0.0
 32
0.0
 13
1.0
 23
0.0
 33
0.0
 40
0.0
 40
0.0
 40
0.0
 40
0.0
 40
0.2
 40
0.2
 40
0.2
 40
0.2
 40
0.4
 40
0.4
 40
0.4
 40
0.4
 40
0.6
 40
0.6
 40
0.6
 40
0.6
 40
1.0
 40
1.0
 40
1.0
 40
1.0
 10
59.0266
 20
-22.5409
 30
0.0
 10
58.1826
 20
-23.5128
 30
0.0
 10
57.0174
 20
-24.2567
 30
0.0
 10
54.5833
 20
-24.9772
 30
0.0
 10
54.5833
 20
-24.9772
 30
0.0
 10
57.0174
 20
-25.6978
 30
0.0
 10
58.1826
 20
-26.4417
 30
0.0
 10
59.0266
 20
-27.4136
 30
0.0
 10
59.0266
 20
-27.4136
 30
0.0
 10
60.2398
 20
-25.9825
 30
0.0
 10
61.6449
 20
-25.3902
 30
0.0
 10
63.6685
 20
-24.9772
 30
0.0
 10
63.6685
 20
-24.9772
 30
0.0
 10
61.6447
 20
-24.5643
 30
0.0
 10
60.2398
 20
-23.972
 30
0.0
 10
59.0266
 20
-22.5409
 30
0.0
  0
SPLINE
  5
98
330
1F
100
AcDbEntity
  8
layer 1
 62
     7
100
AcDbSpline
210
0.0
220
0.0
230
1.0
 70
    11
 71
     3
 72
    20
 73
    16
 74
     0
 42
0.0000000001
 43
0.0000000001
 12
1.0
 22
0.0
 32
0.0
 13
1.0
 23
0.0
 33
0.0
 40
0.0
 40
0.0
 40
0.0
 40
0.0
 40
0.2
 40
0.2
 40
0.2
 40
0.2
 40
0.4
 40
0.4
 40
0.4
 40
0.4
 40
0.6
 40
0.6
 40
0.6
 40
0.6
 40
1.0
 40
1.0
 40
1.0
 40
1.0
 10
59.0266
 20
-55.9671
 30
0.0
 10
58.1826
 20
-56.9391
 30
0.0
 10
57.0174
 20
-57.6829
 30
0.0
 10
54.5833
 20
-58.4035
 30
0.0
 10
54.5833
 20
-58.4035
 30
0.0
 10
57.0174
 20
-59.1241
 30
0.0
 10
58.1826
 20
-59.8679
 30
0.0
 10
59.0266
 20
-60.8399
 30
0.0
 10
59.0266
 20
-60.8399
 30
0.0
 10
60.2398
 20
-59.4087
 30
0.0
 10
61.6449
 20
-58.8164
 30
0.0
 10
63.6685
 20
-58.4035
 30
0.0
 10
63.6685
 20
-58.4035
 30
0.0
 10
61.6447
 20
-57.9906
 30
0.0
 10
60.2398
 20
-57.3983
 30
0.0
 10
59.0266
 20
-55.9671
 30
0.0
  0
SPLINE
  5
99
330
1F
100
AcDbEntity
  8
layer 1
 62
     7
100
AcDbSpline
210
0.0
220
0.0
230
1.0
 70
    11
 71
     3
 72
    20
 73
    16
 74
     0
 42
0.0000000001
 43
0.0000000001
 12
1.0
 22
0.0
 32
0.0
 13
1.0
 23
0.0
 33
0.0
 40
0.0
 40
0.0
 40
0.0
 40
0.0
 40
0.2
 40
0.2
 40
0.2
 40
0.2
 40
0.4
 40
0.4
 40
0.4
 40
0.4
 40
0.6
 40
0.6
 40
0.6
 40
0.6
 40
1.0
 40
1.0
 40
1.0
 40
1.0
 10
59.0266
 20
-89.3934
 30
0.0
 10
58.1826
 20
-90.3654
 30
0.0
 10
57.0174
 20
-91.1092
 30
0.0
 10
54.5833
 20
-91.8298
 30
0.0
 10
54.5833
 20
-91.8298
 30
0.0
 10
57.0174
 20
-92.5504
 30
0.0
 10
58.1826
 20
-93.2942
 30
0.0
 10
59.0266
 20
-94.2662
 30
0.0
 10
59.0266
 20
-94.2662
 30
0.0
 10
60.2398
 20
-92.835
 30
0.0
 10
61.6449
 20
-92.2427
 30
0.0
 10
63.6685
 20
-91.8298
 30
0.0
 10
63.6685
 20
-91.8298
 30
0.0
 10
61.6447
 20
-91.4169
 30
0.0
 10
60.2398
 20
-90.8246
 30
0.0
 10
59.0266
 20
-89.3934
 30
0.0
  0
SPLINE
  5
9A
330
1F
100
AcDbEntity
  8
layer 1
 62
     7
100
AcDbSpline
210
0.0
220
0.0
230
1.0
 70
    11
 71
     3
 72
    24
 73
    20
 74
     0
 42
0.0000000001
 43
0.0000000001
 12
1.0
 22
0.0
 32
0.0
 13
1.0
 23
0.0
 33
0.0
 40
0.0
 40
0.0
 40
0.0
 40
0.0
 40
0.1666666666666667
 40
0.1666666666666667
 40
0.1666666666666667
 40
0.1666666666666667
 40
0.3333333333333333
 40
0.3333333333333333
 40
0.3333333333333333
 40
0.3333333333333333
 40
0.5
 40
0.5
 40
0.5
 40
0.5
 40
0.6666666666666666
 40
0.6666666666666666
 40
0.6666666666666666
 40
0.6666666666666666
 40
1.0
 40
1.0
 40
1.0
 40
1.0
 10
72.3785
 20
118.0645
 30
0.0
 10
75.5511
 20
118.4568
 30
0.0
 10
77.4764
 20
120.0863
 30
0.0
 10
78.2794
 20
123.3559
 30
0.0
 10
78.2794
 20
123.3559
 30
0.0
 10
78.2794
 20
123.3559
 30
0.0
 10
78.2794
 20
94.0998
 30
0.0
 10
78.2794
 20
94.0998
 30
0.0
 10
78.2794
 20
94.0998
 30
0.0
 10
77.4764
 20
97.3693
 30
0.0
 10
75.551
 20
98.9988
 30
0.0
 10
72.3785
 20
99.3911
 30
0.0
 10
72.3785
 20
99.3911
 30
0.0
 10
72.7894
 20
103.564
 30
0.0
 10
71.4376
 20
107.803
 30
0.0
 10
67.3084
 20
108.7278
 30
0.0
 10
67.3084
 20
108.7278
 30
0.0
 10
71.4376
 20
109.6525
 30
0.0
 10
72.7894
 20
113.8915
 30
0.0
 10
72.3785
 20
118.0645
 30
0.0
  0
SPLINE
  5
9B
330
1F
100
AcDbEntity
  8
layer 1
 62
     7
100
AcDbSpline
210
0.0
220
0.0
230
1.0
 70
    11
 71
     3
 72
    24
 73
    20
 74
     0
 42
0.0000000001
 43
0.0000000001
 12
1.0
 22
0.0
 32
0.0
 13
1.0
 23
0.0
 33
0.0
 40
0.0
 40
0.0
 40
0.0
 40
0.0
 40
0.1666666666666667
 40
0.1666666666666667
 40
0.1666666666666667
 40
0.1666666666666667
 40
0.3333333333333333
 40
0.3333333333333333
 40
0.3333333333333333
 40
0.3333333333333333
 40
0.5
 40
0.5
 40
0.5
 40
0.5
 40
0.6666666666666666
 40
0.6666666666666666
 40
0.6666666666666666
 40
0.6666666666666666
 40
1.0
 40
1.0
 40
1.0
 40
1.0
 10
72.3785
 20
84.6383
 30
0.0
 10
75.5511
 20
85.0305
 30
0.0
 10
77.4764
 20
86.66
 30
0.0
 10
78.2794
 20
89.9296
 30
0.0
 10
78.2794
 20
89.9296
 30
0.0
 10
78.2794
 20
89.9296
 30
0.0
 10
78.2794
 20
60.6735
 30
0.0
 10
78.2794
 20
60.6735
 30
0.0
 10
78.2794
 20
60.6735
 30
0.0
 10
77.4764
 20
63.943
 30
0.0
 10
75.551
 20
65.5726
 30
0.0
 10
72.3785
 20
65.9648
 30
0.0
 10
72.3785
 20
65.9648
 30
0.0
 10
72.7894
 20
70.1377
 30
0.0
 10
71.4376
 20
74.3767
 30
0.0
 10
67.3084
 20
75.3015
 30
0.0
 10
67.3084
 20
75.3015
 30
0.0
 10
71.4376
 20
76.2262
 30
0.0
 10
72.7894
 20
80.4652
 30
0.0
 10
72.3785
 20
84.6383
 30
0.0
  0
SPLINE
  5
9C
330
1F
100
AcDbEntity
  8
layer 1
 62
     7
100
AcDbSpline
210
0.0
220
0.0
230
1.0
 70
    11
 71
     3
 72
    24
 73
    20
 74
     0
 42
0.0000000001
 43
0.0000000001
 12
1.0
 22
0.0
 32
0.0
 13
1.0
 23
0.0
 33
0.0
 40
0.0
 40
0.0
 40
0.0
 40
0.0
 40
0.1666666666666667
 40
0.1666666666666667
 40
0.1666666666666667
 40
0.1666666666666667
 40
0.3333333333333333
 40
0.3333333333333333
 40
0.3333333333333333
 40
0.3333333333333333
 40
0.5
 40
0.5
 40
0.5
 40
0.5
 40
0.6666666666666666
 40
0.6666666666666666
 40
0.6666666666666666
 40
0.6666666666666666
 40
1.0
 40
1.0
 40
1.0
 40
1.0
 10
72.3785
 20
51.212
 30
0.0
 10
75.5511
 20
51.6043
 30
0.0
 10
77.4764
 20
53.2338
 30
0.0
 10
78.2794
 20
56.5033
 30
0.0
 10
78.2794
 20
56.5033
 30
0.0
 10
78.2794
 20
56.5033
 30
0.0
 10
78.2794
 20
27.2472
 30
0.0
 10
78.2794
 20
27.2472
 30
0.0
 10
78.2794
 20
27.2472
 30
0.0
 10
77.4764
 20
30.5168
 30
0.0
 10
75.551
 20
32.1463
 30
0.0
 10
72.3785
 20
32.5386
 30
0.0
 10
72.3785
 20
32.5386
 30
0.0
 10
72.7894
 20
36.7114
 30
0.0
 10
71.4376
 20
40.9504
 30
0.0
 10
67.3084
 20
41.8753
 30
0.0
 10
67.3084
 20
41.8753
 30
0.0
 10
71.4376
 20
42.8
 30
0.0
 10
72.7894
 20
47.039
 30
0.0
 10
72.3785
 20
51.212
 30
0.0
  0
SPLINE
  5
9D
330
1F
100
AcDbEntity
  8
layer 1
 62
     7
100
AcDbSpline
210
0.0
220
0.0
230
1.0
 70
    11
 71
     3
 72
    24
 73
    20
 74
     0
 42
0.0000000001
 43
0.0000000001
 12
1.0
 22
0.0
 32
0.0
 13
1.0
 23
0.0
 33
0.0
 40
0.0
 40
0.0
 40
0.0
 40
0.0
 40
0.1666666666666667
 40
0.1666666666666667
 40
0.1666666666666667
 40
0.1666666666666667
 40
0.3333333333333333
 40
0.3333333333333333
 40
0.3333333333333333
 40
0.3333333333333333
 40
0.5
 40
0.5
 40
0.5
 40
0.5
 40
0.6666666666666666
 40
0.6666666666666666
 40
0.6666666666666666
 40
0.6666666666666666
 40
1.0
 40
1.0
 40
1.0
 40
1.0
 10
72.3785
 20
17.7857
 30
0.0
 10
75.5511
 20
18.178
 30
0.0
 10
77.4764
 20
19.8075
 30
0.0
 10
78.2794
 20
23.0771
 30
0.0
 10
78.2794
 20
23.0771
 30
0.0
 10
78.2794
 20
23.0771
 30
0.0
 10
78.2794
 20
-6.179
 30
0.0
 10
78.2794
 20
-6.179
 30
0.0
 10
78.2794
 20
-6.179
 30
0.0
 10
77.4764
 20
-2.9095
 30
0.0
 10
75.551
 20
-1.28
 30
0.0
 10
72.3785
 20
-0.8877
 30
0.0
 10
72.3785
 20
-0.8877
 30
0.0
 10
72.7894
 20
3.2852
 30
0.0
 10
71.4376
 20
7.5242
 30
0.0
 10
67.3084
 20
8.449
 30
0.0
 10
67.3084
 20
8.449
 30
0.0
 10
71.4376
 20
9.3737
 30
0.0
 10
72.7894
 20
13.6127
 30
0.0
 10
72.3785
 20
17.7857
 30
0.0
  0
SPLINE
  5
9E
330
1F
100
AcDbEntity
  8
layer 1
 62
     7
100
AcDbSpline
210
0.0
220
0.0
230
1.0
 70
    11
 71
     3
 72
    24
 73
    20
 74
     0
 42
0.0000000001
 43
0.0000000001
 12
1.0
 22
0.0
 32
0.0
 13
1.0
 23
0.0
 33
0.0
 40
0.0
 40
0.0
 40
0.0
 40
0.0
 40
0.1666666666666667
 40
0.1666666666666667
 40
0.1666666666666667
 40
0.1666666666666667
 40
0.3333333333333333
 40
0.3333333333333333
 40
0.3333333333333333
 40
0.3333333333333333
 40
0.5
 40
0.5
 40
0.5
 40
0.5
 40
0.6666666666666666
 40
0.6666666666666666
 40
0.6666666666666666
 40
0.6666666666666666
 40
1.0
 40
1.0
 40
1.0
 40
1.0
 10
72.3785
 20
-15.6405
 30
0.0
 10
75.5511
 20
-15.2483
 30
0.0
 10
77.4764
 20
-13.6188
 30
0.0
 10
78.2794
 20
-10.3492
 30
0.0
 10
78.2794
 20
-10.3492
 30
0.0
 10
78.2794
 20
-10.3492
 30
0.0
 10
78.2794
 20
-39.6053
 30
0.0
 10
78.2794
 20
-39.6053
 30
0.0
 10
78.2794
 20
-39.6053
 30
0.0
 10
77.4764
 20
-36.3357
 30
0.0
 10
75.551
 20
-34.7062
 30
0.0
 10
72.3785
 20
-34.314
 30
0.0
 10
72.3785
 20
-34.314
 30
0.0
 10
72.7894
 20
-30.1411
 30
0.0
 10
71.4376
 20
-25.9021
 30
0.0
 10
67.3084
 20
-24.9772
 30
0.0
 10
67.3084
 20
-24.9772
 30
0.0
 10
71.4376
 20
-24.0526
 30
0.0
 10
72.7894
 20
-19.8136
 30
0.0
 10
72.3785
 20
-15.6405
 30
0.0
  0
SPLINE
  5
9F
330
1F
100
AcDbEntity
  8
layer 1
 62
     7
100
AcDbSpline
210
0.0
220
0.0
230
1.0
 70
    11
 71
     3
 72
    24
 73
    20
 74
     0
 42
0.0000000001
 43
0.0000000001
 12
1.0
 22
0.0
 32
0.0
 13
1.0
 23
0.0
 33
0.0
 40
0.0
 40
0.0
 40
0.0
 40
0.0
 40
0.1666666666666667
 40
0.1666666666666667
 40
0.1666666666666667
 40
0.1666666666666667
 40
0.3333333333333333
 40
0.3333333333333333
 40
0.3333333333333333
 40
0.3333333333333333
 40
0.5
 40
0.5
 40
0.5
 40
0.5
 40
0.6666666666666666
 40
0.6666666666666666
 40
0.6666666666666666
 40
0.6666666666666666
 40
1.0
 40
1.0
 40
1.0
 40
1.0
 10
72.3785
 20
-49.0668
 30
0.0
 10
75.5511
 20
-48.6745
 30
0.0
 10
77.4764
 20
-47.045
 30
0.0
 10
78.2794
 20
-43.7755
 30
0.0
 10
78.2794
 20
-43.7755
 30
0.0
 10
78.2794
 20
-43.7755
 30
0.0
 10
78.2794
 20
-73.0316
 30
0.0
 10
78.2794
 20
-73.0316
 30
0.0
 10
78.2794
 20
-73.0316
 30
0.0
 10
77.4764
 20
-69.762
 30
0.0
 10
75.551
 20
-68.1325
 30
0.0
 10
72.3785
 20
-67.7402
 30
0.0
 10
72.3785
 20
-67.7402
 30
0.0
 10
72.7894
 20
-63.5674
 30
0.0
 10
71.4376
 20
-59.3284
 30
0.0
 10
67.3084
 20
-58.4035
 30
0.0
 10
67.3084
 20
-58.4035
 30
0.0
 10
71.4376
 20
-57.4788
 30
0.0
 10
72.7894
 20
-53.2398
 30
0.0
 10
72.3785
 20
-49.0668
 30
0.0
  0
SPLINE
  5
A0
330
1F
100
AcDbEntity
  8
layer 1
 62
     7
100
AcDbSpline
210
0.0
220
0.0
230
1.0
 70
    11
 71
     3
 72
    24
 73
    20
 74
     0
 42
0.0000000001
 43
0.0000000001
 12
1.0
 22
0.0
 32
0.0
 13
1.0
 23
0.0
 33
0.0
 40
0.0
 40
0.0
 40
0.0
 40
0.0
 40
0.1666666666666667
 40
0.1666666666666667
 40
0.1666666666666667
 40
0.1666666666666667
 40
0.3333333333333333
 40
0.3333333333333333
 40
0.3333333333333333
 40
0.3333333333333333
 40
0.5
 40
0.5
 40
0.5
 40
0.5
 40
0.6666666666666666
 40
0.6666666666666666
 40
0.6666666666666666
 40
0.6666666666666666
 40
1.0
 40
1.0
 40
1.0
 40
1.0
 10
72.3785
 20
-82.4931
 30
0.0
 10
75.5511
 20
-82.1008
 30
0.0
 10
77.4764
 20
-80.4713
 30
0.0
 10
78.2794
 20
-77.2017
 30
0.0
 10
78.2794
 20
-77.2017
 30
0.0
 10
78.2794
 20
-77.2017
 30
0.0
 10
78.2794
 20
-106.4578
 30
0.0
 10
78.2794
 20
-106.4578
 30
0.0
 10
78.2794
 20
-106.4578
 30
0.0
 10
77.4764
 20
-103.1883
 30
0.0
 10
75.551
 20
-101.5588
 30
0.0
 10
72.3785
 20
-101.1665
 30
0.0
 10
72.3785
 20
-101.1665
 30
0.0
 10
72.7894
 20
-96.9936
 30
0.0
 10
71.4376
 20
-92.7546
 30
0.0
 10
67.3084
 20
-91.8298
 30
0.0
 10
67.3084
 20
-91.8298
 30
0.0
 10
71.4376
 20
-90.9051
 30
0.0
 10
72.7894
 20
-86.6661
 30
0.0
 10
72.3785
 20
-82.4931
 30
0.0
  0
ENDSEC
  0
SECTION
  2
OBJECTS
  0
DICTIONARY
  5
C
330
0
100
AcDbDictionary
281
     1
  3
ACAD_GROUP
350
D
  3
ACAD_LAYOUT
350
1A
  3
ACAD_MATERIAL
350
3B
  3
ACAD_MLEADERSTYLE
350
C3
  3
ACAD_MLINESTYLE
350
17
  3
ACAD_PLOTSETTINGS
350
19
  3
ACAD_PLOTSTYLENAME
350
E
  3
ACAD_TABLESTYLE
350
C2
  3
ACAD_VISUALSTYLE
350
2A
  0
DICTIONARY
  5
D
102
{ACAD_REACTORS
330
C
102
}
330
C
100
AcDbDictionary
281
     1
  0
DICTIONARY
  5
1A
102
{ACAD_REACTORS
330
C
102
}
330
C
100
AcDbDictionary
281
     1
  3
Layout1
350
1E
  3
Layout2
350
26
  3
Model
350
22
  0
DICTIONARY
  5
3B
102
{ACAD_REACTORS
330
C
102
}
330
C
100
AcDbDictionary
281
     1
  3
ByBlock
350
3D
  3
ByLayer
350
3C
  3
Global
350
3E
  0
DICTIONARY
  5
C3
102
{ACAD_REACTORS
330
C
102
}
330
C
100
AcDbDictionary
281
     1
  0
DICTIONARY
  5
17
102
{ACAD_REACTORS
330
C
102
}
330
C
100
AcDbDictionary
281
     1
  3
Standard
350
18
  0
DICTIONARY
  5
19
102
{ACAD_REACTORS
330
C
102
}
330
C
100
AcDbDictionary
281
     1
  0
ACDBDICTIONARYWDFLT
  5
E
102
{ACAD_REACTORS
330
C
102
}
330
C
100
AcDbDictionary
281
     1
  3
Normal
350
F
100
AcDbDictionaryWithDefault
340
F
  0
DICTIONARY
  5
C2
102
{ACAD_REACTORS
330
C
102
}
330
C
100
AcDbDictionary
281
     1
  0
DICTIONARY
  5
2A
102
{ACAD_REACTORS
330
C
102
}
330
C
100
AcDbDictionary
281
     1
  3
2dWireframe
350
2F
  3
3D Hidden
350
31
  3
3dWireframe
350
30
  3
Basic
350
32
  3
Brighten
350
36
  3
ColorChange
350
3A
  3
Conceptual
350
34
  3
Dim
350
35
  3
Facepattern
350
39
  3
Flat
350
2B
  3
FlatWithEdges
350
2C
  3
Gouraud
350
2D
  3
GouraudWithEdges
350
2E
  3
Linepattern
350
38
  3
Realistic
350
33
  3
Thicken
350
37
  0
LAYOUT
  5
1E
102
{ACAD_REACTORS
330
1A
102
}
330
1A
100
AcDbPlotSettings
  1

  2
none_device
  4

  6

 40
0.0
 41
0.0
 42
0.0
 43
0.0
 44
0.0
 45
0.0
 46
0.0
 47
0.0
 48
0.0
 49
0.0
140
0.0
141
0.0
142
1.0
143
1.0
 70
   688
 72
     0
 73
     0
 74
     5
  7

 75
    16
 76
     0
 77
     2
 78
   300
147
1.0
148
0.0
149
0.0
100
AcDbLayout
  1
Layout1
 70
     1
 71
     1
 10
0.0
 20
0.0
 11
12.0
 21
9.0
 12
0.0
 22
0.0
 32
0.0
 14
1.000000000000000E+20
 24
1.000000000000000E+20
 34
1.000000000000000E+20
 15
-1.000000000000000E+20
 25
-1.000000000000000E+20
 35
-1.000000000000000E+20
146
0.0
 13
0.0
 23
0.0
 33
0.0
 16
1.0
 26
0.0
 36
0.0
 17
0.0
 27
1.0
 37
0.0
 76
     0
330
1B
  0
LAYOUT
  5
26
102
{ACAD_REACTORS
330
1A
102
}
330
1A
100
AcDbPlotSettings
  1

  2
none_device
  4

  6

 40
0.0
 41
0.0
 42
0.0
 43
0.0
 44
0.0
 45
0.0
 46
0.0
 47
0.0
 48
0.0
 49
0.0
140
0.0
141
0.0
142
1.0
143
1.0
 70
   688
 72
     0
 73
     0
 74
     5
  7

 75
    16
 76
     0
 77
     2
 78
   300
147
1.0
148
0.0
149
0.0
100
AcDbLayout
  1
Layout2
 70
     1
 71
     2
 10
0.0
 20
0.0
 11
0.0
 21
0.0
 12
0.0
 22
0.0
 32
0.0
 14
0.0
 24
0.0
 34
0.0
 15
0.0
 25
0.0
 35
0.0
146
0.0
 13
0.0
 23
0.0
 33
0.0
 16
1.0
 26
0.0
 36
0.0
 17
0.0
 27
1.0
 37
0.0
 76
     0
330
23
  0
LAYOUT
  5
22
102
{ACAD_REACTORS
330
1A
102
}
330
1A
100
AcDbPlotSettings
  1

  2
none_device
  4

  6

 40
0.0
 41
0.0
 42
0.0
 43
0.0
 44
0.0
 45
0.0
 46
0.0
 47
0.0
 48
0.0
 49
0.0
140
0.0
141
0.0
142
1.0
143
1.0
 70
  1712
 72
     0
 73
     0
 74
     0
  7

 75
     0
 76
     0
 77
     2
 78
   300
147
1.0
148
0.0
149
0.0
100
AcDbLayout
  1
Model
 70
     1
 71
     0
 10
0.0
 20
0.0
 11
12.0
 21
9.0
 12
0.0
 22
0.0
 32
0.0
 14
-80.448
 24
-114.8744
 34
0.0
 15
83.8223
 25
131.7379
 35
0.0
146
0.0
 13
0.0
 23
0.0
 33
0.0
 16
1.0
 26
0.0
 36
0.0
 17
0.0
 27
1.0
 37
0.0
 76
     0
330
1F
331
29
  0
MATERIAL
  5
3D
102
{ACAD_REACTORS
330
3B
102
}
330
3B
100
AcDbMaterial
  1
ByBlock
 72
     1
 94
      127
  0
MATERIAL
  5
3C
102
{ACAD_REACTORS
330
3B
102
}
330
3B
100
AcDbMaterial
  1
ByLayer
 72
     1
 94
      127
  0
MATERIAL
  5
3E
102
{ACAD_REACTORS
330
3B
102
}
330
3B
100
AcDbMaterial
  1
Global
 72
     1
 94
      127
  0
MLINESTYLE
  5
18
102
{ACAD_REACTORS
330
17
102
}
330
17
100
AcDbMlineStyle
  2
Standard
 70
     0
  3

 62
   256
 51
90.0
 52
90.0
 71
     2
 49
0.5
 62
   256
  6
BYLAYER
 49
-0.5
 62
   256
  6
BYLAYER
  0
ACDBPLACEHOLDER
  5
F
102
{ACAD_REACTORS
330
E
102
}
330
E
  0
VISUALSTYLE
  5
2F
102
{ACAD_REACTORS
330
2A
102
}
102
{ACAD_XDICTIONARY
360
AA
102
}
330
2A
100
AcDbVisualStyle
  2
2dWireframe
 70
     4
 71
     0
 72
     2
 73
     0
 90
        0
 40
-0.6
 41
-30.0
 62
     5
 63
     7
421
 16777215
 74
     1
 91
        4
 64
     7
 65
   257
 75
     1
175
     1
 42
1.0
 92
        0
 66
   257
 43
1.0
 76
     1
 77
     6
 78
     2
 67
     7
 79
     5
170
     0
171
     0
290
     0
174
     0
 93
        1
 44
0.0
173
     0
291
     0
 45
0.0
  0
VISUALSTYLE
  5
31
102
{ACAD_REACTORS
330
2A
102
}
102
{ACAD_XDICTIONARY
360
AE
102
}
330
2A
100
AcDbVisualStyle
  2
3D Hidden
 70
     6
 71
     1
 72
     2
 73
     2
 90
        0
 40
-0.6
 41
-30.0
 62
     5
 63
     7
421
 16777215
 74
     2
 91
        2
 64
     7
 65
   257
 75
     2
175
     1
 42
40.0
 92
        0
 66
   257
 43
1.0
 76
     1
 77
     6
 78
     2
 67
     7
 79
     3
170
     0
171
     0
290
     0
174
     0
 93
        1
 44
0.0
173
     0
291
     0
 45
0.0
  0
VISUALSTYLE
  5
30
102
{ACAD_REACTORS
330
2A
102
}
102
{ACAD_XDICTIONARY
360
AC
102
}
330
2A
100
AcDbVisualStyle
  2
3dWireframe
 70
     5
 71
     0
 72
     2
 73
     0
 90
        0
 40
-0.6
 41
-30.0
 62
     5
 63
     7
421
 16777215
 74
     1
 91
        4
 64
     7
 65
   257
 75
     1
175
     1
 42
1.0
 92
        0
 66
   257
 43
1.0
 76
     1
 77
     6
 78
     2
 67
     7
 79
     5
170
     0
171
     0
290
     0
174
     0
 93
        1
 44
0.0
173
     0
291
     0
 45
0.0
  0
VISUALSTYLE
  5
32
102
{ACAD_REACTORS
330
2A
102
}
102
{ACAD_XDICTIONARY
360
B0
102
}
330
2A
100
AcDbVisualStyle
  2
Basic
 70
     7
 71
     1
 72
     0
 73
     1
 90
        0
 40
-0.6
 41
-30.0
 62
     5
 63
     7
421
 16777215
 74
     0
 91
        4
 64
     7
 65
   257
 75
     1
175
     1
 42
1.0
 92
        8
 66
     7
 43
1.0
 76
     1
 77
     6
 78
     2
 67
     7
 79
     5
170
     0
171
     0
290
     0
174
     0
 93
        1
 44
0.0
173
     0
291
     1
 45
0.0
  0
VISUALSTYLE
  5
36
102
{ACAD_REACTORS
330
2A
102
}
102
{ACAD_XDICTIONARY
360
B8
102
}
330
2A
100
AcDbVisualStyle
  2
Brighten
 70
    12
 71
     2
 72
     2
 73
     0
 90
        0
 40
-0.6
 41
-30.0
 62
     5
 63
     7
421
 16777215
 74
     1
 91
        4
 64
     7
 65
   257
 75
     1
175
     1
 42
1.0
 92
        8
 66
     7
 43
1.0
 76
     1
 77
     6
 78
     2
 67
     7
 79
     5
170
     0
171
     0
290
     0
174
     0
 93
        1
 44
50.0
173
     0
291
     1
 45
0.0
  0
VISUALSTYLE
  5
3A
102
{ACAD_REACTORS
330
2A
102
}
102
{ACAD_XDICTIONARY
360
C0
102
}
330
2A
100
AcDbVisualStyle
  2
ColorChange
 70
    16
 71
     2
 72
     2
 73
     3
 90
        0
 40
-0.6
 41
-30.0
 62
     5
 63
     8
421
  8421504
 74
     1
 91
        4
 64
     7
 65
   257
 75
     1
175
     1
 42
1.0
 92
        8
 66
     8
424
  8421504
 43
1.0
 76
     1
 77
     6
 78
     2
 67
     7
 79
     5
170
     0
171
     0
290
     0
174
     0
 93
        1
 44
0.0
173
     0
291
     1
 45
0.0
  0
VISUALSTYLE
  5
34
102
{ACAD_REACTORS
330
2A
102
}
102
{ACAD_XDICTIONARY
360
B4
102
}
330
2A
100
AcDbVisualStyle
  2
Conceptual
 70
     9
 71
     3
 72
     2
 73
     0
 90
        0
 40
-0.6
 41
-30.0
 62
     5
 63
     7
421
 16777215
 74
     2
 91
        2
 64
     7
 65
   257
 75
     1
175
     1
 42
40.0
 92
        8
 66
     7
 43
1.0
 76
     1
 77
     6
 78
     2
 67
     7
 79
     3
170
     0
171
     0
290
     0
174
     0
 93
        1
 44
0.0
173
     0
291
     0
 45
0.0
  0
VISUALSTYLE
  5
35
102
{ACAD_REACTORS
330
2A
102
}
102
{ACAD_XDICTIONARY
360
B6
102
}
330
2A
100
AcDbVisualStyle
  2
Dim
 70
    11
 71
     2
 72
     2
 73
     0
 90
        0
 40
-0.6
 41
-30.0
 62
     5
 63
     7
421
 16777215
 74
     1
 91
        4
 64
     7
 65
   257
 75
     1
175
     1
 42
1.0
 92
        8
 66
     7
 43
1.0
 76
     1
 77
     6
 78
     2
 67
     7
 79
     5
170
     0
171
     0
290
     0
174
     0
 93
        1
 44
-50.0
173
     0
291
     1
 45
0.0
  0
VISUALSTYLE
  5
39
102
{ACAD_REACTORS
330
2A
102
}
102
{ACAD_XDICTIONARY
360
BE
102
}
330
2A
100
AcDbVisualStyle
  2
Facepattern
 70
    15
 71
     2
 72
     2
 73
     0
 90
        0
 40
-0.6
 41
-30.0
 62
     5
 63
     7
421
 16777215
 74
     1
 91
        4
 64
     7
 65
   257
 75
     1
175
     1
 42
1.0
 92
        8
 66
     7
 43
1.0
 76
     1
 77
     6
 78
     2
 67
     7
 79
     5
170
     0
171
     0
290
     0
174
     0
 93
        1
 44
0.0
173
     0
291
     1
 45
0.0
  0
VISUALSTYLE
  5
2B
102
{ACAD_REACTORS
330
2A
102
}
102
{ACAD_XDICTIONARY
360
A2
102
}
330
2A
100
AcDbVisualStyle
  2
Flat
 70
     0
 71
     2
 72
     1
 73
     1
 90
        2
 40
-0.6
 41
30.0
 62
     5
 63
     7
421
 16777215
 74
     0
 91
        4
 64
     7
 65
   257
 75
     1
175
     1
 42
1.0
 92
        8
 66
     7
 43
1.0
 76
     1
 77
     6
 78
     2
 67
     7
 79
     5
170
     0
171
     0
290
     0
174
     0
 93
       13
 44
0.0
173
     0
291
     1
 45
0.0
  0
VISUALSTYLE
  5
2C
102
{ACAD_REACTORS
330
2A
102
}
102
{ACAD_XDICTIONARY
360
A4
102
}
330
2A
100
AcDbVisualStyle
  2
FlatWithEdges
 70
     1
 71
     2
 72
     1
 73
     1
 90
        2
 40
-0.6
 41
30.0
 62
     5
 63
     7
421
 16777215
 74
     1
 91
        4
 64
     7
 65
   257
 75
     1
175
     1
 42
1.0
 92
        0
 66
   257
 43
1.0
 76
     1
 77
     6
 78
     2
 67
     7
 79
     5
170
     0
171
     0
290
     0
174
     0
 93
       13
 44
0.0
173
     0
291
     1
 45
0.0
  0
VISUALSTYLE
  5
2D
102
{ACAD_REACTORS
330
2A
102
}
102
{ACAD_XDICTIONARY
360
A6
102
}
330
2A
100
AcDbVisualStyle
  2
Gouraud
 70
     2
 71
     2
 72
     2
 73
     1
 90
        2
 40
-0.6
 41
30.0
 62
     5
 63
     7
421
 16777215
 74
     0
 91
        4
 64
     7
 65
   257
 75
     1
175
     1
 42
1.0
 92
        0
 66
     7
 43
1.0
 76
     1
 77
     6
 78
     2
 67
     7
 79
     5
170
     0
171
     0
290
     0
174
     0
 93
       13
 44
0.0
173
     0
291
     1
 45
0.0
  0
VISUALSTYLE
  5
2E
102
{ACAD_REACTORS
330
2A
102
}
102
{ACAD_XDICTIONARY
360
A8
102
}
330
2A
100
AcDbVisualStyle
  2
GouraudWithEdges
 70
     3
 71
     2
 72
     2
 73
     1
 90
        2
 40
-0.6
 41
30.0
 62
     5
 63
     7
421
 16777215
 74
     1
 91
        4
 64
     7
 65
   257
 75
     1
175
     1
 42
1.0
 92
        0
 66
   257
 43
1.0
 76
     1
 77
     6
 78
     2
 67
     7
 79
     5
170
     0
171
     0
290
     0
174
     0
 93
       13
 44
0.0
173
     0
291
     1
 45
0.0
  0
VISUALSTYLE
  5
38
102
{ACAD_REACTORS
330
2A
102
}
102
{ACAD_XDICTIONARY
360
BC
102
}
330
2A
100
AcDbVisualStyle
  2
Linepattern
 70
    14
 71
     2
 72
     2
 73
     0
 90
        0
 40
-0.6
 41
-30.0
 62
     5
 63
     7
421
 16777215
 74
     1
 91
        4
 64
     7
 65
   257
 75
     7
175
     7
 42
1.0
 92
        8
 66
     7
 43
1.0
 76
     1
 77
     6
 78
     2
 67
     7
 79
     5
170
     0
171
     0
290
     0
174
     0
 93
        1
 44
0.0
173
     0
291
     1
 45
0.0
  0
VISUALSTYLE
  5
33
102
{ACAD_REACTORS
330
2A
102
}
102
{ACAD_XDICTIONARY
360
B2
102
}
330
2A
100
AcDbVisualStyle
  2
Realistic
 70
     8
 71
     2
 72
     2
 73
     0
 90
        0
 40
-0.6
 41
-30.0
 62
     5
 63
     7
421
 16777215
 74
     1
 91
        0
 64
     7
 65
   257
 75
     1
175
     1
 42
1.0
 92
        8
 66
     8
424
  7895160
 43
1.0
 76
     1
 77
     6
 78
     2
 67
     7
 79
     5
170
     0
171
     0
290
     0
174
     0
 93
       13
 44
0.0
173
     0
291
     0
 45
0.0
  0
VISUALSTYLE
  5
37
102
{ACAD_REACTORS
330
2A
102
}
102
{ACAD_XDICTIONARY
360
BA
102
}
330
2A
100
AcDbVisualStyle
  2
Thicken
 70
    13
 71
     2
 72
     2
 73
     0
 90
        0
 40
-0.6
 41
-30.0
 62
     5
 63
     7
421
 16777215
 74
     1
 91
        4
 64
     7
 65
   257
 75
     1
175
     1
 42
1.0
 92
       12
 66
     7
 43
1.0
 76
     1
 77
     6
 78
     2
 67
     7
 79
     5
170
     0
171
     0
290
     0
174
     0
 93
        1
 44
0.0
173
     0
291
     1
 45
0.0
  0
DICTIONARY
  5
AA
330
2F
100
AcDbDictionary
280
     1
281
     1
  3
ACAD_XREC_ROUNDTRIP
360
AB
  0
DICTIONARY
  5
AE
330
31
100
AcDbDictionary
280
     1
281
     1
  3
ACAD_XREC_ROUNDTRIP
360
AF
  0
DICTIONARY
  5
AC
330
30
100
AcDbDictionary
280
     1
281
     1
  3
ACAD_XREC_ROUNDTRIP
360
AD
  0
DICTIONARY
  5
B0
330
32
100
AcDbDictionary
280
     1
281
     1
  3
ACAD_XREC_ROUNDTRIP
360
B1
  0
DICTIONARY
  5
B8
330
36
100
AcDbDictionary
280
     1
281
     1
  3
ACAD_XREC_ROUNDTRIP
360
B9
  0
DICTIONARY
  5
C0
330
3A
100
AcDbDictionary
280
     1
281
     1
  3
ACAD_XREC_ROUNDTRIP
360
C1
  0
DICTIONARY
  5
B4
330
34
100
AcDbDictionary
280
     1
281
     1
  3
ACAD_XREC_ROUNDTRIP
360
B5
  0
DICTIONARY
  5
B6
330
35
100
AcDbDictionary
280
     1
281
     1
  3
ACAD_XREC_ROUNDTRIP
360
B7
  0
DICTIONARY
  5
BE
330
39
100
AcDbDictionary
280
     1
281
     1
  3
ACAD_XREC_ROUNDTRIP
360
BF
  0
DICTIONARY
  5
A2
330
2B
100
AcDbDictionary
280
     1
281
     1
  3
ACAD_XREC_ROUNDTRIP
360
A3
  0
DICTIONARY
  5
A4
330
2C
100
AcDbDictionary
280
     1
281
     1
  3
ACAD_XREC_ROUNDTRIP
360
A5
  0
DICTIONARY
  5
A6
330
2D
100
AcDbDictionary
280
     1
281
     1
  3
ACAD_XREC_ROUNDTRIP
360
A7
  0
DICTIONARY
  5
A8
330
2E
100
AcDbDictionary
280
     1
281
     1
  3
ACAD_XREC_ROUNDTRIP
360
A9
  0
DICTIONARY
  5
BC
330
38
100
AcDbDictionary
280
     1
281
     1
  3
ACAD_XREC_ROUNDTRIP
360
BD
  0
DICTIONARY
  5
B2
330
33
100
AcDbDictionary
280
     1
281
     1
  3
ACAD_XREC_ROUNDTRIP
360
B3
  0
DICTIONARY
  5
BA
330
37
100
AcDbDictionary
280
     1
281
     1
  3
ACAD_XREC_ROUNDTRIP
360
BB
  0
XRECORD
  5
AB
102
{ACAD_REACTORS
330
AA
102
}
330
AA
100
AcDbXrecord
280
     1
102
RTVSPropertyOp0
 70
     1
102
RTVSPropertyOp1
 70
     1
102
RTVSPropertyOp2
 70
     1
102
RTVSPropertyOp3
 70
     1
102
RTVSPropertyOp4
 70
     1
102
RTVSPropertyOp5
 70
     1
102
RTVSPropertyOp6
 70
     1
102
RTVSPropertyOp7
 70
     1
102
RTVSPropertyOp8
 70
     1
102
RTVSPropertyOp9
 70
     1
102
RTVSPropertyOp10
 70
     1
102
RTVSPropertyOp11
 70
     1
102
RTVSPropertyOp12
 70
     1
102
RTVSPropertyOp13
 70
     1
102
RTVSPropertyOp14
 70
     1
102
RTVSPropertyOp15
 70
     1
102
RTVSPropertyOp16
 70
     1
102
RTVSPropertyOp17
 70
     1
102
RTVSPropertyOp18
 70
     1
102
RTVSPropertyOp19
 70
     1
102
RTVSPropertyOp20
 70
     1
102
RTVSPropertyOp21
 70
     1
102
RTVSPropertyOp22
 70
     1
102
RTVSPropertyOp23
 70
     1
102
RTVSPropertyOp24
 70
     1
102
RTVSPropertyOp25
 70
     1
102
RTVSPropertyOp26
 70
     1
102
RTVSPropertyOp27
 70
     1
102
RTVSPropertyOp28
 70
     1
102
RTVSPropertyOp29
 70
     1
102
RTVSPropertyOp30
 70
     1
102
RTVSPropertyOp31
 70
     1
102
RTVSPropertyOp32
 70
     1
  0
XRECORD
  5
AF
102
{ACAD_REACTORS
330
AE
102
}
330
AE
100
AcDbXrecord
280
     1
102
RTVSPropertyOp0
 70
     1
102
RTVSPropertyOp1
 70
     1
102
RTVSPropertyOp2
 70
     1
102
RTVSPropertyOp3
 70
     1
102
RTVSPropertyOp4
 70
     1
102
RTVSPropertyOp5
 70
     1
102
RTVSPropertyOp6
 70
     1
102
RTVSPropertyOp7
 70
     1
102
RTVSPropertyOp8
 70
     1
102
RTVSPropertyOp9
 70
     1
102
RTVSPropertyOp10
 70
     1
102
RTVSPropertyOp11
 70
     1
102
RTVSPropertyOp12
 70
     1
102
RTVSPropertyOp13
 70
     1
102
RTVSPropertyOp14
 70
     1
102
RTVSPropertyOp15
 70
     1
102
RTVSPropertyOp16
 70
     1
102
RTVSPropertyOp17
 70
     1
102
RTVSPropertyOp18
 70
     1
102
RTVSPropertyOp19
 70
     1
102
RTVSPropertyOp20
 70
     1
102
RTVSPropertyOp21
 70
     1
102
RTVSPropertyOp22
 70
     1
102
RTVSPropertyOp23
 70
     1
102
RTVSPropertyOp24
 70
     1
102
RTVSPropertyOp25
 70
     1
102
RTVSPropertyOp26
 70
     1
102
RTVSPropertyOp27
 70
     1
102
RTVSPropertyOp28
 70
     1
102
RTVSPropertyOp29
 70
     1
102
RTVSPropertyOp30
 70
     1
102
RTVSPropertyOp31
 70
     1
102
RTVSPropertyOp32
 70
     1
  0
XRECORD
  5
AD
102
{ACAD_REACTORS
330
AC
102
}
330
AC
100
AcDbXrecord
280
     1
102
RTVSPropertyOp0
 70
     1
102
RTVSPropertyOp1
 70
     1
102
RTVSPropertyOp2
 70
     1
102
RTVSPropertyOp3
 70
     1
102
RTVSPropertyOp4
 70
     1
102
RTVSPropertyOp5
 70
     1
102
RTVSPropertyOp6
 70
     1
102
RTVSPropertyOp7
 70
     1
102
RTVSPropertyOp8
 70
     1
102
RTVSPropertyOp9
 70
     1
102
RTVSPropertyOp10
 70
     1
102
RTVSPropertyOp11
 70
     1
102
RTVSPropertyOp12
 70
     1
102
RTVSPropertyOp13
 70
     1
102
RTVSPropertyOp14
 70
     1
102
RTVSPropertyOp15
 70
     1
102
RTVSPropertyOp16
 70
     1
102
RTVSPropertyOp17
 70
     1
102
RTVSPropertyOp18
 70
     1
102
RTVSPropertyOp19
 70
     1
102
RTVSPropertyOp20
 70
     1
102
RTVSPropertyOp21
 70
     1
102
RTVSPropertyOp22
 70
     1
102
RTVSPropertyOp23
 70
     1
102
RTVSPropertyOp24
 70
     1
102
RTVSPropertyOp25
 70
     1
102
RTVSPropertyOp26
 70
     1
102
RTVSPropertyOp27
 70
     1
102
RTVSPropertyOp28
 70
     1
102
RTVSPropertyOp29
 70
     1
102
RTVSPropertyOp30
 70
     1
102
RTVSPropertyOp31
 70
     1
102
RTVSPropertyOp32
 70
     1
  0
XRECORD
  5
B1
102
{ACAD_REACTORS
330
B0
102
}
330
B0
100
AcDbXrecord
280
     1
102
RTVSPropertyOp0
 70
     1
102
RTVSPropertyOp1
 70
     1
102
RTVSPropertyOp2
 70
     1
102
RTVSPropertyOp3
 70
     1
102
RTVSPropertyOp4
 70
     1
102
RTVSPropertyOp5
 70
     1
102
RTVSPropertyOp6
 70
     1
102
RTVSPropertyOp7
 70
     1
102
RTVSPropertyOp8
 70
     1
102
RTVSPropertyOp9
 70
     1
102
RTVSPropertyOp10
 70
     1
102
RTVSPropertyOp11
 70
     1
102
RTVSPropertyOp12
 70
     1
102
RTVSPropertyOp13
 70
     1
102
RTVSPropertyOp14
 70
     1
102
RTVSPropertyOp15
 70
     1
102
RTVSPropertyOp16
 70
     1
102
RTVSPropertyOp17
 70
     1
102
RTVSPropertyOp18
 70
     1
102
RTVSPropertyOp19
 70
     1
102
RTVSPropertyOp20
 70
     1
102
RTVSPropertyOp21
 70
     1
102
RTVSPropertyOp22
 70
     1
102
RTVSPropertyOp23
 70
     1
102
RTVSPropertyOp24
 70
     1
102
RTVSPropertyOp25
 70
     1
102
RTVSPropertyOp26
 70
     1
102
RTVSPropertyOp27
 70
     1
102
RTVSPropertyOp28
 70
     1
102
RTVSPropertyOp29
 70
     1
102
RTVSPropertyOp30
 70
     1
102
RTVSPropertyOp31
 70
     1
102
RTVSPropertyOp32
 70
     1
  0
XRECORD
  5
B9
102
{ACAD_REACTORS
330
B8
102
}
330
B8
100
AcDbXrecord
280
     1
102
RTVSPropertyOp0
 70
     1
102
RTVSPropertyOp1
 70
     1
102
RTVSPropertyOp2
 70
     1
102
RTVSPropertyOp3
 70
     1
102
RTVSPropertyOp4
 70
     1
102
RTVSPropertyOp5
 70
     1
102
RTVSPropertyOp6
 70
     1
102
RTVSPropertyOp7
 70
     1
102
RTVSPropertyOp8
 70
     1
102
RTVSPropertyOp9
 70
     1
102
RTVSPropertyOp10
 70
     1
102
RTVSPropertyOp11
 70
     1
102
RTVSPropertyOp12
 70
     1
102
RTVSPropertyOp13
 70
     1
102
RTVSPropertyOp14
 70
     1
102
RTVSPropertyOp15
 70
     1
102
RTVSPropertyOp16
 70
     1
102
RTVSPropertyOp17
 70
     1
102
RTVSPropertyOp18
 70
     1
102
RTVSPropertyOp19
 70
     1
102
RTVSPropertyOp20
 70
     1
102
RTVSPropertyOp21
 70
     1
102
RTVSPropertyOp22
 70
     1
102
RTVSPropertyOp23
 70
     1
102
RTVSPropertyOp24
 70
     1
102
RTVSPropertyOp25
 70
     1
102
RTVSPropertyOp26
 70
     1
102
RTVSPropertyOp27
 70
     1
102
RTVSPropertyOp28
 70
     1
102
RTVSPropertyOp29
 70
     1
102
RTVSPropertyOp30
 70
     1
102
RTVSPropertyOp31
 70
     1
102
RTVSPropertyOp32
 70
     1
  0
XRECORD
  5
C1
102
{ACAD_REACTORS
330
C0
102
}
330
C0
100
AcDbXrecord
280
     1
102
RTVSPropertyOp0
 70
     1
102
RTVSPropertyOp1
 70
     1
102
RTVSPropertyOp2
 70
     1
102
RTVSPropertyOp3
 70
     1
102
RTVSPropertyOp4
 70
     1
102
RTVSPropertyOp5
 70
     1
102
RTVSPropertyOp6
 70
     1
102
RTVSPropertyOp7
 70
     1
102
RTVSPropertyOp8
 70
     1
102
RTVSPropertyOp9
 70
     1
102
RTVSPropertyOp10
 70
     1
102
RTVSPropertyOp11
 70
     1
102
RTVSPropertyOp12
 70
     1
102
RTVSPropertyOp13
 70
     1
102
RTVSPropertyOp14
 70
     1
102
RTVSPropertyOp15
 70
     1
102
RTVSPropertyOp16
 70
     1
102
RTVSPropertyOp17
 70
     1
102
RTVSPropertyOp18
 70
     1
102
RTVSPropertyOp19
 70
     1
102
RTVSPropertyOp20
 70
     1
102
RTVSPropertyOp21
 70
     1
102
RTVSPropertyOp22
 70
     1
102
RTVSPropertyOp23
 70
     1
102
RTVSPropertyOp24
 70
     1
102
RTVSPropertyOp25
 70
     1
102
RTVSPropertyOp26
 70
     1
102
RTVSPropertyOp27
 70
     1
102
RTVSPropertyOp28
 70
     1
102
RTVSPropertyOp29
 70
     1
102
RTVSPropertyOp30
 70
     1
102
RTVSPropertyOp31
 70
     1
102
RTVSPropertyOp32
 70
     1
  0
XRECORD
  5
B5
102
{ACAD_REACTORS
330
B4
102
}
330
B4
100
AcDbXrecord
280
     1
102
RTVSPropertyOp0
 70
     1
102
RTVSPropertyOp1
 70
     1
102
RTVSPropertyOp2
 70
     1
102
RTVSPropertyOp3
 70
     1
102
RTVSPropertyOp4
 70
     1
102
RTVSPropertyOp5
 70
     1
102
RTVSPropertyOp6
 70
     1
102
RTVSPropertyOp7
 70
     1
102
RTVSPropertyOp8
 70
     1
102
RTVSPropertyOp9
 70
     1
102
RTVSPropertyOp10
 70
     1
102
RTVSPropertyOp11
 70
     1
102
RTVSPropertyOp12
 70
     1
102
RTVSPropertyOp13
 70
     1
102
RTVSPropertyOp14
 70
     1
102
RTVSPropertyOp15
 70
     1
102
RTVSPropertyOp16
 70
     1
102
RTVSPropertyOp17
 70
     1
102
RTVSPropertyOp18
 70
     1
102
RTVSPropertyOp19
 70
     1
102
RTVSPropertyOp20
 70
     1
102
RTVSPropertyOp21
 70
     1
102
RTVSPropertyOp22
 70
     1
102
RTVSPropertyOp23
 70
     1
102
RTVSPropertyOp24
 70
     1
102
RTVSPropertyOp25
 70
     1
102
RTVSPropertyOp26
 70
     1
102
RTVSPropertyOp27
 70
     1
102
RTVSPropertyOp28
 70
     1
102
RTVSPropertyOp29
 70
     1
102
RTVSPropertyOp30
 70
     1
102
RTVSPropertyOp31
 70
     1
102
RTVSPropertyOp32
 70
     1
  0
XRECORD
  5
B7
102
{ACAD_REACTORS
330
B6
102
}
330
B6
100
AcDbXrecord
280
     1
102
RTVSPropertyOp0
 70
     1
102
RTVSPropertyOp1
 70
     1
102
RTVSPropertyOp2
 70
     1
102
RTVSPropertyOp3
 70
     1
102
RTVSPropertyOp4
 70
     1
102
RTVSPropertyOp5
 70
     1
102
RTVSPropertyOp6
 70
     1
102
RTVSPropertyOp7
 70
     1
102
RTVSPropertyOp8
 70
     1
102
RTVSPropertyOp9
 70
     1
102
RTVSPropertyOp10
 70
     1
102
RTVSPropertyOp11
 70
     1
102
RTVSPropertyOp12
 70
     1
102
RTVSPropertyOp13
 70
     1
102
RTVSPropertyOp14
 70
     1
102
RTVSPropertyOp15
 70
     1
102
RTVSPropertyOp16
 70
     1
102
RTVSPropertyOp17
 70
     1
102
RTVSPropertyOp18
 70
     1
102
RTVSPropertyOp19
 70
     1
102
RTVSPropertyOp20
 70
     1
102
RTVSPropertyOp21
 70
     1
102
RTVSPropertyOp22
 70
     1
102
RTVSPropertyOp23
 70
     1
102
RTVSPropertyOp24
 70
     1
102
RTVSPropertyOp25
 70
     1
102
RTVSPropertyOp26
 70
     1
102
RTVSPropertyOp27
 70
     1
102
RTVSPropertyOp28
 70
     1
102
RTVSPropertyOp29
 70
     1
102
RTVSPropertyOp30
 70
     1
102
RTVSPropertyOp31
 70
     1
102
RTVSPropertyOp32
 70
     1
  0
XRECORD
  5
BF
102
{ACAD_REACTORS
330
BE
102
}
330
BE
100
AcDbXrecord
280
     1
102
RTVSPropertyOp0
 70
     1
102
RTVSPropertyOp1
 70
     1
102
RTVSPropertyOp2
 70
     1
102
RTVSPropertyOp3
 70
     1
102
RTVSPropertyOp4
 70
     1
102
RTVSPropertyOp5
 70
     1
102
RTVSPropertyOp6
 70
     1
102
RTVSPropertyOp7
 70
     1
102
RTVSPropertyOp8
 70
     1
102
RTVSPropertyOp9
 70
     1
102
RTVSPropertyOp10
 70
     1
102
RTVSPropertyOp11
 70
     1
102
RTVSPropertyOp12
 70
     1
102
RTVSPropertyOp13
 70
     1
102
RTVSPropertyOp14
 70
     1
102
RTVSPropertyOp15
 70
     1
102
RTVSPropertyOp16
 70
     1
102
RTVSPropertyOp17
 70
     1
102
RTVSPropertyOp18
 70
     1
102
RTVSPropertyOp19
 70
     1
102
RTVSPropertyOp20
 70
     1
102
RTVSPropertyOp21
 70
     1
102
RTVSPropertyOp22
 70
     1
102
RTVSPropertyOp23
 70
     1
102
RTVSPropertyOp24
 70
     1
102
RTVSPropertyOp25
 70
     1
102
RTVSPropertyOp26
 70
     1
102
RTVSPropertyOp27
 70
     1
102
RTVSPropertyOp28
 70
     1
102
RTVSPropertyOp29
 70
     1
102
RTVSPropertyOp30
 70
     1
102
RTVSPropertyOp31
 70
     1
102
RTVSPropertyOp32
 70
     1
  0
XRECORD
  5
A3
102
{ACAD_REACTORS
330
A2
102
}
330
A2
100
AcDbXrecord
280
     1
102
RTVSPropertyOp0
 70
     1
102
RTVSPropertyOp1
 70
     1
102
RTVSPropertyOp2
 70
     1
102
RTVSPropertyOp3
 70
     1
102
RTVSPropertyOp4
 70
     1
102
RTVSPropertyOp5
 70
     1
102
RTVSPropertyOp6
 70
     1
102
RTVSPropertyOp7
 70
     1
102
RTVSPropertyOp8
 70
     1
102
RTVSPropertyOp9
 70
     1
102
RTVSPropertyOp10
 70
     1
102
RTVSPropertyOp11
 70
     1
102
RTVSPropertyOp12
 70
     1
102
RTVSPropertyOp13
 70
     1
102
RTVSPropertyOp14
 70
     1
102
RTVSPropertyOp15
 70
     1
102
RTVSPropertyOp16
 70
     1
102
RTVSPropertyOp17
 70
     1
102
RTVSPropertyOp18
 70
     1
102
RTVSPropertyOp19
 70
     1
102
RTVSPropertyOp20
 70
     1
102
RTVSPropertyOp21
 70
     1
102
RTVSPropertyOp22
 70
     1
102
RTVSPropertyOp23
 70
     1
102
RTVSPropertyOp24
 70
     1
102
RTVSPropertyOp25
 70
     1
102
RTVSPropertyOp26
 70
     1
102
RTVSPropertyOp27
 70
     1
102
RTVSPropertyOp28
 70
     1
102
RTVSPropertyOp29
 70
     1
102
RTVSPropertyOp30
 70
     1
102
RTVSPropertyOp31
 70
     1
102
RTVSPropertyOp32
 70
     1
  0
XRECORD
  5
A5
102
{ACAD_REACTORS
330
A4
102
}
330
A4
100
AcDbXrecord
280
     1
102
RTVSPropertyOp0
 70
     1
102
RTVSPropertyOp1
 70
     1
102
RTVSPropertyOp2
 70
     1
102
RTVSPropertyOp3
 70
     1
102
RTVSPropertyOp4
 70
     1
102
RTVSPropertyOp5
 70
     1
102
RTVSPropertyOp6
 70
     1
102
RTVSPropertyOp7
 70
     1
102
RTVSPropertyOp8
 70
     1
102
RTVSPropertyOp9
 70
     1
102
RTVSPropertyOp10
 70
     1
102
RTVSPropertyOp11
 70
     1
102
RTVSPropertyOp12
 70
     1
102
RTVSPropertyOp13
 70
     1
102
RTVSPropertyOp14
 70
     1
102
RTVSPropertyOp15
 70
     1
102
RTVSPropertyOp16
 70
     1
102
RTVSPropertyOp17
 70
     1
102
RTVSPropertyOp18
 70
     1
102
RTVSPropertyOp19
 70
     1
102
RTVSPropertyOp20
 70
     1
102
RTVSPropertyOp21
 70
     1
102
RTVSPropertyOp22
 70
     1
102
RTVSPropertyOp23
 70
     1
102
RTVSPropertyOp24
 70
     1
102
RTVSPropertyOp25
 70
     1
102
RTVSPropertyOp26
 70
     1
102
RTVSPropertyOp27
 70
     1
102
RTVSPropertyOp28
 70
     1
102
RTVSPropertyOp29
 70
     1
102
RTVSPropertyOp30
 70
     1
102
RTVSPropertyOp31
 70
     1
102
RTVSPropertyOp32
 70
     1
  0
XRECORD
  5
A7
102
{ACAD_REACTORS
330
A6
102
}
330
A6
100
AcDbXrecord
280
     1
102
RTVSPropertyOp0
 70
     1
102
RTVSPropertyOp1
 70
     1
102
RTVSPropertyOp2
 70
     1
102
RTVSPropertyOp3
 70
     1
102
RTVSPropertyOp4
 70
     1
102
RTVSPropertyOp5
 70
     1
102
RTVSPropertyOp6
 70
     1
102
RTVSPropertyOp7
 70
     1
102
RTVSPropertyOp8
 70
     1
102
RTVSPropertyOp9
 70
     1
102
RTVSPropertyOp10
 70
     1
102
RTVSPropertyOp11
 70
     1
102
RTVSPropertyOp12
 70
     1
102
RTVSPropertyOp13
 70
     1
102
RTVSPropertyOp14
 70
     1
102
RTVSPropertyOp15
 70
     1
102
RTVSPropertyOp16
 70
     1
102
RTVSPropertyOp17
 70
     1
102
RTVSPropertyOp18
 70
     1
102
RTVSPropertyOp19
 70
     1
102
RTVSPropertyOp20
 70
     1
102
RTVSPropertyOp21
 70
     1
102
RTVSPropertyOp22
 70
     1
102
RTVSPropertyOp23
 70
     1
102
RTVSPropertyOp24
 70
     1
102
RTVSPropertyOp25
 70
     1
102
RTVSPropertyOp26
 70
     1
102
RTVSPropertyOp27
 70
     1
102
RTVSPropertyOp28
 70
     1
102
RTVSPropertyOp29
 70
     1
102
RTVSPropertyOp30
 70
     1
102
RTVSPropertyOp31
 70
     1
102
RTVSPropertyOp32
 70
     1
  0
XRECORD
  5
A9
102
{ACAD_REACTORS
330
A8
102
}
330
A8
100
AcDbXrecord
280
     1
102
RTVSPropertyOp0
 70
     1
102
RTVSPropertyOp1
 70
     1
102
RTVSPropertyOp2
 70
     1
102
RTVSPropertyOp3
 70
     1
102
RTVSPropertyOp4
 70
     1
102
RTVSPropertyOp5
 70
     1
102
RTVSPropertyOp6
 70
     1
102
RTVSPropertyOp7
 70
     1
102
RTVSPropertyOp8
 70
     1
102
RTVSPropertyOp9
 70
     1
102
RTVSPropertyOp10
 70
     1
102
RTVSPropertyOp11
 70
     1
102
RTVSPropertyOp12
 70
     1
102
RTVSPropertyOp13
 70
     1
102
RTVSPropertyOp14
 70
     1
102
RTVSPropertyOp15
 70
     1
102
RTVSPropertyOp16
 70
     1
102
RTVSPropertyOp17
 70
     1
102
RTVSPropertyOp18
 70
     1
102
RTVSPropertyOp19
 70
     1
102
RTVSPropertyOp20
 70
     1
102
RTVSPropertyOp21
 70
     1
102
RTVSPropertyOp22
 70
     1
102
RTVSPropertyOp23
 70
     1
102
RTVSPropertyOp24
 70
     1
102
RTVSPropertyOp25
 70
     1
102
RTVSPropertyOp26
 70
     1
102
RTVSPropertyOp27
 70
     1
102
RTVSPropertyOp28
 70
     1
102
RTVSPropertyOp29
 70
     1
102
RTVSPropertyOp30
 70
     1
102
RTVSPropertyOp31
 70
     1
102
RTVSPropertyOp32
 70
     1
  0
XRECORD
  5
BD
102
{ACAD_REACTORS
330
BC
102
}
330
BC
100
AcDbXrecord
280
     1
102
RTVSPropertyOp0
 70
     1
102
RTVSPropertyOp1
 70
     1
102
RTVSPropertyOp2
 70
     1
102
RTVSPropertyOp3
 70
     1
102
RTVSPropertyOp4
 70
     1
102
RTVSPropertyOp5
 70
     1
102
RTVSPropertyOp6
 70
     1
102
RTVSPropertyOp7
 70
     1
102
RTVSPropertyOp8
 70
     1
102
RTVSPropertyOp9
 70
     1
102
RTVSPropertyOp10
 70
     1
102
RTVSPropertyOp11
 70
     1
102
RTVSPropertyOp12
 70
     1
102
RTVSPropertyOp13
 70
     1
102
RTVSPropertyOp14
 70
     1
102
RTVSPropertyOp15
 70
     1
102
RTVSPropertyOp16
 70
     1
102
RTVSPropertyOp17
 70
     1
102
RTVSPropertyOp18
 70
     1
102
RTVSPropertyOp19
 70
     1
102
RTVSPropertyOp20
 70
     1
102
RTVSPropertyOp21
 70
     1
102
RTVSPropertyOp22
 70
     1
102
RTVSPropertyOp23
 70
     1
102
RTVSPropertyOp24
 70
     1
102
RTVSPropertyOp25
 70
     1
102
RTVSPropertyOp26
 70
     1
102
RTVSPropertyOp27
 70
     1
102
RTVSPropertyOp28
 70
     1
102
RTVSPropertyOp29
 70
     1
102
RTVSPropertyOp30
 70
     1
102
RTVSPropertyOp31
 70
     1
102
RTVSPropertyOp32
 70
     1
  0
XRECORD
  5
B3
102
{ACAD_REACTORS
330
B2
102
}
330
B2
100
AcDbXrecord
280
     1
102
RTVSPropertyOp0
 70
     1
102
RTVSPropertyOp1
 70
     1
102
RTVSPropertyOp2
 70
     1
102
RTVSPropertyOp3
 70
     1
102
RTVSPropertyOp4
 70
     1
102
RTVSPropertyOp5
 70
     1
102
RTVSPropertyOp6
 70
     1
102
RTVSPropertyOp7
 70
     1
102
RTVSPropertyOp8
 70
     1
102
RTVSPropertyOp9
 70
     1
102
RTVSPropertyOp10
 70
     1
102
RTVSPropertyOp11
 70
     1
102
RTVSPropertyOp12
 70
     1
102
RTVSPropertyOp13
 70
     1
102
RTVSPropertyOp14
 70
     1
102
RTVSPropertyOp15
 70
     1
102
RTVSPropertyOp16
 70
     1
102
RTVSPropertyOp17
 70
     1
102
RTVSPropertyOp18
 70
     1
102
RTVSPropertyOp19
 70
     1
102
RTVSPropertyOp20
 70
     1
102
RTVSPropertyOp21
 70
     1
102
RTVSPropertyOp22
 70
     1
102
RTVSPropertyOp23
 70
     1
102
RTVSPropertyOp24
 70
     1
102
RTVSPropertyOp25
 70
     1
102
RTVSPropertyOp26
 70
     1
102
RTVSPropertyOp27
 70
     1
102
RTVSPropertyOp28
 70
     1
102
RTVSPropertyOp29
 70
     1
102
RTVSPropertyOp30
 70
     1
102
RTVSPropertyOp31
 70
     1
102
RTVSPropertyOp32
 70
     1
  0
XRECORD
  5
BB
102
{ACAD_REACTORS
330
BA
102
}
330
BA
100
AcDbXrecord
280
     1
102
RTVSPropertyOp0
 70
     1
102
RTVSPropertyOp1
 70
     1
102
RTVSPropertyOp2
 70
     1
102
RTVSPropertyOp3
 70
     1
102
RTVSPropertyOp4
 70
     1
102
RTVSPropertyOp5
 70
     1
102
RTVSPropertyOp6
 70
     1
102
RTVSPropertyOp7
 70
     1
102
RTVSPropertyOp8
 70
     1
102
RTVSPropertyOp9
 70
     1
102
RTVSPropertyOp10
 70
     1
102
RTVSPropertyOp11
 70
     1
102
RTVSPropertyOp12
 70
     1
102
RTVSPropertyOp13
 70
     1
102
RTVSPropertyOp14
 70
     1
102
RTVSPropertyOp15
 70
     1
102
RTVSPropertyOp16
 70
     1
102
RTVSPropertyOp17
 70
     1
102
RTVSPropertyOp18
 70
     1
102
RTVSPropertyOp19
 70
     1
102
RTVSPropertyOp20
 70
     1
102
RTVSPropertyOp21
 70
     1
102
RTVSPropertyOp22
 70
     1
102
RTVSPropertyOp23
 70
     1
102
RTVSPropertyOp24
 70
     1
102
RTVSPropertyOp25
 70
     1
102
RTVSPropertyOp26
 70
     1
102
RTVSPropertyOp27
 70
     1
102
RTVSPropertyOp28
 70
     1
102
RTVSPropertyOp29
 70
     1
102
RTVSPropertyOp30
 70
     1
102
RTVSPropertyOp31
 70
     1
102
RTVSPropertyOp32
 70
     1
  0
ENDSEC
  0
EOF
