  0
SECTION
  2
HEADER
  9
$ACADVER
  1
AC1021
  9
$ACADMAINTVER
 70
    25
  9
$DWGCODEPAGE
  3
ANSI_1256
  9
$INSBASE
 10
0.0
 20
0.0
 30
0.0
  9
$EXTMIN
 10
-187.2943
 20
-114.8654
 30
0.0
  9
$EXTMAX
 10
-29.9978
 20
131.7785
 30
0.0
  9
$LIMMIN
 10
0.0
 20
0.0
  9
$LIMMAX
 10
12.0
 20
9.0
  9
$ORTHOMODE
 70
     0
  9
$REGENMODE
 70
     1
  9
$FILLMODE
 70
     1
  9
$QTEXTMODE
 70
     0
  9
$MIRRTEXT
 70
     1
  9
$LTSCALE
 40
1.0
  9
$ATTMODE
 70
     1
  9
$TEXTSIZE
 40
0.2
  9
$TRACEWID
 40
0.05
  9
$TEXTSTYLE
  7
Standard
  9
$CLAYER
  8
0
  9
$CELTYPE
  6
ByLayer
  9
$CECOLOR
 62
   256
  9
$CELTSCALE
 40
1.0
  9
$DISPSILH
 70
     0
  9
$DIMSCALE
 40
1.0
  9
$DIMASZ
 40
0.18
  9
$DIMEXO
 40
0.0625
  9
$DIMDLI
 40
0.38
  9
$DIMRND
 40
0.0
  9
$DIMDLE
 40
0.0
  9
$DIMEXE
 40
0.18
  9
$DIMTP
 40
0.0
  9
$DIMTM
 40
0.0
  9
$DIMTXT
 40
0.18
  9
$DIMCEN
 40
0.09
  9
$DIMTSZ
 40
0.0
  9
$DIMTOL
 70
     0
  9
$DIMLIM
 70
     0
  9
$DIMTIH
 70
     1
  9
$DIMTOH
 70
     1
  9
$DIMSE1
 70
     0
  9
$DIMSE2
 70
     0
  9
$DIMTAD
 70
     0
  9
$DIMZIN
 70
     0
  9
$DIMBLK
  1

  9
$DIMASO
 70
     1
  9
$DIMSHO
 70
     1
  9
$DIMPOST
  1

  9
$DIMAPOST
  1

  9
$DIMALT
 70
     0
  9
$DIMALTD
 70
     2
  9
$DIMALTF
 40
25.4
  9
$DIMLFAC
 40
1.0
  9
$DIMTOFL
 70
     0
  9
$DIMTVP
 40
0.0
  9
$DIMTIX
 70
     0
  9
$DIMSOXD
 70
     0
  9
$DIMSAH
 70
     0
  9
$DIMBLK1
  1

  9
$DIMBLK2
  1

  9
$DIMSTYLE
  2
Standard
  9
$DIMCLRD
 70
     0
  9
$DIMCLRE
 70
     0
  9
$DIMCLRT
 70
     0
  9
$DIMTFAC
 40
1.0
  9
$DIMGAP
 40
0.09
  9
$DIMJUST
 70
     0
  9
$DIMSD1
 70
     0
  9
$DIMSD2
 70
     0
  9
$DIMTOLJ
 70
     1
  9
$DIMTZIN
 70
     0
  9
$DIMALTZ
 70
     0
  9
$DIMALTTZ
 70
     0
  9
$DIMUPT
 70
     0
  9
$DIMDEC
 70
     4
  9
$DIMTDEC
 70
     4
  9
$DIMALTU
 70
     2
  9
$DIMALTTD
 70
     2
  9
$DIMTXSTY
  7
Standard
  9
$DIMAUNIT
 70
     0
  9
$DIMADEC
 70
     0
  9
$DIMALTRND
 40
0.0
  9
$DIMAZIN
 70
     0
  9
$DIMDSEP
 70
    46
  9
$DIMATFIT
 70
     3
  9
$DIMFRAC
 70
     0
  9
$DIMLDRBLK
  1

  9
$DIMLUNIT
 70
     2
  9
$DIMLWD
 70
    -2
  9
$DIMLWE
 70
    -2
  9
$DIMTMOVE
 70
     0
  9
$DIMFXL
 40
1.0
  9
$DIMFXLON
 70
     0
  9
$DIMJOGANG
 40
0.7853981633974483
  9
$DIMTFILL
 70
     0
  9
$DIMTFILLCLR
 70
     0
  9
$DIMARCSYM
 70
     0
  9
$DIMLTYPE
  6

  9
$DIMLTEX1
  6

  9
$DIMLTEX2
  6

  9
$LUNITS
 70
     2
  9
$LUPREC
 70
     4
  9
$SKETCHINC
 40
0.1
  9
$FILLETRAD
 40
0.5
  9
$AUNITS
 70
     0
  9
$AUPREC
 70
     0
  9
$MENU
  1
.
  9
$ELEVATION
 40
0.0
  9
$PELEVATION
 40
0.0
  9
$THICKNESS
 40
0.0
  9
$LIMCHECK
 70
     0
  9
$CHAMFERA
 40
0.5
  9
$CHAMFERB
 40
0.5
  9
$CHAMFERC
 40
1.0
  9
$CHAMFERD
 40
0.0
  9
$SKPOLY
 70
     0
  9
$TDCREATE
 40
2458492.93694647
  9
$TDUCREATE
 40
2458492.770279803
  9
$TDUPDATE
 40
2458492.93694669
  9
$TDUUPDATE
 40
2458492.770280023
  9
$TDINDWG
 40
0.0000000116
  9
$TDUSRTIMER
 40
0.0000000116
  9
$USRTIMER
 70
     1
  9
$ANGBASE
 50
0.0
  9
$ANGDIR
 70
     0
  9
$PDMODE
 70
     0
  9
$PDSIZE
 40
0.0
  9
$PLINEWID
 40
0.0
  9
$SPLFRAME
 70
     0
  9
$SPLINETYPE
 70
     6
  9
$SPLINESEGS
 70
     8
  9
$HANDSEED
  5
EB
  9
$SURFTAB1
 70
     6
  9
$SURFTAB2
 70
     6
  9
$SURFTYPE
 70
     6
  9
$SURFU
 70
     6
  9
$SURFV
 70
     6
  9
$UCSBASE
  2

  9
$UCSNAME
  2

  9
$UCSORG
 10
0.0
 20
0.0
 30
0.0
  9
$UCSXDIR
 10
1.0
 20
0.0
 30
0.0
  9
$UCSYDIR
 10
0.0
 20
1.0
 30
0.0
  9
$UCSORTHOREF
  2

  9
$UCSORTHOVIEW
 70
     0
  9
$UCSORGTOP
 10
0.0
 20
0.0
 30
0.0
  9
$UCSORGBOTTOM
 10
0.0
 20
0.0
 30
0.0
  9
$UCSORGLEFT
 10
0.0
 20
0.0
 30
0.0
  9
$UCSORGRIGHT
 10
0.0
 20
0.0
 30
0.0
  9
$UCSORGFRONT
 10
0.0
 20
0.0
 30
0.0
  9
$UCSORGBACK
 10
0.0
 20
0.0
 30
0.0
  9
$PUCSBASE
  2

  9
$PUCSNAME
  2

  9
$PUCSORG
 10
0.0
 20
0.0
 30
0.0
  9
$PUCSXDIR
 10
1.0
 20
0.0
 30
0.0
  9
$PUCSYDIR
 10
0.0
 20
1.0
 30
0.0
  9
$PUCSORTHOREF
  2

  9
$PUCSORTHOVIEW
 70
     0
  9
$PUCSORGTOP
 10
0.0
 20
0.0
 30
0.0
  9
$PUCSORGBOTTOM
 10
0.0
 20
0.0
 30
0.0
  9
$PUCSORGLEFT
 10
0.0
 20
0.0
 30
0.0
  9
$PUCSORGRIGHT
 10
0.0
 20
0.0
 30
0.0
  9
$PUCSORGFRONT
 10
0.0
 20
0.0
 30
0.0
  9
$PUCSORGBACK
 10
0.0
 20
0.0
 30
0.0
  9
$USERI1
 70
     0
  9
$USERI2
 70
     0
  9
$USERI3
 70
     0
  9
$USERI4
 70
     0
  9
$USERI5
 70
     0
  9
$USERR1
 40
0.0
  9
$USERR2
 40
0.0
  9
$USERR3
 40
0.0
  9
$USERR4
 40
0.0
  9
$USERR5
 40
0.0
  9
$WORLDVIEW
 70
     1
  9
$SHADEDGE
 70
     3
  9
$SHADEDIF
 70
    70
  9
$TILEMODE
 70
     1
  9
$MAXACTVP
 70
    64
  9
$PINSBASE
 10
0.0
 20
0.0
 30
0.0
  9
$PLIMCHECK
 70
     0
  9
$PEXTMIN
 10
1.000000000000000E+20
 20
1.000000000000000E+20
 30
1.000000000000000E+20
  9
$PEXTMAX
 10
-1.000000000000000E+20
 20
-1.000000000000000E+20
 30
-1.000000000000000E+20
  9
$PLIMMIN
 10
0.0
 20
0.0
  9
$PLIMMAX
 10
12.0
 20
9.0
  9
$UNITMODE
 70
     0
  9
$VISRETAIN
 70
     1
  9
$PLINEGEN
 70
     0
  9
$PSLTSCALE
 70
     1
  9
$TREEDEPTH
 70
  3020
  9
$CMLSTYLE
  2
Standard
  9
$CMLJUST
 70
     0
  9
$CMLSCALE
 40
1.0
  9
$PROXYGRAPHICS
 70
     1
  9
$MEASUREMENT
 70
     0
  9
$CELWEIGHT
370
    -1
  9
$ENDCAPS
280
     0
  9
$JOINSTYLE
280
     0
  9
$LWDISPLAY
290
     0
  9
$INSUNITS
 70
     4
  9
$HYPERLINKBASE
  1

  9
$STYLESHEET
  1

  9
$XEDIT
290
     1
  9
$CEPSNTYPE
380
     0
  9
$PSTYLEMODE
290
     1
  9
$FINGERPRINTGUID
  2
{55DD7E0F-1B9B-4C36-9A86-ECDAE1A5A9B7}
  9
$VERSIONGUID
  2
{FAEB1C32-E019-11D5-929B-00C0DF256EC4}
  9
$EXTNAMES
290
     1
  9
$PSVPSCALE
 40
0.0
  9
$OLESTARTUP
290
     0
  9
$SORTENTS
280
   127
  9
$INDEXCTL
280
     0
  9
$HIDETEXT
280
     1
  9
$XCLIPFRAME
290
     0
  9
$HALOGAP
280
     0
  9
$OBSCOLOR
 70
   257
  9
$OBSLTYPE
280
     0
  9
$INTERSECTIONDISPLAY
280
     0
  9
$INTERSECTIONCOLOR
 70
   257
  9
$DIMASSOC
280
     2
  9
$PROJECTNAME
  1

  9
$CAMERADISPLAY
290
     0
  9
$LENSLENGTH
 40
50.0
  9
$CAMERAHEIGHT
 40
0.0
  9
$STEPSPERSEC
 40
2.0
  9
$STEPSIZE
 40
6.0
  9
$3DDWFPREC
 40
2.0
  9
$PSOLWIDTH
 40
0.25
  9
$PSOLHEIGHT
 40
4.0
  9
$LOFTANG1
 40
1.570796326794897
  9
$LOFTANG2
 40
1.570796326794897
  9
$LOFTMAG1
 40
0.0
  9
$LOFTMAG2
 40
0.0
  9
$LOFTPARAM
 70
     7
  9
$LOFTNORMALS
280
     1
  9
$LATITUDE
 40
37.795
  9
$LONGITUDE
 40
-122.394
  9
$NORTHDIRECTION
 40
0.0
  9
$TIMEZONE
 70
 -8000
  9
$LIGHTGLYPHDISPLAY
280
     1
  9
$TILEMODELIGHTSYNCH
280
     1
  9
$SOLIDHIST
280
     1
  9
$SHOWHIST
280
     1
  9
$DWFFRAME
280
     2
  9
$DGNFRAME
280
     2
  9
$REALWORLDSCALE
290
     1
  9
$INTERFERECOLOR
 62
   256
  9
$CSHADOW
280
     0
  9
$SHADOWPLANELOCATION
 40
0.0
  0
ENDSEC
  0
SECTION
  2
CLASSES
  0
CLASS
  1
ACDBDICTIONARYWDFLT
  2
AcDbDictionaryWithDefault
  3
ObjectDBX Classes
 90
        0
 91
        4
280
     0
281
     0
  0
CLASS
  1
VISUALSTYLE
  2
AcDbVisualStyle
  3
ObjectDBX Classes
 90
     4095
 91
        4
280
     0
281
     0
  0
CLASS
  1
MATERIAL
  2
AcDbMaterial
  3
ObjectDBX Classes
 90
     1153
 91
        4
280
     0
281
     0
  0
ENDSEC
  0
SECTION
  2
TABLES
  0
TABLE
  2
VPORT
  5
8
330
0
100
AcDbSymbolTable
 70
     1
  0
VPORT
  5
29
330
8
100
AcDbSymbolTableRecord
100
AcDbViewportTableRecord
  2
*Active
 70
     0
 10
0.0
 20
0.0
 11
1.0
 21
1.0
 12
10.42990654205607
 22
4.5
 13
0.0
 23
0.0
 14
0.5
 24
0.5
 15
0.5
 25
0.5
 16
0.0
 26
0.0
 36
1.0
 17
0.0
 27
0.0
 37
0.0
 40
9.0
 41
1.972972972850329
 42
50.0
 43
0.0
 44
0.0
 50
0.0
 51
0.0
 71
     0
 72
   100
 73
     1
 74
     3
 75
     0
 76
     0
 77
     0
 78
     0
281
     0
 65
     1
110
0.0
120
0.0
130
0.0
111
1.0
121
0.0
131
0.0
112
0.0
122
1.0
132
0.0
 79
     0
146
0.0
 60
     3
 61
     5
292
     1
282
     1
141
0.0
142
0.0
 63
   250
  0
ENDTAB
  0
TABLE
  2
LTYPE
  5
5
330
0
100
AcDbSymbolTable
 70
     1
  0
LTYPE
  5
14
330
5
100
AcDbSymbolTableRecord
100
AcDbLinetypeTableRecord
  2
ByBlock
 70
     0
  3

 72
    65
 73
     0
 40
0.0
  0
LTYPE
  5
15
330
5
100
AcDbSymbolTableRecord
100
AcDbLinetypeTableRecord
  2
ByLayer
 70
     0
  3

 72
    65
 73
     0
 40
0.0
  0
LTYPE
  5
16
330
5
100
AcDbSymbolTableRecord
100
AcDbLinetypeTableRecord
  2
Continuous
 70
     0
  3
Solid line
 72
    65
 73
     0
 40
0.0
  0
ENDTAB
  0
TABLE
  2
LAYER
  5
2
330
0
100
AcDbSymbolTable
 70
     2
  0
LAYER
  5
10
330
2
100
AcDbSymbolTableRecord
100
AcDbLayerTableRecord
  2
0
 70
     0
 62
     7
  6
Continuous
370
    -3
390
F
347
3E
  0
LAYER
  5
40
330
2
100
AcDbSymbolTableRecord
100
AcDbLayerTableRecord
  2
layer 1
 70
     0
 62
     7
  6
Continuous
370
    -3
390
F
347
3E
  0
ENDTAB
  0
TABLE
  2
STYLE
  5
3
330
0
100
AcDbSymbolTable
 70
     1
  0
STYLE
  5
11
330
3
100
AcDbSymbolTableRecord
100
AcDbTextStyleTableRecord
  2
Standard
 70
     0
 40
0.0
 41
1.0
 50
0.0
 71
     0
 42
0.2
  3
txt
  4

  0
ENDTAB
  0
TABLE
  2
VIEW
  5
6
330
0
100
AcDbSymbolTable
 70
     0
  0
ENDTAB
  0
TABLE
  2
UCS
  5
7
330
0
100
AcDbSymbolTable
 70
     0
  0
ENDTAB
  0
TABLE
  2
APPID
  5
9
330
0
100
AcDbSymbolTable
 70
     2
  0
APPID
  5
12
330
9
100
AcDbSymbolTableRecord
100
AcDbRegAppTableRecord
  2
ACAD
 70
     0
  0
APPID
  5
3F
330
9
100
AcDbSymbolTableRecord
100
AcDbRegAppTableRecord
  2
ODA
 70
     0
  0
ENDTAB
  0
TABLE
  2
DIMSTYLE
  5
A
330
0
100
AcDbSymbolTable
 70
     1
100
AcDbDimStyleTable
  0
DIMSTYLE
105
27
330
A
100
AcDbSymbolTableRecord
100
AcDbDimStyleTableRecord
  2
Standard
 70
     0
178
     0
340
11
  0
ENDTAB
  0
TABLE
  2
BLOCK_RECORD
  5
1
330
0
100
AcDbSymbolTable
 70
     1
  0
BLOCK_RECORD
  5
1F
330
1
100
AcDbSymbolTableRecord
100
AcDbBlockTableRecord
  2
*Model_Space
340
22
 70
     0
280
     1
281
     0
  0
BLOCK_RECORD
  5
1B
330
1
100
AcDbSymbolTableRecord
100
AcDbBlockTableRecord
  2
*Paper_Space
340
1E
 70
     0
280
     1
281
     0
  0
BLOCK_RECORD
  5
23
330
1
100
AcDbSymbolTableRecord
100
AcDbBlockTableRecord
  2
*Paper_Space0
340
26
 70
     0
280
     1
281
     0
  0
ENDTAB
  0
ENDSEC
  0
SECTION
  2
BLOCKS
  0
BLOCK
  5
20
330
1F
100
AcDbEntity
  8
0
100
AcDbBlockBegin
  2
*Model_Space
 70
     0
 10
0.0
 20
0.0
 30
0.0
  3
*Model_Space
  1

  0
ENDBLK
  5
21
330
1F
100
AcDbEntity
  8
0
100
AcDbBlockEnd
  0
BLOCK
  5
1C
330
1B
100
AcDbEntity
 67
     1
  8
0
100
AcDbBlockBegin
  2
*Paper_Space
 70
     0
 10
0.0
 20
0.0
 30
0.0
  3
*Paper_Space
  1

  0
ENDBLK
  5
1D
330
1B
100
AcDbEntity
 67
     1
  8
0
100
AcDbBlockEnd
  0
BLOCK
  5
24
330
23
100
AcDbEntity
  8
0
100
AcDbBlockBegin
  2
*Paper_Space0
 70
     0
 10
0.0
 20
0.0
 30
0.0
  3
*Paper_Space0
  1

  0
ENDBLK
  5
25
330
23
100
AcDbEntity
  8
0
100
AcDbBlockEnd
  0
ENDSEC
  0
SECTION
  2
ENTITIES
  0
SPLINE
  5
41
330
1F
100
AcDbEntity
  8
layer 1
100
AcDbSpline
210
0.0
220
0.0
230
1.0
 70
    11
 71
     3
 72
    20
 73
    16
 74
     0
 42
0.0000000001
 43
0.0000000001
 12
1.0
 22
0.0
 32
0.0
 13
1.0
 23
0.0
 33
0.0
 40
0.0
 40
0.0
 40
0.0
 40
0.0
 40
0.2
 40
0.2
 40
0.2
 40
0.2
 40
0.4
 40
0.4
 40
0.4
 40
0.4
 40
0.6
 40
0.6
 40
0.6
 40
0.6
 40
1.0
 40
1.0
 40
1.0
 40
1.0
 10
-187.2943
 20
131.7785
 30
0.0
 10
-187.2943
 20
131.7785
 30
0.0
 10
-29.9978
 20
131.7785
 30
0.0
 10
-29.9978
 20
131.7785
 30
0.0
 10
-29.9978
 20
131.7785
 30
0.0
 10
-29.9978
 20
131.7785
 30
0.0
 10
-29.9978
 20
-114.8654
 30
0.0
 10
-29.9978
 20
-114.8654
 30
0.0
 10
-29.9978
 20
-114.8654
 30
0.0
 10
-29.9978
 20
-114.8654
 30
0.0
 10
-187.2943
 20
-114.8654
 30
0.0
 10
-187.2943
 20
-114.8654
 30
0.0
 10
-187.2943
 20
-114.8654
 30
0.0
 10
-187.2943
 20
-114.8654
 30
0.0
 10
-187.2943
 20
131.7785
 30
0.0
 10
-187.2943
 20
131.7785
 30
0.0
  0
SPLINE
  5
42
330
1F
100
AcDbEntity
  8
layer 1
 62
     7
100
AcDbSpline
210
0.0
220
0.0
230
1.0
 70
    11
 71
     3
 72
    68
 73
    64
 74
     0
 42
0.0000000001
 43
0.0000000001
 12
1.0
 22
0.0
 32
0.0
 13
1.0
 23
0.0
 33
0.0
 40
0.0
 40
0.0
 40
0.0
 40
0.0
 40
0.0588235294117647
 40
0.0588235294117647
 40
0.0588235294117647
 40
0.0588235294117647
 40
0.1176470588235294
 40
0.1176470588235294
 40
0.1176470588235294
 40
0.1176470588235294
 40
0.1764705882352941
 40
0.1764705882352941
 40
0.1764705882352941
 40
0.1764705882352941
 40
0.2352941176470588
 40
0.2352941176470588
 40
0.2352941176470588
 40
0.2352941176470588
 40
0.2941176470588235
 40
0.2941176470588235
 40
0.2941176470588235
 40
0.2941176470588235
 40
0.3529411764705883
 40
0.3529411764705883
 40
0.3529411764705883
 40
0.3529411764705883
 40
0.4117647058823529
 40
0.4117647058823529
 40
0.4117647058823529
 40
0.4117647058823529
 40
0.4705882352941176
 40
0.4705882352941176
 40
0.4705882352941176
 40
0.4705882352941176
 40
0.5294117647058824
 40
0.5294117647058824
 40
0.5294117647058824
 40
0.5294117647058824
 40
0.5882352941176471
 40
0.5882352941176471
 40
0.5882352941176471
 40
0.5882352941176471
 40
0.6470588235294118
 40
0.6470588235294118
 40
0.6470588235294118
 40
0.6470588235294118
 40
0.7058823529411765
 40
0.7058823529411765
 40
0.7058823529411765
 40
0.7058823529411765
 40
0.7647058823529411
 40
0.7647058823529411
 40
0.7647058823529411
 40
0.7647058823529411
 40
0.8235294117647058
 40
0.8235294117647058
 40
0.8235294117647058
 40
0.8235294117647058
 40
0.8823529411764706
 40
0.8823529411764706
 40
0.8823529411764706
 40
0.8823529411764706
 40
1.0
 40
1.0
 40
1.0
 40
1.0
 10
-169.4385
 20
112.8717
 30
0.0
 10
-170.7244
 20
107.7677
 30
0.0
 10
-169.7548
 20
103.847
 30
0.0
 10
-180.2435
 20
104.078
 30
0.0
 10
-180.2435
 20
104.078
 30
0.0
 10
-180.1425
 20
111.2364
 30
0.0
 10
-180.2902
 20
113.5251
 30
0.0
 10
-172.2816
 20
114.8783
 30
0.0
 10
-172.2816
 20
114.8783
 30
0.0
 10
-172.0759
 20
114.9131
 30
0.0
 10
-171.5076
 20
115.1223
 30
0.0
 10
-171.6102
 20
115.2764
 30
0.0
 10
-171.6102
 20
115.2764
 30
0.0
 10
-171.5076
 20
115.4305
 30
0.0
 10
-172.0759
 20
115.6396
 30
0.0
 10
-172.2816
 20
115.6744
 30
0.0
 10
-172.2816
 20
115.6744
 30
0.0
 10
-180.2902
 20
117.0277
 30
0.0
 10
-180.1425
 20
119.3164
 30
0.0
 10
-180.2435
 20
126.4748
 30
0.0
 10
-180.2435
 20
126.4748
 30
0.0
 10
-169.7548
 20
126.7057
 30
0.0
 10
-170.7244
 20
122.785
 30
0.0
 10
-169.4385
 20
117.6811
 30
0.0
 10
-169.4385
 20
117.6811
 30
0.0
 10
-169.3773
 20
117.3892
 30
0.0
 10
-169.2025
 20
117.4163
 30
0.0
 10
-169.2025
 20
117.4163
 30
0.0
 10
-169.2025
 20
117.4163
 30
0.0
 10
-169.2025
 20
117.4163
 30
0.0
 10
-169.0277
 20
117.3892
 30
0.0
 10
-168.9665
 20
117.6811
 30
0.0
 10
-168.9665
 20
117.6811
 30
0.0
 10
-167.6806
 20
122.7851
 30
0.0
 10
-168.6502
 20
126.7057
 30
0.0
 10
-158.1616
 20
126.4748
 30
0.0
 10
-158.1616
 20
126.4748
 30
0.0
 10
-158.2625
 20
119.3164
 30
0.0
 10
-158.1148
 20
117.0277
 30
0.0
 10
-166.1235
 20
115.6744
 30
0.0
 10
-166.1235
 20
115.6744
 30
0.0
 10
-166.3292
 20
115.6396
 30
0.0
 10
-166.8975
 20
115.4305
 30
0.0
 10
-166.7949
 20
115.2764
 30
0.0
 10
-166.7949
 20
115.2764
 30
0.0
 10
-166.8975
 20
115.1223
 30
0.0
 10
-166.3292
 20
114.9131
 30
0.0
 10
-166.1235
 20
114.8783
 30
0.0
 10
-166.1235
 20
114.8783
 30
0.0
 10
-158.1148
 20
113.5251
 30
0.0
 10
-158.2625
 20
111.2363
 30
0.0
 10
-158.1616
 20
104.078
 30
0.0
 10
-158.1616
 20
104.078
 30
0.0
 10
-168.6502
 20
103.847
 30
0.0
 10
-167.6806
 20
107.7678
 30
0.0
 10
-168.9665
 20
112.8717
 30
0.0
 10
-168.9665
 20
112.8717
 30
0.0
 10
-169.0277
 20
113.1636
 30
0.0
 10
-169.2025
 20
113.1364
 30
0.0
 10
-169.2025
 20
113.1364
 30
0.0
 10
-169.2025
 20
113.1364
 30
0.0
 10
-169.2025
 20
113.1364
 30
0.0
 10
-169.3773
 20
113.1636
 30
0.0
 10
-169.4385
 20
112.8717
 30
0.0
  0
SPLINE
  5
43
330
1F
100
AcDbEntity
  8
layer 1
 62
     7
100
AcDbSpline
210
0.0
220
0.0
230
1.0
 70
    11
 71
     3
 72
    28
 73
    24
 74
     0
 42
0.0000000001
 43
0.0000000001
 12
1.0
 22
0.0
 32
0.0
 13
1.0
 23
0.0
 33
0.0
 40
0.0
 40
0.0
 40
0.0
 40
0.0
 40
0.1428571428571428
 40
0.1428571428571428
 40
0.1428571428571428
 40
0.1428571428571428
 40
0.2857142857142857
 40
0.2857142857142857
 40
0.2857142857142857
 40
0.2857142857142857
 40
0.4285714285714285
 40
0.4285714285714285
 40
0.4285714285714285
 40
0.4285714285714285
 40
0.5714285714285714
 40
0.5714285714285714
 40
0.5714285714285714
 40
0.5714285714285714
 40
0.7142857142857143
 40
0.7142857142857143
 40
0.7142857142857143
 40
0.7142857142857143
 40
1.0
 40
1.0
 40
1.0
 40
1.0
 10
-158.3774
 20
99.3951
 30
0.0
 10
-166.6959
 20
99.8144
 30
0.0
 10
-169.2599
 20
95.571
 30
0.0
 10
-169.2845
 20
93.521
 30
0.0
 10
-169.2845
 20
93.521
 30
0.0
 10
-169.3091
 20
95.571
 30
0.0
 10
-171.8731
 20
99.8144
 30
0.0
 10
-180.1917
 20
99.3951
 30
0.0
 10
-180.1917
 20
99.3951
 30
0.0
 10
-180.1917
 20
99.3951
 30
0.0
 10
-180.1917
 20
101.0916
 30
0.0
 10
-180.1917
 20
101.0916
 30
0.0
 10
-180.1917
 20
101.0916
 30
0.0
 10
-171.8731
 20
100.6723
 30
0.0
 10
-169.3091
 20
104.9157
 30
0.0
 10
-169.2845
 20
106.9658
 30
0.0
 10
-169.2845
 20
106.9658
 30
0.0
 10
-169.2599
 20
104.9157
 30
0.0
 10
-166.6959
 20
100.6723
 30
0.0
 10
-158.3774
 20
101.0916
 30
0.0
 10
-158.3774
 20
101.0916
 30
0.0
 10
-158.3774
 20
101.0916
 30
0.0
 10
-158.3774
 20
99.3951
 30
0.0
 10
-158.3774
 20
99.3951
 30
0.0
  0
SPLINE
  5
44
330
1F
100
AcDbEntity
  8
layer 1
 62
     7
100
AcDbSpline
210
0.0
220
0.0
230
1.0
 70
    11
 71
     3
 72
    28
 73
    24
 74
     0
 42
0.0000000001
 43
0.0000000001
 12
1.0
 22
0.0
 32
0.0
 13
1.0
 23
0.0
 33
0.0
 40
0.0
 40
0.0
 40
0.0
 40
0.0
 40
0.1428571428571428
 40
0.1428571428571428
 40
0.1428571428571428
 40
0.1428571428571428
 40
0.2857142857142857
 40
0.2857142857142857
 40
0.2857142857142857
 40
0.2857142857142857
 40
0.4285714285714285
 40
0.4285714285714285
 40
0.4285714285714285
 40
0.4285714285714285
 40
0.5714285714285714
 40
0.5714285714285714
 40
0.5714285714285714
 40
0.5714285714285714
 40
0.7142857142857143
 40
0.7142857142857143
 40
0.7142857142857143
 40
0.7142857142857143
 40
1.0
 40
1.0
 40
1.0
 40
1.0
 10
-154.869
 20
104.4843
 30
0.0
 10
-154.4497
 20
112.8028
 30
0.0
 10
-158.6931
 20
115.3669
 30
0.0
 10
-160.7432
 20
115.3915
 30
0.0
 10
-160.7432
 20
115.3915
 30
0.0
 10
-158.6931
 20
115.4161
 30
0.0
 10
-154.4497
 20
117.9801
 30
0.0
 10
-154.869
 20
126.2986
 30
0.0
 10
-154.869
 20
126.2986
 30
0.0
 10
-154.869
 20
126.2986
 30
0.0
 10
-153.1725
 20
126.2986
 30
0.0
 10
-153.1725
 20
126.2986
 30
0.0
 10
-153.1725
 20
126.2986
 30
0.0
 10
-153.5918
 20
117.9801
 30
0.0
 10
-149.3484
 20
115.4161
 30
0.0
 10
-147.2984
 20
115.3915
 30
0.0
 10
-147.2984
 20
115.3915
 30
0.0
 10
-149.3484
 20
115.3669
 30
0.0
 10
-153.5918
 20
112.8029
 30
0.0
 10
-153.1725
 20
104.4843
 30
0.0
 10
-153.1725
 20
104.4843
 30
0.0
 10
-153.1725
 20
104.4843
 30
0.0
 10
-154.869
 20
104.4843
 30
0.0
 10
-154.869
 20
104.4843
 30
0.0
  0
SPLINE
  5
45
330
1F
100
AcDbEntity
  8
layer 1
 62
     7
100
AcDbSpline
210
0.0
220
0.0
230
1.0
 70
    11
 71
     3
 72
    20
 73
    16
 74
     0
 42
0.0000000001
 43
0.0000000001
 12
1.0
 22
0.0
 32
0.0
 13
1.0
 23
0.0
 33
0.0
 40
0.0
 40
0.0
 40
0.0
 40
0.0
 40
0.2
 40
0.2
 40
0.2
 40
0.2
 40
0.4
 40
0.4
 40
0.4
 40
0.4
 40
0.6
 40
0.6
 40
0.6
 40
0.6
 40
1.0
 40
1.0
 40
1.0
 40
1.0
 10
-156.9451
 20
103.1256
 30
0.0
 10
-156.9451
 20
103.1256
 30
0.0
 10
-151.176
 20
103.1256
 30
0.0
 10
-151.176
 20
103.1256
 30
0.0
 10
-151.176
 20
103.1256
 30
0.0
 10
-151.176
 20
103.1256
 30
0.0
 10
-151.176
 20
97.2951
 30
0.0
 10
-151.176
 20
97.2951
 30
0.0
 10
-151.176
 20
97.2951
 30
0.0
 10
-151.176
 20
97.2951
 30
0.0
 10
-156.9451
 20
97.2951
 30
0.0
 10
-156.9451
 20
97.2951
 30
0.0
 10
-156.9451
 20
97.2951
 30
0.0
 10
-156.9451
 20
97.2951
 30
0.0
 10
-156.9451
 20
103.1256
 30
0.0
 10
-156.9451
 20
103.1256
 30
0.0
  0
SPLINE
  5
46
330
1F
100
AcDbEntity
  8
layer 1
 62
     7
100
AcDbSpline
210
0.0
220
0.0
230
1.0
 70
    11
 71
     3
 72
    68
 73
    64
 74
     0
 42
0.0000000001
 43
0.0000000001
 12
1.0
 22
0.0
 32
0.0
 13
1.0
 23
0.0
 33
0.0
 40
0.0
 40
0.0
 40
0.0
 40
0.0
 40
0.0588235294117647
 40
0.0588235294117647
 40
0.0588235294117647
 40
0.0588235294117647
 40
0.1176470588235294
 40
0.1176470588235294
 40
0.1176470588235294
 40
0.1176470588235294
 40
0.1764705882352941
 40
0.1764705882352941
 40
0.1764705882352941
 40
0.1764705882352941
 40
0.2352941176470588
 40
0.2352941176470588
 40
0.2352941176470588
 40
0.2352941176470588
 40
0.2941176470588235
 40
0.2941176470588235
 40
0.2941176470588235
 40
0.2941176470588235
 40
0.3529411764705883
 40
0.3529411764705883
 40
0.3529411764705883
 40
0.3529411764705883
 40
0.4117647058823529
 40
0.4117647058823529
 40
0.4117647058823529
 40
0.4117647058823529
 40
0.4705882352941176
 40
0.4705882352941176
 40
0.4705882352941176
 40
0.4705882352941176
 40
0.5294117647058824
 40
0.5294117647058824
 40
0.5294117647058824
 40
0.5294117647058824
 40
0.5882352941176471
 40
0.5882352941176471
 40
0.5882352941176471
 40
0.5882352941176471
 40
0.6470588235294118
 40
0.6470588235294118
 40
0.6470588235294118
 40
0.6470588235294118
 40
0.7058823529411765
 40
0.7058823529411765
 40
0.7058823529411765
 40
0.7058823529411765
 40
0.7647058823529411
 40
0.7647058823529411
 40
0.7647058823529411
 40
0.7647058823529411
 40
0.8235294117647058
 40
0.8235294117647058
 40
0.8235294117647058
 40
0.8235294117647058
 40
0.8823529411764706
 40
0.8823529411764706
 40
0.8823529411764706
 40
0.8823529411764706
 40
1.0
 40
1.0
 40
1.0
 40
1.0
 10
-139.1103
 20
112.8717
 30
0.0
 10
-140.3963
 20
107.7677
 30
0.0
 10
-139.4266
 20
103.847
 30
0.0
 10
-149.9153
 20
104.078
 30
0.0
 10
-149.9153
 20
104.078
 30
0.0
 10
-149.8144
 20
111.2364
 30
0.0
 10
-149.962
 20
113.5251
 30
0.0
 10
-141.9534
 20
114.8783
 30
0.0
 10
-141.9534
 20
114.8783
 30
0.0
 10
-141.7477
 20
114.9131
 30
0.0
 10
-141.1794
 20
115.1223
 30
0.0
 10
-141.282
 20
115.2764
 30
0.0
 10
-141.282
 20
115.2764
 30
0.0
 10
-141.1794
 20
115.4305
 30
0.0
 10
-141.7477
 20
115.6396
 30
0.0
 10
-141.9534
 20
115.6744
 30
0.0
 10
-141.9534
 20
115.6744
 30
0.0
 10
-149.962
 20
117.0277
 30
0.0
 10
-149.8144
 20
119.3164
 30
0.0
 10
-149.9153
 20
126.4748
 30
0.0
 10
-149.9153
 20
126.4748
 30
0.0
 10
-139.4266
 20
126.7057
 30
0.0
 10
-140.3963
 20
122.785
 30
0.0
 10
-139.1103
 20
117.6811
 30
0.0
 10
-139.1103
 20
117.6811
 30
0.0
 10
-139.0491
 20
117.3892
 30
0.0
 10
-138.8743
 20
117.4163
 30
0.0
 10
-138.8743
 20
117.4163
 30
0.0
 10
-138.8743
 20
117.4163
 30
0.0
 10
-138.8743
 20
117.4163
 30
0.0
 10
-138.6996
 20
117.3892
 30
0.0
 10
-138.6384
 20
117.6811
 30
0.0
 10
-138.6384
 20
117.6811
 30
0.0
 10
-137.3524
 20
122.7851
 30
0.0
 10
-138.3221
 20
126.7057
 30
0.0
 10
-127.8334
 20
126.4748
 30
0.0
 10
-127.8334
 20
126.4748
 30
0.0
 10
-127.9343
 20
119.3164
 30
0.0
 10
-127.7867
 20
117.0277
 30
0.0
 10
-135.7953
 20
115.6744
 30
0.0
 10
-135.7953
 20
115.6744
 30
0.0
 10
-136.001
 20
115.6396
 30
0.0
 10
-136.5693
 20
115.4305
 30
0.0
 10
-136.4667
 20
115.2764
 30
0.0
 10
-136.4667
 20
115.2764
 30
0.0
 10
-136.5693
 20
115.1223
 30
0.0
 10
-136.001
 20
114.9131
 30
0.0
 10
-135.7953
 20
114.8783
 30
0.0
 10
-135.7953
 20
114.8783
 30
0.0
 10
-127.7867
 20
113.5251
 30
0.0
 10
-127.9343
 20
111.2363
 30
0.0
 10
-127.8334
 20
104.078
 30
0.0
 10
-127.8334
 20
104.078
 30
0.0
 10
-138.3221
 20
103.847
 30
0.0
 10
-137.3524
 20
107.7678
 30
0.0
 10
-138.6384
 20
112.8717
 30
0.0
 10
-138.6384
 20
112.8717
 30
0.0
 10
-138.6996
 20
113.1636
 30
0.0
 10
-138.8743
 20
113.1364
 30
0.0
 10
-138.8743
 20
113.1364
 30
0.0
 10
-138.8743
 20
113.1364
 30
0.0
 10
-138.8743
 20
113.1364
 30
0.0
 10
-139.0491
 20
113.1636
 30
0.0
 10
-139.1103
 20
112.8717
 30
0.0
  0
SPLINE
  5
47
330
1F
100
AcDbEntity
  8
layer 1
 62
     7
100
AcDbSpline
210
0.0
220
0.0
230
1.0
 70
    11
 71
     3
 72
    28
 73
    24
 74
     0
 42
0.0000000001
 43
0.0000000001
 12
1.0
 22
0.0
 32
0.0
 13
1.0
 23
0.0
 33
0.0
 40
0.0
 40
0.0
 40
0.0
 40
0.0
 40
0.1428571428571428
 40
0.1428571428571428
 40
0.1428571428571428
 40
0.1428571428571428
 40
0.2857142857142857
 40
0.2857142857142857
 40
0.2857142857142857
 40
0.2857142857142857
 40
0.4285714285714285
 40
0.4285714285714285
 40
0.4285714285714285
 40
0.4285714285714285
 40
0.5714285714285714
 40
0.5714285714285714
 40
0.5714285714285714
 40
0.5714285714285714
 40
0.7142857142857143
 40
0.7142857142857143
 40
0.7142857142857143
 40
0.7142857142857143
 40
1.0
 40
1.0
 40
1.0
 40
1.0
 10
-128.0491
 20
99.3951
 30
0.0
 10
-136.3677
 20
99.8144
 30
0.0
 10
-138.9317
 20
95.571
 30
0.0
 10
-138.9563
 20
93.521
 30
0.0
 10
-138.9563
 20
93.521
 30
0.0
 10
-138.9809
 20
95.571
 30
0.0
 10
-141.5449
 20
99.8144
 30
0.0
 10
-149.8634
 20
99.3951
 30
0.0
 10
-149.8634
 20
99.3951
 30
0.0
 10
-149.8634
 20
99.3951
 30
0.0
 10
-149.8634
 20
101.0916
 30
0.0
 10
-149.8634
 20
101.0916
 30
0.0
 10
-149.8634
 20
101.0916
 30
0.0
 10
-141.5449
 20
100.6723
 30
0.0
 10
-138.9809
 20
104.9157
 30
0.0
 10
-138.9563
 20
106.9658
 30
0.0
 10
-138.9563
 20
106.9658
 30
0.0
 10
-138.9317
 20
104.9157
 30
0.0
 10
-136.3677
 20
100.6723
 30
0.0
 10
-128.0491
 20
101.0916
 30
0.0
 10
-128.0491
 20
101.0916
 30
0.0
 10
-128.0491
 20
101.0916
 30
0.0
 10
-128.0491
 20
99.3951
 30
0.0
 10
-128.0491
 20
99.3951
 30
0.0
  0
SPLINE
  5
48
330
1F
100
AcDbEntity
  8
layer 1
 62
     7
100
AcDbSpline
210
0.0
220
0.0
230
1.0
 70
    11
 71
     3
 72
    20
 73
    16
 74
     0
 42
0.0000000001
 43
0.0000000001
 12
1.0
 22
0.0
 32
0.0
 13
1.0
 23
0.0
 33
0.0
 40
0.0
 40
0.0
 40
0.0
 40
0.0
 40
0.2
 40
0.2
 40
0.2
 40
0.2
 40
0.4
 40
0.4
 40
0.4
 40
0.4
 40
0.6
 40
0.6
 40
0.6
 40
0.6
 40
1.0
 40
1.0
 40
1.0
 40
1.0
 10
-126.617
 20
103.1256
 30
0.0
 10
-126.617
 20
103.1256
 30
0.0
 10
-120.8479
 20
103.1256
 30
0.0
 10
-120.8479
 20
103.1256
 30
0.0
 10
-120.8479
 20
103.1256
 30
0.0
 10
-120.8479
 20
103.1256
 30
0.0
 10
-120.8479
 20
97.2951
 30
0.0
 10
-120.8479
 20
97.2951
 30
0.0
 10
-120.8479
 20
97.2951
 30
0.0
 10
-120.8479
 20
97.2951
 30
0.0
 10
-126.617
 20
97.2951
 30
0.0
 10
-126.617
 20
97.2951
 30
0.0
 10
-126.617
 20
97.2951
 30
0.0
 10
-126.617
 20
97.2951
 30
0.0
 10
-126.617
 20
103.1256
 30
0.0
 10
-126.617
 20
103.1256
 30
0.0
  0
SPLINE
  5
49
330
1F
100
AcDbEntity
  8
layer 1
 62
     7
100
AcDbSpline
210
0.0
220
0.0
230
1.0
 70
    11
 71
     3
 72
    28
 73
    24
 74
     0
 42
0.0000000001
 43
0.0000000001
 12
1.0
 22
0.0
 32
0.0
 13
1.0
 23
0.0
 33
0.0
 40
0.0
 40
0.0
 40
0.0
 40
0.0
 40
0.1428571428571428
 40
0.1428571428571428
 40
0.1428571428571428
 40
0.1428571428571428
 40
0.2857142857142857
 40
0.2857142857142857
 40
0.2857142857142857
 40
0.2857142857142857
 40
0.4285714285714285
 40
0.4285714285714285
 40
0.4285714285714285
 40
0.4285714285714285
 40
0.5714285714285714
 40
0.5714285714285714
 40
0.5714285714285714
 40
0.5714285714285714
 40
0.7142857142857143
 40
0.7142857142857143
 40
0.7142857142857143
 40
0.7142857142857143
 40
1.0
 40
1.0
 40
1.0
 40
1.0
 10
-124.5408
 20
104.4843
 30
0.0
 10
-124.1215
 20
112.8028
 30
0.0
 10
-128.3649
 20
115.3668
 30
0.0
 10
-130.4149
 20
115.3914
 30
0.0
 10
-130.4149
 20
115.3914
 30
0.0
 10
-128.3649
 20
115.416
 30
0.0
 10
-124.1215
 20
117.9801
 30
0.0
 10
-124.5408
 20
126.2985
 30
0.0
 10
-124.5408
 20
126.2985
 30
0.0
 10
-124.5408
 20
126.2985
 30
0.0
 10
-122.8443
 20
126.2985
 30
0.0
 10
-122.8443
 20
126.2985
 30
0.0
 10
-122.8443
 20
126.2985
 30
0.0
 10
-123.2636
 20
117.98
 30
0.0
 10
-119.0202
 20
115.416
 30
0.0
 10
-116.9701
 20
115.3914
 30
0.0
 10
-116.9701
 20
115.3914
 30
0.0
 10
-119.0202
 20
115.3668
 30
0.0
 10
-123.2636
 20
112.8028
 30
0.0
 10
-122.8443
 20
104.4843
 30
0.0
 10
-122.8443
 20
104.4843
 30
0.0
 10
-122.8443
 20
104.4843
 30
0.0
 10
-124.5408
 20
104.4843
 30
0.0
 10
-124.5408
 20
104.4843
 30
0.0
  0
SPLINE
  5
4A
330
1F
100
AcDbEntity
  8
layer 1
 62
     7
100
AcDbSpline
210
0.0
220
0.0
230
1.0
 70
    11
 71
     3
 72
    68
 73
    64
 74
     0
 42
0.0000000001
 43
0.0000000001
 12
1.0
 22
0.0
 32
0.0
 13
1.0
 23
0.0
 33
0.0
 40
0.0
 40
0.0
 40
0.0
 40
0.0
 40
0.0588235294117647
 40
0.0588235294117647
 40
0.0588235294117647
 40
0.0588235294117647
 40
0.1176470588235294
 40
0.1176470588235294
 40
0.1176470588235294
 40
0.1176470588235294
 40
0.1764705882352941
 40
0.1764705882352941
 40
0.1764705882352941
 40
0.1764705882352941
 40
0.2352941176470588
 40
0.2352941176470588
 40
0.2352941176470588
 40
0.2352941176470588
 40
0.2941176470588235
 40
0.2941176470588235
 40
0.2941176470588235
 40
0.2941176470588235
 40
0.3529411764705883
 40
0.3529411764705883
 40
0.3529411764705883
 40
0.3529411764705883
 40
0.4117647058823529
 40
0.4117647058823529
 40
0.4117647058823529
 40
0.4117647058823529
 40
0.4705882352941176
 40
0.4705882352941176
 40
0.4705882352941176
 40
0.4705882352941176
 40
0.5294117647058824
 40
0.5294117647058824
 40
0.5294117647058824
 40
0.5294117647058824
 40
0.5882352941176471
 40
0.5882352941176471
 40
0.5882352941176471
 40
0.5882352941176471
 40
0.6470588235294118
 40
0.6470588235294118
 40
0.6470588235294118
 40
0.6470588235294118
 40
0.7058823529411765
 40
0.7058823529411765
 40
0.7058823529411765
 40
0.7058823529411765
 40
0.7647058823529411
 40
0.7647058823529411
 40
0.7647058823529411
 40
0.7647058823529411
 40
0.8235294117647058
 40
0.8235294117647058
 40
0.8235294117647058
 40
0.8235294117647058
 40
0.8823529411764706
 40
0.8823529411764706
 40
0.8823529411764706
 40
0.8823529411764706
 40
1.0
 40
1.0
 40
1.0
 40
1.0
 10
-169.4385
 20
82.5574
 30
0.0
 10
-170.7244
 20
77.4534
 30
0.0
 10
-169.7548
 20
73.5327
 30
0.0
 10
-180.2435
 20
73.7637
 30
0.0
 10
-180.2435
 20
73.7637
 30
0.0
 10
-180.1425
 20
80.9221
 30
0.0
 10
-180.2902
 20
83.2108
 30
0.0
 10
-172.2816
 20
84.564
 30
0.0
 10
-172.2816
 20
84.564
 30
0.0
 10
-172.0759
 20
84.5988
 30
0.0
 10
-171.5076
 20
84.808
 30
0.0
 10
-171.6102
 20
84.9621
 30
0.0
 10
-171.6102
 20
84.9621
 30
0.0
 10
-171.5076
 20
85.1162
 30
0.0
 10
-172.0759
 20
85.3253
 30
0.0
 10
-172.2816
 20
85.3601
 30
0.0
 10
-172.2816
 20
85.3601
 30
0.0
 10
-180.2902
 20
86.7134
 30
0.0
 10
-180.1425
 20
89.0021
 30
0.0
 10
-180.2435
 20
96.1605
 30
0.0
 10
-180.2435
 20
96.1605
 30
0.0
 10
-169.7548
 20
96.3914
 30
0.0
 10
-170.7244
 20
92.4707
 30
0.0
 10
-169.4385
 20
87.3667
 30
0.0
 10
-169.4385
 20
87.3667
 30
0.0
 10
-169.3773
 20
87.0749
 30
0.0
 10
-169.2025
 20
87.102
 30
0.0
 10
-169.2025
 20
87.102
 30
0.0
 10
-169.2025
 20
87.102
 30
0.0
 10
-169.2025
 20
87.102
 30
0.0
 10
-169.0277
 20
87.0749
 30
0.0
 10
-168.9665
 20
87.3667
 30
0.0
 10
-168.9665
 20
87.3667
 30
0.0
 10
-167.6806
 20
92.4707
 30
0.0
 10
-168.6502
 20
96.3914
 30
0.0
 10
-158.1616
 20
96.1605
 30
0.0
 10
-158.1616
 20
96.1605
 30
0.0
 10
-158.2625
 20
89.0021
 30
0.0
 10
-158.1148
 20
86.7134
 30
0.0
 10
-166.1235
 20
85.3601
 30
0.0
 10
-166.1235
 20
85.3601
 30
0.0
 10
-166.3292
 20
85.3253
 30
0.0
 10
-166.8975
 20
85.1162
 30
0.0
 10
-166.7949
 20
84.9621
 30
0.0
 10
-166.7949
 20
84.9621
 30
0.0
 10
-166.8975
 20
84.808
 30
0.0
 10
-166.3292
 20
84.5988
 30
0.0
 10
-166.1235
 20
84.564
 30
0.0
 10
-166.1235
 20
84.564
 30
0.0
 10
-158.1148
 20
83.2108
 30
0.0
 10
-158.2625
 20
80.922
 30
0.0
 10
-158.1616
 20
73.7637
 30
0.0
 10
-158.1616
 20
73.7637
 30
0.0
 10
-168.6502
 20
73.5327
 30
0.0
 10
-167.6806
 20
77.4534
 30
0.0
 10
-168.9665
 20
82.5574
 30
0.0
 10
-168.9665
 20
82.5574
 30
0.0
 10
-169.0277
 20
82.8493
 30
0.0
 10
-169.2025
 20
82.8221
 30
0.0
 10
-169.2025
 20
82.8221
 30
0.0
 10
-169.2025
 20
82.8221
 30
0.0
 10
-169.2025
 20
82.8221
 30
0.0
 10
-169.3773
 20
82.8493
 30
0.0
 10
-169.4385
 20
82.5574
 30
0.0
  0
SPLINE
  5
4B
330
1F
100
AcDbEntity
  8
layer 1
 62
     7
100
AcDbSpline
210
0.0
220
0.0
230
1.0
 70
    11
 71
     3
 72
    28
 73
    24
 74
     0
 42
0.0000000001
 43
0.0000000001
 12
1.0
 22
0.0
 32
0.0
 13
1.0
 23
0.0
 33
0.0
 40
0.0
 40
0.0
 40
0.0
 40
0.0
 40
0.1428571428571428
 40
0.1428571428571428
 40
0.1428571428571428
 40
0.1428571428571428
 40
0.2857142857142857
 40
0.2857142857142857
 40
0.2857142857142857
 40
0.2857142857142857
 40
0.4285714285714285
 40
0.4285714285714285
 40
0.4285714285714285
 40
0.4285714285714285
 40
0.5714285714285714
 40
0.5714285714285714
 40
0.5714285714285714
 40
0.5714285714285714
 40
0.7142857142857143
 40
0.7142857142857143
 40
0.7142857142857143
 40
0.7142857142857143
 40
1.0
 40
1.0
 40
1.0
 40
1.0
 10
-158.3774
 20
69.0808
 30
0.0
 10
-166.6959
 20
69.5001
 30
0.0
 10
-169.2599
 20
65.2567
 30
0.0
 10
-169.2845
 20
63.2067
 30
0.0
 10
-169.2845
 20
63.2067
 30
0.0
 10
-169.3091
 20
65.2567
 30
0.0
 10
-171.8731
 20
69.5001
 30
0.0
 10
-180.1917
 20
69.0808
 30
0.0
 10
-180.1917
 20
69.0808
 30
0.0
 10
-180.1917
 20
69.0808
 30
0.0
 10
-180.1917
 20
70.7773
 30
0.0
 10
-180.1917
 20
70.7773
 30
0.0
 10
-180.1917
 20
70.7773
 30
0.0
 10
-171.8731
 20
70.358
 30
0.0
 10
-169.3091
 20
74.6014
 30
0.0
 10
-169.2845
 20
76.6515
 30
0.0
 10
-169.2845
 20
76.6515
 30
0.0
 10
-169.2599
 20
74.6014
 30
0.0
 10
-166.6959
 20
70.358
 30
0.0
 10
-158.3774
 20
70.7773
 30
0.0
 10
-158.3774
 20
70.7773
 30
0.0
 10
-158.3774
 20
70.7773
 30
0.0
 10
-158.3774
 20
69.0808
 30
0.0
 10
-158.3774
 20
69.0808
 30
0.0
  0
SPLINE
  5
4C
330
1F
100
AcDbEntity
  8
layer 1
 62
     7
100
AcDbSpline
210
0.0
220
0.0
230
1.0
 70
    11
 71
     3
 72
    28
 73
    24
 74
     0
 42
0.0000000001
 43
0.0000000001
 12
1.0
 22
0.0
 32
0.0
 13
1.0
 23
0.0
 33
0.0
 40
0.0
 40
0.0
 40
0.0
 40
0.0
 40
0.1428571428571428
 40
0.1428571428571428
 40
0.1428571428571428
 40
0.1428571428571428
 40
0.2857142857142857
 40
0.2857142857142857
 40
0.2857142857142857
 40
0.2857142857142857
 40
0.4285714285714285
 40
0.4285714285714285
 40
0.4285714285714285
 40
0.4285714285714285
 40
0.5714285714285714
 40
0.5714285714285714
 40
0.5714285714285714
 40
0.5714285714285714
 40
0.7142857142857143
 40
0.7142857142857143
 40
0.7142857142857143
 40
0.7142857142857143
 40
1.0
 40
1.0
 40
1.0
 40
1.0
 10
-154.869
 20
74.17
 30
0.0
 10
-154.4497
 20
82.4885
 30
0.0
 10
-158.6931
 20
85.0525
 30
0.0
 10
-160.7432
 20
85.0771
 30
0.0
 10
-160.7432
 20
85.0771
 30
0.0
 10
-158.6931
 20
85.1017
 30
0.0
 10
-154.4497
 20
87.6658
 30
0.0
 10
-154.869
 20
95.9842
 30
0.0
 10
-154.869
 20
95.9842
 30
0.0
 10
-154.869
 20
95.9842
 30
0.0
 10
-153.1725
 20
95.9842
 30
0.0
 10
-153.1725
 20
95.9842
 30
0.0
 10
-153.1725
 20
95.9842
 30
0.0
 10
-153.5918
 20
87.6657
 30
0.0
 10
-149.3484
 20
85.1017
 30
0.0
 10
-147.2984
 20
85.0771
 30
0.0
 10
-147.2984
 20
85.0771
 30
0.0
 10
-149.3484
 20
85.0525
 30
0.0
 10
-153.5918
 20
82.4885
 30
0.0
 10
-153.1725
 20
74.17
 30
0.0
 10
-153.1725
 20
74.17
 30
0.0
 10
-153.1725
 20
74.17
 30
0.0
 10
-154.869
 20
74.17
 30
0.0
 10
-154.869
 20
74.17
 30
0.0
  0
SPLINE
  5
4D
330
1F
100
AcDbEntity
  8
layer 1
 62
     7
100
AcDbSpline
210
0.0
220
0.0
230
1.0
 70
    11
 71
     3
 72
    20
 73
    16
 74
     0
 42
0.0000000001
 43
0.0000000001
 12
1.0
 22
0.0
 32
0.0
 13
1.0
 23
0.0
 33
0.0
 40
0.0
 40
0.0
 40
0.0
 40
0.0
 40
0.2
 40
0.2
 40
0.2
 40
0.2
 40
0.4
 40
0.4
 40
0.4
 40
0.4
 40
0.6
 40
0.6
 40
0.6
 40
0.6
 40
1.0
 40
1.0
 40
1.0
 40
1.0
 10
-156.9451
 20
72.8113
 30
0.0
 10
-156.9451
 20
72.8113
 30
0.0
 10
-151.176
 20
72.8113
 30
0.0
 10
-151.176
 20
72.8113
 30
0.0
 10
-151.176
 20
72.8113
 30
0.0
 10
-151.176
 20
72.8113
 30
0.0
 10
-151.176
 20
66.9808
 30
0.0
 10
-151.176
 20
66.9808
 30
0.0
 10
-151.176
 20
66.9808
 30
0.0
 10
-151.176
 20
66.9808
 30
0.0
 10
-156.9451
 20
66.9808
 30
0.0
 10
-156.9451
 20
66.9808
 30
0.0
 10
-156.9451
 20
66.9808
 30
0.0
 10
-156.9451
 20
66.9808
 30
0.0
 10
-156.9451
 20
72.8113
 30
0.0
 10
-156.9451
 20
72.8113
 30
0.0
  0
SPLINE
  5
4E
330
1F
100
AcDbEntity
  8
layer 1
 62
     7
100
AcDbSpline
210
0.0
220
0.0
230
1.0
 70
    11
 71
     3
 72
    68
 73
    64
 74
     0
 42
0.0000000001
 43
0.0000000001
 12
1.0
 22
0.0
 32
0.0
 13
1.0
 23
0.0
 33
0.0
 40
0.0
 40
0.0
 40
0.0
 40
0.0
 40
0.0588235294117647
 40
0.0588235294117647
 40
0.0588235294117647
 40
0.0588235294117647
 40
0.1176470588235294
 40
0.1176470588235294
 40
0.1176470588235294
 40
0.1176470588235294
 40
0.1764705882352941
 40
0.1764705882352941
 40
0.1764705882352941
 40
0.1764705882352941
 40
0.2352941176470588
 40
0.2352941176470588
 40
0.2352941176470588
 40
0.2352941176470588
 40
0.2941176470588235
 40
0.2941176470588235
 40
0.2941176470588235
 40
0.2941176470588235
 40
0.3529411764705883
 40
0.3529411764705883
 40
0.3529411764705883
 40
0.3529411764705883
 40
0.4117647058823529
 40
0.4117647058823529
 40
0.4117647058823529
 40
0.4117647058823529
 40
0.4705882352941176
 40
0.4705882352941176
 40
0.4705882352941176
 40
0.4705882352941176
 40
0.5294117647058824
 40
0.5294117647058824
 40
0.5294117647058824
 40
0.5294117647058824
 40
0.5882352941176471
 40
0.5882352941176471
 40
0.5882352941176471
 40
0.5882352941176471
 40
0.6470588235294118
 40
0.6470588235294118
 40
0.6470588235294118
 40
0.6470588235294118
 40
0.7058823529411765
 40
0.7058823529411765
 40
0.7058823529411765
 40
0.7058823529411765
 40
0.7647058823529411
 40
0.7647058823529411
 40
0.7647058823529411
 40
0.7647058823529411
 40
0.8235294117647058
 40
0.8235294117647058
 40
0.8235294117647058
 40
0.8235294117647058
 40
0.8823529411764706
 40
0.8823529411764706
 40
0.8823529411764706
 40
0.8823529411764706
 40
1.0
 40
1.0
 40
1.0
 40
1.0
 10
-139.1103
 20
82.5574
 30
0.0
 10
-140.3963
 20
77.4534
 30
0.0
 10
-139.4266
 20
73.5327
 30
0.0
 10
-149.9153
 20
73.7637
 30
0.0
 10
-149.9153
 20
73.7637
 30
0.0
 10
-149.8144
 20
80.9221
 30
0.0
 10
-149.962
 20
83.2108
 30
0.0
 10
-141.9534
 20
84.564
 30
0.0
 10
-141.9534
 20
84.564
 30
0.0
 10
-141.7477
 20
84.5988
 30
0.0
 10
-141.1794
 20
84.808
 30
0.0
 10
-141.282
 20
84.9621
 30
0.0
 10
-141.282
 20
84.9621
 30
0.0
 10
-141.1794
 20
85.1162
 30
0.0
 10
-141.7477
 20
85.3253
 30
0.0
 10
-141.9534
 20
85.3601
 30
0.0
 10
-141.9534
 20
85.3601
 30
0.0
 10
-149.962
 20
86.7134
 30
0.0
 10
-149.8144
 20
89.0021
 30
0.0
 10
-149.9153
 20
96.1605
 30
0.0
 10
-149.9153
 20
96.1605
 30
0.0
 10
-139.4266
 20
96.3914
 30
0.0
 10
-140.3963
 20
92.4707
 30
0.0
 10
-139.1103
 20
87.3667
 30
0.0
 10
-139.1103
 20
87.3667
 30
0.0
 10
-139.0491
 20
87.0749
 30
0.0
 10
-138.8743
 20
87.102
 30
0.0
 10
-138.8743
 20
87.102
 30
0.0
 10
-138.8743
 20
87.102
 30
0.0
 10
-138.8743
 20
87.102
 30
0.0
 10
-138.6996
 20
87.0749
 30
0.0
 10
-138.6384
 20
87.3667
 30
0.0
 10
-138.6384
 20
87.3667
 30
0.0
 10
-137.3524
 20
92.4707
 30
0.0
 10
-138.3221
 20
96.3914
 30
0.0
 10
-127.8334
 20
96.1605
 30
0.0
 10
-127.8334
 20
96.1605
 30
0.0
 10
-127.9343
 20
89.0021
 30
0.0
 10
-127.7867
 20
86.7134
 30
0.0
 10
-135.7953
 20
85.3601
 30
0.0
 10
-135.7953
 20
85.3601
 30
0.0
 10
-136.001
 20
85.3253
 30
0.0
 10
-136.5693
 20
85.1162
 30
0.0
 10
-136.4667
 20
84.9621
 30
0.0
 10
-136.4667
 20
84.9621
 30
0.0
 10
-136.5693
 20
84.808
 30
0.0
 10
-136.001
 20
84.5988
 30
0.0
 10
-135.7953
 20
84.564
 30
0.0
 10
-135.7953
 20
84.564
 30
0.0
 10
-127.7867
 20
83.2108
 30
0.0
 10
-127.9343
 20
80.922
 30
0.0
 10
-127.8334
 20
73.7637
 30
0.0
 10
-127.8334
 20
73.7637
 30
0.0
 10
-138.3221
 20
73.5327
 30
0.0
 10
-137.3524
 20
77.4534
 30
0.0
 10
-138.6384
 20
82.5574
 30
0.0
 10
-138.6384
 20
82.5574
 30
0.0
 10
-138.6996
 20
82.8493
 30
0.0
 10
-138.8743
 20
82.8221
 30
0.0
 10
-138.8743
 20
82.8221
 30
0.0
 10
-138.8743
 20
82.8221
 30
0.0
 10
-138.8743
 20
82.8221
 30
0.0
 10
-139.0491
 20
82.8493
 30
0.0
 10
-139.1103
 20
82.5574
 30
0.0
  0
SPLINE
  5
4F
330
1F
100
AcDbEntity
  8
layer 1
 62
     7
100
AcDbSpline
210
0.0
220
0.0
230
1.0
 70
    11
 71
     3
 72
    28
 73
    24
 74
     0
 42
0.0000000001
 43
0.0000000001
 12
1.0
 22
0.0
 32
0.0
 13
1.0
 23
0.0
 33
0.0
 40
0.0
 40
0.0
 40
0.0
 40
0.0
 40
0.1428571428571428
 40
0.1428571428571428
 40
0.1428571428571428
 40
0.1428571428571428
 40
0.2857142857142857
 40
0.2857142857142857
 40
0.2857142857142857
 40
0.2857142857142857
 40
0.4285714285714285
 40
0.4285714285714285
 40
0.4285714285714285
 40
0.4285714285714285
 40
0.5714285714285714
 40
0.5714285714285714
 40
0.5714285714285714
 40
0.5714285714285714
 40
0.7142857142857143
 40
0.7142857142857143
 40
0.7142857142857143
 40
0.7142857142857143
 40
1.0
 40
1.0
 40
1.0
 40
1.0
 10
-128.0491
 20
69.0808
 30
0.0
 10
-136.3677
 20
69.5001
 30
0.0
 10
-138.9317
 20
65.2567
 30
0.0
 10
-138.9563
 20
63.2067
 30
0.0
 10
-138.9563
 20
63.2067
 30
0.0
 10
-138.9809
 20
65.2567
 30
0.0
 10
-141.5449
 20
69.5001
 30
0.0
 10
-149.8634
 20
69.0808
 30
0.0
 10
-149.8634
 20
69.0808
 30
0.0
 10
-149.8634
 20
69.0808
 30
0.0
 10
-149.8634
 20
70.7773
 30
0.0
 10
-149.8634
 20
70.7773
 30
0.0
 10
-149.8634
 20
70.7773
 30
0.0
 10
-141.5449
 20
70.358
 30
0.0
 10
-138.9809
 20
74.6014
 30
0.0
 10
-138.9563
 20
76.6515
 30
0.0
 10
-138.9563
 20
76.6515
 30
0.0
 10
-138.9317
 20
74.6014
 30
0.0
 10
-136.3677
 20
70.358
 30
0.0
 10
-128.0491
 20
70.7773
 30
0.0
 10
-128.0491
 20
70.7773
 30
0.0
 10
-128.0491
 20
70.7773
 30
0.0
 10
-128.0491
 20
69.0808
 30
0.0
 10
-128.0491
 20
69.0808
 30
0.0
  0
SPLINE
  5
50
330
1F
100
AcDbEntity
  8
layer 1
 62
     7
100
AcDbSpline
210
0.0
220
0.0
230
1.0
 70
    11
 71
     3
 72
    20
 73
    16
 74
     0
 42
0.0000000001
 43
0.0000000001
 12
1.0
 22
0.0
 32
0.0
 13
1.0
 23
0.0
 33
0.0
 40
0.0
 40
0.0
 40
0.0
 40
0.0
 40
0.2
 40
0.2
 40
0.2
 40
0.2
 40
0.4
 40
0.4
 40
0.4
 40
0.4
 40
0.6
 40
0.6
 40
0.6
 40
0.6
 40
1.0
 40
1.0
 40
1.0
 40
1.0
 10
-126.617
 20
72.8113
 30
0.0
 10
-126.617
 20
72.8113
 30
0.0
 10
-120.8479
 20
72.8113
 30
0.0
 10
-120.8479
 20
72.8113
 30
0.0
 10
-120.8479
 20
72.8113
 30
0.0
 10
-120.8479
 20
72.8113
 30
0.0
 10
-120.8479
 20
66.9808
 30
0.0
 10
-120.8479
 20
66.9808
 30
0.0
 10
-120.8479
 20
66.9808
 30
0.0
 10
-120.8479
 20
66.9808
 30
0.0
 10
-126.617
 20
66.9808
 30
0.0
 10
-126.617
 20
66.9808
 30
0.0
 10
-126.617
 20
66.9808
 30
0.0
 10
-126.617
 20
66.9808
 30
0.0
 10
-126.617
 20
72.8113
 30
0.0
 10
-126.617
 20
72.8113
 30
0.0
  0
SPLINE
  5
51
330
1F
100
AcDbEntity
  8
layer 1
 62
     7
100
AcDbSpline
210
0.0
220
0.0
230
1.0
 70
    11
 71
     3
 72
    28
 73
    24
 74
     0
 42
0.0000000001
 43
0.0000000001
 12
1.0
 22
0.0
 32
0.0
 13
1.0
 23
0.0
 33
0.0
 40
0.0
 40
0.0
 40
0.0
 40
0.0
 40
0.1428571428571428
 40
0.1428571428571428
 40
0.1428571428571428
 40
0.1428571428571428
 40
0.2857142857142857
 40
0.2857142857142857
 40
0.2857142857142857
 40
0.2857142857142857
 40
0.4285714285714285
 40
0.4285714285714285
 40
0.4285714285714285
 40
0.4285714285714285
 40
0.5714285714285714
 40
0.5714285714285714
 40
0.5714285714285714
 40
0.5714285714285714
 40
0.7142857142857143
 40
0.7142857142857143
 40
0.7142857142857143
 40
0.7142857142857143
 40
1.0
 40
1.0
 40
1.0
 40
1.0
 10
-124.5408
 20
74.17
 30
0.0
 10
-124.1215
 20
82.4885
 30
0.0
 10
-128.3649
 20
85.0525
 30
0.0
 10
-130.4149
 20
85.0771
 30
0.0
 10
-130.4149
 20
85.0771
 30
0.0
 10
-128.3649
 20
85.1017
 30
0.0
 10
-124.1215
 20
87.6658
 30
0.0
 10
-124.5408
 20
95.9842
 30
0.0
 10
-124.5408
 20
95.9842
 30
0.0
 10
-124.5408
 20
95.9842
 30
0.0
 10
-122.8443
 20
95.9842
 30
0.0
 10
-122.8443
 20
95.9842
 30
0.0
 10
-122.8443
 20
95.9842
 30
0.0
 10
-123.2636
 20
87.6657
 30
0.0
 10
-119.0202
 20
85.1017
 30
0.0
 10
-116.9701
 20
85.0771
 30
0.0
 10
-116.9701
 20
85.0771
 30
0.0
 10
-119.0202
 20
85.0525
 30
0.0
 10
-123.2636
 20
82.4885
 30
0.0
 10
-122.8443
 20
74.17
 30
0.0
 10
-122.8443
 20
74.17
 30
0.0
 10
-122.8443
 20
74.17
 30
0.0
 10
-124.5408
 20
74.17
 30
0.0
 10
-124.5408
 20
74.17
 30
0.0
  0
SPLINE
  5
52
330
1F
100
AcDbEntity
  8
layer 1
 62
     7
100
AcDbSpline
210
0.0
220
0.0
230
1.0
 70
    11
 71
     3
 72
    68
 73
    64
 74
     0
 42
0.0000000001
 43
0.0000000001
 12
1.0
 22
0.0
 32
0.0
 13
1.0
 23
0.0
 33
0.0
 40
0.0
 40
0.0
 40
0.0
 40
0.0
 40
0.0588235294117647
 40
0.0588235294117647
 40
0.0588235294117647
 40
0.0588235294117647
 40
0.1176470588235294
 40
0.1176470588235294
 40
0.1176470588235294
 40
0.1176470588235294
 40
0.1764705882352941
 40
0.1764705882352941
 40
0.1764705882352941
 40
0.1764705882352941
 40
0.2352941176470588
 40
0.2352941176470588
 40
0.2352941176470588
 40
0.2352941176470588
 40
0.2941176470588235
 40
0.2941176470588235
 40
0.2941176470588235
 40
0.2941176470588235
 40
0.3529411764705883
 40
0.3529411764705883
 40
0.3529411764705883
 40
0.3529411764705883
 40
0.4117647058823529
 40
0.4117647058823529
 40
0.4117647058823529
 40
0.4117647058823529
 40
0.4705882352941176
 40
0.4705882352941176
 40
0.4705882352941176
 40
0.4705882352941176
 40
0.5294117647058824
 40
0.5294117647058824
 40
0.5294117647058824
 40
0.5294117647058824
 40
0.5882352941176471
 40
0.5882352941176471
 40
0.5882352941176471
 40
0.5882352941176471
 40
0.6470588235294118
 40
0.6470588235294118
 40
0.6470588235294118
 40
0.6470588235294118
 40
0.7058823529411765
 40
0.7058823529411765
 40
0.7058823529411765
 40
0.7058823529411765
 40
0.7647058823529411
 40
0.7647058823529411
 40
0.7647058823529411
 40
0.7647058823529411
 40
0.8235294117647058
 40
0.8235294117647058
 40
0.8235294117647058
 40
0.8235294117647058
 40
0.8823529411764706
 40
0.8823529411764706
 40
0.8823529411764706
 40
0.8823529411764706
 40
1.0
 40
1.0
 40
1.0
 40
1.0
 10
-108.8485
 20
112.8717
 30
0.0
 10
-110.1344
 20
107.7677
 30
0.0
 10
-109.1648
 20
103.847
 30
0.0
 10
-119.6534
 20
104.078
 30
0.0
 10
-119.6534
 20
104.078
 30
0.0
 10
-119.5525
 20
111.2364
 30
0.0
 10
-119.7002
 20
113.5251
 30
0.0
 10
-111.6916
 20
114.8783
 30
0.0
 10
-111.6916
 20
114.8783
 30
0.0
 10
-111.4859
 20
114.9131
 30
0.0
 10
-110.9176
 20
115.1223
 30
0.0
 10
-111.0202
 20
115.2764
 30
0.0
 10
-111.0202
 20
115.2764
 30
0.0
 10
-110.9176
 20
115.4305
 30
0.0
 10
-111.4859
 20
115.6396
 30
0.0
 10
-111.6916
 20
115.6744
 30
0.0
 10
-111.6916
 20
115.6744
 30
0.0
 10
-119.7002
 20
117.0277
 30
0.0
 10
-119.5525
 20
119.3164
 30
0.0
 10
-119.6534
 20
126.4748
 30
0.0
 10
-119.6534
 20
126.4748
 30
0.0
 10
-109.1648
 20
126.7057
 30
0.0
 10
-110.1344
 20
122.785
 30
0.0
 10
-108.8485
 20
117.6811
 30
0.0
 10
-108.8485
 20
117.6811
 30
0.0
 10
-108.7873
 20
117.3892
 30
0.0
 10
-108.6125
 20
117.4163
 30
0.0
 10
-108.6125
 20
117.4163
 30
0.0
 10
-108.6125
 20
117.4163
 30
0.0
 10
-108.6125
 20
117.4163
 30
0.0
 10
-108.4377
 20
117.3892
 30
0.0
 10
-108.3765
 20
117.6811
 30
0.0
 10
-108.3765
 20
117.6811
 30
0.0
 10
-107.0906
 20
122.7851
 30
0.0
 10
-108.0602
 20
126.7057
 30
0.0
 10
-97.5716
 20
126.4748
 30
0.0
 10
-97.5716
 20
126.4748
 30
0.0
 10
-97.6725
 20
119.3164
 30
0.0
 10
-97.5248
 20
117.0277
 30
0.0
 10
-105.5335
 20
115.6744
 30
0.0
 10
-105.5335
 20
115.6744
 30
0.0
 10
-105.7392
 20
115.6396
 30
0.0
 10
-106.3075
 20
115.4305
 30
0.0
 10
-106.2049
 20
115.2764
 30
0.0
 10
-106.2049
 20
115.2764
 30
0.0
 10
-106.3075
 20
115.1223
 30
0.0
 10
-105.7392
 20
114.9131
 30
0.0
 10
-105.5335
 20
114.8783
 30
0.0
 10
-105.5335
 20
114.8783
 30
0.0
 10
-97.5248
 20
113.5251
 30
0.0
 10
-97.6725
 20
111.2363
 30
0.0
 10
-97.5716
 20
104.078
 30
0.0
 10
-97.5716
 20
104.078
 30
0.0
 10
-108.0602
 20
103.847
 30
0.0
 10
-107.0906
 20
107.7678
 30
0.0
 10
-108.3765
 20
112.8717
 30
0.0
 10
-108.3765
 20
112.8717
 30
0.0
 10
-108.4377
 20
113.1636
 30
0.0
 10
-108.6125
 20
113.1364
 30
0.0
 10
-108.6125
 20
113.1364
 30
0.0
 10
-108.6125
 20
113.1364
 30
0.0
 10
-108.6125
 20
113.1364
 30
0.0
 10
-108.7873
 20
113.1636
 30
0.0
 10
-108.8485
 20
112.8717
 30
0.0
  0
SPLINE
  5
53
330
1F
100
AcDbEntity
  8
layer 1
 62
     7
100
AcDbSpline
210
0.0
220
0.0
230
1.0
 70
    11
 71
     3
 72
    28
 73
    24
 74
     0
 42
0.0000000001
 43
0.0000000001
 12
1.0
 22
0.0
 32
0.0
 13
1.0
 23
0.0
 33
0.0
 40
0.0
 40
0.0
 40
0.0
 40
0.0
 40
0.1428571428571428
 40
0.1428571428571428
 40
0.1428571428571428
 40
0.1428571428571428
 40
0.2857142857142857
 40
0.2857142857142857
 40
0.2857142857142857
 40
0.2857142857142857
 40
0.4285714285714285
 40
0.4285714285714285
 40
0.4285714285714285
 40
0.4285714285714285
 40
0.5714285714285714
 40
0.5714285714285714
 40
0.5714285714285714
 40
0.5714285714285714
 40
0.7142857142857143
 40
0.7142857142857143
 40
0.7142857142857143
 40
0.7142857142857143
 40
1.0
 40
1.0
 40
1.0
 40
1.0
 10
-97.7874
 20
99.3951
 30
0.0
 10
-106.1059
 20
99.8144
 30
0.0
 10
-108.6699
 20
95.571
 30
0.0
 10
-108.6945
 20
93.521
 30
0.0
 10
-108.6945
 20
93.521
 30
0.0
 10
-108.7191
 20
95.571
 30
0.0
 10
-111.2831
 20
99.8144
 30
0.0
 10
-119.6016
 20
99.3951
 30
0.0
 10
-119.6016
 20
99.3951
 30
0.0
 10
-119.6016
 20
99.3951
 30
0.0
 10
-119.6016
 20
101.0916
 30
0.0
 10
-119.6016
 20
101.0916
 30
0.0
 10
-119.6016
 20
101.0916
 30
0.0
 10
-111.2831
 20
100.6723
 30
0.0
 10
-108.7191
 20
104.9157
 30
0.0
 10
-108.6945
 20
106.9658
 30
0.0
 10
-108.6945
 20
106.9658
 30
0.0
 10
-108.6699
 20
104.9157
 30
0.0
 10
-106.1059
 20
100.6723
 30
0.0
 10
-97.7874
 20
101.0916
 30
0.0
 10
-97.7874
 20
101.0916
 30
0.0
 10
-97.7874
 20
101.0916
 30
0.0
 10
-97.7874
 20
99.3951
 30
0.0
 10
-97.7874
 20
99.3951
 30
0.0
  0
SPLINE
  5
54
330
1F
100
AcDbEntity
  8
layer 1
 62
     7
100
AcDbSpline
210
0.0
220
0.0
230
1.0
 70
    11
 71
     3
 72
    20
 73
    16
 74
     0
 42
0.0000000001
 43
0.0000000001
 12
1.0
 22
0.0
 32
0.0
 13
1.0
 23
0.0
 33
0.0
 40
0.0
 40
0.0
 40
0.0
 40
0.0
 40
0.2
 40
0.2
 40
0.2
 40
0.2
 40
0.4
 40
0.4
 40
0.4
 40
0.4
 40
0.6
 40
0.6
 40
0.6
 40
0.6
 40
1.0
 40
1.0
 40
1.0
 40
1.0
 10
-96.3551
 20
103.1256
 30
0.0
 10
-96.3551
 20
103.1256
 30
0.0
 10
-90.586
 20
103.1256
 30
0.0
 10
-90.586
 20
103.1256
 30
0.0
 10
-90.586
 20
103.1256
 30
0.0
 10
-90.586
 20
103.1256
 30
0.0
 10
-90.586
 20
97.2951
 30
0.0
 10
-90.586
 20
97.2951
 30
0.0
 10
-90.586
 20
97.2951
 30
0.0
 10
-90.586
 20
97.2951
 30
0.0
 10
-96.3551
 20
97.2951
 30
0.0
 10
-96.3551
 20
97.2951
 30
0.0
 10
-96.3551
 20
97.2951
 30
0.0
 10
-96.3551
 20
97.2951
 30
0.0
 10
-96.3551
 20
103.1256
 30
0.0
 10
-96.3551
 20
103.1256
 30
0.0
  0
SPLINE
  5
55
330
1F
100
AcDbEntity
  8
layer 1
 62
     7
100
AcDbSpline
210
0.0
220
0.0
230
1.0
 70
    11
 71
     3
 72
    28
 73
    24
 74
     0
 42
0.0000000001
 43
0.0000000001
 12
1.0
 22
0.0
 32
0.0
 13
1.0
 23
0.0
 33
0.0
 40
0.0
 40
0.0
 40
0.0
 40
0.0
 40
0.1428571428571428
 40
0.1428571428571428
 40
0.1428571428571428
 40
0.1428571428571428
 40
0.2857142857142857
 40
0.2857142857142857
 40
0.2857142857142857
 40
0.2857142857142857
 40
0.4285714285714285
 40
0.4285714285714285
 40
0.4285714285714285
 40
0.4285714285714285
 40
0.5714285714285714
 40
0.5714285714285714
 40
0.5714285714285714
 40
0.5714285714285714
 40
0.7142857142857143
 40
0.7142857142857143
 40
0.7142857142857143
 40
0.7142857142857143
 40
1.0
 40
1.0
 40
1.0
 40
1.0
 10
-94.279
 20
104.4843
 30
0.0
 10
-93.8597
 20
112.8028
 30
0.0
 10
-98.1031
 20
115.3668
 30
0.0
 10
-100.1532
 20
115.3914
 30
0.0
 10
-100.1532
 20
115.3914
 30
0.0
 10
-98.1031
 20
115.416
 30
0.0
 10
-93.8597
 20
117.9801
 30
0.0
 10
-94.279
 20
126.2985
 30
0.0
 10
-94.279
 20
126.2985
 30
0.0
 10
-94.279
 20
126.2985
 30
0.0
 10
-92.5825
 20
126.2985
 30
0.0
 10
-92.5825
 20
126.2985
 30
0.0
 10
-92.5825
 20
126.2985
 30
0.0
 10
-93.0018
 20
117.98
 30
0.0
 10
-88.7584
 20
115.416
 30
0.0
 10
-86.7084
 20
115.3914
 30
0.0
 10
-86.7084
 20
115.3914
 30
0.0
 10
-88.7584
 20
115.3668
 30
0.0
 10
-93.0018
 20
112.8028
 30
0.0
 10
-92.5825
 20
104.4843
 30
0.0
 10
-92.5825
 20
104.4843
 30
0.0
 10
-92.5825
 20
104.4843
 30
0.0
 10
-94.279
 20
104.4843
 30
0.0
 10
-94.279
 20
104.4843
 30
0.0
  0
SPLINE
  5
56
330
1F
100
AcDbEntity
  8
layer 1
 62
     7
100
AcDbSpline
210
0.0
220
0.0
230
1.0
 70
    11
 71
     3
 72
    68
 73
    64
 74
     0
 42
0.0000000001
 43
0.0000000001
 12
1.0
 22
0.0
 32
0.0
 13
1.0
 23
0.0
 33
0.0
 40
0.0
 40
0.0
 40
0.0
 40
0.0
 40
0.0588235294117647
 40
0.0588235294117647
 40
0.0588235294117647
 40
0.0588235294117647
 40
0.1176470588235294
 40
0.1176470588235294
 40
0.1176470588235294
 40
0.1176470588235294
 40
0.1764705882352941
 40
0.1764705882352941
 40
0.1764705882352941
 40
0.1764705882352941
 40
0.2352941176470588
 40
0.2352941176470588
 40
0.2352941176470588
 40
0.2352941176470588
 40
0.2941176470588235
 40
0.2941176470588235
 40
0.2941176470588235
 40
0.2941176470588235
 40
0.3529411764705883
 40
0.3529411764705883
 40
0.3529411764705883
 40
0.3529411764705883
 40
0.4117647058823529
 40
0.4117647058823529
 40
0.4117647058823529
 40
0.4117647058823529
 40
0.4705882352941176
 40
0.4705882352941176
 40
0.4705882352941176
 40
0.4705882352941176
 40
0.5294117647058824
 40
0.5294117647058824
 40
0.5294117647058824
 40
0.5294117647058824
 40
0.5882352941176471
 40
0.5882352941176471
 40
0.5882352941176471
 40
0.5882352941176471
 40
0.6470588235294118
 40
0.6470588235294118
 40
0.6470588235294118
 40
0.6470588235294118
 40
0.7058823529411765
 40
0.7058823529411765
 40
0.7058823529411765
 40
0.7058823529411765
 40
0.7647058823529411
 40
0.7647058823529411
 40
0.7647058823529411
 40
0.7647058823529411
 40
0.8235294117647058
 40
0.8235294117647058
 40
0.8235294117647058
 40
0.8235294117647058
 40
0.8823529411764706
 40
0.8823529411764706
 40
0.8823529411764706
 40
0.8823529411764706
 40
1.0
 40
1.0
 40
1.0
 40
1.0
 10
-108.8485
 20
82.5574
 30
0.0
 10
-110.1344
 20
77.4534
 30
0.0
 10
-109.1648
 20
73.5327
 30
0.0
 10
-119.6534
 20
73.7637
 30
0.0
 10
-119.6534
 20
73.7637
 30
0.0
 10
-119.5525
 20
80.9221
 30
0.0
 10
-119.7002
 20
83.2108
 30
0.0
 10
-111.6916
 20
84.564
 30
0.0
 10
-111.6916
 20
84.564
 30
0.0
 10
-111.4859
 20
84.5988
 30
0.0
 10
-110.9176
 20
84.808
 30
0.0
 10
-111.0202
 20
84.9621
 30
0.0
 10
-111.0202
 20
84.9621
 30
0.0
 10
-110.9176
 20
85.1162
 30
0.0
 10
-111.4859
 20
85.3253
 30
0.0
 10
-111.6916
 20
85.3601
 30
0.0
 10
-111.6916
 20
85.3601
 30
0.0
 10
-119.7002
 20
86.7134
 30
0.0
 10
-119.5525
 20
89.0021
 30
0.0
 10
-119.6534
 20
96.1605
 30
0.0
 10
-119.6534
 20
96.1605
 30
0.0
 10
-109.1648
 20
96.3914
 30
0.0
 10
-110.1344
 20
92.4707
 30
0.0
 10
-108.8485
 20
87.3667
 30
0.0
 10
-108.8485
 20
87.3667
 30
0.0
 10
-108.7873
 20
87.0749
 30
0.0
 10
-108.6125
 20
87.102
 30
0.0
 10
-108.6125
 20
87.102
 30
0.0
 10
-108.6125
 20
87.102
 30
0.0
 10
-108.6125
 20
87.102
 30
0.0
 10
-108.4377
 20
87.0749
 30
0.0
 10
-108.3765
 20
87.3667
 30
0.0
 10
-108.3765
 20
87.3667
 30
0.0
 10
-107.0906
 20
92.4707
 30
0.0
 10
-108.0602
 20
96.3914
 30
0.0
 10
-97.5716
 20
96.1605
 30
0.0
 10
-97.5716
 20
96.1605
 30
0.0
 10
-97.6725
 20
89.0021
 30
0.0
 10
-97.5248
 20
86.7134
 30
0.0
 10
-105.5335
 20
85.3601
 30
0.0
 10
-105.5335
 20
85.3601
 30
0.0
 10
-105.7392
 20
85.3253
 30
0.0
 10
-106.3075
 20
85.1162
 30
0.0
 10
-106.2049
 20
84.9621
 30
0.0
 10
-106.2049
 20
84.9621
 30
0.0
 10
-106.3075
 20
84.808
 30
0.0
 10
-105.7392
 20
84.5988
 30
0.0
 10
-105.5335
 20
84.564
 30
0.0
 10
-105.5335
 20
84.564
 30
0.0
 10
-97.5248
 20
83.2108
 30
0.0
 10
-97.6725
 20
80.922
 30
0.0
 10
-97.5716
 20
73.7637
 30
0.0
 10
-97.5716
 20
73.7637
 30
0.0
 10
-108.0602
 20
73.5327
 30
0.0
 10
-107.0906
 20
77.4534
 30
0.0
 10
-108.3765
 20
82.5574
 30
0.0
 10
-108.3765
 20
82.5574
 30
0.0
 10
-108.4377
 20
82.8493
 30
0.0
 10
-108.6125
 20
82.8221
 30
0.0
 10
-108.6125
 20
82.8221
 30
0.0
 10
-108.6125
 20
82.8221
 30
0.0
 10
-108.6125
 20
82.8221
 30
0.0
 10
-108.7873
 20
82.8493
 30
0.0
 10
-108.8485
 20
82.5574
 30
0.0
  0
SPLINE
  5
57
330
1F
100
AcDbEntity
  8
layer 1
 62
     7
100
AcDbSpline
210
0.0
220
0.0
230
1.0
 70
    11
 71
     3
 72
    28
 73
    24
 74
     0
 42
0.0000000001
 43
0.0000000001
 12
1.0
 22
0.0
 32
0.0
 13
1.0
 23
0.0
 33
0.0
 40
0.0
 40
0.0
 40
0.0
 40
0.0
 40
0.1428571428571428
 40
0.1428571428571428
 40
0.1428571428571428
 40
0.1428571428571428
 40
0.2857142857142857
 40
0.2857142857142857
 40
0.2857142857142857
 40
0.2857142857142857
 40
0.4285714285714285
 40
0.4285714285714285
 40
0.4285714285714285
 40
0.4285714285714285
 40
0.5714285714285714
 40
0.5714285714285714
 40
0.5714285714285714
 40
0.5714285714285714
 40
0.7142857142857143
 40
0.7142857142857143
 40
0.7142857142857143
 40
0.7142857142857143
 40
1.0
 40
1.0
 40
1.0
 40
1.0
 10
-97.7874
 20
69.0808
 30
0.0
 10
-106.1059
 20
69.5001
 30
0.0
 10
-108.6699
 20
65.2567
 30
0.0
 10
-108.6945
 20
63.2067
 30
0.0
 10
-108.6945
 20
63.2067
 30
0.0
 10
-108.7191
 20
65.2567
 30
0.0
 10
-111.2831
 20
69.5001
 30
0.0
 10
-119.6016
 20
69.0808
 30
0.0
 10
-119.6016
 20
69.0808
 30
0.0
 10
-119.6016
 20
69.0808
 30
0.0
 10
-119.6016
 20
70.7773
 30
0.0
 10
-119.6016
 20
70.7773
 30
0.0
 10
-119.6016
 20
70.7773
 30
0.0
 10
-111.2831
 20
70.358
 30
0.0
 10
-108.7191
 20
74.6014
 30
0.0
 10
-108.6945
 20
76.6515
 30
0.0
 10
-108.6945
 20
76.6515
 30
0.0
 10
-108.6699
 20
74.6014
 30
0.0
 10
-106.1059
 20
70.358
 30
0.0
 10
-97.7874
 20
70.7773
 30
0.0
 10
-97.7874
 20
70.7773
 30
0.0
 10
-97.7874
 20
70.7773
 30
0.0
 10
-97.7874
 20
69.0808
 30
0.0
 10
-97.7874
 20
69.0808
 30
0.0
  0
SPLINE
  5
58
330
1F
100
AcDbEntity
  8
layer 1
 62
     7
100
AcDbSpline
210
0.0
220
0.0
230
1.0
 70
    11
 71
     3
 72
    20
 73
    16
 74
     0
 42
0.0000000001
 43
0.0000000001
 12
1.0
 22
0.0
 32
0.0
 13
1.0
 23
0.0
 33
0.0
 40
0.0
 40
0.0
 40
0.0
 40
0.0
 40
0.2
 40
0.2
 40
0.2
 40
0.2
 40
0.4
 40
0.4
 40
0.4
 40
0.4
 40
0.6
 40
0.6
 40
0.6
 40
0.6
 40
1.0
 40
1.0
 40
1.0
 40
1.0
 10
-96.3551
 20
72.8113
 30
0.0
 10
-96.3551
 20
72.8113
 30
0.0
 10
-90.586
 20
72.8113
 30
0.0
 10
-90.586
 20
72.8113
 30
0.0
 10
-90.586
 20
72.8113
 30
0.0
 10
-90.586
 20
72.8113
 30
0.0
 10
-90.586
 20
66.9808
 30
0.0
 10
-90.586
 20
66.9808
 30
0.0
 10
-90.586
 20
66.9808
 30
0.0
 10
-90.586
 20
66.9808
 30
0.0
 10
-96.3551
 20
66.9808
 30
0.0
 10
-96.3551
 20
66.9808
 30
0.0
 10
-96.3551
 20
66.9808
 30
0.0
 10
-96.3551
 20
66.9808
 30
0.0
 10
-96.3551
 20
72.8113
 30
0.0
 10
-96.3551
 20
72.8113
 30
0.0
  0
SPLINE
  5
59
330
1F
100
AcDbEntity
  8
layer 1
 62
     7
100
AcDbSpline
210
0.0
220
0.0
230
1.0
 70
    11
 71
     3
 72
    28
 73
    24
 74
     0
 42
0.0000000001
 43
0.0000000001
 12
1.0
 22
0.0
 32
0.0
 13
1.0
 23
0.0
 33
0.0
 40
0.0
 40
0.0
 40
0.0
 40
0.0
 40
0.1428571428571428
 40
0.1428571428571428
 40
0.1428571428571428
 40
0.1428571428571428
 40
0.2857142857142857
 40
0.2857142857142857
 40
0.2857142857142857
 40
0.2857142857142857
 40
0.4285714285714285
 40
0.4285714285714285
 40
0.4285714285714285
 40
0.4285714285714285
 40
0.5714285714285714
 40
0.5714285714285714
 40
0.5714285714285714
 40
0.5714285714285714
 40
0.7142857142857143
 40
0.7142857142857143
 40
0.7142857142857143
 40
0.7142857142857143
 40
1.0
 40
1.0
 40
1.0
 40
1.0
 10
-94.279
 20
74.17
 30
0.0
 10
-93.8597
 20
82.4885
 30
0.0
 10
-98.1031
 20
85.0525
 30
0.0
 10
-100.1532
 20
85.0771
 30
0.0
 10
-100.1532
 20
85.0771
 30
0.0
 10
-98.1031
 20
85.1017
 30
0.0
 10
-93.8597
 20
87.6658
 30
0.0
 10
-94.279
 20
95.9842
 30
0.0
 10
-94.279
 20
95.9842
 30
0.0
 10
-94.279
 20
95.9842
 30
0.0
 10
-92.5825
 20
95.9842
 30
0.0
 10
-92.5825
 20
95.9842
 30
0.0
 10
-92.5825
 20
95.9842
 30
0.0
 10
-93.0018
 20
87.6657
 30
0.0
 10
-88.7584
 20
85.1017
 30
0.0
 10
-86.7084
 20
85.0771
 30
0.0
 10
-86.7084
 20
85.0771
 30
0.0
 10
-88.7584
 20
85.0525
 30
0.0
 10
-93.0018
 20
82.4885
 30
0.0
 10
-92.5825
 20
74.17
 30
0.0
 10
-92.5825
 20
74.17
 30
0.0
 10
-92.5825
 20
74.17
 30
0.0
 10
-94.279
 20
74.17
 30
0.0
 10
-94.279
 20
74.17
 30
0.0
  0
SPLINE
  5
5A
330
1F
100
AcDbEntity
  8
layer 1
 62
     7
100
AcDbSpline
210
0.0
220
0.0
230
1.0
 70
    11
 71
     3
 72
    68
 73
    64
 74
     0
 42
0.0000000001
 43
0.0000000001
 12
1.0
 22
0.0
 32
0.0
 13
1.0
 23
0.0
 33
0.0
 40
0.0
 40
0.0
 40
0.0
 40
0.0
 40
0.0588235294117647
 40
0.0588235294117647
 40
0.0588235294117647
 40
0.0588235294117647
 40
0.1176470588235294
 40
0.1176470588235294
 40
0.1176470588235294
 40
0.1176470588235294
 40
0.1764705882352941
 40
0.1764705882352941
 40
0.1764705882352941
 40
0.1764705882352941
 40
0.2352941176470588
 40
0.2352941176470588
 40
0.2352941176470588
 40
0.2352941176470588
 40
0.2941176470588235
 40
0.2941176470588235
 40
0.2941176470588235
 40
0.2941176470588235
 40
0.3529411764705883
 40
0.3529411764705883
 40
0.3529411764705883
 40
0.3529411764705883
 40
0.4117647058823529
 40
0.4117647058823529
 40
0.4117647058823529
 40
0.4117647058823529
 40
0.4705882352941176
 40
0.4705882352941176
 40
0.4705882352941176
 40
0.4705882352941176
 40
0.5294117647058824
 40
0.5294117647058824
 40
0.5294117647058824
 40
0.5294117647058824
 40
0.5882352941176471
 40
0.5882352941176471
 40
0.5882352941176471
 40
0.5882352941176471
 40
0.6470588235294118
 40
0.6470588235294118
 40
0.6470588235294118
 40
0.6470588235294118
 40
0.7058823529411765
 40
0.7058823529411765
 40
0.7058823529411765
 40
0.7058823529411765
 40
0.7647058823529411
 40
0.7647058823529411
 40
0.7647058823529411
 40
0.7647058823529411
 40
0.8235294117647058
 40
0.8235294117647058
 40
0.8235294117647058
 40
0.8235294117647058
 40
0.8823529411764706
 40
0.8823529411764706
 40
0.8823529411764706
 40
0.8823529411764706
 40
1.0
 40
1.0
 40
1.0
 40
1.0
 10
-78.5867
 20
112.8717
 30
0.0
 10
-79.8726
 20
107.7677
 30
0.0
 10
-78.903
 20
103.847
 30
0.0
 10
-89.3916
 20
104.078
 30
0.0
 10
-89.3916
 20
104.078
 30
0.0
 10
-89.2907
 20
111.2364
 30
0.0
 10
-89.4384
 20
113.5251
 30
0.0
 10
-81.4297
 20
114.8783
 30
0.0
 10
-81.4297
 20
114.8783
 30
0.0
 10
-81.224
 20
114.9131
 30
0.0
 10
-80.6557
 20
115.1223
 30
0.0
 10
-80.7583
 20
115.2764
 30
0.0
 10
-80.7583
 20
115.2764
 30
0.0
 10
-80.6557
 20
115.4305
 30
0.0
 10
-81.224
 20
115.6396
 30
0.0
 10
-81.4297
 20
115.6744
 30
0.0
 10
-81.4297
 20
115.6744
 30
0.0
 10
-89.4384
 20
117.0277
 30
0.0
 10
-89.2907
 20
119.3164
 30
0.0
 10
-89.3916
 20
126.4748
 30
0.0
 10
-89.3916
 20
126.4748
 30
0.0
 10
-78.903
 20
126.7057
 30
0.0
 10
-79.8726
 20
122.785
 30
0.0
 10
-78.5867
 20
117.6811
 30
0.0
 10
-78.5867
 20
117.6811
 30
0.0
 10
-78.5254
 20
117.3892
 30
0.0
 10
-78.3507
 20
117.4163
 30
0.0
 10
-78.3507
 20
117.4163
 30
0.0
 10
-78.3507
 20
117.4163
 30
0.0
 10
-78.3507
 20
117.4163
 30
0.0
 10
-78.1759
 20
117.3892
 30
0.0
 10
-78.1147
 20
117.6811
 30
0.0
 10
-78.1147
 20
117.6811
 30
0.0
 10
-76.8288
 20
122.7851
 30
0.0
 10
-77.7984
 20
126.7057
 30
0.0
 10
-67.3097
 20
126.4748
 30
0.0
 10
-67.3097
 20
126.4748
 30
0.0
 10
-67.4106
 20
119.3164
 30
0.0
 10
-67.263
 20
117.0277
 30
0.0
 10
-75.2716
 20
115.6744
 30
0.0
 10
-75.2716
 20
115.6744
 30
0.0
 10
-75.4773
 20
115.6396
 30
0.0
 10
-76.0456
 20
115.4305
 30
0.0
 10
-75.943
 20
115.2764
 30
0.0
 10
-75.943
 20
115.2764
 30
0.0
 10
-76.0456
 20
115.1223
 30
0.0
 10
-75.4773
 20
114.9131
 30
0.0
 10
-75.2716
 20
114.8783
 30
0.0
 10
-75.2716
 20
114.8783
 30
0.0
 10
-67.263
 20
113.5251
 30
0.0
 10
-67.4106
 20
111.2363
 30
0.0
 10
-67.3097
 20
104.078
 30
0.0
 10
-67.3097
 20
104.078
 30
0.0
 10
-77.7984
 20
103.847
 30
0.0
 10
-76.8288
 20
107.7678
 30
0.0
 10
-78.1147
 20
112.8717
 30
0.0
 10
-78.1147
 20
112.8717
 30
0.0
 10
-78.1759
 20
113.1636
 30
0.0
 10
-78.3507
 20
113.1364
 30
0.0
 10
-78.3507
 20
113.1364
 30
0.0
 10
-78.3507
 20
113.1364
 30
0.0
 10
-78.3507
 20
113.1364
 30
0.0
 10
-78.5254
 20
113.1636
 30
0.0
 10
-78.5867
 20
112.8717
 30
0.0
  0
SPLINE
  5
5B
330
1F
100
AcDbEntity
  8
layer 1
 62
     7
100
AcDbSpline
210
0.0
220
0.0
230
1.0
 70
    11
 71
     3
 72
    28
 73
    24
 74
     0
 42
0.0000000001
 43
0.0000000001
 12
1.0
 22
0.0
 32
0.0
 13
1.0
 23
0.0
 33
0.0
 40
0.0
 40
0.0
 40
0.0
 40
0.0
 40
0.1428571428571428
 40
0.1428571428571428
 40
0.1428571428571428
 40
0.1428571428571428
 40
0.2857142857142857
 40
0.2857142857142857
 40
0.2857142857142857
 40
0.2857142857142857
 40
0.4285714285714285
 40
0.4285714285714285
 40
0.4285714285714285
 40
0.4285714285714285
 40
0.5714285714285714
 40
0.5714285714285714
 40
0.5714285714285714
 40
0.5714285714285714
 40
0.7142857142857143
 40
0.7142857142857143
 40
0.7142857142857143
 40
0.7142857142857143
 40
1.0
 40
1.0
 40
1.0
 40
1.0
 10
-67.5255
 20
99.3951
 30
0.0
 10
-75.8441
 20
99.8144
 30
0.0
 10
-78.4081
 20
95.571
 30
0.0
 10
-78.4327
 20
93.521
 30
0.0
 10
-78.4327
 20
93.521
 30
0.0
 10
-78.4573
 20
95.571
 30
0.0
 10
-81.0213
 20
99.8144
 30
0.0
 10
-89.3398
 20
99.3951
 30
0.0
 10
-89.3398
 20
99.3951
 30
0.0
 10
-89.3398
 20
99.3951
 30
0.0
 10
-89.3398
 20
101.0916
 30
0.0
 10
-89.3398
 20
101.0916
 30
0.0
 10
-89.3398
 20
101.0916
 30
0.0
 10
-81.0213
 20
100.6723
 30
0.0
 10
-78.4573
 20
104.9157
 30
0.0
 10
-78.4327
 20
106.9658
 30
0.0
 10
-78.4327
 20
106.9658
 30
0.0
 10
-78.4081
 20
104.9157
 30
0.0
 10
-75.8441
 20
100.6723
 30
0.0
 10
-67.5255
 20
101.0916
 30
0.0
 10
-67.5255
 20
101.0916
 30
0.0
 10
-67.5255
 20
101.0916
 30
0.0
 10
-67.5255
 20
99.3951
 30
0.0
 10
-67.5255
 20
99.3951
 30
0.0
  0
SPLINE
  5
5C
330
1F
100
AcDbEntity
  8
layer 1
 62
     7
100
AcDbSpline
210
0.0
220
0.0
230
1.0
 70
    11
 71
     3
 72
    20
 73
    16
 74
     0
 42
0.0000000001
 43
0.0000000001
 12
1.0
 22
0.0
 32
0.0
 13
1.0
 23
0.0
 33
0.0
 40
0.0
 40
0.0
 40
0.0
 40
0.0
 40
0.2
 40
0.2
 40
0.2
 40
0.2
 40
0.4
 40
0.4
 40
0.4
 40
0.4
 40
0.6
 40
0.6
 40
0.6
 40
0.6
 40
1.0
 40
1.0
 40
1.0
 40
1.0
 10
-66.0934
 20
103.1256
 30
0.0
 10
-66.0934
 20
103.1256
 30
0.0
 10
-60.3243
 20
103.1256
 30
0.0
 10
-60.3243
 20
103.1256
 30
0.0
 10
-60.3243
 20
103.1256
 30
0.0
 10
-60.3243
 20
103.1256
 30
0.0
 10
-60.3243
 20
97.2951
 30
0.0
 10
-60.3243
 20
97.2951
 30
0.0
 10
-60.3243
 20
97.2951
 30
0.0
 10
-60.3243
 20
97.2951
 30
0.0
 10
-66.0934
 20
97.2951
 30
0.0
 10
-66.0934
 20
97.2951
 30
0.0
 10
-66.0934
 20
97.2951
 30
0.0
 10
-66.0934
 20
97.2951
 30
0.0
 10
-66.0934
 20
103.1256
 30
0.0
 10
-66.0934
 20
103.1256
 30
0.0
  0
SPLINE
  5
5D
330
1F
100
AcDbEntity
  8
layer 1
 62
     7
100
AcDbSpline
210
0.0
220
0.0
230
1.0
 70
    11
 71
     3
 72
    28
 73
    24
 74
     0
 42
0.0000000001
 43
0.0000000001
 12
1.0
 22
0.0
 32
0.0
 13
1.0
 23
0.0
 33
0.0
 40
0.0
 40
0.0
 40
0.0
 40
0.0
 40
0.1428571428571428
 40
0.1428571428571428
 40
0.1428571428571428
 40
0.1428571428571428
 40
0.2857142857142857
 40
0.2857142857142857
 40
0.2857142857142857
 40
0.2857142857142857
 40
0.4285714285714285
 40
0.4285714285714285
 40
0.4285714285714285
 40
0.4285714285714285
 40
0.5714285714285714
 40
0.5714285714285714
 40
0.5714285714285714
 40
0.5714285714285714
 40
0.7142857142857143
 40
0.7142857142857143
 40
0.7142857142857143
 40
0.7142857142857143
 40
1.0
 40
1.0
 40
1.0
 40
1.0
 10
-64.0172
 20
104.4843
 30
0.0
 10
-63.5979
 20
112.8028
 30
0.0
 10
-67.8413
 20
115.3668
 30
0.0
 10
-69.8913
 20
115.3914
 30
0.0
 10
-69.8913
 20
115.3914
 30
0.0
 10
-67.8413
 20
115.416
 30
0.0
 10
-63.5979
 20
117.9801
 30
0.0
 10
-64.0172
 20
126.2985
 30
0.0
 10
-64.0172
 20
126.2985
 30
0.0
 10
-64.0172
 20
126.2985
 30
0.0
 10
-62.3207
 20
126.2985
 30
0.0
 10
-62.3207
 20
126.2985
 30
0.0
 10
-62.3207
 20
126.2985
 30
0.0
 10
-62.74
 20
117.98
 30
0.0
 10
-58.4966
 20
115.416
 30
0.0
 10
-56.4465
 20
115.3914
 30
0.0
 10
-56.4465
 20
115.3914
 30
0.0
 10
-58.4966
 20
115.3668
 30
0.0
 10
-62.74
 20
112.8028
 30
0.0
 10
-62.3207
 20
104.4843
 30
0.0
 10
-62.3207
 20
104.4843
 30
0.0
 10
-62.3207
 20
104.4843
 30
0.0
 10
-64.0172
 20
104.4843
 30
0.0
 10
-64.0172
 20
104.4843
 30
0.0
  0
SPLINE
  5
5E
330
1F
100
AcDbEntity
  8
layer 1
 62
     7
100
AcDbSpline
210
0.0
220
0.0
230
1.0
 70
    11
 71
     3
 72
    68
 73
    64
 74
     0
 42
0.0000000001
 43
0.0000000001
 12
1.0
 22
0.0
 32
0.0
 13
1.0
 23
0.0
 33
0.0
 40
0.0
 40
0.0
 40
0.0
 40
0.0
 40
0.0588235294117647
 40
0.0588235294117647
 40
0.0588235294117647
 40
0.0588235294117647
 40
0.1176470588235294
 40
0.1176470588235294
 40
0.1176470588235294
 40
0.1176470588235294
 40
0.1764705882352941
 40
0.1764705882352941
 40
0.1764705882352941
 40
0.1764705882352941
 40
0.2352941176470588
 40
0.2352941176470588
 40
0.2352941176470588
 40
0.2352941176470588
 40
0.2941176470588235
 40
0.2941176470588235
 40
0.2941176470588235
 40
0.2941176470588235
 40
0.3529411764705883
 40
0.3529411764705883
 40
0.3529411764705883
 40
0.3529411764705883
 40
0.4117647058823529
 40
0.4117647058823529
 40
0.4117647058823529
 40
0.4117647058823529
 40
0.4705882352941176
 40
0.4705882352941176
 40
0.4705882352941176
 40
0.4705882352941176
 40
0.5294117647058824
 40
0.5294117647058824
 40
0.5294117647058824
 40
0.5294117647058824
 40
0.5882352941176471
 40
0.5882352941176471
 40
0.5882352941176471
 40
0.5882352941176471
 40
0.6470588235294118
 40
0.6470588235294118
 40
0.6470588235294118
 40
0.6470588235294118
 40
0.7058823529411765
 40
0.7058823529411765
 40
0.7058823529411765
 40
0.7058823529411765
 40
0.7647058823529411
 40
0.7647058823529411
 40
0.7647058823529411
 40
0.7647058823529411
 40
0.8235294117647058
 40
0.8235294117647058
 40
0.8235294117647058
 40
0.8235294117647058
 40
0.8823529411764706
 40
0.8823529411764706
 40
0.8823529411764706
 40
0.8823529411764706
 40
1.0
 40
1.0
 40
1.0
 40
1.0
 10
-78.5867
 20
82.5574
 30
0.0
 10
-79.8726
 20
77.4534
 30
0.0
 10
-78.903
 20
73.5327
 30
0.0
 10
-89.3916
 20
73.7637
 30
0.0
 10
-89.3916
 20
73.7637
 30
0.0
 10
-89.2907
 20
80.9221
 30
0.0
 10
-89.4384
 20
83.2108
 30
0.0
 10
-81.4297
 20
84.564
 30
0.0
 10
-81.4297
 20
84.564
 30
0.0
 10
-81.224
 20
84.5988
 30
0.0
 10
-80.6557
 20
84.808
 30
0.0
 10
-80.7583
 20
84.9621
 30
0.0
 10
-80.7583
 20
84.9621
 30
0.0
 10
-80.6557
 20
85.1162
 30
0.0
 10
-81.224
 20
85.3253
 30
0.0
 10
-81.4297
 20
85.3601
 30
0.0
 10
-81.4297
 20
85.3601
 30
0.0
 10
-89.4384
 20
86.7134
 30
0.0
 10
-89.2907
 20
89.0021
 30
0.0
 10
-89.3916
 20
96.1605
 30
0.0
 10
-89.3916
 20
96.1605
 30
0.0
 10
-78.903
 20
96.3914
 30
0.0
 10
-79.8726
 20
92.4707
 30
0.0
 10
-78.5867
 20
87.3667
 30
0.0
 10
-78.5867
 20
87.3667
 30
0.0
 10
-78.5254
 20
87.0749
 30
0.0
 10
-78.3507
 20
87.102
 30
0.0
 10
-78.3507
 20
87.102
 30
0.0
 10
-78.3507
 20
87.102
 30
0.0
 10
-78.3507
 20
87.102
 30
0.0
 10
-78.1759
 20
87.0749
 30
0.0
 10
-78.1147
 20
87.3667
 30
0.0
 10
-78.1147
 20
87.3667
 30
0.0
 10
-76.8288
 20
92.4707
 30
0.0
 10
-77.7984
 20
96.3914
 30
0.0
 10
-67.3097
 20
96.1605
 30
0.0
 10
-67.3097
 20
96.1605
 30
0.0
 10
-67.4106
 20
89.0021
 30
0.0
 10
-67.263
 20
86.7134
 30
0.0
 10
-75.2716
 20
85.3601
 30
0.0
 10
-75.2716
 20
85.3601
 30
0.0
 10
-75.4773
 20
85.3253
 30
0.0
 10
-76.0456
 20
85.1162
 30
0.0
 10
-75.943
 20
84.9621
 30
0.0
 10
-75.943
 20
84.9621
 30
0.0
 10
-76.0456
 20
84.808
 30
0.0
 10
-75.4773
 20
84.5988
 30
0.0
 10
-75.2716
 20
84.564
 30
0.0
 10
-75.2716
 20
84.564
 30
0.0
 10
-67.263
 20
83.2108
 30
0.0
 10
-67.4106
 20
80.922
 30
0.0
 10
-67.3097
 20
73.7637
 30
0.0
 10
-67.3097
 20
73.7637
 30
0.0
 10
-77.7984
 20
73.5327
 30
0.0
 10
-76.8288
 20
77.4534
 30
0.0
 10
-78.1147
 20
82.5574
 30
0.0
 10
-78.1147
 20
82.5574
 30
0.0
 10
-78.1759
 20
82.8493
 30
0.0
 10
-78.3507
 20
82.8221
 30
0.0
 10
-78.3507
 20
82.8221
 30
0.0
 10
-78.3507
 20
82.8221
 30
0.0
 10
-78.3507
 20
82.8221
 30
0.0
 10
-78.5254
 20
82.8493
 30
0.0
 10
-78.5867
 20
82.5574
 30
0.0
  0
SPLINE
  5
5F
330
1F
100
AcDbEntity
  8
layer 1
 62
     7
100
AcDbSpline
210
0.0
220
0.0
230
1.0
 70
    11
 71
     3
 72
    28
 73
    24
 74
     0
 42
0.0000000001
 43
0.0000000001
 12
1.0
 22
0.0
 32
0.0
 13
1.0
 23
0.0
 33
0.0
 40
0.0
 40
0.0
 40
0.0
 40
0.0
 40
0.1428571428571428
 40
0.1428571428571428
 40
0.1428571428571428
 40
0.1428571428571428
 40
0.2857142857142857
 40
0.2857142857142857
 40
0.2857142857142857
 40
0.2857142857142857
 40
0.4285714285714285
 40
0.4285714285714285
 40
0.4285714285714285
 40
0.4285714285714285
 40
0.5714285714285714
 40
0.5714285714285714
 40
0.5714285714285714
 40
0.5714285714285714
 40
0.7142857142857143
 40
0.7142857142857143
 40
0.7142857142857143
 40
0.7142857142857143
 40
1.0
 40
1.0
 40
1.0
 40
1.0
 10
-67.5255
 20
69.0808
 30
0.0
 10
-75.8441
 20
69.5001
 30
0.0
 10
-78.4081
 20
65.2567
 30
0.0
 10
-78.4327
 20
63.2067
 30
0.0
 10
-78.4327
 20
63.2067
 30
0.0
 10
-78.4573
 20
65.2567
 30
0.0
 10
-81.0213
 20
69.5001
 30
0.0
 10
-89.3398
 20
69.0808
 30
0.0
 10
-89.3398
 20
69.0808
 30
0.0
 10
-89.3398
 20
69.0808
 30
0.0
 10
-89.3398
 20
70.7773
 30
0.0
 10
-89.3398
 20
70.7773
 30
0.0
 10
-89.3398
 20
70.7773
 30
0.0
 10
-81.0213
 20
70.358
 30
0.0
 10
-78.4573
 20
74.6014
 30
0.0
 10
-78.4327
 20
76.6515
 30
0.0
 10
-78.4327
 20
76.6515
 30
0.0
 10
-78.4081
 20
74.6014
 30
0.0
 10
-75.8441
 20
70.358
 30
0.0
 10
-67.5255
 20
70.7773
 30
0.0
 10
-67.5255
 20
70.7773
 30
0.0
 10
-67.5255
 20
70.7773
 30
0.0
 10
-67.5255
 20
69.0808
 30
0.0
 10
-67.5255
 20
69.0808
 30
0.0
  0
SPLINE
  5
60
330
1F
100
AcDbEntity
  8
layer 1
 62
     7
100
AcDbSpline
210
0.0
220
0.0
230
1.0
 70
    11
 71
     3
 72
    20
 73
    16
 74
     0
 42
0.0000000001
 43
0.0000000001
 12
1.0
 22
0.0
 32
0.0
 13
1.0
 23
0.0
 33
0.0
 40
0.0
 40
0.0
 40
0.0
 40
0.0
 40
0.2
 40
0.2
 40
0.2
 40
0.2
 40
0.4
 40
0.4
 40
0.4
 40
0.4
 40
0.6
 40
0.6
 40
0.6
 40
0.6
 40
1.0
 40
1.0
 40
1.0
 40
1.0
 10
-66.0934
 20
72.8113
 30
0.0
 10
-66.0934
 20
72.8113
 30
0.0
 10
-60.3243
 20
72.8113
 30
0.0
 10
-60.3243
 20
72.8113
 30
0.0
 10
-60.3243
 20
72.8113
 30
0.0
 10
-60.3243
 20
72.8113
 30
0.0
 10
-60.3243
 20
66.9808
 30
0.0
 10
-60.3243
 20
66.9808
 30
0.0
 10
-60.3243
 20
66.9808
 30
0.0
 10
-60.3243
 20
66.9808
 30
0.0
 10
-66.0934
 20
66.9808
 30
0.0
 10
-66.0934
 20
66.9808
 30
0.0
 10
-66.0934
 20
66.9808
 30
0.0
 10
-66.0934
 20
66.9808
 30
0.0
 10
-66.0934
 20
72.8113
 30
0.0
 10
-66.0934
 20
72.8113
 30
0.0
  0
SPLINE
  5
61
330
1F
100
AcDbEntity
  8
layer 1
 62
     7
100
AcDbSpline
210
0.0
220
0.0
230
1.0
 70
    11
 71
     3
 72
    28
 73
    24
 74
     0
 42
0.0000000001
 43
0.0000000001
 12
1.0
 22
0.0
 32
0.0
 13
1.0
 23
0.0
 33
0.0
 40
0.0
 40
0.0
 40
0.0
 40
0.0
 40
0.1428571428571428
 40
0.1428571428571428
 40
0.1428571428571428
 40
0.1428571428571428
 40
0.2857142857142857
 40
0.2857142857142857
 40
0.2857142857142857
 40
0.2857142857142857
 40
0.4285714285714285
 40
0.4285714285714285
 40
0.4285714285714285
 40
0.4285714285714285
 40
0.5714285714285714
 40
0.5714285714285714
 40
0.5714285714285714
 40
0.5714285714285714
 40
0.7142857142857143
 40
0.7142857142857143
 40
0.7142857142857143
 40
0.7142857142857143
 40
1.0
 40
1.0
 40
1.0
 40
1.0
 10
-64.0172
 20
74.17
 30
0.0
 10
-63.5979
 20
82.4885
 30
0.0
 10
-67.8413
 20
85.0525
 30
0.0
 10
-69.8913
 20
85.0771
 30
0.0
 10
-69.8913
 20
85.0771
 30
0.0
 10
-67.8413
 20
85.1017
 30
0.0
 10
-63.5979
 20
87.6658
 30
0.0
 10
-64.0172
 20
95.9842
 30
0.0
 10
-64.0172
 20
95.9842
 30
0.0
 10
-64.0172
 20
95.9842
 30
0.0
 10
-62.3207
 20
95.9842
 30
0.0
 10
-62.3207
 20
95.9842
 30
0.0
 10
-62.3207
 20
95.9842
 30
0.0
 10
-62.74
 20
87.6657
 30
0.0
 10
-58.4966
 20
85.1017
 30
0.0
 10
-56.4465
 20
85.0771
 30
0.0
 10
-56.4465
 20
85.0771
 30
0.0
 10
-58.4966
 20
85.0525
 30
0.0
 10
-62.74
 20
82.4885
 30
0.0
 10
-62.3207
 20
74.17
 30
0.0
 10
-62.3207
 20
74.17
 30
0.0
 10
-62.3207
 20
74.17
 30
0.0
 10
-64.0172
 20
74.17
 30
0.0
 10
-64.0172
 20
74.17
 30
0.0
  0
SPLINE
  5
62
330
1F
100
AcDbEntity
  8
layer 1
 62
     7
100
AcDbSpline
210
0.0
220
0.0
230
1.0
 70
    11
 71
     3
 72
    68
 73
    64
 74
     0
 42
0.0000000001
 43
0.0000000001
 12
1.0
 22
0.0
 32
0.0
 13
1.0
 23
0.0
 33
0.0
 40
0.0
 40
0.0
 40
0.0
 40
0.0
 40
0.0588235294117647
 40
0.0588235294117647
 40
0.0588235294117647
 40
0.0588235294117647
 40
0.1176470588235294
 40
0.1176470588235294
 40
0.1176470588235294
 40
0.1176470588235294
 40
0.1764705882352941
 40
0.1764705882352941
 40
0.1764705882352941
 40
0.1764705882352941
 40
0.2352941176470588
 40
0.2352941176470588
 40
0.2352941176470588
 40
0.2352941176470588
 40
0.2941176470588235
 40
0.2941176470588235
 40
0.2941176470588235
 40
0.2941176470588235
 40
0.3529411764705883
 40
0.3529411764705883
 40
0.3529411764705883
 40
0.3529411764705883
 40
0.4117647058823529
 40
0.4117647058823529
 40
0.4117647058823529
 40
0.4117647058823529
 40
0.4705882352941176
 40
0.4705882352941176
 40
0.4705882352941176
 40
0.4705882352941176
 40
0.5294117647058824
 40
0.5294117647058824
 40
0.5294117647058824
 40
0.5294117647058824
 40
0.5882352941176471
 40
0.5882352941176471
 40
0.5882352941176471
 40
0.5882352941176471
 40
0.6470588235294118
 40
0.6470588235294118
 40
0.6470588235294118
 40
0.6470588235294118
 40
0.7058823529411765
 40
0.7058823529411765
 40
0.7058823529411765
 40
0.7058823529411765
 40
0.7647058823529411
 40
0.7647058823529411
 40
0.7647058823529411
 40
0.7647058823529411
 40
0.8235294117647058
 40
0.8235294117647058
 40
0.8235294117647058
 40
0.8235294117647058
 40
0.8823529411764706
 40
0.8823529411764706
 40
0.8823529411764706
 40
0.8823529411764706
 40
1.0
 40
1.0
 40
1.0
 40
1.0
 10
-48.3249
 20
112.8717
 30
0.0
 10
-49.6108
 20
107.7677
 30
0.0
 10
-48.6412
 20
103.847
 30
0.0
 10
-59.1298
 20
104.078
 30
0.0
 10
-59.1298
 20
104.078
 30
0.0
 10
-59.0289
 20
111.2364
 30
0.0
 10
-59.1766
 20
113.5251
 30
0.0
 10
-51.168
 20
114.8783
 30
0.0
 10
-51.168
 20
114.8783
 30
0.0
 10
-50.9622
 20
114.9131
 30
0.0
 10
-50.394
 20
115.1223
 30
0.0
 10
-50.4965
 20
115.2764
 30
0.0
 10
-50.4965
 20
115.2764
 30
0.0
 10
-50.394
 20
115.4305
 30
0.0
 10
-50.9622
 20
115.6396
 30
0.0
 10
-51.168
 20
115.6744
 30
0.0
 10
-51.168
 20
115.6744
 30
0.0
 10
-59.1766
 20
117.0277
 30
0.0
 10
-59.0289
 20
119.3164
 30
0.0
 10
-59.1298
 20
126.4748
 30
0.0
 10
-59.1298
 20
126.4748
 30
0.0
 10
-48.6412
 20
126.7057
 30
0.0
 10
-49.6108
 20
122.785
 30
0.0
 10
-48.3249
 20
117.6811
 30
0.0
 10
-48.3249
 20
117.6811
 30
0.0
 10
-48.2637
 20
117.3892
 30
0.0
 10
-48.0889
 20
117.4163
 30
0.0
 10
-48.0889
 20
117.4163
 30
0.0
 10
-48.0889
 20
117.4163
 30
0.0
 10
-48.0889
 20
117.4163
 30
0.0
 10
-47.9141
 20
117.3892
 30
0.0
 10
-47.8529
 20
117.6811
 30
0.0
 10
-47.8529
 20
117.6811
 30
0.0
 10
-46.567
 20
122.7851
 30
0.0
 10
-47.5366
 20
126.7057
 30
0.0
 10
-37.048
 20
126.4748
 30
0.0
 10
-37.048
 20
126.4748
 30
0.0
 10
-37.1489
 20
119.3164
 30
0.0
 10
-37.0012
 20
117.0277
 30
0.0
 10
-45.0098
 20
115.6744
 30
0.0
 10
-45.0098
 20
115.6744
 30
0.0
 10
-45.2156
 20
115.6396
 30
0.0
 10
-45.7838
 20
115.4305
 30
0.0
 10
-45.6813
 20
115.2764
 30
0.0
 10
-45.6813
 20
115.2764
 30
0.0
 10
-45.7838
 20
115.1223
 30
0.0
 10
-45.2156
 20
114.9131
 30
0.0
 10
-45.0098
 20
114.8783
 30
0.0
 10
-45.0098
 20
114.8783
 30
0.0
 10
-37.0012
 20
113.5251
 30
0.0
 10
-37.1489
 20
111.2363
 30
0.0
 10
-37.048
 20
104.078
 30
0.0
 10
-37.048
 20
104.078
 30
0.0
 10
-47.5366
 20
103.847
 30
0.0
 10
-46.567
 20
107.7678
 30
0.0
 10
-47.8529
 20
112.8717
 30
0.0
 10
-47.8529
 20
112.8717
 30
0.0
 10
-47.9141
 20
113.1636
 30
0.0
 10
-48.0889
 20
113.1364
 30
0.0
 10
-48.0889
 20
113.1364
 30
0.0
 10
-48.0889
 20
113.1364
 30
0.0
 10
-48.0889
 20
113.1364
 30
0.0
 10
-48.2637
 20
113.1636
 30
0.0
 10
-48.3249
 20
112.8717
 30
0.0
  0
SPLINE
  5
63
330
1F
100
AcDbEntity
  8
layer 1
 62
     7
100
AcDbSpline
210
0.0
220
0.0
230
1.0
 70
    11
 71
     3
 72
    28
 73
    24
 74
     0
 42
0.0000000001
 43
0.0000000001
 12
1.0
 22
0.0
 32
0.0
 13
1.0
 23
0.0
 33
0.0
 40
0.0
 40
0.0
 40
0.0
 40
0.0
 40
0.1428571428571428
 40
0.1428571428571428
 40
0.1428571428571428
 40
0.1428571428571428
 40
0.2857142857142857
 40
0.2857142857142857
 40
0.2857142857142857
 40
0.2857142857142857
 40
0.4285714285714285
 40
0.4285714285714285
 40
0.4285714285714285
 40
0.4285714285714285
 40
0.5714285714285714
 40
0.5714285714285714
 40
0.5714285714285714
 40
0.5714285714285714
 40
0.7142857142857143
 40
0.7142857142857143
 40
0.7142857142857143
 40
0.7142857142857143
 40
1.0
 40
1.0
 40
1.0
 40
1.0
 10
-37.2637
 20
99.3951
 30
0.0
 10
-45.5822
 20
99.8144
 30
0.0
 10
-48.1462
 20
95.571
 30
0.0
 10
-48.1708
 20
93.521
 30
0.0
 10
-48.1708
 20
93.521
 30
0.0
 10
-48.1955
 20
95.571
 30
0.0
 10
-50.7594
 20
99.8144
 30
0.0
 10
-59.078
 20
99.3951
 30
0.0
 10
-59.078
 20
99.3951
 30
0.0
 10
-59.078
 20
99.3951
 30
0.0
 10
-59.078
 20
101.0916
 30
0.0
 10
-59.078
 20
101.0916
 30
0.0
 10
-59.078
 20
101.0916
 30
0.0
 10
-50.7594
 20
100.6723
 30
0.0
 10
-48.1955
 20
104.9157
 30
0.0
 10
-48.1708
 20
106.9658
 30
0.0
 10
-48.1708
 20
106.9658
 30
0.0
 10
-48.1462
 20
104.9157
 30
0.0
 10
-45.5822
 20
100.6723
 30
0.0
 10
-37.2637
 20
101.0916
 30
0.0
 10
-37.2637
 20
101.0916
 30
0.0
 10
-37.2637
 20
101.0916
 30
0.0
 10
-37.2637
 20
99.3951
 30
0.0
 10
-37.2637
 20
99.3951
 30
0.0
  0
SPLINE
  5
64
330
1F
100
AcDbEntity
  8
layer 1
 62
     7
100
AcDbSpline
210
0.0
220
0.0
230
1.0
 70
    11
 71
     3
 72
    68
 73
    64
 74
     0
 42
0.0000000001
 43
0.0000000001
 12
1.0
 22
0.0
 32
0.0
 13
1.0
 23
0.0
 33
0.0
 40
0.0
 40
0.0
 40
0.0
 40
0.0
 40
0.0588235294117647
 40
0.0588235294117647
 40
0.0588235294117647
 40
0.0588235294117647
 40
0.1176470588235294
 40
0.1176470588235294
 40
0.1176470588235294
 40
0.1176470588235294
 40
0.1764705882352941
 40
0.1764705882352941
 40
0.1764705882352941
 40
0.1764705882352941
 40
0.2352941176470588
 40
0.2352941176470588
 40
0.2352941176470588
 40
0.2352941176470588
 40
0.2941176470588235
 40
0.2941176470588235
 40
0.2941176470588235
 40
0.2941176470588235
 40
0.3529411764705883
 40
0.3529411764705883
 40
0.3529411764705883
 40
0.3529411764705883
 40
0.4117647058823529
 40
0.4117647058823529
 40
0.4117647058823529
 40
0.4117647058823529
 40
0.4705882352941176
 40
0.4705882352941176
 40
0.4705882352941176
 40
0.4705882352941176
 40
0.5294117647058824
 40
0.5294117647058824
 40
0.5294117647058824
 40
0.5294117647058824
 40
0.5882352941176471
 40
0.5882352941176471
 40
0.5882352941176471
 40
0.5882352941176471
 40
0.6470588235294118
 40
0.6470588235294118
 40
0.6470588235294118
 40
0.6470588235294118
 40
0.7058823529411765
 40
0.7058823529411765
 40
0.7058823529411765
 40
0.7058823529411765
 40
0.7647058823529411
 40
0.7647058823529411
 40
0.7647058823529411
 40
0.7647058823529411
 40
0.8235294117647058
 40
0.8235294117647058
 40
0.8235294117647058
 40
0.8235294117647058
 40
0.8823529411764706
 40
0.8823529411764706
 40
0.8823529411764706
 40
0.8823529411764706
 40
1.0
 40
1.0
 40
1.0
 40
1.0
 10
-48.3249
 20
82.5574
 30
0.0
 10
-49.6108
 20
77.4534
 30
0.0
 10
-48.6412
 20
73.5327
 30
0.0
 10
-59.1298
 20
73.7637
 30
0.0
 10
-59.1298
 20
73.7637
 30
0.0
 10
-59.0289
 20
80.9221
 30
0.0
 10
-59.1766
 20
83.2108
 30
0.0
 10
-51.168
 20
84.564
 30
0.0
 10
-51.168
 20
84.564
 30
0.0
 10
-50.9622
 20
84.5988
 30
0.0
 10
-50.394
 20
84.808
 30
0.0
 10
-50.4965
 20
84.9621
 30
0.0
 10
-50.4965
 20
84.9621
 30
0.0
 10
-50.394
 20
85.1162
 30
0.0
 10
-50.9622
 20
85.3253
 30
0.0
 10
-51.168
 20
85.3601
 30
0.0
 10
-51.168
 20
85.3601
 30
0.0
 10
-59.1766
 20
86.7134
 30
0.0
 10
-59.0289
 20
89.0021
 30
0.0
 10
-59.1298
 20
96.1605
 30
0.0
 10
-59.1298
 20
96.1605
 30
0.0
 10
-48.6412
 20
96.3914
 30
0.0
 10
-49.6108
 20
92.4707
 30
0.0
 10
-48.3249
 20
87.3667
 30
0.0
 10
-48.3249
 20
87.3667
 30
0.0
 10
-48.2637
 20
87.0749
 30
0.0
 10
-48.0889
 20
87.102
 30
0.0
 10
-48.0889
 20
87.102
 30
0.0
 10
-48.0889
 20
87.102
 30
0.0
 10
-48.0889
 20
87.102
 30
0.0
 10
-47.9141
 20
87.0749
 30
0.0
 10
-47.8529
 20
87.3667
 30
0.0
 10
-47.8529
 20
87.3667
 30
0.0
 10
-46.567
 20
92.4707
 30
0.0
 10
-47.5366
 20
96.3914
 30
0.0
 10
-37.048
 20
96.1605
 30
0.0
 10
-37.048
 20
96.1605
 30
0.0
 10
-37.1489
 20
89.0021
 30
0.0
 10
-37.0012
 20
86.7134
 30
0.0
 10
-45.0098
 20
85.3601
 30
0.0
 10
-45.0098
 20
85.3601
 30
0.0
 10
-45.2156
 20
85.3253
 30
0.0
 10
-45.7838
 20
85.1162
 30
0.0
 10
-45.6813
 20
84.9621
 30
0.0
 10
-45.6813
 20
84.9621
 30
0.0
 10
-45.7838
 20
84.808
 30
0.0
 10
-45.2156
 20
84.5988
 30
0.0
 10
-45.0098
 20
84.564
 30
0.0
 10
-45.0098
 20
84.564
 30
0.0
 10
-37.0012
 20
83.2108
 30
0.0
 10
-37.1489
 20
80.922
 30
0.0
 10
-37.048
 20
73.7637
 30
0.0
 10
-37.048
 20
73.7637
 30
0.0
 10
-47.5366
 20
73.5327
 30
0.0
 10
-46.567
 20
77.4534
 30
0.0
 10
-47.8529
 20
82.5574
 30
0.0
 10
-47.8529
 20
82.5574
 30
0.0
 10
-47.9141
 20
82.8493
 30
0.0
 10
-48.0889
 20
82.8221
 30
0.0
 10
-48.0889
 20
82.8221
 30
0.0
 10
-48.0889
 20
82.8221
 30
0.0
 10
-48.0889
 20
82.8221
 30
0.0
 10
-48.2637
 20
82.8493
 30
0.0
 10
-48.3249
 20
82.5574
 30
0.0
  0
SPLINE
  5
65
330
1F
100
AcDbEntity
  8
layer 1
 62
     7
100
AcDbSpline
210
0.0
220
0.0
230
1.0
 70
    11
 71
     3
 72
    28
 73
    24
 74
     0
 42
0.0000000001
 43
0.0000000001
 12
1.0
 22
0.0
 32
0.0
 13
1.0
 23
0.0
 33
0.0
 40
0.0
 40
0.0
 40
0.0
 40
0.0
 40
0.1428571428571428
 40
0.1428571428571428
 40
0.1428571428571428
 40
0.1428571428571428
 40
0.2857142857142857
 40
0.2857142857142857
 40
0.2857142857142857
 40
0.2857142857142857
 40
0.4285714285714285
 40
0.4285714285714285
 40
0.4285714285714285
 40
0.4285714285714285
 40
0.5714285714285714
 40
0.5714285714285714
 40
0.5714285714285714
 40
0.5714285714285714
 40
0.7142857142857143
 40
0.7142857142857143
 40
0.7142857142857143
 40
0.7142857142857143
 40
1.0
 40
1.0
 40
1.0
 40
1.0
 10
-37.2637
 20
69.0808
 30
0.0
 10
-45.5822
 20
69.5001
 30
0.0
 10
-48.1462
 20
65.2567
 30
0.0
 10
-48.1708
 20
63.2067
 30
0.0
 10
-48.1708
 20
63.2067
 30
0.0
 10
-48.1955
 20
65.2567
 30
0.0
 10
-50.7594
 20
69.5001
 30
0.0
 10
-59.078
 20
69.0808
 30
0.0
 10
-59.078
 20
69.0808
 30
0.0
 10
-59.078
 20
69.0808
 30
0.0
 10
-59.078
 20
70.7773
 30
0.0
 10
-59.078
 20
70.7773
 30
0.0
 10
-59.078
 20
70.7773
 30
0.0
 10
-50.7594
 20
70.358
 30
0.0
 10
-48.1955
 20
74.6014
 30
0.0
 10
-48.1708
 20
76.6515
 30
0.0
 10
-48.1708
 20
76.6515
 30
0.0
 10
-48.1462
 20
74.6014
 30
0.0
 10
-45.5822
 20
70.358
 30
0.0
 10
-37.2637
 20
70.7773
 30
0.0
 10
-37.2637
 20
70.7773
 30
0.0
 10
-37.2637
 20
70.7773
 30
0.0
 10
-37.2637
 20
69.0808
 30
0.0
 10
-37.2637
 20
69.0808
 30
0.0
  0
SPLINE
  5
66
330
1F
100
AcDbEntity
  8
layer 1
 62
     7
100
AcDbSpline
210
0.0
220
0.0
230
1.0
 70
    11
 71
     3
 72
    68
 73
    64
 74
     0
 42
0.0000000001
 43
0.0000000001
 12
1.0
 22
0.0
 32
0.0
 13
1.0
 23
0.0
 33
0.0
 40
0.0
 40
0.0
 40
0.0
 40
0.0
 40
0.0588235294117647
 40
0.0588235294117647
 40
0.0588235294117647
 40
0.0588235294117647
 40
0.1176470588235294
 40
0.1176470588235294
 40
0.1176470588235294
 40
0.1176470588235294
 40
0.1764705882352941
 40
0.1764705882352941
 40
0.1764705882352941
 40
0.1764705882352941
 40
0.2352941176470588
 40
0.2352941176470588
 40
0.2352941176470588
 40
0.2352941176470588
 40
0.2941176470588235
 40
0.2941176470588235
 40
0.2941176470588235
 40
0.2941176470588235
 40
0.3529411764705883
 40
0.3529411764705883
 40
0.3529411764705883
 40
0.3529411764705883
 40
0.4117647058823529
 40
0.4117647058823529
 40
0.4117647058823529
 40
0.4117647058823529
 40
0.4705882352941176
 40
0.4705882352941176
 40
0.4705882352941176
 40
0.4705882352941176
 40
0.5294117647058824
 40
0.5294117647058824
 40
0.5294117647058824
 40
0.5294117647058824
 40
0.5882352941176471
 40
0.5882352941176471
 40
0.5882352941176471
 40
0.5882352941176471
 40
0.6470588235294118
 40
0.6470588235294118
 40
0.6470588235294118
 40
0.6470588235294118
 40
0.7058823529411765
 40
0.7058823529411765
 40
0.7058823529411765
 40
0.7058823529411765
 40
0.7647058823529411
 40
0.7647058823529411
 40
0.7647058823529411
 40
0.7647058823529411
 40
0.8235294117647058
 40
0.8235294117647058
 40
0.8235294117647058
 40
0.8235294117647058
 40
0.8823529411764706
 40
0.8823529411764706
 40
0.8823529411764706
 40
0.8823529411764706
 40
1.0
 40
1.0
 40
1.0
 40
1.0
 10
-169.4385
 20
52.3369
 30
0.0
 10
-170.7244
 20
47.2329
 30
0.0
 10
-169.7548
 20
43.3122
 30
0.0
 10
-180.2435
 20
43.5432
 30
0.0
 10
-180.2435
 20
43.5432
 30
0.0
 10
-180.1425
 20
50.7016
 30
0.0
 10
-180.2902
 20
52.9903
 30
0.0
 10
-172.2816
 20
54.3436
 30
0.0
 10
-172.2816
 20
54.3436
 30
0.0
 10
-172.0759
 20
54.3783
 30
0.0
 10
-171.5076
 20
54.5875
 30
0.0
 10
-171.6102
 20
54.7416
 30
0.0
 10
-171.6102
 20
54.7416
 30
0.0
 10
-171.5076
 20
54.8957
 30
0.0
 10
-172.0759
 20
55.1049
 30
0.0
 10
-172.2816
 20
55.1396
 30
0.0
 10
-172.2816
 20
55.1396
 30
0.0
 10
-180.2902
 20
56.4929
 30
0.0
 10
-180.1425
 20
58.7817
 30
0.0
 10
-180.2435
 20
65.94
 30
0.0
 10
-180.2435
 20
65.94
 30
0.0
 10
-169.7548
 20
66.1709
 30
0.0
 10
-170.7244
 20
62.2502
 30
0.0
 10
-169.4385
 20
57.1463
 30
0.0
 10
-169.4385
 20
57.1463
 30
0.0
 10
-169.3773
 20
56.8544
 30
0.0
 10
-169.2025
 20
56.8816
 30
0.0
 10
-169.2025
 20
56.8816
 30
0.0
 10
-169.2025
 20
56.8816
 30
0.0
 10
-169.2025
 20
56.8816
 30
0.0
 10
-169.0277
 20
56.8544
 30
0.0
 10
-168.9665
 20
57.1463
 30
0.0
 10
-168.9665
 20
57.1463
 30
0.0
 10
-167.6806
 20
62.2503
 30
0.0
 10
-168.6502
 20
66.1709
 30
0.0
 10
-158.1616
 20
65.94
 30
0.0
 10
-158.1616
 20
65.94
 30
0.0
 10
-158.2625
 20
58.7816
 30
0.0
 10
-158.1148
 20
56.4929
 30
0.0
 10
-166.1235
 20
55.1396
 30
0.0
 10
-166.1235
 20
55.1396
 30
0.0
 10
-166.3292
 20
55.1049
 30
0.0
 10
-166.8975
 20
54.8957
 30
0.0
 10
-166.7949
 20
54.7416
 30
0.0
 10
-166.7949
 20
54.7416
 30
0.0
 10
-166.8975
 20
54.5875
 30
0.0
 10
-166.3292
 20
54.3783
 30
0.0
 10
-166.1235
 20
54.3436
 30
0.0
 10
-166.1235
 20
54.3436
 30
0.0
 10
-158.1148
 20
52.9903
 30
0.0
 10
-158.2625
 20
50.7015
 30
0.0
 10
-158.1616
 20
43.5432
 30
0.0
 10
-158.1616
 20
43.5432
 30
0.0
 10
-168.6502
 20
43.3122
 30
0.0
 10
-167.6806
 20
47.233
 30
0.0
 10
-168.9665
 20
52.3369
 30
0.0
 10
-168.9665
 20
52.3369
 30
0.0
 10
-169.0277
 20
52.6288
 30
0.0
 10
-169.2025
 20
52.6016
 30
0.0
 10
-169.2025
 20
52.6016
 30
0.0
 10
-169.2025
 20
52.6016
 30
0.0
 10
-169.2025
 20
52.6016
 30
0.0
 10
-169.3773
 20
52.6288
 30
0.0
 10
-169.4385
 20
52.3369
 30
0.0
  0
SPLINE
  5
67
330
1F
100
AcDbEntity
  8
layer 1
 62
     7
100
AcDbSpline
210
0.0
220
0.0
230
1.0
 70
    11
 71
     3
 72
    28
 73
    24
 74
     0
 42
0.0000000001
 43
0.0000000001
 12
1.0
 22
0.0
 32
0.0
 13
1.0
 23
0.0
 33
0.0
 40
0.0
 40
0.0
 40
0.0
 40
0.0
 40
0.1428571428571428
 40
0.1428571428571428
 40
0.1428571428571428
 40
0.1428571428571428
 40
0.2857142857142857
 40
0.2857142857142857
 40
0.2857142857142857
 40
0.2857142857142857
 40
0.4285714285714285
 40
0.4285714285714285
 40
0.4285714285714285
 40
0.4285714285714285
 40
0.5714285714285714
 40
0.5714285714285714
 40
0.5714285714285714
 40
0.5714285714285714
 40
0.7142857142857143
 40
0.7142857142857143
 40
0.7142857142857143
 40
0.7142857142857143
 40
1.0
 40
1.0
 40
1.0
 40
1.0
 10
-158.3774
 20
38.8604
 30
0.0
 10
-166.6959
 20
39.2796
 30
0.0
 10
-169.2599
 20
35.0362
 30
0.0
 10
-169.2845
 20
32.9862
 30
0.0
 10
-169.2845
 20
32.9862
 30
0.0
 10
-169.3091
 20
35.0362
 30
0.0
 10
-171.8731
 20
39.2796
 30
0.0
 10
-180.1917
 20
38.8604
 30
0.0
 10
-180.1917
 20
38.8604
 30
0.0
 10
-180.1917
 20
38.8604
 30
0.0
 10
-180.1917
 20
40.5568
 30
0.0
 10
-180.1917
 20
40.5568
 30
0.0
 10
-180.1917
 20
40.5568
 30
0.0
 10
-171.8731
 20
40.1375
 30
0.0
 10
-169.3091
 20
44.381
 30
0.0
 10
-169.2845
 20
46.431
 30
0.0
 10
-169.2845
 20
46.431
 30
0.0
 10
-169.2599
 20
44.381
 30
0.0
 10
-166.6959
 20
40.1375
 30
0.0
 10
-158.3774
 20
40.5568
 30
0.0
 10
-158.3774
 20
40.5568
 30
0.0
 10
-158.3774
 20
40.5568
 30
0.0
 10
-158.3774
 20
38.8604
 30
0.0
 10
-158.3774
 20
38.8604
 30
0.0
  0
SPLINE
  5
68
330
1F
100
AcDbEntity
  8
layer 1
 62
     7
100
AcDbSpline
210
0.0
220
0.0
230
1.0
 70
    11
 71
     3
 72
    28
 73
    24
 74
     0
 42
0.0000000001
 43
0.0000000001
 12
1.0
 22
0.0
 32
0.0
 13
1.0
 23
0.0
 33
0.0
 40
0.0
 40
0.0
 40
0.0
 40
0.0
 40
0.1428571428571428
 40
0.1428571428571428
 40
0.1428571428571428
 40
0.1428571428571428
 40
0.2857142857142857
 40
0.2857142857142857
 40
0.2857142857142857
 40
0.2857142857142857
 40
0.4285714285714285
 40
0.4285714285714285
 40
0.4285714285714285
 40
0.4285714285714285
 40
0.5714285714285714
 40
0.5714285714285714
 40
0.5714285714285714
 40
0.5714285714285714
 40
0.7142857142857143
 40
0.7142857142857143
 40
0.7142857142857143
 40
0.7142857142857143
 40
1.0
 40
1.0
 40
1.0
 40
1.0
 10
-154.869
 20
43.9496
 30
0.0
 10
-154.4497
 20
52.2681
 30
0.0
 10
-158.6931
 20
54.8321
 30
0.0
 10
-160.7432
 20
54.8567
 30
0.0
 10
-160.7432
 20
54.8567
 30
0.0
 10
-158.6931
 20
54.8813
 30
0.0
 10
-154.4497
 20
57.4454
 30
0.0
 10
-154.869
 20
65.7638
 30
0.0
 10
-154.869
 20
65.7638
 30
0.0
 10
-154.869
 20
65.7638
 30
0.0
 10
-153.1725
 20
65.7638
 30
0.0
 10
-153.1725
 20
65.7638
 30
0.0
 10
-153.1725
 20
65.7638
 30
0.0
 10
-153.5918
 20
57.4453
 30
0.0
 10
-149.3484
 20
54.8813
 30
0.0
 10
-147.2984
 20
54.8567
 30
0.0
 10
-147.2984
 20
54.8567
 30
0.0
 10
-149.3484
 20
54.8321
 30
0.0
 10
-153.5918
 20
52.2681
 30
0.0
 10
-153.1725
 20
43.9496
 30
0.0
 10
-153.1725
 20
43.9496
 30
0.0
 10
-153.1725
 20
43.9496
 30
0.0
 10
-154.869
 20
43.9496
 30
0.0
 10
-154.869
 20
43.9496
 30
0.0
  0
SPLINE
  5
69
330
1F
100
AcDbEntity
  8
layer 1
 62
     7
100
AcDbSpline
210
0.0
220
0.0
230
1.0
 70
    11
 71
     3
 72
    20
 73
    16
 74
     0
 42
0.0000000001
 43
0.0000000001
 12
1.0
 22
0.0
 32
0.0
 13
1.0
 23
0.0
 33
0.0
 40
0.0
 40
0.0
 40
0.0
 40
0.0
 40
0.2
 40
0.2
 40
0.2
 40
0.2
 40
0.4
 40
0.4
 40
0.4
 40
0.4
 40
0.6
 40
0.6
 40
0.6
 40
0.6
 40
1.0
 40
1.0
 40
1.0
 40
1.0
 10
-156.9451
 20
42.5908
 30
0.0
 10
-156.9451
 20
42.5908
 30
0.0
 10
-151.176
 20
42.5908
 30
0.0
 10
-151.176
 20
42.5908
 30
0.0
 10
-151.176
 20
42.5908
 30
0.0
 10
-151.176
 20
42.5908
 30
0.0
 10
-151.176
 20
36.7604
 30
0.0
 10
-151.176
 20
36.7604
 30
0.0
 10
-151.176
 20
36.7604
 30
0.0
 10
-151.176
 20
36.7604
 30
0.0
 10
-156.9451
 20
36.7604
 30
0.0
 10
-156.9451
 20
36.7604
 30
0.0
 10
-156.9451
 20
36.7604
 30
0.0
 10
-156.9451
 20
36.7604
 30
0.0
 10
-156.9451
 20
42.5908
 30
0.0
 10
-156.9451
 20
42.5908
 30
0.0
  0
SPLINE
  5
6A
330
1F
100
AcDbEntity
  8
layer 1
 62
     7
100
AcDbSpline
210
0.0
220
0.0
230
1.0
 70
    11
 71
     3
 72
    68
 73
    64
 74
     0
 42
0.0000000001
 43
0.0000000001
 12
1.0
 22
0.0
 32
0.0
 13
1.0
 23
0.0
 33
0.0
 40
0.0
 40
0.0
 40
0.0
 40
0.0
 40
0.0588235294117647
 40
0.0588235294117647
 40
0.0588235294117647
 40
0.0588235294117647
 40
0.1176470588235294
 40
0.1176470588235294
 40
0.1176470588235294
 40
0.1176470588235294
 40
0.1764705882352941
 40
0.1764705882352941
 40
0.1764705882352941
 40
0.1764705882352941
 40
0.2352941176470588
 40
0.2352941176470588
 40
0.2352941176470588
 40
0.2352941176470588
 40
0.2941176470588235
 40
0.2941176470588235
 40
0.2941176470588235
 40
0.2941176470588235
 40
0.3529411764705883
 40
0.3529411764705883
 40
0.3529411764705883
 40
0.3529411764705883
 40
0.4117647058823529
 40
0.4117647058823529
 40
0.4117647058823529
 40
0.4117647058823529
 40
0.4705882352941176
 40
0.4705882352941176
 40
0.4705882352941176
 40
0.4705882352941176
 40
0.5294117647058824
 40
0.5294117647058824
 40
0.5294117647058824
 40
0.5294117647058824
 40
0.5882352941176471
 40
0.5882352941176471
 40
0.5882352941176471
 40
0.5882352941176471
 40
0.6470588235294118
 40
0.6470588235294118
 40
0.6470588235294118
 40
0.6470588235294118
 40
0.7058823529411765
 40
0.7058823529411765
 40
0.7058823529411765
 40
0.7058823529411765
 40
0.7647058823529411
 40
0.7647058823529411
 40
0.7647058823529411
 40
0.7647058823529411
 40
0.8235294117647058
 40
0.8235294117647058
 40
0.8235294117647058
 40
0.8235294117647058
 40
0.8823529411764706
 40
0.8823529411764706
 40
0.8823529411764706
 40
0.8823529411764706
 40
1.0
 40
1.0
 40
1.0
 40
1.0
 10
-139.1103
 20
52.3369
 30
0.0
 10
-140.3963
 20
47.2329
 30
0.0
 10
-139.4266
 20
43.3122
 30
0.0
 10
-149.9153
 20
43.5432
 30
0.0
 10
-149.9153
 20
43.5432
 30
0.0
 10
-149.8144
 20
50.7016
 30
0.0
 10
-149.962
 20
52.9903
 30
0.0
 10
-141.9534
 20
54.3436
 30
0.0
 10
-141.9534
 20
54.3436
 30
0.0
 10
-141.7477
 20
54.3783
 30
0.0
 10
-141.1794
 20
54.5875
 30
0.0
 10
-141.282
 20
54.7416
 30
0.0
 10
-141.282
 20
54.7416
 30
0.0
 10
-141.1794
 20
54.8957
 30
0.0
 10
-141.7477
 20
55.1049
 30
0.0
 10
-141.9534
 20
55.1396
 30
0.0
 10
-141.9534
 20
55.1396
 30
0.0
 10
-149.962
 20
56.4929
 30
0.0
 10
-149.8144
 20
58.7817
 30
0.0
 10
-149.9153
 20
65.94
 30
0.0
 10
-149.9153
 20
65.94
 30
0.0
 10
-139.4266
 20
66.1709
 30
0.0
 10
-140.3963
 20
62.2502
 30
0.0
 10
-139.1103
 20
57.1463
 30
0.0
 10
-139.1103
 20
57.1463
 30
0.0
 10
-139.0491
 20
56.8544
 30
0.0
 10
-138.8743
 20
56.8816
 30
0.0
 10
-138.8743
 20
56.8816
 30
0.0
 10
-138.8743
 20
56.8816
 30
0.0
 10
-138.8743
 20
56.8816
 30
0.0
 10
-138.6996
 20
56.8544
 30
0.0
 10
-138.6384
 20
57.1463
 30
0.0
 10
-138.6384
 20
57.1463
 30
0.0
 10
-137.3524
 20
62.2503
 30
0.0
 10
-138.3221
 20
66.1709
 30
0.0
 10
-127.8334
 20
65.94
 30
0.0
 10
-127.8334
 20
65.94
 30
0.0
 10
-127.9343
 20
58.7816
 30
0.0
 10
-127.7867
 20
56.4929
 30
0.0
 10
-135.7953
 20
55.1396
 30
0.0
 10
-135.7953
 20
55.1396
 30
0.0
 10
-136.001
 20
55.1049
 30
0.0
 10
-136.5693
 20
54.8957
 30
0.0
 10
-136.4667
 20
54.7416
 30
0.0
 10
-136.4667
 20
54.7416
 30
0.0
 10
-136.5693
 20
54.5875
 30
0.0
 10
-136.001
 20
54.3783
 30
0.0
 10
-135.7953
 20
54.3436
 30
0.0
 10
-135.7953
 20
54.3436
 30
0.0
 10
-127.7867
 20
52.9903
 30
0.0
 10
-127.9343
 20
50.7015
 30
0.0
 10
-127.8334
 20
43.5432
 30
0.0
 10
-127.8334
 20
43.5432
 30
0.0
 10
-138.3221
 20
43.3122
 30
0.0
 10
-137.3524
 20
47.233
 30
0.0
 10
-138.6384
 20
52.3369
 30
0.0
 10
-138.6384
 20
52.3369
 30
0.0
 10
-138.6996
 20
52.6288
 30
0.0
 10
-138.8743
 20
52.6016
 30
0.0
 10
-138.8743
 20
52.6016
 30
0.0
 10
-138.8743
 20
52.6016
 30
0.0
 10
-138.8743
 20
52.6016
 30
0.0
 10
-139.0491
 20
52.6288
 30
0.0
 10
-139.1103
 20
52.3369
 30
0.0
  0
SPLINE
  5
6B
330
1F
100
AcDbEntity
  8
layer 1
 62
     7
100
AcDbSpline
210
0.0
220
0.0
230
1.0
 70
    11
 71
     3
 72
    28
 73
    24
 74
     0
 42
0.0000000001
 43
0.0000000001
 12
1.0
 22
0.0
 32
0.0
 13
1.0
 23
0.0
 33
0.0
 40
0.0
 40
0.0
 40
0.0
 40
0.0
 40
0.1428571428571428
 40
0.1428571428571428
 40
0.1428571428571428
 40
0.1428571428571428
 40
0.2857142857142857
 40
0.2857142857142857
 40
0.2857142857142857
 40
0.2857142857142857
 40
0.4285714285714285
 40
0.4285714285714285
 40
0.4285714285714285
 40
0.4285714285714285
 40
0.5714285714285714
 40
0.5714285714285714
 40
0.5714285714285714
 40
0.5714285714285714
 40
0.7142857142857143
 40
0.7142857142857143
 40
0.7142857142857143
 40
0.7142857142857143
 40
1.0
 40
1.0
 40
1.0
 40
1.0
 10
-128.0491
 20
38.8604
 30
0.0
 10
-136.3677
 20
39.2796
 30
0.0
 10
-138.9317
 20
35.0362
 30
0.0
 10
-138.9563
 20
32.9862
 30
0.0
 10
-138.9563
 20
32.9862
 30
0.0
 10
-138.9809
 20
35.0362
 30
0.0
 10
-141.5449
 20
39.2796
 30
0.0
 10
-149.8634
 20
38.8604
 30
0.0
 10
-149.8634
 20
38.8604
 30
0.0
 10
-149.8634
 20
38.8604
 30
0.0
 10
-149.8634
 20
40.5568
 30
0.0
 10
-149.8634
 20
40.5568
 30
0.0
 10
-149.8634
 20
40.5568
 30
0.0
 10
-141.5449
 20
40.1375
 30
0.0
 10
-138.9809
 20
44.381
 30
0.0
 10
-138.9563
 20
46.431
 30
0.0
 10
-138.9563
 20
46.431
 30
0.0
 10
-138.9317
 20
44.381
 30
0.0
 10
-136.3677
 20
40.1375
 30
0.0
 10
-128.0491
 20
40.5568
 30
0.0
 10
-128.0491
 20
40.5568
 30
0.0
 10
-128.0491
 20
40.5568
 30
0.0
 10
-128.0491
 20
38.8604
 30
0.0
 10
-128.0491
 20
38.8604
 30
0.0
  0
SPLINE
  5
6C
330
1F
100
AcDbEntity
  8
layer 1
 62
     7
100
AcDbSpline
210
0.0
220
0.0
230
1.0
 70
    11
 71
     3
 72
    20
 73
    16
 74
     0
 42
0.0000000001
 43
0.0000000001
 12
1.0
 22
0.0
 32
0.0
 13
1.0
 23
0.0
 33
0.0
 40
0.0
 40
0.0
 40
0.0
 40
0.0
 40
0.2
 40
0.2
 40
0.2
 40
0.2
 40
0.4
 40
0.4
 40
0.4
 40
0.4
 40
0.6
 40
0.6
 40
0.6
 40
0.6
 40
1.0
 40
1.0
 40
1.0
 40
1.0
 10
-126.617
 20
42.5908
 30
0.0
 10
-126.617
 20
42.5908
 30
0.0
 10
-120.8479
 20
42.5908
 30
0.0
 10
-120.8479
 20
42.5908
 30
0.0
 10
-120.8479
 20
42.5908
 30
0.0
 10
-120.8479
 20
42.5908
 30
0.0
 10
-120.8479
 20
36.7604
 30
0.0
 10
-120.8479
 20
36.7604
 30
0.0
 10
-120.8479
 20
36.7604
 30
0.0
 10
-120.8479
 20
36.7604
 30
0.0
 10
-126.617
 20
36.7604
 30
0.0
 10
-126.617
 20
36.7604
 30
0.0
 10
-126.617
 20
36.7604
 30
0.0
 10
-126.617
 20
36.7604
 30
0.0
 10
-126.617
 20
42.5908
 30
0.0
 10
-126.617
 20
42.5908
 30
0.0
  0
SPLINE
  5
6D
330
1F
100
AcDbEntity
  8
layer 1
 62
     7
100
AcDbSpline
210
0.0
220
0.0
230
1.0
 70
    11
 71
     3
 72
    28
 73
    24
 74
     0
 42
0.0000000001
 43
0.0000000001
 12
1.0
 22
0.0
 32
0.0
 13
1.0
 23
0.0
 33
0.0
 40
0.0
 40
0.0
 40
0.0
 40
0.0
 40
0.1428571428571428
 40
0.1428571428571428
 40
0.1428571428571428
 40
0.1428571428571428
 40
0.2857142857142857
 40
0.2857142857142857
 40
0.2857142857142857
 40
0.2857142857142857
 40
0.4285714285714285
 40
0.4285714285714285
 40
0.4285714285714285
 40
0.4285714285714285
 40
0.5714285714285714
 40
0.5714285714285714
 40
0.5714285714285714
 40
0.5714285714285714
 40
0.7142857142857143
 40
0.7142857142857143
 40
0.7142857142857143
 40
0.7142857142857143
 40
1.0
 40
1.0
 40
1.0
 40
1.0
 10
-124.5408
 20
43.9496
 30
0.0
 10
-124.1215
 20
52.2681
 30
0.0
 10
-128.3649
 20
54.8321
 30
0.0
 10
-130.4149
 20
54.8567
 30
0.0
 10
-130.4149
 20
54.8567
 30
0.0
 10
-128.3649
 20
54.8813
 30
0.0
 10
-124.1215
 20
57.4454
 30
0.0
 10
-124.5408
 20
65.7638
 30
0.0
 10
-124.5408
 20
65.7638
 30
0.0
 10
-124.5408
 20
65.7638
 30
0.0
 10
-122.8443
 20
65.7638
 30
0.0
 10
-122.8443
 20
65.7638
 30
0.0
 10
-122.8443
 20
65.7638
 30
0.0
 10
-123.2636
 20
57.4453
 30
0.0
 10
-119.0202
 20
54.8813
 30
0.0
 10
-116.9701
 20
54.8567
 30
0.0
 10
-116.9701
 20
54.8567
 30
0.0
 10
-119.0202
 20
54.8321
 30
0.0
 10
-123.2636
 20
52.2681
 30
0.0
 10
-122.8443
 20
43.9496
 30
0.0
 10
-122.8443
 20
43.9496
 30
0.0
 10
-122.8443
 20
43.9496
 30
0.0
 10
-124.5408
 20
43.9496
 30
0.0
 10
-124.5408
 20
43.9496
 30
0.0
  0
SPLINE
  5
6E
330
1F
100
AcDbEntity
  8
layer 1
 62
     7
100
AcDbSpline
210
0.0
220
0.0
230
1.0
 70
    11
 71
     3
 72
    68
 73
    64
 74
     0
 42
0.0000000001
 43
0.0000000001
 12
1.0
 22
0.0
 32
0.0
 13
1.0
 23
0.0
 33
0.0
 40
0.0
 40
0.0
 40
0.0
 40
0.0
 40
0.0588235294117647
 40
0.0588235294117647
 40
0.0588235294117647
 40
0.0588235294117647
 40
0.1176470588235294
 40
0.1176470588235294
 40
0.1176470588235294
 40
0.1176470588235294
 40
0.1764705882352941
 40
0.1764705882352941
 40
0.1764705882352941
 40
0.1764705882352941
 40
0.2352941176470588
 40
0.2352941176470588
 40
0.2352941176470588
 40
0.2352941176470588
 40
0.2941176470588235
 40
0.2941176470588235
 40
0.2941176470588235
 40
0.2941176470588235
 40
0.3529411764705883
 40
0.3529411764705883
 40
0.3529411764705883
 40
0.3529411764705883
 40
0.4117647058823529
 40
0.4117647058823529
 40
0.4117647058823529
 40
0.4117647058823529
 40
0.4705882352941176
 40
0.4705882352941176
 40
0.4705882352941176
 40
0.4705882352941176
 40
0.5294117647058824
 40
0.5294117647058824
 40
0.5294117647058824
 40
0.5294117647058824
 40
0.5882352941176471
 40
0.5882352941176471
 40
0.5882352941176471
 40
0.5882352941176471
 40
0.6470588235294118
 40
0.6470588235294118
 40
0.6470588235294118
 40
0.6470588235294118
 40
0.7058823529411765
 40
0.7058823529411765
 40
0.7058823529411765
 40
0.7058823529411765
 40
0.7647058823529411
 40
0.7647058823529411
 40
0.7647058823529411
 40
0.7647058823529411
 40
0.8235294117647058
 40
0.8235294117647058
 40
0.8235294117647058
 40
0.8235294117647058
 40
0.8823529411764706
 40
0.8823529411764706
 40
0.8823529411764706
 40
0.8823529411764706
 40
1.0
 40
1.0
 40
1.0
 40
1.0
 10
-108.8485
 20
52.3369
 30
0.0
 10
-110.1344
 20
47.2329
 30
0.0
 10
-109.1648
 20
43.3122
 30
0.0
 10
-119.6534
 20
43.5432
 30
0.0
 10
-119.6534
 20
43.5432
 30
0.0
 10
-119.5525
 20
50.7016
 30
0.0
 10
-119.7002
 20
52.9903
 30
0.0
 10
-111.6916
 20
54.3436
 30
0.0
 10
-111.6916
 20
54.3436
 30
0.0
 10
-111.4859
 20
54.3783
 30
0.0
 10
-110.9176
 20
54.5875
 30
0.0
 10
-111.0202
 20
54.7416
 30
0.0
 10
-111.0202
 20
54.7416
 30
0.0
 10
-110.9176
 20
54.8957
 30
0.0
 10
-111.4859
 20
55.1049
 30
0.0
 10
-111.6916
 20
55.1396
 30
0.0
 10
-111.6916
 20
55.1396
 30
0.0
 10
-119.7002
 20
56.4929
 30
0.0
 10
-119.5525
 20
58.7817
 30
0.0
 10
-119.6534
 20
65.94
 30
0.0
 10
-119.6534
 20
65.94
 30
0.0
 10
-109.1648
 20
66.1709
 30
0.0
 10
-110.1344
 20
62.2502
 30
0.0
 10
-108.8485
 20
57.1463
 30
0.0
 10
-108.8485
 20
57.1463
 30
0.0
 10
-108.7873
 20
56.8544
 30
0.0
 10
-108.6125
 20
56.8816
 30
0.0
 10
-108.6125
 20
56.8816
 30
0.0
 10
-108.6125
 20
56.8816
 30
0.0
 10
-108.6125
 20
56.8816
 30
0.0
 10
-108.4377
 20
56.8544
 30
0.0
 10
-108.3765
 20
57.1463
 30
0.0
 10
-108.3765
 20
57.1463
 30
0.0
 10
-107.0906
 20
62.2503
 30
0.0
 10
-108.0602
 20
66.1709
 30
0.0
 10
-97.5716
 20
65.94
 30
0.0
 10
-97.5716
 20
65.94
 30
0.0
 10
-97.6725
 20
58.7816
 30
0.0
 10
-97.5248
 20
56.4929
 30
0.0
 10
-105.5335
 20
55.1396
 30
0.0
 10
-105.5335
 20
55.1396
 30
0.0
 10
-105.7392
 20
55.1049
 30
0.0
 10
-106.3075
 20
54.8957
 30
0.0
 10
-106.2049
 20
54.7416
 30
0.0
 10
-106.2049
 20
54.7416
 30
0.0
 10
-106.3075
 20
54.5875
 30
0.0
 10
-105.7392
 20
54.3783
 30
0.0
 10
-105.5335
 20
54.3436
 30
0.0
 10
-105.5335
 20
54.3436
 30
0.0
 10
-97.5248
 20
52.9903
 30
0.0
 10
-97.6725
 20
50.7015
 30
0.0
 10
-97.5716
 20
43.5432
 30
0.0
 10
-97.5716
 20
43.5432
 30
0.0
 10
-108.0602
 20
43.3122
 30
0.0
 10
-107.0906
 20
47.233
 30
0.0
 10
-108.3765
 20
52.3369
 30
0.0
 10
-108.3765
 20
52.3369
 30
0.0
 10
-108.4377
 20
52.6288
 30
0.0
 10
-108.6125
 20
52.6016
 30
0.0
 10
-108.6125
 20
52.6016
 30
0.0
 10
-108.6125
 20
52.6016
 30
0.0
 10
-108.6125
 20
52.6016
 30
0.0
 10
-108.7873
 20
52.6288
 30
0.0
 10
-108.8485
 20
52.3369
 30
0.0
  0
SPLINE
  5
6F
330
1F
100
AcDbEntity
  8
layer 1
 62
     7
100
AcDbSpline
210
0.0
220
0.0
230
1.0
 70
    11
 71
     3
 72
    28
 73
    24
 74
     0
 42
0.0000000001
 43
0.0000000001
 12
1.0
 22
0.0
 32
0.0
 13
1.0
 23
0.0
 33
0.0
 40
0.0
 40
0.0
 40
0.0
 40
0.0
 40
0.1428571428571428
 40
0.1428571428571428
 40
0.1428571428571428
 40
0.1428571428571428
 40
0.2857142857142857
 40
0.2857142857142857
 40
0.2857142857142857
 40
0.2857142857142857
 40
0.4285714285714285
 40
0.4285714285714285
 40
0.4285714285714285
 40
0.4285714285714285
 40
0.5714285714285714
 40
0.5714285714285714
 40
0.5714285714285714
 40
0.5714285714285714
 40
0.7142857142857143
 40
0.7142857142857143
 40
0.7142857142857143
 40
0.7142857142857143
 40
1.0
 40
1.0
 40
1.0
 40
1.0
 10
-97.7874
 20
38.8604
 30
0.0
 10
-106.1059
 20
39.2796
 30
0.0
 10
-108.6699
 20
35.0362
 30
0.0
 10
-108.6945
 20
32.9862
 30
0.0
 10
-108.6945
 20
32.9862
 30
0.0
 10
-108.7191
 20
35.0362
 30
0.0
 10
-111.2831
 20
39.2796
 30
0.0
 10
-119.6016
 20
38.8604
 30
0.0
 10
-119.6016
 20
38.8604
 30
0.0
 10
-119.6016
 20
38.8604
 30
0.0
 10
-119.6016
 20
40.5568
 30
0.0
 10
-119.6016
 20
40.5568
 30
0.0
 10
-119.6016
 20
40.5568
 30
0.0
 10
-111.2831
 20
40.1375
 30
0.0
 10
-108.7191
 20
44.381
 30
0.0
 10
-108.6945
 20
46.431
 30
0.0
 10
-108.6945
 20
46.431
 30
0.0
 10
-108.6699
 20
44.381
 30
0.0
 10
-106.1059
 20
40.1375
 30
0.0
 10
-97.7874
 20
40.5568
 30
0.0
 10
-97.7874
 20
40.5568
 30
0.0
 10
-97.7874
 20
40.5568
 30
0.0
 10
-97.7874
 20
38.8604
 30
0.0
 10
-97.7874
 20
38.8604
 30
0.0
  0
SPLINE
  5
70
330
1F
100
AcDbEntity
  8
layer 1
 62
     7
100
AcDbSpline
210
0.0
220
0.0
230
1.0
 70
    11
 71
     3
 72
    20
 73
    16
 74
     0
 42
0.0000000001
 43
0.0000000001
 12
1.0
 22
0.0
 32
0.0
 13
1.0
 23
0.0
 33
0.0
 40
0.0
 40
0.0
 40
0.0
 40
0.0
 40
0.2
 40
0.2
 40
0.2
 40
0.2
 40
0.4
 40
0.4
 40
0.4
 40
0.4
 40
0.6
 40
0.6
 40
0.6
 40
0.6
 40
1.0
 40
1.0
 40
1.0
 40
1.0
 10
-96.3551
 20
42.5908
 30
0.0
 10
-96.3551
 20
42.5908
 30
0.0
 10
-90.586
 20
42.5908
 30
0.0
 10
-90.586
 20
42.5908
 30
0.0
 10
-90.586
 20
42.5908
 30
0.0
 10
-90.586
 20
42.5908
 30
0.0
 10
-90.586
 20
36.7604
 30
0.0
 10
-90.586
 20
36.7604
 30
0.0
 10
-90.586
 20
36.7604
 30
0.0
 10
-90.586
 20
36.7604
 30
0.0
 10
-96.3551
 20
36.7604
 30
0.0
 10
-96.3551
 20
36.7604
 30
0.0
 10
-96.3551
 20
36.7604
 30
0.0
 10
-96.3551
 20
36.7604
 30
0.0
 10
-96.3551
 20
42.5908
 30
0.0
 10
-96.3551
 20
42.5908
 30
0.0
  0
SPLINE
  5
71
330
1F
100
AcDbEntity
  8
layer 1
 62
     7
100
AcDbSpline
210
0.0
220
0.0
230
1.0
 70
    11
 71
     3
 72
    28
 73
    24
 74
     0
 42
0.0000000001
 43
0.0000000001
 12
1.0
 22
0.0
 32
0.0
 13
1.0
 23
0.0
 33
0.0
 40
0.0
 40
0.0
 40
0.0
 40
0.0
 40
0.1428571428571428
 40
0.1428571428571428
 40
0.1428571428571428
 40
0.1428571428571428
 40
0.2857142857142857
 40
0.2857142857142857
 40
0.2857142857142857
 40
0.2857142857142857
 40
0.4285714285714285
 40
0.4285714285714285
 40
0.4285714285714285
 40
0.4285714285714285
 40
0.5714285714285714
 40
0.5714285714285714
 40
0.5714285714285714
 40
0.5714285714285714
 40
0.7142857142857143
 40
0.7142857142857143
 40
0.7142857142857143
 40
0.7142857142857143
 40
1.0
 40
1.0
 40
1.0
 40
1.0
 10
-94.279
 20
43.9496
 30
0.0
 10
-93.8597
 20
52.2681
 30
0.0
 10
-98.1031
 20
54.8321
 30
0.0
 10
-100.1532
 20
54.8567
 30
0.0
 10
-100.1532
 20
54.8567
 30
0.0
 10
-98.1031
 20
54.8813
 30
0.0
 10
-93.8597
 20
57.4454
 30
0.0
 10
-94.279
 20
65.7638
 30
0.0
 10
-94.279
 20
65.7638
 30
0.0
 10
-94.279
 20
65.7638
 30
0.0
 10
-92.5825
 20
65.7638
 30
0.0
 10
-92.5825
 20
65.7638
 30
0.0
 10
-92.5825
 20
65.7638
 30
0.0
 10
-93.0018
 20
57.4453
 30
0.0
 10
-88.7584
 20
54.8813
 30
0.0
 10
-86.7084
 20
54.8567
 30
0.0
 10
-86.7084
 20
54.8567
 30
0.0
 10
-88.7584
 20
54.8321
 30
0.0
 10
-93.0018
 20
52.2681
 30
0.0
 10
-92.5825
 20
43.9496
 30
0.0
 10
-92.5825
 20
43.9496
 30
0.0
 10
-92.5825
 20
43.9496
 30
0.0
 10
-94.279
 20
43.9496
 30
0.0
 10
-94.279
 20
43.9496
 30
0.0
  0
SPLINE
  5
72
330
1F
100
AcDbEntity
  8
layer 1
 62
     7
100
AcDbSpline
210
0.0
220
0.0
230
1.0
 70
    11
 71
     3
 72
    68
 73
    64
 74
     0
 42
0.0000000001
 43
0.0000000001
 12
1.0
 22
0.0
 32
0.0
 13
1.0
 23
0.0
 33
0.0
 40
0.0
 40
0.0
 40
0.0
 40
0.0
 40
0.0588235294117647
 40
0.0588235294117647
 40
0.0588235294117647
 40
0.0588235294117647
 40
0.1176470588235294
 40
0.1176470588235294
 40
0.1176470588235294
 40
0.1176470588235294
 40
0.1764705882352941
 40
0.1764705882352941
 40
0.1764705882352941
 40
0.1764705882352941
 40
0.2352941176470588
 40
0.2352941176470588
 40
0.2352941176470588
 40
0.2352941176470588
 40
0.2941176470588235
 40
0.2941176470588235
 40
0.2941176470588235
 40
0.2941176470588235
 40
0.3529411764705883
 40
0.3529411764705883
 40
0.3529411764705883
 40
0.3529411764705883
 40
0.4117647058823529
 40
0.4117647058823529
 40
0.4117647058823529
 40
0.4117647058823529
 40
0.4705882352941176
 40
0.4705882352941176
 40
0.4705882352941176
 40
0.4705882352941176
 40
0.5294117647058824
 40
0.5294117647058824
 40
0.5294117647058824
 40
0.5294117647058824
 40
0.5882352941176471
 40
0.5882352941176471
 40
0.5882352941176471
 40
0.5882352941176471
 40
0.6470588235294118
 40
0.6470588235294118
 40
0.6470588235294118
 40
0.6470588235294118
 40
0.7058823529411765
 40
0.7058823529411765
 40
0.7058823529411765
 40
0.7058823529411765
 40
0.7647058823529411
 40
0.7647058823529411
 40
0.7647058823529411
 40
0.7647058823529411
 40
0.8235294117647058
 40
0.8235294117647058
 40
0.8235294117647058
 40
0.8235294117647058
 40
0.8823529411764706
 40
0.8823529411764706
 40
0.8823529411764706
 40
0.8823529411764706
 40
1.0
 40
1.0
 40
1.0
 40
1.0
 10
-78.5867
 20
52.3369
 30
0.0
 10
-79.8726
 20
47.2329
 30
0.0
 10
-78.903
 20
43.3122
 30
0.0
 10
-89.3916
 20
43.5432
 30
0.0
 10
-89.3916
 20
43.5432
 30
0.0
 10
-89.2907
 20
50.7016
 30
0.0
 10
-89.4384
 20
52.9903
 30
0.0
 10
-81.4297
 20
54.3436
 30
0.0
 10
-81.4297
 20
54.3436
 30
0.0
 10
-81.224
 20
54.3783
 30
0.0
 10
-80.6557
 20
54.5875
 30
0.0
 10
-80.7583
 20
54.7416
 30
0.0
 10
-80.7583
 20
54.7416
 30
0.0
 10
-80.6557
 20
54.8957
 30
0.0
 10
-81.224
 20
55.1049
 30
0.0
 10
-81.4297
 20
55.1396
 30
0.0
 10
-81.4297
 20
55.1396
 30
0.0
 10
-89.4384
 20
56.4929
 30
0.0
 10
-89.2907
 20
58.7817
 30
0.0
 10
-89.3916
 20
65.94
 30
0.0
 10
-89.3916
 20
65.94
 30
0.0
 10
-78.903
 20
66.1709
 30
0.0
 10
-79.8726
 20
62.2502
 30
0.0
 10
-78.5867
 20
57.1463
 30
0.0
 10
-78.5867
 20
57.1463
 30
0.0
 10
-78.5254
 20
56.8544
 30
0.0
 10
-78.3507
 20
56.8816
 30
0.0
 10
-78.3507
 20
56.8816
 30
0.0
 10
-78.3507
 20
56.8816
 30
0.0
 10
-78.3507
 20
56.8816
 30
0.0
 10
-78.1759
 20
56.8544
 30
0.0
 10
-78.1147
 20
57.1463
 30
0.0
 10
-78.1147
 20
57.1463
 30
0.0
 10
-76.8288
 20
62.2503
 30
0.0
 10
-77.7984
 20
66.1709
 30
0.0
 10
-67.3097
 20
65.94
 30
0.0
 10
-67.3097
 20
65.94
 30
0.0
 10
-67.4106
 20
58.7816
 30
0.0
 10
-67.263
 20
56.4929
 30
0.0
 10
-75.2716
 20
55.1396
 30
0.0
 10
-75.2716
 20
55.1396
 30
0.0
 10
-75.4773
 20
55.1049
 30
0.0
 10
-76.0456
 20
54.8957
 30
0.0
 10
-75.943
 20
54.7416
 30
0.0
 10
-75.943
 20
54.7416
 30
0.0
 10
-76.0456
 20
54.5875
 30
0.0
 10
-75.4773
 20
54.3783
 30
0.0
 10
-75.2716
 20
54.3436
 30
0.0
 10
-75.2716
 20
54.3436
 30
0.0
 10
-67.263
 20
52.9903
 30
0.0
 10
-67.4106
 20
50.7015
 30
0.0
 10
-67.3097
 20
43.5432
 30
0.0
 10
-67.3097
 20
43.5432
 30
0.0
 10
-77.7984
 20
43.3122
 30
0.0
 10
-76.8288
 20
47.233
 30
0.0
 10
-78.1147
 20
52.3369
 30
0.0
 10
-78.1147
 20
52.3369
 30
0.0
 10
-78.1759
 20
52.6288
 30
0.0
 10
-78.3507
 20
52.6016
 30
0.0
 10
-78.3507
 20
52.6016
 30
0.0
 10
-78.3507
 20
52.6016
 30
0.0
 10
-78.3507
 20
52.6016
 30
0.0
 10
-78.5254
 20
52.6288
 30
0.0
 10
-78.5867
 20
52.3369
 30
0.0
  0
SPLINE
  5
73
330
1F
100
AcDbEntity
  8
layer 1
 62
     7
100
AcDbSpline
210
0.0
220
0.0
230
1.0
 70
    11
 71
     3
 72
    28
 73
    24
 74
     0
 42
0.0000000001
 43
0.0000000001
 12
1.0
 22
0.0
 32
0.0
 13
1.0
 23
0.0
 33
0.0
 40
0.0
 40
0.0
 40
0.0
 40
0.0
 40
0.1428571428571428
 40
0.1428571428571428
 40
0.1428571428571428
 40
0.1428571428571428
 40
0.2857142857142857
 40
0.2857142857142857
 40
0.2857142857142857
 40
0.2857142857142857
 40
0.4285714285714285
 40
0.4285714285714285
 40
0.4285714285714285
 40
0.4285714285714285
 40
0.5714285714285714
 40
0.5714285714285714
 40
0.5714285714285714
 40
0.5714285714285714
 40
0.7142857142857143
 40
0.7142857142857143
 40
0.7142857142857143
 40
0.7142857142857143
 40
1.0
 40
1.0
 40
1.0
 40
1.0
 10
-67.5255
 20
38.8604
 30
0.0
 10
-75.8441
 20
39.2796
 30
0.0
 10
-78.4081
 20
35.0362
 30
0.0
 10
-78.4327
 20
32.9862
 30
0.0
 10
-78.4327
 20
32.9862
 30
0.0
 10
-78.4573
 20
35.0362
 30
0.0
 10
-81.0213
 20
39.2796
 30
0.0
 10
-89.3398
 20
38.8604
 30
0.0
 10
-89.3398
 20
38.8604
 30
0.0
 10
-89.3398
 20
38.8604
 30
0.0
 10
-89.3398
 20
40.5568
 30
0.0
 10
-89.3398
 20
40.5568
 30
0.0
 10
-89.3398
 20
40.5568
 30
0.0
 10
-81.0213
 20
40.1375
 30
0.0
 10
-78.4573
 20
44.381
 30
0.0
 10
-78.4327
 20
46.431
 30
0.0
 10
-78.4327
 20
46.431
 30
0.0
 10
-78.4081
 20
44.381
 30
0.0
 10
-75.8441
 20
40.1375
 30
0.0
 10
-67.5255
 20
40.5568
 30
0.0
 10
-67.5255
 20
40.5568
 30
0.0
 10
-67.5255
 20
40.5568
 30
0.0
 10
-67.5255
 20
38.8604
 30
0.0
 10
-67.5255
 20
38.8604
 30
0.0
  0
SPLINE
  5
74
330
1F
100
AcDbEntity
  8
layer 1
 62
     7
100
AcDbSpline
210
0.0
220
0.0
230
1.0
 70
    11
 71
     3
 72
    20
 73
    16
 74
     0
 42
0.0000000001
 43
0.0000000001
 12
1.0
 22
0.0
 32
0.0
 13
1.0
 23
0.0
 33
0.0
 40
0.0
 40
0.0
 40
0.0
 40
0.0
 40
0.2
 40
0.2
 40
0.2
 40
0.2
 40
0.4
 40
0.4
 40
0.4
 40
0.4
 40
0.6
 40
0.6
 40
0.6
 40
0.6
 40
1.0
 40
1.0
 40
1.0
 40
1.0
 10
-66.0934
 20
42.5908
 30
0.0
 10
-66.0934
 20
42.5908
 30
0.0
 10
-60.3243
 20
42.5908
 30
0.0
 10
-60.3243
 20
42.5908
 30
0.0
 10
-60.3243
 20
42.5908
 30
0.0
 10
-60.3243
 20
42.5908
 30
0.0
 10
-60.3243
 20
36.7604
 30
0.0
 10
-60.3243
 20
36.7604
 30
0.0
 10
-60.3243
 20
36.7604
 30
0.0
 10
-60.3243
 20
36.7604
 30
0.0
 10
-66.0934
 20
36.7604
 30
0.0
 10
-66.0934
 20
36.7604
 30
0.0
 10
-66.0934
 20
36.7604
 30
0.0
 10
-66.0934
 20
36.7604
 30
0.0
 10
-66.0934
 20
42.5908
 30
0.0
 10
-66.0934
 20
42.5908
 30
0.0
  0
SPLINE
  5
75
330
1F
100
AcDbEntity
  8
layer 1
 62
     7
100
AcDbSpline
210
0.0
220
0.0
230
1.0
 70
    11
 71
     3
 72
    28
 73
    24
 74
     0
 42
0.0000000001
 43
0.0000000001
 12
1.0
 22
0.0
 32
0.0
 13
1.0
 23
0.0
 33
0.0
 40
0.0
 40
0.0
 40
0.0
 40
0.0
 40
0.1428571428571428
 40
0.1428571428571428
 40
0.1428571428571428
 40
0.1428571428571428
 40
0.2857142857142857
 40
0.2857142857142857
 40
0.2857142857142857
 40
0.2857142857142857
 40
0.4285714285714285
 40
0.4285714285714285
 40
0.4285714285714285
 40
0.4285714285714285
 40
0.5714285714285714
 40
0.5714285714285714
 40
0.5714285714285714
 40
0.5714285714285714
 40
0.7142857142857143
 40
0.7142857142857143
 40
0.7142857142857143
 40
0.7142857142857143
 40
1.0
 40
1.0
 40
1.0
 40
1.0
 10
-64.0172
 20
43.9496
 30
0.0
 10
-63.5979
 20
52.2681
 30
0.0
 10
-67.8413
 20
54.8321
 30
0.0
 10
-69.8913
 20
54.8567
 30
0.0
 10
-69.8913
 20
54.8567
 30
0.0
 10
-67.8413
 20
54.8813
 30
0.0
 10
-63.5979
 20
57.4454
 30
0.0
 10
-64.0172
 20
65.7638
 30
0.0
 10
-64.0172
 20
65.7638
 30
0.0
 10
-64.0172
 20
65.7638
 30
0.0
 10
-62.3207
 20
65.7638
 30
0.0
 10
-62.3207
 20
65.7638
 30
0.0
 10
-62.3207
 20
65.7638
 30
0.0
 10
-62.74
 20
57.4453
 30
0.0
 10
-58.4966
 20
54.8813
 30
0.0
 10
-56.4465
 20
54.8567
 30
0.0
 10
-56.4465
 20
54.8567
 30
0.0
 10
-58.4966
 20
54.8321
 30
0.0
 10
-62.74
 20
52.2681
 30
0.0
 10
-62.3207
 20
43.9496
 30
0.0
 10
-62.3207
 20
43.9496
 30
0.0
 10
-62.3207
 20
43.9496
 30
0.0
 10
-64.0172
 20
43.9496
 30
0.0
 10
-64.0172
 20
43.9496
 30
0.0
  0
SPLINE
  5
76
330
1F
100
AcDbEntity
  8
layer 1
 62
     7
100
AcDbSpline
210
0.0
220
0.0
230
1.0
 70
    11
 71
     3
 72
    68
 73
    64
 74
     0
 42
0.0000000001
 43
0.0000000001
 12
1.0
 22
0.0
 32
0.0
 13
1.0
 23
0.0
 33
0.0
 40
0.0
 40
0.0
 40
0.0
 40
0.0
 40
0.0588235294117647
 40
0.0588235294117647
 40
0.0588235294117647
 40
0.0588235294117647
 40
0.1176470588235294
 40
0.1176470588235294
 40
0.1176470588235294
 40
0.1176470588235294
 40
0.1764705882352941
 40
0.1764705882352941
 40
0.1764705882352941
 40
0.1764705882352941
 40
0.2352941176470588
 40
0.2352941176470588
 40
0.2352941176470588
 40
0.2352941176470588
 40
0.2941176470588235
 40
0.2941176470588235
 40
0.2941176470588235
 40
0.2941176470588235
 40
0.3529411764705883
 40
0.3529411764705883
 40
0.3529411764705883
 40
0.3529411764705883
 40
0.4117647058823529
 40
0.4117647058823529
 40
0.4117647058823529
 40
0.4117647058823529
 40
0.4705882352941176
 40
0.4705882352941176
 40
0.4705882352941176
 40
0.4705882352941176
 40
0.5294117647058824
 40
0.5294117647058824
 40
0.5294117647058824
 40
0.5294117647058824
 40
0.5882352941176471
 40
0.5882352941176471
 40
0.5882352941176471
 40
0.5882352941176471
 40
0.6470588235294118
 40
0.6470588235294118
 40
0.6470588235294118
 40
0.6470588235294118
 40
0.7058823529411765
 40
0.7058823529411765
 40
0.7058823529411765
 40
0.7058823529411765
 40
0.7647058823529411
 40
0.7647058823529411
 40
0.7647058823529411
 40
0.7647058823529411
 40
0.8235294117647058
 40
0.8235294117647058
 40
0.8235294117647058
 40
0.8235294117647058
 40
0.8823529411764706
 40
0.8823529411764706
 40
0.8823529411764706
 40
0.8823529411764706
 40
1.0
 40
1.0
 40
1.0
 40
1.0
 10
-48.3249
 20
52.3369
 30
0.0
 10
-49.6108
 20
47.2329
 30
0.0
 10
-48.6412
 20
43.3122
 30
0.0
 10
-59.1298
 20
43.5432
 30
0.0
 10
-59.1298
 20
43.5432
 30
0.0
 10
-59.0289
 20
50.7016
 30
0.0
 10
-59.1766
 20
52.9903
 30
0.0
 10
-51.168
 20
54.3436
 30
0.0
 10
-51.168
 20
54.3436
 30
0.0
 10
-50.9622
 20
54.3783
 30
0.0
 10
-50.394
 20
54.5875
 30
0.0
 10
-50.4965
 20
54.7416
 30
0.0
 10
-50.4965
 20
54.7416
 30
0.0
 10
-50.394
 20
54.8957
 30
0.0
 10
-50.9622
 20
55.1049
 30
0.0
 10
-51.168
 20
55.1396
 30
0.0
 10
-51.168
 20
55.1396
 30
0.0
 10
-59.1766
 20
56.4929
 30
0.0
 10
-59.0289
 20
58.7817
 30
0.0
 10
-59.1298
 20
65.94
 30
0.0
 10
-59.1298
 20
65.94
 30
0.0
 10
-48.6412
 20
66.1709
 30
0.0
 10
-49.6108
 20
62.2502
 30
0.0
 10
-48.3249
 20
57.1463
 30
0.0
 10
-48.3249
 20
57.1463
 30
0.0
 10
-48.2637
 20
56.8544
 30
0.0
 10
-48.0889
 20
56.8816
 30
0.0
 10
-48.0889
 20
56.8816
 30
0.0
 10
-48.0889
 20
56.8816
 30
0.0
 10
-48.0889
 20
56.8816
 30
0.0
 10
-47.9141
 20
56.8544
 30
0.0
 10
-47.8529
 20
57.1463
 30
0.0
 10
-47.8529
 20
57.1463
 30
0.0
 10
-46.567
 20
62.2503
 30
0.0
 10
-47.5366
 20
66.1709
 30
0.0
 10
-37.048
 20
65.94
 30
0.0
 10
-37.048
 20
65.94
 30
0.0
 10
-37.1489
 20
58.7816
 30
0.0
 10
-37.0012
 20
56.4929
 30
0.0
 10
-45.0098
 20
55.1396
 30
0.0
 10
-45.0098
 20
55.1396
 30
0.0
 10
-45.2156
 20
55.1049
 30
0.0
 10
-45.7838
 20
54.8957
 30
0.0
 10
-45.6813
 20
54.7416
 30
0.0
 10
-45.6813
 20
54.7416
 30
0.0
 10
-45.7838
 20
54.5875
 30
0.0
 10
-45.2156
 20
54.3783
 30
0.0
 10
-45.0098
 20
54.3436
 30
0.0
 10
-45.0098
 20
54.3436
 30
0.0
 10
-37.0012
 20
52.9903
 30
0.0
 10
-37.1489
 20
50.7015
 30
0.0
 10
-37.048
 20
43.5432
 30
0.0
 10
-37.048
 20
43.5432
 30
0.0
 10
-47.5366
 20
43.3122
 30
0.0
 10
-46.567
 20
47.233
 30
0.0
 10
-47.8529
 20
52.3369
 30
0.0
 10
-47.8529
 20
52.3369
 30
0.0
 10
-47.9141
 20
52.6288
 30
0.0
 10
-48.0889
 20
52.6016
 30
0.0
 10
-48.0889
 20
52.6016
 30
0.0
 10
-48.0889
 20
52.6016
 30
0.0
 10
-48.0889
 20
52.6016
 30
0.0
 10
-48.2637
 20
52.6288
 30
0.0
 10
-48.3249
 20
52.3369
 30
0.0
  0
SPLINE
  5
77
330
1F
100
AcDbEntity
  8
layer 1
 62
     7
100
AcDbSpline
210
0.0
220
0.0
230
1.0
 70
    11
 71
     3
 72
    28
 73
    24
 74
     0
 42
0.0000000001
 43
0.0000000001
 12
1.0
 22
0.0
 32
0.0
 13
1.0
 23
0.0
 33
0.0
 40
0.0
 40
0.0
 40
0.0
 40
0.0
 40
0.1428571428571428
 40
0.1428571428571428
 40
0.1428571428571428
 40
0.1428571428571428
 40
0.2857142857142857
 40
0.2857142857142857
 40
0.2857142857142857
 40
0.2857142857142857
 40
0.4285714285714285
 40
0.4285714285714285
 40
0.4285714285714285
 40
0.4285714285714285
 40
0.5714285714285714
 40
0.5714285714285714
 40
0.5714285714285714
 40
0.5714285714285714
 40
0.7142857142857143
 40
0.7142857142857143
 40
0.7142857142857143
 40
0.7142857142857143
 40
1.0
 40
1.0
 40
1.0
 40
1.0
 10
-37.2637
 20
38.8604
 30
0.0
 10
-45.5822
 20
39.2796
 30
0.0
 10
-48.1462
 20
35.0362
 30
0.0
 10
-48.1708
 20
32.9862
 30
0.0
 10
-48.1708
 20
32.9862
 30
0.0
 10
-48.1955
 20
35.0362
 30
0.0
 10
-50.7594
 20
39.2796
 30
0.0
 10
-59.078
 20
38.8604
 30
0.0
 10
-59.078
 20
38.8604
 30
0.0
 10
-59.078
 20
38.8604
 30
0.0
 10
-59.078
 20
40.5568
 30
0.0
 10
-59.078
 20
40.5568
 30
0.0
 10
-59.078
 20
40.5568
 30
0.0
 10
-50.7594
 20
40.1375
 30
0.0
 10
-48.1955
 20
44.381
 30
0.0
 10
-48.1708
 20
46.431
 30
0.0
 10
-48.1708
 20
46.431
 30
0.0
 10
-48.1462
 20
44.381
 30
0.0
 10
-45.5822
 20
40.1375
 30
0.0
 10
-37.2637
 20
40.5568
 30
0.0
 10
-37.2637
 20
40.5568
 30
0.0
 10
-37.2637
 20
40.5568
 30
0.0
 10
-37.2637
 20
38.8604
 30
0.0
 10
-37.2637
 20
38.8604
 30
0.0
  0
SPLINE
  5
78
330
1F
100
AcDbEntity
  8
layer 1
 62
     7
100
AcDbSpline
210
0.0
220
0.0
230
1.0
 70
    11
 71
     3
 72
    68
 73
    64
 74
     0
 42
0.0000000001
 43
0.0000000001
 12
1.0
 22
0.0
 32
0.0
 13
1.0
 23
0.0
 33
0.0
 40
0.0
 40
0.0
 40
0.0
 40
0.0
 40
0.0588235294117647
 40
0.0588235294117647
 40
0.0588235294117647
 40
0.0588235294117647
 40
0.1176470588235294
 40
0.1176470588235294
 40
0.1176470588235294
 40
0.1176470588235294
 40
0.1764705882352941
 40
0.1764705882352941
 40
0.1764705882352941
 40
0.1764705882352941
 40
0.2352941176470588
 40
0.2352941176470588
 40
0.2352941176470588
 40
0.2352941176470588
 40
0.2941176470588235
 40
0.2941176470588235
 40
0.2941176470588235
 40
0.2941176470588235
 40
0.3529411764705883
 40
0.3529411764705883
 40
0.3529411764705883
 40
0.3529411764705883
 40
0.4117647058823529
 40
0.4117647058823529
 40
0.4117647058823529
 40
0.4117647058823529
 40
0.4705882352941176
 40
0.4705882352941176
 40
0.4705882352941176
 40
0.4705882352941176
 40
0.5294117647058824
 40
0.5294117647058824
 40
0.5294117647058824
 40
0.5294117647058824
 40
0.5882352941176471
 40
0.5882352941176471
 40
0.5882352941176471
 40
0.5882352941176471
 40
0.6470588235294118
 40
0.6470588235294118
 40
0.6470588235294118
 40
0.6470588235294118
 40
0.7058823529411765
 40
0.7058823529411765
 40
0.7058823529411765
 40
0.7058823529411765
 40
0.7647058823529411
 40
0.7647058823529411
 40
0.7647058823529411
 40
0.7647058823529411
 40
0.8235294117647058
 40
0.8235294117647058
 40
0.8235294117647058
 40
0.8235294117647058
 40
0.8823529411764706
 40
0.8823529411764706
 40
0.8823529411764706
 40
0.8823529411764706
 40
1.0
 40
1.0
 40
1.0
 40
1.0
 10
-169.4385
 20
21.9288
 30
0.0
 10
-170.7244
 20
16.8248
 30
0.0
 10
-169.7548
 20
12.9041
 30
0.0
 10
-180.2435
 20
13.135
 30
0.0
 10
-180.2435
 20
13.135
 30
0.0
 10
-180.1425
 20
20.2934
 30
0.0
 10
-180.2902
 20
22.5822
 30
0.0
 10
-172.2816
 20
23.9354
 30
0.0
 10
-172.2816
 20
23.9354
 30
0.0
 10
-172.0759
 20
23.9702
 30
0.0
 10
-171.5076
 20
24.1793
 30
0.0
 10
-171.6102
 20
24.3334
 30
0.0
 10
-171.6102
 20
24.3334
 30
0.0
 10
-171.5076
 20
24.4876
 30
0.0
 10
-172.0759
 20
24.6967
 30
0.0
 10
-172.2816
 20
24.7315
 30
0.0
 10
-172.2816
 20
24.7315
 30
0.0
 10
-180.2902
 20
26.0847
 30
0.0
 10
-180.1425
 20
28.3735
 30
0.0
 10
-180.2435
 20
35.5319
 30
0.0
 10
-180.2435
 20
35.5319
 30
0.0
 10
-169.7548
 20
35.7628
 30
0.0
 10
-170.7244
 20
31.8421
 30
0.0
 10
-169.4385
 20
26.7381
 30
0.0
 10
-169.4385
 20
26.7381
 30
0.0
 10
-169.3773
 20
26.4462
 30
0.0
 10
-169.2025
 20
26.4734
 30
0.0
 10
-169.2025
 20
26.4734
 30
0.0
 10
-169.2025
 20
26.4734
 30
0.0
 10
-169.2025
 20
26.4734
 30
0.0
 10
-169.0277
 20
26.4462
 30
0.0
 10
-168.9665
 20
26.7381
 30
0.0
 10
-168.9665
 20
26.7381
 30
0.0
 10
-167.6806
 20
31.8421
 30
0.0
 10
-168.6502
 20
35.7628
 30
0.0
 10
-158.1616
 20
35.5319
 30
0.0
 10
-158.1616
 20
35.5319
 30
0.0
 10
-158.2625
 20
28.3734
 30
0.0
 10
-158.1148
 20
26.0847
 30
0.0
 10
-166.1235
 20
24.7315
 30
0.0
 10
-166.1235
 20
24.7315
 30
0.0
 10
-166.3292
 20
24.6967
 30
0.0
 10
-166.8975
 20
24.4876
 30
0.0
 10
-166.7949
 20
24.3334
 30
0.0
 10
-166.7949
 20
24.3334
 30
0.0
 10
-166.8975
 20
24.1793
 30
0.0
 10
-166.3292
 20
23.9702
 30
0.0
 10
-166.1235
 20
23.9354
 30
0.0
 10
-166.1235
 20
23.9354
 30
0.0
 10
-158.1148
 20
22.5822
 30
0.0
 10
-158.2625
 20
20.2934
 30
0.0
 10
-158.1616
 20
13.135
 30
0.0
 10
-158.1616
 20
13.135
 30
0.0
 10
-168.6502
 20
12.9041
 30
0.0
 10
-167.6806
 20
16.8248
 30
0.0
 10
-168.9665
 20
21.9288
 30
0.0
 10
-168.9665
 20
21.9288
 30
0.0
 10
-169.0277
 20
22.2206
 30
0.0
 10
-169.2025
 20
22.1935
 30
0.0
 10
-169.2025
 20
22.1935
 30
0.0
 10
-169.2025
 20
22.1935
 30
0.0
 10
-169.2025
 20
22.1935
 30
0.0
 10
-169.3773
 20
22.2206
 30
0.0
 10
-169.4385
 20
21.9288
 30
0.0
  0
SPLINE
  5
79
330
1F
100
AcDbEntity
  8
layer 1
 62
     7
100
AcDbSpline
210
0.0
220
0.0
230
1.0
 70
    11
 71
     3
 72
    28
 73
    24
 74
     0
 42
0.0000000001
 43
0.0000000001
 12
1.0
 22
0.0
 32
0.0
 13
1.0
 23
0.0
 33
0.0
 40
0.0
 40
0.0
 40
0.0
 40
0.0
 40
0.1428571428571428
 40
0.1428571428571428
 40
0.1428571428571428
 40
0.1428571428571428
 40
0.2857142857142857
 40
0.2857142857142857
 40
0.2857142857142857
 40
0.2857142857142857
 40
0.4285714285714285
 40
0.4285714285714285
 40
0.4285714285714285
 40
0.4285714285714285
 40
0.5714285714285714
 40
0.5714285714285714
 40
0.5714285714285714
 40
0.5714285714285714
 40
0.7142857142857143
 40
0.7142857142857143
 40
0.7142857142857143
 40
0.7142857142857143
 40
1.0
 40
1.0
 40
1.0
 40
1.0
 10
-158.3774
 20
8.4522
 30
0.0
 10
-166.6959
 20
8.8715
 30
0.0
 10
-169.2599
 20
4.6281
 30
0.0
 10
-169.2845
 20
2.578
 30
0.0
 10
-169.2845
 20
2.578
 30
0.0
 10
-169.3091
 20
4.6281
 30
0.0
 10
-171.8731
 20
8.8715
 30
0.0
 10
-180.1917
 20
8.4522
 30
0.0
 10
-180.1917
 20
8.4522
 30
0.0
 10
-180.1917
 20
8.4522
 30
0.0
 10
-180.1917
 20
10.1487
 30
0.0
 10
-180.1917
 20
10.1487
 30
0.0
 10
-180.1917
 20
10.1487
 30
0.0
 10
-171.8731
 20
9.7294
 30
0.0
 10
-169.3091
 20
13.9728
 30
0.0
 10
-169.2845
 20
16.0228
 30
0.0
 10
-169.2845
 20
16.0228
 30
0.0
 10
-169.2599
 20
13.9728
 30
0.0
 10
-166.6959
 20
9.7294
 30
0.0
 10
-158.3774
 20
10.1487
 30
0.0
 10
-158.3774
 20
10.1487
 30
0.0
 10
-158.3774
 20
10.1487
 30
0.0
 10
-158.3774
 20
8.4522
 30
0.0
 10
-158.3774
 20
8.4522
 30
0.0
  0
SPLINE
  5
7A
330
1F
100
AcDbEntity
  8
layer 1
 62
     7
100
AcDbSpline
210
0.0
220
0.0
230
1.0
 70
    11
 71
     3
 72
    28
 73
    24
 74
     0
 42
0.0000000001
 43
0.0000000001
 12
1.0
 22
0.0
 32
0.0
 13
1.0
 23
0.0
 33
0.0
 40
0.0
 40
0.0
 40
0.0
 40
0.0
 40
0.1428571428571428
 40
0.1428571428571428
 40
0.1428571428571428
 40
0.1428571428571428
 40
0.2857142857142857
 40
0.2857142857142857
 40
0.2857142857142857
 40
0.2857142857142857
 40
0.4285714285714285
 40
0.4285714285714285
 40
0.4285714285714285
 40
0.4285714285714285
 40
0.5714285714285714
 40
0.5714285714285714
 40
0.5714285714285714
 40
0.5714285714285714
 40
0.7142857142857143
 40
0.7142857142857143
 40
0.7142857142857143
 40
0.7142857142857143
 40
1.0
 40
1.0
 40
1.0
 40
1.0
 10
-154.869
 20
13.5413
 30
0.0
 10
-154.4497
 20
21.8599
 30
0.0
 10
-158.6931
 20
24.4239
 30
0.0
 10
-160.7432
 20
24.4485
 30
0.0
 10
-160.7432
 20
24.4485
 30
0.0
 10
-158.6931
 20
24.4731
 30
0.0
 10
-154.4497
 20
27.0371
 30
0.0
 10
-154.869
 20
35.3556
 30
0.0
 10
-154.869
 20
35.3556
 30
0.0
 10
-154.869
 20
35.3556
 30
0.0
 10
-153.1725
 20
35.3556
 30
0.0
 10
-153.1725
 20
35.3556
 30
0.0
 10
-153.1725
 20
35.3556
 30
0.0
 10
-153.5918
 20
27.0371
 30
0.0
 10
-149.3484
 20
24.4731
 30
0.0
 10
-147.2984
 20
24.4485
 30
0.0
 10
-147.2984
 20
24.4485
 30
0.0
 10
-149.3484
 20
24.4239
 30
0.0
 10
-153.5918
 20
21.8599
 30
0.0
 10
-153.1725
 20
13.5413
 30
0.0
 10
-153.1725
 20
13.5413
 30
0.0
 10
-153.1725
 20
13.5413
 30
0.0
 10
-154.869
 20
13.5413
 30
0.0
 10
-154.869
 20
13.5413
 30
0.0
  0
SPLINE
  5
7B
330
1F
100
AcDbEntity
  8
layer 1
 62
     7
100
AcDbSpline
210
0.0
220
0.0
230
1.0
 70
    11
 71
     3
 72
    20
 73
    16
 74
     0
 42
0.0000000001
 43
0.0000000001
 12
1.0
 22
0.0
 32
0.0
 13
1.0
 23
0.0
 33
0.0
 40
0.0
 40
0.0
 40
0.0
 40
0.0
 40
0.2
 40
0.2
 40
0.2
 40
0.2
 40
0.4
 40
0.4
 40
0.4
 40
0.4
 40
0.6
 40
0.6
 40
0.6
 40
0.6
 40
1.0
 40
1.0
 40
1.0
 40
1.0
 10
-156.9451
 20
12.1826
 30
0.0
 10
-156.9451
 20
12.1826
 30
0.0
 10
-151.176
 20
12.1826
 30
0.0
 10
-151.176
 20
12.1826
 30
0.0
 10
-151.176
 20
12.1826
 30
0.0
 10
-151.176
 20
12.1826
 30
0.0
 10
-151.176
 20
6.3522
 30
0.0
 10
-151.176
 20
6.3522
 30
0.0
 10
-151.176
 20
6.3522
 30
0.0
 10
-151.176
 20
6.3522
 30
0.0
 10
-156.9451
 20
6.3522
 30
0.0
 10
-156.9451
 20
6.3522
 30
0.0
 10
-156.9451
 20
6.3522
 30
0.0
 10
-156.9451
 20
6.3522
 30
0.0
 10
-156.9451
 20
12.1826
 30
0.0
 10
-156.9451
 20
12.1826
 30
0.0
  0
SPLINE
  5
7C
330
1F
100
AcDbEntity
  8
layer 1
 62
     7
100
AcDbSpline
210
0.0
220
0.0
230
1.0
 70
    11
 71
     3
 72
    68
 73
    64
 74
     0
 42
0.0000000001
 43
0.0000000001
 12
1.0
 22
0.0
 32
0.0
 13
1.0
 23
0.0
 33
0.0
 40
0.0
 40
0.0
 40
0.0
 40
0.0
 40
0.0588235294117647
 40
0.0588235294117647
 40
0.0588235294117647
 40
0.0588235294117647
 40
0.1176470588235294
 40
0.1176470588235294
 40
0.1176470588235294
 40
0.1176470588235294
 40
0.1764705882352941
 40
0.1764705882352941
 40
0.1764705882352941
 40
0.1764705882352941
 40
0.2352941176470588
 40
0.2352941176470588
 40
0.2352941176470588
 40
0.2352941176470588
 40
0.2941176470588235
 40
0.2941176470588235
 40
0.2941176470588235
 40
0.2941176470588235
 40
0.3529411764705883
 40
0.3529411764705883
 40
0.3529411764705883
 40
0.3529411764705883
 40
0.4117647058823529
 40
0.4117647058823529
 40
0.4117647058823529
 40
0.4117647058823529
 40
0.4705882352941176
 40
0.4705882352941176
 40
0.4705882352941176
 40
0.4705882352941176
 40
0.5294117647058824
 40
0.5294117647058824
 40
0.5294117647058824
 40
0.5294117647058824
 40
0.5882352941176471
 40
0.5882352941176471
 40
0.5882352941176471
 40
0.5882352941176471
 40
0.6470588235294118
 40
0.6470588235294118
 40
0.6470588235294118
 40
0.6470588235294118
 40
0.7058823529411765
 40
0.7058823529411765
 40
0.7058823529411765
 40
0.7058823529411765
 40
0.7647058823529411
 40
0.7647058823529411
 40
0.7647058823529411
 40
0.7647058823529411
 40
0.8235294117647058
 40
0.8235294117647058
 40
0.8235294117647058
 40
0.8235294117647058
 40
0.8823529411764706
 40
0.8823529411764706
 40
0.8823529411764706
 40
0.8823529411764706
 40
1.0
 40
1.0
 40
1.0
 40
1.0
 10
-139.1103
 20
21.9288
 30
0.0
 10
-140.3963
 20
16.8248
 30
0.0
 10
-139.4266
 20
12.9041
 30
0.0
 10
-149.9153
 20
13.135
 30
0.0
 10
-149.9153
 20
13.135
 30
0.0
 10
-149.8144
 20
20.2934
 30
0.0
 10
-149.962
 20
22.5822
 30
0.0
 10
-141.9534
 20
23.9354
 30
0.0
 10
-141.9534
 20
23.9354
 30
0.0
 10
-141.7477
 20
23.9702
 30
0.0
 10
-141.1794
 20
24.1793
 30
0.0
 10
-141.282
 20
24.3334
 30
0.0
 10
-141.282
 20
24.3334
 30
0.0
 10
-141.1794
 20
24.4876
 30
0.0
 10
-141.7477
 20
24.6967
 30
0.0
 10
-141.9534
 20
24.7315
 30
0.0
 10
-141.9534
 20
24.7315
 30
0.0
 10
-149.962
 20
26.0847
 30
0.0
 10
-149.8144
 20
28.3735
 30
0.0
 10
-149.9153
 20
35.5319
 30
0.0
 10
-149.9153
 20
35.5319
 30
0.0
 10
-139.4266
 20
35.7628
 30
0.0
 10
-140.3963
 20
31.8421
 30
0.0
 10
-139.1103
 20
26.7381
 30
0.0
 10
-139.1103
 20
26.7381
 30
0.0
 10
-139.0491
 20
26.4462
 30
0.0
 10
-138.8743
 20
26.4734
 30
0.0
 10
-138.8743
 20
26.4734
 30
0.0
 10
-138.8743
 20
26.4734
 30
0.0
 10
-138.8743
 20
26.4734
 30
0.0
 10
-138.6996
 20
26.4462
 30
0.0
 10
-138.6384
 20
26.7381
 30
0.0
 10
-138.6384
 20
26.7381
 30
0.0
 10
-137.3524
 20
31.8421
 30
0.0
 10
-138.3221
 20
35.7628
 30
0.0
 10
-127.8334
 20
35.5319
 30
0.0
 10
-127.8334
 20
35.5319
 30
0.0
 10
-127.9343
 20
28.3734
 30
0.0
 10
-127.7867
 20
26.0847
 30
0.0
 10
-135.7953
 20
24.7315
 30
0.0
 10
-135.7953
 20
24.7315
 30
0.0
 10
-136.001
 20
24.6967
 30
0.0
 10
-136.5693
 20
24.4876
 30
0.0
 10
-136.4667
 20
24.3334
 30
0.0
 10
-136.4667
 20
24.3334
 30
0.0
 10
-136.5693
 20
24.1793
 30
0.0
 10
-136.001
 20
23.9702
 30
0.0
 10
-135.7953
 20
23.9354
 30
0.0
 10
-135.7953
 20
23.9354
 30
0.0
 10
-127.7867
 20
22.5822
 30
0.0
 10
-127.9343
 20
20.2934
 30
0.0
 10
-127.8334
 20
13.135
 30
0.0
 10
-127.8334
 20
13.135
 30
0.0
 10
-138.3221
 20
12.9041
 30
0.0
 10
-137.3524
 20
16.8248
 30
0.0
 10
-138.6384
 20
21.9288
 30
0.0
 10
-138.6384
 20
21.9288
 30
0.0
 10
-138.6996
 20
22.2206
 30
0.0
 10
-138.8743
 20
22.1935
 30
0.0
 10
-138.8743
 20
22.1935
 30
0.0
 10
-138.8743
 20
22.1935
 30
0.0
 10
-138.8743
 20
22.1935
 30
0.0
 10
-139.0491
 20
22.2206
 30
0.0
 10
-139.1103
 20
21.9288
 30
0.0
  0
SPLINE
  5
7D
330
1F
100
AcDbEntity
  8
layer 1
 62
     7
100
AcDbSpline
210
0.0
220
0.0
230
1.0
 70
    11
 71
     3
 72
    28
 73
    24
 74
     0
 42
0.0000000001
 43
0.0000000001
 12
1.0
 22
0.0
 32
0.0
 13
1.0
 23
0.0
 33
0.0
 40
0.0
 40
0.0
 40
0.0
 40
0.0
 40
0.1428571428571428
 40
0.1428571428571428
 40
0.1428571428571428
 40
0.1428571428571428
 40
0.2857142857142857
 40
0.2857142857142857
 40
0.2857142857142857
 40
0.2857142857142857
 40
0.4285714285714285
 40
0.4285714285714285
 40
0.4285714285714285
 40
0.4285714285714285
 40
0.5714285714285714
 40
0.5714285714285714
 40
0.5714285714285714
 40
0.5714285714285714
 40
0.7142857142857143
 40
0.7142857142857143
 40
0.7142857142857143
 40
0.7142857142857143
 40
1.0
 40
1.0
 40
1.0
 40
1.0
 10
-128.0491
 20
8.4522
 30
0.0
 10
-136.3677
 20
8.8715
 30
0.0
 10
-138.9317
 20
4.6281
 30
0.0
 10
-138.9563
 20
2.578
 30
0.0
 10
-138.9563
 20
2.578
 30
0.0
 10
-138.9809
 20
4.6281
 30
0.0
 10
-141.5449
 20
8.8715
 30
0.0
 10
-149.8634
 20
8.4522
 30
0.0
 10
-149.8634
 20
8.4522
 30
0.0
 10
-149.8634
 20
8.4522
 30
0.0
 10
-149.8634
 20
10.1487
 30
0.0
 10
-149.8634
 20
10.1487
 30
0.0
 10
-149.8634
 20
10.1487
 30
0.0
 10
-141.5449
 20
9.7294
 30
0.0
 10
-138.9809
 20
13.9728
 30
0.0
 10
-138.9563
 20
16.0228
 30
0.0
 10
-138.9563
 20
16.0228
 30
0.0
 10
-138.9317
 20
13.9728
 30
0.0
 10
-136.3677
 20
9.7294
 30
0.0
 10
-128.0491
 20
10.1487
 30
0.0
 10
-128.0491
 20
10.1487
 30
0.0
 10
-128.0491
 20
10.1487
 30
0.0
 10
-128.0491
 20
8.4522
 30
0.0
 10
-128.0491
 20
8.4522
 30
0.0
  0
SPLINE
  5
7E
330
1F
100
AcDbEntity
  8
layer 1
 62
     7
100
AcDbSpline
210
0.0
220
0.0
230
1.0
 70
    11
 71
     3
 72
    20
 73
    16
 74
     0
 42
0.0000000001
 43
0.0000000001
 12
1.0
 22
0.0
 32
0.0
 13
1.0
 23
0.0
 33
0.0
 40
0.0
 40
0.0
 40
0.0
 40
0.0
 40
0.2
 40
0.2
 40
0.2
 40
0.2
 40
0.4
 40
0.4
 40
0.4
 40
0.4
 40
0.6
 40
0.6
 40
0.6
 40
0.6
 40
1.0
 40
1.0
 40
1.0
 40
1.0
 10
-126.617
 20
12.1826
 30
0.0
 10
-126.617
 20
12.1826
 30
0.0
 10
-120.8479
 20
12.1826
 30
0.0
 10
-120.8479
 20
12.1826
 30
0.0
 10
-120.8479
 20
12.1826
 30
0.0
 10
-120.8479
 20
12.1826
 30
0.0
 10
-120.8479
 20
6.3522
 30
0.0
 10
-120.8479
 20
6.3522
 30
0.0
 10
-120.8479
 20
6.3522
 30
0.0
 10
-120.8479
 20
6.3522
 30
0.0
 10
-126.617
 20
6.3522
 30
0.0
 10
-126.617
 20
6.3522
 30
0.0
 10
-126.617
 20
6.3522
 30
0.0
 10
-126.617
 20
6.3522
 30
0.0
 10
-126.617
 20
12.1826
 30
0.0
 10
-126.617
 20
12.1826
 30
0.0
  0
SPLINE
  5
7F
330
1F
100
AcDbEntity
  8
layer 1
 62
     7
100
AcDbSpline
210
0.0
220
0.0
230
1.0
 70
    11
 71
     3
 72
    28
 73
    24
 74
     0
 42
0.0000000001
 43
0.0000000001
 12
1.0
 22
0.0
 32
0.0
 13
1.0
 23
0.0
 33
0.0
 40
0.0
 40
0.0
 40
0.0
 40
0.0
 40
0.1428571428571428
 40
0.1428571428571428
 40
0.1428571428571428
 40
0.1428571428571428
 40
0.2857142857142857
 40
0.2857142857142857
 40
0.2857142857142857
 40
0.2857142857142857
 40
0.4285714285714285
 40
0.4285714285714285
 40
0.4285714285714285
 40
0.4285714285714285
 40
0.5714285714285714
 40
0.5714285714285714
 40
0.5714285714285714
 40
0.5714285714285714
 40
0.7142857142857143
 40
0.7142857142857143
 40
0.7142857142857143
 40
0.7142857142857143
 40
1.0
 40
1.0
 40
1.0
 40
1.0
 10
-124.5408
 20
13.5413
 30
0.0
 10
-124.1215
 20
21.8599
 30
0.0
 10
-128.3649
 20
24.4239
 30
0.0
 10
-130.4149
 20
24.4485
 30
0.0
 10
-130.4149
 20
24.4485
 30
0.0
 10
-128.3649
 20
24.4731
 30
0.0
 10
-124.1215
 20
27.0371
 30
0.0
 10
-124.5408
 20
35.3556
 30
0.0
 10
-124.5408
 20
35.3556
 30
0.0
 10
-124.5408
 20
35.3556
 30
0.0
 10
-122.8443
 20
35.3556
 30
0.0
 10
-122.8443
 20
35.3556
 30
0.0
 10
-122.8443
 20
35.3556
 30
0.0
 10
-123.2636
 20
27.0371
 30
0.0
 10
-119.0202
 20
24.4731
 30
0.0
 10
-116.9701
 20
24.4485
 30
0.0
 10
-116.9701
 20
24.4485
 30
0.0
 10
-119.0202
 20
24.4239
 30
0.0
 10
-123.2636
 20
21.8599
 30
0.0
 10
-122.8443
 20
13.5413
 30
0.0
 10
-122.8443
 20
13.5413
 30
0.0
 10
-122.8443
 20
13.5413
 30
0.0
 10
-124.5408
 20
13.5413
 30
0.0
 10
-124.5408
 20
13.5413
 30
0.0
  0
SPLINE
  5
80
330
1F
100
AcDbEntity
  8
layer 1
 62
     7
100
AcDbSpline
210
0.0
220
0.0
230
1.0
 70
    11
 71
     3
 72
    68
 73
    64
 74
     0
 42
0.0000000001
 43
0.0000000001
 12
1.0
 22
0.0
 32
0.0
 13
1.0
 23
0.0
 33
0.0
 40
0.0
 40
0.0
 40
0.0
 40
0.0
 40
0.0588235294117647
 40
0.0588235294117647
 40
0.0588235294117647
 40
0.0588235294117647
 40
0.1176470588235294
 40
0.1176470588235294
 40
0.1176470588235294
 40
0.1176470588235294
 40
0.1764705882352941
 40
0.1764705882352941
 40
0.1764705882352941
 40
0.1764705882352941
 40
0.2352941176470588
 40
0.2352941176470588
 40
0.2352941176470588
 40
0.2352941176470588
 40
0.2941176470588235
 40
0.2941176470588235
 40
0.2941176470588235
 40
0.2941176470588235
 40
0.3529411764705883
 40
0.3529411764705883
 40
0.3529411764705883
 40
0.3529411764705883
 40
0.4117647058823529
 40
0.4117647058823529
 40
0.4117647058823529
 40
0.4117647058823529
 40
0.4705882352941176
 40
0.4705882352941176
 40
0.4705882352941176
 40
0.4705882352941176
 40
0.5294117647058824
 40
0.5294117647058824
 40
0.5294117647058824
 40
0.5294117647058824
 40
0.5882352941176471
 40
0.5882352941176471
 40
0.5882352941176471
 40
0.5882352941176471
 40
0.6470588235294118
 40
0.6470588235294118
 40
0.6470588235294118
 40
0.6470588235294118
 40
0.7058823529411765
 40
0.7058823529411765
 40
0.7058823529411765
 40
0.7058823529411765
 40
0.7647058823529411
 40
0.7647058823529411
 40
0.7647058823529411
 40
0.7647058823529411
 40
0.8235294117647058
 40
0.8235294117647058
 40
0.8235294117647058
 40
0.8235294117647058
 40
0.8823529411764706
 40
0.8823529411764706
 40
0.8823529411764706
 40
0.8823529411764706
 40
1.0
 40
1.0
 40
1.0
 40
1.0
 10
-108.8485
 20
21.9288
 30
0.0
 10
-110.1344
 20
16.8248
 30
0.0
 10
-109.1648
 20
12.9041
 30
0.0
 10
-119.6534
 20
13.135
 30
0.0
 10
-119.6534
 20
13.135
 30
0.0
 10
-119.5525
 20
20.2934
 30
0.0
 10
-119.7002
 20
22.5822
 30
0.0
 10
-111.6916
 20
23.9354
 30
0.0
 10
-111.6916
 20
23.9354
 30
0.0
 10
-111.4859
 20
23.9702
 30
0.0
 10
-110.9176
 20
24.1793
 30
0.0
 10
-111.0202
 20
24.3334
 30
0.0
 10
-111.0202
 20
24.3334
 30
0.0
 10
-110.9176
 20
24.4876
 30
0.0
 10
-111.4859
 20
24.6967
 30
0.0
 10
-111.6916
 20
24.7315
 30
0.0
 10
-111.6916
 20
24.7315
 30
0.0
 10
-119.7002
 20
26.0847
 30
0.0
 10
-119.5525
 20
28.3735
 30
0.0
 10
-119.6534
 20
35.5319
 30
0.0
 10
-119.6534
 20
35.5319
 30
0.0
 10
-109.1648
 20
35.7628
 30
0.0
 10
-110.1344
 20
31.8421
 30
0.0
 10
-108.8485
 20
26.7381
 30
0.0
 10
-108.8485
 20
26.7381
 30
0.0
 10
-108.7873
 20
26.4462
 30
0.0
 10
-108.6125
 20
26.4734
 30
0.0
 10
-108.6125
 20
26.4734
 30
0.0
 10
-108.6125
 20
26.4734
 30
0.0
 10
-108.6125
 20
26.4734
 30
0.0
 10
-108.4377
 20
26.4462
 30
0.0
 10
-108.3765
 20
26.7381
 30
0.0
 10
-108.3765
 20
26.7381
 30
0.0
 10
-107.0906
 20
31.8421
 30
0.0
 10
-108.0602
 20
35.7628
 30
0.0
 10
-97.5716
 20
35.5319
 30
0.0
 10
-97.5716
 20
35.5319
 30
0.0
 10
-97.6725
 20
28.3734
 30
0.0
 10
-97.5248
 20
26.0847
 30
0.0
 10
-105.5335
 20
24.7315
 30
0.0
 10
-105.5335
 20
24.7315
 30
0.0
 10
-105.7392
 20
24.6967
 30
0.0
 10
-106.3075
 20
24.4876
 30
0.0
 10
-106.2049
 20
24.3334
 30
0.0
 10
-106.2049
 20
24.3334
 30
0.0
 10
-106.3075
 20
24.1793
 30
0.0
 10
-105.7392
 20
23.9702
 30
0.0
 10
-105.5335
 20
23.9354
 30
0.0
 10
-105.5335
 20
23.9354
 30
0.0
 10
-97.5248
 20
22.5822
 30
0.0
 10
-97.6725
 20
20.2934
 30
0.0
 10
-97.5716
 20
13.135
 30
0.0
 10
-97.5716
 20
13.135
 30
0.0
 10
-108.0602
 20
12.9041
 30
0.0
 10
-107.0906
 20
16.8248
 30
0.0
 10
-108.3765
 20
21.9288
 30
0.0
 10
-108.3765
 20
21.9288
 30
0.0
 10
-108.4377
 20
22.2206
 30
0.0
 10
-108.6125
 20
22.1935
 30
0.0
 10
-108.6125
 20
22.1935
 30
0.0
 10
-108.6125
 20
22.1935
 30
0.0
 10
-108.6125
 20
22.1935
 30
0.0
 10
-108.7873
 20
22.2206
 30
0.0
 10
-108.8485
 20
21.9288
 30
0.0
  0
SPLINE
  5
81
330
1F
100
AcDbEntity
  8
layer 1
 62
     7
100
AcDbSpline
210
0.0
220
0.0
230
1.0
 70
    11
 71
     3
 72
    28
 73
    24
 74
     0
 42
0.0000000001
 43
0.0000000001
 12
1.0
 22
0.0
 32
0.0
 13
1.0
 23
0.0
 33
0.0
 40
0.0
 40
0.0
 40
0.0
 40
0.0
 40
0.1428571428571428
 40
0.1428571428571428
 40
0.1428571428571428
 40
0.1428571428571428
 40
0.2857142857142857
 40
0.2857142857142857
 40
0.2857142857142857
 40
0.2857142857142857
 40
0.4285714285714285
 40
0.4285714285714285
 40
0.4285714285714285
 40
0.4285714285714285
 40
0.5714285714285714
 40
0.5714285714285714
 40
0.5714285714285714
 40
0.5714285714285714
 40
0.7142857142857143
 40
0.7142857142857143
 40
0.7142857142857143
 40
0.7142857142857143
 40
1.0
 40
1.0
 40
1.0
 40
1.0
 10
-97.7874
 20
8.4522
 30
0.0
 10
-106.1059
 20
8.8715
 30
0.0
 10
-108.6699
 20
4.6281
 30
0.0
 10
-108.6945
 20
2.578
 30
0.0
 10
-108.6945
 20
2.578
 30
0.0
 10
-108.7191
 20
4.6281
 30
0.0
 10
-111.2831
 20
8.8715
 30
0.0
 10
-119.6016
 20
8.4522
 30
0.0
 10
-119.6016
 20
8.4522
 30
0.0
 10
-119.6016
 20
8.4522
 30
0.0
 10
-119.6016
 20
10.1487
 30
0.0
 10
-119.6016
 20
10.1487
 30
0.0
 10
-119.6016
 20
10.1487
 30
0.0
 10
-111.2831
 20
9.7294
 30
0.0
 10
-108.7191
 20
13.9728
 30
0.0
 10
-108.6945
 20
16.0228
 30
0.0
 10
-108.6945
 20
16.0228
 30
0.0
 10
-108.6699
 20
13.9728
 30
0.0
 10
-106.1059
 20
9.7294
 30
0.0
 10
-97.7874
 20
10.1487
 30
0.0
 10
-97.7874
 20
10.1487
 30
0.0
 10
-97.7874
 20
10.1487
 30
0.0
 10
-97.7874
 20
8.4522
 30
0.0
 10
-97.7874
 20
8.4522
 30
0.0
  0
SPLINE
  5
82
330
1F
100
AcDbEntity
  8
layer 1
 62
     7
100
AcDbSpline
210
0.0
220
0.0
230
1.0
 70
    11
 71
     3
 72
    20
 73
    16
 74
     0
 42
0.0000000001
 43
0.0000000001
 12
1.0
 22
0.0
 32
0.0
 13
1.0
 23
0.0
 33
0.0
 40
0.0
 40
0.0
 40
0.0
 40
0.0
 40
0.2
 40
0.2
 40
0.2
 40
0.2
 40
0.4
 40
0.4
 40
0.4
 40
0.4
 40
0.6
 40
0.6
 40
0.6
 40
0.6
 40
1.0
 40
1.0
 40
1.0
 40
1.0
 10
-96.3551
 20
12.1826
 30
0.0
 10
-96.3551
 20
12.1826
 30
0.0
 10
-90.586
 20
12.1826
 30
0.0
 10
-90.586
 20
12.1826
 30
0.0
 10
-90.586
 20
12.1826
 30
0.0
 10
-90.586
 20
12.1826
 30
0.0
 10
-90.586
 20
6.3522
 30
0.0
 10
-90.586
 20
6.3522
 30
0.0
 10
-90.586
 20
6.3522
 30
0.0
 10
-90.586
 20
6.3522
 30
0.0
 10
-96.3551
 20
6.3522
 30
0.0
 10
-96.3551
 20
6.3522
 30
0.0
 10
-96.3551
 20
6.3522
 30
0.0
 10
-96.3551
 20
6.3522
 30
0.0
 10
-96.3551
 20
12.1826
 30
0.0
 10
-96.3551
 20
12.1826
 30
0.0
  0
SPLINE
  5
83
330
1F
100
AcDbEntity
  8
layer 1
 62
     7
100
AcDbSpline
210
0.0
220
0.0
230
1.0
 70
    11
 71
     3
 72
    28
 73
    24
 74
     0
 42
0.0000000001
 43
0.0000000001
 12
1.0
 22
0.0
 32
0.0
 13
1.0
 23
0.0
 33
0.0
 40
0.0
 40
0.0
 40
0.0
 40
0.0
 40
0.1428571428571428
 40
0.1428571428571428
 40
0.1428571428571428
 40
0.1428571428571428
 40
0.2857142857142857
 40
0.2857142857142857
 40
0.2857142857142857
 40
0.2857142857142857
 40
0.4285714285714285
 40
0.4285714285714285
 40
0.4285714285714285
 40
0.4285714285714285
 40
0.5714285714285714
 40
0.5714285714285714
 40
0.5714285714285714
 40
0.5714285714285714
 40
0.7142857142857143
 40
0.7142857142857143
 40
0.7142857142857143
 40
0.7142857142857143
 40
1.0
 40
1.0
 40
1.0
 40
1.0
 10
-94.279
 20
13.5413
 30
0.0
 10
-93.8597
 20
21.8599
 30
0.0
 10
-98.1031
 20
24.4239
 30
0.0
 10
-100.1532
 20
24.4485
 30
0.0
 10
-100.1532
 20
24.4485
 30
0.0
 10
-98.1031
 20
24.4731
 30
0.0
 10
-93.8597
 20
27.0371
 30
0.0
 10
-94.279
 20
35.3556
 30
0.0
 10
-94.279
 20
35.3556
 30
0.0
 10
-94.279
 20
35.3556
 30
0.0
 10
-92.5825
 20
35.3556
 30
0.0
 10
-92.5825
 20
35.3556
 30
0.0
 10
-92.5825
 20
35.3556
 30
0.0
 10
-93.0018
 20
27.0371
 30
0.0
 10
-88.7584
 20
24.4731
 30
0.0
 10
-86.7084
 20
24.4485
 30
0.0
 10
-86.7084
 20
24.4485
 30
0.0
 10
-88.7584
 20
24.4239
 30
0.0
 10
-93.0018
 20
21.8599
 30
0.0
 10
-92.5825
 20
13.5413
 30
0.0
 10
-92.5825
 20
13.5413
 30
0.0
 10
-92.5825
 20
13.5413
 30
0.0
 10
-94.279
 20
13.5413
 30
0.0
 10
-94.279
 20
13.5413
 30
0.0
  0
SPLINE
  5
84
330
1F
100
AcDbEntity
  8
layer 1
 62
     7
100
AcDbSpline
210
0.0
220
0.0
230
1.0
 70
    11
 71
     3
 72
    68
 73
    64
 74
     0
 42
0.0000000001
 43
0.0000000001
 12
1.0
 22
0.0
 32
0.0
 13
1.0
 23
0.0
 33
0.0
 40
0.0
 40
0.0
 40
0.0
 40
0.0
 40
0.0588235294117647
 40
0.0588235294117647
 40
0.0588235294117647
 40
0.0588235294117647
 40
0.1176470588235294
 40
0.1176470588235294
 40
0.1176470588235294
 40
0.1176470588235294
 40
0.1764705882352941
 40
0.1764705882352941
 40
0.1764705882352941
 40
0.1764705882352941
 40
0.2352941176470588
 40
0.2352941176470588
 40
0.2352941176470588
 40
0.2352941176470588
 40
0.2941176470588235
 40
0.2941176470588235
 40
0.2941176470588235
 40
0.2941176470588235
 40
0.3529411764705883
 40
0.3529411764705883
 40
0.3529411764705883
 40
0.3529411764705883
 40
0.4117647058823529
 40
0.4117647058823529
 40
0.4117647058823529
 40
0.4117647058823529
 40
0.4705882352941176
 40
0.4705882352941176
 40
0.4705882352941176
 40
0.4705882352941176
 40
0.5294117647058824
 40
0.5294117647058824
 40
0.5294117647058824
 40
0.5294117647058824
 40
0.5882352941176471
 40
0.5882352941176471
 40
0.5882352941176471
 40
0.5882352941176471
 40
0.6470588235294118
 40
0.6470588235294118
 40
0.6470588235294118
 40
0.6470588235294118
 40
0.7058823529411765
 40
0.7058823529411765
 40
0.7058823529411765
 40
0.7058823529411765
 40
0.7647058823529411
 40
0.7647058823529411
 40
0.7647058823529411
 40
0.7647058823529411
 40
0.8235294117647058
 40
0.8235294117647058
 40
0.8235294117647058
 40
0.8235294117647058
 40
0.8823529411764706
 40
0.8823529411764706
 40
0.8823529411764706
 40
0.8823529411764706
 40
1.0
 40
1.0
 40
1.0
 40
1.0
 10
-78.5867
 20
21.9288
 30
0.0
 10
-79.8726
 20
16.8248
 30
0.0
 10
-78.903
 20
12.9041
 30
0.0
 10
-89.3916
 20
13.135
 30
0.0
 10
-89.3916
 20
13.135
 30
0.0
 10
-89.2907
 20
20.2934
 30
0.0
 10
-89.4384
 20
22.5822
 30
0.0
 10
-81.4297
 20
23.9354
 30
0.0
 10
-81.4297
 20
23.9354
 30
0.0
 10
-81.224
 20
23.9702
 30
0.0
 10
-80.6557
 20
24.1793
 30
0.0
 10
-80.7583
 20
24.3334
 30
0.0
 10
-80.7583
 20
24.3334
 30
0.0
 10
-80.6557
 20
24.4876
 30
0.0
 10
-81.224
 20
24.6967
 30
0.0
 10
-81.4297
 20
24.7315
 30
0.0
 10
-81.4297
 20
24.7315
 30
0.0
 10
-89.4384
 20
26.0847
 30
0.0
 10
-89.2907
 20
28.3735
 30
0.0
 10
-89.3916
 20
35.5319
 30
0.0
 10
-89.3916
 20
35.5319
 30
0.0
 10
-78.903
 20
35.7628
 30
0.0
 10
-79.8726
 20
31.8421
 30
0.0
 10
-78.5867
 20
26.7381
 30
0.0
 10
-78.5867
 20
26.7381
 30
0.0
 10
-78.5254
 20
26.4462
 30
0.0
 10
-78.3507
 20
26.4734
 30
0.0
 10
-78.3507
 20
26.4734
 30
0.0
 10
-78.3507
 20
26.4734
 30
0.0
 10
-78.3507
 20
26.4734
 30
0.0
 10
-78.1759
 20
26.4462
 30
0.0
 10
-78.1147
 20
26.7381
 30
0.0
 10
-78.1147
 20
26.7381
 30
0.0
 10
-76.8288
 20
31.8421
 30
0.0
 10
-77.7984
 20
35.7628
 30
0.0
 10
-67.3097
 20
35.5319
 30
0.0
 10
-67.3097
 20
35.5319
 30
0.0
 10
-67.4106
 20
28.3734
 30
0.0
 10
-67.263
 20
26.0847
 30
0.0
 10
-75.2716
 20
24.7315
 30
0.0
 10
-75.2716
 20
24.7315
 30
0.0
 10
-75.4773
 20
24.6967
 30
0.0
 10
-76.0456
 20
24.4876
 30
0.0
 10
-75.943
 20
24.3334
 30
0.0
 10
-75.943
 20
24.3334
 30
0.0
 10
-76.0456
 20
24.1793
 30
0.0
 10
-75.4773
 20
23.9702
 30
0.0
 10
-75.2716
 20
23.9354
 30
0.0
 10
-75.2716
 20
23.9354
 30
0.0
 10
-67.263
 20
22.5822
 30
0.0
 10
-67.4106
 20
20.2934
 30
0.0
 10
-67.3097
 20
13.135
 30
0.0
 10
-67.3097
 20
13.135
 30
0.0
 10
-77.7984
 20
12.9041
 30
0.0
 10
-76.8288
 20
16.8248
 30
0.0
 10
-78.1147
 20
21.9288
 30
0.0
 10
-78.1147
 20
21.9288
 30
0.0
 10
-78.1759
 20
22.2206
 30
0.0
 10
-78.3507
 20
22.1935
 30
0.0
 10
-78.3507
 20
22.1935
 30
0.0
 10
-78.3507
 20
22.1935
 30
0.0
 10
-78.3507
 20
22.1935
 30
0.0
 10
-78.5254
 20
22.2206
 30
0.0
 10
-78.5867
 20
21.9288
 30
0.0
  0
SPLINE
  5
85
330
1F
100
AcDbEntity
  8
layer 1
 62
     7
100
AcDbSpline
210
0.0
220
0.0
230
1.0
 70
    11
 71
     3
 72
    28
 73
    24
 74
     0
 42
0.0000000001
 43
0.0000000001
 12
1.0
 22
0.0
 32
0.0
 13
1.0
 23
0.0
 33
0.0
 40
0.0
 40
0.0
 40
0.0
 40
0.0
 40
0.1428571428571428
 40
0.1428571428571428
 40
0.1428571428571428
 40
0.1428571428571428
 40
0.2857142857142857
 40
0.2857142857142857
 40
0.2857142857142857
 40
0.2857142857142857
 40
0.4285714285714285
 40
0.4285714285714285
 40
0.4285714285714285
 40
0.4285714285714285
 40
0.5714285714285714
 40
0.5714285714285714
 40
0.5714285714285714
 40
0.5714285714285714
 40
0.7142857142857143
 40
0.7142857142857143
 40
0.7142857142857143
 40
0.7142857142857143
 40
1.0
 40
1.0
 40
1.0
 40
1.0
 10
-67.5255
 20
8.4522
 30
0.0
 10
-75.8441
 20
8.8715
 30
0.0
 10
-78.4081
 20
4.6281
 30
0.0
 10
-78.4327
 20
2.578
 30
0.0
 10
-78.4327
 20
2.578
 30
0.0
 10
-78.4573
 20
4.6281
 30
0.0
 10
-81.0213
 20
8.8715
 30
0.0
 10
-89.3398
 20
8.4522
 30
0.0
 10
-89.3398
 20
8.4522
 30
0.0
 10
-89.3398
 20
8.4522
 30
0.0
 10
-89.3398
 20
10.1487
 30
0.0
 10
-89.3398
 20
10.1487
 30
0.0
 10
-89.3398
 20
10.1487
 30
0.0
 10
-81.0213
 20
9.7294
 30
0.0
 10
-78.4573
 20
13.9728
 30
0.0
 10
-78.4327
 20
16.0228
 30
0.0
 10
-78.4327
 20
16.0228
 30
0.0
 10
-78.4081
 20
13.9728
 30
0.0
 10
-75.8441
 20
9.7294
 30
0.0
 10
-67.5255
 20
10.1487
 30
0.0
 10
-67.5255
 20
10.1487
 30
0.0
 10
-67.5255
 20
10.1487
 30
0.0
 10
-67.5255
 20
8.4522
 30
0.0
 10
-67.5255
 20
8.4522
 30
0.0
  0
SPLINE
  5
86
330
1F
100
AcDbEntity
  8
layer 1
 62
     7
100
AcDbSpline
210
0.0
220
0.0
230
1.0
 70
    11
 71
     3
 72
    20
 73
    16
 74
     0
 42
0.0000000001
 43
0.0000000001
 12
1.0
 22
0.0
 32
0.0
 13
1.0
 23
0.0
 33
0.0
 40
0.0
 40
0.0
 40
0.0
 40
0.0
 40
0.2
 40
0.2
 40
0.2
 40
0.2
 40
0.4
 40
0.4
 40
0.4
 40
0.4
 40
0.6
 40
0.6
 40
0.6
 40
0.6
 40
1.0
 40
1.0
 40
1.0
 40
1.0
 10
-66.0934
 20
12.1826
 30
0.0
 10
-66.0934
 20
12.1826
 30
0.0
 10
-60.3243
 20
12.1826
 30
0.0
 10
-60.3243
 20
12.1826
 30
0.0
 10
-60.3243
 20
12.1826
 30
0.0
 10
-60.3243
 20
12.1826
 30
0.0
 10
-60.3243
 20
6.3522
 30
0.0
 10
-60.3243
 20
6.3522
 30
0.0
 10
-60.3243
 20
6.3522
 30
0.0
 10
-60.3243
 20
6.3522
 30
0.0
 10
-66.0934
 20
6.3522
 30
0.0
 10
-66.0934
 20
6.3522
 30
0.0
 10
-66.0934
 20
6.3522
 30
0.0
 10
-66.0934
 20
6.3522
 30
0.0
 10
-66.0934
 20
12.1826
 30
0.0
 10
-66.0934
 20
12.1826
 30
0.0
  0
SPLINE
  5
87
330
1F
100
AcDbEntity
  8
layer 1
 62
     7
100
AcDbSpline
210
0.0
220
0.0
230
1.0
 70
    11
 71
     3
 72
    28
 73
    24
 74
     0
 42
0.0000000001
 43
0.0000000001
 12
1.0
 22
0.0
 32
0.0
 13
1.0
 23
0.0
 33
0.0
 40
0.0
 40
0.0
 40
0.0
 40
0.0
 40
0.1428571428571428
 40
0.1428571428571428
 40
0.1428571428571428
 40
0.1428571428571428
 40
0.2857142857142857
 40
0.2857142857142857
 40
0.2857142857142857
 40
0.2857142857142857
 40
0.4285714285714285
 40
0.4285714285714285
 40
0.4285714285714285
 40
0.4285714285714285
 40
0.5714285714285714
 40
0.5714285714285714
 40
0.5714285714285714
 40
0.5714285714285714
 40
0.7142857142857143
 40
0.7142857142857143
 40
0.7142857142857143
 40
0.7142857142857143
 40
1.0
 40
1.0
 40
1.0
 40
1.0
 10
-64.0172
 20
13.5413
 30
0.0
 10
-63.5979
 20
21.8599
 30
0.0
 10
-67.8413
 20
24.4239
 30
0.0
 10
-69.8913
 20
24.4485
 30
0.0
 10
-69.8913
 20
24.4485
 30
0.0
 10
-67.8413
 20
24.4731
 30
0.0
 10
-63.5979
 20
27.0371
 30
0.0
 10
-64.0172
 20
35.3556
 30
0.0
 10
-64.0172
 20
35.3556
 30
0.0
 10
-64.0172
 20
35.3556
 30
0.0
 10
-62.3207
 20
35.3556
 30
0.0
 10
-62.3207
 20
35.3556
 30
0.0
 10
-62.3207
 20
35.3556
 30
0.0
 10
-62.74
 20
27.0371
 30
0.0
 10
-58.4966
 20
24.4731
 30
0.0
 10
-56.4465
 20
24.4485
 30
0.0
 10
-56.4465
 20
24.4485
 30
0.0
 10
-58.4966
 20
24.4239
 30
0.0
 10
-62.74
 20
21.8599
 30
0.0
 10
-62.3207
 20
13.5413
 30
0.0
 10
-62.3207
 20
13.5413
 30
0.0
 10
-62.3207
 20
13.5413
 30
0.0
 10
-64.0172
 20
13.5413
 30
0.0
 10
-64.0172
 20
13.5413
 30
0.0
  0
SPLINE
  5
88
330
1F
100
AcDbEntity
  8
layer 1
 62
     7
100
AcDbSpline
210
0.0
220
0.0
230
1.0
 70
    11
 71
     3
 72
    68
 73
    64
 74
     0
 42
0.0000000001
 43
0.0000000001
 12
1.0
 22
0.0
 32
0.0
 13
1.0
 23
0.0
 33
0.0
 40
0.0
 40
0.0
 40
0.0
 40
0.0
 40
0.0588235294117647
 40
0.0588235294117647
 40
0.0588235294117647
 40
0.0588235294117647
 40
0.1176470588235294
 40
0.1176470588235294
 40
0.1176470588235294
 40
0.1176470588235294
 40
0.1764705882352941
 40
0.1764705882352941
 40
0.1764705882352941
 40
0.1764705882352941
 40
0.2352941176470588
 40
0.2352941176470588
 40
0.2352941176470588
 40
0.2352941176470588
 40
0.2941176470588235
 40
0.2941176470588235
 40
0.2941176470588235
 40
0.2941176470588235
 40
0.3529411764705883
 40
0.3529411764705883
 40
0.3529411764705883
 40
0.3529411764705883
 40
0.4117647058823529
 40
0.4117647058823529
 40
0.4117647058823529
 40
0.4117647058823529
 40
0.4705882352941176
 40
0.4705882352941176
 40
0.4705882352941176
 40
0.4705882352941176
 40
0.5294117647058824
 40
0.5294117647058824
 40
0.5294117647058824
 40
0.5294117647058824
 40
0.5882352941176471
 40
0.5882352941176471
 40
0.5882352941176471
 40
0.5882352941176471
 40
0.6470588235294118
 40
0.6470588235294118
 40
0.6470588235294118
 40
0.6470588235294118
 40
0.7058823529411765
 40
0.7058823529411765
 40
0.7058823529411765
 40
0.7058823529411765
 40
0.7647058823529411
 40
0.7647058823529411
 40
0.7647058823529411
 40
0.7647058823529411
 40
0.8235294117647058
 40
0.8235294117647058
 40
0.8235294117647058
 40
0.8235294117647058
 40
0.8823529411764706
 40
0.8823529411764706
 40
0.8823529411764706
 40
0.8823529411764706
 40
1.0
 40
1.0
 40
1.0
 40
1.0
 10
-48.3249
 20
21.9288
 30
0.0
 10
-49.6108
 20
16.8248
 30
0.0
 10
-48.6412
 20
12.9041
 30
0.0
 10
-59.1298
 20
13.135
 30
0.0
 10
-59.1298
 20
13.135
 30
0.0
 10
-59.0289
 20
20.2934
 30
0.0
 10
-59.1766
 20
22.5822
 30
0.0
 10
-51.168
 20
23.9354
 30
0.0
 10
-51.168
 20
23.9354
 30
0.0
 10
-50.9622
 20
23.9702
 30
0.0
 10
-50.394
 20
24.1793
 30
0.0
 10
-50.4965
 20
24.3334
 30
0.0
 10
-50.4965
 20
24.3334
 30
0.0
 10
-50.394
 20
24.4876
 30
0.0
 10
-50.9622
 20
24.6967
 30
0.0
 10
-51.168
 20
24.7315
 30
0.0
 10
-51.168
 20
24.7315
 30
0.0
 10
-59.1766
 20
26.0847
 30
0.0
 10
-59.0289
 20
28.3735
 30
0.0
 10
-59.1298
 20
35.5319
 30
0.0
 10
-59.1298
 20
35.5319
 30
0.0
 10
-48.6412
 20
35.7628
 30
0.0
 10
-49.6108
 20
31.8421
 30
0.0
 10
-48.3249
 20
26.7381
 30
0.0
 10
-48.3249
 20
26.7381
 30
0.0
 10
-48.2637
 20
26.4462
 30
0.0
 10
-48.0889
 20
26.4734
 30
0.0
 10
-48.0889
 20
26.4734
 30
0.0
 10
-48.0889
 20
26.4734
 30
0.0
 10
-48.0889
 20
26.4734
 30
0.0
 10
-47.9141
 20
26.4462
 30
0.0
 10
-47.8529
 20
26.7381
 30
0.0
 10
-47.8529
 20
26.7381
 30
0.0
 10
-46.567
 20
31.8421
 30
0.0
 10
-47.5366
 20
35.7628
 30
0.0
 10
-37.048
 20
35.5319
 30
0.0
 10
-37.048
 20
35.5319
 30
0.0
 10
-37.1489
 20
28.3734
 30
0.0
 10
-37.0012
 20
26.0847
 30
0.0
 10
-45.0098
 20
24.7315
 30
0.0
 10
-45.0098
 20
24.7315
 30
0.0
 10
-45.2156
 20
24.6967
 30
0.0
 10
-45.7838
 20
24.4876
 30
0.0
 10
-45.6813
 20
24.3334
 30
0.0
 10
-45.6813
 20
24.3334
 30
0.0
 10
-45.7838
 20
24.1793
 30
0.0
 10
-45.2156
 20
23.9702
 30
0.0
 10
-45.0098
 20
23.9354
 30
0.0
 10
-45.0098
 20
23.9354
 30
0.0
 10
-37.0012
 20
22.5822
 30
0.0
 10
-37.1489
 20
20.2934
 30
0.0
 10
-37.048
 20
13.135
 30
0.0
 10
-37.048
 20
13.135
 30
0.0
 10
-47.5366
 20
12.9041
 30
0.0
 10
-46.567
 20
16.8248
 30
0.0
 10
-47.8529
 20
21.9288
 30
0.0
 10
-47.8529
 20
21.9288
 30
0.0
 10
-47.9141
 20
22.2206
 30
0.0
 10
-48.0889
 20
22.1935
 30
0.0
 10
-48.0889
 20
22.1935
 30
0.0
 10
-48.0889
 20
22.1935
 30
0.0
 10
-48.0889
 20
22.1935
 30
0.0
 10
-48.2637
 20
22.2206
 30
0.0
 10
-48.3249
 20
21.9288
 30
0.0
  0
SPLINE
  5
89
330
1F
100
AcDbEntity
  8
layer 1
 62
     7
100
AcDbSpline
210
0.0
220
0.0
230
1.0
 70
    11
 71
     3
 72
    28
 73
    24
 74
     0
 42
0.0000000001
 43
0.0000000001
 12
1.0
 22
0.0
 32
0.0
 13
1.0
 23
0.0
 33
0.0
 40
0.0
 40
0.0
 40
0.0
 40
0.0
 40
0.1428571428571428
 40
0.1428571428571428
 40
0.1428571428571428
 40
0.1428571428571428
 40
0.2857142857142857
 40
0.2857142857142857
 40
0.2857142857142857
 40
0.2857142857142857
 40
0.4285714285714285
 40
0.4285714285714285
 40
0.4285714285714285
 40
0.4285714285714285
 40
0.5714285714285714
 40
0.5714285714285714
 40
0.5714285714285714
 40
0.5714285714285714
 40
0.7142857142857143
 40
0.7142857142857143
 40
0.7142857142857143
 40
0.7142857142857143
 40
1.0
 40
1.0
 40
1.0
 40
1.0
 10
-37.2637
 20
8.4522
 30
0.0
 10
-45.5822
 20
8.8715
 30
0.0
 10
-48.1462
 20
4.6281
 30
0.0
 10
-48.1708
 20
2.578
 30
0.0
 10
-48.1708
 20
2.578
 30
0.0
 10
-48.1955
 20
4.6281
 30
0.0
 10
-50.7594
 20
8.8715
 30
0.0
 10
-59.078
 20
8.4522
 30
0.0
 10
-59.078
 20
8.4522
 30
0.0
 10
-59.078
 20
8.4522
 30
0.0
 10
-59.078
 20
10.1487
 30
0.0
 10
-59.078
 20
10.1487
 30
0.0
 10
-59.078
 20
10.1487
 30
0.0
 10
-50.7594
 20
9.7294
 30
0.0
 10
-48.1955
 20
13.9728
 30
0.0
 10
-48.1708
 20
16.0228
 30
0.0
 10
-48.1708
 20
16.0228
 30
0.0
 10
-48.1462
 20
13.9728
 30
0.0
 10
-45.5822
 20
9.7294
 30
0.0
 10
-37.2637
 20
10.1487
 30
0.0
 10
-37.2637
 20
10.1487
 30
0.0
 10
-37.2637
 20
10.1487
 30
0.0
 10
-37.2637
 20
8.4522
 30
0.0
 10
-37.2637
 20
8.4522
 30
0.0
  0
SPLINE
  5
8A
330
1F
100
AcDbEntity
  8
layer 1
 62
     7
100
AcDbSpline
210
0.0
220
0.0
230
1.0
 70
    11
 71
     3
 72
    68
 73
    64
 74
     0
 42
0.0000000001
 43
0.0000000001
 12
1.0
 22
0.0
 32
0.0
 13
1.0
 23
0.0
 33
0.0
 40
0.0
 40
0.0
 40
0.0
 40
0.0
 40
0.0588235294117647
 40
0.0588235294117647
 40
0.0588235294117647
 40
0.0588235294117647
 40
0.1176470588235294
 40
0.1176470588235294
 40
0.1176470588235294
 40
0.1176470588235294
 40
0.1764705882352941
 40
0.1764705882352941
 40
0.1764705882352941
 40
0.1764705882352941
 40
0.2352941176470588
 40
0.2352941176470588
 40
0.2352941176470588
 40
0.2352941176470588
 40
0.2941176470588235
 40
0.2941176470588235
 40
0.2941176470588235
 40
0.2941176470588235
 40
0.3529411764705883
 40
0.3529411764705883
 40
0.3529411764705883
 40
0.3529411764705883
 40
0.4117647058823529
 40
0.4117647058823529
 40
0.4117647058823529
 40
0.4117647058823529
 40
0.4705882352941176
 40
0.4705882352941176
 40
0.4705882352941176
 40
0.4705882352941176
 40
0.5294117647058824
 40
0.5294117647058824
 40
0.5294117647058824
 40
0.5294117647058824
 40
0.5882352941176471
 40
0.5882352941176471
 40
0.5882352941176471
 40
0.5882352941176471
 40
0.6470588235294118
 40
0.6470588235294118
 40
0.6470588235294118
 40
0.6470588235294118
 40
0.7058823529411765
 40
0.7058823529411765
 40
0.7058823529411765
 40
0.7058823529411765
 40
0.7647058823529411
 40
0.7647058823529411
 40
0.7647058823529411
 40
0.7647058823529411
 40
0.8235294117647058
 40
0.8235294117647058
 40
0.8235294117647058
 40
0.8235294117647058
 40
0.8823529411764706
 40
0.8823529411764706
 40
0.8823529411764706
 40
0.8823529411764706
 40
1.0
 40
1.0
 40
1.0
 40
1.0
 10
-169.4385
 20
-8.2917
 30
0.0
 10
-170.7244
 20
-13.3957
 30
0.0
 10
-169.7548
 20
-17.3164
 30
0.0
 10
-180.2435
 20
-17.0854
 30
0.0
 10
-180.2435
 20
-17.0854
 30
0.0
 10
-180.1425
 20
-9.927
 30
0.0
 10
-180.2902
 20
-7.6383
 30
0.0
 10
-172.2816
 20
-6.2851
 30
0.0
 10
-172.2816
 20
-6.2851
 30
0.0
 10
-172.0759
 20
-6.2503
 30
0.0
 10
-171.5076
 20
-6.0411
 30
0.0
 10
-171.6102
 20
-5.887
 30
0.0
 10
-171.6102
 20
-5.887
 30
0.0
 10
-171.5076
 20
-5.7329
 30
0.0
 10
-172.0759
 20
-5.5238
 30
0.0
 10
-172.2816
 20
-5.489
 30
0.0
 10
-172.2816
 20
-5.489
 30
0.0
 10
-180.2902
 20
-4.1357
 30
0.0
 10
-180.1425
 20
-1.847
 30
0.0
 10
-180.2435
 20
5.3114
 30
0.0
 10
-180.2435
 20
5.3114
 30
0.0
 10
-169.7548
 20
5.5423
 30
0.0
 10
-170.7244
 20
1.6216
 30
0.0
 10
-169.4385
 20
-3.4823
 30
0.0
 10
-169.4385
 20
-3.4823
 30
0.0
 10
-169.3773
 20
-3.7742
 30
0.0
 10
-169.2025
 20
-3.747
 30
0.0
 10
-169.2025
 20
-3.747
 30
0.0
 10
-169.2025
 20
-3.747
 30
0.0
 10
-169.2025
 20
-3.747
 30
0.0
 10
-169.0277
 20
-3.7742
 30
0.0
 10
-168.9665
 20
-3.4823
 30
0.0
 10
-168.9665
 20
-3.4823
 30
0.0
 10
-167.6806
 20
1.6217
 30
0.0
 10
-168.6502
 20
5.5423
 30
0.0
 10
-158.1616
 20
5.3114
 30
0.0
 10
-158.1616
 20
5.3114
 30
0.0
 10
-158.2625
 20
-1.847
 30
0.0
 10
-158.1148
 20
-4.1357
 30
0.0
 10
-166.1235
 20
-5.489
 30
0.0
 10
-166.1235
 20
-5.489
 30
0.0
 10
-166.3292
 20
-5.5238
 30
0.0
 10
-166.8975
 20
-5.7329
 30
0.0
 10
-166.7949
 20
-5.887
 30
0.0
 10
-166.7949
 20
-5.887
 30
0.0
 10
-166.8975
 20
-6.0411
 30
0.0
 10
-166.3292
 20
-6.2503
 30
0.0
 10
-166.1235
 20
-6.2851
 30
0.0
 10
-166.1235
 20
-6.2851
 30
0.0
 10
-158.1148
 20
-7.6383
 30
0.0
 10
-158.2625
 20
-9.9271
 30
0.0
 10
-158.1616
 20
-17.0854
 30
0.0
 10
-158.1616
 20
-17.0854
 30
0.0
 10
-168.6502
 20
-17.3164
 30
0.0
 10
-167.6806
 20
-13.3956
 30
0.0
 10
-168.9665
 20
-8.2917
 30
0.0
 10
-168.9665
 20
-8.2917
 30
0.0
 10
-169.0277
 20
-7.9998
 30
0.0
 10
-169.2025
 20
-8.027
 30
0.0
 10
-169.2025
 20
-8.027
 30
0.0
 10
-169.2025
 20
-8.027
 30
0.0
 10
-169.2025
 20
-8.027
 30
0.0
 10
-169.3773
 20
-7.9998
 30
0.0
 10
-169.4385
 20
-8.2917
 30
0.0
  0
SPLINE
  5
8B
330
1F
100
AcDbEntity
  8
layer 1
 62
     7
100
AcDbSpline
210
0.0
220
0.0
230
1.0
 70
    11
 71
     3
 72
    28
 73
    24
 74
     0
 42
0.0000000001
 43
0.0000000001
 12
1.0
 22
0.0
 32
0.0
 13
1.0
 23
0.0
 33
0.0
 40
0.0
 40
0.0
 40
0.0
 40
0.0
 40
0.1428571428571428
 40
0.1428571428571428
 40
0.1428571428571428
 40
0.1428571428571428
 40
0.2857142857142857
 40
0.2857142857142857
 40
0.2857142857142857
 40
0.2857142857142857
 40
0.4285714285714285
 40
0.4285714285714285
 40
0.4285714285714285
 40
0.4285714285714285
 40
0.5714285714285714
 40
0.5714285714285714
 40
0.5714285714285714
 40
0.5714285714285714
 40
0.7142857142857143
 40
0.7142857142857143
 40
0.7142857142857143
 40
0.7142857142857143
 40
1.0
 40
1.0
 40
1.0
 40
1.0
 10
-158.3774
 20
-21.7683
 30
0.0
 10
-166.6959
 20
-21.349
 30
0.0
 10
-169.2599
 20
-25.5924
 30
0.0
 10
-169.2845
 20
-27.6424
 30
0.0
 10
-169.2845
 20
-27.6424
 30
0.0
 10
-169.3091
 20
-25.5924
 30
0.0
 10
-171.8731
 20
-21.349
 30
0.0
 10
-180.1917
 20
-21.7683
 30
0.0
 10
-180.1917
 20
-21.7683
 30
0.0
 10
-180.1917
 20
-21.7683
 30
0.0
 10
-180.1917
 20
-20.0718
 30
0.0
 10
-180.1917
 20
-20.0718
 30
0.0
 10
-180.1917
 20
-20.0718
 30
0.0
 10
-171.8731
 20
-20.4911
 30
0.0
 10
-169.3091
 20
-16.2477
 30
0.0
 10
-169.2845
 20
-14.1976
 30
0.0
 10
-169.2845
 20
-14.1976
 30
0.0
 10
-169.2599
 20
-16.2477
 30
0.0
 10
-166.6959
 20
-20.4911
 30
0.0
 10
-158.3774
 20
-20.0718
 30
0.0
 10
-158.3774
 20
-20.0718
 30
0.0
 10
-158.3774
 20
-20.0718
 30
0.0
 10
-158.3774
 20
-21.7683
 30
0.0
 10
-158.3774
 20
-21.7683
 30
0.0
  0
SPLINE
  5
8C
330
1F
100
AcDbEntity
  8
layer 1
 62
     7
100
AcDbSpline
210
0.0
220
0.0
230
1.0
 70
    11
 71
     3
 72
    28
 73
    24
 74
     0
 42
0.0000000001
 43
0.0000000001
 12
1.0
 22
0.0
 32
0.0
 13
1.0
 23
0.0
 33
0.0
 40
0.0
 40
0.0
 40
0.0
 40
0.0
 40
0.1428571428571428
 40
0.1428571428571428
 40
0.1428571428571428
 40
0.1428571428571428
 40
0.2857142857142857
 40
0.2857142857142857
 40
0.2857142857142857
 40
0.2857142857142857
 40
0.4285714285714285
 40
0.4285714285714285
 40
0.4285714285714285
 40
0.4285714285714285
 40
0.5714285714285714
 40
0.5714285714285714
 40
0.5714285714285714
 40
0.5714285714285714
 40
0.7142857142857143
 40
0.7142857142857143
 40
0.7142857142857143
 40
0.7142857142857143
 40
1.0
 40
1.0
 40
1.0
 40
1.0
 10
-154.869
 20
-16.6791
 30
0.0
 10
-154.4497
 20
-8.3606
 30
0.0
 10
-158.6931
 20
-5.7966
 30
0.0
 10
-160.7432
 20
-5.772
 30
0.0
 10
-160.7432
 20
-5.772
 30
0.0
 10
-158.6931
 20
-5.7474
 30
0.0
 10
-154.4497
 20
-3.1833
 30
0.0
 10
-154.869
 20
5.1351
 30
0.0
 10
-154.869
 20
5.1351
 30
0.0
 10
-154.869
 20
5.1351
 30
0.0
 10
-153.1725
 20
5.1351
 30
0.0
 10
-153.1725
 20
5.1351
 30
0.0
 10
-153.1725
 20
5.1351
 30
0.0
 10
-153.5918
 20
-3.1834
 30
0.0
 10
-149.3484
 20
-5.7474
 30
0.0
 10
-147.2984
 20
-5.772
 30
0.0
 10
-147.2984
 20
-5.772
 30
0.0
 10
-149.3484
 20
-5.7966
 30
0.0
 10
-153.5918
 20
-8.3606
 30
0.0
 10
-153.1725
 20
-16.6791
 30
0.0
 10
-153.1725
 20
-16.6791
 30
0.0
 10
-153.1725
 20
-16.6791
 30
0.0
 10
-154.869
 20
-16.6791
 30
0.0
 10
-154.869
 20
-16.6791
 30
0.0
  0
SPLINE
  5
8D
330
1F
100
AcDbEntity
  8
layer 1
 62
     7
100
AcDbSpline
210
0.0
220
0.0
230
1.0
 70
    11
 71
     3
 72
    20
 73
    16
 74
     0
 42
0.0000000001
 43
0.0000000001
 12
1.0
 22
0.0
 32
0.0
 13
1.0
 23
0.0
 33
0.0
 40
0.0
 40
0.0
 40
0.0
 40
0.0
 40
0.2
 40
0.2
 40
0.2
 40
0.2
 40
0.4
 40
0.4
 40
0.4
 40
0.4
 40
0.6
 40
0.6
 40
0.6
 40
0.6
 40
1.0
 40
1.0
 40
1.0
 40
1.0
 10
-156.9451
 20
-18.0378
 30
0.0
 10
-156.9451
 20
-18.0378
 30
0.0
 10
-151.176
 20
-18.0378
 30
0.0
 10
-151.176
 20
-18.0378
 30
0.0
 10
-151.176
 20
-18.0378
 30
0.0
 10
-151.176
 20
-18.0378
 30
0.0
 10
-151.176
 20
-23.8682
 30
0.0
 10
-151.176
 20
-23.8682
 30
0.0
 10
-151.176
 20
-23.8682
 30
0.0
 10
-151.176
 20
-23.8682
 30
0.0
 10
-156.9451
 20
-23.8682
 30
0.0
 10
-156.9451
 20
-23.8682
 30
0.0
 10
-156.9451
 20
-23.8682
 30
0.0
 10
-156.9451
 20
-23.8682
 30
0.0
 10
-156.9451
 20
-18.0378
 30
0.0
 10
-156.9451
 20
-18.0378
 30
0.0
  0
SPLINE
  5
8E
330
1F
100
AcDbEntity
  8
layer 1
 62
     7
100
AcDbSpline
210
0.0
220
0.0
230
1.0
 70
    11
 71
     3
 72
    68
 73
    64
 74
     0
 42
0.0000000001
 43
0.0000000001
 12
1.0
 22
0.0
 32
0.0
 13
1.0
 23
0.0
 33
0.0
 40
0.0
 40
0.0
 40
0.0
 40
0.0
 40
0.0588235294117647
 40
0.0588235294117647
 40
0.0588235294117647
 40
0.0588235294117647
 40
0.1176470588235294
 40
0.1176470588235294
 40
0.1176470588235294
 40
0.1176470588235294
 40
0.1764705882352941
 40
0.1764705882352941
 40
0.1764705882352941
 40
0.1764705882352941
 40
0.2352941176470588
 40
0.2352941176470588
 40
0.2352941176470588
 40
0.2352941176470588
 40
0.2941176470588235
 40
0.2941176470588235
 40
0.2941176470588235
 40
0.2941176470588235
 40
0.3529411764705883
 40
0.3529411764705883
 40
0.3529411764705883
 40
0.3529411764705883
 40
0.4117647058823529
 40
0.4117647058823529
 40
0.4117647058823529
 40
0.4117647058823529
 40
0.4705882352941176
 40
0.4705882352941176
 40
0.4705882352941176
 40
0.4705882352941176
 40
0.5294117647058824
 40
0.5294117647058824
 40
0.5294117647058824
 40
0.5294117647058824
 40
0.5882352941176471
 40
0.5882352941176471
 40
0.5882352941176471
 40
0.5882352941176471
 40
0.6470588235294118
 40
0.6470588235294118
 40
0.6470588235294118
 40
0.6470588235294118
 40
0.7058823529411765
 40
0.7058823529411765
 40
0.7058823529411765
 40
0.7058823529411765
 40
0.7647058823529411
 40
0.7647058823529411
 40
0.7647058823529411
 40
0.7647058823529411
 40
0.8235294117647058
 40
0.8235294117647058
 40
0.8235294117647058
 40
0.8235294117647058
 40
0.8823529411764706
 40
0.8823529411764706
 40
0.8823529411764706
 40
0.8823529411764706
 40
1.0
 40
1.0
 40
1.0
 40
1.0
 10
-139.1103
 20
-8.2917
 30
0.0
 10
-140.3963
 20
-13.3957
 30
0.0
 10
-139.4266
 20
-17.3164
 30
0.0
 10
-149.9153
 20
-17.0854
 30
0.0
 10
-149.9153
 20
-17.0854
 30
0.0
 10
-149.8144
 20
-9.927
 30
0.0
 10
-149.962
 20
-7.6383
 30
0.0
 10
-141.9534
 20
-6.2851
 30
0.0
 10
-141.9534
 20
-6.2851
 30
0.0
 10
-141.7477
 20
-6.2503
 30
0.0
 10
-141.1794
 20
-6.0411
 30
0.0
 10
-141.282
 20
-5.887
 30
0.0
 10
-141.282
 20
-5.887
 30
0.0
 10
-141.1794
 20
-5.7329
 30
0.0
 10
-141.7477
 20
-5.5238
 30
0.0
 10
-141.9534
 20
-5.489
 30
0.0
 10
-141.9534
 20
-5.489
 30
0.0
 10
-149.962
 20
-4.1357
 30
0.0
 10
-149.8144
 20
-1.847
 30
0.0
 10
-149.9153
 20
5.3114
 30
0.0
 10
-149.9153
 20
5.3114
 30
0.0
 10
-139.4266
 20
5.5423
 30
0.0
 10
-140.3963
 20
1.6216
 30
0.0
 10
-139.1103
 20
-3.4823
 30
0.0
 10
-139.1103
 20
-3.4823
 30
0.0
 10
-139.0491
 20
-3.7742
 30
0.0
 10
-138.8743
 20
-3.747
 30
0.0
 10
-138.8743
 20
-3.747
 30
0.0
 10
-138.8743
 20
-3.747
 30
0.0
 10
-138.8743
 20
-3.747
 30
0.0
 10
-138.6996
 20
-3.7742
 30
0.0
 10
-138.6384
 20
-3.4823
 30
0.0
 10
-138.6384
 20
-3.4823
 30
0.0
 10
-137.3524
 20
1.6217
 30
0.0
 10
-138.3221
 20
5.5423
 30
0.0
 10
-127.8334
 20
5.3114
 30
0.0
 10
-127.8334
 20
5.3114
 30
0.0
 10
-127.9343
 20
-1.847
 30
0.0
 10
-127.7867
 20
-4.1357
 30
0.0
 10
-135.7953
 20
-5.489
 30
0.0
 10
-135.7953
 20
-5.489
 30
0.0
 10
-136.001
 20
-5.5238
 30
0.0
 10
-136.5693
 20
-5.7329
 30
0.0
 10
-136.4667
 20
-5.887
 30
0.0
 10
-136.4667
 20
-5.887
 30
0.0
 10
-136.5693
 20
-6.0411
 30
0.0
 10
-136.001
 20
-6.2503
 30
0.0
 10
-135.7953
 20
-6.2851
 30
0.0
 10
-135.7953
 20
-6.2851
 30
0.0
 10
-127.7867
 20
-7.6383
 30
0.0
 10
-127.9343
 20
-9.9271
 30
0.0
 10
-127.8334
 20
-17.0854
 30
0.0
 10
-127.8334
 20
-17.0854
 30
0.0
 10
-138.3221
 20
-17.3164
 30
0.0
 10
-137.3524
 20
-13.3956
 30
0.0
 10
-138.6384
 20
-8.2917
 30
0.0
 10
-138.6384
 20
-8.2917
 30
0.0
 10
-138.6996
 20
-7.9998
 30
0.0
 10
-138.8743
 20
-8.027
 30
0.0
 10
-138.8743
 20
-8.027
 30
0.0
 10
-138.8743
 20
-8.027
 30
0.0
 10
-138.8743
 20
-8.027
 30
0.0
 10
-139.0491
 20
-7.9998
 30
0.0
 10
-139.1103
 20
-8.2917
 30
0.0
  0
SPLINE
  5
8F
330
1F
100
AcDbEntity
  8
layer 1
 62
     7
100
AcDbSpline
210
0.0
220
0.0
230
1.0
 70
    11
 71
     3
 72
    28
 73
    24
 74
     0
 42
0.0000000001
 43
0.0000000001
 12
1.0
 22
0.0
 32
0.0
 13
1.0
 23
0.0
 33
0.0
 40
0.0
 40
0.0
 40
0.0
 40
0.0
 40
0.1428571428571428
 40
0.1428571428571428
 40
0.1428571428571428
 40
0.1428571428571428
 40
0.2857142857142857
 40
0.2857142857142857
 40
0.2857142857142857
 40
0.2857142857142857
 40
0.4285714285714285
 40
0.4285714285714285
 40
0.4285714285714285
 40
0.4285714285714285
 40
0.5714285714285714
 40
0.5714285714285714
 40
0.5714285714285714
 40
0.5714285714285714
 40
0.7142857142857143
 40
0.7142857142857143
 40
0.7142857142857143
 40
0.7142857142857143
 40
1.0
 40
1.0
 40
1.0
 40
1.0
 10
-128.0491
 20
-21.7683
 30
0.0
 10
-136.3677
 20
-21.349
 30
0.0
 10
-138.9317
 20
-25.5924
 30
0.0
 10
-138.9563
 20
-27.6424
 30
0.0
 10
-138.9563
 20
-27.6424
 30
0.0
 10
-138.9809
 20
-25.5924
 30
0.0
 10
-141.5449
 20
-21.349
 30
0.0
 10
-149.8634
 20
-21.7683
 30
0.0
 10
-149.8634
 20
-21.7683
 30
0.0
 10
-149.8634
 20
-21.7683
 30
0.0
 10
-149.8634
 20
-20.0718
 30
0.0
 10
-149.8634
 20
-20.0718
 30
0.0
 10
-149.8634
 20
-20.0718
 30
0.0
 10
-141.5449
 20
-20.4911
 30
0.0
 10
-138.9809
 20
-16.2477
 30
0.0
 10
-138.9563
 20
-14.1976
 30
0.0
 10
-138.9563
 20
-14.1976
 30
0.0
 10
-138.9317
 20
-16.2477
 30
0.0
 10
-136.3677
 20
-20.4911
 30
0.0
 10
-128.0491
 20
-20.0718
 30
0.0
 10
-128.0491
 20
-20.0718
 30
0.0
 10
-128.0491
 20
-20.0718
 30
0.0
 10
-128.0491
 20
-21.7683
 30
0.0
 10
-128.0491
 20
-21.7683
 30
0.0
  0
SPLINE
  5
90
330
1F
100
AcDbEntity
  8
layer 1
 62
     7
100
AcDbSpline
210
0.0
220
0.0
230
1.0
 70
    11
 71
     3
 72
    20
 73
    16
 74
     0
 42
0.0000000001
 43
0.0000000001
 12
1.0
 22
0.0
 32
0.0
 13
1.0
 23
0.0
 33
0.0
 40
0.0
 40
0.0
 40
0.0
 40
0.0
 40
0.2
 40
0.2
 40
0.2
 40
0.2
 40
0.4
 40
0.4
 40
0.4
 40
0.4
 40
0.6
 40
0.6
 40
0.6
 40
0.6
 40
1.0
 40
1.0
 40
1.0
 40
1.0
 10
-126.617
 20
-18.0378
 30
0.0
 10
-126.617
 20
-18.0378
 30
0.0
 10
-120.8479
 20
-18.0378
 30
0.0
 10
-120.8479
 20
-18.0378
 30
0.0
 10
-120.8479
 20
-18.0378
 30
0.0
 10
-120.8479
 20
-18.0378
 30
0.0
 10
-120.8479
 20
-23.8682
 30
0.0
 10
-120.8479
 20
-23.8682
 30
0.0
 10
-120.8479
 20
-23.8682
 30
0.0
 10
-120.8479
 20
-23.8682
 30
0.0
 10
-126.617
 20
-23.8682
 30
0.0
 10
-126.617
 20
-23.8682
 30
0.0
 10
-126.617
 20
-23.8682
 30
0.0
 10
-126.617
 20
-23.8682
 30
0.0
 10
-126.617
 20
-18.0378
 30
0.0
 10
-126.617
 20
-18.0378
 30
0.0
  0
SPLINE
  5
91
330
1F
100
AcDbEntity
  8
layer 1
 62
     7
100
AcDbSpline
210
0.0
220
0.0
230
1.0
 70
    11
 71
     3
 72
    28
 73
    24
 74
     0
 42
0.0000000001
 43
0.0000000001
 12
1.0
 22
0.0
 32
0.0
 13
1.0
 23
0.0
 33
0.0
 40
0.0
 40
0.0
 40
0.0
 40
0.0
 40
0.1428571428571428
 40
0.1428571428571428
 40
0.1428571428571428
 40
0.1428571428571428
 40
0.2857142857142857
 40
0.2857142857142857
 40
0.2857142857142857
 40
0.2857142857142857
 40
0.4285714285714285
 40
0.4285714285714285
 40
0.4285714285714285
 40
0.4285714285714285
 40
0.5714285714285714
 40
0.5714285714285714
 40
0.5714285714285714
 40
0.5714285714285714
 40
0.7142857142857143
 40
0.7142857142857143
 40
0.7142857142857143
 40
0.7142857142857143
 40
1.0
 40
1.0
 40
1.0
 40
1.0
 10
-124.5408
 20
-16.6791
 30
0.0
 10
-124.1215
 20
-8.3606
 30
0.0
 10
-128.3649
 20
-5.7966
 30
0.0
 10
-130.4149
 20
-5.772
 30
0.0
 10
-130.4149
 20
-5.772
 30
0.0
 10
-128.3649
 20
-5.7474
 30
0.0
 10
-124.1215
 20
-3.1833
 30
0.0
 10
-124.5408
 20
5.1351
 30
0.0
 10
-124.5408
 20
5.1351
 30
0.0
 10
-124.5408
 20
5.1351
 30
0.0
 10
-122.8443
 20
5.1351
 30
0.0
 10
-122.8443
 20
5.1351
 30
0.0
 10
-122.8443
 20
5.1351
 30
0.0
 10
-123.2636
 20
-3.1834
 30
0.0
 10
-119.0202
 20
-5.7474
 30
0.0
 10
-116.9701
 20
-5.772
 30
0.0
 10
-116.9701
 20
-5.772
 30
0.0
 10
-119.0202
 20
-5.7966
 30
0.0
 10
-123.2636
 20
-8.3606
 30
0.0
 10
-122.8443
 20
-16.6791
 30
0.0
 10
-122.8443
 20
-16.6791
 30
0.0
 10
-122.8443
 20
-16.6791
 30
0.0
 10
-124.5408
 20
-16.6791
 30
0.0
 10
-124.5408
 20
-16.6791
 30
0.0
  0
SPLINE
  5
92
330
1F
100
AcDbEntity
  8
layer 1
 62
     7
100
AcDbSpline
210
0.0
220
0.0
230
1.0
 70
    11
 71
     3
 72
    68
 73
    64
 74
     0
 42
0.0000000001
 43
0.0000000001
 12
1.0
 22
0.0
 32
0.0
 13
1.0
 23
0.0
 33
0.0
 40
0.0
 40
0.0
 40
0.0
 40
0.0
 40
0.0588235294117647
 40
0.0588235294117647
 40
0.0588235294117647
 40
0.0588235294117647
 40
0.1176470588235294
 40
0.1176470588235294
 40
0.1176470588235294
 40
0.1176470588235294
 40
0.1764705882352941
 40
0.1764705882352941
 40
0.1764705882352941
 40
0.1764705882352941
 40
0.2352941176470588
 40
0.2352941176470588
 40
0.2352941176470588
 40
0.2352941176470588
 40
0.2941176470588235
 40
0.2941176470588235
 40
0.2941176470588235
 40
0.2941176470588235
 40
0.3529411764705883
 40
0.3529411764705883
 40
0.3529411764705883
 40
0.3529411764705883
 40
0.4117647058823529
 40
0.4117647058823529
 40
0.4117647058823529
 40
0.4117647058823529
 40
0.4705882352941176
 40
0.4705882352941176
 40
0.4705882352941176
 40
0.4705882352941176
 40
0.5294117647058824
 40
0.5294117647058824
 40
0.5294117647058824
 40
0.5294117647058824
 40
0.5882352941176471
 40
0.5882352941176471
 40
0.5882352941176471
 40
0.5882352941176471
 40
0.6470588235294118
 40
0.6470588235294118
 40
0.6470588235294118
 40
0.6470588235294118
 40
0.7058823529411765
 40
0.7058823529411765
 40
0.7058823529411765
 40
0.7058823529411765
 40
0.7647058823529411
 40
0.7647058823529411
 40
0.7647058823529411
 40
0.7647058823529411
 40
0.8235294117647058
 40
0.8235294117647058
 40
0.8235294117647058
 40
0.8235294117647058
 40
0.8823529411764706
 40
0.8823529411764706
 40
0.8823529411764706
 40
0.8823529411764706
 40
1.0
 40
1.0
 40
1.0
 40
1.0
 10
-108.8485
 20
-8.2917
 30
0.0
 10
-110.1344
 20
-13.3957
 30
0.0
 10
-109.1648
 20
-17.3164
 30
0.0
 10
-119.6534
 20
-17.0854
 30
0.0
 10
-119.6534
 20
-17.0854
 30
0.0
 10
-119.5525
 20
-9.927
 30
0.0
 10
-119.7002
 20
-7.6383
 30
0.0
 10
-111.6916
 20
-6.2851
 30
0.0
 10
-111.6916
 20
-6.2851
 30
0.0
 10
-111.4859
 20
-6.2503
 30
0.0
 10
-110.9176
 20
-6.0411
 30
0.0
 10
-111.0202
 20
-5.887
 30
0.0
 10
-111.0202
 20
-5.887
 30
0.0
 10
-110.9176
 20
-5.7329
 30
0.0
 10
-111.4859
 20
-5.5238
 30
0.0
 10
-111.6916
 20
-5.489
 30
0.0
 10
-111.6916
 20
-5.489
 30
0.0
 10
-119.7002
 20
-4.1357
 30
0.0
 10
-119.5525
 20
-1.847
 30
0.0
 10
-119.6534
 20
5.3114
 30
0.0
 10
-119.6534
 20
5.3114
 30
0.0
 10
-109.1648
 20
5.5423
 30
0.0
 10
-110.1344
 20
1.6216
 30
0.0
 10
-108.8485
 20
-3.4823
 30
0.0
 10
-108.8485
 20
-3.4823
 30
0.0
 10
-108.7873
 20
-3.7742
 30
0.0
 10
-108.6125
 20
-3.747
 30
0.0
 10
-108.6125
 20
-3.747
 30
0.0
 10
-108.6125
 20
-3.747
 30
0.0
 10
-108.6125
 20
-3.747
 30
0.0
 10
-108.4377
 20
-3.7742
 30
0.0
 10
-108.3765
 20
-3.4823
 30
0.0
 10
-108.3765
 20
-3.4823
 30
0.0
 10
-107.0906
 20
1.6217
 30
0.0
 10
-108.0602
 20
5.5423
 30
0.0
 10
-97.5716
 20
5.3114
 30
0.0
 10
-97.5716
 20
5.3114
 30
0.0
 10
-97.6725
 20
-1.847
 30
0.0
 10
-97.5248
 20
-4.1357
 30
0.0
 10
-105.5335
 20
-5.489
 30
0.0
 10
-105.5335
 20
-5.489
 30
0.0
 10
-105.7392
 20
-5.5238
 30
0.0
 10
-106.3075
 20
-5.7329
 30
0.0
 10
-106.2049
 20
-5.887
 30
0.0
 10
-106.2049
 20
-5.887
 30
0.0
 10
-106.3075
 20
-6.0411
 30
0.0
 10
-105.7392
 20
-6.2503
 30
0.0
 10
-105.5335
 20
-6.2851
 30
0.0
 10
-105.5335
 20
-6.2851
 30
0.0
 10
-97.5248
 20
-7.6383
 30
0.0
 10
-97.6725
 20
-9.9271
 30
0.0
 10
-97.5716
 20
-17.0854
 30
0.0
 10
-97.5716
 20
-17.0854
 30
0.0
 10
-108.0602
 20
-17.3164
 30
0.0
 10
-107.0906
 20
-13.3956
 30
0.0
 10
-108.3765
 20
-8.2917
 30
0.0
 10
-108.3765
 20
-8.2917
 30
0.0
 10
-108.4377
 20
-7.9998
 30
0.0
 10
-108.6125
 20
-8.027
 30
0.0
 10
-108.6125
 20
-8.027
 30
0.0
 10
-108.6125
 20
-8.027
 30
0.0
 10
-108.6125
 20
-8.027
 30
0.0
 10
-108.7873
 20
-7.9998
 30
0.0
 10
-108.8485
 20
-8.2917
 30
0.0
  0
SPLINE
  5
93
330
1F
100
AcDbEntity
  8
layer 1
 62
     7
100
AcDbSpline
210
0.0
220
0.0
230
1.0
 70
    11
 71
     3
 72
    28
 73
    24
 74
     0
 42
0.0000000001
 43
0.0000000001
 12
1.0
 22
0.0
 32
0.0
 13
1.0
 23
0.0
 33
0.0
 40
0.0
 40
0.0
 40
0.0
 40
0.0
 40
0.1428571428571428
 40
0.1428571428571428
 40
0.1428571428571428
 40
0.1428571428571428
 40
0.2857142857142857
 40
0.2857142857142857
 40
0.2857142857142857
 40
0.2857142857142857
 40
0.4285714285714285
 40
0.4285714285714285
 40
0.4285714285714285
 40
0.4285714285714285
 40
0.5714285714285714
 40
0.5714285714285714
 40
0.5714285714285714
 40
0.5714285714285714
 40
0.7142857142857143
 40
0.7142857142857143
 40
0.7142857142857143
 40
0.7142857142857143
 40
1.0
 40
1.0
 40
1.0
 40
1.0
 10
-97.7874
 20
-21.7683
 30
0.0
 10
-106.1059
 20
-21.349
 30
0.0
 10
-108.6699
 20
-25.5924
 30
0.0
 10
-108.6945
 20
-27.6424
 30
0.0
 10
-108.6945
 20
-27.6424
 30
0.0
 10
-108.7191
 20
-25.5924
 30
0.0
 10
-111.2831
 20
-21.349
 30
0.0
 10
-119.6016
 20
-21.7683
 30
0.0
 10
-119.6016
 20
-21.7683
 30
0.0
 10
-119.6016
 20
-21.7683
 30
0.0
 10
-119.6016
 20
-20.0718
 30
0.0
 10
-119.6016
 20
-20.0718
 30
0.0
 10
-119.6016
 20
-20.0718
 30
0.0
 10
-111.2831
 20
-20.4911
 30
0.0
 10
-108.7191
 20
-16.2477
 30
0.0
 10
-108.6945
 20
-14.1976
 30
0.0
 10
-108.6945
 20
-14.1976
 30
0.0
 10
-108.6699
 20
-16.2477
 30
0.0
 10
-106.1059
 20
-20.4911
 30
0.0
 10
-97.7874
 20
-20.0718
 30
0.0
 10
-97.7874
 20
-20.0718
 30
0.0
 10
-97.7874
 20
-20.0718
 30
0.0
 10
-97.7874
 20
-21.7683
 30
0.0
 10
-97.7874
 20
-21.7683
 30
0.0
  0
SPLINE
  5
94
330
1F
100
AcDbEntity
  8
layer 1
 62
     7
100
AcDbSpline
210
0.0
220
0.0
230
1.0
 70
    11
 71
     3
 72
    20
 73
    16
 74
     0
 42
0.0000000001
 43
0.0000000001
 12
1.0
 22
0.0
 32
0.0
 13
1.0
 23
0.0
 33
0.0
 40
0.0
 40
0.0
 40
0.0
 40
0.0
 40
0.2
 40
0.2
 40
0.2
 40
0.2
 40
0.4
 40
0.4
 40
0.4
 40
0.4
 40
0.6
 40
0.6
 40
0.6
 40
0.6
 40
1.0
 40
1.0
 40
1.0
 40
1.0
 10
-96.3551
 20
-18.0378
 30
0.0
 10
-96.3551
 20
-18.0378
 30
0.0
 10
-90.586
 20
-18.0378
 30
0.0
 10
-90.586
 20
-18.0378
 30
0.0
 10
-90.586
 20
-18.0378
 30
0.0
 10
-90.586
 20
-18.0378
 30
0.0
 10
-90.586
 20
-23.8682
 30
0.0
 10
-90.586
 20
-23.8682
 30
0.0
 10
-90.586
 20
-23.8682
 30
0.0
 10
-90.586
 20
-23.8682
 30
0.0
 10
-96.3551
 20
-23.8682
 30
0.0
 10
-96.3551
 20
-23.8682
 30
0.0
 10
-96.3551
 20
-23.8682
 30
0.0
 10
-96.3551
 20
-23.8682
 30
0.0
 10
-96.3551
 20
-18.0378
 30
0.0
 10
-96.3551
 20
-18.0378
 30
0.0
  0
SPLINE
  5
95
330
1F
100
AcDbEntity
  8
layer 1
 62
     7
100
AcDbSpline
210
0.0
220
0.0
230
1.0
 70
    11
 71
     3
 72
    28
 73
    24
 74
     0
 42
0.0000000001
 43
0.0000000001
 12
1.0
 22
0.0
 32
0.0
 13
1.0
 23
0.0
 33
0.0
 40
0.0
 40
0.0
 40
0.0
 40
0.0
 40
0.1428571428571428
 40
0.1428571428571428
 40
0.1428571428571428
 40
0.1428571428571428
 40
0.2857142857142857
 40
0.2857142857142857
 40
0.2857142857142857
 40
0.2857142857142857
 40
0.4285714285714285
 40
0.4285714285714285
 40
0.4285714285714285
 40
0.4285714285714285
 40
0.5714285714285714
 40
0.5714285714285714
 40
0.5714285714285714
 40
0.5714285714285714
 40
0.7142857142857143
 40
0.7142857142857143
 40
0.7142857142857143
 40
0.7142857142857143
 40
1.0
 40
1.0
 40
1.0
 40
1.0
 10
-94.279
 20
-16.6791
 30
0.0
 10
-93.8597
 20
-8.3606
 30
0.0
 10
-98.1031
 20
-5.7966
 30
0.0
 10
-100.1532
 20
-5.772
 30
0.0
 10
-100.1532
 20
-5.772
 30
0.0
 10
-98.1031
 20
-5.7474
 30
0.0
 10
-93.8597
 20
-3.1833
 30
0.0
 10
-94.279
 20
5.1351
 30
0.0
 10
-94.279
 20
5.1351
 30
0.0
 10
-94.279
 20
5.1351
 30
0.0
 10
-92.5825
 20
5.1351
 30
0.0
 10
-92.5825
 20
5.1351
 30
0.0
 10
-92.5825
 20
5.1351
 30
0.0
 10
-93.0018
 20
-3.1834
 30
0.0
 10
-88.7584
 20
-5.7474
 30
0.0
 10
-86.7084
 20
-5.772
 30
0.0
 10
-86.7084
 20
-5.772
 30
0.0
 10
-88.7584
 20
-5.7966
 30
0.0
 10
-93.0018
 20
-8.3606
 30
0.0
 10
-92.5825
 20
-16.6791
 30
0.0
 10
-92.5825
 20
-16.6791
 30
0.0
 10
-92.5825
 20
-16.6791
 30
0.0
 10
-94.279
 20
-16.6791
 30
0.0
 10
-94.279
 20
-16.6791
 30
0.0
  0
SPLINE
  5
96
330
1F
100
AcDbEntity
  8
layer 1
 62
     7
100
AcDbSpline
210
0.0
220
0.0
230
1.0
 70
    11
 71
     3
 72
    68
 73
    64
 74
     0
 42
0.0000000001
 43
0.0000000001
 12
1.0
 22
0.0
 32
0.0
 13
1.0
 23
0.0
 33
0.0
 40
0.0
 40
0.0
 40
0.0
 40
0.0
 40
0.0588235294117647
 40
0.0588235294117647
 40
0.0588235294117647
 40
0.0588235294117647
 40
0.1176470588235294
 40
0.1176470588235294
 40
0.1176470588235294
 40
0.1176470588235294
 40
0.1764705882352941
 40
0.1764705882352941
 40
0.1764705882352941
 40
0.1764705882352941
 40
0.2352941176470588
 40
0.2352941176470588
 40
0.2352941176470588
 40
0.2352941176470588
 40
0.2941176470588235
 40
0.2941176470588235
 40
0.2941176470588235
 40
0.2941176470588235
 40
0.3529411764705883
 40
0.3529411764705883
 40
0.3529411764705883
 40
0.3529411764705883
 40
0.4117647058823529
 40
0.4117647058823529
 40
0.4117647058823529
 40
0.4117647058823529
 40
0.4705882352941176
 40
0.4705882352941176
 40
0.4705882352941176
 40
0.4705882352941176
 40
0.5294117647058824
 40
0.5294117647058824
 40
0.5294117647058824
 40
0.5294117647058824
 40
0.5882352941176471
 40
0.5882352941176471
 40
0.5882352941176471
 40
0.5882352941176471
 40
0.6470588235294118
 40
0.6470588235294118
 40
0.6470588235294118
 40
0.6470588235294118
 40
0.7058823529411765
 40
0.7058823529411765
 40
0.7058823529411765
 40
0.7058823529411765
 40
0.7647058823529411
 40
0.7647058823529411
 40
0.7647058823529411
 40
0.7647058823529411
 40
0.8235294117647058
 40
0.8235294117647058
 40
0.8235294117647058
 40
0.8235294117647058
 40
0.8823529411764706
 40
0.8823529411764706
 40
0.8823529411764706
 40
0.8823529411764706
 40
1.0
 40
1.0
 40
1.0
 40
1.0
 10
-78.5867
 20
-8.2917
 30
0.0
 10
-79.8726
 20
-13.3957
 30
0.0
 10
-78.903
 20
-17.3164
 30
0.0
 10
-89.3916
 20
-17.0854
 30
0.0
 10
-89.3916
 20
-17.0854
 30
0.0
 10
-89.2907
 20
-9.927
 30
0.0
 10
-89.4384
 20
-7.6383
 30
0.0
 10
-81.4297
 20
-6.2851
 30
0.0
 10
-81.4297
 20
-6.2851
 30
0.0
 10
-81.224
 20
-6.2503
 30
0.0
 10
-80.6557
 20
-6.0411
 30
0.0
 10
-80.7583
 20
-5.887
 30
0.0
 10
-80.7583
 20
-5.887
 30
0.0
 10
-80.6557
 20
-5.7329
 30
0.0
 10
-81.224
 20
-5.5238
 30
0.0
 10
-81.4297
 20
-5.489
 30
0.0
 10
-81.4297
 20
-5.489
 30
0.0
 10
-89.4384
 20
-4.1357
 30
0.0
 10
-89.2907
 20
-1.847
 30
0.0
 10
-89.3916
 20
5.3114
 30
0.0
 10
-89.3916
 20
5.3114
 30
0.0
 10
-78.903
 20
5.5423
 30
0.0
 10
-79.8726
 20
1.6216
 30
0.0
 10
-78.5867
 20
-3.4823
 30
0.0
 10
-78.5867
 20
-3.4823
 30
0.0
 10
-78.5254
 20
-3.7742
 30
0.0
 10
-78.3507
 20
-3.747
 30
0.0
 10
-78.3507
 20
-3.747
 30
0.0
 10
-78.3507
 20
-3.747
 30
0.0
 10
-78.3507
 20
-3.747
 30
0.0
 10
-78.1759
 20
-3.7742
 30
0.0
 10
-78.1147
 20
-3.4823
 30
0.0
 10
-78.1147
 20
-3.4823
 30
0.0
 10
-76.8288
 20
1.6217
 30
0.0
 10
-77.7984
 20
5.5423
 30
0.0
 10
-67.3097
 20
5.3114
 30
0.0
 10
-67.3097
 20
5.3114
 30
0.0
 10
-67.4106
 20
-1.847
 30
0.0
 10
-67.263
 20
-4.1357
 30
0.0
 10
-75.2716
 20
-5.489
 30
0.0
 10
-75.2716
 20
-5.489
 30
0.0
 10
-75.4773
 20
-5.5238
 30
0.0
 10
-76.0456
 20
-5.7329
 30
0.0
 10
-75.943
 20
-5.887
 30
0.0
 10
-75.943
 20
-5.887
 30
0.0
 10
-76.0456
 20
-6.0411
 30
0.0
 10
-75.4773
 20
-6.2503
 30
0.0
 10
-75.2716
 20
-6.2851
 30
0.0
 10
-75.2716
 20
-6.2851
 30
0.0
 10
-67.263
 20
-7.6383
 30
0.0
 10
-67.4106
 20
-9.9271
 30
0.0
 10
-67.3097
 20
-17.0854
 30
0.0
 10
-67.3097
 20
-17.0854
 30
0.0
 10
-77.7984
 20
-17.3164
 30
0.0
 10
-76.8288
 20
-13.3956
 30
0.0
 10
-78.1147
 20
-8.2917
 30
0.0
 10
-78.1147
 20
-8.2917
 30
0.0
 10
-78.1759
 20
-7.9998
 30
0.0
 10
-78.3507
 20
-8.027
 30
0.0
 10
-78.3507
 20
-8.027
 30
0.0
 10
-78.3507
 20
-8.027
 30
0.0
 10
-78.3507
 20
-8.027
 30
0.0
 10
-78.5254
 20
-7.9998
 30
0.0
 10
-78.5867
 20
-8.2917
 30
0.0
  0
SPLINE
  5
97
330
1F
100
AcDbEntity
  8
layer 1
 62
     7
100
AcDbSpline
210
0.0
220
0.0
230
1.0
 70
    11
 71
     3
 72
    28
 73
    24
 74
     0
 42
0.0000000001
 43
0.0000000001
 12
1.0
 22
0.0
 32
0.0
 13
1.0
 23
0.0
 33
0.0
 40
0.0
 40
0.0
 40
0.0
 40
0.0
 40
0.1428571428571428
 40
0.1428571428571428
 40
0.1428571428571428
 40
0.1428571428571428
 40
0.2857142857142857
 40
0.2857142857142857
 40
0.2857142857142857
 40
0.2857142857142857
 40
0.4285714285714285
 40
0.4285714285714285
 40
0.4285714285714285
 40
0.4285714285714285
 40
0.5714285714285714
 40
0.5714285714285714
 40
0.5714285714285714
 40
0.5714285714285714
 40
0.7142857142857143
 40
0.7142857142857143
 40
0.7142857142857143
 40
0.7142857142857143
 40
1.0
 40
1.0
 40
1.0
 40
1.0
 10
-67.5255
 20
-21.7683
 30
0.0
 10
-75.8441
 20
-21.349
 30
0.0
 10
-78.4081
 20
-25.5924
 30
0.0
 10
-78.4327
 20
-27.6424
 30
0.0
 10
-78.4327
 20
-27.6424
 30
0.0
 10
-78.4573
 20
-25.5924
 30
0.0
 10
-81.0213
 20
-21.349
 30
0.0
 10
-89.3398
 20
-21.7683
 30
0.0
 10
-89.3398
 20
-21.7683
 30
0.0
 10
-89.3398
 20
-21.7683
 30
0.0
 10
-89.3398
 20
-20.0718
 30
0.0
 10
-89.3398
 20
-20.0718
 30
0.0
 10
-89.3398
 20
-20.0718
 30
0.0
 10
-81.0213
 20
-20.4911
 30
0.0
 10
-78.4573
 20
-16.2477
 30
0.0
 10
-78.4327
 20
-14.1976
 30
0.0
 10
-78.4327
 20
-14.1976
 30
0.0
 10
-78.4081
 20
-16.2477
 30
0.0
 10
-75.8441
 20
-20.4911
 30
0.0
 10
-67.5255
 20
-20.0718
 30
0.0
 10
-67.5255
 20
-20.0718
 30
0.0
 10
-67.5255
 20
-20.0718
 30
0.0
 10
-67.5255
 20
-21.7683
 30
0.0
 10
-67.5255
 20
-21.7683
 30
0.0
  0
SPLINE
  5
98
330
1F
100
AcDbEntity
  8
layer 1
 62
     7
100
AcDbSpline
210
0.0
220
0.0
230
1.0
 70
    11
 71
     3
 72
    20
 73
    16
 74
     0
 42
0.0000000001
 43
0.0000000001
 12
1.0
 22
0.0
 32
0.0
 13
1.0
 23
0.0
 33
0.0
 40
0.0
 40
0.0
 40
0.0
 40
0.0
 40
0.2
 40
0.2
 40
0.2
 40
0.2
 40
0.4
 40
0.4
 40
0.4
 40
0.4
 40
0.6
 40
0.6
 40
0.6
 40
0.6
 40
1.0
 40
1.0
 40
1.0
 40
1.0
 10
-66.0934
 20
-18.0378
 30
0.0
 10
-66.0934
 20
-18.0378
 30
0.0
 10
-60.3243
 20
-18.0378
 30
0.0
 10
-60.3243
 20
-18.0378
 30
0.0
 10
-60.3243
 20
-18.0378
 30
0.0
 10
-60.3243
 20
-18.0378
 30
0.0
 10
-60.3243
 20
-23.8682
 30
0.0
 10
-60.3243
 20
-23.8682
 30
0.0
 10
-60.3243
 20
-23.8682
 30
0.0
 10
-60.3243
 20
-23.8682
 30
0.0
 10
-66.0934
 20
-23.8682
 30
0.0
 10
-66.0934
 20
-23.8682
 30
0.0
 10
-66.0934
 20
-23.8682
 30
0.0
 10
-66.0934
 20
-23.8682
 30
0.0
 10
-66.0934
 20
-18.0378
 30
0.0
 10
-66.0934
 20
-18.0378
 30
0.0
  0
SPLINE
  5
99
330
1F
100
AcDbEntity
  8
layer 1
 62
     7
100
AcDbSpline
210
0.0
220
0.0
230
1.0
 70
    11
 71
     3
 72
    28
 73
    24
 74
     0
 42
0.0000000001
 43
0.0000000001
 12
1.0
 22
0.0
 32
0.0
 13
1.0
 23
0.0
 33
0.0
 40
0.0
 40
0.0
 40
0.0
 40
0.0
 40
0.1428571428571428
 40
0.1428571428571428
 40
0.1428571428571428
 40
0.1428571428571428
 40
0.2857142857142857
 40
0.2857142857142857
 40
0.2857142857142857
 40
0.2857142857142857
 40
0.4285714285714285
 40
0.4285714285714285
 40
0.4285714285714285
 40
0.4285714285714285
 40
0.5714285714285714
 40
0.5714285714285714
 40
0.5714285714285714
 40
0.5714285714285714
 40
0.7142857142857143
 40
0.7142857142857143
 40
0.7142857142857143
 40
0.7142857142857143
 40
1.0
 40
1.0
 40
1.0
 40
1.0
 10
-64.0172
 20
-16.6791
 30
0.0
 10
-63.5979
 20
-8.3606
 30
0.0
 10
-67.8413
 20
-5.7966
 30
0.0
 10
-69.8913
 20
-5.772
 30
0.0
 10
-69.8913
 20
-5.772
 30
0.0
 10
-67.8413
 20
-5.7474
 30
0.0
 10
-63.5979
 20
-3.1833
 30
0.0
 10
-64.0172
 20
5.1351
 30
0.0
 10
-64.0172
 20
5.1351
 30
0.0
 10
-64.0172
 20
5.1351
 30
0.0
 10
-62.3207
 20
5.1351
 30
0.0
 10
-62.3207
 20
5.1351
 30
0.0
 10
-62.3207
 20
5.1351
 30
0.0
 10
-62.74
 20
-3.1834
 30
0.0
 10
-58.4966
 20
-5.7474
 30
0.0
 10
-56.4465
 20
-5.772
 30
0.0
 10
-56.4465
 20
-5.772
 30
0.0
 10
-58.4966
 20
-5.7966
 30
0.0
 10
-62.74
 20
-8.3606
 30
0.0
 10
-62.3207
 20
-16.6791
 30
0.0
 10
-62.3207
 20
-16.6791
 30
0.0
 10
-62.3207
 20
-16.6791
 30
0.0
 10
-64.0172
 20
-16.6791
 30
0.0
 10
-64.0172
 20
-16.6791
 30
0.0
  0
SPLINE
  5
9A
330
1F
100
AcDbEntity
  8
layer 1
 62
     7
100
AcDbSpline
210
0.0
220
0.0
230
1.0
 70
    11
 71
     3
 72
    68
 73
    64
 74
     0
 42
0.0000000001
 43
0.0000000001
 12
1.0
 22
0.0
 32
0.0
 13
1.0
 23
0.0
 33
0.0
 40
0.0
 40
0.0
 40
0.0
 40
0.0
 40
0.0588235294117647
 40
0.0588235294117647
 40
0.0588235294117647
 40
0.0588235294117647
 40
0.1176470588235294
 40
0.1176470588235294
 40
0.1176470588235294
 40
0.1176470588235294
 40
0.1764705882352941
 40
0.1764705882352941
 40
0.1764705882352941
 40
0.1764705882352941
 40
0.2352941176470588
 40
0.2352941176470588
 40
0.2352941176470588
 40
0.2352941176470588
 40
0.2941176470588235
 40
0.2941176470588235
 40
0.2941176470588235
 40
0.2941176470588235
 40
0.3529411764705883
 40
0.3529411764705883
 40
0.3529411764705883
 40
0.3529411764705883
 40
0.4117647058823529
 40
0.4117647058823529
 40
0.4117647058823529
 40
0.4117647058823529
 40
0.4705882352941176
 40
0.4705882352941176
 40
0.4705882352941176
 40
0.4705882352941176
 40
0.5294117647058824
 40
0.5294117647058824
 40
0.5294117647058824
 40
0.5294117647058824
 40
0.5882352941176471
 40
0.5882352941176471
 40
0.5882352941176471
 40
0.5882352941176471
 40
0.6470588235294118
 40
0.6470588235294118
 40
0.6470588235294118
 40
0.6470588235294118
 40
0.7058823529411765
 40
0.7058823529411765
 40
0.7058823529411765
 40
0.7058823529411765
 40
0.7647058823529411
 40
0.7647058823529411
 40
0.7647058823529411
 40
0.7647058823529411
 40
0.8235294117647058
 40
0.8235294117647058
 40
0.8235294117647058
 40
0.8235294117647058
 40
0.8823529411764706
 40
0.8823529411764706
 40
0.8823529411764706
 40
0.8823529411764706
 40
1.0
 40
1.0
 40
1.0
 40
1.0
 10
-48.3249
 20
-8.2917
 30
0.0
 10
-49.6108
 20
-13.3957
 30
0.0
 10
-48.6412
 20
-17.3164
 30
0.0
 10
-59.1298
 20
-17.0854
 30
0.0
 10
-59.1298
 20
-17.0854
 30
0.0
 10
-59.0289
 20
-9.927
 30
0.0
 10
-59.1766
 20
-7.6383
 30
0.0
 10
-51.168
 20
-6.2851
 30
0.0
 10
-51.168
 20
-6.2851
 30
0.0
 10
-50.9622
 20
-6.2503
 30
0.0
 10
-50.394
 20
-6.0411
 30
0.0
 10
-50.4965
 20
-5.887
 30
0.0
 10
-50.4965
 20
-5.887
 30
0.0
 10
-50.394
 20
-5.7329
 30
0.0
 10
-50.9622
 20
-5.5238
 30
0.0
 10
-51.168
 20
-5.489
 30
0.0
 10
-51.168
 20
-5.489
 30
0.0
 10
-59.1766
 20
-4.1357
 30
0.0
 10
-59.0289
 20
-1.847
 30
0.0
 10
-59.1298
 20
5.3114
 30
0.0
 10
-59.1298
 20
5.3114
 30
0.0
 10
-48.6412
 20
5.5423
 30
0.0
 10
-49.6108
 20
1.6216
 30
0.0
 10
-48.3249
 20
-3.4823
 30
0.0
 10
-48.3249
 20
-3.4823
 30
0.0
 10
-48.2637
 20
-3.7742
 30
0.0
 10
-48.0889
 20
-3.747
 30
0.0
 10
-48.0889
 20
-3.747
 30
0.0
 10
-48.0889
 20
-3.747
 30
0.0
 10
-48.0889
 20
-3.747
 30
0.0
 10
-47.9141
 20
-3.7742
 30
0.0
 10
-47.8529
 20
-3.4823
 30
0.0
 10
-47.8529
 20
-3.4823
 30
0.0
 10
-46.567
 20
1.6217
 30
0.0
 10
-47.5366
 20
5.5423
 30
0.0
 10
-37.048
 20
5.3114
 30
0.0
 10
-37.048
 20
5.3114
 30
0.0
 10
-37.1489
 20
-1.847
 30
0.0
 10
-37.0012
 20
-4.1357
 30
0.0
 10
-45.0098
 20
-5.489
 30
0.0
 10
-45.0098
 20
-5.489
 30
0.0
 10
-45.2156
 20
-5.5238
 30
0.0
 10
-45.7838
 20
-5.7329
 30
0.0
 10
-45.6813
 20
-5.887
 30
0.0
 10
-45.6813
 20
-5.887
 30
0.0
 10
-45.7838
 20
-6.0411
 30
0.0
 10
-45.2156
 20
-6.2503
 30
0.0
 10
-45.0098
 20
-6.2851
 30
0.0
 10
-45.0098
 20
-6.2851
 30
0.0
 10
-37.0012
 20
-7.6383
 30
0.0
 10
-37.1489
 20
-9.9271
 30
0.0
 10
-37.048
 20
-17.0854
 30
0.0
 10
-37.048
 20
-17.0854
 30
0.0
 10
-47.5366
 20
-17.3164
 30
0.0
 10
-46.567
 20
-13.3956
 30
0.0
 10
-47.8529
 20
-8.2917
 30
0.0
 10
-47.8529
 20
-8.2917
 30
0.0
 10
-47.9141
 20
-7.9998
 30
0.0
 10
-48.0889
 20
-8.027
 30
0.0
 10
-48.0889
 20
-8.027
 30
0.0
 10
-48.0889
 20
-8.027
 30
0.0
 10
-48.0889
 20
-8.027
 30
0.0
 10
-48.2637
 20
-7.9998
 30
0.0
 10
-48.3249
 20
-8.2917
 30
0.0
  0
SPLINE
  5
9B
330
1F
100
AcDbEntity
  8
layer 1
 62
     7
100
AcDbSpline
210
0.0
220
0.0
230
1.0
 70
    11
 71
     3
 72
    28
 73
    24
 74
     0
 42
0.0000000001
 43
0.0000000001
 12
1.0
 22
0.0
 32
0.0
 13
1.0
 23
0.0
 33
0.0
 40
0.0
 40
0.0
 40
0.0
 40
0.0
 40
0.1428571428571428
 40
0.1428571428571428
 40
0.1428571428571428
 40
0.1428571428571428
 40
0.2857142857142857
 40
0.2857142857142857
 40
0.2857142857142857
 40
0.2857142857142857
 40
0.4285714285714285
 40
0.4285714285714285
 40
0.4285714285714285
 40
0.4285714285714285
 40
0.5714285714285714
 40
0.5714285714285714
 40
0.5714285714285714
 40
0.5714285714285714
 40
0.7142857142857143
 40
0.7142857142857143
 40
0.7142857142857143
 40
0.7142857142857143
 40
1.0
 40
1.0
 40
1.0
 40
1.0
 10
-37.2637
 20
-21.7683
 30
0.0
 10
-45.5822
 20
-21.349
 30
0.0
 10
-48.1462
 20
-25.5924
 30
0.0
 10
-48.1708
 20
-27.6424
 30
0.0
 10
-48.1708
 20
-27.6424
 30
0.0
 10
-48.1955
 20
-25.5924
 30
0.0
 10
-50.7594
 20
-21.349
 30
0.0
 10
-59.078
 20
-21.7683
 30
0.0
 10
-59.078
 20
-21.7683
 30
0.0
 10
-59.078
 20
-21.7683
 30
0.0
 10
-59.078
 20
-20.0718
 30
0.0
 10
-59.078
 20
-20.0718
 30
0.0
 10
-59.078
 20
-20.0718
 30
0.0
 10
-50.7594
 20
-20.4911
 30
0.0
 10
-48.1955
 20
-16.2477
 30
0.0
 10
-48.1708
 20
-14.1976
 30
0.0
 10
-48.1708
 20
-14.1976
 30
0.0
 10
-48.1462
 20
-16.2477
 30
0.0
 10
-45.5822
 20
-20.4911
 30
0.0
 10
-37.2637
 20
-20.0718
 30
0.0
 10
-37.2637
 20
-20.0718
 30
0.0
 10
-37.2637
 20
-20.0718
 30
0.0
 10
-37.2637
 20
-21.7683
 30
0.0
 10
-37.2637
 20
-21.7683
 30
0.0
  0
SPLINE
  5
9C
330
1F
100
AcDbEntity
  8
layer 1
 62
     7
100
AcDbSpline
210
0.0
220
0.0
230
1.0
 70
    11
 71
     3
 72
    68
 73
    64
 74
     0
 42
0.0000000001
 43
0.0000000001
 12
1.0
 22
0.0
 32
0.0
 13
1.0
 23
0.0
 33
0.0
 40
0.0
 40
0.0
 40
0.0
 40
0.0
 40
0.0588235294117647
 40
0.0588235294117647
 40
0.0588235294117647
 40
0.0588235294117647
 40
0.1176470588235294
 40
0.1176470588235294
 40
0.1176470588235294
 40
0.1176470588235294
 40
0.1764705882352941
 40
0.1764705882352941
 40
0.1764705882352941
 40
0.1764705882352941
 40
0.2352941176470588
 40
0.2352941176470588
 40
0.2352941176470588
 40
0.2352941176470588
 40
0.2941176470588235
 40
0.2941176470588235
 40
0.2941176470588235
 40
0.2941176470588235
 40
0.3529411764705883
 40
0.3529411764705883
 40
0.3529411764705883
 40
0.3529411764705883
 40
0.4117647058823529
 40
0.4117647058823529
 40
0.4117647058823529
 40
0.4117647058823529
 40
0.4705882352941176
 40
0.4705882352941176
 40
0.4705882352941176
 40
0.4705882352941176
 40
0.5294117647058824
 40
0.5294117647058824
 40
0.5294117647058824
 40
0.5294117647058824
 40
0.5882352941176471
 40
0.5882352941176471
 40
0.5882352941176471
 40
0.5882352941176471
 40
0.6470588235294118
 40
0.6470588235294118
 40
0.6470588235294118
 40
0.6470588235294118
 40
0.7058823529411765
 40
0.7058823529411765
 40
0.7058823529411765
 40
0.7058823529411765
 40
0.7647058823529411
 40
0.7647058823529411
 40
0.7647058823529411
 40
0.7647058823529411
 40
0.8235294117647058
 40
0.8235294117647058
 40
0.8235294117647058
 40
0.8235294117647058
 40
0.8823529411764706
 40
0.8823529411764706
 40
0.8823529411764706
 40
0.8823529411764706
 40
1.0
 40
1.0
 40
1.0
 40
1.0
 10
-169.4385
 20
-38.4898
 30
0.0
 10
-170.7244
 20
-43.5938
 30
0.0
 10
-169.7548
 20
-47.5145
 30
0.0
 10
-180.2435
 20
-47.2836
 30
0.0
 10
-180.2435
 20
-47.2836
 30
0.0
 10
-180.1425
 20
-40.1252
 30
0.0
 10
-180.2902
 20
-37.8364
 30
0.0
 10
-172.2816
 20
-36.4832
 30
0.0
 10
-172.2816
 20
-36.4832
 30
0.0
 10
-172.0759
 20
-36.4484
 30
0.0
 10
-171.5076
 20
-36.2393
 30
0.0
 10
-171.6102
 20
-36.0852
 30
0.0
 10
-171.6102
 20
-36.0852
 30
0.0
 10
-171.5076
 20
-35.931
 30
0.0
 10
-172.0759
 20
-35.7219
 30
0.0
 10
-172.2816
 20
-35.6871
 30
0.0
 10
-172.2816
 20
-35.6871
 30
0.0
 10
-180.2902
 20
-34.3339
 30
0.0
 10
-180.1425
 20
-32.0451
 30
0.0
 10
-180.2435
 20
-24.8867
 30
0.0
 10
-180.2435
 20
-24.8867
 30
0.0
 10
-169.7548
 20
-24.6558
 30
0.0
 10
-170.7244
 20
-28.5765
 30
0.0
 10
-169.4385
 20
-33.6805
 30
0.0
 10
-169.4385
 20
-33.6805
 30
0.0
 10
-169.3773
 20
-33.9724
 30
0.0
 10
-169.2025
 20
-33.9452
 30
0.0
 10
-169.2025
 20
-33.9452
 30
0.0
 10
-169.2025
 20
-33.9452
 30
0.0
 10
-169.2025
 20
-33.9452
 30
0.0
 10
-169.0277
 20
-33.9724
 30
0.0
 10
-168.9665
 20
-33.6805
 30
0.0
 10
-168.9665
 20
-33.6805
 30
0.0
 10
-167.6806
 20
-28.5765
 30
0.0
 10
-168.6502
 20
-24.6558
 30
0.0
 10
-158.1616
 20
-24.8867
 30
0.0
 10
-158.1616
 20
-24.8867
 30
0.0
 10
-158.2625
 20
-32.0452
 30
0.0
 10
-158.1148
 20
-34.3339
 30
0.0
 10
-166.1235
 20
-35.6871
 30
0.0
 10
-166.1235
 20
-35.6871
 30
0.0
 10
-166.3292
 20
-35.7219
 30
0.0
 10
-166.8975
 20
-35.931
 30
0.0
 10
-166.7949
 20
-36.0852
 30
0.0
 10
-166.7949
 20
-36.0852
 30
0.0
 10
-166.8975
 20
-36.2393
 30
0.0
 10
-166.3292
 20
-36.4484
 30
0.0
 10
-166.1235
 20
-36.4832
 30
0.0
 10
-166.1235
 20
-36.4832
 30
0.0
 10
-158.1148
 20
-37.8364
 30
0.0
 10
-158.2625
 20
-40.1252
 30
0.0
 10
-158.1616
 20
-47.2836
 30
0.0
 10
-158.1616
 20
-47.2836
 30
0.0
 10
-168.6502
 20
-47.5145
 30
0.0
 10
-167.6806
 20
-43.5938
 30
0.0
 10
-168.9665
 20
-38.4898
 30
0.0
 10
-168.9665
 20
-38.4898
 30
0.0
 10
-169.0277
 20
-38.198
 30
0.0
 10
-169.2025
 20
-38.2251
 30
0.0
 10
-169.2025
 20
-38.2251
 30
0.0
 10
-169.2025
 20
-38.2251
 30
0.0
 10
-169.2025
 20
-38.2251
 30
0.0
 10
-169.3773
 20
-38.198
 30
0.0
 10
-169.4385
 20
-38.4898
 30
0.0
  0
SPLINE
  5
9D
330
1F
100
AcDbEntity
  8
layer 1
 62
     7
100
AcDbSpline
210
0.0
220
0.0
230
1.0
 70
    11
 71
     3
 72
    28
 73
    24
 74
     0
 42
0.0000000001
 43
0.0000000001
 12
1.0
 22
0.0
 32
0.0
 13
1.0
 23
0.0
 33
0.0
 40
0.0
 40
0.0
 40
0.0
 40
0.0
 40
0.1428571428571428
 40
0.1428571428571428
 40
0.1428571428571428
 40
0.1428571428571428
 40
0.2857142857142857
 40
0.2857142857142857
 40
0.2857142857142857
 40
0.2857142857142857
 40
0.4285714285714285
 40
0.4285714285714285
 40
0.4285714285714285
 40
0.4285714285714285
 40
0.5714285714285714
 40
0.5714285714285714
 40
0.5714285714285714
 40
0.5714285714285714
 40
0.7142857142857143
 40
0.7142857142857143
 40
0.7142857142857143
 40
0.7142857142857143
 40
1.0
 40
1.0
 40
1.0
 40
1.0
 10
-158.3774
 20
-51.9665
 30
0.0
 10
-166.6959
 20
-51.5472
 30
0.0
 10
-169.2599
 20
-55.7906
 30
0.0
 10
-169.2845
 20
-57.8406
 30
0.0
 10
-169.2845
 20
-57.8406
 30
0.0
 10
-169.3091
 20
-55.7906
 30
0.0
 10
-171.8731
 20
-51.5472
 30
0.0
 10
-180.1917
 20
-51.9665
 30
0.0
 10
-180.1917
 20
-51.9665
 30
0.0
 10
-180.1917
 20
-51.9665
 30
0.0
 10
-180.1917
 20
-50.27
 30
0.0
 10
-180.1917
 20
-50.27
 30
0.0
 10
-180.1917
 20
-50.27
 30
0.0
 10
-171.8731
 20
-50.6893
 30
0.0
 10
-169.3091
 20
-46.4459
 30
0.0
 10
-169.2845
 20
-44.3958
 30
0.0
 10
-169.2845
 20
-44.3958
 30
0.0
 10
-169.2599
 20
-46.4459
 30
0.0
 10
-166.6959
 20
-50.6893
 30
0.0
 10
-158.3774
 20
-50.27
 30
0.0
 10
-158.3774
 20
-50.27
 30
0.0
 10
-158.3774
 20
-50.27
 30
0.0
 10
-158.3774
 20
-51.9665
 30
0.0
 10
-158.3774
 20
-51.9665
 30
0.0
  0
SPLINE
  5
9E
330
1F
100
AcDbEntity
  8
layer 1
 62
     7
100
AcDbSpline
210
0.0
220
0.0
230
1.0
 70
    11
 71
     3
 72
    28
 73
    24
 74
     0
 42
0.0000000001
 43
0.0000000001
 12
1.0
 22
0.0
 32
0.0
 13
1.0
 23
0.0
 33
0.0
 40
0.0
 40
0.0
 40
0.0
 40
0.0
 40
0.1428571428571428
 40
0.1428571428571428
 40
0.1428571428571428
 40
0.1428571428571428
 40
0.2857142857142857
 40
0.2857142857142857
 40
0.2857142857142857
 40
0.2857142857142857
 40
0.4285714285714285
 40
0.4285714285714285
 40
0.4285714285714285
 40
0.4285714285714285
 40
0.5714285714285714
 40
0.5714285714285714
 40
0.5714285714285714
 40
0.5714285714285714
 40
0.7142857142857143
 40
0.7142857142857143
 40
0.7142857142857143
 40
0.7142857142857143
 40
1.0
 40
1.0
 40
1.0
 40
1.0
 10
-154.869
 20
-46.8773
 30
0.0
 10
-154.4497
 20
-38.5587
 30
0.0
 10
-158.6931
 20
-35.9947
 30
0.0
 10
-160.7432
 20
-35.9701
 30
0.0
 10
-160.7432
 20
-35.9701
 30
0.0
 10
-158.6931
 20
-35.9455
 30
0.0
 10
-154.4497
 20
-33.3815
 30
0.0
 10
-154.869
 20
-25.063
 30
0.0
 10
-154.869
 20
-25.063
 30
0.0
 10
-154.869
 20
-25.063
 30
0.0
 10
-153.1725
 20
-25.063
 30
0.0
 10
-153.1725
 20
-25.063
 30
0.0
 10
-153.1725
 20
-25.063
 30
0.0
 10
-153.5918
 20
-33.3815
 30
0.0
 10
-149.3484
 20
-35.9455
 30
0.0
 10
-147.2984
 20
-35.9701
 30
0.0
 10
-147.2984
 20
-35.9701
 30
0.0
 10
-149.3484
 20
-35.9947
 30
0.0
 10
-153.5918
 20
-38.5587
 30
0.0
 10
-153.1725
 20
-46.8773
 30
0.0
 10
-153.1725
 20
-46.8773
 30
0.0
 10
-153.1725
 20
-46.8773
 30
0.0
 10
-154.869
 20
-46.8773
 30
0.0
 10
-154.869
 20
-46.8773
 30
0.0
  0
SPLINE
  5
9F
330
1F
100
AcDbEntity
  8
layer 1
 62
     7
100
AcDbSpline
210
0.0
220
0.0
230
1.0
 70
    11
 71
     3
 72
    20
 73
    16
 74
     0
 42
0.0000000001
 43
0.0000000001
 12
1.0
 22
0.0
 32
0.0
 13
1.0
 23
0.0
 33
0.0
 40
0.0
 40
0.0
 40
0.0
 40
0.0
 40
0.2
 40
0.2
 40
0.2
 40
0.2
 40
0.4
 40
0.4
 40
0.4
 40
0.4
 40
0.6
 40
0.6
 40
0.6
 40
0.6
 40
1.0
 40
1.0
 40
1.0
 40
1.0
 10
-156.9451
 20
-48.236
 30
0.0
 10
-156.9451
 20
-48.236
 30
0.0
 10
-151.176
 20
-48.236
 30
0.0
 10
-151.176
 20
-48.236
 30
0.0
 10
-151.176
 20
-48.236
 30
0.0
 10
-151.176
 20
-48.236
 30
0.0
 10
-151.176
 20
-54.0665
 30
0.0
 10
-151.176
 20
-54.0665
 30
0.0
 10
-151.176
 20
-54.0665
 30
0.0
 10
-151.176
 20
-54.0665
 30
0.0
 10
-156.9451
 20
-54.0665
 30
0.0
 10
-156.9451
 20
-54.0665
 30
0.0
 10
-156.9451
 20
-54.0665
 30
0.0
 10
-156.9451
 20
-54.0665
 30
0.0
 10
-156.9451
 20
-48.236
 30
0.0
 10
-156.9451
 20
-48.236
 30
0.0
  0
SPLINE
  5
A0
330
1F
100
AcDbEntity
  8
layer 1
 62
     7
100
AcDbSpline
210
0.0
220
0.0
230
1.0
 70
    11
 71
     3
 72
    68
 73
    64
 74
     0
 42
0.0000000001
 43
0.0000000001
 12
1.0
 22
0.0
 32
0.0
 13
1.0
 23
0.0
 33
0.0
 40
0.0
 40
0.0
 40
0.0
 40
0.0
 40
0.0588235294117647
 40
0.0588235294117647
 40
0.0588235294117647
 40
0.0588235294117647
 40
0.1176470588235294
 40
0.1176470588235294
 40
0.1176470588235294
 40
0.1176470588235294
 40
0.1764705882352941
 40
0.1764705882352941
 40
0.1764705882352941
 40
0.1764705882352941
 40
0.2352941176470588
 40
0.2352941176470588
 40
0.2352941176470588
 40
0.2352941176470588
 40
0.2941176470588235
 40
0.2941176470588235
 40
0.2941176470588235
 40
0.2941176470588235
 40
0.3529411764705883
 40
0.3529411764705883
 40
0.3529411764705883
 40
0.3529411764705883
 40
0.4117647058823529
 40
0.4117647058823529
 40
0.4117647058823529
 40
0.4117647058823529
 40
0.4705882352941176
 40
0.4705882352941176
 40
0.4705882352941176
 40
0.4705882352941176
 40
0.5294117647058824
 40
0.5294117647058824
 40
0.5294117647058824
 40
0.5294117647058824
 40
0.5882352941176471
 40
0.5882352941176471
 40
0.5882352941176471
 40
0.5882352941176471
 40
0.6470588235294118
 40
0.6470588235294118
 40
0.6470588235294118
 40
0.6470588235294118
 40
0.7058823529411765
 40
0.7058823529411765
 40
0.7058823529411765
 40
0.7058823529411765
 40
0.7647058823529411
 40
0.7647058823529411
 40
0.7647058823529411
 40
0.7647058823529411
 40
0.8235294117647058
 40
0.8235294117647058
 40
0.8235294117647058
 40
0.8235294117647058
 40
0.8823529411764706
 40
0.8823529411764706
 40
0.8823529411764706
 40
0.8823529411764706
 40
1.0
 40
1.0
 40
1.0
 40
1.0
 10
-139.1103
 20
-38.4898
 30
0.0
 10
-140.3963
 20
-43.5938
 30
0.0
 10
-139.4266
 20
-47.5145
 30
0.0
 10
-149.9153
 20
-47.2836
 30
0.0
 10
-149.9153
 20
-47.2836
 30
0.0
 10
-149.8144
 20
-40.1252
 30
0.0
 10
-149.962
 20
-37.8364
 30
0.0
 10
-141.9534
 20
-36.4832
 30
0.0
 10
-141.9534
 20
-36.4832
 30
0.0
 10
-141.7477
 20
-36.4484
 30
0.0
 10
-141.1794
 20
-36.2393
 30
0.0
 10
-141.282
 20
-36.0852
 30
0.0
 10
-141.282
 20
-36.0852
 30
0.0
 10
-141.1794
 20
-35.931
 30
0.0
 10
-141.7477
 20
-35.7219
 30
0.0
 10
-141.9534
 20
-35.6871
 30
0.0
 10
-141.9534
 20
-35.6871
 30
0.0
 10
-149.962
 20
-34.3339
 30
0.0
 10
-149.8144
 20
-32.0451
 30
0.0
 10
-149.9153
 20
-24.8867
 30
0.0
 10
-149.9153
 20
-24.8867
 30
0.0
 10
-139.4266
 20
-24.6558
 30
0.0
 10
-140.3963
 20
-28.5765
 30
0.0
 10
-139.1103
 20
-33.6805
 30
0.0
 10
-139.1103
 20
-33.6805
 30
0.0
 10
-139.0491
 20
-33.9724
 30
0.0
 10
-138.8743
 20
-33.9452
 30
0.0
 10
-138.8743
 20
-33.9452
 30
0.0
 10
-138.8743
 20
-33.9452
 30
0.0
 10
-138.8743
 20
-33.9452
 30
0.0
 10
-138.6996
 20
-33.9724
 30
0.0
 10
-138.6384
 20
-33.6805
 30
0.0
 10
-138.6384
 20
-33.6805
 30
0.0
 10
-137.3524
 20
-28.5765
 30
0.0
 10
-138.3221
 20
-24.6558
 30
0.0
 10
-127.8334
 20
-24.8867
 30
0.0
 10
-127.8334
 20
-24.8867
 30
0.0
 10
-127.9343
 20
-32.0452
 30
0.0
 10
-127.7867
 20
-34.3339
 30
0.0
 10
-135.7953
 20
-35.6871
 30
0.0
 10
-135.7953
 20
-35.6871
 30
0.0
 10
-136.001
 20
-35.7219
 30
0.0
 10
-136.5693
 20
-35.931
 30
0.0
 10
-136.4667
 20
-36.0852
 30
0.0
 10
-136.4667
 20
-36.0852
 30
0.0
 10
-136.5693
 20
-36.2393
 30
0.0
 10
-136.001
 20
-36.4484
 30
0.0
 10
-135.7953
 20
-36.4832
 30
0.0
 10
-135.7953
 20
-36.4832
 30
0.0
 10
-127.7867
 20
-37.8364
 30
0.0
 10
-127.9343
 20
-40.1252
 30
0.0
 10
-127.8334
 20
-47.2836
 30
0.0
 10
-127.8334
 20
-47.2836
 30
0.0
 10
-138.3221
 20
-47.5145
 30
0.0
 10
-137.3524
 20
-43.5938
 30
0.0
 10
-138.6384
 20
-38.4898
 30
0.0
 10
-138.6384
 20
-38.4898
 30
0.0
 10
-138.6996
 20
-38.198
 30
0.0
 10
-138.8743
 20
-38.2251
 30
0.0
 10
-138.8743
 20
-38.2251
 30
0.0
 10
-138.8743
 20
-38.2251
 30
0.0
 10
-138.8743
 20
-38.2251
 30
0.0
 10
-139.0491
 20
-38.198
 30
0.0
 10
-139.1103
 20
-38.4898
 30
0.0
  0
SPLINE
  5
A1
330
1F
100
AcDbEntity
  8
layer 1
 62
     7
100
AcDbSpline
210
0.0
220
0.0
230
1.0
 70
    11
 71
     3
 72
    28
 73
    24
 74
     0
 42
0.0000000001
 43
0.0000000001
 12
1.0
 22
0.0
 32
0.0
 13
1.0
 23
0.0
 33
0.0
 40
0.0
 40
0.0
 40
0.0
 40
0.0
 40
0.1428571428571428
 40
0.1428571428571428
 40
0.1428571428571428
 40
0.1428571428571428
 40
0.2857142857142857
 40
0.2857142857142857
 40
0.2857142857142857
 40
0.2857142857142857
 40
0.4285714285714285
 40
0.4285714285714285
 40
0.4285714285714285
 40
0.4285714285714285
 40
0.5714285714285714
 40
0.5714285714285714
 40
0.5714285714285714
 40
0.5714285714285714
 40
0.7142857142857143
 40
0.7142857142857143
 40
0.7142857142857143
 40
0.7142857142857143
 40
1.0
 40
1.0
 40
1.0
 40
1.0
 10
-128.0491
 20
-51.9665
 30
0.0
 10
-136.3677
 20
-51.5472
 30
0.0
 10
-138.9317
 20
-55.7906
 30
0.0
 10
-138.9563
 20
-57.8406
 30
0.0
 10
-138.9563
 20
-57.8406
 30
0.0
 10
-138.9809
 20
-55.7906
 30
0.0
 10
-141.5449
 20
-51.5472
 30
0.0
 10
-149.8634
 20
-51.9665
 30
0.0
 10
-149.8634
 20
-51.9665
 30
0.0
 10
-149.8634
 20
-51.9665
 30
0.0
 10
-149.8634
 20
-50.27
 30
0.0
 10
-149.8634
 20
-50.27
 30
0.0
 10
-149.8634
 20
-50.27
 30
0.0
 10
-141.5449
 20
-50.6893
 30
0.0
 10
-138.9809
 20
-46.4459
 30
0.0
 10
-138.9563
 20
-44.3958
 30
0.0
 10
-138.9563
 20
-44.3958
 30
0.0
 10
-138.9317
 20
-46.4459
 30
0.0
 10
-136.3677
 20
-50.6893
 30
0.0
 10
-128.0491
 20
-50.27
 30
0.0
 10
-128.0491
 20
-50.27
 30
0.0
 10
-128.0491
 20
-50.27
 30
0.0
 10
-128.0491
 20
-51.9665
 30
0.0
 10
-128.0491
 20
-51.9665
 30
0.0
  0
SPLINE
  5
A2
330
1F
100
AcDbEntity
  8
layer 1
 62
     7
100
AcDbSpline
210
0.0
220
0.0
230
1.0
 70
    11
 71
     3
 72
    20
 73
    16
 74
     0
 42
0.0000000001
 43
0.0000000001
 12
1.0
 22
0.0
 32
0.0
 13
1.0
 23
0.0
 33
0.0
 40
0.0
 40
0.0
 40
0.0
 40
0.0
 40
0.2
 40
0.2
 40
0.2
 40
0.2
 40
0.4
 40
0.4
 40
0.4
 40
0.4
 40
0.6
 40
0.6
 40
0.6
 40
0.6
 40
1.0
 40
1.0
 40
1.0
 40
1.0
 10
-126.617
 20
-48.236
 30
0.0
 10
-126.617
 20
-48.236
 30
0.0
 10
-120.8479
 20
-48.236
 30
0.0
 10
-120.8479
 20
-48.236
 30
0.0
 10
-120.8479
 20
-48.236
 30
0.0
 10
-120.8479
 20
-48.236
 30
0.0
 10
-120.8479
 20
-54.0665
 30
0.0
 10
-120.8479
 20
-54.0665
 30
0.0
 10
-120.8479
 20
-54.0665
 30
0.0
 10
-120.8479
 20
-54.0665
 30
0.0
 10
-126.617
 20
-54.0665
 30
0.0
 10
-126.617
 20
-54.0665
 30
0.0
 10
-126.617
 20
-54.0665
 30
0.0
 10
-126.617
 20
-54.0665
 30
0.0
 10
-126.617
 20
-48.236
 30
0.0
 10
-126.617
 20
-48.236
 30
0.0
  0
SPLINE
  5
A3
330
1F
100
AcDbEntity
  8
layer 1
 62
     7
100
AcDbSpline
210
0.0
220
0.0
230
1.0
 70
    11
 71
     3
 72
    28
 73
    24
 74
     0
 42
0.0000000001
 43
0.0000000001
 12
1.0
 22
0.0
 32
0.0
 13
1.0
 23
0.0
 33
0.0
 40
0.0
 40
0.0
 40
0.0
 40
0.0
 40
0.1428571428571428
 40
0.1428571428571428
 40
0.1428571428571428
 40
0.1428571428571428
 40
0.2857142857142857
 40
0.2857142857142857
 40
0.2857142857142857
 40
0.2857142857142857
 40
0.4285714285714285
 40
0.4285714285714285
 40
0.4285714285714285
 40
0.4285714285714285
 40
0.5714285714285714
 40
0.5714285714285714
 40
0.5714285714285714
 40
0.5714285714285714
 40
0.7142857142857143
 40
0.7142857142857143
 40
0.7142857142857143
 40
0.7142857142857143
 40
1.0
 40
1.0
 40
1.0
 40
1.0
 10
-124.5408
 20
-46.8773
 30
0.0
 10
-124.1215
 20
-38.5587
 30
0.0
 10
-128.3649
 20
-35.9947
 30
0.0
 10
-130.4149
 20
-35.9701
 30
0.0
 10
-130.4149
 20
-35.9701
 30
0.0
 10
-128.3649
 20
-35.9455
 30
0.0
 10
-124.1215
 20
-33.3815
 30
0.0
 10
-124.5408
 20
-25.063
 30
0.0
 10
-124.5408
 20
-25.063
 30
0.0
 10
-124.5408
 20
-25.063
 30
0.0
 10
-122.8443
 20
-25.063
 30
0.0
 10
-122.8443
 20
-25.063
 30
0.0
 10
-122.8443
 20
-25.063
 30
0.0
 10
-123.2636
 20
-33.3815
 30
0.0
 10
-119.0202
 20
-35.9455
 30
0.0
 10
-116.9701
 20
-35.9701
 30
0.0
 10
-116.9701
 20
-35.9701
 30
0.0
 10
-119.0202
 20
-35.9947
 30
0.0
 10
-123.2636
 20
-38.5587
 30
0.0
 10
-122.8443
 20
-46.8773
 30
0.0
 10
-122.8443
 20
-46.8773
 30
0.0
 10
-122.8443
 20
-46.8773
 30
0.0
 10
-124.5408
 20
-46.8773
 30
0.0
 10
-124.5408
 20
-46.8773
 30
0.0
  0
SPLINE
  5
A4
330
1F
100
AcDbEntity
  8
layer 1
 62
     7
100
AcDbSpline
210
0.0
220
0.0
230
1.0
 70
    11
 71
     3
 72
    68
 73
    64
 74
     0
 42
0.0000000001
 43
0.0000000001
 12
1.0
 22
0.0
 32
0.0
 13
1.0
 23
0.0
 33
0.0
 40
0.0
 40
0.0
 40
0.0
 40
0.0
 40
0.0588235294117647
 40
0.0588235294117647
 40
0.0588235294117647
 40
0.0588235294117647
 40
0.1176470588235294
 40
0.1176470588235294
 40
0.1176470588235294
 40
0.1176470588235294
 40
0.1764705882352941
 40
0.1764705882352941
 40
0.1764705882352941
 40
0.1764705882352941
 40
0.2352941176470588
 40
0.2352941176470588
 40
0.2352941176470588
 40
0.2352941176470588
 40
0.2941176470588235
 40
0.2941176470588235
 40
0.2941176470588235
 40
0.2941176470588235
 40
0.3529411764705883
 40
0.3529411764705883
 40
0.3529411764705883
 40
0.3529411764705883
 40
0.4117647058823529
 40
0.4117647058823529
 40
0.4117647058823529
 40
0.4117647058823529
 40
0.4705882352941176
 40
0.4705882352941176
 40
0.4705882352941176
 40
0.4705882352941176
 40
0.5294117647058824
 40
0.5294117647058824
 40
0.5294117647058824
 40
0.5294117647058824
 40
0.5882352941176471
 40
0.5882352941176471
 40
0.5882352941176471
 40
0.5882352941176471
 40
0.6470588235294118
 40
0.6470588235294118
 40
0.6470588235294118
 40
0.6470588235294118
 40
0.7058823529411765
 40
0.7058823529411765
 40
0.7058823529411765
 40
0.7058823529411765
 40
0.7647058823529411
 40
0.7647058823529411
 40
0.7647058823529411
 40
0.7647058823529411
 40
0.8235294117647058
 40
0.8235294117647058
 40
0.8235294117647058
 40
0.8235294117647058
 40
0.8823529411764706
 40
0.8823529411764706
 40
0.8823529411764706
 40
0.8823529411764706
 40
1.0
 40
1.0
 40
1.0
 40
1.0
 10
-108.8485
 20
-38.4898
 30
0.0
 10
-110.1344
 20
-43.5938
 30
0.0
 10
-109.1648
 20
-47.5145
 30
0.0
 10
-119.6534
 20
-47.2836
 30
0.0
 10
-119.6534
 20
-47.2836
 30
0.0
 10
-119.5525
 20
-40.1252
 30
0.0
 10
-119.7002
 20
-37.8364
 30
0.0
 10
-111.6916
 20
-36.4832
 30
0.0
 10
-111.6916
 20
-36.4832
 30
0.0
 10
-111.4859
 20
-36.4484
 30
0.0
 10
-110.9176
 20
-36.2393
 30
0.0
 10
-111.0202
 20
-36.0852
 30
0.0
 10
-111.0202
 20
-36.0852
 30
0.0
 10
-110.9176
 20
-35.931
 30
0.0
 10
-111.4859
 20
-35.7219
 30
0.0
 10
-111.6916
 20
-35.6871
 30
0.0
 10
-111.6916
 20
-35.6871
 30
0.0
 10
-119.7002
 20
-34.3339
 30
0.0
 10
-119.5525
 20
-32.0451
 30
0.0
 10
-119.6534
 20
-24.8867
 30
0.0
 10
-119.6534
 20
-24.8867
 30
0.0
 10
-109.1648
 20
-24.6558
 30
0.0
 10
-110.1344
 20
-28.5765
 30
0.0
 10
-108.8485
 20
-33.6805
 30
0.0
 10
-108.8485
 20
-33.6805
 30
0.0
 10
-108.7873
 20
-33.9724
 30
0.0
 10
-108.6125
 20
-33.9452
 30
0.0
 10
-108.6125
 20
-33.9452
 30
0.0
 10
-108.6125
 20
-33.9452
 30
0.0
 10
-108.6125
 20
-33.9452
 30
0.0
 10
-108.4377
 20
-33.9724
 30
0.0
 10
-108.3765
 20
-33.6805
 30
0.0
 10
-108.3765
 20
-33.6805
 30
0.0
 10
-107.0906
 20
-28.5765
 30
0.0
 10
-108.0602
 20
-24.6558
 30
0.0
 10
-97.5716
 20
-24.8867
 30
0.0
 10
-97.5716
 20
-24.8867
 30
0.0
 10
-97.6725
 20
-32.0452
 30
0.0
 10
-97.5248
 20
-34.3339
 30
0.0
 10
-105.5335
 20
-35.6871
 30
0.0
 10
-105.5335
 20
-35.6871
 30
0.0
 10
-105.7392
 20
-35.7219
 30
0.0
 10
-106.3075
 20
-35.931
 30
0.0
 10
-106.2049
 20
-36.0852
 30
0.0
 10
-106.2049
 20
-36.0852
 30
0.0
 10
-106.3075
 20
-36.2393
 30
0.0
 10
-105.7392
 20
-36.4484
 30
0.0
 10
-105.5335
 20
-36.4832
 30
0.0
 10
-105.5335
 20
-36.4832
 30
0.0
 10
-97.5248
 20
-37.8364
 30
0.0
 10
-97.6725
 20
-40.1252
 30
0.0
 10
-97.5716
 20
-47.2836
 30
0.0
 10
-97.5716
 20
-47.2836
 30
0.0
 10
-108.0602
 20
-47.5145
 30
0.0
 10
-107.0906
 20
-43.5938
 30
0.0
 10
-108.3765
 20
-38.4898
 30
0.0
 10
-108.3765
 20
-38.4898
 30
0.0
 10
-108.4377
 20
-38.198
 30
0.0
 10
-108.6125
 20
-38.2251
 30
0.0
 10
-108.6125
 20
-38.2251
 30
0.0
 10
-108.6125
 20
-38.2251
 30
0.0
 10
-108.6125
 20
-38.2251
 30
0.0
 10
-108.7873
 20
-38.198
 30
0.0
 10
-108.8485
 20
-38.4898
 30
0.0
  0
SPLINE
  5
A5
330
1F
100
AcDbEntity
  8
layer 1
 62
     7
100
AcDbSpline
210
0.0
220
0.0
230
1.0
 70
    11
 71
     3
 72
    28
 73
    24
 74
     0
 42
0.0000000001
 43
0.0000000001
 12
1.0
 22
0.0
 32
0.0
 13
1.0
 23
0.0
 33
0.0
 40
0.0
 40
0.0
 40
0.0
 40
0.0
 40
0.1428571428571428
 40
0.1428571428571428
 40
0.1428571428571428
 40
0.1428571428571428
 40
0.2857142857142857
 40
0.2857142857142857
 40
0.2857142857142857
 40
0.2857142857142857
 40
0.4285714285714285
 40
0.4285714285714285
 40
0.4285714285714285
 40
0.4285714285714285
 40
0.5714285714285714
 40
0.5714285714285714
 40
0.5714285714285714
 40
0.5714285714285714
 40
0.7142857142857143
 40
0.7142857142857143
 40
0.7142857142857143
 40
0.7142857142857143
 40
1.0
 40
1.0
 40
1.0
 40
1.0
 10
-97.7874
 20
-51.9665
 30
0.0
 10
-106.1059
 20
-51.5472
 30
0.0
 10
-108.6699
 20
-55.7906
 30
0.0
 10
-108.6945
 20
-57.8406
 30
0.0
 10
-108.6945
 20
-57.8406
 30
0.0
 10
-108.7191
 20
-55.7906
 30
0.0
 10
-111.2831
 20
-51.5472
 30
0.0
 10
-119.6016
 20
-51.9665
 30
0.0
 10
-119.6016
 20
-51.9665
 30
0.0
 10
-119.6016
 20
-51.9665
 30
0.0
 10
-119.6016
 20
-50.27
 30
0.0
 10
-119.6016
 20
-50.27
 30
0.0
 10
-119.6016
 20
-50.27
 30
0.0
 10
-111.2831
 20
-50.6893
 30
0.0
 10
-108.7191
 20
-46.4459
 30
0.0
 10
-108.6945
 20
-44.3958
 30
0.0
 10
-108.6945
 20
-44.3958
 30
0.0
 10
-108.6699
 20
-46.4459
 30
0.0
 10
-106.1059
 20
-50.6893
 30
0.0
 10
-97.7874
 20
-50.27
 30
0.0
 10
-97.7874
 20
-50.27
 30
0.0
 10
-97.7874
 20
-50.27
 30
0.0
 10
-97.7874
 20
-51.9665
 30
0.0
 10
-97.7874
 20
-51.9665
 30
0.0
  0
SPLINE
  5
A6
330
1F
100
AcDbEntity
  8
layer 1
 62
     7
100
AcDbSpline
210
0.0
220
0.0
230
1.0
 70
    11
 71
     3
 72
    20
 73
    16
 74
     0
 42
0.0000000001
 43
0.0000000001
 12
1.0
 22
0.0
 32
0.0
 13
1.0
 23
0.0
 33
0.0
 40
0.0
 40
0.0
 40
0.0
 40
0.0
 40
0.2
 40
0.2
 40
0.2
 40
0.2
 40
0.4
 40
0.4
 40
0.4
 40
0.4
 40
0.6
 40
0.6
 40
0.6
 40
0.6
 40
1.0
 40
1.0
 40
1.0
 40
1.0
 10
-96.3551
 20
-48.236
 30
0.0
 10
-96.3551
 20
-48.236
 30
0.0
 10
-90.586
 20
-48.236
 30
0.0
 10
-90.586
 20
-48.236
 30
0.0
 10
-90.586
 20
-48.236
 30
0.0
 10
-90.586
 20
-48.236
 30
0.0
 10
-90.586
 20
-54.0665
 30
0.0
 10
-90.586
 20
-54.0665
 30
0.0
 10
-90.586
 20
-54.0665
 30
0.0
 10
-90.586
 20
-54.0665
 30
0.0
 10
-96.3551
 20
-54.0665
 30
0.0
 10
-96.3551
 20
-54.0665
 30
0.0
 10
-96.3551
 20
-54.0665
 30
0.0
 10
-96.3551
 20
-54.0665
 30
0.0
 10
-96.3551
 20
-48.236
 30
0.0
 10
-96.3551
 20
-48.236
 30
0.0
  0
SPLINE
  5
A7
330
1F
100
AcDbEntity
  8
layer 1
 62
     7
100
AcDbSpline
210
0.0
220
0.0
230
1.0
 70
    11
 71
     3
 72
    28
 73
    24
 74
     0
 42
0.0000000001
 43
0.0000000001
 12
1.0
 22
0.0
 32
0.0
 13
1.0
 23
0.0
 33
0.0
 40
0.0
 40
0.0
 40
0.0
 40
0.0
 40
0.1428571428571428
 40
0.1428571428571428
 40
0.1428571428571428
 40
0.1428571428571428
 40
0.2857142857142857
 40
0.2857142857142857
 40
0.2857142857142857
 40
0.2857142857142857
 40
0.4285714285714285
 40
0.4285714285714285
 40
0.4285714285714285
 40
0.4285714285714285
 40
0.5714285714285714
 40
0.5714285714285714
 40
0.5714285714285714
 40
0.5714285714285714
 40
0.7142857142857143
 40
0.7142857142857143
 40
0.7142857142857143
 40
0.7142857142857143
 40
1.0
 40
1.0
 40
1.0
 40
1.0
 10
-94.279
 20
-46.8773
 30
0.0
 10
-93.8597
 20
-38.5587
 30
0.0
 10
-98.1031
 20
-35.9947
 30
0.0
 10
-100.1532
 20
-35.9701
 30
0.0
 10
-100.1532
 20
-35.9701
 30
0.0
 10
-98.1031
 20
-35.9455
 30
0.0
 10
-93.8597
 20
-33.3815
 30
0.0
 10
-94.279
 20
-25.063
 30
0.0
 10
-94.279
 20
-25.063
 30
0.0
 10
-94.279
 20
-25.063
 30
0.0
 10
-92.5825
 20
-25.063
 30
0.0
 10
-92.5825
 20
-25.063
 30
0.0
 10
-92.5825
 20
-25.063
 30
0.0
 10
-93.0018
 20
-33.3815
 30
0.0
 10
-88.7584
 20
-35.9455
 30
0.0
 10
-86.7084
 20
-35.9701
 30
0.0
 10
-86.7084
 20
-35.9701
 30
0.0
 10
-88.7584
 20
-35.9947
 30
0.0
 10
-93.0018
 20
-38.5587
 30
0.0
 10
-92.5825
 20
-46.8773
 30
0.0
 10
-92.5825
 20
-46.8773
 30
0.0
 10
-92.5825
 20
-46.8773
 30
0.0
 10
-94.279
 20
-46.8773
 30
0.0
 10
-94.279
 20
-46.8773
 30
0.0
  0
SPLINE
  5
A8
330
1F
100
AcDbEntity
  8
layer 1
 62
     7
100
AcDbSpline
210
0.0
220
0.0
230
1.0
 70
    11
 71
     3
 72
    68
 73
    64
 74
     0
 42
0.0000000001
 43
0.0000000001
 12
1.0
 22
0.0
 32
0.0
 13
1.0
 23
0.0
 33
0.0
 40
0.0
 40
0.0
 40
0.0
 40
0.0
 40
0.0588235294117647
 40
0.0588235294117647
 40
0.0588235294117647
 40
0.0588235294117647
 40
0.1176470588235294
 40
0.1176470588235294
 40
0.1176470588235294
 40
0.1176470588235294
 40
0.1764705882352941
 40
0.1764705882352941
 40
0.1764705882352941
 40
0.1764705882352941
 40
0.2352941176470588
 40
0.2352941176470588
 40
0.2352941176470588
 40
0.2352941176470588
 40
0.2941176470588235
 40
0.2941176470588235
 40
0.2941176470588235
 40
0.2941176470588235
 40
0.3529411764705883
 40
0.3529411764705883
 40
0.3529411764705883
 40
0.3529411764705883
 40
0.4117647058823529
 40
0.4117647058823529
 40
0.4117647058823529
 40
0.4117647058823529
 40
0.4705882352941176
 40
0.4705882352941176
 40
0.4705882352941176
 40
0.4705882352941176
 40
0.5294117647058824
 40
0.5294117647058824
 40
0.5294117647058824
 40
0.5294117647058824
 40
0.5882352941176471
 40
0.5882352941176471
 40
0.5882352941176471
 40
0.5882352941176471
 40
0.6470588235294118
 40
0.6470588235294118
 40
0.6470588235294118
 40
0.6470588235294118
 40
0.7058823529411765
 40
0.7058823529411765
 40
0.7058823529411765
 40
0.7058823529411765
 40
0.7647058823529411
 40
0.7647058823529411
 40
0.7647058823529411
 40
0.7647058823529411
 40
0.8235294117647058
 40
0.8235294117647058
 40
0.8235294117647058
 40
0.8235294117647058
 40
0.8823529411764706
 40
0.8823529411764706
 40
0.8823529411764706
 40
0.8823529411764706
 40
1.0
 40
1.0
 40
1.0
 40
1.0
 10
-78.5867
 20
-38.4898
 30
0.0
 10
-79.8726
 20
-43.5938
 30
0.0
 10
-78.903
 20
-47.5145
 30
0.0
 10
-89.3916
 20
-47.2836
 30
0.0
 10
-89.3916
 20
-47.2836
 30
0.0
 10
-89.2907
 20
-40.1252
 30
0.0
 10
-89.4384
 20
-37.8364
 30
0.0
 10
-81.4297
 20
-36.4832
 30
0.0
 10
-81.4297
 20
-36.4832
 30
0.0
 10
-81.224
 20
-36.4484
 30
0.0
 10
-80.6557
 20
-36.2393
 30
0.0
 10
-80.7583
 20
-36.0852
 30
0.0
 10
-80.7583
 20
-36.0852
 30
0.0
 10
-80.6557
 20
-35.931
 30
0.0
 10
-81.224
 20
-35.7219
 30
0.0
 10
-81.4297
 20
-35.6871
 30
0.0
 10
-81.4297
 20
-35.6871
 30
0.0
 10
-89.4384
 20
-34.3339
 30
0.0
 10
-89.2907
 20
-32.0451
 30
0.0
 10
-89.3916
 20
-24.8867
 30
0.0
 10
-89.3916
 20
-24.8867
 30
0.0
 10
-78.903
 20
-24.6558
 30
0.0
 10
-79.8726
 20
-28.5765
 30
0.0
 10
-78.5867
 20
-33.6805
 30
0.0
 10
-78.5867
 20
-33.6805
 30
0.0
 10
-78.5254
 20
-33.9724
 30
0.0
 10
-78.3507
 20
-33.9452
 30
0.0
 10
-78.3507
 20
-33.9452
 30
0.0
 10
-78.3507
 20
-33.9452
 30
0.0
 10
-78.3507
 20
-33.9452
 30
0.0
 10
-78.1759
 20
-33.9724
 30
0.0
 10
-78.1147
 20
-33.6805
 30
0.0
 10
-78.1147
 20
-33.6805
 30
0.0
 10
-76.8288
 20
-28.5765
 30
0.0
 10
-77.7984
 20
-24.6558
 30
0.0
 10
-67.3097
 20
-24.8867
 30
0.0
 10
-67.3097
 20
-24.8867
 30
0.0
 10
-67.4106
 20
-32.0452
 30
0.0
 10
-67.263
 20
-34.3339
 30
0.0
 10
-75.2716
 20
-35.6871
 30
0.0
 10
-75.2716
 20
-35.6871
 30
0.0
 10
-75.4773
 20
-35.7219
 30
0.0
 10
-76.0456
 20
-35.931
 30
0.0
 10
-75.943
 20
-36.0852
 30
0.0
 10
-75.943
 20
-36.0852
 30
0.0
 10
-76.0456
 20
-36.2393
 30
0.0
 10
-75.4773
 20
-36.4484
 30
0.0
 10
-75.2716
 20
-36.4832
 30
0.0
 10
-75.2716
 20
-36.4832
 30
0.0
 10
-67.263
 20
-37.8364
 30
0.0
 10
-67.4106
 20
-40.1252
 30
0.0
 10
-67.3097
 20
-47.2836
 30
0.0
 10
-67.3097
 20
-47.2836
 30
0.0
 10
-77.7984
 20
-47.5145
 30
0.0
 10
-76.8288
 20
-43.5938
 30
0.0
 10
-78.1147
 20
-38.4898
 30
0.0
 10
-78.1147
 20
-38.4898
 30
0.0
 10
-78.1759
 20
-38.198
 30
0.0
 10
-78.3507
 20
-38.2251
 30
0.0
 10
-78.3507
 20
-38.2251
 30
0.0
 10
-78.3507
 20
-38.2251
 30
0.0
 10
-78.3507
 20
-38.2251
 30
0.0
 10
-78.5254
 20
-38.198
 30
0.0
 10
-78.5867
 20
-38.4898
 30
0.0
  0
SPLINE
  5
A9
330
1F
100
AcDbEntity
  8
layer 1
 62
     7
100
AcDbSpline
210
0.0
220
0.0
230
1.0
 70
    11
 71
     3
 72
    28
 73
    24
 74
     0
 42
0.0000000001
 43
0.0000000001
 12
1.0
 22
0.0
 32
0.0
 13
1.0
 23
0.0
 33
0.0
 40
0.0
 40
0.0
 40
0.0
 40
0.0
 40
0.1428571428571428
 40
0.1428571428571428
 40
0.1428571428571428
 40
0.1428571428571428
 40
0.2857142857142857
 40
0.2857142857142857
 40
0.2857142857142857
 40
0.2857142857142857
 40
0.4285714285714285
 40
0.4285714285714285
 40
0.4285714285714285
 40
0.4285714285714285
 40
0.5714285714285714
 40
0.5714285714285714
 40
0.5714285714285714
 40
0.5714285714285714
 40
0.7142857142857143
 40
0.7142857142857143
 40
0.7142857142857143
 40
0.7142857142857143
 40
1.0
 40
1.0
 40
1.0
 40
1.0
 10
-67.5255
 20
-51.9665
 30
0.0
 10
-75.8441
 20
-51.5472
 30
0.0
 10
-78.4081
 20
-55.7906
 30
0.0
 10
-78.4327
 20
-57.8406
 30
0.0
 10
-78.4327
 20
-57.8406
 30
0.0
 10
-78.4573
 20
-55.7906
 30
0.0
 10
-81.0213
 20
-51.5472
 30
0.0
 10
-89.3398
 20
-51.9665
 30
0.0
 10
-89.3398
 20
-51.9665
 30
0.0
 10
-89.3398
 20
-51.9665
 30
0.0
 10
-89.3398
 20
-50.27
 30
0.0
 10
-89.3398
 20
-50.27
 30
0.0
 10
-89.3398
 20
-50.27
 30
0.0
 10
-81.0213
 20
-50.6893
 30
0.0
 10
-78.4573
 20
-46.4459
 30
0.0
 10
-78.4327
 20
-44.3958
 30
0.0
 10
-78.4327
 20
-44.3958
 30
0.0
 10
-78.4081
 20
-46.4459
 30
0.0
 10
-75.8441
 20
-50.6893
 30
0.0
 10
-67.5255
 20
-50.27
 30
0.0
 10
-67.5255
 20
-50.27
 30
0.0
 10
-67.5255
 20
-50.27
 30
0.0
 10
-67.5255
 20
-51.9665
 30
0.0
 10
-67.5255
 20
-51.9665
 30
0.0
  0
SPLINE
  5
AA
330
1F
100
AcDbEntity
  8
layer 1
 62
     7
100
AcDbSpline
210
0.0
220
0.0
230
1.0
 70
    11
 71
     3
 72
    20
 73
    16
 74
     0
 42
0.0000000001
 43
0.0000000001
 12
1.0
 22
0.0
 32
0.0
 13
1.0
 23
0.0
 33
0.0
 40
0.0
 40
0.0
 40
0.0
 40
0.0
 40
0.2
 40
0.2
 40
0.2
 40
0.2
 40
0.4
 40
0.4
 40
0.4
 40
0.4
 40
0.6
 40
0.6
 40
0.6
 40
0.6
 40
1.0
 40
1.0
 40
1.0
 40
1.0
 10
-66.0934
 20
-48.236
 30
0.0
 10
-66.0934
 20
-48.236
 30
0.0
 10
-60.3243
 20
-48.236
 30
0.0
 10
-60.3243
 20
-48.236
 30
0.0
 10
-60.3243
 20
-48.236
 30
0.0
 10
-60.3243
 20
-48.236
 30
0.0
 10
-60.3243
 20
-54.0665
 30
0.0
 10
-60.3243
 20
-54.0665
 30
0.0
 10
-60.3243
 20
-54.0665
 30
0.0
 10
-60.3243
 20
-54.0665
 30
0.0
 10
-66.0934
 20
-54.0665
 30
0.0
 10
-66.0934
 20
-54.0665
 30
0.0
 10
-66.0934
 20
-54.0665
 30
0.0
 10
-66.0934
 20
-54.0665
 30
0.0
 10
-66.0934
 20
-48.236
 30
0.0
 10
-66.0934
 20
-48.236
 30
0.0
  0
SPLINE
  5
AB
330
1F
100
AcDbEntity
  8
layer 1
 62
     7
100
AcDbSpline
210
0.0
220
0.0
230
1.0
 70
    11
 71
     3
 72
    28
 73
    24
 74
     0
 42
0.0000000001
 43
0.0000000001
 12
1.0
 22
0.0
 32
0.0
 13
1.0
 23
0.0
 33
0.0
 40
0.0
 40
0.0
 40
0.0
 40
0.0
 40
0.1428571428571428
 40
0.1428571428571428
 40
0.1428571428571428
 40
0.1428571428571428
 40
0.2857142857142857
 40
0.2857142857142857
 40
0.2857142857142857
 40
0.2857142857142857
 40
0.4285714285714285
 40
0.4285714285714285
 40
0.4285714285714285
 40
0.4285714285714285
 40
0.5714285714285714
 40
0.5714285714285714
 40
0.5714285714285714
 40
0.5714285714285714
 40
0.7142857142857143
 40
0.7142857142857143
 40
0.7142857142857143
 40
0.7142857142857143
 40
1.0
 40
1.0
 40
1.0
 40
1.0
 10
-64.0172
 20
-46.8773
 30
0.0
 10
-63.5979
 20
-38.5587
 30
0.0
 10
-67.8413
 20
-35.9947
 30
0.0
 10
-69.8913
 20
-35.9701
 30
0.0
 10
-69.8913
 20
-35.9701
 30
0.0
 10
-67.8413
 20
-35.9455
 30
0.0
 10
-63.5979
 20
-33.3815
 30
0.0
 10
-64.0172
 20
-25.063
 30
0.0
 10
-64.0172
 20
-25.063
 30
0.0
 10
-64.0172
 20
-25.063
 30
0.0
 10
-62.3207
 20
-25.063
 30
0.0
 10
-62.3207
 20
-25.063
 30
0.0
 10
-62.3207
 20
-25.063
 30
0.0
 10
-62.74
 20
-33.3815
 30
0.0
 10
-58.4966
 20
-35.9455
 30
0.0
 10
-56.4465
 20
-35.9701
 30
0.0
 10
-56.4465
 20
-35.9701
 30
0.0
 10
-58.4966
 20
-35.9947
 30
0.0
 10
-62.74
 20
-38.5587
 30
0.0
 10
-62.3207
 20
-46.8773
 30
0.0
 10
-62.3207
 20
-46.8773
 30
0.0
 10
-62.3207
 20
-46.8773
 30
0.0
 10
-64.0172
 20
-46.8773
 30
0.0
 10
-64.0172
 20
-46.8773
 30
0.0
  0
SPLINE
  5
AC
330
1F
100
AcDbEntity
  8
layer 1
 62
     7
100
AcDbSpline
210
0.0
220
0.0
230
1.0
 70
    11
 71
     3
 72
    68
 73
    64
 74
     0
 42
0.0000000001
 43
0.0000000001
 12
1.0
 22
0.0
 32
0.0
 13
1.0
 23
0.0
 33
0.0
 40
0.0
 40
0.0
 40
0.0
 40
0.0
 40
0.0588235294117647
 40
0.0588235294117647
 40
0.0588235294117647
 40
0.0588235294117647
 40
0.1176470588235294
 40
0.1176470588235294
 40
0.1176470588235294
 40
0.1176470588235294
 40
0.1764705882352941
 40
0.1764705882352941
 40
0.1764705882352941
 40
0.1764705882352941
 40
0.2352941176470588
 40
0.2352941176470588
 40
0.2352941176470588
 40
0.2352941176470588
 40
0.2941176470588235
 40
0.2941176470588235
 40
0.2941176470588235
 40
0.2941176470588235
 40
0.3529411764705883
 40
0.3529411764705883
 40
0.3529411764705883
 40
0.3529411764705883
 40
0.4117647058823529
 40
0.4117647058823529
 40
0.4117647058823529
 40
0.4117647058823529
 40
0.4705882352941176
 40
0.4705882352941176
 40
0.4705882352941176
 40
0.4705882352941176
 40
0.5294117647058824
 40
0.5294117647058824
 40
0.5294117647058824
 40
0.5294117647058824
 40
0.5882352941176471
 40
0.5882352941176471
 40
0.5882352941176471
 40
0.5882352941176471
 40
0.6470588235294118
 40
0.6470588235294118
 40
0.6470588235294118
 40
0.6470588235294118
 40
0.7058823529411765
 40
0.7058823529411765
 40
0.7058823529411765
 40
0.7058823529411765
 40
0.7647058823529411
 40
0.7647058823529411
 40
0.7647058823529411
 40
0.7647058823529411
 40
0.8235294117647058
 40
0.8235294117647058
 40
0.8235294117647058
 40
0.8235294117647058
 40
0.8823529411764706
 40
0.8823529411764706
 40
0.8823529411764706
 40
0.8823529411764706
 40
1.0
 40
1.0
 40
1.0
 40
1.0
 10
-48.3249
 20
-38.4898
 30
0.0
 10
-49.6108
 20
-43.5938
 30
0.0
 10
-48.6412
 20
-47.5145
 30
0.0
 10
-59.1298
 20
-47.2836
 30
0.0
 10
-59.1298
 20
-47.2836
 30
0.0
 10
-59.0289
 20
-40.1252
 30
0.0
 10
-59.1766
 20
-37.8364
 30
0.0
 10
-51.168
 20
-36.4832
 30
0.0
 10
-51.168
 20
-36.4832
 30
0.0
 10
-50.9622
 20
-36.4484
 30
0.0
 10
-50.394
 20
-36.2393
 30
0.0
 10
-50.4965
 20
-36.0852
 30
0.0
 10
-50.4965
 20
-36.0852
 30
0.0
 10
-50.394
 20
-35.931
 30
0.0
 10
-50.9622
 20
-35.7219
 30
0.0
 10
-51.168
 20
-35.6871
 30
0.0
 10
-51.168
 20
-35.6871
 30
0.0
 10
-59.1766
 20
-34.3339
 30
0.0
 10
-59.0289
 20
-32.0451
 30
0.0
 10
-59.1298
 20
-24.8867
 30
0.0
 10
-59.1298
 20
-24.8867
 30
0.0
 10
-48.6412
 20
-24.6558
 30
0.0
 10
-49.6108
 20
-28.5765
 30
0.0
 10
-48.3249
 20
-33.6805
 30
0.0
 10
-48.3249
 20
-33.6805
 30
0.0
 10
-48.2637
 20
-33.9724
 30
0.0
 10
-48.0889
 20
-33.9452
 30
0.0
 10
-48.0889
 20
-33.9452
 30
0.0
 10
-48.0889
 20
-33.9452
 30
0.0
 10
-48.0889
 20
-33.9452
 30
0.0
 10
-47.9141
 20
-33.9724
 30
0.0
 10
-47.8529
 20
-33.6805
 30
0.0
 10
-47.8529
 20
-33.6805
 30
0.0
 10
-46.567
 20
-28.5765
 30
0.0
 10
-47.5366
 20
-24.6558
 30
0.0
 10
-37.048
 20
-24.8867
 30
0.0
 10
-37.048
 20
-24.8867
 30
0.0
 10
-37.1489
 20
-32.0452
 30
0.0
 10
-37.0012
 20
-34.3339
 30
0.0
 10
-45.0098
 20
-35.6871
 30
0.0
 10
-45.0098
 20
-35.6871
 30
0.0
 10
-45.2156
 20
-35.7219
 30
0.0
 10
-45.7838
 20
-35.931
 30
0.0
 10
-45.6813
 20
-36.0852
 30
0.0
 10
-45.6813
 20
-36.0852
 30
0.0
 10
-45.7838
 20
-36.2393
 30
0.0
 10
-45.2156
 20
-36.4484
 30
0.0
 10
-45.0098
 20
-36.4832
 30
0.0
 10
-45.0098
 20
-36.4832
 30
0.0
 10
-37.0012
 20
-37.8364
 30
0.0
 10
-37.1489
 20
-40.1252
 30
0.0
 10
-37.048
 20
-47.2836
 30
0.0
 10
-37.048
 20
-47.2836
 30
0.0
 10
-47.5366
 20
-47.5145
 30
0.0
 10
-46.567
 20
-43.5938
 30
0.0
 10
-47.8529
 20
-38.4898
 30
0.0
 10
-47.8529
 20
-38.4898
 30
0.0
 10
-47.9141
 20
-38.198
 30
0.0
 10
-48.0889
 20
-38.2251
 30
0.0
 10
-48.0889
 20
-38.2251
 30
0.0
 10
-48.0889
 20
-38.2251
 30
0.0
 10
-48.0889
 20
-38.2251
 30
0.0
 10
-48.2637
 20
-38.198
 30
0.0
 10
-48.3249
 20
-38.4898
 30
0.0
  0
SPLINE
  5
AD
330
1F
100
AcDbEntity
  8
layer 1
 62
     7
100
AcDbSpline
210
0.0
220
0.0
230
1.0
 70
    11
 71
     3
 72
    28
 73
    24
 74
     0
 42
0.0000000001
 43
0.0000000001
 12
1.0
 22
0.0
 32
0.0
 13
1.0
 23
0.0
 33
0.0
 40
0.0
 40
0.0
 40
0.0
 40
0.0
 40
0.1428571428571428
 40
0.1428571428571428
 40
0.1428571428571428
 40
0.1428571428571428
 40
0.2857142857142857
 40
0.2857142857142857
 40
0.2857142857142857
 40
0.2857142857142857
 40
0.4285714285714285
 40
0.4285714285714285
 40
0.4285714285714285
 40
0.4285714285714285
 40
0.5714285714285714
 40
0.5714285714285714
 40
0.5714285714285714
 40
0.5714285714285714
 40
0.7142857142857143
 40
0.7142857142857143
 40
0.7142857142857143
 40
0.7142857142857143
 40
1.0
 40
1.0
 40
1.0
 40
1.0
 10
-37.2637
 20
-51.9665
 30
0.0
 10
-45.5822
 20
-51.5472
 30
0.0
 10
-48.1462
 20
-55.7906
 30
0.0
 10
-48.1708
 20
-57.8406
 30
0.0
 10
-48.1708
 20
-57.8406
 30
0.0
 10
-48.1955
 20
-55.7906
 30
0.0
 10
-50.7594
 20
-51.5472
 30
0.0
 10
-59.078
 20
-51.9665
 30
0.0
 10
-59.078
 20
-51.9665
 30
0.0
 10
-59.078
 20
-51.9665
 30
0.0
 10
-59.078
 20
-50.27
 30
0.0
 10
-59.078
 20
-50.27
 30
0.0
 10
-59.078
 20
-50.27
 30
0.0
 10
-50.7594
 20
-50.6893
 30
0.0
 10
-48.1955
 20
-46.4459
 30
0.0
 10
-48.1708
 20
-44.3958
 30
0.0
 10
-48.1708
 20
-44.3958
 30
0.0
 10
-48.1462
 20
-46.4459
 30
0.0
 10
-45.5822
 20
-50.6893
 30
0.0
 10
-37.2637
 20
-50.27
 30
0.0
 10
-37.2637
 20
-50.27
 30
0.0
 10
-37.2637
 20
-50.27
 30
0.0
 10
-37.2637
 20
-51.9665
 30
0.0
 10
-37.2637
 20
-51.9665
 30
0.0
  0
SPLINE
  5
AE
330
1F
100
AcDbEntity
  8
layer 1
 62
     7
100
AcDbSpline
210
0.0
220
0.0
230
1.0
 70
    11
 71
     3
 72
    68
 73
    64
 74
     0
 42
0.0000000001
 43
0.0000000001
 12
1.0
 22
0.0
 32
0.0
 13
1.0
 23
0.0
 33
0.0
 40
0.0
 40
0.0
 40
0.0
 40
0.0
 40
0.0588235294117647
 40
0.0588235294117647
 40
0.0588235294117647
 40
0.0588235294117647
 40
0.1176470588235294
 40
0.1176470588235294
 40
0.1176470588235294
 40
0.1176470588235294
 40
0.1764705882352941
 40
0.1764705882352941
 40
0.1764705882352941
 40
0.1764705882352941
 40
0.2352941176470588
 40
0.2352941176470588
 40
0.2352941176470588
 40
0.2352941176470588
 40
0.2941176470588235
 40
0.2941176470588235
 40
0.2941176470588235
 40
0.2941176470588235
 40
0.3529411764705883
 40
0.3529411764705883
 40
0.3529411764705883
 40
0.3529411764705883
 40
0.4117647058823529
 40
0.4117647058823529
 40
0.4117647058823529
 40
0.4117647058823529
 40
0.4705882352941176
 40
0.4705882352941176
 40
0.4705882352941176
 40
0.4705882352941176
 40
0.5294117647058824
 40
0.5294117647058824
 40
0.5294117647058824
 40
0.5294117647058824
 40
0.5882352941176471
 40
0.5882352941176471
 40
0.5882352941176471
 40
0.5882352941176471
 40
0.6470588235294118
 40
0.6470588235294118
 40
0.6470588235294118
 40
0.6470588235294118
 40
0.7058823529411765
 40
0.7058823529411765
 40
0.7058823529411765
 40
0.7058823529411765
 40
0.7647058823529411
 40
0.7647058823529411
 40
0.7647058823529411
 40
0.7647058823529411
 40
0.8235294117647058
 40
0.8235294117647058
 40
0.8235294117647058
 40
0.8235294117647058
 40
0.8823529411764706
 40
0.8823529411764706
 40
0.8823529411764706
 40
0.8823529411764706
 40
1.0
 40
1.0
 40
1.0
 40
1.0
 10
-169.4385
 20
-68.7103
 30
0.0
 10
-170.7244
 20
-73.8143
 30
0.0
 10
-169.7548
 20
-77.735
 30
0.0
 10
-180.2435
 20
-77.504
 30
0.0
 10
-180.2435
 20
-77.504
 30
0.0
 10
-180.1425
 20
-70.3456
 30
0.0
 10
-180.2902
 20
-68.0569
 30
0.0
 10
-172.2816
 20
-66.7037
 30
0.0
 10
-172.2816
 20
-66.7037
 30
0.0
 10
-172.0759
 20
-66.6689
 30
0.0
 10
-171.5076
 20
-66.4597
 30
0.0
 10
-171.6102
 20
-66.3056
 30
0.0
 10
-171.6102
 20
-66.3056
 30
0.0
 10
-171.5076
 20
-66.1515
 30
0.0
 10
-172.0759
 20
-65.9424
 30
0.0
 10
-172.2816
 20
-65.9076
 30
0.0
 10
-172.2816
 20
-65.9076
 30
0.0
 10
-180.2902
 20
-64.5543
 30
0.0
 10
-180.1425
 20
-62.2656
 30
0.0
 10
-180.2435
 20
-55.1072
 30
0.0
 10
-180.2435
 20
-55.1072
 30
0.0
 10
-169.7548
 20
-54.8763
 30
0.0
 10
-170.7244
 20
-58.797
 30
0.0
 10
-169.4385
 20
-63.901
 30
0.0
 10
-169.4385
 20
-63.901
 30
0.0
 10
-169.3773
 20
-64.1929
 30
0.0
 10
-169.2025
 20
-64.1657
 30
0.0
 10
-169.2025
 20
-64.1657
 30
0.0
 10
-169.2025
 20
-64.1657
 30
0.0
 10
-169.2025
 20
-64.1657
 30
0.0
 10
-169.0277
 20
-64.1929
 30
0.0
 10
-168.9665
 20
-63.901
 30
0.0
 10
-168.9665
 20
-63.901
 30
0.0
 10
-167.6806
 20
-58.797
 30
0.0
 10
-168.6502
 20
-54.8763
 30
0.0
 10
-158.1616
 20
-55.1072
 30
0.0
 10
-158.1616
 20
-55.1072
 30
0.0
 10
-158.2625
 20
-62.2656
 30
0.0
 10
-158.1148
 20
-64.5543
 30
0.0
 10
-166.1235
 20
-65.9076
 30
0.0
 10
-166.1235
 20
-65.9076
 30
0.0
 10
-166.3292
 20
-65.9424
 30
0.0
 10
-166.8975
 20
-66.1515
 30
0.0
 10
-166.7949
 20
-66.3056
 30
0.0
 10
-166.7949
 20
-66.3056
 30
0.0
 10
-166.8975
 20
-66.4597
 30
0.0
 10
-166.3292
 20
-66.6689
 30
0.0
 10
-166.1235
 20
-66.7037
 30
0.0
 10
-166.1235
 20
-66.7037
 30
0.0
 10
-158.1148
 20
-68.0569
 30
0.0
 10
-158.2625
 20
-70.3456
 30
0.0
 10
-158.1616
 20
-77.504
 30
0.0
 10
-158.1616
 20
-77.504
 30
0.0
 10
-168.6502
 20
-77.735
 30
0.0
 10
-167.6806
 20
-73.8142
 30
0.0
 10
-168.9665
 20
-68.7103
 30
0.0
 10
-168.9665
 20
-68.7103
 30
0.0
 10
-169.0277
 20
-68.4184
 30
0.0
 10
-169.2025
 20
-68.4456
 30
0.0
 10
-169.2025
 20
-68.4456
 30
0.0
 10
-169.2025
 20
-68.4456
 30
0.0
 10
-169.2025
 20
-68.4456
 30
0.0
 10
-169.3773
 20
-68.4184
 30
0.0
 10
-169.4385
 20
-68.7103
 30
0.0
  0
SPLINE
  5
AF
330
1F
100
AcDbEntity
  8
layer 1
 62
     7
100
AcDbSpline
210
0.0
220
0.0
230
1.0
 70
    11
 71
     3
 72
    28
 73
    24
 74
     0
 42
0.0000000001
 43
0.0000000001
 12
1.0
 22
0.0
 32
0.0
 13
1.0
 23
0.0
 33
0.0
 40
0.0
 40
0.0
 40
0.0
 40
0.0
 40
0.1428571428571428
 40
0.1428571428571428
 40
0.1428571428571428
 40
0.1428571428571428
 40
0.2857142857142857
 40
0.2857142857142857
 40
0.2857142857142857
 40
0.2857142857142857
 40
0.4285714285714285
 40
0.4285714285714285
 40
0.4285714285714285
 40
0.4285714285714285
 40
0.5714285714285714
 40
0.5714285714285714
 40
0.5714285714285714
 40
0.5714285714285714
 40
0.7142857142857143
 40
0.7142857142857143
 40
0.7142857142857143
 40
0.7142857142857143
 40
1.0
 40
1.0
 40
1.0
 40
1.0
 10
-158.3774
 20
-82.1869
 30
0.0
 10
-166.6959
 20
-81.7676
 30
0.0
 10
-169.2599
 20
-86.0111
 30
0.0
 10
-169.2845
 20
-88.0611
 30
0.0
 10
-169.2845
 20
-88.0611
 30
0.0
 10
-169.3091
 20
-86.0111
 30
0.0
 10
-171.8731
 20
-81.7676
 30
0.0
 10
-180.1917
 20
-82.1869
 30
0.0
 10
-180.1917
 20
-82.1869
 30
0.0
 10
-180.1917
 20
-82.1869
 30
0.0
 10
-180.1917
 20
-80.4905
 30
0.0
 10
-180.1917
 20
-80.4905
 30
0.0
 10
-180.1917
 20
-80.4905
 30
0.0
 10
-171.8731
 20
-80.9098
 30
0.0
 10
-169.3091
 20
-76.6663
 30
0.0
 10
-169.2845
 20
-74.6163
 30
0.0
 10
-169.2845
 20
-74.6163
 30
0.0
 10
-169.2599
 20
-76.6663
 30
0.0
 10
-166.6959
 20
-80.9098
 30
0.0
 10
-158.3774
 20
-80.4905
 30
0.0
 10
-158.3774
 20
-80.4905
 30
0.0
 10
-158.3774
 20
-80.4905
 30
0.0
 10
-158.3774
 20
-82.1869
 30
0.0
 10
-158.3774
 20
-82.1869
 30
0.0
  0
SPLINE
  5
B0
330
1F
100
AcDbEntity
  8
layer 1
 62
     7
100
AcDbSpline
210
0.0
220
0.0
230
1.0
 70
    11
 71
     3
 72
    28
 73
    24
 74
     0
 42
0.0000000001
 43
0.0000000001
 12
1.0
 22
0.0
 32
0.0
 13
1.0
 23
0.0
 33
0.0
 40
0.0
 40
0.0
 40
0.0
 40
0.0
 40
0.1428571428571428
 40
0.1428571428571428
 40
0.1428571428571428
 40
0.1428571428571428
 40
0.2857142857142857
 40
0.2857142857142857
 40
0.2857142857142857
 40
0.2857142857142857
 40
0.4285714285714285
 40
0.4285714285714285
 40
0.4285714285714285
 40
0.4285714285714285
 40
0.5714285714285714
 40
0.5714285714285714
 40
0.5714285714285714
 40
0.5714285714285714
 40
0.7142857142857143
 40
0.7142857142857143
 40
0.7142857142857143
 40
0.7142857142857143
 40
1.0
 40
1.0
 40
1.0
 40
1.0
 10
-154.869
 20
-77.0977
 30
0.0
 10
-154.4497
 20
-68.7792
 30
0.0
 10
-158.6931
 20
-66.2152
 30
0.0
 10
-160.7432
 20
-66.1906
 30
0.0
 10
-160.7432
 20
-66.1906
 30
0.0
 10
-158.6931
 20
-66.166
 30
0.0
 10
-154.4497
 20
-63.6019
 30
0.0
 10
-154.869
 20
-55.2835
 30
0.0
 10
-154.869
 20
-55.2835
 30
0.0
 10
-154.869
 20
-55.2835
 30
0.0
 10
-153.1725
 20
-55.2835
 30
0.0
 10
-153.1725
 20
-55.2835
 30
0.0
 10
-153.1725
 20
-55.2835
 30
0.0
 10
-153.5918
 20
-63.602
 30
0.0
 10
-149.3484
 20
-66.166
 30
0.0
 10
-147.2984
 20
-66.1906
 30
0.0
 10
-147.2984
 20
-66.1906
 30
0.0
 10
-149.3484
 20
-66.2152
 30
0.0
 10
-153.5918
 20
-68.7793
 30
0.0
 10
-153.1725
 20
-77.0977
 30
0.0
 10
-153.1725
 20
-77.0977
 30
0.0
 10
-153.1725
 20
-77.0977
 30
0.0
 10
-154.869
 20
-77.0977
 30
0.0
 10
-154.869
 20
-77.0977
 30
0.0
  0
SPLINE
  5
B1
330
1F
100
AcDbEntity
  8
layer 1
 62
     7
100
AcDbSpline
210
0.0
220
0.0
230
1.0
 70
    11
 71
     3
 72
    20
 73
    16
 74
     0
 42
0.0000000001
 43
0.0000000001
 12
1.0
 22
0.0
 32
0.0
 13
1.0
 23
0.0
 33
0.0
 40
0.0
 40
0.0
 40
0.0
 40
0.0
 40
0.2
 40
0.2
 40
0.2
 40
0.2
 40
0.4
 40
0.4
 40
0.4
 40
0.4
 40
0.6
 40
0.6
 40
0.6
 40
0.6
 40
1.0
 40
1.0
 40
1.0
 40
1.0
 10
-156.9451
 20
-78.4564
 30
0.0
 10
-156.9451
 20
-78.4564
 30
0.0
 10
-151.176
 20
-78.4564
 30
0.0
 10
-151.176
 20
-78.4564
 30
0.0
 10
-151.176
 20
-78.4564
 30
0.0
 10
-151.176
 20
-78.4564
 30
0.0
 10
-151.176
 20
-84.2869
 30
0.0
 10
-151.176
 20
-84.2869
 30
0.0
 10
-151.176
 20
-84.2869
 30
0.0
 10
-151.176
 20
-84.2869
 30
0.0
 10
-156.9451
 20
-84.2869
 30
0.0
 10
-156.9451
 20
-84.2869
 30
0.0
 10
-156.9451
 20
-84.2869
 30
0.0
 10
-156.9451
 20
-84.2869
 30
0.0
 10
-156.9451
 20
-78.4564
 30
0.0
 10
-156.9451
 20
-78.4564
 30
0.0
  0
SPLINE
  5
B2
330
1F
100
AcDbEntity
  8
layer 1
 62
     7
100
AcDbSpline
210
0.0
220
0.0
230
1.0
 70
    11
 71
     3
 72
    68
 73
    64
 74
     0
 42
0.0000000001
 43
0.0000000001
 12
1.0
 22
0.0
 32
0.0
 13
1.0
 23
0.0
 33
0.0
 40
0.0
 40
0.0
 40
0.0
 40
0.0
 40
0.0588235294117647
 40
0.0588235294117647
 40
0.0588235294117647
 40
0.0588235294117647
 40
0.1176470588235294
 40
0.1176470588235294
 40
0.1176470588235294
 40
0.1176470588235294
 40
0.1764705882352941
 40
0.1764705882352941
 40
0.1764705882352941
 40
0.1764705882352941
 40
0.2352941176470588
 40
0.2352941176470588
 40
0.2352941176470588
 40
0.2352941176470588
 40
0.2941176470588235
 40
0.2941176470588235
 40
0.2941176470588235
 40
0.2941176470588235
 40
0.3529411764705883
 40
0.3529411764705883
 40
0.3529411764705883
 40
0.3529411764705883
 40
0.4117647058823529
 40
0.4117647058823529
 40
0.4117647058823529
 40
0.4117647058823529
 40
0.4705882352941176
 40
0.4705882352941176
 40
0.4705882352941176
 40
0.4705882352941176
 40
0.5294117647058824
 40
0.5294117647058824
 40
0.5294117647058824
 40
0.5294117647058824
 40
0.5882352941176471
 40
0.5882352941176471
 40
0.5882352941176471
 40
0.5882352941176471
 40
0.6470588235294118
 40
0.6470588235294118
 40
0.6470588235294118
 40
0.6470588235294118
 40
0.7058823529411765
 40
0.7058823529411765
 40
0.7058823529411765
 40
0.7058823529411765
 40
0.7647058823529411
 40
0.7647058823529411
 40
0.7647058823529411
 40
0.7647058823529411
 40
0.8235294117647058
 40
0.8235294117647058
 40
0.8235294117647058
 40
0.8235294117647058
 40
0.8823529411764706
 40
0.8823529411764706
 40
0.8823529411764706
 40
0.8823529411764706
 40
1.0
 40
1.0
 40
1.0
 40
1.0
 10
-139.1103
 20
-68.7103
 30
0.0
 10
-140.3963
 20
-73.8143
 30
0.0
 10
-139.4266
 20
-77.735
 30
0.0
 10
-149.9153
 20
-77.504
 30
0.0
 10
-149.9153
 20
-77.504
 30
0.0
 10
-149.8144
 20
-70.3456
 30
0.0
 10
-149.962
 20
-68.0569
 30
0.0
 10
-141.9534
 20
-66.7037
 30
0.0
 10
-141.9534
 20
-66.7037
 30
0.0
 10
-141.7477
 20
-66.6689
 30
0.0
 10
-141.1794
 20
-66.4597
 30
0.0
 10
-141.282
 20
-66.3056
 30
0.0
 10
-141.282
 20
-66.3056
 30
0.0
 10
-141.1794
 20
-66.1515
 30
0.0
 10
-141.7477
 20
-65.9424
 30
0.0
 10
-141.9534
 20
-65.9076
 30
0.0
 10
-141.9534
 20
-65.9076
 30
0.0
 10
-149.962
 20
-64.5543
 30
0.0
 10
-149.8144
 20
-62.2656
 30
0.0
 10
-149.9153
 20
-55.1072
 30
0.0
 10
-149.9153
 20
-55.1072
 30
0.0
 10
-139.4266
 20
-54.8763
 30
0.0
 10
-140.3963
 20
-58.797
 30
0.0
 10
-139.1103
 20
-63.901
 30
0.0
 10
-139.1103
 20
-63.901
 30
0.0
 10
-139.0491
 20
-64.1929
 30
0.0
 10
-138.8743
 20
-64.1657
 30
0.0
 10
-138.8743
 20
-64.1657
 30
0.0
 10
-138.8743
 20
-64.1657
 30
0.0
 10
-138.8743
 20
-64.1657
 30
0.0
 10
-138.6996
 20
-64.1929
 30
0.0
 10
-138.6384
 20
-63.901
 30
0.0
 10
-138.6384
 20
-63.901
 30
0.0
 10
-137.3524
 20
-58.797
 30
0.0
 10
-138.3221
 20
-54.8763
 30
0.0
 10
-127.8334
 20
-55.1072
 30
0.0
 10
-127.8334
 20
-55.1072
 30
0.0
 10
-127.9343
 20
-62.2656
 30
0.0
 10
-127.7867
 20
-64.5543
 30
0.0
 10
-135.7953
 20
-65.9076
 30
0.0
 10
-135.7953
 20
-65.9076
 30
0.0
 10
-136.001
 20
-65.9424
 30
0.0
 10
-136.5693
 20
-66.1515
 30
0.0
 10
-136.4667
 20
-66.3056
 30
0.0
 10
-136.4667
 20
-66.3056
 30
0.0
 10
-136.5693
 20
-66.4597
 30
0.0
 10
-136.001
 20
-66.6689
 30
0.0
 10
-135.7953
 20
-66.7037
 30
0.0
 10
-135.7953
 20
-66.7037
 30
0.0
 10
-127.7867
 20
-68.0569
 30
0.0
 10
-127.9343
 20
-70.3456
 30
0.0
 10
-127.8334
 20
-77.504
 30
0.0
 10
-127.8334
 20
-77.504
 30
0.0
 10
-138.3221
 20
-77.735
 30
0.0
 10
-137.3524
 20
-73.8142
 30
0.0
 10
-138.6384
 20
-68.7103
 30
0.0
 10
-138.6384
 20
-68.7103
 30
0.0
 10
-138.6996
 20
-68.4184
 30
0.0
 10
-138.8743
 20
-68.4456
 30
0.0
 10
-138.8743
 20
-68.4456
 30
0.0
 10
-138.8743
 20
-68.4456
 30
0.0
 10
-138.8743
 20
-68.4456
 30
0.0
 10
-139.0491
 20
-68.4184
 30
0.0
 10
-139.1103
 20
-68.7103
 30
0.0
  0
SPLINE
  5
B3
330
1F
100
AcDbEntity
  8
layer 1
 62
     7
100
AcDbSpline
210
0.0
220
0.0
230
1.0
 70
    11
 71
     3
 72
    28
 73
    24
 74
     0
 42
0.0000000001
 43
0.0000000001
 12
1.0
 22
0.0
 32
0.0
 13
1.0
 23
0.0
 33
0.0
 40
0.0
 40
0.0
 40
0.0
 40
0.0
 40
0.1428571428571428
 40
0.1428571428571428
 40
0.1428571428571428
 40
0.1428571428571428
 40
0.2857142857142857
 40
0.2857142857142857
 40
0.2857142857142857
 40
0.2857142857142857
 40
0.4285714285714285
 40
0.4285714285714285
 40
0.4285714285714285
 40
0.4285714285714285
 40
0.5714285714285714
 40
0.5714285714285714
 40
0.5714285714285714
 40
0.5714285714285714
 40
0.7142857142857143
 40
0.7142857142857143
 40
0.7142857142857143
 40
0.7142857142857143
 40
1.0
 40
1.0
 40
1.0
 40
1.0
 10
-128.0491
 20
-82.1869
 30
0.0
 10
-136.3677
 20
-81.7676
 30
0.0
 10
-138.9317
 20
-86.0111
 30
0.0
 10
-138.9563
 20
-88.0611
 30
0.0
 10
-138.9563
 20
-88.0611
 30
0.0
 10
-138.9809
 20
-86.0111
 30
0.0
 10
-141.5449
 20
-81.7676
 30
0.0
 10
-149.8634
 20
-82.1869
 30
0.0
 10
-149.8634
 20
-82.1869
 30
0.0
 10
-149.8634
 20
-82.1869
 30
0.0
 10
-149.8634
 20
-80.4905
 30
0.0
 10
-149.8634
 20
-80.4905
 30
0.0
 10
-149.8634
 20
-80.4905
 30
0.0
 10
-141.5449
 20
-80.9098
 30
0.0
 10
-138.9809
 20
-76.6663
 30
0.0
 10
-138.9563
 20
-74.6163
 30
0.0
 10
-138.9563
 20
-74.6163
 30
0.0
 10
-138.9317
 20
-76.6663
 30
0.0
 10
-136.3677
 20
-80.9098
 30
0.0
 10
-128.0491
 20
-80.4905
 30
0.0
 10
-128.0491
 20
-80.4905
 30
0.0
 10
-128.0491
 20
-80.4905
 30
0.0
 10
-128.0491
 20
-82.1869
 30
0.0
 10
-128.0491
 20
-82.1869
 30
0.0
  0
SPLINE
  5
B4
330
1F
100
AcDbEntity
  8
layer 1
 62
     7
100
AcDbSpline
210
0.0
220
0.0
230
1.0
 70
    11
 71
     3
 72
    20
 73
    16
 74
     0
 42
0.0000000001
 43
0.0000000001
 12
1.0
 22
0.0
 32
0.0
 13
1.0
 23
0.0
 33
0.0
 40
0.0
 40
0.0
 40
0.0
 40
0.0
 40
0.2
 40
0.2
 40
0.2
 40
0.2
 40
0.4
 40
0.4
 40
0.4
 40
0.4
 40
0.6
 40
0.6
 40
0.6
 40
0.6
 40
1.0
 40
1.0
 40
1.0
 40
1.0
 10
-126.617
 20
-78.4564
 30
0.0
 10
-126.617
 20
-78.4564
 30
0.0
 10
-120.8479
 20
-78.4564
 30
0.0
 10
-120.8479
 20
-78.4564
 30
0.0
 10
-120.8479
 20
-78.4564
 30
0.0
 10
-120.8479
 20
-78.4564
 30
0.0
 10
-120.8479
 20
-84.2869
 30
0.0
 10
-120.8479
 20
-84.2869
 30
0.0
 10
-120.8479
 20
-84.2869
 30
0.0
 10
-120.8479
 20
-84.2869
 30
0.0
 10
-126.617
 20
-84.2869
 30
0.0
 10
-126.617
 20
-84.2869
 30
0.0
 10
-126.617
 20
-84.2869
 30
0.0
 10
-126.617
 20
-84.2869
 30
0.0
 10
-126.617
 20
-78.4564
 30
0.0
 10
-126.617
 20
-78.4564
 30
0.0
  0
SPLINE
  5
B5
330
1F
100
AcDbEntity
  8
layer 1
 62
     7
100
AcDbSpline
210
0.0
220
0.0
230
1.0
 70
    11
 71
     3
 72
    28
 73
    24
 74
     0
 42
0.0000000001
 43
0.0000000001
 12
1.0
 22
0.0
 32
0.0
 13
1.0
 23
0.0
 33
0.0
 40
0.0
 40
0.0
 40
0.0
 40
0.0
 40
0.1428571428571428
 40
0.1428571428571428
 40
0.1428571428571428
 40
0.1428571428571428
 40
0.2857142857142857
 40
0.2857142857142857
 40
0.2857142857142857
 40
0.2857142857142857
 40
0.4285714285714285
 40
0.4285714285714285
 40
0.4285714285714285
 40
0.4285714285714285
 40
0.5714285714285714
 40
0.5714285714285714
 40
0.5714285714285714
 40
0.5714285714285714
 40
0.7142857142857143
 40
0.7142857142857143
 40
0.7142857142857143
 40
0.7142857142857143
 40
1.0
 40
1.0
 40
1.0
 40
1.0
 10
-124.5408
 20
-77.0977
 30
0.0
 10
-124.1215
 20
-68.7792
 30
0.0
 10
-128.3649
 20
-66.2152
 30
0.0
 10
-130.4149
 20
-66.1906
 30
0.0
 10
-130.4149
 20
-66.1906
 30
0.0
 10
-128.3649
 20
-66.166
 30
0.0
 10
-124.1215
 20
-63.6019
 30
0.0
 10
-124.5408
 20
-55.2835
 30
0.0
 10
-124.5408
 20
-55.2835
 30
0.0
 10
-124.5408
 20
-55.2835
 30
0.0
 10
-122.8443
 20
-55.2835
 30
0.0
 10
-122.8443
 20
-55.2835
 30
0.0
 10
-122.8443
 20
-55.2835
 30
0.0
 10
-123.2636
 20
-63.602
 30
0.0
 10
-119.0202
 20
-66.166
 30
0.0
 10
-116.9701
 20
-66.1906
 30
0.0
 10
-116.9701
 20
-66.1906
 30
0.0
 10
-119.0202
 20
-66.2152
 30
0.0
 10
-123.2636
 20
-68.7793
 30
0.0
 10
-122.8443
 20
-77.0977
 30
0.0
 10
-122.8443
 20
-77.0977
 30
0.0
 10
-122.8443
 20
-77.0977
 30
0.0
 10
-124.5408
 20
-77.0977
 30
0.0
 10
-124.5408
 20
-77.0977
 30
0.0
  0
SPLINE
  5
B6
330
1F
100
AcDbEntity
  8
layer 1
 62
     7
100
AcDbSpline
210
0.0
220
0.0
230
1.0
 70
    11
 71
     3
 72
    68
 73
    64
 74
     0
 42
0.0000000001
 43
0.0000000001
 12
1.0
 22
0.0
 32
0.0
 13
1.0
 23
0.0
 33
0.0
 40
0.0
 40
0.0
 40
0.0
 40
0.0
 40
0.0588235294117647
 40
0.0588235294117647
 40
0.0588235294117647
 40
0.0588235294117647
 40
0.1176470588235294
 40
0.1176470588235294
 40
0.1176470588235294
 40
0.1176470588235294
 40
0.1764705882352941
 40
0.1764705882352941
 40
0.1764705882352941
 40
0.1764705882352941
 40
0.2352941176470588
 40
0.2352941176470588
 40
0.2352941176470588
 40
0.2352941176470588
 40
0.2941176470588235
 40
0.2941176470588235
 40
0.2941176470588235
 40
0.2941176470588235
 40
0.3529411764705883
 40
0.3529411764705883
 40
0.3529411764705883
 40
0.3529411764705883
 40
0.4117647058823529
 40
0.4117647058823529
 40
0.4117647058823529
 40
0.4117647058823529
 40
0.4705882352941176
 40
0.4705882352941176
 40
0.4705882352941176
 40
0.4705882352941176
 40
0.5294117647058824
 40
0.5294117647058824
 40
0.5294117647058824
 40
0.5294117647058824
 40
0.5882352941176471
 40
0.5882352941176471
 40
0.5882352941176471
 40
0.5882352941176471
 40
0.6470588235294118
 40
0.6470588235294118
 40
0.6470588235294118
 40
0.6470588235294118
 40
0.7058823529411765
 40
0.7058823529411765
 40
0.7058823529411765
 40
0.7058823529411765
 40
0.7647058823529411
 40
0.7647058823529411
 40
0.7647058823529411
 40
0.7647058823529411
 40
0.8235294117647058
 40
0.8235294117647058
 40
0.8235294117647058
 40
0.8235294117647058
 40
0.8823529411764706
 40
0.8823529411764706
 40
0.8823529411764706
 40
0.8823529411764706
 40
1.0
 40
1.0
 40
1.0
 40
1.0
 10
-108.8485
 20
-68.7103
 30
0.0
 10
-110.1344
 20
-73.8143
 30
0.0
 10
-109.1648
 20
-77.735
 30
0.0
 10
-119.6534
 20
-77.504
 30
0.0
 10
-119.6534
 20
-77.504
 30
0.0
 10
-119.5525
 20
-70.3456
 30
0.0
 10
-119.7002
 20
-68.0569
 30
0.0
 10
-111.6916
 20
-66.7037
 30
0.0
 10
-111.6916
 20
-66.7037
 30
0.0
 10
-111.4859
 20
-66.6689
 30
0.0
 10
-110.9176
 20
-66.4597
 30
0.0
 10
-111.0202
 20
-66.3056
 30
0.0
 10
-111.0202
 20
-66.3056
 30
0.0
 10
-110.9176
 20
-66.1515
 30
0.0
 10
-111.4859
 20
-65.9424
 30
0.0
 10
-111.6916
 20
-65.9076
 30
0.0
 10
-111.6916
 20
-65.9076
 30
0.0
 10
-119.7002
 20
-64.5543
 30
0.0
 10
-119.5525
 20
-62.2656
 30
0.0
 10
-119.6534
 20
-55.1072
 30
0.0
 10
-119.6534
 20
-55.1072
 30
0.0
 10
-109.1648
 20
-54.8763
 30
0.0
 10
-110.1344
 20
-58.797
 30
0.0
 10
-108.8485
 20
-63.901
 30
0.0
 10
-108.8485
 20
-63.901
 30
0.0
 10
-108.7873
 20
-64.1929
 30
0.0
 10
-108.6125
 20
-64.1657
 30
0.0
 10
-108.6125
 20
-64.1657
 30
0.0
 10
-108.6125
 20
-64.1657
 30
0.0
 10
-108.6125
 20
-64.1657
 30
0.0
 10
-108.4377
 20
-64.1929
 30
0.0
 10
-108.3765
 20
-63.901
 30
0.0
 10
-108.3765
 20
-63.901
 30
0.0
 10
-107.0906
 20
-58.797
 30
0.0
 10
-108.0602
 20
-54.8763
 30
0.0
 10
-97.5716
 20
-55.1072
 30
0.0
 10
-97.5716
 20
-55.1072
 30
0.0
 10
-97.6725
 20
-62.2656
 30
0.0
 10
-97.5248
 20
-64.5543
 30
0.0
 10
-105.5335
 20
-65.9076
 30
0.0
 10
-105.5335
 20
-65.9076
 30
0.0
 10
-105.7392
 20
-65.9424
 30
0.0
 10
-106.3075
 20
-66.1515
 30
0.0
 10
-106.2049
 20
-66.3056
 30
0.0
 10
-106.2049
 20
-66.3056
 30
0.0
 10
-106.3075
 20
-66.4597
 30
0.0
 10
-105.7392
 20
-66.6689
 30
0.0
 10
-105.5335
 20
-66.7037
 30
0.0
 10
-105.5335
 20
-66.7037
 30
0.0
 10
-97.5248
 20
-68.0569
 30
0.0
 10
-97.6725
 20
-70.3456
 30
0.0
 10
-97.5716
 20
-77.504
 30
0.0
 10
-97.5716
 20
-77.504
 30
0.0
 10
-108.0602
 20
-77.735
 30
0.0
 10
-107.0906
 20
-73.8142
 30
0.0
 10
-108.3765
 20
-68.7103
 30
0.0
 10
-108.3765
 20
-68.7103
 30
0.0
 10
-108.4377
 20
-68.4184
 30
0.0
 10
-108.6125
 20
-68.4456
 30
0.0
 10
-108.6125
 20
-68.4456
 30
0.0
 10
-108.6125
 20
-68.4456
 30
0.0
 10
-108.6125
 20
-68.4456
 30
0.0
 10
-108.7873
 20
-68.4184
 30
0.0
 10
-108.8485
 20
-68.7103
 30
0.0
  0
SPLINE
  5
B7
330
1F
100
AcDbEntity
  8
layer 1
 62
     7
100
AcDbSpline
210
0.0
220
0.0
230
1.0
 70
    11
 71
     3
 72
    28
 73
    24
 74
     0
 42
0.0000000001
 43
0.0000000001
 12
1.0
 22
0.0
 32
0.0
 13
1.0
 23
0.0
 33
0.0
 40
0.0
 40
0.0
 40
0.0
 40
0.0
 40
0.1428571428571428
 40
0.1428571428571428
 40
0.1428571428571428
 40
0.1428571428571428
 40
0.2857142857142857
 40
0.2857142857142857
 40
0.2857142857142857
 40
0.2857142857142857
 40
0.4285714285714285
 40
0.4285714285714285
 40
0.4285714285714285
 40
0.4285714285714285
 40
0.5714285714285714
 40
0.5714285714285714
 40
0.5714285714285714
 40
0.5714285714285714
 40
0.7142857142857143
 40
0.7142857142857143
 40
0.7142857142857143
 40
0.7142857142857143
 40
1.0
 40
1.0
 40
1.0
 40
1.0
 10
-97.7874
 20
-82.1869
 30
0.0
 10
-106.1059
 20
-81.7676
 30
0.0
 10
-108.6699
 20
-86.0111
 30
0.0
 10
-108.6945
 20
-88.0611
 30
0.0
 10
-108.6945
 20
-88.0611
 30
0.0
 10
-108.7191
 20
-86.0111
 30
0.0
 10
-111.2831
 20
-81.7676
 30
0.0
 10
-119.6016
 20
-82.1869
 30
0.0
 10
-119.6016
 20
-82.1869
 30
0.0
 10
-119.6016
 20
-82.1869
 30
0.0
 10
-119.6016
 20
-80.4905
 30
0.0
 10
-119.6016
 20
-80.4905
 30
0.0
 10
-119.6016
 20
-80.4905
 30
0.0
 10
-111.2831
 20
-80.9098
 30
0.0
 10
-108.7191
 20
-76.6663
 30
0.0
 10
-108.6945
 20
-74.6163
 30
0.0
 10
-108.6945
 20
-74.6163
 30
0.0
 10
-108.6699
 20
-76.6663
 30
0.0
 10
-106.1059
 20
-80.9098
 30
0.0
 10
-97.7874
 20
-80.4905
 30
0.0
 10
-97.7874
 20
-80.4905
 30
0.0
 10
-97.7874
 20
-80.4905
 30
0.0
 10
-97.7874
 20
-82.1869
 30
0.0
 10
-97.7874
 20
-82.1869
 30
0.0
  0
SPLINE
  5
B8
330
1F
100
AcDbEntity
  8
layer 1
 62
     7
100
AcDbSpline
210
0.0
220
0.0
230
1.0
 70
    11
 71
     3
 72
    20
 73
    16
 74
     0
 42
0.0000000001
 43
0.0000000001
 12
1.0
 22
0.0
 32
0.0
 13
1.0
 23
0.0
 33
0.0
 40
0.0
 40
0.0
 40
0.0
 40
0.0
 40
0.2
 40
0.2
 40
0.2
 40
0.2
 40
0.4
 40
0.4
 40
0.4
 40
0.4
 40
0.6
 40
0.6
 40
0.6
 40
0.6
 40
1.0
 40
1.0
 40
1.0
 40
1.0
 10
-96.3551
 20
-78.4564
 30
0.0
 10
-96.3551
 20
-78.4564
 30
0.0
 10
-90.586
 20
-78.4564
 30
0.0
 10
-90.586
 20
-78.4564
 30
0.0
 10
-90.586
 20
-78.4564
 30
0.0
 10
-90.586
 20
-78.4564
 30
0.0
 10
-90.586
 20
-84.2869
 30
0.0
 10
-90.586
 20
-84.2869
 30
0.0
 10
-90.586
 20
-84.2869
 30
0.0
 10
-90.586
 20
-84.2869
 30
0.0
 10
-96.3551
 20
-84.2869
 30
0.0
 10
-96.3551
 20
-84.2869
 30
0.0
 10
-96.3551
 20
-84.2869
 30
0.0
 10
-96.3551
 20
-84.2869
 30
0.0
 10
-96.3551
 20
-78.4564
 30
0.0
 10
-96.3551
 20
-78.4564
 30
0.0
  0
SPLINE
  5
B9
330
1F
100
AcDbEntity
  8
layer 1
 62
     7
100
AcDbSpline
210
0.0
220
0.0
230
1.0
 70
    11
 71
     3
 72
    28
 73
    24
 74
     0
 42
0.0000000001
 43
0.0000000001
 12
1.0
 22
0.0
 32
0.0
 13
1.0
 23
0.0
 33
0.0
 40
0.0
 40
0.0
 40
0.0
 40
0.0
 40
0.1428571428571428
 40
0.1428571428571428
 40
0.1428571428571428
 40
0.1428571428571428
 40
0.2857142857142857
 40
0.2857142857142857
 40
0.2857142857142857
 40
0.2857142857142857
 40
0.4285714285714285
 40
0.4285714285714285
 40
0.4285714285714285
 40
0.4285714285714285
 40
0.5714285714285714
 40
0.5714285714285714
 40
0.5714285714285714
 40
0.5714285714285714
 40
0.7142857142857143
 40
0.7142857142857143
 40
0.7142857142857143
 40
0.7142857142857143
 40
1.0
 40
1.0
 40
1.0
 40
1.0
 10
-94.279
 20
-77.0977
 30
0.0
 10
-93.8597
 20
-68.7792
 30
0.0
 10
-98.1031
 20
-66.2152
 30
0.0
 10
-100.1532
 20
-66.1906
 30
0.0
 10
-100.1532
 20
-66.1906
 30
0.0
 10
-98.1031
 20
-66.166
 30
0.0
 10
-93.8597
 20
-63.6019
 30
0.0
 10
-94.279
 20
-55.2835
 30
0.0
 10
-94.279
 20
-55.2835
 30
0.0
 10
-94.279
 20
-55.2835
 30
0.0
 10
-92.5825
 20
-55.2835
 30
0.0
 10
-92.5825
 20
-55.2835
 30
0.0
 10
-92.5825
 20
-55.2835
 30
0.0
 10
-93.0018
 20
-63.602
 30
0.0
 10
-88.7584
 20
-66.166
 30
0.0
 10
-86.7084
 20
-66.1906
 30
0.0
 10
-86.7084
 20
-66.1906
 30
0.0
 10
-88.7584
 20
-66.2152
 30
0.0
 10
-93.0018
 20
-68.7793
 30
0.0
 10
-92.5825
 20
-77.0977
 30
0.0
 10
-92.5825
 20
-77.0977
 30
0.0
 10
-92.5825
 20
-77.0977
 30
0.0
 10
-94.279
 20
-77.0977
 30
0.0
 10
-94.279
 20
-77.0977
 30
0.0
  0
SPLINE
  5
BA
330
1F
100
AcDbEntity
  8
layer 1
 62
     7
100
AcDbSpline
210
0.0
220
0.0
230
1.0
 70
    11
 71
     3
 72
    68
 73
    64
 74
     0
 42
0.0000000001
 43
0.0000000001
 12
1.0
 22
0.0
 32
0.0
 13
1.0
 23
0.0
 33
0.0
 40
0.0
 40
0.0
 40
0.0
 40
0.0
 40
0.0588235294117647
 40
0.0588235294117647
 40
0.0588235294117647
 40
0.0588235294117647
 40
0.1176470588235294
 40
0.1176470588235294
 40
0.1176470588235294
 40
0.1176470588235294
 40
0.1764705882352941
 40
0.1764705882352941
 40
0.1764705882352941
 40
0.1764705882352941
 40
0.2352941176470588
 40
0.2352941176470588
 40
0.2352941176470588
 40
0.2352941176470588
 40
0.2941176470588235
 40
0.2941176470588235
 40
0.2941176470588235
 40
0.2941176470588235
 40
0.3529411764705883
 40
0.3529411764705883
 40
0.3529411764705883
 40
0.3529411764705883
 40
0.4117647058823529
 40
0.4117647058823529
 40
0.4117647058823529
 40
0.4117647058823529
 40
0.4705882352941176
 40
0.4705882352941176
 40
0.4705882352941176
 40
0.4705882352941176
 40
0.5294117647058824
 40
0.5294117647058824
 40
0.5294117647058824
 40
0.5294117647058824
 40
0.5882352941176471
 40
0.5882352941176471
 40
0.5882352941176471
 40
0.5882352941176471
 40
0.6470588235294118
 40
0.6470588235294118
 40
0.6470588235294118
 40
0.6470588235294118
 40
0.7058823529411765
 40
0.7058823529411765
 40
0.7058823529411765
 40
0.7058823529411765
 40
0.7647058823529411
 40
0.7647058823529411
 40
0.7647058823529411
 40
0.7647058823529411
 40
0.8235294117647058
 40
0.8235294117647058
 40
0.8235294117647058
 40
0.8235294117647058
 40
0.8823529411764706
 40
0.8823529411764706
 40
0.8823529411764706
 40
0.8823529411764706
 40
1.0
 40
1.0
 40
1.0
 40
1.0
 10
-78.5867
 20
-68.7103
 30
0.0
 10
-79.8726
 20
-73.8143
 30
0.0
 10
-78.903
 20
-77.735
 30
0.0
 10
-89.3916
 20
-77.504
 30
0.0
 10
-89.3916
 20
-77.504
 30
0.0
 10
-89.2907
 20
-70.3456
 30
0.0
 10
-89.4384
 20
-68.0569
 30
0.0
 10
-81.4297
 20
-66.7037
 30
0.0
 10
-81.4297
 20
-66.7037
 30
0.0
 10
-81.224
 20
-66.6689
 30
0.0
 10
-80.6557
 20
-66.4597
 30
0.0
 10
-80.7583
 20
-66.3056
 30
0.0
 10
-80.7583
 20
-66.3056
 30
0.0
 10
-80.6557
 20
-66.1515
 30
0.0
 10
-81.224
 20
-65.9424
 30
0.0
 10
-81.4297
 20
-65.9076
 30
0.0
 10
-81.4297
 20
-65.9076
 30
0.0
 10
-89.4384
 20
-64.5543
 30
0.0
 10
-89.2907
 20
-62.2656
 30
0.0
 10
-89.3916
 20
-55.1072
 30
0.0
 10
-89.3916
 20
-55.1072
 30
0.0
 10
-78.903
 20
-54.8763
 30
0.0
 10
-79.8726
 20
-58.797
 30
0.0
 10
-78.5867
 20
-63.901
 30
0.0
 10
-78.5867
 20
-63.901
 30
0.0
 10
-78.5254
 20
-64.1929
 30
0.0
 10
-78.3507
 20
-64.1657
 30
0.0
 10
-78.3507
 20
-64.1657
 30
0.0
 10
-78.3507
 20
-64.1657
 30
0.0
 10
-78.3507
 20
-64.1657
 30
0.0
 10
-78.1759
 20
-64.1929
 30
0.0
 10
-78.1147
 20
-63.901
 30
0.0
 10
-78.1147
 20
-63.901
 30
0.0
 10
-76.8288
 20
-58.797
 30
0.0
 10
-77.7984
 20
-54.8763
 30
0.0
 10
-67.3097
 20
-55.1072
 30
0.0
 10
-67.3097
 20
-55.1072
 30
0.0
 10
-67.4106
 20
-62.2656
 30
0.0
 10
-67.263
 20
-64.5543
 30
0.0
 10
-75.2716
 20
-65.9076
 30
0.0
 10
-75.2716
 20
-65.9076
 30
0.0
 10
-75.4773
 20
-65.9424
 30
0.0
 10
-76.0456
 20
-66.1515
 30
0.0
 10
-75.943
 20
-66.3056
 30
0.0
 10
-75.943
 20
-66.3056
 30
0.0
 10
-76.0456
 20
-66.4597
 30
0.0
 10
-75.4773
 20
-66.6689
 30
0.0
 10
-75.2716
 20
-66.7037
 30
0.0
 10
-75.2716
 20
-66.7037
 30
0.0
 10
-67.263
 20
-68.0569
 30
0.0
 10
-67.4106
 20
-70.3456
 30
0.0
 10
-67.3097
 20
-77.504
 30
0.0
 10
-67.3097
 20
-77.504
 30
0.0
 10
-77.7984
 20
-77.735
 30
0.0
 10
-76.8288
 20
-73.8142
 30
0.0
 10
-78.1147
 20
-68.7103
 30
0.0
 10
-78.1147
 20
-68.7103
 30
0.0
 10
-78.1759
 20
-68.4184
 30
0.0
 10
-78.3507
 20
-68.4456
 30
0.0
 10
-78.3507
 20
-68.4456
 30
0.0
 10
-78.3507
 20
-68.4456
 30
0.0
 10
-78.3507
 20
-68.4456
 30
0.0
 10
-78.5254
 20
-68.4184
 30
0.0
 10
-78.5867
 20
-68.7103
 30
0.0
  0
SPLINE
  5
BB
330
1F
100
AcDbEntity
  8
layer 1
 62
     7
100
AcDbSpline
210
0.0
220
0.0
230
1.0
 70
    11
 71
     3
 72
    28
 73
    24
 74
     0
 42
0.0000000001
 43
0.0000000001
 12
1.0
 22
0.0
 32
0.0
 13
1.0
 23
0.0
 33
0.0
 40
0.0
 40
0.0
 40
0.0
 40
0.0
 40
0.1428571428571428
 40
0.1428571428571428
 40
0.1428571428571428
 40
0.1428571428571428
 40
0.2857142857142857
 40
0.2857142857142857
 40
0.2857142857142857
 40
0.2857142857142857
 40
0.4285714285714285
 40
0.4285714285714285
 40
0.4285714285714285
 40
0.4285714285714285
 40
0.5714285714285714
 40
0.5714285714285714
 40
0.5714285714285714
 40
0.5714285714285714
 40
0.7142857142857143
 40
0.7142857142857143
 40
0.7142857142857143
 40
0.7142857142857143
 40
1.0
 40
1.0
 40
1.0
 40
1.0
 10
-67.5255
 20
-82.1869
 30
0.0
 10
-75.8441
 20
-81.7676
 30
0.0
 10
-78.4081
 20
-86.0111
 30
0.0
 10
-78.4327
 20
-88.0611
 30
0.0
 10
-78.4327
 20
-88.0611
 30
0.0
 10
-78.4573
 20
-86.0111
 30
0.0
 10
-81.0213
 20
-81.7676
 30
0.0
 10
-89.3398
 20
-82.1869
 30
0.0
 10
-89.3398
 20
-82.1869
 30
0.0
 10
-89.3398
 20
-82.1869
 30
0.0
 10
-89.3398
 20
-80.4905
 30
0.0
 10
-89.3398
 20
-80.4905
 30
0.0
 10
-89.3398
 20
-80.4905
 30
0.0
 10
-81.0213
 20
-80.9098
 30
0.0
 10
-78.4573
 20
-76.6663
 30
0.0
 10
-78.4327
 20
-74.6163
 30
0.0
 10
-78.4327
 20
-74.6163
 30
0.0
 10
-78.4081
 20
-76.6663
 30
0.0
 10
-75.8441
 20
-80.9098
 30
0.0
 10
-67.5255
 20
-80.4905
 30
0.0
 10
-67.5255
 20
-80.4905
 30
0.0
 10
-67.5255
 20
-80.4905
 30
0.0
 10
-67.5255
 20
-82.1869
 30
0.0
 10
-67.5255
 20
-82.1869
 30
0.0
  0
SPLINE
  5
BC
330
1F
100
AcDbEntity
  8
layer 1
 62
     7
100
AcDbSpline
210
0.0
220
0.0
230
1.0
 70
    11
 71
     3
 72
    20
 73
    16
 74
     0
 42
0.0000000001
 43
0.0000000001
 12
1.0
 22
0.0
 32
0.0
 13
1.0
 23
0.0
 33
0.0
 40
0.0
 40
0.0
 40
0.0
 40
0.0
 40
0.2
 40
0.2
 40
0.2
 40
0.2
 40
0.4
 40
0.4
 40
0.4
 40
0.4
 40
0.6
 40
0.6
 40
0.6
 40
0.6
 40
1.0
 40
1.0
 40
1.0
 40
1.0
 10
-66.0934
 20
-78.4564
 30
0.0
 10
-66.0934
 20
-78.4564
 30
0.0
 10
-60.3243
 20
-78.4564
 30
0.0
 10
-60.3243
 20
-78.4564
 30
0.0
 10
-60.3243
 20
-78.4564
 30
0.0
 10
-60.3243
 20
-78.4564
 30
0.0
 10
-60.3243
 20
-84.2869
 30
0.0
 10
-60.3243
 20
-84.2869
 30
0.0
 10
-60.3243
 20
-84.2869
 30
0.0
 10
-60.3243
 20
-84.2869
 30
0.0
 10
-66.0934
 20
-84.2869
 30
0.0
 10
-66.0934
 20
-84.2869
 30
0.0
 10
-66.0934
 20
-84.2869
 30
0.0
 10
-66.0934
 20
-84.2869
 30
0.0
 10
-66.0934
 20
-78.4564
 30
0.0
 10
-66.0934
 20
-78.4564
 30
0.0
  0
SPLINE
  5
BD
330
1F
100
AcDbEntity
  8
layer 1
 62
     7
100
AcDbSpline
210
0.0
220
0.0
230
1.0
 70
    11
 71
     3
 72
    28
 73
    24
 74
     0
 42
0.0000000001
 43
0.0000000001
 12
1.0
 22
0.0
 32
0.0
 13
1.0
 23
0.0
 33
0.0
 40
0.0
 40
0.0
 40
0.0
 40
0.0
 40
0.1428571428571428
 40
0.1428571428571428
 40
0.1428571428571428
 40
0.1428571428571428
 40
0.2857142857142857
 40
0.2857142857142857
 40
0.2857142857142857
 40
0.2857142857142857
 40
0.4285714285714285
 40
0.4285714285714285
 40
0.4285714285714285
 40
0.4285714285714285
 40
0.5714285714285714
 40
0.5714285714285714
 40
0.5714285714285714
 40
0.5714285714285714
 40
0.7142857142857143
 40
0.7142857142857143
 40
0.7142857142857143
 40
0.7142857142857143
 40
1.0
 40
1.0
 40
1.0
 40
1.0
 10
-64.0172
 20
-77.0977
 30
0.0
 10
-63.5979
 20
-68.7792
 30
0.0
 10
-67.8413
 20
-66.2152
 30
0.0
 10
-69.8913
 20
-66.1906
 30
0.0
 10
-69.8913
 20
-66.1906
 30
0.0
 10
-67.8413
 20
-66.166
 30
0.0
 10
-63.5979
 20
-63.6019
 30
0.0
 10
-64.0172
 20
-55.2835
 30
0.0
 10
-64.0172
 20
-55.2835
 30
0.0
 10
-64.0172
 20
-55.2835
 30
0.0
 10
-62.3207
 20
-55.2835
 30
0.0
 10
-62.3207
 20
-55.2835
 30
0.0
 10
-62.3207
 20
-55.2835
 30
0.0
 10
-62.74
 20
-63.602
 30
0.0
 10
-58.4966
 20
-66.166
 30
0.0
 10
-56.4465
 20
-66.1906
 30
0.0
 10
-56.4465
 20
-66.1906
 30
0.0
 10
-58.4966
 20
-66.2152
 30
0.0
 10
-62.74
 20
-68.7793
 30
0.0
 10
-62.3207
 20
-77.0977
 30
0.0
 10
-62.3207
 20
-77.0977
 30
0.0
 10
-62.3207
 20
-77.0977
 30
0.0
 10
-64.0172
 20
-77.0977
 30
0.0
 10
-64.0172
 20
-77.0977
 30
0.0
  0
SPLINE
  5
BE
330
1F
100
AcDbEntity
  8
layer 1
 62
     7
100
AcDbSpline
210
0.0
220
0.0
230
1.0
 70
    11
 71
     3
 72
    68
 73
    64
 74
     0
 42
0.0000000001
 43
0.0000000001
 12
1.0
 22
0.0
 32
0.0
 13
1.0
 23
0.0
 33
0.0
 40
0.0
 40
0.0
 40
0.0
 40
0.0
 40
0.0588235294117647
 40
0.0588235294117647
 40
0.0588235294117647
 40
0.0588235294117647
 40
0.1176470588235294
 40
0.1176470588235294
 40
0.1176470588235294
 40
0.1176470588235294
 40
0.1764705882352941
 40
0.1764705882352941
 40
0.1764705882352941
 40
0.1764705882352941
 40
0.2352941176470588
 40
0.2352941176470588
 40
0.2352941176470588
 40
0.2352941176470588
 40
0.2941176470588235
 40
0.2941176470588235
 40
0.2941176470588235
 40
0.2941176470588235
 40
0.3529411764705883
 40
0.3529411764705883
 40
0.3529411764705883
 40
0.3529411764705883
 40
0.4117647058823529
 40
0.4117647058823529
 40
0.4117647058823529
 40
0.4117647058823529
 40
0.4705882352941176
 40
0.4705882352941176
 40
0.4705882352941176
 40
0.4705882352941176
 40
0.5294117647058824
 40
0.5294117647058824
 40
0.5294117647058824
 40
0.5294117647058824
 40
0.5882352941176471
 40
0.5882352941176471
 40
0.5882352941176471
 40
0.5882352941176471
 40
0.6470588235294118
 40
0.6470588235294118
 40
0.6470588235294118
 40
0.6470588235294118
 40
0.7058823529411765
 40
0.7058823529411765
 40
0.7058823529411765
 40
0.7058823529411765
 40
0.7647058823529411
 40
0.7647058823529411
 40
0.7647058823529411
 40
0.7647058823529411
 40
0.8235294117647058
 40
0.8235294117647058
 40
0.8235294117647058
 40
0.8235294117647058
 40
0.8823529411764706
 40
0.8823529411764706
 40
0.8823529411764706
 40
0.8823529411764706
 40
1.0
 40
1.0
 40
1.0
 40
1.0
 10
-48.3249
 20
-68.7103
 30
0.0
 10
-49.6108
 20
-73.8143
 30
0.0
 10
-48.6412
 20
-77.735
 30
0.0
 10
-59.1298
 20
-77.504
 30
0.0
 10
-59.1298
 20
-77.504
 30
0.0
 10
-59.0289
 20
-70.3456
 30
0.0
 10
-59.1766
 20
-68.0569
 30
0.0
 10
-51.168
 20
-66.7037
 30
0.0
 10
-51.168
 20
-66.7037
 30
0.0
 10
-50.9622
 20
-66.6689
 30
0.0
 10
-50.394
 20
-66.4597
 30
0.0
 10
-50.4965
 20
-66.3056
 30
0.0
 10
-50.4965
 20
-66.3056
 30
0.0
 10
-50.394
 20
-66.1515
 30
0.0
 10
-50.9622
 20
-65.9424
 30
0.0
 10
-51.168
 20
-65.9076
 30
0.0
 10
-51.168
 20
-65.9076
 30
0.0
 10
-59.1766
 20
-64.5543
 30
0.0
 10
-59.0289
 20
-62.2656
 30
0.0
 10
-59.1298
 20
-55.1072
 30
0.0
 10
-59.1298
 20
-55.1072
 30
0.0
 10
-48.6412
 20
-54.8763
 30
0.0
 10
-49.6108
 20
-58.797
 30
0.0
 10
-48.3249
 20
-63.901
 30
0.0
 10
-48.3249
 20
-63.901
 30
0.0
 10
-48.2637
 20
-64.1929
 30
0.0
 10
-48.0889
 20
-64.1657
 30
0.0
 10
-48.0889
 20
-64.1657
 30
0.0
 10
-48.0889
 20
-64.1657
 30
0.0
 10
-48.0889
 20
-64.1657
 30
0.0
 10
-47.9141
 20
-64.1929
 30
0.0
 10
-47.8529
 20
-63.901
 30
0.0
 10
-47.8529
 20
-63.901
 30
0.0
 10
-46.567
 20
-58.797
 30
0.0
 10
-47.5366
 20
-54.8763
 30
0.0
 10
-37.048
 20
-55.1072
 30
0.0
 10
-37.048
 20
-55.1072
 30
0.0
 10
-37.1489
 20
-62.2656
 30
0.0
 10
-37.0012
 20
-64.5543
 30
0.0
 10
-45.0098
 20
-65.9076
 30
0.0
 10
-45.0098
 20
-65.9076
 30
0.0
 10
-45.2156
 20
-65.9424
 30
0.0
 10
-45.7838
 20
-66.1515
 30
0.0
 10
-45.6813
 20
-66.3056
 30
0.0
 10
-45.6813
 20
-66.3056
 30
0.0
 10
-45.7838
 20
-66.4597
 30
0.0
 10
-45.2156
 20
-66.6689
 30
0.0
 10
-45.0098
 20
-66.7037
 30
0.0
 10
-45.0098
 20
-66.7037
 30
0.0
 10
-37.0012
 20
-68.0569
 30
0.0
 10
-37.1489
 20
-70.3456
 30
0.0
 10
-37.048
 20
-77.504
 30
0.0
 10
-37.048
 20
-77.504
 30
0.0
 10
-47.5366
 20
-77.735
 30
0.0
 10
-46.567
 20
-73.8142
 30
0.0
 10
-47.8529
 20
-68.7103
 30
0.0
 10
-47.8529
 20
-68.7103
 30
0.0
 10
-47.9141
 20
-68.4184
 30
0.0
 10
-48.0889
 20
-68.4456
 30
0.0
 10
-48.0889
 20
-68.4456
 30
0.0
 10
-48.0889
 20
-68.4456
 30
0.0
 10
-48.0889
 20
-68.4456
 30
0.0
 10
-48.2637
 20
-68.4184
 30
0.0
 10
-48.3249
 20
-68.7103
 30
0.0
  0
SPLINE
  5
BF
330
1F
100
AcDbEntity
  8
layer 1
 62
     7
100
AcDbSpline
210
0.0
220
0.0
230
1.0
 70
    11
 71
     3
 72
    28
 73
    24
 74
     0
 42
0.0000000001
 43
0.0000000001
 12
1.0
 22
0.0
 32
0.0
 13
1.0
 23
0.0
 33
0.0
 40
0.0
 40
0.0
 40
0.0
 40
0.0
 40
0.1428571428571428
 40
0.1428571428571428
 40
0.1428571428571428
 40
0.1428571428571428
 40
0.2857142857142857
 40
0.2857142857142857
 40
0.2857142857142857
 40
0.2857142857142857
 40
0.4285714285714285
 40
0.4285714285714285
 40
0.4285714285714285
 40
0.4285714285714285
 40
0.5714285714285714
 40
0.5714285714285714
 40
0.5714285714285714
 40
0.5714285714285714
 40
0.7142857142857143
 40
0.7142857142857143
 40
0.7142857142857143
 40
0.7142857142857143
 40
1.0
 40
1.0
 40
1.0
 40
1.0
 10
-37.2637
 20
-82.1869
 30
0.0
 10
-45.5822
 20
-81.7676
 30
0.0
 10
-48.1462
 20
-86.0111
 30
0.0
 10
-48.1708
 20
-88.0611
 30
0.0
 10
-48.1708
 20
-88.0611
 30
0.0
 10
-48.1955
 20
-86.0111
 30
0.0
 10
-50.7594
 20
-81.7676
 30
0.0
 10
-59.078
 20
-82.1869
 30
0.0
 10
-59.078
 20
-82.1869
 30
0.0
 10
-59.078
 20
-82.1869
 30
0.0
 10
-59.078
 20
-80.4905
 30
0.0
 10
-59.078
 20
-80.4905
 30
0.0
 10
-59.078
 20
-80.4905
 30
0.0
 10
-50.7594
 20
-80.9098
 30
0.0
 10
-48.1955
 20
-76.6663
 30
0.0
 10
-48.1708
 20
-74.6163
 30
0.0
 10
-48.1708
 20
-74.6163
 30
0.0
 10
-48.1462
 20
-76.6663
 30
0.0
 10
-45.5822
 20
-80.9098
 30
0.0
 10
-37.2637
 20
-80.4905
 30
0.0
 10
-37.2637
 20
-80.4905
 30
0.0
 10
-37.2637
 20
-80.4905
 30
0.0
 10
-37.2637
 20
-82.1869
 30
0.0
 10
-37.2637
 20
-82.1869
 30
0.0
  0
SPLINE
  5
C0
330
1F
100
AcDbEntity
  8
layer 1
 62
     7
100
AcDbSpline
210
0.0
220
0.0
230
1.0
 70
    11
 71
     3
 72
    68
 73
    64
 74
     0
 42
0.0000000001
 43
0.0000000001
 12
1.0
 22
0.0
 32
0.0
 13
1.0
 23
0.0
 33
0.0
 40
0.0
 40
0.0
 40
0.0
 40
0.0
 40
0.0588235294117647
 40
0.0588235294117647
 40
0.0588235294117647
 40
0.0588235294117647
 40
0.1176470588235294
 40
0.1176470588235294
 40
0.1176470588235294
 40
0.1176470588235294
 40
0.1764705882352941
 40
0.1764705882352941
 40
0.1764705882352941
 40
0.1764705882352941
 40
0.2352941176470588
 40
0.2352941176470588
 40
0.2352941176470588
 40
0.2352941176470588
 40
0.2941176470588235
 40
0.2941176470588235
 40
0.2941176470588235
 40
0.2941176470588235
 40
0.3529411764705883
 40
0.3529411764705883
 40
0.3529411764705883
 40
0.3529411764705883
 40
0.4117647058823529
 40
0.4117647058823529
 40
0.4117647058823529
 40
0.4117647058823529
 40
0.4705882352941176
 40
0.4705882352941176
 40
0.4705882352941176
 40
0.4705882352941176
 40
0.5294117647058824
 40
0.5294117647058824
 40
0.5294117647058824
 40
0.5294117647058824
 40
0.5882352941176471
 40
0.5882352941176471
 40
0.5882352941176471
 40
0.5882352941176471
 40
0.6470588235294118
 40
0.6470588235294118
 40
0.6470588235294118
 40
0.6470588235294118
 40
0.7058823529411765
 40
0.7058823529411765
 40
0.7058823529411765
 40
0.7058823529411765
 40
0.7647058823529411
 40
0.7647058823529411
 40
0.7647058823529411
 40
0.7647058823529411
 40
0.8235294117647058
 40
0.8235294117647058
 40
0.8235294117647058
 40
0.8235294117647058
 40
0.8823529411764706
 40
0.8823529411764706
 40
0.8823529411764706
 40
0.8823529411764706
 40
1.0
 40
1.0
 40
1.0
 40
1.0
 10
-169.4385
 20
-99.1185
 30
0.0
 10
-170.7244
 20
-104.2225
 30
0.0
 10
-169.7548
 20
-108.1431
 30
0.0
 10
-180.2435
 20
-107.9123
 30
0.0
 10
-180.2435
 20
-107.9123
 30
0.0
 10
-180.1425
 20
-100.7538
 30
0.0
 10
-180.2902
 20
-98.4651
 30
0.0
 10
-172.2816
 20
-97.1119
 30
0.0
 10
-172.2816
 20
-97.1119
 30
0.0
 10
-172.0759
 20
-97.0771
 30
0.0
 10
-171.5076
 20
-96.868
 30
0.0
 10
-171.6102
 20
-96.7138
 30
0.0
 10
-171.6102
 20
-96.7138
 30
0.0
 10
-171.5076
 20
-96.5597
 30
0.0
 10
-172.0759
 20
-96.3506
 30
0.0
 10
-172.2816
 20
-96.3158
 30
0.0
 10
-172.2816
 20
-96.3158
 30
0.0
 10
-180.2902
 20
-94.9625
 30
0.0
 10
-180.1425
 20
-92.6738
 30
0.0
 10
-180.2435
 20
-85.5154
 30
0.0
 10
-180.2435
 20
-85.5154
 30
0.0
 10
-169.7548
 20
-85.2845
 30
0.0
 10
-170.7244
 20
-89.2052
 30
0.0
 10
-169.4385
 20
-94.3092
 30
0.0
 10
-169.4385
 20
-94.3092
 30
0.0
 10
-169.3773
 20
-94.6011
 30
0.0
 10
-169.2025
 20
-94.5739
 30
0.0
 10
-169.2025
 20
-94.5739
 30
0.0
 10
-169.2025
 20
-94.5739
 30
0.0
 10
-169.2025
 20
-94.5739
 30
0.0
 10
-169.0277
 20
-94.6011
 30
0.0
 10
-168.9665
 20
-94.3092
 30
0.0
 10
-168.9665
 20
-94.3092
 30
0.0
 10
-167.6806
 20
-89.2052
 30
0.0
 10
-168.6502
 20
-85.2846
 30
0.0
 10
-158.1616
 20
-85.5154
 30
0.0
 10
-158.1616
 20
-85.5154
 30
0.0
 10
-158.2625
 20
-92.6738
 30
0.0
 10
-158.1148
 20
-94.9625
 30
0.0
 10
-166.1235
 20
-96.3158
 30
0.0
 10
-166.1235
 20
-96.3158
 30
0.0
 10
-166.3292
 20
-96.3506
 30
0.0
 10
-166.8975
 20
-96.5597
 30
0.0
 10
-166.7949
 20
-96.7138
 30
0.0
 10
-166.7949
 20
-96.7138
 30
0.0
 10
-166.8975
 20
-96.868
 30
0.0
 10
-166.3292
 20
-97.0771
 30
0.0
 10
-166.1235
 20
-97.1119
 30
0.0
 10
-166.1235
 20
-97.1119
 30
0.0
 10
-158.1148
 20
-98.4651
 30
0.0
 10
-158.2625
 20
-100.7539
 30
0.0
 10
-158.1616
 20
-107.9123
 30
0.0
 10
-158.1616
 20
-107.9123
 30
0.0
 10
-168.6502
 20
-108.1432
 30
0.0
 10
-167.6806
 20
-104.2225
 30
0.0
 10
-168.9665
 20
-99.1185
 30
0.0
 10
-168.9665
 20
-99.1185
 30
0.0
 10
-169.0277
 20
-98.8266
 30
0.0
 10
-169.2025
 20
-98.8537
 30
0.0
 10
-169.2025
 20
-98.8537
 30
0.0
 10
-169.2025
 20
-98.8537
 30
0.0
 10
-169.2025
 20
-98.8537
 30
0.0
 10
-169.3773
 20
-98.8266
 30
0.0
 10
-169.4385
 20
-99.1185
 30
0.0
  0
SPLINE
  5
C1
330
1F
100
AcDbEntity
  8
layer 1
 62
     7
100
AcDbSpline
210
0.0
220
0.0
230
1.0
 70
    11
 71
     3
 72
    28
 73
    24
 74
     0
 42
0.0000000001
 43
0.0000000001
 12
1.0
 22
0.0
 32
0.0
 13
1.0
 23
0.0
 33
0.0
 40
0.0
 40
0.0
 40
0.0
 40
0.0
 40
0.1428571428571428
 40
0.1428571428571428
 40
0.1428571428571428
 40
0.1428571428571428
 40
0.2857142857142857
 40
0.2857142857142857
 40
0.2857142857142857
 40
0.2857142857142857
 40
0.4285714285714285
 40
0.4285714285714285
 40
0.4285714285714285
 40
0.4285714285714285
 40
0.5714285714285714
 40
0.5714285714285714
 40
0.5714285714285714
 40
0.5714285714285714
 40
0.7142857142857143
 40
0.7142857142857143
 40
0.7142857142857143
 40
0.7142857142857143
 40
1.0
 40
1.0
 40
1.0
 40
1.0
 10
-154.869
 20
-107.5059
 30
0.0
 10
-154.4497
 20
-99.1873
 30
0.0
 10
-158.6931
 20
-96.6234
 30
0.0
 10
-160.7432
 20
-96.5987
 30
0.0
 10
-160.7432
 20
-96.5987
 30
0.0
 10
-158.6931
 20
-96.5741
 30
0.0
 10
-154.4497
 20
-94.0101
 30
0.0
 10
-154.869
 20
-85.6916
 30
0.0
 10
-154.869
 20
-85.6916
 30
0.0
 10
-154.869
 20
-85.6916
 30
0.0
 10
-153.1725
 20
-85.6916
 30
0.0
 10
-153.1725
 20
-85.6916
 30
0.0
 10
-153.1725
 20
-85.6916
 30
0.0
 10
-153.5918
 20
-94.0101
 30
0.0
 10
-149.3484
 20
-96.5741
 30
0.0
 10
-147.2984
 20
-96.5987
 30
0.0
 10
-147.2984
 20
-96.5987
 30
0.0
 10
-149.3484
 20
-96.6234
 30
0.0
 10
-153.5918
 20
-99.1874
 30
0.0
 10
-153.1725
 20
-107.5059
 30
0.0
 10
-153.1725
 20
-107.5059
 30
0.0
 10
-153.1725
 20
-107.5059
 30
0.0
 10
-154.869
 20
-107.5059
 30
0.0
 10
-154.869
 20
-107.5059
 30
0.0
  0
SPLINE
  5
C2
330
1F
100
AcDbEntity
  8
layer 1
 62
     7
100
AcDbSpline
210
0.0
220
0.0
230
1.0
 70
    11
 71
     3
 72
    68
 73
    64
 74
     0
 42
0.0000000001
 43
0.0000000001
 12
1.0
 22
0.0
 32
0.0
 13
1.0
 23
0.0
 33
0.0
 40
0.0
 40
0.0
 40
0.0
 40
0.0
 40
0.0588235294117647
 40
0.0588235294117647
 40
0.0588235294117647
 40
0.0588235294117647
 40
0.1176470588235294
 40
0.1176470588235294
 40
0.1176470588235294
 40
0.1176470588235294
 40
0.1764705882352941
 40
0.1764705882352941
 40
0.1764705882352941
 40
0.1764705882352941
 40
0.2352941176470588
 40
0.2352941176470588
 40
0.2352941176470588
 40
0.2352941176470588
 40
0.2941176470588235
 40
0.2941176470588235
 40
0.2941176470588235
 40
0.2941176470588235
 40
0.3529411764705883
 40
0.3529411764705883
 40
0.3529411764705883
 40
0.3529411764705883
 40
0.4117647058823529
 40
0.4117647058823529
 40
0.4117647058823529
 40
0.4117647058823529
 40
0.4705882352941176
 40
0.4705882352941176
 40
0.4705882352941176
 40
0.4705882352941176
 40
0.5294117647058824
 40
0.5294117647058824
 40
0.5294117647058824
 40
0.5294117647058824
 40
0.5882352941176471
 40
0.5882352941176471
 40
0.5882352941176471
 40
0.5882352941176471
 40
0.6470588235294118
 40
0.6470588235294118
 40
0.6470588235294118
 40
0.6470588235294118
 40
0.7058823529411765
 40
0.7058823529411765
 40
0.7058823529411765
 40
0.7058823529411765
 40
0.7647058823529411
 40
0.7647058823529411
 40
0.7647058823529411
 40
0.7647058823529411
 40
0.8235294117647058
 40
0.8235294117647058
 40
0.8235294117647058
 40
0.8235294117647058
 40
0.8823529411764706
 40
0.8823529411764706
 40
0.8823529411764706
 40
0.8823529411764706
 40
1.0
 40
1.0
 40
1.0
 40
1.0
 10
-139.1103
 20
-99.1185
 30
0.0
 10
-140.3963
 20
-104.2225
 30
0.0
 10
-139.4266
 20
-108.1431
 30
0.0
 10
-149.9153
 20
-107.9123
 30
0.0
 10
-149.9153
 20
-107.9123
 30
0.0
 10
-149.8144
 20
-100.7538
 30
0.0
 10
-149.962
 20
-98.4651
 30
0.0
 10
-141.9534
 20
-97.1119
 30
0.0
 10
-141.9534
 20
-97.1119
 30
0.0
 10
-141.7477
 20
-97.0771
 30
0.0
 10
-141.1794
 20
-96.868
 30
0.0
 10
-141.282
 20
-96.7138
 30
0.0
 10
-141.282
 20
-96.7138
 30
0.0
 10
-141.1794
 20
-96.5597
 30
0.0
 10
-141.7477
 20
-96.3506
 30
0.0
 10
-141.9534
 20
-96.3158
 30
0.0
 10
-141.9534
 20
-96.3158
 30
0.0
 10
-149.962
 20
-94.9625
 30
0.0
 10
-149.8144
 20
-92.6738
 30
0.0
 10
-149.9153
 20
-85.5154
 30
0.0
 10
-149.9153
 20
-85.5154
 30
0.0
 10
-139.4266
 20
-85.2845
 30
0.0
 10
-140.3963
 20
-89.2052
 30
0.0
 10
-139.1103
 20
-94.3092
 30
0.0
 10
-139.1103
 20
-94.3092
 30
0.0
 10
-139.0491
 20
-94.6011
 30
0.0
 10
-138.8743
 20
-94.5739
 30
0.0
 10
-138.8743
 20
-94.5739
 30
0.0
 10
-138.8743
 20
-94.5739
 30
0.0
 10
-138.8743
 20
-94.5739
 30
0.0
 10
-138.6996
 20
-94.6011
 30
0.0
 10
-138.6384
 20
-94.3092
 30
0.0
 10
-138.6384
 20
-94.3092
 30
0.0
 10
-137.3524
 20
-89.2052
 30
0.0
 10
-138.3221
 20
-85.2846
 30
0.0
 10
-127.8334
 20
-85.5154
 30
0.0
 10
-127.8334
 20
-85.5154
 30
0.0
 10
-127.9343
 20
-92.6738
 30
0.0
 10
-127.7867
 20
-94.9625
 30
0.0
 10
-135.7953
 20
-96.3158
 30
0.0
 10
-135.7953
 20
-96.3158
 30
0.0
 10
-136.001
 20
-96.3506
 30
0.0
 10
-136.5693
 20
-96.5597
 30
0.0
 10
-136.4667
 20
-96.7138
 30
0.0
 10
-136.4667
 20
-96.7138
 30
0.0
 10
-136.5693
 20
-96.868
 30
0.0
 10
-136.001
 20
-97.0771
 30
0.0
 10
-135.7953
 20
-97.1119
 30
0.0
 10
-135.7953
 20
-97.1119
 30
0.0
 10
-127.7867
 20
-98.4651
 30
0.0
 10
-127.9343
 20
-100.7539
 30
0.0
 10
-127.8334
 20
-107.9123
 30
0.0
 10
-127.8334
 20
-107.9123
 30
0.0
 10
-138.3221
 20
-108.1432
 30
0.0
 10
-137.3524
 20
-104.2225
 30
0.0
 10
-138.6384
 20
-99.1185
 30
0.0
 10
-138.6384
 20
-99.1185
 30
0.0
 10
-138.6996
 20
-98.8266
 30
0.0
 10
-138.8743
 20
-98.8537
 30
0.0
 10
-138.8743
 20
-98.8537
 30
0.0
 10
-138.8743
 20
-98.8537
 30
0.0
 10
-138.8743
 20
-98.8537
 30
0.0
 10
-139.0491
 20
-98.8266
 30
0.0
 10
-139.1103
 20
-99.1185
 30
0.0
  0
SPLINE
  5
C3
330
1F
100
AcDbEntity
  8
layer 1
 62
     7
100
AcDbSpline
210
0.0
220
0.0
230
1.0
 70
    11
 71
     3
 72
    28
 73
    24
 74
     0
 42
0.0000000001
 43
0.0000000001
 12
1.0
 22
0.0
 32
0.0
 13
1.0
 23
0.0
 33
0.0
 40
0.0
 40
0.0
 40
0.0
 40
0.0
 40
0.1428571428571428
 40
0.1428571428571428
 40
0.1428571428571428
 40
0.1428571428571428
 40
0.2857142857142857
 40
0.2857142857142857
 40
0.2857142857142857
 40
0.2857142857142857
 40
0.4285714285714285
 40
0.4285714285714285
 40
0.4285714285714285
 40
0.4285714285714285
 40
0.5714285714285714
 40
0.5714285714285714
 40
0.5714285714285714
 40
0.5714285714285714
 40
0.7142857142857143
 40
0.7142857142857143
 40
0.7142857142857143
 40
0.7142857142857143
 40
1.0
 40
1.0
 40
1.0
 40
1.0
 10
-124.5408
 20
-107.5059
 30
0.0
 10
-124.1215
 20
-99.1873
 30
0.0
 10
-128.3649
 20
-96.6234
 30
0.0
 10
-130.4149
 20
-96.5987
 30
0.0
 10
-130.4149
 20
-96.5987
 30
0.0
 10
-128.3649
 20
-96.5741
 30
0.0
 10
-124.1215
 20
-94.0101
 30
0.0
 10
-124.5408
 20
-85.6916
 30
0.0
 10
-124.5408
 20
-85.6916
 30
0.0
 10
-124.5408
 20
-85.6916
 30
0.0
 10
-122.8443
 20
-85.6916
 30
0.0
 10
-122.8443
 20
-85.6916
 30
0.0
 10
-122.8443
 20
-85.6916
 30
0.0
 10
-123.2636
 20
-94.0101
 30
0.0
 10
-119.0202
 20
-96.5741
 30
0.0
 10
-116.9701
 20
-96.5987
 30
0.0
 10
-116.9701
 20
-96.5987
 30
0.0
 10
-119.0202
 20
-96.6234
 30
0.0
 10
-123.2636
 20
-99.1874
 30
0.0
 10
-122.8443
 20
-107.5059
 30
0.0
 10
-122.8443
 20
-107.5059
 30
0.0
 10
-122.8443
 20
-107.5059
 30
0.0
 10
-124.5408
 20
-107.5059
 30
0.0
 10
-124.5408
 20
-107.5059
 30
0.0
  0
SPLINE
  5
C4
330
1F
100
AcDbEntity
  8
layer 1
 62
     7
100
AcDbSpline
210
0.0
220
0.0
230
1.0
 70
    11
 71
     3
 72
    68
 73
    64
 74
     0
 42
0.0000000001
 43
0.0000000001
 12
1.0
 22
0.0
 32
0.0
 13
1.0
 23
0.0
 33
0.0
 40
0.0
 40
0.0
 40
0.0
 40
0.0
 40
0.0588235294117647
 40
0.0588235294117647
 40
0.0588235294117647
 40
0.0588235294117647
 40
0.1176470588235294
 40
0.1176470588235294
 40
0.1176470588235294
 40
0.1176470588235294
 40
0.1764705882352941
 40
0.1764705882352941
 40
0.1764705882352941
 40
0.1764705882352941
 40
0.2352941176470588
 40
0.2352941176470588
 40
0.2352941176470588
 40
0.2352941176470588
 40
0.2941176470588235
 40
0.2941176470588235
 40
0.2941176470588235
 40
0.2941176470588235
 40
0.3529411764705883
 40
0.3529411764705883
 40
0.3529411764705883
 40
0.3529411764705883
 40
0.4117647058823529
 40
0.4117647058823529
 40
0.4117647058823529
 40
0.4117647058823529
 40
0.4705882352941176
 40
0.4705882352941176
 40
0.4705882352941176
 40
0.4705882352941176
 40
0.5294117647058824
 40
0.5294117647058824
 40
0.5294117647058824
 40
0.5294117647058824
 40
0.5882352941176471
 40
0.5882352941176471
 40
0.5882352941176471
 40
0.5882352941176471
 40
0.6470588235294118
 40
0.6470588235294118
 40
0.6470588235294118
 40
0.6470588235294118
 40
0.7058823529411765
 40
0.7058823529411765
 40
0.7058823529411765
 40
0.7058823529411765
 40
0.7647058823529411
 40
0.7647058823529411
 40
0.7647058823529411
 40
0.7647058823529411
 40
0.8235294117647058
 40
0.8235294117647058
 40
0.8235294117647058
 40
0.8235294117647058
 40
0.8823529411764706
 40
0.8823529411764706
 40
0.8823529411764706
 40
0.8823529411764706
 40
1.0
 40
1.0
 40
1.0
 40
1.0
 10
-108.8485
 20
-99.1185
 30
0.0
 10
-110.1344
 20
-104.2225
 30
0.0
 10
-109.1648
 20
-108.1431
 30
0.0
 10
-119.6534
 20
-107.9123
 30
0.0
 10
-119.6534
 20
-107.9123
 30
0.0
 10
-119.5525
 20
-100.7538
 30
0.0
 10
-119.7002
 20
-98.4651
 30
0.0
 10
-111.6916
 20
-97.1119
 30
0.0
 10
-111.6916
 20
-97.1119
 30
0.0
 10
-111.4859
 20
-97.0771
 30
0.0
 10
-110.9176
 20
-96.868
 30
0.0
 10
-111.0202
 20
-96.7138
 30
0.0
 10
-111.0202
 20
-96.7138
 30
0.0
 10
-110.9176
 20
-96.5597
 30
0.0
 10
-111.4859
 20
-96.3506
 30
0.0
 10
-111.6916
 20
-96.3158
 30
0.0
 10
-111.6916
 20
-96.3158
 30
0.0
 10
-119.7002
 20
-94.9625
 30
0.0
 10
-119.5525
 20
-92.6738
 30
0.0
 10
-119.6534
 20
-85.5154
 30
0.0
 10
-119.6534
 20
-85.5154
 30
0.0
 10
-109.1648
 20
-85.2845
 30
0.0
 10
-110.1344
 20
-89.2052
 30
0.0
 10
-108.8485
 20
-94.3092
 30
0.0
 10
-108.8485
 20
-94.3092
 30
0.0
 10
-108.7873
 20
-94.6011
 30
0.0
 10
-108.6125
 20
-94.5739
 30
0.0
 10
-108.6125
 20
-94.5739
 30
0.0
 10
-108.6125
 20
-94.5739
 30
0.0
 10
-108.6125
 20
-94.5739
 30
0.0
 10
-108.4377
 20
-94.6011
 30
0.0
 10
-108.3765
 20
-94.3092
 30
0.0
 10
-108.3765
 20
-94.3092
 30
0.0
 10
-107.0906
 20
-89.2052
 30
0.0
 10
-108.0602
 20
-85.2846
 30
0.0
 10
-97.5716
 20
-85.5154
 30
0.0
 10
-97.5716
 20
-85.5154
 30
0.0
 10
-97.6725
 20
-92.6738
 30
0.0
 10
-97.5248
 20
-94.9625
 30
0.0
 10
-105.5335
 20
-96.3158
 30
0.0
 10
-105.5335
 20
-96.3158
 30
0.0
 10
-105.7392
 20
-96.3506
 30
0.0
 10
-106.3075
 20
-96.5597
 30
0.0
 10
-106.2049
 20
-96.7138
 30
0.0
 10
-106.2049
 20
-96.7138
 30
0.0
 10
-106.3075
 20
-96.868
 30
0.0
 10
-105.7392
 20
-97.0771
 30
0.0
 10
-105.5335
 20
-97.1119
 30
0.0
 10
-105.5335
 20
-97.1119
 30
0.0
 10
-97.5248
 20
-98.4651
 30
0.0
 10
-97.6725
 20
-100.7539
 30
0.0
 10
-97.5716
 20
-107.9123
 30
0.0
 10
-97.5716
 20
-107.9123
 30
0.0
 10
-108.0602
 20
-108.1432
 30
0.0
 10
-107.0906
 20
-104.2225
 30
0.0
 10
-108.3765
 20
-99.1185
 30
0.0
 10
-108.3765
 20
-99.1185
 30
0.0
 10
-108.4377
 20
-98.8266
 30
0.0
 10
-108.6125
 20
-98.8537
 30
0.0
 10
-108.6125
 20
-98.8537
 30
0.0
 10
-108.6125
 20
-98.8537
 30
0.0
 10
-108.6125
 20
-98.8537
 30
0.0
 10
-108.7873
 20
-98.8266
 30
0.0
 10
-108.8485
 20
-99.1185
 30
0.0
  0
SPLINE
  5
C5
330
1F
100
AcDbEntity
  8
layer 1
 62
     7
100
AcDbSpline
210
0.0
220
0.0
230
1.0
 70
    11
 71
     3
 72
    28
 73
    24
 74
     0
 42
0.0000000001
 43
0.0000000001
 12
1.0
 22
0.0
 32
0.0
 13
1.0
 23
0.0
 33
0.0
 40
0.0
 40
0.0
 40
0.0
 40
0.0
 40
0.1428571428571428
 40
0.1428571428571428
 40
0.1428571428571428
 40
0.1428571428571428
 40
0.2857142857142857
 40
0.2857142857142857
 40
0.2857142857142857
 40
0.2857142857142857
 40
0.4285714285714285
 40
0.4285714285714285
 40
0.4285714285714285
 40
0.4285714285714285
 40
0.5714285714285714
 40
0.5714285714285714
 40
0.5714285714285714
 40
0.5714285714285714
 40
0.7142857142857143
 40
0.7142857142857143
 40
0.7142857142857143
 40
0.7142857142857143
 40
1.0
 40
1.0
 40
1.0
 40
1.0
 10
-94.279
 20
-107.5059
 30
0.0
 10
-93.8597
 20
-99.1873
 30
0.0
 10
-98.1031
 20
-96.6234
 30
0.0
 10
-100.1532
 20
-96.5987
 30
0.0
 10
-100.1532
 20
-96.5987
 30
0.0
 10
-98.1031
 20
-96.5741
 30
0.0
 10
-93.8597
 20
-94.0101
 30
0.0
 10
-94.279
 20
-85.6916
 30
0.0
 10
-94.279
 20
-85.6916
 30
0.0
 10
-94.279
 20
-85.6916
 30
0.0
 10
-92.5825
 20
-85.6916
 30
0.0
 10
-92.5825
 20
-85.6916
 30
0.0
 10
-92.5825
 20
-85.6916
 30
0.0
 10
-93.0018
 20
-94.0101
 30
0.0
 10
-88.7584
 20
-96.5741
 30
0.0
 10
-86.7084
 20
-96.5987
 30
0.0
 10
-86.7084
 20
-96.5987
 30
0.0
 10
-88.7584
 20
-96.6234
 30
0.0
 10
-93.0018
 20
-99.1874
 30
0.0
 10
-92.5825
 20
-107.5059
 30
0.0
 10
-92.5825
 20
-107.5059
 30
0.0
 10
-92.5825
 20
-107.5059
 30
0.0
 10
-94.279
 20
-107.5059
 30
0.0
 10
-94.279
 20
-107.5059
 30
0.0
  0
SPLINE
  5
C6
330
1F
100
AcDbEntity
  8
layer 1
 62
     7
100
AcDbSpline
210
0.0
220
0.0
230
1.0
 70
    11
 71
     3
 72
    68
 73
    64
 74
     0
 42
0.0000000001
 43
0.0000000001
 12
1.0
 22
0.0
 32
0.0
 13
1.0
 23
0.0
 33
0.0
 40
0.0
 40
0.0
 40
0.0
 40
0.0
 40
0.0588235294117647
 40
0.0588235294117647
 40
0.0588235294117647
 40
0.0588235294117647
 40
0.1176470588235294
 40
0.1176470588235294
 40
0.1176470588235294
 40
0.1176470588235294
 40
0.1764705882352941
 40
0.1764705882352941
 40
0.1764705882352941
 40
0.1764705882352941
 40
0.2352941176470588
 40
0.2352941176470588
 40
0.2352941176470588
 40
0.2352941176470588
 40
0.2941176470588235
 40
0.2941176470588235
 40
0.2941176470588235
 40
0.2941176470588235
 40
0.3529411764705883
 40
0.3529411764705883
 40
0.3529411764705883
 40
0.3529411764705883
 40
0.4117647058823529
 40
0.4117647058823529
 40
0.4117647058823529
 40
0.4117647058823529
 40
0.4705882352941176
 40
0.4705882352941176
 40
0.4705882352941176
 40
0.4705882352941176
 40
0.5294117647058824
 40
0.5294117647058824
 40
0.5294117647058824
 40
0.5294117647058824
 40
0.5882352941176471
 40
0.5882352941176471
 40
0.5882352941176471
 40
0.5882352941176471
 40
0.6470588235294118
 40
0.6470588235294118
 40
0.6470588235294118
 40
0.6470588235294118
 40
0.7058823529411765
 40
0.7058823529411765
 40
0.7058823529411765
 40
0.7058823529411765
 40
0.7647058823529411
 40
0.7647058823529411
 40
0.7647058823529411
 40
0.7647058823529411
 40
0.8235294117647058
 40
0.8235294117647058
 40
0.8235294117647058
 40
0.8235294117647058
 40
0.8823529411764706
 40
0.8823529411764706
 40
0.8823529411764706
 40
0.8823529411764706
 40
1.0
 40
1.0
 40
1.0
 40
1.0
 10
-78.5867
 20
-99.1185
 30
0.0
 10
-79.8726
 20
-104.2225
 30
0.0
 10
-78.903
 20
-108.1431
 30
0.0
 10
-89.3916
 20
-107.9123
 30
0.0
 10
-89.3916
 20
-107.9123
 30
0.0
 10
-89.2907
 20
-100.7538
 30
0.0
 10
-89.4384
 20
-98.4651
 30
0.0
 10
-81.4297
 20
-97.1119
 30
0.0
 10
-81.4297
 20
-97.1119
 30
0.0
 10
-81.224
 20
-97.0771
 30
0.0
 10
-80.6557
 20
-96.868
 30
0.0
 10
-80.7583
 20
-96.7138
 30
0.0
 10
-80.7583
 20
-96.7138
 30
0.0
 10
-80.6557
 20
-96.5597
 30
0.0
 10
-81.224
 20
-96.3506
 30
0.0
 10
-81.4297
 20
-96.3158
 30
0.0
 10
-81.4297
 20
-96.3158
 30
0.0
 10
-89.4384
 20
-94.9625
 30
0.0
 10
-89.2907
 20
-92.6738
 30
0.0
 10
-89.3916
 20
-85.5154
 30
0.0
 10
-89.3916
 20
-85.5154
 30
0.0
 10
-78.903
 20
-85.2845
 30
0.0
 10
-79.8726
 20
-89.2052
 30
0.0
 10
-78.5867
 20
-94.3092
 30
0.0
 10
-78.5867
 20
-94.3092
 30
0.0
 10
-78.5254
 20
-94.6011
 30
0.0
 10
-78.3507
 20
-94.5739
 30
0.0
 10
-78.3507
 20
-94.5739
 30
0.0
 10
-78.3507
 20
-94.5739
 30
0.0
 10
-78.3507
 20
-94.5739
 30
0.0
 10
-78.1759
 20
-94.6011
 30
0.0
 10
-78.1147
 20
-94.3092
 30
0.0
 10
-78.1147
 20
-94.3092
 30
0.0
 10
-76.8288
 20
-89.2052
 30
0.0
 10
-77.7984
 20
-85.2846
 30
0.0
 10
-67.3097
 20
-85.5154
 30
0.0
 10
-67.3097
 20
-85.5154
 30
0.0
 10
-67.4106
 20
-92.6738
 30
0.0
 10
-67.263
 20
-94.9625
 30
0.0
 10
-75.2716
 20
-96.3158
 30
0.0
 10
-75.2716
 20
-96.3158
 30
0.0
 10
-75.4773
 20
-96.3506
 30
0.0
 10
-76.0456
 20
-96.5597
 30
0.0
 10
-75.943
 20
-96.7138
 30
0.0
 10
-75.943
 20
-96.7138
 30
0.0
 10
-76.0456
 20
-96.868
 30
0.0
 10
-75.4773
 20
-97.0771
 30
0.0
 10
-75.2716
 20
-97.1119
 30
0.0
 10
-75.2716
 20
-97.1119
 30
0.0
 10
-67.263
 20
-98.4651
 30
0.0
 10
-67.4106
 20
-100.7539
 30
0.0
 10
-67.3097
 20
-107.9123
 30
0.0
 10
-67.3097
 20
-107.9123
 30
0.0
 10
-77.7984
 20
-108.1432
 30
0.0
 10
-76.8288
 20
-104.2225
 30
0.0
 10
-78.1147
 20
-99.1185
 30
0.0
 10
-78.1147
 20
-99.1185
 30
0.0
 10
-78.1759
 20
-98.8266
 30
0.0
 10
-78.3507
 20
-98.8537
 30
0.0
 10
-78.3507
 20
-98.8537
 30
0.0
 10
-78.3507
 20
-98.8537
 30
0.0
 10
-78.3507
 20
-98.8537
 30
0.0
 10
-78.5254
 20
-98.8266
 30
0.0
 10
-78.5867
 20
-99.1185
 30
0.0
  0
SPLINE
  5
C7
330
1F
100
AcDbEntity
  8
layer 1
 62
     7
100
AcDbSpline
210
0.0
220
0.0
230
1.0
 70
    11
 71
     3
 72
    28
 73
    24
 74
     0
 42
0.0000000001
 43
0.0000000001
 12
1.0
 22
0.0
 32
0.0
 13
1.0
 23
0.0
 33
0.0
 40
0.0
 40
0.0
 40
0.0
 40
0.0
 40
0.1428571428571428
 40
0.1428571428571428
 40
0.1428571428571428
 40
0.1428571428571428
 40
0.2857142857142857
 40
0.2857142857142857
 40
0.2857142857142857
 40
0.2857142857142857
 40
0.4285714285714285
 40
0.4285714285714285
 40
0.4285714285714285
 40
0.4285714285714285
 40
0.5714285714285714
 40
0.5714285714285714
 40
0.5714285714285714
 40
0.5714285714285714
 40
0.7142857142857143
 40
0.7142857142857143
 40
0.7142857142857143
 40
0.7142857142857143
 40
1.0
 40
1.0
 40
1.0
 40
1.0
 10
-64.0172
 20
-107.5059
 30
0.0
 10
-63.5979
 20
-99.1873
 30
0.0
 10
-67.8413
 20
-96.6234
 30
0.0
 10
-69.8913
 20
-96.5987
 30
0.0
 10
-69.8913
 20
-96.5987
 30
0.0
 10
-67.8413
 20
-96.5741
 30
0.0
 10
-63.5979
 20
-94.0101
 30
0.0
 10
-64.0172
 20
-85.6916
 30
0.0
 10
-64.0172
 20
-85.6916
 30
0.0
 10
-64.0172
 20
-85.6916
 30
0.0
 10
-62.3207
 20
-85.6916
 30
0.0
 10
-62.3207
 20
-85.6916
 30
0.0
 10
-62.3207
 20
-85.6916
 30
0.0
 10
-62.74
 20
-94.0101
 30
0.0
 10
-58.4966
 20
-96.5741
 30
0.0
 10
-56.4465
 20
-96.5987
 30
0.0
 10
-56.4465
 20
-96.5987
 30
0.0
 10
-58.4966
 20
-96.6234
 30
0.0
 10
-62.74
 20
-99.1874
 30
0.0
 10
-62.3207
 20
-107.5059
 30
0.0
 10
-62.3207
 20
-107.5059
 30
0.0
 10
-62.3207
 20
-107.5059
 30
0.0
 10
-64.0172
 20
-107.5059
 30
0.0
 10
-64.0172
 20
-107.5059
 30
0.0
  0
SPLINE
  5
C8
330
1F
100
AcDbEntity
  8
layer 1
 62
     7
100
AcDbSpline
210
0.0
220
0.0
230
1.0
 70
    11
 71
     3
 72
    68
 73
    64
 74
     0
 42
0.0000000001
 43
0.0000000001
 12
1.0
 22
0.0
 32
0.0
 13
1.0
 23
0.0
 33
0.0
 40
0.0
 40
0.0
 40
0.0
 40
0.0
 40
0.0588235294117647
 40
0.0588235294117647
 40
0.0588235294117647
 40
0.0588235294117647
 40
0.1176470588235294
 40
0.1176470588235294
 40
0.1176470588235294
 40
0.1176470588235294
 40
0.1764705882352941
 40
0.1764705882352941
 40
0.1764705882352941
 40
0.1764705882352941
 40
0.2352941176470588
 40
0.2352941176470588
 40
0.2352941176470588
 40
0.2352941176470588
 40
0.2941176470588235
 40
0.2941176470588235
 40
0.2941176470588235
 40
0.2941176470588235
 40
0.3529411764705883
 40
0.3529411764705883
 40
0.3529411764705883
 40
0.3529411764705883
 40
0.4117647058823529
 40
0.4117647058823529
 40
0.4117647058823529
 40
0.4117647058823529
 40
0.4705882352941176
 40
0.4705882352941176
 40
0.4705882352941176
 40
0.4705882352941176
 40
0.5294117647058824
 40
0.5294117647058824
 40
0.5294117647058824
 40
0.5294117647058824
 40
0.5882352941176471
 40
0.5882352941176471
 40
0.5882352941176471
 40
0.5882352941176471
 40
0.6470588235294118
 40
0.6470588235294118
 40
0.6470588235294118
 40
0.6470588235294118
 40
0.7058823529411765
 40
0.7058823529411765
 40
0.7058823529411765
 40
0.7058823529411765
 40
0.7647058823529411
 40
0.7647058823529411
 40
0.7647058823529411
 40
0.7647058823529411
 40
0.8235294117647058
 40
0.8235294117647058
 40
0.8235294117647058
 40
0.8235294117647058
 40
0.8823529411764706
 40
0.8823529411764706
 40
0.8823529411764706
 40
0.8823529411764706
 40
1.0
 40
1.0
 40
1.0
 40
1.0
 10
-48.3249
 20
-99.1185
 30
0.0
 10
-49.6108
 20
-104.2225
 30
0.0
 10
-48.6412
 20
-108.1431
 30
0.0
 10
-59.1298
 20
-107.9123
 30
0.0
 10
-59.1298
 20
-107.9123
 30
0.0
 10
-59.0289
 20
-100.7538
 30
0.0
 10
-59.1766
 20
-98.4651
 30
0.0
 10
-51.168
 20
-97.1119
 30
0.0
 10
-51.168
 20
-97.1119
 30
0.0
 10
-50.9622
 20
-97.0771
 30
0.0
 10
-50.394
 20
-96.868
 30
0.0
 10
-50.4965
 20
-96.7138
 30
0.0
 10
-50.4965
 20
-96.7138
 30
0.0
 10
-50.394
 20
-96.5597
 30
0.0
 10
-50.9622
 20
-96.3506
 30
0.0
 10
-51.168
 20
-96.3158
 30
0.0
 10
-51.168
 20
-96.3158
 30
0.0
 10
-59.1766
 20
-94.9625
 30
0.0
 10
-59.0289
 20
-92.6738
 30
0.0
 10
-59.1298
 20
-85.5154
 30
0.0
 10
-59.1298
 20
-85.5154
 30
0.0
 10
-48.6412
 20
-85.2845
 30
0.0
 10
-49.6108
 20
-89.2052
 30
0.0
 10
-48.3249
 20
-94.3092
 30
0.0
 10
-48.3249
 20
-94.3092
 30
0.0
 10
-48.2637
 20
-94.6011
 30
0.0
 10
-48.0889
 20
-94.5739
 30
0.0
 10
-48.0889
 20
-94.5739
 30
0.0
 10
-48.0889
 20
-94.5739
 30
0.0
 10
-48.0889
 20
-94.5739
 30
0.0
 10
-47.9141
 20
-94.6011
 30
0.0
 10
-47.8529
 20
-94.3092
 30
0.0
 10
-47.8529
 20
-94.3092
 30
0.0
 10
-46.567
 20
-89.2052
 30
0.0
 10
-47.5366
 20
-85.2846
 30
0.0
 10
-37.048
 20
-85.5154
 30
0.0
 10
-37.048
 20
-85.5154
 30
0.0
 10
-37.1489
 20
-92.6738
 30
0.0
 10
-37.0012
 20
-94.9625
 30
0.0
 10
-45.0098
 20
-96.3158
 30
0.0
 10
-45.0098
 20
-96.3158
 30
0.0
 10
-45.2156
 20
-96.3506
 30
0.0
 10
-45.7838
 20
-96.5597
 30
0.0
 10
-45.6813
 20
-96.7138
 30
0.0
 10
-45.6813
 20
-96.7138
 30
0.0
 10
-45.7838
 20
-96.868
 30
0.0
 10
-45.2156
 20
-97.0771
 30
0.0
 10
-45.0098
 20
-97.1119
 30
0.0
 10
-45.0098
 20
-97.1119
 30
0.0
 10
-37.0012
 20
-98.4651
 30
0.0
 10
-37.1489
 20
-100.7539
 30
0.0
 10
-37.048
 20
-107.9123
 30
0.0
 10
-37.048
 20
-107.9123
 30
0.0
 10
-47.5366
 20
-108.1432
 30
0.0
 10
-46.567
 20
-104.2225
 30
0.0
 10
-47.8529
 20
-99.1185
 30
0.0
 10
-47.8529
 20
-99.1185
 30
0.0
 10
-47.9141
 20
-98.8266
 30
0.0
 10
-48.0889
 20
-98.8537
 30
0.0
 10
-48.0889
 20
-98.8537
 30
0.0
 10
-48.0889
 20
-98.8537
 30
0.0
 10
-48.0889
 20
-98.8537
 30
0.0
 10
-48.2637
 20
-98.8266
 30
0.0
 10
-48.3249
 20
-99.1185
 30
0.0
  0
ENDSEC
  0
SECTION
  2
OBJECTS
  0
DICTIONARY
  5
C
330
0
100
AcDbDictionary
281
     1
  3
ACAD_GROUP
350
D
  3
ACAD_LAYOUT
350
1A
  3
ACAD_MATERIAL
350
3B
  3
ACAD_MLEADERSTYLE
350
EA
  3
ACAD_MLINESTYLE
350
17
  3
ACAD_PLOTSETTINGS
350
19
  3
ACAD_PLOTSTYLENAME
350
E
  3
ACAD_TABLESTYLE
350
E9
  3
ACAD_VISUALSTYLE
350
2A
  0
DICTIONARY
  5
D
102
{ACAD_REACTORS
330
C
102
}
330
C
100
AcDbDictionary
281
     1
  0
DICTIONARY
  5
1A
102
{ACAD_REACTORS
330
C
102
}
330
C
100
AcDbDictionary
281
     1
  3
Layout1
350
1E
  3
Layout2
350
26
  3
Model
350
22
  0
DICTIONARY
  5
3B
102
{ACAD_REACTORS
330
C
102
}
330
C
100
AcDbDictionary
281
     1
  3
ByBlock
350
3D
  3
ByLayer
350
3C
  3
Global
350
3E
  0
DICTIONARY
  5
EA
102
{ACAD_REACTORS
330
C
102
}
330
C
100
AcDbDictionary
281
     1
  0
DICTIONARY
  5
17
102
{ACAD_REACTORS
330
C
102
}
330
C
100
AcDbDictionary
281
     1
  3
Standard
350
18
  0
DICTIONARY
  5
19
102
{ACAD_REACTORS
330
C
102
}
330
C
100
AcDbDictionary
281
     1
  0
ACDBDICTIONARYWDFLT
  5
E
102
{ACAD_REACTORS
330
C
102
}
330
C
100
AcDbDictionary
281
     1
  3
Normal
350
F
100
AcDbDictionaryWithDefault
340
F
  0
DICTIONARY
  5
E9
102
{ACAD_REACTORS
330
C
102
}
330
C
100
AcDbDictionary
281
     1
  0
DICTIONARY
  5
2A
102
{ACAD_REACTORS
330
C
102
}
330
C
100
AcDbDictionary
281
     1
  3
2dWireframe
350
2F
  3
3D Hidden
350
31
  3
3dWireframe
350
30
  3
Basic
350
32
  3
Brighten
350
36
  3
ColorChange
350
3A
  3
Conceptual
350
34
  3
Dim
350
35
  3
Facepattern
350
39
  3
Flat
350
2B
  3
FlatWithEdges
350
2C
  3
Gouraud
350
2D
  3
GouraudWithEdges
350
2E
  3
Linepattern
350
38
  3
Realistic
350
33
  3
Thicken
350
37
  0
LAYOUT
  5
1E
102
{ACAD_REACTORS
330
1A
102
}
330
1A
100
AcDbPlotSettings
  1

  2
none_device
  4

  6

 40
0.0
 41
0.0
 42
0.0
 43
0.0
 44
0.0
 45
0.0
 46
0.0
 47
0.0
 48
0.0
 49
0.0
140
0.0
141
0.0
142
1.0
143
1.0
 70
   688
 72
     0
 73
     0
 74
     5
  7

 75
    16
 76
     0
 77
     2
 78
   300
147
1.0
148
0.0
149
0.0
100
AcDbLayout
  1
Layout1
 70
     1
 71
     1
 10
0.0
 20
0.0
 11
12.0
 21
9.0
 12
0.0
 22
0.0
 32
0.0
 14
1.000000000000000E+20
 24
1.000000000000000E+20
 34
1.000000000000000E+20
 15
-1.000000000000000E+20
 25
-1.000000000000000E+20
 35
-1.000000000000000E+20
146
0.0
 13
0.0
 23
0.0
 33
0.0
 16
1.0
 26
0.0
 36
0.0
 17
0.0
 27
1.0
 37
0.0
 76
     0
330
1B
  0
LAYOUT
  5
26
102
{ACAD_REACTORS
330
1A
102
}
330
1A
100
AcDbPlotSettings
  1

  2
none_device
  4

  6

 40
0.0
 41
0.0
 42
0.0
 43
0.0
 44
0.0
 45
0.0
 46
0.0
 47
0.0
 48
0.0
 49
0.0
140
0.0
141
0.0
142
1.0
143
1.0
 70
   688
 72
     0
 73
     0
 74
     5
  7

 75
    16
 76
     0
 77
     2
 78
   300
147
1.0
148
0.0
149
0.0
100
AcDbLayout
  1
Layout2
 70
     1
 71
     2
 10
0.0
 20
0.0
 11
0.0
 21
0.0
 12
0.0
 22
0.0
 32
0.0
 14
0.0
 24
0.0
 34
0.0
 15
0.0
 25
0.0
 35
0.0
146
0.0
 13
0.0
 23
0.0
 33
0.0
 16
1.0
 26
0.0
 36
0.0
 17
0.0
 27
1.0
 37
0.0
 76
     0
330
23
  0
LAYOUT
  5
22
102
{ACAD_REACTORS
330
1A
102
}
330
1A
100
AcDbPlotSettings
  1

  2
none_device
  4

  6

 40
0.0
 41
0.0
 42
0.0
 43
0.0
 44
0.0
 45
0.0
 46
0.0
 47
0.0
 48
0.0
 49
0.0
140
0.0
141
0.0
142
1.0
143
1.0
 70
  1712
 72
     0
 73
     0
 74
     0
  7

 75
     0
 76
     0
 77
     2
 78
   300
147
1.0
148
0.0
149
0.0
100
AcDbLayout
  1
Model
 70
     1
 71
     0
 10
0.0
 20
0.0
 11
12.0
 21
9.0
 12
0.0
 22
0.0
 32
0.0
 14
-187.2943
 24
-114.8654
 34
0.0
 15
-29.9978
 25
131.7785
 35
0.0
146
0.0
 13
0.0
 23
0.0
 33
0.0
 16
1.0
 26
0.0
 36
0.0
 17
0.0
 27
1.0
 37
0.0
 76
     0
330
1F
331
29
  0
MATERIAL
  5
3D
102
{ACAD_REACTORS
330
3B
102
}
330
3B
100
AcDbMaterial
  1
ByBlock
 72
     1
 94
      127
  0
MATERIAL
  5
3C
102
{ACAD_REACTORS
330
3B
102
}
330
3B
100
AcDbMaterial
  1
ByLayer
 72
     1
 94
      127
  0
MATERIAL
  5
3E
102
{ACAD_REACTORS
330
3B
102
}
330
3B
100
AcDbMaterial
  1
Global
 72
     1
 94
      127
  0
MLINESTYLE
  5
18
102
{ACAD_REACTORS
330
17
102
}
330
17
100
AcDbMlineStyle
  2
Standard
 70
     0
  3

 62
   256
 51
90.0
 52
90.0
 71
     2
 49
0.5
 62
   256
  6
BYLAYER
 49
-0.5
 62
   256
  6
BYLAYER
  0
ACDBPLACEHOLDER
  5
F
102
{ACAD_REACTORS
330
E
102
}
330
E
  0
VISUALSTYLE
  5
2F
102
{ACAD_REACTORS
330
2A
102
}
102
{ACAD_XDICTIONARY
360
D1
102
}
330
2A
100
AcDbVisualStyle
  2
2dWireframe
 70
     4
 71
     0
 72
     2
 73
     0
 90
        0
 40
-0.6
 41
-30.0
 62
     5
 63
     7
421
 16777215
 74
     1
 91
        4
 64
     7
 65
   257
 75
     1
175
     1
 42
1.0
 92
        0
 66
   257
 43
1.0
 76
     1
 77
     6
 78
     2
 67
     7
 79
     5
170
     0
171
     0
290
     0
174
     0
 93
        1
 44
0.0
173
     0
291
     0
 45
0.0
  0
VISUALSTYLE
  5
31
102
{ACAD_REACTORS
330
2A
102
}
102
{ACAD_XDICTIONARY
360
D5
102
}
330
2A
100
AcDbVisualStyle
  2
3D Hidden
 70
     6
 71
     1
 72
     2
 73
     2
 90
        0
 40
-0.6
 41
-30.0
 62
     5
 63
     7
421
 16777215
 74
     2
 91
        2
 64
     7
 65
   257
 75
     2
175
     1
 42
40.0
 92
        0
 66
   257
 43
1.0
 76
     1
 77
     6
 78
     2
 67
     7
 79
     3
170
     0
171
     0
290
     0
174
     0
 93
        1
 44
0.0
173
     0
291
     0
 45
0.0
  0
VISUALSTYLE
  5
30
102
{ACAD_REACTORS
330
2A
102
}
102
{ACAD_XDICTIONARY
360
D3
102
}
330
2A
100
AcDbVisualStyle
  2
3dWireframe
 70
     5
 71
     0
 72
     2
 73
     0
 90
        0
 40
-0.6
 41
-30.0
 62
     5
 63
     7
421
 16777215
 74
     1
 91
        4
 64
     7
 65
   257
 75
     1
175
     1
 42
1.0
 92
        0
 66
   257
 43
1.0
 76
     1
 77
     6
 78
     2
 67
     7
 79
     5
170
     0
171
     0
290
     0
174
     0
 93
        1
 44
0.0
173
     0
291
     0
 45
0.0
  0
VISUALSTYLE
  5
32
102
{ACAD_REACTORS
330
2A
102
}
102
{ACAD_XDICTIONARY
360
D7
102
}
330
2A
100
AcDbVisualStyle
  2
Basic
 70
     7
 71
     1
 72
     0
 73
     1
 90
        0
 40
-0.6
 41
-30.0
 62
     5
 63
     7
421
 16777215
 74
     0
 91
        4
 64
     7
 65
   257
 75
     1
175
     1
 42
1.0
 92
        8
 66
     7
 43
1.0
 76
     1
 77
     6
 78
     2
 67
     7
 79
     5
170
     0
171
     0
290
     0
174
     0
 93
        1
 44
0.0
173
     0
291
     1
 45
0.0
  0
VISUALSTYLE
  5
36
102
{ACAD_REACTORS
330
2A
102
}
102
{ACAD_XDICTIONARY
360
DF
102
}
330
2A
100
AcDbVisualStyle
  2
Brighten
 70
    12
 71
     2
 72
     2
 73
     0
 90
        0
 40
-0.6
 41
-30.0
 62
     5
 63
     7
421
 16777215
 74
     1
 91
        4
 64
     7
 65
   257
 75
     1
175
     1
 42
1.0
 92
        8
 66
     7
 43
1.0
 76
     1
 77
     6
 78
     2
 67
     7
 79
     5
170
     0
171
     0
290
     0
174
     0
 93
        1
 44
50.0
173
     0
291
     1
 45
0.0
  0
VISUALSTYLE
  5
3A
102
{ACAD_REACTORS
330
2A
102
}
102
{ACAD_XDICTIONARY
360
E7
102
}
330
2A
100
AcDbVisualStyle
  2
ColorChange
 70
    16
 71
     2
 72
     2
 73
     3
 90
        0
 40
-0.6
 41
-30.0
 62
     5
 63
     8
421
  8421504
 74
     1
 91
        4
 64
     7
 65
   257
 75
     1
175
     1
 42
1.0
 92
        8
 66
     8
424
  8421504
 43
1.0
 76
     1
 77
     6
 78
     2
 67
     7
 79
     5
170
     0
171
     0
290
     0
174
     0
 93
        1
 44
0.0
173
     0
291
     1
 45
0.0
  0
VISUALSTYLE
  5
34
102
{ACAD_REACTORS
330
2A
102
}
102
{ACAD_XDICTIONARY
360
DB
102
}
330
2A
100
AcDbVisualStyle
  2
Conceptual
 70
     9
 71
     3
 72
     2
 73
     0
 90
        0
 40
-0.6
 41
-30.0
 62
     5
 63
     7
421
 16777215
 74
     2
 91
        2
 64
     7
 65
   257
 75
     1
175
     1
 42
40.0
 92
        8
 66
     7
 43
1.0
 76
     1
 77
     6
 78
     2
 67
     7
 79
     3
170
     0
171
     0
290
     0
174
     0
 93
        1
 44
0.0
173
     0
291
     0
 45
0.0
  0
VISUALSTYLE
  5
35
102
{ACAD_REACTORS
330
2A
102
}
102
{ACAD_XDICTIONARY
360
DD
102
}
330
2A
100
AcDbVisualStyle
  2
Dim
 70
    11
 71
     2
 72
     2
 73
     0
 90
        0
 40
-0.6
 41
-30.0
 62
     5
 63
     7
421
 16777215
 74
     1
 91
        4
 64
     7
 65
   257
 75
     1
175
     1
 42
1.0
 92
        8
 66
     7
 43
1.0
 76
     1
 77
     6
 78
     2
 67
     7
 79
     5
170
     0
171
     0
290
     0
174
     0
 93
        1
 44
-50.0
173
     0
291
     1
 45
0.0
  0
VISUALSTYLE
  5
39
102
{ACAD_REACTORS
330
2A
102
}
102
{ACAD_XDICTIONARY
360
E5
102
}
330
2A
100
AcDbVisualStyle
  2
Facepattern
 70
    15
 71
     2
 72
     2
 73
     0
 90
        0
 40
-0.6
 41
-30.0
 62
     5
 63
     7
421
 16777215
 74
     1
 91
        4
 64
     7
 65
   257
 75
     1
175
     1
 42
1.0
 92
        8
 66
     7
 43
1.0
 76
     1
 77
     6
 78
     2
 67
     7
 79
     5
170
     0
171
     0
290
     0
174
     0
 93
        1
 44
0.0
173
     0
291
     1
 45
0.0
  0
VISUALSTYLE
  5
2B
102
{ACAD_REACTORS
330
2A
102
}
102
{ACAD_XDICTIONARY
360
C9
102
}
330
2A
100
AcDbVisualStyle
  2
Flat
 70
     0
 71
     2
 72
     1
 73
     1
 90
        2
 40
-0.6
 41
30.0
 62
     5
 63
     7
421
 16777215
 74
     0
 91
        4
 64
     7
 65
   257
 75
     1
175
     1
 42
1.0
 92
        8
 66
     7
 43
1.0
 76
     1
 77
     6
 78
     2
 67
     7
 79
     5
170
     0
171
     0
290
     0
174
     0
 93
       13
 44
0.0
173
     0
291
     1
 45
0.0
  0
VISUALSTYLE
  5
2C
102
{ACAD_REACTORS
330
2A
102
}
102
{ACAD_XDICTIONARY
360
CB
102
}
330
2A
100
AcDbVisualStyle
  2
FlatWithEdges
 70
     1
 71
     2
 72
     1
 73
     1
 90
        2
 40
-0.6
 41
30.0
 62
     5
 63
     7
421
 16777215
 74
     1
 91
        4
 64
     7
 65
   257
 75
     1
175
     1
 42
1.0
 92
        0
 66
   257
 43
1.0
 76
     1
 77
     6
 78
     2
 67
     7
 79
     5
170
     0
171
     0
290
     0
174
     0
 93
       13
 44
0.0
173
     0
291
     1
 45
0.0
  0
VISUALSTYLE
  5
2D
102
{ACAD_REACTORS
330
2A
102
}
102
{ACAD_XDICTIONARY
360
CD
102
}
330
2A
100
AcDbVisualStyle
  2
Gouraud
 70
     2
 71
     2
 72
     2
 73
     1
 90
        2
 40
-0.6
 41
30.0
 62
     5
 63
     7
421
 16777215
 74
     0
 91
        4
 64
     7
 65
   257
 75
     1
175
     1
 42
1.0
 92
        0
 66
     7
 43
1.0
 76
     1
 77
     6
 78
     2
 67
     7
 79
     5
170
     0
171
     0
290
     0
174
     0
 93
       13
 44
0.0
173
     0
291
     1
 45
0.0
  0
VISUALSTYLE
  5
2E
102
{ACAD_REACTORS
330
2A
102
}
102
{ACAD_XDICTIONARY
360
CF
102
}
330
2A
100
AcDbVisualStyle
  2
GouraudWithEdges
 70
     3
 71
     2
 72
     2
 73
     1
 90
        2
 40
-0.6
 41
30.0
 62
     5
 63
     7
421
 16777215
 74
     1
 91
        4
 64
     7
 65
   257
 75
     1
175
     1
 42
1.0
 92
        0
 66
   257
 43
1.0
 76
     1
 77
     6
 78
     2
 67
     7
 79
     5
170
     0
171
     0
290
     0
174
     0
 93
       13
 44
0.0
173
     0
291
     1
 45
0.0
  0
VISUALSTYLE
  5
38
102
{ACAD_REACTORS
330
2A
102
}
102
{ACAD_XDICTIONARY
360
E3
102
}
330
2A
100
AcDbVisualStyle
  2
Linepattern
 70
    14
 71
     2
 72
     2
 73
     0
 90
        0
 40
-0.6
 41
-30.0
 62
     5
 63
     7
421
 16777215
 74
     1
 91
        4
 64
     7
 65
   257
 75
     7
175
     7
 42
1.0
 92
        8
 66
     7
 43
1.0
 76
     1
 77
     6
 78
     2
 67
     7
 79
     5
170
     0
171
     0
290
     0
174
     0
 93
        1
 44
0.0
173
     0
291
     1
 45
0.0
  0
VISUALSTYLE
  5
33
102
{ACAD_REACTORS
330
2A
102
}
102
{ACAD_XDICTIONARY
360
D9
102
}
330
2A
100
AcDbVisualStyle
  2
Realistic
 70
     8
 71
     2
 72
     2
 73
     0
 90
        0
 40
-0.6
 41
-30.0
 62
     5
 63
     7
421
 16777215
 74
     1
 91
        0
 64
     7
 65
   257
 75
     1
175
     1
 42
1.0
 92
        8
 66
     8
424
  7895160
 43
1.0
 76
     1
 77
     6
 78
     2
 67
     7
 79
     5
170
     0
171
     0
290
     0
174
     0
 93
       13
 44
0.0
173
     0
291
     0
 45
0.0
  0
VISUALSTYLE
  5
37
102
{ACAD_REACTORS
330
2A
102
}
102
{ACAD_XDICTIONARY
360
E1
102
}
330
2A
100
AcDbVisualStyle
  2
Thicken
 70
    13
 71
     2
 72
     2
 73
     0
 90
        0
 40
-0.6
 41
-30.0
 62
     5
 63
     7
421
 16777215
 74
     1
 91
        4
 64
     7
 65
   257
 75
     1
175
     1
 42
1.0
 92
       12
 66
     7
 43
1.0
 76
     1
 77
     6
 78
     2
 67
     7
 79
     5
170
     0
171
     0
290
     0
174
     0
 93
        1
 44
0.0
173
     0
291
     1
 45
0.0
  0
DICTIONARY
  5
D1
330
2F
100
AcDbDictionary
280
     1
281
     1
  3
ACAD_XREC_ROUNDTRIP
360
D2
  0
DICTIONARY
  5
D5
330
31
100
AcDbDictionary
280
     1
281
     1
  3
ACAD_XREC_ROUNDTRIP
360
D6
  0
DICTIONARY
  5
D3
330
30
100
AcDbDictionary
280
     1
281
     1
  3
ACAD_XREC_ROUNDTRIP
360
D4
  0
DICTIONARY
  5
D7
330
32
100
AcDbDictionary
280
     1
281
     1
  3
ACAD_XREC_ROUNDTRIP
360
D8
  0
DICTIONARY
  5
DF
330
36
100
AcDbDictionary
280
     1
281
     1
  3
ACAD_XREC_ROUNDTRIP
360
E0
  0
DICTIONARY
  5
E7
330
3A
100
AcDbDictionary
280
     1
281
     1
  3
ACAD_XREC_ROUNDTRIP
360
E8
  0
DICTIONARY
  5
DB
330
34
100
AcDbDictionary
280
     1
281
     1
  3
ACAD_XREC_ROUNDTRIP
360
DC
  0
DICTIONARY
  5
DD
330
35
100
AcDbDictionary
280
     1
281
     1
  3
ACAD_XREC_ROUNDTRIP
360
DE
  0
DICTIONARY
  5
E5
330
39
100
AcDbDictionary
280
     1
281
     1
  3
ACAD_XREC_ROUNDTRIP
360
E6
  0
DICTIONARY
  5
C9
330
2B
100
AcDbDictionary
280
     1
281
     1
  3
ACAD_XREC_ROUNDTRIP
360
CA
  0
DICTIONARY
  5
CB
330
2C
100
AcDbDictionary
280
     1
281
     1
  3
ACAD_XREC_ROUNDTRIP
360
CC
  0
DICTIONARY
  5
CD
330
2D
100
AcDbDictionary
280
     1
281
     1
  3
ACAD_XREC_ROUNDTRIP
360
CE
  0
DICTIONARY
  5
CF
330
2E
100
AcDbDictionary
280
     1
281
     1
  3
ACAD_XREC_ROUNDTRIP
360
D0
  0
DICTIONARY
  5
E3
330
38
100
AcDbDictionary
280
     1
281
     1
  3
ACAD_XREC_ROUNDTRIP
360
E4
  0
DICTIONARY
  5
D9
330
33
100
AcDbDictionary
280
     1
281
     1
  3
ACAD_XREC_ROUNDTRIP
360
DA
  0
DICTIONARY
  5
E1
330
37
100
AcDbDictionary
280
     1
281
     1
  3
ACAD_XREC_ROUNDTRIP
360
E2
  0
XRECORD
  5
D2
102
{ACAD_REACTORS
330
D1
102
}
330
D1
100
AcDbXrecord
280
     1
102
RTVSPropertyOp0
 70
     1
102
RTVSPropertyOp1
 70
     1
102
RTVSPropertyOp2
 70
     1
102
RTVSPropertyOp3
 70
     1
102
RTVSPropertyOp4
 70
     1
102
RTVSPropertyOp5
 70
     1
102
RTVSPropertyOp6
 70
     1
102
RTVSPropertyOp7
 70
     1
102
RTVSPropertyOp8
 70
     1
102
RTVSPropertyOp9
 70
     1
102
RTVSPropertyOp10
 70
     1
102
RTVSPropertyOp11
 70
     1
102
RTVSPropertyOp12
 70
     1
102
RTVSPropertyOp13
 70
     1
102
RTVSPropertyOp14
 70
     1
102
RTVSPropertyOp15
 70
     1
102
RTVSPropertyOp16
 70
     1
102
RTVSPropertyOp17
 70
     1
102
RTVSPropertyOp18
 70
     1
102
RTVSPropertyOp19
 70
     1
102
RTVSPropertyOp20
 70
     1
102
RTVSPropertyOp21
 70
     1
102
RTVSPropertyOp22
 70
     1
102
RTVSPropertyOp23
 70
     1
102
RTVSPropertyOp24
 70
     1
102
RTVSPropertyOp25
 70
     1
102
RTVSPropertyOp26
 70
     1
102
RTVSPropertyOp27
 70
     1
102
RTVSPropertyOp28
 70
     1
102
RTVSPropertyOp29
 70
     1
102
RTVSPropertyOp30
 70
     1
102
RTVSPropertyOp31
 70
     1
102
RTVSPropertyOp32
 70
     1
  0
XRECORD
  5
D6
102
{ACAD_REACTORS
330
D5
102
}
330
D5
100
AcDbXrecord
280
     1
102
RTVSPropertyOp0
 70
     1
102
RTVSPropertyOp1
 70
     1
102
RTVSPropertyOp2
 70
     1
102
RTVSPropertyOp3
 70
     1
102
RTVSPropertyOp4
 70
     1
102
RTVSPropertyOp5
 70
     1
102
RTVSPropertyOp6
 70
     1
102
RTVSPropertyOp7
 70
     1
102
RTVSPropertyOp8
 70
     1
102
RTVSPropertyOp9
 70
     1
102
RTVSPropertyOp10
 70
     1
102
RTVSPropertyOp11
 70
     1
102
RTVSPropertyOp12
 70
     1
102
RTVSPropertyOp13
 70
     1
102
RTVSPropertyOp14
 70
     1
102
RTVSPropertyOp15
 70
     1
102
RTVSPropertyOp16
 70
     1
102
RTVSPropertyOp17
 70
     1
102
RTVSPropertyOp18
 70
     1
102
RTVSPropertyOp19
 70
     1
102
RTVSPropertyOp20
 70
     1
102
RTVSPropertyOp21
 70
     1
102
RTVSPropertyOp22
 70
     1
102
RTVSPropertyOp23
 70
     1
102
RTVSPropertyOp24
 70
     1
102
RTVSPropertyOp25
 70
     1
102
RTVSPropertyOp26
 70
     1
102
RTVSPropertyOp27
 70
     1
102
RTVSPropertyOp28
 70
     1
102
RTVSPropertyOp29
 70
     1
102
RTVSPropertyOp30
 70
     1
102
RTVSPropertyOp31
 70
     1
102
RTVSPropertyOp32
 70
     1
  0
XRECORD
  5
D4
102
{ACAD_REACTORS
330
D3
102
}
330
D3
100
AcDbXrecord
280
     1
102
RTVSPropertyOp0
 70
     1
102
RTVSPropertyOp1
 70
     1
102
RTVSPropertyOp2
 70
     1
102
RTVSPropertyOp3
 70
     1
102
RTVSPropertyOp4
 70
     1
102
RTVSPropertyOp5
 70
     1
102
RTVSPropertyOp6
 70
     1
102
RTVSPropertyOp7
 70
     1
102
RTVSPropertyOp8
 70
     1
102
RTVSPropertyOp9
 70
     1
102
RTVSPropertyOp10
 70
     1
102
RTVSPropertyOp11
 70
     1
102
RTVSPropertyOp12
 70
     1
102
RTVSPropertyOp13
 70
     1
102
RTVSPropertyOp14
 70
     1
102
RTVSPropertyOp15
 70
     1
102
RTVSPropertyOp16
 70
     1
102
RTVSPropertyOp17
 70
     1
102
RTVSPropertyOp18
 70
     1
102
RTVSPropertyOp19
 70
     1
102
RTVSPropertyOp20
 70
     1
102
RTVSPropertyOp21
 70
     1
102
RTVSPropertyOp22
 70
     1
102
RTVSPropertyOp23
 70
     1
102
RTVSPropertyOp24
 70
     1
102
RTVSPropertyOp25
 70
     1
102
RTVSPropertyOp26
 70
     1
102
RTVSPropertyOp27
 70
     1
102
RTVSPropertyOp28
 70
     1
102
RTVSPropertyOp29
 70
     1
102
RTVSPropertyOp30
 70
     1
102
RTVSPropertyOp31
 70
     1
102
RTVSPropertyOp32
 70
     1
  0
XRECORD
  5
D8
102
{ACAD_REACTORS
330
D7
102
}
330
D7
100
AcDbXrecord
280
     1
102
RTVSPropertyOp0
 70
     1
102
RTVSPropertyOp1
 70
     1
102
RTVSPropertyOp2
 70
     1
102
RTVSPropertyOp3
 70
     1
102
RTVSPropertyOp4
 70
     1
102
RTVSPropertyOp5
 70
     1
102
RTVSPropertyOp6
 70
     1
102
RTVSPropertyOp7
 70
     1
102
RTVSPropertyOp8
 70
     1
102
RTVSPropertyOp9
 70
     1
102
RTVSPropertyOp10
 70
     1
102
RTVSPropertyOp11
 70
     1
102
RTVSPropertyOp12
 70
     1
102
RTVSPropertyOp13
 70
     1
102
RTVSPropertyOp14
 70
     1
102
RTVSPropertyOp15
 70
     1
102
RTVSPropertyOp16
 70
     1
102
RTVSPropertyOp17
 70
     1
102
RTVSPropertyOp18
 70
     1
102
RTVSPropertyOp19
 70
     1
102
RTVSPropertyOp20
 70
     1
102
RTVSPropertyOp21
 70
     1
102
RTVSPropertyOp22
 70
     1
102
RTVSPropertyOp23
 70
     1
102
RTVSPropertyOp24
 70
     1
102
RTVSPropertyOp25
 70
     1
102
RTVSPropertyOp26
 70
     1
102
RTVSPropertyOp27
 70
     1
102
RTVSPropertyOp28
 70
     1
102
RTVSPropertyOp29
 70
     1
102
RTVSPropertyOp30
 70
     1
102
RTVSPropertyOp31
 70
     1
102
RTVSPropertyOp32
 70
     1
  0
XRECORD
  5
E0
102
{ACAD_REACTORS
330
DF
102
}
330
DF
100
AcDbXrecord
280
     1
102
RTVSPropertyOp0
 70
     1
102
RTVSPropertyOp1
 70
     1
102
RTVSPropertyOp2
 70
     1
102
RTVSPropertyOp3
 70
     1
102
RTVSPropertyOp4
 70
     1
102
RTVSPropertyOp5
 70
     1
102
RTVSPropertyOp6
 70
     1
102
RTVSPropertyOp7
 70
     1
102
RTVSPropertyOp8
 70
     1
102
RTVSPropertyOp9
 70
     1
102
RTVSPropertyOp10
 70
     1
102
RTVSPropertyOp11
 70
     1
102
RTVSPropertyOp12
 70
     1
102
RTVSPropertyOp13
 70
     1
102
RTVSPropertyOp14
 70
     1
102
RTVSPropertyOp15
 70
     1
102
RTVSPropertyOp16
 70
     1
102
RTVSPropertyOp17
 70
     1
102
RTVSPropertyOp18
 70
     1
102
RTVSPropertyOp19
 70
     1
102
RTVSPropertyOp20
 70
     1
102
RTVSPropertyOp21
 70
     1
102
RTVSPropertyOp22
 70
     1
102
RTVSPropertyOp23
 70
     1
102
RTVSPropertyOp24
 70
     1
102
RTVSPropertyOp25
 70
     1
102
RTVSPropertyOp26
 70
     1
102
RTVSPropertyOp27
 70
     1
102
RTVSPropertyOp28
 70
     1
102
RTVSPropertyOp29
 70
     1
102
RTVSPropertyOp30
 70
     1
102
RTVSPropertyOp31
 70
     1
102
RTVSPropertyOp32
 70
     1
  0
XRECORD
  5
E8
102
{ACAD_REACTORS
330
E7
102
}
330
E7
100
AcDbXrecord
280
     1
102
RTVSPropertyOp0
 70
     1
102
RTVSPropertyOp1
 70
     1
102
RTVSPropertyOp2
 70
     1
102
RTVSPropertyOp3
 70
     1
102
RTVSPropertyOp4
 70
     1
102
RTVSPropertyOp5
 70
     1
102
RTVSPropertyOp6
 70
     1
102
RTVSPropertyOp7
 70
     1
102
RTVSPropertyOp8
 70
     1
102
RTVSPropertyOp9
 70
     1
102
RTVSPropertyOp10
 70
     1
102
RTVSPropertyOp11
 70
     1
102
RTVSPropertyOp12
 70
     1
102
RTVSPropertyOp13
 70
     1
102
RTVSPropertyOp14
 70
     1
102
RTVSPropertyOp15
 70
     1
102
RTVSPropertyOp16
 70
     1
102
RTVSPropertyOp17
 70
     1
102
RTVSPropertyOp18
 70
     1
102
RTVSPropertyOp19
 70
     1
102
RTVSPropertyOp20
 70
     1
102
RTVSPropertyOp21
 70
     1
102
RTVSPropertyOp22
 70
     1
102
RTVSPropertyOp23
 70
     1
102
RTVSPropertyOp24
 70
     1
102
RTVSPropertyOp25
 70
     1
102
RTVSPropertyOp26
 70
     1
102
RTVSPropertyOp27
 70
     1
102
RTVSPropertyOp28
 70
     1
102
RTVSPropertyOp29
 70
     1
102
RTVSPropertyOp30
 70
     1
102
RTVSPropertyOp31
 70
     1
102
RTVSPropertyOp32
 70
     1
  0
XRECORD
  5
DC
102
{ACAD_REACTORS
330
DB
102
}
330
DB
100
AcDbXrecord
280
     1
102
RTVSPropertyOp0
 70
     1
102
RTVSPropertyOp1
 70
     1
102
RTVSPropertyOp2
 70
     1
102
RTVSPropertyOp3
 70
     1
102
RTVSPropertyOp4
 70
     1
102
RTVSPropertyOp5
 70
     1
102
RTVSPropertyOp6
 70
     1
102
RTVSPropertyOp7
 70
     1
102
RTVSPropertyOp8
 70
     1
102
RTVSPropertyOp9
 70
     1
102
RTVSPropertyOp10
 70
     1
102
RTVSPropertyOp11
 70
     1
102
RTVSPropertyOp12
 70
     1
102
RTVSPropertyOp13
 70
     1
102
RTVSPropertyOp14
 70
     1
102
RTVSPropertyOp15
 70
     1
102
RTVSPropertyOp16
 70
     1
102
RTVSPropertyOp17
 70
     1
102
RTVSPropertyOp18
 70
     1
102
RTVSPropertyOp19
 70
     1
102
RTVSPropertyOp20
 70
     1
102
RTVSPropertyOp21
 70
     1
102
RTVSPropertyOp22
 70
     1
102
RTVSPropertyOp23
 70
     1
102
RTVSPropertyOp24
 70
     1
102
RTVSPropertyOp25
 70
     1
102
RTVSPropertyOp26
 70
     1
102
RTVSPropertyOp27
 70
     1
102
RTVSPropertyOp28
 70
     1
102
RTVSPropertyOp29
 70
     1
102
RTVSPropertyOp30
 70
     1
102
RTVSPropertyOp31
 70
     1
102
RTVSPropertyOp32
 70
     1
  0
XRECORD
  5
DE
102
{ACAD_REACTORS
330
DD
102
}
330
DD
100
AcDbXrecord
280
     1
102
RTVSPropertyOp0
 70
     1
102
RTVSPropertyOp1
 70
     1
102
RTVSPropertyOp2
 70
     1
102
RTVSPropertyOp3
 70
     1
102
RTVSPropertyOp4
 70
     1
102
RTVSPropertyOp5
 70
     1
102
RTVSPropertyOp6
 70
     1
102
RTVSPropertyOp7
 70
     1
102
RTVSPropertyOp8
 70
     1
102
RTVSPropertyOp9
 70
     1
102
RTVSPropertyOp10
 70
     1
102
RTVSPropertyOp11
 70
     1
102
RTVSPropertyOp12
 70
     1
102
RTVSPropertyOp13
 70
     1
102
RTVSPropertyOp14
 70
     1
102
RTVSPropertyOp15
 70
     1
102
RTVSPropertyOp16
 70
     1
102
RTVSPropertyOp17
 70
     1
102
RTVSPropertyOp18
 70
     1
102
RTVSPropertyOp19
 70
     1
102
RTVSPropertyOp20
 70
     1
102
RTVSPropertyOp21
 70
     1
102
RTVSPropertyOp22
 70
     1
102
RTVSPropertyOp23
 70
     1
102
RTVSPropertyOp24
 70
     1
102
RTVSPropertyOp25
 70
     1
102
RTVSPropertyOp26
 70
     1
102
RTVSPropertyOp27
 70
     1
102
RTVSPropertyOp28
 70
     1
102
RTVSPropertyOp29
 70
     1
102
RTVSPropertyOp30
 70
     1
102
RTVSPropertyOp31
 70
     1
102
RTVSPropertyOp32
 70
     1
  0
XRECORD
  5
E6
102
{ACAD_REACTORS
330
E5
102
}
330
E5
100
AcDbXrecord
280
     1
102
RTVSPropertyOp0
 70
     1
102
RTVSPropertyOp1
 70
     1
102
RTVSPropertyOp2
 70
     1
102
RTVSPropertyOp3
 70
     1
102
RTVSPropertyOp4
 70
     1
102
RTVSPropertyOp5
 70
     1
102
RTVSPropertyOp6
 70
     1
102
RTVSPropertyOp7
 70
     1
102
RTVSPropertyOp8
 70
     1
102
RTVSPropertyOp9
 70
     1
102
RTVSPropertyOp10
 70
     1
102
RTVSPropertyOp11
 70
     1
102
RTVSPropertyOp12
 70
     1
102
RTVSPropertyOp13
 70
     1
102
RTVSPropertyOp14
 70
     1
102
RTVSPropertyOp15
 70
     1
102
RTVSPropertyOp16
 70
     1
102
RTVSPropertyOp17
 70
     1
102
RTVSPropertyOp18
 70
     1
102
RTVSPropertyOp19
 70
     1
102
RTVSPropertyOp20
 70
     1
102
RTVSPropertyOp21
 70
     1
102
RTVSPropertyOp22
 70
     1
102
RTVSPropertyOp23
 70
     1
102
RTVSPropertyOp24
 70
     1
102
RTVSPropertyOp25
 70
     1
102
RTVSPropertyOp26
 70
     1
102
RTVSPropertyOp27
 70
     1
102
RTVSPropertyOp28
 70
     1
102
RTVSPropertyOp29
 70
     1
102
RTVSPropertyOp30
 70
     1
102
RTVSPropertyOp31
 70
     1
102
RTVSPropertyOp32
 70
     1
  0
XRECORD
  5
CA
102
{ACAD_REACTORS
330
C9
102
}
330
C9
100
AcDbXrecord
280
     1
102
RTVSPropertyOp0
 70
     1
102
RTVSPropertyOp1
 70
     1
102
RTVSPropertyOp2
 70
     1
102
RTVSPropertyOp3
 70
     1
102
RTVSPropertyOp4
 70
     1
102
RTVSPropertyOp5
 70
     1
102
RTVSPropertyOp6
 70
     1
102
RTVSPropertyOp7
 70
     1
102
RTVSPropertyOp8
 70
     1
102
RTVSPropertyOp9
 70
     1
102
RTVSPropertyOp10
 70
     1
102
RTVSPropertyOp11
 70
     1
102
RTVSPropertyOp12
 70
     1
102
RTVSPropertyOp13
 70
     1
102
RTVSPropertyOp14
 70
     1
102
RTVSPropertyOp15
 70
     1
102
RTVSPropertyOp16
 70
     1
102
RTVSPropertyOp17
 70
     1
102
RTVSPropertyOp18
 70
     1
102
RTVSPropertyOp19
 70
     1
102
RTVSPropertyOp20
 70
     1
102
RTVSPropertyOp21
 70
     1
102
RTVSPropertyOp22
 70
     1
102
RTVSPropertyOp23
 70
     1
102
RTVSPropertyOp24
 70
     1
102
RTVSPropertyOp25
 70
     1
102
RTVSPropertyOp26
 70
     1
102
RTVSPropertyOp27
 70
     1
102
RTVSPropertyOp28
 70
     1
102
RTVSPropertyOp29
 70
     1
102
RTVSPropertyOp30
 70
     1
102
RTVSPropertyOp31
 70
     1
102
RTVSPropertyOp32
 70
     1
  0
XRECORD
  5
CC
102
{ACAD_REACTORS
330
CB
102
}
330
CB
100
AcDbXrecord
280
     1
102
RTVSPropertyOp0
 70
     1
102
RTVSPropertyOp1
 70
     1
102
RTVSPropertyOp2
 70
     1
102
RTVSPropertyOp3
 70
     1
102
RTVSPropertyOp4
 70
     1
102
RTVSPropertyOp5
 70
     1
102
RTVSPropertyOp6
 70
     1
102
RTVSPropertyOp7
 70
     1
102
RTVSPropertyOp8
 70
     1
102
RTVSPropertyOp9
 70
     1
102
RTVSPropertyOp10
 70
     1
102
RTVSPropertyOp11
 70
     1
102
RTVSPropertyOp12
 70
     1
102
RTVSPropertyOp13
 70
     1
102
RTVSPropertyOp14
 70
     1
102
RTVSPropertyOp15
 70
     1
102
RTVSPropertyOp16
 70
     1
102
RTVSPropertyOp17
 70
     1
102
RTVSPropertyOp18
 70
     1
102
RTVSPropertyOp19
 70
     1
102
RTVSPropertyOp20
 70
     1
102
RTVSPropertyOp21
 70
     1
102
RTVSPropertyOp22
 70
     1
102
RTVSPropertyOp23
 70
     1
102
RTVSPropertyOp24
 70
     1
102
RTVSPropertyOp25
 70
     1
102
RTVSPropertyOp26
 70
     1
102
RTVSPropertyOp27
 70
     1
102
RTVSPropertyOp28
 70
     1
102
RTVSPropertyOp29
 70
     1
102
RTVSPropertyOp30
 70
     1
102
RTVSPropertyOp31
 70
     1
102
RTVSPropertyOp32
 70
     1
  0
XRECORD
  5
CE
102
{ACAD_REACTORS
330
CD
102
}
330
CD
100
AcDbXrecord
280
     1
102
RTVSPropertyOp0
 70
     1
102
RTVSPropertyOp1
 70
     1
102
RTVSPropertyOp2
 70
     1
102
RTVSPropertyOp3
 70
     1
102
RTVSPropertyOp4
 70
     1
102
RTVSPropertyOp5
 70
     1
102
RTVSPropertyOp6
 70
     1
102
RTVSPropertyOp7
 70
     1
102
RTVSPropertyOp8
 70
     1
102
RTVSPropertyOp9
 70
     1
102
RTVSPropertyOp10
 70
     1
102
RTVSPropertyOp11
 70
     1
102
RTVSPropertyOp12
 70
     1
102
RTVSPropertyOp13
 70
     1
102
RTVSPropertyOp14
 70
     1
102
RTVSPropertyOp15
 70
     1
102
RTVSPropertyOp16
 70
     1
102
RTVSPropertyOp17
 70
     1
102
RTVSPropertyOp18
 70
     1
102
RTVSPropertyOp19
 70
     1
102
RTVSPropertyOp20
 70
     1
102
RTVSPropertyOp21
 70
     1
102
RTVSPropertyOp22
 70
     1
102
RTVSPropertyOp23
 70
     1
102
RTVSPropertyOp24
 70
     1
102
RTVSPropertyOp25
 70
     1
102
RTVSPropertyOp26
 70
     1
102
RTVSPropertyOp27
 70
     1
102
RTVSPropertyOp28
 70
     1
102
RTVSPropertyOp29
 70
     1
102
RTVSPropertyOp30
 70
     1
102
RTVSPropertyOp31
 70
     1
102
RTVSPropertyOp32
 70
     1
  0
XRECORD
  5
D0
102
{ACAD_REACTORS
330
CF
102
}
330
CF
100
AcDbXrecord
280
     1
102
RTVSPropertyOp0
 70
     1
102
RTVSPropertyOp1
 70
     1
102
RTVSPropertyOp2
 70
     1
102
RTVSPropertyOp3
 70
     1
102
RTVSPropertyOp4
 70
     1
102
RTVSPropertyOp5
 70
     1
102
RTVSPropertyOp6
 70
     1
102
RTVSPropertyOp7
 70
     1
102
RTVSPropertyOp8
 70
     1
102
RTVSPropertyOp9
 70
     1
102
RTVSPropertyOp10
 70
     1
102
RTVSPropertyOp11
 70
     1
102
RTVSPropertyOp12
 70
     1
102
RTVSPropertyOp13
 70
     1
102
RTVSPropertyOp14
 70
     1
102
RTVSPropertyOp15
 70
     1
102
RTVSPropertyOp16
 70
     1
102
RTVSPropertyOp17
 70
     1
102
RTVSPropertyOp18
 70
     1
102
RTVSPropertyOp19
 70
     1
102
RTVSPropertyOp20
 70
     1
102
RTVSPropertyOp21
 70
     1
102
RTVSPropertyOp22
 70
     1
102
RTVSPropertyOp23
 70
     1
102
RTVSPropertyOp24
 70
     1
102
RTVSPropertyOp25
 70
     1
102
RTVSPropertyOp26
 70
     1
102
RTVSPropertyOp27
 70
     1
102
RTVSPropertyOp28
 70
     1
102
RTVSPropertyOp29
 70
     1
102
RTVSPropertyOp30
 70
     1
102
RTVSPropertyOp31
 70
     1
102
RTVSPropertyOp32
 70
     1
  0
XRECORD
  5
E4
102
{ACAD_REACTORS
330
E3
102
}
330
E3
100
AcDbXrecord
280
     1
102
RTVSPropertyOp0
 70
     1
102
RTVSPropertyOp1
 70
     1
102
RTVSPropertyOp2
 70
     1
102
RTVSPropertyOp3
 70
     1
102
RTVSPropertyOp4
 70
     1
102
RTVSPropertyOp5
 70
     1
102
RTVSPropertyOp6
 70
     1
102
RTVSPropertyOp7
 70
     1
102
RTVSPropertyOp8
 70
     1
102
RTVSPropertyOp9
 70
     1
102
RTVSPropertyOp10
 70
     1
102
RTVSPropertyOp11
 70
     1
102
RTVSPropertyOp12
 70
     1
102
RTVSPropertyOp13
 70
     1
102
RTVSPropertyOp14
 70
     1
102
RTVSPropertyOp15
 70
     1
102
RTVSPropertyOp16
 70
     1
102
RTVSPropertyOp17
 70
     1
102
RTVSPropertyOp18
 70
     1
102
RTVSPropertyOp19
 70
     1
102
RTVSPropertyOp20
 70
     1
102
RTVSPropertyOp21
 70
     1
102
RTVSPropertyOp22
 70
     1
102
RTVSPropertyOp23
 70
     1
102
RTVSPropertyOp24
 70
     1
102
RTVSPropertyOp25
 70
     1
102
RTVSPropertyOp26
 70
     1
102
RTVSPropertyOp27
 70
     1
102
RTVSPropertyOp28
 70
     1
102
RTVSPropertyOp29
 70
     1
102
RTVSPropertyOp30
 70
     1
102
RTVSPropertyOp31
 70
     1
102
RTVSPropertyOp32
 70
     1
  0
XRECORD
  5
DA
102
{ACAD_REACTORS
330
D9
102
}
330
D9
100
AcDbXrecord
280
     1
102
RTVSPropertyOp0
 70
     1
102
RTVSPropertyOp1
 70
     1
102
RTVSPropertyOp2
 70
     1
102
RTVSPropertyOp3
 70
     1
102
RTVSPropertyOp4
 70
     1
102
RTVSPropertyOp5
 70
     1
102
RTVSPropertyOp6
 70
     1
102
RTVSPropertyOp7
 70
     1
102
RTVSPropertyOp8
 70
     1
102
RTVSPropertyOp9
 70
     1
102
RTVSPropertyOp10
 70
     1
102
RTVSPropertyOp11
 70
     1
102
RTVSPropertyOp12
 70
     1
102
RTVSPropertyOp13
 70
     1
102
RTVSPropertyOp14
 70
     1
102
RTVSPropertyOp15
 70
     1
102
RTVSPropertyOp16
 70
     1
102
RTVSPropertyOp17
 70
     1
102
RTVSPropertyOp18
 70
     1
102
RTVSPropertyOp19
 70
     1
102
RTVSPropertyOp20
 70
     1
102
RTVSPropertyOp21
 70
     1
102
RTVSPropertyOp22
 70
     1
102
RTVSPropertyOp23
 70
     1
102
RTVSPropertyOp24
 70
     1
102
RTVSPropertyOp25
 70
     1
102
RTVSPropertyOp26
 70
     1
102
RTVSPropertyOp27
 70
     1
102
RTVSPropertyOp28
 70
     1
102
RTVSPropertyOp29
 70
     1
102
RTVSPropertyOp30
 70
     1
102
RTVSPropertyOp31
 70
     1
102
RTVSPropertyOp32
 70
     1
  0
XRECORD
  5
E2
102
{ACAD_REACTORS
330
E1
102
}
330
E1
100
AcDbXrecord
280
     1
102
RTVSPropertyOp0
 70
     1
102
RTVSPropertyOp1
 70
     1
102
RTVSPropertyOp2
 70
     1
102
RTVSPropertyOp3
 70
     1
102
RTVSPropertyOp4
 70
     1
102
RTVSPropertyOp5
 70
     1
102
RTVSPropertyOp6
 70
     1
102
RTVSPropertyOp7
 70
     1
102
RTVSPropertyOp8
 70
     1
102
RTVSPropertyOp9
 70
     1
102
RTVSPropertyOp10
 70
     1
102
RTVSPropertyOp11
 70
     1
102
RTVSPropertyOp12
 70
     1
102
RTVSPropertyOp13
 70
     1
102
RTVSPropertyOp14
 70
     1
102
RTVSPropertyOp15
 70
     1
102
RTVSPropertyOp16
 70
     1
102
RTVSPropertyOp17
 70
     1
102
RTVSPropertyOp18
 70
     1
102
RTVSPropertyOp19
 70
     1
102
RTVSPropertyOp20
 70
     1
102
RTVSPropertyOp21
 70
     1
102
RTVSPropertyOp22
 70
     1
102
RTVSPropertyOp23
 70
     1
102
RTVSPropertyOp24
 70
     1
102
RTVSPropertyOp25
 70
     1
102
RTVSPropertyOp26
 70
     1
102
RTVSPropertyOp27
 70
     1
102
RTVSPropertyOp28
 70
     1
102
RTVSPropertyOp29
 70
     1
102
RTVSPropertyOp30
 70
     1
102
RTVSPropertyOp31
 70
     1
102
RTVSPropertyOp32
 70
     1
  0
ENDSEC
  0
EOF
