  0
SECTION
  2
HEADER
  9
$ACADVER
  1
AC1021
  9
$ACADMAINTVER
 70
    25
  9
$DWGCODEPAGE
  3
ANSI_1256
  9
$INSBASE
 10
0.0
 20
0.0
 30
0.0
  9
$EXTMIN
 10
49.2722
 20
-115.1008
 30
0.0
  9
$EXTMAX
 10
196.3941
 20
131.7093
 30
0.0
  9
$LIMMIN
 10
0.0
 20
0.0
  9
$LIMMAX
 10
12.0
 20
9.0
  9
$ORTHOMODE
 70
     0
  9
$REGENMODE
 70
     1
  9
$FILLMODE
 70
     1
  9
$QTEXTMODE
 70
     0
  9
$MIRRTEXT
 70
     1
  9
$LTSCALE
 40
1.0
  9
$ATTMODE
 70
     1
  9
$TEXTSIZE
 40
0.2
  9
$TRACEWID
 40
0.05
  9
$TEXTSTYLE
  7
Standard
  9
$CLAYER
  8
0
  9
$CELTYPE
  6
ByLayer
  9
$CECOLOR
 62
   256
  9
$CELTSCALE
 40
1.0
  9
$DISPSILH
 70
     0
  9
$DIMSCALE
 40
1.0
  9
$DIMASZ
 40
0.18
  9
$DIMEXO
 40
0.0625
  9
$DIMDLI
 40
0.38
  9
$DIMRND
 40
0.0
  9
$DIMDLE
 40
0.0
  9
$DIMEXE
 40
0.18
  9
$DIMTP
 40
0.0
  9
$DIMTM
 40
0.0
  9
$DIMTXT
 40
0.18
  9
$DIMCEN
 40
0.09
  9
$DIMTSZ
 40
0.0
  9
$DIMTOL
 70
     0
  9
$DIMLIM
 70
     0
  9
$DIMTIH
 70
     1
  9
$DIMTOH
 70
     1
  9
$DIMSE1
 70
     0
  9
$DIMSE2
 70
     0
  9
$DIMTAD
 70
     0
  9
$DIMZIN
 70
     0
  9
$DIMBLK
  1

  9
$DIMASO
 70
     1
  9
$DIMSHO
 70
     1
  9
$DIMPOST
  1

  9
$DIMAPOST
  1

  9
$DIMALT
 70
     0
  9
$DIMALTD
 70
     2
  9
$DIMALTF
 40
25.4
  9
$DIMLFAC
 40
1.0
  9
$DIMTOFL
 70
     0
  9
$DIMTVP
 40
0.0
  9
$DIMTIX
 70
     0
  9
$DIMSOXD
 70
     0
  9
$DIMSAH
 70
     0
  9
$DIMBLK1
  1

  9
$DIMBLK2
  1

  9
$DIMSTYLE
  2
Standard
  9
$DIMCLRD
 70
     0
  9
$DIMCLRE
 70
     0
  9
$DIMCLRT
 70
     0
  9
$DIMTFAC
 40
1.0
  9
$DIMGAP
 40
0.09
  9
$DIMJUST
 70
     0
  9
$DIMSD1
 70
     0
  9
$DIMSD2
 70
     0
  9
$DIMTOLJ
 70
     1
  9
$DIMTZIN
 70
     0
  9
$DIMALTZ
 70
     0
  9
$DIMALTTZ
 70
     0
  9
$DIMUPT
 70
     0
  9
$DIMDEC
 70
     4
  9
$DIMTDEC
 70
     4
  9
$DIMALTU
 70
     2
  9
$DIMALTTD
 70
     2
  9
$DIMTXSTY
  7
Standard
  9
$DIMAUNIT
 70
     0
  9
$DIMADEC
 70
     0
  9
$DIMALTRND
 40
0.0
  9
$DIMAZIN
 70
     0
  9
$DIMDSEP
 70
    46
  9
$DIMATFIT
 70
     3
  9
$DIMFRAC
 70
     0
  9
$DIMLDRBLK
  1

  9
$DIMLUNIT
 70
     2
  9
$DIMLWD
 70
    -2
  9
$DIMLWE
 70
    -2
  9
$DIMTMOVE
 70
     0
  9
$DIMFXL
 40
1.0
  9
$DIMFXLON
 70
     0
  9
$DIMJOGANG
 40
0.7853981633974483
  9
$DIMTFILL
 70
     0
  9
$DIMTFILLCLR
 70
     0
  9
$DIMARCSYM
 70
     0
  9
$DIMLTYPE
  6

  9
$DIMLTEX1
  6

  9
$DIMLTEX2
  6

  9
$LUNITS
 70
     2
  9
$LUPREC
 70
     4
  9
$SKETCHINC
 40
0.1
  9
$FILLETRAD
 40
0.5
  9
$AUNITS
 70
     0
  9
$AUPREC
 70
     0
  9
$MENU
  1
.
  9
$ELEVATION
 40
0.0
  9
$PELEVATION
 40
0.0
  9
$THICKNESS
 40
0.0
  9
$LIMCHECK
 70
     0
  9
$CHAMFERA
 40
0.5
  9
$CHAMFERB
 40
0.5
  9
$CHAMFERC
 40
1.0
  9
$CHAMFERD
 40
0.0
  9
$SKPOLY
 70
     0
  9
$TDCREATE
 40
2458492.936028762
  9
$TDUCREATE
 40
2458492.769362095
  9
$TDUPDATE
 40
2458492.936029514
  9
$TDUUPDATE
 40
2458492.769362847
  9
$TDINDWG
 40
0.0000000116
  9
$TDUSRTIMER
 40
0.0000000116
  9
$USRTIMER
 70
     1
  9
$ANGBASE
 50
0.0
  9
$ANGDIR
 70
     0
  9
$PDMODE
 70
     0
  9
$PDSIZE
 40
0.0
  9
$PLINEWID
 40
0.0
  9
$SPLFRAME
 70
     0
  9
$SPLINETYPE
 70
     6
  9
$SPLINESEGS
 70
     8
  9
$HANDSEED
  5
A4
  9
$SURFTAB1
 70
     6
  9
$SURFTAB2
 70
     6
  9
$SURFTYPE
 70
     6
  9
$SURFU
 70
     6
  9
$SURFV
 70
     6
  9
$UCSBASE
  2

  9
$UCSNAME
  2

  9
$UCSORG
 10
0.0
 20
0.0
 30
0.0
  9
$UCSXDIR
 10
1.0
 20
0.0
 30
0.0
  9
$UCSYDIR
 10
0.0
 20
1.0
 30
0.0
  9
$UCSORTHOREF
  2

  9
$UCSORTHOVIEW
 70
     0
  9
$UCSORGTOP
 10
0.0
 20
0.0
 30
0.0
  9
$UCSORGBOTTOM
 10
0.0
 20
0.0
 30
0.0
  9
$UCSORGLEFT
 10
0.0
 20
0.0
 30
0.0
  9
$UCSORGRIGHT
 10
0.0
 20
0.0
 30
0.0
  9
$UCSORGFRONT
 10
0.0
 20
0.0
 30
0.0
  9
$UCSORGBACK
 10
0.0
 20
0.0
 30
0.0
  9
$PUCSBASE
  2

  9
$PUCSNAME
  2

  9
$PUCSORG
 10
0.0
 20
0.0
 30
0.0
  9
$PUCSXDIR
 10
1.0
 20
0.0
 30
0.0
  9
$PUCSYDIR
 10
0.0
 20
1.0
 30
0.0
  9
$PUCSORTHOREF
  2

  9
$PUCSORTHOVIEW
 70
     0
  9
$PUCSORGTOP
 10
0.0
 20
0.0
 30
0.0
  9
$PUCSORGBOTTOM
 10
0.0
 20
0.0
 30
0.0
  9
$PUCSORGLEFT
 10
0.0
 20
0.0
 30
0.0
  9
$PUCSORGRIGHT
 10
0.0
 20
0.0
 30
0.0
  9
$PUCSORGFRONT
 10
0.0
 20
0.0
 30
0.0
  9
$PUCSORGBACK
 10
0.0
 20
0.0
 30
0.0
  9
$USERI1
 70
     0
  9
$USERI2
 70
     0
  9
$USERI3
 70
     0
  9
$USERI4
 70
     0
  9
$USERI5
 70
     0
  9
$USERR1
 40
0.0
  9
$USERR2
 40
0.0
  9
$USERR3
 40
0.0
  9
$USERR4
 40
0.0
  9
$USERR5
 40
0.0
  9
$WORLDVIEW
 70
     1
  9
$SHADEDGE
 70
     3
  9
$SHADEDIF
 70
    70
  9
$TILEMODE
 70
     1
  9
$MAXACTVP
 70
    64
  9
$PINSBASE
 10
0.0
 20
0.0
 30
0.0
  9
$PLIMCHECK
 70
     0
  9
$PEXTMIN
 10
1.000000000000000E+20
 20
1.000000000000000E+20
 30
1.000000000000000E+20
  9
$PEXTMAX
 10
-1.000000000000000E+20
 20
-1.000000000000000E+20
 30
-1.000000000000000E+20
  9
$PLIMMIN
 10
0.0
 20
0.0
  9
$PLIMMAX
 10
12.0
 20
9.0
  9
$UNITMODE
 70
     0
  9
$VISRETAIN
 70
     1
  9
$PLINEGEN
 70
     0
  9
$PSLTSCALE
 70
     1
  9
$TREEDEPTH
 70
  3020
  9
$CMLSTYLE
  2
Standard
  9
$CMLJUST
 70
     0
  9
$CMLSCALE
 40
1.0
  9
$PROXYGRAPHICS
 70
     1
  9
$MEASUREMENT
 70
     0
  9
$CELWEIGHT
370
    -1
  9
$ENDCAPS
280
     0
  9
$JOINSTYLE
280
     0
  9
$LWDISPLAY
290
     0
  9
$INSUNITS
 70
     4
  9
$HYPERLINKBASE
  1

  9
$STYLESHEET
  1

  9
$XEDIT
290
     1
  9
$CEPSNTYPE
380
     0
  9
$PSTYLEMODE
290
     1
  9
$FINGERPRINTGUID
  2
{1945DA93-B6BE-493F-8C4E-49D80D9A7D40}
  9
$VERSIONGUID
  2
{FAEB1C32-E019-11D5-929B-00C0DF256EC4}
  9
$EXTNAMES
290
     1
  9
$PSVPSCALE
 40
0.0
  9
$OLESTARTUP
290
     0
  9
$SORTENTS
280
   127
  9
$INDEXCTL
280
     0
  9
$HIDETEXT
280
     1
  9
$XCLIPFRAME
290
     0
  9
$HALOGAP
280
     0
  9
$OBSCOLOR
 70
   257
  9
$OBSLTYPE
280
     0
  9
$INTERSECTIONDISPLAY
280
     0
  9
$INTERSECTIONCOLOR
 70
   257
  9
$DIMASSOC
280
     2
  9
$PROJECTNAME
  1

  9
$CAMERADISPLAY
290
     0
  9
$LENSLENGTH
 40
50.0
  9
$CAMERAHEIGHT
 40
0.0
  9
$STEPSPERSEC
 40
2.0
  9
$STEPSIZE
 40
6.0
  9
$3DDWFPREC
 40
2.0
  9
$PSOLWIDTH
 40
0.25
  9
$PSOLHEIGHT
 40
4.0
  9
$LOFTANG1
 40
1.570796326794897
  9
$LOFTANG2
 40
1.570796326794897
  9
$LOFTMAG1
 40
0.0
  9
$LOFTMAG2
 40
0.0
  9
$LOFTPARAM
 70
     7
  9
$LOFTNORMALS
280
     1
  9
$LATITUDE
 40
37.795
  9
$LONGITUDE
 40
-122.394
  9
$NORTHDIRECTION
 40
0.0
  9
$TIMEZONE
 70
 -8000
  9
$LIGHTGLYPHDISPLAY
280
     1
  9
$TILEMODELIGHTSYNCH
280
     1
  9
$SOLIDHIST
280
     1
  9
$SHOWHIST
280
     1
  9
$DWFFRAME
280
     2
  9
$DGNFRAME
280
     2
  9
$REALWORLDSCALE
290
     1
  9
$INTERFERECOLOR
 62
   256
  9
$CSHADOW
280
     0
  9
$SHADOWPLANELOCATION
 40
0.0
  0
ENDSEC
  0
SECTION
  2
CLASSES
  0
CLASS
  1
ACDBDICTIONARYWDFLT
  2
AcDbDictionaryWithDefault
  3
ObjectDBX Classes
 90
        0
 91
        4
280
     0
281
     0
  0
CLASS
  1
VISUALSTYLE
  2
AcDbVisualStyle
  3
ObjectDBX Classes
 90
     4095
 91
        4
280
     0
281
     0
  0
CLASS
  1
MATERIAL
  2
AcDbMaterial
  3
ObjectDBX Classes
 90
     1153
 91
        4
280
     0
281
     0
  0
ENDSEC
  0
SECTION
  2
TABLES
  0
TABLE
  2
VPORT
  5
8
330
0
100
AcDbSymbolTable
 70
     1
  0
VPORT
  5
29
330
8
100
AcDbSymbolTableRecord
100
AcDbViewportTableRecord
  2
*Active
 70
     0
 10
0.0
 20
0.0
 11
1.0
 21
1.0
 12
10.42990654205607
 22
4.5
 13
0.0
 23
0.0
 14
0.5
 24
0.5
 15
0.5
 25
0.5
 16
0.0
 26
0.0
 36
1.0
 17
0.0
 27
0.0
 37
0.0
 40
9.0
 41
1.972972972850329
 42
50.0
 43
0.0
 44
0.0
 50
0.0
 51
0.0
 71
     0
 72
   100
 73
     1
 74
     3
 75
     0
 76
     0
 77
     0
 78
     0
281
     0
 65
     1
110
0.0
120
0.0
130
0.0
111
1.0
121
0.0
131
0.0
112
0.0
122
1.0
132
0.0
 79
     0
146
0.0
 60
     3
 61
     5
292
     1
282
     1
141
0.0
142
0.0
 63
   250
  0
ENDTAB
  0
TABLE
  2
LTYPE
  5
5
330
0
100
AcDbSymbolTable
 70
     1
  0
LTYPE
  5
14
330
5
100
AcDbSymbolTableRecord
100
AcDbLinetypeTableRecord
  2
ByBlock
 70
     0
  3

 72
    65
 73
     0
 40
0.0
  0
LTYPE
  5
15
330
5
100
AcDbSymbolTableRecord
100
AcDbLinetypeTableRecord
  2
ByLayer
 70
     0
  3

 72
    65
 73
     0
 40
0.0
  0
LTYPE
  5
16
330
5
100
AcDbSymbolTableRecord
100
AcDbLinetypeTableRecord
  2
Continuous
 70
     0
  3
Solid line
 72
    65
 73
     0
 40
0.0
  0
ENDTAB
  0
TABLE
  2
LAYER
  5
2
330
0
100
AcDbSymbolTable
 70
     2
  0
LAYER
  5
10
330
2
100
AcDbSymbolTableRecord
100
AcDbLayerTableRecord
  2
0
 70
     0
 62
     7
  6
Continuous
370
    -3
390
F
347
3E
  0
LAYER
  5
40
330
2
100
AcDbSymbolTableRecord
100
AcDbLayerTableRecord
  2
layer 1
 70
     0
 62
     7
  6
Continuous
370
    -3
390
F
347
3E
  0
ENDTAB
  0
TABLE
  2
STYLE
  5
3
330
0
100
AcDbSymbolTable
 70
     1
  0
STYLE
  5
11
330
3
100
AcDbSymbolTableRecord
100
AcDbTextStyleTableRecord
  2
Standard
 70
     0
 40
0.0
 41
1.0
 50
0.0
 71
     0
 42
0.2
  3
txt
  4

  0
ENDTAB
  0
TABLE
  2
VIEW
  5
6
330
0
100
AcDbSymbolTable
 70
     0
  0
ENDTAB
  0
TABLE
  2
UCS
  5
7
330
0
100
AcDbSymbolTable
 70
     0
  0
ENDTAB
  0
TABLE
  2
APPID
  5
9
330
0
100
AcDbSymbolTable
 70
     2
  0
APPID
  5
12
330
9
100
AcDbSymbolTableRecord
100
AcDbRegAppTableRecord
  2
ACAD
 70
     0
  0
APPID
  5
3F
330
9
100
AcDbSymbolTableRecord
100
AcDbRegAppTableRecord
  2
ODA
 70
     0
  0
ENDTAB
  0
TABLE
  2
DIMSTYLE
  5
A
330
0
100
AcDbSymbolTable
 70
     1
100
AcDbDimStyleTable
  0
DIMSTYLE
105
27
330
A
100
AcDbSymbolTableRecord
100
AcDbDimStyleTableRecord
  2
Standard
 70
     0
178
     0
340
11
  0
ENDTAB
  0
TABLE
  2
BLOCK_RECORD
  5
1
330
0
100
AcDbSymbolTable
 70
     1
  0
BLOCK_RECORD
  5
1F
330
1
100
AcDbSymbolTableRecord
100
AcDbBlockTableRecord
  2
*Model_Space
340
22
 70
     0
280
     1
281
     0
  0
BLOCK_RECORD
  5
1B
330
1
100
AcDbSymbolTableRecord
100
AcDbBlockTableRecord
  2
*Paper_Space
340
1E
 70
     0
280
     1
281
     0
  0
BLOCK_RECORD
  5
23
330
1
100
AcDbSymbolTableRecord
100
AcDbBlockTableRecord
  2
*Paper_Space0
340
26
 70
     0
280
     1
281
     0
  0
ENDTAB
  0
ENDSEC
  0
SECTION
  2
BLOCKS
  0
BLOCK
  5
20
330
1F
100
AcDbEntity
  8
0
100
AcDbBlockBegin
  2
*Model_Space
 70
     0
 10
0.0
 20
0.0
 30
0.0
  3
*Model_Space
  1

  0
ENDBLK
  5
21
330
1F
100
AcDbEntity
  8
0
100
AcDbBlockEnd
  0
BLOCK
  5
1C
330
1B
100
AcDbEntity
 67
     1
  8
0
100
AcDbBlockBegin
  2
*Paper_Space
 70
     0
 10
0.0
 20
0.0
 30
0.0
  3
*Paper_Space
  1

  0
ENDBLK
  5
1D
330
1B
100
AcDbEntity
 67
     1
  8
0
100
AcDbBlockEnd
  0
BLOCK
  5
24
330
23
100
AcDbEntity
  8
0
100
AcDbBlockBegin
  2
*Paper_Space0
 70
     0
 10
0.0
 20
0.0
 30
0.0
  3
*Paper_Space0
  1

  0
ENDBLK
  5
25
330
23
100
AcDbEntity
  8
0
100
AcDbBlockEnd
  0
ENDSEC
  0
SECTION
  2
ENTITIES
  0
LWPOLYLINE
  5
41
330
1F
100
AcDbEntity
  8
layer 1
 62
   250
370
     9
100
AcDbPolyline
 90
        5
 70
     1
 43
0.0
 10
49.3103
 20
-115.0108
 10
196.3559
 20
-115.0108
 10
196.3559
 20
131.6712
 10
49.3103
 20
131.6712
 10
49.3103
 20
-115.0108
  0
SPLINE
  5
42
330
1F
100
AcDbEntity
  8
layer 1
 62
     7
370
    18
100
AcDbSpline
210
0.0
220
0.0
230
1.0
 70
    11
 71
     3
 72
   104
 73
   100
 74
     0
 42
0.0000000001
 43
0.0000000001
 12
1.0
 22
0.0
 32
0.0
 13
1.0
 23
0.0
 33
0.0
 40
0.0
 40
0.0
 40
0.0
 40
0.0
 40
0.0384615384615385
 40
0.0384615384615385
 40
0.0384615384615385
 40
0.0384615384615385
 40
0.0769230769230769
 40
0.0769230769230769
 40
0.0769230769230769
 40
0.0769230769230769
 40
0.1153846153846154
 40
0.1153846153846154
 40
0.1153846153846154
 40
0.1153846153846154
 40
0.1538461538461539
 40
0.1538461538461539
 40
0.1538461538461539
 40
0.1538461538461539
 40
0.1923076923076923
 40
0.1923076923076923
 40
0.1923076923076923
 40
0.1923076923076923
 40
0.2307692307692308
 40
0.2307692307692308
 40
0.2307692307692308
 40
0.2307692307692308
 40
0.2692307692307692
 40
0.2692307692307692
 40
0.2692307692307692
 40
0.2692307692307692
 40
0.3076923076923077
 40
0.3076923076923077
 40
0.3076923076923077
 40
0.3076923076923077
 40
0.3461538461538461
 40
0.3461538461538461
 40
0.3461538461538461
 40
0.3461538461538461
 40
0.3846153846153846
 40
0.3846153846153846
 40
0.3846153846153846
 40
0.3846153846153846
 40
0.4230769230769231
 40
0.4230769230769231
 40
0.4230769230769231
 40
0.4230769230769231
 40
0.4615384615384616
 40
0.4615384615384616
 40
0.4615384615384616
 40
0.4615384615384616
 40
0.5
 40
0.5
 40
0.5
 40
0.5
 40
0.5384615384615384
 40
0.5384615384615384
 40
0.5384615384615384
 40
0.5384615384615384
 40
0.5769230769230769
 40
0.5769230769230769
 40
0.5769230769230769
 40
0.5769230769230769
 40
0.6153846153846154
 40
0.6153846153846154
 40
0.6153846153846154
 40
0.6153846153846154
 40
0.6538461538461539
 40
0.6538461538461539
 40
0.6538461538461539
 40
0.6538461538461539
 40
0.6923076923076923
 40
0.6923076923076923
 40
0.6923076923076923
 40
0.6923076923076923
 40
0.7307692307692307
 40
0.7307692307692307
 40
0.7307692307692307
 40
0.7307692307692307
 40
0.7692307692307693
 40
0.7692307692307693
 40
0.7692307692307693
 40
0.7692307692307693
 40
0.8076923076923077
 40
0.8076923076923077
 40
0.8076923076923077
 40
0.8076923076923077
 40
0.8461538461538461
 40
0.8461538461538461
 40
0.8461538461538461
 40
0.8461538461538461
 40
0.8846153846153846
 40
0.8846153846153846
 40
0.8846153846153846
 40
0.8846153846153846
 40
0.9230769230769231
 40
0.9230769230769231
 40
0.9230769230769231
 40
0.9230769230769231
 40
1.0
 40
1.0
 40
1.0
 40
1.0
 10
120.3766
 20
101.7004
 30
0.0
 10
119.4182
 20
104.294
 30
0.0
 10
116.5872
 20
105.4396
 30
0.0
 10
114.4055
 20
102.161
 30
0.0
 10
114.4055
 20
102.161
 30
0.0
 10
110.7475
 20
105.1062
 30
0.0
 10
115.8197
 20
108.5285
 30
0.0
 10
119.3131
 20
105.0198
 30
0.0
 10
119.3131
 20
105.0198
 30
0.0
 10
116.1059
 20
109.8301
 30
0.0
 10
113.0846
 20
108.4344
 30
0.0
 10
109.7218
 20
105.5751
 30
0.0
 10
109.7218
 20
105.5751
 30
0.0
 10
108.9911
 20
104.9538
 30
0.0
 10
107.9293
 20
103.9121
 30
0.0
 10
106.7013
 20
103.8919
 30
0.0
 10
106.7013
 20
103.8919
 30
0.0
 10
104.9019
 20
104.04
 30
0.0
 10
103.9589
 20
103.8197
 30
0.0
 10
102.5789
 20
103.9935
 30
0.0
 10
102.5789
 20
103.9935
 30
0.0
 10
104.5467
 20
104.8841
 30
0.0
 10
106.2338
 20
108.824
 30
0.0
 10
110.3067
 20
110.5791
 30
0.0
 10
110.3067
 20
110.5791
 30
0.0
 10
113.4341
 20
111.9267
 30
0.0
 10
119.2602
 20
108.8116
 30
0.0
 10
120.458
 20
105.8467
 30
0.0
 10
120.458
 20
105.8467
 30
0.0
 10
119.8267
 20
109.0823
 30
0.0
 10
117.5619
 20
111.3001
 30
0.0
 10
114.9897
 20
111.4341
 30
0.0
 10
114.9897
 20
111.4341
 30
0.0
 10
115.0825
 20
112.9291
 30
0.0
 10
113.2611
 20
114.162
 30
0.0
 10
110.8781
 20
113.5689
 30
0.0
 10
110.8781
 20
113.5689
 30
0.0
 10
112.6103
 20
117.2043
 30
0.0
 10
119.2551
 20
116.8735
 30
0.0
 10
120.8476
 20
110.5126
 30
0.0
 10
120.8476
 20
110.5126
 30
0.0
 10
120.9105
 20
113.2705
 30
0.0
 10
119.9596
 20
118.2159
 30
0.0
 10
119.0477
 20
120.2317
 30
0.0
 10
119.0477
 20
120.2317
 30
0.0
 10
120.6112
 20
122.2445
 30
0.0
 10
121.3232
 20
123.6163
 30
0.0
 10
122.0747
 20
125.6065
 30
0.0
 10
122.0747
 20
125.6065
 30
0.0
 10
122.826
 20
123.6163
 30
0.0
 10
123.6324
 20
122.2445
 30
0.0
 10
125.1958
 20
120.2317
 30
0.0
 10
125.1958
 20
120.2317
 30
0.0
 10
124.2839
 20
118.2159
 30
0.0
 10
123.3331
 20
113.2705
 30
0.0
 10
123.396
 20
110.5126
 30
0.0
 10
123.396
 20
110.5126
 30
0.0
 10
124.9884
 20
116.8735
 30
0.0
 10
131.6333
 20
117.2043
 30
0.0
 10
133.3654
 20
113.5689
 30
0.0
 10
133.3654
 20
113.5689
 30
0.0
 10
130.9825
 20
114.162
 30
0.0
 10
129.1611
 20
112.9291
 30
0.0
 10
129.2538
 20
111.4341
 30
0.0
 10
129.2538
 20
111.4341
 30
0.0
 10
126.6817
 20
111.3001
 30
0.0
 10
124.4169
 20
109.0823
 30
0.0
 10
123.7856
 20
105.8467
 30
0.0
 10
123.7856
 20
105.8467
 30
0.0
 10
124.9833
 20
108.8116
 30
0.0
 10
130.8095
 20
111.9267
 30
0.0
 10
133.9369
 20
110.5791
 30
0.0
 10
133.9369
 20
110.5791
 30
0.0
 10
138.0098
 20
108.824
 30
0.0
 10
139.6968
 20
104.8841
 30
0.0
 10
141.6647
 20
103.9935
 30
0.0
 10
141.6647
 20
103.9935
 30
0.0
 10
140.2846
 20
103.8197
 30
0.0
 10
139.3416
 20
104.04
 30
0.0
 10
137.5423
 20
103.8919
 30
0.0
 10
137.5423
 20
103.8919
 30
0.0
 10
136.3143
 20
103.9121
 30
0.0
 10
135.2524
 20
104.9538
 30
0.0
 10
134.5217
 20
105.5751
 30
0.0
 10
134.5217
 20
105.5751
 30
0.0
 10
131.159
 20
108.4344
 30
0.0
 10
128.1377
 20
109.8301
 30
0.0
 10
124.9305
 20
105.0198
 30
0.0
 10
124.9305
 20
105.0198
 30
0.0
 10
128.4239
 20
108.5285
 30
0.0
 10
133.4961
 20
105.1062
 30
0.0
 10
129.838
 20
102.161
 30
0.0
 10
129.838
 20
102.161
 30
0.0
 10
127.6564
 20
105.4396
 30
0.0
 10
124.8254
 20
104.294
 30
0.0
 10
123.8669
 20
101.7004
 30
0.0
 10
123.8669
 20
101.7004
 30
0.0
 10
123.8669
 20
101.7004
 30
0.0
 10
120.3766
 20
101.7004
 30
0.0
 10
120.3766
 20
101.7004
 30
0.0
  0
ELLIPSE
  5
43
330
1F
100
AcDbEntity
  8
layer 1
 62
   250
370
    18
100
AcDbEllipse
 10
122.0671
 20
97.8938
 30
0.0
 11
3.8528
 21
0.0
 31
0.0
210
0.0
220
0.0
230
1.0
 40
0.5459406146179403
 41
0.0
 42
6.283185307179586
  0
SPLINE
  5
44
330
1F
100
AcDbEntity
  8
layer 1
 62
     7
370
    18
100
AcDbSpline
210
0.0
220
0.0
230
1.0
 70
    11
 71
     3
 72
   104
 73
   100
 74
     0
 42
0.0000000001
 43
0.0000000001
 12
1.0
 22
0.0
 32
0.0
 13
1.0
 23
0.0
 33
0.0
 40
0.0
 40
0.0
 40
0.0
 40
0.0
 40
0.0384615384615385
 40
0.0384615384615385
 40
0.0384615384615385
 40
0.0384615384615385
 40
0.0769230769230769
 40
0.0769230769230769
 40
0.0769230769230769
 40
0.0769230769230769
 40
0.1153846153846154
 40
0.1153846153846154
 40
0.1153846153846154
 40
0.1153846153846154
 40
0.1538461538461539
 40
0.1538461538461539
 40
0.1538461538461539
 40
0.1538461538461539
 40
0.1923076923076923
 40
0.1923076923076923
 40
0.1923076923076923
 40
0.1923076923076923
 40
0.2307692307692308
 40
0.2307692307692308
 40
0.2307692307692308
 40
0.2307692307692308
 40
0.2692307692307692
 40
0.2692307692307692
 40
0.2692307692307692
 40
0.2692307692307692
 40
0.3076923076923077
 40
0.3076923076923077
 40
0.3076923076923077
 40
0.3076923076923077
 40
0.3461538461538461
 40
0.3461538461538461
 40
0.3461538461538461
 40
0.3461538461538461
 40
0.3846153846153846
 40
0.3846153846153846
 40
0.3846153846153846
 40
0.3846153846153846
 40
0.4230769230769231
 40
0.4230769230769231
 40
0.4230769230769231
 40
0.4230769230769231
 40
0.4615384615384616
 40
0.4615384615384616
 40
0.4615384615384616
 40
0.4615384615384616
 40
0.5
 40
0.5
 40
0.5
 40
0.5
 40
0.5384615384615384
 40
0.5384615384615384
 40
0.5384615384615384
 40
0.5384615384615384
 40
0.5769230769230769
 40
0.5769230769230769
 40
0.5769230769230769
 40
0.5769230769230769
 40
0.6153846153846154
 40
0.6153846153846154
 40
0.6153846153846154
 40
0.6153846153846154
 40
0.6538461538461539
 40
0.6538461538461539
 40
0.6538461538461539
 40
0.6538461538461539
 40
0.6923076923076923
 40
0.6923076923076923
 40
0.6923076923076923
 40
0.6923076923076923
 40
0.7307692307692307
 40
0.7307692307692307
 40
0.7307692307692307
 40
0.7307692307692307
 40
0.7692307692307693
 40
0.7692307692307693
 40
0.7692307692307693
 40
0.7692307692307693
 40
0.8076923076923077
 40
0.8076923076923077
 40
0.8076923076923077
 40
0.8076923076923077
 40
0.8461538461538461
 40
0.8461538461538461
 40
0.8461538461538461
 40
0.8461538461538461
 40
0.8846153846153846
 40
0.8846153846153846
 40
0.8846153846153846
 40
0.8846153846153846
 40
0.9230769230769231
 40
0.9230769230769231
 40
0.9230769230769231
 40
0.9230769230769231
 40
1.0
 40
1.0
 40
1.0
 40
1.0
 10
75.2571
 20
101.7004
 30
0.0
 10
74.2986
 20
104.294
 30
0.0
 10
71.4676
 20
105.4396
 30
0.0
 10
69.286
 20
102.161
 30
0.0
 10
69.286
 20
102.161
 30
0.0
 10
65.6279
 20
105.1062
 30
0.0
 10
70.7001
 20
108.5285
 30
0.0
 10
74.1935
 20
105.0198
 30
0.0
 10
74.1935
 20
105.0198
 30
0.0
 10
70.9863
 20
109.8301
 30
0.0
 10
67.9651
 20
108.4344
 30
0.0
 10
64.6023
 20
105.5751
 30
0.0
 10
64.6023
 20
105.5751
 30
0.0
 10
63.8716
 20
104.9538
 30
0.0
 10
62.8097
 20
103.9121
 30
0.0
 10
61.5817
 20
103.8919
 30
0.0
 10
61.5817
 20
103.8919
 30
0.0
 10
59.7824
 20
104.04
 30
0.0
 10
58.8394
 20
103.8197
 30
0.0
 10
57.4593
 20
103.9935
 30
0.0
 10
57.4593
 20
103.9935
 30
0.0
 10
59.4272
 20
104.8841
 30
0.0
 10
61.1143
 20
108.824
 30
0.0
 10
65.1871
 20
110.5791
 30
0.0
 10
65.1871
 20
110.5791
 30
0.0
 10
68.3146
 20
111.9267
 30
0.0
 10
74.1407
 20
108.8116
 30
0.0
 10
75.3385
 20
105.8467
 30
0.0
 10
75.3385
 20
105.8467
 30
0.0
 10
74.7072
 20
109.0823
 30
0.0
 10
72.4423
 20
111.3001
 30
0.0
 10
69.8702
 20
111.4341
 30
0.0
 10
69.8702
 20
111.4341
 30
0.0
 10
69.9629
 20
112.9291
 30
0.0
 10
68.1416
 20
114.162
 30
0.0
 10
65.7586
 20
113.5689
 30
0.0
 10
65.7586
 20
113.5689
 30
0.0
 10
67.4907
 20
117.2043
 30
0.0
 10
74.1356
 20
116.8735
 30
0.0
 10
75.728
 20
110.5126
 30
0.0
 10
75.728
 20
110.5126
 30
0.0
 10
75.791
 20
113.2705
 30
0.0
 10
74.8401
 20
118.2159
 30
0.0
 10
73.9282
 20
120.2317
 30
0.0
 10
73.9282
 20
120.2317
 30
0.0
 10
75.4916
 20
122.2445
 30
0.0
 10
76.2037
 20
123.6163
 30
0.0
 10
76.9551
 20
125.6065
 30
0.0
 10
76.9551
 20
125.6065
 30
0.0
 10
77.7065
 20
123.6163
 30
0.0
 10
78.5129
 20
122.2445
 30
0.0
 10
80.0763
 20
120.2317
 30
0.0
 10
80.0763
 20
120.2317
 30
0.0
 10
79.1644
 20
118.2159
 30
0.0
 10
78.2135
 20
113.2705
 30
0.0
 10
78.2764
 20
110.5126
 30
0.0
 10
78.2764
 20
110.5126
 30
0.0
 10
79.8689
 20
116.8735
 30
0.0
 10
86.5138
 20
117.2043
 30
0.0
 10
88.2459
 20
113.5689
 30
0.0
 10
88.2459
 20
113.5689
 30
0.0
 10
85.8629
 20
114.162
 30
0.0
 10
84.0415
 20
112.9291
 30
0.0
 10
84.1343
 20
111.4341
 30
0.0
 10
84.1343
 20
111.4341
 30
0.0
 10
81.5621
 20
111.3001
 30
0.0
 10
79.2973
 20
109.0823
 30
0.0
 10
78.666
 20
105.8467
 30
0.0
 10
78.666
 20
105.8467
 30
0.0
 10
79.8638
 20
108.8116
 30
0.0
 10
85.6899
 20
111.9267
 30
0.0
 10
88.8174
 20
110.5791
 30
0.0
 10
88.8174
 20
110.5791
 30
0.0
 10
92.8902
 20
108.824
 30
0.0
 10
94.5773
 20
104.8841
 30
0.0
 10
96.5451
 20
103.9935
 30
0.0
 10
96.5451
 20
103.9935
 30
0.0
 10
95.1651
 20
103.8197
 30
0.0
 10
94.2221
 20
104.04
 30
0.0
 10
92.4227
 20
103.8919
 30
0.0
 10
92.4227
 20
103.8919
 30
0.0
 10
91.1948
 20
103.9121
 30
0.0
 10
90.1329
 20
104.9538
 30
0.0
 10
89.4022
 20
105.5751
 30
0.0
 10
89.4022
 20
105.5751
 30
0.0
 10
86.0394
 20
108.4344
 30
0.0
 10
83.0182
 20
109.8301
 30
0.0
 10
79.8109
 20
105.0198
 30
0.0
 10
79.8109
 20
105.0198
 30
0.0
 10
83.3043
 20
108.5285
 30
0.0
 10
88.3765
 20
105.1062
 30
0.0
 10
84.7185
 20
102.161
 30
0.0
 10
84.7185
 20
102.161
 30
0.0
 10
82.5368
 20
105.4396
 30
0.0
 10
79.7058
 20
104.294
 30
0.0
 10
78.7474
 20
101.7004
 30
0.0
 10
78.7474
 20
101.7004
 30
0.0
 10
78.7474
 20
101.7004
 30
0.0
 10
75.2571
 20
101.7004
 30
0.0
 10
75.2571
 20
101.7004
 30
0.0
  0
ELLIPSE
  5
45
330
1F
100
AcDbEntity
  8
layer 1
 62
   250
370
    18
100
AcDbEllipse
 10
76.9476
 20
97.8938
 30
0.0
 11
3.8528
 21
0.0
 31
0.0
210
0.0
220
0.0
230
1.0
 40
0.5459406146179403
 41
0.0
 42
6.283185307179586
  0
SPLINE
  5
46
330
1F
100
AcDbEntity
  8
layer 1
 62
     7
370
    18
100
AcDbSpline
210
0.0
220
0.0
230
1.0
 70
    11
 71
     3
 72
   104
 73
   100
 74
     0
 42
0.0000000001
 43
0.0000000001
 12
1.0
 22
0.0
 32
0.0
 13
1.0
 23
0.0
 33
0.0
 40
0.0
 40
0.0
 40
0.0
 40
0.0
 40
0.0384615384615385
 40
0.0384615384615385
 40
0.0384615384615385
 40
0.0384615384615385
 40
0.0769230769230769
 40
0.0769230769230769
 40
0.0769230769230769
 40
0.0769230769230769
 40
0.1153846153846154
 40
0.1153846153846154
 40
0.1153846153846154
 40
0.1153846153846154
 40
0.1538461538461539
 40
0.1538461538461539
 40
0.1538461538461539
 40
0.1538461538461539
 40
0.1923076923076923
 40
0.1923076923076923
 40
0.1923076923076923
 40
0.1923076923076923
 40
0.2307692307692308
 40
0.2307692307692308
 40
0.2307692307692308
 40
0.2307692307692308
 40
0.2692307692307692
 40
0.2692307692307692
 40
0.2692307692307692
 40
0.2692307692307692
 40
0.3076923076923077
 40
0.3076923076923077
 40
0.3076923076923077
 40
0.3076923076923077
 40
0.3461538461538461
 40
0.3461538461538461
 40
0.3461538461538461
 40
0.3461538461538461
 40
0.3846153846153846
 40
0.3846153846153846
 40
0.3846153846153846
 40
0.3846153846153846
 40
0.4230769230769231
 40
0.4230769230769231
 40
0.4230769230769231
 40
0.4230769230769231
 40
0.4615384615384616
 40
0.4615384615384616
 40
0.4615384615384616
 40
0.4615384615384616
 40
0.5
 40
0.5
 40
0.5
 40
0.5
 40
0.5384615384615384
 40
0.5384615384615384
 40
0.5384615384615384
 40
0.5384615384615384
 40
0.5769230769230769
 40
0.5769230769230769
 40
0.5769230769230769
 40
0.5769230769230769
 40
0.6153846153846154
 40
0.6153846153846154
 40
0.6153846153846154
 40
0.6153846153846154
 40
0.6538461538461539
 40
0.6538461538461539
 40
0.6538461538461539
 40
0.6538461538461539
 40
0.6923076923076923
 40
0.6923076923076923
 40
0.6923076923076923
 40
0.6923076923076923
 40
0.7307692307692307
 40
0.7307692307692307
 40
0.7307692307692307
 40
0.7307692307692307
 40
0.7692307692307693
 40
0.7692307692307693
 40
0.7692307692307693
 40
0.7692307692307693
 40
0.8076923076923077
 40
0.8076923076923077
 40
0.8076923076923077
 40
0.8076923076923077
 40
0.8461538461538461
 40
0.8461538461538461
 40
0.8461538461538461
 40
0.8461538461538461
 40
0.8846153846153846
 40
0.8846153846153846
 40
0.8846153846153846
 40
0.8846153846153846
 40
0.9230769230769231
 40
0.9230769230769231
 40
0.9230769230769231
 40
0.9230769230769231
 40
1.0
 40
1.0
 40
1.0
 40
1.0
 10
165.0927
 20
101.7004
 30
0.0
 10
164.1343
 20
104.294
 30
0.0
 10
161.3033
 20
105.4396
 30
0.0
 10
159.1216
 20
102.161
 30
0.0
 10
159.1216
 20
102.161
 30
0.0
 10
155.4636
 20
105.1062
 30
0.0
 10
160.5358
 20
108.5285
 30
0.0
 10
164.0292
 20
105.0198
 30
0.0
 10
164.0292
 20
105.0198
 30
0.0
 10
160.822
 20
109.8301
 30
0.0
 10
157.8007
 20
108.4344
 30
0.0
 10
154.4379
 20
105.5751
 30
0.0
 10
154.4379
 20
105.5751
 30
0.0
 10
153.7072
 20
104.9538
 30
0.0
 10
152.6454
 20
103.9121
 30
0.0
 10
151.4174
 20
103.8919
 30
0.0
 10
151.4174
 20
103.8919
 30
0.0
 10
149.618
 20
104.04
 30
0.0
 10
148.675
 20
103.8197
 30
0.0
 10
147.295
 20
103.9935
 30
0.0
 10
147.295
 20
103.9935
 30
0.0
 10
149.2628
 20
104.8841
 30
0.0
 10
150.9499
 20
108.824
 30
0.0
 10
155.0228
 20
110.5791
 30
0.0
 10
155.0228
 20
110.5791
 30
0.0
 10
158.1502
 20
111.9267
 30
0.0
 10
163.9763
 20
108.8116
 30
0.0
 10
165.1741
 20
105.8467
 30
0.0
 10
165.1741
 20
105.8467
 30
0.0
 10
164.5428
 20
109.0823
 30
0.0
 10
162.278
 20
111.3001
 30
0.0
 10
159.7058
 20
111.4341
 30
0.0
 10
159.7058
 20
111.4341
 30
0.0
 10
159.7986
 20
112.9291
 30
0.0
 10
157.9772
 20
114.162
 30
0.0
 10
155.5942
 20
113.5689
 30
0.0
 10
155.5942
 20
113.5689
 30
0.0
 10
157.3264
 20
117.2043
 30
0.0
 10
163.9712
 20
116.8735
 30
0.0
 10
165.5637
 20
110.5126
 30
0.0
 10
165.5637
 20
110.5126
 30
0.0
 10
165.6266
 20
113.2705
 30
0.0
 10
164.6757
 20
118.2159
 30
0.0
 10
163.7638
 20
120.2317
 30
0.0
 10
163.7638
 20
120.2317
 30
0.0
 10
165.3273
 20
122.2445
 30
0.0
 10
166.0393
 20
123.6163
 30
0.0
 10
166.7908
 20
125.6065
 30
0.0
 10
166.7908
 20
125.6065
 30
0.0
 10
167.5421
 20
123.6163
 30
0.0
 10
168.3485
 20
122.2445
 30
0.0
 10
169.9119
 20
120.2317
 30
0.0
 10
169.9119
 20
120.2317
 30
0.0
 10
169.0
 20
118.2159
 30
0.0
 10
168.0492
 20
113.2705
 30
0.0
 10
168.1121
 20
110.5126
 30
0.0
 10
168.1121
 20
110.5126
 30
0.0
 10
169.7045
 20
116.8735
 30
0.0
 10
176.3494
 20
117.2043
 30
0.0
 10
178.0815
 20
113.5689
 30
0.0
 10
178.0815
 20
113.5689
 30
0.0
 10
175.6986
 20
114.162
 30
0.0
 10
173.8772
 20
112.9291
 30
0.0
 10
173.9699
 20
111.4341
 30
0.0
 10
173.9699
 20
111.4341
 30
0.0
 10
171.3978
 20
111.3001
 30
0.0
 10
169.133
 20
109.0823
 30
0.0
 10
168.5017
 20
105.8467
 30
0.0
 10
168.5017
 20
105.8467
 30
0.0
 10
169.6994
 20
108.8116
 30
0.0
 10
175.5256
 20
111.9267
 30
0.0
 10
178.653
 20
110.5791
 30
0.0
 10
178.653
 20
110.5791
 30
0.0
 10
182.7259
 20
108.824
 30
0.0
 10
184.4129
 20
104.8841
 30
0.0
 10
186.3808
 20
103.9935
 30
0.0
 10
186.3808
 20
103.9935
 30
0.0
 10
185.0007
 20
103.8197
 30
0.0
 10
184.0577
 20
104.04
 30
0.0
 10
182.2584
 20
103.8919
 30
0.0
 10
182.2584
 20
103.8919
 30
0.0
 10
181.0304
 20
103.9121
 30
0.0
 10
179.9685
 20
104.9538
 30
0.0
 10
179.2378
 20
105.5751
 30
0.0
 10
179.2378
 20
105.5751
 30
0.0
 10
175.8751
 20
108.4344
 30
0.0
 10
172.8538
 20
109.8301
 30
0.0
 10
169.6466
 20
105.0198
 30
0.0
 10
169.6466
 20
105.0198
 30
0.0
 10
173.14
 20
108.5285
 30
0.0
 10
178.2122
 20
105.1062
 30
0.0
 10
174.5541
 20
102.161
 30
0.0
 10
174.5541
 20
102.161
 30
0.0
 10
172.3725
 20
105.4396
 30
0.0
 10
169.5415
 20
104.294
 30
0.0
 10
168.583
 20
101.7004
 30
0.0
 10
168.583
 20
101.7004
 30
0.0
 10
168.583
 20
101.7004
 30
0.0
 10
165.0927
 20
101.7004
 30
0.0
 10
165.0927
 20
101.7004
 30
0.0
  0
ELLIPSE
  5
47
330
1F
100
AcDbEntity
  8
layer 1
 62
   250
370
    18
100
AcDbEllipse
 10
166.7832
 20
97.8938
 30
0.0
 11
3.8528
 21
0.0
 31
0.0
210
0.0
220
0.0
230
1.0
 40
0.5459406146179403
 41
0.0
 42
6.283185307179586
  0
SPLINE
  5
48
330
1F
100
AcDbEntity
  8
layer 1
 62
     7
370
    18
100
AcDbSpline
210
0.0
220
0.0
230
1.0
 70
    11
 71
     3
 72
   104
 73
   100
 74
     0
 42
0.0000000001
 43
0.0000000001
 12
1.0
 22
0.0
 32
0.0
 13
1.0
 23
0.0
 33
0.0
 40
0.0
 40
0.0
 40
0.0
 40
0.0
 40
0.0384615384615385
 40
0.0384615384615385
 40
0.0384615384615385
 40
0.0384615384615385
 40
0.0769230769230769
 40
0.0769230769230769
 40
0.0769230769230769
 40
0.0769230769230769
 40
0.1153846153846154
 40
0.1153846153846154
 40
0.1153846153846154
 40
0.1153846153846154
 40
0.1538461538461539
 40
0.1538461538461539
 40
0.1538461538461539
 40
0.1538461538461539
 40
0.1923076923076923
 40
0.1923076923076923
 40
0.1923076923076923
 40
0.1923076923076923
 40
0.2307692307692308
 40
0.2307692307692308
 40
0.2307692307692308
 40
0.2307692307692308
 40
0.2692307692307692
 40
0.2692307692307692
 40
0.2692307692307692
 40
0.2692307692307692
 40
0.3076923076923077
 40
0.3076923076923077
 40
0.3076923076923077
 40
0.3076923076923077
 40
0.3461538461538461
 40
0.3461538461538461
 40
0.3461538461538461
 40
0.3461538461538461
 40
0.3846153846153846
 40
0.3846153846153846
 40
0.3846153846153846
 40
0.3846153846153846
 40
0.4230769230769231
 40
0.4230769230769231
 40
0.4230769230769231
 40
0.4230769230769231
 40
0.4615384615384616
 40
0.4615384615384616
 40
0.4615384615384616
 40
0.4615384615384616
 40
0.5
 40
0.5
 40
0.5
 40
0.5
 40
0.5384615384615384
 40
0.5384615384615384
 40
0.5384615384615384
 40
0.5384615384615384
 40
0.5769230769230769
 40
0.5769230769230769
 40
0.5769230769230769
 40
0.5769230769230769
 40
0.6153846153846154
 40
0.6153846153846154
 40
0.6153846153846154
 40
0.6153846153846154
 40
0.6538461538461539
 40
0.6538461538461539
 40
0.6538461538461539
 40
0.6538461538461539
 40
0.6923076923076923
 40
0.6923076923076923
 40
0.6923076923076923
 40
0.6923076923076923
 40
0.7307692307692307
 40
0.7307692307692307
 40
0.7307692307692307
 40
0.7307692307692307
 40
0.7692307692307693
 40
0.7692307692307693
 40
0.7692307692307693
 40
0.7692307692307693
 40
0.8076923076923077
 40
0.8076923076923077
 40
0.8076923076923077
 40
0.8076923076923077
 40
0.8461538461538461
 40
0.8461538461538461
 40
0.8461538461538461
 40
0.8461538461538461
 40
0.8846153846153846
 40
0.8846153846153846
 40
0.8846153846153846
 40
0.8846153846153846
 40
0.9230769230769231
 40
0.9230769230769231
 40
0.9230769230769231
 40
0.9230769230769231
 40
1.0
 40
1.0
 40
1.0
 40
1.0
 10
143.3583
 20
77.3303
 30
0.0
 10
142.3999
 20
79.9238
 30
0.0
 10
139.5689
 20
81.0694
 30
0.0
 10
137.3872
 20
77.7908
 30
0.0
 10
137.3872
 20
77.7908
 30
0.0
 10
133.7292
 20
80.7361
 30
0.0
 10
138.8014
 20
84.1584
 30
0.0
 10
142.2948
 20
80.6496
 30
0.0
 10
142.2948
 20
80.6496
 30
0.0
 10
139.0876
 20
85.46
 30
0.0
 10
136.0663
 20
84.0643
 30
0.0
 10
132.7035
 20
81.205
 30
0.0
 10
132.7035
 20
81.205
 30
0.0
 10
131.9728
 20
80.5836
 30
0.0
 10
130.911
 20
79.5419
 30
0.0
 10
129.683
 20
79.5218
 30
0.0
 10
129.683
 20
79.5218
 30
0.0
 10
127.8836
 20
79.6699
 30
0.0
 10
126.9406
 20
79.4496
 30
0.0
 10
125.5606
 20
79.6234
 30
0.0
 10
125.5606
 20
79.6234
 30
0.0
 10
127.5285
 20
80.5139
 30
0.0
 10
129.2155
 20
84.4539
 30
0.0
 10
133.2884
 20
86.2089
 30
0.0
 10
133.2884
 20
86.2089
 30
0.0
 10
136.4158
 20
87.5566
 30
0.0
 10
142.2419
 20
84.4415
 30
0.0
 10
143.4397
 20
81.4766
 30
0.0
 10
143.4397
 20
81.4766
 30
0.0
 10
142.8084
 20
84.7121
 30
0.0
 10
140.5436
 20
86.93
 30
0.0
 10
137.9715
 20
87.064
 30
0.0
 10
137.9715
 20
87.064
 30
0.0
 10
138.0642
 20
88.559
 30
0.0
 10
136.2428
 20
89.7919
 30
0.0
 10
133.8598
 20
89.1988
 30
0.0
 10
133.8598
 20
89.1988
 30
0.0
 10
135.592
 20
92.8342
 30
0.0
 10
142.2369
 20
92.5033
 30
0.0
 10
143.8293
 20
86.1424
 30
0.0
 10
143.8293
 20
86.1424
 30
0.0
 10
143.8922
 20
88.9003
 30
0.0
 10
142.9413
 20
93.8458
 30
0.0
 10
142.0294
 20
95.8616
 30
0.0
 10
142.0294
 20
95.8616
 30
0.0
 10
143.5929
 20
97.8743
 30
0.0
 10
144.3049
 20
99.2461
 30
0.0
 10
145.0564
 20
101.2363
 30
0.0
 10
145.0564
 20
101.2363
 30
0.0
 10
145.8077
 20
99.2461
 30
0.0
 10
146.6141
 20
97.8743
 30
0.0
 10
148.1775
 20
95.8616
 30
0.0
 10
148.1775
 20
95.8616
 30
0.0
 10
147.2657
 20
93.8458
 30
0.0
 10
146.3148
 20
88.9003
 30
0.0
 10
146.3777
 20
86.1424
 30
0.0
 10
146.3777
 20
86.1424
 30
0.0
 10
147.9701
 20
92.5033
 30
0.0
 10
154.615
 20
92.8342
 30
0.0
 10
156.3472
 20
89.1988
 30
0.0
 10
156.3472
 20
89.1988
 30
0.0
 10
153.9642
 20
89.7919
 30
0.0
 10
152.1428
 20
88.559
 30
0.0
 10
152.2355
 20
87.064
 30
0.0
 10
152.2355
 20
87.064
 30
0.0
 10
149.6634
 20
86.93
 30
0.0
 10
147.3986
 20
84.7121
 30
0.0
 10
146.7673
 20
81.4766
 30
0.0
 10
146.7673
 20
81.4766
 30
0.0
 10
147.9651
 20
84.4415
 30
0.0
 10
153.7912
 20
87.5566
 30
0.0
 10
156.9186
 20
86.2089
 30
0.0
 10
156.9186
 20
86.2089
 30
0.0
 10
160.9915
 20
84.4539
 30
0.0
 10
162.6785
 20
80.5139
 30
0.0
 10
164.6464
 20
79.6234
 30
0.0
 10
164.6464
 20
79.6234
 30
0.0
 10
163.2664
 20
79.4496
 30
0.0
 10
162.3234
 20
79.6699
 30
0.0
 10
160.524
 20
79.5218
 30
0.0
 10
160.524
 20
79.5218
 30
0.0
 10
159.296
 20
79.5419
 30
0.0
 10
158.2342
 20
80.5836
 30
0.0
 10
157.5035
 20
81.205
 30
0.0
 10
157.5035
 20
81.205
 30
0.0
 10
154.1407
 20
84.0643
 30
0.0
 10
151.1194
 20
85.46
 30
0.0
 10
147.9122
 20
80.6496
 30
0.0
 10
147.9122
 20
80.6496
 30
0.0
 10
151.4056
 20
84.1584
 30
0.0
 10
156.4778
 20
80.7361
 30
0.0
 10
152.8198
 20
77.7908
 30
0.0
 10
152.8198
 20
77.7908
 30
0.0
 10
150.6381
 20
81.0694
 30
0.0
 10
147.8071
 20
79.9238
 30
0.0
 10
146.8487
 20
77.3303
 30
0.0
 10
146.8487
 20
77.3303
 30
0.0
 10
146.8487
 20
77.3303
 30
0.0
 10
143.3583
 20
77.3303
 30
0.0
 10
143.3583
 20
77.3303
 30
0.0
  0
ELLIPSE
  5
49
330
1F
100
AcDbEntity
  8
layer 1
 62
   250
370
    18
100
AcDbEllipse
 10
145.0488
 20
73.5237
 30
0.0
 11
3.8528
 21
0.0
 31
0.0
210
0.0
220
0.0
230
1.0
 40
0.5459146594684385
 41
0.0
 42
6.283185307179586
  0
SPLINE
  5
4A
330
1F
100
AcDbEntity
  8
layer 1
 62
     7
370
    18
100
AcDbSpline
210
0.0
220
0.0
230
1.0
 70
    11
 71
     3
 72
   104
 73
   100
 74
     0
 42
0.0000000001
 43
0.0000000001
 12
1.0
 22
0.0
 32
0.0
 13
1.0
 23
0.0
 33
0.0
 40
0.0
 40
0.0
 40
0.0
 40
0.0
 40
0.0384615384615385
 40
0.0384615384615385
 40
0.0384615384615385
 40
0.0384615384615385
 40
0.0769230769230769
 40
0.0769230769230769
 40
0.0769230769230769
 40
0.0769230769230769
 40
0.1153846153846154
 40
0.1153846153846154
 40
0.1153846153846154
 40
0.1153846153846154
 40
0.1538461538461539
 40
0.1538461538461539
 40
0.1538461538461539
 40
0.1538461538461539
 40
0.1923076923076923
 40
0.1923076923076923
 40
0.1923076923076923
 40
0.1923076923076923
 40
0.2307692307692308
 40
0.2307692307692308
 40
0.2307692307692308
 40
0.2307692307692308
 40
0.2692307692307692
 40
0.2692307692307692
 40
0.2692307692307692
 40
0.2692307692307692
 40
0.3076923076923077
 40
0.3076923076923077
 40
0.3076923076923077
 40
0.3076923076923077
 40
0.3461538461538461
 40
0.3461538461538461
 40
0.3461538461538461
 40
0.3461538461538461
 40
0.3846153846153846
 40
0.3846153846153846
 40
0.3846153846153846
 40
0.3846153846153846
 40
0.4230769230769231
 40
0.4230769230769231
 40
0.4230769230769231
 40
0.4230769230769231
 40
0.4615384615384616
 40
0.4615384615384616
 40
0.4615384615384616
 40
0.4615384615384616
 40
0.5
 40
0.5
 40
0.5
 40
0.5
 40
0.5384615384615384
 40
0.5384615384615384
 40
0.5384615384615384
 40
0.5384615384615384
 40
0.5769230769230769
 40
0.5769230769230769
 40
0.5769230769230769
 40
0.5769230769230769
 40
0.6153846153846154
 40
0.6153846153846154
 40
0.6153846153846154
 40
0.6153846153846154
 40
0.6538461538461539
 40
0.6538461538461539
 40
0.6538461538461539
 40
0.6538461538461539
 40
0.6923076923076923
 40
0.6923076923076923
 40
0.6923076923076923
 40
0.6923076923076923
 40
0.7307692307692307
 40
0.7307692307692307
 40
0.7307692307692307
 40
0.7307692307692307
 40
0.7692307692307693
 40
0.7692307692307693
 40
0.7692307692307693
 40
0.7692307692307693
 40
0.8076923076923077
 40
0.8076923076923077
 40
0.8076923076923077
 40
0.8076923076923077
 40
0.8461538461538461
 40
0.8461538461538461
 40
0.8461538461538461
 40
0.8461538461538461
 40
0.8846153846153846
 40
0.8846153846153846
 40
0.8846153846153846
 40
0.8846153846153846
 40
0.9230769230769231
 40
0.9230769230769231
 40
0.9230769230769231
 40
0.9230769230769231
 40
1.0
 40
1.0
 40
1.0
 40
1.0
 10
98.2388
 20
77.3303
 30
0.0
 10
97.2803
 20
79.9238
 30
0.0
 10
94.4493
 20
81.0694
 30
0.0
 10
92.2677
 20
77.7908
 30
0.0
 10
92.2677
 20
77.7908
 30
0.0
 10
88.6097
 20
80.7361
 30
0.0
 10
93.6818
 20
84.1584
 30
0.0
 10
97.1752
 20
80.6496
 30
0.0
 10
97.1752
 20
80.6496
 30
0.0
 10
93.968
 20
85.46
 30
0.0
 10
90.9468
 20
84.0643
 30
0.0
 10
87.584
 20
81.205
 30
0.0
 10
87.584
 20
81.205
 30
0.0
 10
86.8533
 20
80.5836
 30
0.0
 10
85.7914
 20
79.5419
 30
0.0
 10
84.5634
 20
79.5218
 30
0.0
 10
84.5634
 20
79.5218
 30
0.0
 10
82.7641
 20
79.6699
 30
0.0
 10
81.8211
 20
79.4496
 30
0.0
 10
80.441
 20
79.6234
 30
0.0
 10
80.441
 20
79.6234
 30
0.0
 10
82.4089
 20
80.5139
 30
0.0
 10
84.096
 20
84.4539
 30
0.0
 10
88.1688
 20
86.2089
 30
0.0
 10
88.1688
 20
86.2089
 30
0.0
 10
91.2963
 20
87.5566
 30
0.0
 10
97.1224
 20
84.4415
 30
0.0
 10
98.3202
 20
81.4766
 30
0.0
 10
98.3202
 20
81.4766
 30
0.0
 10
97.6889
 20
84.7121
 30
0.0
 10
95.4241
 20
86.93
 30
0.0
 10
92.8519
 20
87.064
 30
0.0
 10
92.8519
 20
87.064
 30
0.0
 10
92.9447
 20
88.559
 30
0.0
 10
91.1233
 20
89.7919
 30
0.0
 10
88.7403
 20
89.1988
 30
0.0
 10
88.7403
 20
89.1988
 30
0.0
 10
90.4724
 20
92.8342
 30
0.0
 10
97.1173
 20
92.5033
 30
0.0
 10
98.7098
 20
86.1424
 30
0.0
 10
98.7098
 20
86.1424
 30
0.0
 10
98.7727
 20
88.9003
 30
0.0
 10
97.8218
 20
93.8458
 30
0.0
 10
96.9099
 20
95.8616
 30
0.0
 10
96.9099
 20
95.8616
 30
0.0
 10
98.4733
 20
97.8743
 30
0.0
 10
99.1854
 20
99.2461
 30
0.0
 10
99.9368
 20
101.2363
 30
0.0
 10
99.9368
 20
101.2363
 30
0.0
 10
100.6882
 20
99.2461
 30
0.0
 10
101.4946
 20
97.8743
 30
0.0
 10
103.058
 20
95.8616
 30
0.0
 10
103.058
 20
95.8616
 30
0.0
 10
102.1461
 20
93.8458
 30
0.0
 10
101.1952
 20
88.9003
 30
0.0
 10
101.2582
 20
86.1424
 30
0.0
 10
101.2582
 20
86.1424
 30
0.0
 10
102.8506
 20
92.5033
 30
0.0
 10
109.4955
 20
92.8342
 30
0.0
 10
111.2276
 20
89.1988
 30
0.0
 10
111.2276
 20
89.1988
 30
0.0
 10
108.8446
 20
89.7919
 30
0.0
 10
107.0233
 20
88.559
 30
0.0
 10
107.116
 20
87.064
 30
0.0
 10
107.116
 20
87.064
 30
0.0
 10
104.5439
 20
86.93
 30
0.0
 10
102.279
 20
84.7121
 30
0.0
 10
101.6477
 20
81.4766
 30
0.0
 10
101.6477
 20
81.4766
 30
0.0
 10
102.8455
 20
84.4415
 30
0.0
 10
108.6716
 20
87.5566
 30
0.0
 10
111.7991
 20
86.2089
 30
0.0
 10
111.7991
 20
86.2089
 30
0.0
 10
115.8719
 20
84.4539
 30
0.0
 10
117.559
 20
80.5139
 30
0.0
 10
119.5269
 20
79.6234
 30
0.0
 10
119.5269
 20
79.6234
 30
0.0
 10
118.1468
 20
79.4496
 30
0.0
 10
117.2038
 20
79.6699
 30
0.0
 10
115.4045
 20
79.5218
 30
0.0
 10
115.4045
 20
79.5218
 30
0.0
 10
114.1765
 20
79.5419
 30
0.0
 10
113.1146
 20
80.5836
 30
0.0
 10
112.3839
 20
81.205
 30
0.0
 10
112.3839
 20
81.205
 30
0.0
 10
109.0211
 20
84.0643
 30
0.0
 10
105.9999
 20
85.46
 30
0.0
 10
102.7927
 20
80.6496
 30
0.0
 10
102.7927
 20
80.6496
 30
0.0
 10
106.2861
 20
84.1584
 30
0.0
 10
111.3582
 20
80.7361
 30
0.0
 10
107.7002
 20
77.7908
 30
0.0
 10
107.7002
 20
77.7908
 30
0.0
 10
105.5186
 20
81.0694
 30
0.0
 10
102.6876
 20
79.9238
 30
0.0
 10
101.7291
 20
77.3303
 30
0.0
 10
101.7291
 20
77.3303
 30
0.0
 10
101.7291
 20
77.3303
 30
0.0
 10
98.2388
 20
77.3303
 30
0.0
 10
98.2388
 20
77.3303
 30
0.0
  0
ELLIPSE
  5
4B
330
1F
100
AcDbEntity
  8
layer 1
 62
   250
370
    18
100
AcDbEllipse
 10
99.9293
 20
73.5237
 30
0.0
 11
3.8528
 21
0.0
 31
0.0
210
0.0
220
0.0
230
1.0
 40
0.5459146594684385
 41
0.0
 42
6.283185307179586
  0
SPLINE
  5
4C
330
1F
100
AcDbEntity
  8
layer 1
 62
     7
370
    18
100
AcDbSpline
210
0.0
220
0.0
230
1.0
 70
    11
 71
     3
 72
    60
 73
    56
 74
     0
 42
0.0000000001
 43
0.0000000001
 12
1.0
 22
0.0
 32
0.0
 13
1.0
 23
0.0
 33
0.0
 40
0.0
 40
0.0
 40
0.0
 40
0.0
 40
0.0666666666666667
 40
0.0666666666666667
 40
0.0666666666666667
 40
0.0666666666666667
 40
0.1333333333333333
 40
0.1333333333333333
 40
0.1333333333333333
 40
0.1333333333333333
 40
0.2
 40
0.2
 40
0.2
 40
0.2
 40
0.2666666666666667
 40
0.2666666666666667
 40
0.2666666666666667
 40
0.2666666666666667
 40
0.3333333333333333
 40
0.3333333333333333
 40
0.3333333333333333
 40
0.3333333333333333
 40
0.4
 40
0.4
 40
0.4
 40
0.4
 40
0.4666666666666667
 40
0.4666666666666667
 40
0.4666666666666667
 40
0.4666666666666667
 40
0.5333333333333333
 40
0.5333333333333333
 40
0.5333333333333333
 40
0.5333333333333333
 40
0.6
 40
0.6
 40
0.6
 40
0.6
 40
0.6666666666666666
 40
0.6666666666666666
 40
0.6666666666666666
 40
0.6666666666666666
 40
0.7333333333333333
 40
0.7333333333333333
 40
0.7333333333333333
 40
0.7333333333333333
 40
0.8
 40
0.8
 40
0.8
 40
0.8
 40
0.8666666666666667
 40
0.8666666666666667
 40
0.8666666666666667
 40
0.8666666666666667
 40
1.0
 40
1.0
 40
1.0
 40
1.0
 10
55.0535
 20
101.2363
 30
0.0
 10
55.8049
 20
99.2461
 30
0.0
 10
56.6113
 20
97.8743
 30
0.0
 10
58.1747
 20
95.8616
 30
0.0
 10
58.1747
 20
95.8616
 30
0.0
 10
57.2628
 20
93.8458
 30
0.0
 10
56.3119
 20
88.9003
 30
0.0
 10
56.3748
 20
86.1424
 30
0.0
 10
56.3748
 20
86.1424
 30
0.0
 10
57.9673
 20
92.5033
 30
0.0
 10
64.6122
 20
92.8342
 30
0.0
 10
66.3443
 20
89.1988
 30
0.0
 10
66.3443
 20
89.1988
 30
0.0
 10
63.9613
 20
89.7919
 30
0.0
 10
62.1399
 20
88.559
 30
0.0
 10
62.2327
 20
87.064
 30
0.0
 10
62.2327
 20
87.064
 30
0.0
 10
59.6605
 20
86.93
 30
0.0
 10
57.3957
 20
84.7121
 30
0.0
 10
56.7644
 20
81.4766
 30
0.0
 10
56.7644
 20
81.4766
 30
0.0
 10
57.9622
 20
84.4415
 30
0.0
 10
63.7883
 20
87.5566
 30
0.0
 10
66.9158
 20
86.2089
 30
0.0
 10
66.9158
 20
86.2089
 30
0.0
 10
70.9886
 20
84.4539
 30
0.0
 10
72.6757
 20
80.5139
 30
0.0
 10
74.6435
 20
79.6234
 30
0.0
 10
74.6435
 20
79.6234
 30
0.0
 10
73.2635
 20
79.4496
 30
0.0
 10
72.3205
 20
79.6699
 30
0.0
 10
70.5211
 20
79.5218
 30
0.0
 10
70.5211
 20
79.5218
 30
0.0
 10
69.2932
 20
79.5419
 30
0.0
 10
68.2313
 20
80.5836
 30
0.0
 10
67.5006
 20
81.205
 30
0.0
 10
67.5006
 20
81.205
 30
0.0
 10
64.1378
 20
84.0643
 30
0.0
 10
61.1166
 20
85.46
 30
0.0
 10
57.9093
 20
80.6496
 30
0.0
 10
57.9093
 20
80.6496
 30
0.0
 10
61.4027
 20
84.1584
 30
0.0
 10
66.4749
 20
80.7361
 30
0.0
 10
62.8169
 20
77.7908
 30
0.0
 10
62.8169
 20
77.7908
 30
0.0
 10
60.6352
 20
81.0694
 30
0.0
 10
57.8042
 20
79.9238
 30
0.0
 10
56.8458
 20
77.3303
 30
0.0
 10
56.8458
 20
77.3303
 30
0.0
 10
56.8458
 20
77.3303
 30
0.0
 10
55.05
 20
77.2993
 30
0.0
 10
55.05
 20
77.2993
 30
0.0
 10
55.05
 20
77.2993
 30
0.0
 10
55.05
 20
77.2993
 30
0.0
 10
55.0535
 20
101.2363
 30
0.0
 10
55.0535
 20
101.2363
 30
0.0
  0
SPLINE
  5
4D
330
1F
100
AcDbEntity
  8
layer 1
 62
   250
370
    18
100
AcDbSpline
210
0.0
220
0.0
230
1.0
 70
    11
 71
     3
 72
    16
 73
    12
 74
     0
 42
0.0000000001
 43
0.0000000001
 12
1.0
 22
0.0
 32
0.0
 13
1.0
 23
0.0
 33
0.0
 40
0.0
 40
0.0
 40
0.0
 40
0.0
 40
0.25
 40
0.25
 40
0.25
 40
0.25
 40
0.5
 40
0.5
 40
0.5
 40
0.5
 40
1.0
 40
1.0
 40
1.0
 40
1.0
 10
55.0459
 20
75.627
 30
0.0
 10
57.1734
 20
75.627
 30
0.0
 10
58.8988
 20
74.6851
 30
0.0
 10
58.8988
 20
73.5236
 30
0.0
 10
58.8988
 20
73.5236
 30
0.0
 10
58.8988
 20
72.3622
 30
0.0
 10
57.1733
 20
71.4203
 30
0.0
 10
55.0459
 20
71.4203
 30
0.0
 10
55.0459
 20
71.4203
 30
0.0
 10
55.0459
 20
71.4203
 30
0.0
 10
55.0459
 20
75.627
 30
0.0
 10
55.0459
 20
75.627
 30
0.0
  0
SPLINE
  5
4E
330
1F
100
AcDbEntity
  8
layer 1
 62
     7
370
    18
100
AcDbSpline
210
0.0
220
0.0
230
1.0
 70
    11
 71
     3
 72
    60
 73
    56
 74
     0
 42
0.0000000001
 43
0.0000000001
 12
1.0
 22
0.0
 32
0.0
 13
1.0
 23
0.0
 33
0.0
 40
0.0
 40
0.0
 40
0.0
 40
0.0
 40
0.0666666666666667
 40
0.0666666666666667
 40
0.0666666666666667
 40
0.0666666666666667
 40
0.1333333333333333
 40
0.1333333333333333
 40
0.1333333333333333
 40
0.1333333333333333
 40
0.2
 40
0.2
 40
0.2
 40
0.2
 40
0.2666666666666667
 40
0.2666666666666667
 40
0.2666666666666667
 40
0.2666666666666667
 40
0.3333333333333333
 40
0.3333333333333333
 40
0.3333333333333333
 40
0.3333333333333333
 40
0.4
 40
0.4
 40
0.4
 40
0.4
 40
0.4666666666666667
 40
0.4666666666666667
 40
0.4666666666666667
 40
0.4666666666666667
 40
0.5333333333333333
 40
0.5333333333333333
 40
0.5333333333333333
 40
0.5333333333333333
 40
0.6
 40
0.6
 40
0.6
 40
0.6
 40
0.6666666666666666
 40
0.6666666666666666
 40
0.6666666666666666
 40
0.6666666666666666
 40
0.7333333333333333
 40
0.7333333333333333
 40
0.7333333333333333
 40
0.7333333333333333
 40
0.8
 40
0.8
 40
0.8
 40
0.8
 40
0.8666666666666667
 40
0.8666666666666667
 40
0.8666666666666667
 40
0.8666666666666667
 40
1.0
 40
1.0
 40
1.0
 40
1.0
 10
189.9652
 20
101.2363
 30
0.0
 10
189.2139
 20
99.2461
 30
0.0
 10
188.4075
 20
97.8743
 30
0.0
 10
186.8441
 20
95.8616
 30
0.0
 10
186.8441
 20
95.8616
 30
0.0
 10
187.756
 20
93.8458
 30
0.0
 10
188.7068
 20
88.9003
 30
0.0
 10
188.6439
 20
86.1424
 30
0.0
 10
188.6439
 20
86.1424
 30
0.0
 10
187.0515
 20
92.5033
 30
0.0
 10
180.4066
 20
92.8342
 30
0.0
 10
178.6745
 20
89.1988
 30
0.0
 10
178.6745
 20
89.1988
 30
0.0
 10
181.0574
 20
89.7919
 30
0.0
 10
182.8788
 20
88.559
 30
0.0
 10
182.7861
 20
87.064
 30
0.0
 10
182.7861
 20
87.064
 30
0.0
 10
185.3582
 20
86.93
 30
0.0
 10
187.623
 20
84.7121
 30
0.0
 10
188.2543
 20
81.4766
 30
0.0
 10
188.2543
 20
81.4766
 30
0.0
 10
187.0566
 20
84.4415
 30
0.0
 10
181.2304
 20
87.5566
 30
0.0
 10
178.103
 20
86.2089
 30
0.0
 10
178.103
 20
86.2089
 30
0.0
 10
174.0301
 20
84.4539
 30
0.0
 10
172.3431
 20
80.5139
 30
0.0
 10
170.3752
 20
79.6234
 30
0.0
 10
170.3752
 20
79.6234
 30
0.0
 10
171.7553
 20
79.4496
 30
0.0
 10
172.6983
 20
79.6699
 30
0.0
 10
174.4976
 20
79.5218
 30
0.0
 10
174.4976
 20
79.5218
 30
0.0
 10
175.7256
 20
79.5419
 30
0.0
 10
176.7875
 20
80.5836
 30
0.0
 10
177.5182
 20
81.205
 30
0.0
 10
177.5182
 20
81.205
 30
0.0
 10
180.8809
 20
84.0643
 30
0.0
 10
183.9022
 20
85.46
 30
0.0
 10
187.1094
 20
80.6496
 30
0.0
 10
187.1094
 20
80.6496
 30
0.0
 10
183.616
 20
84.1584
 30
0.0
 10
178.5438
 20
80.7361
 30
0.0
 10
182.2019
 20
77.7908
 30
0.0
 10
182.2019
 20
77.7908
 30
0.0
 10
184.3835
 20
81.0694
 30
0.0
 10
187.2145
 20
79.9238
 30
0.0
 10
188.173
 20
77.3303
 30
0.0
 10
188.173
 20
77.3303
 30
0.0
 10
188.173
 20
77.3303
 30
0.0
 10
189.9687
 20
77.2993
 30
0.0
 10
189.9687
 20
77.2993
 30
0.0
 10
189.9687
 20
77.2993
 30
0.0
 10
189.9687
 20
77.2993
 30
0.0
 10
189.9652
 20
101.2363
 30
0.0
 10
189.9652
 20
101.2363
 30
0.0
  0
SPLINE
  5
4F
330
1F
100
AcDbEntity
  8
layer 1
 62
   250
370
    18
100
AcDbSpline
210
0.0
220
0.0
230
1.0
 70
    11
 71
     3
 72
    16
 73
    12
 74
     0
 42
0.0000000001
 43
0.0000000001
 12
1.0
 22
0.0
 32
0.0
 13
1.0
 23
0.0
 33
0.0
 40
0.0
 40
0.0
 40
0.0
 40
0.0
 40
0.25
 40
0.25
 40
0.25
 40
0.25
 40
0.5
 40
0.5
 40
0.5
 40
0.5
 40
1.0
 40
1.0
 40
1.0
 40
1.0
 10
189.9728
 20
75.627
 30
0.0
 10
187.8453
 20
75.627
 30
0.0
 10
186.1199
 20
74.6851
 30
0.0
 10
186.1199
 20
73.5236
 30
0.0
 10
186.1199
 20
73.5236
 30
0.0
 10
186.1199
 20
72.3622
 30
0.0
 10
187.8454
 20
71.4203
 30
0.0
 10
189.9728
 20
71.4203
 30
0.0
 10
189.9728
 20
71.4203
 30
0.0
 10
189.9728
 20
71.4203
 30
0.0
 10
189.9728
 20
75.627
 30
0.0
 10
189.9728
 20
75.627
 30
0.0
  0
SPLINE
  5
50
330
1F
100
AcDbEntity
  8
layer 1
 62
     7
370
    18
100
AcDbSpline
210
0.0
220
0.0
230
1.0
 70
    11
 71
     3
 72
   104
 73
   100
 74
     0
 42
0.0000000001
 43
0.0000000001
 12
1.0
 22
0.0
 32
0.0
 13
1.0
 23
0.0
 33
0.0
 40
0.0
 40
0.0
 40
0.0
 40
0.0
 40
0.0384615384615385
 40
0.0384615384615385
 40
0.0384615384615385
 40
0.0384615384615385
 40
0.0769230769230769
 40
0.0769230769230769
 40
0.0769230769230769
 40
0.0769230769230769
 40
0.1153846153846154
 40
0.1153846153846154
 40
0.1153846153846154
 40
0.1153846153846154
 40
0.1538461538461539
 40
0.1538461538461539
 40
0.1538461538461539
 40
0.1538461538461539
 40
0.1923076923076923
 40
0.1923076923076923
 40
0.1923076923076923
 40
0.1923076923076923
 40
0.2307692307692308
 40
0.2307692307692308
 40
0.2307692307692308
 40
0.2307692307692308
 40
0.2692307692307692
 40
0.2692307692307692
 40
0.2692307692307692
 40
0.2692307692307692
 40
0.3076923076923077
 40
0.3076923076923077
 40
0.3076923076923077
 40
0.3076923076923077
 40
0.3461538461538461
 40
0.3461538461538461
 40
0.3461538461538461
 40
0.3461538461538461
 40
0.3846153846153846
 40
0.3846153846153846
 40
0.3846153846153846
 40
0.3846153846153846
 40
0.4230769230769231
 40
0.4230769230769231
 40
0.4230769230769231
 40
0.4230769230769231
 40
0.4615384615384616
 40
0.4615384615384616
 40
0.4615384615384616
 40
0.4615384615384616
 40
0.5
 40
0.5
 40
0.5
 40
0.5
 40
0.5384615384615384
 40
0.5384615384615384
 40
0.5384615384615384
 40
0.5384615384615384
 40
0.5769230769230769
 40
0.5769230769230769
 40
0.5769230769230769
 40
0.5769230769230769
 40
0.6153846153846154
 40
0.6153846153846154
 40
0.6153846153846154
 40
0.6153846153846154
 40
0.6538461538461539
 40
0.6538461538461539
 40
0.6538461538461539
 40
0.6538461538461539
 40
0.6923076923076923
 40
0.6923076923076923
 40
0.6923076923076923
 40
0.6923076923076923
 40
0.7307692307692307
 40
0.7307692307692307
 40
0.7307692307692307
 40
0.7307692307692307
 40
0.7692307692307693
 40
0.7692307692307693
 40
0.7692307692307693
 40
0.7692307692307693
 40
0.8076923076923077
 40
0.8076923076923077
 40
0.8076923076923077
 40
0.8076923076923077
 40
0.8461538461538461
 40
0.8461538461538461
 40
0.8461538461538461
 40
0.8461538461538461
 40
0.8846153846153846
 40
0.8846153846153846
 40
0.8846153846153846
 40
0.8846153846153846
 40
0.9230769230769231
 40
0.9230769230769231
 40
0.9230769230769231
 40
0.9230769230769231
 40
1.0
 40
1.0
 40
1.0
 40
1.0
 10
120.3766
 20
49.1387
 30
0.0
 10
119.4182
 20
51.7323
 30
0.0
 10
116.5872
 20
52.8779
 30
0.0
 10
114.4055
 20
49.5993
 30
0.0
 10
114.4055
 20
49.5993
 30
0.0
 10
110.7475
 20
52.5446
 30
0.0
 10
115.8197
 20
55.9669
 30
0.0
 10
119.3131
 20
52.4581
 30
0.0
 10
119.3131
 20
52.4581
 30
0.0
 10
116.1059
 20
57.2685
 30
0.0
 10
113.0846
 20
55.8728
 30
0.0
 10
109.7218
 20
53.0135
 30
0.0
 10
109.7218
 20
53.0135
 30
0.0
 10
108.9911
 20
52.3921
 30
0.0
 10
107.9293
 20
51.3504
 30
0.0
 10
106.7013
 20
51.3303
 30
0.0
 10
106.7013
 20
51.3303
 30
0.0
 10
104.9019
 20
51.4784
 30
0.0
 10
103.9589
 20
51.2581
 30
0.0
 10
102.5789
 20
51.4319
 30
0.0
 10
102.5789
 20
51.4319
 30
0.0
 10
104.5467
 20
52.3224
 30
0.0
 10
106.2338
 20
56.2624
 30
0.0
 10
110.3067
 20
58.0174
 30
0.0
 10
110.3067
 20
58.0174
 30
0.0
 10
113.4341
 20
59.3651
 30
0.0
 10
119.2602
 20
56.25
 30
0.0
 10
120.458
 20
53.2851
 30
0.0
 10
120.458
 20
53.2851
 30
0.0
 10
119.8267
 20
56.5206
 30
0.0
 10
117.5619
 20
58.7385
 30
0.0
 10
114.9897
 20
58.8725
 30
0.0
 10
114.9897
 20
58.8725
 30
0.0
 10
115.0825
 20
60.3675
 30
0.0
 10
113.2611
 20
61.6004
 30
0.0
 10
110.8781
 20
61.0073
 30
0.0
 10
110.8781
 20
61.0073
 30
0.0
 10
112.6103
 20
64.6427
 30
0.0
 10
119.2551
 20
64.3118
 30
0.0
 10
120.8476
 20
57.9509
 30
0.0
 10
120.8476
 20
57.9509
 30
0.0
 10
120.9105
 20
60.7088
 30
0.0
 10
119.9596
 20
65.6543
 30
0.0
 10
119.0477
 20
67.6701
 30
0.0
 10
119.0477
 20
67.6701
 30
0.0
 10
120.6112
 20
69.6828
 30
0.0
 10
121.3232
 20
71.0546
 30
0.0
 10
122.0747
 20
73.0448
 30
0.0
 10
122.0747
 20
73.0448
 30
0.0
 10
122.826
 20
71.0546
 30
0.0
 10
123.6324
 20
69.6828
 30
0.0
 10
125.1958
 20
67.6701
 30
0.0
 10
125.1958
 20
67.6701
 30
0.0
 10
124.2839
 20
65.6543
 30
0.0
 10
123.3331
 20
60.7088
 30
0.0
 10
123.396
 20
57.9509
 30
0.0
 10
123.396
 20
57.9509
 30
0.0
 10
124.9884
 20
64.3118
 30
0.0
 10
131.6333
 20
64.6427
 30
0.0
 10
133.3654
 20
61.0073
 30
0.0
 10
133.3654
 20
61.0073
 30
0.0
 10
130.9825
 20
61.6004
 30
0.0
 10
129.1611
 20
60.3675
 30
0.0
 10
129.2538
 20
58.8725
 30
0.0
 10
129.2538
 20
58.8725
 30
0.0
 10
126.6817
 20
58.7385
 30
0.0
 10
124.4169
 20
56.5206
 30
0.0
 10
123.7856
 20
53.2851
 30
0.0
 10
123.7856
 20
53.2851
 30
0.0
 10
124.9833
 20
56.25
 30
0.0
 10
130.8095
 20
59.3651
 30
0.0
 10
133.9369
 20
58.0174
 30
0.0
 10
133.9369
 20
58.0174
 30
0.0
 10
138.0098
 20
56.2624
 30
0.0
 10
139.6968
 20
52.3224
 30
0.0
 10
141.6647
 20
51.4319
 30
0.0
 10
141.6647
 20
51.4319
 30
0.0
 10
140.2846
 20
51.2581
 30
0.0
 10
139.3416
 20
51.4784
 30
0.0
 10
137.5423
 20
51.3303
 30
0.0
 10
137.5423
 20
51.3303
 30
0.0
 10
136.3143
 20
51.3504
 30
0.0
 10
135.2524
 20
52.3921
 30
0.0
 10
134.5217
 20
53.0135
 30
0.0
 10
134.5217
 20
53.0135
 30
0.0
 10
131.159
 20
55.8728
 30
0.0
 10
128.1377
 20
57.2685
 30
0.0
 10
124.9305
 20
52.4581
 30
0.0
 10
124.9305
 20
52.4581
 30
0.0
 10
128.4239
 20
55.9669
 30
0.0
 10
133.4961
 20
52.5446
 30
0.0
 10
129.838
 20
49.5993
 30
0.0
 10
129.838
 20
49.5993
 30
0.0
 10
127.6564
 20
52.8779
 30
0.0
 10
124.8254
 20
51.7323
 30
0.0
 10
123.8669
 20
49.1387
 30
0.0
 10
123.8669
 20
49.1387
 30
0.0
 10
123.8669
 20
49.1387
 30
0.0
 10
120.3766
 20
49.1387
 30
0.0
 10
120.3766
 20
49.1387
 30
0.0
  0
ELLIPSE
  5
51
330
1F
100
AcDbEntity
  8
layer 1
 62
   250
370
    18
100
AcDbEllipse
 10
122.0671
 20
45.3322
 30
0.0
 11
3.8528
 21
0.0
 31
0.0
210
0.0
220
0.0
230
1.0
 40
0.5459146594684385
 41
0.0
 42
6.283185307179586
  0
SPLINE
  5
52
330
1F
100
AcDbEntity
  8
layer 1
 62
     7
370
    18
100
AcDbSpline
210
0.0
220
0.0
230
1.0
 70
    11
 71
     3
 72
   104
 73
   100
 74
     0
 42
0.0000000001
 43
0.0000000001
 12
1.0
 22
0.0
 32
0.0
 13
1.0
 23
0.0
 33
0.0
 40
0.0
 40
0.0
 40
0.0
 40
0.0
 40
0.0384615384615385
 40
0.0384615384615385
 40
0.0384615384615385
 40
0.0384615384615385
 40
0.0769230769230769
 40
0.0769230769230769
 40
0.0769230769230769
 40
0.0769230769230769
 40
0.1153846153846154
 40
0.1153846153846154
 40
0.1153846153846154
 40
0.1153846153846154
 40
0.1538461538461539
 40
0.1538461538461539
 40
0.1538461538461539
 40
0.1538461538461539
 40
0.1923076923076923
 40
0.1923076923076923
 40
0.1923076923076923
 40
0.1923076923076923
 40
0.2307692307692308
 40
0.2307692307692308
 40
0.2307692307692308
 40
0.2307692307692308
 40
0.2692307692307692
 40
0.2692307692307692
 40
0.2692307692307692
 40
0.2692307692307692
 40
0.3076923076923077
 40
0.3076923076923077
 40
0.3076923076923077
 40
0.3076923076923077
 40
0.3461538461538461
 40
0.3461538461538461
 40
0.3461538461538461
 40
0.3461538461538461
 40
0.3846153846153846
 40
0.3846153846153846
 40
0.3846153846153846
 40
0.3846153846153846
 40
0.4230769230769231
 40
0.4230769230769231
 40
0.4230769230769231
 40
0.4230769230769231
 40
0.4615384615384616
 40
0.4615384615384616
 40
0.4615384615384616
 40
0.4615384615384616
 40
0.5
 40
0.5
 40
0.5
 40
0.5
 40
0.5384615384615384
 40
0.5384615384615384
 40
0.5384615384615384
 40
0.5384615384615384
 40
0.5769230769230769
 40
0.5769230769230769
 40
0.5769230769230769
 40
0.5769230769230769
 40
0.6153846153846154
 40
0.6153846153846154
 40
0.6153846153846154
 40
0.6153846153846154
 40
0.6538461538461539
 40
0.6538461538461539
 40
0.6538461538461539
 40
0.6538461538461539
 40
0.6923076923076923
 40
0.6923076923076923
 40
0.6923076923076923
 40
0.6923076923076923
 40
0.7307692307692307
 40
0.7307692307692307
 40
0.7307692307692307
 40
0.7307692307692307
 40
0.7692307692307693
 40
0.7692307692307693
 40
0.7692307692307693
 40
0.7692307692307693
 40
0.8076923076923077
 40
0.8076923076923077
 40
0.8076923076923077
 40
0.8076923076923077
 40
0.8461538461538461
 40
0.8461538461538461
 40
0.8461538461538461
 40
0.8461538461538461
 40
0.8846153846153846
 40
0.8846153846153846
 40
0.8846153846153846
 40
0.8846153846153846
 40
0.9230769230769231
 40
0.9230769230769231
 40
0.9230769230769231
 40
0.9230769230769231
 40
1.0
 40
1.0
 40
1.0
 40
1.0
 10
75.2571
 20
49.1387
 30
0.0
 10
74.2986
 20
51.7323
 30
0.0
 10
71.4676
 20
52.8779
 30
0.0
 10
69.286
 20
49.5993
 30
0.0
 10
69.286
 20
49.5993
 30
0.0
 10
65.6279
 20
52.5446
 30
0.0
 10
70.7001
 20
55.9669
 30
0.0
 10
74.1935
 20
52.4581
 30
0.0
 10
74.1935
 20
52.4581
 30
0.0
 10
70.9863
 20
57.2685
 30
0.0
 10
67.9651
 20
55.8728
 30
0.0
 10
64.6023
 20
53.0135
 30
0.0
 10
64.6023
 20
53.0135
 30
0.0
 10
63.8716
 20
52.3921
 30
0.0
 10
62.8097
 20
51.3504
 30
0.0
 10
61.5817
 20
51.3303
 30
0.0
 10
61.5817
 20
51.3303
 30
0.0
 10
59.7824
 20
51.4784
 30
0.0
 10
58.8394
 20
51.2581
 30
0.0
 10
57.4593
 20
51.4319
 30
0.0
 10
57.4593
 20
51.4319
 30
0.0
 10
59.4272
 20
52.3224
 30
0.0
 10
61.1143
 20
56.2624
 30
0.0
 10
65.1871
 20
58.0174
 30
0.0
 10
65.1871
 20
58.0174
 30
0.0
 10
68.3146
 20
59.3651
 30
0.0
 10
74.1407
 20
56.25
 30
0.0
 10
75.3385
 20
53.2851
 30
0.0
 10
75.3385
 20
53.2851
 30
0.0
 10
74.7072
 20
56.5206
 30
0.0
 10
72.4423
 20
58.7385
 30
0.0
 10
69.8702
 20
58.8725
 30
0.0
 10
69.8702
 20
58.8725
 30
0.0
 10
69.9629
 20
60.3675
 30
0.0
 10
68.1416
 20
61.6004
 30
0.0
 10
65.7586
 20
61.0073
 30
0.0
 10
65.7586
 20
61.0073
 30
0.0
 10
67.4907
 20
64.6427
 30
0.0
 10
74.1356
 20
64.3118
 30
0.0
 10
75.728
 20
57.9509
 30
0.0
 10
75.728
 20
57.9509
 30
0.0
 10
75.791
 20
60.7088
 30
0.0
 10
74.8401
 20
65.6543
 30
0.0
 10
73.9282
 20
67.6701
 30
0.0
 10
73.9282
 20
67.6701
 30
0.0
 10
75.4916
 20
69.6828
 30
0.0
 10
76.2037
 20
71.0546
 30
0.0
 10
76.9551
 20
73.0448
 30
0.0
 10
76.9551
 20
73.0448
 30
0.0
 10
77.7065
 20
71.0546
 30
0.0
 10
78.5129
 20
69.6828
 30
0.0
 10
80.0763
 20
67.6701
 30
0.0
 10
80.0763
 20
67.6701
 30
0.0
 10
79.1644
 20
65.6543
 30
0.0
 10
78.2135
 20
60.7088
 30
0.0
 10
78.2764
 20
57.9509
 30
0.0
 10
78.2764
 20
57.9509
 30
0.0
 10
79.8689
 20
64.3118
 30
0.0
 10
86.5138
 20
64.6427
 30
0.0
 10
88.2459
 20
61.0073
 30
0.0
 10
88.2459
 20
61.0073
 30
0.0
 10
85.8629
 20
61.6004
 30
0.0
 10
84.0415
 20
60.3675
 30
0.0
 10
84.1343
 20
58.8725
 30
0.0
 10
84.1343
 20
58.8725
 30
0.0
 10
81.5621
 20
58.7385
 30
0.0
 10
79.2973
 20
56.5206
 30
0.0
 10
78.666
 20
53.2851
 30
0.0
 10
78.666
 20
53.2851
 30
0.0
 10
79.8638
 20
56.25
 30
0.0
 10
85.6899
 20
59.3651
 30
0.0
 10
88.8174
 20
58.0174
 30
0.0
 10
88.8174
 20
58.0174
 30
0.0
 10
92.8902
 20
56.2624
 30
0.0
 10
94.5773
 20
52.3224
 30
0.0
 10
96.5451
 20
51.4319
 30
0.0
 10
96.5451
 20
51.4319
 30
0.0
 10
95.1651
 20
51.2581
 30
0.0
 10
94.2221
 20
51.4784
 30
0.0
 10
92.4227
 20
51.3303
 30
0.0
 10
92.4227
 20
51.3303
 30
0.0
 10
91.1948
 20
51.3504
 30
0.0
 10
90.1329
 20
52.3921
 30
0.0
 10
89.4022
 20
53.0135
 30
0.0
 10
89.4022
 20
53.0135
 30
0.0
 10
86.0394
 20
55.8728
 30
0.0
 10
83.0182
 20
57.2685
 30
0.0
 10
79.8109
 20
52.4581
 30
0.0
 10
79.8109
 20
52.4581
 30
0.0
 10
83.3043
 20
55.9669
 30
0.0
 10
88.3765
 20
52.5446
 30
0.0
 10
84.7185
 20
49.5993
 30
0.0
 10
84.7185
 20
49.5993
 30
0.0
 10
82.5368
 20
52.8779
 30
0.0
 10
79.7058
 20
51.7323
 30
0.0
 10
78.7474
 20
49.1387
 30
0.0
 10
78.7474
 20
49.1387
 30
0.0
 10
78.7474
 20
49.1387
 30
0.0
 10
75.2571
 20
49.1387
 30
0.0
 10
75.2571
 20
49.1387
 30
0.0
  0
ELLIPSE
  5
53
330
1F
100
AcDbEntity
  8
layer 1
 62
   250
370
    18
100
AcDbEllipse
 10
76.9476
 20
45.3322
 30
0.0
 11
3.8528
 21
0.0
 31
0.0
210
0.0
220
0.0
230
1.0
 40
0.5459146594684385
 41
0.0
 42
6.283185307179586
  0
SPLINE
  5
54
330
1F
100
AcDbEntity
  8
layer 1
 62
     7
370
    18
100
AcDbSpline
210
0.0
220
0.0
230
1.0
 70
    11
 71
     3
 72
   104
 73
   100
 74
     0
 42
0.0000000001
 43
0.0000000001
 12
1.0
 22
0.0
 32
0.0
 13
1.0
 23
0.0
 33
0.0
 40
0.0
 40
0.0
 40
0.0
 40
0.0
 40
0.0384615384615385
 40
0.0384615384615385
 40
0.0384615384615385
 40
0.0384615384615385
 40
0.0769230769230769
 40
0.0769230769230769
 40
0.0769230769230769
 40
0.0769230769230769
 40
0.1153846153846154
 40
0.1153846153846154
 40
0.1153846153846154
 40
0.1153846153846154
 40
0.1538461538461539
 40
0.1538461538461539
 40
0.1538461538461539
 40
0.1538461538461539
 40
0.1923076923076923
 40
0.1923076923076923
 40
0.1923076923076923
 40
0.1923076923076923
 40
0.2307692307692308
 40
0.2307692307692308
 40
0.2307692307692308
 40
0.2307692307692308
 40
0.2692307692307692
 40
0.2692307692307692
 40
0.2692307692307692
 40
0.2692307692307692
 40
0.3076923076923077
 40
0.3076923076923077
 40
0.3076923076923077
 40
0.3076923076923077
 40
0.3461538461538461
 40
0.3461538461538461
 40
0.3461538461538461
 40
0.3461538461538461
 40
0.3846153846153846
 40
0.3846153846153846
 40
0.3846153846153846
 40
0.3846153846153846
 40
0.4230769230769231
 40
0.4230769230769231
 40
0.4230769230769231
 40
0.4230769230769231
 40
0.4615384615384616
 40
0.4615384615384616
 40
0.4615384615384616
 40
0.4615384615384616
 40
0.5
 40
0.5
 40
0.5
 40
0.5
 40
0.5384615384615384
 40
0.5384615384615384
 40
0.5384615384615384
 40
0.5384615384615384
 40
0.5769230769230769
 40
0.5769230769230769
 40
0.5769230769230769
 40
0.5769230769230769
 40
0.6153846153846154
 40
0.6153846153846154
 40
0.6153846153846154
 40
0.6153846153846154
 40
0.6538461538461539
 40
0.6538461538461539
 40
0.6538461538461539
 40
0.6538461538461539
 40
0.6923076923076923
 40
0.6923076923076923
 40
0.6923076923076923
 40
0.6923076923076923
 40
0.7307692307692307
 40
0.7307692307692307
 40
0.7307692307692307
 40
0.7307692307692307
 40
0.7692307692307693
 40
0.7692307692307693
 40
0.7692307692307693
 40
0.7692307692307693
 40
0.8076923076923077
 40
0.8076923076923077
 40
0.8076923076923077
 40
0.8076923076923077
 40
0.8461538461538461
 40
0.8461538461538461
 40
0.8461538461538461
 40
0.8461538461538461
 40
0.8846153846153846
 40
0.8846153846153846
 40
0.8846153846153846
 40
0.8846153846153846
 40
0.9230769230769231
 40
0.9230769230769231
 40
0.9230769230769231
 40
0.9230769230769231
 40
1.0
 40
1.0
 40
1.0
 40
1.0
 10
165.0927
 20
49.1387
 30
0.0
 10
164.1343
 20
51.7323
 30
0.0
 10
161.3033
 20
52.8779
 30
0.0
 10
159.1216
 20
49.5993
 30
0.0
 10
159.1216
 20
49.5993
 30
0.0
 10
155.4636
 20
52.5446
 30
0.0
 10
160.5358
 20
55.9669
 30
0.0
 10
164.0292
 20
52.4581
 30
0.0
 10
164.0292
 20
52.4581
 30
0.0
 10
160.822
 20
57.2685
 30
0.0
 10
157.8007
 20
55.8728
 30
0.0
 10
154.4379
 20
53.0135
 30
0.0
 10
154.4379
 20
53.0135
 30
0.0
 10
153.7072
 20
52.3921
 30
0.0
 10
152.6454
 20
51.3504
 30
0.0
 10
151.4174
 20
51.3303
 30
0.0
 10
151.4174
 20
51.3303
 30
0.0
 10
149.618
 20
51.4784
 30
0.0
 10
148.675
 20
51.2581
 30
0.0
 10
147.295
 20
51.4319
 30
0.0
 10
147.295
 20
51.4319
 30
0.0
 10
149.2628
 20
52.3224
 30
0.0
 10
150.9499
 20
56.2624
 30
0.0
 10
155.0228
 20
58.0174
 30
0.0
 10
155.0228
 20
58.0174
 30
0.0
 10
158.1502
 20
59.3651
 30
0.0
 10
163.9763
 20
56.25
 30
0.0
 10
165.1741
 20
53.2851
 30
0.0
 10
165.1741
 20
53.2851
 30
0.0
 10
164.5428
 20
56.5206
 30
0.0
 10
162.278
 20
58.7385
 30
0.0
 10
159.7058
 20
58.8725
 30
0.0
 10
159.7058
 20
58.8725
 30
0.0
 10
159.7986
 20
60.3675
 30
0.0
 10
157.9772
 20
61.6004
 30
0.0
 10
155.5942
 20
61.0073
 30
0.0
 10
155.5942
 20
61.0073
 30
0.0
 10
157.3264
 20
64.6427
 30
0.0
 10
163.9712
 20
64.3118
 30
0.0
 10
165.5637
 20
57.9509
 30
0.0
 10
165.5637
 20
57.9509
 30
0.0
 10
165.6266
 20
60.7088
 30
0.0
 10
164.6757
 20
65.6543
 30
0.0
 10
163.7638
 20
67.6701
 30
0.0
 10
163.7638
 20
67.6701
 30
0.0
 10
165.3273
 20
69.6828
 30
0.0
 10
166.0393
 20
71.0546
 30
0.0
 10
166.7908
 20
73.0448
 30
0.0
 10
166.7908
 20
73.0448
 30
0.0
 10
167.5421
 20
71.0546
 30
0.0
 10
168.3485
 20
69.6828
 30
0.0
 10
169.9119
 20
67.6701
 30
0.0
 10
169.9119
 20
67.6701
 30
0.0
 10
169.0
 20
65.6543
 30
0.0
 10
168.0492
 20
60.7088
 30
0.0
 10
168.1121
 20
57.9509
 30
0.0
 10
168.1121
 20
57.9509
 30
0.0
 10
169.7045
 20
64.3118
 30
0.0
 10
176.3494
 20
64.6427
 30
0.0
 10
178.0815
 20
61.0073
 30
0.0
 10
178.0815
 20
61.0073
 30
0.0
 10
175.6986
 20
61.6004
 30
0.0
 10
173.8772
 20
60.3675
 30
0.0
 10
173.9699
 20
58.8725
 30
0.0
 10
173.9699
 20
58.8725
 30
0.0
 10
171.3978
 20
58.7385
 30
0.0
 10
169.133
 20
56.5206
 30
0.0
 10
168.5017
 20
53.2851
 30
0.0
 10
168.5017
 20
53.2851
 30
0.0
 10
169.6994
 20
56.25
 30
0.0
 10
175.5256
 20
59.3651
 30
0.0
 10
178.653
 20
58.0174
 30
0.0
 10
178.653
 20
58.0174
 30
0.0
 10
182.7259
 20
56.2624
 30
0.0
 10
184.4129
 20
52.3224
 30
0.0
 10
186.3808
 20
51.4319
 30
0.0
 10
186.3808
 20
51.4319
 30
0.0
 10
185.0007
 20
51.2581
 30
0.0
 10
184.0577
 20
51.4784
 30
0.0
 10
182.2584
 20
51.3303
 30
0.0
 10
182.2584
 20
51.3303
 30
0.0
 10
181.0304
 20
51.3504
 30
0.0
 10
179.9685
 20
52.3921
 30
0.0
 10
179.2378
 20
53.0135
 30
0.0
 10
179.2378
 20
53.0135
 30
0.0
 10
175.8751
 20
55.8728
 30
0.0
 10
172.8538
 20
57.2685
 30
0.0
 10
169.6466
 20
52.4581
 30
0.0
 10
169.6466
 20
52.4581
 30
0.0
 10
173.14
 20
55.9669
 30
0.0
 10
178.2122
 20
52.5446
 30
0.0
 10
174.5541
 20
49.5993
 30
0.0
 10
174.5541
 20
49.5993
 30
0.0
 10
172.3725
 20
52.8779
 30
0.0
 10
169.5415
 20
51.7323
 30
0.0
 10
168.583
 20
49.1387
 30
0.0
 10
168.583
 20
49.1387
 30
0.0
 10
168.583
 20
49.1387
 30
0.0
 10
165.0927
 20
49.1387
 30
0.0
 10
165.0927
 20
49.1387
 30
0.0
  0
ELLIPSE
  5
55
330
1F
100
AcDbEntity
  8
layer 1
 62
   250
370
    18
100
AcDbEllipse
 10
166.7832
 20
45.3322
 30
0.0
 11
3.8528
 21
0.0
 31
0.0
210
0.0
220
0.0
230
1.0
 40
0.5459146594684385
 41
0.0
 42
6.283185307179586
  0
SPLINE
  5
56
330
1F
100
AcDbEntity
  8
layer 1
 62
     7
370
    18
100
AcDbSpline
210
0.0
220
0.0
230
1.0
 70
    11
 71
     3
 72
   104
 73
   100
 74
     0
 42
0.0000000001
 43
0.0000000001
 12
1.0
 22
0.0
 32
0.0
 13
1.0
 23
0.0
 33
0.0
 40
0.0
 40
0.0
 40
0.0
 40
0.0
 40
0.0384615384615385
 40
0.0384615384615385
 40
0.0384615384615385
 40
0.0384615384615385
 40
0.0769230769230769
 40
0.0769230769230769
 40
0.0769230769230769
 40
0.0769230769230769
 40
0.1153846153846154
 40
0.1153846153846154
 40
0.1153846153846154
 40
0.1153846153846154
 40
0.1538461538461539
 40
0.1538461538461539
 40
0.1538461538461539
 40
0.1538461538461539
 40
0.1923076923076923
 40
0.1923076923076923
 40
0.1923076923076923
 40
0.1923076923076923
 40
0.2307692307692308
 40
0.2307692307692308
 40
0.2307692307692308
 40
0.2307692307692308
 40
0.2692307692307692
 40
0.2692307692307692
 40
0.2692307692307692
 40
0.2692307692307692
 40
0.3076923076923077
 40
0.3076923076923077
 40
0.3076923076923077
 40
0.3076923076923077
 40
0.3461538461538461
 40
0.3461538461538461
 40
0.3461538461538461
 40
0.3461538461538461
 40
0.3846153846153846
 40
0.3846153846153846
 40
0.3846153846153846
 40
0.3846153846153846
 40
0.4230769230769231
 40
0.4230769230769231
 40
0.4230769230769231
 40
0.4230769230769231
 40
0.4615384615384616
 40
0.4615384615384616
 40
0.4615384615384616
 40
0.4615384615384616
 40
0.5
 40
0.5
 40
0.5
 40
0.5
 40
0.5384615384615384
 40
0.5384615384615384
 40
0.5384615384615384
 40
0.5384615384615384
 40
0.5769230769230769
 40
0.5769230769230769
 40
0.5769230769230769
 40
0.5769230769230769
 40
0.6153846153846154
 40
0.6153846153846154
 40
0.6153846153846154
 40
0.6153846153846154
 40
0.6538461538461539
 40
0.6538461538461539
 40
0.6538461538461539
 40
0.6538461538461539
 40
0.6923076923076923
 40
0.6923076923076923
 40
0.6923076923076923
 40
0.6923076923076923
 40
0.7307692307692307
 40
0.7307692307692307
 40
0.7307692307692307
 40
0.7307692307692307
 40
0.7692307692307693
 40
0.7692307692307693
 40
0.7692307692307693
 40
0.7692307692307693
 40
0.8076923076923077
 40
0.8076923076923077
 40
0.8076923076923077
 40
0.8076923076923077
 40
0.8461538461538461
 40
0.8461538461538461
 40
0.8461538461538461
 40
0.8461538461538461
 40
0.8846153846153846
 40
0.8846153846153846
 40
0.8846153846153846
 40
0.8846153846153846
 40
0.9230769230769231
 40
0.9230769230769231
 40
0.9230769230769231
 40
0.9230769230769231
 40
1.0
 40
1.0
 40
1.0
 40
1.0
 10
143.3583
 20
24.7686
 30
0.0
 10
142.3999
 20
27.3622
 30
0.0
 10
139.5689
 20
28.5078
 30
0.0
 10
137.3872
 20
25.2292
 30
0.0
 10
137.3872
 20
25.2292
 30
0.0
 10
133.7292
 20
28.1745
 30
0.0
 10
138.8014
 20
31.5968
 30
0.0
 10
142.2948
 20
28.088
 30
0.0
 10
142.2948
 20
28.088
 30
0.0
 10
139.0876
 20
32.8983
 30
0.0
 10
136.0663
 20
31.5026
 30
0.0
 10
132.7035
 20
28.6433
 30
0.0
 10
132.7035
 20
28.6433
 30
0.0
 10
131.9728
 20
28.022
 30
0.0
 10
130.911
 20
26.9803
 30
0.0
 10
129.683
 20
26.9601
 30
0.0
 10
129.683
 20
26.9601
 30
0.0
 10
127.8836
 20
27.1082
 30
0.0
 10
126.9406
 20
26.8879
 30
0.0
 10
125.5606
 20
27.0617
 30
0.0
 10
125.5606
 20
27.0617
 30
0.0
 10
127.5285
 20
27.9523
 30
0.0
 10
129.2155
 20
31.8922
 30
0.0
 10
133.2884
 20
33.6473
 30
0.0
 10
133.2884
 20
33.6473
 30
0.0
 10
136.4158
 20
34.9949
 30
0.0
 10
142.2419
 20
31.8799
 30
0.0
 10
143.4397
 20
28.9149
 30
0.0
 10
143.4397
 20
28.9149
 30
0.0
 10
142.8084
 20
32.1505
 30
0.0
 10
140.5436
 20
34.3683
 30
0.0
 10
137.9715
 20
34.5023
 30
0.0
 10
137.9715
 20
34.5023
 30
0.0
 10
138.0642
 20
35.9974
 30
0.0
 10
136.2428
 20
37.2302
 30
0.0
 10
133.8598
 20
36.6371
 30
0.0
 10
133.8598
 20
36.6371
 30
0.0
 10
135.592
 20
40.2725
 30
0.0
 10
142.2369
 20
39.9417
 30
0.0
 10
143.8293
 20
33.5808
 30
0.0
 10
143.8293
 20
33.5808
 30
0.0
 10
143.8922
 20
36.3387
 30
0.0
 10
142.9413
 20
41.2841
 30
0.0
 10
142.0294
 20
43.3
 30
0.0
 10
142.0294
 20
43.3
 30
0.0
 10
143.5929
 20
45.3127
 30
0.0
 10
144.3049
 20
46.6845
 30
0.0
 10
145.0564
 20
48.6747
 30
0.0
 10
145.0564
 20
48.6747
 30
0.0
 10
145.8077
 20
46.6845
 30
0.0
 10
146.6141
 20
45.3127
 30
0.0
 10
148.1775
 20
43.3
 30
0.0
 10
148.1775
 20
43.3
 30
0.0
 10
147.2657
 20
41.2841
 30
0.0
 10
146.3148
 20
36.3387
 30
0.0
 10
146.3777
 20
33.5808
 30
0.0
 10
146.3777
 20
33.5808
 30
0.0
 10
147.9701
 20
39.9417
 30
0.0
 10
154.615
 20
40.2725
 30
0.0
 10
156.3472
 20
36.6371
 30
0.0
 10
156.3472
 20
36.6371
 30
0.0
 10
153.9642
 20
37.2302
 30
0.0
 10
152.1428
 20
35.9974
 30
0.0
 10
152.2355
 20
34.5023
 30
0.0
 10
152.2355
 20
34.5023
 30
0.0
 10
149.6634
 20
34.3683
 30
0.0
 10
147.3986
 20
32.1505
 30
0.0
 10
146.7673
 20
28.9149
 30
0.0
 10
146.7673
 20
28.9149
 30
0.0
 10
147.9651
 20
31.8799
 30
0.0
 10
153.7912
 20
34.9949
 30
0.0
 10
156.9186
 20
33.6473
 30
0.0
 10
156.9186
 20
33.6473
 30
0.0
 10
160.9915
 20
31.8922
 30
0.0
 10
162.6785
 20
27.9523
 30
0.0
 10
164.6464
 20
27.0617
 30
0.0
 10
164.6464
 20
27.0617
 30
0.0
 10
163.2664
 20
26.8879
 30
0.0
 10
162.3234
 20
27.1082
 30
0.0
 10
160.524
 20
26.9601
 30
0.0
 10
160.524
 20
26.9601
 30
0.0
 10
159.296
 20
26.9803
 30
0.0
 10
158.2342
 20
28.022
 30
0.0
 10
157.5035
 20
28.6433
 30
0.0
 10
157.5035
 20
28.6433
 30
0.0
 10
154.1407
 20
31.5026
 30
0.0
 10
151.1194
 20
32.8983
 30
0.0
 10
147.9122
 20
28.088
 30
0.0
 10
147.9122
 20
28.088
 30
0.0
 10
151.4056
 20
31.5968
 30
0.0
 10
156.4778
 20
28.1745
 30
0.0
 10
152.8198
 20
25.2292
 30
0.0
 10
152.8198
 20
25.2292
 30
0.0
 10
150.6381
 20
28.5078
 30
0.0
 10
147.8071
 20
27.3622
 30
0.0
 10
146.8487
 20
24.7686
 30
0.0
 10
146.8487
 20
24.7686
 30
0.0
 10
146.8487
 20
24.7686
 30
0.0
 10
143.3583
 20
24.7686
 30
0.0
 10
143.3583
 20
24.7686
 30
0.0
  0
ELLIPSE
  5
57
330
1F
100
AcDbEntity
  8
layer 1
 62
   250
370
    18
100
AcDbEllipse
 10
145.0488
 20
20.962
 30
0.0
 11
3.8528
 21
0.0
 31
0.0
210
0.0
220
0.0
230
1.0
 40
0.5459406146179403
 41
0.0
 42
6.283185307179586
  0
SPLINE
  5
58
330
1F
100
AcDbEntity
  8
layer 1
 62
     7
370
    18
100
AcDbSpline
210
0.0
220
0.0
230
1.0
 70
    11
 71
     3
 72
   104
 73
   100
 74
     0
 42
0.0000000001
 43
0.0000000001
 12
1.0
 22
0.0
 32
0.0
 13
1.0
 23
0.0
 33
0.0
 40
0.0
 40
0.0
 40
0.0
 40
0.0
 40
0.0384615384615385
 40
0.0384615384615385
 40
0.0384615384615385
 40
0.0384615384615385
 40
0.0769230769230769
 40
0.0769230769230769
 40
0.0769230769230769
 40
0.0769230769230769
 40
0.1153846153846154
 40
0.1153846153846154
 40
0.1153846153846154
 40
0.1153846153846154
 40
0.1538461538461539
 40
0.1538461538461539
 40
0.1538461538461539
 40
0.1538461538461539
 40
0.1923076923076923
 40
0.1923076923076923
 40
0.1923076923076923
 40
0.1923076923076923
 40
0.2307692307692308
 40
0.2307692307692308
 40
0.2307692307692308
 40
0.2307692307692308
 40
0.2692307692307692
 40
0.2692307692307692
 40
0.2692307692307692
 40
0.2692307692307692
 40
0.3076923076923077
 40
0.3076923076923077
 40
0.3076923076923077
 40
0.3076923076923077
 40
0.3461538461538461
 40
0.3461538461538461
 40
0.3461538461538461
 40
0.3461538461538461
 40
0.3846153846153846
 40
0.3846153846153846
 40
0.3846153846153846
 40
0.3846153846153846
 40
0.4230769230769231
 40
0.4230769230769231
 40
0.4230769230769231
 40
0.4230769230769231
 40
0.4615384615384616
 40
0.4615384615384616
 40
0.4615384615384616
 40
0.4615384615384616
 40
0.5
 40
0.5
 40
0.5
 40
0.5
 40
0.5384615384615384
 40
0.5384615384615384
 40
0.5384615384615384
 40
0.5384615384615384
 40
0.5769230769230769
 40
0.5769230769230769
 40
0.5769230769230769
 40
0.5769230769230769
 40
0.6153846153846154
 40
0.6153846153846154
 40
0.6153846153846154
 40
0.6153846153846154
 40
0.6538461538461539
 40
0.6538461538461539
 40
0.6538461538461539
 40
0.6538461538461539
 40
0.6923076923076923
 40
0.6923076923076923
 40
0.6923076923076923
 40
0.6923076923076923
 40
0.7307692307692307
 40
0.7307692307692307
 40
0.7307692307692307
 40
0.7307692307692307
 40
0.7692307692307693
 40
0.7692307692307693
 40
0.7692307692307693
 40
0.7692307692307693
 40
0.8076923076923077
 40
0.8076923076923077
 40
0.8076923076923077
 40
0.8076923076923077
 40
0.8461538461538461
 40
0.8461538461538461
 40
0.8461538461538461
 40
0.8461538461538461
 40
0.8846153846153846
 40
0.8846153846153846
 40
0.8846153846153846
 40
0.8846153846153846
 40
0.9230769230769231
 40
0.9230769230769231
 40
0.9230769230769231
 40
0.9230769230769231
 40
1.0
 40
1.0
 40
1.0
 40
1.0
 10
98.2388
 20
24.7686
 30
0.0
 10
97.2803
 20
27.3622
 30
0.0
 10
94.4493
 20
28.5078
 30
0.0
 10
92.2677
 20
25.2292
 30
0.0
 10
92.2677
 20
25.2292
 30
0.0
 10
88.6097
 20
28.1745
 30
0.0
 10
93.6818
 20
31.5968
 30
0.0
 10
97.1752
 20
28.088
 30
0.0
 10
97.1752
 20
28.088
 30
0.0
 10
93.968
 20
32.8983
 30
0.0
 10
90.9468
 20
31.5026
 30
0.0
 10
87.584
 20
28.6433
 30
0.0
 10
87.584
 20
28.6433
 30
0.0
 10
86.8533
 20
28.022
 30
0.0
 10
85.7914
 20
26.9803
 30
0.0
 10
84.5634
 20
26.9601
 30
0.0
 10
84.5634
 20
26.9601
 30
0.0
 10
82.7641
 20
27.1082
 30
0.0
 10
81.8211
 20
26.8879
 30
0.0
 10
80.441
 20
27.0617
 30
0.0
 10
80.441
 20
27.0617
 30
0.0
 10
82.4089
 20
27.9523
 30
0.0
 10
84.096
 20
31.8922
 30
0.0
 10
88.1688
 20
33.6473
 30
0.0
 10
88.1688
 20
33.6473
 30
0.0
 10
91.2963
 20
34.9949
 30
0.0
 10
97.1224
 20
31.8799
 30
0.0
 10
98.3202
 20
28.9149
 30
0.0
 10
98.3202
 20
28.9149
 30
0.0
 10
97.6889
 20
32.1505
 30
0.0
 10
95.4241
 20
34.3683
 30
0.0
 10
92.8519
 20
34.5023
 30
0.0
 10
92.8519
 20
34.5023
 30
0.0
 10
92.9447
 20
35.9974
 30
0.0
 10
91.1233
 20
37.2302
 30
0.0
 10
88.7403
 20
36.6371
 30
0.0
 10
88.7403
 20
36.6371
 30
0.0
 10
90.4724
 20
40.2725
 30
0.0
 10
97.1173
 20
39.9417
 30
0.0
 10
98.7098
 20
33.5808
 30
0.0
 10
98.7098
 20
33.5808
 30
0.0
 10
98.7727
 20
36.3387
 30
0.0
 10
97.8218
 20
41.2841
 30
0.0
 10
96.9099
 20
43.3
 30
0.0
 10
96.9099
 20
43.3
 30
0.0
 10
98.4733
 20
45.3127
 30
0.0
 10
99.1854
 20
46.6845
 30
0.0
 10
99.9368
 20
48.6747
 30
0.0
 10
99.9368
 20
48.6747
 30
0.0
 10
100.6882
 20
46.6845
 30
0.0
 10
101.4946
 20
45.3127
 30
0.0
 10
103.058
 20
43.3
 30
0.0
 10
103.058
 20
43.3
 30
0.0
 10
102.1461
 20
41.2841
 30
0.0
 10
101.1952
 20
36.3387
 30
0.0
 10
101.2582
 20
33.5808
 30
0.0
 10
101.2582
 20
33.5808
 30
0.0
 10
102.8506
 20
39.9417
 30
0.0
 10
109.4955
 20
40.2725
 30
0.0
 10
111.2276
 20
36.6371
 30
0.0
 10
111.2276
 20
36.6371
 30
0.0
 10
108.8446
 20
37.2302
 30
0.0
 10
107.0233
 20
35.9974
 30
0.0
 10
107.116
 20
34.5023
 30
0.0
 10
107.116
 20
34.5023
 30
0.0
 10
104.5439
 20
34.3683
 30
0.0
 10
102.279
 20
32.1505
 30
0.0
 10
101.6477
 20
28.9149
 30
0.0
 10
101.6477
 20
28.9149
 30
0.0
 10
102.8455
 20
31.8799
 30
0.0
 10
108.6716
 20
34.9949
 30
0.0
 10
111.7991
 20
33.6473
 30
0.0
 10
111.7991
 20
33.6473
 30
0.0
 10
115.8719
 20
31.8922
 30
0.0
 10
117.559
 20
27.9523
 30
0.0
 10
119.5269
 20
27.0617
 30
0.0
 10
119.5269
 20
27.0617
 30
0.0
 10
118.1468
 20
26.8879
 30
0.0
 10
117.2038
 20
27.1082
 30
0.0
 10
115.4045
 20
26.9601
 30
0.0
 10
115.4045
 20
26.9601
 30
0.0
 10
114.1765
 20
26.9803
 30
0.0
 10
113.1146
 20
28.022
 30
0.0
 10
112.3839
 20
28.6433
 30
0.0
 10
112.3839
 20
28.6433
 30
0.0
 10
109.0211
 20
31.5026
 30
0.0
 10
105.9999
 20
32.8983
 30
0.0
 10
102.7927
 20
28.088
 30
0.0
 10
102.7927
 20
28.088
 30
0.0
 10
106.2861
 20
31.5968
 30
0.0
 10
111.3582
 20
28.1745
 30
0.0
 10
107.7002
 20
25.2292
 30
0.0
 10
107.7002
 20
25.2292
 30
0.0
 10
105.5186
 20
28.5078
 30
0.0
 10
102.6876
 20
27.3622
 30
0.0
 10
101.7291
 20
24.7686
 30
0.0
 10
101.7291
 20
24.7686
 30
0.0
 10
101.7291
 20
24.7686
 30
0.0
 10
98.2388
 20
24.7686
 30
0.0
 10
98.2388
 20
24.7686
 30
0.0
  0
ELLIPSE
  5
59
330
1F
100
AcDbEntity
  8
layer 1
 62
   250
370
    18
100
AcDbEllipse
 10
99.9293
 20
20.962
 30
0.0
 11
3.8528
 21
0.0
 31
0.0
210
0.0
220
0.0
230
1.0
 40
0.5459406146179403
 41
0.0
 42
6.283185307179586
  0
SPLINE
  5
5A
330
1F
100
AcDbEntity
  8
layer 1
 62
     7
370
    18
100
AcDbSpline
210
0.0
220
0.0
230
1.0
 70
    11
 71
     3
 72
    60
 73
    56
 74
     0
 42
0.0000000001
 43
0.0000000001
 12
1.0
 22
0.0
 32
0.0
 13
1.0
 23
0.0
 33
0.0
 40
0.0
 40
0.0
 40
0.0
 40
0.0
 40
0.0666666666666667
 40
0.0666666666666667
 40
0.0666666666666667
 40
0.0666666666666667
 40
0.1333333333333333
 40
0.1333333333333333
 40
0.1333333333333333
 40
0.1333333333333333
 40
0.2
 40
0.2
 40
0.2
 40
0.2
 40
0.2666666666666667
 40
0.2666666666666667
 40
0.2666666666666667
 40
0.2666666666666667
 40
0.3333333333333333
 40
0.3333333333333333
 40
0.3333333333333333
 40
0.3333333333333333
 40
0.4
 40
0.4
 40
0.4
 40
0.4
 40
0.4666666666666667
 40
0.4666666666666667
 40
0.4666666666666667
 40
0.4666666666666667
 40
0.5333333333333333
 40
0.5333333333333333
 40
0.5333333333333333
 40
0.5333333333333333
 40
0.6
 40
0.6
 40
0.6
 40
0.6
 40
0.6666666666666666
 40
0.6666666666666666
 40
0.6666666666666666
 40
0.6666666666666666
 40
0.7333333333333333
 40
0.7333333333333333
 40
0.7333333333333333
 40
0.7333333333333333
 40
0.8
 40
0.8
 40
0.8
 40
0.8
 40
0.8666666666666667
 40
0.8666666666666667
 40
0.8666666666666667
 40
0.8666666666666667
 40
1.0
 40
1.0
 40
1.0
 40
1.0
 10
55.0535
 20
48.6747
 30
0.0
 10
55.8049
 20
46.6845
 30
0.0
 10
56.6113
 20
45.3127
 30
0.0
 10
58.1747
 20
43.3
 30
0.0
 10
58.1747
 20
43.3
 30
0.0
 10
57.2628
 20
41.2841
 30
0.0
 10
56.3119
 20
36.3387
 30
0.0
 10
56.3748
 20
33.5808
 30
0.0
 10
56.3748
 20
33.5808
 30
0.0
 10
57.9673
 20
39.9417
 30
0.0
 10
64.6122
 20
40.2725
 30
0.0
 10
66.3443
 20
36.6371
 30
0.0
 10
66.3443
 20
36.6371
 30
0.0
 10
63.9613
 20
37.2302
 30
0.0
 10
62.1399
 20
35.9974
 30
0.0
 10
62.2327
 20
34.5023
 30
0.0
 10
62.2327
 20
34.5023
 30
0.0
 10
59.6605
 20
34.3683
 30
0.0
 10
57.3957
 20
32.1505
 30
0.0
 10
56.7644
 20
28.9149
 30
0.0
 10
56.7644
 20
28.9149
 30
0.0
 10
57.9622
 20
31.8799
 30
0.0
 10
63.7883
 20
34.9949
 30
0.0
 10
66.9158
 20
33.6473
 30
0.0
 10
66.9158
 20
33.6473
 30
0.0
 10
70.9886
 20
31.8922
 30
0.0
 10
72.6757
 20
27.9523
 30
0.0
 10
74.6435
 20
27.0617
 30
0.0
 10
74.6435
 20
27.0617
 30
0.0
 10
73.2635
 20
26.8879
 30
0.0
 10
72.3205
 20
27.1082
 30
0.0
 10
70.5211
 20
26.9601
 30
0.0
 10
70.5211
 20
26.9601
 30
0.0
 10
69.2932
 20
26.9803
 30
0.0
 10
68.2313
 20
28.022
 30
0.0
 10
67.5006
 20
28.6433
 30
0.0
 10
67.5006
 20
28.6433
 30
0.0
 10
64.1378
 20
31.5026
 30
0.0
 10
61.1166
 20
32.8983
 30
0.0
 10
57.9093
 20
28.088
 30
0.0
 10
57.9093
 20
28.088
 30
0.0
 10
61.4027
 20
31.5968
 30
0.0
 10
66.4749
 20
28.1745
 30
0.0
 10
62.8169
 20
25.2292
 30
0.0
 10
62.8169
 20
25.2292
 30
0.0
 10
60.6352
 20
28.5078
 30
0.0
 10
57.8042
 20
27.3622
 30
0.0
 10
56.8458
 20
24.7686
 30
0.0
 10
56.8458
 20
24.7686
 30
0.0
 10
56.8458
 20
24.7686
 30
0.0
 10
55.05
 20
24.7377
 30
0.0
 10
55.05
 20
24.7377
 30
0.0
 10
55.05
 20
24.7377
 30
0.0
 10
55.05
 20
24.7377
 30
0.0
 10
55.0535
 20
48.6747
 30
0.0
 10
55.0535
 20
48.6747
 30
0.0
  0
SPLINE
  5
5B
330
1F
100
AcDbEntity
  8
layer 1
 62
   250
370
    18
100
AcDbSpline
210
0.0
220
0.0
230
1.0
 70
    11
 71
     3
 72
    16
 73
    12
 74
     0
 42
0.0000000001
 43
0.0000000001
 12
1.0
 22
0.0
 32
0.0
 13
1.0
 23
0.0
 33
0.0
 40
0.0
 40
0.0
 40
0.0
 40
0.0
 40
0.25
 40
0.25
 40
0.25
 40
0.25
 40
0.5
 40
0.5
 40
0.5
 40
0.5
 40
1.0
 40
1.0
 40
1.0
 40
1.0
 10
55.0459
 20
23.0654
 30
0.0
 10
57.1734
 20
23.0654
 30
0.0
 10
58.8988
 20
22.1235
 30
0.0
 10
58.8988
 20
20.962
 30
0.0
 10
58.8988
 20
20.962
 30
0.0
 10
58.8988
 20
19.8005
 30
0.0
 10
57.1733
 20
18.8586
 30
0.0
 10
55.0459
 20
18.8586
 30
0.0
 10
55.0459
 20
18.8586
 30
0.0
 10
55.0459
 20
18.8586
 30
0.0
 10
55.0459
 20
23.0654
 30
0.0
 10
55.0459
 20
23.0654
 30
0.0
  0
SPLINE
  5
5C
330
1F
100
AcDbEntity
  8
layer 1
 62
     7
370
    18
100
AcDbSpline
210
0.0
220
0.0
230
1.0
 70
    11
 71
     3
 72
    60
 73
    56
 74
     0
 42
0.0000000001
 43
0.0000000001
 12
1.0
 22
0.0
 32
0.0
 13
1.0
 23
0.0
 33
0.0
 40
0.0
 40
0.0
 40
0.0
 40
0.0
 40
0.0666666666666667
 40
0.0666666666666667
 40
0.0666666666666667
 40
0.0666666666666667
 40
0.1333333333333333
 40
0.1333333333333333
 40
0.1333333333333333
 40
0.1333333333333333
 40
0.2
 40
0.2
 40
0.2
 40
0.2
 40
0.2666666666666667
 40
0.2666666666666667
 40
0.2666666666666667
 40
0.2666666666666667
 40
0.3333333333333333
 40
0.3333333333333333
 40
0.3333333333333333
 40
0.3333333333333333
 40
0.4
 40
0.4
 40
0.4
 40
0.4
 40
0.4666666666666667
 40
0.4666666666666667
 40
0.4666666666666667
 40
0.4666666666666667
 40
0.5333333333333333
 40
0.5333333333333333
 40
0.5333333333333333
 40
0.5333333333333333
 40
0.6
 40
0.6
 40
0.6
 40
0.6
 40
0.6666666666666666
 40
0.6666666666666666
 40
0.6666666666666666
 40
0.6666666666666666
 40
0.7333333333333333
 40
0.7333333333333333
 40
0.7333333333333333
 40
0.7333333333333333
 40
0.8
 40
0.8
 40
0.8
 40
0.8
 40
0.8666666666666667
 40
0.8666666666666667
 40
0.8666666666666667
 40
0.8666666666666667
 40
1.0
 40
1.0
 40
1.0
 40
1.0
 10
189.9652
 20
48.6747
 30
0.0
 10
189.2139
 20
46.6845
 30
0.0
 10
188.4075
 20
45.3127
 30
0.0
 10
186.8441
 20
43.3
 30
0.0
 10
186.8441
 20
43.3
 30
0.0
 10
187.756
 20
41.2841
 30
0.0
 10
188.7068
 20
36.3387
 30
0.0
 10
188.6439
 20
33.5808
 30
0.0
 10
188.6439
 20
33.5808
 30
0.0
 10
187.0515
 20
39.9417
 30
0.0
 10
180.4066
 20
40.2725
 30
0.0
 10
178.6745
 20
36.6371
 30
0.0
 10
178.6745
 20
36.6371
 30
0.0
 10
181.0574
 20
37.2302
 30
0.0
 10
182.8788
 20
35.9974
 30
0.0
 10
182.7861
 20
34.5023
 30
0.0
 10
182.7861
 20
34.5023
 30
0.0
 10
185.3582
 20
34.3683
 30
0.0
 10
187.623
 20
32.1505
 30
0.0
 10
188.2543
 20
28.9149
 30
0.0
 10
188.2543
 20
28.9149
 30
0.0
 10
187.0566
 20
31.8799
 30
0.0
 10
181.2304
 20
34.9949
 30
0.0
 10
178.103
 20
33.6473
 30
0.0
 10
178.103
 20
33.6473
 30
0.0
 10
174.0301
 20
31.8922
 30
0.0
 10
172.3431
 20
27.9523
 30
0.0
 10
170.3752
 20
27.0617
 30
0.0
 10
170.3752
 20
27.0617
 30
0.0
 10
171.7553
 20
26.8879
 30
0.0
 10
172.6983
 20
27.1082
 30
0.0
 10
174.4976
 20
26.9601
 30
0.0
 10
174.4976
 20
26.9601
 30
0.0
 10
175.7256
 20
26.9803
 30
0.0
 10
176.7875
 20
28.022
 30
0.0
 10
177.5182
 20
28.6433
 30
0.0
 10
177.5182
 20
28.6433
 30
0.0
 10
180.8809
 20
31.5026
 30
0.0
 10
183.9022
 20
32.8983
 30
0.0
 10
187.1094
 20
28.088
 30
0.0
 10
187.1094
 20
28.088
 30
0.0
 10
183.616
 20
31.5968
 30
0.0
 10
178.5438
 20
28.1745
 30
0.0
 10
182.2019
 20
25.2292
 30
0.0
 10
182.2019
 20
25.2292
 30
0.0
 10
184.3835
 20
28.5078
 30
0.0
 10
187.2145
 20
27.3622
 30
0.0
 10
188.173
 20
24.7686
 30
0.0
 10
188.173
 20
24.7686
 30
0.0
 10
188.173
 20
24.7686
 30
0.0
 10
189.9687
 20
24.7377
 30
0.0
 10
189.9687
 20
24.7377
 30
0.0
 10
189.9687
 20
24.7377
 30
0.0
 10
189.9687
 20
24.7377
 30
0.0
 10
189.9652
 20
48.6747
 30
0.0
 10
189.9652
 20
48.6747
 30
0.0
  0
SPLINE
  5
5D
330
1F
100
AcDbEntity
  8
layer 1
 62
   250
370
    18
100
AcDbSpline
210
0.0
220
0.0
230
1.0
 70
    11
 71
     3
 72
    16
 73
    12
 74
     0
 42
0.0000000001
 43
0.0000000001
 12
1.0
 22
0.0
 32
0.0
 13
1.0
 23
0.0
 33
0.0
 40
0.0
 40
0.0
 40
0.0
 40
0.0
 40
0.25
 40
0.25
 40
0.25
 40
0.25
 40
0.5
 40
0.5
 40
0.5
 40
0.5
 40
1.0
 40
1.0
 40
1.0
 40
1.0
 10
189.9728
 20
23.0654
 30
0.0
 10
187.8453
 20
23.0654
 30
0.0
 10
186.1199
 20
22.1235
 30
0.0
 10
186.1199
 20
20.962
 30
0.0
 10
186.1199
 20
20.962
 30
0.0
 10
186.1199
 20
19.8005
 30
0.0
 10
187.8454
 20
18.8586
 30
0.0
 10
189.9728
 20
18.8586
 30
0.0
 10
189.9728
 20
18.8586
 30
0.0
 10
189.9728
 20
18.8586
 30
0.0
 10
189.9728
 20
23.0654
 30
0.0
 10
189.9728
 20
23.0654
 30
0.0
  0
SPLINE
  5
5E
330
1F
100
AcDbEntity
  8
layer 1
 62
     7
370
    18
100
AcDbSpline
210
0.0
220
0.0
230
1.0
 70
    11
 71
     3
 72
   104
 73
   100
 74
     0
 42
0.0000000001
 43
0.0000000001
 12
1.0
 22
0.0
 32
0.0
 13
1.0
 23
0.0
 33
0.0
 40
0.0
 40
0.0
 40
0.0
 40
0.0
 40
0.0384615384615385
 40
0.0384615384615385
 40
0.0384615384615385
 40
0.0384615384615385
 40
0.0769230769230769
 40
0.0769230769230769
 40
0.0769230769230769
 40
0.0769230769230769
 40
0.1153846153846154
 40
0.1153846153846154
 40
0.1153846153846154
 40
0.1153846153846154
 40
0.1538461538461539
 40
0.1538461538461539
 40
0.1538461538461539
 40
0.1538461538461539
 40
0.1923076923076923
 40
0.1923076923076923
 40
0.1923076923076923
 40
0.1923076923076923
 40
0.2307692307692308
 40
0.2307692307692308
 40
0.2307692307692308
 40
0.2307692307692308
 40
0.2692307692307692
 40
0.2692307692307692
 40
0.2692307692307692
 40
0.2692307692307692
 40
0.3076923076923077
 40
0.3076923076923077
 40
0.3076923076923077
 40
0.3076923076923077
 40
0.3461538461538461
 40
0.3461538461538461
 40
0.3461538461538461
 40
0.3461538461538461
 40
0.3846153846153846
 40
0.3846153846153846
 40
0.3846153846153846
 40
0.3846153846153846
 40
0.4230769230769231
 40
0.4230769230769231
 40
0.4230769230769231
 40
0.4230769230769231
 40
0.4615384615384616
 40
0.4615384615384616
 40
0.4615384615384616
 40
0.4615384615384616
 40
0.5
 40
0.5
 40
0.5
 40
0.5
 40
0.5384615384615384
 40
0.5384615384615384
 40
0.5384615384615384
 40
0.5384615384615384
 40
0.5769230769230769
 40
0.5769230769230769
 40
0.5769230769230769
 40
0.5769230769230769
 40
0.6153846153846154
 40
0.6153846153846154
 40
0.6153846153846154
 40
0.6153846153846154
 40
0.6538461538461539
 40
0.6538461538461539
 40
0.6538461538461539
 40
0.6538461538461539
 40
0.6923076923076923
 40
0.6923076923076923
 40
0.6923076923076923
 40
0.6923076923076923
 40
0.7307692307692307
 40
0.7307692307692307
 40
0.7307692307692307
 40
0.7307692307692307
 40
0.7692307692307693
 40
0.7692307692307693
 40
0.7692307692307693
 40
0.7692307692307693
 40
0.8076923076923077
 40
0.8076923076923077
 40
0.8076923076923077
 40
0.8076923076923077
 40
0.8461538461538461
 40
0.8461538461538461
 40
0.8461538461538461
 40
0.8461538461538461
 40
0.8846153846153846
 40
0.8846153846153846
 40
0.8846153846153846
 40
0.8846153846153846
 40
0.9230769230769231
 40
0.9230769230769231
 40
0.9230769230769231
 40
0.9230769230769231
 40
1.0
 40
1.0
 40
1.0
 40
1.0
 10
120.3766
 20
-4.1743
 30
0.0
 10
119.4182
 20
-1.5808
 30
0.0
 10
116.5872
 20
-0.4351
 30
0.0
 10
114.4055
 20
-3.7138
 30
0.0
 10
114.4055
 20
-3.7138
 30
0.0
 10
110.7475
 20
-0.7685
 30
0.0
 10
115.8197
 20
2.6538
 30
0.0
 10
119.3131
 20
-0.8549
 30
0.0
 10
119.3131
 20
-0.8549
 30
0.0
 10
116.1059
 20
3.9554
 30
0.0
 10
113.0846
 20
2.5597
 30
0.0
 10
109.7218
 20
-0.2996
 30
0.0
 10
109.7218
 20
-0.2996
 30
0.0
 10
108.9911
 20
-0.921
 30
0.0
 10
107.9293
 20
-1.9627
 30
0.0
 10
106.7013
 20
-1.9828
 30
0.0
 10
106.7013
 20
-1.9828
 30
0.0
 10
104.9019
 20
-1.8347
 30
0.0
 10
103.9589
 20
-2.055
 30
0.0
 10
102.5789
 20
-1.8812
 30
0.0
 10
102.5789
 20
-1.8812
 30
0.0
 10
104.5467
 20
-0.9907
 30
0.0
 10
106.2338
 20
2.9493
 30
0.0
 10
110.3067
 20
4.7043
 30
0.0
 10
110.3067
 20
4.7043
 30
0.0
 10
113.4341
 20
6.052
 30
0.0
 10
119.2602
 20
2.9369
 30
0.0
 10
120.458
 20
-0.028
 30
0.0
 10
120.458
 20
-0.028
 30
0.0
 10
119.8267
 20
3.2075
 30
0.0
 10
117.5619
 20
5.4254
 30
0.0
 10
114.9897
 20
5.5594
 30
0.0
 10
114.9897
 20
5.5594
 30
0.0
 10
115.0825
 20
7.0544
 30
0.0
 10
113.2611
 20
8.2873
 30
0.0
 10
110.8781
 20
7.6942
 30
0.0
 10
110.8781
 20
7.6942
 30
0.0
 10
112.6103
 20
11.3296
 30
0.0
 10
119.2551
 20
10.9987
 30
0.0
 10
120.8476
 20
4.6378
 30
0.0
 10
120.8476
 20
4.6378
 30
0.0
 10
120.9105
 20
7.3957
 30
0.0
 10
119.9596
 20
12.3412
 30
0.0
 10
119.0477
 20
14.357
 30
0.0
 10
119.0477
 20
14.357
 30
0.0
 10
120.6112
 20
16.3698
 30
0.0
 10
121.3232
 20
17.7415
 30
0.0
 10
122.0747
 20
19.7317
 30
0.0
 10
122.0747
 20
19.7317
 30
0.0
 10
122.826
 20
17.7415
 30
0.0
 10
123.6324
 20
16.3698
 30
0.0
 10
125.1958
 20
14.357
 30
0.0
 10
125.1958
 20
14.357
 30
0.0
 10
124.2839
 20
12.3412
 30
0.0
 10
123.3331
 20
7.3957
 30
0.0
 10
123.396
 20
4.6378
 30
0.0
 10
123.396
 20
4.6378
 30
0.0
 10
124.9884
 20
10.9987
 30
0.0
 10
131.6333
 20
11.3296
 30
0.0
 10
133.3654
 20
7.6942
 30
0.0
 10
133.3654
 20
7.6942
 30
0.0
 10
130.9825
 20
8.2873
 30
0.0
 10
129.1611
 20
7.0544
 30
0.0
 10
129.2538
 20
5.5594
 30
0.0
 10
129.2538
 20
5.5594
 30
0.0
 10
126.6817
 20
5.4254
 30
0.0
 10
124.4169
 20
3.2075
 30
0.0
 10
123.7856
 20
-0.028
 30
0.0
 10
123.7856
 20
-0.028
 30
0.0
 10
124.9833
 20
2.9369
 30
0.0
 10
130.8095
 20
6.052
 30
0.0
 10
133.9369
 20
4.7043
 30
0.0
 10
133.9369
 20
4.7043
 30
0.0
 10
138.0098
 20
2.9493
 30
0.0
 10
139.6968
 20
-0.9907
 30
0.0
 10
141.6647
 20
-1.8812
 30
0.0
 10
141.6647
 20
-1.8812
 30
0.0
 10
140.2846
 20
-2.055
 30
0.0
 10
139.3416
 20
-1.8347
 30
0.0
 10
137.5423
 20
-1.9828
 30
0.0
 10
137.5423
 20
-1.9828
 30
0.0
 10
136.3143
 20
-1.9627
 30
0.0
 10
135.2524
 20
-0.921
 30
0.0
 10
134.5217
 20
-0.2996
 30
0.0
 10
134.5217
 20
-0.2996
 30
0.0
 10
131.159
 20
2.5597
 30
0.0
 10
128.1377
 20
3.9554
 30
0.0
 10
124.9305
 20
-0.8549
 30
0.0
 10
124.9305
 20
-0.8549
 30
0.0
 10
128.4239
 20
2.6538
 30
0.0
 10
133.4961
 20
-0.7685
 30
0.0
 10
129.838
 20
-3.7138
 30
0.0
 10
129.838
 20
-3.7138
 30
0.0
 10
127.6564
 20
-0.4351
 30
0.0
 10
124.8254
 20
-1.5808
 30
0.0
 10
123.8669
 20
-4.1743
 30
0.0
 10
123.8669
 20
-4.1743
 30
0.0
 10
123.8669
 20
-4.1743
 30
0.0
 10
120.3766
 20
-4.1743
 30
0.0
 10
120.3766
 20
-4.1743
 30
0.0
  0
ELLIPSE
  5
5F
330
1F
100
AcDbEntity
  8
layer 1
 62
   250
370
    18
100
AcDbEllipse
 10
122.0671
 20
-7.9809
 30
0.0
 11
3.8528
 21
0.0
 31
0.0
210
0.0
220
0.0
230
1.0
 40
0.5459146594684385
 41
0.0
 42
6.283185307179586
  0
SPLINE
  5
60
330
1F
100
AcDbEntity
  8
layer 1
 62
     7
370
    18
100
AcDbSpline
210
0.0
220
0.0
230
1.0
 70
    11
 71
     3
 72
   104
 73
   100
 74
     0
 42
0.0000000001
 43
0.0000000001
 12
1.0
 22
0.0
 32
0.0
 13
1.0
 23
0.0
 33
0.0
 40
0.0
 40
0.0
 40
0.0
 40
0.0
 40
0.0384615384615385
 40
0.0384615384615385
 40
0.0384615384615385
 40
0.0384615384615385
 40
0.0769230769230769
 40
0.0769230769230769
 40
0.0769230769230769
 40
0.0769230769230769
 40
0.1153846153846154
 40
0.1153846153846154
 40
0.1153846153846154
 40
0.1153846153846154
 40
0.1538461538461539
 40
0.1538461538461539
 40
0.1538461538461539
 40
0.1538461538461539
 40
0.1923076923076923
 40
0.1923076923076923
 40
0.1923076923076923
 40
0.1923076923076923
 40
0.2307692307692308
 40
0.2307692307692308
 40
0.2307692307692308
 40
0.2307692307692308
 40
0.2692307692307692
 40
0.2692307692307692
 40
0.2692307692307692
 40
0.2692307692307692
 40
0.3076923076923077
 40
0.3076923076923077
 40
0.3076923076923077
 40
0.3076923076923077
 40
0.3461538461538461
 40
0.3461538461538461
 40
0.3461538461538461
 40
0.3461538461538461
 40
0.3846153846153846
 40
0.3846153846153846
 40
0.3846153846153846
 40
0.3846153846153846
 40
0.4230769230769231
 40
0.4230769230769231
 40
0.4230769230769231
 40
0.4230769230769231
 40
0.4615384615384616
 40
0.4615384615384616
 40
0.4615384615384616
 40
0.4615384615384616
 40
0.5
 40
0.5
 40
0.5
 40
0.5
 40
0.5384615384615384
 40
0.5384615384615384
 40
0.5384615384615384
 40
0.5384615384615384
 40
0.5769230769230769
 40
0.5769230769230769
 40
0.5769230769230769
 40
0.5769230769230769
 40
0.6153846153846154
 40
0.6153846153846154
 40
0.6153846153846154
 40
0.6153846153846154
 40
0.6538461538461539
 40
0.6538461538461539
 40
0.6538461538461539
 40
0.6538461538461539
 40
0.6923076923076923
 40
0.6923076923076923
 40
0.6923076923076923
 40
0.6923076923076923
 40
0.7307692307692307
 40
0.7307692307692307
 40
0.7307692307692307
 40
0.7307692307692307
 40
0.7692307692307693
 40
0.7692307692307693
 40
0.7692307692307693
 40
0.7692307692307693
 40
0.8076923076923077
 40
0.8076923076923077
 40
0.8076923076923077
 40
0.8076923076923077
 40
0.8461538461538461
 40
0.8461538461538461
 40
0.8461538461538461
 40
0.8461538461538461
 40
0.8846153846153846
 40
0.8846153846153846
 40
0.8846153846153846
 40
0.8846153846153846
 40
0.9230769230769231
 40
0.9230769230769231
 40
0.9230769230769231
 40
0.9230769230769231
 40
1.0
 40
1.0
 40
1.0
 40
1.0
 10
75.2571
 20
-4.1743
 30
0.0
 10
74.2986
 20
-1.5808
 30
0.0
 10
71.4676
 20
-0.4351
 30
0.0
 10
69.286
 20
-3.7138
 30
0.0
 10
69.286
 20
-3.7138
 30
0.0
 10
65.6279
 20
-0.7685
 30
0.0
 10
70.7001
 20
2.6538
 30
0.0
 10
74.1935
 20
-0.8549
 30
0.0
 10
74.1935
 20
-0.8549
 30
0.0
 10
70.9863
 20
3.9554
 30
0.0
 10
67.9651
 20
2.5597
 30
0.0
 10
64.6023
 20
-0.2996
 30
0.0
 10
64.6023
 20
-0.2996
 30
0.0
 10
63.8716
 20
-0.921
 30
0.0
 10
62.8097
 20
-1.9627
 30
0.0
 10
61.5817
 20
-1.9828
 30
0.0
 10
61.5817
 20
-1.9828
 30
0.0
 10
59.7824
 20
-1.8347
 30
0.0
 10
58.8394
 20
-2.055
 30
0.0
 10
57.4593
 20
-1.8812
 30
0.0
 10
57.4593
 20
-1.8812
 30
0.0
 10
59.4272
 20
-0.9907
 30
0.0
 10
61.1143
 20
2.9493
 30
0.0
 10
65.1871
 20
4.7043
 30
0.0
 10
65.1871
 20
4.7043
 30
0.0
 10
68.3146
 20
6.052
 30
0.0
 10
74.1407
 20
2.9369
 30
0.0
 10
75.3385
 20
-0.028
 30
0.0
 10
75.3385
 20
-0.028
 30
0.0
 10
74.7072
 20
3.2075
 30
0.0
 10
72.4423
 20
5.4254
 30
0.0
 10
69.8702
 20
5.5594
 30
0.0
 10
69.8702
 20
5.5594
 30
0.0
 10
69.9629
 20
7.0544
 30
0.0
 10
68.1416
 20
8.2873
 30
0.0
 10
65.7586
 20
7.6942
 30
0.0
 10
65.7586
 20
7.6942
 30
0.0
 10
67.4907
 20
11.3296
 30
0.0
 10
74.1356
 20
10.9987
 30
0.0
 10
75.728
 20
4.6378
 30
0.0
 10
75.728
 20
4.6378
 30
0.0
 10
75.791
 20
7.3957
 30
0.0
 10
74.8401
 20
12.3412
 30
0.0
 10
73.9282
 20
14.357
 30
0.0
 10
73.9282
 20
14.357
 30
0.0
 10
75.4916
 20
16.3698
 30
0.0
 10
76.2037
 20
17.7415
 30
0.0
 10
76.9551
 20
19.7317
 30
0.0
 10
76.9551
 20
19.7317
 30
0.0
 10
77.7065
 20
17.7415
 30
0.0
 10
78.5129
 20
16.3698
 30
0.0
 10
80.0763
 20
14.357
 30
0.0
 10
80.0763
 20
14.357
 30
0.0
 10
79.1644
 20
12.3412
 30
0.0
 10
78.2135
 20
7.3957
 30
0.0
 10
78.2764
 20
4.6378
 30
0.0
 10
78.2764
 20
4.6378
 30
0.0
 10
79.8689
 20
10.9987
 30
0.0
 10
86.5138
 20
11.3296
 30
0.0
 10
88.2459
 20
7.6942
 30
0.0
 10
88.2459
 20
7.6942
 30
0.0
 10
85.8629
 20
8.2873
 30
0.0
 10
84.0415
 20
7.0544
 30
0.0
 10
84.1343
 20
5.5594
 30
0.0
 10
84.1343
 20
5.5594
 30
0.0
 10
81.5621
 20
5.4254
 30
0.0
 10
79.2973
 20
3.2075
 30
0.0
 10
78.666
 20
-0.028
 30
0.0
 10
78.666
 20
-0.028
 30
0.0
 10
79.8638
 20
2.9369
 30
0.0
 10
85.6899
 20
6.052
 30
0.0
 10
88.8174
 20
4.7043
 30
0.0
 10
88.8174
 20
4.7043
 30
0.0
 10
92.8902
 20
2.9493
 30
0.0
 10
94.5773
 20
-0.9907
 30
0.0
 10
96.5451
 20
-1.8812
 30
0.0
 10
96.5451
 20
-1.8812
 30
0.0
 10
95.1651
 20
-2.055
 30
0.0
 10
94.2221
 20
-1.8347
 30
0.0
 10
92.4227
 20
-1.9828
 30
0.0
 10
92.4227
 20
-1.9828
 30
0.0
 10
91.1948
 20
-1.9627
 30
0.0
 10
90.1329
 20
-0.921
 30
0.0
 10
89.4022
 20
-0.2996
 30
0.0
 10
89.4022
 20
-0.2996
 30
0.0
 10
86.0394
 20
2.5597
 30
0.0
 10
83.0182
 20
3.9554
 30
0.0
 10
79.8109
 20
-0.8549
 30
0.0
 10
79.8109
 20
-0.8549
 30
0.0
 10
83.3043
 20
2.6538
 30
0.0
 10
88.3765
 20
-0.7685
 30
0.0
 10
84.7185
 20
-3.7138
 30
0.0
 10
84.7185
 20
-3.7138
 30
0.0
 10
82.5368
 20
-0.4351
 30
0.0
 10
79.7058
 20
-1.5808
 30
0.0
 10
78.7474
 20
-4.1743
 30
0.0
 10
78.7474
 20
-4.1743
 30
0.0
 10
78.7474
 20
-4.1743
 30
0.0
 10
75.2571
 20
-4.1743
 30
0.0
 10
75.2571
 20
-4.1743
 30
0.0
  0
ELLIPSE
  5
61
330
1F
100
AcDbEntity
  8
layer 1
 62
   250
370
    18
100
AcDbEllipse
 10
76.9476
 20
-7.9809
 30
0.0
 11
3.8528
 21
0.0
 31
0.0
210
0.0
220
0.0
230
1.0
 40
0.5459146594684385
 41
0.0
 42
6.283185307179586
  0
SPLINE
  5
62
330
1F
100
AcDbEntity
  8
layer 1
 62
     7
370
    18
100
AcDbSpline
210
0.0
220
0.0
230
1.0
 70
    11
 71
     3
 72
   104
 73
   100
 74
     0
 42
0.0000000001
 43
0.0000000001
 12
1.0
 22
0.0
 32
0.0
 13
1.0
 23
0.0
 33
0.0
 40
0.0
 40
0.0
 40
0.0
 40
0.0
 40
0.0384615384615385
 40
0.0384615384615385
 40
0.0384615384615385
 40
0.0384615384615385
 40
0.0769230769230769
 40
0.0769230769230769
 40
0.0769230769230769
 40
0.0769230769230769
 40
0.1153846153846154
 40
0.1153846153846154
 40
0.1153846153846154
 40
0.1153846153846154
 40
0.1538461538461539
 40
0.1538461538461539
 40
0.1538461538461539
 40
0.1538461538461539
 40
0.1923076923076923
 40
0.1923076923076923
 40
0.1923076923076923
 40
0.1923076923076923
 40
0.2307692307692308
 40
0.2307692307692308
 40
0.2307692307692308
 40
0.2307692307692308
 40
0.2692307692307692
 40
0.2692307692307692
 40
0.2692307692307692
 40
0.2692307692307692
 40
0.3076923076923077
 40
0.3076923076923077
 40
0.3076923076923077
 40
0.3076923076923077
 40
0.3461538461538461
 40
0.3461538461538461
 40
0.3461538461538461
 40
0.3461538461538461
 40
0.3846153846153846
 40
0.3846153846153846
 40
0.3846153846153846
 40
0.3846153846153846
 40
0.4230769230769231
 40
0.4230769230769231
 40
0.4230769230769231
 40
0.4230769230769231
 40
0.4615384615384616
 40
0.4615384615384616
 40
0.4615384615384616
 40
0.4615384615384616
 40
0.5
 40
0.5
 40
0.5
 40
0.5
 40
0.5384615384615384
 40
0.5384615384615384
 40
0.5384615384615384
 40
0.5384615384615384
 40
0.5769230769230769
 40
0.5769230769230769
 40
0.5769230769230769
 40
0.5769230769230769
 40
0.6153846153846154
 40
0.6153846153846154
 40
0.6153846153846154
 40
0.6153846153846154
 40
0.6538461538461539
 40
0.6538461538461539
 40
0.6538461538461539
 40
0.6538461538461539
 40
0.6923076923076923
 40
0.6923076923076923
 40
0.6923076923076923
 40
0.6923076923076923
 40
0.7307692307692307
 40
0.7307692307692307
 40
0.7307692307692307
 40
0.7307692307692307
 40
0.7692307692307693
 40
0.7692307692307693
 40
0.7692307692307693
 40
0.7692307692307693
 40
0.8076923076923077
 40
0.8076923076923077
 40
0.8076923076923077
 40
0.8076923076923077
 40
0.8461538461538461
 40
0.8461538461538461
 40
0.8461538461538461
 40
0.8461538461538461
 40
0.8846153846153846
 40
0.8846153846153846
 40
0.8846153846153846
 40
0.8846153846153846
 40
0.9230769230769231
 40
0.9230769230769231
 40
0.9230769230769231
 40
0.9230769230769231
 40
1.0
 40
1.0
 40
1.0
 40
1.0
 10
165.0927
 20
-4.1743
 30
0.0
 10
164.1343
 20
-1.5808
 30
0.0
 10
161.3033
 20
-0.4351
 30
0.0
 10
159.1216
 20
-3.7138
 30
0.0
 10
159.1216
 20
-3.7138
 30
0.0
 10
155.4636
 20
-0.7685
 30
0.0
 10
160.5358
 20
2.6538
 30
0.0
 10
164.0292
 20
-0.8549
 30
0.0
 10
164.0292
 20
-0.8549
 30
0.0
 10
160.822
 20
3.9554
 30
0.0
 10
157.8007
 20
2.5597
 30
0.0
 10
154.4379
 20
-0.2996
 30
0.0
 10
154.4379
 20
-0.2996
 30
0.0
 10
153.7072
 20
-0.921
 30
0.0
 10
152.6454
 20
-1.9627
 30
0.0
 10
151.4174
 20
-1.9828
 30
0.0
 10
151.4174
 20
-1.9828
 30
0.0
 10
149.618
 20
-1.8347
 30
0.0
 10
148.675
 20
-2.055
 30
0.0
 10
147.295
 20
-1.8812
 30
0.0
 10
147.295
 20
-1.8812
 30
0.0
 10
149.2628
 20
-0.9907
 30
0.0
 10
150.9499
 20
2.9493
 30
0.0
 10
155.0228
 20
4.7043
 30
0.0
 10
155.0228
 20
4.7043
 30
0.0
 10
158.1502
 20
6.052
 30
0.0
 10
163.9763
 20
2.9369
 30
0.0
 10
165.1741
 20
-0.028
 30
0.0
 10
165.1741
 20
-0.028
 30
0.0
 10
164.5428
 20
3.2075
 30
0.0
 10
162.278
 20
5.4254
 30
0.0
 10
159.7058
 20
5.5594
 30
0.0
 10
159.7058
 20
5.5594
 30
0.0
 10
159.7986
 20
7.0544
 30
0.0
 10
157.9772
 20
8.2873
 30
0.0
 10
155.5942
 20
7.6942
 30
0.0
 10
155.5942
 20
7.6942
 30
0.0
 10
157.3264
 20
11.3296
 30
0.0
 10
163.9712
 20
10.9987
 30
0.0
 10
165.5637
 20
4.6378
 30
0.0
 10
165.5637
 20
4.6378
 30
0.0
 10
165.6266
 20
7.3957
 30
0.0
 10
164.6757
 20
12.3412
 30
0.0
 10
163.7638
 20
14.357
 30
0.0
 10
163.7638
 20
14.357
 30
0.0
 10
165.3273
 20
16.3698
 30
0.0
 10
166.0393
 20
17.7415
 30
0.0
 10
166.7908
 20
19.7317
 30
0.0
 10
166.7908
 20
19.7317
 30
0.0
 10
167.5421
 20
17.7415
 30
0.0
 10
168.3485
 20
16.3698
 30
0.0
 10
169.9119
 20
14.357
 30
0.0
 10
169.9119
 20
14.357
 30
0.0
 10
169.0
 20
12.3412
 30
0.0
 10
168.0492
 20
7.3957
 30
0.0
 10
168.1121
 20
4.6378
 30
0.0
 10
168.1121
 20
4.6378
 30
0.0
 10
169.7045
 20
10.9987
 30
0.0
 10
176.3494
 20
11.3296
 30
0.0
 10
178.0815
 20
7.6942
 30
0.0
 10
178.0815
 20
7.6942
 30
0.0
 10
175.6986
 20
8.2873
 30
0.0
 10
173.8772
 20
7.0544
 30
0.0
 10
173.9699
 20
5.5594
 30
0.0
 10
173.9699
 20
5.5594
 30
0.0
 10
171.3978
 20
5.4254
 30
0.0
 10
169.133
 20
3.2075
 30
0.0
 10
168.5017
 20
-0.028
 30
0.0
 10
168.5017
 20
-0.028
 30
0.0
 10
169.6994
 20
2.9369
 30
0.0
 10
175.5256
 20
6.052
 30
0.0
 10
178.653
 20
4.7043
 30
0.0
 10
178.653
 20
4.7043
 30
0.0
 10
182.7259
 20
2.9493
 30
0.0
 10
184.4129
 20
-0.9907
 30
0.0
 10
186.3808
 20
-1.8812
 30
0.0
 10
186.3808
 20
-1.8812
 30
0.0
 10
185.0007
 20
-2.055
 30
0.0
 10
184.0577
 20
-1.8347
 30
0.0
 10
182.2584
 20
-1.9828
 30
0.0
 10
182.2584
 20
-1.9828
 30
0.0
 10
181.0304
 20
-1.9627
 30
0.0
 10
179.9685
 20
-0.921
 30
0.0
 10
179.2378
 20
-0.2996
 30
0.0
 10
179.2378
 20
-0.2996
 30
0.0
 10
175.8751
 20
2.5597
 30
0.0
 10
172.8538
 20
3.9554
 30
0.0
 10
169.6466
 20
-0.8549
 30
0.0
 10
169.6466
 20
-0.8549
 30
0.0
 10
173.14
 20
2.6538
 30
0.0
 10
178.2122
 20
-0.7685
 30
0.0
 10
174.5541
 20
-3.7138
 30
0.0
 10
174.5541
 20
-3.7138
 30
0.0
 10
172.3725
 20
-0.4351
 30
0.0
 10
169.5415
 20
-1.5808
 30
0.0
 10
168.583
 20
-4.1743
 30
0.0
 10
168.583
 20
-4.1743
 30
0.0
 10
168.583
 20
-4.1743
 30
0.0
 10
165.0927
 20
-4.1743
 30
0.0
 10
165.0927
 20
-4.1743
 30
0.0
  0
ELLIPSE
  5
63
330
1F
100
AcDbEntity
  8
layer 1
 62
   250
370
    18
100
AcDbEllipse
 10
166.7832
 20
-7.9809
 30
0.0
 11
3.8528
 21
0.0
 31
0.0
210
0.0
220
0.0
230
1.0
 40
0.5459146594684385
 41
0.0
 42
6.283185307179586
  0
SPLINE
  5
64
330
1F
100
AcDbEntity
  8
layer 1
 62
     7
370
    18
100
AcDbSpline
210
0.0
220
0.0
230
1.0
 70
    11
 71
     3
 72
   104
 73
   100
 74
     0
 42
0.0000000001
 43
0.0000000001
 12
1.0
 22
0.0
 32
0.0
 13
1.0
 23
0.0
 33
0.0
 40
0.0
 40
0.0
 40
0.0
 40
0.0
 40
0.0384615384615385
 40
0.0384615384615385
 40
0.0384615384615385
 40
0.0384615384615385
 40
0.0769230769230769
 40
0.0769230769230769
 40
0.0769230769230769
 40
0.0769230769230769
 40
0.1153846153846154
 40
0.1153846153846154
 40
0.1153846153846154
 40
0.1153846153846154
 40
0.1538461538461539
 40
0.1538461538461539
 40
0.1538461538461539
 40
0.1538461538461539
 40
0.1923076923076923
 40
0.1923076923076923
 40
0.1923076923076923
 40
0.1923076923076923
 40
0.2307692307692308
 40
0.2307692307692308
 40
0.2307692307692308
 40
0.2307692307692308
 40
0.2692307692307692
 40
0.2692307692307692
 40
0.2692307692307692
 40
0.2692307692307692
 40
0.3076923076923077
 40
0.3076923076923077
 40
0.3076923076923077
 40
0.3076923076923077
 40
0.3461538461538461
 40
0.3461538461538461
 40
0.3461538461538461
 40
0.3461538461538461
 40
0.3846153846153846
 40
0.3846153846153846
 40
0.3846153846153846
 40
0.3846153846153846
 40
0.4230769230769231
 40
0.4230769230769231
 40
0.4230769230769231
 40
0.4230769230769231
 40
0.4615384615384616
 40
0.4615384615384616
 40
0.4615384615384616
 40
0.4615384615384616
 40
0.5
 40
0.5
 40
0.5
 40
0.5
 40
0.5384615384615384
 40
0.5384615384615384
 40
0.5384615384615384
 40
0.5384615384615384
 40
0.5769230769230769
 40
0.5769230769230769
 40
0.5769230769230769
 40
0.5769230769230769
 40
0.6153846153846154
 40
0.6153846153846154
 40
0.6153846153846154
 40
0.6153846153846154
 40
0.6538461538461539
 40
0.6538461538461539
 40
0.6538461538461539
 40
0.6538461538461539
 40
0.6923076923076923
 40
0.6923076923076923
 40
0.6923076923076923
 40
0.6923076923076923
 40
0.7307692307692307
 40
0.7307692307692307
 40
0.7307692307692307
 40
0.7307692307692307
 40
0.7692307692307693
 40
0.7692307692307693
 40
0.7692307692307693
 40
0.7692307692307693
 40
0.8076923076923077
 40
0.8076923076923077
 40
0.8076923076923077
 40
0.8076923076923077
 40
0.8461538461538461
 40
0.8461538461538461
 40
0.8461538461538461
 40
0.8461538461538461
 40
0.8846153846153846
 40
0.8846153846153846
 40
0.8846153846153846
 40
0.8846153846153846
 40
0.9230769230769231
 40
0.9230769230769231
 40
0.9230769230769231
 40
0.9230769230769231
 40
1.0
 40
1.0
 40
1.0
 40
1.0
 10
143.3583
 20
-28.5445
 30
0.0
 10
142.3999
 20
-25.9509
 30
0.0
 10
139.5689
 20
-24.8053
 30
0.0
 10
137.3872
 20
-28.0839
 30
0.0
 10
137.3872
 20
-28.0839
 30
0.0
 10
133.7292
 20
-25.1386
 30
0.0
 10
138.8014
 20
-21.7163
 30
0.0
 10
142.2948
 20
-25.2251
 30
0.0
 10
142.2948
 20
-25.2251
 30
0.0
 10
139.0876
 20
-20.4148
 30
0.0
 10
136.0663
 20
-21.8105
 30
0.0
 10
132.7035
 20
-24.6698
 30
0.0
 10
132.7035
 20
-24.6698
 30
0.0
 10
131.9728
 20
-25.2911
 30
0.0
 10
130.911
 20
-26.3328
 30
0.0
 10
129.683
 20
-26.353
 30
0.0
 10
129.683
 20
-26.353
 30
0.0
 10
127.8836
 20
-26.2049
 30
0.0
 10
126.9406
 20
-26.4251
 30
0.0
 10
125.5606
 20
-26.2513
 30
0.0
 10
125.5606
 20
-26.2513
 30
0.0
 10
127.5285
 20
-25.3608
 30
0.0
 10
129.2155
 20
-21.4209
 30
0.0
 10
133.2884
 20
-19.6658
 30
0.0
 10
133.2884
 20
-19.6658
 30
0.0
 10
136.4158
 20
-18.3182
 30
0.0
 10
142.2419
 20
-21.4332
 30
0.0
 10
143.4397
 20
-24.3982
 30
0.0
 10
143.4397
 20
-24.3982
 30
0.0
 10
142.8084
 20
-21.1626
 30
0.0
 10
140.5436
 20
-18.9448
 30
0.0
 10
137.9715
 20
-18.8107
 30
0.0
 10
137.9715
 20
-18.8107
 30
0.0
 10
138.0642
 20
-17.3157
 30
0.0
 10
136.2428
 20
-16.0829
 30
0.0
 10
133.8598
 20
-16.676
 30
0.0
 10
133.8598
 20
-16.676
 30
0.0
 10
135.592
 20
-13.0406
 30
0.0
 10
142.2369
 20
-13.3714
 30
0.0
 10
143.8293
 20
-19.7323
 30
0.0
 10
143.8293
 20
-19.7323
 30
0.0
 10
143.8922
 20
-16.9744
 30
0.0
 10
142.9413
 20
-12.029
 30
0.0
 10
142.0294
 20
-10.0131
 30
0.0
 10
142.0294
 20
-10.0131
 30
0.0
 10
143.5929
 20
-8.0004
 30
0.0
 10
144.3049
 20
-6.6286
 30
0.0
 10
145.0564
 20
-4.6384
 30
0.0
 10
145.0564
 20
-4.6384
 30
0.0
 10
145.8077
 20
-6.6286
 30
0.0
 10
146.6141
 20
-8.0004
 30
0.0
 10
148.1775
 20
-10.0131
 30
0.0
 10
148.1775
 20
-10.0131
 30
0.0
 10
147.2657
 20
-12.029
 30
0.0
 10
146.3148
 20
-16.9744
 30
0.0
 10
146.3777
 20
-19.7323
 30
0.0
 10
146.3777
 20
-19.7323
 30
0.0
 10
147.9701
 20
-13.3714
 30
0.0
 10
154.615
 20
-13.0406
 30
0.0
 10
156.3472
 20
-16.676
 30
0.0
 10
156.3472
 20
-16.676
 30
0.0
 10
153.9642
 20
-16.0829
 30
0.0
 10
152.1428
 20
-17.3157
 30
0.0
 10
152.2355
 20
-18.8107
 30
0.0
 10
152.2355
 20
-18.8107
 30
0.0
 10
149.6634
 20
-18.9448
 30
0.0
 10
147.3986
 20
-21.1626
 30
0.0
 10
146.7673
 20
-24.3982
 30
0.0
 10
146.7673
 20
-24.3982
 30
0.0
 10
147.9651
 20
-21.4332
 30
0.0
 10
153.7912
 20
-18.3182
 30
0.0
 10
156.9186
 20
-19.6658
 30
0.0
 10
156.9186
 20
-19.6658
 30
0.0
 10
160.9915
 20
-21.4209
 30
0.0
 10
162.6785
 20
-25.3608
 30
0.0
 10
164.6464
 20
-26.2513
 30
0.0
 10
164.6464
 20
-26.2513
 30
0.0
 10
163.2664
 20
-26.4251
 30
0.0
 10
162.3234
 20
-26.2049
 30
0.0
 10
160.524
 20
-26.353
 30
0.0
 10
160.524
 20
-26.353
 30
0.0
 10
159.296
 20
-26.3328
 30
0.0
 10
158.2342
 20
-25.2911
 30
0.0
 10
157.5035
 20
-24.6698
 30
0.0
 10
157.5035
 20
-24.6698
 30
0.0
 10
154.1407
 20
-21.8105
 30
0.0
 10
151.1194
 20
-20.4148
 30
0.0
 10
147.9122
 20
-25.2251
 30
0.0
 10
147.9122
 20
-25.2251
 30
0.0
 10
151.4056
 20
-21.7163
 30
0.0
 10
156.4778
 20
-25.1386
 30
0.0
 10
152.8198
 20
-28.0839
 30
0.0
 10
152.8198
 20
-28.0839
 30
0.0
 10
150.6381
 20
-24.8053
 30
0.0
 10
147.8071
 20
-25.9509
 30
0.0
 10
146.8487
 20
-28.5445
 30
0.0
 10
146.8487
 20
-28.5445
 30
0.0
 10
146.8487
 20
-28.5445
 30
0.0
 10
143.3583
 20
-28.5445
 30
0.0
 10
143.3583
 20
-28.5445
 30
0.0
  0
ELLIPSE
  5
65
330
1F
100
AcDbEntity
  8
layer 1
 62
   250
370
    18
100
AcDbEllipse
 10
145.0488
 20
-32.3511
 30
0.0
 11
3.8528
 21
0.0
 31
0.0
210
0.0
220
0.0
230
1.0
 40
0.5459406146179403
 41
0.0
 42
6.283185307179586
  0
SPLINE
  5
66
330
1F
100
AcDbEntity
  8
layer 1
 62
     7
370
    18
100
AcDbSpline
210
0.0
220
0.0
230
1.0
 70
    11
 71
     3
 72
   104
 73
   100
 74
     0
 42
0.0000000001
 43
0.0000000001
 12
1.0
 22
0.0
 32
0.0
 13
1.0
 23
0.0
 33
0.0
 40
0.0
 40
0.0
 40
0.0
 40
0.0
 40
0.0384615384615385
 40
0.0384615384615385
 40
0.0384615384615385
 40
0.0384615384615385
 40
0.0769230769230769
 40
0.0769230769230769
 40
0.0769230769230769
 40
0.0769230769230769
 40
0.1153846153846154
 40
0.1153846153846154
 40
0.1153846153846154
 40
0.1153846153846154
 40
0.1538461538461539
 40
0.1538461538461539
 40
0.1538461538461539
 40
0.1538461538461539
 40
0.1923076923076923
 40
0.1923076923076923
 40
0.1923076923076923
 40
0.1923076923076923
 40
0.2307692307692308
 40
0.2307692307692308
 40
0.2307692307692308
 40
0.2307692307692308
 40
0.2692307692307692
 40
0.2692307692307692
 40
0.2692307692307692
 40
0.2692307692307692
 40
0.3076923076923077
 40
0.3076923076923077
 40
0.3076923076923077
 40
0.3076923076923077
 40
0.3461538461538461
 40
0.3461538461538461
 40
0.3461538461538461
 40
0.3461538461538461
 40
0.3846153846153846
 40
0.3846153846153846
 40
0.3846153846153846
 40
0.3846153846153846
 40
0.4230769230769231
 40
0.4230769230769231
 40
0.4230769230769231
 40
0.4230769230769231
 40
0.4615384615384616
 40
0.4615384615384616
 40
0.4615384615384616
 40
0.4615384615384616
 40
0.5
 40
0.5
 40
0.5
 40
0.5
 40
0.5384615384615384
 40
0.5384615384615384
 40
0.5384615384615384
 40
0.5384615384615384
 40
0.5769230769230769
 40
0.5769230769230769
 40
0.5769230769230769
 40
0.5769230769230769
 40
0.6153846153846154
 40
0.6153846153846154
 40
0.6153846153846154
 40
0.6153846153846154
 40
0.6538461538461539
 40
0.6538461538461539
 40
0.6538461538461539
 40
0.6538461538461539
 40
0.6923076923076923
 40
0.6923076923076923
 40
0.6923076923076923
 40
0.6923076923076923
 40
0.7307692307692307
 40
0.7307692307692307
 40
0.7307692307692307
 40
0.7307692307692307
 40
0.7692307692307693
 40
0.7692307692307693
 40
0.7692307692307693
 40
0.7692307692307693
 40
0.8076923076923077
 40
0.8076923076923077
 40
0.8076923076923077
 40
0.8076923076923077
 40
0.8461538461538461
 40
0.8461538461538461
 40
0.8461538461538461
 40
0.8461538461538461
 40
0.8846153846153846
 40
0.8846153846153846
 40
0.8846153846153846
 40
0.8846153846153846
 40
0.9230769230769231
 40
0.9230769230769231
 40
0.9230769230769231
 40
0.9230769230769231
 40
1.0
 40
1.0
 40
1.0
 40
1.0
 10
98.2388
 20
-28.5445
 30
0.0
 10
97.2803
 20
-25.9509
 30
0.0
 10
94.4493
 20
-24.8053
 30
0.0
 10
92.2677
 20
-28.0839
 30
0.0
 10
92.2677
 20
-28.0839
 30
0.0
 10
88.6097
 20
-25.1386
 30
0.0
 10
93.6818
 20
-21.7163
 30
0.0
 10
97.1752
 20
-25.2251
 30
0.0
 10
97.1752
 20
-25.2251
 30
0.0
 10
93.968
 20
-20.4148
 30
0.0
 10
90.9468
 20
-21.8105
 30
0.0
 10
87.584
 20
-24.6698
 30
0.0
 10
87.584
 20
-24.6698
 30
0.0
 10
86.8533
 20
-25.2911
 30
0.0
 10
85.7914
 20
-26.3328
 30
0.0
 10
84.5634
 20
-26.353
 30
0.0
 10
84.5634
 20
-26.353
 30
0.0
 10
82.7641
 20
-26.2049
 30
0.0
 10
81.8211
 20
-26.4251
 30
0.0
 10
80.441
 20
-26.2513
 30
0.0
 10
80.441
 20
-26.2513
 30
0.0
 10
82.4089
 20
-25.3608
 30
0.0
 10
84.096
 20
-21.4209
 30
0.0
 10
88.1688
 20
-19.6658
 30
0.0
 10
88.1688
 20
-19.6658
 30
0.0
 10
91.2963
 20
-18.3182
 30
0.0
 10
97.1224
 20
-21.4332
 30
0.0
 10
98.3202
 20
-24.3982
 30
0.0
 10
98.3202
 20
-24.3982
 30
0.0
 10
97.6889
 20
-21.1626
 30
0.0
 10
95.4241
 20
-18.9448
 30
0.0
 10
92.8519
 20
-18.8107
 30
0.0
 10
92.8519
 20
-18.8107
 30
0.0
 10
92.9447
 20
-17.3157
 30
0.0
 10
91.1233
 20
-16.0829
 30
0.0
 10
88.7403
 20
-16.676
 30
0.0
 10
88.7403
 20
-16.676
 30
0.0
 10
90.4724
 20
-13.0406
 30
0.0
 10
97.1173
 20
-13.3714
 30
0.0
 10
98.7098
 20
-19.7323
 30
0.0
 10
98.7098
 20
-19.7323
 30
0.0
 10
98.7727
 20
-16.9744
 30
0.0
 10
97.8218
 20
-12.029
 30
0.0
 10
96.9099
 20
-10.0131
 30
0.0
 10
96.9099
 20
-10.0131
 30
0.0
 10
98.4733
 20
-8.0004
 30
0.0
 10
99.1854
 20
-6.6286
 30
0.0
 10
99.9368
 20
-4.6384
 30
0.0
 10
99.9368
 20
-4.6384
 30
0.0
 10
100.6882
 20
-6.6286
 30
0.0
 10
101.4946
 20
-8.0004
 30
0.0
 10
103.058
 20
-10.0131
 30
0.0
 10
103.058
 20
-10.0131
 30
0.0
 10
102.1461
 20
-12.029
 30
0.0
 10
101.1952
 20
-16.9744
 30
0.0
 10
101.2582
 20
-19.7323
 30
0.0
 10
101.2582
 20
-19.7323
 30
0.0
 10
102.8506
 20
-13.3714
 30
0.0
 10
109.4955
 20
-13.0406
 30
0.0
 10
111.2276
 20
-16.676
 30
0.0
 10
111.2276
 20
-16.676
 30
0.0
 10
108.8446
 20
-16.0829
 30
0.0
 10
107.0233
 20
-17.3157
 30
0.0
 10
107.116
 20
-18.8107
 30
0.0
 10
107.116
 20
-18.8107
 30
0.0
 10
104.5439
 20
-18.9448
 30
0.0
 10
102.279
 20
-21.1626
 30
0.0
 10
101.6477
 20
-24.3982
 30
0.0
 10
101.6477
 20
-24.3982
 30
0.0
 10
102.8455
 20
-21.4332
 30
0.0
 10
108.6716
 20
-18.3182
 30
0.0
 10
111.7991
 20
-19.6658
 30
0.0
 10
111.7991
 20
-19.6658
 30
0.0
 10
115.8719
 20
-21.4209
 30
0.0
 10
117.559
 20
-25.3608
 30
0.0
 10
119.5269
 20
-26.2513
 30
0.0
 10
119.5269
 20
-26.2513
 30
0.0
 10
118.1468
 20
-26.4251
 30
0.0
 10
117.2038
 20
-26.2049
 30
0.0
 10
115.4045
 20
-26.353
 30
0.0
 10
115.4045
 20
-26.353
 30
0.0
 10
114.1765
 20
-26.3328
 30
0.0
 10
113.1146
 20
-25.2911
 30
0.0
 10
112.3839
 20
-24.6698
 30
0.0
 10
112.3839
 20
-24.6698
 30
0.0
 10
109.0211
 20
-21.8105
 30
0.0
 10
105.9999
 20
-20.4148
 30
0.0
 10
102.7927
 20
-25.2251
 30
0.0
 10
102.7927
 20
-25.2251
 30
0.0
 10
106.2861
 20
-21.7163
 30
0.0
 10
111.3582
 20
-25.1386
 30
0.0
 10
107.7002
 20
-28.0839
 30
0.0
 10
107.7002
 20
-28.0839
 30
0.0
 10
105.5186
 20
-24.8053
 30
0.0
 10
102.6876
 20
-25.9509
 30
0.0
 10
101.7291
 20
-28.5445
 30
0.0
 10
101.7291
 20
-28.5445
 30
0.0
 10
101.7291
 20
-28.5445
 30
0.0
 10
98.2388
 20
-28.5445
 30
0.0
 10
98.2388
 20
-28.5445
 30
0.0
  0
ELLIPSE
  5
67
330
1F
100
AcDbEntity
  8
layer 1
 62
   250
370
    18
100
AcDbEllipse
 10
99.9293
 20
-32.3511
 30
0.0
 11
3.8528
 21
0.0
 31
0.0
210
0.0
220
0.0
230
1.0
 40
0.5459406146179403
 41
0.0
 42
6.283185307179586
  0
SPLINE
  5
68
330
1F
100
AcDbEntity
  8
layer 1
 62
     7
370
    18
100
AcDbSpline
210
0.0
220
0.0
230
1.0
 70
    11
 71
     3
 72
    60
 73
    56
 74
     0
 42
0.0000000001
 43
0.0000000001
 12
1.0
 22
0.0
 32
0.0
 13
1.0
 23
0.0
 33
0.0
 40
0.0
 40
0.0
 40
0.0
 40
0.0
 40
0.0666666666666667
 40
0.0666666666666667
 40
0.0666666666666667
 40
0.0666666666666667
 40
0.1333333333333333
 40
0.1333333333333333
 40
0.1333333333333333
 40
0.1333333333333333
 40
0.2
 40
0.2
 40
0.2
 40
0.2
 40
0.2666666666666667
 40
0.2666666666666667
 40
0.2666666666666667
 40
0.2666666666666667
 40
0.3333333333333333
 40
0.3333333333333333
 40
0.3333333333333333
 40
0.3333333333333333
 40
0.4
 40
0.4
 40
0.4
 40
0.4
 40
0.4666666666666667
 40
0.4666666666666667
 40
0.4666666666666667
 40
0.4666666666666667
 40
0.5333333333333333
 40
0.5333333333333333
 40
0.5333333333333333
 40
0.5333333333333333
 40
0.6
 40
0.6
 40
0.6
 40
0.6
 40
0.6666666666666666
 40
0.6666666666666666
 40
0.6666666666666666
 40
0.6666666666666666
 40
0.7333333333333333
 40
0.7333333333333333
 40
0.7333333333333333
 40
0.7333333333333333
 40
0.8
 40
0.8
 40
0.8
 40
0.8
 40
0.8666666666666667
 40
0.8666666666666667
 40
0.8666666666666667
 40
0.8666666666666667
 40
1.0
 40
1.0
 40
1.0
 40
1.0
 10
55.0535
 20
-4.6384
 30
0.0
 10
55.8049
 20
-6.6286
 30
0.0
 10
56.6113
 20
-8.0004
 30
0.0
 10
58.1747
 20
-10.0131
 30
0.0
 10
58.1747
 20
-10.0131
 30
0.0
 10
57.2628
 20
-12.029
 30
0.0
 10
56.3119
 20
-16.9744
 30
0.0
 10
56.3748
 20
-19.7323
 30
0.0
 10
56.3748
 20
-19.7323
 30
0.0
 10
57.9673
 20
-13.3714
 30
0.0
 10
64.6122
 20
-13.0406
 30
0.0
 10
66.3443
 20
-16.676
 30
0.0
 10
66.3443
 20
-16.676
 30
0.0
 10
63.9613
 20
-16.0829
 30
0.0
 10
62.1399
 20
-17.3157
 30
0.0
 10
62.2327
 20
-18.8107
 30
0.0
 10
62.2327
 20
-18.8107
 30
0.0
 10
59.6605
 20
-18.9448
 30
0.0
 10
57.3957
 20
-21.1626
 30
0.0
 10
56.7644
 20
-24.3982
 30
0.0
 10
56.7644
 20
-24.3982
 30
0.0
 10
57.9622
 20
-21.4332
 30
0.0
 10
63.7883
 20
-18.3182
 30
0.0
 10
66.9158
 20
-19.6658
 30
0.0
 10
66.9158
 20
-19.6658
 30
0.0
 10
70.9886
 20
-21.4209
 30
0.0
 10
72.6757
 20
-25.3608
 30
0.0
 10
74.6435
 20
-26.2513
 30
0.0
 10
74.6435
 20
-26.2513
 30
0.0
 10
73.2635
 20
-26.4251
 30
0.0
 10
72.3205
 20
-26.2049
 30
0.0
 10
70.5211
 20
-26.353
 30
0.0
 10
70.5211
 20
-26.353
 30
0.0
 10
69.2932
 20
-26.3328
 30
0.0
 10
68.2313
 20
-25.2911
 30
0.0
 10
67.5006
 20
-24.6698
 30
0.0
 10
67.5006
 20
-24.6698
 30
0.0
 10
64.1378
 20
-21.8105
 30
0.0
 10
61.1166
 20
-20.4148
 30
0.0
 10
57.9093
 20
-25.2251
 30
0.0
 10
57.9093
 20
-25.2251
 30
0.0
 10
61.4027
 20
-21.7163
 30
0.0
 10
66.4749
 20
-25.1386
 30
0.0
 10
62.8169
 20
-28.0839
 30
0.0
 10
62.8169
 20
-28.0839
 30
0.0
 10
60.6352
 20
-24.8053
 30
0.0
 10
57.8042
 20
-25.9509
 30
0.0
 10
56.8458
 20
-28.5445
 30
0.0
 10
56.8458
 20
-28.5445
 30
0.0
 10
56.8458
 20
-28.5445
 30
0.0
 10
55.05
 20
-28.5754
 30
0.0
 10
55.05
 20
-28.5754
 30
0.0
 10
55.05
 20
-28.5754
 30
0.0
 10
55.05
 20
-28.5754
 30
0.0
 10
55.0535
 20
-4.6384
 30
0.0
 10
55.0535
 20
-4.6384
 30
0.0
  0
SPLINE
  5
69
330
1F
100
AcDbEntity
  8
layer 1
 62
   250
370
    18
100
AcDbSpline
210
0.0
220
0.0
230
1.0
 70
    11
 71
     3
 72
    16
 73
    12
 74
     0
 42
0.0000000001
 43
0.0000000001
 12
1.0
 22
0.0
 32
0.0
 13
1.0
 23
0.0
 33
0.0
 40
0.0
 40
0.0
 40
0.0
 40
0.0
 40
0.25
 40
0.25
 40
0.25
 40
0.25
 40
0.5
 40
0.5
 40
0.5
 40
0.5
 40
1.0
 40
1.0
 40
1.0
 40
1.0
 10
55.0459
 20
-30.2477
 30
0.0
 10
57.1734
 20
-30.2477
 30
0.0
 10
58.8988
 20
-31.1896
 30
0.0
 10
58.8988
 20
-32.3511
 30
0.0
 10
58.8988
 20
-32.3511
 30
0.0
 10
58.8988
 20
-33.5126
 30
0.0
 10
57.1733
 20
-34.4545
 30
0.0
 10
55.0459
 20
-34.4545
 30
0.0
 10
55.0459
 20
-34.4545
 30
0.0
 10
55.0459
 20
-34.4545
 30
0.0
 10
55.0459
 20
-30.2477
 30
0.0
 10
55.0459
 20
-30.2477
 30
0.0
  0
SPLINE
  5
6A
330
1F
100
AcDbEntity
  8
layer 1
 62
     7
370
    18
100
AcDbSpline
210
0.0
220
0.0
230
1.0
 70
    11
 71
     3
 72
    60
 73
    56
 74
     0
 42
0.0000000001
 43
0.0000000001
 12
1.0
 22
0.0
 32
0.0
 13
1.0
 23
0.0
 33
0.0
 40
0.0
 40
0.0
 40
0.0
 40
0.0
 40
0.0666666666666667
 40
0.0666666666666667
 40
0.0666666666666667
 40
0.0666666666666667
 40
0.1333333333333333
 40
0.1333333333333333
 40
0.1333333333333333
 40
0.1333333333333333
 40
0.2
 40
0.2
 40
0.2
 40
0.2
 40
0.2666666666666667
 40
0.2666666666666667
 40
0.2666666666666667
 40
0.2666666666666667
 40
0.3333333333333333
 40
0.3333333333333333
 40
0.3333333333333333
 40
0.3333333333333333
 40
0.4
 40
0.4
 40
0.4
 40
0.4
 40
0.4666666666666667
 40
0.4666666666666667
 40
0.4666666666666667
 40
0.4666666666666667
 40
0.5333333333333333
 40
0.5333333333333333
 40
0.5333333333333333
 40
0.5333333333333333
 40
0.6
 40
0.6
 40
0.6
 40
0.6
 40
0.6666666666666666
 40
0.6666666666666666
 40
0.6666666666666666
 40
0.6666666666666666
 40
0.7333333333333333
 40
0.7333333333333333
 40
0.7333333333333333
 40
0.7333333333333333
 40
0.8
 40
0.8
 40
0.8
 40
0.8
 40
0.8666666666666667
 40
0.8666666666666667
 40
0.8666666666666667
 40
0.8666666666666667
 40
1.0
 40
1.0
 40
1.0
 40
1.0
 10
189.9652
 20
-4.6384
 30
0.0
 10
189.2139
 20
-6.6286
 30
0.0
 10
188.4075
 20
-8.0004
 30
0.0
 10
186.8441
 20
-10.0131
 30
0.0
 10
186.8441
 20
-10.0131
 30
0.0
 10
187.756
 20
-12.029
 30
0.0
 10
188.7068
 20
-16.9744
 30
0.0
 10
188.6439
 20
-19.7323
 30
0.0
 10
188.6439
 20
-19.7323
 30
0.0
 10
187.0515
 20
-13.3714
 30
0.0
 10
180.4066
 20
-13.0406
 30
0.0
 10
178.6745
 20
-16.676
 30
0.0
 10
178.6745
 20
-16.676
 30
0.0
 10
181.0574
 20
-16.0829
 30
0.0
 10
182.8788
 20
-17.3157
 30
0.0
 10
182.7861
 20
-18.8107
 30
0.0
 10
182.7861
 20
-18.8107
 30
0.0
 10
185.3582
 20
-18.9448
 30
0.0
 10
187.623
 20
-21.1626
 30
0.0
 10
188.2543
 20
-24.3982
 30
0.0
 10
188.2543
 20
-24.3982
 30
0.0
 10
187.0566
 20
-21.4332
 30
0.0
 10
181.2304
 20
-18.3182
 30
0.0
 10
178.103
 20
-19.6658
 30
0.0
 10
178.103
 20
-19.6658
 30
0.0
 10
174.0301
 20
-21.4209
 30
0.0
 10
172.3431
 20
-25.3608
 30
0.0
 10
170.3752
 20
-26.2513
 30
0.0
 10
170.3752
 20
-26.2513
 30
0.0
 10
171.7553
 20
-26.4251
 30
0.0
 10
172.6983
 20
-26.2049
 30
0.0
 10
174.4976
 20
-26.353
 30
0.0
 10
174.4976
 20
-26.353
 30
0.0
 10
175.7256
 20
-26.3328
 30
0.0
 10
176.7875
 20
-25.2911
 30
0.0
 10
177.5182
 20
-24.6698
 30
0.0
 10
177.5182
 20
-24.6698
 30
0.0
 10
180.8809
 20
-21.8105
 30
0.0
 10
183.9022
 20
-20.4148
 30
0.0
 10
187.1094
 20
-25.2251
 30
0.0
 10
187.1094
 20
-25.2251
 30
0.0
 10
183.616
 20
-21.7163
 30
0.0
 10
178.5438
 20
-25.1386
 30
0.0
 10
182.2019
 20
-28.0839
 30
0.0
 10
182.2019
 20
-28.0839
 30
0.0
 10
184.3835
 20
-24.8053
 30
0.0
 10
187.2145
 20
-25.9509
 30
0.0
 10
188.173
 20
-28.5445
 30
0.0
 10
188.173
 20
-28.5445
 30
0.0
 10
188.173
 20
-28.5445
 30
0.0
 10
189.9687
 20
-28.5754
 30
0.0
 10
189.9687
 20
-28.5754
 30
0.0
 10
189.9687
 20
-28.5754
 30
0.0
 10
189.9687
 20
-28.5754
 30
0.0
 10
189.9652
 20
-4.6384
 30
0.0
 10
189.9652
 20
-4.6384
 30
0.0
  0
SPLINE
  5
6B
330
1F
100
AcDbEntity
  8
layer 1
 62
   250
370
    18
100
AcDbSpline
210
0.0
220
0.0
230
1.0
 70
    11
 71
     3
 72
    16
 73
    12
 74
     0
 42
0.0000000001
 43
0.0000000001
 12
1.0
 22
0.0
 32
0.0
 13
1.0
 23
0.0
 33
0.0
 40
0.0
 40
0.0
 40
0.0
 40
0.0
 40
0.25
 40
0.25
 40
0.25
 40
0.25
 40
0.5
 40
0.5
 40
0.5
 40
0.5
 40
1.0
 40
1.0
 40
1.0
 40
1.0
 10
189.9728
 20
-30.2477
 30
0.0
 10
187.8453
 20
-30.2477
 30
0.0
 10
186.1199
 20
-31.1896
 30
0.0
 10
186.1199
 20
-32.3511
 30
0.0
 10
186.1199
 20
-32.3511
 30
0.0
 10
186.1199
 20
-33.5126
 30
0.0
 10
187.8454
 20
-34.4545
 30
0.0
 10
189.9728
 20
-34.4545
 30
0.0
 10
189.9728
 20
-34.4545
 30
0.0
 10
189.9728
 20
-34.4545
 30
0.0
 10
189.9728
 20
-30.2477
 30
0.0
 10
189.9728
 20
-30.2477
 30
0.0
  0
SPLINE
  5
6C
330
1F
100
AcDbEntity
  8
layer 1
 62
     7
370
    18
100
AcDbSpline
210
0.0
220
0.0
230
1.0
 70
    11
 71
     3
 72
   104
 73
   100
 74
     0
 42
0.0000000001
 43
0.0000000001
 12
1.0
 22
0.0
 32
0.0
 13
1.0
 23
0.0
 33
0.0
 40
0.0
 40
0.0
 40
0.0
 40
0.0
 40
0.0384615384615385
 40
0.0384615384615385
 40
0.0384615384615385
 40
0.0384615384615385
 40
0.0769230769230769
 40
0.0769230769230769
 40
0.0769230769230769
 40
0.0769230769230769
 40
0.1153846153846154
 40
0.1153846153846154
 40
0.1153846153846154
 40
0.1153846153846154
 40
0.1538461538461539
 40
0.1538461538461539
 40
0.1538461538461539
 40
0.1538461538461539
 40
0.1923076923076923
 40
0.1923076923076923
 40
0.1923076923076923
 40
0.1923076923076923
 40
0.2307692307692308
 40
0.2307692307692308
 40
0.2307692307692308
 40
0.2307692307692308
 40
0.2692307692307692
 40
0.2692307692307692
 40
0.2692307692307692
 40
0.2692307692307692
 40
0.3076923076923077
 40
0.3076923076923077
 40
0.3076923076923077
 40
0.3076923076923077
 40
0.3461538461538461
 40
0.3461538461538461
 40
0.3461538461538461
 40
0.3461538461538461
 40
0.3846153846153846
 40
0.3846153846153846
 40
0.3846153846153846
 40
0.3846153846153846
 40
0.4230769230769231
 40
0.4230769230769231
 40
0.4230769230769231
 40
0.4230769230769231
 40
0.4615384615384616
 40
0.4615384615384616
 40
0.4615384615384616
 40
0.4615384615384616
 40
0.5
 40
0.5
 40
0.5
 40
0.5
 40
0.5384615384615384
 40
0.5384615384615384
 40
0.5384615384615384
 40
0.5384615384615384
 40
0.5769230769230769
 40
0.5769230769230769
 40
0.5769230769230769
 40
0.5769230769230769
 40
0.6153846153846154
 40
0.6153846153846154
 40
0.6153846153846154
 40
0.6153846153846154
 40
0.6538461538461539
 40
0.6538461538461539
 40
0.6538461538461539
 40
0.6538461538461539
 40
0.6923076923076923
 40
0.6923076923076923
 40
0.6923076923076923
 40
0.6923076923076923
 40
0.7307692307692307
 40
0.7307692307692307
 40
0.7307692307692307
 40
0.7307692307692307
 40
0.7692307692307693
 40
0.7692307692307693
 40
0.7692307692307693
 40
0.7692307692307693
 40
0.8076923076923077
 40
0.8076923076923077
 40
0.8076923076923077
 40
0.8076923076923077
 40
0.8461538461538461
 40
0.8461538461538461
 40
0.8461538461538461
 40
0.8461538461538461
 40
0.8846153846153846
 40
0.8846153846153846
 40
0.8846153846153846
 40
0.8846153846153846
 40
0.9230769230769231
 40
0.9230769230769231
 40
0.9230769230769231
 40
0.9230769230769231
 40
1.0
 40
1.0
 40
1.0
 40
1.0
 10
120.3766
 20
-56.6146
 30
0.0
 10
119.4182
 20
-54.0211
 30
0.0
 10
116.5872
 20
-52.8754
 30
0.0
 10
114.4055
 20
-56.154
 30
0.0
 10
114.4055
 20
-56.154
 30
0.0
 10
110.7475
 20
-53.2088
 30
0.0
 10
115.8197
 20
-49.7865
 30
0.0
 10
119.3131
 20
-53.2952
 30
0.0
 10
119.3131
 20
-53.2952
 30
0.0
 10
116.1059
 20
-48.4849
 30
0.0
 10
113.0846
 20
-49.8806
 30
0.0
 10
109.7218
 20
-52.7399
 30
0.0
 10
109.7218
 20
-52.7399
 30
0.0
 10
108.9911
 20
-53.3612
 30
0.0
 10
107.9293
 20
-54.403
 30
0.0
 10
106.7013
 20
-54.4231
 30
0.0
 10
106.7013
 20
-54.4231
 30
0.0
 10
104.9019
 20
-54.275
 30
0.0
 10
103.9589
 20
-54.4953
 30
0.0
 10
102.5789
 20
-54.3215
 30
0.0
 10
102.5789
 20
-54.3215
 30
0.0
 10
104.5467
 20
-53.4309
 30
0.0
 10
106.2338
 20
-49.491
 30
0.0
 10
110.3067
 20
-47.7359
 30
0.0
 10
110.3067
 20
-47.7359
 30
0.0
 10
113.4341
 20
-46.3883
 30
0.0
 10
119.2602
 20
-49.5034
 30
0.0
 10
120.458
 20
-52.4683
 30
0.0
 10
120.458
 20
-52.4683
 30
0.0
 10
119.8267
 20
-49.2328
 30
0.0
 10
117.5619
 20
-47.0149
 30
0.0
 10
114.9897
 20
-46.8809
 30
0.0
 10
114.9897
 20
-46.8809
 30
0.0
 10
115.0825
 20
-45.3859
 30
0.0
 10
113.2611
 20
-44.153
 30
0.0
 10
110.8781
 20
-44.7461
 30
0.0
 10
110.8781
 20
-44.7461
 30
0.0
 10
112.6103
 20
-41.1107
 30
0.0
 10
119.2551
 20
-41.4416
 30
0.0
 10
120.8476
 20
-47.8025
 30
0.0
 10
120.8476
 20
-47.8025
 30
0.0
 10
120.9105
 20
-45.0446
 30
0.0
 10
119.9596
 20
-40.0991
 30
0.0
 10
119.0477
 20
-38.0833
 30
0.0
 10
119.0477
 20
-38.0833
 30
0.0
 10
120.6112
 20
-36.0705
 30
0.0
 10
121.3232
 20
-34.6988
 30
0.0
 10
122.0747
 20
-32.7086
 30
0.0
 10
122.0747
 20
-32.7086
 30
0.0
 10
122.826
 20
-34.6988
 30
0.0
 10
123.6324
 20
-36.0705
 30
0.0
 10
125.1958
 20
-38.0833
 30
0.0
 10
125.1958
 20
-38.0833
 30
0.0
 10
124.2839
 20
-40.0991
 30
0.0
 10
123.3331
 20
-45.0446
 30
0.0
 10
123.396
 20
-47.8025
 30
0.0
 10
123.396
 20
-47.8025
 30
0.0
 10
124.9884
 20
-41.4416
 30
0.0
 10
131.6333
 20
-41.1107
 30
0.0
 10
133.3654
 20
-44.7461
 30
0.0
 10
133.3654
 20
-44.7461
 30
0.0
 10
130.9825
 20
-44.153
 30
0.0
 10
129.1611
 20
-45.3859
 30
0.0
 10
129.2538
 20
-46.8809
 30
0.0
 10
129.2538
 20
-46.8809
 30
0.0
 10
126.6817
 20
-47.0149
 30
0.0
 10
124.4169
 20
-49.2328
 30
0.0
 10
123.7856
 20
-52.4683
 30
0.0
 10
123.7856
 20
-52.4683
 30
0.0
 10
124.9833
 20
-49.5034
 30
0.0
 10
130.8095
 20
-46.3883
 30
0.0
 10
133.9369
 20
-47.7359
 30
0.0
 10
133.9369
 20
-47.7359
 30
0.0
 10
138.0098
 20
-49.491
 30
0.0
 10
139.6968
 20
-53.4309
 30
0.0
 10
141.6647
 20
-54.3215
 30
0.0
 10
141.6647
 20
-54.3215
 30
0.0
 10
140.2846
 20
-54.4953
 30
0.0
 10
139.3416
 20
-54.275
 30
0.0
 10
137.5423
 20
-54.4231
 30
0.0
 10
137.5423
 20
-54.4231
 30
0.0
 10
136.3143
 20
-54.403
 30
0.0
 10
135.2524
 20
-53.3612
 30
0.0
 10
134.5217
 20
-52.7399
 30
0.0
 10
134.5217
 20
-52.7399
 30
0.0
 10
131.159
 20
-49.8806
 30
0.0
 10
128.1377
 20
-48.4849
 30
0.0
 10
124.9305
 20
-53.2952
 30
0.0
 10
124.9305
 20
-53.2952
 30
0.0
 10
128.4239
 20
-49.7865
 30
0.0
 10
133.4961
 20
-53.2088
 30
0.0
 10
129.838
 20
-56.154
 30
0.0
 10
129.838
 20
-56.154
 30
0.0
 10
127.6564
 20
-52.8754
 30
0.0
 10
124.8254
 20
-54.0211
 30
0.0
 10
123.8669
 20
-56.6146
 30
0.0
 10
123.8669
 20
-56.6146
 30
0.0
 10
123.8669
 20
-56.6146
 30
0.0
 10
120.3766
 20
-56.6146
 30
0.0
 10
120.3766
 20
-56.6146
 30
0.0
  0
ELLIPSE
  5
6D
330
1F
100
AcDbEntity
  8
layer 1
 62
   250
370
    18
100
AcDbEllipse
 10
122.0671
 20
-60.4212
 30
0.0
 11
3.8528
 21
0.0
 31
0.0
210
0.0
220
0.0
230
1.0
 40
0.5459146594684385
 41
0.0
 42
6.283185307179586
  0
SPLINE
  5
6E
330
1F
100
AcDbEntity
  8
layer 1
 62
     7
370
    18
100
AcDbSpline
210
0.0
220
0.0
230
1.0
 70
    11
 71
     3
 72
   104
 73
   100
 74
     0
 42
0.0000000001
 43
0.0000000001
 12
1.0
 22
0.0
 32
0.0
 13
1.0
 23
0.0
 33
0.0
 40
0.0
 40
0.0
 40
0.0
 40
0.0
 40
0.0384615384615385
 40
0.0384615384615385
 40
0.0384615384615385
 40
0.0384615384615385
 40
0.0769230769230769
 40
0.0769230769230769
 40
0.0769230769230769
 40
0.0769230769230769
 40
0.1153846153846154
 40
0.1153846153846154
 40
0.1153846153846154
 40
0.1153846153846154
 40
0.1538461538461539
 40
0.1538461538461539
 40
0.1538461538461539
 40
0.1538461538461539
 40
0.1923076923076923
 40
0.1923076923076923
 40
0.1923076923076923
 40
0.1923076923076923
 40
0.2307692307692308
 40
0.2307692307692308
 40
0.2307692307692308
 40
0.2307692307692308
 40
0.2692307692307692
 40
0.2692307692307692
 40
0.2692307692307692
 40
0.2692307692307692
 40
0.3076923076923077
 40
0.3076923076923077
 40
0.3076923076923077
 40
0.3076923076923077
 40
0.3461538461538461
 40
0.3461538461538461
 40
0.3461538461538461
 40
0.3461538461538461
 40
0.3846153846153846
 40
0.3846153846153846
 40
0.3846153846153846
 40
0.3846153846153846
 40
0.4230769230769231
 40
0.4230769230769231
 40
0.4230769230769231
 40
0.4230769230769231
 40
0.4615384615384616
 40
0.4615384615384616
 40
0.4615384615384616
 40
0.4615384615384616
 40
0.5
 40
0.5
 40
0.5
 40
0.5
 40
0.5384615384615384
 40
0.5384615384615384
 40
0.5384615384615384
 40
0.5384615384615384
 40
0.5769230769230769
 40
0.5769230769230769
 40
0.5769230769230769
 40
0.5769230769230769
 40
0.6153846153846154
 40
0.6153846153846154
 40
0.6153846153846154
 40
0.6153846153846154
 40
0.6538461538461539
 40
0.6538461538461539
 40
0.6538461538461539
 40
0.6538461538461539
 40
0.6923076923076923
 40
0.6923076923076923
 40
0.6923076923076923
 40
0.6923076923076923
 40
0.7307692307692307
 40
0.7307692307692307
 40
0.7307692307692307
 40
0.7307692307692307
 40
0.7692307692307693
 40
0.7692307692307693
 40
0.7692307692307693
 40
0.7692307692307693
 40
0.8076923076923077
 40
0.8076923076923077
 40
0.8076923076923077
 40
0.8076923076923077
 40
0.8461538461538461
 40
0.8461538461538461
 40
0.8461538461538461
 40
0.8461538461538461
 40
0.8846153846153846
 40
0.8846153846153846
 40
0.8846153846153846
 40
0.8846153846153846
 40
0.9230769230769231
 40
0.9230769230769231
 40
0.9230769230769231
 40
0.9230769230769231
 40
1.0
 40
1.0
 40
1.0
 40
1.0
 10
75.2571
 20
-56.6146
 30
0.0
 10
74.2986
 20
-54.0211
 30
0.0
 10
71.4676
 20
-52.8754
 30
0.0
 10
69.286
 20
-56.154
 30
0.0
 10
69.286
 20
-56.154
 30
0.0
 10
65.6279
 20
-53.2088
 30
0.0
 10
70.7001
 20
-49.7865
 30
0.0
 10
74.1935
 20
-53.2952
 30
0.0
 10
74.1935
 20
-53.2952
 30
0.0
 10
70.9863
 20
-48.4849
 30
0.0
 10
67.9651
 20
-49.8806
 30
0.0
 10
64.6023
 20
-52.7399
 30
0.0
 10
64.6023
 20
-52.7399
 30
0.0
 10
63.8716
 20
-53.3612
 30
0.0
 10
62.8097
 20
-54.403
 30
0.0
 10
61.5817
 20
-54.4231
 30
0.0
 10
61.5817
 20
-54.4231
 30
0.0
 10
59.7824
 20
-54.275
 30
0.0
 10
58.8394
 20
-54.4953
 30
0.0
 10
57.4593
 20
-54.3215
 30
0.0
 10
57.4593
 20
-54.3215
 30
0.0
 10
59.4272
 20
-53.4309
 30
0.0
 10
61.1143
 20
-49.491
 30
0.0
 10
65.1871
 20
-47.7359
 30
0.0
 10
65.1871
 20
-47.7359
 30
0.0
 10
68.3146
 20
-46.3883
 30
0.0
 10
74.1407
 20
-49.5034
 30
0.0
 10
75.3385
 20
-52.4683
 30
0.0
 10
75.3385
 20
-52.4683
 30
0.0
 10
74.7072
 20
-49.2328
 30
0.0
 10
72.4423
 20
-47.0149
 30
0.0
 10
69.8702
 20
-46.8809
 30
0.0
 10
69.8702
 20
-46.8809
 30
0.0
 10
69.9629
 20
-45.3859
 30
0.0
 10
68.1416
 20
-44.153
 30
0.0
 10
65.7586
 20
-44.7461
 30
0.0
 10
65.7586
 20
-44.7461
 30
0.0
 10
67.4907
 20
-41.1107
 30
0.0
 10
74.1356
 20
-41.4416
 30
0.0
 10
75.728
 20
-47.8025
 30
0.0
 10
75.728
 20
-47.8025
 30
0.0
 10
75.791
 20
-45.0446
 30
0.0
 10
74.8401
 20
-40.0991
 30
0.0
 10
73.9282
 20
-38.0833
 30
0.0
 10
73.9282
 20
-38.0833
 30
0.0
 10
75.4916
 20
-36.0705
 30
0.0
 10
76.2037
 20
-34.6988
 30
0.0
 10
76.9551
 20
-32.7086
 30
0.0
 10
76.9551
 20
-32.7086
 30
0.0
 10
77.7065
 20
-34.6988
 30
0.0
 10
78.5129
 20
-36.0705
 30
0.0
 10
80.0763
 20
-38.0833
 30
0.0
 10
80.0763
 20
-38.0833
 30
0.0
 10
79.1644
 20
-40.0991
 30
0.0
 10
78.2135
 20
-45.0446
 30
0.0
 10
78.2764
 20
-47.8025
 30
0.0
 10
78.2764
 20
-47.8025
 30
0.0
 10
79.8689
 20
-41.4416
 30
0.0
 10
86.5138
 20
-41.1107
 30
0.0
 10
88.2459
 20
-44.7461
 30
0.0
 10
88.2459
 20
-44.7461
 30
0.0
 10
85.8629
 20
-44.153
 30
0.0
 10
84.0415
 20
-45.3859
 30
0.0
 10
84.1343
 20
-46.8809
 30
0.0
 10
84.1343
 20
-46.8809
 30
0.0
 10
81.5621
 20
-47.0149
 30
0.0
 10
79.2973
 20
-49.2328
 30
0.0
 10
78.666
 20
-52.4683
 30
0.0
 10
78.666
 20
-52.4683
 30
0.0
 10
79.8638
 20
-49.5034
 30
0.0
 10
85.6899
 20
-46.3883
 30
0.0
 10
88.8174
 20
-47.7359
 30
0.0
 10
88.8174
 20
-47.7359
 30
0.0
 10
92.8902
 20
-49.491
 30
0.0
 10
94.5773
 20
-53.4309
 30
0.0
 10
96.5451
 20
-54.3215
 30
0.0
 10
96.5451
 20
-54.3215
 30
0.0
 10
95.1651
 20
-54.4953
 30
0.0
 10
94.2221
 20
-54.275
 30
0.0
 10
92.4227
 20
-54.4231
 30
0.0
 10
92.4227
 20
-54.4231
 30
0.0
 10
91.1948
 20
-54.403
 30
0.0
 10
90.1329
 20
-53.3612
 30
0.0
 10
89.4022
 20
-52.7399
 30
0.0
 10
89.4022
 20
-52.7399
 30
0.0
 10
86.0394
 20
-49.8806
 30
0.0
 10
83.0182
 20
-48.4849
 30
0.0
 10
79.8109
 20
-53.2952
 30
0.0
 10
79.8109
 20
-53.2952
 30
0.0
 10
83.3043
 20
-49.7865
 30
0.0
 10
88.3765
 20
-53.2088
 30
0.0
 10
84.7185
 20
-56.154
 30
0.0
 10
84.7185
 20
-56.154
 30
0.0
 10
82.5368
 20
-52.8754
 30
0.0
 10
79.7058
 20
-54.0211
 30
0.0
 10
78.7474
 20
-56.6146
 30
0.0
 10
78.7474
 20
-56.6146
 30
0.0
 10
78.7474
 20
-56.6146
 30
0.0
 10
75.2571
 20
-56.6146
 30
0.0
 10
75.2571
 20
-56.6146
 30
0.0
  0
ELLIPSE
  5
6F
330
1F
100
AcDbEntity
  8
layer 1
 62
   250
370
    18
100
AcDbEllipse
 10
76.9476
 20
-60.4212
 30
0.0
 11
3.8528
 21
0.0
 31
0.0
210
0.0
220
0.0
230
1.0
 40
0.5459146594684385
 41
0.0
 42
6.283185307179586
  0
SPLINE
  5
70
330
1F
100
AcDbEntity
  8
layer 1
 62
     7
370
    18
100
AcDbSpline
210
0.0
220
0.0
230
1.0
 70
    11
 71
     3
 72
   104
 73
   100
 74
     0
 42
0.0000000001
 43
0.0000000001
 12
1.0
 22
0.0
 32
0.0
 13
1.0
 23
0.0
 33
0.0
 40
0.0
 40
0.0
 40
0.0
 40
0.0
 40
0.0384615384615385
 40
0.0384615384615385
 40
0.0384615384615385
 40
0.0384615384615385
 40
0.0769230769230769
 40
0.0769230769230769
 40
0.0769230769230769
 40
0.0769230769230769
 40
0.1153846153846154
 40
0.1153846153846154
 40
0.1153846153846154
 40
0.1153846153846154
 40
0.1538461538461539
 40
0.1538461538461539
 40
0.1538461538461539
 40
0.1538461538461539
 40
0.1923076923076923
 40
0.1923076923076923
 40
0.1923076923076923
 40
0.1923076923076923
 40
0.2307692307692308
 40
0.2307692307692308
 40
0.2307692307692308
 40
0.2307692307692308
 40
0.2692307692307692
 40
0.2692307692307692
 40
0.2692307692307692
 40
0.2692307692307692
 40
0.3076923076923077
 40
0.3076923076923077
 40
0.3076923076923077
 40
0.3076923076923077
 40
0.3461538461538461
 40
0.3461538461538461
 40
0.3461538461538461
 40
0.3461538461538461
 40
0.3846153846153846
 40
0.3846153846153846
 40
0.3846153846153846
 40
0.3846153846153846
 40
0.4230769230769231
 40
0.4230769230769231
 40
0.4230769230769231
 40
0.4230769230769231
 40
0.4615384615384616
 40
0.4615384615384616
 40
0.4615384615384616
 40
0.4615384615384616
 40
0.5
 40
0.5
 40
0.5
 40
0.5
 40
0.5384615384615384
 40
0.5384615384615384
 40
0.5384615384615384
 40
0.5384615384615384
 40
0.5769230769230769
 40
0.5769230769230769
 40
0.5769230769230769
 40
0.5769230769230769
 40
0.6153846153846154
 40
0.6153846153846154
 40
0.6153846153846154
 40
0.6153846153846154
 40
0.6538461538461539
 40
0.6538461538461539
 40
0.6538461538461539
 40
0.6538461538461539
 40
0.6923076923076923
 40
0.6923076923076923
 40
0.6923076923076923
 40
0.6923076923076923
 40
0.7307692307692307
 40
0.7307692307692307
 40
0.7307692307692307
 40
0.7307692307692307
 40
0.7692307692307693
 40
0.7692307692307693
 40
0.7692307692307693
 40
0.7692307692307693
 40
0.8076923076923077
 40
0.8076923076923077
 40
0.8076923076923077
 40
0.8076923076923077
 40
0.8461538461538461
 40
0.8461538461538461
 40
0.8461538461538461
 40
0.8461538461538461
 40
0.8846153846153846
 40
0.8846153846153846
 40
0.8846153846153846
 40
0.8846153846153846
 40
0.9230769230769231
 40
0.9230769230769231
 40
0.9230769230769231
 40
0.9230769230769231
 40
1.0
 40
1.0
 40
1.0
 40
1.0
 10
165.0927
 20
-56.6146
 30
0.0
 10
164.1343
 20
-54.0211
 30
0.0
 10
161.3033
 20
-52.8754
 30
0.0
 10
159.1216
 20
-56.154
 30
0.0
 10
159.1216
 20
-56.154
 30
0.0
 10
155.4636
 20
-53.2088
 30
0.0
 10
160.5358
 20
-49.7865
 30
0.0
 10
164.0292
 20
-53.2952
 30
0.0
 10
164.0292
 20
-53.2952
 30
0.0
 10
160.822
 20
-48.4849
 30
0.0
 10
157.8007
 20
-49.8806
 30
0.0
 10
154.4379
 20
-52.7399
 30
0.0
 10
154.4379
 20
-52.7399
 30
0.0
 10
153.7072
 20
-53.3612
 30
0.0
 10
152.6454
 20
-54.403
 30
0.0
 10
151.4174
 20
-54.4231
 30
0.0
 10
151.4174
 20
-54.4231
 30
0.0
 10
149.618
 20
-54.275
 30
0.0
 10
148.675
 20
-54.4953
 30
0.0
 10
147.295
 20
-54.3215
 30
0.0
 10
147.295
 20
-54.3215
 30
0.0
 10
149.2628
 20
-53.4309
 30
0.0
 10
150.9499
 20
-49.491
 30
0.0
 10
155.0228
 20
-47.7359
 30
0.0
 10
155.0228
 20
-47.7359
 30
0.0
 10
158.1502
 20
-46.3883
 30
0.0
 10
163.9763
 20
-49.5034
 30
0.0
 10
165.1741
 20
-52.4683
 30
0.0
 10
165.1741
 20
-52.4683
 30
0.0
 10
164.5428
 20
-49.2328
 30
0.0
 10
162.278
 20
-47.0149
 30
0.0
 10
159.7058
 20
-46.8809
 30
0.0
 10
159.7058
 20
-46.8809
 30
0.0
 10
159.7986
 20
-45.3859
 30
0.0
 10
157.9772
 20
-44.153
 30
0.0
 10
155.5942
 20
-44.7461
 30
0.0
 10
155.5942
 20
-44.7461
 30
0.0
 10
157.3264
 20
-41.1107
 30
0.0
 10
163.9712
 20
-41.4416
 30
0.0
 10
165.5637
 20
-47.8025
 30
0.0
 10
165.5637
 20
-47.8025
 30
0.0
 10
165.6266
 20
-45.0446
 30
0.0
 10
164.6757
 20
-40.0991
 30
0.0
 10
163.7638
 20
-38.0833
 30
0.0
 10
163.7638
 20
-38.0833
 30
0.0
 10
165.3273
 20
-36.0705
 30
0.0
 10
166.0393
 20
-34.6988
 30
0.0
 10
166.7908
 20
-32.7086
 30
0.0
 10
166.7908
 20
-32.7086
 30
0.0
 10
167.5421
 20
-34.6988
 30
0.0
 10
168.3485
 20
-36.0705
 30
0.0
 10
169.9119
 20
-38.0833
 30
0.0
 10
169.9119
 20
-38.0833
 30
0.0
 10
169.0
 20
-40.0991
 30
0.0
 10
168.0492
 20
-45.0446
 30
0.0
 10
168.1121
 20
-47.8025
 30
0.0
 10
168.1121
 20
-47.8025
 30
0.0
 10
169.7045
 20
-41.4416
 30
0.0
 10
176.3494
 20
-41.1107
 30
0.0
 10
178.0815
 20
-44.7461
 30
0.0
 10
178.0815
 20
-44.7461
 30
0.0
 10
175.6986
 20
-44.153
 30
0.0
 10
173.8772
 20
-45.3859
 30
0.0
 10
173.9699
 20
-46.8809
 30
0.0
 10
173.9699
 20
-46.8809
 30
0.0
 10
171.3978
 20
-47.0149
 30
0.0
 10
169.133
 20
-49.2328
 30
0.0
 10
168.5017
 20
-52.4683
 30
0.0
 10
168.5017
 20
-52.4683
 30
0.0
 10
169.6994
 20
-49.5034
 30
0.0
 10
175.5256
 20
-46.3883
 30
0.0
 10
178.653
 20
-47.7359
 30
0.0
 10
178.653
 20
-47.7359
 30
0.0
 10
182.7259
 20
-49.491
 30
0.0
 10
184.4129
 20
-53.4309
 30
0.0
 10
186.3808
 20
-54.3215
 30
0.0
 10
186.3808
 20
-54.3215
 30
0.0
 10
185.0007
 20
-54.4953
 30
0.0
 10
184.0577
 20
-54.275
 30
0.0
 10
182.2584
 20
-54.4231
 30
0.0
 10
182.2584
 20
-54.4231
 30
0.0
 10
181.0304
 20
-54.403
 30
0.0
 10
179.9685
 20
-53.3612
 30
0.0
 10
179.2378
 20
-52.7399
 30
0.0
 10
179.2378
 20
-52.7399
 30
0.0
 10
175.8751
 20
-49.8806
 30
0.0
 10
172.8538
 20
-48.4849
 30
0.0
 10
169.6466
 20
-53.2952
 30
0.0
 10
169.6466
 20
-53.2952
 30
0.0
 10
173.14
 20
-49.7865
 30
0.0
 10
178.2122
 20
-53.2088
 30
0.0
 10
174.5541
 20
-56.154
 30
0.0
 10
174.5541
 20
-56.154
 30
0.0
 10
172.3725
 20
-52.8754
 30
0.0
 10
169.5415
 20
-54.0211
 30
0.0
 10
168.583
 20
-56.6146
 30
0.0
 10
168.583
 20
-56.6146
 30
0.0
 10
168.583
 20
-56.6146
 30
0.0
 10
165.0927
 20
-56.6146
 30
0.0
 10
165.0927
 20
-56.6146
 30
0.0
  0
ELLIPSE
  5
71
330
1F
100
AcDbEntity
  8
layer 1
 62
   250
370
    18
100
AcDbEllipse
 10
166.7832
 20
-60.4212
 30
0.0
 11
3.8528
 21
0.0
 31
0.0
210
0.0
220
0.0
230
1.0
 40
0.5459146594684385
 41
0.0
 42
6.283185307179586
  0
SPLINE
  5
72
330
1F
100
AcDbEntity
  8
layer 1
 62
     7
370
    18
100
AcDbSpline
210
0.0
220
0.0
230
1.0
 70
    11
 71
     3
 72
   104
 73
   100
 74
     0
 42
0.0000000001
 43
0.0000000001
 12
1.0
 22
0.0
 32
0.0
 13
1.0
 23
0.0
 33
0.0
 40
0.0
 40
0.0
 40
0.0
 40
0.0
 40
0.0384615384615385
 40
0.0384615384615385
 40
0.0384615384615385
 40
0.0384615384615385
 40
0.0769230769230769
 40
0.0769230769230769
 40
0.0769230769230769
 40
0.0769230769230769
 40
0.1153846153846154
 40
0.1153846153846154
 40
0.1153846153846154
 40
0.1153846153846154
 40
0.1538461538461539
 40
0.1538461538461539
 40
0.1538461538461539
 40
0.1538461538461539
 40
0.1923076923076923
 40
0.1923076923076923
 40
0.1923076923076923
 40
0.1923076923076923
 40
0.2307692307692308
 40
0.2307692307692308
 40
0.2307692307692308
 40
0.2307692307692308
 40
0.2692307692307692
 40
0.2692307692307692
 40
0.2692307692307692
 40
0.2692307692307692
 40
0.3076923076923077
 40
0.3076923076923077
 40
0.3076923076923077
 40
0.3076923076923077
 40
0.3461538461538461
 40
0.3461538461538461
 40
0.3461538461538461
 40
0.3461538461538461
 40
0.3846153846153846
 40
0.3846153846153846
 40
0.3846153846153846
 40
0.3846153846153846
 40
0.4230769230769231
 40
0.4230769230769231
 40
0.4230769230769231
 40
0.4230769230769231
 40
0.4615384615384616
 40
0.4615384615384616
 40
0.4615384615384616
 40
0.4615384615384616
 40
0.5
 40
0.5
 40
0.5
 40
0.5
 40
0.5384615384615384
 40
0.5384615384615384
 40
0.5384615384615384
 40
0.5384615384615384
 40
0.5769230769230769
 40
0.5769230769230769
 40
0.5769230769230769
 40
0.5769230769230769
 40
0.6153846153846154
 40
0.6153846153846154
 40
0.6153846153846154
 40
0.6153846153846154
 40
0.6538461538461539
 40
0.6538461538461539
 40
0.6538461538461539
 40
0.6538461538461539
 40
0.6923076923076923
 40
0.6923076923076923
 40
0.6923076923076923
 40
0.6923076923076923
 40
0.7307692307692307
 40
0.7307692307692307
 40
0.7307692307692307
 40
0.7307692307692307
 40
0.7692307692307693
 40
0.7692307692307693
 40
0.7692307692307693
 40
0.7692307692307693
 40
0.8076923076923077
 40
0.8076923076923077
 40
0.8076923076923077
 40
0.8076923076923077
 40
0.8461538461538461
 40
0.8461538461538461
 40
0.8461538461538461
 40
0.8461538461538461
 40
0.8846153846153846
 40
0.8846153846153846
 40
0.8846153846153846
 40
0.8846153846153846
 40
0.9230769230769231
 40
0.9230769230769231
 40
0.9230769230769231
 40
0.9230769230769231
 40
1.0
 40
1.0
 40
1.0
 40
1.0
 10
143.3583
 20
-80.9848
 30
0.0
 10
142.3999
 20
-78.3912
 30
0.0
 10
139.5689
 20
-77.2456
 30
0.0
 10
137.3872
 20
-80.5242
 30
0.0
 10
137.3872
 20
-80.5242
 30
0.0
 10
133.7292
 20
-77.5789
 30
0.0
 10
138.8014
 20
-74.1566
 30
0.0
 10
142.2948
 20
-77.6654
 30
0.0
 10
142.2948
 20
-77.6654
 30
0.0
 10
139.0876
 20
-72.855
 30
0.0
 10
136.0663
 20
-74.2507
 30
0.0
 10
132.7035
 20
-77.1101
 30
0.0
 10
132.7035
 20
-77.1101
 30
0.0
 10
131.9728
 20
-77.7314
 30
0.0
 10
130.911
 20
-78.7731
 30
0.0
 10
129.683
 20
-78.7932
 30
0.0
 10
129.683
 20
-78.7932
 30
0.0
 10
127.8836
 20
-78.6452
 30
0.0
 10
126.9406
 20
-78.8654
 30
0.0
 10
125.5606
 20
-78.6916
 30
0.0
 10
125.5606
 20
-78.6916
 30
0.0
 10
127.5285
 20
-77.8011
 30
0.0
 10
129.2155
 20
-73.8612
 30
0.0
 10
133.2884
 20
-72.1061
 30
0.0
 10
133.2884
 20
-72.1061
 30
0.0
 10
136.4158
 20
-70.7584
 30
0.0
 10
142.2419
 20
-73.8735
 30
0.0
 10
143.4397
 20
-76.8384
 30
0.0
 10
143.4397
 20
-76.8384
 30
0.0
 10
142.8084
 20
-73.6029
 30
0.0
 10
140.5436
 20
-71.3851
 30
0.0
 10
137.9715
 20
-71.251
 30
0.0
 10
137.9715
 20
-71.251
 30
0.0
 10
138.0642
 20
-69.756
 30
0.0
 10
136.2428
 20
-68.5231
 30
0.0
 10
133.8598
 20
-69.1162
 30
0.0
 10
133.8598
 20
-69.1162
 30
0.0
 10
135.592
 20
-65.4809
 30
0.0
 10
142.2369
 20
-65.8117
 30
0.0
 10
143.8293
 20
-72.1726
 30
0.0
 10
143.8293
 20
-72.1726
 30
0.0
 10
143.8922
 20
-69.4147
 30
0.0
 10
142.9413
 20
-64.4692
 30
0.0
 10
142.0294
 20
-62.4534
 30
0.0
 10
142.0294
 20
-62.4534
 30
0.0
 10
143.5929
 20
-60.4407
 30
0.0
 10
144.3049
 20
-59.0689
 30
0.0
 10
145.0564
 20
-57.0787
 30
0.0
 10
145.0564
 20
-57.0787
 30
0.0
 10
145.8077
 20
-59.0689
 30
0.0
 10
146.6141
 20
-60.4407
 30
0.0
 10
148.1775
 20
-62.4534
 30
0.0
 10
148.1775
 20
-62.4534
 30
0.0
 10
147.2657
 20
-64.4692
 30
0.0
 10
146.3148
 20
-69.4147
 30
0.0
 10
146.3777
 20
-72.1726
 30
0.0
 10
146.3777
 20
-72.1726
 30
0.0
 10
147.9701
 20
-65.8117
 30
0.0
 10
154.615
 20
-65.4809
 30
0.0
 10
156.3472
 20
-69.1162
 30
0.0
 10
156.3472
 20
-69.1162
 30
0.0
 10
153.9642
 20
-68.5231
 30
0.0
 10
152.1428
 20
-69.756
 30
0.0
 10
152.2355
 20
-71.251
 30
0.0
 10
152.2355
 20
-71.251
 30
0.0
 10
149.6634
 20
-71.3851
 30
0.0
 10
147.3986
 20
-73.6029
 30
0.0
 10
146.7673
 20
-76.8384
 30
0.0
 10
146.7673
 20
-76.8384
 30
0.0
 10
147.9651
 20
-73.8735
 30
0.0
 10
153.7912
 20
-70.7584
 30
0.0
 10
156.9186
 20
-72.1061
 30
0.0
 10
156.9186
 20
-72.1061
 30
0.0
 10
160.9915
 20
-73.8612
 30
0.0
 10
162.6785
 20
-77.8011
 30
0.0
 10
164.6464
 20
-78.6916
 30
0.0
 10
164.6464
 20
-78.6916
 30
0.0
 10
163.2664
 20
-78.8654
 30
0.0
 10
162.3234
 20
-78.6452
 30
0.0
 10
160.524
 20
-78.7932
 30
0.0
 10
160.524
 20
-78.7932
 30
0.0
 10
159.296
 20
-78.7731
 30
0.0
 10
158.2342
 20
-77.7314
 30
0.0
 10
157.5035
 20
-77.1101
 30
0.0
 10
157.5035
 20
-77.1101
 30
0.0
 10
154.1407
 20
-74.2507
 30
0.0
 10
151.1194
 20
-72.855
 30
0.0
 10
147.9122
 20
-77.6654
 30
0.0
 10
147.9122
 20
-77.6654
 30
0.0
 10
151.4056
 20
-74.1566
 30
0.0
 10
156.4778
 20
-77.5789
 30
0.0
 10
152.8198
 20
-80.5242
 30
0.0
 10
152.8198
 20
-80.5242
 30
0.0
 10
150.6381
 20
-77.2456
 30
0.0
 10
147.8071
 20
-78.3912
 30
0.0
 10
146.8487
 20
-80.9848
 30
0.0
 10
146.8487
 20
-80.9848
 30
0.0
 10
146.8487
 20
-80.9848
 30
0.0
 10
143.3583
 20
-80.9848
 30
0.0
 10
143.3583
 20
-80.9848
 30
0.0
  0
ELLIPSE
  5
73
330
1F
100
AcDbEntity
  8
layer 1
 62
   250
370
    18
100
AcDbEllipse
 10
145.0488
 20
-84.7914
 30
0.0
 11
3.8528
 21
0.0
 31
0.0
210
0.0
220
0.0
230
1.0
 40
0.5459406146179403
 41
0.0
 42
6.283185307179586
  0
SPLINE
  5
74
330
1F
100
AcDbEntity
  8
layer 1
 62
     7
370
    18
100
AcDbSpline
210
0.0
220
0.0
230
1.0
 70
    11
 71
     3
 72
   104
 73
   100
 74
     0
 42
0.0000000001
 43
0.0000000001
 12
1.0
 22
0.0
 32
0.0
 13
1.0
 23
0.0
 33
0.0
 40
0.0
 40
0.0
 40
0.0
 40
0.0
 40
0.0384615384615385
 40
0.0384615384615385
 40
0.0384615384615385
 40
0.0384615384615385
 40
0.0769230769230769
 40
0.0769230769230769
 40
0.0769230769230769
 40
0.0769230769230769
 40
0.1153846153846154
 40
0.1153846153846154
 40
0.1153846153846154
 40
0.1153846153846154
 40
0.1538461538461539
 40
0.1538461538461539
 40
0.1538461538461539
 40
0.1538461538461539
 40
0.1923076923076923
 40
0.1923076923076923
 40
0.1923076923076923
 40
0.1923076923076923
 40
0.2307692307692308
 40
0.2307692307692308
 40
0.2307692307692308
 40
0.2307692307692308
 40
0.2692307692307692
 40
0.2692307692307692
 40
0.2692307692307692
 40
0.2692307692307692
 40
0.3076923076923077
 40
0.3076923076923077
 40
0.3076923076923077
 40
0.3076923076923077
 40
0.3461538461538461
 40
0.3461538461538461
 40
0.3461538461538461
 40
0.3461538461538461
 40
0.3846153846153846
 40
0.3846153846153846
 40
0.3846153846153846
 40
0.3846153846153846
 40
0.4230769230769231
 40
0.4230769230769231
 40
0.4230769230769231
 40
0.4230769230769231
 40
0.4615384615384616
 40
0.4615384615384616
 40
0.4615384615384616
 40
0.4615384615384616
 40
0.5
 40
0.5
 40
0.5
 40
0.5
 40
0.5384615384615384
 40
0.5384615384615384
 40
0.5384615384615384
 40
0.5384615384615384
 40
0.5769230769230769
 40
0.5769230769230769
 40
0.5769230769230769
 40
0.5769230769230769
 40
0.6153846153846154
 40
0.6153846153846154
 40
0.6153846153846154
 40
0.6153846153846154
 40
0.6538461538461539
 40
0.6538461538461539
 40
0.6538461538461539
 40
0.6538461538461539
 40
0.6923076923076923
 40
0.6923076923076923
 40
0.6923076923076923
 40
0.6923076923076923
 40
0.7307692307692307
 40
0.7307692307692307
 40
0.7307692307692307
 40
0.7307692307692307
 40
0.7692307692307693
 40
0.7692307692307693
 40
0.7692307692307693
 40
0.7692307692307693
 40
0.8076923076923077
 40
0.8076923076923077
 40
0.8076923076923077
 40
0.8076923076923077
 40
0.8461538461538461
 40
0.8461538461538461
 40
0.8461538461538461
 40
0.8461538461538461
 40
0.8846153846153846
 40
0.8846153846153846
 40
0.8846153846153846
 40
0.8846153846153846
 40
0.9230769230769231
 40
0.9230769230769231
 40
0.9230769230769231
 40
0.9230769230769231
 40
1.0
 40
1.0
 40
1.0
 40
1.0
 10
98.2388
 20
-80.9848
 30
0.0
 10
97.2803
 20
-78.3912
 30
0.0
 10
94.4493
 20
-77.2456
 30
0.0
 10
92.2677
 20
-80.5242
 30
0.0
 10
92.2677
 20
-80.5242
 30
0.0
 10
88.6097
 20
-77.5789
 30
0.0
 10
93.6818
 20
-74.1566
 30
0.0
 10
97.1752
 20
-77.6654
 30
0.0
 10
97.1752
 20
-77.6654
 30
0.0
 10
93.968
 20
-72.855
 30
0.0
 10
90.9468
 20
-74.2507
 30
0.0
 10
87.584
 20
-77.1101
 30
0.0
 10
87.584
 20
-77.1101
 30
0.0
 10
86.8533
 20
-77.7314
 30
0.0
 10
85.7914
 20
-78.7731
 30
0.0
 10
84.5634
 20
-78.7932
 30
0.0
 10
84.5634
 20
-78.7932
 30
0.0
 10
82.7641
 20
-78.6452
 30
0.0
 10
81.8211
 20
-78.8654
 30
0.0
 10
80.441
 20
-78.6916
 30
0.0
 10
80.441
 20
-78.6916
 30
0.0
 10
82.4089
 20
-77.8011
 30
0.0
 10
84.096
 20
-73.8612
 30
0.0
 10
88.1688
 20
-72.1061
 30
0.0
 10
88.1688
 20
-72.1061
 30
0.0
 10
91.2963
 20
-70.7584
 30
0.0
 10
97.1224
 20
-73.8735
 30
0.0
 10
98.3202
 20
-76.8384
 30
0.0
 10
98.3202
 20
-76.8384
 30
0.0
 10
97.6889
 20
-73.6029
 30
0.0
 10
95.4241
 20
-71.3851
 30
0.0
 10
92.8519
 20
-71.251
 30
0.0
 10
92.8519
 20
-71.251
 30
0.0
 10
92.9447
 20
-69.756
 30
0.0
 10
91.1233
 20
-68.5231
 30
0.0
 10
88.7403
 20
-69.1162
 30
0.0
 10
88.7403
 20
-69.1162
 30
0.0
 10
90.4724
 20
-65.4809
 30
0.0
 10
97.1173
 20
-65.8117
 30
0.0
 10
98.7098
 20
-72.1726
 30
0.0
 10
98.7098
 20
-72.1726
 30
0.0
 10
98.7727
 20
-69.4147
 30
0.0
 10
97.8218
 20
-64.4692
 30
0.0
 10
96.9099
 20
-62.4534
 30
0.0
 10
96.9099
 20
-62.4534
 30
0.0
 10
98.4733
 20
-60.4407
 30
0.0
 10
99.1854
 20
-59.0689
 30
0.0
 10
99.9368
 20
-57.0787
 30
0.0
 10
99.9368
 20
-57.0787
 30
0.0
 10
100.6882
 20
-59.0689
 30
0.0
 10
101.4946
 20
-60.4407
 30
0.0
 10
103.058
 20
-62.4534
 30
0.0
 10
103.058
 20
-62.4534
 30
0.0
 10
102.1461
 20
-64.4692
 30
0.0
 10
101.1952
 20
-69.4147
 30
0.0
 10
101.2582
 20
-72.1726
 30
0.0
 10
101.2582
 20
-72.1726
 30
0.0
 10
102.8506
 20
-65.8117
 30
0.0
 10
109.4955
 20
-65.4809
 30
0.0
 10
111.2276
 20
-69.1162
 30
0.0
 10
111.2276
 20
-69.1162
 30
0.0
 10
108.8446
 20
-68.5231
 30
0.0
 10
107.0233
 20
-69.756
 30
0.0
 10
107.116
 20
-71.251
 30
0.0
 10
107.116
 20
-71.251
 30
0.0
 10
104.5439
 20
-71.3851
 30
0.0
 10
102.279
 20
-73.6029
 30
0.0
 10
101.6477
 20
-76.8384
 30
0.0
 10
101.6477
 20
-76.8384
 30
0.0
 10
102.8455
 20
-73.8735
 30
0.0
 10
108.6716
 20
-70.7584
 30
0.0
 10
111.7991
 20
-72.1061
 30
0.0
 10
111.7991
 20
-72.1061
 30
0.0
 10
115.8719
 20
-73.8612
 30
0.0
 10
117.559
 20
-77.8011
 30
0.0
 10
119.5269
 20
-78.6916
 30
0.0
 10
119.5269
 20
-78.6916
 30
0.0
 10
118.1468
 20
-78.8654
 30
0.0
 10
117.2038
 20
-78.6452
 30
0.0
 10
115.4045
 20
-78.7932
 30
0.0
 10
115.4045
 20
-78.7932
 30
0.0
 10
114.1765
 20
-78.7731
 30
0.0
 10
113.1146
 20
-77.7314
 30
0.0
 10
112.3839
 20
-77.1101
 30
0.0
 10
112.3839
 20
-77.1101
 30
0.0
 10
109.0211
 20
-74.2507
 30
0.0
 10
105.9999
 20
-72.855
 30
0.0
 10
102.7927
 20
-77.6654
 30
0.0
 10
102.7927
 20
-77.6654
 30
0.0
 10
106.2861
 20
-74.1566
 30
0.0
 10
111.3582
 20
-77.5789
 30
0.0
 10
107.7002
 20
-80.5242
 30
0.0
 10
107.7002
 20
-80.5242
 30
0.0
 10
105.5186
 20
-77.2456
 30
0.0
 10
102.6876
 20
-78.3912
 30
0.0
 10
101.7291
 20
-80.9848
 30
0.0
 10
101.7291
 20
-80.9848
 30
0.0
 10
101.7291
 20
-80.9848
 30
0.0
 10
98.2388
 20
-80.9848
 30
0.0
 10
98.2388
 20
-80.9848
 30
0.0
  0
ELLIPSE
  5
75
330
1F
100
AcDbEntity
  8
layer 1
 62
   250
370
    18
100
AcDbEllipse
 10
99.9293
 20
-84.7914
 30
0.0
 11
3.8528
 21
0.0
 31
0.0
210
0.0
220
0.0
230
1.0
 40
0.5459406146179403
 41
0.0
 42
6.283185307179586
  0
SPLINE
  5
76
330
1F
100
AcDbEntity
  8
layer 1
 62
     7
370
    18
100
AcDbSpline
210
0.0
220
0.0
230
1.0
 70
    11
 71
     3
 72
    60
 73
    56
 74
     0
 42
0.0000000001
 43
0.0000000001
 12
1.0
 22
0.0
 32
0.0
 13
1.0
 23
0.0
 33
0.0
 40
0.0
 40
0.0
 40
0.0
 40
0.0
 40
0.0666666666666667
 40
0.0666666666666667
 40
0.0666666666666667
 40
0.0666666666666667
 40
0.1333333333333333
 40
0.1333333333333333
 40
0.1333333333333333
 40
0.1333333333333333
 40
0.2
 40
0.2
 40
0.2
 40
0.2
 40
0.2666666666666667
 40
0.2666666666666667
 40
0.2666666666666667
 40
0.2666666666666667
 40
0.3333333333333333
 40
0.3333333333333333
 40
0.3333333333333333
 40
0.3333333333333333
 40
0.4
 40
0.4
 40
0.4
 40
0.4
 40
0.4666666666666667
 40
0.4666666666666667
 40
0.4666666666666667
 40
0.4666666666666667
 40
0.5333333333333333
 40
0.5333333333333333
 40
0.5333333333333333
 40
0.5333333333333333
 40
0.6
 40
0.6
 40
0.6
 40
0.6
 40
0.6666666666666666
 40
0.6666666666666666
 40
0.6666666666666666
 40
0.6666666666666666
 40
0.7333333333333333
 40
0.7333333333333333
 40
0.7333333333333333
 40
0.7333333333333333
 40
0.8
 40
0.8
 40
0.8
 40
0.8
 40
0.8666666666666667
 40
0.8666666666666667
 40
0.8666666666666667
 40
0.8666666666666667
 40
1.0
 40
1.0
 40
1.0
 40
1.0
 10
55.0535
 20
-57.0787
 30
0.0
 10
55.8049
 20
-59.0689
 30
0.0
 10
56.6113
 20
-60.4407
 30
0.0
 10
58.1747
 20
-62.4534
 30
0.0
 10
58.1747
 20
-62.4534
 30
0.0
 10
57.2628
 20
-64.4692
 30
0.0
 10
56.3119
 20
-69.4147
 30
0.0
 10
56.3748
 20
-72.1726
 30
0.0
 10
56.3748
 20
-72.1726
 30
0.0
 10
57.9673
 20
-65.8117
 30
0.0
 10
64.6122
 20
-65.4809
 30
0.0
 10
66.3443
 20
-69.1162
 30
0.0
 10
66.3443
 20
-69.1162
 30
0.0
 10
63.9613
 20
-68.5231
 30
0.0
 10
62.1399
 20
-69.756
 30
0.0
 10
62.2327
 20
-71.251
 30
0.0
 10
62.2327
 20
-71.251
 30
0.0
 10
59.6605
 20
-71.3851
 30
0.0
 10
57.3957
 20
-73.6029
 30
0.0
 10
56.7644
 20
-76.8384
 30
0.0
 10
56.7644
 20
-76.8384
 30
0.0
 10
57.9622
 20
-73.8735
 30
0.0
 10
63.7883
 20
-70.7584
 30
0.0
 10
66.9158
 20
-72.1061
 30
0.0
 10
66.9158
 20
-72.1061
 30
0.0
 10
70.9886
 20
-73.8612
 30
0.0
 10
72.6757
 20
-77.8011
 30
0.0
 10
74.6435
 20
-78.6916
 30
0.0
 10
74.6435
 20
-78.6916
 30
0.0
 10
73.2635
 20
-78.8654
 30
0.0
 10
72.3205
 20
-78.6452
 30
0.0
 10
70.5211
 20
-78.7932
 30
0.0
 10
70.5211
 20
-78.7932
 30
0.0
 10
69.2932
 20
-78.7731
 30
0.0
 10
68.2313
 20
-77.7314
 30
0.0
 10
67.5006
 20
-77.1101
 30
0.0
 10
67.5006
 20
-77.1101
 30
0.0
 10
64.1378
 20
-74.2507
 30
0.0
 10
61.1166
 20
-72.855
 30
0.0
 10
57.9093
 20
-77.6654
 30
0.0
 10
57.9093
 20
-77.6654
 30
0.0
 10
61.4027
 20
-74.1566
 30
0.0
 10
66.4749
 20
-77.5789
 30
0.0
 10
62.8169
 20
-80.5242
 30
0.0
 10
62.8169
 20
-80.5242
 30
0.0
 10
60.6352
 20
-77.2456
 30
0.0
 10
57.8042
 20
-78.3912
 30
0.0
 10
56.8458
 20
-80.9848
 30
0.0
 10
56.8458
 20
-80.9848
 30
0.0
 10
56.8458
 20
-80.9848
 30
0.0
 10
55.05
 20
-81.0157
 30
0.0
 10
55.05
 20
-81.0157
 30
0.0
 10
55.05
 20
-81.0157
 30
0.0
 10
55.05
 20
-81.0157
 30
0.0
 10
55.0535
 20
-57.0787
 30
0.0
 10
55.0535
 20
-57.0787
 30
0.0
  0
SPLINE
  5
77
330
1F
100
AcDbEntity
  8
layer 1
 62
   250
370
    18
100
AcDbSpline
210
0.0
220
0.0
230
1.0
 70
    11
 71
     3
 72
    16
 73
    12
 74
     0
 42
0.0000000001
 43
0.0000000001
 12
1.0
 22
0.0
 32
0.0
 13
1.0
 23
0.0
 33
0.0
 40
0.0
 40
0.0
 40
0.0
 40
0.0
 40
0.25
 40
0.25
 40
0.25
 40
0.25
 40
0.5
 40
0.5
 40
0.5
 40
0.5
 40
1.0
 40
1.0
 40
1.0
 40
1.0
 10
55.0459
 20
-82.688
 30
0.0
 10
57.1734
 20
-82.688
 30
0.0
 10
58.8988
 20
-83.6299
 30
0.0
 10
58.8988
 20
-84.7914
 30
0.0
 10
58.8988
 20
-84.7914
 30
0.0
 10
58.8988
 20
-85.9529
 30
0.0
 10
57.1733
 20
-86.8948
 30
0.0
 10
55.0459
 20
-86.8948
 30
0.0
 10
55.0459
 20
-86.8948
 30
0.0
 10
55.0459
 20
-86.8948
 30
0.0
 10
55.0459
 20
-82.688
 30
0.0
 10
55.0459
 20
-82.688
 30
0.0
  0
SPLINE
  5
78
330
1F
100
AcDbEntity
  8
layer 1
 62
     7
370
    18
100
AcDbSpline
210
0.0
220
0.0
230
1.0
 70
    11
 71
     3
 72
    60
 73
    56
 74
     0
 42
0.0000000001
 43
0.0000000001
 12
1.0
 22
0.0
 32
0.0
 13
1.0
 23
0.0
 33
0.0
 40
0.0
 40
0.0
 40
0.0
 40
0.0
 40
0.0666666666666667
 40
0.0666666666666667
 40
0.0666666666666667
 40
0.0666666666666667
 40
0.1333333333333333
 40
0.1333333333333333
 40
0.1333333333333333
 40
0.1333333333333333
 40
0.2
 40
0.2
 40
0.2
 40
0.2
 40
0.2666666666666667
 40
0.2666666666666667
 40
0.2666666666666667
 40
0.2666666666666667
 40
0.3333333333333333
 40
0.3333333333333333
 40
0.3333333333333333
 40
0.3333333333333333
 40
0.4
 40
0.4
 40
0.4
 40
0.4
 40
0.4666666666666667
 40
0.4666666666666667
 40
0.4666666666666667
 40
0.4666666666666667
 40
0.5333333333333333
 40
0.5333333333333333
 40
0.5333333333333333
 40
0.5333333333333333
 40
0.6
 40
0.6
 40
0.6
 40
0.6
 40
0.6666666666666666
 40
0.6666666666666666
 40
0.6666666666666666
 40
0.6666666666666666
 40
0.7333333333333333
 40
0.7333333333333333
 40
0.7333333333333333
 40
0.7333333333333333
 40
0.8
 40
0.8
 40
0.8
 40
0.8
 40
0.8666666666666667
 40
0.8666666666666667
 40
0.8666666666666667
 40
0.8666666666666667
 40
1.0
 40
1.0
 40
1.0
 40
1.0
 10
189.9652
 20
-57.0787
 30
0.0
 10
189.2139
 20
-59.0689
 30
0.0
 10
188.4075
 20
-60.4407
 30
0.0
 10
186.8441
 20
-62.4534
 30
0.0
 10
186.8441
 20
-62.4534
 30
0.0
 10
187.756
 20
-64.4692
 30
0.0
 10
188.7068
 20
-69.4147
 30
0.0
 10
188.6439
 20
-72.1726
 30
0.0
 10
188.6439
 20
-72.1726
 30
0.0
 10
187.0515
 20
-65.8117
 30
0.0
 10
180.4066
 20
-65.4809
 30
0.0
 10
178.6745
 20
-69.1162
 30
0.0
 10
178.6745
 20
-69.1162
 30
0.0
 10
181.0574
 20
-68.5231
 30
0.0
 10
182.8788
 20
-69.756
 30
0.0
 10
182.7861
 20
-71.251
 30
0.0
 10
182.7861
 20
-71.251
 30
0.0
 10
185.3582
 20
-71.3851
 30
0.0
 10
187.623
 20
-73.6029
 30
0.0
 10
188.2543
 20
-76.8384
 30
0.0
 10
188.2543
 20
-76.8384
 30
0.0
 10
187.0566
 20
-73.8735
 30
0.0
 10
181.2304
 20
-70.7584
 30
0.0
 10
178.103
 20
-72.1061
 30
0.0
 10
178.103
 20
-72.1061
 30
0.0
 10
174.0301
 20
-73.8612
 30
0.0
 10
172.3431
 20
-77.8011
 30
0.0
 10
170.3752
 20
-78.6916
 30
0.0
 10
170.3752
 20
-78.6916
 30
0.0
 10
171.7553
 20
-78.8654
 30
0.0
 10
172.6983
 20
-78.6452
 30
0.0
 10
174.4976
 20
-78.7932
 30
0.0
 10
174.4976
 20
-78.7932
 30
0.0
 10
175.7256
 20
-78.7731
 30
0.0
 10
176.7875
 20
-77.7314
 30
0.0
 10
177.5182
 20
-77.1101
 30
0.0
 10
177.5182
 20
-77.1101
 30
0.0
 10
180.8809
 20
-74.2507
 30
0.0
 10
183.9022
 20
-72.855
 30
0.0
 10
187.1094
 20
-77.6654
 30
0.0
 10
187.1094
 20
-77.6654
 30
0.0
 10
183.616
 20
-74.1566
 30
0.0
 10
178.5438
 20
-77.5789
 30
0.0
 10
182.2019
 20
-80.5242
 30
0.0
 10
182.2019
 20
-80.5242
 30
0.0
 10
184.3835
 20
-77.2456
 30
0.0
 10
187.2145
 20
-78.3912
 30
0.0
 10
188.173
 20
-80.9848
 30
0.0
 10
188.173
 20
-80.9848
 30
0.0
 10
188.173
 20
-80.9848
 30
0.0
 10
189.9687
 20
-81.0157
 30
0.0
 10
189.9687
 20
-81.0157
 30
0.0
 10
189.9687
 20
-81.0157
 30
0.0
 10
189.9687
 20
-81.0157
 30
0.0
 10
189.9652
 20
-57.0787
 30
0.0
 10
189.9652
 20
-57.0787
 30
0.0
  0
SPLINE
  5
79
330
1F
100
AcDbEntity
  8
layer 1
 62
   250
370
    18
100
AcDbSpline
210
0.0
220
0.0
230
1.0
 70
    11
 71
     3
 72
    16
 73
    12
 74
     0
 42
0.0000000001
 43
0.0000000001
 12
1.0
 22
0.0
 32
0.0
 13
1.0
 23
0.0
 33
0.0
 40
0.0
 40
0.0
 40
0.0
 40
0.0
 40
0.25
 40
0.25
 40
0.25
 40
0.25
 40
0.5
 40
0.5
 40
0.5
 40
0.5
 40
1.0
 40
1.0
 40
1.0
 40
1.0
 10
189.9728
 20
-82.688
 30
0.0
 10
187.8453
 20
-82.688
 30
0.0
 10
186.1199
 20
-83.6299
 30
0.0
 10
186.1199
 20
-84.7914
 30
0.0
 10
186.1199
 20
-84.7914
 30
0.0
 10
186.1199
 20
-85.9529
 30
0.0
 10
187.8454
 20
-86.8948
 30
0.0
 10
189.9728
 20
-86.8948
 30
0.0
 10
189.9728
 20
-86.8948
 30
0.0
 10
189.9728
 20
-86.8948
 30
0.0
 10
189.9728
 20
-82.688
 30
0.0
 10
189.9728
 20
-82.688
 30
0.0
  0
SPLINE
  5
7A
330
1F
100
AcDbEntity
  8
layer 1
 62
   250
370
    18
100
AcDbSpline
210
0.0
220
0.0
230
1.0
 70
    11
 71
     3
 72
    16
 73
    12
 74
     0
 42
0.0000000001
 43
0.0000000001
 12
1.0
 22
0.0
 32
0.0
 13
1.0
 23
0.0
 33
0.0
 40
0.0
 40
0.0
 40
0.0
 40
0.0
 40
0.25
 40
0.25
 40
0.25
 40
0.25
 40
0.5
 40
0.5
 40
0.5
 40
0.5
 40
1.0
 40
1.0
 40
1.0
 40
1.0
 10
55.0459
 20
-29.4208
 30
0.0
 10
57.1734
 20
-29.4208
 30
0.0
 10
58.8988
 20
-30.3627
 30
0.0
 10
58.8988
 20
-31.5242
 30
0.0
 10
58.8988
 20
-31.5242
 30
0.0
 10
58.8988
 20
-32.6856
 30
0.0
 10
57.1733
 20
-33.6275
 30
0.0
 10
55.0459
 20
-33.6275
 30
0.0
 10
55.0459
 20
-33.6275
 30
0.0
 10
55.0459
 20
-33.6275
 30
0.0
 10
55.0459
 20
-29.4208
 30
0.0
 10
55.0459
 20
-29.4208
 30
0.0
  0
SPLINE
  5
7B
330
1F
100
AcDbEntity
  8
layer 1
 62
   250
370
    18
100
AcDbSpline
210
0.0
220
0.0
230
1.0
 70
    11
 71
     3
 72
    16
 73
    12
 74
     0
 42
0.0000000001
 43
0.0000000001
 12
1.0
 22
0.0
 32
0.0
 13
1.0
 23
0.0
 33
0.0
 40
0.0
 40
0.0
 40
0.0
 40
0.0
 40
0.25
 40
0.25
 40
0.25
 40
0.25
 40
0.5
 40
0.5
 40
0.5
 40
0.5
 40
1.0
 40
1.0
 40
1.0
 40
1.0
 10
189.9728
 20
-29.4208
 30
0.0
 10
187.8453
 20
-29.4208
 30
0.0
 10
186.1199
 20
-30.3627
 30
0.0
 10
186.1199
 20
-31.5242
 30
0.0
 10
186.1199
 20
-31.5242
 30
0.0
 10
186.1199
 20
-32.6856
 30
0.0
 10
187.8454
 20
-33.6275
 30
0.0
 10
189.9728
 20
-33.6275
 30
0.0
 10
189.9728
 20
-33.6275
 30
0.0
 10
189.9728
 20
-33.6275
 30
0.0
 10
189.9728
 20
-29.4208
 30
0.0
 10
189.9728
 20
-29.4208
 30
0.0
  0
SPLINE
  5
7C
330
1F
100
AcDbEntity
  8
layer 1
 62
     7
370
    18
100
AcDbSpline
210
0.0
220
0.0
230
1.0
 70
    11
 71
     3
 72
   104
 73
   100
 74
     0
 42
0.0000000001
 43
0.0000000001
 12
1.0
 22
0.0
 32
0.0
 13
1.0
 23
0.0
 33
0.0
 40
0.0
 40
0.0
 40
0.0
 40
0.0
 40
0.0384615384615385
 40
0.0384615384615385
 40
0.0384615384615385
 40
0.0384615384615385
 40
0.0769230769230769
 40
0.0769230769230769
 40
0.0769230769230769
 40
0.0769230769230769
 40
0.1153846153846154
 40
0.1153846153846154
 40
0.1153846153846154
 40
0.1153846153846154
 40
0.1538461538461539
 40
0.1538461538461539
 40
0.1538461538461539
 40
0.1538461538461539
 40
0.1923076923076923
 40
0.1923076923076923
 40
0.1923076923076923
 40
0.1923076923076923
 40
0.2307692307692308
 40
0.2307692307692308
 40
0.2307692307692308
 40
0.2307692307692308
 40
0.2692307692307692
 40
0.2692307692307692
 40
0.2692307692307692
 40
0.2692307692307692
 40
0.3076923076923077
 40
0.3076923076923077
 40
0.3076923076923077
 40
0.3076923076923077
 40
0.3461538461538461
 40
0.3461538461538461
 40
0.3461538461538461
 40
0.3461538461538461
 40
0.3846153846153846
 40
0.3846153846153846
 40
0.3846153846153846
 40
0.3846153846153846
 40
0.4230769230769231
 40
0.4230769230769231
 40
0.4230769230769231
 40
0.4230769230769231
 40
0.4615384615384616
 40
0.4615384615384616
 40
0.4615384615384616
 40
0.4615384615384616
 40
0.5
 40
0.5
 40
0.5
 40
0.5
 40
0.5384615384615384
 40
0.5384615384615384
 40
0.5384615384615384
 40
0.5384615384615384
 40
0.5769230769230769
 40
0.5769230769230769
 40
0.5769230769230769
 40
0.5769230769230769
 40
0.6153846153846154
 40
0.6153846153846154
 40
0.6153846153846154
 40
0.6153846153846154
 40
0.6538461538461539
 40
0.6538461538461539
 40
0.6538461538461539
 40
0.6538461538461539
 40
0.6923076923076923
 40
0.6923076923076923
 40
0.6923076923076923
 40
0.6923076923076923
 40
0.7307692307692307
 40
0.7307692307692307
 40
0.7307692307692307
 40
0.7307692307692307
 40
0.7692307692307693
 40
0.7692307692307693
 40
0.7692307692307693
 40
0.7692307692307693
 40
0.8076923076923077
 40
0.8076923076923077
 40
0.8076923076923077
 40
0.8076923076923077
 40
0.8461538461538461
 40
0.8461538461538461
 40
0.8461538461538461
 40
0.8461538461538461
 40
0.8846153846153846
 40
0.8846153846153846
 40
0.8846153846153846
 40
0.8846153846153846
 40
0.9230769230769231
 40
0.9230769230769231
 40
0.9230769230769231
 40
0.9230769230769231
 40
1.0
 40
1.0
 40
1.0
 40
1.0
 10
120.3766
 20
-109.1008
 30
0.0
 10
119.4182
 20
-106.5072
 30
0.0
 10
116.5872
 20
-105.3616
 30
0.0
 10
114.4055
 20
-108.6402
 30
0.0
 10
114.4055
 20
-108.6402
 30
0.0
 10
110.7475
 20
-105.6949
 30
0.0
 10
115.8197
 20
-102.2726
 30
0.0
 10
119.3131
 20
-105.7814
 30
0.0
 10
119.3131
 20
-105.7814
 30
0.0
 10
116.1059
 20
-100.9711
 30
0.0
 10
113.0846
 20
-102.3668
 30
0.0
 10
109.7218
 20
-105.2261
 30
0.0
 10
109.7218
 20
-105.2261
 30
0.0
 10
108.9911
 20
-105.8474
 30
0.0
 10
107.9293
 20
-106.8891
 30
0.0
 10
106.7013
 20
-106.9093
 30
0.0
 10
106.7013
 20
-106.9093
 30
0.0
 10
104.9019
 20
-106.7612
 30
0.0
 10
103.9589
 20
-106.9815
 30
0.0
 10
102.5789
 20
-106.8077
 30
0.0
 10
102.5789
 20
-106.8077
 30
0.0
 10
104.5467
 20
-105.9171
 30
0.0
 10
106.2338
 20
-101.9772
 30
0.0
 10
110.3067
 20
-100.2221
 30
0.0
 10
110.3067
 20
-100.2221
 30
0.0
 10
113.4341
 20
-98.8745
 30
0.0
 10
119.2602
 20
-101.9895
 30
0.0
 10
120.458
 20
-104.9545
 30
0.0
 10
120.458
 20
-104.9545
 30
0.0
 10
119.8267
 20
-101.7189
 30
0.0
 10
117.5619
 20
-99.5011
 30
0.0
 10
114.9897
 20
-99.3671
 30
0.0
 10
114.9897
 20
-99.3671
 30
0.0
 10
115.0825
 20
-97.872
 30
0.0
 10
113.2611
 20
-96.6392
 30
0.0
 10
110.8781
 20
-97.2323
 30
0.0
 10
110.8781
 20
-97.2323
 30
0.0
 10
112.6103
 20
-93.5969
 30
0.0
 10
119.2551
 20
-93.9277
 30
0.0
 10
120.8476
 20
-100.2886
 30
0.0
 10
120.8476
 20
-100.2886
 30
0.0
 10
120.9105
 20
-97.5307
 30
0.0
 10
119.9596
 20
-92.5853
 30
0.0
 10
119.0477
 20
-90.5694
 30
0.0
 10
119.0477
 20
-90.5694
 30
0.0
 10
120.6112
 20
-88.5567
 30
0.0
 10
121.3232
 20
-87.1849
 30
0.0
 10
122.0747
 20
-85.1947
 30
0.0
 10
122.0747
 20
-85.1947
 30
0.0
 10
122.826
 20
-87.1849
 30
0.0
 10
123.6324
 20
-88.5567
 30
0.0
 10
125.1958
 20
-90.5694
 30
0.0
 10
125.1958
 20
-90.5694
 30
0.0
 10
124.2839
 20
-92.5853
 30
0.0
 10
123.3331
 20
-97.5307
 30
0.0
 10
123.396
 20
-100.2886
 30
0.0
 10
123.396
 20
-100.2886
 30
0.0
 10
124.9884
 20
-93.9277
 30
0.0
 10
131.6333
 20
-93.5969
 30
0.0
 10
133.3654
 20
-97.2323
 30
0.0
 10
133.3654
 20
-97.2323
 30
0.0
 10
130.9825
 20
-96.6392
 30
0.0
 10
129.1611
 20
-97.872
 30
0.0
 10
129.2538
 20
-99.3671
 30
0.0
 10
129.2538
 20
-99.3671
 30
0.0
 10
126.6817
 20
-99.5011
 30
0.0
 10
124.4169
 20
-101.7189
 30
0.0
 10
123.7856
 20
-104.9545
 30
0.0
 10
123.7856
 20
-104.9545
 30
0.0
 10
124.9833
 20
-101.9895
 30
0.0
 10
130.8095
 20
-98.8745
 30
0.0
 10
133.9369
 20
-100.2221
 30
0.0
 10
133.9369
 20
-100.2221
 30
0.0
 10
138.0098
 20
-101.9772
 30
0.0
 10
139.6968
 20
-105.9171
 30
0.0
 10
141.6647
 20
-106.8077
 30
0.0
 10
141.6647
 20
-106.8077
 30
0.0
 10
140.2846
 20
-106.9815
 30
0.0
 10
139.3416
 20
-106.7612
 30
0.0
 10
137.5423
 20
-106.9093
 30
0.0
 10
137.5423
 20
-106.9093
 30
0.0
 10
136.3143
 20
-106.8891
 30
0.0
 10
135.2524
 20
-105.8474
 30
0.0
 10
134.5217
 20
-105.2261
 30
0.0
 10
134.5217
 20
-105.2261
 30
0.0
 10
131.159
 20
-102.3668
 30
0.0
 10
128.1377
 20
-100.9711
 30
0.0
 10
124.9305
 20
-105.7814
 30
0.0
 10
124.9305
 20
-105.7814
 30
0.0
 10
128.4239
 20
-102.2726
 30
0.0
 10
133.4961
 20
-105.6949
 30
0.0
 10
129.838
 20
-108.6402
 30
0.0
 10
129.838
 20
-108.6402
 30
0.0
 10
127.6564
 20
-105.3616
 30
0.0
 10
124.8254
 20
-106.5072
 30
0.0
 10
123.8669
 20
-109.1008
 30
0.0
 10
123.8669
 20
-109.1008
 30
0.0
 10
123.8669
 20
-109.1008
 30
0.0
 10
120.3766
 20
-109.1008
 30
0.0
 10
120.3766
 20
-109.1008
 30
0.0
  0
ELLIPSE
  5
7D
330
1F
100
AcDbEntity
  8
layer 1
 62
   250
370
    18
100
AcDbEllipse
 10
122.0671
 20
-112.9074
 30
0.0
 11
3.8528
 21
0.0
 31
0.0
210
0.0
220
0.0
230
1.0
 40
0.5459406146179403
 41
0.0
 42
6.283185307179586
  0
SPLINE
  5
7E
330
1F
100
AcDbEntity
  8
layer 1
 62
     7
370
    18
100
AcDbSpline
210
0.0
220
0.0
230
1.0
 70
    11
 71
     3
 72
   104
 73
   100
 74
     0
 42
0.0000000001
 43
0.0000000001
 12
1.0
 22
0.0
 32
0.0
 13
1.0
 23
0.0
 33
0.0
 40
0.0
 40
0.0
 40
0.0
 40
0.0
 40
0.0384615384615385
 40
0.0384615384615385
 40
0.0384615384615385
 40
0.0384615384615385
 40
0.0769230769230769
 40
0.0769230769230769
 40
0.0769230769230769
 40
0.0769230769230769
 40
0.1153846153846154
 40
0.1153846153846154
 40
0.1153846153846154
 40
0.1153846153846154
 40
0.1538461538461539
 40
0.1538461538461539
 40
0.1538461538461539
 40
0.1538461538461539
 40
0.1923076923076923
 40
0.1923076923076923
 40
0.1923076923076923
 40
0.1923076923076923
 40
0.2307692307692308
 40
0.2307692307692308
 40
0.2307692307692308
 40
0.2307692307692308
 40
0.2692307692307692
 40
0.2692307692307692
 40
0.2692307692307692
 40
0.2692307692307692
 40
0.3076923076923077
 40
0.3076923076923077
 40
0.3076923076923077
 40
0.3076923076923077
 40
0.3461538461538461
 40
0.3461538461538461
 40
0.3461538461538461
 40
0.3461538461538461
 40
0.3846153846153846
 40
0.3846153846153846
 40
0.3846153846153846
 40
0.3846153846153846
 40
0.4230769230769231
 40
0.4230769230769231
 40
0.4230769230769231
 40
0.4230769230769231
 40
0.4615384615384616
 40
0.4615384615384616
 40
0.4615384615384616
 40
0.4615384615384616
 40
0.5
 40
0.5
 40
0.5
 40
0.5
 40
0.5384615384615384
 40
0.5384615384615384
 40
0.5384615384615384
 40
0.5384615384615384
 40
0.5769230769230769
 40
0.5769230769230769
 40
0.5769230769230769
 40
0.5769230769230769
 40
0.6153846153846154
 40
0.6153846153846154
 40
0.6153846153846154
 40
0.6153846153846154
 40
0.6538461538461539
 40
0.6538461538461539
 40
0.6538461538461539
 40
0.6538461538461539
 40
0.6923076923076923
 40
0.6923076923076923
 40
0.6923076923076923
 40
0.6923076923076923
 40
0.7307692307692307
 40
0.7307692307692307
 40
0.7307692307692307
 40
0.7307692307692307
 40
0.7692307692307693
 40
0.7692307692307693
 40
0.7692307692307693
 40
0.7692307692307693
 40
0.8076923076923077
 40
0.8076923076923077
 40
0.8076923076923077
 40
0.8076923076923077
 40
0.8461538461538461
 40
0.8461538461538461
 40
0.8461538461538461
 40
0.8461538461538461
 40
0.8846153846153846
 40
0.8846153846153846
 40
0.8846153846153846
 40
0.8846153846153846
 40
0.9230769230769231
 40
0.9230769230769231
 40
0.9230769230769231
 40
0.9230769230769231
 40
1.0
 40
1.0
 40
1.0
 40
1.0
 10
75.2571
 20
-109.1008
 30
0.0
 10
74.2986
 20
-106.5072
 30
0.0
 10
71.4676
 20
-105.3616
 30
0.0
 10
69.286
 20
-108.6402
 30
0.0
 10
69.286
 20
-108.6402
 30
0.0
 10
65.6279
 20
-105.6949
 30
0.0
 10
70.7001
 20
-102.2726
 30
0.0
 10
74.1935
 20
-105.7814
 30
0.0
 10
74.1935
 20
-105.7814
 30
0.0
 10
70.9863
 20
-100.9711
 30
0.0
 10
67.9651
 20
-102.3668
 30
0.0
 10
64.6023
 20
-105.2261
 30
0.0
 10
64.6023
 20
-105.2261
 30
0.0
 10
63.8716
 20
-105.8474
 30
0.0
 10
62.8097
 20
-106.8891
 30
0.0
 10
61.5817
 20
-106.9093
 30
0.0
 10
61.5817
 20
-106.9093
 30
0.0
 10
59.7824
 20
-106.7612
 30
0.0
 10
58.8394
 20
-106.9815
 30
0.0
 10
57.4593
 20
-106.8077
 30
0.0
 10
57.4593
 20
-106.8077
 30
0.0
 10
59.4272
 20
-105.9171
 30
0.0
 10
61.1143
 20
-101.9772
 30
0.0
 10
65.1871
 20
-100.2221
 30
0.0
 10
65.1871
 20
-100.2221
 30
0.0
 10
68.3146
 20
-98.8745
 30
0.0
 10
74.1407
 20
-101.9895
 30
0.0
 10
75.3385
 20
-104.9545
 30
0.0
 10
75.3385
 20
-104.9545
 30
0.0
 10
74.7072
 20
-101.7189
 30
0.0
 10
72.4423
 20
-99.5011
 30
0.0
 10
69.8702
 20
-99.3671
 30
0.0
 10
69.8702
 20
-99.3671
 30
0.0
 10
69.9629
 20
-97.872
 30
0.0
 10
68.1416
 20
-96.6392
 30
0.0
 10
65.7586
 20
-97.2323
 30
0.0
 10
65.7586
 20
-97.2323
 30
0.0
 10
67.4907
 20
-93.5969
 30
0.0
 10
74.1356
 20
-93.9277
 30
0.0
 10
75.728
 20
-100.2886
 30
0.0
 10
75.728
 20
-100.2886
 30
0.0
 10
75.791
 20
-97.5307
 30
0.0
 10
74.8401
 20
-92.5853
 30
0.0
 10
73.9282
 20
-90.5694
 30
0.0
 10
73.9282
 20
-90.5694
 30
0.0
 10
75.4916
 20
-88.5567
 30
0.0
 10
76.2037
 20
-87.1849
 30
0.0
 10
76.9551
 20
-85.1947
 30
0.0
 10
76.9551
 20
-85.1947
 30
0.0
 10
77.7065
 20
-87.1849
 30
0.0
 10
78.5129
 20
-88.5567
 30
0.0
 10
80.0763
 20
-90.5694
 30
0.0
 10
80.0763
 20
-90.5694
 30
0.0
 10
79.1644
 20
-92.5853
 30
0.0
 10
78.2135
 20
-97.5307
 30
0.0
 10
78.2764
 20
-100.2886
 30
0.0
 10
78.2764
 20
-100.2886
 30
0.0
 10
79.8689
 20
-93.9277
 30
0.0
 10
86.5138
 20
-93.5969
 30
0.0
 10
88.2459
 20
-97.2323
 30
0.0
 10
88.2459
 20
-97.2323
 30
0.0
 10
85.8629
 20
-96.6392
 30
0.0
 10
84.0415
 20
-97.872
 30
0.0
 10
84.1343
 20
-99.3671
 30
0.0
 10
84.1343
 20
-99.3671
 30
0.0
 10
81.5621
 20
-99.5011
 30
0.0
 10
79.2973
 20
-101.7189
 30
0.0
 10
78.666
 20
-104.9545
 30
0.0
 10
78.666
 20
-104.9545
 30
0.0
 10
79.8638
 20
-101.9895
 30
0.0
 10
85.6899
 20
-98.8745
 30
0.0
 10
88.8174
 20
-100.2221
 30
0.0
 10
88.8174
 20
-100.2221
 30
0.0
 10
92.8902
 20
-101.9772
 30
0.0
 10
94.5773
 20
-105.9171
 30
0.0
 10
96.5451
 20
-106.8077
 30
0.0
 10
96.5451
 20
-106.8077
 30
0.0
 10
95.1651
 20
-106.9815
 30
0.0
 10
94.2221
 20
-106.7612
 30
0.0
 10
92.4227
 20
-106.9093
 30
0.0
 10
92.4227
 20
-106.9093
 30
0.0
 10
91.1948
 20
-106.8891
 30
0.0
 10
90.1329
 20
-105.8474
 30
0.0
 10
89.4022
 20
-105.2261
 30
0.0
 10
89.4022
 20
-105.2261
 30
0.0
 10
86.0394
 20
-102.3668
 30
0.0
 10
83.0182
 20
-100.9711
 30
0.0
 10
79.8109
 20
-105.7814
 30
0.0
 10
79.8109
 20
-105.7814
 30
0.0
 10
83.3043
 20
-102.2726
 30
0.0
 10
88.3765
 20
-105.6949
 30
0.0
 10
84.7185
 20
-108.6402
 30
0.0
 10
84.7185
 20
-108.6402
 30
0.0
 10
82.5368
 20
-105.3616
 30
0.0
 10
79.7058
 20
-106.5072
 30
0.0
 10
78.7474
 20
-109.1008
 30
0.0
 10
78.7474
 20
-109.1008
 30
0.0
 10
78.7474
 20
-109.1008
 30
0.0
 10
75.2571
 20
-109.1008
 30
0.0
 10
75.2571
 20
-109.1008
 30
0.0
  0
ELLIPSE
  5
7F
330
1F
100
AcDbEntity
  8
layer 1
 62
   250
370
    18
100
AcDbEllipse
 10
76.9476
 20
-112.9074
 30
0.0
 11
3.8528
 21
0.0
 31
0.0
210
0.0
220
0.0
230
1.0
 40
0.5459406146179403
 41
0.0
 42
6.283185307179586
  0
SPLINE
  5
80
330
1F
100
AcDbEntity
  8
layer 1
 62
     7
370
    18
100
AcDbSpline
210
0.0
220
0.0
230
1.0
 70
    11
 71
     3
 72
   104
 73
   100
 74
     0
 42
0.0000000001
 43
0.0000000001
 12
1.0
 22
0.0
 32
0.0
 13
1.0
 23
0.0
 33
0.0
 40
0.0
 40
0.0
 40
0.0
 40
0.0
 40
0.0384615384615385
 40
0.0384615384615385
 40
0.0384615384615385
 40
0.0384615384615385
 40
0.0769230769230769
 40
0.0769230769230769
 40
0.0769230769230769
 40
0.0769230769230769
 40
0.1153846153846154
 40
0.1153846153846154
 40
0.1153846153846154
 40
0.1153846153846154
 40
0.1538461538461539
 40
0.1538461538461539
 40
0.1538461538461539
 40
0.1538461538461539
 40
0.1923076923076923
 40
0.1923076923076923
 40
0.1923076923076923
 40
0.1923076923076923
 40
0.2307692307692308
 40
0.2307692307692308
 40
0.2307692307692308
 40
0.2307692307692308
 40
0.2692307692307692
 40
0.2692307692307692
 40
0.2692307692307692
 40
0.2692307692307692
 40
0.3076923076923077
 40
0.3076923076923077
 40
0.3076923076923077
 40
0.3076923076923077
 40
0.3461538461538461
 40
0.3461538461538461
 40
0.3461538461538461
 40
0.3461538461538461
 40
0.3846153846153846
 40
0.3846153846153846
 40
0.3846153846153846
 40
0.3846153846153846
 40
0.4230769230769231
 40
0.4230769230769231
 40
0.4230769230769231
 40
0.4230769230769231
 40
0.4615384615384616
 40
0.4615384615384616
 40
0.4615384615384616
 40
0.4615384615384616
 40
0.5
 40
0.5
 40
0.5
 40
0.5
 40
0.5384615384615384
 40
0.5384615384615384
 40
0.5384615384615384
 40
0.5384615384615384
 40
0.5769230769230769
 40
0.5769230769230769
 40
0.5769230769230769
 40
0.5769230769230769
 40
0.6153846153846154
 40
0.6153846153846154
 40
0.6153846153846154
 40
0.6153846153846154
 40
0.6538461538461539
 40
0.6538461538461539
 40
0.6538461538461539
 40
0.6538461538461539
 40
0.6923076923076923
 40
0.6923076923076923
 40
0.6923076923076923
 40
0.6923076923076923
 40
0.7307692307692307
 40
0.7307692307692307
 40
0.7307692307692307
 40
0.7307692307692307
 40
0.7692307692307693
 40
0.7692307692307693
 40
0.7692307692307693
 40
0.7692307692307693
 40
0.8076923076923077
 40
0.8076923076923077
 40
0.8076923076923077
 40
0.8076923076923077
 40
0.8461538461538461
 40
0.8461538461538461
 40
0.8461538461538461
 40
0.8461538461538461
 40
0.8846153846153846
 40
0.8846153846153846
 40
0.8846153846153846
 40
0.8846153846153846
 40
0.9230769230769231
 40
0.9230769230769231
 40
0.9230769230769231
 40
0.9230769230769231
 40
1.0
 40
1.0
 40
1.0
 40
1.0
 10
165.0927
 20
-109.1008
 30
0.0
 10
164.1343
 20
-106.5072
 30
0.0
 10
161.3033
 20
-105.3616
 30
0.0
 10
159.1216
 20
-108.6402
 30
0.0
 10
159.1216
 20
-108.6402
 30
0.0
 10
155.4636
 20
-105.6949
 30
0.0
 10
160.5358
 20
-102.2726
 30
0.0
 10
164.0292
 20
-105.7814
 30
0.0
 10
164.0292
 20
-105.7814
 30
0.0
 10
160.822
 20
-100.9711
 30
0.0
 10
157.8007
 20
-102.3668
 30
0.0
 10
154.4379
 20
-105.2261
 30
0.0
 10
154.4379
 20
-105.2261
 30
0.0
 10
153.7072
 20
-105.8474
 30
0.0
 10
152.6454
 20
-106.8891
 30
0.0
 10
151.4174
 20
-106.9093
 30
0.0
 10
151.4174
 20
-106.9093
 30
0.0
 10
149.618
 20
-106.7612
 30
0.0
 10
148.675
 20
-106.9815
 30
0.0
 10
147.295
 20
-106.8077
 30
0.0
 10
147.295
 20
-106.8077
 30
0.0
 10
149.2628
 20
-105.9171
 30
0.0
 10
150.9499
 20
-101.9772
 30
0.0
 10
155.0228
 20
-100.2221
 30
0.0
 10
155.0228
 20
-100.2221
 30
0.0
 10
158.1502
 20
-98.8745
 30
0.0
 10
163.9763
 20
-101.9895
 30
0.0
 10
165.1741
 20
-104.9545
 30
0.0
 10
165.1741
 20
-104.9545
 30
0.0
 10
164.5428
 20
-101.7189
 30
0.0
 10
162.278
 20
-99.5011
 30
0.0
 10
159.7058
 20
-99.3671
 30
0.0
 10
159.7058
 20
-99.3671
 30
0.0
 10
159.7986
 20
-97.872
 30
0.0
 10
157.9772
 20
-96.6392
 30
0.0
 10
155.5942
 20
-97.2323
 30
0.0
 10
155.5942
 20
-97.2323
 30
0.0
 10
157.3264
 20
-93.5969
 30
0.0
 10
163.9712
 20
-93.9277
 30
0.0
 10
165.5637
 20
-100.2886
 30
0.0
 10
165.5637
 20
-100.2886
 30
0.0
 10
165.6266
 20
-97.5307
 30
0.0
 10
164.6757
 20
-92.5853
 30
0.0
 10
163.7638
 20
-90.5694
 30
0.0
 10
163.7638
 20
-90.5694
 30
0.0
 10
165.3273
 20
-88.5567
 30
0.0
 10
166.0393
 20
-87.1849
 30
0.0
 10
166.7908
 20
-85.1947
 30
0.0
 10
166.7908
 20
-85.1947
 30
0.0
 10
167.5421
 20
-87.1849
 30
0.0
 10
168.3485
 20
-88.5567
 30
0.0
 10
169.9119
 20
-90.5694
 30
0.0
 10
169.9119
 20
-90.5694
 30
0.0
 10
169.0
 20
-92.5853
 30
0.0
 10
168.0492
 20
-97.5307
 30
0.0
 10
168.1121
 20
-100.2886
 30
0.0
 10
168.1121
 20
-100.2886
 30
0.0
 10
169.7045
 20
-93.9277
 30
0.0
 10
176.3494
 20
-93.5969
 30
0.0
 10
178.0815
 20
-97.2323
 30
0.0
 10
178.0815
 20
-97.2323
 30
0.0
 10
175.6986
 20
-96.6392
 30
0.0
 10
173.8772
 20
-97.872
 30
0.0
 10
173.9699
 20
-99.3671
 30
0.0
 10
173.9699
 20
-99.3671
 30
0.0
 10
171.3978
 20
-99.5011
 30
0.0
 10
169.133
 20
-101.7189
 30
0.0
 10
168.5017
 20
-104.9545
 30
0.0
 10
168.5017
 20
-104.9545
 30
0.0
 10
169.6994
 20
-101.9895
 30
0.0
 10
175.5256
 20
-98.8745
 30
0.0
 10
178.653
 20
-100.2221
 30
0.0
 10
178.653
 20
-100.2221
 30
0.0
 10
182.7259
 20
-101.9772
 30
0.0
 10
184.4129
 20
-105.9171
 30
0.0
 10
186.3808
 20
-106.8077
 30
0.0
 10
186.3808
 20
-106.8077
 30
0.0
 10
185.0007
 20
-106.9815
 30
0.0
 10
184.0577
 20
-106.7612
 30
0.0
 10
182.2584
 20
-106.9093
 30
0.0
 10
182.2584
 20
-106.9093
 30
0.0
 10
181.0304
 20
-106.8891
 30
0.0
 10
179.9685
 20
-105.8474
 30
0.0
 10
179.2378
 20
-105.2261
 30
0.0
 10
179.2378
 20
-105.2261
 30
0.0
 10
175.8751
 20
-102.3668
 30
0.0
 10
172.8538
 20
-100.9711
 30
0.0
 10
169.6466
 20
-105.7814
 30
0.0
 10
169.6466
 20
-105.7814
 30
0.0
 10
173.14
 20
-102.2726
 30
0.0
 10
178.2122
 20
-105.6949
 30
0.0
 10
174.5541
 20
-108.6402
 30
0.0
 10
174.5541
 20
-108.6402
 30
0.0
 10
172.3725
 20
-105.3616
 30
0.0
 10
169.5415
 20
-106.5072
 30
0.0
 10
168.583
 20
-109.1008
 30
0.0
 10
168.583
 20
-109.1008
 30
0.0
 10
168.583
 20
-109.1008
 30
0.0
 10
165.0927
 20
-109.1008
 30
0.0
 10
165.0927
 20
-109.1008
 30
0.0
  0
ELLIPSE
  5
81
330
1F
100
AcDbEntity
  8
layer 1
 62
   250
370
    18
100
AcDbEllipse
 10
166.7832
 20
-112.9074
 30
0.0
 11
3.8528
 21
0.0
 31
0.0
210
0.0
220
0.0
230
1.0
 40
0.5459406146179403
 41
0.0
 42
6.283185307179586
  0
ENDSEC
  0
SECTION
  2
OBJECTS
  0
DICTIONARY
  5
C
330
0
100
AcDbDictionary
281
     1
  3
ACAD_GROUP
350
D
  3
ACAD_LAYOUT
350
1A
  3
ACAD_MATERIAL
350
3B
  3
ACAD_MLEADERSTYLE
350
A3
  3
ACAD_MLINESTYLE
350
17
  3
ACAD_PLOTSETTINGS
350
19
  3
ACAD_PLOTSTYLENAME
350
E
  3
ACAD_TABLESTYLE
350
A2
  3
ACAD_VISUALSTYLE
350
2A
  0
DICTIONARY
  5
D
102
{ACAD_REACTORS
330
C
102
}
330
C
100
AcDbDictionary
281
     1
  0
DICTIONARY
  5
1A
102
{ACAD_REACTORS
330
C
102
}
330
C
100
AcDbDictionary
281
     1
  3
Layout1
350
1E
  3
Layout2
350
26
  3
Model
350
22
  0
DICTIONARY
  5
3B
102
{ACAD_REACTORS
330
C
102
}
330
C
100
AcDbDictionary
281
     1
  3
ByBlock
350
3D
  3
ByLayer
350
3C
  3
Global
350
3E
  0
DICTIONARY
  5
A3
102
{ACAD_REACTORS
330
C
102
}
330
C
100
AcDbDictionary
281
     1
  0
DICTIONARY
  5
17
102
{ACAD_REACTORS
330
C
102
}
330
C
100
AcDbDictionary
281
     1
  3
Standard
350
18
  0
DICTIONARY
  5
19
102
{ACAD_REACTORS
330
C
102
}
330
C
100
AcDbDictionary
281
     1
  0
ACDBDICTIONARYWDFLT
  5
E
102
{ACAD_REACTORS
330
C
102
}
330
C
100
AcDbDictionary
281
     1
  3
Normal
350
F
100
AcDbDictionaryWithDefault
340
F
  0
DICTIONARY
  5
A2
102
{ACAD_REACTORS
330
C
102
}
330
C
100
AcDbDictionary
281
     1
  0
DICTIONARY
  5
2A
102
{ACAD_REACTORS
330
C
102
}
330
C
100
AcDbDictionary
281
     1
  3
2dWireframe
350
2F
  3
3D Hidden
350
31
  3
3dWireframe
350
30
  3
Basic
350
32
  3
Brighten
350
36
  3
ColorChange
350
3A
  3
Conceptual
350
34
  3
Dim
350
35
  3
Facepattern
350
39
  3
Flat
350
2B
  3
FlatWithEdges
350
2C
  3
Gouraud
350
2D
  3
GouraudWithEdges
350
2E
  3
Linepattern
350
38
  3
Realistic
350
33
  3
Thicken
350
37
  0
LAYOUT
  5
1E
102
{ACAD_REACTORS
330
1A
102
}
330
1A
100
AcDbPlotSettings
  1

  2
none_device
  4

  6

 40
0.0
 41
0.0
 42
0.0
 43
0.0
 44
0.0
 45
0.0
 46
0.0
 47
0.0
 48
0.0
 49
0.0
140
0.0
141
0.0
142
1.0
143
1.0
 70
   688
 72
     0
 73
     0
 74
     5
  7

 75
    16
 76
     0
 77
     2
 78
   300
147
1.0
148
0.0
149
0.0
100
AcDbLayout
  1
Layout1
 70
     1
 71
     1
 10
0.0
 20
0.0
 11
12.0
 21
9.0
 12
0.0
 22
0.0
 32
0.0
 14
1.000000000000000E+20
 24
1.000000000000000E+20
 34
1.000000000000000E+20
 15
-1.000000000000000E+20
 25
-1.000000000000000E+20
 35
-1.000000000000000E+20
146
0.0
 13
0.0
 23
0.0
 33
0.0
 16
1.0
 26
0.0
 36
0.0
 17
0.0
 27
1.0
 37
0.0
 76
     0
330
1B
  0
LAYOUT
  5
26
102
{ACAD_REACTORS
330
1A
102
}
330
1A
100
AcDbPlotSettings
  1

  2
none_device
  4

  6

 40
0.0
 41
0.0
 42
0.0
 43
0.0
 44
0.0
 45
0.0
 46
0.0
 47
0.0
 48
0.0
 49
0.0
140
0.0
141
0.0
142
1.0
143
1.0
 70
   688
 72
     0
 73
     0
 74
     5
  7

 75
    16
 76
     0
 77
     2
 78
   300
147
1.0
148
0.0
149
0.0
100
AcDbLayout
  1
Layout2
 70
     1
 71
     2
 10
0.0
 20
0.0
 11
0.0
 21
0.0
 12
0.0
 22
0.0
 32
0.0
 14
0.0
 24
0.0
 34
0.0
 15
0.0
 25
0.0
 35
0.0
146
0.0
 13
0.0
 23
0.0
 33
0.0
 16
1.0
 26
0.0
 36
0.0
 17
0.0
 27
1.0
 37
0.0
 76
     0
330
23
  0
LAYOUT
  5
22
102
{ACAD_REACTORS
330
1A
102
}
330
1A
100
AcDbPlotSettings
  1

  2
none_device
  4

  6

 40
0.0
 41
0.0
 42
0.0
 43
0.0
 44
0.0
 45
0.0
 46
0.0
 47
0.0
 48
0.0
 49
0.0
140
0.0
141
0.0
142
1.0
143
1.0
 70
  1712
 72
     0
 73
     0
 74
     0
  7

 75
     0
 76
     0
 77
     2
 78
   300
147
1.0
148
0.0
149
0.0
100
AcDbLayout
  1
Model
 70
     1
 71
     0
 10
0.0
 20
0.0
 11
12.0
 21
9.0
 12
0.0
 22
0.0
 32
0.0
 14
49.2722
 24
-115.1008
 34
0.0
 15
196.3941
 25
131.7093
 35
0.0
146
0.0
 13
0.0
 23
0.0
 33
0.0
 16
1.0
 26
0.0
 36
0.0
 17
0.0
 27
1.0
 37
0.0
 76
     0
330
1F
331
29
  0
MATERIAL
  5
3D
102
{ACAD_REACTORS
330
3B
102
}
330
3B
100
AcDbMaterial
  1
ByBlock
 72
     1
 94
      127
  0
MATERIAL
  5
3C
102
{ACAD_REACTORS
330
3B
102
}
330
3B
100
AcDbMaterial
  1
ByLayer
 72
     1
 94
      127
  0
MATERIAL
  5
3E
102
{ACAD_REACTORS
330
3B
102
}
330
3B
100
AcDbMaterial
  1
Global
 72
     1
 94
      127
  0
MLINESTYLE
  5
18
102
{ACAD_REACTORS
330
17
102
}
330
17
100
AcDbMlineStyle
  2
Standard
 70
     0
  3

 62
   256
 51
90.0
 52
90.0
 71
     2
 49
0.5
 62
   256
  6
BYLAYER
 49
-0.5
 62
   256
  6
BYLAYER
  0
ACDBPLACEHOLDER
  5
F
102
{ACAD_REACTORS
330
E
102
}
330
E
  0
VISUALSTYLE
  5
2F
102
{ACAD_REACTORS
330
2A
102
}
102
{ACAD_XDICTIONARY
360
8A
102
}
330
2A
100
AcDbVisualStyle
  2
2dWireframe
 70
     4
 71
     0
 72
     2
 73
     0
 90
        0
 40
-0.6
 41
-30.0
 62
     5
 63
     7
421
 16777215
 74
     1
 91
        4
 64
     7
 65
   257
 75
     1
175
     1
 42
1.0
 92
        0
 66
   257
 43
1.0
 76
     1
 77
     6
 78
     2
 67
     7
 79
     5
170
     0
171
     0
290
     0
174
     0
 93
        1
 44
0.0
173
     0
291
     0
 45
0.0
  0
VISUALSTYLE
  5
31
102
{ACAD_REACTORS
330
2A
102
}
102
{ACAD_XDICTIONARY
360
8E
102
}
330
2A
100
AcDbVisualStyle
  2
3D Hidden
 70
     6
 71
     1
 72
     2
 73
     2
 90
        0
 40
-0.6
 41
-30.0
 62
     5
 63
     7
421
 16777215
 74
     2
 91
        2
 64
     7
 65
   257
 75
     2
175
     1
 42
40.0
 92
        0
 66
   257
 43
1.0
 76
     1
 77
     6
 78
     2
 67
     7
 79
     3
170
     0
171
     0
290
     0
174
     0
 93
        1
 44
0.0
173
     0
291
     0
 45
0.0
  0
VISUALSTYLE
  5
30
102
{ACAD_REACTORS
330
2A
102
}
102
{ACAD_XDICTIONARY
360
8C
102
}
330
2A
100
AcDbVisualStyle
  2
3dWireframe
 70
     5
 71
     0
 72
     2
 73
     0
 90
        0
 40
-0.6
 41
-30.0
 62
     5
 63
     7
421
 16777215
 74
     1
 91
        4
 64
     7
 65
   257
 75
     1
175
     1
 42
1.0
 92
        0
 66
   257
 43
1.0
 76
     1
 77
     6
 78
     2
 67
     7
 79
     5
170
     0
171
     0
290
     0
174
     0
 93
        1
 44
0.0
173
     0
291
     0
 45
0.0
  0
VISUALSTYLE
  5
32
102
{ACAD_REACTORS
330
2A
102
}
102
{ACAD_XDICTIONARY
360
90
102
}
330
2A
100
AcDbVisualStyle
  2
Basic
 70
     7
 71
     1
 72
     0
 73
     1
 90
        0
 40
-0.6
 41
-30.0
 62
     5
 63
     7
421
 16777215
 74
     0
 91
        4
 64
     7
 65
   257
 75
     1
175
     1
 42
1.0
 92
        8
 66
     7
 43
1.0
 76
     1
 77
     6
 78
     2
 67
     7
 79
     5
170
     0
171
     0
290
     0
174
     0
 93
        1
 44
0.0
173
     0
291
     1
 45
0.0
  0
VISUALSTYLE
  5
36
102
{ACAD_REACTORS
330
2A
102
}
102
{ACAD_XDICTIONARY
360
98
102
}
330
2A
100
AcDbVisualStyle
  2
Brighten
 70
    12
 71
     2
 72
     2
 73
     0
 90
        0
 40
-0.6
 41
-30.0
 62
     5
 63
     7
421
 16777215
 74
     1
 91
        4
 64
     7
 65
   257
 75
     1
175
     1
 42
1.0
 92
        8
 66
     7
 43
1.0
 76
     1
 77
     6
 78
     2
 67
     7
 79
     5
170
     0
171
     0
290
     0
174
     0
 93
        1
 44
50.0
173
     0
291
     1
 45
0.0
  0
VISUALSTYLE
  5
3A
102
{ACAD_REACTORS
330
2A
102
}
102
{ACAD_XDICTIONARY
360
A0
102
}
330
2A
100
AcDbVisualStyle
  2
ColorChange
 70
    16
 71
     2
 72
     2
 73
     3
 90
        0
 40
-0.6
 41
-30.0
 62
     5
 63
     8
421
  8421504
 74
     1
 91
        4
 64
     7
 65
   257
 75
     1
175
     1
 42
1.0
 92
        8
 66
     8
424
  8421504
 43
1.0
 76
     1
 77
     6
 78
     2
 67
     7
 79
     5
170
     0
171
     0
290
     0
174
     0
 93
        1
 44
0.0
173
     0
291
     1
 45
0.0
  0
VISUALSTYLE
  5
34
102
{ACAD_REACTORS
330
2A
102
}
102
{ACAD_XDICTIONARY
360
94
102
}
330
2A
100
AcDbVisualStyle
  2
Conceptual
 70
     9
 71
     3
 72
     2
 73
     0
 90
        0
 40
-0.6
 41
-30.0
 62
     5
 63
     7
421
 16777215
 74
     2
 91
        2
 64
     7
 65
   257
 75
     1
175
     1
 42
40.0
 92
        8
 66
     7
 43
1.0
 76
     1
 77
     6
 78
     2
 67
     7
 79
     3
170
     0
171
     0
290
     0
174
     0
 93
        1
 44
0.0
173
     0
291
     0
 45
0.0
  0
VISUALSTYLE
  5
35
102
{ACAD_REACTORS
330
2A
102
}
102
{ACAD_XDICTIONARY
360
96
102
}
330
2A
100
AcDbVisualStyle
  2
Dim
 70
    11
 71
     2
 72
     2
 73
     0
 90
        0
 40
-0.6
 41
-30.0
 62
     5
 63
     7
421
 16777215
 74
     1
 91
        4
 64
     7
 65
   257
 75
     1
175
     1
 42
1.0
 92
        8
 66
     7
 43
1.0
 76
     1
 77
     6
 78
     2
 67
     7
 79
     5
170
     0
171
     0
290
     0
174
     0
 93
        1
 44
-50.0
173
     0
291
     1
 45
0.0
  0
VISUALSTYLE
  5
39
102
{ACAD_REACTORS
330
2A
102
}
102
{ACAD_XDICTIONARY
360
9E
102
}
330
2A
100
AcDbVisualStyle
  2
Facepattern
 70
    15
 71
     2
 72
     2
 73
     0
 90
        0
 40
-0.6
 41
-30.0
 62
     5
 63
     7
421
 16777215
 74
     1
 91
        4
 64
     7
 65
   257
 75
     1
175
     1
 42
1.0
 92
        8
 66
     7
 43
1.0
 76
     1
 77
     6
 78
     2
 67
     7
 79
     5
170
     0
171
     0
290
     0
174
     0
 93
        1
 44
0.0
173
     0
291
     1
 45
0.0
  0
VISUALSTYLE
  5
2B
102
{ACAD_REACTORS
330
2A
102
}
102
{ACAD_XDICTIONARY
360
82
102
}
330
2A
100
AcDbVisualStyle
  2
Flat
 70
     0
 71
     2
 72
     1
 73
     1
 90
        2
 40
-0.6
 41
30.0
 62
     5
 63
     7
421
 16777215
 74
     0
 91
        4
 64
     7
 65
   257
 75
     1
175
     1
 42
1.0
 92
        8
 66
     7
 43
1.0
 76
     1
 77
     6
 78
     2
 67
     7
 79
     5
170
     0
171
     0
290
     0
174
     0
 93
       13
 44
0.0
173
     0
291
     1
 45
0.0
  0
VISUALSTYLE
  5
2C
102
{ACAD_REACTORS
330
2A
102
}
102
{ACAD_XDICTIONARY
360
84
102
}
330
2A
100
AcDbVisualStyle
  2
FlatWithEdges
 70
     1
 71
     2
 72
     1
 73
     1
 90
        2
 40
-0.6
 41
30.0
 62
     5
 63
     7
421
 16777215
 74
     1
 91
        4
 64
     7
 65
   257
 75
     1
175
     1
 42
1.0
 92
        0
 66
   257
 43
1.0
 76
     1
 77
     6
 78
     2
 67
     7
 79
     5
170
     0
171
     0
290
     0
174
     0
 93
       13
 44
0.0
173
     0
291
     1
 45
0.0
  0
VISUALSTYLE
  5
2D
102
{ACAD_REACTORS
330
2A
102
}
102
{ACAD_XDICTIONARY
360
86
102
}
330
2A
100
AcDbVisualStyle
  2
Gouraud
 70
     2
 71
     2
 72
     2
 73
     1
 90
        2
 40
-0.6
 41
30.0
 62
     5
 63
     7
421
 16777215
 74
     0
 91
        4
 64
     7
 65
   257
 75
     1
175
     1
 42
1.0
 92
        0
 66
     7
 43
1.0
 76
     1
 77
     6
 78
     2
 67
     7
 79
     5
170
     0
171
     0
290
     0
174
     0
 93
       13
 44
0.0
173
     0
291
     1
 45
0.0
  0
VISUALSTYLE
  5
2E
102
{ACAD_REACTORS
330
2A
102
}
102
{ACAD_XDICTIONARY
360
88
102
}
330
2A
100
AcDbVisualStyle
  2
GouraudWithEdges
 70
     3
 71
     2
 72
     2
 73
     1
 90
        2
 40
-0.6
 41
30.0
 62
     5
 63
     7
421
 16777215
 74
     1
 91
        4
 64
     7
 65
   257
 75
     1
175
     1
 42
1.0
 92
        0
 66
   257
 43
1.0
 76
     1
 77
     6
 78
     2
 67
     7
 79
     5
170
     0
171
     0
290
     0
174
     0
 93
       13
 44
0.0
173
     0
291
     1
 45
0.0
  0
VISUALSTYLE
  5
38
102
{ACAD_REACTORS
330
2A
102
}
102
{ACAD_XDICTIONARY
360
9C
102
}
330
2A
100
AcDbVisualStyle
  2
Linepattern
 70
    14
 71
     2
 72
     2
 73
     0
 90
        0
 40
-0.6
 41
-30.0
 62
     5
 63
     7
421
 16777215
 74
     1
 91
        4
 64
     7
 65
   257
 75
     7
175
     7
 42
1.0
 92
        8
 66
     7
 43
1.0
 76
     1
 77
     6
 78
     2
 67
     7
 79
     5
170
     0
171
     0
290
     0
174
     0
 93
        1
 44
0.0
173
     0
291
     1
 45
0.0
  0
VISUALSTYLE
  5
33
102
{ACAD_REACTORS
330
2A
102
}
102
{ACAD_XDICTIONARY
360
92
102
}
330
2A
100
AcDbVisualStyle
  2
Realistic
 70
     8
 71
     2
 72
     2
 73
     0
 90
        0
 40
-0.6
 41
-30.0
 62
     5
 63
     7
421
 16777215
 74
     1
 91
        0
 64
     7
 65
   257
 75
     1
175
     1
 42
1.0
 92
        8
 66
     8
424
  7895160
 43
1.0
 76
     1
 77
     6
 78
     2
 67
     7
 79
     5
170
     0
171
     0
290
     0
174
     0
 93
       13
 44
0.0
173
     0
291
     0
 45
0.0
  0
VISUALSTYLE
  5
37
102
{ACAD_REACTORS
330
2A
102
}
102
{ACAD_XDICTIONARY
360
9A
102
}
330
2A
100
AcDbVisualStyle
  2
Thicken
 70
    13
 71
     2
 72
     2
 73
     0
 90
        0
 40
-0.6
 41
-30.0
 62
     5
 63
     7
421
 16777215
 74
     1
 91
        4
 64
     7
 65
   257
 75
     1
175
     1
 42
1.0
 92
       12
 66
     7
 43
1.0
 76
     1
 77
     6
 78
     2
 67
     7
 79
     5
170
     0
171
     0
290
     0
174
     0
 93
        1
 44
0.0
173
     0
291
     1
 45
0.0
  0
DICTIONARY
  5
8A
330
2F
100
AcDbDictionary
280
     1
281
     1
  3
ACAD_XREC_ROUNDTRIP
360
8B
  0
DICTIONARY
  5
8E
330
31
100
AcDbDictionary
280
     1
281
     1
  3
ACAD_XREC_ROUNDTRIP
360
8F
  0
DICTIONARY
  5
8C
330
30
100
AcDbDictionary
280
     1
281
     1
  3
ACAD_XREC_ROUNDTRIP
360
8D
  0
DICTIONARY
  5
90
330
32
100
AcDbDictionary
280
     1
281
     1
  3
ACAD_XREC_ROUNDTRIP
360
91
  0
DICTIONARY
  5
98
330
36
100
AcDbDictionary
280
     1
281
     1
  3
ACAD_XREC_ROUNDTRIP
360
99
  0
DICTIONARY
  5
A0
330
3A
100
AcDbDictionary
280
     1
281
     1
  3
ACAD_XREC_ROUNDTRIP
360
A1
  0
DICTIONARY
  5
94
330
34
100
AcDbDictionary
280
     1
281
     1
  3
ACAD_XREC_ROUNDTRIP
360
95
  0
DICTIONARY
  5
96
330
35
100
AcDbDictionary
280
     1
281
     1
  3
ACAD_XREC_ROUNDTRIP
360
97
  0
DICTIONARY
  5
9E
330
39
100
AcDbDictionary
280
     1
281
     1
  3
ACAD_XREC_ROUNDTRIP
360
9F
  0
DICTIONARY
  5
82
330
2B
100
AcDbDictionary
280
     1
281
     1
  3
ACAD_XREC_ROUNDTRIP
360
83
  0
DICTIONARY
  5
84
330
2C
100
AcDbDictionary
280
     1
281
     1
  3
ACAD_XREC_ROUNDTRIP
360
85
  0
DICTIONARY
  5
86
330
2D
100
AcDbDictionary
280
     1
281
     1
  3
ACAD_XREC_ROUNDTRIP
360
87
  0
DICTIONARY
  5
88
330
2E
100
AcDbDictionary
280
     1
281
     1
  3
ACAD_XREC_ROUNDTRIP
360
89
  0
DICTIONARY
  5
9C
330
38
100
AcDbDictionary
280
     1
281
     1
  3
ACAD_XREC_ROUNDTRIP
360
9D
  0
DICTIONARY
  5
92
330
33
100
AcDbDictionary
280
     1
281
     1
  3
ACAD_XREC_ROUNDTRIP
360
93
  0
DICTIONARY
  5
9A
330
37
100
AcDbDictionary
280
     1
281
     1
  3
ACAD_XREC_ROUNDTRIP
360
9B
  0
XRECORD
  5
8B
102
{ACAD_REACTORS
330
8A
102
}
330
8A
100
AcDbXrecord
280
     1
102
RTVSPropertyOp0
 70
     1
102
RTVSPropertyOp1
 70
     1
102
RTVSPropertyOp2
 70
     1
102
RTVSPropertyOp3
 70
     1
102
RTVSPropertyOp4
 70
     1
102
RTVSPropertyOp5
 70
     1
102
RTVSPropertyOp6
 70
     1
102
RTVSPropertyOp7
 70
     1
102
RTVSPropertyOp8
 70
     1
102
RTVSPropertyOp9
 70
     1
102
RTVSPropertyOp10
 70
     1
102
RTVSPropertyOp11
 70
     1
102
RTVSPropertyOp12
 70
     1
102
RTVSPropertyOp13
 70
     1
102
RTVSPropertyOp14
 70
     1
102
RTVSPropertyOp15
 70
     1
102
RTVSPropertyOp16
 70
     1
102
RTVSPropertyOp17
 70
     1
102
RTVSPropertyOp18
 70
     1
102
RTVSPropertyOp19
 70
     1
102
RTVSPropertyOp20
 70
     1
102
RTVSPropertyOp21
 70
     1
102
RTVSPropertyOp22
 70
     1
102
RTVSPropertyOp23
 70
     1
102
RTVSPropertyOp24
 70
     1
102
RTVSPropertyOp25
 70
     1
102
RTVSPropertyOp26
 70
     1
102
RTVSPropertyOp27
 70
     1
102
RTVSPropertyOp28
 70
     1
102
RTVSPropertyOp29
 70
     1
102
RTVSPropertyOp30
 70
     1
102
RTVSPropertyOp31
 70
     1
102
RTVSPropertyOp32
 70
     1
  0
XRECORD
  5
8F
102
{ACAD_REACTORS
330
8E
102
}
330
8E
100
AcDbXrecord
280
     1
102
RTVSPropertyOp0
 70
     1
102
RTVSPropertyOp1
 70
     1
102
RTVSPropertyOp2
 70
     1
102
RTVSPropertyOp3
 70
     1
102
RTVSPropertyOp4
 70
     1
102
RTVSPropertyOp5
 70
     1
102
RTVSPropertyOp6
 70
     1
102
RTVSPropertyOp7
 70
     1
102
RTVSPropertyOp8
 70
     1
102
RTVSPropertyOp9
 70
     1
102
RTVSPropertyOp10
 70
     1
102
RTVSPropertyOp11
 70
     1
102
RTVSPropertyOp12
 70
     1
102
RTVSPropertyOp13
 70
     1
102
RTVSPropertyOp14
 70
     1
102
RTVSPropertyOp15
 70
     1
102
RTVSPropertyOp16
 70
     1
102
RTVSPropertyOp17
 70
     1
102
RTVSPropertyOp18
 70
     1
102
RTVSPropertyOp19
 70
     1
102
RTVSPropertyOp20
 70
     1
102
RTVSPropertyOp21
 70
     1
102
RTVSPropertyOp22
 70
     1
102
RTVSPropertyOp23
 70
     1
102
RTVSPropertyOp24
 70
     1
102
RTVSPropertyOp25
 70
     1
102
RTVSPropertyOp26
 70
     1
102
RTVSPropertyOp27
 70
     1
102
RTVSPropertyOp28
 70
     1
102
RTVSPropertyOp29
 70
     1
102
RTVSPropertyOp30
 70
     1
102
RTVSPropertyOp31
 70
     1
102
RTVSPropertyOp32
 70
     1
  0
XRECORD
  5
8D
102
{ACAD_REACTORS
330
8C
102
}
330
8C
100
AcDbXrecord
280
     1
102
RTVSPropertyOp0
 70
     1
102
RTVSPropertyOp1
 70
     1
102
RTVSPropertyOp2
 70
     1
102
RTVSPropertyOp3
 70
     1
102
RTVSPropertyOp4
 70
     1
102
RTVSPropertyOp5
 70
     1
102
RTVSPropertyOp6
 70
     1
102
RTVSPropertyOp7
 70
     1
102
RTVSPropertyOp8
 70
     1
102
RTVSPropertyOp9
 70
     1
102
RTVSPropertyOp10
 70
     1
102
RTVSPropertyOp11
 70
     1
102
RTVSPropertyOp12
 70
     1
102
RTVSPropertyOp13
 70
     1
102
RTVSPropertyOp14
 70
     1
102
RTVSPropertyOp15
 70
     1
102
RTVSPropertyOp16
 70
     1
102
RTVSPropertyOp17
 70
     1
102
RTVSPropertyOp18
 70
     1
102
RTVSPropertyOp19
 70
     1
102
RTVSPropertyOp20
 70
     1
102
RTVSPropertyOp21
 70
     1
102
RTVSPropertyOp22
 70
     1
102
RTVSPropertyOp23
 70
     1
102
RTVSPropertyOp24
 70
     1
102
RTVSPropertyOp25
 70
     1
102
RTVSPropertyOp26
 70
     1
102
RTVSPropertyOp27
 70
     1
102
RTVSPropertyOp28
 70
     1
102
RTVSPropertyOp29
 70
     1
102
RTVSPropertyOp30
 70
     1
102
RTVSPropertyOp31
 70
     1
102
RTVSPropertyOp32
 70
     1
  0
XRECORD
  5
91
102
{ACAD_REACTORS
330
90
102
}
330
90
100
AcDbXrecord
280
     1
102
RTVSPropertyOp0
 70
     1
102
RTVSPropertyOp1
 70
     1
102
RTVSPropertyOp2
 70
     1
102
RTVSPropertyOp3
 70
     1
102
RTVSPropertyOp4
 70
     1
102
RTVSPropertyOp5
 70
     1
102
RTVSPropertyOp6
 70
     1
102
RTVSPropertyOp7
 70
     1
102
RTVSPropertyOp8
 70
     1
102
RTVSPropertyOp9
 70
     1
102
RTVSPropertyOp10
 70
     1
102
RTVSPropertyOp11
 70
     1
102
RTVSPropertyOp12
 70
     1
102
RTVSPropertyOp13
 70
     1
102
RTVSPropertyOp14
 70
     1
102
RTVSPropertyOp15
 70
     1
102
RTVSPropertyOp16
 70
     1
102
RTVSPropertyOp17
 70
     1
102
RTVSPropertyOp18
 70
     1
102
RTVSPropertyOp19
 70
     1
102
RTVSPropertyOp20
 70
     1
102
RTVSPropertyOp21
 70
     1
102
RTVSPropertyOp22
 70
     1
102
RTVSPropertyOp23
 70
     1
102
RTVSPropertyOp24
 70
     1
102
RTVSPropertyOp25
 70
     1
102
RTVSPropertyOp26
 70
     1
102
RTVSPropertyOp27
 70
     1
102
RTVSPropertyOp28
 70
     1
102
RTVSPropertyOp29
 70
     1
102
RTVSPropertyOp30
 70
     1
102
RTVSPropertyOp31
 70
     1
102
RTVSPropertyOp32
 70
     1
  0
XRECORD
  5
99
102
{ACAD_REACTORS
330
98
102
}
330
98
100
AcDbXrecord
280
     1
102
RTVSPropertyOp0
 70
     1
102
RTVSPropertyOp1
 70
     1
102
RTVSPropertyOp2
 70
     1
102
RTVSPropertyOp3
 70
     1
102
RTVSPropertyOp4
 70
     1
102
RTVSPropertyOp5
 70
     1
102
RTVSPropertyOp6
 70
     1
102
RTVSPropertyOp7
 70
     1
102
RTVSPropertyOp8
 70
     1
102
RTVSPropertyOp9
 70
     1
102
RTVSPropertyOp10
 70
     1
102
RTVSPropertyOp11
 70
     1
102
RTVSPropertyOp12
 70
     1
102
RTVSPropertyOp13
 70
     1
102
RTVSPropertyOp14
 70
     1
102
RTVSPropertyOp15
 70
     1
102
RTVSPropertyOp16
 70
     1
102
RTVSPropertyOp17
 70
     1
102
RTVSPropertyOp18
 70
     1
102
RTVSPropertyOp19
 70
     1
102
RTVSPropertyOp20
 70
     1
102
RTVSPropertyOp21
 70
     1
102
RTVSPropertyOp22
 70
     1
102
RTVSPropertyOp23
 70
     1
102
RTVSPropertyOp24
 70
     1
102
RTVSPropertyOp25
 70
     1
102
RTVSPropertyOp26
 70
     1
102
RTVSPropertyOp27
 70
     1
102
RTVSPropertyOp28
 70
     1
102
RTVSPropertyOp29
 70
     1
102
RTVSPropertyOp30
 70
     1
102
RTVSPropertyOp31
 70
     1
102
RTVSPropertyOp32
 70
     1
  0
XRECORD
  5
A1
102
{ACAD_REACTORS
330
A0
102
}
330
A0
100
AcDbXrecord
280
     1
102
RTVSPropertyOp0
 70
     1
102
RTVSPropertyOp1
 70
     1
102
RTVSPropertyOp2
 70
     1
102
RTVSPropertyOp3
 70
     1
102
RTVSPropertyOp4
 70
     1
102
RTVSPropertyOp5
 70
     1
102
RTVSPropertyOp6
 70
     1
102
RTVSPropertyOp7
 70
     1
102
RTVSPropertyOp8
 70
     1
102
RTVSPropertyOp9
 70
     1
102
RTVSPropertyOp10
 70
     1
102
RTVSPropertyOp11
 70
     1
102
RTVSPropertyOp12
 70
     1
102
RTVSPropertyOp13
 70
     1
102
RTVSPropertyOp14
 70
     1
102
RTVSPropertyOp15
 70
     1
102
RTVSPropertyOp16
 70
     1
102
RTVSPropertyOp17
 70
     1
102
RTVSPropertyOp18
 70
     1
102
RTVSPropertyOp19
 70
     1
102
RTVSPropertyOp20
 70
     1
102
RTVSPropertyOp21
 70
     1
102
RTVSPropertyOp22
 70
     1
102
RTVSPropertyOp23
 70
     1
102
RTVSPropertyOp24
 70
     1
102
RTVSPropertyOp25
 70
     1
102
RTVSPropertyOp26
 70
     1
102
RTVSPropertyOp27
 70
     1
102
RTVSPropertyOp28
 70
     1
102
RTVSPropertyOp29
 70
     1
102
RTVSPropertyOp30
 70
     1
102
RTVSPropertyOp31
 70
     1
102
RTVSPropertyOp32
 70
     1
  0
XRECORD
  5
95
102
{ACAD_REACTORS
330
94
102
}
330
94
100
AcDbXrecord
280
     1
102
RTVSPropertyOp0
 70
     1
102
RTVSPropertyOp1
 70
     1
102
RTVSPropertyOp2
 70
     1
102
RTVSPropertyOp3
 70
     1
102
RTVSPropertyOp4
 70
     1
102
RTVSPropertyOp5
 70
     1
102
RTVSPropertyOp6
 70
     1
102
RTVSPropertyOp7
 70
     1
102
RTVSPropertyOp8
 70
     1
102
RTVSPropertyOp9
 70
     1
102
RTVSPropertyOp10
 70
     1
102
RTVSPropertyOp11
 70
     1
102
RTVSPropertyOp12
 70
     1
102
RTVSPropertyOp13
 70
     1
102
RTVSPropertyOp14
 70
     1
102
RTVSPropertyOp15
 70
     1
102
RTVSPropertyOp16
 70
     1
102
RTVSPropertyOp17
 70
     1
102
RTVSPropertyOp18
 70
     1
102
RTVSPropertyOp19
 70
     1
102
RTVSPropertyOp20
 70
     1
102
RTVSPropertyOp21
 70
     1
102
RTVSPropertyOp22
 70
     1
102
RTVSPropertyOp23
 70
     1
102
RTVSPropertyOp24
 70
     1
102
RTVSPropertyOp25
 70
     1
102
RTVSPropertyOp26
 70
     1
102
RTVSPropertyOp27
 70
     1
102
RTVSPropertyOp28
 70
     1
102
RTVSPropertyOp29
 70
     1
102
RTVSPropertyOp30
 70
     1
102
RTVSPropertyOp31
 70
     1
102
RTVSPropertyOp32
 70
     1
  0
XRECORD
  5
97
102
{ACAD_REACTORS
330
96
102
}
330
96
100
AcDbXrecord
280
     1
102
RTVSPropertyOp0
 70
     1
102
RTVSPropertyOp1
 70
     1
102
RTVSPropertyOp2
 70
     1
102
RTVSPropertyOp3
 70
     1
102
RTVSPropertyOp4
 70
     1
102
RTVSPropertyOp5
 70
     1
102
RTVSPropertyOp6
 70
     1
102
RTVSPropertyOp7
 70
     1
102
RTVSPropertyOp8
 70
     1
102
RTVSPropertyOp9
 70
     1
102
RTVSPropertyOp10
 70
     1
102
RTVSPropertyOp11
 70
     1
102
RTVSPropertyOp12
 70
     1
102
RTVSPropertyOp13
 70
     1
102
RTVSPropertyOp14
 70
     1
102
RTVSPropertyOp15
 70
     1
102
RTVSPropertyOp16
 70
     1
102
RTVSPropertyOp17
 70
     1
102
RTVSPropertyOp18
 70
     1
102
RTVSPropertyOp19
 70
     1
102
RTVSPropertyOp20
 70
     1
102
RTVSPropertyOp21
 70
     1
102
RTVSPropertyOp22
 70
     1
102
RTVSPropertyOp23
 70
     1
102
RTVSPropertyOp24
 70
     1
102
RTVSPropertyOp25
 70
     1
102
RTVSPropertyOp26
 70
     1
102
RTVSPropertyOp27
 70
     1
102
RTVSPropertyOp28
 70
     1
102
RTVSPropertyOp29
 70
     1
102
RTVSPropertyOp30
 70
     1
102
RTVSPropertyOp31
 70
     1
102
RTVSPropertyOp32
 70
     1
  0
XRECORD
  5
9F
102
{ACAD_REACTORS
330
9E
102
}
330
9E
100
AcDbXrecord
280
     1
102
RTVSPropertyOp0
 70
     1
102
RTVSPropertyOp1
 70
     1
102
RTVSPropertyOp2
 70
     1
102
RTVSPropertyOp3
 70
     1
102
RTVSPropertyOp4
 70
     1
102
RTVSPropertyOp5
 70
     1
102
RTVSPropertyOp6
 70
     1
102
RTVSPropertyOp7
 70
     1
102
RTVSPropertyOp8
 70
     1
102
RTVSPropertyOp9
 70
     1
102
RTVSPropertyOp10
 70
     1
102
RTVSPropertyOp11
 70
     1
102
RTVSPropertyOp12
 70
     1
102
RTVSPropertyOp13
 70
     1
102
RTVSPropertyOp14
 70
     1
102
RTVSPropertyOp15
 70
     1
102
RTVSPropertyOp16
 70
     1
102
RTVSPropertyOp17
 70
     1
102
RTVSPropertyOp18
 70
     1
102
RTVSPropertyOp19
 70
     1
102
RTVSPropertyOp20
 70
     1
102
RTVSPropertyOp21
 70
     1
102
RTVSPropertyOp22
 70
     1
102
RTVSPropertyOp23
 70
     1
102
RTVSPropertyOp24
 70
     1
102
RTVSPropertyOp25
 70
     1
102
RTVSPropertyOp26
 70
     1
102
RTVSPropertyOp27
 70
     1
102
RTVSPropertyOp28
 70
     1
102
RTVSPropertyOp29
 70
     1
102
RTVSPropertyOp30
 70
     1
102
RTVSPropertyOp31
 70
     1
102
RTVSPropertyOp32
 70
     1
  0
XRECORD
  5
83
102
{ACAD_REACTORS
330
82
102
}
330
82
100
AcDbXrecord
280
     1
102
RTVSPropertyOp0
 70
     1
102
RTVSPropertyOp1
 70
     1
102
RTVSPropertyOp2
 70
     1
102
RTVSPropertyOp3
 70
     1
102
RTVSPropertyOp4
 70
     1
102
RTVSPropertyOp5
 70
     1
102
RTVSPropertyOp6
 70
     1
102
RTVSPropertyOp7
 70
     1
102
RTVSPropertyOp8
 70
     1
102
RTVSPropertyOp9
 70
     1
102
RTVSPropertyOp10
 70
     1
102
RTVSPropertyOp11
 70
     1
102
RTVSPropertyOp12
 70
     1
102
RTVSPropertyOp13
 70
     1
102
RTVSPropertyOp14
 70
     1
102
RTVSPropertyOp15
 70
     1
102
RTVSPropertyOp16
 70
     1
102
RTVSPropertyOp17
 70
     1
102
RTVSPropertyOp18
 70
     1
102
RTVSPropertyOp19
 70
     1
102
RTVSPropertyOp20
 70
     1
102
RTVSPropertyOp21
 70
     1
102
RTVSPropertyOp22
 70
     1
102
RTVSPropertyOp23
 70
     1
102
RTVSPropertyOp24
 70
     1
102
RTVSPropertyOp25
 70
     1
102
RTVSPropertyOp26
 70
     1
102
RTVSPropertyOp27
 70
     1
102
RTVSPropertyOp28
 70
     1
102
RTVSPropertyOp29
 70
     1
102
RTVSPropertyOp30
 70
     1
102
RTVSPropertyOp31
 70
     1
102
RTVSPropertyOp32
 70
     1
  0
XRECORD
  5
85
102
{ACAD_REACTORS
330
84
102
}
330
84
100
AcDbXrecord
280
     1
102
RTVSPropertyOp0
 70
     1
102
RTVSPropertyOp1
 70
     1
102
RTVSPropertyOp2
 70
     1
102
RTVSPropertyOp3
 70
     1
102
RTVSPropertyOp4
 70
     1
102
RTVSPropertyOp5
 70
     1
102
RTVSPropertyOp6
 70
     1
102
RTVSPropertyOp7
 70
     1
102
RTVSPropertyOp8
 70
     1
102
RTVSPropertyOp9
 70
     1
102
RTVSPropertyOp10
 70
     1
102
RTVSPropertyOp11
 70
     1
102
RTVSPropertyOp12
 70
     1
102
RTVSPropertyOp13
 70
     1
102
RTVSPropertyOp14
 70
     1
102
RTVSPropertyOp15
 70
     1
102
RTVSPropertyOp16
 70
     1
102
RTVSPropertyOp17
 70
     1
102
RTVSPropertyOp18
 70
     1
102
RTVSPropertyOp19
 70
     1
102
RTVSPropertyOp20
 70
     1
102
RTVSPropertyOp21
 70
     1
102
RTVSPropertyOp22
 70
     1
102
RTVSPropertyOp23
 70
     1
102
RTVSPropertyOp24
 70
     1
102
RTVSPropertyOp25
 70
     1
102
RTVSPropertyOp26
 70
     1
102
RTVSPropertyOp27
 70
     1
102
RTVSPropertyOp28
 70
     1
102
RTVSPropertyOp29
 70
     1
102
RTVSPropertyOp30
 70
     1
102
RTVSPropertyOp31
 70
     1
102
RTVSPropertyOp32
 70
     1
  0
XRECORD
  5
87
102
{ACAD_REACTORS
330
86
102
}
330
86
100
AcDbXrecord
280
     1
102
RTVSPropertyOp0
 70
     1
102
RTVSPropertyOp1
 70
     1
102
RTVSPropertyOp2
 70
     1
102
RTVSPropertyOp3
 70
     1
102
RTVSPropertyOp4
 70
     1
102
RTVSPropertyOp5
 70
     1
102
RTVSPropertyOp6
 70
     1
102
RTVSPropertyOp7
 70
     1
102
RTVSPropertyOp8
 70
     1
102
RTVSPropertyOp9
 70
     1
102
RTVSPropertyOp10
 70
     1
102
RTVSPropertyOp11
 70
     1
102
RTVSPropertyOp12
 70
     1
102
RTVSPropertyOp13
 70
     1
102
RTVSPropertyOp14
 70
     1
102
RTVSPropertyOp15
 70
     1
102
RTVSPropertyOp16
 70
     1
102
RTVSPropertyOp17
 70
     1
102
RTVSPropertyOp18
 70
     1
102
RTVSPropertyOp19
 70
     1
102
RTVSPropertyOp20
 70
     1
102
RTVSPropertyOp21
 70
     1
102
RTVSPropertyOp22
 70
     1
102
RTVSPropertyOp23
 70
     1
102
RTVSPropertyOp24
 70
     1
102
RTVSPropertyOp25
 70
     1
102
RTVSPropertyOp26
 70
     1
102
RTVSPropertyOp27
 70
     1
102
RTVSPropertyOp28
 70
     1
102
RTVSPropertyOp29
 70
     1
102
RTVSPropertyOp30
 70
     1
102
RTVSPropertyOp31
 70
     1
102
RTVSPropertyOp32
 70
     1
  0
XRECORD
  5
89
102
{ACAD_REACTORS
330
88
102
}
330
88
100
AcDbXrecord
280
     1
102
RTVSPropertyOp0
 70
     1
102
RTVSPropertyOp1
 70
     1
102
RTVSPropertyOp2
 70
     1
102
RTVSPropertyOp3
 70
     1
102
RTVSPropertyOp4
 70
     1
102
RTVSPropertyOp5
 70
     1
102
RTVSPropertyOp6
 70
     1
102
RTVSPropertyOp7
 70
     1
102
RTVSPropertyOp8
 70
     1
102
RTVSPropertyOp9
 70
     1
102
RTVSPropertyOp10
 70
     1
102
RTVSPropertyOp11
 70
     1
102
RTVSPropertyOp12
 70
     1
102
RTVSPropertyOp13
 70
     1
102
RTVSPropertyOp14
 70
     1
102
RTVSPropertyOp15
 70
     1
102
RTVSPropertyOp16
 70
     1
102
RTVSPropertyOp17
 70
     1
102
RTVSPropertyOp18
 70
     1
102
RTVSPropertyOp19
 70
     1
102
RTVSPropertyOp20
 70
     1
102
RTVSPropertyOp21
 70
     1
102
RTVSPropertyOp22
 70
     1
102
RTVSPropertyOp23
 70
     1
102
RTVSPropertyOp24
 70
     1
102
RTVSPropertyOp25
 70
     1
102
RTVSPropertyOp26
 70
     1
102
RTVSPropertyOp27
 70
     1
102
RTVSPropertyOp28
 70
     1
102
RTVSPropertyOp29
 70
     1
102
RTVSPropertyOp30
 70
     1
102
RTVSPropertyOp31
 70
     1
102
RTVSPropertyOp32
 70
     1
  0
XRECORD
  5
9D
102
{ACAD_REACTORS
330
9C
102
}
330
9C
100
AcDbXrecord
280
     1
102
RTVSPropertyOp0
 70
     1
102
RTVSPropertyOp1
 70
     1
102
RTVSPropertyOp2
 70
     1
102
RTVSPropertyOp3
 70
     1
102
RTVSPropertyOp4
 70
     1
102
RTVSPropertyOp5
 70
     1
102
RTVSPropertyOp6
 70
     1
102
RTVSPropertyOp7
 70
     1
102
RTVSPropertyOp8
 70
     1
102
RTVSPropertyOp9
 70
     1
102
RTVSPropertyOp10
 70
     1
102
RTVSPropertyOp11
 70
     1
102
RTVSPropertyOp12
 70
     1
102
RTVSPropertyOp13
 70
     1
102
RTVSPropertyOp14
 70
     1
102
RTVSPropertyOp15
 70
     1
102
RTVSPropertyOp16
 70
     1
102
RTVSPropertyOp17
 70
     1
102
RTVSPropertyOp18
 70
     1
102
RTVSPropertyOp19
 70
     1
102
RTVSPropertyOp20
 70
     1
102
RTVSPropertyOp21
 70
     1
102
RTVSPropertyOp22
 70
     1
102
RTVSPropertyOp23
 70
     1
102
RTVSPropertyOp24
 70
     1
102
RTVSPropertyOp25
 70
     1
102
RTVSPropertyOp26
 70
     1
102
RTVSPropertyOp27
 70
     1
102
RTVSPropertyOp28
 70
     1
102
RTVSPropertyOp29
 70
     1
102
RTVSPropertyOp30
 70
     1
102
RTVSPropertyOp31
 70
     1
102
RTVSPropertyOp32
 70
     1
  0
XRECORD
  5
93
102
{ACAD_REACTORS
330
92
102
}
330
92
100
AcDbXrecord
280
     1
102
RTVSPropertyOp0
 70
     1
102
RTVSPropertyOp1
 70
     1
102
RTVSPropertyOp2
 70
     1
102
RTVSPropertyOp3
 70
     1
102
RTVSPropertyOp4
 70
     1
102
RTVSPropertyOp5
 70
     1
102
RTVSPropertyOp6
 70
     1
102
RTVSPropertyOp7
 70
     1
102
RTVSPropertyOp8
 70
     1
102
RTVSPropertyOp9
 70
     1
102
RTVSPropertyOp10
 70
     1
102
RTVSPropertyOp11
 70
     1
102
RTVSPropertyOp12
 70
     1
102
RTVSPropertyOp13
 70
     1
102
RTVSPropertyOp14
 70
     1
102
RTVSPropertyOp15
 70
     1
102
RTVSPropertyOp16
 70
     1
102
RTVSPropertyOp17
 70
     1
102
RTVSPropertyOp18
 70
     1
102
RTVSPropertyOp19
 70
     1
102
RTVSPropertyOp20
 70
     1
102
RTVSPropertyOp21
 70
     1
102
RTVSPropertyOp22
 70
     1
102
RTVSPropertyOp23
 70
     1
102
RTVSPropertyOp24
 70
     1
102
RTVSPropertyOp25
 70
     1
102
RTVSPropertyOp26
 70
     1
102
RTVSPropertyOp27
 70
     1
102
RTVSPropertyOp28
 70
     1
102
RTVSPropertyOp29
 70
     1
102
RTVSPropertyOp30
 70
     1
102
RTVSPropertyOp31
 70
     1
102
RTVSPropertyOp32
 70
     1
  0
XRECORD
  5
9B
102
{ACAD_REACTORS
330
9A
102
}
330
9A
100
AcDbXrecord
280
     1
102
RTVSPropertyOp0
 70
     1
102
RTVSPropertyOp1
 70
     1
102
RTVSPropertyOp2
 70
     1
102
RTVSPropertyOp3
 70
     1
102
RTVSPropertyOp4
 70
     1
102
RTVSPropertyOp5
 70
     1
102
RTVSPropertyOp6
 70
     1
102
RTVSPropertyOp7
 70
     1
102
RTVSPropertyOp8
 70
     1
102
RTVSPropertyOp9
 70
     1
102
RTVSPropertyOp10
 70
     1
102
RTVSPropertyOp11
 70
     1
102
RTVSPropertyOp12
 70
     1
102
RTVSPropertyOp13
 70
     1
102
RTVSPropertyOp14
 70
     1
102
RTVSPropertyOp15
 70
     1
102
RTVSPropertyOp16
 70
     1
102
RTVSPropertyOp17
 70
     1
102
RTVSPropertyOp18
 70
     1
102
RTVSPropertyOp19
 70
     1
102
RTVSPropertyOp20
 70
     1
102
RTVSPropertyOp21
 70
     1
102
RTVSPropertyOp22
 70
     1
102
RTVSPropertyOp23
 70
     1
102
RTVSPropertyOp24
 70
     1
102
RTVSPropertyOp25
 70
     1
102
RTVSPropertyOp26
 70
     1
102
RTVSPropertyOp27
 70
     1
102
RTVSPropertyOp28
 70
     1
102
RTVSPropertyOp29
 70
     1
102
RTVSPropertyOp30
 70
     1
102
RTVSPropertyOp31
 70
     1
102
RTVSPropertyOp32
 70
     1
  0
ENDSEC
  0
EOF
