  0
SECTION
  2
HEADER
  9
$ACADVER
  1
AC1021
  9
$ACADMAINTVER
 70
    25
  9
$DWGCODEPAGE
  3
ANSI_1256
  9
$INSBASE
 10
0.0
 20
0.0
 30
0.0
  9
$EXTMIN
 10
84.4823
 20
-115.1128
 30
0.0
  9
$EXTMAX
 10
196.3129
 20
131.8244
 30
0.0
  9
$LIMMIN
 10
0.0
 20
0.0
  9
$LIMMAX
 10
12.0
 20
9.0
  9
$ORTHOMODE
 70
     0
  9
$REGENMODE
 70
     1
  9
$FILLMODE
 70
     1
  9
$QTEXTMODE
 70
     0
  9
$MIRRTEXT
 70
     1
  9
$LTSCALE
 40
1.0
  9
$ATTMODE
 70
     1
  9
$TEXTSIZE
 40
0.2
  9
$TRACEWID
 40
0.05
  9
$TEXTSTYLE
  7
Standard
  9
$CLAYER
  8
0
  9
$CELTYPE
  6
ByLayer
  9
$CECOLOR
 62
   256
  9
$CELTSCALE
 40
1.0
  9
$DISPSILH
 70
     0
  9
$DIMSCALE
 40
1.0
  9
$DIMASZ
 40
0.18
  9
$DIMEXO
 40
0.0625
  9
$DIMDLI
 40
0.38
  9
$DIMRND
 40
0.0
  9
$DIMDLE
 40
0.0
  9
$DIMEXE
 40
0.18
  9
$DIMTP
 40
0.0
  9
$DIMTM
 40
0.0
  9
$DIMTXT
 40
0.18
  9
$DIMCEN
 40
0.09
  9
$DIMTSZ
 40
0.0
  9
$DIMTOL
 70
     0
  9
$DIMLIM
 70
     0
  9
$DIMTIH
 70
     1
  9
$DIMTOH
 70
     1
  9
$DIMSE1
 70
     0
  9
$DIMSE2
 70
     0
  9
$DIMTAD
 70
     0
  9
$DIMZIN
 70
     0
  9
$DIMBLK
  1

  9
$DIMASO
 70
     1
  9
$DIMSHO
 70
     1
  9
$DIMPOST
  1

  9
$DIMAPOST
  1

  9
$DIMALT
 70
     0
  9
$DIMALTD
 70
     2
  9
$DIMALTF
 40
25.4
  9
$DIMLFAC
 40
1.0
  9
$DIMTOFL
 70
     0
  9
$DIMTVP
 40
0.0
  9
$DIMTIX
 70
     0
  9
$DIMSOXD
 70
     0
  9
$DIMSAH
 70
     0
  9
$DIMBLK1
  1

  9
$DIMBLK2
  1

  9
$DIMSTYLE
  2
Standard
  9
$DIMCLRD
 70
     0
  9
$DIMCLRE
 70
     0
  9
$DIMCLRT
 70
     0
  9
$DIMTFAC
 40
1.0
  9
$DIMGAP
 40
0.09
  9
$DIMJUST
 70
     0
  9
$DIMSD1
 70
     0
  9
$DIMSD2
 70
     0
  9
$DIMTOLJ
 70
     1
  9
$DIMTZIN
 70
     0
  9
$DIMALTZ
 70
     0
  9
$DIMALTTZ
 70
     0
  9
$DIMUPT
 70
     0
  9
$DIMDEC
 70
     4
  9
$DIMTDEC
 70
     4
  9
$DIMALTU
 70
     2
  9
$DIMALTTD
 70
     2
  9
$DIMTXSTY
  7
Standard
  9
$DIMAUNIT
 70
     0
  9
$DIMADEC
 70
     0
  9
$DIMALTRND
 40
0.0
  9
$DIMAZIN
 70
     0
  9
$DIMDSEP
 70
    46
  9
$DIMATFIT
 70
     3
  9
$DIMFRAC
 70
     0
  9
$DIMLDRBLK
  1

  9
$DIMLUNIT
 70
     2
  9
$DIMLWD
 70
    -2
  9
$DIMLWE
 70
    -2
  9
$DIMTMOVE
 70
     0
  9
$DIMFXL
 40
1.0
  9
$DIMFXLON
 70
     0
  9
$DIMJOGANG
 40
0.7853981633974483
  9
$DIMTFILL
 70
     0
  9
$DIMTFILLCLR
 70
     0
  9
$DIMARCSYM
 70
     0
  9
$DIMLTYPE
  6

  9
$DIMLTEX1
  6

  9
$DIMLTEX2
  6

  9
$LUNITS
 70
     2
  9
$LUPREC
 70
     4
  9
$SKETCHINC
 40
0.1
  9
$FILLETRAD
 40
0.5
  9
$AUNITS
 70
     0
  9
$AUPREC
 70
     0
  9
$MENU
  1
.
  9
$ELEVATION
 40
0.0
  9
$PELEVATION
 40
0.0
  9
$THICKNESS
 40
0.0
  9
$LIMCHECK
 70
     0
  9
$CHAMFERA
 40
0.5
  9
$CHAMFERB
 40
0.5
  9
$CHAMFERC
 40
1.0
  9
$CHAMFERD
 40
0.0
  9
$SKPOLY
 70
     0
  9
$TDCREATE
 40
2458492.385130312
  9
$TDUCREATE
 40
2458492.218463646
  9
$TDUPDATE
 40
2458492.385130463
  9
$TDUUPDATE
 40
2458492.218463796
  9
$TDINDWG
 40
0.0000000116
  9
$TDUSRTIMER
 40
0.0000000116
  9
$USRTIMER
 70
     1
  9
$ANGBASE
 50
0.0
  9
$ANGDIR
 70
     0
  9
$PDMODE
 70
     0
  9
$PDSIZE
 40
0.0
  9
$PLINEWID
 40
0.0
  9
$SPLFRAME
 70
     0
  9
$SPLINETYPE
 70
     6
  9
$SPLINESEGS
 70
     8
  9
$HANDSEED
  5
B4
  9
$SURFTAB1
 70
     6
  9
$SURFTAB2
 70
     6
  9
$SURFTYPE
 70
     6
  9
$SURFU
 70
     6
  9
$SURFV
 70
     6
  9
$UCSBASE
  2

  9
$UCSNAME
  2

  9
$UCSORG
 10
0.0
 20
0.0
 30
0.0
  9
$UCSXDIR
 10
1.0
 20
0.0
 30
0.0
  9
$UCSYDIR
 10
0.0
 20
1.0
 30
0.0
  9
$UCSORTHOREF
  2

  9
$UCSORTHOVIEW
 70
     0
  9
$UCSORGTOP
 10
0.0
 20
0.0
 30
0.0
  9
$UCSORGBOTTOM
 10
0.0
 20
0.0
 30
0.0
  9
$UCSORGLEFT
 10
0.0
 20
0.0
 30
0.0
  9
$UCSORGRIGHT
 10
0.0
 20
0.0
 30
0.0
  9
$UCSORGFRONT
 10
0.0
 20
0.0
 30
0.0
  9
$UCSORGBACK
 10
0.0
 20
0.0
 30
0.0
  9
$PUCSBASE
  2

  9
$PUCSNAME
  2

  9
$PUCSORG
 10
0.0
 20
0.0
 30
0.0
  9
$PUCSXDIR
 10
1.0
 20
0.0
 30
0.0
  9
$PUCSYDIR
 10
0.0
 20
1.0
 30
0.0
  9
$PUCSORTHOREF
  2

  9
$PUCSORTHOVIEW
 70
     0
  9
$PUCSORGTOP
 10
0.0
 20
0.0
 30
0.0
  9
$PUCSORGBOTTOM
 10
0.0
 20
0.0
 30
0.0
  9
$PUCSORGLEFT
 10
0.0
 20
0.0
 30
0.0
  9
$PUCSORGRIGHT
 10
0.0
 20
0.0
 30
0.0
  9
$PUCSORGFRONT
 10
0.0
 20
0.0
 30
0.0
  9
$PUCSORGBACK
 10
0.0
 20
0.0
 30
0.0
  9
$USERI1
 70
     0
  9
$USERI2
 70
     0
  9
$USERI3
 70
     0
  9
$USERI4
 70
     0
  9
$USERI5
 70
     0
  9
$USERR1
 40
0.0
  9
$USERR2
 40
0.0
  9
$USERR3
 40
0.0
  9
$USERR4
 40
0.0
  9
$USERR5
 40
0.0
  9
$WORLDVIEW
 70
     1
  9
$SHADEDGE
 70
     3
  9
$SHADEDIF
 70
    70
  9
$TILEMODE
 70
     1
  9
$MAXACTVP
 70
    64
  9
$PINSBASE
 10
0.0
 20
0.0
 30
0.0
  9
$PLIMCHECK
 70
     0
  9
$PEXTMIN
 10
1.000000000000000E+20
 20
1.000000000000000E+20
 30
1.000000000000000E+20
  9
$PEXTMAX
 10
-1.000000000000000E+20
 20
-1.000000000000000E+20
 30
-1.000000000000000E+20
  9
$PLIMMIN
 10
0.0
 20
0.0
  9
$PLIMMAX
 10
12.0
 20
9.0
  9
$UNITMODE
 70
     0
  9
$VISRETAIN
 70
     1
  9
$PLINEGEN
 70
     0
  9
$PSLTSCALE
 70
     1
  9
$TREEDEPTH
 70
  3020
  9
$CMLSTYLE
  2
Standard
  9
$CMLJUST
 70
     0
  9
$CMLSCALE
 40
1.0
  9
$PROXYGRAPHICS
 70
     1
  9
$MEASUREMENT
 70
     0
  9
$CELWEIGHT
370
    -1
  9
$ENDCAPS
280
     0
  9
$JOINSTYLE
280
     0
  9
$LWDISPLAY
290
     0
  9
$INSUNITS
 70
     4
  9
$HYPERLINKBASE
  1

  9
$STYLESHEET
  1

  9
$XEDIT
290
     1
  9
$CEPSNTYPE
380
     0
  9
$PSTYLEMODE
290
     1
  9
$FINGERPRINTGUID
  2
{46BAA1BF-899C-4620-9E23-DDAFF8F312CC}
  9
$VERSIONGUID
  2
{FAEB1C32-E019-11D5-929B-00C0DF256EC4}
  9
$EXTNAMES
290
     1
  9
$PSVPSCALE
 40
0.0
  9
$OLESTARTUP
290
     0
  9
$SORTENTS
280
   127
  9
$INDEXCTL
280
     0
  9
$HIDETEXT
280
     1
  9
$XCLIPFRAME
290
     0
  9
$HALOGAP
280
     0
  9
$OBSCOLOR
 70
   257
  9
$OBSLTYPE
280
     0
  9
$INTERSECTIONDISPLAY
280
     0
  9
$INTERSECTIONCOLOR
 70
   257
  9
$DIMASSOC
280
     2
  9
$PROJECTNAME
  1

  9
$CAMERADISPLAY
290
     0
  9
$LENSLENGTH
 40
50.0
  9
$CAMERAHEIGHT
 40
0.0
  9
$STEPSPERSEC
 40
2.0
  9
$STEPSIZE
 40
6.0
  9
$3DDWFPREC
 40
2.0
  9
$PSOLWIDTH
 40
0.25
  9
$PSOLHEIGHT
 40
4.0
  9
$LOFTANG1
 40
1.570796326794897
  9
$LOFTANG2
 40
1.570796326794897
  9
$LOFTMAG1
 40
0.0
  9
$LOFTMAG2
 40
0.0
  9
$LOFTPARAM
 70
     7
  9
$LOFTNORMALS
280
     1
  9
$LATITUDE
 40
37.795
  9
$LONGITUDE
 40
-122.394
  9
$NORTHDIRECTION
 40
0.0
  9
$TIMEZONE
 70
 -8000
  9
$LIGHTGLYPHDISPLAY
280
     1
  9
$TILEMODELIGHTSYNCH
280
     1
  9
$SOLIDHIST
280
     1
  9
$SHOWHIST
280
     1
  9
$DWFFRAME
280
     2
  9
$DGNFRAME
280
     2
  9
$REALWORLDSCALE
290
     1
  9
$INTERFERECOLOR
 62
   256
  9
$CSHADOW
280
     0
  9
$SHADOWPLANELOCATION
 40
0.0
  0
ENDSEC
  0
SECTION
  2
CLASSES
  0
CLASS
  1
ACDBDICTIONARYWDFLT
  2
AcDbDictionaryWithDefault
  3
ObjectDBX Classes
 90
        0
 91
        4
280
     0
281
     0
  0
CLASS
  1
VISUALSTYLE
  2
AcDbVisualStyle
  3
ObjectDBX Classes
 90
     4095
 91
        4
280
     0
281
     0
  0
CLASS
  1
MATERIAL
  2
AcDbMaterial
  3
ObjectDBX Classes
 90
     1153
 91
        4
280
     0
281
     0
  0
ENDSEC
  0
SECTION
  2
TABLES
  0
TABLE
  2
VPORT
  5
8
330
0
100
AcDbSymbolTable
 70
     1
  0
VPORT
  5
29
330
8
100
AcDbSymbolTableRecord
100
AcDbViewportTableRecord
  2
*Active
 70
     0
 10
0.0
 20
0.0
 11
1.0
 21
1.0
 12
10.42990654205607
 22
4.5
 13
0.0
 23
0.0
 14
0.5
 24
0.5
 15
0.5
 25
0.5
 16
0.0
 26
0.0
 36
1.0
 17
0.0
 27
0.0
 37
0.0
 40
9.0
 41
1.972972972850329
 42
50.0
 43
0.0
 44
0.0
 50
0.0
 51
0.0
 71
     0
 72
   100
 73
     1
 74
     3
 75
     0
 76
     0
 77
     0
 78
     0
281
     0
 65
     1
110
0.0
120
0.0
130
0.0
111
1.0
121
0.0
131
0.0
112
0.0
122
1.0
132
0.0
 79
     0
146
0.0
 60
     3
 61
     5
292
     1
282
     1
141
0.0
142
0.0
 63
   250
  0
ENDTAB
  0
TABLE
  2
LTYPE
  5
5
330
0
100
AcDbSymbolTable
 70
     1
  0
LTYPE
  5
14
330
5
100
AcDbSymbolTableRecord
100
AcDbLinetypeTableRecord
  2
ByBlock
 70
     0
  3

 72
    65
 73
     0
 40
0.0
  0
LTYPE
  5
15
330
5
100
AcDbSymbolTableRecord
100
AcDbLinetypeTableRecord
  2
ByLayer
 70
     0
  3

 72
    65
 73
     0
 40
0.0
  0
LTYPE
  5
16
330
5
100
AcDbSymbolTableRecord
100
AcDbLinetypeTableRecord
  2
Continuous
 70
     0
  3
Solid line
 72
    65
 73
     0
 40
0.0
  0
ENDTAB
  0
TABLE
  2
LAYER
  5
2
330
0
100
AcDbSymbolTable
 70
     2
  0
LAYER
  5
10
330
2
100
AcDbSymbolTableRecord
100
AcDbLayerTableRecord
  2
0
 70
     0
 62
     7
  6
Continuous
370
    -3
390
F
347
3E
  0
LAYER
  5
40
330
2
100
AcDbSymbolTableRecord
100
AcDbLayerTableRecord
  2
layer 1
 70
     0
 62
     7
  6
Continuous
370
    -3
390
F
347
3E
  0
ENDTAB
  0
TABLE
  2
STYLE
  5
3
330
0
100
AcDbSymbolTable
 70
     1
  0
STYLE
  5
11
330
3
100
AcDbSymbolTableRecord
100
AcDbTextStyleTableRecord
  2
Standard
 70
     0
 40
0.0
 41
1.0
 50
0.0
 71
     0
 42
0.2
  3
txt
  4

  0
ENDTAB
  0
TABLE
  2
VIEW
  5
6
330
0
100
AcDbSymbolTable
 70
     0
  0
ENDTAB
  0
TABLE
  2
UCS
  5
7
330
0
100
AcDbSymbolTable
 70
     0
  0
ENDTAB
  0
TABLE
  2
APPID
  5
9
330
0
100
AcDbSymbolTable
 70
     2
  0
APPID
  5
12
330
9
100
AcDbSymbolTableRecord
100
AcDbRegAppTableRecord
  2
ACAD
 70
     0
  0
APPID
  5
3F
330
9
100
AcDbSymbolTableRecord
100
AcDbRegAppTableRecord
  2
ODA
 70
     0
  0
ENDTAB
  0
TABLE
  2
DIMSTYLE
  5
A
330
0
100
AcDbSymbolTable
 70
     1
100
AcDbDimStyleTable
  0
DIMSTYLE
105
27
330
A
100
AcDbSymbolTableRecord
100
AcDbDimStyleTableRecord
  2
Standard
 70
     0
178
     0
340
11
  0
ENDTAB
  0
TABLE
  2
BLOCK_RECORD
  5
1
330
0
100
AcDbSymbolTable
 70
     1
  0
BLOCK_RECORD
  5
1F
330
1
100
AcDbSymbolTableRecord
100
AcDbBlockTableRecord
  2
*Model_Space
340
22
 70
     0
280
     1
281
     0
  0
BLOCK_RECORD
  5
1B
330
1
100
AcDbSymbolTableRecord
100
AcDbBlockTableRecord
  2
*Paper_Space
340
1E
 70
     0
280
     1
281
     0
  0
BLOCK_RECORD
  5
23
330
1
100
AcDbSymbolTableRecord
100
AcDbBlockTableRecord
  2
*Paper_Space0
340
26
 70
     0
280
     1
281
     0
  0
ENDTAB
  0
ENDSEC
  0
SECTION
  2
BLOCKS
  0
BLOCK
  5
20
330
1F
100
AcDbEntity
  8
0
100
AcDbBlockBegin
  2
*Model_Space
 70
     0
 10
0.0
 20
0.0
 30
0.0
  3
*Model_Space
  1

  0
ENDBLK
  5
21
330
1F
100
AcDbEntity
  8
0
100
AcDbBlockEnd
  0
BLOCK
  5
1C
330
1B
100
AcDbEntity
 67
     1
  8
0
100
AcDbBlockBegin
  2
*Paper_Space
 70
     0
 10
0.0
 20
0.0
 30
0.0
  3
*Paper_Space
  1

  0
ENDBLK
  5
1D
330
1B
100
AcDbEntity
 67
     1
  8
0
100
AcDbBlockEnd
  0
BLOCK
  5
24
330
23
100
AcDbEntity
  8
0
100
AcDbBlockBegin
  2
*Paper_Space0
 70
     0
 10
0.0
 20
0.0
 30
0.0
  3
*Paper_Space0
  1

  0
ENDBLK
  5
25
330
23
100
AcDbEntity
  8
0
100
AcDbBlockEnd
  0
ENDSEC
  0
SECTION
  2
ENTITIES
  0
LWPOLYLINE
  5
41
330
1F
100
AcDbEntity
  8
layer 1
 62
   250
370
    20
100
AcDbPolyline
 90
        5
 70
     1
 43
0.0
 10
84.5823
 20
-115.0128
 10
196.2129
 20
-115.0128
 10
196.2129
 20
131.7244
 10
84.5823
 20
131.7244
 10
84.5823
 20
-115.0128
  0
SPLINE
  5
42
330
1F
100
AcDbEntity
  8
layer 1
 62
     7
100
AcDbSpline
210
0.0
220
0.0
230
1.0
 70
    11
 71
     3
 72
    28
 73
    24
 74
     0
 42
0.0000000001
 43
0.0000000001
 12
1.0
 22
0.0
 32
0.0
 13
1.0
 23
0.0
 33
0.0
 40
0.0
 40
0.0
 40
0.0
 40
0.0
 40
0.1428571428571428
 40
0.1428571428571428
 40
0.1428571428571428
 40
0.1428571428571428
 40
0.2857142857142857
 40
0.2857142857142857
 40
0.2857142857142857
 40
0.2857142857142857
 40
0.4285714285714285
 40
0.4285714285714285
 40
0.4285714285714285
 40
0.4285714285714285
 40
0.5714285714285714
 40
0.5714285714285714
 40
0.5714285714285714
 40
0.5714285714285714
 40
0.7142857142857143
 40
0.7142857142857143
 40
0.7142857142857143
 40
0.7142857142857143
 40
1.0
 40
1.0
 40
1.0
 40
1.0
 10
90.9807
 20
82.1197
 30
0.0
 10
90.9807
 20
82.1197
 30
0.0
 10
90.9807
 20
111.1593
 30
0.0
 10
90.9807
 20
111.1593
 30
0.0
 10
90.9807
 20
111.1593
 30
0.0
 10
90.9807
 20
113.7292
 30
0.0
 10
93.3097
 20
112.9033
 30
0.0
 10
94.0327
 20
112.6126
 30
0.0
 10
94.0327
 20
112.6126
 30
0.0
 10
94.0327
 20
112.6126
 30
0.0
 10
118.9218
 20
97.9779
 30
0.0
 10
118.9218
 20
97.9779
 30
0.0
 10
118.9218
 20
97.9779
 30
0.0
 10
120.1076
 20
97.2758
 30
0.0
 10
120.25
 20
95.7408
 30
0.0
 10
118.9199
 20
95.0549
 30
0.0
 10
118.9199
 20
95.0549
 30
0.0
 10
118.9199
 20
95.0549
 30
0.0
 10
94.1946
 20
80.6047
 30
0.0
 10
94.1946
 20
80.6047
 30
0.0
 10
94.1946
 20
80.6047
 30
0.0
 10
92.7228
 20
79.94
 30
0.0
 10
90.9807
 20
79.8478
 30
0.0
 10
90.9807
 20
82.1197
 30
0.0
  0
SPLINE
  5
43
330
1F
100
AcDbEntity
  8
layer 1
 62
     7
100
AcDbSpline
210
0.0
220
0.0
230
1.0
 70
    11
 71
     3
 72
    28
 73
    24
 74
     0
 42
0.0000000001
 43
0.0000000001
 12
1.0
 22
0.0
 32
0.0
 13
1.0
 23
0.0
 33
0.0
 40
0.0
 40
0.0
 40
0.0
 40
0.0
 40
0.1428571428571428
 40
0.1428571428571428
 40
0.1428571428571428
 40
0.1428571428571428
 40
0.2857142857142857
 40
0.2857142857142857
 40
0.2857142857142857
 40
0.2857142857142857
 40
0.4285714285714285
 40
0.4285714285714285
 40
0.4285714285714285
 40
0.4285714285714285
 40
0.5714285714285714
 40
0.5714285714285714
 40
0.5714285714285714
 40
0.5714285714285714
 40
0.7142857142857143
 40
0.7142857142857143
 40
0.7142857142857143
 40
0.7142857142857143
 40
1.0
 40
1.0
 40
1.0
 40
1.0
 10
124.8826
 20
82.1197
 30
0.0
 10
124.8826
 20
82.1197
 30
0.0
 10
124.8826
 20
111.1593
 30
0.0
 10
124.8826
 20
111.1593
 30
0.0
 10
124.8826
 20
111.1593
 30
0.0
 10
124.8826
 20
113.7292
 30
0.0
 10
127.2116
 20
112.9033
 30
0.0
 10
127.9346
 20
112.6126
 30
0.0
 10
127.9346
 20
112.6126
 30
0.0
 10
127.9346
 20
112.6126
 30
0.0
 10
152.8238
 20
97.978
 30
0.0
 10
152.8238
 20
97.978
 30
0.0
 10
152.8238
 20
97.978
 30
0.0
 10
154.0095
 20
97.2759
 30
0.0
 10
154.152
 20
95.7408
 30
0.0
 10
152.8218
 20
95.0549
 30
0.0
 10
152.8218
 20
95.0549
 30
0.0
 10
152.8218
 20
95.0549
 30
0.0
 10
128.0965
 20
80.6047
 30
0.0
 10
128.0965
 20
80.6047
 30
0.0
 10
128.0965
 20
80.6047
 30
0.0
 10
126.6247
 20
79.94
 30
0.0
 10
124.8826
 20
79.8478
 30
0.0
 10
124.8826
 20
82.1197
 30
0.0
  0
SPLINE
  5
44
330
1F
100
AcDbEntity
  8
layer 1
 62
     7
100
AcDbSpline
210
0.0
220
0.0
230
1.0
 70
    11
 71
     3
 72
    32
 73
    28
 74
     0
 42
0.0000000001
 43
0.0000000001
 12
1.0
 22
0.0
 32
0.0
 13
1.0
 23
0.0
 33
0.0
 40
0.0
 40
0.0
 40
0.0
 40
0.0
 40
0.125
 40
0.125
 40
0.125
 40
0.125
 40
0.25
 40
0.25
 40
0.25
 40
0.25
 40
0.375
 40
0.375
 40
0.375
 40
0.375
 40
0.5
 40
0.5
 40
0.5
 40
0.5
 40
0.625
 40
0.625
 40
0.625
 40
0.625
 40
0.75
 40
0.75
 40
0.75
 40
0.75
 40
1.0
 40
1.0
 40
1.0
 40
1.0
 10
158.6953
 20
82.1197
 30
0.0
 10
158.6953
 20
82.1197
 30
0.0
 10
158.6953
 20
111.1593
 30
0.0
 10
158.6953
 20
111.1593
 30
0.0
 10
158.6953
 20
111.1593
 30
0.0
 10
158.6953
 20
113.7292
 30
0.0
 10
161.0243
 20
112.9033
 30
0.0
 10
161.7473
 20
112.6126
 30
0.0
 10
161.7473
 20
112.6126
 30
0.0
 10
161.7473
 20
112.6126
 30
0.0
 10
186.6364
 20
97.978
 30
0.0
 10
186.6364
 20
97.978
 30
0.0
 10
186.6364
 20
97.978
 30
0.0
 10
187.8222
 20
97.2759
 30
0.0
 10
187.9646
 20
95.7408
 30
0.0
 10
186.6345
 20
95.0549
 30
0.0
 10
186.6345
 20
95.0549
 30
0.0
 10
186.6345
 20
95.0549
 30
0.0
 10
161.9092
 20
80.6047
 30
0.0
 10
161.9092
 20
80.6047
 30
0.0
 10
161.9092
 20
80.6047
 30
0.0
 10
160.4374
 20
79.94
 30
0.0
 10
158.6953
 20
79.8479
 30
0.0
 10
158.6953
 20
82.1197
 30
0.0
 10
158.6953
 20
82.1197
 30
0.0
 10
158.6953
 20
82.1197
 30
0.0
 10
158.6953
 20
82.1197
 30
0.0
 10
158.6953
 20
82.1197
 30
0.0
  0
SPLINE
  5
45
330
1F
100
AcDbEntity
  8
layer 1
 62
     7
100
AcDbSpline
210
0.0
220
0.0
230
1.0
 70
    11
 71
     3
 72
    28
 73
    24
 74
     0
 42
0.0000000001
 43
0.0000000001
 12
1.0
 22
0.0
 32
0.0
 13
1.0
 23
0.0
 33
0.0
 40
0.0
 40
0.0
 40
0.0
 40
0.0
 40
0.1428571428571428
 40
0.1428571428571428
 40
0.1428571428571428
 40
0.1428571428571428
 40
0.2857142857142857
 40
0.2857142857142857
 40
0.2857142857142857
 40
0.2857142857142857
 40
0.4285714285714285
 40
0.4285714285714285
 40
0.4285714285714285
 40
0.4285714285714285
 40
0.5714285714285714
 40
0.5714285714285714
 40
0.5714285714285714
 40
0.5714285714285714
 40
0.7142857142857143
 40
0.7142857142857143
 40
0.7142857142857143
 40
0.7142857142857143
 40
1.0
 40
1.0
 40
1.0
 40
1.0
 10
122.2294
 20
111.6015
 30
0.0
 10
122.2294
 20
112.6648
 30
0.0
 10
121.1353
 20
112.992
 30
0.0
 10
120.613
 20
112.7111
 30
0.0
 10
120.613
 20
112.7111
 30
0.0
 10
120.613
 20
112.7111
 30
0.0
 10
111.6177
 20
107.4316
 30
0.0
 10
111.6177
 20
107.4316
 30
0.0
 10
111.6177
 20
107.4316
 30
0.0
 10
110.9153
 20
107.1411
 30
0.0
 10
110.833
 20
105.837
 30
0.0
 10
111.5382
 20
105.4195
 30
0.0
 10
111.5382
 20
105.4195
 30
0.0
 10
111.5382
 20
105.4195
 30
0.0
 10
120.2557
 20
100.1092
 30
0.0
 10
120.2557
 20
100.1092
 30
0.0
 10
120.2557
 20
100.1092
 30
0.0
 10
121.0428
 20
99.8074
 30
0.0
 10
122.2562
 20
100.1171
 30
0.0
 10
122.2562
 20
101.0572
 30
0.0
 10
122.2562
 20
101.0572
 30
0.0
 10
122.2562
 20
101.0572
 30
0.0
 10
122.2294
 20
111.6015
 30
0.0
 10
122.2294
 20
111.6015
 30
0.0
  0
SPLINE
  5
46
330
1F
100
AcDbEntity
  8
layer 1
 62
     7
100
AcDbSpline
210
0.0
220
0.0
230
1.0
 70
    11
 71
     3
 72
    28
 73
    24
 74
     0
 42
0.0000000001
 43
0.0000000001
 12
1.0
 22
0.0
 32
0.0
 13
1.0
 23
0.0
 33
0.0
 40
0.0
 40
0.0
 40
0.0
 40
0.0
 40
0.1428571428571428
 40
0.1428571428571428
 40
0.1428571428571428
 40
0.1428571428571428
 40
0.2857142857142857
 40
0.2857142857142857
 40
0.2857142857142857
 40
0.2857142857142857
 40
0.4285714285714285
 40
0.4285714285714285
 40
0.4285714285714285
 40
0.4285714285714285
 40
0.5714285714285714
 40
0.5714285714285714
 40
0.5714285714285714
 40
0.5714285714285714
 40
0.7142857142857143
 40
0.7142857142857143
 40
0.7142857142857143
 40
0.7142857142857143
 40
1.0
 40
1.0
 40
1.0
 40
1.0
 10
105.354
 20
121.5906
 30
0.0
 10
105.354
 20
122.6539
 30
0.0
 10
104.2599
 20
122.9811
 30
0.0
 10
103.7376
 20
122.7002
 30
0.0
 10
103.7376
 20
122.7002
 30
0.0
 10
103.7376
 20
122.7002
 30
0.0
 10
94.7423
 20
117.4207
 30
0.0
 10
94.7423
 20
117.4207
 30
0.0
 10
94.7423
 20
117.4207
 30
0.0
 10
94.0398
 20
117.1302
 30
0.0
 10
93.9576
 20
115.8261
 30
0.0
 10
94.6628
 20
115.4086
 30
0.0
 10
94.6628
 20
115.4086
 30
0.0
 10
94.6628
 20
115.4086
 30
0.0
 10
103.3802
 20
110.0983
 30
0.0
 10
103.3802
 20
110.0983
 30
0.0
 10
103.3802
 20
110.0983
 30
0.0
 10
104.1674
 20
109.7965
 30
0.0
 10
105.3807
 20
110.1062
 30
0.0
 10
105.3807
 20
111.0462
 30
0.0
 10
105.3807
 20
111.0462
 30
0.0
 10
105.3807
 20
111.0462
 30
0.0
 10
105.354
 20
121.5906
 30
0.0
 10
105.354
 20
121.5906
 30
0.0
  0
SPLINE
  5
47
330
1F
100
AcDbEntity
  8
layer 1
 62
     7
100
AcDbSpline
210
0.0
220
0.0
230
1.0
 70
    11
 71
     3
 72
    28
 73
    24
 74
     0
 42
0.0000000001
 43
0.0000000001
 12
1.0
 22
0.0
 32
0.0
 13
1.0
 23
0.0
 33
0.0
 40
0.0
 40
0.0
 40
0.0
 40
0.0
 40
0.1428571428571428
 40
0.1428571428571428
 40
0.1428571428571428
 40
0.1428571428571428
 40
0.2857142857142857
 40
0.2857142857142857
 40
0.2857142857142857
 40
0.2857142857142857
 40
0.4285714285714285
 40
0.4285714285714285
 40
0.4285714285714285
 40
0.4285714285714285
 40
0.5714285714285714
 40
0.5714285714285714
 40
0.5714285714285714
 40
0.5714285714285714
 40
0.7142857142857143
 40
0.7142857142857143
 40
0.7142857142857143
 40
0.7142857142857143
 40
1.0
 40
1.0
 40
1.0
 40
1.0
 10
139.1049
 20
121.4392
 30
0.0
 10
139.1049
 20
122.5026
 30
0.0
 10
138.0108
 20
122.8297
 30
0.0
 10
137.4885
 20
122.5489
 30
0.0
 10
137.4885
 20
122.5489
 30
0.0
 10
137.4885
 20
122.5489
 30
0.0
 10
128.4932
 20
117.2693
 30
0.0
 10
128.4932
 20
117.2693
 30
0.0
 10
128.4932
 20
117.2693
 30
0.0
 10
127.7907
 20
116.9788
 30
0.0
 10
127.7085
 20
115.6748
 30
0.0
 10
128.4136
 20
115.2572
 30
0.0
 10
128.4136
 20
115.2572
 30
0.0
 10
128.4136
 20
115.2572
 30
0.0
 10
137.1311
 20
109.9469
 30
0.0
 10
137.1311
 20
109.9469
 30
0.0
 10
137.1311
 20
109.9469
 30
0.0
 10
137.9182
 20
109.6452
 30
0.0
 10
139.1316
 20
109.9548
 30
0.0
 10
139.1316
 20
110.8949
 30
0.0
 10
139.1316
 20
110.8949
 30
0.0
 10
139.1316
 20
110.8949
 30
0.0
 10
139.1049
 20
121.4392
 30
0.0
 10
139.1049
 20
121.4392
 30
0.0
  0
SPLINE
  5
48
330
1F
100
AcDbEntity
  8
layer 1
 62
     7
100
AcDbSpline
210
0.0
220
0.0
230
1.0
 70
    11
 71
     3
 72
    28
 73
    24
 74
     0
 42
0.0000000001
 43
0.0000000001
 12
1.0
 22
0.0
 32
0.0
 13
1.0
 23
0.0
 33
0.0
 40
0.0
 40
0.0
 40
0.0
 40
0.0
 40
0.1428571428571428
 40
0.1428571428571428
 40
0.1428571428571428
 40
0.1428571428571428
 40
0.2857142857142857
 40
0.2857142857142857
 40
0.2857142857142857
 40
0.2857142857142857
 40
0.4285714285714285
 40
0.4285714285714285
 40
0.4285714285714285
 40
0.4285714285714285
 40
0.5714285714285714
 40
0.5714285714285714
 40
0.5714285714285714
 40
0.5714285714285714
 40
0.7142857142857143
 40
0.7142857142857143
 40
0.7142857142857143
 40
0.7142857142857143
 40
1.0
 40
1.0
 40
1.0
 40
1.0
 10
155.829
 20
111.6772
 30
0.0
 10
155.829
 20
112.7406
 30
0.0
 10
154.7349
 20
113.0677
 30
0.0
 10
154.2126
 20
112.7868
 30
0.0
 10
154.2126
 20
112.7868
 30
0.0
 10
154.2126
 20
112.7868
 30
0.0
 10
145.2173
 20
107.5073
 30
0.0
 10
145.2173
 20
107.5073
 30
0.0
 10
145.2173
 20
107.5073
 30
0.0
 10
144.5148
 20
107.2168
 30
0.0
 10
144.4326
 20
105.9127
 30
0.0
 10
145.1377
 20
105.4952
 30
0.0
 10
145.1377
 20
105.4952
 30
0.0
 10
145.1377
 20
105.4952
 30
0.0
 10
153.8552
 20
100.1849
 30
0.0
 10
153.8552
 20
100.1849
 30
0.0
 10
153.8552
 20
100.1849
 30
0.0
 10
154.6423
 20
99.8831
 30
0.0
 10
155.8557
 20
100.1928
 30
0.0
 10
155.8557
 20
101.1329
 30
0.0
 10
155.8557
 20
101.1329
 30
0.0
 10
155.8557
 20
101.1329
 30
0.0
 10
155.829
 20
111.6772
 30
0.0
 10
155.829
 20
111.6772
 30
0.0
  0
SPLINE
  5
49
330
1F
100
AcDbEntity
  8
layer 1
 62
     7
100
AcDbSpline
210
0.0
220
0.0
230
1.0
 70
    11
 71
     3
 72
    28
 73
    24
 74
     0
 42
0.0000000001
 43
0.0000000001
 12
1.0
 22
0.0
 32
0.0
 13
1.0
 23
0.0
 33
0.0
 40
0.0
 40
0.0
 40
0.0
 40
0.0
 40
0.1428571428571428
 40
0.1428571428571428
 40
0.1428571428571428
 40
0.1428571428571428
 40
0.2857142857142857
 40
0.2857142857142857
 40
0.2857142857142857
 40
0.2857142857142857
 40
0.4285714285714285
 40
0.4285714285714285
 40
0.4285714285714285
 40
0.4285714285714285
 40
0.5714285714285714
 40
0.5714285714285714
 40
0.5714285714285714
 40
0.5714285714285714
 40
0.7142857142857143
 40
0.7142857142857143
 40
0.7142857142857143
 40
0.7142857142857143
 40
1.0
 40
1.0
 40
1.0
 40
1.0
 10
172.7044
 20
121.4392
 30
0.0
 10
172.7044
 20
122.5026
 30
0.0
 10
171.6103
 20
122.8297
 30
0.0
 10
171.088
 20
122.5489
 30
0.0
 10
171.088
 20
122.5489
 30
0.0
 10
171.088
 20
122.5489
 30
0.0
 10
162.0927
 20
117.2693
 30
0.0
 10
162.0927
 20
117.2693
 30
0.0
 10
162.0927
 20
117.2693
 30
0.0
 10
161.3903
 20
116.9788
 30
0.0
 10
161.308
 20
115.6748
 30
0.0
 10
162.0132
 20
115.2572
 30
0.0
 10
162.0132
 20
115.2572
 30
0.0
 10
162.0132
 20
115.2572
 30
0.0
 10
170.7307
 20
109.9469
 30
0.0
 10
170.7307
 20
109.9469
 30
0.0
 10
170.7307
 20
109.9469
 30
0.0
 10
171.5178
 20
109.6452
 30
0.0
 10
172.7312
 20
109.9548
 30
0.0
 10
172.7312
 20
110.8949
 30
0.0
 10
172.7312
 20
110.8949
 30
0.0
 10
172.7312
 20
110.8949
 30
0.0
 10
172.7044
 20
121.4392
 30
0.0
 10
172.7044
 20
121.4392
 30
0.0
  0
SPLINE
  5
4A
330
1F
100
AcDbEntity
  8
layer 1
 62
     7
100
AcDbSpline
210
0.0
220
0.0
230
1.0
 70
    11
 71
     3
 72
    28
 73
    24
 74
     0
 42
0.0000000001
 43
0.0000000001
 12
1.0
 22
0.0
 32
0.0
 13
1.0
 23
0.0
 33
0.0
 40
0.0
 40
0.0
 40
0.0
 40
0.0
 40
0.1428571428571428
 40
0.1428571428571428
 40
0.1428571428571428
 40
0.1428571428571428
 40
0.2857142857142857
 40
0.2857142857142857
 40
0.2857142857142857
 40
0.2857142857142857
 40
0.4285714285714285
 40
0.4285714285714285
 40
0.4285714285714285
 40
0.4285714285714285
 40
0.5714285714285714
 40
0.5714285714285714
 40
0.5714285714285714
 40
0.5714285714285714
 40
0.7142857142857143
 40
0.7142857142857143
 40
0.7142857142857143
 40
0.7142857142857143
 40
1.0
 40
1.0
 40
1.0
 40
1.0
 10
189.4285
 20
111.6772
 30
0.0
 10
189.4285
 20
112.7406
 30
0.0
 10
188.3344
 20
113.0677
 30
0.0
 10
187.8121
 20
112.7868
 30
0.0
 10
187.8121
 20
112.7868
 30
0.0
 10
187.8121
 20
112.7868
 30
0.0
 10
178.8168
 20
107.5073
 30
0.0
 10
178.8168
 20
107.5073
 30
0.0
 10
178.8168
 20
107.5073
 30
0.0
 10
178.1144
 20
107.2168
 30
0.0
 10
178.0321
 20
105.9127
 30
0.0
 10
178.7373
 20
105.4952
 30
0.0
 10
178.7373
 20
105.4952
 30
0.0
 10
178.7373
 20
105.4952
 30
0.0
 10
187.4548
 20
100.1849
 30
0.0
 10
187.4548
 20
100.1849
 30
0.0
 10
187.4548
 20
100.1849
 30
0.0
 10
188.2419
 20
99.8831
 30
0.0
 10
189.4553
 20
100.1928
 30
0.0
 10
189.4553
 20
101.1329
 30
0.0
 10
189.4553
 20
101.1329
 30
0.0
 10
189.4553
 20
101.1329
 30
0.0
 10
189.4285
 20
111.6772
 30
0.0
 10
189.4285
 20
111.6772
 30
0.0
  0
SPLINE
  5
4B
330
1F
100
AcDbEntity
  8
layer 1
 62
     7
100
AcDbSpline
210
0.0
220
0.0
230
1.0
 70
    11
 71
     3
 72
    28
 73
    24
 74
     0
 42
0.0000000001
 43
0.0000000001
 12
1.0
 22
0.0
 32
0.0
 13
1.0
 23
0.0
 33
0.0
 40
0.0
 40
0.0
 40
0.0
 40
0.0
 40
0.1428571428571428
 40
0.1428571428571428
 40
0.1428571428571428
 40
0.1428571428571428
 40
0.2857142857142857
 40
0.2857142857142857
 40
0.2857142857142857
 40
0.2857142857142857
 40
0.4285714285714285
 40
0.4285714285714285
 40
0.4285714285714285
 40
0.4285714285714285
 40
0.5714285714285714
 40
0.5714285714285714
 40
0.5714285714285714
 40
0.5714285714285714
 40
0.7142857142857143
 40
0.7142857142857143
 40
0.7142857142857143
 40
0.7142857142857143
 40
1.0
 40
1.0
 40
1.0
 40
1.0
 10
122.2294
 20
91.9098
 30
0.0
 10
122.2294
 20
92.9732
 30
0.0
 10
121.1353
 20
93.3003
 30
0.0
 10
120.613
 20
93.0195
 30
0.0
 10
120.613
 20
93.0195
 30
0.0
 10
120.613
 20
93.0195
 30
0.0
 10
111.6177
 20
87.7399
 30
0.0
 10
111.6177
 20
87.7399
 30
0.0
 10
111.6177
 20
87.7399
 30
0.0
 10
110.9153
 20
87.4494
 30
0.0
 10
110.833
 20
86.1454
 30
0.0
 10
111.5382
 20
85.7278
 30
0.0
 10
111.5382
 20
85.7278
 30
0.0
 10
111.5382
 20
85.7278
 30
0.0
 10
120.2557
 20
80.4175
 30
0.0
 10
120.2557
 20
80.4175
 30
0.0
 10
120.2557
 20
80.4175
 30
0.0
 10
121.0428
 20
80.1157
 30
0.0
 10
122.2562
 20
80.4254
 30
0.0
 10
122.2562
 20
81.3655
 30
0.0
 10
122.2562
 20
81.3655
 30
0.0
 10
122.2562
 20
81.3655
 30
0.0
 10
122.2294
 20
91.9098
 30
0.0
 10
122.2294
 20
91.9098
 30
0.0
  0
SPLINE
  5
4C
330
1F
100
AcDbEntity
  8
layer 1
 62
     7
100
AcDbSpline
210
0.0
220
0.0
230
1.0
 70
    11
 71
     3
 72
    28
 73
    24
 74
     0
 42
0.0000000001
 43
0.0000000001
 12
1.0
 22
0.0
 32
0.0
 13
1.0
 23
0.0
 33
0.0
 40
0.0
 40
0.0
 40
0.0
 40
0.0
 40
0.1428571428571428
 40
0.1428571428571428
 40
0.1428571428571428
 40
0.1428571428571428
 40
0.2857142857142857
 40
0.2857142857142857
 40
0.2857142857142857
 40
0.2857142857142857
 40
0.4285714285714285
 40
0.4285714285714285
 40
0.4285714285714285
 40
0.4285714285714285
 40
0.5714285714285714
 40
0.5714285714285714
 40
0.5714285714285714
 40
0.5714285714285714
 40
0.7142857142857143
 40
0.7142857142857143
 40
0.7142857142857143
 40
0.7142857142857143
 40
1.0
 40
1.0
 40
1.0
 40
1.0
 10
155.829
 20
91.9854
 30
0.0
 10
155.829
 20
93.0488
 30
0.0
 10
154.7349
 20
93.376
 30
0.0
 10
154.2126
 20
93.0951
 30
0.0
 10
154.2126
 20
93.0951
 30
0.0
 10
154.2126
 20
93.0951
 30
0.0
 10
145.2173
 20
87.8156
 30
0.0
 10
145.2173
 20
87.8156
 30
0.0
 10
145.2173
 20
87.8156
 30
0.0
 10
144.5148
 20
87.525
 30
0.0
 10
144.4326
 20
86.221
 30
0.0
 10
145.1377
 20
85.8035
 30
0.0
 10
145.1377
 20
85.8035
 30
0.0
 10
145.1377
 20
85.8035
 30
0.0
 10
153.8552
 20
80.4932
 30
0.0
 10
153.8552
 20
80.4932
 30
0.0
 10
153.8552
 20
80.4932
 30
0.0
 10
154.6423
 20
80.1914
 30
0.0
 10
155.8557
 20
80.501
 30
0.0
 10
155.8557
 20
81.4411
 30
0.0
 10
155.8557
 20
81.4411
 30
0.0
 10
155.8557
 20
81.4411
 30
0.0
 10
155.829
 20
91.9854
 30
0.0
 10
155.829
 20
91.9854
 30
0.0
  0
SPLINE
  5
4D
330
1F
100
AcDbEntity
  8
layer 1
 62
     7
100
AcDbSpline
210
0.0
220
0.0
230
1.0
 70
    11
 71
     3
 72
    28
 73
    24
 74
     0
 42
0.0000000001
 43
0.0000000001
 12
1.0
 22
0.0
 32
0.0
 13
1.0
 23
0.0
 33
0.0
 40
0.0
 40
0.0
 40
0.0
 40
0.0
 40
0.1428571428571428
 40
0.1428571428571428
 40
0.1428571428571428
 40
0.1428571428571428
 40
0.2857142857142857
 40
0.2857142857142857
 40
0.2857142857142857
 40
0.2857142857142857
 40
0.4285714285714285
 40
0.4285714285714285
 40
0.4285714285714285
 40
0.4285714285714285
 40
0.5714285714285714
 40
0.5714285714285714
 40
0.5714285714285714
 40
0.5714285714285714
 40
0.7142857142857143
 40
0.7142857142857143
 40
0.7142857142857143
 40
0.7142857142857143
 40
1.0
 40
1.0
 40
1.0
 40
1.0
 10
189.4285
 20
91.9854
 30
0.0
 10
189.4285
 20
93.0488
 30
0.0
 10
188.3344
 20
93.376
 30
0.0
 10
187.8121
 20
93.0951
 30
0.0
 10
187.8121
 20
93.0951
 30
0.0
 10
187.8121
 20
93.0951
 30
0.0
 10
178.8168
 20
87.8156
 30
0.0
 10
178.8168
 20
87.8156
 30
0.0
 10
178.8168
 20
87.8156
 30
0.0
 10
178.1144
 20
87.525
 30
0.0
 10
178.0321
 20
86.221
 30
0.0
 10
178.7373
 20
85.8035
 30
0.0
 10
178.7373
 20
85.8035
 30
0.0
 10
178.7373
 20
85.8035
 30
0.0
 10
187.4548
 20
80.4932
 30
0.0
 10
187.4548
 20
80.4932
 30
0.0
 10
187.4548
 20
80.4932
 30
0.0
 10
188.2419
 20
80.1914
 30
0.0
 10
189.4553
 20
80.501
 30
0.0
 10
189.4553
 20
81.4411
 30
0.0
 10
189.4553
 20
81.4411
 30
0.0
 10
189.4553
 20
81.4411
 30
0.0
 10
189.4285
 20
91.9854
 30
0.0
 10
189.4285
 20
91.9854
 30
0.0
  0
SPLINE
  5
4E
330
1F
100
AcDbEntity
  8
layer 1
 62
     7
100
AcDbSpline
210
0.0
220
0.0
230
1.0
 70
    11
 71
     3
 72
    32
 73
    28
 74
     0
 42
0.0000000001
 43
0.0000000001
 12
1.0
 22
0.0
 32
0.0
 13
1.0
 23
0.0
 33
0.0
 40
0.0
 40
0.0
 40
0.0
 40
0.0
 40
0.125
 40
0.125
 40
0.125
 40
0.125
 40
0.25
 40
0.25
 40
0.25
 40
0.25
 40
0.375
 40
0.375
 40
0.375
 40
0.375
 40
0.5
 40
0.5
 40
0.5
 40
0.5
 40
0.625
 40
0.625
 40
0.625
 40
0.625
 40
0.75
 40
0.75
 40
0.75
 40
0.75
 40
1.0
 40
1.0
 40
1.0
 40
1.0
 10
141.6848
 20
52.5821
 30
0.0
 10
141.6848
 20
52.5821
 30
0.0
 10
141.6848
 20
81.6217
 30
0.0
 10
141.6848
 20
81.6217
 30
0.0
 10
141.6848
 20
81.6217
 30
0.0
 10
141.6848
 20
84.1917
 30
0.0
 10
144.0137
 20
83.3658
 30
0.0
 10
144.7367
 20
83.0751
 30
0.0
 10
144.7367
 20
83.0751
 30
0.0
 10
144.7367
 20
83.0751
 30
0.0
 10
169.6259
 20
68.4404
 30
0.0
 10
169.6259
 20
68.4404
 30
0.0
 10
169.6259
 20
68.4404
 30
0.0
 10
170.8117
 20
67.7383
 30
0.0
 10
170.9541
 20
66.2033
 30
0.0
 10
169.6239
 20
65.5174
 30
0.0
 10
169.6239
 20
65.5174
 30
0.0
 10
169.6239
 20
65.5174
 30
0.0
 10
144.8987
 20
51.0672
 30
0.0
 10
144.8987
 20
51.0672
 30
0.0
 10
144.8987
 20
51.0672
 30
0.0
 10
143.4268
 20
50.4025
 30
0.0
 10
141.6848
 20
50.3103
 30
0.0
 10
141.6848
 20
52.5822
 30
0.0
 10
141.6848
 20
52.5822
 30
0.0
 10
141.6848
 20
52.5822
 30
0.0
 10
141.6848
 20
52.5821
 30
0.0
 10
141.6848
 20
52.5821
 30
0.0
  0
SPLINE
  5
4F
330
1F
100
AcDbEntity
  8
layer 1
 62
     7
100
AcDbSpline
210
0.0
220
0.0
230
1.0
 70
    11
 71
     3
 72
    36
 73
    32
 74
     0
 42
0.0000000001
 43
0.0000000001
 12
1.0
 22
0.0
 32
0.0
 13
1.0
 23
0.0
 33
0.0
 40
0.0
 40
0.0
 40
0.0
 40
0.0
 40
0.1111111111111111
 40
0.1111111111111111
 40
0.1111111111111111
 40
0.1111111111111111
 40
0.2222222222222222
 40
0.2222222222222222
 40
0.2222222222222222
 40
0.2222222222222222
 40
0.3333333333333333
 40
0.3333333333333333
 40
0.3333333333333333
 40
0.3333333333333333
 40
0.4444444444444444
 40
0.4444444444444444
 40
0.4444444444444444
 40
0.4444444444444444
 40
0.5555555555555556
 40
0.5555555555555556
 40
0.5555555555555556
 40
0.5555555555555556
 40
0.6666666666666666
 40
0.6666666666666666
 40
0.6666666666666666
 40
0.6666666666666666
 40
0.7777777777777778
 40
0.7777777777777778
 40
0.7777777777777778
 40
0.7777777777777778
 40
1.0
 40
1.0
 40
1.0
 40
1.0
 10
175.4975
 20
52.5821
 30
0.0
 10
175.4975
 20
52.5821
 30
0.0
 10
175.4975
 20
81.6217
 30
0.0
 10
175.4975
 20
81.6217
 30
0.0
 10
175.4975
 20
81.6217
 30
0.0
 10
175.4975
 20
84.1917
 30
0.0
 10
177.8264
 20
83.3658
 30
0.0
 10
178.5494
 20
83.0751
 30
0.0
 10
178.5494
 20
83.0751
 30
0.0
 10
178.5494
 20
83.0751
 30
0.0
 10
186.8215
 20
77.9453
 30
0.0
 10
188.6122
 20
76.9184
 30
0.0
 10
188.6122
 20
76.9184
 30
0.0
 10
189.4428
 20
76.3374
 30
0.0
 10
189.7807
 20
75.7526
 30
0.0
 10
189.7221
 20
74.5442
 30
0.0
 10
189.7221
 20
74.5442
 30
0.0
 10
189.6634
 20
72.2042
 30
0.0
 10
189.6994
 20
61.7796
 30
0.0
 10
189.6858
 20
59.4821
 30
0.0
 10
189.6858
 20
59.4821
 30
0.0
 10
189.7752
 20
58.1104
 30
0.0
 10
189.3793
 20
57.6165
 30
0.0
 10
188.5994
 20
57.0388
 30
0.0
 10
188.5994
 20
57.0388
 30
0.0
 10
186.8936
 20
56.0497
 30
0.0
 10
178.7114
 20
51.0671
 30
0.0
 10
178.7114
 20
51.0671
 30
0.0
 10
178.7114
 20
51.0671
 30
0.0
 10
177.2395
 20
50.4024
 30
0.0
 10
175.4975
 20
50.3103
 30
0.0
 10
175.4975
 20
52.5821
 30
0.0
  0
SPLINE
  5
50
330
1F
100
AcDbEntity
  8
layer 1
 62
     7
100
AcDbSpline
210
0.0
220
0.0
230
1.0
 70
    11
 71
     3
 72
    28
 73
    24
 74
     0
 42
0.0000000001
 43
0.0000000001
 12
1.0
 22
0.0
 32
0.0
 13
1.0
 23
0.0
 33
0.0
 40
0.0
 40
0.0
 40
0.0
 40
0.0
 40
0.1428571428571428
 40
0.1428571428571428
 40
0.1428571428571428
 40
0.1428571428571428
 40
0.2857142857142857
 40
0.2857142857142857
 40
0.2857142857142857
 40
0.2857142857142857
 40
0.4285714285714285
 40
0.4285714285714285
 40
0.4285714285714285
 40
0.4285714285714285
 40
0.5714285714285714
 40
0.5714285714285714
 40
0.5714285714285714
 40
0.5714285714285714
 40
0.7142857142857143
 40
0.7142857142857143
 40
0.7142857142857143
 40
0.7142857142857143
 40
1.0
 40
1.0
 40
1.0
 40
1.0
 10
139.0316
 20
82.0639
 30
0.0
 10
139.0316
 20
83.1273
 30
0.0
 10
137.9375
 20
83.4544
 30
0.0
 10
137.4152
 20
83.1736
 30
0.0
 10
137.4152
 20
83.1736
 30
0.0
 10
137.4152
 20
83.1736
 30
0.0
 10
128.4199
 20
77.894
 30
0.0
 10
128.4199
 20
77.894
 30
0.0
 10
128.4199
 20
77.894
 30
0.0
 10
127.7174
 20
77.6035
 30
0.0
 10
127.6352
 20
76.2995
 30
0.0
 10
128.3404
 20
75.8819
 30
0.0
 10
128.3404
 20
75.8819
 30
0.0
 10
128.3404
 20
75.8819
 30
0.0
 10
137.0578
 20
70.5717
 30
0.0
 10
137.0578
 20
70.5717
 30
0.0
 10
137.0578
 20
70.5717
 30
0.0
 10
137.845
 20
70.2699
 30
0.0
 10
139.0584
 20
70.5795
 30
0.0
 10
139.0584
 20
71.5196
 30
0.0
 10
139.0584
 20
71.5196
 30
0.0
 10
139.0584
 20
71.5196
 30
0.0
 10
139.0316
 20
82.0639
 30
0.0
 10
139.0316
 20
82.0639
 30
0.0
  0
SPLINE
  5
51
330
1F
100
AcDbEntity
  8
layer 1
 62
     7
100
AcDbSpline
210
0.0
220
0.0
230
1.0
 70
    11
 71
     3
 72
    28
 73
    24
 74
     0
 42
0.0000000001
 43
0.0000000001
 12
1.0
 22
0.0
 32
0.0
 13
1.0
 23
0.0
 33
0.0
 40
0.0
 40
0.0
 40
0.0
 40
0.0
 40
0.1428571428571428
 40
0.1428571428571428
 40
0.1428571428571428
 40
0.1428571428571428
 40
0.2857142857142857
 40
0.2857142857142857
 40
0.2857142857142857
 40
0.2857142857142857
 40
0.4285714285714285
 40
0.4285714285714285
 40
0.4285714285714285
 40
0.4285714285714285
 40
0.5714285714285714
 40
0.5714285714285714
 40
0.5714285714285714
 40
0.5714285714285714
 40
0.7142857142857143
 40
0.7142857142857143
 40
0.7142857142857143
 40
0.7142857142857143
 40
1.0
 40
1.0
 40
1.0
 40
1.0
 10
172.6312
 20
82.1396
 30
0.0
 10
172.6312
 20
83.203
 30
0.0
 10
171.5371
 20
83.5301
 30
0.0
 10
171.0148
 20
83.2493
 30
0.0
 10
171.0148
 20
83.2493
 30
0.0
 10
171.0148
 20
83.2493
 30
0.0
 10
162.0194
 20
77.9698
 30
0.0
 10
162.0194
 20
77.9698
 30
0.0
 10
162.0194
 20
77.9698
 30
0.0
 10
161.317
 20
77.6792
 30
0.0
 10
161.2348
 20
76.3752
 30
0.0
 10
161.9399
 20
75.9576
 30
0.0
 10
161.9399
 20
75.9576
 30
0.0
 10
161.9399
 20
75.9576
 30
0.0
 10
170.6574
 20
70.6474
 30
0.0
 10
170.6574
 20
70.6474
 30
0.0
 10
170.6574
 20
70.6474
 30
0.0
 10
171.4445
 20
70.3456
 30
0.0
 10
172.6579
 20
70.6552
 30
0.0
 10
172.6579
 20
71.5953
 30
0.0
 10
172.6579
 20
71.5953
 30
0.0
 10
172.6579
 20
71.5953
 30
0.0
 10
172.6312
 20
82.1396
 30
0.0
 10
172.6312
 20
82.1396
 30
0.0
  0
SPLINE
  5
52
330
1F
100
AcDbEntity
  8
layer 1
 62
     7
100
AcDbSpline
210
0.0
220
0.0
230
1.0
 70
    11
 71
     3
 72
    28
 73
    24
 74
     0
 42
0.0000000001
 43
0.0000000001
 12
1.0
 22
0.0
 32
0.0
 13
1.0
 23
0.0
 33
0.0
 40
0.0
 40
0.0
 40
0.0
 40
0.0
 40
0.1428571428571428
 40
0.1428571428571428
 40
0.1428571428571428
 40
0.1428571428571428
 40
0.2857142857142857
 40
0.2857142857142857
 40
0.2857142857142857
 40
0.2857142857142857
 40
0.4285714285714285
 40
0.4285714285714285
 40
0.4285714285714285
 40
0.4285714285714285
 40
0.5714285714285714
 40
0.5714285714285714
 40
0.5714285714285714
 40
0.5714285714285714
 40
0.7142857142857143
 40
0.7142857142857143
 40
0.7142857142857143
 40
0.7142857142857143
 40
1.0
 40
1.0
 40
1.0
 40
1.0
 10
105.5602
 20
82.1396
 30
0.0
 10
105.5602
 20
83.203
 30
0.0
 10
104.4661
 20
83.5301
 30
0.0
 10
103.9438
 20
83.2493
 30
0.0
 10
103.9438
 20
83.2493
 30
0.0
 10
103.9438
 20
83.2493
 30
0.0
 10
94.9485
 20
77.9698
 30
0.0
 10
94.9485
 20
77.9698
 30
0.0
 10
94.9485
 20
77.9698
 30
0.0
 10
94.246
 20
77.6792
 30
0.0
 10
94.1638
 20
76.3752
 30
0.0
 10
94.869
 20
75.9576
 30
0.0
 10
94.869
 20
75.9576
 30
0.0
 10
94.869
 20
75.9576
 30
0.0
 10
103.5864
 20
70.6474
 30
0.0
 10
103.5864
 20
70.6474
 30
0.0
 10
103.5864
 20
70.6474
 30
0.0
 10
104.3736
 20
70.3456
 30
0.0
 10
105.5869
 20
70.6552
 30
0.0
 10
105.5869
 20
71.5953
 30
0.0
 10
105.5869
 20
71.5953
 30
0.0
 10
105.5869
 20
71.5953
 30
0.0
 10
105.5602
 20
82.1396
 30
0.0
 10
105.5602
 20
82.1396
 30
0.0
  0
SPLINE
  5
53
330
1F
100
AcDbEntity
  8
layer 1
 62
     7
100
AcDbSpline
210
0.0
220
0.0
230
1.0
 70
    11
 71
     3
 72
    32
 73
    28
 74
     0
 42
0.0000000001
 43
0.0000000001
 12
1.0
 22
0.0
 32
0.0
 13
1.0
 23
0.0
 33
0.0
 40
0.0
 40
0.0
 40
0.0
 40
0.0
 40
0.125
 40
0.125
 40
0.125
 40
0.125
 40
0.25
 40
0.25
 40
0.25
 40
0.25
 40
0.375
 40
0.375
 40
0.375
 40
0.375
 40
0.5
 40
0.5
 40
0.5
 40
0.5
 40
0.625
 40
0.625
 40
0.625
 40
0.625
 40
0.75
 40
0.75
 40
0.75
 40
0.75
 40
1.0
 40
1.0
 40
1.0
 40
1.0
 10
139.0584
 20
51.0252
 30
0.0
 10
139.0584
 20
51.0252
 30
0.0
 10
139.0316
 20
62.3722
 30
0.0
 10
139.0316
 20
62.3722
 30
0.0
 10
139.0316
 20
62.3722
 30
0.0
 10
139.0316
 20
63.4356
 30
0.0
 10
137.9375
 20
63.7627
 30
0.0
 10
137.4152
 20
63.4819
 30
0.0
 10
137.4152
 20
63.4819
 30
0.0
 10
137.4152
 20
63.4819
 30
0.0
 10
128.4199
 20
58.2024
 30
0.0
 10
128.4199
 20
58.2024
 30
0.0
 10
128.4199
 20
58.2024
 30
0.0
 10
127.7174
 20
57.9118
 30
0.0
 10
127.6352
 20
56.6078
 30
0.0
 10
128.3404
 20
56.1902
 30
0.0
 10
128.3404
 20
56.1902
 30
0.0
 10
128.3404
 20
56.1902
 30
0.0
 10
137.0578
 20
50.88
 30
0.0
 10
137.0578
 20
50.88
 30
0.0
 10
137.0578
 20
50.88
 30
0.0
 10
137.845
 20
50.5782
 30
0.0
 10
139.0584
 20
50.8878
 30
0.0
 10
139.0584
 20
51.8279
 30
0.0
 10
139.0584
 20
51.8279
 30
0.0
 10
139.0584
 20
51.8279
 30
0.0
 10
139.0584
 20
51.0252
 30
0.0
 10
139.0584
 20
51.0252
 30
0.0
  0
SPLINE
  5
54
330
1F
100
AcDbEntity
  8
layer 1
 62
     7
100
AcDbSpline
210
0.0
220
0.0
230
1.0
 70
    11
 71
     3
 72
    32
 73
    28
 74
     0
 42
0.0000000001
 43
0.0000000001
 12
1.0
 22
0.0
 32
0.0
 13
1.0
 23
0.0
 33
0.0
 40
0.0
 40
0.0
 40
0.0
 40
0.0
 40
0.125
 40
0.125
 40
0.125
 40
0.125
 40
0.25
 40
0.25
 40
0.25
 40
0.25
 40
0.375
 40
0.375
 40
0.375
 40
0.375
 40
0.5
 40
0.5
 40
0.5
 40
0.5
 40
0.625
 40
0.625
 40
0.625
 40
0.625
 40
0.75
 40
0.75
 40
0.75
 40
0.75
 40
1.0
 40
1.0
 40
1.0
 40
1.0
 10
172.6579
 20
51.1009
 30
0.0
 10
172.6579
 20
51.1009
 30
0.0
 10
172.6312
 20
62.4479
 30
0.0
 10
172.6312
 20
62.4479
 30
0.0
 10
172.6312
 20
62.4479
 30
0.0
 10
172.6312
 20
63.5113
 30
0.0
 10
171.5371
 20
63.8384
 30
0.0
 10
171.0148
 20
63.5576
 30
0.0
 10
171.0148
 20
63.5576
 30
0.0
 10
171.0148
 20
63.5576
 30
0.0
 10
162.0194
 20
58.278
 30
0.0
 10
162.0194
 20
58.278
 30
0.0
 10
162.0194
 20
58.278
 30
0.0
 10
161.317
 20
57.9875
 30
0.0
 10
161.2348
 20
56.6835
 30
0.0
 10
161.9399
 20
56.2659
 30
0.0
 10
161.9399
 20
56.2659
 30
0.0
 10
161.9399
 20
56.2659
 30
0.0
 10
170.6574
 20
50.9556
 30
0.0
 10
170.6574
 20
50.9556
 30
0.0
 10
170.6574
 20
50.9556
 30
0.0
 10
171.4445
 20
50.6539
 30
0.0
 10
172.6579
 20
50.9635
 30
0.0
 10
172.6579
 20
51.9036
 30
0.0
 10
172.6579
 20
51.9036
 30
0.0
 10
172.6579
 20
51.9036
 30
0.0
 10
172.6579
 20
51.1009
 30
0.0
 10
172.6579
 20
51.1009
 30
0.0
  0
SPLINE
  5
55
330
1F
100
AcDbEntity
  8
layer 1
 62
     7
100
AcDbSpline
210
0.0
220
0.0
230
1.0
 70
    11
 71
     3
 72
    28
 73
    24
 74
     0
 42
0.0000000001
 43
0.0000000001
 12
1.0
 22
0.0
 32
0.0
 13
1.0
 23
0.0
 33
0.0
 40
0.0
 40
0.0
 40
0.0
 40
0.0
 40
0.1428571428571428
 40
0.1428571428571428
 40
0.1428571428571428
 40
0.1428571428571428
 40
0.2857142857142857
 40
0.2857142857142857
 40
0.2857142857142857
 40
0.2857142857142857
 40
0.4285714285714285
 40
0.4285714285714285
 40
0.4285714285714285
 40
0.4285714285714285
 40
0.5714285714285714
 40
0.5714285714285714
 40
0.5714285714285714
 40
0.5714285714285714
 40
0.7142857142857143
 40
0.7142857142857143
 40
0.7142857142857143
 40
0.7142857142857143
 40
1.0
 40
1.0
 40
1.0
 40
1.0
 10
105.5602
 20
62.4479
 30
0.0
 10
105.5602
 20
63.5113
 30
0.0
 10
104.4661
 20
63.8384
 30
0.0
 10
103.9438
 20
63.5576
 30
0.0
 10
103.9438
 20
63.5576
 30
0.0
 10
103.9438
 20
63.5576
 30
0.0
 10
94.9485
 20
58.278
 30
0.0
 10
94.9485
 20
58.278
 30
0.0
 10
94.9485
 20
58.278
 30
0.0
 10
94.246
 20
57.9875
 30
0.0
 10
94.1638
 20
56.6835
 30
0.0
 10
94.869
 20
56.2659
 30
0.0
 10
94.869
 20
56.2659
 30
0.0
 10
94.869
 20
56.2659
 30
0.0
 10
103.5864
 20
50.9556
 30
0.0
 10
103.5864
 20
50.9556
 30
0.0
 10
103.5864
 20
50.9556
 30
0.0
 10
104.3736
 20
50.6539
 30
0.0
 10
105.5869
 20
50.9635
 30
0.0
 10
105.5869
 20
51.9036
 30
0.0
 10
105.5869
 20
51.9036
 30
0.0
 10
105.5869
 20
51.9036
 30
0.0
 10
105.5602
 20
62.4479
 30
0.0
 10
105.5602
 20
62.4479
 30
0.0
  0
SPLINE
  5
56
330
1F
100
AcDbEntity
  8
layer 1
 62
     7
100
AcDbSpline
210
0.0
220
0.0
230
1.0
 70
    11
 71
     3
 72
    28
 73
    24
 74
     0
 42
0.0000000001
 43
0.0000000001
 12
1.0
 22
0.0
 32
0.0
 13
1.0
 23
0.0
 33
0.0
 40
0.0
 40
0.0
 40
0.0
 40
0.0
 40
0.1428571428571428
 40
0.1428571428571428
 40
0.1428571428571428
 40
0.1428571428571428
 40
0.2857142857142857
 40
0.2857142857142857
 40
0.2857142857142857
 40
0.2857142857142857
 40
0.4285714285714285
 40
0.4285714285714285
 40
0.4285714285714285
 40
0.4285714285714285
 40
0.5714285714285714
 40
0.5714285714285714
 40
0.5714285714285714
 40
0.5714285714285714
 40
0.7142857142857143
 40
0.7142857142857143
 40
0.7142857142857143
 40
0.7142857142857143
 40
1.0
 40
1.0
 40
1.0
 40
1.0
 10
91.8435
 20
72.2966
 30
0.0
 10
91.8435
 20
73.36
 30
0.0
 10
92.9377
 20
73.6871
 30
0.0
 10
93.46
 20
73.4063
 30
0.0
 10
93.46
 20
73.4063
 30
0.0
 10
93.46
 20
73.4063
 30
0.0
 10
102.4553
 20
68.1267
 30
0.0
 10
102.4553
 20
68.1267
 30
0.0
 10
102.4553
 20
68.1267
 30
0.0
 10
103.1577
 20
67.8362
 30
0.0
 10
103.24
 20
66.5322
 30
0.0
 10
102.5348
 20
66.1146
 30
0.0
 10
102.5348
 20
66.1146
 30
0.0
 10
102.5348
 20
66.1146
 30
0.0
 10
93.8173
 20
60.8043
 30
0.0
 10
93.8173
 20
60.8043
 30
0.0
 10
93.8173
 20
60.8043
 30
0.0
 10
93.0302
 20
60.5026
 30
0.0
 10
91.8168
 20
60.8122
 30
0.0
 10
91.8168
 20
61.7523
 30
0.0
 10
91.8168
 20
61.7523
 30
0.0
 10
91.8168
 20
61.7523
 30
0.0
 10
91.8435
 20
72.2966
 30
0.0
 10
91.8435
 20
72.2966
 30
0.0
  0
SPLINE
  5
57
330
1F
100
AcDbEntity
  8
layer 1
 62
     7
100
AcDbSpline
210
0.0
220
0.0
230
1.0
 70
    11
 71
     3
 72
    32
 73
    28
 74
     0
 42
0.0000000001
 43
0.0000000001
 12
1.0
 22
0.0
 32
0.0
 13
1.0
 23
0.0
 33
0.0
 40
0.0
 40
0.0
 40
0.0
 40
0.0
 40
0.125
 40
0.125
 40
0.125
 40
0.125
 40
0.25
 40
0.25
 40
0.25
 40
0.25
 40
0.375
 40
0.375
 40
0.375
 40
0.375
 40
0.5
 40
0.5
 40
0.5
 40
0.5
 40
0.625
 40
0.625
 40
0.625
 40
0.625
 40
0.75
 40
0.75
 40
0.75
 40
0.75
 40
1.0
 40
1.0
 40
1.0
 40
1.0
 10
107.9322
 20
52.5821
 30
0.0
 10
107.9322
 20
52.5821
 30
0.0
 10
107.9322
 20
81.6217
 30
0.0
 10
107.9322
 20
81.6217
 30
0.0
 10
107.9322
 20
81.6217
 30
0.0
 10
107.9322
 20
84.1917
 30
0.0
 10
110.2612
 20
83.3658
 30
0.0
 10
110.9842
 20
83.0751
 30
0.0
 10
110.9842
 20
83.0751
 30
0.0
 10
110.9842
 20
83.0751
 30
0.0
 10
135.8734
 20
68.4404
 30
0.0
 10
135.8734
 20
68.4404
 30
0.0
 10
135.8734
 20
68.4404
 30
0.0
 10
137.0591
 20
67.7383
 30
0.0
 10
137.2016
 20
66.2033
 30
0.0
 10
135.8714
 20
65.5174
 30
0.0
 10
135.8714
 20
65.5174
 30
0.0
 10
135.8714
 20
65.5174
 30
0.0
 10
111.1461
 20
51.0672
 30
0.0
 10
111.1461
 20
51.0672
 30
0.0
 10
111.1461
 20
51.0672
 30
0.0
 10
109.6743
 20
50.4025
 30
0.0
 10
107.9322
 20
50.3103
 30
0.0
 10
107.9322
 20
52.5822
 30
0.0
 10
107.9322
 20
52.5822
 30
0.0
 10
107.9322
 20
52.5822
 30
0.0
 10
107.9322
 20
52.5821
 30
0.0
 10
107.9322
 20
52.5821
 30
0.0
  0
SPLINE
  5
58
330
1F
100
AcDbEntity
  8
layer 1
 62
     7
100
AcDbSpline
210
0.0
220
0.0
230
1.0
 70
    11
 71
     3
 72
    28
 73
    24
 74
     0
 42
0.0000000001
 43
0.0000000001
 12
1.0
 22
0.0
 32
0.0
 13
1.0
 23
0.0
 33
0.0
 40
0.0
 40
0.0
 40
0.0
 40
0.0
 40
0.1428571428571428
 40
0.1428571428571428
 40
0.1428571428571428
 40
0.1428571428571428
 40
0.2857142857142857
 40
0.2857142857142857
 40
0.2857142857142857
 40
0.2857142857142857
 40
0.4285714285714285
 40
0.4285714285714285
 40
0.4285714285714285
 40
0.4285714285714285
 40
0.5714285714285714
 40
0.5714285714285714
 40
0.5714285714285714
 40
0.5714285714285714
 40
0.7142857142857143
 40
0.7142857142857143
 40
0.7142857142857143
 40
0.7142857142857143
 40
1.0
 40
1.0
 40
1.0
 40
1.0
 10
90.9807
 20
23.3437
 30
0.0
 10
90.9807
 20
23.3437
 30
0.0
 10
90.9807
 20
52.3833
 30
0.0
 10
90.9807
 20
52.3833
 30
0.0
 10
90.9807
 20
52.3833
 30
0.0
 10
90.9807
 20
54.9533
 30
0.0
 10
93.3097
 20
54.1273
 30
0.0
 10
94.0327
 20
53.8366
 30
0.0
 10
94.0327
 20
53.8366
 30
0.0
 10
94.0327
 20
53.8366
 30
0.0
 10
118.9218
 20
39.2019
 30
0.0
 10
118.9218
 20
39.2019
 30
0.0
 10
118.9218
 20
39.2019
 30
0.0
 10
120.1076
 20
38.4998
 30
0.0
 10
120.25
 20
36.9648
 30
0.0
 10
118.9199
 20
36.2789
 30
0.0
 10
118.9199
 20
36.2789
 30
0.0
 10
118.9199
 20
36.2789
 30
0.0
 10
94.1946
 20
21.8287
 30
0.0
 10
94.1946
 20
21.8287
 30
0.0
 10
94.1946
 20
21.8287
 30
0.0
 10
92.7228
 20
21.164
 30
0.0
 10
90.9807
 20
21.0718
 30
0.0
 10
90.9807
 20
23.3437
 30
0.0
  0
SPLINE
  5
59
330
1F
100
AcDbEntity
  8
layer 1
 62
     7
100
AcDbSpline
210
0.0
220
0.0
230
1.0
 70
    11
 71
     3
 72
    28
 73
    24
 74
     0
 42
0.0000000001
 43
0.0000000001
 12
1.0
 22
0.0
 32
0.0
 13
1.0
 23
0.0
 33
0.0
 40
0.0
 40
0.0
 40
0.0
 40
0.0
 40
0.1428571428571428
 40
0.1428571428571428
 40
0.1428571428571428
 40
0.1428571428571428
 40
0.2857142857142857
 40
0.2857142857142857
 40
0.2857142857142857
 40
0.2857142857142857
 40
0.4285714285714285
 40
0.4285714285714285
 40
0.4285714285714285
 40
0.4285714285714285
 40
0.5714285714285714
 40
0.5714285714285714
 40
0.5714285714285714
 40
0.5714285714285714
 40
0.7142857142857143
 40
0.7142857142857143
 40
0.7142857142857143
 40
0.7142857142857143
 40
1.0
 40
1.0
 40
1.0
 40
1.0
 10
124.8826
 20
23.3437
 30
0.0
 10
124.8826
 20
23.3437
 30
0.0
 10
124.8826
 20
52.3833
 30
0.0
 10
124.8826
 20
52.3833
 30
0.0
 10
124.8826
 20
52.3833
 30
0.0
 10
124.8826
 20
54.9533
 30
0.0
 10
127.2116
 20
54.1273
 30
0.0
 10
127.9346
 20
53.8366
 30
0.0
 10
127.9346
 20
53.8366
 30
0.0
 10
127.9346
 20
53.8366
 30
0.0
 10
152.8238
 20
39.202
 30
0.0
 10
152.8238
 20
39.202
 30
0.0
 10
152.8238
 20
39.202
 30
0.0
 10
154.0095
 20
38.4999
 30
0.0
 10
154.152
 20
36.9648
 30
0.0
 10
152.8218
 20
36.279
 30
0.0
 10
152.8218
 20
36.279
 30
0.0
 10
152.8218
 20
36.279
 30
0.0
 10
128.0965
 20
21.8287
 30
0.0
 10
128.0965
 20
21.8287
 30
0.0
 10
128.0965
 20
21.8287
 30
0.0
 10
126.6247
 20
21.164
 30
0.0
 10
124.8826
 20
21.0718
 30
0.0
 10
124.8826
 20
23.3437
 30
0.0
  0
SPLINE
  5
5A
330
1F
100
AcDbEntity
  8
layer 1
 62
     7
100
AcDbSpline
210
0.0
220
0.0
230
1.0
 70
    11
 71
     3
 72
    32
 73
    28
 74
     0
 42
0.0000000001
 43
0.0000000001
 12
1.0
 22
0.0
 32
0.0
 13
1.0
 23
0.0
 33
0.0
 40
0.0
 40
0.0
 40
0.0
 40
0.0
 40
0.125
 40
0.125
 40
0.125
 40
0.125
 40
0.25
 40
0.25
 40
0.25
 40
0.25
 40
0.375
 40
0.375
 40
0.375
 40
0.375
 40
0.5
 40
0.5
 40
0.5
 40
0.5
 40
0.625
 40
0.625
 40
0.625
 40
0.625
 40
0.75
 40
0.75
 40
0.75
 40
0.75
 40
1.0
 40
1.0
 40
1.0
 40
1.0
 10
158.6953
 20
23.3437
 30
0.0
 10
158.6953
 20
23.3437
 30
0.0
 10
158.6953
 20
52.3833
 30
0.0
 10
158.6953
 20
52.3833
 30
0.0
 10
158.6953
 20
52.3833
 30
0.0
 10
158.6953
 20
54.9533
 30
0.0
 10
161.0243
 20
54.1273
 30
0.0
 10
161.7473
 20
53.8366
 30
0.0
 10
161.7473
 20
53.8366
 30
0.0
 10
161.7473
 20
53.8366
 30
0.0
 10
186.6364
 20
39.202
 30
0.0
 10
186.6364
 20
39.202
 30
0.0
 10
186.6364
 20
39.202
 30
0.0
 10
187.8222
 20
38.4999
 30
0.0
 10
187.9646
 20
36.9648
 30
0.0
 10
186.6345
 20
36.279
 30
0.0
 10
186.6345
 20
36.279
 30
0.0
 10
186.6345
 20
36.279
 30
0.0
 10
161.9092
 20
21.8287
 30
0.0
 10
161.9092
 20
21.8287
 30
0.0
 10
161.9092
 20
21.8287
 30
0.0
 10
160.4374
 20
21.1641
 30
0.0
 10
158.6953
 20
21.0719
 30
0.0
 10
158.6953
 20
23.3437
 30
0.0
 10
158.6953
 20
23.3437
 30
0.0
 10
158.6953
 20
23.3437
 30
0.0
 10
158.6953
 20
23.3437
 30
0.0
 10
158.6953
 20
23.3437
 30
0.0
  0
SPLINE
  5
5B
330
1F
100
AcDbEntity
  8
layer 1
 62
     7
100
AcDbSpline
210
0.0
220
0.0
230
1.0
 70
    11
 71
     3
 72
    28
 73
    24
 74
     0
 42
0.0000000001
 43
0.0000000001
 12
1.0
 22
0.0
 32
0.0
 13
1.0
 23
0.0
 33
0.0
 40
0.0
 40
0.0
 40
0.0
 40
0.0
 40
0.1428571428571428
 40
0.1428571428571428
 40
0.1428571428571428
 40
0.1428571428571428
 40
0.2857142857142857
 40
0.2857142857142857
 40
0.2857142857142857
 40
0.2857142857142857
 40
0.4285714285714285
 40
0.4285714285714285
 40
0.4285714285714285
 40
0.4285714285714285
 40
0.5714285714285714
 40
0.5714285714285714
 40
0.5714285714285714
 40
0.5714285714285714
 40
0.7142857142857143
 40
0.7142857142857143
 40
0.7142857142857143
 40
0.7142857142857143
 40
1.0
 40
1.0
 40
1.0
 40
1.0
 10
122.2294
 20
52.8255
 30
0.0
 10
122.2294
 20
53.8889
 30
0.0
 10
121.1353
 20
54.216
 30
0.0
 10
120.613
 20
53.9352
 30
0.0
 10
120.613
 20
53.9352
 30
0.0
 10
120.613
 20
53.9352
 30
0.0
 10
111.6177
 20
48.6557
 30
0.0
 10
111.6177
 20
48.6557
 30
0.0
 10
111.6177
 20
48.6557
 30
0.0
 10
110.9153
 20
48.3651
 30
0.0
 10
110.833
 20
47.0611
 30
0.0
 10
111.5382
 20
46.6436
 30
0.0
 10
111.5382
 20
46.6436
 30
0.0
 10
111.5382
 20
46.6436
 30
0.0
 10
120.2557
 20
41.3333
 30
0.0
 10
120.2557
 20
41.3333
 30
0.0
 10
120.2557
 20
41.3333
 30
0.0
 10
121.0428
 20
41.0315
 30
0.0
 10
122.2562
 20
41.3411
 30
0.0
 10
122.2562
 20
42.2812
 30
0.0
 10
122.2562
 20
42.2812
 30
0.0
 10
122.2562
 20
42.2812
 30
0.0
 10
122.2294
 20
52.8255
 30
0.0
 10
122.2294
 20
52.8255
 30
0.0
  0
SPLINE
  5
5C
330
1F
100
AcDbEntity
  8
layer 1
 62
     7
100
AcDbSpline
210
0.0
220
0.0
230
1.0
 70
    11
 71
     3
 72
    28
 73
    24
 74
     0
 42
0.0000000001
 43
0.0000000001
 12
1.0
 22
0.0
 32
0.0
 13
1.0
 23
0.0
 33
0.0
 40
0.0
 40
0.0
 40
0.0
 40
0.0
 40
0.1428571428571428
 40
0.1428571428571428
 40
0.1428571428571428
 40
0.1428571428571428
 40
0.2857142857142857
 40
0.2857142857142857
 40
0.2857142857142857
 40
0.2857142857142857
 40
0.4285714285714285
 40
0.4285714285714285
 40
0.4285714285714285
 40
0.4285714285714285
 40
0.5714285714285714
 40
0.5714285714285714
 40
0.5714285714285714
 40
0.5714285714285714
 40
0.7142857142857143
 40
0.7142857142857143
 40
0.7142857142857143
 40
0.7142857142857143
 40
1.0
 40
1.0
 40
1.0
 40
1.0
 10
155.829
 20
52.9012
 30
0.0
 10
155.829
 20
53.9646
 30
0.0
 10
154.7349
 20
54.2917
 30
0.0
 10
154.2126
 20
54.0109
 30
0.0
 10
154.2126
 20
54.0109
 30
0.0
 10
154.2126
 20
54.0109
 30
0.0
 10
145.2173
 20
48.7313
 30
0.0
 10
145.2173
 20
48.7313
 30
0.0
 10
145.2173
 20
48.7313
 30
0.0
 10
144.5148
 20
48.4408
 30
0.0
 10
144.4326
 20
47.1368
 30
0.0
 10
145.1377
 20
46.7192
 30
0.0
 10
145.1377
 20
46.7192
 30
0.0
 10
145.1377
 20
46.7192
 30
0.0
 10
153.8552
 20
41.4089
 30
0.0
 10
153.8552
 20
41.4089
 30
0.0
 10
153.8552
 20
41.4089
 30
0.0
 10
154.6423
 20
41.1072
 30
0.0
 10
155.8557
 20
41.4168
 30
0.0
 10
155.8557
 20
42.3569
 30
0.0
 10
155.8557
 20
42.3569
 30
0.0
 10
155.8557
 20
42.3569
 30
0.0
 10
155.829
 20
52.9012
 30
0.0
 10
155.829
 20
52.9012
 30
0.0
  0
SPLINE
  5
5D
330
1F
100
AcDbEntity
  8
layer 1
 62
     7
100
AcDbSpline
210
0.0
220
0.0
230
1.0
 70
    11
 71
     3
 72
    28
 73
    24
 74
     0
 42
0.0000000001
 43
0.0000000001
 12
1.0
 22
0.0
 32
0.0
 13
1.0
 23
0.0
 33
0.0
 40
0.0
 40
0.0
 40
0.0
 40
0.0
 40
0.1428571428571428
 40
0.1428571428571428
 40
0.1428571428571428
 40
0.1428571428571428
 40
0.2857142857142857
 40
0.2857142857142857
 40
0.2857142857142857
 40
0.2857142857142857
 40
0.4285714285714285
 40
0.4285714285714285
 40
0.4285714285714285
 40
0.4285714285714285
 40
0.5714285714285714
 40
0.5714285714285714
 40
0.5714285714285714
 40
0.5714285714285714
 40
0.7142857142857143
 40
0.7142857142857143
 40
0.7142857142857143
 40
0.7142857142857143
 40
1.0
 40
1.0
 40
1.0
 40
1.0
 10
189.4285
 20
52.9012
 30
0.0
 10
189.4285
 20
53.9646
 30
0.0
 10
188.3344
 20
54.2917
 30
0.0
 10
187.8121
 20
54.0109
 30
0.0
 10
187.8121
 20
54.0109
 30
0.0
 10
187.8121
 20
54.0109
 30
0.0
 10
178.8168
 20
48.7313
 30
0.0
 10
178.8168
 20
48.7313
 30
0.0
 10
178.8168
 20
48.7313
 30
0.0
 10
178.1144
 20
48.4408
 30
0.0
 10
178.0321
 20
47.1368
 30
0.0
 10
178.7373
 20
46.7192
 30
0.0
 10
178.7373
 20
46.7192
 30
0.0
 10
178.7373
 20
46.7192
 30
0.0
 10
187.4548
 20
41.4089
 30
0.0
 10
187.4548
 20
41.4089
 30
0.0
 10
187.4548
 20
41.4089
 30
0.0
 10
188.2419
 20
41.1072
 30
0.0
 10
189.4553
 20
41.4168
 30
0.0
 10
189.4553
 20
42.3569
 30
0.0
 10
189.4553
 20
42.3569
 30
0.0
 10
189.4553
 20
42.3569
 30
0.0
 10
189.4285
 20
52.9012
 30
0.0
 10
189.4285
 20
52.9012
 30
0.0
  0
SPLINE
  5
5E
330
1F
100
AcDbEntity
  8
layer 1
 62
     7
100
AcDbSpline
210
0.0
220
0.0
230
1.0
 70
    11
 71
     3
 72
    28
 73
    24
 74
     0
 42
0.0000000001
 43
0.0000000001
 12
1.0
 22
0.0
 32
0.0
 13
1.0
 23
0.0
 33
0.0
 40
0.0
 40
0.0
 40
0.0
 40
0.0
 40
0.1428571428571428
 40
0.1428571428571428
 40
0.1428571428571428
 40
0.1428571428571428
 40
0.2857142857142857
 40
0.2857142857142857
 40
0.2857142857142857
 40
0.2857142857142857
 40
0.4285714285714285
 40
0.4285714285714285
 40
0.4285714285714285
 40
0.4285714285714285
 40
0.5714285714285714
 40
0.5714285714285714
 40
0.5714285714285714
 40
0.5714285714285714
 40
0.7142857142857143
 40
0.7142857142857143
 40
0.7142857142857143
 40
0.7142857142857143
 40
1.0
 40
1.0
 40
1.0
 40
1.0
 10
122.2294
 20
33.1338
 30
0.0
 10
122.2294
 20
34.1972
 30
0.0
 10
121.1353
 20
34.5243
 30
0.0
 10
120.613
 20
34.2435
 30
0.0
 10
120.613
 20
34.2435
 30
0.0
 10
120.613
 20
34.2435
 30
0.0
 10
111.6177
 20
28.9639
 30
0.0
 10
111.6177
 20
28.9639
 30
0.0
 10
111.6177
 20
28.9639
 30
0.0
 10
110.9153
 20
28.6734
 30
0.0
 10
110.833
 20
27.3694
 30
0.0
 10
111.5382
 20
26.9518
 30
0.0
 10
111.5382
 20
26.9518
 30
0.0
 10
111.5382
 20
26.9518
 30
0.0
 10
120.2557
 20
21.6415
 30
0.0
 10
120.2557
 20
21.6415
 30
0.0
 10
120.2557
 20
21.6415
 30
0.0
 10
121.0428
 20
21.3398
 30
0.0
 10
122.2562
 20
21.6494
 30
0.0
 10
122.2562
 20
22.5895
 30
0.0
 10
122.2562
 20
22.5895
 30
0.0
 10
122.2562
 20
22.5895
 30
0.0
 10
122.2294
 20
33.1338
 30
0.0
 10
122.2294
 20
33.1338
 30
0.0
  0
SPLINE
  5
5F
330
1F
100
AcDbEntity
  8
layer 1
 62
     7
100
AcDbSpline
210
0.0
220
0.0
230
1.0
 70
    11
 71
     3
 72
    28
 73
    24
 74
     0
 42
0.0000000001
 43
0.0000000001
 12
1.0
 22
0.0
 32
0.0
 13
1.0
 23
0.0
 33
0.0
 40
0.0
 40
0.0
 40
0.0
 40
0.0
 40
0.1428571428571428
 40
0.1428571428571428
 40
0.1428571428571428
 40
0.1428571428571428
 40
0.2857142857142857
 40
0.2857142857142857
 40
0.2857142857142857
 40
0.2857142857142857
 40
0.4285714285714285
 40
0.4285714285714285
 40
0.4285714285714285
 40
0.4285714285714285
 40
0.5714285714285714
 40
0.5714285714285714
 40
0.5714285714285714
 40
0.5714285714285714
 40
0.7142857142857143
 40
0.7142857142857143
 40
0.7142857142857143
 40
0.7142857142857143
 40
1.0
 40
1.0
 40
1.0
 40
1.0
 10
155.829
 20
33.2095
 30
0.0
 10
155.829
 20
34.2729
 30
0.0
 10
154.7349
 20
34.6
 30
0.0
 10
154.2126
 20
34.3192
 30
0.0
 10
154.2126
 20
34.3192
 30
0.0
 10
154.2126
 20
34.3192
 30
0.0
 10
145.2173
 20
29.0396
 30
0.0
 10
145.2173
 20
29.0396
 30
0.0
 10
145.2173
 20
29.0396
 30
0.0
 10
144.5148
 20
28.7491
 30
0.0
 10
144.4326
 20
27.4451
 30
0.0
 10
145.1377
 20
27.0275
 30
0.0
 10
145.1377
 20
27.0275
 30
0.0
 10
145.1377
 20
27.0275
 30
0.0
 10
153.8552
 20
21.7173
 30
0.0
 10
153.8552
 20
21.7173
 30
0.0
 10
153.8552
 20
21.7173
 30
0.0
 10
154.6423
 20
21.4155
 30
0.0
 10
155.8557
 20
21.7251
 30
0.0
 10
155.8557
 20
22.6652
 30
0.0
 10
155.8557
 20
22.6652
 30
0.0
 10
155.8557
 20
22.6652
 30
0.0
 10
155.829
 20
33.2095
 30
0.0
 10
155.829
 20
33.2095
 30
0.0
  0
SPLINE
  5
60
330
1F
100
AcDbEntity
  8
layer 1
 62
     7
100
AcDbSpline
210
0.0
220
0.0
230
1.0
 70
    11
 71
     3
 72
    28
 73
    24
 74
     0
 42
0.0000000001
 43
0.0000000001
 12
1.0
 22
0.0
 32
0.0
 13
1.0
 23
0.0
 33
0.0
 40
0.0
 40
0.0
 40
0.0
 40
0.0
 40
0.1428571428571428
 40
0.1428571428571428
 40
0.1428571428571428
 40
0.1428571428571428
 40
0.2857142857142857
 40
0.2857142857142857
 40
0.2857142857142857
 40
0.2857142857142857
 40
0.4285714285714285
 40
0.4285714285714285
 40
0.4285714285714285
 40
0.4285714285714285
 40
0.5714285714285714
 40
0.5714285714285714
 40
0.5714285714285714
 40
0.5714285714285714
 40
0.7142857142857143
 40
0.7142857142857143
 40
0.7142857142857143
 40
0.7142857142857143
 40
1.0
 40
1.0
 40
1.0
 40
1.0
 10
189.4285
 20
33.2095
 30
0.0
 10
189.4285
 20
34.2729
 30
0.0
 10
188.3344
 20
34.6
 30
0.0
 10
187.8121
 20
34.3192
 30
0.0
 10
187.8121
 20
34.3192
 30
0.0
 10
187.8121
 20
34.3192
 30
0.0
 10
178.8168
 20
29.0396
 30
0.0
 10
178.8168
 20
29.0396
 30
0.0
 10
178.8168
 20
29.0396
 30
0.0
 10
178.1144
 20
28.7491
 30
0.0
 10
178.0321
 20
27.4451
 30
0.0
 10
178.7373
 20
27.0275
 30
0.0
 10
178.7373
 20
27.0275
 30
0.0
 10
178.7373
 20
27.0275
 30
0.0
 10
187.4548
 20
21.7173
 30
0.0
 10
187.4548
 20
21.7173
 30
0.0
 10
187.4548
 20
21.7173
 30
0.0
 10
188.2419
 20
21.4155
 30
0.0
 10
189.4553
 20
21.7251
 30
0.0
 10
189.4553
 20
22.6652
 30
0.0
 10
189.4553
 20
22.6652
 30
0.0
 10
189.4553
 20
22.6652
 30
0.0
 10
189.4285
 20
33.2095
 30
0.0
 10
189.4285
 20
33.2095
 30
0.0
  0
SPLINE
  5
61
330
1F
100
AcDbEntity
  8
layer 1
 62
     7
100
AcDbSpline
210
0.0
220
0.0
230
1.0
 70
    11
 71
     3
 72
    32
 73
    28
 74
     0
 42
0.0000000001
 43
0.0000000001
 12
1.0
 22
0.0
 32
0.0
 13
1.0
 23
0.0
 33
0.0
 40
0.0
 40
0.0
 40
0.0
 40
0.0
 40
0.125
 40
0.125
 40
0.125
 40
0.125
 40
0.25
 40
0.25
 40
0.25
 40
0.25
 40
0.375
 40
0.375
 40
0.375
 40
0.375
 40
0.5
 40
0.5
 40
0.5
 40
0.5
 40
0.625
 40
0.625
 40
0.625
 40
0.625
 40
0.75
 40
0.75
 40
0.75
 40
0.75
 40
1.0
 40
1.0
 40
1.0
 40
1.0
 10
141.6848
 20
-6.1939
 30
0.0
 10
141.6848
 20
-6.1939
 30
0.0
 10
141.6848
 20
22.8458
 30
0.0
 10
141.6848
 20
22.8458
 30
0.0
 10
141.6848
 20
22.8458
 30
0.0
 10
141.6848
 20
25.4157
 30
0.0
 10
144.0137
 20
24.5898
 30
0.0
 10
144.7367
 20
24.2991
 30
0.0
 10
144.7367
 20
24.2991
 30
0.0
 10
144.7367
 20
24.2991
 30
0.0
 10
169.6259
 20
9.6644
 30
0.0
 10
169.6259
 20
9.6644
 30
0.0
 10
169.6259
 20
9.6644
 30
0.0
 10
170.8117
 20
8.9623
 30
0.0
 10
170.9541
 20
7.4273
 30
0.0
 10
169.6239
 20
6.7414
 30
0.0
 10
169.6239
 20
6.7414
 30
0.0
 10
169.6239
 20
6.7414
 30
0.0
 10
144.8987
 20
-7.7088
 30
0.0
 10
144.8987
 20
-7.7088
 30
0.0
 10
144.8987
 20
-7.7088
 30
0.0
 10
143.4268
 20
-8.3735
 30
0.0
 10
141.6848
 20
-8.4657
 30
0.0
 10
141.6848
 20
-6.1938
 30
0.0
 10
141.6848
 20
-6.1938
 30
0.0
 10
141.6848
 20
-6.1938
 30
0.0
 10
141.6848
 20
-6.1939
 30
0.0
 10
141.6848
 20
-6.1939
 30
0.0
  0
SPLINE
  5
62
330
1F
100
AcDbEntity
  8
layer 1
 62
     7
100
AcDbSpline
210
0.0
220
0.0
230
1.0
 70
    11
 71
     3
 72
    36
 73
    32
 74
     0
 42
0.0000000001
 43
0.0000000001
 12
1.0
 22
0.0
 32
0.0
 13
1.0
 23
0.0
 33
0.0
 40
0.0
 40
0.0
 40
0.0
 40
0.0
 40
0.1111111111111111
 40
0.1111111111111111
 40
0.1111111111111111
 40
0.1111111111111111
 40
0.2222222222222222
 40
0.2222222222222222
 40
0.2222222222222222
 40
0.2222222222222222
 40
0.3333333333333333
 40
0.3333333333333333
 40
0.3333333333333333
 40
0.3333333333333333
 40
0.4444444444444444
 40
0.4444444444444444
 40
0.4444444444444444
 40
0.4444444444444444
 40
0.5555555555555556
 40
0.5555555555555556
 40
0.5555555555555556
 40
0.5555555555555556
 40
0.6666666666666666
 40
0.6666666666666666
 40
0.6666666666666666
 40
0.6666666666666666
 40
0.7777777777777778
 40
0.7777777777777778
 40
0.7777777777777778
 40
0.7777777777777778
 40
1.0
 40
1.0
 40
1.0
 40
1.0
 10
175.4975
 20
-6.1939
 30
0.0
 10
175.4975
 20
-6.1939
 30
0.0
 10
175.4975
 20
22.8458
 30
0.0
 10
175.4975
 20
22.8458
 30
0.0
 10
175.4975
 20
22.8458
 30
0.0
 10
175.4975
 20
25.4157
 30
0.0
 10
177.8264
 20
24.5898
 30
0.0
 10
178.5494
 20
24.2991
 30
0.0
 10
178.5494
 20
24.2991
 30
0.0
 10
178.5494
 20
24.2991
 30
0.0
 10
186.8215
 20
19.1693
 30
0.0
 10
188.6122
 20
18.1424
 30
0.0
 10
188.6122
 20
18.1424
 30
0.0
 10
189.4428
 20
17.5614
 30
0.0
 10
189.7807
 20
16.9766
 30
0.0
 10
189.7221
 20
15.7682
 30
0.0
 10
189.7221
 20
15.7682
 30
0.0
 10
189.6634
 20
13.4283
 30
0.0
 10
189.6994
 20
3.0036
 30
0.0
 10
189.6858
 20
0.7061
 30
0.0
 10
189.6858
 20
0.7061
 30
0.0
 10
189.7752
 20
-0.6656
 30
0.0
 10
189.3793
 20
-1.1595
 30
0.0
 10
188.5994
 20
-1.7372
 30
0.0
 10
188.5994
 20
-1.7372
 30
0.0
 10
186.8936
 20
-2.7263
 30
0.0
 10
178.7114
 20
-7.7089
 30
0.0
 10
178.7114
 20
-7.7089
 30
0.0
 10
178.7114
 20
-7.7089
 30
0.0
 10
177.2395
 20
-8.3735
 30
0.0
 10
175.4975
 20
-8.4657
 30
0.0
 10
175.4975
 20
-6.1939
 30
0.0
  0
SPLINE
  5
63
330
1F
100
AcDbEntity
  8
layer 1
 62
     7
100
AcDbSpline
210
0.0
220
0.0
230
1.0
 70
    11
 71
     3
 72
    28
 73
    24
 74
     0
 42
0.0000000001
 43
0.0000000001
 12
1.0
 22
0.0
 32
0.0
 13
1.0
 23
0.0
 33
0.0
 40
0.0
 40
0.0
 40
0.0
 40
0.0
 40
0.1428571428571428
 40
0.1428571428571428
 40
0.1428571428571428
 40
0.1428571428571428
 40
0.2857142857142857
 40
0.2857142857142857
 40
0.2857142857142857
 40
0.2857142857142857
 40
0.4285714285714285
 40
0.4285714285714285
 40
0.4285714285714285
 40
0.4285714285714285
 40
0.5714285714285714
 40
0.5714285714285714
 40
0.5714285714285714
 40
0.5714285714285714
 40
0.7142857142857143
 40
0.7142857142857143
 40
0.7142857142857143
 40
0.7142857142857143
 40
1.0
 40
1.0
 40
1.0
 40
1.0
 10
139.0316
 20
23.288
 30
0.0
 10
139.0316
 20
24.3514
 30
0.0
 10
137.9375
 20
24.6785
 30
0.0
 10
137.4152
 20
24.3977
 30
0.0
 10
137.4152
 20
24.3977
 30
0.0
 10
137.4152
 20
24.3977
 30
0.0
 10
128.4199
 20
19.1181
 30
0.0
 10
128.4199
 20
19.1181
 30
0.0
 10
128.4199
 20
19.1181
 30
0.0
 10
127.7174
 20
18.8276
 30
0.0
 10
127.6352
 20
17.5236
 30
0.0
 10
128.3404
 20
17.106
 30
0.0
 10
128.3404
 20
17.106
 30
0.0
 10
128.3404
 20
17.106
 30
0.0
 10
137.0578
 20
11.7957
 30
0.0
 10
137.0578
 20
11.7957
 30
0.0
 10
137.0578
 20
11.7957
 30
0.0
 10
137.845
 20
11.494
 30
0.0
 10
139.0584
 20
11.8036
 30
0.0
 10
139.0584
 20
12.7437
 30
0.0
 10
139.0584
 20
12.7437
 30
0.0
 10
139.0584
 20
12.7437
 30
0.0
 10
139.0316
 20
23.288
 30
0.0
 10
139.0316
 20
23.288
 30
0.0
  0
SPLINE
  5
64
330
1F
100
AcDbEntity
  8
layer 1
 62
     7
100
AcDbSpline
210
0.0
220
0.0
230
1.0
 70
    11
 71
     3
 72
    28
 73
    24
 74
     0
 42
0.0000000001
 43
0.0000000001
 12
1.0
 22
0.0
 32
0.0
 13
1.0
 23
0.0
 33
0.0
 40
0.0
 40
0.0
 40
0.0
 40
0.0
 40
0.1428571428571428
 40
0.1428571428571428
 40
0.1428571428571428
 40
0.1428571428571428
 40
0.2857142857142857
 40
0.2857142857142857
 40
0.2857142857142857
 40
0.2857142857142857
 40
0.4285714285714285
 40
0.4285714285714285
 40
0.4285714285714285
 40
0.4285714285714285
 40
0.5714285714285714
 40
0.5714285714285714
 40
0.5714285714285714
 40
0.5714285714285714
 40
0.7142857142857143
 40
0.7142857142857143
 40
0.7142857142857143
 40
0.7142857142857143
 40
1.0
 40
1.0
 40
1.0
 40
1.0
 10
172.6312
 20
23.3636
 30
0.0
 10
172.6312
 20
24.427
 30
0.0
 10
171.5371
 20
24.7542
 30
0.0
 10
171.0148
 20
24.4733
 30
0.0
 10
171.0148
 20
24.4733
 30
0.0
 10
171.0148
 20
24.4733
 30
0.0
 10
162.0194
 20
19.1938
 30
0.0
 10
162.0194
 20
19.1938
 30
0.0
 10
162.0194
 20
19.1938
 30
0.0
 10
161.317
 20
18.9033
 30
0.0
 10
161.2348
 20
17.5992
 30
0.0
 10
161.9399
 20
17.1817
 30
0.0
 10
161.9399
 20
17.1817
 30
0.0
 10
161.9399
 20
17.1817
 30
0.0
 10
170.6574
 20
11.8714
 30
0.0
 10
170.6574
 20
11.8714
 30
0.0
 10
170.6574
 20
11.8714
 30
0.0
 10
171.4445
 20
11.5696
 30
0.0
 10
172.6579
 20
11.8793
 30
0.0
 10
172.6579
 20
12.8193
 30
0.0
 10
172.6579
 20
12.8193
 30
0.0
 10
172.6579
 20
12.8193
 30
0.0
 10
172.6312
 20
23.3636
 30
0.0
 10
172.6312
 20
23.3636
 30
0.0
  0
SPLINE
  5
65
330
1F
100
AcDbEntity
  8
layer 1
 62
     7
100
AcDbSpline
210
0.0
220
0.0
230
1.0
 70
    11
 71
     3
 72
    28
 73
    24
 74
     0
 42
0.0000000001
 43
0.0000000001
 12
1.0
 22
0.0
 32
0.0
 13
1.0
 23
0.0
 33
0.0
 40
0.0
 40
0.0
 40
0.0
 40
0.0
 40
0.1428571428571428
 40
0.1428571428571428
 40
0.1428571428571428
 40
0.1428571428571428
 40
0.2857142857142857
 40
0.2857142857142857
 40
0.2857142857142857
 40
0.2857142857142857
 40
0.4285714285714285
 40
0.4285714285714285
 40
0.4285714285714285
 40
0.4285714285714285
 40
0.5714285714285714
 40
0.5714285714285714
 40
0.5714285714285714
 40
0.5714285714285714
 40
0.7142857142857143
 40
0.7142857142857143
 40
0.7142857142857143
 40
0.7142857142857143
 40
1.0
 40
1.0
 40
1.0
 40
1.0
 10
105.5602
 20
23.3636
 30
0.0
 10
105.5602
 20
24.427
 30
0.0
 10
104.4661
 20
24.7542
 30
0.0
 10
103.9438
 20
24.4733
 30
0.0
 10
103.9438
 20
24.4733
 30
0.0
 10
103.9438
 20
24.4733
 30
0.0
 10
94.9485
 20
19.1938
 30
0.0
 10
94.9485
 20
19.1938
 30
0.0
 10
94.9485
 20
19.1938
 30
0.0
 10
94.246
 20
18.9033
 30
0.0
 10
94.1638
 20
17.5992
 30
0.0
 10
94.869
 20
17.1817
 30
0.0
 10
94.869
 20
17.1817
 30
0.0
 10
94.869
 20
17.1817
 30
0.0
 10
103.5864
 20
11.8714
 30
0.0
 10
103.5864
 20
11.8714
 30
0.0
 10
103.5864
 20
11.8714
 30
0.0
 10
104.3736
 20
11.5696
 30
0.0
 10
105.5869
 20
11.8793
 30
0.0
 10
105.5869
 20
12.8193
 30
0.0
 10
105.5869
 20
12.8193
 30
0.0
 10
105.5869
 20
12.8193
 30
0.0
 10
105.5602
 20
23.3636
 30
0.0
 10
105.5602
 20
23.3636
 30
0.0
  0
SPLINE
  5
66
330
1F
100
AcDbEntity
  8
layer 1
 62
     7
100
AcDbSpline
210
0.0
220
0.0
230
1.0
 70
    11
 71
     3
 72
    32
 73
    28
 74
     0
 42
0.0000000001
 43
0.0000000001
 12
1.0
 22
0.0
 32
0.0
 13
1.0
 23
0.0
 33
0.0
 40
0.0
 40
0.0
 40
0.0
 40
0.0
 40
0.125
 40
0.125
 40
0.125
 40
0.125
 40
0.25
 40
0.25
 40
0.25
 40
0.25
 40
0.375
 40
0.375
 40
0.375
 40
0.375
 40
0.5
 40
0.5
 40
0.5
 40
0.5
 40
0.625
 40
0.625
 40
0.625
 40
0.625
 40
0.75
 40
0.75
 40
0.75
 40
0.75
 40
1.0
 40
1.0
 40
1.0
 40
1.0
 10
139.0584
 20
-7.7508
 30
0.0
 10
139.0584
 20
-7.7508
 30
0.0
 10
139.0316
 20
3.5963
 30
0.0
 10
139.0316
 20
3.5963
 30
0.0
 10
139.0316
 20
3.5963
 30
0.0
 10
139.0316
 20
4.6596
 30
0.0
 10
137.9375
 20
4.9868
 30
0.0
 10
137.4152
 20
4.7059
 30
0.0
 10
137.4152
 20
4.7059
 30
0.0
 10
137.4152
 20
4.7059
 30
0.0
 10
128.4199
 20
-0.5736
 30
0.0
 10
128.4199
 20
-0.5736
 30
0.0
 10
128.4199
 20
-0.5736
 30
0.0
 10
127.7174
 20
-0.8641
 30
0.0
 10
127.6352
 20
-2.1682
 30
0.0
 10
128.3404
 20
-2.5857
 30
0.0
 10
128.3404
 20
-2.5857
 30
0.0
 10
128.3404
 20
-2.5857
 30
0.0
 10
137.0578
 20
-7.896
 30
0.0
 10
137.0578
 20
-7.896
 30
0.0
 10
137.0578
 20
-7.896
 30
0.0
 10
137.845
 20
-8.1978
 30
0.0
 10
139.0584
 20
-7.8881
 30
0.0
 10
139.0584
 20
-6.9481
 30
0.0
 10
139.0584
 20
-6.9481
 30
0.0
 10
139.0584
 20
-6.9481
 30
0.0
 10
139.0584
 20
-7.7508
 30
0.0
 10
139.0584
 20
-7.7508
 30
0.0
  0
SPLINE
  5
67
330
1F
100
AcDbEntity
  8
layer 1
 62
     7
100
AcDbSpline
210
0.0
220
0.0
230
1.0
 70
    11
 71
     3
 72
    32
 73
    28
 74
     0
 42
0.0000000001
 43
0.0000000001
 12
1.0
 22
0.0
 32
0.0
 13
1.0
 23
0.0
 33
0.0
 40
0.0
 40
0.0
 40
0.0
 40
0.0
 40
0.125
 40
0.125
 40
0.125
 40
0.125
 40
0.25
 40
0.25
 40
0.25
 40
0.25
 40
0.375
 40
0.375
 40
0.375
 40
0.375
 40
0.5
 40
0.5
 40
0.5
 40
0.5
 40
0.625
 40
0.625
 40
0.625
 40
0.625
 40
0.75
 40
0.75
 40
0.75
 40
0.75
 40
1.0
 40
1.0
 40
1.0
 40
1.0
 10
172.6579
 20
-7.6751
 30
0.0
 10
172.6579
 20
-7.6751
 30
0.0
 10
172.6312
 20
3.6719
 30
0.0
 10
172.6312
 20
3.6719
 30
0.0
 10
172.6312
 20
3.6719
 30
0.0
 10
172.6312
 20
4.7353
 30
0.0
 10
171.5371
 20
5.0624
 30
0.0
 10
171.0148
 20
4.7816
 30
0.0
 10
171.0148
 20
4.7816
 30
0.0
 10
171.0148
 20
4.7816
 30
0.0
 10
162.0194
 20
-0.498
 30
0.0
 10
162.0194
 20
-0.498
 30
0.0
 10
162.0194
 20
-0.498
 30
0.0
 10
161.317
 20
-0.7885
 30
0.0
 10
161.2348
 20
-2.0925
 30
0.0
 10
161.9399
 20
-2.5101
 30
0.0
 10
161.9399
 20
-2.5101
 30
0.0
 10
161.9399
 20
-2.5101
 30
0.0
 10
170.6574
 20
-7.8204
 30
0.0
 10
170.6574
 20
-7.8204
 30
0.0
 10
170.6574
 20
-7.8204
 30
0.0
 10
171.4445
 20
-8.1221
 30
0.0
 10
172.6579
 20
-7.8125
 30
0.0
 10
172.6579
 20
-6.8724
 30
0.0
 10
172.6579
 20
-6.8724
 30
0.0
 10
172.6579
 20
-6.8724
 30
0.0
 10
172.6579
 20
-7.6751
 30
0.0
 10
172.6579
 20
-7.6751
 30
0.0
  0
SPLINE
  5
68
330
1F
100
AcDbEntity
  8
layer 1
 62
     7
100
AcDbSpline
210
0.0
220
0.0
230
1.0
 70
    11
 71
     3
 72
    28
 73
    24
 74
     0
 42
0.0000000001
 43
0.0000000001
 12
1.0
 22
0.0
 32
0.0
 13
1.0
 23
0.0
 33
0.0
 40
0.0
 40
0.0
 40
0.0
 40
0.0
 40
0.1428571428571428
 40
0.1428571428571428
 40
0.1428571428571428
 40
0.1428571428571428
 40
0.2857142857142857
 40
0.2857142857142857
 40
0.2857142857142857
 40
0.2857142857142857
 40
0.4285714285714285
 40
0.4285714285714285
 40
0.4285714285714285
 40
0.4285714285714285
 40
0.5714285714285714
 40
0.5714285714285714
 40
0.5714285714285714
 40
0.5714285714285714
 40
0.7142857142857143
 40
0.7142857142857143
 40
0.7142857142857143
 40
0.7142857142857143
 40
1.0
 40
1.0
 40
1.0
 40
1.0
 10
105.5602
 20
3.672
 30
0.0
 10
105.5602
 20
4.7353
 30
0.0
 10
104.4661
 20
5.0625
 30
0.0
 10
103.9438
 20
4.7816
 30
0.0
 10
103.9438
 20
4.7816
 30
0.0
 10
103.9438
 20
4.7816
 30
0.0
 10
94.9485
 20
-0.4979
 30
0.0
 10
94.9485
 20
-0.4979
 30
0.0
 10
94.9485
 20
-0.4979
 30
0.0
 10
94.246
 20
-0.7884
 30
0.0
 10
94.1638
 20
-2.0925
 30
0.0
 10
94.869
 20
-2.51
 30
0.0
 10
94.869
 20
-2.51
 30
0.0
 10
94.869
 20
-2.51
 30
0.0
 10
103.5864
 20
-7.8203
 30
0.0
 10
103.5864
 20
-7.8203
 30
0.0
 10
103.5864
 20
-7.8203
 30
0.0
 10
104.3736
 20
-8.1221
 30
0.0
 10
105.5869
 20
-7.8124
 30
0.0
 10
105.5869
 20
-6.8724
 30
0.0
 10
105.5869
 20
-6.8724
 30
0.0
 10
105.5869
 20
-6.8724
 30
0.0
 10
105.5602
 20
3.672
 30
0.0
 10
105.5602
 20
3.672
 30
0.0
  0
SPLINE
  5
69
330
1F
100
AcDbEntity
  8
layer 1
 62
     7
100
AcDbSpline
210
0.0
220
0.0
230
1.0
 70
    11
 71
     3
 72
    28
 73
    24
 74
     0
 42
0.0000000001
 43
0.0000000001
 12
1.0
 22
0.0
 32
0.0
 13
1.0
 23
0.0
 33
0.0
 40
0.0
 40
0.0
 40
0.0
 40
0.0
 40
0.1428571428571428
 40
0.1428571428571428
 40
0.1428571428571428
 40
0.1428571428571428
 40
0.2857142857142857
 40
0.2857142857142857
 40
0.2857142857142857
 40
0.2857142857142857
 40
0.4285714285714285
 40
0.4285714285714285
 40
0.4285714285714285
 40
0.4285714285714285
 40
0.5714285714285714
 40
0.5714285714285714
 40
0.5714285714285714
 40
0.5714285714285714
 40
0.7142857142857143
 40
0.7142857142857143
 40
0.7142857142857143
 40
0.7142857142857143
 40
1.0
 40
1.0
 40
1.0
 40
1.0
 10
91.8435
 20
13.5206
 30
0.0
 10
91.8435
 20
14.584
 30
0.0
 10
92.9377
 20
14.9111
 30
0.0
 10
93.46
 20
14.6303
 30
0.0
 10
93.46
 20
14.6303
 30
0.0
 10
93.46
 20
14.6303
 30
0.0
 10
102.4553
 20
9.3507
 30
0.0
 10
102.4553
 20
9.3507
 30
0.0
 10
102.4553
 20
9.3507
 30
0.0
 10
103.1577
 20
9.0602
 30
0.0
 10
103.24
 20
7.7562
 30
0.0
 10
102.5348
 20
7.3386
 30
0.0
 10
102.5348
 20
7.3386
 30
0.0
 10
102.5348
 20
7.3386
 30
0.0
 10
93.8173
 20
2.0283
 30
0.0
 10
93.8173
 20
2.0283
 30
0.0
 10
93.8173
 20
2.0283
 30
0.0
 10
93.0302
 20
1.7266
 30
0.0
 10
91.8168
 20
2.0362
 30
0.0
 10
91.8168
 20
2.9763
 30
0.0
 10
91.8168
 20
2.9763
 30
0.0
 10
91.8168
 20
2.9763
 30
0.0
 10
91.8435
 20
13.5206
 30
0.0
 10
91.8435
 20
13.5206
 30
0.0
  0
SPLINE
  5
6A
330
1F
100
AcDbEntity
  8
layer 1
 62
     7
100
AcDbSpline
210
0.0
220
0.0
230
1.0
 70
    11
 71
     3
 72
    32
 73
    28
 74
     0
 42
0.0000000001
 43
0.0000000001
 12
1.0
 22
0.0
 32
0.0
 13
1.0
 23
0.0
 33
0.0
 40
0.0
 40
0.0
 40
0.0
 40
0.0
 40
0.125
 40
0.125
 40
0.125
 40
0.125
 40
0.25
 40
0.25
 40
0.25
 40
0.25
 40
0.375
 40
0.375
 40
0.375
 40
0.375
 40
0.5
 40
0.5
 40
0.5
 40
0.5
 40
0.625
 40
0.625
 40
0.625
 40
0.625
 40
0.75
 40
0.75
 40
0.75
 40
0.75
 40
1.0
 40
1.0
 40
1.0
 40
1.0
 10
107.9322
 20
-6.1939
 30
0.0
 10
107.9322
 20
-6.1939
 30
0.0
 10
107.9322
 20
22.8458
 30
0.0
 10
107.9322
 20
22.8458
 30
0.0
 10
107.9322
 20
22.8458
 30
0.0
 10
107.9322
 20
25.4157
 30
0.0
 10
110.2612
 20
24.5898
 30
0.0
 10
110.9842
 20
24.2991
 30
0.0
 10
110.9842
 20
24.2991
 30
0.0
 10
110.9842
 20
24.2991
 30
0.0
 10
135.8734
 20
9.6644
 30
0.0
 10
135.8734
 20
9.6644
 30
0.0
 10
135.8734
 20
9.6644
 30
0.0
 10
137.0591
 20
8.9623
 30
0.0
 10
137.2016
 20
7.4273
 30
0.0
 10
135.8714
 20
6.7414
 30
0.0
 10
135.8714
 20
6.7414
 30
0.0
 10
135.8714
 20
6.7414
 30
0.0
 10
111.1461
 20
-7.7088
 30
0.0
 10
111.1461
 20
-7.7088
 30
0.0
 10
111.1461
 20
-7.7088
 30
0.0
 10
109.6743
 20
-8.3735
 30
0.0
 10
107.9322
 20
-8.4657
 30
0.0
 10
107.9322
 20
-6.1938
 30
0.0
 10
107.9322
 20
-6.1938
 30
0.0
 10
107.9322
 20
-6.1938
 30
0.0
 10
107.9322
 20
-6.1939
 30
0.0
 10
107.9322
 20
-6.1939
 30
0.0
  0
SPLINE
  5
6B
330
1F
100
AcDbEntity
  8
layer 1
 62
     7
100
AcDbSpline
210
0.0
220
0.0
230
1.0
 70
    11
 71
     3
 72
    28
 73
    24
 74
     0
 42
0.0000000001
 43
0.0000000001
 12
1.0
 22
0.0
 32
0.0
 13
1.0
 23
0.0
 33
0.0
 40
0.0
 40
0.0
 40
0.0
 40
0.0
 40
0.1428571428571428
 40
0.1428571428571428
 40
0.1428571428571428
 40
0.1428571428571428
 40
0.2857142857142857
 40
0.2857142857142857
 40
0.2857142857142857
 40
0.2857142857142857
 40
0.4285714285714285
 40
0.4285714285714285
 40
0.4285714285714285
 40
0.4285714285714285
 40
0.5714285714285714
 40
0.5714285714285714
 40
0.5714285714285714
 40
0.5714285714285714
 40
0.7142857142857143
 40
0.7142857142857143
 40
0.7142857142857143
 40
0.7142857142857143
 40
1.0
 40
1.0
 40
1.0
 40
1.0
 10
90.9807
 20
-35.4323
 30
0.0
 10
90.9807
 20
-35.4323
 30
0.0
 10
90.9807
 20
-6.3927
 30
0.0
 10
90.9807
 20
-6.3927
 30
0.0
 10
90.9807
 20
-6.3927
 30
0.0
 10
90.9807
 20
-3.8227
 30
0.0
 10
93.3097
 20
-4.6487
 30
0.0
 10
94.0327
 20
-4.9394
 30
0.0
 10
94.0327
 20
-4.9394
 30
0.0
 10
94.0327
 20
-4.9394
 30
0.0
 10
118.9218
 20
-19.574
 30
0.0
 10
118.9218
 20
-19.574
 30
0.0
 10
118.9218
 20
-19.574
 30
0.0
 10
120.1076
 20
-20.2762
 30
0.0
 10
120.25
 20
-21.8112
 30
0.0
 10
118.9199
 20
-22.4971
 30
0.0
 10
118.9199
 20
-22.4971
 30
0.0
 10
118.9199
 20
-22.4971
 30
0.0
 10
94.1946
 20
-36.9473
 30
0.0
 10
94.1946
 20
-36.9473
 30
0.0
 10
94.1946
 20
-36.9473
 30
0.0
 10
92.7228
 20
-37.612
 30
0.0
 10
90.9807
 20
-37.7042
 30
0.0
 10
90.9807
 20
-35.4323
 30
0.0
  0
SPLINE
  5
6C
330
1F
100
AcDbEntity
  8
layer 1
 62
     7
100
AcDbSpline
210
0.0
220
0.0
230
1.0
 70
    11
 71
     3
 72
    28
 73
    24
 74
     0
 42
0.0000000001
 43
0.0000000001
 12
1.0
 22
0.0
 32
0.0
 13
1.0
 23
0.0
 33
0.0
 40
0.0
 40
0.0
 40
0.0
 40
0.0
 40
0.1428571428571428
 40
0.1428571428571428
 40
0.1428571428571428
 40
0.1428571428571428
 40
0.2857142857142857
 40
0.2857142857142857
 40
0.2857142857142857
 40
0.2857142857142857
 40
0.4285714285714285
 40
0.4285714285714285
 40
0.4285714285714285
 40
0.4285714285714285
 40
0.5714285714285714
 40
0.5714285714285714
 40
0.5714285714285714
 40
0.5714285714285714
 40
0.7142857142857143
 40
0.7142857142857143
 40
0.7142857142857143
 40
0.7142857142857143
 40
1.0
 40
1.0
 40
1.0
 40
1.0
 10
124.8826
 20
-35.4323
 30
0.0
 10
124.8826
 20
-35.4323
 30
0.0
 10
124.8826
 20
-6.3927
 30
0.0
 10
124.8826
 20
-6.3927
 30
0.0
 10
124.8826
 20
-6.3927
 30
0.0
 10
124.8826
 20
-3.8227
 30
0.0
 10
127.2116
 20
-4.6487
 30
0.0
 10
127.9346
 20
-4.9394
 30
0.0
 10
127.9346
 20
-4.9394
 30
0.0
 10
127.9346
 20
-4.9394
 30
0.0
 10
152.8238
 20
-19.574
 30
0.0
 10
152.8238
 20
-19.574
 30
0.0
 10
152.8238
 20
-19.574
 30
0.0
 10
154.0095
 20
-20.2761
 30
0.0
 10
154.152
 20
-21.8111
 30
0.0
 10
152.8218
 20
-22.497
 30
0.0
 10
152.8218
 20
-22.497
 30
0.0
 10
152.8218
 20
-22.497
 30
0.0
 10
128.0965
 20
-36.9473
 30
0.0
 10
128.0965
 20
-36.9473
 30
0.0
 10
128.0965
 20
-36.9473
 30
0.0
 10
126.6247
 20
-37.612
 30
0.0
 10
124.8826
 20
-37.7042
 30
0.0
 10
124.8826
 20
-35.4323
 30
0.0
  0
SPLINE
  5
6D
330
1F
100
AcDbEntity
  8
layer 1
 62
     7
100
AcDbSpline
210
0.0
220
0.0
230
1.0
 70
    11
 71
     3
 72
    32
 73
    28
 74
     0
 42
0.0000000001
 43
0.0000000001
 12
1.0
 22
0.0
 32
0.0
 13
1.0
 23
0.0
 33
0.0
 40
0.0
 40
0.0
 40
0.0
 40
0.0
 40
0.125
 40
0.125
 40
0.125
 40
0.125
 40
0.25
 40
0.25
 40
0.25
 40
0.25
 40
0.375
 40
0.375
 40
0.375
 40
0.375
 40
0.5
 40
0.5
 40
0.5
 40
0.5
 40
0.625
 40
0.625
 40
0.625
 40
0.625
 40
0.75
 40
0.75
 40
0.75
 40
0.75
 40
1.0
 40
1.0
 40
1.0
 40
1.0
 10
158.6953
 20
-35.4323
 30
0.0
 10
158.6953
 20
-35.4323
 30
0.0
 10
158.6953
 20
-6.3927
 30
0.0
 10
158.6953
 20
-6.3927
 30
0.0
 10
158.6953
 20
-6.3927
 30
0.0
 10
158.6953
 20
-3.8227
 30
0.0
 10
161.0243
 20
-4.6487
 30
0.0
 10
161.7473
 20
-4.9394
 30
0.0
 10
161.7473
 20
-4.9394
 30
0.0
 10
161.7473
 20
-4.9394
 30
0.0
 10
186.6364
 20
-19.574
 30
0.0
 10
186.6364
 20
-19.574
 30
0.0
 10
186.6364
 20
-19.574
 30
0.0
 10
187.8222
 20
-20.2761
 30
0.0
 10
187.9646
 20
-21.8111
 30
0.0
 10
186.6345
 20
-22.497
 30
0.0
 10
186.6345
 20
-22.497
 30
0.0
 10
186.6345
 20
-22.497
 30
0.0
 10
161.9092
 20
-36.9473
 30
0.0
 10
161.9092
 20
-36.9473
 30
0.0
 10
161.9092
 20
-36.9473
 30
0.0
 10
160.4374
 20
-37.6119
 30
0.0
 10
158.6953
 20
-37.7041
 30
0.0
 10
158.6953
 20
-35.4323
 30
0.0
 10
158.6953
 20
-35.4323
 30
0.0
 10
158.6953
 20
-35.4323
 30
0.0
 10
158.6953
 20
-35.4323
 30
0.0
 10
158.6953
 20
-35.4323
 30
0.0
  0
SPLINE
  5
6E
330
1F
100
AcDbEntity
  8
layer 1
 62
     7
100
AcDbSpline
210
0.0
220
0.0
230
1.0
 70
    11
 71
     3
 72
    28
 73
    24
 74
     0
 42
0.0000000001
 43
0.0000000001
 12
1.0
 22
0.0
 32
0.0
 13
1.0
 23
0.0
 33
0.0
 40
0.0
 40
0.0
 40
0.0
 40
0.0
 40
0.1428571428571428
 40
0.1428571428571428
 40
0.1428571428571428
 40
0.1428571428571428
 40
0.2857142857142857
 40
0.2857142857142857
 40
0.2857142857142857
 40
0.2857142857142857
 40
0.4285714285714285
 40
0.4285714285714285
 40
0.4285714285714285
 40
0.4285714285714285
 40
0.5714285714285714
 40
0.5714285714285714
 40
0.5714285714285714
 40
0.5714285714285714
 40
0.7142857142857143
 40
0.7142857142857143
 40
0.7142857142857143
 40
0.7142857142857143
 40
1.0
 40
1.0
 40
1.0
 40
1.0
 10
122.2294
 20
-5.9504
 30
0.0
 10
122.2294
 20
-4.8871
 30
0.0
 10
121.1353
 20
-4.5599
 30
0.0
 10
120.613
 20
-4.8408
 30
0.0
 10
120.613
 20
-4.8408
 30
0.0
 10
120.613
 20
-4.8408
 30
0.0
 10
111.6177
 20
-10.1203
 30
0.0
 10
111.6177
 20
-10.1203
 30
0.0
 10
111.6177
 20
-10.1203
 30
0.0
 10
110.9153
 20
-10.4108
 30
0.0
 10
110.833
 20
-11.7149
 30
0.0
 10
111.5382
 20
-12.1324
 30
0.0
 10
111.5382
 20
-12.1324
 30
0.0
 10
111.5382
 20
-12.1324
 30
0.0
 10
120.2557
 20
-17.4427
 30
0.0
 10
120.2557
 20
-17.4427
 30
0.0
 10
120.2557
 20
-17.4427
 30
0.0
 10
121.0428
 20
-17.7445
 30
0.0
 10
122.2562
 20
-17.4348
 30
0.0
 10
122.2562
 20
-16.4948
 30
0.0
 10
122.2562
 20
-16.4948
 30
0.0
 10
122.2562
 20
-16.4948
 30
0.0
 10
122.2294
 20
-5.9504
 30
0.0
 10
122.2294
 20
-5.9504
 30
0.0
  0
SPLINE
  5
6F
330
1F
100
AcDbEntity
  8
layer 1
 62
     7
100
AcDbSpline
210
0.0
220
0.0
230
1.0
 70
    11
 71
     3
 72
    28
 73
    24
 74
     0
 42
0.0000000001
 43
0.0000000001
 12
1.0
 22
0.0
 32
0.0
 13
1.0
 23
0.0
 33
0.0
 40
0.0
 40
0.0
 40
0.0
 40
0.0
 40
0.1428571428571428
 40
0.1428571428571428
 40
0.1428571428571428
 40
0.1428571428571428
 40
0.2857142857142857
 40
0.2857142857142857
 40
0.2857142857142857
 40
0.2857142857142857
 40
0.4285714285714285
 40
0.4285714285714285
 40
0.4285714285714285
 40
0.4285714285714285
 40
0.5714285714285714
 40
0.5714285714285714
 40
0.5714285714285714
 40
0.5714285714285714
 40
0.7142857142857143
 40
0.7142857142857143
 40
0.7142857142857143
 40
0.7142857142857143
 40
1.0
 40
1.0
 40
1.0
 40
1.0
 10
155.829
 20
-5.8748
 30
0.0
 10
155.829
 20
-4.8114
 30
0.0
 10
154.7349
 20
-4.4843
 30
0.0
 10
154.2126
 20
-4.7651
 30
0.0
 10
154.2126
 20
-4.7651
 30
0.0
 10
154.2126
 20
-4.7651
 30
0.0
 10
145.2173
 20
-10.0447
 30
0.0
 10
145.2173
 20
-10.0447
 30
0.0
 10
145.2173
 20
-10.0447
 30
0.0
 10
144.5148
 20
-10.3352
 30
0.0
 10
144.4326
 20
-11.6392
 30
0.0
 10
145.1377
 20
-12.0568
 30
0.0
 10
145.1377
 20
-12.0568
 30
0.0
 10
145.1377
 20
-12.0568
 30
0.0
 10
153.8552
 20
-17.367
 30
0.0
 10
153.8552
 20
-17.367
 30
0.0
 10
153.8552
 20
-17.367
 30
0.0
 10
154.6423
 20
-17.6688
 30
0.0
 10
155.8557
 20
-17.3592
 30
0.0
 10
155.8557
 20
-16.4191
 30
0.0
 10
155.8557
 20
-16.4191
 30
0.0
 10
155.8557
 20
-16.4191
 30
0.0
 10
155.829
 20
-5.8748
 30
0.0
 10
155.829
 20
-5.8748
 30
0.0
  0
SPLINE
  5
70
330
1F
100
AcDbEntity
  8
layer 1
 62
     7
100
AcDbSpline
210
0.0
220
0.0
230
1.0
 70
    11
 71
     3
 72
    28
 73
    24
 74
     0
 42
0.0000000001
 43
0.0000000001
 12
1.0
 22
0.0
 32
0.0
 13
1.0
 23
0.0
 33
0.0
 40
0.0
 40
0.0
 40
0.0
 40
0.0
 40
0.1428571428571428
 40
0.1428571428571428
 40
0.1428571428571428
 40
0.1428571428571428
 40
0.2857142857142857
 40
0.2857142857142857
 40
0.2857142857142857
 40
0.2857142857142857
 40
0.4285714285714285
 40
0.4285714285714285
 40
0.4285714285714285
 40
0.4285714285714285
 40
0.5714285714285714
 40
0.5714285714285714
 40
0.5714285714285714
 40
0.5714285714285714
 40
0.7142857142857143
 40
0.7142857142857143
 40
0.7142857142857143
 40
0.7142857142857143
 40
1.0
 40
1.0
 40
1.0
 40
1.0
 10
189.4285
 20
-5.8748
 30
0.0
 10
189.4285
 20
-4.8114
 30
0.0
 10
188.3344
 20
-4.4843
 30
0.0
 10
187.8121
 20
-4.7651
 30
0.0
 10
187.8121
 20
-4.7651
 30
0.0
 10
187.8121
 20
-4.7651
 30
0.0
 10
178.8168
 20
-10.0447
 30
0.0
 10
178.8168
 20
-10.0447
 30
0.0
 10
178.8168
 20
-10.0447
 30
0.0
 10
178.1144
 20
-10.3352
 30
0.0
 10
178.0321
 20
-11.6392
 30
0.0
 10
178.7373
 20
-12.0568
 30
0.0
 10
178.7373
 20
-12.0568
 30
0.0
 10
178.7373
 20
-12.0568
 30
0.0
 10
187.4548
 20
-17.367
 30
0.0
 10
187.4548
 20
-17.367
 30
0.0
 10
187.4548
 20
-17.367
 30
0.0
 10
188.2419
 20
-17.6688
 30
0.0
 10
189.4553
 20
-17.3592
 30
0.0
 10
189.4553
 20
-16.4191
 30
0.0
 10
189.4553
 20
-16.4191
 30
0.0
 10
189.4553
 20
-16.4191
 30
0.0
 10
189.4285
 20
-5.8748
 30
0.0
 10
189.4285
 20
-5.8748
 30
0.0
  0
SPLINE
  5
71
330
1F
100
AcDbEntity
  8
layer 1
 62
     7
100
AcDbSpline
210
0.0
220
0.0
230
1.0
 70
    11
 71
     3
 72
    28
 73
    24
 74
     0
 42
0.0000000001
 43
0.0000000001
 12
1.0
 22
0.0
 32
0.0
 13
1.0
 23
0.0
 33
0.0
 40
0.0
 40
0.0
 40
0.0
 40
0.0
 40
0.1428571428571428
 40
0.1428571428571428
 40
0.1428571428571428
 40
0.1428571428571428
 40
0.2857142857142857
 40
0.2857142857142857
 40
0.2857142857142857
 40
0.2857142857142857
 40
0.4285714285714285
 40
0.4285714285714285
 40
0.4285714285714285
 40
0.4285714285714285
 40
0.5714285714285714
 40
0.5714285714285714
 40
0.5714285714285714
 40
0.5714285714285714
 40
0.7142857142857143
 40
0.7142857142857143
 40
0.7142857142857143
 40
0.7142857142857143
 40
1.0
 40
1.0
 40
1.0
 40
1.0
 10
122.2294
 20
-25.6422
 30
0.0
 10
122.2294
 20
-24.5788
 30
0.0
 10
121.1353
 20
-24.2517
 30
0.0
 10
120.613
 20
-24.5325
 30
0.0
 10
120.613
 20
-24.5325
 30
0.0
 10
120.613
 20
-24.5325
 30
0.0
 10
111.6177
 20
-29.8121
 30
0.0
 10
111.6177
 20
-29.8121
 30
0.0
 10
111.6177
 20
-29.8121
 30
0.0
 10
110.9153
 20
-30.1026
 30
0.0
 10
110.833
 20
-31.4066
 30
0.0
 10
111.5382
 20
-31.8242
 30
0.0
 10
111.5382
 20
-31.8242
 30
0.0
 10
111.5382
 20
-31.8242
 30
0.0
 10
120.2557
 20
-37.1344
 30
0.0
 10
120.2557
 20
-37.1344
 30
0.0
 10
120.2557
 20
-37.1344
 30
0.0
 10
121.0428
 20
-37.4362
 30
0.0
 10
122.2562
 20
-37.1266
 30
0.0
 10
122.2562
 20
-36.1865
 30
0.0
 10
122.2562
 20
-36.1865
 30
0.0
 10
122.2562
 20
-36.1865
 30
0.0
 10
122.2294
 20
-25.6422
 30
0.0
 10
122.2294
 20
-25.6422
 30
0.0
  0
SPLINE
  5
72
330
1F
100
AcDbEntity
  8
layer 1
 62
     7
100
AcDbSpline
210
0.0
220
0.0
230
1.0
 70
    11
 71
     3
 72
    28
 73
    24
 74
     0
 42
0.0000000001
 43
0.0000000001
 12
1.0
 22
0.0
 32
0.0
 13
1.0
 23
0.0
 33
0.0
 40
0.0
 40
0.0
 40
0.0
 40
0.0
 40
0.1428571428571428
 40
0.1428571428571428
 40
0.1428571428571428
 40
0.1428571428571428
 40
0.2857142857142857
 40
0.2857142857142857
 40
0.2857142857142857
 40
0.2857142857142857
 40
0.4285714285714285
 40
0.4285714285714285
 40
0.4285714285714285
 40
0.4285714285714285
 40
0.5714285714285714
 40
0.5714285714285714
 40
0.5714285714285714
 40
0.5714285714285714
 40
0.7142857142857143
 40
0.7142857142857143
 40
0.7142857142857143
 40
0.7142857142857143
 40
1.0
 40
1.0
 40
1.0
 40
1.0
 10
155.829
 20
-25.5665
 30
0.0
 10
155.829
 20
-24.5031
 30
0.0
 10
154.7349
 20
-24.176
 30
0.0
 10
154.2126
 20
-24.4568
 30
0.0
 10
154.2126
 20
-24.4568
 30
0.0
 10
154.2126
 20
-24.4568
 30
0.0
 10
145.2173
 20
-29.7363
 30
0.0
 10
145.2173
 20
-29.7363
 30
0.0
 10
145.2173
 20
-29.7363
 30
0.0
 10
144.5148
 20
-30.0269
 30
0.0
 10
144.4326
 20
-31.3309
 30
0.0
 10
145.1377
 20
-31.7485
 30
0.0
 10
145.1377
 20
-31.7485
 30
0.0
 10
145.1377
 20
-31.7485
 30
0.0
 10
153.8552
 20
-37.0587
 30
0.0
 10
153.8552
 20
-37.0587
 30
0.0
 10
153.8552
 20
-37.0587
 30
0.0
 10
154.6423
 20
-37.3605
 30
0.0
 10
155.8557
 20
-37.0509
 30
0.0
 10
155.8557
 20
-36.1108
 30
0.0
 10
155.8557
 20
-36.1108
 30
0.0
 10
155.8557
 20
-36.1108
 30
0.0
 10
155.829
 20
-25.5665
 30
0.0
 10
155.829
 20
-25.5665
 30
0.0
  0
SPLINE
  5
73
330
1F
100
AcDbEntity
  8
layer 1
 62
     7
100
AcDbSpline
210
0.0
220
0.0
230
1.0
 70
    11
 71
     3
 72
    28
 73
    24
 74
     0
 42
0.0000000001
 43
0.0000000001
 12
1.0
 22
0.0
 32
0.0
 13
1.0
 23
0.0
 33
0.0
 40
0.0
 40
0.0
 40
0.0
 40
0.0
 40
0.1428571428571428
 40
0.1428571428571428
 40
0.1428571428571428
 40
0.1428571428571428
 40
0.2857142857142857
 40
0.2857142857142857
 40
0.2857142857142857
 40
0.2857142857142857
 40
0.4285714285714285
 40
0.4285714285714285
 40
0.4285714285714285
 40
0.4285714285714285
 40
0.5714285714285714
 40
0.5714285714285714
 40
0.5714285714285714
 40
0.5714285714285714
 40
0.7142857142857143
 40
0.7142857142857143
 40
0.7142857142857143
 40
0.7142857142857143
 40
1.0
 40
1.0
 40
1.0
 40
1.0
 10
189.4285
 20
-25.5665
 30
0.0
 10
189.4285
 20
-24.5031
 30
0.0
 10
188.3344
 20
-24.176
 30
0.0
 10
187.8121
 20
-24.4568
 30
0.0
 10
187.8121
 20
-24.4568
 30
0.0
 10
187.8121
 20
-24.4568
 30
0.0
 10
178.8168
 20
-29.7363
 30
0.0
 10
178.8168
 20
-29.7363
 30
0.0
 10
178.8168
 20
-29.7363
 30
0.0
 10
178.1144
 20
-30.0269
 30
0.0
 10
178.0321
 20
-31.3309
 30
0.0
 10
178.7373
 20
-31.7485
 30
0.0
 10
178.7373
 20
-31.7485
 30
0.0
 10
178.7373
 20
-31.7485
 30
0.0
 10
187.4548
 20
-37.0587
 30
0.0
 10
187.4548
 20
-37.0587
 30
0.0
 10
187.4548
 20
-37.0587
 30
0.0
 10
188.2419
 20
-37.3605
 30
0.0
 10
189.4553
 20
-37.0509
 30
0.0
 10
189.4553
 20
-36.1108
 30
0.0
 10
189.4553
 20
-36.1108
 30
0.0
 10
189.4553
 20
-36.1108
 30
0.0
 10
189.4285
 20
-25.5665
 30
0.0
 10
189.4285
 20
-25.5665
 30
0.0
  0
SPLINE
  5
74
330
1F
100
AcDbEntity
  8
layer 1
 62
     7
100
AcDbSpline
210
0.0
220
0.0
230
1.0
 70
    11
 71
     3
 72
    32
 73
    28
 74
     0
 42
0.0000000001
 43
0.0000000001
 12
1.0
 22
0.0
 32
0.0
 13
1.0
 23
0.0
 33
0.0
 40
0.0
 40
0.0
 40
0.0
 40
0.0
 40
0.125
 40
0.125
 40
0.125
 40
0.125
 40
0.25
 40
0.25
 40
0.25
 40
0.25
 40
0.375
 40
0.375
 40
0.375
 40
0.375
 40
0.5
 40
0.5
 40
0.5
 40
0.5
 40
0.625
 40
0.625
 40
0.625
 40
0.625
 40
0.75
 40
0.75
 40
0.75
 40
0.75
 40
1.0
 40
1.0
 40
1.0
 40
1.0
 10
141.6848
 20
-64.9699
 30
0.0
 10
141.6848
 20
-64.9699
 30
0.0
 10
141.6848
 20
-35.9302
 30
0.0
 10
141.6848
 20
-35.9302
 30
0.0
 10
141.6848
 20
-35.9302
 30
0.0
 10
141.6848
 20
-33.3603
 30
0.0
 10
144.0137
 20
-34.1862
 30
0.0
 10
144.7367
 20
-34.4769
 30
0.0
 10
144.7367
 20
-34.4769
 30
0.0
 10
144.7367
 20
-34.4769
 30
0.0
 10
169.6259
 20
-49.1115
 30
0.0
 10
169.6259
 20
-49.1115
 30
0.0
 10
169.6259
 20
-49.1115
 30
0.0
 10
170.8117
 20
-49.8137
 30
0.0
 10
170.9541
 20
-51.3487
 30
0.0
 10
169.6239
 20
-52.0346
 30
0.0
 10
169.6239
 20
-52.0346
 30
0.0
 10
169.6239
 20
-52.0346
 30
0.0
 10
144.8987
 20
-66.4848
 30
0.0
 10
144.8987
 20
-66.4848
 30
0.0
 10
144.8987
 20
-66.4848
 30
0.0
 10
143.4268
 20
-67.1495
 30
0.0
 10
141.6848
 20
-67.2417
 30
0.0
 10
141.6848
 20
-64.9698
 30
0.0
 10
141.6848
 20
-64.9698
 30
0.0
 10
141.6848
 20
-64.9698
 30
0.0
 10
141.6848
 20
-64.9699
 30
0.0
 10
141.6848
 20
-64.9699
 30
0.0
  0
SPLINE
  5
75
330
1F
100
AcDbEntity
  8
layer 1
 62
     7
100
AcDbSpline
210
0.0
220
0.0
230
1.0
 70
    11
 71
     3
 72
    36
 73
    32
 74
     0
 42
0.0000000001
 43
0.0000000001
 12
1.0
 22
0.0
 32
0.0
 13
1.0
 23
0.0
 33
0.0
 40
0.0
 40
0.0
 40
0.0
 40
0.0
 40
0.1111111111111111
 40
0.1111111111111111
 40
0.1111111111111111
 40
0.1111111111111111
 40
0.2222222222222222
 40
0.2222222222222222
 40
0.2222222222222222
 40
0.2222222222222222
 40
0.3333333333333333
 40
0.3333333333333333
 40
0.3333333333333333
 40
0.3333333333333333
 40
0.4444444444444444
 40
0.4444444444444444
 40
0.4444444444444444
 40
0.4444444444444444
 40
0.5555555555555556
 40
0.5555555555555556
 40
0.5555555555555556
 40
0.5555555555555556
 40
0.6666666666666666
 40
0.6666666666666666
 40
0.6666666666666666
 40
0.6666666666666666
 40
0.7777777777777778
 40
0.7777777777777778
 40
0.7777777777777778
 40
0.7777777777777778
 40
1.0
 40
1.0
 40
1.0
 40
1.0
 10
175.4975
 20
-64.9699
 30
0.0
 10
175.4975
 20
-64.9699
 30
0.0
 10
175.4975
 20
-35.9302
 30
0.0
 10
175.4975
 20
-35.9302
 30
0.0
 10
175.4975
 20
-35.9302
 30
0.0
 10
175.4975
 20
-33.3603
 30
0.0
 10
177.8264
 20
-34.1862
 30
0.0
 10
178.5494
 20
-34.4769
 30
0.0
 10
178.5494
 20
-34.4769
 30
0.0
 10
178.5494
 20
-34.4769
 30
0.0
 10
186.8215
 20
-39.6067
 30
0.0
 10
188.6122
 20
-40.6335
 30
0.0
 10
188.6122
 20
-40.6335
 30
0.0
 10
189.4428
 20
-41.2146
 30
0.0
 10
189.7807
 20
-41.7994
 30
0.0
 10
189.7221
 20
-43.0078
 30
0.0
 10
189.7221
 20
-43.0078
 30
0.0
 10
189.6634
 20
-45.3477
 30
0.0
 10
189.6994
 20
-55.7724
 30
0.0
 10
189.6858
 20
-58.0699
 30
0.0
 10
189.6858
 20
-58.0699
 30
0.0
 10
189.7752
 20
-59.4416
 30
0.0
 10
189.3793
 20
-59.9355
 30
0.0
 10
188.5994
 20
-60.5131
 30
0.0
 10
188.5994
 20
-60.5131
 30
0.0
 10
186.8936
 20
-61.5023
 30
0.0
 10
178.7114
 20
-66.4849
 30
0.0
 10
178.7114
 20
-66.4849
 30
0.0
 10
178.7114
 20
-66.4849
 30
0.0
 10
177.2395
 20
-67.1495
 30
0.0
 10
175.4975
 20
-67.2417
 30
0.0
 10
175.4975
 20
-64.9699
 30
0.0
  0
SPLINE
  5
76
330
1F
100
AcDbEntity
  8
layer 1
 62
     7
100
AcDbSpline
210
0.0
220
0.0
230
1.0
 70
    11
 71
     3
 72
    28
 73
    24
 74
     0
 42
0.0000000001
 43
0.0000000001
 12
1.0
 22
0.0
 32
0.0
 13
1.0
 23
0.0
 33
0.0
 40
0.0
 40
0.0
 40
0.0
 40
0.0
 40
0.1428571428571428
 40
0.1428571428571428
 40
0.1428571428571428
 40
0.1428571428571428
 40
0.2857142857142857
 40
0.2857142857142857
 40
0.2857142857142857
 40
0.2857142857142857
 40
0.4285714285714285
 40
0.4285714285714285
 40
0.4285714285714285
 40
0.4285714285714285
 40
0.5714285714285714
 40
0.5714285714285714
 40
0.5714285714285714
 40
0.5714285714285714
 40
0.7142857142857143
 40
0.7142857142857143
 40
0.7142857142857143
 40
0.7142857142857143
 40
1.0
 40
1.0
 40
1.0
 40
1.0
 10
139.0316
 20
-35.488
 30
0.0
 10
139.0316
 20
-34.4246
 30
0.0
 10
137.9375
 20
-34.0975
 30
0.0
 10
137.4152
 20
-34.3783
 30
0.0
 10
137.4152
 20
-34.3783
 30
0.0
 10
137.4152
 20
-34.3783
 30
0.0
 10
128.4199
 20
-39.6579
 30
0.0
 10
128.4199
 20
-39.6579
 30
0.0
 10
128.4199
 20
-39.6579
 30
0.0
 10
127.7174
 20
-39.9484
 30
0.0
 10
127.6352
 20
-41.2524
 30
0.0
 10
128.3404
 20
-41.67
 30
0.0
 10
128.3404
 20
-41.67
 30
0.0
 10
128.3404
 20
-41.67
 30
0.0
 10
137.0578
 20
-46.9803
 30
0.0
 10
137.0578
 20
-46.9803
 30
0.0
 10
137.0578
 20
-46.9803
 30
0.0
 10
137.845
 20
-47.282
 30
0.0
 10
139.0584
 20
-46.9724
 30
0.0
 10
139.0584
 20
-46.0323
 30
0.0
 10
139.0584
 20
-46.0323
 30
0.0
 10
139.0584
 20
-46.0323
 30
0.0
 10
139.0316
 20
-35.488
 30
0.0
 10
139.0316
 20
-35.488
 30
0.0
  0
SPLINE
  5
77
330
1F
100
AcDbEntity
  8
layer 1
 62
     7
100
AcDbSpline
210
0.0
220
0.0
230
1.0
 70
    11
 71
     3
 72
    28
 73
    24
 74
     0
 42
0.0000000001
 43
0.0000000001
 12
1.0
 22
0.0
 32
0.0
 13
1.0
 23
0.0
 33
0.0
 40
0.0
 40
0.0
 40
0.0
 40
0.0
 40
0.1428571428571428
 40
0.1428571428571428
 40
0.1428571428571428
 40
0.1428571428571428
 40
0.2857142857142857
 40
0.2857142857142857
 40
0.2857142857142857
 40
0.2857142857142857
 40
0.4285714285714285
 40
0.4285714285714285
 40
0.4285714285714285
 40
0.4285714285714285
 40
0.5714285714285714
 40
0.5714285714285714
 40
0.5714285714285714
 40
0.5714285714285714
 40
0.7142857142857143
 40
0.7142857142857143
 40
0.7142857142857143
 40
0.7142857142857143
 40
1.0
 40
1.0
 40
1.0
 40
1.0
 10
172.6312
 20
-35.4123
 30
0.0
 10
172.6312
 20
-34.349
 30
0.0
 10
171.5371
 20
-34.0218
 30
0.0
 10
171.0148
 20
-34.3027
 30
0.0
 10
171.0148
 20
-34.3027
 30
0.0
 10
171.0148
 20
-34.3027
 30
0.0
 10
162.0194
 20
-39.5822
 30
0.0
 10
162.0194
 20
-39.5822
 30
0.0
 10
162.0194
 20
-39.5822
 30
0.0
 10
161.317
 20
-39.8727
 30
0.0
 10
161.2348
 20
-41.1768
 30
0.0
 10
161.9399
 20
-41.5943
 30
0.0
 10
161.9399
 20
-41.5943
 30
0.0
 10
161.9399
 20
-41.5943
 30
0.0
 10
170.6574
 20
-46.9046
 30
0.0
 10
170.6574
 20
-46.9046
 30
0.0
 10
170.6574
 20
-46.9046
 30
0.0
 10
171.4445
 20
-47.2064
 30
0.0
 10
172.6579
 20
-46.8967
 30
0.0
 10
172.6579
 20
-45.9567
 30
0.0
 10
172.6579
 20
-45.9567
 30
0.0
 10
172.6579
 20
-45.9567
 30
0.0
 10
172.6312
 20
-35.4123
 30
0.0
 10
172.6312
 20
-35.4123
 30
0.0
  0
SPLINE
  5
78
330
1F
100
AcDbEntity
  8
layer 1
 62
     7
100
AcDbSpline
210
0.0
220
0.0
230
1.0
 70
    11
 71
     3
 72
    28
 73
    24
 74
     0
 42
0.0000000001
 43
0.0000000001
 12
1.0
 22
0.0
 32
0.0
 13
1.0
 23
0.0
 33
0.0
 40
0.0
 40
0.0
 40
0.0
 40
0.0
 40
0.1428571428571428
 40
0.1428571428571428
 40
0.1428571428571428
 40
0.1428571428571428
 40
0.2857142857142857
 40
0.2857142857142857
 40
0.2857142857142857
 40
0.2857142857142857
 40
0.4285714285714285
 40
0.4285714285714285
 40
0.4285714285714285
 40
0.4285714285714285
 40
0.5714285714285714
 40
0.5714285714285714
 40
0.5714285714285714
 40
0.5714285714285714
 40
0.7142857142857143
 40
0.7142857142857143
 40
0.7142857142857143
 40
0.7142857142857143
 40
1.0
 40
1.0
 40
1.0
 40
1.0
 10
105.5602
 20
-35.4123
 30
0.0
 10
105.5602
 20
-34.349
 30
0.0
 10
104.4661
 20
-34.0218
 30
0.0
 10
103.9438
 20
-34.3027
 30
0.0
 10
103.9438
 20
-34.3027
 30
0.0
 10
103.9438
 20
-34.3027
 30
0.0
 10
94.9485
 20
-39.5822
 30
0.0
 10
94.9485
 20
-39.5822
 30
0.0
 10
94.9485
 20
-39.5822
 30
0.0
 10
94.246
 20
-39.8727
 30
0.0
 10
94.1638
 20
-41.1768
 30
0.0
 10
94.869
 20
-41.5943
 30
0.0
 10
94.869
 20
-41.5943
 30
0.0
 10
94.869
 20
-41.5943
 30
0.0
 10
103.5864
 20
-46.9046
 30
0.0
 10
103.5864
 20
-46.9046
 30
0.0
 10
103.5864
 20
-46.9046
 30
0.0
 10
104.3736
 20
-47.2064
 30
0.0
 10
105.5869
 20
-46.8967
 30
0.0
 10
105.5869
 20
-45.9567
 30
0.0
 10
105.5869
 20
-45.9567
 30
0.0
 10
105.5869
 20
-45.9567
 30
0.0
 10
105.5602
 20
-35.4123
 30
0.0
 10
105.5602
 20
-35.4123
 30
0.0
  0
SPLINE
  5
79
330
1F
100
AcDbEntity
  8
layer 1
 62
     7
100
AcDbSpline
210
0.0
220
0.0
230
1.0
 70
    11
 71
     3
 72
    32
 73
    28
 74
     0
 42
0.0000000001
 43
0.0000000001
 12
1.0
 22
0.0
 32
0.0
 13
1.0
 23
0.0
 33
0.0
 40
0.0
 40
0.0
 40
0.0
 40
0.0
 40
0.125
 40
0.125
 40
0.125
 40
0.125
 40
0.25
 40
0.25
 40
0.25
 40
0.25
 40
0.375
 40
0.375
 40
0.375
 40
0.375
 40
0.5
 40
0.5
 40
0.5
 40
0.5
 40
0.625
 40
0.625
 40
0.625
 40
0.625
 40
0.75
 40
0.75
 40
0.75
 40
0.75
 40
1.0
 40
1.0
 40
1.0
 40
1.0
 10
139.0584
 20
-66.5267
 30
0.0
 10
139.0584
 20
-66.5267
 30
0.0
 10
139.0316
 20
-55.1797
 30
0.0
 10
139.0316
 20
-55.1797
 30
0.0
 10
139.0316
 20
-55.1797
 30
0.0
 10
139.0316
 20
-54.1164
 30
0.0
 10
137.9375
 20
-53.7892
 30
0.0
 10
137.4152
 20
-54.0701
 30
0.0
 10
137.4152
 20
-54.0701
 30
0.0
 10
137.4152
 20
-54.0701
 30
0.0
 10
128.4199
 20
-59.3496
 30
0.0
 10
128.4199
 20
-59.3496
 30
0.0
 10
128.4199
 20
-59.3496
 30
0.0
 10
127.7174
 20
-59.6401
 30
0.0
 10
127.6352
 20
-60.9442
 30
0.0
 10
128.3404
 20
-61.3617
 30
0.0
 10
128.3404
 20
-61.3617
 30
0.0
 10
128.3404
 20
-61.3617
 30
0.0
 10
137.0578
 20
-66.672
 30
0.0
 10
137.0578
 20
-66.672
 30
0.0
 10
137.0578
 20
-66.672
 30
0.0
 10
137.845
 20
-66.9738
 30
0.0
 10
139.0584
 20
-66.6641
 30
0.0
 10
139.0584
 20
-65.7241
 30
0.0
 10
139.0584
 20
-65.7241
 30
0.0
 10
139.0584
 20
-65.7241
 30
0.0
 10
139.0584
 20
-66.5267
 30
0.0
 10
139.0584
 20
-66.5267
 30
0.0
  0
SPLINE
  5
7A
330
1F
100
AcDbEntity
  8
layer 1
 62
     7
100
AcDbSpline
210
0.0
220
0.0
230
1.0
 70
    11
 71
     3
 72
    32
 73
    28
 74
     0
 42
0.0000000001
 43
0.0000000001
 12
1.0
 22
0.0
 32
0.0
 13
1.0
 23
0.0
 33
0.0
 40
0.0
 40
0.0
 40
0.0
 40
0.0
 40
0.125
 40
0.125
 40
0.125
 40
0.125
 40
0.25
 40
0.25
 40
0.25
 40
0.25
 40
0.375
 40
0.375
 40
0.375
 40
0.375
 40
0.5
 40
0.5
 40
0.5
 40
0.5
 40
0.625
 40
0.625
 40
0.625
 40
0.625
 40
0.75
 40
0.75
 40
0.75
 40
0.75
 40
1.0
 40
1.0
 40
1.0
 40
1.0
 10
172.6579
 20
-66.451
 30
0.0
 10
172.6579
 20
-66.451
 30
0.0
 10
172.6312
 20
-55.104
 30
0.0
 10
172.6312
 20
-55.104
 30
0.0
 10
172.6312
 20
-55.104
 30
0.0
 10
172.6312
 20
-54.0406
 30
0.0
 10
171.5371
 20
-53.7135
 30
0.0
 10
171.0148
 20
-53.9944
 30
0.0
 10
171.0148
 20
-53.9944
 30
0.0
 10
171.0148
 20
-53.9944
 30
0.0
 10
162.0194
 20
-59.2739
 30
0.0
 10
162.0194
 20
-59.2739
 30
0.0
 10
162.0194
 20
-59.2739
 30
0.0
 10
161.317
 20
-59.5644
 30
0.0
 10
161.2348
 20
-60.8685
 30
0.0
 10
161.9399
 20
-61.286
 30
0.0
 10
161.9399
 20
-61.286
 30
0.0
 10
161.9399
 20
-61.286
 30
0.0
 10
170.6574
 20
-66.5963
 30
0.0
 10
170.6574
 20
-66.5963
 30
0.0
 10
170.6574
 20
-66.5963
 30
0.0
 10
171.4445
 20
-66.8981
 30
0.0
 10
172.6579
 20
-66.5884
 30
0.0
 10
172.6579
 20
-65.6483
 30
0.0
 10
172.6579
 20
-65.6483
 30
0.0
 10
172.6579
 20
-65.6483
 30
0.0
 10
172.6579
 20
-66.451
 30
0.0
 10
172.6579
 20
-66.451
 30
0.0
  0
SPLINE
  5
7B
330
1F
100
AcDbEntity
  8
layer 1
 62
     7
100
AcDbSpline
210
0.0
220
0.0
230
1.0
 70
    11
 71
     3
 72
    28
 73
    24
 74
     0
 42
0.0000000001
 43
0.0000000001
 12
1.0
 22
0.0
 32
0.0
 13
1.0
 23
0.0
 33
0.0
 40
0.0
 40
0.0
 40
0.0
 40
0.0
 40
0.1428571428571428
 40
0.1428571428571428
 40
0.1428571428571428
 40
0.1428571428571428
 40
0.2857142857142857
 40
0.2857142857142857
 40
0.2857142857142857
 40
0.2857142857142857
 40
0.4285714285714285
 40
0.4285714285714285
 40
0.4285714285714285
 40
0.4285714285714285
 40
0.5714285714285714
 40
0.5714285714285714
 40
0.5714285714285714
 40
0.5714285714285714
 40
0.7142857142857143
 40
0.7142857142857143
 40
0.7142857142857143
 40
0.7142857142857143
 40
1.0
 40
1.0
 40
1.0
 40
1.0
 10
105.5602
 20
-55.104
 30
0.0
 10
105.5602
 20
-54.0406
 30
0.0
 10
104.4661
 20
-53.7135
 30
0.0
 10
103.9438
 20
-53.9944
 30
0.0
 10
103.9438
 20
-53.9944
 30
0.0
 10
103.9438
 20
-53.9944
 30
0.0
 10
94.9485
 20
-59.2739
 30
0.0
 10
94.9485
 20
-59.2739
 30
0.0
 10
94.9485
 20
-59.2739
 30
0.0
 10
94.246
 20
-59.5644
 30
0.0
 10
94.1638
 20
-60.8685
 30
0.0
 10
94.869
 20
-61.286
 30
0.0
 10
94.869
 20
-61.286
 30
0.0
 10
94.869
 20
-61.286
 30
0.0
 10
103.5864
 20
-66.5963
 30
0.0
 10
103.5864
 20
-66.5963
 30
0.0
 10
103.5864
 20
-66.5963
 30
0.0
 10
104.3736
 20
-66.8981
 30
0.0
 10
105.5869
 20
-66.5884
 30
0.0
 10
105.5869
 20
-65.6483
 30
0.0
 10
105.5869
 20
-65.6483
 30
0.0
 10
105.5869
 20
-65.6483
 30
0.0
 10
105.5602
 20
-55.104
 30
0.0
 10
105.5602
 20
-55.104
 30
0.0
  0
SPLINE
  5
7C
330
1F
100
AcDbEntity
  8
layer 1
 62
     7
100
AcDbSpline
210
0.0
220
0.0
230
1.0
 70
    11
 71
     3
 72
    28
 73
    24
 74
     0
 42
0.0000000001
 43
0.0000000001
 12
1.0
 22
0.0
 32
0.0
 13
1.0
 23
0.0
 33
0.0
 40
0.0
 40
0.0
 40
0.0
 40
0.0
 40
0.1428571428571428
 40
0.1428571428571428
 40
0.1428571428571428
 40
0.1428571428571428
 40
0.2857142857142857
 40
0.2857142857142857
 40
0.2857142857142857
 40
0.2857142857142857
 40
0.4285714285714285
 40
0.4285714285714285
 40
0.4285714285714285
 40
0.4285714285714285
 40
0.5714285714285714
 40
0.5714285714285714
 40
0.5714285714285714
 40
0.5714285714285714
 40
0.7142857142857143
 40
0.7142857142857143
 40
0.7142857142857143
 40
0.7142857142857143
 40
1.0
 40
1.0
 40
1.0
 40
1.0
 10
91.8435
 20
-45.2554
 30
0.0
 10
91.8435
 20
-44.192
 30
0.0
 10
92.9377
 20
-43.8649
 30
0.0
 10
93.46
 20
-44.1457
 30
0.0
 10
93.46
 20
-44.1457
 30
0.0
 10
93.46
 20
-44.1457
 30
0.0
 10
102.4553
 20
-49.4253
 30
0.0
 10
102.4553
 20
-49.4253
 30
0.0
 10
102.4553
 20
-49.4253
 30
0.0
 10
103.1577
 20
-49.7158
 30
0.0
 10
103.24
 20
-51.0198
 30
0.0
 10
102.5348
 20
-51.4374
 30
0.0
 10
102.5348
 20
-51.4374
 30
0.0
 10
102.5348
 20
-51.4374
 30
0.0
 10
93.8173
 20
-56.7476
 30
0.0
 10
93.8173
 20
-56.7476
 30
0.0
 10
93.8173
 20
-56.7476
 30
0.0
 10
93.0302
 20
-57.0494
 30
0.0
 10
91.8168
 20
-56.7398
 30
0.0
 10
91.8168
 20
-55.7997
 30
0.0
 10
91.8168
 20
-55.7997
 30
0.0
 10
91.8168
 20
-55.7997
 30
0.0
 10
91.8435
 20
-45.2554
 30
0.0
 10
91.8435
 20
-45.2554
 30
0.0
  0
SPLINE
  5
7D
330
1F
100
AcDbEntity
  8
layer 1
 62
     7
100
AcDbSpline
210
0.0
220
0.0
230
1.0
 70
    11
 71
     3
 72
    32
 73
    28
 74
     0
 42
0.0000000001
 43
0.0000000001
 12
1.0
 22
0.0
 32
0.0
 13
1.0
 23
0.0
 33
0.0
 40
0.0
 40
0.0
 40
0.0
 40
0.0
 40
0.125
 40
0.125
 40
0.125
 40
0.125
 40
0.25
 40
0.25
 40
0.25
 40
0.25
 40
0.375
 40
0.375
 40
0.375
 40
0.375
 40
0.5
 40
0.5
 40
0.5
 40
0.5
 40
0.625
 40
0.625
 40
0.625
 40
0.625
 40
0.75
 40
0.75
 40
0.75
 40
0.75
 40
1.0
 40
1.0
 40
1.0
 40
1.0
 10
107.9322
 20
-64.9699
 30
0.0
 10
107.9322
 20
-64.9699
 30
0.0
 10
107.9322
 20
-35.9302
 30
0.0
 10
107.9322
 20
-35.9302
 30
0.0
 10
107.9322
 20
-35.9302
 30
0.0
 10
107.9322
 20
-33.3603
 30
0.0
 10
110.2612
 20
-34.1862
 30
0.0
 10
110.9842
 20
-34.4769
 30
0.0
 10
110.9842
 20
-34.4769
 30
0.0
 10
110.9842
 20
-34.4769
 30
0.0
 10
135.8734
 20
-49.1115
 30
0.0
 10
135.8734
 20
-49.1115
 30
0.0
 10
135.8734
 20
-49.1115
 30
0.0
 10
137.0591
 20
-49.8137
 30
0.0
 10
137.2016
 20
-51.3487
 30
0.0
 10
135.8714
 20
-52.0346
 30
0.0
 10
135.8714
 20
-52.0346
 30
0.0
 10
135.8714
 20
-52.0346
 30
0.0
 10
111.1461
 20
-66.4848
 30
0.0
 10
111.1461
 20
-66.4848
 30
0.0
 10
111.1461
 20
-66.4848
 30
0.0
 10
109.6743
 20
-67.1495
 30
0.0
 10
107.9322
 20
-67.2417
 30
0.0
 10
107.9322
 20
-64.9698
 30
0.0
 10
107.9322
 20
-64.9698
 30
0.0
 10
107.9322
 20
-64.9698
 30
0.0
 10
107.9322
 20
-64.9699
 30
0.0
 10
107.9322
 20
-64.9699
 30
0.0
  0
SPLINE
  5
7E
330
1F
100
AcDbEntity
  8
layer 1
 62
     7
100
AcDbSpline
210
0.0
220
0.0
230
1.0
 70
    11
 71
     3
 72
    28
 73
    24
 74
     0
 42
0.0000000001
 43
0.0000000001
 12
1.0
 22
0.0
 32
0.0
 13
1.0
 23
0.0
 33
0.0
 40
0.0
 40
0.0
 40
0.0
 40
0.0
 40
0.1428571428571428
 40
0.1428571428571428
 40
0.1428571428571428
 40
0.1428571428571428
 40
0.2857142857142857
 40
0.2857142857142857
 40
0.2857142857142857
 40
0.2857142857142857
 40
0.4285714285714285
 40
0.4285714285714285
 40
0.4285714285714285
 40
0.4285714285714285
 40
0.5714285714285714
 40
0.5714285714285714
 40
0.5714285714285714
 40
0.5714285714285714
 40
0.7142857142857143
 40
0.7142857142857143
 40
0.7142857142857143
 40
0.7142857142857143
 40
1.0
 40
1.0
 40
1.0
 40
1.0
 10
90.9807
 20
-94.4023
 30
0.0
 10
90.9807
 20
-94.4023
 30
0.0
 10
90.9807
 20
-65.3626
 30
0.0
 10
90.9807
 20
-65.3626
 30
0.0
 10
90.9807
 20
-65.3626
 30
0.0
 10
90.9807
 20
-62.7927
 30
0.0
 10
93.3097
 20
-63.6186
 30
0.0
 10
94.0327
 20
-63.9093
 30
0.0
 10
94.0327
 20
-63.9093
 30
0.0
 10
94.0327
 20
-63.9093
 30
0.0
 10
118.9218
 20
-78.544
 30
0.0
 10
118.9218
 20
-78.544
 30
0.0
 10
118.9218
 20
-78.544
 30
0.0
 10
120.1076
 20
-79.2461
 30
0.0
 10
120.25
 20
-80.7812
 30
0.0
 10
118.9199
 20
-81.4671
 30
0.0
 10
118.9199
 20
-81.4671
 30
0.0
 10
118.9199
 20
-81.4671
 30
0.0
 10
94.1946
 20
-95.9173
 30
0.0
 10
94.1946
 20
-95.9173
 30
0.0
 10
94.1946
 20
-95.9173
 30
0.0
 10
92.7228
 20
-96.5819
 30
0.0
 10
90.9807
 20
-96.6741
 30
0.0
 10
90.9807
 20
-94.4023
 30
0.0
  0
SPLINE
  5
7F
330
1F
100
AcDbEntity
  8
layer 1
 62
     7
100
AcDbSpline
210
0.0
220
0.0
230
1.0
 70
    11
 71
     3
 72
    28
 73
    24
 74
     0
 42
0.0000000001
 43
0.0000000001
 12
1.0
 22
0.0
 32
0.0
 13
1.0
 23
0.0
 33
0.0
 40
0.0
 40
0.0
 40
0.0
 40
0.0
 40
0.1428571428571428
 40
0.1428571428571428
 40
0.1428571428571428
 40
0.1428571428571428
 40
0.2857142857142857
 40
0.2857142857142857
 40
0.2857142857142857
 40
0.2857142857142857
 40
0.4285714285714285
 40
0.4285714285714285
 40
0.4285714285714285
 40
0.4285714285714285
 40
0.5714285714285714
 40
0.5714285714285714
 40
0.5714285714285714
 40
0.5714285714285714
 40
0.7142857142857143
 40
0.7142857142857143
 40
0.7142857142857143
 40
0.7142857142857143
 40
1.0
 40
1.0
 40
1.0
 40
1.0
 10
124.8826
 20
-94.4023
 30
0.0
 10
124.8826
 20
-94.4023
 30
0.0
 10
124.8826
 20
-65.3626
 30
0.0
 10
124.8826
 20
-65.3626
 30
0.0
 10
124.8826
 20
-65.3626
 30
0.0
 10
124.8826
 20
-62.7927
 30
0.0
 10
127.2116
 20
-63.6186
 30
0.0
 10
127.9346
 20
-63.9093
 30
0.0
 10
127.9346
 20
-63.9093
 30
0.0
 10
127.9346
 20
-63.9093
 30
0.0
 10
152.8238
 20
-78.544
 30
0.0
 10
152.8238
 20
-78.544
 30
0.0
 10
152.8238
 20
-78.544
 30
0.0
 10
154.0095
 20
-79.2461
 30
0.0
 10
154.152
 20
-80.7811
 30
0.0
 10
152.8218
 20
-81.467
 30
0.0
 10
152.8218
 20
-81.467
 30
0.0
 10
152.8218
 20
-81.467
 30
0.0
 10
128.0965
 20
-95.9173
 30
0.0
 10
128.0965
 20
-95.9173
 30
0.0
 10
128.0965
 20
-95.9173
 30
0.0
 10
126.6247
 20
-96.5819
 30
0.0
 10
124.8826
 20
-96.6741
 30
0.0
 10
124.8826
 20
-94.4023
 30
0.0
  0
SPLINE
  5
80
330
1F
100
AcDbEntity
  8
layer 1
 62
     7
100
AcDbSpline
210
0.0
220
0.0
230
1.0
 70
    11
 71
     3
 72
    32
 73
    28
 74
     0
 42
0.0000000001
 43
0.0000000001
 12
1.0
 22
0.0
 32
0.0
 13
1.0
 23
0.0
 33
0.0
 40
0.0
 40
0.0
 40
0.0
 40
0.0
 40
0.125
 40
0.125
 40
0.125
 40
0.125
 40
0.25
 40
0.25
 40
0.25
 40
0.25
 40
0.375
 40
0.375
 40
0.375
 40
0.375
 40
0.5
 40
0.5
 40
0.5
 40
0.5
 40
0.625
 40
0.625
 40
0.625
 40
0.625
 40
0.75
 40
0.75
 40
0.75
 40
0.75
 40
1.0
 40
1.0
 40
1.0
 40
1.0
 10
158.6953
 20
-94.4023
 30
0.0
 10
158.6953
 20
-94.4023
 30
0.0
 10
158.6953
 20
-65.3626
 30
0.0
 10
158.6953
 20
-65.3626
 30
0.0
 10
158.6953
 20
-65.3626
 30
0.0
 10
158.6953
 20
-62.7927
 30
0.0
 10
161.0243
 20
-63.6186
 30
0.0
 10
161.7473
 20
-63.9093
 30
0.0
 10
161.7473
 20
-63.9093
 30
0.0
 10
161.7473
 20
-63.9093
 30
0.0
 10
186.6364
 20
-78.544
 30
0.0
 10
186.6364
 20
-78.544
 30
0.0
 10
186.6364
 20
-78.544
 30
0.0
 10
187.8222
 20
-79.2461
 30
0.0
 10
187.9646
 20
-80.7811
 30
0.0
 10
186.6345
 20
-81.467
 30
0.0
 10
186.6345
 20
-81.467
 30
0.0
 10
186.6345
 20
-81.467
 30
0.0
 10
161.9092
 20
-95.9172
 30
0.0
 10
161.9092
 20
-95.9172
 30
0.0
 10
161.9092
 20
-95.9172
 30
0.0
 10
160.4374
 20
-96.5819
 30
0.0
 10
158.6953
 20
-96.6741
 30
0.0
 10
158.6953
 20
-94.4022
 30
0.0
 10
158.6953
 20
-94.4022
 30
0.0
 10
158.6953
 20
-94.4022
 30
0.0
 10
158.6953
 20
-94.4023
 30
0.0
 10
158.6953
 20
-94.4023
 30
0.0
  0
SPLINE
  5
81
330
1F
100
AcDbEntity
  8
layer 1
 62
     7
100
AcDbSpline
210
0.0
220
0.0
230
1.0
 70
    11
 71
     3
 72
    28
 73
    24
 74
     0
 42
0.0000000001
 43
0.0000000001
 12
1.0
 22
0.0
 32
0.0
 13
1.0
 23
0.0
 33
0.0
 40
0.0
 40
0.0
 40
0.0
 40
0.0
 40
0.1428571428571428
 40
0.1428571428571428
 40
0.1428571428571428
 40
0.1428571428571428
 40
0.2857142857142857
 40
0.2857142857142857
 40
0.2857142857142857
 40
0.2857142857142857
 40
0.4285714285714285
 40
0.4285714285714285
 40
0.4285714285714285
 40
0.4285714285714285
 40
0.5714285714285714
 40
0.5714285714285714
 40
0.5714285714285714
 40
0.5714285714285714
 40
0.7142857142857143
 40
0.7142857142857143
 40
0.7142857142857143
 40
0.7142857142857143
 40
1.0
 40
1.0
 40
1.0
 40
1.0
 10
122.2294
 20
-64.9204
 30
0.0
 10
122.2294
 20
-63.857
 30
0.0
 10
121.1353
 20
-63.5299
 30
0.0
 10
120.613
 20
-63.8107
 30
0.0
 10
120.613
 20
-63.8107
 30
0.0
 10
120.613
 20
-63.8107
 30
0.0
 10
111.6177
 20
-69.0903
 30
0.0
 10
111.6177
 20
-69.0903
 30
0.0
 10
111.6177
 20
-69.0903
 30
0.0
 10
110.9153
 20
-69.3808
 30
0.0
 10
110.833
 20
-70.6848
 30
0.0
 10
111.5382
 20
-71.1024
 30
0.0
 10
111.5382
 20
-71.1024
 30
0.0
 10
111.5382
 20
-71.1024
 30
0.0
 10
120.2557
 20
-76.4127
 30
0.0
 10
120.2557
 20
-76.4127
 30
0.0
 10
120.2557
 20
-76.4127
 30
0.0
 10
121.0428
 20
-76.7144
 30
0.0
 10
122.2562
 20
-76.4048
 30
0.0
 10
122.2562
 20
-75.4647
 30
0.0
 10
122.2562
 20
-75.4647
 30
0.0
 10
122.2562
 20
-75.4647
 30
0.0
 10
122.2294
 20
-64.9204
 30
0.0
 10
122.2294
 20
-64.9204
 30
0.0
  0
SPLINE
  5
82
330
1F
100
AcDbEntity
  8
layer 1
 62
     7
100
AcDbSpline
210
0.0
220
0.0
230
1.0
 70
    11
 71
     3
 72
    28
 73
    24
 74
     0
 42
0.0000000001
 43
0.0000000001
 12
1.0
 22
0.0
 32
0.0
 13
1.0
 23
0.0
 33
0.0
 40
0.0
 40
0.0
 40
0.0
 40
0.0
 40
0.1428571428571428
 40
0.1428571428571428
 40
0.1428571428571428
 40
0.1428571428571428
 40
0.2857142857142857
 40
0.2857142857142857
 40
0.2857142857142857
 40
0.2857142857142857
 40
0.4285714285714285
 40
0.4285714285714285
 40
0.4285714285714285
 40
0.4285714285714285
 40
0.5714285714285714
 40
0.5714285714285714
 40
0.5714285714285714
 40
0.5714285714285714
 40
0.7142857142857143
 40
0.7142857142857143
 40
0.7142857142857143
 40
0.7142857142857143
 40
1.0
 40
1.0
 40
1.0
 40
1.0
 10
155.829
 20
-64.8448
 30
0.0
 10
155.829
 20
-63.7814
 30
0.0
 10
154.7349
 20
-63.4542
 30
0.0
 10
154.2126
 20
-63.7351
 30
0.0
 10
154.2126
 20
-63.7351
 30
0.0
 10
154.2126
 20
-63.7351
 30
0.0
 10
145.2173
 20
-69.0146
 30
0.0
 10
145.2173
 20
-69.0146
 30
0.0
 10
145.2173
 20
-69.0146
 30
0.0
 10
144.5148
 20
-69.3051
 30
0.0
 10
144.4326
 20
-70.6092
 30
0.0
 10
145.1377
 20
-71.0267
 30
0.0
 10
145.1377
 20
-71.0267
 30
0.0
 10
145.1377
 20
-71.0267
 30
0.0
 10
153.8552
 20
-76.337
 30
0.0
 10
153.8552
 20
-76.337
 30
0.0
 10
153.8552
 20
-76.337
 30
0.0
 10
154.6423
 20
-76.6388
 30
0.0
 10
155.8557
 20
-76.3291
 30
0.0
 10
155.8557
 20
-75.3891
 30
0.0
 10
155.8557
 20
-75.3891
 30
0.0
 10
155.8557
 20
-75.3891
 30
0.0
 10
155.829
 20
-64.8448
 30
0.0
 10
155.829
 20
-64.8448
 30
0.0
  0
SPLINE
  5
83
330
1F
100
AcDbEntity
  8
layer 1
 62
     7
100
AcDbSpline
210
0.0
220
0.0
230
1.0
 70
    11
 71
     3
 72
    28
 73
    24
 74
     0
 42
0.0000000001
 43
0.0000000001
 12
1.0
 22
0.0
 32
0.0
 13
1.0
 23
0.0
 33
0.0
 40
0.0
 40
0.0
 40
0.0
 40
0.0
 40
0.1428571428571428
 40
0.1428571428571428
 40
0.1428571428571428
 40
0.1428571428571428
 40
0.2857142857142857
 40
0.2857142857142857
 40
0.2857142857142857
 40
0.2857142857142857
 40
0.4285714285714285
 40
0.4285714285714285
 40
0.4285714285714285
 40
0.4285714285714285
 40
0.5714285714285714
 40
0.5714285714285714
 40
0.5714285714285714
 40
0.5714285714285714
 40
0.7142857142857143
 40
0.7142857142857143
 40
0.7142857142857143
 40
0.7142857142857143
 40
1.0
 40
1.0
 40
1.0
 40
1.0
 10
189.4285
 20
-64.8448
 30
0.0
 10
189.4285
 20
-63.7814
 30
0.0
 10
188.3344
 20
-63.4542
 30
0.0
 10
187.8121
 20
-63.7351
 30
0.0
 10
187.8121
 20
-63.7351
 30
0.0
 10
187.8121
 20
-63.7351
 30
0.0
 10
178.8168
 20
-69.0146
 30
0.0
 10
178.8168
 20
-69.0146
 30
0.0
 10
178.8168
 20
-69.0146
 30
0.0
 10
178.1144
 20
-69.3051
 30
0.0
 10
178.0321
 20
-70.6092
 30
0.0
 10
178.7373
 20
-71.0267
 30
0.0
 10
178.7373
 20
-71.0267
 30
0.0
 10
178.7373
 20
-71.0267
 30
0.0
 10
187.4548
 20
-76.337
 30
0.0
 10
187.4548
 20
-76.337
 30
0.0
 10
187.4548
 20
-76.337
 30
0.0
 10
188.2419
 20
-76.6388
 30
0.0
 10
189.4553
 20
-76.3291
 30
0.0
 10
189.4553
 20
-75.3891
 30
0.0
 10
189.4553
 20
-75.3891
 30
0.0
 10
189.4553
 20
-75.3891
 30
0.0
 10
189.4285
 20
-64.8448
 30
0.0
 10
189.4285
 20
-64.8448
 30
0.0
  0
SPLINE
  5
84
330
1F
100
AcDbEntity
  8
layer 1
 62
     7
100
AcDbSpline
210
0.0
220
0.0
230
1.0
 70
    11
 71
     3
 72
    28
 73
    24
 74
     0
 42
0.0000000001
 43
0.0000000001
 12
1.0
 22
0.0
 32
0.0
 13
1.0
 23
0.0
 33
0.0
 40
0.0
 40
0.0
 40
0.0
 40
0.0
 40
0.1428571428571428
 40
0.1428571428571428
 40
0.1428571428571428
 40
0.1428571428571428
 40
0.2857142857142857
 40
0.2857142857142857
 40
0.2857142857142857
 40
0.2857142857142857
 40
0.4285714285714285
 40
0.4285714285714285
 40
0.4285714285714285
 40
0.4285714285714285
 40
0.5714285714285714
 40
0.5714285714285714
 40
0.5714285714285714
 40
0.5714285714285714
 40
0.7142857142857143
 40
0.7142857142857143
 40
0.7142857142857143
 40
0.7142857142857143
 40
1.0
 40
1.0
 40
1.0
 40
1.0
 10
122.2294
 20
-84.6121
 30
0.0
 10
122.2294
 20
-83.5488
 30
0.0
 10
121.1353
 20
-83.2216
 30
0.0
 10
120.613
 20
-83.5025
 30
0.0
 10
120.613
 20
-83.5025
 30
0.0
 10
120.613
 20
-83.5025
 30
0.0
 10
111.6177
 20
-88.782
 30
0.0
 10
111.6177
 20
-88.782
 30
0.0
 10
111.6177
 20
-88.782
 30
0.0
 10
110.9153
 20
-89.0725
 30
0.0
 10
110.833
 20
-90.3766
 30
0.0
 10
111.5382
 20
-90.7941
 30
0.0
 10
111.5382
 20
-90.7941
 30
0.0
 10
111.5382
 20
-90.7941
 30
0.0
 10
120.2557
 20
-96.1044
 30
0.0
 10
120.2557
 20
-96.1044
 30
0.0
 10
120.2557
 20
-96.1044
 30
0.0
 10
121.0428
 20
-96.4062
 30
0.0
 10
122.2562
 20
-96.0965
 30
0.0
 10
122.2562
 20
-95.1565
 30
0.0
 10
122.2562
 20
-95.1565
 30
0.0
 10
122.2562
 20
-95.1565
 30
0.0
 10
122.2294
 20
-84.6121
 30
0.0
 10
122.2294
 20
-84.6121
 30
0.0
  0
SPLINE
  5
85
330
1F
100
AcDbEntity
  8
layer 1
 62
     7
100
AcDbSpline
210
0.0
220
0.0
230
1.0
 70
    11
 71
     3
 72
    28
 73
    24
 74
     0
 42
0.0000000001
 43
0.0000000001
 12
1.0
 22
0.0
 32
0.0
 13
1.0
 23
0.0
 33
0.0
 40
0.0
 40
0.0
 40
0.0
 40
0.0
 40
0.1428571428571428
 40
0.1428571428571428
 40
0.1428571428571428
 40
0.1428571428571428
 40
0.2857142857142857
 40
0.2857142857142857
 40
0.2857142857142857
 40
0.2857142857142857
 40
0.4285714285714285
 40
0.4285714285714285
 40
0.4285714285714285
 40
0.4285714285714285
 40
0.5714285714285714
 40
0.5714285714285714
 40
0.5714285714285714
 40
0.5714285714285714
 40
0.7142857142857143
 40
0.7142857142857143
 40
0.7142857142857143
 40
0.7142857142857143
 40
1.0
 40
1.0
 40
1.0
 40
1.0
 10
155.829
 20
-84.5364
 30
0.0
 10
155.829
 20
-83.4731
 30
0.0
 10
154.7349
 20
-83.1459
 30
0.0
 10
154.2126
 20
-83.4268
 30
0.0
 10
154.2126
 20
-83.4268
 30
0.0
 10
154.2126
 20
-83.4268
 30
0.0
 10
145.2173
 20
-88.7063
 30
0.0
 10
145.2173
 20
-88.7063
 30
0.0
 10
145.2173
 20
-88.7063
 30
0.0
 10
144.5148
 20
-88.9968
 30
0.0
 10
144.4326
 20
-90.3009
 30
0.0
 10
145.1377
 20
-90.7184
 30
0.0
 10
145.1377
 20
-90.7184
 30
0.0
 10
145.1377
 20
-90.7184
 30
0.0
 10
153.8552
 20
-96.0287
 30
0.0
 10
153.8552
 20
-96.0287
 30
0.0
 10
153.8552
 20
-96.0287
 30
0.0
 10
154.6423
 20
-96.3305
 30
0.0
 10
155.8557
 20
-96.0208
 30
0.0
 10
155.8557
 20
-95.0808
 30
0.0
 10
155.8557
 20
-95.0808
 30
0.0
 10
155.8557
 20
-95.0808
 30
0.0
 10
155.829
 20
-84.5364
 30
0.0
 10
155.829
 20
-84.5364
 30
0.0
  0
SPLINE
  5
86
330
1F
100
AcDbEntity
  8
layer 1
 62
     7
100
AcDbSpline
210
0.0
220
0.0
230
1.0
 70
    11
 71
     3
 72
    28
 73
    24
 74
     0
 42
0.0000000001
 43
0.0000000001
 12
1.0
 22
0.0
 32
0.0
 13
1.0
 23
0.0
 33
0.0
 40
0.0
 40
0.0
 40
0.0
 40
0.0
 40
0.1428571428571428
 40
0.1428571428571428
 40
0.1428571428571428
 40
0.1428571428571428
 40
0.2857142857142857
 40
0.2857142857142857
 40
0.2857142857142857
 40
0.2857142857142857
 40
0.4285714285714285
 40
0.4285714285714285
 40
0.4285714285714285
 40
0.4285714285714285
 40
0.5714285714285714
 40
0.5714285714285714
 40
0.5714285714285714
 40
0.5714285714285714
 40
0.7142857142857143
 40
0.7142857142857143
 40
0.7142857142857143
 40
0.7142857142857143
 40
1.0
 40
1.0
 40
1.0
 40
1.0
 10
189.4285
 20
-84.5364
 30
0.0
 10
189.4285
 20
-83.4731
 30
0.0
 10
188.3344
 20
-83.1459
 30
0.0
 10
187.8121
 20
-83.4268
 30
0.0
 10
187.8121
 20
-83.4268
 30
0.0
 10
187.8121
 20
-83.4268
 30
0.0
 10
178.8168
 20
-88.7063
 30
0.0
 10
178.8168
 20
-88.7063
 30
0.0
 10
178.8168
 20
-88.7063
 30
0.0
 10
178.1144
 20
-88.9968
 30
0.0
 10
178.0321
 20
-90.3009
 30
0.0
 10
178.7373
 20
-90.7184
 30
0.0
 10
178.7373
 20
-90.7184
 30
0.0
 10
178.7373
 20
-90.7184
 30
0.0
 10
187.4548
 20
-96.0287
 30
0.0
 10
187.4548
 20
-96.0287
 30
0.0
 10
187.4548
 20
-96.0287
 30
0.0
 10
188.2419
 20
-96.3305
 30
0.0
 10
189.4553
 20
-96.0208
 30
0.0
 10
189.4553
 20
-95.0808
 30
0.0
 10
189.4553
 20
-95.0808
 30
0.0
 10
189.4553
 20
-95.0808
 30
0.0
 10
189.4285
 20
-84.5364
 30
0.0
 10
189.4285
 20
-84.5364
 30
0.0
  0
SPLINE
  5
87
330
1F
100
AcDbEntity
  8
layer 1
 62
     7
100
AcDbSpline
210
0.0
220
0.0
230
1.0
 70
    11
 71
     3
 72
    28
 73
    24
 74
     0
 42
0.0000000001
 43
0.0000000001
 12
1.0
 22
0.0
 32
0.0
 13
1.0
 23
0.0
 33
0.0
 40
0.0
 40
0.0
 40
0.0
 40
0.0
 40
0.1428571428571428
 40
0.1428571428571428
 40
0.1428571428571428
 40
0.1428571428571428
 40
0.2857142857142857
 40
0.2857142857142857
 40
0.2857142857142857
 40
0.2857142857142857
 40
0.4285714285714285
 40
0.4285714285714285
 40
0.4285714285714285
 40
0.4285714285714285
 40
0.5714285714285714
 40
0.5714285714285714
 40
0.5714285714285714
 40
0.5714285714285714
 40
0.7142857142857143
 40
0.7142857142857143
 40
0.7142857142857143
 40
0.7142857142857143
 40
1.0
 40
1.0
 40
1.0
 40
1.0
 10
139.0316
 20
-94.458
 30
0.0
 10
139.0316
 20
-93.3946
 30
0.0
 10
137.9375
 20
-93.0675
 30
0.0
 10
137.4152
 20
-93.3483
 30
0.0
 10
137.4152
 20
-93.3483
 30
0.0
 10
137.4152
 20
-93.3483
 30
0.0
 10
128.4199
 20
-98.6278
 30
0.0
 10
128.4199
 20
-98.6278
 30
0.0
 10
128.4199
 20
-98.6278
 30
0.0
 10
127.7174
 20
-98.9184
 30
0.0
 10
127.6352
 20
-100.2224
 30
0.0
 10
128.3404
 20
-100.64
 30
0.0
 10
128.3404
 20
-100.64
 30
0.0
 10
128.3404
 20
-100.64
 30
0.0
 10
137.0578
 20
-105.9502
 30
0.0
 10
137.0578
 20
-105.9502
 30
0.0
 10
137.0578
 20
-105.9502
 30
0.0
 10
137.845
 20
-106.252
 30
0.0
 10
139.0584
 20
-105.9424
 30
0.0
 10
139.0584
 20
-105.0023
 30
0.0
 10
139.0584
 20
-105.0023
 30
0.0
 10
139.0584
 20
-105.0023
 30
0.0
 10
139.0316
 20
-94.458
 30
0.0
 10
139.0316
 20
-94.458
 30
0.0
  0
SPLINE
  5
88
330
1F
100
AcDbEntity
  8
layer 1
 62
     7
100
AcDbSpline
210
0.0
220
0.0
230
1.0
 70
    11
 71
     3
 72
    28
 73
    24
 74
     0
 42
0.0000000001
 43
0.0000000001
 12
1.0
 22
0.0
 32
0.0
 13
1.0
 23
0.0
 33
0.0
 40
0.0
 40
0.0
 40
0.0
 40
0.0
 40
0.1428571428571428
 40
0.1428571428571428
 40
0.1428571428571428
 40
0.1428571428571428
 40
0.2857142857142857
 40
0.2857142857142857
 40
0.2857142857142857
 40
0.2857142857142857
 40
0.4285714285714285
 40
0.4285714285714285
 40
0.4285714285714285
 40
0.4285714285714285
 40
0.5714285714285714
 40
0.5714285714285714
 40
0.5714285714285714
 40
0.5714285714285714
 40
0.7142857142857143
 40
0.7142857142857143
 40
0.7142857142857143
 40
0.7142857142857143
 40
1.0
 40
1.0
 40
1.0
 40
1.0
 10
172.6312
 20
-94.3823
 30
0.0
 10
172.6312
 20
-93.3189
 30
0.0
 10
171.5371
 20
-92.9918
 30
0.0
 10
171.0148
 20
-93.2726
 30
0.0
 10
171.0148
 20
-93.2726
 30
0.0
 10
171.0148
 20
-93.2726
 30
0.0
 10
162.0194
 20
-98.5522
 30
0.0
 10
162.0194
 20
-98.5522
 30
0.0
 10
162.0194
 20
-98.5522
 30
0.0
 10
161.317
 20
-98.8427
 30
0.0
 10
161.2348
 20
-100.1467
 30
0.0
 10
161.9399
 20
-100.5643
 30
0.0
 10
161.9399
 20
-100.5643
 30
0.0
 10
161.9399
 20
-100.5643
 30
0.0
 10
170.6574
 20
-105.8746
 30
0.0
 10
170.6574
 20
-105.8746
 30
0.0
 10
170.6574
 20
-105.8746
 30
0.0
 10
171.4445
 20
-106.1763
 30
0.0
 10
172.6579
 20
-105.8667
 30
0.0
 10
172.6579
 20
-104.9266
 30
0.0
 10
172.6579
 20
-104.9266
 30
0.0
 10
172.6579
 20
-104.9266
 30
0.0
 10
172.6312
 20
-94.3823
 30
0.0
 10
172.6312
 20
-94.3823
 30
0.0
  0
SPLINE
  5
89
330
1F
100
AcDbEntity
  8
layer 1
 62
     7
100
AcDbSpline
210
0.0
220
0.0
230
1.0
 70
    11
 71
     3
 72
    28
 73
    24
 74
     0
 42
0.0000000001
 43
0.0000000001
 12
1.0
 22
0.0
 32
0.0
 13
1.0
 23
0.0
 33
0.0
 40
0.0
 40
0.0
 40
0.0
 40
0.0
 40
0.1428571428571428
 40
0.1428571428571428
 40
0.1428571428571428
 40
0.1428571428571428
 40
0.2857142857142857
 40
0.2857142857142857
 40
0.2857142857142857
 40
0.2857142857142857
 40
0.4285714285714285
 40
0.4285714285714285
 40
0.4285714285714285
 40
0.4285714285714285
 40
0.5714285714285714
 40
0.5714285714285714
 40
0.5714285714285714
 40
0.5714285714285714
 40
0.7142857142857143
 40
0.7142857142857143
 40
0.7142857142857143
 40
0.7142857142857143
 40
1.0
 40
1.0
 40
1.0
 40
1.0
 10
105.5602
 20
-94.3823
 30
0.0
 10
105.5602
 20
-93.3189
 30
0.0
 10
104.4661
 20
-92.9918
 30
0.0
 10
103.9438
 20
-93.2726
 30
0.0
 10
103.9438
 20
-93.2726
 30
0.0
 10
103.9438
 20
-93.2726
 30
0.0
 10
94.9485
 20
-98.5522
 30
0.0
 10
94.9485
 20
-98.5522
 30
0.0
 10
94.9485
 20
-98.5522
 30
0.0
 10
94.246
 20
-98.8427
 30
0.0
 10
94.1638
 20
-100.1467
 30
0.0
 10
94.869
 20
-100.5643
 30
0.0
 10
94.869
 20
-100.5643
 30
0.0
 10
94.869
 20
-100.5643
 30
0.0
 10
103.5864
 20
-105.8746
 30
0.0
 10
103.5864
 20
-105.8746
 30
0.0
 10
103.5864
 20
-105.8746
 30
0.0
 10
104.3736
 20
-106.1763
 30
0.0
 10
105.5869
 20
-105.8667
 30
0.0
 10
105.5869
 20
-104.9266
 30
0.0
 10
105.5869
 20
-104.9266
 30
0.0
 10
105.5869
 20
-104.9266
 30
0.0
 10
105.5602
 20
-94.3823
 30
0.0
 10
105.5602
 20
-94.3823
 30
0.0
  0
SPLINE
  5
8A
330
1F
100
AcDbEntity
  8
layer 1
 62
     7
100
AcDbSpline
210
0.0
220
0.0
230
1.0
 70
    11
 71
     3
 72
    40
 73
    36
 74
     0
 42
0.0000000001
 43
0.0000000001
 12
1.0
 22
0.0
 32
0.0
 13
1.0
 23
0.0
 33
0.0
 40
0.0
 40
0.0
 40
0.0
 40
0.0
 40
0.1
 40
0.1
 40
0.1
 40
0.1
 40
0.2
 40
0.2
 40
0.2
 40
0.2
 40
0.3
 40
0.3
 40
0.3
 40
0.3
 40
0.4
 40
0.4
 40
0.4
 40
0.4
 40
0.5
 40
0.5
 40
0.5
 40
0.5
 40
0.6
 40
0.6
 40
0.6
 40
0.6
 40
0.7
 40
0.7
 40
0.7
 40
0.7
 40
0.8
 40
0.8
 40
0.8
 40
0.8
 40
1.0
 40
1.0
 40
1.0
 40
1.0
 10
175.586
 20
111.7097
 30
0.0
 10
175.586
 20
111.7097
 30
0.0
 10
175.5431
 20
124.466
 30
0.0
 10
175.5431
 20
124.466
 30
0.0
 10
175.5431
 20
124.466
 30
0.0
 10
175.5431
 20
127.0359
 30
0.0
 10
177.5715
 20
126.7637
 30
0.0
 10
178.638
 20
126.7637
 30
0.0
 10
178.638
 20
126.7637
 30
0.0
 10
178.638
 20
126.7637
 30
0.0
 10
185.9081
 20
126.7637
 30
0.0
 10
187.9422
 20
126.7637
 30
0.0
 10
187.9422
 20
126.7637
 30
0.0
 10
189.2308
 20
126.7637
 30
0.0
 10
189.8693
 20
125.4852
 30
0.0
 10
189.8107
 20
124.2768
 30
0.0
 10
189.8107
 20
124.2768
 30
0.0
 10
189.752
 20
121.9369
 30
0.0
 10
189.788
 20
120.9072
 30
0.0
 10
189.7744
 20
118.6097
 30
0.0
 10
189.7744
 20
118.6097
 30
0.0
 10
189.8638
 20
117.238
 30
0.0
 10
189.4678
 20
116.7441
 30
0.0
 10
188.6879
 20
116.1664
 30
0.0
 10
188.6879
 20
116.1664
 30
0.0
 10
186.9822
 20
115.1773
 30
0.0
 10
178.7999
 20
110.1947
 30
0.0
 10
178.7999
 20
110.1947
 30
0.0
 10
178.7999
 20
110.1947
 30
0.0
 10
177.3281
 20
109.5301
 30
0.0
 10
175.586
 20
109.4379
 30
0.0
 10
175.586
 20
111.7097
 30
0.0
 10
175.586
 20
111.7097
 30
0.0
 10
175.586
 20
111.7097
 30
0.0
 10
175.586
 20
111.7097
 30
0.0
 10
175.586
 20
111.7097
 30
0.0
  0
SPLINE
  5
8B
330
1F
100
AcDbEntity
  8
layer 1
 62
     7
100
AcDbSpline
210
0.0
220
0.0
230
1.0
 70
    11
 71
     3
 72
    28
 73
    24
 74
     0
 42
0.0000000001
 43
0.0000000001
 12
1.0
 22
0.0
 32
0.0
 13
1.0
 23
0.0
 33
0.0
 40
0.0
 40
0.0
 40
0.0
 40
0.0
 40
0.1428571428571428
 40
0.1428571428571428
 40
0.1428571428571428
 40
0.1428571428571428
 40
0.2857142857142857
 40
0.2857142857142857
 40
0.2857142857142857
 40
0.2857142857142857
 40
0.4285714285714285
 40
0.4285714285714285
 40
0.4285714285714285
 40
0.4285714285714285
 40
0.5714285714285714
 40
0.5714285714285714
 40
0.5714285714285714
 40
0.5714285714285714
 40
0.7142857142857143
 40
0.7142857142857143
 40
0.7142857142857143
 40
0.7142857142857143
 40
1.0
 40
1.0
 40
1.0
 40
1.0
 10
91.902
 20
125.3097
 30
0.0
 10
91.902
 20
126.373
 30
0.0
 10
92.7849
 20
126.7637
 30
0.0
 10
93.5184
 20
126.6834
 30
0.0
 10
93.5184
 20
126.6834
 30
0.0
 10
93.5184
 20
126.6834
 30
0.0
 10
100.111
 20
126.7637
 30
0.0
 10
100.111
 20
126.7637
 30
0.0
 10
100.111
 20
126.7637
 30
0.0
 10
102.1865
 20
126.7637
 30
0.0
 10
101.9519
 20
124.5354
 30
0.0
 10
101.2467
 20
124.1178
 30
0.0
 10
101.2467
 20
124.1178
 30
0.0
 10
101.2467
 20
124.1178
 30
0.0
 10
93.8758
 20
119.4413
 30
0.0
 10
93.8758
 20
119.4413
 30
0.0
 10
93.8758
 20
119.4413
 30
0.0
 10
93.0887
 20
119.1395
 30
0.0
 10
91.8753
 20
119.4491
 30
0.0
 10
91.8753
 20
120.3892
 30
0.0
 10
91.8753
 20
120.3892
 30
0.0
 10
91.8753
 20
120.3892
 30
0.0
 10
91.902
 20
125.3097
 30
0.0
 10
91.902
 20
125.3097
 30
0.0
  0
SPLINE
  5
8C
330
1F
100
AcDbEntity
  8
layer 1
 62
     7
100
AcDbSpline
210
0.0
220
0.0
230
1.0
 70
    11
 71
     3
 72
    32
 73
    28
 74
     0
 42
0.0000000001
 43
0.0000000001
 12
1.0
 22
0.0
 32
0.0
 13
1.0
 23
0.0
 33
0.0
 40
0.0
 40
0.0
 40
0.0
 40
0.0
 40
0.125
 40
0.125
 40
0.125
 40
0.125
 40
0.25
 40
0.25
 40
0.25
 40
0.25
 40
0.375
 40
0.375
 40
0.375
 40
0.375
 40
0.5
 40
0.5
 40
0.5
 40
0.5
 40
0.625
 40
0.625
 40
0.625
 40
0.625
 40
0.75
 40
0.75
 40
0.75
 40
0.75
 40
1.0
 40
1.0
 40
1.0
 40
1.0
 10
108.0207
 20
111.7097
 30
0.0
 10
108.0207
 20
111.7097
 30
0.0
 10
108.0207
 20
124.8836
 30
0.0
 10
108.0207
 20
124.8836
 30
0.0
 10
108.0207
 20
124.8836
 30
0.0
 10
107.9432
 20
126.0953
 30
0.0
 10
109.2632
 20
126.7637
 30
0.0
 10
110.2578
 20
126.7637
 30
0.0
 10
110.2578
 20
126.7637
 30
0.0
 10
110.2578
 20
126.7637
 30
0.0
 10
132.8187
 20
126.7637
 30
0.0
 10
132.8187
 20
126.7637
 30
0.0
 10
132.8187
 20
126.7637
 30
0.0
 10
134.5089
 20
126.2168
 30
0.0
 10
135.0006
 20
124.3218
 30
0.0
 10
133.3212
 20
123.4031
 30
0.0
 10
133.3212
 20
123.4031
 30
0.0
 10
133.3212
 20
123.4031
 30
0.0
 10
111.2346
 20
110.1946
 30
0.0
 10
111.2346
 20
110.1946
 30
0.0
 10
111.2346
 20
110.1946
 30
0.0
 10
109.7628
 20
109.5299
 30
0.0
 10
108.0207
 20
109.4378
 30
0.0
 10
108.0207
 20
111.7096
 30
0.0
 10
108.0207
 20
111.7096
 30
0.0
 10
108.0207
 20
111.7096
 30
0.0
 10
108.0207
 20
111.7097
 30
0.0
 10
108.0207
 20
111.7097
 30
0.0
  0
SPLINE
  5
8D
330
1F
100
AcDbEntity
  8
layer 1
 62
     7
100
AcDbSpline
210
0.0
220
0.0
230
1.0
 70
    11
 71
     3
 72
    32
 73
    28
 74
     0
 42
0.0000000001
 43
0.0000000001
 12
1.0
 22
0.0
 32
0.0
 13
1.0
 23
0.0
 33
0.0
 40
0.0
 40
0.0
 40
0.0
 40
0.0
 40
0.125
 40
0.125
 40
0.125
 40
0.125
 40
0.25
 40
0.25
 40
0.25
 40
0.25
 40
0.375
 40
0.375
 40
0.375
 40
0.375
 40
0.5
 40
0.5
 40
0.5
 40
0.5
 40
0.625
 40
0.625
 40
0.625
 40
0.625
 40
0.75
 40
0.75
 40
0.75
 40
0.75
 40
1.0
 40
1.0
 40
1.0
 40
1.0
 10
142.0453
 20
111.7097
 30
0.0
 10
142.0453
 20
111.7097
 30
0.0
 10
142.0453
 20
124.8836
 30
0.0
 10
142.0453
 20
124.8836
 30
0.0
 10
142.0453
 20
124.8836
 30
0.0
 10
141.9678
 20
126.0953
 30
0.0
 10
143.2878
 20
126.7637
 30
0.0
 10
144.2824
 20
126.7637
 30
0.0
 10
144.2824
 20
126.7637
 30
0.0
 10
144.2824
 20
126.7637
 30
0.0
 10
166.8433
 20
126.7637
 30
0.0
 10
166.8433
 20
126.7637
 30
0.0
 10
166.8433
 20
126.7637
 30
0.0
 10
168.5335
 20
126.2168
 30
0.0
 10
169.0252
 20
124.3218
 30
0.0
 10
167.3458
 20
123.4031
 30
0.0
 10
167.3458
 20
123.4031
 30
0.0
 10
167.3458
 20
123.4031
 30
0.0
 10
145.2592
 20
110.1946
 30
0.0
 10
145.2592
 20
110.1946
 30
0.0
 10
145.2592
 20
110.1946
 30
0.0
 10
143.7874
 20
109.5299
 30
0.0
 10
142.0453
 20
109.4378
 30
0.0
 10
142.0453
 20
111.7096
 30
0.0
 10
142.0453
 20
111.7096
 30
0.0
 10
142.0453
 20
111.7096
 30
0.0
 10
142.0453
 20
111.7097
 30
0.0
 10
142.0453
 20
111.7097
 30
0.0
  0
SPLINE
  5
8E
330
1F
100
AcDbEntity
  8
layer 1
 62
     7
100
AcDbSpline
210
0.0
220
0.0
230
1.0
 70
    11
 71
     3
 72
    40
 73
    36
 74
     0
 42
0.0000000001
 43
0.0000000001
 12
1.0
 22
0.0
 32
0.0
 13
1.0
 23
0.0
 33
0.0
 40
0.0
 40
0.0
 40
0.0
 40
0.0
 40
0.1
 40
0.1
 40
0.1
 40
0.1
 40
0.2
 40
0.2
 40
0.2
 40
0.2
 40
0.3
 40
0.3
 40
0.3
 40
0.3
 40
0.4
 40
0.4
 40
0.4
 40
0.4
 40
0.5
 40
0.5
 40
0.5
 40
0.5
 40
0.6
 40
0.6
 40
0.6
 40
0.6
 40
0.7
 40
0.7
 40
0.7
 40
0.7
 40
0.8
 40
0.8
 40
0.8
 40
0.8
 40
1.0
 40
1.0
 40
1.0
 40
1.0
 10
175.2254
 20
-94.998
 30
0.0
 10
175.2254
 20
-94.998
 30
0.0
 10
175.1825
 20
-107.7543
 30
0.0
 10
175.1825
 20
-107.7543
 30
0.0
 10
175.1825
 20
-107.7543
 30
0.0
 10
175.1825
 20
-110.3243
 30
0.0
 10
177.2109
 20
-110.0521
 30
0.0
 10
178.2774
 20
-110.0521
 30
0.0
 10
178.2774
 20
-110.0521
 30
0.0
 10
178.2774
 20
-110.0521
 30
0.0
 10
185.5475
 20
-110.0521
 30
0.0
 10
187.5816
 20
-110.0521
 30
0.0
 10
187.5816
 20
-110.0521
 30
0.0
 10
188.8702
 20
-110.0521
 30
0.0
 10
189.5087
 20
-108.7736
 30
0.0
 10
189.4501
 20
-107.5652
 30
0.0
 10
189.4501
 20
-107.5652
 30
0.0
 10
189.3914
 20
-105.2252
 30
0.0
 10
189.4274
 20
-104.1956
 30
0.0
 10
189.4138
 20
-101.898
 30
0.0
 10
189.4138
 20
-101.898
 30
0.0
 10
189.5032
 20
-100.5264
 30
0.0
 10
189.1072
 20
-100.0324
 30
0.0
 10
188.3274
 20
-99.4548
 30
0.0
 10
188.3274
 20
-99.4548
 30
0.0
 10
186.6216
 20
-98.4657
 30
0.0
 10
178.4393
 20
-93.4831
 30
0.0
 10
178.4393
 20
-93.4831
 30
0.0
 10
178.4393
 20
-93.4831
 30
0.0
 10
176.9675
 20
-92.8184
 30
0.0
 10
175.2254
 20
-92.7262
 30
0.0
 10
175.2254
 20
-94.9981
 30
0.0
 10
175.2254
 20
-94.9981
 30
0.0
 10
175.2254
 20
-94.9981
 30
0.0
 10
175.2254
 20
-94.998
 30
0.0
 10
175.2254
 20
-94.998
 30
0.0
  0
SPLINE
  5
8F
330
1F
100
AcDbEntity
  8
layer 1
 62
     7
100
AcDbSpline
210
0.0
220
0.0
230
1.0
 70
    11
 71
     3
 72
    28
 73
    24
 74
     0
 42
0.0000000001
 43
0.0000000001
 12
1.0
 22
0.0
 32
0.0
 13
1.0
 23
0.0
 33
0.0
 40
0.0
 40
0.0
 40
0.0
 40
0.0
 40
0.1428571428571428
 40
0.1428571428571428
 40
0.1428571428571428
 40
0.1428571428571428
 40
0.2857142857142857
 40
0.2857142857142857
 40
0.2857142857142857
 40
0.2857142857142857
 40
0.4285714285714285
 40
0.4285714285714285
 40
0.4285714285714285
 40
0.4285714285714285
 40
0.5714285714285714
 40
0.5714285714285714
 40
0.5714285714285714
 40
0.5714285714285714
 40
0.7142857142857143
 40
0.7142857142857143
 40
0.7142857142857143
 40
0.7142857142857143
 40
1.0
 40
1.0
 40
1.0
 40
1.0
 10
91.8492
 20
-108.598
 30
0.0
 10
91.8492
 20
-109.6614
 30
0.0
 10
92.7321
 20
-110.052
 30
0.0
 10
93.4656
 20
-109.9717
 30
0.0
 10
93.4656
 20
-109.9717
 30
0.0
 10
93.4656
 20
-109.9717
 30
0.0
 10
100.0582
 20
-110.052
 30
0.0
 10
100.0582
 20
-110.052
 30
0.0
 10
100.0582
 20
-110.052
 30
0.0
 10
102.1337
 20
-110.052
 30
0.0
 10
101.8991
 20
-107.8238
 30
0.0
 10
101.1939
 20
-107.4062
 30
0.0
 10
101.1939
 20
-107.4062
 30
0.0
 10
101.1939
 20
-107.4062
 30
0.0
 10
93.823
 20
-102.7296
 30
0.0
 10
93.823
 20
-102.7296
 30
0.0
 10
93.823
 20
-102.7296
 30
0.0
 10
93.0359
 20
-102.4279
 30
0.0
 10
91.8225
 20
-102.7375
 30
0.0
 10
91.8225
 20
-103.6776
 30
0.0
 10
91.8225
 20
-103.6776
 30
0.0
 10
91.8225
 20
-103.6776
 30
0.0
 10
91.8492
 20
-108.598
 30
0.0
 10
91.8492
 20
-108.598
 30
0.0
  0
SPLINE
  5
90
330
1F
100
AcDbEntity
  8
layer 1
 62
     7
100
AcDbSpline
210
0.0
220
0.0
230
1.0
 70
    11
 71
     3
 72
    32
 73
    28
 74
     0
 42
0.0000000001
 43
0.0000000001
 12
1.0
 22
0.0
 32
0.0
 13
1.0
 23
0.0
 33
0.0
 40
0.0
 40
0.0
 40
0.0
 40
0.0
 40
0.125
 40
0.125
 40
0.125
 40
0.125
 40
0.25
 40
0.25
 40
0.25
 40
0.25
 40
0.375
 40
0.375
 40
0.375
 40
0.375
 40
0.5
 40
0.5
 40
0.5
 40
0.5
 40
0.625
 40
0.625
 40
0.625
 40
0.625
 40
0.75
 40
0.75
 40
0.75
 40
0.75
 40
1.0
 40
1.0
 40
1.0
 40
1.0
 10
107.6602
 20
-94.998
 30
0.0
 10
107.6602
 20
-94.998
 30
0.0
 10
107.6602
 20
-108.1719
 30
0.0
 10
107.6602
 20
-108.1719
 30
0.0
 10
107.6602
 20
-108.1719
 30
0.0
 10
107.5826
 20
-109.3837
 30
0.0
 10
108.9026
 20
-110.052
 30
0.0
 10
109.8972
 20
-110.052
 30
0.0
 10
109.8972
 20
-110.052
 30
0.0
 10
109.8972
 20
-110.052
 30
0.0
 10
132.4581
 20
-110.052
 30
0.0
 10
132.4581
 20
-110.052
 30
0.0
 10
132.4581
 20
-110.052
 30
0.0
 10
134.1484
 20
-109.5051
 30
0.0
 10
134.6401
 20
-107.6102
 30
0.0
 10
132.9606
 20
-106.6915
 30
0.0
 10
132.9606
 20
-106.6915
 30
0.0
 10
132.9606
 20
-106.6915
 30
0.0
 10
110.8741
 20
-93.483
 30
0.0
 10
110.8741
 20
-93.483
 30
0.0
 10
110.8741
 20
-93.483
 30
0.0
 10
109.4023
 20
-92.8183
 30
0.0
 10
107.6602
 20
-92.7261
 30
0.0
 10
107.6602
 20
-94.998
 30
0.0
 10
107.6602
 20
-94.998
 30
0.0
 10
107.6602
 20
-94.998
 30
0.0
 10
107.6602
 20
-94.998
 30
0.0
 10
107.6602
 20
-94.998
 30
0.0
  0
SPLINE
  5
91
330
1F
100
AcDbEntity
  8
layer 1
 62
     7
100
AcDbSpline
210
0.0
220
0.0
230
1.0
 70
    11
 71
     3
 72
    32
 73
    28
 74
     0
 42
0.0000000001
 43
0.0000000001
 12
1.0
 22
0.0
 32
0.0
 13
1.0
 23
0.0
 33
0.0
 40
0.0
 40
0.0
 40
0.0
 40
0.0
 40
0.125
 40
0.125
 40
0.125
 40
0.125
 40
0.25
 40
0.25
 40
0.25
 40
0.25
 40
0.375
 40
0.375
 40
0.375
 40
0.375
 40
0.5
 40
0.5
 40
0.5
 40
0.5
 40
0.625
 40
0.625
 40
0.625
 40
0.625
 40
0.75
 40
0.75
 40
0.75
 40
0.75
 40
1.0
 40
1.0
 40
1.0
 40
1.0
 10
141.6848
 20
-94.998
 30
0.0
 10
141.6848
 20
-94.998
 30
0.0
 10
141.6848
 20
-108.1719
 30
0.0
 10
141.6848
 20
-108.1719
 30
0.0
 10
141.6848
 20
-108.1719
 30
0.0
 10
141.6072
 20
-109.3837
 30
0.0
 10
142.9272
 20
-110.052
 30
0.0
 10
143.9218
 20
-110.052
 30
0.0
 10
143.9218
 20
-110.052
 30
0.0
 10
143.9218
 20
-110.052
 30
0.0
 10
166.4827
 20
-110.052
 30
0.0
 10
166.4827
 20
-110.052
 30
0.0
 10
166.4827
 20
-110.052
 30
0.0
 10
168.173
 20
-109.5051
 30
0.0
 10
168.6647
 20
-107.6102
 30
0.0
 10
166.9852
 20
-106.6915
 30
0.0
 10
166.9852
 20
-106.6915
 30
0.0
 10
166.9852
 20
-106.6915
 30
0.0
 10
144.8987
 20
-93.483
 30
0.0
 10
144.8987
 20
-93.483
 30
0.0
 10
144.8987
 20
-93.483
 30
0.0
 10
143.4268
 20
-92.8183
 30
0.0
 10
141.6848
 20
-92.7261
 30
0.0
 10
141.6848
 20
-94.998
 30
0.0
 10
141.6848
 20
-94.998
 30
0.0
 10
141.6848
 20
-94.998
 30
0.0
 10
141.6848
 20
-94.998
 30
0.0
 10
141.6848
 20
-94.998
 30
0.0
  0
ENDSEC
  0
SECTION
  2
OBJECTS
  0
DICTIONARY
  5
C
330
0
100
AcDbDictionary
281
     1
  3
ACAD_GROUP
350
D
  3
ACAD_LAYOUT
350
1A
  3
ACAD_MATERIAL
350
3B
  3
ACAD_MLEADERSTYLE
350
B3
  3
ACAD_MLINESTYLE
350
17
  3
ACAD_PLOTSETTINGS
350
19
  3
ACAD_PLOTSTYLENAME
350
E
  3
ACAD_TABLESTYLE
350
B2
  3
ACAD_VISUALSTYLE
350
2A
  0
DICTIONARY
  5
D
102
{ACAD_REACTORS
330
C
102
}
330
C
100
AcDbDictionary
281
     1
  0
DICTIONARY
  5
1A
102
{ACAD_REACTORS
330
C
102
}
330
C
100
AcDbDictionary
281
     1
  3
Layout1
350
1E
  3
Layout2
350
26
  3
Model
350
22
  0
DICTIONARY
  5
3B
102
{ACAD_REACTORS
330
C
102
}
330
C
100
AcDbDictionary
281
     1
  3
ByBlock
350
3D
  3
ByLayer
350
3C
  3
Global
350
3E
  0
DICTIONARY
  5
B3
102
{ACAD_REACTORS
330
C
102
}
330
C
100
AcDbDictionary
281
     1
  0
DICTIONARY
  5
17
102
{ACAD_REACTORS
330
C
102
}
330
C
100
AcDbDictionary
281
     1
  3
Standard
350
18
  0
DICTIONARY
  5
19
102
{ACAD_REACTORS
330
C
102
}
330
C
100
AcDbDictionary
281
     1
  0
ACDBDICTIONARYWDFLT
  5
E
102
{ACAD_REACTORS
330
C
102
}
330
C
100
AcDbDictionary
281
     1
  3
Normal
350
F
100
AcDbDictionaryWithDefault
340
F
  0
DICTIONARY
  5
B2
102
{ACAD_REACTORS
330
C
102
}
330
C
100
AcDbDictionary
281
     1
  0
DICTIONARY
  5
2A
102
{ACAD_REACTORS
330
C
102
}
330
C
100
AcDbDictionary
281
     1
  3
2dWireframe
350
2F
  3
3D Hidden
350
31
  3
3dWireframe
350
30
  3
Basic
350
32
  3
Brighten
350
36
  3
ColorChange
350
3A
  3
Conceptual
350
34
  3
Dim
350
35
  3
Facepattern
350
39
  3
Flat
350
2B
  3
FlatWithEdges
350
2C
  3
Gouraud
350
2D
  3
GouraudWithEdges
350
2E
  3
Linepattern
350
38
  3
Realistic
350
33
  3
Thicken
350
37
  0
LAYOUT
  5
1E
102
{ACAD_REACTORS
330
1A
102
}
330
1A
100
AcDbPlotSettings
  1

  2
none_device
  4

  6

 40
0.0
 41
0.0
 42
0.0
 43
0.0
 44
0.0
 45
0.0
 46
0.0
 47
0.0
 48
0.0
 49
0.0
140
0.0
141
0.0
142
1.0
143
1.0
 70
   688
 72
     0
 73
     0
 74
     5
  7

 75
    16
 76
     0
 77
     2
 78
   300
147
1.0
148
0.0
149
0.0
100
AcDbLayout
  1
Layout1
 70
     1
 71
     1
 10
0.0
 20
0.0
 11
12.0
 21
9.0
 12
0.0
 22
0.0
 32
0.0
 14
1.000000000000000E+20
 24
1.000000000000000E+20
 34
1.000000000000000E+20
 15
-1.000000000000000E+20
 25
-1.000000000000000E+20
 35
-1.000000000000000E+20
146
0.0
 13
0.0
 23
0.0
 33
0.0
 16
1.0
 26
0.0
 36
0.0
 17
0.0
 27
1.0
 37
0.0
 76
     0
330
1B
  0
LAYOUT
  5
26
102
{ACAD_REACTORS
330
1A
102
}
330
1A
100
AcDbPlotSettings
  1

  2
none_device
  4

  6

 40
0.0
 41
0.0
 42
0.0
 43
0.0
 44
0.0
 45
0.0
 46
0.0
 47
0.0
 48
0.0
 49
0.0
140
0.0
141
0.0
142
1.0
143
1.0
 70
   688
 72
     0
 73
     0
 74
     5
  7

 75
    16
 76
     0
 77
     2
 78
   300
147
1.0
148
0.0
149
0.0
100
AcDbLayout
  1
Layout2
 70
     1
 71
     2
 10
0.0
 20
0.0
 11
0.0
 21
0.0
 12
0.0
 22
0.0
 32
0.0
 14
0.0
 24
0.0
 34
0.0
 15
0.0
 25
0.0
 35
0.0
146
0.0
 13
0.0
 23
0.0
 33
0.0
 16
1.0
 26
0.0
 36
0.0
 17
0.0
 27
1.0
 37
0.0
 76
     0
330
23
  0
LAYOUT
  5
22
102
{ACAD_REACTORS
330
1A
102
}
330
1A
100
AcDbPlotSettings
  1

  2
none_device
  4

  6

 40
0.0
 41
0.0
 42
0.0
 43
0.0
 44
0.0
 45
0.0
 46
0.0
 47
0.0
 48
0.0
 49
0.0
140
0.0
141
0.0
142
1.0
143
1.0
 70
  1712
 72
     0
 73
     0
 74
     0
  7

 75
     0
 76
     0
 77
     2
 78
   300
147
1.0
148
0.0
149
0.0
100
AcDbLayout
  1
Model
 70
     1
 71
     0
 10
0.0
 20
0.0
 11
12.0
 21
9.0
 12
0.0
 22
0.0
 32
0.0
 14
84.4823
 24
-115.1128
 34
0.0
 15
196.3129
 25
131.8244
 35
0.0
146
0.0
 13
0.0
 23
0.0
 33
0.0
 16
1.0
 26
0.0
 36
0.0
 17
0.0
 27
1.0
 37
0.0
 76
     0
330
1F
331
29
  0
MATERIAL
  5
3D
102
{ACAD_REACTORS
330
3B
102
}
330
3B
100
AcDbMaterial
  1
ByBlock
 72
     1
 94
      127
  0
MATERIAL
  5
3C
102
{ACAD_REACTORS
330
3B
102
}
330
3B
100
AcDbMaterial
  1
ByLayer
 72
     1
 94
      127
  0
MATERIAL
  5
3E
102
{ACAD_REACTORS
330
3B
102
}
330
3B
100
AcDbMaterial
  1
Global
 72
     1
 94
      127
  0
MLINESTYLE
  5
18
102
{ACAD_REACTORS
330
17
102
}
330
17
100
AcDbMlineStyle
  2
Standard
 70
     0
  3

 62
   256
 51
90.0
 52
90.0
 71
     2
 49
0.5
 62
   256
  6
BYLAYER
 49
-0.5
 62
   256
  6
BYLAYER
  0
ACDBPLACEHOLDER
  5
F
102
{ACAD_REACTORS
330
E
102
}
330
E
  0
VISUALSTYLE
  5
2F
102
{ACAD_REACTORS
330
2A
102
}
102
{ACAD_XDICTIONARY
360
9A
102
}
330
2A
100
AcDbVisualStyle
  2
2dWireframe
 70
     4
 71
     0
 72
     2
 73
     0
 90
        0
 40
-0.6
 41
-30.0
 62
     5
 63
     7
421
 16777215
 74
     1
 91
        4
 64
     7
 65
   257
 75
     1
175
     1
 42
1.0
 92
        0
 66
   257
 43
1.0
 76
     1
 77
     6
 78
     2
 67
     7
 79
     5
170
     0
171
     0
290
     0
174
     0
 93
        1
 44
0.0
173
     0
291
     0
 45
0.0
  0
VISUALSTYLE
  5
31
102
{ACAD_REACTORS
330
2A
102
}
102
{ACAD_XDICTIONARY
360
9E
102
}
330
2A
100
AcDbVisualStyle
  2
3D Hidden
 70
     6
 71
     1
 72
     2
 73
     2
 90
        0
 40
-0.6
 41
-30.0
 62
     5
 63
     7
421
 16777215
 74
     2
 91
        2
 64
     7
 65
   257
 75
     2
175
     1
 42
40.0
 92
        0
 66
   257
 43
1.0
 76
     1
 77
     6
 78
     2
 67
     7
 79
     3
170
     0
171
     0
290
     0
174
     0
 93
        1
 44
0.0
173
     0
291
     0
 45
0.0
  0
VISUALSTYLE
  5
30
102
{ACAD_REACTORS
330
2A
102
}
102
{ACAD_XDICTIONARY
360
9C
102
}
330
2A
100
AcDbVisualStyle
  2
3dWireframe
 70
     5
 71
     0
 72
     2
 73
     0
 90
        0
 40
-0.6
 41
-30.0
 62
     5
 63
     7
421
 16777215
 74
     1
 91
        4
 64
     7
 65
   257
 75
     1
175
     1
 42
1.0
 92
        0
 66
   257
 43
1.0
 76
     1
 77
     6
 78
     2
 67
     7
 79
     5
170
     0
171
     0
290
     0
174
     0
 93
        1
 44
0.0
173
     0
291
     0
 45
0.0
  0
VISUALSTYLE
  5
32
102
{ACAD_REACTORS
330
2A
102
}
102
{ACAD_XDICTIONARY
360
A0
102
}
330
2A
100
AcDbVisualStyle
  2
Basic
 70
     7
 71
     1
 72
     0
 73
     1
 90
        0
 40
-0.6
 41
-30.0
 62
     5
 63
     7
421
 16777215
 74
     0
 91
        4
 64
     7
 65
   257
 75
     1
175
     1
 42
1.0
 92
        8
 66
     7
 43
1.0
 76
     1
 77
     6
 78
     2
 67
     7
 79
     5
170
     0
171
     0
290
     0
174
     0
 93
        1
 44
0.0
173
     0
291
     1
 45
0.0
  0
VISUALSTYLE
  5
36
102
{ACAD_REACTORS
330
2A
102
}
102
{ACAD_XDICTIONARY
360
A8
102
}
330
2A
100
AcDbVisualStyle
  2
Brighten
 70
    12
 71
     2
 72
     2
 73
     0
 90
        0
 40
-0.6
 41
-30.0
 62
     5
 63
     7
421
 16777215
 74
     1
 91
        4
 64
     7
 65
   257
 75
     1
175
     1
 42
1.0
 92
        8
 66
     7
 43
1.0
 76
     1
 77
     6
 78
     2
 67
     7
 79
     5
170
     0
171
     0
290
     0
174
     0
 93
        1
 44
50.0
173
     0
291
     1
 45
0.0
  0
VISUALSTYLE
  5
3A
102
{ACAD_REACTORS
330
2A
102
}
102
{ACAD_XDICTIONARY
360
B0
102
}
330
2A
100
AcDbVisualStyle
  2
ColorChange
 70
    16
 71
     2
 72
     2
 73
     3
 90
        0
 40
-0.6
 41
-30.0
 62
     5
 63
     8
421
  8421504
 74
     1
 91
        4
 64
     7
 65
   257
 75
     1
175
     1
 42
1.0
 92
        8
 66
     8
424
  8421504
 43
1.0
 76
     1
 77
     6
 78
     2
 67
     7
 79
     5
170
     0
171
     0
290
     0
174
     0
 93
        1
 44
0.0
173
     0
291
     1
 45
0.0
  0
VISUALSTYLE
  5
34
102
{ACAD_REACTORS
330
2A
102
}
102
{ACAD_XDICTIONARY
360
A4
102
}
330
2A
100
AcDbVisualStyle
  2
Conceptual
 70
     9
 71
     3
 72
     2
 73
     0
 90
        0
 40
-0.6
 41
-30.0
 62
     5
 63
     7
421
 16777215
 74
     2
 91
        2
 64
     7
 65
   257
 75
     1
175
     1
 42
40.0
 92
        8
 66
     7
 43
1.0
 76
     1
 77
     6
 78
     2
 67
     7
 79
     3
170
     0
171
     0
290
     0
174
     0
 93
        1
 44
0.0
173
     0
291
     0
 45
0.0
  0
VISUALSTYLE
  5
35
102
{ACAD_REACTORS
330
2A
102
}
102
{ACAD_XDICTIONARY
360
A6
102
}
330
2A
100
AcDbVisualStyle
  2
Dim
 70
    11
 71
     2
 72
     2
 73
     0
 90
        0
 40
-0.6
 41
-30.0
 62
     5
 63
     7
421
 16777215
 74
     1
 91
        4
 64
     7
 65
   257
 75
     1
175
     1
 42
1.0
 92
        8
 66
     7
 43
1.0
 76
     1
 77
     6
 78
     2
 67
     7
 79
     5
170
     0
171
     0
290
     0
174
     0
 93
        1
 44
-50.0
173
     0
291
     1
 45
0.0
  0
VISUALSTYLE
  5
39
102
{ACAD_REACTORS
330
2A
102
}
102
{ACAD_XDICTIONARY
360
AE
102
}
330
2A
100
AcDbVisualStyle
  2
Facepattern
 70
    15
 71
     2
 72
     2
 73
     0
 90
        0
 40
-0.6
 41
-30.0
 62
     5
 63
     7
421
 16777215
 74
     1
 91
        4
 64
     7
 65
   257
 75
     1
175
     1
 42
1.0
 92
        8
 66
     7
 43
1.0
 76
     1
 77
     6
 78
     2
 67
     7
 79
     5
170
     0
171
     0
290
     0
174
     0
 93
        1
 44
0.0
173
     0
291
     1
 45
0.0
  0
VISUALSTYLE
  5
2B
102
{ACAD_REACTORS
330
2A
102
}
102
{ACAD_XDICTIONARY
360
92
102
}
330
2A
100
AcDbVisualStyle
  2
Flat
 70
     0
 71
     2
 72
     1
 73
     1
 90
        2
 40
-0.6
 41
30.0
 62
     5
 63
     7
421
 16777215
 74
     0
 91
        4
 64
     7
 65
   257
 75
     1
175
     1
 42
1.0
 92
        8
 66
     7
 43
1.0
 76
     1
 77
     6
 78
     2
 67
     7
 79
     5
170
     0
171
     0
290
     0
174
     0
 93
       13
 44
0.0
173
     0
291
     1
 45
0.0
  0
VISUALSTYLE
  5
2C
102
{ACAD_REACTORS
330
2A
102
}
102
{ACAD_XDICTIONARY
360
94
102
}
330
2A
100
AcDbVisualStyle
  2
FlatWithEdges
 70
     1
 71
     2
 72
     1
 73
     1
 90
        2
 40
-0.6
 41
30.0
 62
     5
 63
     7
421
 16777215
 74
     1
 91
        4
 64
     7
 65
   257
 75
     1
175
     1
 42
1.0
 92
        0
 66
   257
 43
1.0
 76
     1
 77
     6
 78
     2
 67
     7
 79
     5
170
     0
171
     0
290
     0
174
     0
 93
       13
 44
0.0
173
     0
291
     1
 45
0.0
  0
VISUALSTYLE
  5
2D
102
{ACAD_REACTORS
330
2A
102
}
102
{ACAD_XDICTIONARY
360
96
102
}
330
2A
100
AcDbVisualStyle
  2
Gouraud
 70
     2
 71
     2
 72
     2
 73
     1
 90
        2
 40
-0.6
 41
30.0
 62
     5
 63
     7
421
 16777215
 74
     0
 91
        4
 64
     7
 65
   257
 75
     1
175
     1
 42
1.0
 92
        0
 66
     7
 43
1.0
 76
     1
 77
     6
 78
     2
 67
     7
 79
     5
170
     0
171
     0
290
     0
174
     0
 93
       13
 44
0.0
173
     0
291
     1
 45
0.0
  0
VISUALSTYLE
  5
2E
102
{ACAD_REACTORS
330
2A
102
}
102
{ACAD_XDICTIONARY
360
98
102
}
330
2A
100
AcDbVisualStyle
  2
GouraudWithEdges
 70
     3
 71
     2
 72
     2
 73
     1
 90
        2
 40
-0.6
 41
30.0
 62
     5
 63
     7
421
 16777215
 74
     1
 91
        4
 64
     7
 65
   257
 75
     1
175
     1
 42
1.0
 92
        0
 66
   257
 43
1.0
 76
     1
 77
     6
 78
     2
 67
     7
 79
     5
170
     0
171
     0
290
     0
174
     0
 93
       13
 44
0.0
173
     0
291
     1
 45
0.0
  0
VISUALSTYLE
  5
38
102
{ACAD_REACTORS
330
2A
102
}
102
{ACAD_XDICTIONARY
360
AC
102
}
330
2A
100
AcDbVisualStyle
  2
Linepattern
 70
    14
 71
     2
 72
     2
 73
     0
 90
        0
 40
-0.6
 41
-30.0
 62
     5
 63
     7
421
 16777215
 74
     1
 91
        4
 64
     7
 65
   257
 75
     7
175
     7
 42
1.0
 92
        8
 66
     7
 43
1.0
 76
     1
 77
     6
 78
     2
 67
     7
 79
     5
170
     0
171
     0
290
     0
174
     0
 93
        1
 44
0.0
173
     0
291
     1
 45
0.0
  0
VISUALSTYLE
  5
33
102
{ACAD_REACTORS
330
2A
102
}
102
{ACAD_XDICTIONARY
360
A2
102
}
330
2A
100
AcDbVisualStyle
  2
Realistic
 70
     8
 71
     2
 72
     2
 73
     0
 90
        0
 40
-0.6
 41
-30.0
 62
     5
 63
     7
421
 16777215
 74
     1
 91
        0
 64
     7
 65
   257
 75
     1
175
     1
 42
1.0
 92
        8
 66
     8
424
  7895160
 43
1.0
 76
     1
 77
     6
 78
     2
 67
     7
 79
     5
170
     0
171
     0
290
     0
174
     0
 93
       13
 44
0.0
173
     0
291
     0
 45
0.0
  0
VISUALSTYLE
  5
37
102
{ACAD_REACTORS
330
2A
102
}
102
{ACAD_XDICTIONARY
360
AA
102
}
330
2A
100
AcDbVisualStyle
  2
Thicken
 70
    13
 71
     2
 72
     2
 73
     0
 90
        0
 40
-0.6
 41
-30.0
 62
     5
 63
     7
421
 16777215
 74
     1
 91
        4
 64
     7
 65
   257
 75
     1
175
     1
 42
1.0
 92
       12
 66
     7
 43
1.0
 76
     1
 77
     6
 78
     2
 67
     7
 79
     5
170
     0
171
     0
290
     0
174
     0
 93
        1
 44
0.0
173
     0
291
     1
 45
0.0
  0
DICTIONARY
  5
9A
330
2F
100
AcDbDictionary
280
     1
281
     1
  3
ACAD_XREC_ROUNDTRIP
360
9B
  0
DICTIONARY
  5
9E
330
31
100
AcDbDictionary
280
     1
281
     1
  3
ACAD_XREC_ROUNDTRIP
360
9F
  0
DICTIONARY
  5
9C
330
30
100
AcDbDictionary
280
     1
281
     1
  3
ACAD_XREC_ROUNDTRIP
360
9D
  0
DICTIONARY
  5
A0
330
32
100
AcDbDictionary
280
     1
281
     1
  3
ACAD_XREC_ROUNDTRIP
360
A1
  0
DICTIONARY
  5
A8
330
36
100
AcDbDictionary
280
     1
281
     1
  3
ACAD_XREC_ROUNDTRIP
360
A9
  0
DICTIONARY
  5
B0
330
3A
100
AcDbDictionary
280
     1
281
     1
  3
ACAD_XREC_ROUNDTRIP
360
B1
  0
DICTIONARY
  5
A4
330
34
100
AcDbDictionary
280
     1
281
     1
  3
ACAD_XREC_ROUNDTRIP
360
A5
  0
DICTIONARY
  5
A6
330
35
100
AcDbDictionary
280
     1
281
     1
  3
ACAD_XREC_ROUNDTRIP
360
A7
  0
DICTIONARY
  5
AE
330
39
100
AcDbDictionary
280
     1
281
     1
  3
ACAD_XREC_ROUNDTRIP
360
AF
  0
DICTIONARY
  5
92
330
2B
100
AcDbDictionary
280
     1
281
     1
  3
ACAD_XREC_ROUNDTRIP
360
93
  0
DICTIONARY
  5
94
330
2C
100
AcDbDictionary
280
     1
281
     1
  3
ACAD_XREC_ROUNDTRIP
360
95
  0
DICTIONARY
  5
96
330
2D
100
AcDbDictionary
280
     1
281
     1
  3
ACAD_XREC_ROUNDTRIP
360
97
  0
DICTIONARY
  5
98
330
2E
100
AcDbDictionary
280
     1
281
     1
  3
ACAD_XREC_ROUNDTRIP
360
99
  0
DICTIONARY
  5
AC
330
38
100
AcDbDictionary
280
     1
281
     1
  3
ACAD_XREC_ROUNDTRIP
360
AD
  0
DICTIONARY
  5
A2
330
33
100
AcDbDictionary
280
     1
281
     1
  3
ACAD_XREC_ROUNDTRIP
360
A3
  0
DICTIONARY
  5
AA
330
37
100
AcDbDictionary
280
     1
281
     1
  3
ACAD_XREC_ROUNDTRIP
360
AB
  0
XRECORD
  5
9B
102
{ACAD_REACTORS
330
9A
102
}
330
9A
100
AcDbXrecord
280
     1
102
RTVSPropertyOp0
 70
     1
102
RTVSPropertyOp1
 70
     1
102
RTVSPropertyOp2
 70
     1
102
RTVSPropertyOp3
 70
     1
102
RTVSPropertyOp4
 70
     1
102
RTVSPropertyOp5
 70
     1
102
RTVSPropertyOp6
 70
     1
102
RTVSPropertyOp7
 70
     1
102
RTVSPropertyOp8
 70
     1
102
RTVSPropertyOp9
 70
     1
102
RTVSPropertyOp10
 70
     1
102
RTVSPropertyOp11
 70
     1
102
RTVSPropertyOp12
 70
     1
102
RTVSPropertyOp13
 70
     1
102
RTVSPropertyOp14
 70
     1
102
RTVSPropertyOp15
 70
     1
102
RTVSPropertyOp16
 70
     1
102
RTVSPropertyOp17
 70
     1
102
RTVSPropertyOp18
 70
     1
102
RTVSPropertyOp19
 70
     1
102
RTVSPropertyOp20
 70
     1
102
RTVSPropertyOp21
 70
     1
102
RTVSPropertyOp22
 70
     1
102
RTVSPropertyOp23
 70
     1
102
RTVSPropertyOp24
 70
     1
102
RTVSPropertyOp25
 70
     1
102
RTVSPropertyOp26
 70
     1
102
RTVSPropertyOp27
 70
     1
102
RTVSPropertyOp28
 70
     1
102
RTVSPropertyOp29
 70
     1
102
RTVSPropertyOp30
 70
     1
102
RTVSPropertyOp31
 70
     1
102
RTVSPropertyOp32
 70
     1
  0
XRECORD
  5
9F
102
{ACAD_REACTORS
330
9E
102
}
330
9E
100
AcDbXrecord
280
     1
102
RTVSPropertyOp0
 70
     1
102
RTVSPropertyOp1
 70
     1
102
RTVSPropertyOp2
 70
     1
102
RTVSPropertyOp3
 70
     1
102
RTVSPropertyOp4
 70
     1
102
RTVSPropertyOp5
 70
     1
102
RTVSPropertyOp6
 70
     1
102
RTVSPropertyOp7
 70
     1
102
RTVSPropertyOp8
 70
     1
102
RTVSPropertyOp9
 70
     1
102
RTVSPropertyOp10
 70
     1
102
RTVSPropertyOp11
 70
     1
102
RTVSPropertyOp12
 70
     1
102
RTVSPropertyOp13
 70
     1
102
RTVSPropertyOp14
 70
     1
102
RTVSPropertyOp15
 70
     1
102
RTVSPropertyOp16
 70
     1
102
RTVSPropertyOp17
 70
     1
102
RTVSPropertyOp18
 70
     1
102
RTVSPropertyOp19
 70
     1
102
RTVSPropertyOp20
 70
     1
102
RTVSPropertyOp21
 70
     1
102
RTVSPropertyOp22
 70
     1
102
RTVSPropertyOp23
 70
     1
102
RTVSPropertyOp24
 70
     1
102
RTVSPropertyOp25
 70
     1
102
RTVSPropertyOp26
 70
     1
102
RTVSPropertyOp27
 70
     1
102
RTVSPropertyOp28
 70
     1
102
RTVSPropertyOp29
 70
     1
102
RTVSPropertyOp30
 70
     1
102
RTVSPropertyOp31
 70
     1
102
RTVSPropertyOp32
 70
     1
  0
XRECORD
  5
9D
102
{ACAD_REACTORS
330
9C
102
}
330
9C
100
AcDbXrecord
280
     1
102
RTVSPropertyOp0
 70
     1
102
RTVSPropertyOp1
 70
     1
102
RTVSPropertyOp2
 70
     1
102
RTVSPropertyOp3
 70
     1
102
RTVSPropertyOp4
 70
     1
102
RTVSPropertyOp5
 70
     1
102
RTVSPropertyOp6
 70
     1
102
RTVSPropertyOp7
 70
     1
102
RTVSPropertyOp8
 70
     1
102
RTVSPropertyOp9
 70
     1
102
RTVSPropertyOp10
 70
     1
102
RTVSPropertyOp11
 70
     1
102
RTVSPropertyOp12
 70
     1
102
RTVSPropertyOp13
 70
     1
102
RTVSPropertyOp14
 70
     1
102
RTVSPropertyOp15
 70
     1
102
RTVSPropertyOp16
 70
     1
102
RTVSPropertyOp17
 70
     1
102
RTVSPropertyOp18
 70
     1
102
RTVSPropertyOp19
 70
     1
102
RTVSPropertyOp20
 70
     1
102
RTVSPropertyOp21
 70
     1
102
RTVSPropertyOp22
 70
     1
102
RTVSPropertyOp23
 70
     1
102
RTVSPropertyOp24
 70
     1
102
RTVSPropertyOp25
 70
     1
102
RTVSPropertyOp26
 70
     1
102
RTVSPropertyOp27
 70
     1
102
RTVSPropertyOp28
 70
     1
102
RTVSPropertyOp29
 70
     1
102
RTVSPropertyOp30
 70
     1
102
RTVSPropertyOp31
 70
     1
102
RTVSPropertyOp32
 70
     1
  0
XRECORD
  5
A1
102
{ACAD_REACTORS
330
A0
102
}
330
A0
100
AcDbXrecord
280
     1
102
RTVSPropertyOp0
 70
     1
102
RTVSPropertyOp1
 70
     1
102
RTVSPropertyOp2
 70
     1
102
RTVSPropertyOp3
 70
     1
102
RTVSPropertyOp4
 70
     1
102
RTVSPropertyOp5
 70
     1
102
RTVSPropertyOp6
 70
     1
102
RTVSPropertyOp7
 70
     1
102
RTVSPropertyOp8
 70
     1
102
RTVSPropertyOp9
 70
     1
102
RTVSPropertyOp10
 70
     1
102
RTVSPropertyOp11
 70
     1
102
RTVSPropertyOp12
 70
     1
102
RTVSPropertyOp13
 70
     1
102
RTVSPropertyOp14
 70
     1
102
RTVSPropertyOp15
 70
     1
102
RTVSPropertyOp16
 70
     1
102
RTVSPropertyOp17
 70
     1
102
RTVSPropertyOp18
 70
     1
102
RTVSPropertyOp19
 70
     1
102
RTVSPropertyOp20
 70
     1
102
RTVSPropertyOp21
 70
     1
102
RTVSPropertyOp22
 70
     1
102
RTVSPropertyOp23
 70
     1
102
RTVSPropertyOp24
 70
     1
102
RTVSPropertyOp25
 70
     1
102
RTVSPropertyOp26
 70
     1
102
RTVSPropertyOp27
 70
     1
102
RTVSPropertyOp28
 70
     1
102
RTVSPropertyOp29
 70
     1
102
RTVSPropertyOp30
 70
     1
102
RTVSPropertyOp31
 70
     1
102
RTVSPropertyOp32
 70
     1
  0
XRECORD
  5
A9
102
{ACAD_REACTORS
330
A8
102
}
330
A8
100
AcDbXrecord
280
     1
102
RTVSPropertyOp0
 70
     1
102
RTVSPropertyOp1
 70
     1
102
RTVSPropertyOp2
 70
     1
102
RTVSPropertyOp3
 70
     1
102
RTVSPropertyOp4
 70
     1
102
RTVSPropertyOp5
 70
     1
102
RTVSPropertyOp6
 70
     1
102
RTVSPropertyOp7
 70
     1
102
RTVSPropertyOp8
 70
     1
102
RTVSPropertyOp9
 70
     1
102
RTVSPropertyOp10
 70
     1
102
RTVSPropertyOp11
 70
     1
102
RTVSPropertyOp12
 70
     1
102
RTVSPropertyOp13
 70
     1
102
RTVSPropertyOp14
 70
     1
102
RTVSPropertyOp15
 70
     1
102
RTVSPropertyOp16
 70
     1
102
RTVSPropertyOp17
 70
     1
102
RTVSPropertyOp18
 70
     1
102
RTVSPropertyOp19
 70
     1
102
RTVSPropertyOp20
 70
     1
102
RTVSPropertyOp21
 70
     1
102
RTVSPropertyOp22
 70
     1
102
RTVSPropertyOp23
 70
     1
102
RTVSPropertyOp24
 70
     1
102
RTVSPropertyOp25
 70
     1
102
RTVSPropertyOp26
 70
     1
102
RTVSPropertyOp27
 70
     1
102
RTVSPropertyOp28
 70
     1
102
RTVSPropertyOp29
 70
     1
102
RTVSPropertyOp30
 70
     1
102
RTVSPropertyOp31
 70
     1
102
RTVSPropertyOp32
 70
     1
  0
XRECORD
  5
B1
102
{ACAD_REACTORS
330
B0
102
}
330
B0
100
AcDbXrecord
280
     1
102
RTVSPropertyOp0
 70
     1
102
RTVSPropertyOp1
 70
     1
102
RTVSPropertyOp2
 70
     1
102
RTVSPropertyOp3
 70
     1
102
RTVSPropertyOp4
 70
     1
102
RTVSPropertyOp5
 70
     1
102
RTVSPropertyOp6
 70
     1
102
RTVSPropertyOp7
 70
     1
102
RTVSPropertyOp8
 70
     1
102
RTVSPropertyOp9
 70
     1
102
RTVSPropertyOp10
 70
     1
102
RTVSPropertyOp11
 70
     1
102
RTVSPropertyOp12
 70
     1
102
RTVSPropertyOp13
 70
     1
102
RTVSPropertyOp14
 70
     1
102
RTVSPropertyOp15
 70
     1
102
RTVSPropertyOp16
 70
     1
102
RTVSPropertyOp17
 70
     1
102
RTVSPropertyOp18
 70
     1
102
RTVSPropertyOp19
 70
     1
102
RTVSPropertyOp20
 70
     1
102
RTVSPropertyOp21
 70
     1
102
RTVSPropertyOp22
 70
     1
102
RTVSPropertyOp23
 70
     1
102
RTVSPropertyOp24
 70
     1
102
RTVSPropertyOp25
 70
     1
102
RTVSPropertyOp26
 70
     1
102
RTVSPropertyOp27
 70
     1
102
RTVSPropertyOp28
 70
     1
102
RTVSPropertyOp29
 70
     1
102
RTVSPropertyOp30
 70
     1
102
RTVSPropertyOp31
 70
     1
102
RTVSPropertyOp32
 70
     1
  0
XRECORD
  5
A5
102
{ACAD_REACTORS
330
A4
102
}
330
A4
100
AcDbXrecord
280
     1
102
RTVSPropertyOp0
 70
     1
102
RTVSPropertyOp1
 70
     1
102
RTVSPropertyOp2
 70
     1
102
RTVSPropertyOp3
 70
     1
102
RTVSPropertyOp4
 70
     1
102
RTVSPropertyOp5
 70
     1
102
RTVSPropertyOp6
 70
     1
102
RTVSPropertyOp7
 70
     1
102
RTVSPropertyOp8
 70
     1
102
RTVSPropertyOp9
 70
     1
102
RTVSPropertyOp10
 70
     1
102
RTVSPropertyOp11
 70
     1
102
RTVSPropertyOp12
 70
     1
102
RTVSPropertyOp13
 70
     1
102
RTVSPropertyOp14
 70
     1
102
RTVSPropertyOp15
 70
     1
102
RTVSPropertyOp16
 70
     1
102
RTVSPropertyOp17
 70
     1
102
RTVSPropertyOp18
 70
     1
102
RTVSPropertyOp19
 70
     1
102
RTVSPropertyOp20
 70
     1
102
RTVSPropertyOp21
 70
     1
102
RTVSPropertyOp22
 70
     1
102
RTVSPropertyOp23
 70
     1
102
RTVSPropertyOp24
 70
     1
102
RTVSPropertyOp25
 70
     1
102
RTVSPropertyOp26
 70
     1
102
RTVSPropertyOp27
 70
     1
102
RTVSPropertyOp28
 70
     1
102
RTVSPropertyOp29
 70
     1
102
RTVSPropertyOp30
 70
     1
102
RTVSPropertyOp31
 70
     1
102
RTVSPropertyOp32
 70
     1
  0
XRECORD
  5
A7
102
{ACAD_REACTORS
330
A6
102
}
330
A6
100
AcDbXrecord
280
     1
102
RTVSPropertyOp0
 70
     1
102
RTVSPropertyOp1
 70
     1
102
RTVSPropertyOp2
 70
     1
102
RTVSPropertyOp3
 70
     1
102
RTVSPropertyOp4
 70
     1
102
RTVSPropertyOp5
 70
     1
102
RTVSPropertyOp6
 70
     1
102
RTVSPropertyOp7
 70
     1
102
RTVSPropertyOp8
 70
     1
102
RTVSPropertyOp9
 70
     1
102
RTVSPropertyOp10
 70
     1
102
RTVSPropertyOp11
 70
     1
102
RTVSPropertyOp12
 70
     1
102
RTVSPropertyOp13
 70
     1
102
RTVSPropertyOp14
 70
     1
102
RTVSPropertyOp15
 70
     1
102
RTVSPropertyOp16
 70
     1
102
RTVSPropertyOp17
 70
     1
102
RTVSPropertyOp18
 70
     1
102
RTVSPropertyOp19
 70
     1
102
RTVSPropertyOp20
 70
     1
102
RTVSPropertyOp21
 70
     1
102
RTVSPropertyOp22
 70
     1
102
RTVSPropertyOp23
 70
     1
102
RTVSPropertyOp24
 70
     1
102
RTVSPropertyOp25
 70
     1
102
RTVSPropertyOp26
 70
     1
102
RTVSPropertyOp27
 70
     1
102
RTVSPropertyOp28
 70
     1
102
RTVSPropertyOp29
 70
     1
102
RTVSPropertyOp30
 70
     1
102
RTVSPropertyOp31
 70
     1
102
RTVSPropertyOp32
 70
     1
  0
XRECORD
  5
AF
102
{ACAD_REACTORS
330
AE
102
}
330
AE
100
AcDbXrecord
280
     1
102
RTVSPropertyOp0
 70
     1
102
RTVSPropertyOp1
 70
     1
102
RTVSPropertyOp2
 70
     1
102
RTVSPropertyOp3
 70
     1
102
RTVSPropertyOp4
 70
     1
102
RTVSPropertyOp5
 70
     1
102
RTVSPropertyOp6
 70
     1
102
RTVSPropertyOp7
 70
     1
102
RTVSPropertyOp8
 70
     1
102
RTVSPropertyOp9
 70
     1
102
RTVSPropertyOp10
 70
     1
102
RTVSPropertyOp11
 70
     1
102
RTVSPropertyOp12
 70
     1
102
RTVSPropertyOp13
 70
     1
102
RTVSPropertyOp14
 70
     1
102
RTVSPropertyOp15
 70
     1
102
RTVSPropertyOp16
 70
     1
102
RTVSPropertyOp17
 70
     1
102
RTVSPropertyOp18
 70
     1
102
RTVSPropertyOp19
 70
     1
102
RTVSPropertyOp20
 70
     1
102
RTVSPropertyOp21
 70
     1
102
RTVSPropertyOp22
 70
     1
102
RTVSPropertyOp23
 70
     1
102
RTVSPropertyOp24
 70
     1
102
RTVSPropertyOp25
 70
     1
102
RTVSPropertyOp26
 70
     1
102
RTVSPropertyOp27
 70
     1
102
RTVSPropertyOp28
 70
     1
102
RTVSPropertyOp29
 70
     1
102
RTVSPropertyOp30
 70
     1
102
RTVSPropertyOp31
 70
     1
102
RTVSPropertyOp32
 70
     1
  0
XRECORD
  5
93
102
{ACAD_REACTORS
330
92
102
}
330
92
100
AcDbXrecord
280
     1
102
RTVSPropertyOp0
 70
     1
102
RTVSPropertyOp1
 70
     1
102
RTVSPropertyOp2
 70
     1
102
RTVSPropertyOp3
 70
     1
102
RTVSPropertyOp4
 70
     1
102
RTVSPropertyOp5
 70
     1
102
RTVSPropertyOp6
 70
     1
102
RTVSPropertyOp7
 70
     1
102
RTVSPropertyOp8
 70
     1
102
RTVSPropertyOp9
 70
     1
102
RTVSPropertyOp10
 70
     1
102
RTVSPropertyOp11
 70
     1
102
RTVSPropertyOp12
 70
     1
102
RTVSPropertyOp13
 70
     1
102
RTVSPropertyOp14
 70
     1
102
RTVSPropertyOp15
 70
     1
102
RTVSPropertyOp16
 70
     1
102
RTVSPropertyOp17
 70
     1
102
RTVSPropertyOp18
 70
     1
102
RTVSPropertyOp19
 70
     1
102
RTVSPropertyOp20
 70
     1
102
RTVSPropertyOp21
 70
     1
102
RTVSPropertyOp22
 70
     1
102
RTVSPropertyOp23
 70
     1
102
RTVSPropertyOp24
 70
     1
102
RTVSPropertyOp25
 70
     1
102
RTVSPropertyOp26
 70
     1
102
RTVSPropertyOp27
 70
     1
102
RTVSPropertyOp28
 70
     1
102
RTVSPropertyOp29
 70
     1
102
RTVSPropertyOp30
 70
     1
102
RTVSPropertyOp31
 70
     1
102
RTVSPropertyOp32
 70
     1
  0
XRECORD
  5
95
102
{ACAD_REACTORS
330
94
102
}
330
94
100
AcDbXrecord
280
     1
102
RTVSPropertyOp0
 70
     1
102
RTVSPropertyOp1
 70
     1
102
RTVSPropertyOp2
 70
     1
102
RTVSPropertyOp3
 70
     1
102
RTVSPropertyOp4
 70
     1
102
RTVSPropertyOp5
 70
     1
102
RTVSPropertyOp6
 70
     1
102
RTVSPropertyOp7
 70
     1
102
RTVSPropertyOp8
 70
     1
102
RTVSPropertyOp9
 70
     1
102
RTVSPropertyOp10
 70
     1
102
RTVSPropertyOp11
 70
     1
102
RTVSPropertyOp12
 70
     1
102
RTVSPropertyOp13
 70
     1
102
RTVSPropertyOp14
 70
     1
102
RTVSPropertyOp15
 70
     1
102
RTVSPropertyOp16
 70
     1
102
RTVSPropertyOp17
 70
     1
102
RTVSPropertyOp18
 70
     1
102
RTVSPropertyOp19
 70
     1
102
RTVSPropertyOp20
 70
     1
102
RTVSPropertyOp21
 70
     1
102
RTVSPropertyOp22
 70
     1
102
RTVSPropertyOp23
 70
     1
102
RTVSPropertyOp24
 70
     1
102
RTVSPropertyOp25
 70
     1
102
RTVSPropertyOp26
 70
     1
102
RTVSPropertyOp27
 70
     1
102
RTVSPropertyOp28
 70
     1
102
RTVSPropertyOp29
 70
     1
102
RTVSPropertyOp30
 70
     1
102
RTVSPropertyOp31
 70
     1
102
RTVSPropertyOp32
 70
     1
  0
XRECORD
  5
97
102
{ACAD_REACTORS
330
96
102
}
330
96
100
AcDbXrecord
280
     1
102
RTVSPropertyOp0
 70
     1
102
RTVSPropertyOp1
 70
     1
102
RTVSPropertyOp2
 70
     1
102
RTVSPropertyOp3
 70
     1
102
RTVSPropertyOp4
 70
     1
102
RTVSPropertyOp5
 70
     1
102
RTVSPropertyOp6
 70
     1
102
RTVSPropertyOp7
 70
     1
102
RTVSPropertyOp8
 70
     1
102
RTVSPropertyOp9
 70
     1
102
RTVSPropertyOp10
 70
     1
102
RTVSPropertyOp11
 70
     1
102
RTVSPropertyOp12
 70
     1
102
RTVSPropertyOp13
 70
     1
102
RTVSPropertyOp14
 70
     1
102
RTVSPropertyOp15
 70
     1
102
RTVSPropertyOp16
 70
     1
102
RTVSPropertyOp17
 70
     1
102
RTVSPropertyOp18
 70
     1
102
RTVSPropertyOp19
 70
     1
102
RTVSPropertyOp20
 70
     1
102
RTVSPropertyOp21
 70
     1
102
RTVSPropertyOp22
 70
     1
102
RTVSPropertyOp23
 70
     1
102
RTVSPropertyOp24
 70
     1
102
RTVSPropertyOp25
 70
     1
102
RTVSPropertyOp26
 70
     1
102
RTVSPropertyOp27
 70
     1
102
RTVSPropertyOp28
 70
     1
102
RTVSPropertyOp29
 70
     1
102
RTVSPropertyOp30
 70
     1
102
RTVSPropertyOp31
 70
     1
102
RTVSPropertyOp32
 70
     1
  0
XRECORD
  5
99
102
{ACAD_REACTORS
330
98
102
}
330
98
100
AcDbXrecord
280
     1
102
RTVSPropertyOp0
 70
     1
102
RTVSPropertyOp1
 70
     1
102
RTVSPropertyOp2
 70
     1
102
RTVSPropertyOp3
 70
     1
102
RTVSPropertyOp4
 70
     1
102
RTVSPropertyOp5
 70
     1
102
RTVSPropertyOp6
 70
     1
102
RTVSPropertyOp7
 70
     1
102
RTVSPropertyOp8
 70
     1
102
RTVSPropertyOp9
 70
     1
102
RTVSPropertyOp10
 70
     1
102
RTVSPropertyOp11
 70
     1
102
RTVSPropertyOp12
 70
     1
102
RTVSPropertyOp13
 70
     1
102
RTVSPropertyOp14
 70
     1
102
RTVSPropertyOp15
 70
     1
102
RTVSPropertyOp16
 70
     1
102
RTVSPropertyOp17
 70
     1
102
RTVSPropertyOp18
 70
     1
102
RTVSPropertyOp19
 70
     1
102
RTVSPropertyOp20
 70
     1
102
RTVSPropertyOp21
 70
     1
102
RTVSPropertyOp22
 70
     1
102
RTVSPropertyOp23
 70
     1
102
RTVSPropertyOp24
 70
     1
102
RTVSPropertyOp25
 70
     1
102
RTVSPropertyOp26
 70
     1
102
RTVSPropertyOp27
 70
     1
102
RTVSPropertyOp28
 70
     1
102
RTVSPropertyOp29
 70
     1
102
RTVSPropertyOp30
 70
     1
102
RTVSPropertyOp31
 70
     1
102
RTVSPropertyOp32
 70
     1
  0
XRECORD
  5
AD
102
{ACAD_REACTORS
330
AC
102
}
330
AC
100
AcDbXrecord
280
     1
102
RTVSPropertyOp0
 70
     1
102
RTVSPropertyOp1
 70
     1
102
RTVSPropertyOp2
 70
     1
102
RTVSPropertyOp3
 70
     1
102
RTVSPropertyOp4
 70
     1
102
RTVSPropertyOp5
 70
     1
102
RTVSPropertyOp6
 70
     1
102
RTVSPropertyOp7
 70
     1
102
RTVSPropertyOp8
 70
     1
102
RTVSPropertyOp9
 70
     1
102
RTVSPropertyOp10
 70
     1
102
RTVSPropertyOp11
 70
     1
102
RTVSPropertyOp12
 70
     1
102
RTVSPropertyOp13
 70
     1
102
RTVSPropertyOp14
 70
     1
102
RTVSPropertyOp15
 70
     1
102
RTVSPropertyOp16
 70
     1
102
RTVSPropertyOp17
 70
     1
102
RTVSPropertyOp18
 70
     1
102
RTVSPropertyOp19
 70
     1
102
RTVSPropertyOp20
 70
     1
102
RTVSPropertyOp21
 70
     1
102
RTVSPropertyOp22
 70
     1
102
RTVSPropertyOp23
 70
     1
102
RTVSPropertyOp24
 70
     1
102
RTVSPropertyOp25
 70
     1
102
RTVSPropertyOp26
 70
     1
102
RTVSPropertyOp27
 70
     1
102
RTVSPropertyOp28
 70
     1
102
RTVSPropertyOp29
 70
     1
102
RTVSPropertyOp30
 70
     1
102
RTVSPropertyOp31
 70
     1
102
RTVSPropertyOp32
 70
     1
  0
XRECORD
  5
A3
102
{ACAD_REACTORS
330
A2
102
}
330
A2
100
AcDbXrecord
280
     1
102
RTVSPropertyOp0
 70
     1
102
RTVSPropertyOp1
 70
     1
102
RTVSPropertyOp2
 70
     1
102
RTVSPropertyOp3
 70
     1
102
RTVSPropertyOp4
 70
     1
102
RTVSPropertyOp5
 70
     1
102
RTVSPropertyOp6
 70
     1
102
RTVSPropertyOp7
 70
     1
102
RTVSPropertyOp8
 70
     1
102
RTVSPropertyOp9
 70
     1
102
RTVSPropertyOp10
 70
     1
102
RTVSPropertyOp11
 70
     1
102
RTVSPropertyOp12
 70
     1
102
RTVSPropertyOp13
 70
     1
102
RTVSPropertyOp14
 70
     1
102
RTVSPropertyOp15
 70
     1
102
RTVSPropertyOp16
 70
     1
102
RTVSPropertyOp17
 70
     1
102
RTVSPropertyOp18
 70
     1
102
RTVSPropertyOp19
 70
     1
102
RTVSPropertyOp20
 70
     1
102
RTVSPropertyOp21
 70
     1
102
RTVSPropertyOp22
 70
     1
102
RTVSPropertyOp23
 70
     1
102
RTVSPropertyOp24
 70
     1
102
RTVSPropertyOp25
 70
     1
102
RTVSPropertyOp26
 70
     1
102
RTVSPropertyOp27
 70
     1
102
RTVSPropertyOp28
 70
     1
102
RTVSPropertyOp29
 70
     1
102
RTVSPropertyOp30
 70
     1
102
RTVSPropertyOp31
 70
     1
102
RTVSPropertyOp32
 70
     1
  0
XRECORD
  5
AB
102
{ACAD_REACTORS
330
AA
102
}
330
AA
100
AcDbXrecord
280
     1
102
RTVSPropertyOp0
 70
     1
102
RTVSPropertyOp1
 70
     1
102
RTVSPropertyOp2
 70
     1
102
RTVSPropertyOp3
 70
     1
102
RTVSPropertyOp4
 70
     1
102
RTVSPropertyOp5
 70
     1
102
RTVSPropertyOp6
 70
     1
102
RTVSPropertyOp7
 70
     1
102
RTVSPropertyOp8
 70
     1
102
RTVSPropertyOp9
 70
     1
102
RTVSPropertyOp10
 70
     1
102
RTVSPropertyOp11
 70
     1
102
RTVSPropertyOp12
 70
     1
102
RTVSPropertyOp13
 70
     1
102
RTVSPropertyOp14
 70
     1
102
RTVSPropertyOp15
 70
     1
102
RTVSPropertyOp16
 70
     1
102
RTVSPropertyOp17
 70
     1
102
RTVSPropertyOp18
 70
     1
102
RTVSPropertyOp19
 70
     1
102
RTVSPropertyOp20
 70
     1
102
RTVSPropertyOp21
 70
     1
102
RTVSPropertyOp22
 70
     1
102
RTVSPropertyOp23
 70
     1
102
RTVSPropertyOp24
 70
     1
102
RTVSPropertyOp25
 70
     1
102
RTVSPropertyOp26
 70
     1
102
RTVSPropertyOp27
 70
     1
102
RTVSPropertyOp28
 70
     1
102
RTVSPropertyOp29
 70
     1
102
RTVSPropertyOp30
 70
     1
102
RTVSPropertyOp31
 70
     1
102
RTVSPropertyOp32
 70
     1
  0
ENDSEC
  0
EOF
