  0
SECTION
  2
HEADER
  9
$ACADVER
  1
AC1021
  9
$ACADMAINTVER
 70
    25
  9
$DWGCODEPAGE
  3
ANSI_1256
  9
$INSBASE
 10
0.0
 20
0.0
 30
0.0
  9
$EXTMIN
 10
-187.2998
 20
-114.6912
 30
0.0
  9
$EXTMAX
 10
-66.2322
 20
131.7662
 30
0.0
  9
$LIMMIN
 10
0.0
 20
0.0
  9
$LIMMAX
 10
12.0
 20
9.0
  9
$ORTHOMODE
 70
     0
  9
$REGENMODE
 70
     1
  9
$FILLMODE
 70
     1
  9
$QTEXTMODE
 70
     0
  9
$MIRRTEXT
 70
     1
  9
$LTSCALE
 40
1.0
  9
$ATTMODE
 70
     1
  9
$TEXTSIZE
 40
0.2
  9
$TRACEWID
 40
0.05
  9
$TEXTSTYLE
  7
Standard
  9
$CLAYER
  8
0
  9
$CELTYPE
  6
ByLayer
  9
$CECOLOR
 62
   256
  9
$CELTSCALE
 40
1.0
  9
$DISPSILH
 70
     0
  9
$DIMSCALE
 40
1.0
  9
$DIMASZ
 40
0.18
  9
$DIMEXO
 40
0.0625
  9
$DIMDLI
 40
0.38
  9
$DIMRND
 40
0.0
  9
$DIMDLE
 40
0.0
  9
$DIMEXE
 40
0.18
  9
$DIMTP
 40
0.0
  9
$DIMTM
 40
0.0
  9
$DIMTXT
 40
0.18
  9
$DIMCEN
 40
0.09
  9
$DIMTSZ
 40
0.0
  9
$DIMTOL
 70
     0
  9
$DIMLIM
 70
     0
  9
$DIMTIH
 70
     1
  9
$DIMTOH
 70
     1
  9
$DIMSE1
 70
     0
  9
$DIMSE2
 70
     0
  9
$DIMTAD
 70
     0
  9
$DIMZIN
 70
     0
  9
$DIMBLK
  1

  9
$DIMASO
 70
     1
  9
$DIMSHO
 70
     1
  9
$DIMPOST
  1

  9
$DIMAPOST
  1

  9
$DIMALT
 70
     0
  9
$DIMALTD
 70
     2
  9
$DIMALTF
 40
25.4
  9
$DIMLFAC
 40
1.0
  9
$DIMTOFL
 70
     0
  9
$DIMTVP
 40
0.0
  9
$DIMTIX
 70
     0
  9
$DIMSOXD
 70
     0
  9
$DIMSAH
 70
     0
  9
$DIMBLK1
  1

  9
$DIMBLK2
  1

  9
$DIMSTYLE
  2
Standard
  9
$DIMCLRD
 70
     0
  9
$DIMCLRE
 70
     0
  9
$DIMCLRT
 70
     0
  9
$DIMTFAC
 40
1.0
  9
$DIMGAP
 40
0.09
  9
$DIMJUST
 70
     0
  9
$DIMSD1
 70
     0
  9
$DIMSD2
 70
     0
  9
$DIMTOLJ
 70
     1
  9
$DIMTZIN
 70
     0
  9
$DIMALTZ
 70
     0
  9
$DIMALTTZ
 70
     0
  9
$DIMUPT
 70
     0
  9
$DIMDEC
 70
     4
  9
$DIMTDEC
 70
     4
  9
$DIMALTU
 70
     2
  9
$DIMALTTD
 70
     2
  9
$DIMTXSTY
  7
Standard
  9
$DIMAUNIT
 70
     0
  9
$DIMADEC
 70
     0
  9
$DIMALTRND
 40
0.0
  9
$DIMAZIN
 70
     0
  9
$DIMDSEP
 70
    46
  9
$DIMATFIT
 70
     3
  9
$DIMFRAC
 70
     0
  9
$DIMLDRBLK
  1

  9
$DIMLUNIT
 70
     2
  9
$DIMLWD
 70
    -2
  9
$DIMLWE
 70
    -2
  9
$DIMTMOVE
 70
     0
  9
$DIMFXL
 40
1.0
  9
$DIMFXLON
 70
     0
  9
$DIMJOGANG
 40
0.7853981633974483
  9
$DIMTFILL
 70
     0
  9
$DIMTFILLCLR
 70
     0
  9
$DIMARCSYM
 70
     0
  9
$DIMLTYPE
  6

  9
$DIMLTEX1
  6

  9
$DIMLTEX2
  6

  9
$LUNITS
 70
     2
  9
$LUPREC
 70
     4
  9
$SKETCHINC
 40
0.1
  9
$FILLETRAD
 40
0.5
  9
$AUNITS
 70
     0
  9
$AUPREC
 70
     0
  9
$MENU
  1
.
  9
$ELEVATION
 40
0.0
  9
$PELEVATION
 40
0.0
  9
$THICKNESS
 40
0.0
  9
$LIMCHECK
 70
     0
  9
$CHAMFERA
 40
0.5
  9
$CHAMFERB
 40
0.5
  9
$CHAMFERC
 40
1.0
  9
$CHAMFERD
 40
0.0
  9
$SKPOLY
 70
     0
  9
$TDCREATE
 40
2458492.925335868
  9
$TDUCREATE
 40
2458492.758669201
  9
$TDUPDATE
 40
2458492.92533596
  9
$TDUUPDATE
 40
2458492.758669294
  9
$TDINDWG
 40
0.0000000116
  9
$TDUSRTIMER
 40
0.0000000116
  9
$USRTIMER
 70
     1
  9
$ANGBASE
 50
0.0
  9
$ANGDIR
 70
     0
  9
$PDMODE
 70
     0
  9
$PDSIZE
 40
0.0
  9
$PLINEWID
 40
0.0
  9
$SPLFRAME
 70
     0
  9
$SPLINETYPE
 70
     6
  9
$SPLINESEGS
 70
     8
  9
$HANDSEED
  5
71
  9
$SURFTAB1
 70
     6
  9
$SURFTAB2
 70
     6
  9
$SURFTYPE
 70
     6
  9
$SURFU
 70
     6
  9
$SURFV
 70
     6
  9
$UCSBASE
  2

  9
$UCSNAME
  2

  9
$UCSORG
 10
0.0
 20
0.0
 30
0.0
  9
$UCSXDIR
 10
1.0
 20
0.0
 30
0.0
  9
$UCSYDIR
 10
0.0
 20
1.0
 30
0.0
  9
$UCSORTHOREF
  2

  9
$UCSORTHOVIEW
 70
     0
  9
$UCSORGTOP
 10
0.0
 20
0.0
 30
0.0
  9
$UCSORGBOTTOM
 10
0.0
 20
0.0
 30
0.0
  9
$UCSORGLEFT
 10
0.0
 20
0.0
 30
0.0
  9
$UCSORGRIGHT
 10
0.0
 20
0.0
 30
0.0
  9
$UCSORGFRONT
 10
0.0
 20
0.0
 30
0.0
  9
$UCSORGBACK
 10
0.0
 20
0.0
 30
0.0
  9
$PUCSBASE
  2

  9
$PUCSNAME
  2

  9
$PUCSORG
 10
0.0
 20
0.0
 30
0.0
  9
$PUCSXDIR
 10
1.0
 20
0.0
 30
0.0
  9
$PUCSYDIR
 10
0.0
 20
1.0
 30
0.0
  9
$PUCSORTHOREF
  2

  9
$PUCSORTHOVIEW
 70
     0
  9
$PUCSORGTOP
 10
0.0
 20
0.0
 30
0.0
  9
$PUCSORGBOTTOM
 10
0.0
 20
0.0
 30
0.0
  9
$PUCSORGLEFT
 10
0.0
 20
0.0
 30
0.0
  9
$PUCSORGRIGHT
 10
0.0
 20
0.0
 30
0.0
  9
$PUCSORGFRONT
 10
0.0
 20
0.0
 30
0.0
  9
$PUCSORGBACK
 10
0.0
 20
0.0
 30
0.0
  9
$USERI1
 70
     0
  9
$USERI2
 70
     0
  9
$USERI3
 70
     0
  9
$USERI4
 70
     0
  9
$USERI5
 70
     0
  9
$USERR1
 40
0.0
  9
$USERR2
 40
0.0
  9
$USERR3
 40
0.0
  9
$USERR4
 40
0.0
  9
$USERR5
 40
0.0
  9
$WORLDVIEW
 70
     1
  9
$SHADEDGE
 70
     3
  9
$SHADEDIF
 70
    70
  9
$TILEMODE
 70
     1
  9
$MAXACTVP
 70
    64
  9
$PINSBASE
 10
0.0
 20
0.0
 30
0.0
  9
$PLIMCHECK
 70
     0
  9
$PEXTMIN
 10
1.000000000000000E+20
 20
1.000000000000000E+20
 30
1.000000000000000E+20
  9
$PEXTMAX
 10
-1.000000000000000E+20
 20
-1.000000000000000E+20
 30
-1.000000000000000E+20
  9
$PLIMMIN
 10
0.0
 20
0.0
  9
$PLIMMAX
 10
12.0
 20
9.0
  9
$UNITMODE
 70
     0
  9
$VISRETAIN
 70
     1
  9
$PLINEGEN
 70
     0
  9
$PSLTSCALE
 70
     1
  9
$TREEDEPTH
 70
  3020
  9
$CMLSTYLE
  2
Standard
  9
$CMLJUST
 70
     0
  9
$CMLSCALE
 40
1.0
  9
$PROXYGRAPHICS
 70
     1
  9
$MEASUREMENT
 70
     0
  9
$CELWEIGHT
370
    -1
  9
$ENDCAPS
280
     0
  9
$JOINSTYLE
280
     0
  9
$LWDISPLAY
290
     0
  9
$INSUNITS
 70
     4
  9
$HYPERLINKBASE
  1

  9
$STYLESHEET
  1

  9
$XEDIT
290
     1
  9
$CEPSNTYPE
380
     0
  9
$PSTYLEMODE
290
     1
  9
$FINGERPRINTGUID
  2
{7284F811-68F5-406E-9C2E-A3DE08BCE7B4}
  9
$VERSIONGUID
  2
{FAEB1C32-E019-11D5-929B-00C0DF256EC4}
  9
$EXTNAMES
290
     1
  9
$PSVPSCALE
 40
0.0
  9
$OLESTARTUP
290
     0
  9
$SORTENTS
280
   127
  9
$INDEXCTL
280
     0
  9
$HIDETEXT
280
     1
  9
$XCLIPFRAME
290
     0
  9
$HALOGAP
280
     0
  9
$OBSCOLOR
 70
   257
  9
$OBSLTYPE
280
     0
  9
$INTERSECTIONDISPLAY
280
     0
  9
$INTERSECTIONCOLOR
 70
   257
  9
$DIMASSOC
280
     2
  9
$PROJECTNAME
  1

  9
$CAMERADISPLAY
290
     0
  9
$LENSLENGTH
 40
50.0
  9
$CAMERAHEIGHT
 40
0.0
  9
$STEPSPERSEC
 40
2.0
  9
$STEPSIZE
 40
6.0
  9
$3DDWFPREC
 40
2.0
  9
$PSOLWIDTH
 40
0.25
  9
$PSOLHEIGHT
 40
4.0
  9
$LOFTANG1
 40
1.570796326794897
  9
$LOFTANG2
 40
1.570796326794897
  9
$LOFTMAG1
 40
0.0
  9
$LOFTMAG2
 40
0.0
  9
$LOFTPARAM
 70
     7
  9
$LOFTNORMALS
280
     1
  9
$LATITUDE
 40
37.795
  9
$LONGITUDE
 40
-122.394
  9
$NORTHDIRECTION
 40
0.0
  9
$TIMEZONE
 70
 -8000
  9
$LIGHTGLYPHDISPLAY
280
     1
  9
$TILEMODELIGHTSYNCH
280
     1
  9
$SOLIDHIST
280
     1
  9
$SHOWHIST
280
     1
  9
$DWFFRAME
280
     2
  9
$DGNFRAME
280
     2
  9
$REALWORLDSCALE
290
     1
  9
$INTERFERECOLOR
 62
   256
  9
$CSHADOW
280
     0
  9
$SHADOWPLANELOCATION
 40
0.0
  0
ENDSEC
  0
SECTION
  2
CLASSES
  0
CLASS
  1
ACDBDICTIONARYWDFLT
  2
AcDbDictionaryWithDefault
  3
ObjectDBX Classes
 90
        0
 91
        4
280
     0
281
     0
  0
CLASS
  1
VISUALSTYLE
  2
AcDbVisualStyle
  3
ObjectDBX Classes
 90
     4095
 91
        4
280
     0
281
     0
  0
CLASS
  1
MATERIAL
  2
AcDbMaterial
  3
ObjectDBX Classes
 90
     1153
 91
        4
280
     0
281
     0
  0
ENDSEC
  0
SECTION
  2
TABLES
  0
TABLE
  2
VPORT
  5
8
330
0
100
AcDbSymbolTable
 70
     1
  0
VPORT
  5
29
330
8
100
AcDbSymbolTableRecord
100
AcDbViewportTableRecord
  2
*Active
 70
     0
 10
0.0
 20
0.0
 11
1.0
 21
1.0
 12
10.42990654205607
 22
4.5
 13
0.0
 23
0.0
 14
0.5
 24
0.5
 15
0.5
 25
0.5
 16
0.0
 26
0.0
 36
1.0
 17
0.0
 27
0.0
 37
0.0
 40
9.0
 41
1.972972972850329
 42
50.0
 43
0.0
 44
0.0
 50
0.0
 51
0.0
 71
     0
 72
   100
 73
     1
 74
     3
 75
     0
 76
     0
 77
     0
 78
     0
281
     0
 65
     1
110
0.0
120
0.0
130
0.0
111
1.0
121
0.0
131
0.0
112
0.0
122
1.0
132
0.0
 79
     0
146
0.0
 60
     3
 61
     5
292
     1
282
     1
141
0.0
142
0.0
 63
   250
  0
ENDTAB
  0
TABLE
  2
LTYPE
  5
5
330
0
100
AcDbSymbolTable
 70
     1
  0
LTYPE
  5
14
330
5
100
AcDbSymbolTableRecord
100
AcDbLinetypeTableRecord
  2
ByBlock
 70
     0
  3

 72
    65
 73
     0
 40
0.0
  0
LTYPE
  5
15
330
5
100
AcDbSymbolTableRecord
100
AcDbLinetypeTableRecord
  2
ByLayer
 70
     0
  3

 72
    65
 73
     0
 40
0.0
  0
LTYPE
  5
16
330
5
100
AcDbSymbolTableRecord
100
AcDbLinetypeTableRecord
  2
Continuous
 70
     0
  3
Solid line
 72
    65
 73
     0
 40
0.0
  0
ENDTAB
  0
TABLE
  2
LAYER
  5
2
330
0
100
AcDbSymbolTable
 70
     2
  0
LAYER
  5
10
330
2
100
AcDbSymbolTableRecord
100
AcDbLayerTableRecord
  2
0
 70
     0
 62
     7
  6
Continuous
370
    -3
390
F
347
3E
  0
LAYER
  5
40
330
2
100
AcDbSymbolTableRecord
100
AcDbLayerTableRecord
  2
layer 1
 70
     0
 62
     7
  6
Continuous
370
    -3
390
F
347
3E
  0
ENDTAB
  0
TABLE
  2
STYLE
  5
3
330
0
100
AcDbSymbolTable
 70
     1
  0
STYLE
  5
11
330
3
100
AcDbSymbolTableRecord
100
AcDbTextStyleTableRecord
  2
Standard
 70
     0
 40
0.0
 41
1.0
 50
0.0
 71
     0
 42
0.2
  3
txt
  4

  0
ENDTAB
  0
TABLE
  2
VIEW
  5
6
330
0
100
AcDbSymbolTable
 70
     0
  0
ENDTAB
  0
TABLE
  2
UCS
  5
7
330
0
100
AcDbSymbolTable
 70
     0
  0
ENDTAB
  0
TABLE
  2
APPID
  5
9
330
0
100
AcDbSymbolTable
 70
     2
  0
APPID
  5
12
330
9
100
AcDbSymbolTableRecord
100
AcDbRegAppTableRecord
  2
ACAD
 70
     0
  0
APPID
  5
3F
330
9
100
AcDbSymbolTableRecord
100
AcDbRegAppTableRecord
  2
ODA
 70
     0
  0
ENDTAB
  0
TABLE
  2
DIMSTYLE
  5
A
330
0
100
AcDbSymbolTable
 70
     1
100
AcDbDimStyleTable
  0
DIMSTYLE
105
27
330
A
100
AcDbSymbolTableRecord
100
AcDbDimStyleTableRecord
  2
Standard
 70
     0
178
     0
340
11
  0
ENDTAB
  0
TABLE
  2
BLOCK_RECORD
  5
1
330
0
100
AcDbSymbolTable
 70
     1
  0
BLOCK_RECORD
  5
1F
330
1
100
AcDbSymbolTableRecord
100
AcDbBlockTableRecord
  2
*Model_Space
340
22
 70
     0
280
     1
281
     0
  0
BLOCK_RECORD
  5
1B
330
1
100
AcDbSymbolTableRecord
100
AcDbBlockTableRecord
  2
*Paper_Space
340
1E
 70
     0
280
     1
281
     0
  0
BLOCK_RECORD
  5
23
330
1
100
AcDbSymbolTableRecord
100
AcDbBlockTableRecord
  2
*Paper_Space0
340
26
 70
     0
280
     1
281
     0
  0
ENDTAB
  0
ENDSEC
  0
SECTION
  2
BLOCKS
  0
BLOCK
  5
20
330
1F
100
AcDbEntity
  8
0
100
AcDbBlockBegin
  2
*Model_Space
 70
     0
 10
0.0
 20
0.0
 30
0.0
  3
*Model_Space
  1

  0
ENDBLK
  5
21
330
1F
100
AcDbEntity
  8
0
100
AcDbBlockEnd
  0
BLOCK
  5
1C
330
1B
100
AcDbEntity
 67
     1
  8
0
100
AcDbBlockBegin
  2
*Paper_Space
 70
     0
 10
0.0
 20
0.0
 30
0.0
  3
*Paper_Space
  1

  0
ENDBLK
  5
1D
330
1B
100
AcDbEntity
 67
     1
  8
0
100
AcDbBlockEnd
  0
BLOCK
  5
24
330
23
100
AcDbEntity
  8
0
100
AcDbBlockBegin
  2
*Paper_Space0
 70
     0
 10
0.0
 20
0.0
 30
0.0
  3
*Paper_Space0
  1

  0
ENDBLK
  5
25
330
23
100
AcDbEntity
  8
0
100
AcDbBlockEnd
  0
ENDSEC
  0
SECTION
  2
ENTITIES
  0
SPLINE
  5
41
330
1F
100
AcDbEntity
  8
layer 1
 62
   250
100
AcDbSpline
210
0.0
220
0.0
230
1.0
 70
    11
 71
     3
 72
    20
 73
    16
 74
     0
 42
0.0000000001
 43
0.0000000001
 12
1.0
 22
0.0
 32
0.0
 13
1.0
 23
0.0
 33
0.0
 40
0.0
 40
0.0
 40
0.0
 40
0.0
 40
0.2
 40
0.2
 40
0.2
 40
0.2
 40
0.4
 40
0.4
 40
0.4
 40
0.4
 40
0.6
 40
0.6
 40
0.6
 40
0.6
 40
1.0
 40
1.0
 40
1.0
 40
1.0
 10
-187.2998
 20
131.7662
 30
0.0
 10
-187.2998
 20
131.7662
 30
0.0
 10
-66.2322
 20
131.7662
 30
0.0
 10
-66.2322
 20
131.7662
 30
0.0
 10
-66.2322
 20
131.7662
 30
0.0
 10
-66.2322
 20
131.7662
 30
0.0
 10
-66.2322
 20
-114.6912
 30
0.0
 10
-66.2322
 20
-114.6912
 30
0.0
 10
-66.2322
 20
-114.6912
 30
0.0
 10
-66.2322
 20
-114.6912
 30
0.0
 10
-187.2998
 20
-114.6912
 30
0.0
 10
-187.2998
 20
-114.6912
 30
0.0
 10
-187.2998
 20
-114.6912
 30
0.0
 10
-187.2998
 20
-114.6912
 30
0.0
 10
-187.2998
 20
131.7662
 30
0.0
 10
-187.2998
 20
131.7662
 30
0.0
  0
SPLINE
  5
42
330
1F
100
AcDbEntity
  8
layer 1
 62
     7
100
AcDbSpline
210
0.0
220
0.0
230
1.0
 70
    11
 71
     3
 72
    20
 73
    16
 74
     0
 42
0.0000000001
 43
0.0000000001
 12
1.0
 22
0.0
 32
0.0
 13
1.0
 23
0.0
 33
0.0
 40
0.0
 40
0.0
 40
0.0
 40
0.0
 40
0.2
 40
0.2
 40
0.2
 40
0.2
 40
0.4
 40
0.4
 40
0.4
 40
0.4
 40
0.6
 40
0.6
 40
0.6
 40
0.6
 40
1.0
 40
1.0
 40
1.0
 40
1.0
 10
-180.9669
 20
102.9557
 30
0.0
 10
-180.9669
 20
102.9557
 30
0.0
 10
-180.9669
 20
125.4339
 30
0.0
 10
-180.9669
 20
125.4339
 30
0.0
 10
-180.9669
 20
125.4339
 30
0.0
 10
-174.7638
 20
125.3125
 30
0.0
 10
-169.8334
 20
120.1713
 30
0.0
 10
-169.9548
 20
113.9676
 30
0.0
 10
-169.9548
 20
113.9676
 30
0.0
 10
-170.0802
 20
107.9437
 30
0.0
 10
-174.943
 20
103.0877
 30
0.0
 10
-180.9669
 20
102.9551
 30
0.0
 10
-180.9669
 20
102.9551
 30
0.0
 10
-180.9669
 20
102.9551
 30
0.0
 10
-180.9669
 20
102.9557
 30
0.0
 10
-180.9669
 20
102.9557
 30
0.0
  0
SPLINE
  5
43
330
1F
100
AcDbEntity
  8
layer 1
 62
     7
100
AcDbSpline
210
0.0
220
0.0
230
1.0
 70
    11
 71
     3
 72
   372
 73
   368
 74
     0
 42
0.0000000001
 43
0.0000000001
 12
1.0
 22
0.0
 32
0.0
 13
1.0
 23
0.0
 33
0.0
 40
0.0
 40
0.0
 40
0.0
 40
0.0
 40
0.010752688172043
 40
0.010752688172043
 40
0.010752688172043
 40
0.010752688172043
 40
0.021505376344086
 40
0.021505376344086
 40
0.021505376344086
 40
0.021505376344086
 40
0.032258064516129
 40
0.032258064516129
 40
0.032258064516129
 40
0.032258064516129
 40
0.043010752688172
 40
0.043010752688172
 40
0.043010752688172
 40
0.043010752688172
 40
0.0537634408602151
 40
0.0537634408602151
 40
0.0537634408602151
 40
0.0537634408602151
 40
0.0645161290322581
 40
0.0645161290322581
 40
0.0645161290322581
 40
0.0645161290322581
 40
0.0752688172043011
 40
0.0752688172043011
 40
0.0752688172043011
 40
0.0752688172043011
 40
0.0860215053763441
 40
0.0860215053763441
 40
0.0860215053763441
 40
0.0860215053763441
 40
0.0967741935483871
 40
0.0967741935483871
 40
0.0967741935483871
 40
0.0967741935483871
 40
0.1075268817204301
 40
0.1075268817204301
 40
0.1075268817204301
 40
0.1075268817204301
 40
0.1182795698924731
 40
0.1182795698924731
 40
0.1182795698924731
 40
0.1182795698924731
 40
0.1290322580645161
 40
0.1290322580645161
 40
0.1290322580645161
 40
0.1290322580645161
 40
0.1397849462365591
 40
0.1397849462365591
 40
0.1397849462365591
 40
0.1397849462365591
 40
0.1505376344086022
 40
0.1505376344086022
 40
0.1505376344086022
 40
0.1505376344086022
 40
0.1612903225806452
 40
0.1612903225806452
 40
0.1612903225806452
 40
0.1612903225806452
 40
0.1720430107526882
 40
0.1720430107526882
 40
0.1720430107526882
 40
0.1720430107526882
 40
0.1827956989247312
 40
0.1827956989247312
 40
0.1827956989247312
 40
0.1827956989247312
 40
0.1935483870967742
 40
0.1935483870967742
 40
0.1935483870967742
 40
0.1935483870967742
 40
0.2043010752688172
 40
0.2043010752688172
 40
0.2043010752688172
 40
0.2043010752688172
 40
0.2150537634408602
 40
0.2150537634408602
 40
0.2150537634408602
 40
0.2150537634408602
 40
0.2258064516129032
 40
0.2258064516129032
 40
0.2258064516129032
 40
0.2258064516129032
 40
0.2365591397849462
 40
0.2365591397849462
 40
0.2365591397849462
 40
0.2365591397849462
 40
0.2473118279569892
 40
0.2473118279569892
 40
0.2473118279569892
 40
0.2473118279569892
 40
0.2580645161290323
 40
0.2580645161290323
 40
0.2580645161290323
 40
0.2580645161290323
 40
0.2688172043010753
 40
0.2688172043010753
 40
0.2688172043010753
 40
0.2688172043010753
 40
0.2795698924731183
 40
0.2795698924731183
 40
0.2795698924731183
 40
0.2795698924731183
 40
0.2903225806451613
 40
0.2903225806451613
 40
0.2903225806451613
 40
0.2903225806451613
 40
0.3010752688172043
 40
0.3010752688172043
 40
0.3010752688172043
 40
0.3010752688172043
 40
0.3118279569892473
 40
0.3118279569892473
 40
0.3118279569892473
 40
0.3118279569892473
 40
0.3225806451612903
 40
0.3225806451612903
 40
0.3225806451612903
 40
0.3225806451612903
 40
0.3333333333333333
 40
0.3333333333333333
 40
0.3333333333333333
 40
0.3333333333333333
 40
0.3440860215053764
 40
0.3440860215053764
 40
0.3440860215053764
 40
0.3440860215053764
 40
0.3548387096774194
 40
0.3548387096774194
 40
0.3548387096774194
 40
0.3548387096774194
 40
0.3655913978494624
 40
0.3655913978494624
 40
0.3655913978494624
 40
0.3655913978494624
 40
0.3763440860215054
 40
0.3763440860215054
 40
0.3763440860215054
 40
0.3763440860215054
 40
0.3870967741935484
 40
0.3870967741935484
 40
0.3870967741935484
 40
0.3870967741935484
 40
0.3978494623655914
 40
0.3978494623655914
 40
0.3978494623655914
 40
0.3978494623655914
 40
0.4086021505376344
 40
0.4086021505376344
 40
0.4086021505376344
 40
0.4086021505376344
 40
0.4193548387096774
 40
0.4193548387096774
 40
0.4193548387096774
 40
0.4193548387096774
 40
0.4301075268817204
 40
0.4301075268817204
 40
0.4301075268817204
 40
0.4301075268817204
 40
0.4408602150537634
 40
0.4408602150537634
 40
0.4408602150537634
 40
0.4408602150537634
 40
0.4516129032258064
 40
0.4516129032258064
 40
0.4516129032258064
 40
0.4516129032258064
 40
0.4623655913978494
 40
0.4623655913978494
 40
0.4623655913978494
 40
0.4623655913978494
 40
0.4731182795698925
 40
0.4731182795698925
 40
0.4731182795698925
 40
0.4731182795698925
 40
0.4838709677419355
 40
0.4838709677419355
 40
0.4838709677419355
 40
0.4838709677419355
 40
0.4946236559139785
 40
0.4946236559139785
 40
0.4946236559139785
 40
0.4946236559139785
 40
0.5053763440860215
 40
0.5053763440860215
 40
0.5053763440860215
 40
0.5053763440860215
 40
0.5161290322580645
 40
0.5161290322580645
 40
0.5161290322580645
 40
0.5161290322580645
 40
0.5268817204301075
 40
0.5268817204301075
 40
0.5268817204301075
 40
0.5268817204301075
 40
0.5376344086021505
 40
0.5376344086021505
 40
0.5376344086021505
 40
0.5376344086021505
 40
0.5483870967741935
 40
0.5483870967741935
 40
0.5483870967741935
 40
0.5483870967741935
 40
0.5591397849462365
 40
0.5591397849462365
 40
0.5591397849462365
 40
0.5591397849462365
 40
0.5698924731182796
 40
0.5698924731182796
 40
0.5698924731182796
 40
0.5698924731182796
 40
0.5806451612903226
 40
0.5806451612903226
 40
0.5806451612903226
 40
0.5806451612903226
 40
0.5913978494623656
 40
0.5913978494623656
 40
0.5913978494623656
 40
0.5913978494623656
 40
0.6021505376344086
 40
0.6021505376344086
 40
0.6021505376344086
 40
0.6021505376344086
 40
0.6129032258064516
 40
0.6129032258064516
 40
0.6129032258064516
 40
0.6129032258064516
 40
0.6236559139784946
 40
0.6236559139784946
 40
0.6236559139784946
 40
0.6236559139784946
 40
0.6344086021505376
 40
0.6344086021505376
 40
0.6344086021505376
 40
0.6344086021505376
 40
0.6451612903225806
 40
0.6451612903225806
 40
0.6451612903225806
 40
0.6451612903225806
 40
0.6559139784946236
 40
0.6559139784946236
 40
0.6559139784946236
 40
0.6559139784946236
 40
0.6666666666666666
 40
0.6666666666666666
 40
0.6666666666666666
 40
0.6666666666666666
 40
0.6774193548387096
 40
0.6774193548387096
 40
0.6774193548387096
 40
0.6774193548387096
 40
0.6881720430107527
 40
0.6881720430107527
 40
0.6881720430107527
 40
0.6881720430107527
 40
0.6989247311827957
 40
0.6989247311827957
 40
0.6989247311827957
 40
0.6989247311827957
 40
0.7096774193548387
 40
0.7096774193548387
 40
0.7096774193548387
 40
0.7096774193548387
 40
0.7204301075268817
 40
0.7204301075268817
 40
0.7204301075268817
 40
0.7204301075268817
 40
0.7311827956989247
 40
0.7311827956989247
 40
0.7311827956989247
 40
0.7311827956989247
 40
0.7419354838709677
 40
0.7419354838709677
 40
0.7419354838709677
 40
0.7419354838709677
 40
0.7526881720430108
 40
0.7526881720430108
 40
0.7526881720430108
 40
0.7526881720430108
 40
0.7634408602150538
 40
0.7634408602150538
 40
0.7634408602150538
 40
0.7634408602150538
 40
0.7741935483870968
 40
0.7741935483870968
 40
0.7741935483870968
 40
0.7741935483870968
 40
0.7849462365591398
 40
0.7849462365591398
 40
0.7849462365591398
 40
0.7849462365591398
 40
0.7956989247311828
 40
0.7956989247311828
 40
0.7956989247311828
 40
0.7956989247311828
 40
0.8064516129032258
 40
0.8064516129032258
 40
0.8064516129032258
 40
0.8064516129032258
 40
0.8172043010752689
 40
0.8172043010752689
 40
0.8172043010752689
 40
0.8172043010752689
 40
0.8279569892473119
 40
0.8279569892473119
 40
0.8279569892473119
 40
0.8279569892473119
 40
0.8387096774193549
 40
0.8387096774193549
 40
0.8387096774193549
 40
0.8387096774193549
 40
0.8494623655913979
 40
0.8494623655913979
 40
0.8494623655913979
 40
0.8494623655913979
 40
0.8602150537634409
 40
0.8602150537634409
 40
0.8602150537634409
 40
0.8602150537634409
 40
0.8709677419354839
 40
0.8709677419354839
 40
0.8709677419354839
 40
0.8709677419354839
 40
0.8817204301075269
 40
0.8817204301075269
 40
0.8817204301075269
 40
0.8817204301075269
 40
0.8924731182795699
 40
0.8924731182795699
 40
0.8924731182795699
 40
0.8924731182795699
 40
0.9032258064516129
 40
0.9032258064516129
 40
0.9032258064516129
 40
0.9032258064516129
 40
0.9139784946236559
 40
0.9139784946236559
 40
0.9139784946236559
 40
0.9139784946236559
 40
0.9247311827956989
 40
0.9247311827956989
 40
0.9247311827956989
 40
0.9247311827956989
 40
0.9354838709677419
 40
0.9354838709677419
 40
0.9354838709677419
 40
0.9354838709677419
 40
0.946236559139785
 40
0.946236559139785
 40
0.946236559139785
 40
0.946236559139785
 40
0.956989247311828
 40
0.956989247311828
 40
0.956989247311828
 40
0.956989247311828
 40
0.967741935483871
 40
0.967741935483871
 40
0.967741935483871
 40
0.967741935483871
 40
0.978494623655914
 40
0.978494623655914
 40
0.978494623655914
 40
0.978494623655914
 40
1.0
 40
1.0
 40
1.0
 40
1.0
 10
-149.489
 20
94.9502
 30
0.0
 10
-149.6358
 20
95.3114
 30
0.0
 10
-149.7657
 20
95.6786
 30
0.0
 10
-149.8778
 20
96.052
 30
0.0
 10
-149.8778
 20
96.052
 30
0.0
 10
-149.9898
 20
96.4254
 30
0.0
 10
-150.0759
 20
96.8058
 30
0.0
 10
-150.1353
 20
97.1908
 30
0.0
 10
-150.1353
 20
97.1908
 30
0.0
 10
-150.6285
 20
100.8098
 30
0.0
 10
-149.0357
 20
104.4004
 30
0.0
 10
-146.0242
 20
106.4669
 30
0.0
 10
-146.0242
 20
106.4669
 30
0.0
 10
-143.1033
 20
108.4708
 30
0.0
 10
-139.4511
 20
109.1022
 30
0.0
 10
-136.0264
 20
108.1973
 30
0.0
 10
-136.0264
 20
108.1973
 30
0.0
 10
-132.756
 20
106.8375
 30
0.0
 10
-130.2388
 20
104.1175
 30
0.0
 10
-129.1343
 20
100.7516
 30
0.0
 10
-129.1343
 20
100.7516
 30
0.0
 10
-127.9948
 20
97.2813
 30
0.0
 10
-128.9129
 20
93.4622
 30
0.0
 10
-131.5011
 20
90.8858
 30
0.0
 10
-131.5011
 20
90.8858
 30
0.0
 10
-132.6834
 20
89.7483
 30
0.0
 10
-134.112
 20
88.8986
 30
0.0
 10
-135.6758
 20
88.4026
 30
0.0
 10
-135.6758
 20
88.4026
 30
0.0
 10
-137.2353
 20
87.9076
 30
0.0
 10
-138.6762
 20
87.0982
 30
0.0
 10
-139.9094
 20
86.0231
 30
0.0
 10
-139.9094
 20
86.0231
 30
0.0
 10
-140.3183
 20
85.6669
 30
0.0
 10
-140.6807
 20
85.2614
 30
0.0
 10
-140.9884
 20
84.8154
 30
0.0
 10
-140.9884
 20
84.8154
 30
0.0
 10
-141.2981
 20
84.3675
 30
0.0
 10
-141.5238
 20
83.8671
 30
0.0
 10
-141.6548
 20
83.339
 30
0.0
 10
-141.6548
 20
83.339
 30
0.0
 10
-141.7668
 20
82.8641
 30
0.0
 10
-141.8067
 20
82.3753
 30
0.0
 10
-141.7734
 20
81.8883
 30
0.0
 10
-141.7734
 20
81.8883
 30
0.0
 10
-141.7397
 20
81.3995
 30
0.0
 10
-141.6093
 20
80.9224
 30
0.0
 10
-141.3895
 20
80.4842
 30
0.0
 10
-141.3895
 20
80.4842
 30
0.0
 10
-140.985
 20
80.2073
 30
0.0
 10
-140.5302
 20
80.013
 30
0.0
 10
-140.0508
 20
79.9127
 30
0.0
 10
-140.0508
 20
79.9127
 30
0.0
 10
-139.5733
 20
79.8134
 30
0.0
 10
-139.0833
 20
79.7861
 30
0.0
 10
-138.5973
 20
79.8322
 30
0.0
 10
-138.5973
 20
79.8322
 30
0.0
 10
-136.9108
 20
80.0124
 30
0.0
 10
-135.4018
 20
80.9563
 30
0.0
 10
-134.5018
 20
82.3937
 30
0.0
 10
-134.5018
 20
82.3937
 30
0.0
 10
-133.6475
 20
83.759
 30
0.0
 10
-132.7837
 20
85.1176
 30
0.0
 10
-131.9111
 20
86.4713
 30
0.0
 10
-131.9111
 20
86.4713
 30
0.0
 10
-131.3236
 20
87.3823
 30
0.0
 10
-130.589
 20
88.1905
 30
0.0
 10
-129.7374
 20
88.8625
 30
0.0
 10
-129.7374
 20
88.8625
 30
0.0
 10
-126.833
 20
91.0771
 30
0.0
 10
-122.9242
 20
91.4627
 30
0.0
 10
-119.6409
 20
89.8627
 30
0.0
 10
-119.6409
 20
89.8627
 30
0.0
 10
-116.457
 20
88.3105
 30
0.0
 10
-114.1064
 20
85.445
 30
0.0
 10
-113.2037
 20
82.0197
 30
0.0
 10
-113.2037
 20
82.0197
 30
0.0
 10
-112.7737
 20
78.5041
 30
0.0
 10
-113.8983
 20
74.9729
 30
0.0
 10
-116.2804
 20
72.3514
 30
0.0
 10
-116.2804
 20
72.3514
 30
0.0
 10
-118.7372
 20
69.6485
 30
0.0
 10
-122.5118
 20
68.5628
 30
0.0
 10
-126.0304
 20
69.5431
 30
0.0
 10
-126.0304
 20
69.5431
 30
0.0
 10
-127.6025
 20
70.0102
 30
0.0
 10
-129.0468
 20
70.8341
 30
0.0
 10
-130.2495
 20
71.9493
 30
0.0
 10
-130.2495
 20
71.9493
 30
0.0
 10
-131.4496
 20
73.0621
 30
0.0
 10
-132.8647
 20
73.9159
 30
0.0
 10
-134.4081
 20
74.4586
 30
0.0
 10
-134.4081
 20
74.4586
 30
0.0
 10
-134.9196
 20
74.6382
 30
0.0
 10
-135.4511
 20
74.7532
 30
0.0
 10
-135.9909
 20
74.8014
 30
0.0
 10
-135.9909
 20
74.8014
 30
0.0
 10
-136.533
 20
74.8497
 30
0.0
 10
-137.0794
 20
74.7991
 30
0.0
 10
-137.6031
 20
74.6527
 30
0.0
 10
-137.6031
 20
74.6527
 30
0.0
 10
-138.0969
 20
74.5084
 30
0.0
 10
-138.5674
 20
74.2933
 30
0.0
 10
-138.9996
 20
74.0148
 30
0.0
 10
-138.9996
 20
74.0148
 30
0.0
 10
-139.4368
 20
73.7323
 30
0.0
 10
-139.7934
 20
73.3422
 30
0.0
 10
-140.0348
 20
72.8819
 30
0.0
 10
-140.0348
 20
72.8819
 30
0.0
 10
-140.1545
 20
72.3753
 30
0.0
 10
-140.1413
 20
71.8472
 30
0.0
 10
-139.9964
 20
71.3474
 30
0.0
 10
-139.9964
 20
71.3474
 30
0.0
 10
-139.8534
 20
70.8536
 30
0.0
 10
-139.6399
 20
70.3824
 30
0.0
 10
-139.3618
 20
69.9498
 30
0.0
 10
-139.3618
 20
69.9498
 30
0.0
 10
-138.4288
 20
68.5341
 30
0.0
 10
-136.8986
 20
67.6247
 30
0.0
 10
-135.2081
 20
67.4839
 30
0.0
 10
-135.2081
 20
67.4839
 30
0.0
 10
-133.6037
 20
67.3496
 30
0.0
 10
-131.9997
 20
67.2048
 30
0.0
 10
-130.3976
 20
67.0489
 30
0.0
 10
-130.3976
 20
67.0489
 30
0.0
 10
-129.3181
 20
66.9439
 30
0.0
 10
-128.2628
 20
66.6616
 30
0.0
 10
-127.2758
 20
66.2121
 30
0.0
 10
-127.2758
 20
66.2121
 30
0.0
 10
-123.976
 20
64.6461
 30
0.0
 10
-121.8423
 20
61.3478
 30
0.0
 10
-121.7602
 20
57.6962
 30
0.0
 10
-121.7602
 20
57.6962
 30
0.0
 10
-121.6813
 20
54.1551
 30
0.0
 10
-123.1515
 20
50.7525
 30
0.0
 10
-125.7824
 20
48.3808
 30
0.0
 10
-125.7824
 20
48.3808
 30
0.0
 10
-128.7105
 20
46.3876
 30
0.0
 10
-132.3643
 20
45.7689
 30
0.0
 10
-135.7862
 20
46.6855
 30
0.0
 10
-135.7862
 20
46.6855
 30
0.0
 10
-139.3146
 20
47.6302
 30
0.0
 10
-142.0094
 20
50.4884
 30
0.0
 10
-142.7493
 20
54.0658
 30
0.0
 10
-142.7493
 20
54.0658
 30
0.0
 10
-143.0545
 20
55.6774
 30
0.0
 10
-142.9841
 20
57.3378
 30
0.0
 10
-142.5435
 20
58.9179
 30
0.0
 10
-142.5435
 20
58.9179
 30
0.0
 10
-142.1041
 20
60.4946
 30
0.0
 10
-141.9937
 20
62.1434
 30
0.0
 10
-142.219
 20
63.7644
 30
0.0
 10
-142.219
 20
63.7644
 30
0.0
 10
-142.2933
 20
64.301
 30
0.0
 10
-142.4343
 20
64.8265
 30
0.0
 10
-142.6396
 20
65.3285
 30
0.0
 10
-142.6396
 20
65.3285
 30
0.0
 10
-142.8449
 20
65.8321
 30
0.0
 10
-143.14
 20
66.2948
 30
0.0
 10
-143.5106
 20
66.6933
 30
0.0
 10
-143.5106
 20
66.6933
 30
0.0
 10
-144.1218
 20
67.3368
 30
0.0
 10
-144.9091
 20
67.7856
 30
0.0
 10
-145.7745
 20
67.9847
 30
0.0
 10
-145.7745
 20
67.9847
 30
0.0
 10
-145.8616
 20
68.0047
 30
0.0
 10
-145.9499
 20
68.0208
 30
0.0
 10
-146.0386
 20
68.033
 30
0.0
 10
-146.0386
 20
68.033
 30
0.0
 10
-146.1209
 20
67.9969
 30
0.0
 10
-146.2007
 20
67.957
 30
0.0
 10
-146.2794
 20
67.9137
 30
0.0
 10
-146.2794
 20
67.9137
 30
0.0
 10
-147.0573
 20
67.4855
 30
0.0
 10
-147.6907
 20
66.838
 30
0.0
 10
-148.1025
 20
66.0514
 30
0.0
 10
-148.1025
 20
66.0514
 30
0.0
 10
-148.8714
 20
64.5395
 30
0.0
 10
-148.9047
 20
62.7598
 30
0.0
 10
-148.1908
 20
61.2214
 30
0.0
 10
-148.1908
 20
61.2214
 30
0.0
 10
-147.5134
 20
59.7607
 30
0.0
 10
-146.8458
 20
58.2955
 30
0.0
 10
-146.1879
 20
56.8257
 30
0.0
 10
-146.1879
 20
56.8257
 30
0.0
 10
-145.7446
 20
55.8355
 30
0.0
 10
-145.4684
 20
54.7791
 30
0.0
 10
-145.3702
 20
53.699
 30
0.0
 10
-145.3702
 20
53.699
 30
0.0
 10
-145.0994
 20
50.0562
 30
0.0
 10
-146.9096
 20
46.5705
 30
0.0
 10
-150.042
 20
44.6921
 30
0.0
 10
-150.042
 20
44.6921
 30
0.0
 10
-153.0806
 20
42.8714
 30
0.0
 10
-156.7643
 20
42.4653
 30
0.0
 10
-160.1268
 20
43.5787
 30
0.0
 10
-160.1268
 20
43.5787
 30
0.0
 10
-163.3081
 20
45.1365
 30
0.0
 10
-165.6537
 20
48.0058
 30
0.0
 10
-166.5496
 20
51.4327
 30
0.0
 10
-166.5496
 20
51.4327
 30
0.0
 10
-167.4744
 20
54.9661
 30
0.0
 10
-166.3239
 20
58.7221
 30
0.0
 10
-163.5822
 20
61.1349
 30
0.0
 10
-163.5822
 20
61.1349
 30
0.0
 10
-162.3328
 20
62.1977
 30
0.0
 10
-160.8542
 20
62.9584
 30
0.0
 10
-159.2636
 20
63.3573
 30
0.0
 10
-159.2636
 20
63.3573
 30
0.0
 10
-157.6765
 20
63.7556
 30
0.0
 10
-156.1885
 20
64.4751
 30
0.0
 10
-154.8915
 20
65.4731
 30
0.0
 10
-154.8915
 20
65.4731
 30
0.0
 10
-154.4621
 20
65.8034
 30
0.0
 10
-154.0752
 20
66.1861
 30
0.0
 10
-153.7407
 20
66.6122
 30
0.0
 10
-153.7407
 20
66.6122
 30
0.0
 10
-153.404
 20
67.0404
 30
0.0
 10
-153.1482
 20
67.526
 30
0.0
 10
-152.9851
 20
68.0453
 30
0.0
 10
-152.9851
 20
68.0453
 30
0.0
 10
-152.7289
 20
68.8946
 30
0.0
 10
-152.7283
 20
69.8012
 30
0.0
 10
-152.9835
 20
70.6511
 30
0.0
 10
-152.9835
 20
70.6511
 30
0.0
 10
-152.9835
 20
70.6511
 30
0.0
 10
-153.0152
 20
70.752
 30
0.0
 10
-153.0152
 20
70.752
 30
0.0
 10
-153.0152
 20
70.752
 30
0.0
 10
-153.0152
 20
70.752
 30
0.0
 10
-153.1073
 20
70.8052
 30
0.0
 10
-153.1073
 20
70.8052
 30
0.0
 10
-153.1073
 20
70.8052
 30
0.0
 10
-153.8828
 20
71.2374
 30
0.0
 10
-154.7677
 20
71.4322
 30
0.0
 10
-155.6531
 20
71.364
 30
0.0
 10
-155.6531
 20
71.364
 30
0.0
 10
-157.3424
 20
71.2157
 30
0.0
 10
-158.8691
 20
70.301
 30
0.0
 10
-159.7957
 20
68.8802
 30
0.0
 10
-159.7957
 20
68.8802
 30
0.0
 10
-160.6756
 20
67.5314
 30
0.0
 10
-161.5643
 20
66.1889
 30
0.0
 10
-162.4626
 20
64.8519
 30
0.0
 10
-162.4626
 20
64.8519
 30
0.0
 10
-163.0673
 20
63.952
 30
0.0
 10
-163.8168
 20
63.1577
 30
0.0
 10
-164.6806
 20
62.5017
 30
0.0
 10
-164.6806
 20
62.5017
 30
0.0
 10
-167.5545
 20
60.3941
 30
0.0
 10
-171.3614
 20
60.0502
 30
0.0
 10
-174.568
 20
61.6036
 30
0.0
 10
-174.568
 20
61.6036
 30
0.0
 10
-177.6803
 20
63.1115
 30
0.0
 10
-180.0066
 20
65.8726
 30
0.0
 10
-180.9669
 20
69.1942
 30
0.0
 10
-180.9669
 20
69.1942
 30
0.0
 10
-180.9669
 20
69.1942
 30
0.0
 10
-180.9669
 20
72.9146
 30
0.0
 10
-180.9669
 20
72.9146
 30
0.0
 10
-180.9669
 20
72.9146
 30
0.0
 10
-180.4231
 20
75.8327
 30
0.0
 10
-178.8326
 20
78.4542
 30
0.0
 10
-176.4958
 20
80.2855
 30
0.0
 10
-176.4958
 20
80.2855
 30
0.0
 10
-174.1009
 20
82.1628
 30
0.0
 10
-170.9402
 20
82.7593
 30
0.0
 10
-168.0248
 20
81.8871
 30
0.0
 10
-168.0248
 20
81.8871
 30
0.0
 10
-166.4615
 20
81.3907
 30
0.0
 10
-165.0329
 20
80.5401
 30
0.0
 10
-163.8517
 20
79.4022
 30
0.0
 10
-163.8517
 20
79.4022
 30
0.0
 10
-162.6729
 20
78.2672
 30
0.0
 10
-161.2741
 20
77.3867
 30
0.0
 10
-159.7408
 20
76.8153
 30
0.0
 10
-159.7408
 20
76.8153
 30
0.0
 10
-159.2331
 20
76.6261
 30
0.0
 10
-158.7034
 20
76.5013
 30
0.0
 10
-158.1647
 20
76.4431
 30
0.0
 10
-158.1647
 20
76.4431
 30
0.0
 10
-157.6237
 20
76.3847
 30
0.0
 10
-157.0767
 20
76.4246
 30
0.0
 10
-156.5496
 20
76.5617
 30
0.0
 10
-156.5496
 20
76.5617
 30
0.0
 10
-155.6931
 20
76.7942
 30
0.0
 10
-154.9242
 20
77.2742
 30
0.0
 10
-154.3383
 20
77.9415
 30
0.0
 10
-154.3383
 20
77.9415
 30
0.0
 10
-154.3383
 20
77.9415
 30
0.0
 10
-154.2783
 20
78.0107
 30
0.0
 10
-154.2783
 20
78.0107
 30
0.0
 10
-154.2783
 20
78.0107
 30
0.0
 10
-154.2783
 20
78.0107
 30
0.0
 10
-154.2823
 20
78.1024
 30
0.0
 10
-154.2823
 20
78.1024
 30
0.0
 10
-154.2823
 20
78.1024
 30
0.0
 10
-154.33
 20
78.9889
 30
0.0
 10
-154.6368
 20
79.8417
 30
0.0
 10
-155.166
 20
80.554
 30
0.0
 10
-155.166
 20
80.554
 30
0.0
 10
-156.1919
 20
81.905
 30
0.0
 10
-157.7802
 20
82.7094
 30
0.0
 10
-159.4755
 20
82.736
 30
0.0
 10
-159.4755
 20
82.736
 30
0.0
 10
-161.0855
 20
82.7619
 30
0.0
 10
-162.6955
 20
82.7986
 30
0.0
 10
-164.3049
 20
82.8458
 30
0.0
 10
-164.3049
 20
82.8458
 30
0.0
 10
-165.3891
 20
82.8779
 30
0.0
 10
-166.4609
 20
83.0894
 30
0.0
 10
-167.4762
 20
83.471
 30
0.0
 10
-167.4762
 20
83.471
 30
0.0
 10
-170.873
 20
84.812
 30
0.0
 10
-173.2242
 20
87.9592
 30
0.0
 10
-173.5517
 20
91.5969
 30
0.0
 10
-173.5517
 20
91.5969
 30
0.0
 10
-173.8683
 20
95.125
 30
0.0
 10
-172.6307
 20
98.6183
 30
0.0
 10
-170.1651
 20
101.1609
 30
0.0
 10
-170.1651
 20
101.1609
 30
0.0
 10
-167.5422
 20
103.2182
 30
0.0
 10
-164.1886
 20
104.1119
 30
0.0
 10
-160.8897
 20
103.6341
 30
0.0
 10
-160.8897
 20
103.6341
 30
0.0
 10
-157.5105
 20
103.1449
 30
0.0
 10
-154.6234
 20
100.939
 30
0.0
 10
-153.2598
 20
97.8088
 30
0.0
 10
-153.2598
 20
97.8088
 30
0.0
 10
-153.6137
 20
99.1309
 30
0.0
 10
-154.2383
 20
100.3637
 30
0.0
 10
-155.0955
 20
101.4306
 30
0.0
 10
-155.0955
 20
101.4306
 30
0.0
 10
-157.9959
 20
105.0423
 30
0.0
 10
-159.8341
 20
109.3928
 30
0.0
 10
-160.4031
 20
113.9904
 30
0.0
 10
-160.4031
 20
113.9904
 30
0.0
 10
-160.6501
 20
115.9875
 30
0.0
 10
-160.498
 20
118.0153
 30
0.0
 10
-159.9561
 20
119.9538
 30
0.0
 10
-159.9561
 20
119.9538
 30
0.0
 10
-159.3846
 20
121.997
 30
0.0
 10
-158.335
 20
123.8755
 30
0.0
 10
-156.8954
 20
125.4339
 30
0.0
 10
-156.8954
 20
125.4339
 30
0.0
 10
-156.8954
 20
125.4339
 30
0.0
 10
-152.8147
 20
125.4339
 30
0.0
 10
-152.8147
 20
125.4339
 30
0.0
 10
-152.8147
 20
125.4339
 30
0.0
 10
-154.4904
 20
123.9665
 30
0.0
 10
-155.7663
 20
122.0997
 30
0.0
 10
-156.5248
 20
120.0059
 30
0.0
 10
-156.5248
 20
120.0059
 30
0.0
 10
-157.2764
 20
117.9288
 30
0.0
 10
-157.6542
 20
115.7357
 30
0.0
 10
-157.6404
 20
113.5265
 30
0.0
 10
-157.6404
 20
113.5265
 30
0.0
 10
-157.6259
 20
111.2853
 30
0.0
 10
-157.1405
 20
109.0727
 30
0.0
 10
-156.2152
 20
107.0317
 30
0.0
 10
-156.2152
 20
107.0317
 30
0.0
 10
-154.7123
 20
105.2646
 30
0.0
 10
-153.4261
 20
103.3235
 30
0.0
 10
-152.3849
 20
101.2508
 30
0.0
 10
-152.3849
 20
101.2508
 30
0.0
 10
-151.3468
 20
99.1847
 30
0.0
 10
-150.3811
 20
97.0833
 30
0.0
 10
-149.489
 20
94.9502
 30
0.0
  0
SPLINE
  5
44
330
1F
100
AcDbEntity
  8
layer 1
 62
     7
100
AcDbSpline
210
0.0
220
0.0
230
1.0
 70
    11
 71
     3
 72
    40
 73
    36
 74
     0
 42
0.0000000001
 43
0.0000000001
 12
1.0
 22
0.0
 32
0.0
 13
1.0
 23
0.0
 33
0.0
 40
0.0
 40
0.0
 40
0.0
 40
0.0
 40
0.1
 40
0.1
 40
0.1
 40
0.1
 40
0.2
 40
0.2
 40
0.2
 40
0.2
 40
0.3
 40
0.3
 40
0.3
 40
0.3
 40
0.4
 40
0.4
 40
0.4
 40
0.4
 40
0.5
 40
0.5
 40
0.5
 40
0.5
 40
0.6
 40
0.6
 40
0.6
 40
0.6
 40
0.7
 40
0.7
 40
0.7
 40
0.7
 40
0.8
 40
0.8
 40
0.8
 40
0.8
 40
1.0
 40
1.0
 40
1.0
 40
1.0
 10
-144.1258
 20
125.4339
 30
0.0
 10
-144.1258
 20
125.4339
 30
0.0
 10
-133.1709
 20
125.4339
 30
0.0
 10
-133.1709
 20
125.4339
 30
0.0
 10
-133.1709
 20
125.4339
 30
0.0
 10
-132.8443
 20
124.5412
 30
0.0
 10
-132.5551
 20
123.6359
 30
0.0
 10
-132.3049
 20
122.7187
 30
0.0
 10
-132.3049
 20
122.7187
 30
0.0
 10
-131.2842
 20
118.9778
 30
0.0
 10
-132.7044
 20
114.9935
 30
0.0
 10
-135.8578
 20
112.737
 30
0.0
 10
-135.8578
 20
112.737
 30
0.0
 10
-137.3274
 20
111.2331
 30
0.0
 10
-139.3718
 20
110.4291
 30
0.0
 10
-141.4716
 20
110.5278
 30
0.0
 10
-141.4716
 20
110.5278
 30
0.0
 10
-143.5626
 20
110.6262
 30
0.0
 10
-145.5255
 20
111.5676
 30
0.0
 10
-146.9118
 20
113.1355
 30
0.0
 10
-146.9118
 20
113.1355
 30
0.0
 10
-147.4106
 20
113.6991
 30
0.0
 10
-147.6486
 20
114.4475
 30
0.0
 10
-147.5678
 20
115.1959
 30
0.0
 10
-147.5678
 20
115.1959
 30
0.0
 10
-147.3669
 20
117.0556
 30
0.0
 10
-146.5129
 20
118.7842
 30
0.0
 10
-145.1594
 20
120.0747
 30
0.0
 10
-145.1594
 20
120.0747
 30
0.0
 10
-144.9286
 20
120.3011
 30
0.0
 10
-144.7498
 20
120.5752
 30
0.0
 10
-144.6351
 20
120.8775
 30
0.0
 10
-144.6351
 20
120.8775
 30
0.0
 10
-144.0831
 20
122.3288
 30
0.0
 10
-143.9077
 20
123.8961
 30
0.0
 10
-144.1258
 20
125.4339
 30
0.0
  0
SPLINE
  5
45
330
1F
100
AcDbEntity
  8
layer 1
 62
     7
100
AcDbSpline
210
0.0
220
0.0
230
1.0
 70
    11
 71
     3
 72
    24
 73
    20
 74
     0
 42
0.0000000001
 43
0.0000000001
 12
1.0
 22
0.0
 32
0.0
 13
1.0
 23
0.0
 33
0.0
 40
0.0
 40
0.0
 40
0.0
 40
0.0
 40
0.1666666666666667
 40
0.1666666666666667
 40
0.1666666666666667
 40
0.1666666666666667
 40
0.3333333333333333
 40
0.3333333333333333
 40
0.3333333333333333
 40
0.3333333333333333
 40
0.5
 40
0.5
 40
0.5
 40
0.5
 40
0.6666666666666666
 40
0.6666666666666666
 40
0.6666666666666666
 40
0.6666666666666666
 40
1.0
 40
1.0
 40
1.0
 40
1.0
 10
-72.5651
 20
48.2466
 30
0.0
 10
-76.0093
 20
44.9828
 30
0.0
 10
-77.7328
 20
40.3026
 30
0.0
 10
-77.2236
 20
35.5854
 30
0.0
 10
-77.2236
 20
35.5854
 30
0.0
 10
-76.9784
 20
33.3096
 30
0.0
 10
-75.9631
 20
31.1869
 30
0.0
 10
-74.3443
 20
29.5691
 30
0.0
 10
-74.3443
 20
29.5691
 30
0.0
 10
-74.0858
 20
29.3406
 30
0.0
 10
-73.8095
 20
29.1337
 30
0.0
 10
-73.5172
 20
28.9507
 30
0.0
 10
-73.5172
 20
28.9507
 30
0.0
 10
-73.223
 20
28.7669
 30
0.0
 10
-72.9018
 20
28.6317
 30
0.0
 10
-72.5651
 20
28.55
 30
0.0
 10
-72.5651
 20
28.55
 30
0.0
 10
-72.5651
 20
28.55
 30
0.0
 10
-72.5651
 20
48.2466
 30
0.0
 10
-72.5651
 20
48.2466
 30
0.0
  0
SPLINE
  5
46
330
1F
100
AcDbEntity
  8
layer 1
 62
     7
100
AcDbSpline
210
0.0
220
0.0
230
1.0
 70
    11
 71
     3
 72
   328
 73
   324
 74
     0
 42
0.0000000001
 43
0.0000000001
 12
1.0
 22
0.0
 32
0.0
 13
1.0
 23
0.0
 33
0.0
 40
0.0
 40
0.0
 40
0.0
 40
0.0
 40
0.0121951219512195
 40
0.0121951219512195
 40
0.0121951219512195
 40
0.0121951219512195
 40
0.024390243902439
 40
0.024390243902439
 40
0.024390243902439
 40
0.024390243902439
 40
0.0365853658536585
 40
0.0365853658536585
 40
0.0365853658536585
 40
0.0365853658536585
 40
0.0487804878048781
 40
0.0487804878048781
 40
0.0487804878048781
 40
0.0487804878048781
 40
0.0609756097560976
 40
0.0609756097560976
 40
0.0609756097560976
 40
0.0609756097560976
 40
0.0731707317073171
 40
0.0731707317073171
 40
0.0731707317073171
 40
0.0731707317073171
 40
0.0853658536585366
 40
0.0853658536585366
 40
0.0853658536585366
 40
0.0853658536585366
 40
0.0975609756097561
 40
0.0975609756097561
 40
0.0975609756097561
 40
0.0975609756097561
 40
0.1097560975609756
 40
0.1097560975609756
 40
0.1097560975609756
 40
0.1097560975609756
 40
0.1219512195121951
 40
0.1219512195121951
 40
0.1219512195121951
 40
0.1219512195121951
 40
0.1341463414634146
 40
0.1341463414634146
 40
0.1341463414634146
 40
0.1341463414634146
 40
0.1463414634146341
 40
0.1463414634146341
 40
0.1463414634146341
 40
0.1463414634146341
 40
0.1585365853658537
 40
0.1585365853658537
 40
0.1585365853658537
 40
0.1585365853658537
 40
0.1707317073170732
 40
0.1707317073170732
 40
0.1707317073170732
 40
0.1707317073170732
 40
0.1829268292682927
 40
0.1829268292682927
 40
0.1829268292682927
 40
0.1829268292682927
 40
0.1951219512195122
 40
0.1951219512195122
 40
0.1951219512195122
 40
0.1951219512195122
 40
0.2073170731707317
 40
0.2073170731707317
 40
0.2073170731707317
 40
0.2073170731707317
 40
0.2195121951219512
 40
0.2195121951219512
 40
0.2195121951219512
 40
0.2195121951219512
 40
0.2317073170731707
 40
0.2317073170731707
 40
0.2317073170731707
 40
0.2317073170731707
 40
0.2439024390243902
 40
0.2439024390243902
 40
0.2439024390243902
 40
0.2439024390243902
 40
0.2560975609756098
 40
0.2560975609756098
 40
0.2560975609756098
 40
0.2560975609756098
 40
0.2682926829268293
 40
0.2682926829268293
 40
0.2682926829268293
 40
0.2682926829268293
 40
0.2804878048780488
 40
0.2804878048780488
 40
0.2804878048780488
 40
0.2804878048780488
 40
0.2926829268292683
 40
0.2926829268292683
 40
0.2926829268292683
 40
0.2926829268292683
 40
0.3048780487804878
 40
0.3048780487804878
 40
0.3048780487804878
 40
0.3048780487804878
 40
0.3170731707317073
 40
0.3170731707317073
 40
0.3170731707317073
 40
0.3170731707317073
 40
0.3292682926829268
 40
0.3292682926829268
 40
0.3292682926829268
 40
0.3292682926829268
 40
0.3414634146341464
 40
0.3414634146341464
 40
0.3414634146341464
 40
0.3414634146341464
 40
0.3536585365853658
 40
0.3536585365853658
 40
0.3536585365853658
 40
0.3536585365853658
 40
0.3658536585365854
 40
0.3658536585365854
 40
0.3658536585365854
 40
0.3658536585365854
 40
0.3780487804878049
 40
0.3780487804878049
 40
0.3780487804878049
 40
0.3780487804878049
 40
0.3902439024390244
 40
0.3902439024390244
 40
0.3902439024390244
 40
0.3902439024390244
 40
0.4024390243902439
 40
0.4024390243902439
 40
0.4024390243902439
 40
0.4024390243902439
 40
0.4146341463414634
 40
0.4146341463414634
 40
0.4146341463414634
 40
0.4146341463414634
 40
0.4268292682926829
 40
0.4268292682926829
 40
0.4268292682926829
 40
0.4268292682926829
 40
0.4390243902439024
 40
0.4390243902439024
 40
0.4390243902439024
 40
0.4390243902439024
 40
0.451219512195122
 40
0.451219512195122
 40
0.451219512195122
 40
0.451219512195122
 40
0.4634146341463415
 40
0.4634146341463415
 40
0.4634146341463415
 40
0.4634146341463415
 40
0.475609756097561
 40
0.475609756097561
 40
0.475609756097561
 40
0.475609756097561
 40
0.4878048780487805
 40
0.4878048780487805
 40
0.4878048780487805
 40
0.4878048780487805
 40
0.5
 40
0.5
 40
0.5
 40
0.5
 40
0.5121951219512195
 40
0.5121951219512195
 40
0.5121951219512195
 40
0.5121951219512195
 40
0.524390243902439
 40
0.524390243902439
 40
0.524390243902439
 40
0.524390243902439
 40
0.5365853658536586
 40
0.5365853658536586
 40
0.5365853658536586
 40
0.5365853658536586
 40
0.5487804878048781
 40
0.5487804878048781
 40
0.5487804878048781
 40
0.5487804878048781
 40
0.5609756097560976
 40
0.5609756097560976
 40
0.5609756097560976
 40
0.5609756097560976
 40
0.573170731707317
 40
0.573170731707317
 40
0.573170731707317
 40
0.573170731707317
 40
0.5853658536585366
 40
0.5853658536585366
 40
0.5853658536585366
 40
0.5853658536585366
 40
0.5975609756097561
 40
0.5975609756097561
 40
0.5975609756097561
 40
0.5975609756097561
 40
0.6097560975609756
 40
0.6097560975609756
 40
0.6097560975609756
 40
0.6097560975609756
 40
0.6219512195121951
 40
0.6219512195121951
 40
0.6219512195121951
 40
0.6219512195121951
 40
0.6341463414634146
 40
0.6341463414634146
 40
0.6341463414634146
 40
0.6341463414634146
 40
0.6463414634146342
 40
0.6463414634146342
 40
0.6463414634146342
 40
0.6463414634146342
 40
0.6585365853658537
 40
0.6585365853658537
 40
0.6585365853658537
 40
0.6585365853658537
 40
0.6707317073170732
 40
0.6707317073170732
 40
0.6707317073170732
 40
0.6707317073170732
 40
0.6829268292682927
 40
0.6829268292682927
 40
0.6829268292682927
 40
0.6829268292682927
 40
0.6951219512195121
 40
0.6951219512195121
 40
0.6951219512195121
 40
0.6951219512195121
 40
0.7073170731707317
 40
0.7073170731707317
 40
0.7073170731707317
 40
0.7073170731707317
 40
0.7195121951219512
 40
0.7195121951219512
 40
0.7195121951219512
 40
0.7195121951219512
 40
0.7317073170731707
 40
0.7317073170731707
 40
0.7317073170731707
 40
0.7317073170731707
 40
0.7439024390243902
 40
0.7439024390243902
 40
0.7439024390243902
 40
0.7439024390243902
 40
0.7560975609756098
 40
0.7560975609756098
 40
0.7560975609756098
 40
0.7560975609756098
 40
0.7682926829268293
 40
0.7682926829268293
 40
0.7682926829268293
 40
0.7682926829268293
 40
0.7804878048780488
 40
0.7804878048780488
 40
0.7804878048780488
 40
0.7804878048780488
 40
0.7926829268292683
 40
0.7926829268292683
 40
0.7926829268292683
 40
0.7926829268292683
 40
0.8048780487804879
 40
0.8048780487804879
 40
0.8048780487804879
 40
0.8048780487804879
 40
0.8170731707317073
 40
0.8170731707317073
 40
0.8170731707317073
 40
0.8170731707317073
 40
0.8292682926829268
 40
0.8292682926829268
 40
0.8292682926829268
 40
0.8292682926829268
 40
0.8414634146341463
 40
0.8414634146341463
 40
0.8414634146341463
 40
0.8414634146341463
 40
0.8536585365853658
 40
0.8536585365853658
 40
0.8536585365853658
 40
0.8536585365853658
 40
0.8658536585365854
 40
0.8658536585365854
 40
0.8658536585365854
 40
0.8658536585365854
 40
0.8780487804878049
 40
0.8780487804878049
 40
0.8780487804878049
 40
0.8780487804878049
 40
0.8902439024390244
 40
0.8902439024390244
 40
0.8902439024390244
 40
0.8902439024390244
 40
0.9024390243902439
 40
0.9024390243902439
 40
0.9024390243902439
 40
0.9024390243902439
 40
0.9146341463414634
 40
0.9146341463414634
 40
0.9146341463414634
 40
0.9146341463414634
 40
0.926829268292683
 40
0.926829268292683
 40
0.926829268292683
 40
0.926829268292683
 40
0.9390243902439024
 40
0.9390243902439024
 40
0.9390243902439024
 40
0.9390243902439024
 40
0.9512195121951219
 40
0.9512195121951219
 40
0.9512195121951219
 40
0.9512195121951219
 40
0.9634146341463414
 40
0.9634146341463414
 40
0.9634146341463414
 40
0.9634146341463414
 40
0.975609756097561
 40
0.975609756097561
 40
0.975609756097561
 40
0.975609756097561
 40
1.0
 40
1.0
 40
1.0
 40
1.0
 10
-72.5651
 20
93.1349
 30
0.0
 10
-76.3287
 20
90.8858
 30
0.0
 10
-80.6001
 20
89.6191
 30
0.0
 10
-84.9811
 20
89.4522
 30
0.0
 10
-84.9811
 20
89.4522
 30
0.0
 10
-89.338
 20
89.2863
 30
0.0
 10
-93.6853
 20
89.9998
 30
0.0
 10
-97.7607
 20
91.5488
 30
0.0
 10
-97.7607
 20
91.5488
 30
0.0
 10
-100.9336
 20
92.8137
 30
0.0
 10
-103.7972
 20
94.7487
 30
0.0
 10
-106.1551
 20
97.2197
 30
0.0
 10
-106.1551
 20
97.2197
 30
0.0
 10
-108.5396
 20
99.719
 30
0.0
 10
-110.1063
 20
102.8879
 30
0.0
 10
-110.6444
 20
106.3005
 30
0.0
 10
-110.6444
 20
106.3005
 30
0.0
 10
-111.015
 20
108.6477
 30
0.0
 10
-111.0666
 20
111.0351
 30
0.0
 10
-110.7987
 20
113.3961
 30
0.0
 10
-110.7987
 20
113.3961
 30
0.0
 10
-110.3021
 20
117.6997
 30
0.0
 10
-108.7914
 20
121.8256
 30
0.0
 10
-106.3942
 20
125.4339
 30
0.0
 10
-106.3942
 20
125.4339
 30
0.0
 10
-106.3942
 20
125.4339
 30
0.0
 10
-110.7493
 20
125.4339
 30
0.0
 10
-110.7493
 20
125.4339
 30
0.0
 10
-110.7493
 20
125.4339
 30
0.0
 10
-111.8983
 20
123.3184
 30
0.0
 10
-112.7454
 20
121.0533
 30
0.0
 10
-113.2669
 20
118.7033
 30
0.0
 10
-113.2669
 20
118.7033
 30
0.0
 10
-113.8666
 20
115.7885
 30
0.0
 10
-114.0514
 20
112.8042
 30
0.0
 10
-113.8139
 20
109.8378
 30
0.0
 10
-113.8139
 20
109.8378
 30
0.0
 10
-113.5709
 20
106.8054
 30
0.0
 10
-112.9085
 20
103.8223
 30
0.0
 10
-111.8439
 20
100.9723
 30
0.0
 10
-111.8439
 20
100.9723
 30
0.0
 10
-111.7502
 20
100.7281
 30
0.0
 10
-111.6509
 20
100.4863
 30
0.0
 10
-111.5459
 20
100.2467
 30
0.0
 10
-111.5459
 20
100.2467
 30
0.0
 10
-111.4406
 20
100.007
 30
0.0
 10
-111.3208
 20
99.774
 30
0.0
 10
-111.187
 20
99.5493
 30
0.0
 10
-111.187
 20
99.5493
 30
0.0
 10
-112.9208
 20
101.2291
 30
0.0
 10
-114.4032
 20
103.1509
 30
0.0
 10
-115.587
 20
105.2548
 30
0.0
 10
-115.587
 20
105.2548
 30
0.0
 10
-119.1144
 20
111.5233
 30
0.0
 10
-121.5505
 20
118.3482
 30
0.0
 10
-122.7893
 20
125.4339
 30
0.0
 10
-122.7893
 20
125.4339
 30
0.0
 10
-122.7893
 20
125.4339
 30
0.0
 10
-124.978
 20
125.4339
 30
0.0
 10
-124.978
 20
125.4339
 30
0.0
 10
-124.978
 20
125.4339
 30
0.0
 10
-125.0488
 20
121.7496
 30
0.0
 10
-124.3538
 20
118.0919
 30
0.0
 10
-122.9352
 20
114.6911
 30
0.0
 10
-122.9352
 20
114.6911
 30
0.0
 10
-121.532
 20
111.3262
 30
0.0
 10
-120.1851
 20
107.9386
 30
0.0
 10
-118.8947
 20
104.529
 30
0.0
 10
-118.8947
 20
104.529
 30
0.0
 10
-118.1529
 20
102.5691
 30
0.0
 10
-117.2265
 20
100.6838
 30
0.0
 10
-116.1269
 20
98.899
 30
0.0
 10
-116.1269
 20
98.899
 30
0.0
 10
-111.881
 20
92.1485
 30
0.0
 10
-105.1093
 20
87.3867
 30
0.0
 10
-97.319
 20
85.6802
 30
0.0
 10
-97.319
 20
85.6802
 30
0.0
 10
-95.6569
 20
85.3162
 30
0.0
 10
-93.9471
 20
85.2213
 30
0.0
 10
-92.2545
 20
85.4007
 30
0.0
 10
-92.2545
 20
85.4007
 30
0.0
 10
-94.9341
 20
85.0893
 30
0.0
 10
-97.5183
 20
84.2217
 30
0.0
 10
-99.8422
 20
82.8518
 30
0.0
 10
-99.8422
 20
82.8518
 30
0.0
 10
-102.1734
 20
81.4778
 30
0.0
 10
-104.1439
 20
79.5692
 30
0.0
 10
-105.592
 20
77.283
 30
0.0
 10
-105.592
 20
77.283
 30
0.0
 10
-107.8877
 20
73.6581
 30
0.0
 10
-109.2398
 20
69.5176
 30
0.0
 10
-109.5238
 20
65.2364
 30
0.0
 10
-109.5238
 20
65.2364
 30
0.0
 10
-109.8107
 20
60.9036
 30
0.0
 10
-108.6495
 20
56.6006
 30
0.0
 10
-106.2195
 20
53.0022
 30
0.0
 10
-106.2195
 20
53.0022
 30
0.0
 10
-104.9235
 20
51.0822
 30
0.0
 10
-103.6315
 20
49.1591
 30
0.0
 10
-102.3437
 20
47.2341
 30
0.0
 10
-102.3437
 20
47.2341
 30
0.0
 10
-101.1171
 20
45.4006
 30
0.0
 10
-100.2662
 20
43.3417
 30
0.0
 10
-99.84
 20
41.1775
 30
0.0
 10
-99.84
 20
41.1775
 30
0.0
 10
-99.5298
 20
39.602
 30
0.0
 10
-99.6247
 20
37.9725
 30
0.0
 10
-100.1163
 20
36.4442
 30
0.0
 10
-100.1163
 20
36.4442
 30
0.0
 10
-100.9474
 20
33.8572
 30
0.0
 10
-102.8825
 20
31.77
 30
0.0
 10
-105.3974
 20
30.7431
 30
0.0
 10
-105.3974
 20
30.7431
 30
0.0
 10
-107.7906
 20
29.7972
 30
0.0
 10
-110.4765
 20
29.9198
 30
0.0
 10
-112.7743
 20
31.0788
 30
0.0
 10
-112.7743
 20
31.0788
 30
0.0
 10
-113.6874
 20
31.5393
 30
0.0
 10
-114.4742
 20
32.2173
 30
0.0
 10
-115.0655
 20
33.0516
 30
0.0
 10
-115.0655
 20
33.0516
 30
0.0
 10
-115.6624
 20
33.8943
 30
0.0
 10
-115.9783
 20
34.9046
 30
0.0
 10
-115.9688
 20
35.9369
 30
0.0
 10
-115.9688
 20
35.9369
 30
0.0
 10
-114.4864
 20
36.4929
 30
0.0
 10
-112.929
 20
36.8246
 30
0.0
 10
-111.3485
 20
36.9213
 30
0.0
 10
-111.3485
 20
36.9213
 30
0.0
 10
-109.6159
 20
37.0276
 30
0.0
 10
-108.1413
 20
38.2177
 30
0.0
 10
-107.6742
 20
39.8899
 30
0.0
 10
-107.6742
 20
39.8899
 30
0.0
 10
-107.11
 20
41.9048
 30
0.0
 10
-107.1976
 20
44.0458
 30
0.0
 10
-107.9254
 20
46.0081
 30
0.0
 10
-107.9254
 20
46.0081
 30
0.0
 10
-108.6838
 20
48.0513
 30
0.0
 10
-110.4431
 20
49.5564
 30
0.0
 10
-112.5795
 20
49.987
 30
0.0
 10
-112.5795
 20
49.987
 30
0.0
 10
-115.5838
 20
50.5928
 30
0.0
 10
-118.7033
 20
50.1084
 30
0.0
 10
-121.3818
 20
48.6188
 30
0.0
 10
-121.3818
 20
48.6188
 30
0.0
 10
-124.0725
 20
47.1225
 30
0.0
 10
-126.0886
 20
44.6565
 30
0.0
 10
-127.019
 20
41.7218
 30
0.0
 10
-127.019
 20
41.7218
 30
0.0
 10
-127.6531
 20
39.718
 30
0.0
 10
-127.7879
 20
37.5903
 30
0.0
 10
-127.4123
 20
35.5226
 30
0.0
 10
-127.4123
 20
35.5226
 30
0.0
 10
-128.0038
 20
36.5363
 30
0.0
 10
-128.7849
 20
37.4249
 30
0.0
 10
-129.7147
 20
38.1413
 30
0.0
 10
-129.7147
 20
38.1413
 30
0.0
 10
-130.6373
 20
38.852
 30
0.0
 10
-131.6269
 20
39.4716
 30
0.0
 10
-132.6695
 20
39.9914
 30
0.0
 10
-132.6695
 20
39.9914
 30
0.0
 10
-135.338
 20
41.3211
 30
0.0
 10
-138.453
 20
41.4138
 30
0.0
 10
-141.1949
 20
40.2433
 30
0.0
 10
-141.1949
 20
40.2433
 30
0.0
 10
-143.8539
 20
39.1082
 30
0.0
 10
-146.1718
 20
37.3035
 30
0.0
 10
-147.9243
 20
35.0033
 30
0.0
 10
-147.9243
 20
35.0033
 30
0.0
 10
-149.4145
 20
33.0472
 30
0.0
 10
-150.2183
 20
30.656
 30
0.0
 10
-150.2113
 20
28.1967
 30
0.0
 10
-150.2113
 20
28.1967
 30
0.0
 10
-150.2041
 20
25.6669
 30
0.0
 10
-148.999
 20
23.2918
 30
0.0
 10
-146.9608
 20
21.7933
 30
0.0
 10
-146.9608
 20
21.7933
 30
0.0
 10
-144.5329
 20
20.0085
 30
0.0
 10
-141.3697
 20
19.5741
 30
0.0
 10
-138.5518
 20
20.6404
 30
0.0
 10
-138.5518
 20
20.6404
 30
0.0
 10
-135.6702
 20
21.7307
 30
0.0
 10
-133.7059
 20
24.4158
 30
0.0
 10
-133.5421
 20
27.492
 30
0.0
 10
-133.5421
 20
27.492
 30
0.0
 10
-133.4717
 20
28.8008
 30
0.0
 10
-133.758
 20
30.104
 30
0.0
 10
-134.3704
 20
31.263
 30
0.0
 10
-134.3704
 20
31.263
 30
0.0
 10
-135.0179
 20
32.4873
 30
0.0
 10
-136.2834
 20
33.258
 30
0.0
 10
-137.6681
 20
33.2697
 30
0.0
 10
-137.6681
 20
33.2697
 30
0.0
 10
-138.4147
 20
33.2757
 30
0.0
 10
-139.1609
 20
33.2336
 30
0.0
 10
-139.9027
 20
33.1437
 30
0.0
 10
-139.9027
 20
33.1437
 30
0.0
 10
-140.6483
 20
33.0532
 30
0.0
 10
-141.3735
 20
32.8385
 30
0.0
 10
-142.0487
 20
32.509
 30
0.0
 10
-142.0487
 20
32.509
 30
0.0
 10
-142.3822
 20
33.4493
 30
0.0
 10
-142.2052
 20
34.4962
 30
0.0
 10
-141.5822
 20
35.2762
 30
0.0
 10
-141.5822
 20
35.2762
 30
0.0
 10
-140.9862
 20
36.0214
 30
0.0
 10
-140.1891
 20
36.5812
 30
0.0
 10
-139.2853
 20
36.8884
 30
0.0
 10
-139.2853
 20
36.8884
 30
0.0
 10
-137.4823
 20
37.5016
 30
0.0
 10
-135.4904
 20
37.1741
 30
0.0
 10
-133.9771
 20
36.0174
 30
0.0
 10
-133.9771
 20
36.0174
 30
0.0
 10
-131.4917
 20
34.1178
 30
0.0
 10
-129.1531
 20
32.0325
 30
0.0
 10
-126.9823
 20
29.7794
 30
0.0
 10
-126.9823
 20
29.7794
 30
0.0
 10
-126.4181
 20
29.1937
 30
0.0
 10
-125.829
 20
28.6317
 30
0.0
 10
-125.2176
 20
28.0957
 30
0.0
 10
-125.2176
 20
28.0957
 30
0.0
 10
-120.9652
 20
24.4164
 30
0.0
 10
-115.6143
 20
22.2554
 30
0.0
 10
-109.9997
 20
21.9508
 30
0.0
 10
-109.9997
 20
21.9508
 30
0.0
 10
-105.9205
 20
21.7323
 30
0.0
 10
-101.9282
 20
23.1814
 30
0.0
 10
-98.9391
 20
25.9652
 30
0.0
 10
-98.9391
 20
25.9652
 30
0.0
 10
-95.9498
 20
28.7492
 30
0.0
 10
-94.2216
 20
32.6089
 30
0.0
 10
-94.1508
 20
36.6926
 30
0.0
 10
-94.1508
 20
36.6926
 30
0.0
 10
-94.1273
 20
39.7473
 30
0.0
 10
-95.0112
 20
42.7381
 30
0.0
 10
-96.6904
 20
45.2896
 30
0.0
 10
-96.6904
 20
45.2896
 30
0.0
 10
-96.1796
 20
45.1231
 30
0.0
 10
-95.6609
 20
44.98
 30
0.0
 10
-95.1366
 20
44.8612
 30
0.0
 10
-95.1366
 20
44.8612
 30
0.0
 10
-94.6129
 20
44.742
 30
0.0
 10
-94.0886
 20
44.6244
 30
0.0
 10
-93.5643
 20
44.5085
 30
0.0
 10
-93.5643
 20
44.5085
 30
0.0
 10
-89.8866
 20
42.9855
 30
0.0
 10
-85.7723
 20
42.9091
 30
0.0
 10
-82.0408
 20
44.2948
 30
0.0
 10
-82.0408
 20
44.2948
 30
0.0
 10
-78.3819
 20
45.6542
 30
0.0
 10
-75.1248
 20
47.9087
 30
0.0
 10
-72.5651
 20
50.8558
 30
0.0
 10
-72.5651
 20
50.8558
 30
0.0
 10
-72.5651
 20
50.8558
 30
0.0
 10
-72.5651
 20
73.1608
 30
0.0
 10
-72.5651
 20
73.1608
 30
0.0
 10
-72.5651
 20
73.1608
 30
0.0
 10
-73.1071
 20
74.2839
 30
0.0
 10
-73.9759
 20
75.2153
 30
0.0
 10
-75.0584
 20
75.8339
 30
0.0
 10
-75.0584
 20
75.8339
 30
0.0
 10
-78.8175
 20
77.9825
 30
0.0
 10
-82.9391
 20
79.4195
 30
0.0
 10
-87.2197
 20
80.0724
 30
0.0
 10
-87.2197
 20
80.0724
 30
0.0
 10
-90.1534
 20
80.5201
 30
0.0
 10
-93.151
 20
79.9914
 30
0.0
 10
-95.754
 20
78.5661
 30
0.0
 10
-95.754
 20
78.5661
 30
0.0
 10
-98.4086
 20
77.1126
 30
0.0
 10
-100.3015
 20
74.5828
 30
0.0
 10
-100.9446
 20
71.6259
 30
0.0
 10
-100.9446
 20
71.6259
 30
0.0
 10
-101.6758
 20
68.265
 30
0.0
 10
-101.5893
 20
64.7793
 30
0.0
 10
-100.691
 20
61.4594
 30
0.0
 10
-100.691
 20
61.4594
 30
0.0
 10
-99.9616
 20
58.7925
 30
0.0
 10
-97.7519
 20
56.7908
 30
0.0
 10
-95.0262
 20
56.3275
 30
0.0
 10
-95.0262
 20
56.3275
 30
0.0
 10
-92.3004
 20
55.8644
 30
0.0
 10
-89.577
 20
56.9901
 30
0.0
 10
-88.0075
 20
59.2663
 30
0.0
 10
-88.0075
 20
59.2663
 30
0.0
 10
-86.8875
 20
60.8813
 30
0.0
 10
-85.6968
 20
62.4463
 30
0.0
 10
-84.4403
 20
63.9564
 30
0.0
 10
-84.4403
 20
63.9564
 30
0.0
 10
-83.0089
 20
65.6784
 30
0.0
 10
-80.5229
 20
66.0773
 30
0.0
 10
-78.6223
 20
64.8941
 30
0.0
 10
-78.6223
 20
64.8941
 30
0.0
 10
-76.6754
 20
63.683
 30
0.0
 10
-75.3535
 20
61.6829
 30
0.0
 10
-75.0028
 20
59.4167
 30
0.0
 10
-75.0028
 20
59.4167
 30
0.0
 10
-74.6517
 20
57.1508
 30
0.0
 10
-75.3158
 20
54.8347
 30
0.0
 10
-76.8052
 20
53.0911
 30
0.0
 10
-76.8052
 20
53.0911
 30
0.0
 10
-81.3867
 20
47.7345
 30
0.0
 10
-88.8669
 20
45.8689
 30
0.0
 10
-95.4317
 20
48.4352
 30
0.0
 10
-95.4317
 20
48.4352
 30
0.0
 10
-99.6077
 20
50.0685
 30
0.0
 10
-102.9994
 20
53.2442
 30
0.0
 10
-104.9068
 20
57.3019
 30
0.0
 10
-104.9068
 20
57.3019
 30
0.0
 10
-106.8308
 20
61.3949
 30
0.0
 10
-106.9125
 20
66.1184
 30
0.0
 10
-105.1338
 20
70.2765
 30
0.0
 10
-105.1338
 20
70.2765
 30
0.0
 10
-102.99
 20
75.2879
 30
0.0
 10
-99.2286
 20
79.44
 30
0.0
 10
-94.4542
 20
82.0691
 30
0.0
 10
-94.4542
 20
82.0691
 30
0.0
 10
-87.7069
 20
85.7845
 30
0.0
 10
-80.244
 20
88.0254
 30
0.0
 10
-72.5651
 20
88.6416
 30
0.0
 10
-72.5651
 20
88.6416
 30
0.0
 10
-72.5651
 20
88.6416
 30
0.0
 10
-72.5651
 20
93.1349
 30
0.0
 10
-72.5651
 20
93.1349
 30
0.0
  0
SPLINE
  5
47
330
1F
100
AcDbEntity
  8
layer 1
 62
     7
100
AcDbSpline
210
0.0
220
0.0
230
1.0
 70
    11
 71
     3
 72
    24
 73
    20
 74
     0
 42
0.0000000001
 43
0.0000000001
 12
1.0
 22
0.0
 32
0.0
 13
1.0
 23
0.0
 33
0.0
 40
0.0
 40
0.0
 40
0.0
 40
0.0
 40
0.1666666666666667
 40
0.1666666666666667
 40
0.1666666666666667
 40
0.1666666666666667
 40
0.3333333333333333
 40
0.3333333333333333
 40
0.3333333333333333
 40
0.3333333333333333
 40
0.5
 40
0.5
 40
0.5
 40
0.5
 40
0.6666666666666666
 40
0.6666666666666666
 40
0.6666666666666666
 40
0.6666666666666666
 40
1.0
 40
1.0
 40
1.0
 40
1.0
 10
-180.9669
 20
40.2593
 30
0.0
 10
-180.9669
 20
40.2593
 30
0.0
 10
-180.9669
 20
55.2735
 30
0.0
 10
-180.9669
 20
55.2735
 30
0.0
 10
-180.9669
 20
55.2735
 30
0.0
 10
-179.3641
 20
55.4178
 30
0.0
 10
-177.7481
 20
55.2807
 30
0.0
 10
-176.1918
 20
54.869
 30
0.0
 10
-176.1918
 20
54.869
 30
0.0
 10
-174.5264
 20
54.4286
 30
0.0
 10
-173.2465
 20
53.0905
 30
0.0
 10
-172.8787
 20
51.4066
 30
0.0
 10
-172.8787
 20
51.4066
 30
0.0
 10
-171.9894
 20
47.3368
 30
0.0
 10
-174.0292
 20
43.188
 30
0.0
 10
-177.7918
 20
41.4
 30
0.0
 10
-177.7918
 20
41.4
 30
0.0
 10
-178.8099
 20
40.9168
 30
0.0
 10
-179.874
 20
40.5346
 30
0.0
 10
-180.9669
 20
40.2593
 30
0.0
  0
SPLINE
  5
48
330
1F
100
AcDbEntity
  8
layer 1
 62
     7
100
AcDbSpline
210
0.0
220
0.0
230
1.0
 70
    11
 71
     3
 72
    76
 73
    72
 74
     0
 42
0.0000000001
 43
0.0000000001
 12
1.0
 22
0.0
 32
0.0
 13
1.0
 23
0.0
 33
0.0
 40
0.0
 40
0.0
 40
0.0
 40
0.0
 40
0.0526315789473684
 40
0.0526315789473684
 40
0.0526315789473684
 40
0.0526315789473684
 40
0.1052631578947368
 40
0.1052631578947368
 40
0.1052631578947368
 40
0.1052631578947368
 40
0.1578947368421053
 40
0.1578947368421053
 40
0.1578947368421053
 40
0.1578947368421053
 40
0.2105263157894737
 40
0.2105263157894737
 40
0.2105263157894737
 40
0.2105263157894737
 40
0.2631578947368421
 40
0.2631578947368421
 40
0.2631578947368421
 40
0.2631578947368421
 40
0.3157894736842105
 40
0.3157894736842105
 40
0.3157894736842105
 40
0.3157894736842105
 40
0.3684210526315789
 40
0.3684210526315789
 40
0.3684210526315789
 40
0.3684210526315789
 40
0.4210526315789473
 40
0.4210526315789473
 40
0.4210526315789473
 40
0.4210526315789473
 40
0.4736842105263158
 40
0.4736842105263158
 40
0.4736842105263158
 40
0.4736842105263158
 40
0.5263157894736842
 40
0.5263157894736842
 40
0.5263157894736842
 40
0.5263157894736842
 40
0.5789473684210527
 40
0.5789473684210527
 40
0.5789473684210527
 40
0.5789473684210527
 40
0.631578947368421
 40
0.631578947368421
 40
0.631578947368421
 40
0.631578947368421
 40
0.6842105263157895
 40
0.6842105263157895
 40
0.6842105263157895
 40
0.6842105263157895
 40
0.7368421052631579
 40
0.7368421052631579
 40
0.7368421052631579
 40
0.7368421052631579
 40
0.7894736842105263
 40
0.7894736842105263
 40
0.7894736842105263
 40
0.7894736842105263
 40
0.8421052631578947
 40
0.8421052631578947
 40
0.8421052631578947
 40
0.8421052631578947
 40
0.8947368421052632
 40
0.8947368421052632
 40
0.8947368421052632
 40
0.8947368421052632
 40
1.0
 40
1.0
 40
1.0
 40
1.0
 10
-180.9669
 20
22.2588
 30
0.0
 10
-180.9669
 20
22.2588
 30
0.0
 10
-180.9669
 20
25.212
 30
0.0
 10
-180.9669
 20
25.212
 30
0.0
 10
-180.9669
 20
25.212
 30
0.0
 10
-178.7311
 20
22.8945
 30
0.0
 10
-175.9488
 20
21.1775
 30
0.0
 10
-172.8743
 20
20.2194
 30
0.0
 10
-172.8743
 20
20.2194
 30
0.0
 10
-169.7108
 20
19.2336
 30
0.0
 10
-166.2805
 20
19.6329
 30
0.0
 10
-163.4295
 20
21.3218
 30
0.0
 10
-163.4295
 20
21.3218
 30
0.0
 10
-162.3737
 20
21.9476
 30
0.0
 10
-161.6792
 20
23.0371
 30
0.0
 10
-161.5583
 20
24.2583
 30
0.0
 10
-161.5583
 20
24.2583
 30
0.0
 10
-161.4844
 20
25.0033
 30
0.0
 10
-161.9628
 20
25.6907
 30
0.0
 10
-162.6877
 20
25.8793
 30
0.0
 10
-162.6877
 20
25.8793
 30
0.0
 10
-163.3125
 20
26.0363
 30
0.0
 10
-163.9699
 20
25.8093
 30
0.0
 10
-164.3637
 20
25.2995
 30
0.0
 10
-164.3637
 20
25.2995
 30
0.0
 10
-164.7277
 20
24.8297
 30
0.0
 10
-165.1583
 20
24.4152
 30
0.0
 10
-165.6415
 20
24.0691
 30
0.0
 10
-165.6415
 20
24.0691
 30
0.0
 10
-167.5284
 20
22.7448
 30
0.0
 10
-170.117
 20
23.0887
 30
0.0
 10
-171.5976
 20
24.8552
 30
0.0
 10
-171.5976
 20
24.8552
 30
0.0
 10
-172.968
 20
26.4913
 30
0.0
 10
-173.4052
 20
28.7165
 30
0.0
 10
-172.7583
 20
30.7503
 30
0.0
 10
-172.7583
 20
30.7503
 30
0.0
 10
-171.9876
 20
33.1714
 30
0.0
 10
-170.3593
 20
35.2296
 30
0.0
 10
-168.1813
 20
36.5379
 30
0.0
 10
-168.1813
 20
36.5379
 30
0.0
 10
-165.9549
 20
37.8754
 30
0.0
 10
-163.2242
 20
38.0797
 30
0.0
 10
-160.8231
 20
37.0888
 30
0.0
 10
-160.8231
 20
37.0888
 30
0.0
 10
-157.4839
 20
35.7118
 30
0.0
 10
-155.0145
 20
32.8042
 30
0.0
 10
-154.193
 20
29.2868
 30
0.0
 10
-154.193
 20
29.2868
 30
0.0
 10
-153.3679
 20
25.7578
 30
0.0
 10
-154.3565
 20
22.0463
 30
0.0
 10
-156.8247
 20
19.3921
 30
0.0
 10
-156.8247
 20
19.3921
 30
0.0
 10
-159.7297
 20
16.2688
 30
0.0
 10
-164.0309
 20
14.8424
 30
0.0
 10
-168.2272
 20
15.6069
 30
0.0
 10
-168.2272
 20
15.6069
 30
0.0
 10
-170.984
 20
16.1095
 30
0.0
 10
-173.6526
 20
17.0167
 30
0.0
 10
-176.1447
 20
18.2982
 30
0.0
 10
-176.1447
 20
18.2982
 30
0.0
 10
-177.0795
 20
18.7786
 30
0.0
 10
-177.9772
 20
19.3295
 30
0.0
 10
-178.8288
 20
19.9459
 30
0.0
 10
-178.8288
 20
19.9459
 30
0.0
 10
-179.6876
 20
20.5671
 30
0.0
 10
-180.4149
 20
21.3533
 30
0.0
 10
-180.9669
 20
22.2588
 30
0.0
 10
-180.9669
 20
22.2588
 30
0.0
 10
-180.9669
 20
22.2588
 30
0.0
 10
-180.9669
 20
22.2588
 30
0.0
 10
-180.9669
 20
22.2588
 30
0.0
  0
SPLINE
  5
49
330
1F
100
AcDbEntity
  8
layer 1
 62
     7
100
AcDbSpline
210
0.0
220
0.0
230
1.0
 70
    11
 71
     3
 72
   648
 73
   644
 74
     0
 42
0.0000000001
 43
0.0000000001
 12
1.0
 22
0.0
 32
0.0
 13
1.0
 23
0.0
 33
0.0
 40
0.0
 40
0.0
 40
0.0
 40
0.0
 40
0.0061728395061728
 40
0.0061728395061728
 40
0.0061728395061728
 40
0.0061728395061728
 40
0.0123456790123457
 40
0.0123456790123457
 40
0.0123456790123457
 40
0.0123456790123457
 40
0.0185185185185185
 40
0.0185185185185185
 40
0.0185185185185185
 40
0.0185185185185185
 40
0.0246913580246914
 40
0.0246913580246914
 40
0.0246913580246914
 40
0.0246913580246914
 40
0.0308641975308642
 40
0.0308641975308642
 40
0.0308641975308642
 40
0.0308641975308642
 40
0.037037037037037
 40
0.037037037037037
 40
0.037037037037037
 40
0.037037037037037
 40
0.0432098765432099
 40
0.0432098765432099
 40
0.0432098765432099
 40
0.0432098765432099
 40
0.0493827160493827
 40
0.0493827160493827
 40
0.0493827160493827
 40
0.0493827160493827
 40
0.0555555555555556
 40
0.0555555555555556
 40
0.0555555555555556
 40
0.0555555555555556
 40
0.0617283950617284
 40
0.0617283950617284
 40
0.0617283950617284
 40
0.0617283950617284
 40
0.0679012345679012
 40
0.0679012345679012
 40
0.0679012345679012
 40
0.0679012345679012
 40
0.0740740740740741
 40
0.0740740740740741
 40
0.0740740740740741
 40
0.0740740740740741
 40
0.0802469135802469
 40
0.0802469135802469
 40
0.0802469135802469
 40
0.0802469135802469
 40
0.0864197530864197
 40
0.0864197530864197
 40
0.0864197530864197
 40
0.0864197530864197
 40
0.0925925925925926
 40
0.0925925925925926
 40
0.0925925925925926
 40
0.0925925925925926
 40
0.0987654320987654
 40
0.0987654320987654
 40
0.0987654320987654
 40
0.0987654320987654
 40
0.1049382716049383
 40
0.1049382716049383
 40
0.1049382716049383
 40
0.1049382716049383
 40
0.1111111111111111
 40
0.1111111111111111
 40
0.1111111111111111
 40
0.1111111111111111
 40
0.1172839506172839
 40
0.1172839506172839
 40
0.1172839506172839
 40
0.1172839506172839
 40
0.1234567901234568
 40
0.1234567901234568
 40
0.1234567901234568
 40
0.1234567901234568
 40
0.1296296296296296
 40
0.1296296296296296
 40
0.1296296296296296
 40
0.1296296296296296
 40
0.1358024691358025
 40
0.1358024691358025
 40
0.1358024691358025
 40
0.1358024691358025
 40
0.1419753086419753
 40
0.1419753086419753
 40
0.1419753086419753
 40
0.1419753086419753
 40
0.1481481481481481
 40
0.1481481481481481
 40
0.1481481481481481
 40
0.1481481481481481
 40
0.154320987654321
 40
0.154320987654321
 40
0.154320987654321
 40
0.154320987654321
 40
0.1604938271604938
 40
0.1604938271604938
 40
0.1604938271604938
 40
0.1604938271604938
 40
0.1666666666666667
 40
0.1666666666666667
 40
0.1666666666666667
 40
0.1666666666666667
 40
0.1728395061728395
 40
0.1728395061728395
 40
0.1728395061728395
 40
0.1728395061728395
 40
0.1790123456790123
 40
0.1790123456790123
 40
0.1790123456790123
 40
0.1790123456790123
 40
0.1851851851851852
 40
0.1851851851851852
 40
0.1851851851851852
 40
0.1851851851851852
 40
0.191358024691358
 40
0.191358024691358
 40
0.191358024691358
 40
0.191358024691358
 40
0.1975308641975309
 40
0.1975308641975309
 40
0.1975308641975309
 40
0.1975308641975309
 40
0.2037037037037037
 40
0.2037037037037037
 40
0.2037037037037037
 40
0.2037037037037037
 40
0.2098765432098765
 40
0.2098765432098765
 40
0.2098765432098765
 40
0.2098765432098765
 40
0.2160493827160494
 40
0.2160493827160494
 40
0.2160493827160494
 40
0.2160493827160494
 40
0.2222222222222222
 40
0.2222222222222222
 40
0.2222222222222222
 40
0.2222222222222222
 40
0.228395061728395
 40
0.228395061728395
 40
0.228395061728395
 40
0.228395061728395
 40
0.2345679012345679
 40
0.2345679012345679
 40
0.2345679012345679
 40
0.2345679012345679
 40
0.2407407407407407
 40
0.2407407407407407
 40
0.2407407407407407
 40
0.2407407407407407
 40
0.2469135802469136
 40
0.2469135802469136
 40
0.2469135802469136
 40
0.2469135802469136
 40
0.2530864197530864
 40
0.2530864197530864
 40
0.2530864197530864
 40
0.2530864197530864
 40
0.2592592592592592
 40
0.2592592592592592
 40
0.2592592592592592
 40
0.2592592592592592
 40
0.2654320987654321
 40
0.2654320987654321
 40
0.2654320987654321
 40
0.2654320987654321
 40
0.2716049382716049
 40
0.2716049382716049
 40
0.2716049382716049
 40
0.2716049382716049
 40
0.2777777777777778
 40
0.2777777777777778
 40
0.2777777777777778
 40
0.2777777777777778
 40
0.2839506172839506
 40
0.2839506172839506
 40
0.2839506172839506
 40
0.2839506172839506
 40
0.2901234567901235
 40
0.2901234567901235
 40
0.2901234567901235
 40
0.2901234567901235
 40
0.2962962962962963
 40
0.2962962962962963
 40
0.2962962962962963
 40
0.2962962962962963
 40
0.3024691358024691
 40
0.3024691358024691
 40
0.3024691358024691
 40
0.3024691358024691
 40
0.308641975308642
 40
0.308641975308642
 40
0.308641975308642
 40
0.308641975308642
 40
0.3148148148148148
 40
0.3148148148148148
 40
0.3148148148148148
 40
0.3148148148148148
 40
0.3209876543209876
 40
0.3209876543209876
 40
0.3209876543209876
 40
0.3209876543209876
 40
0.3271604938271605
 40
0.3271604938271605
 40
0.3271604938271605
 40
0.3271604938271605
 40
0.3333333333333333
 40
0.3333333333333333
 40
0.3333333333333333
 40
0.3333333333333333
 40
0.3395061728395062
 40
0.3395061728395062
 40
0.3395061728395062
 40
0.3395061728395062
 40
0.345679012345679
 40
0.345679012345679
 40
0.345679012345679
 40
0.345679012345679
 40
0.3518518518518519
 40
0.3518518518518519
 40
0.3518518518518519
 40
0.3518518518518519
 40
0.3580246913580247
 40
0.3580246913580247
 40
0.3580246913580247
 40
0.3580246913580247
 40
0.3641975308641975
 40
0.3641975308641975
 40
0.3641975308641975
 40
0.3641975308641975
 40
0.3703703703703703
 40
0.3703703703703703
 40
0.3703703703703703
 40
0.3703703703703703
 40
0.3765432098765432
 40
0.3765432098765432
 40
0.3765432098765432
 40
0.3765432098765432
 40
0.382716049382716
 40
0.382716049382716
 40
0.382716049382716
 40
0.382716049382716
 40
0.3888888888888889
 40
0.3888888888888889
 40
0.3888888888888889
 40
0.3888888888888889
 40
0.3950617283950617
 40
0.3950617283950617
 40
0.3950617283950617
 40
0.3950617283950617
 40
0.4012345679012346
 40
0.4012345679012346
 40
0.4012345679012346
 40
0.4012345679012346
 40
0.4074074074074074
 40
0.4074074074074074
 40
0.4074074074074074
 40
0.4074074074074074
 40
0.4135802469135803
 40
0.4135802469135803
 40
0.4135802469135803
 40
0.4135802469135803
 40
0.4197530864197531
 40
0.4197530864197531
 40
0.4197530864197531
 40
0.4197530864197531
 40
0.4259259259259259
 40
0.4259259259259259
 40
0.4259259259259259
 40
0.4259259259259259
 40
0.4320987654320987
 40
0.4320987654320987
 40
0.4320987654320987
 40
0.4320987654320987
 40
0.4382716049382716
 40
0.4382716049382716
 40
0.4382716049382716
 40
0.4382716049382716
 40
0.4444444444444444
 40
0.4444444444444444
 40
0.4444444444444444
 40
0.4444444444444444
 40
0.4506172839506173
 40
0.4506172839506173
 40
0.4506172839506173
 40
0.4506172839506173
 40
0.4567901234567901
 40
0.4567901234567901
 40
0.4567901234567901
 40
0.4567901234567901
 40
0.462962962962963
 40
0.462962962962963
 40
0.462962962962963
 40
0.462962962962963
 40
0.4691358024691358
 40
0.4691358024691358
 40
0.4691358024691358
 40
0.4691358024691358
 40
0.4753086419753086
 40
0.4753086419753086
 40
0.4753086419753086
 40
0.4753086419753086
 40
0.4814814814814815
 40
0.4814814814814815
 40
0.4814814814814815
 40
0.4814814814814815
 40
0.4876543209876543
 40
0.4876543209876543
 40
0.4876543209876543
 40
0.4876543209876543
 40
0.4938271604938271
 40
0.4938271604938271
 40
0.4938271604938271
 40
0.4938271604938271
 40
0.5
 40
0.5
 40
0.5
 40
0.5
 40
0.5061728395061729
 40
0.5061728395061729
 40
0.5061728395061729
 40
0.5061728395061729
 40
0.5123456790123457
 40
0.5123456790123457
 40
0.5123456790123457
 40
0.5123456790123457
 40
0.5185185185185185
 40
0.5185185185185185
 40
0.5185185185185185
 40
0.5185185185185185
 40
0.5246913580246914
 40
0.5246913580246914
 40
0.5246913580246914
 40
0.5246913580246914
 40
0.5308641975308642
 40
0.5308641975308642
 40
0.5308641975308642
 40
0.5308641975308642
 40
0.5370370370370371
 40
0.5370370370370371
 40
0.5370370370370371
 40
0.5370370370370371
 40
0.5432098765432098
 40
0.5432098765432098
 40
0.5432098765432098
 40
0.5432098765432098
 40
0.5493827160493827
 40
0.5493827160493827
 40
0.5493827160493827
 40
0.5493827160493827
 40
0.5555555555555556
 40
0.5555555555555556
 40
0.5555555555555556
 40
0.5555555555555556
 40
0.5617283950617284
 40
0.5617283950617284
 40
0.5617283950617284
 40
0.5617283950617284
 40
0.5679012345679012
 40
0.5679012345679012
 40
0.5679012345679012
 40
0.5679012345679012
 40
0.5740740740740741
 40
0.5740740740740741
 40
0.5740740740740741
 40
0.5740740740740741
 40
0.5802469135802469
 40
0.5802469135802469
 40
0.5802469135802469
 40
0.5802469135802469
 40
0.5864197530864198
 40
0.5864197530864198
 40
0.5864197530864198
 40
0.5864197530864198
 40
0.5925925925925926
 40
0.5925925925925926
 40
0.5925925925925926
 40
0.5925925925925926
 40
0.5987654320987654
 40
0.5987654320987654
 40
0.5987654320987654
 40
0.5987654320987654
 40
0.6049382716049383
 40
0.6049382716049383
 40
0.6049382716049383
 40
0.6049382716049383
 40
0.6111111111111112
 40
0.6111111111111112
 40
0.6111111111111112
 40
0.6111111111111112
 40
0.6172839506172839
 40
0.6172839506172839
 40
0.6172839506172839
 40
0.6172839506172839
 40
0.6234567901234568
 40
0.6234567901234568
 40
0.6234567901234568
 40
0.6234567901234568
 40
0.6296296296296297
 40
0.6296296296296297
 40
0.6296296296296297
 40
0.6296296296296297
 40
0.6358024691358025
 40
0.6358024691358025
 40
0.6358024691358025
 40
0.6358024691358025
 40
0.6419753086419753
 40
0.6419753086419753
 40
0.6419753086419753
 40
0.6419753086419753
 40
0.6481481481481481
 40
0.6481481481481481
 40
0.6481481481481481
 40
0.6481481481481481
 40
0.654320987654321
 40
0.654320987654321
 40
0.654320987654321
 40
0.654320987654321
 40
0.6604938271604939
 40
0.6604938271604939
 40
0.6604938271604939
 40
0.6604938271604939
 40
0.6666666666666666
 40
0.6666666666666666
 40
0.6666666666666666
 40
0.6666666666666666
 40
0.6728395061728395
 40
0.6728395061728395
 40
0.6728395061728395
 40
0.6728395061728395
 40
0.6790123456790124
 40
0.6790123456790124
 40
0.6790123456790124
 40
0.6790123456790124
 40
0.6851851851851852
 40
0.6851851851851852
 40
0.6851851851851852
 40
0.6851851851851852
 40
0.691358024691358
 40
0.691358024691358
 40
0.691358024691358
 40
0.691358024691358
 40
0.6975308641975309
 40
0.6975308641975309
 40
0.6975308641975309
 40
0.6975308641975309
 40
0.7037037037037037
 40
0.7037037037037037
 40
0.7037037037037037
 40
0.7037037037037037
 40
0.7098765432098766
 40
0.7098765432098766
 40
0.7098765432098766
 40
0.7098765432098766
 40
0.7160493827160493
 40
0.7160493827160493
 40
0.7160493827160493
 40
0.7160493827160493
 40
0.7222222222222222
 40
0.7222222222222222
 40
0.7222222222222222
 40
0.7222222222222222
 40
0.7283950617283951
 40
0.7283950617283951
 40
0.7283950617283951
 40
0.7283950617283951
 40
0.7345679012345679
 40
0.7345679012345679
 40
0.7345679012345679
 40
0.7345679012345679
 40
0.7407407407407407
 40
0.7407407407407407
 40
0.7407407407407407
 40
0.7407407407407407
 40
0.7469135802469136
 40
0.7469135802469136
 40
0.7469135802469136
 40
0.7469135802469136
 40
0.7530864197530864
 40
0.7530864197530864
 40
0.7530864197530864
 40
0.7530864197530864
 40
0.7592592592592593
 40
0.7592592592592593
 40
0.7592592592592593
 40
0.7592592592592593
 40
0.7654320987654321
 40
0.7654320987654321
 40
0.7654320987654321
 40
0.7654320987654321
 40
0.7716049382716049
 40
0.7716049382716049
 40
0.7716049382716049
 40
0.7716049382716049
 40
0.7777777777777778
 40
0.7777777777777778
 40
0.7777777777777778
 40
0.7777777777777778
 40
0.7839506172839507
 40
0.7839506172839507
 40
0.7839506172839507
 40
0.7839506172839507
 40
0.7901234567901234
 40
0.7901234567901234
 40
0.7901234567901234
 40
0.7901234567901234
 40
0.7962962962962963
 40
0.7962962962962963
 40
0.7962962962962963
 40
0.7962962962962963
 40
0.8024691358024691
 40
0.8024691358024691
 40
0.8024691358024691
 40
0.8024691358024691
 40
0.808641975308642
 40
0.808641975308642
 40
0.808641975308642
 40
0.808641975308642
 40
0.8148148148148148
 40
0.8148148148148148
 40
0.8148148148148148
 40
0.8148148148148148
 40
0.8209876543209876
 40
0.8209876543209876
 40
0.8209876543209876
 40
0.8209876543209876
 40
0.8271604938271605
 40
0.8271604938271605
 40
0.8271604938271605
 40
0.8271604938271605
 40
0.8333333333333334
 40
0.8333333333333334
 40
0.8333333333333334
 40
0.8333333333333334
 40
0.8395061728395061
 40
0.8395061728395061
 40
0.8395061728395061
 40
0.8395061728395061
 40
0.845679012345679
 40
0.845679012345679
 40
0.845679012345679
 40
0.845679012345679
 40
0.8518518518518519
 40
0.8518518518518519
 40
0.8518518518518519
 40
0.8518518518518519
 40
0.8580246913580247
 40
0.8580246913580247
 40
0.8580246913580247
 40
0.8580246913580247
 40
0.8641975308641975
 40
0.8641975308641975
 40
0.8641975308641975
 40
0.8641975308641975
 40
0.8703703703703703
 40
0.8703703703703703
 40
0.8703703703703703
 40
0.8703703703703703
 40
0.8765432098765432
 40
0.8765432098765432
 40
0.8765432098765432
 40
0.8765432098765432
 40
0.8827160493827161
 40
0.8827160493827161
 40
0.8827160493827161
 40
0.8827160493827161
 40
0.8888888888888888
 40
0.8888888888888888
 40
0.8888888888888888
 40
0.8888888888888888
 40
0.8950617283950617
 40
0.8950617283950617
 40
0.8950617283950617
 40
0.8950617283950617
 40
0.9012345679012346
 40
0.9012345679012346
 40
0.9012345679012346
 40
0.9012345679012346
 40
0.9074074074074074
 40
0.9074074074074074
 40
0.9074074074074074
 40
0.9074074074074074
 40
0.9135802469135802
 40
0.9135802469135802
 40
0.9135802469135802
 40
0.9135802469135802
 40
0.9197530864197531
 40
0.9197530864197531
 40
0.9197530864197531
 40
0.9197530864197531
 40
0.9259259259259259
 40
0.9259259259259259
 40
0.9259259259259259
 40
0.9259259259259259
 40
0.9320987654320988
 40
0.9320987654320988
 40
0.9320987654320988
 40
0.9320987654320988
 40
0.9382716049382716
 40
0.9382716049382716
 40
0.9382716049382716
 40
0.9382716049382716
 40
0.9444444444444444
 40
0.9444444444444444
 40
0.9444444444444444
 40
0.9444444444444444
 40
0.9506172839506173
 40
0.9506172839506173
 40
0.9506172839506173
 40
0.9506172839506173
 40
0.9567901234567902
 40
0.9567901234567902
 40
0.9567901234567902
 40
0.9567901234567902
 40
0.9629629629629629
 40
0.9629629629629629
 40
0.9629629629629629
 40
0.9629629629629629
 40
0.9691358024691358
 40
0.9691358024691358
 40
0.9691358024691358
 40
0.9691358024691358
 40
0.9753086419753086
 40
0.9753086419753086
 40
0.9753086419753086
 40
0.9753086419753086
 40
0.9814814814814815
 40
0.9814814814814815
 40
0.9814814814814815
 40
0.9814814814814815
 40
0.9876543209876543
 40
0.9876543209876543
 40
0.9876543209876543
 40
0.9876543209876543
 40
1.0
 40
1.0
 40
1.0
 40
1.0
 10
-135.2964
 20
-108.3583
 30
0.0
 10
-133.0018
 20
-105.7308
 30
0.0
 10
-130.6757
 20
-103.1312
 30
0.0
 10
-128.3176
 20
-100.5597
 30
0.0
 10
-128.3176
 20
-100.5597
 30
0.0
 10
-125.6369
 20
-97.7335
 30
0.0
 10
-122.9091
 20
-94.9519
 30
0.0
 10
-120.1351
 20
-92.2168
 30
0.0
 10
-120.1351
 20
-92.2168
 30
0.0
 10
-115.5559
 20
-87.7014
 30
0.0
 10
-111.9227
 20
-82.3216
 30
0.0
 10
-109.4439
 20
-76.3876
 30
0.0
 10
-109.4439
 20
-76.3876
 30
0.0
 10
-108.5911
 20
-74.2761
 30
0.0
 10
-107.9282
 20
-72.0925
 30
0.0
 10
-107.4633
 20
-69.8629
 30
0.0
 10
-107.4633
 20
-69.8629
 30
0.0
 10
-106.9978
 20
-67.6282
 30
0.0
 10
-106.827
 20
-65.3424
 30
0.0
 10
-106.9569
 20
-63.0634
 30
0.0
 10
-106.9569
 20
-63.0634
 30
0.0
 10
-107.318
 20
-57.6509
 30
0.0
 10
-109.4656
 20
-52.5147
 30
0.0
 10
-113.0656
 20
-48.4569
 30
0.0
 10
-113.0656
 20
-48.4569
 30
0.0
 10
-115.4257
 20
-45.7983
 30
0.0
 10
-119.2659
 20
-45.0423
 30
0.0
 10
-122.4552
 20
-46.6124
 30
0.0
 10
-122.4552
 20
-46.6124
 30
0.0
 10
-123.2552
 20
-47.0063
 30
0.0
 10
-123.9304
 20
-47.6136
 30
0.0
 10
-124.4066
 20
-48.3683
 30
0.0
 10
-124.4066
 20
-48.3683
 30
0.0
 10
-124.8831
 20
-49.1239
 30
0.0
 10
-125.1311
 20
-50.0003
 30
0.0
 10
-125.1217
 20
-50.8936
 30
0.0
 10
-125.1217
 20
-50.8936
 30
0.0
 10
-125.1094
 20
-51.9954
 30
0.0
 10
-124.2894
 20
-52.9192
 30
0.0
 10
-123.1964
 20
-53.0588
 30
0.0
 10
-123.1964
 20
-53.0588
 30
0.0
 10
-122.2367
 20
-53.1826
 30
0.0
 10
-121.2686
 20
-53.226
 30
0.0
 10
-120.3023
 20
-53.1887
 30
0.0
 10
-120.3023
 20
-53.1887
 30
0.0
 10
-118.4703
 20
-53.1172
 30
0.0
 10
-116.8814
 20
-54.4459
 30
0.0
 10
-116.6228
 20
-56.2606
 30
0.0
 10
-116.6228
 20
-56.2606
 30
0.0
 10
-116.382
 20
-57.9571
 30
0.0
 10
-117.0744
 20
-59.6536
 30
0.0
 10
-118.4326
 20
-60.6988
 30
0.0
 10
-118.4326
 20
-60.6988
 30
0.0
 10
-121.096
 20
-62.7476
 30
0.0
 10
-124.4918
 20
-63.6026
 30
0.0
 10
-127.8084
 20
-63.0616
 30
0.0
 10
-127.8084
 20
-63.0616
 30
0.0
 10
-131.2931
 20
-62.4936
 30
0.0
 10
-134.0715
 20
-59.8372
 30
0.0
 10
-134.8004
 20
-56.3832
 30
0.0
 10
-134.8004
 20
-56.3832
 30
0.0
 10
-135.5077
 20
-53.0306
 30
0.0
 10
-134.6672
 20
-49.5348
 30
0.0
 10
-132.5152
 20
-46.8686
 30
0.0
 10
-132.5152
 20
-46.8686
 30
0.0
 10
-128.2594
 20
-41.5931
 30
0.0
 10
-120.9568
 20
-39.8816
 30
0.0
 10
-114.7948
 20
-42.7061
 30
0.0
 10
-114.7948
 20
-42.7061
 30
0.0
 10
-113.2631
 20
-43.409
 30
0.0
 10
-111.8589
 20
-44.3627
 30
0.0
 10
-110.6406
 20
-45.5277
 30
0.0
 10
-110.6406
 20
-45.5277
 30
0.0
 10
-109.4244
 20
-46.6906
 30
0.0
 10
-108.3799
 20
-48.0203
 30
0.0
 10
-107.5377
 20
-49.4766
 30
0.0
 10
-107.5377
 20
-49.4766
 30
0.0
 10
-108.2013
 20
-46.7476
 30
0.0
 10
-109.3269
 20
-44.1524
 30
0.0
 10
-110.8659
 20
-41.8024
 30
0.0
 10
-110.8659
 20
-41.8024
 30
0.0
 10
-112.4025
 20
-39.4556
 30
0.0
 10
-114.29
 20
-37.359
 30
0.0
 10
-116.463
 20
-35.5855
 30
0.0
 10
-116.463
 20
-35.5855
 30
0.0
 10
-120.6905
 20
-32.2156
 30
0.0
 10
-125.8667
 20
-30.2606
 30
0.0
 10
-131.2664
 20
-29.9948
 30
0.0
 10
-131.2664
 20
-29.9948
 30
0.0
 10
-136.6251
 20
-29.7319
 30
0.0
 10
-141.9576
 20
-30.868
 30
0.0
 10
-146.7427
 20
-33.2947
 30
0.0
 10
-146.7427
 20
-33.2947
 30
0.0
 10
-149.298
 20
-34.59
 30
0.0
 10
-151.2122
 20
-36.8714
 30
0.0
 10
-152.0426
 20
-39.6131
 30
0.0
 10
-152.0426
 20
-39.6131
 30
0.0
 10
-152.5513
 20
-41.2936
 30
0.0
 10
-152.2533
 20
-43.1132
 30
0.0
 10
-151.2348
 20
-44.5429
 30
0.0
 10
-151.2348
 20
-44.5429
 30
0.0
 10
-150.5285
 20
-45.5299
 30
0.0
 10
-149.3451
 20
-46.0598
 30
0.0
 10
-148.1386
 20
-45.9288
 30
0.0
 10
-148.1386
 20
-45.9288
 30
0.0
 10
-146.9319
 20
-45.7973
 30
0.0
 10
-145.8945
 20
-45.0383
 30
0.0
 10
-145.4168
 20
-43.9221
 30
0.0
 10
-145.4168
 20
-43.9221
 30
0.0
 10
-144.8865
 20
-42.6899
 30
0.0
 10
-143.804
 20
-41.7795
 30
0.0
 10
-142.4991
 20
-41.4677
 30
0.0
 10
-142.4991
 20
-41.4677
 30
0.0
 10
-140.4142
 20
-40.9691
 30
0.0
 10
-138.2779
 20
-42.0797
 30
0.0
 10
-137.4845
 20
-44.0707
 30
0.0
 10
-137.4845
 20
-44.0707
 30
0.0
 10
-136.7766
 20
-45.8489
 30
0.0
 10
-136.534
 20
-47.779
 30
0.0
 10
-136.781
 20
-49.6769
 30
0.0
 10
-136.781
 20
-49.6769
 30
0.0
 10
-137.1821
 20
-52.7593
 30
0.0
 10
-138.6268
 20
-55.6137
 30
0.0
 10
-140.8731
 20
-57.7629
 30
0.0
 10
-140.8731
 20
-57.7629
 30
0.0
 10
-144.3465
 20
-61.0295
 30
0.0
 10
-149.2464
 20
-62.3066
 30
0.0
 10
-153.874
 20
-61.1565
 30
0.0
 10
-153.874
 20
-61.1565
 30
0.0
 10
-158.524
 20
-60.0009
 30
0.0
 10
-162.2206
 20
-56.4709
 30
0.0
 10
-163.5938
 20
-51.88
 30
0.0
 10
-163.5938
 20
-51.88
 30
0.0
 10
-163.9943
 20
-50.5397
 30
0.0
 10
-164.3288
 20
-49.1805
 30
0.0
 10
-164.5957
 20
-47.8072
 30
0.0
 10
-164.5957
 20
-47.8072
 30
0.0
 10
-164.8632
 20
-46.4326
 30
0.0
 10
-165.01
 20
-45.0367
 30
0.0
 10
-165.0345
 20
-43.6359
 30
0.0
 10
-165.0345
 20
-43.6359
 30
0.0
 10
-165.0762
 20
-44.3482
 30
0.0
 10
-165.1948
 20
-45.0539
 30
0.0
 10
-165.3897
 20
-45.7408
 30
0.0
 10
-165.3897
 20
-45.7408
 30
0.0
 10
-166.6034
 20
-50.0198
 30
0.0
 10
-168.5718
 20
-54.0493
 30
0.0
 10
-171.1999
 20
-57.6375
 30
0.0
 10
-171.1999
 20
-57.6375
 30
0.0
 10
-172.2834
 20
-59.1161
 30
0.0
 10
-173.8523
 20
-60.1685
 30
0.0
 10
-175.6314
 20
-60.6095
 30
0.0
 10
-175.6314
 20
-60.6095
 30
0.0
 10
-177.3797
 20
-61.0429
 30
0.0
 10
-179.2044
 20
-61.0762
 30
0.0
 10
-180.9669
 20
-60.7072
 30
0.0
 10
-180.9669
 20
-60.7072
 30
0.0
 10
-180.9669
 20
-60.7072
 30
0.0
 10
-180.9669
 20
-57.7685
 30
0.0
 10
-180.9669
 20
-57.7685
 30
0.0
 10
-180.9669
 20
-57.7685
 30
0.0
 10
-177.094
 20
-58.9497
 30
0.0
 10
-172.9375
 20
-57.1637
 30
0.0
 10
-171.1373
 20
-53.5366
 30
0.0
 10
-171.1373
 20
-53.5366
 30
0.0
 10
-170.1041
 20
-51.4583
 30
0.0
 10
-169.2349
 20
-49.3031
 30
0.0
 10
-168.5381
 20
-47.0899
 30
0.0
 10
-168.5381
 20
-47.0899
 30
0.0
 10
-167.5212
 20
-43.8617
 30
0.0
 10
-166.0863
 20
-40.7799
 30
0.0
 10
-164.27
 20
-37.9244
 30
0.0
 10
-164.27
 20
-37.9244
 30
0.0
 10
-162.4421
 20
-35.0499
 30
0.0
 10
-160.0343
 20
-32.588
 30
0.0
 10
-157.2015
 20
-30.6954
 30
0.0
 10
-157.2015
 20
-30.6954
 30
0.0
 10
-159.7691
 20
-32.4299
 30
0.0
 10
-162.8464
 20
-33.2503
 30
0.0
 10
-165.9366
 20
-33.0256
 30
0.0
 10
-165.9366
 20
-33.0256
 30
0.0
 10
-168.9791
 20
-32.8037
 30
0.0
 10
-171.9344
 20
-31.9005
 30
0.0
 10
-174.5818
 20
-30.3832
 30
0.0
 10
-174.5818
 20
-30.3832
 30
0.0
 10
-176.068
 20
-29.5315
 30
0.0
 10
-177.3747
 20
-28.397
 30
0.0
 10
-178.4265
 20
-27.0444
 30
0.0
 10
-178.4265
 20
-27.0444
 30
0.0
 10
-179.4735
 20
-25.6981
 30
0.0
 10
-180.3288
 20
-24.2122
 30
0.0
 10
-180.9669
 20
-22.6311
 30
0.0
 10
-180.9669
 20
-22.6311
 30
0.0
 10
-180.9669
 20
-22.6311
 30
0.0
 10
-180.9669
 20
-2.2606
 30
0.0
 10
-180.9669
 20
-2.2606
 30
0.0
 10
-180.9669
 20
-2.2606
 30
0.0
 10
-178.8175
 20
-2.9291
 30
0.0
 10
-177.2188
 20
-4.7426
 30
0.0
 10
-176.8227
 20
-6.9584
 30
0.0
 10
-176.8227
 20
-6.9584
 30
0.0
 10
-176.4537
 20
-9.0229
 30
0.0
 10
-176.356
 20
-11.1265
 30
0.0
 10
-176.5307
 20
-13.2164
 30
0.0
 10
-176.5307
 20
-13.2164
 30
0.0
 10
-175.06
 20
-12.1546
 30
0.0
 10
-173.3701
 20
-11.4345
 30
0.0
 10
-171.5855
 20
-11.1088
 30
0.0
 10
-171.5855
 20
-11.1088
 30
0.0
 10
-169.8184
 20
-10.7864
 30
0.0
 10
-168.022
 20
-10.6483
 30
0.0
 10
-166.2262
 20
-10.6971
 30
0.0
 10
-166.2262
 20
-10.6971
 30
0.0
 10
-163.2875
 20
-10.7759
 30
0.0
 10
-160.6196
 20
-12.4397
 30
0.0
 10
-159.2526
 20
-15.0422
 30
0.0
 10
-159.2526
 20
-15.0422
 30
0.0
 10
-157.8711
 20
-17.6719
 30
0.0
 10
-158.1414
 20
-20.867
 30
0.0
 10
-159.9416
 20
-23.2297
 30
0.0
 10
-159.9416
 20
-23.2297
 30
0.0
 10
-160.6351
 20
-24.139
 30
0.0
 10
-161.6337
 20
-24.7686
 30
0.0
 10
-162.7533
 20
-25.0018
 30
0.0
 10
-162.7533
 20
-25.0018
 30
0.0
 10
-163.7913
 20
-25.2187
 30
0.0
 10
-164.8698
 20
-25.1455
 30
0.0
 10
-165.8694
 20
-24.7921
 30
0.0
 10
-165.8694
 20
-24.7921
 30
0.0
 10
-166.9597
 20
-24.4065
 30
0.0
 10
-167.6648
 20
-23.3468
 30
0.0
 10
-167.6016
 20
-22.1929
 30
0.0
 10
-167.6016
 20
-22.1929
 30
0.0
 10
-167.5832
 20
-21.8566
 30
0.0
 10
-167.5649
 20
-21.5209
 30
0.0
 10
-167.5466
 20
-21.1854
 30
0.0
 10
-167.5466
 20
-21.1854
 30
0.0
 10
-167.536
 20
-20.9928
 30
0.0
 10
-167.6086
 20
-20.8048
 30
0.0
 10
-167.7453
 20
-20.6688
 30
0.0
 10
-167.7453
 20
-20.6688
 30
0.0
 10
-167.8823
 20
-20.5335
 30
0.0
 10
-168.0691
 20
-20.4619
 30
0.0
 10
-168.2618
 20
-20.4735
 30
0.0
 10
-168.2618
 20
-20.4735
 30
0.0
 10
-169.5283
 20
-20.5508
 30
0.0
 10
-170.6772
 20
-21.243
 30
0.0
 10
-171.3363
 20
-22.3271
 30
0.0
 10
-171.3363
 20
-22.3271
 30
0.0
 10
-171.996
 20
-23.4117
 30
0.0
 10
-172.0863
 20
-24.741
 30
0.0
 10
-171.5715
 20
-25.9005
 30
0.0
 10
-171.5715
 20
-25.9005
 30
0.0
 10
-170.265
 20
-28.8537
 30
0.0
 10
-167.282
 20
-30.6999
 30
0.0
 10
-164.0565
 20
-30.5468
 30
0.0
 10
-164.0565
 20
-30.5468
 30
0.0
 10
-163.2582
 20
-30.509
 30
0.0
 10
-162.4704
 20
-30.3549
 30
0.0
 10
-161.717
 20
-30.0885
 30
0.0
 10
-161.717
 20
-30.0885
 30
0.0
 10
-157.6171
 20
-28.6394
 30
0.0
 10
-153.3874
 20
-27.5866
 30
0.0
 10
-149.0867
 20
-26.9447
 30
0.0
 10
-149.0867
 20
-26.9447
 30
0.0
 10
-146.7483
 20
-26.5952
 30
0.0
 10
-144.3987
 20
-26.3277
 30
0.0
 10
-142.0421
 20
-26.1441
 30
0.0
 10
-142.0421
 20
-26.1441
 30
0.0
 10
-143.3667
 20
-25.5072
 30
0.0
 10
-144.6084
 20
-24.7089
 30
0.0
 10
-145.7368
 20
-23.7668
 30
0.0
 10
-145.7368
 20
-23.7668
 30
0.0
 10
-146.8621
 20
-22.8282
 30
0.0
 10
-147.9544
 20
-21.8516
 30
0.0
 10
-149.0128
 20
-20.8387
 30
0.0
 10
-149.0128
 20
-20.8387
 30
0.0
 10
-150.8253
 20
-19.1049
 30
0.0
 10
-152.1697
 20
-16.9391
 30
0.0
 10
-152.9203
 20
-14.5457
 30
0.0
 10
-152.9203
 20
-14.5457
 30
0.0
 10
-153.6621
 20
-12.1801
 30
0.0
 10
-154.0953
 20
-9.7279
 30
0.0
 10
-154.2101
 20
-7.2513
 30
0.0
 10
-154.2101
 20
-7.2513
 30
0.0
 10
-154.2446
 20
-6.2621
 30
0.0
 10
-154.2739
 20
-5.2735
 30
0.0
 10
-154.2989
 20
-4.2843
 30
0.0
 10
-154.2989
 20
-4.2843
 30
0.0
 10
-154.3232
 20
-3.3118
 30
0.0
 10
-154.3654
 20
-2.3398
 30
0.0
 10
-154.4248
 20
-1.3691
 30
0.0
 10
-154.4248
 20
-1.3691
 30
0.0
 10
-154.6134
 20
1.198
 30
0.0
 10
-155.2936
 20
3.7033
 30
0.0
 10
-156.4304
 20
6.013
 30
0.0
 10
-156.4304
 20
6.013
 30
0.0
 10
-157.2814
 20
7.7416
 30
0.0
 10
-159.0401
 20
8.8352
 30
0.0
 10
-160.9673
 20
8.8313
 30
0.0
 10
-160.9673
 20
8.8313
 30
0.0
 10
-162.0115
 20
8.8295
 30
0.0
 10
-163.0539
 20
8.924
 30
0.0
 10
-164.0814
 20
9.1131
 30
0.0
 10
-164.0814
 20
9.1131
 30
0.0
 10
-164.4548
 20
9.1813
 30
0.0
 10
-164.8377
 20
9.0543
 30
0.0
 10
-165.0961
 20
8.7758
 30
0.0
 10
-165.0961
 20
8.7758
 30
0.0
 10
-165.3547
 20
8.4973
 30
0.0
 10
-165.4539
 20
8.1096
 30
0.0
 10
-165.3586
 20
7.7422
 30
0.0
 10
-165.3586
 20
7.7422
 30
0.0
 10
-165.0512
 20
6.5572
 30
0.0
 10
-164.0236
 20
5.7012
 30
0.0
 10
-162.8033
 20
5.6141
 30
0.0
 10
-162.8033
 20
5.6141
 30
0.0
 10
-160.9318
 20
5.4809
 30
0.0
 10
-159.4934
 20
3.9004
 30
0.0
 10
-159.5321
 20
2.0247
 30
0.0
 10
-159.5321
 20
2.0247
 30
0.0
 10
-159.5682
 20
0.3142
 30
0.0
 10
-160.0514
 20
-1.3578
 30
0.0
 10
-160.9324
 20
-2.8242
 30
0.0
 10
-160.9324
 20
-2.8242
 30
0.0
 10
-161.8456
 20
-4.3443
 30
0.0
 10
-163.4141
 20
-5.3546
 30
0.0
 10
-165.175
 20
-5.5582
 30
0.0
 10
-165.175
 20
-5.5582
 30
0.0
 10
-166.0275
 20
-5.657
 30
0.0
 10
-166.8897
 20
-5.6481
 30
0.0
 10
-167.7409
 20
-5.5326
 30
0.0
 10
-167.7409
 20
-5.5326
 30
0.0
 10
-170.2452
 20
-5.1921
 30
0.0
 10
-172.5486
 20
-3.9715
 30
0.0
 10
-174.2373
 20
-2.0902
 30
0.0
 10
-174.2373
 20
-2.0902
 30
0.0
 10
-175.1916
 20
-1.0079
 30
0.0
 10
-175.8895
 20
0.276
 30
0.0
 10
-176.2795
 20
1.6657
 30
0.0
 10
-176.2795
 20
1.6657
 30
0.0
 10
-176.8092
 20
3.5886
 30
0.0
 10
-176.7055
 20
5.633
 30
0.0
 10
-175.9838
 20
7.4932
 30
0.0
 10
-175.9838
 20
7.4932
 30
0.0
 10
-175.256
 20
9.3683
 30
0.0
 10
-173.8557
 20
10.9073
 30
0.0
 10
-172.057
 20
11.8088
 30
0.0
 10
-172.057
 20
11.8088
 30
0.0
 10
-170.6202
 20
12.5283
 30
0.0
 10
-169.0838
 20
13.0287
 30
0.0
 10
-167.4989
 20
13.294
 30
0.0
 10
-167.4989
 20
13.294
 30
0.0
 10
-164.7833
 20
13.7473
 30
0.0
 10
-161.9933
 20
13.426
 30
0.0
 10
-159.4516
 20
12.3676
 30
0.0
 10
-159.4516
 20
12.3676
 30
0.0
 10
-157.2192
 20
11.4055
 30
0.0
 10
-155.2653
 20
9.8942
 30
0.0
 10
-153.7712
 20
7.977
 30
0.0
 10
-153.7712
 20
7.977
 30
0.0
 10
-152.2595
 20
6.0363
 30
0.0
 10
-151.4407
 20
3.6446
 30
0.0
 10
-151.4451
 20
1.1848
 30
0.0
 10
-151.4451
 20
1.1848
 30
0.0
 10
-151.4467
 20
0.0152
 30
0.0
 10
-151.4417
 20
-1.1538
 30
0.0
 10
-151.4295
 20
-2.3232
 30
0.0
 10
-151.4295
 20
-2.3232
 30
0.0
 10
-151.4106
 20
-3.2247
 30
0.0
 10
-151.3819
 20
-4.1262
 30
0.0
 10
-151.3442
 20
-5.0277
 30
0.0
 10
-151.3442
 20
-5.0277
 30
0.0
 10
-151.3059
 20
-5.9244
 30
0.0
 10
-151.2782
 20
-6.8219
 30
0.0
 10
-151.2603
 20
-7.719
 30
0.0
 10
-151.2603
 20
-7.719
 30
0.0
 10
-151.2531
 20
-7.1476
 30
0.0
 10
-151.1754
 20
-6.5789
 30
0.0
 10
-151.0302
 20
-6.0258
 30
0.0
 10
-151.0302
 20
-6.0258
 30
0.0
 10
-150.8841
 20
-5.4744
 30
0.0
 10
-150.6967
 20
-4.9346
 30
0.0
 10
-150.4685
 20
-4.4113
 30
0.0
 10
-150.4685
 20
-4.4113
 30
0.0
 10
-149.2671
 20
-1.7539
 30
0.0
 10
-147.262
 20
0.4618
 30
0.0
 10
-144.7382
 20
1.9236
 30
0.0
 10
-144.7382
 20
1.9236
 30
0.0
 10
-142.2385
 20
3.3723
 30
0.0
 10
-139.359
 20
4.0374
 30
0.0
 10
-136.4764
 20
3.8338
 30
0.0
 10
-136.4764
 20
3.8338
 30
0.0
 10
-135.5143
 20
3.7589
 30
0.0
 10
-134.5596
 20
3.6096
 30
0.0
 10
-133.6204
 20
3.3883
 30
0.0
 10
-133.6204
 20
3.3883
 30
0.0
 10
-132.6818
 20
3.167
 30
0.0
 10
-131.7313
 20
2.9977
 30
0.0
 10
-130.7744
 20
2.8813
 30
0.0
 10
-130.7744
 20
2.8813
 30
0.0
 10
-127.313
 20
2.4878
 30
0.0
 10
-123.8128
 20
3.0871
 30
0.0
 10
-120.6805
 20
4.6111
 30
0.0
 10
-120.6805
 20
4.6111
 30
0.0
 10
-119.9166
 20
4.9827
 30
0.0
 10
-119.3135
 20
5.6179
 30
0.0
 10
-118.9824
 20
6.4009
 30
0.0
 10
-118.9824
 20
6.4009
 30
0.0
 10
-118.7143
 20
7.0355
 30
0.0
 10
-118.6272
 20
7.7322
 30
0.0
 10
-118.7316
 20
8.4136
 30
0.0
 10
-118.7316
 20
8.4136
 30
0.0
 10
-118.8341
 20
9.0838
 30
0.0
 10
-118.8736
 20
9.7618
 30
0.0
 10
-118.8486
 20
10.4392
 30
0.0
 10
-118.8486
 20
10.4392
 30
0.0
 10
-118.8913
 20
11.0377
 30
0.0
 10
-119.3945
 20
11.4988
 30
0.0
 10
-119.9949
 20
11.4881
 30
0.0
 10
-119.9949
 20
11.4881
 30
0.0
 10
-120.595
 20
11.4777
 30
0.0
 10
-121.0479
 20
11.2407
 30
0.0
 10
-121.0694
 20
10.6404
 30
0.0
 10
-121.0694
 20
10.6404
 30
0.0
 10
-121.1705
 20
9.947
 30
0.0
 10
-121.3286
 20
9.2623
 30
0.0
 10
-121.5421
 20
8.5944
 30
0.0
 10
-121.5421
 20
8.5944
 30
0.0
 10
-121.8362
 20
7.674
 30
0.0
 10
-122.6011
 20
6.9812
 30
0.0
 10
-123.546
 20
6.7781
 30
0.0
 10
-123.546
 20
6.7781
 30
0.0
 10
-126.0298
 20
6.2371
 30
0.0
 10
-128.6039
 20
7.1726
 30
0.0
 10
-130.1612
 20
9.1819
 30
0.0
 10
-130.1612
 20
9.1819
 30
0.0
 10
-131.7186
 20
11.1914
 30
0.0
 10
-131.9654
 20
13.9503
 30
0.0
 10
-130.8219
 20
16.2205
 30
0.0
 10
-130.8219
 20
16.2205
 30
0.0
 10
-129.3901
 20
19.0454
 30
0.0
 10
-126.4891
 20
20.8264
 30
0.0
 10
-123.3224
 20
20.828
 30
0.0
 10
-123.3224
 20
20.828
 30
0.0
 10
-121.6081
 20
20.829
 30
0.0
 10
-119.9198
 20
20.3996
 30
0.0
 10
-118.4148
 20
19.5791
 30
0.0
 10
-118.4148
 20
19.5791
 30
0.0
 10
-116.8864
 20
18.7465
 30
0.0
 10
-115.7002
 20
17.4005
 30
0.0
 10
-115.0655
 20
15.7804
 30
0.0
 10
-115.0655
 20
15.7804
 30
0.0
 10
-114.1945
 20
13.5581
 30
0.0
 10
-113.9964
 20
11.127
 30
0.0
 10
-114.4953
 20
8.793
 30
0.0
 10
-114.4953
 20
8.793
 30
0.0
 10
-115.0035
 20
6.4147
 30
0.0
 10
-116.4514
 20
4.3414
 30
0.0
 10
-118.5081
 20
3.0438
 30
0.0
 10
-118.5081
 20
3.0438
 30
0.0
 10
-119.8201
 20
2.2165
 30
0.0
 10
-121.2513
 20
1.5963
 30
0.0
 10
-122.7522
 20
1.2041
 30
0.0
 10
-122.7522
 20
1.2041
 30
0.0
 10
-123.9816
 20
0.8963
 30
0.0
 10
-125.2364
 20
0.6986
 30
0.0
 10
-126.5007
 20
0.6133
 30
0.0
 10
-126.5007
 20
0.6133
 30
0.0
 10
-127.7735
 20
0.5273
 30
0.0
 10
-129.0518
 20
0.6781
 30
0.0
 10
-130.2699
 20
1.0582
 30
0.0
 10
-130.2699
 20
1.0582
 30
0.0
 10
-128.6112
 20
0.2666
 30
0.0
 10
-127.1288
 20
-0.8524
 30
0.0
 10
-125.9122
 20
-2.2301
 30
0.0
 10
-125.9122
 20
-2.2301
 30
0.0
 10
-124.7055
 20
-3.5965
 30
0.0
 10
-123.6226
 20
-5.0683
 30
0.0
 10
-122.6768
 20
-6.6267
 30
0.0
 10
-122.6768
 20
-6.6267
 30
0.0
 10
-121.6615
 20
-8.2987
 30
0.0
 10
-121.1721
 20
-10.2388
 30
0.0
 10
-121.272
 20
-12.1929
 30
0.0
 10
-121.272
 20
-12.1929
 30
0.0
 10
-121.4351
 20
-15.1688
 30
0.0
 10
-122.9569
 20
-17.9066
 30
0.0
 10
-125.3968
 20
-19.6176
 30
0.0
 10
-125.3968
 20
-19.6176
 30
0.0
 10
-126.2678
 20
-20.2289
 30
0.0
 10
-127.2441
 20
-20.675
 30
0.0
 10
-128.2767
 20
-20.9346
 30
0.0
 10
-128.2767
 20
-20.9346
 30
0.0
 10
-132.5419
 20
-22.0081
 30
0.0
 10
-137.0639
 20
-20.8453
 30
0.0
 10
-140.2856
 20
-17.8506
 30
0.0
 10
-140.2856
 20
-17.8506
 30
0.0
 10
-141.399
 20
-16.8147
 30
0.0
 10
-142.1458
 20
-15.4439
 30
0.0
 10
-142.4115
 20
-13.946
 30
0.0
 10
-142.4115
 20
-13.946
 30
0.0
 10
-142.6001
 20
-12.8824
 30
0.0
 10
-142.5862
 20
-11.7922
 30
0.0
 10
-142.3715
 20
-10.7338
 30
0.0
 10
-142.3715
 20
-10.7338
 30
0.0
 10
-142.1346
 20
-9.5676
 30
0.0
 10
-141.1532
 20
-8.6988
 30
0.0
 10
-139.9677
 20
-8.6029
 30
0.0
 10
-139.9677
 20
-8.6029
 30
0.0
 10
-138.6479
 20
-8.4964
 30
0.0
 10
-137.3268
 20
-8.4037
 30
0.0
 10
-136.0053
 20
-8.3244
 30
0.0
 10
-136.0053
 20
-8.3244
 30
0.0
 10
-135.4945
 20
-8.2927
 30
0.0
 10
-135.0211
 20
-8.0425
 30
0.0
 10
-134.7077
 20
-7.6376
 30
0.0
 10
-134.7077
 20
-7.6376
 30
0.0
 10
-134.3943
 20
-7.2325
 30
0.0
 10
-134.2701
 20
-6.715
 30
0.0
 10
-134.3682
 20
-6.2124
 30
0.0
 10
-134.3682
 20
-6.2124
 30
0.0
 10
-134.614
 20
-4.9491
 30
0.0
 10
-135.4605
 20
-3.8866
 30
0.0
 10
-136.6374
 20
-3.3661
 30
0.0
 10
-136.6374
 20
-3.3661
 30
0.0
 10
-139.0323
 20
-2.3077
 30
0.0
 10
-141.7846
 20
-2.4442
 30
0.0
 10
-144.0614
 20
-3.7373
 30
0.0
 10
-144.0614
 20
-3.7373
 30
0.0
 10
-147.1149
 20
-5.4716
 30
0.0
 10
-148.8565
 20
-8.8415
 30
0.0
 10
-148.5002
 20
-12.3348
 30
0.0
 10
-148.5002
 20
-12.3348
 30
0.0
 10
-147.9921
 20
-17.3151
 30
0.0
 10
-144.674
 20
-21.5583
 30
0.0
 10
-139.9609
 20
-23.2459
 30
0.0
 10
-139.9609
 20
-23.2459
 30
0.0
 10
-135.7551
 20
-24.7526
 30
0.0
 10
-131.4028
 20
-25.8118
 30
0.0
 10
-126.9751
 20
-26.4047
 30
0.0
 10
-126.9751
 20
-26.4047
 30
0.0
 10
-123.5566
 20
-26.863
 30
0.0
 10
-120.2363
 20
-27.8799
 30
0.0
 10
-117.1471
 20
-29.4139
 30
0.0
 10
-117.1471
 20
-29.4139
 30
0.0
 10
-111.7351
 20
-32.1018
 30
0.0
 10
-107.4378
 20
-36.609
 30
0.0
 10
-105.0079
 20
-42.1413
 30
0.0
 10
-105.0079
 20
-42.1413
 30
0.0
 10
-102.6228
 20
-47.5715
 30
0.0
 10
-101.4456
 20
-53.4577
 30
0.0
 10
-101.5576
 20
-59.3879
 30
0.0
 10
-101.5576
 20
-59.3879
 30
0.0
 10
-100.5941
 20
-56.2767
 30
0.0
 10
-98.9734
 20
-53.4074
 30
0.0
 10
-96.8076
 20
-50.9751
 30
0.0
 10
-96.8076
 20
-50.9751
 30
0.0
 10
-94.645
 20
-48.5468
 30
0.0
 10
-92.0193
 20
-46.5724
 30
0.0
 10
-89.0866
 20
-45.1681
 30
0.0
 10
-89.0866
 20
-45.1681
 30
0.0
 10
-85.8894
 20
-43.6375
 30
0.0
 10
-82.28
 20
-43.1837
 30
0.0
 10
-78.8037
 20
-43.8745
 30
0.0
 10
-78.8037
 20
-43.8745
 30
0.0
 10
-76.5235
 20
-44.3272
 30
0.0
 10
-74.1713
 20
-43.5854
 30
0.0
 10
-72.5651
 20
-41.9043
 30
0.0
 10
-72.5651
 20
-41.9043
 30
0.0
 10
-72.5651
 20
-41.9043
 30
0.0
 10
-72.5651
 20
-66.766
 30
0.0
 10
-72.5651
 20
-66.766
 30
0.0
 10
-72.5651
 20
-66.766
 30
0.0
 10
-75.319
 20
-69.6165
 30
0.0
 10
-79.2419
 20
-71.0306
 30
0.0
 10
-83.1815
 20
-70.5962
 30
0.0
 10
-83.1815
 20
-70.5962
 30
0.0
 10
-85.8206
 20
-70.3055
 30
0.0
 10
-88.1606
 20
-68.7615
 30
0.0
 10
-89.4682
 20
-66.4508
 30
0.0
 10
-89.4682
 20
-66.4508
 30
0.0
 10
-90.5196
 20
-64.594
 30
0.0
 10
-91.0867
 20
-62.5014
 30
0.0
 10
-91.1178
 20
-60.3677
 30
0.0
 10
-91.1178
 20
-60.3677
 30
0.0
 10
-91.141
 20
-58.7898
 30
0.0
 10
-90.2022
 20
-57.3558
 30
0.0
 10
-88.7481
 20
-56.7432
 30
0.0
 10
-88.7481
 20
-56.7432
 30
0.0
 10
-87.232
 20
-56.1053
 30
0.0
 10
-85.5682
 20
-55.8978
 30
0.0
 10
-83.9415
 20
-56.143
 30
0.0
 10
-83.9415
 20
-56.143
 30
0.0
 10
-82.3444
 20
-56.3842
 30
0.0
 10
-80.7432
 20
-56.5935
 30
0.0
 10
-79.1376
 20
-56.7705
 30
0.0
 10
-79.1376
 20
-56.7705
 30
0.0
 10
-77.6963
 20
-56.9296
 30
0.0
 10
-76.2783
 20
-56.3238
 30
0.0
 10
-75.3979
 20
-55.1715
 30
0.0
 10
-75.3979
 20
-55.1715
 30
0.0
 10
-74.4996
 20
-53.9965
 30
0.0
 10
-74.3892
 20
-52.4003
 30
0.0
 10
-75.1188
 20
-51.1137
 30
0.0
 10
-75.1188
 20
-51.1137
 30
0.0
 10
-76.8052
 20
-48.1401
 30
0.0
 10
-80.1946
 20
-46.5712
 30
0.0
 10
-83.5521
 20
-47.2137
 30
0.0
 10
-83.5521
 20
-47.2137
 30
0.0
 10
-87.7994
 20
-48.026
 30
0.0
 10
-91.6437
 20
-50.2534
 30
0.0
 10
-94.4592
 20
-53.536
 30
0.0
 10
-94.4592
 20
-53.536
 30
0.0
 10
-95.7801
 20
-55.0762
 30
0.0
 10
-96.933
 20
-56.7522
 30
0.0
 10
-97.8977
 20
-58.5374
 30
0.0
 10
-97.8977
 20
-58.5374
 30
0.0
 10
-98.8602
 20
-60.3171
 30
0.0
 10
-99.7728
 20
-62.1236
 30
0.0
 10
-100.6362
 20
-63.9537
 30
0.0
 10
-100.6362
 20
-63.9537
 30
0.0
 10
-101.5808
 20
-65.9582
 30
0.0
 10
-102.1806
 20
-68.1074
 30
0.0
 10
-102.4097
 20
-70.3121
 30
0.0
 10
-102.4097
 20
-70.3121
 30
0.0
 10
-102.9569
 20
-75.5804
 30
0.0
 10
-104.715
 20
-80.6528
 30
0.0
 10
-107.5444
 20
-85.1299
 30
0.0
 10
-107.5444
 20
-85.1299
 30
0.0
 10
-110.3527
 20
-89.5739
 30
0.0
 10
-113.4928
 20
-93.7996
 30
0.0
 10
-116.9368
 20
-97.7708
 30
0.0
 10
-116.9368
 20
-97.7708
 30
0.0
 10
-120.3881
 20
-101.7497
 30
0.0
 10
-124.3028
 20
-105.3048
 30
0.0
 10
-128.5945
 20
-108.3583
 30
0.0
 10
-128.5945
 20
-108.3583
 30
0.0
 10
-128.5945
 20
-108.3583
 30
0.0
 10
-135.2964
 20
-108.3583
 30
0.0
 10
-135.2964
 20
-108.3583
 30
0.0
 10
-135.2964
 20
-108.3583
 30
0.0
 10
-135.2964
 20
-108.3583
 30
0.0
 10
-135.2964
 20
-108.3583
 30
0.0
 10
-135.2964
 20
-108.3583
 30
0.0
  0
SPLINE
  5
4A
330
1F
100
AcDbEntity
  8
layer 1
 62
     7
100
AcDbSpline
210
0.0
220
0.0
230
1.0
 70
    11
 71
     3
 72
   284
 73
   280
 74
     0
 42
0.0000000001
 43
0.0000000001
 12
1.0
 22
0.0
 32
0.0
 13
1.0
 23
0.0
 33
0.0
 40
0.0
 40
0.0
 40
0.0
 40
0.0
 40
0.0140845070422535
 40
0.0140845070422535
 40
0.0140845070422535
 40
0.0140845070422535
 40
0.028169014084507
 40
0.028169014084507
 40
0.028169014084507
 40
0.028169014084507
 40
0.0422535211267606
 40
0.0422535211267606
 40
0.0422535211267606
 40
0.0422535211267606
 40
0.0563380281690141
 40
0.0563380281690141
 40
0.0563380281690141
 40
0.0563380281690141
 40
0.0704225352112676
 40
0.0704225352112676
 40
0.0704225352112676
 40
0.0704225352112676
 40
0.0845070422535211
 40
0.0845070422535211
 40
0.0845070422535211
 40
0.0845070422535211
 40
0.0985915492957746
 40
0.0985915492957746
 40
0.0985915492957746
 40
0.0985915492957746
 40
0.1126760563380282
 40
0.1126760563380282
 40
0.1126760563380282
 40
0.1126760563380282
 40
0.1267605633802817
 40
0.1267605633802817
 40
0.1267605633802817
 40
0.1267605633802817
 40
0.1408450704225352
 40
0.1408450704225352
 40
0.1408450704225352
 40
0.1408450704225352
 40
0.1549295774647887
 40
0.1549295774647887
 40
0.1549295774647887
 40
0.1549295774647887
 40
0.1690140845070423
 40
0.1690140845070423
 40
0.1690140845070423
 40
0.1690140845070423
 40
0.1830985915492958
 40
0.1830985915492958
 40
0.1830985915492958
 40
0.1830985915492958
 40
0.1971830985915493
 40
0.1971830985915493
 40
0.1971830985915493
 40
0.1971830985915493
 40
0.2112676056338028
 40
0.2112676056338028
 40
0.2112676056338028
 40
0.2112676056338028
 40
0.2253521126760563
 40
0.2253521126760563
 40
0.2253521126760563
 40
0.2253521126760563
 40
0.2394366197183098
 40
0.2394366197183098
 40
0.2394366197183098
 40
0.2394366197183098
 40
0.2535211267605634
 40
0.2535211267605634
 40
0.2535211267605634
 40
0.2535211267605634
 40
0.2676056338028169
 40
0.2676056338028169
 40
0.2676056338028169
 40
0.2676056338028169
 40
0.2816901408450704
 40
0.2816901408450704
 40
0.2816901408450704
 40
0.2816901408450704
 40
0.2957746478873239
 40
0.2957746478873239
 40
0.2957746478873239
 40
0.2957746478873239
 40
0.3098591549295774
 40
0.3098591549295774
 40
0.3098591549295774
 40
0.3098591549295774
 40
0.323943661971831
 40
0.323943661971831
 40
0.323943661971831
 40
0.323943661971831
 40
0.3380281690140845
 40
0.3380281690140845
 40
0.3380281690140845
 40
0.3380281690140845
 40
0.352112676056338
 40
0.352112676056338
 40
0.352112676056338
 40
0.352112676056338
 40
0.3661971830985916
 40
0.3661971830985916
 40
0.3661971830985916
 40
0.3661971830985916
 40
0.3802816901408451
 40
0.3802816901408451
 40
0.3802816901408451
 40
0.3802816901408451
 40
0.3943661971830986
 40
0.3943661971830986
 40
0.3943661971830986
 40
0.3943661971830986
 40
0.4084507042253521
 40
0.4084507042253521
 40
0.4084507042253521
 40
0.4084507042253521
 40
0.4225352112676056
 40
0.4225352112676056
 40
0.4225352112676056
 40
0.4225352112676056
 40
0.4366197183098591
 40
0.4366197183098591
 40
0.4366197183098591
 40
0.4366197183098591
 40
0.4507042253521127
 40
0.4507042253521127
 40
0.4507042253521127
 40
0.4507042253521127
 40
0.4647887323943662
 40
0.4647887323943662
 40
0.4647887323943662
 40
0.4647887323943662
 40
0.4788732394366197
 40
0.4788732394366197
 40
0.4788732394366197
 40
0.4788732394366197
 40
0.4929577464788732
 40
0.4929577464788732
 40
0.4929577464788732
 40
0.4929577464788732
 40
0.5070422535211268
 40
0.5070422535211268
 40
0.5070422535211268
 40
0.5070422535211268
 40
0.5211267605633803
 40
0.5211267605633803
 40
0.5211267605633803
 40
0.5211267605633803
 40
0.5352112676056338
 40
0.5352112676056338
 40
0.5352112676056338
 40
0.5352112676056338
 40
0.5492957746478874
 40
0.5492957746478874
 40
0.5492957746478874
 40
0.5492957746478874
 40
0.5633802816901409
 40
0.5633802816901409
 40
0.5633802816901409
 40
0.5633802816901409
 40
0.5774647887323944
 40
0.5774647887323944
 40
0.5774647887323944
 40
0.5774647887323944
 40
0.5915492957746479
 40
0.5915492957746479
 40
0.5915492957746479
 40
0.5915492957746479
 40
0.6056338028169014
 40
0.6056338028169014
 40
0.6056338028169014
 40
0.6056338028169014
 40
0.6197183098591549
 40
0.6197183098591549
 40
0.6197183098591549
 40
0.6197183098591549
 40
0.6338028169014085
 40
0.6338028169014085
 40
0.6338028169014085
 40
0.6338028169014085
 40
0.647887323943662
 40
0.647887323943662
 40
0.647887323943662
 40
0.647887323943662
 40
0.6619718309859155
 40
0.6619718309859155
 40
0.6619718309859155
 40
0.6619718309859155
 40
0.676056338028169
 40
0.676056338028169
 40
0.676056338028169
 40
0.676056338028169
 40
0.6901408450704225
 40
0.6901408450704225
 40
0.6901408450704225
 40
0.6901408450704225
 40
0.704225352112676
 40
0.704225352112676
 40
0.704225352112676
 40
0.704225352112676
 40
0.7183098591549296
 40
0.7183098591549296
 40
0.7183098591549296
 40
0.7183098591549296
 40
0.7323943661971831
 40
0.7323943661971831
 40
0.7323943661971831
 40
0.7323943661971831
 40
0.7464788732394366
 40
0.7464788732394366
 40
0.7464788732394366
 40
0.7464788732394366
 40
0.7605633802816901
 40
0.7605633802816901
 40
0.7605633802816901
 40
0.7605633802816901
 40
0.7746478873239436
 40
0.7746478873239436
 40
0.7746478873239436
 40
0.7746478873239436
 40
0.7887323943661971
 40
0.7887323943661971
 40
0.7887323943661971
 40
0.7887323943661971
 40
0.8028169014084507
 40
0.8028169014084507
 40
0.8028169014084507
 40
0.8028169014084507
 40
0.8169014084507042
 40
0.8169014084507042
 40
0.8169014084507042
 40
0.8169014084507042
 40
0.8309859154929577
 40
0.8309859154929577
 40
0.8309859154929577
 40
0.8309859154929577
 40
0.8450704225352113
 40
0.8450704225352113
 40
0.8450704225352113
 40
0.8450704225352113
 40
0.8591549295774648
 40
0.8591549295774648
 40
0.8591549295774648
 40
0.8591549295774648
 40
0.8732394366197183
 40
0.8732394366197183
 40
0.8732394366197183
 40
0.8732394366197183
 40
0.8873239436619719
 40
0.8873239436619719
 40
0.8873239436619719
 40
0.8873239436619719
 40
0.9014084507042254
 40
0.9014084507042254
 40
0.9014084507042254
 40
0.9014084507042254
 40
0.9154929577464789
 40
0.9154929577464789
 40
0.9154929577464789
 40
0.9154929577464789
 40
0.9295774647887324
 40
0.9295774647887324
 40
0.9295774647887324
 40
0.9295774647887324
 40
0.9436619718309859
 40
0.9436619718309859
 40
0.9436619718309859
 40
0.9436619718309859
 40
0.9577464788732394
 40
0.9577464788732394
 40
0.9577464788732394
 40
0.9577464788732394
 40
0.971830985915493
 40
0.971830985915493
 40
0.971830985915493
 40
0.971830985915493
 40
1.0
 40
1.0
 40
1.0
 40
1.0
 10
-72.5651
 20
-20.9419
 30
0.0
 10
-72.5651
 20
-20.9419
 30
0.0
 10
-72.5651
 20
-6.0707
 30
0.0
 10
-72.5651
 20
-6.0707
 30
0.0
 10
-72.5651
 20
-6.0707
 30
0.0
 10
-73.7873
 20
-6.9772
 30
0.0
 10
-74.9424
 20
-7.9705
 30
0.0
 10
-76.0219
 20
-9.0427
 30
0.0
 10
-76.0219
 20
-9.0427
 30
0.0
 10
-77.1526
 20
-10.1662
 30
0.0
 10
-78.7254
 20
-10.7298
 30
0.0
 10
-80.3126
 20
-10.5817
 30
0.0
 10
-80.3126
 20
-10.5817
 30
0.0
 10
-80.7793
 20
-10.5386
 30
0.0
 10
-81.2231
 20
-10.3588
 30
0.0
 10
-81.5887
 20
-10.0652
 30
0.0
 10
-81.5887
 20
-10.0652
 30
0.0
 10
-81.6836
 20
-9.9886
 30
0.0
 10
-81.7717
 20
-9.9043
 30
0.0
 10
-81.8522
 20
-9.8128
 30
0.0
 10
-81.8522
 20
-9.8128
 30
0.0
 10
-82.3743
 20
-8.6218
 30
0.0
 10
-82.0081
 20
-7.227
 30
0.0
 10
-80.9701
 20
-6.4441
 30
0.0
 10
-80.9701
 20
-6.4441
 30
0.0
 10
-79.4871
 20
-5.3269
 30
0.0
 10
-77.8673
 20
-4.4037
 30
0.0
 10
-76.1501
 20
-3.6974
 30
0.0
 10
-76.1501
 20
-3.6974
 30
0.0
 10
-75.4938
 20
-3.4271
 30
0.0
 10
-74.8557
 20
-3.1143
 30
0.0
 10
-74.2405
 20
-2.761
 30
0.0
 10
-74.2405
 20
-2.761
 30
0.0
 10
-73.6225
 20
-2.4058
 30
0.0
 10
-73.0583
 20
-1.9648
 30
0.0
 10
-72.5651
 20
-1.4505
 30
0.0
 10
-72.5651
 20
-1.4505
 30
0.0
 10
-72.5651
 20
-1.4505
 30
0.0
 10
-72.5651
 20
8.2105
 30
0.0
 10
-72.5651
 20
8.2105
 30
0.0
 10
-72.5651
 20
8.2105
 30
0.0
 10
-73.0206
 20
8.8107
 30
0.0
 10
-73.526
 20
9.3723
 30
0.0
 10
-74.0758
 20
9.8876
 30
0.0
 10
-74.0758
 20
9.8876
 30
0.0
 10
-74.6262
 20
10.404
 30
0.0
 10
-75.2275
 20
10.8623
 30
0.0
 10
-75.871
 20
11.2558
 30
0.0
 10
-75.871
 20
11.2558
 30
0.0
 10
-77.5155
 20
11.9436
 30
0.0
 10
-79.2802
 20
12.2948
 30
0.0
 10
-81.0622
 20
12.2881
 30
0.0
 10
-81.0622
 20
12.2881
 30
0.0
 10
-85.0118
 20
12.2715
 30
0.0
 10
-88.2106
 20
9.0866
 30
0.0
 10
-88.2344
 20
5.137
 30
0.0
 10
-88.2344
 20
5.137
 30
0.0
 10
-88.2455
 20
3.4198
 30
0.0
 10
-87.9515
 20
1.7157
 30
0.0
 10
-87.3656
 20
0.1017
 30
0.0
 10
-87.3656
 20
0.1017
 30
0.0
 10
-86.7504
 20
-1.5932
 30
0.0
 10
-86.9944
 20
-3.4827
 30
0.0
 10
-88.0187
 20
-4.9661
 30
0.0
 10
-88.0187
 20
-4.9661
 30
0.0
 10
-88.285
 20
-5.3524
 30
0.0
 10
-88.6588
 20
-5.6513
 30
0.0
 10
-89.0938
 20
-5.8261
 30
0.0
 10
-89.0938
 20
-5.8261
 30
0.0
 10
-89.2281
 20
-5.8799
 30
0.0
 10
-89.3667
 20
-5.9198
 30
0.0
 10
-89.5088
 20
-5.9459
 30
0.0
 10
-89.5088
 20
-5.9459
 30
0.0
 10
-90.8148
 20
-5.8795
 30
0.0
 10
-91.8961
 20
-4.9051
 30
0.0
 10
-92.1002
 20
-3.6142
 30
0.0
 10
-92.1002
 20
-3.6142
 30
0.0
 10
-92.3921
 20
-1.763
 30
0.0
 10
-92.4403
 20
0.1195
 30
0.0
 10
-92.2434
 20
1.983
 30
0.0
 10
-92.2434
 20
1.983
 30
0.0
 10
-92.0382
 20
3.9297
 30
0.0
 10
-92.3787
 20
5.8936
 30
0.0
 10
-93.2292
 20
7.6567
 30
0.0
 10
-93.2292
 20
7.6567
 30
0.0
 10
-94.1225
 20
9.5093
 30
0.0
 10
-95.9287
 20
10.7486
 30
0.0
 10
-97.9788
 20
10.9135
 30
0.0
 10
-97.9788
 20
10.9135
 30
0.0
 10
-99.2381
 20
11.015
 30
0.0
 10
-100.5046
 20
10.9372
 30
0.0
 10
-101.7424
 20
10.6831
 30
0.0
 10
-101.7424
 20
10.6831
 30
0.0
 10
-102.9818
 20
10.4291
 30
0.0
 10
-104.1712
 20
9.9753
 30
0.0
 10
-105.2652
 20
9.3394
 30
0.0
 10
-105.2652
 20
9.3394
 30
0.0
 10
-106.6523
 20
8.22
 30
0.0
 10
-107.8
 20
6.8347
 30
0.0
 10
-108.6423
 20
5.2634
 30
0.0
 10
-108.6423
 20
5.2634
 30
0.0
 10
-110.5057
 20
1.7811
 30
0.0
 10
-109.2248
 20
-2.5479
 30
0.0
 10
-105.7618
 20
-4.4464
 30
0.0
 10
-105.7618
 20
-4.4464
 30
0.0
 10
-104.2567
 20
-5.2729
 30
0.0
 10
-102.6172
 20
-5.8251
 30
0.0
 10
-100.9191
 20
-6.0769
 30
0.0
 10
-100.9191
 20
-6.0769
 30
0.0
 10
-99.1355
 20
-6.3416
 30
0.0
 10
-97.5893
 20
-7.4544
 30
0.0
 10
-96.7709
 20
-9.0612
 30
0.0
 10
-96.7709
 20
-9.0612
 30
0.0
 10
-96.5584
 20
-9.4789
 30
0.0
 10
-96.4731
 20
-9.9499
 30
0.0
 10
-96.5263
 20
-10.416
 30
0.0
 10
-96.5263
 20
-10.416
 30
0.0
 10
-96.5357
 20
-10.5008
 30
0.0
 10
-96.5502
 20
-10.5857
 30
0.0
 10
-96.57
 20
-10.6688
 30
0.0
 10
-96.57
 20
-10.6688
 30
0.0
 10
-97.3596
 20
-11.6692
 30
0.0
 10
-98.7188
 20
-12.0236
 30
0.0
 10
-99.8972
 20
-11.5382
 30
0.0
 10
-99.8972
 20
-11.5382
 30
0.0
 10
-101.5987
 20
-10.8369
 30
0.0
 10
-103.2053
 20
-9.9244
 30
0.0
 10
-104.6795
 20
-8.822
 30
0.0
 10
-104.6795
 20
-8.822
 30
0.0
 10
-106.2472
 20
-7.6502
 30
0.0
 10
-108.1096
 20
-6.9391
 30
0.0
 10
-110.0597
 20
-6.7676
 30
0.0
 10
-110.0597
 20
-6.7676
 30
0.0
 10
-112.1079
 20
-6.5884
 30
0.0
 10
-114.097
 20
-7.5072
 30
0.0
 10
-115.2868
 20
-9.1848
 30
0.0
 10
-115.2868
 20
-9.1848
 30
0.0
 10
-116.0176
 20
-10.2151
 30
0.0
 10
-116.5991
 20
-11.3434
 30
0.0
 10
-117.0134
 20
-12.5368
 30
0.0
 10
-117.0134
 20
-12.5368
 30
0.0
 10
-117.4284
 20
-13.7319
 30
0.0
 10
-117.6465
 20
-14.9862
 30
0.0
 10
-117.6591
 20
-16.2511
 30
0.0
 10
-117.6591
 20
-16.2511
 30
0.0
 10
-117.4067
 20
-18.0154
 30
0.0
 10
-116.8031
 20
-19.7107
 30
0.0
 10
-115.8834
 20
-21.2376
 30
0.0
 10
-115.8834
 20
-21.2376
 30
0.0
 10
-113.8434
 20
-24.6196
 30
0.0
 10
-109.4684
 20
-25.7324
 30
0.0
 10
-106.0658
 20
-23.7275
 30
0.0
 10
-106.0658
 20
-23.7275
 30
0.0
 10
-104.5862
 20
-22.8565
 30
0.0
 10
-103.2735
 20
-21.7296
 30
0.0
 10
-102.1884
 20
-20.3993
 30
0.0
 10
-102.1884
 20
-20.3993
 30
0.0
 10
-101.0495
 20
-19.0018
 30
0.0
 10
-99.3025
 20
-18.2423
 30
0.0
 10
-97.5032
 20
-18.3605
 30
0.0
 10
-97.5032
 20
-18.3605
 30
0.0
 10
-97.0355
 20
-18.391
 30
0.0
 10
-96.5867
 20
-18.5585
 30
0.0
 10
-96.2135
 20
-18.8421
 30
0.0
 10
-96.2135
 20
-18.8421
 30
0.0
 10
-96.1475
 20
-18.8924
 30
0.0
 10
-96.0847
 20
-18.9462
 30
0.0
 10
-96.0249
 20
-19.004
 30
0.0
 10
-96.0249
 20
-19.004
 30
0.0
 10
-95.5754
 20
-20.19
 30
0.0
 10
-95.9665
 20
-21.5316
 30
0.0
 10
-96.9818
 20
-22.2916
 30
0.0
 10
-96.9818
 20
-22.2916
 30
0.0
 10
-98.4575
 20
-23.3962
 30
0.0
 10
-100.0669
 20
-24.31
 30
0.0
 10
-101.7713
 20
-25.0112
 30
0.0
 10
-101.7713
 20
-25.0112
 30
0.0
 10
-103.5815
 20
-25.7562
 30
0.0
 10
-105.1472
 20
-26.9906
 30
0.0
 10
-106.2939
 20
-28.5768
 30
0.0
 10
-106.2939
 20
-28.5768
 30
0.0
 10
-107.4988
 20
-30.2434
 30
0.0
 10
-107.7302
 20
-32.422
 30
0.0
 10
-106.9003
 20
-34.3033
 30
0.0
 10
-106.9003
 20
-34.3033
 30
0.0
 10
-106.3904
 20
-35.4595
 30
0.0
 10
-105.7197
 20
-36.5368
 30
0.0
 10
-104.908
 20
-37.5049
 30
0.0
 10
-104.908
 20
-37.5049
 30
0.0
 10
-104.0946
 20
-38.4742
 30
0.0
 10
-103.1299
 20
-39.3047
 30
0.0
 10
-102.0504
 20
-39.9642
 30
0.0
 10
-102.0504
 20
-39.9642
 30
0.0
 10
-100.4058
 20
-40.6523
 30
0.0
 10
-98.6411
 20
-41.004
 30
0.0
 10
-96.8586
 20
-40.9974
 30
0.0
 10
-96.8586
 20
-40.9974
 30
0.0
 10
-92.9092
 20
-40.9807
 30
0.0
 10
-89.7096
 20
-37.795
 30
0.0
 10
-89.6869
 20
-33.8456
 30
0.0
 10
-89.6869
 20
-33.8456
 30
0.0
 10
-89.6757
 20
-32.1285
 30
0.0
 10
-89.9693
 20
-30.4242
 30
0.0
 10
-90.5551
 20
-28.8103
 30
0.0
 10
-90.5551
 20
-28.8103
 30
0.0
 10
-91.1709
 20
-27.1154
 30
0.0
 10
-90.9268
 20
-25.2265
 30
0.0
 10
-89.9026
 20
-23.7423
 30
0.0
 10
-89.9026
 20
-23.7423
 30
0.0
 10
-89.6364
 20
-23.3569
 30
0.0
 10
-89.2626
 20
-23.0577
 30
0.0
 10
-88.8276
 20
-22.8825
 30
0.0
 10
-88.8276
 20
-22.8825
 30
0.0
 10
-88.6949
 20
-22.8298
 30
0.0
 10
-88.5579
 20
-22.7898
 30
0.0
 10
-88.4176
 20
-22.7638
 30
0.0
 10
-88.4176
 20
-22.7638
 30
0.0
 10
-87.1132
 20
-22.8332
 30
0.0
 10
-86.0347
 20
-23.8089
 30
0.0
 10
-85.8333
 20
-25.0999
 30
0.0
 10
-85.8333
 20
-25.0999
 30
0.0
 10
-85.5449
 20
-26.9513
 30
0.0
 10
-85.4994
 20
-28.833
 30
0.0
 10
-85.699
 20
-30.696
 30
0.0
 10
-85.699
 20
-30.696
 30
0.0
 10
-85.9071
 20
-32.6423
 30
0.0
 10
-85.5688
 20
-34.6067
 30
0.0
 10
-84.7205
 20
-36.371
 30
0.0
 10
-84.7205
 20
-36.371
 30
0.0
 10
-83.8294
 20
-38.2244
 30
0.0
 10
-82.0247
 20
-39.466
 30
0.0
 10
-79.9753
 20
-39.6336
 30
0.0
 10
-79.9753
 20
-39.6336
 30
0.0
 10
-78.716
 20
-39.7369
 30
0.0
 10
-77.4495
 20
-39.6609
 30
0.0
 10
-76.2117
 20
-39.4084
 30
0.0
 10
-76.2117
 20
-39.4084
 30
0.0
 10
-74.9717
 20
-39.1554
 30
0.0
 10
-73.7818
 20
-38.7034
 30
0.0
 10
-72.6871
 20
-38.0685
 30
0.0
 10
-72.6871
 20
-38.0685
 30
0.0
 10
-72.6871
 20
-38.0685
 30
0.0
 10
-72.5651
 20
-37.9694
 30
0.0
 10
-72.5651
 20
-37.9694
 30
0.0
 10
-72.5651
 20
-37.9694
 30
0.0
 10
-72.5651
 20
-37.9694
 30
0.0
 10
-72.5651
 20
-24.0818
 30
0.0
 10
-72.5651
 20
-24.0818
 30
0.0
 10
-72.5651
 20
-24.0818
 30
0.0
 10
-74.0441
 20
-23.3735
 30
0.0
 10
-75.612
 20
-22.8681
 30
0.0
 10
-77.2264
 20
-22.579
 30
0.0
 10
-77.2264
 20
-22.579
 30
0.0
 10
-78.9219
 20
-22.2756
 30
0.0
 10
-80.3776
 20
-21.1931
 30
0.0
 10
-81.1571
 20
-19.6575
 30
0.0
 10
-81.1571
 20
-19.6575
 30
0.0
 10
-81.369
 20
-19.2397
 30
0.0
 10
-81.4539
 20
-18.7682
 30
0.0
 10
-81.4007
 20
-18.3027
 30
0.0
 10
-81.4007
 20
-18.3027
 30
0.0
 10
-81.4007
 20
-18.3027
 30
0.0
 10
-81.379
 20
-18.1607
 30
0.0
 10
-81.379
 20
-18.1607
 30
0.0
 10
-81.379
 20
-18.1607
 30
0.0
 10
-81.379
 20
-18.1607
 30
0.0
 10
-81.2779
 20
-18.0585
 30
0.0
 10
-81.2779
 20
-18.0585
 30
0.0
 10
-81.2779
 20
-18.0585
 30
0.0
 10
-80.3698
 20
-17.2042
 30
0.0
 10
-79.0306
 20
-16.9913
 30
0.0
 10
-77.9016
 20
-17.5204
 30
0.0
 10
-77.9016
 20
-17.5204
 30
0.0
 10
-76.2789
 20
-18.2804
 30
0.0
 10
-74.751
 20
-19.2303
 30
0.0
 10
-73.3506
 20
-20.3487
 30
0.0
 10
-73.3506
 20
-20.3487
 30
0.0
 10
-73.0944
 20
-20.5534
 30
0.0
 10
-72.8326
 20
-20.751
 30
0.0
 10
-72.5651
 20
-20.9419
 30
0.0
  0
SPLINE
  5
4B
330
1F
100
AcDbEntity
  8
layer 1
 62
     7
100
AcDbSpline
210
0.0
220
0.0
230
1.0
 70
    11
 71
     3
 72
   188
 73
   184
 74
     0
 42
0.0000000001
 43
0.0000000001
 12
1.0
 22
0.0
 32
0.0
 13
1.0
 23
0.0
 33
0.0
 40
0.0
 40
0.0
 40
0.0
 40
0.0
 40
0.0212765957446809
 40
0.0212765957446809
 40
0.0212765957446809
 40
0.0212765957446809
 40
0.0425531914893617
 40
0.0425531914893617
 40
0.0425531914893617
 40
0.0425531914893617
 40
0.0638297872340425
 40
0.0638297872340425
 40
0.0638297872340425
 40
0.0638297872340425
 40
0.0851063829787234
 40
0.0851063829787234
 40
0.0851063829787234
 40
0.0851063829787234
 40
0.1063829787234043
 40
0.1063829787234043
 40
0.1063829787234043
 40
0.1063829787234043
 40
0.1276595744680851
 40
0.1276595744680851
 40
0.1276595744680851
 40
0.1276595744680851
 40
0.148936170212766
 40
0.148936170212766
 40
0.148936170212766
 40
0.148936170212766
 40
0.1702127659574468
 40
0.1702127659574468
 40
0.1702127659574468
 40
0.1702127659574468
 40
0.1914893617021277
 40
0.1914893617021277
 40
0.1914893617021277
 40
0.1914893617021277
 40
0.2127659574468085
 40
0.2127659574468085
 40
0.2127659574468085
 40
0.2127659574468085
 40
0.2340425531914894
 40
0.2340425531914894
 40
0.2340425531914894
 40
0.2340425531914894
 40
0.2553191489361702
 40
0.2553191489361702
 40
0.2553191489361702
 40
0.2553191489361702
 40
0.2765957446808511
 40
0.2765957446808511
 40
0.2765957446808511
 40
0.2765957446808511
 40
0.2978723404255319
 40
0.2978723404255319
 40
0.2978723404255319
 40
0.2978723404255319
 40
0.3191489361702128
 40
0.3191489361702128
 40
0.3191489361702128
 40
0.3191489361702128
 40
0.3404255319148936
 40
0.3404255319148936
 40
0.3404255319148936
 40
0.3404255319148936
 40
0.3617021276595745
 40
0.3617021276595745
 40
0.3617021276595745
 40
0.3617021276595745
 40
0.3829787234042553
 40
0.3829787234042553
 40
0.3829787234042553
 40
0.3829787234042553
 40
0.4042553191489361
 40
0.4042553191489361
 40
0.4042553191489361
 40
0.4042553191489361
 40
0.425531914893617
 40
0.425531914893617
 40
0.425531914893617
 40
0.425531914893617
 40
0.4468085106382979
 40
0.4468085106382979
 40
0.4468085106382979
 40
0.4468085106382979
 40
0.4680851063829787
 40
0.4680851063829787
 40
0.4680851063829787
 40
0.4680851063829787
 40
0.4893617021276596
 40
0.4893617021276596
 40
0.4893617021276596
 40
0.4893617021276596
 40
0.5106382978723404
 40
0.5106382978723404
 40
0.5106382978723404
 40
0.5106382978723404
 40
0.5319148936170213
 40
0.5319148936170213
 40
0.5319148936170213
 40
0.5319148936170213
 40
0.5531914893617021
 40
0.5531914893617021
 40
0.5531914893617021
 40
0.5531914893617021
 40
0.574468085106383
 40
0.574468085106383
 40
0.574468085106383
 40
0.574468085106383
 40
0.5957446808510638
 40
0.5957446808510638
 40
0.5957446808510638
 40
0.5957446808510638
 40
0.6170212765957447
 40
0.6170212765957447
 40
0.6170212765957447
 40
0.6170212765957447
 40
0.6382978723404256
 40
0.6382978723404256
 40
0.6382978723404256
 40
0.6382978723404256
 40
0.6595744680851063
 40
0.6595744680851063
 40
0.6595744680851063
 40
0.6595744680851063
 40
0.6808510638297872
 40
0.6808510638297872
 40
0.6808510638297872
 40
0.6808510638297872
 40
0.7021276595744681
 40
0.7021276595744681
 40
0.7021276595744681
 40
0.7021276595744681
 40
0.723404255319149
 40
0.723404255319149
 40
0.723404255319149
 40
0.723404255319149
 40
0.7446808510638298
 40
0.7446808510638298
 40
0.7446808510638298
 40
0.7446808510638298
 40
0.7659574468085106
 40
0.7659574468085106
 40
0.7659574468085106
 40
0.7659574468085106
 40
0.7872340425531915
 40
0.7872340425531915
 40
0.7872340425531915
 40
0.7872340425531915
 40
0.8085106382978723
 40
0.8085106382978723
 40
0.8085106382978723
 40
0.8085106382978723
 40
0.8297872340425532
 40
0.8297872340425532
 40
0.8297872340425532
 40
0.8297872340425532
 40
0.851063829787234
 40
0.851063829787234
 40
0.851063829787234
 40
0.851063829787234
 40
0.8723404255319149
 40
0.8723404255319149
 40
0.8723404255319149
 40
0.8723404255319149
 40
0.8936170212765957
 40
0.8936170212765957
 40
0.8936170212765957
 40
0.8936170212765957
 40
0.9148936170212766
 40
0.9148936170212766
 40
0.9148936170212766
 40
0.9148936170212766
 40
0.9361702127659575
 40
0.9361702127659575
 40
0.9361702127659575
 40
0.9361702127659575
 40
0.9574468085106383
 40
0.9574468085106383
 40
0.9574468085106383
 40
0.9574468085106383
 40
1.0
 40
1.0
 40
1.0
 40
1.0
 10
-150.2878
 20
-108.3583
 30
0.0
 10
-150.2878
 20
-108.3583
 30
0.0
 10
-180.9669
 20
-108.3583
 30
0.0
 10
-180.9669
 20
-108.3583
 30
0.0
 10
-180.9669
 20
-108.3583
 30
0.0
 10
-180.9669
 20
-108.3583
 30
0.0
 10
-180.9669
 20
-66.5497
 30
0.0
 10
-180.9669
 20
-66.5497
 30
0.0
 10
-180.9669
 20
-66.5497
 30
0.0
 10
-179.3814
 20
-67.3214
 30
0.0
 10
-177.9943
 20
-68.4487
 30
0.0
 10
-176.9148
 20
-69.8428
 30
0.0
 10
-176.9148
 20
-69.8428
 30
0.0
 10
-175.8062
 20
-71.2748
 30
0.0
 10
-175.323
 20
-73.0955
 30
0.0
 10
-175.5748
 20
-74.8891
 30
0.0
 10
-175.5748
 20
-74.8891
 30
0.0
 10
-175.8379
 20
-76.7638
 30
0.0
 10
-176.0393
 20
-78.6461
 30
0.0
 10
-176.1786
 20
-80.5336
 30
0.0
 10
-176.1786
 20
-80.5336
 30
0.0
 10
-176.3194
 20
-82.4492
 30
0.0
 10
-175.9926
 20
-84.3694
 30
0.0
 10
-175.2253
 20
-86.1303
 30
0.0
 10
-175.2253
 20
-86.1303
 30
0.0
 10
-174.9907
 20
-86.6657
 30
0.0
 10
-174.4699
 20
-87.019
 30
0.0
 10
-173.8856
 20
-87.0401
 30
0.0
 10
-173.8856
 20
-87.0401
 30
0.0
 10
-173.3015
 20
-87.0611
 30
0.0
 10
-172.7605
 20
-86.7527
 30
0.0
 10
-172.4874
 20
-86.2357
 30
0.0
 10
-172.4874
 20
-86.2357
 30
0.0
 10
-172.0558
 20
-85.4212
 30
0.0
 10
-171.7818
 20
-84.5336
 30
0.0
 10
-171.6798
 20
-83.6176
 30
0.0
 10
-171.6798
 20
-83.6176
 30
0.0
 10
-171.5616
 20
-82.5558
 30
0.0
 10
-171.5472
 20
-81.4855
 30
0.0
 10
-171.6377
 20
-80.4208
 30
0.0
 10
-171.6377
 20
-80.4208
 30
0.0
 10
-171.7286
 20
-79.348
 30
0.0
 10
-172.0398
 20
-78.305
 30
0.0
 10
-172.5512
 20
-77.3573
 30
0.0
 10
-172.5512
 20
-77.3573
 30
0.0
 10
-173.1428
 20
-76.2628
 30
0.0
 10
-173.5244
 20
-75.0667
 30
0.0
 10
-173.6765
 20
-73.8317
 30
0.0
 10
-173.6765
 20
-73.8317
 30
0.0
 10
-173.8296
 20
-72.5873
 30
0.0
 10
-173.6604
 20
-71.3242
 30
0.0
 10
-173.1855
 20
-70.164
 30
0.0
 10
-173.1855
 20
-70.164
 30
0.0
 10
-172.1259
 20
-67.5742
 30
0.0
 10
-170.0044
 20
-65.5631
 30
0.0
 10
-167.3624
 20
-64.6418
 30
0.0
 10
-167.3624
 20
-64.6418
 30
0.0
 10
-165.5377
 20
-64.0238
 30
0.0
 10
-163.5666
 20
-63.9794
 30
0.0
 10
-161.7158
 20
-64.5141
 30
0.0
 10
-161.7158
 20
-64.5141
 30
0.0
 10
-158.4715
 20
-65.4518
 30
0.0
 10
-155.5127
 20
-67.1892
 30
0.0
 10
-153.1133
 20
-69.5655
 30
0.0
 10
-153.1133
 20
-69.5655
 30
0.0
 10
-151.8279
 20
-70.8386
 30
0.0
 10
-151.1572
 20
-72.6079
 30
0.0
 10
-151.2754
 20
-74.4132
 30
0.0
 10
-151.2754
 20
-74.4132
 30
0.0
 10
-151.3907
 20
-76.1701
 30
0.0
 10
-151.9893
 20
-77.8624
 30
0.0
 10
-153.0052
 20
-79.3002
 30
0.0
 10
-153.0052
 20
-79.3002
 30
0.0
 10
-149.4067
 20
-74.6895
 30
0.0
 10
-145.0877
 20
-70.6867
 30
0.0
 10
-140.218
 20
-67.4478
 30
0.0
 10
-140.218
 20
-67.4478
 30
0.0
 10
-136.7493
 20
-65.14
 30
0.0
 10
-132.3976
 20
-64.5868
 30
0.0
 10
-128.4609
 20
-65.9494
 30
0.0
 10
-128.4609
 20
-65.9494
 30
0.0
 10
-124.1891
 20
-67.4284
 30
0.0
 10
-120.6179
 20
-70.4463
 30
0.0
 10
-118.4453
 20
-74.4116
 30
0.0
 10
-118.4453
 20
-74.4116
 30
0.0
 10
-116.1063
 20
-78.6766
 30
0.0
 10
-116.9053
 20
-83.9832
 30
0.0
 10
-120.3893
 20
-87.378
 30
0.0
 10
-120.3893
 20
-87.378
 30
0.0
 10
-123.81
 20
-90.7094
 30
0.0
 10
-128.8752
 20
-91.7174
 30
0.0
 10
-133.313
 20
-89.9549
 30
0.0
 10
-133.313
 20
-89.9549
 30
0.0
 10
-135.2154
 20
-89.2009
 30
0.0
 10
-136.6845
 20
-87.6398
 30
0.0
 10
-137.3214
 20
-85.6953
 30
0.0
 10
-137.3214
 20
-85.6953
 30
0.0
 10
-137.9582
 20
-83.7502
 30
0.0
 10
-137.6908
 20
-81.6121
 30
0.0
 10
-136.6028
 20
-79.8789
 30
0.0
 10
-136.6028
 20
-79.8789
 30
0.0
 10
-135.8544
 20
-78.6872
 30
0.0
 10
-134.3887
 20
-78.1585
 30
0.0
 10
-133.0511
 20
-78.5957
 30
0.0
 10
-133.0511
 20
-78.5957
 30
0.0
 10
-130.6301
 20
-79.3869
 30
0.0
 10
-128.0108
 20
-78.1774
 30
0.0
 10
-127.0483
 20
-75.8189
 30
0.0
 10
-127.0483
 20
-75.8189
 30
0.0
 10
-126.4586
 20
-74.3761
 30
0.0
 10
-126.8493
 20
-72.7189
 30
0.0
 10
-128.0231
 20
-71.6926
 30
0.0
 10
-128.0231
 20
-71.6926
 30
0.0
 10
-129.126
 20
-70.7277
 30
0.0
 10
-130.5563
 20
-70.2222
 30
0.0
 10
-132.0204
 20
-70.2794
 30
0.0
 10
-132.0204
 20
-70.2794
 30
0.0
 10
-134.6445
 20
-70.3821
 30
0.0
 10
-137.2431
 20
-70.8282
 30
0.0
 10
-139.7506
 20
-71.6071
 30
0.0
 10
-139.7506
 20
-71.6071
 30
0.0
 10
-142.2945
 20
-72.3965
 30
0.0
 10
-144.5741
 20
-73.8634
 30
0.0
 10
-146.346
 20
-75.8516
 30
0.0
 10
-146.346
 20
-75.8516
 30
0.0
 10
-147.3342
 20
-76.9606
 30
0.0
 10
-148.275
 20
-78.1108
 30
0.0
 10
-149.1659
 20
-79.2992
 30
0.0
 10
-149.1659
 20
-79.2992
 30
0.0
 10
-150.057
 20
-80.4869
 30
0.0
 10
-150.9686
 20
-81.6587
 30
0.0
 10
-151.9012
 20
-82.8142
 30
0.0
 10
-151.9012
 20
-82.8142
 30
0.0
 10
-148.6324
 20
-81.409
 30
0.0
 10
-144.8343
 20
-82.1342
 30
0.0
 10
-142.3099
 20
-84.6411
 30
0.0
 10
-142.3099
 20
-84.6411
 30
0.0
 10
-137.961
 20
-88.9591
 30
0.0
 10
-137.1611
 20
-95.7108
 30
0.0
 10
-140.3704
 20
-100.9315
 30
0.0
 10
-140.3704
 20
-100.9315
 30
0.0
 10
-141.515
 20
-102.7927
 30
0.0
 10
-143.444
 20
-104.0343
 30
0.0
 10
-145.612
 20
-104.3072
 30
0.0
 10
-145.612
 20
-104.3072
 30
0.0
 10
-147.7752
 20
-104.5797
 30
0.0
 10
-149.9493
 20
-103.8778
 30
0.0
 10
-151.546
 20
-102.3938
 30
0.0
 10
-151.546
 20
-102.3938
 30
0.0
 10
-152.5669
 20
-101.4439
 30
0.0
 10
-153.5622
 20
-100.4682
 30
0.0
 10
-154.5307
 20
-99.4657
 30
0.0
 10
-154.5307
 20
-99.4657
 30
0.0
 10
-155.5239
 20
-98.4388
 30
0.0
 10
-156.8143
 20
-97.7502
 30
0.0
 10
-158.2206
 20
-97.4989
 30
0.0
 10
-158.2206
 20
-97.4989
 30
0.0
 10
-159.4595
 20
-97.277
 30
0.0
 10
-160.7061
 20
-97.1045
 30
0.0
 10
-161.9587
 20
-96.9825
 30
0.0
 10
-161.9587
 20
-96.9825
 30
0.0
 10
-162.9674
 20
-96.886
 30
0.0
 10
-163.9504
 20
-97.3408
 30
0.0
 10
-164.5303
 20
-98.1719
 30
0.0
 10
-164.5303
 20
-98.1719
 30
0.0
 10
-165.11
 20
-99.003
 30
0.0
 10
-165.202
 20
-100.0725
 30
0.0
 10
-164.7626
 20
-100.9856
 30
0.0
 10
-164.7626
 20
-100.9856
 30
0.0
 10
-164.0852
 20
-102.4032
 30
0.0
 10
-162.7682
 20
-103.4069
 30
0.0
 10
-161.222
 20
-103.6836
 30
0.0
 10
-161.222
 20
-103.6836
 30
0.0
 10
-159.3258
 20
-104.0233
 30
0.0
 10
-157.4473
 20
-104.4565
 30
0.0
 10
-155.5937
 20
-104.9818
 30
0.0
 10
-155.5937
 20
-104.9818
 30
0.0
 10
-154.558
 20
-105.2753
 30
0.0
 10
-153.5676
 20
-105.7119
 30
0.0
 10
-152.6522
 20
-106.279
 30
0.0
 10
-152.6522
 20
-106.279
 30
0.0
 10
-151.7535
 20
-106.8354
 30
0.0
 10
-150.9547
 20
-107.5382
 30
0.0
 10
-150.2878
 20
-108.3583
 30
0.0
  0
SPLINE
  5
4C
330
1F
100
AcDbEntity
  8
layer 1
 62
     7
100
AcDbSpline
210
0.0
220
0.0
230
1.0
 70
    11
 71
     3
 72
    72
 73
    68
 74
     0
 42
0.0000000001
 43
0.0000000001
 12
1.0
 22
0.0
 32
0.0
 13
1.0
 23
0.0
 33
0.0
 40
0.0
 40
0.0
 40
0.0
 40
0.0
 40
0.0555555555555556
 40
0.0555555555555556
 40
0.0555555555555556
 40
0.0555555555555556
 40
0.1111111111111111
 40
0.1111111111111111
 40
0.1111111111111111
 40
0.1111111111111111
 40
0.1666666666666667
 40
0.1666666666666667
 40
0.1666666666666667
 40
0.1666666666666667
 40
0.2222222222222222
 40
0.2222222222222222
 40
0.2222222222222222
 40
0.2222222222222222
 40
0.2777777777777778
 40
0.2777777777777778
 40
0.2777777777777778
 40
0.2777777777777778
 40
0.3333333333333333
 40
0.3333333333333333
 40
0.3333333333333333
 40
0.3333333333333333
 40
0.3888888888888889
 40
0.3888888888888889
 40
0.3888888888888889
 40
0.3888888888888889
 40
0.4444444444444444
 40
0.4444444444444444
 40
0.4444444444444444
 40
0.4444444444444444
 40
0.5
 40
0.5
 40
0.5
 40
0.5
 40
0.5555555555555556
 40
0.5555555555555556
 40
0.5555555555555556
 40
0.5555555555555556
 40
0.6111111111111112
 40
0.6111111111111112
 40
0.6111111111111112
 40
0.6111111111111112
 40
0.6666666666666666
 40
0.6666666666666666
 40
0.6666666666666666
 40
0.6666666666666666
 40
0.7222222222222222
 40
0.7222222222222222
 40
0.7222222222222222
 40
0.7222222222222222
 40
0.7777777777777778
 40
0.7777777777777778
 40
0.7777777777777778
 40
0.7777777777777778
 40
0.8333333333333334
 40
0.8333333333333334
 40
0.8333333333333334
 40
0.8333333333333334
 40
0.8888888888888888
 40
0.8888888888888888
 40
0.8888888888888888
 40
0.8888888888888888
 40
1.0
 40
1.0
 40
1.0
 40
1.0
 10
-72.5651
 20
-94.6816
 30
0.0
 10
-74.1312
 20
-97.8079
 30
0.0
 10
-76.2105
 20
-100.6505
 30
0.0
 10
-78.7148
 20
-103.0906
 30
0.0
 10
-78.7148
 20
-103.0906
 30
0.0
 10
-81.238
 20
-105.5494
 30
0.0
 10
-84.3238
 20
-107.3581
 30
0.0
 10
-87.7025
 20
-108.3583
 30
0.0
 10
-87.7025
 20
-108.3583
 30
0.0
 10
-87.7025
 20
-108.3583
 30
0.0
 10
-102.0809
 20
-108.3583
 30
0.0
 10
-102.0809
 20
-108.3583
 30
0.0
 10
-102.0809
 20
-108.3583
 30
0.0
 10
-95.4783
 20
-107.0029
 30
0.0
 10
-89.3513
 20
-103.9356
 30
0.0
 10
-84.3115
 20
-99.4595
 30
0.0
 10
-84.3115
 20
-99.4595
 30
0.0
 10
-82.5424
 20
-97.8878
 30
0.0
 10
-81.8084
 20
-95.4567
 30
0.0
 10
-82.4148
 20
-93.1687
 30
0.0
 10
-82.4148
 20
-93.1687
 30
0.0
 10
-82.8691
 20
-91.4546
 30
0.0
 10
-84.0242
 20
-90.0121
 30
0.0
 10
-85.5987
 20
-89.1955
 30
0.0
 10
-85.5987
 20
-89.1955
 30
0.0
 10
-87.2093
 20
-88.3599
 30
0.0
 10
-89.1376
 20
-88.4244
 30
0.0
 10
-90.6878
 20
-89.3668
 30
0.0
 10
-90.6878
 20
-89.3668
 30
0.0
 10
-91.2382
 20
-89.7013
 30
0.0
 10
-91.7273
 20
-90.1269
 30
0.0
 10
-92.1351
 20
-90.6257
 30
0.0
 10
-92.1351
 20
-90.6257
 30
0.0
 10
-93.2836
 20
-92.0308
 30
0.0
 10
-95.1177
 20
-92.684
 30
0.0
 10
-96.8963
 20
-92.3234
 30
0.0
 10
-96.8963
 20
-92.3234
 30
0.0
 10
-99.2647
 20
-91.844
 30
0.0
 10
-101.2791
 20
-90.2972
 30
0.0
 10
-102.3525
 20
-88.1324
 30
0.0
 10
-102.3525
 20
-88.1324
 30
0.0
 10
-103.4266
 20
-85.9676
 30
0.0
 10
-103.4328
 20
-83.4135
 30
0.0
 10
-102.3808
 20
-81.2375
 30
0.0
 10
-102.3808
 20
-81.2375
 30
0.0
 10
-100.2983
 20
-76.9396
 30
0.0
 10
-96.1174
 20
-74.0404
 30
0.0
 10
-91.363
 20
-73.5915
 30
0.0
 10
-91.363
 20
-73.5915
 30
0.0
 10
-88.6405
 20
-73.3353
 30
0.0
 10
-85.8945
 20
-73.6642
 30
0.0
 10
-83.3101
 20
-74.5557
 30
0.0
 10
-83.3101
 20
-74.5557
 30
0.0
 10
-80.7321
 20
-75.4445
 30
0.0
 10
-78.3432
 20
-76.811
 30
0.0
 10
-76.2699
 20
-78.5819
 30
0.0
 10
-76.2699
 20
-78.5819
 30
0.0
 10
-75.4189
 20
-79.3086
 30
0.0
 10
-74.65
 20
-80.1253
 30
0.0
 10
-73.9753
 20
-81.0174
 30
0.0
 10
-73.9753
 20
-81.0174
 30
0.0
 10
-73.2953
 20
-81.9173
 30
0.0
 10
-72.8141
 20
-82.9524
 30
0.0
 10
-72.5651
 20
-84.052
 30
0.0
 10
-72.5651
 20
-84.052
 30
0.0
 10
-72.5651
 20
-84.052
 30
0.0
 10
-72.5651
 20
-94.6816
 30
0.0
 10
-72.5651
 20
-94.6816
 30
0.0
  0
SPLINE
  5
4D
330
1F
100
AcDbEntity
  8
layer 1
 62
     7
100
AcDbSpline
210
0.0
220
0.0
230
1.0
 70
    11
 71
     3
 72
    64
 73
    60
 74
     0
 42
0.0000000001
 43
0.0000000001
 12
1.0
 22
0.0
 32
0.0
 13
1.0
 23
0.0
 33
0.0
 40
0.0
 40
0.0
 40
0.0
 40
0.0
 40
0.0625
 40
0.0625
 40
0.0625
 40
0.0625
 40
0.125
 40
0.125
 40
0.125
 40
0.125
 40
0.1875
 40
0.1875
 40
0.1875
 40
0.1875
 40
0.25
 40
0.25
 40
0.25
 40
0.25
 40
0.3125
 40
0.3125
 40
0.3125
 40
0.3125
 40
0.375
 40
0.375
 40
0.375
 40
0.375
 40
0.4375
 40
0.4375
 40
0.4375
 40
0.4375
 40
0.5
 40
0.5
 40
0.5
 40
0.5
 40
0.5625
 40
0.5625
 40
0.5625
 40
0.5625
 40
0.625
 40
0.625
 40
0.625
 40
0.625
 40
0.6875
 40
0.6875
 40
0.6875
 40
0.6875
 40
0.75
 40
0.75
 40
0.75
 40
0.75
 40
0.8125
 40
0.8125
 40
0.8125
 40
0.8125
 40
0.875
 40
0.875
 40
0.875
 40
0.875
 40
1.0
 40
1.0
 40
1.0
 40
1.0
 10
-72.5651
 20
115.4628
 30
0.0
 10
-73.8617
 20
114.2266
 30
0.0
 10
-75.4434
 20
113.3295
 30
0.0
 10
-77.1698
 20
112.8508
 30
0.0
 10
-77.1698
 20
112.8508
 30
0.0
 10
-78.9269
 20
112.3638
 30
0.0
 10
-80.8032
 20
112.5389
 30
0.0
 10
-82.4403
 20
113.3417
 30
0.0
 10
-82.4403
 20
113.3417
 30
0.0
 10
-84.519
 20
114.3604
 30
0.0
 10
-85.6326
 20
116.6711
 30
0.0
 10
-85.1382
 20
118.9324
 30
0.0
 10
-85.1382
 20
118.9324
 30
0.0
 10
-84.8802
 20
120.1107
 30
0.0
 10
-84.9729
 20
121.3378
 30
0.0
 10
-85.4051
 20
122.4637
 30
0.0
 10
-85.4051
 20
122.4637
 30
0.0
 10
-85.7024
 20
123.2398
 30
0.0
 10
-86.2201
 20
123.9116
 30
0.0
 10
-86.8947
 20
124.3969
 30
0.0
 10
-86.8947
 20
124.3969
 30
0.0
 10
-87.5605
 20
124.8763
 30
0.0
 10
-88.3093
 20
125.2274
 30
0.0
 10
-89.1038
 20
125.4339
 30
0.0
 10
-89.1038
 20
125.4339
 30
0.0
 10
-89.1038
 20
125.4339
 30
0.0
 10
-94.1707
 20
125.4339
 30
0.0
 10
-94.1707
 20
125.4339
 30
0.0
 10
-94.1707
 20
125.4339
 30
0.0
 10
-96.8742
 20
124.8031
 30
0.0
 10
-99.2764
 20
123.2625
 30
0.0
 10
-100.9763
 20
121.0678
 30
0.0
 10
-100.9763
 20
121.0678
 30
0.0
 10
-102.6483
 20
118.9086
 30
0.0
 10
-103.8018
 20
116.3954
 30
0.0
 10
-104.3482
 20
113.719
 30
0.0
 10
-104.3482
 20
113.719
 30
0.0
 10
-105.101
 20
110.0324
 30
0.0
 10
-104.1512
 20
106.205
 30
0.0
 10
-101.7602
 20
103.2996
 30
0.0
 10
-101.7602
 20
103.2996
 30
0.0
 10
-97.0494
 20
97.5765
 30
0.0
 10
-89.648
 20
94.8041
 30
0.0
 10
-82.3381
 20
96.0325
 30
0.0
 10
-82.3381
 20
96.0325
 30
0.0
 10
-79.6707
 20
96.4801
 30
0.0
 10
-77.1421
 20
97.5287
 30
0.0
 10
-74.9406
 20
99.0998
 30
0.0
 10
-74.9406
 20
99.0998
 30
0.0
 10
-74.4913
 20
99.4317
 30
0.0
 10
-74.0629
 20
99.7911
 30
0.0
 10
-73.658
 20
100.1767
 30
0.0
 10
-73.658
 20
100.1767
 30
0.0
 10
-73.2531
 20
100.5624
 30
0.0
 10
-72.8869
 20
100.9873
 30
0.0
 10
-72.5651
 20
101.4456
 30
0.0
 10
-72.5651
 20
101.4456
 30
0.0
 10
-72.5651
 20
101.4456
 30
0.0
 10
-72.5651
 20
115.4628
 30
0.0
 10
-72.5651
 20
115.4628
 30
0.0
  0
SPLINE
  5
4E
330
1F
100
AcDbEntity
  8
layer 1
 62
     7
100
AcDbSpline
210
0.0
220
0.0
230
1.0
 70
    11
 71
     3
 72
    92
 73
    88
 74
     0
 42
0.0000000001
 43
0.0000000001
 12
1.0
 22
0.0
 32
0.0
 13
1.0
 23
0.0
 33
0.0
 40
0.0
 40
0.0
 40
0.0
 40
0.0
 40
0.0434782608695652
 40
0.0434782608695652
 40
0.0434782608695652
 40
0.0434782608695652
 40
0.0869565217391304
 40
0.0869565217391304
 40
0.0869565217391304
 40
0.0869565217391304
 40
0.1304347826086956
 40
0.1304347826086956
 40
0.1304347826086956
 40
0.1304347826086956
 40
0.1739130434782609
 40
0.1739130434782609
 40
0.1739130434782609
 40
0.1739130434782609
 40
0.2173913043478261
 40
0.2173913043478261
 40
0.2173913043478261
 40
0.2173913043478261
 40
0.2608695652173913
 40
0.2608695652173913
 40
0.2608695652173913
 40
0.2608695652173913
 40
0.3043478260869565
 40
0.3043478260869565
 40
0.3043478260869565
 40
0.3043478260869565
 40
0.3478260869565217
 40
0.3478260869565217
 40
0.3478260869565217
 40
0.3478260869565217
 40
0.391304347826087
 40
0.391304347826087
 40
0.391304347826087
 40
0.391304347826087
 40
0.4347826086956522
 40
0.4347826086956522
 40
0.4347826086956522
 40
0.4347826086956522
 40
0.4782608695652174
 40
0.4782608695652174
 40
0.4782608695652174
 40
0.4782608695652174
 40
0.5217391304347826
 40
0.5217391304347826
 40
0.5217391304347826
 40
0.5217391304347826
 40
0.5652173913043478
 40
0.5652173913043478
 40
0.5652173913043478
 40
0.5652173913043478
 40
0.6086956521739131
 40
0.6086956521739131
 40
0.6086956521739131
 40
0.6086956521739131
 40
0.6521739130434783
 40
0.6521739130434783
 40
0.6521739130434783
 40
0.6521739130434783
 40
0.6956521739130435
 40
0.6956521739130435
 40
0.6956521739130435
 40
0.6956521739130435
 40
0.7391304347826086
 40
0.7391304347826086
 40
0.7391304347826086
 40
0.7391304347826086
 40
0.782608695652174
 40
0.782608695652174
 40
0.782608695652174
 40
0.782608695652174
 40
0.8260869565217391
 40
0.8260869565217391
 40
0.8260869565217391
 40
0.8260869565217391
 40
0.8695652173913043
 40
0.8695652173913043
 40
0.8695652173913043
 40
0.8695652173913043
 40
0.9130434782608695
 40
0.9130434782608695
 40
0.9130434782608695
 40
0.9130434782608695
 40
1.0
 40
1.0
 40
1.0
 40
1.0
 10
-72.5651
 20
23.6275
 30
0.0
 10
-72.5651
 20
23.6275
 30
0.0
 10
-72.5651
 20
27.4671
 30
0.0
 10
-72.5651
 20
27.4671
 30
0.0
 10
-72.5651
 20
27.4671
 30
0.0
 10
-72.9423
 20
27.6762
 30
0.0
 10
-73.3224
 20
27.8798
 30
0.0
 10
-73.7052
 20
28.0785
 30
0.0
 10
-73.7052
 20
28.0785
 30
0.0
 10
-74.0886
 20
28.2771
 30
0.0
 10
-74.4713
 20
28.4768
 30
0.0
 10
-74.8535
 20
28.677
 30
0.0
 10
-74.8535
 20
28.677
 30
0.0
 10
-77.0789
 20
29.8661
 30
0.0
 10
-79.3174
 20
31.03
 30
0.0
 10
-81.5687
 20
32.1683
 30
0.0
 10
-81.5687
 20
32.1683
 30
0.0
 10
-84.259
 20
33.5275
 30
0.0
 10
-87.4455
 20
33.4615
 30
0.0
 10
-90.0758
 20
31.9891
 30
0.0
 10
-90.0758
 20
31.9891
 30
0.0
 10
-91.9216
 20
30.9562
 30
0.0
 10
-93.293
 20
29.2481
 30
0.0
 10
-93.9022
 20
27.2225
 30
0.0
 10
-93.9022
 20
27.2225
 30
0.0
 10
-94.4991
 20
25.2369
 30
0.0
 10
-94.5591
 20
23.1292
 30
0.0
 10
-94.0751
 20
21.1125
 30
0.0
 10
-94.0751
 20
21.1125
 30
0.0
 10
-93.5254
 20
18.8247
 30
0.0
 10
-91.7135
 20
17.056
 30
0.0
 10
-89.4122
 20
16.5656
 30
0.0
 10
-89.4122
 20
16.5656
 30
0.0
 10
-87.2486
 20
16.1035
 30
0.0
 10
-85.0012
 20
16.2431
 30
0.0
 10
-82.9112
 20
16.9701
 30
0.0
 10
-82.9112
 20
16.9701
 30
0.0
 10
-81.1154
 20
17.5947
 30
0.0
 10
-79.7102
 20
19.0133
 30
0.0
 10
-79.1049
 20
20.8164
 30
0.0
 10
-79.1049
 20
20.8164
 30
0.0
 10
-78.4636
 20
22.7269
 30
0.0
 10
-79.1932
 20
24.8279
 30
0.0
 10
-80.8824
 20
25.9275
 30
0.0
 10
-80.8824
 20
25.9275
 30
0.0
 10
-81.5038
 20
26.3314
 30
0.0
 10
-82.2372
 20
26.5266
 30
0.0
 10
-82.9774
 20
26.4841
 30
0.0
 10
-82.9774
 20
26.4841
 30
0.0
 10
-83.7734
 20
26.438
 30
0.0
 10
-84.4514
 20
25.8898
 30
0.0
 10
-84.6617
 20
25.1209
 30
0.0
 10
-84.6617
 20
25.1209
 30
0.0
 10
-84.756
 20
24.7764
 30
0.0
 10
-84.8908
 20
24.4441
 30
0.0
 10
-85.0622
 20
24.1311
 30
0.0
 10
-85.0622
 20
24.1311
 30
0.0
 10
-85.2419
 20
23.8044
 30
0.0
 10
-85.5572
 20
23.5731
 30
0.0
 10
-85.9227
 20
23.4998
 30
0.0
 10
-85.9227
 20
23.4998
 30
0.0
 10
-87.0661
 20
23.2707
 30
0.0
 10
-88.2527
 20
23.5653
 30
0.0
 10
-89.1564
 20
24.302
 30
0.0
 10
-89.1564
 20
24.302
 30
0.0
 10
-90.0969
 20
25.0687
 30
0.0
 10
-90.4797
 20
26.3292
 30
0.0
 10
-90.1258
 20
27.4898
 30
0.0
 10
-90.1258
 20
27.4898
 30
0.0
 10
-89.5625
 20
29.3389
 30
0.0
 10
-87.7001
 20
30.4724
 30
0.0
 10
-85.7983
 20
30.1273
 30
0.0
 10
-85.7983
 20
30.1273
 30
0.0
 10
-83.7646
 20
29.7573
 30
0.0
 10
-81.8173
 20
29.0095
 30
0.0
 10
-80.0586
 20
27.9238
 30
0.0
 10
-80.0586
 20
27.9238
 30
0.0
 10
-79.5738
 20
27.6224
 30
0.0
 10
-79.0916
 20
27.3174
 30
0.0
 10
-78.6117
 20
27.0082
 30
0.0
 10
-78.6117
 20
27.0082
 30
0.0
 10
-77.1221
 20
26.0485
 30
0.0
 10
-75.5921
 20
25.1526
 30
0.0
 10
-74.0264
 20
24.3215
 30
0.0
 10
-74.0264
 20
24.3215
 30
0.0
 10
-73.5471
 20
24.0745
 30
0.0
 10
-73.0595
 20
23.8432
 30
0.0
 10
-72.5651
 20
23.6275
 30
0.0
  0
ENDSEC
  0
SECTION
  2
OBJECTS
  0
DICTIONARY
  5
C
330
0
100
AcDbDictionary
281
     1
  3
ACAD_GROUP
350
D
  3
ACAD_LAYOUT
350
1A
  3
ACAD_MATERIAL
350
3B
  3
ACAD_MLEADERSTYLE
350
70
  3
ACAD_MLINESTYLE
350
17
  3
ACAD_PLOTSETTINGS
350
19
  3
ACAD_PLOTSTYLENAME
350
E
  3
ACAD_TABLESTYLE
350
6F
  3
ACAD_VISUALSTYLE
350
2A
  0
DICTIONARY
  5
D
102
{ACAD_REACTORS
330
C
102
}
330
C
100
AcDbDictionary
281
     1
  0
DICTIONARY
  5
1A
102
{ACAD_REACTORS
330
C
102
}
330
C
100
AcDbDictionary
281
     1
  3
Layout1
350
1E
  3
Layout2
350
26
  3
Model
350
22
  0
DICTIONARY
  5
3B
102
{ACAD_REACTORS
330
C
102
}
330
C
100
AcDbDictionary
281
     1
  3
ByBlock
350
3D
  3
ByLayer
350
3C
  3
Global
350
3E
  0
DICTIONARY
  5
70
102
{ACAD_REACTORS
330
C
102
}
330
C
100
AcDbDictionary
281
     1
  0
DICTIONARY
  5
17
102
{ACAD_REACTORS
330
C
102
}
330
C
100
AcDbDictionary
281
     1
  3
Standard
350
18
  0
DICTIONARY
  5
19
102
{ACAD_REACTORS
330
C
102
}
330
C
100
AcDbDictionary
281
     1
  0
ACDBDICTIONARYWDFLT
  5
E
102
{ACAD_REACTORS
330
C
102
}
330
C
100
AcDbDictionary
281
     1
  3
Normal
350
F
100
AcDbDictionaryWithDefault
340
F
  0
DICTIONARY
  5
6F
102
{ACAD_REACTORS
330
C
102
}
330
C
100
AcDbDictionary
281
     1
  0
DICTIONARY
  5
2A
102
{ACAD_REACTORS
330
C
102
}
330
C
100
AcDbDictionary
281
     1
  3
2dWireframe
350
2F
  3
3D Hidden
350
31
  3
3dWireframe
350
30
  3
Basic
350
32
  3
Brighten
350
36
  3
ColorChange
350
3A
  3
Conceptual
350
34
  3
Dim
350
35
  3
Facepattern
350
39
  3
Flat
350
2B
  3
FlatWithEdges
350
2C
  3
Gouraud
350
2D
  3
GouraudWithEdges
350
2E
  3
Linepattern
350
38
  3
Realistic
350
33
  3
Thicken
350
37
  0
LAYOUT
  5
1E
102
{ACAD_REACTORS
330
1A
102
}
330
1A
100
AcDbPlotSettings
  1

  2
none_device
  4

  6

 40
0.0
 41
0.0
 42
0.0
 43
0.0
 44
0.0
 45
0.0
 46
0.0
 47
0.0
 48
0.0
 49
0.0
140
0.0
141
0.0
142
1.0
143
1.0
 70
   688
 72
     0
 73
     0
 74
     5
  7

 75
    16
 76
     0
 77
     2
 78
   300
147
1.0
148
0.0
149
0.0
100
AcDbLayout
  1
Layout1
 70
     1
 71
     1
 10
0.0
 20
0.0
 11
12.0
 21
9.0
 12
0.0
 22
0.0
 32
0.0
 14
1.000000000000000E+20
 24
1.000000000000000E+20
 34
1.000000000000000E+20
 15
-1.000000000000000E+20
 25
-1.000000000000000E+20
 35
-1.000000000000000E+20
146
0.0
 13
0.0
 23
0.0
 33
0.0
 16
1.0
 26
0.0
 36
0.0
 17
0.0
 27
1.0
 37
0.0
 76
     0
330
1B
  0
LAYOUT
  5
26
102
{ACAD_REACTORS
330
1A
102
}
330
1A
100
AcDbPlotSettings
  1

  2
none_device
  4

  6

 40
0.0
 41
0.0
 42
0.0
 43
0.0
 44
0.0
 45
0.0
 46
0.0
 47
0.0
 48
0.0
 49
0.0
140
0.0
141
0.0
142
1.0
143
1.0
 70
   688
 72
     0
 73
     0
 74
     5
  7

 75
    16
 76
     0
 77
     2
 78
   300
147
1.0
148
0.0
149
0.0
100
AcDbLayout
  1
Layout2
 70
     1
 71
     2
 10
0.0
 20
0.0
 11
0.0
 21
0.0
 12
0.0
 22
0.0
 32
0.0
 14
0.0
 24
0.0
 34
0.0
 15
0.0
 25
0.0
 35
0.0
146
0.0
 13
0.0
 23
0.0
 33
0.0
 16
1.0
 26
0.0
 36
0.0
 17
0.0
 27
1.0
 37
0.0
 76
     0
330
23
  0
LAYOUT
  5
22
102
{ACAD_REACTORS
330
1A
102
}
330
1A
100
AcDbPlotSettings
  1

  2
none_device
  4

  6

 40
0.0
 41
0.0
 42
0.0
 43
0.0
 44
0.0
 45
0.0
 46
0.0
 47
0.0
 48
0.0
 49
0.0
140
0.0
141
0.0
142
1.0
143
1.0
 70
  1712
 72
     0
 73
     0
 74
     0
  7

 75
     0
 76
     0
 77
     2
 78
   300
147
1.0
148
0.0
149
0.0
100
AcDbLayout
  1
Model
 70
     1
 71
     0
 10
0.0
 20
0.0
 11
12.0
 21
9.0
 12
0.0
 22
0.0
 32
0.0
 14
-187.2998
 24
-114.6912
 34
0.0
 15
-66.2322
 25
131.7662
 35
0.0
146
0.0
 13
0.0
 23
0.0
 33
0.0
 16
1.0
 26
0.0
 36
0.0
 17
0.0
 27
1.0
 37
0.0
 76
     0
330
1F
331
29
  0
MATERIAL
  5
3D
102
{ACAD_REACTORS
330
3B
102
}
330
3B
100
AcDbMaterial
  1
ByBlock
 72
     1
 94
      127
  0
MATERIAL
  5
3C
102
{ACAD_REACTORS
330
3B
102
}
330
3B
100
AcDbMaterial
  1
ByLayer
 72
     1
 94
      127
  0
MATERIAL
  5
3E
102
{ACAD_REACTORS
330
3B
102
}
330
3B
100
AcDbMaterial
  1
Global
 72
     1
 94
      127
  0
MLINESTYLE
  5
18
102
{ACAD_REACTORS
330
17
102
}
330
17
100
AcDbMlineStyle
  2
Standard
 70
     0
  3

 62
   256
 51
90.0
 52
90.0
 71
     2
 49
0.5
 62
   256
  6
BYLAYER
 49
-0.5
 62
   256
  6
BYLAYER
  0
ACDBPLACEHOLDER
  5
F
102
{ACAD_REACTORS
330
E
102
}
330
E
  0
VISUALSTYLE
  5
2F
102
{ACAD_REACTORS
330
2A
102
}
102
{ACAD_XDICTIONARY
360
57
102
}
330
2A
100
AcDbVisualStyle
  2
2dWireframe
 70
     4
 71
     0
 72
     2
 73
     0
 90
        0
 40
-0.6
 41
-30.0
 62
     5
 63
     7
421
 16777215
 74
     1
 91
        4
 64
     7
 65
   257
 75
     1
175
     1
 42
1.0
 92
        0
 66
   257
 43
1.0
 76
     1
 77
     6
 78
     2
 67
     7
 79
     5
170
     0
171
     0
290
     0
174
     0
 93
        1
 44
0.0
173
     0
291
     0
 45
0.0
  0
VISUALSTYLE
  5
31
102
{ACAD_REACTORS
330
2A
102
}
102
{ACAD_XDICTIONARY
360
5B
102
}
330
2A
100
AcDbVisualStyle
  2
3D Hidden
 70
     6
 71
     1
 72
     2
 73
     2
 90
        0
 40
-0.6
 41
-30.0
 62
     5
 63
     7
421
 16777215
 74
     2
 91
        2
 64
     7
 65
   257
 75
     2
175
     1
 42
40.0
 92
        0
 66
   257
 43
1.0
 76
     1
 77
     6
 78
     2
 67
     7
 79
     3
170
     0
171
     0
290
     0
174
     0
 93
        1
 44
0.0
173
     0
291
     0
 45
0.0
  0
VISUALSTYLE
  5
30
102
{ACAD_REACTORS
330
2A
102
}
102
{ACAD_XDICTIONARY
360
59
102
}
330
2A
100
AcDbVisualStyle
  2
3dWireframe
 70
     5
 71
     0
 72
     2
 73
     0
 90
        0
 40
-0.6
 41
-30.0
 62
     5
 63
     7
421
 16777215
 74
     1
 91
        4
 64
     7
 65
   257
 75
     1
175
     1
 42
1.0
 92
        0
 66
   257
 43
1.0
 76
     1
 77
     6
 78
     2
 67
     7
 79
     5
170
     0
171
     0
290
     0
174
     0
 93
        1
 44
0.0
173
     0
291
     0
 45
0.0
  0
VISUALSTYLE
  5
32
102
{ACAD_REACTORS
330
2A
102
}
102
{ACAD_XDICTIONARY
360
5D
102
}
330
2A
100
AcDbVisualStyle
  2
Basic
 70
     7
 71
     1
 72
     0
 73
     1
 90
        0
 40
-0.6
 41
-30.0
 62
     5
 63
     7
421
 16777215
 74
     0
 91
        4
 64
     7
 65
   257
 75
     1
175
     1
 42
1.0
 92
        8
 66
     7
 43
1.0
 76
     1
 77
     6
 78
     2
 67
     7
 79
     5
170
     0
171
     0
290
     0
174
     0
 93
        1
 44
0.0
173
     0
291
     1
 45
0.0
  0
VISUALSTYLE
  5
36
102
{ACAD_REACTORS
330
2A
102
}
102
{ACAD_XDICTIONARY
360
65
102
}
330
2A
100
AcDbVisualStyle
  2
Brighten
 70
    12
 71
     2
 72
     2
 73
     0
 90
        0
 40
-0.6
 41
-30.0
 62
     5
 63
     7
421
 16777215
 74
     1
 91
        4
 64
     7
 65
   257
 75
     1
175
     1
 42
1.0
 92
        8
 66
     7
 43
1.0
 76
     1
 77
     6
 78
     2
 67
     7
 79
     5
170
     0
171
     0
290
     0
174
     0
 93
        1
 44
50.0
173
     0
291
     1
 45
0.0
  0
VISUALSTYLE
  5
3A
102
{ACAD_REACTORS
330
2A
102
}
102
{ACAD_XDICTIONARY
360
6D
102
}
330
2A
100
AcDbVisualStyle
  2
ColorChange
 70
    16
 71
     2
 72
     2
 73
     3
 90
        0
 40
-0.6
 41
-30.0
 62
     5
 63
     8
421
  8421504
 74
     1
 91
        4
 64
     7
 65
   257
 75
     1
175
     1
 42
1.0
 92
        8
 66
     8
424
  8421504
 43
1.0
 76
     1
 77
     6
 78
     2
 67
     7
 79
     5
170
     0
171
     0
290
     0
174
     0
 93
        1
 44
0.0
173
     0
291
     1
 45
0.0
  0
VISUALSTYLE
  5
34
102
{ACAD_REACTORS
330
2A
102
}
102
{ACAD_XDICTIONARY
360
61
102
}
330
2A
100
AcDbVisualStyle
  2
Conceptual
 70
     9
 71
     3
 72
     2
 73
     0
 90
        0
 40
-0.6
 41
-30.0
 62
     5
 63
     7
421
 16777215
 74
     2
 91
        2
 64
     7
 65
   257
 75
     1
175
     1
 42
40.0
 92
        8
 66
     7
 43
1.0
 76
     1
 77
     6
 78
     2
 67
     7
 79
     3
170
     0
171
     0
290
     0
174
     0
 93
        1
 44
0.0
173
     0
291
     0
 45
0.0
  0
VISUALSTYLE
  5
35
102
{ACAD_REACTORS
330
2A
102
}
102
{ACAD_XDICTIONARY
360
63
102
}
330
2A
100
AcDbVisualStyle
  2
Dim
 70
    11
 71
     2
 72
     2
 73
     0
 90
        0
 40
-0.6
 41
-30.0
 62
     5
 63
     7
421
 16777215
 74
     1
 91
        4
 64
     7
 65
   257
 75
     1
175
     1
 42
1.0
 92
        8
 66
     7
 43
1.0
 76
     1
 77
     6
 78
     2
 67
     7
 79
     5
170
     0
171
     0
290
     0
174
     0
 93
        1
 44
-50.0
173
     0
291
     1
 45
0.0
  0
VISUALSTYLE
  5
39
102
{ACAD_REACTORS
330
2A
102
}
102
{ACAD_XDICTIONARY
360
6B
102
}
330
2A
100
AcDbVisualStyle
  2
Facepattern
 70
    15
 71
     2
 72
     2
 73
     0
 90
        0
 40
-0.6
 41
-30.0
 62
     5
 63
     7
421
 16777215
 74
     1
 91
        4
 64
     7
 65
   257
 75
     1
175
     1
 42
1.0
 92
        8
 66
     7
 43
1.0
 76
     1
 77
     6
 78
     2
 67
     7
 79
     5
170
     0
171
     0
290
     0
174
     0
 93
        1
 44
0.0
173
     0
291
     1
 45
0.0
  0
VISUALSTYLE
  5
2B
102
{ACAD_REACTORS
330
2A
102
}
102
{ACAD_XDICTIONARY
360
4F
102
}
330
2A
100
AcDbVisualStyle
  2
Flat
 70
     0
 71
     2
 72
     1
 73
     1
 90
        2
 40
-0.6
 41
30.0
 62
     5
 63
     7
421
 16777215
 74
     0
 91
        4
 64
     7
 65
   257
 75
     1
175
     1
 42
1.0
 92
        8
 66
     7
 43
1.0
 76
     1
 77
     6
 78
     2
 67
     7
 79
     5
170
     0
171
     0
290
     0
174
     0
 93
       13
 44
0.0
173
     0
291
     1
 45
0.0
  0
VISUALSTYLE
  5
2C
102
{ACAD_REACTORS
330
2A
102
}
102
{ACAD_XDICTIONARY
360
51
102
}
330
2A
100
AcDbVisualStyle
  2
FlatWithEdges
 70
     1
 71
     2
 72
     1
 73
     1
 90
        2
 40
-0.6
 41
30.0
 62
     5
 63
     7
421
 16777215
 74
     1
 91
        4
 64
     7
 65
   257
 75
     1
175
     1
 42
1.0
 92
        0
 66
   257
 43
1.0
 76
     1
 77
     6
 78
     2
 67
     7
 79
     5
170
     0
171
     0
290
     0
174
     0
 93
       13
 44
0.0
173
     0
291
     1
 45
0.0
  0
VISUALSTYLE
  5
2D
102
{ACAD_REACTORS
330
2A
102
}
102
{ACAD_XDICTIONARY
360
53
102
}
330
2A
100
AcDbVisualStyle
  2
Gouraud
 70
     2
 71
     2
 72
     2
 73
     1
 90
        2
 40
-0.6
 41
30.0
 62
     5
 63
     7
421
 16777215
 74
     0
 91
        4
 64
     7
 65
   257
 75
     1
175
     1
 42
1.0
 92
        0
 66
     7
 43
1.0
 76
     1
 77
     6
 78
     2
 67
     7
 79
     5
170
     0
171
     0
290
     0
174
     0
 93
       13
 44
0.0
173
     0
291
     1
 45
0.0
  0
VISUALSTYLE
  5
2E
102
{ACAD_REACTORS
330
2A
102
}
102
{ACAD_XDICTIONARY
360
55
102
}
330
2A
100
AcDbVisualStyle
  2
GouraudWithEdges
 70
     3
 71
     2
 72
     2
 73
     1
 90
        2
 40
-0.6
 41
30.0
 62
     5
 63
     7
421
 16777215
 74
     1
 91
        4
 64
     7
 65
   257
 75
     1
175
     1
 42
1.0
 92
        0
 66
   257
 43
1.0
 76
     1
 77
     6
 78
     2
 67
     7
 79
     5
170
     0
171
     0
290
     0
174
     0
 93
       13
 44
0.0
173
     0
291
     1
 45
0.0
  0
VISUALSTYLE
  5
38
102
{ACAD_REACTORS
330
2A
102
}
102
{ACAD_XDICTIONARY
360
69
102
}
330
2A
100
AcDbVisualStyle
  2
Linepattern
 70
    14
 71
     2
 72
     2
 73
     0
 90
        0
 40
-0.6
 41
-30.0
 62
     5
 63
     7
421
 16777215
 74
     1
 91
        4
 64
     7
 65
   257
 75
     7
175
     7
 42
1.0
 92
        8
 66
     7
 43
1.0
 76
     1
 77
     6
 78
     2
 67
     7
 79
     5
170
     0
171
     0
290
     0
174
     0
 93
        1
 44
0.0
173
     0
291
     1
 45
0.0
  0
VISUALSTYLE
  5
33
102
{ACAD_REACTORS
330
2A
102
}
102
{ACAD_XDICTIONARY
360
5F
102
}
330
2A
100
AcDbVisualStyle
  2
Realistic
 70
     8
 71
     2
 72
     2
 73
     0
 90
        0
 40
-0.6
 41
-30.0
 62
     5
 63
     7
421
 16777215
 74
     1
 91
        0
 64
     7
 65
   257
 75
     1
175
     1
 42
1.0
 92
        8
 66
     8
424
  7895160
 43
1.0
 76
     1
 77
     6
 78
     2
 67
     7
 79
     5
170
     0
171
     0
290
     0
174
     0
 93
       13
 44
0.0
173
     0
291
     0
 45
0.0
  0
VISUALSTYLE
  5
37
102
{ACAD_REACTORS
330
2A
102
}
102
{ACAD_XDICTIONARY
360
67
102
}
330
2A
100
AcDbVisualStyle
  2
Thicken
 70
    13
 71
     2
 72
     2
 73
     0
 90
        0
 40
-0.6
 41
-30.0
 62
     5
 63
     7
421
 16777215
 74
     1
 91
        4
 64
     7
 65
   257
 75
     1
175
     1
 42
1.0
 92
       12
 66
     7
 43
1.0
 76
     1
 77
     6
 78
     2
 67
     7
 79
     5
170
     0
171
     0
290
     0
174
     0
 93
        1
 44
0.0
173
     0
291
     1
 45
0.0
  0
DICTIONARY
  5
57
330
2F
100
AcDbDictionary
280
     1
281
     1
  3
ACAD_XREC_ROUNDTRIP
360
58
  0
DICTIONARY
  5
5B
330
31
100
AcDbDictionary
280
     1
281
     1
  3
ACAD_XREC_ROUNDTRIP
360
5C
  0
DICTIONARY
  5
59
330
30
100
AcDbDictionary
280
     1
281
     1
  3
ACAD_XREC_ROUNDTRIP
360
5A
  0
DICTIONARY
  5
5D
330
32
100
AcDbDictionary
280
     1
281
     1
  3
ACAD_XREC_ROUNDTRIP
360
5E
  0
DICTIONARY
  5
65
330
36
100
AcDbDictionary
280
     1
281
     1
  3
ACAD_XREC_ROUNDTRIP
360
66
  0
DICTIONARY
  5
6D
330
3A
100
AcDbDictionary
280
     1
281
     1
  3
ACAD_XREC_ROUNDTRIP
360
6E
  0
DICTIONARY
  5
61
330
34
100
AcDbDictionary
280
     1
281
     1
  3
ACAD_XREC_ROUNDTRIP
360
62
  0
DICTIONARY
  5
63
330
35
100
AcDbDictionary
280
     1
281
     1
  3
ACAD_XREC_ROUNDTRIP
360
64
  0
DICTIONARY
  5
6B
330
39
100
AcDbDictionary
280
     1
281
     1
  3
ACAD_XREC_ROUNDTRIP
360
6C
  0
DICTIONARY
  5
4F
330
2B
100
AcDbDictionary
280
     1
281
     1
  3
ACAD_XREC_ROUNDTRIP
360
50
  0
DICTIONARY
  5
51
330
2C
100
AcDbDictionary
280
     1
281
     1
  3
ACAD_XREC_ROUNDTRIP
360
52
  0
DICTIONARY
  5
53
330
2D
100
AcDbDictionary
280
     1
281
     1
  3
ACAD_XREC_ROUNDTRIP
360
54
  0
DICTIONARY
  5
55
330
2E
100
AcDbDictionary
280
     1
281
     1
  3
ACAD_XREC_ROUNDTRIP
360
56
  0
DICTIONARY
  5
69
330
38
100
AcDbDictionary
280
     1
281
     1
  3
ACAD_XREC_ROUNDTRIP
360
6A
  0
DICTIONARY
  5
5F
330
33
100
AcDbDictionary
280
     1
281
     1
  3
ACAD_XREC_ROUNDTRIP
360
60
  0
DICTIONARY
  5
67
330
37
100
AcDbDictionary
280
     1
281
     1
  3
ACAD_XREC_ROUNDTRIP
360
68
  0
XRECORD
  5
58
102
{ACAD_REACTORS
330
57
102
}
330
57
100
AcDbXrecord
280
     1
102
RTVSPropertyOp0
 70
     1
102
RTVSPropertyOp1
 70
     1
102
RTVSPropertyOp2
 70
     1
102
RTVSPropertyOp3
 70
     1
102
RTVSPropertyOp4
 70
     1
102
RTVSPropertyOp5
 70
     1
102
RTVSPropertyOp6
 70
     1
102
RTVSPropertyOp7
 70
     1
102
RTVSPropertyOp8
 70
     1
102
RTVSPropertyOp9
 70
     1
102
RTVSPropertyOp10
 70
     1
102
RTVSPropertyOp11
 70
     1
102
RTVSPropertyOp12
 70
     1
102
RTVSPropertyOp13
 70
     1
102
RTVSPropertyOp14
 70
     1
102
RTVSPropertyOp15
 70
     1
102
RTVSPropertyOp16
 70
     1
102
RTVSPropertyOp17
 70
     1
102
RTVSPropertyOp18
 70
     1
102
RTVSPropertyOp19
 70
     1
102
RTVSPropertyOp20
 70
     1
102
RTVSPropertyOp21
 70
     1
102
RTVSPropertyOp22
 70
     1
102
RTVSPropertyOp23
 70
     1
102
RTVSPropertyOp24
 70
     1
102
RTVSPropertyOp25
 70
     1
102
RTVSPropertyOp26
 70
     1
102
RTVSPropertyOp27
 70
     1
102
RTVSPropertyOp28
 70
     1
102
RTVSPropertyOp29
 70
     1
102
RTVSPropertyOp30
 70
     1
102
RTVSPropertyOp31
 70
     1
102
RTVSPropertyOp32
 70
     1
  0
XRECORD
  5
5C
102
{ACAD_REACTORS
330
5B
102
}
330
5B
100
AcDbXrecord
280
     1
102
RTVSPropertyOp0
 70
     1
102
RTVSPropertyOp1
 70
     1
102
RTVSPropertyOp2
 70
     1
102
RTVSPropertyOp3
 70
     1
102
RTVSPropertyOp4
 70
     1
102
RTVSPropertyOp5
 70
     1
102
RTVSPropertyOp6
 70
     1
102
RTVSPropertyOp7
 70
     1
102
RTVSPropertyOp8
 70
     1
102
RTVSPropertyOp9
 70
     1
102
RTVSPropertyOp10
 70
     1
102
RTVSPropertyOp11
 70
     1
102
RTVSPropertyOp12
 70
     1
102
RTVSPropertyOp13
 70
     1
102
RTVSPropertyOp14
 70
     1
102
RTVSPropertyOp15
 70
     1
102
RTVSPropertyOp16
 70
     1
102
RTVSPropertyOp17
 70
     1
102
RTVSPropertyOp18
 70
     1
102
RTVSPropertyOp19
 70
     1
102
RTVSPropertyOp20
 70
     1
102
RTVSPropertyOp21
 70
     1
102
RTVSPropertyOp22
 70
     1
102
RTVSPropertyOp23
 70
     1
102
RTVSPropertyOp24
 70
     1
102
RTVSPropertyOp25
 70
     1
102
RTVSPropertyOp26
 70
     1
102
RTVSPropertyOp27
 70
     1
102
RTVSPropertyOp28
 70
     1
102
RTVSPropertyOp29
 70
     1
102
RTVSPropertyOp30
 70
     1
102
RTVSPropertyOp31
 70
     1
102
RTVSPropertyOp32
 70
     1
  0
XRECORD
  5
5A
102
{ACAD_REACTORS
330
59
102
}
330
59
100
AcDbXrecord
280
     1
102
RTVSPropertyOp0
 70
     1
102
RTVSPropertyOp1
 70
     1
102
RTVSPropertyOp2
 70
     1
102
RTVSPropertyOp3
 70
     1
102
RTVSPropertyOp4
 70
     1
102
RTVSPropertyOp5
 70
     1
102
RTVSPropertyOp6
 70
     1
102
RTVSPropertyOp7
 70
     1
102
RTVSPropertyOp8
 70
     1
102
RTVSPropertyOp9
 70
     1
102
RTVSPropertyOp10
 70
     1
102
RTVSPropertyOp11
 70
     1
102
RTVSPropertyOp12
 70
     1
102
RTVSPropertyOp13
 70
     1
102
RTVSPropertyOp14
 70
     1
102
RTVSPropertyOp15
 70
     1
102
RTVSPropertyOp16
 70
     1
102
RTVSPropertyOp17
 70
     1
102
RTVSPropertyOp18
 70
     1
102
RTVSPropertyOp19
 70
     1
102
RTVSPropertyOp20
 70
     1
102
RTVSPropertyOp21
 70
     1
102
RTVSPropertyOp22
 70
     1
102
RTVSPropertyOp23
 70
     1
102
RTVSPropertyOp24
 70
     1
102
RTVSPropertyOp25
 70
     1
102
RTVSPropertyOp26
 70
     1
102
RTVSPropertyOp27
 70
     1
102
RTVSPropertyOp28
 70
     1
102
RTVSPropertyOp29
 70
     1
102
RTVSPropertyOp30
 70
     1
102
RTVSPropertyOp31
 70
     1
102
RTVSPropertyOp32
 70
     1
  0
XRECORD
  5
5E
102
{ACAD_REACTORS
330
5D
102
}
330
5D
100
AcDbXrecord
280
     1
102
RTVSPropertyOp0
 70
     1
102
RTVSPropertyOp1
 70
     1
102
RTVSPropertyOp2
 70
     1
102
RTVSPropertyOp3
 70
     1
102
RTVSPropertyOp4
 70
     1
102
RTVSPropertyOp5
 70
     1
102
RTVSPropertyOp6
 70
     1
102
RTVSPropertyOp7
 70
     1
102
RTVSPropertyOp8
 70
     1
102
RTVSPropertyOp9
 70
     1
102
RTVSPropertyOp10
 70
     1
102
RTVSPropertyOp11
 70
     1
102
RTVSPropertyOp12
 70
     1
102
RTVSPropertyOp13
 70
     1
102
RTVSPropertyOp14
 70
     1
102
RTVSPropertyOp15
 70
     1
102
RTVSPropertyOp16
 70
     1
102
RTVSPropertyOp17
 70
     1
102
RTVSPropertyOp18
 70
     1
102
RTVSPropertyOp19
 70
     1
102
RTVSPropertyOp20
 70
     1
102
RTVSPropertyOp21
 70
     1
102
RTVSPropertyOp22
 70
     1
102
RTVSPropertyOp23
 70
     1
102
RTVSPropertyOp24
 70
     1
102
RTVSPropertyOp25
 70
     1
102
RTVSPropertyOp26
 70
     1
102
RTVSPropertyOp27
 70
     1
102
RTVSPropertyOp28
 70
     1
102
RTVSPropertyOp29
 70
     1
102
RTVSPropertyOp30
 70
     1
102
RTVSPropertyOp31
 70
     1
102
RTVSPropertyOp32
 70
     1
  0
XRECORD
  5
66
102
{ACAD_REACTORS
330
65
102
}
330
65
100
AcDbXrecord
280
     1
102
RTVSPropertyOp0
 70
     1
102
RTVSPropertyOp1
 70
     1
102
RTVSPropertyOp2
 70
     1
102
RTVSPropertyOp3
 70
     1
102
RTVSPropertyOp4
 70
     1
102
RTVSPropertyOp5
 70
     1
102
RTVSPropertyOp6
 70
     1
102
RTVSPropertyOp7
 70
     1
102
RTVSPropertyOp8
 70
     1
102
RTVSPropertyOp9
 70
     1
102
RTVSPropertyOp10
 70
     1
102
RTVSPropertyOp11
 70
     1
102
RTVSPropertyOp12
 70
     1
102
RTVSPropertyOp13
 70
     1
102
RTVSPropertyOp14
 70
     1
102
RTVSPropertyOp15
 70
     1
102
RTVSPropertyOp16
 70
     1
102
RTVSPropertyOp17
 70
     1
102
RTVSPropertyOp18
 70
     1
102
RTVSPropertyOp19
 70
     1
102
RTVSPropertyOp20
 70
     1
102
RTVSPropertyOp21
 70
     1
102
RTVSPropertyOp22
 70
     1
102
RTVSPropertyOp23
 70
     1
102
RTVSPropertyOp24
 70
     1
102
RTVSPropertyOp25
 70
     1
102
RTVSPropertyOp26
 70
     1
102
RTVSPropertyOp27
 70
     1
102
RTVSPropertyOp28
 70
     1
102
RTVSPropertyOp29
 70
     1
102
RTVSPropertyOp30
 70
     1
102
RTVSPropertyOp31
 70
     1
102
RTVSPropertyOp32
 70
     1
  0
XRECORD
  5
6E
102
{ACAD_REACTORS
330
6D
102
}
330
6D
100
AcDbXrecord
280
     1
102
RTVSPropertyOp0
 70
     1
102
RTVSPropertyOp1
 70
     1
102
RTVSPropertyOp2
 70
     1
102
RTVSPropertyOp3
 70
     1
102
RTVSPropertyOp4
 70
     1
102
RTVSPropertyOp5
 70
     1
102
RTVSPropertyOp6
 70
     1
102
RTVSPropertyOp7
 70
     1
102
RTVSPropertyOp8
 70
     1
102
RTVSPropertyOp9
 70
     1
102
RTVSPropertyOp10
 70
     1
102
RTVSPropertyOp11
 70
     1
102
RTVSPropertyOp12
 70
     1
102
RTVSPropertyOp13
 70
     1
102
RTVSPropertyOp14
 70
     1
102
RTVSPropertyOp15
 70
     1
102
RTVSPropertyOp16
 70
     1
102
RTVSPropertyOp17
 70
     1
102
RTVSPropertyOp18
 70
     1
102
RTVSPropertyOp19
 70
     1
102
RTVSPropertyOp20
 70
     1
102
RTVSPropertyOp21
 70
     1
102
RTVSPropertyOp22
 70
     1
102
RTVSPropertyOp23
 70
     1
102
RTVSPropertyOp24
 70
     1
102
RTVSPropertyOp25
 70
     1
102
RTVSPropertyOp26
 70
     1
102
RTVSPropertyOp27
 70
     1
102
RTVSPropertyOp28
 70
     1
102
RTVSPropertyOp29
 70
     1
102
RTVSPropertyOp30
 70
     1
102
RTVSPropertyOp31
 70
     1
102
RTVSPropertyOp32
 70
     1
  0
XRECORD
  5
62
102
{ACAD_REACTORS
330
61
102
}
330
61
100
AcDbXrecord
280
     1
102
RTVSPropertyOp0
 70
     1
102
RTVSPropertyOp1
 70
     1
102
RTVSPropertyOp2
 70
     1
102
RTVSPropertyOp3
 70
     1
102
RTVSPropertyOp4
 70
     1
102
RTVSPropertyOp5
 70
     1
102
RTVSPropertyOp6
 70
     1
102
RTVSPropertyOp7
 70
     1
102
RTVSPropertyOp8
 70
     1
102
RTVSPropertyOp9
 70
     1
102
RTVSPropertyOp10
 70
     1
102
RTVSPropertyOp11
 70
     1
102
RTVSPropertyOp12
 70
     1
102
RTVSPropertyOp13
 70
     1
102
RTVSPropertyOp14
 70
     1
102
RTVSPropertyOp15
 70
     1
102
RTVSPropertyOp16
 70
     1
102
RTVSPropertyOp17
 70
     1
102
RTVSPropertyOp18
 70
     1
102
RTVSPropertyOp19
 70
     1
102
RTVSPropertyOp20
 70
     1
102
RTVSPropertyOp21
 70
     1
102
RTVSPropertyOp22
 70
     1
102
RTVSPropertyOp23
 70
     1
102
RTVSPropertyOp24
 70
     1
102
RTVSPropertyOp25
 70
     1
102
RTVSPropertyOp26
 70
     1
102
RTVSPropertyOp27
 70
     1
102
RTVSPropertyOp28
 70
     1
102
RTVSPropertyOp29
 70
     1
102
RTVSPropertyOp30
 70
     1
102
RTVSPropertyOp31
 70
     1
102
RTVSPropertyOp32
 70
     1
  0
XRECORD
  5
64
102
{ACAD_REACTORS
330
63
102
}
330
63
100
AcDbXrecord
280
     1
102
RTVSPropertyOp0
 70
     1
102
RTVSPropertyOp1
 70
     1
102
RTVSPropertyOp2
 70
     1
102
RTVSPropertyOp3
 70
     1
102
RTVSPropertyOp4
 70
     1
102
RTVSPropertyOp5
 70
     1
102
RTVSPropertyOp6
 70
     1
102
RTVSPropertyOp7
 70
     1
102
RTVSPropertyOp8
 70
     1
102
RTVSPropertyOp9
 70
     1
102
RTVSPropertyOp10
 70
     1
102
RTVSPropertyOp11
 70
     1
102
RTVSPropertyOp12
 70
     1
102
RTVSPropertyOp13
 70
     1
102
RTVSPropertyOp14
 70
     1
102
RTVSPropertyOp15
 70
     1
102
RTVSPropertyOp16
 70
     1
102
RTVSPropertyOp17
 70
     1
102
RTVSPropertyOp18
 70
     1
102
RTVSPropertyOp19
 70
     1
102
RTVSPropertyOp20
 70
     1
102
RTVSPropertyOp21
 70
     1
102
RTVSPropertyOp22
 70
     1
102
RTVSPropertyOp23
 70
     1
102
RTVSPropertyOp24
 70
     1
102
RTVSPropertyOp25
 70
     1
102
RTVSPropertyOp26
 70
     1
102
RTVSPropertyOp27
 70
     1
102
RTVSPropertyOp28
 70
     1
102
RTVSPropertyOp29
 70
     1
102
RTVSPropertyOp30
 70
     1
102
RTVSPropertyOp31
 70
     1
102
RTVSPropertyOp32
 70
     1
  0
XRECORD
  5
6C
102
{ACAD_REACTORS
330
6B
102
}
330
6B
100
AcDbXrecord
280
     1
102
RTVSPropertyOp0
 70
     1
102
RTVSPropertyOp1
 70
     1
102
RTVSPropertyOp2
 70
     1
102
RTVSPropertyOp3
 70
     1
102
RTVSPropertyOp4
 70
     1
102
RTVSPropertyOp5
 70
     1
102
RTVSPropertyOp6
 70
     1
102
RTVSPropertyOp7
 70
     1
102
RTVSPropertyOp8
 70
     1
102
RTVSPropertyOp9
 70
     1
102
RTVSPropertyOp10
 70
     1
102
RTVSPropertyOp11
 70
     1
102
RTVSPropertyOp12
 70
     1
102
RTVSPropertyOp13
 70
     1
102
RTVSPropertyOp14
 70
     1
102
RTVSPropertyOp15
 70
     1
102
RTVSPropertyOp16
 70
     1
102
RTVSPropertyOp17
 70
     1
102
RTVSPropertyOp18
 70
     1
102
RTVSPropertyOp19
 70
     1
102
RTVSPropertyOp20
 70
     1
102
RTVSPropertyOp21
 70
     1
102
RTVSPropertyOp22
 70
     1
102
RTVSPropertyOp23
 70
     1
102
RTVSPropertyOp24
 70
     1
102
RTVSPropertyOp25
 70
     1
102
RTVSPropertyOp26
 70
     1
102
RTVSPropertyOp27
 70
     1
102
RTVSPropertyOp28
 70
     1
102
RTVSPropertyOp29
 70
     1
102
RTVSPropertyOp30
 70
     1
102
RTVSPropertyOp31
 70
     1
102
RTVSPropertyOp32
 70
     1
  0
XRECORD
  5
50
102
{ACAD_REACTORS
330
4F
102
}
330
4F
100
AcDbXrecord
280
     1
102
RTVSPropertyOp0
 70
     1
102
RTVSPropertyOp1
 70
     1
102
RTVSPropertyOp2
 70
     1
102
RTVSPropertyOp3
 70
     1
102
RTVSPropertyOp4
 70
     1
102
RTVSPropertyOp5
 70
     1
102
RTVSPropertyOp6
 70
     1
102
RTVSPropertyOp7
 70
     1
102
RTVSPropertyOp8
 70
     1
102
RTVSPropertyOp9
 70
     1
102
RTVSPropertyOp10
 70
     1
102
RTVSPropertyOp11
 70
     1
102
RTVSPropertyOp12
 70
     1
102
RTVSPropertyOp13
 70
     1
102
RTVSPropertyOp14
 70
     1
102
RTVSPropertyOp15
 70
     1
102
RTVSPropertyOp16
 70
     1
102
RTVSPropertyOp17
 70
     1
102
RTVSPropertyOp18
 70
     1
102
RTVSPropertyOp19
 70
     1
102
RTVSPropertyOp20
 70
     1
102
RTVSPropertyOp21
 70
     1
102
RTVSPropertyOp22
 70
     1
102
RTVSPropertyOp23
 70
     1
102
RTVSPropertyOp24
 70
     1
102
RTVSPropertyOp25
 70
     1
102
RTVSPropertyOp26
 70
     1
102
RTVSPropertyOp27
 70
     1
102
RTVSPropertyOp28
 70
     1
102
RTVSPropertyOp29
 70
     1
102
RTVSPropertyOp30
 70
     1
102
RTVSPropertyOp31
 70
     1
102
RTVSPropertyOp32
 70
     1
  0
XRECORD
  5
52
102
{ACAD_REACTORS
330
51
102
}
330
51
100
AcDbXrecord
280
     1
102
RTVSPropertyOp0
 70
     1
102
RTVSPropertyOp1
 70
     1
102
RTVSPropertyOp2
 70
     1
102
RTVSPropertyOp3
 70
     1
102
RTVSPropertyOp4
 70
     1
102
RTVSPropertyOp5
 70
     1
102
RTVSPropertyOp6
 70
     1
102
RTVSPropertyOp7
 70
     1
102
RTVSPropertyOp8
 70
     1
102
RTVSPropertyOp9
 70
     1
102
RTVSPropertyOp10
 70
     1
102
RTVSPropertyOp11
 70
     1
102
RTVSPropertyOp12
 70
     1
102
RTVSPropertyOp13
 70
     1
102
RTVSPropertyOp14
 70
     1
102
RTVSPropertyOp15
 70
     1
102
RTVSPropertyOp16
 70
     1
102
RTVSPropertyOp17
 70
     1
102
RTVSPropertyOp18
 70
     1
102
RTVSPropertyOp19
 70
     1
102
RTVSPropertyOp20
 70
     1
102
RTVSPropertyOp21
 70
     1
102
RTVSPropertyOp22
 70
     1
102
RTVSPropertyOp23
 70
     1
102
RTVSPropertyOp24
 70
     1
102
RTVSPropertyOp25
 70
     1
102
RTVSPropertyOp26
 70
     1
102
RTVSPropertyOp27
 70
     1
102
RTVSPropertyOp28
 70
     1
102
RTVSPropertyOp29
 70
     1
102
RTVSPropertyOp30
 70
     1
102
RTVSPropertyOp31
 70
     1
102
RTVSPropertyOp32
 70
     1
  0
XRECORD
  5
54
102
{ACAD_REACTORS
330
53
102
}
330
53
100
AcDbXrecord
280
     1
102
RTVSPropertyOp0
 70
     1
102
RTVSPropertyOp1
 70
     1
102
RTVSPropertyOp2
 70
     1
102
RTVSPropertyOp3
 70
     1
102
RTVSPropertyOp4
 70
     1
102
RTVSPropertyOp5
 70
     1
102
RTVSPropertyOp6
 70
     1
102
RTVSPropertyOp7
 70
     1
102
RTVSPropertyOp8
 70
     1
102
RTVSPropertyOp9
 70
     1
102
RTVSPropertyOp10
 70
     1
102
RTVSPropertyOp11
 70
     1
102
RTVSPropertyOp12
 70
     1
102
RTVSPropertyOp13
 70
     1
102
RTVSPropertyOp14
 70
     1
102
RTVSPropertyOp15
 70
     1
102
RTVSPropertyOp16
 70
     1
102
RTVSPropertyOp17
 70
     1
102
RTVSPropertyOp18
 70
     1
102
RTVSPropertyOp19
 70
     1
102
RTVSPropertyOp20
 70
     1
102
RTVSPropertyOp21
 70
     1
102
RTVSPropertyOp22
 70
     1
102
RTVSPropertyOp23
 70
     1
102
RTVSPropertyOp24
 70
     1
102
RTVSPropertyOp25
 70
     1
102
RTVSPropertyOp26
 70
     1
102
RTVSPropertyOp27
 70
     1
102
RTVSPropertyOp28
 70
     1
102
RTVSPropertyOp29
 70
     1
102
RTVSPropertyOp30
 70
     1
102
RTVSPropertyOp31
 70
     1
102
RTVSPropertyOp32
 70
     1
  0
XRECORD
  5
56
102
{ACAD_REACTORS
330
55
102
}
330
55
100
AcDbXrecord
280
     1
102
RTVSPropertyOp0
 70
     1
102
RTVSPropertyOp1
 70
     1
102
RTVSPropertyOp2
 70
     1
102
RTVSPropertyOp3
 70
     1
102
RTVSPropertyOp4
 70
     1
102
RTVSPropertyOp5
 70
     1
102
RTVSPropertyOp6
 70
     1
102
RTVSPropertyOp7
 70
     1
102
RTVSPropertyOp8
 70
     1
102
RTVSPropertyOp9
 70
     1
102
RTVSPropertyOp10
 70
     1
102
RTVSPropertyOp11
 70
     1
102
RTVSPropertyOp12
 70
     1
102
RTVSPropertyOp13
 70
     1
102
RTVSPropertyOp14
 70
     1
102
RTVSPropertyOp15
 70
     1
102
RTVSPropertyOp16
 70
     1
102
RTVSPropertyOp17
 70
     1
102
RTVSPropertyOp18
 70
     1
102
RTVSPropertyOp19
 70
     1
102
RTVSPropertyOp20
 70
     1
102
RTVSPropertyOp21
 70
     1
102
RTVSPropertyOp22
 70
     1
102
RTVSPropertyOp23
 70
     1
102
RTVSPropertyOp24
 70
     1
102
RTVSPropertyOp25
 70
     1
102
RTVSPropertyOp26
 70
     1
102
RTVSPropertyOp27
 70
     1
102
RTVSPropertyOp28
 70
     1
102
RTVSPropertyOp29
 70
     1
102
RTVSPropertyOp30
 70
     1
102
RTVSPropertyOp31
 70
     1
102
RTVSPropertyOp32
 70
     1
  0
XRECORD
  5
6A
102
{ACAD_REACTORS
330
69
102
}
330
69
100
AcDbXrecord
280
     1
102
RTVSPropertyOp0
 70
     1
102
RTVSPropertyOp1
 70
     1
102
RTVSPropertyOp2
 70
     1
102
RTVSPropertyOp3
 70
     1
102
RTVSPropertyOp4
 70
     1
102
RTVSPropertyOp5
 70
     1
102
RTVSPropertyOp6
 70
     1
102
RTVSPropertyOp7
 70
     1
102
RTVSPropertyOp8
 70
     1
102
RTVSPropertyOp9
 70
     1
102
RTVSPropertyOp10
 70
     1
102
RTVSPropertyOp11
 70
     1
102
RTVSPropertyOp12
 70
     1
102
RTVSPropertyOp13
 70
     1
102
RTVSPropertyOp14
 70
     1
102
RTVSPropertyOp15
 70
     1
102
RTVSPropertyOp16
 70
     1
102
RTVSPropertyOp17
 70
     1
102
RTVSPropertyOp18
 70
     1
102
RTVSPropertyOp19
 70
     1
102
RTVSPropertyOp20
 70
     1
102
RTVSPropertyOp21
 70
     1
102
RTVSPropertyOp22
 70
     1
102
RTVSPropertyOp23
 70
     1
102
RTVSPropertyOp24
 70
     1
102
RTVSPropertyOp25
 70
     1
102
RTVSPropertyOp26
 70
     1
102
RTVSPropertyOp27
 70
     1
102
RTVSPropertyOp28
 70
     1
102
RTVSPropertyOp29
 70
     1
102
RTVSPropertyOp30
 70
     1
102
RTVSPropertyOp31
 70
     1
102
RTVSPropertyOp32
 70
     1
  0
XRECORD
  5
60
102
{ACAD_REACTORS
330
5F
102
}
330
5F
100
AcDbXrecord
280
     1
102
RTVSPropertyOp0
 70
     1
102
RTVSPropertyOp1
 70
     1
102
RTVSPropertyOp2
 70
     1
102
RTVSPropertyOp3
 70
     1
102
RTVSPropertyOp4
 70
     1
102
RTVSPropertyOp5
 70
     1
102
RTVSPropertyOp6
 70
     1
102
RTVSPropertyOp7
 70
     1
102
RTVSPropertyOp8
 70
     1
102
RTVSPropertyOp9
 70
     1
102
RTVSPropertyOp10
 70
     1
102
RTVSPropertyOp11
 70
     1
102
RTVSPropertyOp12
 70
     1
102
RTVSPropertyOp13
 70
     1
102
RTVSPropertyOp14
 70
     1
102
RTVSPropertyOp15
 70
     1
102
RTVSPropertyOp16
 70
     1
102
RTVSPropertyOp17
 70
     1
102
RTVSPropertyOp18
 70
     1
102
RTVSPropertyOp19
 70
     1
102
RTVSPropertyOp20
 70
     1
102
RTVSPropertyOp21
 70
     1
102
RTVSPropertyOp22
 70
     1
102
RTVSPropertyOp23
 70
     1
102
RTVSPropertyOp24
 70
     1
102
RTVSPropertyOp25
 70
     1
102
RTVSPropertyOp26
 70
     1
102
RTVSPropertyOp27
 70
     1
102
RTVSPropertyOp28
 70
     1
102
RTVSPropertyOp29
 70
     1
102
RTVSPropertyOp30
 70
     1
102
RTVSPropertyOp31
 70
     1
102
RTVSPropertyOp32
 70
     1
  0
XRECORD
  5
68
102
{ACAD_REACTORS
330
67
102
}
330
67
100
AcDbXrecord
280
     1
102
RTVSPropertyOp0
 70
     1
102
RTVSPropertyOp1
 70
     1
102
RTVSPropertyOp2
 70
     1
102
RTVSPropertyOp3
 70
     1
102
RTVSPropertyOp4
 70
     1
102
RTVSPropertyOp5
 70
     1
102
RTVSPropertyOp6
 70
     1
102
RTVSPropertyOp7
 70
     1
102
RTVSPropertyOp8
 70
     1
102
RTVSPropertyOp9
 70
     1
102
RTVSPropertyOp10
 70
     1
102
RTVSPropertyOp11
 70
     1
102
RTVSPropertyOp12
 70
     1
102
RTVSPropertyOp13
 70
     1
102
RTVSPropertyOp14
 70
     1
102
RTVSPropertyOp15
 70
     1
102
RTVSPropertyOp16
 70
     1
102
RTVSPropertyOp17
 70
     1
102
RTVSPropertyOp18
 70
     1
102
RTVSPropertyOp19
 70
     1
102
RTVSPropertyOp20
 70
     1
102
RTVSPropertyOp21
 70
     1
102
RTVSPropertyOp22
 70
     1
102
RTVSPropertyOp23
 70
     1
102
RTVSPropertyOp24
 70
     1
102
RTVSPropertyOp25
 70
     1
102
RTVSPropertyOp26
 70
     1
102
RTVSPropertyOp27
 70
     1
102
RTVSPropertyOp28
 70
     1
102
RTVSPropertyOp29
 70
     1
102
RTVSPropertyOp30
 70
     1
102
RTVSPropertyOp31
 70
     1
102
RTVSPropertyOp32
 70
     1
  0
ENDSEC
  0
EOF
