  0
SECTION
  2
HEADER
  9
$ACADVER
  1
AC1021
  9
$ACADMAINTVER
 70
    25
  9
$DWGCODEPAGE
  3
ANSI_1256
  9
$INSBASE
 10
0.0
 20
0.0
 30
0.0
  9
$EXTMIN
 10
77.7753
 20
-106.4572
 30
0.0
  9
$EXTMAX
 10
196.8829
 20
131.7579
 30
0.0
  9
$LIMMIN
 10
0.0
 20
0.0
  9
$LIMMAX
 10
12.0
 20
9.0
  9
$ORTHOMODE
 70
     0
  9
$REGENMODE
 70
     1
  9
$FILLMODE
 70
     1
  9
$QTEXTMODE
 70
     0
  9
$MIRRTEXT
 70
     1
  9
$LTSCALE
 40
1.0
  9
$ATTMODE
 70
     1
  9
$TEXTSIZE
 40
0.2
  9
$TRACEWID
 40
0.05
  9
$TEXTSTYLE
  7
Standard
  9
$CLAYER
  8
0
  9
$CELTYPE
  6
ByLayer
  9
$CECOLOR
 62
   256
  9
$CELTSCALE
 40
1.0
  9
$DISPSILH
 70
     0
  9
$DIMSCALE
 40
1.0
  9
$DIMASZ
 40
0.18
  9
$DIMEXO
 40
0.0625
  9
$DIMDLI
 40
0.38
  9
$DIMRND
 40
0.0
  9
$DIMDLE
 40
0.0
  9
$DIMEXE
 40
0.18
  9
$DIMTP
 40
0.0
  9
$DIMTM
 40
0.0
  9
$DIMTXT
 40
0.18
  9
$DIMCEN
 40
0.09
  9
$DIMTSZ
 40
0.0
  9
$DIMTOL
 70
     0
  9
$DIMLIM
 70
     0
  9
$DIMTIH
 70
     1
  9
$DIMTOH
 70
     1
  9
$DIMSE1
 70
     0
  9
$DIMSE2
 70
     0
  9
$DIMTAD
 70
     0
  9
$DIMZIN
 70
     0
  9
$DIMBLK
  1

  9
$DIMASO
 70
     1
  9
$DIMSHO
 70
     1
  9
$DIMPOST
  1

  9
$DIMAPOST
  1

  9
$DIMALT
 70
     0
  9
$DIMALTD
 70
     2
  9
$DIMALTF
 40
25.4
  9
$DIMLFAC
 40
1.0
  9
$DIMTOFL
 70
     0
  9
$DIMTVP
 40
0.0
  9
$DIMTIX
 70
     0
  9
$DIMSOXD
 70
     0
  9
$DIMSAH
 70
     0
  9
$DIMBLK1
  1

  9
$DIMBLK2
  1

  9
$DIMSTYLE
  2
Standard
  9
$DIMCLRD
 70
     0
  9
$DIMCLRE
 70
     0
  9
$DIMCLRT
 70
     0
  9
$DIMTFAC
 40
1.0
  9
$DIMGAP
 40
0.09
  9
$DIMJUST
 70
     0
  9
$DIMSD1
 70
     0
  9
$DIMSD2
 70
     0
  9
$DIMTOLJ
 70
     1
  9
$DIMTZIN
 70
     0
  9
$DIMALTZ
 70
     0
  9
$DIMALTTZ
 70
     0
  9
$DIMUPT
 70
     0
  9
$DIMDEC
 70
     4
  9
$DIMTDEC
 70
     4
  9
$DIMALTU
 70
     2
  9
$DIMALTTD
 70
     2
  9
$DIMTXSTY
  7
Standard
  9
$DIMAUNIT
 70
     0
  9
$DIMADEC
 70
     0
  9
$DIMALTRND
 40
0.0
  9
$DIMAZIN
 70
     0
  9
$DIMDSEP
 70
    46
  9
$DIMATFIT
 70
     3
  9
$DIMFRAC
 70
     0
  9
$DIMLDRBLK
  1

  9
$DIMLUNIT
 70
     2
  9
$DIMLWD
 70
    -2
  9
$DIMLWE
 70
    -2
  9
$DIMTMOVE
 70
     0
  9
$DIMFXL
 40
1.0
  9
$DIMFXLON
 70
     0
  9
$DIMJOGANG
 40
0.7853981633974483
  9
$DIMTFILL
 70
     0
  9
$DIMTFILLCLR
 70
     0
  9
$DIMARCSYM
 70
     0
  9
$DIMLTYPE
  6

  9
$DIMLTEX1
  6

  9
$DIMLTEX2
  6

  9
$LUNITS
 70
     2
  9
$LUPREC
 70
     4
  9
$SKETCHINC
 40
0.1
  9
$FILLETRAD
 40
0.5
  9
$AUNITS
 70
     0
  9
$AUPREC
 70
     0
  9
$MENU
  1
.
  9
$ELEVATION
 40
0.0
  9
$PELEVATION
 40
0.0
  9
$THICKNESS
 40
0.0
  9
$LIMCHECK
 70
     0
  9
$CHAMFERA
 40
0.5
  9
$CHAMFERB
 40
0.5
  9
$CHAMFERC
 40
1.0
  9
$CHAMFERD
 40
0.0
  9
$SKPOLY
 70
     0
  9
$TDCREATE
 40
2458492.92262434
  9
$TDUCREATE
 40
2458492.755957674
  9
$TDUPDATE
 40
2458492.922624467
  9
$TDUUPDATE
 40
2458492.755957801
  9
$TDINDWG
 40
0.0000000116
  9
$TDUSRTIMER
 40
0.0000000116
  9
$USRTIMER
 70
     1
  9
$ANGBASE
 50
0.0
  9
$ANGDIR
 70
     0
  9
$PDMODE
 70
     0
  9
$PDSIZE
 40
0.0
  9
$PLINEWID
 40
0.0
  9
$SPLFRAME
 70
     0
  9
$SPLINETYPE
 70
     6
  9
$SPLINESEGS
 70
     8
  9
$HANDSEED
  5
86
  9
$SURFTAB1
 70
     6
  9
$SURFTAB2
 70
     6
  9
$SURFTYPE
 70
     6
  9
$SURFU
 70
     6
  9
$SURFV
 70
     6
  9
$UCSBASE
  2

  9
$UCSNAME
  2

  9
$UCSORG
 10
0.0
 20
0.0
 30
0.0
  9
$UCSXDIR
 10
1.0
 20
0.0
 30
0.0
  9
$UCSYDIR
 10
0.0
 20
1.0
 30
0.0
  9
$UCSORTHOREF
  2

  9
$UCSORTHOVIEW
 70
     0
  9
$UCSORGTOP
 10
0.0
 20
0.0
 30
0.0
  9
$UCSORGBOTTOM
 10
0.0
 20
0.0
 30
0.0
  9
$UCSORGLEFT
 10
0.0
 20
0.0
 30
0.0
  9
$UCSORGRIGHT
 10
0.0
 20
0.0
 30
0.0
  9
$UCSORGFRONT
 10
0.0
 20
0.0
 30
0.0
  9
$UCSORGBACK
 10
0.0
 20
0.0
 30
0.0
  9
$PUCSBASE
  2

  9
$PUCSNAME
  2

  9
$PUCSORG
 10
0.0
 20
0.0
 30
0.0
  9
$PUCSXDIR
 10
1.0
 20
0.0
 30
0.0
  9
$PUCSYDIR
 10
0.0
 20
1.0
 30
0.0
  9
$PUCSORTHOREF
  2

  9
$PUCSORTHOVIEW
 70
     0
  9
$PUCSORGTOP
 10
0.0
 20
0.0
 30
0.0
  9
$PUCSORGBOTTOM
 10
0.0
 20
0.0
 30
0.0
  9
$PUCSORGLEFT
 10
0.0
 20
0.0
 30
0.0
  9
$PUCSORGRIGHT
 10
0.0
 20
0.0
 30
0.0
  9
$PUCSORGFRONT
 10
0.0
 20
0.0
 30
0.0
  9
$PUCSORGBACK
 10
0.0
 20
0.0
 30
0.0
  9
$USERI1
 70
     0
  9
$USERI2
 70
     0
  9
$USERI3
 70
     0
  9
$USERI4
 70
     0
  9
$USERI5
 70
     0
  9
$USERR1
 40
0.0
  9
$USERR2
 40
0.0
  9
$USERR3
 40
0.0
  9
$USERR4
 40
0.0
  9
$USERR5
 40
0.0
  9
$WORLDVIEW
 70
     1
  9
$SHADEDGE
 70
     3
  9
$SHADEDIF
 70
    70
  9
$TILEMODE
 70
     1
  9
$MAXACTVP
 70
    64
  9
$PINSBASE
 10
0.0
 20
0.0
 30
0.0
  9
$PLIMCHECK
 70
     0
  9
$PEXTMIN
 10
1.000000000000000E+20
 20
1.000000000000000E+20
 30
1.000000000000000E+20
  9
$PEXTMAX
 10
-1.000000000000000E+20
 20
-1.000000000000000E+20
 30
-1.000000000000000E+20
  9
$PLIMMIN
 10
0.0
 20
0.0
  9
$PLIMMAX
 10
12.0
 20
9.0
  9
$UNITMODE
 70
     0
  9
$VISRETAIN
 70
     1
  9
$PLINEGEN
 70
     0
  9
$PSLTSCALE
 70
     1
  9
$TREEDEPTH
 70
  3020
  9
$CMLSTYLE
  2
Standard
  9
$CMLJUST
 70
     0
  9
$CMLSCALE
 40
1.0
  9
$PROXYGRAPHICS
 70
     1
  9
$MEASUREMENT
 70
     0
  9
$CELWEIGHT
370
    -1
  9
$ENDCAPS
280
     0
  9
$JOINSTYLE
280
     0
  9
$LWDISPLAY
290
     0
  9
$INSUNITS
 70
     4
  9
$HYPERLINKBASE
  1

  9
$STYLESHEET
  1

  9
$XEDIT
290
     1
  9
$CEPSNTYPE
380
     0
  9
$PSTYLEMODE
290
     1
  9
$FINGERPRINTGUID
  2
{9D4E6DCD-2468-4C33-BE41-7EFD19FF2D74}
  9
$VERSIONGUID
  2
{FAEB1C32-E019-11D5-929B-00C0DF256EC4}
  9
$EXTNAMES
290
     1
  9
$PSVPSCALE
 40
0.0
  9
$OLESTARTUP
290
     0
  9
$SORTENTS
280
   127
  9
$INDEXCTL
280
     0
  9
$HIDETEXT
280
     1
  9
$XCLIPFRAME
290
     0
  9
$HALOGAP
280
     0
  9
$OBSCOLOR
 70
   257
  9
$OBSLTYPE
280
     0
  9
$INTERSECTIONDISPLAY
280
     0
  9
$INTERSECTIONCOLOR
 70
   257
  9
$DIMASSOC
280
     2
  9
$PROJECTNAME
  1

  9
$CAMERADISPLAY
290
     0
  9
$LENSLENGTH
 40
50.0
  9
$CAMERAHEIGHT
 40
0.0
  9
$STEPSPERSEC
 40
2.0
  9
$STEPSIZE
 40
6.0
  9
$3DDWFPREC
 40
2.0
  9
$PSOLWIDTH
 40
0.25
  9
$PSOLHEIGHT
 40
4.0
  9
$LOFTANG1
 40
1.570796326794897
  9
$LOFTANG2
 40
1.570796326794897
  9
$LOFTMAG1
 40
0.0
  9
$LOFTMAG2
 40
0.0
  9
$LOFTPARAM
 70
     7
  9
$LOFTNORMALS
280
     1
  9
$LATITUDE
 40
37.795
  9
$LONGITUDE
 40
-122.394
  9
$NORTHDIRECTION
 40
0.0
  9
$TIMEZONE
 70
 -8000
  9
$LIGHTGLYPHDISPLAY
280
     1
  9
$TILEMODELIGHTSYNCH
280
     1
  9
$SOLIDHIST
280
     1
  9
$SHOWHIST
280
     1
  9
$DWFFRAME
280
     2
  9
$DGNFRAME
280
     2
  9
$REALWORLDSCALE
290
     1
  9
$INTERFERECOLOR
 62
   256
  9
$CSHADOW
280
     0
  9
$SHADOWPLANELOCATION
 40
0.0
  0
ENDSEC
  0
SECTION
  2
CLASSES
  0
CLASS
  1
ACDBDICTIONARYWDFLT
  2
AcDbDictionaryWithDefault
  3
ObjectDBX Classes
 90
        0
 91
        4
280
     0
281
     0
  0
CLASS
  1
VISUALSTYLE
  2
AcDbVisualStyle
  3
ObjectDBX Classes
 90
     4095
 91
        4
280
     0
281
     0
  0
CLASS
  1
MATERIAL
  2
AcDbMaterial
  3
ObjectDBX Classes
 90
     1153
 91
        4
280
     0
281
     0
  0
ENDSEC
  0
SECTION
  2
TABLES
  0
TABLE
  2
VPORT
  5
8
330
0
100
AcDbSymbolTable
 70
     1
  0
VPORT
  5
29
330
8
100
AcDbSymbolTableRecord
100
AcDbViewportTableRecord
  2
*Active
 70
     0
 10
0.0
 20
0.0
 11
1.0
 21
1.0
 12
10.42990654205607
 22
4.5
 13
0.0
 23
0.0
 14
0.5
 24
0.5
 15
0.5
 25
0.5
 16
0.0
 26
0.0
 36
1.0
 17
0.0
 27
0.0
 37
0.0
 40
9.0
 41
1.972972972850329
 42
50.0
 43
0.0
 44
0.0
 50
0.0
 51
0.0
 71
     0
 72
   100
 73
     1
 74
     3
 75
     0
 76
     0
 77
     0
 78
     0
281
     0
 65
     1
110
0.0
120
0.0
130
0.0
111
1.0
121
0.0
131
0.0
112
0.0
122
1.0
132
0.0
 79
     0
146
0.0
 60
     3
 61
     5
292
     1
282
     1
141
0.0
142
0.0
 63
   250
  0
ENDTAB
  0
TABLE
  2
LTYPE
  5
5
330
0
100
AcDbSymbolTable
 70
     1
  0
LTYPE
  5
14
330
5
100
AcDbSymbolTableRecord
100
AcDbLinetypeTableRecord
  2
ByBlock
 70
     0
  3

 72
    65
 73
     0
 40
0.0
  0
LTYPE
  5
15
330
5
100
AcDbSymbolTableRecord
100
AcDbLinetypeTableRecord
  2
ByLayer
 70
     0
  3

 72
    65
 73
     0
 40
0.0
  0
LTYPE
  5
16
330
5
100
AcDbSymbolTableRecord
100
AcDbLinetypeTableRecord
  2
Continuous
 70
     0
  3
Solid line
 72
    65
 73
     0
 40
0.0
  0
ENDTAB
  0
TABLE
  2
LAYER
  5
2
330
0
100
AcDbSymbolTable
 70
     2
  0
LAYER
  5
10
330
2
100
AcDbSymbolTableRecord
100
AcDbLayerTableRecord
  2
0
 70
     0
 62
     7
  6
Continuous
370
    -3
390
F
347
3E
  0
LAYER
  5
40
330
2
100
AcDbSymbolTableRecord
100
AcDbLayerTableRecord
  2
layer 1
 70
     0
 62
     7
  6
Continuous
370
    -3
390
F
347
3E
  0
ENDTAB
  0
TABLE
  2
STYLE
  5
3
330
0
100
AcDbSymbolTable
 70
     1
  0
STYLE
  5
11
330
3
100
AcDbSymbolTableRecord
100
AcDbTextStyleTableRecord
  2
Standard
 70
     0
 40
0.0
 41
1.0
 50
0.0
 71
     0
 42
0.2
  3
txt
  4

  0
ENDTAB
  0
TABLE
  2
VIEW
  5
6
330
0
100
AcDbSymbolTable
 70
     0
  0
ENDTAB
  0
TABLE
  2
UCS
  5
7
330
0
100
AcDbSymbolTable
 70
     0
  0
ENDTAB
  0
TABLE
  2
APPID
  5
9
330
0
100
AcDbSymbolTable
 70
     2
  0
APPID
  5
12
330
9
100
AcDbSymbolTableRecord
100
AcDbRegAppTableRecord
  2
ACAD
 70
     0
  0
APPID
  5
3F
330
9
100
AcDbSymbolTableRecord
100
AcDbRegAppTableRecord
  2
ODA
 70
     0
  0
ENDTAB
  0
TABLE
  2
DIMSTYLE
  5
A
330
0
100
AcDbSymbolTable
 70
     1
100
AcDbDimStyleTable
  0
DIMSTYLE
105
27
330
A
100
AcDbSymbolTableRecord
100
AcDbDimStyleTableRecord
  2
Standard
 70
     0
178
     0
340
11
  0
ENDTAB
  0
TABLE
  2
BLOCK_RECORD
  5
1
330
0
100
AcDbSymbolTable
 70
     1
  0
BLOCK_RECORD
  5
1F
330
1
100
AcDbSymbolTableRecord
100
AcDbBlockTableRecord
  2
*Model_Space
340
22
 70
     0
280
     1
281
     0
  0
BLOCK_RECORD
  5
1B
330
1
100
AcDbSymbolTableRecord
100
AcDbBlockTableRecord
  2
*Paper_Space
340
1E
 70
     0
280
     1
281
     0
  0
BLOCK_RECORD
  5
23
330
1
100
AcDbSymbolTableRecord
100
AcDbBlockTableRecord
  2
*Paper_Space0
340
26
 70
     0
280
     1
281
     0
  0
ENDTAB
  0
ENDSEC
  0
SECTION
  2
BLOCKS
  0
BLOCK
  5
20
330
1F
100
AcDbEntity
  8
0
100
AcDbBlockBegin
  2
*Model_Space
 70
     0
 10
0.0
 20
0.0
 30
0.0
  3
*Model_Space
  1

  0
ENDBLK
  5
21
330
1F
100
AcDbEntity
  8
0
100
AcDbBlockEnd
  0
BLOCK
  5
1C
330
1B
100
AcDbEntity
 67
     1
  8
0
100
AcDbBlockBegin
  2
*Paper_Space
 70
     0
 10
0.0
 20
0.0
 30
0.0
  3
*Paper_Space
  1

  0
ENDBLK
  5
1D
330
1B
100
AcDbEntity
 67
     1
  8
0
100
AcDbBlockEnd
  0
BLOCK
  5
24
330
23
100
AcDbEntity
  8
0
100
AcDbBlockBegin
  2
*Paper_Space0
 70
     0
 10
0.0
 20
0.0
 30
0.0
  3
*Paper_Space0
  1

  0
ENDBLK
  5
25
330
23
100
AcDbEntity
  8
0
100
AcDbBlockEnd
  0
ENDSEC
  0
SECTION
  2
ENTITIES
  0
SPLINE
  5
41
330
1F
100
AcDbEntity
  8
layer 1
 62
   250
100
AcDbSpline
210
0.0
220
0.0
230
1.0
 70
    11
 71
     3
 72
    20
 73
    16
 74
     0
 42
0.0000000001
 43
0.0000000001
 12
1.0
 22
0.0
 32
0.0
 13
1.0
 23
0.0
 33
0.0
 40
0.0
 40
0.0
 40
0.0
 40
0.0
 40
0.2
 40
0.2
 40
0.2
 40
0.2
 40
0.4
 40
0.4
 40
0.4
 40
0.4
 40
0.6
 40
0.6
 40
0.6
 40
0.6
 40
1.0
 40
1.0
 40
1.0
 40
1.0
 10
77.7753
 20
131.7579
 30
0.0
 10
77.7753
 20
131.7579
 30
0.0
 10
196.8829
 20
131.7579
 30
0.0
 10
196.8829
 20
131.7579
 30
0.0
 10
196.8829
 20
131.7579
 30
0.0
 10
196.8829
 20
131.7579
 30
0.0
 10
196.8829
 20
-106.4572
 30
0.0
 10
196.8829
 20
-106.4572
 30
0.0
 10
196.8829
 20
-106.4572
 30
0.0
 10
196.8829
 20
-106.4572
 30
0.0
 10
77.7753
 20
-106.4572
 30
0.0
 10
77.7753
 20
-106.4572
 30
0.0
 10
77.7753
 20
-106.4572
 30
0.0
 10
77.7753
 20
-106.4572
 30
0.0
 10
77.7753
 20
131.7579
 30
0.0
 10
77.7753
 20
131.7579
 30
0.0
  0
SPLINE
  5
42
330
1F
100
AcDbEntity
  8
layer 1
 62
     7
100
AcDbSpline
210
0.0
220
0.0
230
1.0
 70
    11
 71
     3
 72
    20
 73
    16
 74
     0
 42
0.0000000001
 43
0.0000000001
 12
1.0
 22
0.0
 32
0.0
 13
1.0
 23
0.0
 33
0.0
 40
0.0
 40
0.0
 40
0.0
 40
0.0
 40
0.2
 40
0.2
 40
0.2
 40
0.2
 40
0.4
 40
0.4
 40
0.4
 40
0.4
 40
0.6
 40
0.6
 40
0.6
 40
0.6
 40
1.0
 40
1.0
 40
1.0
 40
1.0
 10
113.625
 20
14.3937
 30
0.0
 10
117.0008
 20
14.2434
 30
0.0
 10
120.1111
 20
16.9417
 30
0.0
 10
121.7004
 20
18.5771
 30
0.0
 10
121.7004
 20
18.5771
 30
0.0
 10
124.6496
 20
21.6205
 30
0.0
 10
120.8517
 20
24.9634
 30
0.0
 10
118.7511
 20
21.4662
 30
0.0
 10
118.7511
 20
21.4662
 30
0.0
 10
117.7725
 20
19.8717
 30
0.0
 10
115.3037
 20
18.3497
 30
0.0
 10
114.1816
 20
18.6497
 30
0.0
 10
114.1816
 20
18.6497
 30
0.0
 10
111.7979
 20
19.1854
 30
0.0
 10
110.6758
 20
14.8524
 30
0.0
 10
113.625
 20
14.3937
 30
0.0
  0
SPLINE
  5
43
330
1F
100
AcDbEntity
  8
layer 1
 62
     7
100
AcDbSpline
210
0.0
220
0.0
230
1.0
 70
    11
 71
     3
 72
    28
 73
    24
 74
     0
 42
0.0000000001
 43
0.0000000001
 12
1.0
 22
0.0
 32
0.0
 13
1.0
 23
0.0
 33
0.0
 40
0.0
 40
0.0
 40
0.0
 40
0.0
 40
0.1428571428571428
 40
0.1428571428571428
 40
0.1428571428571428
 40
0.1428571428571428
 40
0.2857142857142857
 40
0.2857142857142857
 40
0.2857142857142857
 40
0.2857142857142857
 40
0.4285714285714285
 40
0.4285714285714285
 40
0.4285714285714285
 40
0.4285714285714285
 40
0.5714285714285714
 40
0.5714285714285714
 40
0.5714285714285714
 40
0.5714285714285714
 40
0.7142857142857143
 40
0.7142857142857143
 40
0.7142857142857143
 40
0.7142857142857143
 40
1.0
 40
1.0
 40
1.0
 40
1.0
 10
111.9419
 20
23.6735
 30
0.0
 10
112.5702
 20
26.6398
 30
0.0
 10
112.148
 20
30.5189
 30
0.0
 10
109.1988
 20
33.5579
 30
0.0
 10
109.1988
 20
33.5579
 30
0.0
 10
106.0387
 20
36.8189
 30
0.0
 10
103.1568
 20
32.495
 30
0.0
 10
106.2226
 20
30.4689
 30
0.0
 10
106.2226
 20
30.4689
 30
0.0
 10
108.6829
 20
28.8245
 30
0.0
 10
108.8128
 20
25.1409
 30
0.0
 10
107.695
 20
23.0104
 30
0.0
 10
107.695
 20
23.0104
 30
0.0
 10
101.644
 20
11.5459
 30
0.0
 10
81.8974
 20
21.693
 30
0.0
 10
87.5084
 20
40.6347
 30
0.0
 10
87.5084
 20
40.6347
 30
0.0
 10
89.2638
 20
45.295
 30
0.0
 10
85.0536
 20
45.8765
 30
0.0
 10
84.2136
 20
43.2145
 30
0.0
 10
84.2136
 20
43.2145
 30
0.0
 10
75.272
 20
14.9888
 30
0.0
 10
108.0092
 20
5.2408
 30
0.0
 10
111.9419
 20
23.6735
 30
0.0
  0
SPLINE
  5
44
330
1F
100
AcDbEntity
  8
layer 1
 62
     7
100
AcDbSpline
210
0.0
220
0.0
230
1.0
 70
    11
 71
     3
 72
    20
 73
    16
 74
     0
 42
0.0000000001
 43
0.0000000001
 12
1.0
 22
0.0
 32
0.0
 13
1.0
 23
0.0
 33
0.0
 40
0.0
 40
0.0
 40
0.0
 40
0.0
 40
0.2
 40
0.2
 40
0.2
 40
0.2
 40
0.4
 40
0.4
 40
0.4
 40
0.4
 40
0.6
 40
0.6
 40
0.6
 40
0.6
 40
1.0
 40
1.0
 40
1.0
 40
1.0
 10
109.1314
 20
53.3349
 30
0.0
 10
107.7671
 20
50.4551
 30
0.0
 10
111.6812
 20
48.8653
 30
0.0
 10
112.7135
 20
51.1998
 30
0.0
 10
112.7135
 20
51.1998
 30
0.0
 10
116.9241
 20
60.7844
 30
0.0
 10
116.4303
 20
68.0067
 30
0.0
 10
107.5874
 20
73.4849
 30
0.0
 10
107.5874
 20
73.4849
 30
0.0
 10
105.7423
 20
74.5158
 30
0.0
 10
103.6867
 20
71.041
 30
0.0
 10
105.9712
 20
69.6058
 30
0.0
 10
105.9712
 20
69.6058
 30
0.0
 10
112.3499
 20
65.572
 30
0.0
 10
112.431
 20
60.3299
 30
0.0
 10
109.1314
 20
53.3349
 30
0.0
  0
SPLINE
  5
45
330
1F
100
AcDbEntity
  8
layer 1
 62
     7
100
AcDbSpline
210
0.0
220
0.0
230
1.0
 70
    11
 71
     3
 72
    20
 73
    16
 74
     0
 42
0.0000000001
 43
0.0000000001
 12
1.0
 22
0.0
 32
0.0
 13
1.0
 23
0.0
 33
0.0
 40
0.0
 40
0.0
 40
0.0
 40
0.0
 40
0.2
 40
0.2
 40
0.2
 40
0.2
 40
0.4
 40
0.4
 40
0.4
 40
0.4
 40
0.6
 40
0.6
 40
0.6
 40
0.6
 40
1.0
 40
1.0
 40
1.0
 40
1.0
 10
106.1104
 20
59.717
 30
0.0
 10
102.1469
 20
60.4574
 30
0.0
 10
96.6301
 20
58.9583
 30
0.0
 10
93.4068
 20
56.0693
 30
0.0
 10
93.4068
 20
56.0693
 30
0.0
 10
90.952
 20
53.4806
 30
0.0
 10
93.9634
 20
50.9003
 30
0.0
 10
95.5844
 20
52.263
 30
0.0
 10
95.5844
 20
52.263
 30
0.0
 10
97.2942
 20
53.9257
 30
0.0
 10
102.1827
 20
55.8424
 30
0.0
 10
105.8006
 20
55.3879
 30
0.0
 10
105.8006
 20
55.3879
 30
0.0
 10
107.6544
 20
55.0792
 30
0.0
 10
108.9879
 20
59.1853
 30
0.0
 10
106.1104
 20
59.717
 30
0.0
  0
SPLINE
  5
46
330
1F
100
AcDbEntity
  8
layer 1
 62
     7
100
AcDbSpline
210
0.0
220
0.0
230
1.0
 70
    11
 71
     3
 72
    20
 73
    16
 74
     0
 42
0.0000000001
 43
0.0000000001
 12
1.0
 22
0.0
 32
0.0
 13
1.0
 23
0.0
 33
0.0
 40
0.0
 40
0.0
 40
0.0
 40
0.0
 40
0.2
 40
0.2
 40
0.2
 40
0.2
 40
0.4
 40
0.4
 40
0.4
 40
0.4
 40
0.6
 40
0.6
 40
0.6
 40
0.6
 40
1.0
 40
1.0
 40
1.0
 40
1.0
 10
102.0796
 20
73.6482
 30
0.0
 10
102.2186
 20
77.4818
 30
0.0
 10
98.5738
 20
77.1548
 30
0.0
 10
97.9722
 20
73.7117
 30
0.0
 10
97.9722
 20
73.7117
 30
0.0
 10
97.3167
 20
70.0146
 30
0.0
 10
97.4606
 20
67.0525
 30
0.0
 10
98.3045
 20
64.3184
 30
0.0
 10
98.3045
 20
64.3184
 30
0.0
 10
99.1705
 20
61.484
 30
0.0
 10
102.6046
 20
62.6105
 30
0.0
 10
102.0394
 20
65.036
 30
0.0
 10
102.0394
 20
65.036
 30
0.0
 10
101.707
 20
66.4806
 30
0.0
 10
101.6665
 20
70.9049
 30
0.0
 10
102.0796
 20
73.6482
 30
0.0
  0
SPLINE
  5
47
330
1F
100
AcDbEntity
  8
layer 1
 62
     7
100
AcDbSpline
210
0.0
220
0.0
230
1.0
 70
    11
 71
     3
 72
    20
 73
    16
 74
     0
 42
0.0000000001
 43
0.0000000001
 12
1.0
 22
0.0
 32
0.0
 13
1.0
 23
0.0
 33
0.0
 40
0.0
 40
0.0
 40
0.0
 40
0.0
 40
0.2
 40
0.2
 40
0.2
 40
0.2
 40
0.4
 40
0.4
 40
0.4
 40
0.4
 40
0.6
 40
0.6
 40
0.6
 40
0.6
 40
1.0
 40
1.0
 40
1.0
 40
1.0
 10
93.4743
 20
69.9871
 30
0.0
 10
95.5035
 20
71.0862
 30
0.0
 10
95.3687
 20
75.0016
 30
0.0
 10
92.4957
 20
74.1659
 30
0.0
 10
92.4957
 20
74.1659
 30
0.0
 10
74.9442
 20
65.195
 30
0.0
 10
89.039
 20
43.1512
 30
0.0
 10
93.7345
 20
40.3443
 30
0.0
 10
93.7345
 20
40.3443
 30
0.0
 10
96.545
 20
38.6725
 30
0.0
 10
98.6145
 20
41.8064
 30
0.0
 10
95.8578
 20
44.2049
 30
0.0
 10
95.8578
 20
44.2049
 30
0.0
 10
87.7513
 20
51.291
 30
0.0
 10
83.8998
 20
64.7998
 30
0.0
 10
93.4743
 20
69.9871
 30
0.0
  0
SPLINE
  5
48
330
1F
100
AcDbEntity
  8
layer 1
 62
     7
100
AcDbSpline
210
0.0
220
0.0
230
1.0
 70
    11
 71
     3
 72
    20
 73
    16
 74
     0
 42
0.0000000001
 43
0.0000000001
 12
1.0
 22
0.0
 32
0.0
 13
1.0
 23
0.0
 33
0.0
 40
0.0
 40
0.0
 40
0.0
 40
0.0
 40
0.2
 40
0.2
 40
0.2
 40
0.2
 40
0.4
 40
0.4
 40
0.4
 40
0.4
 40
0.6
 40
0.6
 40
0.6
 40
0.6
 40
1.0
 40
1.0
 40
1.0
 40
1.0
 10
100.2168
 20
41.0889
 30
0.0
 10
95.9162
 20
34.5071
 30
0.0
 10
96.0912
 20
26.1536
 30
0.0
 10
98.6769
 20
23.0648
 30
0.0
 10
98.6769
 20
23.0648
 30
0.0
 10
100.7102
 20
20.6304
 30
0.0
 10
103.1162
 20
24.1732
 30
0.0
 10
101.8324
 20
25.8812
 30
0.0
 10
101.8324
 20
25.8812
 30
0.0
 10
98.6769
 20
30.06
 30
0.0
 10
102.3626
 20
36.7736
 30
0.0
 10
103.1971
 20
37.764
 30
0.0
 10
103.1971
 20
37.764
 30
0.0
 10
105.8234
 20
40.8524
 30
0.0
 10
102.6046
 20
44.7411
 30
0.0
 10
100.2168
 20
41.0889
 30
0.0
  0
SPLINE
  5
49
330
1F
100
AcDbEntity
  8
layer 1
 62
     7
100
AcDbSpline
210
0.0
220
0.0
230
1.0
 70
    11
 71
     3
 72
    12
 73
     8
 74
     0
 42
0.0000000001
 43
0.0000000001
 12
1.0
 22
0.0
 32
0.0
 13
1.0
 23
0.0
 33
0.0
 40
0.0
 40
0.0
 40
0.0
 40
0.0
 40
0.3333333333333333
 40
0.3333333333333333
 40
0.3333333333333333
 40
0.3333333333333333
 40
1.0
 40
1.0
 40
1.0
 40
1.0
 10
84.7704
 20
75.0519
 30
0.0
 10
89.5334
 20
74.5203
 30
0.0
 10
90.8033
 20
81.4337
 30
0.0
 10
85.3315
 20
82.3789
 30
0.0
 10
85.3315
 20
82.3789
 30
0.0
 10
81.6325
 20
83.0871
 30
0.0
 10
80.4205
 20
75.5286
 30
0.0
 10
84.7704
 20
75.0519
 30
0.0
  0
SPLINE
  5
4A
330
1F
100
AcDbEntity
  8
layer 1
 62
     7
100
AcDbSpline
210
0.0
220
0.0
230
1.0
 70
    11
 71
     3
 72
   108
 73
   104
 74
     0
 42
0.0000000001
 43
0.0000000001
 12
1.0
 22
0.0
 32
0.0
 13
1.0
 23
0.0
 33
0.0
 40
0.0
 40
0.0
 40
0.0
 40
0.0
 40
0.037037037037037
 40
0.037037037037037
 40
0.037037037037037
 40
0.037037037037037
 40
0.0740740740740741
 40
0.0740740740740741
 40
0.0740740740740741
 40
0.0740740740740741
 40
0.1111111111111111
 40
0.1111111111111111
 40
0.1111111111111111
 40
0.1111111111111111
 40
0.1481481481481481
 40
0.1481481481481481
 40
0.1481481481481481
 40
0.1481481481481481
 40
0.1851851851851852
 40
0.1851851851851852
 40
0.1851851851851852
 40
0.1851851851851852
 40
0.2222222222222222
 40
0.2222222222222222
 40
0.2222222222222222
 40
0.2222222222222222
 40
0.2592592592592592
 40
0.2592592592592592
 40
0.2592592592592592
 40
0.2592592592592592
 40
0.2962962962962963
 40
0.2962962962962963
 40
0.2962962962962963
 40
0.2962962962962963
 40
0.3333333333333333
 40
0.3333333333333333
 40
0.3333333333333333
 40
0.3333333333333333
 40
0.3703703703703703
 40
0.3703703703703703
 40
0.3703703703703703
 40
0.3703703703703703
 40
0.4074074074074074
 40
0.4074074074074074
 40
0.4074074074074074
 40
0.4074074074074074
 40
0.4444444444444444
 40
0.4444444444444444
 40
0.4444444444444444
 40
0.4444444444444444
 40
0.4814814814814815
 40
0.4814814814814815
 40
0.4814814814814815
 40
0.4814814814814815
 40
0.5185185185185185
 40
0.5185185185185185
 40
0.5185185185185185
 40
0.5185185185185185
 40
0.5555555555555556
 40
0.5555555555555556
 40
0.5555555555555556
 40
0.5555555555555556
 40
0.5925925925925926
 40
0.5925925925925926
 40
0.5925925925925926
 40
0.5925925925925926
 40
0.6296296296296297
 40
0.6296296296296297
 40
0.6296296296296297
 40
0.6296296296296297
 40
0.6666666666666666
 40
0.6666666666666666
 40
0.6666666666666666
 40
0.6666666666666666
 40
0.7037037037037037
 40
0.7037037037037037
 40
0.7037037037037037
 40
0.7037037037037037
 40
0.7407407407407407
 40
0.7407407407407407
 40
0.7407407407407407
 40
0.7407407407407407
 40
0.7777777777777778
 40
0.7777777777777778
 40
0.7777777777777778
 40
0.7777777777777778
 40
0.8148148148148148
 40
0.8148148148148148
 40
0.8148148148148148
 40
0.8148148148148148
 40
0.8518518518518519
 40
0.8518518518518519
 40
0.8518518518518519
 40
0.8518518518518519
 40
0.8888888888888888
 40
0.8888888888888888
 40
0.8888888888888888
 40
0.8888888888888888
 40
0.9259259259259259
 40
0.9259259259259259
 40
0.9259259259259259
 40
0.9259259259259259
 40
1.0
 40
1.0
 40
1.0
 40
1.0
 10
118.2076
 20
121.2699
 30
0.0
 10
115.2991
 20
122.2693
 30
0.0
 10
115.2545
 20
120.5616
 30
0.0
 10
116.4303
 20
119.7165
 30
0.0
 10
116.4303
 20
119.7165
 30
0.0
 10
119.0252
 20
118.2724
 30
0.0
 10
118.8949
 20
116.5233
 30
0.0
 10
117.4765
 20
115.6103
 30
0.0
 10
117.4765
 20
115.6103
 30
0.0
 10
116.1162
 20
114.9019
 30
0.0
 10
115.0298
 20
115.9193
 30
0.0
 10
115.4158
 20
118.1449
 30
0.0
 10
115.4158
 20
118.1449
 30
0.0
 10
115.8696
 20
119.9435
 30
0.0
 10
112.6463
 20
121.8515
 30
0.0
 10
110.7072
 20
115.5606
 30
0.0
 10
110.7072
 20
115.5606
 30
0.0
 10
110.0742
 20
113.4848
 30
0.0
 10
107.695
 20
114.2657
 30
0.0
 10
108.1392
 20
116.5643
 30
0.0
 10
108.1392
 20
116.5643
 30
0.0
 10
108.7456
 20
120.5799
 30
0.0
 10
106.7076
 20
127.502
 30
0.0
 10
86.6334
 20
124.7587
 30
0.0
 10
86.6334
 20
124.7587
 30
0.0
 10
85.3765
 20
124.5908
 30
0.0
 10
84.5281
 20
124.5315
 30
0.0
 10
84.1733
 20
123.6958
 30
0.0
 10
84.1733
 20
123.6958
 30
0.0
 10
83.7517
 20
122.1012
 30
0.0
 10
86.1754
 20
123.0869
 30
0.0
 10
85.1206
 20
119.444
 30
0.0
 10
85.1206
 20
119.444
 30
0.0
 10
84.2452
 20
116.3917
 30
0.0
 10
84.9455
 20
103.6187
 30
0.0
 10
94.4937
 20
102.7103
 30
0.0
 10
94.4937
 20
102.7103
 30
0.0
 10
97.016
 20
102.5558
 30
0.0
 10
96.6076
 20
100.421
 30
0.0
 10
94.6368
 20
100.421
 30
0.0
 10
94.6368
 20
100.421
 30
0.0
 10
89.9283
 20
100.421
 30
0.0
 10
83.545
 20
99.8166
 30
0.0
 10
83.3836
 20
95.4243
 30
0.0
 10
83.3836
 20
95.4243
 30
0.0
 10
83.2668
 20
84.7589
 30
0.0
 10
98.1521
 20
77.9181
 30
0.0
 10
107.2775
 20
79.5899
 30
0.0
 10
107.2775
 20
79.5899
 30
0.0
 10
115.2723
 20
81.4155
 30
0.0
 10
112.6463
 20
89.6829
 30
0.0
 10
107.0983
 20
88.5381
 30
0.0
 10
107.0983
 20
88.5381
 30
0.0
 10
102.1469
 20
87.525
 30
0.0
 10
96.886
 20
85.6766
 30
0.0
 10
92.2717
 20
89.8372
 30
0.0
 10
92.2717
 20
89.8372
 30
0.0
 10
91.1132
 20
90.8774
 30
0.0
 10
92.3206
 20
92.1945
 30
0.0
 10
93.3755
 20
91.7902
 30
0.0
 10
93.3755
 20
91.7902
 30
0.0
 10
96.2127
 20
90.6729
 30
0.0
 10
100.9525
 20
89.3921
 30
0.0
 10
104.7052
 20
91.5815
 30
0.0
 10
104.7052
 20
91.5815
 30
0.0
 10
110.4735
 20
94.8518
 30
0.0
 10
100.8497
 20
102.9828
 30
0.0
 10
98.3941
 20
105.9532
 30
0.0
 10
98.3941
 20
105.9532
 30
0.0
 10
97.0566
 20
107.6248
 30
0.0
 10
96.8949
 20
110.1956
 30
0.0
 10
98.3763
 20
111.9491
 30
0.0
 10
98.3763
 20
111.9491
 30
0.0
 10
100.4457
 20
114.402
 30
0.0
 10
104.6562
 20
110.959
 30
0.0
 10
105.6213
 20
109.5147
 30
0.0
 10
105.6213
 20
109.5147
 30
0.0
 10
106.5909
 20
108.0883
 30
0.0
 10
112.2915
 20
102.5378
 30
0.0
 10
114.6076
 20
99.5669
 30
0.0
 10
114.6076
 20
99.5669
 30
0.0
 10
115.0298
 20
98.9581
 30
0.0
 10
116.2955
 20
98.8853
 30
0.0
 10
117.0008
 20
99.7938
 30
0.0
 10
117.0008
 20
99.7938
 30
0.0
 10
118.1899
 20
101.7743
 30
0.0
 10
118.9621
 20
105.2718
 30
0.0
 10
118.1182
 20
108.1605
 30
0.0
 10
118.1182
 20
108.1605
 30
0.0
 10
117.6154
 20
109.6054
 30
0.0
 10
119.55
 20
109.8506
 30
0.0
 10
120.0528
 20
108.942
 30
0.0
 10
120.0528
 20
108.942
 30
0.0
 10
121.0674
 20
106.8662
 30
0.0
 10
120.9909
 20
103.3732
 30
0.0
 10
119.7344
 20
98.4222
 30
0.0
 10
119.7344
 20
98.4222
 30
0.0
 10
116.7804
 20
88.2381
 30
0.0
 10
123.9449
 20
87.5477
 30
0.0
 10
125.2599
 20
94.3611
 30
0.0
 10
125.2599
 20
94.3611
 30
0.0
 10
128.5952
 20
111.3223
 30
0.0
 10
120.7036
 20
119.9072
 30
0.0
 10
118.2076
 20
121.2699
 30
0.0
  0
SPLINE
  5
4B
330
1F
100
AcDbEntity
  8
layer 1
 62
     7
100
AcDbSpline
210
0.0
220
0.0
230
1.0
 70
    11
 71
     3
 72
   152
 73
   148
 74
     0
 42
0.0000000001
 43
0.0000000001
 12
1.0
 22
0.0
 32
0.0
 13
1.0
 23
0.0
 33
0.0
 40
0.0
 40
0.0
 40
0.0
 40
0.0
 40
0.0263157894736842
 40
0.0263157894736842
 40
0.0263157894736842
 40
0.0263157894736842
 40
0.0526315789473684
 40
0.0526315789473684
 40
0.0526315789473684
 40
0.0526315789473684
 40
0.0789473684210526
 40
0.0789473684210526
 40
0.0789473684210526
 40
0.0789473684210526
 40
0.1052631578947368
 40
0.1052631578947368
 40
0.1052631578947368
 40
0.1052631578947368
 40
0.131578947368421
 40
0.131578947368421
 40
0.131578947368421
 40
0.131578947368421
 40
0.1578947368421053
 40
0.1578947368421053
 40
0.1578947368421053
 40
0.1578947368421053
 40
0.1842105263157895
 40
0.1842105263157895
 40
0.1842105263157895
 40
0.1842105263157895
 40
0.2105263157894737
 40
0.2105263157894737
 40
0.2105263157894737
 40
0.2105263157894737
 40
0.2368421052631579
 40
0.2368421052631579
 40
0.2368421052631579
 40
0.2368421052631579
 40
0.2631578947368421
 40
0.2631578947368421
 40
0.2631578947368421
 40
0.2631578947368421
 40
0.2894736842105263
 40
0.2894736842105263
 40
0.2894736842105263
 40
0.2894736842105263
 40
0.3157894736842105
 40
0.3157894736842105
 40
0.3157894736842105
 40
0.3157894736842105
 40
0.3421052631578947
 40
0.3421052631578947
 40
0.3421052631578947
 40
0.3421052631578947
 40
0.3684210526315789
 40
0.3684210526315789
 40
0.3684210526315789
 40
0.3684210526315789
 40
0.3947368421052632
 40
0.3947368421052632
 40
0.3947368421052632
 40
0.3947368421052632
 40
0.4210526315789473
 40
0.4210526315789473
 40
0.4210526315789473
 40
0.4210526315789473
 40
0.4473684210526316
 40
0.4473684210526316
 40
0.4473684210526316
 40
0.4473684210526316
 40
0.4736842105263158
 40
0.4736842105263158
 40
0.4736842105263158
 40
0.4736842105263158
 40
0.5
 40
0.5
 40
0.5
 40
0.5
 40
0.5263157894736842
 40
0.5263157894736842
 40
0.5263157894736842
 40
0.5263157894736842
 40
0.5526315789473685
 40
0.5526315789473685
 40
0.5526315789473685
 40
0.5526315789473685
 40
0.5789473684210527
 40
0.5789473684210527
 40
0.5789473684210527
 40
0.5789473684210527
 40
0.6052631578947368
 40
0.6052631578947368
 40
0.6052631578947368
 40
0.6052631578947368
 40
0.631578947368421
 40
0.631578947368421
 40
0.631578947368421
 40
0.631578947368421
 40
0.6578947368421053
 40
0.6578947368421053
 40
0.6578947368421053
 40
0.6578947368421053
 40
0.6842105263157895
 40
0.6842105263157895
 40
0.6842105263157895
 40
0.6842105263157895
 40
0.7105263157894737
 40
0.7105263157894737
 40
0.7105263157894737
 40
0.7105263157894737
 40
0.7368421052631579
 40
0.7368421052631579
 40
0.7368421052631579
 40
0.7368421052631579
 40
0.7631578947368421
 40
0.7631578947368421
 40
0.7631578947368421
 40
0.7631578947368421
 40
0.7894736842105263
 40
0.7894736842105263
 40
0.7894736842105263
 40
0.7894736842105263
 40
0.8157894736842105
 40
0.8157894736842105
 40
0.8157894736842105
 40
0.8157894736842105
 40
0.8421052631578947
 40
0.8421052631578947
 40
0.8421052631578947
 40
0.8421052631578947
 40
0.868421052631579
 40
0.868421052631579
 40
0.868421052631579
 40
0.868421052631579
 40
0.8947368421052632
 40
0.8947368421052632
 40
0.8947368421052632
 40
0.8947368421052632
 40
0.9210526315789473
 40
0.9210526315789473
 40
0.9210526315789473
 40
0.9210526315789473
 40
0.9473684210526315
 40
0.9473684210526315
 40
0.9473684210526315
 40
0.9473684210526315
 40
1.0
 40
1.0
 40
1.0
 40
1.0
 10
125.3901
 20
70.6142
 30
0.0
 10
123.8415
 20
80.3526
 30
0.0
 10
116.9603
 20
95.3425
 30
0.0
 10
104.885
 20
106.5937
 30
0.0
 10
104.885
 20
106.5937
 30
0.0
 10
104.1446
 20
107.2206
 30
0.0
 10
102.8919
 20
108.4243
 30
0.0
 10
102.4477
 20
109.1422
 30
0.0
 10
102.4477
 20
109.1422
 30
0.0
 10
102.4477
 20
109.1422
 30
0.0
 10
100.5305
 20
110.3319
 30
0.0
 10
99.6152
 20
110.3868
 30
0.0
 10
99.6152
 20
110.3868
 30
0.0
 10
97.8647
 20
110.4683
 30
0.0
 10
99.696
 20
108.1833
 30
0.0
 10
100.4682
 20
107.4978
 30
0.0
 10
100.4682
 20
107.4978
 30
0.0
 10
120.4661
 20
84.7589
 30
0.0
 10
122.0146
 20
68.179
 30
0.0
 10
124.5465
 20
52.9716
 30
0.0
 10
124.5465
 20
52.9716
 30
0.0
 10
124.9725
 20
49.8827
 30
0.0
 10
124.2634
 20
49.6285
 30
0.0
 10
123.2716
 20
50.991
 30
0.0
 10
123.2716
 20
50.991
 30
0.0
 10
122.5129
 20
52.2082
 30
0.0
 10
120.8517
 20
53.4806
 30
0.0
 10
119.7344
 20
54.3936
 30
0.0
 10
119.7344
 20
54.3936
 30
0.0
 10
117.4181
 20
56.2239
 30
0.0
 10
114.9533
 20
52.9534
 30
0.0
 10
117.4765
 20
50.9728
 30
0.0
 10
117.4765
 20
50.9728
 30
0.0
 10
118.8949
 20
49.9099
 30
0.0
 10
121.3142
 20
46.6667
 30
0.0
 10
122.5801
 20
45.3675
 30
0.0
 10
122.5801
 20
45.3675
 30
0.0
 10
126.4044
 20
41.4479
 30
0.0
 10
125.9512
 20
37.6096
 30
0.0
 10
131.8496
 20
32.8945
 30
0.0
 10
131.8496
 20
32.8945
 30
0.0
 10
133.0977
 20
31.8316
 30
0.0
 10
133.789
 20
29.6512
 30
0.0
 10
129.457
 20
31.2228
 30
0.0
 10
129.457
 20
31.2228
 30
0.0
 10
120.2951
 20
34.548
 30
0.0
 10
110.7428
 20
39.8716
 30
0.0
 10
105.693
 20
51.5047
 30
0.0
 10
105.693
 20
51.5047
 30
0.0
 10
104.8041
 20
53.5528
 30
0.0
 10
100.9889
 20
52.0721
 30
0.0
 10
102.5329
 20
49.1468
 30
0.0
 10
102.5329
 20
49.1468
 30
0.0
 10
107.6544
 20
39.4171
 30
0.0
 10
113.692
 20
32.2675
 30
0.0
 10
124.82
 20
28.3338
 30
0.0
 10
124.82
 20
28.3338
 30
0.0
 10
127.3431
 20
27.4255
 30
0.0
 10
131.9797
 20
25.7448
 30
0.0
 10
132.5454
 20
25.2904
 30
0.0
 10
132.5454
 20
25.2904
 30
0.0
 10
137.1781
 20
23.4649
 30
0.0
 10
139.1399
 20
31.682
 30
0.0
 10
140.6836
 20
35.1747
 30
0.0
 10
140.6836
 20
35.1747
 30
0.0
 10
140.9665
 20
36.5467
 30
0.0
 10
141.3706
 20
36.628
 30
0.0
 10
140.271
 20
36.8509
 30
0.0
 10
140.271
 20
36.8509
 30
0.0
 10
139.4943
 20
37.0008
 30
0.0
 10
136.8999
 20
37.4553
 30
0.0
 10
135.6339
 20
38.6812
 30
0.0
 10
135.6339
 20
38.6812
 30
0.0
 10
131.383
 20
43.2555
 30
0.0
 10
131.001
 20
46.7397
 30
0.0
 10
130.5075
 20
51.9812
 30
0.0
 10
130.5075
 20
51.9812
 30
0.0
 10
130.1889
 20
55.3429
 30
0.0
 10
131.1674
 20
57.4187
 30
0.0
 10
133.2907
 20
57.514
 30
0.0
 10
133.2907
 20
57.514
 30
0.0
 10
134.8258
 20
57.5774
 30
0.0
 10
138.4392
 20
55.7336
 30
0.0
 10
141.4562
 20
58.6951
 30
0.0
 10
141.4562
 20
58.6951
 30
0.0
 10
145.3746
 20
62.5422
 30
0.0
 10
145.9493
 20
70.3504
 30
0.0
 10
150.6806
 20
73.4575
 30
0.0
 10
150.6806
 20
73.4575
 30
0.0
 10
156.6866
 20
77.4004
 30
0.0
 10
160.8973
 20
72.7943
 30
0.0
 10
160.7308
 20
75.6195
 30
0.0
 10
160.7308
 20
75.6195
 30
0.0
 10
160.5471
 20
78.4452
 30
0.0
 10
148.9613
 20
82.5964
 30
0.0
 10
145.9493
 20
74.6386
 30
0.0
 10
145.9493
 20
74.6386
 30
0.0
 10
145.4283
 20
72.9942
 30
0.0
 10
144.1313
 20
73.0487
 30
0.0
 10
143.4266
 20
73.8844
 30
0.0
 10
143.4266
 20
73.8844
 30
0.0
 10
142.7353
 20
74.7069
 30
0.0
 10
142.4746
 20
77.9725
 30
0.0
 10
139.2381
 20
74.4704
 30
0.0
 10
139.2381
 20
74.4704
 30
0.0
 10
136.9984
 20
72.1126
 30
0.0
 10
135.5975
 20
65.9534
 30
0.0
 10
135.7323
 20
63.3646
 30
0.0
 10
135.7323
 20
63.3646
 30
0.0
 10
135.5305
 20
60.0212
 30
0.0
 10
130.1617
 20
60.5757
 30
0.0
 10
131.7062
 20
66.0534
 30
0.0
 10
131.7062
 20
66.0534
 30
0.0
 10
134.3589
 20
75.4923
 30
0.0
 10
141.2536
 20
84.0002
 30
0.0
 10
155.7078
 20
91.2995
 30
0.0
 10
155.7078
 20
91.2995
 30
0.0
 10
160.3449
 20
93.7346
 30
0.0
 10
171.2842
 20
101.5201
 30
0.0
 10
176.7651
 20
109.8506
 30
0.0
 10
176.7651
 20
109.8506
 30
0.0
 10
179.342
 20
113.748
 30
0.0
 10
176.6352
 20
112.2854
 30
0.0
 10
176.6352
 20
112.2854
 30
0.0
 10
176.6352
 20
112.2854
 30
0.0
 10
163.9946
 20
93.7346
 30
0.0
 10
140.9618
 20
93.1351
 30
0.0
 10
132.1189
 20
76.3922
 30
0.0
 10
132.1189
 20
76.3922
 30
0.0
 10
131.5669
 20
75.3287
 30
0.0
 10
130.934
 20
75.483
 30
0.0
 10
131.1358
 20
76.5465
 30
0.0
 10
131.1358
 20
76.5465
 30
0.0
 10
133.0977
 20
86.0533
 30
0.0
 10
136.5045
 20
91.8903
 30
0.0
 10
140.5133
 20
100.7842
 30
0.0
 10
140.5133
 20
100.7842
 30
0.0
 10
141.4964
 20
103.8229
 30
0.0
 10
138.2641
 20
104.7359
 30
0.0
 10
137.1419
 20
102.4559
 30
0.0
 10
137.1419
 20
102.4559
 30
0.0
 10
131.5939
 20
91.5815
 30
0.0
 10
127.4552
 20
82.5332
 30
0.0
 10
126.3645
 20
70.6142
 30
0.0
 10
126.3645
 20
70.6142
 30
0.0
 10
126.2969
 20
69.5511
 30
0.0
 10
125.583
 20
69.4056
 30
0.0
 10
125.3901
 20
70.6142
 30
0.0
  0
SPLINE
  5
4C
330
1F
100
AcDbEntity
  8
layer 1
 62
     7
100
AcDbSpline
210
0.0
220
0.0
230
1.0
 70
    11
 71
     3
 72
    12
 73
     8
 74
     0
 42
0.0000000001
 43
0.0000000001
 12
1.0
 22
0.0
 32
0.0
 13
1.0
 23
0.0
 33
0.0
 40
0.0
 40
0.0
 40
0.0
 40
0.0
 40
0.3333333333333333
 40
0.3333333333333333
 40
0.3333333333333333
 40
0.3333333333333333
 40
1.0
 40
1.0
 40
1.0
 40
1.0
 10
139.8266
 20
49.665
 30
0.0
 10
135.4769
 20
50.8821
 30
0.0
 10
134.2559
 20
44.9998
 30
0.0
 10
137.6894
 20
43.4056
 30
0.0
 10
137.6894
 20
43.4056
 30
0.0
 10
142.219
 20
41.2975
 30
0.0
 10
144.2705
 20
48.0203
 30
0.0
 10
139.8266
 20
49.665
 30
0.0
  0
SPLINE
  5
4D
330
1F
100
AcDbEntity
  8
layer 1
 62
     7
100
AcDbSpline
210
0.0
220
0.0
230
1.0
 70
    11
 71
     3
 72
    20
 73
    16
 74
     0
 42
0.0000000001
 43
0.0000000001
 12
1.0
 22
0.0
 32
0.0
 13
1.0
 23
0.0
 33
0.0
 40
0.0
 40
0.0
 40
0.0
 40
0.0
 40
0.2
 40
0.2
 40
0.2
 40
0.2
 40
0.4
 40
0.4
 40
0.4
 40
0.4
 40
0.6
 40
0.6
 40
0.6
 40
0.6
 40
1.0
 40
1.0
 40
1.0
 40
1.0
 10
131.0373
 20
105.1175
 30
0.0
 10
134.8975
 20
106.7164
 30
0.0
 10
139.4762
 20
106.8347
 30
0.0
 10
142.1247
 20
106.135
 30
0.0
 10
142.1247
 20
106.135
 30
0.0
 10
144.1625
 20
105.6081
 30
0.0
 10
145.4196
 20
109.7916
 30
0.0
 10
142.6138
 20
110.3958
 30
0.0
 10
142.6138
 20
110.3958
 30
0.0
 10
139.1353
 20
111.1545
 30
0.0
 10
133.4161
 20
110.5956
 30
0.0
 10
130.1889
 20
109.4509
 30
0.0
 10
130.1889
 20
109.4509
 30
0.0
 10
127.3115
 20
108.4608
 30
0.0
 10
128.9185
 20
104.2452
 30
0.0
 10
131.0373
 20
105.1175
 30
0.0
  0
SPLINE
  5
4E
330
1F
100
AcDbEntity
  8
layer 1
 62
     7
100
AcDbSpline
210
0.0
220
0.0
230
1.0
 70
    11
 71
     3
 72
    28
 73
    24
 74
     0
 42
0.0000000001
 43
0.0000000001
 12
1.0
 22
0.0
 32
0.0
 13
1.0
 23
0.0
 33
0.0
 40
0.0
 40
0.0
 40
0.0
 40
0.0
 40
0.1428571428571428
 40
0.1428571428571428
 40
0.1428571428571428
 40
0.1428571428571428
 40
0.2857142857142857
 40
0.2857142857142857
 40
0.2857142857142857
 40
0.2857142857142857
 40
0.4285714285714285
 40
0.4285714285714285
 40
0.4285714285714285
 40
0.4285714285714285
 40
0.5714285714285714
 40
0.5714285714285714
 40
0.5714285714285714
 40
0.5714285714285714
 40
0.7142857142857143
 40
0.7142857142857143
 40
0.7142857142857143
 40
0.7142857142857143
 40
1.0
 40
1.0
 40
1.0
 40
1.0
 10
139.5977
 20
127.166
 30
0.0
 10
136.0601
 20
128.3107
 30
0.0
 10
130.6872
 20
126.4894
 30
0.0
 10
129.143
 20
121.2426
 30
0.0
 10
129.143
 20
121.2426
 30
0.0
 10
127.2935
 20
114.9832
 30
0.0
 10
131.8994
 20
113.1028
 30
0.0
 10
133.7034
 20
115.9193
 30
0.0
 10
133.7034
 20
115.9193
 30
0.0
 10
135.4544
 20
118.6536
 30
0.0
 10
132.0381
 20
119.9072
 30
0.0
 10
133.9866
 20
122.3784
 30
0.0
 10
133.9866
 20
122.3784
 30
0.0
 10
137.1419
 20
126.4121
 30
0.0
 10
143.5297
 20
123.1412
 30
0.0
 10
141.218
 20
115.4559
 30
0.0
 10
141.218
 20
115.4559
 30
0.0
 10
140.4099
 20
112.6577
 30
0.0
 10
144.073
 20
111.3315
 30
0.0
 10
144.9347
 20
114.166
 30
0.0
 10
144.9347
 20
114.166
 30
0.0
 10
146.6226
 20
119.7165
 30
0.0
 10
145.1098
 20
125.4037
 30
0.0
 10
139.5977
 20
127.166
 30
0.0
  0
SPLINE
  5
4F
330
1F
100
AcDbEntity
  8
layer 1
 62
     7
100
AcDbSpline
210
0.0
220
0.0
230
1.0
 70
    11
 71
     3
 72
   108
 73
   104
 74
     0
 42
0.0000000001
 43
0.0000000001
 12
1.0
 22
0.0
 32
0.0
 13
1.0
 23
0.0
 33
0.0
 40
0.0
 40
0.0
 40
0.0
 40
0.0
 40
0.037037037037037
 40
0.037037037037037
 40
0.037037037037037
 40
0.037037037037037
 40
0.0740740740740741
 40
0.0740740740740741
 40
0.0740740740740741
 40
0.0740740740740741
 40
0.1111111111111111
 40
0.1111111111111111
 40
0.1111111111111111
 40
0.1111111111111111
 40
0.1481481481481481
 40
0.1481481481481481
 40
0.1481481481481481
 40
0.1481481481481481
 40
0.1851851851851852
 40
0.1851851851851852
 40
0.1851851851851852
 40
0.1851851851851852
 40
0.2222222222222222
 40
0.2222222222222222
 40
0.2222222222222222
 40
0.2222222222222222
 40
0.2592592592592592
 40
0.2592592592592592
 40
0.2592592592592592
 40
0.2592592592592592
 40
0.2962962962962963
 40
0.2962962962962963
 40
0.2962962962962963
 40
0.2962962962962963
 40
0.3333333333333333
 40
0.3333333333333333
 40
0.3333333333333333
 40
0.3333333333333333
 40
0.3703703703703703
 40
0.3703703703703703
 40
0.3703703703703703
 40
0.3703703703703703
 40
0.4074074074074074
 40
0.4074074074074074
 40
0.4074074074074074
 40
0.4074074074074074
 40
0.4444444444444444
 40
0.4444444444444444
 40
0.4444444444444444
 40
0.4444444444444444
 40
0.4814814814814815
 40
0.4814814814814815
 40
0.4814814814814815
 40
0.4814814814814815
 40
0.5185185185185185
 40
0.5185185185185185
 40
0.5185185185185185
 40
0.5185185185185185
 40
0.5555555555555556
 40
0.5555555555555556
 40
0.5555555555555556
 40
0.5555555555555556
 40
0.5925925925925926
 40
0.5925925925925926
 40
0.5925925925925926
 40
0.5925925925925926
 40
0.6296296296296297
 40
0.6296296296296297
 40
0.6296296296296297
 40
0.6296296296296297
 40
0.6666666666666666
 40
0.6666666666666666
 40
0.6666666666666666
 40
0.6666666666666666
 40
0.7037037037037037
 40
0.7037037037037037
 40
0.7037037037037037
 40
0.7037037037037037
 40
0.7407407407407407
 40
0.7407407407407407
 40
0.7407407407407407
 40
0.7407407407407407
 40
0.7777777777777778
 40
0.7777777777777778
 40
0.7777777777777778
 40
0.7777777777777778
 40
0.8148148148148148
 40
0.8148148148148148
 40
0.8148148148148148
 40
0.8148148148148148
 40
0.8518518518518519
 40
0.8518518518518519
 40
0.8518518518518519
 40
0.8518518518518519
 40
0.8888888888888888
 40
0.8888888888888888
 40
0.8888888888888888
 40
0.8888888888888888
 40
0.9259259259259259
 40
0.9259259259259259
 40
0.9259259259259259
 40
0.9259259259259259
 40
1.0
 40
1.0
 40
1.0
 40
1.0
 10
192.0589
 20
95.7601
 30
0.0
 10
190.1643
 20
100.6298
 30
0.0
 10
184.877
 20
97.3823
 30
0.0
 10
181.6491
 20
99.3486
 30
0.0
 10
181.6491
 20
99.3486
 30
0.0
 10
179.755
 20
100.5027
 30
0.0
 10
180.8457
 20
102.5558
 30
0.0
 10
182.6636
 20
102.292
 30
0.0
 10
182.6636
 20
102.292
 30
0.0
 10
185.7295
 20
101.8564
 30
0.0
 10
188.7777
 20
106.2712
 30
0.0
 10
189.3745
 20
109.3011
 30
0.0
 10
189.3745
 20
109.3011
 30
0.0
 10
190.2093
 20
113.5573
 30
0.0
 10
190.066
 20
115.842
 30
0.0
 10
189.0875
 20
121.7696
 30
0.0
 10
189.0875
 20
121.7696
 30
0.0
 10
187.7226
 20
127.6295
 30
0.0
 10
184.4907
 20
125.5219
 30
0.0
 10
183.3684
 20
124.4585
 30
0.0
 10
183.3684
 20
124.4585
 30
0.0
 10
180.9849
 20
122.7827
 30
0.0
 10
180.1365
 20
125.3675
 30
0.0
 10
174.3189
 20
123.6958
 30
0.0
 10
174.3189
 20
123.6958
 30
0.0
 10
163.6176
 20
120.6204
 30
0.0
 10
164.8386
 20
114.729
 30
0.0
 10
163.1507
 20
115.0287
 30
0.0
 10
163.1507
 20
115.0287
 30
0.0
 10
161.0135
 20
115.4149
 30
0.0
 10
161.4223
 20
116.755
 30
0.0
 10
162.3154
 20
121.715
 30
0.0
 10
162.3154
 20
121.715
 30
0.0
 10
163.4286
 20
127.9517
 30
0.0
 10
155.4478
 20
128.7922
 30
0.0
 10
150.0926
 20
118.49
 30
0.0
 10
150.0926
 20
118.49
 30
0.0
 10
146.2995
 20
111.2222
 30
0.0
 10
144.477
 20
105.2898
 30
0.0
 10
145.8862
 20
98.9036
 30
0.0
 10
145.8862
 20
98.9036
 30
0.0
 10
148.6965
 20
91.6043
 30
0.0
 10
154.2714
 20
97.4408
 30
0.0
 10
153.1493
 20
100.4752
 30
0.0
 10
153.1493
 20
100.4752
 30
0.0
 10
151.3539
 20
105.9625
 30
0.0
 10
152.4804
 20
107.4429
 30
0.0
 10
152.4804
 20
108.4875
 30
0.0
 10
152.4804
 20
108.4875
 30
0.0
 10
152.4804
 20
112.8214
 30
0.0
 10
156.9066
 20
115.1741
 30
0.0
 10
155.6719
 20
109.4509
 30
0.0
 10
155.6719
 20
109.4509
 30
0.0
 10
154.2714
 20
100.6298
 30
0.0
 10
160.5471
 20
97.1138
 30
0.0
 10
175.4636
 20
114.3204
 30
0.0
 10
175.4636
 20
114.3204
 30
0.0
 10
176.4467
 20
115.7646
 30
0.0
 10
178.0624
 20
117.4364
 30
0.0
 10
178.4844
 20
117.8997
 30
0.0
 10
178.4844
 20
117.8997
 30
0.0
 10
180.2441
 20
119.4894
 30
0.0
 10
181.6403
 20
118.7625
 30
0.0
 10
181.7886
 20
116.6007
 30
0.0
 10
181.7886
 20
116.6007
 30
0.0
 10
181.8603
 20
115.6103
 30
0.0
 10
180.949
 20
113.271
 30
0.0
 10
180.4235
 20
112.2306
 30
0.0
 10
180.4235
 20
112.2306
 30
0.0
 10
179.9122
 20
111.1952
 30
0.0
 10
178.4531
 20
108.7153
 30
0.0
 10
178.4531
 20
108.7153
 30
0.0
 10
178.4531
 20
108.7153
 30
0.0
 10
176.6352
 20
104.5359
 30
0.0
 10
171.967
 20
98.9944
 30
0.0
 10
167.3253
 20
95.7601
 30
0.0
 10
167.3253
 20
95.7601
 30
0.0
 10
165.3546
 20
94.3931
 30
0.0
 10
165.5158
 20
92.735
 30
0.0
 10
167.6484
 20
92.063
 30
0.0
 10
167.6484
 20
92.063
 30
0.0
 10
170.8895
 20
91.268
 30
0.0
 10
176.514
 20
91.8495
 30
0.0
 10
178.736
 20
92.363
 30
0.0
 10
178.736
 20
92.363
 30
0.0
 10
180.8457
 20
93.1259
 30
0.0
 10
181.7302
 20
91.4358
 30
0.0
 10
178.8796
 20
90.3094
 30
0.0
 10
178.8796
 20
90.3094
 30
0.0
 10
174.7855
 20
88.679
 30
0.0
 10
165.1843
 20
87.8568
 30
0.0
 10
162.9668
 20
89.1013
 30
0.0
 10
162.9668
 20
89.1013
 30
0.0
 10
160.0261
 20
90.7456
 30
0.0
 10
154.2714
 20
88.6199
 30
0.0
 10
156.3367
 20
85.5127
 30
0.0
 10
156.3367
 20
85.5127
 30
0.0
 10
159.3351
 20
81.0206
 30
0.0
 10
173.686
 20
80.9568
 30
0.0
 10
180.4235
 20
82.4786
 30
0.0
 10
180.4235
 20
82.4786
 30
0.0
 10
188.9886
 20
84.9132
 30
0.0
 10
193.9533
 20
90.8906
 30
0.0
 10
192.0589
 20
95.7601
 30
0.0
  0
SPLINE
  5
50
330
1F
100
AcDbEntity
  8
layer 1
 62
     7
100
AcDbSpline
210
0.0
220
0.0
230
1.0
 70
    11
 71
     3
 72
    20
 73
    16
 74
     0
 42
0.0000000001
 43
0.0000000001
 12
1.0
 22
0.0
 32
0.0
 13
1.0
 23
0.0
 33
0.0
 40
0.0
 40
0.0
 40
0.0
 40
0.0
 40
0.2
 40
0.2
 40
0.2
 40
0.2
 40
0.4
 40
0.4
 40
0.4
 40
0.4
 40
0.6
 40
0.6
 40
0.6
 40
0.6
 40
1.0
 40
1.0
 40
1.0
 40
1.0
 10
163.9541
 20
35.5335
 30
0.0
 10
159.8961
 20
32.131
 30
0.0
 10
162.3154
 20
31.5678
 30
0.0
 10
164.439
 20
33.1032
 30
0.0
 10
164.439
 20
33.1032
 30
0.0
 10
174.9114
 20
41.7702
 30
0.0
 10
181.5145
 20
53.9437
 30
0.0
 10
178.8394
 20
75.6107
 30
0.0
 10
178.8394
 20
75.6107
 30
0.0
 10
178.2825
 20
79.1897
 30
0.0
 10
174.4849
 20
77.1004
 30
0.0
 10
174.8128
 20
75.2513
 30
0.0
 10
174.8128
 20
75.2513
 30
0.0
 10
177.7125
 20
58.9583
 30
0.0
 10
175.3963
 20
47.7026
 30
0.0
 10
163.9541
 20
35.5335
 30
0.0
  0
SPLINE
  5
51
330
1F
100
AcDbEntity
  8
layer 1
 62
     7
100
AcDbSpline
210
0.0
220
0.0
230
1.0
 70
    11
 71
     3
 72
    28
 73
    24
 74
     0
 42
0.0000000001
 43
0.0000000001
 12
1.0
 22
0.0
 32
0.0
 13
1.0
 23
0.0
 33
0.0
 40
0.0
 40
0.0
 40
0.0
 40
0.0
 40
0.1428571428571428
 40
0.1428571428571428
 40
0.1428571428571428
 40
0.1428571428571428
 40
0.2857142857142857
 40
0.2857142857142857
 40
0.2857142857142857
 40
0.2857142857142857
 40
0.4285714285714285
 40
0.4285714285714285
 40
0.4285714285714285
 40
0.4285714285714285
 40
0.5714285714285714
 40
0.5714285714285714
 40
0.5714285714285714
 40
0.5714285714285714
 40
0.7142857142857143
 40
0.7142857142857143
 40
0.7142857142857143
 40
0.7142857142857143
 40
1.0
 40
1.0
 40
1.0
 40
1.0
 10
189.7787
 20
72.8533
 30
0.0
 10
192.9477
 20
73.3937
 30
0.0
 10
193.0152
 20
79.7893
 30
0.0
 10
189.9353
 20
78.2725
 30
0.0
 10
189.9353
 20
78.2725
 30
0.0
 10
188.333
 20
77.4866
 30
0.0
 10
187.9245
 20
76.3463
 30
0.0
 10
184.3242
 20
77.5093
 30
0.0
 10
184.3242
 20
77.5093
 30
0.0
 10
182.906
 20
77.9725
 30
0.0
 10
179.993
 20
76.4284
 30
0.0
 10
182.107
 20
74.4932
 30
0.0
 10
182.107
 20
74.4932
 30
0.0
 10
183.1618
 20
73.5844
 30
0.0
 10
182.6636
 20
72.1356
 30
0.0
 10
183.1127
 20
70.9682
 30
0.0
 10
183.1127
 20
70.9682
 30
0.0
 10
184.8406
 20
65.9761
 30
0.0
 10
190.3128
 20
68.0294
 30
0.0
 10
188.3962
 20
71.7589
 30
0.0
 10
188.3962
 20
71.7589
 30
0.0
 10
188.3153
 20
72.2491
 30
0.0
 10
188.8446
 20
72.749
 30
0.0
 10
189.7787
 20
72.8533
 30
0.0
  0
SPLINE
  5
52
330
1F
100
AcDbEntity
  8
layer 1
 62
     7
100
AcDbSpline
210
0.0
220
0.0
230
1.0
 70
    11
 71
     3
 72
    88
 73
    84
 74
     0
 42
0.0000000001
 43
0.0000000001
 12
1.0
 22
0.0
 32
0.0
 13
1.0
 23
0.0
 33
0.0
 40
0.0
 40
0.0
 40
0.0
 40
0.0
 40
0.0454545454545455
 40
0.0454545454545455
 40
0.0454545454545455
 40
0.0454545454545455
 40
0.0909090909090909
 40
0.0909090909090909
 40
0.0909090909090909
 40
0.0909090909090909
 40
0.1363636363636364
 40
0.1363636363636364
 40
0.1363636363636364
 40
0.1363636363636364
 40
0.1818181818181818
 40
0.1818181818181818
 40
0.1818181818181818
 40
0.1818181818181818
 40
0.2272727272727273
 40
0.2272727272727273
 40
0.2272727272727273
 40
0.2272727272727273
 40
0.2727272727272727
 40
0.2727272727272727
 40
0.2727272727272727
 40
0.2727272727272727
 40
0.3181818181818182
 40
0.3181818181818182
 40
0.3181818181818182
 40
0.3181818181818182
 40
0.3636363636363636
 40
0.3636363636363636
 40
0.3636363636363636
 40
0.3636363636363636
 40
0.4090909090909091
 40
0.4090909090909091
 40
0.4090909090909091
 40
0.4090909090909091
 40
0.4545454545454545
 40
0.4545454545454545
 40
0.4545454545454545
 40
0.4545454545454545
 40
0.5
 40
0.5
 40
0.5
 40
0.5
 40
0.5454545454545454
 40
0.5454545454545454
 40
0.5454545454545454
 40
0.5454545454545454
 40
0.5909090909090909
 40
0.5909090909090909
 40
0.5909090909090909
 40
0.5909090909090909
 40
0.6363636363636364
 40
0.6363636363636364
 40
0.6363636363636364
 40
0.6363636363636364
 40
0.6818181818181818
 40
0.6818181818181818
 40
0.6818181818181818
 40
0.6818181818181818
 40
0.7272727272727273
 40
0.7272727272727273
 40
0.7272727272727273
 40
0.7272727272727273
 40
0.7727272727272727
 40
0.7727272727272727
 40
0.7727272727272727
 40
0.7727272727272727
 40
0.8181818181818182
 40
0.8181818181818182
 40
0.8181818181818182
 40
0.8181818181818182
 40
0.8636363636363636
 40
0.8636363636363636
 40
0.8636363636363636
 40
0.8636363636363636
 40
0.9090909090909091
 40
0.9090909090909091
 40
0.9090909090909091
 40
0.9090909090909091
 40
1.0
 40
1.0
 40
1.0
 40
1.0
 10
189.6527
 20
59.1945
 30
0.0
 10
186.4028
 20
65.8172
 30
0.0
 10
179.4902
 20
59.9304
 30
0.0
 10
182.4394
 20
55.0339
 30
0.0
 10
182.4394
 20
55.0339
 30
0.0
 10
185.8687
 20
49.3742
 30
0.0
 10
187.9649
 20
43.2917
 30
0.0
 10
187.1167
 20
35.229
 30
0.0
 10
187.1167
 20
35.229
 30
0.0
 10
186.6006
 20
30.2324
 30
0.0
 10
182.1342
 20
31.5228
 30
0.0
 10
183.6557
 20
36.038
 30
0.0
 10
183.6557
 20
36.038
 30
0.0
 10
186.1425
 20
43.4419
 30
0.0
 10
181.088
 20
51.0455
 30
0.0
 10
177.8561
 20
44.9634
 30
0.0
 10
177.8561
 20
44.9634
 30
0.0
 10
170.2518
 20
30.6414
 30
0.0
 10
161.9564
 20
28.3338
 30
0.0
 10
158.7245
 20
29.6605
 30
0.0
 10
158.7245
 20
29.6605
 30
0.0
 10
158.1679
 20
29.8512
 30
0.0
 10
158.6615
 20
31.0684
 30
0.0
 10
156.7002
 20
29.6282
 30
0.0
 10
156.7002
 20
29.6282
 30
0.0
 10
154.5676
 20
27.8344
 30
0.0
 10
152.1528
 20
25.6993
 30
0.0
 10
151.4433
 20
27.2439
 30
0.0
 10
151.4433
 20
27.2439
 30
0.0
 10
150.7298
 20
28.7789
 30
0.0
 10
167.8907
 20
39.7943
 30
0.0
 10
170.4136
 20
51.8089
 30
0.0
 10
170.4136
 20
51.8089
 30
0.0
 10
171.9397
 20
59.0491
 30
0.0
 10
161.7771
 20
58.4226
 30
0.0
 10
156.7002
 20
54.0345
 30
0.0
 10
156.7002
 20
54.0345
 30
0.0
 10
155.1962
 20
52.7444
 30
0.0
 10
153.6204
 20
54.6932
 30
0.0
 10
155.9504
 20
56.9053
 30
0.0
 10
155.9504
 20
56.9053
 30
0.0
 10
157.8897
 20
58.5858
 30
0.0
 10
161.4806
 20
61.1429
 30
0.0
 10
167.3253
 20
60.403
 30
0.0
 10
167.3253
 20
60.403
 30
0.0
 10
172.568
 20
59.7667
 30
0.0
 10
172.281
 20
66.3534
 30
0.0
 10
168.6448
 20
67.834
 30
0.0
 10
168.6448
 20
67.834
 30
0.0
 10
156.0985
 20
72.44
 30
0.0
 10
132.6889
 20
46.3034
 30
0.0
 10
149.7111
 20
47.0756
 30
0.0
 10
149.7111
 20
47.0756
 30
0.0
 10
155.3938
 20
47.3299
 30
0.0
 10
155.991
 20
43.001
 30
0.0
 10
152.6197
 20
41.0343
 30
0.0
 10
152.6197
 20
41.0343
 30
0.0
 10
139.382
 20
33.2531
 30
0.0
 10
142.6138
 20
22.1565
 30
0.0
 10
136.7157
 20
22.0019
 30
0.0
 10
136.7157
 20
22.0019
 30
0.0
 10
131.5131
 20
21.8657
 30
0.0
 10
132.7877
 20
17.8958
 30
0.0
 10
136.9984
 20
16.8281
 30
0.0
 10
136.9984
 20
16.8281
 30
0.0
 10
155.376
 20
12.1816
 30
0.0
 10
168.9455
 20
19.013
 30
0.0
 10
172.5953
 20
28.7474
 30
0.0
 10
172.5953
 20
28.7474
 30
0.0
 10
173.3
 20
30.4231
 30
0.0
 10
175.1178
 20
30.7231
 30
0.0
 10
176.1052
 20
29.5061
 30
0.0
 10
176.1052
 20
29.5061
 30
0.0
 10
178.2063
 20
26.6171
 30
0.0
 10
177.4475
 20
23.0192
 30
0.0
 10
176.8775
 20
21.0888
 30
0.0
 10
176.8775
 20
21.0888
 30
0.0
 10
174.9114
 20
14.3937
 30
0.0
 10
183.8982
 20
15.0431
 30
0.0
 10
187.4126
 20
20.7848
 30
0.0
 10
187.4126
 20
20.7848
 30
0.0
 10
192.6019
 20
29.2971
 30
0.0
 10
194.9856
 20
48.3108
 30
0.0
 10
189.6527
 20
59.1945
 30
0.0
  0
SPLINE
  5
53
330
1F
100
AcDbEntity
  8
layer 1
 62
     7
100
AcDbSpline
210
0.0
220
0.0
230
1.0
 70
    11
 71
     3
 72
    20
 73
    16
 74
     0
 42
0.0000000001
 43
0.0000000001
 12
1.0
 22
0.0
 32
0.0
 13
1.0
 23
0.0
 33
0.0
 40
0.0
 40
0.0
 40
0.0
 40
0.0
 40
0.2
 40
0.2
 40
0.2
 40
0.2
 40
0.4
 40
0.4
 40
0.4
 40
0.4
 40
0.6
 40
0.6
 40
0.6
 40
0.6
 40
1.0
 40
1.0
 40
1.0
 40
1.0
 10
113.625
 20
-102.0601
 30
0.0
 10
117.0008
 20
-102.2106
 30
0.0
 10
120.1111
 20
-99.5122
 30
0.0
 10
121.7004
 20
-97.8768
 30
0.0
 10
121.7004
 20
-97.8768
 30
0.0
 10
124.6496
 20
-94.8335
 30
0.0
 10
120.8517
 20
-91.4906
 30
0.0
 10
118.7511
 20
-94.9878
 30
0.0
 10
118.7511
 20
-94.9878
 30
0.0
 10
117.7725
 20
-96.5821
 30
0.0
 10
115.3037
 20
-98.1042
 30
0.0
 10
114.1816
 20
-97.8042
 30
0.0
 10
114.1816
 20
-97.8042
 30
0.0
 10
111.7979
 20
-97.2686
 30
0.0
 10
110.6758
 20
-101.6015
 30
0.0
 10
113.625
 20
-102.0601
 30
0.0
  0
SPLINE
  5
54
330
1F
100
AcDbEntity
  8
layer 1
 62
     7
100
AcDbSpline
210
0.0
220
0.0
230
1.0
 70
    11
 71
     3
 72
    28
 73
    24
 74
     0
 42
0.0000000001
 43
0.0000000001
 12
1.0
 22
0.0
 32
0.0
 13
1.0
 23
0.0
 33
0.0
 40
0.0
 40
0.0
 40
0.0
 40
0.0
 40
0.1428571428571428
 40
0.1428571428571428
 40
0.1428571428571428
 40
0.1428571428571428
 40
0.2857142857142857
 40
0.2857142857142857
 40
0.2857142857142857
 40
0.2857142857142857
 40
0.4285714285714285
 40
0.4285714285714285
 40
0.4285714285714285
 40
0.4285714285714285
 40
0.5714285714285714
 40
0.5714285714285714
 40
0.5714285714285714
 40
0.5714285714285714
 40
0.7142857142857143
 40
0.7142857142857143
 40
0.7142857142857143
 40
0.7142857142857143
 40
1.0
 40
1.0
 40
1.0
 40
1.0
 10
111.9419
 20
-92.7804
 30
0.0
 10
112.5702
 20
-89.814
 30
0.0
 10
112.148
 20
-85.935
 30
0.0
 10
109.1988
 20
-82.8961
 30
0.0
 10
109.1988
 20
-82.8961
 30
0.0
 10
106.0387
 20
-79.635
 30
0.0
 10
103.1568
 20
-83.959
 30
0.0
 10
106.2226
 20
-85.9851
 30
0.0
 10
106.2226
 20
-85.9851
 30
0.0
 10
108.6829
 20
-87.6294
 30
0.0
 10
108.8128
 20
-91.3131
 30
0.0
 10
107.695
 20
-93.4434
 30
0.0
 10
107.695
 20
-93.4434
 30
0.0
 10
101.644
 20
-104.9081
 30
0.0
 10
81.8974
 20
-94.7608
 30
0.0
 10
87.5084
 20
-75.8192
 30
0.0
 10
87.5084
 20
-75.8192
 30
0.0
 10
89.2638
 20
-71.159
 30
0.0
 10
85.0536
 20
-70.5775
 30
0.0
 10
84.2136
 20
-73.2395
 30
0.0
 10
84.2136
 20
-73.2395
 30
0.0
 10
75.272
 20
-101.4651
 30
0.0
 10
108.0092
 20
-111.213
 30
0.0
 10
111.9419
 20
-92.7804
 30
0.0
  0
SPLINE
  5
55
330
1F
100
AcDbEntity
  8
layer 1
 62
     7
100
AcDbSpline
210
0.0
220
0.0
230
1.0
 70
    11
 71
     3
 72
    20
 73
    16
 74
     0
 42
0.0000000001
 43
0.0000000001
 12
1.0
 22
0.0
 32
0.0
 13
1.0
 23
0.0
 33
0.0
 40
0.0
 40
0.0
 40
0.0
 40
0.0
 40
0.2
 40
0.2
 40
0.2
 40
0.2
 40
0.4
 40
0.4
 40
0.4
 40
0.4
 40
0.6
 40
0.6
 40
0.6
 40
0.6
 40
1.0
 40
1.0
 40
1.0
 40
1.0
 10
109.1314
 20
-63.119
 30
0.0
 10
107.7671
 20
-65.9987
 30
0.0
 10
111.6812
 20
-67.5886
 30
0.0
 10
112.7135
 20
-65.2541
 30
0.0
 10
112.7135
 20
-65.2541
 30
0.0
 10
116.9241
 20
-55.6696
 30
0.0
 10
116.4303
 20
-48.4473
 30
0.0
 10
107.5874
 20
-42.9691
 30
0.0
 10
107.5874
 20
-42.9691
 30
0.0
 10
105.7423
 20
-41.9382
 30
0.0
 10
103.6867
 20
-45.413
 30
0.0
 10
105.9712
 20
-46.8482
 30
0.0
 10
105.9712
 20
-46.8482
 30
0.0
 10
112.3499
 20
-50.8819
 30
0.0
 10
112.431
 20
-56.1239
 30
0.0
 10
109.1314
 20
-63.119
 30
0.0
  0
SPLINE
  5
56
330
1F
100
AcDbEntity
  8
layer 1
 62
     7
100
AcDbSpline
210
0.0
220
0.0
230
1.0
 70
    11
 71
     3
 72
    20
 73
    16
 74
     0
 42
0.0000000001
 43
0.0000000001
 12
1.0
 22
0.0
 32
0.0
 13
1.0
 23
0.0
 33
0.0
 40
0.0
 40
0.0
 40
0.0
 40
0.0
 40
0.2
 40
0.2
 40
0.2
 40
0.2
 40
0.4
 40
0.4
 40
0.4
 40
0.4
 40
0.6
 40
0.6
 40
0.6
 40
0.6
 40
1.0
 40
1.0
 40
1.0
 40
1.0
 10
106.1104
 20
-56.737
 30
0.0
 10
102.1469
 20
-55.9966
 30
0.0
 10
96.6301
 20
-57.4957
 30
0.0
 10
93.4068
 20
-60.3847
 30
0.0
 10
93.4068
 20
-60.3847
 30
0.0
 10
90.952
 20
-62.9734
 30
0.0
 10
93.9634
 20
-65.5537
 30
0.0
 10
95.5844
 20
-64.1909
 30
0.0
 10
95.5844
 20
-64.1909
 30
0.0
 10
97.2942
 20
-62.5282
 30
0.0
 10
102.1827
 20
-60.6116
 30
0.0
 10
105.8006
 20
-61.0659
 30
0.0
 10
105.8006
 20
-61.0659
 30
0.0
 10
107.6544
 20
-61.3748
 30
0.0
 10
108.9879
 20
-57.2687
 30
0.0
 10
106.1104
 20
-56.737
 30
0.0
  0
SPLINE
  5
57
330
1F
100
AcDbEntity
  8
layer 1
 62
     7
100
AcDbSpline
210
0.0
220
0.0
230
1.0
 70
    11
 71
     3
 72
    20
 73
    16
 74
     0
 42
0.0000000001
 43
0.0000000001
 12
1.0
 22
0.0
 32
0.0
 13
1.0
 23
0.0
 33
0.0
 40
0.0
 40
0.0
 40
0.0
 40
0.0
 40
0.2
 40
0.2
 40
0.2
 40
0.2
 40
0.4
 40
0.4
 40
0.4
 40
0.4
 40
0.6
 40
0.6
 40
0.6
 40
0.6
 40
1.0
 40
1.0
 40
1.0
 40
1.0
 10
102.0796
 20
-42.8058
 30
0.0
 10
102.2186
 20
-38.9722
 30
0.0
 10
98.5738
 20
-39.2992
 30
0.0
 10
97.9722
 20
-42.7421
 30
0.0
 10
97.9722
 20
-42.7421
 30
0.0
 10
97.3167
 20
-46.4393
 30
0.0
 10
97.4606
 20
-49.4014
 30
0.0
 10
98.3045
 20
-52.1355
 30
0.0
 10
98.3045
 20
-52.1355
 30
0.0
 10
99.1705
 20
-54.9699
 30
0.0
 10
102.6046
 20
-53.8435
 30
0.0
 10
102.0394
 20
-51.4178
 30
0.0
 10
102.0394
 20
-51.4178
 30
0.0
 10
101.707
 20
-49.9734
 30
0.0
 10
101.6665
 20
-45.549
 30
0.0
 10
102.0796
 20
-42.8058
 30
0.0
  0
SPLINE
  5
58
330
1F
100
AcDbEntity
  8
layer 1
 62
     7
100
AcDbSpline
210
0.0
220
0.0
230
1.0
 70
    11
 71
     3
 72
    20
 73
    16
 74
     0
 42
0.0000000001
 43
0.0000000001
 12
1.0
 22
0.0
 32
0.0
 13
1.0
 23
0.0
 33
0.0
 40
0.0
 40
0.0
 40
0.0
 40
0.0
 40
0.2
 40
0.2
 40
0.2
 40
0.2
 40
0.4
 40
0.4
 40
0.4
 40
0.4
 40
0.6
 40
0.6
 40
0.6
 40
0.6
 40
1.0
 40
1.0
 40
1.0
 40
1.0
 10
93.4743
 20
-46.4668
 30
0.0
 10
95.5035
 20
-45.3676
 30
0.0
 10
95.3687
 20
-41.4522
 30
0.0
 10
92.4957
 20
-42.2881
 30
0.0
 10
92.4957
 20
-42.2881
 30
0.0
 10
74.9442
 20
-51.259
 30
0.0
 10
89.039
 20
-73.3028
 30
0.0
 10
93.7345
 20
-76.1097
 30
0.0
 10
93.7345
 20
-76.1097
 30
0.0
 10
96.545
 20
-77.7814
 30
0.0
 10
98.6145
 20
-74.6474
 30
0.0
 10
95.8578
 20
-72.2491
 30
0.0
 10
95.8578
 20
-72.2491
 30
0.0
 10
87.7513
 20
-65.163
 30
0.0
 10
83.8998
 20
-51.654
 30
0.0
 10
93.4743
 20
-46.4668
 30
0.0
  0
SPLINE
  5
59
330
1F
100
AcDbEntity
  8
layer 1
 62
     7
100
AcDbSpline
210
0.0
220
0.0
230
1.0
 70
    11
 71
     3
 72
    20
 73
    16
 74
     0
 42
0.0000000001
 43
0.0000000001
 12
1.0
 22
0.0
 32
0.0
 13
1.0
 23
0.0
 33
0.0
 40
0.0
 40
0.0
 40
0.0
 40
0.0
 40
0.2
 40
0.2
 40
0.2
 40
0.2
 40
0.4
 40
0.4
 40
0.4
 40
0.4
 40
0.6
 40
0.6
 40
0.6
 40
0.6
 40
1.0
 40
1.0
 40
1.0
 40
1.0
 10
100.2168
 20
-75.3651
 30
0.0
 10
95.9162
 20
-81.9467
 30
0.0
 10
96.0912
 20
-90.3002
 30
0.0
 10
98.6769
 20
-93.3892
 30
0.0
 10
98.6769
 20
-93.3892
 30
0.0
 10
100.7102
 20
-95.8235
 30
0.0
 10
103.1162
 20
-92.2807
 30
0.0
 10
101.8324
 20
-90.5727
 30
0.0
 10
101.8324
 20
-90.5727
 30
0.0
 10
98.6769
 20
-86.3938
 30
0.0
 10
102.3626
 20
-79.6804
 30
0.0
 10
103.1971
 20
-78.69
 30
0.0
 10
103.1971
 20
-78.69
 30
0.0
 10
105.8234
 20
-75.6016
 30
0.0
 10
102.6046
 20
-71.7129
 30
0.0
 10
100.2168
 20
-75.3651
 30
0.0
  0
SPLINE
  5
5A
330
1F
100
AcDbEntity
  8
layer 1
 62
     7
100
AcDbSpline
210
0.0
220
0.0
230
1.0
 70
    11
 71
     3
 72
    12
 73
     8
 74
     0
 42
0.0000000001
 43
0.0000000001
 12
1.0
 22
0.0
 32
0.0
 13
1.0
 23
0.0
 33
0.0
 40
0.0
 40
0.0
 40
0.0
 40
0.0
 40
0.3333333333333333
 40
0.3333333333333333
 40
0.3333333333333333
 40
0.3333333333333333
 40
1.0
 40
1.0
 40
1.0
 40
1.0
 10
84.7704
 20
-41.4019
 30
0.0
 10
89.5334
 20
-41.9337
 30
0.0
 10
90.8033
 20
-35.0202
 30
0.0
 10
85.3315
 20
-34.0751
 30
0.0
 10
85.3315
 20
-34.0751
 30
0.0
 10
81.6325
 20
-33.3667
 30
0.0
 10
80.4205
 20
-40.9253
 30
0.0
 10
84.7704
 20
-41.4019
 30
0.0
  0
SPLINE
  5
5B
330
1F
100
AcDbEntity
  8
layer 1
 62
     7
100
AcDbSpline
210
0.0
220
0.0
230
1.0
 70
    11
 71
     3
 72
   108
 73
   104
 74
     0
 42
0.0000000001
 43
0.0000000001
 12
1.0
 22
0.0
 32
0.0
 13
1.0
 23
0.0
 33
0.0
 40
0.0
 40
0.0
 40
0.0
 40
0.0
 40
0.037037037037037
 40
0.037037037037037
 40
0.037037037037037
 40
0.037037037037037
 40
0.0740740740740741
 40
0.0740740740740741
 40
0.0740740740740741
 40
0.0740740740740741
 40
0.1111111111111111
 40
0.1111111111111111
 40
0.1111111111111111
 40
0.1111111111111111
 40
0.1481481481481481
 40
0.1481481481481481
 40
0.1481481481481481
 40
0.1481481481481481
 40
0.1851851851851852
 40
0.1851851851851852
 40
0.1851851851851852
 40
0.1851851851851852
 40
0.2222222222222222
 40
0.2222222222222222
 40
0.2222222222222222
 40
0.2222222222222222
 40
0.2592592592592592
 40
0.2592592592592592
 40
0.2592592592592592
 40
0.2592592592592592
 40
0.2962962962962963
 40
0.2962962962962963
 40
0.2962962962962963
 40
0.2962962962962963
 40
0.3333333333333333
 40
0.3333333333333333
 40
0.3333333333333333
 40
0.3333333333333333
 40
0.3703703703703703
 40
0.3703703703703703
 40
0.3703703703703703
 40
0.3703703703703703
 40
0.4074074074074074
 40
0.4074074074074074
 40
0.4074074074074074
 40
0.4074074074074074
 40
0.4444444444444444
 40
0.4444444444444444
 40
0.4444444444444444
 40
0.4444444444444444
 40
0.4814814814814815
 40
0.4814814814814815
 40
0.4814814814814815
 40
0.4814814814814815
 40
0.5185185185185185
 40
0.5185185185185185
 40
0.5185185185185185
 40
0.5185185185185185
 40
0.5555555555555556
 40
0.5555555555555556
 40
0.5555555555555556
 40
0.5555555555555556
 40
0.5925925925925926
 40
0.5925925925925926
 40
0.5925925925925926
 40
0.5925925925925926
 40
0.6296296296296297
 40
0.6296296296296297
 40
0.6296296296296297
 40
0.6296296296296297
 40
0.6666666666666666
 40
0.6666666666666666
 40
0.6666666666666666
 40
0.6666666666666666
 40
0.7037037037037037
 40
0.7037037037037037
 40
0.7037037037037037
 40
0.7037037037037037
 40
0.7407407407407407
 40
0.7407407407407407
 40
0.7407407407407407
 40
0.7407407407407407
 40
0.7777777777777778
 40
0.7777777777777778
 40
0.7777777777777778
 40
0.7777777777777778
 40
0.8148148148148148
 40
0.8148148148148148
 40
0.8148148148148148
 40
0.8148148148148148
 40
0.8518518518518519
 40
0.8518518518518519
 40
0.8518518518518519
 40
0.8518518518518519
 40
0.8888888888888888
 40
0.8888888888888888
 40
0.8888888888888888
 40
0.8888888888888888
 40
0.9259259259259259
 40
0.9259259259259259
 40
0.9259259259259259
 40
0.9259259259259259
 40
1.0
 40
1.0
 40
1.0
 40
1.0
 10
118.2076
 20
4.816
 30
0.0
 10
115.2991
 20
5.8154
 30
0.0
 10
115.2545
 20
4.1076
 30
0.0
 10
116.4303
 20
3.2627
 30
0.0
 10
116.4303
 20
3.2627
 30
0.0
 10
119.0252
 20
1.8184
 30
0.0
 10
118.8949
 20
0.0694
 30
0.0
 10
117.4765
 20
-0.8437
 30
0.0
 10
117.4765
 20
-0.8437
 30
0.0
 10
116.1162
 20
-1.5521
 30
0.0
 10
115.0298
 20
-0.5347
 30
0.0
 10
115.4158
 20
1.6911
 30
0.0
 10
115.4158
 20
1.6911
 30
0.0
 10
115.8696
 20
3.4896
 30
0.0
 10
112.6463
 20
5.3975
 30
0.0
 10
110.7072
 20
-0.8934
 30
0.0
 10
110.7072
 20
-0.8934
 30
0.0
 10
110.0742
 20
-2.9692
 30
0.0
 10
107.695
 20
-2.1883
 30
0.0
 10
108.1392
 20
0.1105
 30
0.0
 10
108.1392
 20
0.1105
 30
0.0
 10
108.7456
 20
4.1259
 30
0.0
 10
106.7076
 20
11.0482
 30
0.0
 10
86.6334
 20
8.3047
 30
0.0
 10
86.6334
 20
8.3047
 30
0.0
 10
85.3765
 20
8.1368
 30
0.0
 10
84.5281
 20
8.0775
 30
0.0
 10
84.1733
 20
7.2418
 30
0.0
 10
84.1733
 20
7.2418
 30
0.0
 10
83.7517
 20
5.6472
 30
0.0
 10
86.1754
 20
6.6331
 30
0.0
 10
85.1206
 20
2.9902
 30
0.0
 10
85.1206
 20
2.9902
 30
0.0
 10
84.2452
 20
-0.0622
 30
0.0
 10
84.9455
 20
-12.8353
 30
0.0
 10
94.4937
 20
-13.7435
 30
0.0
 10
94.4937
 20
-13.7435
 30
0.0
 10
97.016
 20
-13.8982
 30
0.0
 10
96.6076
 20
-16.033
 30
0.0
 10
94.6368
 20
-16.033
 30
0.0
 10
94.6368
 20
-16.033
 30
0.0
 10
89.9283
 20
-16.033
 30
0.0
 10
83.545
 20
-16.6373
 30
0.0
 10
83.3836
 20
-21.0296
 30
0.0
 10
83.3836
 20
-21.0296
 30
0.0
 10
83.2668
 20
-31.6951
 30
0.0
 10
98.1521
 20
-38.5357
 30
0.0
 10
107.2775
 20
-36.8641
 30
0.0
 10
107.2775
 20
-36.8641
 30
0.0
 10
115.2723
 20
-35.0385
 30
0.0
 10
112.6463
 20
-26.771
 30
0.0
 10
107.0983
 20
-27.9159
 30
0.0
 10
107.0983
 20
-27.9159
 30
0.0
 10
102.1469
 20
-28.9289
 30
0.0
 10
96.886
 20
-30.7773
 30
0.0
 10
92.2717
 20
-26.6167
 30
0.0
 10
92.2717
 20
-26.6167
 30
0.0
 10
91.1132
 20
-25.5766
 30
0.0
 10
92.3206
 20
-24.2595
 30
0.0
 10
93.3755
 20
-24.6638
 30
0.0
 10
93.3755
 20
-24.6638
 30
0.0
 10
96.2127
 20
-25.7809
 30
0.0
 10
100.9525
 20
-27.0618
 30
0.0
 10
104.7052
 20
-24.8724
 30
0.0
 10
104.7052
 20
-24.8724
 30
0.0
 10
110.4735
 20
-21.6021
 30
0.0
 10
100.8497
 20
-13.471
 30
0.0
 10
98.3941
 20
-10.5008
 30
0.0
 10
98.3941
 20
-10.5008
 30
0.0
 10
97.0566
 20
-8.829
 30
0.0
 10
96.8949
 20
-6.2584
 30
0.0
 10
98.3763
 20
-4.5048
 30
0.0
 10
98.3763
 20
-4.5048
 30
0.0
 10
100.4457
 20
-2.052
 30
0.0
 10
104.6562
 20
-5.495
 30
0.0
 10
105.6213
 20
-6.9391
 30
0.0
 10
105.6213
 20
-6.9391
 30
0.0
 10
106.5909
 20
-8.3657
 30
0.0
 10
112.2915
 20
-13.9162
 30
0.0
 10
114.6076
 20
-16.887
 30
0.0
 10
114.6076
 20
-16.887
 30
0.0
 10
115.0298
 20
-17.4959
 30
0.0
 10
116.2955
 20
-17.5686
 30
0.0
 10
117.0008
 20
-16.6602
 30
0.0
 10
117.0008
 20
-16.6602
 30
0.0
 10
118.1899
 20
-14.6796
 30
0.0
 10
118.9621
 20
-11.1822
 30
0.0
 10
118.1182
 20
-8.2933
 30
0.0
 10
118.1182
 20
-8.2933
 30
0.0
 10
117.6154
 20
-6.8486
 30
0.0
 10
119.55
 20
-6.6034
 30
0.0
 10
120.0528
 20
-7.5119
 30
0.0
 10
120.0528
 20
-7.5119
 30
0.0
 10
121.0674
 20
-9.5877
 30
0.0
 10
120.9909
 20
-13.0808
 30
0.0
 10
119.7344
 20
-18.0318
 30
0.0
 10
119.7344
 20
-18.0318
 30
0.0
 10
116.7804
 20
-28.2159
 30
0.0
 10
123.9449
 20
-28.9061
 30
0.0
 10
125.2599
 20
-22.0928
 30
0.0
 10
125.2599
 20
-22.0928
 30
0.0
 10
128.5952
 20
-5.1316
 30
0.0
 10
120.7036
 20
3.4534
 30
0.0
 10
118.2076
 20
4.816
 30
0.0
  0
SPLINE
  5
5C
330
1F
100
AcDbEntity
  8
layer 1
 62
     7
100
AcDbSpline
210
0.0
220
0.0
230
1.0
 70
    11
 71
     3
 72
   152
 73
   148
 74
     0
 42
0.0000000001
 43
0.0000000001
 12
1.0
 22
0.0
 32
0.0
 13
1.0
 23
0.0
 33
0.0
 40
0.0
 40
0.0
 40
0.0
 40
0.0
 40
0.0263157894736842
 40
0.0263157894736842
 40
0.0263157894736842
 40
0.0263157894736842
 40
0.0526315789473684
 40
0.0526315789473684
 40
0.0526315789473684
 40
0.0526315789473684
 40
0.0789473684210526
 40
0.0789473684210526
 40
0.0789473684210526
 40
0.0789473684210526
 40
0.1052631578947368
 40
0.1052631578947368
 40
0.1052631578947368
 40
0.1052631578947368
 40
0.131578947368421
 40
0.131578947368421
 40
0.131578947368421
 40
0.131578947368421
 40
0.1578947368421053
 40
0.1578947368421053
 40
0.1578947368421053
 40
0.1578947368421053
 40
0.1842105263157895
 40
0.1842105263157895
 40
0.1842105263157895
 40
0.1842105263157895
 40
0.2105263157894737
 40
0.2105263157894737
 40
0.2105263157894737
 40
0.2105263157894737
 40
0.2368421052631579
 40
0.2368421052631579
 40
0.2368421052631579
 40
0.2368421052631579
 40
0.2631578947368421
 40
0.2631578947368421
 40
0.2631578947368421
 40
0.2631578947368421
 40
0.2894736842105263
 40
0.2894736842105263
 40
0.2894736842105263
 40
0.2894736842105263
 40
0.3157894736842105
 40
0.3157894736842105
 40
0.3157894736842105
 40
0.3157894736842105
 40
0.3421052631578947
 40
0.3421052631578947
 40
0.3421052631578947
 40
0.3421052631578947
 40
0.3684210526315789
 40
0.3684210526315789
 40
0.3684210526315789
 40
0.3684210526315789
 40
0.3947368421052632
 40
0.3947368421052632
 40
0.3947368421052632
 40
0.3947368421052632
 40
0.4210526315789473
 40
0.4210526315789473
 40
0.4210526315789473
 40
0.4210526315789473
 40
0.4473684210526316
 40
0.4473684210526316
 40
0.4473684210526316
 40
0.4473684210526316
 40
0.4736842105263158
 40
0.4736842105263158
 40
0.4736842105263158
 40
0.4736842105263158
 40
0.5
 40
0.5
 40
0.5
 40
0.5
 40
0.5263157894736842
 40
0.5263157894736842
 40
0.5263157894736842
 40
0.5263157894736842
 40
0.5526315789473685
 40
0.5526315789473685
 40
0.5526315789473685
 40
0.5526315789473685
 40
0.5789473684210527
 40
0.5789473684210527
 40
0.5789473684210527
 40
0.5789473684210527
 40
0.6052631578947368
 40
0.6052631578947368
 40
0.6052631578947368
 40
0.6052631578947368
 40
0.631578947368421
 40
0.631578947368421
 40
0.631578947368421
 40
0.631578947368421
 40
0.6578947368421053
 40
0.6578947368421053
 40
0.6578947368421053
 40
0.6578947368421053
 40
0.6842105263157895
 40
0.6842105263157895
 40
0.6842105263157895
 40
0.6842105263157895
 40
0.7105263157894737
 40
0.7105263157894737
 40
0.7105263157894737
 40
0.7105263157894737
 40
0.7368421052631579
 40
0.7368421052631579
 40
0.7368421052631579
 40
0.7368421052631579
 40
0.7631578947368421
 40
0.7631578947368421
 40
0.7631578947368421
 40
0.7631578947368421
 40
0.7894736842105263
 40
0.7894736842105263
 40
0.7894736842105263
 40
0.7894736842105263
 40
0.8157894736842105
 40
0.8157894736842105
 40
0.8157894736842105
 40
0.8157894736842105
 40
0.8421052631578947
 40
0.8421052631578947
 40
0.8421052631578947
 40
0.8421052631578947
 40
0.868421052631579
 40
0.868421052631579
 40
0.868421052631579
 40
0.868421052631579
 40
0.8947368421052632
 40
0.8947368421052632
 40
0.8947368421052632
 40
0.8947368421052632
 40
0.9210526315789473
 40
0.9210526315789473
 40
0.9210526315789473
 40
0.9210526315789473
 40
0.9473684210526315
 40
0.9473684210526315
 40
0.9473684210526315
 40
0.9473684210526315
 40
1.0
 40
1.0
 40
1.0
 40
1.0
 10
125.3901
 20
-45.8398
 30
0.0
 10
123.8415
 20
-36.1014
 30
0.0
 10
116.9603
 20
-21.1114
 30
0.0
 10
104.885
 20
-9.8601
 30
0.0
 10
104.885
 20
-9.8601
 30
0.0
 10
104.1446
 20
-9.2334
 30
0.0
 10
102.8919
 20
-8.0296
 30
0.0
 10
102.4477
 20
-7.3118
 30
0.0
 10
102.4477
 20
-7.3118
 30
0.0
 10
102.4477
 20
-7.3118
 30
0.0
 10
100.5305
 20
-6.122
 30
0.0
 10
99.6152
 20
-6.0672
 30
0.0
 10
99.6152
 20
-6.0672
 30
0.0
 10
97.8647
 20
-5.9857
 30
0.0
 10
99.696
 20
-8.2705
 30
0.0
 10
100.4682
 20
-8.9562
 30
0.0
 10
100.4682
 20
-8.9562
 30
0.0
 10
120.4661
 20
-31.6951
 30
0.0
 10
122.0146
 20
-48.2749
 30
0.0
 10
124.5465
 20
-63.4824
 30
0.0
 10
124.5465
 20
-63.4824
 30
0.0
 10
124.9725
 20
-66.5712
 30
0.0
 10
124.2634
 20
-66.8254
 30
0.0
 10
123.2716
 20
-65.463
 30
0.0
 10
123.2716
 20
-65.463
 30
0.0
 10
122.5129
 20
-64.2458
 30
0.0
 10
120.8517
 20
-62.9734
 30
0.0
 10
119.7344
 20
-62.0603
 30
0.0
 10
119.7344
 20
-62.0603
 30
0.0
 10
117.4181
 20
-60.23
 30
0.0
 10
114.9533
 20
-63.5006
 30
0.0
 10
117.4765
 20
-65.481
 30
0.0
 10
117.4765
 20
-65.481
 30
0.0
 10
118.8949
 20
-66.5439
 30
0.0
 10
121.3142
 20
-69.7873
 30
0.0
 10
122.5801
 20
-71.0864
 30
0.0
 10
122.5801
 20
-71.0864
 30
0.0
 10
126.4044
 20
-75.0061
 30
0.0
 10
125.9512
 20
-78.8443
 30
0.0
 10
131.8496
 20
-83.5594
 30
0.0
 10
131.8496
 20
-83.5594
 30
0.0
 10
133.0977
 20
-84.6223
 30
0.0
 10
133.789
 20
-86.8027
 30
0.0
 10
129.457
 20
-85.2311
 30
0.0
 10
129.457
 20
-85.2311
 30
0.0
 10
120.2951
 20
-81.906
 30
0.0
 10
110.7428
 20
-76.5824
 30
0.0
 10
105.693
 20
-64.9493
 30
0.0
 10
105.693
 20
-64.9493
 30
0.0
 10
104.8041
 20
-62.901
 30
0.0
 10
100.9889
 20
-64.3818
 30
0.0
 10
102.5329
 20
-67.3071
 30
0.0
 10
102.5329
 20
-67.3071
 30
0.0
 10
107.6544
 20
-77.0367
 30
0.0
 10
113.692
 20
-84.1865
 30
0.0
 10
124.82
 20
-88.1201
 30
0.0
 10
124.82
 20
-88.1201
 30
0.0
 10
127.3431
 20
-89.0283
 30
0.0
 10
131.9797
 20
-90.7091
 30
0.0
 10
132.5454
 20
-91.1634
 30
0.0
 10
132.5454
 20
-91.1634
 30
0.0
 10
137.1781
 20
-92.989
 30
0.0
 10
139.1399
 20
-84.7719
 30
0.0
 10
140.6836
 20
-81.2792
 30
0.0
 10
140.6836
 20
-81.2792
 30
0.0
 10
140.9665
 20
-79.9072
 30
0.0
 10
141.3706
 20
-79.8259
 30
0.0
 10
140.271
 20
-79.603
 30
0.0
 10
140.271
 20
-79.603
 30
0.0
 10
139.4943
 20
-79.4532
 30
0.0
 10
136.8999
 20
-78.9987
 30
0.0
 10
135.6339
 20
-77.7726
 30
0.0
 10
135.6339
 20
-77.7726
 30
0.0
 10
131.383
 20
-73.1985
 30
0.0
 10
131.001
 20
-69.7141
 30
0.0
 10
130.5075
 20
-64.4726
 30
0.0
 10
130.5075
 20
-64.4726
 30
0.0
 10
130.1889
 20
-61.1111
 30
0.0
 10
131.1674
 20
-59.0353
 30
0.0
 10
133.2907
 20
-58.9398
 30
0.0
 10
133.2907
 20
-58.9398
 30
0.0
 10
134.8258
 20
-58.8766
 30
0.0
 10
138.4392
 20
-60.7204
 30
0.0
 10
141.4562
 20
-57.7589
 30
0.0
 10
141.4562
 20
-57.7589
 30
0.0
 10
145.3746
 20
-53.9118
 30
0.0
 10
145.9493
 20
-46.1035
 30
0.0
 10
150.6806
 20
-42.9963
 30
0.0
 10
150.6806
 20
-42.9963
 30
0.0
 10
156.6866
 20
-39.0534
 30
0.0
 10
160.8973
 20
-43.6597
 30
0.0
 10
160.7308
 20
-40.8345
 30
0.0
 10
160.7308
 20
-40.8345
 30
0.0
 10
160.5471
 20
-38.0088
 30
0.0
 10
148.9613
 20
-33.8574
 30
0.0
 10
145.9493
 20
-41.8154
 30
0.0
 10
145.9493
 20
-41.8154
 30
0.0
 10
145.4283
 20
-43.4598
 30
0.0
 10
144.1313
 20
-43.4052
 30
0.0
 10
143.4266
 20
-42.5695
 30
0.0
 10
143.4266
 20
-42.5695
 30
0.0
 10
142.7353
 20
-41.7469
 30
0.0
 10
142.4746
 20
-38.4815
 30
0.0
 10
139.2381
 20
-41.9834
 30
0.0
 10
139.2381
 20
-41.9834
 30
0.0
 10
136.9984
 20
-44.3412
 30
0.0
 10
135.5975
 20
-50.5006
 30
0.0
 10
135.7323
 20
-53.0893
 30
0.0
 10
135.7323
 20
-53.0893
 30
0.0
 10
135.5305
 20
-56.4328
 30
0.0
 10
130.1617
 20
-55.8783
 30
0.0
 10
131.7062
 20
-50.4006
 30
0.0
 10
131.7062
 20
-50.4006
 30
0.0
 10
134.3589
 20
-40.9615
 30
0.0
 10
141.2536
 20
-32.4538
 30
0.0
 10
155.7078
 20
-25.1544
 30
0.0
 10
155.7078
 20
-25.1544
 30
0.0
 10
160.3449
 20
-22.7194
 30
0.0
 10
171.2842
 20
-14.9339
 30
0.0
 10
176.7651
 20
-6.6034
 30
0.0
 10
176.7651
 20
-6.6034
 30
0.0
 10
179.342
 20
-2.706
 30
0.0
 10
176.6352
 20
-4.1686
 30
0.0
 10
176.6352
 20
-4.1686
 30
0.0
 10
176.6352
 20
-4.1686
 30
0.0
 10
163.9946
 20
-22.7194
 30
0.0
 10
140.9618
 20
-23.3188
 30
0.0
 10
132.1189
 20
-40.0618
 30
0.0
 10
132.1189
 20
-40.0618
 30
0.0
 10
131.5669
 20
-41.1252
 30
0.0
 10
130.934
 20
-40.9708
 30
0.0
 10
131.1358
 20
-39.9074
 30
0.0
 10
131.1358
 20
-39.9074
 30
0.0
 10
133.0977
 20
-30.4007
 30
0.0
 10
136.5045
 20
-24.5637
 30
0.0
 10
140.5133
 20
-15.6698
 30
0.0
 10
140.5133
 20
-15.6698
 30
0.0
 10
141.4964
 20
-12.6311
 30
0.0
 10
138.2641
 20
-11.7181
 30
0.0
 10
137.1419
 20
-13.998
 30
0.0
 10
137.1419
 20
-13.998
 30
0.0
 10
131.5939
 20
-24.8724
 30
0.0
 10
127.4552
 20
-33.9207
 30
0.0
 10
126.3645
 20
-45.8398
 30
0.0
 10
126.3645
 20
-45.8398
 30
0.0
 10
126.2969
 20
-46.9027
 30
0.0
 10
125.583
 20
-47.0484
 30
0.0
 10
125.3901
 20
-45.8398
 30
0.0
  0
SPLINE
  5
5D
330
1F
100
AcDbEntity
  8
layer 1
 62
     7
100
AcDbSpline
210
0.0
220
0.0
230
1.0
 70
    11
 71
     3
 72
    12
 73
     8
 74
     0
 42
0.0000000001
 43
0.0000000001
 12
1.0
 22
0.0
 32
0.0
 13
1.0
 23
0.0
 33
0.0
 40
0.0
 40
0.0
 40
0.0
 40
0.0
 40
0.3333333333333333
 40
0.3333333333333333
 40
0.3333333333333333
 40
0.3333333333333333
 40
1.0
 40
1.0
 40
1.0
 40
1.0
 10
139.8266
 20
-66.7889
 30
0.0
 10
135.4769
 20
-65.5719
 30
0.0
 10
134.2559
 20
-71.4542
 30
0.0
 10
137.6894
 20
-73.0483
 30
0.0
 10
137.6894
 20
-73.0483
 30
0.0
 10
142.219
 20
-75.1564
 30
0.0
 10
144.2705
 20
-68.4337
 30
0.0
 10
139.8266
 20
-66.7889
 30
0.0
  0
SPLINE
  5
5E
330
1F
100
AcDbEntity
  8
layer 1
 62
     7
100
AcDbSpline
210
0.0
220
0.0
230
1.0
 70
    11
 71
     3
 72
    20
 73
    16
 74
     0
 42
0.0000000001
 43
0.0000000001
 12
1.0
 22
0.0
 32
0.0
 13
1.0
 23
0.0
 33
0.0
 40
0.0
 40
0.0
 40
0.0
 40
0.0
 40
0.2
 40
0.2
 40
0.2
 40
0.2
 40
0.4
 40
0.4
 40
0.4
 40
0.4
 40
0.6
 40
0.6
 40
0.6
 40
0.6
 40
1.0
 40
1.0
 40
1.0
 40
1.0
 10
131.0373
 20
-11.3365
 30
0.0
 10
134.8975
 20
-9.7376
 30
0.0
 10
139.4762
 20
-9.6193
 30
0.0
 10
142.1247
 20
-10.3188
 30
0.0
 10
142.1247
 20
-10.3188
 30
0.0
 10
144.1625
 20
-10.8458
 30
0.0
 10
145.4196
 20
-6.6624
 30
0.0
 10
142.6138
 20
-6.0582
 30
0.0
 10
142.6138
 20
-6.0582
 30
0.0
 10
139.1353
 20
-5.2995
 30
0.0
 10
133.4161
 20
-5.8582
 30
0.0
 10
130.1889
 20
-7.003
 30
0.0
 10
130.1889
 20
-7.003
 30
0.0
 10
127.3115
 20
-7.993
 30
0.0
 10
128.9185
 20
-12.2087
 30
0.0
 10
131.0373
 20
-11.3365
 30
0.0
  0
SPLINE
  5
5F
330
1F
100
AcDbEntity
  8
layer 1
 62
     7
100
AcDbSpline
210
0.0
220
0.0
230
1.0
 70
    11
 71
     3
 72
    28
 73
    24
 74
     0
 42
0.0000000001
 43
0.0000000001
 12
1.0
 22
0.0
 32
0.0
 13
1.0
 23
0.0
 33
0.0
 40
0.0
 40
0.0
 40
0.0
 40
0.0
 40
0.1428571428571428
 40
0.1428571428571428
 40
0.1428571428571428
 40
0.1428571428571428
 40
0.2857142857142857
 40
0.2857142857142857
 40
0.2857142857142857
 40
0.2857142857142857
 40
0.4285714285714285
 40
0.4285714285714285
 40
0.4285714285714285
 40
0.4285714285714285
 40
0.5714285714285714
 40
0.5714285714285714
 40
0.5714285714285714
 40
0.5714285714285714
 40
0.7142857142857143
 40
0.7142857142857143
 40
0.7142857142857143
 40
0.7142857142857143
 40
1.0
 40
1.0
 40
1.0
 40
1.0
 10
139.5977
 20
10.712
 30
0.0
 10
136.0601
 20
11.8569
 30
0.0
 10
130.6872
 20
10.0356
 30
0.0
 10
129.143
 20
4.7888
 30
0.0
 10
129.143
 20
4.7888
 30
0.0
 10
127.2935
 20
-1.4707
 30
0.0
 10
131.8994
 20
-3.3511
 30
0.0
 10
133.7034
 20
-0.5347
 30
0.0
 10
133.7034
 20
-0.5347
 30
0.0
 10
135.4544
 20
2.1998
 30
0.0
 10
132.0381
 20
3.4534
 30
0.0
 10
133.9866
 20
5.9244
 30
0.0
 10
133.9866
 20
5.9244
 30
0.0
 10
137.1419
 20
9.9581
 30
0.0
 10
143.5297
 20
6.6874
 30
0.0
 10
141.218
 20
-0.9981
 30
0.0
 10
141.218
 20
-0.9981
 30
0.0
 10
140.4099
 20
-3.7962
 30
0.0
 10
144.073
 20
-5.1223
 30
0.0
 10
144.9347
 20
-2.2878
 30
0.0
 10
144.9347
 20
-2.2878
 30
0.0
 10
146.6226
 20
3.2627
 30
0.0
 10
145.1098
 20
8.9499
 30
0.0
 10
139.5977
 20
10.712
 30
0.0
  0
SPLINE
  5
60
330
1F
100
AcDbEntity
  8
layer 1
 62
     7
100
AcDbSpline
210
0.0
220
0.0
230
1.0
 70
    11
 71
     3
 72
   108
 73
   104
 74
     0
 42
0.0000000001
 43
0.0000000001
 12
1.0
 22
0.0
 32
0.0
 13
1.0
 23
0.0
 33
0.0
 40
0.0
 40
0.0
 40
0.0
 40
0.0
 40
0.037037037037037
 40
0.037037037037037
 40
0.037037037037037
 40
0.037037037037037
 40
0.0740740740740741
 40
0.0740740740740741
 40
0.0740740740740741
 40
0.0740740740740741
 40
0.1111111111111111
 40
0.1111111111111111
 40
0.1111111111111111
 40
0.1111111111111111
 40
0.1481481481481481
 40
0.1481481481481481
 40
0.1481481481481481
 40
0.1481481481481481
 40
0.1851851851851852
 40
0.1851851851851852
 40
0.1851851851851852
 40
0.1851851851851852
 40
0.2222222222222222
 40
0.2222222222222222
 40
0.2222222222222222
 40
0.2222222222222222
 40
0.2592592592592592
 40
0.2592592592592592
 40
0.2592592592592592
 40
0.2592592592592592
 40
0.2962962962962963
 40
0.2962962962962963
 40
0.2962962962962963
 40
0.2962962962962963
 40
0.3333333333333333
 40
0.3333333333333333
 40
0.3333333333333333
 40
0.3333333333333333
 40
0.3703703703703703
 40
0.3703703703703703
 40
0.3703703703703703
 40
0.3703703703703703
 40
0.4074074074074074
 40
0.4074074074074074
 40
0.4074074074074074
 40
0.4074074074074074
 40
0.4444444444444444
 40
0.4444444444444444
 40
0.4444444444444444
 40
0.4444444444444444
 40
0.4814814814814815
 40
0.4814814814814815
 40
0.4814814814814815
 40
0.4814814814814815
 40
0.5185185185185185
 40
0.5185185185185185
 40
0.5185185185185185
 40
0.5185185185185185
 40
0.5555555555555556
 40
0.5555555555555556
 40
0.5555555555555556
 40
0.5555555555555556
 40
0.5925925925925926
 40
0.5925925925925926
 40
0.5925925925925926
 40
0.5925925925925926
 40
0.6296296296296297
 40
0.6296296296296297
 40
0.6296296296296297
 40
0.6296296296296297
 40
0.6666666666666666
 40
0.6666666666666666
 40
0.6666666666666666
 40
0.6666666666666666
 40
0.7037037037037037
 40
0.7037037037037037
 40
0.7037037037037037
 40
0.7037037037037037
 40
0.7407407407407407
 40
0.7407407407407407
 40
0.7407407407407407
 40
0.7407407407407407
 40
0.7777777777777778
 40
0.7777777777777778
 40
0.7777777777777778
 40
0.7777777777777778
 40
0.8148148148148148
 40
0.8148148148148148
 40
0.8148148148148148
 40
0.8148148148148148
 40
0.8518518518518519
 40
0.8518518518518519
 40
0.8518518518518519
 40
0.8518518518518519
 40
0.8888888888888888
 40
0.8888888888888888
 40
0.8888888888888888
 40
0.8888888888888888
 40
0.9259259259259259
 40
0.9259259259259259
 40
0.9259259259259259
 40
0.9259259259259259
 40
1.0
 40
1.0
 40
1.0
 40
1.0
 10
192.0589
 20
-20.6938
 30
0.0
 10
190.1643
 20
-15.8241
 30
0.0
 10
184.877
 20
-19.0717
 30
0.0
 10
181.6491
 20
-17.1052
 30
0.0
 10
181.6491
 20
-17.1052
 30
0.0
 10
179.755
 20
-15.9512
 30
0.0
 10
180.8457
 20
-13.8982
 30
0.0
 10
182.6636
 20
-14.1619
 30
0.0
 10
182.6636
 20
-14.1619
 30
0.0
 10
185.7295
 20
-14.5976
 30
0.0
 10
188.7777
 20
-10.1828
 30
0.0
 10
189.3745
 20
-7.1528
 30
0.0
 10
189.3745
 20
-7.1528
 30
0.0
 10
190.2093
 20
-2.8967
 30
0.0
 10
190.066
 20
-0.612
 30
0.0
 10
189.0875
 20
5.3157
 30
0.0
 10
189.0875
 20
5.3157
 30
0.0
 10
187.7226
 20
11.1755
 30
0.0
 10
184.4907
 20
9.0679
 30
0.0
 10
183.3684
 20
8.0045
 30
0.0
 10
183.3684
 20
8.0045
 30
0.0
 10
180.9849
 20
6.3289
 30
0.0
 10
180.1365
 20
8.9135
 30
0.0
 10
174.3189
 20
7.2418
 30
0.0
 10
174.3189
 20
7.2418
 30
0.0
 10
163.6176
 20
4.1664
 30
0.0
 10
164.8386
 20
-1.7249
 30
0.0
 10
163.1507
 20
-1.4251
 30
0.0
 10
163.1507
 20
-1.4251
 30
0.0
 10
161.0135
 20
-1.0391
 30
0.0
 10
161.4223
 20
0.301
 30
0.0
 10
162.3154
 20
5.2611
 30
0.0
 10
162.3154
 20
5.2611
 30
0.0
 10
163.4286
 20
11.4977
 30
0.0
 10
155.4478
 20
12.3382
 30
0.0
 10
150.0926
 20
2.0361
 30
0.0
 10
150.0926
 20
2.0361
 30
0.0
 10
146.2995
 20
-5.2317
 30
0.0
 10
144.477
 20
-11.164
 30
0.0
 10
145.8862
 20
-17.5504
 30
0.0
 10
145.8862
 20
-17.5504
 30
0.0
 10
148.6965
 20
-24.8497
 30
0.0
 10
154.2714
 20
-19.0132
 30
0.0
 10
153.1493
 20
-15.9788
 30
0.0
 10
153.1493
 20
-15.9788
 30
0.0
 10
151.3539
 20
-10.4915
 30
0.0
 10
152.4804
 20
-9.011
 30
0.0
 10
152.4804
 20
-7.9663
 30
0.0
 10
152.4804
 20
-7.9663
 30
0.0
 10
152.4804
 20
-3.6326
 30
0.0
 10
156.9066
 20
-1.2798
 30
0.0
 10
155.6719
 20
-7.003
 30
0.0
 10
155.6719
 20
-7.003
 30
0.0
 10
154.2714
 20
-15.8241
 30
0.0
 10
160.5471
 20
-19.3402
 30
0.0
 10
175.4636
 20
-2.1335
 30
0.0
 10
175.4636
 20
-2.1335
 30
0.0
 10
176.4467
 20
-0.6892
 30
0.0
 10
178.0624
 20
0.9824
 30
0.0
 10
178.4844
 20
1.4459
 30
0.0
 10
178.4844
 20
1.4459
 30
0.0
 10
180.2441
 20
3.0355
 30
0.0
 10
181.6403
 20
2.3085
 30
0.0
 10
181.7886
 20
0.1467
 30
0.0
 10
181.7886
 20
0.1467
 30
0.0
 10
181.8603
 20
-0.8437
 30
0.0
 10
180.949
 20
-3.1829
 30
0.0
 10
180.4235
 20
-4.2234
 30
0.0
 10
180.4235
 20
-4.2234
 30
0.0
 10
179.9122
 20
-5.2587
 30
0.0
 10
178.4531
 20
-7.7386
 30
0.0
 10
178.4531
 20
-7.7386
 30
0.0
 10
178.4531
 20
-7.7386
 30
0.0
 10
176.6352
 20
-11.918
 30
0.0
 10
171.967
 20
-17.4596
 30
0.0
 10
167.3253
 20
-20.6938
 30
0.0
 10
167.3253
 20
-20.6938
 30
0.0
 10
165.3546
 20
-22.0607
 30
0.0
 10
165.5158
 20
-23.719
 30
0.0
 10
167.6484
 20
-24.391
 30
0.0
 10
167.6484
 20
-24.391
 30
0.0
 10
170.8895
 20
-25.1859
 30
0.0
 10
176.514
 20
-24.6045
 30
0.0
 10
178.736
 20
-24.091
 30
0.0
 10
178.736
 20
-24.091
 30
0.0
 10
180.8457
 20
-23.3281
 30
0.0
 10
181.7302
 20
-25.018
 30
0.0
 10
178.8796
 20
-26.1446
 30
0.0
 10
178.8796
 20
-26.1446
 30
0.0
 10
174.7855
 20
-27.7749
 30
0.0
 10
165.1843
 20
-28.5971
 30
0.0
 10
162.9668
 20
-27.3525
 30
0.0
 10
162.9668
 20
-27.3525
 30
0.0
 10
160.0261
 20
-25.7084
 30
0.0
 10
154.2714
 20
-27.834
 30
0.0
 10
156.3367
 20
-30.9412
 30
0.0
 10
156.3367
 20
-30.9412
 30
0.0
 10
159.3351
 20
-35.4333
 30
0.0
 10
173.686
 20
-35.4972
 30
0.0
 10
180.4235
 20
-33.9753
 30
0.0
 10
180.4235
 20
-33.9753
 30
0.0
 10
188.9886
 20
-31.5406
 30
0.0
 10
193.9533
 20
-25.5634
 30
0.0
 10
192.0589
 20
-20.6938
 30
0.0
  0
SPLINE
  5
61
330
1F
100
AcDbEntity
  8
layer 1
 62
     7
100
AcDbSpline
210
0.0
220
0.0
230
1.0
 70
    11
 71
     3
 72
    20
 73
    16
 74
     0
 42
0.0000000001
 43
0.0000000001
 12
1.0
 22
0.0
 32
0.0
 13
1.0
 23
0.0
 33
0.0
 40
0.0
 40
0.0
 40
0.0
 40
0.0
 40
0.2
 40
0.2
 40
0.2
 40
0.2
 40
0.4
 40
0.4
 40
0.4
 40
0.4
 40
0.6
 40
0.6
 40
0.6
 40
0.6
 40
1.0
 40
1.0
 40
1.0
 40
1.0
 10
163.9541
 20
-80.9203
 30
0.0
 10
159.8961
 20
-84.3228
 30
0.0
 10
162.3154
 20
-84.8861
 30
0.0
 10
164.439
 20
-83.3508
 30
0.0
 10
164.439
 20
-83.3508
 30
0.0
 10
174.9114
 20
-74.6837
 30
0.0
 10
181.5145
 20
-62.5102
 30
0.0
 10
178.8394
 20
-40.8432
 30
0.0
 10
178.8394
 20
-40.8432
 30
0.0
 10
178.2825
 20
-37.2641
 30
0.0
 10
174.4849
 20
-39.3534
 30
0.0
 10
174.8128
 20
-41.2025
 30
0.0
 10
174.8128
 20
-41.2025
 30
0.0
 10
177.7125
 20
-57.4957
 30
0.0
 10
175.3963
 20
-68.7514
 30
0.0
 10
163.9541
 20
-80.9203
 30
0.0
  0
SPLINE
  5
62
330
1F
100
AcDbEntity
  8
layer 1
 62
     7
100
AcDbSpline
210
0.0
220
0.0
230
1.0
 70
    11
 71
     3
 72
    28
 73
    24
 74
     0
 42
0.0000000001
 43
0.0000000001
 12
1.0
 22
0.0
 32
0.0
 13
1.0
 23
0.0
 33
0.0
 40
0.0
 40
0.0
 40
0.0
 40
0.0
 40
0.1428571428571428
 40
0.1428571428571428
 40
0.1428571428571428
 40
0.1428571428571428
 40
0.2857142857142857
 40
0.2857142857142857
 40
0.2857142857142857
 40
0.2857142857142857
 40
0.4285714285714285
 40
0.4285714285714285
 40
0.4285714285714285
 40
0.4285714285714285
 40
0.5714285714285714
 40
0.5714285714285714
 40
0.5714285714285714
 40
0.5714285714285714
 40
0.7142857142857143
 40
0.7142857142857143
 40
0.7142857142857143
 40
0.7142857142857143
 40
1.0
 40
1.0
 40
1.0
 40
1.0
 10
189.7787
 20
-43.6007
 30
0.0
 10
192.9477
 20
-43.0601
 30
0.0
 10
193.0152
 20
-36.6646
 30
0.0
 10
189.9353
 20
-38.1815
 30
0.0
 10
189.9353
 20
-38.1815
 30
0.0
 10
188.333
 20
-38.9674
 30
0.0
 10
187.9245
 20
-40.1076
 30
0.0
 10
184.3242
 20
-38.9446
 30
0.0
 10
184.3242
 20
-38.9446
 30
0.0
 10
182.906
 20
-38.4815
 30
0.0
 10
179.993
 20
-40.0255
 30
0.0
 10
182.107
 20
-41.9607
 30
0.0
 10
182.107
 20
-41.9607
 30
0.0
 10
183.1618
 20
-42.8695
 30
0.0
 10
182.6636
 20
-44.3182
 30
0.0
 10
183.1127
 20
-45.4858
 30
0.0
 10
183.1127
 20
-45.4858
 30
0.0
 10
184.8406
 20
-50.4778
 30
0.0
 10
190.3128
 20
-48.4245
 30
0.0
 10
188.3962
 20
-44.6951
 30
0.0
 10
188.3962
 20
-44.6951
 30
0.0
 10
188.3153
 20
-44.2049
 30
0.0
 10
188.8446
 20
-43.705
 30
0.0
 10
189.7787
 20
-43.6007
 30
0.0
  0
SPLINE
  5
63
330
1F
100
AcDbEntity
  8
layer 1
 62
     7
100
AcDbSpline
210
0.0
220
0.0
230
1.0
 70
    11
 71
     3
 72
    88
 73
    84
 74
     0
 42
0.0000000001
 43
0.0000000001
 12
1.0
 22
0.0
 32
0.0
 13
1.0
 23
0.0
 33
0.0
 40
0.0
 40
0.0
 40
0.0
 40
0.0
 40
0.0454545454545455
 40
0.0454545454545455
 40
0.0454545454545455
 40
0.0454545454545455
 40
0.0909090909090909
 40
0.0909090909090909
 40
0.0909090909090909
 40
0.0909090909090909
 40
0.1363636363636364
 40
0.1363636363636364
 40
0.1363636363636364
 40
0.1363636363636364
 40
0.1818181818181818
 40
0.1818181818181818
 40
0.1818181818181818
 40
0.1818181818181818
 40
0.2272727272727273
 40
0.2272727272727273
 40
0.2272727272727273
 40
0.2272727272727273
 40
0.2727272727272727
 40
0.2727272727272727
 40
0.2727272727272727
 40
0.2727272727272727
 40
0.3181818181818182
 40
0.3181818181818182
 40
0.3181818181818182
 40
0.3181818181818182
 40
0.3636363636363636
 40
0.3636363636363636
 40
0.3636363636363636
 40
0.3636363636363636
 40
0.4090909090909091
 40
0.4090909090909091
 40
0.4090909090909091
 40
0.4090909090909091
 40
0.4545454545454545
 40
0.4545454545454545
 40
0.4545454545454545
 40
0.4545454545454545
 40
0.5
 40
0.5
 40
0.5
 40
0.5
 40
0.5454545454545454
 40
0.5454545454545454
 40
0.5454545454545454
 40
0.5454545454545454
 40
0.5909090909090909
 40
0.5909090909090909
 40
0.5909090909090909
 40
0.5909090909090909
 40
0.6363636363636364
 40
0.6363636363636364
 40
0.6363636363636364
 40
0.6363636363636364
 40
0.6818181818181818
 40
0.6818181818181818
 40
0.6818181818181818
 40
0.6818181818181818
 40
0.7272727272727273
 40
0.7272727272727273
 40
0.7272727272727273
 40
0.7272727272727273
 40
0.7727272727272727
 40
0.7727272727272727
 40
0.7727272727272727
 40
0.7727272727272727
 40
0.8181818181818182
 40
0.8181818181818182
 40
0.8181818181818182
 40
0.8181818181818182
 40
0.8636363636363636
 40
0.8636363636363636
 40
0.8636363636363636
 40
0.8636363636363636
 40
0.9090909090909091
 40
0.9090909090909091
 40
0.9090909090909091
 40
0.9090909090909091
 40
1.0
 40
1.0
 40
1.0
 40
1.0
 10
189.6527
 20
-57.2595
 30
0.0
 10
186.4028
 20
-50.6366
 30
0.0
 10
179.4902
 20
-56.5236
 30
0.0
 10
182.4394
 20
-61.4201
 30
0.0
 10
182.4394
 20
-61.4201
 30
0.0
 10
185.8687
 20
-67.0796
 30
0.0
 10
187.9649
 20
-73.1622
 30
0.0
 10
187.1167
 20
-81.2248
 30
0.0
 10
187.1167
 20
-81.2248
 30
0.0
 10
186.6006
 20
-86.2215
 30
0.0
 10
182.1342
 20
-84.9311
 30
0.0
 10
183.6557
 20
-80.4159
 30
0.0
 10
183.6557
 20
-80.4159
 30
0.0
 10
186.1425
 20
-73.012
 30
0.0
 10
181.088
 20
-65.4085
 30
0.0
 10
177.8561
 20
-71.4905
 30
0.0
 10
177.8561
 20
-71.4905
 30
0.0
 10
170.2518
 20
-85.8126
 30
0.0
 10
161.9564
 20
-88.1201
 30
0.0
 10
158.7245
 20
-86.7935
 30
0.0
 10
158.7245
 20
-86.7935
 30
0.0
 10
158.1679
 20
-86.6028
 30
0.0
 10
158.6615
 20
-85.3854
 30
0.0
 10
156.7002
 20
-86.8258
 30
0.0
 10
156.7002
 20
-86.8258
 30
0.0
 10
154.5676
 20
-88.6196
 30
0.0
 10
152.1528
 20
-90.7547
 30
0.0
 10
151.4433
 20
-89.21
 30
0.0
 10
151.4433
 20
-89.21
 30
0.0
 10
150.7298
 20
-87.675
 30
0.0
 10
167.8907
 20
-76.6597
 30
0.0
 10
170.4136
 20
-64.6451
 30
0.0
 10
170.4136
 20
-64.6451
 30
0.0
 10
171.9397
 20
-57.4048
 30
0.0
 10
161.7771
 20
-58.0314
 30
0.0
 10
156.7002
 20
-62.4195
 30
0.0
 10
156.7002
 20
-62.4195
 30
0.0
 10
155.1962
 20
-63.7096
 30
0.0
 10
153.6204
 20
-61.7608
 30
0.0
 10
155.9504
 20
-59.5486
 30
0.0
 10
155.9504
 20
-59.5486
 30
0.0
 10
157.8897
 20
-57.8682
 30
0.0
 10
161.4806
 20
-55.311
 30
0.0
 10
167.3253
 20
-56.0509
 30
0.0
 10
167.3253
 20
-56.0509
 30
0.0
 10
172.568
 20
-56.6872
 30
0.0
 10
172.281
 20
-50.1004
 30
0.0
 10
168.6448
 20
-48.62
 30
0.0
 10
168.6448
 20
-48.62
 30
0.0
 10
156.0985
 20
-44.014
 30
0.0
 10
132.6889
 20
-70.1506
 30
0.0
 10
149.7111
 20
-69.3784
 30
0.0
 10
149.7111
 20
-69.3784
 30
0.0
 10
155.3938
 20
-69.1239
 30
0.0
 10
155.991
 20
-73.453
 30
0.0
 10
152.6197
 20
-75.4196
 30
0.0
 10
152.6197
 20
-75.4196
 30
0.0
 10
139.382
 20
-83.2009
 30
0.0
 10
142.6138
 20
-94.2975
 30
0.0
 10
136.7157
 20
-94.4521
 30
0.0
 10
136.7157
 20
-94.4521
 30
0.0
 10
131.5131
 20
-94.5883
 30
0.0
 10
132.7877
 20
-98.5582
 30
0.0
 10
136.9984
 20
-99.6258
 30
0.0
 10
136.9984
 20
-99.6258
 30
0.0
 10
155.376
 20
-104.2724
 30
0.0
 10
168.9455
 20
-97.441
 30
0.0
 10
172.5953
 20
-87.7065
 30
0.0
 10
172.5953
 20
-87.7065
 30
0.0
 10
173.3
 20
-86.0308
 30
0.0
 10
175.1178
 20
-85.7308
 30
0.0
 10
176.1052
 20
-86.9478
 30
0.0
 10
176.1052
 20
-86.9478
 30
0.0
 10
178.2063
 20
-89.8368
 30
0.0
 10
177.4475
 20
-93.4347
 30
0.0
 10
176.8775
 20
-95.3652
 30
0.0
 10
176.8775
 20
-95.3652
 30
0.0
 10
174.9114
 20
-102.0601
 30
0.0
 10
183.8982
 20
-101.4109
 30
0.0
 10
187.4126
 20
-95.6692
 30
0.0
 10
187.4126
 20
-95.6692
 30
0.0
 10
192.6019
 20
-87.1567
 30
0.0
 10
194.9856
 20
-68.1431
 30
0.0
 10
189.6527
 20
-57.2595
 30
0.0
  0
ENDSEC
  0
SECTION
  2
OBJECTS
  0
DICTIONARY
  5
C
330
0
100
AcDbDictionary
281
     1
  3
ACAD_GROUP
350
D
  3
ACAD_LAYOUT
350
1A
  3
ACAD_MATERIAL
350
3B
  3
ACAD_MLEADERSTYLE
350
85
  3
ACAD_MLINESTYLE
350
17
  3
ACAD_PLOTSETTINGS
350
19
  3
ACAD_PLOTSTYLENAME
350
E
  3
ACAD_TABLESTYLE
350
84
  3
ACAD_VISUALSTYLE
350
2A
  0
DICTIONARY
  5
D
102
{ACAD_REACTORS
330
C
102
}
330
C
100
AcDbDictionary
281
     1
  0
DICTIONARY
  5
1A
102
{ACAD_REACTORS
330
C
102
}
330
C
100
AcDbDictionary
281
     1
  3
Layout1
350
1E
  3
Layout2
350
26
  3
Model
350
22
  0
DICTIONARY
  5
3B
102
{ACAD_REACTORS
330
C
102
}
330
C
100
AcDbDictionary
281
     1
  3
ByBlock
350
3D
  3
ByLayer
350
3C
  3
Global
350
3E
  0
DICTIONARY
  5
85
102
{ACAD_REACTORS
330
C
102
}
330
C
100
AcDbDictionary
281
     1
  0
DICTIONARY
  5
17
102
{ACAD_REACTORS
330
C
102
}
330
C
100
AcDbDictionary
281
     1
  3
Standard
350
18
  0
DICTIONARY
  5
19
102
{ACAD_REACTORS
330
C
102
}
330
C
100
AcDbDictionary
281
     1
  0
ACDBDICTIONARYWDFLT
  5
E
102
{ACAD_REACTORS
330
C
102
}
330
C
100
AcDbDictionary
281
     1
  3
Normal
350
F
100
AcDbDictionaryWithDefault
340
F
  0
DICTIONARY
  5
84
102
{ACAD_REACTORS
330
C
102
}
330
C
100
AcDbDictionary
281
     1
  0
DICTIONARY
  5
2A
102
{ACAD_REACTORS
330
C
102
}
330
C
100
AcDbDictionary
281
     1
  3
2dWireframe
350
2F
  3
3D Hidden
350
31
  3
3dWireframe
350
30
  3
Basic
350
32
  3
Brighten
350
36
  3
ColorChange
350
3A
  3
Conceptual
350
34
  3
Dim
350
35
  3
Facepattern
350
39
  3
Flat
350
2B
  3
FlatWithEdges
350
2C
  3
Gouraud
350
2D
  3
GouraudWithEdges
350
2E
  3
Linepattern
350
38
  3
Realistic
350
33
  3
Thicken
350
37
  0
LAYOUT
  5
1E
102
{ACAD_REACTORS
330
1A
102
}
330
1A
100
AcDbPlotSettings
  1

  2
none_device
  4

  6

 40
0.0
 41
0.0
 42
0.0
 43
0.0
 44
0.0
 45
0.0
 46
0.0
 47
0.0
 48
0.0
 49
0.0
140
0.0
141
0.0
142
1.0
143
1.0
 70
   688
 72
     0
 73
     0
 74
     5
  7

 75
    16
 76
     0
 77
     2
 78
   300
147
1.0
148
0.0
149
0.0
100
AcDbLayout
  1
Layout1
 70
     1
 71
     1
 10
0.0
 20
0.0
 11
12.0
 21
9.0
 12
0.0
 22
0.0
 32
0.0
 14
1.000000000000000E+20
 24
1.000000000000000E+20
 34
1.000000000000000E+20
 15
-1.000000000000000E+20
 25
-1.000000000000000E+20
 35
-1.000000000000000E+20
146
0.0
 13
0.0
 23
0.0
 33
0.0
 16
1.0
 26
0.0
 36
0.0
 17
0.0
 27
1.0
 37
0.0
 76
     0
330
1B
  0
LAYOUT
  5
26
102
{ACAD_REACTORS
330
1A
102
}
330
1A
100
AcDbPlotSettings
  1

  2
none_device
  4

  6

 40
0.0
 41
0.0
 42
0.0
 43
0.0
 44
0.0
 45
0.0
 46
0.0
 47
0.0
 48
0.0
 49
0.0
140
0.0
141
0.0
142
1.0
143
1.0
 70
   688
 72
     0
 73
     0
 74
     5
  7

 75
    16
 76
     0
 77
     2
 78
   300
147
1.0
148
0.0
149
0.0
100
AcDbLayout
  1
Layout2
 70
     1
 71
     2
 10
0.0
 20
0.0
 11
0.0
 21
0.0
 12
0.0
 22
0.0
 32
0.0
 14
0.0
 24
0.0
 34
0.0
 15
0.0
 25
0.0
 35
0.0
146
0.0
 13
0.0
 23
0.0
 33
0.0
 16
1.0
 26
0.0
 36
0.0
 17
0.0
 27
1.0
 37
0.0
 76
     0
330
23
  0
LAYOUT
  5
22
102
{ACAD_REACTORS
330
1A
102
}
330
1A
100
AcDbPlotSettings
  1

  2
none_device
  4

  6

 40
0.0
 41
0.0
 42
0.0
 43
0.0
 44
0.0
 45
0.0
 46
0.0
 47
0.0
 48
0.0
 49
0.0
140
0.0
141
0.0
142
1.0
143
1.0
 70
  1712
 72
     0
 73
     0
 74
     0
  7

 75
     0
 76
     0
 77
     2
 78
   300
147
1.0
148
0.0
149
0.0
100
AcDbLayout
  1
Model
 70
     1
 71
     0
 10
0.0
 20
0.0
 11
12.0
 21
9.0
 12
0.0
 22
0.0
 32
0.0
 14
77.7753
 24
-106.4572
 34
0.0
 15
196.8829
 25
131.7579
 35
0.0
146
0.0
 13
0.0
 23
0.0
 33
0.0
 16
1.0
 26
0.0
 36
0.0
 17
0.0
 27
1.0
 37
0.0
 76
     0
330
1F
331
29
  0
MATERIAL
  5
3D
102
{ACAD_REACTORS
330
3B
102
}
330
3B
100
AcDbMaterial
  1
ByBlock
 72
     1
 94
      127
  0
MATERIAL
  5
3C
102
{ACAD_REACTORS
330
3B
102
}
330
3B
100
AcDbMaterial
  1
ByLayer
 72
     1
 94
      127
  0
MATERIAL
  5
3E
102
{ACAD_REACTORS
330
3B
102
}
330
3B
100
AcDbMaterial
  1
Global
 72
     1
 94
      127
  0
MLINESTYLE
  5
18
102
{ACAD_REACTORS
330
17
102
}
330
17
100
AcDbMlineStyle
  2
Standard
 70
     0
  3

 62
   256
 51
90.0
 52
90.0
 71
     2
 49
0.5
 62
   256
  6
BYLAYER
 49
-0.5
 62
   256
  6
BYLAYER
  0
ACDBPLACEHOLDER
  5
F
102
{ACAD_REACTORS
330
E
102
}
330
E
  0
VISUALSTYLE
  5
2F
102
{ACAD_REACTORS
330
2A
102
}
102
{ACAD_XDICTIONARY
360
6C
102
}
330
2A
100
AcDbVisualStyle
  2
2dWireframe
 70
     4
 71
     0
 72
     2
 73
     0
 90
        0
 40
-0.6
 41
-30.0
 62
     5
 63
     7
421
 16777215
 74
     1
 91
        4
 64
     7
 65
   257
 75
     1
175
     1
 42
1.0
 92
        0
 66
   257
 43
1.0
 76
     1
 77
     6
 78
     2
 67
     7
 79
     5
170
     0
171
     0
290
     0
174
     0
 93
        1
 44
0.0
173
     0
291
     0
 45
0.0
  0
VISUALSTYLE
  5
31
102
{ACAD_REACTORS
330
2A
102
}
102
{ACAD_XDICTIONARY
360
70
102
}
330
2A
100
AcDbVisualStyle
  2
3D Hidden
 70
     6
 71
     1
 72
     2
 73
     2
 90
        0
 40
-0.6
 41
-30.0
 62
     5
 63
     7
421
 16777215
 74
     2
 91
        2
 64
     7
 65
   257
 75
     2
175
     1
 42
40.0
 92
        0
 66
   257
 43
1.0
 76
     1
 77
     6
 78
     2
 67
     7
 79
     3
170
     0
171
     0
290
     0
174
     0
 93
        1
 44
0.0
173
     0
291
     0
 45
0.0
  0
VISUALSTYLE
  5
30
102
{ACAD_REACTORS
330
2A
102
}
102
{ACAD_XDICTIONARY
360
6E
102
}
330
2A
100
AcDbVisualStyle
  2
3dWireframe
 70
     5
 71
     0
 72
     2
 73
     0
 90
        0
 40
-0.6
 41
-30.0
 62
     5
 63
     7
421
 16777215
 74
     1
 91
        4
 64
     7
 65
   257
 75
     1
175
     1
 42
1.0
 92
        0
 66
   257
 43
1.0
 76
     1
 77
     6
 78
     2
 67
     7
 79
     5
170
     0
171
     0
290
     0
174
     0
 93
        1
 44
0.0
173
     0
291
     0
 45
0.0
  0
VISUALSTYLE
  5
32
102
{ACAD_REACTORS
330
2A
102
}
102
{ACAD_XDICTIONARY
360
72
102
}
330
2A
100
AcDbVisualStyle
  2
Basic
 70
     7
 71
     1
 72
     0
 73
     1
 90
        0
 40
-0.6
 41
-30.0
 62
     5
 63
     7
421
 16777215
 74
     0
 91
        4
 64
     7
 65
   257
 75
     1
175
     1
 42
1.0
 92
        8
 66
     7
 43
1.0
 76
     1
 77
     6
 78
     2
 67
     7
 79
     5
170
     0
171
     0
290
     0
174
     0
 93
        1
 44
0.0
173
     0
291
     1
 45
0.0
  0
VISUALSTYLE
  5
36
102
{ACAD_REACTORS
330
2A
102
}
102
{ACAD_XDICTIONARY
360
7A
102
}
330
2A
100
AcDbVisualStyle
  2
Brighten
 70
    12
 71
     2
 72
     2
 73
     0
 90
        0
 40
-0.6
 41
-30.0
 62
     5
 63
     7
421
 16777215
 74
     1
 91
        4
 64
     7
 65
   257
 75
     1
175
     1
 42
1.0
 92
        8
 66
     7
 43
1.0
 76
     1
 77
     6
 78
     2
 67
     7
 79
     5
170
     0
171
     0
290
     0
174
     0
 93
        1
 44
50.0
173
     0
291
     1
 45
0.0
  0
VISUALSTYLE
  5
3A
102
{ACAD_REACTORS
330
2A
102
}
102
{ACAD_XDICTIONARY
360
82
102
}
330
2A
100
AcDbVisualStyle
  2
ColorChange
 70
    16
 71
     2
 72
     2
 73
     3
 90
        0
 40
-0.6
 41
-30.0
 62
     5
 63
     8
421
  8421504
 74
     1
 91
        4
 64
     7
 65
   257
 75
     1
175
     1
 42
1.0
 92
        8
 66
     8
424
  8421504
 43
1.0
 76
     1
 77
     6
 78
     2
 67
     7
 79
     5
170
     0
171
     0
290
     0
174
     0
 93
        1
 44
0.0
173
     0
291
     1
 45
0.0
  0
VISUALSTYLE
  5
34
102
{ACAD_REACTORS
330
2A
102
}
102
{ACAD_XDICTIONARY
360
76
102
}
330
2A
100
AcDbVisualStyle
  2
Conceptual
 70
     9
 71
     3
 72
     2
 73
     0
 90
        0
 40
-0.6
 41
-30.0
 62
     5
 63
     7
421
 16777215
 74
     2
 91
        2
 64
     7
 65
   257
 75
     1
175
     1
 42
40.0
 92
        8
 66
     7
 43
1.0
 76
     1
 77
     6
 78
     2
 67
     7
 79
     3
170
     0
171
     0
290
     0
174
     0
 93
        1
 44
0.0
173
     0
291
     0
 45
0.0
  0
VISUALSTYLE
  5
35
102
{ACAD_REACTORS
330
2A
102
}
102
{ACAD_XDICTIONARY
360
78
102
}
330
2A
100
AcDbVisualStyle
  2
Dim
 70
    11
 71
     2
 72
     2
 73
     0
 90
        0
 40
-0.6
 41
-30.0
 62
     5
 63
     7
421
 16777215
 74
     1
 91
        4
 64
     7
 65
   257
 75
     1
175
     1
 42
1.0
 92
        8
 66
     7
 43
1.0
 76
     1
 77
     6
 78
     2
 67
     7
 79
     5
170
     0
171
     0
290
     0
174
     0
 93
        1
 44
-50.0
173
     0
291
     1
 45
0.0
  0
VISUALSTYLE
  5
39
102
{ACAD_REACTORS
330
2A
102
}
102
{ACAD_XDICTIONARY
360
80
102
}
330
2A
100
AcDbVisualStyle
  2
Facepattern
 70
    15
 71
     2
 72
     2
 73
     0
 90
        0
 40
-0.6
 41
-30.0
 62
     5
 63
     7
421
 16777215
 74
     1
 91
        4
 64
     7
 65
   257
 75
     1
175
     1
 42
1.0
 92
        8
 66
     7
 43
1.0
 76
     1
 77
     6
 78
     2
 67
     7
 79
     5
170
     0
171
     0
290
     0
174
     0
 93
        1
 44
0.0
173
     0
291
     1
 45
0.0
  0
VISUALSTYLE
  5
2B
102
{ACAD_REACTORS
330
2A
102
}
102
{ACAD_XDICTIONARY
360
64
102
}
330
2A
100
AcDbVisualStyle
  2
Flat
 70
     0
 71
     2
 72
     1
 73
     1
 90
        2
 40
-0.6
 41
30.0
 62
     5
 63
     7
421
 16777215
 74
     0
 91
        4
 64
     7
 65
   257
 75
     1
175
     1
 42
1.0
 92
        8
 66
     7
 43
1.0
 76
     1
 77
     6
 78
     2
 67
     7
 79
     5
170
     0
171
     0
290
     0
174
     0
 93
       13
 44
0.0
173
     0
291
     1
 45
0.0
  0
VISUALSTYLE
  5
2C
102
{ACAD_REACTORS
330
2A
102
}
102
{ACAD_XDICTIONARY
360
66
102
}
330
2A
100
AcDbVisualStyle
  2
FlatWithEdges
 70
     1
 71
     2
 72
     1
 73
     1
 90
        2
 40
-0.6
 41
30.0
 62
     5
 63
     7
421
 16777215
 74
     1
 91
        4
 64
     7
 65
   257
 75
     1
175
     1
 42
1.0
 92
        0
 66
   257
 43
1.0
 76
     1
 77
     6
 78
     2
 67
     7
 79
     5
170
     0
171
     0
290
     0
174
     0
 93
       13
 44
0.0
173
     0
291
     1
 45
0.0
  0
VISUALSTYLE
  5
2D
102
{ACAD_REACTORS
330
2A
102
}
102
{ACAD_XDICTIONARY
360
68
102
}
330
2A
100
AcDbVisualStyle
  2
Gouraud
 70
     2
 71
     2
 72
     2
 73
     1
 90
        2
 40
-0.6
 41
30.0
 62
     5
 63
     7
421
 16777215
 74
     0
 91
        4
 64
     7
 65
   257
 75
     1
175
     1
 42
1.0
 92
        0
 66
     7
 43
1.0
 76
     1
 77
     6
 78
     2
 67
     7
 79
     5
170
     0
171
     0
290
     0
174
     0
 93
       13
 44
0.0
173
     0
291
     1
 45
0.0
  0
VISUALSTYLE
  5
2E
102
{ACAD_REACTORS
330
2A
102
}
102
{ACAD_XDICTIONARY
360
6A
102
}
330
2A
100
AcDbVisualStyle
  2
GouraudWithEdges
 70
     3
 71
     2
 72
     2
 73
     1
 90
        2
 40
-0.6
 41
30.0
 62
     5
 63
     7
421
 16777215
 74
     1
 91
        4
 64
     7
 65
   257
 75
     1
175
     1
 42
1.0
 92
        0
 66
   257
 43
1.0
 76
     1
 77
     6
 78
     2
 67
     7
 79
     5
170
     0
171
     0
290
     0
174
     0
 93
       13
 44
0.0
173
     0
291
     1
 45
0.0
  0
VISUALSTYLE
  5
38
102
{ACAD_REACTORS
330
2A
102
}
102
{ACAD_XDICTIONARY
360
7E
102
}
330
2A
100
AcDbVisualStyle
  2
Linepattern
 70
    14
 71
     2
 72
     2
 73
     0
 90
        0
 40
-0.6
 41
-30.0
 62
     5
 63
     7
421
 16777215
 74
     1
 91
        4
 64
     7
 65
   257
 75
     7
175
     7
 42
1.0
 92
        8
 66
     7
 43
1.0
 76
     1
 77
     6
 78
     2
 67
     7
 79
     5
170
     0
171
     0
290
     0
174
     0
 93
        1
 44
0.0
173
     0
291
     1
 45
0.0
  0
VISUALSTYLE
  5
33
102
{ACAD_REACTORS
330
2A
102
}
102
{ACAD_XDICTIONARY
360
74
102
}
330
2A
100
AcDbVisualStyle
  2
Realistic
 70
     8
 71
     2
 72
     2
 73
     0
 90
        0
 40
-0.6
 41
-30.0
 62
     5
 63
     7
421
 16777215
 74
     1
 91
        0
 64
     7
 65
   257
 75
     1
175
     1
 42
1.0
 92
        8
 66
     8
424
  7895160
 43
1.0
 76
     1
 77
     6
 78
     2
 67
     7
 79
     5
170
     0
171
     0
290
     0
174
     0
 93
       13
 44
0.0
173
     0
291
     0
 45
0.0
  0
VISUALSTYLE
  5
37
102
{ACAD_REACTORS
330
2A
102
}
102
{ACAD_XDICTIONARY
360
7C
102
}
330
2A
100
AcDbVisualStyle
  2
Thicken
 70
    13
 71
     2
 72
     2
 73
     0
 90
        0
 40
-0.6
 41
-30.0
 62
     5
 63
     7
421
 16777215
 74
     1
 91
        4
 64
     7
 65
   257
 75
     1
175
     1
 42
1.0
 92
       12
 66
     7
 43
1.0
 76
     1
 77
     6
 78
     2
 67
     7
 79
     5
170
     0
171
     0
290
     0
174
     0
 93
        1
 44
0.0
173
     0
291
     1
 45
0.0
  0
DICTIONARY
  5
6C
330
2F
100
AcDbDictionary
280
     1
281
     1
  3
ACAD_XREC_ROUNDTRIP
360
6D
  0
DICTIONARY
  5
70
330
31
100
AcDbDictionary
280
     1
281
     1
  3
ACAD_XREC_ROUNDTRIP
360
71
  0
DICTIONARY
  5
6E
330
30
100
AcDbDictionary
280
     1
281
     1
  3
ACAD_XREC_ROUNDTRIP
360
6F
  0
DICTIONARY
  5
72
330
32
100
AcDbDictionary
280
     1
281
     1
  3
ACAD_XREC_ROUNDTRIP
360
73
  0
DICTIONARY
  5
7A
330
36
100
AcDbDictionary
280
     1
281
     1
  3
ACAD_XREC_ROUNDTRIP
360
7B
  0
DICTIONARY
  5
82
330
3A
100
AcDbDictionary
280
     1
281
     1
  3
ACAD_XREC_ROUNDTRIP
360
83
  0
DICTIONARY
  5
76
330
34
100
AcDbDictionary
280
     1
281
     1
  3
ACAD_XREC_ROUNDTRIP
360
77
  0
DICTIONARY
  5
78
330
35
100
AcDbDictionary
280
     1
281
     1
  3
ACAD_XREC_ROUNDTRIP
360
79
  0
DICTIONARY
  5
80
330
39
100
AcDbDictionary
280
     1
281
     1
  3
ACAD_XREC_ROUNDTRIP
360
81
  0
DICTIONARY
  5
64
330
2B
100
AcDbDictionary
280
     1
281
     1
  3
ACAD_XREC_ROUNDTRIP
360
65
  0
DICTIONARY
  5
66
330
2C
100
AcDbDictionary
280
     1
281
     1
  3
ACAD_XREC_ROUNDTRIP
360
67
  0
DICTIONARY
  5
68
330
2D
100
AcDbDictionary
280
     1
281
     1
  3
ACAD_XREC_ROUNDTRIP
360
69
  0
DICTIONARY
  5
6A
330
2E
100
AcDbDictionary
280
     1
281
     1
  3
ACAD_XREC_ROUNDTRIP
360
6B
  0
DICTIONARY
  5
7E
330
38
100
AcDbDictionary
280
     1
281
     1
  3
ACAD_XREC_ROUNDTRIP
360
7F
  0
DICTIONARY
  5
74
330
33
100
AcDbDictionary
280
     1
281
     1
  3
ACAD_XREC_ROUNDTRIP
360
75
  0
DICTIONARY
  5
7C
330
37
100
AcDbDictionary
280
     1
281
     1
  3
ACAD_XREC_ROUNDTRIP
360
7D
  0
XRECORD
  5
6D
102
{ACAD_REACTORS
330
6C
102
}
330
6C
100
AcDbXrecord
280
     1
102
RTVSPropertyOp0
 70
     1
102
RTVSPropertyOp1
 70
     1
102
RTVSPropertyOp2
 70
     1
102
RTVSPropertyOp3
 70
     1
102
RTVSPropertyOp4
 70
     1
102
RTVSPropertyOp5
 70
     1
102
RTVSPropertyOp6
 70
     1
102
RTVSPropertyOp7
 70
     1
102
RTVSPropertyOp8
 70
     1
102
RTVSPropertyOp9
 70
     1
102
RTVSPropertyOp10
 70
     1
102
RTVSPropertyOp11
 70
     1
102
RTVSPropertyOp12
 70
     1
102
RTVSPropertyOp13
 70
     1
102
RTVSPropertyOp14
 70
     1
102
RTVSPropertyOp15
 70
     1
102
RTVSPropertyOp16
 70
     1
102
RTVSPropertyOp17
 70
     1
102
RTVSPropertyOp18
 70
     1
102
RTVSPropertyOp19
 70
     1
102
RTVSPropertyOp20
 70
     1
102
RTVSPropertyOp21
 70
     1
102
RTVSPropertyOp22
 70
     1
102
RTVSPropertyOp23
 70
     1
102
RTVSPropertyOp24
 70
     1
102
RTVSPropertyOp25
 70
     1
102
RTVSPropertyOp26
 70
     1
102
RTVSPropertyOp27
 70
     1
102
RTVSPropertyOp28
 70
     1
102
RTVSPropertyOp29
 70
     1
102
RTVSPropertyOp30
 70
     1
102
RTVSPropertyOp31
 70
     1
102
RTVSPropertyOp32
 70
     1
  0
XRECORD
  5
71
102
{ACAD_REACTORS
330
70
102
}
330
70
100
AcDbXrecord
280
     1
102
RTVSPropertyOp0
 70
     1
102
RTVSPropertyOp1
 70
     1
102
RTVSPropertyOp2
 70
     1
102
RTVSPropertyOp3
 70
     1
102
RTVSPropertyOp4
 70
     1
102
RTVSPropertyOp5
 70
     1
102
RTVSPropertyOp6
 70
     1
102
RTVSPropertyOp7
 70
     1
102
RTVSPropertyOp8
 70
     1
102
RTVSPropertyOp9
 70
     1
102
RTVSPropertyOp10
 70
     1
102
RTVSPropertyOp11
 70
     1
102
RTVSPropertyOp12
 70
     1
102
RTVSPropertyOp13
 70
     1
102
RTVSPropertyOp14
 70
     1
102
RTVSPropertyOp15
 70
     1
102
RTVSPropertyOp16
 70
     1
102
RTVSPropertyOp17
 70
     1
102
RTVSPropertyOp18
 70
     1
102
RTVSPropertyOp19
 70
     1
102
RTVSPropertyOp20
 70
     1
102
RTVSPropertyOp21
 70
     1
102
RTVSPropertyOp22
 70
     1
102
RTVSPropertyOp23
 70
     1
102
RTVSPropertyOp24
 70
     1
102
RTVSPropertyOp25
 70
     1
102
RTVSPropertyOp26
 70
     1
102
RTVSPropertyOp27
 70
     1
102
RTVSPropertyOp28
 70
     1
102
RTVSPropertyOp29
 70
     1
102
RTVSPropertyOp30
 70
     1
102
RTVSPropertyOp31
 70
     1
102
RTVSPropertyOp32
 70
     1
  0
XRECORD
  5
6F
102
{ACAD_REACTORS
330
6E
102
}
330
6E
100
AcDbXrecord
280
     1
102
RTVSPropertyOp0
 70
     1
102
RTVSPropertyOp1
 70
     1
102
RTVSPropertyOp2
 70
     1
102
RTVSPropertyOp3
 70
     1
102
RTVSPropertyOp4
 70
     1
102
RTVSPropertyOp5
 70
     1
102
RTVSPropertyOp6
 70
     1
102
RTVSPropertyOp7
 70
     1
102
RTVSPropertyOp8
 70
     1
102
RTVSPropertyOp9
 70
     1
102
RTVSPropertyOp10
 70
     1
102
RTVSPropertyOp11
 70
     1
102
RTVSPropertyOp12
 70
     1
102
RTVSPropertyOp13
 70
     1
102
RTVSPropertyOp14
 70
     1
102
RTVSPropertyOp15
 70
     1
102
RTVSPropertyOp16
 70
     1
102
RTVSPropertyOp17
 70
     1
102
RTVSPropertyOp18
 70
     1
102
RTVSPropertyOp19
 70
     1
102
RTVSPropertyOp20
 70
     1
102
RTVSPropertyOp21
 70
     1
102
RTVSPropertyOp22
 70
     1
102
RTVSPropertyOp23
 70
     1
102
RTVSPropertyOp24
 70
     1
102
RTVSPropertyOp25
 70
     1
102
RTVSPropertyOp26
 70
     1
102
RTVSPropertyOp27
 70
     1
102
RTVSPropertyOp28
 70
     1
102
RTVSPropertyOp29
 70
     1
102
RTVSPropertyOp30
 70
     1
102
RTVSPropertyOp31
 70
     1
102
RTVSPropertyOp32
 70
     1
  0
XRECORD
  5
73
102
{ACAD_REACTORS
330
72
102
}
330
72
100
AcDbXrecord
280
     1
102
RTVSPropertyOp0
 70
     1
102
RTVSPropertyOp1
 70
     1
102
RTVSPropertyOp2
 70
     1
102
RTVSPropertyOp3
 70
     1
102
RTVSPropertyOp4
 70
     1
102
RTVSPropertyOp5
 70
     1
102
RTVSPropertyOp6
 70
     1
102
RTVSPropertyOp7
 70
     1
102
RTVSPropertyOp8
 70
     1
102
RTVSPropertyOp9
 70
     1
102
RTVSPropertyOp10
 70
     1
102
RTVSPropertyOp11
 70
     1
102
RTVSPropertyOp12
 70
     1
102
RTVSPropertyOp13
 70
     1
102
RTVSPropertyOp14
 70
     1
102
RTVSPropertyOp15
 70
     1
102
RTVSPropertyOp16
 70
     1
102
RTVSPropertyOp17
 70
     1
102
RTVSPropertyOp18
 70
     1
102
RTVSPropertyOp19
 70
     1
102
RTVSPropertyOp20
 70
     1
102
RTVSPropertyOp21
 70
     1
102
RTVSPropertyOp22
 70
     1
102
RTVSPropertyOp23
 70
     1
102
RTVSPropertyOp24
 70
     1
102
RTVSPropertyOp25
 70
     1
102
RTVSPropertyOp26
 70
     1
102
RTVSPropertyOp27
 70
     1
102
RTVSPropertyOp28
 70
     1
102
RTVSPropertyOp29
 70
     1
102
RTVSPropertyOp30
 70
     1
102
RTVSPropertyOp31
 70
     1
102
RTVSPropertyOp32
 70
     1
  0
XRECORD
  5
7B
102
{ACAD_REACTORS
330
7A
102
}
330
7A
100
AcDbXrecord
280
     1
102
RTVSPropertyOp0
 70
     1
102
RTVSPropertyOp1
 70
     1
102
RTVSPropertyOp2
 70
     1
102
RTVSPropertyOp3
 70
     1
102
RTVSPropertyOp4
 70
     1
102
RTVSPropertyOp5
 70
     1
102
RTVSPropertyOp6
 70
     1
102
RTVSPropertyOp7
 70
     1
102
RTVSPropertyOp8
 70
     1
102
RTVSPropertyOp9
 70
     1
102
RTVSPropertyOp10
 70
     1
102
RTVSPropertyOp11
 70
     1
102
RTVSPropertyOp12
 70
     1
102
RTVSPropertyOp13
 70
     1
102
RTVSPropertyOp14
 70
     1
102
RTVSPropertyOp15
 70
     1
102
RTVSPropertyOp16
 70
     1
102
RTVSPropertyOp17
 70
     1
102
RTVSPropertyOp18
 70
     1
102
RTVSPropertyOp19
 70
     1
102
RTVSPropertyOp20
 70
     1
102
RTVSPropertyOp21
 70
     1
102
RTVSPropertyOp22
 70
     1
102
RTVSPropertyOp23
 70
     1
102
RTVSPropertyOp24
 70
     1
102
RTVSPropertyOp25
 70
     1
102
RTVSPropertyOp26
 70
     1
102
RTVSPropertyOp27
 70
     1
102
RTVSPropertyOp28
 70
     1
102
RTVSPropertyOp29
 70
     1
102
RTVSPropertyOp30
 70
     1
102
RTVSPropertyOp31
 70
     1
102
RTVSPropertyOp32
 70
     1
  0
XRECORD
  5
83
102
{ACAD_REACTORS
330
82
102
}
330
82
100
AcDbXrecord
280
     1
102
RTVSPropertyOp0
 70
     1
102
RTVSPropertyOp1
 70
     1
102
RTVSPropertyOp2
 70
     1
102
RTVSPropertyOp3
 70
     1
102
RTVSPropertyOp4
 70
     1
102
RTVSPropertyOp5
 70
     1
102
RTVSPropertyOp6
 70
     1
102
RTVSPropertyOp7
 70
     1
102
RTVSPropertyOp8
 70
     1
102
RTVSPropertyOp9
 70
     1
102
RTVSPropertyOp10
 70
     1
102
RTVSPropertyOp11
 70
     1
102
RTVSPropertyOp12
 70
     1
102
RTVSPropertyOp13
 70
     1
102
RTVSPropertyOp14
 70
     1
102
RTVSPropertyOp15
 70
     1
102
RTVSPropertyOp16
 70
     1
102
RTVSPropertyOp17
 70
     1
102
RTVSPropertyOp18
 70
     1
102
RTVSPropertyOp19
 70
     1
102
RTVSPropertyOp20
 70
     1
102
RTVSPropertyOp21
 70
     1
102
RTVSPropertyOp22
 70
     1
102
RTVSPropertyOp23
 70
     1
102
RTVSPropertyOp24
 70
     1
102
RTVSPropertyOp25
 70
     1
102
RTVSPropertyOp26
 70
     1
102
RTVSPropertyOp27
 70
     1
102
RTVSPropertyOp28
 70
     1
102
RTVSPropertyOp29
 70
     1
102
RTVSPropertyOp30
 70
     1
102
RTVSPropertyOp31
 70
     1
102
RTVSPropertyOp32
 70
     1
  0
XRECORD
  5
77
102
{ACAD_REACTORS
330
76
102
}
330
76
100
AcDbXrecord
280
     1
102
RTVSPropertyOp0
 70
     1
102
RTVSPropertyOp1
 70
     1
102
RTVSPropertyOp2
 70
     1
102
RTVSPropertyOp3
 70
     1
102
RTVSPropertyOp4
 70
     1
102
RTVSPropertyOp5
 70
     1
102
RTVSPropertyOp6
 70
     1
102
RTVSPropertyOp7
 70
     1
102
RTVSPropertyOp8
 70
     1
102
RTVSPropertyOp9
 70
     1
102
RTVSPropertyOp10
 70
     1
102
RTVSPropertyOp11
 70
     1
102
RTVSPropertyOp12
 70
     1
102
RTVSPropertyOp13
 70
     1
102
RTVSPropertyOp14
 70
     1
102
RTVSPropertyOp15
 70
     1
102
RTVSPropertyOp16
 70
     1
102
RTVSPropertyOp17
 70
     1
102
RTVSPropertyOp18
 70
     1
102
RTVSPropertyOp19
 70
     1
102
RTVSPropertyOp20
 70
     1
102
RTVSPropertyOp21
 70
     1
102
RTVSPropertyOp22
 70
     1
102
RTVSPropertyOp23
 70
     1
102
RTVSPropertyOp24
 70
     1
102
RTVSPropertyOp25
 70
     1
102
RTVSPropertyOp26
 70
     1
102
RTVSPropertyOp27
 70
     1
102
RTVSPropertyOp28
 70
     1
102
RTVSPropertyOp29
 70
     1
102
RTVSPropertyOp30
 70
     1
102
RTVSPropertyOp31
 70
     1
102
RTVSPropertyOp32
 70
     1
  0
XRECORD
  5
79
102
{ACAD_REACTORS
330
78
102
}
330
78
100
AcDbXrecord
280
     1
102
RTVSPropertyOp0
 70
     1
102
RTVSPropertyOp1
 70
     1
102
RTVSPropertyOp2
 70
     1
102
RTVSPropertyOp3
 70
     1
102
RTVSPropertyOp4
 70
     1
102
RTVSPropertyOp5
 70
     1
102
RTVSPropertyOp6
 70
     1
102
RTVSPropertyOp7
 70
     1
102
RTVSPropertyOp8
 70
     1
102
RTVSPropertyOp9
 70
     1
102
RTVSPropertyOp10
 70
     1
102
RTVSPropertyOp11
 70
     1
102
RTVSPropertyOp12
 70
     1
102
RTVSPropertyOp13
 70
     1
102
RTVSPropertyOp14
 70
     1
102
RTVSPropertyOp15
 70
     1
102
RTVSPropertyOp16
 70
     1
102
RTVSPropertyOp17
 70
     1
102
RTVSPropertyOp18
 70
     1
102
RTVSPropertyOp19
 70
     1
102
RTVSPropertyOp20
 70
     1
102
RTVSPropertyOp21
 70
     1
102
RTVSPropertyOp22
 70
     1
102
RTVSPropertyOp23
 70
     1
102
RTVSPropertyOp24
 70
     1
102
RTVSPropertyOp25
 70
     1
102
RTVSPropertyOp26
 70
     1
102
RTVSPropertyOp27
 70
     1
102
RTVSPropertyOp28
 70
     1
102
RTVSPropertyOp29
 70
     1
102
RTVSPropertyOp30
 70
     1
102
RTVSPropertyOp31
 70
     1
102
RTVSPropertyOp32
 70
     1
  0
XRECORD
  5
81
102
{ACAD_REACTORS
330
80
102
}
330
80
100
AcDbXrecord
280
     1
102
RTVSPropertyOp0
 70
     1
102
RTVSPropertyOp1
 70
     1
102
RTVSPropertyOp2
 70
     1
102
RTVSPropertyOp3
 70
     1
102
RTVSPropertyOp4
 70
     1
102
RTVSPropertyOp5
 70
     1
102
RTVSPropertyOp6
 70
     1
102
RTVSPropertyOp7
 70
     1
102
RTVSPropertyOp8
 70
     1
102
RTVSPropertyOp9
 70
     1
102
RTVSPropertyOp10
 70
     1
102
RTVSPropertyOp11
 70
     1
102
RTVSPropertyOp12
 70
     1
102
RTVSPropertyOp13
 70
     1
102
RTVSPropertyOp14
 70
     1
102
RTVSPropertyOp15
 70
     1
102
RTVSPropertyOp16
 70
     1
102
RTVSPropertyOp17
 70
     1
102
RTVSPropertyOp18
 70
     1
102
RTVSPropertyOp19
 70
     1
102
RTVSPropertyOp20
 70
     1
102
RTVSPropertyOp21
 70
     1
102
RTVSPropertyOp22
 70
     1
102
RTVSPropertyOp23
 70
     1
102
RTVSPropertyOp24
 70
     1
102
RTVSPropertyOp25
 70
     1
102
RTVSPropertyOp26
 70
     1
102
RTVSPropertyOp27
 70
     1
102
RTVSPropertyOp28
 70
     1
102
RTVSPropertyOp29
 70
     1
102
RTVSPropertyOp30
 70
     1
102
RTVSPropertyOp31
 70
     1
102
RTVSPropertyOp32
 70
     1
  0
XRECORD
  5
65
102
{ACAD_REACTORS
330
64
102
}
330
64
100
AcDbXrecord
280
     1
102
RTVSPropertyOp0
 70
     1
102
RTVSPropertyOp1
 70
     1
102
RTVSPropertyOp2
 70
     1
102
RTVSPropertyOp3
 70
     1
102
RTVSPropertyOp4
 70
     1
102
RTVSPropertyOp5
 70
     1
102
RTVSPropertyOp6
 70
     1
102
RTVSPropertyOp7
 70
     1
102
RTVSPropertyOp8
 70
     1
102
RTVSPropertyOp9
 70
     1
102
RTVSPropertyOp10
 70
     1
102
RTVSPropertyOp11
 70
     1
102
RTVSPropertyOp12
 70
     1
102
RTVSPropertyOp13
 70
     1
102
RTVSPropertyOp14
 70
     1
102
RTVSPropertyOp15
 70
     1
102
RTVSPropertyOp16
 70
     1
102
RTVSPropertyOp17
 70
     1
102
RTVSPropertyOp18
 70
     1
102
RTVSPropertyOp19
 70
     1
102
RTVSPropertyOp20
 70
     1
102
RTVSPropertyOp21
 70
     1
102
RTVSPropertyOp22
 70
     1
102
RTVSPropertyOp23
 70
     1
102
RTVSPropertyOp24
 70
     1
102
RTVSPropertyOp25
 70
     1
102
RTVSPropertyOp26
 70
     1
102
RTVSPropertyOp27
 70
     1
102
RTVSPropertyOp28
 70
     1
102
RTVSPropertyOp29
 70
     1
102
RTVSPropertyOp30
 70
     1
102
RTVSPropertyOp31
 70
     1
102
RTVSPropertyOp32
 70
     1
  0
XRECORD
  5
67
102
{ACAD_REACTORS
330
66
102
}
330
66
100
AcDbXrecord
280
     1
102
RTVSPropertyOp0
 70
     1
102
RTVSPropertyOp1
 70
     1
102
RTVSPropertyOp2
 70
     1
102
RTVSPropertyOp3
 70
     1
102
RTVSPropertyOp4
 70
     1
102
RTVSPropertyOp5
 70
     1
102
RTVSPropertyOp6
 70
     1
102
RTVSPropertyOp7
 70
     1
102
RTVSPropertyOp8
 70
     1
102
RTVSPropertyOp9
 70
     1
102
RTVSPropertyOp10
 70
     1
102
RTVSPropertyOp11
 70
     1
102
RTVSPropertyOp12
 70
     1
102
RTVSPropertyOp13
 70
     1
102
RTVSPropertyOp14
 70
     1
102
RTVSPropertyOp15
 70
     1
102
RTVSPropertyOp16
 70
     1
102
RTVSPropertyOp17
 70
     1
102
RTVSPropertyOp18
 70
     1
102
RTVSPropertyOp19
 70
     1
102
RTVSPropertyOp20
 70
     1
102
RTVSPropertyOp21
 70
     1
102
RTVSPropertyOp22
 70
     1
102
RTVSPropertyOp23
 70
     1
102
RTVSPropertyOp24
 70
     1
102
RTVSPropertyOp25
 70
     1
102
RTVSPropertyOp26
 70
     1
102
RTVSPropertyOp27
 70
     1
102
RTVSPropertyOp28
 70
     1
102
RTVSPropertyOp29
 70
     1
102
RTVSPropertyOp30
 70
     1
102
RTVSPropertyOp31
 70
     1
102
RTVSPropertyOp32
 70
     1
  0
XRECORD
  5
69
102
{ACAD_REACTORS
330
68
102
}
330
68
100
AcDbXrecord
280
     1
102
RTVSPropertyOp0
 70
     1
102
RTVSPropertyOp1
 70
     1
102
RTVSPropertyOp2
 70
     1
102
RTVSPropertyOp3
 70
     1
102
RTVSPropertyOp4
 70
     1
102
RTVSPropertyOp5
 70
     1
102
RTVSPropertyOp6
 70
     1
102
RTVSPropertyOp7
 70
     1
102
RTVSPropertyOp8
 70
     1
102
RTVSPropertyOp9
 70
     1
102
RTVSPropertyOp10
 70
     1
102
RTVSPropertyOp11
 70
     1
102
RTVSPropertyOp12
 70
     1
102
RTVSPropertyOp13
 70
     1
102
RTVSPropertyOp14
 70
     1
102
RTVSPropertyOp15
 70
     1
102
RTVSPropertyOp16
 70
     1
102
RTVSPropertyOp17
 70
     1
102
RTVSPropertyOp18
 70
     1
102
RTVSPropertyOp19
 70
     1
102
RTVSPropertyOp20
 70
     1
102
RTVSPropertyOp21
 70
     1
102
RTVSPropertyOp22
 70
     1
102
RTVSPropertyOp23
 70
     1
102
RTVSPropertyOp24
 70
     1
102
RTVSPropertyOp25
 70
     1
102
RTVSPropertyOp26
 70
     1
102
RTVSPropertyOp27
 70
     1
102
RTVSPropertyOp28
 70
     1
102
RTVSPropertyOp29
 70
     1
102
RTVSPropertyOp30
 70
     1
102
RTVSPropertyOp31
 70
     1
102
RTVSPropertyOp32
 70
     1
  0
XRECORD
  5
6B
102
{ACAD_REACTORS
330
6A
102
}
330
6A
100
AcDbXrecord
280
     1
102
RTVSPropertyOp0
 70
     1
102
RTVSPropertyOp1
 70
     1
102
RTVSPropertyOp2
 70
     1
102
RTVSPropertyOp3
 70
     1
102
RTVSPropertyOp4
 70
     1
102
RTVSPropertyOp5
 70
     1
102
RTVSPropertyOp6
 70
     1
102
RTVSPropertyOp7
 70
     1
102
RTVSPropertyOp8
 70
     1
102
RTVSPropertyOp9
 70
     1
102
RTVSPropertyOp10
 70
     1
102
RTVSPropertyOp11
 70
     1
102
RTVSPropertyOp12
 70
     1
102
RTVSPropertyOp13
 70
     1
102
RTVSPropertyOp14
 70
     1
102
RTVSPropertyOp15
 70
     1
102
RTVSPropertyOp16
 70
     1
102
RTVSPropertyOp17
 70
     1
102
RTVSPropertyOp18
 70
     1
102
RTVSPropertyOp19
 70
     1
102
RTVSPropertyOp20
 70
     1
102
RTVSPropertyOp21
 70
     1
102
RTVSPropertyOp22
 70
     1
102
RTVSPropertyOp23
 70
     1
102
RTVSPropertyOp24
 70
     1
102
RTVSPropertyOp25
 70
     1
102
RTVSPropertyOp26
 70
     1
102
RTVSPropertyOp27
 70
     1
102
RTVSPropertyOp28
 70
     1
102
RTVSPropertyOp29
 70
     1
102
RTVSPropertyOp30
 70
     1
102
RTVSPropertyOp31
 70
     1
102
RTVSPropertyOp32
 70
     1
  0
XRECORD
  5
7F
102
{ACAD_REACTORS
330
7E
102
}
330
7E
100
AcDbXrecord
280
     1
102
RTVSPropertyOp0
 70
     1
102
RTVSPropertyOp1
 70
     1
102
RTVSPropertyOp2
 70
     1
102
RTVSPropertyOp3
 70
     1
102
RTVSPropertyOp4
 70
     1
102
RTVSPropertyOp5
 70
     1
102
RTVSPropertyOp6
 70
     1
102
RTVSPropertyOp7
 70
     1
102
RTVSPropertyOp8
 70
     1
102
RTVSPropertyOp9
 70
     1
102
RTVSPropertyOp10
 70
     1
102
RTVSPropertyOp11
 70
     1
102
RTVSPropertyOp12
 70
     1
102
RTVSPropertyOp13
 70
     1
102
RTVSPropertyOp14
 70
     1
102
RTVSPropertyOp15
 70
     1
102
RTVSPropertyOp16
 70
     1
102
RTVSPropertyOp17
 70
     1
102
RTVSPropertyOp18
 70
     1
102
RTVSPropertyOp19
 70
     1
102
RTVSPropertyOp20
 70
     1
102
RTVSPropertyOp21
 70
     1
102
RTVSPropertyOp22
 70
     1
102
RTVSPropertyOp23
 70
     1
102
RTVSPropertyOp24
 70
     1
102
RTVSPropertyOp25
 70
     1
102
RTVSPropertyOp26
 70
     1
102
RTVSPropertyOp27
 70
     1
102
RTVSPropertyOp28
 70
     1
102
RTVSPropertyOp29
 70
     1
102
RTVSPropertyOp30
 70
     1
102
RTVSPropertyOp31
 70
     1
102
RTVSPropertyOp32
 70
     1
  0
XRECORD
  5
75
102
{ACAD_REACTORS
330
74
102
}
330
74
100
AcDbXrecord
280
     1
102
RTVSPropertyOp0
 70
     1
102
RTVSPropertyOp1
 70
     1
102
RTVSPropertyOp2
 70
     1
102
RTVSPropertyOp3
 70
     1
102
RTVSPropertyOp4
 70
     1
102
RTVSPropertyOp5
 70
     1
102
RTVSPropertyOp6
 70
     1
102
RTVSPropertyOp7
 70
     1
102
RTVSPropertyOp8
 70
     1
102
RTVSPropertyOp9
 70
     1
102
RTVSPropertyOp10
 70
     1
102
RTVSPropertyOp11
 70
     1
102
RTVSPropertyOp12
 70
     1
102
RTVSPropertyOp13
 70
     1
102
RTVSPropertyOp14
 70
     1
102
RTVSPropertyOp15
 70
     1
102
RTVSPropertyOp16
 70
     1
102
RTVSPropertyOp17
 70
     1
102
RTVSPropertyOp18
 70
     1
102
RTVSPropertyOp19
 70
     1
102
RTVSPropertyOp20
 70
     1
102
RTVSPropertyOp21
 70
     1
102
RTVSPropertyOp22
 70
     1
102
RTVSPropertyOp23
 70
     1
102
RTVSPropertyOp24
 70
     1
102
RTVSPropertyOp25
 70
     1
102
RTVSPropertyOp26
 70
     1
102
RTVSPropertyOp27
 70
     1
102
RTVSPropertyOp28
 70
     1
102
RTVSPropertyOp29
 70
     1
102
RTVSPropertyOp30
 70
     1
102
RTVSPropertyOp31
 70
     1
102
RTVSPropertyOp32
 70
     1
  0
XRECORD
  5
7D
102
{ACAD_REACTORS
330
7C
102
}
330
7C
100
AcDbXrecord
280
     1
102
RTVSPropertyOp0
 70
     1
102
RTVSPropertyOp1
 70
     1
102
RTVSPropertyOp2
 70
     1
102
RTVSPropertyOp3
 70
     1
102
RTVSPropertyOp4
 70
     1
102
RTVSPropertyOp5
 70
     1
102
RTVSPropertyOp6
 70
     1
102
RTVSPropertyOp7
 70
     1
102
RTVSPropertyOp8
 70
     1
102
RTVSPropertyOp9
 70
     1
102
RTVSPropertyOp10
 70
     1
102
RTVSPropertyOp11
 70
     1
102
RTVSPropertyOp12
 70
     1
102
RTVSPropertyOp13
 70
     1
102
RTVSPropertyOp14
 70
     1
102
RTVSPropertyOp15
 70
     1
102
RTVSPropertyOp16
 70
     1
102
RTVSPropertyOp17
 70
     1
102
RTVSPropertyOp18
 70
     1
102
RTVSPropertyOp19
 70
     1
102
RTVSPropertyOp20
 70
     1
102
RTVSPropertyOp21
 70
     1
102
RTVSPropertyOp22
 70
     1
102
RTVSPropertyOp23
 70
     1
102
RTVSPropertyOp24
 70
     1
102
RTVSPropertyOp25
 70
     1
102
RTVSPropertyOp26
 70
     1
102
RTVSPropertyOp27
 70
     1
102
RTVSPropertyOp28
 70
     1
102
RTVSPropertyOp29
 70
     1
102
RTVSPropertyOp30
 70
     1
102
RTVSPropertyOp31
 70
     1
102
RTVSPropertyOp32
 70
     1
  0
ENDSEC
  0
EOF
