  0
SECTION
  2
HEADER
  9
$ACADVER
  1
AC1021
  9
$ACADMAINTVER
 70
    25
  9
$DWGCODEPAGE
  3
ANSI_1256
  9
$INSBASE
 10
0.0
 20
0.0
 30
0.0
  9
$EXTMIN
 10
-15.1154
 20
-106.4953
 30
0.0
  9
$EXTMAX
 10
75.8503
 20
131.8916
 30
0.0
  9
$LIMMIN
 10
0.0
 20
0.0
  9
$LIMMAX
 10
12.0
 20
9.0
  9
$ORTHOMODE
 70
     0
  9
$REGENMODE
 70
     1
  9
$FILLMODE
 70
     1
  9
$QTEXTMODE
 70
     0
  9
$MIRRTEXT
 70
     1
  9
$LTSCALE
 40
1.0
  9
$ATTMODE
 70
     1
  9
$TEXTSIZE
 40
0.2
  9
$TRACEWID
 40
0.05
  9
$TEXTSTYLE
  7
Standard
  9
$CLAYER
  8
0
  9
$CELTYPE
  6
ByLayer
  9
$CECOLOR
 62
   256
  9
$CELTSCALE
 40
1.0
  9
$DISPSILH
 70
     0
  9
$DIMSCALE
 40
1.0
  9
$DIMASZ
 40
0.18
  9
$DIMEXO
 40
0.0625
  9
$DIMDLI
 40
0.38
  9
$DIMRND
 40
0.0
  9
$DIMDLE
 40
0.0
  9
$DIMEXE
 40
0.18
  9
$DIMTP
 40
0.0
  9
$DIMTM
 40
0.0
  9
$DIMTXT
 40
0.18
  9
$DIMCEN
 40
0.09
  9
$DIMTSZ
 40
0.0
  9
$DIMTOL
 70
     0
  9
$DIMLIM
 70
     0
  9
$DIMTIH
 70
     1
  9
$DIMTOH
 70
     1
  9
$DIMSE1
 70
     0
  9
$DIMSE2
 70
     0
  9
$DIMTAD
 70
     0
  9
$DIMZIN
 70
     0
  9
$DIMBLK
  1

  9
$DIMASO
 70
     1
  9
$DIMSHO
 70
     1
  9
$DIMPOST
  1

  9
$DIMAPOST
  1

  9
$DIMALT
 70
     0
  9
$DIMALTD
 70
     2
  9
$DIMALTF
 40
25.4
  9
$DIMLFAC
 40
1.0
  9
$DIMTOFL
 70
     0
  9
$DIMTVP
 40
0.0
  9
$DIMTIX
 70
     0
  9
$DIMSOXD
 70
     0
  9
$DIMSAH
 70
     0
  9
$DIMBLK1
  1

  9
$DIMBLK2
  1

  9
$DIMSTYLE
  2
Standard
  9
$DIMCLRD
 70
     0
  9
$DIMCLRE
 70
     0
  9
$DIMCLRT
 70
     0
  9
$DIMTFAC
 40
1.0
  9
$DIMGAP
 40
0.09
  9
$DIMJUST
 70
     0
  9
$DIMSD1
 70
     0
  9
$DIMSD2
 70
     0
  9
$DIMTOLJ
 70
     1
  9
$DIMTZIN
 70
     0
  9
$DIMALTZ
 70
     0
  9
$DIMALTTZ
 70
     0
  9
$DIMUPT
 70
     0
  9
$DIMDEC
 70
     4
  9
$DIMTDEC
 70
     4
  9
$DIMALTU
 70
     2
  9
$DIMALTTD
 70
     2
  9
$DIMTXSTY
  7
Standard
  9
$DIMAUNIT
 70
     0
  9
$DIMADEC
 70
     0
  9
$DIMALTRND
 40
0.0
  9
$DIMAZIN
 70
     0
  9
$DIMDSEP
 70
    46
  9
$DIMATFIT
 70
     3
  9
$DIMFRAC
 70
     0
  9
$DIMLDRBLK
  1

  9
$DIMLUNIT
 70
     2
  9
$DIMLWD
 70
    -2
  9
$DIMLWE
 70
    -2
  9
$DIMTMOVE
 70
     0
  9
$DIMFXL
 40
1.0
  9
$DIMFXLON
 70
     0
  9
$DIMJOGANG
 40
0.7853981633974483
  9
$DIMTFILL
 70
     0
  9
$DIMTFILLCLR
 70
     0
  9
$DIMARCSYM
 70
     0
  9
$DIMLTYPE
  6

  9
$DIMLTEX1
  6

  9
$DIMLTEX2
  6

  9
$LUNITS
 70
     2
  9
$LUPREC
 70
     4
  9
$SKETCHINC
 40
0.1
  9
$FILLETRAD
 40
0.5
  9
$AUNITS
 70
     0
  9
$AUPREC
 70
     0
  9
$MENU
  1
.
  9
$ELEVATION
 40
0.0
  9
$PELEVATION
 40
0.0
  9
$THICKNESS
 40
0.0
  9
$LIMCHECK
 70
     0
  9
$CHAMFERA
 40
0.5
  9
$CHAMFERB
 40
0.5
  9
$CHAMFERC
 40
1.0
  9
$CHAMFERD
 40
0.0
  9
$SKPOLY
 70
     0
  9
$TDCREATE
 40
2458492.922013553
  9
$TDUCREATE
 40
2458492.755346886
  9
$TDUPDATE
 40
2458492.922013634
  9
$TDUUPDATE
 40
2458492.755346967
  9
$TDINDWG
 40
0.0000000116
  9
$TDUSRTIMER
 40
0.0000000116
  9
$USRTIMER
 70
     1
  9
$ANGBASE
 50
0.0
  9
$ANGDIR
 70
     0
  9
$PDMODE
 70
     0
  9
$PDSIZE
 40
0.0
  9
$PLINEWID
 40
0.0
  9
$SPLFRAME
 70
     0
  9
$SPLINETYPE
 70
     6
  9
$SPLINESEGS
 70
     8
  9
$HANDSEED
  5
A6
  9
$SURFTAB1
 70
     6
  9
$SURFTAB2
 70
     6
  9
$SURFTYPE
 70
     6
  9
$SURFU
 70
     6
  9
$SURFV
 70
     6
  9
$UCSBASE
  2

  9
$UCSNAME
  2

  9
$UCSORG
 10
0.0
 20
0.0
 30
0.0
  9
$UCSXDIR
 10
1.0
 20
0.0
 30
0.0
  9
$UCSYDIR
 10
0.0
 20
1.0
 30
0.0
  9
$UCSORTHOREF
  2

  9
$UCSORTHOVIEW
 70
     0
  9
$UCSORGTOP
 10
0.0
 20
0.0
 30
0.0
  9
$UCSORGBOTTOM
 10
0.0
 20
0.0
 30
0.0
  9
$UCSORGLEFT
 10
0.0
 20
0.0
 30
0.0
  9
$UCSORGRIGHT
 10
0.0
 20
0.0
 30
0.0
  9
$UCSORGFRONT
 10
0.0
 20
0.0
 30
0.0
  9
$UCSORGBACK
 10
0.0
 20
0.0
 30
0.0
  9
$PUCSBASE
  2

  9
$PUCSNAME
  2

  9
$PUCSORG
 10
0.0
 20
0.0
 30
0.0
  9
$PUCSXDIR
 10
1.0
 20
0.0
 30
0.0
  9
$PUCSYDIR
 10
0.0
 20
1.0
 30
0.0
  9
$PUCSORTHOREF
  2

  9
$PUCSORTHOVIEW
 70
     0
  9
$PUCSORGTOP
 10
0.0
 20
0.0
 30
0.0
  9
$PUCSORGBOTTOM
 10
0.0
 20
0.0
 30
0.0
  9
$PUCSORGLEFT
 10
0.0
 20
0.0
 30
0.0
  9
$PUCSORGRIGHT
 10
0.0
 20
0.0
 30
0.0
  9
$PUCSORGFRONT
 10
0.0
 20
0.0
 30
0.0
  9
$PUCSORGBACK
 10
0.0
 20
0.0
 30
0.0
  9
$USERI1
 70
     0
  9
$USERI2
 70
     0
  9
$USERI3
 70
     0
  9
$USERI4
 70
     0
  9
$USERI5
 70
     0
  9
$USERR1
 40
0.0
  9
$USERR2
 40
0.0
  9
$USERR3
 40
0.0
  9
$USERR4
 40
0.0
  9
$USERR5
 40
0.0
  9
$WORLDVIEW
 70
     1
  9
$SHADEDGE
 70
     3
  9
$SHADEDIF
 70
    70
  9
$TILEMODE
 70
     1
  9
$MAXACTVP
 70
    64
  9
$PINSBASE
 10
0.0
 20
0.0
 30
0.0
  9
$PLIMCHECK
 70
     0
  9
$PEXTMIN
 10
1.000000000000000E+20
 20
1.000000000000000E+20
 30
1.000000000000000E+20
  9
$PEXTMAX
 10
-1.000000000000000E+20
 20
-1.000000000000000E+20
 30
-1.000000000000000E+20
  9
$PLIMMIN
 10
0.0
 20
0.0
  9
$PLIMMAX
 10
12.0
 20
9.0
  9
$UNITMODE
 70
     0
  9
$VISRETAIN
 70
     1
  9
$PLINEGEN
 70
     0
  9
$PSLTSCALE
 70
     1
  9
$TREEDEPTH
 70
  3020
  9
$CMLSTYLE
  2
Standard
  9
$CMLJUST
 70
     0
  9
$CMLSCALE
 40
1.0
  9
$PROXYGRAPHICS
 70
     1
  9
$MEASUREMENT
 70
     0
  9
$CELWEIGHT
370
    -1
  9
$ENDCAPS
280
     0
  9
$JOINSTYLE
280
     0
  9
$LWDISPLAY
290
     0
  9
$INSUNITS
 70
     4
  9
$HYPERLINKBASE
  1

  9
$STYLESHEET
  1

  9
$XEDIT
290
     1
  9
$CEPSNTYPE
380
     0
  9
$PSTYLEMODE
290
     1
  9
$FINGERPRINTGUID
  2
{77B6FA30-D5D5-400D-9866-0CE5CC5CBFE4}
  9
$VERSIONGUID
  2
{FAEB1C32-E019-11D5-929B-00C0DF256EC4}
  9
$EXTNAMES
290
     1
  9
$PSVPSCALE
 40
0.0
  9
$OLESTARTUP
290
     0
  9
$SORTENTS
280
   127
  9
$INDEXCTL
280
     0
  9
$HIDETEXT
280
     1
  9
$XCLIPFRAME
290
     0
  9
$HALOGAP
280
     0
  9
$OBSCOLOR
 70
   257
  9
$OBSLTYPE
280
     0
  9
$INTERSECTIONDISPLAY
280
     0
  9
$INTERSECTIONCOLOR
 70
   257
  9
$DIMASSOC
280
     2
  9
$PROJECTNAME
  1

  9
$CAMERADISPLAY
290
     0
  9
$LENSLENGTH
 40
50.0
  9
$CAMERAHEIGHT
 40
0.0
  9
$STEPSPERSEC
 40
2.0
  9
$STEPSIZE
 40
6.0
  9
$3DDWFPREC
 40
2.0
  9
$PSOLWIDTH
 40
0.25
  9
$PSOLHEIGHT
 40
4.0
  9
$LOFTANG1
 40
1.570796326794897
  9
$LOFTANG2
 40
1.570796326794897
  9
$LOFTMAG1
 40
0.0
  9
$LOFTMAG2
 40
0.0
  9
$LOFTPARAM
 70
     7
  9
$LOFTNORMALS
280
     1
  9
$LATITUDE
 40
37.795
  9
$LONGITUDE
 40
-122.394
  9
$NORTHDIRECTION
 40
0.0
  9
$TIMEZONE
 70
 -8000
  9
$LIGHTGLYPHDISPLAY
280
     1
  9
$TILEMODELIGHTSYNCH
280
     1
  9
$SOLIDHIST
280
     1
  9
$SHOWHIST
280
     1
  9
$DWFFRAME
280
     2
  9
$DGNFRAME
280
     2
  9
$REALWORLDSCALE
290
     1
  9
$INTERFERECOLOR
 62
   256
  9
$CSHADOW
280
     0
  9
$SHADOWPLANELOCATION
 40
0.0
  0
ENDSEC
  0
SECTION
  2
CLASSES
  0
CLASS
  1
ACDBDICTIONARYWDFLT
  2
AcDbDictionaryWithDefault
  3
ObjectDBX Classes
 90
        0
 91
        4
280
     0
281
     0
  0
CLASS
  1
VISUALSTYLE
  2
AcDbVisualStyle
  3
ObjectDBX Classes
 90
     4095
 91
        4
280
     0
281
     0
  0
CLASS
  1
MATERIAL
  2
AcDbMaterial
  3
ObjectDBX Classes
 90
     1153
 91
        4
280
     0
281
     0
  0
ENDSEC
  0
SECTION
  2
TABLES
  0
TABLE
  2
VPORT
  5
8
330
0
100
AcDbSymbolTable
 70
     1
  0
VPORT
  5
29
330
8
100
AcDbSymbolTableRecord
100
AcDbViewportTableRecord
  2
*Active
 70
     0
 10
0.0
 20
0.0
 11
1.0
 21
1.0
 12
10.42990654205607
 22
4.5
 13
0.0
 23
0.0
 14
0.5
 24
0.5
 15
0.5
 25
0.5
 16
0.0
 26
0.0
 36
1.0
 17
0.0
 27
0.0
 37
0.0
 40
9.0
 41
1.972972972850329
 42
50.0
 43
0.0
 44
0.0
 50
0.0
 51
0.0
 71
     0
 72
   100
 73
     1
 74
     3
 75
     0
 76
     0
 77
     0
 78
     0
281
     0
 65
     1
110
0.0
120
0.0
130
0.0
111
1.0
121
0.0
131
0.0
112
0.0
122
1.0
132
0.0
 79
     0
146
0.0
 60
     3
 61
     5
292
     1
282
     1
141
0.0
142
0.0
 63
   250
  0
ENDTAB
  0
TABLE
  2
LTYPE
  5
5
330
0
100
AcDbSymbolTable
 70
     1
  0
LTYPE
  5
14
330
5
100
AcDbSymbolTableRecord
100
AcDbLinetypeTableRecord
  2
ByBlock
 70
     0
  3

 72
    65
 73
     0
 40
0.0
  0
LTYPE
  5
15
330
5
100
AcDbSymbolTableRecord
100
AcDbLinetypeTableRecord
  2
ByLayer
 70
     0
  3

 72
    65
 73
     0
 40
0.0
  0
LTYPE
  5
16
330
5
100
AcDbSymbolTableRecord
100
AcDbLinetypeTableRecord
  2
Continuous
 70
     0
  3
Solid line
 72
    65
 73
     0
 40
0.0
  0
ENDTAB
  0
TABLE
  2
LAYER
  5
2
330
0
100
AcDbSymbolTable
 70
     2
  0
LAYER
  5
10
330
2
100
AcDbSymbolTableRecord
100
AcDbLayerTableRecord
  2
0
 70
     0
 62
     7
  6
Continuous
370
    -3
390
F
347
3E
  0
LAYER
  5
40
330
2
100
AcDbSymbolTableRecord
100
AcDbLayerTableRecord
  2
layer 1
 70
     0
 62
     7
  6
Continuous
370
    -3
390
F
347
3E
  0
ENDTAB
  0
TABLE
  2
STYLE
  5
3
330
0
100
AcDbSymbolTable
 70
     1
  0
STYLE
  5
11
330
3
100
AcDbSymbolTableRecord
100
AcDbTextStyleTableRecord
  2
Standard
 70
     0
 40
0.0
 41
1.0
 50
0.0
 71
     0
 42
0.2
  3
txt
  4

  0
ENDTAB
  0
TABLE
  2
VIEW
  5
6
330
0
100
AcDbSymbolTable
 70
     0
  0
ENDTAB
  0
TABLE
  2
UCS
  5
7
330
0
100
AcDbSymbolTable
 70
     0
  0
ENDTAB
  0
TABLE
  2
APPID
  5
9
330
0
100
AcDbSymbolTable
 70
     2
  0
APPID
  5
12
330
9
100
AcDbSymbolTableRecord
100
AcDbRegAppTableRecord
  2
ACAD
 70
     0
  0
APPID
  5
3F
330
9
100
AcDbSymbolTableRecord
100
AcDbRegAppTableRecord
  2
ODA
 70
     0
  0
ENDTAB
  0
TABLE
  2
DIMSTYLE
  5
A
330
0
100
AcDbSymbolTable
 70
     1
100
AcDbDimStyleTable
  0
DIMSTYLE
105
27
330
A
100
AcDbSymbolTableRecord
100
AcDbDimStyleTableRecord
  2
Standard
 70
     0
178
     0
340
11
  0
ENDTAB
  0
TABLE
  2
BLOCK_RECORD
  5
1
330
0
100
AcDbSymbolTable
 70
     1
  0
BLOCK_RECORD
  5
1F
330
1
100
AcDbSymbolTableRecord
100
AcDbBlockTableRecord
  2
*Model_Space
340
22
 70
     0
280
     1
281
     0
  0
BLOCK_RECORD
  5
1B
330
1
100
AcDbSymbolTableRecord
100
AcDbBlockTableRecord
  2
*Paper_Space
340
1E
 70
     0
280
     1
281
     0
  0
BLOCK_RECORD
  5
23
330
1
100
AcDbSymbolTableRecord
100
AcDbBlockTableRecord
  2
*Paper_Space0
340
26
 70
     0
280
     1
281
     0
  0
ENDTAB
  0
ENDSEC
  0
SECTION
  2
BLOCKS
  0
BLOCK
  5
20
330
1F
100
AcDbEntity
  8
0
100
AcDbBlockBegin
  2
*Model_Space
 70
     0
 10
0.0
 20
0.0
 30
0.0
  3
*Model_Space
  1

  0
ENDBLK
  5
21
330
1F
100
AcDbEntity
  8
0
100
AcDbBlockEnd
  0
BLOCK
  5
1C
330
1B
100
AcDbEntity
 67
     1
  8
0
100
AcDbBlockBegin
  2
*Paper_Space
 70
     0
 10
0.0
 20
0.0
 30
0.0
  3
*Paper_Space
  1

  0
ENDBLK
  5
1D
330
1B
100
AcDbEntity
 67
     1
  8
0
100
AcDbBlockEnd
  0
BLOCK
  5
24
330
23
100
AcDbEntity
  8
0
100
AcDbBlockBegin
  2
*Paper_Space0
 70
     0
 10
0.0
 20
0.0
 30
0.0
  3
*Paper_Space0
  1

  0
ENDBLK
  5
25
330
23
100
AcDbEntity
  8
0
100
AcDbBlockEnd
  0
ENDSEC
  0
SECTION
  2
ENTITIES
  0
SPLINE
  5
41
330
1F
100
AcDbEntity
  8
layer 1
 62
   250
370
     9
100
AcDbSpline
210
0.0
220
0.0
230
1.0
 70
    11
 71
     3
 72
    20
 73
    16
 74
     0
 42
0.0000000001
 43
0.0000000001
 12
1.0
 22
0.0
 32
0.0
 13
1.0
 23
0.0
 33
0.0
 40
0.0
 40
0.0
 40
0.0
 40
0.0
 40
0.2
 40
0.2
 40
0.2
 40
0.2
 40
0.4
 40
0.4
 40
0.4
 40
0.4
 40
0.6
 40
0.6
 40
0.6
 40
0.6
 40
1.0
 40
1.0
 40
1.0
 40
1.0
 10
-15.0773
 20
-106.4572
 30
0.0
 10
-15.0773
 20
-106.4572
 30
0.0
 10
-15.0773
 20
131.8535
 30
0.0
 10
-15.0773
 20
131.8535
 30
0.0
 10
-15.0773
 20
131.8535
 30
0.0
 10
-15.0773
 20
131.8535
 30
0.0
 10
75.8122
 20
131.8535
 30
0.0
 10
75.8122
 20
131.8535
 30
0.0
 10
75.8122
 20
131.8535
 30
0.0
 10
75.8122
 20
131.8535
 30
0.0
 10
75.8122
 20
-106.4572
 30
0.0
 10
75.8122
 20
-106.4572
 30
0.0
 10
75.8122
 20
-106.4572
 30
0.0
 10
75.8122
 20
-106.4572
 30
0.0
 10
-15.0773
 20
-106.4572
 30
0.0
 10
-15.0773
 20
-106.4572
 30
0.0
  0
SPLINE
  5
42
330
1F
100
AcDbEntity
  8
layer 1
 62
     7
370
     9
100
AcDbSpline
210
0.0
220
0.0
230
1.0
 70
    11
 71
     3
 72
    16
 73
    12
 74
     0
 42
0.0000000001
 43
0.0000000001
 12
1.0
 22
0.0
 32
0.0
 13
1.0
 23
0.0
 33
0.0
 40
0.0
 40
0.0
 40
0.0
 40
0.0
 40
0.25
 40
0.25
 40
0.25
 40
0.25
 40
0.5
 40
0.5
 40
0.5
 40
0.5
 40
1.0
 40
1.0
 40
1.0
 40
1.0
 10
-2.2843
 20
-100.4994
 30
0.0
 10
-2.1295
 20
-99.5365
 30
0.0
 10
-1.5031
 20
-95.1403
 30
0.0
 10
-2.7261
 20
-93.7664
 30
0.0
 10
-2.7261
 20
-93.7664
 30
0.0
 10
-3.1187
 20
-97.0992
 30
0.0
 10
-5.4121
 20
-99.2924
 30
0.0
 10
-6.4832
 20
-100.4994
 30
0.0
 10
-6.4832
 20
-100.4994
 30
0.0
 10
-6.4832
 20
-100.4994
 30
0.0
 10
-2.2843
 20
-100.4994
 30
0.0
 10
-2.2843
 20
-100.4994
 30
0.0
  0
SPLINE
  5
43
330
1F
100
AcDbEntity
  8
layer 1
 62
     7
370
     9
100
AcDbSpline
210
0.0
220
0.0
230
1.0
 70
    11
 71
     3
 72
    36
 73
    32
 74
     0
 42
0.0000000001
 43
0.0000000001
 12
1.0
 22
0.0
 32
0.0
 13
1.0
 23
0.0
 33
0.0
 40
0.0
 40
0.0
 40
0.0
 40
0.0
 40
0.1111111111111111
 40
0.1111111111111111
 40
0.1111111111111111
 40
0.1111111111111111
 40
0.2222222222222222
 40
0.2222222222222222
 40
0.2222222222222222
 40
0.2222222222222222
 40
0.3333333333333333
 40
0.3333333333333333
 40
0.3333333333333333
 40
0.3333333333333333
 40
0.4444444444444444
 40
0.4444444444444444
 40
0.4444444444444444
 40
0.4444444444444444
 40
0.5555555555555556
 40
0.5555555555555556
 40
0.5555555555555556
 40
0.5555555555555556
 40
0.6666666666666666
 40
0.6666666666666666
 40
0.6666666666666666
 40
0.6666666666666666
 40
0.7777777777777778
 40
0.7777777777777778
 40
0.7777777777777778
 40
0.7777777777777778
 40
1.0
 40
1.0
 40
1.0
 40
1.0
 10
-10.0217
 20
-78.8288
 30
0.0
 10
-10.0217
 20
-78.8288
 30
0.0
 10
-10.2542
 20
-77.8075
 30
0.0
 10
-10.2542
 20
-77.8075
 30
0.0
 10
-10.2542
 20
-77.8075
 30
0.0
 10
-10.2542
 20
-77.8075
 30
0.0
 10
-10.2542
 20
-77.3912
 30
0.0
 10
-10.2542
 20
-77.3912
 30
0.0
 10
-10.2542
 20
-77.3912
 30
0.0
 10
-9.516
 20
-78.4
 30
0.0
 10
-6.0113
 20
-83.2647
 30
0.0
 10
-5.1713
 20
-85.8201
 30
0.0
 10
-5.1713
 20
-85.8201
 30
0.0
 10
-3.028
 20
-92.3404
 30
0.0
 10
-4.8044
 20
-96.2443
 30
0.0
 10
-8.3479
 20
-100.4994
 30
0.0
 10
-8.3479
 20
-100.4994
 30
0.0
 10
-8.3479
 20
-100.4994
 30
0.0
 10
-9.896
 20
-100.4994
 30
0.0
 10
-9.896
 20
-100.4994
 30
0.0
 10
-9.896
 20
-100.4994
 30
0.0
 10
-9.896
 20
-100.4994
 30
0.0
 10
-9.896
 20
-92.0706
 30
0.0
 10
-9.896
 20
-92.0706
 30
0.0
 10
-9.896
 20
-92.0706
 30
0.0
 10
-9.896
 20
-92.0706
 30
0.0
 10
-5.9579
 20
-88.778
 30
0.0
 10
-8.2519
 20
-83.1312
 30
0.0
 10
-8.2519
 20
-83.1312
 30
0.0
 10
-8.2519
 20
-83.1312
 30
0.0
 10
-9.7594
 20
-79.5011
 30
0.0
 10
-10.0217
 20
-78.8288
 30
0.0
  0
SPLINE
  5
44
330
1F
100
AcDbEntity
  8
layer 1
 62
     7
370
     9
100
AcDbSpline
210
0.0
220
0.0
230
1.0
 70
    11
 71
     3
 72
    32
 73
    28
 74
     0
 42
0.0000000001
 43
0.0000000001
 12
1.0
 22
0.0
 32
0.0
 13
1.0
 23
0.0
 33
0.0
 40
0.0
 40
0.0
 40
0.0
 40
0.0
 40
0.125
 40
0.125
 40
0.125
 40
0.125
 40
0.25
 40
0.25
 40
0.25
 40
0.25
 40
0.375
 40
0.375
 40
0.375
 40
0.375
 40
0.5
 40
0.5
 40
0.5
 40
0.5
 40
0.625
 40
0.625
 40
0.625
 40
0.625
 40
0.75
 40
0.75
 40
0.75
 40
0.75
 40
1.0
 40
1.0
 40
1.0
 40
1.0
 10
19.3775
 20
125.9992
 30
0.0
 10
19.3775
 20
125.9992
 30
0.0
 10
16.6968
 20
122.8906
 30
0.0
 10
13.6265
 20
118.9834
 30
0.0
 10
13.6265
 20
118.9834
 30
0.0
 10
8.7219
 20
112.7426
 30
0.0
 10
1.6045
 20
106.1576
 30
0.0
 10
-5.9293
 20
114.1651
 30
0.0
 10
-5.9293
 20
114.1651
 30
0.0
 10
-5.9293
 20
114.1651
 30
0.0
 10
-11.2048
 20
123.191
 30
0.0
 10
-2.7063
 20
125.9818
 30
0.0
 10
-2.7063
 20
125.9818
 30
0.0
 10
-2.0509
 20
126.4632
 30
0.0
 10
2.3327
 20
125.6436
 30
0.0
 10
2.6724
 20
121.978
 30
0.0
 10
2.6724
 20
121.978
 30
0.0
 10
2.6724
 20
121.978
 30
0.0
 10
1.8597
 20
122.2232
 30
0.0
 10
1.0172
 20
120.653
 30
0.0
 10
1.0172
 20
120.653
 30
0.0
 10
0.1747
 20
119.0826
 30
0.0
 10
-0.1768
 20
112.8833
 30
0.0
 10
6.8452
 20
114.9499
 30
0.0
 10
6.8452
 20
114.9499
 30
0.0
 10
11.2268
 20
116.4333
 30
0.0
 10
13.8238
 20
125.9118
 30
0.0
 10
19.3775
 20
125.9992
 30
0.0
  0
SPLINE
  5
45
330
1F
100
AcDbEntity
  8
layer 1
 62
     7
370
     9
100
AcDbSpline
210
0.0
220
0.0
230
1.0
 70
    11
 71
     3
 72
    12
 73
     8
 74
     0
 42
0.0000000001
 43
0.0000000001
 12
1.0
 22
0.0
 32
0.0
 13
1.0
 23
0.0
 33
0.0
 40
0.0
 40
0.0
 40
0.0
 40
0.0
 40
0.3333333333333333
 40
0.3333333333333333
 40
0.3333333333333333
 40
0.3333333333333333
 40
1.0
 40
1.0
 40
1.0
 40
1.0
 10
21.0002
 20
102.5623
 30
0.0
 10
21.0002
 20
102.5623
 30
0.0
 10
13.9495
 20
105.1157
 30
0.0
 10
14.7651
 20
114.314
 30
0.0
 10
14.7651
 20
114.314
 30
0.0
 10
6.2743
 20
106.561
 30
0.0
 10
16.3801
 20
97.7996
 30
0.0
 10
21.0002
 20
102.5623
 30
0.0
  0
SPLINE
  5
46
330
1F
100
AcDbEntity
  8
layer 1
 62
     7
370
     9
100
AcDbSpline
210
0.0
220
0.0
230
1.0
 70
    11
 71
     3
 72
    72
 73
    68
 74
     0
 42
0.0000000001
 43
0.0000000001
 12
1.0
 22
0.0
 32
0.0
 13
1.0
 23
0.0
 33
0.0
 40
0.0
 40
0.0
 40
0.0
 40
0.0
 40
0.0555555555555556
 40
0.0555555555555556
 40
0.0555555555555556
 40
0.0555555555555556
 40
0.1111111111111111
 40
0.1111111111111111
 40
0.1111111111111111
 40
0.1111111111111111
 40
0.1666666666666667
 40
0.1666666666666667
 40
0.1666666666666667
 40
0.1666666666666667
 40
0.2222222222222222
 40
0.2222222222222222
 40
0.2222222222222222
 40
0.2222222222222222
 40
0.2777777777777778
 40
0.2777777777777778
 40
0.2777777777777778
 40
0.2777777777777778
 40
0.3333333333333333
 40
0.3333333333333333
 40
0.3333333333333333
 40
0.3333333333333333
 40
0.3888888888888889
 40
0.3888888888888889
 40
0.3888888888888889
 40
0.3888888888888889
 40
0.4444444444444444
 40
0.4444444444444444
 40
0.4444444444444444
 40
0.4444444444444444
 40
0.5
 40
0.5
 40
0.5
 40
0.5
 40
0.5555555555555556
 40
0.5555555555555556
 40
0.5555555555555556
 40
0.5555555555555556
 40
0.6111111111111112
 40
0.6111111111111112
 40
0.6111111111111112
 40
0.6111111111111112
 40
0.6666666666666666
 40
0.6666666666666666
 40
0.6666666666666666
 40
0.6666666666666666
 40
0.7222222222222222
 40
0.7222222222222222
 40
0.7222222222222222
 40
0.7222222222222222
 40
0.7777777777777778
 40
0.7777777777777778
 40
0.7777777777777778
 40
0.7777777777777778
 40
0.8333333333333334
 40
0.8333333333333334
 40
0.8333333333333334
 40
0.8333333333333334
 40
0.8888888888888888
 40
0.8888888888888888
 40
0.8888888888888888
 40
0.8888888888888888
 40
1.0
 40
1.0
 40
1.0
 40
1.0
 10
28.0931
 20
114.4952
 30
0.0
 10
28.0931
 20
114.4952
 30
0.0
 10
35.2341
 20
117.5105
 30
0.0
 10
35.9188
 20
109.269
 30
0.0
 10
35.9188
 20
109.269
 30
0.0
 10
35.9188
 20
109.269
 30
0.0
 10
34.6471
 20
98.0122
 30
0.0
 10
22.2237
 20
105.1481
 30
0.0
 10
22.2237
 20
105.1481
 30
0.0
 10
22.2237
 20
105.1481
 30
0.0
 10
11.2677
 20
113.4901
 30
0.0
 10
23.6911
 20
123.4404
 30
0.0
 10
23.6911
 20
123.4404
 30
0.0
 10
23.6911
 20
123.4404
 30
0.0
 10
33.6689
 20
128.8678
 30
0.0
 10
44.3315
 20
123.0383
 30
0.0
 10
44.3315
 20
123.0383
 30
0.0
 10
44.3315
 20
123.0383
 30
0.0
 10
53.3311
 20
116.6059
 30
0.0
 10
55.581
 20
112.4852
 30
0.0
 10
55.581
 20
112.4852
 30
0.0
 10
57.578
 20
118.4315
 30
0.0
 10
59.5194
 20
124.0024
 30
0.0
 10
67.3197
 20
124.1439
 30
0.0
 10
67.3197
 20
124.1439
 30
0.0
 10
67.3197
 20
124.1439
 30
0.0
 10
63.6024
 20
122.2343
 30
0.0
 10
61.646
 20
118.415
 30
0.0
 10
61.646
 20
118.415
 30
0.0
 10
59.6895
 20
114.5957
 30
0.0
 10
58.7113
 20
107.5602
 30
0.0
 10
58.7113
 20
107.5602
 30
0.0
 10
58.7113
 20
107.5602
 30
0.0
 10
58.7113
 20
107.5602
 30
0.0
 10
59.983
 20
106.0277
 30
0.0
 10
59.983
 20
106.0277
 30
0.0
 10
59.983
 20
106.0277
 30
0.0
 10
59.7645
 20
106.2072
 30
0.0
 10
63.6747
 20
122.009
 30
0.0
 10
70.9891
 20
123.6293
 30
0.0
 10
70.9891
 20
123.6293
 30
0.0
 10
70.9891
 20
123.6293
 30
0.0
 10
70.9891
 20
117.1474
 30
0.0
 10
70.9891
 20
117.1474
 30
0.0
 10
70.9891
 20
117.1474
 30
0.0
 10
69.415
 20
116.3571
 30
0.0
 10
64.3581
 20
113.086
 30
0.0
 10
62.3542
 20
103.4393
 30
0.0
 10
62.3542
 20
103.4393
 30
0.0
 10
62.3542
 20
103.4393
 30
0.0
 10
67.8782
 20
94.2763
 30
0.0
 10
66.9465
 20
89.9
 30
0.0
 10
66.9465
 20
89.9
 30
0.0
 10
66.9465
 20
89.9
 30
0.0
 10
56.7549
 20
107.9623
 30
0.0
 10
53.9181
 20
111.9825
 30
0.0
 10
53.9181
 20
111.9825
 30
0.0
 10
51.0812
 20
116.0029
 30
0.0
 10
40.8844
 20
125.5186
 30
0.0
 10
29.3648
 20
121.4302
 30
0.0
 10
29.3648
 20
121.4302
 30
0.0
 10
29.3648
 20
121.4302
 30
0.0
 10
19.588
 20
117.7369
 30
0.0
 10
23.8064
 20
111.1826
 30
0.0
 10
23.8064
 20
111.1826
 30
0.0
 10
26.6108
 20
108.8525
 30
0.0
 10
29.3409
 20
111.2838
 30
0.0
 10
28.0931
 20
114.4952
 30
0.0
  0
SPLINE
  5
47
330
1F
100
AcDbEntity
  8
layer 1
 62
     7
370
     9
100
AcDbSpline
210
0.0
220
0.0
230
1.0
 70
    11
 71
     3
 72
    20
 73
    16
 74
     0
 42
0.0000000001
 43
0.0000000001
 12
1.0
 22
0.0
 32
0.0
 13
1.0
 23
0.0
 33
0.0
 40
0.0
 40
0.0
 40
0.0
 40
0.0
 40
0.2
 40
0.2
 40
0.2
 40
0.2
 40
0.4
 40
0.4
 40
0.4
 40
0.4
 40
0.6
 40
0.6
 40
0.6
 40
0.6
 40
1.0
 40
1.0
 40
1.0
 40
1.0
 10
39.4852
 20
104.4509
 30
0.0
 10
39.4852
 20
108.2611
 30
0.0
 10
42.51
 20
111.369
 30
0.0
 10
46.2186
 20
111.369
 30
0.0
 10
46.2186
 20
111.369
 30
0.0
 10
49.927
 20
111.369
 30
0.0
 10
52.9518
 20
108.2611
 30
0.0
 10
52.9518
 20
104.4509
 30
0.0
 10
52.9518
 20
104.4509
 30
0.0
 10
52.9518
 20
100.6405
 30
0.0
 10
49.927
 20
97.5327
 30
0.0
 10
46.2186
 20
97.5327
 30
0.0
 10
46.2186
 20
97.5327
 30
0.0
 10
42.51
 20
97.5327
 30
0.0
 10
39.4852
 20
100.6405
 30
0.0
 10
39.4852
 20
104.4509
 30
0.0
  0
SPLINE
  5
48
330
1F
100
AcDbEntity
  8
layer 1
 62
     7
370
     9
100
AcDbSpline
210
0.0
220
0.0
230
1.0
 70
    11
 71
     3
 72
    24
 73
    20
 74
     0
 42
0.0000000001
 43
0.0000000001
 12
1.0
 22
0.0
 32
0.0
 13
1.0
 23
0.0
 33
0.0
 40
0.0
 40
0.0
 40
0.0
 40
0.0
 40
0.1666666666666667
 40
0.1666666666666667
 40
0.1666666666666667
 40
0.1666666666666667
 40
0.3333333333333333
 40
0.3333333333333333
 40
0.3333333333333333
 40
0.3333333333333333
 40
0.5
 40
0.5
 40
0.5
 40
0.5
 40
0.6666666666666666
 40
0.6666666666666666
 40
0.6666666666666666
 40
0.6666666666666666
 40
1.0
 40
1.0
 40
1.0
 40
1.0
 10
65.9545
 20
100.5348
 30
0.0
 10
65.9545
 20
100.5348
 30
0.0
 10
66.3012
 20
99.8234
 30
0.0
 10
66.3012
 20
99.8234
 30
0.0
 10
66.3012
 20
99.8234
 30
0.0
 10
66.3012
 20
99.8234
 30
0.0
 10
67.7276
 20
105.9891
 30
0.0
 10
70.9891
 20
107.6256
 30
0.0
 10
70.9891
 20
107.6256
 30
0.0
 10
70.9891
 20
107.6256
 30
0.0
 10
70.9891
 20
112.8776
 30
0.0
 10
70.9891
 20
112.8776
 30
0.0
 10
70.9891
 20
112.8776
 30
0.0
 10
69.6395
 20
112.0789
 30
0.0
 10
66.359
 20
109.8034
 30
0.0
 10
65.5383
 20
106.1556
 30
0.0
 10
65.5383
 20
106.1556
 30
0.0
 10
65.5383
 20
106.1556
 30
0.0
 10
64.8443
 20
103.0252
 30
0.0
 10
65.9545
 20
100.5348
 30
0.0
  0
SPLINE
  5
49
330
1F
100
AcDbEntity
  8
layer 1
 62
     7
370
     9
100
AcDbSpline
210
0.0
220
0.0
230
1.0
 70
    11
 71
     3
 72
    28
 73
    24
 74
     0
 42
0.0000000001
 43
0.0000000001
 12
1.0
 22
0.0
 32
0.0
 13
1.0
 23
0.0
 33
0.0
 40
0.0
 40
0.0
 40
0.0
 40
0.0
 40
0.1428571428571428
 40
0.1428571428571428
 40
0.1428571428571428
 40
0.1428571428571428
 40
0.2857142857142857
 40
0.2857142857142857
 40
0.2857142857142857
 40
0.2857142857142857
 40
0.4285714285714285
 40
0.4285714285714285
 40
0.4285714285714285
 40
0.4285714285714285
 40
0.5714285714285714
 40
0.5714285714285714
 40
0.5714285714285714
 40
0.5714285714285714
 40
0.7142857142857143
 40
0.7142857142857143
 40
0.7142857142857143
 40
0.7142857142857143
 40
1.0
 40
1.0
 40
1.0
 40
1.0
 10
0.3326
 20
93.6197
 30
0.0
 10
0.3326
 20
93.6197
 30
0.0
 10
-9.4172
 20
94.3919
 30
0.0
 10
-8.5359
 20
99.4285
 30
0.0
 10
-8.5359
 20
99.4285
 30
0.0
 10
-8.5359
 20
99.4285
 30
0.0
 10
-8.3156
 20
102.258
 30
0.0
 10
-4.1296
 20
100.1075
 30
0.0
 10
-4.1296
 20
100.1075
 30
0.0
 10
-4.1296
 20
100.1075
 30
0.0
 10
-1.3757
 20
99.7114
 30
0.0
 10
-2.5875
 20
104.9176
 30
0.0
 10
-2.5875
 20
104.9176
 30
0.0
 10
-2.5875
 20
104.9176
 30
0.0
 10
-4.2031
 20
108.844
 30
0.0
 10
-10.2542
 20
106.9098
 30
0.0
 10
-10.2542
 20
106.9098
 30
0.0
 10
-10.2542
 20
106.9098
 30
0.0
 10
-10.2542
 20
96.771
 30
0.0
 10
-10.2542
 20
96.771
 30
0.0
 10
-10.2542
 20
96.771
 30
0.0
 10
-7.9423
 20
93.4575
 30
0.0
 10
0.1024
 20
92.4278
 30
0.0
 10
0.3326
 20
93.6197
 30
0.0
  0
SPLINE
  5
4A
330
1F
100
AcDbEntity
  8
layer 1
 62
     7
370
     9
100
AcDbSpline
210
0.0
220
0.0
230
1.0
 70
    11
 71
     3
 72
    16
 73
    12
 74
     0
 42
0.0000000001
 43
0.0000000001
 12
1.0
 22
0.0
 32
0.0
 13
1.0
 23
0.0
 33
0.0
 40
0.0
 40
0.0
 40
0.0
 40
0.0
 40
0.25
 40
0.25
 40
0.25
 40
0.25
 40
0.5
 40
0.5
 40
0.5
 40
0.5
 40
1.0
 40
1.0
 40
1.0
 40
1.0
 10
-10.2542
 20
94.535
 30
0.0
 10
-9.3029
 20
93.9537
 30
0.0
 10
-6.1503
 20
92.0919
 30
0.0
 10
-3.9753
 20
91.5762
 30
0.0
 10
-3.9753
 20
91.5762
 30
0.0
 10
-3.9753
 20
91.5762
 30
0.0
 10
-10.2542
 20
90.8414
 30
0.0
 10
-10.2542
 20
90.8414
 30
0.0
 10
-10.2542
 20
90.8414
 30
0.0
 10
-10.2542
 20
90.8414
 30
0.0
 10
-10.2542
 20
94.535
 30
0.0
 10
-10.2542
 20
94.535
 30
0.0
  0
SPLINE
  5
4B
330
1F
100
AcDbEntity
  8
layer 1
 62
     7
370
     9
100
AcDbSpline
210
0.0
220
0.0
230
1.0
 70
    11
 71
     3
 72
    32
 73
    28
 74
     0
 42
0.0000000001
 43
0.0000000001
 12
1.0
 22
0.0
 32
0.0
 13
1.0
 23
0.0
 33
0.0
 40
0.0
 40
0.0
 40
0.0
 40
0.0
 40
0.125
 40
0.125
 40
0.125
 40
0.125
 40
0.25
 40
0.25
 40
0.25
 40
0.25
 40
0.375
 40
0.375
 40
0.375
 40
0.375
 40
0.5
 40
0.5
 40
0.5
 40
0.5
 40
0.625
 40
0.625
 40
0.625
 40
0.625
 40
0.75
 40
0.75
 40
0.75
 40
0.75
 40
1.0
 40
1.0
 40
1.0
 40
1.0
 10
-10.2542
 20
85.0782
 30
0.0
 10
-8.5209
 20
86.6877
 30
0.0
 10
-0.3995
 20
93.4424
 30
0.0
 10
14.9744
 20
94.6371
 30
0.0
 10
14.9744
 20
94.6371
 30
0.0
 10
14.9744
 20
94.6371
 30
0.0
 10
15.5757
 20
87.7826
 30
0.0
 10
20.7967
 20
83.9038
 30
0.0
 10
20.7967
 20
83.9038
 30
0.0
 10
20.7967
 20
83.9038
 30
0.0
 10
9.3907
 20
80.8502
 30
0.0
 10
7.463
 20
76.2287
 30
0.0
 10
7.463
 20
76.2287
 30
0.0
 10
7.463
 20
76.2287
 30
0.0
 10
4.9729
 20
82.4184
 30
0.0
 10
15.0133
 20
84.3164
 30
0.0
 10
15.0133
 20
84.3164
 30
0.0
 10
15.0133
 20
84.3164
 30
0.0
 10
11.9612
 20
86.1321
 30
0.0
 10
13.8888
 20
92.9818
 30
0.0
 10
13.8888
 20
92.9818
 30
0.0
 10
13.8888
 20
92.9818
 30
0.0
 10
-3.9946
 20
88.8476
 30
0.0
 10
-10.2542
 20
80.9401
 30
0.0
 10
-10.2542
 20
80.9401
 30
0.0
 10
-10.2542
 20
80.9401
 30
0.0
 10
-10.2542
 20
85.0782
 30
0.0
 10
-10.2542
 20
85.0782
 30
0.0
  0
SPLINE
  5
4C
330
1F
100
AcDbEntity
  8
layer 1
 62
     7
370
     9
100
AcDbSpline
210
0.0
220
0.0
230
1.0
 70
    11
 71
     3
 72
    24
 73
    20
 74
     0
 42
0.0000000001
 43
0.0000000001
 12
1.0
 22
0.0
 32
0.0
 13
1.0
 23
0.0
 33
0.0
 40
0.0
 40
0.0
 40
0.0
 40
0.0
 40
0.1666666666666667
 40
0.1666666666666667
 40
0.1666666666666667
 40
0.1666666666666667
 40
0.3333333333333333
 40
0.3333333333333333
 40
0.3333333333333333
 40
0.3333333333333333
 40
0.5
 40
0.5
 40
0.5
 40
0.5
 40
0.6666666666666666
 40
0.6666666666666666
 40
0.6666666666666666
 40
0.6666666666666666
 40
1.0
 40
1.0
 40
1.0
 40
1.0
 10
30.3935
 20
84.3698
 30
0.0
 10
30.3935
 20
84.3698
 30
0.0
 10
24.4011
 20
87.262
 30
0.0
 10
27.8085
 20
95.2154
 30
0.0
 10
27.8085
 20
95.2154
 30
0.0
 10
27.8085
 20
95.2154
 30
0.0
 10
28.1608
 20
100.0356
 30
0.0
 10
22.0508
 20
98.469
 30
0.0
 10
22.0508
 20
98.469
 30
0.0
 10
22.0508
 20
98.469
 30
0.0
 10
17.8799
 20
96.8424
 30
0.0
 10
19.1135
 20
91.8412
 30
0.0
 10
19.1135
 20
91.8412
 30
0.0
 10
20.347
 20
86.84
 30
0.0
 10
24.9886
 20
85.6349
 30
0.0
 10
26.3398
 20
85.0324
 30
0.0
 10
26.3398
 20
85.0324
 30
0.0
 10
27.6908
 20
84.4299
 30
0.0
 10
30.3935
 20
84.3698
 30
0.0
 10
30.3935
 20
84.3698
 30
0.0
  0
SPLINE
  5
4D
330
1F
100
AcDbEntity
  8
layer 1
 62
     7
370
     9
100
AcDbSpline
210
0.0
220
0.0
230
1.0
 70
    11
 71
     3
 72
    24
 73
    20
 74
     0
 42
0.0000000001
 43
0.0000000001
 12
1.0
 22
0.0
 32
0.0
 13
1.0
 23
0.0
 33
0.0
 40
0.0
 40
0.0
 40
0.0
 40
0.0
 40
0.1666666666666667
 40
0.1666666666666667
 40
0.1666666666666667
 40
0.1666666666666667
 40
0.3333333333333333
 40
0.3333333333333333
 40
0.3333333333333333
 40
0.3333333333333333
 40
0.5
 40
0.5
 40
0.5
 40
0.5
 40
0.6666666666666666
 40
0.6666666666666666
 40
0.6666666666666666
 40
0.6666666666666666
 40
1.0
 40
1.0
 40
1.0
 40
1.0
 10
37.6797
 20
83.2221
 30
0.0
 10
37.1245
 20
83.7714
 30
0.0
 10
32.5342
 20
89.2571
 30
0.0
 10
40.3698
 20
92.6032
 30
0.0
 10
40.3698
 20
92.6032
 30
0.0
 10
40.3698
 20
92.6032
 30
0.0
 10
43.3034
 20
96.3821
 30
0.0
 10
37.396
 20
98.6237
 30
0.0
 10
37.396
 20
98.6237
 30
0.0
 10
37.396
 20
98.6237
 30
0.0
 10
32.4898
 20
99.758
 30
0.0
 10
30.7675
 20
94.9117
 30
0.0
 10
30.7675
 20
94.9117
 30
0.0
 10
29.0451
 20
90.0655
 30
0.0
 10
32.5179
 20
85.9804
 30
0.0
 10
33.3677
 20
84.9926
 30
0.0
 10
33.3677
 20
84.9926
 30
0.0
 10
34.3253
 20
83.9064
 30
0.0
 10
37.6797
 20
83.2221
 30
0.0
 10
37.6797
 20
83.2221
 30
0.0
  0
SPLINE
  5
4E
330
1F
100
AcDbEntity
  8
layer 1
 62
     7
370
     9
100
AcDbSpline
210
0.0
220
0.0
230
1.0
 70
    11
 71
     3
 72
    20
 73
    16
 74
     0
 42
0.0000000001
 43
0.0000000001
 12
1.0
 22
0.0
 32
0.0
 13
1.0
 23
0.0
 33
0.0
 40
0.0
 40
0.0
 40
0.0
 40
0.0
 40
0.2
 40
0.2
 40
0.2
 40
0.2
 40
0.4
 40
0.4
 40
0.4
 40
0.4
 40
0.6
 40
0.6
 40
0.6
 40
0.6
 40
1.0
 40
1.0
 40
1.0
 40
1.0
 10
51.0138
 20
88.2056
 30
0.0
 10
44.3135
 20
94.7055
 30
0.0
 10
57.906
 20
100.9657
 30
0.0
 10
65.1593
 20
89.2445
 30
0.0
 10
65.1593
 20
89.2445
 30
0.0
 10
65.1593
 20
89.2445
 30
0.0
 10
67.2893
 20
84.3857
 30
0.0
 10
67.2893
 20
83.5133
 30
0.0
 10
67.2893
 20
83.5133
 30
0.0
 10
67.2893
 20
83.5133
 30
0.0
 10
64.5296
 20
89.893
 30
0.0
 10
58.6388
 20
90.1656
 30
0.0
 10
58.6388
 20
90.1656
 30
0.0
 10
54.5675
 20
90.8222
 30
0.0
 10
52.9063
 20
89.179
 30
0.0
 10
51.0138
 20
88.2056
 30
0.0
  0
SPLINE
  5
4F
330
1F
100
AcDbEntity
  8
layer 1
 62
     7
370
     9
100
AcDbSpline
210
0.0
220
0.0
230
1.0
 70
    11
 71
     3
 72
    20
 73
    16
 74
     0
 42
0.0000000001
 43
0.0000000001
 12
1.0
 22
0.0
 32
0.0
 13
1.0
 23
0.0
 33
0.0
 40
0.0
 40
0.0
 40
0.0
 40
0.0
 40
0.2
 40
0.2
 40
0.2
 40
0.2
 40
0.4
 40
0.4
 40
0.4
 40
0.4
 40
0.6
 40
0.6
 40
0.6
 40
0.6
 40
1.0
 40
1.0
 40
1.0
 40
1.0
 10
56.504
 20
79.2664
 30
0.0
 10
51.4918
 20
81.2372
 30
0.0
 10
50.4306
 20
86.0226
 30
0.0
 10
56.856
 20
87.7855
 30
0.0
 10
56.856
 20
87.7855
 30
0.0
 10
64.2512
 20
88.1284
 30
0.0
 10
70.3385
 20
78.2369
 30
0.0
 10
68.4122
 20
71.6412
 30
0.0
 10
68.4122
 20
71.6412
 30
0.0
 10
67.2487
 20
77.9033
 30
0.0
 10
62.344
 20
84.0392
 30
0.0
 10
58.8445
 20
82.727
 30
0.0
 10
58.8445
 20
82.727
 30
0.0
 10
57.7736
 20
82.3256
 30
0.0
 10
57.287
 20
80.9047
 30
0.0
 10
56.504
 20
79.2664
 30
0.0
  0
SPLINE
  5
50
330
1F
100
AcDbEntity
  8
layer 1
 62
     7
370
     9
100
AcDbSpline
210
0.0
220
0.0
230
1.0
 70
    11
 71
     3
 72
    28
 73
    24
 74
     0
 42
0.0000000001
 43
0.0000000001
 12
1.0
 22
0.0
 32
0.0
 13
1.0
 23
0.0
 33
0.0
 40
0.0
 40
0.0
 40
0.0
 40
0.0
 40
0.1428571428571428
 40
0.1428571428571428
 40
0.1428571428571428
 40
0.1428571428571428
 40
0.2857142857142857
 40
0.2857142857142857
 40
0.2857142857142857
 40
0.2857142857142857
 40
0.4285714285714285
 40
0.4285714285714285
 40
0.4285714285714285
 40
0.4285714285714285
 40
0.5714285714285714
 40
0.5714285714285714
 40
0.5714285714285714
 40
0.5714285714285714
 40
0.7142857142857143
 40
0.7142857142857143
 40
0.7142857142857143
 40
0.7142857142857143
 40
1.0
 40
1.0
 40
1.0
 40
1.0
 10
69.2132
 20
86.9971
 30
0.0
 10
69.2132
 20
86.9971
 30
0.0
 10
68.7687
 20
89.8024
 30
0.0
 10
68.7687
 20
89.8024
 30
0.0
 10
68.7687
 20
89.8024
 30
0.0
 10
68.7687
 20
89.8024
 30
0.0
 10
70.2518
 20
93.1321
 30
0.0
 10
69.8883
 20
94.8926
 30
0.0
 10
69.8883
 20
94.8926
 30
0.0
 10
69.8883
 20
94.8926
 30
0.0
 10
70.9891
 20
96.2292
 30
0.0
 10
70.9891
 20
96.2292
 30
0.0
 10
70.9891
 20
96.2292
 30
0.0
 10
70.9891
 20
96.2292
 30
0.0
 10
70.9891
 20
91.3946
 30
0.0
 10
70.9891
 20
91.3946
 30
0.0
 10
70.9891
 20
91.3946
 30
0.0
 10
70.667
 20
91.0894
 30
0.0
 10
69.6206
 20
89.9507
 30
0.0
 10
69.5768
 20
88.0107
 30
0.0
 10
69.5768
 20
88.0107
 30
0.0
 10
69.5768
 20
88.0107
 30
0.0
 10
69.2132
 20
86.9971
 30
0.0
 10
69.2132
 20
86.9971
 30
0.0
  0
SPLINE
  5
51
330
1F
100
AcDbEntity
  8
layer 1
 62
     7
370
     9
100
AcDbSpline
210
0.0
220
0.0
230
1.0
 70
    11
 71
     3
 72
    20
 73
    16
 74
     0
 42
0.0000000001
 43
0.0000000001
 12
1.0
 22
0.0
 32
0.0
 13
1.0
 23
0.0
 33
0.0
 40
0.0
 40
0.0
 40
0.0
 40
0.0
 40
0.2
 40
0.2
 40
0.2
 40
0.2
 40
0.4
 40
0.4
 40
0.4
 40
0.4
 40
0.6
 40
0.6
 40
0.6
 40
0.6
 40
1.0
 40
1.0
 40
1.0
 40
1.0
 10
70.0441
 20
85.3433
 30
0.0
 10
70.0441
 20
85.3433
 30
0.0
 10
70.5134
 20
85.8822
 30
0.0
 10
70.9891
 20
86.1534
 30
0.0
 10
70.9891
 20
86.1534
 30
0.0
 10
70.9891
 20
86.1534
 30
0.0
 10
70.9891
 20
88.305
 30
0.0
 10
70.9891
 20
88.305
 30
0.0
 10
70.9891
 20
88.305
 30
0.0
 10
70.9891
 20
88.305
 30
0.0
 10
69.8364
 20
87.5305
 30
0.0
 10
69.8364
 20
87.5305
 30
0.0
 10
69.8364
 20
87.5305
 30
0.0
 10
69.8364
 20
87.5305
 30
0.0
 10
70.0441
 20
85.3433
 30
0.0
 10
70.0441
 20
85.3433
 30
0.0
  0
SPLINE
  5
52
330
1F
100
AcDbEntity
  8
layer 1
 62
     7
370
     9
100
AcDbSpline
210
0.0
220
0.0
230
1.0
 70
    11
 71
     3
 72
    20
 73
    16
 74
     0
 42
0.0000000001
 43
0.0000000001
 12
1.0
 22
0.0
 32
0.0
 13
1.0
 23
0.0
 33
0.0
 40
0.0
 40
0.0
 40
0.0
 40
0.0
 40
0.2
 40
0.2
 40
0.2
 40
0.2
 40
0.4
 40
0.4
 40
0.4
 40
0.4
 40
0.6
 40
0.6
 40
0.6
 40
0.6
 40
1.0
 40
1.0
 40
1.0
 40
1.0
 10
41.3364
 20
85.6368
 30
0.0
 10
45.0435
 20
83.0635
 30
0.0
 10
51.3122
 20
77.7505
 30
0.0
 10
54.5451
 20
73.6619
 30
0.0
 10
54.5451
 20
73.6619
 30
0.0
 10
54.5451
 20
73.6619
 30
0.0
 10
52.4254
 20
78.3824
 30
0.0
 10
49.5232
 20
81.8094
 30
0.0
 10
49.5232
 20
81.8094
 30
0.0
 10
46.621
 20
85.2364
 30
0.0
 10
43.4588
 20
87.7732
 30
0.0
 10
42.6792
 20
87.9511
 30
0.0
 10
42.6792
 20
87.9511
 30
0.0
 10
41.8994
 20
88.1292
 30
0.0
 10
39.4304
 20
88.4408
 30
0.0
 10
41.3364
 20
85.6368
 30
0.0
  0
SPLINE
  5
53
330
1F
100
AcDbEntity
  8
layer 1
 62
     7
370
     9
100
AcDbSpline
210
0.0
220
0.0
230
1.0
 70
    11
 71
     3
 72
    52
 73
    48
 74
     0
 42
0.0000000001
 43
0.0000000001
 12
1.0
 22
0.0
 32
0.0
 13
1.0
 23
0.0
 33
0.0
 40
0.0
 40
0.0
 40
0.0
 40
0.0
 40
0.0769230769230769
 40
0.0769230769230769
 40
0.0769230769230769
 40
0.0769230769230769
 40
0.1538461538461539
 40
0.1538461538461539
 40
0.1538461538461539
 40
0.1538461538461539
 40
0.2307692307692308
 40
0.2307692307692308
 40
0.2307692307692308
 40
0.2307692307692308
 40
0.3076923076923077
 40
0.3076923076923077
 40
0.3076923076923077
 40
0.3076923076923077
 40
0.3846153846153846
 40
0.3846153846153846
 40
0.3846153846153846
 40
0.3846153846153846
 40
0.4615384615384616
 40
0.4615384615384616
 40
0.4615384615384616
 40
0.4615384615384616
 40
0.5384615384615384
 40
0.5384615384615384
 40
0.5384615384615384
 40
0.5384615384615384
 40
0.6153846153846154
 40
0.6153846153846154
 40
0.6153846153846154
 40
0.6153846153846154
 40
0.6923076923076923
 40
0.6923076923076923
 40
0.6923076923076923
 40
0.6923076923076923
 40
0.7692307692307693
 40
0.7692307692307693
 40
0.7692307692307693
 40
0.7692307692307693
 40
0.8461538461538461
 40
0.8461538461538461
 40
0.8461538461538461
 40
0.8461538461538461
 40
1.0
 40
1.0
 40
1.0
 40
1.0
 10
47.4001
 20
77.2451
 30
0.0
 10
47.4001
 20
77.2451
 30
0.0
 10
37.1566
 20
84.3494
 30
0.0
 10
23.99
 20
81.5417
 30
0.0
 10
23.99
 20
81.5417
 30
0.0
 10
10.8233
 20
78.734
 30
0.0
 10
4.7638
 20
68.2604
 30
0.0
 10
5.3015
 20
64.559
 30
0.0
 10
5.3015
 20
64.559
 30
0.0
 10
5.839
 20
60.8577
 30
0.0
 10
7.7588
 20
58.495
 30
0.0
 10
7.7588
 20
58.495
 30
0.0
 10
7.7588
 20
58.495
 30
0.0
 10
7.7588
 20
58.495
 30
0.0
 10
8.6029
 20
63.6928
 30
0.0
 10
16.5122
 20
67.9454
 30
0.0
 10
16.5122
 20
67.9454
 30
0.0
 10
16.5122
 20
67.9454
 30
0.0
 10
15.7445
 20
78.1041
 30
0.0
 10
24.1142
 20
78.1829
 30
0.0
 10
24.1142
 20
78.1829
 30
0.0
 10
24.1142
 20
78.1829
 30
0.0
 10
18.2012
 20
73.694
 30
0.0
 10
20.9659
 20
68.5753
 30
0.0
 10
20.9659
 20
68.5753
 30
0.0
 10
20.9659
 20
68.5753
 30
0.0
 10
22.3482
 20
68.1025
 30
0.0
 10
22.3482
 20
71.1739
 30
0.0
 10
22.3482
 20
71.1739
 30
0.0
 10
22.3482
 20
71.1739
 30
0.0
 10
24.7283
 20
79.9155
 30
0.0
 10
31.3321
 20
77.7892
 30
0.0
 10
31.3321
 20
77.7892
 30
0.0
 10
31.3321
 20
77.7892
 30
0.0
 10
22.6372
 20
72.7461
 30
0.0
 10
25.8842
 20
65.6652
 30
0.0
 10
25.8842
 20
65.6652
 30
0.0
 10
25.8842
 20
65.6652
 30
0.0
 10
29.3963
 20
60.8312
 30
0.0
 10
28.0047
 20
67.027
 30
0.0
 10
28.0047
 20
67.027
 30
0.0
 10
28.0047
 20
67.027
 30
0.0
 10
27.4083
 20
75.1291
 30
0.0
 10
38.0109
 20
77.3759
 30
0.0
 10
38.0109
 20
77.3759
 30
0.0
 10
38.0109
 20
77.3759
 30
0.0
 10
47.4001
 20
77.2451
 30
0.0
 10
47.4001
 20
77.2451
 30
0.0
  0
SPLINE
  5
54
330
1F
100
AcDbEntity
  8
layer 1
 62
     7
370
     9
100
AcDbSpline
210
0.0
220
0.0
230
1.0
 70
    11
 71
     3
 72
    48
 73
    44
 74
     0
 42
0.0000000001
 43
0.0000000001
 12
1.0
 22
0.0
 32
0.0
 13
1.0
 23
0.0
 33
0.0
 40
0.0
 40
0.0
 40
0.0
 40
0.0
 40
0.0833333333333333
 40
0.0833333333333333
 40
0.0833333333333333
 40
0.0833333333333333
 40
0.1666666666666667
 40
0.1666666666666667
 40
0.1666666666666667
 40
0.1666666666666667
 40
0.25
 40
0.25
 40
0.25
 40
0.25
 40
0.3333333333333333
 40
0.3333333333333333
 40
0.3333333333333333
 40
0.3333333333333333
 40
0.4166666666666667
 40
0.4166666666666667
 40
0.4166666666666667
 40
0.4166666666666667
 40
0.5
 40
0.5
 40
0.5
 40
0.5
 40
0.5833333333333334
 40
0.5833333333333334
 40
0.5833333333333334
 40
0.5833333333333334
 40
0.6666666666666666
 40
0.6666666666666666
 40
0.6666666666666666
 40
0.6666666666666666
 40
0.75
 40
0.75
 40
0.75
 40
0.75
 40
0.8333333333333334
 40
0.8333333333333334
 40
0.8333333333333334
 40
0.8333333333333334
 40
1.0
 40
1.0
 40
1.0
 40
1.0
 10
32.9468
 20
43.0718
 30
0.0
 10
32.9468
 20
43.0718
 30
0.0
 10
39.9708
 20
47.5931
 30
0.0
 10
33.6239
 20
50.1147
 30
0.0
 10
33.6239
 20
50.1147
 30
0.0
 10
33.6239
 20
50.1147
 30
0.0
 10
27.1076
 20
52.1144
 30
0.0
 10
27.1076
 20
44.9847
 30
0.0
 10
27.1076
 20
44.9847
 30
0.0
 10
27.1076
 20
44.9847
 30
0.0
 10
28.9694
 20
38.2028
 30
0.0
 10
39.8862
 20
38.4636
 30
0.0
 10
39.8862
 20
38.4636
 30
0.0
 10
39.8862
 20
38.4636
 30
0.0
 10
57.516
 20
39.6737
 30
0.0
 10
57.1915
 20
58.8953
 30
0.0
 10
57.1915
 20
58.8953
 30
0.0
 10
57.1915
 20
58.8953
 30
0.0
 10
57.7595
 20
70.3785
 30
0.0
 10
45.427
 20
74.0397
 30
0.0
 10
45.427
 20
74.0397
 30
0.0
 10
45.427
 20
74.0397
 30
0.0
 10
35.3795
 20
76.5356
 30
0.0
 10
31.9715
 20
69.0468
 30
0.0
 10
31.9715
 20
69.0468
 30
0.0
 10
31.9715
 20
69.0468
 30
0.0
 10
29.5245
 20
60.1435
 30
0.0
 10
38.0436
 20
59.8939
 30
0.0
 10
38.0436
 20
59.8939
 30
0.0
 10
38.0436
 20
59.8939
 30
0.0
 10
42.3437
 20
60.4763
 30
0.0
 10
42.9118
 20
63.139
 30
0.0
 10
42.9118
 20
63.139
 30
0.0
 10
29.4391
 20
65.5057
 30
0.0
 10
48.2829
 20
78.7857
 30
0.0
 10
54.3518
 20
59.9769
 30
0.0
 10
54.3518
 20
59.9769
 30
0.0
 10
54.3518
 20
59.9769
 30
0.0
 10
55.8122
 20
42.2537
 30
0.0
 10
38.774
 20
41.0885
 30
0.0
 10
38.774
 20
41.0885
 30
0.0
 10
36.1406
 20
41.1386
 30
0.0
 10
35.0451
 20
41.7413
 30
0.0
 10
32.9468
 20
43.0718
 30
0.0
  0
SPLINE
  5
55
330
1F
100
AcDbEntity
  8
layer 1
 62
     7
370
     9
100
AcDbSpline
210
0.0
220
0.0
230
1.0
 70
    11
 71
     3
 72
    16
 73
    12
 74
     0
 42
0.0000000001
 43
0.0000000001
 12
1.0
 22
0.0
 32
0.0
 13
1.0
 23
0.0
 33
0.0
 40
0.0
 40
0.0
 40
0.0
 40
0.0
 40
0.25
 40
0.25
 40
0.25
 40
0.25
 40
0.5
 40
0.5
 40
0.5
 40
0.5
 40
1.0
 40
1.0
 40
1.0
 40
1.0
 10
-10.2542
 20
68.5881
 30
0.0
 10
-9.7651
 20
67.3873
 30
0.0
 10
-7.7045
 20
62.0354
 30
0.0
 10
-7.9334
 20
57.6302
 30
0.0
 10
-7.9334
 20
57.6302
 30
0.0
 10
-8.1586
 20
53.292
 30
0.0
 10
-9.8214
 20
51.2983
 30
0.0
 10
-10.2542
 20
50.8494
 30
0.0
 10
-10.2542
 20
50.8494
 30
0.0
 10
-10.2542
 20
50.8494
 30
0.0
 10
-10.2542
 20
68.5881
 30
0.0
 10
-10.2542
 20
68.5881
 30
0.0
  0
SPLINE
  5
56
330
1F
100
AcDbEntity
  8
layer 1
 62
     7
370
     9
100
AcDbSpline
210
0.0
220
0.0
230
1.0
 70
    11
 71
     3
 72
    68
 73
    64
 74
     0
 42
0.0000000001
 43
0.0000000001
 12
1.0
 22
0.0
 32
0.0
 13
1.0
 23
0.0
 33
0.0
 40
0.0
 40
0.0
 40
0.0
 40
0.0
 40
0.0588235294117647
 40
0.0588235294117647
 40
0.0588235294117647
 40
0.0588235294117647
 40
0.1176470588235294
 40
0.1176470588235294
 40
0.1176470588235294
 40
0.1176470588235294
 40
0.1764705882352941
 40
0.1764705882352941
 40
0.1764705882352941
 40
0.1764705882352941
 40
0.2352941176470588
 40
0.2352941176470588
 40
0.2352941176470588
 40
0.2352941176470588
 40
0.2941176470588235
 40
0.2941176470588235
 40
0.2941176470588235
 40
0.2941176470588235
 40
0.3529411764705883
 40
0.3529411764705883
 40
0.3529411764705883
 40
0.3529411764705883
 40
0.4117647058823529
 40
0.4117647058823529
 40
0.4117647058823529
 40
0.4117647058823529
 40
0.4705882352941176
 40
0.4705882352941176
 40
0.4705882352941176
 40
0.4705882352941176
 40
0.5294117647058824
 40
0.5294117647058824
 40
0.5294117647058824
 40
0.5294117647058824
 40
0.5882352941176471
 40
0.5882352941176471
 40
0.5882352941176471
 40
0.5882352941176471
 40
0.6470588235294118
 40
0.6470588235294118
 40
0.6470588235294118
 40
0.6470588235294118
 40
0.7058823529411765
 40
0.7058823529411765
 40
0.7058823529411765
 40
0.7058823529411765
 40
0.7647058823529411
 40
0.7647058823529411
 40
0.7647058823529411
 40
0.7647058823529411
 40
0.8235294117647058
 40
0.8235294117647058
 40
0.8235294117647058
 40
0.8235294117647058
 40
0.8823529411764706
 40
0.8823529411764706
 40
0.8823529411764706
 40
0.8823529411764706
 40
1.0
 40
1.0
 40
1.0
 40
1.0
 10
70.9891
 20
56.6471
 30
0.0
 10
70.6712
 20
55.9084
 30
0.0
 10
65.8656
 20
44.8777
 30
0.0
 10
60.5315
 20
40.7965
 30
0.0
 10
60.5315
 20
40.7965
 30
0.0
 10
55.0116
 20
36.5728
 30
0.0
 10
48.0127
 20
31.3762
 30
0.0
 10
36.2794
 20
32.7798
 30
0.0
 10
36.2794
 20
32.7798
 30
0.0
 10
24.5462
 20
34.1833
 30
0.0
 10
19.4927
 20
45.1654
 30
0.0
 10
23.3575
 20
50.9865
 30
0.0
 10
23.3575
 20
50.9865
 30
0.0
 10
23.3575
 20
50.9865
 30
0.0
 10
25.3563
 20
53.7954
 30
0.0
 10
27.0048
 20
53.4824
 30
0.0
 10
27.0048
 20
53.4824
 30
0.0
 10
27.0048
 20
53.4824
 30
0.0
 10
22.7315
 20
48.3492
 30
0.0
 10
24.3187
 20
44.718
 30
0.0
 10
24.3187
 20
44.718
 30
0.0
 10
25.9059
 20
41.0868
 30
0.0
 10
28.3822
 20
36.7744
 30
0.0
 10
35.7949
 20
35.4525
 30
0.0
 10
35.7949
 20
35.4525
 30
0.0
 10
43.1395
 20
34.1427
 30
0.0
 10
54.1797
 20
37.1426
 30
0.0
 10
59.6485
 20
44.6773
 30
0.0
 10
59.6485
 20
44.6773
 30
0.0
 10
65.1173
 20
52.212
 30
0.0
 10
63.7932
 20
57.2498
 30
0.0
 10
63.7932
 20
57.2498
 30
0.0
 10
63.7932
 20
57.2498
 30
0.0
 10
63.7932
 20
57.2498
 30
0.0
 10
60.3393
 20
57.0469
 30
0.0
 10
60.9315
 20
61.3055
 30
0.0
 10
60.9315
 20
61.3055
 30
0.0
 10
60.9315
 20
61.3055
 30
0.0
 10
63.5281
 20
66.0467
 30
0.0
 10
67.0776
 20
60.6611
 30
0.0
 10
67.0776
 20
60.6611
 30
0.0
 10
67.0776
 20
60.6611
 30
0.0
 10
68.3417
 20
58.6168
 30
0.0
 10
67.9528
 20
56.1233
 30
0.0
 10
67.9528
 20
56.1233
 30
0.0
 10
67.9528
 20
56.1233
 30
0.0
 10
72.6206
 20
60.013
 30
0.0
 10
68.2446
 20
63.9026
 30
0.0
 10
68.2446
 20
63.9026
 30
0.0
 10
68.2446
 20
63.9026
 30
0.0
 10
66.105
 20
65.8975
 30
0.0
 10
65.1327
 20
65.7477
 30
0.0
 10
65.1327
 20
65.7477
 30
0.0
 10
65.1327
 20
65.7477
 30
0.0
 10
65.6672
 20
69.7866
 30
0.0
 10
68.0012
 20
69.8366
 30
0.0
 10
68.0012
 20
69.8366
 30
0.0
 10
69.4339
 20
69.3066
 30
0.0
 10
69.5968
 20
70.347
 30
0.0
 10
70.9891
 20
70.4749
 30
0.0
 10
70.9891
 20
70.4749
 30
0.0
 10
70.9891
 20
70.4749
 30
0.0
 10
70.9891
 20
56.6471
 30
0.0
 10
70.9891
 20
56.6471
 30
0.0
  0
SPLINE
  5
57
330
1F
100
AcDbEntity
  8
layer 1
 62
     7
370
     9
100
AcDbSpline
210
0.0
220
0.0
230
1.0
 70
    11
 71
     3
 72
    40
 73
    36
 74
     0
 42
0.0000000001
 43
0.0000000001
 12
1.0
 22
0.0
 32
0.0
 13
1.0
 23
0.0
 33
0.0
 40
0.0
 40
0.0
 40
0.0
 40
0.0
 40
0.1
 40
0.1
 40
0.1
 40
0.1
 40
0.2
 40
0.2
 40
0.2
 40
0.2
 40
0.3
 40
0.3
 40
0.3
 40
0.3
 40
0.4
 40
0.4
 40
0.4
 40
0.4
 40
0.5
 40
0.5
 40
0.5
 40
0.5
 40
0.6
 40
0.6
 40
0.6
 40
0.6
 40
0.7
 40
0.7
 40
0.7
 40
0.7
 40
0.8
 40
0.8
 40
0.8
 40
0.8
 40
1.0
 40
1.0
 40
1.0
 40
1.0
 10
2.6465
 20
71.0843
 30
0.0
 10
2.6465
 20
71.0843
 30
0.0
 10
-8.5024
 20
57.584
 30
0.0
 10
-7.1088
 20
44.0837
 30
0.0
 10
-7.1088
 20
44.0837
 30
0.0
 10
-5.7152
 20
30.5833
 30
0.0
 10
3.0446
 20
27.0037
 30
0.0
 10
9.5149
 20
27.106
 30
0.0
 10
9.5149
 20
27.106
 30
0.0
 10
15.9852
 20
27.2084
 30
0.0
 10
22.6546
 20
33.0379
 30
0.0
 10
16.483
 20
42.6518
 30
0.0
 10
16.483
 20
42.6518
 30
0.0
 10
16.483
 20
42.6518
 30
0.0
 10
12.4016
 20
45.8223
 30
0.0
 10
8.9177
 20
42.9587
 30
0.0
 10
8.9177
 20
42.9587
 30
0.0
 10
8.9177
 20
42.9587
 30
0.0
 10
5.8319
 20
35.5949
 30
0.0
 10
12.9989
 20
35.7994
 30
0.0
 10
12.9989
 20
35.7994
 30
0.0
 10
12.9989
 20
35.7994
 30
0.0
 10
15.587
 20
36.3108
 30
0.0
 10
14.9898
 20
38.9699
 30
0.0
 10
14.9898
 20
38.9699
 30
0.0
 10
21.1305
 20
34.173
 30
0.0
 10
6.5051
 20
22.4178
 30
0.0
 10
-2.7288
 20
37.2313
 30
0.0
 10
-2.7288
 20
37.2313
 30
0.0
 10
-2.7288
 20
37.2313
 30
0.0
 10
-8.4028
 20
43.2655
 30
0.0
 10
-3.0275
 20
57.584
 30
0.0
 10
-3.0275
 20
57.584
 30
0.0
 10
-3.0275
 20
57.584
 30
0.0
 10
2.6465
 20
71.0843
 30
0.0
 10
2.6465
 20
71.0843
 30
0.0
  0
SPLINE
  5
58
330
1F
100
AcDbEntity
  8
layer 1
 62
     7
370
     9
100
AcDbSpline
210
0.0
220
0.0
230
1.0
 70
    11
 71
     3
 72
    20
 73
    16
 74
     0
 42
0.0000000001
 43
0.0000000001
 12
1.0
 22
0.0
 32
0.0
 13
1.0
 23
0.0
 33
0.0
 40
0.0
 40
0.0
 40
0.0
 40
0.0
 40
0.2
 40
0.2
 40
0.2
 40
0.2
 40
0.4
 40
0.4
 40
0.4
 40
0.4
 40
0.6
 40
0.6
 40
0.6
 40
0.6
 40
1.0
 40
1.0
 40
1.0
 40
1.0
 10
64.4409
 20
40.8628
 30
0.0
 10
64.4409
 20
40.8628
 30
0.0
 10
70.9891
 20
45.2467
 30
0.0
 10
70.9891
 20
45.2467
 30
0.0
 10
70.9891
 20
45.2467
 30
0.0
 10
70.9891
 20
45.2467
 30
0.0
 10
70.9891
 20
48.3606
 30
0.0
 10
70.9891
 20
48.3606
 30
0.0
 10
70.9891
 20
48.3606
 30
0.0
 10
70.0387
 20
47.808
 30
0.0
 10
65.5386
 20
43.2245
 30
0.0
 10
64.8687
 20
42.5313
 30
0.0
 10
64.8687
 20
42.5313
 30
0.0
 10
64.4065
 20
42.0526
 30
0.0
 10
64.5124
 20
41.4502
 30
0.0
 10
64.4409
 20
40.8628
 30
0.0
  0
SPLINE
  5
59
330
1F
100
AcDbEntity
  8
layer 1
 62
     7
370
     9
100
AcDbSpline
210
0.0
220
0.0
230
1.0
 70
    11
 71
     3
 72
    28
 73
    24
 74
     0
 42
0.0000000001
 43
0.0000000001
 12
1.0
 22
0.0
 32
0.0
 13
1.0
 23
0.0
 33
0.0
 40
0.0
 40
0.0
 40
0.0
 40
0.0
 40
0.1428571428571428
 40
0.1428571428571428
 40
0.1428571428571428
 40
0.1428571428571428
 40
0.2857142857142857
 40
0.2857142857142857
 40
0.2857142857142857
 40
0.2857142857142857
 40
0.4285714285714285
 40
0.4285714285714285
 40
0.4285714285714285
 40
0.4285714285714285
 40
0.5714285714285714
 40
0.5714285714285714
 40
0.5714285714285714
 40
0.5714285714285714
 40
0.7142857142857143
 40
0.7142857142857143
 40
0.7142857142857143
 40
0.7142857142857143
 40
1.0
 40
1.0
 40
1.0
 40
1.0
 10
24.8879
 20
33.3198
 30
0.0
 10
25.235
 20
33.0704
 30
0.0
 10
27.8771
 20
27.1358
 30
0.0
 10
32.1456
 20
24.4652
 30
0.0
 10
32.1456
 20
24.4652
 30
0.0
 10
33.7684
 20
23.2366
 30
0.0
 10
42.7532
 20
19.9485
 30
0.0
 10
41.0171
 20
26.8986
 30
0.0
 10
41.0171
 20
26.8986
 30
0.0
 10
41.0171
 20
26.8986
 30
0.0
 10
40.2006
 20
28.7257
 30
0.0
 10
37.4538
 20
26.9746
 30
0.0
 10
37.4538
 20
26.9746
 30
0.0
 10
38.2709
 20
30.2636
 30
0.0
 10
41.8716
 20
30.989
 30
0.0
 10
44.4038
 20
29.6034
 30
0.0
 10
44.4038
 20
29.6034
 30
0.0
 10
52.964
 20
24.9187
 30
0.0
 10
41.1083
 20
12.6881
 30
0.0
 10
29.6259
 20
23.4043
 30
0.0
 10
29.6259
 20
23.4043
 30
0.0
 10
27.2936
 20
26.0219
 30
0.0
 10
24.9366
 20
29.6753
 30
0.0
 10
24.8879
 20
33.3198
 30
0.0
  0
SPLINE
  5
5A
330
1F
100
AcDbEntity
  8
layer 1
 62
     7
370
     9
100
AcDbSpline
210
0.0
220
0.0
230
1.0
 70
    11
 71
     3
 72
    24
 73
    20
 74
     0
 42
0.0000000001
 43
0.0000000001
 12
1.0
 22
0.0
 32
0.0
 13
1.0
 23
0.0
 33
0.0
 40
0.0
 40
0.0
 40
0.0
 40
0.0
 40
0.1666666666666667
 40
0.1666666666666667
 40
0.1666666666666667
 40
0.1666666666666667
 40
0.3333333333333333
 40
0.3333333333333333
 40
0.3333333333333333
 40
0.3333333333333333
 40
0.5
 40
0.5
 40
0.5
 40
0.5
 40
0.6666666666666666
 40
0.6666666666666666
 40
0.6666666666666666
 40
0.6666666666666666
 40
1.0
 40
1.0
 40
1.0
 40
1.0
 10
45.4501
 20
15.6757
 30
0.0
 10
42.719
 20
15.5253
 30
0.0
 10
40.427
 20
16.0264
 30
0.0
 10
38.2811
 20
16.8782
 30
0.0
 10
38.2811
 20
16.8782
 30
0.0
 10
38.2811
 20
16.8782
 30
0.0
 10
54.8865
 20
16.5776
 30
0.0
 10
51.3021
 20
26.4234
 30
0.0
 10
51.3021
 20
26.4234
 30
0.0
 10
51.3021
 20
26.4234
 30
0.0
 10
50.0586
 20
29.8807
 30
0.0
 10
48.4492
 20
30.4068
 30
0.0
 10
48.4492
 20
30.4068
 30
0.0
 10
48.4492
 20
30.4068
 30
0.0
 10
56.8132
 20
32.4459
 30
0.0
 10
56.3768
 20
23.5482
 30
0.0
 10
56.3768
 20
23.5482
 30
0.0
 10
56.1496
 20
18.8939
 30
0.0
 10
48.8445
 20
15.8823
 30
0.0
 10
45.4501
 20
15.6757
 30
0.0
  0
SPLINE
  5
5B
330
1F
100
AcDbEntity
  8
layer 1
 62
     7
370
     9
100
AcDbSpline
210
0.0
220
0.0
230
1.0
 70
    11
 71
     3
 72
    16
 73
    12
 74
     0
 42
0.0000000001
 43
0.0000000001
 12
1.0
 22
0.0
 32
0.0
 13
1.0
 23
0.0
 33
0.0
 40
0.0
 40
0.0
 40
0.0
 40
0.0
 40
0.25
 40
0.25
 40
0.25
 40
0.25
 40
0.5
 40
0.5
 40
0.5
 40
0.5
 40
1.0
 40
1.0
 40
1.0
 40
1.0
 10
52.4694
 20
16.109
 30
0.0
 10
52.6782
 20
15.9669
 30
0.0
 10
60.8545
 20
18.2255
 30
0.0
 10
58.6801
 20
26.92
 30
0.0
 10
58.6801
 20
26.92
 30
0.0
 10
61.0576
 20
25.0328
 30
0.0
 10
61.6609
 20
21.6967
 30
0.0
 10
60.6166
 20
19.5158
 30
0.0
 10
60.6166
 20
19.5158
 30
0.0
 10
59.4191
 20
17.0141
 30
0.0
 10
56.2457
 20
15.6165
 30
0.0
 10
52.4694
 20
16.109
 30
0.0
  0
SPLINE
  5
5C
330
1F
100
AcDbEntity
  8
layer 1
 62
     7
370
     9
100
AcDbSpline
210
0.0
220
0.0
230
1.0
 70
    11
 71
     3
 72
    44
 73
    40
 74
     0
 42
0.0000000001
 43
0.0000000001
 12
1.0
 22
0.0
 32
0.0
 13
1.0
 23
0.0
 33
0.0
 40
0.0
 40
0.0
 40
0.0
 40
0.0
 40
0.0909090909090909
 40
0.0909090909090909
 40
0.0909090909090909
 40
0.0909090909090909
 40
0.1818181818181818
 40
0.1818181818181818
 40
0.1818181818181818
 40
0.1818181818181818
 40
0.2727272727272727
 40
0.2727272727272727
 40
0.2727272727272727
 40
0.2727272727272727
 40
0.3636363636363636
 40
0.3636363636363636
 40
0.3636363636363636
 40
0.3636363636363636
 40
0.4545454545454545
 40
0.4545454545454545
 40
0.4545454545454545
 40
0.4545454545454545
 40
0.5454545454545454
 40
0.5454545454545454
 40
0.5454545454545454
 40
0.5454545454545454
 40
0.6363636363636364
 40
0.6363636363636364
 40
0.6363636363636364
 40
0.6363636363636364
 40
0.7272727272727273
 40
0.7272727272727273
 40
0.7272727272727273
 40
0.7272727272727273
 40
0.8181818181818182
 40
0.8181818181818182
 40
0.8181818181818182
 40
0.8181818181818182
 40
1.0
 40
1.0
 40
1.0
 40
1.0
 10
56.3102
 20
13.0079
 30
0.0
 10
56.3102
 20
13.0079
 30
0.0
 10
54.9209
 20
13.5107
 30
0.0
 10
54.9209
 20
13.5107
 30
0.0
 10
54.9209
 20
13.5107
 30
0.0
 10
54.9209
 20
13.5107
 30
0.0
 10
66.5251
 20
15.1032
 30
0.0
 10
66.6068
 20
20.4669
 30
0.0
 10
66.6068
 20
20.4669
 30
0.0
 10
66.0153
 20
23.7427
 30
0.0
 10
60.9669
 20
29.1035
 30
0.0
 10
66.6068
 20
30.8592
 30
0.0
 10
66.6068
 20
30.8592
 30
0.0
 10
66.6068
 20
30.8592
 30
0.0
 10
69.5486
 20
31.4461
 30
0.0
 10
69.5486
 20
31.4461
 30
0.0
 10
69.5486
 20
31.4461
 30
0.0
 10
69.5486
 20
31.4461
 30
0.0
 10
68.486
 20
25.9983
 30
0.0
 10
69.9571
 20
24.9927
 30
0.0
 10
69.9571
 20
24.9927
 30
0.0
 10
69.9571
 20
24.9927
 30
0.0
 10
70.5173
 20
24.7291
 30
0.0
 10
70.9891
 20
24.1386
 30
0.0
 10
70.9891
 20
24.1386
 30
0.0
 10
70.9891
 20
24.1386
 30
0.0
 10
70.9891
 20
19.2268
 30
0.0
 10
70.9891
 20
19.2268
 30
0.0
 10
70.9891
 20
19.2268
 30
0.0
 10
70.7052
 20
18.3398
 30
0.0
 10
70.4476
 20
17.7851
 30
0.0
 10
70.4476
 20
17.7851
 30
0.0
 10
70.4476
 20
17.7851
 30
0.0
 10
70.4476
 20
17.7851
 30
0.0
 10
69.6304
 20
15.7738
 30
0.0
 10
63.665
 20
14.1813
 30
0.0
 10
63.665
 20
14.1813
 30
0.0
 10
63.665
 20
14.1813
 30
0.0
 10
59.3338
 20
12.5888
 30
0.0
 10
56.3102
 20
13.0079
 30
0.0
  0
SPLINE
  5
5D
330
1F
100
AcDbEntity
  8
layer 1
 62
     7
370
     9
100
AcDbSpline
210
0.0
220
0.0
230
1.0
 70
    11
 71
     3
 72
    28
 73
    24
 74
     0
 42
0.0000000001
 43
0.0000000001
 12
1.0
 22
0.0
 32
0.0
 13
1.0
 23
0.0
 33
0.0
 40
0.0
 40
0.0
 40
0.0
 40
0.0
 40
0.1428571428571428
 40
0.1428571428571428
 40
0.1428571428571428
 40
0.1428571428571428
 40
0.2857142857142857
 40
0.2857142857142857
 40
0.2857142857142857
 40
0.2857142857142857
 40
0.4285714285714285
 40
0.4285714285714285
 40
0.4285714285714285
 40
0.4285714285714285
 40
0.5714285714285714
 40
0.5714285714285714
 40
0.5714285714285714
 40
0.5714285714285714
 40
0.7142857142857143
 40
0.7142857142857143
 40
0.7142857142857143
 40
0.7142857142857143
 40
1.0
 40
1.0
 40
1.0
 40
1.0
 10
63.8285
 20
11.6668
 30
0.0
 10
63.8285
 20
11.6668
 30
0.0
 10
62.6027
 20
12.086
 30
0.0
 10
62.6027
 20
12.086
 30
0.0
 10
62.6027
 20
12.086
 30
0.0
 10
62.6027
 20
12.086
 30
0.0
 10
70.3659
 20
14.0137
 30
0.0
 10
70.9379
 20
15.187
 30
0.0
 10
70.9379
 20
15.187
 30
0.0
 10
70.9379
 20
15.187
 30
0.0
 10
70.9576
 20
15.1647
 30
0.0
 10
70.9891
 20
15.123
 30
0.0
 10
70.9891
 20
15.123
 30
0.0
 10
70.9891
 20
15.123
 30
0.0
 10
70.9891
 20
12.6661
 30
0.0
 10
70.9891
 20
12.6661
 30
0.0
 10
70.9891
 20
12.6661
 30
0.0
 10
70.7875
 20
12.416
 30
0.0
 10
70.5063
 20
12.1638
 30
0.0
 10
70.1206
 20
11.9183
 30
0.0
 10
70.1206
 20
11.9183
 30
0.0
 10
70.1206
 20
11.9183
 30
0.0
 10
66.1166
 20
11.164
 30
0.0
 10
63.8285
 20
11.6668
 30
0.0
  0
SPLINE
  5
5E
330
1F
100
AcDbEntity
  8
layer 1
 62
     7
370
     9
100
AcDbSpline
210
0.0
220
0.0
230
1.0
 70
    11
 71
     3
 72
    28
 73
    24
 74
     0
 42
0.0000000001
 43
0.0000000001
 12
1.0
 22
0.0
 32
0.0
 13
1.0
 23
0.0
 33
0.0
 40
0.0
 40
0.0
 40
0.0
 40
0.0
 40
0.1428571428571428
 40
0.1428571428571428
 40
0.1428571428571428
 40
0.1428571428571428
 40
0.2857142857142857
 40
0.2857142857142857
 40
0.2857142857142857
 40
0.2857142857142857
 40
0.4285714285714285
 40
0.4285714285714285
 40
0.4285714285714285
 40
0.4285714285714285
 40
0.5714285714285714
 40
0.5714285714285714
 40
0.5714285714285714
 40
0.5714285714285714
 40
0.7142857142857143
 40
0.7142857142857143
 40
0.7142857142857143
 40
0.7142857142857143
 40
1.0
 40
1.0
 40
1.0
 40
1.0
 10
60.2329
 20
9.8232
 30
0.0
 10
60.2329
 20
9.8232
 30
0.0
 10
67.2563
 20
9.6613
 30
0.0
 10
70.9891
 20
8.3035
 30
0.0
 10
70.9891
 20
8.3035
 30
0.0
 10
70.9891
 20
8.3035
 30
0.0
 10
70.9891
 20
-0.9711
 30
0.0
 10
70.9891
 20
-0.9711
 30
0.0
 10
70.9891
 20
-0.9711
 30
0.0
 10
70.2379
 20
-1.2133
 30
0.0
 10
67.5188
 20
-1.9369
 30
0.0
 10
66.6068
 20
-0.0661
 30
0.0
 10
66.6068
 20
-0.0661
 30
0.0
 10
65.6357
 20
-0.1664
 30
0.0
 10
64.8684
 20
1.0656
 30
0.0
 10
66.3617
 20
2.448
 30
0.0
 10
66.3617
 20
2.448
 30
0.0
 10
66.3617
 20
2.448
 30
0.0
 10
67.7505
 20
3.9565
 30
0.0
 10
65.6259
 20
6.5547
 30
0.0
 10
65.6259
 20
6.5547
 30
0.0
 10
65.1194
 20
7.6758
 30
0.0
 10
61.6535
 20
9.1719
 30
0.0
 10
60.2329
 20
9.8232
 30
0.0
  0
SPLINE
  5
5F
330
1F
100
AcDbEntity
  8
layer 1
 62
     7
370
     9
100
AcDbSpline
210
0.0
220
0.0
230
1.0
 70
    11
 71
     3
 72
    16
 73
    12
 74
     0
 42
0.0000000001
 43
0.0000000001
 12
1.0
 22
0.0
 32
0.0
 13
1.0
 23
0.0
 33
0.0
 40
0.0
 40
0.0
 40
0.0
 40
0.0
 40
0.25
 40
0.25
 40
0.25
 40
0.25
 40
0.5
 40
0.5
 40
0.5
 40
0.5
 40
1.0
 40
1.0
 40
1.0
 40
1.0
 10
47.7799
 20
11.9696
 30
0.0
 10
47.7799
 20
11.9696
 30
0.0
 10
58.4925
 20
8.9844
 30
0.0
 10
56.0472
 20
3.0133
 30
0.0
 10
56.0472
 20
3.0133
 30
0.0
 10
56.0472
 20
3.0133
 30
0.0
 10
51.8552
 20
-0.8083
 30
0.0
 10
51.8552
 20
5.7597
 30
0.0
 10
51.8552
 20
5.7597
 30
0.0
 10
51.5752
 20
9.4946
 30
0.0
 10
50.4727
 20
10.2433
 30
0.0
 10
47.7799
 20
11.9696
 30
0.0
  0
SPLINE
  5
60
330
1F
100
AcDbEntity
  8
layer 1
 62
     7
370
     9
100
AcDbSpline
210
0.0
220
0.0
230
1.0
 70
    11
 71
     3
 72
    20
 73
    16
 74
     0
 42
0.0000000001
 43
0.0000000001
 12
1.0
 22
0.0
 32
0.0
 13
1.0
 23
0.0
 33
0.0
 40
0.0
 40
0.0
 40
0.0
 40
0.0
 40
0.2
 40
0.2
 40
0.2
 40
0.2
 40
0.4
 40
0.4
 40
0.4
 40
0.4
 40
0.6
 40
0.6
 40
0.6
 40
0.6
 40
1.0
 40
1.0
 40
1.0
 40
1.0
 10
42.1909
 20
13.0442
 30
0.0
 10
42.1909
 20
13.0442
 30
0.0
 10
45.3344
 20
10.1784
 30
0.0
 10
43.9374
 20
8.3871
 30
0.0
 10
43.9374
 20
8.3871
 30
0.0
 10
42.5403
 20
6.5956
 30
0.0
 10
39.8621
 20
7.3121
 30
0.0
 10
38.9306
 20
5.6403
 30
0.0
 10
38.9306
 20
5.6403
 30
0.0
 10
37.9991
 20
3.9685
 30
0.0
 10
42.4238
 20
-3.4353
 30
0.0
 10
49.1773
 20
2.655
 30
0.0
 10
49.1773
 20
2.655
 30
0.0
 10
52.6521
 20
7.934
 30
0.0
 10
46.2865
 20
11.6003
 30
0.0
 10
42.1909
 20
13.0442
 30
0.0
  0
SPLINE
  5
61
330
1F
100
AcDbEntity
  8
layer 1
 62
     7
370
     9
100
AcDbSpline
210
0.0
220
0.0
230
1.0
 70
    11
 71
     3
 72
    24
 73
    20
 74
     0
 42
0.0000000001
 43
0.0000000001
 12
1.0
 22
0.0
 32
0.0
 13
1.0
 23
0.0
 33
0.0
 40
0.0
 40
0.0
 40
0.0
 40
0.0
 40
0.1666666666666667
 40
0.1666666666666667
 40
0.1666666666666667
 40
0.1666666666666667
 40
0.3333333333333333
 40
0.3333333333333333
 40
0.3333333333333333
 40
0.3333333333333333
 40
0.5
 40
0.5
 40
0.5
 40
0.5
 40
0.6666666666666666
 40
0.6666666666666666
 40
0.6666666666666666
 40
0.6666666666666666
 40
1.0
 40
1.0
 40
1.0
 40
1.0
 10
-10.2542
 20
31.7159
 30
0.0
 10
-10.0724
 20
31.5259
 30
0.0
 10
-9.236
 20
30.7059
 30
0.0
 10
-8.2041
 20
30.5545
 30
0.0
 10
-8.2041
 20
30.5545
 30
0.0
 10
-8.2041
 20
30.5545
 30
0.0
 10
-9.7067
 20
32.0126
 30
0.0
 10
-6.618
 20
32.9561
 30
0.0
 10
-6.618
 20
32.9561
 30
0.0
 10
-3.2512
 20
31.1469
 30
0.0
 10
-3.796
 20
28.5765
 30
0.0
 10
-5.4102
 20
26.8746
 30
0.0
 10
-5.4102
 20
26.8746
 30
0.0
 10
-6.996
 20
25.203
 30
0.0
 10
-9.6048
 20
24.368
 30
0.0
 10
-10.2542
 20
25.9126
 30
0.0
 10
-10.2542
 20
25.9126
 30
0.0
 10
-10.2542
 20
25.9126
 30
0.0
 10
-10.2542
 20
31.7159
 30
0.0
 10
-10.2542
 20
31.7159
 30
0.0
  0
SPLINE
  5
62
330
1F
100
AcDbEntity
  8
layer 1
 62
     7
370
     9
100
AcDbSpline
210
0.0
220
0.0
230
1.0
 70
    11
 71
     3
 72
    28
 73
    24
 74
     0
 42
0.0000000001
 43
0.0000000001
 12
1.0
 22
0.0
 32
0.0
 13
1.0
 23
0.0
 33
0.0
 40
0.0
 40
0.0
 40
0.0
 40
0.0
 40
0.1428571428571428
 40
0.1428571428571428
 40
0.1428571428571428
 40
0.1428571428571428
 40
0.2857142857142857
 40
0.2857142857142857
 40
0.2857142857142857
 40
0.2857142857142857
 40
0.4285714285714285
 40
0.4285714285714285
 40
0.4285714285714285
 40
0.4285714285714285
 40
0.5714285714285714
 40
0.5714285714285714
 40
0.5714285714285714
 40
0.5714285714285714
 40
0.7142857142857143
 40
0.7142857142857143
 40
0.7142857142857143
 40
0.7142857142857143
 40
1.0
 40
1.0
 40
1.0
 40
1.0
 10
-8.0063
 20
23.8645
 30
0.0
 10
-9.5369
 20
24.3505
 30
0.0
 10
-9.9057
 20
23.0101
 30
0.0
 10
-9.5925
 20
22.4922
 30
0.0
 10
-9.5925
 20
22.4922
 30
0.0
 10
-9.5925
 20
22.4922
 30
0.0
 10
-3.2481
 20
15.2875
 30
0.0
 10
1.6771
 20
12.886
 30
0.0
 10
1.6771
 20
12.886
 30
0.0
 10
1.6771
 20
12.886
 30
0.0
 10
9.5242
 20
8.2544
 30
0.0
 10
11.2771
 20
7.9113
 30
0.0
 10
11.2771
 20
7.9113
 30
0.0
 10
13.0302
 20
7.5683
 30
0.0
 10
13.6981
 20
8.2544
 30
0.0
 10
13.0302
 20
9.7125
 30
0.0
 10
13.0302
 20
9.7125
 30
0.0
 10
13.0302
 20
9.7125
 30
0.0
 10
5.2667
 20
12.6286
 30
0.0
 10
-0.3264
 20
17.8606
 30
0.0
 10
-0.3264
 20
17.8606
 30
0.0
 10
-0.4589
 20
17.5891
 30
0.0
 10
-6.7616
 20
23.3351
 30
0.0
 10
-8.0063
 20
23.8645
 30
0.0
  0
SPLINE
  5
63
330
1F
100
AcDbEntity
  8
layer 1
 62
     7
370
     9
100
AcDbSpline
210
0.0
220
0.0
230
1.0
 70
    11
 71
     3
 72
    68
 73
    64
 74
     0
 42
0.0000000001
 43
0.0000000001
 12
1.0
 22
0.0
 32
0.0
 13
1.0
 23
0.0
 33
0.0
 40
0.0
 40
0.0
 40
0.0
 40
0.0
 40
0.0588235294117647
 40
0.0588235294117647
 40
0.0588235294117647
 40
0.0588235294117647
 40
0.1176470588235294
 40
0.1176470588235294
 40
0.1176470588235294
 40
0.1176470588235294
 40
0.1764705882352941
 40
0.1764705882352941
 40
0.1764705882352941
 40
0.1764705882352941
 40
0.2352941176470588
 40
0.2352941176470588
 40
0.2352941176470588
 40
0.2352941176470588
 40
0.2941176470588235
 40
0.2941176470588235
 40
0.2941176470588235
 40
0.2941176470588235
 40
0.3529411764705883
 40
0.3529411764705883
 40
0.3529411764705883
 40
0.3529411764705883
 40
0.4117647058823529
 40
0.4117647058823529
 40
0.4117647058823529
 40
0.4117647058823529
 40
0.4705882352941176
 40
0.4705882352941176
 40
0.4705882352941176
 40
0.4705882352941176
 40
0.5294117647058824
 40
0.5294117647058824
 40
0.5294117647058824
 40
0.5294117647058824
 40
0.5882352941176471
 40
0.5882352941176471
 40
0.5882352941176471
 40
0.5882352941176471
 40
0.6470588235294118
 40
0.6470588235294118
 40
0.6470588235294118
 40
0.6470588235294118
 40
0.7058823529411765
 40
0.7058823529411765
 40
0.7058823529411765
 40
0.7058823529411765
 40
0.7647058823529411
 40
0.7647058823529411
 40
0.7647058823529411
 40
0.7647058823529411
 40
0.8235294117647058
 40
0.8235294117647058
 40
0.8235294117647058
 40
0.8235294117647058
 40
0.8823529411764706
 40
0.8823529411764706
 40
0.8823529411764706
 40
0.8823529411764706
 40
1.0
 40
1.0
 40
1.0
 40
1.0
 10
9.3012
 20
23.5338
 30
0.0
 10
9.3012
 20
23.5338
 30
0.0
 10
20.1242
 20
11.806
 30
0.0
 10
17.061
 20
6.6749
 30
0.0
 10
17.061
 20
6.6749
 30
0.0
 10
17.061
 20
6.6749
 30
0.0
 10
16.244
 20
1.125
 30
0.0
 10
10.3222
 20
1.4391
 30
0.0
 10
10.3222
 20
1.4391
 30
0.0
 10
10.3222
 20
1.4391
 30
0.0
 10
7.4635
 20
1.3341
 30
0.0
 10
8.1782
 20
5.7323
 30
0.0
 10
8.1782
 20
5.7323
 30
0.0
 10
8.1782
 20
5.7323
 30
0.0
 10
3.073
 20
6.8838
 30
0.0
 10
1.5415
 20
1.2295
 30
0.0
 10
1.5415
 20
1.2295
 30
0.0
 10
1.5415
 20
1.2295
 30
0.0
 10
1.8481
 20
-6.3099
 30
0.0
 10
11.0371
 20
-3.3778
 30
0.0
 10
11.0371
 20
-3.3778
 30
0.0
 10
11.0371
 20
-3.3778
 30
0.0
 10
12.5684
 20
-2.5399
 30
0.0
 10
12.5684
 20
-2.5399
 30
0.0
 10
12.5684
 20
-2.5399
 30
0.0
 10
12.5684
 20
-2.5399
 30
0.0
 10
11.5474
 20
-11.6501
 30
0.0
 10
20.5325
 20
-10.4983
 30
0.0
 10
20.5325
 20
-10.4983
 30
0.0
 10
20.5325
 20
-10.4983
 30
0.0
 10
23.5952
 20
-9.3464
 30
0.0
 10
24.2079
 20
-8.5088
 30
0.0
 10
24.2079
 20
-8.5088
 30
0.0
 10
24.2079
 20
-8.5088
 30
0.0
 10
19.0009
 20
-7.0424
 30
0.0
 10
18.8987
 20
-2.5399
 30
0.0
 10
18.8987
 20
-2.5399
 30
0.0
 10
18.8987
 20
-2.5399
 30
0.0
 10
25.4334
 20
-11.6503
 30
0.0
 10
32.6826
 20
-1.0741
 30
0.0
 10
32.6826
 20
-1.0741
 30
0.0
 10
32.6826
 20
-1.0741
 30
0.0
 10
24.9226
 20
-2.7498
 30
0.0
 10
22.6765
 20
1.9626
 30
0.0
 10
22.6765
 20
1.9626
 30
0.0
 10
22.6765
 20
1.9626
 30
0.0
 10
33.4997
 20
-1.7019
 30
0.0
 10
35.2353
 20
4.3712
 30
0.0
 10
35.2353
 20
4.3712
 30
0.0
 10
35.2353
 20
4.3712
 30
0.0
 10
39.2172
 20
11.0727
 30
0.0
 10
30.9469
 20
10.9681
 30
0.0
 10
30.9469
 20
10.9681
 30
0.0
 10
30.9469
 20
10.9681
 30
0.0
 10
29.0239
 20
11.2116
 30
0.0
 10
28.9219
 20
8.2794
 30
0.0
 10
28.9219
 20
8.2794
 30
0.0
 10
28.9219
 20
8.2794
 30
0.0
 10
24.9567
 20
3.2809
 30
0.0
 10
22.4042
 20
10.7158
 30
0.0
 10
22.4042
 20
10.7158
 30
0.0
 10
19.516
 20
16.9454
 30
0.0
 10
16.0432
 20
21.9033
 30
0.0
 10
9.3012
 20
23.5338
 30
0.0
  0
SPLINE
  5
64
330
1F
100
AcDbEntity
  8
layer 1
 62
     7
370
     9
100
AcDbSpline
210
0.0
220
0.0
230
1.0
 70
    11
 71
     3
 72
    20
 73
    16
 74
     0
 42
0.0000000001
 43
0.0000000001
 12
1.0
 22
0.0
 32
0.0
 13
1.0
 23
0.0
 33
0.0
 40
0.0
 40
0.0
 40
0.0
 40
0.0
 40
0.2
 40
0.2
 40
0.2
 40
0.2
 40
0.4
 40
0.4
 40
0.4
 40
0.4
 40
0.6
 40
0.6
 40
0.6
 40
0.6
 40
1.0
 40
1.0
 40
1.0
 40
1.0
 10
32.6778
 20
-4.6465
 30
0.0
 10
32.6778
 20
-4.6465
 30
0.0
 10
38.8259
 20
-8.3867
 30
0.0
 10
39.7967
 20
-9.5503
 30
0.0
 10
39.7967
 20
-9.5503
 30
0.0
 10
39.7967
 20
-9.5503
 30
0.0
 10
41.2528
 20
-7.4724
 30
0.0
 10
41.2528
 20
-7.4724
 30
0.0
 10
41.2528
 20
-7.4724
 30
0.0
 10
41.2528
 20
-7.4724
 30
0.0
 10
34.2957
 20
-2.4022
 30
0.0
 10
34.2957
 20
-2.4022
 30
0.0
 10
34.2957
 20
-2.4022
 30
0.0
 10
34.2957
 20
-2.4022
 30
0.0
 10
32.6778
 20
-4.6465
 30
0.0
 10
32.6778
 20
-4.6465
 30
0.0
  0
SPLINE
  5
65
330
1F
100
AcDbEntity
  8
layer 1
 62
     7
370
     9
100
AcDbSpline
210
0.0
220
0.0
230
1.0
 70
    11
 71
     3
 72
    36
 73
    32
 74
     0
 42
0.0000000001
 43
0.0000000001
 12
1.0
 22
0.0
 32
0.0
 13
1.0
 23
0.0
 33
0.0
 40
0.0
 40
0.0
 40
0.0
 40
0.0
 40
0.1111111111111111
 40
0.1111111111111111
 40
0.1111111111111111
 40
0.1111111111111111
 40
0.2222222222222222
 40
0.2222222222222222
 40
0.2222222222222222
 40
0.2222222222222222
 40
0.3333333333333333
 40
0.3333333333333333
 40
0.3333333333333333
 40
0.3333333333333333
 40
0.4444444444444444
 40
0.4444444444444444
 40
0.4444444444444444
 40
0.4444444444444444
 40
0.5555555555555556
 40
0.5555555555555556
 40
0.5555555555555556
 40
0.5555555555555556
 40
0.6666666666666666
 40
0.6666666666666666
 40
0.6666666666666666
 40
0.6666666666666666
 40
0.7777777777777778
 40
0.7777777777777778
 40
0.7777777777777778
 40
0.7777777777777778
 40
1.0
 40
1.0
 40
1.0
 40
1.0
 10
13.9462
 20
-16.4044
 30
0.0
 10
13.9462
 20
-16.4044
 30
0.0
 10
10.1034
 20
-9.3204
 30
0.0
 10
4.5651
 20
-6.998
 30
0.0
 10
4.5651
 20
-6.998
 30
0.0
 10
4.5651
 20
-6.998
 30
0.0
 10
-10.0153
 20
0.2019
 30
0.0
 10
-6.0593
 20
6.3568
 30
0.0
 10
-6.0593
 20
6.3568
 30
0.0
 10
-6.0593
 20
6.3568
 30
0.0
 10
-3.6859
 20
7.6342
 30
0.0
 10
-2.4425
 20
6.589
 30
0.0
 10
-2.4425
 20
6.589
 30
0.0
 10
-2.4425
 20
6.589
 30
0.0
 10
-0.1821
 20
12.6277
 30
0.0
 10
-5.0421
 20
13.4406
 30
0.0
 10
-5.0421
 20
13.4406
 30
0.0
 10
-5.0421
 20
13.4406
 30
0.0
 10
-9.0835
 20
14.0962
 30
0.0
 10
-10.2542
 20
13.8175
 30
0.0
 10
-10.2542
 20
13.8175
 30
0.0
 10
-10.2542
 20
13.8175
 30
0.0
 10
-10.2542
 20
0.4606
 30
0.0
 10
-10.2542
 20
0.4606
 30
0.0
 10
-10.2542
 20
0.4606
 30
0.0
 10
-9.5276
 20
-0.1691
 30
0.0
 10
-4.7705
 20
-4.1572
 30
0.0
 10
5.5823
 20
-9.9011
 30
0.0
 10
5.5823
 20
-9.9011
 30
0.0
 10
8.7083
 20
-11.8535
 30
0.0
 10
11.04
 20
-14.4136
 30
0.0
 10
13.9462
 20
-16.4044
 30
0.0
  0
SPLINE
  5
66
330
1F
100
AcDbEntity
  8
layer 1
 62
     7
370
     9
100
AcDbSpline
210
0.0
220
0.0
230
1.0
 70
    11
 71
     3
 72
    16
 73
    12
 74
     0
 42
0.0000000001
 43
0.0000000001
 12
1.0
 22
0.0
 32
0.0
 13
1.0
 23
0.0
 33
0.0
 40
0.0
 40
0.0
 40
0.0
 40
0.0
 40
0.25
 40
0.25
 40
0.25
 40
0.25
 40
0.5
 40
0.5
 40
0.5
 40
0.5
 40
1.0
 40
1.0
 40
1.0
 40
1.0
 10
-10.2542
 20
-7.5695
 30
0.0
 10
-10.2542
 20
-7.5695
 30
0.0
 10
-5.9383
 20
-6.3814
 30
0.0
 10
-5.9383
 20
-6.3814
 30
0.0
 10
-5.9383
 20
-6.3814
 30
0.0
 10
-5.9383
 20
-6.3814
 30
0.0
 10
-10.2542
 20
-3.8212
 30
0.0
 10
-10.2542
 20
-3.8212
 30
0.0
 10
-10.2542
 20
-3.8212
 30
0.0
 10
-10.2542
 20
-3.8212
 30
0.0
 10
-10.2542
 20
-7.5695
 30
0.0
 10
-10.2542
 20
-7.5695
 30
0.0
  0
SPLINE
  5
67
330
1F
100
AcDbEntity
  8
layer 1
 62
     7
370
     9
100
AcDbSpline
210
0.0
220
0.0
230
1.0
 70
    11
 71
     3
 72
    24
 73
    20
 74
     0
 42
0.0000000001
 43
0.0000000001
 12
1.0
 22
0.0
 32
0.0
 13
1.0
 23
0.0
 33
0.0
 40
0.0
 40
0.0
 40
0.0
 40
0.0
 40
0.1666666666666667
 40
0.1666666666666667
 40
0.1666666666666667
 40
0.1666666666666667
 40
0.3333333333333333
 40
0.3333333333333333
 40
0.3333333333333333
 40
0.3333333333333333
 40
0.5
 40
0.5
 40
0.5
 40
0.5
 40
0.6666666666666666
 40
0.6666666666666666
 40
0.6666666666666666
 40
0.6666666666666666
 40
1.0
 40
1.0
 40
1.0
 40
1.0
 10
-10.2542
 20
-16.5048
 30
0.0
 10
-9.2162
 20
-17.1026
 30
0.0
 10
-4.6391
 20
-19.4343
 30
0.0
 10
-2.4425
 20
-15.482
 30
0.0
 10
-2.4425
 20
-15.482
 30
0.0
 10
-2.4425
 20
-15.482
 30
0.0
 10
-6.6245
 20
-13.1331
 30
0.0
 10
-4.7031
 20
-11.2314
 30
0.0
 10
-4.7031
 20
-11.2314
 30
0.0
 10
-4.7031
 20
-11.2314
 30
0.0
 10
-1.0862
 20
-10.5604
 30
0.0
 10
-0.069
 20
-10.5604
 30
0.0
 10
-0.069
 20
-10.5604
 30
0.0
 10
-1.4746
 20
-8.9364
 30
0.0
 10
-7.5368
 20
-6.9232
 30
0.0
 10
-10.2542
 20
-9.5548
 30
0.0
 10
-10.2542
 20
-9.5548
 30
0.0
 10
-10.2542
 20
-9.5548
 30
0.0
 10
-10.2542
 20
-16.5048
 30
0.0
 10
-10.2542
 20
-16.5048
 30
0.0
  0
SPLINE
  5
68
330
1F
100
AcDbEntity
  8
layer 1
 62
     7
370
     9
100
AcDbSpline
210
0.0
220
0.0
230
1.0
 70
    11
 71
     3
 72
    20
 73
    16
 74
     0
 42
0.0000000001
 43
0.0000000001
 12
1.0
 22
0.0
 32
0.0
 13
1.0
 23
0.0
 33
0.0
 40
0.0
 40
0.0
 40
0.0
 40
0.0
 40
0.2
 40
0.2
 40
0.2
 40
0.2
 40
0.4
 40
0.4
 40
0.4
 40
0.4
 40
0.6
 40
0.6
 40
0.6
 40
0.6
 40
1.0
 40
1.0
 40
1.0
 40
1.0
 10
-10.2542
 20
-24.474
 30
0.0
 10
-8.2031
 20
-23.9633
 30
0.0
 10
1.1353
 20
-22.7711
 30
0.0
 10
10.9163
 20
-31.9318
 30
0.0
 10
10.9163
 20
-31.9318
 30
0.0
 10
10.9163
 20
-31.9318
 30
0.0
 10
8.4297
 20
-23.8028
 30
0.0
 10
-3.099
 20
-21.4802
 30
0.0
 10
-3.099
 20
-21.4802
 30
0.0
 10
-3.099
 20
-21.4802
 30
0.0
 10
-7.9772
 20
-20.7923
 30
0.0
 10
-10.2542
 20
-20.6822
 30
0.0
 10
-10.2542
 20
-20.6822
 30
0.0
 10
-10.2542
 20
-20.6822
 30
0.0
 10
-10.2542
 20
-24.474
 30
0.0
 10
-10.2542
 20
-24.474
 30
0.0
  0
SPLINE
  5
69
330
1F
100
AcDbEntity
  8
layer 1
 62
     7
370
     9
100
AcDbSpline
210
0.0
220
0.0
230
1.0
 70
    11
 71
     3
 72
    36
 73
    32
 74
     0
 42
0.0000000001
 43
0.0000000001
 12
1.0
 22
0.0
 32
0.0
 13
1.0
 23
0.0
 33
0.0
 40
0.0
 40
0.0
 40
0.0
 40
0.0
 40
0.1111111111111111
 40
0.1111111111111111
 40
0.1111111111111111
 40
0.1111111111111111
 40
0.2222222222222222
 40
0.2222222222222222
 40
0.2222222222222222
 40
0.2222222222222222
 40
0.3333333333333333
 40
0.3333333333333333
 40
0.3333333333333333
 40
0.3333333333333333
 40
0.4444444444444444
 40
0.4444444444444444
 40
0.4444444444444444
 40
0.4444444444444444
 40
0.5555555555555556
 40
0.5555555555555556
 40
0.5555555555555556
 40
0.5555555555555556
 40
0.6666666666666666
 40
0.6666666666666666
 40
0.6666666666666666
 40
0.6666666666666666
 40
0.7777777777777778
 40
0.7777777777777778
 40
0.7777777777777778
 40
0.7777777777777778
 40
1.0
 40
1.0
 40
1.0
 40
1.0
 10
-10.2542
 20
-35.3927
 30
0.0
 10
-7.7295
 20
-34.3682
 30
0.0
 10
2.1994
 20
-30.879
 30
0.0
 10
8.4398
 20
-36.4891
 30
0.0
 10
8.4398
 20
-36.4891
 30
0.0
 10
8.4398
 20
-36.4891
 30
0.0
 10
12.2006
 20
-39.5971
 30
0.0
 10
8.685
 20
-43.6292
 30
0.0
 10
8.685
 20
-43.6292
 30
0.0
 10
8.3847
 20
-44.1323
 30
0.0
 10
6.1554
 20
-44.7966
 30
0.0
 10
7.709
 20
-42.7431
 30
0.0
 10
7.709
 20
-42.7431
 30
0.0
 10
3.6958
 20
-32.9132
 30
0.0
 10
-8.7422
 20
-45.843
 30
0.0
 10
2.4794
 20
-48.3288
 30
0.0
 10
2.4794
 20
-48.3288
 30
0.0
 10
2.4794
 20
-48.3288
 30
0.0
 10
8.2734
 20
-49.5844
 30
0.0
 10
12.5582
 20
-44.1376
 30
0.0
 10
12.5582
 20
-44.1376
 30
0.0
 10
12.5582
 20
-44.1376
 30
0.0
 10
17.433
 20
-36.2371
 30
0.0
 10
3.4525
 20
-30.777
 30
0.0
 10
3.4525
 20
-30.777
 30
0.0
 10
3.0501
 20
-30.5873
 30
0.0
 10
-6.3563
 20
-29.4835
 30
0.0
 10
-10.2542
 20
-31.5884
 30
0.0
 10
-10.2542
 20
-31.5884
 30
0.0
 10
-10.2542
 20
-31.5884
 30
0.0
 10
-10.2542
 20
-35.3927
 30
0.0
 10
-10.2542
 20
-35.3927
 30
0.0
  0
SPLINE
  5
6A
330
1F
100
AcDbEntity
  8
layer 1
 62
     7
370
     9
100
AcDbSpline
210
0.0
220
0.0
230
1.0
 70
    11
 71
     3
 72
    20
 73
    16
 74
     0
 42
0.0000000001
 43
0.0000000001
 12
1.0
 22
0.0
 32
0.0
 13
1.0
 23
0.0
 33
0.0
 40
0.0
 40
0.0
 40
0.0
 40
0.0
 40
0.2
 40
0.2
 40
0.2
 40
0.2
 40
0.4
 40
0.4
 40
0.4
 40
0.4
 40
0.6
 40
0.6
 40
0.6
 40
0.6
 40
1.0
 40
1.0
 40
1.0
 40
1.0
 10
-10.2542
 20
-65.1136
 30
0.0
 10
-7.5325
 20
-65.9868
 30
0.0
 10
-0.3775
 20
-64.5702
 30
0.0
 10
-3.1567
 20
-61.2594
 30
0.0
 10
-3.1567
 20
-61.2594
 30
0.0
 10
-10.1067
 20
-53.1986
 30
0.0
 10
8.4077
 20
-50.621
 30
0.0
 10
4.5333
 20
-63.9802
 30
0.0
 10
4.5333
 20
-63.9802
 30
0.0
 10
1.2178
 20
-69.981
 30
0.0
 10
-4.8128
 20
-69.6327
 30
0.0
 10
-10.2542
 20
-68.7144
 30
0.0
 10
-10.2542
 20
-68.7144
 30
0.0
 10
-10.2542
 20
-68.7144
 30
0.0
 10
-10.2542
 20
-65.1136
 30
0.0
 10
-10.2542
 20
-65.1136
 30
0.0
  0
SPLINE
  5
6B
330
1F
100
AcDbEntity
  8
layer 1
 62
     7
370
     9
100
AcDbSpline
210
0.0
220
0.0
230
1.0
 70
    11
 71
     3
 72
    16
 73
    12
 74
     0
 42
0.0000000001
 43
0.0000000001
 12
1.0
 22
0.0
 32
0.0
 13
1.0
 23
0.0
 33
0.0
 40
0.0
 40
0.0
 40
0.0
 40
0.0
 40
0.25
 40
0.25
 40
0.25
 40
0.25
 40
0.5
 40
0.5
 40
0.5
 40
0.5
 40
1.0
 40
1.0
 40
1.0
 40
1.0
 10
8.9194
 20
-51.5297
 30
0.0
 10
8.9194
 20
-51.5297
 30
0.0
 10
17.0266
 20
-49.9375
 30
0.0
 10
18.7514
 20
-37.8195
 30
0.0
 10
18.7514
 20
-37.8195
 30
0.0
 10
18.7514
 20
-37.8195
 30
0.0
 10
19.8729
 20
-44.3649
 30
0.0
 10
18.6654
 20
-47.3723
 30
0.0
 10
18.6654
 20
-47.3723
 30
0.0
 10
17.2176
 20
-50.9788
 30
0.0
 10
12.2528
 20
-51.7095
 30
0.0
 10
8.9194
 20
-51.5297
 30
0.0
  0
SPLINE
  5
6C
330
1F
100
AcDbEntity
  8
layer 1
 62
     7
370
     9
100
AcDbSpline
210
0.0
220
0.0
230
1.0
 70
    11
 71
     3
 72
    24
 73
    20
 74
     0
 42
0.0000000001
 43
0.0000000001
 12
1.0
 22
0.0
 32
0.0
 13
1.0
 23
0.0
 33
0.0
 40
0.0
 40
0.0
 40
0.0
 40
0.0
 40
0.1666666666666667
 40
0.1666666666666667
 40
0.1666666666666667
 40
0.1666666666666667
 40
0.3333333333333333
 40
0.3333333333333333
 40
0.3333333333333333
 40
0.3333333333333333
 40
0.5
 40
0.5
 40
0.5
 40
0.5
 40
0.6666666666666666
 40
0.6666666666666666
 40
0.6666666666666666
 40
0.6666666666666666
 40
1.0
 40
1.0
 40
1.0
 40
1.0
 10
50.7682
 20
-21.5587
 30
0.0
 10
50.7682
 20
-21.5587
 30
0.0
 10
51.5165
 20
-15.121
 30
0.0
 10
46.3729
 20
-15.9857
 30
0.0
 10
46.3729
 20
-15.9857
 30
0.0
 10
45.882
 20
-16.0461
 30
0.0
 10
44.6519
 20
-16.7303
 30
0.0
 10
45.2394
 20
-18.3272
 30
0.0
 10
45.2394
 20
-18.3272
 30
0.0
 10
37.183
 20
-20.2535
 30
0.0
 10
38.8864
 20
-3.5775
 30
0.0
 10
50.381
 20
-9.3519
 30
0.0
 10
50.381
 20
-9.3519
 30
0.0
 10
50.381
 20
-9.3519
 30
0.0
 10
55.0606
 20
-11.7989
 30
0.0
 10
54.5382
 20
-17.8927
 30
0.0
 10
54.5382
 20
-17.8927
 30
0.0
 10
54.1579
 20
-19.3369
 30
0.0
 10
52.33
 20
-21.8181
 30
0.0
 10
50.7682
 20
-21.5587
 30
0.0
  0
SPLINE
  5
6D
330
1F
100
AcDbEntity
  8
layer 1
 62
     7
370
     9
100
AcDbSpline
210
0.0
220
0.0
230
1.0
 70
    11
 71
     3
 72
    16
 73
    12
 74
     0
 42
0.0000000001
 43
0.0000000001
 12
1.0
 22
0.0
 32
0.0
 13
1.0
 23
0.0
 33
0.0
 40
0.0
 40
0.0
 40
0.0
 40
0.0
 40
0.25
 40
0.25
 40
0.25
 40
0.25
 40
0.5
 40
0.5
 40
0.5
 40
0.5
 40
1.0
 40
1.0
 40
1.0
 40
1.0
 10
48.0088
 20
-6.3082
 30
0.0
 10
48.0088
 20
-6.3082
 30
0.0
 10
58.3252
 20
-8.3841
 30
0.0
 10
56.497
 20
-18.0938
 30
0.0
 10
56.497
 20
-18.0938
 30
0.0
 10
56.497
 20
-18.0938
 30
0.0
 10
63.2223
 20
-14.7454
 30
0.0
 10
59.5005
 20
-7.8483
 30
0.0
 10
59.5005
 20
-7.8483
 30
0.0
 10
56.8797
 20
-4.3971
 30
0.0
 10
50.864
 20
-1.9163
 30
0.0
 10
48.0088
 20
-6.3082
 30
0.0
  0
SPLINE
  5
6E
330
1F
100
AcDbEntity
  8
layer 1
 62
     7
370
     9
100
AcDbSpline
210
0.0
220
0.0
230
1.0
 70
    11
 71
     3
 72
    16
 73
    12
 74
     0
 42
0.0000000001
 43
0.0000000001
 12
1.0
 22
0.0
 32
0.0
 13
1.0
 23
0.0
 33
0.0
 40
0.0
 40
0.0
 40
0.0
 40
0.0
 40
0.25
 40
0.25
 40
0.25
 40
0.25
 40
0.5
 40
0.5
 40
0.5
 40
0.5
 40
1.0
 40
1.0
 40
1.0
 40
1.0
 10
60.379
 20
-4.0919
 30
0.0
 10
60.379
 20
-4.0919
 30
0.0
 10
65.8409
 20
-9.9736
 30
0.0
 10
61.6064
 20
-15.3316
 30
0.0
 10
61.6064
 20
-15.3316
 30
0.0
 10
61.4229
 20
-15.0181
 30
0.0
 10
66.3022
 20
-14.7451
 30
0.0
 10
67.0024
 20
-9.6529
 30
0.0
 10
67.0024
 20
-9.6529
 30
0.0
 10
66.666
 20
-6.4406
 30
0.0
 10
63.8331
 20
-2.4794
 30
0.0
 10
60.379
 20
-4.0919
 30
0.0
  0
SPLINE
  5
6F
330
1F
100
AcDbEntity
  8
layer 1
 62
     7
370
     9
100
AcDbSpline
210
0.0
220
0.0
230
1.0
 70
    11
 71
     3
 72
    20
 73
    16
 74
     0
 42
0.0000000001
 43
0.0000000001
 12
1.0
 22
0.0
 32
0.0
 13
1.0
 23
0.0
 33
0.0
 40
0.0
 40
0.0
 40
0.0
 40
0.0
 40
0.2
 40
0.2
 40
0.2
 40
0.2
 40
0.4
 40
0.4
 40
0.4
 40
0.4
 40
0.6
 40
0.6
 40
0.6
 40
0.6
 40
1.0
 40
1.0
 40
1.0
 40
1.0
 10
67.8257
 20
-13.9458
 30
0.0
 10
67.3095
 20
-13.6428
 30
0.0
 10
71.0696
 20
-10.3099
 30
0.0
 10
68.4155
 20
-6.2195
 30
0.0
 10
68.4155
 20
-6.2195
 30
0.0
 10
68.4155
 20
-6.2195
 30
0.0
 10
70.9891
 20
-5.7662
 30
0.0
 10
70.9891
 20
-5.7662
 30
0.0
 10
70.9891
 20
-5.7662
 30
0.0
 10
70.9891
 20
-5.7662
 30
0.0
 10
70.9891
 20
-13.6335
 30
0.0
 10
70.9891
 20
-13.6335
 30
0.0
 10
70.9891
 20
-13.6335
 30
0.0
 10
70.2243
 20
-13.7972
 30
0.0
 10
68.2402
 20
-14.1892
 30
0.0
 10
67.8257
 20
-13.9458
 30
0.0
  0
SPLINE
  5
70
330
1F
100
AcDbEntity
  8
layer 1
 62
     7
370
     9
100
AcDbSpline
210
0.0
220
0.0
230
1.0
 70
    11
 71
     3
 72
    36
 73
    32
 74
     0
 42
0.0000000001
 43
0.0000000001
 12
1.0
 22
0.0
 32
0.0
 13
1.0
 23
0.0
 33
0.0
 40
0.0
 40
0.0
 40
0.0
 40
0.0
 40
0.1111111111111111
 40
0.1111111111111111
 40
0.1111111111111111
 40
0.1111111111111111
 40
0.2222222222222222
 40
0.2222222222222222
 40
0.2222222222222222
 40
0.2222222222222222
 40
0.3333333333333333
 40
0.3333333333333333
 40
0.3333333333333333
 40
0.3333333333333333
 40
0.4444444444444444
 40
0.4444444444444444
 40
0.4444444444444444
 40
0.4444444444444444
 40
0.5555555555555556
 40
0.5555555555555556
 40
0.5555555555555556
 40
0.5555555555555556
 40
0.6666666666666666
 40
0.6666666666666666
 40
0.6666666666666666
 40
0.6666666666666666
 40
0.7777777777777778
 40
0.7777777777777778
 40
0.7777777777777778
 40
0.7777777777777778
 40
1.0
 40
1.0
 40
1.0
 40
1.0
 10
56.7534
 20
-21.8469
 30
0.0
 10
56.7534
 20
-21.8469
 30
0.0
 10
50.9553
 20
-24.0569
 30
0.0
 10
50.9553
 20
-24.0569
 30
0.0
 10
50.9553
 20
-24.0569
 30
0.0
 10
50.9553
 20
-24.0569
 30
0.0
 10
56.2859
 20
-19.1566
 30
0.0
 10
61.1488
 20
-17.523
 30
0.0
 10
61.1488
 20
-17.523
 30
0.0
 10
66.0118
 20
-15.8896
 30
0.0
 10
70.9683
 20
-15.5053
 30
0.0
 10
70.9683
 20
-15.5053
 30
0.0
 10
70.9683
 20
-15.5053
 30
0.0
 10
70.9683
 20
-15.5053
 30
0.0
 10
70.9683
 20
-17.7235
 30
0.0
 10
70.9683
 20
-17.7235
 30
0.0
 10
70.9683
 20
-17.7235
 30
0.0
 10
70.9683
 20
-17.7235
 30
0.0
 10
64.6091
 20
-16.9466
 30
0.0
 10
62.2711
 20
-18.6761
 30
0.0
 10
62.2711
 20
-18.6761
 30
0.0
 10
62.2711
 20
-18.6761
 30
0.0
 10
68.4433
 20
-18.0331
 30
0.0
 10
70.9891
 20
-19.6231
 30
0.0
 10
70.9891
 20
-19.6231
 30
0.0
 10
70.9891
 20
-19.6231
 30
0.0
 10
70.9891
 20
-23.674
 30
0.0
 10
70.9891
 20
-23.674
 30
0.0
 10
70.9891
 20
-23.674
 30
0.0
 10
69.7024
 20
-22.768
 30
0.0
 10
63.7758
 20
-19.0458
 30
0.0
 10
56.7534
 20
-21.8469
 30
0.0
  0
SPLINE
  5
71
330
1F
100
AcDbEntity
  8
layer 1
 62
     7
370
     9
100
AcDbSpline
210
0.0
220
0.0
230
1.0
 70
    11
 71
     3
 72
    24
 73
    20
 74
     0
 42
0.0000000001
 43
0.0000000001
 12
1.0
 22
0.0
 32
0.0
 13
1.0
 23
0.0
 33
0.0
 40
0.0
 40
0.0
 40
0.0
 40
0.0
 40
0.1666666666666667
 40
0.1666666666666667
 40
0.1666666666666667
 40
0.1666666666666667
 40
0.3333333333333333
 40
0.3333333333333333
 40
0.3333333333333333
 40
0.3333333333333333
 40
0.5
 40
0.5
 40
0.5
 40
0.5
 40
0.6666666666666666
 40
0.6666666666666666
 40
0.6666666666666666
 40
0.6666666666666666
 40
1.0
 40
1.0
 40
1.0
 40
1.0
 10
49.1784
 20
-27.9004
 30
0.0
 10
49.1784
 20
-27.9004
 30
0.0
 10
58.9043
 20
-19.9252
 30
0.0
 10
68.5369
 20
-25.21
 30
0.0
 10
68.5369
 20
-25.21
 30
0.0
 10
68.5369
 20
-25.21
 30
0.0
 10
71.9971
 20
-26.8434
 30
0.0
 10
70.5942
 20
-30.3985
 30
0.0
 10
70.5942
 20
-30.3985
 30
0.0
 10
70.5942
 20
-30.3985
 30
0.0
 10
68.9109
 20
-32.128
 30
0.0
 10
66.8536
 20
-30.0142
 30
0.0
 10
66.8536
 20
-30.0142
 30
0.0
 10
66.8536
 20
-30.0142
 30
0.0
 10
65.1701
 20
-25.8825
 30
0.0
 10
57.8757
 20
-26.4591
 30
0.0
 10
57.8757
 20
-26.4591
 30
0.0
 10
54.7921
 20
-26.7025
 30
0.0
 10
51.9389
 20
-27.9004
 30
0.0
 10
49.1784
 20
-27.9004
 30
0.0
  0
SPLINE
  5
72
330
1F
100
AcDbEntity
  8
layer 1
 62
     7
370
     9
100
AcDbSpline
210
0.0
220
0.0
230
1.0
 70
    11
 71
     3
 72
    36
 73
    32
 74
     0
 42
0.0000000001
 43
0.0000000001
 12
1.0
 22
0.0
 32
0.0
 13
1.0
 23
0.0
 33
0.0
 40
0.0
 40
0.0
 40
0.0
 40
0.0
 40
0.1111111111111111
 40
0.1111111111111111
 40
0.1111111111111111
 40
0.1111111111111111
 40
0.2222222222222222
 40
0.2222222222222222
 40
0.2222222222222222
 40
0.2222222222222222
 40
0.3333333333333333
 40
0.3333333333333333
 40
0.3333333333333333
 40
0.3333333333333333
 40
0.4444444444444444
 40
0.4444444444444444
 40
0.4444444444444444
 40
0.4444444444444444
 40
0.5555555555555556
 40
0.5555555555555556
 40
0.5555555555555556
 40
0.5555555555555556
 40
0.6666666666666666
 40
0.6666666666666666
 40
0.6666666666666666
 40
0.6666666666666666
 40
0.7777777777777778
 40
0.7777777777777778
 40
0.7777777777777778
 40
0.7777777777777778
 40
1.0
 40
1.0
 40
1.0
 40
1.0
 10
44.97
 20
-33.7616
 30
0.0
 10
44.97
 20
-34.0875
 30
0.0
 10
54.3159
 20
-24.7104
 30
0.0
 10
64.422
 20
-31.5515
 30
0.0
 10
64.422
 20
-31.5515
 30
0.0
 10
79.7525
 20
-41.9295
 30
0.0
 10
56.0887
 20
-51.7597
 30
0.0
 10
56.3795
 20
-39.8149
 30
0.0
 10
56.3795
 20
-39.8149
 30
0.0
 10
56.3795
 20
-39.8149
 30
0.0
 10
57.5288
 20
-38.453
 30
0.0
 10
58.8981
 20
-39.155
 30
0.0
 10
58.8981
 20
-39.155
 30
0.0
 10
58.8981
 20
-39.155
 30
0.0
 10
61.9906
 20
-31.2633
 30
0.0
 10
48.1497
 20
-34.9145
 30
0.0
 10
48.1497
 20
-34.9145
 30
0.0
 10
48.1497
 20
-34.9145
 30
0.0
 10
46.8248
 20
-35.6574
 30
0.0
 10
46.1999
 20
-36.8221
 30
0.0
 10
46.1999
 20
-36.8221
 30
0.0
 10
46.1999
 20
-36.8221
 30
0.0
 10
45.8591
 20
-35.1916
 30
0.0
 10
45.7454
 20
-34.9001
 30
0.0
 10
45.7454
 20
-34.9001
 30
0.0
 10
45.632
 20
-34.6086
 30
0.0
 10
45.1775
 20
-34.201
 30
0.0
 10
45.1775
 20
-34.201
 30
0.0
 10
45.1775
 20
-34.201
 30
0.0
 10
45.1775
 20
-34.201
 30
0.0
 10
44.97
 20
-33.7616
 30
0.0
 10
44.97
 20
-33.7616
 30
0.0
  0
SPLINE
  5
73
330
1F
100
AcDbEntity
  8
layer 1
 62
     7
370
     9
100
AcDbSpline
210
0.0
220
0.0
230
1.0
 70
    11
 71
     3
 72
    44
 73
    40
 74
     0
 42
0.0000000001
 43
0.0000000001
 12
1.0
 22
0.0
 32
0.0
 13
1.0
 23
0.0
 33
0.0
 40
0.0
 40
0.0
 40
0.0
 40
0.0
 40
0.0909090909090909
 40
0.0909090909090909
 40
0.0909090909090909
 40
0.0909090909090909
 40
0.1818181818181818
 40
0.1818181818181818
 40
0.1818181818181818
 40
0.1818181818181818
 40
0.2727272727272727
 40
0.2727272727272727
 40
0.2727272727272727
 40
0.2727272727272727
 40
0.3636363636363636
 40
0.3636363636363636
 40
0.3636363636363636
 40
0.3636363636363636
 40
0.4545454545454545
 40
0.4545454545454545
 40
0.4545454545454545
 40
0.4545454545454545
 40
0.5454545454545454
 40
0.5454545454545454
 40
0.5454545454545454
 40
0.5454545454545454
 40
0.6363636363636364
 40
0.6363636363636364
 40
0.6363636363636364
 40
0.6363636363636364
 40
0.7272727272727273
 40
0.7272727272727273
 40
0.7272727272727273
 40
0.7272727272727273
 40
0.8181818181818182
 40
0.8181818181818182
 40
0.8181818181818182
 40
0.8181818181818182
 40
1.0
 40
1.0
 40
1.0
 40
1.0
 10
20.257
 20
-30.4339
 30
0.0
 10
20.257
 20
-30.4339
 30
0.0
 10
26.0953
 20
-25.3597
 30
0.0
 10
27.9754
 20
-31.0429
 30
0.0
 10
27.9754
 20
-31.0429
 30
0.0
 10
29.8556
 20
-36.726
 30
0.0
 10
23.8192
 20
-37.6392
 30
0.0
 10
20.5539
 20
-36.32
 30
0.0
 10
20.5539
 20
-36.32
 30
0.0
 10
17.2884
 20
-35.0006
 30
0.0
 10
13.33
 20
-30.9412
 30
0.0
 10
17.783
 20
-24.2432
 30
0.0
 10
17.783
 20
-24.2432
 30
0.0
 10
17.783
 20
-24.2432
 30
0.0
 10
23.0276
 20
-17.2408
 30
0.0
 10
36.0895
 20
-24.4462
 30
0.0
 10
36.0895
 20
-24.4462
 30
0.0
 10
36.0895
 20
-24.4462
 30
0.0
 10
44.0058
 20
-29.6219
 30
0.0
 10
45.985
 20
-43.9313
 30
0.0
 10
45.985
 20
-43.9313
 30
0.0
 10
45.985
 20
-43.9313
 30
0.0
 10
45.886
 20
-54.8916
 30
0.0
 10
40.2456
 20
-61.3868
 30
0.0
 10
40.2456
 20
-61.3868
 30
0.0
 10
40.2456
 20
-61.3868
 30
0.0
 10
38.2666
 20
-59.5602
 30
0.0
 10
38.2666
 20
-59.5602
 30
0.0
 10
38.2666
 20
-59.5602
 30
0.0
 10
38.2666
 20
-59.5602
 30
0.0
 10
44.9958
 20
-53.2681
 30
0.0
 10
43.0165
 20
-40.9883
 30
0.0
 10
43.0165
 20
-40.9883
 30
0.0
 10
43.0165
 20
-40.9883
 30
0.0
 10
41.2348
 20
-28.3023
 30
0.0
 10
32.0323
 20
-25.2579
 30
0.0
 10
32.0323
 20
-25.2579
 30
0.0
 10
21.4871
 20
-20.5323
 30
0.0
 10
18.2251
 20
-30.5798
 30
0.0
 10
20.257
 20
-30.4339
 30
0.0
  0
SPLINE
  5
74
330
1F
100
AcDbEntity
  8
layer 1
 62
     7
370
     9
100
AcDbSpline
210
0.0
220
0.0
230
1.0
 70
    11
 71
     3
 72
    16
 73
    12
 74
     0
 42
0.0000000001
 43
0.0000000001
 12
1.0
 22
0.0
 32
0.0
 13
1.0
 23
0.0
 33
0.0
 40
0.0
 40
0.0
 40
0.0
 40
0.0
 40
0.25
 40
0.25
 40
0.25
 40
0.25
 40
0.5
 40
0.5
 40
0.5
 40
0.5
 40
1.0
 40
1.0
 40
1.0
 40
1.0
 10
37.3757
 20
-54.3842
 30
0.0
 10
37.3757
 20
-54.3842
 30
0.0
 10
37.4745
 20
-41.5975
 30
0.0
 10
39.058
 20
-38.6542
 30
0.0
 10
39.058
 20
-38.6542
 30
0.0
 10
39.058
 20
-38.6542
 30
0.0
 10
41.7302
 20
-37.5381
 30
0.0
 10
40.7405
 20
-43.424
 30
0.0
 10
40.7405
 20
-43.424
 30
0.0
 10
40.1375
 20
-47.0467
 30
0.0
 10
39.9642
 20
-51.7301
 30
0.0
 10
37.3757
 20
-54.3842
 30
0.0
  0
SPLINE
  5
75
330
1F
100
AcDbEntity
  8
layer 1
 62
     7
370
     9
100
AcDbSpline
210
0.0
220
0.0
230
1.0
 70
    11
 71
     3
 72
    24
 73
    20
 74
     0
 42
0.0000000001
 43
0.0000000001
 12
1.0
 22
0.0
 32
0.0
 13
1.0
 23
0.0
 33
0.0
 40
0.0
 40
0.0
 40
0.0
 40
0.0
 40
0.1666666666666667
 40
0.1666666666666667
 40
0.1666666666666667
 40
0.1666666666666667
 40
0.3333333333333333
 40
0.3333333333333333
 40
0.3333333333333333
 40
0.3333333333333333
 40
0.5
 40
0.5
 40
0.5
 40
0.5
 40
0.6666666666666666
 40
0.6666666666666666
 40
0.6666666666666666
 40
0.6666666666666666
 40
1.0
 40
1.0
 40
1.0
 40
1.0
 10
42.3129
 20
-72.0861
 30
0.0
 10
42.3129
 20
-72.0861
 30
0.0
 10
41.6688
 20
-69.9687
 30
0.0
 10
41.6688
 20
-69.9687
 30
0.0
 10
41.6688
 20
-69.9687
 30
0.0
 10
41.6688
 20
-69.9687
 30
0.0
 10
52.4883
 20
-61.7638
 30
0.0
 10
57.3828
 20
-46.0154
 30
0.0
 10
57.3828
 20
-46.0154
 30
0.0
 10
57.3828
 20
-46.0154
 30
0.0
 10
60.0878
 20
-46.9418
 30
0.0
 10
60.0878
 20
-46.9418
 30
0.0
 10
60.0878
 20
-46.9418
 30
0.0
 10
60.0878
 20
-46.9418
 30
0.0
 10
55.8372
 20
-58.7199
 30
0.0
 10
53.2612
 20
-62.1607
 30
0.0
 10
53.2612
 20
-62.1607
 30
0.0
 10
53.2612
 20
-62.1607
 30
0.0
 10
47.0786
 20
-70.3657
 30
0.0
 10
42.3129
 20
-72.0861
 30
0.0
  0
SPLINE
  5
76
330
1F
100
AcDbEntity
  8
layer 1
 62
     7
370
     9
100
AcDbSpline
210
0.0
220
0.0
230
1.0
 70
    11
 71
     3
 72
    28
 73
    24
 74
     0
 42
0.0000000001
 43
0.0000000001
 12
1.0
 22
0.0
 32
0.0
 13
1.0
 23
0.0
 33
0.0
 40
0.0
 40
0.0
 40
0.0
 40
0.0
 40
0.1428571428571428
 40
0.1428571428571428
 40
0.1428571428571428
 40
0.1428571428571428
 40
0.2857142857142857
 40
0.2857142857142857
 40
0.2857142857142857
 40
0.2857142857142857
 40
0.4285714285714285
 40
0.4285714285714285
 40
0.4285714285714285
 40
0.4285714285714285
 40
0.5714285714285714
 40
0.5714285714285714
 40
0.5714285714285714
 40
0.5714285714285714
 40
0.7142857142857143
 40
0.7142857142857143
 40
0.7142857142857143
 40
0.7142857142857143
 40
1.0
 40
1.0
 40
1.0
 40
1.0
 10
31.8797
 20
-70.3657
 30
0.0
 10
31.8797
 20
-70.3657
 30
0.0
 10
35.3571
 20
-67.5248
 30
0.0
 10
35.3571
 20
-61.9984
 30
0.0
 10
35.3571
 20
-61.9984
 30
0.0
 10
35.3571
 20
-61.9984
 30
0.0
 10
34.4592
 20
-58.243
 30
0.0
 10
37.568
 20
-61.8566
 30
0.0
 10
37.568
 20
-61.8566
 30
0.0
 10
37.568
 20
-61.8566
 30
0.0
 10
40.3314
 20
-65.9662
 30
0.0
 10
37.3606
 20
-68.7292
 30
0.0
 10
37.3606
 20
-68.7292
 30
0.0
 10
37.3606
 20
-68.7292
 30
0.0
 10
39.8478
 20
-69.4379
 30
0.0
 10
39.8478
 20
-72.6972
 30
0.0
 10
39.8478
 20
-72.6972
 30
0.0
 10
39.0316
 20
-77.6364
 30
0.0
 10
37.0012
 20
-70.0731
 30
0.0
 10
33.0083
 20
-71.2093
 30
0.0
 10
33.0083
 20
-71.2093
 30
0.0
 10
32.3338
 20
-71.6239
 30
0.0
 10
31.6112
 20
-70.7957
 30
0.0
 10
31.8797
 20
-70.3657
 30
0.0
  0
SPLINE
  5
77
330
1F
100
AcDbEntity
  8
layer 1
 62
     7
370
     9
100
AcDbSpline
210
0.0
220
0.0
230
1.0
 70
    11
 71
     3
 72
    32
 73
    28
 74
     0
 42
0.0000000001
 43
0.0000000001
 12
1.0
 22
0.0
 32
0.0
 13
1.0
 23
0.0
 33
0.0
 40
0.0
 40
0.0
 40
0.0
 40
0.0
 40
0.125
 40
0.125
 40
0.125
 40
0.125
 40
0.25
 40
0.25
 40
0.25
 40
0.25
 40
0.375
 40
0.375
 40
0.375
 40
0.375
 40
0.5
 40
0.5
 40
0.5
 40
0.5
 40
0.625
 40
0.625
 40
0.625
 40
0.625
 40
0.75
 40
0.75
 40
0.75
 40
0.75
 40
1.0
 40
1.0
 40
1.0
 40
1.0
 10
-10.2542
 20
-71.492
 30
0.0
 10
-8.9605
 20
-72.5072
 30
0.0
 10
-2.1238
 20
-77.4258
 30
0.0
 10
5.9196
 20
-74.8478
 30
0.0
 10
5.9196
 20
-74.8478
 30
0.0
 10
5.9196
 20
-74.8478
 30
0.0
 10
11.8311
 20
-73.1844
 30
0.0
 10
10.4588
 20
-69.6898
 30
0.0
 10
10.4588
 20
-69.6898
 30
0.0
 10
10.4588
 20
-69.6898
 30
0.0
 10
8.2482
 20
-68.658
 30
0.0
 10
10.1105
 20
-65.603
 30
0.0
 10
10.1105
 20
-65.603
 30
0.0
 10
10.1105
 20
-65.603
 30
0.0
 10
14.4663
 20
-61.9247
 30
0.0
 10
16.9127
 20
-68.2391
 30
0.0
 10
16.9127
 20
-68.2391
 30
0.0
 10
16.9127
 20
-68.2391
 30
0.0
 10
18.5834
 20
-75.9637
 30
0.0
 10
8.4995
 20
-77.1286
 30
0.0
 10
8.4995
 20
-77.1286
 30
0.0
 10
-1.3504
 20
-78.2663
 30
0.0
 10
-7.1008
 20
-75.485
 30
0.0
 10
-10.2542
 20
-72.4985
 30
0.0
 10
-10.2542
 20
-72.4985
 30
0.0
 10
-10.2542
 20
-72.4985
 30
0.0
 10
-10.2542
 20
-71.492
 30
0.0
 10
-10.2542
 20
-71.492
 30
0.0
  0
SPLINE
  5
78
330
1F
100
AcDbEntity
  8
layer 1
 62
     7
370
     9
100
AcDbSpline
210
0.0
220
0.0
230
1.0
 70
    11
 71
     3
 72
    28
 73
    24
 74
     0
 42
0.0000000001
 43
0.0000000001
 12
1.0
 22
0.0
 32
0.0
 13
1.0
 23
0.0
 33
0.0
 40
0.0
 40
0.0
 40
0.0
 40
0.0
 40
0.1428571428571428
 40
0.1428571428571428
 40
0.1428571428571428
 40
0.1428571428571428
 40
0.2857142857142857
 40
0.2857142857142857
 40
0.2857142857142857
 40
0.2857142857142857
 40
0.4285714285714285
 40
0.4285714285714285
 40
0.4285714285714285
 40
0.4285714285714285
 40
0.5714285714285714
 40
0.5714285714285714
 40
0.5714285714285714
 40
0.5714285714285714
 40
0.7142857142857143
 40
0.7142857142857143
 40
0.7142857142857143
 40
0.7142857142857143
 40
1.0
 40
1.0
 40
1.0
 40
1.0
 10
-10.2542
 20
-74.2464
 30
0.0
 10
-2.067
 20
-80.2561
 30
0.0
 10
5.0867
 20
-79.7942
 30
0.0
 10
13.9584
 20
-81.0082
 30
0.0
 10
13.9584
 20
-81.0082
 30
0.0
 10
13.9584
 20
-81.0082
 30
0.0
 10
16.9577
 20
-81.6246
 30
0.0
 10
16.1058
 20
-83.6411
 30
0.0
 10
16.1058
 20
-83.6411
 30
0.0
 10
15.697
 20
-84.4464
 30
0.0
 10
15.3674
 20
-85.4376
 30
0.0
 10
12.0418
 20
-84.851
 30
0.0
 10
12.0418
 20
-84.851
 30
0.0
 10
12.0418
 20
-84.851
 30
0.0
 10
-0.6746
 20
-82.2969
 30
0.0
 10
-5.4592
 20
-78.734
 30
0.0
 10
-5.4592
 20
-78.734
 30
0.0
 10
-5.4592
 20
-78.734
 30
0.0
 10
-10.2542
 20
-75.5185
 30
0.0
 10
-10.2542
 20
-75.5185
 30
0.0
 10
-10.2542
 20
-75.5185
 30
0.0
 10
-10.2542
 20
-75.5185
 30
0.0
 10
-10.2542
 20
-74.2464
 30
0.0
 10
-10.2542
 20
-74.2464
 30
0.0
  0
SPLINE
  5
79
330
1F
100
AcDbEntity
  8
layer 1
 62
     7
370
     9
100
AcDbSpline
210
0.0
220
0.0
230
1.0
 70
    11
 71
     3
 72
    28
 73
    24
 74
     0
 42
0.0000000001
 43
0.0000000001
 12
1.0
 22
0.0
 32
0.0
 13
1.0
 23
0.0
 33
0.0
 40
0.0
 40
0.0
 40
0.0
 40
0.0
 40
0.1428571428571428
 40
0.1428571428571428
 40
0.1428571428571428
 40
0.1428571428571428
 40
0.2857142857142857
 40
0.2857142857142857
 40
0.2857142857142857
 40
0.2857142857142857
 40
0.4285714285714285
 40
0.4285714285714285
 40
0.4285714285714285
 40
0.4285714285714285
 40
0.5714285714285714
 40
0.5714285714285714
 40
0.5714285714285714
 40
0.5714285714285714
 40
0.7142857142857143
 40
0.7142857142857143
 40
0.7142857142857143
 40
0.7142857142857143
 40
1.0
 40
1.0
 40
1.0
 40
1.0
 10
19.2082
 20
-99.7083
 30
0.0
 10
17.9402
 20
-101.2717
 30
0.0
 10
16.1651
 20
-100.2947
 30
0.0
 10
15.9749
 20
-98.3405
 30
0.0
 10
15.9749
 20
-98.3405
 30
0.0
 10
15.7846
 20
-96.3863
 30
0.0
 10
15.1508
 20
-97.8193
 30
0.0
 10
15.1508
 20
-97.8193
 30
0.0
 10
15.1508
 20
-97.8193
 30
0.0
 10
15.1508
 20
-97.8193
 30
0.0
 10
14.9605
 20
-100.1643
 30
0.0
 10
14.9605
 20
-100.1643
 30
0.0
 10
14.9605
 20
-100.1643
 30
0.0
 10
14.9605
 20
-100.1643
 30
0.0
 10
12.6147
 20
-100.1643
 30
0.0
 10
12.6147
 20
-100.1643
 30
0.0
 10
12.6147
 20
-100.1643
 30
0.0
 10
14.0096
 20
-91.8266
 30
0.0
 10
3.7391
 20
-85.9643
 30
0.0
 10
3.7391
 20
-85.9643
 30
0.0
 10
3.7391
 20
-85.9643
 30
0.0
 10
9.2011
 20
-87.7195
 30
0.0
 10
14.5988
 20
-90.0897
 30
0.0
 10
19.2082
 20
-99.7083
 30
0.0
  0
SPLINE
  5
7A
330
1F
100
AcDbEntity
  8
layer 1
 62
     7
370
     9
100
AcDbSpline
210
0.0
220
0.0
230
1.0
 70
    11
 71
     3
 72
    20
 73
    16
 74
     0
 42
0.0000000001
 43
0.0000000001
 12
1.0
 22
0.0
 32
0.0
 13
1.0
 23
0.0
 33
0.0
 40
0.0
 40
0.0
 40
0.0
 40
0.0
 40
0.2
 40
0.2
 40
0.2
 40
0.2
 40
0.4
 40
0.4
 40
0.4
 40
0.4
 40
0.6
 40
0.6
 40
0.6
 40
0.6
 40
1.0
 40
1.0
 40
1.0
 40
1.0
 10
14.2631
 20
-77.8872
 30
0.0
 10
14.2631
 20
-77.8872
 30
0.0
 10
23.7095
 20
-73.7184
 30
0.0
 10
18.8278
 20
-65.3808
 30
0.0
 10
18.8278
 20
-65.3808
 30
0.0
 10
18.8278
 20
-65.3808
 30
0.0
 10
17.1161
 20
-63.8825
 30
0.0
 10
19.7154
 20
-61.0817
 30
0.0
 10
19.7154
 20
-61.0817
 30
0.0
 10
19.7154
 20
-61.0817
 30
0.0
 10
25.865
 20
-64.3386
 30
0.0
 10
21.9977
 20
-72.1552
 30
0.0
 10
21.9977
 20
-72.1552
 30
0.0
 10
19.2536
 20
-77.7015
 30
0.0
 10
13.9462
 20
-78.1477
 30
0.0
 10
14.2631
 20
-77.8872
 30
0.0
  0
SPLINE
  5
7B
330
1F
100
AcDbEntity
  8
layer 1
 62
     7
370
     9
100
AcDbSpline
210
0.0
220
0.0
230
1.0
 70
    11
 71
     3
 72
    16
 73
    12
 74
     0
 42
0.0000000001
 43
0.0000000001
 12
1.0
 22
0.0
 32
0.0
 13
1.0
 23
0.0
 33
0.0
 40
0.0
 40
0.0
 40
0.0
 40
0.0
 40
0.25
 40
0.25
 40
0.25
 40
0.25
 40
0.5
 40
0.5
 40
0.5
 40
0.5
 40
1.0
 40
1.0
 40
1.0
 40
1.0
 10
18.1304
 20
-80.2973
 30
0.0
 10
18.1304
 20
-80.2973
 30
0.0
 10
21.554
 20
-85.7037
 30
0.0
 10
15.5311
 20
-87.0065
 30
0.0
 10
15.5311
 20
-87.0065
 30
0.0
 10
15.3076
 20
-87.4151
 30
0.0
 10
20.6021
 20
-94.9138
 30
0.0
 10
25.4845
 20
-87.2671
 30
0.0
 10
25.4845
 20
-87.2671
 30
0.0
 10
25.9895
 20
-86.5732
 30
0.0
 10
26.92
 20
-79.1278
 30
0.0
 10
18.1304
 20
-80.2973
 30
0.0
  0
SPLINE
  5
7C
330
1F
100
AcDbEntity
  8
layer 1
 62
     7
370
     9
100
AcDbSpline
210
0.0
220
0.0
230
1.0
 70
    11
 71
     3
 72
    16
 73
    12
 74
     0
 42
0.0000000001
 43
0.0000000001
 12
1.0
 22
0.0
 32
0.0
 13
1.0
 23
0.0
 33
0.0
 40
0.0
 40
0.0
 40
0.0
 40
0.0
 40
0.25
 40
0.25
 40
0.25
 40
0.25
 40
0.5
 40
0.5
 40
0.5
 40
0.5
 40
1.0
 40
1.0
 40
1.0
 40
1.0
 10
22.6951
 20
-78.4084
 30
0.0
 10
22.9971
 20
-78.4086
 30
0.0
 10
29.5691
 20
-78.7988
 30
0.0
 10
27.7035
 20
-86.5506
 30
0.0
 10
27.7035
 20
-86.5506
 30
0.0
 10
27.7035
 20
-86.5506
 30
0.0
 10
33.6629
 20
-83.9451
 30
0.0
 10
29.9859
 20
-79.1248
 30
0.0
 10
29.9859
 20
-79.1248
 30
0.0
 10
28.3031
 20
-76.9387
 30
0.0
 10
25.1607
 20
-76.4379
 30
0.0
 10
22.6951
 20
-78.4084
 30
0.0
  0
SPLINE
  5
7D
330
1F
100
AcDbEntity
  8
layer 1
 62
     7
370
     9
100
AcDbSpline
210
0.0
220
0.0
230
1.0
 70
    11
 71
     3
 72
    24
 73
    20
 74
     0
 42
0.0000000001
 43
0.0000000001
 12
1.0
 22
0.0
 32
0.0
 13
1.0
 23
0.0
 33
0.0
 40
0.0
 40
0.0
 40
0.0
 40
0.0
 40
0.1666666666666667
 40
0.1666666666666667
 40
0.1666666666666667
 40
0.1666666666666667
 40
0.3333333333333333
 40
0.3333333333333333
 40
0.3333333333333333
 40
0.3333333333333333
 40
0.5
 40
0.5
 40
0.5
 40
0.5
 40
0.6666666666666666
 40
0.6666666666666666
 40
0.6666666666666666
 40
0.6666666666666666
 40
1.0
 40
1.0
 40
1.0
 40
1.0
 10
22.3824
 20
-74.9372
 30
0.0
 10
22.3824
 20
-74.9372
 30
0.0
 10
27.1762
 20
-71.2626
 30
0.0
 10
25.5615
 20
-65.1039
 30
0.0
 10
25.5615
 20
-65.1039
 30
0.0
 10
25.5615
 20
-65.1039
 30
0.0
 10
22.8365
 20
-61.2741
 30
0.0
 10
25.7634
 20
-56.6682
 30
0.0
 10
25.7634
 20
-56.6682
 30
0.0
 10
25.7634
 20
-56.6682
 30
0.0
 10
27.9838
 20
-53.6668
 30
0.0
 10
25.8139
 20
-50.7168
 30
0.0
 10
25.8139
 20
-50.7168
 30
0.0
 10
25.8139
 20
-50.7168
 30
0.0
 10
33.9322
 20
-52.864
 30
0.0
 10
32.7776
 20
-61.5848
 30
0.0
 10
32.7776
 20
-61.5848
 30
0.0
 10
32.2331
 20
-65.6965
 30
0.0
 10
27.3547
 20
-73.8078
 30
0.0
 10
22.3824
 20
-74.9372
 30
0.0
  0
SPLINE
  5
7E
330
1F
100
AcDbEntity
  8
layer 1
 62
     7
370
     9
100
AcDbSpline
210
0.0
220
0.0
230
1.0
 70
    11
 71
     3
 72
    16
 73
    12
 74
     0
 42
0.0000000001
 43
0.0000000001
 12
1.0
 22
0.0
 32
0.0
 13
1.0
 23
0.0
 33
0.0
 40
0.0
 40
0.0
 40
0.0
 40
0.0
 40
0.25
 40
0.25
 40
0.25
 40
0.25
 40
0.5
 40
0.5
 40
0.5
 40
0.5
 40
1.0
 40
1.0
 40
1.0
 40
1.0
 10
34.0765
 20
-81.771
 30
0.0
 10
33.9615
 20
-78.3724
 30
0.0
 10
31.9647
 20
-75.6911
 30
0.0
 10
26.6132
 20
-74.2893
 30
0.0
 10
26.6132
 20
-74.2893
 30
0.0
 10
26.6132
 20
-74.2893
 30
0.0
 10
34.9742
 20
-70.8361
 30
0.0
 10
36.8262
 20
-76.016
 30
0.0
 10
36.8262
 20
-76.016
 30
0.0
 10
36.8262
 20
-76.016
 30
0.0
 10
37.8024
 20
-78.5433
 30
0.0
 10
34.0765
 20
-81.771
 30
0.0
  0
SPLINE
  5
7F
330
1F
100
AcDbEntity
  8
layer 1
 62
     7
370
     9
100
AcDbSpline
210
0.0
220
0.0
230
1.0
 70
    11
 71
     3
 72
    16
 73
    12
 74
     0
 42
0.0000000001
 43
0.0000000001
 12
1.0
 22
0.0
 32
0.0
 13
1.0
 23
0.0
 33
0.0
 40
0.0
 40
0.0
 40
0.0
 40
0.0
 40
0.25
 40
0.25
 40
0.25
 40
0.25
 40
0.5
 40
0.5
 40
0.5
 40
0.5
 40
1.0
 40
1.0
 40
1.0
 40
1.0
 10
70.9646
 20
-100.4994
 30
0.0
 10
70.9646
 20
-100.4994
 30
0.0
 10
70.9646
 20
-94.5794
 30
0.0
 10
70.9646
 20
-94.5794
 30
0.0
 10
70.9646
 20
-94.5794
 30
0.0
 10
68.1056
 20
-91.7541
 30
0.0
 10
60.2832
 20
-93.2047
 30
0.0
 10
60.7657
 20
-100.4994
 30
0.0
 10
60.7657
 20
-100.4994
 30
0.0
 10
60.7657
 20
-100.4994
 30
0.0
 10
70.9646
 20
-100.4994
 30
0.0
 10
70.9646
 20
-100.4994
 30
0.0
  0
SPLINE
  5
80
330
1F
100
AcDbEntity
  8
layer 1
 62
     7
370
     9
100
AcDbSpline
210
0.0
220
0.0
230
1.0
 70
    11
 71
     3
 72
    20
 73
    16
 74
     0
 42
0.0000000001
 43
0.0000000001
 12
1.0
 22
0.0
 32
0.0
 13
1.0
 23
0.0
 33
0.0
 40
0.0
 40
0.0
 40
0.0
 40
0.0
 40
0.2
 40
0.2
 40
0.2
 40
0.2
 40
0.4
 40
0.4
 40
0.4
 40
0.4
 40
0.6
 40
0.6
 40
0.6
 40
0.6
 40
1.0
 40
1.0
 40
1.0
 40
1.0
 10
43.1117
 20
-74.462
 30
0.0
 10
46.3651
 20
-71.2962
 30
0.0
 10
57.7039
 20
-72.8265
 30
0.0
 10
58.2437
 20
-77.6216
 30
0.0
 10
58.2437
 20
-77.6216
 30
0.0
 10
58.775
 20
-82.3387
 30
0.0
 10
53.8185
 20
-83.3022
 30
0.0
 10
49.7413
 20
-80.9579
 30
0.0
 10
49.7413
 20
-80.9579
 30
0.0
 10
48.7169
 20
-82.4878
 30
0.0
 10
47.2241
 20
-93.558
 30
0.0
 10
60.5783
 20
-89.2816
 30
0.0
 10
60.5783
 20
-89.2816
 30
0.0
 10
70.9732
 20
-83.7276
 30
0.0
 10
59.0312
 20
-60.5936
 30
0.0
 10
43.1117
 20
-74.462
 30
0.0
  0
SPLINE
  5
81
330
1F
100
AcDbEntity
  8
layer 1
 62
     7
370
     9
100
AcDbSpline
210
0.0
220
0.0
230
1.0
 70
    11
 71
     3
 72
    40
 73
    36
 74
     0
 42
0.0000000001
 43
0.0000000001
 12
1.0
 22
0.0
 32
0.0
 13
1.0
 23
0.0
 33
0.0
 40
0.0
 40
0.0
 40
0.0
 40
0.0
 40
0.1
 40
0.1
 40
0.1
 40
0.1
 40
0.2
 40
0.2
 40
0.2
 40
0.2
 40
0.3
 40
0.3
 40
0.3
 40
0.3
 40
0.4
 40
0.4
 40
0.4
 40
0.4
 40
0.5
 40
0.5
 40
0.5
 40
0.5
 40
0.6
 40
0.6
 40
0.6
 40
0.6
 40
0.7
 40
0.7
 40
0.7
 40
0.7
 40
0.8
 40
0.8
 40
0.8
 40
0.8
 40
1.0
 40
1.0
 40
1.0
 40
1.0
 10
51.1785
 20
-68.2754
 30
0.0
 10
60.1463
 20
-67.6337
 30
0.0
 10
70.1622
 20
-75.7294
 30
0.0
 10
65.9091
 20
-85.1812
 30
0.0
 10
65.9091
 20
-85.1812
 30
0.0
 10
65.9091
 20
-85.1812
 30
0.0
 10
69.0168
 20
-87.1211
 30
0.0
 10
70.9891
 20
-84.949
 30
0.0
 10
70.9891
 20
-84.949
 30
0.0
 10
70.9891
 20
-84.949
 30
0.0
 10
70.9891
 20
-76.034
 30
0.0
 10
70.9891
 20
-76.034
 30
0.0
 10
70.9891
 20
-76.034
 30
0.0
 10
69.9326
 20
-73.1633
 30
0.0
 10
67.1843
 20
-70.3387
 30
0.0
 10
60.6483
 20
-68.4193
 30
0.0
 10
60.6483
 20
-68.4193
 30
0.0
 10
60.6483
 20
-68.4193
 30
0.0
 10
63.4034
 20
-67.4919
 30
0.0
 10
67.0242
 20
-67.9606
 30
0.0
 10
67.0242
 20
-67.9606
 30
0.0
 10
68.5126
 20
-68.5476
 30
0.0
 10
70.4434
 20
-68.6934
 30
0.0
 10
70.9891
 20
-67.948
 30
0.0
 10
70.9891
 20
-67.948
 30
0.0
 10
70.9891
 20
-67.948
 30
0.0
 10
70.9891
 20
-67.1598
 30
0.0
 10
70.9891
 20
-67.1598
 30
0.0
 10
70.9891
 20
-67.1598
 30
0.0
 10
70.5628
 20
-66.7763
 30
0.0
 10
69.2105
 20
-66.7996
 30
0.0
 10
66.871
 20
-66.6363
 30
0.0
 10
66.871
 20
-66.6363
 30
0.0
 10
61.9134
 20
-66.1987
 30
0.0
 10
53.9209
 20
-66.8562
 30
0.0
 10
51.1785
 20
-68.2754
 30
0.0
  0
SPLINE
  5
82
330
1F
100
AcDbEntity
  8
layer 1
 62
     7
370
     9
100
AcDbSpline
210
0.0
220
0.0
230
1.0
 70
    11
 71
     3
 72
    24
 73
    20
 74
     0
 42
0.0000000001
 43
0.0000000001
 12
1.0
 22
0.0
 32
0.0
 13
1.0
 23
0.0
 33
0.0
 40
0.0
 40
0.0
 40
0.0
 40
0.0
 40
0.1666666666666667
 40
0.1666666666666667
 40
0.1666666666666667
 40
0.1666666666666667
 40
0.3333333333333333
 40
0.3333333333333333
 40
0.3333333333333333
 40
0.3333333333333333
 40
0.5
 40
0.5
 40
0.5
 40
0.5
 40
0.6666666666666666
 40
0.6666666666666666
 40
0.6666666666666666
 40
0.6666666666666666
 40
1.0
 40
1.0
 40
1.0
 40
1.0
 10
63.1986
 20
-64.9027
 30
0.0
 10
63.1986
 20
-64.9027
 30
0.0
 10
69.3507
 20
-66.225
 30
0.0
 10
70.9891
 20
-61.4855
 30
0.0
 10
70.9891
 20
-61.4855
 30
0.0
 10
70.9891
 20
-61.4855
 30
0.0
 10
70.9891
 20
-55.4158
 30
0.0
 10
70.9891
 20
-55.4158
 30
0.0
 10
70.9891
 20
-55.4158
 30
0.0
 10
69.4239
 20
-50.6084
 30
0.0
 10
61.1
 20
-52.3162
 30
0.0
 10
61.5112
 20
-57.7131
 30
0.0
 10
61.5112
 20
-57.7131
 30
0.0
 10
63.3793
 20
-55.57
 30
0.0
 10
65.6077
 20
-57.1407
 30
0.0
 10
65.9734
 20
-59.4258
 30
0.0
 10
65.9734
 20
-59.4258
 30
0.0
 10
66.3371
 20
-61.6964
 30
0.0
 10
64.9329
 20
-64.2048
 30
0.0
 10
63.1986
 20
-64.9027
 30
0.0
  0
SPLINE
  5
83
330
1F
100
AcDbEntity
  8
layer 1
 62
     7
370
     9
100
AcDbSpline
210
0.0
220
0.0
230
1.0
 70
    11
 71
     3
 72
    20
 73
    16
 74
     0
 42
0.0000000001
 43
0.0000000001
 12
1.0
 22
0.0
 32
0.0
 13
1.0
 23
0.0
 33
0.0
 40
0.0
 40
0.0
 40
0.0
 40
0.0
 40
0.2
 40
0.2
 40
0.2
 40
0.2
 40
0.4
 40
0.4
 40
0.4
 40
0.4
 40
0.6
 40
0.6
 40
0.6
 40
0.6
 40
1.0
 40
1.0
 40
1.0
 40
1.0
 10
46.195
 20
-90.7967
 30
0.0
 10
46.195
 20
-90.7967
 30
0.0
 10
42.7688
 20
-93.2972
 30
0.0
 10
41.3851
 20
-91.4949
 30
0.0
 10
41.3851
 20
-91.4949
 30
0.0
 10
40.0014
 20
-89.6926
 30
0.0
 10
41.2846
 20
-87.1732
 30
0.0
 10
39.9094
 20
-85.8639
 30
0.0
 10
39.9094
 20
-85.8639
 30
0.0
 10
38.5341
 20
-84.5547
 30
0.0
 10
30.5161
 20
-87.3145
 30
0.0
 10
34.7684
 20
-95.4477
 30
0.0
 10
34.7684
 20
-95.4477
 30
0.0
 10
38.9909
 20
-100.1162
 30
0.0
 10
43.9024
 20
-94.5709
 30
0.0
 10
46.195
 20
-90.7967
 30
0.0
  0
ENDSEC
  0
SECTION
  2
OBJECTS
  0
DICTIONARY
  5
C
330
0
100
AcDbDictionary
281
     1
  3
ACAD_GROUP
350
D
  3
ACAD_LAYOUT
350
1A
  3
ACAD_MATERIAL
350
3B
  3
ACAD_MLEADERSTYLE
350
A5
  3
ACAD_MLINESTYLE
350
17
  3
ACAD_PLOTSETTINGS
350
19
  3
ACAD_PLOTSTYLENAME
350
E
  3
ACAD_TABLESTYLE
350
A4
  3
ACAD_VISUALSTYLE
350
2A
  0
DICTIONARY
  5
D
102
{ACAD_REACTORS
330
C
102
}
330
C
100
AcDbDictionary
281
     1
  0
DICTIONARY
  5
1A
102
{ACAD_REACTORS
330
C
102
}
330
C
100
AcDbDictionary
281
     1
  3
Layout1
350
1E
  3
Layout2
350
26
  3
Model
350
22
  0
DICTIONARY
  5
3B
102
{ACAD_REACTORS
330
C
102
}
330
C
100
AcDbDictionary
281
     1
  3
ByBlock
350
3D
  3
ByLayer
350
3C
  3
Global
350
3E
  0
DICTIONARY
  5
A5
102
{ACAD_REACTORS
330
C
102
}
330
C
100
AcDbDictionary
281
     1
  0
DICTIONARY
  5
17
102
{ACAD_REACTORS
330
C
102
}
330
C
100
AcDbDictionary
281
     1
  3
Standard
350
18
  0
DICTIONARY
  5
19
102
{ACAD_REACTORS
330
C
102
}
330
C
100
AcDbDictionary
281
     1
  0
ACDBDICTIONARYWDFLT
  5
E
102
{ACAD_REACTORS
330
C
102
}
330
C
100
AcDbDictionary
281
     1
  3
Normal
350
F
100
AcDbDictionaryWithDefault
340
F
  0
DICTIONARY
  5
A4
102
{ACAD_REACTORS
330
C
102
}
330
C
100
AcDbDictionary
281
     1
  0
DICTIONARY
  5
2A
102
{ACAD_REACTORS
330
C
102
}
330
C
100
AcDbDictionary
281
     1
  3
2dWireframe
350
2F
  3
3D Hidden
350
31
  3
3dWireframe
350
30
  3
Basic
350
32
  3
Brighten
350
36
  3
ColorChange
350
3A
  3
Conceptual
350
34
  3
Dim
350
35
  3
Facepattern
350
39
  3
Flat
350
2B
  3
FlatWithEdges
350
2C
  3
Gouraud
350
2D
  3
GouraudWithEdges
350
2E
  3
Linepattern
350
38
  3
Realistic
350
33
  3
Thicken
350
37
  0
LAYOUT
  5
1E
102
{ACAD_REACTORS
330
1A
102
}
330
1A
100
AcDbPlotSettings
  1

  2
none_device
  4

  6

 40
0.0
 41
0.0
 42
0.0
 43
0.0
 44
0.0
 45
0.0
 46
0.0
 47
0.0
 48
0.0
 49
0.0
140
0.0
141
0.0
142
1.0
143
1.0
 70
   688
 72
     0
 73
     0
 74
     5
  7

 75
    16
 76
     0
 77
     2
 78
   300
147
1.0
148
0.0
149
0.0
100
AcDbLayout
  1
Layout1
 70
     1
 71
     1
 10
0.0
 20
0.0
 11
12.0
 21
9.0
 12
0.0
 22
0.0
 32
0.0
 14
1.000000000000000E+20
 24
1.000000000000000E+20
 34
1.000000000000000E+20
 15
-1.000000000000000E+20
 25
-1.000000000000000E+20
 35
-1.000000000000000E+20
146
0.0
 13
0.0
 23
0.0
 33
0.0
 16
1.0
 26
0.0
 36
0.0
 17
0.0
 27
1.0
 37
0.0
 76
     0
330
1B
  0
LAYOUT
  5
26
102
{ACAD_REACTORS
330
1A
102
}
330
1A
100
AcDbPlotSettings
  1

  2
none_device
  4

  6

 40
0.0
 41
0.0
 42
0.0
 43
0.0
 44
0.0
 45
0.0
 46
0.0
 47
0.0
 48
0.0
 49
0.0
140
0.0
141
0.0
142
1.0
143
1.0
 70
   688
 72
     0
 73
     0
 74
     5
  7

 75
    16
 76
     0
 77
     2
 78
   300
147
1.0
148
0.0
149
0.0
100
AcDbLayout
  1
Layout2
 70
     1
 71
     2
 10
0.0
 20
0.0
 11
0.0
 21
0.0
 12
0.0
 22
0.0
 32
0.0
 14
0.0
 24
0.0
 34
0.0
 15
0.0
 25
0.0
 35
0.0
146
0.0
 13
0.0
 23
0.0
 33
0.0
 16
1.0
 26
0.0
 36
0.0
 17
0.0
 27
1.0
 37
0.0
 76
     0
330
23
  0
LAYOUT
  5
22
102
{ACAD_REACTORS
330
1A
102
}
330
1A
100
AcDbPlotSettings
  1

  2
none_device
  4

  6

 40
0.0
 41
0.0
 42
0.0
 43
0.0
 44
0.0
 45
0.0
 46
0.0
 47
0.0
 48
0.0
 49
0.0
140
0.0
141
0.0
142
1.0
143
1.0
 70
  1712
 72
     0
 73
     0
 74
     0
  7

 75
     0
 76
     0
 77
     2
 78
   300
147
1.0
148
0.0
149
0.0
100
AcDbLayout
  1
Model
 70
     1
 71
     0
 10
0.0
 20
0.0
 11
12.0
 21
9.0
 12
0.0
 22
0.0
 32
0.0
 14
-15.1154
 24
-106.4953
 34
0.0
 15
75.8503
 25
131.8916
 35
0.0
146
0.0
 13
0.0
 23
0.0
 33
0.0
 16
1.0
 26
0.0
 36
0.0
 17
0.0
 27
1.0
 37
0.0
 76
     0
330
1F
331
29
  0
MATERIAL
  5
3D
102
{ACAD_REACTORS
330
3B
102
}
330
3B
100
AcDbMaterial
  1
ByBlock
 72
     1
 94
      127
  0
MATERIAL
  5
3C
102
{ACAD_REACTORS
330
3B
102
}
330
3B
100
AcDbMaterial
  1
ByLayer
 72
     1
 94
      127
  0
MATERIAL
  5
3E
102
{ACAD_REACTORS
330
3B
102
}
330
3B
100
AcDbMaterial
  1
Global
 72
     1
 94
      127
  0
MLINESTYLE
  5
18
102
{ACAD_REACTORS
330
17
102
}
330
17
100
AcDbMlineStyle
  2
Standard
 70
     0
  3

 62
   256
 51
90.0
 52
90.0
 71
     2
 49
0.5
 62
   256
  6
BYLAYER
 49
-0.5
 62
   256
  6
BYLAYER
  0
ACDBPLACEHOLDER
  5
F
102
{ACAD_REACTORS
330
E
102
}
330
E
  0
VISUALSTYLE
  5
2F
102
{ACAD_REACTORS
330
2A
102
}
102
{ACAD_XDICTIONARY
360
8C
102
}
330
2A
100
AcDbVisualStyle
  2
2dWireframe
 70
     4
 71
     0
 72
     2
 73
     0
 90
        0
 40
-0.6
 41
-30.0
 62
     5
 63
     7
421
 16777215
 74
     1
 91
        4
 64
     7
 65
   257
 75
     1
175
     1
 42
1.0
 92
        0
 66
   257
 43
1.0
 76
     1
 77
     6
 78
     2
 67
     7
 79
     5
170
     0
171
     0
290
     0
174
     0
 93
        1
 44
0.0
173
     0
291
     0
 45
0.0
  0
VISUALSTYLE
  5
31
102
{ACAD_REACTORS
330
2A
102
}
102
{ACAD_XDICTIONARY
360
90
102
}
330
2A
100
AcDbVisualStyle
  2
3D Hidden
 70
     6
 71
     1
 72
     2
 73
     2
 90
        0
 40
-0.6
 41
-30.0
 62
     5
 63
     7
421
 16777215
 74
     2
 91
        2
 64
     7
 65
   257
 75
     2
175
     1
 42
40.0
 92
        0
 66
   257
 43
1.0
 76
     1
 77
     6
 78
     2
 67
     7
 79
     3
170
     0
171
     0
290
     0
174
     0
 93
        1
 44
0.0
173
     0
291
     0
 45
0.0
  0
VISUALSTYLE
  5
30
102
{ACAD_REACTORS
330
2A
102
}
102
{ACAD_XDICTIONARY
360
8E
102
}
330
2A
100
AcDbVisualStyle
  2
3dWireframe
 70
     5
 71
     0
 72
     2
 73
     0
 90
        0
 40
-0.6
 41
-30.0
 62
     5
 63
     7
421
 16777215
 74
     1
 91
        4
 64
     7
 65
   257
 75
     1
175
     1
 42
1.0
 92
        0
 66
   257
 43
1.0
 76
     1
 77
     6
 78
     2
 67
     7
 79
     5
170
     0
171
     0
290
     0
174
     0
 93
        1
 44
0.0
173
     0
291
     0
 45
0.0
  0
VISUALSTYLE
  5
32
102
{ACAD_REACTORS
330
2A
102
}
102
{ACAD_XDICTIONARY
360
92
102
}
330
2A
100
AcDbVisualStyle
  2
Basic
 70
     7
 71
     1
 72
     0
 73
     1
 90
        0
 40
-0.6
 41
-30.0
 62
     5
 63
     7
421
 16777215
 74
     0
 91
        4
 64
     7
 65
   257
 75
     1
175
     1
 42
1.0
 92
        8
 66
     7
 43
1.0
 76
     1
 77
     6
 78
     2
 67
     7
 79
     5
170
     0
171
     0
290
     0
174
     0
 93
        1
 44
0.0
173
     0
291
     1
 45
0.0
  0
VISUALSTYLE
  5
36
102
{ACAD_REACTORS
330
2A
102
}
102
{ACAD_XDICTIONARY
360
9A
102
}
330
2A
100
AcDbVisualStyle
  2
Brighten
 70
    12
 71
     2
 72
     2
 73
     0
 90
        0
 40
-0.6
 41
-30.0
 62
     5
 63
     7
421
 16777215
 74
     1
 91
        4
 64
     7
 65
   257
 75
     1
175
     1
 42
1.0
 92
        8
 66
     7
 43
1.0
 76
     1
 77
     6
 78
     2
 67
     7
 79
     5
170
     0
171
     0
290
     0
174
     0
 93
        1
 44
50.0
173
     0
291
     1
 45
0.0
  0
VISUALSTYLE
  5
3A
102
{ACAD_REACTORS
330
2A
102
}
102
{ACAD_XDICTIONARY
360
A2
102
}
330
2A
100
AcDbVisualStyle
  2
ColorChange
 70
    16
 71
     2
 72
     2
 73
     3
 90
        0
 40
-0.6
 41
-30.0
 62
     5
 63
     8
421
  8421504
 74
     1
 91
        4
 64
     7
 65
   257
 75
     1
175
     1
 42
1.0
 92
        8
 66
     8
424
  8421504
 43
1.0
 76
     1
 77
     6
 78
     2
 67
     7
 79
     5
170
     0
171
     0
290
     0
174
     0
 93
        1
 44
0.0
173
     0
291
     1
 45
0.0
  0
VISUALSTYLE
  5
34
102
{ACAD_REACTORS
330
2A
102
}
102
{ACAD_XDICTIONARY
360
96
102
}
330
2A
100
AcDbVisualStyle
  2
Conceptual
 70
     9
 71
     3
 72
     2
 73
     0
 90
        0
 40
-0.6
 41
-30.0
 62
     5
 63
     7
421
 16777215
 74
     2
 91
        2
 64
     7
 65
   257
 75
     1
175
     1
 42
40.0
 92
        8
 66
     7
 43
1.0
 76
     1
 77
     6
 78
     2
 67
     7
 79
     3
170
     0
171
     0
290
     0
174
     0
 93
        1
 44
0.0
173
     0
291
     0
 45
0.0
  0
VISUALSTYLE
  5
35
102
{ACAD_REACTORS
330
2A
102
}
102
{ACAD_XDICTIONARY
360
98
102
}
330
2A
100
AcDbVisualStyle
  2
Dim
 70
    11
 71
     2
 72
     2
 73
     0
 90
        0
 40
-0.6
 41
-30.0
 62
     5
 63
     7
421
 16777215
 74
     1
 91
        4
 64
     7
 65
   257
 75
     1
175
     1
 42
1.0
 92
        8
 66
     7
 43
1.0
 76
     1
 77
     6
 78
     2
 67
     7
 79
     5
170
     0
171
     0
290
     0
174
     0
 93
        1
 44
-50.0
173
     0
291
     1
 45
0.0
  0
VISUALSTYLE
  5
39
102
{ACAD_REACTORS
330
2A
102
}
102
{ACAD_XDICTIONARY
360
A0
102
}
330
2A
100
AcDbVisualStyle
  2
Facepattern
 70
    15
 71
     2
 72
     2
 73
     0
 90
        0
 40
-0.6
 41
-30.0
 62
     5
 63
     7
421
 16777215
 74
     1
 91
        4
 64
     7
 65
   257
 75
     1
175
     1
 42
1.0
 92
        8
 66
     7
 43
1.0
 76
     1
 77
     6
 78
     2
 67
     7
 79
     5
170
     0
171
     0
290
     0
174
     0
 93
        1
 44
0.0
173
     0
291
     1
 45
0.0
  0
VISUALSTYLE
  5
2B
102
{ACAD_REACTORS
330
2A
102
}
102
{ACAD_XDICTIONARY
360
84
102
}
330
2A
100
AcDbVisualStyle
  2
Flat
 70
     0
 71
     2
 72
     1
 73
     1
 90
        2
 40
-0.6
 41
30.0
 62
     5
 63
     7
421
 16777215
 74
     0
 91
        4
 64
     7
 65
   257
 75
     1
175
     1
 42
1.0
 92
        8
 66
     7
 43
1.0
 76
     1
 77
     6
 78
     2
 67
     7
 79
     5
170
     0
171
     0
290
     0
174
     0
 93
       13
 44
0.0
173
     0
291
     1
 45
0.0
  0
VISUALSTYLE
  5
2C
102
{ACAD_REACTORS
330
2A
102
}
102
{ACAD_XDICTIONARY
360
86
102
}
330
2A
100
AcDbVisualStyle
  2
FlatWithEdges
 70
     1
 71
     2
 72
     1
 73
     1
 90
        2
 40
-0.6
 41
30.0
 62
     5
 63
     7
421
 16777215
 74
     1
 91
        4
 64
     7
 65
   257
 75
     1
175
     1
 42
1.0
 92
        0
 66
   257
 43
1.0
 76
     1
 77
     6
 78
     2
 67
     7
 79
     5
170
     0
171
     0
290
     0
174
     0
 93
       13
 44
0.0
173
     0
291
     1
 45
0.0
  0
VISUALSTYLE
  5
2D
102
{ACAD_REACTORS
330
2A
102
}
102
{ACAD_XDICTIONARY
360
88
102
}
330
2A
100
AcDbVisualStyle
  2
Gouraud
 70
     2
 71
     2
 72
     2
 73
     1
 90
        2
 40
-0.6
 41
30.0
 62
     5
 63
     7
421
 16777215
 74
     0
 91
        4
 64
     7
 65
   257
 75
     1
175
     1
 42
1.0
 92
        0
 66
     7
 43
1.0
 76
     1
 77
     6
 78
     2
 67
     7
 79
     5
170
     0
171
     0
290
     0
174
     0
 93
       13
 44
0.0
173
     0
291
     1
 45
0.0
  0
VISUALSTYLE
  5
2E
102
{ACAD_REACTORS
330
2A
102
}
102
{ACAD_XDICTIONARY
360
8A
102
}
330
2A
100
AcDbVisualStyle
  2
GouraudWithEdges
 70
     3
 71
     2
 72
     2
 73
     1
 90
        2
 40
-0.6
 41
30.0
 62
     5
 63
     7
421
 16777215
 74
     1
 91
        4
 64
     7
 65
   257
 75
     1
175
     1
 42
1.0
 92
        0
 66
   257
 43
1.0
 76
     1
 77
     6
 78
     2
 67
     7
 79
     5
170
     0
171
     0
290
     0
174
     0
 93
       13
 44
0.0
173
     0
291
     1
 45
0.0
  0
VISUALSTYLE
  5
38
102
{ACAD_REACTORS
330
2A
102
}
102
{ACAD_XDICTIONARY
360
9E
102
}
330
2A
100
AcDbVisualStyle
  2
Linepattern
 70
    14
 71
     2
 72
     2
 73
     0
 90
        0
 40
-0.6
 41
-30.0
 62
     5
 63
     7
421
 16777215
 74
     1
 91
        4
 64
     7
 65
   257
 75
     7
175
     7
 42
1.0
 92
        8
 66
     7
 43
1.0
 76
     1
 77
     6
 78
     2
 67
     7
 79
     5
170
     0
171
     0
290
     0
174
     0
 93
        1
 44
0.0
173
     0
291
     1
 45
0.0
  0
VISUALSTYLE
  5
33
102
{ACAD_REACTORS
330
2A
102
}
102
{ACAD_XDICTIONARY
360
94
102
}
330
2A
100
AcDbVisualStyle
  2
Realistic
 70
     8
 71
     2
 72
     2
 73
     0
 90
        0
 40
-0.6
 41
-30.0
 62
     5
 63
     7
421
 16777215
 74
     1
 91
        0
 64
     7
 65
   257
 75
     1
175
     1
 42
1.0
 92
        8
 66
     8
424
  7895160
 43
1.0
 76
     1
 77
     6
 78
     2
 67
     7
 79
     5
170
     0
171
     0
290
     0
174
     0
 93
       13
 44
0.0
173
     0
291
     0
 45
0.0
  0
VISUALSTYLE
  5
37
102
{ACAD_REACTORS
330
2A
102
}
102
{ACAD_XDICTIONARY
360
9C
102
}
330
2A
100
AcDbVisualStyle
  2
Thicken
 70
    13
 71
     2
 72
     2
 73
     0
 90
        0
 40
-0.6
 41
-30.0
 62
     5
 63
     7
421
 16777215
 74
     1
 91
        4
 64
     7
 65
   257
 75
     1
175
     1
 42
1.0
 92
       12
 66
     7
 43
1.0
 76
     1
 77
     6
 78
     2
 67
     7
 79
     5
170
     0
171
     0
290
     0
174
     0
 93
        1
 44
0.0
173
     0
291
     1
 45
0.0
  0
DICTIONARY
  5
8C
330
2F
100
AcDbDictionary
280
     1
281
     1
  3
ACAD_XREC_ROUNDTRIP
360
8D
  0
DICTIONARY
  5
90
330
31
100
AcDbDictionary
280
     1
281
     1
  3
ACAD_XREC_ROUNDTRIP
360
91
  0
DICTIONARY
  5
8E
330
30
100
AcDbDictionary
280
     1
281
     1
  3
ACAD_XREC_ROUNDTRIP
360
8F
  0
DICTIONARY
  5
92
330
32
100
AcDbDictionary
280
     1
281
     1
  3
ACAD_XREC_ROUNDTRIP
360
93
  0
DICTIONARY
  5
9A
330
36
100
AcDbDictionary
280
     1
281
     1
  3
ACAD_XREC_ROUNDTRIP
360
9B
  0
DICTIONARY
  5
A2
330
3A
100
AcDbDictionary
280
     1
281
     1
  3
ACAD_XREC_ROUNDTRIP
360
A3
  0
DICTIONARY
  5
96
330
34
100
AcDbDictionary
280
     1
281
     1
  3
ACAD_XREC_ROUNDTRIP
360
97
  0
DICTIONARY
  5
98
330
35
100
AcDbDictionary
280
     1
281
     1
  3
ACAD_XREC_ROUNDTRIP
360
99
  0
DICTIONARY
  5
A0
330
39
100
AcDbDictionary
280
     1
281
     1
  3
ACAD_XREC_ROUNDTRIP
360
A1
  0
DICTIONARY
  5
84
330
2B
100
AcDbDictionary
280
     1
281
     1
  3
ACAD_XREC_ROUNDTRIP
360
85
  0
DICTIONARY
  5
86
330
2C
100
AcDbDictionary
280
     1
281
     1
  3
ACAD_XREC_ROUNDTRIP
360
87
  0
DICTIONARY
  5
88
330
2D
100
AcDbDictionary
280
     1
281
     1
  3
ACAD_XREC_ROUNDTRIP
360
89
  0
DICTIONARY
  5
8A
330
2E
100
AcDbDictionary
280
     1
281
     1
  3
ACAD_XREC_ROUNDTRIP
360
8B
  0
DICTIONARY
  5
9E
330
38
100
AcDbDictionary
280
     1
281
     1
  3
ACAD_XREC_ROUNDTRIP
360
9F
  0
DICTIONARY
  5
94
330
33
100
AcDbDictionary
280
     1
281
     1
  3
ACAD_XREC_ROUNDTRIP
360
95
  0
DICTIONARY
  5
9C
330
37
100
AcDbDictionary
280
     1
281
     1
  3
ACAD_XREC_ROUNDTRIP
360
9D
  0
XRECORD
  5
8D
102
{ACAD_REACTORS
330
8C
102
}
330
8C
100
AcDbXrecord
280
     1
102
RTVSPropertyOp0
 70
     1
102
RTVSPropertyOp1
 70
     1
102
RTVSPropertyOp2
 70
     1
102
RTVSPropertyOp3
 70
     1
102
RTVSPropertyOp4
 70
     1
102
RTVSPropertyOp5
 70
     1
102
RTVSPropertyOp6
 70
     1
102
RTVSPropertyOp7
 70
     1
102
RTVSPropertyOp8
 70
     1
102
RTVSPropertyOp9
 70
     1
102
RTVSPropertyOp10
 70
     1
102
RTVSPropertyOp11
 70
     1
102
RTVSPropertyOp12
 70
     1
102
RTVSPropertyOp13
 70
     1
102
RTVSPropertyOp14
 70
     1
102
RTVSPropertyOp15
 70
     1
102
RTVSPropertyOp16
 70
     1
102
RTVSPropertyOp17
 70
     1
102
RTVSPropertyOp18
 70
     1
102
RTVSPropertyOp19
 70
     1
102
RTVSPropertyOp20
 70
     1
102
RTVSPropertyOp21
 70
     1
102
RTVSPropertyOp22
 70
     1
102
RTVSPropertyOp23
 70
     1
102
RTVSPropertyOp24
 70
     1
102
RTVSPropertyOp25
 70
     1
102
RTVSPropertyOp26
 70
     1
102
RTVSPropertyOp27
 70
     1
102
RTVSPropertyOp28
 70
     1
102
RTVSPropertyOp29
 70
     1
102
RTVSPropertyOp30
 70
     1
102
RTVSPropertyOp31
 70
     1
102
RTVSPropertyOp32
 70
     1
  0
XRECORD
  5
91
102
{ACAD_REACTORS
330
90
102
}
330
90
100
AcDbXrecord
280
     1
102
RTVSPropertyOp0
 70
     1
102
RTVSPropertyOp1
 70
     1
102
RTVSPropertyOp2
 70
     1
102
RTVSPropertyOp3
 70
     1
102
RTVSPropertyOp4
 70
     1
102
RTVSPropertyOp5
 70
     1
102
RTVSPropertyOp6
 70
     1
102
RTVSPropertyOp7
 70
     1
102
RTVSPropertyOp8
 70
     1
102
RTVSPropertyOp9
 70
     1
102
RTVSPropertyOp10
 70
     1
102
RTVSPropertyOp11
 70
     1
102
RTVSPropertyOp12
 70
     1
102
RTVSPropertyOp13
 70
     1
102
RTVSPropertyOp14
 70
     1
102
RTVSPropertyOp15
 70
     1
102
RTVSPropertyOp16
 70
     1
102
RTVSPropertyOp17
 70
     1
102
RTVSPropertyOp18
 70
     1
102
RTVSPropertyOp19
 70
     1
102
RTVSPropertyOp20
 70
     1
102
RTVSPropertyOp21
 70
     1
102
RTVSPropertyOp22
 70
     1
102
RTVSPropertyOp23
 70
     1
102
RTVSPropertyOp24
 70
     1
102
RTVSPropertyOp25
 70
     1
102
RTVSPropertyOp26
 70
     1
102
RTVSPropertyOp27
 70
     1
102
RTVSPropertyOp28
 70
     1
102
RTVSPropertyOp29
 70
     1
102
RTVSPropertyOp30
 70
     1
102
RTVSPropertyOp31
 70
     1
102
RTVSPropertyOp32
 70
     1
  0
XRECORD
  5
8F
102
{ACAD_REACTORS
330
8E
102
}
330
8E
100
AcDbXrecord
280
     1
102
RTVSPropertyOp0
 70
     1
102
RTVSPropertyOp1
 70
     1
102
RTVSPropertyOp2
 70
     1
102
RTVSPropertyOp3
 70
     1
102
RTVSPropertyOp4
 70
     1
102
RTVSPropertyOp5
 70
     1
102
RTVSPropertyOp6
 70
     1
102
RTVSPropertyOp7
 70
     1
102
RTVSPropertyOp8
 70
     1
102
RTVSPropertyOp9
 70
     1
102
RTVSPropertyOp10
 70
     1
102
RTVSPropertyOp11
 70
     1
102
RTVSPropertyOp12
 70
     1
102
RTVSPropertyOp13
 70
     1
102
RTVSPropertyOp14
 70
     1
102
RTVSPropertyOp15
 70
     1
102
RTVSPropertyOp16
 70
     1
102
RTVSPropertyOp17
 70
     1
102
RTVSPropertyOp18
 70
     1
102
RTVSPropertyOp19
 70
     1
102
RTVSPropertyOp20
 70
     1
102
RTVSPropertyOp21
 70
     1
102
RTVSPropertyOp22
 70
     1
102
RTVSPropertyOp23
 70
     1
102
RTVSPropertyOp24
 70
     1
102
RTVSPropertyOp25
 70
     1
102
RTVSPropertyOp26
 70
     1
102
RTVSPropertyOp27
 70
     1
102
RTVSPropertyOp28
 70
     1
102
RTVSPropertyOp29
 70
     1
102
RTVSPropertyOp30
 70
     1
102
RTVSPropertyOp31
 70
     1
102
RTVSPropertyOp32
 70
     1
  0
XRECORD
  5
93
102
{ACAD_REACTORS
330
92
102
}
330
92
100
AcDbXrecord
280
     1
102
RTVSPropertyOp0
 70
     1
102
RTVSPropertyOp1
 70
     1
102
RTVSPropertyOp2
 70
     1
102
RTVSPropertyOp3
 70
     1
102
RTVSPropertyOp4
 70
     1
102
RTVSPropertyOp5
 70
     1
102
RTVSPropertyOp6
 70
     1
102
RTVSPropertyOp7
 70
     1
102
RTVSPropertyOp8
 70
     1
102
RTVSPropertyOp9
 70
     1
102
RTVSPropertyOp10
 70
     1
102
RTVSPropertyOp11
 70
     1
102
RTVSPropertyOp12
 70
     1
102
RTVSPropertyOp13
 70
     1
102
RTVSPropertyOp14
 70
     1
102
RTVSPropertyOp15
 70
     1
102
RTVSPropertyOp16
 70
     1
102
RTVSPropertyOp17
 70
     1
102
RTVSPropertyOp18
 70
     1
102
RTVSPropertyOp19
 70
     1
102
RTVSPropertyOp20
 70
     1
102
RTVSPropertyOp21
 70
     1
102
RTVSPropertyOp22
 70
     1
102
RTVSPropertyOp23
 70
     1
102
RTVSPropertyOp24
 70
     1
102
RTVSPropertyOp25
 70
     1
102
RTVSPropertyOp26
 70
     1
102
RTVSPropertyOp27
 70
     1
102
RTVSPropertyOp28
 70
     1
102
RTVSPropertyOp29
 70
     1
102
RTVSPropertyOp30
 70
     1
102
RTVSPropertyOp31
 70
     1
102
RTVSPropertyOp32
 70
     1
  0
XRECORD
  5
9B
102
{ACAD_REACTORS
330
9A
102
}
330
9A
100
AcDbXrecord
280
     1
102
RTVSPropertyOp0
 70
     1
102
RTVSPropertyOp1
 70
     1
102
RTVSPropertyOp2
 70
     1
102
RTVSPropertyOp3
 70
     1
102
RTVSPropertyOp4
 70
     1
102
RTVSPropertyOp5
 70
     1
102
RTVSPropertyOp6
 70
     1
102
RTVSPropertyOp7
 70
     1
102
RTVSPropertyOp8
 70
     1
102
RTVSPropertyOp9
 70
     1
102
RTVSPropertyOp10
 70
     1
102
RTVSPropertyOp11
 70
     1
102
RTVSPropertyOp12
 70
     1
102
RTVSPropertyOp13
 70
     1
102
RTVSPropertyOp14
 70
     1
102
RTVSPropertyOp15
 70
     1
102
RTVSPropertyOp16
 70
     1
102
RTVSPropertyOp17
 70
     1
102
RTVSPropertyOp18
 70
     1
102
RTVSPropertyOp19
 70
     1
102
RTVSPropertyOp20
 70
     1
102
RTVSPropertyOp21
 70
     1
102
RTVSPropertyOp22
 70
     1
102
RTVSPropertyOp23
 70
     1
102
RTVSPropertyOp24
 70
     1
102
RTVSPropertyOp25
 70
     1
102
RTVSPropertyOp26
 70
     1
102
RTVSPropertyOp27
 70
     1
102
RTVSPropertyOp28
 70
     1
102
RTVSPropertyOp29
 70
     1
102
RTVSPropertyOp30
 70
     1
102
RTVSPropertyOp31
 70
     1
102
RTVSPropertyOp32
 70
     1
  0
XRECORD
  5
A3
102
{ACAD_REACTORS
330
A2
102
}
330
A2
100
AcDbXrecord
280
     1
102
RTVSPropertyOp0
 70
     1
102
RTVSPropertyOp1
 70
     1
102
RTVSPropertyOp2
 70
     1
102
RTVSPropertyOp3
 70
     1
102
RTVSPropertyOp4
 70
     1
102
RTVSPropertyOp5
 70
     1
102
RTVSPropertyOp6
 70
     1
102
RTVSPropertyOp7
 70
     1
102
RTVSPropertyOp8
 70
     1
102
RTVSPropertyOp9
 70
     1
102
RTVSPropertyOp10
 70
     1
102
RTVSPropertyOp11
 70
     1
102
RTVSPropertyOp12
 70
     1
102
RTVSPropertyOp13
 70
     1
102
RTVSPropertyOp14
 70
     1
102
RTVSPropertyOp15
 70
     1
102
RTVSPropertyOp16
 70
     1
102
RTVSPropertyOp17
 70
     1
102
RTVSPropertyOp18
 70
     1
102
RTVSPropertyOp19
 70
     1
102
RTVSPropertyOp20
 70
     1
102
RTVSPropertyOp21
 70
     1
102
RTVSPropertyOp22
 70
     1
102
RTVSPropertyOp23
 70
     1
102
RTVSPropertyOp24
 70
     1
102
RTVSPropertyOp25
 70
     1
102
RTVSPropertyOp26
 70
     1
102
RTVSPropertyOp27
 70
     1
102
RTVSPropertyOp28
 70
     1
102
RTVSPropertyOp29
 70
     1
102
RTVSPropertyOp30
 70
     1
102
RTVSPropertyOp31
 70
     1
102
RTVSPropertyOp32
 70
     1
  0
XRECORD
  5
97
102
{ACAD_REACTORS
330
96
102
}
330
96
100
AcDbXrecord
280
     1
102
RTVSPropertyOp0
 70
     1
102
RTVSPropertyOp1
 70
     1
102
RTVSPropertyOp2
 70
     1
102
RTVSPropertyOp3
 70
     1
102
RTVSPropertyOp4
 70
     1
102
RTVSPropertyOp5
 70
     1
102
RTVSPropertyOp6
 70
     1
102
RTVSPropertyOp7
 70
     1
102
RTVSPropertyOp8
 70
     1
102
RTVSPropertyOp9
 70
     1
102
RTVSPropertyOp10
 70
     1
102
RTVSPropertyOp11
 70
     1
102
RTVSPropertyOp12
 70
     1
102
RTVSPropertyOp13
 70
     1
102
RTVSPropertyOp14
 70
     1
102
RTVSPropertyOp15
 70
     1
102
RTVSPropertyOp16
 70
     1
102
RTVSPropertyOp17
 70
     1
102
RTVSPropertyOp18
 70
     1
102
RTVSPropertyOp19
 70
     1
102
RTVSPropertyOp20
 70
     1
102
RTVSPropertyOp21
 70
     1
102
RTVSPropertyOp22
 70
     1
102
RTVSPropertyOp23
 70
     1
102
RTVSPropertyOp24
 70
     1
102
RTVSPropertyOp25
 70
     1
102
RTVSPropertyOp26
 70
     1
102
RTVSPropertyOp27
 70
     1
102
RTVSPropertyOp28
 70
     1
102
RTVSPropertyOp29
 70
     1
102
RTVSPropertyOp30
 70
     1
102
RTVSPropertyOp31
 70
     1
102
RTVSPropertyOp32
 70
     1
  0
XRECORD
  5
99
102
{ACAD_REACTORS
330
98
102
}
330
98
100
AcDbXrecord
280
     1
102
RTVSPropertyOp0
 70
     1
102
RTVSPropertyOp1
 70
     1
102
RTVSPropertyOp2
 70
     1
102
RTVSPropertyOp3
 70
     1
102
RTVSPropertyOp4
 70
     1
102
RTVSPropertyOp5
 70
     1
102
RTVSPropertyOp6
 70
     1
102
RTVSPropertyOp7
 70
     1
102
RTVSPropertyOp8
 70
     1
102
RTVSPropertyOp9
 70
     1
102
RTVSPropertyOp10
 70
     1
102
RTVSPropertyOp11
 70
     1
102
RTVSPropertyOp12
 70
     1
102
RTVSPropertyOp13
 70
     1
102
RTVSPropertyOp14
 70
     1
102
RTVSPropertyOp15
 70
     1
102
RTVSPropertyOp16
 70
     1
102
RTVSPropertyOp17
 70
     1
102
RTVSPropertyOp18
 70
     1
102
RTVSPropertyOp19
 70
     1
102
RTVSPropertyOp20
 70
     1
102
RTVSPropertyOp21
 70
     1
102
RTVSPropertyOp22
 70
     1
102
RTVSPropertyOp23
 70
     1
102
RTVSPropertyOp24
 70
     1
102
RTVSPropertyOp25
 70
     1
102
RTVSPropertyOp26
 70
     1
102
RTVSPropertyOp27
 70
     1
102
RTVSPropertyOp28
 70
     1
102
RTVSPropertyOp29
 70
     1
102
RTVSPropertyOp30
 70
     1
102
RTVSPropertyOp31
 70
     1
102
RTVSPropertyOp32
 70
     1
  0
XRECORD
  5
A1
102
{ACAD_REACTORS
330
A0
102
}
330
A0
100
AcDbXrecord
280
     1
102
RTVSPropertyOp0
 70
     1
102
RTVSPropertyOp1
 70
     1
102
RTVSPropertyOp2
 70
     1
102
RTVSPropertyOp3
 70
     1
102
RTVSPropertyOp4
 70
     1
102
RTVSPropertyOp5
 70
     1
102
RTVSPropertyOp6
 70
     1
102
RTVSPropertyOp7
 70
     1
102
RTVSPropertyOp8
 70
     1
102
RTVSPropertyOp9
 70
     1
102
RTVSPropertyOp10
 70
     1
102
RTVSPropertyOp11
 70
     1
102
RTVSPropertyOp12
 70
     1
102
RTVSPropertyOp13
 70
     1
102
RTVSPropertyOp14
 70
     1
102
RTVSPropertyOp15
 70
     1
102
RTVSPropertyOp16
 70
     1
102
RTVSPropertyOp17
 70
     1
102
RTVSPropertyOp18
 70
     1
102
RTVSPropertyOp19
 70
     1
102
RTVSPropertyOp20
 70
     1
102
RTVSPropertyOp21
 70
     1
102
RTVSPropertyOp22
 70
     1
102
RTVSPropertyOp23
 70
     1
102
RTVSPropertyOp24
 70
     1
102
RTVSPropertyOp25
 70
     1
102
RTVSPropertyOp26
 70
     1
102
RTVSPropertyOp27
 70
     1
102
RTVSPropertyOp28
 70
     1
102
RTVSPropertyOp29
 70
     1
102
RTVSPropertyOp30
 70
     1
102
RTVSPropertyOp31
 70
     1
102
RTVSPropertyOp32
 70
     1
  0
XRECORD
  5
85
102
{ACAD_REACTORS
330
84
102
}
330
84
100
AcDbXrecord
280
     1
102
RTVSPropertyOp0
 70
     1
102
RTVSPropertyOp1
 70
     1
102
RTVSPropertyOp2
 70
     1
102
RTVSPropertyOp3
 70
     1
102
RTVSPropertyOp4
 70
     1
102
RTVSPropertyOp5
 70
     1
102
RTVSPropertyOp6
 70
     1
102
RTVSPropertyOp7
 70
     1
102
RTVSPropertyOp8
 70
     1
102
RTVSPropertyOp9
 70
     1
102
RTVSPropertyOp10
 70
     1
102
RTVSPropertyOp11
 70
     1
102
RTVSPropertyOp12
 70
     1
102
RTVSPropertyOp13
 70
     1
102
RTVSPropertyOp14
 70
     1
102
RTVSPropertyOp15
 70
     1
102
RTVSPropertyOp16
 70
     1
102
RTVSPropertyOp17
 70
     1
102
RTVSPropertyOp18
 70
     1
102
RTVSPropertyOp19
 70
     1
102
RTVSPropertyOp20
 70
     1
102
RTVSPropertyOp21
 70
     1
102
RTVSPropertyOp22
 70
     1
102
RTVSPropertyOp23
 70
     1
102
RTVSPropertyOp24
 70
     1
102
RTVSPropertyOp25
 70
     1
102
RTVSPropertyOp26
 70
     1
102
RTVSPropertyOp27
 70
     1
102
RTVSPropertyOp28
 70
     1
102
RTVSPropertyOp29
 70
     1
102
RTVSPropertyOp30
 70
     1
102
RTVSPropertyOp31
 70
     1
102
RTVSPropertyOp32
 70
     1
  0
XRECORD
  5
87
102
{ACAD_REACTORS
330
86
102
}
330
86
100
AcDbXrecord
280
     1
102
RTVSPropertyOp0
 70
     1
102
RTVSPropertyOp1
 70
     1
102
RTVSPropertyOp2
 70
     1
102
RTVSPropertyOp3
 70
     1
102
RTVSPropertyOp4
 70
     1
102
RTVSPropertyOp5
 70
     1
102
RTVSPropertyOp6
 70
     1
102
RTVSPropertyOp7
 70
     1
102
RTVSPropertyOp8
 70
     1
102
RTVSPropertyOp9
 70
     1
102
RTVSPropertyOp10
 70
     1
102
RTVSPropertyOp11
 70
     1
102
RTVSPropertyOp12
 70
     1
102
RTVSPropertyOp13
 70
     1
102
RTVSPropertyOp14
 70
     1
102
RTVSPropertyOp15
 70
     1
102
RTVSPropertyOp16
 70
     1
102
RTVSPropertyOp17
 70
     1
102
RTVSPropertyOp18
 70
     1
102
RTVSPropertyOp19
 70
     1
102
RTVSPropertyOp20
 70
     1
102
RTVSPropertyOp21
 70
     1
102
RTVSPropertyOp22
 70
     1
102
RTVSPropertyOp23
 70
     1
102
RTVSPropertyOp24
 70
     1
102
RTVSPropertyOp25
 70
     1
102
RTVSPropertyOp26
 70
     1
102
RTVSPropertyOp27
 70
     1
102
RTVSPropertyOp28
 70
     1
102
RTVSPropertyOp29
 70
     1
102
RTVSPropertyOp30
 70
     1
102
RTVSPropertyOp31
 70
     1
102
RTVSPropertyOp32
 70
     1
  0
XRECORD
  5
89
102
{ACAD_REACTORS
330
88
102
}
330
88
100
AcDbXrecord
280
     1
102
RTVSPropertyOp0
 70
     1
102
RTVSPropertyOp1
 70
     1
102
RTVSPropertyOp2
 70
     1
102
RTVSPropertyOp3
 70
     1
102
RTVSPropertyOp4
 70
     1
102
RTVSPropertyOp5
 70
     1
102
RTVSPropertyOp6
 70
     1
102
RTVSPropertyOp7
 70
     1
102
RTVSPropertyOp8
 70
     1
102
RTVSPropertyOp9
 70
     1
102
RTVSPropertyOp10
 70
     1
102
RTVSPropertyOp11
 70
     1
102
RTVSPropertyOp12
 70
     1
102
RTVSPropertyOp13
 70
     1
102
RTVSPropertyOp14
 70
     1
102
RTVSPropertyOp15
 70
     1
102
RTVSPropertyOp16
 70
     1
102
RTVSPropertyOp17
 70
     1
102
RTVSPropertyOp18
 70
     1
102
RTVSPropertyOp19
 70
     1
102
RTVSPropertyOp20
 70
     1
102
RTVSPropertyOp21
 70
     1
102
RTVSPropertyOp22
 70
     1
102
RTVSPropertyOp23
 70
     1
102
RTVSPropertyOp24
 70
     1
102
RTVSPropertyOp25
 70
     1
102
RTVSPropertyOp26
 70
     1
102
RTVSPropertyOp27
 70
     1
102
RTVSPropertyOp28
 70
     1
102
RTVSPropertyOp29
 70
     1
102
RTVSPropertyOp30
 70
     1
102
RTVSPropertyOp31
 70
     1
102
RTVSPropertyOp32
 70
     1
  0
XRECORD
  5
8B
102
{ACAD_REACTORS
330
8A
102
}
330
8A
100
AcDbXrecord
280
     1
102
RTVSPropertyOp0
 70
     1
102
RTVSPropertyOp1
 70
     1
102
RTVSPropertyOp2
 70
     1
102
RTVSPropertyOp3
 70
     1
102
RTVSPropertyOp4
 70
     1
102
RTVSPropertyOp5
 70
     1
102
RTVSPropertyOp6
 70
     1
102
RTVSPropertyOp7
 70
     1
102
RTVSPropertyOp8
 70
     1
102
RTVSPropertyOp9
 70
     1
102
RTVSPropertyOp10
 70
     1
102
RTVSPropertyOp11
 70
     1
102
RTVSPropertyOp12
 70
     1
102
RTVSPropertyOp13
 70
     1
102
RTVSPropertyOp14
 70
     1
102
RTVSPropertyOp15
 70
     1
102
RTVSPropertyOp16
 70
     1
102
RTVSPropertyOp17
 70
     1
102
RTVSPropertyOp18
 70
     1
102
RTVSPropertyOp19
 70
     1
102
RTVSPropertyOp20
 70
     1
102
RTVSPropertyOp21
 70
     1
102
RTVSPropertyOp22
 70
     1
102
RTVSPropertyOp23
 70
     1
102
RTVSPropertyOp24
 70
     1
102
RTVSPropertyOp25
 70
     1
102
RTVSPropertyOp26
 70
     1
102
RTVSPropertyOp27
 70
     1
102
RTVSPropertyOp28
 70
     1
102
RTVSPropertyOp29
 70
     1
102
RTVSPropertyOp30
 70
     1
102
RTVSPropertyOp31
 70
     1
102
RTVSPropertyOp32
 70
     1
  0
XRECORD
  5
9F
102
{ACAD_REACTORS
330
9E
102
}
330
9E
100
AcDbXrecord
280
     1
102
RTVSPropertyOp0
 70
     1
102
RTVSPropertyOp1
 70
     1
102
RTVSPropertyOp2
 70
     1
102
RTVSPropertyOp3
 70
     1
102
RTVSPropertyOp4
 70
     1
102
RTVSPropertyOp5
 70
     1
102
RTVSPropertyOp6
 70
     1
102
RTVSPropertyOp7
 70
     1
102
RTVSPropertyOp8
 70
     1
102
RTVSPropertyOp9
 70
     1
102
RTVSPropertyOp10
 70
     1
102
RTVSPropertyOp11
 70
     1
102
RTVSPropertyOp12
 70
     1
102
RTVSPropertyOp13
 70
     1
102
RTVSPropertyOp14
 70
     1
102
RTVSPropertyOp15
 70
     1
102
RTVSPropertyOp16
 70
     1
102
RTVSPropertyOp17
 70
     1
102
RTVSPropertyOp18
 70
     1
102
RTVSPropertyOp19
 70
     1
102
RTVSPropertyOp20
 70
     1
102
RTVSPropertyOp21
 70
     1
102
RTVSPropertyOp22
 70
     1
102
RTVSPropertyOp23
 70
     1
102
RTVSPropertyOp24
 70
     1
102
RTVSPropertyOp25
 70
     1
102
RTVSPropertyOp26
 70
     1
102
RTVSPropertyOp27
 70
     1
102
RTVSPropertyOp28
 70
     1
102
RTVSPropertyOp29
 70
     1
102
RTVSPropertyOp30
 70
     1
102
RTVSPropertyOp31
 70
     1
102
RTVSPropertyOp32
 70
     1
  0
XRECORD
  5
95
102
{ACAD_REACTORS
330
94
102
}
330
94
100
AcDbXrecord
280
     1
102
RTVSPropertyOp0
 70
     1
102
RTVSPropertyOp1
 70
     1
102
RTVSPropertyOp2
 70
     1
102
RTVSPropertyOp3
 70
     1
102
RTVSPropertyOp4
 70
     1
102
RTVSPropertyOp5
 70
     1
102
RTVSPropertyOp6
 70
     1
102
RTVSPropertyOp7
 70
     1
102
RTVSPropertyOp8
 70
     1
102
RTVSPropertyOp9
 70
     1
102
RTVSPropertyOp10
 70
     1
102
RTVSPropertyOp11
 70
     1
102
RTVSPropertyOp12
 70
     1
102
RTVSPropertyOp13
 70
     1
102
RTVSPropertyOp14
 70
     1
102
RTVSPropertyOp15
 70
     1
102
RTVSPropertyOp16
 70
     1
102
RTVSPropertyOp17
 70
     1
102
RTVSPropertyOp18
 70
     1
102
RTVSPropertyOp19
 70
     1
102
RTVSPropertyOp20
 70
     1
102
RTVSPropertyOp21
 70
     1
102
RTVSPropertyOp22
 70
     1
102
RTVSPropertyOp23
 70
     1
102
RTVSPropertyOp24
 70
     1
102
RTVSPropertyOp25
 70
     1
102
RTVSPropertyOp26
 70
     1
102
RTVSPropertyOp27
 70
     1
102
RTVSPropertyOp28
 70
     1
102
RTVSPropertyOp29
 70
     1
102
RTVSPropertyOp30
 70
     1
102
RTVSPropertyOp31
 70
     1
102
RTVSPropertyOp32
 70
     1
  0
XRECORD
  5
9D
102
{ACAD_REACTORS
330
9C
102
}
330
9C
100
AcDbXrecord
280
     1
102
RTVSPropertyOp0
 70
     1
102
RTVSPropertyOp1
 70
     1
102
RTVSPropertyOp2
 70
     1
102
RTVSPropertyOp3
 70
     1
102
RTVSPropertyOp4
 70
     1
102
RTVSPropertyOp5
 70
     1
102
RTVSPropertyOp6
 70
     1
102
RTVSPropertyOp7
 70
     1
102
RTVSPropertyOp8
 70
     1
102
RTVSPropertyOp9
 70
     1
102
RTVSPropertyOp10
 70
     1
102
RTVSPropertyOp11
 70
     1
102
RTVSPropertyOp12
 70
     1
102
RTVSPropertyOp13
 70
     1
102
RTVSPropertyOp14
 70
     1
102
RTVSPropertyOp15
 70
     1
102
RTVSPropertyOp16
 70
     1
102
RTVSPropertyOp17
 70
     1
102
RTVSPropertyOp18
 70
     1
102
RTVSPropertyOp19
 70
     1
102
RTVSPropertyOp20
 70
     1
102
RTVSPropertyOp21
 70
     1
102
RTVSPropertyOp22
 70
     1
102
RTVSPropertyOp23
 70
     1
102
RTVSPropertyOp24
 70
     1
102
RTVSPropertyOp25
 70
     1
102
RTVSPropertyOp26
 70
     1
102
RTVSPropertyOp27
 70
     1
102
RTVSPropertyOp28
 70
     1
102
RTVSPropertyOp29
 70
     1
102
RTVSPropertyOp30
 70
     1
102
RTVSPropertyOp31
 70
     1
102
RTVSPropertyOp32
 70
     1
  0
ENDSEC
  0
EOF
