  0
SECTION
  2
HEADER
  9
$ACADVER
  1
AC1021
  9
$ACADMAINTVER
 70
    25
  9
$DWGCODEPAGE
  3
ANSI_1256
  9
$INSBASE
 10
0.0
 20
0.0
 30
0.0
  9
$EXTMIN
 10
-187.0287
 20
-106.4953
 30
0.0
  9
$EXTMAX
 10
-87.0214
 20
131.777
 30
0.0
  9
$LIMMIN
 10
0.0
 20
0.0
  9
$LIMMAX
 10
12.0
 20
9.0
  9
$ORTHOMODE
 70
     0
  9
$REGENMODE
 70
     1
  9
$FILLMODE
 70
     1
  9
$QTEXTMODE
 70
     0
  9
$MIRRTEXT
 70
     1
  9
$LTSCALE
 40
1.0
  9
$ATTMODE
 70
     1
  9
$TEXTSIZE
 40
0.2
  9
$TRACEWID
 40
0.05
  9
$TEXTSTYLE
  7
Standard
  9
$CLAYER
  8
0
  9
$CELTYPE
  6
ByLayer
  9
$CECOLOR
 62
   256
  9
$CELTSCALE
 40
1.0
  9
$DISPSILH
 70
     0
  9
$DIMSCALE
 40
1.0
  9
$DIMASZ
 40
0.18
  9
$DIMEXO
 40
0.0625
  9
$DIMDLI
 40
0.38
  9
$DIMRND
 40
0.0
  9
$DIMDLE
 40
0.0
  9
$DIMEXE
 40
0.18
  9
$DIMTP
 40
0.0
  9
$DIMTM
 40
0.0
  9
$DIMTXT
 40
0.18
  9
$DIMCEN
 40
0.09
  9
$DIMTSZ
 40
0.0
  9
$DIMTOL
 70
     0
  9
$DIMLIM
 70
     0
  9
$DIMTIH
 70
     1
  9
$DIMTOH
 70
     1
  9
$DIMSE1
 70
     0
  9
$DIMSE2
 70
     0
  9
$DIMTAD
 70
     0
  9
$DIMZIN
 70
     0
  9
$DIMBLK
  1

  9
$DIMASO
 70
     1
  9
$DIMSHO
 70
     1
  9
$DIMPOST
  1

  9
$DIMAPOST
  1

  9
$DIMALT
 70
     0
  9
$DIMALTD
 70
     2
  9
$DIMALTF
 40
25.4
  9
$DIMLFAC
 40
1.0
  9
$DIMTOFL
 70
     0
  9
$DIMTVP
 40
0.0
  9
$DIMTIX
 70
     0
  9
$DIMSOXD
 70
     0
  9
$DIMSAH
 70
     0
  9
$DIMBLK1
  1

  9
$DIMBLK2
  1

  9
$DIMSTYLE
  2
Standard
  9
$DIMCLRD
 70
     0
  9
$DIMCLRE
 70
     0
  9
$DIMCLRT
 70
     0
  9
$DIMTFAC
 40
1.0
  9
$DIMGAP
 40
0.09
  9
$DIMJUST
 70
     0
  9
$DIMSD1
 70
     0
  9
$DIMSD2
 70
     0
  9
$DIMTOLJ
 70
     1
  9
$DIMTZIN
 70
     0
  9
$DIMALTZ
 70
     0
  9
$DIMALTTZ
 70
     0
  9
$DIMUPT
 70
     0
  9
$DIMDEC
 70
     4
  9
$DIMTDEC
 70
     4
  9
$DIMALTU
 70
     2
  9
$DIMALTTD
 70
     2
  9
$DIMTXSTY
  7
Standard
  9
$DIMAUNIT
 70
     0
  9
$DIMADEC
 70
     0
  9
$DIMALTRND
 40
0.0
  9
$DIMAZIN
 70
     0
  9
$DIMDSEP
 70
    46
  9
$DIMATFIT
 70
     3
  9
$DIMFRAC
 70
     0
  9
$DIMLDRBLK
  1

  9
$DIMLUNIT
 70
     2
  9
$DIMLWD
 70
    -2
  9
$DIMLWE
 70
    -2
  9
$DIMTMOVE
 70
     0
  9
$DIMFXL
 40
1.0
  9
$DIMFXLON
 70
     0
  9
$DIMJOGANG
 40
0.7853981633974483
  9
$DIMTFILL
 70
     0
  9
$DIMTFILLCLR
 70
     0
  9
$DIMARCSYM
 70
     0
  9
$DIMLTYPE
  6

  9
$DIMLTEX1
  6

  9
$DIMLTEX2
  6

  9
$LUNITS
 70
     2
  9
$LUPREC
 70
     4
  9
$SKETCHINC
 40
0.1
  9
$FILLETRAD
 40
0.5
  9
$AUNITS
 70
     0
  9
$AUPREC
 70
     0
  9
$MENU
  1
.
  9
$ELEVATION
 40
0.0
  9
$PELEVATION
 40
0.0
  9
$THICKNESS
 40
0.0
  9
$LIMCHECK
 70
     0
  9
$CHAMFERA
 40
0.5
  9
$CHAMFERB
 40
0.5
  9
$CHAMFERC
 40
1.0
  9
$CHAMFERD
 40
0.0
  9
$SKPOLY
 70
     0
  9
$TDCREATE
 40
2458492.920659132
  9
$TDUCREATE
 40
2458492.753992465
  9
$TDUPDATE
 40
2458492.920659259
  9
$TDUUPDATE
 40
2458492.753992592
  9
$TDINDWG
 40
0.0000000116
  9
$TDUSRTIMER
 40
0.0000000116
  9
$USRTIMER
 70
     1
  9
$ANGBASE
 50
0.0
  9
$ANGDIR
 70
     0
  9
$PDMODE
 70
     0
  9
$PDSIZE
 40
0.0
  9
$PLINEWID
 40
0.0
  9
$SPLFRAME
 70
     0
  9
$SPLINETYPE
 70
     6
  9
$SPLINESEGS
 70
     8
  9
$HANDSEED
  5
94
  9
$SURFTAB1
 70
     6
  9
$SURFTAB2
 70
     6
  9
$SURFTYPE
 70
     6
  9
$SURFU
 70
     6
  9
$SURFV
 70
     6
  9
$UCSBASE
  2

  9
$UCSNAME
  2

  9
$UCSORG
 10
0.0
 20
0.0
 30
0.0
  9
$UCSXDIR
 10
1.0
 20
0.0
 30
0.0
  9
$UCSYDIR
 10
0.0
 20
1.0
 30
0.0
  9
$UCSORTHOREF
  2

  9
$UCSORTHOVIEW
 70
     0
  9
$UCSORGTOP
 10
0.0
 20
0.0
 30
0.0
  9
$UCSORGBOTTOM
 10
0.0
 20
0.0
 30
0.0
  9
$UCSORGLEFT
 10
0.0
 20
0.0
 30
0.0
  9
$UCSORGRIGHT
 10
0.0
 20
0.0
 30
0.0
  9
$UCSORGFRONT
 10
0.0
 20
0.0
 30
0.0
  9
$UCSORGBACK
 10
0.0
 20
0.0
 30
0.0
  9
$PUCSBASE
  2

  9
$PUCSNAME
  2

  9
$PUCSORG
 10
0.0
 20
0.0
 30
0.0
  9
$PUCSXDIR
 10
1.0
 20
0.0
 30
0.0
  9
$PUCSYDIR
 10
0.0
 20
1.0
 30
0.0
  9
$PUCSORTHOREF
  2

  9
$PUCSORTHOVIEW
 70
     0
  9
$PUCSORGTOP
 10
0.0
 20
0.0
 30
0.0
  9
$PUCSORGBOTTOM
 10
0.0
 20
0.0
 30
0.0
  9
$PUCSORGLEFT
 10
0.0
 20
0.0
 30
0.0
  9
$PUCSORGRIGHT
 10
0.0
 20
0.0
 30
0.0
  9
$PUCSORGFRONT
 10
0.0
 20
0.0
 30
0.0
  9
$PUCSORGBACK
 10
0.0
 20
0.0
 30
0.0
  9
$USERI1
 70
     0
  9
$USERI2
 70
     0
  9
$USERI3
 70
     0
  9
$USERI4
 70
     0
  9
$USERI5
 70
     0
  9
$USERR1
 40
0.0
  9
$USERR2
 40
0.0
  9
$USERR3
 40
0.0
  9
$USERR4
 40
0.0
  9
$USERR5
 40
0.0
  9
$WORLDVIEW
 70
     1
  9
$SHADEDGE
 70
     3
  9
$SHADEDIF
 70
    70
  9
$TILEMODE
 70
     1
  9
$MAXACTVP
 70
    64
  9
$PINSBASE
 10
0.0
 20
0.0
 30
0.0
  9
$PLIMCHECK
 70
     0
  9
$PEXTMIN
 10
1.000000000000000E+20
 20
1.000000000000000E+20
 30
1.000000000000000E+20
  9
$PEXTMAX
 10
-1.000000000000000E+20
 20
-1.000000000000000E+20
 30
-1.000000000000000E+20
  9
$PLIMMIN
 10
0.0
 20
0.0
  9
$PLIMMAX
 10
12.0
 20
9.0
  9
$UNITMODE
 70
     0
  9
$VISRETAIN
 70
     1
  9
$PLINEGEN
 70
     0
  9
$PSLTSCALE
 70
     1
  9
$TREEDEPTH
 70
  3020
  9
$CMLSTYLE
  2
Standard
  9
$CMLJUST
 70
     0
  9
$CMLSCALE
 40
1.0
  9
$PROXYGRAPHICS
 70
     1
  9
$MEASUREMENT
 70
     0
  9
$CELWEIGHT
370
    -1
  9
$ENDCAPS
280
     0
  9
$JOINSTYLE
280
     0
  9
$LWDISPLAY
290
     0
  9
$INSUNITS
 70
     4
  9
$HYPERLINKBASE
  1

  9
$STYLESHEET
  1

  9
$XEDIT
290
     1
  9
$CEPSNTYPE
380
     0
  9
$PSTYLEMODE
290
     1
  9
$FINGERPRINTGUID
  2
{40C91898-2511-45DA-ACFC-D86C83B4BBF2}
  9
$VERSIONGUID
  2
{FAEB1C32-E019-11D5-929B-00C0DF256EC4}
  9
$EXTNAMES
290
     1
  9
$PSVPSCALE
 40
0.0
  9
$OLESTARTUP
290
     0
  9
$SORTENTS
280
   127
  9
$INDEXCTL
280
     0
  9
$HIDETEXT
280
     1
  9
$XCLIPFRAME
290
     0
  9
$HALOGAP
280
     0
  9
$OBSCOLOR
 70
   257
  9
$OBSLTYPE
280
     0
  9
$INTERSECTIONDISPLAY
280
     0
  9
$INTERSECTIONCOLOR
 70
   257
  9
$DIMASSOC
280
     2
  9
$PROJECTNAME
  1

  9
$CAMERADISPLAY
290
     0
  9
$LENSLENGTH
 40
50.0
  9
$CAMERAHEIGHT
 40
0.0
  9
$STEPSPERSEC
 40
2.0
  9
$STEPSIZE
 40
6.0
  9
$3DDWFPREC
 40
2.0
  9
$PSOLWIDTH
 40
0.25
  9
$PSOLHEIGHT
 40
4.0
  9
$LOFTANG1
 40
1.570796326794897
  9
$LOFTANG2
 40
1.570796326794897
  9
$LOFTMAG1
 40
0.0
  9
$LOFTMAG2
 40
0.0
  9
$LOFTPARAM
 70
     7
  9
$LOFTNORMALS
280
     1
  9
$LATITUDE
 40
37.795
  9
$LONGITUDE
 40
-122.394
  9
$NORTHDIRECTION
 40
0.0
  9
$TIMEZONE
 70
 -8000
  9
$LIGHTGLYPHDISPLAY
280
     1
  9
$TILEMODELIGHTSYNCH
280
     1
  9
$SOLIDHIST
280
     1
  9
$SHOWHIST
280
     1
  9
$DWFFRAME
280
     2
  9
$DGNFRAME
280
     2
  9
$REALWORLDSCALE
290
     1
  9
$INTERFERECOLOR
 62
   256
  9
$CSHADOW
280
     0
  9
$SHADOWPLANELOCATION
 40
0.0
  0
ENDSEC
  0
SECTION
  2
CLASSES
  0
CLASS
  1
ACDBDICTIONARYWDFLT
  2
AcDbDictionaryWithDefault
  3
ObjectDBX Classes
 90
        0
 91
        4
280
     0
281
     0
  0
CLASS
  1
VISUALSTYLE
  2
AcDbVisualStyle
  3
ObjectDBX Classes
 90
     4095
 91
        4
280
     0
281
     0
  0
CLASS
  1
MATERIAL
  2
AcDbMaterial
  3
ObjectDBX Classes
 90
     1153
 91
        4
280
     0
281
     0
  0
ENDSEC
  0
SECTION
  2
TABLES
  0
TABLE
  2
VPORT
  5
8
330
0
100
AcDbSymbolTable
 70
     1
  0
VPORT
  5
29
330
8
100
AcDbSymbolTableRecord
100
AcDbViewportTableRecord
  2
*Active
 70
     0
 10
0.0
 20
0.0
 11
1.0
 21
1.0
 12
10.42990654205607
 22
4.5
 13
0.0
 23
0.0
 14
0.5
 24
0.5
 15
0.5
 25
0.5
 16
0.0
 26
0.0
 36
1.0
 17
0.0
 27
0.0
 37
0.0
 40
9.0
 41
1.972972972850329
 42
50.0
 43
0.0
 44
0.0
 50
0.0
 51
0.0
 71
     0
 72
   100
 73
     1
 74
     3
 75
     0
 76
     0
 77
     0
 78
     0
281
     0
 65
     1
110
0.0
120
0.0
130
0.0
111
1.0
121
0.0
131
0.0
112
0.0
122
1.0
132
0.0
 79
     0
146
0.0
 60
     3
 61
     5
292
     1
282
     1
141
0.0
142
0.0
 63
   250
  0
ENDTAB
  0
TABLE
  2
LTYPE
  5
5
330
0
100
AcDbSymbolTable
 70
     1
  0
LTYPE
  5
14
330
5
100
AcDbSymbolTableRecord
100
AcDbLinetypeTableRecord
  2
ByBlock
 70
     0
  3

 72
    65
 73
     0
 40
0.0
  0
LTYPE
  5
15
330
5
100
AcDbSymbolTableRecord
100
AcDbLinetypeTableRecord
  2
ByLayer
 70
     0
  3

 72
    65
 73
     0
 40
0.0
  0
LTYPE
  5
16
330
5
100
AcDbSymbolTableRecord
100
AcDbLinetypeTableRecord
  2
Continuous
 70
     0
  3
Solid line
 72
    65
 73
     0
 40
0.0
  0
ENDTAB
  0
TABLE
  2
LAYER
  5
2
330
0
100
AcDbSymbolTable
 70
     2
  0
LAYER
  5
10
330
2
100
AcDbSymbolTableRecord
100
AcDbLayerTableRecord
  2
0
 70
     0
 62
     7
  6
Continuous
370
    -3
390
F
347
3E
  0
LAYER
  5
40
330
2
100
AcDbSymbolTableRecord
100
AcDbLayerTableRecord
  2
layer 1
 70
     0
 62
     7
  6
Continuous
370
    -3
390
F
347
3E
  0
ENDTAB
  0
TABLE
  2
STYLE
  5
3
330
0
100
AcDbSymbolTable
 70
     1
  0
STYLE
  5
11
330
3
100
AcDbSymbolTableRecord
100
AcDbTextStyleTableRecord
  2
Standard
 70
     0
 40
0.0
 41
1.0
 50
0.0
 71
     0
 42
0.2
  3
txt
  4

  0
ENDTAB
  0
TABLE
  2
VIEW
  5
6
330
0
100
AcDbSymbolTable
 70
     0
  0
ENDTAB
  0
TABLE
  2
UCS
  5
7
330
0
100
AcDbSymbolTable
 70
     0
  0
ENDTAB
  0
TABLE
  2
APPID
  5
9
330
0
100
AcDbSymbolTable
 70
     2
  0
APPID
  5
12
330
9
100
AcDbSymbolTableRecord
100
AcDbRegAppTableRecord
  2
ACAD
 70
     0
  0
APPID
  5
3F
330
9
100
AcDbSymbolTableRecord
100
AcDbRegAppTableRecord
  2
ODA
 70
     0
  0
ENDTAB
  0
TABLE
  2
DIMSTYLE
  5
A
330
0
100
AcDbSymbolTable
 70
     1
100
AcDbDimStyleTable
  0
DIMSTYLE
105
27
330
A
100
AcDbSymbolTableRecord
100
AcDbDimStyleTableRecord
  2
Standard
 70
     0
178
     0
340
11
  0
ENDTAB
  0
TABLE
  2
BLOCK_RECORD
  5
1
330
0
100
AcDbSymbolTable
 70
     1
  0
BLOCK_RECORD
  5
1F
330
1
100
AcDbSymbolTableRecord
100
AcDbBlockTableRecord
  2
*Model_Space
340
22
 70
     0
280
     1
281
     0
  0
BLOCK_RECORD
  5
1B
330
1
100
AcDbSymbolTableRecord
100
AcDbBlockTableRecord
  2
*Paper_Space
340
1E
 70
     0
280
     1
281
     0
  0
BLOCK_RECORD
  5
23
330
1
100
AcDbSymbolTableRecord
100
AcDbBlockTableRecord
  2
*Paper_Space0
340
26
 70
     0
280
     1
281
     0
  0
ENDTAB
  0
ENDSEC
  0
SECTION
  2
BLOCKS
  0
BLOCK
  5
20
330
1F
100
AcDbEntity
  8
0
100
AcDbBlockBegin
  2
*Model_Space
 70
     0
 10
0.0
 20
0.0
 30
0.0
  3
*Model_Space
  1

  0
ENDBLK
  5
21
330
1F
100
AcDbEntity
  8
0
100
AcDbBlockEnd
  0
BLOCK
  5
1C
330
1B
100
AcDbEntity
 67
     1
  8
0
100
AcDbBlockBegin
  2
*Paper_Space
 70
     0
 10
0.0
 20
0.0
 30
0.0
  3
*Paper_Space
  1

  0
ENDBLK
  5
1D
330
1B
100
AcDbEntity
 67
     1
  8
0
100
AcDbBlockEnd
  0
BLOCK
  5
24
330
23
100
AcDbEntity
  8
0
100
AcDbBlockBegin
  2
*Paper_Space0
 70
     0
 10
0.0
 20
0.0
 30
0.0
  3
*Paper_Space0
  1

  0
ENDBLK
  5
25
330
23
100
AcDbEntity
  8
0
100
AcDbBlockEnd
  0
ENDSEC
  0
SECTION
  2
ENTITIES
  0
SPLINE
  5
41
330
1F
100
AcDbEntity
  8
layer 1
 62
   250
370
     9
100
AcDbSpline
210
0.0
220
0.0
230
1.0
 70
    11
 71
     3
 72
    20
 73
    16
 74
     0
 42
0.0000000001
 43
0.0000000001
 12
1.0
 22
0.0
 32
0.0
 13
1.0
 23
0.0
 33
0.0
 40
0.0
 40
0.0
 40
0.0
 40
0.0
 40
0.2
 40
0.2
 40
0.2
 40
0.2
 40
0.4
 40
0.4
 40
0.4
 40
0.4
 40
0.6
 40
0.6
 40
0.6
 40
0.6
 40
1.0
 40
1.0
 40
1.0
 40
1.0
 10
-186.9906
 20
131.7389
 30
0.0
 10
-186.9906
 20
131.7389
 30
0.0
 10
-87.0595
 20
131.7389
 30
0.0
 10
-87.0595
 20
131.7389
 30
0.0
 10
-87.0595
 20
131.7389
 30
0.0
 10
-87.0595
 20
131.7389
 30
0.0
 10
-87.0595
 20
-106.4572
 30
0.0
 10
-87.0595
 20
-106.4572
 30
0.0
 10
-87.0595
 20
-106.4572
 30
0.0
 10
-87.0595
 20
-106.4572
 30
0.0
 10
-186.9906
 20
-106.4572
 30
0.0
 10
-186.9906
 20
-106.4572
 30
0.0
 10
-186.9906
 20
-106.4572
 30
0.0
 10
-186.9906
 20
-106.4572
 30
0.0
 10
-186.9906
 20
131.7389
 30
0.0
 10
-186.9906
 20
131.7389
 30
0.0
  0
SPLINE
  5
42
330
1F
100
AcDbEntity
  8
layer 1
 62
     7
370
     9
100
AcDbSpline
210
0.0
220
0.0
230
1.0
 70
    11
 71
     3
 72
   120
 73
   116
 74
     0
 42
0.0000000001
 43
0.0000000001
 12
1.0
 22
0.0
 32
0.0
 13
1.0
 23
0.0
 33
0.0
 40
0.0
 40
0.0
 40
0.0
 40
0.0
 40
0.0333333333333333
 40
0.0333333333333333
 40
0.0333333333333333
 40
0.0333333333333333
 40
0.0666666666666667
 40
0.0666666666666667
 40
0.0666666666666667
 40
0.0666666666666667
 40
0.1
 40
0.1
 40
0.1
 40
0.1
 40
0.1333333333333333
 40
0.1333333333333333
 40
0.1333333333333333
 40
0.1333333333333333
 40
0.1666666666666667
 40
0.1666666666666667
 40
0.1666666666666667
 40
0.1666666666666667
 40
0.2
 40
0.2
 40
0.2
 40
0.2
 40
0.2333333333333333
 40
0.2333333333333333
 40
0.2333333333333333
 40
0.2333333333333333
 40
0.2666666666666667
 40
0.2666666666666667
 40
0.2666666666666667
 40
0.2666666666666667
 40
0.3
 40
0.3
 40
0.3
 40
0.3
 40
0.3333333333333333
 40
0.3333333333333333
 40
0.3333333333333333
 40
0.3333333333333333
 40
0.3666666666666666
 40
0.3666666666666666
 40
0.3666666666666666
 40
0.3666666666666666
 40
0.4
 40
0.4
 40
0.4
 40
0.4
 40
0.4333333333333333
 40
0.4333333333333333
 40
0.4333333333333333
 40
0.4333333333333333
 40
0.4666666666666667
 40
0.4666666666666667
 40
0.4666666666666667
 40
0.4666666666666667
 40
0.5
 40
0.5
 40
0.5
 40
0.5
 40
0.5333333333333333
 40
0.5333333333333333
 40
0.5333333333333333
 40
0.5333333333333333
 40
0.5666666666666667
 40
0.5666666666666667
 40
0.5666666666666667
 40
0.5666666666666667
 40
0.6
 40
0.6
 40
0.6
 40
0.6
 40
0.6333333333333333
 40
0.6333333333333333
 40
0.6333333333333333
 40
0.6333333333333333
 40
0.6666666666666666
 40
0.6666666666666666
 40
0.6666666666666666
 40
0.6666666666666666
 40
0.7
 40
0.7
 40
0.7
 40
0.7
 40
0.7333333333333333
 40
0.7333333333333333
 40
0.7333333333333333
 40
0.7333333333333333
 40
0.7666666666666667
 40
0.7666666666666667
 40
0.7666666666666667
 40
0.7666666666666667
 40
0.8
 40
0.8
 40
0.8
 40
0.8
 40
0.8333333333333334
 40
0.8333333333333334
 40
0.8333333333333334
 40
0.8333333333333334
 40
0.8666666666666667
 40
0.8666666666666667
 40
0.8666666666666667
 40
0.8666666666666667
 40
0.9
 40
0.9
 40
0.9
 40
0.9
 40
0.9333333333333333
 40
0.9333333333333333
 40
0.9333333333333333
 40
0.9333333333333333
 40
1.0
 40
1.0
 40
1.0
 40
1.0
 10
-174.2444
 20
52.9362
 30
0.0
 10
-174.4314
 20
53.2049
 30
0.0
 10
-174.6209
 20
53.4728
 30
0.0
 10
-174.8112
 20
53.7386
 30
0.0
 10
-174.8112
 20
53.7386
 30
0.0
 10
-176.4531
 20
56.0305
 30
0.0
 10
-177.0218
 20
58.9232
 30
0.0
 10
-176.3723
 20
61.6666
 30
0.0
 10
-176.3723
 20
61.6666
 30
0.0
 10
-175.8348
 20
63.9334
 30
0.0
 10
-174.6963
 20
66.0151
 30
0.0
 10
-173.0771
 20
67.6906
 30
0.0
 10
-173.0771
 20
67.6906
 30
0.0
 10
-171.428
 20
69.3978
 30
0.0
 10
-169.18
 20
70.4012
 30
0.0
 10
-166.8078
 20
70.4906
 30
0.0
 10
-166.8078
 20
70.4906
 30
0.0
 10
-167.154
 20
69.9911
 30
0.0
 10
-167.3502
 20
69.4031
 30
0.0
 10
-167.3732
 20
68.7958
 30
0.0
 10
-167.3732
 20
68.7958
 30
0.0
 10
-167.4141
 20
66.8338
 30
0.0
 10
-165.8934
 20
65.1945
 30
0.0
 10
-163.9333
 20
65.0944
 30
0.0
 10
-163.9333
 20
65.0944
 30
0.0
 10
-162.2501
 20
65.0074
 30
0.0
 10
-160.5635
 20
65.0097
 30
0.0
 10
-158.8809
 20
65.1007
 30
0.0
 10
-158.8809
 20
65.1007
 30
0.0
 10
-156.6184
 20
65.2233
 30
0.0
 10
-154.3486
 20
65.0444
 30
0.0
 10
-152.1333
 20
64.5704
 30
0.0
 10
-152.1333
 20
64.5704
 30
0.0
 10
-149.892
 20
64.0906
 30
0.0
 10
-147.8073
 20
63.0525
 30
0.0
 10
-146.0736
 20
61.5541
 30
0.0
 10
-146.0736
 20
61.5541
 30
0.0
 10
-143.2011
 20
58.9929
 30
0.0
 10
-141.4467
 20
55.4044
 30
0.0
 10
-141.1875
 20
51.5645
 30
0.0
 10
-141.1875
 20
51.5645
 30
0.0
 10
-140.9317
 20
47.764
 30
0.0
 10
-141.9501
 20
43.9847
 30
0.0
 10
-144.0799
 20
40.827
 30
0.0
 10
-144.0799
 20
40.827
 30
0.0
 10
-144.8419
 20
39.6967
 30
0.0
 10
-145.9693
 20
38.8621
 30
0.0
 10
-147.2722
 20
38.4625
 30
0.0
 10
-147.2722
 20
38.4625
 30
0.0
 10
-148.6242
 20
38.0477
 30
0.0
 10
-150.0957
 20
38.3674
 30
0.0
 10
-151.1549
 20
39.3044
 30
0.0
 10
-151.1549
 20
39.3044
 30
0.0
 10
-152.1626
 20
40.1962
 30
0.0
 10
-153.0208
 20
41.2433
 30
0.0
 10
-153.6977
 20
42.4063
 30
0.0
 10
-153.6977
 20
42.4063
 30
0.0
 10
-153.8962
 20
42.7472
 30
0.0
 10
-153.9948
 20
43.1372
 30
0.0
 10
-153.9828
 20
43.5314
 30
0.0
 10
-153.9828
 20
43.5314
 30
0.0
 10
-153.5626
 20
43.3347
 30
0.0
 10
-153.1184
 20
43.1943
 30
0.0
 10
-152.6611
 20
43.114
 30
0.0
 10
-152.6611
 20
43.114
 30
0.0
 10
-152.203
 20
43.0328
 30
0.0
 10
-151.7347
 20
43.0304
 30
0.0
 10
-151.2755
 20
43.1063
 30
0.0
 10
-151.2755
 20
43.1063
 30
0.0
 10
-150.2438
 20
43.2929
 30
0.0
 10
-149.3198
 20
43.8583
 30
0.0
 10
-148.6842
 20
44.692
 30
0.0
 10
-148.6842
 20
44.692
 30
0.0
 10
-147.7765
 20
45.8833
 30
0.0
 10
-147.502
 20
47.4396
 30
0.0
 10
-147.9496
 20
48.8689
 30
0.0
 10
-147.9496
 20
48.8689
 30
0.0
 10
-148.3689
 20
50.1656
 30
0.0
 10
-149.3486
 20
51.2045
 30
0.0
 10
-150.6197
 20
51.6972
 30
0.0
 10
-150.6197
 20
51.6972
 30
0.0
 10
-151.9016
 20
52.1944
 30
0.0
 10
-153.3443
 20
52.0343
 30
0.0
 10
-154.4857
 20
51.2669
 30
0.0
 10
-154.4857
 20
51.2669
 30
0.0
 10
-154.152
 20
53.2247
 30
0.0
 10
-154.3097
 20
55.2333
 30
0.0
 10
-154.9453
 20
57.1146
 30
0.0
 10
-154.9453
 20
57.1146
 30
0.0
 10
-155.5914
 20
59.0276
 30
0.0
 10
-156.9016
 20
60.644
 30
0.0
 10
-158.6401
 20
61.6708
 30
0.0
 10
-158.6401
 20
61.6708
 30
0.0
 10
-160.0665
 20
62.4925
 30
0.0
 10
-161.6856
 20
62.9189
 30
0.0
 10
-163.3319
 20
62.9055
 30
0.0
 10
-163.3319
 20
62.9055
 30
0.0
 10
-164.9603
 20
62.8926
 30
0.0
 10
-166.5746
 20
62.6103
 30
0.0
 10
-168.1107
 20
62.0699
 30
0.0
 10
-168.1107
 20
62.0699
 30
0.0
 10
-169.006
 20
61.7555
 30
0.0
 10
-169.8396
 20
61.2881
 30
0.0
 10
-170.5752
 20
60.6887
 30
0.0
 10
-170.5752
 20
60.6887
 30
0.0
 10
-171.6771
 20
59.7146
 30
0.0
 10
-172.5314
 20
58.4934
 30
0.0
 10
-173.0685
 20
57.1243
 30
0.0
 10
-173.0685
 20
57.1243
 30
0.0
 10
-173.5992
 20
55.7708
 30
0.0
 10
-173.993
 20
54.3685
 30
0.0
 10
-174.2444
 20
52.9362
 30
0.0
 10
-174.2444
 20
52.9362
 30
0.0
 10
-174.2444
 20
52.9362
 30
0.0
 10
-174.2444
 20
52.9362
 30
0.0
 10
-174.2444
 20
52.9362
 30
0.0
  0
SPLINE
  5
43
330
1F
100
AcDbEntity
  8
layer 1
 62
     7
370
     9
100
AcDbSpline
210
0.0
220
0.0
230
1.0
 70
    11
 71
     3
 72
    60
 73
    56
 74
     0
 42
0.0000000001
 43
0.0000000001
 12
1.0
 22
0.0
 32
0.0
 13
1.0
 23
0.0
 33
0.0
 40
0.0
 40
0.0
 40
0.0
 40
0.0
 40
0.0666666666666667
 40
0.0666666666666667
 40
0.0666666666666667
 40
0.0666666666666667
 40
0.1333333333333333
 40
0.1333333333333333
 40
0.1333333333333333
 40
0.1333333333333333
 40
0.2
 40
0.2
 40
0.2
 40
0.2
 40
0.2666666666666667
 40
0.2666666666666667
 40
0.2666666666666667
 40
0.2666666666666667
 40
0.3333333333333333
 40
0.3333333333333333
 40
0.3333333333333333
 40
0.3333333333333333
 40
0.4
 40
0.4
 40
0.4
 40
0.4
 40
0.4666666666666667
 40
0.4666666666666667
 40
0.4666666666666667
 40
0.4666666666666667
 40
0.5333333333333333
 40
0.5333333333333333
 40
0.5333333333333333
 40
0.5333333333333333
 40
0.6
 40
0.6
 40
0.6
 40
0.6
 40
0.6666666666666666
 40
0.6666666666666666
 40
0.6666666666666666
 40
0.6666666666666666
 40
0.7333333333333333
 40
0.7333333333333333
 40
0.7333333333333333
 40
0.7333333333333333
 40
0.8
 40
0.8
 40
0.8
 40
0.8
 40
0.8666666666666667
 40
0.8666666666666667
 40
0.8666666666666667
 40
0.8666666666666667
 40
1.0
 40
1.0
 40
1.0
 40
1.0
 10
-143.9683
 20
64.4733
 30
0.0
 10
-145.4766
 20
65.8737
 30
0.0
 10
-147.2063
 20
67.0137
 30
0.0
 10
-149.0881
 20
67.8468
 30
0.0
 10
-149.0881
 20
67.8468
 30
0.0
 10
-150.9838
 20
68.6863
 30
0.0
 10
-153.052
 20
69.0598
 30
0.0
 10
-155.1217
 20
68.9362
 30
0.0
 10
-155.1217
 20
68.9362
 30
0.0
 10
-157.4732
 20
68.7963
 30
0.0
 10
-159.8203
 20
68.5944
 30
0.0
 10
-162.1612
 20
68.3315
 30
0.0
 10
-162.1612
 20
68.3315
 30
0.0
 10
-162.4212
 20
68.3021
 30
0.0
 10
-162.6809
 20
68.3916
 30
0.0
 10
-162.868
 20
68.5743
 30
0.0
 10
-162.868
 20
68.5743
 30
0.0
 10
-162.9901
 20
68.6939
 30
0.0
 10
-163.0622
 20
68.8555
 30
0.0
 10
-163.0699
 20
69.0262
 30
0.0
 10
-163.0699
 20
69.0262
 30
0.0
 10
-163.077
 20
69.1911
 30
0.0
 10
-163.0756
 20
69.3559
 30
0.0
 10
-163.065
 20
69.5208
 30
0.0
 10
-163.065
 20
69.5208
 30
0.0
 10
-162.941
 20
71.3146
 30
0.0
 10
-161.941
 20
72.9329
 30
0.0
 10
-160.3939
 20
73.8484
 30
0.0
 10
-160.3939
 20
73.8484
 30
0.0
 10
-158.268
 20
75.106
 30
0.0
 10
-155.854
 20
75.7974
 30
0.0
 10
-153.3847
 20
75.8574
 30
0.0
 10
-153.3847
 20
75.8574
 30
0.0
 10
-151.3592
 20
75.9069
 30
0.0
 10
-149.39
 20
75.1815
 30
0.0
 10
-147.8798
 20
73.8305
 30
0.0
 10
-147.8798
 20
73.8305
 30
0.0
 10
-146.4092
 20
72.5141
 30
0.0
 10
-145.2073
 20
70.9252
 30
0.0
 10
-144.3415
 20
69.1516
 30
0.0
 10
-144.3415
 20
69.1516
 30
0.0
 10
-144.0193
 20
68.492
 30
0.0
 10
-143.7804
 20
67.7944
 30
0.0
 10
-143.6309
 20
67.0761
 30
0.0
 10
-143.6309
 20
67.0761
 30
0.0
 10
-143.479
 20
66.3478
 30
0.0
 10
-143.5193
 20
65.5925
 30
0.0
 10
-143.7477
 20
64.8852
 30
0.0
 10
-143.7477
 20
64.8852
 30
0.0
 10
-143.7477
 20
64.8852
 30
0.0
 10
-143.9683
 20
64.4733
 30
0.0
 10
-143.9683
 20
64.4733
 30
0.0
 10
-143.9683
 20
64.4733
 30
0.0
 10
-143.9683
 20
64.4733
 30
0.0
 10
-143.9683
 20
64.4733
 30
0.0
 10
-143.9683
 20
64.4733
 30
0.0
  0
SPLINE
  5
44
330
1F
100
AcDbEntity
  8
layer 1
 62
     7
370
     9
100
AcDbSpline
210
0.0
220
0.0
230
1.0
 70
    11
 71
     3
 72
   100
 73
    96
 74
     0
 42
0.0000000001
 43
0.0000000001
 12
1.0
 22
0.0
 32
0.0
 13
1.0
 23
0.0
 33
0.0
 40
0.0
 40
0.0
 40
0.0
 40
0.0
 40
0.04
 40
0.04
 40
0.04
 40
0.04
 40
0.08
 40
0.08
 40
0.08
 40
0.08
 40
0.12
 40
0.12
 40
0.12
 40
0.12
 40
0.16
 40
0.16
 40
0.16
 40
0.16
 40
0.2
 40
0.2
 40
0.2
 40
0.2
 40
0.24
 40
0.24
 40
0.24
 40
0.24
 40
0.28
 40
0.28
 40
0.28
 40
0.28
 40
0.32
 40
0.32
 40
0.32
 40
0.32
 40
0.36
 40
0.36
 40
0.36
 40
0.36
 40
0.4
 40
0.4
 40
0.4
 40
0.4
 40
0.44
 40
0.44
 40
0.44
 40
0.44
 40
0.48
 40
0.48
 40
0.48
 40
0.48
 40
0.52
 40
0.52
 40
0.52
 40
0.52
 40
0.56
 40
0.56
 40
0.56
 40
0.56
 40
0.6
 40
0.6
 40
0.6
 40
0.6
 40
0.64
 40
0.64
 40
0.64
 40
0.64
 40
0.68
 40
0.68
 40
0.68
 40
0.68
 40
0.72
 40
0.72
 40
0.72
 40
0.72
 40
0.76
 40
0.76
 40
0.76
 40
0.76
 40
0.8
 40
0.8
 40
0.8
 40
0.8
 40
0.84
 40
0.84
 40
0.84
 40
0.84
 40
0.88
 40
0.88
 40
0.88
 40
0.88
 40
0.92
 40
0.92
 40
0.92
 40
0.92
 40
1.0
 40
1.0
 40
1.0
 40
1.0
 10
-122.2495
 20
80.7609
 30
0.0
 10
-123.6692
 20
81.2714
 30
0.0
 10
-125.0029
 20
81.9955
 30
0.0
 10
-126.2044
 20
82.908
 30
0.0
 10
-126.2044
 20
82.908
 30
0.0
 10
-127.399
 20
83.8152
 30
0.0
 10
-128.5971
 20
84.7176
 30
0.0
 10
-129.799
 20
85.6147
 30
0.0
 10
-129.799
 20
85.6147
 30
0.0
 10
-133.4313
 20
88.3243
 30
0.0
 10
-135.2034
 20
92.8705
 30
0.0
 10
-134.3703
 20
97.3243
 30
0.0
 10
-134.3703
 20
97.3243
 30
0.0
 10
-134.089
 20
98.8244
 30
0.0
 10
-134.3289
 20
100.3744
 30
0.0
 10
-135.05
 20
101.7191
 30
0.0
 10
-135.05
 20
101.7191
 30
0.0
 10
-135.4572
 20
102.4773
 30
0.0
 10
-135.8318
 20
103.2522
 30
0.0
 10
-136.1736
 20
104.0427
 30
0.0
 10
-136.1736
 20
104.0427
 30
0.0
 10
-136.515
 20
104.8331
 30
0.0
 10
-136.7996
 20
105.6474
 30
0.0
 10
-137.0241
 20
106.4792
 30
0.0
 10
-137.0241
 20
106.4792
 30
0.0
 10
-137.2861
 20
105.5095
 30
0.0
 10
-137.6342
 20
104.5647
 30
0.0
 10
-138.0645
 20
103.6571
 30
0.0
 10
-138.0645
 20
103.6571
 30
0.0
 10
-138.4943
 20
102.7508
 30
0.0
 10
-138.938
 20
101.8518
 30
0.0
 10
-139.3962
 20
100.9599
 30
0.0
 10
-139.3962
 20
100.9599
 30
0.0
 10
-139.8467
 20
100.083
 30
0.0
 10
-139.9674
 20
99.0739
 30
0.0
 10
-139.7362
 20
98.1152
 30
0.0
 10
-139.7362
 20
98.1152
 30
0.0
 10
-138.603
 20
93.4234
 30
0.0
 10
-140.3813
 20
88.5032
 30
0.0
 10
-144.2486
 20
85.6147
 30
0.0
 10
-144.2486
 20
85.6147
 30
0.0
 10
-145.451
 20
84.7176
 30
0.0
 10
-146.6491
 20
83.8152
 30
0.0
 10
-147.8438
 20
82.908
 30
0.0
 10
-147.8438
 20
82.908
 30
0.0
 10
-149.0448
 20
81.9955
 30
0.0
 10
-150.3789
 20
81.2714
 30
0.0
 10
-151.7986
 20
80.7609
 30
0.0
 10
-151.7986
 20
80.7609
 30
0.0
 10
-150.3789
 20
80.2502
 30
0.0
 10
-149.0453
 20
79.5261
 30
0.0
 10
-147.8438
 20
78.6138
 30
0.0
 10
-147.8438
 20
78.6138
 30
0.0
 10
-146.6491
 20
77.7066
 30
0.0
 10
-145.451
 20
76.8041
 30
0.0
 10
-144.2491
 20
75.9069
 30
0.0
 10
-144.2491
 20
75.9069
 30
0.0
 10
-140.6159
 20
73.1964
 30
0.0
 10
-138.8429
 20
68.6488
 30
0.0
 10
-139.6774
 20
64.193
 30
0.0
 10
-139.6774
 20
64.193
 30
0.0
 10
-139.9587
 20
62.6945
 30
0.0
 10
-139.7188
 20
61.1459
 30
0.0
 10
-138.9977
 20
59.8021
 30
0.0
 10
-138.9977
 20
59.8021
 30
0.0
 10
-138.5909
 20
59.0439
 30
0.0
 10
-138.2159
 20
58.2685
 30
0.0
 10
-137.8746
 20
57.4785
 30
0.0
 10
-137.8746
 20
57.4785
 30
0.0
 10
-137.5327
 20
56.6877
 30
0.0
 10
-137.2486
 20
55.8733
 30
0.0
 10
-137.0241
 20
55.042
 30
0.0
 10
-137.0241
 20
55.042
 30
0.0
 10
-136.7621
 20
56.0117
 30
0.0
 10
-136.414
 20
56.9565
 30
0.0
 10
-135.9832
 20
57.8641
 30
0.0
 10
-135.9832
 20
57.8641
 30
0.0
 10
-135.5534
 20
58.7698
 30
0.0
 10
-135.1097
 20
59.6694
 30
0.0
 10
-134.6515
 20
60.5613
 30
0.0
 10
-134.6515
 20
60.5613
 30
0.0
 10
-134.201
 20
61.4391
 30
0.0
 10
-134.0804
 20
62.4482
 30
0.0
 10
-134.3121
 20
63.4074
 30
0.0
 10
-134.3121
 20
63.4074
 30
0.0
 10
-135.4448
 20
68.0993
 30
0.0
 10
-133.6663
 20
73.019
 30
0.0
 10
-129.799
 20
75.9069
 30
0.0
 10
-129.799
 20
75.9069
 30
0.0
 10
-128.5971
 20
76.8041
 30
0.0
 10
-127.3986
 20
77.7066
 30
0.0
 10
-126.2044
 20
78.6138
 30
0.0
 10
-126.2044
 20
78.6138
 30
0.0
 10
-125.0029
 20
79.5261
 30
0.0
 10
-123.6692
 20
80.2502
 30
0.0
 10
-122.2495
 20
80.7609
 30
0.0
  0
SPLINE
  5
45
330
1F
100
AcDbEntity
  8
layer 1
 62
     7
370
     9
100
AcDbSpline
210
0.0
220
0.0
230
1.0
 70
    11
 71
     3
 72
    52
 73
    48
 74
     0
 42
0.0000000001
 43
0.0000000001
 12
1.0
 22
0.0
 32
0.0
 13
1.0
 23
0.0
 33
0.0
 40
0.0
 40
0.0
 40
0.0
 40
0.0
 40
0.0769230769230769
 40
0.0769230769230769
 40
0.0769230769230769
 40
0.0769230769230769
 40
0.1538461538461539
 40
0.1538461538461539
 40
0.1538461538461539
 40
0.1538461538461539
 40
0.2307692307692308
 40
0.2307692307692308
 40
0.2307692307692308
 40
0.2307692307692308
 40
0.3076923076923077
 40
0.3076923076923077
 40
0.3076923076923077
 40
0.3076923076923077
 40
0.3846153846153846
 40
0.3846153846153846
 40
0.3846153846153846
 40
0.3846153846153846
 40
0.4615384615384616
 40
0.4615384615384616
 40
0.4615384615384616
 40
0.4615384615384616
 40
0.5384615384615384
 40
0.5384615384615384
 40
0.5384615384615384
 40
0.5384615384615384
 40
0.6153846153846154
 40
0.6153846153846154
 40
0.6153846153846154
 40
0.6153846153846154
 40
0.6923076923076923
 40
0.6923076923076923
 40
0.6923076923076923
 40
0.6923076923076923
 40
0.7692307692307693
 40
0.7692307692307693
 40
0.7692307692307693
 40
0.7692307692307693
 40
0.8461538461538461
 40
0.8461538461538461
 40
0.8461538461538461
 40
0.8461538461538461
 40
1.0
 40
1.0
 40
1.0
 40
1.0
 10
-159.116
 20
80.7609
 30
0.0
 10
-160.8087
 20
81.3479
 30
0.0
 10
-162.405
 20
82.183
 30
0.0
 10
-163.8521
 20
83.2388
 30
0.0
 10
-163.8521
 20
83.2388
 30
0.0
 10
-166.0516
 20
84.8431
 30
0.0
 10
-168.5324
 20
86.0185
 30
0.0
 10
-171.167
 20
86.7041
 30
0.0
 10
-171.167
 20
86.7041
 30
0.0
 10
-172.8353
 20
87.1382
 30
0.0
 10
-174.5959
 20
87.0546
 30
0.0
 10
-176.2155
 20
86.4633
 30
0.0
 10
-176.2155
 20
86.4633
 30
0.0
 10
-177.8877
 20
85.8531
 30
0.0
 10
-179.1723
 20
84.4896
 30
0.0
 10
-179.6801
 20
82.7834
 30
0.0
 10
-179.6801
 20
82.7834
 30
0.0
 10
-179.8762
 20
82.1262
 30
0.0
 10
-179.9843
 20
81.4464
 30
0.0
 10
-180.0025
 20
80.7609
 30
0.0
 10
-180.0025
 20
80.7609
 30
0.0
 10
-179.9636
 20
79.2979
 30
0.0
 10
-179.4208
 20
77.8941
 30
0.0
 10
-178.4651
 20
76.7853
 30
0.0
 10
-178.4651
 20
76.7853
 30
0.0
 10
-177.5093
 20
75.6771
 30
0.0
 10
-176.2016
 20
74.9325
 30
0.0
 10
-174.7608
 20
74.6762
 30
0.0
 10
-174.7608
 20
74.6762
 30
0.0
 10
-172.6396
 20
74.2993
 30
0.0
 10
-170.454
 20
74.657
 30
0.0
 10
-168.5636
 20
75.6911
 30
0.0
 10
-168.5636
 20
75.6911
 30
0.0
 10
-166.3559
 20
76.8988
 30
0.0
 10
-164.1608
 20
78.1305
 30
0.0
 10
-161.979
 20
79.3859
 30
0.0
 10
-161.979
 20
79.3859
 30
0.0
 10
-161.5198
 20
79.6497
 30
0.0
 10
-161.053
 20
79.9017
 30
0.0
 10
-160.5799
 20
80.1407
 30
0.0
 10
-160.5799
 20
80.1407
 30
0.0
 10
-160.1064
 20
80.3796
 30
0.0
 10
-159.617
 20
80.5867
 30
0.0
 10
-159.1155
 20
80.7609
 30
0.0
 10
-159.1155
 20
80.7609
 30
0.0
 10
-159.1155
 20
80.7609
 30
0.0
 10
-159.116
 20
80.7609
 30
0.0
 10
-159.116
 20
80.7609
 30
0.0
  0
SPLINE
  5
46
330
1F
100
AcDbEntity
  8
layer 1
 62
     7
370
     9
100
AcDbSpline
210
0.0
220
0.0
230
1.0
 70
    11
 71
     3
 72
   168
 73
   164
 74
     0
 42
0.0000000001
 43
0.0000000001
 12
1.0
 22
0.0
 32
0.0
 13
1.0
 23
0.0
 33
0.0
 40
0.0
 40
0.0
 40
0.0
 40
0.0
 40
0.0238095238095238
 40
0.0238095238095238
 40
0.0238095238095238
 40
0.0238095238095238
 40
0.0476190476190476
 40
0.0476190476190476
 40
0.0476190476190476
 40
0.0476190476190476
 40
0.0714285714285714
 40
0.0714285714285714
 40
0.0714285714285714
 40
0.0714285714285714
 40
0.0952380952380952
 40
0.0952380952380952
 40
0.0952380952380952
 40
0.0952380952380952
 40
0.119047619047619
 40
0.119047619047619
 40
0.119047619047619
 40
0.119047619047619
 40
0.1428571428571428
 40
0.1428571428571428
 40
0.1428571428571428
 40
0.1428571428571428
 40
0.1666666666666667
 40
0.1666666666666667
 40
0.1666666666666667
 40
0.1666666666666667
 40
0.1904761904761905
 40
0.1904761904761905
 40
0.1904761904761905
 40
0.1904761904761905
 40
0.2142857142857143
 40
0.2142857142857143
 40
0.2142857142857143
 40
0.2142857142857143
 40
0.2380952380952381
 40
0.2380952380952381
 40
0.2380952380952381
 40
0.2380952380952381
 40
0.2619047619047619
 40
0.2619047619047619
 40
0.2619047619047619
 40
0.2619047619047619
 40
0.2857142857142857
 40
0.2857142857142857
 40
0.2857142857142857
 40
0.2857142857142857
 40
0.3095238095238095
 40
0.3095238095238095
 40
0.3095238095238095
 40
0.3095238095238095
 40
0.3333333333333333
 40
0.3333333333333333
 40
0.3333333333333333
 40
0.3333333333333333
 40
0.3571428571428572
 40
0.3571428571428572
 40
0.3571428571428572
 40
0.3571428571428572
 40
0.3809523809523809
 40
0.3809523809523809
 40
0.3809523809523809
 40
0.3809523809523809
 40
0.4047619047619048
 40
0.4047619047619048
 40
0.4047619047619048
 40
0.4047619047619048
 40
0.4285714285714285
 40
0.4285714285714285
 40
0.4285714285714285
 40
0.4285714285714285
 40
0.4523809523809524
 40
0.4523809523809524
 40
0.4523809523809524
 40
0.4523809523809524
 40
0.4761904761904762
 40
0.4761904761904762
 40
0.4761904761904762
 40
0.4761904761904762
 40
0.5
 40
0.5
 40
0.5
 40
0.5
 40
0.5238095238095238
 40
0.5238095238095238
 40
0.5238095238095238
 40
0.5238095238095238
 40
0.5476190476190477
 40
0.5476190476190477
 40
0.5476190476190477
 40
0.5476190476190477
 40
0.5714285714285714
 40
0.5714285714285714
 40
0.5714285714285714
 40
0.5714285714285714
 40
0.5952380952380952
 40
0.5952380952380952
 40
0.5952380952380952
 40
0.5952380952380952
 40
0.6190476190476191
 40
0.6190476190476191
 40
0.6190476190476191
 40
0.6190476190476191
 40
0.6428571428571429
 40
0.6428571428571429
 40
0.6428571428571429
 40
0.6428571428571429
 40
0.6666666666666666
 40
0.6666666666666666
 40
0.6666666666666666
 40
0.6666666666666666
 40
0.6904761904761905
 40
0.6904761904761905
 40
0.6904761904761905
 40
0.6904761904761905
 40
0.7142857142857143
 40
0.7142857142857143
 40
0.7142857142857143
 40
0.7142857142857143
 40
0.7380952380952381
 40
0.7380952380952381
 40
0.7380952380952381
 40
0.7380952380952381
 40
0.7619047619047619
 40
0.7619047619047619
 40
0.7619047619047619
 40
0.7619047619047619
 40
0.7857142857142857
 40
0.7857142857142857
 40
0.7857142857142857
 40
0.7857142857142857
 40
0.8095238095238095
 40
0.8095238095238095
 40
0.8095238095238095
 40
0.8095238095238095
 40
0.8333333333333334
 40
0.8333333333333334
 40
0.8333333333333334
 40
0.8333333333333334
 40
0.8571428571428571
 40
0.8571428571428571
 40
0.8571428571428571
 40
0.8571428571428571
 40
0.8809523809523809
 40
0.8809523809523809
 40
0.8809523809523809
 40
0.8809523809523809
 40
0.9047619047619048
 40
0.9047619047619048
 40
0.9047619047619048
 40
0.9047619047619048
 40
0.9285714285714286
 40
0.9285714285714286
 40
0.9285714285714286
 40
0.9285714285714286
 40
0.9523809523809523
 40
0.9523809523809523
 40
0.9523809523809523
 40
0.9523809523809523
 40
1.0
 40
1.0
 40
1.0
 40
1.0
 10
-150.827
 20
35.3481
 30
0.0
 10
-154.2391
 20
36.2256
 30
0.0
 10
-156.7833
 20
39.0833
 30
0.0
 10
-157.2646
 20
42.5732
 30
0.0
 10
-157.2646
 20
42.5732
 30
0.0
 10
-157.5954
 20
44.9755
 30
0.0
 10
-157.7982
 20
47.3939
 30
0.0
 10
-157.8722
 20
49.818
 30
0.0
 10
-157.8722
 20
49.818
 30
0.0
 10
-157.9088
 20
51.2289
 30
0.0
 10
-158.0232
 20
52.6367
 30
0.0
 10
-158.2141
 20
54.0347
 30
0.0
 10
-158.2141
 20
54.0347
 30
0.0
 10
-158.4444
 20
55.7102
 30
0.0
 10
-159.3636
 20
57.2136
 30
0.0
 10
-160.7496
 20
58.1823
 30
0.0
 10
-160.7496
 20
58.1823
 30
0.0
 10
-162.1362
 20
59.1507
 30
0.0
 10
-163.8554
 20
59.4987
 30
0.0
 10
-165.5078
 20
59.1381
 30
0.0
 10
-165.5078
 20
59.1381
 30
0.0
 10
-166.4107
 20
58.9425
 30
0.0
 10
-167.2646
 20
58.5655
 30
0.0
 10
-168.0184
 20
58.0309
 30
0.0
 10
-168.0184
 20
58.0309
 30
0.0
 10
-168.7675
 20
57.4991
 30
0.0
 10
-169.4425
 20
56.8699
 30
0.0
 10
-170.0247
 20
56.1593
 30
0.0
 10
-170.0247
 20
56.1593
 30
0.0
 10
-170.3107
 20
55.8103
 30
0.0
 10
-170.4704
 20
55.3756
 30
0.0
 10
-170.4785
 20
54.9242
 30
0.0
 10
-170.4785
 20
54.9242
 30
0.0
 10
-170.4867
 20
54.4766
 30
0.0
 10
-170.3631
 20
54.0362
 30
0.0
 10
-170.1232
 20
53.6574
 30
0.0
 10
-170.1232
 20
53.6574
 30
0.0
 10
-168.9016
 20
53.8838
 30
0.0
 10
-167.6684
 20
54.0463
 30
0.0
 10
-166.4295
 20
54.1439
 30
0.0
 10
-166.4295
 20
54.1439
 30
0.0
 10
-165.0665
 20
54.2511
 30
0.0
 10
-163.7833
 20
53.4837
 30
0.0
 10
-163.2313
 20
52.2333
 30
0.0
 10
-163.2313
 20
52.2333
 30
0.0
 10
-162.5342
 20
50.6525
 30
0.0
 10
-162.2867
 20
48.9093
 30
0.0
 10
-162.516
 20
47.1967
 30
0.0
 10
-162.516
 20
47.1967
 30
0.0
 10
-162.765
 20
45.3314
 30
0.0
 10
-164.2165
 20
43.852
 30
0.0
 10
-166.0771
 20
43.565
 30
0.0
 10
-166.0771
 20
43.565
 30
0.0
 10
-166.7486
 20
43.4616
 30
0.0
 10
-167.4324
 20
43.4602
 30
0.0
 10
-168.104
 20
43.5611
 30
0.0
 10
-168.104
 20
43.5611
 30
0.0
 10
-169.1386
 20
43.6751
 30
0.0
 10
-170.0531
 20
44.2867
 30
0.0
 10
-170.5544
 20
45.1986
 30
0.0
 10
-170.5544
 20
45.1986
 30
0.0
 10
-171.029
 20
46.0631
 30
0.0
 10
-171.6073
 20
46.8659
 30
0.0
 10
-172.2761
 20
47.5905
 30
0.0
 10
-172.2761
 20
47.5905
 30
0.0
 10
-172.0804
 20
46.0823
 30
0.0
 10
-171.9833
 20
44.5631
 30
0.0
 10
-171.9847
 20
43.0419
 30
0.0
 10
-171.9847
 20
43.0419
 30
0.0
 10
-171.9862
 20
41.5064
 30
0.0
 10
-172.3108
 20
39.9876
 30
0.0
 10
-172.9357
 20
38.5847
 30
0.0
 10
-172.9357
 20
38.5847
 30
0.0
 10
-173.1963
 20
37.9126
 30
0.0
 10
-173.5781
 20
37.2938
 30
0.0
 10
-174.0612
 20
36.7592
 30
0.0
 10
-174.0612
 20
36.7592
 30
0.0
 10
-174.5424
 20
36.2274
 30
0.0
 10
-175.0848
 20
35.754
 30
0.0
 10
-175.6762
 20
35.3481
 30
0.0
 10
-175.6762
 20
35.3481
 30
0.0
 10
-175.0848
 20
34.9428
 30
0.0
 10
-174.5424
 20
34.4688
 30
0.0
 10
-174.0612
 20
33.937
 30
0.0
 10
-174.0612
 20
33.937
 30
0.0
 10
-173.5781
 20
33.4024
 30
0.0
 10
-173.1963
 20
32.7837
 30
0.0
 10
-172.9357
 20
32.1116
 30
0.0
 10
-172.9357
 20
32.1116
 30
0.0
 10
-172.3102
 20
30.7092
 30
0.0
 10
-171.9862
 20
29.19
 30
0.0
 10
-171.9847
 20
27.6544
 30
0.0
 10
-171.9847
 20
27.6544
 30
0.0
 10
-171.9833
 20
26.1337
 30
0.0
 10
-172.0804
 20
24.614
 30
0.0
 10
-172.2761
 20
23.1059
 30
0.0
 10
-172.2761
 20
23.1059
 30
0.0
 10
-171.6073
 20
23.8303
 30
0.0
 10
-171.029
 20
24.6337
 30
0.0
 10
-170.5544
 20
25.4976
 30
0.0
 10
-170.5544
 20
25.4976
 30
0.0
 10
-170.0536
 20
26.4101
 30
0.0
 10
-169.1386
 20
27.0212
 30
0.0
 10
-168.104
 20
27.1352
 30
0.0
 10
-168.104
 20
27.1352
 30
0.0
 10
-166.904
 20
27.3159
 30
0.0
 10
-165.6771
 20
27.0972
 30
0.0
 10
-164.6127
 20
26.5135
 30
0.0
 10
-164.6127
 20
26.5135
 30
0.0
 10
-163.5203
 20
25.915
 30
0.0
 10
-162.7679
 20
24.8418
 30
0.0
 10
-162.5757
 20
23.6111
 30
0.0
 10
-162.5757
 20
23.6111
 30
0.0
 10
-162.3376
 20
22.0875
 30
0.0
 10
-162.4482
 20
20.5294
 30
0.0
 10
-162.8987
 20
19.0544
 30
0.0
 10
-162.8987
 20
19.0544
 30
0.0
 10
-163.404
 20
17.3971
 30
0.0
 10
-165.0516
 20
16.3615
 30
0.0
 10
-166.7645
 20
16.6212
 30
0.0
 10
-166.7645
 20
16.6212
 30
0.0
 10
-167.3228
 20
16.7063
 30
0.0
 10
-167.8833
 20
16.7712
 30
0.0
 10
-168.4458
 20
16.8163
 30
0.0
 10
-168.4458
 20
16.8163
 30
0.0
 10
-169.0084
 20
16.862
 30
0.0
 10
-169.5685
 20
16.9361
 30
0.0
 10
-170.1232
 20
17.0389
 30
0.0
 10
-170.1232
 20
17.0389
 30
0.0
 10
-170.7078
 20
16.1154
 30
0.0
 10
-170.5656
 20
14.9096
 30
0.0
 10
-169.7799
 20
14.1495
 30
0.0
 10
-169.7799
 20
14.1495
 30
0.0
 10
-169.0814
 20
13.4726
 30
0.0
 10
-168.3122
 20
12.8725
 30
0.0
 10
-167.4857
 20
12.3591
 30
0.0
 10
-167.4857
 20
12.3591
 30
0.0
 10
-165.9333
 20
11.3951
 30
0.0
 10
-164.027
 20
11.1923
 30
0.0
 10
-162.3064
 20
11.8092
 30
0.0
 10
-162.3064
 20
11.8092
 30
0.0
 10
-160.5958
 20
12.4226
 30
0.0
 10
-159.2323
 20
13.7418
 30
0.0
 10
-158.5645
 20
15.4322
 30
0.0
 10
-158.5645
 20
15.4322
 30
0.0
 10
-158.2247
 20
16.2923
 30
0.0
 10
-158.0266
 20
17.2014
 30
0.0
 10
-157.979
 20
18.125
 30
0.0
 10
-157.979
 20
18.125
 30
0.0
 10
-157.9319
 20
19.0423
 30
0.0
 10
-157.8963
 20
19.9601
 30
0.0
 10
-157.8722
 20
20.8784
 30
0.0
 10
-157.8722
 20
20.8784
 30
0.0
 10
-157.7982
 20
23.3025
 30
0.0
 10
-157.5954
 20
25.7207
 30
0.0
 10
-157.2646
 20
28.1231
 30
0.0
 10
-157.2646
 20
28.1231
 30
0.0
 10
-156.7853
 20
31.6135
 30
0.0
 10
-154.2386
 20
34.4694
 30
0.0
 10
-150.827
 20
35.3481
 30
0.0
 10
-150.827
 20
35.3481
 30
0.0
 10
-150.827
 20
35.3481
 30
0.0
 10
-150.827
 20
35.3481
 30
0.0
 10
-150.827
 20
35.3481
 30
0.0
  0
SPLINE
  5
47
330
1F
100
AcDbEntity
  8
layer 1
 62
     7
370
     9
100
AcDbSpline
210
0.0
220
0.0
230
1.0
 70
    11
 71
     3
 72
    68
 73
    64
 74
     0
 42
0.0000000001
 43
0.0000000001
 12
1.0
 22
0.0
 32
0.0
 13
1.0
 23
0.0
 33
0.0
 40
0.0
 40
0.0
 40
0.0
 40
0.0
 40
0.0588235294117647
 40
0.0588235294117647
 40
0.0588235294117647
 40
0.0588235294117647
 40
0.1176470588235294
 40
0.1176470588235294
 40
0.1176470588235294
 40
0.1176470588235294
 40
0.1764705882352941
 40
0.1764705882352941
 40
0.1764705882352941
 40
0.1764705882352941
 40
0.2352941176470588
 40
0.2352941176470588
 40
0.2352941176470588
 40
0.2352941176470588
 40
0.2941176470588235
 40
0.2941176470588235
 40
0.2941176470588235
 40
0.2941176470588235
 40
0.3529411764705883
 40
0.3529411764705883
 40
0.3529411764705883
 40
0.3529411764705883
 40
0.4117647058823529
 40
0.4117647058823529
 40
0.4117647058823529
 40
0.4117647058823529
 40
0.4705882352941176
 40
0.4705882352941176
 40
0.4705882352941176
 40
0.4705882352941176
 40
0.5294117647058824
 40
0.5294117647058824
 40
0.5294117647058824
 40
0.5294117647058824
 40
0.5882352941176471
 40
0.5882352941176471
 40
0.5882352941176471
 40
0.5882352941176471
 40
0.6470588235294118
 40
0.6470588235294118
 40
0.6470588235294118
 40
0.6470588235294118
 40
0.7058823529411765
 40
0.7058823529411765
 40
0.7058823529411765
 40
0.7058823529411765
 40
0.7647058823529411
 40
0.7647058823529411
 40
0.7647058823529411
 40
0.7647058823529411
 40
0.8235294117647058
 40
0.8235294117647058
 40
0.8235294117647058
 40
0.8235294117647058
 40
0.8823529411764706
 40
0.8823529411764706
 40
0.8823529411764706
 40
0.8823529411764706
 40
1.0
 40
1.0
 40
1.0
 40
1.0
 10
-127.674
 20
35.3481
 30
0.0
 10
-128.1731
 20
35.4779
 30
0.0
 10
-128.6621
 20
35.6457
 30
0.0
 10
-129.1361
 20
35.8496
 30
0.0
 10
-129.1361
 20
35.8496
 30
0.0
 10
-130.6856
 20
36.5482
 30
0.0
 10
-132.0856
 20
37.5414
 30
0.0
 10
-133.2568
 20
38.7742
 30
0.0
 10
-133.2568
 20
38.7742
 30
0.0
 10
-134.6688
 20
40.3034
 30
0.0
 10
-135.7688
 20
42.0948
 30
0.0
 10
-136.4938
 20
44.0462
 30
0.0
 10
-136.4938
 20
44.0462
 30
0.0
 10
-136.6981
 20
44.5972
 30
0.0
 10
-136.8751
 20
45.1588
 30
0.0
 10
-137.0241
 20
45.7275
 30
0.0
 10
-137.0241
 20
45.7275
 30
0.0
 10
-137.1727
 20
45.1588
 30
0.0
 10
-137.3496
 20
44.5972
 30
0.0
 10
-137.5544
 20
44.0462
 30
0.0
 10
-137.5544
 20
44.0462
 30
0.0
 10
-138.2794
 20
42.0948
 30
0.0
 10
-139.3794
 20
40.3034
 30
0.0
 10
-140.7915
 20
38.7742
 30
0.0
 10
-140.7915
 20
38.7742
 30
0.0
 10
-141.9621
 20
37.5414
 30
0.0
 10
-143.3621
 20
36.5482
 30
0.0
 10
-144.9121
 20
35.8496
 30
0.0
 10
-144.9121
 20
35.8496
 30
0.0
 10
-145.3856
 20
35.6457
 30
0.0
 10
-145.8746
 20
35.4779
 30
0.0
 10
-146.3741
 20
35.3481
 30
0.0
 10
-146.3741
 20
35.3481
 30
0.0
 10
-145.8746
 20
35.2183
 30
0.0
 10
-145.3856
 20
35.0511
 30
0.0
 10
-144.9121
 20
34.8468
 30
0.0
 10
-144.9121
 20
34.8468
 30
0.0
 10
-143.3621
 20
34.1486
 30
0.0
 10
-141.9621
 20
33.1549
 30
0.0
 10
-140.7915
 20
31.9227
 30
0.0
 10
-140.7915
 20
31.9227
 30
0.0
 10
-139.3794
 20
30.3928
 30
0.0
 10
-138.2794
 20
28.6014
 30
0.0
 10
-137.5544
 20
26.6506
 30
0.0
 10
-137.5544
 20
26.6506
 30
0.0
 10
-137.3496
 20
26.099
 30
0.0
 10
-137.1727
 20
25.538
 30
0.0
 10
-137.0241
 20
24.9687
 30
0.0
 10
-137.0241
 20
24.9687
 30
0.0
 10
-136.8751
 20
25.538
 30
0.0
 10
-136.6981
 20
26.099
 30
0.0
 10
-136.4938
 20
26.6506
 30
0.0
 10
-136.4938
 20
26.6506
 30
0.0
 10
-135.7688
 20
28.6014
 30
0.0
 10
-134.6688
 20
30.3928
 30
0.0
 10
-133.2568
 20
31.9227
 30
0.0
 10
-133.2568
 20
31.9227
 30
0.0
 10
-132.0856
 20
33.1549
 30
0.0
 10
-130.6856
 20
34.1481
 30
0.0
 10
-129.1361
 20
34.8468
 30
0.0
 10
-129.1361
 20
34.8468
 30
0.0
 10
-128.6621
 20
35.0511
 30
0.0
 10
-128.1731
 20
35.2183
 30
0.0
 10
-127.674
 20
35.3481
 30
0.0
  0
SPLINE
  5
48
330
1F
100
AcDbEntity
  8
layer 1
 62
     7
370
     9
100
AcDbSpline
210
0.0
220
0.0
230
1.0
 70
    11
 71
     3
 72
   120
 73
   116
 74
     0
 42
0.0000000001
 43
0.0000000001
 12
1.0
 22
0.0
 32
0.0
 13
1.0
 23
0.0
 33
0.0
 40
0.0
 40
0.0
 40
0.0
 40
0.0
 40
0.0333333333333333
 40
0.0333333333333333
 40
0.0333333333333333
 40
0.0333333333333333
 40
0.0666666666666667
 40
0.0666666666666667
 40
0.0666666666666667
 40
0.0666666666666667
 40
0.1
 40
0.1
 40
0.1
 40
0.1
 40
0.1333333333333333
 40
0.1333333333333333
 40
0.1333333333333333
 40
0.1333333333333333
 40
0.1666666666666667
 40
0.1666666666666667
 40
0.1666666666666667
 40
0.1666666666666667
 40
0.2
 40
0.2
 40
0.2
 40
0.2
 40
0.2333333333333333
 40
0.2333333333333333
 40
0.2333333333333333
 40
0.2333333333333333
 40
0.2666666666666667
 40
0.2666666666666667
 40
0.2666666666666667
 40
0.2666666666666667
 40
0.3
 40
0.3
 40
0.3
 40
0.3
 40
0.3333333333333333
 40
0.3333333333333333
 40
0.3333333333333333
 40
0.3333333333333333
 40
0.3666666666666666
 40
0.3666666666666666
 40
0.3666666666666666
 40
0.3666666666666666
 40
0.4
 40
0.4
 40
0.4
 40
0.4
 40
0.4333333333333333
 40
0.4333333333333333
 40
0.4333333333333333
 40
0.4333333333333333
 40
0.4666666666666667
 40
0.4666666666666667
 40
0.4666666666666667
 40
0.4666666666666667
 40
0.5
 40
0.5
 40
0.5
 40
0.5
 40
0.5333333333333333
 40
0.5333333333333333
 40
0.5333333333333333
 40
0.5333333333333333
 40
0.5666666666666667
 40
0.5666666666666667
 40
0.5666666666666667
 40
0.5666666666666667
 40
0.6
 40
0.6
 40
0.6
 40
0.6
 40
0.6333333333333333
 40
0.6333333333333333
 40
0.6333333333333333
 40
0.6333333333333333
 40
0.6666666666666666
 40
0.6666666666666666
 40
0.6666666666666666
 40
0.6666666666666666
 40
0.7
 40
0.7
 40
0.7
 40
0.7
 40
0.7333333333333333
 40
0.7333333333333333
 40
0.7333333333333333
 40
0.7333333333333333
 40
0.7666666666666667
 40
0.7666666666666667
 40
0.7666666666666667
 40
0.7666666666666667
 40
0.8
 40
0.8
 40
0.8
 40
0.8
 40
0.8333333333333334
 40
0.8333333333333334
 40
0.8333333333333334
 40
0.8333333333333334
 40
0.8666666666666667
 40
0.8666666666666667
 40
0.8666666666666667
 40
0.8666666666666667
 40
0.9
 40
0.9
 40
0.9
 40
0.9
 40
0.9333333333333333
 40
0.9333333333333333
 40
0.9333333333333333
 40
0.9333333333333333
 40
1.0
 40
1.0
 40
1.0
 40
1.0
 10
-99.8038
 20
52.9367
 30
0.0
 10
-99.6163
 20
53.2049
 30
0.0
 10
-99.4273
 20
53.4722
 30
0.0
 10
-99.2369
 20
53.7386
 30
0.0
 10
-99.2369
 20
53.7386
 30
0.0
 10
-97.5946
 20
56.0323
 30
0.0
 10
-97.0249
 20
58.9218
 30
0.0
 10
-97.6759
 20
61.6666
 30
0.0
 10
-97.6759
 20
61.6666
 30
0.0
 10
-98.2134
 20
63.9343
 30
0.0
 10
-99.3509
 20
66.0146
 30
0.0
 10
-100.9706
 20
67.6906
 30
0.0
 10
-100.9706
 20
67.6906
 30
0.0
 10
-102.6215
 20
69.3983
 30
0.0
 10
-104.8668
 20
70.4017
 30
0.0
 10
-107.2403
 20
70.4906
 30
0.0
 10
-107.2403
 20
70.4906
 30
0.0
 10
-106.8942
 20
69.9911
 30
0.0
 10
-106.698
 20
69.4031
 30
0.0
 10
-106.6749
 20
68.7958
 30
0.0
 10
-106.6749
 20
68.7958
 30
0.0
 10
-106.6312
 20
66.8362
 30
0.0
 10
-108.1572
 20
65.1963
 30
0.0
 10
-110.1144
 20
65.0944
 30
0.0
 10
-110.1144
 20
65.0944
 30
0.0
 10
-111.7976
 20
65.0074
 30
0.0
 10
-113.484
 20
65.0097
 30
0.0
 10
-115.1673
 20
65.1007
 30
0.0
 10
-115.1673
 20
65.1007
 30
0.0
 10
-117.4302
 20
65.2233
 30
0.0
 10
-119.6985
 20
65.0449
 30
0.0
 10
-121.9148
 20
64.5704
 30
0.0
 10
-121.9148
 20
64.5704
 30
0.0
 10
-124.1563
 20
64.0906
 30
0.0
 10
-126.2399
 20
63.0536
 30
0.0
 10
-127.9741
 20
61.5541
 30
0.0
 10
-127.9741
 20
61.5541
 30
0.0
 10
-130.8481
 20
58.9911
 30
0.0
 10
-132.6019
 20
55.4064
 30
0.0
 10
-132.8601
 20
51.5645
 30
0.0
 10
-132.8601
 20
51.5645
 30
0.0
 10
-133.1158
 20
47.7626
 30
0.0
 10
-132.0991
 20
43.9856
 30
0.0
 10
-129.9682
 20
40.827
 30
0.0
 10
-129.9682
 20
40.827
 30
0.0
 10
-129.2058
 20
39.6962
 30
0.0
 10
-128.0793
 20
38.8621
 30
0.0
 10
-126.7755
 20
38.4625
 30
0.0
 10
-126.7755
 20
38.4625
 30
0.0
 10
-125.4226
 20
38.0482
 30
0.0
 10
-123.9524
 20
38.3665
 30
0.0
 10
-122.8929
 20
39.3044
 30
0.0
 10
-122.8929
 20
39.3044
 30
0.0
 10
-121.8856
 20
40.1962
 30
0.0
 10
-121.0269
 20
41.2429
 30
0.0
 10
-120.3505
 20
42.4059
 30
0.0
 10
-120.3505
 20
42.4059
 30
0.0
 10
-120.1519
 20
42.7472
 30
0.0
 10
-120.0529
 20
43.1372
 30
0.0
 10
-120.0649
 20
43.5314
 30
0.0
 10
-120.0649
 20
43.5314
 30
0.0
 10
-120.4856
 20
43.3347
 30
0.0
 10
-120.9298
 20
43.1943
 30
0.0
 10
-121.3866
 20
43.114
 30
0.0
 10
-121.3866
 20
43.114
 30
0.0
 10
-121.8447
 20
43.0328
 30
0.0
 10
-122.3134
 20
43.0304
 30
0.0
 10
-122.7726
 20
43.1063
 30
0.0
 10
-122.7726
 20
43.1063
 30
0.0
 10
-123.8039
 20
43.2924
 30
0.0
 10
-124.7283
 20
43.8587
 30
0.0
 10
-125.364
 20
44.692
 30
0.0
 10
-125.364
 20
44.692
 30
0.0
 10
-126.2712
 20
45.8824
 30
0.0
 10
-126.5451
 20
47.4401
 30
0.0
 10
-126.0985
 20
48.8689
 30
0.0
 10
-126.0985
 20
48.8689
 30
0.0
 10
-125.6799
 20
50.165
 30
0.0
 10
-124.698
 20
51.2045
 30
0.0
 10
-123.4284
 20
51.6972
 30
0.0
 10
-123.4284
 20
51.6972
 30
0.0
 10
-122.1476
 20
52.1949
 30
0.0
 10
-120.7029
 20
52.0333
 30
0.0
 10
-119.5625
 20
51.2669
 30
0.0
 10
-119.5625
 20
51.2669
 30
0.0
 10
-119.8961
 20
53.2237
 30
0.0
 10
-119.738
 20
55.2339
 30
0.0
 10
-119.1028
 20
57.1146
 30
0.0
 10
-119.1028
 20
57.1146
 30
0.0
 10
-118.4572
 20
59.0266
 30
0.0
 10
-117.1452
 20
60.644
 30
0.0
 10
-115.4082
 20
61.6708
 30
0.0
 10
-115.4082
 20
61.6708
 30
0.0
 10
-113.9822
 20
62.4925
 30
0.0
 10
-112.3619
 20
62.9189
 30
0.0
 10
-110.7163
 20
62.9055
 30
0.0
 10
-110.7163
 20
62.9055
 30
0.0
 10
-109.0884
 20
62.8926
 30
0.0
 10
-107.4731
 20
62.6098
 30
0.0
 10
-105.9374
 20
62.0699
 30
0.0
 10
-105.9374
 20
62.0699
 30
0.0
 10
-105.0423
 20
61.7555
 30
0.0
 10
-104.2081
 20
61.2877
 30
0.0
 10
-103.4725
 20
60.6887
 30
0.0
 10
-103.4725
 20
60.6887
 30
0.0
 10
-102.371
 20
59.715
 30
0.0
 10
-101.5167
 20
58.4929
 30
0.0
 10
-100.9798
 20
57.1243
 30
0.0
 10
-100.9798
 20
57.1243
 30
0.0
 10
-100.449
 20
55.7714
 30
0.0
 10
-100.0552
 20
54.3679
 30
0.0
 10
-99.8038
 20
52.9362
 30
0.0
 10
-99.8038
 20
52.9362
 30
0.0
 10
-99.8038
 20
52.9362
 30
0.0
 10
-99.8038
 20
52.9367
 30
0.0
 10
-99.8038
 20
52.9367
 30
0.0
  0
SPLINE
  5
49
330
1F
100
AcDbEntity
  8
layer 1
 62
     7
370
     9
100
AcDbSpline
210
0.0
220
0.0
230
1.0
 70
    11
 71
     3
 72
    56
 73
    52
 74
     0
 42
0.0000000001
 43
0.0000000001
 12
1.0
 22
0.0
 32
0.0
 13
1.0
 23
0.0
 33
0.0
 40
0.0
 40
0.0
 40
0.0
 40
0.0
 40
0.0714285714285714
 40
0.0714285714285714
 40
0.0714285714285714
 40
0.0714285714285714
 40
0.1428571428571428
 40
0.1428571428571428
 40
0.1428571428571428
 40
0.1428571428571428
 40
0.2142857142857143
 40
0.2142857142857143
 40
0.2142857142857143
 40
0.2142857142857143
 40
0.2857142857142857
 40
0.2857142857142857
 40
0.2857142857142857
 40
0.2857142857142857
 40
0.3571428571428572
 40
0.3571428571428572
 40
0.3571428571428572
 40
0.3571428571428572
 40
0.4285714285714285
 40
0.4285714285714285
 40
0.4285714285714285
 40
0.4285714285714285
 40
0.5
 40
0.5
 40
0.5
 40
0.5
 40
0.5714285714285714
 40
0.5714285714285714
 40
0.5714285714285714
 40
0.5714285714285714
 40
0.6428571428571429
 40
0.6428571428571429
 40
0.6428571428571429
 40
0.6428571428571429
 40
0.7142857142857143
 40
0.7142857142857143
 40
0.7142857142857143
 40
0.7142857142857143
 40
0.7857142857142857
 40
0.7857142857142857
 40
0.7857142857142857
 40
0.7857142857142857
 40
0.8571428571428571
 40
0.8571428571428571
 40
0.8571428571428571
 40
0.8571428571428571
 40
1.0
 40
1.0
 40
1.0
 40
1.0
 10
-130.0798
 20
64.4733
 30
0.0
 10
-128.5721
 20
65.8733
 30
0.0
 10
-126.8414
 20
67.0137
 30
0.0
 10
-124.9602
 20
67.8468
 30
0.0
 10
-124.9602
 20
67.8468
 30
0.0
 10
-123.0649
 20
68.6863
 30
0.0
 10
-120.9952
 20
69.0598
 30
0.0
 10
-118.9264
 20
68.9362
 30
0.0
 10
-118.9264
 20
68.9362
 30
0.0
 10
-116.575
 20
68.7963
 30
0.0
 10
-114.2273
 20
68.5944
 30
0.0
 10
-111.8865
 20
68.3315
 30
0.0
 10
-111.8865
 20
68.3315
 30
0.0
 10
-111.6263
 20
68.3021
 30
0.0
 10
-111.3673
 20
68.3916
 30
0.0
 10
-111.1803
 20
68.5743
 30
0.0
 10
-111.1803
 20
68.5743
 30
0.0
 10
-111.0581
 20
68.6939
 30
0.0
 10
-110.986
 20
68.8555
 30
0.0
 10
-110.9783
 20
69.0262
 30
0.0
 10
-110.9783
 20
69.0262
 30
0.0
 10
-110.9707
 20
69.1911
 30
0.0
 10
-110.9725
 20
69.3559
 30
0.0
 10
-110.9831
 20
69.5208
 30
0.0
 10
-110.9831
 20
69.5208
 30
0.0
 10
-111.1072
 20
71.3142
 30
0.0
 10
-112.1034
 20
72.9306
 30
0.0
 10
-113.6505
 20
73.8458
 30
0.0
 10
-113.6505
 20
73.8458
 30
0.0
 10
-115.7779
 20
75.1051
 30
0.0
 10
-118.1918
 20
75.7978
 30
0.0
 10
-120.6634
 20
75.8574
 30
0.0
 10
-120.6634
 20
75.8574
 30
0.0
 10
-122.6899
 20
75.9065
 30
0.0
 10
-124.6577
 20
75.1825
 30
0.0
 10
-126.1683
 20
73.8305
 30
0.0
 10
-126.1683
 20
73.8305
 30
0.0
 10
-127.6389
 20
72.5137
 30
0.0
 10
-128.8404
 20
70.9252
 30
0.0
 10
-129.7062
 20
69.1516
 30
0.0
 10
-129.7062
 20
69.1516
 30
0.0
 10
-130.0285
 20
68.492
 30
0.0
 10
-130.2673
 20
67.7949
 30
0.0
 10
-130.4174
 20
67.0761
 30
0.0
 10
-130.4174
 20
67.0761
 30
0.0
 10
-130.5693
 20
66.3478
 30
0.0
 10
-130.5289
 20
65.593
 30
0.0
 10
-130.3
 20
64.8852
 30
0.0
 10
-130.3
 20
64.8852
 30
0.0
 10
-130.3
 20
64.8852
 30
0.0
 10
-130.0798
 20
64.4733
 30
0.0
 10
-130.0798
 20
64.4733
 30
0.0
  0
SPLINE
  5
4A
330
1F
100
AcDbEntity
  8
layer 1
 62
     7
370
     9
100
AcDbSpline
210
0.0
220
0.0
230
1.0
 70
    11
 71
     3
 72
    48
 73
    44
 74
     0
 42
0.0000000001
 43
0.0000000001
 12
1.0
 22
0.0
 32
0.0
 13
1.0
 23
0.0
 33
0.0
 40
0.0
 40
0.0
 40
0.0
 40
0.0
 40
0.0833333333333333
 40
0.0833333333333333
 40
0.0833333333333333
 40
0.0833333333333333
 40
0.1666666666666667
 40
0.1666666666666667
 40
0.1666666666666667
 40
0.1666666666666667
 40
0.25
 40
0.25
 40
0.25
 40
0.25
 40
0.3333333333333333
 40
0.3333333333333333
 40
0.3333333333333333
 40
0.3333333333333333
 40
0.4166666666666667
 40
0.4166666666666667
 40
0.4166666666666667
 40
0.4166666666666667
 40
0.5
 40
0.5
 40
0.5
 40
0.5
 40
0.5833333333333334
 40
0.5833333333333334
 40
0.5833333333333334
 40
0.5833333333333334
 40
0.6666666666666666
 40
0.6666666666666666
 40
0.6666666666666666
 40
0.6666666666666666
 40
0.75
 40
0.75
 40
0.75
 40
0.75
 40
0.8333333333333334
 40
0.8333333333333334
 40
0.8333333333333334
 40
0.8333333333333334
 40
1.0
 40
1.0
 40
1.0
 40
1.0
 10
-94.045
 20
80.7609
 30
0.0
 10
-94.1259
 20
77.7473
 30
0.0
 10
-96.3192
 20
75.2046
 30
0.0
 10
-99.2875
 20
74.6762
 30
0.0
 10
-99.2875
 20
74.6762
 30
0.0
 10
-101.4076
 20
74.2993
 30
0.0
 10
-103.5946
 20
74.6574
 30
0.0
 10
-105.4841
 20
75.6911
 30
0.0
 10
-105.4841
 20
75.6911
 30
0.0
 10
-107.6922
 20
76.8988
 30
0.0
 10
-109.8875
 20
78.1305
 30
0.0
 10
-112.0687
 20
79.3859
 30
0.0
 10
-112.0687
 20
79.3859
 30
0.0
 10
-112.5284
 20
79.6497
 30
0.0
 10
-112.9947
 20
79.9017
 30
0.0
 10
-113.4683
 20
80.1407
 30
0.0
 10
-113.4683
 20
80.1407
 30
0.0
 10
-113.9418
 20
80.3796
 30
0.0
 10
-114.4307
 20
80.5867
 30
0.0
 10
-114.9322
 20
80.7609
 30
0.0
 10
-114.9322
 20
80.7609
 30
0.0
 10
-113.2505
 20
81.3435
 30
0.0
 10
-111.6654
 20
82.1729
 30
0.0
 10
-110.2283
 20
83.2224
 30
0.0
 10
-110.2283
 20
83.2224
 30
0.0
 10
-108.0201
 20
84.8339
 30
0.0
 10
-105.5268
 20
86.0152
 30
0.0
 10
-102.8811
 20
86.7041
 30
0.0
 10
-102.8811
 20
86.7041
 30
0.0
 10
-101.2133
 20
87.1382
 30
0.0
 10
-99.4518
 20
87.0541
 30
0.0
 10
-97.8326
 20
86.4633
 30
0.0
 10
-97.8326
 20
86.4633
 30
0.0
 10
-96.1609
 20
85.8542
 30
0.0
 10
-94.8759
 20
84.4882
 30
0.0
 10
-94.3676
 20
82.7829
 30
0.0
 10
-94.3676
 20
82.7829
 30
0.0
 10
-94.1721
 20
82.1262
 30
0.0
 10
-94.0634
 20
81.4459
 30
0.0
 10
-94.045
 20
80.7609
 30
0.0
 10
-94.045
 20
80.7609
 30
0.0
 10
-94.045
 20
80.7609
 30
0.0
 10
-94.045
 20
80.7609
 30
0.0
 10
-94.045
 20
80.7609
 30
0.0
  0
SPLINE
  5
4B
330
1F
100
AcDbEntity
  8
layer 1
 62
     7
370
     9
100
AcDbSpline
210
0.0
220
0.0
230
1.0
 70
    11
 71
     3
 72
   168
 73
   164
 74
     0
 42
0.0000000001
 43
0.0000000001
 12
1.0
 22
0.0
 32
0.0
 13
1.0
 23
0.0
 33
0.0
 40
0.0
 40
0.0
 40
0.0
 40
0.0
 40
0.0238095238095238
 40
0.0238095238095238
 40
0.0238095238095238
 40
0.0238095238095238
 40
0.0476190476190476
 40
0.0476190476190476
 40
0.0476190476190476
 40
0.0476190476190476
 40
0.0714285714285714
 40
0.0714285714285714
 40
0.0714285714285714
 40
0.0714285714285714
 40
0.0952380952380952
 40
0.0952380952380952
 40
0.0952380952380952
 40
0.0952380952380952
 40
0.119047619047619
 40
0.119047619047619
 40
0.119047619047619
 40
0.119047619047619
 40
0.1428571428571428
 40
0.1428571428571428
 40
0.1428571428571428
 40
0.1428571428571428
 40
0.1666666666666667
 40
0.1666666666666667
 40
0.1666666666666667
 40
0.1666666666666667
 40
0.1904761904761905
 40
0.1904761904761905
 40
0.1904761904761905
 40
0.1904761904761905
 40
0.2142857142857143
 40
0.2142857142857143
 40
0.2142857142857143
 40
0.2142857142857143
 40
0.2380952380952381
 40
0.2380952380952381
 40
0.2380952380952381
 40
0.2380952380952381
 40
0.2619047619047619
 40
0.2619047619047619
 40
0.2619047619047619
 40
0.2619047619047619
 40
0.2857142857142857
 40
0.2857142857142857
 40
0.2857142857142857
 40
0.2857142857142857
 40
0.3095238095238095
 40
0.3095238095238095
 40
0.3095238095238095
 40
0.3095238095238095
 40
0.3333333333333333
 40
0.3333333333333333
 40
0.3333333333333333
 40
0.3333333333333333
 40
0.3571428571428572
 40
0.3571428571428572
 40
0.3571428571428572
 40
0.3571428571428572
 40
0.3809523809523809
 40
0.3809523809523809
 40
0.3809523809523809
 40
0.3809523809523809
 40
0.4047619047619048
 40
0.4047619047619048
 40
0.4047619047619048
 40
0.4047619047619048
 40
0.4285714285714285
 40
0.4285714285714285
 40
0.4285714285714285
 40
0.4285714285714285
 40
0.4523809523809524
 40
0.4523809523809524
 40
0.4523809523809524
 40
0.4523809523809524
 40
0.4761904761904762
 40
0.4761904761904762
 40
0.4761904761904762
 40
0.4761904761904762
 40
0.5
 40
0.5
 40
0.5
 40
0.5
 40
0.5238095238095238
 40
0.5238095238095238
 40
0.5238095238095238
 40
0.5238095238095238
 40
0.5476190476190477
 40
0.5476190476190477
 40
0.5476190476190477
 40
0.5476190476190477
 40
0.5714285714285714
 40
0.5714285714285714
 40
0.5714285714285714
 40
0.5714285714285714
 40
0.5952380952380952
 40
0.5952380952380952
 40
0.5952380952380952
 40
0.5952380952380952
 40
0.6190476190476191
 40
0.6190476190476191
 40
0.6190476190476191
 40
0.6190476190476191
 40
0.6428571428571429
 40
0.6428571428571429
 40
0.6428571428571429
 40
0.6428571428571429
 40
0.6666666666666666
 40
0.6666666666666666
 40
0.6666666666666666
 40
0.6666666666666666
 40
0.6904761904761905
 40
0.6904761904761905
 40
0.6904761904761905
 40
0.6904761904761905
 40
0.7142857142857143
 40
0.7142857142857143
 40
0.7142857142857143
 40
0.7142857142857143
 40
0.7380952380952381
 40
0.7380952380952381
 40
0.7380952380952381
 40
0.7380952380952381
 40
0.7619047619047619
 40
0.7619047619047619
 40
0.7619047619047619
 40
0.7619047619047619
 40
0.7857142857142857
 40
0.7857142857142857
 40
0.7857142857142857
 40
0.7857142857142857
 40
0.8095238095238095
 40
0.8095238095238095
 40
0.8095238095238095
 40
0.8095238095238095
 40
0.8333333333333334
 40
0.8333333333333334
 40
0.8333333333333334
 40
0.8333333333333334
 40
0.8571428571428571
 40
0.8571428571428571
 40
0.8571428571428571
 40
0.8571428571428571
 40
0.8809523809523809
 40
0.8809523809523809
 40
0.8809523809523809
 40
0.8809523809523809
 40
0.9047619047619048
 40
0.9047619047619048
 40
0.9047619047619048
 40
0.9047619047619048
 40
0.9285714285714286
 40
0.9285714285714286
 40
0.9285714285714286
 40
0.9285714285714286
 40
0.9523809523809523
 40
0.9523809523809523
 40
0.9523809523809523
 40
0.9523809523809523
 40
1.0
 40
1.0
 40
1.0
 40
1.0
 10
-123.2206
 20
35.3481
 30
0.0
 10
-119.8062
 20
36.2285
 30
0.0
 10
-117.263
 20
39.08
 30
0.0
 10
-116.7837
 20
42.5732
 30
0.0
 10
-116.7837
 20
42.5732
 30
0.0
 10
-116.4529
 20
44.9761
 30
0.0
 10
-116.25
 20
47.3939
 30
0.0
 10
-116.1759
 20
49.818
 30
0.0
 10
-116.1759
 20
49.818
 30
0.0
 10
-116.1389
 20
51.2289
 30
0.0
 10
-116.0249
 20
52.6367
 30
0.0
 10
-115.8341
 20
54.0347
 30
0.0
 10
-115.8341
 20
54.0347
 30
0.0
 10
-115.6067
 20
55.7084
 30
0.0
 10
-114.6908
 20
57.2112
 30
0.0
 10
-113.3077
 20
58.1805
 30
0.0
 10
-113.3077
 20
58.1805
 30
0.0
 10
-111.9245
 20
59.1498
 30
0.0
 10
-110.1909
 20
59.4958
 30
0.0
 10
-108.5404
 20
59.1381
 30
0.0
 10
-108.5404
 20
59.1381
 30
0.0
 10
-107.6374
 20
58.9425
 30
0.0
 10
-106.7831
 20
58.5655
 30
0.0
 10
-106.0298
 20
58.0309
 30
0.0
 10
-106.0298
 20
58.0309
 30
0.0
 10
-105.2802
 20
57.4997
 30
0.0
 10
-104.6057
 20
56.8699
 30
0.0
 10
-104.0235
 20
56.1593
 30
0.0
 10
-104.0235
 20
56.1593
 30
0.0
 10
-103.7374
 20
55.8107
 30
0.0
 10
-103.5773
 20
55.3752
 30
0.0
 10
-103.5696
 20
54.9242
 30
0.0
 10
-103.5696
 20
54.9242
 30
0.0
 10
-103.5614
 20
54.4766
 30
0.0
 10
-103.685
 20
54.0357
 30
0.0
 10
-103.9249
 20
53.6574
 30
0.0
 10
-103.9249
 20
53.6574
 30
0.0
 10
-105.1465
 20
53.8838
 30
0.0
 10
-106.3798
 20
54.0463
 30
0.0
 10
-107.6188
 20
54.1439
 30
0.0
 10
-107.6188
 20
54.1439
 30
0.0
 10
-108.9826
 20
54.2506
 30
0.0
 10
-110.2649
 20
53.4857
 30
0.0
 10
-110.8168
 20
52.2329
 30
0.0
 10
-110.8168
 20
52.2329
 30
0.0
 10
-111.5139
 20
50.6516
 30
0.0
 10
-111.7614
 20
48.9097
 30
0.0
 10
-111.5321
 20
47.1967
 30
0.0
 10
-111.5321
 20
47.1967
 30
0.0
 10
-111.2816
 20
45.3294
 30
0.0
 10
-109.8331
 20
43.851
 30
0.0
 10
-107.9711
 20
43.565
 30
0.0
 10
-107.9711
 20
43.565
 30
0.0
 10
-107.2995
 20
43.4616
 30
0.0
 10
-106.6159
 20
43.4602
 30
0.0
 10
-105.9437
 20
43.5611
 30
0.0
 10
-105.9437
 20
43.5611
 30
0.0
 10
-104.9086
 20
43.6756
 30
0.0
 10
-103.9947
 20
44.2857
 30
0.0
 10
-103.4937
 20
45.1986
 30
0.0
 10
-103.4937
 20
45.1986
 30
0.0
 10
-103.0192
 20
46.0626
 30
0.0
 10
-102.4408
 20
46.8659
 30
0.0
 10
-101.772
 20
47.5905
 30
0.0
 10
-101.772
 20
47.5905
 30
0.0
 10
-101.9672
 20
46.0823
 30
0.0
 10
-102.0648
 20
44.5631
 30
0.0
 10
-102.0628
 20
43.0419
 30
0.0
 10
-102.0628
 20
43.0419
 30
0.0
 10
-102.0615
 20
41.5059
 30
0.0
 10
-101.7379
 20
39.9881
 30
0.0
 10
-101.112
 20
38.5847
 30
0.0
 10
-101.112
 20
38.5847
 30
0.0
 10
-100.8518
 20
37.9126
 30
0.0
 10
-100.4701
 20
37.2938
 30
0.0
 10
-99.9864
 20
36.7592
 30
0.0
 10
-99.9864
 20
36.7592
 30
0.0
 10
-99.5051
 20
36.2274
 30
0.0
 10
-98.9634
 20
35.754
 30
0.0
 10
-98.3715
 20
35.3481
 30
0.0
 10
-98.3715
 20
35.3481
 30
0.0
 10
-98.9634
 20
34.9424
 30
0.0
 10
-99.5051
 20
34.4688
 30
0.0
 10
-99.9864
 20
33.937
 30
0.0
 10
-99.9864
 20
33.937
 30
0.0
 10
-100.4701
 20
33.4024
 30
0.0
 10
-100.8518
 20
32.7837
 30
0.0
 10
-101.112
 20
32.1116
 30
0.0
 10
-101.112
 20
32.1116
 30
0.0
 10
-101.7375
 20
30.7087
 30
0.0
 10
-102.0615
 20
29.1904
 30
0.0
 10
-102.0628
 20
27.6544
 30
0.0
 10
-102.0628
 20
27.6544
 30
0.0
 10
-102.0648
 20
26.1332
 30
0.0
 10
-101.9672
 20
24.6145
 30
0.0
 10
-101.772
 20
23.1059
 30
0.0
 10
-101.772
 20
23.1059
 30
0.0
 10
-102.4408
 20
23.8303
 30
0.0
 10
-103.0192
 20
24.6337
 30
0.0
 10
-103.4937
 20
25.4982
 30
0.0
 10
-103.4937
 20
25.4982
 30
0.0
 10
-103.9952
 20
26.4107
 30
0.0
 10
-104.9086
 20
27.0212
 30
0.0
 10
-105.9437
 20
27.1352
 30
0.0
 10
-105.9437
 20
27.1352
 30
0.0
 10
-107.1446
 20
27.3159
 30
0.0
 10
-108.3706
 20
27.0977
 30
0.0
 10
-109.435
 20
26.5135
 30
0.0
 10
-109.435
 20
26.5135
 30
0.0
 10
-110.5278
 20
25.9139
 30
0.0
 10
-111.2803
 20
24.8424
 30
0.0
 10
-111.4726
 20
23.6111
 30
0.0
 10
-111.4726
 20
23.6111
 30
0.0
 10
-111.7101
 20
22.0871
 30
0.0
 10
-111.6
 20
20.5294
 30
0.0
 10
-111.1494
 20
19.0544
 30
0.0
 10
-111.1494
 20
19.0544
 30
0.0
 10
-110.6418
 20
17.3957
 30
0.0
 10
-108.998
 20
16.3596
 30
0.0
 10
-107.2832
 20
16.6212
 30
0.0
 10
-107.2832
 20
16.6212
 30
0.0
 10
-106.7254
 20
16.7063
 30
0.0
 10
-106.1649
 20
16.7712
 30
0.0
 10
-105.6024
 20
16.8169
 30
0.0
 10
-105.6024
 20
16.8169
 30
0.0
 10
-105.0399
 20
16.862
 30
0.0
 10
-104.4798
 20
16.9361
 30
0.0
 10
-103.9249
 20
17.0389
 30
0.0
 10
-103.9249
 20
17.0389
 30
0.0
 10
-103.3398
 20
16.1169
 30
0.0
 10
-103.484
 20
14.9096
 30
0.0
 10
-104.2682
 20
14.1495
 30
0.0
 10
-104.2682
 20
14.1495
 30
0.0
 10
-104.9667
 20
13.4726
 30
0.0
 10
-105.736
 20
12.8722
 30
0.0
 10
-106.562
 20
12.3591
 30
0.0
 10
-106.562
 20
12.3591
 30
0.0
 10
-108.1134
 20
11.3951
 30
0.0
 10
-110.022
 20
11.1932
 30
0.0
 10
-111.7413
 20
11.8096
 30
0.0
 10
-111.7413
 20
11.8096
 30
0.0
 10
-113.4514
 20
12.4221
 30
0.0
 10
-114.8154
 20
13.7432
 30
0.0
 10
-115.4836
 20
15.4322
 30
0.0
 10
-115.4836
 20
15.4322
 30
0.0
 10
-115.8235
 20
16.2918
 30
0.0
 10
-116.0211
 20
17.2014
 30
0.0
 10
-116.0687
 20
18.125
 30
0.0
 10
-116.0687
 20
18.125
 30
0.0
 10
-116.1164
 20
19.0423
 30
0.0
 10
-116.1518
 20
19.9601
 30
0.0
 10
-116.1759
 20
20.8784
 30
0.0
 10
-116.1759
 20
20.8784
 30
0.0
 10
-116.25
 20
23.3025
 30
0.0
 10
-116.4529
 20
25.7207
 30
0.0
 10
-116.7837
 20
28.1231
 30
0.0
 10
-116.7837
 20
28.1231
 30
0.0
 10
-117.2654
 20
31.6165
 30
0.0
 10
-119.8057
 20
34.4703
 30
0.0
 10
-123.2206
 20
35.3481
 30
0.0
 10
-123.2206
 20
35.3481
 30
0.0
 10
-123.2206
 20
35.3481
 30
0.0
 10
-123.2206
 20
35.3481
 30
0.0
 10
-123.2206
 20
35.3481
 30
0.0
  0
SPLINE
  5
4C
330
1F
100
AcDbEntity
  8
layer 1
 62
     7
370
     9
100
AcDbSpline
210
0.0
220
0.0
230
1.0
 70
    11
 71
     3
 72
   120
 73
   116
 74
     0
 42
0.0000000001
 43
0.0000000001
 12
1.0
 22
0.0
 32
0.0
 13
1.0
 23
0.0
 33
0.0
 40
0.0
 40
0.0
 40
0.0
 40
0.0
 40
0.0333333333333333
 40
0.0333333333333333
 40
0.0333333333333333
 40
0.0333333333333333
 40
0.0666666666666667
 40
0.0666666666666667
 40
0.0666666666666667
 40
0.0666666666666667
 40
0.1
 40
0.1
 40
0.1
 40
0.1
 40
0.1333333333333333
 40
0.1333333333333333
 40
0.1333333333333333
 40
0.1333333333333333
 40
0.1666666666666667
 40
0.1666666666666667
 40
0.1666666666666667
 40
0.1666666666666667
 40
0.2
 40
0.2
 40
0.2
 40
0.2
 40
0.2333333333333333
 40
0.2333333333333333
 40
0.2333333333333333
 40
0.2333333333333333
 40
0.2666666666666667
 40
0.2666666666666667
 40
0.2666666666666667
 40
0.2666666666666667
 40
0.3
 40
0.3
 40
0.3
 40
0.3
 40
0.3333333333333333
 40
0.3333333333333333
 40
0.3333333333333333
 40
0.3333333333333333
 40
0.3666666666666666
 40
0.3666666666666666
 40
0.3666666666666666
 40
0.3666666666666666
 40
0.4
 40
0.4
 40
0.4
 40
0.4
 40
0.4333333333333333
 40
0.4333333333333333
 40
0.4333333333333333
 40
0.4333333333333333
 40
0.4666666666666667
 40
0.4666666666666667
 40
0.4666666666666667
 40
0.4666666666666667
 40
0.5
 40
0.5
 40
0.5
 40
0.5
 40
0.5333333333333333
 40
0.5333333333333333
 40
0.5333333333333333
 40
0.5333333333333333
 40
0.5666666666666667
 40
0.5666666666666667
 40
0.5666666666666667
 40
0.5666666666666667
 40
0.6
 40
0.6
 40
0.6
 40
0.6
 40
0.6333333333333333
 40
0.6333333333333333
 40
0.6333333333333333
 40
0.6333333333333333
 40
0.6666666666666666
 40
0.6666666666666666
 40
0.6666666666666666
 40
0.6666666666666666
 40
0.7
 40
0.7
 40
0.7
 40
0.7
 40
0.7333333333333333
 40
0.7333333333333333
 40
0.7333333333333333
 40
0.7333333333333333
 40
0.7666666666666667
 40
0.7666666666666667
 40
0.7666666666666667
 40
0.7666666666666667
 40
0.8
 40
0.8
 40
0.8
 40
0.8
 40
0.8333333333333334
 40
0.8333333333333334
 40
0.8333333333333334
 40
0.8333333333333334
 40
0.8666666666666667
 40
0.8666666666666667
 40
0.8666666666666667
 40
0.8666666666666667
 40
0.9
 40
0.9
 40
0.9
 40
0.9
 40
0.9333333333333333
 40
0.9333333333333333
 40
0.9333333333333333
 40
0.9333333333333333
 40
1.0
 40
1.0
 40
1.0
 40
1.0
 10
-174.2439
 20
17.7597
 30
0.0
 10
-174.4319
 20
17.4909
 30
0.0
 10
-174.6209
 20
17.2235
 30
0.0
 10
-174.8117
 20
16.9573
 30
0.0
 10
-174.8117
 20
16.9573
 30
0.0
 10
-176.4536
 20
14.6634
 30
0.0
 10
-177.0227
 20
11.7745
 30
0.0
 10
-176.3723
 20
9.0298
 30
0.0
 10
-176.3723
 20
9.0298
 30
0.0
 10
-175.8343
 20
6.7619
 30
0.0
 10
-174.6969
 20
4.6817
 30
0.0
 10
-173.0771
 20
3.0058
 30
0.0
 10
-173.0771
 20
3.0058
 30
0.0
 10
-171.4266
 20
1.298
 30
0.0
 10
-169.1814
 20
0.2947
 30
0.0
 10
-166.8078
 20
0.2058
 30
0.0
 10
-166.8078
 20
0.2058
 30
0.0
 10
-167.154
 20
0.7052
 30
0.0
 10
-167.3502
 20
1.2938
 30
0.0
 10
-167.3732
 20
1.9009
 30
0.0
 10
-167.3732
 20
1.9009
 30
0.0
 10
-167.4165
 20
3.8601
 30
0.0
 10
-165.8905
 20
5.4994
 30
0.0
 10
-163.9333
 20
5.6018
 30
0.0
 10
-163.9333
 20
5.6018
 30
0.0
 10
-162.2501
 20
5.6889
 30
0.0
 10
-160.5635
 20
5.6869
 30
0.0
 10
-158.8809
 20
5.5956
 30
0.0
 10
-158.8809
 20
5.5956
 30
0.0
 10
-156.6179
 20
5.4735
 30
0.0
 10
-154.3492
 20
5.6519
 30
0.0
 10
-152.1333
 20
6.126
 30
0.0
 10
-152.1333
 20
6.126
 30
0.0
 10
-149.8914
 20
6.6062
 30
0.0
 10
-147.8077
 20
7.6432
 30
0.0
 10
-146.0736
 20
9.1427
 30
0.0
 10
-146.0736
 20
9.1427
 30
0.0
 10
-143.2
 20
11.7057
 30
0.0
 10
-141.4462
 20
15.2899
 30
0.0
 10
-141.1875
 20
19.1318
 30
0.0
 10
-141.1875
 20
19.1318
 30
0.0
 10
-140.9323
 20
22.9337
 30
0.0
 10
-141.9486
 20
26.7107
 30
0.0
 10
-144.0799
 20
29.8698
 30
0.0
 10
-144.0799
 20
29.8698
 30
0.0
 10
-144.8423
 20
31.0001
 30
0.0
 10
-145.9688
 20
31.8343
 30
0.0
 10
-147.2722
 20
32.2337
 30
0.0
 10
-147.2722
 20
32.2337
 30
0.0
 10
-148.6256
 20
32.6482
 30
0.0
 10
-150.0953
 20
32.3298
 30
0.0
 10
-151.1549
 20
31.3919
 30
0.0
 10
-151.1549
 20
31.3919
 30
0.0
 10
-152.1626
 20
30.5
 30
0.0
 10
-153.0208
 20
29.4529
 30
0.0
 10
-153.6977
 20
28.2899
 30
0.0
 10
-153.6977
 20
28.2899
 30
0.0
 10
-153.8962
 20
27.9491
 30
0.0
 10
-153.9948
 20
27.5591
 30
0.0
 10
-153.9828
 20
27.1649
 30
0.0
 10
-153.9828
 20
27.1649
 30
0.0
 10
-153.5626
 20
27.3616
 30
0.0
 10
-153.1184
 20
27.502
 30
0.0
 10
-152.6611
 20
27.5828
 30
0.0
 10
-152.6611
 20
27.5828
 30
0.0
 10
-152.203
 20
27.6635
 30
0.0
 10
-151.7342
 20
27.6659
 30
0.0
 10
-151.2755
 20
27.5899
 30
0.0
 10
-151.2755
 20
27.5899
 30
0.0
 10
-150.2443
 20
27.4039
 30
0.0
 10
-149.3198
 20
26.8376
 30
0.0
 10
-148.6842
 20
26.0043
 30
0.0
 10
-148.6842
 20
26.0043
 30
0.0
 10
-147.7765
 20
24.814
 30
0.0
 10
-147.503
 20
23.2563
 30
0.0
 10
-147.9496
 20
21.8275
 30
0.0
 10
-147.9496
 20
21.8275
 30
0.0
 10
-148.3684
 20
20.5312
 30
0.0
 10
-149.3496
 20
19.4918
 30
0.0
 10
-150.6197
 20
18.999
 30
0.0
 10
-150.6197
 20
18.999
 30
0.0
 10
-151.9006
 20
18.5019
 30
0.0
 10
-153.3448
 20
18.6635
 30
0.0
 10
-154.4857
 20
19.4299
 30
0.0
 10
-154.4857
 20
19.4299
 30
0.0
 10
-154.152
 20
17.4725
 30
0.0
 10
-154.3101
 20
15.4625
 30
0.0
 10
-154.9453
 20
13.5817
 30
0.0
 10
-154.9453
 20
13.5817
 30
0.0
 10
-155.5905
 20
11.6697
 30
0.0
 10
-156.9025
 20
10.0524
 30
0.0
 10
-158.6401
 20
9.026
 30
0.0
 10
-158.6401
 20
9.026
 30
0.0
 10
-160.066
 20
8.2039
 30
0.0
 10
-161.6862
 20
7.7779
 30
0.0
 10
-163.3319
 20
7.7909
 30
0.0
 10
-163.3319
 20
7.7909
 30
0.0
 10
-164.9598
 20
7.8043
 30
0.0
 10
-166.5746
 20
8.0865
 30
0.0
 10
-168.1107
 20
8.6264
 30
0.0
 10
-168.1107
 20
8.6264
 30
0.0
 10
-169.006
 20
8.9413
 30
0.0
 10
-169.8396
 20
9.4087
 30
0.0
 10
-170.5752
 20
10.0077
 30
0.0
 10
-170.5752
 20
10.0077
 30
0.0
 10
-171.6765
 20
10.9818
 30
0.0
 10
-172.5314
 20
12.2038
 30
0.0
 10
-173.0679
 20
13.5721
 30
0.0
 10
-173.0679
 20
13.5721
 30
0.0
 10
-173.5987
 20
14.925
 30
0.0
 10
-173.993
 20
16.3283
 30
0.0
 10
-174.2444
 20
17.7597
 30
0.0
 10
-174.2444
 20
17.7597
 30
0.0
 10
-174.2444
 20
17.7597
 30
0.0
 10
-174.2439
 20
17.7597
 30
0.0
 10
-174.2439
 20
17.7597
 30
0.0
  0
SPLINE
  5
4D
330
1F
100
AcDbEntity
  8
layer 1
 62
     7
370
     9
100
AcDbSpline
210
0.0
220
0.0
230
1.0
 70
    11
 71
     3
 72
    60
 73
    56
 74
     0
 42
0.0000000001
 43
0.0000000001
 12
1.0
 22
0.0
 32
0.0
 13
1.0
 23
0.0
 33
0.0
 40
0.0
 40
0.0
 40
0.0
 40
0.0
 40
0.0666666666666667
 40
0.0666666666666667
 40
0.0666666666666667
 40
0.0666666666666667
 40
0.1333333333333333
 40
0.1333333333333333
 40
0.1333333333333333
 40
0.1333333333333333
 40
0.2
 40
0.2
 40
0.2
 40
0.2
 40
0.2666666666666667
 40
0.2666666666666667
 40
0.2666666666666667
 40
0.2666666666666667
 40
0.3333333333333333
 40
0.3333333333333333
 40
0.3333333333333333
 40
0.3333333333333333
 40
0.4
 40
0.4
 40
0.4
 40
0.4
 40
0.4666666666666667
 40
0.4666666666666667
 40
0.4666666666666667
 40
0.4666666666666667
 40
0.5333333333333333
 40
0.5333333333333333
 40
0.5333333333333333
 40
0.5333333333333333
 40
0.6
 40
0.6
 40
0.6
 40
0.6
 40
0.6666666666666666
 40
0.6666666666666666
 40
0.6666666666666666
 40
0.6666666666666666
 40
0.7333333333333333
 40
0.7333333333333333
 40
0.7333333333333333
 40
0.7333333333333333
 40
0.8
 40
0.8
 40
0.8
 40
0.8
 40
0.8666666666666667
 40
0.8666666666666667
 40
0.8666666666666667
 40
0.8666666666666667
 40
1.0
 40
1.0
 40
1.0
 40
1.0
 10
-143.9683
 20
6.2231
 30
0.0
 10
-145.476
 20
4.823
 30
0.0
 10
-147.2068
 20
3.6826
 30
0.0
 10
-149.0881
 20
2.8495
 30
0.0
 10
-149.0881
 20
2.8495
 30
0.0
 10
-150.9832
 20
2.0106
 30
0.0
 10
-153.0525
 20
1.6365
 30
0.0
 10
-155.1217
 20
1.7601
 30
0.0
 10
-155.1217
 20
1.7601
 30
0.0
 10
-157.4742
 20
1.9005
 30
0.0
 10
-159.8223
 20
2.1019
 30
0.0
 10
-162.1641
 20
2.3639
 30
0.0
 10
-162.1641
 20
2.3639
 30
0.0
 10
-162.4232
 20
2.3932
 30
0.0
 10
-162.6814
 20
2.3043
 30
0.0
 10
-162.868
 20
2.1221
 30
0.0
 10
-162.868
 20
2.1221
 30
0.0
 10
-162.9901
 20
2.0024
 30
0.0
 10
-163.0622
 20
1.8413
 30
0.0
 10
-163.0699
 20
1.6701
 30
0.0
 10
-163.0699
 20
1.6701
 30
0.0
 10
-163.077
 20
1.5052
 30
0.0
 10
-163.0756
 20
1.3403
 30
0.0
 10
-163.065
 20
1.1755
 30
0.0
 10
-163.065
 20
1.1755
 30
0.0
 10
-162.9396
 20
-0.6212
 30
0.0
 10
-161.94
 20
-2.24
 30
0.0
 10
-160.3895
 20
-3.1554
 30
0.0
 10
-160.3895
 20
-3.1554
 30
0.0
 10
-158.2636
 20
-4.4106
 30
0.0
 10
-155.853
 20
-5.1015
 30
0.0
 10
-153.3847
 20
-5.1612
 30
0.0
 10
-153.3847
 20
-5.1612
 30
0.0
 10
-151.3582
 20
-5.2101
 30
0.0
 10
-149.3904
 20
-4.4862
 30
0.0
 10
-147.8798
 20
-3.1337
 30
0.0
 10
-147.8798
 20
-3.1337
 30
0.0
 10
-146.4088
 20
-1.8173
 30
0.0
 10
-145.2073
 20
-0.2289
 30
0.0
 10
-144.3415
 20
1.5446
 30
0.0
 10
-144.3415
 20
1.5446
 30
0.0
 10
-144.0193
 20
2.2048
 30
0.0
 10
-143.7804
 20
2.9019
 30
0.0
 10
-143.6309
 20
3.6207
 30
0.0
 10
-143.6309
 20
3.6207
 30
0.0
 10
-143.479
 20
4.349
 30
0.0
 10
-143.5193
 20
5.1038
 30
0.0
 10
-143.7477
 20
5.8114
 30
0.0
 10
-143.7477
 20
5.8114
 30
0.0
 10
-143.7477
 20
5.8114
 30
0.0
 10
-143.9683
 20
6.2231
 30
0.0
 10
-143.9683
 20
6.2231
 30
0.0
 10
-143.9683
 20
6.2231
 30
0.0
 10
-143.9683
 20
6.2231
 30
0.0
 10
-143.9683
 20
6.2231
 30
0.0
 10
-143.9683
 20
6.2231
 30
0.0
  0
SPLINE
  5
4E
330
1F
100
AcDbEntity
  8
layer 1
 62
     7
370
     9
100
AcDbSpline
210
0.0
220
0.0
230
1.0
 70
    11
 71
     3
 72
   100
 73
    96
 74
     0
 42
0.0000000001
 43
0.0000000001
 12
1.0
 22
0.0
 32
0.0
 13
1.0
 23
0.0
 33
0.0
 40
0.0
 40
0.0
 40
0.0
 40
0.0
 40
0.04
 40
0.04
 40
0.04
 40
0.04
 40
0.08
 40
0.08
 40
0.08
 40
0.08
 40
0.12
 40
0.12
 40
0.12
 40
0.12
 40
0.16
 40
0.16
 40
0.16
 40
0.16
 40
0.2
 40
0.2
 40
0.2
 40
0.2
 40
0.24
 40
0.24
 40
0.24
 40
0.24
 40
0.28
 40
0.28
 40
0.28
 40
0.28
 40
0.32
 40
0.32
 40
0.32
 40
0.32
 40
0.36
 40
0.36
 40
0.36
 40
0.36
 40
0.4
 40
0.4
 40
0.4
 40
0.4
 40
0.44
 40
0.44
 40
0.44
 40
0.44
 40
0.48
 40
0.48
 40
0.48
 40
0.48
 40
0.52
 40
0.52
 40
0.52
 40
0.52
 40
0.56
 40
0.56
 40
0.56
 40
0.56
 40
0.6
 40
0.6
 40
0.6
 40
0.6
 40
0.64
 40
0.64
 40
0.64
 40
0.64
 40
0.68
 40
0.68
 40
0.68
 40
0.68
 40
0.72
 40
0.72
 40
0.72
 40
0.72
 40
0.76
 40
0.76
 40
0.76
 40
0.76
 40
0.8
 40
0.8
 40
0.8
 40
0.8
 40
0.84
 40
0.84
 40
0.84
 40
0.84
 40
0.88
 40
0.88
 40
0.88
 40
0.88
 40
0.92
 40
0.92
 40
0.92
 40
0.92
 40
1.0
 40
1.0
 40
1.0
 40
1.0
 10
-122.2495
 20
-10.0645
 30
0.0
 10
-123.6692
 20
-10.5751
 30
0.0
 10
-125.0029
 20
-11.2986
 30
0.0
 10
-126.2044
 20
-12.2112
 30
0.0
 10
-126.2044
 20
-12.2112
 30
0.0
 10
-127.3986
 20
-13.1184
 30
0.0
 10
-128.5971
 20
-14.0208
 30
0.0
 10
-129.799
 20
-14.9184
 30
0.0
 10
-129.799
 20
-14.9184
 30
0.0
 10
-133.4332
 20
-17.6324
 30
0.0
 10
-135.2067
 20
-22.1718
 30
0.0
 10
-134.3703
 20
-26.629
 30
0.0
 10
-134.3703
 20
-26.629
 30
0.0
 10
-134.089
 20
-28.1281
 30
0.0
 10
-134.3294
 20
-29.6791
 30
0.0
 10
-135.05
 20
-31.0228
 30
0.0
 10
-135.05
 20
-31.0228
 30
0.0
 10
-135.4572
 20
-31.7814
 30
0.0
 10
-135.8318
 20
-32.5565
 30
0.0
 10
-136.1736
 20
-33.3463
 30
0.0
 10
-136.1736
 20
-33.3463
 30
0.0
 10
-136.515
 20
-34.1372
 30
0.0
 10
-136.7996
 20
-34.9517
 30
0.0
 10
-137.0241
 20
-35.7833
 30
0.0
 10
-137.0241
 20
-35.7833
 30
0.0
 10
-137.2861
 20
-34.8131
 30
0.0
 10
-137.6342
 20
-33.869
 30
0.0
 10
-138.0645
 20
-32.9612
 30
0.0
 10
-138.0645
 20
-32.9612
 30
0.0
 10
-138.4943
 20
-32.0549
 30
0.0
 10
-138.938
 20
-31.1559
 30
0.0
 10
-139.3962
 20
-30.2641
 30
0.0
 10
-139.3962
 20
-30.2641
 30
0.0
 10
-139.8467
 20
-29.3871
 30
0.0
 10
-139.9668
 20
-28.3775
 30
0.0
 10
-139.7362
 20
-27.4194
 30
0.0
 10
-139.7362
 20
-27.4194
 30
0.0
 10
-138.6044
 20
-22.7222
 30
0.0
 10
-140.3765
 20
-17.8073
 30
0.0
 10
-144.2486
 20
-14.9184
 30
0.0
 10
-144.2486
 20
-14.9184
 30
0.0
 10
-145.451
 20
-14.0208
 30
0.0
 10
-146.6491
 20
-13.1189
 30
0.0
 10
-147.8438
 20
-12.2112
 30
0.0
 10
-147.8438
 20
-12.2112
 30
0.0
 10
-149.0453
 20
-11.2986
 30
0.0
 10
-150.3785
 20
-10.5746
 30
0.0
 10
-151.7986
 20
-10.0645
 30
0.0
 10
-151.7986
 20
-10.0645
 30
0.0
 10
-150.3785
 20
-9.5539
 30
0.0
 10
-149.0453
 20
-8.8299
 30
0.0
 10
-147.8438
 20
-7.9174
 30
0.0
 10
-147.8438
 20
-7.9174
 30
0.0
 10
-146.6491
 20
-7.0101
 30
0.0
 10
-145.451
 20
-6.1078
 30
0.0
 10
-144.2486
 20
-5.2107
 30
0.0
 10
-144.2486
 20
-5.2107
 30
0.0
 10
-140.614
 20
-2.4958
 30
0.0
 10
-138.8399
 20
2.0451
 30
0.0
 10
-139.6774
 20
6.5034
 30
0.0
 10
-139.6774
 20
6.5034
 30
0.0
 10
-139.9587
 20
8.0014
 30
0.0
 10
-139.7183
 20
9.5515
 30
0.0
 10
-138.9977
 20
10.8942
 30
0.0
 10
-138.9977
 20
10.8942
 30
0.0
 10
-138.5909
 20
11.6524
 30
0.0
 10
-138.2159
 20
12.4279
 30
0.0
 10
-137.8746
 20
13.2178
 30
0.0
 10
-137.8746
 20
13.2178
 30
0.0
 10
-137.5327
 20
14.0087
 30
0.0
 10
-137.2486
 20
14.8226
 30
0.0
 10
-137.0241
 20
15.6543
 30
0.0
 10
-137.0241
 20
15.6543
 30
0.0
 10
-136.7621
 20
14.6846
 30
0.0
 10
-136.414
 20
13.7399
 30
0.0
 10
-135.9832
 20
12.8322
 30
0.0
 10
-135.9832
 20
12.8322
 30
0.0
 10
-135.5534
 20
11.9264
 30
0.0
 10
-135.1097
 20
11.0274
 30
0.0
 10
-134.6515
 20
10.135
 30
0.0
 10
-134.6515
 20
10.135
 30
0.0
 10
-134.2014
 20
9.2577
 30
0.0
 10
-134.0808
 20
8.2475
 30
0.0
 10
-134.3121
 20
7.2885
 30
0.0
 10
-134.3121
 20
7.2885
 30
0.0
 10
-135.4428
 20
2.5923
 30
0.0
 10
-133.6712
 20
-2.3221
 30
0.0
 10
-129.799
 20
-5.2107
 30
0.0
 10
-129.799
 20
-5.2107
 30
0.0
 10
-128.5971
 20
-6.1078
 30
0.0
 10
-127.399
 20
-7.0101
 30
0.0
 10
-126.2044
 20
-7.9174
 30
0.0
 10
-126.2044
 20
-7.9174
 30
0.0
 10
-125.0029
 20
-8.8299
 30
0.0
 10
-123.6692
 20
-9.5539
 30
0.0
 10
-122.2495
 20
-10.0645
 30
0.0
  0
SPLINE
  5
4F
330
1F
100
AcDbEntity
  8
layer 1
 62
     7
370
     9
100
AcDbSpline
210
0.0
220
0.0
230
1.0
 70
    11
 71
     3
 72
    52
 73
    48
 74
     0
 42
0.0000000001
 43
0.0000000001
 12
1.0
 22
0.0
 32
0.0
 13
1.0
 23
0.0
 33
0.0
 40
0.0
 40
0.0
 40
0.0
 40
0.0
 40
0.0769230769230769
 40
0.0769230769230769
 40
0.0769230769230769
 40
0.0769230769230769
 40
0.1538461538461539
 40
0.1538461538461539
 40
0.1538461538461539
 40
0.1538461538461539
 40
0.2307692307692308
 40
0.2307692307692308
 40
0.2307692307692308
 40
0.2307692307692308
 40
0.3076923076923077
 40
0.3076923076923077
 40
0.3076923076923077
 40
0.3076923076923077
 40
0.3846153846153846
 40
0.3846153846153846
 40
0.3846153846153846
 40
0.3846153846153846
 40
0.4615384615384616
 40
0.4615384615384616
 40
0.4615384615384616
 40
0.4615384615384616
 40
0.5384615384615384
 40
0.5384615384615384
 40
0.5384615384615384
 40
0.5384615384615384
 40
0.6153846153846154
 40
0.6153846153846154
 40
0.6153846153846154
 40
0.6153846153846154
 40
0.6923076923076923
 40
0.6923076923076923
 40
0.6923076923076923
 40
0.6923076923076923
 40
0.7692307692307693
 40
0.7692307692307693
 40
0.7692307692307693
 40
0.7692307692307693
 40
0.8461538461538461
 40
0.8461538461538461
 40
0.8461538461538461
 40
0.8461538461538461
 40
1.0
 40
1.0
 40
1.0
 40
1.0
 10
-159.116
 20
-10.0645
 30
0.0
 10
-160.7977
 20
-10.6477
 30
0.0
 10
-162.3833
 20
-11.477
 30
0.0
 10
-163.8208
 20
-12.5265
 30
0.0
 10
-163.8208
 20
-12.5265
 30
0.0
 10
-166.0289
 20
-14.1377
 30
0.0
 10
-168.5218
 20
-15.3188
 30
0.0
 10
-171.167
 20
-16.0073
 30
0.0
 10
-171.167
 20
-16.0073
 30
0.0
 10
-172.8348
 20
-16.4414
 30
0.0
 10
-174.5963
 20
-16.3573
 30
0.0
 10
-176.2155
 20
-15.767
 30
0.0
 10
-176.2155
 20
-15.767
 30
0.0
 10
-177.8867
 20
-15.1578
 30
0.0
 10
-179.1718
 20
-13.7919
 30
0.0
 10
-179.6801
 20
-12.0872
 30
0.0
 10
-179.6801
 20
-12.0872
 30
0.0
 10
-179.8756
 20
-11.4299
 30
0.0
 10
-179.9843
 20
-10.7496
 30
0.0
 10
-180.0025
 20
-10.0645
 30
0.0
 10
-180.0025
 20
-10.0645
 30
0.0
 10
-179.9636
 20
-8.602
 30
0.0
 10
-179.4199
 20
-7.1972
 30
0.0
 10
-178.4651
 20
-6.089
 30
0.0
 10
-178.4651
 20
-6.089
 30
0.0
 10
-177.5098
 20
-4.9808
 30
0.0
 10
-176.2011
 20
-4.2361
 30
0.0
 10
-174.7608
 20
-3.9799
 30
0.0
 10
-174.7608
 20
-3.9799
 30
0.0
 10
-172.6405
 20
-3.6025
 30
0.0
 10
-170.4535
 20
-3.9611
 30
0.0
 10
-168.5636
 20
-4.9943
 30
0.0
 10
-168.5636
 20
-4.9943
 30
0.0
 10
-166.3559
 20
-6.2024
 30
0.0
 10
-164.1608
 20
-7.4337
 30
0.0
 10
-161.979
 20
-8.6891
 30
0.0
 10
-161.979
 20
-8.6891
 30
0.0
 10
-161.5198
 20
-8.9535
 30
0.0
 10
-161.053
 20
-9.2054
 30
0.0
 10
-160.5799
 20
-9.4444
 30
0.0
 10
-160.5799
 20
-9.4444
 30
0.0
 10
-160.106
 20
-9.6832
 30
0.0
 10
-159.617
 20
-9.8905
 30
0.0
 10
-159.1155
 20
-10.0645
 30
0.0
 10
-159.1155
 20
-10.0645
 30
0.0
 10
-159.1155
 20
-10.0645
 30
0.0
 10
-159.116
 20
-10.0645
 30
0.0
 10
-159.116
 20
-10.0645
 30
0.0
  0
SPLINE
  5
50
330
1F
100
AcDbEntity
  8
layer 1
 62
     7
370
     9
100
AcDbSpline
210
0.0
220
0.0
230
1.0
 70
    11
 71
     3
 72
   120
 73
   116
 74
     0
 42
0.0000000001
 43
0.0000000001
 12
1.0
 22
0.0
 32
0.0
 13
1.0
 23
0.0
 33
0.0
 40
0.0
 40
0.0
 40
0.0
 40
0.0
 40
0.0333333333333333
 40
0.0333333333333333
 40
0.0333333333333333
 40
0.0333333333333333
 40
0.0666666666666667
 40
0.0666666666666667
 40
0.0666666666666667
 40
0.0666666666666667
 40
0.1
 40
0.1
 40
0.1
 40
0.1
 40
0.1333333333333333
 40
0.1333333333333333
 40
0.1333333333333333
 40
0.1333333333333333
 40
0.1666666666666667
 40
0.1666666666666667
 40
0.1666666666666667
 40
0.1666666666666667
 40
0.2
 40
0.2
 40
0.2
 40
0.2
 40
0.2333333333333333
 40
0.2333333333333333
 40
0.2333333333333333
 40
0.2333333333333333
 40
0.2666666666666667
 40
0.2666666666666667
 40
0.2666666666666667
 40
0.2666666666666667
 40
0.3
 40
0.3
 40
0.3
 40
0.3
 40
0.3333333333333333
 40
0.3333333333333333
 40
0.3333333333333333
 40
0.3333333333333333
 40
0.3666666666666666
 40
0.3666666666666666
 40
0.3666666666666666
 40
0.3666666666666666
 40
0.4
 40
0.4
 40
0.4
 40
0.4
 40
0.4333333333333333
 40
0.4333333333333333
 40
0.4333333333333333
 40
0.4333333333333333
 40
0.4666666666666667
 40
0.4666666666666667
 40
0.4666666666666667
 40
0.4666666666666667
 40
0.5
 40
0.5
 40
0.5
 40
0.5
 40
0.5333333333333333
 40
0.5333333333333333
 40
0.5333333333333333
 40
0.5333333333333333
 40
0.5666666666666667
 40
0.5666666666666667
 40
0.5666666666666667
 40
0.5666666666666667
 40
0.6
 40
0.6
 40
0.6
 40
0.6
 40
0.6333333333333333
 40
0.6333333333333333
 40
0.6333333333333333
 40
0.6333333333333333
 40
0.6666666666666666
 40
0.6666666666666666
 40
0.6666666666666666
 40
0.6666666666666666
 40
0.7
 40
0.7
 40
0.7
 40
0.7
 40
0.7333333333333333
 40
0.7333333333333333
 40
0.7333333333333333
 40
0.7333333333333333
 40
0.7666666666666667
 40
0.7666666666666667
 40
0.7666666666666667
 40
0.7666666666666667
 40
0.8
 40
0.8
 40
0.8
 40
0.8
 40
0.8333333333333334
 40
0.8333333333333334
 40
0.8333333333333334
 40
0.8333333333333334
 40
0.8666666666666667
 40
0.8666666666666667
 40
0.8666666666666667
 40
0.8666666666666667
 40
0.9
 40
0.9
 40
0.9
 40
0.9
 40
0.9333333333333333
 40
0.9333333333333333
 40
0.9333333333333333
 40
0.9333333333333333
 40
1.0
 40
1.0
 40
1.0
 40
1.0
 10
-99.8038
 20
17.7597
 30
0.0
 10
-99.6163
 20
17.4913
 30
0.0
 10
-99.4273
 20
17.2235
 30
0.0
 10
-99.2364
 20
16.9573
 30
0.0
 10
-99.2364
 20
16.9573
 30
0.0
 10
-97.5952
 20
14.6654
 30
0.0
 10
-97.0263
 20
11.7731
 30
0.0
 10
-97.6759
 20
9.0298
 30
0.0
 10
-97.6759
 20
9.0298
 30
0.0
 10
-98.2129
 20
6.763
 30
0.0
 10
-99.3518
 20
4.6813
 30
0.0
 10
-100.9706
 20
3.0058
 30
0.0
 10
-100.9706
 20
3.0058
 30
0.0
 10
-102.6201
 20
1.2985
 30
0.0
 10
-104.8677
 20
0.2951
 30
0.0
 10
-107.2403
 20
0.2058
 30
0.0
 10
-107.2403
 20
0.2058
 30
0.0
 10
-106.8942
 20
0.7057
 30
0.0
 10
-106.698
 20
1.2932
 30
0.0
 10
-106.6749
 20
1.9009
 30
0.0
 10
-106.6749
 20
1.9009
 30
0.0
 10
-106.6336
 20
3.8624
 30
0.0
 10
-108.1548
 20
5.5019
 30
0.0
 10
-110.1144
 20
5.6018
 30
0.0
 10
-110.1144
 20
5.6018
 30
0.0
 10
-111.7976
 20
5.6889
 30
0.0
 10
-113.484
 20
5.6869
 30
0.0
 10
-115.1673
 20
5.5956
 30
0.0
 10
-115.1673
 20
5.5956
 30
0.0
 10
-117.4298
 20
5.4735
 30
0.0
 10
-119.6991
 20
5.6519
 30
0.0
 10
-121.9148
 20
6.126
 30
0.0
 10
-121.9148
 20
6.126
 30
0.0
 10
-124.1558
 20
6.6058
 30
0.0
 10
-126.2404
 20
7.6437
 30
0.0
 10
-127.9741
 20
9.1427
 30
0.0
 10
-127.9741
 20
9.1427
 30
0.0
 10
-130.8471
 20
11.7033
 30
0.0
 10
-132.6015
 20
15.2918
 30
0.0
 10
-132.8601
 20
19.1318
 30
0.0
 10
-132.8601
 20
19.1318
 30
0.0
 10
-133.1164
 20
22.9323
 30
0.0
 10
-132.0981
 20
26.7116
 30
0.0
 10
-129.9682
 20
29.8698
 30
0.0
 10
-129.9682
 20
29.8698
 30
0.0
 10
-129.2063
 20
30.9996
 30
0.0
 10
-128.0784
 20
31.8343
 30
0.0
 10
-126.7755
 20
32.2337
 30
0.0
 10
-126.7755
 20
32.2337
 30
0.0
 10
-125.4236
 20
32.6486
 30
0.0
 10
-123.952
 20
32.3289
 30
0.0
 10
-122.8929
 20
31.3919
 30
0.0
 10
-122.8929
 20
31.3919
 30
0.0
 10
-121.8856
 20
30.5006
 30
0.0
 10
-121.0269
 20
29.4529
 30
0.0
 10
-120.3505
 20
28.2905
 30
0.0
 10
-120.3505
 20
28.2905
 30
0.0
 10
-120.1519
 20
27.9491
 30
0.0
 10
-120.0529
 20
27.5591
 30
0.0
 10
-120.0649
 20
27.1649
 30
0.0
 10
-120.0649
 20
27.1649
 30
0.0
 10
-120.4856
 20
27.3616
 30
0.0
 10
-120.9298
 20
27.502
 30
0.0
 10
-121.3866
 20
27.5828
 30
0.0
 10
-121.3866
 20
27.5828
 30
0.0
 10
-121.8447
 20
27.6635
 30
0.0
 10
-122.3134
 20
27.6659
 30
0.0
 10
-122.7726
 20
27.5899
 30
0.0
 10
-122.7726
 20
27.5899
 30
0.0
 10
-123.8043
 20
27.4034
 30
0.0
 10
-124.7283
 20
26.8385
 30
0.0
 10
-125.364
 20
26.0043
 30
0.0
 10
-125.364
 20
26.0043
 30
0.0
 10
-126.2716
 20
24.813
 30
0.0
 10
-126.5457
 20
23.2567
 30
0.0
 10
-126.0985
 20
21.8275
 30
0.0
 10
-126.0985
 20
21.8275
 30
0.0
 10
-125.6788
 20
20.5303
 30
0.0
 10
-124.6991
 20
19.4918
 30
0.0
 10
-123.4284
 20
18.999
 30
0.0
 10
-123.4284
 20
18.999
 30
0.0
 10
-122.1461
 20
18.5019
 30
0.0
 10
-120.7034
 20
18.662
 30
0.0
 10
-119.5625
 20
19.4299
 30
0.0
 10
-119.5625
 20
19.4299
 30
0.0
 10
-119.8961
 20
17.4721
 30
0.0
 10
-119.7385
 20
15.4629
 30
0.0
 10
-119.1028
 20
13.5817
 30
0.0
 10
-119.1028
 20
13.5817
 30
0.0
 10
-118.4567
 20
11.6688
 30
0.0
 10
-117.1461
 20
10.0524
 30
0.0
 10
-115.4082
 20
9.026
 30
0.0
 10
-115.4082
 20
9.026
 30
0.0
 10
-113.9817
 20
8.2039
 30
0.0
 10
-112.3625
 20
7.7779
 30
0.0
 10
-110.7163
 20
7.7909
 30
0.0
 10
-110.7163
 20
7.7909
 30
0.0
 10
-109.088
 20
7.8043
 30
0.0
 10
-107.4735
 20
8.0865
 30
0.0
 10
-105.9374
 20
8.6264
 30
0.0
 10
-105.9374
 20
8.6264
 30
0.0
 10
-105.0423
 20
8.9413
 30
0.0
 10
-104.2086
 20
9.4087
 30
0.0
 10
-103.4725
 20
10.0077
 30
0.0
 10
-103.4725
 20
10.0077
 30
0.0
 10
-102.371
 20
10.9818
 30
0.0
 10
-101.5167
 20
12.2034
 30
0.0
 10
-100.9798
 20
13.5721
 30
0.0
 10
-100.9798
 20
13.5721
 30
0.0
 10
-100.449
 20
14.9254
 30
0.0
 10
-100.0552
 20
16.3279
 30
0.0
 10
-99.8038
 20
17.7597
 30
0.0
 10
-99.8038
 20
17.7597
 30
0.0
 10
-99.8038
 20
17.7597
 30
0.0
 10
-99.8038
 20
17.7597
 30
0.0
 10
-99.8038
 20
17.7597
 30
0.0
  0
SPLINE
  5
51
330
1F
100
AcDbEntity
  8
layer 1
 62
     7
370
     9
100
AcDbSpline
210
0.0
220
0.0
230
1.0
 70
    11
 71
     3
 72
    60
 73
    56
 74
     0
 42
0.0000000001
 43
0.0000000001
 12
1.0
 22
0.0
 32
0.0
 13
1.0
 23
0.0
 33
0.0
 40
0.0
 40
0.0
 40
0.0
 40
0.0
 40
0.0666666666666667
 40
0.0666666666666667
 40
0.0666666666666667
 40
0.0666666666666667
 40
0.1333333333333333
 40
0.1333333333333333
 40
0.1333333333333333
 40
0.1333333333333333
 40
0.2
 40
0.2
 40
0.2
 40
0.2
 40
0.2666666666666667
 40
0.2666666666666667
 40
0.2666666666666667
 40
0.2666666666666667
 40
0.3333333333333333
 40
0.3333333333333333
 40
0.3333333333333333
 40
0.3333333333333333
 40
0.4
 40
0.4
 40
0.4
 40
0.4
 40
0.4666666666666667
 40
0.4666666666666667
 40
0.4666666666666667
 40
0.4666666666666667
 40
0.5333333333333333
 40
0.5333333333333333
 40
0.5333333333333333
 40
0.5333333333333333
 40
0.6
 40
0.6
 40
0.6
 40
0.6
 40
0.6666666666666666
 40
0.6666666666666666
 40
0.6666666666666666
 40
0.6666666666666666
 40
0.7333333333333333
 40
0.7333333333333333
 40
0.7333333333333333
 40
0.7333333333333333
 40
0.8
 40
0.8
 40
0.8
 40
0.8
 40
0.8666666666666667
 40
0.8666666666666667
 40
0.8666666666666667
 40
0.8666666666666667
 40
1.0
 40
1.0
 40
1.0
 40
1.0
 10
-130.0798
 20
6.2231
 30
0.0
 10
-128.5717
 20
4.8226
 30
0.0
 10
-126.8418
 20
3.6831
 30
0.0
 10
-124.9602
 20
2.8495
 30
0.0
 10
-124.9602
 20
2.8495
 30
0.0
 10
-123.0639
 20
2.01
 30
0.0
 10
-120.9957
 20
1.6365
 30
0.0
 10
-118.9264
 20
1.7601
 30
0.0
 10
-118.9264
 20
1.7601
 30
0.0
 10
-116.574
 20
1.9005
 30
0.0
 10
-114.226
 20
2.1019
 30
0.0
 10
-111.8841
 20
2.3639
 30
0.0
 10
-111.8841
 20
2.3639
 30
0.0
 10
-111.625
 20
2.3932
 30
0.0
 10
-111.3669
 20
2.3043
 30
0.0
 10
-111.1803
 20
2.1221
 30
0.0
 10
-111.1803
 20
2.1221
 30
0.0
 10
-111.0581
 20
2.0024
 30
0.0
 10
-110.986
 20
1.8408
 30
0.0
 10
-110.9783
 20
1.6701
 30
0.0
 10
-110.9783
 20
1.6701
 30
0.0
 10
-110.9707
 20
1.5052
 30
0.0
 10
-110.9725
 20
1.3403
 30
0.0
 10
-110.9831
 20
1.1755
 30
0.0
 10
-110.9831
 20
1.1755
 30
0.0
 10
-111.1067
 20
-0.6164
 30
0.0
 10
-112.1052
 20
-2.2342
 30
0.0
 10
-113.6505
 20
-3.149
 30
0.0
 10
-113.6505
 20
-3.149
 30
0.0
 10
-115.7774
 20
-4.4082
 30
0.0
 10
-118.1928
 20
-5.1011
 30
0.0
 10
-120.6634
 20
-5.1612
 30
0.0
 10
-120.6634
 20
-5.1612
 30
0.0
 10
-122.6889
 20
-5.2107
 30
0.0
 10
-124.6582
 20
-4.4851
 30
0.0
 10
-126.1683
 20
-3.1337
 30
0.0
 10
-126.1683
 20
-3.1337
 30
0.0
 10
-127.6389
 20
-1.8179
 30
0.0
 10
-128.8404
 20
-0.2284
 30
0.0
 10
-129.7068
 20
1.5452
 30
0.0
 10
-129.7068
 20
1.5452
 30
0.0
 10
-130.0285
 20
2.2048
 30
0.0
 10
-130.2673
 20
2.9019
 30
0.0
 10
-130.4174
 20
3.6207
 30
0.0
 10
-130.4174
 20
3.6207
 30
0.0
 10
-130.5693
 20
4.3485
 30
0.0
 10
-130.5289
 20
5.1038
 30
0.0
 10
-130.3
 20
5.8114
 30
0.0
 10
-130.3
 20
5.8114
 30
0.0
 10
-130.3
 20
5.8114
 30
0.0
 10
-130.0798
 20
6.2231
 30
0.0
 10
-130.0798
 20
6.2231
 30
0.0
 10
-130.0798
 20
6.2231
 30
0.0
 10
-130.0798
 20
6.2231
 30
0.0
 10
-130.0798
 20
6.2231
 30
0.0
 10
-130.0798
 20
6.2231
 30
0.0
  0
SPLINE
  5
52
330
1F
100
AcDbEntity
  8
layer 1
 62
     7
370
     9
100
AcDbSpline
210
0.0
220
0.0
230
1.0
 70
    11
 71
     3
 72
    48
 73
    44
 74
     0
 42
0.0000000001
 43
0.0000000001
 12
1.0
 22
0.0
 32
0.0
 13
1.0
 23
0.0
 33
0.0
 40
0.0
 40
0.0
 40
0.0
 40
0.0
 40
0.0833333333333333
 40
0.0833333333333333
 40
0.0833333333333333
 40
0.0833333333333333
 40
0.1666666666666667
 40
0.1666666666666667
 40
0.1666666666666667
 40
0.1666666666666667
 40
0.25
 40
0.25
 40
0.25
 40
0.25
 40
0.3333333333333333
 40
0.3333333333333333
 40
0.3333333333333333
 40
0.3333333333333333
 40
0.4166666666666667
 40
0.4166666666666667
 40
0.4166666666666667
 40
0.4166666666666667
 40
0.5
 40
0.5
 40
0.5
 40
0.5
 40
0.5833333333333334
 40
0.5833333333333334
 40
0.5833333333333334
 40
0.5833333333333334
 40
0.6666666666666666
 40
0.6666666666666666
 40
0.6666666666666666
 40
0.6666666666666666
 40
0.75
 40
0.75
 40
0.75
 40
0.75
 40
0.8333333333333334
 40
0.8333333333333334
 40
0.8333333333333334
 40
0.8333333333333334
 40
1.0
 40
1.0
 40
1.0
 40
1.0
 10
-94.045
 20
-10.0645
 30
0.0
 10
-94.1283
 20
-7.0477
 30
0.0
 10
-96.3157
 20
-4.5059
 30
0.0
 10
-99.2875
 20
-3.9799
 30
0.0
 10
-99.2875
 20
-3.9799
 30
0.0
 10
-101.4086
 20
-3.6029
 30
0.0
 10
-103.5941
 20
-3.9602
 30
0.0
 10
-105.4841
 20
-4.9943
 30
0.0
 10
-105.4841
 20
-4.9943
 30
0.0
 10
-107.6922
 20
-6.2024
 30
0.0
 10
-109.8875
 20
-7.4337
 30
0.0
 10
-112.0687
 20
-8.6891
 30
0.0
 10
-112.0687
 20
-8.6891
 30
0.0
 10
-112.5284
 20
-8.9535
 30
0.0
 10
-112.9947
 20
-9.2054
 30
0.0
 10
-113.4683
 20
-9.4444
 30
0.0
 10
-113.4683
 20
-9.4444
 30
0.0
 10
-113.9418
 20
-9.6832
 30
0.0
 10
-114.4307
 20
-9.8905
 30
0.0
 10
-114.9322
 20
-10.0645
 30
0.0
 10
-114.9322
 20
-10.0645
 30
0.0
 10
-113.2394
 20
-10.6511
 30
0.0
 10
-111.6433
 20
-11.4862
 30
0.0
 10
-110.1956
 20
-12.542
 30
0.0
 10
-110.1956
 20
-12.542
 30
0.0
 10
-107.9965
 20
-14.1463
 30
0.0
 10
-105.5159
 20
-15.3217
 30
0.0
 10
-102.8811
 20
-16.0073
 30
0.0
 10
-102.8811
 20
-16.0073
 30
0.0
 10
-101.2124
 20
-16.4414
 30
0.0
 10
-99.4524
 20
-16.3578
 30
0.0
 10
-97.8326
 20
-15.767
 30
0.0
 10
-97.8326
 20
-15.767
 30
0.0
 10
-96.16
 20
-15.1563
 30
0.0
 10
-94.8759
 20
-13.7928
 30
0.0
 10
-94.3676
 20
-12.0866
 30
0.0
 10
-94.3676
 20
-12.0866
 30
0.0
 10
-94.1721
 20
-11.4294
 30
0.0
 10
-94.0634
 20
-10.7496
 30
0.0
 10
-94.045
 20
-10.0641
 30
0.0
 10
-94.045
 20
-10.0641
 30
0.0
 10
-94.045
 20
-10.0641
 30
0.0
 10
-94.045
 20
-10.0645
 30
0.0
 10
-94.045
 20
-10.0645
 30
0.0
  0
SPLINE
  5
53
330
1F
100
AcDbEntity
  8
layer 1
 62
     7
370
     9
100
AcDbSpline
210
0.0
220
0.0
230
1.0
 70
    11
 71
     3
 72
   116
 73
   112
 74
     0
 42
0.0000000001
 43
0.0000000001
 12
1.0
 22
0.0
 32
0.0
 13
1.0
 23
0.0
 33
0.0
 40
0.0
 40
0.0
 40
0.0
 40
0.0
 40
0.0344827586206897
 40
0.0344827586206897
 40
0.0344827586206897
 40
0.0344827586206897
 40
0.0689655172413793
 40
0.0689655172413793
 40
0.0689655172413793
 40
0.0689655172413793
 40
0.103448275862069
 40
0.103448275862069
 40
0.103448275862069
 40
0.103448275862069
 40
0.1379310344827586
 40
0.1379310344827586
 40
0.1379310344827586
 40
0.1379310344827586
 40
0.1724137931034483
 40
0.1724137931034483
 40
0.1724137931034483
 40
0.1724137931034483
 40
0.2068965517241379
 40
0.2068965517241379
 40
0.2068965517241379
 40
0.2068965517241379
 40
0.2413793103448276
 40
0.2413793103448276
 40
0.2413793103448276
 40
0.2413793103448276
 40
0.2758620689655172
 40
0.2758620689655172
 40
0.2758620689655172
 40
0.2758620689655172
 40
0.3103448275862069
 40
0.3103448275862069
 40
0.3103448275862069
 40
0.3103448275862069
 40
0.3448275862068966
 40
0.3448275862068966
 40
0.3448275862068966
 40
0.3448275862068966
 40
0.3793103448275862
 40
0.3793103448275862
 40
0.3793103448275862
 40
0.3793103448275862
 40
0.4137931034482759
 40
0.4137931034482759
 40
0.4137931034482759
 40
0.4137931034482759
 40
0.4482758620689655
 40
0.4482758620689655
 40
0.4482758620689655
 40
0.4482758620689655
 40
0.4827586206896552
 40
0.4827586206896552
 40
0.4827586206896552
 40
0.4827586206896552
 40
0.5172413793103449
 40
0.5172413793103449
 40
0.5172413793103449
 40
0.5172413793103449
 40
0.5517241379310345
 40
0.5517241379310345
 40
0.5517241379310345
 40
0.5517241379310345
 40
0.5862068965517241
 40
0.5862068965517241
 40
0.5862068965517241
 40
0.5862068965517241
 40
0.6206896551724138
 40
0.6206896551724138
 40
0.6206896551724138
 40
0.6206896551724138
 40
0.6551724137931034
 40
0.6551724137931034
 40
0.6551724137931034
 40
0.6551724137931034
 40
0.6896551724137931
 40
0.6896551724137931
 40
0.6896551724137931
 40
0.6896551724137931
 40
0.7241379310344828
 40
0.7241379310344828
 40
0.7241379310344828
 40
0.7241379310344828
 40
0.7586206896551724
 40
0.7586206896551724
 40
0.7586206896551724
 40
0.7586206896551724
 40
0.7931034482758621
 40
0.7931034482758621
 40
0.7931034482758621
 40
0.7931034482758621
 40
0.8275862068965517
 40
0.8275862068965517
 40
0.8275862068965517
 40
0.8275862068965517
 40
0.8620689655172413
 40
0.8620689655172413
 40
0.8620689655172413
 40
0.8620689655172413
 40
0.896551724137931
 40
0.896551724137931
 40
0.896551724137931
 40
0.896551724137931
 40
0.9310344827586207
 40
0.9310344827586207
 40
0.9310344827586207
 40
0.9310344827586207
 40
1.0
 40
1.0
 40
1.0
 40
1.0
 10
-174.2444
 20
108.5845
 30
0.0
 10
-174.4319
 20
108.3157
 30
0.0
 10
-174.6209
 20
108.0484
 30
0.0
 10
-174.8117
 20
107.7815
 30
0.0
 10
-174.8117
 20
107.7815
 30
0.0
 10
-176.4536
 20
105.4884
 30
0.0
 10
-177.0227
 20
102.5989
 30
0.0
 10
-176.3723
 20
99.8552
 30
0.0
 10
-176.3723
 20
99.8552
 30
0.0
 10
-175.8343
 20
97.5874
 30
0.0
 10
-174.6969
 20
95.507
 30
0.0
 10
-173.0776
 20
93.8306
 30
0.0
 10
-173.0776
 20
93.8306
 30
0.0
 10
-171.4266
 20
92.1229
 30
0.0
 10
-169.1814
 20
91.1195
 30
0.0
 10
-166.8078
 20
91.0311
 30
0.0
 10
-166.8078
 20
91.0311
 30
0.0
 10
-167.154
 20
91.5306
 30
0.0
 10
-167.3502
 20
92.1185
 30
0.0
 10
-167.3732
 20
92.7258
 30
0.0
 10
-167.3732
 20
92.7258
 30
0.0
 10
-167.4165
 20
94.6854
 30
0.0
 10
-165.8905
 20
96.3244
 30
0.0
 10
-163.9333
 20
96.4268
 30
0.0
 10
-163.9333
 20
96.4268
 30
0.0
 10
-162.2501
 20
96.5137
 30
0.0
 10
-160.5635
 20
96.5119
 30
0.0
 10
-158.8809
 20
96.4209
 30
0.0
 10
-158.8809
 20
96.4209
 30
0.0
 10
-156.6179
 20
96.2984
 30
0.0
 10
-154.3492
 20
96.4768
 30
0.0
 10
-152.1327
 20
96.9513
 30
0.0
 10
-152.1327
 20
96.9513
 30
0.0
 10
-149.8914
 20
97.4311
 30
0.0
 10
-147.8077
 20
98.4681
 30
0.0
 10
-146.0736
 20
99.9676
 30
0.0
 10
-146.0736
 20
99.9676
 30
0.0
 10
-143.2
 20
102.5301
 30
0.0
 10
-141.4457
 20
106.1148
 30
0.0
 10
-141.1875
 20
109.9566
 30
0.0
 10
-141.1875
 20
109.9566
 30
0.0
 10
-140.9317
 20
113.7585
 30
0.0
 10
-141.9486
 20
117.5354
 30
0.0
 10
-144.0799
 20
120.6942
 30
0.0
 10
-144.0799
 20
120.6942
 30
0.0
 10
-144.8423
 20
121.8245
 30
0.0
 10
-145.9688
 20
122.6591
 30
0.0
 10
-147.2722
 20
123.0585
 30
0.0
 10
-147.2722
 20
123.0585
 30
0.0
 10
-148.6256
 20
123.473
 30
0.0
 10
-150.0953
 20
123.1547
 30
0.0
 10
-151.1549
 20
122.2167
 30
0.0
 10
-151.1549
 20
122.2167
 30
0.0
 10
-152.1626
 20
121.325
 30
0.0
 10
-153.0208
 20
120.2777
 30
0.0
 10
-153.6977
 20
119.1149
 30
0.0
 10
-153.6977
 20
119.1149
 30
0.0
 10
-153.8962
 20
118.7735
 30
0.0
 10
-153.9948
 20
118.384
 30
0.0
 10
-153.9828
 20
117.9893
 30
0.0
 10
-153.9828
 20
117.9893
 30
0.0
 10
-153.5626
 20
118.186
 30
0.0
 10
-153.1184
 20
118.3264
 30
0.0
 10
-152.6611
 20
118.4071
 30
0.0
 10
-152.6611
 20
118.4071
 30
0.0
 10
-152.203
 20
118.4879
 30
0.0
 10
-151.7342
 20
118.4908
 30
0.0
 10
-151.2755
 20
118.4149
 30
0.0
 10
-151.2755
 20
118.4149
 30
0.0
 10
-150.2443
 20
118.2283
 30
0.0
 10
-149.3198
 20
117.6623
 30
0.0
 10
-148.6842
 20
116.8292
 30
0.0
 10
-148.6842
 20
116.8292
 30
0.0
 10
-147.7765
 20
115.6388
 30
0.0
 10
-147.503
 20
114.0807
 30
0.0
 10
-147.9496
 20
112.6523
 30
0.0
 10
-147.9496
 20
112.6523
 30
0.0
 10
-148.3684
 20
111.3556
 30
0.0
 10
-149.3496
 20
110.3167
 30
0.0
 10
-150.6197
 20
109.824
 30
0.0
 10
-150.6197
 20
109.824
 30
0.0
 10
-151.9006
 20
109.3268
 30
0.0
 10
-153.3448
 20
109.4879
 30
0.0
 10
-154.4857
 20
110.2542
 30
0.0
 10
-154.4857
 20
110.2542
 30
0.0
 10
-154.152
 20
108.2975
 30
0.0
 10
-154.3101
 20
106.2873
 30
0.0
 10
-154.9453
 20
104.4066
 30
0.0
 10
-154.9453
 20
104.4066
 30
0.0
 10
-155.5905
 20
102.4945
 30
0.0
 10
-156.9025
 20
100.8772
 30
0.0
 10
-158.6401
 20
99.8508
 30
0.0
 10
-158.6401
 20
99.8508
 30
0.0
 10
-160.066
 20
99.0292
 30
0.0
 10
-161.6862
 20
98.6027
 30
0.0
 10
-163.3319
 20
98.6162
 30
0.0
 10
-163.3319
 20
98.6162
 30
0.0
 10
-164.9598
 20
98.6292
 30
0.0
 10
-166.5746
 20
98.9114
 30
0.0
 10
-168.1107
 20
99.4513
 30
0.0
 10
-168.1107
 20
99.4513
 30
0.0
 10
-169.006
 20
99.7662
 30
0.0
 10
-169.8396
 20
100.234
 30
0.0
 10
-170.5752
 20
100.833
 30
0.0
 10
-170.5752
 20
100.833
 30
0.0
 10
-171.6765
 20
101.8062
 30
0.0
 10
-172.5314
 20
103.0282
 30
0.0
 10
-173.0685
 20
104.3969
 30
0.0
 10
-173.0685
 20
104.3969
 30
0.0
 10
-173.5987
 20
105.7498
 30
0.0
 10
-173.993
 20
107.1533
 30
0.0
 10
-174.2444
 20
108.5845
 30
0.0
  0
SPLINE
  5
54
330
1F
100
AcDbEntity
  8
layer 1
 62
     7
370
     9
100
AcDbSpline
210
0.0
220
0.0
230
1.0
 70
    11
 71
     3
 72
    56
 73
    52
 74
     0
 42
0.0000000001
 43
0.0000000001
 12
1.0
 22
0.0
 32
0.0
 13
1.0
 23
0.0
 33
0.0
 40
0.0
 40
0.0
 40
0.0
 40
0.0
 40
0.0714285714285714
 40
0.0714285714285714
 40
0.0714285714285714
 40
0.0714285714285714
 40
0.1428571428571428
 40
0.1428571428571428
 40
0.1428571428571428
 40
0.1428571428571428
 40
0.2142857142857143
 40
0.2142857142857143
 40
0.2142857142857143
 40
0.2142857142857143
 40
0.2857142857142857
 40
0.2857142857142857
 40
0.2857142857142857
 40
0.2857142857142857
 40
0.3571428571428572
 40
0.3571428571428572
 40
0.3571428571428572
 40
0.3571428571428572
 40
0.4285714285714285
 40
0.4285714285714285
 40
0.4285714285714285
 40
0.4285714285714285
 40
0.5
 40
0.5
 40
0.5
 40
0.5
 40
0.5714285714285714
 40
0.5714285714285714
 40
0.5714285714285714
 40
0.5714285714285714
 40
0.6428571428571429
 40
0.6428571428571429
 40
0.6428571428571429
 40
0.6428571428571429
 40
0.7142857142857143
 40
0.7142857142857143
 40
0.7142857142857143
 40
0.7142857142857143
 40
0.7857142857142857
 40
0.7857142857142857
 40
0.7857142857142857
 40
0.7857142857142857
 40
0.8571428571428571
 40
0.8571428571428571
 40
0.8571428571428571
 40
0.8571428571428571
 40
1.0
 40
1.0
 40
1.0
 40
1.0
 10
-143.9683
 20
97.0479
 30
0.0
 10
-145.476
 20
95.6479
 30
0.0
 10
-147.2068
 20
94.5079
 30
0.0
 10
-149.0881
 20
93.6748
 30
0.0
 10
-149.0881
 20
93.6748
 30
0.0
 10
-150.9832
 20
92.8353
 30
0.0
 10
-153.0529
 20
92.4618
 30
0.0
 10
-155.1217
 20
92.5854
 30
0.0
 10
-155.1217
 20
92.5854
 30
0.0
 10
-157.4732
 20
92.7253
 30
0.0
 10
-159.8208
 20
92.9272
 30
0.0
 10
-162.1616
 20
93.1897
 30
0.0
 10
-162.1616
 20
93.1897
 30
0.0
 10
-162.4218
 20
93.2191
 30
0.0
 10
-162.6809
 20
93.1302
 30
0.0
 10
-162.868
 20
92.9469
 30
0.0
 10
-162.868
 20
92.9469
 30
0.0
 10
-162.9901
 20
92.8277
 30
0.0
 10
-163.0622
 20
92.6661
 30
0.0
 10
-163.0699
 20
92.4955
 30
0.0
 10
-163.0699
 20
92.4955
 30
0.0
 10
-163.077
 20
92.3305
 30
0.0
 10
-163.0756
 20
92.1653
 30
0.0
 10
-163.065
 20
92.0008
 30
0.0
 10
-163.065
 20
92.0008
 30
0.0
 10
-162.9401
 20
90.2041
 30
0.0
 10
-161.9405
 20
88.585
 30
0.0
 10
-160.3895
 20
87.6695
 30
0.0
 10
-160.3895
 20
87.6695
 30
0.0
 10
-158.2636
 20
86.4142
 30
0.0
 10
-155.853
 20
85.7238
 30
0.0
 10
-153.3847
 20
85.6638
 30
0.0
 10
-153.3847
 20
85.6638
 30
0.0
 10
-151.3582
 20
85.6147
 30
0.0
 10
-149.39
 20
86.3393
 30
0.0
 10
-147.8798
 20
87.6911
 30
0.0
 10
-147.8798
 20
87.6911
 30
0.0
 10
-146.4088
 20
89.0075
 30
0.0
 10
-145.2073
 20
90.596
 30
0.0
 10
-144.3415
 20
92.37
 30
0.0
 10
-144.3415
 20
92.37
 30
0.0
 10
-144.0193
 20
93.0296
 30
0.0
 10
-143.7804
 20
93.7267
 30
0.0
 10
-143.6309
 20
94.446
 30
0.0
 10
-143.6309
 20
94.446
 30
0.0
 10
-143.479
 20
95.1739
 30
0.0
 10
-143.5193
 20
95.9287
 30
0.0
 10
-143.7477
 20
96.6369
 30
0.0
 10
-143.7477
 20
96.6369
 30
0.0
 10
-143.7477
 20
96.6369
 30
0.0
 10
-143.9683
 20
97.0479
 30
0.0
 10
-143.9683
 20
97.0479
 30
0.0
  0
SPLINE
  5
55
330
1F
100
AcDbEntity
  8
layer 1
 62
     7
370
     9
100
AcDbSpline
210
0.0
220
0.0
230
1.0
 70
    11
 71
     3
 72
    92
 73
    88
 74
     0
 42
0.0000000001
 43
0.0000000001
 12
1.0
 22
0.0
 32
0.0
 13
1.0
 23
0.0
 33
0.0
 40
0.0
 40
0.0
 40
0.0
 40
0.0
 40
0.0434782608695652
 40
0.0434782608695652
 40
0.0434782608695652
 40
0.0434782608695652
 40
0.0869565217391304
 40
0.0869565217391304
 40
0.0869565217391304
 40
0.0869565217391304
 40
0.1304347826086956
 40
0.1304347826086956
 40
0.1304347826086956
 40
0.1304347826086956
 40
0.1739130434782609
 40
0.1739130434782609
 40
0.1739130434782609
 40
0.1739130434782609
 40
0.2173913043478261
 40
0.2173913043478261
 40
0.2173913043478261
 40
0.2173913043478261
 40
0.2608695652173913
 40
0.2608695652173913
 40
0.2608695652173913
 40
0.2608695652173913
 40
0.3043478260869565
 40
0.3043478260869565
 40
0.3043478260869565
 40
0.3043478260869565
 40
0.3478260869565217
 40
0.3478260869565217
 40
0.3478260869565217
 40
0.3478260869565217
 40
0.391304347826087
 40
0.391304347826087
 40
0.391304347826087
 40
0.391304347826087
 40
0.4347826086956522
 40
0.4347826086956522
 40
0.4347826086956522
 40
0.4347826086956522
 40
0.4782608695652174
 40
0.4782608695652174
 40
0.4782608695652174
 40
0.4782608695652174
 40
0.5217391304347826
 40
0.5217391304347826
 40
0.5217391304347826
 40
0.5217391304347826
 40
0.5652173913043478
 40
0.5652173913043478
 40
0.5652173913043478
 40
0.5652173913043478
 40
0.6086956521739131
 40
0.6086956521739131
 40
0.6086956521739131
 40
0.6086956521739131
 40
0.6521739130434783
 40
0.6521739130434783
 40
0.6521739130434783
 40
0.6521739130434783
 40
0.6956521739130435
 40
0.6956521739130435
 40
0.6956521739130435
 40
0.6956521739130435
 40
0.7391304347826086
 40
0.7391304347826086
 40
0.7391304347826086
 40
0.7391304347826086
 40
0.782608695652174
 40
0.782608695652174
 40
0.782608695652174
 40
0.782608695652174
 40
0.8260869565217391
 40
0.8260869565217391
 40
0.8260869565217391
 40
0.8260869565217391
 40
0.8695652173913043
 40
0.8695652173913043
 40
0.8695652173913043
 40
0.8695652173913043
 40
0.9130434782608695
 40
0.9130434782608695
 40
0.9130434782608695
 40
0.9130434782608695
 40
1.0
 40
1.0
 40
1.0
 40
1.0
 10
-150.827
 20
126.1731
 30
0.0
 10
-154.2415
 20
125.2927
 30
0.0
 10
-156.7847
 20
122.4412
 30
0.0
 10
-157.2646
 20
118.948
 30
0.0
 10
-157.2646
 20
118.948
 30
0.0
 10
-157.5954
 20
116.5455
 30
0.0
 10
-157.7982
 20
114.1273
 30
0.0
 10
-157.8722
 20
111.7032
 30
0.0
 10
-157.8722
 20
111.7032
 30
0.0
 10
-157.9088
 20
110.2927
 30
0.0
 10
-158.0232
 20
108.8845
 30
0.0
 10
-158.2141
 20
107.4865
 30
0.0
 10
-158.2141
 20
107.4865
 30
0.0
 10
-158.4414
 20
105.8128
 30
0.0
 10
-159.3574
 20
104.3104
 30
0.0
 10
-160.7405
 20
103.3413
 30
0.0
 10
-160.7405
 20
103.3413
 30
0.0
 10
-162.1232
 20
102.3715
 30
0.0
 10
-163.8568
 20
102.0253
 30
0.0
 10
-165.5078
 20
102.3826
 30
0.0
 10
-165.5078
 20
102.3826
 30
0.0
 10
-166.4107
 20
102.5787
 30
0.0
 10
-167.2646
 20
102.9557
 30
0.0
 10
-168.0184
 20
103.4903
 30
0.0
 10
-168.0184
 20
103.4903
 30
0.0
 10
-168.7675
 20
104.0215
 30
0.0
 10
-169.4425
 20
104.6513
 30
0.0
 10
-170.0247
 20
105.3619
 30
0.0
 10
-170.0247
 20
105.3619
 30
0.0
 10
-170.3103
 20
105.7104
 30
0.0
 10
-170.4704
 20
106.146
 30
0.0
 10
-170.4785
 20
106.597
 30
0.0
 10
-170.4785
 20
106.597
 30
0.0
 10
-170.4862
 20
107.0446
 30
0.0
 10
-170.3627
 20
107.4854
 30
0.0
 10
-170.1232
 20
107.8638
 30
0.0
 10
-170.1232
 20
107.8638
 30
0.0
 10
-168.9012
 20
107.6364
 30
0.0
 10
-167.6684
 20
107.4739
 30
0.0
 10
-166.4295
 20
107.3768
 30
0.0
 10
-166.4295
 20
107.3768
 30
0.0
 10
-165.0651
 20
107.2705
 30
0.0
 10
-163.7829
 20
108.0355
 30
0.0
 10
-163.2313
 20
109.2879
 30
0.0
 10
-163.2313
 20
109.2879
 30
0.0
 10
-162.5342
 20
110.8691
 30
0.0
 10
-162.2867
 20
112.6114
 30
0.0
 10
-162.516
 20
114.3239
 30
0.0
 10
-162.516
 20
114.3239
 30
0.0
 10
-162.767
 20
116.1913
 30
0.0
 10
-164.2145
 20
117.6696
 30
0.0
 10
-166.0771
 20
117.9561
 30
0.0
 10
-166.0771
 20
117.9561
 30
0.0
 10
-166.7486
 20
118.0596
 30
0.0
 10
-167.4318
 20
118.0609
 30
0.0
 10
-168.104
 20
117.9599
 30
0.0
 10
-168.104
 20
117.9599
 30
0.0
 10
-169.1391
 20
117.8456
 30
0.0
 10
-170.0531
 20
117.2355
 30
0.0
 10
-170.5544
 20
116.3226
 30
0.0
 10
-170.5544
 20
116.3226
 30
0.0
 10
-171.029
 20
115.4581
 30
0.0
 10
-171.6073
 20
114.6551
 30
0.0
 10
-172.2761
 20
113.9307
 30
0.0
 10
-172.2761
 20
113.9307
 30
0.0
 10
-172.0804
 20
115.4389
 30
0.0
 10
-171.9833
 20
116.9581
 30
0.0
 10
-171.9847
 20
118.4788
 30
0.0
 10
-171.9847
 20
118.4788
 30
0.0
 10
-171.9862
 20
120.0148
 30
0.0
 10
-172.3102
 20
121.5331
 30
0.0
 10
-172.9357
 20
122.936
 30
0.0
 10
-172.9357
 20
122.936
 30
0.0
 10
-173.1963
 20
123.6086
 30
0.0
 10
-173.5775
 20
124.2268
 30
0.0
 10
-174.0612
 20
124.7614
 30
0.0
 10
-174.0612
 20
124.7614
 30
0.0
 10
-174.5424
 20
125.2936
 30
0.0
 10
-175.0843
 20
125.7672
 30
0.0
 10
-175.6762
 20
126.1731
 30
0.0
 10
-175.6762
 20
126.1731
 30
0.0
 10
-175.6762
 20
126.1731
 30
0.0
 10
-150.8275
 20
126.1731
 30
0.0
 10
-150.8275
 20
126.1731
 30
0.0
 10
-150.8275
 20
126.1731
 30
0.0
 10
-150.8275
 20
126.1731
 30
0.0
 10
-150.827
 20
126.1731
 30
0.0
 10
-150.827
 20
126.1731
 30
0.0
  0
SPLINE
  5
56
330
1F
100
AcDbEntity
  8
layer 1
 62
     7
370
     9
100
AcDbSpline
210
0.0
220
0.0
230
1.0
 70
    11
 71
     3
 72
    40
 73
    36
 74
     0
 42
0.0000000001
 43
0.0000000001
 12
1.0
 22
0.0
 32
0.0
 13
1.0
 23
0.0
 33
0.0
 40
0.0
 40
0.0
 40
0.0
 40
0.0
 40
0.1
 40
0.1
 40
0.1
 40
0.1
 40
0.2
 40
0.2
 40
0.2
 40
0.2
 40
0.3
 40
0.3
 40
0.3
 40
0.3
 40
0.4
 40
0.4
 40
0.4
 40
0.4
 40
0.5
 40
0.5
 40
0.5
 40
0.5
 40
0.6
 40
0.6
 40
0.6
 40
0.6
 40
0.7
 40
0.7
 40
0.7
 40
0.7
 40
0.8
 40
0.8
 40
0.8
 40
0.8
 40
1.0
 40
1.0
 40
1.0
 40
1.0
 10
-146.3741
 20
126.1731
 30
0.0
 10
-146.3741
 20
126.1731
 30
0.0
 10
-127.674
 20
126.1731
 30
0.0
 10
-127.674
 20
126.1731
 30
0.0
 10
-127.674
 20
126.1731
 30
0.0
 10
-128.1735
 20
126.0433
 30
0.0
 10
-128.6621
 20
125.8755
 30
0.0
 10
-129.1361
 20
125.6716
 30
0.0
 10
-129.1361
 20
125.6716
 30
0.0
 10
-130.6861
 20
124.973
 30
0.0
 10
-132.0856
 20
123.9798
 30
0.0
 10
-133.2568
 20
122.747
 30
0.0
 10
-133.2568
 20
122.747
 30
0.0
 10
-134.6692
 20
121.2172
 30
0.0
 10
-135.7683
 20
119.4269
 30
0.0
 10
-136.4938
 20
117.4748
 30
0.0
 10
-136.4938
 20
117.4748
 30
0.0
 10
-136.6981
 20
116.9234
 30
0.0
 10
-136.8751
 20
116.3624
 30
0.0
 10
-137.0241
 20
115.7937
 30
0.0
 10
-137.0241
 20
115.7937
 30
0.0
 10
-137.1727
 20
116.3624
 30
0.0
 10
-137.3496
 20
116.9234
 30
0.0
 10
-137.5544
 20
117.4748
 30
0.0
 10
-137.5544
 20
117.4748
 30
0.0
 10
-138.2798
 20
119.4269
 30
0.0
 10
-139.3789
 20
121.2172
 30
0.0
 10
-140.7915
 20
122.747
 30
0.0
 10
-140.7915
 20
122.747
 30
0.0
 10
-141.9625
 20
123.9798
 30
0.0
 10
-143.3616
 20
124.973
 30
0.0
 10
-144.9121
 20
125.6716
 30
0.0
 10
-144.9121
 20
125.6716
 30
0.0
 10
-145.3862
 20
125.8755
 30
0.0
 10
-145.8746
 20
126.0433
 30
0.0
 10
-146.3741
 20
126.1731
 30
0.0
  0
SPLINE
  5
57
330
1F
100
AcDbEntity
  8
layer 1
 62
     7
370
     9
100
AcDbSpline
210
0.0
220
0.0
230
1.0
 70
    11
 71
     3
 72
   120
 73
   116
 74
     0
 42
0.0000000001
 43
0.0000000001
 12
1.0
 22
0.0
 32
0.0
 13
1.0
 23
0.0
 33
0.0
 40
0.0
 40
0.0
 40
0.0
 40
0.0
 40
0.0333333333333333
 40
0.0333333333333333
 40
0.0333333333333333
 40
0.0333333333333333
 40
0.0666666666666667
 40
0.0666666666666667
 40
0.0666666666666667
 40
0.0666666666666667
 40
0.1
 40
0.1
 40
0.1
 40
0.1
 40
0.1333333333333333
 40
0.1333333333333333
 40
0.1333333333333333
 40
0.1333333333333333
 40
0.1666666666666667
 40
0.1666666666666667
 40
0.1666666666666667
 40
0.1666666666666667
 40
0.2
 40
0.2
 40
0.2
 40
0.2
 40
0.2333333333333333
 40
0.2333333333333333
 40
0.2333333333333333
 40
0.2333333333333333
 40
0.2666666666666667
 40
0.2666666666666667
 40
0.2666666666666667
 40
0.2666666666666667
 40
0.3
 40
0.3
 40
0.3
 40
0.3
 40
0.3333333333333333
 40
0.3333333333333333
 40
0.3333333333333333
 40
0.3333333333333333
 40
0.3666666666666666
 40
0.3666666666666666
 40
0.3666666666666666
 40
0.3666666666666666
 40
0.4
 40
0.4
 40
0.4
 40
0.4
 40
0.4333333333333333
 40
0.4333333333333333
 40
0.4333333333333333
 40
0.4333333333333333
 40
0.4666666666666667
 40
0.4666666666666667
 40
0.4666666666666667
 40
0.4666666666666667
 40
0.5
 40
0.5
 40
0.5
 40
0.5
 40
0.5333333333333333
 40
0.5333333333333333
 40
0.5333333333333333
 40
0.5333333333333333
 40
0.5666666666666667
 40
0.5666666666666667
 40
0.5666666666666667
 40
0.5666666666666667
 40
0.6
 40
0.6
 40
0.6
 40
0.6
 40
0.6333333333333333
 40
0.6333333333333333
 40
0.6333333333333333
 40
0.6333333333333333
 40
0.6666666666666666
 40
0.6666666666666666
 40
0.6666666666666666
 40
0.6666666666666666
 40
0.7
 40
0.7
 40
0.7
 40
0.7
 40
0.7333333333333333
 40
0.7333333333333333
 40
0.7333333333333333
 40
0.7333333333333333
 40
0.7666666666666667
 40
0.7666666666666667
 40
0.7666666666666667
 40
0.7666666666666667
 40
0.8
 40
0.8
 40
0.8
 40
0.8
 40
0.8333333333333334
 40
0.8333333333333334
 40
0.8333333333333334
 40
0.8333333333333334
 40
0.8666666666666667
 40
0.8666666666666667
 40
0.8666666666666667
 40
0.8666666666666667
 40
0.9
 40
0.9
 40
0.9
 40
0.9
 40
0.9333333333333333
 40
0.9333333333333333
 40
0.9333333333333333
 40
0.9333333333333333
 40
1.0
 40
1.0
 40
1.0
 40
1.0
 10
-99.8038
 20
108.5845
 30
0.0
 10
-99.6163
 20
108.3157
 30
0.0
 10
-99.4273
 20
108.0484
 30
0.0
 10
-99.2364
 20
107.7821
 30
0.0
 10
-99.2364
 20
107.7821
 30
0.0
 10
-97.5952
 20
105.4902
 30
0.0
 10
-97.0263
 20
102.598
 30
0.0
 10
-97.6759
 20
99.8552
 30
0.0
 10
-97.6759
 20
99.8552
 30
0.0
 10
-98.2129
 20
97.5878
 30
0.0
 10
-99.3514
 20
95.5066
 30
0.0
 10
-100.9706
 20
93.8306
 30
0.0
 10
-100.9706
 20
93.8306
 30
0.0
 10
-102.6201
 20
92.1233
 30
0.0
 10
-104.8677
 20
91.12
 30
0.0
 10
-107.2403
 20
91.0311
 30
0.0
 10
-107.2403
 20
91.0311
 30
0.0
 10
-106.8942
 20
91.5306
 30
0.0
 10
-106.698
 20
92.1185
 30
0.0
 10
-106.6749
 20
92.7258
 30
0.0
 10
-106.6749
 20
92.7258
 30
0.0
 10
-106.6336
 20
94.6878
 30
0.0
 10
-108.1548
 20
96.3273
 30
0.0
 10
-110.1144
 20
96.4272
 30
0.0
 10
-110.1144
 20
96.4272
 30
0.0
 10
-111.7976
 20
96.5137
 30
0.0
 10
-113.484
 20
96.5119
 30
0.0
 10
-115.1673
 20
96.4209
 30
0.0
 10
-115.1673
 20
96.4209
 30
0.0
 10
-117.4298
 20
96.2984
 30
0.0
 10
-119.6991
 20
96.4768
 30
0.0
 10
-121.9148
 20
96.9513
 30
0.0
 10
-121.9148
 20
96.9513
 30
0.0
 10
-124.1558
 20
97.4311
 30
0.0
 10
-126.2404
 20
98.4691
 30
0.0
 10
-127.9741
 20
99.9676
 30
0.0
 10
-127.9741
 20
99.9676
 30
0.0
 10
-130.8471
 20
102.5283
 30
0.0
 10
-132.6015
 20
106.1166
 30
0.0
 10
-132.8606
 20
109.9566
 30
0.0
 10
-132.8606
 20
109.9566
 30
0.0
 10
-133.1164
 20
113.7571
 30
0.0
 10
-132.0981
 20
117.5365
 30
0.0
 10
-129.9682
 20
120.6942
 30
0.0
 10
-129.9682
 20
120.6942
 30
0.0
 10
-129.2063
 20
121.8245
 30
0.0
 10
-128.0784
 20
122.6591
 30
0.0
 10
-126.7755
 20
123.0585
 30
0.0
 10
-126.7755
 20
123.0585
 30
0.0
 10
-125.4236
 20
123.473
 30
0.0
 10
-123.952
 20
123.1538
 30
0.0
 10
-122.8929
 20
122.2167
 30
0.0
 10
-122.8929
 20
122.2167
 30
0.0
 10
-121.8856
 20
121.325
 30
0.0
 10
-121.0269
 20
120.2777
 30
0.0
 10
-120.3505
 20
119.1149
 30
0.0
 10
-120.3505
 20
119.1149
 30
0.0
 10
-120.1519
 20
118.774
 30
0.0
 10
-120.0529
 20
118.384
 30
0.0
 10
-120.0649
 20
117.9893
 30
0.0
 10
-120.0649
 20
117.9893
 30
0.0
 10
-120.4856
 20
118.186
 30
0.0
 10
-120.9298
 20
118.3264
 30
0.0
 10
-121.3866
 20
118.4071
 30
0.0
 10
-121.3866
 20
118.4071
 30
0.0
 10
-121.8447
 20
118.4879
 30
0.0
 10
-122.3134
 20
118.4908
 30
0.0
 10
-122.7726
 20
118.4149
 30
0.0
 10
-122.7726
 20
118.4149
 30
0.0
 10
-123.8043
 20
118.2283
 30
0.0
 10
-124.7283
 20
117.6629
 30
0.0
 10
-125.364
 20
116.8292
 30
0.0
 10
-125.364
 20
116.8292
 30
0.0
 10
-126.2716
 20
115.6379
 30
0.0
 10
-126.5457
 20
114.0816
 30
0.0
 10
-126.0985
 20
112.6523
 30
0.0
 10
-126.0985
 20
112.6523
 30
0.0
 10
-125.6788
 20
111.3552
 30
0.0
 10
-124.6991
 20
110.3167
 30
0.0
 10
-123.4284
 20
109.824
 30
0.0
 10
-123.4284
 20
109.824
 30
0.0
 10
-122.1461
 20
109.3263
 30
0.0
 10
-120.7034
 20
109.4869
 30
0.0
 10
-119.5625
 20
110.2542
 30
0.0
 10
-119.5625
 20
110.2542
 30
0.0
 10
-119.8961
 20
108.2965
 30
0.0
 10
-119.7385
 20
106.2879
 30
0.0
 10
-119.1028
 20
104.4066
 30
0.0
 10
-119.1028
 20
104.4066
 30
0.0
 10
-118.4567
 20
102.4936
 30
0.0
 10
-117.1461
 20
100.8772
 30
0.0
 10
-115.4082
 20
99.8508
 30
0.0
 10
-115.4082
 20
99.8508
 30
0.0
 10
-113.9817
 20
99.0292
 30
0.0
 10
-112.3625
 20
98.6027
 30
0.0
 10
-110.7163
 20
98.6162
 30
0.0
 10
-110.7163
 20
98.6162
 30
0.0
 10
-109.088
 20
98.6292
 30
0.0
 10
-107.4735
 20
98.9114
 30
0.0
 10
-105.9374
 20
99.4513
 30
0.0
 10
-105.9374
 20
99.4513
 30
0.0
 10
-105.0423
 20
99.7662
 30
0.0
 10
-104.2086
 20
100.2335
 30
0.0
 10
-103.4725
 20
100.833
 30
0.0
 10
-103.4725
 20
100.833
 30
0.0
 10
-102.371
 20
101.8066
 30
0.0
 10
-101.5167
 20
103.0278
 30
0.0
 10
-100.9798
 20
104.3969
 30
0.0
 10
-100.9798
 20
104.3969
 30
0.0
 10
-100.449
 20
105.7504
 30
0.0
 10
-100.0552
 20
107.1527
 30
0.0
 10
-99.8038
 20
108.5845
 30
0.0
 10
-99.8038
 20
108.5845
 30
0.0
 10
-99.8038
 20
108.5845
 30
0.0
 10
-99.8038
 20
108.5845
 30
0.0
 10
-99.8038
 20
108.5845
 30
0.0
  0
SPLINE
  5
58
330
1F
100
AcDbEntity
  8
layer 1
 62
     7
370
     9
100
AcDbSpline
210
0.0
220
0.0
230
1.0
 70
    11
 71
     3
 72
    60
 73
    56
 74
     0
 42
0.0000000001
 43
0.0000000001
 12
1.0
 22
0.0
 32
0.0
 13
1.0
 23
0.0
 33
0.0
 40
0.0
 40
0.0
 40
0.0
 40
0.0
 40
0.0666666666666667
 40
0.0666666666666667
 40
0.0666666666666667
 40
0.0666666666666667
 40
0.1333333333333333
 40
0.1333333333333333
 40
0.1333333333333333
 40
0.1333333333333333
 40
0.2
 40
0.2
 40
0.2
 40
0.2
 40
0.2666666666666667
 40
0.2666666666666667
 40
0.2666666666666667
 40
0.2666666666666667
 40
0.3333333333333333
 40
0.3333333333333333
 40
0.3333333333333333
 40
0.3333333333333333
 40
0.4
 40
0.4
 40
0.4
 40
0.4
 40
0.4666666666666667
 40
0.4666666666666667
 40
0.4666666666666667
 40
0.4666666666666667
 40
0.5333333333333333
 40
0.5333333333333333
 40
0.5333333333333333
 40
0.5333333333333333
 40
0.6
 40
0.6
 40
0.6
 40
0.6
 40
0.6666666666666666
 40
0.6666666666666666
 40
0.6666666666666666
 40
0.6666666666666666
 40
0.7333333333333333
 40
0.7333333333333333
 40
0.7333333333333333
 40
0.7333333333333333
 40
0.8
 40
0.8
 40
0.8
 40
0.8
 40
0.8666666666666667
 40
0.8666666666666667
 40
0.8666666666666667
 40
0.8666666666666667
 40
1.0
 40
1.0
 40
1.0
 40
1.0
 10
-130.0798
 20
97.0479
 30
0.0
 10
-128.5717
 20
95.6479
 30
0.0
 10
-126.8418
 20
94.5079
 30
0.0
 10
-124.9602
 20
93.6748
 30
0.0
 10
-124.9602
 20
93.6748
 30
0.0
 10
-123.0639
 20
92.8353
 30
0.0
 10
-120.9957
 20
92.4618
 30
0.0
 10
-118.9264
 20
92.5854
 30
0.0
 10
-118.9264
 20
92.5854
 30
0.0
 10
-116.5745
 20
92.7253
 30
0.0
 10
-114.2269
 20
92.9272
 30
0.0
 10
-111.886
 20
93.1897
 30
0.0
 10
-111.886
 20
93.1897
 30
0.0
 10
-111.6263
 20
93.2191
 30
0.0
 10
-111.3673
 20
93.1296
 30
0.0
 10
-111.1803
 20
92.9469
 30
0.0
 10
-111.1803
 20
92.9469
 30
0.0
 10
-111.0581
 20
92.8277
 30
0.0
 10
-110.986
 20
92.6661
 30
0.0
 10
-110.9783
 20
92.4955
 30
0.0
 10
-110.9783
 20
92.4955
 30
0.0
 10
-110.9707
 20
92.3305
 30
0.0
 10
-110.9725
 20
92.1653
 30
0.0
 10
-110.9831
 20
92.0008
 30
0.0
 10
-110.9831
 20
92.0008
 30
0.0
 10
-111.1062
 20
90.2084
 30
0.0
 10
-112.1048
 20
88.5906
 30
0.0
 10
-113.6505
 20
87.6758
 30
0.0
 10
-113.6505
 20
87.6758
 30
0.0
 10
-115.7774
 20
86.4171
 30
0.0
 10
-118.1928
 20
85.7244
 30
0.0
 10
-120.6634
 20
85.6638
 30
0.0
 10
-120.6634
 20
85.6638
 30
0.0
 10
-122.6889
 20
85.6143
 30
0.0
 10
-124.6582
 20
86.3402
 30
0.0
 10
-126.1683
 20
87.6911
 30
0.0
 10
-126.1683
 20
87.6911
 30
0.0
 10
-127.6389
 20
89.0075
 30
0.0
 10
-128.8404
 20
90.5964
 30
0.0
 10
-129.7062
 20
92.37
 30
0.0
 10
-129.7062
 20
92.37
 30
0.0
 10
-130.0285
 20
93.0296
 30
0.0
 10
-130.2673
 20
93.7272
 30
0.0
 10
-130.4174
 20
94.446
 30
0.0
 10
-130.4174
 20
94.446
 30
0.0
 10
-130.5693
 20
95.1739
 30
0.0
 10
-130.5289
 20
95.9291
 30
0.0
 10
-130.3
 20
96.6369
 30
0.0
 10
-130.3
 20
96.6369
 30
0.0
 10
-130.3
 20
96.6369
 30
0.0
 10
-130.0798
 20
97.0479
 30
0.0
 10
-130.0798
 20
97.0479
 30
0.0
 10
-130.0798
 20
97.0479
 30
0.0
 10
-130.0798
 20
97.0479
 30
0.0
 10
-130.0798
 20
97.0479
 30
0.0
 10
-130.0798
 20
97.0479
 30
0.0
  0
SPLINE
  5
59
330
1F
100
AcDbEntity
  8
layer 1
 62
     7
370
     9
100
AcDbSpline
210
0.0
220
0.0
230
1.0
 70
    11
 71
     3
 72
    92
 73
    88
 74
     0
 42
0.0000000001
 43
0.0000000001
 12
1.0
 22
0.0
 32
0.0
 13
1.0
 23
0.0
 33
0.0
 40
0.0
 40
0.0
 40
0.0
 40
0.0
 40
0.0434782608695652
 40
0.0434782608695652
 40
0.0434782608695652
 40
0.0434782608695652
 40
0.0869565217391304
 40
0.0869565217391304
 40
0.0869565217391304
 40
0.0869565217391304
 40
0.1304347826086956
 40
0.1304347826086956
 40
0.1304347826086956
 40
0.1304347826086956
 40
0.1739130434782609
 40
0.1739130434782609
 40
0.1739130434782609
 40
0.1739130434782609
 40
0.2173913043478261
 40
0.2173913043478261
 40
0.2173913043478261
 40
0.2173913043478261
 40
0.2608695652173913
 40
0.2608695652173913
 40
0.2608695652173913
 40
0.2608695652173913
 40
0.3043478260869565
 40
0.3043478260869565
 40
0.3043478260869565
 40
0.3043478260869565
 40
0.3478260869565217
 40
0.3478260869565217
 40
0.3478260869565217
 40
0.3478260869565217
 40
0.391304347826087
 40
0.391304347826087
 40
0.391304347826087
 40
0.391304347826087
 40
0.4347826086956522
 40
0.4347826086956522
 40
0.4347826086956522
 40
0.4347826086956522
 40
0.4782608695652174
 40
0.4782608695652174
 40
0.4782608695652174
 40
0.4782608695652174
 40
0.5217391304347826
 40
0.5217391304347826
 40
0.5217391304347826
 40
0.5217391304347826
 40
0.5652173913043478
 40
0.5652173913043478
 40
0.5652173913043478
 40
0.5652173913043478
 40
0.6086956521739131
 40
0.6086956521739131
 40
0.6086956521739131
 40
0.6086956521739131
 40
0.6521739130434783
 40
0.6521739130434783
 40
0.6521739130434783
 40
0.6521739130434783
 40
0.6956521739130435
 40
0.6956521739130435
 40
0.6956521739130435
 40
0.6956521739130435
 40
0.7391304347826086
 40
0.7391304347826086
 40
0.7391304347826086
 40
0.7391304347826086
 40
0.782608695652174
 40
0.782608695652174
 40
0.782608695652174
 40
0.782608695652174
 40
0.8260869565217391
 40
0.8260869565217391
 40
0.8260869565217391
 40
0.8260869565217391
 40
0.8695652173913043
 40
0.8695652173913043
 40
0.8695652173913043
 40
0.8695652173913043
 40
0.9130434782608695
 40
0.9130434782608695
 40
0.9130434782608695
 40
0.9130434782608695
 40
1.0
 40
1.0
 40
1.0
 40
1.0
 10
-123.2206
 20
126.1731
 30
0.0
 10
-119.8086
 20
125.2956
 30
0.0
 10
-117.2648
 20
122.4379
 30
0.0
 10
-116.7837
 20
118.948
 30
0.0
 10
-116.7837
 20
118.948
 30
0.0
 10
-116.4529
 20
116.5455
 30
0.0
 10
-116.25
 20
114.1268
 30
0.0
 10
-116.1759
 20
111.7032
 30
0.0
 10
-116.1759
 20
111.7032
 30
0.0
 10
-116.1389
 20
110.2921
 30
0.0
 10
-116.0249
 20
108.885
 30
0.0
 10
-115.8336
 20
107.4865
 30
0.0
 10
-115.8336
 20
107.4865
 30
0.0
 10
-115.6039
 20
105.811
 30
0.0
 10
-114.6846
 20
104.3075
 30
0.0
 10
-113.298
 20
103.3393
 30
0.0
 10
-113.298
 20
103.3393
 30
0.0
 10
-111.912
 20
102.3705
 30
0.0
 10
-110.1927
 20
102.0225
 30
0.0
 10
-108.5404
 20
102.3826
 30
0.0
 10
-108.5404
 20
102.3826
 30
0.0
 10
-107.6374
 20
102.5787
 30
0.0
 10
-106.7837
 20
102.9551
 30
0.0
 10
-106.0298
 20
103.4897
 30
0.0
 10
-106.0298
 20
103.4897
 30
0.0
 10
-105.2802
 20
104.0215
 30
0.0
 10
-104.6057
 20
104.6509
 30
0.0
 10
-104.0235
 20
105.3619
 30
0.0
 10
-104.0235
 20
105.3619
 30
0.0
 10
-103.7374
 20
105.7109
 30
0.0
 10
-103.5773
 20
106.1455
 30
0.0
 10
-103.5696
 20
106.597
 30
0.0
 10
-103.5696
 20
106.597
 30
0.0
 10
-103.5614
 20
107.045
 30
0.0
 10
-103.685
 20
107.485
 30
0.0
 10
-103.9249
 20
107.8638
 30
0.0
 10
-103.9249
 20
107.8638
 30
0.0
 10
-105.1465
 20
107.6364
 30
0.0
 10
-106.3798
 20
107.4739
 30
0.0
 10
-107.6188
 20
107.3768
 30
0.0
 10
-107.6188
 20
107.3768
 30
0.0
 10
-108.9817
 20
107.2696
 30
0.0
 10
-110.2649
 20
108.0369
 30
0.0
 10
-110.8168
 20
109.2879
 30
0.0
 10
-110.8168
 20
109.2879
 30
0.0
 10
-111.5139
 20
110.8687
 30
0.0
 10
-111.761
 20
112.6119
 30
0.0
 10
-111.5317
 20
114.3239
 30
0.0
 10
-111.5317
 20
114.3239
 30
0.0
 10
-111.2827
 20
116.1898
 30
0.0
 10
-109.8312
 20
117.6687
 30
0.0
 10
-107.9711
 20
117.9561
 30
0.0
 10
-107.9711
 20
117.9561
 30
0.0
 10
-107.2995
 20
118.0596
 30
0.0
 10
-106.6159
 20
118.0609
 30
0.0
 10
-105.9437
 20
117.9599
 30
0.0
 10
-105.9437
 20
117.9599
 30
0.0
 10
-104.9095
 20
117.846
 30
0.0
 10
-103.9947
 20
117.2345
 30
0.0
 10
-103.4937
 20
116.3226
 30
0.0
 10
-103.4937
 20
116.3226
 30
0.0
 10
-103.0186
 20
115.4581
 30
0.0
 10
-102.4408
 20
114.6551
 30
0.0
 10
-101.772
 20
113.9307
 30
0.0
 10
-101.772
 20
113.9307
 30
0.0
 10
-101.9672
 20
115.4389
 30
0.0
 10
-102.0648
 20
116.9581
 30
0.0
 10
-102.0628
 20
118.4788
 30
0.0
 10
-102.0628
 20
118.4788
 30
0.0
 10
-102.0615
 20
120.0143
 30
0.0
 10
-101.7375
 20
121.5336
 30
0.0
 10
-101.112
 20
122.936
 30
0.0
 10
-101.112
 20
122.936
 30
0.0
 10
-100.8518
 20
123.6081
 30
0.0
 10
-100.4701
 20
124.2274
 30
0.0
 10
-99.9864
 20
124.7614
 30
0.0
 10
-99.9864
 20
124.7614
 30
0.0
 10
-99.5057
 20
125.2936
 30
0.0
 10
-98.9634
 20
125.7672
 30
0.0
 10
-98.3715
 20
126.1731
 30
0.0
 10
-98.3715
 20
126.1731
 30
0.0
 10
-98.3715
 20
126.1731
 30
0.0
 10
-123.2202
 20
126.1731
 30
0.0
 10
-123.2202
 20
126.1731
 30
0.0
 10
-123.2202
 20
126.1731
 30
0.0
 10
-123.2202
 20
126.1731
 30
0.0
 10
-123.2206
 20
126.1731
 30
0.0
 10
-123.2206
 20
126.1731
 30
0.0
  0
SPLINE
  5
5A
330
1F
100
AcDbEntity
  8
layer 1
 62
     7
370
     9
100
AcDbSpline
210
0.0
220
0.0
230
1.0
 70
    11
 71
     3
 72
   120
 73
   116
 74
     0
 42
0.0000000001
 43
0.0000000001
 12
1.0
 22
0.0
 32
0.0
 13
1.0
 23
0.0
 33
0.0
 40
0.0
 40
0.0
 40
0.0
 40
0.0
 40
0.0333333333333333
 40
0.0333333333333333
 40
0.0333333333333333
 40
0.0333333333333333
 40
0.0666666666666667
 40
0.0666666666666667
 40
0.0666666666666667
 40
0.0666666666666667
 40
0.1
 40
0.1
 40
0.1
 40
0.1
 40
0.1333333333333333
 40
0.1333333333333333
 40
0.1333333333333333
 40
0.1333333333333333
 40
0.1666666666666667
 40
0.1666666666666667
 40
0.1666666666666667
 40
0.1666666666666667
 40
0.2
 40
0.2
 40
0.2
 40
0.2
 40
0.2333333333333333
 40
0.2333333333333333
 40
0.2333333333333333
 40
0.2333333333333333
 40
0.2666666666666667
 40
0.2666666666666667
 40
0.2666666666666667
 40
0.2666666666666667
 40
0.3
 40
0.3
 40
0.3
 40
0.3
 40
0.3333333333333333
 40
0.3333333333333333
 40
0.3333333333333333
 40
0.3333333333333333
 40
0.3666666666666666
 40
0.3666666666666666
 40
0.3666666666666666
 40
0.3666666666666666
 40
0.4
 40
0.4
 40
0.4
 40
0.4
 40
0.4333333333333333
 40
0.4333333333333333
 40
0.4333333333333333
 40
0.4333333333333333
 40
0.4666666666666667
 40
0.4666666666666667
 40
0.4666666666666667
 40
0.4666666666666667
 40
0.5
 40
0.5
 40
0.5
 40
0.5
 40
0.5333333333333333
 40
0.5333333333333333
 40
0.5333333333333333
 40
0.5333333333333333
 40
0.5666666666666667
 40
0.5666666666666667
 40
0.5666666666666667
 40
0.5666666666666667
 40
0.6
 40
0.6
 40
0.6
 40
0.6
 40
0.6333333333333333
 40
0.6333333333333333
 40
0.6333333333333333
 40
0.6333333333333333
 40
0.6666666666666666
 40
0.6666666666666666
 40
0.6666666666666666
 40
0.6666666666666666
 40
0.7
 40
0.7
 40
0.7
 40
0.7
 40
0.7333333333333333
 40
0.7333333333333333
 40
0.7333333333333333
 40
0.7333333333333333
 40
0.7666666666666667
 40
0.7666666666666667
 40
0.7666666666666667
 40
0.7666666666666667
 40
0.8
 40
0.8
 40
0.8
 40
0.8
 40
0.8333333333333334
 40
0.8333333333333334
 40
0.8333333333333334
 40
0.8333333333333334
 40
0.8666666666666667
 40
0.8666666666666667
 40
0.8666666666666667
 40
0.8666666666666667
 40
0.9
 40
0.9
 40
0.9
 40
0.9
 40
0.9333333333333333
 40
0.9333333333333333
 40
0.9333333333333333
 40
0.9333333333333333
 40
1.0
 40
1.0
 40
1.0
 40
1.0
 10
-174.2444
 20
-37.8886
 30
0.0
 10
-174.4319
 20
-37.6199
 30
0.0
 10
-174.6209
 20
-37.3522
 30
0.0
 10
-174.8117
 20
-37.0858
 30
0.0
 10
-174.8117
 20
-37.0858
 30
0.0
 10
-176.4531
 20
-34.7939
 30
0.0
 10
-177.0218
 20
-31.9016
 30
0.0
 10
-176.3723
 20
-29.1588
 30
0.0
 10
-176.3723
 20
-29.1588
 30
0.0
 10
-175.8348
 20
-26.8915
 30
0.0
 10
-174.6963
 20
-24.8098
 30
0.0
 10
-173.0776
 20
-23.1343
 30
0.0
 10
-173.0776
 20
-23.1343
 30
0.0
 10
-171.428
 20
-21.427
 30
0.0
 10
-169.1805
 20
-20.4237
 30
0.0
 10
-166.8078
 20
-20.3347
 30
0.0
 10
-166.8078
 20
-20.3347
 30
0.0
 10
-167.154
 20
-20.8342
 30
0.0
 10
-167.3502
 20
-21.4223
 30
0.0
 10
-167.3732
 20
-22.0295
 30
0.0
 10
-167.3732
 20
-22.0295
 30
0.0
 10
-167.4141
 20
-23.9915
 30
0.0
 10
-165.8929
 20
-25.6305
 30
0.0
 10
-163.9333
 20
-25.7305
 30
0.0
 10
-163.9333
 20
-25.7305
 30
0.0
 10
-162.2501
 20
-25.8174
 30
0.0
 10
-160.5635
 20
-25.8156
 30
0.0
 10
-158.8809
 20
-25.7241
 30
0.0
 10
-158.8809
 20
-25.7241
 30
0.0
 10
-156.6184
 20
-25.6021
 30
0.0
 10
-154.3486
 20
-25.7804
 30
0.0
 10
-152.1327
 20
-26.2549
 30
0.0
 10
-152.1327
 20
-26.2549
 30
0.0
 10
-149.892
 20
-26.7343
 30
0.0
 10
-147.8073
 20
-27.7723
 30
0.0
 10
-146.0736
 20
-29.2714
 30
0.0
 10
-146.0736
 20
-29.2714
 30
0.0
 10
-143.2011
 20
-31.8324
 30
0.0
 10
-141.4467
 20
-35.4209
 30
0.0
 10
-141.1875
 20
-39.2608
 30
0.0
 10
-141.1875
 20
-39.2608
 30
0.0
 10
-140.9313
 20
-43.0608
 30
0.0
 10
-141.9501
 20
-46.8406
 30
0.0
 10
-144.0799
 20
-49.9983
 30
0.0
 10
-144.0799
 20
-49.9983
 30
0.0
 10
-144.8419
 20
-51.1281
 30
0.0
 10
-145.9693
 20
-51.9628
 30
0.0
 10
-147.2727
 20
-52.3623
 30
0.0
 10
-147.2727
 20
-52.3623
 30
0.0
 10
-148.6246
 20
-52.7772
 30
0.0
 10
-150.0957
 20
-52.4574
 30
0.0
 10
-151.1549
 20
-51.5204
 30
0.0
 10
-151.1549
 20
-51.5204
 30
0.0
 10
-152.1626
 20
-50.6291
 30
0.0
 10
-153.0208
 20
-49.5815
 30
0.0
 10
-153.6977
 20
-48.4185
 30
0.0
 10
-153.6977
 20
-48.4185
 30
0.0
 10
-153.8962
 20
-48.0776
 30
0.0
 10
-153.9948
 20
-47.6878
 30
0.0
 10
-153.9828
 20
-47.2934
 30
0.0
 10
-153.9828
 20
-47.2934
 30
0.0
 10
-153.5626
 20
-47.4901
 30
0.0
 10
-153.1184
 20
-47.6305
 30
0.0
 10
-152.6611
 20
-47.7113
 30
0.0
 10
-152.6611
 20
-47.7113
 30
0.0
 10
-152.203
 20
-47.792
 30
0.0
 10
-151.7347
 20
-47.7944
 30
0.0
 10
-151.2755
 20
-47.719
 30
0.0
 10
-151.2755
 20
-47.719
 30
0.0
 10
-150.2438
 20
-47.5324
 30
0.0
 10
-149.3198
 20
-46.967
 30
0.0
 10
-148.6842
 20
-46.1334
 30
0.0
 10
-148.6842
 20
-46.1334
 30
0.0
 10
-147.7761
 20
-44.942
 30
0.0
 10
-147.502
 20
-43.3858
 30
0.0
 10
-147.9496
 20
-41.956
 30
0.0
 10
-147.9496
 20
-41.956
 30
0.0
 10
-148.3689
 20
-40.6593
 30
0.0
 10
-149.3492
 20
-39.6209
 30
0.0
 10
-150.6197
 20
-39.1281
 30
0.0
 10
-150.6197
 20
-39.1281
 30
0.0
 10
-151.9016
 20
-38.6309
 30
0.0
 10
-153.3443
 20
-38.7911
 30
0.0
 10
-154.4857
 20
-39.5584
 30
0.0
 10
-154.4857
 20
-39.5584
 30
0.0
 10
-154.152
 20
-37.6007
 30
0.0
 10
-154.3097
 20
-35.592
 30
0.0
 10
-154.9453
 20
-33.7103
 30
0.0
 10
-154.9453
 20
-33.7103
 30
0.0
 10
-155.5914
 20
-31.7977
 30
0.0
 10
-156.9016
 20
-30.1814
 30
0.0
 10
-158.6401
 20
-29.1545
 30
0.0
 10
-158.6401
 20
-29.1545
 30
0.0
 10
-160.0665
 20
-28.3324
 30
0.0
 10
-161.6856
 20
-27.9059
 30
0.0
 10
-163.3319
 20
-27.9194
 30
0.0
 10
-163.3319
 20
-27.9194
 30
0.0
 10
-164.9603
 20
-27.9324
 30
0.0
 10
-166.5746
 20
-28.215
 30
0.0
 10
-168.1107
 20
-28.755
 30
0.0
 10
-168.1107
 20
-28.755
 30
0.0
 10
-169.006
 20
-29.0698
 30
0.0
 10
-169.8396
 20
-29.5372
 30
0.0
 10
-170.5752
 20
-30.1368
 30
0.0
 10
-170.5752
 20
-30.1368
 30
0.0
 10
-171.6771
 20
-31.1108
 30
0.0
 10
-172.5314
 20
-32.3319
 30
0.0
 10
-173.0685
 20
-33.7012
 30
0.0
 10
-173.0685
 20
-33.7012
 30
0.0
 10
-173.5992
 20
-35.0541
 30
0.0
 10
-173.993
 20
-36.457
 30
0.0
 10
-174.2444
 20
-37.8886
 30
0.0
 10
-174.2444
 20
-37.8886
 30
0.0
 10
-174.2444
 20
-37.8886
 30
0.0
 10
-174.2444
 20
-37.8886
 30
0.0
 10
-174.2444
 20
-37.8886
 30
0.0
  0
SPLINE
  5
5B
330
1F
100
AcDbEntity
  8
layer 1
 62
     7
370
     9
100
AcDbSpline
210
0.0
220
0.0
230
1.0
 70
    11
 71
     3
 72
    56
 73
    52
 74
     0
 42
0.0000000001
 43
0.0000000001
 12
1.0
 22
0.0
 32
0.0
 13
1.0
 23
0.0
 33
0.0
 40
0.0
 40
0.0
 40
0.0
 40
0.0
 40
0.0714285714285714
 40
0.0714285714285714
 40
0.0714285714285714
 40
0.0714285714285714
 40
0.1428571428571428
 40
0.1428571428571428
 40
0.1428571428571428
 40
0.1428571428571428
 40
0.2142857142857143
 40
0.2142857142857143
 40
0.2142857142857143
 40
0.2142857142857143
 40
0.2857142857142857
 40
0.2857142857142857
 40
0.2857142857142857
 40
0.2857142857142857
 40
0.3571428571428572
 40
0.3571428571428572
 40
0.3571428571428572
 40
0.3571428571428572
 40
0.4285714285714285
 40
0.4285714285714285
 40
0.4285714285714285
 40
0.4285714285714285
 40
0.5
 40
0.5
 40
0.5
 40
0.5
 40
0.5714285714285714
 40
0.5714285714285714
 40
0.5714285714285714
 40
0.5714285714285714
 40
0.6428571428571429
 40
0.6428571428571429
 40
0.6428571428571429
 40
0.6428571428571429
 40
0.7142857142857143
 40
0.7142857142857143
 40
0.7142857142857143
 40
0.7142857142857143
 40
0.7857142857142857
 40
0.7857142857142857
 40
0.7857142857142857
 40
0.7857142857142857
 40
0.8571428571428571
 40
0.8571428571428571
 40
0.8571428571428571
 40
0.8571428571428571
 40
1.0
 40
1.0
 40
1.0
 40
1.0
 10
-143.9683
 20
-26.3516
 30
0.0
 10
-145.4766
 20
-24.9511
 30
0.0
 10
-147.2059
 20
-23.8113
 30
0.0
 10
-149.0881
 20
-22.978
 30
0.0
 10
-149.0881
 20
-22.978
 30
0.0
 10
-150.9838
 20
-22.1385
 30
0.0
 10
-153.052
 20
-21.765
 30
0.0
 10
-155.1217
 20
-21.8886
 30
0.0
 10
-155.1217
 20
-21.8886
 30
0.0
 10
-157.4727
 20
-22.029
 30
0.0
 10
-159.8193
 20
-22.2309
 30
0.0
 10
-162.1598
 20
-22.4944
 30
0.0
 10
-162.1598
 20
-22.4944
 30
0.0
 10
-162.4203
 20
-22.5237
 30
0.0
 10
-162.6805
 20
-22.4343
 30
0.0
 10
-162.868
 20
-22.2506
 30
0.0
 10
-162.868
 20
-22.2506
 30
0.0
 10
-162.9901
 20
-22.1314
 30
0.0
 10
-163.0622
 20
-21.9698
 30
0.0
 10
-163.0699
 20
-21.7991
 30
0.0
 10
-163.0699
 20
-21.7991
 30
0.0
 10
-163.077
 20
-21.6343
 30
0.0
 10
-163.0756
 20
-21.4688
 30
0.0
 10
-163.065
 20
-21.3045
 30
0.0
 10
-163.065
 20
-21.3045
 30
0.0
 10
-162.941
 20
-19.5107
 30
0.0
 10
-161.941
 20
-17.892
 30
0.0
 10
-160.3939
 20
-16.9766
 30
0.0
 10
-160.3939
 20
-16.9766
 30
0.0
 10
-158.2674
 20
-15.7193
 30
0.0
 10
-155.854
 20
-15.0276
 30
0.0
 10
-153.3847
 20
-14.9675
 30
0.0
 10
-153.3847
 20
-14.9675
 30
0.0
 10
-151.3592
 20
-14.9184
 30
0.0
 10
-149.39
 20
-15.6439
 30
0.0
 10
-147.8798
 20
-16.9948
 30
0.0
 10
-147.8798
 20
-16.9948
 30
0.0
 10
-146.4092
 20
-18.3107
 30
0.0
 10
-145.2073
 20
-19.9001
 30
0.0
 10
-144.3415
 20
-21.6737
 30
0.0
 10
-144.3415
 20
-21.6737
 30
0.0
 10
-144.0193
 20
-22.3333
 30
0.0
 10
-143.7804
 20
-23.0304
 30
0.0
 10
-143.6309
 20
-23.7492
 30
0.0
 10
-143.6309
 20
-23.7492
 30
0.0
 10
-143.479
 20
-24.4771
 30
0.0
 10
-143.5193
 20
-25.2324
 30
0.0
 10
-143.7477
 20
-25.9401
 30
0.0
 10
-143.7477
 20
-25.9401
 30
0.0
 10
-143.7477
 20
-25.9401
 30
0.0
 10
-143.9683
 20
-26.3516
 30
0.0
 10
-143.9683
 20
-26.3516
 30
0.0
  0
SPLINE
  5
5C
330
1F
100
AcDbEntity
  8
layer 1
 62
     7
370
     9
100
AcDbSpline
210
0.0
220
0.0
230
1.0
 70
    11
 71
     3
 72
   168
 73
   164
 74
     0
 42
0.0000000001
 43
0.0000000001
 12
1.0
 22
0.0
 32
0.0
 13
1.0
 23
0.0
 33
0.0
 40
0.0
 40
0.0
 40
0.0
 40
0.0
 40
0.0238095238095238
 40
0.0238095238095238
 40
0.0238095238095238
 40
0.0238095238095238
 40
0.0476190476190476
 40
0.0476190476190476
 40
0.0476190476190476
 40
0.0476190476190476
 40
0.0714285714285714
 40
0.0714285714285714
 40
0.0714285714285714
 40
0.0714285714285714
 40
0.0952380952380952
 40
0.0952380952380952
 40
0.0952380952380952
 40
0.0952380952380952
 40
0.119047619047619
 40
0.119047619047619
 40
0.119047619047619
 40
0.119047619047619
 40
0.1428571428571428
 40
0.1428571428571428
 40
0.1428571428571428
 40
0.1428571428571428
 40
0.1666666666666667
 40
0.1666666666666667
 40
0.1666666666666667
 40
0.1666666666666667
 40
0.1904761904761905
 40
0.1904761904761905
 40
0.1904761904761905
 40
0.1904761904761905
 40
0.2142857142857143
 40
0.2142857142857143
 40
0.2142857142857143
 40
0.2142857142857143
 40
0.2380952380952381
 40
0.2380952380952381
 40
0.2380952380952381
 40
0.2380952380952381
 40
0.2619047619047619
 40
0.2619047619047619
 40
0.2619047619047619
 40
0.2619047619047619
 40
0.2857142857142857
 40
0.2857142857142857
 40
0.2857142857142857
 40
0.2857142857142857
 40
0.3095238095238095
 40
0.3095238095238095
 40
0.3095238095238095
 40
0.3095238095238095
 40
0.3333333333333333
 40
0.3333333333333333
 40
0.3333333333333333
 40
0.3333333333333333
 40
0.3571428571428572
 40
0.3571428571428572
 40
0.3571428571428572
 40
0.3571428571428572
 40
0.3809523809523809
 40
0.3809523809523809
 40
0.3809523809523809
 40
0.3809523809523809
 40
0.4047619047619048
 40
0.4047619047619048
 40
0.4047619047619048
 40
0.4047619047619048
 40
0.4285714285714285
 40
0.4285714285714285
 40
0.4285714285714285
 40
0.4285714285714285
 40
0.4523809523809524
 40
0.4523809523809524
 40
0.4523809523809524
 40
0.4523809523809524
 40
0.4761904761904762
 40
0.4761904761904762
 40
0.4761904761904762
 40
0.4761904761904762
 40
0.5
 40
0.5
 40
0.5
 40
0.5
 40
0.5238095238095238
 40
0.5238095238095238
 40
0.5238095238095238
 40
0.5238095238095238
 40
0.5476190476190477
 40
0.5476190476190477
 40
0.5476190476190477
 40
0.5476190476190477
 40
0.5714285714285714
 40
0.5714285714285714
 40
0.5714285714285714
 40
0.5714285714285714
 40
0.5952380952380952
 40
0.5952380952380952
 40
0.5952380952380952
 40
0.5952380952380952
 40
0.6190476190476191
 40
0.6190476190476191
 40
0.6190476190476191
 40
0.6190476190476191
 40
0.6428571428571429
 40
0.6428571428571429
 40
0.6428571428571429
 40
0.6428571428571429
 40
0.6666666666666666
 40
0.6666666666666666
 40
0.6666666666666666
 40
0.6666666666666666
 40
0.6904761904761905
 40
0.6904761904761905
 40
0.6904761904761905
 40
0.6904761904761905
 40
0.7142857142857143
 40
0.7142857142857143
 40
0.7142857142857143
 40
0.7142857142857143
 40
0.7380952380952381
 40
0.7380952380952381
 40
0.7380952380952381
 40
0.7380952380952381
 40
0.7619047619047619
 40
0.7619047619047619
 40
0.7619047619047619
 40
0.7619047619047619
 40
0.7857142857142857
 40
0.7857142857142857
 40
0.7857142857142857
 40
0.7857142857142857
 40
0.8095238095238095
 40
0.8095238095238095
 40
0.8095238095238095
 40
0.8095238095238095
 40
0.8333333333333334
 40
0.8333333333333334
 40
0.8333333333333334
 40
0.8333333333333334
 40
0.8571428571428571
 40
0.8571428571428571
 40
0.8571428571428571
 40
0.8571428571428571
 40
0.8809523809523809
 40
0.8809523809523809
 40
0.8809523809523809
 40
0.8809523809523809
 40
0.9047619047619048
 40
0.9047619047619048
 40
0.9047619047619048
 40
0.9047619047619048
 40
0.9285714285714286
 40
0.9285714285714286
 40
0.9285714285714286
 40
0.9285714285714286
 40
0.9523809523809523
 40
0.9523809523809523
 40
0.9523809523809523
 40
0.9523809523809523
 40
1.0
 40
1.0
 40
1.0
 40
1.0
 10
-150.827
 20
-55.4772
 30
0.0
 10
-154.2391
 20
-54.5997
 30
0.0
 10
-156.7833
 20
-51.7421
 30
0.0
 10
-157.2646
 20
-48.2521
 30
0.0
 10
-157.2646
 20
-48.2521
 30
0.0
 10
-157.5954
 20
-45.8498
 30
0.0
 10
-157.7982
 20
-43.431
 30
0.0
 10
-157.8722
 20
-41.0074
 30
0.0
 10
-157.8722
 20
-41.0074
 30
0.0
 10
-157.9088
 20
-39.5964
 30
0.0
 10
-158.0232
 20
-38.1887
 30
0.0
 10
-158.2141
 20
-36.7906
 30
0.0
 10
-158.2141
 20
-36.7906
 30
0.0
 10
-158.4444
 20
-35.1151
 30
0.0
 10
-159.3636
 20
-33.6117
 30
0.0
 10
-160.7501
 20
-32.643
 30
0.0
 10
-160.7501
 20
-32.643
 30
0.0
 10
-162.1362
 20
-31.6746
 30
0.0
 10
-163.8554
 20
-31.3266
 30
0.0
 10
-165.5078
 20
-31.6867
 30
0.0
 10
-165.5078
 20
-31.6867
 30
0.0
 10
-166.4107
 20
-31.8829
 30
0.0
 10
-167.2646
 20
-32.2593
 30
0.0
 10
-168.0184
 20
-32.794
 30
0.0
 10
-168.0184
 20
-32.794
 30
0.0
 10
-168.7679
 20
-33.3257
 30
0.0
 10
-169.4425
 20
-33.955
 30
0.0
 10
-170.0247
 20
-34.6661
 30
0.0
 10
-170.0247
 20
-34.6661
 30
0.0
 10
-170.3107
 20
-35.015
 30
0.0
 10
-170.4704
 20
-35.4497
 30
0.0
 10
-170.4785
 20
-35.9007
 30
0.0
 10
-170.4785
 20
-35.9007
 30
0.0
 10
-170.4867
 20
-36.3487
 30
0.0
 10
-170.3631
 20
-36.7891
 30
0.0
 10
-170.1232
 20
-37.1674
 30
0.0
 10
-170.1232
 20
-37.1674
 30
0.0
 10
-168.9016
 20
-36.9406
 30
0.0
 10
-167.6684
 20
-36.7781
 30
0.0
 10
-166.4295
 20
-36.681
 30
0.0
 10
-166.4295
 20
-36.681
 30
0.0
 10
-165.0665
 20
-36.5737
 30
0.0
 10
-163.7833
 20
-37.341
 30
0.0
 10
-163.2313
 20
-38.592
 30
0.0
 10
-163.2313
 20
-38.592
 30
0.0
 10
-162.5342
 20
-40.1728
 30
0.0
 10
-162.2867
 20
-41.916
 30
0.0
 10
-162.516
 20
-43.6281
 30
0.0
 10
-162.516
 20
-43.6281
 30
0.0
 10
-162.765
 20
-45.494
 30
0.0
 10
-164.2165
 20
-46.9728
 30
0.0
 10
-166.0771
 20
-47.2604
 30
0.0
 10
-166.0771
 20
-47.2604
 30
0.0
 10
-166.7486
 20
-47.3637
 30
0.0
 10
-167.4324
 20
-47.3652
 30
0.0
 10
-168.104
 20
-47.2642
 30
0.0
 10
-168.104
 20
-47.2642
 30
0.0
 10
-169.1386
 20
-47.1503
 30
0.0
 10
-170.0531
 20
-46.5387
 30
0.0
 10
-170.5544
 20
-45.6267
 30
0.0
 10
-170.5544
 20
-45.6267
 30
0.0
 10
-171.029
 20
-44.7622
 30
0.0
 10
-171.6069
 20
-43.9594
 30
0.0
 10
-172.2761
 20
-43.2348
 30
0.0
 10
-172.2761
 20
-43.2348
 30
0.0
 10
-172.0804
 20
-44.743
 30
0.0
 10
-171.9833
 20
-46.2622
 30
0.0
 10
-171.9847
 20
-47.7829
 30
0.0
 10
-171.9847
 20
-47.7829
 30
0.0
 10
-171.9862
 20
-49.3185
 30
0.0
 10
-172.3102
 20
-50.8378
 30
0.0
 10
-172.9357
 20
-52.2401
 30
0.0
 10
-172.9357
 20
-52.2401
 30
0.0
 10
-173.1963
 20
-52.9123
 30
0.0
 10
-173.5781
 20
-53.5311
 30
0.0
 10
-174.0612
 20
-54.0657
 30
0.0
 10
-174.0612
 20
-54.0657
 30
0.0
 10
-174.5424
 20
-54.5979
 30
0.0
 10
-175.0848
 20
-55.0715
 30
0.0
 10
-175.6762
 20
-55.4767
 30
0.0
 10
-175.6762
 20
-55.4767
 30
0.0
 10
-175.0848
 20
-55.8825
 30
0.0
 10
-174.5424
 20
-56.3561
 30
0.0
 10
-174.0612
 20
-56.8878
 30
0.0
 10
-174.0612
 20
-56.8878
 30
0.0
 10
-173.5775
 20
-57.4224
 30
0.0
 10
-173.1963
 20
-58.0416
 30
0.0
 10
-172.9357
 20
-58.7137
 30
0.0
 10
-172.9357
 20
-58.7137
 30
0.0
 10
-172.3102
 20
-60.1161
 30
0.0
 10
-171.9862
 20
-61.6349
 30
0.0
 10
-171.9847
 20
-63.1709
 30
0.0
 10
-171.9847
 20
-63.1709
 30
0.0
 10
-171.9833
 20
-64.6916
 30
0.0
 10
-172.0804
 20
-66.2108
 30
0.0
 10
-172.2761
 20
-67.7191
 30
0.0
 10
-172.2761
 20
-67.7191
 30
0.0
 10
-171.6069
 20
-66.9946
 30
0.0
 10
-171.029
 20
-66.1916
 30
0.0
 10
-170.5544
 20
-65.3272
 30
0.0
 10
-170.5544
 20
-65.3272
 30
0.0
 10
-170.0536
 20
-64.4152
 30
0.0
 10
-169.1386
 20
-63.8041
 30
0.0
 10
-168.104
 20
-63.6898
 30
0.0
 10
-168.104
 20
-63.6898
 30
0.0
 10
-166.904
 20
-63.5094
 30
0.0
 10
-165.6771
 20
-63.7278
 30
0.0
 10
-164.6127
 20
-64.3113
 30
0.0
 10
-164.6127
 20
-64.3113
 30
0.0
 10
-163.5203
 20
-64.9103
 30
0.0
 10
-162.7679
 20
-65.9835
 30
0.0
 10
-162.5757
 20
-67.2142
 30
0.0
 10
-162.5757
 20
-67.2142
 30
0.0
 10
-162.3376
 20
-68.7378
 30
0.0
 10
-162.4482
 20
-70.2959
 30
0.0
 10
-162.8987
 20
-71.7706
 30
0.0
 10
-162.8987
 20
-71.7706
 30
0.0
 10
-163.404
 20
-73.4277
 30
0.0
 10
-165.0516
 20
-74.4634
 30
0.0
 10
-166.7645
 20
-74.2038
 30
0.0
 10
-166.7645
 20
-74.2038
 30
0.0
 10
-167.3228
 20
-74.1191
 30
0.0
 10
-167.8833
 20
-74.0537
 30
0.0
 10
-168.4458
 20
-74.009
 30
0.0
 10
-168.4458
 20
-74.009
 30
0.0
 10
-169.0084
 20
-73.9639
 30
0.0
 10
-169.5685
 20
-73.8892
 30
0.0
 10
-170.1232
 20
-73.7859
 30
0.0
 10
-170.1232
 20
-73.7859
 30
0.0
 10
-170.7074
 20
-74.7095
 30
0.0
 10
-170.565
 20
-75.9152
 30
0.0
 10
-169.7799
 20
-76.6758
 30
0.0
 10
-169.7799
 20
-76.6758
 30
0.0
 10
-169.0814
 20
-77.3528
 30
0.0
 10
-168.3122
 20
-77.9528
 30
0.0
 10
-167.4857
 20
-78.4662
 30
0.0
 10
-167.4857
 20
-78.4662
 30
0.0
 10
-165.9333
 20
-79.4302
 30
0.0
 10
-164.0266
 20
-79.633
 30
0.0
 10
-162.3064
 20
-79.0157
 30
0.0
 10
-162.3064
 20
-79.0157
 30
0.0
 10
-160.5958
 20
-78.4023
 30
0.0
 10
-159.2323
 20
-77.083
 30
0.0
 10
-158.5645
 20
-75.3927
 30
0.0
 10
-158.5645
 20
-75.3927
 30
0.0
 10
-158.2242
 20
-74.533
 30
0.0
 10
-158.0266
 20
-73.6234
 30
0.0
 10
-157.979
 20
-72.6999
 30
0.0
 10
-157.979
 20
-72.6999
 30
0.0
 10
-157.9319
 20
-71.7825
 30
0.0
 10
-157.8963
 20
-70.8648
 30
0.0
 10
-157.8722
 20
-69.9465
 30
0.0
 10
-157.8722
 20
-69.9465
 30
0.0
 10
-157.7982
 20
-67.5224
 30
0.0
 10
-157.5954
 20
-65.1042
 30
0.0
 10
-157.2646
 20
-62.7017
 30
0.0
 10
-157.2646
 20
-62.7017
 30
0.0
 10
-156.7853
 20
-59.2114
 30
0.0
 10
-154.2386
 20
-56.3561
 30
0.0
 10
-150.827
 20
-55.4767
 30
0.0
 10
-150.827
 20
-55.4767
 30
0.0
 10
-150.827
 20
-55.4767
 30
0.0
 10
-150.827
 20
-55.4772
 30
0.0
 10
-150.827
 20
-55.4772
 30
0.0
  0
SPLINE
  5
5D
330
1F
100
AcDbEntity
  8
layer 1
 62
     7
370
     9
100
AcDbSpline
210
0.0
220
0.0
230
1.0
 70
    11
 71
     3
 72
    68
 73
    64
 74
     0
 42
0.0000000001
 43
0.0000000001
 12
1.0
 22
0.0
 32
0.0
 13
1.0
 23
0.0
 33
0.0
 40
0.0
 40
0.0
 40
0.0
 40
0.0
 40
0.0588235294117647
 40
0.0588235294117647
 40
0.0588235294117647
 40
0.0588235294117647
 40
0.1176470588235294
 40
0.1176470588235294
 40
0.1176470588235294
 40
0.1176470588235294
 40
0.1764705882352941
 40
0.1764705882352941
 40
0.1764705882352941
 40
0.1764705882352941
 40
0.2352941176470588
 40
0.2352941176470588
 40
0.2352941176470588
 40
0.2352941176470588
 40
0.2941176470588235
 40
0.2941176470588235
 40
0.2941176470588235
 40
0.2941176470588235
 40
0.3529411764705883
 40
0.3529411764705883
 40
0.3529411764705883
 40
0.3529411764705883
 40
0.4117647058823529
 40
0.4117647058823529
 40
0.4117647058823529
 40
0.4117647058823529
 40
0.4705882352941176
 40
0.4705882352941176
 40
0.4705882352941176
 40
0.4705882352941176
 40
0.5294117647058824
 40
0.5294117647058824
 40
0.5294117647058824
 40
0.5294117647058824
 40
0.5882352941176471
 40
0.5882352941176471
 40
0.5882352941176471
 40
0.5882352941176471
 40
0.6470588235294118
 40
0.6470588235294118
 40
0.6470588235294118
 40
0.6470588235294118
 40
0.7058823529411765
 40
0.7058823529411765
 40
0.7058823529411765
 40
0.7058823529411765
 40
0.7647058823529411
 40
0.7647058823529411
 40
0.7647058823529411
 40
0.7647058823529411
 40
0.8235294117647058
 40
0.8235294117647058
 40
0.8235294117647058
 40
0.8235294117647058
 40
0.8823529411764706
 40
0.8823529411764706
 40
0.8823529411764706
 40
0.8823529411764706
 40
1.0
 40
1.0
 40
1.0
 40
1.0
 10
-127.674
 20
-55.4767
 30
0.0
 10
-128.1731
 20
-55.3474
 30
0.0
 10
-128.6621
 20
-55.1796
 30
0.0
 10
-129.1361
 20
-54.9758
 30
0.0
 10
-129.1361
 20
-54.9758
 30
0.0
 10
-130.6856
 20
-54.2771
 30
0.0
 10
-132.0856
 20
-53.2834
 30
0.0
 10
-133.2568
 20
-52.0512
 30
0.0
 10
-133.2568
 20
-52.0512
 30
0.0
 10
-134.6688
 20
-50.5214
 30
0.0
 10
-135.7688
 20
-48.7301
 30
0.0
 10
-136.4938
 20
-46.7791
 30
0.0
 10
-136.4938
 20
-46.7791
 30
0.0
 10
-136.6981
 20
-46.2277
 30
0.0
 10
-136.8751
 20
-45.6665
 30
0.0
 10
-137.0241
 20
-45.0978
 30
0.0
 10
-137.0241
 20
-45.0978
 30
0.0
 10
-137.1727
 20
-45.6665
 30
0.0
 10
-137.3496
 20
-46.2277
 30
0.0
 10
-137.5544
 20
-46.7791
 30
0.0
 10
-137.5544
 20
-46.7791
 30
0.0
 10
-138.2794
 20
-48.7301
 30
0.0
 10
-139.3794
 20
-50.5214
 30
0.0
 10
-140.7915
 20
-52.0512
 30
0.0
 10
-140.7915
 20
-52.0512
 30
0.0
 10
-141.9621
 20
-53.2839
 30
0.0
 10
-143.3621
 20
-54.2771
 30
0.0
 10
-144.9121
 20
-54.9758
 30
0.0
 10
-144.9121
 20
-54.9758
 30
0.0
 10
-145.3856
 20
-55.1796
 30
0.0
 10
-145.8746
 20
-55.3468
 30
0.0
 10
-146.3741
 20
-55.4767
 30
0.0
 10
-146.3741
 20
-55.4767
 30
0.0
 10
-145.8746
 20
-55.607
 30
0.0
 10
-145.3856
 20
-55.7743
 30
0.0
 10
-144.9121
 20
-55.9782
 30
0.0
 10
-144.9121
 20
-55.9782
 30
0.0
 10
-143.3621
 20
-56.6767
 30
0.0
 10
-141.9621
 20
-57.6705
 30
0.0
 10
-140.7915
 20
-58.9027
 30
0.0
 10
-140.7915
 20
-58.9027
 30
0.0
 10
-139.3794
 20
-60.4325
 30
0.0
 10
-138.2794
 20
-62.2239
 30
0.0
 10
-137.5544
 20
-64.1749
 30
0.0
 10
-137.5544
 20
-64.1749
 30
0.0
 10
-137.3496
 20
-64.7263
 30
0.0
 10
-137.1727
 20
-65.2873
 30
0.0
 10
-137.0241
 20
-65.8561
 30
0.0
 10
-137.0241
 20
-65.8561
 30
0.0
 10
-136.8751
 20
-65.2873
 30
0.0
 10
-136.6981
 20
-64.7263
 30
0.0
 10
-136.4938
 20
-64.1749
 30
0.0
 10
-136.4938
 20
-64.1749
 30
0.0
 10
-135.7688
 20
-62.2239
 30
0.0
 10
-134.6688
 20
-60.4325
 30
0.0
 10
-133.2568
 20
-58.9027
 30
0.0
 10
-133.2568
 20
-58.9027
 30
0.0
 10
-132.0856
 20
-57.6705
 30
0.0
 10
-130.6856
 20
-56.6767
 30
0.0
 10
-129.1361
 20
-55.9782
 30
0.0
 10
-129.1361
 20
-55.9782
 30
0.0
 10
-128.6621
 20
-55.7743
 30
0.0
 10
-128.1731
 20
-55.6065
 30
0.0
 10
-127.674
 20
-55.4767
 30
0.0
  0
SPLINE
  5
5E
330
1F
100
AcDbEntity
  8
layer 1
 62
     7
370
     9
100
AcDbSpline
210
0.0
220
0.0
230
1.0
 70
    11
 71
     3
 72
   120
 73
   116
 74
     0
 42
0.0000000001
 43
0.0000000001
 12
1.0
 22
0.0
 32
0.0
 13
1.0
 23
0.0
 33
0.0
 40
0.0
 40
0.0
 40
0.0
 40
0.0
 40
0.0333333333333333
 40
0.0333333333333333
 40
0.0333333333333333
 40
0.0333333333333333
 40
0.0666666666666667
 40
0.0666666666666667
 40
0.0666666666666667
 40
0.0666666666666667
 40
0.1
 40
0.1
 40
0.1
 40
0.1
 40
0.1333333333333333
 40
0.1333333333333333
 40
0.1333333333333333
 40
0.1333333333333333
 40
0.1666666666666667
 40
0.1666666666666667
 40
0.1666666666666667
 40
0.1666666666666667
 40
0.2
 40
0.2
 40
0.2
 40
0.2
 40
0.2333333333333333
 40
0.2333333333333333
 40
0.2333333333333333
 40
0.2333333333333333
 40
0.2666666666666667
 40
0.2666666666666667
 40
0.2666666666666667
 40
0.2666666666666667
 40
0.3
 40
0.3
 40
0.3
 40
0.3
 40
0.3333333333333333
 40
0.3333333333333333
 40
0.3333333333333333
 40
0.3333333333333333
 40
0.3666666666666666
 40
0.3666666666666666
 40
0.3666666666666666
 40
0.3666666666666666
 40
0.4
 40
0.4
 40
0.4
 40
0.4
 40
0.4333333333333333
 40
0.4333333333333333
 40
0.4333333333333333
 40
0.4333333333333333
 40
0.4666666666666667
 40
0.4666666666666667
 40
0.4666666666666667
 40
0.4666666666666667
 40
0.5
 40
0.5
 40
0.5
 40
0.5
 40
0.5333333333333333
 40
0.5333333333333333
 40
0.5333333333333333
 40
0.5333333333333333
 40
0.5666666666666667
 40
0.5666666666666667
 40
0.5666666666666667
 40
0.5666666666666667
 40
0.6
 40
0.6
 40
0.6
 40
0.6
 40
0.6333333333333333
 40
0.6333333333333333
 40
0.6333333333333333
 40
0.6333333333333333
 40
0.6666666666666666
 40
0.6666666666666666
 40
0.6666666666666666
 40
0.6666666666666666
 40
0.7
 40
0.7
 40
0.7
 40
0.7
 40
0.7333333333333333
 40
0.7333333333333333
 40
0.7333333333333333
 40
0.7333333333333333
 40
0.7666666666666667
 40
0.7666666666666667
 40
0.7666666666666667
 40
0.7666666666666667
 40
0.8
 40
0.8
 40
0.8
 40
0.8
 40
0.8333333333333334
 40
0.8333333333333334
 40
0.8333333333333334
 40
0.8333333333333334
 40
0.8666666666666667
 40
0.8666666666666667
 40
0.8666666666666667
 40
0.8666666666666667
 40
0.9
 40
0.9
 40
0.9
 40
0.9
 40
0.9333333333333333
 40
0.9333333333333333
 40
0.9333333333333333
 40
0.9333333333333333
 40
1.0
 40
1.0
 40
1.0
 40
1.0
 10
-99.8038
 20
-37.8886
 30
0.0
 10
-99.6163
 20
-37.6199
 30
0.0
 10
-99.4273
 20
-37.3522
 30
0.0
 10
-99.2364
 20
-37.0858
 30
0.0
 10
-99.2364
 20
-37.0858
 30
0.0
 10
-97.5946
 20
-34.7925
 30
0.0
 10
-97.0254
 20
-31.903
 30
0.0
 10
-97.6759
 20
-29.1588
 30
0.0
 10
-97.6759
 20
-29.1588
 30
0.0
 10
-98.2134
 20
-26.8906
 30
0.0
 10
-99.3509
 20
-24.8103
 30
0.0
 10
-100.9706
 20
-23.1343
 30
0.0
 10
-100.9706
 20
-23.1343
 30
0.0
 10
-102.6211
 20
-21.4261
 30
0.0
 10
-104.8668
 20
-20.4232
 30
0.0
 10
-107.2403
 20
-20.3347
 30
0.0
 10
-107.2403
 20
-20.3347
 30
0.0
 10
-106.8942
 20
-20.8338
 30
0.0
 10
-106.698
 20
-21.4223
 30
0.0
 10
-106.6749
 20
-22.0295
 30
0.0
 10
-106.6749
 20
-22.0295
 30
0.0
 10
-106.6312
 20
-23.9891
 30
0.0
 10
-108.1572
 20
-25.6285
 30
0.0
 10
-110.1144
 20
-25.7309
 30
0.0
 10
-110.1144
 20
-25.7309
 30
0.0
 10
-111.7976
 20
-25.8174
 30
0.0
 10
-113.484
 20
-25.8156
 30
0.0
 10
-115.1673
 20
-25.7241
 30
0.0
 10
-115.1673
 20
-25.7241
 30
0.0
 10
-117.4302
 20
-25.6021
 30
0.0
 10
-119.6991
 20
-25.7804
 30
0.0
 10
-121.9148
 20
-26.2549
 30
0.0
 10
-121.9148
 20
-26.2549
 30
0.0
 10
-124.1567
 20
-26.7348
 30
0.0
 10
-126.2399
 20
-27.7717
 30
0.0
 10
-127.9741
 20
-29.2714
 30
0.0
 10
-127.9741
 20
-29.2714
 30
0.0
 10
-130.8481
 20
-31.8344
 30
0.0
 10
-132.6019
 20
-35.4185
 30
0.0
 10
-132.8606
 20
-39.2608
 30
0.0
 10
-132.8606
 20
-39.2608
 30
0.0
 10
-133.1158
 20
-43.0628
 30
0.0
 10
-132.0996
 20
-46.8392
 30
0.0
 10
-129.9682
 20
-49.9983
 30
0.0
 10
-129.9682
 20
-49.9983
 30
0.0
 10
-129.2053
 20
-51.1286
 30
0.0
 10
-128.0793
 20
-51.9632
 30
0.0
 10
-126.7755
 20
-52.3628
 30
0.0
 10
-126.7755
 20
-52.3628
 30
0.0
 10
-125.4226
 20
-52.7772
 30
0.0
 10
-123.9524
 20
-52.4589
 30
0.0
 10
-122.8929
 20
-51.5209
 30
0.0
 10
-122.8929
 20
-51.5209
 30
0.0
 10
-121.8851
 20
-50.6285
 30
0.0
 10
-121.0269
 20
-49.582
 30
0.0
 10
-120.3505
 20
-48.419
 30
0.0
 10
-120.3505
 20
-48.419
 30
0.0
 10
-120.1519
 20
-48.0776
 30
0.0
 10
-120.0529
 20
-47.6878
 30
0.0
 10
-120.0649
 20
-47.2934
 30
0.0
 10
-120.0649
 20
-47.2934
 30
0.0
 10
-120.4851
 20
-47.4901
 30
0.0
 10
-120.9298
 20
-47.6305
 30
0.0
 10
-121.3866
 20
-47.7113
 30
0.0
 10
-121.3866
 20
-47.7113
 30
0.0
 10
-121.8447
 20
-47.792
 30
0.0
 10
-122.3134
 20
-47.7944
 30
0.0
 10
-122.7726
 20
-47.719
 30
0.0
 10
-122.7726
 20
-47.719
 30
0.0
 10
-123.8039
 20
-47.5324
 30
0.0
 10
-124.7283
 20
-46.9666
 30
0.0
 10
-125.364
 20
-46.1334
 30
0.0
 10
-125.364
 20
-46.1334
 30
0.0
 10
-126.2716
 20
-44.943
 30
0.0
 10
-126.5451
 20
-43.3848
 30
0.0
 10
-126.0985
 20
-41.956
 30
0.0
 10
-126.0985
 20
-41.956
 30
0.0
 10
-125.6793
 20
-40.6599
 30
0.0
 10
-124.698
 20
-39.6209
 30
0.0
 10
-123.4284
 20
-39.1276
 30
0.0
 10
-123.4284
 20
-39.1276
 30
0.0
 10
-122.1471
 20
-38.6305
 30
0.0
 10
-120.7029
 20
-38.7916
 30
0.0
 10
-119.5625
 20
-39.5584
 30
0.0
 10
-119.5625
 20
-39.5584
 30
0.0
 10
-119.8961
 20
-37.6012
 30
0.0
 10
-119.738
 20
-35.5916
 30
0.0
 10
-119.1028
 20
-33.7103
 30
0.0
 10
-119.1028
 20
-33.7103
 30
0.0
 10
-118.4572
 20
-31.7982
 30
0.0
 10
-117.1452
 20
-30.181
 30
0.0
 10
-115.4082
 20
-29.1545
 30
0.0
 10
-115.4082
 20
-29.1545
 30
0.0
 10
-113.9822
 20
-28.3328
 30
0.0
 10
-112.3619
 20
-27.9064
 30
0.0
 10
-110.7163
 20
-27.9194
 30
0.0
 10
-110.7163
 20
-27.9194
 30
0.0
 10
-109.0884
 20
-27.9324
 30
0.0
 10
-107.4731
 20
-28.215
 30
0.0
 10
-105.9374
 20
-28.755
 30
0.0
 10
-105.9374
 20
-28.755
 30
0.0
 10
-105.0423
 20
-29.0698
 30
0.0
 10
-104.2081
 20
-29.5372
 30
0.0
 10
-103.4725
 20
-30.1368
 30
0.0
 10
-103.4725
 20
-30.1368
 30
0.0
 10
-102.371
 20
-31.1103
 30
0.0
 10
-101.5167
 20
-32.3324
 30
0.0
 10
-100.9798
 20
-33.7012
 30
0.0
 10
-100.9798
 20
-33.7012
 30
0.0
 10
-100.449
 20
-35.0541
 30
0.0
 10
-100.0552
 20
-36.457
 30
0.0
 10
-99.8038
 20
-37.8886
 30
0.0
 10
-99.8038
 20
-37.8886
 30
0.0
 10
-99.8038
 20
-37.8886
 30
0.0
 10
-99.8038
 20
-37.8886
 30
0.0
 10
-99.8038
 20
-37.8886
 30
0.0
  0
SPLINE
  5
5F
330
1F
100
AcDbEntity
  8
layer 1
 62
     7
370
     9
100
AcDbSpline
210
0.0
220
0.0
230
1.0
 70
    11
 71
     3
 72
    56
 73
    52
 74
     0
 42
0.0000000001
 43
0.0000000001
 12
1.0
 22
0.0
 32
0.0
 13
1.0
 23
0.0
 33
0.0
 40
0.0
 40
0.0
 40
0.0
 40
0.0
 40
0.0714285714285714
 40
0.0714285714285714
 40
0.0714285714285714
 40
0.0714285714285714
 40
0.1428571428571428
 40
0.1428571428571428
 40
0.1428571428571428
 40
0.1428571428571428
 40
0.2142857142857143
 40
0.2142857142857143
 40
0.2142857142857143
 40
0.2142857142857143
 40
0.2857142857142857
 40
0.2857142857142857
 40
0.2857142857142857
 40
0.2857142857142857
 40
0.3571428571428572
 40
0.3571428571428572
 40
0.3571428571428572
 40
0.3571428571428572
 40
0.4285714285714285
 40
0.4285714285714285
 40
0.4285714285714285
 40
0.4285714285714285
 40
0.5
 40
0.5
 40
0.5
 40
0.5
 40
0.5714285714285714
 40
0.5714285714285714
 40
0.5714285714285714
 40
0.5714285714285714
 40
0.6428571428571429
 40
0.6428571428571429
 40
0.6428571428571429
 40
0.6428571428571429
 40
0.7142857142857143
 40
0.7142857142857143
 40
0.7142857142857143
 40
0.7142857142857143
 40
0.7857142857142857
 40
0.7857142857142857
 40
0.7857142857142857
 40
0.7857142857142857
 40
0.8571428571428571
 40
0.8571428571428571
 40
0.8571428571428571
 40
0.8571428571428571
 40
1.0
 40
1.0
 40
1.0
 40
1.0
 10
-130.0798
 20
-26.3516
 30
0.0
 10
-128.5721
 20
-24.9511
 30
0.0
 10
-126.8414
 20
-23.8113
 30
0.0
 10
-124.9602
 20
-22.978
 30
0.0
 10
-124.9602
 20
-22.978
 30
0.0
 10
-123.0649
 20
-22.1391
 30
0.0
 10
-120.9952
 20
-21.7655
 30
0.0
 10
-118.9264
 20
-21.8886
 30
0.0
 10
-118.9264
 20
-21.8886
 30
0.0
 10
-116.5754
 20
-22.029
 30
0.0
 10
-114.2284
 20
-22.2309
 30
0.0
 10
-111.8879
 20
-22.4944
 30
0.0
 10
-111.8879
 20
-22.4944
 30
0.0
 10
-111.6274
 20
-22.5237
 30
0.0
 10
-111.3678
 20
-22.4343
 30
0.0
 10
-111.1803
 20
-22.2506
 30
0.0
 10
-111.1803
 20
-22.2506
 30
0.0
 10
-111.0581
 20
-22.1309
 30
0.0
 10
-110.986
 20
-21.9698
 30
0.0
 10
-110.9783
 20
-21.7991
 30
0.0
 10
-110.9783
 20
-21.7991
 30
0.0
 10
-110.9707
 20
-21.6343
 30
0.0
 10
-110.9725
 20
-21.4688
 30
0.0
 10
-110.9831
 20
-21.3045
 30
0.0
 10
-110.9831
 20
-21.3045
 30
0.0
 10
-111.1072
 20
-19.5112
 30
0.0
 10
-112.1034
 20
-17.8944
 30
0.0
 10
-113.6505
 20
-16.9789
 30
0.0
 10
-113.6505
 20
-16.9789
 30
0.0
 10
-115.7779
 20
-15.7203
 30
0.0
 10
-118.1918
 20
-15.0276
 30
0.0
 10
-120.6634
 20
-14.9675
 30
0.0
 10
-120.6634
 20
-14.9675
 30
0.0
 10
-122.6899
 20
-14.9184
 30
0.0
 10
-124.6577
 20
-15.6429
 30
0.0
 10
-126.1683
 20
-16.9948
 30
0.0
 10
-126.1683
 20
-16.9948
 30
0.0
 10
-127.6389
 20
-18.3112
 30
0.0
 10
-128.8404
 20
-19.8996
 30
0.0
 10
-129.7062
 20
-21.6737
 30
0.0
 10
-129.7062
 20
-21.6737
 30
0.0
 10
-130.0288
 20
-22.3333
 30
0.0
 10
-130.2673
 20
-23.0304
 30
0.0
 10
-130.4174
 20
-23.7492
 30
0.0
 10
-130.4174
 20
-23.7492
 30
0.0
 10
-130.5693
 20
-24.4775
 30
0.0
 10
-130.5289
 20
-25.2324
 30
0.0
 10
-130.3
 20
-25.9401
 30
0.0
 10
-130.3
 20
-25.9401
 30
0.0
 10
-130.3
 20
-25.9401
 30
0.0
 10
-130.0798
 20
-26.3516
 30
0.0
 10
-130.0798
 20
-26.3516
 30
0.0
  0
SPLINE
  5
60
330
1F
100
AcDbEntity
  8
layer 1
 62
     7
370
     9
100
AcDbSpline
210
0.0
220
0.0
230
1.0
 70
    11
 71
     3
 72
   168
 73
   164
 74
     0
 42
0.0000000001
 43
0.0000000001
 12
1.0
 22
0.0
 32
0.0
 13
1.0
 23
0.0
 33
0.0
 40
0.0
 40
0.0
 40
0.0
 40
0.0
 40
0.0238095238095238
 40
0.0238095238095238
 40
0.0238095238095238
 40
0.0238095238095238
 40
0.0476190476190476
 40
0.0476190476190476
 40
0.0476190476190476
 40
0.0476190476190476
 40
0.0714285714285714
 40
0.0714285714285714
 40
0.0714285714285714
 40
0.0714285714285714
 40
0.0952380952380952
 40
0.0952380952380952
 40
0.0952380952380952
 40
0.0952380952380952
 40
0.119047619047619
 40
0.119047619047619
 40
0.119047619047619
 40
0.119047619047619
 40
0.1428571428571428
 40
0.1428571428571428
 40
0.1428571428571428
 40
0.1428571428571428
 40
0.1666666666666667
 40
0.1666666666666667
 40
0.1666666666666667
 40
0.1666666666666667
 40
0.1904761904761905
 40
0.1904761904761905
 40
0.1904761904761905
 40
0.1904761904761905
 40
0.2142857142857143
 40
0.2142857142857143
 40
0.2142857142857143
 40
0.2142857142857143
 40
0.2380952380952381
 40
0.2380952380952381
 40
0.2380952380952381
 40
0.2380952380952381
 40
0.2619047619047619
 40
0.2619047619047619
 40
0.2619047619047619
 40
0.2619047619047619
 40
0.2857142857142857
 40
0.2857142857142857
 40
0.2857142857142857
 40
0.2857142857142857
 40
0.3095238095238095
 40
0.3095238095238095
 40
0.3095238095238095
 40
0.3095238095238095
 40
0.3333333333333333
 40
0.3333333333333333
 40
0.3333333333333333
 40
0.3333333333333333
 40
0.3571428571428572
 40
0.3571428571428572
 40
0.3571428571428572
 40
0.3571428571428572
 40
0.3809523809523809
 40
0.3809523809523809
 40
0.3809523809523809
 40
0.3809523809523809
 40
0.4047619047619048
 40
0.4047619047619048
 40
0.4047619047619048
 40
0.4047619047619048
 40
0.4285714285714285
 40
0.4285714285714285
 40
0.4285714285714285
 40
0.4285714285714285
 40
0.4523809523809524
 40
0.4523809523809524
 40
0.4523809523809524
 40
0.4523809523809524
 40
0.4761904761904762
 40
0.4761904761904762
 40
0.4761904761904762
 40
0.4761904761904762
 40
0.5
 40
0.5
 40
0.5
 40
0.5
 40
0.5238095238095238
 40
0.5238095238095238
 40
0.5238095238095238
 40
0.5238095238095238
 40
0.5476190476190477
 40
0.5476190476190477
 40
0.5476190476190477
 40
0.5476190476190477
 40
0.5714285714285714
 40
0.5714285714285714
 40
0.5714285714285714
 40
0.5714285714285714
 40
0.5952380952380952
 40
0.5952380952380952
 40
0.5952380952380952
 40
0.5952380952380952
 40
0.6190476190476191
 40
0.6190476190476191
 40
0.6190476190476191
 40
0.6190476190476191
 40
0.6428571428571429
 40
0.6428571428571429
 40
0.6428571428571429
 40
0.6428571428571429
 40
0.6666666666666666
 40
0.6666666666666666
 40
0.6666666666666666
 40
0.6666666666666666
 40
0.6904761904761905
 40
0.6904761904761905
 40
0.6904761904761905
 40
0.6904761904761905
 40
0.7142857142857143
 40
0.7142857142857143
 40
0.7142857142857143
 40
0.7142857142857143
 40
0.7380952380952381
 40
0.7380952380952381
 40
0.7380952380952381
 40
0.7380952380952381
 40
0.7619047619047619
 40
0.7619047619047619
 40
0.7619047619047619
 40
0.7619047619047619
 40
0.7857142857142857
 40
0.7857142857142857
 40
0.7857142857142857
 40
0.7857142857142857
 40
0.8095238095238095
 40
0.8095238095238095
 40
0.8095238095238095
 40
0.8095238095238095
 40
0.8333333333333334
 40
0.8333333333333334
 40
0.8333333333333334
 40
0.8333333333333334
 40
0.8571428571428571
 40
0.8571428571428571
 40
0.8571428571428571
 40
0.8571428571428571
 40
0.8809523809523809
 40
0.8809523809523809
 40
0.8809523809523809
 40
0.8809523809523809
 40
0.9047619047619048
 40
0.9047619047619048
 40
0.9047619047619048
 40
0.9047619047619048
 40
0.9285714285714286
 40
0.9285714285714286
 40
0.9285714285714286
 40
0.9285714285714286
 40
0.9523809523809523
 40
0.9523809523809523
 40
0.9523809523809523
 40
0.9523809523809523
 40
1.0
 40
1.0
 40
1.0
 40
1.0
 10
-123.2206
 20
-55.4772
 30
0.0
 10
-119.8062
 20
-54.5968
 30
0.0
 10
-117.263
 20
-51.7455
 30
0.0
 10
-116.7837
 20
-48.2521
 30
0.0
 10
-116.7837
 20
-48.2521
 30
0.0
 10
-116.4529
 20
-45.8493
 30
0.0
 10
-116.25
 20
-43.4314
 30
0.0
 10
-116.1759
 20
-41.0074
 30
0.0
 10
-116.1759
 20
-41.0074
 30
0.0
 10
-116.1389
 20
-39.5964
 30
0.0
 10
-116.0249
 20
-38.1887
 30
0.0
 10
-115.8336
 20
-36.7906
 30
0.0
 10
-115.8336
 20
-36.7906
 30
0.0
 10
-115.6063
 20
-35.1171
 30
0.0
 10
-114.6908
 20
-33.6147
 30
0.0
 10
-113.3077
 20
-32.6448
 30
0.0
 10
-113.3077
 20
-32.6448
 30
0.0
 10
-111.9245
 20
-31.6757
 30
0.0
 10
-110.1909
 20
-31.3295
 30
0.0
 10
-108.5404
 20
-31.6867
 30
0.0
 10
-108.5404
 20
-31.6867
 30
0.0
 10
-107.6374
 20
-31.8829
 30
0.0
 10
-106.7831
 20
-32.2593
 30
0.0
 10
-106.0298
 20
-32.794
 30
0.0
 10
-106.0298
 20
-32.794
 30
0.0
 10
-105.2802
 20
-33.3257
 30
0.0
 10
-104.6052
 20
-33.955
 30
0.0
 10
-104.023
 20
-34.6661
 30
0.0
 10
-104.023
 20
-34.6661
 30
0.0
 10
-103.7374
 20
-35.0146
 30
0.0
 10
-103.5778
 20
-35.4501
 30
0.0
 10
-103.5696
 20
-35.9007
 30
0.0
 10
-103.5696
 20
-35.9007
 30
0.0
 10
-103.5614
 20
-36.3487
 30
0.0
 10
-103.685
 20
-36.7891
 30
0.0
 10
-103.9249
 20
-37.1674
 30
0.0
 10
-103.9249
 20
-37.1674
 30
0.0
 10
-105.1465
 20
-36.9406
 30
0.0
 10
-106.3798
 20
-36.7781
 30
0.0
 10
-107.6188
 20
-36.681
 30
0.0
 10
-107.6188
 20
-36.681
 30
0.0
 10
-108.9832
 20
-36.5742
 30
0.0
 10
-110.2649
 20
-37.3396
 30
0.0
 10
-110.8168
 20
-38.592
 30
0.0
 10
-110.8168
 20
-38.592
 30
0.0
 10
-111.5139
 20
-40.1733
 30
0.0
 10
-111.7614
 20
-41.9151
 30
0.0
 10
-111.5321
 20
-43.6281
 30
0.0
 10
-111.5321
 20
-43.6281
 30
0.0
 10
-111.2812
 20
-45.4954
 30
0.0
 10
-109.8331
 20
-46.9737
 30
0.0
 10
-107.9711
 20
-47.2604
 30
0.0
 10
-107.9711
 20
-47.2604
 30
0.0
 10
-107.2995
 20
-47.3637
 30
0.0
 10
-106.6159
 20
-47.3652
 30
0.0
 10
-105.9437
 20
-47.2642
 30
0.0
 10
-105.9437
 20
-47.2642
 30
0.0
 10
-104.9086
 20
-47.1497
 30
0.0
 10
-103.9947
 20
-46.5392
 30
0.0
 10
-103.4937
 20
-45.6267
 30
0.0
 10
-103.4937
 20
-45.6267
 30
0.0
 10
-103.0192
 20
-44.7622
 30
0.0
 10
-102.4408
 20
-43.9594
 30
0.0
 10
-101.772
 20
-43.2348
 30
0.0
 10
-101.772
 20
-43.2348
 30
0.0
 10
-101.9672
 20
-44.743
 30
0.0
 10
-102.0648
 20
-46.2622
 30
0.0
 10
-102.0634
 20
-47.7829
 30
0.0
 10
-102.0634
 20
-47.7829
 30
0.0
 10
-102.0615
 20
-49.3189
 30
0.0
 10
-101.7379
 20
-50.8372
 30
0.0
 10
-101.112
 20
-52.2401
 30
0.0
 10
-101.112
 20
-52.2401
 30
0.0
 10
-100.8518
 20
-52.9123
 30
0.0
 10
-100.4701
 20
-53.5311
 30
0.0
 10
-99.9864
 20
-54.0657
 30
0.0
 10
-99.9864
 20
-54.0657
 30
0.0
 10
-99.5051
 20
-54.5979
 30
0.0
 10
-98.9634
 20
-55.0715
 30
0.0
 10
-98.3715
 20
-55.4767
 30
0.0
 10
-98.3715
 20
-55.4767
 30
0.0
 10
-98.9634
 20
-55.8825
 30
0.0
 10
-99.5051
 20
-56.3561
 30
0.0
 10
-99.9864
 20
-56.8883
 30
0.0
 10
-99.9864
 20
-56.8883
 30
0.0
 10
-100.4701
 20
-57.4229
 30
0.0
 10
-100.8518
 20
-58.0411
 30
0.0
 10
-101.112
 20
-58.7137
 30
0.0
 10
-101.112
 20
-58.7137
 30
0.0
 10
-101.7379
 20
-60.1166
 30
0.0
 10
-102.0615
 20
-61.6349
 30
0.0
 10
-102.0628
 20
-63.1709
 30
0.0
 10
-102.0628
 20
-63.1709
 30
0.0
 10
-102.0648
 20
-64.6916
 30
0.0
 10
-101.9672
 20
-66.2108
 30
0.0
 10
-101.772
 20
-67.7191
 30
0.0
 10
-101.772
 20
-67.7191
 30
0.0
 10
-102.4408
 20
-66.9946
 30
0.0
 10
-103.0192
 20
-66.1911
 30
0.0
 10
-103.4937
 20
-65.3272
 30
0.0
 10
-103.4937
 20
-65.3272
 30
0.0
 10
-103.9952
 20
-64.4148
 30
0.0
 10
-104.9086
 20
-63.8037
 30
0.0
 10
-105.9437
 20
-63.6898
 30
0.0
 10
-105.9437
 20
-63.6898
 30
0.0
 10
-107.1446
 20
-63.5094
 30
0.0
 10
-108.3706
 20
-63.7278
 30
0.0
 10
-109.435
 20
-64.3113
 30
0.0
 10
-109.435
 20
-64.3113
 30
0.0
 10
-110.5278
 20
-64.9109
 30
0.0
 10
-111.2803
 20
-65.9826
 30
0.0
 10
-111.4726
 20
-67.2142
 30
0.0
 10
-111.4726
 20
-67.2142
 30
0.0
 10
-111.7101
 20
-68.7378
 30
0.0
 10
-111.6
 20
-70.2956
 30
0.0
 10
-111.149
 20
-71.7706
 30
0.0
 10
-111.149
 20
-71.7706
 30
0.0
 10
-110.6418
 20
-73.4291
 30
0.0
 10
-108.998
 20
-74.4652
 30
0.0
 10
-107.2832
 20
-74.2038
 30
0.0
 10
-107.2832
 20
-74.2038
 30
0.0
 10
-106.7254
 20
-74.1191
 30
0.0
 10
-106.1649
 20
-74.0537
 30
0.0
 10
-105.6024
 20
-74.0084
 30
0.0
 10
-105.6024
 20
-74.0084
 30
0.0
 10
-105.0399
 20
-73.9633
 30
0.0
 10
-104.4798
 20
-73.8892
 30
0.0
 10
-103.9249
 20
-73.7859
 30
0.0
 10
-103.9249
 20
-73.7859
 30
0.0
 10
-103.3403
 20
-74.708
 30
0.0
 10
-103.4845
 20
-75.9152
 30
0.0
 10
-104.2682
 20
-76.6758
 30
0.0
 10
-104.2682
 20
-76.6758
 30
0.0
 10
-104.9667
 20
-77.3528
 30
0.0
 10
-105.736
 20
-77.9528
 30
0.0
 10
-106.562
 20
-78.4662
 30
0.0
 10
-106.562
 20
-78.4662
 30
0.0
 10
-108.1139
 20
-79.4296
 30
0.0
 10
-110.022
 20
-79.6321
 30
0.0
 10
-111.7413
 20
-79.0157
 30
0.0
 10
-111.7413
 20
-79.0157
 30
0.0
 10
-113.4514
 20
-78.4028
 30
0.0
 10
-114.8154
 20
-77.0816
 30
0.0
 10
-115.4836
 20
-75.3927
 30
0.0
 10
-115.4836
 20
-75.3927
 30
0.0
 10
-115.8235
 20
-74.533
 30
0.0
 10
-116.0211
 20
-73.6234
 30
0.0
 10
-116.0687
 20
-72.7003
 30
0.0
 10
-116.0687
 20
-72.7003
 30
0.0
 10
-116.1164
 20
-71.7825
 30
0.0
 10
-116.1518
 20
-70.8648
 30
0.0
 10
-116.1759
 20
-69.9465
 30
0.0
 10
-116.1759
 20
-69.9465
 30
0.0
 10
-116.25
 20
-67.5224
 30
0.0
 10
-116.4529
 20
-65.1042
 30
0.0
 10
-116.7837
 20
-62.7017
 30
0.0
 10
-116.7837
 20
-62.7017
 30
0.0
 10
-117.2654
 20
-59.2089
 30
0.0
 10
-119.8057
 20
-56.355
 30
0.0
 10
-123.2206
 20
-55.4767
 30
0.0
 10
-123.2206
 20
-55.4767
 30
0.0
 10
-123.2206
 20
-55.4767
 30
0.0
 10
-123.2206
 20
-55.4772
 30
0.0
 10
-123.2206
 20
-55.4772
 30
0.0
  0
SPLINE
  5
61
330
1F
100
AcDbEntity
  8
layer 1
 62
     7
370
     9
100
AcDbSpline
210
0.0
220
0.0
230
1.0
 70
    11
 71
     3
 72
   120
 73
   116
 74
     0
 42
0.0000000001
 43
0.0000000001
 12
1.0
 22
0.0
 32
0.0
 13
1.0
 23
0.0
 33
0.0
 40
0.0
 40
0.0
 40
0.0
 40
0.0
 40
0.0333333333333333
 40
0.0333333333333333
 40
0.0333333333333333
 40
0.0333333333333333
 40
0.0666666666666667
 40
0.0666666666666667
 40
0.0666666666666667
 40
0.0666666666666667
 40
0.1
 40
0.1
 40
0.1
 40
0.1
 40
0.1333333333333333
 40
0.1333333333333333
 40
0.1333333333333333
 40
0.1333333333333333
 40
0.1666666666666667
 40
0.1666666666666667
 40
0.1666666666666667
 40
0.1666666666666667
 40
0.2
 40
0.2
 40
0.2
 40
0.2
 40
0.2333333333333333
 40
0.2333333333333333
 40
0.2333333333333333
 40
0.2333333333333333
 40
0.2666666666666667
 40
0.2666666666666667
 40
0.2666666666666667
 40
0.2666666666666667
 40
0.3
 40
0.3
 40
0.3
 40
0.3
 40
0.3333333333333333
 40
0.3333333333333333
 40
0.3333333333333333
 40
0.3333333333333333
 40
0.3666666666666666
 40
0.3666666666666666
 40
0.3666666666666666
 40
0.3666666666666666
 40
0.4
 40
0.4
 40
0.4
 40
0.4
 40
0.4333333333333333
 40
0.4333333333333333
 40
0.4333333333333333
 40
0.4333333333333333
 40
0.4666666666666667
 40
0.4666666666666667
 40
0.4666666666666667
 40
0.4666666666666667
 40
0.5
 40
0.5
 40
0.5
 40
0.5
 40
0.5333333333333333
 40
0.5333333333333333
 40
0.5333333333333333
 40
0.5333333333333333
 40
0.5666666666666667
 40
0.5666666666666667
 40
0.5666666666666667
 40
0.5666666666666667
 40
0.6
 40
0.6
 40
0.6
 40
0.6
 40
0.6333333333333333
 40
0.6333333333333333
 40
0.6333333333333333
 40
0.6333333333333333
 40
0.6666666666666666
 40
0.6666666666666666
 40
0.6666666666666666
 40
0.6666666666666666
 40
0.7
 40
0.7
 40
0.7
 40
0.7
 40
0.7333333333333333
 40
0.7333333333333333
 40
0.7333333333333333
 40
0.7333333333333333
 40
0.7666666666666667
 40
0.7666666666666667
 40
0.7666666666666667
 40
0.7666666666666667
 40
0.8
 40
0.8
 40
0.8
 40
0.8
 40
0.8333333333333334
 40
0.8333333333333334
 40
0.8333333333333334
 40
0.8333333333333334
 40
0.8666666666666667
 40
0.8666666666666667
 40
0.8666666666666667
 40
0.8666666666666667
 40
0.9
 40
0.9
 40
0.9
 40
0.9
 40
0.9333333333333333
 40
0.9333333333333333
 40
0.9333333333333333
 40
0.9333333333333333
 40
1.0
 40
1.0
 40
1.0
 40
1.0
 10
-174.2444
 20
-73.0652
 30
0.0
 10
-174.4319
 20
-73.334
 30
0.0
 10
-174.6209
 20
-73.6018
 30
0.0
 10
-174.8117
 20
-73.8682
 30
0.0
 10
-174.8117
 20
-73.8682
 30
0.0
 10
-176.4536
 20
-76.1619
 30
0.0
 10
-177.0227
 20
-79.0508
 30
0.0
 10
-176.3718
 20
-81.7956
 30
0.0
 10
-176.3718
 20
-81.7956
 30
0.0
 10
-175.8343
 20
-84.0634
 30
0.0
 10
-174.6969
 20
-86.1437
 30
0.0
 10
-173.0771
 20
-87.8196
 30
0.0
 10
-173.0771
 20
-87.8196
 30
0.0
 10
-171.4266
 20
-89.5273
 30
0.0
 10
-169.1814
 20
-90.5306
 30
0.0
 10
-166.8078
 20
-90.6197
 30
0.0
 10
-166.8078
 20
-90.6197
 30
0.0
 10
-167.154
 20
-90.1201
 30
0.0
 10
-167.3497
 20
-89.5317
 30
0.0
 10
-167.3732
 20
-88.9245
 30
0.0
 10
-167.3732
 20
-88.9245
 30
0.0
 10
-167.4165
 20
-86.9653
 30
0.0
 10
-165.8905
 20
-85.3254
 30
0.0
 10
-163.9333
 20
-85.2235
 30
0.0
 10
-163.9333
 20
-85.2235
 30
0.0
 10
-162.2501
 20
-85.1364
 30
0.0
 10
-160.5635
 20
-85.1384
 30
0.0
 10
-158.8809
 20
-85.2292
 30
0.0
 10
-158.8809
 20
-85.2292
 30
0.0
 10
-156.6179
 20
-85.3518
 30
0.0
 10
-154.3492
 20
-85.1735
 30
0.0
 10
-152.1333
 20
-84.6989
 30
0.0
 10
-152.1333
 20
-84.6989
 30
0.0
 10
-149.8914
 20
-84.2191
 30
0.0
 10
-147.8077
 20
-83.1821
 30
0.0
 10
-146.0736
 20
-81.6826
 30
0.0
 10
-146.0736
 20
-81.6826
 30
0.0
 10
-143.2
 20
-79.1196
 30
0.0
 10
-141.4462
 20
-75.5355
 30
0.0
 10
-141.1875
 20
-71.6932
 30
0.0
 10
-141.1875
 20
-71.6932
 30
0.0
 10
-140.9317
 20
-67.8912
 30
0.0
 10
-141.9486
 20
-64.1147
 30
0.0
 10
-144.0799
 20
-60.9556
 30
0.0
 10
-144.0799
 20
-60.9556
 30
0.0
 10
-144.8423
 20
-59.8252
 30
0.0
 10
-145.9688
 20
-58.9912
 30
0.0
 10
-147.2722
 20
-58.5916
 30
0.0
 10
-147.2722
 20
-58.5916
 30
0.0
 10
-148.6256
 20
-58.1767
 30
0.0
 10
-150.0953
 20
-58.495
 30
0.0
 10
-151.1549
 20
-59.433
 30
0.0
 10
-151.1549
 20
-59.433
 30
0.0
 10
-152.1626
 20
-60.3253
 30
0.0
 10
-153.0208
 20
-61.372
 30
0.0
 10
-153.6977
 20
-62.5354
 30
0.0
 10
-153.6977
 20
-62.5354
 30
0.0
 10
-153.8962
 20
-62.8762
 30
0.0
 10
-153.9948
 20
-63.2662
 30
0.0
 10
-153.9828
 20
-63.6604
 30
0.0
 10
-153.9828
 20
-63.6604
 30
0.0
 10
-153.5626
 20
-63.4638
 30
0.0
 10
-153.1184
 20
-63.3234
 30
0.0
 10
-152.6611
 20
-63.2427
 30
0.0
 10
-152.6611
 20
-63.2427
 30
0.0
 10
-152.203
 20
-63.1618
 30
0.0
 10
-151.7342
 20
-63.1589
 30
0.0
 10
-151.2755
 20
-63.2348
 30
0.0
 10
-151.2755
 20
-63.2348
 30
0.0
 10
-150.2443
 20
-63.4214
 30
0.0
 10
-149.3198
 20
-63.9874
 30
0.0
 10
-148.6842
 20
-64.8205
 30
0.0
 10
-148.6842
 20
-64.8205
 30
0.0
 10
-147.7765
 20
-66.0109
 30
0.0
 10
-147.503
 20
-67.569
 30
0.0
 10
-147.9496
 20
-68.9974
 30
0.0
 10
-147.9496
 20
-68.9974
 30
0.0
 10
-148.3684
 20
-70.2936
 30
0.0
 10
-149.3496
 20
-71.333
 30
0.0
 10
-150.6197
 20
-71.8258
 30
0.0
 10
-150.6197
 20
-71.8258
 30
0.0
 10
-151.9006
 20
-72.3229
 30
0.0
 10
-153.3448
 20
-72.1619
 30
0.0
 10
-154.4857
 20
-71.3956
 30
0.0
 10
-154.4857
 20
-71.3956
 30
0.0
 10
-154.152
 20
-73.3528
 30
0.0
 10
-154.3101
 20
-75.3628
 30
0.0
 10
-154.9453
 20
-77.2436
 30
0.0
 10
-154.9453
 20
-77.2436
 30
0.0
 10
-155.5905
 20
-79.1556
 30
0.0
 10
-156.9025
 20
-80.773
 30
0.0
 10
-158.6401
 20
-81.7994
 30
0.0
 10
-158.6401
 20
-81.7994
 30
0.0
 10
-160.066
 20
-82.6211
 30
0.0
 10
-161.6862
 20
-83.0475
 30
0.0
 10
-163.3319
 20
-83.034
 30
0.0
 10
-163.3319
 20
-83.034
 30
0.0
 10
-164.9598
 20
-83.0211
 30
0.0
 10
-166.5746
 20
-82.7388
 30
0.0
 10
-168.1107
 20
-82.1989
 30
0.0
 10
-168.1107
 20
-82.1989
 30
0.0
 10
-169.006
 20
-81.884
 30
0.0
 10
-169.8396
 20
-81.4168
 30
0.0
 10
-170.5752
 20
-80.8172
 30
0.0
 10
-170.5752
 20
-80.8172
 30
0.0
 10
-171.6765
 20
-79.8436
 30
0.0
 10
-172.5314
 20
-78.6215
 30
0.0
 10
-173.0679
 20
-77.2528
 30
0.0
 10
-173.0679
 20
-77.2528
 30
0.0
 10
-173.5987
 20
-75.8999
 30
0.0
 10
-173.993
 20
-74.497
 30
0.0
 10
-174.2444
 20
-73.0652
 30
0.0
 10
-174.2444
 20
-73.0652
 30
0.0
 10
-174.2444
 20
-73.0652
 30
0.0
 10
-174.2444
 20
-73.0652
 30
0.0
 10
-174.2444
 20
-73.0652
 30
0.0
  0
SPLINE
  5
62
330
1F
100
AcDbEntity
  8
layer 1
 62
     7
370
     9
100
AcDbSpline
210
0.0
220
0.0
230
1.0
 70
    11
 71
     3
 72
    56
 73
    52
 74
     0
 42
0.0000000001
 43
0.0000000001
 12
1.0
 22
0.0
 32
0.0
 13
1.0
 23
0.0
 33
0.0
 40
0.0
 40
0.0
 40
0.0
 40
0.0
 40
0.0714285714285714
 40
0.0714285714285714
 40
0.0714285714285714
 40
0.0714285714285714
 40
0.1428571428571428
 40
0.1428571428571428
 40
0.1428571428571428
 40
0.1428571428571428
 40
0.2142857142857143
 40
0.2142857142857143
 40
0.2142857142857143
 40
0.2142857142857143
 40
0.2857142857142857
 40
0.2857142857142857
 40
0.2857142857142857
 40
0.2857142857142857
 40
0.3571428571428572
 40
0.3571428571428572
 40
0.3571428571428572
 40
0.3571428571428572
 40
0.4285714285714285
 40
0.4285714285714285
 40
0.4285714285714285
 40
0.4285714285714285
 40
0.5
 40
0.5
 40
0.5
 40
0.5
 40
0.5714285714285714
 40
0.5714285714285714
 40
0.5714285714285714
 40
0.5714285714285714
 40
0.6428571428571429
 40
0.6428571428571429
 40
0.6428571428571429
 40
0.6428571428571429
 40
0.7142857142857143
 40
0.7142857142857143
 40
0.7142857142857143
 40
0.7142857142857143
 40
0.7857142857142857
 40
0.7857142857142857
 40
0.7857142857142857
 40
0.7857142857142857
 40
0.8571428571428571
 40
0.8571428571428571
 40
0.8571428571428571
 40
0.8571428571428571
 40
1.0
 40
1.0
 40
1.0
 40
1.0
 10
-143.9683
 20
-84.6023
 30
0.0
 10
-145.476
 20
-86.0023
 30
0.0
 10
-147.2068
 20
-87.1427
 30
0.0
 10
-149.0881
 20
-87.9754
 30
0.0
 10
-149.0881
 20
-87.9754
 30
0.0
 10
-150.9832
 20
-88.8148
 30
0.0
 10
-153.0525
 20
-89.1883
 30
0.0
 10
-155.1217
 20
-89.0653
 30
0.0
 10
-155.1217
 20
-89.0653
 30
0.0
 10
-157.4732
 20
-88.9249
 30
0.0
 10
-159.8208
 20
-88.7229
 30
0.0
 10
-162.1621
 20
-88.4605
 30
0.0
 10
-162.1621
 20
-88.4605
 30
0.0
 10
-162.4218
 20
-88.4312
 30
0.0
 10
-162.6809
 20
-88.5201
 30
0.0
 10
-162.868
 20
-88.7032
 30
0.0
 10
-162.868
 20
-88.7032
 30
0.0
 10
-162.9901
 20
-88.8224
 30
0.0
 10
-163.0622
 20
-88.984
 30
0.0
 10
-163.0699
 20
-89.1547
 30
0.0
 10
-163.0699
 20
-89.1547
 30
0.0
 10
-163.077
 20
-89.3196
 30
0.0
 10
-163.0756
 20
-89.485
 30
0.0
 10
-163.065
 20
-89.6495
 30
0.0
 10
-163.065
 20
-89.6495
 30
0.0
 10
-162.9401
 20
-91.446
 30
0.0
 10
-161.9405
 20
-93.0648
 30
0.0
 10
-160.3895
 20
-93.9807
 30
0.0
 10
-160.3895
 20
-93.9807
 30
0.0
 10
-158.2636
 20
-95.2359
 30
0.0
 10
-155.853
 20
-95.9264
 30
0.0
 10
-153.3847
 20
-95.9865
 30
0.0
 10
-153.3847
 20
-95.9865
 30
0.0
 10
-151.3582
 20
-96.0351
 30
0.0
 10
-149.3904
 20
-95.311
 30
0.0
 10
-147.8798
 20
-93.959
 30
0.0
 10
-147.8798
 20
-93.959
 30
0.0
 10
-146.4092
 20
-92.6427
 30
0.0
 10
-145.2078
 20
-91.0542
 30
0.0
 10
-144.3415
 20
-89.2802
 30
0.0
 10
-144.3415
 20
-89.2802
 30
0.0
 10
-144.0193
 20
-88.6205
 30
0.0
 10
-143.7804
 20
-87.9234
 30
0.0
 10
-143.6304
 20
-87.2048
 30
0.0
 10
-143.6304
 20
-87.2048
 30
0.0
 10
-143.479
 20
-86.4763
 30
0.0
 10
-143.5188
 20
-85.7215
 30
0.0
 10
-143.7477
 20
-85.0139
 30
0.0
 10
-143.7477
 20
-85.0139
 30
0.0
 10
-143.7477
 20
-85.0139
 30
0.0
 10
-143.9683
 20
-84.6023
 30
0.0
 10
-143.9683
 20
-84.6023
 30
0.0
  0
SPLINE
  5
63
330
1F
100
AcDbEntity
  8
layer 1
 62
     7
370
     9
100
AcDbSpline
210
0.0
220
0.0
230
1.0
 70
    11
 71
     3
 72
    56
 73
    52
 74
     0
 42
0.0000000001
 43
0.0000000001
 12
1.0
 22
0.0
 32
0.0
 13
1.0
 23
0.0
 33
0.0
 40
0.0
 40
0.0
 40
0.0
 40
0.0
 40
0.0714285714285714
 40
0.0714285714285714
 40
0.0714285714285714
 40
0.0714285714285714
 40
0.1428571428571428
 40
0.1428571428571428
 40
0.1428571428571428
 40
0.1428571428571428
 40
0.2142857142857143
 40
0.2142857142857143
 40
0.2142857142857143
 40
0.2142857142857143
 40
0.2857142857142857
 40
0.2857142857142857
 40
0.2857142857142857
 40
0.2857142857142857
 40
0.3571428571428572
 40
0.3571428571428572
 40
0.3571428571428572
 40
0.3571428571428572
 40
0.4285714285714285
 40
0.4285714285714285
 40
0.4285714285714285
 40
0.4285714285714285
 40
0.5
 40
0.5
 40
0.5
 40
0.5
 40
0.5714285714285714
 40
0.5714285714285714
 40
0.5714285714285714
 40
0.5714285714285714
 40
0.6428571428571429
 40
0.6428571428571429
 40
0.6428571428571429
 40
0.6428571428571429
 40
0.7142857142857143
 40
0.7142857142857143
 40
0.7142857142857143
 40
0.7142857142857143
 40
0.7857142857142857
 40
0.7857142857142857
 40
0.7857142857142857
 40
0.7857142857142857
 40
0.8571428571428571
 40
0.8571428571428571
 40
0.8571428571428571
 40
0.8571428571428571
 40
1.0
 40
1.0
 40
1.0
 40
1.0
 10
-122.2495
 20
-100.8894
 30
0.0
 10
-122.2495
 20
-100.8894
 30
0.0
 10
-151.7986
 20
-100.8894
 30
0.0
 10
-151.7986
 20
-100.8894
 30
0.0
 10
-151.7986
 20
-100.8894
 30
0.0
 10
-150.3785
 20
-100.3787
 30
0.0
 10
-149.0453
 20
-99.6552
 30
0.0
 10
-147.8438
 20
-98.7423
 30
0.0
 10
-147.8438
 20
-98.7423
 30
0.0
 10
-146.6491
 20
-97.8351
 30
0.0
 10
-145.451
 20
-96.9331
 30
0.0
 10
-144.2486
 20
-96.0355
 30
0.0
 10
-144.2486
 20
-96.0355
 30
0.0
 10
-140.6145
 20
-93.3211
 30
0.0
 10
-138.8405
 20
-88.7812
 30
0.0
 10
-139.6774
 20
-84.323
 30
0.0
 10
-139.6774
 20
-84.323
 30
0.0
 10
-139.9587
 20
-82.8244
 30
0.0
 10
-139.7183
 20
-81.2744
 30
0.0
 10
-138.9977
 20
-79.9306
 30
0.0
 10
-138.9977
 20
-79.9306
 30
0.0
 10
-138.5909
 20
-79.1724
 30
0.0
 10
-138.2159
 20
-78.3975
 30
0.0
 10
-137.8746
 20
-77.6071
 30
0.0
 10
-137.8746
 20
-77.6071
 30
0.0
 10
-137.5327
 20
-76.8166
 30
0.0
 10
-137.2486
 20
-76.0023
 30
0.0
 10
-137.0241
 20
-75.171
 30
0.0
 10
-137.0241
 20
-75.171
 30
0.0
 10
-136.7621
 20
-76.1407
 30
0.0
 10
-136.414
 20
-77.085
 30
0.0
 10
-135.9832
 20
-77.9926
 30
0.0
 10
-135.9832
 20
-77.9926
 30
0.0
 10
-135.5534
 20
-78.8989
 30
0.0
 10
-135.1097
 20
-79.7979
 30
0.0
 10
-134.652
 20
-80.6898
 30
0.0
 10
-134.652
 20
-80.6898
 30
0.0
 10
-134.2014
 20
-81.5672
 30
0.0
 10
-134.0808
 20
-82.5773
 30
0.0
 10
-134.3121
 20
-83.5359
 30
0.0
 10
-134.3121
 20
-83.5359
 30
0.0
 10
-135.4428
 20
-88.2325
 30
0.0
 10
-133.6712
 20
-93.1471
 30
0.0
 10
-129.799
 20
-96.0355
 30
0.0
 10
-129.799
 20
-96.0355
 30
0.0
 10
-128.5971
 20
-96.9331
 30
0.0
 10
-127.399
 20
-97.8351
 30
0.0
 10
-126.2044
 20
-98.7423
 30
0.0
 10
-126.2044
 20
-98.7423
 30
0.0
 10
-125.0029
 20
-99.6552
 30
0.0
 10
-123.6692
 20
-100.3787
 30
0.0
 10
-122.2495
 20
-100.8894
 30
0.0
  0
SPLINE
  5
64
330
1F
100
AcDbEntity
  8
layer 1
 62
     7
370
     9
100
AcDbSpline
210
0.0
220
0.0
230
1.0
 70
    11
 71
     3
 72
    36
 73
    32
 74
     0
 42
0.0000000001
 43
0.0000000001
 12
1.0
 22
0.0
 32
0.0
 13
1.0
 23
0.0
 33
0.0
 40
0.0
 40
0.0
 40
0.0
 40
0.0
 40
0.1111111111111111
 40
0.1111111111111111
 40
0.1111111111111111
 40
0.1111111111111111
 40
0.2222222222222222
 40
0.2222222222222222
 40
0.2222222222222222
 40
0.2222222222222222
 40
0.3333333333333333
 40
0.3333333333333333
 40
0.3333333333333333
 40
0.3333333333333333
 40
0.4444444444444444
 40
0.4444444444444444
 40
0.4444444444444444
 40
0.4444444444444444
 40
0.5555555555555556
 40
0.5555555555555556
 40
0.5555555555555556
 40
0.5555555555555556
 40
0.6666666666666666
 40
0.6666666666666666
 40
0.6666666666666666
 40
0.6666666666666666
 40
0.7777777777777778
 40
0.7777777777777778
 40
0.7777777777777778
 40
0.7777777777777778
 40
1.0
 40
1.0
 40
1.0
 40
1.0
 10
-159.1155
 20
-100.8894
 30
0.0
 10
-159.1155
 20
-100.8894
 30
0.0
 10
-180.0025
 20
-100.8894
 30
0.0
 10
-180.0025
 20
-100.8894
 30
0.0
 10
-180.0025
 20
-100.8894
 30
0.0
 10
-179.9636
 20
-99.4273
 30
0.0
 10
-179.4199
 20
-98.022
 30
0.0
 10
-178.4651
 20
-96.9138
 30
0.0
 10
-178.4651
 20
-96.9138
 30
0.0
 10
-177.5098
 20
-95.8061
 30
0.0
 10
-176.2011
 20
-95.061
 30
0.0
 10
-174.7608
 20
-94.8047
 30
0.0
 10
-174.7608
 20
-94.8047
 30
0.0
 10
-172.6405
 20
-94.4278
 30
0.0
 10
-170.4535
 20
-94.7864
 30
0.0
 10
-168.5636
 20
-95.8196
 30
0.0
 10
-168.5636
 20
-95.8196
 30
0.0
 10
-166.3559
 20
-97.0274
 30
0.0
 10
-164.1608
 20
-98.259
 30
0.0
 10
-161.979
 20
-99.5144
 30
0.0
 10
-161.979
 20
-99.5144
 30
0.0
 10
-161.5198
 20
-99.7788
 30
0.0
 10
-161.053
 20
-100.0302
 30
0.0
 10
-160.5799
 20
-100.2692
 30
0.0
 10
-160.5799
 20
-100.2692
 30
0.0
 10
-160.1064
 20
-100.5086
 30
0.0
 10
-159.617
 20
-100.7158
 30
0.0
 10
-159.1155
 20
-100.8894
 30
0.0
 10
-159.1155
 20
-100.8894
 30
0.0
 10
-159.1155
 20
-100.8894
 30
0.0
 10
-159.1155
 20
-100.8894
 30
0.0
 10
-159.1155
 20
-100.8894
 30
0.0
  0
SPLINE
  5
65
330
1F
100
AcDbEntity
  8
layer 1
 62
     7
370
     9
100
AcDbSpline
210
0.0
220
0.0
230
1.0
 70
    11
 71
     3
 72
   120
 73
   116
 74
     0
 42
0.0000000001
 43
0.0000000001
 12
1.0
 22
0.0
 32
0.0
 13
1.0
 23
0.0
 33
0.0
 40
0.0
 40
0.0
 40
0.0
 40
0.0
 40
0.0333333333333333
 40
0.0333333333333333
 40
0.0333333333333333
 40
0.0333333333333333
 40
0.0666666666666667
 40
0.0666666666666667
 40
0.0666666666666667
 40
0.0666666666666667
 40
0.1
 40
0.1
 40
0.1
 40
0.1
 40
0.1333333333333333
 40
0.1333333333333333
 40
0.1333333333333333
 40
0.1333333333333333
 40
0.1666666666666667
 40
0.1666666666666667
 40
0.1666666666666667
 40
0.1666666666666667
 40
0.2
 40
0.2
 40
0.2
 40
0.2
 40
0.2333333333333333
 40
0.2333333333333333
 40
0.2333333333333333
 40
0.2333333333333333
 40
0.2666666666666667
 40
0.2666666666666667
 40
0.2666666666666667
 40
0.2666666666666667
 40
0.3
 40
0.3
 40
0.3
 40
0.3
 40
0.3333333333333333
 40
0.3333333333333333
 40
0.3333333333333333
 40
0.3333333333333333
 40
0.3666666666666666
 40
0.3666666666666666
 40
0.3666666666666666
 40
0.3666666666666666
 40
0.4
 40
0.4
 40
0.4
 40
0.4
 40
0.4333333333333333
 40
0.4333333333333333
 40
0.4333333333333333
 40
0.4333333333333333
 40
0.4666666666666667
 40
0.4666666666666667
 40
0.4666666666666667
 40
0.4666666666666667
 40
0.5
 40
0.5
 40
0.5
 40
0.5
 40
0.5333333333333333
 40
0.5333333333333333
 40
0.5333333333333333
 40
0.5333333333333333
 40
0.5666666666666667
 40
0.5666666666666667
 40
0.5666666666666667
 40
0.5666666666666667
 40
0.6
 40
0.6
 40
0.6
 40
0.6
 40
0.6333333333333333
 40
0.6333333333333333
 40
0.6333333333333333
 40
0.6333333333333333
 40
0.6666666666666666
 40
0.6666666666666666
 40
0.6666666666666666
 40
0.6666666666666666
 40
0.7
 40
0.7
 40
0.7
 40
0.7
 40
0.7333333333333333
 40
0.7333333333333333
 40
0.7333333333333333
 40
0.7333333333333333
 40
0.7666666666666667
 40
0.7666666666666667
 40
0.7666666666666667
 40
0.7666666666666667
 40
0.8
 40
0.8
 40
0.8
 40
0.8
 40
0.8333333333333334
 40
0.8333333333333334
 40
0.8333333333333334
 40
0.8333333333333334
 40
0.8666666666666667
 40
0.8666666666666667
 40
0.8666666666666667
 40
0.8666666666666667
 40
0.9
 40
0.9
 40
0.9
 40
0.9
 40
0.9333333333333333
 40
0.9333333333333333
 40
0.9333333333333333
 40
0.9333333333333333
 40
1.0
 40
1.0
 40
1.0
 40
1.0
 10
-99.8038
 20
-73.0652
 30
0.0
 10
-99.6163
 20
-73.334
 30
0.0
 10
-99.4273
 20
-73.6018
 30
0.0
 10
-99.2364
 20
-73.8682
 30
0.0
 10
-99.2364
 20
-73.8682
 30
0.0
 10
-97.5952
 20
-76.1595
 30
0.0
 10
-97.0263
 20
-79.0523
 30
0.0
 10
-97.6759
 20
-81.7956
 30
0.0
 10
-97.6759
 20
-81.7956
 30
0.0
 10
-98.2129
 20
-84.0623
 30
0.0
 10
-99.3518
 20
-86.1442
 30
0.0
 10
-100.9706
 20
-87.8196
 30
0.0
 10
-100.9706
 20
-87.8196
 30
0.0
 10
-102.6201
 20
-89.5268
 30
0.0
 10
-104.8677
 20
-90.5302
 30
0.0
 10
-107.2403
 20
-90.6197
 30
0.0
 10
-107.2403
 20
-90.6197
 30
0.0
 10
-106.8942
 20
-90.1196
 30
0.0
 10
-106.698
 20
-89.5317
 30
0.0
 10
-106.6749
 20
-88.9245
 30
0.0
 10
-106.6749
 20
-88.9245
 30
0.0
 10
-106.6336
 20
-86.9624
 30
0.0
 10
-108.1548
 20
-85.323
 30
0.0
 10
-110.1144
 20
-85.223
 30
0.0
 10
-110.1144
 20
-85.223
 30
0.0
 10
-111.7976
 20
-85.1364
 30
0.0
 10
-113.484
 20
-85.1384
 30
0.0
 10
-115.1673
 20
-85.2292
 30
0.0
 10
-115.1673
 20
-85.2292
 30
0.0
 10
-117.4298
 20
-85.3518
 30
0.0
 10
-119.6991
 20
-85.1735
 30
0.0
 10
-121.9148
 20
-84.6989
 30
0.0
 10
-121.9148
 20
-84.6989
 30
0.0
 10
-124.1558
 20
-84.2197
 30
0.0
 10
-126.2404
 20
-83.1816
 30
0.0
 10
-127.9741
 20
-81.6826
 30
0.0
 10
-127.9741
 20
-81.6826
 30
0.0
 10
-130.8471
 20
-79.1215
 30
0.0
 10
-132.6015
 20
-75.5335
 30
0.0
 10
-132.8606
 20
-71.6932
 30
0.0
 10
-132.8606
 20
-71.6932
 30
0.0
 10
-133.1164
 20
-67.8931
 30
0.0
 10
-132.0981
 20
-64.1132
 30
0.0
 10
-129.9682
 20
-60.9556
 30
0.0
 10
-129.9682
 20
-60.9556
 30
0.0
 10
-129.2063
 20
-59.8258
 30
0.0
 10
-128.0784
 20
-58.9912
 30
0.0
 10
-126.7755
 20
-58.5912
 30
0.0
 10
-126.7755
 20
-58.5912
 30
0.0
 10
-125.4236
 20
-58.1767
 30
0.0
 10
-123.952
 20
-58.4959
 30
0.0
 10
-122.8929
 20
-59.433
 30
0.0
 10
-122.8929
 20
-59.433
 30
0.0
 10
-121.8856
 20
-60.3248
 30
0.0
 10
-121.0269
 20
-61.3724
 30
0.0
 10
-120.3505
 20
-62.5348
 30
0.0
 10
-120.3505
 20
-62.5348
 30
0.0
 10
-120.1519
 20
-62.8762
 30
0.0
 10
-120.0529
 20
-63.2662
 30
0.0
 10
-120.0649
 20
-63.6604
 30
0.0
 10
-120.0649
 20
-63.6604
 30
0.0
 10
-120.4856
 20
-63.4638
 30
0.0
 10
-120.9298
 20
-63.3234
 30
0.0
 10
-121.3866
 20
-63.2427
 30
0.0
 10
-121.3866
 20
-63.2427
 30
0.0
 10
-121.8447
 20
-63.1618
 30
0.0
 10
-122.3134
 20
-63.1589
 30
0.0
 10
-122.7726
 20
-63.2348
 30
0.0
 10
-122.7726
 20
-63.2348
 30
0.0
 10
-123.8043
 20
-63.4214
 30
0.0
 10
-124.7283
 20
-63.9868
 30
0.0
 10
-125.364
 20
-64.8205
 30
0.0
 10
-125.364
 20
-64.8205
 30
0.0
 10
-126.2716
 20
-66.0118
 30
0.0
 10
-126.5457
 20
-67.5681
 30
0.0
 10
-126.0985
 20
-68.9974
 30
0.0
 10
-126.0985
 20
-68.9974
 30
0.0
 10
-125.6788
 20
-70.2945
 30
0.0
 10
-124.6991
 20
-71.333
 30
0.0
 10
-123.4284
 20
-71.8263
 30
0.0
 10
-123.4284
 20
-71.8263
 30
0.0
 10
-122.1461
 20
-72.3234
 30
0.0
 10
-120.7034
 20
-72.1633
 30
0.0
 10
-119.5625
 20
-71.3956
 30
0.0
 10
-119.5625
 20
-71.3956
 30
0.0
 10
-119.8961
 20
-73.3532
 30
0.0
 10
-119.7385
 20
-75.3619
 30
0.0
 10
-119.1028
 20
-77.2436
 30
0.0
 10
-119.1028
 20
-77.2436
 30
0.0
 10
-118.4567
 20
-79.1561
 30
0.0
 10
-117.1461
 20
-80.7725
 30
0.0
 10
-115.4082
 20
-81.7994
 30
0.0
 10
-115.4082
 20
-81.7994
 30
0.0
 10
-113.9817
 20
-82.6216
 30
0.0
 10
-112.3625
 20
-83.0475
 30
0.0
 10
-110.7163
 20
-83.034
 30
0.0
 10
-110.7163
 20
-83.034
 30
0.0
 10
-109.088
 20
-83.0211
 30
0.0
 10
-107.4735
 20
-82.7388
 30
0.0
 10
-105.9374
 20
-82.1989
 30
0.0
 10
-105.9374
 20
-82.1989
 30
0.0
 10
-105.0423
 20
-81.884
 30
0.0
 10
-104.2086
 20
-81.4168
 30
0.0
 10
-103.4725
 20
-80.8172
 30
0.0
 10
-103.4725
 20
-80.8172
 30
0.0
 10
-102.371
 20
-79.8432
 30
0.0
 10
-101.5167
 20
-78.6219
 30
0.0
 10
-100.9798
 20
-77.2528
 30
0.0
 10
-100.9798
 20
-77.2528
 30
0.0
 10
-100.449
 20
-75.8999
 30
0.0
 10
-100.0552
 20
-74.497
 30
0.0
 10
-99.8038
 20
-73.0652
 30
0.0
 10
-99.8038
 20
-73.0652
 30
0.0
 10
-99.8038
 20
-73.0652
 30
0.0
 10
-99.8038
 20
-73.0652
 30
0.0
 10
-99.8038
 20
-73.0652
 30
0.0
  0
SPLINE
  5
66
330
1F
100
AcDbEntity
  8
layer 1
 62
     7
370
     9
100
AcDbSpline
210
0.0
220
0.0
230
1.0
 70
    11
 71
     3
 72
    56
 73
    52
 74
     0
 42
0.0000000001
 43
0.0000000001
 12
1.0
 22
0.0
 32
0.0
 13
1.0
 23
0.0
 33
0.0
 40
0.0
 40
0.0
 40
0.0
 40
0.0
 40
0.0714285714285714
 40
0.0714285714285714
 40
0.0714285714285714
 40
0.0714285714285714
 40
0.1428571428571428
 40
0.1428571428571428
 40
0.1428571428571428
 40
0.1428571428571428
 40
0.2142857142857143
 40
0.2142857142857143
 40
0.2142857142857143
 40
0.2142857142857143
 40
0.2857142857142857
 40
0.2857142857142857
 40
0.2857142857142857
 40
0.2857142857142857
 40
0.3571428571428572
 40
0.3571428571428572
 40
0.3571428571428572
 40
0.3571428571428572
 40
0.4285714285714285
 40
0.4285714285714285
 40
0.4285714285714285
 40
0.4285714285714285
 40
0.5
 40
0.5
 40
0.5
 40
0.5
 40
0.5714285714285714
 40
0.5714285714285714
 40
0.5714285714285714
 40
0.5714285714285714
 40
0.6428571428571429
 40
0.6428571428571429
 40
0.6428571428571429
 40
0.6428571428571429
 40
0.7142857142857143
 40
0.7142857142857143
 40
0.7142857142857143
 40
0.7142857142857143
 40
0.7857142857142857
 40
0.7857142857142857
 40
0.7857142857142857
 40
0.7857142857142857
 40
0.8571428571428571
 40
0.8571428571428571
 40
0.8571428571428571
 40
0.8571428571428571
 40
1.0
 40
1.0
 40
1.0
 40
1.0
 10
-130.0798
 20
-84.6023
 30
0.0
 10
-128.5717
 20
-86.0023
 30
0.0
 10
-126.8418
 20
-87.1422
 30
0.0
 10
-124.9602
 20
-87.9754
 30
0.0
 10
-124.9602
 20
-87.9754
 30
0.0
 10
-123.0639
 20
-88.8148
 30
0.0
 10
-120.9957
 20
-89.1883
 30
0.0
 10
-118.9259
 20
-89.0653
 30
0.0
 10
-118.9259
 20
-89.0653
 30
0.0
 10
-116.5745
 20
-88.9249
 30
0.0
 10
-114.2269
 20
-88.7235
 30
0.0
 10
-111.886
 20
-88.4605
 30
0.0
 10
-111.886
 20
-88.4605
 30
0.0
 10
-111.6263
 20
-88.4312
 30
0.0
 10
-111.3673
 20
-88.5206
 30
0.0
 10
-111.1803
 20
-88.7032
 30
0.0
 10
-111.1803
 20
-88.7032
 30
0.0
 10
-111.0581
 20
-88.8224
 30
0.0
 10
-110.986
 20
-88.984
 30
0.0
 10
-110.9783
 20
-89.1547
 30
0.0
 10
-110.9783
 20
-89.1547
 30
0.0
 10
-110.9707
 20
-89.3196
 30
0.0
 10
-110.9725
 20
-89.485
 30
0.0
 10
-110.9831
 20
-89.6495
 30
0.0
 10
-110.9831
 20
-89.6495
 30
0.0
 10
-111.1067
 20
-91.4418
 30
0.0
 10
-112.1048
 20
-93.0591
 30
0.0
 10
-113.6505
 20
-93.9745
 30
0.0
 10
-113.6505
 20
-93.9745
 30
0.0
 10
-115.7774
 20
-95.2336
 30
0.0
 10
-118.1928
 20
-95.9264
 30
0.0
 10
-120.6634
 20
-95.9865
 30
0.0
 10
-120.6634
 20
-95.9865
 30
0.0
 10
-122.6889
 20
-96.0355
 30
0.0
 10
-124.6582
 20
-95.3101
 30
0.0
 10
-126.1678
 20
-93.959
 30
0.0
 10
-126.1678
 20
-93.959
 30
0.0
 10
-127.6385
 20
-92.6427
 30
0.0
 10
-128.8404
 20
-91.0537
 30
0.0
 10
-129.7062
 20
-89.2802
 30
0.0
 10
-129.7062
 20
-89.2802
 30
0.0
 10
-130.0285
 20
-88.6205
 30
0.0
 10
-130.2673
 20
-87.9234
 30
0.0
 10
-130.4174
 20
-87.2048
 30
0.0
 10
-130.4174
 20
-87.2048
 30
0.0
 10
-130.5693
 20
-86.4769
 30
0.0
 10
-130.5289
 20
-85.7215
 30
0.0
 10
-130.3
 20
-85.0139
 30
0.0
 10
-130.3
 20
-85.0139
 30
0.0
 10
-130.3
 20
-85.0139
 30
0.0
 10
-130.0798
 20
-84.6023
 30
0.0
 10
-130.0798
 20
-84.6023
 30
0.0
  0
SPLINE
  5
67
330
1F
100
AcDbEntity
  8
layer 1
 62
     7
370
     9
100
AcDbSpline
210
0.0
220
0.0
230
1.0
 70
    11
 71
     3
 72
    32
 73
    28
 74
     0
 42
0.0000000001
 43
0.0000000001
 12
1.0
 22
0.0
 32
0.0
 13
1.0
 23
0.0
 33
0.0
 40
0.0
 40
0.0
 40
0.0
 40
0.0
 40
0.125
 40
0.125
 40
0.125
 40
0.125
 40
0.25
 40
0.25
 40
0.25
 40
0.25
 40
0.375
 40
0.375
 40
0.375
 40
0.375
 40
0.5
 40
0.5
 40
0.5
 40
0.5
 40
0.625
 40
0.625
 40
0.625
 40
0.625
 40
0.75
 40
0.75
 40
0.75
 40
0.75
 40
1.0
 40
1.0
 40
1.0
 40
1.0
 10
-114.9326
 20
-100.8894
 30
0.0
 10
-114.9326
 20
-100.8894
 30
0.0
 10
-94.045
 20
-100.8894
 30
0.0
 10
-94.045
 20
-100.8894
 30
0.0
 10
-94.045
 20
-100.8894
 30
0.0
 10
-94.1283
 20
-97.873
 30
0.0
 10
-96.3157
 20
-95.3312
 30
0.0
 10
-99.2875
 20
-94.8047
 30
0.0
 10
-99.2875
 20
-94.8047
 30
0.0
 10
-101.4086
 20
-94.4278
 30
0.0
 10
-103.5937
 20
-94.7855
 30
0.0
 10
-105.4841
 20
-95.8196
 30
0.0
 10
-105.4841
 20
-95.8196
 30
0.0
 10
-107.6922
 20
-97.0274
 30
0.0
 10
-109.8875
 20
-98.259
 30
0.0
 10
-112.0687
 20
-99.5144
 30
0.0
 10
-112.0687
 20
-99.5144
 30
0.0
 10
-112.5284
 20
-99.7788
 30
0.0
 10
-112.9947
 20
-100.0302
 30
0.0
 10
-113.4683
 20
-100.2692
 30
0.0
 10
-113.4683
 20
-100.2692
 30
0.0
 10
-113.9418
 20
-100.5086
 30
0.0
 10
-114.4307
 20
-100.7158
 30
0.0
 10
-114.9322
 20
-100.8894
 30
0.0
 10
-114.9322
 20
-100.8894
 30
0.0
 10
-114.9322
 20
-100.8894
 30
0.0
 10
-114.9326
 20
-100.8894
 30
0.0
 10
-114.9326
 20
-100.8894
 30
0.0
  0
SPLINE
  5
68
330
1F
100
AcDbEntity
  8
layer 1
 62
     7
370
     9
100
AcDbSpline
210
0.0
220
0.0
230
1.0
 70
    11
 71
     3
 72
    44
 73
    40
 74
     0
 42
0.0000000001
 43
0.0000000001
 12
1.0
 22
0.0
 32
0.0
 13
1.0
 23
0.0
 33
0.0
 40
0.0
 40
0.0
 40
0.0
 40
0.0
 40
0.0909090909090909
 40
0.0909090909090909
 40
0.0909090909090909
 40
0.0909090909090909
 40
0.1818181818181818
 40
0.1818181818181818
 40
0.1818181818181818
 40
0.1818181818181818
 40
0.2727272727272727
 40
0.2727272727272727
 40
0.2727272727272727
 40
0.2727272727272727
 40
0.3636363636363636
 40
0.3636363636363636
 40
0.3636363636363636
 40
0.3636363636363636
 40
0.4545454545454545
 40
0.4545454545454545
 40
0.4545454545454545
 40
0.4545454545454545
 40
0.5454545454545454
 40
0.5454545454545454
 40
0.5454545454545454
 40
0.5454545454545454
 40
0.6363636363636364
 40
0.6363636363636364
 40
0.6363636363636364
 40
0.6363636363636364
 40
0.7272727272727273
 40
0.7272727272727273
 40
0.7272727272727273
 40
0.7272727272727273
 40
0.8181818181818182
 40
0.8181818181818182
 40
0.8181818181818182
 40
0.8181818181818182
 40
1.0
 40
1.0
 40
1.0
 40
1.0
 10
-181.4233
 20
85.8071
 30
0.0
 10
-181.4233
 20
85.8071
 30
0.0
 10
-181.4233
 20
125.5885
 30
0.0
 10
-181.4233
 20
125.5885
 30
0.0
 10
-181.4233
 20
125.5885
 30
0.0
 10
-180.3007
 20
124.873
 30
0.0
 10
-179.3184
 20
123.9581
 30
0.0
 10
-178.5247
 20
122.8898
 30
0.0
 10
-178.5247
 20
122.8898
 30
0.0
 10
-177.7276
 20
121.8168
 30
0.0
 10
-177.1848
 20
120.5753
 30
0.0
 10
-176.9372
 20
119.2619
 30
0.0
 10
-176.9372
 20
119.2619
 30
0.0
 10
-176.7247
 20
118.135
 30
0.0
 10
-176.6021
 20
116.9932
 30
0.0
 10
-176.5699
 20
115.847
 30
0.0
 10
-176.5699
 20
115.847
 30
0.0
 10
-176.5376
 20
114.6893
 30
0.0
 10
-176.7565
 20
113.5383
 30
0.0
 10
-177.2108
 20
112.473
 30
0.0
 10
-177.2108
 20
112.473
 30
0.0
 10
-180.0651
 20
109.359
 30
0.0
 10
-181.3632
 20
105.1278
 30
0.0
 10
-180.743
 20
100.9494
 30
0.0
 10
-180.743
 20
100.9494
 30
0.0
 10
-180.444
 20
98.9325
 30
0.0
 10
-179.8285
 20
96.9763
 30
0.0
 10
-178.9184
 20
95.1513
 30
0.0
 10
-178.9184
 20
95.1513
 30
0.0
 10
-177.9949
 20
93.2993
 30
0.0
 10
-176.5535
 20
91.7565
 30
0.0
 10
-174.769
 20
90.7094
 30
0.0
 10
-174.769
 20
90.7094
 30
0.0
 10
-176.2723
 20
90.831
 30
0.0
 10
-177.7598
 20
90.3353
 30
0.0
 10
-178.8896
 20
89.3354
 30
0.0
 10
-178.8896
 20
89.3354
 30
0.0
 10
-179.9877
 20
88.3633
 30
0.0
 10
-180.8531
 20
87.158
 30
0.0
 10
-181.4233
 20
85.8071
 30
0.0
  0
SPLINE
  5
69
330
1F
100
AcDbEntity
  8
layer 1
 62
     7
370
     9
100
AcDbSpline
210
0.0
220
0.0
230
1.0
 70
    11
 71
     3
 72
    48
 73
    44
 74
     0
 42
0.0000000001
 43
0.0000000001
 12
1.0
 22
0.0
 32
0.0
 13
1.0
 23
0.0
 33
0.0
 40
0.0
 40
0.0
 40
0.0
 40
0.0
 40
0.0833333333333333
 40
0.0833333333333333
 40
0.0833333333333333
 40
0.0833333333333333
 40
0.1666666666666667
 40
0.1666666666666667
 40
0.1666666666666667
 40
0.1666666666666667
 40
0.25
 40
0.25
 40
0.25
 40
0.25
 40
0.3333333333333333
 40
0.3333333333333333
 40
0.3333333333333333
 40
0.3333333333333333
 40
0.4166666666666667
 40
0.4166666666666667
 40
0.4166666666666667
 40
0.4166666666666667
 40
0.5
 40
0.5
 40
0.5
 40
0.5
 40
0.5833333333333334
 40
0.5833333333333334
 40
0.5833333333333334
 40
0.5833333333333334
 40
0.6666666666666666
 40
0.6666666666666666
 40
0.6666666666666666
 40
0.6666666666666666
 40
0.75
 40
0.75
 40
0.75
 40
0.75
 40
0.8333333333333334
 40
0.8333333333333334
 40
0.8333333333333334
 40
0.8333333333333334
 40
1.0
 40
1.0
 40
1.0
 40
1.0
 10
-181.4233
 20
75.7147
 30
0.0
 10
-181.4233
 20
75.7147
 30
0.0
 10
-181.4233
 20
35.9327
 30
0.0
 10
-181.4233
 20
35.9327
 30
0.0
 10
-181.4233
 20
35.9327
 30
0.0
 10
-180.3007
 20
36.6481
 30
0.0
 10
-179.3184
 20
37.5626
 30
0.0
 10
-178.5247
 20
38.6314
 30
0.0
 10
-178.5247
 20
38.6314
 30
0.0
 10
-177.7276
 20
39.7049
 30
0.0
 10
-177.1848
 20
40.9448
 30
0.0
 10
-176.9372
 20
42.2592
 30
0.0
 10
-176.9372
 20
42.2592
 30
0.0
 10
-176.7247
 20
43.3862
 30
0.0
 10
-176.6021
 20
44.5275
 30
0.0
 10
-176.5699
 20
45.6742
 30
0.0
 10
-176.5699
 20
45.6742
 30
0.0
 10
-176.5376
 20
46.8318
 30
0.0
 10
-176.756
 20
47.9829
 30
0.0
 10
-177.2108
 20
49.0482
 30
0.0
 10
-177.2108
 20
49.0482
 30
0.0
 10
-180.0646
 20
52.1593
 30
0.0
 10
-181.3618
 20
56.3958
 30
0.0
 10
-180.743
 20
60.5718
 30
0.0
 10
-180.743
 20
60.5718
 30
0.0
 10
-180.444
 20
62.5886
 30
0.0
 10
-179.8281
 20
64.5458
 30
0.0
 10
-178.9184
 20
66.3704
 30
0.0
 10
-178.9184
 20
66.3704
 30
0.0
 10
-177.9954
 20
68.2218
 30
0.0
 10
-176.5531
 20
69.7656
 30
0.0
 10
-174.769
 20
70.8122
 30
0.0
 10
-174.769
 20
70.8122
 30
0.0
 10
-176.2718
 20
70.6902
 30
0.0
 10
-177.7603
 20
71.1868
 30
0.0
 10
-178.8896
 20
72.1862
 30
0.0
 10
-178.8896
 20
72.1862
 30
0.0
 10
-179.9872
 20
73.1579
 30
0.0
 10
-180.8531
 20
74.3642
 30
0.0
 10
-181.4233
 20
75.7147
 30
0.0
 10
-181.4233
 20
75.7147
 30
0.0
 10
-181.4233
 20
75.7147
 30
0.0
 10
-181.4233
 20
75.7147
 30
0.0
 10
-181.4233
 20
75.7147
 30
0.0
  0
SPLINE
  5
6A
330
1F
100
AcDbEntity
  8
layer 1
 62
     7
370
     9
100
AcDbSpline
210
0.0
220
0.0
230
1.0
 70
    11
 71
     3
 72
    44
 73
    40
 74
     0
 42
0.0000000001
 43
0.0000000001
 12
1.0
 22
0.0
 32
0.0
 13
1.0
 23
0.0
 33
0.0
 40
0.0
 40
0.0
 40
0.0
 40
0.0
 40
0.0909090909090909
 40
0.0909090909090909
 40
0.0909090909090909
 40
0.0909090909090909
 40
0.1818181818181818
 40
0.1818181818181818
 40
0.1818181818181818
 40
0.1818181818181818
 40
0.2727272727272727
 40
0.2727272727272727
 40
0.2727272727272727
 40
0.2727272727272727
 40
0.3636363636363636
 40
0.3636363636363636
 40
0.3636363636363636
 40
0.3636363636363636
 40
0.4545454545454545
 40
0.4545454545454545
 40
0.4545454545454545
 40
0.4545454545454545
 40
0.5454545454545454
 40
0.5454545454545454
 40
0.5454545454545454
 40
0.5454545454545454
 40
0.6363636363636364
 40
0.6363636363636364
 40
0.6363636363636364
 40
0.6363636363636364
 40
0.7272727272727273
 40
0.7272727272727273
 40
0.7272727272727273
 40
0.7272727272727273
 40
0.8181818181818182
 40
0.8181818181818182
 40
0.8181818181818182
 40
0.8181818181818182
 40
1.0
 40
1.0
 40
1.0
 40
1.0
 10
-181.4233
 20
34.7635
 30
0.0
 10
-180.3007
 20
34.0482
 30
0.0
 10
-179.3184
 20
33.1337
 30
0.0
 10
-178.5247
 20
32.065
 30
0.0
 10
-178.5247
 20
32.065
 30
0.0
 10
-177.7276
 20
30.9919
 30
0.0
 10
-177.1848
 20
29.7511
 30
0.0
 10
-176.9372
 20
28.4371
 30
0.0
 10
-176.9372
 20
28.4371
 30
0.0
 10
-176.7247
 20
27.3106
 30
0.0
 10
-176.6021
 20
26.1688
 30
0.0
 10
-176.5699
 20
25.0226
 30
0.0
 10
-176.5699
 20
25.0226
 30
0.0
 10
-176.5376
 20
23.8649
 30
0.0
 10
-176.7565
 20
22.7135
 30
0.0
 10
-177.2108
 20
21.648
 30
0.0
 10
-177.2108
 20
21.648
 30
0.0
 10
-180.0651
 20
18.5342
 30
0.0
 10
-181.3636
 20
14.3028
 30
0.0
 10
-180.743
 20
10.1246
 30
0.0
 10
-180.743
 20
10.1246
 30
0.0
 10
-180.444
 20
8.1077
 30
0.0
 10
-179.8281
 20
6.151
 30
0.0
 10
-178.9184
 20
4.326
 30
0.0
 10
-178.9184
 20
4.326
 30
0.0
 10
-177.9949
 20
2.474
 30
0.0
 10
-176.5535
 20
0.9312
 30
0.0
 10
-174.769
 20
-0.1159
 30
0.0
 10
-174.769
 20
-0.1159
 30
0.0
 10
-176.2723
 20
0.0057
 30
0.0
 10
-177.7598
 20
-0.49
 30
0.0
 10
-178.8896
 20
-1.49
 30
0.0
 10
-178.8896
 20
-1.49
 30
0.0
 10
-179.9877
 20
-2.4616
 30
0.0
 10
-180.8531
 20
-3.6674
 30
0.0
 10
-181.4233
 20
-5.0184
 30
0.0
 10
-181.4233
 20
-5.0184
 30
0.0
 10
-181.4233
 20
-5.0184
 30
0.0
 10
-181.4233
 20
34.7635
 30
0.0
 10
-181.4233
 20
34.7635
 30
0.0
  0
SPLINE
  5
6B
330
1F
100
AcDbEntity
  8
layer 1
 62
     7
370
     9
100
AcDbSpline
210
0.0
220
0.0
230
1.0
 70
    11
 71
     3
 72
    48
 73
    44
 74
     0
 42
0.0000000001
 43
0.0000000001
 12
1.0
 22
0.0
 32
0.0
 13
1.0
 23
0.0
 33
0.0
 40
0.0
 40
0.0
 40
0.0
 40
0.0
 40
0.0833333333333333
 40
0.0833333333333333
 40
0.0833333333333333
 40
0.0833333333333333
 40
0.1666666666666667
 40
0.1666666666666667
 40
0.1666666666666667
 40
0.1666666666666667
 40
0.25
 40
0.25
 40
0.25
 40
0.25
 40
0.3333333333333333
 40
0.3333333333333333
 40
0.3333333333333333
 40
0.3333333333333333
 40
0.4166666666666667
 40
0.4166666666666667
 40
0.4166666666666667
 40
0.4166666666666667
 40
0.5
 40
0.5
 40
0.5
 40
0.5
 40
0.5833333333333334
 40
0.5833333333333334
 40
0.5833333333333334
 40
0.5833333333333334
 40
0.6666666666666666
 40
0.6666666666666666
 40
0.6666666666666666
 40
0.6666666666666666
 40
0.75
 40
0.75
 40
0.75
 40
0.75
 40
0.8333333333333334
 40
0.8333333333333334
 40
0.8333333333333334
 40
0.8333333333333334
 40
1.0
 40
1.0
 40
1.0
 40
1.0
 10
-181.4233
 20
-15.1107
 30
0.0
 10
-181.4233
 20
-15.1107
 30
0.0
 10
-181.4233
 20
-54.8926
 30
0.0
 10
-181.4233
 20
-54.8926
 30
0.0
 10
-181.4233
 20
-54.8926
 30
0.0
 10
-180.3007
 20
-54.1767
 30
0.0
 10
-179.3184
 20
-53.2627
 30
0.0
 10
-178.5247
 20
-52.1939
 30
0.0
 10
-178.5247
 20
-52.1939
 30
0.0
 10
-177.7276
 20
-51.12
 30
0.0
 10
-177.1848
 20
-49.88
 30
0.0
 10
-176.9372
 20
-48.5661
 30
0.0
 10
-176.9372
 20
-48.5661
 30
0.0
 10
-176.7247
 20
-47.4391
 30
0.0
 10
-176.6021
 20
-46.2973
 30
0.0
 10
-176.5699
 20
-45.1512
 30
0.0
 10
-176.5699
 20
-45.1512
 30
0.0
 10
-176.5376
 20
-43.993
 30
0.0
 10
-176.7565
 20
-42.8426
 30
0.0
 10
-177.2108
 20
-41.7771
 30
0.0
 10
-177.2108
 20
-41.7771
 30
0.0
 10
-180.0646
 20
-38.6656
 30
0.0
 10
-181.3618
 20
-34.4295
 30
0.0
 10
-180.743
 20
-30.2531
 30
0.0
 10
-180.743
 20
-30.2531
 30
0.0
 10
-180.444
 20
-28.2367
 30
0.0
 10
-179.8281
 20
-26.2795
 30
0.0
 10
-178.9184
 20
-24.455
 30
0.0
 10
-178.9184
 20
-24.455
 30
0.0
 10
-177.9954
 20
-22.6035
 30
0.0
 10
-176.5531
 20
-21.0597
 30
0.0
 10
-174.769
 20
-20.0126
 30
0.0
 10
-174.769
 20
-20.0126
 30
0.0
 10
-176.2718
 20
-20.1348
 30
0.0
 10
-177.7603
 20
-19.6381
 30
0.0
 10
-178.8896
 20
-18.6386
 30
0.0
 10
-178.8896
 20
-18.6386
 30
0.0
 10
-179.9872
 20
-17.6669
 30
0.0
 10
-180.8531
 20
-16.4606
 30
0.0
 10
-181.4233
 20
-15.1103
 30
0.0
 10
-181.4233
 20
-15.1103
 30
0.0
 10
-181.4233
 20
-15.1103
 30
0.0
 10
-181.4233
 20
-15.1107
 30
0.0
 10
-181.4233
 20
-15.1107
 30
0.0
  0
SPLINE
  5
6C
330
1F
100
AcDbEntity
  8
layer 1
 62
     7
370
     9
100
AcDbSpline
210
0.0
220
0.0
230
1.0
 70
    11
 71
     3
 72
    44
 73
    40
 74
     0
 42
0.0000000001
 43
0.0000000001
 12
1.0
 22
0.0
 32
0.0
 13
1.0
 23
0.0
 33
0.0
 40
0.0
 40
0.0
 40
0.0
 40
0.0
 40
0.0909090909090909
 40
0.0909090909090909
 40
0.0909090909090909
 40
0.0909090909090909
 40
0.1818181818181818
 40
0.1818181818181818
 40
0.1818181818181818
 40
0.1818181818181818
 40
0.2727272727272727
 40
0.2727272727272727
 40
0.2727272727272727
 40
0.2727272727272727
 40
0.3636363636363636
 40
0.3636363636363636
 40
0.3636363636363636
 40
0.3636363636363636
 40
0.4545454545454545
 40
0.4545454545454545
 40
0.4545454545454545
 40
0.4545454545454545
 40
0.5454545454545454
 40
0.5454545454545454
 40
0.5454545454545454
 40
0.5454545454545454
 40
0.6363636363636364
 40
0.6363636363636364
 40
0.6363636363636364
 40
0.6363636363636364
 40
0.7272727272727273
 40
0.7272727272727273
 40
0.7272727272727273
 40
0.7272727272727273
 40
0.8181818181818182
 40
0.8181818181818182
 40
0.8181818181818182
 40
0.8181818181818182
 40
1.0
 40
1.0
 40
1.0
 40
1.0
 10
-181.4233
 20
-95.8432
 30
0.0
 10
-181.4233
 20
-95.8432
 30
0.0
 10
-181.4233
 20
-56.0613
 30
0.0
 10
-181.4233
 20
-56.0613
 30
0.0
 10
-181.4233
 20
-56.0613
 30
0.0
 10
-180.3007
 20
-56.7767
 30
0.0
 10
-179.3184
 20
-57.6916
 30
0.0
 10
-178.5247
 20
-58.7599
 30
0.0
 10
-178.5247
 20
-58.7599
 30
0.0
 10
-177.7276
 20
-59.8329
 30
0.0
 10
-177.1848
 20
-61.0739
 30
0.0
 10
-176.9372
 20
-62.3878
 30
0.0
 10
-176.9372
 20
-62.3878
 30
0.0
 10
-176.7247
 20
-63.5147
 30
0.0
 10
-176.6021
 20
-64.6565
 30
0.0
 10
-176.5699
 20
-65.8027
 30
0.0
 10
-176.5699
 20
-65.8027
 30
0.0
 10
-176.5376
 20
-66.9604
 30
0.0
 10
-176.7565
 20
-68.1118
 30
0.0
 10
-177.2108
 20
-69.1767
 30
0.0
 10
-177.2108
 20
-69.1767
 30
0.0
 10
-180.0651
 20
-72.2907
 30
0.0
 10
-181.3636
 20
-76.5225
 30
0.0
 10
-180.743
 20
-80.7009
 30
0.0
 10
-180.743
 20
-80.7009
 30
0.0
 10
-180.444
 20
-82.7176
 30
0.0
 10
-179.8281
 20
-84.6745
 30
0.0
 10
-178.9184
 20
-86.499
 30
0.0
 10
-178.9184
 20
-86.499
 30
0.0
 10
-177.9949
 20
-88.3508
 30
0.0
 10
-176.5535
 20
-89.8941
 30
0.0
 10
-174.769
 20
-90.9412
 30
0.0
 10
-174.769
 20
-90.9412
 30
0.0
 10
-176.2723
 20
-90.8191
 30
0.0
 10
-177.7598
 20
-91.3148
 30
0.0
 10
-178.8896
 20
-92.3149
 30
0.0
 10
-178.8896
 20
-92.3149
 30
0.0
 10
-179.9877
 20
-93.2869
 30
0.0
 10
-180.8531
 20
-94.4923
 30
0.0
 10
-181.4233
 20
-95.8432
 30
0.0
  0
SPLINE
  5
6D
330
1F
100
AcDbEntity
  8
layer 1
 62
     7
370
     9
100
AcDbSpline
210
0.0
220
0.0
230
1.0
 70
    11
 71
     3
 72
    48
 73
    44
 74
     0
 42
0.0000000001
 43
0.0000000001
 12
1.0
 22
0.0
 32
0.0
 13
1.0
 23
0.0
 33
0.0
 40
0.0
 40
0.0
 40
0.0
 40
0.0
 40
0.0833333333333333
 40
0.0833333333333333
 40
0.0833333333333333
 40
0.0833333333333333
 40
0.1666666666666667
 40
0.1666666666666667
 40
0.1666666666666667
 40
0.1666666666666667
 40
0.25
 40
0.25
 40
0.25
 40
0.25
 40
0.3333333333333333
 40
0.3333333333333333
 40
0.3333333333333333
 40
0.3333333333333333
 40
0.4166666666666667
 40
0.4166666666666667
 40
0.4166666666666667
 40
0.4166666666666667
 40
0.5
 40
0.5
 40
0.5
 40
0.5
 40
0.5833333333333334
 40
0.5833333333333334
 40
0.5833333333333334
 40
0.5833333333333334
 40
0.6666666666666666
 40
0.6666666666666666
 40
0.6666666666666666
 40
0.6666666666666666
 40
0.75
 40
0.75
 40
0.75
 40
0.75
 40
0.8333333333333334
 40
0.8333333333333334
 40
0.8333333333333334
 40
0.8333333333333334
 40
1.0
 40
1.0
 40
1.0
 40
1.0
 10
-92.6253
 20
-56.0618
 30
0.0
 10
-93.7474
 20
-56.7771
 30
0.0
 10
-94.7297
 20
-57.6916
 30
0.0
 10
-95.5235
 20
-58.7599
 30
0.0
 10
-95.5235
 20
-58.7599
 30
0.0
 10
-96.3206
 20
-59.8334
 30
0.0
 10
-96.8634
 20
-61.0739
 30
0.0
 10
-97.111
 20
-62.3878
 30
0.0
 10
-97.111
 20
-62.3878
 30
0.0
 10
-97.3235
 20
-63.5147
 30
0.0
 10
-97.446
 20
-64.6565
 30
0.0
 10
-97.4783
 20
-65.8027
 30
0.0
 10
-97.4783
 20
-65.8027
 30
0.0
 10
-97.5105
 20
-66.9608
 30
0.0
 10
-97.2918
 20
-68.1114
 30
0.0
 10
-96.837
 20
-69.1767
 30
0.0
 10
-96.837
 20
-69.1767
 30
0.0
 10
-93.9835
 20
-72.2884
 30
0.0
 10
-92.6859
 20
-76.5243
 30
0.0
 10
-93.3047
 20
-80.7009
 30
0.0
 10
-93.3047
 20
-80.7009
 30
0.0
 10
-93.6037
 20
-82.7173
 30
0.0
 10
-94.2201
 20
-84.6745
 30
0.0
 10
-95.1297
 20
-86.499
 30
0.0
 10
-95.1297
 20
-86.499
 30
0.0
 10
-96.0528
 20
-88.3504
 30
0.0
 10
-97.4951
 20
-89.8941
 30
0.0
 10
-99.2793
 20
-90.9412
 30
0.0
 10
-99.2793
 20
-90.9412
 30
0.0
 10
-97.7763
 20
-90.8191
 30
0.0
 10
-96.2874
 20
-91.3158
 30
0.0
 10
-95.1586
 20
-92.3149
 30
0.0
 10
-95.1586
 20
-92.3149
 30
0.0
 10
-94.0605
 20
-93.2864
 30
0.0
 10
-93.1946
 20
-94.4927
 30
0.0
 10
-92.6249
 20
-95.8437
 30
0.0
 10
-92.6249
 20
-95.8437
 30
0.0
 10
-92.6249
 20
-95.8437
 30
0.0
 10
-92.6249
 20
-56.0618
 30
0.0
 10
-92.6249
 20
-56.0618
 30
0.0
 10
-92.6249
 20
-56.0618
 30
0.0
 10
-92.6249
 20
-56.0618
 30
0.0
 10
-92.6253
 20
-56.0618
 30
0.0
 10
-92.6253
 20
-56.0618
 30
0.0
  0
SPLINE
  5
6E
330
1F
100
AcDbEntity
  8
layer 1
 62
     7
370
     9
100
AcDbSpline
210
0.0
220
0.0
230
1.0
 70
    11
 71
     3
 72
    48
 73
    44
 74
     0
 42
0.0000000001
 43
0.0000000001
 12
1.0
 22
0.0
 32
0.0
 13
1.0
 23
0.0
 33
0.0
 40
0.0
 40
0.0
 40
0.0
 40
0.0
 40
0.0833333333333333
 40
0.0833333333333333
 40
0.0833333333333333
 40
0.0833333333333333
 40
0.1666666666666667
 40
0.1666666666666667
 40
0.1666666666666667
 40
0.1666666666666667
 40
0.25
 40
0.25
 40
0.25
 40
0.25
 40
0.3333333333333333
 40
0.3333333333333333
 40
0.3333333333333333
 40
0.3333333333333333
 40
0.4166666666666667
 40
0.4166666666666667
 40
0.4166666666666667
 40
0.4166666666666667
 40
0.5
 40
0.5
 40
0.5
 40
0.5
 40
0.5833333333333334
 40
0.5833333333333334
 40
0.5833333333333334
 40
0.5833333333333334
 40
0.6666666666666666
 40
0.6666666666666666
 40
0.6666666666666666
 40
0.6666666666666666
 40
0.75
 40
0.75
 40
0.75
 40
0.75
 40
0.8333333333333334
 40
0.8333333333333334
 40
0.8333333333333334
 40
0.8333333333333334
 40
1.0
 40
1.0
 40
1.0
 40
1.0
 10
-92.6249
 20
-15.1107
 30
0.0
 10
-92.6249
 20
-15.1107
 30
0.0
 10
-92.6249
 20
-54.8926
 30
0.0
 10
-92.6249
 20
-54.8926
 30
0.0
 10
-92.6249
 20
-54.8926
 30
0.0
 10
-93.7474
 20
-54.1772
 30
0.0
 10
-94.7297
 20
-53.2623
 30
0.0
 10
-95.5235
 20
-52.1939
 30
0.0
 10
-95.5235
 20
-52.1939
 30
0.0
 10
-96.3201
 20
-51.1204
 30
0.0
 10
-96.8634
 20
-49.8796
 30
0.0
 10
-97.111
 20
-48.5661
 30
0.0
 10
-97.111
 20
-48.5661
 30
0.0
 10
-97.3235
 20
-47.4391
 30
0.0
 10
-97.446
 20
-46.2973
 30
0.0
 10
-97.4783
 20
-45.1512
 30
0.0
 10
-97.4783
 20
-45.1512
 30
0.0
 10
-97.5105
 20
-43.9935
 30
0.0
 10
-97.2918
 20
-42.842
 30
0.0
 10
-96.837
 20
-41.7767
 30
0.0
 10
-96.837
 20
-41.7767
 30
0.0
 10
-93.9826
 20
-38.6627
 30
0.0
 10
-92.6845
 20
-34.4315
 30
0.0
 10
-93.3047
 20
-30.2531
 30
0.0
 10
-93.3047
 20
-30.2531
 30
0.0
 10
-93.6043
 20
-28.2362
 30
0.0
 10
-94.2196
 20
-26.2795
 30
0.0
 10
-95.1297
 20
-24.455
 30
0.0
 10
-95.1297
 20
-24.455
 30
0.0
 10
-96.0533
 20
-22.603
 30
0.0
 10
-97.4942
 20
-21.0602
 30
0.0
 10
-99.2793
 20
-20.0126
 30
0.0
 10
-99.2793
 20
-20.0126
 30
0.0
 10
-97.7754
 20
-20.1342
 30
0.0
 10
-96.2879
 20
-19.6391
 30
0.0
 10
-95.1586
 20
-18.6391
 30
0.0
 10
-95.1586
 20
-18.6391
 30
0.0
 10
-94.0605
 20
-17.6669
 30
0.0
 10
-93.1951
 20
-16.4617
 30
0.0
 10
-92.6249
 20
-15.1107
 30
0.0
 10
-92.6249
 20
-15.1107
 30
0.0
 10
-92.6249
 20
-15.1107
 30
0.0
 10
-92.6249
 20
-15.1107
 30
0.0
 10
-92.6249
 20
-15.1107
 30
0.0
  0
SPLINE
  5
6F
330
1F
100
AcDbEntity
  8
layer 1
 62
     7
370
     9
100
AcDbSpline
210
0.0
220
0.0
230
1.0
 70
    11
 71
     3
 72
    48
 73
    44
 74
     0
 42
0.0000000001
 43
0.0000000001
 12
1.0
 22
0.0
 32
0.0
 13
1.0
 23
0.0
 33
0.0
 40
0.0
 40
0.0
 40
0.0
 40
0.0
 40
0.0833333333333333
 40
0.0833333333333333
 40
0.0833333333333333
 40
0.0833333333333333
 40
0.1666666666666667
 40
0.1666666666666667
 40
0.1666666666666667
 40
0.1666666666666667
 40
0.25
 40
0.25
 40
0.25
 40
0.25
 40
0.3333333333333333
 40
0.3333333333333333
 40
0.3333333333333333
 40
0.3333333333333333
 40
0.4166666666666667
 40
0.4166666666666667
 40
0.4166666666666667
 40
0.4166666666666667
 40
0.5
 40
0.5
 40
0.5
 40
0.5
 40
0.5833333333333334
 40
0.5833333333333334
 40
0.5833333333333334
 40
0.5833333333333334
 40
0.6666666666666666
 40
0.6666666666666666
 40
0.6666666666666666
 40
0.6666666666666666
 40
0.75
 40
0.75
 40
0.75
 40
0.75
 40
0.8333333333333334
 40
0.8333333333333334
 40
0.8333333333333334
 40
0.8333333333333334
 40
1.0
 40
1.0
 40
1.0
 40
1.0
 10
-92.6253
 20
-5.0179
 30
0.0
 10
-92.6253
 20
-5.0179
 30
0.0
 10
-92.6249
 20
34.7635
 30
0.0
 10
-92.6249
 20
34.7635
 30
0.0
 10
-92.6249
 20
34.7635
 30
0.0
 10
-93.7474
 20
34.0482
 30
0.0
 10
-94.7293
 20
33.1337
 30
0.0
 10
-95.523
 20
32.065
 30
0.0
 10
-95.523
 20
32.065
 30
0.0
 10
-96.3206
 20
30.9914
 30
0.0
 10
-96.8634
 20
29.7515
 30
0.0
 10
-97.111
 20
28.4371
 30
0.0
 10
-97.111
 20
28.4371
 30
0.0
 10
-97.3235
 20
27.3106
 30
0.0
 10
-97.446
 20
26.1688
 30
0.0
 10
-97.4783
 20
25.0226
 30
0.0
 10
-97.4783
 20
25.0226
 30
0.0
 10
-97.5105
 20
23.8645
 30
0.0
 10
-97.2918
 20
22.7135
 30
0.0
 10
-96.837
 20
21.648
 30
0.0
 10
-96.837
 20
21.648
 30
0.0
 10
-93.9835
 20
18.5371
 30
0.0
 10
-92.6859
 20
14.3005
 30
0.0
 10
-93.3047
 20
10.1246
 30
0.0
 10
-93.3047
 20
10.1246
 30
0.0
 10
-93.6037
 20
8.1077
 30
0.0
 10
-94.2201
 20
6.1505
 30
0.0
 10
-95.1297
 20
4.326
 30
0.0
 10
-95.1297
 20
4.326
 30
0.0
 10
-96.0528
 20
2.475
 30
0.0
 10
-97.4951
 20
0.9312
 30
0.0
 10
-99.2793
 20
-0.1159
 30
0.0
 10
-99.2793
 20
-0.1159
 30
0.0
 10
-97.7763
 20
0.0062
 30
0.0
 10
-96.2879
 20
-0.4904
 30
0.0
 10
-95.1586
 20
-1.49
 30
0.0
 10
-95.1586
 20
-1.49
 30
0.0
 10
-94.0609
 20
-2.4616
 30
0.0
 10
-93.1946
 20
-3.6674
 30
0.0
 10
-92.6249
 20
-5.0184
 30
0.0
 10
-92.6249
 20
-5.0184
 30
0.0
 10
-92.6249
 20
-5.0184
 30
0.0
 10
-92.6253
 20
-5.0179
 30
0.0
 10
-92.6253
 20
-5.0179
 30
0.0
  0
SPLINE
  5
70
330
1F
100
AcDbEntity
  8
layer 1
 62
     7
370
     9
100
AcDbSpline
210
0.0
220
0.0
230
1.0
 70
    11
 71
     3
 72
    48
 73
    44
 74
     0
 42
0.0000000001
 43
0.0000000001
 12
1.0
 22
0.0
 32
0.0
 13
1.0
 23
0.0
 33
0.0
 40
0.0
 40
0.0
 40
0.0
 40
0.0
 40
0.0833333333333333
 40
0.0833333333333333
 40
0.0833333333333333
 40
0.0833333333333333
 40
0.1666666666666667
 40
0.1666666666666667
 40
0.1666666666666667
 40
0.1666666666666667
 40
0.25
 40
0.25
 40
0.25
 40
0.25
 40
0.3333333333333333
 40
0.3333333333333333
 40
0.3333333333333333
 40
0.3333333333333333
 40
0.4166666666666667
 40
0.4166666666666667
 40
0.4166666666666667
 40
0.4166666666666667
 40
0.5
 40
0.5
 40
0.5
 40
0.5
 40
0.5833333333333334
 40
0.5833333333333334
 40
0.5833333333333334
 40
0.5833333333333334
 40
0.6666666666666666
 40
0.6666666666666666
 40
0.6666666666666666
 40
0.6666666666666666
 40
0.75
 40
0.75
 40
0.75
 40
0.75
 40
0.8333333333333334
 40
0.8333333333333334
 40
0.8333333333333334
 40
0.8333333333333334
 40
1.0
 40
1.0
 40
1.0
 40
1.0
 10
-92.6253
 20
75.7141
 30
0.0
 10
-92.6253
 20
75.7141
 30
0.0
 10
-92.6249
 20
35.9327
 30
0.0
 10
-92.6249
 20
35.9327
 30
0.0
 10
-92.6249
 20
35.9327
 30
0.0
 10
-93.747
 20
36.6481
 30
0.0
 10
-94.7297
 20
37.5631
 30
0.0
 10
-95.523
 20
38.6314
 30
0.0
 10
-95.523
 20
38.6314
 30
0.0
 10
-96.3201
 20
39.7044
 30
0.0
 10
-96.8634
 20
40.9453
 30
0.0
 10
-97.111
 20
42.2592
 30
0.0
 10
-97.111
 20
42.2592
 30
0.0
 10
-97.3235
 20
43.3857
 30
0.0
 10
-97.446
 20
44.528
 30
0.0
 10
-97.4783
 20
45.6742
 30
0.0
 10
-97.4783
 20
45.6742
 30
0.0
 10
-97.5105
 20
46.8318
 30
0.0
 10
-97.2918
 20
47.9833
 30
0.0
 10
-96.837
 20
49.0482
 30
0.0
 10
-96.837
 20
49.0482
 30
0.0
 10
-93.9826
 20
52.1622
 30
0.0
 10
-92.6845
 20
56.3934
 30
0.0
 10
-93.3047
 20
60.5718
 30
0.0
 10
-93.3047
 20
60.5718
 30
0.0
 10
-93.6043
 20
62.5891
 30
0.0
 10
-94.2196
 20
64.5454
 30
0.0
 10
-95.1297
 20
66.3704
 30
0.0
 10
-95.1297
 20
66.3704
 30
0.0
 10
-96.0533
 20
68.2223
 30
0.0
 10
-97.4942
 20
69.7651
 30
0.0
 10
-99.2793
 20
70.8122
 30
0.0
 10
-99.2793
 20
70.8122
 30
0.0
 10
-97.7754
 20
70.6906
 30
0.0
 10
-96.2879
 20
71.1863
 30
0.0
 10
-95.1586
 20
72.1862
 30
0.0
 10
-95.1586
 20
72.1862
 30
0.0
 10
-94.0605
 20
73.1584
 30
0.0
 10
-93.1946
 20
74.3636
 30
0.0
 10
-92.6249
 20
75.7147
 30
0.0
 10
-92.6249
 20
75.7147
 30
0.0
 10
-92.6249
 20
75.7147
 30
0.0
 10
-92.6253
 20
75.7141
 30
0.0
 10
-92.6253
 20
75.7141
 30
0.0
  0
SPLINE
  5
71
330
1F
100
AcDbEntity
  8
layer 1
 62
     7
370
     9
100
AcDbSpline
210
0.0
220
0.0
230
1.0
 70
    11
 71
     3
 72
    48
 73
    44
 74
     0
 42
0.0000000001
 43
0.0000000001
 12
1.0
 22
0.0
 32
0.0
 13
1.0
 23
0.0
 33
0.0
 40
0.0
 40
0.0
 40
0.0
 40
0.0
 40
0.0833333333333333
 40
0.0833333333333333
 40
0.0833333333333333
 40
0.0833333333333333
 40
0.1666666666666667
 40
0.1666666666666667
 40
0.1666666666666667
 40
0.1666666666666667
 40
0.25
 40
0.25
 40
0.25
 40
0.25
 40
0.3333333333333333
 40
0.3333333333333333
 40
0.3333333333333333
 40
0.3333333333333333
 40
0.4166666666666667
 40
0.4166666666666667
 40
0.4166666666666667
 40
0.4166666666666667
 40
0.5
 40
0.5
 40
0.5
 40
0.5
 40
0.5833333333333334
 40
0.5833333333333334
 40
0.5833333333333334
 40
0.5833333333333334
 40
0.6666666666666666
 40
0.6666666666666666
 40
0.6666666666666666
 40
0.6666666666666666
 40
0.75
 40
0.75
 40
0.75
 40
0.75
 40
0.8333333333333334
 40
0.8333333333333334
 40
0.8333333333333334
 40
0.8333333333333334
 40
1.0
 40
1.0
 40
1.0
 40
1.0
 10
-92.6253
 20
85.8071
 30
0.0
 10
-92.6253
 20
85.8071
 30
0.0
 10
-92.6249
 20
125.5885
 30
0.0
 10
-92.6249
 20
125.5885
 30
0.0
 10
-92.6249
 20
125.5885
 30
0.0
 10
-93.7474
 20
124.873
 30
0.0
 10
-94.7297
 20
123.9586
 30
0.0
 10
-95.5235
 20
122.8898
 30
0.0
 10
-95.5235
 20
122.8898
 30
0.0
 10
-96.3206
 20
121.8163
 30
0.0
 10
-96.8634
 20
120.5759
 30
0.0
 10
-97.111
 20
119.2619
 30
0.0
 10
-97.111
 20
119.2619
 30
0.0
 10
-97.3235
 20
118.135
 30
0.0
 10
-97.446
 20
116.9932
 30
0.0
 10
-97.4783
 20
115.847
 30
0.0
 10
-97.4783
 20
115.847
 30
0.0
 10
-97.5105
 20
114.6889
 30
0.0
 10
-97.2918
 20
113.5383
 30
0.0
 10
-96.837
 20
112.473
 30
0.0
 10
-96.837
 20
112.473
 30
0.0
 10
-93.9835
 20
109.3614
 30
0.0
 10
-92.6859
 20
105.1254
 30
0.0
 10
-93.3047
 20
100.9488
 30
0.0
 10
-93.3047
 20
100.9488
 30
0.0
 10
-93.6037
 20
98.933
 30
0.0
 10
-94.2201
 20
96.9758
 30
0.0
 10
-95.1297
 20
95.1513
 30
0.0
 10
-95.1297
 20
95.1513
 30
0.0
 10
-96.0528
 20
93.2998
 30
0.0
 10
-97.4951
 20
91.7561
 30
0.0
 10
-99.2793
 20
90.7094
 30
0.0
 10
-99.2793
 20
90.7094
 30
0.0
 10
-97.7763
 20
90.831
 30
0.0
 10
-96.2879
 20
90.3344
 30
0.0
 10
-95.1586
 20
89.3348
 30
0.0
 10
-95.1586
 20
89.3348
 30
0.0
 10
-94.0609
 20
88.3637
 30
0.0
 10
-93.1946
 20
87.1574
 30
0.0
 10
-92.6249
 20
85.8065
 30
0.0
 10
-92.6249
 20
85.8065
 30
0.0
 10
-92.6249
 20
85.8065
 30
0.0
 10
-92.6253
 20
85.8071
 30
0.0
 10
-92.6253
 20
85.8071
 30
0.0
  0
ENDSEC
  0
SECTION
  2
OBJECTS
  0
DICTIONARY
  5
C
330
0
100
AcDbDictionary
281
     1
  3
ACAD_GROUP
350
D
  3
ACAD_LAYOUT
350
1A
  3
ACAD_MATERIAL
350
3B
  3
ACAD_MLEADERSTYLE
350
93
  3
ACAD_MLINESTYLE
350
17
  3
ACAD_PLOTSETTINGS
350
19
  3
ACAD_PLOTSTYLENAME
350
E
  3
ACAD_TABLESTYLE
350
92
  3
ACAD_VISUALSTYLE
350
2A
  0
DICTIONARY
  5
D
102
{ACAD_REACTORS
330
C
102
}
330
C
100
AcDbDictionary
281
     1
  0
DICTIONARY
  5
1A
102
{ACAD_REACTORS
330
C
102
}
330
C
100
AcDbDictionary
281
     1
  3
Layout1
350
1E
  3
Layout2
350
26
  3
Model
350
22
  0
DICTIONARY
  5
3B
102
{ACAD_REACTORS
330
C
102
}
330
C
100
AcDbDictionary
281
     1
  3
ByBlock
350
3D
  3
ByLayer
350
3C
  3
Global
350
3E
  0
DICTIONARY
  5
93
102
{ACAD_REACTORS
330
C
102
}
330
C
100
AcDbDictionary
281
     1
  0
DICTIONARY
  5
17
102
{ACAD_REACTORS
330
C
102
}
330
C
100
AcDbDictionary
281
     1
  3
Standard
350
18
  0
DICTIONARY
  5
19
102
{ACAD_REACTORS
330
C
102
}
330
C
100
AcDbDictionary
281
     1
  0
ACDBDICTIONARYWDFLT
  5
E
102
{ACAD_REACTORS
330
C
102
}
330
C
100
AcDbDictionary
281
     1
  3
Normal
350
F
100
AcDbDictionaryWithDefault
340
F
  0
DICTIONARY
  5
92
102
{ACAD_REACTORS
330
C
102
}
330
C
100
AcDbDictionary
281
     1
  0
DICTIONARY
  5
2A
102
{ACAD_REACTORS
330
C
102
}
330
C
100
AcDbDictionary
281
     1
  3
2dWireframe
350
2F
  3
3D Hidden
350
31
  3
3dWireframe
350
30
  3
Basic
350
32
  3
Brighten
350
36
  3
ColorChange
350
3A
  3
Conceptual
350
34
  3
Dim
350
35
  3
Facepattern
350
39
  3
Flat
350
2B
  3
FlatWithEdges
350
2C
  3
Gouraud
350
2D
  3
GouraudWithEdges
350
2E
  3
Linepattern
350
38
  3
Realistic
350
33
  3
Thicken
350
37
  0
LAYOUT
  5
1E
102
{ACAD_REACTORS
330
1A
102
}
330
1A
100
AcDbPlotSettings
  1

  2
none_device
  4

  6

 40
0.0
 41
0.0
 42
0.0
 43
0.0
 44
0.0
 45
0.0
 46
0.0
 47
0.0
 48
0.0
 49
0.0
140
0.0
141
0.0
142
1.0
143
1.0
 70
   688
 72
     0
 73
     0
 74
     5
  7

 75
    16
 76
     0
 77
     2
 78
   300
147
1.0
148
0.0
149
0.0
100
AcDbLayout
  1
Layout1
 70
     1
 71
     1
 10
0.0
 20
0.0
 11
12.0
 21
9.0
 12
0.0
 22
0.0
 32
0.0
 14
1.000000000000000E+20
 24
1.000000000000000E+20
 34
1.000000000000000E+20
 15
-1.000000000000000E+20
 25
-1.000000000000000E+20
 35
-1.000000000000000E+20
146
0.0
 13
0.0
 23
0.0
 33
0.0
 16
1.0
 26
0.0
 36
0.0
 17
0.0
 27
1.0
 37
0.0
 76
     0
330
1B
  0
LAYOUT
  5
26
102
{ACAD_REACTORS
330
1A
102
}
330
1A
100
AcDbPlotSettings
  1

  2
none_device
  4

  6

 40
0.0
 41
0.0
 42
0.0
 43
0.0
 44
0.0
 45
0.0
 46
0.0
 47
0.0
 48
0.0
 49
0.0
140
0.0
141
0.0
142
1.0
143
1.0
 70
   688
 72
     0
 73
     0
 74
     5
  7

 75
    16
 76
     0
 77
     2
 78
   300
147
1.0
148
0.0
149
0.0
100
AcDbLayout
  1
Layout2
 70
     1
 71
     2
 10
0.0
 20
0.0
 11
0.0
 21
0.0
 12
0.0
 22
0.0
 32
0.0
 14
0.0
 24
0.0
 34
0.0
 15
0.0
 25
0.0
 35
0.0
146
0.0
 13
0.0
 23
0.0
 33
0.0
 16
1.0
 26
0.0
 36
0.0
 17
0.0
 27
1.0
 37
0.0
 76
     0
330
23
  0
LAYOUT
  5
22
102
{ACAD_REACTORS
330
1A
102
}
330
1A
100
AcDbPlotSettings
  1

  2
none_device
  4

  6

 40
0.0
 41
0.0
 42
0.0
 43
0.0
 44
0.0
 45
0.0
 46
0.0
 47
0.0
 48
0.0
 49
0.0
140
0.0
141
0.0
142
1.0
143
1.0
 70
  1712
 72
     0
 73
     0
 74
     0
  7

 75
     0
 76
     0
 77
     2
 78
   300
147
1.0
148
0.0
149
0.0
100
AcDbLayout
  1
Model
 70
     1
 71
     0
 10
0.0
 20
0.0
 11
12.0
 21
9.0
 12
0.0
 22
0.0
 32
0.0
 14
-187.0287
 24
-106.4953
 34
0.0
 15
-87.0214
 25
131.777
 35
0.0
146
0.0
 13
0.0
 23
0.0
 33
0.0
 16
1.0
 26
0.0
 36
0.0
 17
0.0
 27
1.0
 37
0.0
 76
     0
330
1F
331
29
  0
MATERIAL
  5
3D
102
{ACAD_REACTORS
330
3B
102
}
330
3B
100
AcDbMaterial
  1
ByBlock
 72
     1
 94
      127
  0
MATERIAL
  5
3C
102
{ACAD_REACTORS
330
3B
102
}
330
3B
100
AcDbMaterial
  1
ByLayer
 72
     1
 94
      127
  0
MATERIAL
  5
3E
102
{ACAD_REACTORS
330
3B
102
}
330
3B
100
AcDbMaterial
  1
Global
 72
     1
 94
      127
  0
MLINESTYLE
  5
18
102
{ACAD_REACTORS
330
17
102
}
330
17
100
AcDbMlineStyle
  2
Standard
 70
     0
  3

 62
   256
 51
90.0
 52
90.0
 71
     2
 49
0.5
 62
   256
  6
BYLAYER
 49
-0.5
 62
   256
  6
BYLAYER
  0
ACDBPLACEHOLDER
  5
F
102
{ACAD_REACTORS
330
E
102
}
330
E
  0
VISUALSTYLE
  5
2F
102
{ACAD_REACTORS
330
2A
102
}
102
{ACAD_XDICTIONARY
360
7A
102
}
330
2A
100
AcDbVisualStyle
  2
2dWireframe
 70
     4
 71
     0
 72
     2
 73
     0
 90
        0
 40
-0.6
 41
-30.0
 62
     5
 63
     7
421
 16777215
 74
     1
 91
        4
 64
     7
 65
   257
 75
     1
175
     1
 42
1.0
 92
        0
 66
   257
 43
1.0
 76
     1
 77
     6
 78
     2
 67
     7
 79
     5
170
     0
171
     0
290
     0
174
     0
 93
        1
 44
0.0
173
     0
291
     0
 45
0.0
  0
VISUALSTYLE
  5
31
102
{ACAD_REACTORS
330
2A
102
}
102
{ACAD_XDICTIONARY
360
7E
102
}
330
2A
100
AcDbVisualStyle
  2
3D Hidden
 70
     6
 71
     1
 72
     2
 73
     2
 90
        0
 40
-0.6
 41
-30.0
 62
     5
 63
     7
421
 16777215
 74
     2
 91
        2
 64
     7
 65
   257
 75
     2
175
     1
 42
40.0
 92
        0
 66
   257
 43
1.0
 76
     1
 77
     6
 78
     2
 67
     7
 79
     3
170
     0
171
     0
290
     0
174
     0
 93
        1
 44
0.0
173
     0
291
     0
 45
0.0
  0
VISUALSTYLE
  5
30
102
{ACAD_REACTORS
330
2A
102
}
102
{ACAD_XDICTIONARY
360
7C
102
}
330
2A
100
AcDbVisualStyle
  2
3dWireframe
 70
     5
 71
     0
 72
     2
 73
     0
 90
        0
 40
-0.6
 41
-30.0
 62
     5
 63
     7
421
 16777215
 74
     1
 91
        4
 64
     7
 65
   257
 75
     1
175
     1
 42
1.0
 92
        0
 66
   257
 43
1.0
 76
     1
 77
     6
 78
     2
 67
     7
 79
     5
170
     0
171
     0
290
     0
174
     0
 93
        1
 44
0.0
173
     0
291
     0
 45
0.0
  0
VISUALSTYLE
  5
32
102
{ACAD_REACTORS
330
2A
102
}
102
{ACAD_XDICTIONARY
360
80
102
}
330
2A
100
AcDbVisualStyle
  2
Basic
 70
     7
 71
     1
 72
     0
 73
     1
 90
        0
 40
-0.6
 41
-30.0
 62
     5
 63
     7
421
 16777215
 74
     0
 91
        4
 64
     7
 65
   257
 75
     1
175
     1
 42
1.0
 92
        8
 66
     7
 43
1.0
 76
     1
 77
     6
 78
     2
 67
     7
 79
     5
170
     0
171
     0
290
     0
174
     0
 93
        1
 44
0.0
173
     0
291
     1
 45
0.0
  0
VISUALSTYLE
  5
36
102
{ACAD_REACTORS
330
2A
102
}
102
{ACAD_XDICTIONARY
360
88
102
}
330
2A
100
AcDbVisualStyle
  2
Brighten
 70
    12
 71
     2
 72
     2
 73
     0
 90
        0
 40
-0.6
 41
-30.0
 62
     5
 63
     7
421
 16777215
 74
     1
 91
        4
 64
     7
 65
   257
 75
     1
175
     1
 42
1.0
 92
        8
 66
     7
 43
1.0
 76
     1
 77
     6
 78
     2
 67
     7
 79
     5
170
     0
171
     0
290
     0
174
     0
 93
        1
 44
50.0
173
     0
291
     1
 45
0.0
  0
VISUALSTYLE
  5
3A
102
{ACAD_REACTORS
330
2A
102
}
102
{ACAD_XDICTIONARY
360
90
102
}
330
2A
100
AcDbVisualStyle
  2
ColorChange
 70
    16
 71
     2
 72
     2
 73
     3
 90
        0
 40
-0.6
 41
-30.0
 62
     5
 63
     8
421
  8421504
 74
     1
 91
        4
 64
     7
 65
   257
 75
     1
175
     1
 42
1.0
 92
        8
 66
     8
424
  8421504
 43
1.0
 76
     1
 77
     6
 78
     2
 67
     7
 79
     5
170
     0
171
     0
290
     0
174
     0
 93
        1
 44
0.0
173
     0
291
     1
 45
0.0
  0
VISUALSTYLE
  5
34
102
{ACAD_REACTORS
330
2A
102
}
102
{ACAD_XDICTIONARY
360
84
102
}
330
2A
100
AcDbVisualStyle
  2
Conceptual
 70
     9
 71
     3
 72
     2
 73
     0
 90
        0
 40
-0.6
 41
-30.0
 62
     5
 63
     7
421
 16777215
 74
     2
 91
        2
 64
     7
 65
   257
 75
     1
175
     1
 42
40.0
 92
        8
 66
     7
 43
1.0
 76
     1
 77
     6
 78
     2
 67
     7
 79
     3
170
     0
171
     0
290
     0
174
     0
 93
        1
 44
0.0
173
     0
291
     0
 45
0.0
  0
VISUALSTYLE
  5
35
102
{ACAD_REACTORS
330
2A
102
}
102
{ACAD_XDICTIONARY
360
86
102
}
330
2A
100
AcDbVisualStyle
  2
Dim
 70
    11
 71
     2
 72
     2
 73
     0
 90
        0
 40
-0.6
 41
-30.0
 62
     5
 63
     7
421
 16777215
 74
     1
 91
        4
 64
     7
 65
   257
 75
     1
175
     1
 42
1.0
 92
        8
 66
     7
 43
1.0
 76
     1
 77
     6
 78
     2
 67
     7
 79
     5
170
     0
171
     0
290
     0
174
     0
 93
        1
 44
-50.0
173
     0
291
     1
 45
0.0
  0
VISUALSTYLE
  5
39
102
{ACAD_REACTORS
330
2A
102
}
102
{ACAD_XDICTIONARY
360
8E
102
}
330
2A
100
AcDbVisualStyle
  2
Facepattern
 70
    15
 71
     2
 72
     2
 73
     0
 90
        0
 40
-0.6
 41
-30.0
 62
     5
 63
     7
421
 16777215
 74
     1
 91
        4
 64
     7
 65
   257
 75
     1
175
     1
 42
1.0
 92
        8
 66
     7
 43
1.0
 76
     1
 77
     6
 78
     2
 67
     7
 79
     5
170
     0
171
     0
290
     0
174
     0
 93
        1
 44
0.0
173
     0
291
     1
 45
0.0
  0
VISUALSTYLE
  5
2B
102
{ACAD_REACTORS
330
2A
102
}
102
{ACAD_XDICTIONARY
360
72
102
}
330
2A
100
AcDbVisualStyle
  2
Flat
 70
     0
 71
     2
 72
     1
 73
     1
 90
        2
 40
-0.6
 41
30.0
 62
     5
 63
     7
421
 16777215
 74
     0
 91
        4
 64
     7
 65
   257
 75
     1
175
     1
 42
1.0
 92
        8
 66
     7
 43
1.0
 76
     1
 77
     6
 78
     2
 67
     7
 79
     5
170
     0
171
     0
290
     0
174
     0
 93
       13
 44
0.0
173
     0
291
     1
 45
0.0
  0
VISUALSTYLE
  5
2C
102
{ACAD_REACTORS
330
2A
102
}
102
{ACAD_XDICTIONARY
360
74
102
}
330
2A
100
AcDbVisualStyle
  2
FlatWithEdges
 70
     1
 71
     2
 72
     1
 73
     1
 90
        2
 40
-0.6
 41
30.0
 62
     5
 63
     7
421
 16777215
 74
     1
 91
        4
 64
     7
 65
   257
 75
     1
175
     1
 42
1.0
 92
        0
 66
   257
 43
1.0
 76
     1
 77
     6
 78
     2
 67
     7
 79
     5
170
     0
171
     0
290
     0
174
     0
 93
       13
 44
0.0
173
     0
291
     1
 45
0.0
  0
VISUALSTYLE
  5
2D
102
{ACAD_REACTORS
330
2A
102
}
102
{ACAD_XDICTIONARY
360
76
102
}
330
2A
100
AcDbVisualStyle
  2
Gouraud
 70
     2
 71
     2
 72
     2
 73
     1
 90
        2
 40
-0.6
 41
30.0
 62
     5
 63
     7
421
 16777215
 74
     0
 91
        4
 64
     7
 65
   257
 75
     1
175
     1
 42
1.0
 92
        0
 66
     7
 43
1.0
 76
     1
 77
     6
 78
     2
 67
     7
 79
     5
170
     0
171
     0
290
     0
174
     0
 93
       13
 44
0.0
173
     0
291
     1
 45
0.0
  0
VISUALSTYLE
  5
2E
102
{ACAD_REACTORS
330
2A
102
}
102
{ACAD_XDICTIONARY
360
78
102
}
330
2A
100
AcDbVisualStyle
  2
GouraudWithEdges
 70
     3
 71
     2
 72
     2
 73
     1
 90
        2
 40
-0.6
 41
30.0
 62
     5
 63
     7
421
 16777215
 74
     1
 91
        4
 64
     7
 65
   257
 75
     1
175
     1
 42
1.0
 92
        0
 66
   257
 43
1.0
 76
     1
 77
     6
 78
     2
 67
     7
 79
     5
170
     0
171
     0
290
     0
174
     0
 93
       13
 44
0.0
173
     0
291
     1
 45
0.0
  0
VISUALSTYLE
  5
38
102
{ACAD_REACTORS
330
2A
102
}
102
{ACAD_XDICTIONARY
360
8C
102
}
330
2A
100
AcDbVisualStyle
  2
Linepattern
 70
    14
 71
     2
 72
     2
 73
     0
 90
        0
 40
-0.6
 41
-30.0
 62
     5
 63
     7
421
 16777215
 74
     1
 91
        4
 64
     7
 65
   257
 75
     7
175
     7
 42
1.0
 92
        8
 66
     7
 43
1.0
 76
     1
 77
     6
 78
     2
 67
     7
 79
     5
170
     0
171
     0
290
     0
174
     0
 93
        1
 44
0.0
173
     0
291
     1
 45
0.0
  0
VISUALSTYLE
  5
33
102
{ACAD_REACTORS
330
2A
102
}
102
{ACAD_XDICTIONARY
360
82
102
}
330
2A
100
AcDbVisualStyle
  2
Realistic
 70
     8
 71
     2
 72
     2
 73
     0
 90
        0
 40
-0.6
 41
-30.0
 62
     5
 63
     7
421
 16777215
 74
     1
 91
        0
 64
     7
 65
   257
 75
     1
175
     1
 42
1.0
 92
        8
 66
     8
424
  7895160
 43
1.0
 76
     1
 77
     6
 78
     2
 67
     7
 79
     5
170
     0
171
     0
290
     0
174
     0
 93
       13
 44
0.0
173
     0
291
     0
 45
0.0
  0
VISUALSTYLE
  5
37
102
{ACAD_REACTORS
330
2A
102
}
102
{ACAD_XDICTIONARY
360
8A
102
}
330
2A
100
AcDbVisualStyle
  2
Thicken
 70
    13
 71
     2
 72
     2
 73
     0
 90
        0
 40
-0.6
 41
-30.0
 62
     5
 63
     7
421
 16777215
 74
     1
 91
        4
 64
     7
 65
   257
 75
     1
175
     1
 42
1.0
 92
       12
 66
     7
 43
1.0
 76
     1
 77
     6
 78
     2
 67
     7
 79
     5
170
     0
171
     0
290
     0
174
     0
 93
        1
 44
0.0
173
     0
291
     1
 45
0.0
  0
DICTIONARY
  5
7A
330
2F
100
AcDbDictionary
280
     1
281
     1
  3
ACAD_XREC_ROUNDTRIP
360
7B
  0
DICTIONARY
  5
7E
330
31
100
AcDbDictionary
280
     1
281
     1
  3
ACAD_XREC_ROUNDTRIP
360
7F
  0
DICTIONARY
  5
7C
330
30
100
AcDbDictionary
280
     1
281
     1
  3
ACAD_XREC_ROUNDTRIP
360
7D
  0
DICTIONARY
  5
80
330
32
100
AcDbDictionary
280
     1
281
     1
  3
ACAD_XREC_ROUNDTRIP
360
81
  0
DICTIONARY
  5
88
330
36
100
AcDbDictionary
280
     1
281
     1
  3
ACAD_XREC_ROUNDTRIP
360
89
  0
DICTIONARY
  5
90
330
3A
100
AcDbDictionary
280
     1
281
     1
  3
ACAD_XREC_ROUNDTRIP
360
91
  0
DICTIONARY
  5
84
330
34
100
AcDbDictionary
280
     1
281
     1
  3
ACAD_XREC_ROUNDTRIP
360
85
  0
DICTIONARY
  5
86
330
35
100
AcDbDictionary
280
     1
281
     1
  3
ACAD_XREC_ROUNDTRIP
360
87
  0
DICTIONARY
  5
8E
330
39
100
AcDbDictionary
280
     1
281
     1
  3
ACAD_XREC_ROUNDTRIP
360
8F
  0
DICTIONARY
  5
72
330
2B
100
AcDbDictionary
280
     1
281
     1
  3
ACAD_XREC_ROUNDTRIP
360
73
  0
DICTIONARY
  5
74
330
2C
100
AcDbDictionary
280
     1
281
     1
  3
ACAD_XREC_ROUNDTRIP
360
75
  0
DICTIONARY
  5
76
330
2D
100
AcDbDictionary
280
     1
281
     1
  3
ACAD_XREC_ROUNDTRIP
360
77
  0
DICTIONARY
  5
78
330
2E
100
AcDbDictionary
280
     1
281
     1
  3
ACAD_XREC_ROUNDTRIP
360
79
  0
DICTIONARY
  5
8C
330
38
100
AcDbDictionary
280
     1
281
     1
  3
ACAD_XREC_ROUNDTRIP
360
8D
  0
DICTIONARY
  5
82
330
33
100
AcDbDictionary
280
     1
281
     1
  3
ACAD_XREC_ROUNDTRIP
360
83
  0
DICTIONARY
  5
8A
330
37
100
AcDbDictionary
280
     1
281
     1
  3
ACAD_XREC_ROUNDTRIP
360
8B
  0
XRECORD
  5
7B
102
{ACAD_REACTORS
330
7A
102
}
330
7A
100
AcDbXrecord
280
     1
102
RTVSPropertyOp0
 70
     1
102
RTVSPropertyOp1
 70
     1
102
RTVSPropertyOp2
 70
     1
102
RTVSPropertyOp3
 70
     1
102
RTVSPropertyOp4
 70
     1
102
RTVSPropertyOp5
 70
     1
102
RTVSPropertyOp6
 70
     1
102
RTVSPropertyOp7
 70
     1
102
RTVSPropertyOp8
 70
     1
102
RTVSPropertyOp9
 70
     1
102
RTVSPropertyOp10
 70
     1
102
RTVSPropertyOp11
 70
     1
102
RTVSPropertyOp12
 70
     1
102
RTVSPropertyOp13
 70
     1
102
RTVSPropertyOp14
 70
     1
102
RTVSPropertyOp15
 70
     1
102
RTVSPropertyOp16
 70
     1
102
RTVSPropertyOp17
 70
     1
102
RTVSPropertyOp18
 70
     1
102
RTVSPropertyOp19
 70
     1
102
RTVSPropertyOp20
 70
     1
102
RTVSPropertyOp21
 70
     1
102
RTVSPropertyOp22
 70
     1
102
RTVSPropertyOp23
 70
     1
102
RTVSPropertyOp24
 70
     1
102
RTVSPropertyOp25
 70
     1
102
RTVSPropertyOp26
 70
     1
102
RTVSPropertyOp27
 70
     1
102
RTVSPropertyOp28
 70
     1
102
RTVSPropertyOp29
 70
     1
102
RTVSPropertyOp30
 70
     1
102
RTVSPropertyOp31
 70
     1
102
RTVSPropertyOp32
 70
     1
  0
XRECORD
  5
7F
102
{ACAD_REACTORS
330
7E
102
}
330
7E
100
AcDbXrecord
280
     1
102
RTVSPropertyOp0
 70
     1
102
RTVSPropertyOp1
 70
     1
102
RTVSPropertyOp2
 70
     1
102
RTVSPropertyOp3
 70
     1
102
RTVSPropertyOp4
 70
     1
102
RTVSPropertyOp5
 70
     1
102
RTVSPropertyOp6
 70
     1
102
RTVSPropertyOp7
 70
     1
102
RTVSPropertyOp8
 70
     1
102
RTVSPropertyOp9
 70
     1
102
RTVSPropertyOp10
 70
     1
102
RTVSPropertyOp11
 70
     1
102
RTVSPropertyOp12
 70
     1
102
RTVSPropertyOp13
 70
     1
102
RTVSPropertyOp14
 70
     1
102
RTVSPropertyOp15
 70
     1
102
RTVSPropertyOp16
 70
     1
102
RTVSPropertyOp17
 70
     1
102
RTVSPropertyOp18
 70
     1
102
RTVSPropertyOp19
 70
     1
102
RTVSPropertyOp20
 70
     1
102
RTVSPropertyOp21
 70
     1
102
RTVSPropertyOp22
 70
     1
102
RTVSPropertyOp23
 70
     1
102
RTVSPropertyOp24
 70
     1
102
RTVSPropertyOp25
 70
     1
102
RTVSPropertyOp26
 70
     1
102
RTVSPropertyOp27
 70
     1
102
RTVSPropertyOp28
 70
     1
102
RTVSPropertyOp29
 70
     1
102
RTVSPropertyOp30
 70
     1
102
RTVSPropertyOp31
 70
     1
102
RTVSPropertyOp32
 70
     1
  0
XRECORD
  5
7D
102
{ACAD_REACTORS
330
7C
102
}
330
7C
100
AcDbXrecord
280
     1
102
RTVSPropertyOp0
 70
     1
102
RTVSPropertyOp1
 70
     1
102
RTVSPropertyOp2
 70
     1
102
RTVSPropertyOp3
 70
     1
102
RTVSPropertyOp4
 70
     1
102
RTVSPropertyOp5
 70
     1
102
RTVSPropertyOp6
 70
     1
102
RTVSPropertyOp7
 70
     1
102
RTVSPropertyOp8
 70
     1
102
RTVSPropertyOp9
 70
     1
102
RTVSPropertyOp10
 70
     1
102
RTVSPropertyOp11
 70
     1
102
RTVSPropertyOp12
 70
     1
102
RTVSPropertyOp13
 70
     1
102
RTVSPropertyOp14
 70
     1
102
RTVSPropertyOp15
 70
     1
102
RTVSPropertyOp16
 70
     1
102
RTVSPropertyOp17
 70
     1
102
RTVSPropertyOp18
 70
     1
102
RTVSPropertyOp19
 70
     1
102
RTVSPropertyOp20
 70
     1
102
RTVSPropertyOp21
 70
     1
102
RTVSPropertyOp22
 70
     1
102
RTVSPropertyOp23
 70
     1
102
RTVSPropertyOp24
 70
     1
102
RTVSPropertyOp25
 70
     1
102
RTVSPropertyOp26
 70
     1
102
RTVSPropertyOp27
 70
     1
102
RTVSPropertyOp28
 70
     1
102
RTVSPropertyOp29
 70
     1
102
RTVSPropertyOp30
 70
     1
102
RTVSPropertyOp31
 70
     1
102
RTVSPropertyOp32
 70
     1
  0
XRECORD
  5
81
102
{ACAD_REACTORS
330
80
102
}
330
80
100
AcDbXrecord
280
     1
102
RTVSPropertyOp0
 70
     1
102
RTVSPropertyOp1
 70
     1
102
RTVSPropertyOp2
 70
     1
102
RTVSPropertyOp3
 70
     1
102
RTVSPropertyOp4
 70
     1
102
RTVSPropertyOp5
 70
     1
102
RTVSPropertyOp6
 70
     1
102
RTVSPropertyOp7
 70
     1
102
RTVSPropertyOp8
 70
     1
102
RTVSPropertyOp9
 70
     1
102
RTVSPropertyOp10
 70
     1
102
RTVSPropertyOp11
 70
     1
102
RTVSPropertyOp12
 70
     1
102
RTVSPropertyOp13
 70
     1
102
RTVSPropertyOp14
 70
     1
102
RTVSPropertyOp15
 70
     1
102
RTVSPropertyOp16
 70
     1
102
RTVSPropertyOp17
 70
     1
102
RTVSPropertyOp18
 70
     1
102
RTVSPropertyOp19
 70
     1
102
RTVSPropertyOp20
 70
     1
102
RTVSPropertyOp21
 70
     1
102
RTVSPropertyOp22
 70
     1
102
RTVSPropertyOp23
 70
     1
102
RTVSPropertyOp24
 70
     1
102
RTVSPropertyOp25
 70
     1
102
RTVSPropertyOp26
 70
     1
102
RTVSPropertyOp27
 70
     1
102
RTVSPropertyOp28
 70
     1
102
RTVSPropertyOp29
 70
     1
102
RTVSPropertyOp30
 70
     1
102
RTVSPropertyOp31
 70
     1
102
RTVSPropertyOp32
 70
     1
  0
XRECORD
  5
89
102
{ACAD_REACTORS
330
88
102
}
330
88
100
AcDbXrecord
280
     1
102
RTVSPropertyOp0
 70
     1
102
RTVSPropertyOp1
 70
     1
102
RTVSPropertyOp2
 70
     1
102
RTVSPropertyOp3
 70
     1
102
RTVSPropertyOp4
 70
     1
102
RTVSPropertyOp5
 70
     1
102
RTVSPropertyOp6
 70
     1
102
RTVSPropertyOp7
 70
     1
102
RTVSPropertyOp8
 70
     1
102
RTVSPropertyOp9
 70
     1
102
RTVSPropertyOp10
 70
     1
102
RTVSPropertyOp11
 70
     1
102
RTVSPropertyOp12
 70
     1
102
RTVSPropertyOp13
 70
     1
102
RTVSPropertyOp14
 70
     1
102
RTVSPropertyOp15
 70
     1
102
RTVSPropertyOp16
 70
     1
102
RTVSPropertyOp17
 70
     1
102
RTVSPropertyOp18
 70
     1
102
RTVSPropertyOp19
 70
     1
102
RTVSPropertyOp20
 70
     1
102
RTVSPropertyOp21
 70
     1
102
RTVSPropertyOp22
 70
     1
102
RTVSPropertyOp23
 70
     1
102
RTVSPropertyOp24
 70
     1
102
RTVSPropertyOp25
 70
     1
102
RTVSPropertyOp26
 70
     1
102
RTVSPropertyOp27
 70
     1
102
RTVSPropertyOp28
 70
     1
102
RTVSPropertyOp29
 70
     1
102
RTVSPropertyOp30
 70
     1
102
RTVSPropertyOp31
 70
     1
102
RTVSPropertyOp32
 70
     1
  0
XRECORD
  5
91
102
{ACAD_REACTORS
330
90
102
}
330
90
100
AcDbXrecord
280
     1
102
RTVSPropertyOp0
 70
     1
102
RTVSPropertyOp1
 70
     1
102
RTVSPropertyOp2
 70
     1
102
RTVSPropertyOp3
 70
     1
102
RTVSPropertyOp4
 70
     1
102
RTVSPropertyOp5
 70
     1
102
RTVSPropertyOp6
 70
     1
102
RTVSPropertyOp7
 70
     1
102
RTVSPropertyOp8
 70
     1
102
RTVSPropertyOp9
 70
     1
102
RTVSPropertyOp10
 70
     1
102
RTVSPropertyOp11
 70
     1
102
RTVSPropertyOp12
 70
     1
102
RTVSPropertyOp13
 70
     1
102
RTVSPropertyOp14
 70
     1
102
RTVSPropertyOp15
 70
     1
102
RTVSPropertyOp16
 70
     1
102
RTVSPropertyOp17
 70
     1
102
RTVSPropertyOp18
 70
     1
102
RTVSPropertyOp19
 70
     1
102
RTVSPropertyOp20
 70
     1
102
RTVSPropertyOp21
 70
     1
102
RTVSPropertyOp22
 70
     1
102
RTVSPropertyOp23
 70
     1
102
RTVSPropertyOp24
 70
     1
102
RTVSPropertyOp25
 70
     1
102
RTVSPropertyOp26
 70
     1
102
RTVSPropertyOp27
 70
     1
102
RTVSPropertyOp28
 70
     1
102
RTVSPropertyOp29
 70
     1
102
RTVSPropertyOp30
 70
     1
102
RTVSPropertyOp31
 70
     1
102
RTVSPropertyOp32
 70
     1
  0
XRECORD
  5
85
102
{ACAD_REACTORS
330
84
102
}
330
84
100
AcDbXrecord
280
     1
102
RTVSPropertyOp0
 70
     1
102
RTVSPropertyOp1
 70
     1
102
RTVSPropertyOp2
 70
     1
102
RTVSPropertyOp3
 70
     1
102
RTVSPropertyOp4
 70
     1
102
RTVSPropertyOp5
 70
     1
102
RTVSPropertyOp6
 70
     1
102
RTVSPropertyOp7
 70
     1
102
RTVSPropertyOp8
 70
     1
102
RTVSPropertyOp9
 70
     1
102
RTVSPropertyOp10
 70
     1
102
RTVSPropertyOp11
 70
     1
102
RTVSPropertyOp12
 70
     1
102
RTVSPropertyOp13
 70
     1
102
RTVSPropertyOp14
 70
     1
102
RTVSPropertyOp15
 70
     1
102
RTVSPropertyOp16
 70
     1
102
RTVSPropertyOp17
 70
     1
102
RTVSPropertyOp18
 70
     1
102
RTVSPropertyOp19
 70
     1
102
RTVSPropertyOp20
 70
     1
102
RTVSPropertyOp21
 70
     1
102
RTVSPropertyOp22
 70
     1
102
RTVSPropertyOp23
 70
     1
102
RTVSPropertyOp24
 70
     1
102
RTVSPropertyOp25
 70
     1
102
RTVSPropertyOp26
 70
     1
102
RTVSPropertyOp27
 70
     1
102
RTVSPropertyOp28
 70
     1
102
RTVSPropertyOp29
 70
     1
102
RTVSPropertyOp30
 70
     1
102
RTVSPropertyOp31
 70
     1
102
RTVSPropertyOp32
 70
     1
  0
XRECORD
  5
87
102
{ACAD_REACTORS
330
86
102
}
330
86
100
AcDbXrecord
280
     1
102
RTVSPropertyOp0
 70
     1
102
RTVSPropertyOp1
 70
     1
102
RTVSPropertyOp2
 70
     1
102
RTVSPropertyOp3
 70
     1
102
RTVSPropertyOp4
 70
     1
102
RTVSPropertyOp5
 70
     1
102
RTVSPropertyOp6
 70
     1
102
RTVSPropertyOp7
 70
     1
102
RTVSPropertyOp8
 70
     1
102
RTVSPropertyOp9
 70
     1
102
RTVSPropertyOp10
 70
     1
102
RTVSPropertyOp11
 70
     1
102
RTVSPropertyOp12
 70
     1
102
RTVSPropertyOp13
 70
     1
102
RTVSPropertyOp14
 70
     1
102
RTVSPropertyOp15
 70
     1
102
RTVSPropertyOp16
 70
     1
102
RTVSPropertyOp17
 70
     1
102
RTVSPropertyOp18
 70
     1
102
RTVSPropertyOp19
 70
     1
102
RTVSPropertyOp20
 70
     1
102
RTVSPropertyOp21
 70
     1
102
RTVSPropertyOp22
 70
     1
102
RTVSPropertyOp23
 70
     1
102
RTVSPropertyOp24
 70
     1
102
RTVSPropertyOp25
 70
     1
102
RTVSPropertyOp26
 70
     1
102
RTVSPropertyOp27
 70
     1
102
RTVSPropertyOp28
 70
     1
102
RTVSPropertyOp29
 70
     1
102
RTVSPropertyOp30
 70
     1
102
RTVSPropertyOp31
 70
     1
102
RTVSPropertyOp32
 70
     1
  0
XRECORD
  5
8F
102
{ACAD_REACTORS
330
8E
102
}
330
8E
100
AcDbXrecord
280
     1
102
RTVSPropertyOp0
 70
     1
102
RTVSPropertyOp1
 70
     1
102
RTVSPropertyOp2
 70
     1
102
RTVSPropertyOp3
 70
     1
102
RTVSPropertyOp4
 70
     1
102
RTVSPropertyOp5
 70
     1
102
RTVSPropertyOp6
 70
     1
102
RTVSPropertyOp7
 70
     1
102
RTVSPropertyOp8
 70
     1
102
RTVSPropertyOp9
 70
     1
102
RTVSPropertyOp10
 70
     1
102
RTVSPropertyOp11
 70
     1
102
RTVSPropertyOp12
 70
     1
102
RTVSPropertyOp13
 70
     1
102
RTVSPropertyOp14
 70
     1
102
RTVSPropertyOp15
 70
     1
102
RTVSPropertyOp16
 70
     1
102
RTVSPropertyOp17
 70
     1
102
RTVSPropertyOp18
 70
     1
102
RTVSPropertyOp19
 70
     1
102
RTVSPropertyOp20
 70
     1
102
RTVSPropertyOp21
 70
     1
102
RTVSPropertyOp22
 70
     1
102
RTVSPropertyOp23
 70
     1
102
RTVSPropertyOp24
 70
     1
102
RTVSPropertyOp25
 70
     1
102
RTVSPropertyOp26
 70
     1
102
RTVSPropertyOp27
 70
     1
102
RTVSPropertyOp28
 70
     1
102
RTVSPropertyOp29
 70
     1
102
RTVSPropertyOp30
 70
     1
102
RTVSPropertyOp31
 70
     1
102
RTVSPropertyOp32
 70
     1
  0
XRECORD
  5
73
102
{ACAD_REACTORS
330
72
102
}
330
72
100
AcDbXrecord
280
     1
102
RTVSPropertyOp0
 70
     1
102
RTVSPropertyOp1
 70
     1
102
RTVSPropertyOp2
 70
     1
102
RTVSPropertyOp3
 70
     1
102
RTVSPropertyOp4
 70
     1
102
RTVSPropertyOp5
 70
     1
102
RTVSPropertyOp6
 70
     1
102
RTVSPropertyOp7
 70
     1
102
RTVSPropertyOp8
 70
     1
102
RTVSPropertyOp9
 70
     1
102
RTVSPropertyOp10
 70
     1
102
RTVSPropertyOp11
 70
     1
102
RTVSPropertyOp12
 70
     1
102
RTVSPropertyOp13
 70
     1
102
RTVSPropertyOp14
 70
     1
102
RTVSPropertyOp15
 70
     1
102
RTVSPropertyOp16
 70
     1
102
RTVSPropertyOp17
 70
     1
102
RTVSPropertyOp18
 70
     1
102
RTVSPropertyOp19
 70
     1
102
RTVSPropertyOp20
 70
     1
102
RTVSPropertyOp21
 70
     1
102
RTVSPropertyOp22
 70
     1
102
RTVSPropertyOp23
 70
     1
102
RTVSPropertyOp24
 70
     1
102
RTVSPropertyOp25
 70
     1
102
RTVSPropertyOp26
 70
     1
102
RTVSPropertyOp27
 70
     1
102
RTVSPropertyOp28
 70
     1
102
RTVSPropertyOp29
 70
     1
102
RTVSPropertyOp30
 70
     1
102
RTVSPropertyOp31
 70
     1
102
RTVSPropertyOp32
 70
     1
  0
XRECORD
  5
75
102
{ACAD_REACTORS
330
74
102
}
330
74
100
AcDbXrecord
280
     1
102
RTVSPropertyOp0
 70
     1
102
RTVSPropertyOp1
 70
     1
102
RTVSPropertyOp2
 70
     1
102
RTVSPropertyOp3
 70
     1
102
RTVSPropertyOp4
 70
     1
102
RTVSPropertyOp5
 70
     1
102
RTVSPropertyOp6
 70
     1
102
RTVSPropertyOp7
 70
     1
102
RTVSPropertyOp8
 70
     1
102
RTVSPropertyOp9
 70
     1
102
RTVSPropertyOp10
 70
     1
102
RTVSPropertyOp11
 70
     1
102
RTVSPropertyOp12
 70
     1
102
RTVSPropertyOp13
 70
     1
102
RTVSPropertyOp14
 70
     1
102
RTVSPropertyOp15
 70
     1
102
RTVSPropertyOp16
 70
     1
102
RTVSPropertyOp17
 70
     1
102
RTVSPropertyOp18
 70
     1
102
RTVSPropertyOp19
 70
     1
102
RTVSPropertyOp20
 70
     1
102
RTVSPropertyOp21
 70
     1
102
RTVSPropertyOp22
 70
     1
102
RTVSPropertyOp23
 70
     1
102
RTVSPropertyOp24
 70
     1
102
RTVSPropertyOp25
 70
     1
102
RTVSPropertyOp26
 70
     1
102
RTVSPropertyOp27
 70
     1
102
RTVSPropertyOp28
 70
     1
102
RTVSPropertyOp29
 70
     1
102
RTVSPropertyOp30
 70
     1
102
RTVSPropertyOp31
 70
     1
102
RTVSPropertyOp32
 70
     1
  0
XRECORD
  5
77
102
{ACAD_REACTORS
330
76
102
}
330
76
100
AcDbXrecord
280
     1
102
RTVSPropertyOp0
 70
     1
102
RTVSPropertyOp1
 70
     1
102
RTVSPropertyOp2
 70
     1
102
RTVSPropertyOp3
 70
     1
102
RTVSPropertyOp4
 70
     1
102
RTVSPropertyOp5
 70
     1
102
RTVSPropertyOp6
 70
     1
102
RTVSPropertyOp7
 70
     1
102
RTVSPropertyOp8
 70
     1
102
RTVSPropertyOp9
 70
     1
102
RTVSPropertyOp10
 70
     1
102
RTVSPropertyOp11
 70
     1
102
RTVSPropertyOp12
 70
     1
102
RTVSPropertyOp13
 70
     1
102
RTVSPropertyOp14
 70
     1
102
RTVSPropertyOp15
 70
     1
102
RTVSPropertyOp16
 70
     1
102
RTVSPropertyOp17
 70
     1
102
RTVSPropertyOp18
 70
     1
102
RTVSPropertyOp19
 70
     1
102
RTVSPropertyOp20
 70
     1
102
RTVSPropertyOp21
 70
     1
102
RTVSPropertyOp22
 70
     1
102
RTVSPropertyOp23
 70
     1
102
RTVSPropertyOp24
 70
     1
102
RTVSPropertyOp25
 70
     1
102
RTVSPropertyOp26
 70
     1
102
RTVSPropertyOp27
 70
     1
102
RTVSPropertyOp28
 70
     1
102
RTVSPropertyOp29
 70
     1
102
RTVSPropertyOp30
 70
     1
102
RTVSPropertyOp31
 70
     1
102
RTVSPropertyOp32
 70
     1
  0
XRECORD
  5
79
102
{ACAD_REACTORS
330
78
102
}
330
78
100
AcDbXrecord
280
     1
102
RTVSPropertyOp0
 70
     1
102
RTVSPropertyOp1
 70
     1
102
RTVSPropertyOp2
 70
     1
102
RTVSPropertyOp3
 70
     1
102
RTVSPropertyOp4
 70
     1
102
RTVSPropertyOp5
 70
     1
102
RTVSPropertyOp6
 70
     1
102
RTVSPropertyOp7
 70
     1
102
RTVSPropertyOp8
 70
     1
102
RTVSPropertyOp9
 70
     1
102
RTVSPropertyOp10
 70
     1
102
RTVSPropertyOp11
 70
     1
102
RTVSPropertyOp12
 70
     1
102
RTVSPropertyOp13
 70
     1
102
RTVSPropertyOp14
 70
     1
102
RTVSPropertyOp15
 70
     1
102
RTVSPropertyOp16
 70
     1
102
RTVSPropertyOp17
 70
     1
102
RTVSPropertyOp18
 70
     1
102
RTVSPropertyOp19
 70
     1
102
RTVSPropertyOp20
 70
     1
102
RTVSPropertyOp21
 70
     1
102
RTVSPropertyOp22
 70
     1
102
RTVSPropertyOp23
 70
     1
102
RTVSPropertyOp24
 70
     1
102
RTVSPropertyOp25
 70
     1
102
RTVSPropertyOp26
 70
     1
102
RTVSPropertyOp27
 70
     1
102
RTVSPropertyOp28
 70
     1
102
RTVSPropertyOp29
 70
     1
102
RTVSPropertyOp30
 70
     1
102
RTVSPropertyOp31
 70
     1
102
RTVSPropertyOp32
 70
     1
  0
XRECORD
  5
8D
102
{ACAD_REACTORS
330
8C
102
}
330
8C
100
AcDbXrecord
280
     1
102
RTVSPropertyOp0
 70
     1
102
RTVSPropertyOp1
 70
     1
102
RTVSPropertyOp2
 70
     1
102
RTVSPropertyOp3
 70
     1
102
RTVSPropertyOp4
 70
     1
102
RTVSPropertyOp5
 70
     1
102
RTVSPropertyOp6
 70
     1
102
RTVSPropertyOp7
 70
     1
102
RTVSPropertyOp8
 70
     1
102
RTVSPropertyOp9
 70
     1
102
RTVSPropertyOp10
 70
     1
102
RTVSPropertyOp11
 70
     1
102
RTVSPropertyOp12
 70
     1
102
RTVSPropertyOp13
 70
     1
102
RTVSPropertyOp14
 70
     1
102
RTVSPropertyOp15
 70
     1
102
RTVSPropertyOp16
 70
     1
102
RTVSPropertyOp17
 70
     1
102
RTVSPropertyOp18
 70
     1
102
RTVSPropertyOp19
 70
     1
102
RTVSPropertyOp20
 70
     1
102
RTVSPropertyOp21
 70
     1
102
RTVSPropertyOp22
 70
     1
102
RTVSPropertyOp23
 70
     1
102
RTVSPropertyOp24
 70
     1
102
RTVSPropertyOp25
 70
     1
102
RTVSPropertyOp26
 70
     1
102
RTVSPropertyOp27
 70
     1
102
RTVSPropertyOp28
 70
     1
102
RTVSPropertyOp29
 70
     1
102
RTVSPropertyOp30
 70
     1
102
RTVSPropertyOp31
 70
     1
102
RTVSPropertyOp32
 70
     1
  0
XRECORD
  5
83
102
{ACAD_REACTORS
330
82
102
}
330
82
100
AcDbXrecord
280
     1
102
RTVSPropertyOp0
 70
     1
102
RTVSPropertyOp1
 70
     1
102
RTVSPropertyOp2
 70
     1
102
RTVSPropertyOp3
 70
     1
102
RTVSPropertyOp4
 70
     1
102
RTVSPropertyOp5
 70
     1
102
RTVSPropertyOp6
 70
     1
102
RTVSPropertyOp7
 70
     1
102
RTVSPropertyOp8
 70
     1
102
RTVSPropertyOp9
 70
     1
102
RTVSPropertyOp10
 70
     1
102
RTVSPropertyOp11
 70
     1
102
RTVSPropertyOp12
 70
     1
102
RTVSPropertyOp13
 70
     1
102
RTVSPropertyOp14
 70
     1
102
RTVSPropertyOp15
 70
     1
102
RTVSPropertyOp16
 70
     1
102
RTVSPropertyOp17
 70
     1
102
RTVSPropertyOp18
 70
     1
102
RTVSPropertyOp19
 70
     1
102
RTVSPropertyOp20
 70
     1
102
RTVSPropertyOp21
 70
     1
102
RTVSPropertyOp22
 70
     1
102
RTVSPropertyOp23
 70
     1
102
RTVSPropertyOp24
 70
     1
102
RTVSPropertyOp25
 70
     1
102
RTVSPropertyOp26
 70
     1
102
RTVSPropertyOp27
 70
     1
102
RTVSPropertyOp28
 70
     1
102
RTVSPropertyOp29
 70
     1
102
RTVSPropertyOp30
 70
     1
102
RTVSPropertyOp31
 70
     1
102
RTVSPropertyOp32
 70
     1
  0
XRECORD
  5
8B
102
{ACAD_REACTORS
330
8A
102
}
330
8A
100
AcDbXrecord
280
     1
102
RTVSPropertyOp0
 70
     1
102
RTVSPropertyOp1
 70
     1
102
RTVSPropertyOp2
 70
     1
102
RTVSPropertyOp3
 70
     1
102
RTVSPropertyOp4
 70
     1
102
RTVSPropertyOp5
 70
     1
102
RTVSPropertyOp6
 70
     1
102
RTVSPropertyOp7
 70
     1
102
RTVSPropertyOp8
 70
     1
102
RTVSPropertyOp9
 70
     1
102
RTVSPropertyOp10
 70
     1
102
RTVSPropertyOp11
 70
     1
102
RTVSPropertyOp12
 70
     1
102
RTVSPropertyOp13
 70
     1
102
RTVSPropertyOp14
 70
     1
102
RTVSPropertyOp15
 70
     1
102
RTVSPropertyOp16
 70
     1
102
RTVSPropertyOp17
 70
     1
102
RTVSPropertyOp18
 70
     1
102
RTVSPropertyOp19
 70
     1
102
RTVSPropertyOp20
 70
     1
102
RTVSPropertyOp21
 70
     1
102
RTVSPropertyOp22
 70
     1
102
RTVSPropertyOp23
 70
     1
102
RTVSPropertyOp24
 70
     1
102
RTVSPropertyOp25
 70
     1
102
RTVSPropertyOp26
 70
     1
102
RTVSPropertyOp27
 70
     1
102
RTVSPropertyOp28
 70
     1
102
RTVSPropertyOp29
 70
     1
102
RTVSPropertyOp30
 70
     1
102
RTVSPropertyOp31
 70
     1
102
RTVSPropertyOp32
 70
     1
  0
ENDSEC
  0
EOF
