  0
SECTION
  2
HEADER
  9
$ACADVER
  1
AC1021
  9
$ACADMAINTVER
 70
    25
  9
$DWGCODEPAGE
  3
ANSI_1256
  9
$INSBASE
 10
0.0
 20
0.0
 30
0.0
  9
$EXTMIN
 10
-87.0052
 20
-108.5767
 30
0.0
  9
$EXTMAX
 10
6.4088
 20
131.7462
 30
0.0
  9
$LIMMIN
 10
0.0
 20
0.0
  9
$LIMMAX
 10
12.0
 20
9.0
  9
$ORTHOMODE
 70
     0
  9
$REGENMODE
 70
     1
  9
$FILLMODE
 70
     1
  9
$QTEXTMODE
 70
     0
  9
$MIRRTEXT
 70
     1
  9
$LTSCALE
 40
1.0
  9
$ATTMODE
 70
     1
  9
$TEXTSIZE
 40
0.2
  9
$TRACEWID
 40
0.05
  9
$TEXTSTYLE
  7
Standard
  9
$CLAYER
  8
0
  9
$CELTYPE
  6
ByLayer
  9
$CECOLOR
 62
   256
  9
$CELTSCALE
 40
1.0
  9
$DISPSILH
 70
     0
  9
$DIMSCALE
 40
1.0
  9
$DIMASZ
 40
0.18
  9
$DIMEXO
 40
0.0625
  9
$DIMDLI
 40
0.38
  9
$DIMRND
 40
0.0
  9
$DIMDLE
 40
0.0
  9
$DIMEXE
 40
0.18
  9
$DIMTP
 40
0.0
  9
$DIMTM
 40
0.0
  9
$DIMTXT
 40
0.18
  9
$DIMCEN
 40
0.09
  9
$DIMTSZ
 40
0.0
  9
$DIMTOL
 70
     0
  9
$DIMLIM
 70
     0
  9
$DIMTIH
 70
     1
  9
$DIMTOH
 70
     1
  9
$DIMSE1
 70
     0
  9
$DIMSE2
 70
     0
  9
$DIMTAD
 70
     0
  9
$DIMZIN
 70
     0
  9
$DIMBLK
  1

  9
$DIMASO
 70
     1
  9
$DIMSHO
 70
     1
  9
$DIMPOST
  1

  9
$DIMAPOST
  1

  9
$DIMALT
 70
     0
  9
$DIMALTD
 70
     2
  9
$DIMALTF
 40
25.4
  9
$DIMLFAC
 40
1.0
  9
$DIMTOFL
 70
     0
  9
$DIMTVP
 40
0.0
  9
$DIMTIX
 70
     0
  9
$DIMSOXD
 70
     0
  9
$DIMSAH
 70
     0
  9
$DIMBLK1
  1

  9
$DIMBLK2
  1

  9
$DIMSTYLE
  2
Standard
  9
$DIMCLRD
 70
     0
  9
$DIMCLRE
 70
     0
  9
$DIMCLRT
 70
     0
  9
$DIMTFAC
 40
1.0
  9
$DIMGAP
 40
0.09
  9
$DIMJUST
 70
     0
  9
$DIMSD1
 70
     0
  9
$DIMSD2
 70
     0
  9
$DIMTOLJ
 70
     1
  9
$DIMTZIN
 70
     0
  9
$DIMALTZ
 70
     0
  9
$DIMALTTZ
 70
     0
  9
$DIMUPT
 70
     0
  9
$DIMDEC
 70
     4
  9
$DIMTDEC
 70
     4
  9
$DIMALTU
 70
     2
  9
$DIMALTTD
 70
     2
  9
$DIMTXSTY
  7
Standard
  9
$DIMAUNIT
 70
     0
  9
$DIMADEC
 70
     0
  9
$DIMALTRND
 40
0.0
  9
$DIMAZIN
 70
     0
  9
$DIMDSEP
 70
    46
  9
$DIMATFIT
 70
     3
  9
$DIMFRAC
 70
     0
  9
$DIMLDRBLK
  1

  9
$DIMLUNIT
 70
     2
  9
$DIMLWD
 70
    -2
  9
$DIMLWE
 70
    -2
  9
$DIMTMOVE
 70
     0
  9
$DIMFXL
 40
1.0
  9
$DIMFXLON
 70
     0
  9
$DIMJOGANG
 40
0.7853981633974483
  9
$DIMTFILL
 70
     0
  9
$DIMTFILLCLR
 70
     0
  9
$DIMARCSYM
 70
     0
  9
$DIMLTYPE
  6

  9
$DIMLTEX1
  6

  9
$DIMLTEX2
  6

  9
$LUNITS
 70
     2
  9
$LUPREC
 70
     4
  9
$SKETCHINC
 40
0.1
  9
$FILLETRAD
 40
0.5
  9
$AUNITS
 70
     0
  9
$AUPREC
 70
     0
  9
$MENU
  1
.
  9
$ELEVATION
 40
0.0
  9
$PELEVATION
 40
0.0
  9
$THICKNESS
 40
0.0
  9
$LIMCHECK
 70
     0
  9
$CHAMFERA
 40
0.5
  9
$CHAMFERB
 40
0.5
  9
$CHAMFERC
 40
1.0
  9
$CHAMFERD
 40
0.0
  9
$SKPOLY
 70
     0
  9
$TDCREATE
 40
2458492.918628472
  9
$TDUCREATE
 40
2458492.751961805
  9
$TDUPDATE
 40
2458492.918628599
  9
$TDUUPDATE
 40
2458492.751961933
  9
$TDINDWG
 40
0.0000000116
  9
$TDUSRTIMER
 40
0.0000000116
  9
$USRTIMER
 70
     1
  9
$ANGBASE
 50
0.0
  9
$ANGDIR
 70
     0
  9
$PDMODE
 70
     0
  9
$PDSIZE
 40
0.0
  9
$PLINEWID
 40
0.0
  9
$SPLFRAME
 70
     0
  9
$SPLINETYPE
 70
     6
  9
$SPLINESEGS
 70
     8
  9
$HANDSEED
  5
90
  9
$SURFTAB1
 70
     6
  9
$SURFTAB2
 70
     6
  9
$SURFTYPE
 70
     6
  9
$SURFU
 70
     6
  9
$SURFV
 70
     6
  9
$UCSBASE
  2

  9
$UCSNAME
  2

  9
$UCSORG
 10
0.0
 20
0.0
 30
0.0
  9
$UCSXDIR
 10
1.0
 20
0.0
 30
0.0
  9
$UCSYDIR
 10
0.0
 20
1.0
 30
0.0
  9
$UCSORTHOREF
  2

  9
$UCSORTHOVIEW
 70
     0
  9
$UCSORGTOP
 10
0.0
 20
0.0
 30
0.0
  9
$UCSORGBOTTOM
 10
0.0
 20
0.0
 30
0.0
  9
$UCSORGLEFT
 10
0.0
 20
0.0
 30
0.0
  9
$UCSORGRIGHT
 10
0.0
 20
0.0
 30
0.0
  9
$UCSORGFRONT
 10
0.0
 20
0.0
 30
0.0
  9
$UCSORGBACK
 10
0.0
 20
0.0
 30
0.0
  9
$PUCSBASE
  2

  9
$PUCSNAME
  2

  9
$PUCSORG
 10
0.0
 20
0.0
 30
0.0
  9
$PUCSXDIR
 10
1.0
 20
0.0
 30
0.0
  9
$PUCSYDIR
 10
0.0
 20
1.0
 30
0.0
  9
$PUCSORTHOREF
  2

  9
$PUCSORTHOVIEW
 70
     0
  9
$PUCSORGTOP
 10
0.0
 20
0.0
 30
0.0
  9
$PUCSORGBOTTOM
 10
0.0
 20
0.0
 30
0.0
  9
$PUCSORGLEFT
 10
0.0
 20
0.0
 30
0.0
  9
$PUCSORGRIGHT
 10
0.0
 20
0.0
 30
0.0
  9
$PUCSORGFRONT
 10
0.0
 20
0.0
 30
0.0
  9
$PUCSORGBACK
 10
0.0
 20
0.0
 30
0.0
  9
$USERI1
 70
     0
  9
$USERI2
 70
     0
  9
$USERI3
 70
     0
  9
$USERI4
 70
     0
  9
$USERI5
 70
     0
  9
$USERR1
 40
0.0
  9
$USERR2
 40
0.0
  9
$USERR3
 40
0.0
  9
$USERR4
 40
0.0
  9
$USERR5
 40
0.0
  9
$WORLDVIEW
 70
     1
  9
$SHADEDGE
 70
     3
  9
$SHADEDIF
 70
    70
  9
$TILEMODE
 70
     1
  9
$MAXACTVP
 70
    64
  9
$PINSBASE
 10
0.0
 20
0.0
 30
0.0
  9
$PLIMCHECK
 70
     0
  9
$PEXTMIN
 10
1.000000000000000E+20
 20
1.000000000000000E+20
 30
1.000000000000000E+20
  9
$PEXTMAX
 10
-1.000000000000000E+20
 20
-1.000000000000000E+20
 30
-1.000000000000000E+20
  9
$PLIMMIN
 10
0.0
 20
0.0
  9
$PLIMMAX
 10
12.0
 20
9.0
  9
$UNITMODE
 70
     0
  9
$VISRETAIN
 70
     1
  9
$PLINEGEN
 70
     0
  9
$PSLTSCALE
 70
     1
  9
$TREEDEPTH
 70
  3020
  9
$CMLSTYLE
  2
Standard
  9
$CMLJUST
 70
     0
  9
$CMLSCALE
 40
1.0
  9
$PROXYGRAPHICS
 70
     1
  9
$MEASUREMENT
 70
     0
  9
$CELWEIGHT
370
    -1
  9
$ENDCAPS
280
     0
  9
$JOINSTYLE
280
     0
  9
$LWDISPLAY
290
     0
  9
$INSUNITS
 70
     4
  9
$HYPERLINKBASE
  1

  9
$STYLESHEET
  1

  9
$XEDIT
290
     1
  9
$CEPSNTYPE
380
     0
  9
$PSTYLEMODE
290
     1
  9
$FINGERPRINTGUID
  2
{FDFBB29E-834D-49F2-97D5-1F8DD2A65B6A}
  9
$VERSIONGUID
  2
{FAEB1C32-E019-11D5-929B-00C0DF256EC4}
  9
$EXTNAMES
290
     1
  9
$PSVPSCALE
 40
0.0
  9
$OLESTARTUP
290
     0
  9
$SORTENTS
280
   127
  9
$INDEXCTL
280
     0
  9
$HIDETEXT
280
     1
  9
$XCLIPFRAME
290
     0
  9
$HALOGAP
280
     0
  9
$OBSCOLOR
 70
   257
  9
$OBSLTYPE
280
     0
  9
$INTERSECTIONDISPLAY
280
     0
  9
$INTERSECTIONCOLOR
 70
   257
  9
$DIMASSOC
280
     2
  9
$PROJECTNAME
  1

  9
$CAMERADISPLAY
290
     0
  9
$LENSLENGTH
 40
50.0
  9
$CAMERAHEIGHT
 40
0.0
  9
$STEPSPERSEC
 40
2.0
  9
$STEPSIZE
 40
6.0
  9
$3DDWFPREC
 40
2.0
  9
$PSOLWIDTH
 40
0.25
  9
$PSOLHEIGHT
 40
4.0
  9
$LOFTANG1
 40
1.570796326794897
  9
$LOFTANG2
 40
1.570796326794897
  9
$LOFTMAG1
 40
0.0
  9
$LOFTMAG2
 40
0.0
  9
$LOFTPARAM
 70
     7
  9
$LOFTNORMALS
280
     1
  9
$LATITUDE
 40
37.795
  9
$LONGITUDE
 40
-122.394
  9
$NORTHDIRECTION
 40
0.0
  9
$TIMEZONE
 70
 -8000
  9
$LIGHTGLYPHDISPLAY
280
     1
  9
$TILEMODELIGHTSYNCH
280
     1
  9
$SOLIDHIST
280
     1
  9
$SHOWHIST
280
     1
  9
$DWFFRAME
280
     2
  9
$DGNFRAME
280
     2
  9
$REALWORLDSCALE
290
     1
  9
$INTERFERECOLOR
 62
   256
  9
$CSHADOW
280
     0
  9
$SHADOWPLANELOCATION
 40
0.0
  0
ENDSEC
  0
SECTION
  2
CLASSES
  0
CLASS
  1
ACDBDICTIONARYWDFLT
  2
AcDbDictionaryWithDefault
  3
ObjectDBX Classes
 90
        0
 91
        4
280
     0
281
     0
  0
CLASS
  1
VISUALSTYLE
  2
AcDbVisualStyle
  3
ObjectDBX Classes
 90
     4095
 91
        4
280
     0
281
     0
  0
CLASS
  1
MATERIAL
  2
AcDbMaterial
  3
ObjectDBX Classes
 90
     1153
 91
        4
280
     0
281
     0
  0
ENDSEC
  0
SECTION
  2
TABLES
  0
TABLE
  2
VPORT
  5
8
330
0
100
AcDbSymbolTable
 70
     1
  0
VPORT
  5
29
330
8
100
AcDbSymbolTableRecord
100
AcDbViewportTableRecord
  2
*Active
 70
     0
 10
0.0
 20
0.0
 11
1.0
 21
1.0
 12
10.42990654205607
 22
4.5
 13
0.0
 23
0.0
 14
0.5
 24
0.5
 15
0.5
 25
0.5
 16
0.0
 26
0.0
 36
1.0
 17
0.0
 27
0.0
 37
0.0
 40
9.0
 41
1.972972972850329
 42
50.0
 43
0.0
 44
0.0
 50
0.0
 51
0.0
 71
     0
 72
   100
 73
     1
 74
     3
 75
     0
 76
     0
 77
     0
 78
     0
281
     0
 65
     1
110
0.0
120
0.0
130
0.0
111
1.0
121
0.0
131
0.0
112
0.0
122
1.0
132
0.0
 79
     0
146
0.0
 60
     3
 61
     5
292
     1
282
     1
141
0.0
142
0.0
 63
   250
  0
ENDTAB
  0
TABLE
  2
LTYPE
  5
5
330
0
100
AcDbSymbolTable
 70
     1
  0
LTYPE
  5
14
330
5
100
AcDbSymbolTableRecord
100
AcDbLinetypeTableRecord
  2
ByBlock
 70
     0
  3

 72
    65
 73
     0
 40
0.0
  0
LTYPE
  5
15
330
5
100
AcDbSymbolTableRecord
100
AcDbLinetypeTableRecord
  2
ByLayer
 70
     0
  3

 72
    65
 73
     0
 40
0.0
  0
LTYPE
  5
16
330
5
100
AcDbSymbolTableRecord
100
AcDbLinetypeTableRecord
  2
Continuous
 70
     0
  3
Solid line
 72
    65
 73
     0
 40
0.0
  0
ENDTAB
  0
TABLE
  2
LAYER
  5
2
330
0
100
AcDbSymbolTable
 70
     2
  0
LAYER
  5
10
330
2
100
AcDbSymbolTableRecord
100
AcDbLayerTableRecord
  2
0
 70
     0
 62
     7
  6
Continuous
370
    -3
390
F
347
3E
  0
LAYER
  5
40
330
2
100
AcDbSymbolTableRecord
100
AcDbLayerTableRecord
  2
layer 1
 70
     0
 62
     7
  6
Continuous
370
    -3
390
F
347
3E
  0
ENDTAB
  0
TABLE
  2
STYLE
  5
3
330
0
100
AcDbSymbolTable
 70
     1
  0
STYLE
  5
11
330
3
100
AcDbSymbolTableRecord
100
AcDbTextStyleTableRecord
  2
Standard
 70
     0
 40
0.0
 41
1.0
 50
0.0
 71
     0
 42
0.2
  3
txt
  4

  0
ENDTAB
  0
TABLE
  2
VIEW
  5
6
330
0
100
AcDbSymbolTable
 70
     0
  0
ENDTAB
  0
TABLE
  2
UCS
  5
7
330
0
100
AcDbSymbolTable
 70
     0
  0
ENDTAB
  0
TABLE
  2
APPID
  5
9
330
0
100
AcDbSymbolTable
 70
     2
  0
APPID
  5
12
330
9
100
AcDbSymbolTableRecord
100
AcDbRegAppTableRecord
  2
ACAD
 70
     0
  0
APPID
  5
3F
330
9
100
AcDbSymbolTableRecord
100
AcDbRegAppTableRecord
  2
ODA
 70
     0
  0
ENDTAB
  0
TABLE
  2
DIMSTYLE
  5
A
330
0
100
AcDbSymbolTable
 70
     1
100
AcDbDimStyleTable
  0
DIMSTYLE
105
27
330
A
100
AcDbSymbolTableRecord
100
AcDbDimStyleTableRecord
  2
Standard
 70
     0
178
     0
340
11
  0
ENDTAB
  0
TABLE
  2
BLOCK_RECORD
  5
1
330
0
100
AcDbSymbolTable
 70
     1
  0
BLOCK_RECORD
  5
1F
330
1
100
AcDbSymbolTableRecord
100
AcDbBlockTableRecord
  2
*Model_Space
340
22
 70
     0
280
     1
281
     0
  0
BLOCK_RECORD
  5
1B
330
1
100
AcDbSymbolTableRecord
100
AcDbBlockTableRecord
  2
*Paper_Space
340
1E
 70
     0
280
     1
281
     0
  0
BLOCK_RECORD
  5
23
330
1
100
AcDbSymbolTableRecord
100
AcDbBlockTableRecord
  2
*Paper_Space0
340
26
 70
     0
280
     1
281
     0
  0
ENDTAB
  0
ENDSEC
  0
SECTION
  2
BLOCKS
  0
BLOCK
  5
20
330
1F
100
AcDbEntity
  8
0
100
AcDbBlockBegin
  2
*Model_Space
 70
     0
 10
0.0
 20
0.0
 30
0.0
  3
*Model_Space
  1

  0
ENDBLK
  5
21
330
1F
100
AcDbEntity
  8
0
100
AcDbBlockEnd
  0
BLOCK
  5
1C
330
1B
100
AcDbEntity
 67
     1
  8
0
100
AcDbBlockBegin
  2
*Paper_Space
 70
     0
 10
0.0
 20
0.0
 30
0.0
  3
*Paper_Space
  1

  0
ENDBLK
  5
1D
330
1B
100
AcDbEntity
 67
     1
  8
0
100
AcDbBlockEnd
  0
BLOCK
  5
24
330
23
100
AcDbEntity
  8
0
100
AcDbBlockBegin
  2
*Paper_Space0
 70
     0
 10
0.0
 20
0.0
 30
0.0
  3
*Paper_Space0
  1

  0
ENDBLK
  5
25
330
23
100
AcDbEntity
  8
0
100
AcDbBlockEnd
  0
ENDSEC
  0
SECTION
  2
ENTITIES
  0
SPLINE
  5
41
330
1F
100
AcDbEntity
  8
layer 1
 62
   250
100
AcDbSpline
210
0.0
220
0.0
230
1.0
 70
    11
 71
     3
 72
    20
 73
    16
 74
     0
 42
0.0000000001
 43
0.0000000001
 12
1.0
 22
0.0
 32
0.0
 13
1.0
 23
0.0
 33
0.0
 40
0.0
 40
0.0
 40
0.0
 40
0.0
 40
0.2
 40
0.2
 40
0.2
 40
0.2
 40
0.4
 40
0.4
 40
0.4
 40
0.4
 40
0.6
 40
0.6
 40
0.6
 40
0.6
 40
1.0
 40
1.0
 40
1.0
 40
1.0
 10
-87.0052
 20
131.7462
 30
0.0
 10
-87.0052
 20
131.7462
 30
0.0
 10
6.4088
 20
131.7462
 30
0.0
 10
6.4088
 20
131.7462
 30
0.0
 10
6.4088
 20
131.7462
 30
0.0
 10
6.4088
 20
131.7462
 30
0.0
 10
6.4088
 20
-108.5767
 30
0.0
 10
6.4088
 20
-108.5767
 30
0.0
 10
6.4088
 20
-108.5767
 30
0.0
 10
6.4088
 20
-108.5767
 30
0.0
 10
-87.0052
 20
-108.5767
 30
0.0
 10
-87.0052
 20
-108.5767
 30
0.0
 10
-87.0052
 20
-108.5767
 30
0.0
 10
-87.0052
 20
-108.5767
 30
0.0
 10
-87.0052
 20
131.7462
 30
0.0
 10
-87.0052
 20
131.7462
 30
0.0
  0
SPLINE
  5
42
330
1F
100
AcDbEntity
  8
layer 1
 62
     7
100
AcDbSpline
210
0.0
220
0.0
230
1.0
 70
    11
 71
     3
 72
    28
 73
    24
 74
     0
 42
0.0000000001
 43
0.0000000001
 12
1.0
 22
0.0
 32
0.0
 13
1.0
 23
0.0
 33
0.0
 40
0.0
 40
0.0
 40
0.0
 40
0.0
 40
0.1428571428571428
 40
0.1428571428571428
 40
0.1428571428571428
 40
0.1428571428571428
 40
0.2857142857142857
 40
0.2857142857142857
 40
0.2857142857142857
 40
0.2857142857142857
 40
0.4285714285714285
 40
0.4285714285714285
 40
0.4285714285714285
 40
0.4285714285714285
 40
0.5714285714285714
 40
0.5714285714285714
 40
0.5714285714285714
 40
0.5714285714285714
 40
0.7142857142857143
 40
0.7142857142857143
 40
0.7142857142857143
 40
0.7142857142857143
 40
1.0
 40
1.0
 40
1.0
 40
1.0
 10
-80.5944
 20
122.5628
 30
0.0
 10
-78.151
 20
122.5563
 30
0.0
 10
-75.7189
 20
122.222
 30
0.0
 10
-73.3641
 20
121.5696
 30
0.0
 10
-73.3641
 20
121.5696
 30
0.0
 10
-71.4257
 20
121.0069
 30
0.0
 10
-69.5693
 20
120.1899
 30
0.0
 10
-67.845
 20
119.1409
 30
0.0
 10
-67.845
 20
119.1409
 30
0.0
 10
-68.1371
 20
119.9924
 30
0.0
 10
-68.2593
 20
120.8938
 30
0.0
 10
-68.2048
 20
121.7928
 30
0.0
 10
-68.2048
 20
121.7928
 30
0.0
 10
-68.1494
 20
122.7111
 30
0.0
 10
-67.7698
 20
123.5804
 30
0.0
 10
-67.134
 20
124.2449
 30
0.0
 10
-67.134
 20
124.2449
 30
0.0
 10
-67.134
 20
124.2449
 30
0.0
 10
-80.5944
 20
124.2449
 30
0.0
 10
-80.5944
 20
124.2449
 30
0.0
 10
-80.5944
 20
124.2449
 30
0.0
 10
-80.5944
 20
124.2449
 30
0.0
 10
-80.5944
 20
122.5628
 30
0.0
 10
-80.5944
 20
122.5628
 30
0.0
  0
SPLINE
  5
43
330
1F
100
AcDbEntity
  8
layer 1
 62
     7
100
AcDbSpline
210
0.0
220
0.0
230
1.0
 70
    11
 71
     3
 72
    40
 73
    36
 74
     0
 42
0.0000000001
 43
0.0000000001
 12
1.0
 22
0.0
 32
0.0
 13
1.0
 23
0.0
 33
0.0
 40
0.0
 40
0.0
 40
0.0
 40
0.0
 40
0.1
 40
0.1
 40
0.1
 40
0.1
 40
0.2
 40
0.2
 40
0.2
 40
0.2
 40
0.3
 40
0.3
 40
0.3
 40
0.3
 40
0.4
 40
0.4
 40
0.4
 40
0.4
 40
0.5
 40
0.5
 40
0.5
 40
0.5
 40
0.6
 40
0.6
 40
0.6
 40
0.6
 40
0.7
 40
0.7
 40
0.7
 40
0.7
 40
0.8
 40
0.8
 40
0.8
 40
0.8
 40
1.0
 40
1.0
 40
1.0
 40
1.0
 10
-66.0692
 20
124.2449
 30
0.0
 10
-65.2508
 20
123.5463
 30
0.0
 10
-64.7471
 20
122.5472
 30
0.0
 10
-64.6719
 20
121.4735
 30
0.0
 10
-64.6719
 20
121.4735
 30
0.0
 10
-64.5942
 20
120.3637
 30
0.0
 10
-65.131
 20
119.2999
 30
0.0
 10
-66.0692
 20
118.702
 30
0.0
 10
-66.0692
 20
118.702
 30
0.0
 10
-63.4483
 20
117.9956
 30
0.0
 10
-60.905
 20
117.0268
 30
0.0
 10
-58.4786
 20
115.8106
 30
0.0
 10
-58.4786
 20
115.8106
 30
0.0
 10
-57.822
 20
115.4816
 30
0.0
 10
-57.2118
 20
115.0665
 30
0.0
 10
-56.6645
 20
114.5762
 30
0.0
 10
-56.6645
 20
114.5762
 30
0.0
 10
-56.7186
 20
115.2131
 30
0.0
 10
-56.7256
 20
115.8527
 30
0.0
 10
-56.686
 20
116.4906
 30
0.0
 10
-56.686
 20
116.4906
 30
0.0
 10
-56.5566
 20
118.5897
 30
0.0
 10
-57.3725
 20
120.6353
 30
0.0
 10
-58.9123
 20
122.0679
 30
0.0
 10
-58.9123
 20
122.0679
 30
0.0
 10
-59.3644
 20
122.4889
 30
0.0
 10
-59.837
 20
122.8876
 30
0.0
 10
-60.3282
 20
123.2628
 30
0.0
 10
-60.3282
 20
123.2628
 30
0.0
 10
-60.8203
 20
123.6386
 30
0.0
 10
-61.3462
 20
123.9675
 30
0.0
 10
-61.8993
 20
124.2449
 30
0.0
 10
-61.8993
 20
124.2449
 30
0.0
 10
-61.8993
 20
124.2449
 30
0.0
 10
-66.0692
 20
124.2449
 30
0.0
 10
-66.0692
 20
124.2449
 30
0.0
  0
SPLINE
  5
44
330
1F
100
AcDbEntity
  8
layer 1
 62
     7
100
AcDbSpline
210
0.0
220
0.0
230
1.0
 70
    11
 71
     3
 72
    24
 73
    20
 74
     0
 42
0.0000000001
 43
0.0000000001
 12
1.0
 22
0.0
 32
0.0
 13
1.0
 23
0.0
 33
0.0
 40
0.0
 40
0.0
 40
0.0
 40
0.0
 40
0.1666666666666667
 40
0.1666666666666667
 40
0.1666666666666667
 40
0.1666666666666667
 40
0.3333333333333333
 40
0.3333333333333333
 40
0.3333333333333333
 40
0.3333333333333333
 40
0.5
 40
0.5
 40
0.5
 40
0.5
 40
0.6666666666666666
 40
0.6666666666666666
 40
0.6666666666666666
 40
0.6666666666666666
 40
1.0
 40
1.0
 40
1.0
 40
1.0
 10
-50.6317
 20
124.2449
 30
0.0
 10
-50.6317
 20
124.2449
 30
0.0
 10
-58.395
 20
124.2449
 30
0.0
 10
-58.395
 20
124.2449
 30
0.0
 10
-58.395
 20
124.2449
 30
0.0
 10
-57.763
 20
123.7436
 30
0.0
 10
-57.183
 20
123.1794
 30
0.0
 10
-56.6645
 20
122.5613
 30
0.0
 10
-56.6645
 20
122.5613
 30
0.0
 10
-56.1386
 20
121.9291
 30
0.0
 10
-55.6782
 20
121.2453
 30
0.0
 10
-55.2896
 20
120.5208
 30
0.0
 10
-55.2896
 20
120.5208
 30
0.0
 10
-55.2812
 20
120.5372
 30
0.0
 10
-55.2713
 20
120.553
 30
0.0
 10
-55.2606
 20
120.5682
 30
0.0
 10
-55.2606
 20
120.5682
 30
0.0
 10
-54.1096
 20
122.2191
 30
0.0
 10
-52.5
 20
123.4973
 30
0.0
 10
-50.6317
 20
124.2449
 30
0.0
  0
SPLINE
  5
45
330
1F
100
AcDbEntity
  8
layer 1
 62
     7
100
AcDbSpline
210
0.0
220
0.0
230
1.0
 70
    11
 71
     3
 72
    60
 73
    56
 74
     0
 42
0.0000000001
 43
0.0000000001
 12
1.0
 22
0.0
 32
0.0
 13
1.0
 23
0.0
 33
0.0
 40
0.0
 40
0.0
 40
0.0
 40
0.0
 40
0.0666666666666667
 40
0.0666666666666667
 40
0.0666666666666667
 40
0.0666666666666667
 40
0.1333333333333333
 40
0.1333333333333333
 40
0.1333333333333333
 40
0.1333333333333333
 40
0.2
 40
0.2
 40
0.2
 40
0.2
 40
0.2666666666666667
 40
0.2666666666666667
 40
0.2666666666666667
 40
0.2666666666666667
 40
0.3333333333333333
 40
0.3333333333333333
 40
0.3333333333333333
 40
0.3333333333333333
 40
0.4
 40
0.4
 40
0.4
 40
0.4
 40
0.4666666666666667
 40
0.4666666666666667
 40
0.4666666666666667
 40
0.4666666666666667
 40
0.5333333333333333
 40
0.5333333333333333
 40
0.5333333333333333
 40
0.5333333333333333
 40
0.6
 40
0.6
 40
0.6
 40
0.6
 40
0.6666666666666666
 40
0.6666666666666666
 40
0.6666666666666666
 40
0.6666666666666666
 40
0.7333333333333333
 40
0.7333333333333333
 40
0.7333333333333333
 40
0.7333333333333333
 40
0.8
 40
0.8
 40
0.8
 40
0.8
 40
0.8666666666666667
 40
0.8666666666666667
 40
0.8666666666666667
 40
0.8666666666666667
 40
1.0
 40
1.0
 40
1.0
 40
1.0
 10
-34.2878
 20
124.2449
 30
0.0
 10
-34.2878
 20
124.2449
 30
0.0
 10
-48.5467
 20
124.2449
 30
0.0
 10
-48.5467
 20
124.2449
 30
0.0
 10
-48.5467
 20
124.2449
 30
0.0
 10
-51.3617
 20
122.5836
 30
0.0
 10
-53.5292
 20
120.0183
 30
0.0
 10
-54.6974
 20
116.9653
 30
0.0
 10
-54.6974
 20
116.9653
 30
0.0
 10
-55.0325
 20
116.0886
 30
0.0
 10
-55.0847
 20
115.1293
 30
0.0
 10
-54.8459
 20
114.2216
 30
0.0
 10
-54.8459
 20
114.2216
 30
0.0
 10
-53.9729
 20
113.9072
 30
0.0
 10
-53.1569
 20
113.4514
 30
0.0
 10
-52.4315
 20
112.8723
 30
0.0
 10
-52.4315
 20
112.8723
 30
0.0
 10
-51.7092
 20
112.296
 30
0.0
 10
-51.0466
 20
111.6478
 30
0.0
 10
-50.4544
 20
110.9387
 30
0.0
 10
-50.4544
 20
110.9387
 30
0.0
 10
-48.5433
 20
111.1061
 30
0.0
 10
-46.6547
 20
111.4696
 30
0.0
 10
-44.818
 20
112.0237
 30
0.0
 10
-44.818
 20
112.0237
 30
0.0
 10
-42.9655
 20
112.5825
 30
0.0
 10
-41.2529
 20
113.5262
 30
0.0
 10
-39.791
 20
114.7938
 30
0.0
 10
-39.791
 20
114.7938
 30
0.0
 10
-40.0393
 20
115.7316
 30
0.0
 10
-40.4768
 20
116.6079
 30
0.0
 10
-41.0778
 20
117.3697
 30
0.0
 10
-41.0778
 20
117.3697
 30
0.0
 10
-42.3689
 20
119.0082
 30
0.0
 10
-43.7898
 20
120.5393
 30
0.0
 10
-45.3274
 20
121.9493
 30
0.0
 10
-45.3274
 20
121.9493
 30
0.0
 10
-44.2078
 20
121.9518
 30
0.0
 10
-43.1064
 20
121.6589
 30
0.0
 10
-42.1351
 20
121.1016
 30
0.0
 10
-42.1351
 20
121.1016
 30
0.0
 10
-40.1672
 20
119.9713
 30
0.0
 10
-38.5022
 20
118.3798
 30
0.0
 10
-37.284
 20
116.4649
 30
0.0
 10
-37.284
 20
116.4649
 30
0.0
 10
-36.5539
 20
117.1069
 30
0.0
 10
-35.9366
 20
117.8659
 30
0.0
 10
-35.4562
 20
118.7111
 30
0.0
 10
-35.4562
 20
118.7111
 30
0.0
 10
-34.9889
 20
119.5495
 30
0.0
 10
-34.6378
 20
120.4477
 30
0.0
 10
-34.4126
 20
121.3809
 30
0.0
 10
-34.4126
 20
121.3809
 30
0.0
 10
-34.1858
 20
122.3187
 30
0.0
 10
-34.1433
 20
123.2913
 30
0.0
 10
-34.2878
 20
124.2449
 30
0.0
  0
SPLINE
  5
46
330
1F
100
AcDbEntity
  8
layer 1
 62
     7
100
AcDbSpline
210
0.0
220
0.0
230
1.0
 70
    11
 71
     3
 72
   160
 73
   156
 74
     0
 42
0.0000000001
 43
0.0000000001
 12
1.0
 22
0.0
 32
0.0
 13
1.0
 23
0.0
 33
0.0
 40
0.0
 40
0.0
 40
0.0
 40
0.0
 40
0.025
 40
0.025
 40
0.025
 40
0.025
 40
0.05
 40
0.05
 40
0.05
 40
0.05
 40
0.075
 40
0.075
 40
0.075
 40
0.075
 40
0.1
 40
0.1
 40
0.1
 40
0.1
 40
0.125
 40
0.125
 40
0.125
 40
0.125
 40
0.15
 40
0.15
 40
0.15
 40
0.15
 40
0.175
 40
0.175
 40
0.175
 40
0.175
 40
0.2
 40
0.2
 40
0.2
 40
0.2
 40
0.225
 40
0.225
 40
0.225
 40
0.225
 40
0.25
 40
0.25
 40
0.25
 40
0.25
 40
0.275
 40
0.275
 40
0.275
 40
0.275
 40
0.3
 40
0.3
 40
0.3
 40
0.3
 40
0.325
 40
0.325
 40
0.325
 40
0.325
 40
0.35
 40
0.35
 40
0.35
 40
0.35
 40
0.375
 40
0.375
 40
0.375
 40
0.375
 40
0.4
 40
0.4
 40
0.4
 40
0.4
 40
0.425
 40
0.425
 40
0.425
 40
0.425
 40
0.45
 40
0.45
 40
0.45
 40
0.45
 40
0.475
 40
0.475
 40
0.475
 40
0.475
 40
0.5
 40
0.5
 40
0.5
 40
0.5
 40
0.525
 40
0.525
 40
0.525
 40
0.525
 40
0.55
 40
0.55
 40
0.55
 40
0.55
 40
0.575
 40
0.575
 40
0.575
 40
0.575
 40
0.6
 40
0.6
 40
0.6
 40
0.6
 40
0.625
 40
0.625
 40
0.625
 40
0.625
 40
0.65
 40
0.65
 40
0.65
 40
0.65
 40
0.675
 40
0.675
 40
0.675
 40
0.675
 40
0.7
 40
0.7
 40
0.7
 40
0.7
 40
0.725
 40
0.725
 40
0.725
 40
0.725
 40
0.75
 40
0.75
 40
0.75
 40
0.75
 40
0.775
 40
0.775
 40
0.775
 40
0.775
 40
0.8
 40
0.8
 40
0.8
 40
0.8
 40
0.825
 40
0.825
 40
0.825
 40
0.825
 40
0.85
 40
0.85
 40
0.85
 40
0.85
 40
0.875
 40
0.875
 40
0.875
 40
0.875
 40
0.9
 40
0.9
 40
0.9
 40
0.9
 40
0.925
 40
0.925
 40
0.925
 40
0.925
 40
0.95
 40
0.95
 40
0.95
 40
0.95
 40
1.0
 40
1.0
 40
1.0
 40
1.0
 10
-0.0016
 20
107.9662
 30
0.0
 10
-0.0016
 20
107.9662
 30
0.0
 10
-0.0016
 20
124.2449
 30
0.0
 10
-0.0016
 20
124.2449
 30
0.0
 10
-0.0016
 20
124.2449
 30
0.0
 10
-0.0016
 20
124.2449
 30
0.0
 10
-32.137
 20
124.2449
 30
0.0
 10
-32.137
 20
124.2449
 30
0.0
 10
-32.137
 20
124.2449
 30
0.0
 10
-32.0197
 20
123.4659
 30
0.0
 10
-31.9423
 20
122.6814
 30
0.0
 10
-31.9045
 20
121.8945
 30
0.0
 10
-31.9045
 20
121.8945
 30
0.0
 10
-31.866
 20
121.0974
 30
0.0
 10
-32.0147
 20
120.3019
 30
0.0
 10
-32.3382
 20
119.5726
 30
0.0
 10
-32.3382
 20
119.5726
 30
0.0
 10
-30.3278
 20
120.196
 30
0.0
 10
-28.1669
 20
120.1419
 30
0.0
 10
-26.1898
 20
119.4197
 30
0.0
 10
-26.1898
 20
119.4197
 30
0.0
 10
-24.1394
 20
118.6706
 30
0.0
 10
-22.6104
 20
116.9268
 30
0.0
 10
-22.1344
 20
114.7963
 30
0.0
 10
-22.1344
 20
114.7963
 30
0.0
 10
-21.9259
 20
113.865
 30
0.0
 10
-21.8328
 20
112.9112
 30
0.0
 10
-21.856
 20
111.957
 30
0.0
 10
-21.856
 20
111.957
 30
0.0
 10
-23.5334
 20
111.5865
 30
0.0
 10
-25.2657
 20
111.5332
 30
0.0
 10
-26.9625
 20
111.7998
 30
0.0
 10
-26.9625
 20
111.7998
 30
0.0
 10
-28.0084
 20
111.9725
 30
0.0
 10
-29.017
 20
112.3253
 30
0.0
 10
-29.9424
 20
112.8421
 30
0.0
 10
-29.9424
 20
112.8421
 30
0.0
 10
-30.8766
 20
113.3638
 30
0.0
 10
-31.66
 20
114.1192
 30
0.0
 10
-32.2152
 20
115.0337
 30
0.0
 10
-32.2152
 20
115.0337
 30
0.0
 10
-32.6402
 20
115.7333
 30
0.0
 10
-32.987
 20
116.4778
 30
0.0
 10
-33.2497
 20
117.2532
 30
0.0
 10
-33.2497
 20
117.2532
 30
0.0
 10
-33.805
 20
115.8972
 30
0.0
 10
-34.6552
 20
114.6809
 30
0.0
 10
-35.7373
 20
113.6928
 30
0.0
 10
-35.7373
 20
113.6928
 30
0.0
 10
-36.8118
 20
112.712
 30
0.0
 10
-38.0161
 20
111.8839
 30
0.0
 10
-39.3163
 20
111.2316
 30
0.0
 10
-39.3163
 20
111.2316
 30
0.0
 10
-40.5956
 20
110.6148
 30
0.0
 10
-41.9554
 20
110.1811
 30
0.0
 10
-43.3551
 20
109.9427
 30
0.0
 10
-43.3551
 20
109.9427
 30
0.0
 10
-44.7485
 20
109.7054
 30
0.0
 10
-46.1507
 20
109.5199
 30
0.0
 10
-47.5579
 20
109.3861
 30
0.0
 10
-47.5579
 20
109.3861
 30
0.0
 10
-47.715
 20
109.3712
 30
0.0
 10
-47.8728
 20
109.3634
 30
0.0
 10
-48.0307
 20
109.363
 30
0.0
 10
-48.0307
 20
109.363
 30
0.0
 10
-45.1023
 20
107.8729
 30
0.0
 10
-42.2835
 20
106.1765
 30
0.0
 10
-39.5956
 20
104.2868
 30
0.0
 10
-39.5956
 20
104.2868
 30
0.0
 10
-36.9005
 20
102.3921
 30
0.0
 10
-34.4569
 20
100.1612
 30
0.0
 10
-32.3247
 20
97.6496
 30
0.0
 10
-32.3247
 20
97.6496
 30
0.0
 10
-31.6516
 20
98.0396
 30
0.0
 10
-30.9674
 20
98.4102
 30
0.0
 10
-30.2734
 20
98.7611
 30
0.0
 10
-30.2734
 20
98.7611
 30
0.0
 10
-29.7949
 20
99.0014
 30
0.0
 10
-29.3103
 20
99.2291
 30
0.0
 10
-28.8204
 20
99.445
 30
0.0
 10
-28.8204
 20
99.445
 30
0.0
 10
-28.7724
 20
99.9906
 30
0.0
 10
-28.8316
 20
100.5403
 30
0.0
 10
-28.9946
 20
101.0634
 30
0.0
 10
-28.9946
 20
101.0634
 30
0.0
 10
-30.0139
 20
104.3325
 30
0.0
 10
-32.251
 20
107.0821
 30
0.0
 10
-35.2454
 20
108.7436
 30
0.0
 10
-35.2454
 20
108.7436
 30
0.0
 10
-35.6744
 20
108.9817
 30
0.0
 10
-36.1213
 20
109.1862
 30
0.0
 10
-36.5819
 20
109.3556
 30
0.0
 10
-36.5819
 20
109.3556
 30
0.0
 10
-37.0435
 20
109.5253
 30
0.0
 10
-37.5239
 20
109.6374
 30
0.0
 10
-38.0131
 20
109.6906
 30
0.0
 10
-38.0131
 20
109.6906
 30
0.0
 10
-37.1741
 20
110.0843
 30
0.0
 10
-36.2626
 20
110.2993
 30
0.0
 10
-35.3364
 20
110.3223
 30
0.0
 10
-35.3364
 20
110.3223
 30
0.0
 10
-34.4181
 20
110.3454
 30
0.0
 10
-33.4995
 20
110.2839
 30
0.0
 10
-32.5924
 20
110.139
 30
0.0
 10
-32.5924
 20
110.139
 30
0.0
 10
-30.6266
 20
109.8254
 30
0.0
 10
-28.8055
 20
108.9082
 30
0.0
 10
-27.3825
 20
107.5155
 30
0.0
 10
-27.3825
 20
107.5155
 30
0.0
 10
-25.9853
 20
106.1476
 30
0.0
 10
-24.8017
 20
104.5768
 30
0.0
 10
-23.8717
 20
102.8572
 30
0.0
 10
-23.8717
 20
102.8572
 30
0.0
 10
-23.6255
 20
102.4023
 30
0.0
 10
-23.4185
 20
101.9276
 30
0.0
 10
-23.2521
 20
101.4381
 30
0.0
 10
-23.2521
 20
101.4381
 30
0.0
 10
-22.4646
 20
101.8343
 30
0.0
 10
-21.6586
 20
102.1925
 30
0.0
 10
-20.8367
 20
102.5118
 30
0.0
 10
-20.8367
 20
102.5118
 30
0.0
 10
-20.3737
 20
102.6874
 30
0.0
 10
-19.9035
 20
102.8441
 30
0.0
 10
-19.4279
 20
102.9812
 30
0.0
 10
-19.4279
 20
102.9812
 30
0.0
 10
-19.5941
 20
104.3603
 30
0.0
 10
-19.5478
 20
105.7576
 30
0.0
 10
-19.2908
 20
107.123
 30
0.0
 10
-19.2908
 20
107.123
 30
0.0
 10
-19.0347
 20
108.4814
 30
0.0
 10
-18.7066
 20
109.825
 30
0.0
 10
-18.3071
 20
111.1485
 30
0.0
 10
-18.3071
 20
111.1485
 30
0.0
 10
-17.8052
 20
112.8124
 30
0.0
 10
-17.0759
 20
114.3989
 30
0.0
 10
-16.1402
 20
115.8633
 30
0.0
 10
-16.1402
 20
115.8633
 30
0.0
 10
-14.9446
 20
117.7334
 30
0.0
 10
-13.3945
 20
119.3521
 30
0.0
 10
-11.5778
 20
120.6273
 30
0.0
 10
-11.5778
 20
120.6273
 30
0.0
 10
-12.0167
 20
119.7337
 30
0.0
 10
-12.4512
 20
118.8376
 30
0.0
 10
-12.8802
 20
117.9394
 30
0.0
 10
-12.8802
 20
117.9394
 30
0.0
 10
-14.9033
 20
113.7046
 30
0.0
 10
-15.6402
 20
108.9725
 30
0.0
 10
-14.9995
 20
104.3234
 30
0.0
 10
-14.9995
 20
104.3234
 30
0.0
 10
-13.5908
 20
105.1399
 30
0.0
 10
-12.0841
 20
105.774
 30
0.0
 10
-10.5156
 20
106.21
 30
0.0
 10
-10.5156
 20
106.21
 30
0.0
 10
-7.0829
 20
107.1647
 30
0.0
 10
-3.558
 20
107.7535
 30
0.0
 10
-0.0016
 20
107.9662
 30
0.0
  0
SPLINE
  5
47
330
1F
100
AcDbEntity
  8
layer 1
 62
     7
100
AcDbSpline
210
0.0
220
0.0
230
1.0
 70
    11
 71
     3
 72
    36
 73
    32
 74
     0
 42
0.0000000001
 43
0.0000000001
 12
1.0
 22
0.0
 32
0.0
 13
1.0
 23
0.0
 33
0.0
 40
0.0
 40
0.0
 40
0.0
 40
0.0
 40
0.1111111111111111
 40
0.1111111111111111
 40
0.1111111111111111
 40
0.1111111111111111
 40
0.2222222222222222
 40
0.2222222222222222
 40
0.2222222222222222
 40
0.2222222222222222
 40
0.3333333333333333
 40
0.3333333333333333
 40
0.3333333333333333
 40
0.3333333333333333
 40
0.4444444444444444
 40
0.4444444444444444
 40
0.4444444444444444
 40
0.4444444444444444
 40
0.5555555555555556
 40
0.5555555555555556
 40
0.5555555555555556
 40
0.5555555555555556
 40
0.6666666666666666
 40
0.6666666666666666
 40
0.6666666666666666
 40
0.6666666666666666
 40
0.7777777777777778
 40
0.7777777777777778
 40
0.7777777777777778
 40
0.7777777777777778
 40
1.0
 40
1.0
 40
1.0
 40
1.0
 10
-80.5944
 20
115.7481
 30
0.0
 10
-80.5944
 20
115.7481
 30
0.0
 10
-80.5944
 20
120.5976
 30
0.0
 10
-80.5944
 20
120.5976
 30
0.0
 10
-80.5944
 20
120.5976
 30
0.0
 10
-75.2166
 20
120.0183
 30
0.0
 10
-70.006
 20
118.3749
 30
0.0
 10
-65.2689
 20
115.7641
 30
0.0
 10
-65.2689
 20
115.7641
 30
0.0
 10
-64.3142
 20
115.2382
 30
0.0
 10
-63.4304
 20
114.5925
 30
0.0
 10
-62.6389
 20
113.8431
 30
0.0
 10
-62.6389
 20
113.8431
 30
0.0
 10
-63.3994
 20
112.6368
 30
0.0
 10
-64.0447
 20
111.3622
 30
0.0
 10
-64.567
 20
110.0356
 30
0.0
 10
-64.567
 20
110.0356
 30
0.0
 10
-65.0887
 20
108.7115
 30
0.0
 10
-65.5574
 20
107.3675
 30
0.0
 10
-65.973
 20
106.0063
 30
0.0
 10
-65.973
 20
106.0063
 30
0.0
 10
-67.4767
 20
107.4713
 30
0.0
 10
-69.067
 20
108.8449
 30
0.0
 10
-70.7356
 20
110.1196
 30
0.0
 10
-70.7356
 20
110.1196
 30
0.0
 10
-72.5352
 20
111.4943
 30
0.0
 10
-74.4304
 20
112.7383
 30
0.0
 10
-76.4072
 20
113.8431
 30
0.0
 10
-76.4072
 20
113.8431
 30
0.0
 10
-77.7567
 20
114.5752
 30
0.0
 10
-79.1558
 20
115.2119
 30
0.0
 10
-80.5944
 20
115.7481
 30
0.0
  0
SPLINE
  5
48
330
1F
100
AcDbEntity
  8
layer 1
 62
     7
100
AcDbSpline
210
0.0
220
0.0
230
1.0
 70
    11
 71
     3
 72
    76
 73
    72
 74
     0
 42
0.0000000001
 43
0.0000000001
 12
1.0
 22
0.0
 32
0.0
 13
1.0
 23
0.0
 33
0.0
 40
0.0
 40
0.0
 40
0.0
 40
0.0
 40
0.0526315789473684
 40
0.0526315789473684
 40
0.0526315789473684
 40
0.0526315789473684
 40
0.1052631578947368
 40
0.1052631578947368
 40
0.1052631578947368
 40
0.1052631578947368
 40
0.1578947368421053
 40
0.1578947368421053
 40
0.1578947368421053
 40
0.1578947368421053
 40
0.2105263157894737
 40
0.2105263157894737
 40
0.2105263157894737
 40
0.2105263157894737
 40
0.2631578947368421
 40
0.2631578947368421
 40
0.2631578947368421
 40
0.2631578947368421
 40
0.3157894736842105
 40
0.3157894736842105
 40
0.3157894736842105
 40
0.3157894736842105
 40
0.3684210526315789
 40
0.3684210526315789
 40
0.3684210526315789
 40
0.3684210526315789
 40
0.4210526315789473
 40
0.4210526315789473
 40
0.4210526315789473
 40
0.4210526315789473
 40
0.4736842105263158
 40
0.4736842105263158
 40
0.4736842105263158
 40
0.4736842105263158
 40
0.5263157894736842
 40
0.5263157894736842
 40
0.5263157894736842
 40
0.5263157894736842
 40
0.5789473684210527
 40
0.5789473684210527
 40
0.5789473684210527
 40
0.5789473684210527
 40
0.631578947368421
 40
0.631578947368421
 40
0.631578947368421
 40
0.631578947368421
 40
0.6842105263157895
 40
0.6842105263157895
 40
0.6842105263157895
 40
0.6842105263157895
 40
0.7368421052631579
 40
0.7368421052631579
 40
0.7368421052631579
 40
0.7368421052631579
 40
0.7894736842105263
 40
0.7894736842105263
 40
0.7894736842105263
 40
0.7894736842105263
 40
0.8421052631578947
 40
0.8421052631578947
 40
0.8421052631578947
 40
0.8421052631578947
 40
0.8947368421052632
 40
0.8947368421052632
 40
0.8947368421052632
 40
0.8947368421052632
 40
1.0
 40
1.0
 40
1.0
 40
1.0
 10
-80.5944
 20
84.5658
 30
0.0
 10
-80.5944
 20
84.5658
 30
0.0
 10
-80.5944
 20
114.1451
 30
0.0
 10
-80.5944
 20
114.1451
 30
0.0
 10
-80.5944
 20
114.1451
 30
0.0
 10
-79.6166
 20
113.7576
 30
0.0
 10
-78.6903
 20
113.2507
 30
0.0
 10
-77.837
 20
112.6359
 30
0.0
 10
-77.837
 20
112.6359
 30
0.0
 10
-73.7938
 20
109.7237
 30
0.0
 10
-70.5233
 20
105.8654
 30
0.0
 10
-68.3113
 20
101.4006
 30
0.0
 10
-68.3113
 20
101.4006
 30
0.0
 10
-67.9684
 20
100.7084
 30
0.0
 10
-67.8126
 20
99.938
 30
0.0
 10
-67.8594
 20
99.167
 30
0.0
 10
-67.8594
 20
99.167
 30
0.0
 10
-67.9055
 20
98.4082
 30
0.0
 10
-67.9863
 20
97.6521
 30
0.0
 10
-68.1011
 20
96.9009
 30
0.0
 10
-68.1011
 20
96.9009
 30
0.0
 10
-68.6348
 20
93.0228
 30
0.0
 10
-68.261
 20
89.0752
 30
0.0
 10
-67.0075
 20
85.3661
 30
0.0
 10
-67.0075
 20
85.3661
 30
0.0
 10
-66.7402
 20
84.5746
 30
0.0
 10
-66.4009
 20
83.8097
 30
0.0
 10
-65.9936
 20
83.0803
 30
0.0
 10
-65.9936
 20
83.0803
 30
0.0
 10
-67.157
 20
83.471
 30
0.0
 10
-68.3237
 20
83.8507
 30
0.0
 10
-69.4941
 20
84.2197
 30
0.0
 10
-69.4941
 20
84.2197
 30
0.0
 10
-70.4683
 20
84.527
 30
0.0
 10
-71.4451
 20
84.8254
 30
0.0
 10
-72.4246
 20
85.1154
 30
0.0
 10
-72.4246
 20
85.1154
 30
0.0
 10
-72.404
 20
85.1483
 30
0.0
 10
-72.384
 20
85.1814
 30
0.0
 10
-72.365
 20
85.2153
 30
0.0
 10
-72.365
 20
85.2153
 30
0.0
 10
-70.8087
 20
87.9874
 30
0.0
 10
-70.4477
 20
91.271
 30
0.0
 10
-71.3664
 20
94.3144
 30
0.0
 10
-71.3664
 20
94.3144
 30
0.0
 10
-71.7461
 20
95.5722
 30
0.0
 10
-72.3833
 20
96.7362
 30
0.0
 10
-73.2388
 20
97.7334
 30
0.0
 10
-73.2388
 20
97.7334
 30
0.0
 10
-73.8494
 20
97.063
 30
0.0
 10
-74.3788
 20
96.3234
 30
0.0
 10
-74.8163
 20
95.5286
 30
0.0
 10
-74.8163
 20
95.5286
 30
0.0
 10
-75.2522
 20
94.7373
 30
0.0
 10
-75.6764
 20
93.9393
 30
0.0
 10
-76.0887
 20
93.1352
 30
0.0
 10
-76.0887
 20
93.1352
 30
0.0
 10
-76.7445
 20
91.8562
 30
0.0
 10
-77.0638
 20
90.4321
 30
0.0
 10
-77.0167
 20
88.9952
 30
0.0
 10
-77.0167
 20
88.9952
 30
0.0
 10
-76.9699
 20
87.5631
 30
0.0
 10
-76.5927
 20
86.1613
 30
0.0
 10
-75.9135
 20
84.8989
 30
0.0
 10
-75.9135
 20
84.8989
 30
0.0
 10
-76.6944
 20
85.0006
 30
0.0
 10
-77.4848
 20
85.0055
 30
0.0
 10
-78.2668
 20
84.9141
 30
0.0
 10
-78.2668
 20
84.9141
 30
0.0
 10
-79.0463
 20
84.8227
 30
0.0
 10
-79.8223
 20
84.7064
 30
0.0
 10
-80.5944
 20
84.5658
 30
0.0
  0
SPLINE
  5
49
330
1F
100
AcDbEntity
  8
layer 1
 62
     7
100
AcDbSpline
210
0.0
220
0.0
230
1.0
 70
    11
 71
     3
 72
   120
 73
   116
 74
     0
 42
0.0000000001
 43
0.0000000001
 12
1.0
 22
0.0
 32
0.0
 13
1.0
 23
0.0
 33
0.0
 40
0.0
 40
0.0
 40
0.0
 40
0.0
 40
0.0333333333333333
 40
0.0333333333333333
 40
0.0333333333333333
 40
0.0333333333333333
 40
0.0666666666666667
 40
0.0666666666666667
 40
0.0666666666666667
 40
0.0666666666666667
 40
0.1
 40
0.1
 40
0.1
 40
0.1
 40
0.1333333333333333
 40
0.1333333333333333
 40
0.1333333333333333
 40
0.1333333333333333
 40
0.1666666666666667
 40
0.1666666666666667
 40
0.1666666666666667
 40
0.1666666666666667
 40
0.2
 40
0.2
 40
0.2
 40
0.2
 40
0.2333333333333333
 40
0.2333333333333333
 40
0.2333333333333333
 40
0.2333333333333333
 40
0.2666666666666667
 40
0.2666666666666667
 40
0.2666666666666667
 40
0.2666666666666667
 40
0.3
 40
0.3
 40
0.3
 40
0.3
 40
0.3333333333333333
 40
0.3333333333333333
 40
0.3333333333333333
 40
0.3333333333333333
 40
0.3666666666666666
 40
0.3666666666666666
 40
0.3666666666666666
 40
0.3666666666666666
 40
0.4
 40
0.4
 40
0.4
 40
0.4
 40
0.4333333333333333
 40
0.4333333333333333
 40
0.4333333333333333
 40
0.4333333333333333
 40
0.4666666666666667
 40
0.4666666666666667
 40
0.4666666666666667
 40
0.4666666666666667
 40
0.5
 40
0.5
 40
0.5
 40
0.5
 40
0.5333333333333333
 40
0.5333333333333333
 40
0.5333333333333333
 40
0.5333333333333333
 40
0.5666666666666667
 40
0.5666666666666667
 40
0.5666666666666667
 40
0.5666666666666667
 40
0.6
 40
0.6
 40
0.6
 40
0.6
 40
0.6333333333333333
 40
0.6333333333333333
 40
0.6333333333333333
 40
0.6333333333333333
 40
0.6666666666666666
 40
0.6666666666666666
 40
0.6666666666666666
 40
0.6666666666666666
 40
0.7
 40
0.7
 40
0.7
 40
0.7
 40
0.7333333333333333
 40
0.7333333333333333
 40
0.7333333333333333
 40
0.7333333333333333
 40
0.7666666666666667
 40
0.7666666666666667
 40
0.7666666666666667
 40
0.7666666666666667
 40
0.8
 40
0.8
 40
0.8
 40
0.8
 40
0.8333333333333334
 40
0.8333333333333334
 40
0.8333333333333334
 40
0.8333333333333334
 40
0.8666666666666667
 40
0.8666666666666667
 40
0.8666666666666667
 40
0.8666666666666667
 40
0.9
 40
0.9
 40
0.9
 40
0.9
 40
0.9333333333333333
 40
0.9333333333333333
 40
0.9333333333333333
 40
0.9333333333333333
 40
1.0
 40
1.0
 40
1.0
 40
1.0
 10
-60.8125
 20
112.7181
 30
0.0
 10
-58.6294
 20
110.7909
 30
0.0
 10
-56.4764
 20
108.8301
 30
0.0
 10
-54.3541
 20
106.8363
 30
0.0
 10
-54.3541
 20
106.8363
 30
0.0
 10
-52.4947
 20
105.023
 30
0.0
 10
-50.6429
 20
103.2023
 30
0.0
 10
-48.799
 20
101.3741
 30
0.0
 10
-48.799
 20
101.3741
 30
0.0
 10
-46.9548
 20
99.5463
 30
0.0
 10
-45.0774
 20
97.7528
 30
0.0
 10
-43.1668
 20
95.995
 30
0.0
 10
-43.1668
 20
95.995
 30
0.0
 10
-42.1528
 20
95.0831
 30
0.0
 10
-41.1145
 20
94.1986
 30
0.0
 10
-40.0528
 20
93.3425
 30
0.0
 10
-40.0528
 20
93.3425
 30
0.0
 10
-44.9481
 20
90.4776
 30
0.0
 10
-49.6366
 20
87.2756
 30
0.0
 10
-54.0863
 20
83.7581
 30
0.0
 10
-54.0863
 20
83.7581
 30
0.0
 10
-56.1306
 20
82.1419
 30
0.0
 10
-57.8961
 20
80.2022
 30
0.0
 10
-59.3132
 20
78.0151
 30
0.0
 10
-59.3132
 20
78.0151
 30
0.0
 10
-59.6622
 20
78.7371
 30
0.0
 10
-60.0055
 20
79.4615
 30
0.0
 10
-60.3435
 20
80.1886
 30
0.0
 10
-60.3435
 20
80.1886
 30
0.0
 10
-60.6826
 20
80.9181
 30
0.0
 10
-61.0333
 20
81.6421
 30
0.0
 10
-61.3953
 20
82.3605
 30
0.0
 10
-61.3953
 20
82.3605
 30
0.0
 10
-62.0349
 20
83.5942
 30
0.0
 10
-62.6795
 20
84.8252
 30
0.0
 10
-63.3293
 20
86.0532
 30
0.0
 10
-63.3293
 20
86.0532
 30
0.0
 10
-63.9948
 20
87.3108
 30
0.0
 10
-64.2523
 20
88.7452
 30
0.0
 10
-64.0662
 20
90.156
 30
0.0
 10
-64.0662
 20
90.156
 30
0.0
 10
-63.923
 20
90.8245
 30
0.0
 10
-63.6363
 20
91.4546
 30
0.0
 10
-63.2263
 20
92.0016
 30
0.0
 10
-63.2263
 20
92.0016
 30
0.0
 10
-61.5136
 20
94.2879
 30
0.0
 10
-59.5015
 20
96.3343
 30
0.0
 10
-57.2449
 20
98.0855
 30
0.0
 10
-57.2449
 20
98.0855
 30
0.0
 10
-57.1048
 20
97.8128
 30
0.0
 10
-56.9903
 20
97.527
 30
0.0
 10
-56.9041
 20
97.2328
 30
0.0
 10
-56.9041
 20
97.2328
 30
0.0
 10
-56.7314
 20
96.63
 30
0.0
 10
-56.6322
 20
96.0087
 30
0.0
 10
-56.6082
 20
95.3822
 30
0.0
 10
-56.6082
 20
95.3822
 30
0.0
 10
-56.559
 20
94.1044
 30
0.0
 10
-55.8593
 20
92.9411
 30
0.0
 10
-54.7524
 20
92.3006
 30
0.0
 10
-54.7524
 20
92.3006
 30
0.0
 10
-52.9966
 20
91.284
 30
0.0
 10
-50.9015
 20
91.0353
 30
0.0
 10
-48.9568
 20
91.6132
 30
0.0
 10
-48.9568
 20
91.6132
 30
0.0
 10
-48.0745
 20
91.8756
 30
0.0
 10
-47.3993
 20
92.5866
 30
0.0
 10
-47.1833
 20
93.4813
 30
0.0
 10
-47.1833
 20
93.4813
 30
0.0
 10
-47.0944
 20
93.8507
 30
0.0
 10
-47.1155
 20
94.2382
 30
0.0
 10
-47.2448
 20
94.596
 30
0.0
 10
-47.2448
 20
94.596
 30
0.0
 10
-47.5918
 20
95.5555
 30
0.0
 10
-48.1434
 20
96.4276
 30
0.0
 10
-48.8618
 20
97.1521
 30
0.0
 10
-48.8618
 20
97.1521
 30
0.0
 10
-49.6208
 20
97.917
 30
0.0
 10
-50.6048
 20
98.4181
 30
0.0
 10
-51.67
 20
98.5817
 30
0.0
 10
-51.67
 20
98.5817
 30
0.0
 10
-52.7081
 20
98.7415
 30
0.0
 10
-53.7415
 20
98.9321
 30
0.0
 10
-54.7682
 20
99.1539
 30
0.0
 10
-54.7682
 20
99.1539
 30
0.0
 10
-54.241
 20
99.4159
 30
0.0
 10
-53.7139
 20
99.6791
 30
0.0
 10
-53.1882
 20
99.9441
 30
0.0
 10
-53.1882
 20
99.9441
 30
0.0
 10
-52.3344
 20
100.375
 30
0.0
 10
-51.4825
 20
100.8086
 30
0.0
 10
-50.6321
 20
101.2456
 30
0.0
 10
-50.6321
 20
101.2456
 30
0.0
 10
-52.1373
 20
101.5504
 30
0.0
 10
-53.691
 20
101.519
 30
0.0
 10
-55.1825
 20
101.1538
 30
0.0
 10
-55.1825
 20
101.1538
 30
0.0
 10
-56.659
 20
100.7924
 30
0.0
 10
-58.1039
 20
100.3156
 30
0.0
 10
-59.5049
 20
99.7269
 30
0.0
 10
-59.5049
 20
99.7269
 30
0.0
 10
-60.6826
 20
99.232
 30
0.0
 10
-61.7266
 20
98.4665
 30
0.0
 10
-62.5525
 20
97.4918
 30
0.0
 10
-62.5525
 20
97.4918
 30
0.0
 10
-63.3686
 20
96.5283
 30
0.0
 10
-64.0927
 20
95.4909
 30
0.0
 10
-64.7157
 20
94.3928
 30
0.0
 10
-64.7157
 20
94.3928
 30
0.0
 10
-64.7504
 20
94.6644
 30
0.0
 10
-64.7704
 20
94.9382
 30
0.0
 10
-64.7753
 20
95.212
 30
0.0
 10
-64.7753
 20
95.212
 30
0.0
 10
-64.8901
 20
101.2808
 30
0.0
 10
-63.5293
 20
107.2898
 30
0.0
 10
-60.8125
 20
112.7181
 30
0.0
  0
SPLINE
  5
4A
330
1F
100
AcDbEntity
  8
layer 1
 62
     7
100
AcDbSpline
210
0.0
220
0.0
230
1.0
 70
    11
 71
     3
 72
    36
 73
    32
 74
     0
 42
0.0000000001
 43
0.0000000001
 12
1.0
 22
0.0
 32
0.0
 13
1.0
 23
0.0
 33
0.0
 40
0.0
 40
0.0
 40
0.0
 40
0.0
 40
0.1111111111111111
 40
0.1111111111111111
 40
0.1111111111111111
 40
0.1111111111111111
 40
0.2222222222222222
 40
0.2222222222222222
 40
0.2222222222222222
 40
0.2222222222222222
 40
0.3333333333333333
 40
0.3333333333333333
 40
0.3333333333333333
 40
0.3333333333333333
 40
0.4444444444444444
 40
0.4444444444444444
 40
0.4444444444444444
 40
0.4444444444444444
 40
0.5555555555555556
 40
0.5555555555555556
 40
0.5555555555555556
 40
0.5555555555555556
 40
0.6666666666666666
 40
0.6666666666666666
 40
0.6666666666666666
 40
0.6666666666666666
 40
0.7777777777777778
 40
0.7777777777777778
 40
0.7777777777777778
 40
0.7777777777777778
 40
1.0
 40
1.0
 40
1.0
 40
1.0
 10
-29.7446
 20
86.4902
 30
0.0
 10
-26.0439
 20
86.7864
 30
0.0
 10
-22.3241
 20
86.1962
 30
0.0
 10
-18.8966
 20
84.7692
 30
0.0
 10
-18.8966
 20
84.7692
 30
0.0
 10
-15.4837
 20
83.3484
 30
0.0
 10
-12.3851
 20
81.2649
 30
0.0
 10
-9.7812
 20
78.6406
 30
0.0
 10
-9.7812
 20
78.6406
 30
0.0
 10
-7.1432
 20
75.849
 30
0.0
 10
-5.1569
 20
72.5049
 30
0.0
 10
-3.967
 20
68.8528
 30
0.0
 10
-3.967
 20
68.8528
 30
0.0
 10
-5.0291
 20
68.7862
 30
0.0
 10
-6.0777
 20
68.5805
 30
0.0
 10
-7.0865
 20
68.2414
 30
0.0
 10
-7.0865
 20
68.2414
 30
0.0
 10
-8.0987
 20
67.901
 30
0.0
 10
-9.0432
 20
67.3867
 30
0.0
 10
-9.8785
 20
66.721
 30
0.0
 10
-9.8785
 20
66.721
 30
0.0
 10
-10.8292
 20
70.2752
 30
0.0
 10
-12.4466
 20
73.615
 30
0.0
 10
-14.6451
 20
76.5645
 30
0.0
 10
-14.6451
 20
76.5645
 30
0.0
 10
-16.8524
 20
79.5254
 30
0.0
 10
-19.6983
 20
81.9482
 30
0.0
 10
-22.9743
 20
83.6536
 30
0.0
 10
-22.9743
 20
83.6536
 30
0.0
 10
-25.1484
 20
84.7856
 30
0.0
 10
-27.4128
 20
85.7342
 30
0.0
 10
-29.7446
 20
86.4902
 30
0.0
  0
SPLINE
  5
4B
330
1F
100
AcDbEntity
  8
layer 1
 62
     7
100
AcDbSpline
210
0.0
220
0.0
230
1.0
 70
    11
 71
     3
 72
    40
 73
    36
 74
     0
 42
0.0000000001
 43
0.0000000001
 12
1.0
 22
0.0
 32
0.0
 13
1.0
 23
0.0
 33
0.0
 40
0.0
 40
0.0
 40
0.0
 40
0.0
 40
0.1
 40
0.1
 40
0.1
 40
0.1
 40
0.2
 40
0.2
 40
0.2
 40
0.2
 40
0.3
 40
0.3
 40
0.3
 40
0.3
 40
0.4
 40
0.4
 40
0.4
 40
0.4
 40
0.5
 40
0.5
 40
0.5
 40
0.5
 40
0.6
 40
0.6
 40
0.6
 40
0.6
 40
0.7
 40
0.7
 40
0.7
 40
0.7
 40
0.8
 40
0.8
 40
0.8
 40
0.8
 40
1.0
 40
1.0
 40
1.0
 40
1.0
 10
-80.5944
 20
73.4941
 30
0.0
 10
-80.5944
 20
73.4941
 30
0.0
 10
-80.5944
 20
81.9134
 30
0.0
 10
-80.5944
 20
81.9134
 30
0.0
 10
-80.5944
 20
81.9134
 30
0.0
 10
-78.9418
 20
82.2786
 30
0.0
 10
-77.2546
 20
82.4646
 30
0.0
 10
-75.5624
 20
82.4686
 30
0.0
 10
-75.5624
 20
82.4686
 30
0.0
 10
-73.8643
 20
82.4721
 30
0.0
 10
-72.1759
 20
82.2059
 30
0.0
 10
-70.5614
 20
81.6796
 30
0.0
 10
-70.5614
 20
81.6796
 30
0.0
 10
-67.6062
 20
80.6673
 30
0.0
 10
-65.0017
 20
78.8282
 30
0.0
 10
-63.0586
 20
76.3831
 30
0.0
 10
-63.0586
 20
76.3831
 30
0.0
 10
-62.6951
 20
75.9259
 30
0.0
 10
-62.3877
 20
75.4272
 30
0.0
 10
-62.1423
 20
74.8975
 30
0.0
 10
-62.1423
 20
74.8975
 30
0.0
 10
-63.48
 20
73.8146
 30
0.0
 10
-64.7005
 20
72.5958
 30
0.0
 10
-65.7849
 20
71.2595
 30
0.0
 10
-65.7849
 20
71.2595
 30
0.0
 10
-66.8666
 20
69.927
 30
0.0
 10
-67.9135
 20
68.5668
 30
0.0
 10
-68.9244
 20
67.1797
 30
0.0
 10
-68.9244
 20
67.1797
 30
0.0
 10
-69.7462
 20
68.8239
 30
0.0
 10
-71.0707
 20
70.1617
 30
0.0
 10
-72.7068
 20
70.9995
 30
0.0
 10
-72.7068
 20
70.9995
 30
0.0
 10
-75.1789
 20
72.265
 30
0.0
 10
-77.8441
 20
73.1085
 30
0.0
 10
-80.5944
 20
73.4941
 30
0.0
  0
SPLINE
  5
4C
330
1F
100
AcDbEntity
  8
layer 1
 62
     7
100
AcDbSpline
210
0.0
220
0.0
230
1.0
 70
    11
 71
     3
 72
    32
 73
    28
 74
     0
 42
0.0000000001
 43
0.0000000001
 12
1.0
 22
0.0
 32
0.0
 13
1.0
 23
0.0
 33
0.0
 40
0.0
 40
0.0
 40
0.0
 40
0.0
 40
0.125
 40
0.125
 40
0.125
 40
0.125
 40
0.25
 40
0.25
 40
0.25
 40
0.25
 40
0.375
 40
0.375
 40
0.375
 40
0.375
 40
0.5
 40
0.5
 40
0.5
 40
0.5
 40
0.625
 40
0.625
 40
0.625
 40
0.625
 40
0.75
 40
0.75
 40
0.75
 40
0.75
 40
1.0
 40
1.0
 40
1.0
 40
1.0
 10
-80.5944
 20
65.0136
 30
0.0
 10
-80.5944
 20
65.0136
 30
0.0
 10
-80.5944
 20
70.5243
 30
0.0
 10
-80.5944
 20
70.5243
 30
0.0
 10
-80.5944
 20
70.5243
 30
0.0
 10
-78.6522
 20
70.0505
 30
0.0
 10
-76.8716
 20
69.0631
 30
0.0
 10
-75.4409
 20
67.6668
 30
0.0
 10
-75.4409
 20
67.6668
 30
0.0
 10
-72.1555
 20
64.4606
 30
0.0
 10
-69.4479
 20
60.7095
 30
0.0
 10
-67.4388
 20
56.5817
 30
0.0
 10
-67.4388
 20
56.5817
 30
0.0
 10
-68.2597
 20
57.1988
 30
0.0
 10
-69.0786
 20
57.8186
 30
0.0
 10
-69.8957
 20
58.4409
 30
0.0
 10
-69.8957
 20
58.4409
 30
0.0
 10
-70.8815
 20
59.2184
 30
0.0
 10
-71.8524
 20
60.0152
 30
0.0
 10
-72.8075
 20
60.83
 30
0.0
 10
-72.8075
 20
60.83
 30
0.0
 10
-73.7645
 20
61.6467
 30
0.0
 10
-74.7893
 20
62.3798
 30
0.0
 10
-75.871
 20
63.022
 30
0.0
 10
-75.871
 20
63.022
 30
0.0
 10
-77.3574
 20
63.8781
 30
0.0
 10
-78.9435
 20
64.547
 30
0.0
 10
-80.5944
 20
65.0136
 30
0.0
  0
SPLINE
  5
4D
330
1F
100
AcDbEntity
  8
layer 1
 62
     7
100
AcDbSpline
210
0.0
220
0.0
230
1.0
 70
    11
 71
     3
 72
   232
 73
   228
 74
     0
 42
0.0000000001
 43
0.0000000001
 12
1.0
 22
0.0
 32
0.0
 13
1.0
 23
0.0
 33
0.0
 40
0.0
 40
0.0
 40
0.0
 40
0.0
 40
0.0172413793103448
 40
0.0172413793103448
 40
0.0172413793103448
 40
0.0172413793103448
 40
0.0344827586206897
 40
0.0344827586206897
 40
0.0344827586206897
 40
0.0344827586206897
 40
0.0517241379310345
 40
0.0517241379310345
 40
0.0517241379310345
 40
0.0517241379310345
 40
0.0689655172413793
 40
0.0689655172413793
 40
0.0689655172413793
 40
0.0689655172413793
 40
0.0862068965517241
 40
0.0862068965517241
 40
0.0862068965517241
 40
0.0862068965517241
 40
0.103448275862069
 40
0.103448275862069
 40
0.103448275862069
 40
0.103448275862069
 40
0.1206896551724138
 40
0.1206896551724138
 40
0.1206896551724138
 40
0.1206896551724138
 40
0.1379310344827586
 40
0.1379310344827586
 40
0.1379310344827586
 40
0.1379310344827586
 40
0.1551724137931035
 40
0.1551724137931035
 40
0.1551724137931035
 40
0.1551724137931035
 40
0.1724137931034483
 40
0.1724137931034483
 40
0.1724137931034483
 40
0.1724137931034483
 40
0.1896551724137931
 40
0.1896551724137931
 40
0.1896551724137931
 40
0.1896551724137931
 40
0.2068965517241379
 40
0.2068965517241379
 40
0.2068965517241379
 40
0.2068965517241379
 40
0.2241379310344828
 40
0.2241379310344828
 40
0.2241379310344828
 40
0.2241379310344828
 40
0.2413793103448276
 40
0.2413793103448276
 40
0.2413793103448276
 40
0.2413793103448276
 40
0.2586206896551724
 40
0.2586206896551724
 40
0.2586206896551724
 40
0.2586206896551724
 40
0.2758620689655172
 40
0.2758620689655172
 40
0.2758620689655172
 40
0.2758620689655172
 40
0.293103448275862
 40
0.293103448275862
 40
0.293103448275862
 40
0.293103448275862
 40
0.3103448275862069
 40
0.3103448275862069
 40
0.3103448275862069
 40
0.3103448275862069
 40
0.3275862068965517
 40
0.3275862068965517
 40
0.3275862068965517
 40
0.3275862068965517
 40
0.3448275862068966
 40
0.3448275862068966
 40
0.3448275862068966
 40
0.3448275862068966
 40
0.3620689655172414
 40
0.3620689655172414
 40
0.3620689655172414
 40
0.3620689655172414
 40
0.3793103448275862
 40
0.3793103448275862
 40
0.3793103448275862
 40
0.3793103448275862
 40
0.396551724137931
 40
0.396551724137931
 40
0.396551724137931
 40
0.396551724137931
 40
0.4137931034482759
 40
0.4137931034482759
 40
0.4137931034482759
 40
0.4137931034482759
 40
0.4310344827586207
 40
0.4310344827586207
 40
0.4310344827586207
 40
0.4310344827586207
 40
0.4482758620689655
 40
0.4482758620689655
 40
0.4482758620689655
 40
0.4482758620689655
 40
0.4655172413793103
 40
0.4655172413793103
 40
0.4655172413793103
 40
0.4655172413793103
 40
0.4827586206896552
 40
0.4827586206896552
 40
0.4827586206896552
 40
0.4827586206896552
 40
0.5
 40
0.5
 40
0.5
 40
0.5
 40
0.5172413793103449
 40
0.5172413793103449
 40
0.5172413793103449
 40
0.5172413793103449
 40
0.5344827586206896
 40
0.5344827586206896
 40
0.5344827586206896
 40
0.5344827586206896
 40
0.5517241379310345
 40
0.5517241379310345
 40
0.5517241379310345
 40
0.5517241379310345
 40
0.5689655172413793
 40
0.5689655172413793
 40
0.5689655172413793
 40
0.5689655172413793
 40
0.5862068965517241
 40
0.5862068965517241
 40
0.5862068965517241
 40
0.5862068965517241
 40
0.603448275862069
 40
0.603448275862069
 40
0.603448275862069
 40
0.603448275862069
 40
0.6206896551724138
 40
0.6206896551724138
 40
0.6206896551724138
 40
0.6206896551724138
 40
0.6379310344827587
 40
0.6379310344827587
 40
0.6379310344827587
 40
0.6379310344827587
 40
0.6551724137931034
 40
0.6551724137931034
 40
0.6551724137931034
 40
0.6551724137931034
 40
0.6724137931034483
 40
0.6724137931034483
 40
0.6724137931034483
 40
0.6724137931034483
 40
0.6896551724137931
 40
0.6896551724137931
 40
0.6896551724137931
 40
0.6896551724137931
 40
0.7068965517241379
 40
0.7068965517241379
 40
0.7068965517241379
 40
0.7068965517241379
 40
0.7241379310344828
 40
0.7241379310344828
 40
0.7241379310344828
 40
0.7241379310344828
 40
0.7413793103448276
 40
0.7413793103448276
 40
0.7413793103448276
 40
0.7413793103448276
 40
0.7586206896551724
 40
0.7586206896551724
 40
0.7586206896551724
 40
0.7586206896551724
 40
0.7758620689655172
 40
0.7758620689655172
 40
0.7758620689655172
 40
0.7758620689655172
 40
0.7931034482758621
 40
0.7931034482758621
 40
0.7931034482758621
 40
0.7931034482758621
 40
0.8103448275862069
 40
0.8103448275862069
 40
0.8103448275862069
 40
0.8103448275862069
 40
0.8275862068965517
 40
0.8275862068965517
 40
0.8275862068965517
 40
0.8275862068965517
 40
0.8448275862068966
 40
0.8448275862068966
 40
0.8448275862068966
 40
0.8448275862068966
 40
0.8620689655172413
 40
0.8620689655172413
 40
0.8620689655172413
 40
0.8620689655172413
 40
0.8793103448275862
 40
0.8793103448275862
 40
0.8793103448275862
 40
0.8793103448275862
 40
0.896551724137931
 40
0.896551724137931
 40
0.896551724137931
 40
0.896551724137931
 40
0.9137931034482759
 40
0.9137931034482759
 40
0.9137931034482759
 40
0.9137931034482759
 40
0.9310344827586207
 40
0.9310344827586207
 40
0.9310344827586207
 40
0.9310344827586207
 40
0.9482758620689655
 40
0.9482758620689655
 40
0.9482758620689655
 40
0.9482758620689655
 40
0.9655172413793104
 40
0.9655172413793104
 40
0.9655172413793104
 40
0.9655172413793104
 40
1.0
 40
1.0
 40
1.0
 40
1.0
 10
-63.1921
 20
60.8702
 30
0.0
 10
-60.4661
 20
65.6749
 30
0.0
 10
-57.2403
 20
70.1791
 30
0.0
 10
-53.5696
 20
74.307
 30
0.0
 10
-53.5696
 20
74.307
 30
0.0
 10
-49.1259
 20
79.2259
 30
0.0
 10
-44.1628
 20
83.6507
 30
0.0
 10
-38.7688
 20
87.5037
 30
0.0
 10
-38.7688
 20
87.5037
 30
0.0
 10
-37.0742
 20
86.7539
 30
0.0
 10
-35.4265
 20
85.9016
 30
0.0
 10
-33.8358
 20
84.9522
 30
0.0
 10
-33.8358
 20
84.9522
 30
0.0
 10
-30.9204
 20
83.1669
 30
0.0
 10
-28.1345
 20
81.1769
 30
0.0
 10
-25.5003
 20
78.9984
 30
0.0
 10
-25.5003
 20
78.9984
 30
0.0
 10
-27.476
 20
77.9597
 30
0.0
 10
-29.3301
 20
76.7047
 30
0.0
 10
-31.0289
 20
75.256
 30
0.0
 10
-31.0289
 20
75.256
 30
0.0
 10
-33.2286
 20
73.3357
 30
0.0
 10
-35.198
 20
71.1667
 30
0.0
 10
-36.8976
 20
68.7921
 30
0.0
 10
-36.8976
 20
68.7921
 30
0.0
 10
-37.2684
 20
69.6602
 30
0.0
 10
-37.8042
 20
70.4479
 30
0.0
 10
-38.4754
 20
71.1119
 30
0.0
 10
-38.4754
 20
71.1119
 30
0.0
 10
-39.1418
 20
71.7713
 30
0.0
 10
-39.8751
 20
72.3597
 30
0.0
 10
-40.6634
 20
72.8677
 30
0.0
 10
-40.6634
 20
72.8677
 30
0.0
 10
-42.1789
 20
73.8443
 30
0.0
 10
-43.9528
 20
74.3415
 30
0.0
 10
-45.755
 20
74.2946
 30
0.0
 10
-45.755
 20
74.2946
 30
0.0
 10
-47.5312
 20
74.2484
 30
0.0
 10
-49.2845
 20
73.8828
 30
0.0
 10
-50.9312
 20
73.2148
 30
0.0
 10
-50.9312
 20
73.2148
 30
0.0
 10
-50.8004
 20
72.8747
 30
0.0
 10
-50.6203
 20
72.5562
 30
0.0
 10
-50.3967
 20
72.2686
 30
0.0
 10
-50.3967
 20
72.2686
 30
0.0
 10
-48.3454
 20
69.6316
 30
0.0
 10
-45.4353
 20
67.7997
 30
0.0
 10
-42.1709
 20
67.0908
 30
0.0
 10
-42.1709
 20
67.0908
 30
0.0
 10
-41.3872
 20
66.9268
 30
0.0
 10
-40.5899
 20
66.8387
 30
0.0
 10
-39.7892
 20
66.8268
 30
0.0
 10
-39.7892
 20
66.8268
 30
0.0
 10
-38.9874
 20
66.8152
 30
0.0
 10
-38.1875
 20
66.904
 30
0.0
 10
-37.4079
 20
67.0908
 30
0.0
 10
-37.4079
 20
67.0908
 30
0.0
 10
-39.1856
 20
65.3763
 30
0.0
 10
-40.6284
 20
63.3465
 30
0.0
 10
-41.6637
 20
61.104
 30
0.0
 10
-41.6637
 20
61.104
 30
0.0
 10
-42.2065
 20
59.8939
 30
0.0
 10
-42.6184
 20
58.6296
 30
0.0
 10
-42.8916
 20
57.3319
 30
0.0
 10
-42.8916
 20
57.3319
 30
0.0
 10
-43.1654
 20
56.0354
 30
0.0
 10
-43.3241
 20
54.7176
 30
0.0
 10
-43.3661
 20
53.3935
 30
0.0
 10
-43.3661
 20
53.3935
 30
0.0
 10
-44.4665
 20
54.5081
 30
0.0
 10
-44.9812
 20
56.0752
 30
0.0
 10
-44.7577
 20
57.6257
 30
0.0
 10
-44.7577
 20
57.6257
 30
0.0
 10
-44.5415
 20
59.1226
 30
0.0
 10
-43.9216
 20
60.533
 30
0.0
 10
-42.9655
 20
61.7049
 30
0.0
 10
-42.9655
 20
61.7049
 30
0.0
 10
-43.6224
 20
61.6278
 30
0.0
 10
-44.2359
 20
61.3382
 30
0.0
 10
-44.7122
 20
60.8791
 30
0.0
 10
-44.7122
 20
60.8791
 30
0.0
 10
-45.1853
 20
60.4231
 30
0.0
 10
-45.5178
 20
59.841
 30
0.0
 10
-45.6696
 20
59.2014
 30
0.0
 10
-45.6696
 20
59.2014
 30
0.0
 10
-46.4569
 20
62.288
 30
0.0
 10
-48.831
 20
64.7165
 30
0.0
 10
-51.8997
 20
65.5709
 30
0.0
 10
-51.8997
 20
65.5709
 30
0.0
 10
-53.0033
 20
65.8786
 30
0.0
 10
-54.1381
 20
66.0599
 30
0.0
 10
-55.2829
 20
66.1111
 30
0.0
 10
-55.2829
 20
66.1111
 30
0.0
 10
-54.8764
 20
65.9108
 30
0.0
 10
-54.4904
 20
65.6709
 30
0.0
 10
-54.1307
 20
65.3951
 30
0.0
 10
-54.1307
 20
65.3951
 30
0.0
 10
-52.5318
 20
64.1698
 30
0.0
 10
-51.042
 20
62.8076
 30
0.0
 10
-49.6791
 20
61.3241
 30
0.0
 10
-49.6791
 20
61.3241
 30
0.0
 10
-47.8157
 20
59.296
 30
0.0
 10
-46.6846
 20
56.7003
 30
0.0
 10
-46.4674
 20
53.9544
 30
0.0
 10
-46.4674
 20
53.9544
 30
0.0
 10
-46.3065
 20
51.9181
 30
0.0
 10
-45.9521
 20
49.9024
 30
0.0
 10
-45.4093
 20
47.9334
 30
0.0
 10
-45.4093
 20
47.9334
 30
0.0
 10
-45.0589
 20
46.663
 30
0.0
 10
-44.5252
 20
45.4508
 30
0.0
 10
-43.8248
 20
44.3344
 30
0.0
 10
-43.8248
 20
44.3344
 30
0.0
 10
-42.9539
 20
42.9471
 30
0.0
 10
-41.8124
 20
41.7496
 30
0.0
 10
-40.4677
 20
40.8137
 30
0.0
 10
-40.4677
 20
40.8137
 30
0.0
 10
-41.1543
 20
39.592
 30
0.0
 10
-42.1909
 20
38.6026
 30
0.0
 10
-43.4434
 20
37.9739
 30
0.0
 10
-43.4434
 20
37.9739
 30
0.0
 10
-44.6779
 20
37.3537
 30
0.0
 10
-45.796
 20
36.5269
 30
0.0
 10
-46.7503
 20
35.528
 30
0.0
 10
-46.7503
 20
35.528
 30
0.0
 10
-47.341
 20
34.9099
 30
0.0
 10
-47.9132
 20
34.2749
 30
0.0
 10
-48.4673
 20
33.6239
 30
0.0
 10
-48.4673
 20
33.6239
 30
0.0
 10
-49.2259
 20
33.7515
 30
0.0
 10
-49.9529
 20
34.0253
 30
0.0
 10
-50.6073
 20
34.4299
 30
0.0
 10
-50.6073
 20
34.4299
 30
0.0
 10
-50.844
 20
34.5762
 30
0.0
 10
-51.0085
 20
34.8145
 30
0.0
 10
-51.0611
 20
35.0876
 30
0.0
 10
-51.0611
 20
35.0876
 30
0.0
 10
-51.1138
 20
35.3606
 30
0.0
 10
-51.0487
 20
35.6446
 30
0.0
 10
-50.8834
 20
35.8683
 30
0.0
 10
-50.8834
 20
35.8683
 30
0.0
 10
-50.5056
 20
36.3782
 30
0.0
 10
-50.1286
 20
36.8885
 30
0.0
 10
-49.7526
 20
37.3996
 30
0.0
 10
-49.7526
 20
37.3996
 30
0.0
 10
-48.7752
 20
38.7277
 30
0.0
 10
-48.1657
 20
40.2891
 30
0.0
 10
-47.9844
 20
41.9283
 30
0.0
 10
-47.9844
 20
41.9283
 30
0.0
 10
-47.7298
 20
44.2333
 30
0.0
 10
-47.6041
 20
46.5506
 30
0.0
 10
-47.6072
 20
48.8696
 30
0.0
 10
-47.6072
 20
48.8696
 30
0.0
 10
-47.6087
 20
49.6947
 30
0.0
 10
-47.7005
 20
50.5171
 30
0.0
 10
-47.882
 20
51.322
 30
0.0
 10
-47.882
 20
51.322
 30
0.0
 10
-48.0649
 20
52.1346
 30
0.0
 10
-48.4298
 20
52.8951
 30
0.0
 10
-48.949
 20
53.5467
 30
0.0
 10
-48.949
 20
53.5467
 30
0.0
 10
-49.3502
 20
53.4091
 30
0.0
 10
-49.727
 20
53.2088
 30
0.0
 10
-50.0662
 20
52.9538
 30
0.0
 10
-50.0662
 20
52.9538
 30
0.0
 10
-52.5181
 20
51.1055
 30
0.0
 10
-54.1616
 20
48.3837
 30
0.0
 10
-54.6528
 20
45.3525
 30
0.0
 10
-54.6528
 20
45.3525
 30
0.0
 10
-54.6637
 20
45.2806
 30
0.0
 10
-54.6722
 20
45.2078
 30
0.0
 10
-54.6785
 20
45.1351
 30
0.0
 10
-54.6785
 20
45.1351
 30
0.0
 10
-54.947
 20
41.9735
 30
0.0
 10
-54.4422
 20
38.7959
 30
0.0
 10
-53.2068
 20
35.8732
 30
0.0
 10
-53.2068
 20
35.8732
 30
0.0
 10
-53.701
 20
36.2171
 30
0.0
 10
-54.2103
 20
36.5389
 30
0.0
 10
-54.7334
 20
36.8373
 30
0.0
 10
-54.7334
 20
36.8373
 30
0.0
 10
-55.8534
 20
37.4615
 30
0.0
 10
-57.0065
 20
38.0249
 30
0.0
 10
-58.1876
 20
38.5242
 30
0.0
 10
-58.1876
 20
38.5242
 30
0.0
 10
-57.886
 20
40.0313
 30
0.0
 10
-57.7514
 20
41.5668
 30
0.0
 10
-57.7861
 20
43.1034
 30
0.0
 10
-57.7861
 20
43.1034
 30
0.0
 10
-57.8795
 20
45.4698
 30
0.0
 10
-58.2571
 20
47.8157
 30
0.0
 10
-58.9106
 20
50.0921
 30
0.0
 10
-58.9106
 20
50.0921
 30
0.0
 10
-57.879
 20
50.3421
 30
0.0
 10
-56.9086
 20
50.7981
 30
0.0
 10
-56.0584
 20
51.4339
 30
0.0
 10
-56.0584
 20
51.4339
 30
0.0
 10
-55.2159
 20
52.0636
 30
0.0
 10
-54.4219
 20
52.7563
 30
0.0
 10
-53.6836
 20
53.5062
 30
0.0
 10
-53.6836
 20
53.5062
 30
0.0
 10
-52.6672
 20
54.5388
 30
0.0
 10
-52.0221
 20
55.8789
 30
0.0
 10
-51.8494
 20
57.3179
 30
0.0
 10
-51.8494
 20
57.3179
 30
0.0
 10
-51.6782
 20
58.7437
 30
0.0
 10
-51.8976
 20
60.1885
 30
0.0
 10
-52.4838
 20
61.4997
 30
0.0
 10
-52.4838
 20
61.4997
 30
0.0
 10
-53.3018
 20
61.6434
 30
0.0
 10
-54.1418
 20
61.5907
 30
0.0
 10
-54.9354
 20
61.346
 30
0.0
 10
-54.9354
 20
61.346
 30
0.0
 10
-57.0535
 20
60.6929
 30
0.0
 10
-58.9091
 20
59.3861
 30
0.0
 10
-60.2372
 20
57.6117
 30
0.0
 10
-60.2372
 20
57.6117
 30
0.0
 10
-60.567
 20
57.1712
 30
0.0
 10
-60.8492
 20
56.6973
 30
0.0
 10
-61.0796
 20
56.1975
 30
0.0
 10
-61.0796
 20
56.1975
 30
0.0
 10
-61.1897
 20
56.8862
 30
0.0
 10
-61.3784
 20
57.5601
 30
0.0
 10
-61.6419
 20
58.2061
 30
0.0
 10
-61.6419
 20
58.2061
 30
0.0
 10
-62.0473
 20
59.1544
 30
0.0
 10
-62.5679
 20
60.0491
 30
0.0
 10
-63.1921
 20
60.8702
 30
0.0
  0
SPLINE
  5
4E
330
1F
100
AcDbEntity
  8
layer 1
 62
     7
100
AcDbSpline
210
0.0
220
0.0
230
1.0
 70
    11
 71
     3
 72
    96
 73
    92
 74
     0
 42
0.0000000001
 43
0.0000000001
 12
1.0
 22
0.0
 32
0.0
 13
1.0
 23
0.0
 33
0.0
 40
0.0
 40
0.0
 40
0.0
 40
0.0
 40
0.0416666666666667
 40
0.0416666666666667
 40
0.0416666666666667
 40
0.0416666666666667
 40
0.0833333333333333
 40
0.0833333333333333
 40
0.0833333333333333
 40
0.0833333333333333
 40
0.125
 40
0.125
 40
0.125
 40
0.125
 40
0.1666666666666667
 40
0.1666666666666667
 40
0.1666666666666667
 40
0.1666666666666667
 40
0.2083333333333333
 40
0.2083333333333333
 40
0.2083333333333333
 40
0.2083333333333333
 40
0.25
 40
0.25
 40
0.25
 40
0.25
 40
0.2916666666666667
 40
0.2916666666666667
 40
0.2916666666666667
 40
0.2916666666666667
 40
0.3333333333333333
 40
0.3333333333333333
 40
0.3333333333333333
 40
0.3333333333333333
 40
0.375
 40
0.375
 40
0.375
 40
0.375
 40
0.4166666666666667
 40
0.4166666666666667
 40
0.4166666666666667
 40
0.4166666666666667
 40
0.4583333333333333
 40
0.4583333333333333
 40
0.4583333333333333
 40
0.4583333333333333
 40
0.5
 40
0.5
 40
0.5
 40
0.5
 40
0.5416666666666666
 40
0.5416666666666666
 40
0.5416666666666666
 40
0.5416666666666666
 40
0.5833333333333334
 40
0.5833333333333334
 40
0.5833333333333334
 40
0.5833333333333334
 40
0.625
 40
0.625
 40
0.625
 40
0.625
 40
0.6666666666666666
 40
0.6666666666666666
 40
0.6666666666666666
 40
0.6666666666666666
 40
0.7083333333333334
 40
0.7083333333333334
 40
0.7083333333333334
 40
0.7083333333333334
 40
0.75
 40
0.75
 40
0.75
 40
0.75
 40
0.7916666666666666
 40
0.7916666666666666
 40
0.7916666666666666
 40
0.7916666666666666
 40
0.8333333333333334
 40
0.8333333333333334
 40
0.8333333333333334
 40
0.8333333333333334
 40
0.875
 40
0.875
 40
0.875
 40
0.875
 40
0.9166666666666666
 40
0.9166666666666666
 40
0.9166666666666666
 40
0.9166666666666666
 40
1.0
 40
1.0
 40
1.0
 40
1.0
 10
-80.5944
 20
32.1539
 30
0.0
 10
-80.5944
 20
32.1539
 30
0.0
 10
-80.5944
 20
60.9981
 30
0.0
 10
-80.5944
 20
60.9981
 30
0.0
 10
-80.5944
 20
60.9981
 30
0.0
 10
-74.9641
 20
58.4792
 30
0.0
 10
-70.0688
 20
54.5611
 30
0.0
 10
-66.3757
 20
49.6206
 30
0.0
 10
-66.3757
 20
49.6206
 30
0.0
 10
-64.9309
 20
47.6879
 30
0.0
 10
-64.2502
 20
45.2884
 30
0.0
 10
-64.4638
 20
42.8844
 30
0.0
 10
-64.4638
 20
42.8844
 30
0.0
 10
-64.5194
 20
42.2581
 30
0.0
 10
-64.663
 20
41.6429
 30
0.0
 10
-64.8901
 20
41.0566
 30
0.0
 10
-64.8901
 20
41.0566
 30
0.0
 10
-66.5315
 20
41.8853
 30
0.0
 10
-68.3179
 20
42.385
 30
0.0
 10
-70.151
 20
42.5287
 30
0.0
 10
-70.151
 20
42.5287
 30
0.0
 10
-71.9729
 20
42.6719
 30
0.0
 10
-73.8045
 20
42.6013
 30
0.0
 10
-75.6098
 20
42.3179
 30
0.0
 10
-75.6098
 20
42.3179
 30
0.0
 10
-72.798
 20
41.1566
 30
0.0
 10
-69.9812
 20
40.0073
 30
0.0
 10
-67.1599
 20
38.8698
 30
0.0
 10
-67.1599
 20
38.8698
 30
0.0
 10
-64.336
 20
37.7313
 30
0.0
 10
-61.5783
 20
36.4351
 30
0.0
 10
-58.9
 20
34.9876
 30
0.0
 10
-58.9
 20
34.9876
 30
0.0
 10
-55.2275
 20
32.9384
 30
0.0
 10
-51.7452
 20
30.564
 30
0.0
 10
-48.4958
 20
27.894
 30
0.0
 10
-48.4958
 20
27.894
 30
0.0
 10
-51.2378
 20
28.4026
 30
0.0
 10
-54.0456
 20
28.4335
 30
0.0
 10
-56.7978
 20
27.9845
 30
0.0
 10
-56.7978
 20
27.9845
 30
0.0
 10
-58.3653
 20
27.7207
 30
0.0
 10
-59.9017
 20
27.3011
 30
0.0
 10
-61.3854
 20
26.7314
 30
0.0
 10
-61.3854
 20
26.7314
 30
0.0
 10
-62.8678
 20
26.1624
 30
0.0
 10
-64.3006
 20
25.4729
 30
0.0
 10
-65.6708
 20
24.6705
 30
0.0
 10
-65.6708
 20
24.6705
 30
0.0
 10
-65.2544
 20
27.3506
 30
0.0
 10
-65.2569
 20
30.0779
 30
0.0
 10
-65.6779
 20
32.7573
 30
0.0
 10
-65.6779
 20
32.7573
 30
0.0
 10
-65.9045
 20
34.1976
 30
0.0
 10
-66.6178
 20
35.516
 30
0.0
 10
-67.7003
 20
36.493
 30
0.0
 10
-67.7003
 20
36.493
 30
0.0
 10
-68.2585
 20
36.9974
 30
0.0
 10
-68.8686
 20
37.442
 30
0.0
 10
-69.5195
 20
37.82
 30
0.0
 10
-69.5195
 20
37.82
 30
0.0
 10
-70.7695
 20
38.5451
 30
0.0
 10
-72.1494
 20
39.0173
 30
0.0
 10
-73.5821
 20
39.2095
 30
0.0
 10
-73.5821
 20
39.2095
 30
0.0
 10
-72.6595
 20
38.5779
 30
0.0
 10
-71.8619
 20
37.78
 30
0.0
 10
-71.2301
 20
36.8579
 30
0.0
 10
-71.2301
 20
36.8579
 30
0.0
 10
-70.8843
 20
36.343
 30
0.0
 10
-70.5953
 20
35.7923
 30
0.0
 10
-70.3675
 20
35.2152
 30
0.0
 10
-70.3675
 20
35.2152
 30
0.0
 10
-70.1404
 20
34.639
 30
0.0
 10
-69.9639
 20
34.0436
 30
0.0
 10
-69.8403
 20
33.4367
 30
0.0
 10
-69.8403
 20
33.4367
 30
0.0
 10
-70.1634
 20
33.7656
 30
0.0
 10
-70.5307
 20
34.0476
 30
0.0
 10
-70.9315
 20
34.2745
 30
0.0
 10
-70.9315
 20
34.2745
 30
0.0
 10
-71.3318
 20
34.5009
 30
0.0
 10
-71.7541
 20
34.686
 30
0.0
 10
-72.1921
 20
34.8265
 30
0.0
 10
-72.1921
 20
34.8265
 30
0.0
 10
-73.7017
 20
35.3045
 30
0.0
 10
-75.3177
 20
35.3306
 30
0.0
 10
-76.8416
 20
34.9004
 30
0.0
 10
-76.8416
 20
34.9004
 30
0.0
 10
-78.3824
 20
34.4653
 30
0.0
 10
-79.7141
 20
33.4912
 30
0.0
 10
-80.5944
 20
32.1539
 30
0.0
  0
SPLINE
  5
4F
330
1F
100
AcDbEntity
  8
layer 1
 62
     7
100
AcDbSpline
210
0.0
220
0.0
230
1.0
 70
    11
 71
     3
 72
    44
 73
    40
 74
     0
 42
0.0000000001
 43
0.0000000001
 12
1.0
 22
0.0
 32
0.0
 13
1.0
 23
0.0
 33
0.0
 40
0.0
 40
0.0
 40
0.0
 40
0.0
 40
0.0909090909090909
 40
0.0909090909090909
 40
0.0909090909090909
 40
0.0909090909090909
 40
0.1818181818181818
 40
0.1818181818181818
 40
0.1818181818181818
 40
0.1818181818181818
 40
0.2727272727272727
 40
0.2727272727272727
 40
0.2727272727272727
 40
0.2727272727272727
 40
0.3636363636363636
 40
0.3636363636363636
 40
0.3636363636363636
 40
0.3636363636363636
 40
0.4545454545454545
 40
0.4545454545454545
 40
0.4545454545454545
 40
0.4545454545454545
 40
0.5454545454545454
 40
0.5454545454545454
 40
0.5454545454545454
 40
0.5454545454545454
 40
0.6363636363636364
 40
0.6363636363636364
 40
0.6363636363636364
 40
0.6363636363636364
 40
0.7272727272727273
 40
0.7272727272727273
 40
0.7272727272727273
 40
0.7272727272727273
 40
0.8181818181818182
 40
0.8181818181818182
 40
0.8181818181818182
 40
0.8181818181818182
 40
1.0
 40
1.0
 40
1.0
 40
1.0
 10
-80.5944
 20
13.2353
 30
0.0
 10
-80.5944
 20
13.2353
 30
0.0
 10
-80.5944
 20
30.5918
 30
0.0
 10
-80.5944
 20
30.5918
 30
0.0
 10
-80.5944
 20
30.5918
 30
0.0
 10
-79.1654
 20
29.2532
 30
0.0
 10
-77.3075
 20
28.4677
 30
0.0
 10
-75.3516
 20
28.3761
 30
0.0
 10
-75.3516
 20
28.3761
 30
0.0
 10
-73.4185
 20
28.2861
 30
0.0
 10
-71.5003
 20
28.7393
 30
0.0
 10
-69.8123
 20
29.6858
 30
0.0
 10
-69.8123
 20
29.6858
 30
0.0
 10
-69.314
 20
29.9655
 30
0.0
 10
-68.8496
 20
30.3012
 30
0.0
 10
-68.4278
 20
30.6864
 30
0.0
 10
-68.4278
 20
30.6864
 30
0.0
 10
-68.1407
 20
29.5489
 30
0.0
 10
-68.0679
 20
28.367
 30
0.0
 10
-68.213
 20
27.2024
 30
0.0
 10
-68.213
 20
27.2024
 30
0.0
 10
-68.3576
 20
26.0476
 30
0.0
 10
-68.5556
 20
24.8998
 30
0.0
 10
-68.8071
 20
23.7628
 30
0.0
 10
-68.8071
 20
23.7628
 30
0.0
 10
-70.1648
 20
23.0305
 30
0.0
 10
-71.466
 20
22.1984
 30
0.0
 10
-72.7009
 20
21.2734
 30
0.0
 10
-72.7009
 20
21.2734
 30
0.0
 10
-73.9334
 20
20.3499
 30
0.0
 10
-75.1576
 20
19.4146
 30
0.0
 10
-76.3726
 20
18.4673
 30
0.0
 10
-76.3726
 20
18.4673
 30
0.0
 10
-77.9273
 20
17.2551
 30
0.0
 10
-79.2398
 20
15.7617
 30
0.0
 10
-80.2421
 20
14.0636
 30
0.0
 10
-80.2421
 20
14.0636
 30
0.0
 10
-80.3952
 20
13.8045
 30
0.0
 10
-80.5139
 20
13.5257
 30
0.0
 10
-80.5944
 20
13.2353
 30
0.0
  0
SPLINE
  5
50
330
1F
100
AcDbEntity
  8
layer 1
 62
     7
100
AcDbSpline
210
0.0
220
0.0
230
1.0
 70
    11
 71
     3
 72
    92
 73
    88
 74
     0
 42
0.0000000001
 43
0.0000000001
 12
1.0
 22
0.0
 32
0.0
 13
1.0
 23
0.0
 33
0.0
 40
0.0
 40
0.0
 40
0.0
 40
0.0
 40
0.0434782608695652
 40
0.0434782608695652
 40
0.0434782608695652
 40
0.0434782608695652
 40
0.0869565217391304
 40
0.0869565217391304
 40
0.0869565217391304
 40
0.0869565217391304
 40
0.1304347826086956
 40
0.1304347826086956
 40
0.1304347826086956
 40
0.1304347826086956
 40
0.1739130434782609
 40
0.1739130434782609
 40
0.1739130434782609
 40
0.1739130434782609
 40
0.2173913043478261
 40
0.2173913043478261
 40
0.2173913043478261
 40
0.2173913043478261
 40
0.2608695652173913
 40
0.2608695652173913
 40
0.2608695652173913
 40
0.2608695652173913
 40
0.3043478260869565
 40
0.3043478260869565
 40
0.3043478260869565
 40
0.3043478260869565
 40
0.3478260869565217
 40
0.3478260869565217
 40
0.3478260869565217
 40
0.3478260869565217
 40
0.391304347826087
 40
0.391304347826087
 40
0.391304347826087
 40
0.391304347826087
 40
0.4347826086956522
 40
0.4347826086956522
 40
0.4347826086956522
 40
0.4347826086956522
 40
0.4782608695652174
 40
0.4782608695652174
 40
0.4782608695652174
 40
0.4782608695652174
 40
0.5217391304347826
 40
0.5217391304347826
 40
0.5217391304347826
 40
0.5217391304347826
 40
0.5652173913043478
 40
0.5652173913043478
 40
0.5652173913043478
 40
0.5652173913043478
 40
0.6086956521739131
 40
0.6086956521739131
 40
0.6086956521739131
 40
0.6086956521739131
 40
0.6521739130434783
 40
0.6521739130434783
 40
0.6521739130434783
 40
0.6521739130434783
 40
0.6956521739130435
 40
0.6956521739130435
 40
0.6956521739130435
 40
0.6956521739130435
 40
0.7391304347826086
 40
0.7391304347826086
 40
0.7391304347826086
 40
0.7391304347826086
 40
0.782608695652174
 40
0.782608695652174
 40
0.782608695652174
 40
0.782608695652174
 40
0.8260869565217391
 40
0.8260869565217391
 40
0.8260869565217391
 40
0.8260869565217391
 40
0.8695652173913043
 40
0.8695652173913043
 40
0.8695652173913043
 40
0.8695652173913043
 40
0.9130434782608695
 40
0.9130434782608695
 40
0.9130434782608695
 40
0.9130434782608695
 40
1.0
 40
1.0
 40
1.0
 40
1.0
 10
-80.5944
 20
-11.2054
 30
0.0
 10
-80.5944
 20
-11.2054
 30
0.0
 10
-80.5944
 20
-8.0952
 30
0.0
 10
-80.5944
 20
-8.0952
 30
0.0
 10
-80.5944
 20
-8.0952
 30
0.0
 10
-79.7442
 20
-6.3977
 30
0.0
 10
-78.5621
 20
-4.8872
 30
0.0
 10
-77.119
 20
-3.6537
 30
0.0
 10
-77.119
 20
-3.6537
 30
0.0
 10
-75.6772
 20
-2.4219
 30
0.0
 10
-74.0151
 20
-1.4731
 30
0.0
 10
-72.2208
 20
-0.8586
 30
0.0
 10
-72.2208
 20
-0.8586
 30
0.0
 10
-70.8146
 20
-0.3765
 30
0.0
 10
-69.2565
 20
-0.6918
 30
0.0
 10
-68.1466
 20
-1.6816
 30
0.0
 10
-68.1466
 20
-1.6816
 30
0.0
 10
-66.4799
 20
-3.1689
 30
0.0
 10
-64.8393
 20
-4.6855
 30
0.0
 10
-63.2256
 20
-6.2303
 30
0.0
 10
-63.2256
 20
-6.2303
 30
0.0
 10
-61.7933
 20
-7.6019
 30
0.0
 10
-60.707
 20
-9.2954
 30
0.0
 10
-60.0575
 20
-11.1691
 30
0.0
 10
-60.0575
 20
-11.1691
 30
0.0
 10
-59.8692
 20
-11.7131
 30
0.0
 10
-59.7667
 20
-12.2828
 30
0.0
 10
-59.754
 20
-12.858
 30
0.0
 10
-59.754
 20
-12.858
 30
0.0
 10
-60.1015
 20
-12.9791
 30
0.0
 10
-60.4356
 20
-13.1349
 30
0.0
 10
-60.7517
 20
-13.3236
 30
0.0
 10
-60.7517
 20
-13.3236
 30
0.0
 10
-61.0686
 20
-13.5125
 30
0.0
 10
-61.355
 20
-13.7488
 30
0.0
 10
-61.6006
 20
-14.0243
 30
0.0
 10
-61.6006
 20
-14.0243
 30
0.0
 10
-61.9679
 20
-14.4445
 30
0.0
 10
-62.2337
 20
-14.9434
 30
0.0
 10
-62.3782
 20
-15.4823
 30
0.0
 10
-62.3782
 20
-15.4823
 30
0.0
 10
-63.1983
 20
-15.075
 30
0.0
 10
-64.0422
 20
-14.718
 30
0.0
 10
-64.9058
 20
-14.4131
 30
0.0
 10
-64.9058
 20
-14.4131
 30
0.0
 10
-65.3521
 20
-14.2606
 30
0.0
 10
-65.8064
 20
-14.1305
 30
0.0
 10
-66.2663
 20
-14.0243
 30
0.0
 10
-66.2663
 20
-14.0243
 30
0.0
 10
-65.8873
 20
-13.3074
 30
0.0
 10
-65.6425
 20
-12.5275
 30
0.0
 10
-65.5442
 20
-11.7226
 30
0.0
 10
-65.5442
 20
-11.7226
 30
0.0
 10
-65.4469
 20
-10.9225
 30
0.0
 10
-65.425
 20
-10.1151
 30
0.0
 10
-65.4793
 20
-9.3108
 30
0.0
 10
-65.4793
 20
-9.3108
 30
0.0
 10
-65.5585
 20
-8.1387
 30
0.0
 10
-66.0035
 20
-7.0211
 30
0.0
 10
-66.7522
 20
-6.1155
 30
0.0
 10
-66.7522
 20
-6.1155
 30
0.0
 10
-67.4918
 20
-5.221
 30
0.0
 10
-68.4215
 20
-4.5029
 30
0.0
 10
-69.4739
 20
-4.0126
 30
0.0
 10
-69.4739
 20
-4.0126
 30
0.0
 10
-69.6503
 20
-4.2447
 30
0.0
 10
-69.802
 20
-4.4947
 30
0.0
 10
-69.9267
 20
-4.7583
 30
0.0
 10
-69.9267
 20
-4.7583
 30
0.0
 10
-70.0507
 20
-5.0214
 30
0.0
 10
-70.1594
 20
-5.2918
 30
0.0
 10
-70.2514
 20
-5.5681
 30
0.0
 10
-70.2514
 20
-5.5681
 30
0.0
 10
-70.7472
 20
-7.1062
 30
0.0
 10
-70.8476
 20
-8.7436
 30
0.0
 10
-70.5431
 20
-10.3307
 30
0.0
 10
-70.5431
 20
-10.3307
 30
0.0
 10
-70.3386
 20
-11.3972
 30
0.0
 10
-69.9433
 20
-12.4176
 30
0.0
 10
-69.3765
 20
-13.3441
 30
0.0
 10
-69.3765
 20
-13.3441
 30
0.0
 10
-70.3637
 20
-12.3862
 30
0.0
 10
-71.6246
 20
-11.7607
 30
0.0
 10
-72.9844
 20
-11.5545
 30
0.0
 10
-72.9844
 20
-11.5545
 30
0.0
 10
-75.502
 20
-11.1727
 30
0.0
 10
-78.0524
 20
-11.0558
 30
0.0
 10
-80.5944
 20
-11.2054
 30
0.0
  0
SPLINE
  5
51
330
1F
100
AcDbEntity
  8
layer 1
 62
     7
100
AcDbSpline
210
0.0
220
0.0
230
1.0
 70
    11
 71
     3
 72
   108
 73
   104
 74
     0
 42
0.0000000001
 43
0.0000000001
 12
1.0
 22
0.0
 32
0.0
 13
1.0
 23
0.0
 33
0.0
 40
0.0
 40
0.0
 40
0.0
 40
0.0
 40
0.037037037037037
 40
0.037037037037037
 40
0.037037037037037
 40
0.037037037037037
 40
0.0740740740740741
 40
0.0740740740740741
 40
0.0740740740740741
 40
0.0740740740740741
 40
0.1111111111111111
 40
0.1111111111111111
 40
0.1111111111111111
 40
0.1111111111111111
 40
0.1481481481481481
 40
0.1481481481481481
 40
0.1481481481481481
 40
0.1481481481481481
 40
0.1851851851851852
 40
0.1851851851851852
 40
0.1851851851851852
 40
0.1851851851851852
 40
0.2222222222222222
 40
0.2222222222222222
 40
0.2222222222222222
 40
0.2222222222222222
 40
0.2592592592592592
 40
0.2592592592592592
 40
0.2592592592592592
 40
0.2592592592592592
 40
0.2962962962962963
 40
0.2962962962962963
 40
0.2962962962962963
 40
0.2962962962962963
 40
0.3333333333333333
 40
0.3333333333333333
 40
0.3333333333333333
 40
0.3333333333333333
 40
0.3703703703703703
 40
0.3703703703703703
 40
0.3703703703703703
 40
0.3703703703703703
 40
0.4074074074074074
 40
0.4074074074074074
 40
0.4074074074074074
 40
0.4074074074074074
 40
0.4444444444444444
 40
0.4444444444444444
 40
0.4444444444444444
 40
0.4444444444444444
 40
0.4814814814814815
 40
0.4814814814814815
 40
0.4814814814814815
 40
0.4814814814814815
 40
0.5185185185185185
 40
0.5185185185185185
 40
0.5185185185185185
 40
0.5185185185185185
 40
0.5555555555555556
 40
0.5555555555555556
 40
0.5555555555555556
 40
0.5555555555555556
 40
0.5925925925925926
 40
0.5925925925925926
 40
0.5925925925925926
 40
0.5925925925925926
 40
0.6296296296296297
 40
0.6296296296296297
 40
0.6296296296296297
 40
0.6296296296296297
 40
0.6666666666666666
 40
0.6666666666666666
 40
0.6666666666666666
 40
0.6666666666666666
 40
0.7037037037037037
 40
0.7037037037037037
 40
0.7037037037037037
 40
0.7037037037037037
 40
0.7407407407407407
 40
0.7407407407407407
 40
0.7407407407407407
 40
0.7407407407407407
 40
0.7777777777777778
 40
0.7777777777777778
 40
0.7777777777777778
 40
0.7777777777777778
 40
0.8148148148148148
 40
0.8148148148148148
 40
0.8148148148148148
 40
0.8148148148148148
 40
0.8518518518518519
 40
0.8518518518518519
 40
0.8518518518518519
 40
0.8518518518518519
 40
0.8888888888888888
 40
0.8888888888888888
 40
0.8888888888888888
 40
0.8888888888888888
 40
0.9259259259259259
 40
0.9259259259259259
 40
0.9259259259259259
 40
0.9259259259259259
 40
1.0
 40
1.0
 40
1.0
 40
1.0
 10
-23.1112
 20
77.2205
 30
0.0
 10
-21.0005
 20
75.6494
 30
0.0
 10
-19.1301
 20
73.7786
 30
0.0
 10
-17.559
 20
71.6679
 30
0.0
 10
-17.559
 20
71.6679
 30
0.0
 10
-15.9422
 20
69.4336
 30
0.0
 10
-14.6594
 20
66.975
 30
0.0
 10
-13.7515
 20
64.3707
 30
0.0
 10
-13.7515
 20
64.3707
 30
0.0
 10
-14.3083
 20
63.8703
 30
0.0
 10
-14.8376
 20
63.3408
 30
0.0
 10
-15.3378
 20
62.7842
 30
0.0
 10
-15.3378
 20
62.7842
 30
0.0
 10
-16.3095
 20
61.6787
 30
0.0
 10
-17.2105
 20
60.5132
 30
0.0
 10
-18.0348
 20
59.2939
 30
0.0
 10
-18.0348
 20
59.2939
 30
0.0
 10
-19.8717
 20
60.7965
 30
0.0
 10
-22.294
 20
61.3736
 30
0.0
 10
-24.6109
 20
60.8593
 30
0.0
 10
-24.6109
 20
60.8593
 30
0.0
 10
-26.8256
 20
60.3681
 30
0.0
 10
-28.9443
 20
59.5179
 30
0.0
 10
-30.8848
 20
58.3425
 30
0.0
 10
-30.8848
 20
58.3425
 30
0.0
 10
-29.4207
 20
58.2682
 30
0.0
 10
-27.9999
 20
57.8194
 30
0.0
 10
-26.7591
 20
57.0387
 30
0.0
 10
-26.7591
 20
57.0387
 30
0.0
 10
-25.53
 20
56.266
 30
0.0
 10
-24.4373
 20
55.2947
 30
0.0
 10
-23.5246
 20
54.1656
 30
0.0
 10
-23.5246
 20
54.1656
 30
0.0
 10
-22.4758
 20
52.8679
 30
0.0
 10
-21.816
 20
51.2983
 30
0.0
 10
-21.6222
 20
49.6412
 30
0.0
 10
-21.6222
 20
49.6412
 30
0.0
 10
-21.59
 20
49.3674
 30
0.0
 10
-21.611
 20
49.0898
 30
0.0
 10
-21.6833
 20
48.8237
 30
0.0
 10
-21.6833
 20
48.8237
 30
0.0
 10
-23.8944
 20
48.7059
 30
0.0
 10
-26.0639
 20
48.1838
 30
0.0
 10
-28.0861
 20
47.2827
 30
0.0
 10
-28.0861
 20
47.2827
 30
0.0
 10
-30.0986
 20
46.3861
 30
0.0
 10
-31.9962
 20
45.2526
 30
0.0
 10
-33.74
 20
43.906
 30
0.0
 10
-33.74
 20
43.906
 30
0.0
 10
-35.2211
 20
43.9296
 30
0.0
 10
-36.667
 20
44.363
 30
0.0
 10
-37.9173
 20
45.157
 30
0.0
 10
-37.9173
 20
45.157
 30
0.0
 10
-39.1514
 20
45.9407
 30
0.0
 10
-40.2577
 20
46.9101
 30
0.0
 10
-41.1964
 20
48.0309
 30
0.0
 10
-41.1964
 20
48.0309
 30
0.0
 10
-41.1703
 20
48.644
 30
0.0
 10
-41.0953
 20
49.2547
 30
0.0
 10
-40.9725
 20
49.8562
 30
0.0
 10
-40.9725
 20
49.8562
 30
0.0
 10
-40.3599
 20
52.8477
 30
0.0
 10
-39.5166
 20
55.7881
 30
0.0
 10
-38.4503
 20
58.6498
 30
0.0
 10
-38.4503
 20
58.6498
 30
0.0
 10
-37.3341
 20
61.6448
 30
0.0
 10
-35.7293
 20
64.4355
 30
0.0
 10
-33.7023
 20
66.9064
 30
0.0
 10
-33.7023
 20
66.9064
 30
0.0
 10
-33.017
 20
67.7418
 30
0.0
 10
-32.2301
 20
68.4888
 30
0.0
 10
-31.3606
 20
69.1297
 30
0.0
 10
-31.3606
 20
69.1297
 30
0.0
 10
-29.7421
 20
67.3394
 30
0.0
 10
-27.6131
 20
66.0915
 30
0.0
 10
-25.2602
 20
65.5551
 30
0.0
 10
-25.2602
 20
65.5551
 30
0.0
 10
-22.9406
 20
65.0267
 30
0.0
 10
-20.5426
 20
64.9475
 30
0.0
 10
-18.1934
 20
65.3224
 30
0.0
 10
-18.1934
 20
65.3224
 30
0.0
 10
-17.9183
 20
66.189
 30
0.0
 10
-18.0234
 20
67.1307
 30
0.0
 10
-18.4834
 20
67.9147
 30
0.0
 10
-18.4834
 20
67.9147
 30
0.0
 10
-19.6097
 20
69.8352
 30
0.0
 10
-21.44
 20
71.2387
 30
0.0
 10
-23.5871
 20
71.8267
 30
0.0
 10
-23.5871
 20
71.8267
 30
0.0
 10
-24.6322
 20
72.1129
 30
0.0
 10
-25.7201
 20
72.2079
 30
0.0
 10
-26.7987
 20
72.1062
 30
0.0
 10
-26.7987
 20
72.1062
 30
0.0
 10
-27.8742
 20
72.0051
 30
0.0
 10
-28.9295
 20
71.7509
 30
0.0
 10
-29.9325
 20
71.3507
 30
0.0
 10
-29.9325
 20
71.3507
 30
0.0
 10
-29.3067
 20
72.7734
 30
0.0
 10
-28.3464
 20
74.0244
 30
0.0
 10
-27.1342
 20
74.9971
 30
0.0
 10
-27.1342
 20
74.9971
 30
0.0
 10
-25.9305
 20
75.963
 30
0.0
 10
-24.5696
 20
76.7153
 30
0.0
 10
-23.1112
 20
77.2205
 30
0.0
  0
SPLINE
  5
52
330
1F
100
AcDbEntity
  8
layer 1
 62
     7
100
AcDbSpline
210
0.0
220
0.0
230
1.0
 70
    11
 71
     3
 72
    32
 73
    28
 74
     0
 42
0.0000000001
 43
0.0000000001
 12
1.0
 22
0.0
 32
0.0
 13
1.0
 23
0.0
 33
0.0
 40
0.0
 40
0.0
 40
0.0
 40
0.0
 40
0.125
 40
0.125
 40
0.125
 40
0.125
 40
0.25
 40
0.25
 40
0.25
 40
0.25
 40
0.375
 40
0.375
 40
0.375
 40
0.375
 40
0.5
 40
0.5
 40
0.5
 40
0.5
 40
0.625
 40
0.625
 40
0.625
 40
0.625
 40
0.75
 40
0.75
 40
0.75
 40
0.75
 40
1.0
 40
1.0
 40
1.0
 40
1.0
 10
-21.8621
 20
58.2301
 30
0.0
 10
-20.3832
 20
57.5397
 30
0.0
 10
-19.1145
 20
56.4673
 30
0.0
 10
-18.1873
 20
55.1241
 30
0.0
 10
-18.1873
 20
55.1241
 30
0.0
 10
-17.2722
 20
53.7987
 30
0.0
 10
-16.5372
 20
52.3572
 30
0.0
 10
-16.0014
 20
50.8381
 30
0.0
 10
-16.0014
 20
50.8381
 30
0.0
 10
-16.5637
 20
50.7901
 30
0.0
 10
-17.1182
 20
50.6753
 30
0.0
 10
-17.6536
 20
50.4965
 30
0.0
 10
-17.6536
 20
50.4965
 30
0.0
 10
-18.1959
 20
50.3154
 30
0.0
 10
-18.6818
 20
49.9975
 30
0.0
 10
-19.0651
 20
49.573
 30
0.0
 10
-19.0651
 20
49.573
 30
0.0
 10
-19.3338
 20
50.3419
 30
0.0
 10
-19.5783
 20
51.1192
 30
0.0
 10
-19.7977
 20
51.9037
 30
0.0
 10
-19.7977
 20
51.9037
 30
0.0
 10
-19.9315
 20
52.414
 30
0.0
 10
-20.0505
 20
52.9283
 30
0.0
 10
-20.1551
 20
53.4454
 30
0.0
 10
-20.1551
 20
53.4454
 30
0.0
 10
-20.4919
 20
55.1138
 30
0.0
 10
-21.0666
 20
56.7247
 30
0.0
 10
-21.8621
 20
58.2301
 30
0.0
  0
SPLINE
  5
53
330
1F
100
AcDbEntity
  8
layer 1
 62
     7
100
AcDbSpline
210
0.0
220
0.0
230
1.0
 70
    11
 71
     3
 72
    44
 73
    40
 74
     0
 42
0.0000000001
 43
0.0000000001
 12
1.0
 22
0.0
 32
0.0
 13
1.0
 23
0.0
 33
0.0
 40
0.0
 40
0.0
 40
0.0
 40
0.0
 40
0.0909090909090909
 40
0.0909090909090909
 40
0.0909090909090909
 40
0.0909090909090909
 40
0.1818181818181818
 40
0.1818181818181818
 40
0.1818181818181818
 40
0.1818181818181818
 40
0.2727272727272727
 40
0.2727272727272727
 40
0.2727272727272727
 40
0.2727272727272727
 40
0.3636363636363636
 40
0.3636363636363636
 40
0.3636363636363636
 40
0.3636363636363636
 40
0.4545454545454545
 40
0.4545454545454545
 40
0.4545454545454545
 40
0.4545454545454545
 40
0.5454545454545454
 40
0.5454545454545454
 40
0.5454545454545454
 40
0.5454545454545454
 40
0.6363636363636364
 40
0.6363636363636364
 40
0.6363636363636364
 40
0.6363636363636364
 40
0.7272727272727273
 40
0.7272727272727273
 40
0.7272727272727273
 40
0.7272727272727273
 40
0.8181818181818182
 40
0.8181818181818182
 40
0.8181818181818182
 40
0.8181818181818182
 40
1.0
 40
1.0
 40
1.0
 40
1.0
 10
-0.0016
 20
3.3571
 30
0.0
 10
-2.7089
 20
3.6705
 30
0.0
 10
-5.4493
 20
3.4893
 30
0.0
 10
-8.0913
 20
2.8217
 30
0.0
 10
-8.0913
 20
2.8217
 30
0.0
 10
-10.7251
 20
2.1567
 30
0.0
 10
-13.2494
 20
1.1169
 30
0.0
 10
-15.5875
 20
-0.2659
 30
0.0
 10
-15.5875
 20
-0.2659
 30
0.0
 10
-15.8121
 20
0.6757
 30
0.0
 10
-16.1463
 20
1.5876
 30
0.0
 10
-16.5839
 20
2.4513
 30
0.0
 10
-16.5839
 20
2.4513
 30
0.0
 10
-17.2008
 20
3.6277
 30
0.0
 10
-17.9613
 20
4.7226
 30
0.0
 10
-18.8483
 20
5.7119
 30
0.0
 10
-18.8483
 20
5.7119
 30
0.0
 10
-18.401
 20
7.3327
 30
0.0
 10
-17.3143
 20
8.7039
 30
0.0
 10
-15.8382
 20
9.5095
 30
0.0
 10
-15.8382
 20
9.5095
 30
0.0
 10
-12.9445
 20
11.0894
 30
0.0
 10
-9.7591
 20
12.066
 30
0.0
 10
-6.4772
 20
12.38
 30
0.0
 10
-6.4772
 20
12.38
 30
0.0
 10
-4.6681
 20
12.5534
 30
0.0
 10
-2.8424
 20
12.4226
 30
0.0
 10
-1.0767
 20
11.9938
 30
0.0
 10
-1.0767
 20
11.9938
 30
0.0
 10
-0.7027
 20
11.9032
 30
0.0
 10
-0.3413
 20
11.7657
 30
0.0
 10
-0.0016
 20
11.5846
 30
0.0
 10
-0.0016
 20
11.5846
 30
0.0
 10
-0.0016
 20
11.5846
 30
0.0
 10
-0.0016
 20
3.3571
 30
0.0
 10
-0.0016
 20
3.3571
 30
0.0
 10
-0.0016
 20
3.3571
 30
0.0
 10
-0.0016
 20
3.3571
 30
0.0
 10
-0.0016
 20
3.3571
 30
0.0
 10
-0.0016
 20
3.3571
 30
0.0
  0
SPLINE
  5
54
330
1F
100
AcDbEntity
  8
layer 1
 62
     7
100
AcDbSpline
210
0.0
220
0.0
230
1.0
 70
    11
 71
     3
 72
   224
 73
   220
 74
     0
 42
0.0000000001
 43
0.0000000001
 12
1.0
 22
0.0
 32
0.0
 13
1.0
 23
0.0
 33
0.0
 40
0.0
 40
0.0
 40
0.0
 40
0.0
 40
0.0178571428571429
 40
0.0178571428571429
 40
0.0178571428571429
 40
0.0178571428571429
 40
0.0357142857142857
 40
0.0357142857142857
 40
0.0357142857142857
 40
0.0357142857142857
 40
0.0535714285714286
 40
0.0535714285714286
 40
0.0535714285714286
 40
0.0535714285714286
 40
0.0714285714285714
 40
0.0714285714285714
 40
0.0714285714285714
 40
0.0714285714285714
 40
0.0892857142857143
 40
0.0892857142857143
 40
0.0892857142857143
 40
0.0892857142857143
 40
0.1071428571428571
 40
0.1071428571428571
 40
0.1071428571428571
 40
0.1071428571428571
 40
0.125
 40
0.125
 40
0.125
 40
0.125
 40
0.1428571428571428
 40
0.1428571428571428
 40
0.1428571428571428
 40
0.1428571428571428
 40
0.1607142857142857
 40
0.1607142857142857
 40
0.1607142857142857
 40
0.1607142857142857
 40
0.1785714285714286
 40
0.1785714285714286
 40
0.1785714285714286
 40
0.1785714285714286
 40
0.1964285714285714
 40
0.1964285714285714
 40
0.1964285714285714
 40
0.1964285714285714
 40
0.2142857142857143
 40
0.2142857142857143
 40
0.2142857142857143
 40
0.2142857142857143
 40
0.2321428571428572
 40
0.2321428571428572
 40
0.2321428571428572
 40
0.2321428571428572
 40
0.25
 40
0.25
 40
0.25
 40
0.25
 40
0.2678571428571428
 40
0.2678571428571428
 40
0.2678571428571428
 40
0.2678571428571428
 40
0.2857142857142857
 40
0.2857142857142857
 40
0.2857142857142857
 40
0.2857142857142857
 40
0.3035714285714285
 40
0.3035714285714285
 40
0.3035714285714285
 40
0.3035714285714285
 40
0.3214285714285715
 40
0.3214285714285715
 40
0.3214285714285715
 40
0.3214285714285715
 40
0.3392857142857143
 40
0.3392857142857143
 40
0.3392857142857143
 40
0.3392857142857143
 40
0.3571428571428572
 40
0.3571428571428572
 40
0.3571428571428572
 40
0.3571428571428572
 40
0.375
 40
0.375
 40
0.375
 40
0.375
 40
0.3928571428571428
 40
0.3928571428571428
 40
0.3928571428571428
 40
0.3928571428571428
 40
0.4107142857142857
 40
0.4107142857142857
 40
0.4107142857142857
 40
0.4107142857142857
 40
0.4285714285714285
 40
0.4285714285714285
 40
0.4285714285714285
 40
0.4285714285714285
 40
0.4464285714285715
 40
0.4464285714285715
 40
0.4464285714285715
 40
0.4464285714285715
 40
0.4642857142857143
 40
0.4642857142857143
 40
0.4642857142857143
 40
0.4642857142857143
 40
0.4821428571428572
 40
0.4821428571428572
 40
0.4821428571428572
 40
0.4821428571428572
 40
0.5
 40
0.5
 40
0.5
 40
0.5
 40
0.5178571428571429
 40
0.5178571428571429
 40
0.5178571428571429
 40
0.5178571428571429
 40
0.5357142857142857
 40
0.5357142857142857
 40
0.5357142857142857
 40
0.5357142857142857
 40
0.5535714285714286
 40
0.5535714285714286
 40
0.5535714285714286
 40
0.5535714285714286
 40
0.5714285714285714
 40
0.5714285714285714
 40
0.5714285714285714
 40
0.5714285714285714
 40
0.5892857142857143
 40
0.5892857142857143
 40
0.5892857142857143
 40
0.5892857142857143
 40
0.6071428571428571
 40
0.6071428571428571
 40
0.6071428571428571
 40
0.6071428571428571
 40
0.625
 40
0.625
 40
0.625
 40
0.625
 40
0.6428571428571429
 40
0.6428571428571429
 40
0.6428571428571429
 40
0.6428571428571429
 40
0.6607142857142857
 40
0.6607142857142857
 40
0.6607142857142857
 40
0.6607142857142857
 40
0.6785714285714286
 40
0.6785714285714286
 40
0.6785714285714286
 40
0.6785714285714286
 40
0.6964285714285714
 40
0.6964285714285714
 40
0.6964285714285714
 40
0.6964285714285714
 40
0.7142857142857143
 40
0.7142857142857143
 40
0.7142857142857143
 40
0.7142857142857143
 40
0.7321428571428571
 40
0.7321428571428571
 40
0.7321428571428571
 40
0.7321428571428571
 40
0.75
 40
0.75
 40
0.75
 40
0.75
 40
0.7678571428571429
 40
0.7678571428571429
 40
0.7678571428571429
 40
0.7678571428571429
 40
0.7857142857142857
 40
0.7857142857142857
 40
0.7857142857142857
 40
0.7857142857142857
 40
0.8035714285714286
 40
0.8035714285714286
 40
0.8035714285714286
 40
0.8035714285714286
 40
0.8214285714285714
 40
0.8214285714285714
 40
0.8214285714285714
 40
0.8214285714285714
 40
0.8392857142857143
 40
0.8392857142857143
 40
0.8392857142857143
 40
0.8392857142857143
 40
0.8571428571428571
 40
0.8571428571428571
 40
0.8571428571428571
 40
0.8571428571428571
 40
0.875
 40
0.875
 40
0.875
 40
0.875
 40
0.8928571428571429
 40
0.8928571428571429
 40
0.8928571428571429
 40
0.8928571428571429
 40
0.9107142857142857
 40
0.9107142857142857
 40
0.9107142857142857
 40
0.9107142857142857
 40
0.9285714285714286
 40
0.9285714285714286
 40
0.9285714285714286
 40
0.9285714285714286
 40
0.9464285714285714
 40
0.9464285714285714
 40
0.9464285714285714
 40
0.9464285714285714
 40
0.9642857142857143
 40
0.9642857142857143
 40
0.9642857142857143
 40
0.9642857142857143
 40
1.0
 40
1.0
 40
1.0
 40
1.0
 10
-67.8834
 20
0.4606
 30
0.0
 10
-68.063
 20
3.6776
 30
0.0
 10
-67.6148
 20
6.8997
 30
0.0
 10
-66.565
 20
9.9461
 30
0.0
 10
-66.565
 20
9.9461
 30
0.0
 10
-65.5069
 20
13.0167
 30
0.0
 10
-63.6502
 20
15.7522
 30
0.0
 10
-61.1876
 20
17.8703
 30
0.0
 10
-61.1876
 20
17.8703
 30
0.0
 10
-61.0189
 20
18.0133
 30
0.0
 10
-60.8454
 20
18.1504
 30
0.0
 10
-60.6674
 20
18.2818
 30
0.0
 10
-60.6674
 20
18.2818
 30
0.0
 10
-60.4893
 20
18.4136
 30
0.0
 10
-60.2989
 20
18.528
 30
0.0
 10
-60.0994
 20
18.6238
 30
0.0
 10
-60.0994
 20
18.6238
 30
0.0
 10
-57.8527
 20
18.035
 30
0.0
 10
-55.6443
 20
17.308
 30
0.0
 10
-53.4869
 20
16.4474
 30
0.0
 10
-53.4869
 20
16.4474
 30
0.0
 10
-50.5239
 20
15.2451
 30
0.0
 10
-47.6436
 20
13.8467
 30
0.0
 10
-44.8656
 20
12.2627
 30
0.0
 10
-44.8656
 20
12.2627
 30
0.0
 10
-48.3839
 20
13.6024
 30
0.0
 10
-52.2557
 20
13.6794
 30
0.0
 10
-55.824
 20
12.4792
 30
0.0
 10
-55.824
 20
12.4792
 30
0.0
 10
-55.9398
 20
12.4403
 30
0.0
 10
-56.0535
 20
12.3958
 30
0.0
 10
-56.1655
 20
12.3465
 30
0.0
 10
-56.1655
 20
12.3465
 30
0.0
 10
-55.0081
 20
12.3891
 30
0.0
 10
-53.85
 20
12.2842
 30
0.0
 10
-52.7194
 20
12.0334
 30
0.0
 10
-52.7194
 20
12.0334
 30
0.0
 10
-51.5581
 20
11.7764
 30
0.0
 10
-50.5251
 20
11.1155
 30
0.0
 10
-49.8042
 20
10.1701
 30
0.0
 10
-49.8042
 20
10.1701
 30
0.0
 10
-50.4921
 20
9.9115
 30
0.0
 10
-50.9651
 20
9.2753
 30
0.0
 10
-51.0135
 20
8.542
 30
0.0
 10
-51.0135
 20
8.542
 30
0.0
 10
-51.1094
 20
7.0905
 30
0.0
 10
-50.7949
 20
5.6417
 30
0.0
 10
-50.1046
 20
4.361
 30
0.0
 10
-50.1046
 20
4.361
 30
0.0
 10
-49.7339
 20
3.6722
 30
0.0
 10
-49.1193
 20
3.1471
 30
0.0
 10
-48.381
 20
2.8877
 30
0.0
 10
-48.381
 20
2.8877
 30
0.0
 10
-47.6034
 20
2.6151
 30
0.0
 10
-46.7599
 20
2.5918
 30
0.0
 10
-45.9683
 20
2.822
 30
0.0
 10
-45.9683
 20
2.822
 30
0.0
 10
-45.1187
 20
3.0694
 30
0.0
 10
-44.5143
 20
3.8198
 30
0.0
 10
-44.4553
 20
4.7029
 30
0.0
 10
-44.4553
 20
4.7029
 30
0.0
 10
-44.4323
 20
5.0459
 30
0.0
 10
-44.4296
 20
5.3901
 30
0.0
 10
-44.4471
 20
5.7335
 30
0.0
 10
-44.4471
 20
5.7335
 30
0.0
 10
-44.5086
 20
6.9382
 30
0.0
 10
-44.763
 20
8.125
 30
0.0
 10
-45.2006
 20
9.2492
 30
0.0
 10
-45.2006
 20
9.2492
 30
0.0
 10
-44.485
 20
9.3789
 30
0.0
 10
-43.7508
 20
9.3619
 30
0.0
 10
-43.0419
 20
9.1991
 30
0.0
 10
-43.0419
 20
9.1991
 30
0.0
 10
-40.8036
 20
8.6852
 30
0.0
 10
-38.802
 20
7.4323
 30
0.0
 10
-37.3609
 20
5.6441
 30
0.0
 10
-37.3609
 20
5.6441
 30
0.0
 10
-35.8313
 20
3.7461
 30
0.0
 10
-34.6473
 20
1.5922
 30
0.0
 10
-33.8648
 20
-0.7166
 30
0.0
 10
-33.8648
 20
-0.7166
 30
0.0
 10
-33.6069
 20
-1.4777
 30
0.0
 10
-33.4636
 20
-2.2728
 30
0.0
 10
-33.4401
 20
-3.076
 30
0.0
 10
-33.4401
 20
-3.076
 30
0.0
 10
-34.094
 20
-3.1615
 30
0.0
 10
-34.7283
 20
-3.3553
 30
0.0
 10
-35.3185
 20
-3.6495
 30
0.0
 10
-35.3185
 20
-3.6495
 30
0.0
 10
-35.9143
 20
-3.9465
 30
0.0
 10
-36.4218
 20
-4.394
 30
0.0
 10
-36.791
 20
-4.9483
 30
0.0
 10
-36.791
 20
-4.9483
 30
0.0
 10
-36.8795
 20
-3.7775
 30
0.0
 10
-37.2052
 20
-2.6373
 30
0.0
 10
-37.7488
 20
-1.5965
 30
0.0
 10
-37.7488
 20
-1.5965
 30
0.0
 10
-38.2892
 20
-0.562
 30
0.0
 10
-38.9606
 20
0.3981
 30
0.0
 10
-39.7475
 20
1.2603
 30
0.0
 10
-39.7475
 20
1.2603
 30
0.0
 10
-39.4893
 20
-0.9058
 30
0.0
 10
-39.2746
 20
-3.0769
 30
0.0
 10
-39.1038
 20
-5.2516
 30
0.0
 10
-39.1038
 20
-5.2516
 30
0.0
 10
-38.9295
 20
-7.468
 30
0.0
 10
-39.3764
 20
-9.6899
 30
0.0
 10
-40.3928
 20
-11.667
 30
0.0
 10
-40.3928
 20
-11.667
 30
0.0
 10
-41.3369
 20
-13.5026
 30
0.0
 10
-42.5498
 20
-15.1881
 30
0.0
 10
-43.9905
 20
-16.6666
 30
0.0
 10
-43.9905
 20
-16.6666
 30
0.0
 10
-45.427
 20
-18.1404
 30
0.0
 10
-47.0102
 20
-19.4646
 30
0.0
 10
-48.7152
 20
-20.6175
 30
0.0
 10
-48.7152
 20
-20.6175
 30
0.0
 10
-49.3982
 20
-20.243
 30
0.0
 10
-50.0881
 20
-19.8818
 30
0.0
 10
-50.785
 20
-19.5335
 30
0.0
 10
-50.785
 20
-19.5335
 30
0.0
 10
-52.2472
 20
-18.8097
 30
0.0
 10
-53.7257
 20
-18.1197
 30
0.0
 10
-55.2193
 20
-17.4641
 30
0.0
 10
-55.2193
 20
-17.4641
 30
0.0
 10
-53.1217
 20
-15.8246
 30
0.0
 10
-50.7785
 20
-14.5249
 30
0.0
 10
-48.2769
 20
-13.6136
 30
0.0
 10
-48.2769
 20
-13.6136
 30
0.0
 10
-47.4712
 20
-13.3198
 30
0.0
 10
-46.5995
 20
-13.2541
 30
0.0
 10
-45.7589
 20
-13.4235
 30
0.0
 10
-45.7589
 20
-13.4235
 30
0.0
 10
-46.1966
 20
-12.6659
 30
0.0
 10
-46.8175
 20
-12.0313
 30
0.0
 10
-47.5651
 20
-11.5767
 30
0.0
 10
-47.5651
 20
-11.5767
 30
0.0
 10
-48.303
 20
-11.1281
 30
0.0
 10
-49.0846
 20
-10.7566
 30
0.0
 10
-49.898
 20
-10.467
 30
0.0
 10
-49.898
 20
-10.467
 30
0.0
 10
-49.2316
 20
-10.1387
 30
0.0
 10
-48.6944
 20
-9.598
 30
0.0
 10
-48.3705
 20
-8.9298
 30
0.0
 10
-48.3705
 20
-8.9298
 30
0.0
 10
-48.0533
 20
-8.2742
 30
0.0
 10
-47.8547
 20
-7.5678
 30
0.0
 10
-47.7848
 20
-6.8431
 30
0.0
 10
-47.7848
 20
-6.8431
 30
0.0
 10
-47.6715
 20
-5.673
 30
0.0
 10
-47.9063
 20
-4.4959
 30
0.0
 10
-48.4606
 20
-3.4589
 30
0.0
 10
-48.4606
 20
-3.4589
 30
0.0
 10
-49.0109
 20
-2.4282
 30
0.0
 10
-49.8097
 20
-1.5515
 30
0.0
 10
-50.785
 20
-0.9077
 30
0.0
 10
-50.785
 20
-0.9077
 30
0.0
 10
-51.1932
 20
-1.1599
 30
0.0
 10
-51.5584
 20
-1.4759
 30
0.0
 10
-51.8663
 20
-1.844
 30
0.0
 10
-51.8663
 20
-1.844
 30
0.0
 10
-52.1727
 20
-2.2096
 30
0.0
 10
-52.4722
 20
-2.5807
 30
0.0
 10
-52.7643
 20
-2.9575
 30
0.0
 10
-52.7643
 20
-2.9575
 30
0.0
 10
-53.5816
 20
-4.0126
 30
0.0
 10
-53.8853
 20
-5.3763
 30
0.0
 10
-53.5915
 20
-6.6786
 30
0.0
 10
-53.5915
 20
-6.6786
 30
0.0
 10
-53.3097
 20
-7.9292
 30
0.0
 10
-52.7917
 20
-9.1145
 30
0.0
 10
-52.0661
 20
-10.1713
 30
0.0
 10
-52.0661
 20
-10.1713
 30
0.0
 10
-52.9521
 20
-9.9512
 30
0.0
 10
-53.8716
 20
-9.9
 30
0.0
 10
-54.7764
 20
-10.0197
 30
0.0
 10
-54.7764
 20
-10.0197
 30
0.0
 10
-55.6784
 20
-10.1391
 30
0.0
 10
-56.5579
 20
-10.3891
 30
0.0
 10
-57.3875
 20
-10.7625
 30
0.0
 10
-57.3875
 20
-10.7625
 30
0.0
 10
-57.5334
 20
-9.4864
 30
0.0
 10
-57.9887
 20
-8.2662
 30
0.0
 10
-58.7149
 20
-7.2066
 30
0.0
 10
-58.7149
 20
-7.2066
 30
0.0
 10
-59.4343
 20
-6.1561
 30
0.0
 10
-60.317
 20
-5.2276
 30
0.0
 10
-61.3296
 20
-4.4555
 30
0.0
 10
-61.3296
 20
-4.4555
 30
0.0
 10
-60.7586
 20
-2.7666
 30
0.0
 10
-59.6218
 20
-1.3255
 30
0.0
 10
-58.1126
 20
-0.3757
 30
0.0
 10
-58.1126
 20
-0.3757
 30
0.0
 10
-56.6219
 20
0.5624
 30
0.0
 10
-54.9099
 20
1.0925
 30
0.0
 10
-53.1499
 20
1.1617
 30
0.0
 10
-53.1499
 20
1.1617
 30
0.0
 10
-53.8828
 20
1.747
 30
0.0
 10
-54.7615
 20
2.1196
 30
0.0
 10
-55.6915
 20
2.239
 30
0.0
 10
-55.6915
 20
2.239
 30
0.0
 10
-56.6074
 20
2.3569
 30
0.0
 10
-57.5338
 20
2.3651
 30
0.0
 10
-58.4517
 20
2.263
 30
0.0
 10
-58.4517
 20
2.263
 30
0.0
 10
-59.6626
 20
2.1284
 30
0.0
 10
-60.7984
 20
1.6116
 30
0.0
 10
-61.6956
 20
0.7869
 30
0.0
 10
-61.6956
 20
0.7869
 30
0.0
 10
-62.5898
 20
-0.0353
 30
0.0
 10
-63.2174
 20
-1.1054
 30
0.0
 10
-63.4975
 20
-2.2877
 30
0.0
 10
-63.4975
 20
-2.2877
 30
0.0
 10
-64.0274
 20
-1.5812
 30
0.0
 10
-64.7075
 20
-1.0024
 30
0.0
 10
-65.4896
 20
-0.593
 30
0.0
 10
-65.4896
 20
-0.593
 30
0.0
 10
-66.263
 20
-0.1882
 30
0.0
 10
-67.0628
 20
0.1639
 30
0.0
 10
-67.8834
 20
0.4606
 30
0.0
  0
SPLINE
  5
55
330
1F
100
AcDbEntity
  8
layer 1
 62
     7
100
AcDbSpline
210
0.0
220
0.0
230
1.0
 70
    11
 71
     3
 72
   152
 73
   148
 74
     0
 42
0.0000000001
 43
0.0000000001
 12
1.0
 22
0.0
 32
0.0
 13
1.0
 23
0.0
 33
0.0
 40
0.0
 40
0.0
 40
0.0
 40
0.0
 40
0.0263157894736842
 40
0.0263157894736842
 40
0.0263157894736842
 40
0.0263157894736842
 40
0.0526315789473684
 40
0.0526315789473684
 40
0.0526315789473684
 40
0.0526315789473684
 40
0.0789473684210526
 40
0.0789473684210526
 40
0.0789473684210526
 40
0.0789473684210526
 40
0.1052631578947368
 40
0.1052631578947368
 40
0.1052631578947368
 40
0.1052631578947368
 40
0.131578947368421
 40
0.131578947368421
 40
0.131578947368421
 40
0.131578947368421
 40
0.1578947368421053
 40
0.1578947368421053
 40
0.1578947368421053
 40
0.1578947368421053
 40
0.1842105263157895
 40
0.1842105263157895
 40
0.1842105263157895
 40
0.1842105263157895
 40
0.2105263157894737
 40
0.2105263157894737
 40
0.2105263157894737
 40
0.2105263157894737
 40
0.2368421052631579
 40
0.2368421052631579
 40
0.2368421052631579
 40
0.2368421052631579
 40
0.2631578947368421
 40
0.2631578947368421
 40
0.2631578947368421
 40
0.2631578947368421
 40
0.2894736842105263
 40
0.2894736842105263
 40
0.2894736842105263
 40
0.2894736842105263
 40
0.3157894736842105
 40
0.3157894736842105
 40
0.3157894736842105
 40
0.3157894736842105
 40
0.3421052631578947
 40
0.3421052631578947
 40
0.3421052631578947
 40
0.3421052631578947
 40
0.3684210526315789
 40
0.3684210526315789
 40
0.3684210526315789
 40
0.3684210526315789
 40
0.3947368421052632
 40
0.3947368421052632
 40
0.3947368421052632
 40
0.3947368421052632
 40
0.4210526315789473
 40
0.4210526315789473
 40
0.4210526315789473
 40
0.4210526315789473
 40
0.4473684210526316
 40
0.4473684210526316
 40
0.4473684210526316
 40
0.4473684210526316
 40
0.4736842105263158
 40
0.4736842105263158
 40
0.4736842105263158
 40
0.4736842105263158
 40
0.5
 40
0.5
 40
0.5
 40
0.5
 40
0.5263157894736842
 40
0.5263157894736842
 40
0.5263157894736842
 40
0.5263157894736842
 40
0.5526315789473685
 40
0.5526315789473685
 40
0.5526315789473685
 40
0.5526315789473685
 40
0.5789473684210527
 40
0.5789473684210527
 40
0.5789473684210527
 40
0.5789473684210527
 40
0.6052631578947368
 40
0.6052631578947368
 40
0.6052631578947368
 40
0.6052631578947368
 40
0.631578947368421
 40
0.631578947368421
 40
0.631578947368421
 40
0.631578947368421
 40
0.6578947368421053
 40
0.6578947368421053
 40
0.6578947368421053
 40
0.6578947368421053
 40
0.6842105263157895
 40
0.6842105263157895
 40
0.6842105263157895
 40
0.6842105263157895
 40
0.7105263157894737
 40
0.7105263157894737
 40
0.7105263157894737
 40
0.7105263157894737
 40
0.7368421052631579
 40
0.7368421052631579
 40
0.7368421052631579
 40
0.7368421052631579
 40
0.7631578947368421
 40
0.7631578947368421
 40
0.7631578947368421
 40
0.7631578947368421
 40
0.7894736842105263
 40
0.7894736842105263
 40
0.7894736842105263
 40
0.7894736842105263
 40
0.8157894736842105
 40
0.8157894736842105
 40
0.8157894736842105
 40
0.8157894736842105
 40
0.8421052631578947
 40
0.8421052631578947
 40
0.8421052631578947
 40
0.8421052631578947
 40
0.868421052631579
 40
0.868421052631579
 40
0.868421052631579
 40
0.868421052631579
 40
0.8947368421052632
 40
0.8947368421052632
 40
0.8947368421052632
 40
0.8947368421052632
 40
0.9210526315789473
 40
0.9210526315789473
 40
0.9210526315789473
 40
0.9210526315789473
 40
0.9473684210526315
 40
0.9473684210526315
 40
0.9473684210526315
 40
0.9473684210526315
 40
1.0
 40
1.0
 40
1.0
 40
1.0
 10
-45.9563
 20
25.9663
 30
0.0
 10
-43.7195
 20
24.8103
 30
0.0
 10
-41.6181
 20
23.4092
 30
0.0
 10
-39.6906
 20
21.7894
 30
0.0
 10
-39.6906
 20
21.7894
 30
0.0
 10
-38.468
 20
20.7313
 30
0.0
 10
-37.3215
 20
19.5873
 30
0.0
 10
-36.2611
 20
18.3664
 30
0.0
 10
-36.2611
 20
18.3664
 30
0.0
 10
-33.4024
 20
15.0745
 30
0.0
 10
-30.4638
 20
11.8533
 30
0.0
 10
-27.4479
 20
8.7048
 30
0.0
 10
-27.4479
 20
8.7048
 30
0.0
 10
-25.8751
 20
7.0637
 30
0.0
 10
-24.4588
 20
5.2786
 30
0.0
 10
-23.2173
 20
3.3741
 30
0.0
 10
-23.2173
 20
3.3741
 30
0.0
 10
-21.9701
 20
1.4612
 30
0.0
 10
-21.0443
 20
-0.6435
 30
0.0
 10
-20.4765
 20
-2.8551
 30
0.0
 10
-20.4765
 20
-2.8551
 30
0.0
 10
-22.8679
 20
-3.6994
 30
0.0
 10
-24.9557
 20
-5.2309
 30
0.0
 10
-26.4787
 20
-7.2588
 30
0.0
 10
-26.4787
 20
-7.2588
 30
0.0
 10
-29.478
 20
-11.2538
 30
0.0
 10
-31.0533
 20
-16.135
 30
0.0
 10
-30.9526
 20
-21.1295
 30
0.0
 10
-30.9526
 20
-21.1295
 30
0.0
 10
-30.9067
 20
-23.417
 30
0.0
 10
-30.6154
 20
-25.6922
 30
0.0
 10
-30.0837
 20
-27.9173
 30
0.0
 10
-30.0837
 20
-27.9173
 30
0.0
 10
-30.0837
 20
-27.9173
 30
0.0
 10
-33.7326
 20
-29.7112
 30
0.0
 10
-33.7326
 20
-29.7112
 30
0.0
 10
-33.7326
 20
-29.7112
 30
0.0
 10
-34.8364
 20
-29.1188
 30
0.0
 10
-35.9322
 20
-28.5128
 30
0.0
 10
-37.0201
 20
-27.8926
 30
0.0
 10
-37.0201
 20
-27.8926
 30
0.0
 10
-39.5857
 20
-26.4184
 30
0.0
 10
-42.1273
 20
-24.9027
 30
0.0
 10
-44.644
 20
-23.3459
 30
0.0
 10
-44.644
 20
-23.3459
 30
0.0
 10
-44.1367
 20
-22.7815
 30
0.0
 10
-43.624
 20
-22.2217
 30
0.0
 10
-43.1055
 20
-21.6674
 30
0.0
 10
-43.1055
 20
-21.6674
 30
0.0
 10
-42.7985
 20
-21.3496
 30
0.0
 10
-42.4826
 20
-21.041
 30
0.0
 10
-42.1587
 20
-20.7407
 30
0.0
 10
-42.1587
 20
-20.7407
 30
0.0
 10
-40.359
 20
-19.074
 30
0.0
 10
-38.9196
 20
-17.0572
 30
0.0
 10
-37.9293
 20
-14.813
 30
0.0
 10
-37.9293
 20
-14.813
 30
0.0
 10
-36.8973
 20
-15.2785
 30
0.0
 10
-35.743
 20
-15.4
 30
0.0
 10
-34.6365
 20
-15.1584
 30
0.0
 10
-34.6365
 20
-15.1584
 30
0.0
 10
-33.5157
 20
-14.9141
 30
0.0
 10
-32.5374
 20
-14.2374
 30
0.0
 10
-31.9144
 20
-13.2741
 30
0.0
 10
-31.9144
 20
-13.2741
 30
0.0
 10
-32.3506
 20
-12.4102
 30
0.0
 10
-33.1277
 20
-11.7689
 30
0.0
 10
-34.0586
 20
-11.5042
 30
0.0
 10
-34.0586
 20
-11.5042
 30
0.0
 10
-34.9539
 20
-11.2496
 30
0.0
 10
-35.8793
 20
-11.1157
 30
0.0
 10
-36.8104
 20
-11.1058
 30
0.0
 10
-36.8104
 20
-11.1058
 30
0.0
 10
-37.0349
 20
-10.114
 30
0.0
 10
-37.0601
 20
-9.0867
 30
0.0
 10
-36.8837
 20
-8.085
 30
0.0
 10
-36.8837
 20
-8.085
 30
0.0
 10
-36.7006
 20
-7.0426
 30
0.0
 10
-36.0587
 20
-6.1374
 30
0.0
 10
-35.1365
 20
-5.6189
 30
0.0
 10
-35.1365
 20
-5.6189
 30
0.0
 10
-33.4253
 20
-4.6572
 30
0.0
 10
-31.6697
 20
-3.7767
 30
0.0
 10
-29.8754
 20
-2.9802
 30
0.0
 10
-29.8754
 20
-2.9802
 30
0.0
 10
-29.1785
 20
-2.6708
 30
0.0
 10
-28.4035
 20
-2.5794
 30
0.0
 10
-27.6533
 20
-2.717
 30
0.0
 10
-27.6533
 20
-2.717
 30
0.0
 10
-27.8552
 20
-2.1205
 30
0.0
 10
-28.3043
 20
-1.6403
 30
0.0
 10
-28.886
 20
-1.3994
 30
0.0
 10
-28.886
 20
-1.3994
 30
0.0
 10
-29.4476
 20
-1.1669
 30
0.0
 10
-30.0502
 20
-1.0504
 30
0.0
 10
-30.6576
 20
-1.0567
 30
0.0
 10
-30.6576
 20
-1.0567
 30
0.0
 10
-31.2037
 20
1.8469
 30
0.0
 10
-32.3721
 20
4.5969
 30
0.0
 10
-34.0845
 20
7.005
 30
0.0
 10
-34.0845
 20
7.005
 30
0.0
 10
-35.1708
 20
8.5019
 30
0.0
 10
-36.4593
 20
9.8405
 30
0.0
 10
-37.9137
 20
10.9831
 30
0.0
 10
-37.9137
 20
10.9831
 30
0.0
 10
-39.3646
 20
12.1231
 30
0.0
 10
-40.9233
 20
13.1178
 30
0.0
 10
-42.5681
 20
13.9537
 30
0.0
 10
-42.5681
 20
13.9537
 30
0.0
 10
-42.0784
 20
14.3003
 30
0.0
 10
-41.6665
 20
14.7457
 30
0.0
 10
-41.3588
 20
15.2605
 30
0.0
 10
-41.3588
 20
15.2605
 30
0.0
 10
-41.054
 20
15.7714
 30
0.0
 10
-40.7965
 20
16.3089
 30
0.0
 10
-40.5892
 20
16.8667
 30
0.0
 10
-40.5892
 20
16.8667
 30
0.0
 10
-40.1409
 20
18.0739
 30
0.0
 10
-40.2896
 20
19.4209
 30
0.0
 10
-40.9919
 20
20.5007
 30
0.0
 10
-40.9919
 20
20.5007
 30
0.0
 10
-41.724
 20
21.6262
 30
0.0
 10
-43.0845
 20
22.1681
 30
0.0
 10
-44.3896
 20
21.852
 30
0.0
 10
-44.3896
 20
21.852
 30
0.0
 10
-45.8756
 20
21.4924
 30
0.0
 10
-47.0171
 20
20.3046
 30
0.0
 10
-47.3159
 20
18.8053
 30
0.0
 10
-47.3159
 20
18.8053
 30
0.0
 10
-47.4741
 20
18.0109
 30
0.0
 10
-47.5411
 20
17.201
 30
0.0
 10
-47.5158
 20
16.3912
 30
0.0
 10
-47.5158
 20
16.3912
 30
0.0
 10
-48.3256
 20
17.0445
 30
0.0
 10
-49.2394
 20
17.5575
 30
0.0
 10
-50.2191
 20
17.9082
 30
0.0
 10
-50.2191
 20
17.9082
 30
0.0
 10
-52.9066
 20
18.87
 30
0.0
 10
-55.7068
 20
19.4791
 30
0.0
 10
-58.5508
 20
19.7208
 30
0.0
 10
-58.5508
 20
19.7208
 30
0.0
 10
-57.6745
 20
20.7688
 30
0.0
 10
-56.6106
 20
21.6451
 30
0.0
 10
-55.4143
 20
22.3045
 30
0.0
 10
-55.4143
 20
22.3045
 30
0.0
 10
-52.4404
 20
23.9431
 30
0.0
 10
-49.2588
 20
25.1751
 30
0.0
 10
-45.9563
 20
25.9663
 30
0.0
  0
SPLINE
  5
56
330
1F
100
AcDbEntity
  8
layer 1
 62
     7
100
AcDbSpline
210
0.0
220
0.0
230
1.0
 70
    11
 71
     3
 72
    44
 73
    40
 74
     0
 42
0.0000000001
 43
0.0000000001
 12
1.0
 22
0.0
 32
0.0
 13
1.0
 23
0.0
 33
0.0
 40
0.0
 40
0.0
 40
0.0
 40
0.0
 40
0.0909090909090909
 40
0.0909090909090909
 40
0.0909090909090909
 40
0.0909090909090909
 40
0.1818181818181818
 40
0.1818181818181818
 40
0.1818181818181818
 40
0.1818181818181818
 40
0.2727272727272727
 40
0.2727272727272727
 40
0.2727272727272727
 40
0.2727272727272727
 40
0.3636363636363636
 40
0.3636363636363636
 40
0.3636363636363636
 40
0.3636363636363636
 40
0.4545454545454545
 40
0.4545454545454545
 40
0.4545454545454545
 40
0.4545454545454545
 40
0.5454545454545454
 40
0.5454545454545454
 40
0.5454545454545454
 40
0.5454545454545454
 40
0.6363636363636364
 40
0.6363636363636364
 40
0.6363636363636364
 40
0.6363636363636364
 40
0.7272727272727273
 40
0.7272727272727273
 40
0.7272727272727273
 40
0.7272727272727273
 40
0.8181818181818182
 40
0.8181818181818182
 40
0.8181818181818182
 40
0.8181818181818182
 40
1.0
 40
1.0
 40
1.0
 40
1.0
 10
-57.7853
 20
-36.3566
 30
0.0
 10
-57.8778
 20
-36.9119
 30
0.0
 10
-57.8262
 20
-37.4816
 30
0.0
 10
-57.6349
 20
-38.0109
 30
0.0
 10
-57.6349
 20
-38.0109
 30
0.0
 10
-57.4458
 20
-38.5336
 30
0.0
 10
-57.1975
 20
-39.0325
 30
0.0
 10
-56.8942
 20
-39.4982
 30
0.0
 10
-56.8942
 20
-39.4982
 30
0.0
 10
-56.3336
 20
-40.3583
 30
0.0
 10
-55.4659
 20
-40.9711
 30
0.0
 10
-54.4674
 20
-41.2102
 30
0.0
 10
-54.4674
 20
-41.2102
 30
0.0
 10
-53.4919
 20
-41.444
 30
0.0
 10
-52.4768
 20
-41.4532
 30
0.0
 10
-51.4973
 20
-41.2367
 30
0.0
 10
-51.4973
 20
-41.2367
 30
0.0
 10
-52.2496
 20
-41.8481
 30
0.0
 10
-52.9519
 20
-42.5184
 30
0.0
 10
-53.5977
 20
-43.2413
 30
0.0
 10
-53.5977
 20
-43.2413
 30
0.0
 10
-56.2171
 20
-46.1722
 30
0.0
 10
-58.65
 20
-49.2637
 30
0.0
 10
-60.8825
 20
-52.499
 30
0.0
 10
-60.8825
 20
-52.499
 30
0.0
 10
-61.4702
 20
-51.503
 30
0.0
 10
-61.9704
 20
-50.4584
 30
0.0
 10
-62.3773
 20
-49.3757
 30
0.0
 10
-62.3773
 20
-49.3757
 30
0.0
 10
-62.7604
 20
-48.356
 30
0.0
 10
-63.1458
 20
-47.3371
 30
0.0
 10
-63.5325
 20
-46.3184
 30
0.0
 10
-63.5325
 20
-46.3184
 30
0.0
 10
-64.1333
 20
-44.7386
 30
0.0
 10
-63.9093
 20
-42.9624
 30
0.0
 10
-62.9367
 20
-41.5804
 30
0.0
 10
-62.9367
 20
-41.5804
 30
0.0
 10
-61.5197
 20
-39.5672
 30
0.0
 10
-59.7783
 20
-37.8018
 30
0.0
 10
-57.7853
 20
-36.3566
 30
0.0
  0
SPLINE
  5
57
330
1F
100
AcDbEntity
  8
layer 1
 62
     7
100
AcDbSpline
210
0.0
220
0.0
230
1.0
 70
    11
 71
     3
 72
    52
 73
    48
 74
     0
 42
0.0000000001
 43
0.0000000001
 12
1.0
 22
0.0
 32
0.0
 13
1.0
 23
0.0
 33
0.0
 40
0.0
 40
0.0
 40
0.0
 40
0.0
 40
0.0769230769230769
 40
0.0769230769230769
 40
0.0769230769230769
 40
0.0769230769230769
 40
0.1538461538461539
 40
0.1538461538461539
 40
0.1538461538461539
 40
0.1538461538461539
 40
0.2307692307692308
 40
0.2307692307692308
 40
0.2307692307692308
 40
0.2307692307692308
 40
0.3076923076923077
 40
0.3076923076923077
 40
0.3076923076923077
 40
0.3076923076923077
 40
0.3846153846153846
 40
0.3846153846153846
 40
0.3846153846153846
 40
0.3846153846153846
 40
0.4615384615384616
 40
0.4615384615384616
 40
0.4615384615384616
 40
0.4615384615384616
 40
0.5384615384615384
 40
0.5384615384615384
 40
0.5384615384615384
 40
0.5384615384615384
 40
0.6153846153846154
 40
0.6153846153846154
 40
0.6153846153846154
 40
0.6153846153846154
 40
0.6923076923076923
 40
0.6923076923076923
 40
0.6923076923076923
 40
0.6923076923076923
 40
0.7692307692307693
 40
0.7692307692307693
 40
0.7692307692307693
 40
0.7692307692307693
 40
0.8461538461538461
 40
0.8461538461538461
 40
0.8461538461538461
 40
0.8461538461538461
 40
1.0
 40
1.0
 40
1.0
 40
1.0
 10
-28.4584
 20
-42.3319
 30
0.0
 10
-26.6725
 20
-42.4902
 30
0.0
 10
-24.9045
 20
-42.8091
 30
0.0
 10
-23.1763
 20
-43.2851
 30
0.0
 10
-23.1763
 20
-43.2851
 30
0.0
 10
-21.4506
 20
-43.761
 30
0.0
 10
-19.7468
 20
-44.313
 30
0.0
 10
-18.0704
 20
-44.9406
 30
0.0
 10
-18.0704
 20
-44.9406
 30
0.0
 10
-14.6984
 20
-46.2023
 30
0.0
 10
-11.6952
 20
-48.2894
 30
0.0
 10
-9.3362
 20
-51.0088
 30
0.0
 10
-9.3362
 20
-51.0088
 30
0.0
 10
-7.0023
 20
-53.6999
 30
0.0
 10
-5.0544
 20
-56.7035
 30
0.0
 10
-3.5488
 20
-59.9317
 30
0.0
 10
-3.5488
 20
-59.9317
 30
0.0
 10
-3.9889
 20
-60.0999
 30
0.0
 10
-4.4318
 20
-60.261
 30
0.0
 10
-4.8771
 20
-60.4148
 30
0.0
 10
-4.8771
 20
-60.4148
 30
0.0
 10
-6.3367
 20
-60.9097
 30
0.0
 10
-7.807
 20
-61.3732
 30
0.0
 10
-9.2865
 20
-61.8041
 30
0.0
 10
-9.2865
 20
-61.8041
 30
0.0
 10
-9.4345
 20
-61.4906
 30
0.0
 10
-9.5845
 20
-61.1786
 30
0.0
 10
-9.7369
 20
-60.867
 30
0.0
 10
-9.7369
 20
-60.867
 30
0.0
 10
-9.889
 20
-60.5555
 30
0.0
 10
-10.0409
 20
-60.2436
 30
0.0
 10
-10.1925
 20
-59.9317
 30
0.0
 10
-10.1925
 20
-59.9317
 30
0.0
 10
-10.9858
 20
-58.2801
 30
0.0
 10
-11.808
 20
-56.6424
 30
0.0
 10
-12.6587
 20
-55.0199
 30
0.0
 10
-12.6587
 20
-55.0199
 30
0.0
 10
-13.5156
 20
-53.3863
 30
0.0
 10
-14.6363
 20
-51.9061
 30
0.0
 10
-15.9763
 20
-50.6381
 30
0.0
 10
-15.9763
 20
-50.6381
 30
0.0
 10
-16.8912
 20
-49.7723
 30
0.0
 10
-17.8477
 20
-48.952
 30
0.0
 10
-18.8422
 20
-48.1791
 30
0.0
 10
-18.8422
 20
-48.1791
 30
0.0
 10
-21.8151
 20
-45.8706
 30
0.0
 10
-25.0409
 20
-43.9093
 30
0.0
 10
-28.4584
 20
-42.3319
 30
0.0
  0
SPLINE
  5
58
330
1F
100
AcDbEntity
  8
layer 1
 62
     7
100
AcDbSpline
210
0.0
220
0.0
230
1.0
 70
    11
 71
     3
 72
    88
 73
    84
 74
     0
 42
0.0000000001
 43
0.0000000001
 12
1.0
 22
0.0
 32
0.0
 13
1.0
 23
0.0
 33
0.0
 40
0.0
 40
0.0
 40
0.0
 40
0.0
 40
0.0454545454545455
 40
0.0454545454545455
 40
0.0454545454545455
 40
0.0454545454545455
 40
0.0909090909090909
 40
0.0909090909090909
 40
0.0909090909090909
 40
0.0909090909090909
 40
0.1363636363636364
 40
0.1363636363636364
 40
0.1363636363636364
 40
0.1363636363636364
 40
0.1818181818181818
 40
0.1818181818181818
 40
0.1818181818181818
 40
0.1818181818181818
 40
0.2272727272727273
 40
0.2272727272727273
 40
0.2272727272727273
 40
0.2272727272727273
 40
0.2727272727272727
 40
0.2727272727272727
 40
0.2727272727272727
 40
0.2727272727272727
 40
0.3181818181818182
 40
0.3181818181818182
 40
0.3181818181818182
 40
0.3181818181818182
 40
0.3636363636363636
 40
0.3636363636363636
 40
0.3636363636363636
 40
0.3636363636363636
 40
0.4090909090909091
 40
0.4090909090909091
 40
0.4090909090909091
 40
0.4090909090909091
 40
0.4545454545454545
 40
0.4545454545454545
 40
0.4545454545454545
 40
0.4545454545454545
 40
0.5
 40
0.5
 40
0.5
 40
0.5
 40
0.5454545454545454
 40
0.5454545454545454
 40
0.5454545454545454
 40
0.5454545454545454
 40
0.5909090909090909
 40
0.5909090909090909
 40
0.5909090909090909
 40
0.5909090909090909
 40
0.6363636363636364
 40
0.6363636363636364
 40
0.6363636363636364
 40
0.6363636363636364
 40
0.6818181818181818
 40
0.6818181818181818
 40
0.6818181818181818
 40
0.6818181818181818
 40
0.7272727272727273
 40
0.7272727272727273
 40
0.7272727272727273
 40
0.7272727272727273
 40
0.7727272727272727
 40
0.7727272727272727
 40
0.7727272727272727
 40
0.7727272727272727
 40
0.8181818181818182
 40
0.8181818181818182
 40
0.8181818181818182
 40
0.8181818181818182
 40
0.8636363636363636
 40
0.8636363636363636
 40
0.8636363636363636
 40
0.8636363636363636
 40
0.9090909090909091
 40
0.9090909090909091
 40
0.9090909090909091
 40
0.9090909090909091
 40
1.0
 40
1.0
 40
1.0
 40
1.0
 10
-56.8553
 20
-60.1755
 30
0.0
 10
-55.3589
 20
-57.8599
 30
0.0
 10
-53.7556
 20
-55.6153
 30
0.0
 10
-52.0505
 20
-53.4488
 30
0.0
 10
-52.0505
 20
-53.4488
 30
0.0
 10
-48.48
 20
-49.0078
 30
0.0
 10
-44.6623
 20
-44.77
 30
0.0
 10
-40.6164
 20
-40.7574
 30
0.0
 10
-40.6164
 20
-40.7574
 30
0.0
 10
-37.5786
 20
-41.4271
 30
0.0
 10
-34.6626
 20
-42.565
 30
0.0
 10
-31.974
 20
-44.1298
 30
0.0
 10
-31.974
 20
-44.1298
 30
0.0
 10
-29.2939
 20
-45.6895
 30
0.0
 10
-26.7856
 20
-47.5285
 30
0.0
 10
-24.4915
 20
-49.6148
 30
0.0
 10
-24.4915
 20
-49.6148
 30
0.0
 10
-26.9092
 20
-50.7628
 30
0.0
 10
-29.1406
 20
-52.2659
 30
0.0
 10
-31.1125
 20
-54.0758
 30
0.0
 10
-31.1125
 20
-54.0758
 30
0.0
 10
-33.0757
 20
-55.8767
 30
0.0
 10
-34.9221
 20
-57.8003
 30
0.0
 10
-36.6419
 20
-59.835
 30
0.0
 10
-36.6419
 20
-59.835
 30
0.0
 10
-38.2168
 20
-57.3505
 30
0.0
 10
-40.6564
 20
-55.5405
 30
0.0
 10
-43.4907
 20
-54.7552
 30
0.0
 10
-43.4907
 20
-54.7552
 30
0.0
 10
-46.3284
 20
-53.9694
 30
0.0
 10
-49.3563
 20
-54.2824
 30
0.0
 10
-51.9724
 20
-55.6334
 30
0.0
 10
-51.9724
 20
-55.6334
 30
0.0
 10
-50.491
 20
-57.1072
 30
0.0
 10
-48.9123
 20
-58.4797
 30
0.0
 10
-47.2462
 20
-59.741
 30
0.0
 10
-47.2462
 20
-59.741
 30
0.0
 10
-45.5414
 20
-61.0319
 30
0.0
 10
-43.4773
 20
-61.7584
 30
0.0
 10
-41.3394
 20
-61.8195
 30
0.0
 10
-41.3394
 20
-61.8195
 30
0.0
 10
-40.0326
 20
-61.857
 30
0.0
 10
-38.7254
 20
-61.7627
 30
0.0
 10
-37.4369
 20
-61.5381
 30
0.0
 10
-37.4369
 20
-61.5381
 30
0.0
 10
-38.647
 20
-62.3673
 30
0.0
 10
-39.5988
 20
-63.5199
 30
0.0
 10
-40.1842
 20
-64.8648
 30
0.0
 10
-40.1842
 20
-64.8648
 30
0.0
 10
-41.4485
 20
-67.7708
 30
0.0
 10
-42.3933
 20
-70.8052
 30
0.0
 10
-43.0011
 20
-73.9158
 30
0.0
 10
-43.0011
 20
-73.9158
 30
0.0
 10
-43.6782
 20
-72.478
 30
0.0
 10
-43.905
 20
-70.8681
 30
0.0
 10
-43.6518
 20
-69.2993
 30
0.0
 10
-43.6518
 20
-69.2993
 30
0.0
 10
-43.4027
 20
-67.7586
 30
0.0
 10
-42.9548
 20
-66.2567
 30
0.0
 10
-42.3198
 20
-64.8312
 30
0.0
 10
-42.3198
 20
-64.8312
 30
0.0
 10
-43.4741
 20
-65.2915
 30
0.0
 10
-44.4206
 20
-66.155
 30
0.0
 10
-44.9841
 20
-67.2622
 30
0.0
 10
-44.9841
 20
-67.2622
 30
0.0
 10
-45.5347
 20
-68.3445
 30
0.0
 10
-45.8642
 20
-69.5253
 30
0.0
 10
-45.9536
 20
-70.7363
 30
0.0
 10
-45.9536
 20
-70.7363
 30
0.0
 10
-45.9154
 20
-68.423
 30
0.0
 10
-47.0255
 20
-66.243
 30
0.0
 10
-48.9201
 20
-64.9154
 30
0.0
 10
-48.9201
 20
-64.9154
 30
0.0
 10
-50.7041
 20
-63.6644
 30
0.0
 10
-52.5385
 20
-62.4878
 30
0.0
 10
-54.4198
 20
-61.3886
 30
0.0
 10
-54.4198
 20
-61.3886
 30
0.0
 10
-55.2037
 20
-60.9306
 30
0.0
 10
-56.0171
 20
-60.5251
 30
0.0
 10
-56.8553
 20
-60.1755
 30
0.0
 10
-56.8553
 20
-60.1755
 30
0.0
 10
-56.8553
 20
-60.1755
 30
0.0
 10
-56.8553
 20
-60.1755
 30
0.0
 10
-56.8553
 20
-60.1755
 30
0.0
  0
SPLINE
  5
59
330
1F
100
AcDbEntity
  8
layer 1
 62
     7
100
AcDbSpline
210
0.0
220
0.0
230
1.0
 70
    11
 71
     3
 72
   152
 73
   148
 74
     0
 42
0.0000000001
 43
0.0000000001
 12
1.0
 22
0.0
 32
0.0
 13
1.0
 23
0.0
 33
0.0
 40
0.0
 40
0.0
 40
0.0
 40
0.0
 40
0.0263157894736842
 40
0.0263157894736842
 40
0.0263157894736842
 40
0.0263157894736842
 40
0.0526315789473684
 40
0.0526315789473684
 40
0.0526315789473684
 40
0.0526315789473684
 40
0.0789473684210526
 40
0.0789473684210526
 40
0.0789473684210526
 40
0.0789473684210526
 40
0.1052631578947368
 40
0.1052631578947368
 40
0.1052631578947368
 40
0.1052631578947368
 40
0.131578947368421
 40
0.131578947368421
 40
0.131578947368421
 40
0.131578947368421
 40
0.1578947368421053
 40
0.1578947368421053
 40
0.1578947368421053
 40
0.1578947368421053
 40
0.1842105263157895
 40
0.1842105263157895
 40
0.1842105263157895
 40
0.1842105263157895
 40
0.2105263157894737
 40
0.2105263157894737
 40
0.2105263157894737
 40
0.2105263157894737
 40
0.2368421052631579
 40
0.2368421052631579
 40
0.2368421052631579
 40
0.2368421052631579
 40
0.2631578947368421
 40
0.2631578947368421
 40
0.2631578947368421
 40
0.2631578947368421
 40
0.2894736842105263
 40
0.2894736842105263
 40
0.2894736842105263
 40
0.2894736842105263
 40
0.3157894736842105
 40
0.3157894736842105
 40
0.3157894736842105
 40
0.3157894736842105
 40
0.3421052631578947
 40
0.3421052631578947
 40
0.3421052631578947
 40
0.3421052631578947
 40
0.3684210526315789
 40
0.3684210526315789
 40
0.3684210526315789
 40
0.3684210526315789
 40
0.3947368421052632
 40
0.3947368421052632
 40
0.3947368421052632
 40
0.3947368421052632
 40
0.4210526315789473
 40
0.4210526315789473
 40
0.4210526315789473
 40
0.4210526315789473
 40
0.4473684210526316
 40
0.4473684210526316
 40
0.4473684210526316
 40
0.4473684210526316
 40
0.4736842105263158
 40
0.4736842105263158
 40
0.4736842105263158
 40
0.4736842105263158
 40
0.5
 40
0.5
 40
0.5
 40
0.5
 40
0.5263157894736842
 40
0.5263157894736842
 40
0.5263157894736842
 40
0.5263157894736842
 40
0.5526315789473685
 40
0.5526315789473685
 40
0.5526315789473685
 40
0.5526315789473685
 40
0.5789473684210527
 40
0.5789473684210527
 40
0.5789473684210527
 40
0.5789473684210527
 40
0.6052631578947368
 40
0.6052631578947368
 40
0.6052631578947368
 40
0.6052631578947368
 40
0.631578947368421
 40
0.631578947368421
 40
0.631578947368421
 40
0.631578947368421
 40
0.6578947368421053
 40
0.6578947368421053
 40
0.6578947368421053
 40
0.6578947368421053
 40
0.6842105263157895
 40
0.6842105263157895
 40
0.6842105263157895
 40
0.6842105263157895
 40
0.7105263157894737
 40
0.7105263157894737
 40
0.7105263157894737
 40
0.7105263157894737
 40
0.7368421052631579
 40
0.7368421052631579
 40
0.7368421052631579
 40
0.7368421052631579
 40
0.7631578947368421
 40
0.7631578947368421
 40
0.7631578947368421
 40
0.7631578947368421
 40
0.7894736842105263
 40
0.7894736842105263
 40
0.7894736842105263
 40
0.7894736842105263
 40
0.8157894736842105
 40
0.8157894736842105
 40
0.8157894736842105
 40
0.8157894736842105
 40
0.8421052631578947
 40
0.8421052631578947
 40
0.8421052631578947
 40
0.8421052631578947
 40
0.868421052631579
 40
0.868421052631579
 40
0.868421052631579
 40
0.868421052631579
 40
0.8947368421052632
 40
0.8947368421052632
 40
0.8947368421052632
 40
0.8947368421052632
 40
0.9210526315789473
 40
0.9210526315789473
 40
0.9210526315789473
 40
0.9210526315789473
 40
0.9473684210526315
 40
0.9473684210526315
 40
0.9473684210526315
 40
0.9473684210526315
 40
1.0
 40
1.0
 40
1.0
 40
1.0
 10
-57.371
 20
-61.5851
 30
0.0
 10
-56.9164
 20
-61.7513
 30
0.0
 10
-56.4827
 20
-61.9707
 30
0.0
 10
-56.079
 20
-62.2378
 30
0.0
 10
-56.079
 20
-62.2378
 30
0.0
 10
-53.5484
 20
-63.9127
 30
0.0
 10
-51.213
 20
-65.8669
 30
0.0
 10
-49.1179
 20
-68.0627
 30
0.0
 10
-49.1179
 20
-68.0627
 30
0.0
 10
-47.1689
 20
-70.1053
 30
0.0
 10
-46.0847
 20
-72.8238
 30
0.0
 10
-46.0913
 20
-75.6469
 30
0.0
 10
-46.0913
 20
-75.6469
 30
0.0
 10
-46.0987
 20
-78.8115
 30
0.0
 10
-45.1183
 20
-81.8977
 30
0.0
 10
-43.2848
 20
-84.4774
 30
0.0
 10
-43.2848
 20
-84.4774
 30
0.0
 10
-42.3655
 20
-85.7713
 30
0.0
 10
-41.3535
 20
-86.9968
 30
0.0
 10
-40.2565
 20
-88.1444
 30
0.0
 10
-40.2565
 20
-88.1444
 30
0.0
 10
-42.2397
 20
-89.2901
 30
0.0
 10
-44.1516
 20
-90.555
 30
0.0
 10
-45.9814
 20
-91.9328
 30
0.0
 10
-45.9814
 20
-91.9328
 30
0.0
 10
-47.3932
 20
-93.005
 30
0.0
 10
-48.742
 20
-94.1576
 30
0.0
 10
-50.022
 20
-95.3842
 30
0.0
 10
-50.022
 20
-95.3842
 30
0.0
 10
-48.3454
 20
-91.1083
 30
0.0
 10
-47.46
 20
-86.5649
 30
0.0
 10
-47.4093
 20
-81.9722
 30
0.0
 10
-47.4093
 20
-81.9722
 30
0.0
 10
-47.4088
 20
-81.9249
 30
0.0
 10
-47.4097
 20
-81.8775
 30
0.0
 10
-47.4122
 20
-81.8303
 30
0.0
 10
-47.4122
 20
-81.8303
 30
0.0
 10
-47.5741
 20
-79.413
 30
0.0
 10
-48.1727
 20
-77.0462
 30
0.0
 10
-49.1804
 20
-74.8429
 30
0.0
 10
-49.1804
 20
-74.8429
 30
0.0
 10
-49.4827
 20
-75.0135
 30
0.0
 10
-49.7667
 20
-75.2142
 30
0.0
 10
-50.0281
 20
-75.4423
 30
0.0
 10
-50.0281
 20
-75.4423
 30
0.0
 10
-52.8136
 20
-77.8741
 30
0.0
 10
-54.4839
 20
-81.3358
 30
0.0
 10
-54.6524
 20
-85.0294
 30
0.0
 10
-54.6524
 20
-85.0294
 30
0.0
 10
-54.7355
 20
-86.852
 30
0.0
 10
-54.4782
 20
-88.6735
 30
0.0
 10
-53.8931
 20
-90.4017
 30
0.0
 10
-53.8931
 20
-90.4017
 30
0.0
 10
-53.3117
 20
-92.1196
 30
0.0
 10
-52.5562
 20
-93.773
 30
0.0
 10
-51.6382
 20
-95.3368
 30
0.0
 10
-51.6382
 20
-95.3368
 30
0.0
 10
-51.4366
 20
-95.6805
 30
0.0
 10
-51.2056
 20
-96.0061
 30
0.0
 10
-50.9482
 20
-96.3102
 30
0.0
 10
-50.9482
 20
-96.3102
 30
0.0
 10
-51.7972
 20
-96.4964
 30
0.0
 10
-52.5912
 20
-96.8778
 30
0.0
 10
-53.2672
 20
-97.4243
 30
0.0
 10
-53.2672
 20
-97.4243
 30
0.0
 10
-53.9481
 20
-97.9746
 30
0.0
 10
-54.4561
 20
-98.7096
 30
0.0
 10
-54.7294
 20
-99.5413
 30
0.0
 10
-54.7294
 20
-99.5413
 30
0.0
 10
-56.3046
 20
-97.9474
 30
0.0
 10
-58.1713
 20
-96.672
 30
0.0
 10
-60.2287
 20
-95.7839
 30
0.0
 10
-60.2287
 20
-95.7839
 30
0.0
 10
-62.2748
 20
-94.9006
 30
0.0
 10
-64.4229
 20
-94.2758
 30
0.0
 10
-66.6237
 20
-93.9243
 30
0.0
 10
-66.6237
 20
-93.9243
 30
0.0
 10
-66.2249
 20
-93.5953
 30
0.0
 10
-65.871
 20
-93.2152
 30
0.0
 10
-65.5709
 20
-92.7942
 30
0.0
 10
-65.5709
 20
-92.7942
 30
0.0
 10
-63.7783
 20
-90.2783
 30
0.0
 10
-62.8179
 20
-87.2666
 30
0.0
 10
-62.8244
 20
-84.1779
 30
0.0
 10
-62.8244
 20
-84.1779
 30
0.0
 10
-62.8364
 20
-82.9916
 30
0.0
 10
-62.824
 20
-81.8052
 30
0.0
 10
-62.7865
 20
-80.6191
 30
0.0
 10
-62.7865
 20
-80.6191
 30
0.0
 10
-62.7604
 20
-79.7746
 30
0.0
 10
-62.308
 20
-78.9998
 30
0.0
 10
-61.5854
 20
-78.5611
 30
0.0
 10
-61.5854
 20
-78.5611
 30
0.0
 10
-61.2721
 20
-78.3707
 30
0.0
 10
-60.9062
 20
-78.2839
 30
0.0
 10
-60.5406
 20
-78.3124
 30
0.0
 10
-60.5406
 20
-78.3124
 30
0.0
 10
-58.7831
 20
-78.4495
 30
0.0
 10
-57.0343
 20
-77.9663
 30
0.0
 10
-55.5973
 20
-76.9455
 30
0.0
 10
-55.5973
 20
-76.9455
 30
0.0
 10
-53.537
 20
-75.482
 30
0.0
 10
-52.1026
 20
-73.2994
 30
0.0
 10
-51.5775
 20
-70.8275
 30
0.0
 10
-51.5775
 20
-70.8275
 30
0.0
 10
-51.3126
 20
-69.5794
 30
0.0
 10
-51.4602
 20
-68.2796
 30
0.0
 10
-51.9992
 20
-67.1232
 30
0.0
 10
-51.9992
 20
-67.1232
 30
0.0
 10
-53.133
 20
-66.8011
 30
0.0
 10
-54.336
 20
-66.8226
 30
0.0
 10
-55.4573
 20
-67.1849
 30
0.0
 10
-55.4573
 20
-67.1849
 30
0.0
 10
-56.5619
 20
-67.5418
 30
0.0
 10
-57.5998
 20
-68.0778
 30
0.0
 10
-58.5302
 20
-68.7722
 30
0.0
 10
-58.5302
 20
-68.7722
 30
0.0
 10
-60.1535
 20
-69.984
 30
0.0
 10
-61.1508
 20
-71.8556
 30
0.0
 10
-61.2495
 20
-73.8787
 30
0.0
 10
-61.2495
 20
-73.8787
 30
0.0
 10
-61.302
 20
-74.9507
 30
0.0
 10
-61.4726
 20
-76.0138
 30
0.0
 10
-61.7581
 20
-77.0487
 30
0.0
 10
-61.7581
 20
-77.0487
 30
0.0
 10
-61.8544
 20
-77.3983
 30
0.0
 10
-62.1444
 20
-77.6614
 30
0.0
 10
-62.5018
 20
-77.7237
 30
0.0
 10
-62.5018
 20
-77.7237
 30
0.0
 10
-62.7017
 20
-77.758
 30
0.0
 10
-62.9078
 20
-77.7237
 30
0.0
 10
-63.0854
 20
-77.6262
 30
0.0
 10
-63.0854
 20
-77.6262
 30
0.0
 10
-63.8939
 20
-75.3212
 30
0.0
 10
-63.5498
 20
-72.7669
 30
0.0
 10
-62.1625
 20
-70.7565
 30
0.0
 10
-62.1625
 20
-70.7565
 30
0.0
 10
-61.1343
 20
-69.2671
 30
0.0
 10
-60.1769
 20
-67.7303
 30
0.0
 10
-59.2928
 20
-66.1508
 30
0.0
 10
-59.2928
 20
-66.1508
 30
0.0
 10
-58.8887
 20
-65.4286
 30
0.0
 10
-58.5319
 20
-64.6816
 30
0.0
 10
-58.224
 20
-63.9133
 30
0.0
 10
-58.224
 20
-63.9133
 30
0.0
 10
-57.9163
 20
-63.1459
 30
0.0
 10
-57.632
 20
-62.3694
 30
0.0
 10
-57.371
 20
-61.5851
 30
0.0
  0
SPLINE
  5
5A
330
1F
100
AcDbEntity
  8
layer 1
 62
     7
100
AcDbSpline
210
0.0
220
0.0
230
1.0
 70
    11
 71
     3
 72
    48
 73
    44
 74
     0
 42
0.0000000001
 43
0.0000000001
 12
1.0
 22
0.0
 32
0.0
 13
1.0
 23
0.0
 33
0.0
 40
0.0
 40
0.0
 40
0.0
 40
0.0
 40
0.0833333333333333
 40
0.0833333333333333
 40
0.0833333333333333
 40
0.0833333333333333
 40
0.1666666666666667
 40
0.1666666666666667
 40
0.1666666666666667
 40
0.1666666666666667
 40
0.25
 40
0.25
 40
0.25
 40
0.25
 40
0.3333333333333333
 40
0.3333333333333333
 40
0.3333333333333333
 40
0.3333333333333333
 40
0.4166666666666667
 40
0.4166666666666667
 40
0.4166666666666667
 40
0.4166666666666667
 40
0.5
 40
0.5
 40
0.5
 40
0.5
 40
0.5833333333333334
 40
0.5833333333333334
 40
0.5833333333333334
 40
0.5833333333333334
 40
0.6666666666666666
 40
0.6666666666666666
 40
0.6666666666666666
 40
0.6666666666666666
 40
0.75
 40
0.75
 40
0.75
 40
0.75
 40
0.8333333333333334
 40
0.8333333333333334
 40
0.8333333333333334
 40
0.8333333333333334
 40
1.0
 40
1.0
 40
1.0
 40
1.0
 10
-80.5944
 20
-57.1736
 30
0.0
 10
-80.5944
 20
-57.1736
 30
0.0
 10
-80.5944
 20
-52.0519
 30
0.0
 10
-80.5944
 20
-52.0519
 30
0.0
 10
-80.5944
 20
-52.0519
 30
0.0
 10
-79.8484
 20
-51.8396
 30
0.0
 10
-79.0812
 20
-51.7118
 30
0.0
 10
-78.3068
 20
-51.6705
 30
0.0
 10
-78.3068
 20
-51.6705
 30
0.0
 10
-75.7337
 20
-51.533
 30
0.0
 10
-73.1529
 20
-51.6859
 30
0.0
 10
-70.6137
 20
-52.1258
 30
0.0
 10
-70.6137
 20
-52.1258
 30
0.0
 10
-68.3654
 20
-52.515
 30
0.0
 10
-66.3051
 20
-53.631
 30
0.0
 10
-64.75
 20
-55.3013
 30
0.0
 10
-64.75
 20
-55.3013
 30
0.0
 10
-64.3389
 20
-55.7429
 30
0.0
 10
-64.0181
 20
-56.2602
 30
0.0
 10
-63.8059
 20
-56.8246
 30
0.0
 10
-63.8059
 20
-56.8246
 30
0.0
 10
-64.5228
 20
-57.7589
 30
0.0
 10
-65.1986
 20
-58.7241
 30
0.0
 10
-65.8304
 20
-59.7177
 30
0.0
 10
-65.8304
 20
-59.7177
 30
0.0
 10
-66.7735
 20
-61.2174
 30
0.0
 10
-67.6424
 20
-62.7618
 30
0.0
 10
-68.4341
 20
-64.3463
 30
0.0
 10
-68.4341
 20
-64.3463
 30
0.0
 10
-69.2624
 20
-62.639
 30
0.0
 10
-70.6741
 20
-61.2856
 30
0.0
 10
-72.4154
 20
-60.5312
 30
0.0
 10
-72.4154
 20
-60.5312
 30
0.0
 10
-73.6367
 20
-60.002
 30
0.0
 10
-74.8649
 20
-59.4898
 30
0.0
 10
-76.1003
 20
-58.9947
 30
0.0
 10
-76.1003
 20
-58.9947
 30
0.0
 10
-76.849
 20
-58.6842
 30
0.0
 10
-77.5971
 20
-58.3723
 30
0.0
 10
-78.3449
 20
-58.059
 30
0.0
 10
-78.3449
 20
-58.059
 30
0.0
 10
-79.088
 20
-57.7475
 30
0.0
 10
-79.8381
 20
-57.4522
 30
0.0
 10
-80.5944
 20
-57.1736
 30
0.0
  0
SPLINE
  5
5B
330
1F
100
AcDbEntity
  8
layer 1
 62
     7
100
AcDbSpline
210
0.0
220
0.0
230
1.0
 70
    11
 71
     3
 72
    32
 73
    28
 74
     0
 42
0.0000000001
 43
0.0000000001
 12
1.0
 22
0.0
 32
0.0
 13
1.0
 23
0.0
 33
0.0
 40
0.0
 40
0.0
 40
0.0
 40
0.0
 40
0.125
 40
0.125
 40
0.125
 40
0.125
 40
0.25
 40
0.25
 40
0.25
 40
0.25
 40
0.375
 40
0.375
 40
0.375
 40
0.375
 40
0.5
 40
0.5
 40
0.5
 40
0.5
 40
0.625
 40
0.625
 40
0.625
 40
0.625
 40
0.75
 40
0.75
 40
0.75
 40
0.75
 40
1.0
 40
1.0
 40
1.0
 40
1.0
 10
-80.5944
 20
-76.9222
 30
0.0
 10
-80.5944
 20
-76.9222
 30
0.0
 10
-80.5944
 20
-59.5517
 30
0.0
 10
-80.5944
 20
-59.5517
 30
0.0
 10
-80.5944
 20
-59.5517
 30
0.0
 10
-76.9042
 20
-60.5725
 30
0.0
 10
-73.6668
 20
-62.8146
 30
0.0
 10
-71.4123
 20
-65.9088
 30
0.0
 10
-71.4123
 20
-65.9088
 30
0.0
 10
-69.1885
 20
-68.9611
 30
0.0
 10
-67.7341
 20
-72.5066
 30
0.0
 10
-67.1728
 20
-76.2409
 30
0.0
 10
-67.1728
 20
-76.2409
 30
0.0
 10
-67.5957
 20
-75.8298
 30
0.0
 10
-68.0976
 20
-75.5098
 30
0.0
 10
-68.6485
 20
-75.2999
 30
0.0
 10
-68.6485
 20
-75.2999
 30
0.0
 10
-71.4181
 20
-74.2464
 30
0.0
 10
-74.4635
 20
-74.1776
 30
0.0
 10
-77.2774
 20
-75.1057
 30
0.0
 10
-77.2774
 20
-75.1057
 30
0.0
 10
-77.8805
 20
-75.3047
 30
0.0
 10
-78.466
 20
-75.5515
 30
0.0
 10
-79.0294
 20
-75.8435
 30
0.0
 10
-79.0294
 20
-75.8435
 30
0.0
 10
-79.5938
 20
-76.1368
 30
0.0
 10
-80.1197
 20
-76.4991
 30
0.0
 10
-80.5944
 20
-76.9222
 30
0.0
  0
SPLINE
  5
5C
330
1F
100
AcDbEntity
  8
layer 1
 62
     7
100
AcDbSpline
210
0.0
220
0.0
230
1.0
 70
    11
 71
     3
 72
    36
 73
    32
 74
     0
 42
0.0000000001
 43
0.0000000001
 12
1.0
 22
0.0
 32
0.0
 13
1.0
 23
0.0
 33
0.0
 40
0.0
 40
0.0
 40
0.0
 40
0.0
 40
0.1111111111111111
 40
0.1111111111111111
 40
0.1111111111111111
 40
0.1111111111111111
 40
0.2222222222222222
 40
0.2222222222222222
 40
0.2222222222222222
 40
0.2222222222222222
 40
0.3333333333333333
 40
0.3333333333333333
 40
0.3333333333333333
 40
0.3333333333333333
 40
0.4444444444444444
 40
0.4444444444444444
 40
0.4444444444444444
 40
0.4444444444444444
 40
0.5555555555555556
 40
0.5555555555555556
 40
0.5555555555555556
 40
0.5555555555555556
 40
0.6666666666666666
 40
0.6666666666666666
 40
0.6666666666666666
 40
0.6666666666666666
 40
0.7777777777777778
 40
0.7777777777777778
 40
0.7777777777777778
 40
0.7777777777777778
 40
1.0
 40
1.0
 40
1.0
 40
1.0
 10
-80.5944
 20
-91.9086
 30
0.0
 10
-80.5944
 20
-91.9086
 30
0.0
 10
-80.5944
 20
-79.3064
 30
0.0
 10
-80.5944
 20
-79.3064
 30
0.0
 10
-80.5944
 20
-79.3064
 30
0.0
 10
-78.5073
 20
-77.9042
 30
0.0
 10
-75.9481
 20
-77.3849
 30
0.0
 10
-73.4793
 20
-77.8617
 30
0.0
 10
-73.4793
 20
-77.8617
 30
0.0
 10
-71.0736
 20
-78.3261
 30
0.0
 10
-68.8018
 20
-79.3247
 30
0.0
 10
-66.8324
 20
-80.7823
 30
0.0
 10
-66.8324
 20
-80.7823
 30
0.0
 10
-66.8165
 20
-80.8512
 30
0.0
 10
-66.8026
 20
-80.9201
 30
0.0
 10
-66.7905
 20
-80.9892
 30
0.0
 10
-66.7905
 20
-80.9892
 30
0.0
 10
-66.1556
 20
-84.5802
 30
0.0
 10
-66.832
 20
-88.2817
 30
0.0
 10
-68.6942
 20
-91.417
 30
0.0
 10
-68.6942
 20
-91.417
 30
0.0
 10
-69.012
 20
-91.9524
 30
0.0
 10
-69.3768
 20
-92.4589
 30
0.0
 10
-69.7845
 20
-92.9306
 30
0.0
 10
-69.7845
 20
-92.9306
 30
0.0
 10
-71.4445
 20
-92.1093
 30
0.0
 10
-73.2603
 20
-91.6529
 30
0.0
 10
-75.1109
 20
-91.592
 30
0.0
 10
-75.1109
 20
-91.592
 30
0.0
 10
-76.9448
 20
-91.5314
 30
0.0
 10
-78.78
 20
-91.6375
 30
0.0
 10
-80.5944
 20
-91.9086
 30
0.0
  0
SPLINE
  5
5D
330
1F
100
AcDbEntity
  8
layer 1
 62
     7
100
AcDbSpline
210
0.0
220
0.0
230
1.0
 70
    11
 71
     3
 72
    20
 73
    16
 74
     0
 42
0.0000000001
 43
0.0000000001
 12
1.0
 22
0.0
 32
0.0
 13
1.0
 23
0.0
 33
0.0
 40
0.0
 40
0.0
 40
0.0
 40
0.0
 40
0.2
 40
0.2
 40
0.2
 40
0.2
 40
0.4
 40
0.4
 40
0.4
 40
0.4
 40
0.6
 40
0.6
 40
0.6
 40
0.6
 40
1.0
 40
1.0
 40
1.0
 40
1.0
 10
-60.9715
 20
-101.0758
 30
0.0
 10
-60.9715
 20
-101.0758
 30
0.0
 10
-80.5944
 20
-101.0758
 30
0.0
 10
-80.5944
 20
-101.0758
 30
0.0
 10
-80.5944
 20
-101.0758
 30
0.0
 10
-80.5944
 20
-101.0758
 30
0.0
 10
-80.5944
 20
-93.7354
 30
0.0
 10
-80.5944
 20
-93.7354
 30
0.0
 10
-80.5944
 20
-93.7354
 30
0.0
 10
-76.9823
 20
-93.3301
 30
0.0
 10
-73.3241
 20
-93.8272
 30
0.0
 10
-69.9507
 20
-95.1807
 30
0.0
 10
-69.9507
 20
-95.1807
 30
0.0
 10
-66.5951
 20
-96.5275
 30
0.0
 10
-63.5413
 20
-98.5321
 30
0.0
 10
-60.9715
 20
-101.0758
 30
0.0
  0
SPLINE
  5
5E
330
1F
100
AcDbEntity
  8
layer 1
 62
     7
100
AcDbSpline
210
0.0
220
0.0
230
1.0
 70
    11
 71
     3
 72
   132
 73
   128
 74
     0
 42
0.0000000001
 43
0.0000000001
 12
1.0
 22
0.0
 32
0.0
 13
1.0
 23
0.0
 33
0.0
 40
0.0
 40
0.0
 40
0.0
 40
0.0
 40
0.0303030303030303
 40
0.0303030303030303
 40
0.0303030303030303
 40
0.0303030303030303
 40
0.0606060606060606
 40
0.0606060606060606
 40
0.0606060606060606
 40
0.0606060606060606
 40
0.0909090909090909
 40
0.0909090909090909
 40
0.0909090909090909
 40
0.0909090909090909
 40
0.1212121212121212
 40
0.1212121212121212
 40
0.1212121212121212
 40
0.1212121212121212
 40
0.1515151515151515
 40
0.1515151515151515
 40
0.1515151515151515
 40
0.1515151515151515
 40
0.1818181818181818
 40
0.1818181818181818
 40
0.1818181818181818
 40
0.1818181818181818
 40
0.2121212121212121
 40
0.2121212121212121
 40
0.2121212121212121
 40
0.2121212121212121
 40
0.2424242424242424
 40
0.2424242424242424
 40
0.2424242424242424
 40
0.2424242424242424
 40
0.2727272727272727
 40
0.2727272727272727
 40
0.2727272727272727
 40
0.2727272727272727
 40
0.303030303030303
 40
0.303030303030303
 40
0.303030303030303
 40
0.303030303030303
 40
0.3333333333333333
 40
0.3333333333333333
 40
0.3333333333333333
 40
0.3333333333333333
 40
0.3636363636363636
 40
0.3636363636363636
 40
0.3636363636363636
 40
0.3636363636363636
 40
0.3939393939393939
 40
0.3939393939393939
 40
0.3939393939393939
 40
0.3939393939393939
 40
0.4242424242424243
 40
0.4242424242424243
 40
0.4242424242424243
 40
0.4242424242424243
 40
0.4545454545454545
 40
0.4545454545454545
 40
0.4545454545454545
 40
0.4545454545454545
 40
0.4848484848484849
 40
0.4848484848484849
 40
0.4848484848484849
 40
0.4848484848484849
 40
0.5151515151515151
 40
0.5151515151515151
 40
0.5151515151515151
 40
0.5151515151515151
 40
0.5454545454545454
 40
0.5454545454545454
 40
0.5454545454545454
 40
0.5454545454545454
 40
0.5757575757575758
 40
0.5757575757575758
 40
0.5757575757575758
 40
0.5757575757575758
 40
0.6060606060606061
 40
0.6060606060606061
 40
0.6060606060606061
 40
0.6060606060606061
 40
0.6363636363636364
 40
0.6363636363636364
 40
0.6363636363636364
 40
0.6363636363636364
 40
0.6666666666666666
 40
0.6666666666666666
 40
0.6666666666666666
 40
0.6666666666666666
 40
0.696969696969697
 40
0.696969696969697
 40
0.696969696969697
 40
0.696969696969697
 40
0.7272727272727273
 40
0.7272727272727273
 40
0.7272727272727273
 40
0.7272727272727273
 40
0.7575757575757576
 40
0.7575757575757576
 40
0.7575757575757576
 40
0.7575757575757576
 40
0.7878787878787878
 40
0.7878787878787878
 40
0.7878787878787878
 40
0.7878787878787878
 40
0.8181818181818182
 40
0.8181818181818182
 40
0.8181818181818182
 40
0.8181818181818182
 40
0.8484848484848485
 40
0.8484848484848485
 40
0.8484848484848485
 40
0.8484848484848485
 40
0.8787878787878788
 40
0.8787878787878788
 40
0.8787878787878788
 40
0.8787878787878788
 40
0.9090909090909091
 40
0.9090909090909091
 40
0.9090909090909091
 40
0.9090909090909091
 40
0.9393939393939394
 40
0.9393939393939394
 40
0.9393939393939394
 40
0.9393939393939394
 40
1.0
 40
1.0
 40
1.0
 40
1.0
 10
-30.4259
 20
-56.6608
 30
0.0
 10
-29.6062
 20
-55.3567
 30
0.0
 10
-28.4976
 20
-54.258
 30
0.0
 10
-27.186
 20
-53.4503
 30
0.0
 10
-27.186
 20
-53.4503
 30
0.0
 10
-25.8899
 20
-52.6517
 30
0.0
 10
-24.5365
 20
-51.9491
 30
0.0
 10
-23.1375
 20
-51.3491
 30
0.0
 10
-23.1375
 20
-51.3491
 30
0.0
 10
-21.8758
 20
-52.1052
 30
0.0
 10
-20.7025
 20
-53.0009
 30
0.0
 10
-19.64
 20
-54.0181
 30
0.0
 10
-19.64
 20
-54.0181
 30
0.0
 10
-18.5802
 20
-55.0332
 30
0.0
 10
-17.5636
 20
-56.0921
 30
0.0
 10
-16.593
 20
-57.1923
 30
0.0
 10
-16.593
 20
-57.1923
 30
0.0
 10
-15.8061
 20
-58.0842
 30
0.0
 10
-15.1293
 20
-59.0678
 30
0.0
 10
-14.5781
 20
-60.1214
 30
0.0
 10
-14.5781
 20
-60.1214
 30
0.0
 10
-14.02
 20
-61.1873
 30
0.0
 10
-13.7353
 20
-62.3755
 30
0.0
 10
-13.749
 20
-63.5789
 30
0.0
 10
-13.749
 20
-63.5789
 30
0.0
 10
-14.2016
 20
-64.7126
 30
0.0
 10
-14.8148
 20
-65.7761
 30
0.0
 10
-15.5698
 20
-66.7357
 30
0.0
 10
-15.5698
 20
-66.7357
 30
0.0
 10
-16.3225
 20
-67.6926
 30
0.0
 10
-17.1603
 20
-68.5789
 30
0.0
 10
-18.0725
 20
-69.3848
 30
0.0
 10
-18.0725
 20
-69.3848
 30
0.0
 10
-19.1329
 20
-68.916
 30
0.0
 10
-20.2476
 20
-68.5822
 30
0.0
 10
-21.3912
 20
-68.3918
 30
0.0
 10
-21.3912
 20
-68.3918
 30
0.0
 10
-22.5303
 20
-68.2021
 30
0.0
 10
-23.6764
 20
-68.0563
 30
0.0
 10
-24.8272
 20
-67.9553
 30
0.0
 10
-24.8272
 20
-67.9553
 30
0.0
 10
-25.7532
 20
-67.874
 30
0.0
 10
-26.6845
 20
-68.0245
 30
0.0
 10
-27.5375
 20
-68.3937
 30
0.0
 10
-27.5375
 20
-68.3937
 30
0.0
 10
-28.4018
 20
-68.7673
 30
0.0
 10
-29.1145
 20
-69.4207
 30
0.0
 10
-29.5611
 20
-70.2492
 30
0.0
 10
-29.5611
 20
-70.2492
 30
0.0
 10
-28.5667
 20
-70.2586
 30
0.0
 10
-27.5796
 20
-70.428
 30
0.0
 10
-26.639
 20
-70.7508
 30
0.0
 10
-26.639
 20
-70.7508
 30
0.0
 10
-25.7037
 20
-71.0718
 30
0.0
 10
-24.7848
 20
-71.4385
 30
0.0
 10
-23.8851
 20
-71.8496
 30
0.0
 10
-23.8851
 20
-71.8496
 30
0.0
 10
-22.7595
 20
-72.3641
 30
0.0
 10
-21.8423
 20
-73.2477
 30
0.0
 10
-21.2854
 20
-74.3528
 30
0.0
 10
-21.2854
 20
-74.3528
 30
0.0
 10
-20.7318
 20
-75.4505
 30
0.0
 10
-20.5167
 20
-76.6884
 30
0.0
 10
-20.6669
 20
-77.9084
 30
0.0
 10
-20.6669
 20
-77.9084
 30
0.0
 10
-23.2765
 20
-78.2818
 30
0.0
 10
-25.8057
 20
-79.0838
 30
0.0
 10
-28.1535
 20
-80.2832
 30
0.0
 10
-28.1535
 20
-80.2832
 30
0.0
 10
-30.5051
 20
-81.4849
 30
0.0
 10
-32.6147
 20
-83.1078
 30
0.0
 10
-34.3787
 20
-85.073
 30
0.0
 10
-34.3787
 20
-85.073
 30
0.0
 10
-36.6503
 20
-84.6566
 30
0.0
 10
-38.701
 20
-83.4444
 30
0.0
 10
-40.1615
 20
-81.6551
 30
0.0
 10
-40.1615
 20
-81.6551
 30
0.0
 10
-41.2497
 20
-80.322
 30
0.0
 10
-41.5818
 20
-78.5247
 30
0.0
 10
-41.0435
 20
-76.8904
 30
0.0
 10
-41.0435
 20
-76.8904
 30
0.0
 10
-40.29
 20
-74.6042
 30
0.0
 10
-39.5678
 20
-72.3082
 30
0.0
 10
-38.877
 20
-70.0021
 30
0.0
 10
-38.877
 20
-70.0021
 30
0.0
 10
-38.1818
 20
-67.6827
 30
0.0
 10
-37.1324
 20
-65.484
 30
0.0
 10
-35.7666
 20
-63.4848
 30
0.0
 10
-35.7666
 20
-63.4848
 30
0.0
 10
-34.7964
 20
-62.0653
 30
0.0
 10
-33.7558
 20
-60.6945
 30
0.0
 10
-32.6494
 20
-59.3786
 30
0.0
 10
-32.6494
 20
-59.3786
 30
0.0
 10
-32.4904
 20
-59.5578
 30
0.0
 10
-32.3171
 20
-59.7232
 30
0.0
 10
-32.1312
 20
-59.8742
 30
0.0
 10
-32.1312
 20
-59.8742
 30
0.0
 10
-29.3644
 20
-62.1169
 30
0.0
 10
-25.9541
 20
-63.4153
 30
0.0
 10
-22.3964
 20
-63.5789
 30
0.0
 10
-22.3964
 20
-63.5789
 30
0.0
 10
-21.6032
 20
-63.6153
 30
0.0
 10
-20.8084
 20
-63.5863
 30
0.0
 10
-20.0197
 20
-63.4926
 30
0.0
 10
-20.0197
 20
-63.4926
 30
0.0
 10
-19.2304
 20
-63.399
 30
0.0
 10
-18.4534
 20
-63.2207
 30
0.0
 10
-17.7022
 20
-62.961
 30
0.0
 10
-17.7022
 20
-62.961
 30
0.0
 10
-17.7713
 20
-62.6581
 30
0.0
 10
-17.884
 20
-62.3667
 30
0.0
 10
-18.0362
 20
-62.0958
 30
0.0
 10
-18.0362
 20
-62.0958
 30
0.0
 10
-18.7392
 20
-60.844
 30
0.0
 10
-19.5953
 20
-59.6855
 30
0.0
 10
-20.5848
 20
-58.6461
 30
0.0
 10
-20.5848
 20
-58.6461
 30
0.0
 10
-21.8143
 20
-57.3549
 30
0.0
 10
-23.5471
 20
-56.6692
 30
0.0
 10
-25.3272
 20
-56.7705
 30
0.0
 10
-25.3272
 20
-56.7705
 30
0.0
 10
-27.0269
 20
-56.8671
 30
0.0
 10
-28.7316
 20
-56.8303
 30
0.0
 10
-30.4257
 20
-56.661
 30
0.0
 10
-30.4257
 20
-56.661
 30
0.0
 10
-30.4257
 20
-56.661
 30
0.0
 10
-30.4259
 20
-56.6608
 30
0.0
 10
-30.4259
 20
-56.6608
 30
0.0
  0
SPLINE
  5
5F
330
1F
100
AcDbEntity
  8
layer 1
 62
     7
100
AcDbSpline
210
0.0
220
0.0
230
1.0
 70
    11
 71
     3
 72
    36
 73
    32
 74
     0
 42
0.0000000001
 43
0.0000000001
 12
1.0
 22
0.0
 32
0.0
 13
1.0
 23
0.0
 33
0.0
 40
0.0
 40
0.0
 40
0.0
 40
0.0
 40
0.1111111111111111
 40
0.1111111111111111
 40
0.1111111111111111
 40
0.1111111111111111
 40
0.2222222222222222
 40
0.2222222222222222
 40
0.2222222222222222
 40
0.2222222222222222
 40
0.3333333333333333
 40
0.3333333333333333
 40
0.3333333333333333
 40
0.3333333333333333
 40
0.4444444444444444
 40
0.4444444444444444
 40
0.4444444444444444
 40
0.4444444444444444
 40
0.5555555555555556
 40
0.5555555555555556
 40
0.5555555555555556
 40
0.5555555555555556
 40
0.6666666666666666
 40
0.6666666666666666
 40
0.6666666666666666
 40
0.6666666666666666
 40
0.7777777777777778
 40
0.7777777777777778
 40
0.7777777777777778
 40
0.7777777777777778
 40
1.0
 40
1.0
 40
1.0
 40
1.0
 10
-28.2175
 20
-88.068
 30
0.0
 10
-30.0293
 20
-88.9013
 30
0.0
 10
-31.7767
 20
-89.8684
 30
0.0
 10
-33.4447
 20
-90.9615
 30
0.0
 10
-33.4447
 20
-90.9615
 30
0.0
 10
-35.5152
 20
-92.3662
 30
0.0
 10
-37.4679
 20
-93.9358
 30
0.0
 10
-39.2856
 20
-95.655
 30
0.0
 10
-39.2856
 20
-95.655
 30
0.0
 10
-41.101
 20
-97.3731
 30
0.0
 10
-42.8275
 20
-99.182
 30
0.0
 10
-44.4585
 20
-101.0758
 30
0.0
 10
-44.4585
 20
-101.0758
 30
0.0
 10
-44.4585
 20
-101.0758
 30
0.0
 10
-38.1115
 20
-101.0758
 30
0.0
 10
-38.1115
 20
-101.0758
 30
0.0
 10
-38.1115
 20
-101.0758
 30
0.0
 10
-38.1115
 20
-101.0758
 30
0.0
 10
-31.7647
 20
-101.0758
 30
0.0
 10
-31.7647
 20
-101.0758
 30
0.0
 10
-31.7647
 20
-101.0758
 30
0.0
 10
-31.5333
 20
-98.6195
 30
0.0
 10
-30.7618
 20
-96.2436
 30
0.0
 10
-29.5066
 20
-94.1197
 30
0.0
 10
-29.5066
 20
-94.1197
 30
0.0
 10
-28.2626
 20
-92.0151
 30
0.0
 10
-26.798
 20
-90.0487
 30
0.0
 10
-25.1372
 20
-88.2548
 30
0.0
 10
-25.1372
 20
-88.2548
 30
0.0
 10
-26.1325
 20
-87.9359
 30
0.0
 10
-27.191
 20
-87.8717
 30
0.0
 10
-28.2175
 20
-88.068
 30
0.0
  0
SPLINE
  5
60
330
1F
100
AcDbEntity
  8
layer 1
 62
     7
100
AcDbSpline
210
0.0
220
0.0
230
1.0
 70
    11
 71
     3
 72
    56
 73
    52
 74
     0
 42
0.0000000001
 43
0.0000000001
 12
1.0
 22
0.0
 32
0.0
 13
1.0
 23
0.0
 33
0.0
 40
0.0
 40
0.0
 40
0.0
 40
0.0
 40
0.0714285714285714
 40
0.0714285714285714
 40
0.0714285714285714
 40
0.0714285714285714
 40
0.1428571428571428
 40
0.1428571428571428
 40
0.1428571428571428
 40
0.1428571428571428
 40
0.2142857142857143
 40
0.2142857142857143
 40
0.2142857142857143
 40
0.2142857142857143
 40
0.2857142857142857
 40
0.2857142857142857
 40
0.2857142857142857
 40
0.2857142857142857
 40
0.3571428571428572
 40
0.3571428571428572
 40
0.3571428571428572
 40
0.3571428571428572
 40
0.4285714285714285
 40
0.4285714285714285
 40
0.4285714285714285
 40
0.4285714285714285
 40
0.5
 40
0.5
 40
0.5
 40
0.5
 40
0.5714285714285714
 40
0.5714285714285714
 40
0.5714285714285714
 40
0.5714285714285714
 40
0.6428571428571429
 40
0.6428571428571429
 40
0.6428571428571429
 40
0.6428571428571429
 40
0.7142857142857143
 40
0.7142857142857143
 40
0.7142857142857143
 40
0.7142857142857143
 40
0.7857142857142857
 40
0.7857142857142857
 40
0.7857142857142857
 40
0.7857142857142857
 40
0.8571428571428571
 40
0.8571428571428571
 40
0.8571428571428571
 40
0.8571428571428571
 40
1.0
 40
1.0
 40
1.0
 40
1.0
 10
-22.337
 20
-87.4147
 30
0.0
 10
-20.8301
 20
-87.255
 30
0.0
 10
-19.311
 20
-87.2422
 30
0.0
 10
-17.8018
 20
-87.3764
 30
0.0
 10
-17.8018
 20
-87.3764
 30
0.0
 10
-16.2787
 20
-87.5118
 30
0.0
 10
-14.8016
 20
-87.9705
 30
0.0
 10
-13.4697
 20
-88.7215
 30
0.0
 10
-13.4697
 20
-88.7215
 30
0.0
 10
-14.5813
 20
-89.046
 30
0.0
 10
-15.5656
 20
-89.7037
 30
0.0
 10
-16.2907
 20
-90.6062
 30
0.0
 10
-16.2907
 20
-90.6062
 30
0.0
 10
-17.0032
 20
-91.493
 30
0.0
 10
-17.5763
 20
-92.4829
 30
0.0
 10
-17.991
 20
-93.5422
 30
0.0
 10
-17.991
 20
-93.5422
 30
0.0
 10
-18.1369
 20
-93.9156
 30
0.0
 10
-18.2481
 20
-94.3014
 30
0.0
 10
-18.3233
 20
-94.6951
 30
0.0
 10
-18.3233
 20
-94.6951
 30
0.0
 10
-18.603
 20
-94.7275
 30
0.0
 10
-18.8825
 20
-94.7604
 30
0.0
 10
-19.1619
 20
-94.7943
 30
0.0
 10
-19.1619
 20
-94.7943
 30
0.0
 10
-19.442
 20
-94.8278
 30
0.0
 10
-19.7226
 20
-94.8572
 30
0.0
 10
-20.0035
 20
-94.8819
 30
0.0
 10
-20.0035
 20
-94.8819
 30
0.0
 10
-20.6604
 20
-94.9339
 30
0.0
 10
-21.3145
 20
-95.0129
 30
0.0
 10
-21.9647
 20
-95.119
 30
0.0
 10
-21.9647
 20
-95.119
 30
0.0
 10
-22.6253
 20
-95.2264
 30
0.0
 10
-23.247
 20
-95.5008
 30
0.0
 10
-23.7718
 20
-95.9164
 30
0.0
 10
-23.7718
 20
-95.9164
 30
0.0
 10
-24.196
 20
-96.2527
 30
0.0
 10
-24.5905
 20
-96.6246
 30
0.0
 10
-24.9508
 20
-97.0286
 30
0.0
 10
-24.9508
 20
-97.0286
 30
0.0
 10
-25.086
 20
-96.5924
 30
0.0
 10
-25.1513
 20
-96.1371
 30
0.0
 10
-25.1435
 20
-95.6805
 30
0.0
 10
-25.1435
 20
-95.6805
 30
0.0
 10
-25.0987
 20
-92.9492
 30
0.0
 10
-24.2843
 20
-90.285
 30
0.0
 10
-22.7951
 20
-87.9949
 30
0.0
 10
-22.7951
 20
-87.9949
 30
0.0
 10
-22.6607
 20
-87.7879
 30
0.0
 10
-22.5072
 20
-87.5937
 30
0.0
 10
-22.337
 20
-87.4147
 30
0.0
  0
SPLINE
  5
61
330
1F
100
AcDbEntity
  8
layer 1
 62
     7
100
AcDbSpline
210
0.0
220
0.0
230
1.0
 70
    11
 71
     3
 72
    76
 73
    72
 74
     0
 42
0.0000000001
 43
0.0000000001
 12
1.0
 22
0.0
 32
0.0
 13
1.0
 23
0.0
 33
0.0
 40
0.0
 40
0.0
 40
0.0
 40
0.0
 40
0.0526315789473684
 40
0.0526315789473684
 40
0.0526315789473684
 40
0.0526315789473684
 40
0.1052631578947368
 40
0.1052631578947368
 40
0.1052631578947368
 40
0.1052631578947368
 40
0.1578947368421053
 40
0.1578947368421053
 40
0.1578947368421053
 40
0.1578947368421053
 40
0.2105263157894737
 40
0.2105263157894737
 40
0.2105263157894737
 40
0.2105263157894737
 40
0.2631578947368421
 40
0.2631578947368421
 40
0.2631578947368421
 40
0.2631578947368421
 40
0.3157894736842105
 40
0.3157894736842105
 40
0.3157894736842105
 40
0.3157894736842105
 40
0.3684210526315789
 40
0.3684210526315789
 40
0.3684210526315789
 40
0.3684210526315789
 40
0.4210526315789473
 40
0.4210526315789473
 40
0.4210526315789473
 40
0.4210526315789473
 40
0.4736842105263158
 40
0.4736842105263158
 40
0.4736842105263158
 40
0.4736842105263158
 40
0.5263157894736842
 40
0.5263157894736842
 40
0.5263157894736842
 40
0.5263157894736842
 40
0.5789473684210527
 40
0.5789473684210527
 40
0.5789473684210527
 40
0.5789473684210527
 40
0.631578947368421
 40
0.631578947368421
 40
0.631578947368421
 40
0.631578947368421
 40
0.6842105263157895
 40
0.6842105263157895
 40
0.6842105263157895
 40
0.6842105263157895
 40
0.7368421052631579
 40
0.7368421052631579
 40
0.7368421052631579
 40
0.7368421052631579
 40
0.7894736842105263
 40
0.7894736842105263
 40
0.7894736842105263
 40
0.7894736842105263
 40
0.8421052631578947
 40
0.8421052631578947
 40
0.8421052631578947
 40
0.8421052631578947
 40
0.8947368421052632
 40
0.8947368421052632
 40
0.8947368421052632
 40
0.8947368421052632
 40
1.0
 40
1.0
 40
1.0
 40
1.0
 10
-0.0016
 20
106.5215
 30
0.0
 10
-0.0016
 20
106.5215
 30
0.0
 10
-0.0016
 20
90.2392
 30
0.0
 10
-0.0016
 20
90.2392
 30
0.0
 10
-0.0016
 20
90.2392
 30
0.0
 10
-0.3846
 20
91.0665
 30
0.0
 10
-0.9474
 20
91.7971
 30
0.0
 10
-1.6497
 20
92.3787
 30
0.0
 10
-1.6497
 20
92.3787
 30
0.0
 10
-2.3561
 20
92.963
 30
0.0
 10
-3.2072
 20
93.3452
 30
0.0
 10
-4.1136
 20
93.4838
 30
0.0
 10
-4.1136
 20
93.4838
 30
0.0
 10
-4.8193
 20
93.5914
 30
0.0
 10
-5.5373
 20
93.5918
 30
0.0
 10
-6.243
 20
93.4838
 30
0.0
 10
-6.243
 20
93.4838
 30
0.0
 10
-5.9046
 20
94.0996
 30
0.0
 10
-5.4377
 20
94.6354
 30
0.0
 10
-4.8739
 20
95.0555
 30
0.0
 10
-4.8739
 20
95.0555
 30
0.0
 10
-4.5177
 20
95.3154
 30
0.0
 10
-4.1273
 20
95.526
 30
0.0
 10
-3.7141
 20
95.6798
 30
0.0
 10
-3.7141
 20
95.6798
 30
0.0
 10
-3.3015
 20
95.8339
 30
0.0
 10
-2.875
 20
95.9472
 30
0.0
 10
-2.4404
 20
96.0186
 30
0.0
 10
-2.4404
 20
96.0186
 30
0.0
 10
-3.7638
 20
96.3623
 30
0.0
 10
-5.1407
 20
96.4481
 30
0.0
 10
-6.4962
 20
96.2722
 30
0.0
 10
-6.4962
 20
96.2722
 30
0.0
 10
-7.8278
 20
96.0833
 30
0.0
 10
-9.1127
 20
95.6513
 30
0.0
 10
-10.2877
 20
94.9978
 30
0.0
 10
-10.2877
 20
94.9978
 30
0.0
 10
-11.458
 20
94.3469
 30
0.0
 10
-12.5401
 20
93.5497
 30
0.0
 10
-13.508
 20
92.6247
 30
0.0
 10
-13.508
 20
92.6247
 30
0.0
 10
-14.1797
 20
91.9826
 30
0.0
 10
-14.7544
 20
91.2468
 30
0.0
 10
-15.2144
 20
90.4399
 30
0.0
 10
-15.2144
 20
90.4399
 30
0.0
 10
-15.6811
 20
89.6211
 30
0.0
 10
-15.9117
 20
88.6902
 30
0.0
 10
-15.8807
 20
87.7486
 30
0.0
 10
-15.8807
 20
87.7486
 30
0.0
 10
-16.9714
 20
88.5521
 30
0.0
 10
-18.2079
 20
89.1352
 30
0.0
 10
-19.5221
 20
89.465
 30
0.0
 10
-19.5221
 20
89.465
 30
0.0
 10
-24.0791
 20
90.6097
 30
0.0
 10
-28.7708
 20
91.1216
 30
0.0
 10
-33.4677
 20
90.9852
 30
0.0
 10
-33.4677
 20
90.9852
 30
0.0
 10
-31.4673
 20
92.4044
 30
0.0
 10
-29.412
 20
93.7447
 30
0.0
 10
-27.307
 20
95.0031
 30
0.0
 10
-27.307
 20
95.0031
 30
0.0
 10
-22.6578
 20
97.7827
 30
0.0
 10
-17.8246
 20
100.2442
 30
0.0
 10
-12.8425
 20
102.3694
 30
0.0
 10
-12.8425
 20
102.3694
 30
0.0
 10
-8.6764
 20
104.0842
 30
0.0
 10
-4.383
 20
105.4725
 30
0.0
 10
-0.0016
 20
106.5213
 30
0.0
 10
-0.0016
 20
106.5213
 30
0.0
 10
-0.0016
 20
106.5213
 30
0.0
 10
-0.0016
 20
106.5215
 30
0.0
 10
-0.0016
 20
106.5215
 30
0.0
  0
SPLINE
  5
62
330
1F
100
AcDbEntity
  8
layer 1
 62
     7
100
AcDbSpline
210
0.0
220
0.0
230
1.0
 70
    11
 71
     3
 72
    48
 73
    44
 74
     0
 42
0.0000000001
 43
0.0000000001
 12
1.0
 22
0.0
 32
0.0
 13
1.0
 23
0.0
 33
0.0
 40
0.0
 40
0.0
 40
0.0
 40
0.0
 40
0.0833333333333333
 40
0.0833333333333333
 40
0.0833333333333333
 40
0.0833333333333333
 40
0.1666666666666667
 40
0.1666666666666667
 40
0.1666666666666667
 40
0.1666666666666667
 40
0.25
 40
0.25
 40
0.25
 40
0.25
 40
0.3333333333333333
 40
0.3333333333333333
 40
0.3333333333333333
 40
0.3333333333333333
 40
0.4166666666666667
 40
0.4166666666666667
 40
0.4166666666666667
 40
0.4166666666666667
 40
0.5
 40
0.5
 40
0.5
 40
0.5
 40
0.5833333333333334
 40
0.5833333333333334
 40
0.5833333333333334
 40
0.5833333333333334
 40
0.6666666666666666
 40
0.6666666666666666
 40
0.6666666666666666
 40
0.6666666666666666
 40
0.75
 40
0.75
 40
0.75
 40
0.75
 40
0.8333333333333334
 40
0.8333333333333334
 40
0.8333333333333334
 40
0.8333333333333334
 40
1.0
 40
1.0
 40
1.0
 40
1.0
 10
-0.0016
 20
73.2466
 30
0.0
 10
-1.0672
 20
75.2227
 30
0.0
 10
-2.3342
 20
77.083
 30
0.0
 10
-3.7834
 20
78.7979
 30
0.0
 10
-3.7834
 20
78.7979
 30
0.0
 10
-4.8977
 20
80.0449
 30
0.0
 10
-6.1103
 20
81.1999
 30
0.0
 10
-7.4104
 20
82.2521
 30
0.0
 10
-7.4104
 20
82.2521
 30
0.0
 10
-8.7465
 20
83.3335
 30
0.0
 10
-10.1607
 20
84.3147
 30
0.0
 10
-11.6415
 20
85.1881
 30
0.0
 10
-11.6415
 20
85.1881
 30
0.0
 10
-11.636
 20
87.4685
 30
0.0
 10
-10.8694
 20
89.683
 30
0.0
 10
-9.4655
 20
91.4801
 30
0.0
 10
-9.4655
 20
91.4801
 30
0.0
 10
-9.2018
 20
91.8181
 30
0.0
 10
-8.887
 20
92.1132
 30
0.0
 10
-8.5327
 20
92.3556
 30
0.0
 10
-8.5327
 20
92.3556
 30
0.0
 10
-8.162
 20
91.645
 30
0.0
 10
-7.6783
 20
90.9993
 30
0.0
 10
-7.1006
 20
90.4435
 30
0.0
 10
-7.1006
 20
90.4435
 30
0.0
 10
-6.5263
 20
89.8907
 30
0.0
 10
-5.9141
 20
89.3785
 30
0.0
 10
-5.2688
 20
88.9101
 30
0.0
 10
-5.2688
 20
88.9101
 30
0.0
 10
-4.5049
 20
88.356
 30
0.0
 10
-3.5799
 20
88.0702
 30
0.0
 10
-2.6366
 20
88.097
 30
0.0
 10
-2.6366
 20
88.097
 30
0.0
 10
-1.7016
 20
88.1237
 30
0.0
 10
-0.7917
 20
88.4011
 30
0.0
 10
-0.0016
 20
88.9013
 30
0.0
 10
-0.0016
 20
88.9013
 30
0.0
 10
-0.0016
 20
88.9013
 30
0.0
 10
-0.0016
 20
73.2462
 30
0.0
 10
-0.0016
 20
73.2462
 30
0.0
 10
-0.0016
 20
73.2462
 30
0.0
 10
-0.0016
 20
73.2462
 30
0.0
 10
-0.0016
 20
73.2466
 30
0.0
 10
-0.0016
 20
73.2466
 30
0.0
  0
SPLINE
  5
63
330
1F
100
AcDbEntity
  8
layer 1
 62
     7
100
AcDbSpline
210
0.0
220
0.0
230
1.0
 70
    11
 71
     3
 72
    40
 73
    36
 74
     0
 42
0.0000000001
 43
0.0000000001
 12
1.0
 22
0.0
 32
0.0
 13
1.0
 23
0.0
 33
0.0
 40
0.0
 40
0.0
 40
0.0
 40
0.0
 40
0.1
 40
0.1
 40
0.1
 40
0.1
 40
0.2
 40
0.2
 40
0.2
 40
0.2
 40
0.3
 40
0.3
 40
0.3
 40
0.3
 40
0.4
 40
0.4
 40
0.4
 40
0.4
 40
0.5
 40
0.5
 40
0.5
 40
0.5
 40
0.6
 40
0.6
 40
0.6
 40
0.6
 40
0.7
 40
0.7
 40
0.7
 40
0.7
 40
0.8
 40
0.8
 40
0.8
 40
0.8
 40
1.0
 40
1.0
 40
1.0
 40
1.0
 10
-0.0016
 20
65.7699
 30
0.0
 10
-5.1852
 20
64.5139
 30
0.0
 10
-9.8254
 20
61.6282
 30
0.0
 10
-13.2427
 20
57.5336
 30
0.0
 10
-13.2427
 20
57.5336
 30
0.0
 10
-14.1969
 20
56.3896
 30
0.0
 10
-14.8172
 20
55.0055
 30
0.0
 10
-15.0347
 20
53.5319
 30
0.0
 10
-15.0347
 20
53.5319
 30
0.0
 10
-15.1036
 20
53.0658
 30
0.0
 10
-15.0391
 20
52.5903
 30
0.0
 10
-14.8483
 20
52.1598
 30
0.0
 10
-14.8483
 20
52.1598
 30
0.0
 10
-14.6603
 20
51.7355
 30
0.0
 10
-14.4138
 20
51.34
 30
0.0
 10
-14.1158
 20
50.9844
 30
0.0
 10
-14.1158
 20
50.9844
 30
0.0
 10
-12.6458
 20
51.4943
 30
0.0
 10
-11.1238
 20
51.8401
 30
0.0
 10
-9.5779
 20
52.0156
 30
0.0
 10
-9.5779
 20
52.0156
 30
0.0
 10
-8.0355
 20
52.1904
 30
0.0
 10
-6.4829
 20
52.2689
 30
0.0
 10
-4.9305
 20
52.2498
 30
0.0
 10
-4.9305
 20
52.2498
 30
0.0
 10
-3.2737
 20
52.2169
 30
0.0
 10
-1.6232
 20
52.0288
 30
0.0
 10
-0.0016
 20
51.6875
 30
0.0
 10
-0.0016
 20
51.6875
 30
0.0
 10
-0.0016
 20
51.6875
 30
0.0
 10
-0.0016
 20
65.7699
 30
0.0
 10
-0.0016
 20
65.7699
 30
0.0
 10
-0.0016
 20
65.7699
 30
0.0
 10
-0.0016
 20
65.7699
 30
0.0
 10
-0.0016
 20
65.7699
 30
0.0
 10
-0.0016
 20
65.7699
 30
0.0
  0
SPLINE
  5
64
330
1F
100
AcDbEntity
  8
layer 1
 62
     7
100
AcDbSpline
210
0.0
220
0.0
230
1.0
 70
    11
 71
     3
 72
   156
 73
   152
 74
     0
 42
0.0000000001
 43
0.0000000001
 12
1.0
 22
0.0
 32
0.0
 13
1.0
 23
0.0
 33
0.0
 40
0.0
 40
0.0
 40
0.0
 40
0.0
 40
0.0256410256410256
 40
0.0256410256410256
 40
0.0256410256410256
 40
0.0256410256410256
 40
0.0512820512820513
 40
0.0512820512820513
 40
0.0512820512820513
 40
0.0512820512820513
 40
0.0769230769230769
 40
0.0769230769230769
 40
0.0769230769230769
 40
0.0769230769230769
 40
0.1025641025641026
 40
0.1025641025641026
 40
0.1025641025641026
 40
0.1025641025641026
 40
0.1282051282051282
 40
0.1282051282051282
 40
0.1282051282051282
 40
0.1282051282051282
 40
0.1538461538461539
 40
0.1538461538461539
 40
0.1538461538461539
 40
0.1538461538461539
 40
0.1794871794871795
 40
0.1794871794871795
 40
0.1794871794871795
 40
0.1794871794871795
 40
0.2051282051282051
 40
0.2051282051282051
 40
0.2051282051282051
 40
0.2051282051282051
 40
0.2307692307692308
 40
0.2307692307692308
 40
0.2307692307692308
 40
0.2307692307692308
 40
0.2564102564102564
 40
0.2564102564102564
 40
0.2564102564102564
 40
0.2564102564102564
 40
0.282051282051282
 40
0.282051282051282
 40
0.282051282051282
 40
0.282051282051282
 40
0.3076923076923077
 40
0.3076923076923077
 40
0.3076923076923077
 40
0.3076923076923077
 40
0.3333333333333333
 40
0.3333333333333333
 40
0.3333333333333333
 40
0.3333333333333333
 40
0.358974358974359
 40
0.358974358974359
 40
0.358974358974359
 40
0.358974358974359
 40
0.3846153846153846
 40
0.3846153846153846
 40
0.3846153846153846
 40
0.3846153846153846
 40
0.4102564102564102
 40
0.4102564102564102
 40
0.4102564102564102
 40
0.4102564102564102
 40
0.4358974358974359
 40
0.4358974358974359
 40
0.4358974358974359
 40
0.4358974358974359
 40
0.4615384615384616
 40
0.4615384615384616
 40
0.4615384615384616
 40
0.4615384615384616
 40
0.4871794871794872
 40
0.4871794871794872
 40
0.4871794871794872
 40
0.4871794871794872
 40
0.5128205128205128
 40
0.5128205128205128
 40
0.5128205128205128
 40
0.5128205128205128
 40
0.5384615384615384
 40
0.5384615384615384
 40
0.5384615384615384
 40
0.5384615384615384
 40
0.5641025641025641
 40
0.5641025641025641
 40
0.5641025641025641
 40
0.5641025641025641
 40
0.5897435897435898
 40
0.5897435897435898
 40
0.5897435897435898
 40
0.5897435897435898
 40
0.6153846153846154
 40
0.6153846153846154
 40
0.6153846153846154
 40
0.6153846153846154
 40
0.6410256410256411
 40
0.6410256410256411
 40
0.6410256410256411
 40
0.6410256410256411
 40
0.6666666666666666
 40
0.6666666666666666
 40
0.6666666666666666
 40
0.6666666666666666
 40
0.6923076923076923
 40
0.6923076923076923
 40
0.6923076923076923
 40
0.6923076923076923
 40
0.717948717948718
 40
0.717948717948718
 40
0.717948717948718
 40
0.717948717948718
 40
0.7435897435897436
 40
0.7435897435897436
 40
0.7435897435897436
 40
0.7435897435897436
 40
0.7692307692307693
 40
0.7692307692307693
 40
0.7692307692307693
 40
0.7692307692307693
 40
0.7948717948717948
 40
0.7948717948717948
 40
0.7948717948717948
 40
0.7948717948717948
 40
0.8205128205128205
 40
0.8205128205128205
 40
0.8205128205128205
 40
0.8205128205128205
 40
0.8461538461538461
 40
0.8461538461538461
 40
0.8461538461538461
 40
0.8461538461538461
 40
0.8717948717948718
 40
0.8717948717948718
 40
0.8717948717948718
 40
0.8717948717948718
 40
0.8974358974358975
 40
0.8974358974358975
 40
0.8974358974358975
 40
0.8974358974358975
 40
0.9230769230769231
 40
0.9230769230769231
 40
0.9230769230769231
 40
0.9230769230769231
 40
0.9487179487179487
 40
0.9487179487179487
 40
0.9487179487179487
 40
0.9487179487179487
 40
1.0
 40
1.0
 40
1.0
 40
1.0
 10
-0.0016
 20
38.9644
 30
0.0
 10
-4.1119
 20
39.4652
 30
0.0
 10
-8.2669
 20
38.5415
 30
0.0
 10
-11.7765
 20
36.3455
 30
0.0
 10
-11.7765
 20
36.3455
 30
0.0
 10
-12.3819
 20
35.9664
 30
0.0
 10
-12.9354
 20
35.5111
 30
0.0
 10
-13.4234
 20
34.9901
 30
0.0
 10
-13.4234
 20
34.9901
 30
0.0
 10
-13.563
 20
34.8414
 30
0.0
 10
-13.6852
 20
34.6773
 30
0.0
 10
-13.7879
 20
34.5009
 30
0.0
 10
-13.7879
 20
34.5009
 30
0.0
 10
-14.0423
 20
36.5736
 30
0.0
 10
-14.6988
 20
38.5754
 30
0.0
 10
-15.7217
 20
40.3959
 30
0.0
 10
-15.7217
 20
40.3959
 30
0.0
 10
-16.2562
 20
41.347
 30
0.0
 10
-17.055
 20
42.1218
 30
0.0
 10
-18.0225
 20
42.6262
 30
0.0
 10
-18.0225
 20
42.6262
 30
0.0
 10
-17.8155
 20
42.1329
 30
0.0
 10
-17.6386
 20
41.6271
 30
0.0
 10
-17.4933
 20
41.1121
 30
0.0
 10
-17.4933
 20
41.1121
 30
0.0
 10
-16.4872
 20
37.5458
 30
0.0
 10
-15.9725
 20
33.8577
 30
0.0
 10
-15.9626
 20
30.1525
 30
0.0
 10
-15.9626
 20
30.1525
 30
0.0
 10
-15.9831
 20
28.3832
 30
0.0
 10
-16.1745
 20
26.6202
 30
0.0
 10
-16.5348
 20
24.888
 30
0.0
 10
-16.5348
 20
24.888
 30
0.0
 10
-17.3065
 20
26.1241
 30
0.0
 10
-18.2294
 20
27.2586
 30
0.0
 10
-19.2826
 20
28.2661
 30
0.0
 10
-19.2826
 20
28.2661
 30
0.0
 10
-20.3327
 20
29.2705
 30
0.0
 10
-21.4482
 20
30.2039
 30
0.0
 10
-22.622
 20
31.0606
 30
0.0
 10
-22.622
 20
31.0606
 30
0.0
 10
-23.6813
 20
31.8336
 30
0.0
 10
-24.8369
 20
32.4652
 30
0.0
 10
-26.0605
 20
32.9384
 30
0.0
 10
-26.0605
 20
32.9384
 30
0.0
 10
-27.291
 20
33.4148
 30
0.0
 10
-28.6056
 20
33.6353
 30
0.0
 10
-29.9244
 20
33.5854
 30
0.0
 10
-29.9244
 20
33.5854
 30
0.0
 10
-29.2396
 20
33.1429
 30
0.0
 10
-28.6229
 20
32.6033
 30
0.0
 10
-28.0935
 20
31.9833
 30
0.0
 10
-28.0935
 20
31.9833
 30
0.0
 10
-27.5764
 20
31.361
 30
0.0
 10
-27.1521
 20
30.6674
 30
0.0
 10
-26.8344
 20
29.9236
 30
0.0
 10
-26.8344
 20
29.9236
 30
0.0
 10
-27.3806
 20
30.453
 30
0.0
 10
-28.0829
 20
30.7921
 30
0.0
 10
-28.8373
 20
30.89
 30
0.0
 10
-28.8373
 20
30.89
 30
0.0
 10
-29.5788
 20
30.9867
 30
0.0
 10
-30.3317
 20
30.9438
 30
0.0
 10
-31.0575
 20
30.7641
 30
0.0
 10
-31.0575
 20
30.7641
 30
0.0
 10
-31.8727
 20
30.5625
 30
0.0
 10
-32.5509
 20
30.0005
 30
0.0
 10
-32.8997
 20
29.237
 30
0.0
 10
-32.8997
 20
29.237
 30
0.0
 10
-33.2078
 20
28.5637
 30
0.0
 10
-33.2488
 20
27.7994
 30
0.0
 10
-33.0146
 20
27.0973
 30
0.0
 10
-33.0146
 20
27.0973
 30
0.0
 10
-32.787
 20
26.4153
 30
0.0
 10
-32.4527
 20
25.7742
 30
0.0
 10
-32.0238
 20
25.197
 30
0.0
 10
-32.0238
 20
25.197
 30
0.0
 10
-31.0893
 20
23.9397
 30
0.0
 10
-29.5264
 20
23.3175
 30
0.0
 10
-27.9833
 20
23.5897
 30
0.0
 10
-27.9833
 20
23.5897
 30
0.0
 10
-26.4935
 20
23.8529
 30
0.0
 10
-25.181
 20
24.7238
 30
0.0
 10
-24.3609
 20
25.9952
 30
0.0
 10
-24.3609
 20
25.9952
 30
0.0
 10
-24.1196
 20
26.369
 30
0.0
 10
-23.8833
 20
26.7462
 30
0.0
 10
-23.6528
 20
27.1267
 30
0.0
 10
-23.6528
 20
27.1267
 30
0.0
 10
-23.4214
 20
27.5077
 30
0.0
 10
-23.2226
 20
27.9072
 30
0.0
 10
-23.0579
 20
28.3215
 30
0.0
 10
-23.0579
 20
28.3215
 30
0.0
 10
-22.7698
 20
28.0216
 30
0.0
 10
-22.4853
 20
27.7179
 30
0.0
 10
-22.2056
 20
27.4098
 30
0.0
 10
-22.2056
 20
27.4098
 30
0.0
 10
-21.9229
 20
27.0983
 30
0.0
 10
-21.6346
 20
26.7917
 30
0.0
 10
-21.3413
 20
26.4901
 30
0.0
 10
-21.3413
 20
26.4901
 30
0.0
 10
-20.4382
 20
25.5877
 30
0.0
 10
-19.5147
 20
24.7061
 30
0.0
 10
-18.571
 20
23.8464
 30
0.0
 10
-18.571
 20
23.8464
 30
0.0
 10
-17.5805
 20
22.9448
 30
0.0
 10
-17.0424
 20
21.6481
 30
0.0
 10
-17.1016
 20
20.3103
 30
0.0
 10
-17.1016
 20
20.3103
 30
0.0
 10
-17.1909
 20
18.2934
 30
0.0
 10
-17.646
 20
16.3089
 30
0.0
 10
-18.4438
 20
14.4543
 30
0.0
 10
-18.4438
 20
14.4543
 30
0.0
 10
-19.2392
 20
12.6056
 30
0.0
 10
-20.2922
 20
10.8782
 30
0.0
 10
-21.5702
 20
9.3241
 30
0.0
 10
-21.5702
 20
9.3241
 30
0.0
 10
-22.1951
 20
11.042
 30
0.0
 10
-23.1384
 20
12.6262
 30
0.0
 10
-24.3521
 20
13.9933
 30
0.0
 10
-24.3521
 20
13.9933
 30
0.0
 10
-28.3308
 20
18.4776
 30
0.0
 10
-32.6415
 20
22.6544
 30
0.0
 10
-37.2488
 20
26.4901
 30
0.0
 10
-37.2488
 20
26.4901
 30
0.0
 10
-39.1889
 20
28.0859
 30
0.0
 10
-41.2133
 20
29.5757
 30
0.0
 10
-43.3142
 20
30.9536
 30
0.0
 10
-43.3142
 20
30.9536
 30
0.0
 10
-41.6062
 20
32.6124
 30
0.0
 10
-39.8108
 20
34.179
 30
0.0
 10
-37.9354
 20
35.6457
 30
0.0
 10
-37.9354
 20
35.6457
 30
0.0
 10
-34.1953
 20
38.5712
 30
0.0
 10
-30.2134
 20
41.1747
 30
0.0
 10
-26.0333
 20
43.4277
 30
0.0
 10
-26.0333
 20
43.4277
 30
0.0
 10
-20.7322
 20
46.2359
 30
0.0
 10
-15.0351
 20
48.2272
 30
0.0
 10
-9.1388
 20
49.3335
 30
0.0
 10
-9.1388
 20
49.3335
 30
0.0
 10
-6.1236
 20
49.899
 30
0.0
 10
-3.0332
 20
49.9479
 30
0.0
 10
-0.0016
 20
49.4786
 30
0.0
 10
-0.0016
 20
49.4786
 30
0.0
 10
-0.0016
 20
49.4786
 30
0.0
 10
-0.0016
 20
38.9644
 30
0.0
 10
-0.0016
 20
38.9644
 30
0.0
 10
-0.0016
 20
38.9644
 30
0.0
 10
-0.0016
 20
38.9644
 30
0.0
 10
-0.0016
 20
38.9644
 30
0.0
 10
-0.0016
 20
38.9644
 30
0.0
  0
SPLINE
  5
65
330
1F
100
AcDbEntity
  8
layer 1
 62
     7
100
AcDbSpline
210
0.0
220
0.0
230
1.0
 70
    11
 71
     3
 72
    72
 73
    68
 74
     0
 42
0.0000000001
 43
0.0000000001
 12
1.0
 22
0.0
 32
0.0
 13
1.0
 23
0.0
 33
0.0
 40
0.0
 40
0.0
 40
0.0
 40
0.0
 40
0.0555555555555556
 40
0.0555555555555556
 40
0.0555555555555556
 40
0.0555555555555556
 40
0.1111111111111111
 40
0.1111111111111111
 40
0.1111111111111111
 40
0.1111111111111111
 40
0.1666666666666667
 40
0.1666666666666667
 40
0.1666666666666667
 40
0.1666666666666667
 40
0.2222222222222222
 40
0.2222222222222222
 40
0.2222222222222222
 40
0.2222222222222222
 40
0.2777777777777778
 40
0.2777777777777778
 40
0.2777777777777778
 40
0.2777777777777778
 40
0.3333333333333333
 40
0.3333333333333333
 40
0.3333333333333333
 40
0.3333333333333333
 40
0.3888888888888889
 40
0.3888888888888889
 40
0.3888888888888889
 40
0.3888888888888889
 40
0.4444444444444444
 40
0.4444444444444444
 40
0.4444444444444444
 40
0.4444444444444444
 40
0.5
 40
0.5
 40
0.5
 40
0.5
 40
0.5555555555555556
 40
0.5555555555555556
 40
0.5555555555555556
 40
0.5555555555555556
 40
0.6111111111111112
 40
0.6111111111111112
 40
0.6111111111111112
 40
0.6111111111111112
 40
0.6666666666666666
 40
0.6666666666666666
 40
0.6666666666666666
 40
0.6666666666666666
 40
0.7222222222222222
 40
0.7222222222222222
 40
0.7222222222222222
 40
0.7222222222222222
 40
0.7777777777777778
 40
0.7777777777777778
 40
0.7777777777777778
 40
0.7777777777777778
 40
0.8333333333333334
 40
0.8333333333333334
 40
0.8333333333333334
 40
0.8333333333333334
 40
0.8888888888888888
 40
0.8888888888888888
 40
0.8888888888888888
 40
0.8888888888888888
 40
1.0
 40
1.0
 40
1.0
 40
1.0
 10
-0.0016
 20
13.3324
 30
0.0
 10
-0.6214
 20
13.667
 30
0.0
 10
-1.2547
 20
13.9751
 30
0.0
 10
-1.9008
 20
14.2557
 30
0.0
 10
-1.9008
 20
14.2557
 30
0.0
 10
-3.2088
 20
14.8102
 30
0.0
 10
-4.5434
 20
15.2981
 30
0.0
 10
-5.9012
 20
15.7173
 30
0.0
 10
-5.9012
 20
15.7173
 30
0.0
 10
-4.714
 20
17.7016
 30
0.0
 10
-4.2467
 20
20.0327
 30
0.0
 10
-4.5788
 20
22.321
 30
0.0
 10
-4.5788
 20
22.321
 30
0.0
 10
-4.9122
 20
24.6222
 30
0.0
 10
-6.0971
 20
26.7123
 30
0.0
 10
-7.9009
 20
28.1794
 30
0.0
 10
-7.9009
 20
28.1794
 30
0.0
 10
-8.3859
 20
26.9991
 30
0.0
 10
-8.9581
 20
25.8564
 30
0.0
 10
-9.6121
 20
24.761
 30
0.0
 10
-9.6121
 20
24.761
 30
0.0
 10
-10.6255
 20
23.0634
 30
0.0
 10
-10.8772
 20
21.0196
 30
0.0
 10
-10.3047
 20
19.1271
 30
0.0
 10
-10.3047
 20
19.1271
 30
0.0
 10
-9.965
 20
18.0029
 30
0.0
 10
-9.5207
 20
16.9129
 30
0.0
 10
-8.9781
 20
15.871
 30
0.0
 10
-8.9781
 20
15.871
 30
0.0
 10
-10.032
 20
15.9892
 30
0.0
 10
-11.0983
 20
15.8348
 30
0.0
 10
-12.0749
 20
15.4216
 30
0.0
 10
-12.0749
 20
15.4216
 30
0.0
 10
-13.0413
 20
15.0134
 30
0.0
 10
-13.9415
 20
14.4652
 30
0.0
 10
-14.7476
 20
13.7942
 30
0.0
 10
-14.7476
 20
13.7942
 30
0.0
 10
-13.8006
 20
16.281
 30
0.0
 10
-13.2433
 20
18.8986
 30
0.0
 10
-13.095
 20
21.5556
 30
0.0
 10
-13.095
 20
21.5556
 30
0.0
 10
-12.9474
 20
24.2
 30
0.0
 10
-12.9883
 20
26.8515
 30
0.0
 10
-13.2176
 20
29.4902
 30
0.0
 10
-13.2176
 20
29.4902
 30
0.0
 10
-13.2511
 20
29.8754
 30
0.0
 10
-13.2995
 20
30.2595
 30
0.0
 10
-13.3631
 20
30.6413
 30
0.0
 10
-13.3631
 20
30.6413
 30
0.0
 10
-12.2183
 20
31.6449
 30
0.0
 10
-10.9978
 20
32.5595
 30
0.0
 10
-9.7129
 20
33.376
 30
0.0
 10
-9.7129
 20
33.376
 30
0.0
 10
-8.4276
 20
34.193
 30
0.0
 10
-7.0751
 20
34.8995
 30
0.0
 10
-5.6704
 20
35.4878
 30
0.0
 10
-5.6704
 20
35.4878
 30
0.0
 10
-3.8554
 20
36.2278
 30
0.0
 10
-1.948
 20
36.7194
 30
0.0
 10
-0.0016
 20
36.9493
 30
0.0
 10
-0.0016
 20
36.9493
 30
0.0
 10
-0.0016
 20
36.9493
 30
0.0
 10
-0.0016
 20
13.3324
 30
0.0
 10
-0.0016
 20
13.3324
 30
0.0
 10
-0.0016
 20
13.3324
 30
0.0
 10
-0.0016
 20
13.3324
 30
0.0
 10
-0.0016
 20
13.3324
 30
0.0
 10
-0.0016
 20
13.3324
 30
0.0
  0
SPLINE
  5
66
330
1F
100
AcDbEntity
  8
layer 1
 62
     7
100
AcDbSpline
210
0.0
220
0.0
230
1.0
 70
    11
 71
     3
 72
    68
 73
    64
 74
     0
 42
0.0000000001
 43
0.0000000001
 12
1.0
 22
0.0
 32
0.0
 13
1.0
 23
0.0
 33
0.0
 40
0.0
 40
0.0
 40
0.0
 40
0.0
 40
0.0588235294117647
 40
0.0588235294117647
 40
0.0588235294117647
 40
0.0588235294117647
 40
0.1176470588235294
 40
0.1176470588235294
 40
0.1176470588235294
 40
0.1176470588235294
 40
0.1764705882352941
 40
0.1764705882352941
 40
0.1764705882352941
 40
0.1764705882352941
 40
0.2352941176470588
 40
0.2352941176470588
 40
0.2352941176470588
 40
0.2352941176470588
 40
0.2941176470588235
 40
0.2941176470588235
 40
0.2941176470588235
 40
0.2941176470588235
 40
0.3529411764705883
 40
0.3529411764705883
 40
0.3529411764705883
 40
0.3529411764705883
 40
0.4117647058823529
 40
0.4117647058823529
 40
0.4117647058823529
 40
0.4117647058823529
 40
0.4705882352941176
 40
0.4705882352941176
 40
0.4705882352941176
 40
0.4705882352941176
 40
0.5294117647058824
 40
0.5294117647058824
 40
0.5294117647058824
 40
0.5294117647058824
 40
0.5882352941176471
 40
0.5882352941176471
 40
0.5882352941176471
 40
0.5882352941176471
 40
0.6470588235294118
 40
0.6470588235294118
 40
0.6470588235294118
 40
0.6470588235294118
 40
0.7058823529411765
 40
0.7058823529411765
 40
0.7058823529411765
 40
0.7058823529411765
 40
0.7647058823529411
 40
0.7647058823529411
 40
0.7647058823529411
 40
0.7647058823529411
 40
0.8235294117647058
 40
0.8235294117647058
 40
0.8235294117647058
 40
0.8235294117647058
 40
0.8823529411764706
 40
0.8823529411764706
 40
0.8823529411764706
 40
0.8823529411764706
 40
1.0
 40
1.0
 40
1.0
 40
1.0
 10
-0.0016
 20
0.9421
 30
0.0
 10
-0.0016
 20
0.9421
 30
0.0
 10
-0.0016
 20
-17.2584
 30
0.0
 10
-0.0016
 20
-17.2584
 30
0.0
 10
-0.0016
 20
-17.2584
 30
0.0
 10
-4.1467
 20
-17.9805
 30
0.0
 10
-8.2501
 20
-18.9232
 30
0.0
 10
-12.295
 20
-20.083
 30
0.0
 10
-12.295
 20
-20.083
 30
0.0
 10
-16.348
 20
-21.2457
 30
0.0
 10
-20.2667
 20
-22.8309
 30
0.0
 10
-23.9879
 20
-24.8138
 30
0.0
 10
-23.9879
 20
-24.8138
 30
0.0
 10
-24.8592
 20
-23.0828
 30
0.0
 10
-25.2058
 20
-21.1335
 30
0.0
 10
-24.9853
 20
-19.2083
 30
0.0
 10
-24.9853
 20
-19.2083
 30
0.0
 10
-24.7688
 20
-17.3175
 30
0.0
 10
-24.3535
 20
-15.4545
 30
0.0
 10
-23.747
 20
-13.6509
 30
0.0
 10
-23.747
 20
-13.6509
 30
0.0
 10
-23.4482
 20
-12.7624
 30
0.0
 10
-22.7273
 20
-12.0796
 30
0.0
 10
-21.8242
 20
-11.8285
 30
0.0
 10
-21.8242
 20
-11.8285
 30
0.0
 10
-19.9831
 20
-11.3166
 30
0.0
 10
-18.0617
 20
-11.1514
 30
0.0
 10
-16.16
 20
-11.341
 30
0.0
 10
-16.16
 20
-11.341
 30
0.0
 10
-14.5908
 20
-11.4975
 30
0.0
 10
-13.0236
 20
-11.6792
 30
0.0
 10
-11.4605
 20
-11.885
 30
0.0
 10
-11.4605
 20
-11.885
 30
0.0
 10
-9.8955
 20
-12.0912
 30
0.0
 10
-8.3446
 20
-12.3949
 30
0.0
 10
-6.8173
 20
-12.794
 30
0.0
 10
-6.8173
 20
-12.794
 30
0.0
 10
-7.6903
 20
-11.6841
 30
0.0
 10
-8.6814
 20
-10.6725
 30
0.0
 10
-9.7736
 20
-9.7775
 30
0.0
 10
-9.7736
 20
-9.7775
 30
0.0
 10
-10.8742
 20
-8.8754
 30
0.0
 10
-12.1463
 20
-8.208
 30
0.0
 10
-13.5139
 20
-7.8148
 30
0.0
 10
-13.5139
 20
-7.8148
 30
0.0
 10
-15.3135
 20
-7.3264
 30
0.0
 10
-17.2094
 20
-7.3264
 30
0.0
 10
-19.0086
 20
-7.8148
 30
0.0
 10
-19.0086
 20
-7.8148
 30
0.0
 10
-16.8137
 20
-5.2491
 30
0.0
 10
-14.1278
 20
-3.1474
 30
0.0
 10
-11.1101
 20
-1.6334
 30
0.0
 10
-11.1101
 20
-1.6334
 30
0.0
 10
-9.3861
 20
-0.7929
 30
0.0
 10
-7.5671
 20
-0.1613
 30
0.0
 10
-5.6931
 20
0.2465
 30
0.0
 10
-5.6931
 20
0.2465
 30
0.0
 10
-3.8219
 20
0.6542
 30
0.0
 10
-1.9162
 20
0.8869
 30
0.0
 10
-0.0016
 20
0.9421
 30
0.0
 10
-0.0016
 20
0.9421
 30
0.0
 10
-0.0016
 20
0.9421
 30
0.0
 10
-0.0016
 20
0.9421
 30
0.0
 10
-0.0016
 20
0.9421
 30
0.0
  0
SPLINE
  5
67
330
1F
100
AcDbEntity
  8
layer 1
 62
     7
100
AcDbSpline
210
0.0
220
0.0
230
1.0
 70
    11
 71
     3
 72
    60
 73
    56
 74
     0
 42
0.0000000001
 43
0.0000000001
 12
1.0
 22
0.0
 32
0.0
 13
1.0
 23
0.0
 33
0.0
 40
0.0
 40
0.0
 40
0.0
 40
0.0
 40
0.0666666666666667
 40
0.0666666666666667
 40
0.0666666666666667
 40
0.0666666666666667
 40
0.1333333333333333
 40
0.1333333333333333
 40
0.1333333333333333
 40
0.1333333333333333
 40
0.2
 40
0.2
 40
0.2
 40
0.2
 40
0.2666666666666667
 40
0.2666666666666667
 40
0.2666666666666667
 40
0.2666666666666667
 40
0.3333333333333333
 40
0.3333333333333333
 40
0.3333333333333333
 40
0.3333333333333333
 40
0.4
 40
0.4
 40
0.4
 40
0.4
 40
0.4666666666666667
 40
0.4666666666666667
 40
0.4666666666666667
 40
0.4666666666666667
 40
0.5333333333333333
 40
0.5333333333333333
 40
0.5333333333333333
 40
0.5333333333333333
 40
0.6
 40
0.6
 40
0.6
 40
0.6
 40
0.6666666666666666
 40
0.6666666666666666
 40
0.6666666666666666
 40
0.6666666666666666
 40
0.7333333333333333
 40
0.7333333333333333
 40
0.7333333333333333
 40
0.7333333333333333
 40
0.8
 40
0.8
 40
0.8
 40
0.8
 40
0.8666666666666667
 40
0.8666666666666667
 40
0.8666666666666667
 40
0.8666666666666667
 40
1.0
 40
1.0
 40
1.0
 40
1.0
 10
-80.5944
 20
7.7507
 30
0.0
 10
-76.451
 20
14.3618
 30
0.0
 10
-70.5774
 20
19.7173
 30
0.0
 10
-63.614
 20
23.2365
 30
0.0
 10
-63.614
 20
23.2365
 30
0.0
 10
-60.3865
 20
24.8676
 30
0.0
 10
-56.7565
 20
25.5361
 30
0.0
 10
-53.1594
 20
25.1635
 30
0.0
 10
-53.1594
 20
25.1635
 30
0.0
 10
-55.7287
 20
24.6172
 30
0.0
 10
-58.1794
 20
23.6179
 30
0.0
 10
-60.3983
 20
22.2115
 30
0.0
 10
-60.3983
 20
22.2115
 30
0.0
 10
-62.6058
 20
20.8126
 30
0.0
 10
-64.6567
 20
19.1811
 30
0.0
 10
-66.5163
 20
17.3448
 30
0.0
 10
-66.5163
 20
17.3448
 30
0.0
 10
-68.3275
 20
15.5566
 30
0.0
 10
-69.7681
 20
13.4299
 30
0.0
 10
-70.7575
 20
11.0852
 30
0.0
 10
-70.7575
 20
11.0852
 30
0.0
 10
-71.8177
 20
8.5708
 30
0.0
 10
-72.2625
 20
5.8405
 30
0.0
 10
-72.054
 20
3.1199
 30
0.0
 10
-72.054
 20
3.1199
 30
0.0
 10
-72.6352
 20
3.6631
 30
0.0
 10
-73.3393
 20
4.0569
 30
0.0
 10
-74.1061
 20
4.268
 30
0.0
 10
-74.1061
 20
4.268
 30
0.0
 10
-74.672
 20
4.4196
 30
0.0
 10
-75.2592
 20
4.4722
 30
0.0
 10
-75.8429
 20
4.4234
 30
0.0
 10
-75.8429
 20
4.4234
 30
0.0
 10
-76.4238
 20
4.3751
 30
0.0
 10
-76.9977
 20
4.2667
 30
0.0
 10
-77.5562
 20
4.0995
 30
0.0
 10
-77.5562
 20
4.0995
 30
0.0
 10
-76.7675
 20
3.9163
 30
0.0
 10
-76.0384
 20
3.5346
 30
0.0
 10
-75.4384
 20
2.9906
 30
0.0
 10
-75.4384
 20
2.9906
 30
0.0
 10
-74.8323
 20
2.441
 30
0.0
 10
-74.4233
 20
1.707
 30
0.0
 10
-74.2746
 20
0.9025
 30
0.0
 10
-74.2746
 20
0.9025
 30
0.0
 10
-75.3918
 20
0.8265
 30
0.0
 10
-76.4465
 20
0.3625
 30
0.0
 10
-77.2567
 20
-0.41
 30
0.0
 10
-77.2567
 20
-0.41
 30
0.0
 10
-78.6175
 20
-1.7065
 30
0.0
 10
-79.7463
 20
-3.226
 30
0.0
 10
-80.5944
 20
-4.9034
 30
0.0
 10
-80.5944
 20
-4.9034
 30
0.0
 10
-80.5944
 20
-4.9034
 30
0.0
 10
-80.5944
 20
7.7507
 30
0.0
 10
-80.5944
 20
7.7507
 30
0.0
  0
SPLINE
  5
68
330
1F
100
AcDbEntity
  8
layer 1
 62
     7
100
AcDbSpline
210
0.0
220
0.0
230
1.0
 70
    11
 71
     3
 72
    96
 73
    92
 74
     0
 42
0.0000000001
 43
0.0000000001
 12
1.0
 22
0.0
 32
0.0
 13
1.0
 23
0.0
 33
0.0
 40
0.0
 40
0.0
 40
0.0
 40
0.0
 40
0.0416666666666667
 40
0.0416666666666667
 40
0.0416666666666667
 40
0.0416666666666667
 40
0.0833333333333333
 40
0.0833333333333333
 40
0.0833333333333333
 40
0.0833333333333333
 40
0.125
 40
0.125
 40
0.125
 40
0.125
 40
0.1666666666666667
 40
0.1666666666666667
 40
0.1666666666666667
 40
0.1666666666666667
 40
0.2083333333333333
 40
0.2083333333333333
 40
0.2083333333333333
 40
0.2083333333333333
 40
0.25
 40
0.25
 40
0.25
 40
0.25
 40
0.2916666666666667
 40
0.2916666666666667
 40
0.2916666666666667
 40
0.2916666666666667
 40
0.3333333333333333
 40
0.3333333333333333
 40
0.3333333333333333
 40
0.3333333333333333
 40
0.375
 40
0.375
 40
0.375
 40
0.375
 40
0.4166666666666667
 40
0.4166666666666667
 40
0.4166666666666667
 40
0.4166666666666667
 40
0.4583333333333333
 40
0.4583333333333333
 40
0.4583333333333333
 40
0.4583333333333333
 40
0.5
 40
0.5
 40
0.5
 40
0.5
 40
0.5416666666666666
 40
0.5416666666666666
 40
0.5416666666666666
 40
0.5416666666666666
 40
0.5833333333333334
 40
0.5833333333333334
 40
0.5833333333333334
 40
0.5833333333333334
 40
0.625
 40
0.625
 40
0.625
 40
0.625
 40
0.6666666666666666
 40
0.6666666666666666
 40
0.6666666666666666
 40
0.6666666666666666
 40
0.7083333333333334
 40
0.7083333333333334
 40
0.7083333333333334
 40
0.7083333333333334
 40
0.75
 40
0.75
 40
0.75
 40
0.75
 40
0.7916666666666666
 40
0.7916666666666666
 40
0.7916666666666666
 40
0.7916666666666666
 40
0.8333333333333334
 40
0.8333333333333334
 40
0.8333333333333334
 40
0.8333333333333334
 40
0.875
 40
0.875
 40
0.875
 40
0.875
 40
0.9166666666666666
 40
0.9166666666666666
 40
0.9166666666666666
 40
0.9166666666666666
 40
1.0
 40
1.0
 40
1.0
 40
1.0
 10
-80.5944
 20
-12.6895
 30
0.0
 10
-78.6164
 20
-13.0389
 30
0.0
 10
-76.6639
 20
-13.5199
 30
0.0
 10
-74.7501
 20
-14.1292
 30
0.0
 10
-74.7501
 20
-14.1292
 30
0.0
 10
-67.4529
 20
-16.4515
 30
0.0
 10
-60.5592
 20
-19.8951
 30
0.0
 10
-54.3194
 20
-24.3346
 30
0.0
 10
-54.3194
 20
-24.3346
 30
0.0
 10
-50.1555
 20
-27.3313
 30
0.0
 10
-46.3554
 20
-30.8057
 30
0.0
 10
-42.9984
 20
-34.685
 30
0.0
 10
-42.9984
 20
-34.685
 30
0.0
 10
-43.7881
 20
-35.018
 30
0.0
 10
-44.5296
 20
-35.4548
 30
0.0
 10
-45.2034
 20
-35.9847
 30
0.0
 10
-45.2034
 20
-35.9847
 30
0.0
 10
-45.8805
 20
-36.5169
 30
0.0
 10
-46.4495
 20
-37.1735
 30
0.0
 10
-46.8796
 20
-37.9195
 30
0.0
 10
-46.8796
 20
-37.9195
 30
0.0
 10
-47.2816
 20
-37.2396
 30
0.0
 10
-47.7525
 20
-36.6028
 30
0.0
 10
-48.2843
 20
-36.019
 30
0.0
 10
-48.2843
 20
-36.019
 30
0.0
 10
-48.818
 20
-35.4337
 30
0.0
 10
-49.4344
 20
-34.9297
 30
0.0
 10
-50.1142
 20
-34.5231
 30
0.0
 10
-50.1142
 20
-34.5231
 30
0.0
 10
-51.2522
 20
-33.8679
 30
0.0
 10
-52.524
 20
-33.4808
 30
0.0
 10
-53.834
 20
-33.3911
 30
0.0
 10
-53.834
 20
-33.3911
 30
0.0
 10
-53.2782
 20
-33.1535
 30
0.0
 10
-52.747
 20
-32.862
 30
0.0
 10
-52.2479
 20
-32.5206
 30
0.0
 10
-52.2479
 20
-32.5206
 30
0.0
 10
-51.7477
 20
-32.1778
 30
0.0
 10
-51.301
 20
-31.7629
 30
0.0
 10
-50.923
 20
-31.2886
 30
0.0
 10
-50.923
 20
-31.2886
 30
0.0
 10
-52.309
 20
-31.2288
 30
0.0
 10
-53.6952
 20
-31.3836
 30
0.0
 10
-55.0338
 20
-31.7477
 30
0.0
 10
-55.0338
 20
-31.7477
 30
0.0
 10
-56.3669
 20
-32.11
 30
0.0
 10
-57.6659
 20
-32.5859
 30
0.0
 10
-58.9181
 20
-33.1693
 30
0.0
 10
-58.9181
 20
-33.1693
 30
0.0
 10
-60.1915
 20
-33.7634
 30
0.0
 10
-61.3673
 20
-34.5467
 30
0.0
 10
-62.4058
 20
-35.4933
 30
0.0
 10
-62.4058
 20
-35.4933
 30
0.0
 10
-63.5561
 20
-36.5423
 30
0.0
 10
-64.4901
 20
-37.8056
 30
0.0
 10
-65.155
 20
-39.2132
 30
0.0
 10
-65.155
 20
-39.2132
 30
0.0
 10
-64.9
 20
-36.4446
 30
0.0
 10
-64.9541
 20
-33.656
 30
0.0
 10
-65.3172
 20
-30.8994
 30
0.0
 10
-65.3172
 20
-30.8994
 30
0.0
 10
-65.6371
 20
-28.4722
 30
0.0
 10
-65.1838
 20
-26.0045
 30
0.0
 10
-64.023
 20
-23.8492
 30
0.0
 10
-64.023
 20
-23.8492
 30
0.0
 10
-64.7652
 20
-24.3932
 30
0.0
 10
-65.4197
 20
-25.0476
 30
0.0
 10
-65.9639
 20
-25.7901
 30
0.0
 10
-65.9639
 20
-25.7901
 30
0.0
 10
-66.5248
 20
-26.5812
 30
0.0
 10
-66.9609
 20
-27.4539
 30
0.0
 10
-67.2577
 20
-28.3776
 30
0.0
 10
-67.2577
 20
-28.3776
 30
0.0
 10
-67.6264
 20
-27.3345
 30
0.0
 10
-68.1502
 20
-26.3537
 30
0.0
 10
-68.8121
 20
-25.4675
 30
0.0
 10
-68.8121
 20
-25.4675
 30
0.0
 10
-69.4726
 20
-24.5828
 30
0.0
 10
-70.2404
 20
-23.7839
 30
0.0
 10
-71.098
 20
-23.0891
 30
0.0
 10
-71.098
 20
-23.0891
 30
0.0
 10
-72.2939
 20
-22.1429
 30
0.0
 10
-73.5611
 20
-21.2918
 30
0.0
 10
-74.8895
 20
-20.5433
 30
0.0
 10
-74.8895
 20
-20.5433
 30
0.0
 10
-76.718
 20
-19.5244
 30
0.0
 10
-78.6257
 20
-18.6547
 30
0.0
 10
-80.5944
 20
-17.9434
 30
0.0
 10
-80.5944
 20
-17.9434
 30
0.0
 10
-80.5944
 20
-17.9434
 30
0.0
 10
-80.5944
 20
-12.6895
 30
0.0
 10
-80.5944
 20
-12.6895
 30
0.0
  0
SPLINE
  5
69
330
1F
100
AcDbEntity
  8
layer 1
 62
     7
100
AcDbSpline
210
0.0
220
0.0
230
1.0
 70
    11
 71
     3
 72
    72
 73
    68
 74
     0
 42
0.0000000001
 43
0.0000000001
 12
1.0
 22
0.0
 32
0.0
 13
1.0
 23
0.0
 33
0.0
 40
0.0
 40
0.0
 40
0.0
 40
0.0
 40
0.0555555555555556
 40
0.0555555555555556
 40
0.0555555555555556
 40
0.0555555555555556
 40
0.1111111111111111
 40
0.1111111111111111
 40
0.1111111111111111
 40
0.1111111111111111
 40
0.1666666666666667
 40
0.1666666666666667
 40
0.1666666666666667
 40
0.1666666666666667
 40
0.2222222222222222
 40
0.2222222222222222
 40
0.2222222222222222
 40
0.2222222222222222
 40
0.2777777777777778
 40
0.2777777777777778
 40
0.2777777777777778
 40
0.2777777777777778
 40
0.3333333333333333
 40
0.3333333333333333
 40
0.3333333333333333
 40
0.3333333333333333
 40
0.3888888888888889
 40
0.3888888888888889
 40
0.3888888888888889
 40
0.3888888888888889
 40
0.4444444444444444
 40
0.4444444444444444
 40
0.4444444444444444
 40
0.4444444444444444
 40
0.5
 40
0.5
 40
0.5
 40
0.5
 40
0.5555555555555556
 40
0.5555555555555556
 40
0.5555555555555556
 40
0.5555555555555556
 40
0.6111111111111112
 40
0.6111111111111112
 40
0.6111111111111112
 40
0.6111111111111112
 40
0.6666666666666666
 40
0.6666666666666666
 40
0.6666666666666666
 40
0.6666666666666666
 40
0.7222222222222222
 40
0.7222222222222222
 40
0.7222222222222222
 40
0.7222222222222222
 40
0.7777777777777778
 40
0.7777777777777778
 40
0.7777777777777778
 40
0.7777777777777778
 40
0.8333333333333334
 40
0.8333333333333334
 40
0.8333333333333334
 40
0.8333333333333334
 40
0.8888888888888888
 40
0.8888888888888888
 40
0.8888888888888888
 40
0.8888888888888888
 40
1.0
 40
1.0
 40
1.0
 40
1.0
 10
-80.5944
 20
-20.0135
 30
0.0
 10
-79.2819
 20
-20.4911
 30
0.0
 10
-78.0436
 20
-21.1518
 30
0.0
 10
-76.9162
 20
-21.9759
 30
0.0
 10
-76.9162
 20
-21.9759
 30
0.0
 10
-73.7085
 20
-24.3203
 30
0.0
 10
-70.9485
 20
-27.2242
 30
0.0
 10
-68.7694
 20
-30.5466
 30
0.0
 10
-68.7694
 20
-30.5466
 30
0.0
 10
-67.9086
 20
-31.8587
 30
0.0
 10
-67.5123
 20
-33.4225
 30
0.0
 10
-67.6441
 20
-34.9866
 30
0.0
 10
-67.6441
 20
-34.9866
 30
0.0
 10
-67.968
 20
-38.8304
 30
0.0
 10
-67.7772
 20
-42.6992
 30
0.0
 10
-67.0768
 20
-46.4926
 30
0.0
 10
-67.0768
 20
-46.4926
 30
0.0
 10
-66.9487
 20
-47.1867
 30
0.0
 10
-66.8105
 20
-47.8792
 30
0.0
 10
-66.6625
 20
-48.5697
 30
0.0
 10
-66.6625
 20
-48.5697
 30
0.0
 10
-66.5146
 20
-49.2603
 30
0.0
 10
-66.3398
 20
-49.9448
 30
0.0
 10
-66.1381
 20
-50.6217
 30
0.0
 10
-66.1381
 20
-50.6217
 30
0.0
 10
-66.9677
 20
-50.044
 30
0.0
 10
-67.8469
 20
-49.5413
 30
0.0
 10
-68.7662
 20
-49.1203
 30
0.0
 10
-68.7662
 20
-49.1203
 30
0.0
 10
-69.9144
 20
-48.6037
 30
0.0
 10
-71.1083
 20
-48.1953
 30
0.0
 10
-72.3324
 20
-47.9002
 30
0.0
 10
-72.3324
 20
-47.9002
 30
0.0
 10
-71.2724
 20
-46.0126
 30
0.0
 10
-70.6534
 20
-43.9105
 30
0.0
 10
-70.5212
 20
-41.7498
 30
0.0
 10
-70.5212
 20
-41.7498
 30
0.0
 10
-70.4626
 20
-40.7925
 30
0.0
 10
-70.6951
 20
-39.8406
 30
0.0
 10
-71.1884
 20
-39.0182
 30
0.0
 10
-71.1884
 20
-39.0182
 30
0.0
 10
-71.531
 20
-38.4475
 30
0.0
 10
-71.9053
 20
-37.8969
 30
0.0
 10
-72.3105
 20
-37.3688
 30
0.0
 10
-72.3105
 20
-37.3688
 30
0.0
 10
-72.7155
 20
-36.8401
 30
0.0
 10
-73.162
 20
-36.345
 30
0.0
 10
-73.6463
 20
-35.8872
 30
0.0
 10
-73.6463
 20
-35.8872
 30
0.0
 10
-74.2904
 20
-36.3637
 30
0.0
 10
-74.7857
 20
-37.0139
 30
0.0
 10
-75.0732
 20
-37.7619
 30
0.0
 10
-75.0732
 20
-37.7619
 30
0.0
 10
-76.3891
 20
-41.1847
 30
0.0
 10
-76.5478
 20
-44.9425
 30
0.0
 10
-75.5231
 20
-48.4634
 30
0.0
 10
-75.5231
 20
-48.4634
 30
0.0
 10
-76.4213
 20
-48.2787
 30
0.0
 10
-77.3492
 20
-48.2974
 30
0.0
 10
-78.2388
 20
-48.5182
 30
0.0
 10
-78.2388
 20
-48.5182
 30
0.0
 10
-79.1353
 20
-48.7403
 30
0.0
 10
-79.9512
 20
-49.2087
 30
0.0
 10
-80.5944
 20
-49.8713
 30
0.0
 10
-80.5944
 20
-49.8713
 30
0.0
 10
-80.5944
 20
-49.8713
 30
0.0
 10
-80.5944
 20
-20.0135
 30
0.0
 10
-80.5944
 20
-20.0135
 30
0.0
  0
SPLINE
  5
6A
330
1F
100
AcDbEntity
  8
layer 1
 62
     7
100
AcDbSpline
210
0.0
220
0.0
230
1.0
 70
    11
 71
     3
 72
    72
 73
    68
 74
     0
 42
0.0000000001
 43
0.0000000001
 12
1.0
 22
0.0
 32
0.0
 13
1.0
 23
0.0
 33
0.0
 40
0.0
 40
0.0
 40
0.0
 40
0.0
 40
0.0555555555555556
 40
0.0555555555555556
 40
0.0555555555555556
 40
0.0555555555555556
 40
0.1111111111111111
 40
0.1111111111111111
 40
0.1111111111111111
 40
0.1111111111111111
 40
0.1666666666666667
 40
0.1666666666666667
 40
0.1666666666666667
 40
0.1666666666666667
 40
0.2222222222222222
 40
0.2222222222222222
 40
0.2222222222222222
 40
0.2222222222222222
 40
0.2777777777777778
 40
0.2777777777777778
 40
0.2777777777777778
 40
0.2777777777777778
 40
0.3333333333333333
 40
0.3333333333333333
 40
0.3333333333333333
 40
0.3333333333333333
 40
0.3888888888888889
 40
0.3888888888888889
 40
0.3888888888888889
 40
0.3888888888888889
 40
0.4444444444444444
 40
0.4444444444444444
 40
0.4444444444444444
 40
0.4444444444444444
 40
0.5
 40
0.5
 40
0.5
 40
0.5
 40
0.5555555555555556
 40
0.5555555555555556
 40
0.5555555555555556
 40
0.5555555555555556
 40
0.6111111111111112
 40
0.6111111111111112
 40
0.6111111111111112
 40
0.6111111111111112
 40
0.6666666666666666
 40
0.6666666666666666
 40
0.6666666666666666
 40
0.6666666666666666
 40
0.7222222222222222
 40
0.7222222222222222
 40
0.7222222222222222
 40
0.7222222222222222
 40
0.7777777777777778
 40
0.7777777777777778
 40
0.7777777777777778
 40
0.7777777777777778
 40
0.8333333333333334
 40
0.8333333333333334
 40
0.8333333333333334
 40
0.8333333333333334
 40
0.8888888888888888
 40
0.8888888888888888
 40
0.8888888888888888
 40
0.8888888888888888
 40
1.0
 40
1.0
 40
1.0
 40
1.0
 10
-0.0016
 20
-37.0387
 30
0.0
 10
-0.3499
 20
-36.5819
 30
0.0
 10
-0.777
 20
-36.1917
 30
0.0
 10
-1.2629
 20
-35.8865
 30
0.0
 10
-1.2629
 20
-35.8865
 30
0.0
 10
-1.7538
 20
-35.5778
 30
0.0
 10
-2.318
 20
-35.4065
 30
0.0
 10
-2.8974
 20
-35.3895
 30
0.0
 10
-2.8974
 20
-35.3895
 30
0.0
 10
-3.618
 20
-35.3688
 30
0.0
 10
-4.3385
 20
-35.3623
 30
0.0
 10
-5.059
 20
-35.3705
 30
0.0
 10
-5.059
 20
-35.3705
 30
0.0
 10
-5.7799
 20
-35.3787
 30
0.0
 10
-6.5
 20
-35.4188
 30
0.0
 10
-7.2171
 20
-35.4916
 30
0.0
 10
-7.2171
 20
-35.4916
 30
0.0
 10
-6.4446
 20
-34.6389
 30
0.0
 10
-5.4865
 20
-33.9746
 30
0.0
 10
-4.4169
 20
-33.5507
 30
0.0
 10
-4.4169
 20
-33.5507
 30
0.0
 10
-3.3584
 20
-33.1312
 30
0.0
 10
-2.2603
 20
-32.8189
 30
0.0
 10
-1.1397
 20
-32.6186
 30
0.0
 10
-1.1397
 20
-32.6186
 30
0.0
 10
-3.8215
 20
-31.9752
 30
0.0
 10
-6.6297
 20
-32.1108
 30
0.0
 10
-9.2366
 20
-33.0103
 30
0.0
 10
-9.2366
 20
-33.0103
 30
0.0
 10
-10.492
 20
-33.4437
 30
0.0
 10
-11.6147
 20
-34.1918
 30
0.0
 10
-12.4978
 20
-35.1837
 30
0.0
 10
-12.4978
 20
-35.1837
 30
0.0
 10
-13.1854
 20
-35.9556
 30
0.0
 10
-13.837
 20
-36.759
 30
0.0
 10
-14.4513
 20
-37.5911
 30
0.0
 10
-14.4513
 20
-37.5911
 30
0.0
 10
-15.0665
 20
-38.4241
 30
0.0
 10
-15.604
 20
-39.3118
 30
0.0
 10
-16.0572
 20
-40.2431
 30
0.0
 10
-16.0572
 20
-40.2431
 30
0.0
 10
-18.5805
 20
-38.7735
 30
0.0
 10
-21.4078
 20
-37.9064
 30
0.0
 10
-24.3209
 20
-37.7085
 30
0.0
 10
-24.3209
 20
-37.7085
 30
0.0
 10
-28.3775
 20
-37.4334
 30
0.0
 10
-32.4485
 20
-37.468
 30
0.0
 10
-36.4991
 20
-37.8121
 30
0.0
 10
-36.4991
 20
-37.8121
 30
0.0
 10
-34.5299
 20
-36.298
 30
0.0
 10
-32.5024
 20
-34.8602
 30
0.0
 10
-30.4217
 20
-33.5027
 30
0.0
 10
-30.4217
 20
-33.5027
 30
0.0
 10
-27.0335
 20
-31.2916
 30
0.0
 10
-23.5292
 20
-29.263
 30
0.0
 10
-19.9245
 20
-27.4253
 30
0.0
 10
-19.9245
 20
-27.4253
 30
0.0
 10
-13.4786
 20
-24.279
 30
0.0
 10
-6.8209
 20
-21.5835
 30
0.0
 10
-0.0016
 20
-19.3591
 30
0.0
 10
-0.0016
 20
-19.3591
 30
0.0
 10
-0.0016
 20
-19.3591
 30
0.0
 10
-0.0016
 20
-37.0389
 30
0.0
 10
-0.0016
 20
-37.0389
 30
0.0
 10
-0.0016
 20
-37.0389
 30
0.0
 10
-0.0016
 20
-37.0389
 30
0.0
 10
-0.0016
 20
-37.0387
 30
0.0
 10
-0.0016
 20
-37.0387
 30
0.0
  0
SPLINE
  5
6B
330
1F
100
AcDbEntity
  8
layer 1
 62
     7
100
AcDbSpline
210
0.0
220
0.0
230
1.0
 70
    11
 71
     3
 72
    44
 73
    40
 74
     0
 42
0.0000000001
 43
0.0000000001
 12
1.0
 22
0.0
 32
0.0
 13
1.0
 23
0.0
 33
0.0
 40
0.0
 40
0.0
 40
0.0
 40
0.0
 40
0.0909090909090909
 40
0.0909090909090909
 40
0.0909090909090909
 40
0.0909090909090909
 40
0.1818181818181818
 40
0.1818181818181818
 40
0.1818181818181818
 40
0.1818181818181818
 40
0.2727272727272727
 40
0.2727272727272727
 40
0.2727272727272727
 40
0.2727272727272727
 40
0.3636363636363636
 40
0.3636363636363636
 40
0.3636363636363636
 40
0.3636363636363636
 40
0.4545454545454545
 40
0.4545454545454545
 40
0.4545454545454545
 40
0.4545454545454545
 40
0.5454545454545454
 40
0.5454545454545454
 40
0.5454545454545454
 40
0.5454545454545454
 40
0.6363636363636364
 40
0.6363636363636364
 40
0.6363636363636364
 40
0.6363636363636364
 40
0.7272727272727273
 40
0.7272727272727273
 40
0.7272727272727273
 40
0.7272727272727273
 40
0.8181818181818182
 40
0.8181818181818182
 40
0.8181818181818182
 40
0.8181818181818182
 40
1.0
 40
1.0
 40
1.0
 40
1.0
 10
-0.0016
 20
-39.9708
 30
0.0
 10
-0.0016
 20
-39.9708
 30
0.0
 10
-0.0016
 20
-54.6118
 30
0.0
 10
-0.0016
 20
-54.6118
 30
0.0
 10
-0.0016
 20
-54.6118
 30
0.0
 10
-2.2041
 20
-51.1711
 30
0.0
 10
-4.8052
 20
-48.0036
 30
0.0
 10
-7.7514
 20
-45.1735
 30
0.0
 10
-7.7514
 20
-45.1735
 30
0.0
 10
-8.6079
 20
-44.3513
 30
0.0
 10
-9.6613
 20
-43.7638
 30
0.0
 10
-10.8112
 20
-43.4677
 30
0.0
 10
-10.8112
 20
-43.4677
 30
0.0
 10
-11.5292
 20
-42.3666
 30
0.0
 10
-11.6924
 20
-40.9922
 30
0.0
 10
-11.2541
 20
-39.753
 30
0.0
 10
-11.2541
 20
-39.753
 30
0.0
 10
-10.8285
 20
-38.5504
 30
0.0
 10
-10.0463
 20
-37.5052
 30
0.0
 10
-9.0123
 20
-36.7578
 30
0.0
 10
-9.0123
 20
-36.7578
 30
0.0
 10
-8.8486
 20
-36.6396
 30
0.0
 10
-8.6694
 20
-36.5438
 30
0.0
 10
-8.4801
 20
-36.4739
 30
0.0
 10
-8.4801
 20
-36.4739
 30
0.0
 10
-7.9327
 20
-37.4684
 30
0.0
 10
-7.1638
 20
-38.3232
 30
0.0
 10
-6.2321
 20
-38.9715
 30
0.0
 10
-6.2321
 20
-38.9715
 30
0.0
 10
-5.3292
 20
-39.5845
 30
0.0
 10
-4.3057
 20
-39.996
 30
0.0
 10
-3.2303
 20
-40.1786
 30
0.0
 10
-3.2303
 20
-40.1786
 30
0.0
 10
-2.1523
 20
-40.3612
 30
0.0
 10
-1.0474
 20
-40.2901
 30
0.0
 10
-0.0016
 20
-39.9708
 30
0.0
 10
-0.0016
 20
-39.9708
 30
0.0
 10
-0.0016
 20
-39.9708
 30
0.0
 10
-0.0016
 20
-39.9708
 30
0.0
 10
-0.0016
 20
-39.9708
 30
0.0
  0
SPLINE
  5
6C
330
1F
100
AcDbEntity
  8
layer 1
 62
     7
100
AcDbSpline
210
0.0
220
0.0
230
1.0
 70
    11
 71
     3
 72
    36
 73
    32
 74
     0
 42
0.0000000001
 43
0.0000000001
 12
1.0
 22
0.0
 32
0.0
 13
1.0
 23
0.0
 33
0.0
 40
0.0
 40
0.0
 40
0.0
 40
0.0
 40
0.1111111111111111
 40
0.1111111111111111
 40
0.1111111111111111
 40
0.1111111111111111
 40
0.2222222222222222
 40
0.2222222222222222
 40
0.2222222222222222
 40
0.2222222222222222
 40
0.3333333333333333
 40
0.3333333333333333
 40
0.3333333333333333
 40
0.3333333333333333
 40
0.4444444444444444
 40
0.4444444444444444
 40
0.4444444444444444
 40
0.4444444444444444
 40
0.5555555555555556
 40
0.5555555555555556
 40
0.5555555555555556
 40
0.5555555555555556
 40
0.6666666666666666
 40
0.6666666666666666
 40
0.6666666666666666
 40
0.6666666666666666
 40
0.7777777777777778
 40
0.7777777777777778
 40
0.7777777777777778
 40
0.7777777777777778
 40
1.0
 40
1.0
 40
1.0
 40
1.0
 10
-0.0016
 20
-70.6971
 30
0.0
 10
-2.5355
 20
-71.1015
 30
0.0
 10
-5.0371
 20
-71.6836
 30
0.0
 10
-7.489
 20
-72.4397
 30
0.0
 10
-7.489
 20
-72.4397
 30
0.0
 10
-9.965
 20
-73.2069
 30
0.0
 10
-12.3836
 20
-74.1475
 30
0.0
 10
-14.7272
 20
-75.2544
 30
0.0
 10
-14.7272
 20
-75.2544
 30
0.0
 10
-15.1185
 20
-73.8876
 30
0.0
 10
-14.7472
 20
-72.4144
 30
0.0
 10
-13.7565
 20
-71.3948
 30
0.0
 10
-13.7565
 20
-71.3948
 30
0.0
 10
-12.8312
 20
-70.4429
 30
0.0
 10
-11.8575
 20
-69.539
 30
0.0
 10
-10.8399
 20
-68.6863
 30
0.0
 10
-10.8399
 20
-68.6863
 30
0.0
 10
-9.6936
 20
-67.7261
 30
0.0
 10
-8.5494
 20
-66.7639
 30
0.0
 10
-7.4064
 20
-65.7993
 30
0.0
 10
-7.4064
 20
-65.7993
 30
0.0
 10
-5.3162
 20
-64.0351
 30
0.0
 10
-2.7272
 20
-62.9646
 30
0.0
 10
-0.0016
 20
-62.7361
 30
0.0
 10
-0.0016
 20
-62.7361
 30
0.0
 10
-0.0016
 20
-62.7361
 30
0.0
 10
-0.0016
 20
-70.6971
 30
0.0
 10
-0.0016
 20
-70.6971
 30
0.0
 10
-0.0016
 20
-70.6971
 30
0.0
 10
-0.0016
 20
-70.6971
 30
0.0
 10
-0.0016
 20
-70.6971
 30
0.0
 10
-0.0016
 20
-70.6971
 30
0.0
  0
SPLINE
  5
6D
330
1F
100
AcDbEntity
  8
layer 1
 62
     7
100
AcDbSpline
210
0.0
220
0.0
230
1.0
 70
    11
 71
     3
 72
    80
 73
    76
 74
     0
 42
0.0000000001
 43
0.0000000001
 12
1.0
 22
0.0
 32
0.0
 13
1.0
 23
0.0
 33
0.0
 40
0.0
 40
0.0
 40
0.0
 40
0.0
 40
0.05
 40
0.05
 40
0.05
 40
0.05
 40
0.1
 40
0.1
 40
0.1
 40
0.1
 40
0.15
 40
0.15
 40
0.15
 40
0.15
 40
0.2
 40
0.2
 40
0.2
 40
0.2
 40
0.25
 40
0.25
 40
0.25
 40
0.25
 40
0.3
 40
0.3
 40
0.3
 40
0.3
 40
0.35
 40
0.35
 40
0.35
 40
0.35
 40
0.4
 40
0.4
 40
0.4
 40
0.4
 40
0.45
 40
0.45
 40
0.45
 40
0.45
 40
0.5
 40
0.5
 40
0.5
 40
0.5
 40
0.55
 40
0.55
 40
0.55
 40
0.55
 40
0.6
 40
0.6
 40
0.6
 40
0.6
 40
0.65
 40
0.65
 40
0.65
 40
0.65
 40
0.7
 40
0.7
 40
0.7
 40
0.7
 40
0.75
 40
0.75
 40
0.75
 40
0.75
 40
0.8
 40
0.8
 40
0.8
 40
0.8
 40
0.85
 40
0.85
 40
0.85
 40
0.85
 40
0.9
 40
0.9
 40
0.9
 40
0.9
 40
1.0
 40
1.0
 40
1.0
 40
1.0
 10
-0.0016
 20
-73.1498
 30
0.0
 10
-0.0016
 20
-73.1498
 30
0.0
 10
-0.0016
 20
-101.0758
 30
0.0
 10
-0.0016
 20
-101.0758
 30
0.0
 10
-0.0016
 20
-101.0758
 30
0.0
 10
-0.0016
 20
-101.0758
 30
0.0
 10
-23.5507
 20
-101.0758
 30
0.0
 10
-23.5507
 20
-101.0758
 30
0.0
 10
-23.5507
 20
-101.0758
 30
0.0
 10
-23.7925
 20
-100.3692
 30
0.0
 10
-23.8003
 20
-99.6028
 30
0.0
 10
-23.573
 20
-98.8914
 30
0.0
 10
-23.573
 20
-98.8914
 30
0.0
 10
-23.3409
 20
-98.1644
 30
0.0
 10
-22.8012
 20
-97.5753
 30
0.0
 10
-22.0973
 20
-97.2805
 30
0.0
 10
-22.0973
 20
-97.2805
 30
0.0
 10
-21.5466
 20
-97.0496
 30
0.0
 10
-20.9938
 20
-96.8241
 30
0.0
 10
-20.439
 20
-96.6044
 30
0.0
 10
-20.439
 20
-96.6044
 30
0.0
 10
-19.8809
 20
-96.3833
 30
0.0
 10
-19.2942
 20
-96.2436
 30
0.0
 10
-18.6971
 20
-96.1887
 30
0.0
 10
-18.6971
 20
-96.1887
 30
0.0
 10
-16.6517
 20
-97.1884
 30
0.0
 10
-14.3397
 20
-97.4999
 30
0.0
 10
-12.1033
 20
-97.0764
 30
0.0
 10
-12.1033
 20
-97.0764
 30
0.0
 10
-9.8997
 20
-96.6588
 30
0.0
 10
-7.8095
 20
-95.7829
 30
0.0
 10
-5.9671
 20
-94.5039
 30
0.0
 10
-5.9671
 20
-94.5039
 30
0.0
 10
-5.0291
 20
-93.8527
 30
0.0
 10
-4.2376
 20
-93.0128
 30
0.0
 10
-3.6431
 20
-92.0373
 30
0.0
 10
-3.6431
 20
-92.0373
 30
0.0
 10
-3.0361
 20
-91.0405
 30
0.0
 10
-2.8097
 20
-89.8588
 30
0.0
 10
-3.006
 20
-88.708
 30
0.0
 10
-3.006
 20
-88.708
 30
0.0
 10
-3.5707
 20
-88.2647
 30
0.0
 10
-4.1852
 20
-87.8886
 30
0.0
 10
-4.8375
 20
-87.5878
 30
0.0
 10
-4.8375
 20
-87.5878
 30
0.0
 10
-5.4977
 20
-87.2829
 30
0.0
 10
-6.2232
 20
-87.1483
 30
0.0
 10
-6.9486
 20
-87.1957
 30
0.0
 10
-6.9486
 20
-87.1957
 30
0.0
 10
-7.624
 20
-87.2397
 30
0.0
 10
-8.2996
 20
-87.2772
 30
0.0
 10
-8.9754
 20
-87.3073
 30
0.0
 10
-8.9754
 20
-87.3073
 30
0.0
 10
-9.6609
 20
-87.338
 30
0.0
 10
-10.3435
 20
-87.2062
 30
0.0
 10
-10.9688
 20
-86.9236
 30
0.0
 10
-10.9688
 20
-86.9236
 30
0.0
 10
-12.817
 20
-86.0873
 30
0.0
 10
-14.7653
 20
-85.4933
 30
0.0
 10
-16.7657
 20
-85.156
 30
0.0
 10
-16.7657
 20
-85.156
 30
0.0
 10
-18.7691
 20
-84.8186
 30
0.0
 10
-20.8108
 20
-84.7798
 30
0.0
 10
-22.8252
 20
-85.0416
 30
0.0
 10
-22.8252
 20
-85.0416
 30
0.0
 10
-19.3692
 20
-82.4707
 30
0.0
 10
-15.673
 20
-80.2377
 30
0.0
 10
-11.7889
 20
-78.3753
 30
0.0
 10
-11.7889
 20
-78.3753
 30
0.0
 10
-7.9129
 20
-76.5168
 30
0.0
 10
-3.9818
 20
-74.774
 30
0.0
 10
-0.0016
 20
-73.1502
 30
0.0
 10
-0.0016
 20
-73.1502
 30
0.0
 10
-0.0016
 20
-73.1502
 30
0.0
 10
-0.0016
 20
-73.1498
 30
0.0
 10
-0.0016
 20
-73.1498
 30
0.0
  0
ENDSEC
  0
SECTION
  2
OBJECTS
  0
DICTIONARY
  5
C
330
0
100
AcDbDictionary
281
     1
  3
ACAD_GROUP
350
D
  3
ACAD_LAYOUT
350
1A
  3
ACAD_MATERIAL
350
3B
  3
ACAD_MLEADERSTYLE
350
8F
  3
ACAD_MLINESTYLE
350
17
  3
ACAD_PLOTSETTINGS
350
19
  3
ACAD_PLOTSTYLENAME
350
E
  3
ACAD_TABLESTYLE
350
8E
  3
ACAD_VISUALSTYLE
350
2A
  0
DICTIONARY
  5
D
102
{ACAD_REACTORS
330
C
102
}
330
C
100
AcDbDictionary
281
     1
  0
DICTIONARY
  5
1A
102
{ACAD_REACTORS
330
C
102
}
330
C
100
AcDbDictionary
281
     1
  3
Layout1
350
1E
  3
Layout2
350
26
  3
Model
350
22
  0
DICTIONARY
  5
3B
102
{ACAD_REACTORS
330
C
102
}
330
C
100
AcDbDictionary
281
     1
  3
ByBlock
350
3D
  3
ByLayer
350
3C
  3
Global
350
3E
  0
DICTIONARY
  5
8F
102
{ACAD_REACTORS
330
C
102
}
330
C
100
AcDbDictionary
281
     1
  0
DICTIONARY
  5
17
102
{ACAD_REACTORS
330
C
102
}
330
C
100
AcDbDictionary
281
     1
  3
Standard
350
18
  0
DICTIONARY
  5
19
102
{ACAD_REACTORS
330
C
102
}
330
C
100
AcDbDictionary
281
     1
  0
ACDBDICTIONARYWDFLT
  5
E
102
{ACAD_REACTORS
330
C
102
}
330
C
100
AcDbDictionary
281
     1
  3
Normal
350
F
100
AcDbDictionaryWithDefault
340
F
  0
DICTIONARY
  5
8E
102
{ACAD_REACTORS
330
C
102
}
330
C
100
AcDbDictionary
281
     1
  0
DICTIONARY
  5
2A
102
{ACAD_REACTORS
330
C
102
}
330
C
100
AcDbDictionary
281
     1
  3
2dWireframe
350
2F
  3
3D Hidden
350
31
  3
3dWireframe
350
30
  3
Basic
350
32
  3
Brighten
350
36
  3
ColorChange
350
3A
  3
Conceptual
350
34
  3
Dim
350
35
  3
Facepattern
350
39
  3
Flat
350
2B
  3
FlatWithEdges
350
2C
  3
Gouraud
350
2D
  3
GouraudWithEdges
350
2E
  3
Linepattern
350
38
  3
Realistic
350
33
  3
Thicken
350
37
  0
LAYOUT
  5
1E
102
{ACAD_REACTORS
330
1A
102
}
330
1A
100
AcDbPlotSettings
  1

  2
none_device
  4

  6

 40
0.0
 41
0.0
 42
0.0
 43
0.0
 44
0.0
 45
0.0
 46
0.0
 47
0.0
 48
0.0
 49
0.0
140
0.0
141
0.0
142
1.0
143
1.0
 70
   688
 72
     0
 73
     0
 74
     5
  7

 75
    16
 76
     0
 77
     2
 78
   300
147
1.0
148
0.0
149
0.0
100
AcDbLayout
  1
Layout1
 70
     1
 71
     1
 10
0.0
 20
0.0
 11
12.0
 21
9.0
 12
0.0
 22
0.0
 32
0.0
 14
1.000000000000000E+20
 24
1.000000000000000E+20
 34
1.000000000000000E+20
 15
-1.000000000000000E+20
 25
-1.000000000000000E+20
 35
-1.000000000000000E+20
146
0.0
 13
0.0
 23
0.0
 33
0.0
 16
1.0
 26
0.0
 36
0.0
 17
0.0
 27
1.0
 37
0.0
 76
     0
330
1B
  0
LAYOUT
  5
26
102
{ACAD_REACTORS
330
1A
102
}
330
1A
100
AcDbPlotSettings
  1

  2
none_device
  4

  6

 40
0.0
 41
0.0
 42
0.0
 43
0.0
 44
0.0
 45
0.0
 46
0.0
 47
0.0
 48
0.0
 49
0.0
140
0.0
141
0.0
142
1.0
143
1.0
 70
   688
 72
     0
 73
     0
 74
     5
  7

 75
    16
 76
     0
 77
     2
 78
   300
147
1.0
148
0.0
149
0.0
100
AcDbLayout
  1
Layout2
 70
     1
 71
     2
 10
0.0
 20
0.0
 11
0.0
 21
0.0
 12
0.0
 22
0.0
 32
0.0
 14
0.0
 24
0.0
 34
0.0
 15
0.0
 25
0.0
 35
0.0
146
0.0
 13
0.0
 23
0.0
 33
0.0
 16
1.0
 26
0.0
 36
0.0
 17
0.0
 27
1.0
 37
0.0
 76
     0
330
23
  0
LAYOUT
  5
22
102
{ACAD_REACTORS
330
1A
102
}
330
1A
100
AcDbPlotSettings
  1

  2
none_device
  4

  6

 40
0.0
 41
0.0
 42
0.0
 43
0.0
 44
0.0
 45
0.0
 46
0.0
 47
0.0
 48
0.0
 49
0.0
140
0.0
141
0.0
142
1.0
143
1.0
 70
  1712
 72
     0
 73
     0
 74
     0
  7

 75
     0
 76
     0
 77
     2
 78
   300
147
1.0
148
0.0
149
0.0
100
AcDbLayout
  1
Model
 70
     1
 71
     0
 10
0.0
 20
0.0
 11
12.0
 21
9.0
 12
0.0
 22
0.0
 32
0.0
 14
-87.0052
 24
-108.5767
 34
0.0
 15
6.4088
 25
131.7462
 35
0.0
146
0.0
 13
0.0
 23
0.0
 33
0.0
 16
1.0
 26
0.0
 36
0.0
 17
0.0
 27
1.0
 37
0.0
 76
     0
330
1F
331
29
  0
MATERIAL
  5
3D
102
{ACAD_REACTORS
330
3B
102
}
330
3B
100
AcDbMaterial
  1
ByBlock
 72
     1
 94
      127
  0
MATERIAL
  5
3C
102
{ACAD_REACTORS
330
3B
102
}
330
3B
100
AcDbMaterial
  1
ByLayer
 72
     1
 94
      127
  0
MATERIAL
  5
3E
102
{ACAD_REACTORS
330
3B
102
}
330
3B
100
AcDbMaterial
  1
Global
 72
     1
 94
      127
  0
MLINESTYLE
  5
18
102
{ACAD_REACTORS
330
17
102
}
330
17
100
AcDbMlineStyle
  2
Standard
 70
     0
  3

 62
   256
 51
90.0
 52
90.0
 71
     2
 49
0.5
 62
   256
  6
BYLAYER
 49
-0.5
 62
   256
  6
BYLAYER
  0
ACDBPLACEHOLDER
  5
F
102
{ACAD_REACTORS
330
E
102
}
330
E
  0
VISUALSTYLE
  5
2F
102
{ACAD_REACTORS
330
2A
102
}
102
{ACAD_XDICTIONARY
360
76
102
}
330
2A
100
AcDbVisualStyle
  2
2dWireframe
 70
     4
 71
     0
 72
     2
 73
     0
 90
        0
 40
-0.6
 41
-30.0
 62
     5
 63
     7
421
 16777215
 74
     1
 91
        4
 64
     7
 65
   257
 75
     1
175
     1
 42
1.0
 92
        0
 66
   257
 43
1.0
 76
     1
 77
     6
 78
     2
 67
     7
 79
     5
170
     0
171
     0
290
     0
174
     0
 93
        1
 44
0.0
173
     0
291
     0
 45
0.0
  0
VISUALSTYLE
  5
31
102
{ACAD_REACTORS
330
2A
102
}
102
{ACAD_XDICTIONARY
360
7A
102
}
330
2A
100
AcDbVisualStyle
  2
3D Hidden
 70
     6
 71
     1
 72
     2
 73
     2
 90
        0
 40
-0.6
 41
-30.0
 62
     5
 63
     7
421
 16777215
 74
     2
 91
        2
 64
     7
 65
   257
 75
     2
175
     1
 42
40.0
 92
        0
 66
   257
 43
1.0
 76
     1
 77
     6
 78
     2
 67
     7
 79
     3
170
     0
171
     0
290
     0
174
     0
 93
        1
 44
0.0
173
     0
291
     0
 45
0.0
  0
VISUALSTYLE
  5
30
102
{ACAD_REACTORS
330
2A
102
}
102
{ACAD_XDICTIONARY
360
78
102
}
330
2A
100
AcDbVisualStyle
  2
3dWireframe
 70
     5
 71
     0
 72
     2
 73
     0
 90
        0
 40
-0.6
 41
-30.0
 62
     5
 63
     7
421
 16777215
 74
     1
 91
        4
 64
     7
 65
   257
 75
     1
175
     1
 42
1.0
 92
        0
 66
   257
 43
1.0
 76
     1
 77
     6
 78
     2
 67
     7
 79
     5
170
     0
171
     0
290
     0
174
     0
 93
        1
 44
0.0
173
     0
291
     0
 45
0.0
  0
VISUALSTYLE
  5
32
102
{ACAD_REACTORS
330
2A
102
}
102
{ACAD_XDICTIONARY
360
7C
102
}
330
2A
100
AcDbVisualStyle
  2
Basic
 70
     7
 71
     1
 72
     0
 73
     1
 90
        0
 40
-0.6
 41
-30.0
 62
     5
 63
     7
421
 16777215
 74
     0
 91
        4
 64
     7
 65
   257
 75
     1
175
     1
 42
1.0
 92
        8
 66
     7
 43
1.0
 76
     1
 77
     6
 78
     2
 67
     7
 79
     5
170
     0
171
     0
290
     0
174
     0
 93
        1
 44
0.0
173
     0
291
     1
 45
0.0
  0
VISUALSTYLE
  5
36
102
{ACAD_REACTORS
330
2A
102
}
102
{ACAD_XDICTIONARY
360
84
102
}
330
2A
100
AcDbVisualStyle
  2
Brighten
 70
    12
 71
     2
 72
     2
 73
     0
 90
        0
 40
-0.6
 41
-30.0
 62
     5
 63
     7
421
 16777215
 74
     1
 91
        4
 64
     7
 65
   257
 75
     1
175
     1
 42
1.0
 92
        8
 66
     7
 43
1.0
 76
     1
 77
     6
 78
     2
 67
     7
 79
     5
170
     0
171
     0
290
     0
174
     0
 93
        1
 44
50.0
173
     0
291
     1
 45
0.0
  0
VISUALSTYLE
  5
3A
102
{ACAD_REACTORS
330
2A
102
}
102
{ACAD_XDICTIONARY
360
8C
102
}
330
2A
100
AcDbVisualStyle
  2
ColorChange
 70
    16
 71
     2
 72
     2
 73
     3
 90
        0
 40
-0.6
 41
-30.0
 62
     5
 63
     8
421
  8421504
 74
     1
 91
        4
 64
     7
 65
   257
 75
     1
175
     1
 42
1.0
 92
        8
 66
     8
424
  8421504
 43
1.0
 76
     1
 77
     6
 78
     2
 67
     7
 79
     5
170
     0
171
     0
290
     0
174
     0
 93
        1
 44
0.0
173
     0
291
     1
 45
0.0
  0
VISUALSTYLE
  5
34
102
{ACAD_REACTORS
330
2A
102
}
102
{ACAD_XDICTIONARY
360
80
102
}
330
2A
100
AcDbVisualStyle
  2
Conceptual
 70
     9
 71
     3
 72
     2
 73
     0
 90
        0
 40
-0.6
 41
-30.0
 62
     5
 63
     7
421
 16777215
 74
     2
 91
        2
 64
     7
 65
   257
 75
     1
175
     1
 42
40.0
 92
        8
 66
     7
 43
1.0
 76
     1
 77
     6
 78
     2
 67
     7
 79
     3
170
     0
171
     0
290
     0
174
     0
 93
        1
 44
0.0
173
     0
291
     0
 45
0.0
  0
VISUALSTYLE
  5
35
102
{ACAD_REACTORS
330
2A
102
}
102
{ACAD_XDICTIONARY
360
82
102
}
330
2A
100
AcDbVisualStyle
  2
Dim
 70
    11
 71
     2
 72
     2
 73
     0
 90
        0
 40
-0.6
 41
-30.0
 62
     5
 63
     7
421
 16777215
 74
     1
 91
        4
 64
     7
 65
   257
 75
     1
175
     1
 42
1.0
 92
        8
 66
     7
 43
1.0
 76
     1
 77
     6
 78
     2
 67
     7
 79
     5
170
     0
171
     0
290
     0
174
     0
 93
        1
 44
-50.0
173
     0
291
     1
 45
0.0
  0
VISUALSTYLE
  5
39
102
{ACAD_REACTORS
330
2A
102
}
102
{ACAD_XDICTIONARY
360
8A
102
}
330
2A
100
AcDbVisualStyle
  2
Facepattern
 70
    15
 71
     2
 72
     2
 73
     0
 90
        0
 40
-0.6
 41
-30.0
 62
     5
 63
     7
421
 16777215
 74
     1
 91
        4
 64
     7
 65
   257
 75
     1
175
     1
 42
1.0
 92
        8
 66
     7
 43
1.0
 76
     1
 77
     6
 78
     2
 67
     7
 79
     5
170
     0
171
     0
290
     0
174
     0
 93
        1
 44
0.0
173
     0
291
     1
 45
0.0
  0
VISUALSTYLE
  5
2B
102
{ACAD_REACTORS
330
2A
102
}
102
{ACAD_XDICTIONARY
360
6E
102
}
330
2A
100
AcDbVisualStyle
  2
Flat
 70
     0
 71
     2
 72
     1
 73
     1
 90
        2
 40
-0.6
 41
30.0
 62
     5
 63
     7
421
 16777215
 74
     0
 91
        4
 64
     7
 65
   257
 75
     1
175
     1
 42
1.0
 92
        8
 66
     7
 43
1.0
 76
     1
 77
     6
 78
     2
 67
     7
 79
     5
170
     0
171
     0
290
     0
174
     0
 93
       13
 44
0.0
173
     0
291
     1
 45
0.0
  0
VISUALSTYLE
  5
2C
102
{ACAD_REACTORS
330
2A
102
}
102
{ACAD_XDICTIONARY
360
70
102
}
330
2A
100
AcDbVisualStyle
  2
FlatWithEdges
 70
     1
 71
     2
 72
     1
 73
     1
 90
        2
 40
-0.6
 41
30.0
 62
     5
 63
     7
421
 16777215
 74
     1
 91
        4
 64
     7
 65
   257
 75
     1
175
     1
 42
1.0
 92
        0
 66
   257
 43
1.0
 76
     1
 77
     6
 78
     2
 67
     7
 79
     5
170
     0
171
     0
290
     0
174
     0
 93
       13
 44
0.0
173
     0
291
     1
 45
0.0
  0
VISUALSTYLE
  5
2D
102
{ACAD_REACTORS
330
2A
102
}
102
{ACAD_XDICTIONARY
360
72
102
}
330
2A
100
AcDbVisualStyle
  2
Gouraud
 70
     2
 71
     2
 72
     2
 73
     1
 90
        2
 40
-0.6
 41
30.0
 62
     5
 63
     7
421
 16777215
 74
     0
 91
        4
 64
     7
 65
   257
 75
     1
175
     1
 42
1.0
 92
        0
 66
     7
 43
1.0
 76
     1
 77
     6
 78
     2
 67
     7
 79
     5
170
     0
171
     0
290
     0
174
     0
 93
       13
 44
0.0
173
     0
291
     1
 45
0.0
  0
VISUALSTYLE
  5
2E
102
{ACAD_REACTORS
330
2A
102
}
102
{ACAD_XDICTIONARY
360
74
102
}
330
2A
100
AcDbVisualStyle
  2
GouraudWithEdges
 70
     3
 71
     2
 72
     2
 73
     1
 90
        2
 40
-0.6
 41
30.0
 62
     5
 63
     7
421
 16777215
 74
     1
 91
        4
 64
     7
 65
   257
 75
     1
175
     1
 42
1.0
 92
        0
 66
   257
 43
1.0
 76
     1
 77
     6
 78
     2
 67
     7
 79
     5
170
     0
171
     0
290
     0
174
     0
 93
       13
 44
0.0
173
     0
291
     1
 45
0.0
  0
VISUALSTYLE
  5
38
102
{ACAD_REACTORS
330
2A
102
}
102
{ACAD_XDICTIONARY
360
88
102
}
330
2A
100
AcDbVisualStyle
  2
Linepattern
 70
    14
 71
     2
 72
     2
 73
     0
 90
        0
 40
-0.6
 41
-30.0
 62
     5
 63
     7
421
 16777215
 74
     1
 91
        4
 64
     7
 65
   257
 75
     7
175
     7
 42
1.0
 92
        8
 66
     7
 43
1.0
 76
     1
 77
     6
 78
     2
 67
     7
 79
     5
170
     0
171
     0
290
     0
174
     0
 93
        1
 44
0.0
173
     0
291
     1
 45
0.0
  0
VISUALSTYLE
  5
33
102
{ACAD_REACTORS
330
2A
102
}
102
{ACAD_XDICTIONARY
360
7E
102
}
330
2A
100
AcDbVisualStyle
  2
Realistic
 70
     8
 71
     2
 72
     2
 73
     0
 90
        0
 40
-0.6
 41
-30.0
 62
     5
 63
     7
421
 16777215
 74
     1
 91
        0
 64
     7
 65
   257
 75
     1
175
     1
 42
1.0
 92
        8
 66
     8
424
  7895160
 43
1.0
 76
     1
 77
     6
 78
     2
 67
     7
 79
     5
170
     0
171
     0
290
     0
174
     0
 93
       13
 44
0.0
173
     0
291
     0
 45
0.0
  0
VISUALSTYLE
  5
37
102
{ACAD_REACTORS
330
2A
102
}
102
{ACAD_XDICTIONARY
360
86
102
}
330
2A
100
AcDbVisualStyle
  2
Thicken
 70
    13
 71
     2
 72
     2
 73
     0
 90
        0
 40
-0.6
 41
-30.0
 62
     5
 63
     7
421
 16777215
 74
     1
 91
        4
 64
     7
 65
   257
 75
     1
175
     1
 42
1.0
 92
       12
 66
     7
 43
1.0
 76
     1
 77
     6
 78
     2
 67
     7
 79
     5
170
     0
171
     0
290
     0
174
     0
 93
        1
 44
0.0
173
     0
291
     1
 45
0.0
  0
DICTIONARY
  5
76
330
2F
100
AcDbDictionary
280
     1
281
     1
  3
ACAD_XREC_ROUNDTRIP
360
77
  0
DICTIONARY
  5
7A
330
31
100
AcDbDictionary
280
     1
281
     1
  3
ACAD_XREC_ROUNDTRIP
360
7B
  0
DICTIONARY
  5
78
330
30
100
AcDbDictionary
280
     1
281
     1
  3
ACAD_XREC_ROUNDTRIP
360
79
  0
DICTIONARY
  5
7C
330
32
100
AcDbDictionary
280
     1
281
     1
  3
ACAD_XREC_ROUNDTRIP
360
7D
  0
DICTIONARY
  5
84
330
36
100
AcDbDictionary
280
     1
281
     1
  3
ACAD_XREC_ROUNDTRIP
360
85
  0
DICTIONARY
  5
8C
330
3A
100
AcDbDictionary
280
     1
281
     1
  3
ACAD_XREC_ROUNDTRIP
360
8D
  0
DICTIONARY
  5
80
330
34
100
AcDbDictionary
280
     1
281
     1
  3
ACAD_XREC_ROUNDTRIP
360
81
  0
DICTIONARY
  5
82
330
35
100
AcDbDictionary
280
     1
281
     1
  3
ACAD_XREC_ROUNDTRIP
360
83
  0
DICTIONARY
  5
8A
330
39
100
AcDbDictionary
280
     1
281
     1
  3
ACAD_XREC_ROUNDTRIP
360
8B
  0
DICTIONARY
  5
6E
330
2B
100
AcDbDictionary
280
     1
281
     1
  3
ACAD_XREC_ROUNDTRIP
360
6F
  0
DICTIONARY
  5
70
330
2C
100
AcDbDictionary
280
     1
281
     1
  3
ACAD_XREC_ROUNDTRIP
360
71
  0
DICTIONARY
  5
72
330
2D
100
AcDbDictionary
280
     1
281
     1
  3
ACAD_XREC_ROUNDTRIP
360
73
  0
DICTIONARY
  5
74
330
2E
100
AcDbDictionary
280
     1
281
     1
  3
ACAD_XREC_ROUNDTRIP
360
75
  0
DICTIONARY
  5
88
330
38
100
AcDbDictionary
280
     1
281
     1
  3
ACAD_XREC_ROUNDTRIP
360
89
  0
DICTIONARY
  5
7E
330
33
100
AcDbDictionary
280
     1
281
     1
  3
ACAD_XREC_ROUNDTRIP
360
7F
  0
DICTIONARY
  5
86
330
37
100
AcDbDictionary
280
     1
281
     1
  3
ACAD_XREC_ROUNDTRIP
360
87
  0
XRECORD
  5
77
102
{ACAD_REACTORS
330
76
102
}
330
76
100
AcDbXrecord
280
     1
102
RTVSPropertyOp0
 70
     1
102
RTVSPropertyOp1
 70
     1
102
RTVSPropertyOp2
 70
     1
102
RTVSPropertyOp3
 70
     1
102
RTVSPropertyOp4
 70
     1
102
RTVSPropertyOp5
 70
     1
102
RTVSPropertyOp6
 70
     1
102
RTVSPropertyOp7
 70
     1
102
RTVSPropertyOp8
 70
     1
102
RTVSPropertyOp9
 70
     1
102
RTVSPropertyOp10
 70
     1
102
RTVSPropertyOp11
 70
     1
102
RTVSPropertyOp12
 70
     1
102
RTVSPropertyOp13
 70
     1
102
RTVSPropertyOp14
 70
     1
102
RTVSPropertyOp15
 70
     1
102
RTVSPropertyOp16
 70
     1
102
RTVSPropertyOp17
 70
     1
102
RTVSPropertyOp18
 70
     1
102
RTVSPropertyOp19
 70
     1
102
RTVSPropertyOp20
 70
     1
102
RTVSPropertyOp21
 70
     1
102
RTVSPropertyOp22
 70
     1
102
RTVSPropertyOp23
 70
     1
102
RTVSPropertyOp24
 70
     1
102
RTVSPropertyOp25
 70
     1
102
RTVSPropertyOp26
 70
     1
102
RTVSPropertyOp27
 70
     1
102
RTVSPropertyOp28
 70
     1
102
RTVSPropertyOp29
 70
     1
102
RTVSPropertyOp30
 70
     1
102
RTVSPropertyOp31
 70
     1
102
RTVSPropertyOp32
 70
     1
  0
XRECORD
  5
7B
102
{ACAD_REACTORS
330
7A
102
}
330
7A
100
AcDbXrecord
280
     1
102
RTVSPropertyOp0
 70
     1
102
RTVSPropertyOp1
 70
     1
102
RTVSPropertyOp2
 70
     1
102
RTVSPropertyOp3
 70
     1
102
RTVSPropertyOp4
 70
     1
102
RTVSPropertyOp5
 70
     1
102
RTVSPropertyOp6
 70
     1
102
RTVSPropertyOp7
 70
     1
102
RTVSPropertyOp8
 70
     1
102
RTVSPropertyOp9
 70
     1
102
RTVSPropertyOp10
 70
     1
102
RTVSPropertyOp11
 70
     1
102
RTVSPropertyOp12
 70
     1
102
RTVSPropertyOp13
 70
     1
102
RTVSPropertyOp14
 70
     1
102
RTVSPropertyOp15
 70
     1
102
RTVSPropertyOp16
 70
     1
102
RTVSPropertyOp17
 70
     1
102
RTVSPropertyOp18
 70
     1
102
RTVSPropertyOp19
 70
     1
102
RTVSPropertyOp20
 70
     1
102
RTVSPropertyOp21
 70
     1
102
RTVSPropertyOp22
 70
     1
102
RTVSPropertyOp23
 70
     1
102
RTVSPropertyOp24
 70
     1
102
RTVSPropertyOp25
 70
     1
102
RTVSPropertyOp26
 70
     1
102
RTVSPropertyOp27
 70
     1
102
RTVSPropertyOp28
 70
     1
102
RTVSPropertyOp29
 70
     1
102
RTVSPropertyOp30
 70
     1
102
RTVSPropertyOp31
 70
     1
102
RTVSPropertyOp32
 70
     1
  0
XRECORD
  5
79
102
{ACAD_REACTORS
330
78
102
}
330
78
100
AcDbXrecord
280
     1
102
RTVSPropertyOp0
 70
     1
102
RTVSPropertyOp1
 70
     1
102
RTVSPropertyOp2
 70
     1
102
RTVSPropertyOp3
 70
     1
102
RTVSPropertyOp4
 70
     1
102
RTVSPropertyOp5
 70
     1
102
RTVSPropertyOp6
 70
     1
102
RTVSPropertyOp7
 70
     1
102
RTVSPropertyOp8
 70
     1
102
RTVSPropertyOp9
 70
     1
102
RTVSPropertyOp10
 70
     1
102
RTVSPropertyOp11
 70
     1
102
RTVSPropertyOp12
 70
     1
102
RTVSPropertyOp13
 70
     1
102
RTVSPropertyOp14
 70
     1
102
RTVSPropertyOp15
 70
     1
102
RTVSPropertyOp16
 70
     1
102
RTVSPropertyOp17
 70
     1
102
RTVSPropertyOp18
 70
     1
102
RTVSPropertyOp19
 70
     1
102
RTVSPropertyOp20
 70
     1
102
RTVSPropertyOp21
 70
     1
102
RTVSPropertyOp22
 70
     1
102
RTVSPropertyOp23
 70
     1
102
RTVSPropertyOp24
 70
     1
102
RTVSPropertyOp25
 70
     1
102
RTVSPropertyOp26
 70
     1
102
RTVSPropertyOp27
 70
     1
102
RTVSPropertyOp28
 70
     1
102
RTVSPropertyOp29
 70
     1
102
RTVSPropertyOp30
 70
     1
102
RTVSPropertyOp31
 70
     1
102
RTVSPropertyOp32
 70
     1
  0
XRECORD
  5
7D
102
{ACAD_REACTORS
330
7C
102
}
330
7C
100
AcDbXrecord
280
     1
102
RTVSPropertyOp0
 70
     1
102
RTVSPropertyOp1
 70
     1
102
RTVSPropertyOp2
 70
     1
102
RTVSPropertyOp3
 70
     1
102
RTVSPropertyOp4
 70
     1
102
RTVSPropertyOp5
 70
     1
102
RTVSPropertyOp6
 70
     1
102
RTVSPropertyOp7
 70
     1
102
RTVSPropertyOp8
 70
     1
102
RTVSPropertyOp9
 70
     1
102
RTVSPropertyOp10
 70
     1
102
RTVSPropertyOp11
 70
     1
102
RTVSPropertyOp12
 70
     1
102
RTVSPropertyOp13
 70
     1
102
RTVSPropertyOp14
 70
     1
102
RTVSPropertyOp15
 70
     1
102
RTVSPropertyOp16
 70
     1
102
RTVSPropertyOp17
 70
     1
102
RTVSPropertyOp18
 70
     1
102
RTVSPropertyOp19
 70
     1
102
RTVSPropertyOp20
 70
     1
102
RTVSPropertyOp21
 70
     1
102
RTVSPropertyOp22
 70
     1
102
RTVSPropertyOp23
 70
     1
102
RTVSPropertyOp24
 70
     1
102
RTVSPropertyOp25
 70
     1
102
RTVSPropertyOp26
 70
     1
102
RTVSPropertyOp27
 70
     1
102
RTVSPropertyOp28
 70
     1
102
RTVSPropertyOp29
 70
     1
102
RTVSPropertyOp30
 70
     1
102
RTVSPropertyOp31
 70
     1
102
RTVSPropertyOp32
 70
     1
  0
XRECORD
  5
85
102
{ACAD_REACTORS
330
84
102
}
330
84
100
AcDbXrecord
280
     1
102
RTVSPropertyOp0
 70
     1
102
RTVSPropertyOp1
 70
     1
102
RTVSPropertyOp2
 70
     1
102
RTVSPropertyOp3
 70
     1
102
RTVSPropertyOp4
 70
     1
102
RTVSPropertyOp5
 70
     1
102
RTVSPropertyOp6
 70
     1
102
RTVSPropertyOp7
 70
     1
102
RTVSPropertyOp8
 70
     1
102
RTVSPropertyOp9
 70
     1
102
RTVSPropertyOp10
 70
     1
102
RTVSPropertyOp11
 70
     1
102
RTVSPropertyOp12
 70
     1
102
RTVSPropertyOp13
 70
     1
102
RTVSPropertyOp14
 70
     1
102
RTVSPropertyOp15
 70
     1
102
RTVSPropertyOp16
 70
     1
102
RTVSPropertyOp17
 70
     1
102
RTVSPropertyOp18
 70
     1
102
RTVSPropertyOp19
 70
     1
102
RTVSPropertyOp20
 70
     1
102
RTVSPropertyOp21
 70
     1
102
RTVSPropertyOp22
 70
     1
102
RTVSPropertyOp23
 70
     1
102
RTVSPropertyOp24
 70
     1
102
RTVSPropertyOp25
 70
     1
102
RTVSPropertyOp26
 70
     1
102
RTVSPropertyOp27
 70
     1
102
RTVSPropertyOp28
 70
     1
102
RTVSPropertyOp29
 70
     1
102
RTVSPropertyOp30
 70
     1
102
RTVSPropertyOp31
 70
     1
102
RTVSPropertyOp32
 70
     1
  0
XRECORD
  5
8D
102
{ACAD_REACTORS
330
8C
102
}
330
8C
100
AcDbXrecord
280
     1
102
RTVSPropertyOp0
 70
     1
102
RTVSPropertyOp1
 70
     1
102
RTVSPropertyOp2
 70
     1
102
RTVSPropertyOp3
 70
     1
102
RTVSPropertyOp4
 70
     1
102
RTVSPropertyOp5
 70
     1
102
RTVSPropertyOp6
 70
     1
102
RTVSPropertyOp7
 70
     1
102
RTVSPropertyOp8
 70
     1
102
RTVSPropertyOp9
 70
     1
102
RTVSPropertyOp10
 70
     1
102
RTVSPropertyOp11
 70
     1
102
RTVSPropertyOp12
 70
     1
102
RTVSPropertyOp13
 70
     1
102
RTVSPropertyOp14
 70
     1
102
RTVSPropertyOp15
 70
     1
102
RTVSPropertyOp16
 70
     1
102
RTVSPropertyOp17
 70
     1
102
RTVSPropertyOp18
 70
     1
102
RTVSPropertyOp19
 70
     1
102
RTVSPropertyOp20
 70
     1
102
RTVSPropertyOp21
 70
     1
102
RTVSPropertyOp22
 70
     1
102
RTVSPropertyOp23
 70
     1
102
RTVSPropertyOp24
 70
     1
102
RTVSPropertyOp25
 70
     1
102
RTVSPropertyOp26
 70
     1
102
RTVSPropertyOp27
 70
     1
102
RTVSPropertyOp28
 70
     1
102
RTVSPropertyOp29
 70
     1
102
RTVSPropertyOp30
 70
     1
102
RTVSPropertyOp31
 70
     1
102
RTVSPropertyOp32
 70
     1
  0
XRECORD
  5
81
102
{ACAD_REACTORS
330
80
102
}
330
80
100
AcDbXrecord
280
     1
102
RTVSPropertyOp0
 70
     1
102
RTVSPropertyOp1
 70
     1
102
RTVSPropertyOp2
 70
     1
102
RTVSPropertyOp3
 70
     1
102
RTVSPropertyOp4
 70
     1
102
RTVSPropertyOp5
 70
     1
102
RTVSPropertyOp6
 70
     1
102
RTVSPropertyOp7
 70
     1
102
RTVSPropertyOp8
 70
     1
102
RTVSPropertyOp9
 70
     1
102
RTVSPropertyOp10
 70
     1
102
RTVSPropertyOp11
 70
     1
102
RTVSPropertyOp12
 70
     1
102
RTVSPropertyOp13
 70
     1
102
RTVSPropertyOp14
 70
     1
102
RTVSPropertyOp15
 70
     1
102
RTVSPropertyOp16
 70
     1
102
RTVSPropertyOp17
 70
     1
102
RTVSPropertyOp18
 70
     1
102
RTVSPropertyOp19
 70
     1
102
RTVSPropertyOp20
 70
     1
102
RTVSPropertyOp21
 70
     1
102
RTVSPropertyOp22
 70
     1
102
RTVSPropertyOp23
 70
     1
102
RTVSPropertyOp24
 70
     1
102
RTVSPropertyOp25
 70
     1
102
RTVSPropertyOp26
 70
     1
102
RTVSPropertyOp27
 70
     1
102
RTVSPropertyOp28
 70
     1
102
RTVSPropertyOp29
 70
     1
102
RTVSPropertyOp30
 70
     1
102
RTVSPropertyOp31
 70
     1
102
RTVSPropertyOp32
 70
     1
  0
XRECORD
  5
83
102
{ACAD_REACTORS
330
82
102
}
330
82
100
AcDbXrecord
280
     1
102
RTVSPropertyOp0
 70
     1
102
RTVSPropertyOp1
 70
     1
102
RTVSPropertyOp2
 70
     1
102
RTVSPropertyOp3
 70
     1
102
RTVSPropertyOp4
 70
     1
102
RTVSPropertyOp5
 70
     1
102
RTVSPropertyOp6
 70
     1
102
RTVSPropertyOp7
 70
     1
102
RTVSPropertyOp8
 70
     1
102
RTVSPropertyOp9
 70
     1
102
RTVSPropertyOp10
 70
     1
102
RTVSPropertyOp11
 70
     1
102
RTVSPropertyOp12
 70
     1
102
RTVSPropertyOp13
 70
     1
102
RTVSPropertyOp14
 70
     1
102
RTVSPropertyOp15
 70
     1
102
RTVSPropertyOp16
 70
     1
102
RTVSPropertyOp17
 70
     1
102
RTVSPropertyOp18
 70
     1
102
RTVSPropertyOp19
 70
     1
102
RTVSPropertyOp20
 70
     1
102
RTVSPropertyOp21
 70
     1
102
RTVSPropertyOp22
 70
     1
102
RTVSPropertyOp23
 70
     1
102
RTVSPropertyOp24
 70
     1
102
RTVSPropertyOp25
 70
     1
102
RTVSPropertyOp26
 70
     1
102
RTVSPropertyOp27
 70
     1
102
RTVSPropertyOp28
 70
     1
102
RTVSPropertyOp29
 70
     1
102
RTVSPropertyOp30
 70
     1
102
RTVSPropertyOp31
 70
     1
102
RTVSPropertyOp32
 70
     1
  0
XRECORD
  5
8B
102
{ACAD_REACTORS
330
8A
102
}
330
8A
100
AcDbXrecord
280
     1
102
RTVSPropertyOp0
 70
     1
102
RTVSPropertyOp1
 70
     1
102
RTVSPropertyOp2
 70
     1
102
RTVSPropertyOp3
 70
     1
102
RTVSPropertyOp4
 70
     1
102
RTVSPropertyOp5
 70
     1
102
RTVSPropertyOp6
 70
     1
102
RTVSPropertyOp7
 70
     1
102
RTVSPropertyOp8
 70
     1
102
RTVSPropertyOp9
 70
     1
102
RTVSPropertyOp10
 70
     1
102
RTVSPropertyOp11
 70
     1
102
RTVSPropertyOp12
 70
     1
102
RTVSPropertyOp13
 70
     1
102
RTVSPropertyOp14
 70
     1
102
RTVSPropertyOp15
 70
     1
102
RTVSPropertyOp16
 70
     1
102
RTVSPropertyOp17
 70
     1
102
RTVSPropertyOp18
 70
     1
102
RTVSPropertyOp19
 70
     1
102
RTVSPropertyOp20
 70
     1
102
RTVSPropertyOp21
 70
     1
102
RTVSPropertyOp22
 70
     1
102
RTVSPropertyOp23
 70
     1
102
RTVSPropertyOp24
 70
     1
102
RTVSPropertyOp25
 70
     1
102
RTVSPropertyOp26
 70
     1
102
RTVSPropertyOp27
 70
     1
102
RTVSPropertyOp28
 70
     1
102
RTVSPropertyOp29
 70
     1
102
RTVSPropertyOp30
 70
     1
102
RTVSPropertyOp31
 70
     1
102
RTVSPropertyOp32
 70
     1
  0
XRECORD
  5
6F
102
{ACAD_REACTORS
330
6E
102
}
330
6E
100
AcDbXrecord
280
     1
102
RTVSPropertyOp0
 70
     1
102
RTVSPropertyOp1
 70
     1
102
RTVSPropertyOp2
 70
     1
102
RTVSPropertyOp3
 70
     1
102
RTVSPropertyOp4
 70
     1
102
RTVSPropertyOp5
 70
     1
102
RTVSPropertyOp6
 70
     1
102
RTVSPropertyOp7
 70
     1
102
RTVSPropertyOp8
 70
     1
102
RTVSPropertyOp9
 70
     1
102
RTVSPropertyOp10
 70
     1
102
RTVSPropertyOp11
 70
     1
102
RTVSPropertyOp12
 70
     1
102
RTVSPropertyOp13
 70
     1
102
RTVSPropertyOp14
 70
     1
102
RTVSPropertyOp15
 70
     1
102
RTVSPropertyOp16
 70
     1
102
RTVSPropertyOp17
 70
     1
102
RTVSPropertyOp18
 70
     1
102
RTVSPropertyOp19
 70
     1
102
RTVSPropertyOp20
 70
     1
102
RTVSPropertyOp21
 70
     1
102
RTVSPropertyOp22
 70
     1
102
RTVSPropertyOp23
 70
     1
102
RTVSPropertyOp24
 70
     1
102
RTVSPropertyOp25
 70
     1
102
RTVSPropertyOp26
 70
     1
102
RTVSPropertyOp27
 70
     1
102
RTVSPropertyOp28
 70
     1
102
RTVSPropertyOp29
 70
     1
102
RTVSPropertyOp30
 70
     1
102
RTVSPropertyOp31
 70
     1
102
RTVSPropertyOp32
 70
     1
  0
XRECORD
  5
71
102
{ACAD_REACTORS
330
70
102
}
330
70
100
AcDbXrecord
280
     1
102
RTVSPropertyOp0
 70
     1
102
RTVSPropertyOp1
 70
     1
102
RTVSPropertyOp2
 70
     1
102
RTVSPropertyOp3
 70
     1
102
RTVSPropertyOp4
 70
     1
102
RTVSPropertyOp5
 70
     1
102
RTVSPropertyOp6
 70
     1
102
RTVSPropertyOp7
 70
     1
102
RTVSPropertyOp8
 70
     1
102
RTVSPropertyOp9
 70
     1
102
RTVSPropertyOp10
 70
     1
102
RTVSPropertyOp11
 70
     1
102
RTVSPropertyOp12
 70
     1
102
RTVSPropertyOp13
 70
     1
102
RTVSPropertyOp14
 70
     1
102
RTVSPropertyOp15
 70
     1
102
RTVSPropertyOp16
 70
     1
102
RTVSPropertyOp17
 70
     1
102
RTVSPropertyOp18
 70
     1
102
RTVSPropertyOp19
 70
     1
102
RTVSPropertyOp20
 70
     1
102
RTVSPropertyOp21
 70
     1
102
RTVSPropertyOp22
 70
     1
102
RTVSPropertyOp23
 70
     1
102
RTVSPropertyOp24
 70
     1
102
RTVSPropertyOp25
 70
     1
102
RTVSPropertyOp26
 70
     1
102
RTVSPropertyOp27
 70
     1
102
RTVSPropertyOp28
 70
     1
102
RTVSPropertyOp29
 70
     1
102
RTVSPropertyOp30
 70
     1
102
RTVSPropertyOp31
 70
     1
102
RTVSPropertyOp32
 70
     1
  0
XRECORD
  5
73
102
{ACAD_REACTORS
330
72
102
}
330
72
100
AcDbXrecord
280
     1
102
RTVSPropertyOp0
 70
     1
102
RTVSPropertyOp1
 70
     1
102
RTVSPropertyOp2
 70
     1
102
RTVSPropertyOp3
 70
     1
102
RTVSPropertyOp4
 70
     1
102
RTVSPropertyOp5
 70
     1
102
RTVSPropertyOp6
 70
     1
102
RTVSPropertyOp7
 70
     1
102
RTVSPropertyOp8
 70
     1
102
RTVSPropertyOp9
 70
     1
102
RTVSPropertyOp10
 70
     1
102
RTVSPropertyOp11
 70
     1
102
RTVSPropertyOp12
 70
     1
102
RTVSPropertyOp13
 70
     1
102
RTVSPropertyOp14
 70
     1
102
RTVSPropertyOp15
 70
     1
102
RTVSPropertyOp16
 70
     1
102
RTVSPropertyOp17
 70
     1
102
RTVSPropertyOp18
 70
     1
102
RTVSPropertyOp19
 70
     1
102
RTVSPropertyOp20
 70
     1
102
RTVSPropertyOp21
 70
     1
102
RTVSPropertyOp22
 70
     1
102
RTVSPropertyOp23
 70
     1
102
RTVSPropertyOp24
 70
     1
102
RTVSPropertyOp25
 70
     1
102
RTVSPropertyOp26
 70
     1
102
RTVSPropertyOp27
 70
     1
102
RTVSPropertyOp28
 70
     1
102
RTVSPropertyOp29
 70
     1
102
RTVSPropertyOp30
 70
     1
102
RTVSPropertyOp31
 70
     1
102
RTVSPropertyOp32
 70
     1
  0
XRECORD
  5
75
102
{ACAD_REACTORS
330
74
102
}
330
74
100
AcDbXrecord
280
     1
102
RTVSPropertyOp0
 70
     1
102
RTVSPropertyOp1
 70
     1
102
RTVSPropertyOp2
 70
     1
102
RTVSPropertyOp3
 70
     1
102
RTVSPropertyOp4
 70
     1
102
RTVSPropertyOp5
 70
     1
102
RTVSPropertyOp6
 70
     1
102
RTVSPropertyOp7
 70
     1
102
RTVSPropertyOp8
 70
     1
102
RTVSPropertyOp9
 70
     1
102
RTVSPropertyOp10
 70
     1
102
RTVSPropertyOp11
 70
     1
102
RTVSPropertyOp12
 70
     1
102
RTVSPropertyOp13
 70
     1
102
RTVSPropertyOp14
 70
     1
102
RTVSPropertyOp15
 70
     1
102
RTVSPropertyOp16
 70
     1
102
RTVSPropertyOp17
 70
     1
102
RTVSPropertyOp18
 70
     1
102
RTVSPropertyOp19
 70
     1
102
RTVSPropertyOp20
 70
     1
102
RTVSPropertyOp21
 70
     1
102
RTVSPropertyOp22
 70
     1
102
RTVSPropertyOp23
 70
     1
102
RTVSPropertyOp24
 70
     1
102
RTVSPropertyOp25
 70
     1
102
RTVSPropertyOp26
 70
     1
102
RTVSPropertyOp27
 70
     1
102
RTVSPropertyOp28
 70
     1
102
RTVSPropertyOp29
 70
     1
102
RTVSPropertyOp30
 70
     1
102
RTVSPropertyOp31
 70
     1
102
RTVSPropertyOp32
 70
     1
  0
XRECORD
  5
89
102
{ACAD_REACTORS
330
88
102
}
330
88
100
AcDbXrecord
280
     1
102
RTVSPropertyOp0
 70
     1
102
RTVSPropertyOp1
 70
     1
102
RTVSPropertyOp2
 70
     1
102
RTVSPropertyOp3
 70
     1
102
RTVSPropertyOp4
 70
     1
102
RTVSPropertyOp5
 70
     1
102
RTVSPropertyOp6
 70
     1
102
RTVSPropertyOp7
 70
     1
102
RTVSPropertyOp8
 70
     1
102
RTVSPropertyOp9
 70
     1
102
RTVSPropertyOp10
 70
     1
102
RTVSPropertyOp11
 70
     1
102
RTVSPropertyOp12
 70
     1
102
RTVSPropertyOp13
 70
     1
102
RTVSPropertyOp14
 70
     1
102
RTVSPropertyOp15
 70
     1
102
RTVSPropertyOp16
 70
     1
102
RTVSPropertyOp17
 70
     1
102
RTVSPropertyOp18
 70
     1
102
RTVSPropertyOp19
 70
     1
102
RTVSPropertyOp20
 70
     1
102
RTVSPropertyOp21
 70
     1
102
RTVSPropertyOp22
 70
     1
102
RTVSPropertyOp23
 70
     1
102
RTVSPropertyOp24
 70
     1
102
RTVSPropertyOp25
 70
     1
102
RTVSPropertyOp26
 70
     1
102
RTVSPropertyOp27
 70
     1
102
RTVSPropertyOp28
 70
     1
102
RTVSPropertyOp29
 70
     1
102
RTVSPropertyOp30
 70
     1
102
RTVSPropertyOp31
 70
     1
102
RTVSPropertyOp32
 70
     1
  0
XRECORD
  5
7F
102
{ACAD_REACTORS
330
7E
102
}
330
7E
100
AcDbXrecord
280
     1
102
RTVSPropertyOp0
 70
     1
102
RTVSPropertyOp1
 70
     1
102
RTVSPropertyOp2
 70
     1
102
RTVSPropertyOp3
 70
     1
102
RTVSPropertyOp4
 70
     1
102
RTVSPropertyOp5
 70
     1
102
RTVSPropertyOp6
 70
     1
102
RTVSPropertyOp7
 70
     1
102
RTVSPropertyOp8
 70
     1
102
RTVSPropertyOp9
 70
     1
102
RTVSPropertyOp10
 70
     1
102
RTVSPropertyOp11
 70
     1
102
RTVSPropertyOp12
 70
     1
102
RTVSPropertyOp13
 70
     1
102
RTVSPropertyOp14
 70
     1
102
RTVSPropertyOp15
 70
     1
102
RTVSPropertyOp16
 70
     1
102
RTVSPropertyOp17
 70
     1
102
RTVSPropertyOp18
 70
     1
102
RTVSPropertyOp19
 70
     1
102
RTVSPropertyOp20
 70
     1
102
RTVSPropertyOp21
 70
     1
102
RTVSPropertyOp22
 70
     1
102
RTVSPropertyOp23
 70
     1
102
RTVSPropertyOp24
 70
     1
102
RTVSPropertyOp25
 70
     1
102
RTVSPropertyOp26
 70
     1
102
RTVSPropertyOp27
 70
     1
102
RTVSPropertyOp28
 70
     1
102
RTVSPropertyOp29
 70
     1
102
RTVSPropertyOp30
 70
     1
102
RTVSPropertyOp31
 70
     1
102
RTVSPropertyOp32
 70
     1
  0
XRECORD
  5
87
102
{ACAD_REACTORS
330
86
102
}
330
86
100
AcDbXrecord
280
     1
102
RTVSPropertyOp0
 70
     1
102
RTVSPropertyOp1
 70
     1
102
RTVSPropertyOp2
 70
     1
102
RTVSPropertyOp3
 70
     1
102
RTVSPropertyOp4
 70
     1
102
RTVSPropertyOp5
 70
     1
102
RTVSPropertyOp6
 70
     1
102
RTVSPropertyOp7
 70
     1
102
RTVSPropertyOp8
 70
     1
102
RTVSPropertyOp9
 70
     1
102
RTVSPropertyOp10
 70
     1
102
RTVSPropertyOp11
 70
     1
102
RTVSPropertyOp12
 70
     1
102
RTVSPropertyOp13
 70
     1
102
RTVSPropertyOp14
 70
     1
102
RTVSPropertyOp15
 70
     1
102
RTVSPropertyOp16
 70
     1
102
RTVSPropertyOp17
 70
     1
102
RTVSPropertyOp18
 70
     1
102
RTVSPropertyOp19
 70
     1
102
RTVSPropertyOp20
 70
     1
102
RTVSPropertyOp21
 70
     1
102
RTVSPropertyOp22
 70
     1
102
RTVSPropertyOp23
 70
     1
102
RTVSPropertyOp24
 70
     1
102
RTVSPropertyOp25
 70
     1
102
RTVSPropertyOp26
 70
     1
102
RTVSPropertyOp27
 70
     1
102
RTVSPropertyOp28
 70
     1
102
RTVSPropertyOp29
 70
     1
102
RTVSPropertyOp30
 70
     1
102
RTVSPropertyOp31
 70
     1
102
RTVSPropertyOp32
 70
     1
  0
ENDSEC
  0
EOF
