  0
SECTION
  2
HEADER
  9
$ACADVER
  1
AC1021
  9
$ACADMAINTVER
 70
    25
  9
$DWGCODEPAGE
  3
ANSI_1256
  9
$INSBASE
 10
0.0
 20
0.0
 30
0.0
  9
$EXTMIN
 10
-187.5401
 20
-114.9426
 30
0.0
  9
$EXTMAX
 10
-90.4577
 20
131.7456
 30
0.0
  9
$LIMMIN
 10
0.0
 20
0.0
  9
$LIMMAX
 10
12.0
 20
9.0
  9
$ORTHOMODE
 70
     0
  9
$REGENMODE
 70
     1
  9
$FILLMODE
 70
     1
  9
$QTEXTMODE
 70
     0
  9
$MIRRTEXT
 70
     1
  9
$LTSCALE
 40
1.0
  9
$ATTMODE
 70
     1
  9
$TEXTSIZE
 40
0.2
  9
$TRACEWID
 40
0.05
  9
$TEXTSTYLE
  7
Standard
  9
$CLAYER
  8
0
  9
$CELTYPE
  6
ByLayer
  9
$CECOLOR
 62
   256
  9
$CELTSCALE
 40
1.0
  9
$DISPSILH
 70
     0
  9
$DIMSCALE
 40
1.0
  9
$DIMASZ
 40
0.18
  9
$DIMEXO
 40
0.0625
  9
$DIMDLI
 40
0.38
  9
$DIMRND
 40
0.0
  9
$DIMDLE
 40
0.0
  9
$DIMEXE
 40
0.18
  9
$DIMTP
 40
0.0
  9
$DIMTM
 40
0.0
  9
$DIMTXT
 40
0.18
  9
$DIMCEN
 40
0.09
  9
$DIMTSZ
 40
0.0
  9
$DIMTOL
 70
     0
  9
$DIMLIM
 70
     0
  9
$DIMTIH
 70
     1
  9
$DIMTOH
 70
     1
  9
$DIMSE1
 70
     0
  9
$DIMSE2
 70
     0
  9
$DIMTAD
 70
     0
  9
$DIMZIN
 70
     0
  9
$DIMBLK
  1

  9
$DIMASO
 70
     1
  9
$DIMSHO
 70
     1
  9
$DIMPOST
  1

  9
$DIMAPOST
  1

  9
$DIMALT
 70
     0
  9
$DIMALTD
 70
     2
  9
$DIMALTF
 40
25.4
  9
$DIMLFAC
 40
1.0
  9
$DIMTOFL
 70
     0
  9
$DIMTVP
 40
0.0
  9
$DIMTIX
 70
     0
  9
$DIMSOXD
 70
     0
  9
$DIMSAH
 70
     0
  9
$DIMBLK1
  1

  9
$DIMBLK2
  1

  9
$DIMSTYLE
  2
Standard
  9
$DIMCLRD
 70
     0
  9
$DIMCLRE
 70
     0
  9
$DIMCLRT
 70
     0
  9
$DIMTFAC
 40
1.0
  9
$DIMGAP
 40
0.09
  9
$DIMJUST
 70
     0
  9
$DIMSD1
 70
     0
  9
$DIMSD2
 70
     0
  9
$DIMTOLJ
 70
     1
  9
$DIMTZIN
 70
     0
  9
$DIMALTZ
 70
     0
  9
$DIMALTTZ
 70
     0
  9
$DIMUPT
 70
     0
  9
$DIMDEC
 70
     4
  9
$DIMTDEC
 70
     4
  9
$DIMALTU
 70
     2
  9
$DIMALTTD
 70
     2
  9
$DIMTXSTY
  7
Standard
  9
$DIMAUNIT
 70
     0
  9
$DIMADEC
 70
     0
  9
$DIMALTRND
 40
0.0
  9
$DIMAZIN
 70
     0
  9
$DIMDSEP
 70
    46
  9
$DIMATFIT
 70
     3
  9
$DIMFRAC
 70
     0
  9
$DIMLDRBLK
  1

  9
$DIMLUNIT
 70
     2
  9
$DIMLWD
 70
    -2
  9
$DIMLWE
 70
    -2
  9
$DIMTMOVE
 70
     0
  9
$DIMFXL
 40
1.0
  9
$DIMFXLON
 70
     0
  9
$DIMJOGANG
 40
0.7853981633974483
  9
$DIMTFILL
 70
     0
  9
$DIMTFILLCLR
 70
     0
  9
$DIMARCSYM
 70
     0
  9
$DIMLTYPE
  6

  9
$DIMLTEX1
  6

  9
$DIMLTEX2
  6

  9
$LUNITS
 70
     2
  9
$LUPREC
 70
     4
  9
$SKETCHINC
 40
0.1
  9
$FILLETRAD
 40
0.5
  9
$AUNITS
 70
     0
  9
$AUPREC
 70
     0
  9
$MENU
  1
.
  9
$ELEVATION
 40
0.0
  9
$PELEVATION
 40
0.0
  9
$THICKNESS
 40
0.0
  9
$LIMCHECK
 70
     0
  9
$CHAMFERA
 40
0.5
  9
$CHAMFERB
 40
0.5
  9
$CHAMFERC
 40
1.0
  9
$CHAMFERD
 40
0.0
  9
$SKPOLY
 70
     0
  9
$TDCREATE
 40
2458492.907577859
  9
$TDUCREATE
 40
2458492.740911192
  9
$TDUPDATE
 40
2458492.907578391
  9
$TDUUPDATE
 40
2458492.740911725
  9
$TDINDWG
 40
0.0000000116
  9
$TDUSRTIMER
 40
0.0000000116
  9
$USRTIMER
 70
     1
  9
$ANGBASE
 50
0.0
  9
$ANGDIR
 70
     0
  9
$PDMODE
 70
     0
  9
$PDSIZE
 40
0.0
  9
$PLINEWID
 40
0.0
  9
$SPLFRAME
 70
     0
  9
$SPLINETYPE
 70
     6
  9
$SPLINESEGS
 70
     8
  9
$HANDSEED
  5
8F
  9
$SURFTAB1
 70
     6
  9
$SURFTAB2
 70
     6
  9
$SURFTYPE
 70
     6
  9
$SURFU
 70
     6
  9
$SURFV
 70
     6
  9
$UCSBASE
  2

  9
$UCSNAME
  2

  9
$UCSORG
 10
0.0
 20
0.0
 30
0.0
  9
$UCSXDIR
 10
1.0
 20
0.0
 30
0.0
  9
$UCSYDIR
 10
0.0
 20
1.0
 30
0.0
  9
$UCSORTHOREF
  2

  9
$UCSORTHOVIEW
 70
     0
  9
$UCSORGTOP
 10
0.0
 20
0.0
 30
0.0
  9
$UCSORGBOTTOM
 10
0.0
 20
0.0
 30
0.0
  9
$UCSORGLEFT
 10
0.0
 20
0.0
 30
0.0
  9
$UCSORGRIGHT
 10
0.0
 20
0.0
 30
0.0
  9
$UCSORGFRONT
 10
0.0
 20
0.0
 30
0.0
  9
$UCSORGBACK
 10
0.0
 20
0.0
 30
0.0
  9
$PUCSBASE
  2

  9
$PUCSNAME
  2

  9
$PUCSORG
 10
0.0
 20
0.0
 30
0.0
  9
$PUCSXDIR
 10
1.0
 20
0.0
 30
0.0
  9
$PUCSYDIR
 10
0.0
 20
1.0
 30
0.0
  9
$PUCSORTHOREF
  2

  9
$PUCSORTHOVIEW
 70
     0
  9
$PUCSORGTOP
 10
0.0
 20
0.0
 30
0.0
  9
$PUCSORGBOTTOM
 10
0.0
 20
0.0
 30
0.0
  9
$PUCSORGLEFT
 10
0.0
 20
0.0
 30
0.0
  9
$PUCSORGRIGHT
 10
0.0
 20
0.0
 30
0.0
  9
$PUCSORGFRONT
 10
0.0
 20
0.0
 30
0.0
  9
$PUCSORGBACK
 10
0.0
 20
0.0
 30
0.0
  9
$USERI1
 70
     0
  9
$USERI2
 70
     0
  9
$USERI3
 70
     0
  9
$USERI4
 70
     0
  9
$USERI5
 70
     0
  9
$USERR1
 40
0.0
  9
$USERR2
 40
0.0
  9
$USERR3
 40
0.0
  9
$USERR4
 40
0.0
  9
$USERR5
 40
0.0
  9
$WORLDVIEW
 70
     1
  9
$SHADEDGE
 70
     3
  9
$SHADEDIF
 70
    70
  9
$TILEMODE
 70
     1
  9
$MAXACTVP
 70
    64
  9
$PINSBASE
 10
0.0
 20
0.0
 30
0.0
  9
$PLIMCHECK
 70
     0
  9
$PEXTMIN
 10
1.000000000000000E+20
 20
1.000000000000000E+20
 30
1.000000000000000E+20
  9
$PEXTMAX
 10
-1.000000000000000E+20
 20
-1.000000000000000E+20
 30
-1.000000000000000E+20
  9
$PLIMMIN
 10
0.0
 20
0.0
  9
$PLIMMAX
 10
12.0
 20
9.0
  9
$UNITMODE
 70
     0
  9
$VISRETAIN
 70
     1
  9
$PLINEGEN
 70
     0
  9
$PSLTSCALE
 70
     1
  9
$TREEDEPTH
 70
  3020
  9
$CMLSTYLE
  2
Standard
  9
$CMLJUST
 70
     0
  9
$CMLSCALE
 40
1.0
  9
$PROXYGRAPHICS
 70
     1
  9
$MEASUREMENT
 70
     0
  9
$CELWEIGHT
370
    -1
  9
$ENDCAPS
280
     0
  9
$JOINSTYLE
280
     0
  9
$LWDISPLAY
290
     0
  9
$INSUNITS
 70
     4
  9
$HYPERLINKBASE
  1

  9
$STYLESHEET
  1

  9
$XEDIT
290
     1
  9
$CEPSNTYPE
380
     0
  9
$PSTYLEMODE
290
     1
  9
$FINGERPRINTGUID
  2
{73623055-AFB1-424E-90DB-40236D7FDCFF}
  9
$VERSIONGUID
  2
{FAEB1C32-E019-11D5-929B-00C0DF256EC4}
  9
$EXTNAMES
290
     1
  9
$PSVPSCALE
 40
0.0
  9
$OLESTARTUP
290
     0
  9
$SORTENTS
280
   127
  9
$INDEXCTL
280
     0
  9
$HIDETEXT
280
     1
  9
$XCLIPFRAME
290
     0
  9
$HALOGAP
280
     0
  9
$OBSCOLOR
 70
   257
  9
$OBSLTYPE
280
     0
  9
$INTERSECTIONDISPLAY
280
     0
  9
$INTERSECTIONCOLOR
 70
   257
  9
$DIMASSOC
280
     2
  9
$PROJECTNAME
  1

  9
$CAMERADISPLAY
290
     0
  9
$LENSLENGTH
 40
50.0
  9
$CAMERAHEIGHT
 40
0.0
  9
$STEPSPERSEC
 40
2.0
  9
$STEPSIZE
 40
6.0
  9
$3DDWFPREC
 40
2.0
  9
$PSOLWIDTH
 40
0.25
  9
$PSOLHEIGHT
 40
4.0
  9
$LOFTANG1
 40
1.570796326794897
  9
$LOFTANG2
 40
1.570796326794897
  9
$LOFTMAG1
 40
0.0
  9
$LOFTMAG2
 40
0.0
  9
$LOFTPARAM
 70
     7
  9
$LOFTNORMALS
280
     1
  9
$LATITUDE
 40
37.795
  9
$LONGITUDE
 40
-122.394
  9
$NORTHDIRECTION
 40
0.0
  9
$TIMEZONE
 70
 -8000
  9
$LIGHTGLYPHDISPLAY
280
     1
  9
$TILEMODELIGHTSYNCH
280
     1
  9
$SOLIDHIST
280
     1
  9
$SHOWHIST
280
     1
  9
$DWFFRAME
280
     2
  9
$DGNFRAME
280
     2
  9
$REALWORLDSCALE
290
     1
  9
$INTERFERECOLOR
 62
   256
  9
$CSHADOW
280
     0
  9
$SHADOWPLANELOCATION
 40
0.0
  0
ENDSEC
  0
SECTION
  2
CLASSES
  0
CLASS
  1
ACDBDICTIONARYWDFLT
  2
AcDbDictionaryWithDefault
  3
ObjectDBX Classes
 90
        0
 91
        4
280
     0
281
     0
  0
CLASS
  1
VISUALSTYLE
  2
AcDbVisualStyle
  3
ObjectDBX Classes
 90
     4095
 91
        4
280
     0
281
     0
  0
CLASS
  1
MATERIAL
  2
AcDbMaterial
  3
ObjectDBX Classes
 90
     1153
 91
        4
280
     0
281
     0
  0
ENDSEC
  0
SECTION
  2
TABLES
  0
TABLE
  2
VPORT
  5
8
330
0
100
AcDbSymbolTable
 70
     1
  0
VPORT
  5
29
330
8
100
AcDbSymbolTableRecord
100
AcDbViewportTableRecord
  2
*Active
 70
     0
 10
0.0
 20
0.0
 11
1.0
 21
1.0
 12
10.42990654205607
 22
4.5
 13
0.0
 23
0.0
 14
0.5
 24
0.5
 15
0.5
 25
0.5
 16
0.0
 26
0.0
 36
1.0
 17
0.0
 27
0.0
 37
0.0
 40
9.0
 41
1.972972972850329
 42
50.0
 43
0.0
 44
0.0
 50
0.0
 51
0.0
 71
     0
 72
   100
 73
     1
 74
     3
 75
     0
 76
     0
 77
     0
 78
     0
281
     0
 65
     1
110
0.0
120
0.0
130
0.0
111
1.0
121
0.0
131
0.0
112
0.0
122
1.0
132
0.0
 79
     0
146
0.0
 60
     3
 61
     5
292
     1
282
     1
141
0.0
142
0.0
 63
   250
  0
ENDTAB
  0
TABLE
  2
LTYPE
  5
5
330
0
100
AcDbSymbolTable
 70
     1
  0
LTYPE
  5
14
330
5
100
AcDbSymbolTableRecord
100
AcDbLinetypeTableRecord
  2
ByBlock
 70
     0
  3

 72
    65
 73
     0
 40
0.0
  0
LTYPE
  5
15
330
5
100
AcDbSymbolTableRecord
100
AcDbLinetypeTableRecord
  2
ByLayer
 70
     0
  3

 72
    65
 73
     0
 40
0.0
  0
LTYPE
  5
16
330
5
100
AcDbSymbolTableRecord
100
AcDbLinetypeTableRecord
  2
Continuous
 70
     0
  3
Solid line
 72
    65
 73
     0
 40
0.0
  0
ENDTAB
  0
TABLE
  2
LAYER
  5
2
330
0
100
AcDbSymbolTable
 70
     2
  0
LAYER
  5
10
330
2
100
AcDbSymbolTableRecord
100
AcDbLayerTableRecord
  2
0
 70
     0
 62
     7
  6
Continuous
370
    -3
390
F
347
3E
  0
LAYER
  5
40
330
2
100
AcDbSymbolTableRecord
100
AcDbLayerTableRecord
  2
layer 1
 70
     0
 62
     7
  6
Continuous
370
    -3
390
F
347
3E
  0
ENDTAB
  0
TABLE
  2
STYLE
  5
3
330
0
100
AcDbSymbolTable
 70
     1
  0
STYLE
  5
11
330
3
100
AcDbSymbolTableRecord
100
AcDbTextStyleTableRecord
  2
Standard
 70
     0
 40
0.0
 41
1.0
 50
0.0
 71
     0
 42
0.2
  3
txt
  4

  0
ENDTAB
  0
TABLE
  2
VIEW
  5
6
330
0
100
AcDbSymbolTable
 70
     0
  0
ENDTAB
  0
TABLE
  2
UCS
  5
7
330
0
100
AcDbSymbolTable
 70
     0
  0
ENDTAB
  0
TABLE
  2
APPID
  5
9
330
0
100
AcDbSymbolTable
 70
     2
  0
APPID
  5
12
330
9
100
AcDbSymbolTableRecord
100
AcDbRegAppTableRecord
  2
ACAD
 70
     0
  0
APPID
  5
3F
330
9
100
AcDbSymbolTableRecord
100
AcDbRegAppTableRecord
  2
ODA
 70
     0
  0
ENDTAB
  0
TABLE
  2
DIMSTYLE
  5
A
330
0
100
AcDbSymbolTable
 70
     1
100
AcDbDimStyleTable
  0
DIMSTYLE
105
27
330
A
100
AcDbSymbolTableRecord
100
AcDbDimStyleTableRecord
  2
Standard
 70
     0
178
     0
340
11
  0
ENDTAB
  0
TABLE
  2
BLOCK_RECORD
  5
1
330
0
100
AcDbSymbolTable
 70
     1
  0
BLOCK_RECORD
  5
1F
330
1
100
AcDbSymbolTableRecord
100
AcDbBlockTableRecord
  2
*Model_Space
340
22
 70
     0
280
     1
281
     0
  0
BLOCK_RECORD
  5
1B
330
1
100
AcDbSymbolTableRecord
100
AcDbBlockTableRecord
  2
*Paper_Space
340
1E
 70
     0
280
     1
281
     0
  0
BLOCK_RECORD
  5
23
330
1
100
AcDbSymbolTableRecord
100
AcDbBlockTableRecord
  2
*Paper_Space0
340
26
 70
     0
280
     1
281
     0
  0
ENDTAB
  0
ENDSEC
  0
SECTION
  2
BLOCKS
  0
BLOCK
  5
20
330
1F
100
AcDbEntity
  8
0
100
AcDbBlockBegin
  2
*Model_Space
 70
     0
 10
0.0
 20
0.0
 30
0.0
  3
*Model_Space
  1

  0
ENDBLK
  5
21
330
1F
100
AcDbEntity
  8
0
100
AcDbBlockEnd
  0
BLOCK
  5
1C
330
1B
100
AcDbEntity
 67
     1
  8
0
100
AcDbBlockBegin
  2
*Paper_Space
 70
     0
 10
0.0
 20
0.0
 30
0.0
  3
*Paper_Space
  1

  0
ENDBLK
  5
1D
330
1B
100
AcDbEntity
 67
     1
  8
0
100
AcDbBlockEnd
  0
BLOCK
  5
24
330
23
100
AcDbEntity
  8
0
100
AcDbBlockBegin
  2
*Paper_Space0
 70
     0
 10
0.0
 20
0.0
 30
0.0
  3
*Paper_Space0
  1

  0
ENDBLK
  5
25
330
23
100
AcDbEntity
  8
0
100
AcDbBlockEnd
  0
ENDSEC
  0
SECTION
  2
ENTITIES
  0
SPLINE
  5
41
330
1F
100
AcDbEntity
  8
layer 1
 62
   250
100
AcDbSpline
210
0.0
220
0.0
230
1.0
 70
    11
 71
     3
 72
    20
 73
    16
 74
     0
 42
0.0000000001
 43
0.0000000001
 12
1.0
 22
0.0
 32
0.0
 13
1.0
 23
0.0
 33
0.0
 40
0.0
 40
0.0
 40
0.0
 40
0.0
 40
0.2
 40
0.2
 40
0.2
 40
0.2
 40
0.4
 40
0.4
 40
0.4
 40
0.4
 40
0.6
 40
0.6
 40
0.6
 40
0.6
 40
1.0
 40
1.0
 40
1.0
 40
1.0
 10
-187.5401
 20
-114.9426
 30
0.0
 10
-187.5401
 20
-114.9426
 30
0.0
 10
-187.5401
 20
131.7456
 30
0.0
 10
-187.5401
 20
131.7456
 30
0.0
 10
-187.5401
 20
131.7456
 30
0.0
 10
-187.5401
 20
131.7456
 30
0.0
 10
-90.4577
 20
131.7456
 30
0.0
 10
-90.4577
 20
131.7456
 30
0.0
 10
-90.4577
 20
131.7456
 30
0.0
 10
-90.4577
 20
131.7456
 30
0.0
 10
-90.4577
 20
-114.9426
 30
0.0
 10
-90.4577
 20
-114.9426
 30
0.0
 10
-90.4577
 20
-114.9426
 30
0.0
 10
-90.4577
 20
-114.9426
 30
0.0
 10
-187.5401
 20
-114.9426
 30
0.0
 10
-187.5401
 20
-114.9426
 30
0.0
  0
SPLINE
  5
42
330
1F
100
AcDbEntity
  8
layer 1
 62
     7
100
AcDbSpline
210
0.0
220
0.0
230
1.0
 70
    11
 71
     3
 72
    20
 73
    16
 74
     0
 42
0.0000000001
 43
0.0000000001
 12
1.0
 22
0.0
 32
0.0
 13
1.0
 23
0.0
 33
0.0
 40
0.0
 40
0.0
 40
0.0
 40
0.0
 40
0.2
 40
0.2
 40
0.2
 40
0.2
 40
0.4
 40
0.4
 40
0.4
 40
0.4
 40
0.6
 40
0.6
 40
0.6
 40
0.6
 40
1.0
 40
1.0
 40
1.0
 40
1.0
 10
-163.7493
 20
-58.149
 30
0.0
 10
-161.5296
 20
-55.4677
 30
0.0
 10
-158.811
 20
-52.6238
 30
0.0
 10
-155.0771
 20
-48.9927
 30
0.0
 10
-155.0771
 20
-48.9927
 30
0.0
 10
-159.291
 20
-44.1365
 30
0.0
 10
-161.2746
 20
-40.9788
 30
0.0
 10
-163.3945
 20
-35.5171
 30
0.0
 10
-163.3945
 20
-35.5171
 30
0.0
 10
-162.8639
 20
-46.8846
 30
0.0
 10
-166.666
 20
-54.6907
 30
0.0
 10
-170.6881
 20
-58.9394
 30
0.0
 10
-170.6881
 20
-58.9394
 30
0.0
 10
-167.9461
 20
-57.9328
 30
0.0
 10
-166.0586
 20
-57.6195
 30
0.0
 10
-163.7493
 20
-58.149
 30
0.0
  0
SPLINE
  5
43
330
1F
100
AcDbEntity
  8
layer 1
 62
     7
100
AcDbSpline
210
0.0
220
0.0
230
1.0
 70
    11
 71
     3
 72
    20
 73
    16
 74
     0
 42
0.0000000001
 43
0.0000000001
 12
1.0
 22
0.0
 32
0.0
 13
1.0
 23
0.0
 33
0.0
 40
0.0
 40
0.0
 40
0.0
 40
0.0
 40
0.2
 40
0.2
 40
0.2
 40
0.2
 40
0.4
 40
0.4
 40
0.4
 40
0.4
 40
0.6
 40
0.6
 40
0.6
 40
0.6
 40
1.0
 40
1.0
 40
1.0
 40
1.0
 10
-170.3998
 20
-6.6446
 30
0.0
 10
-166.9604
 20
-5.9002
 30
0.0
 10
-163.6507
 20
-8.2033
 30
0.0
 10
-163.2804
 20
-11.1183
 30
0.0
 10
-163.2804
 20
-11.1183
 30
0.0
 10
-162.253
 20
-8.7477
 30
0.0
 10
-159.0395
 20
-4.5036
 30
0.0
 10
-152.2109
 20
-4.708
 30
0.0
 10
-152.2109
 20
-4.708
 30
0.0
 10
-153.2171
 20
-3.3162
 30
0.0
 10
-153.9807
 20
-3.0413
 30
0.0
 10
-155.908
 20
0.704
 30
0.0
 10
-155.908
 20
0.704
 30
0.0
 10
-161.1567
 20
0.7253
 30
0.0
 10
-167.1543
 20
-3.1386
 30
0.0
 10
-170.3998
 20
-6.6446
 30
0.0
  0
SPLINE
  5
44
330
1F
100
AcDbEntity
  8
layer 1
 62
     7
100
AcDbSpline
210
0.0
220
0.0
230
1.0
 70
    11
 71
     3
 72
    16
 73
    12
 74
     0
 42
0.0000000001
 43
0.0000000001
 12
1.0
 22
0.0
 32
0.0
 13
1.0
 23
0.0
 33
0.0
 40
0.0
 40
0.0
 40
0.0
 40
0.0
 40
0.25
 40
0.25
 40
0.25
 40
0.25
 40
0.5
 40
0.5
 40
0.5
 40
0.5
 40
1.0
 40
1.0
 40
1.0
 40
1.0
 10
-171.7511
 20
-15.6672
 30
0.0
 10
-170.709
 20
-24.2069
 30
0.0
 10
-166.3096
 20
-25.464
 30
0.0
 10
-165.1112
 20
-28.8148
 30
0.0
 10
-165.1112
 20
-28.8148
 30
0.0
 10
-166.7862
 20
-23.8725
 30
0.0
 10
-166.711
 20
-20.5437
 30
0.0
 10
-165.6359
 20
-16.6074
 30
0.0
 10
-165.6359
 20
-16.6074
 30
0.0
 10
-168.0131
 20
-17.8946
 30
0.0
 10
-170.08
 20
-17.5272
 30
0.0
 10
-171.7511
 20
-15.6672
 30
0.0
  0
SPLINE
  5
45
330
1F
100
AcDbEntity
  8
layer 1
 62
     7
100
AcDbSpline
210
0.0
220
0.0
230
1.0
 70
    11
 71
     3
 72
    24
 73
    20
 74
     0
 42
0.0000000001
 43
0.0000000001
 12
1.0
 22
0.0
 32
0.0
 13
1.0
 23
0.0
 33
0.0
 40
0.0
 40
0.0
 40
0.0
 40
0.0
 40
0.1666666666666667
 40
0.1666666666666667
 40
0.1666666666666667
 40
0.1666666666666667
 40
0.3333333333333333
 40
0.3333333333333333
 40
0.3333333333333333
 40
0.3333333333333333
 40
0.5
 40
0.5
 40
0.5
 40
0.5
 40
0.6666666666666666
 40
0.6666666666666666
 40
0.6666666666666666
 40
0.6666666666666666
 40
1.0
 40
1.0
 40
1.0
 40
1.0
 10
-181.6246
 20
-30.3562
 30
0.0
 10
-180.6696
 20
-27.999
 30
0.0
 10
-176.1603
 20
-26.2485
 30
0.0
 10
-173.044
 20
-27.2893
 30
0.0
 10
-173.044
 20
-27.2893
 30
0.0
 10
-174.4939
 20
-24.1074
 30
0.0
 10
-178.8924
 20
-15.72
 30
0.0
 10
-175.5775
 20
-9.4295
 30
0.0
 10
-175.5775
 20
-9.4295
 30
0.0
 10
-176.1683
 20
-6.5735
 30
0.0
 10
-176.1717
 20
-4.0212
 30
0.0
 10
-174.9198
 20
-2.2236
 30
0.0
 10
-174.9198
 20
-2.2236
 30
0.0
 10
-177.3208
 20
-1.4856
 30
0.0
 10
-180.7432
 20
1.6225
 30
0.0
 10
-181.6245
 20
5.1933
 30
0.0
 10
-181.6245
 20
5.1933
 30
0.0
 10
-181.6245
 20
5.1933
 30
0.0
 10
-181.6246
 20
-30.3562
 30
0.0
 10
-181.6246
 20
-30.3562
 30
0.0
  0
SPLINE
  5
46
330
1F
100
AcDbEntity
  8
layer 1
 62
     7
100
AcDbSpline
210
0.0
220
0.0
230
1.0
 70
    11
 71
     3
 72
    20
 73
    16
 74
     0
 42
0.0000000001
 43
0.0000000001
 12
1.0
 22
0.0
 32
0.0
 13
1.0
 23
0.0
 33
0.0
 40
0.0
 40
0.0
 40
0.0
 40
0.0
 40
0.2
 40
0.2
 40
0.2
 40
0.2
 40
0.4
 40
0.4
 40
0.4
 40
0.4
 40
0.6
 40
0.6
 40
0.6
 40
0.6
 40
1.0
 40
1.0
 40
1.0
 40
1.0
 10
-181.6246
 20
-53.3272
 30
0.0
 10
-178.4677
 20
-51.704
 30
0.0
 10
-174.6005
 20
-51.7885
 30
0.0
 10
-172.5852
 20
-53.7926
 30
0.0
 10
-172.5852
 20
-53.7926
 30
0.0
 10
-169.4477
 20
-50.3814
 30
0.0
 10
-167.4237
 20
-40.6636
 30
0.0
 10
-170.2102
 20
-35.6575
 30
0.0
 10
-170.2102
 20
-35.6575
 30
0.0
 10
-171.3434
 20
-42.2028
 30
0.0
 10
-178.2443
 20
-43.1499
 30
0.0
 10
-181.6246
 20
-39.2471
 30
0.0
 10
-181.6246
 20
-39.2471
 30
0.0
 10
-181.6246
 20
-39.2471
 30
0.0
 10
-181.6246
 20
-53.3272
 30
0.0
 10
-181.6246
 20
-53.3272
 30
0.0
  0
SPLINE
  5
47
330
1F
100
AcDbEntity
  8
layer 1
 62
     7
100
AcDbSpline
210
0.0
220
0.0
230
1.0
 70
    11
 71
     3
 72
    16
 73
    12
 74
     0
 42
0.0000000001
 43
0.0000000001
 12
1.0
 22
0.0
 32
0.0
 13
1.0
 23
0.0
 33
0.0
 40
0.0
 40
0.0
 40
0.0
 40
0.0
 40
0.25
 40
0.25
 40
0.25
 40
0.25
 40
0.5
 40
0.5
 40
0.5
 40
0.5
 40
1.0
 40
1.0
 40
1.0
 40
1.0
 10
-181.6246
 20
-71.402
 30
0.0
 10
-180.8073
 20
-66.9804
 30
0.0
 10
-179.5092
 20
-65.0923
 30
0.0
 10
-176.8516
 20
-62.0961
 30
0.0
 10
-176.8516
 20
-62.0961
 30
0.0
 10
-176.3644
 20
-58.4198
 30
0.0
 10
-177.1024
 20
-54.8946
 30
0.0
 10
-181.6246
 20
-54.707
 30
0.0
 10
-181.6246
 20
-54.707
 30
0.0
 10
-181.6246
 20
-54.707
 30
0.0
 10
-181.6246
 20
-71.402
 30
0.0
 10
-181.6246
 20
-71.402
 30
0.0
  0
SPLINE
  5
48
330
1F
100
AcDbEntity
  8
layer 1
 62
     7
100
AcDbSpline
210
0.0
220
0.0
230
1.0
 70
    11
 71
     3
 72
    40
 73
    36
 74
     0
 42
0.0000000001
 43
0.0000000001
 12
1.0
 22
0.0
 32
0.0
 13
1.0
 23
0.0
 33
0.0
 40
0.0
 40
0.0
 40
0.0
 40
0.0
 40
0.1
 40
0.1
 40
0.1
 40
0.1
 40
0.2
 40
0.2
 40
0.2
 40
0.2
 40
0.3
 40
0.3
 40
0.3
 40
0.3
 40
0.4
 40
0.4
 40
0.4
 40
0.4
 40
0.5
 40
0.5
 40
0.5
 40
0.5
 40
0.6
 40
0.6
 40
0.6
 40
0.6
 40
0.7
 40
0.7
 40
0.7
 40
0.7
 40
0.8
 40
0.8
 40
0.8
 40
0.8
 40
1.0
 40
1.0
 40
1.0
 40
1.0
 10
-181.6246
 20
-108.9666
 30
0.0
 10
-181.6246
 20
-108.9666
 30
0.0
 10
-142.583
 20
-108.9666
 30
0.0
 10
-142.583
 20
-108.9666
 30
0.0
 10
-142.583
 20
-108.9666
 30
0.0
 10
-143.4583
 20
-106.0316
 30
0.0
 10
-145.9253
 20
-105.8683
 30
0.0
 10
-148.3794
 20
-102.9163
 30
0.0
 10
-148.3794
 20
-102.9163
 30
0.0
 10
-149.8736
 20
-101.119
 30
0.0
 10
-150.3058
 20
-100.1666
 30
0.0
 10
-150.7592
 20
-96.8479
 30
0.0
 10
-150.7592
 20
-96.8479
 30
0.0
 10
-153.3717
 20
-98.7247
 30
0.0
 10
-161.2377
 20
-99.951
 30
0.0
 10
-168.1309
 20
-97.866
 30
0.0
 10
-168.1309
 20
-97.866
 30
0.0
 10
-169.4043
 20
-97.4595
 30
0.0
 10
-169.7423
 20
-97.4026
 30
0.0
 10
-170.6118
 20
-98.1174
 30
0.0
 10
-170.6118
 20
-98.1174
 30
0.0
 10
-171.9715
 20
-99.2818
 30
0.0
 10
-173.2259
 20
-101.2719
 30
0.0
 10
-174.221
 20
-104.4772
 30
0.0
 10
-174.221
 20
-104.4772
 30
0.0
 10
-177.7143
 20
-102.4678
 30
0.0
 10
-181.6246
 20
-95.5704
 30
0.0
 10
-175.6978
 20
-91.6106
 30
0.0
 10
-175.6978
 20
-91.6106
 30
0.0
 10
-178.9702
 20
-89.0352
 30
0.0
 10
-181.0825
 20
-84.9192
 30
0.0
 10
-181.6246
 20
-81.7204
 30
0.0
 10
-181.6246
 20
-81.7204
 30
0.0
 10
-181.6246
 20
-81.7204
 30
0.0
 10
-181.6246
 20
-108.9666
 30
0.0
 10
-181.6246
 20
-108.9666
 30
0.0
  0
SPLINE
  5
49
330
1F
100
AcDbEntity
  8
layer 1
 62
     7
100
AcDbSpline
210
0.0
220
0.0
230
1.0
 70
    11
 71
     3
 72
    28
 73
    24
 74
     0
 42
0.0000000001
 43
0.0000000001
 12
1.0
 22
0.0
 32
0.0
 13
1.0
 23
0.0
 33
0.0
 40
0.0
 40
0.0
 40
0.0
 40
0.0
 40
0.1428571428571428
 40
0.1428571428571428
 40
0.1428571428571428
 40
0.1428571428571428
 40
0.2857142857142857
 40
0.2857142857142857
 40
0.2857142857142857
 40
0.2857142857142857
 40
0.4285714285714285
 40
0.4285714285714285
 40
0.4285714285714285
 40
0.4285714285714285
 40
0.5714285714285714
 40
0.5714285714285714
 40
0.5714285714285714
 40
0.5714285714285714
 40
0.7142857142857143
 40
0.7142857142857143
 40
0.7142857142857143
 40
0.7142857142857143
 40
1.0
 40
1.0
 40
1.0
 40
1.0
 10
-162.6227
 20
-72.7943
 30
0.0
 10
-173.0101
 20
-73.771
 30
0.0
 10
-171.0762
 20
-83.8481
 30
0.0
 10
-165.7423
 20
-86.3337
 30
0.0
 10
-165.7423
 20
-86.3337
 30
0.0
 10
-158.3525
 20
-89.599
 30
0.0
 10
-153.1477
 20
-86.1658
 30
0.0
 10
-150.6291
 20
-84.206
 30
0.0
 10
-150.6291
 20
-84.206
 30
0.0
 10
-141.2387
 20
-75.0437
 30
0.0
 10
-145.3239
 20
-60.9273
 30
0.0
 10
-151.2237
 20
-55.1399
 30
0.0
 10
-151.2237
 20
-55.1399
 30
0.0
 10
-153.9599
 20
-57.2363
 30
0.0
 10
-155.0105
 20
-58.6583
 30
0.0
 10
-157.2933
 20
-60.7942
 30
0.0
 10
-157.2933
 20
-60.7942
 30
0.0
 10
-148.4821
 20
-64.1465
 30
0.0
 10
-150.2367
 20
-73.2244
 30
0.0
 10
-152.8772
 20
-76.036
 30
0.0
 10
-152.8772
 20
-76.036
 30
0.0
 10
-156.0179
 20
-79.3803
 30
0.0
 10
-162.3418
 20
-79.3518
 30
0.0
 10
-162.6227
 20
-72.7943
 30
0.0
  0
SPLINE
  5
4A
330
1F
100
AcDbEntity
  8
layer 1
 62
     7
100
AcDbSpline
210
0.0
220
0.0
230
1.0
 70
    11
 71
     3
 72
    16
 73
    12
 74
     0
 42
0.0000000001
 43
0.0000000001
 12
1.0
 22
0.0
 32
0.0
 13
1.0
 23
0.0
 33
0.0
 40
0.0
 40
0.0
 40
0.0
 40
0.0
 40
0.25
 40
0.25
 40
0.25
 40
0.25
 40
0.5
 40
0.5
 40
0.5
 40
0.5
 40
1.0
 40
1.0
 40
1.0
 40
1.0
 10
-159.0437
 20
-20.1172
 30
0.0
 10
-160.9835
 20
-28.6568
 30
0.0
 10
-153.7399
 20
-40.9239
 30
0.0
 10
-150.7522
 20
-43.9077
 30
0.0
 10
-150.7522
 20
-43.9077
 30
0.0
 10
-146.0047
 20
-38.7361
 30
0.0
 10
-140.1035
 20
-28.8012
 30
0.0
 10
-142.0101
 20
-19.5434
 30
0.0
 10
-142.0101
 20
-19.5434
 30
0.0
 10
-146.1765
 20
-7.2516
 30
0.0
 10
-158.336
 20
-13.582
 30
0.0
 10
-159.0437
 20
-20.1172
 30
0.0
  0
SPLINE
  5
4B
330
1F
100
AcDbEntity
  8
layer 1
 62
     7
100
AcDbSpline
210
0.0
220
0.0
230
1.0
 70
    11
 71
     3
 72
    20
 73
    16
 74
     0
 42
0.0000000001
 43
0.0000000001
 12
1.0
 22
0.0
 32
0.0
 13
1.0
 23
0.0
 33
0.0
 40
0.0
 40
0.0
 40
0.0
 40
0.0
 40
0.2
 40
0.2
 40
0.2
 40
0.2
 40
0.4
 40
0.4
 40
0.4
 40
0.4
 40
0.6
 40
0.6
 40
0.6
 40
0.6
 40
1.0
 40
1.0
 40
1.0
 40
1.0
 10
-139.0329
 20
-80.8925
 30
0.0
 10
-136.7246
 20
-80.8925
 30
0.0
 10
-134.8534
 20
-82.7638
 30
0.0
 10
-134.8534
 20
-85.072
 30
0.0
 10
-134.8534
 20
-85.072
 30
0.0
 10
-134.8534
 20
-87.3804
 30
0.0
 10
-136.7247
 20
-89.2516
 30
0.0
 10
-139.0329
 20
-89.2516
 30
0.0
 10
-139.0329
 20
-89.2516
 30
0.0
 10
-141.3413
 20
-89.2516
 30
0.0
 10
-143.2125
 20
-87.3803
 30
0.0
 10
-143.2125
 20
-85.072
 30
0.0
 10
-143.2125
 20
-85.072
 30
0.0
 10
-143.2125
 20
-82.7637
 30
0.0
 10
-141.3412
 20
-80.8925
 30
0.0
 10
-139.0329
 20
-80.8925
 30
0.0
  0
SPLINE
  5
4C
330
1F
100
AcDbEntity
  8
layer 1
 62
     7
100
AcDbSpline
210
0.0
220
0.0
230
1.0
 70
    11
 71
     3
 72
    20
 73
    16
 74
     0
 42
0.0000000001
 43
0.0000000001
 12
1.0
 22
0.0
 32
0.0
 13
1.0
 23
0.0
 33
0.0
 40
0.0
 40
0.0
 40
0.0
 40
0.0
 40
0.2
 40
0.2
 40
0.2
 40
0.2
 40
0.4
 40
0.4
 40
0.4
 40
0.4
 40
0.6
 40
0.6
 40
0.6
 40
0.6
 40
1.0
 40
1.0
 40
1.0
 40
1.0
 10
-138.9919
 20
16.0747
 30
0.0
 10
-134.7543
 20
16.0747
 30
0.0
 10
-131.3194
 20
12.6395
 30
0.0
 10
-131.3194
 20
8.4022
 30
0.0
 10
-131.3194
 20
8.4022
 30
0.0
 10
-131.3194
 20
4.1647
 30
0.0
 10
-134.7546
 20
0.7298
 30
0.0
 10
-138.9919
 20
0.7298
 30
0.0
 10
-138.9919
 20
0.7298
 30
0.0
 10
-143.2294
 20
0.7298
 30
0.0
 10
-146.6643
 20
4.1649
 30
0.0
 10
-146.6643
 20
8.4022
 30
0.0
 10
-146.6643
 20
8.4022
 30
0.0
 10
-146.6643
 20
12.6398
 30
0.0
 10
-143.2292
 20
16.0747
 30
0.0
 10
-138.9919
 20
16.0747
 30
0.0
  0
SPLINE
  5
4D
330
1F
100
AcDbEntity
  8
layer 1
 62
     7
100
AcDbSpline
210
0.0
220
0.0
230
1.0
 70
    11
 71
     3
 72
    20
 73
    16
 74
     0
 42
0.0000000001
 43
0.0000000001
 12
1.0
 22
0.0
 32
0.0
 13
1.0
 23
0.0
 33
0.0
 40
0.0
 40
0.0
 40
0.0
 40
0.0
 40
0.2
 40
0.2
 40
0.2
 40
0.2
 40
0.4
 40
0.4
 40
0.4
 40
0.4
 40
0.6
 40
0.6
 40
0.6
 40
0.6
 40
1.0
 40
1.0
 40
1.0
 40
1.0
 10
-157.6577
 20
9.7632
 30
0.0
 10
-163.4764
 20
8.921
 30
0.0
 10
-170.0987
 20
11.9985
 30
0.0
 10
-171.0101
 20
13.7019
 30
0.0
 10
-171.0101
 20
13.7019
 30
0.0
 10
-175.539
 20
11.4524
 30
0.0
 10
-175.3956
 20
5.1814
 30
0.0
 10
-171.0101
 20
3.0753
 30
0.0
 10
-171.0101
 20
3.0753
 30
0.0
 10
-170.0987
 20
4.7787
 30
0.0
 10
-163.4764
 20
7.8562
 30
0.0
 10
-157.6577
 20
7.014
 30
0.0
 10
-157.6577
 20
7.014
 30
0.0
 10
-157.6577
 20
7.014
 30
0.0
 10
-157.6577
 20
9.7632
 30
0.0
 10
-157.6577
 20
9.7632
 30
0.0
  0
SPLINE
  5
4E
330
1F
100
AcDbEntity
  8
layer 1
 62
     7
100
AcDbSpline
210
0.0
220
0.0
230
1.0
 70
    11
 71
     3
 72
    20
 73
    16
 74
     0
 42
0.0000000001
 43
0.0000000001
 12
1.0
 22
0.0
 32
0.0
 13
1.0
 23
0.0
 33
0.0
 40
0.0
 40
0.0
 40
0.0
 40
0.0
 40
0.2
 40
0.2
 40
0.2
 40
0.2
 40
0.4
 40
0.4
 40
0.4
 40
0.4
 40
0.6
 40
0.6
 40
0.6
 40
0.6
 40
1.0
 40
1.0
 40
1.0
 40
1.0
 10
-114.2484
 20
-58.149
 30
0.0
 10
-116.4681
 20
-55.4677
 30
0.0
 10
-119.1867
 20
-52.6238
 30
0.0
 10
-122.9206
 20
-48.9927
 30
0.0
 10
-122.9206
 20
-48.9927
 30
0.0
 10
-118.7067
 20
-44.1365
 30
0.0
 10
-116.7231
 20
-40.9788
 30
0.0
 10
-114.6032
 20
-35.5171
 30
0.0
 10
-114.6032
 20
-35.5171
 30
0.0
 10
-115.1338
 20
-46.8846
 30
0.0
 10
-111.3317
 20
-54.6907
 30
0.0
 10
-107.3096
 20
-58.9394
 30
0.0
 10
-107.3096
 20
-58.9394
 30
0.0
 10
-110.0516
 20
-57.9328
 30
0.0
 10
-111.9391
 20
-57.6195
 30
0.0
 10
-114.2484
 20
-58.149
 30
0.0
  0
SPLINE
  5
4F
330
1F
100
AcDbEntity
  8
layer 1
 62
     7
100
AcDbSpline
210
0.0
220
0.0
230
1.0
 70
    11
 71
     3
 72
    20
 73
    16
 74
     0
 42
0.0000000001
 43
0.0000000001
 12
1.0
 22
0.0
 32
0.0
 13
1.0
 23
0.0
 33
0.0
 40
0.0
 40
0.0
 40
0.0
 40
0.0
 40
0.2
 40
0.2
 40
0.2
 40
0.2
 40
0.4
 40
0.4
 40
0.4
 40
0.4
 40
0.6
 40
0.6
 40
0.6
 40
0.6
 40
1.0
 40
1.0
 40
1.0
 40
1.0
 10
-107.5979
 20
-6.6446
 30
0.0
 10
-111.0374
 20
-5.9002
 30
0.0
 10
-114.347
 20
-8.2033
 30
0.0
 10
-114.7174
 20
-11.1183
 30
0.0
 10
-114.7174
 20
-11.1183
 30
0.0
 10
-115.7448
 20
-8.7477
 30
0.0
 10
-118.9583
 20
-4.5036
 30
0.0
 10
-125.7869
 20
-4.708
 30
0.0
 10
-125.7869
 20
-4.708
 30
0.0
 10
-124.7806
 20
-3.3162
 30
0.0
 10
-124.017
 20
-3.0413
 30
0.0
 10
-122.0897
 20
0.704
 30
0.0
 10
-122.0897
 20
0.704
 30
0.0
 10
-116.841
 20
0.7253
 30
0.0
 10
-110.8434
 20
-3.1386
 30
0.0
 10
-107.5979
 20
-6.6446
 30
0.0
  0
SPLINE
  5
50
330
1F
100
AcDbEntity
  8
layer 1
 62
     7
100
AcDbSpline
210
0.0
220
0.0
230
1.0
 70
    11
 71
     3
 72
    16
 73
    12
 74
     0
 42
0.0000000001
 43
0.0000000001
 12
1.0
 22
0.0
 32
0.0
 13
1.0
 23
0.0
 33
0.0
 40
0.0
 40
0.0
 40
0.0
 40
0.0
 40
0.25
 40
0.25
 40
0.25
 40
0.25
 40
0.5
 40
0.5
 40
0.5
 40
0.5
 40
1.0
 40
1.0
 40
1.0
 40
1.0
 10
-106.2466
 20
-15.6672
 30
0.0
 10
-107.2887
 20
-24.2069
 30
0.0
 10
-111.6881
 20
-25.464
 30
0.0
 10
-112.8865
 20
-28.8148
 30
0.0
 10
-112.8865
 20
-28.8148
 30
0.0
 10
-111.2115
 20
-23.8725
 30
0.0
 10
-111.2867
 20
-20.5437
 30
0.0
 10
-112.3618
 20
-16.6074
 30
0.0
 10
-112.3618
 20
-16.6074
 30
0.0
 10
-109.9846
 20
-17.8946
 30
0.0
 10
-107.9177
 20
-17.5272
 30
0.0
 10
-106.2466
 20
-15.6672
 30
0.0
  0
SPLINE
  5
51
330
1F
100
AcDbEntity
  8
layer 1
 62
     7
100
AcDbSpline
210
0.0
220
0.0
230
1.0
 70
    11
 71
     3
 72
    24
 73
    20
 74
     0
 42
0.0000000001
 43
0.0000000001
 12
1.0
 22
0.0
 32
0.0
 13
1.0
 23
0.0
 33
0.0
 40
0.0
 40
0.0
 40
0.0
 40
0.0
 40
0.1666666666666667
 40
0.1666666666666667
 40
0.1666666666666667
 40
0.1666666666666667
 40
0.3333333333333333
 40
0.3333333333333333
 40
0.3333333333333333
 40
0.3333333333333333
 40
0.5
 40
0.5
 40
0.5
 40
0.5
 40
0.6666666666666666
 40
0.6666666666666666
 40
0.6666666666666666
 40
0.6666666666666666
 40
1.0
 40
1.0
 40
1.0
 40
1.0
 10
-96.3731
 20
-30.3562
 30
0.0
 10
-97.3281
 20
-27.999
 30
0.0
 10
-101.8374
 20
-26.2485
 30
0.0
 10
-104.9538
 20
-27.2893
 30
0.0
 10
-104.9538
 20
-27.2893
 30
0.0
 10
-103.5038
 20
-24.1074
 30
0.0
 10
-99.1053
 20
-15.72
 30
0.0
 10
-102.4203
 20
-9.4295
 30
0.0
 10
-102.4203
 20
-9.4295
 30
0.0
 10
-101.8294
 20
-6.5735
 30
0.0
 10
-101.826
 20
-4.0212
 30
0.0
 10
-103.0779
 20
-2.2236
 30
0.0
 10
-103.0779
 20
-2.2236
 30
0.0
 10
-100.6769
 20
-1.4856
 30
0.0
 10
-97.2545
 20
1.6225
 30
0.0
 10
-96.3732
 20
5.1933
 30
0.0
 10
-96.3732
 20
5.1933
 30
0.0
 10
-96.3732
 20
5.1933
 30
0.0
 10
-96.3731
 20
-30.3562
 30
0.0
 10
-96.3731
 20
-30.3562
 30
0.0
  0
SPLINE
  5
52
330
1F
100
AcDbEntity
  8
layer 1
 62
     7
100
AcDbSpline
210
0.0
220
0.0
230
1.0
 70
    11
 71
     3
 72
    20
 73
    16
 74
     0
 42
0.0000000001
 43
0.0000000001
 12
1.0
 22
0.0
 32
0.0
 13
1.0
 23
0.0
 33
0.0
 40
0.0
 40
0.0
 40
0.0
 40
0.0
 40
0.2
 40
0.2
 40
0.2
 40
0.2
 40
0.4
 40
0.4
 40
0.4
 40
0.4
 40
0.6
 40
0.6
 40
0.6
 40
0.6
 40
1.0
 40
1.0
 40
1.0
 40
1.0
 10
-96.3731
 20
-53.3272
 30
0.0
 10
-99.53
 20
-51.704
 30
0.0
 10
-103.3972
 20
-51.7885
 30
0.0
 10
-105.4125
 20
-53.7926
 30
0.0
 10
-105.4125
 20
-53.7926
 30
0.0
 10
-108.5501
 20
-50.3814
 30
0.0
 10
-110.574
 20
-40.6636
 30
0.0
 10
-107.7875
 20
-35.6575
 30
0.0
 10
-107.7875
 20
-35.6575
 30
0.0
 10
-106.6543
 20
-42.2028
 30
0.0
 10
-99.7534
 20
-43.1499
 30
0.0
 10
-96.3731
 20
-39.2471
 30
0.0
 10
-96.3731
 20
-39.2471
 30
0.0
 10
-96.3731
 20
-39.2471
 30
0.0
 10
-96.3731
 20
-53.3272
 30
0.0
 10
-96.3731
 20
-53.3272
 30
0.0
  0
SPLINE
  5
53
330
1F
100
AcDbEntity
  8
layer 1
 62
     7
100
AcDbSpline
210
0.0
220
0.0
230
1.0
 70
    11
 71
     3
 72
    16
 73
    12
 74
     0
 42
0.0000000001
 43
0.0000000001
 12
1.0
 22
0.0
 32
0.0
 13
1.0
 23
0.0
 33
0.0
 40
0.0
 40
0.0
 40
0.0
 40
0.0
 40
0.25
 40
0.25
 40
0.25
 40
0.25
 40
0.5
 40
0.5
 40
0.5
 40
0.5
 40
1.0
 40
1.0
 40
1.0
 40
1.0
 10
-96.3731
 20
-71.402
 30
0.0
 10
-97.1904
 20
-66.9804
 30
0.0
 10
-98.4885
 20
-65.0923
 30
0.0
 10
-101.1461
 20
-62.0961
 30
0.0
 10
-101.1461
 20
-62.0961
 30
0.0
 10
-101.6333
 20
-58.4198
 30
0.0
 10
-100.8953
 20
-54.8946
 30
0.0
 10
-96.3731
 20
-54.707
 30
0.0
 10
-96.3731
 20
-54.707
 30
0.0
 10
-96.3731
 20
-54.707
 30
0.0
 10
-96.3731
 20
-71.402
 30
0.0
 10
-96.3731
 20
-71.402
 30
0.0
  0
SPLINE
  5
54
330
1F
100
AcDbEntity
  8
layer 1
 62
     7
100
AcDbSpline
210
0.0
220
0.0
230
1.0
 70
    11
 71
     3
 72
    40
 73
    36
 74
     0
 42
0.0000000001
 43
0.0000000001
 12
1.0
 22
0.0
 32
0.0
 13
1.0
 23
0.0
 33
0.0
 40
0.0
 40
0.0
 40
0.0
 40
0.0
 40
0.1
 40
0.1
 40
0.1
 40
0.1
 40
0.2
 40
0.2
 40
0.2
 40
0.2
 40
0.3
 40
0.3
 40
0.3
 40
0.3
 40
0.4
 40
0.4
 40
0.4
 40
0.4
 40
0.5
 40
0.5
 40
0.5
 40
0.5
 40
0.6
 40
0.6
 40
0.6
 40
0.6
 40
0.7
 40
0.7
 40
0.7
 40
0.7
 40
0.8
 40
0.8
 40
0.8
 40
0.8
 40
1.0
 40
1.0
 40
1.0
 40
1.0
 10
-96.3731
 20
-108.9666
 30
0.0
 10
-96.3731
 20
-108.9666
 30
0.0
 10
-135.4147
 20
-108.9666
 30
0.0
 10
-135.4147
 20
-108.9666
 30
0.0
 10
-135.4147
 20
-108.9666
 30
0.0
 10
-134.5394
 20
-106.0316
 30
0.0
 10
-132.0724
 20
-105.8683
 30
0.0
 10
-129.6183
 20
-102.9163
 30
0.0
 10
-129.6183
 20
-102.9163
 30
0.0
 10
-128.1242
 20
-101.119
 30
0.0
 10
-127.6919
 20
-100.1666
 30
0.0
 10
-127.2385
 20
-96.8479
 30
0.0
 10
-127.2385
 20
-96.8479
 30
0.0
 10
-124.626
 20
-98.7247
 30
0.0
 10
-116.76
 20
-99.951
 30
0.0
 10
-109.8668
 20
-97.866
 30
0.0
 10
-109.8668
 20
-97.866
 30
0.0
 10
-108.5934
 20
-97.4595
 30
0.0
 10
-108.2554
 20
-97.4026
 30
0.0
 10
-107.3859
 20
-98.1174
 30
0.0
 10
-107.3859
 20
-98.1174
 30
0.0
 10
-106.0262
 20
-99.2818
 30
0.0
 10
-104.7718
 20
-101.2719
 30
0.0
 10
-103.7767
 20
-104.4772
 30
0.0
 10
-103.7767
 20
-104.4772
 30
0.0
 10
-100.2834
 20
-102.4678
 30
0.0
 10
-96.3731
 20
-95.5704
 30
0.0
 10
-102.2999
 20
-91.6106
 30
0.0
 10
-102.2999
 20
-91.6106
 30
0.0
 10
-99.0275
 20
-89.0352
 30
0.0
 10
-96.9152
 20
-84.9192
 30
0.0
 10
-96.3731
 20
-81.7204
 30
0.0
 10
-96.3731
 20
-81.7204
 30
0.0
 10
-96.3731
 20
-81.7204
 30
0.0
 10
-96.3731
 20
-108.9666
 30
0.0
 10
-96.3731
 20
-108.9666
 30
0.0
  0
SPLINE
  5
55
330
1F
100
AcDbEntity
  8
layer 1
 62
     7
100
AcDbSpline
210
0.0
220
0.0
230
1.0
 70
    11
 71
     3
 72
    28
 73
    24
 74
     0
 42
0.0000000001
 43
0.0000000001
 12
1.0
 22
0.0
 32
0.0
 13
1.0
 23
0.0
 33
0.0
 40
0.0
 40
0.0
 40
0.0
 40
0.0
 40
0.1428571428571428
 40
0.1428571428571428
 40
0.1428571428571428
 40
0.1428571428571428
 40
0.2857142857142857
 40
0.2857142857142857
 40
0.2857142857142857
 40
0.2857142857142857
 40
0.4285714285714285
 40
0.4285714285714285
 40
0.4285714285714285
 40
0.4285714285714285
 40
0.5714285714285714
 40
0.5714285714285714
 40
0.5714285714285714
 40
0.5714285714285714
 40
0.7142857142857143
 40
0.7142857142857143
 40
0.7142857142857143
 40
0.7142857142857143
 40
1.0
 40
1.0
 40
1.0
 40
1.0
 10
-115.375
 20
-72.7943
 30
0.0
 10
-104.9876
 20
-73.771
 30
0.0
 10
-106.9216
 20
-83.8481
 30
0.0
 10
-112.2554
 20
-86.3337
 30
0.0
 10
-112.2554
 20
-86.3337
 30
0.0
 10
-119.6452
 20
-89.599
 30
0.0
 10
-124.85
 20
-86.1658
 30
0.0
 10
-127.3686
 20
-84.206
 30
0.0
 10
-127.3686
 20
-84.206
 30
0.0
 10
-136.759
 20
-75.0437
 30
0.0
 10
-132.6738
 20
-60.9273
 30
0.0
 10
-126.774
 20
-55.1399
 30
0.0
 10
-126.774
 20
-55.1399
 30
0.0
 10
-124.0379
 20
-57.2363
 30
0.0
 10
-122.9872
 20
-58.6583
 30
0.0
 10
-120.7044
 20
-60.7942
 30
0.0
 10
-120.7044
 20
-60.7942
 30
0.0
 10
-129.5156
 20
-64.1465
 30
0.0
 10
-127.761
 20
-73.2244
 30
0.0
 10
-125.1205
 20
-76.036
 30
0.0
 10
-125.1205
 20
-76.036
 30
0.0
 10
-121.9798
 20
-79.3803
 30
0.0
 10
-115.6559
 20
-79.3518
 30
0.0
 10
-115.375
 20
-72.7943
 30
0.0
  0
SPLINE
  5
56
330
1F
100
AcDbEntity
  8
layer 1
 62
     7
100
AcDbSpline
210
0.0
220
0.0
230
1.0
 70
    11
 71
     3
 72
    16
 73
    12
 74
     0
 42
0.0000000001
 43
0.0000000001
 12
1.0
 22
0.0
 32
0.0
 13
1.0
 23
0.0
 33
0.0
 40
0.0
 40
0.0
 40
0.0
 40
0.0
 40
0.25
 40
0.25
 40
0.25
 40
0.25
 40
0.5
 40
0.5
 40
0.5
 40
0.5
 40
1.0
 40
1.0
 40
1.0
 40
1.0
 10
-118.954
 20
-20.1172
 30
0.0
 10
-117.0142
 20
-28.6568
 30
0.0
 10
-124.2578
 20
-40.9239
 30
0.0
 10
-127.2455
 20
-43.9077
 30
0.0
 10
-127.2455
 20
-43.9077
 30
0.0
 10
-131.993
 20
-38.7361
 30
0.0
 10
-137.8942
 20
-28.8012
 30
0.0
 10
-135.9876
 20
-19.5434
 30
0.0
 10
-135.9876
 20
-19.5434
 30
0.0
 10
-131.8212
 20
-7.2516
 30
0.0
 10
-119.6618
 20
-13.582
 30
0.0
 10
-118.954
 20
-20.1172
 30
0.0
  0
SPLINE
  5
57
330
1F
100
AcDbEntity
  8
layer 1
 62
     7
100
AcDbSpline
210
0.0
220
0.0
230
1.0
 70
    11
 71
     3
 72
    20
 73
    16
 74
     0
 42
0.0000000001
 43
0.0000000001
 12
1.0
 22
0.0
 32
0.0
 13
1.0
 23
0.0
 33
0.0
 40
0.0
 40
0.0
 40
0.0
 40
0.0
 40
0.2
 40
0.2
 40
0.2
 40
0.2
 40
0.4
 40
0.4
 40
0.4
 40
0.4
 40
0.6
 40
0.6
 40
0.6
 40
0.6
 40
1.0
 40
1.0
 40
1.0
 40
1.0
 10
-120.34
 20
9.7632
 30
0.0
 10
-114.5213
 20
8.921
 30
0.0
 10
-107.899
 20
11.9985
 30
0.0
 10
-106.9876
 20
13.7019
 30
0.0
 10
-106.9876
 20
13.7019
 30
0.0
 10
-102.4587
 20
11.4524
 30
0.0
 10
-102.6021
 20
5.1814
 30
0.0
 10
-106.9876
 20
3.0753
 30
0.0
 10
-106.9876
 20
3.0753
 30
0.0
 10
-107.899
 20
4.7787
 30
0.0
 10
-114.5213
 20
7.8562
 30
0.0
 10
-120.34
 20
7.014
 30
0.0
 10
-120.34
 20
7.014
 30
0.0
 10
-120.34
 20
7.014
 30
0.0
 10
-120.34
 20
9.7632
 30
0.0
 10
-120.34
 20
9.7632
 30
0.0
  0
SPLINE
  5
58
330
1F
100
AcDbEntity
  8
layer 1
 62
     7
100
AcDbSpline
210
0.0
220
0.0
230
1.0
 70
    11
 71
     3
 72
    20
 73
    16
 74
     0
 42
0.0000000001
 43
0.0000000001
 12
1.0
 22
0.0
 32
0.0
 13
1.0
 23
0.0
 33
0.0
 40
0.0
 40
0.0
 40
0.0
 40
0.0
 40
0.2
 40
0.2
 40
0.2
 40
0.2
 40
0.4
 40
0.4
 40
0.4
 40
0.4
 40
0.6
 40
0.6
 40
0.6
 40
0.6
 40
1.0
 40
1.0
 40
1.0
 40
1.0
 10
-139.0329
 20
-66.6158
 30
0.0
 10
-139.0329
 20
-62.8521
 30
0.0
 10
-136.4865
 20
-55.6313
 30
0.0
 10
-131.0403
 20
-49.5689
 30
0.0
 10
-131.0403
 20
-49.5689
 30
0.0
 10
-135.6932
 20
-45.4651
 30
0.0
 10
-138.399
 20
-39.2724
 30
0.0
 10
-139.0329
 20
-35.5997
 30
0.0
 10
-139.0329
 20
-35.5997
 30
0.0
 10
-139.6669
 20
-39.2724
 30
0.0
 10
-142.3045
 20
-45.4651
 30
0.0
 10
-146.9574
 20
-49.5689
 30
0.0
 10
-146.9574
 20
-49.5689
 30
0.0
 10
-141.5112
 20
-55.6313
 30
0.0
 10
-139.0329
 20
-62.8521
 30
0.0
 10
-139.0329
 20
-66.6158
 30
0.0
  0
SPLINE
  5
59
330
1F
100
AcDbEntity
  8
layer 1
 62
     7
100
AcDbSpline
210
0.0
220
0.0
230
1.0
 70
    11
 71
     3
 72
    20
 73
    16
 74
     0
 42
0.0000000001
 43
0.0000000001
 12
1.0
 22
0.0
 32
0.0
 13
1.0
 23
0.0
 33
0.0
 40
0.0
 40
0.0
 40
0.0
 40
0.0
 40
0.2
 40
0.2
 40
0.2
 40
0.2
 40
0.4
 40
0.4
 40
0.4
 40
0.4
 40
0.6
 40
0.6
 40
0.6
 40
0.6
 40
1.0
 40
1.0
 40
1.0
 40
1.0
 10
-163.7493
 20
74.9519
 30
0.0
 10
-161.5296
 20
72.2706
 30
0.0
 10
-158.811
 20
69.4268
 30
0.0
 10
-155.0771
 20
65.7957
 30
0.0
 10
-155.0771
 20
65.7957
 30
0.0
 10
-159.291
 20
60.9394
 30
0.0
 10
-161.2746
 20
57.7818
 30
0.0
 10
-163.3945
 20
52.3201
 30
0.0
 10
-163.3945
 20
52.3201
 30
0.0
 10
-162.8639
 20
63.6875
 30
0.0
 10
-166.666
 20
71.4937
 30
0.0
 10
-170.6881
 20
75.7423
 30
0.0
 10
-170.6881
 20
75.7423
 30
0.0
 10
-167.9461
 20
74.7357
 30
0.0
 10
-166.0586
 20
74.4224
 30
0.0
 10
-163.7493
 20
74.9519
 30
0.0
  0
SPLINE
  5
5A
330
1F
100
AcDbEntity
  8
layer 1
 62
     7
100
AcDbSpline
210
0.0
220
0.0
230
1.0
 70
    11
 71
     3
 72
    20
 73
    16
 74
     0
 42
0.0000000001
 43
0.0000000001
 12
1.0
 22
0.0
 32
0.0
 13
1.0
 23
0.0
 33
0.0
 40
0.0
 40
0.0
 40
0.0
 40
0.0
 40
0.2
 40
0.2
 40
0.2
 40
0.2
 40
0.4
 40
0.4
 40
0.4
 40
0.4
 40
0.6
 40
0.6
 40
0.6
 40
0.6
 40
1.0
 40
1.0
 40
1.0
 40
1.0
 10
-170.3998
 20
23.4476
 30
0.0
 10
-166.9604
 20
22.7032
 30
0.0
 10
-163.6507
 20
25.0063
 30
0.0
 10
-163.2804
 20
27.9213
 30
0.0
 10
-163.2804
 20
27.9213
 30
0.0
 10
-162.253
 20
25.5507
 30
0.0
 10
-159.0395
 20
21.3065
 30
0.0
 10
-152.2109
 20
21.511
 30
0.0
 10
-152.2109
 20
21.511
 30
0.0
 10
-153.2171
 20
20.1191
 30
0.0
 10
-153.9807
 20
19.8442
 30
0.0
 10
-155.908
 20
16.099
 30
0.0
 10
-155.908
 20
16.099
 30
0.0
 10
-161.1567
 20
16.0776
 30
0.0
 10
-167.1543
 20
19.9416
 30
0.0
 10
-170.3998
 20
23.4476
 30
0.0
  0
SPLINE
  5
5B
330
1F
100
AcDbEntity
  8
layer 1
 62
     7
100
AcDbSpline
210
0.0
220
0.0
230
1.0
 70
    11
 71
     3
 72
    16
 73
    12
 74
     0
 42
0.0000000001
 43
0.0000000001
 12
1.0
 22
0.0
 32
0.0
 13
1.0
 23
0.0
 33
0.0
 40
0.0
 40
0.0
 40
0.0
 40
0.0
 40
0.25
 40
0.25
 40
0.25
 40
0.25
 40
0.5
 40
0.5
 40
0.5
 40
0.5
 40
1.0
 40
1.0
 40
1.0
 40
1.0
 10
-171.7511
 20
32.4702
 30
0.0
 10
-170.709
 20
41.0098
 30
0.0
 10
-166.3096
 20
42.2669
 30
0.0
 10
-165.1112
 20
45.6178
 30
0.0
 10
-165.1112
 20
45.6178
 30
0.0
 10
-166.7862
 20
40.6755
 30
0.0
 10
-166.711
 20
37.3466
 30
0.0
 10
-165.6359
 20
33.4103
 30
0.0
 10
-165.6359
 20
33.4103
 30
0.0
 10
-168.0131
 20
34.6976
 30
0.0
 10
-170.08
 20
34.3302
 30
0.0
 10
-171.7511
 20
32.4702
 30
0.0
  0
SPLINE
  5
5C
330
1F
100
AcDbEntity
  8
layer 1
 62
     7
100
AcDbSpline
210
0.0
220
0.0
230
1.0
 70
    11
 71
     3
 72
    24
 73
    20
 74
     0
 42
0.0000000001
 43
0.0000000001
 12
1.0
 22
0.0
 32
0.0
 13
1.0
 23
0.0
 33
0.0
 40
0.0
 40
0.0
 40
0.0
 40
0.0
 40
0.1666666666666667
 40
0.1666666666666667
 40
0.1666666666666667
 40
0.1666666666666667
 40
0.3333333333333333
 40
0.3333333333333333
 40
0.3333333333333333
 40
0.3333333333333333
 40
0.5
 40
0.5
 40
0.5
 40
0.5
 40
0.6666666666666666
 40
0.6666666666666666
 40
0.6666666666666666
 40
0.6666666666666666
 40
1.0
 40
1.0
 40
1.0
 40
1.0
 10
-181.6246
 20
47.1591
 30
0.0
 10
-180.6696
 20
44.802
 30
0.0
 10
-176.1603
 20
43.0514
 30
0.0
 10
-173.044
 20
44.0922
 30
0.0
 10
-173.044
 20
44.0922
 30
0.0
 10
-174.4939
 20
40.9104
 30
0.0
 10
-178.8924
 20
32.523
 30
0.0
 10
-175.5775
 20
26.2325
 30
0.0
 10
-175.5775
 20
26.2325
 30
0.0
 10
-176.1683
 20
23.3765
 30
0.0
 10
-176.1717
 20
20.8241
 30
0.0
 10
-174.9198
 20
19.0266
 30
0.0
 10
-174.9198
 20
19.0266
 30
0.0
 10
-177.3208
 20
18.2885
 30
0.0
 10
-180.7432
 20
15.1805
 30
0.0
 10
-181.6245
 20
11.6097
 30
0.0
 10
-181.6245
 20
11.6097
 30
0.0
 10
-181.6245
 20
11.6097
 30
0.0
 10
-181.6246
 20
47.1591
 30
0.0
 10
-181.6246
 20
47.1591
 30
0.0
  0
SPLINE
  5
5D
330
1F
100
AcDbEntity
  8
layer 1
 62
     7
100
AcDbSpline
210
0.0
220
0.0
230
1.0
 70
    11
 71
     3
 72
    20
 73
    16
 74
     0
 42
0.0000000001
 43
0.0000000001
 12
1.0
 22
0.0
 32
0.0
 13
1.0
 23
0.0
 33
0.0
 40
0.0
 40
0.0
 40
0.0
 40
0.0
 40
0.2
 40
0.2
 40
0.2
 40
0.2
 40
0.4
 40
0.4
 40
0.4
 40
0.4
 40
0.6
 40
0.6
 40
0.6
 40
0.6
 40
1.0
 40
1.0
 40
1.0
 40
1.0
 10
-181.6246
 20
70.1301
 30
0.0
 10
-178.4677
 20
68.5069
 30
0.0
 10
-174.6005
 20
68.5915
 30
0.0
 10
-172.5852
 20
70.5956
 30
0.0
 10
-172.5852
 20
70.5956
 30
0.0
 10
-169.4477
 20
67.1843
 30
0.0
 10
-167.4237
 20
57.4666
 30
0.0
 10
-170.2102
 20
52.4605
 30
0.0
 10
-170.2102
 20
52.4605
 30
0.0
 10
-171.3434
 20
59.0057
 30
0.0
 10
-178.2443
 20
59.9528
 30
0.0
 10
-181.6246
 20
56.0501
 30
0.0
 10
-181.6246
 20
56.0501
 30
0.0
 10
-181.6246
 20
56.0501
 30
0.0
 10
-181.6246
 20
70.1301
 30
0.0
 10
-181.6246
 20
70.1301
 30
0.0
  0
SPLINE
  5
5E
330
1F
100
AcDbEntity
  8
layer 1
 62
     7
100
AcDbSpline
210
0.0
220
0.0
230
1.0
 70
    11
 71
     3
 72
    16
 73
    12
 74
     0
 42
0.0000000001
 43
0.0000000001
 12
1.0
 22
0.0
 32
0.0
 13
1.0
 23
0.0
 33
0.0
 40
0.0
 40
0.0
 40
0.0
 40
0.0
 40
0.25
 40
0.25
 40
0.25
 40
0.25
 40
0.5
 40
0.5
 40
0.5
 40
0.5
 40
1.0
 40
1.0
 40
1.0
 40
1.0
 10
-181.6246
 20
88.205
 30
0.0
 10
-180.8073
 20
83.7834
 30
0.0
 10
-179.5092
 20
81.8953
 30
0.0
 10
-176.8516
 20
78.899
 30
0.0
 10
-176.8516
 20
78.899
 30
0.0
 10
-176.3644
 20
75.2228
 30
0.0
 10
-177.1024
 20
71.6975
 30
0.0
 10
-181.6246
 20
71.51
 30
0.0
 10
-181.6246
 20
71.51
 30
0.0
 10
-181.6246
 20
71.51
 30
0.0
 10
-181.6246
 20
88.205
 30
0.0
 10
-181.6246
 20
88.205
 30
0.0
  0
SPLINE
  5
5F
330
1F
100
AcDbEntity
  8
layer 1
 62
     7
100
AcDbSpline
210
0.0
220
0.0
230
1.0
 70
    11
 71
     3
 72
    40
 73
    36
 74
     0
 42
0.0000000001
 43
0.0000000001
 12
1.0
 22
0.0
 32
0.0
 13
1.0
 23
0.0
 33
0.0
 40
0.0
 40
0.0
 40
0.0
 40
0.0
 40
0.1
 40
0.1
 40
0.1
 40
0.1
 40
0.2
 40
0.2
 40
0.2
 40
0.2
 40
0.3
 40
0.3
 40
0.3
 40
0.3
 40
0.4
 40
0.4
 40
0.4
 40
0.4
 40
0.5
 40
0.5
 40
0.5
 40
0.5
 40
0.6
 40
0.6
 40
0.6
 40
0.6
 40
0.7
 40
0.7
 40
0.7
 40
0.7
 40
0.8
 40
0.8
 40
0.8
 40
0.8
 40
1.0
 40
1.0
 40
1.0
 40
1.0
 10
-181.6246
 20
125.7696
 30
0.0
 10
-181.6246
 20
125.7696
 30
0.0
 10
-142.583
 20
125.7696
 30
0.0
 10
-142.583
 20
125.7696
 30
0.0
 10
-142.583
 20
125.7696
 30
0.0
 10
-143.4583
 20
122.8346
 30
0.0
 10
-145.9253
 20
122.6713
 30
0.0
 10
-148.3794
 20
119.7192
 30
0.0
 10
-148.3794
 20
119.7192
 30
0.0
 10
-149.8736
 20
117.9219
 30
0.0
 10
-150.3058
 20
116.9695
 30
0.0
 10
-150.7592
 20
113.6508
 30
0.0
 10
-150.7592
 20
113.6508
 30
0.0
 10
-153.3717
 20
115.5276
 30
0.0
 10
-161.2377
 20
116.7539
 30
0.0
 10
-168.1309
 20
114.6689
 30
0.0
 10
-168.1309
 20
114.6689
 30
0.0
 10
-169.4043
 20
114.2625
 30
0.0
 10
-169.7423
 20
114.2056
 30
0.0
 10
-170.6118
 20
114.9204
 30
0.0
 10
-170.6118
 20
114.9204
 30
0.0
 10
-171.9715
 20
116.0847
 30
0.0
 10
-173.2259
 20
118.0749
 30
0.0
 10
-174.221
 20
121.2801
 30
0.0
 10
-174.221
 20
121.2801
 30
0.0
 10
-177.7143
 20
119.2707
 30
0.0
 10
-181.6246
 20
112.3734
 30
0.0
 10
-175.6978
 20
108.4136
 30
0.0
 10
-175.6978
 20
108.4136
 30
0.0
 10
-178.9702
 20
105.8382
 30
0.0
 10
-181.0825
 20
101.7221
 30
0.0
 10
-181.6246
 20
98.5233
 30
0.0
 10
-181.6246
 20
98.5233
 30
0.0
 10
-181.6246
 20
98.5233
 30
0.0
 10
-181.6246
 20
125.7696
 30
0.0
 10
-181.6246
 20
125.7696
 30
0.0
  0
SPLINE
  5
60
330
1F
100
AcDbEntity
  8
layer 1
 62
     7
100
AcDbSpline
210
0.0
220
0.0
230
1.0
 70
    11
 71
     3
 72
    28
 73
    24
 74
     0
 42
0.0000000001
 43
0.0000000001
 12
1.0
 22
0.0
 32
0.0
 13
1.0
 23
0.0
 33
0.0
 40
0.0
 40
0.0
 40
0.0
 40
0.0
 40
0.1428571428571428
 40
0.1428571428571428
 40
0.1428571428571428
 40
0.1428571428571428
 40
0.2857142857142857
 40
0.2857142857142857
 40
0.2857142857142857
 40
0.2857142857142857
 40
0.4285714285714285
 40
0.4285714285714285
 40
0.4285714285714285
 40
0.4285714285714285
 40
0.5714285714285714
 40
0.5714285714285714
 40
0.5714285714285714
 40
0.5714285714285714
 40
0.7142857142857143
 40
0.7142857142857143
 40
0.7142857142857143
 40
0.7142857142857143
 40
1.0
 40
1.0
 40
1.0
 40
1.0
 10
-162.6227
 20
89.5973
 30
0.0
 10
-173.0101
 20
90.574
 30
0.0
 10
-171.0762
 20
100.651
 30
0.0
 10
-165.7423
 20
103.1367
 30
0.0
 10
-165.7423
 20
103.1367
 30
0.0
 10
-158.3525
 20
106.4019
 30
0.0
 10
-153.1477
 20
102.9688
 30
0.0
 10
-150.6291
 20
101.009
 30
0.0
 10
-150.6291
 20
101.009
 30
0.0
 10
-141.2387
 20
91.8466
 30
0.0
 10
-145.3239
 20
77.7302
 30
0.0
 10
-151.2237
 20
71.9429
 30
0.0
 10
-151.2237
 20
71.9429
 30
0.0
 10
-153.9599
 20
74.0393
 30
0.0
 10
-155.0105
 20
75.4612
 30
0.0
 10
-157.2933
 20
77.5971
 30
0.0
 10
-157.2933
 20
77.5971
 30
0.0
 10
-148.4821
 20
80.9495
 30
0.0
 10
-150.2367
 20
90.0273
 30
0.0
 10
-152.8772
 20
92.839
 30
0.0
 10
-152.8772
 20
92.839
 30
0.0
 10
-156.0179
 20
96.1832
 30
0.0
 10
-162.3418
 20
96.1548
 30
0.0
 10
-162.6227
 20
89.5973
 30
0.0
  0
SPLINE
  5
61
330
1F
100
AcDbEntity
  8
layer 1
 62
     7
100
AcDbSpline
210
0.0
220
0.0
230
1.0
 70
    11
 71
     3
 72
    16
 73
    12
 74
     0
 42
0.0000000001
 43
0.0000000001
 12
1.0
 22
0.0
 32
0.0
 13
1.0
 23
0.0
 33
0.0
 40
0.0
 40
0.0
 40
0.0
 40
0.0
 40
0.25
 40
0.25
 40
0.25
 40
0.25
 40
0.5
 40
0.5
 40
0.5
 40
0.5
 40
1.0
 40
1.0
 40
1.0
 40
1.0
 10
-159.0437
 20
36.9201
 30
0.0
 10
-160.9835
 20
45.4597
 30
0.0
 10
-153.7399
 20
57.7269
 30
0.0
 10
-150.7522
 20
60.7107
 30
0.0
 10
-150.7522
 20
60.7107
 30
0.0
 10
-146.0047
 20
55.539
 30
0.0
 10
-140.1035
 20
45.6041
 30
0.0
 10
-142.0101
 20
36.3464
 30
0.0
 10
-142.0101
 20
36.3464
 30
0.0
 10
-146.1765
 20
24.0546
 30
0.0
 10
-158.336
 20
30.3849
 30
0.0
 10
-159.0437
 20
36.9201
 30
0.0
  0
SPLINE
  5
62
330
1F
100
AcDbEntity
  8
layer 1
 62
     7
100
AcDbSpline
210
0.0
220
0.0
230
1.0
 70
    11
 71
     3
 72
    20
 73
    16
 74
     0
 42
0.0000000001
 43
0.0000000001
 12
1.0
 22
0.0
 32
0.0
 13
1.0
 23
0.0
 33
0.0
 40
0.0
 40
0.0
 40
0.0
 40
0.0
 40
0.2
 40
0.2
 40
0.2
 40
0.2
 40
0.4
 40
0.4
 40
0.4
 40
0.4
 40
0.6
 40
0.6
 40
0.6
 40
0.6
 40
1.0
 40
1.0
 40
1.0
 40
1.0
 10
-139.0329
 20
97.6954
 30
0.0
 10
-136.7246
 20
97.6954
 30
0.0
 10
-134.8534
 20
99.5667
 30
0.0
 10
-134.8534
 20
101.875
 30
0.0
 10
-134.8534
 20
101.875
 30
0.0
 10
-134.8534
 20
104.1834
 30
0.0
 10
-136.7247
 20
106.0545
 30
0.0
 10
-139.0329
 20
106.0545
 30
0.0
 10
-139.0329
 20
106.0545
 30
0.0
 10
-141.3413
 20
106.0545
 30
0.0
 10
-143.2125
 20
104.1832
 30
0.0
 10
-143.2125
 20
101.875
 30
0.0
 10
-143.2125
 20
101.875
 30
0.0
 10
-143.2125
 20
99.5666
 30
0.0
 10
-141.3412
 20
97.6954
 30
0.0
 10
-139.0329
 20
97.6954
 30
0.0
  0
SPLINE
  5
63
330
1F
100
AcDbEntity
  8
layer 1
 62
     7
100
AcDbSpline
210
0.0
220
0.0
230
1.0
 70
    11
 71
     3
 72
    20
 73
    16
 74
     0
 42
0.0000000001
 43
0.0000000001
 12
1.0
 22
0.0
 32
0.0
 13
1.0
 23
0.0
 33
0.0
 40
0.0
 40
0.0
 40
0.0
 40
0.0
 40
0.2
 40
0.2
 40
0.2
 40
0.2
 40
0.4
 40
0.4
 40
0.4
 40
0.4
 40
0.6
 40
0.6
 40
0.6
 40
0.6
 40
1.0
 40
1.0
 40
1.0
 40
1.0
 10
-114.2484
 20
74.9519
 30
0.0
 10
-116.4681
 20
72.2706
 30
0.0
 10
-119.1867
 20
69.4268
 30
0.0
 10
-122.9206
 20
65.7957
 30
0.0
 10
-122.9206
 20
65.7957
 30
0.0
 10
-118.7067
 20
60.9394
 30
0.0
 10
-116.7231
 20
57.7818
 30
0.0
 10
-114.6032
 20
52.3201
 30
0.0
 10
-114.6032
 20
52.3201
 30
0.0
 10
-115.1338
 20
63.6875
 30
0.0
 10
-111.3317
 20
71.4937
 30
0.0
 10
-107.3096
 20
75.7423
 30
0.0
 10
-107.3096
 20
75.7423
 30
0.0
 10
-110.0516
 20
74.7357
 30
0.0
 10
-111.9391
 20
74.4224
 30
0.0
 10
-114.2484
 20
74.9519
 30
0.0
  0
SPLINE
  5
64
330
1F
100
AcDbEntity
  8
layer 1
 62
     7
100
AcDbSpline
210
0.0
220
0.0
230
1.0
 70
    11
 71
     3
 72
    20
 73
    16
 74
     0
 42
0.0000000001
 43
0.0000000001
 12
1.0
 22
0.0
 32
0.0
 13
1.0
 23
0.0
 33
0.0
 40
0.0
 40
0.0
 40
0.0
 40
0.0
 40
0.2
 40
0.2
 40
0.2
 40
0.2
 40
0.4
 40
0.4
 40
0.4
 40
0.4
 40
0.6
 40
0.6
 40
0.6
 40
0.6
 40
1.0
 40
1.0
 40
1.0
 40
1.0
 10
-107.5979
 20
23.4476
 30
0.0
 10
-111.0374
 20
22.7032
 30
0.0
 10
-114.347
 20
25.0063
 30
0.0
 10
-114.7174
 20
27.9213
 30
0.0
 10
-114.7174
 20
27.9213
 30
0.0
 10
-115.7448
 20
25.5507
 30
0.0
 10
-118.9583
 20
21.3065
 30
0.0
 10
-125.7869
 20
21.511
 30
0.0
 10
-125.7869
 20
21.511
 30
0.0
 10
-124.7806
 20
20.1191
 30
0.0
 10
-124.017
 20
19.8442
 30
0.0
 10
-122.0897
 20
16.099
 30
0.0
 10
-122.0897
 20
16.099
 30
0.0
 10
-116.841
 20
16.0776
 30
0.0
 10
-110.8434
 20
19.9416
 30
0.0
 10
-107.5979
 20
23.4476
 30
0.0
  0
SPLINE
  5
65
330
1F
100
AcDbEntity
  8
layer 1
 62
     7
100
AcDbSpline
210
0.0
220
0.0
230
1.0
 70
    11
 71
     3
 72
    16
 73
    12
 74
     0
 42
0.0000000001
 43
0.0000000001
 12
1.0
 22
0.0
 32
0.0
 13
1.0
 23
0.0
 33
0.0
 40
0.0
 40
0.0
 40
0.0
 40
0.0
 40
0.25
 40
0.25
 40
0.25
 40
0.25
 40
0.5
 40
0.5
 40
0.5
 40
0.5
 40
1.0
 40
1.0
 40
1.0
 40
1.0
 10
-106.2466
 20
32.4702
 30
0.0
 10
-107.2887
 20
41.0098
 30
0.0
 10
-111.6881
 20
42.2669
 30
0.0
 10
-112.8865
 20
45.6178
 30
0.0
 10
-112.8865
 20
45.6178
 30
0.0
 10
-111.2115
 20
40.6755
 30
0.0
 10
-111.2867
 20
37.3466
 30
0.0
 10
-112.3618
 20
33.4103
 30
0.0
 10
-112.3618
 20
33.4103
 30
0.0
 10
-109.9846
 20
34.6976
 30
0.0
 10
-107.9177
 20
34.3302
 30
0.0
 10
-106.2466
 20
32.4702
 30
0.0
  0
SPLINE
  5
66
330
1F
100
AcDbEntity
  8
layer 1
 62
     7
100
AcDbSpline
210
0.0
220
0.0
230
1.0
 70
    11
 71
     3
 72
    24
 73
    20
 74
     0
 42
0.0000000001
 43
0.0000000001
 12
1.0
 22
0.0
 32
0.0
 13
1.0
 23
0.0
 33
0.0
 40
0.0
 40
0.0
 40
0.0
 40
0.0
 40
0.1666666666666667
 40
0.1666666666666667
 40
0.1666666666666667
 40
0.1666666666666667
 40
0.3333333333333333
 40
0.3333333333333333
 40
0.3333333333333333
 40
0.3333333333333333
 40
0.5
 40
0.5
 40
0.5
 40
0.5
 40
0.6666666666666666
 40
0.6666666666666666
 40
0.6666666666666666
 40
0.6666666666666666
 40
1.0
 40
1.0
 40
1.0
 40
1.0
 10
-96.3731
 20
47.1591
 30
0.0
 10
-97.3281
 20
44.802
 30
0.0
 10
-101.8374
 20
43.0514
 30
0.0
 10
-104.9538
 20
44.0922
 30
0.0
 10
-104.9538
 20
44.0922
 30
0.0
 10
-103.5038
 20
40.9104
 30
0.0
 10
-99.1053
 20
32.523
 30
0.0
 10
-102.4203
 20
26.2325
 30
0.0
 10
-102.4203
 20
26.2325
 30
0.0
 10
-101.8294
 20
23.3765
 30
0.0
 10
-101.826
 20
20.8241
 30
0.0
 10
-103.0779
 20
19.0266
 30
0.0
 10
-103.0779
 20
19.0266
 30
0.0
 10
-100.6769
 20
18.2885
 30
0.0
 10
-97.2545
 20
15.1805
 30
0.0
 10
-96.3732
 20
11.6097
 30
0.0
 10
-96.3732
 20
11.6097
 30
0.0
 10
-96.3732
 20
11.6097
 30
0.0
 10
-96.3731
 20
47.1591
 30
0.0
 10
-96.3731
 20
47.1591
 30
0.0
  0
SPLINE
  5
67
330
1F
100
AcDbEntity
  8
layer 1
 62
     7
100
AcDbSpline
210
0.0
220
0.0
230
1.0
 70
    11
 71
     3
 72
    20
 73
    16
 74
     0
 42
0.0000000001
 43
0.0000000001
 12
1.0
 22
0.0
 32
0.0
 13
1.0
 23
0.0
 33
0.0
 40
0.0
 40
0.0
 40
0.0
 40
0.0
 40
0.2
 40
0.2
 40
0.2
 40
0.2
 40
0.4
 40
0.4
 40
0.4
 40
0.4
 40
0.6
 40
0.6
 40
0.6
 40
0.6
 40
1.0
 40
1.0
 40
1.0
 40
1.0
 10
-96.3731
 20
70.1301
 30
0.0
 10
-99.53
 20
68.5069
 30
0.0
 10
-103.3972
 20
68.5915
 30
0.0
 10
-105.4125
 20
70.5956
 30
0.0
 10
-105.4125
 20
70.5956
 30
0.0
 10
-108.5501
 20
67.1843
 30
0.0
 10
-110.574
 20
57.4666
 30
0.0
 10
-107.7875
 20
52.4605
 30
0.0
 10
-107.7875
 20
52.4605
 30
0.0
 10
-106.6543
 20
59.0057
 30
0.0
 10
-99.7534
 20
59.9528
 30
0.0
 10
-96.3731
 20
56.0501
 30
0.0
 10
-96.3731
 20
56.0501
 30
0.0
 10
-96.3731
 20
56.0501
 30
0.0
 10
-96.3731
 20
70.1301
 30
0.0
 10
-96.3731
 20
70.1301
 30
0.0
  0
SPLINE
  5
68
330
1F
100
AcDbEntity
  8
layer 1
 62
     7
100
AcDbSpline
210
0.0
220
0.0
230
1.0
 70
    11
 71
     3
 72
    16
 73
    12
 74
     0
 42
0.0000000001
 43
0.0000000001
 12
1.0
 22
0.0
 32
0.0
 13
1.0
 23
0.0
 33
0.0
 40
0.0
 40
0.0
 40
0.0
 40
0.0
 40
0.25
 40
0.25
 40
0.25
 40
0.25
 40
0.5
 40
0.5
 40
0.5
 40
0.5
 40
1.0
 40
1.0
 40
1.0
 40
1.0
 10
-96.3731
 20
88.205
 30
0.0
 10
-97.1904
 20
83.7834
 30
0.0
 10
-98.4885
 20
81.8953
 30
0.0
 10
-101.1461
 20
78.899
 30
0.0
 10
-101.1461
 20
78.899
 30
0.0
 10
-101.6333
 20
75.2228
 30
0.0
 10
-100.8953
 20
71.6975
 30
0.0
 10
-96.3731
 20
71.51
 30
0.0
 10
-96.3731
 20
71.51
 30
0.0
 10
-96.3731
 20
71.51
 30
0.0
 10
-96.3731
 20
88.205
 30
0.0
 10
-96.3731
 20
88.205
 30
0.0
  0
SPLINE
  5
69
330
1F
100
AcDbEntity
  8
layer 1
 62
     7
100
AcDbSpline
210
0.0
220
0.0
230
1.0
 70
    11
 71
     3
 72
    40
 73
    36
 74
     0
 42
0.0000000001
 43
0.0000000001
 12
1.0
 22
0.0
 32
0.0
 13
1.0
 23
0.0
 33
0.0
 40
0.0
 40
0.0
 40
0.0
 40
0.0
 40
0.1
 40
0.1
 40
0.1
 40
0.1
 40
0.2
 40
0.2
 40
0.2
 40
0.2
 40
0.3
 40
0.3
 40
0.3
 40
0.3
 40
0.4
 40
0.4
 40
0.4
 40
0.4
 40
0.5
 40
0.5
 40
0.5
 40
0.5
 40
0.6
 40
0.6
 40
0.6
 40
0.6
 40
0.7
 40
0.7
 40
0.7
 40
0.7
 40
0.8
 40
0.8
 40
0.8
 40
0.8
 40
1.0
 40
1.0
 40
1.0
 40
1.0
 10
-96.3731
 20
125.7696
 30
0.0
 10
-96.3731
 20
125.7696
 30
0.0
 10
-135.4147
 20
125.7696
 30
0.0
 10
-135.4147
 20
125.7696
 30
0.0
 10
-135.4147
 20
125.7696
 30
0.0
 10
-134.5394
 20
122.8346
 30
0.0
 10
-132.0724
 20
122.6713
 30
0.0
 10
-129.6183
 20
119.7192
 30
0.0
 10
-129.6183
 20
119.7192
 30
0.0
 10
-128.1242
 20
117.9219
 30
0.0
 10
-127.6919
 20
116.9695
 30
0.0
 10
-127.2385
 20
113.6508
 30
0.0
 10
-127.2385
 20
113.6508
 30
0.0
 10
-124.626
 20
115.5276
 30
0.0
 10
-116.76
 20
116.7539
 30
0.0
 10
-109.8668
 20
114.6689
 30
0.0
 10
-109.8668
 20
114.6689
 30
0.0
 10
-108.5934
 20
114.2625
 30
0.0
 10
-108.2554
 20
114.2056
 30
0.0
 10
-107.3859
 20
114.9204
 30
0.0
 10
-107.3859
 20
114.9204
 30
0.0
 10
-106.0262
 20
116.0847
 30
0.0
 10
-104.7718
 20
118.0749
 30
0.0
 10
-103.7767
 20
121.2801
 30
0.0
 10
-103.7767
 20
121.2801
 30
0.0
 10
-100.2834
 20
119.2707
 30
0.0
 10
-96.3731
 20
112.3734
 30
0.0
 10
-102.2999
 20
108.4136
 30
0.0
 10
-102.2999
 20
108.4136
 30
0.0
 10
-99.0275
 20
105.8382
 30
0.0
 10
-96.9152
 20
101.7221
 30
0.0
 10
-96.3731
 20
98.5233
 30
0.0
 10
-96.3731
 20
98.5233
 30
0.0
 10
-96.3731
 20
98.5233
 30
0.0
 10
-96.3731
 20
125.7696
 30
0.0
 10
-96.3731
 20
125.7696
 30
0.0
  0
SPLINE
  5
6A
330
1F
100
AcDbEntity
  8
layer 1
 62
     7
100
AcDbSpline
210
0.0
220
0.0
230
1.0
 70
    11
 71
     3
 72
    28
 73
    24
 74
     0
 42
0.0000000001
 43
0.0000000001
 12
1.0
 22
0.0
 32
0.0
 13
1.0
 23
0.0
 33
0.0
 40
0.0
 40
0.0
 40
0.0
 40
0.0
 40
0.1428571428571428
 40
0.1428571428571428
 40
0.1428571428571428
 40
0.1428571428571428
 40
0.2857142857142857
 40
0.2857142857142857
 40
0.2857142857142857
 40
0.2857142857142857
 40
0.4285714285714285
 40
0.4285714285714285
 40
0.4285714285714285
 40
0.4285714285714285
 40
0.5714285714285714
 40
0.5714285714285714
 40
0.5714285714285714
 40
0.5714285714285714
 40
0.7142857142857143
 40
0.7142857142857143
 40
0.7142857142857143
 40
0.7142857142857143
 40
1.0
 40
1.0
 40
1.0
 40
1.0
 10
-115.375
 20
89.5973
 30
0.0
 10
-104.9876
 20
90.574
 30
0.0
 10
-106.9216
 20
100.651
 30
0.0
 10
-112.2554
 20
103.1367
 30
0.0
 10
-112.2554
 20
103.1367
 30
0.0
 10
-119.6452
 20
106.4019
 30
0.0
 10
-124.85
 20
102.9688
 30
0.0
 10
-127.3686
 20
101.009
 30
0.0
 10
-127.3686
 20
101.009
 30
0.0
 10
-136.759
 20
91.8466
 30
0.0
 10
-132.6738
 20
77.7302
 30
0.0
 10
-126.774
 20
71.9429
 30
0.0
 10
-126.774
 20
71.9429
 30
0.0
 10
-124.0379
 20
74.0393
 30
0.0
 10
-122.9872
 20
75.4612
 30
0.0
 10
-120.7044
 20
77.5971
 30
0.0
 10
-120.7044
 20
77.5971
 30
0.0
 10
-129.5156
 20
80.9495
 30
0.0
 10
-127.761
 20
90.0273
 30
0.0
 10
-125.1205
 20
92.839
 30
0.0
 10
-125.1205
 20
92.839
 30
0.0
 10
-121.9798
 20
96.1832
 30
0.0
 10
-115.6559
 20
96.1548
 30
0.0
 10
-115.375
 20
89.5973
 30
0.0
  0
SPLINE
  5
6B
330
1F
100
AcDbEntity
  8
layer 1
 62
     7
100
AcDbSpline
210
0.0
220
0.0
230
1.0
 70
    11
 71
     3
 72
    16
 73
    12
 74
     0
 42
0.0000000001
 43
0.0000000001
 12
1.0
 22
0.0
 32
0.0
 13
1.0
 23
0.0
 33
0.0
 40
0.0
 40
0.0
 40
0.0
 40
0.0
 40
0.25
 40
0.25
 40
0.25
 40
0.25
 40
0.5
 40
0.5
 40
0.5
 40
0.5
 40
1.0
 40
1.0
 40
1.0
 40
1.0
 10
-118.954
 20
36.9201
 30
0.0
 10
-117.0142
 20
45.4597
 30
0.0
 10
-124.2578
 20
57.7269
 30
0.0
 10
-127.2455
 20
60.7107
 30
0.0
 10
-127.2455
 20
60.7107
 30
0.0
 10
-131.993
 20
55.539
 30
0.0
 10
-137.8942
 20
45.6041
 30
0.0
 10
-135.9876
 20
36.3464
 30
0.0
 10
-135.9876
 20
36.3464
 30
0.0
 10
-131.8212
 20
24.0546
 30
0.0
 10
-119.6618
 20
30.3849
 30
0.0
 10
-118.954
 20
36.9201
 30
0.0
  0
SPLINE
  5
6C
330
1F
100
AcDbEntity
  8
layer 1
 62
     7
100
AcDbSpline
210
0.0
220
0.0
230
1.0
 70
    11
 71
     3
 72
    20
 73
    16
 74
     0
 42
0.0000000001
 43
0.0000000001
 12
1.0
 22
0.0
 32
0.0
 13
1.0
 23
0.0
 33
0.0
 40
0.0
 40
0.0
 40
0.0
 40
0.0
 40
0.2
 40
0.2
 40
0.2
 40
0.2
 40
0.4
 40
0.4
 40
0.4
 40
0.4
 40
0.6
 40
0.6
 40
0.6
 40
0.6
 40
1.0
 40
1.0
 40
1.0
 40
1.0
 10
-139.0329
 20
83.4188
 30
0.0
 10
-139.0329
 20
79.6551
 30
0.0
 10
-136.4865
 20
72.4343
 30
0.0
 10
-131.0403
 20
66.3718
 30
0.0
 10
-131.0403
 20
66.3718
 30
0.0
 10
-135.6932
 20
62.268
 30
0.0
 10
-138.399
 20
56.0753
 30
0.0
 10
-139.0329
 20
52.4026
 30
0.0
 10
-139.0329
 20
52.4026
 30
0.0
 10
-139.6669
 20
56.0753
 30
0.0
 10
-142.3045
 20
62.268
 30
0.0
 10
-146.9574
 20
66.3718
 30
0.0
 10
-146.9574
 20
66.3718
 30
0.0
 10
-141.5112
 20
72.4343
 30
0.0
 10
-139.0329
 20
79.6551
 30
0.0
 10
-139.0329
 20
83.4188
 30
0.0
  0
ENDSEC
  0
SECTION
  2
OBJECTS
  0
DICTIONARY
  5
C
330
0
100
AcDbDictionary
281
     1
  3
ACAD_GROUP
350
D
  3
ACAD_LAYOUT
350
1A
  3
ACAD_MATERIAL
350
3B
  3
ACAD_MLEADERSTYLE
350
8E
  3
ACAD_MLINESTYLE
350
17
  3
ACAD_PLOTSETTINGS
350
19
  3
ACAD_PLOTSTYLENAME
350
E
  3
ACAD_TABLESTYLE
350
8D
  3
ACAD_VISUALSTYLE
350
2A
  0
DICTIONARY
  5
D
102
{ACAD_REACTORS
330
C
102
}
330
C
100
AcDbDictionary
281
     1
  0
DICTIONARY
  5
1A
102
{ACAD_REACTORS
330
C
102
}
330
C
100
AcDbDictionary
281
     1
  3
Layout1
350
1E
  3
Layout2
350
26
  3
Model
350
22
  0
DICTIONARY
  5
3B
102
{ACAD_REACTORS
330
C
102
}
330
C
100
AcDbDictionary
281
     1
  3
ByBlock
350
3D
  3
ByLayer
350
3C
  3
Global
350
3E
  0
DICTIONARY
  5
8E
102
{ACAD_REACTORS
330
C
102
}
330
C
100
AcDbDictionary
281
     1
  0
DICTIONARY
  5
17
102
{ACAD_REACTORS
330
C
102
}
330
C
100
AcDbDictionary
281
     1
  3
Standard
350
18
  0
DICTIONARY
  5
19
102
{ACAD_REACTORS
330
C
102
}
330
C
100
AcDbDictionary
281
     1
  0
ACDBDICTIONARYWDFLT
  5
E
102
{ACAD_REACTORS
330
C
102
}
330
C
100
AcDbDictionary
281
     1
  3
Normal
350
F
100
AcDbDictionaryWithDefault
340
F
  0
DICTIONARY
  5
8D
102
{ACAD_REACTORS
330
C
102
}
330
C
100
AcDbDictionary
281
     1
  0
DICTIONARY
  5
2A
102
{ACAD_REACTORS
330
C
102
}
330
C
100
AcDbDictionary
281
     1
  3
2dWireframe
350
2F
  3
3D Hidden
350
31
  3
3dWireframe
350
30
  3
Basic
350
32
  3
Brighten
350
36
  3
ColorChange
350
3A
  3
Conceptual
350
34
  3
Dim
350
35
  3
Facepattern
350
39
  3
Flat
350
2B
  3
FlatWithEdges
350
2C
  3
Gouraud
350
2D
  3
GouraudWithEdges
350
2E
  3
Linepattern
350
38
  3
Realistic
350
33
  3
Thicken
350
37
  0
LAYOUT
  5
1E
102
{ACAD_REACTORS
330
1A
102
}
330
1A
100
AcDbPlotSettings
  1

  2
none_device
  4

  6

 40
0.0
 41
0.0
 42
0.0
 43
0.0
 44
0.0
 45
0.0
 46
0.0
 47
0.0
 48
0.0
 49
0.0
140
0.0
141
0.0
142
1.0
143
1.0
 70
   688
 72
     0
 73
     0
 74
     5
  7

 75
    16
 76
     0
 77
     2
 78
   300
147
1.0
148
0.0
149
0.0
100
AcDbLayout
  1
Layout1
 70
     1
 71
     1
 10
0.0
 20
0.0
 11
12.0
 21
9.0
 12
0.0
 22
0.0
 32
0.0
 14
1.000000000000000E+20
 24
1.000000000000000E+20
 34
1.000000000000000E+20
 15
-1.000000000000000E+20
 25
-1.000000000000000E+20
 35
-1.000000000000000E+20
146
0.0
 13
0.0
 23
0.0
 33
0.0
 16
1.0
 26
0.0
 36
0.0
 17
0.0
 27
1.0
 37
0.0
 76
     0
330
1B
  0
LAYOUT
  5
26
102
{ACAD_REACTORS
330
1A
102
}
330
1A
100
AcDbPlotSettings
  1

  2
none_device
  4

  6

 40
0.0
 41
0.0
 42
0.0
 43
0.0
 44
0.0
 45
0.0
 46
0.0
 47
0.0
 48
0.0
 49
0.0
140
0.0
141
0.0
142
1.0
143
1.0
 70
   688
 72
     0
 73
     0
 74
     5
  7

 75
    16
 76
     0
 77
     2
 78
   300
147
1.0
148
0.0
149
0.0
100
AcDbLayout
  1
Layout2
 70
     1
 71
     2
 10
0.0
 20
0.0
 11
0.0
 21
0.0
 12
0.0
 22
0.0
 32
0.0
 14
0.0
 24
0.0
 34
0.0
 15
0.0
 25
0.0
 35
0.0
146
0.0
 13
0.0
 23
0.0
 33
0.0
 16
1.0
 26
0.0
 36
0.0
 17
0.0
 27
1.0
 37
0.0
 76
     0
330
23
  0
LAYOUT
  5
22
102
{ACAD_REACTORS
330
1A
102
}
330
1A
100
AcDbPlotSettings
  1

  2
none_device
  4

  6

 40
0.0
 41
0.0
 42
0.0
 43
0.0
 44
0.0
 45
0.0
 46
0.0
 47
0.0
 48
0.0
 49
0.0
140
0.0
141
0.0
142
1.0
143
1.0
 70
  1712
 72
     0
 73
     0
 74
     0
  7

 75
     0
 76
     0
 77
     2
 78
   300
147
1.0
148
0.0
149
0.0
100
AcDbLayout
  1
Model
 70
     1
 71
     0
 10
0.0
 20
0.0
 11
12.0
 21
9.0
 12
0.0
 22
0.0
 32
0.0
 14
-187.5401
 24
-114.9426
 34
0.0
 15
-90.4577
 25
131.7456
 35
0.0
146
0.0
 13
0.0
 23
0.0
 33
0.0
 16
1.0
 26
0.0
 36
0.0
 17
0.0
 27
1.0
 37
0.0
 76
     0
330
1F
331
29
  0
MATERIAL
  5
3D
102
{ACAD_REACTORS
330
3B
102
}
330
3B
100
AcDbMaterial
  1
ByBlock
 72
     1
 94
      127
  0
MATERIAL
  5
3C
102
{ACAD_REACTORS
330
3B
102
}
330
3B
100
AcDbMaterial
  1
ByLayer
 72
     1
 94
      127
  0
MATERIAL
  5
3E
102
{ACAD_REACTORS
330
3B
102
}
330
3B
100
AcDbMaterial
  1
Global
 72
     1
 94
      127
  0
MLINESTYLE
  5
18
102
{ACAD_REACTORS
330
17
102
}
330
17
100
AcDbMlineStyle
  2
Standard
 70
     0
  3

 62
   256
 51
90.0
 52
90.0
 71
     2
 49
0.5
 62
   256
  6
BYLAYER
 49
-0.5
 62
   256
  6
BYLAYER
  0
ACDBPLACEHOLDER
  5
F
102
{ACAD_REACTORS
330
E
102
}
330
E
  0
VISUALSTYLE
  5
2F
102
{ACAD_REACTORS
330
2A
102
}
102
{ACAD_XDICTIONARY
360
75
102
}
330
2A
100
AcDbVisualStyle
  2
2dWireframe
 70
     4
 71
     0
 72
     2
 73
     0
 90
        0
 40
-0.6
 41
-30.0
 62
     5
 63
     7
421
 16777215
 74
     1
 91
        4
 64
     7
 65
   257
 75
     1
175
     1
 42
1.0
 92
        0
 66
   257
 43
1.0
 76
     1
 77
     6
 78
     2
 67
     7
 79
     5
170
     0
171
     0
290
     0
174
     0
 93
        1
 44
0.0
173
     0
291
     0
 45
0.0
  0
VISUALSTYLE
  5
31
102
{ACAD_REACTORS
330
2A
102
}
102
{ACAD_XDICTIONARY
360
79
102
}
330
2A
100
AcDbVisualStyle
  2
3D Hidden
 70
     6
 71
     1
 72
     2
 73
     2
 90
        0
 40
-0.6
 41
-30.0
 62
     5
 63
     7
421
 16777215
 74
     2
 91
        2
 64
     7
 65
   257
 75
     2
175
     1
 42
40.0
 92
        0
 66
   257
 43
1.0
 76
     1
 77
     6
 78
     2
 67
     7
 79
     3
170
     0
171
     0
290
     0
174
     0
 93
        1
 44
0.0
173
     0
291
     0
 45
0.0
  0
VISUALSTYLE
  5
30
102
{ACAD_REACTORS
330
2A
102
}
102
{ACAD_XDICTIONARY
360
77
102
}
330
2A
100
AcDbVisualStyle
  2
3dWireframe
 70
     5
 71
     0
 72
     2
 73
     0
 90
        0
 40
-0.6
 41
-30.0
 62
     5
 63
     7
421
 16777215
 74
     1
 91
        4
 64
     7
 65
   257
 75
     1
175
     1
 42
1.0
 92
        0
 66
   257
 43
1.0
 76
     1
 77
     6
 78
     2
 67
     7
 79
     5
170
     0
171
     0
290
     0
174
     0
 93
        1
 44
0.0
173
     0
291
     0
 45
0.0
  0
VISUALSTYLE
  5
32
102
{ACAD_REACTORS
330
2A
102
}
102
{ACAD_XDICTIONARY
360
7B
102
}
330
2A
100
AcDbVisualStyle
  2
Basic
 70
     7
 71
     1
 72
     0
 73
     1
 90
        0
 40
-0.6
 41
-30.0
 62
     5
 63
     7
421
 16777215
 74
     0
 91
        4
 64
     7
 65
   257
 75
     1
175
     1
 42
1.0
 92
        8
 66
     7
 43
1.0
 76
     1
 77
     6
 78
     2
 67
     7
 79
     5
170
     0
171
     0
290
     0
174
     0
 93
        1
 44
0.0
173
     0
291
     1
 45
0.0
  0
VISUALSTYLE
  5
36
102
{ACAD_REACTORS
330
2A
102
}
102
{ACAD_XDICTIONARY
360
83
102
}
330
2A
100
AcDbVisualStyle
  2
Brighten
 70
    12
 71
     2
 72
     2
 73
     0
 90
        0
 40
-0.6
 41
-30.0
 62
     5
 63
     7
421
 16777215
 74
     1
 91
        4
 64
     7
 65
   257
 75
     1
175
     1
 42
1.0
 92
        8
 66
     7
 43
1.0
 76
     1
 77
     6
 78
     2
 67
     7
 79
     5
170
     0
171
     0
290
     0
174
     0
 93
        1
 44
50.0
173
     0
291
     1
 45
0.0
  0
VISUALSTYLE
  5
3A
102
{ACAD_REACTORS
330
2A
102
}
102
{ACAD_XDICTIONARY
360
8B
102
}
330
2A
100
AcDbVisualStyle
  2
ColorChange
 70
    16
 71
     2
 72
     2
 73
     3
 90
        0
 40
-0.6
 41
-30.0
 62
     5
 63
     8
421
  8421504
 74
     1
 91
        4
 64
     7
 65
   257
 75
     1
175
     1
 42
1.0
 92
        8
 66
     8
424
  8421504
 43
1.0
 76
     1
 77
     6
 78
     2
 67
     7
 79
     5
170
     0
171
     0
290
     0
174
     0
 93
        1
 44
0.0
173
     0
291
     1
 45
0.0
  0
VISUALSTYLE
  5
34
102
{ACAD_REACTORS
330
2A
102
}
102
{ACAD_XDICTIONARY
360
7F
102
}
330
2A
100
AcDbVisualStyle
  2
Conceptual
 70
     9
 71
     3
 72
     2
 73
     0
 90
        0
 40
-0.6
 41
-30.0
 62
     5
 63
     7
421
 16777215
 74
     2
 91
        2
 64
     7
 65
   257
 75
     1
175
     1
 42
40.0
 92
        8
 66
     7
 43
1.0
 76
     1
 77
     6
 78
     2
 67
     7
 79
     3
170
     0
171
     0
290
     0
174
     0
 93
        1
 44
0.0
173
     0
291
     0
 45
0.0
  0
VISUALSTYLE
  5
35
102
{ACAD_REACTORS
330
2A
102
}
102
{ACAD_XDICTIONARY
360
81
102
}
330
2A
100
AcDbVisualStyle
  2
Dim
 70
    11
 71
     2
 72
     2
 73
     0
 90
        0
 40
-0.6
 41
-30.0
 62
     5
 63
     7
421
 16777215
 74
     1
 91
        4
 64
     7
 65
   257
 75
     1
175
     1
 42
1.0
 92
        8
 66
     7
 43
1.0
 76
     1
 77
     6
 78
     2
 67
     7
 79
     5
170
     0
171
     0
290
     0
174
     0
 93
        1
 44
-50.0
173
     0
291
     1
 45
0.0
  0
VISUALSTYLE
  5
39
102
{ACAD_REACTORS
330
2A
102
}
102
{ACAD_XDICTIONARY
360
89
102
}
330
2A
100
AcDbVisualStyle
  2
Facepattern
 70
    15
 71
     2
 72
     2
 73
     0
 90
        0
 40
-0.6
 41
-30.0
 62
     5
 63
     7
421
 16777215
 74
     1
 91
        4
 64
     7
 65
   257
 75
     1
175
     1
 42
1.0
 92
        8
 66
     7
 43
1.0
 76
     1
 77
     6
 78
     2
 67
     7
 79
     5
170
     0
171
     0
290
     0
174
     0
 93
        1
 44
0.0
173
     0
291
     1
 45
0.0
  0
VISUALSTYLE
  5
2B
102
{ACAD_REACTORS
330
2A
102
}
102
{ACAD_XDICTIONARY
360
6D
102
}
330
2A
100
AcDbVisualStyle
  2
Flat
 70
     0
 71
     2
 72
     1
 73
     1
 90
        2
 40
-0.6
 41
30.0
 62
     5
 63
     7
421
 16777215
 74
     0
 91
        4
 64
     7
 65
   257
 75
     1
175
     1
 42
1.0
 92
        8
 66
     7
 43
1.0
 76
     1
 77
     6
 78
     2
 67
     7
 79
     5
170
     0
171
     0
290
     0
174
     0
 93
       13
 44
0.0
173
     0
291
     1
 45
0.0
  0
VISUALSTYLE
  5
2C
102
{ACAD_REACTORS
330
2A
102
}
102
{ACAD_XDICTIONARY
360
6F
102
}
330
2A
100
AcDbVisualStyle
  2
FlatWithEdges
 70
     1
 71
     2
 72
     1
 73
     1
 90
        2
 40
-0.6
 41
30.0
 62
     5
 63
     7
421
 16777215
 74
     1
 91
        4
 64
     7
 65
   257
 75
     1
175
     1
 42
1.0
 92
        0
 66
   257
 43
1.0
 76
     1
 77
     6
 78
     2
 67
     7
 79
     5
170
     0
171
     0
290
     0
174
     0
 93
       13
 44
0.0
173
     0
291
     1
 45
0.0
  0
VISUALSTYLE
  5
2D
102
{ACAD_REACTORS
330
2A
102
}
102
{ACAD_XDICTIONARY
360
71
102
}
330
2A
100
AcDbVisualStyle
  2
Gouraud
 70
     2
 71
     2
 72
     2
 73
     1
 90
        2
 40
-0.6
 41
30.0
 62
     5
 63
     7
421
 16777215
 74
     0
 91
        4
 64
     7
 65
   257
 75
     1
175
     1
 42
1.0
 92
        0
 66
     7
 43
1.0
 76
     1
 77
     6
 78
     2
 67
     7
 79
     5
170
     0
171
     0
290
     0
174
     0
 93
       13
 44
0.0
173
     0
291
     1
 45
0.0
  0
VISUALSTYLE
  5
2E
102
{ACAD_REACTORS
330
2A
102
}
102
{ACAD_XDICTIONARY
360
73
102
}
330
2A
100
AcDbVisualStyle
  2
GouraudWithEdges
 70
     3
 71
     2
 72
     2
 73
     1
 90
        2
 40
-0.6
 41
30.0
 62
     5
 63
     7
421
 16777215
 74
     1
 91
        4
 64
     7
 65
   257
 75
     1
175
     1
 42
1.0
 92
        0
 66
   257
 43
1.0
 76
     1
 77
     6
 78
     2
 67
     7
 79
     5
170
     0
171
     0
290
     0
174
     0
 93
       13
 44
0.0
173
     0
291
     1
 45
0.0
  0
VISUALSTYLE
  5
38
102
{ACAD_REACTORS
330
2A
102
}
102
{ACAD_XDICTIONARY
360
87
102
}
330
2A
100
AcDbVisualStyle
  2
Linepattern
 70
    14
 71
     2
 72
     2
 73
     0
 90
        0
 40
-0.6
 41
-30.0
 62
     5
 63
     7
421
 16777215
 74
     1
 91
        4
 64
     7
 65
   257
 75
     7
175
     7
 42
1.0
 92
        8
 66
     7
 43
1.0
 76
     1
 77
     6
 78
     2
 67
     7
 79
     5
170
     0
171
     0
290
     0
174
     0
 93
        1
 44
0.0
173
     0
291
     1
 45
0.0
  0
VISUALSTYLE
  5
33
102
{ACAD_REACTORS
330
2A
102
}
102
{ACAD_XDICTIONARY
360
7D
102
}
330
2A
100
AcDbVisualStyle
  2
Realistic
 70
     8
 71
     2
 72
     2
 73
     0
 90
        0
 40
-0.6
 41
-30.0
 62
     5
 63
     7
421
 16777215
 74
     1
 91
        0
 64
     7
 65
   257
 75
     1
175
     1
 42
1.0
 92
        8
 66
     8
424
  7895160
 43
1.0
 76
     1
 77
     6
 78
     2
 67
     7
 79
     5
170
     0
171
     0
290
     0
174
     0
 93
       13
 44
0.0
173
     0
291
     0
 45
0.0
  0
VISUALSTYLE
  5
37
102
{ACAD_REACTORS
330
2A
102
}
102
{ACAD_XDICTIONARY
360
85
102
}
330
2A
100
AcDbVisualStyle
  2
Thicken
 70
    13
 71
     2
 72
     2
 73
     0
 90
        0
 40
-0.6
 41
-30.0
 62
     5
 63
     7
421
 16777215
 74
     1
 91
        4
 64
     7
 65
   257
 75
     1
175
     1
 42
1.0
 92
       12
 66
     7
 43
1.0
 76
     1
 77
     6
 78
     2
 67
     7
 79
     5
170
     0
171
     0
290
     0
174
     0
 93
        1
 44
0.0
173
     0
291
     1
 45
0.0
  0
DICTIONARY
  5
75
330
2F
100
AcDbDictionary
280
     1
281
     1
  3
ACAD_XREC_ROUNDTRIP
360
76
  0
DICTIONARY
  5
79
330
31
100
AcDbDictionary
280
     1
281
     1
  3
ACAD_XREC_ROUNDTRIP
360
7A
  0
DICTIONARY
  5
77
330
30
100
AcDbDictionary
280
     1
281
     1
  3
ACAD_XREC_ROUNDTRIP
360
78
  0
DICTIONARY
  5
7B
330
32
100
AcDbDictionary
280
     1
281
     1
  3
ACAD_XREC_ROUNDTRIP
360
7C
  0
DICTIONARY
  5
83
330
36
100
AcDbDictionary
280
     1
281
     1
  3
ACAD_XREC_ROUNDTRIP
360
84
  0
DICTIONARY
  5
8B
330
3A
100
AcDbDictionary
280
     1
281
     1
  3
ACAD_XREC_ROUNDTRIP
360
8C
  0
DICTIONARY
  5
7F
330
34
100
AcDbDictionary
280
     1
281
     1
  3
ACAD_XREC_ROUNDTRIP
360
80
  0
DICTIONARY
  5
81
330
35
100
AcDbDictionary
280
     1
281
     1
  3
ACAD_XREC_ROUNDTRIP
360
82
  0
DICTIONARY
  5
89
330
39
100
AcDbDictionary
280
     1
281
     1
  3
ACAD_XREC_ROUNDTRIP
360
8A
  0
DICTIONARY
  5
6D
330
2B
100
AcDbDictionary
280
     1
281
     1
  3
ACAD_XREC_ROUNDTRIP
360
6E
  0
DICTIONARY
  5
6F
330
2C
100
AcDbDictionary
280
     1
281
     1
  3
ACAD_XREC_ROUNDTRIP
360
70
  0
DICTIONARY
  5
71
330
2D
100
AcDbDictionary
280
     1
281
     1
  3
ACAD_XREC_ROUNDTRIP
360
72
  0
DICTIONARY
  5
73
330
2E
100
AcDbDictionary
280
     1
281
     1
  3
ACAD_XREC_ROUNDTRIP
360
74
  0
DICTIONARY
  5
87
330
38
100
AcDbDictionary
280
     1
281
     1
  3
ACAD_XREC_ROUNDTRIP
360
88
  0
DICTIONARY
  5
7D
330
33
100
AcDbDictionary
280
     1
281
     1
  3
ACAD_XREC_ROUNDTRIP
360
7E
  0
DICTIONARY
  5
85
330
37
100
AcDbDictionary
280
     1
281
     1
  3
ACAD_XREC_ROUNDTRIP
360
86
  0
XRECORD
  5
76
102
{ACAD_REACTORS
330
75
102
}
330
75
100
AcDbXrecord
280
     1
102
RTVSPropertyOp0
 70
     1
102
RTVSPropertyOp1
 70
     1
102
RTVSPropertyOp2
 70
     1
102
RTVSPropertyOp3
 70
     1
102
RTVSPropertyOp4
 70
     1
102
RTVSPropertyOp5
 70
     1
102
RTVSPropertyOp6
 70
     1
102
RTVSPropertyOp7
 70
     1
102
RTVSPropertyOp8
 70
     1
102
RTVSPropertyOp9
 70
     1
102
RTVSPropertyOp10
 70
     1
102
RTVSPropertyOp11
 70
     1
102
RTVSPropertyOp12
 70
     1
102
RTVSPropertyOp13
 70
     1
102
RTVSPropertyOp14
 70
     1
102
RTVSPropertyOp15
 70
     1
102
RTVSPropertyOp16
 70
     1
102
RTVSPropertyOp17
 70
     1
102
RTVSPropertyOp18
 70
     1
102
RTVSPropertyOp19
 70
     1
102
RTVSPropertyOp20
 70
     1
102
RTVSPropertyOp21
 70
     1
102
RTVSPropertyOp22
 70
     1
102
RTVSPropertyOp23
 70
     1
102
RTVSPropertyOp24
 70
     1
102
RTVSPropertyOp25
 70
     1
102
RTVSPropertyOp26
 70
     1
102
RTVSPropertyOp27
 70
     1
102
RTVSPropertyOp28
 70
     1
102
RTVSPropertyOp29
 70
     1
102
RTVSPropertyOp30
 70
     1
102
RTVSPropertyOp31
 70
     1
102
RTVSPropertyOp32
 70
     1
  0
XRECORD
  5
7A
102
{ACAD_REACTORS
330
79
102
}
330
79
100
AcDbXrecord
280
     1
102
RTVSPropertyOp0
 70
     1
102
RTVSPropertyOp1
 70
     1
102
RTVSPropertyOp2
 70
     1
102
RTVSPropertyOp3
 70
     1
102
RTVSPropertyOp4
 70
     1
102
RTVSPropertyOp5
 70
     1
102
RTVSPropertyOp6
 70
     1
102
RTVSPropertyOp7
 70
     1
102
RTVSPropertyOp8
 70
     1
102
RTVSPropertyOp9
 70
     1
102
RTVSPropertyOp10
 70
     1
102
RTVSPropertyOp11
 70
     1
102
RTVSPropertyOp12
 70
     1
102
RTVSPropertyOp13
 70
     1
102
RTVSPropertyOp14
 70
     1
102
RTVSPropertyOp15
 70
     1
102
RTVSPropertyOp16
 70
     1
102
RTVSPropertyOp17
 70
     1
102
RTVSPropertyOp18
 70
     1
102
RTVSPropertyOp19
 70
     1
102
RTVSPropertyOp20
 70
     1
102
RTVSPropertyOp21
 70
     1
102
RTVSPropertyOp22
 70
     1
102
RTVSPropertyOp23
 70
     1
102
RTVSPropertyOp24
 70
     1
102
RTVSPropertyOp25
 70
     1
102
RTVSPropertyOp26
 70
     1
102
RTVSPropertyOp27
 70
     1
102
RTVSPropertyOp28
 70
     1
102
RTVSPropertyOp29
 70
     1
102
RTVSPropertyOp30
 70
     1
102
RTVSPropertyOp31
 70
     1
102
RTVSPropertyOp32
 70
     1
  0
XRECORD
  5
78
102
{ACAD_REACTORS
330
77
102
}
330
77
100
AcDbXrecord
280
     1
102
RTVSPropertyOp0
 70
     1
102
RTVSPropertyOp1
 70
     1
102
RTVSPropertyOp2
 70
     1
102
RTVSPropertyOp3
 70
     1
102
RTVSPropertyOp4
 70
     1
102
RTVSPropertyOp5
 70
     1
102
RTVSPropertyOp6
 70
     1
102
RTVSPropertyOp7
 70
     1
102
RTVSPropertyOp8
 70
     1
102
RTVSPropertyOp9
 70
     1
102
RTVSPropertyOp10
 70
     1
102
RTVSPropertyOp11
 70
     1
102
RTVSPropertyOp12
 70
     1
102
RTVSPropertyOp13
 70
     1
102
RTVSPropertyOp14
 70
     1
102
RTVSPropertyOp15
 70
     1
102
RTVSPropertyOp16
 70
     1
102
RTVSPropertyOp17
 70
     1
102
RTVSPropertyOp18
 70
     1
102
RTVSPropertyOp19
 70
     1
102
RTVSPropertyOp20
 70
     1
102
RTVSPropertyOp21
 70
     1
102
RTVSPropertyOp22
 70
     1
102
RTVSPropertyOp23
 70
     1
102
RTVSPropertyOp24
 70
     1
102
RTVSPropertyOp25
 70
     1
102
RTVSPropertyOp26
 70
     1
102
RTVSPropertyOp27
 70
     1
102
RTVSPropertyOp28
 70
     1
102
RTVSPropertyOp29
 70
     1
102
RTVSPropertyOp30
 70
     1
102
RTVSPropertyOp31
 70
     1
102
RTVSPropertyOp32
 70
     1
  0
XRECORD
  5
7C
102
{ACAD_REACTORS
330
7B
102
}
330
7B
100
AcDbXrecord
280
     1
102
RTVSPropertyOp0
 70
     1
102
RTVSPropertyOp1
 70
     1
102
RTVSPropertyOp2
 70
     1
102
RTVSPropertyOp3
 70
     1
102
RTVSPropertyOp4
 70
     1
102
RTVSPropertyOp5
 70
     1
102
RTVSPropertyOp6
 70
     1
102
RTVSPropertyOp7
 70
     1
102
RTVSPropertyOp8
 70
     1
102
RTVSPropertyOp9
 70
     1
102
RTVSPropertyOp10
 70
     1
102
RTVSPropertyOp11
 70
     1
102
RTVSPropertyOp12
 70
     1
102
RTVSPropertyOp13
 70
     1
102
RTVSPropertyOp14
 70
     1
102
RTVSPropertyOp15
 70
     1
102
RTVSPropertyOp16
 70
     1
102
RTVSPropertyOp17
 70
     1
102
RTVSPropertyOp18
 70
     1
102
RTVSPropertyOp19
 70
     1
102
RTVSPropertyOp20
 70
     1
102
RTVSPropertyOp21
 70
     1
102
RTVSPropertyOp22
 70
     1
102
RTVSPropertyOp23
 70
     1
102
RTVSPropertyOp24
 70
     1
102
RTVSPropertyOp25
 70
     1
102
RTVSPropertyOp26
 70
     1
102
RTVSPropertyOp27
 70
     1
102
RTVSPropertyOp28
 70
     1
102
RTVSPropertyOp29
 70
     1
102
RTVSPropertyOp30
 70
     1
102
RTVSPropertyOp31
 70
     1
102
RTVSPropertyOp32
 70
     1
  0
XRECORD
  5
84
102
{ACAD_REACTORS
330
83
102
}
330
83
100
AcDbXrecord
280
     1
102
RTVSPropertyOp0
 70
     1
102
RTVSPropertyOp1
 70
     1
102
RTVSPropertyOp2
 70
     1
102
RTVSPropertyOp3
 70
     1
102
RTVSPropertyOp4
 70
     1
102
RTVSPropertyOp5
 70
     1
102
RTVSPropertyOp6
 70
     1
102
RTVSPropertyOp7
 70
     1
102
RTVSPropertyOp8
 70
     1
102
RTVSPropertyOp9
 70
     1
102
RTVSPropertyOp10
 70
     1
102
RTVSPropertyOp11
 70
     1
102
RTVSPropertyOp12
 70
     1
102
RTVSPropertyOp13
 70
     1
102
RTVSPropertyOp14
 70
     1
102
RTVSPropertyOp15
 70
     1
102
RTVSPropertyOp16
 70
     1
102
RTVSPropertyOp17
 70
     1
102
RTVSPropertyOp18
 70
     1
102
RTVSPropertyOp19
 70
     1
102
RTVSPropertyOp20
 70
     1
102
RTVSPropertyOp21
 70
     1
102
RTVSPropertyOp22
 70
     1
102
RTVSPropertyOp23
 70
     1
102
RTVSPropertyOp24
 70
     1
102
RTVSPropertyOp25
 70
     1
102
RTVSPropertyOp26
 70
     1
102
RTVSPropertyOp27
 70
     1
102
RTVSPropertyOp28
 70
     1
102
RTVSPropertyOp29
 70
     1
102
RTVSPropertyOp30
 70
     1
102
RTVSPropertyOp31
 70
     1
102
RTVSPropertyOp32
 70
     1
  0
XRECORD
  5
8C
102
{ACAD_REACTORS
330
8B
102
}
330
8B
100
AcDbXrecord
280
     1
102
RTVSPropertyOp0
 70
     1
102
RTVSPropertyOp1
 70
     1
102
RTVSPropertyOp2
 70
     1
102
RTVSPropertyOp3
 70
     1
102
RTVSPropertyOp4
 70
     1
102
RTVSPropertyOp5
 70
     1
102
RTVSPropertyOp6
 70
     1
102
RTVSPropertyOp7
 70
     1
102
RTVSPropertyOp8
 70
     1
102
RTVSPropertyOp9
 70
     1
102
RTVSPropertyOp10
 70
     1
102
RTVSPropertyOp11
 70
     1
102
RTVSPropertyOp12
 70
     1
102
RTVSPropertyOp13
 70
     1
102
RTVSPropertyOp14
 70
     1
102
RTVSPropertyOp15
 70
     1
102
RTVSPropertyOp16
 70
     1
102
RTVSPropertyOp17
 70
     1
102
RTVSPropertyOp18
 70
     1
102
RTVSPropertyOp19
 70
     1
102
RTVSPropertyOp20
 70
     1
102
RTVSPropertyOp21
 70
     1
102
RTVSPropertyOp22
 70
     1
102
RTVSPropertyOp23
 70
     1
102
RTVSPropertyOp24
 70
     1
102
RTVSPropertyOp25
 70
     1
102
RTVSPropertyOp26
 70
     1
102
RTVSPropertyOp27
 70
     1
102
RTVSPropertyOp28
 70
     1
102
RTVSPropertyOp29
 70
     1
102
RTVSPropertyOp30
 70
     1
102
RTVSPropertyOp31
 70
     1
102
RTVSPropertyOp32
 70
     1
  0
XRECORD
  5
80
102
{ACAD_REACTORS
330
7F
102
}
330
7F
100
AcDbXrecord
280
     1
102
RTVSPropertyOp0
 70
     1
102
RTVSPropertyOp1
 70
     1
102
RTVSPropertyOp2
 70
     1
102
RTVSPropertyOp3
 70
     1
102
RTVSPropertyOp4
 70
     1
102
RTVSPropertyOp5
 70
     1
102
RTVSPropertyOp6
 70
     1
102
RTVSPropertyOp7
 70
     1
102
RTVSPropertyOp8
 70
     1
102
RTVSPropertyOp9
 70
     1
102
RTVSPropertyOp10
 70
     1
102
RTVSPropertyOp11
 70
     1
102
RTVSPropertyOp12
 70
     1
102
RTVSPropertyOp13
 70
     1
102
RTVSPropertyOp14
 70
     1
102
RTVSPropertyOp15
 70
     1
102
RTVSPropertyOp16
 70
     1
102
RTVSPropertyOp17
 70
     1
102
RTVSPropertyOp18
 70
     1
102
RTVSPropertyOp19
 70
     1
102
RTVSPropertyOp20
 70
     1
102
RTVSPropertyOp21
 70
     1
102
RTVSPropertyOp22
 70
     1
102
RTVSPropertyOp23
 70
     1
102
RTVSPropertyOp24
 70
     1
102
RTVSPropertyOp25
 70
     1
102
RTVSPropertyOp26
 70
     1
102
RTVSPropertyOp27
 70
     1
102
RTVSPropertyOp28
 70
     1
102
RTVSPropertyOp29
 70
     1
102
RTVSPropertyOp30
 70
     1
102
RTVSPropertyOp31
 70
     1
102
RTVSPropertyOp32
 70
     1
  0
XRECORD
  5
82
102
{ACAD_REACTORS
330
81
102
}
330
81
100
AcDbXrecord
280
     1
102
RTVSPropertyOp0
 70
     1
102
RTVSPropertyOp1
 70
     1
102
RTVSPropertyOp2
 70
     1
102
RTVSPropertyOp3
 70
     1
102
RTVSPropertyOp4
 70
     1
102
RTVSPropertyOp5
 70
     1
102
RTVSPropertyOp6
 70
     1
102
RTVSPropertyOp7
 70
     1
102
RTVSPropertyOp8
 70
     1
102
RTVSPropertyOp9
 70
     1
102
RTVSPropertyOp10
 70
     1
102
RTVSPropertyOp11
 70
     1
102
RTVSPropertyOp12
 70
     1
102
RTVSPropertyOp13
 70
     1
102
RTVSPropertyOp14
 70
     1
102
RTVSPropertyOp15
 70
     1
102
RTVSPropertyOp16
 70
     1
102
RTVSPropertyOp17
 70
     1
102
RTVSPropertyOp18
 70
     1
102
RTVSPropertyOp19
 70
     1
102
RTVSPropertyOp20
 70
     1
102
RTVSPropertyOp21
 70
     1
102
RTVSPropertyOp22
 70
     1
102
RTVSPropertyOp23
 70
     1
102
RTVSPropertyOp24
 70
     1
102
RTVSPropertyOp25
 70
     1
102
RTVSPropertyOp26
 70
     1
102
RTVSPropertyOp27
 70
     1
102
RTVSPropertyOp28
 70
     1
102
RTVSPropertyOp29
 70
     1
102
RTVSPropertyOp30
 70
     1
102
RTVSPropertyOp31
 70
     1
102
RTVSPropertyOp32
 70
     1
  0
XRECORD
  5
8A
102
{ACAD_REACTORS
330
89
102
}
330
89
100
AcDbXrecord
280
     1
102
RTVSPropertyOp0
 70
     1
102
RTVSPropertyOp1
 70
     1
102
RTVSPropertyOp2
 70
     1
102
RTVSPropertyOp3
 70
     1
102
RTVSPropertyOp4
 70
     1
102
RTVSPropertyOp5
 70
     1
102
RTVSPropertyOp6
 70
     1
102
RTVSPropertyOp7
 70
     1
102
RTVSPropertyOp8
 70
     1
102
RTVSPropertyOp9
 70
     1
102
RTVSPropertyOp10
 70
     1
102
RTVSPropertyOp11
 70
     1
102
RTVSPropertyOp12
 70
     1
102
RTVSPropertyOp13
 70
     1
102
RTVSPropertyOp14
 70
     1
102
RTVSPropertyOp15
 70
     1
102
RTVSPropertyOp16
 70
     1
102
RTVSPropertyOp17
 70
     1
102
RTVSPropertyOp18
 70
     1
102
RTVSPropertyOp19
 70
     1
102
RTVSPropertyOp20
 70
     1
102
RTVSPropertyOp21
 70
     1
102
RTVSPropertyOp22
 70
     1
102
RTVSPropertyOp23
 70
     1
102
RTVSPropertyOp24
 70
     1
102
RTVSPropertyOp25
 70
     1
102
RTVSPropertyOp26
 70
     1
102
RTVSPropertyOp27
 70
     1
102
RTVSPropertyOp28
 70
     1
102
RTVSPropertyOp29
 70
     1
102
RTVSPropertyOp30
 70
     1
102
RTVSPropertyOp31
 70
     1
102
RTVSPropertyOp32
 70
     1
  0
XRECORD
  5
6E
102
{ACAD_REACTORS
330
6D
102
}
330
6D
100
AcDbXrecord
280
     1
102
RTVSPropertyOp0
 70
     1
102
RTVSPropertyOp1
 70
     1
102
RTVSPropertyOp2
 70
     1
102
RTVSPropertyOp3
 70
     1
102
RTVSPropertyOp4
 70
     1
102
RTVSPropertyOp5
 70
     1
102
RTVSPropertyOp6
 70
     1
102
RTVSPropertyOp7
 70
     1
102
RTVSPropertyOp8
 70
     1
102
RTVSPropertyOp9
 70
     1
102
RTVSPropertyOp10
 70
     1
102
RTVSPropertyOp11
 70
     1
102
RTVSPropertyOp12
 70
     1
102
RTVSPropertyOp13
 70
     1
102
RTVSPropertyOp14
 70
     1
102
RTVSPropertyOp15
 70
     1
102
RTVSPropertyOp16
 70
     1
102
RTVSPropertyOp17
 70
     1
102
RTVSPropertyOp18
 70
     1
102
RTVSPropertyOp19
 70
     1
102
RTVSPropertyOp20
 70
     1
102
RTVSPropertyOp21
 70
     1
102
RTVSPropertyOp22
 70
     1
102
RTVSPropertyOp23
 70
     1
102
RTVSPropertyOp24
 70
     1
102
RTVSPropertyOp25
 70
     1
102
RTVSPropertyOp26
 70
     1
102
RTVSPropertyOp27
 70
     1
102
RTVSPropertyOp28
 70
     1
102
RTVSPropertyOp29
 70
     1
102
RTVSPropertyOp30
 70
     1
102
RTVSPropertyOp31
 70
     1
102
RTVSPropertyOp32
 70
     1
  0
XRECORD
  5
70
102
{ACAD_REACTORS
330
6F
102
}
330
6F
100
AcDbXrecord
280
     1
102
RTVSPropertyOp0
 70
     1
102
RTVSPropertyOp1
 70
     1
102
RTVSPropertyOp2
 70
     1
102
RTVSPropertyOp3
 70
     1
102
RTVSPropertyOp4
 70
     1
102
RTVSPropertyOp5
 70
     1
102
RTVSPropertyOp6
 70
     1
102
RTVSPropertyOp7
 70
     1
102
RTVSPropertyOp8
 70
     1
102
RTVSPropertyOp9
 70
     1
102
RTVSPropertyOp10
 70
     1
102
RTVSPropertyOp11
 70
     1
102
RTVSPropertyOp12
 70
     1
102
RTVSPropertyOp13
 70
     1
102
RTVSPropertyOp14
 70
     1
102
RTVSPropertyOp15
 70
     1
102
RTVSPropertyOp16
 70
     1
102
RTVSPropertyOp17
 70
     1
102
RTVSPropertyOp18
 70
     1
102
RTVSPropertyOp19
 70
     1
102
RTVSPropertyOp20
 70
     1
102
RTVSPropertyOp21
 70
     1
102
RTVSPropertyOp22
 70
     1
102
RTVSPropertyOp23
 70
     1
102
RTVSPropertyOp24
 70
     1
102
RTVSPropertyOp25
 70
     1
102
RTVSPropertyOp26
 70
     1
102
RTVSPropertyOp27
 70
     1
102
RTVSPropertyOp28
 70
     1
102
RTVSPropertyOp29
 70
     1
102
RTVSPropertyOp30
 70
     1
102
RTVSPropertyOp31
 70
     1
102
RTVSPropertyOp32
 70
     1
  0
XRECORD
  5
72
102
{ACAD_REACTORS
330
71
102
}
330
71
100
AcDbXrecord
280
     1
102
RTVSPropertyOp0
 70
     1
102
RTVSPropertyOp1
 70
     1
102
RTVSPropertyOp2
 70
     1
102
RTVSPropertyOp3
 70
     1
102
RTVSPropertyOp4
 70
     1
102
RTVSPropertyOp5
 70
     1
102
RTVSPropertyOp6
 70
     1
102
RTVSPropertyOp7
 70
     1
102
RTVSPropertyOp8
 70
     1
102
RTVSPropertyOp9
 70
     1
102
RTVSPropertyOp10
 70
     1
102
RTVSPropertyOp11
 70
     1
102
RTVSPropertyOp12
 70
     1
102
RTVSPropertyOp13
 70
     1
102
RTVSPropertyOp14
 70
     1
102
RTVSPropertyOp15
 70
     1
102
RTVSPropertyOp16
 70
     1
102
RTVSPropertyOp17
 70
     1
102
RTVSPropertyOp18
 70
     1
102
RTVSPropertyOp19
 70
     1
102
RTVSPropertyOp20
 70
     1
102
RTVSPropertyOp21
 70
     1
102
RTVSPropertyOp22
 70
     1
102
RTVSPropertyOp23
 70
     1
102
RTVSPropertyOp24
 70
     1
102
RTVSPropertyOp25
 70
     1
102
RTVSPropertyOp26
 70
     1
102
RTVSPropertyOp27
 70
     1
102
RTVSPropertyOp28
 70
     1
102
RTVSPropertyOp29
 70
     1
102
RTVSPropertyOp30
 70
     1
102
RTVSPropertyOp31
 70
     1
102
RTVSPropertyOp32
 70
     1
  0
XRECORD
  5
74
102
{ACAD_REACTORS
330
73
102
}
330
73
100
AcDbXrecord
280
     1
102
RTVSPropertyOp0
 70
     1
102
RTVSPropertyOp1
 70
     1
102
RTVSPropertyOp2
 70
     1
102
RTVSPropertyOp3
 70
     1
102
RTVSPropertyOp4
 70
     1
102
RTVSPropertyOp5
 70
     1
102
RTVSPropertyOp6
 70
     1
102
RTVSPropertyOp7
 70
     1
102
RTVSPropertyOp8
 70
     1
102
RTVSPropertyOp9
 70
     1
102
RTVSPropertyOp10
 70
     1
102
RTVSPropertyOp11
 70
     1
102
RTVSPropertyOp12
 70
     1
102
RTVSPropertyOp13
 70
     1
102
RTVSPropertyOp14
 70
     1
102
RTVSPropertyOp15
 70
     1
102
RTVSPropertyOp16
 70
     1
102
RTVSPropertyOp17
 70
     1
102
RTVSPropertyOp18
 70
     1
102
RTVSPropertyOp19
 70
     1
102
RTVSPropertyOp20
 70
     1
102
RTVSPropertyOp21
 70
     1
102
RTVSPropertyOp22
 70
     1
102
RTVSPropertyOp23
 70
     1
102
RTVSPropertyOp24
 70
     1
102
RTVSPropertyOp25
 70
     1
102
RTVSPropertyOp26
 70
     1
102
RTVSPropertyOp27
 70
     1
102
RTVSPropertyOp28
 70
     1
102
RTVSPropertyOp29
 70
     1
102
RTVSPropertyOp30
 70
     1
102
RTVSPropertyOp31
 70
     1
102
RTVSPropertyOp32
 70
     1
  0
XRECORD
  5
88
102
{ACAD_REACTORS
330
87
102
}
330
87
100
AcDbXrecord
280
     1
102
RTVSPropertyOp0
 70
     1
102
RTVSPropertyOp1
 70
     1
102
RTVSPropertyOp2
 70
     1
102
RTVSPropertyOp3
 70
     1
102
RTVSPropertyOp4
 70
     1
102
RTVSPropertyOp5
 70
     1
102
RTVSPropertyOp6
 70
     1
102
RTVSPropertyOp7
 70
     1
102
RTVSPropertyOp8
 70
     1
102
RTVSPropertyOp9
 70
     1
102
RTVSPropertyOp10
 70
     1
102
RTVSPropertyOp11
 70
     1
102
RTVSPropertyOp12
 70
     1
102
RTVSPropertyOp13
 70
     1
102
RTVSPropertyOp14
 70
     1
102
RTVSPropertyOp15
 70
     1
102
RTVSPropertyOp16
 70
     1
102
RTVSPropertyOp17
 70
     1
102
RTVSPropertyOp18
 70
     1
102
RTVSPropertyOp19
 70
     1
102
RTVSPropertyOp20
 70
     1
102
RTVSPropertyOp21
 70
     1
102
RTVSPropertyOp22
 70
     1
102
RTVSPropertyOp23
 70
     1
102
RTVSPropertyOp24
 70
     1
102
RTVSPropertyOp25
 70
     1
102
RTVSPropertyOp26
 70
     1
102
RTVSPropertyOp27
 70
     1
102
RTVSPropertyOp28
 70
     1
102
RTVSPropertyOp29
 70
     1
102
RTVSPropertyOp30
 70
     1
102
RTVSPropertyOp31
 70
     1
102
RTVSPropertyOp32
 70
     1
  0
XRECORD
  5
7E
102
{ACAD_REACTORS
330
7D
102
}
330
7D
100
AcDbXrecord
280
     1
102
RTVSPropertyOp0
 70
     1
102
RTVSPropertyOp1
 70
     1
102
RTVSPropertyOp2
 70
     1
102
RTVSPropertyOp3
 70
     1
102
RTVSPropertyOp4
 70
     1
102
RTVSPropertyOp5
 70
     1
102
RTVSPropertyOp6
 70
     1
102
RTVSPropertyOp7
 70
     1
102
RTVSPropertyOp8
 70
     1
102
RTVSPropertyOp9
 70
     1
102
RTVSPropertyOp10
 70
     1
102
RTVSPropertyOp11
 70
     1
102
RTVSPropertyOp12
 70
     1
102
RTVSPropertyOp13
 70
     1
102
RTVSPropertyOp14
 70
     1
102
RTVSPropertyOp15
 70
     1
102
RTVSPropertyOp16
 70
     1
102
RTVSPropertyOp17
 70
     1
102
RTVSPropertyOp18
 70
     1
102
RTVSPropertyOp19
 70
     1
102
RTVSPropertyOp20
 70
     1
102
RTVSPropertyOp21
 70
     1
102
RTVSPropertyOp22
 70
     1
102
RTVSPropertyOp23
 70
     1
102
RTVSPropertyOp24
 70
     1
102
RTVSPropertyOp25
 70
     1
102
RTVSPropertyOp26
 70
     1
102
RTVSPropertyOp27
 70
     1
102
RTVSPropertyOp28
 70
     1
102
RTVSPropertyOp29
 70
     1
102
RTVSPropertyOp30
 70
     1
102
RTVSPropertyOp31
 70
     1
102
RTVSPropertyOp32
 70
     1
  0
XRECORD
  5
86
102
{ACAD_REACTORS
330
85
102
}
330
85
100
AcDbXrecord
280
     1
102
RTVSPropertyOp0
 70
     1
102
RTVSPropertyOp1
 70
     1
102
RTVSPropertyOp2
 70
     1
102
RTVSPropertyOp3
 70
     1
102
RTVSPropertyOp4
 70
     1
102
RTVSPropertyOp5
 70
     1
102
RTVSPropertyOp6
 70
     1
102
RTVSPropertyOp7
 70
     1
102
RTVSPropertyOp8
 70
     1
102
RTVSPropertyOp9
 70
     1
102
RTVSPropertyOp10
 70
     1
102
RTVSPropertyOp11
 70
     1
102
RTVSPropertyOp12
 70
     1
102
RTVSPropertyOp13
 70
     1
102
RTVSPropertyOp14
 70
     1
102
RTVSPropertyOp15
 70
     1
102
RTVSPropertyOp16
 70
     1
102
RTVSPropertyOp17
 70
     1
102
RTVSPropertyOp18
 70
     1
102
RTVSPropertyOp19
 70
     1
102
RTVSPropertyOp20
 70
     1
102
RTVSPropertyOp21
 70
     1
102
RTVSPropertyOp22
 70
     1
102
RTVSPropertyOp23
 70
     1
102
RTVSPropertyOp24
 70
     1
102
RTVSPropertyOp25
 70
     1
102
RTVSPropertyOp26
 70
     1
102
RTVSPropertyOp27
 70
     1
102
RTVSPropertyOp28
 70
     1
102
RTVSPropertyOp29
 70
     1
102
RTVSPropertyOp30
 70
     1
102
RTVSPropertyOp31
 70
     1
102
RTVSPropertyOp32
 70
     1
  0
ENDSEC
  0
EOF
