  0
SECTION
  2
HEADER
  9
$ACADVER
  1
AC1021
  9
$ACADMAINTVER
 70
    25
  9
$DWGCODEPAGE
  3
ANSI_1256
  9
$INSBASE
 10
0.0
 20
0.0
 30
0.0
  9
$EXTMIN
 10
-187.3639
 20
-115.0654
 30
0.0
  9
$EXTMAX
 10
-63.8173
 20
131.7412
 30
0.0
  9
$LIMMIN
 10
0.0
 20
0.0
  9
$LIMMAX
 10
12.0
 20
9.0
  9
$ORTHOMODE
 70
     0
  9
$REGENMODE
 70
     1
  9
$FILLMODE
 70
     1
  9
$QTEXTMODE
 70
     0
  9
$MIRRTEXT
 70
     1
  9
$LTSCALE
 40
1.0
  9
$ATTMODE
 70
     1
  9
$TEXTSIZE
 40
0.2
  9
$TRACEWID
 40
0.05
  9
$TEXTSTYLE
  7
Standard
  9
$CLAYER
  8
0
  9
$CELTYPE
  6
ByLayer
  9
$CECOLOR
 62
   256
  9
$CELTSCALE
 40
1.0
  9
$DISPSILH
 70
     0
  9
$DIMSCALE
 40
1.0
  9
$DIMASZ
 40
0.18
  9
$DIMEXO
 40
0.0625
  9
$DIMDLI
 40
0.38
  9
$DIMRND
 40
0.0
  9
$DIMDLE
 40
0.0
  9
$DIMEXE
 40
0.18
  9
$DIMTP
 40
0.0
  9
$DIMTM
 40
0.0
  9
$DIMTXT
 40
0.18
  9
$DIMCEN
 40
0.09
  9
$DIMTSZ
 40
0.0
  9
$DIMTOL
 70
     0
  9
$DIMLIM
 70
     0
  9
$DIMTIH
 70
     1
  9
$DIMTOH
 70
     1
  9
$DIMSE1
 70
     0
  9
$DIMSE2
 70
     0
  9
$DIMTAD
 70
     0
  9
$DIMZIN
 70
     0
  9
$DIMBLK
  1

  9
$DIMASO
 70
     1
  9
$DIMSHO
 70
     1
  9
$DIMPOST
  1

  9
$DIMAPOST
  1

  9
$DIMALT
 70
     0
  9
$DIMALTD
 70
     2
  9
$DIMALTF
 40
25.4
  9
$DIMLFAC
 40
1.0
  9
$DIMTOFL
 70
     0
  9
$DIMTVP
 40
0.0
  9
$DIMTIX
 70
     0
  9
$DIMSOXD
 70
     0
  9
$DIMSAH
 70
     0
  9
$DIMBLK1
  1

  9
$DIMBLK2
  1

  9
$DIMSTYLE
  2
Standard
  9
$DIMCLRD
 70
     0
  9
$DIMCLRE
 70
     0
  9
$DIMCLRT
 70
     0
  9
$DIMTFAC
 40
1.0
  9
$DIMGAP
 40
0.09
  9
$DIMJUST
 70
     0
  9
$DIMSD1
 70
     0
  9
$DIMSD2
 70
     0
  9
$DIMTOLJ
 70
     1
  9
$DIMTZIN
 70
     0
  9
$DIMALTZ
 70
     0
  9
$DIMALTTZ
 70
     0
  9
$DIMUPT
 70
     0
  9
$DIMDEC
 70
     4
  9
$DIMTDEC
 70
     4
  9
$DIMALTU
 70
     2
  9
$DIMALTTD
 70
     2
  9
$DIMTXSTY
  7
Standard
  9
$DIMAUNIT
 70
     0
  9
$DIMADEC
 70
     0
  9
$DIMALTRND
 40
0.0
  9
$DIMAZIN
 70
     0
  9
$DIMDSEP
 70
    46
  9
$DIMATFIT
 70
     3
  9
$DIMFRAC
 70
     0
  9
$DIMLDRBLK
  1

  9
$DIMLUNIT
 70
     2
  9
$DIMLWD
 70
    -2
  9
$DIMLWE
 70
    -2
  9
$DIMTMOVE
 70
     0
  9
$DIMFXL
 40
1.0
  9
$DIMFXLON
 70
     0
  9
$DIMJOGANG
 40
0.7853981633974483
  9
$DIMTFILL
 70
     0
  9
$DIMTFILLCLR
 70
     0
  9
$DIMARCSYM
 70
     0
  9
$DIMLTYPE
  6

  9
$DIMLTEX1
  6

  9
$DIMLTEX2
  6

  9
$LUNITS
 70
     2
  9
$LUPREC
 70
     4
  9
$SKETCHINC
 40
0.1
  9
$FILLETRAD
 40
0.5
  9
$AUNITS
 70
     0
  9
$AUPREC
 70
     0
  9
$MENU
  1
.
  9
$ELEVATION
 40
0.0
  9
$PELEVATION
 40
0.0
  9
$THICKNESS
 40
0.0
  9
$LIMCHECK
 70
     0
  9
$CHAMFERA
 40
0.5
  9
$CHAMFERB
 40
0.5
  9
$CHAMFERC
 40
1.0
  9
$CHAMFERD
 40
0.0
  9
$SKPOLY
 70
     0
  9
$TDCREATE
 40
2458492.407508646
  9
$TDUCREATE
 40
2458492.240841979
  9
$TDUPDATE
 40
2458492.407508877
  9
$TDUUPDATE
 40
2458492.240842211
  9
$TDINDWG
 40
0.0000000116
  9
$TDUSRTIMER
 40
0.0000000116
  9
$USRTIMER
 70
     1
  9
$ANGBASE
 50
0.0
  9
$ANGDIR
 70
     0
  9
$PDMODE
 70
     0
  9
$PDSIZE
 40
0.0
  9
$PLINEWID
 40
0.0
  9
$SPLFRAME
 70
     0
  9
$SPLINETYPE
 70
     6
  9
$SPLINESEGS
 70
     8
  9
$HANDSEED
  5
109
  9
$SURFTAB1
 70
     6
  9
$SURFTAB2
 70
     6
  9
$SURFTYPE
 70
     6
  9
$SURFU
 70
     6
  9
$SURFV
 70
     6
  9
$UCSBASE
  2

  9
$UCSNAME
  2

  9
$UCSORG
 10
0.0
 20
0.0
 30
0.0
  9
$UCSXDIR
 10
1.0
 20
0.0
 30
0.0
  9
$UCSYDIR
 10
0.0
 20
1.0
 30
0.0
  9
$UCSORTHOREF
  2

  9
$UCSORTHOVIEW
 70
     0
  9
$UCSORGTOP
 10
0.0
 20
0.0
 30
0.0
  9
$UCSORGBOTTOM
 10
0.0
 20
0.0
 30
0.0
  9
$UCSORGLEFT
 10
0.0
 20
0.0
 30
0.0
  9
$UCSORGRIGHT
 10
0.0
 20
0.0
 30
0.0
  9
$UCSORGFRONT
 10
0.0
 20
0.0
 30
0.0
  9
$UCSORGBACK
 10
0.0
 20
0.0
 30
0.0
  9
$PUCSBASE
  2

  9
$PUCSNAME
  2

  9
$PUCSORG
 10
0.0
 20
0.0
 30
0.0
  9
$PUCSXDIR
 10
1.0
 20
0.0
 30
0.0
  9
$PUCSYDIR
 10
0.0
 20
1.0
 30
0.0
  9
$PUCSORTHOREF
  2

  9
$PUCSORTHOVIEW
 70
     0
  9
$PUCSORGTOP
 10
0.0
 20
0.0
 30
0.0
  9
$PUCSORGBOTTOM
 10
0.0
 20
0.0
 30
0.0
  9
$PUCSORGLEFT
 10
0.0
 20
0.0
 30
0.0
  9
$PUCSORGRIGHT
 10
0.0
 20
0.0
 30
0.0
  9
$PUCSORGFRONT
 10
0.0
 20
0.0
 30
0.0
  9
$PUCSORGBACK
 10
0.0
 20
0.0
 30
0.0
  9
$USERI1
 70
     0
  9
$USERI2
 70
     0
  9
$USERI3
 70
     0
  9
$USERI4
 70
     0
  9
$USERI5
 70
     0
  9
$USERR1
 40
0.0
  9
$USERR2
 40
0.0
  9
$USERR3
 40
0.0
  9
$USERR4
 40
0.0
  9
$USERR5
 40
0.0
  9
$WORLDVIEW
 70
     1
  9
$SHADEDGE
 70
     3
  9
$SHADEDIF
 70
    70
  9
$TILEMODE
 70
     1
  9
$MAXACTVP
 70
    64
  9
$PINSBASE
 10
0.0
 20
0.0
 30
0.0
  9
$PLIMCHECK
 70
     0
  9
$PEXTMIN
 10
1.000000000000000E+20
 20
1.000000000000000E+20
 30
1.000000000000000E+20
  9
$PEXTMAX
 10
-1.000000000000000E+20
 20
-1.000000000000000E+20
 30
-1.000000000000000E+20
  9
$PLIMMIN
 10
0.0
 20
0.0
  9
$PLIMMAX
 10
12.0
 20
9.0
  9
$UNITMODE
 70
     0
  9
$VISRETAIN
 70
     1
  9
$PLINEGEN
 70
     0
  9
$PSLTSCALE
 70
     1
  9
$TREEDEPTH
 70
  3020
  9
$CMLSTYLE
  2
Standard
  9
$CMLJUST
 70
     0
  9
$CMLSCALE
 40
1.0
  9
$PROXYGRAPHICS
 70
     1
  9
$MEASUREMENT
 70
     0
  9
$CELWEIGHT
370
    -1
  9
$ENDCAPS
280
     0
  9
$JOINSTYLE
280
     0
  9
$LWDISPLAY
290
     0
  9
$INSUNITS
 70
     4
  9
$HYPERLINKBASE
  1

  9
$STYLESHEET
  1

  9
$XEDIT
290
     1
  9
$CEPSNTYPE
380
     0
  9
$PSTYLEMODE
290
     1
  9
$FINGERPRINTGUID
  2
{F091F99B-9604-44B2-A2A3-197D43866499}
  9
$VERSIONGUID
  2
{FAEB1C32-E019-11D5-929B-00C0DF256EC4}
  9
$EXTNAMES
290
     1
  9
$PSVPSCALE
 40
0.0
  9
$OLESTARTUP
290
     0
  9
$SORTENTS
280
   127
  9
$INDEXCTL
280
     0
  9
$HIDETEXT
280
     1
  9
$XCLIPFRAME
290
     0
  9
$HALOGAP
280
     0
  9
$OBSCOLOR
 70
   257
  9
$OBSLTYPE
280
     0
  9
$INTERSECTIONDISPLAY
280
     0
  9
$INTERSECTIONCOLOR
 70
   257
  9
$DIMASSOC
280
     2
  9
$PROJECTNAME
  1

  9
$CAMERADISPLAY
290
     0
  9
$LENSLENGTH
 40
50.0
  9
$CAMERAHEIGHT
 40
0.0
  9
$STEPSPERSEC
 40
2.0
  9
$STEPSIZE
 40
6.0
  9
$3DDWFPREC
 40
2.0
  9
$PSOLWIDTH
 40
0.25
  9
$PSOLHEIGHT
 40
4.0
  9
$LOFTANG1
 40
1.570796326794897
  9
$LOFTANG2
 40
1.570796326794897
  9
$LOFTMAG1
 40
0.0
  9
$LOFTMAG2
 40
0.0
  9
$LOFTPARAM
 70
     7
  9
$LOFTNORMALS
280
     1
  9
$LATITUDE
 40
37.795
  9
$LONGITUDE
 40
-122.394
  9
$NORTHDIRECTION
 40
0.0
  9
$TIMEZONE
 70
 -8000
  9
$LIGHTGLYPHDISPLAY
280
     1
  9
$TILEMODELIGHTSYNCH
280
     1
  9
$SOLIDHIST
280
     1
  9
$SHOWHIST
280
     1
  9
$DWFFRAME
280
     2
  9
$DGNFRAME
280
     2
  9
$REALWORLDSCALE
290
     1
  9
$INTERFERECOLOR
 62
   256
  9
$CSHADOW
280
     0
  9
$SHADOWPLANELOCATION
 40
0.0
  0
ENDSEC
  0
SECTION
  2
CLASSES
  0
CLASS
  1
ACDBDICTIONARYWDFLT
  2
AcDbDictionaryWithDefault
  3
ObjectDBX Classes
 90
        0
 91
        4
280
     0
281
     0
  0
CLASS
  1
VISUALSTYLE
  2
AcDbVisualStyle
  3
ObjectDBX Classes
 90
     4095
 91
        4
280
     0
281
     0
  0
CLASS
  1
MATERIAL
  2
AcDbMaterial
  3
ObjectDBX Classes
 90
     1153
 91
        4
280
     0
281
     0
  0
ENDSEC
  0
SECTION
  2
TABLES
  0
TABLE
  2
VPORT
  5
8
330
0
100
AcDbSymbolTable
 70
     1
  0
VPORT
  5
29
330
8
100
AcDbSymbolTableRecord
100
AcDbViewportTableRecord
  2
*Active
 70
     0
 10
0.0
 20
0.0
 11
1.0
 21
1.0
 12
10.42990654205607
 22
4.5
 13
0.0
 23
0.0
 14
0.5
 24
0.5
 15
0.5
 25
0.5
 16
0.0
 26
0.0
 36
1.0
 17
0.0
 27
0.0
 37
0.0
 40
9.0
 41
1.972972972850329
 42
50.0
 43
0.0
 44
0.0
 50
0.0
 51
0.0
 71
     0
 72
   100
 73
     1
 74
     3
 75
     0
 76
     0
 77
     0
 78
     0
281
     0
 65
     1
110
0.0
120
0.0
130
0.0
111
1.0
121
0.0
131
0.0
112
0.0
122
1.0
132
0.0
 79
     0
146
0.0
 60
     3
 61
     5
292
     1
282
     1
141
0.0
142
0.0
 63
   250
  0
ENDTAB
  0
TABLE
  2
LTYPE
  5
5
330
0
100
AcDbSymbolTable
 70
     1
  0
LTYPE
  5
14
330
5
100
AcDbSymbolTableRecord
100
AcDbLinetypeTableRecord
  2
ByBlock
 70
     0
  3

 72
    65
 73
     0
 40
0.0
  0
LTYPE
  5
15
330
5
100
AcDbSymbolTableRecord
100
AcDbLinetypeTableRecord
  2
ByLayer
 70
     0
  3

 72
    65
 73
     0
 40
0.0
  0
LTYPE
  5
16
330
5
100
AcDbSymbolTableRecord
100
AcDbLinetypeTableRecord
  2
Continuous
 70
     0
  3
Solid line
 72
    65
 73
     0
 40
0.0
  0
ENDTAB
  0
TABLE
  2
LAYER
  5
2
330
0
100
AcDbSymbolTable
 70
     3
  0
LAYER
  5
10
330
2
100
AcDbSymbolTableRecord
100
AcDbLayerTableRecord
  2
0
 70
     0
 62
     7
  6
Continuous
370
    -3
390
F
347
3E
  0
LAYER
  5
40
330
2
100
AcDbSymbolTableRecord
100
AcDbLayerTableRecord
  2
layer 1
 70
     0
 62
     7
  6
Continuous
370
    -3
390
F
347
3E
  0
LAYER
  5
E6
330
2
100
AcDbSymbolTableRecord
100
AcDbLayerTableRecord
  2
Master Guides
 70
     0
 62
     7
  6
Continuous
370
    -3
390
F
347
3E
  0
ENDTAB
  0
TABLE
  2
STYLE
  5
3
330
0
100
AcDbSymbolTable
 70
     1
  0
STYLE
  5
11
330
3
100
AcDbSymbolTableRecord
100
AcDbTextStyleTableRecord
  2
Standard
 70
     0
 40
0.0
 41
1.0
 50
0.0
 71
     0
 42
0.2
  3
txt
  4

  0
ENDTAB
  0
TABLE
  2
VIEW
  5
6
330
0
100
AcDbSymbolTable
 70
     0
  0
ENDTAB
  0
TABLE
  2
UCS
  5
7
330
0
100
AcDbSymbolTable
 70
     0
  0
ENDTAB
  0
TABLE
  2
APPID
  5
9
330
0
100
AcDbSymbolTable
 70
     2
  0
APPID
  5
12
330
9
100
AcDbSymbolTableRecord
100
AcDbRegAppTableRecord
  2
ACAD
 70
     0
  0
APPID
  5
3F
330
9
100
AcDbSymbolTableRecord
100
AcDbRegAppTableRecord
  2
ODA
 70
     0
  0
ENDTAB
  0
TABLE
  2
DIMSTYLE
  5
A
330
0
100
AcDbSymbolTable
 70
     1
100
AcDbDimStyleTable
  0
DIMSTYLE
105
27
330
A
100
AcDbSymbolTableRecord
100
AcDbDimStyleTableRecord
  2
Standard
 70
     0
178
     0
340
11
  0
ENDTAB
  0
TABLE
  2
BLOCK_RECORD
  5
1
330
0
100
AcDbSymbolTable
 70
     1
  0
BLOCK_RECORD
  5
1F
330
1
100
AcDbSymbolTableRecord
100
AcDbBlockTableRecord
  2
*Model_Space
340
22
 70
     0
280
     1
281
     0
  0
BLOCK_RECORD
  5
1B
330
1
100
AcDbSymbolTableRecord
100
AcDbBlockTableRecord
  2
*Paper_Space
340
1E
 70
     0
280
     1
281
     0
  0
BLOCK_RECORD
  5
23
330
1
100
AcDbSymbolTableRecord
100
AcDbBlockTableRecord
  2
*Paper_Space0
340
26
 70
     0
280
     1
281
     0
  0
ENDTAB
  0
ENDSEC
  0
SECTION
  2
BLOCKS
  0
BLOCK
  5
20
330
1F
100
AcDbEntity
  8
0
100
AcDbBlockBegin
  2
*Model_Space
 70
     0
 10
0.0
 20
0.0
 30
0.0
  3
*Model_Space
  1

  0
ENDBLK
  5
21
330
1F
100
AcDbEntity
  8
0
100
AcDbBlockEnd
  0
BLOCK
  5
1C
330
1B
100
AcDbEntity
 67
     1
  8
0
100
AcDbBlockBegin
  2
*Paper_Space
 70
     0
 10
0.0
 20
0.0
 30
0.0
  3
*Paper_Space
  1

  0
ENDBLK
  5
1D
330
1B
100
AcDbEntity
 67
     1
  8
0
100
AcDbBlockEnd
  0
BLOCK
  5
24
330
23
100
AcDbEntity
  8
0
100
AcDbBlockBegin
  2
*Paper_Space0
 70
     0
 10
0.0
 20
0.0
 30
0.0
  3
*Paper_Space0
  1

  0
ENDBLK
  5
25
330
23
100
AcDbEntity
  8
0
100
AcDbBlockEnd
  0
ENDSEC
  0
SECTION
  2
ENTITIES
  0
SPLINE
  5
41
330
1F
100
AcDbEntity
  8
layer 1
100
AcDbSpline
210
0.0
220
0.0
230
1.0
 70
    11
 71
     3
 72
    20
 73
    16
 74
     0
 42
0.0000000001
 43
0.0000000001
 12
1.0
 22
0.0
 32
0.0
 13
1.0
 23
0.0
 33
0.0
 40
0.0
 40
0.0
 40
0.0
 40
0.0
 40
0.2
 40
0.2
 40
0.2
 40
0.2
 40
0.4
 40
0.4
 40
0.4
 40
0.4
 40
0.6
 40
0.6
 40
0.6
 40
0.6
 40
1.0
 40
1.0
 40
1.0
 40
1.0
 10
-187.2199
 20
131.5966
 30
0.0
 10
-187.2199
 20
131.5966
 30
0.0
 10
-63.8173
 20
131.7412
 30
0.0
 10
-63.8173
 20
131.7412
 30
0.0
 10
-63.8173
 20
131.7412
 30
0.0
 10
-63.8173
 20
131.7412
 30
0.0
 10
-63.8173
 20
-115.0654
 30
0.0
 10
-63.8173
 20
-115.0654
 30
0.0
 10
-63.8173
 20
-115.0654
 30
0.0
 10
-104.9995
 20
-115.0654
 30
0.0
 10
-146.1817
 20
-115.0654
 30
0.0
 10
-187.3639
 20
-115.0654
 30
0.0
 10
-187.3639
 20
-115.0654
 30
0.0
 10
-187.3639
 20
-115.0654
 30
0.0
 10
-187.2199
 20
131.5966
 30
0.0
 10
-187.2199
 20
131.5966
 30
0.0
  0
SPLINE
  5
42
330
1F
100
AcDbEntity
  8
layer 1
 62
     7
100
AcDbSpline
210
0.0
220
0.0
230
1.0
 70
    11
 71
     3
 72
    20
 73
    16
 74
     0
 42
0.0000000001
 43
0.0000000001
 12
1.0
 22
0.0
 32
0.0
 13
1.0
 23
0.0
 33
0.0
 40
0.0
 40
0.0
 40
0.0
 40
0.0
 40
0.2
 40
0.2
 40
0.2
 40
0.2
 40
0.4
 40
0.4
 40
0.4
 40
0.4
 40
0.6
 40
0.6
 40
0.6
 40
0.6
 40
1.0
 40
1.0
 40
1.0
 40
1.0
 10
-113.3064
 20
15.6468
 30
0.0
 10
-107.6903
 20
15.7518
 30
0.0
 10
-103.343
 20
12.6688
 30
0.0
 10
-103.3337
 20
8.3268
 30
0.0
 10
-103.3337
 20
8.3268
 30
0.0
 10
-103.343
 20
3.9847
 30
0.0
 10
-107.6903
 20
0.9018
 30
0.0
 10
-113.3064
 20
1.0068
 30
0.0
 10
-113.3064
 20
1.0068
 30
0.0
 10
-113.66
 20
3.0313
 30
0.0
 10
-113.4024
 20
5.6641
 30
0.0
 10
-112.6233
 20
8.3268
 30
0.0
 10
-112.6233
 20
8.3268
 30
0.0
 10
-113.4024
 20
10.9893
 30
0.0
 10
-113.4497
 20
12.6408
 30
0.0
 10
-113.3064
 20
15.6468
 30
0.0
  0
SPLINE
  5
43
330
1F
100
AcDbEntity
  8
layer 1
 62
     7
100
AcDbSpline
210
0.0
220
0.0
230
1.0
 70
    11
 71
     3
 72
    20
 73
    16
 74
     0
 42
0.0000000001
 43
0.0000000001
 12
1.0
 22
0.0
 32
0.0
 13
1.0
 23
0.0
 33
0.0
 40
0.0
 40
0.0
 40
0.0
 40
0.0
 40
0.2
 40
0.2
 40
0.2
 40
0.2
 40
0.4
 40
0.4
 40
0.4
 40
0.4
 40
0.6
 40
0.6
 40
0.6
 40
0.6
 40
1.0
 40
1.0
 40
1.0
 40
1.0
 10
-149.9902
 20
69.327
 30
0.0
 10
-149.9902
 20
68.5294
 30
0.0
 10
-150.6368
 20
67.8827
 30
0.0
 10
-151.4345
 20
67.8827
 30
0.0
 10
-151.4345
 20
67.8827
 30
0.0
 10
-152.2321
 20
67.8827
 30
0.0
 10
-152.8787
 20
68.5293
 30
0.0
 10
-152.8787
 20
69.327
 30
0.0
 10
-152.8787
 20
69.327
 30
0.0
 10
-152.8787
 20
70.1246
 30
0.0
 10
-152.2322
 20
70.7712
 30
0.0
 10
-151.4345
 20
70.7712
 30
0.0
 10
-151.4345
 20
70.7712
 30
0.0
 10
-150.6369
 20
70.7712
 30
0.0
 10
-149.9902
 20
70.1247
 30
0.0
 10
-149.9902
 20
69.327
 30
0.0
  0
SPLINE
  5
44
330
1F
100
AcDbEntity
  8
layer 1
 62
     7
100
AcDbSpline
210
0.0
220
0.0
230
1.0
 70
    11
 71
     3
 72
    20
 73
    16
 74
     0
 42
0.0000000001
 43
0.0000000001
 12
1.0
 22
0.0
 32
0.0
 13
1.0
 23
0.0
 33
0.0
 40
0.0
 40
0.0
 40
0.0
 40
0.0
 40
0.2
 40
0.2
 40
0.2
 40
0.2
 40
0.4
 40
0.4
 40
0.4
 40
0.4
 40
0.6
 40
0.6
 40
0.6
 40
0.6
 40
1.0
 40
1.0
 40
1.0
 40
1.0
 10
-176.5956
 20
102.8055
 30
0.0
 10
-176.5956
 20
101.6639
 30
0.0
 10
-177.5211
 20
100.7384
 30
0.0
 10
-178.6627
 20
100.7384
 30
0.0
 10
-178.6627
 20
100.7384
 30
0.0
 10
-179.8044
 20
100.7384
 30
0.0
 10
-180.7298
 20
101.664
 30
0.0
 10
-180.7298
 20
102.8055
 30
0.0
 10
-180.7298
 20
102.8055
 30
0.0
 10
-180.7298
 20
103.9472
 30
0.0
 10
-179.8043
 20
104.8727
 30
0.0
 10
-178.6627
 20
104.8727
 30
0.0
 10
-178.6627
 20
104.8727
 30
0.0
 10
-177.521
 20
104.8727
 30
0.0
 10
-176.5956
 20
103.9471
 30
0.0
 10
-176.5956
 20
102.8055
 30
0.0
  0
SPLINE
  5
45
330
1F
100
AcDbEntity
  8
layer 1
 62
     7
100
AcDbSpline
210
0.0
220
0.0
230
1.0
 70
    11
 71
     3
 72
    20
 73
    16
 74
     0
 42
0.0000000001
 43
0.0000000001
 12
1.0
 22
0.0
 32
0.0
 13
1.0
 23
0.0
 33
0.0
 40
0.0
 40
0.0
 40
0.0
 40
0.0
 40
0.2
 40
0.2
 40
0.2
 40
0.2
 40
0.4
 40
0.4
 40
0.4
 40
0.4
 40
0.6
 40
0.6
 40
0.6
 40
0.6
 40
1.0
 40
1.0
 40
1.0
 40
1.0
 10
-137.6962
 20
15.6468
 30
0.0
 10
-143.3122
 20
15.7518
 30
0.0
 10
-147.6596
 20
12.6688
 30
0.0
 10
-147.6689
 20
8.3268
 30
0.0
 10
-147.6689
 20
8.3268
 30
0.0
 10
-147.6596
 20
3.9847
 30
0.0
 10
-143.3122
 20
0.9018
 30
0.0
 10
-137.6962
 20
1.0068
 30
0.0
 10
-137.6962
 20
1.0068
 30
0.0
 10
-137.3426
 20
3.0313
 30
0.0
 10
-137.6002
 20
5.6641
 30
0.0
 10
-138.3793
 20
8.3268
 30
0.0
 10
-138.3793
 20
8.3268
 30
0.0
 10
-137.6002
 20
10.9893
 30
0.0
 10
-137.5529
 20
12.6408
 30
0.0
 10
-137.6962
 20
15.6468
 30
0.0
  0
SPLINE
  5
46
330
1F
100
AcDbEntity
  8
layer 1
 62
     7
100
AcDbSpline
210
0.0
220
0.0
230
1.0
 70
    11
 71
     3
 72
    20
 73
    16
 74
     0
 42
0.0000000001
 43
0.0000000001
 12
1.0
 22
0.0
 32
0.0
 13
1.0
 23
0.0
 33
0.0
 40
0.0
 40
0.0
 40
0.0
 40
0.0
 40
0.2
 40
0.2
 40
0.2
 40
0.2
 40
0.4
 40
0.4
 40
0.4
 40
0.4
 40
0.6
 40
0.6
 40
0.6
 40
0.6
 40
1.0
 40
1.0
 40
1.0
 40
1.0
 10
-160.5246
 20
9.3901
 30
0.0
 10
-161.7923
 20
9.3901
 30
0.0
 10
-164.9881
 20
8.6437
 30
0.0
 10
-164.9881
 20
8.3269
 30
0.0
 10
-164.9881
 20
8.3269
 30
0.0
 10
-164.9881
 20
8.0101
 30
0.0
 10
-161.7923
 20
7.2636
 30
0.0
 10
-160.5246
 20
7.2636
 30
0.0
 10
-160.5246
 20
7.2636
 30
0.0
 10
-159.3017
 20
7.2636
 30
0.0
 10
-158.5072
 20
7.7387
 30
0.0
 10
-158.542
 20
8.3269
 30
0.0
 10
-158.542
 20
8.3269
 30
0.0
 10
-158.5072
 20
8.9151
 30
0.0
 10
-159.3017
 20
9.3901
 30
0.0
 10
-160.5246
 20
9.3901
 30
0.0
  0
SPLINE
  5
47
330
1F
100
AcDbEntity
  8
layer 1
 62
     7
100
AcDbSpline
210
0.0
220
0.0
230
1.0
 70
    11
 71
     3
 72
    72
 73
    68
 74
     0
 42
0.0000000001
 43
0.0000000001
 12
1.0
 22
0.0
 32
0.0
 13
1.0
 23
0.0
 33
0.0
 40
0.0
 40
0.0
 40
0.0
 40
0.0
 40
0.0555555555555556
 40
0.0555555555555556
 40
0.0555555555555556
 40
0.0555555555555556
 40
0.1111111111111111
 40
0.1111111111111111
 40
0.1111111111111111
 40
0.1111111111111111
 40
0.1666666666666667
 40
0.1666666666666667
 40
0.1666666666666667
 40
0.1666666666666667
 40
0.2222222222222222
 40
0.2222222222222222
 40
0.2222222222222222
 40
0.2222222222222222
 40
0.2777777777777778
 40
0.2777777777777778
 40
0.2777777777777778
 40
0.2777777777777778
 40
0.3333333333333333
 40
0.3333333333333333
 40
0.3333333333333333
 40
0.3333333333333333
 40
0.3888888888888889
 40
0.3888888888888889
 40
0.3888888888888889
 40
0.3888888888888889
 40
0.4444444444444444
 40
0.4444444444444444
 40
0.4444444444444444
 40
0.4444444444444444
 40
0.5
 40
0.5
 40
0.5
 40
0.5
 40
0.5555555555555556
 40
0.5555555555555556
 40
0.5555555555555556
 40
0.5555555555555556
 40
0.6111111111111112
 40
0.6111111111111112
 40
0.6111111111111112
 40
0.6111111111111112
 40
0.6666666666666666
 40
0.6666666666666666
 40
0.6666666666666666
 40
0.6666666666666666
 40
0.7222222222222222
 40
0.7222222222222222
 40
0.7222222222222222
 40
0.7222222222222222
 40
0.7777777777777778
 40
0.7777777777777778
 40
0.7777777777777778
 40
0.7777777777777778
 40
0.8333333333333334
 40
0.8333333333333334
 40
0.8333333333333334
 40
0.8333333333333334
 40
0.8888888888888888
 40
0.8888888888888888
 40
0.8888888888888888
 40
0.8888888888888888
 40
1.0
 40
1.0
 40
1.0
 40
1.0
 10
-153.7948
 20
9.6287
 30
0.0
 10
-153.5919
 20
13.2858
 30
0.0
 10
-153.574
 20
17.198
 30
0.0
 10
-152.1054
 20
20.2842
 30
0.0
 10
-152.1054
 20
20.2842
 30
0.0
 10
-157.9715
 20
18.7977
 30
0.0
 10
-157.2933
 20
25.1081
 30
0.0
 10
-156.9315
 20
26.9996
 30
0.0
 10
-156.9315
 20
26.9996
 30
0.0
 10
-157.5519
 20
27.1041
 30
0.0
 10
-157.994
 20
26.3177
 30
0.0
 10
-158.8316
 20
25.6796
 30
0.0
 10
-158.8316
 20
25.6796
 30
0.0
 10
-159.3779
 20
27.9534
 30
0.0
 10
-158.0234
 20
30.6378
 30
0.0
 10
-156.3411
 20
31.5891
 30
0.0
 10
-156.3411
 20
31.5891
 30
0.0
 10
-155.5018
 20
32.0231
 30
0.0
 10
-155.4639
 20
32.0932
 30
0.0
 10
-155.9729
 20
32.2718
 30
0.0
 10
-155.9729
 20
32.2718
 30
0.0
 10
-158.2579
 20
33.431
 30
0.0
 10
-161.113
 20
31.5514
 30
0.0
 10
-162.8249
 20
30.0846
 30
0.0
 10
-162.8249
 20
30.0846
 30
0.0
 10
-161.6928
 20
29.3436
 30
0.0
 10
-161.4691
 20
27.8659
 30
0.0
 10
-161.7078
 20
27.114
 30
0.0
 10
-161.7078
 20
27.114
 30
0.0
 10
-163.1887
 20
25.0804
 30
0.0
 10
-165.3862
 20
24.0389
 30
0.0
 10
-164.5822
 20
21.595
 30
0.0
 10
-164.5822
 20
21.595
 30
0.0
 10
-164.1847
 20
20.4414
 30
0.0
 10
-164.2956
 20
20.3397
 30
0.0
 10
-165.4018
 20
20.8437
 30
0.0
 10
-165.4018
 20
20.8437
 30
0.0
 10
-166.8659
 20
21.8679
 30
0.0
 10
-166.513
 20
23.2512
 30
0.0
 10
-167.0264
 20
24.5324
 30
0.0
 10
-167.0264
 20
24.5324
 30
0.0
 10
-167.3677
 20
24.5336
 30
0.0
 10
-168.4392
 20
20.5547
 30
0.0
 10
-168.6177
 20
18.6228
 30
0.0
 10
-168.6177
 20
18.6228
 30
0.0
 10
-168.8784
 20
15.8035
 30
0.0
 10
-168.4016
 20
13.9981
 30
0.0
 10
-166.9659
 20
12.3669
 30
0.0
 10
-166.9659
 20
12.3669
 30
0.0
 10
-163.3344
 20
8.3269
 30
0.0
 10
-158.5932
 20
11.8261
 30
0.0
 10
-159.6363
 20
13.6614
 30
0.0
 10
-159.6363
 20
13.6614
 30
0.0
 10
-162.4925
 20
11.8507
 30
0.0
 10
-163.9716
 20
15.2252
 30
0.0
 10
-162.4469
 20
16.8154
 30
0.0
 10
-162.4469
 20
16.8154
 30
0.0
 10
-159.0368
 20
19.792
 30
0.0
 10
-154.6912
 20
14.341
 30
0.0
 10
-158.3338
 20
10.7738
 30
0.0
 10
-158.3338
 20
10.7738
 30
0.0
 10
-156.6074
 20
11.3814
 30
0.0
 10
-155.4833
 20
11.1409
 30
0.0
 10
-153.7949
 20
9.6287
 30
0.0
 10
-153.7949
 20
9.6287
 30
0.0
 10
-153.7949
 20
9.6287
 30
0.0
 10
-153.7948
 20
9.6287
 30
0.0
 10
-153.7948
 20
9.6287
 30
0.0
  0
SPLINE
  5
48
330
1F
100
AcDbEntity
  8
layer 1
 62
     7
100
AcDbSpline
210
0.0
220
0.0
230
1.0
 70
    11
 71
     3
 72
    60
 73
    56
 74
     0
 42
0.0000000001
 43
0.0000000001
 12
1.0
 22
0.0
 32
0.0
 13
1.0
 23
0.0
 33
0.0
 40
0.0
 40
0.0
 40
0.0
 40
0.0
 40
0.0666666666666667
 40
0.0666666666666667
 40
0.0666666666666667
 40
0.0666666666666667
 40
0.1333333333333333
 40
0.1333333333333333
 40
0.1333333333333333
 40
0.1333333333333333
 40
0.2
 40
0.2
 40
0.2
 40
0.2
 40
0.2666666666666667
 40
0.2666666666666667
 40
0.2666666666666667
 40
0.2666666666666667
 40
0.3333333333333333
 40
0.3333333333333333
 40
0.3333333333333333
 40
0.3333333333333333
 40
0.4
 40
0.4
 40
0.4
 40
0.4
 40
0.4666666666666667
 40
0.4666666666666667
 40
0.4666666666666667
 40
0.4666666666666667
 40
0.5333333333333333
 40
0.5333333333333333
 40
0.5333333333333333
 40
0.5333333333333333
 40
0.6
 40
0.6
 40
0.6
 40
0.6
 40
0.6666666666666666
 40
0.6666666666666666
 40
0.6666666666666666
 40
0.6666666666666666
 40
0.7333333333333333
 40
0.7333333333333333
 40
0.7333333333333333
 40
0.7333333333333333
 40
0.8
 40
0.8
 40
0.8
 40
0.8
 40
0.8666666666666667
 40
0.8666666666666667
 40
0.8666666666666667
 40
0.8666666666666667
 40
1.0
 40
1.0
 40
1.0
 40
1.0
 10
-172.7389
 20
9.6272
 30
0.0
 10
-171.8882
 20
10.3975
 30
0.0
 10
-172.3379
 20
11.4603
 30
0.0
 10
-173.3792
 20
12.5453
 30
0.0
 10
-173.3792
 20
12.5453
 30
0.0
 10
-170.8935
 20
13.5057
 30
0.0
 10
-169.275
 20
8.7257
 30
0.0
 10
-167.3636
 20
9.8671
 30
0.0
 10
-167.3636
 20
9.8671
 30
0.0
 10
-173.6982
 20
16.9815
 30
0.0
 10
-168.4546
 20
25.2708
 30
0.0
 10
-168.9432
 20
25.1818
 30
0.0
 10
-168.9432
 20
25.1818
 30
0.0
 10
-169.9879
 20
25.169
 30
0.0
 10
-171.318
 20
25.6944
 30
0.0
 10
-171.8468
 20
26.5097
 30
0.0
 10
-171.8468
 20
26.5097
 30
0.0
 10
-167.6694
 20
27.241
 30
0.0
 10
-169.2179
 20
28.6328
 30
0.0
 10
-166.6657
 20
31.9134
 30
0.0
 10
-166.6657
 20
31.9134
 30
0.0
 10
-166.2311
 20
32.437
 30
0.0
 10
-164.8951
 20
32.0549
 30
0.0
 10
-164.2673
 20
31.427
 30
0.0
 10
-164.2673
 20
31.427
 30
0.0
 10
-163.0125
 20
32.4268
 30
0.0
 10
-161.0402
 20
33.4634
 30
0.0
 10
-159.9142
 20
34.0124
 30
0.0
 10
-159.9142
 20
34.0124
 30
0.0
 10
-162.5465
 20
36.0272
 30
0.0
 10
-163.8905
 20
37.7552
 30
0.0
 10
-164.3862
 20
38.4373
 30
0.0
 10
-164.3862
 20
38.4373
 30
0.0
 10
-164.9173
 20
39.152
 30
0.0
 10
-166.6316
 20
39.9133
 30
0.0
 10
-167.5846
 20
39.6768
 30
0.0
 10
-167.5846
 20
39.6768
 30
0.0
 10
-167.1178
 20
40.4297
 30
0.0
 10
-165.9346
 20
41.1491
 30
0.0
 10
-164.8503
 20
40.3574
 30
0.0
 10
-164.8503
 20
40.3574
 30
0.0
 10
-165.659
 20
42.0369
 30
0.0
 10
-166.3842
 20
44.7427
 30
0.0
 10
-165.7053
 20
46.8098
 30
0.0
 10
-165.7053
 20
46.8098
 30
0.0
 10
-168.9211
 20
43.8151
 30
0.0
 10
-178.0487
 20
26.0709
 30
0.0
 10
-178.0282
 20
9.3404
 30
0.0
 10
-178.0282
 20
9.3404
 30
0.0
 10
-176.8965
 20
9.2503
 30
0.0
 10
-173.8398
 20
9.1258
 30
0.0
 10
-172.739
 20
9.6271
 30
0.0
 10
-172.739
 20
9.6271
 30
0.0
 10
-172.739
 20
9.6271
 30
0.0
 10
-172.7389
 20
9.6272
 30
0.0
 10
-172.7389
 20
9.6272
 30
0.0
  0
SPLINE
  5
49
330
1F
100
AcDbEntity
  8
layer 1
 62
     7
100
AcDbSpline
210
0.0
220
0.0
230
1.0
 70
    11
 71
     3
 72
    28
 73
    24
 74
     0
 42
0.0000000001
 43
0.0000000001
 12
1.0
 22
0.0
 32
0.0
 13
1.0
 23
0.0
 33
0.0
 40
0.0
 40
0.0
 40
0.0
 40
0.0
 40
0.1428571428571428
 40
0.1428571428571428
 40
0.1428571428571428
 40
0.1428571428571428
 40
0.2857142857142857
 40
0.2857142857142857
 40
0.2857142857142857
 40
0.2857142857142857
 40
0.4285714285714285
 40
0.4285714285714285
 40
0.4285714285714285
 40
0.4285714285714285
 40
0.5714285714285714
 40
0.5714285714285714
 40
0.5714285714285714
 40
0.5714285714285714
 40
0.7142857142857143
 40
0.7142857142857143
 40
0.7142857142857143
 40
0.7142857142857143
 40
1.0
 40
1.0
 40
1.0
 40
1.0
 10
-127.5061
 20
14.6835
 30
0.0
 10
-129.6587
 20
16.6086
 30
0.0
 10
-130.8192
 20
20.1617
 30
0.0
 10
-130.8013
 20
21.4928
 30
0.0
 10
-130.8013
 20
21.4928
 30
0.0
 10
-129.132
 20
21.5797
 30
0.0
 10
-126.7074
 20
22.3343
 30
0.0
 10
-125.5447
 20
23.3469
 30
0.0
 10
-125.5447
 20
23.3469
 30
0.0
 10
-124.382
 20
22.3342
 30
0.0
 10
-121.9573
 20
21.5797
 30
0.0
 10
-120.288
 20
21.4928
 30
0.0
 10
-120.288
 20
21.4928
 30
0.0
 10
-120.2701
 20
20.1618
 30
0.0
 10
-121.4307
 20
16.6086
 30
0.0
 10
-123.5833
 20
14.6835
 30
0.0
 10
-123.5833
 20
14.6835
 30
0.0
 10
-123.8487
 20
14.81
 30
0.0
 10
-124.7108
 20
14.9039
 30
0.0
 10
-125.5447
 20
14.8923
 30
0.0
 10
-125.5447
 20
14.8923
 30
0.0
 10
-126.3786
 20
14.904
 30
0.0
 10
-127.2406
 20
14.8101
 30
0.0
 10
-127.5061
 20
14.6835
 30
0.0
  0
SPLINE
  5
4A
330
1F
100
AcDbEntity
  8
layer 1
 62
     7
100
AcDbSpline
210
0.0
220
0.0
230
1.0
 70
    11
 71
     3
 72
    20
 73
    16
 74
     0
 42
0.0000000001
 43
0.0000000001
 12
1.0
 22
0.0
 32
0.0
 13
1.0
 23
0.0
 33
0.0
 40
0.0
 40
0.0
 40
0.0
 40
0.0
 40
0.2
 40
0.2
 40
0.2
 40
0.2
 40
0.4
 40
0.4
 40
0.4
 40
0.4
 40
0.6
 40
0.6
 40
0.6
 40
0.6
 40
1.0
 40
1.0
 40
1.0
 40
1.0
 10
-138.0596
 20
18.517
 30
0.0
 10
-138.7299
 20
22.1084
 30
0.0
 10
-139.572
 20
23.4499
 30
0.0
 10
-140.4719
 20
25.5823
 30
0.0
 10
-140.4719
 20
25.5823
 30
0.0
 10
-141.5004
 20
25.6473
 30
0.0
 10
-142.9123
 20
26.227
 30
0.0
 10
-143.9297
 20
27.3055
 30
0.0
 10
-143.9297
 20
27.3055
 30
0.0
 10
-146.4637
 20
23.0905
 30
0.0
 10
-147.3806
 20
19.5841
 30
0.0
 10
-148.1546
 20
15.0031
 30
0.0
 10
-148.1546
 20
15.0031
 30
0.0
 10
-145.4558
 20
17.4422
 30
0.0
 10
-141.3286
 20
18.7556
 30
0.0
 10
-138.0596
 20
18.517
 30
0.0
  0
SPLINE
  5
4B
330
1F
100
AcDbEntity
  8
layer 1
 62
     7
100
AcDbSpline
210
0.0
220
0.0
230
1.0
 70
    11
 71
     3
 72
    24
 73
    20
 74
     0
 42
0.0000000001
 43
0.0000000001
 12
1.0
 22
0.0
 32
0.0
 13
1.0
 23
0.0
 33
0.0
 40
0.0
 40
0.0
 40
0.0
 40
0.0
 40
0.1666666666666667
 40
0.1666666666666667
 40
0.1666666666666667
 40
0.1666666666666667
 40
0.3333333333333333
 40
0.3333333333333333
 40
0.3333333333333333
 40
0.3333333333333333
 40
0.5
 40
0.5
 40
0.5
 40
0.5
 40
0.6666666666666666
 40
0.6666666666666666
 40
0.6666666666666666
 40
0.6666666666666666
 40
1.0
 40
1.0
 40
1.0
 40
1.0
 10
-131.9274
 20
16.3412
 30
0.0
 10
-132.981
 20
18.5332
 30
0.0
 10
-133.0701
 20
19.4555
 30
0.0
 10
-133.5407
 20
21.1912
 30
0.0
 10
-133.5407
 20
21.1912
 30
0.0
 10
-134.9358
 20
21.2888
 30
0.0
 10
-136.0387
 20
22.1216
 30
0.0
 10
-137.3253
 20
22.7845
 30
0.0
 10
-137.3253
 20
22.7845
 30
0.0
 10
-136.7821
 20
21.5117
 30
0.0
 10
-136.1997
 20
20.1267
 30
0.0
 10
-136.1606
 20
18.5678
 30
0.0
 10
-136.1606
 20
18.5678
 30
0.0
 10
-134.783
 20
18.2232
 30
0.0
 10
-133.4502
 20
17.3022
 30
0.0
 10
-131.9275
 20
16.3413
 30
0.0
 10
-131.9275
 20
16.3413
 30
0.0
 10
-131.9275
 20
16.3413
 30
0.0
 10
-131.9274
 20
16.3412
 30
0.0
 10
-131.9274
 20
16.3412
 30
0.0
  0
SPLINE
  5
4C
330
1F
100
AcDbEntity
  8
layer 1
 62
     7
100
AcDbSpline
210
0.0
220
0.0
230
1.0
 70
    11
 71
     3
 72
    28
 73
    24
 74
     0
 42
0.0000000001
 43
0.0000000001
 12
1.0
 22
0.0
 32
0.0
 13
1.0
 23
0.0
 33
0.0
 40
0.0
 40
0.0
 40
0.0
 40
0.0
 40
0.1428571428571428
 40
0.1428571428571428
 40
0.1428571428571428
 40
0.1428571428571428
 40
0.2857142857142857
 40
0.2857142857142857
 40
0.2857142857142857
 40
0.2857142857142857
 40
0.4285714285714285
 40
0.4285714285714285
 40
0.4285714285714285
 40
0.4285714285714285
 40
0.5714285714285714
 40
0.5714285714285714
 40
0.5714285714285714
 40
0.5714285714285714
 40
0.7142857142857143
 40
0.7142857142857143
 40
0.7142857142857143
 40
0.7142857142857143
 40
1.0
 40
1.0
 40
1.0
 40
1.0
 10
-171.786
 20
48.7771
 30
0.0
 10
-172.841
 20
48.367
 30
0.0
 10
-175.495
 20
48.0568
 30
0.0
 10
-176.3122
 20
48.1388
 30
0.0
 10
-176.3122
 20
48.1388
 30
0.0
 10
-176.5927
 20
46.0971
 30
0.0
 10
-177.1211
 20
44.6975
 30
0.0
 10
-179.1938
 20
43.8014
 30
0.0
 10
-179.1938
 20
43.8014
 30
0.0
 10
-178.7087
 20
45.6112
 30
0.0
 10
-178.4001
 20
47.4212
 30
0.0
 10
-179.1938
 20
49.0987
 30
0.0
 10
-179.1938
 20
49.0987
 30
0.0
 10
-180.7813
 20
49.561
 30
0.0
 10
-181.6906
 20
50.4422
 30
0.0
 10
-182.2365
 20
52.3736
 30
0.0
 10
-182.2365
 20
52.3736
 30
0.0
 10
-182.2365
 20
52.3736
 30
0.0
 10
-182.2365
 20
23.5296
 30
0.0
 10
-182.2365
 20
23.5296
 30
0.0
 10
-182.2365
 20
23.5296
 30
0.0
 10
-179.6179
 20
33.7376
 30
0.0
 10
-176.0722
 20
42.4569
 30
0.0
 10
-171.786
 20
48.7771
 30
0.0
  0
SPLINE
  5
4D
330
1F
100
AcDbEntity
  8
layer 1
 62
     7
100
AcDbSpline
210
0.0
220
0.0
230
1.0
 70
    11
 71
     3
 72
    16
 73
    12
 74
     0
 42
0.0000000001
 43
0.0000000001
 12
1.0
 22
0.0
 32
0.0
 13
1.0
 23
0.0
 33
0.0
 40
0.0
 40
0.0
 40
0.0
 40
0.0
 40
0.25
 40
0.25
 40
0.25
 40
0.25
 40
0.5
 40
0.5
 40
0.5
 40
0.5
 40
1.0
 40
1.0
 40
1.0
 40
1.0
 10
-146.659
 20
31.8376
 30
0.0
 10
-150.9411
 20
32.7252
 30
0.0
 10
-156.008
 20
28.9827
 30
0.0
 10
-154.6022
 20
24.7953
 30
0.0
 10
-154.6022
 20
24.7953
 30
0.0
 10
-153.0985
 20
26.1348
 30
0.0
 10
-151.6148
 20
25.3819
 30
0.0
 10
-151.0333
 20
23.6826
 30
0.0
 10
-151.0333
 20
23.6826
 30
0.0
 10
-150.5869
 20
26.5268
 30
0.0
 10
-148.8093
 20
29.3642
 30
0.0
 10
-146.659
 20
31.8376
 30
0.0
  0
SPLINE
  5
4E
330
1F
100
AcDbEntity
  8
layer 1
 62
     7
100
AcDbSpline
210
0.0
220
0.0
230
1.0
 70
    11
 71
     3
 72
    20
 73
    16
 74
     0
 42
0.0000000001
 43
0.0000000001
 12
1.0
 22
0.0
 32
0.0
 13
1.0
 23
0.0
 33
0.0
 40
0.0
 40
0.0
 40
0.0
 40
0.0
 40
0.2
 40
0.2
 40
0.2
 40
0.2
 40
0.4
 40
0.4
 40
0.4
 40
0.4
 40
0.6
 40
0.6
 40
0.6
 40
0.6
 40
1.0
 40
1.0
 40
1.0
 40
1.0
 10
-128.4563
 20
38.2439
 30
0.0
 10
-132.6503
 20
37.8021
 30
0.0
 10
-138.8541
 20
33.2535
 30
0.0
 10
-141.1954
 20
30.6399
 30
0.0
 10
-141.1954
 20
30.6399
 30
0.0
 10
-139.9993
 20
29.4936
 30
0.0
 10
-139.6693
 20
28.1963
 30
0.0
 10
-139.5786
 20
26.9048
 30
0.0
 10
-139.5786
 20
26.9048
 30
0.0
 10
-137.7737
 20
25.1969
 30
0.0
 10
-135.9916
 20
24.8052
 30
0.0
 10
-133.9031
 20
23.71
 30
0.0
 10
-133.9031
 20
23.71
 30
0.0
 10
-134.3443
 20
29.1356
 30
0.0
 10
-131.5101
 20
34.1971
 30
0.0
 10
-128.4563
 20
38.2439
 30
0.0
  0
SPLINE
  5
4F
330
1F
100
AcDbEntity
  8
layer 1
 62
     7
100
AcDbSpline
210
0.0
220
0.0
230
1.0
 70
    11
 71
     3
 72
    20
 73
    16
 74
     0
 42
0.0000000001
 43
0.0000000001
 12
1.0
 22
0.0
 32
0.0
 13
1.0
 23
0.0
 33
0.0
 40
0.0
 40
0.0
 40
0.0
 40
0.0
 40
0.2
 40
0.2
 40
0.2
 40
0.2
 40
0.4
 40
0.4
 40
0.4
 40
0.4
 40
0.6
 40
0.6
 40
0.6
 40
0.6
 40
1.0
 40
1.0
 40
1.0
 40
1.0
 10
-131.18
 20
23.6092
 30
0.0
 10
-131.7697
 20
27.8269
 30
0.0
 10
-128.7417
 20
33.9991
 30
0.0
 10
-125.5447
 20
35.4212
 30
0.0
 10
-125.5447
 20
35.4212
 30
0.0
 10
-122.3477
 20
33.9991
 30
0.0
 10
-119.3197
 20
27.8269
 30
0.0
 10
-119.9094
 20
23.6092
 30
0.0
 10
-119.9094
 20
23.6092
 30
0.0
 10
-122.0372
 20
23.9709
 30
0.0
 10
-123.7462
 20
24.6066
 30
0.0
 10
-125.5447
 20
25.9581
 30
0.0
 10
-125.5447
 20
25.9581
 30
0.0
 10
-127.3431
 20
24.6066
 30
0.0
 10
-129.0522
 20
23.971
 30
0.0
 10
-131.18
 20
23.6092
 30
0.0
  0
SPLINE
  5
50
330
1F
100
AcDbEntity
  8
layer 1
 62
     7
100
AcDbSpline
210
0.0
220
0.0
230
1.0
 70
    11
 71
     3
 72
    36
 73
    32
 74
     0
 42
0.0000000001
 43
0.0000000001
 12
1.0
 22
0.0
 32
0.0
 13
1.0
 23
0.0
 33
0.0
 40
0.0
 40
0.0
 40
0.0
 40
0.0
 40
0.1111111111111111
 40
0.1111111111111111
 40
0.1111111111111111
 40
0.1111111111111111
 40
0.2222222222222222
 40
0.2222222222222222
 40
0.2222222222222222
 40
0.2222222222222222
 40
0.3333333333333333
 40
0.3333333333333333
 40
0.3333333333333333
 40
0.3333333333333333
 40
0.4444444444444444
 40
0.4444444444444444
 40
0.4444444444444444
 40
0.4444444444444444
 40
0.5555555555555556
 40
0.5555555555555556
 40
0.5555555555555556
 40
0.5555555555555556
 40
0.6666666666666666
 40
0.6666666666666666
 40
0.6666666666666666
 40
0.6666666666666666
 40
0.7777777777777778
 40
0.7777777777777778
 40
0.7777777777777778
 40
0.7777777777777778
 40
1.0
 40
1.0
 40
1.0
 40
1.0
 10
-152.4293
 20
34.8908
 30
0.0
 10
-151.7462
 20
35.0114
 30
0.0
 10
-151.3238
 20
35.2194
 30
0.0
 10
-152.4558
 20
35.8518
 30
0.0
 10
-152.4558
 20
35.8518
 30
0.0
 10
-158.2421
 20
39.0918
 30
0.0
 10
-158.1388
 20
47.2096
 30
0.0
 10
-154.0598
 20
50.8086
 30
0.0
 10
-154.0598
 20
50.8086
 30
0.0
 10
-156.7736
 20
51.1619
 30
0.0
 10
-157.9593
 20
54.5262
 30
0.0
 10
-155.8051
 20
56.9476
 30
0.0
 10
-155.8051
 20
56.9476
 30
0.0
 10
-158.9771
 20
55.4814
 30
0.0
 10
-161.4359
 20
52.4944
 30
0.0
 10
-163.3027
 20
50.4748
 30
0.0
 10
-163.3027
 20
50.4748
 30
0.0
 10
-161.7195
 20
50.442
 30
0.0
 10
-160.6473
 20
49.3719
 30
0.0
 10
-160.7722
 20
48.1431
 30
0.0
 10
-160.7722
 20
48.1431
 30
0.0
 10
-160.804
 20
46.8488
 30
0.0
 10
-162.4608
 20
46.3163
 30
0.0
 10
-164.0012
 20
46.4617
 30
0.0
 10
-164.0012
 20
46.4617
 30
0.0
 10
-163.9295
 20
38.0825
 30
0.0
 10
-157.3806
 20
34.1343
 30
0.0
 10
-152.4292
 20
34.8909
 30
0.0
 10
-152.4292
 20
34.8909
 30
0.0
 10
-152.4292
 20
34.8909
 30
0.0
 10
-152.4293
 20
34.8908
 30
0.0
 10
-152.4293
 20
34.8908
 30
0.0
  0
SPLINE
  5
51
330
1F
100
AcDbEntity
  8
layer 1
 62
     7
100
AcDbSpline
210
0.0
220
0.0
230
1.0
 70
    11
 71
     3
 72
    48
 73
    44
 74
     0
 42
0.0000000001
 43
0.0000000001
 12
1.0
 22
0.0
 32
0.0
 13
1.0
 23
0.0
 33
0.0
 40
0.0
 40
0.0
 40
0.0
 40
0.0
 40
0.0833333333333333
 40
0.0833333333333333
 40
0.0833333333333333
 40
0.0833333333333333
 40
0.1666666666666667
 40
0.1666666666666667
 40
0.1666666666666667
 40
0.1666666666666667
 40
0.25
 40
0.25
 40
0.25
 40
0.25
 40
0.3333333333333333
 40
0.3333333333333333
 40
0.3333333333333333
 40
0.3333333333333333
 40
0.4166666666666667
 40
0.4166666666666667
 40
0.4166666666666667
 40
0.4166666666666667
 40
0.5
 40
0.5
 40
0.5
 40
0.5
 40
0.5833333333333334
 40
0.5833333333333334
 40
0.5833333333333334
 40
0.5833333333333334
 40
0.6666666666666666
 40
0.6666666666666666
 40
0.6666666666666666
 40
0.6666666666666666
 40
0.75
 40
0.75
 40
0.75
 40
0.75
 40
0.8333333333333334
 40
0.8333333333333334
 40
0.8333333333333334
 40
0.8333333333333334
 40
1.0
 40
1.0
 40
1.0
 40
1.0
 10
-145.433
 20
38.3093
 30
0.0
 10
-141.2709
 20
39.4651
 30
0.0
 10
-139.4465
 20
46.4001
 30
0.0
 10
-141.9843
 20
51.4192
 30
0.0
 10
-141.9843
 20
51.4192
 30
0.0
 10
-144.7371
 20
55.9034
 30
0.0
 10
-147.7465
 20
57.139
 30
0.0
 10
-152.2487
 20
57.5611
 30
0.0
 10
-152.2487
 20
57.5611
 30
0.0
 10
-150.6399
 20
56.2622
 30
0.0
 10
-150.4968
 20
54.2264
 30
0.0
 10
-150.9588
 20
52.8134
 30
0.0
 10
-150.9588
 20
52.8134
 30
0.0
 10
-148.7756
 20
53.2033
 30
0.0
 10
-146.6611
 20
52.6188
 30
0.0
 10
-145.3499
 20
51.4115
 30
0.0
 10
-145.3499
 20
51.4115
 30
0.0
 10
-144.3333
 20
50.612
 30
0.0
 10
-143.2252
 20
48.1815
 30
0.0
 10
-143.2238
 20
46.7483
 30
0.0
 10
-143.2238
 20
46.7483
 30
0.0
 10
-142.7713
 20
40.7706
 30
0.0
 10
-150.2177
 20
41.0838
 30
0.0
 10
-150.3845
 20
45.2858
 30
0.0
 10
-150.3845
 20
45.2858
 30
0.0
 10
-150.3828
 20
46.6111
 30
0.0
 10
-149.4092
 20
48.0185
 30
0.0
 10
-148.3468
 20
48.231
 30
0.0
 10
-148.3468
 20
48.231
 30
0.0
 10
-147.6179
 20
48.3768
 30
0.0
 10
-147.7882
 20
48.6154
 30
0.0
 10
-148.1734
 20
48.831
 30
0.0
 10
-148.1734
 20
48.831
 30
0.0
 10
-149.7337
 20
49.4105
 30
0.0
 10
-151.1279
 20
48.647
 30
0.0
 10
-151.9558
 20
47.4742
 30
0.0
 10
-151.9558
 20
47.4742
 30
0.0
 10
-155.2581
 20
42.709
 30
0.0
 10
-151.0221
 20
36.7574
 30
0.0
 10
-145.4331
 20
38.3094
 30
0.0
 10
-145.4331
 20
38.3094
 30
0.0
 10
-145.4331
 20
38.3094
 30
0.0
 10
-145.433
 20
38.3093
 30
0.0
 10
-145.433
 20
38.3093
 30
0.0
  0
SPLINE
  5
52
330
1F
100
AcDbEntity
  8
layer 1
 62
     7
100
AcDbSpline
210
0.0
220
0.0
230
1.0
 70
    11
 71
     3
 72
    28
 73
    24
 74
     0
 42
0.0000000001
 43
0.0000000001
 12
1.0
 22
0.0
 32
0.0
 13
1.0
 23
0.0
 33
0.0
 40
0.0
 40
0.0
 40
0.0
 40
0.0
 40
0.1428571428571428
 40
0.1428571428571428
 40
0.1428571428571428
 40
0.1428571428571428
 40
0.2857142857142857
 40
0.2857142857142857
 40
0.2857142857142857
 40
0.2857142857142857
 40
0.4285714285714285
 40
0.4285714285714285
 40
0.4285714285714285
 40
0.4285714285714285
 40
0.5714285714285714
 40
0.5714285714285714
 40
0.5714285714285714
 40
0.5714285714285714
 40
0.7142857142857143
 40
0.7142857142857143
 40
0.7142857142857143
 40
0.7142857142857143
 40
1.0
 40
1.0
 40
1.0
 40
1.0
 10
-127.4437
 20
43.8218
 30
0.0
 10
-127.1449
 20
44.6015
 30
0.0
 10
-126.9235
 20
44.9902
 30
0.0
 10
-126.7303
 20
45.6099
 30
0.0
 10
-126.7303
 20
45.6099
 30
0.0
 10
-127.1882
 20
46.3978
 30
0.0
 10
-127.5266
 20
47.1188
 30
0.0
 10
-128.1237
 20
48.0306
 30
0.0
 10
-128.1237
 20
48.0306
 30
0.0
 10
-129.3044
 20
44.4586
 30
0.0
 10
-134.1654
 20
42.9851
 30
0.0
 10
-137.3936
 20
44.8669
 30
0.0
 10
-137.3936
 20
44.8669
 30
0.0
 10
-137.5412
 20
42.4575
 30
0.0
 10
-138.1478
 20
41.1708
 30
0.0
 10
-140.1829
 20
38.5787
 30
0.0
 10
-140.1829
 20
38.5787
 30
0.0
 10
-138.0051
 20
42.0282
 30
0.0
 10
-128.9352
 20
43.6804
 30
0.0
 10
-127.4438
 20
43.8217
 30
0.0
 10
-127.4438
 20
43.8217
 30
0.0
 10
-127.4438
 20
43.8217
 30
0.0
 10
-127.4437
 20
43.8218
 30
0.0
 10
-127.4437
 20
43.8218
 30
0.0
  0
SPLINE
  5
53
330
1F
100
AcDbEntity
  8
layer 1
 62
     7
100
AcDbSpline
210
0.0
220
0.0
230
1.0
 70
    11
 71
     3
 72
    36
 73
    32
 74
     0
 42
0.0000000001
 43
0.0000000001
 12
1.0
 22
0.0
 32
0.0
 13
1.0
 23
0.0
 33
0.0
 40
0.0
 40
0.0
 40
0.0
 40
0.0
 40
0.1111111111111111
 40
0.1111111111111111
 40
0.1111111111111111
 40
0.1111111111111111
 40
0.2222222222222222
 40
0.2222222222222222
 40
0.2222222222222222
 40
0.2222222222222222
 40
0.3333333333333333
 40
0.3333333333333333
 40
0.3333333333333333
 40
0.3333333333333333
 40
0.4444444444444444
 40
0.4444444444444444
 40
0.4444444444444444
 40
0.4444444444444444
 40
0.5555555555555556
 40
0.5555555555555556
 40
0.5555555555555556
 40
0.5555555555555556
 40
0.6666666666666666
 40
0.6666666666666666
 40
0.6666666666666666
 40
0.6666666666666666
 40
0.7777777777777778
 40
0.7777777777777778
 40
0.7777777777777778
 40
0.7777777777777778
 40
1.0
 40
1.0
 40
1.0
 40
1.0
 10
-132.1963
 20
46.4377
 30
0.0
 10
-129.7464
 20
47.6096
 30
0.0
 10
-129.6491
 20
49.651
 30
0.0
 10
-130.6676
 20
51.5542
 30
0.0
 10
-130.6676
 20
51.5542
 30
0.0
 10
-131.5677
 20
50.2856
 30
0.0
 10
-132.8455
 20
49.7381
 30
0.0
 10
-134.056
 20
50.4833
 30
0.0
 10
-134.056
 20
50.4833
 30
0.0
 10
-134.9628
 20
51.2859
 30
0.0
 10
-134.8262
 20
52.6967
 30
0.0
 10
-133.8183
 20
53.4714
 30
0.0
 10
-133.8183
 20
53.4714
 30
0.0
 10
-136.1547
 20
53.3434
 30
0.0
 10
-137.8908
 20
54.1986
 30
0.0
 10
-139.4928
 20
55.3161
 30
0.0
 10
-139.4928
 20
55.3161
 30
0.0
 10
-138.0025
 20
53.1217
 30
0.0
 10
-137.5222
 20
50.56
 30
0.0
 10
-137.4862
 20
48.1123
 30
0.0
 10
-137.4862
 20
48.1123
 30
0.0
 10
-137.4862
 20
46.9232
 30
0.0
 10
-137.3815
 20
46.642
 30
0.0
 10
-136.8413
 20
46.3815
 30
0.0
 10
-136.8413
 20
46.3815
 30
0.0
 10
-135.9114
 20
45.9331
 30
0.0
 10
-133.3293
 20
45.9643
 30
0.0
 10
-132.1963
 20
46.4378
 30
0.0
 10
-132.1963
 20
46.4378
 30
0.0
 10
-132.1963
 20
46.4378
 30
0.0
 10
-132.1963
 20
46.4377
 30
0.0
 10
-132.1963
 20
46.4377
 30
0.0
  0
SPLINE
  5
54
330
1F
100
AcDbEntity
  8
layer 1
 62
     7
100
AcDbSpline
210
0.0
220
0.0
230
1.0
 70
    11
 71
     3
 72
    20
 73
    16
 74
     0
 42
0.0000000001
 43
0.0000000001
 12
1.0
 22
0.0
 32
0.0
 13
1.0
 23
0.0
 33
0.0
 40
0.0
 40
0.0
 40
0.0
 40
0.0
 40
0.2
 40
0.2
 40
0.2
 40
0.2
 40
0.4
 40
0.4
 40
0.4
 40
0.4
 40
0.6
 40
0.6
 40
0.6
 40
0.6
 40
1.0
 40
1.0
 40
1.0
 40
1.0
 10
-126.4991
 20
59.6475
 30
0.0
 10
-127.6394
 20
57.1356
 30
0.0
 10
-129.0106
 20
55.2648
 30
0.0
 10
-131.4946
 20
54.2762
 30
0.0
 10
-131.4946
 20
54.2762
 30
0.0
 10
-128.9158
 20
53.9176
 30
0.0
 10
-127.9656
 20
52.8045
 30
0.0
 10
-127.7907
 20
50.9047
 30
0.0
 10
-127.7907
 20
50.9047
 30
0.0
 10
-126.3829
 20
53.6584
 30
0.0
 10
-126.4858
 20
57.1913
 30
0.0
 10
-126.4993
 20
59.6475
 30
0.0
 10
-126.4993
 20
59.6475
 30
0.0
 10
-126.4993
 20
59.6475
 30
0.0
 10
-126.4991
 20
59.6475
 30
0.0
 10
-126.4991
 20
59.6475
 30
0.0
  0
SPLINE
  5
55
330
1F
100
AcDbEntity
  8
layer 1
 62
     7
100
AcDbSpline
210
0.0
220
0.0
230
1.0
 70
    11
 71
     3
 72
    56
 73
    52
 74
     0
 42
0.0000000001
 43
0.0000000001
 12
1.0
 22
0.0
 32
0.0
 13
1.0
 23
0.0
 33
0.0
 40
0.0
 40
0.0
 40
0.0
 40
0.0
 40
0.0714285714285714
 40
0.0714285714285714
 40
0.0714285714285714
 40
0.0714285714285714
 40
0.1428571428571428
 40
0.1428571428571428
 40
0.1428571428571428
 40
0.1428571428571428
 40
0.2142857142857143
 40
0.2142857142857143
 40
0.2142857142857143
 40
0.2142857142857143
 40
0.2857142857142857
 40
0.2857142857142857
 40
0.2857142857142857
 40
0.2857142857142857
 40
0.3571428571428572
 40
0.3571428571428572
 40
0.3571428571428572
 40
0.3571428571428572
 40
0.4285714285714285
 40
0.4285714285714285
 40
0.4285714285714285
 40
0.4285714285714285
 40
0.5
 40
0.5
 40
0.5
 40
0.5
 40
0.5714285714285714
 40
0.5714285714285714
 40
0.5714285714285714
 40
0.5714285714285714
 40
0.6428571428571429
 40
0.6428571428571429
 40
0.6428571428571429
 40
0.6428571428571429
 40
0.7142857142857143
 40
0.7142857142857143
 40
0.7142857142857143
 40
0.7142857142857143
 40
0.7857142857142857
 40
0.7857142857142857
 40
0.7857142857142857
 40
0.7857142857142857
 40
0.8571428571428571
 40
0.8571428571428571
 40
0.8571428571428571
 40
0.8571428571428571
 40
1.0
 40
1.0
 40
1.0
 40
1.0
 10
-172.4354
 20
52.6034
 30
0.0
 10
-172.0827
 20
53.0023
 30
0.0
 10
-172.3032
 20
53.4076
 30
0.0
 10
-172.9591
 20
53.2249
 30
0.0
 10
-172.9591
 20
53.2249
 30
0.0
 10
-175.685
 20
52.4656
 30
0.0
 10
-177.604
 20
55.5484
 30
0.0
 10
-175.6326
 20
57.5196
 30
0.0
 10
-175.6326
 20
57.5196
 30
0.0
 10
-172.4613
 20
60.3281
 30
0.0
 10
-168.5936
 20
57.5099
 30
0.0
 10
-168.7562
 20
52.6245
 30
0.0
 10
-168.7562
 20
52.6245
 30
0.0
 10
-166.0093
 20
56.2973
 30
0.0
 10
-162.0199
 20
61.1399
 30
0.0
 10
-161.7599
 20
62.6689
 30
0.0
 10
-161.7599
 20
62.6689
 30
0.0
 10
-163.3909
 20
61.3526
 30
0.0
 10
-165.2385
 20
60.7588
 30
0.0
 10
-166.9567
 20
62.3779
 30
0.0
 10
-166.9567
 20
62.3779
 30
0.0
 10
-167.6641
 20
63.087
 30
0.0
 10
-168.4444
 20
62.9196
 30
0.0
 10
-168.4444
 20
62.067
 30
0.0
 10
-168.4444
 20
62.067
 30
0.0
 10
-168.4444
 20
61.7609
 30
0.0
 10
-168.5676
 20
61.5106
 30
0.0
 10
-168.718
 20
61.5106
 30
0.0
 10
-168.718
 20
61.5106
 30
0.0
 10
-169.0627
 20
61.5106
 30
0.0
 10
-169.4251
 20
63.3623
 30
0.0
 10
-169.1968
 20
63.9571
 30
0.0
 10
-169.1968
 20
63.9571
 30
0.0
 10
-168.9957
 20
65.0176
 30
0.0
 10
-169.1394
 20
65.8243
 30
0.0
 10
-169.6837
 20
66.8593
 30
0.0
 10
-169.6837
 20
66.8593
 30
0.0
 10
-172.1353
 20
65.2934
 30
0.0
 10
-175.0529
 20
64.1948
 30
0.0
 10
-177.197
 20
62.2325
 30
0.0
 10
-177.197
 20
62.2325
 30
0.0
 10
-178.4252
 20
61.073
 30
0.0
 10
-179.3464
 20
59.0632
 30
0.0
 10
-179.5163
 20
57.1726
 30
0.0
 10
-179.5163
 20
57.1726
 30
0.0
 10
-180.2529
 20
50.6617
 30
0.0
 10
-174.5591
 20
49.4288
 30
0.0
 10
-172.4353
 20
52.6033
 30
0.0
 10
-172.4353
 20
52.6033
 30
0.0
 10
-172.4353
 20
52.6033
 30
0.0
 10
-172.4354
 20
52.6034
 30
0.0
 10
-172.4354
 20
52.6034
 30
0.0
  0
SPLINE
  5
56
330
1F
100
AcDbEntity
  8
layer 1
 62
     7
100
AcDbSpline
210
0.0
220
0.0
230
1.0
 70
    11
 71
     3
 72
    48
 73
    44
 74
     0
 42
0.0000000001
 43
0.0000000001
 12
1.0
 22
0.0
 32
0.0
 13
1.0
 23
0.0
 33
0.0
 40
0.0
 40
0.0
 40
0.0
 40
0.0
 40
0.0833333333333333
 40
0.0833333333333333
 40
0.0833333333333333
 40
0.0833333333333333
 40
0.1666666666666667
 40
0.1666666666666667
 40
0.1666666666666667
 40
0.1666666666666667
 40
0.25
 40
0.25
 40
0.25
 40
0.25
 40
0.3333333333333333
 40
0.3333333333333333
 40
0.3333333333333333
 40
0.3333333333333333
 40
0.4166666666666667
 40
0.4166666666666667
 40
0.4166666666666667
 40
0.4166666666666667
 40
0.5
 40
0.5
 40
0.5
 40
0.5
 40
0.5833333333333334
 40
0.5833333333333334
 40
0.5833333333333334
 40
0.5833333333333334
 40
0.6666666666666666
 40
0.6666666666666666
 40
0.6666666666666666
 40
0.6666666666666666
 40
0.75
 40
0.75
 40
0.75
 40
0.75
 40
0.8333333333333334
 40
0.8333333333333334
 40
0.8333333333333334
 40
0.8333333333333334
 40
1.0
 40
1.0
 40
1.0
 40
1.0
 10
-131.6453
 20
56.9494
 30
0.0
 10
-129.5743
 20
57.9897
 30
0.0
 10
-128.3792
 20
59.0101
 30
0.0
 10
-127.9752
 20
61.1238
 30
0.0
 10
-127.9752
 20
61.1238
 30
0.0
 10
-129.9637
 20
61.2331
 30
0.0
 10
-132.1237
 20
60.8446
 30
0.0
 10
-132.3265
 20
62.6713
 30
0.0
 10
-132.3265
 20
62.6713
 30
0.0
 10
-130.6529
 20
65.0052
 30
0.0
 10
-129.1785
 20
67.1432
 30
0.0
 10
-130.2884
 20
69.6803
 30
0.0
 10
-130.2884
 20
69.6803
 30
0.0
 10
-131.2419
 20
71.7462
 30
0.0
 10
-132.7454
 20
72.6901
 30
0.0
 10
-135.0826
 20
72.6901
 30
0.0
 10
-135.0826
 20
72.6901
 30
0.0
 10
-137.325
 20
72.6901
 30
0.0
 10
-138.6126
 20
71.5798
 30
0.0
 10
-138.2976
 20
69.9179
 30
0.0
 10
-138.2976
 20
69.9179
 30
0.0
 10
-138.2284
 20
69.5529
 30
0.0
 10
-137.894
 20
69.365
 30
0.0
 10
-137.1973
 20
69.2994
 30
0.0
 10
-137.1973
 20
69.2994
 30
0.0
 10
-135.8725
 20
69.175
 30
0.0
 10
-135.1931
 20
68.5186
 30
0.0
 10
-135.1931
 20
67.3633
 30
0.0
 10
-135.1931
 20
67.3633
 30
0.0
 10
-136.2328
 20
63.4301
 30
0.0
 10
-140.4675
 20
64.7756
 30
0.0
 10
-141.9525
 20
67.828
 30
0.0
 10
-141.9525
 20
67.828
 30
0.0
 10
-141.7053
 20
64.1016
 30
0.0
 10
-140.6166
 20
61.2379
 30
0.0
 10
-138.6595
 20
59.1221
 30
0.0
 10
-138.6595
 20
59.1221
 30
0.0
 10
-136.6414
 20
56.9695
 30
0.0
 10
-134.2455
 20
56.2274
 30
0.0
 10
-131.6453
 20
56.9492
 30
0.0
 10
-131.6453
 20
56.9492
 30
0.0
 10
-131.6453
 20
56.9492
 30
0.0
 10
-131.6453
 20
56.9494
 30
0.0
 10
-131.6453
 20
56.9494
 30
0.0
  0
SPLINE
  5
57
330
1F
100
AcDbEntity
  8
layer 1
 62
     7
100
AcDbSpline
210
0.0
220
0.0
230
1.0
 70
    11
 71
     3
 72
    16
 73
    12
 74
     0
 42
0.0000000001
 43
0.0000000001
 12
1.0
 22
0.0
 32
0.0
 13
1.0
 23
0.0
 33
0.0
 40
0.0
 40
0.0
 40
0.0
 40
0.0
 40
0.25
 40
0.25
 40
0.25
 40
0.25
 40
0.5
 40
0.5
 40
0.5
 40
0.5
 40
1.0
 40
1.0
 40
1.0
 40
1.0
 10
-175.8166
 20
66.776
 30
0.0
 10
-178.129
 20
67.3319
 30
0.0
 10
-180.8886
 20
70.0765
 30
0.0
 10
-182.2365
 20
72.8985
 30
0.0
 10
-182.2365
 20
72.8985
 30
0.0
 10
-182.2365
 20
72.8985
 30
0.0
 10
-182.2365
 20
60.7317
 30
0.0
 10
-182.2365
 20
60.7317
 30
0.0
 10
-182.2365
 20
60.7317
 30
0.0
 10
-180.7998
 20
64.1671
 30
0.0
 10
-177.893
 20
65.9759
 30
0.0
 10
-175.8166
 20
66.776
 30
0.0
  0
SPLINE
  5
58
330
1F
100
AcDbEntity
  8
layer 1
 62
     7
100
AcDbSpline
210
0.0
220
0.0
230
1.0
 70
    11
 71
     3
 72
    24
 73
    20
 74
     0
 42
0.0000000001
 43
0.0000000001
 12
1.0
 22
0.0
 32
0.0
 13
1.0
 23
0.0
 33
0.0
 40
0.0
 40
0.0
 40
0.0
 40
0.0
 40
0.1666666666666667
 40
0.1666666666666667
 40
0.1666666666666667
 40
0.1666666666666667
 40
0.3333333333333333
 40
0.3333333333333333
 40
0.3333333333333333
 40
0.3333333333333333
 40
0.5
 40
0.5
 40
0.5
 40
0.5
 40
0.6666666666666666
 40
0.6666666666666666
 40
0.6666666666666666
 40
0.6666666666666666
 40
1.0
 40
1.0
 40
1.0
 40
1.0
 10
-145.1123
 20
66.7571
 30
0.0
 10
-146.1609
 20
66.1293
 30
0.0
 10
-148.1065
 20
66.1742
 30
0.0
 10
-148.9309
 20
66.5329
 30
0.0
 10
-148.9309
 20
66.5329
 30
0.0
 10
-148.5164
 20
64.9117
 30
0.0
 10
-148.5731
 20
64.0711
 30
0.0
 10
-149.6697
 20
63.0852
 30
0.0
 10
-149.6697
 20
63.0852
 30
0.0
 10
-147.6981
 20
62.4419
 30
0.0
 10
-145.8315
 20
61.4573
 30
0.0
 10
-143.8632
 20
60.1977
 30
0.0
 10
-143.8632
 20
60.1977
 30
0.0
 10
-145.1578
 20
62.6624
 30
0.0
 10
-145.4097
 20
64.5891
 30
0.0
 10
-145.1123
 20
66.757
 30
0.0
 10
-145.1123
 20
66.757
 30
0.0
 10
-145.1123
 20
66.757
 30
0.0
 10
-145.1123
 20
66.7571
 30
0.0
 10
-145.1123
 20
66.7571
 30
0.0
  0
SPLINE
  5
59
330
1F
100
AcDbEntity
  8
layer 1
 62
     7
100
AcDbSpline
210
0.0
220
0.0
230
1.0
 70
    11
 71
     3
 72
    24
 73
    20
 74
     0
 42
0.0000000001
 43
0.0000000001
 12
1.0
 22
0.0
 32
0.0
 13
1.0
 23
0.0
 33
0.0
 40
0.0
 40
0.0
 40
0.0
 40
0.0
 40
0.1666666666666667
 40
0.1666666666666667
 40
0.1666666666666667
 40
0.1666666666666667
 40
0.3333333333333333
 40
0.3333333333333333
 40
0.3333333333333333
 40
0.3333333333333333
 40
0.5
 40
0.5
 40
0.5
 40
0.5
 40
0.6666666666666666
 40
0.6666666666666666
 40
0.6666666666666666
 40
0.6666666666666666
 40
1.0
 40
1.0
 40
1.0
 40
1.0
 10
-153.715
 20
62.8002
 30
0.0
 10
-154.7047
 20
63.9092
 30
0.0
 10
-154.3581
 20
65.6301
 30
0.0
 10
-154.1308
 20
66.2713
 30
0.0
 10
-154.1308
 20
66.2713
 30
0.0
 10
-154.4502
 20
66.1613
 30
0.0
 10
-155.791
 20
65.6496
 30
0.0
 10
-156.9708
 20
66.3101
 30
0.0
 10
-156.9708
 20
66.3101
 30
0.0
 10
-157.0376
 20
64.9648
 30
0.0
 10
-157.5589
 20
63.369
 30
0.0
 10
-158.4117
 20
62.1284
 30
0.0
 10
-158.4117
 20
62.1284
 30
0.0
 10
-156.5712
 20
62.6839
 30
0.0
 10
-155.5725
 20
62.8163
 30
0.0
 10
-153.715
 20
62.8003
 30
0.0
 10
-153.715
 20
62.8003
 30
0.0
 10
-153.715
 20
62.8003
 30
0.0
 10
-153.715
 20
62.8002
 30
0.0
 10
-153.715
 20
62.8002
 30
0.0
  0
SPLINE
  5
5A
330
1F
100
AcDbEntity
  8
layer 1
 62
     7
100
AcDbSpline
210
0.0
220
0.0
230
1.0
 70
    11
 71
     3
 72
   104
 73
   100
 74
     0
 42
0.0000000001
 43
0.0000000001
 12
1.0
 22
0.0
 32
0.0
 13
1.0
 23
0.0
 33
0.0
 40
0.0
 40
0.0
 40
0.0
 40
0.0
 40
0.0384615384615385
 40
0.0384615384615385
 40
0.0384615384615385
 40
0.0384615384615385
 40
0.0769230769230769
 40
0.0769230769230769
 40
0.0769230769230769
 40
0.0769230769230769
 40
0.1153846153846154
 40
0.1153846153846154
 40
0.1153846153846154
 40
0.1153846153846154
 40
0.1538461538461539
 40
0.1538461538461539
 40
0.1538461538461539
 40
0.1538461538461539
 40
0.1923076923076923
 40
0.1923076923076923
 40
0.1923076923076923
 40
0.1923076923076923
 40
0.2307692307692308
 40
0.2307692307692308
 40
0.2307692307692308
 40
0.2307692307692308
 40
0.2692307692307692
 40
0.2692307692307692
 40
0.2692307692307692
 40
0.2692307692307692
 40
0.3076923076923077
 40
0.3076923076923077
 40
0.3076923076923077
 40
0.3076923076923077
 40
0.3461538461538461
 40
0.3461538461538461
 40
0.3461538461538461
 40
0.3461538461538461
 40
0.3846153846153846
 40
0.3846153846153846
 40
0.3846153846153846
 40
0.3846153846153846
 40
0.4230769230769231
 40
0.4230769230769231
 40
0.4230769230769231
 40
0.4230769230769231
 40
0.4615384615384616
 40
0.4615384615384616
 40
0.4615384615384616
 40
0.4615384615384616
 40
0.5
 40
0.5
 40
0.5
 40
0.5
 40
0.5384615384615384
 40
0.5384615384615384
 40
0.5384615384615384
 40
0.5384615384615384
 40
0.5769230769230769
 40
0.5769230769230769
 40
0.5769230769230769
 40
0.5769230769230769
 40
0.6153846153846154
 40
0.6153846153846154
 40
0.6153846153846154
 40
0.6153846153846154
 40
0.6538461538461539
 40
0.6538461538461539
 40
0.6538461538461539
 40
0.6538461538461539
 40
0.6923076923076923
 40
0.6923076923076923
 40
0.6923076923076923
 40
0.6923076923076923
 40
0.7307692307692307
 40
0.7307692307692307
 40
0.7307692307692307
 40
0.7307692307692307
 40
0.7692307692307693
 40
0.7692307692307693
 40
0.7692307692307693
 40
0.7692307692307693
 40
0.8076923076923077
 40
0.8076923076923077
 40
0.8076923076923077
 40
0.8076923076923077
 40
0.8461538461538461
 40
0.8461538461538461
 40
0.8461538461538461
 40
0.8461538461538461
 40
0.8846153846153846
 40
0.8846153846153846
 40
0.8846153846153846
 40
0.8846153846153846
 40
0.9230769230769231
 40
0.9230769230769231
 40
0.9230769230769231
 40
0.9230769230769231
 40
1.0
 40
1.0
 40
1.0
 40
1.0
 10
-162.4248
 20
65.5682
 30
0.0
 10
-162.4248
 20
66.4756
 30
0.0
 10
-162.499
 20
66.5176
 30
0.0
 10
-163.3228
 20
66.0768
 30
0.0
 10
-163.3228
 20
66.0768
 30
0.0
 10
-164.1445
 20
65.637
 30
0.0
 10
-165.2913
 20
66.4328
 30
0.0
 10
-165.2913
 20
67.4427
 30
0.0
 10
-165.2913
 20
67.4427
 30
0.0
 10
-165.2913
 20
69.3596
 30
0.0
 10
-162.9944
 20
69.9207
 30
0.0
 10
-161.5365
 20
68.3599
 30
0.0
 10
-161.5365
 20
68.3599
 30
0.0
 10
-160.9513
 20
67.9578
 30
0.0
 10
-160.8869
 20
67.3844
 30
0.0
 10
-160.4642
 20
66.6704
 30
0.0
 10
-160.4642
 20
66.6704
 30
0.0
 10
-158.4357
 20
70.905
 30
0.0
 10
-159.2502
 20
75.5657
 30
0.0
 10
-159.9856
 20
79.4263
 30
0.0
 10
-159.9856
 20
79.4263
 30
0.0
 10
-159.9675
 20
80.2448
 30
0.0
 10
-159.529
 20
80.6902
 30
0.0
 10
-159.037
 20
81.2889
 30
0.0
 10
-159.037
 20
81.2889
 30
0.0
 10
-154.7263
 20
77.766
 30
0.0
 10
-146.2323
 20
78.8133
 30
0.0
 10
-142.9222
 20
83.8651
 30
0.0
 10
-142.9222
 20
83.8651
 30
0.0
 10
-145.2165
 20
82.4866
 30
0.0
 10
-148.7795
 20
82.1491
 30
0.0
 10
-148.9523
 20
82.5777
 30
0.0
 10
-148.9523
 20
82.5777
 30
0.0
 10
-148.5391
 20
83.7191
 30
0.0
 10
-148.3851
 20
84.9915
 30
0.0
 10
-149.4809
 20
85.2991
 30
0.0
 10
-149.4809
 20
85.2991
 30
0.0
 10
-150.0948
 20
85.447
 30
0.0
 10
-150.6558
 20
84.9459
 30
0.0
 10
-150.813
 20
84.4507
 30
0.0
 10
-150.813
 20
84.4507
 30
0.0
 10
-151.9412
 20
82.8806
 30
0.0
 10
-153.4886
 20
83.0438
 30
0.0
 10
-155.0693
 20
83.3403
 30
0.0
 10
-155.0693
 20
83.3403
 30
0.0
 10
-153.7771
 20
84.2754
 30
0.0
 10
-153.1381
 20
85.8553
 30
0.0
 10
-154.059
 20
87.1891
 30
0.0
 10
-154.059
 20
87.1891
 30
0.0
 10
-155.2258
 20
88.8954
 30
0.0
 10
-156.6307
 20
88.2287
 30
0.0
 10
-158.206
 20
87.2684
 30
0.0
 10
-158.206
 20
87.2684
 30
0.0
 10
-158.5302
 20
88.6554
 30
0.0
 10
-158.1388
 20
90.497
 30
0.0
 10
-155.4902
 20
90.5671
 30
0.0
 10
-155.4902
 20
90.5671
 30
0.0
 10
-156.1061
 20
92.2381
 30
0.0
 10
-156.4022
 20
94.2318
 30
0.0
 10
-156.2439
 20
95.9379
 30
0.0
 10
-156.2439
 20
95.9379
 30
0.0
 10
-158.2863
 20
95.1914
 30
0.0
 10
-160.0516
 20
95.1445
 30
0.0
 10
-162.1224
 20
95.4787
 30
0.0
 10
-162.1224
 20
95.4787
 30
0.0
 10
-161.5533
 20
94.1481
 30
0.0
 10
-161.8158
 20
92.2556
 30
0.0
 10
-162.7267
 20
91.3696
 30
0.0
 10
-162.7267
 20
91.3696
 30
0.0
 10
-163.2241
 20
90.9062
 30
0.0
 10
-163.2599
 20
90.7213
 30
0.0
 10
-162.9735
 20
90.0929
 30
0.0
 10
-162.9735
 20
90.0929
 30
0.0
 10
-162.5841
 20
89.2381
 30
0.0
 10
-162.7956
 20
88.1259
 30
0.0
 10
-163.4776
 20
87.444
 30
0.0
 10
-163.4776
 20
87.444
 30
0.0
 10
-163.9247
 20
86.997
 30
0.0
 10
-163.9822
 20
87.0304
 30
0.0
 10
-164.3496
 20
87.9515
 30
0.0
 10
-164.3496
 20
87.9515
 30
0.0
 10
-165.6921
 20
89.8911
 30
0.0
 10
-167.3078
 20
90.1865
 30
0.0
 10
-169.3413
 20
90.519
 30
0.0
 10
-169.3413
 20
90.519
 30
0.0
 10
-163.6527
 20
85.545
 30
0.0
 10
-164.3744
 20
75.2451
 30
0.0
 10
-167.3512
 20
69.899
 30
0.0
 10
-167.3512
 20
69.899
 30
0.0
 10
-168.3745
 20
68.2099
 30
0.0
 10
-167.7137
 20
64.4843
 30
0.0
 10
-165.7911
 20
63.8014
 30
0.0
 10
-165.7911
 20
63.8014
 30
0.0
 10
-164.3227
 20
63.5034
 30
0.0
 10
-162.4569
 20
63.9029
 30
0.0
 10
-162.4248
 20
65.5683
 30
0.0
 10
-162.4248
 20
65.5683
 30
0.0
 10
-162.4248
 20
65.5683
 30
0.0
 10
-162.4248
 20
65.5682
 30
0.0
 10
-162.4248
 20
65.5682
 30
0.0
  0
SPLINE
  5
5B
330
1F
100
AcDbEntity
  8
layer 1
 62
     7
100
AcDbSpline
210
0.0
220
0.0
230
1.0
 70
    11
 71
     3
 72
    12
 73
     8
 74
     0
 42
0.0000000001
 43
0.0000000001
 12
1.0
 22
0.0
 32
0.0
 13
1.0
 23
0.0
 33
0.0
 40
0.0
 40
0.0
 40
0.0
 40
0.0
 40
0.3333333333333333
 40
0.3333333333333333
 40
0.3333333333333333
 40
0.3333333333333333
 40
1.0
 40
1.0
 40
1.0
 40
1.0
 10
-125.5447
 20
68.7183
 30
0.0
 10
-123.7023
 20
69.5531
 30
0.0
 10
-123.7928
 20
72.6482
 30
0.0
 10
-125.5447
 20
73.5921
 30
0.0
 10
-125.5447
 20
73.5921
 30
0.0
 10
-127.2965
 20
72.6482
 30
0.0
 10
-127.387
 20
69.553
 30
0.0
 10
-125.5447
 20
68.7183
 30
0.0
  0
SPLINE
  5
5C
330
1F
100
AcDbEntity
  8
layer 1
 62
     7
100
AcDbSpline
210
0.0
220
0.0
230
1.0
 70
    11
 71
     3
 72
    48
 73
    44
 74
     0
 42
0.0000000001
 43
0.0000000001
 12
1.0
 22
0.0
 32
0.0
 13
1.0
 23
0.0
 33
0.0
 40
0.0
 40
0.0
 40
0.0
 40
0.0
 40
0.0833333333333333
 40
0.0833333333333333
 40
0.0833333333333333
 40
0.0833333333333333
 40
0.1666666666666667
 40
0.1666666666666667
 40
0.1666666666666667
 40
0.1666666666666667
 40
0.25
 40
0.25
 40
0.25
 40
0.25
 40
0.3333333333333333
 40
0.3333333333333333
 40
0.3333333333333333
 40
0.3333333333333333
 40
0.4166666666666667
 40
0.4166666666666667
 40
0.4166666666666667
 40
0.4166666666666667
 40
0.5
 40
0.5
 40
0.5
 40
0.5
 40
0.5833333333333334
 40
0.5833333333333334
 40
0.5833333333333334
 40
0.5833333333333334
 40
0.6666666666666666
 40
0.6666666666666666
 40
0.6666666666666666
 40
0.6666666666666666
 40
0.75
 40
0.75
 40
0.75
 40
0.75
 40
0.8333333333333334
 40
0.8333333333333334
 40
0.8333333333333334
 40
0.8333333333333334
 40
1.0
 40
1.0
 40
1.0
 40
1.0
 10
-170.789
 20
70.2632
 30
0.0
 10
-168.277
 20
73.3878
 30
0.0
 10
-166.7488
 20
78.2903
 30
0.0
 10
-167.8307
 20
82.2929
 30
0.0
 10
-167.8307
 20
82.2929
 30
0.0
 10
-168.6178
 20
85.4837
 30
0.0
 10
-169.6841
 20
87.8794
 30
0.0
 10
-171.4542
 20
90.4772
 30
0.0
 10
-171.4542
 20
90.4772
 30
0.0
 10
-171.455
 20
89.4893
 30
0.0
 10
-171.7752
 20
88.2436
 30
0.0
 10
-171.3261
 20
87.3378
 30
0.0
 10
-171.3261
 20
87.3378
 30
0.0
 10
-170.8403
 20
85.9535
 30
0.0
 10
-170.9651
 20
84.6876
 30
0.0
 10
-171.8025
 20
83.7919
 30
0.0
 10
-171.8025
 20
83.7919
 30
0.0
 10
-171.8025
 20
83.7919
 30
0.0
 10
-171.9921
 20
84.5473
 30
0.0
 10
-171.9921
 20
84.5473
 30
0.0
 10
-171.9921
 20
84.5473
 30
0.0
 10
-172.2302
 20
85.4961
 30
0.0
 10
-172.547
 20
85.5029
 30
0.0
 10
-173.1566
 20
84.5725
 30
0.0
 10
-173.1566
 20
84.5725
 30
0.0
 10
-173.6166
 20
83.8477
 30
0.0
 10
-174.3796
 20
83.323
 30
0.0
 10
-175.2778
 20
82.724
 30
0.0
 10
-175.2778
 20
82.724
 30
0.0
 10
-171.2558
 20
81.9149
 30
0.0
 10
-170.2519
 20
77.5517
 30
0.0
 10
-172.4237
 20
75.2363
 30
0.0
 10
-172.4237
 20
75.2363
 30
0.0
 10
-173.8696
 20
73.5763
 30
0.0
 10
-177.3519
 20
74.0681
 30
0.0
 10
-178.0867
 20
75.7
 30
0.0
 10
-178.0867
 20
75.7
 30
0.0
 10
-178.3663
 20
76.4283
 30
0.0
 10
-178.7638
 20
75.8625
 30
0.0
 10
-178.7638
 20
74.7361
 30
0.0
 10
-178.7638
 20
74.7361
 30
0.0
 10
-178.7023
 20
70.1275
 30
0.0
 10
-173.3406
 20
67.3798
 30
0.0
 10
-170.789
 20
70.2632
 30
0.0
  0
SPLINE
  5
5D
330
1F
100
AcDbEntity
  8
layer 1
 62
     7
100
AcDbSpline
210
0.0
220
0.0
230
1.0
 70
    11
 71
     3
 72
    20
 73
    16
 74
     0
 42
0.0000000001
 43
0.0000000001
 12
1.0
 22
0.0
 32
0.0
 13
1.0
 23
0.0
 33
0.0
 40
0.0
 40
0.0
 40
0.0
 40
0.0
 40
0.2
 40
0.2
 40
0.2
 40
0.2
 40
0.4
 40
0.4
 40
0.4
 40
0.4
 40
0.6
 40
0.6
 40
0.6
 40
0.6
 40
1.0
 40
1.0
 40
1.0
 40
1.0
 10
-153.671
 20
71.9361
 30
0.0
 10
-154.3119
 20
73.1336
 30
0.0
 10
-154.131
 20
75.9398
 30
0.0
 10
-153.0662
 20
76.6734
 30
0.0
 10
-153.0662
 20
76.6734
 30
0.0
 10
-155.8525
 20
76.6909
 30
0.0
 10
-156.2069
 20
76.8914
 30
0.0
 10
-157.3354
 20
77.7262
 30
0.0
 10
-157.3354
 20
77.7262
 30
0.0
 10
-156.8391
 20
76.0804
 30
0.0
 10
-156.605
 20
73.9849
 30
0.0
 10
-156.9147
 20
71.9532
 30
0.0
 10
-156.9147
 20
71.9532
 30
0.0
 10
-156.1534
 20
72.7988
 30
0.0
 10
-154.5465
 20
72.3382
 30
0.0
 10
-153.671
 20
71.9361
 30
0.0
  0
SPLINE
  5
5E
330
1F
100
AcDbEntity
  8
layer 1
 62
     7
100
AcDbSpline
210
0.0
220
0.0
230
1.0
 70
    11
 71
     3
 72
    24
 73
    20
 74
     0
 42
0.0000000001
 43
0.0000000001
 12
1.0
 22
0.0
 32
0.0
 13
1.0
 23
0.0
 33
0.0
 40
0.0
 40
0.0
 40
0.0
 40
0.0
 40
0.1666666666666667
 40
0.1666666666666667
 40
0.1666666666666667
 40
0.1666666666666667
 40
0.3333333333333333
 40
0.3333333333333333
 40
0.3333333333333333
 40
0.3333333333333333
 40
0.5
 40
0.5
 40
0.5
 40
0.5
 40
0.6666666666666666
 40
0.6666666666666666
 40
0.6666666666666666
 40
0.6666666666666666
 40
1.0
 40
1.0
 40
1.0
 40
1.0
 10
-144.5843
 20
72.6602
 30
0.0
 10
-144.6146
 20
75.8002
 30
0.0
 10
-143.9491
 20
78.0567
 30
0.0
 10
-142.2899
 20
80.5504
 30
0.0
 10
-142.2899
 20
80.5504
 30
0.0
 10
-144.9535
 20
78.5825
 30
0.0
 10
-147.4449
 20
77.5339
 30
0.0
 10
-150.436
 20
76.6724
 30
0.0
 10
-150.436
 20
76.6724
 30
0.0
 10
-149.2395
 20
75.7079
 30
0.0
 10
-148.9794
 20
73.8027
 30
0.0
 10
-149.4291
 20
72.1674
 30
0.0
 10
-149.4291
 20
72.1674
 30
0.0
 10
-148.2658
 20
73.1371
 30
0.0
 10
-145.6013
 20
73.8066
 30
0.0
 10
-144.5843
 20
72.66
 30
0.0
 10
-144.5843
 20
72.66
 30
0.0
 10
-144.5843
 20
72.66
 30
0.0
 10
-144.5843
 20
72.6602
 30
0.0
 10
-144.5843
 20
72.6602
 30
0.0
  0
SPLINE
  5
5F
330
1F
100
AcDbEntity
  8
layer 1
 62
     7
100
AcDbSpline
210
0.0
220
0.0
230
1.0
 70
    11
 71
     3
 72
    32
 73
    28
 74
     0
 42
0.0000000001
 43
0.0000000001
 12
1.0
 22
0.0
 32
0.0
 13
1.0
 23
0.0
 33
0.0
 40
0.0
 40
0.0
 40
0.0
 40
0.0
 40
0.125
 40
0.125
 40
0.125
 40
0.125
 40
0.25
 40
0.25
 40
0.25
 40
0.25
 40
0.375
 40
0.375
 40
0.375
 40
0.375
 40
0.5
 40
0.5
 40
0.5
 40
0.5
 40
0.625
 40
0.625
 40
0.625
 40
0.625
 40
0.75
 40
0.75
 40
0.75
 40
0.75
 40
1.0
 40
1.0
 40
1.0
 40
1.0
 10
-136.3397
 20
76.0508
 30
0.0
 10
-136.3397
 20
76.8423
 30
0.0
 10
-135.965
 20
77.9157
 30
0.0
 10
-135.0448
 20
78.145
 30
0.0
 10
-135.0448
 20
78.145
 30
0.0
 10
-133.8871
 20
78.4334
 30
0.0
 10
-132.7897
 20
77.6205
 30
0.0
 10
-132.1583
 20
76.5293
 30
0.0
 10
-132.1583
 20
76.5293
 30
0.0
 10
-130.5281
 20
76.8744
 30
0.0
 10
-129.4574
 20
76.5919
 30
0.0
 10
-127.4231
 20
75.5795
 30
0.0
 10
-127.4231
 20
75.5795
 30
0.0
 10
-129.643
 20
77.9487
 30
0.0
 10
-129.1372
 20
80.9131
 30
0.0
 10
-127.683
 20
82.4894
 30
0.0
 10
-127.683
 20
82.4894
 30
0.0
 10
-128.7313
 20
83.999
 30
0.0
 10
-127.7617
 20
85.9448
 30
0.0
 10
-127.0166
 20
86.6582
 30
0.0
 10
-127.0166
 20
86.6582
 30
0.0
 10
-132.4012
 20
84.1321
 30
0.0
 10
-138.7181
 20
79.021
 30
0.0
 10
-141.1603
 20
72.6875
 30
0.0
 10
-141.1603
 20
72.6875
 30
0.0
 10
-139.6121
 20
75.1027
 30
0.0
 10
-137.855
 20
75.6325
 30
0.0
 10
-136.3397
 20
76.0508
 30
0.0
  0
SPLINE
  5
60
330
1F
100
AcDbEntity
  8
layer 1
 62
     7
100
AcDbSpline
210
0.0
220
0.0
230
1.0
 70
    11
 71
     3
 72
    64
 73
    60
 74
     0
 42
0.0000000001
 43
0.0000000001
 12
1.0
 22
0.0
 32
0.0
 13
1.0
 23
0.0
 33
0.0
 40
0.0
 40
0.0
 40
0.0
 40
0.0
 40
0.0625
 40
0.0625
 40
0.0625
 40
0.0625
 40
0.125
 40
0.125
 40
0.125
 40
0.125
 40
0.1875
 40
0.1875
 40
0.1875
 40
0.1875
 40
0.25
 40
0.25
 40
0.25
 40
0.25
 40
0.3125
 40
0.3125
 40
0.3125
 40
0.3125
 40
0.375
 40
0.375
 40
0.375
 40
0.375
 40
0.4375
 40
0.4375
 40
0.4375
 40
0.4375
 40
0.5
 40
0.5
 40
0.5
 40
0.5
 40
0.5625
 40
0.5625
 40
0.5625
 40
0.5625
 40
0.625
 40
0.625
 40
0.625
 40
0.625
 40
0.6875
 40
0.6875
 40
0.6875
 40
0.6875
 40
0.75
 40
0.75
 40
0.75
 40
0.75
 40
0.8125
 40
0.8125
 40
0.8125
 40
0.8125
 40
0.875
 40
0.875
 40
0.875
 40
0.875
 40
1.0
 40
1.0
 40
1.0
 40
1.0
 10
-174.0122
 20
92.3785
 30
0.0
 10
-173.4247
 20
89.566
 30
0.0
 10
-173.4868
 20
87.7392
 30
0.0
 10
-174.2139
 20
86.4454
 30
0.0
 10
-174.2139
 20
86.4454
 30
0.0
 10
-174.8934
 20
85.2364
 30
0.0
 10
-175.9019
 20
84.5597
 30
0.0
 10
-176.6158
 20
84.8337
 30
0.0
 10
-176.6158
 20
84.8337
 30
0.0
 10
-177.044
 20
84.998
 30
0.0
 10
-177.0457
 20
85.0549
 30
0.0
 10
-176.6352
 20
85.4655
 30
0.0
 10
-176.6352
 20
85.4655
 30
0.0
 10
-176.0021
 20
86.0986
 30
0.0
 10
-176.0739
 20
86.9434
 30
0.0
 10
-176.7935
 20
87.3285
 30
0.0
 10
-176.7935
 20
87.3285
 30
0.0
 10
-178.2471
 20
88.1065
 30
0.0
 10
-179.6225
 20
86.2409
 30
0.0
 10
-178.8862
 20
84.4898
 30
0.0
 10
-178.8862
 20
84.4898
 30
0.0
 10
-178.6744
 20
83.986
 30
0.0
 10
-178.3022
 20
83.4976
 30
0.0
 10
-178.0591
 20
83.4043
 30
0.0
 10
-178.0591
 20
83.4043
 30
0.0
 10
-177.3813
 20
83.1443
 30
0.0
 10
-177.527
 20
82.8718
 30
0.0
 10
-178.5488
 20
82.4878
 30
0.0
 10
-178.5488
 20
82.4878
 30
0.0
 10
-180.2766
 20
81.8429
 30
0.0
 10
-181.5834
 20
80.9114
 30
0.0
 10
-182.2036
 20
78.9164
 30
0.0
 10
-182.2036
 20
78.9164
 30
0.0
 10
-182.2036
 20
78.9164
 30
0.0
 10
-182.22
 20
100.6088
 30
0.0
 10
-182.22
 20
100.6088
 30
0.0
 10
-182.22
 20
100.6088
 30
0.0
 10
-181.9172
 20
100.0156
 30
0.0
 10
-180.7746
 20
99.0951
 30
0.0
 10
-179.8142
 20
99.0927
 30
0.0
 10
-179.8142
 20
99.0927
 30
0.0
 10
-179.8114
 20
98.8923
 30
0.0
 10
-179.8395
 20
97.6586
 30
0.0
 10
-178.607
 20
97.58
 30
0.0
 10
-178.607
 20
97.58
 30
0.0
 10
-177.8988
 20
97.6404
 30
0.0
 10
-177.5505
 20
98.0946
 30
0.0
 10
-177.4978
 20
98.9957
 30
0.0
 10
-177.4978
 20
98.9957
 30
0.0
 10
-176.5367
 20
99.0794
 30
0.0
 10
-175.4472
 20
99.8433
 30
0.0
 10
-174.8502
 20
100.7364
 30
0.0
 10
-174.8502
 20
100.7364
 30
0.0
 10
-174.7869
 20
97.9257
 30
0.0
 10
-174.5884
 20
95.2392
 30
0.0
 10
-174.0123
 20
92.3784
 30
0.0
 10
-174.0123
 20
92.3784
 30
0.0
 10
-174.0123
 20
92.3784
 30
0.0
 10
-174.0122
 20
92.3785
 30
0.0
 10
-174.0122
 20
92.3785
 30
0.0
  0
SPLINE
  5
61
330
1F
100
AcDbEntity
  8
layer 1
 62
     7
100
AcDbSpline
210
0.0
220
0.0
230
1.0
 70
    11
 71
     3
 72
    32
 73
    28
 74
     0
 42
0.0000000001
 43
0.0000000001
 12
1.0
 22
0.0
 32
0.0
 13
1.0
 23
0.0
 33
0.0
 40
0.0
 40
0.0
 40
0.0
 40
0.0
 40
0.125
 40
0.125
 40
0.125
 40
0.125
 40
0.25
 40
0.25
 40
0.25
 40
0.25
 40
0.375
 40
0.375
 40
0.375
 40
0.375
 40
0.5
 40
0.5
 40
0.5
 40
0.5
 40
0.625
 40
0.625
 40
0.625
 40
0.625
 40
0.75
 40
0.75
 40
0.75
 40
0.75
 40
1.0
 40
1.0
 40
1.0
 40
1.0
 10
-128.0234
 20
91.1518
 30
0.0
 10
-128.4552
 20
93.0327
 30
0.0
 10
-127.876
 20
94.4954
 30
0.0
 10
-126.8165
 20
95.3057
 30
0.0
 10
-126.8165
 20
95.3057
 30
0.0
 10
-128.5383
 20
94.7755
 30
0.0
 10
-129.8396
 20
94.4766
 30
0.0
 10
-131.1146
 20
93.743
 30
0.0
 10
-131.1146
 20
93.743
 30
0.0
 10
-130.7719
 20
95.6591
 30
0.0
 10
-130.3283
 20
97.5437
 30
0.0
 10
-130.32
 20
99.6483
 30
0.0
 10
-130.32
 20
99.6483
 30
0.0
 10
-131.3572
 20
98.8262
 30
0.0
 10
-132.7724
 20
98.8179
 30
0.0
 10
-133.6758
 20
99.1893
 30
0.0
 10
-133.6758
 20
99.1893
 30
0.0
 10
-134.156
 20
93.8197
 30
0.0
 10
-136.0981
 20
90.4654
 30
0.0
 10
-137.7729
 20
86.0019
 30
0.0
 10
-137.7729
 20
86.0019
 30
0.0
 10
-133.6665
 20
89.0892
 30
0.0
 10
-130.4228
 20
90.675
 30
0.0
 10
-128.0234
 20
91.1517
 30
0.0
 10
-128.0234
 20
91.1517
 30
0.0
 10
-128.0234
 20
91.1517
 30
0.0
 10
-128.0234
 20
91.1518
 30
0.0
 10
-128.0234
 20
91.1518
 30
0.0
  0
SPLINE
  5
62
330
1F
100
AcDbEntity
  8
layer 1
 62
     7
100
AcDbSpline
210
0.0
220
0.0
230
1.0
 70
    11
 71
     3
 72
    40
 73
    36
 74
     0
 42
0.0000000001
 43
0.0000000001
 12
1.0
 22
0.0
 32
0.0
 13
1.0
 23
0.0
 33
0.0
 40
0.0
 40
0.0
 40
0.0
 40
0.0
 40
0.1
 40
0.1
 40
0.1
 40
0.1
 40
0.2
 40
0.2
 40
0.2
 40
0.2
 40
0.3
 40
0.3
 40
0.3
 40
0.3
 40
0.4
 40
0.4
 40
0.4
 40
0.4
 40
0.5
 40
0.5
 40
0.5
 40
0.5
 40
0.6
 40
0.6
 40
0.6
 40
0.6
 40
0.7
 40
0.7
 40
0.7
 40
0.7
 40
0.8
 40
0.8
 40
0.8
 40
0.8
 40
1.0
 40
1.0
 40
1.0
 40
1.0
 10
-141.2127
 20
88.4098
 30
0.0
 10
-140.3913
 20
89.0158
 30
0.0
 10
-139.2061
 20
90.6604
 30
0.0
 10
-139.2061
 20
91.1945
 30
0.0
 10
-139.2061
 20
91.1945
 30
0.0
 10
-139.2061
 20
91.4721
 30
0.0
 10
-139.4301
 20
91.4866
 30
0.0
 10
-140.1766
 20
91.2574
 30
0.0
 10
-140.1766
 20
91.2574
 30
0.0
 10
-141.5623
 20
90.9637
 30
0.0
 10
-143.3604
 20
91.363
 30
0.0
 10
-144.0759
 20
92.8864
 30
0.0
 10
-144.0759
 20
92.8864
 30
0.0
 10
-146.9772
 20
94.5703
 30
0.0
 10
-147.4311
 20
97.0641
 30
0.0
 10
-146.9457
 20
99.8432
 30
0.0
 10
-146.9457
 20
99.8432
 30
0.0
 10
-148.3256
 20
99.347
 30
0.0
 10
-150.3025
 20
99.5454
 30
0.0
 10
-151.7653
 20
100.4395
 30
0.0
 10
-151.7653
 20
100.4395
 30
0.0
 10
-152.0963
 20
99.7908
 30
0.0
 10
-152.3171
 20
99.425
 30
0.0
 10
-152.7364
 20
98.6743
 30
0.0
 10
-152.7364
 20
98.6743
 30
0.0
 10
-149.414
 20
98.1357
 30
0.0
 10
-150.3275
 20
94.0626
 30
0.0
 10
-153.549
 20
95.3408
 30
0.0
 10
-153.549
 20
95.3408
 30
0.0
 10
-153.3406
 20
88.3296
 30
0.0
 10
-145.0603
 20
85.9853
 30
0.0
 10
-141.2127
 20
88.4096
 30
0.0
 10
-141.2127
 20
88.4096
 30
0.0
 10
-141.2127
 20
88.4096
 30
0.0
 10
-141.2127
 20
88.4098
 30
0.0
 10
-141.2127
 20
88.4098
 30
0.0
  0
SPLINE
  5
63
330
1F
100
AcDbEntity
  8
layer 1
 62
     7
100
AcDbSpline
210
0.0
220
0.0
230
1.0
 70
    11
 71
     3
 72
    28
 73
    24
 74
     0
 42
0.0000000001
 43
0.0000000001
 12
1.0
 22
0.0
 32
0.0
 13
1.0
 23
0.0
 33
0.0
 40
0.0
 40
0.0
 40
0.0
 40
0.0
 40
0.1428571428571428
 40
0.1428571428571428
 40
0.1428571428571428
 40
0.1428571428571428
 40
0.2857142857142857
 40
0.2857142857142857
 40
0.2857142857142857
 40
0.2857142857142857
 40
0.4285714285714285
 40
0.4285714285714285
 40
0.4285714285714285
 40
0.4285714285714285
 40
0.5714285714285714
 40
0.5714285714285714
 40
0.5714285714285714
 40
0.5714285714285714
 40
0.7142857142857143
 40
0.7142857142857143
 40
0.7142857142857143
 40
0.7142857142857143
 40
1.0
 40
1.0
 40
1.0
 40
1.0
 10
-163.4439
 20
93.6155
 30
0.0
 10
-164.8161
 20
93.5237
 30
0.0
 10
-165.7409
 20
94.8234
 30
0.0
 10
-164.8387
 20
95.6408
 30
0.0
 10
-164.8387
 20
95.6408
 30
0.0
 10
-164.4398
 20
95.9719
 30
0.0
 10
-164.506
 20
96.0778
 30
0.0
 10
-165.3978
 20
96.5354
 30
0.0
 10
-165.3978
 20
96.5354
 30
0.0
 10
-173.6673
 20
102.3223
 30
0.0
 10
-170.3104
 20
112.7084
 30
0.0
 10
-165.7356
 20
119.2706
 30
0.0
 10
-165.7356
 20
119.2706
 30
0.0
 10
-170.8449
 20
115.2974
 30
0.0
 10
-172.9535
 20
108.9835
 30
0.0
 10
-173.0308
 20
104.1589
 30
0.0
 10
-173.0308
 20
104.1589
 30
0.0
 10
-173.0308
 20
98.8737
 30
0.0
 10
-172.163
 20
96.0738
 30
0.0
 10
-169.6003
 20
93.9623
 30
0.0
 10
-169.6003
 20
93.9623
 30
0.0
 10
-167.7025
 20
92.5421
 30
0.0
 10
-165.8237
 20
92.2243
 30
0.0
 10
-163.4439
 20
93.6155
 30
0.0
  0
SPLINE
  5
64
330
1F
100
AcDbEntity
  8
layer 1
 62
     7
100
AcDbSpline
210
0.0
220
0.0
230
1.0
 70
    11
 71
     3
 72
    20
 73
    16
 74
     0
 42
0.0000000001
 43
0.0000000001
 12
1.0
 22
0.0
 32
0.0
 13
1.0
 23
0.0
 33
0.0
 40
0.0
 40
0.0
 40
0.0
 40
0.0
 40
0.2
 40
0.2
 40
0.2
 40
0.2
 40
0.4
 40
0.4
 40
0.4
 40
0.4
 40
0.6
 40
0.6
 40
0.6
 40
0.6
 40
1.0
 40
1.0
 40
1.0
 40
1.0
 10
-138.2554
 20
98.392
 30
0.0
 10
-138.2812
 20
100.624
 30
0.0
 10
-138.452
 20
103.2387
 30
0.0
 10
-139.0557
 20
106.2281
 30
0.0
 10
-139.0557
 20
106.2281
 30
0.0
 10
-141.4023
 20
104.2121
 30
0.0
 10
-142.946
 20
99.1759
 30
0.0
 10
-141.8449
 20
96.0394
 30
0.0
 10
-141.8449
 20
96.0394
 30
0.0
 10
-139.8789
 20
96.6153
 30
0.0
 10
-139.1343
 20
97.1632
 30
0.0
 10
-138.2554
 20
98.3921
 30
0.0
 10
-138.2554
 20
98.3921
 30
0.0
 10
-138.2554
 20
98.3921
 30
0.0
 10
-138.2554
 20
98.392
 30
0.0
 10
-138.2554
 20
98.392
 30
0.0
  0
SPLINE
  5
65
330
1F
100
AcDbEntity
  8
layer 1
 62
     7
100
AcDbSpline
210
0.0
220
0.0
230
1.0
 70
    11
 71
     3
 72
    28
 73
    24
 74
     0
 42
0.0000000001
 43
0.0000000001
 12
1.0
 22
0.0
 32
0.0
 13
1.0
 23
0.0
 33
0.0
 40
0.0
 40
0.0
 40
0.0
 40
0.0
 40
0.1428571428571428
 40
0.1428571428571428
 40
0.1428571428571428
 40
0.1428571428571428
 40
0.2857142857142857
 40
0.2857142857142857
 40
0.2857142857142857
 40
0.2857142857142857
 40
0.4285714285714285
 40
0.4285714285714285
 40
0.4285714285714285
 40
0.4285714285714285
 40
0.5714285714285714
 40
0.5714285714285714
 40
0.5714285714285714
 40
0.5714285714285714
 40
0.7142857142857143
 40
0.7142857142857143
 40
0.7142857142857143
 40
0.7142857142857143
 40
1.0
 40
1.0
 40
1.0
 40
1.0
 10
-128.8359
 20
96.7636
 30
0.0
 10
-128.4759
 20
100.1964
 30
0.0
 10
-128.5466
 20
104.0238
 30
0.0
 10
-129.7285
 20
106.9187
 30
0.0
 10
-129.7285
 20
106.9187
 30
0.0
 10
-128.4739
 20
107.75
 30
0.0
 10
-127.0391
 20
108.3089
 30
0.0
 10
-125.5447
 20
108.3464
 30
0.0
 10
-125.5447
 20
108.3464
 30
0.0
 10
-124.0502
 20
108.3089
 30
0.0
 10
-122.6155
 20
107.75
 30
0.0
 10
-121.3608
 20
106.9187
 30
0.0
 10
-121.3608
 20
106.9187
 30
0.0
 10
-122.5428
 20
104.0238
 30
0.0
 10
-122.6134
 20
100.1964
 30
0.0
 10
-122.2534
 20
96.7636
 30
0.0
 10
-122.2534
 20
96.7636
 30
0.0
 10
-123.4666
 20
97.2849
 30
0.0
 10
-124.5018
 20
97.5843
 30
0.0
 10
-125.5447
 20
97.5573
 30
0.0
 10
-125.5447
 20
97.5573
 30
0.0
 10
-126.5875
 20
97.5842
 30
0.0
 10
-127.6226
 20
97.2849
 30
0.0
 10
-128.8359
 20
96.7636
 30
0.0
  0
SPLINE
  5
66
330
1F
100
AcDbEntity
  8
layer 1
 62
     7
100
AcDbSpline
210
0.0
220
0.0
230
1.0
 70
    11
 71
     3
 72
    40
 73
    36
 74
     0
 42
0.0000000001
 43
0.0000000001
 12
1.0
 22
0.0
 32
0.0
 13
1.0
 23
0.0
 33
0.0
 40
0.0
 40
0.0
 40
0.0
 40
0.0
 40
0.1
 40
0.1
 40
0.1
 40
0.1
 40
0.2
 40
0.2
 40
0.2
 40
0.2
 40
0.3
 40
0.3
 40
0.3
 40
0.3
 40
0.4
 40
0.4
 40
0.4
 40
0.4
 40
0.5
 40
0.5
 40
0.5
 40
0.5
 40
0.6
 40
0.6
 40
0.6
 40
0.6
 40
0.7
 40
0.7
 40
0.7
 40
0.7
 40
0.8
 40
0.8
 40
0.8
 40
0.8
 40
1.0
 40
1.0
 40
1.0
 40
1.0
 10
-156.2145
 20
104.646
 30
0.0
 10
-158.5974
 20
103.8752
 30
0.0
 10
-161.0503
 20
104.4858
 30
0.0
 10
-161.6956
 20
106.8515
 30
0.0
 10
-161.6956
 20
106.8515
 30
0.0
 10
-162.252
 20
109.1455
 30
0.0
 10
-160.5969
 20
111.4773
 30
0.0
 10
-158.1526
 20
111.5863
 30
0.0
 10
-158.1526
 20
111.5863
 30
0.0
 10
-159.0508
 20
112.3423
 30
0.0
 10
-159.7011
 20
113.372
 30
0.0
 10
-159.6023
 20
114.3922
 30
0.0
 10
-159.6023
 20
114.3922
 30
0.0
 10
-160.1842
 20
114.3198
 30
0.0
 10
-160.8527
 20
114.639
 30
0.0
 10
-161.0484
 20
115.4719
 30
0.0
 10
-161.0484
 20
115.4719
 30
0.0
 10
-160.9844
 20
116.6191
 30
0.0
 10
-160.3648
 20
116.9518
 30
0.0
 10
-159.6905
 20
116.9612
 30
0.0
 10
-159.6905
 20
116.9612
 30
0.0
 10
-159.374
 20
117.7891
 30
0.0
 10
-158.6155
 20
118.7675
 30
0.0
 10
-157.3967
 20
119.5324
 30
0.0
 10
-157.3967
 20
119.5324
 30
0.0
 10
-161.3706
 20
118.2313
 30
0.0
 10
-164.0682
 20
115.36
 30
0.0
 10
-165.6534
 20
111.1252
 30
0.0
 10
-165.6534
 20
111.1252
 30
0.0
 10
-167.0934
 20
106.9752
 30
0.0
 10
-166.4125
 20
101.6565
 30
0.0
 10
-162.5283
 20
100.4798
 30
0.0
 10
-162.5283
 20
100.4798
 30
0.0
 10
-157.0023
 20
99.313
 30
0.0
 10
-154.5272
 20
105.1893
 30
0.0
 10
-156.2145
 20
104.646
 30
0.0
  0
SPLINE
  5
67
330
1F
100
AcDbEntity
  8
layer 1
 62
     7
100
AcDbSpline
210
0.0
220
0.0
230
1.0
 70
    11
 71
     3
 72
    32
 73
    28
 74
     0
 42
0.0000000001
 43
0.0000000001
 12
1.0
 22
0.0
 32
0.0
 13
1.0
 23
0.0
 33
0.0
 40
0.0
 40
0.0
 40
0.0
 40
0.0
 40
0.125
 40
0.125
 40
0.125
 40
0.125
 40
0.25
 40
0.25
 40
0.25
 40
0.25
 40
0.375
 40
0.375
 40
0.375
 40
0.375
 40
0.5
 40
0.5
 40
0.5
 40
0.5
 40
0.625
 40
0.625
 40
0.625
 40
0.625
 40
0.75
 40
0.75
 40
0.75
 40
0.75
 40
1.0
 40
1.0
 40
1.0
 40
1.0
 10
-144.5099
 20
106.5565
 30
0.0
 10
-143.4771
 20
108.3293
 30
0.0
 10
-142.266
 20
109.9549
 30
0.0
 10
-140.9709
 20
111.5354
 30
0.0
 10
-140.9709
 20
111.5354
 30
0.0
 10
-141.452
 20
112.8695
 30
0.0
 10
-143.0276
 20
114.516
 30
0.0
 10
-144.3369
 20
115.5078
 30
0.0
 10
-144.3369
 20
115.5078
 30
0.0
 10
-146.8216
 20
112.2304
 30
0.0
 10
-148.1274
 20
109.8462
 30
0.0
 10
-148.4196
 20
106.2279
 30
0.0
 10
-148.4196
 20
106.2279
 30
0.0
 10
-149.4869
 20
106.5738
 30
0.0
 10
-150.466
 20
106.9198
 30
0.0
 10
-151.6216
 20
106.6043
 30
0.0
 10
-151.6216
 20
106.6043
 30
0.0
 10
-151.2392
 20
105.3872
 30
0.0
 10
-151.3568
 20
104.2319
 30
0.0
 10
-151.3498
 20
102.7792
 30
0.0
 10
-151.3498
 20
102.7792
 30
0.0
 10
-147.1387
 20
101.8109
 30
0.0
 10
-146.2891
 20
103.6287
 30
0.0
 10
-144.5098
 20
106.5566
 30
0.0
 10
-144.5098
 20
106.5566
 30
0.0
 10
-144.5098
 20
106.5566
 30
0.0
 10
-144.5099
 20
106.5565
 30
0.0
 10
-144.5099
 20
106.5565
 30
0.0
  0
SPLINE
  5
68
330
1F
100
AcDbEntity
  8
layer 1
 62
     7
100
AcDbSpline
210
0.0
220
0.0
230
1.0
 70
    11
 71
     3
 72
    32
 73
    28
 74
     0
 42
0.0000000001
 43
0.0000000001
 12
1.0
 22
0.0
 32
0.0
 13
1.0
 23
0.0
 33
0.0
 40
0.0
 40
0.0
 40
0.0
 40
0.0
 40
0.125
 40
0.125
 40
0.125
 40
0.125
 40
0.25
 40
0.25
 40
0.25
 40
0.25
 40
0.375
 40
0.375
 40
0.375
 40
0.375
 40
0.5
 40
0.5
 40
0.5
 40
0.5
 40
0.625
 40
0.625
 40
0.625
 40
0.625
 40
0.75
 40
0.75
 40
0.75
 40
0.75
 40
1.0
 40
1.0
 40
1.0
 40
1.0
 10
-130.7385
 20
103.7564
 30
0.0
 10
-131.2722
 20
105.5042
 30
0.0
 10
-131.1234
 20
106.0059
 30
0.0
 10
-131.8557
 20
108.5848
 30
0.0
 10
-131.8557
 20
108.5848
 30
0.0
 10
-130.5367
 20
109.7796
 30
0.0
 10
-128.7615
 20
110.4918
 30
0.0
 10
-127.1668
 20
110.8686
 30
0.0
 10
-127.1668
 20
110.8686
 30
0.0
 10
-128.2738
 20
111.6952
 30
0.0
 10
-128.5887
 20
112.4865
 30
0.0
 10
-128.7177
 20
114.2542
 30
0.0
 10
-128.7177
 20
114.2542
 30
0.0
 10
-131.0905
 20
113.3398
 30
0.0
 10
-133.562
 20
111.686
 30
0.0
 10
-135.6309
 20
110.2409
 30
0.0
 10
-135.6309
 20
110.2409
 30
0.0
 10
-134.8511
 20
108.1983
 30
0.0
 10
-134.266
 20
105.41
 30
0.0
 10
-134.0383
 20
103.2371
 30
0.0
 10
-134.0383
 20
103.2371
 30
0.0
 10
-132.9783
 20
104.4991
 30
0.0
 10
-131.8759
 20
104.6897
 30
0.0
 10
-130.7385
 20
103.7563
 30
0.0
 10
-130.7385
 20
103.7563
 30
0.0
 10
-130.7385
 20
103.7563
 30
0.0
 10
-130.7385
 20
103.7564
 30
0.0
 10
-130.7385
 20
103.7564
 30
0.0
  0
SPLINE
  5
69
330
1F
100
AcDbEntity
  8
layer 1
 62
     7
100
AcDbSpline
210
0.0
220
0.0
230
1.0
 70
    11
 71
     3
 72
    60
 73
    56
 74
     0
 42
0.0000000001
 43
0.0000000001
 12
1.0
 22
0.0
 32
0.0
 13
1.0
 23
0.0
 33
0.0
 40
0.0
 40
0.0
 40
0.0
 40
0.0
 40
0.0666666666666667
 40
0.0666666666666667
 40
0.0666666666666667
 40
0.0666666666666667
 40
0.1333333333333333
 40
0.1333333333333333
 40
0.1333333333333333
 40
0.1333333333333333
 40
0.2
 40
0.2
 40
0.2
 40
0.2
 40
0.2666666666666667
 40
0.2666666666666667
 40
0.2666666666666667
 40
0.2666666666666667
 40
0.3333333333333333
 40
0.3333333333333333
 40
0.3333333333333333
 40
0.3333333333333333
 40
0.4
 40
0.4
 40
0.4
 40
0.4
 40
0.4666666666666667
 40
0.4666666666666667
 40
0.4666666666666667
 40
0.4666666666666667
 40
0.5333333333333333
 40
0.5333333333333333
 40
0.5333333333333333
 40
0.5333333333333333
 40
0.6
 40
0.6
 40
0.6
 40
0.6
 40
0.6666666666666666
 40
0.6666666666666666
 40
0.6666666666666666
 40
0.6666666666666666
 40
0.7333333333333333
 40
0.7333333333333333
 40
0.7333333333333333
 40
0.7333333333333333
 40
0.8
 40
0.8
 40
0.8
 40
0.8
 40
0.8666666666666667
 40
0.8666666666666667
 40
0.8666666666666667
 40
0.8666666666666667
 40
1.0
 40
1.0
 40
1.0
 40
1.0
 10
-179.7813
 20
106.4184
 30
0.0
 10
-179.7785
 20
106.6188
 30
0.0
 10
-179.8065
 20
107.8524
 30
0.0
 10
-178.5741
 20
107.9311
 30
0.0
 10
-178.5741
 20
107.9311
 30
0.0
 10
-177.8658
 20
107.8707
 30
0.0
 10
-177.5175
 20
107.4165
 30
0.0
 10
-177.4649
 20
106.5154
 30
0.0
 10
-177.4649
 20
106.5154
 30
0.0
 10
-176.7688
 20
106.4582
 30
0.0
 10
-175.8647
 20
105.9858
 30
0.0
 10
-175.2708
 20
105.2022
 30
0.0
 10
-175.2708
 20
105.2022
 30
0.0
 10
-174.6535
 20
111.0657
 30
0.0
 10
-173.1957
 20
114.2927
 30
0.0
 10
-170.143
 20
117.9806
 30
0.0
 10
-170.143
 20
117.9806
 30
0.0
 10
-170.143
 20
117.9806
 30
0.0
 10
-171.723
 20
117.9806
 30
0.0
 10
-171.723
 20
117.9806
 30
0.0
 10
-171.723
 20
117.9806
 30
0.0
 10
-173.185
 20
117.9806
 30
0.0
 10
-173.3357
 20
117.9171
 30
0.0
 10
-173.7432
 20
117.1292
 30
0.0
 10
-173.7432
 20
117.1292
 30
0.0
 10
-174.2621
 20
116.1255
 30
0.0
 10
-174.9813
 20
115.6858
 30
0.0
 10
-176.0936
 20
115.6918
 30
0.0
 10
-176.0936
 20
115.6918
 30
0.0
 10
-177.3047
 20
115.6984
 30
0.0
 10
-177.8511
 20
116.1399
 30
0.0
 10
-176.9333
 20
116.3702
 30
0.0
 10
-176.9333
 20
116.3702
 30
0.0
 10
-176.1172
 20
116.7387
 30
0.0
 10
-175.5725
 20
117.3703
 30
0.0
 10
-175.3324
 20
118.0926
 30
0.0
 10
-175.3324
 20
118.0926
 30
0.0
 10
-179.0872
 20
118.2551
 30
0.0
 10
-181.0165
 20
123.6507
 30
0.0
 10
-178.5997
 20
126.5467
 30
0.0
 10
-178.5997
 20
126.5467
 30
0.0
 10
-178.5997
 20
126.5467
 30
0.0
 10
-182.2038
 20
126.5801
 30
0.0
 10
-182.2038
 20
126.5801
 30
0.0
 10
-182.2038
 20
126.5801
 30
0.0
 10
-182.2038
 20
119.3076
 30
0.0
 10
-182.2038
 20
112.0349
 30
0.0
 10
-182.2038
 20
104.7624
 30
0.0
 10
-182.2038
 20
104.7624
 30
0.0
 10
-181.8845
 20
105.4955
 30
0.0
 10
-180.7418
 20
106.416
 30
0.0
 10
-179.7815
 20
106.4184
 30
0.0
 10
-179.7815
 20
106.4184
 30
0.0
 10
-179.7815
 20
106.4184
 30
0.0
 10
-179.7813
 20
106.4184
 30
0.0
 10
-179.7813
 20
106.4184
 30
0.0
  0
SPLINE
  5
6A
330
1F
100
AcDbEntity
  8
layer 1
 62
     7
100
AcDbSpline
210
0.0
220
0.0
230
1.0
 70
    11
 71
     3
 72
    40
 73
    36
 74
     0
 42
0.0000000001
 43
0.0000000001
 12
1.0
 22
0.0
 32
0.0
 13
1.0
 23
0.0
 33
0.0
 40
0.0
 40
0.0
 40
0.0
 40
0.0
 40
0.1
 40
0.1
 40
0.1
 40
0.1
 40
0.2
 40
0.2
 40
0.2
 40
0.2
 40
0.3
 40
0.3
 40
0.3
 40
0.3
 40
0.4
 40
0.4
 40
0.4
 40
0.4
 40
0.5
 40
0.5
 40
0.5
 40
0.5
 40
0.6
 40
0.6
 40
0.6
 40
0.6
 40
0.7
 40
0.7
 40
0.7
 40
0.7
 40
0.8
 40
0.8
 40
0.8
 40
0.8
 40
1.0
 40
1.0
 40
1.0
 40
1.0
 10
-152.1288
 20
108.2353
 30
0.0
 10
-151.3316
 20
108.4083
 30
0.0
 10
-150.6609
 20
108.4532
 30
0.0
 10
-149.6761
 20
108.4874
 30
0.0
 10
-149.6761
 20
108.4874
 30
0.0
 10
-149.4458
 20
112.2092
 30
0.0
 10
-147.1479
 20
114.1742
 30
0.0
 10
-145.799
 20
116.9428
 30
0.0
 10
-145.799
 20
116.9428
 30
0.0
 10
-147.7339
 20
118.3485
 30
0.0
 10
-150.5187
 20
118.9586
 30
0.0
 10
-152.7479
 20
119.6178
 30
0.0
 10
-152.7479
 20
119.6178
 30
0.0
 10
-151.8268
 20
118.8655
 30
0.0
 10
-151.2585
 20
117.4663
 30
0.0
 10
-151.3572
 20
116.4463
 30
0.0
 10
-151.3572
 20
116.4463
 30
0.0
 10
-150.7753
 20
116.5187
 30
0.0
 10
-149.7785
 20
116.0763
 30
0.0
 10
-149.8494
 20
115.2025
 30
0.0
 10
-149.8494
 20
115.2025
 30
0.0
 10
-149.7698
 20
114.1169
 30
0.0
 10
-150.5537
 20
113.8046
 30
0.0
 10
-151.3306
 20
113.7336
 30
0.0
 10
-151.3306
 20
113.7336
 30
0.0
 10
-151.647
 20
112.5569
 30
0.0
 10
-152.7955
 20
111.127
 30
0.0
 10
-154.6908
 20
110.7464
 30
0.0
 10
-154.6908
 20
110.7464
 30
0.0
 10
-153.4468
 20
110.2242
 30
0.0
 10
-152.76
 20
109.4088
 30
0.0
 10
-152.1287
 20
108.2352
 30
0.0
 10
-152.1287
 20
108.2352
 30
0.0
 10
-152.1287
 20
108.2352
 30
0.0
 10
-152.1288
 20
108.2353
 30
0.0
 10
-152.1288
 20
108.2353
 30
0.0
  0
SPLINE
  5
6B
330
1F
100
AcDbEntity
  8
layer 1
 62
     7
100
AcDbSpline
210
0.0
220
0.0
230
1.0
 70
    11
 71
     3
 72
    52
 73
    48
 74
     0
 42
0.0000000001
 43
0.0000000001
 12
1.0
 22
0.0
 32
0.0
 13
1.0
 23
0.0
 33
0.0
 40
0.0
 40
0.0
 40
0.0
 40
0.0
 40
0.0769230769230769
 40
0.0769230769230769
 40
0.0769230769230769
 40
0.0769230769230769
 40
0.1538461538461539
 40
0.1538461538461539
 40
0.1538461538461539
 40
0.1538461538461539
 40
0.2307692307692308
 40
0.2307692307692308
 40
0.2307692307692308
 40
0.2307692307692308
 40
0.3076923076923077
 40
0.3076923076923077
 40
0.3076923076923077
 40
0.3076923076923077
 40
0.3846153846153846
 40
0.3846153846153846
 40
0.3846153846153846
 40
0.3846153846153846
 40
0.4615384615384616
 40
0.4615384615384616
 40
0.4615384615384616
 40
0.4615384615384616
 40
0.5384615384615384
 40
0.5384615384615384
 40
0.5384615384615384
 40
0.5384615384615384
 40
0.6153846153846154
 40
0.6153846153846154
 40
0.6153846153846154
 40
0.6153846153846154
 40
0.6923076923076923
 40
0.6923076923076923
 40
0.6923076923076923
 40
0.6923076923076923
 40
0.7692307692307693
 40
0.7692307692307693
 40
0.7692307692307693
 40
0.7692307692307693
 40
0.8461538461538461
 40
0.8461538461538461
 40
0.8461538461538461
 40
0.8461538461538461
 40
1.0
 40
1.0
 40
1.0
 40
1.0
 10
-137.7369
 20
114.8186
 30
0.0
 10
-138.4416
 20
115.7645
 30
0.0
 10
-139.377
 20
117.0532
 30
0.0
 10
-140.3624
 20
118.0874
 30
0.0
 10
-140.3624
 20
118.0874
 30
0.0
 10
-138.8623
 20
119.2484
 30
0.0
 10
-137.4976
 20
120.2471
 30
0.0
 10
-136.0428
 20
120.8434
 30
0.0
 10
-136.0428
 20
120.8434
 30
0.0
 10
-135.6696
 20
122.958
 30
0.0
 10
-135.0671
 20
124.9486
 30
0.0
 10
-134.1693
 20
126.5468
 30
0.0
 10
-134.1693
 20
126.5468
 30
0.0
 10
-134.1693
 20
126.5468
 30
0.0
 10
-125.5807
 20
126.5468
 30
0.0
 10
-125.5807
 20
126.5468
 30
0.0
 10
-125.5807
 20
126.5468
 30
0.0
 10
-125.5807
 20
126.5468
 30
0.0
 10
-125.5085
 20
126.5468
 30
0.0
 10
-125.5085
 20
126.5468
 30
0.0
 10
-125.5085
 20
126.5468
 30
0.0
 10
-125.5085
 20
126.5468
 30
0.0
 10
-116.9199
 20
126.5468
 30
0.0
 10
-116.9199
 20
126.5468
 30
0.0
 10
-116.9199
 20
126.5468
 30
0.0
 10
-116.0221
 20
124.9486
 30
0.0
 10
-115.4196
 20
122.958
 30
0.0
 10
-115.0464
 20
120.8434
 30
0.0
 10
-115.0464
 20
120.8434
 30
0.0
 10
-113.5916
 20
120.247
 30
0.0
 10
-112.227
 20
119.2483
 30
0.0
 10
-110.7268
 20
118.0874
 30
0.0
 10
-110.7268
 20
118.0874
 30
0.0
 10
-111.7123
 20
117.0532
 30
0.0
 10
-112.6477
 20
115.7645
 30
0.0
 10
-113.3523
 20
114.8186
 30
0.0
 10
-113.3523
 20
114.8186
 30
0.0
 10
-116.6318
 20
117.4742
 30
0.0
 10
-121.1993
 20
120.0041
 30
0.0
 10
-125.6048
 20
120.0793
 30
0.0
 10
-125.6048
 20
120.0793
 30
0.0
 10
-130.0103
 20
120.1545
 30
0.0
 10
-134.4575
 20
117.4742
 30
0.0
 10
-137.7368
 20
114.8186
 30
0.0
 10
-137.7368
 20
114.8186
 30
0.0
 10
-137.7368
 20
114.8186
 30
0.0
 10
-137.7369
 20
114.8186
 30
0.0
 10
-137.7369
 20
114.8186
 30
0.0
  0
SPLINE
  5
6C
330
1F
100
AcDbEntity
  8
layer 1
 62
     7
100
AcDbSpline
210
0.0
220
0.0
230
1.0
 70
    11
 71
     3
 72
    32
 73
    28
 74
     0
 42
0.0000000001
 43
0.0000000001
 12
1.0
 22
0.0
 32
0.0
 13
1.0
 23
0.0
 33
0.0
 40
0.0
 40
0.0
 40
0.0
 40
0.0
 40
0.125
 40
0.125
 40
0.125
 40
0.125
 40
0.25
 40
0.25
 40
0.25
 40
0.25
 40
0.375
 40
0.375
 40
0.375
 40
0.375
 40
0.5
 40
0.5
 40
0.5
 40
0.5
 40
0.625
 40
0.625
 40
0.625
 40
0.625
 40
0.75
 40
0.75
 40
0.75
 40
0.75
 40
1.0
 40
1.0
 40
1.0
 40
1.0
 10
-137.7729
 20
122.4965
 30
0.0
 10
-137.5102
 20
123.8521
 30
0.0
 10
-137.2827
 20
125.1411
 30
0.0
 10
-136.6491
 20
126.5469
 30
0.0
 10
-136.6491
 20
126.5469
 30
0.0
 10
-136.6491
 20
126.5469
 30
0.0
 10
-152.9293
 20
126.5803
 30
0.0
 10
-152.9293
 20
126.5803
 30
0.0
 10
-152.9293
 20
126.5803
 30
0.0
 10
-152.9293
 20
126.5803
 30
0.0
 10
-152.7597
 20
125.5054
 30
0.0
 10
-152.7597
 20
125.5054
 30
0.0
 10
-152.7597
 20
125.5054
 30
0.0
 10
-152.5729
 20
124.3216
 30
0.0
 10
-152.2778
 20
124.0115
 30
0.0
 10
-151.3321
 20
124.0049
 30
0.0
 10
-151.3321
 20
124.0049
 30
0.0
 10
-147.8538
 20
123.481
 30
0.0
 10
-145.2677
 20
121.4232
 30
0.0
 10
-142.3281
 20
119.9883
 30
0.0
 10
-142.3281
 20
119.9883
 30
0.0
 10
-140.4163
 20
121.2437
 30
0.0
 10
-139.2002
 20
122.0683
 30
0.0
 10
-137.773
 20
122.4967
 30
0.0
 10
-137.773
 20
122.4967
 30
0.0
 10
-137.773
 20
122.4967
 30
0.0
 10
-137.7729
 20
122.4965
 30
0.0
 10
-137.7729
 20
122.4965
 30
0.0
  0
SPLINE
  5
6D
330
1F
100
AcDbEntity
  8
layer 1
 62
     7
100
AcDbSpline
210
0.0
220
0.0
230
1.0
 70
    11
 71
     3
 72
    36
 73
    32
 74
     0
 42
0.0000000001
 43
0.0000000001
 12
1.0
 22
0.0
 32
0.0
 13
1.0
 23
0.0
 33
0.0
 40
0.0
 40
0.0
 40
0.0
 40
0.0
 40
0.1111111111111111
 40
0.1111111111111111
 40
0.1111111111111111
 40
0.1111111111111111
 40
0.2222222222222222
 40
0.2222222222222222
 40
0.2222222222222222
 40
0.2222222222222222
 40
0.3333333333333333
 40
0.3333333333333333
 40
0.3333333333333333
 40
0.3333333333333333
 40
0.4444444444444444
 40
0.4444444444444444
 40
0.4444444444444444
 40
0.4444444444444444
 40
0.5555555555555556
 40
0.5555555555555556
 40
0.5555555555555556
 40
0.5555555555555556
 40
0.6666666666666666
 40
0.6666666666666666
 40
0.6666666666666666
 40
0.6666666666666666
 40
0.7777777777777778
 40
0.7777777777777778
 40
0.7777777777777778
 40
0.7777777777777778
 40
1.0
 40
1.0
 40
1.0
 40
1.0
 10
-168.3213
 20
121.4281
 30
0.0
 10
-166.7264
 20
122.273
 30
0.0
 10
-165.5873
 20
122.6547
 30
0.0
 10
-164.0689
 20
122.8528
 30
0.0
 10
-164.0689
 20
122.8528
 30
0.0
 10
-162.9281
 20
123.0015
 30
0.0
 10
-161.5971
 20
123.241
 30
0.0
 10
-161.1108
 20
123.3848
 30
0.0
 10
-161.1108
 20
123.3848
 30
0.0
 10
-159.631
 20
123.7428
 30
0.0
 10
-158.3508
 20
123.8641
 30
0.0
 10
-156.8351
 20
124.0401
 30
0.0
 10
-156.8351
 20
124.0401
 30
0.0
 10
-156.8351
 20
124.8867
 30
0.0
 10
-156.8351
 20
125.7335
 30
0.0
 10
-156.8351
 20
126.5802
 30
0.0
 10
-156.8351
 20
126.5802
 30
0.0
 10
-163.277
 20
126.5802
 30
0.0
 10
-169.719
 20
126.5802
 30
0.0
 10
-176.1609
 20
126.5802
 30
0.0
 10
-176.1609
 20
126.5802
 30
0.0
 10
-176.1609
 20
126.5802
 30
0.0
 10
-176.4863
 20
125.494
 30
0.0
 10
-176.4863
 20
125.494
 30
0.0
 10
-176.4863
 20
125.494
 30
0.0
 10
-177.1182
 20
123.3852
 30
0.0
 10
-175.804
 20
120.9794
 30
0.0
 10
-173.7474
 20
120.4797
 30
0.0
 10
-173.7474
 20
120.4797
 30
0.0
 10
-171.9159
 20
120.0347
 30
0.0
 10
-170.4761
 20
120.2864
 30
0.0
 10
-168.3213
 20
121.4281
 30
0.0
  0
SPLINE
  5
6E
330
1F
100
AcDbEntity
  8
layer 1
 62
     7
100
AcDbSpline
210
0.0
220
0.0
230
1.0
 70
    11
 71
     3
 72
    20
 73
    16
 74
     0
 42
0.0000000001
 43
0.0000000001
 12
1.0
 22
0.0
 32
0.0
 13
1.0
 23
0.0
 33
0.0
 40
0.0
 40
0.0
 40
0.0
 40
0.0
 40
0.2
 40
0.2
 40
0.2
 40
0.2
 40
0.4
 40
0.4
 40
0.4
 40
0.4
 40
0.6
 40
0.6
 40
0.6
 40
0.6
 40
1.0
 40
1.0
 40
1.0
 40
1.0
 10
-152.6886
 20
115.3387
 30
0.0
 10
-152.6886
 20
113.8447
 30
0.0
 10
-153.8997
 20
112.6336
 30
0.0
 10
-155.3937
 20
112.6336
 30
0.0
 10
-155.3937
 20
112.6336
 30
0.0
 10
-156.8878
 20
112.6336
 30
0.0
 10
-158.0989
 20
113.8447
 30
0.0
 10
-158.0989
 20
115.3387
 30
0.0
 10
-158.0989
 20
115.3387
 30
0.0
 10
-158.0989
 20
116.8328
 30
0.0
 10
-156.8878
 20
118.0439
 30
0.0
 10
-155.3937
 20
118.0439
 30
0.0
 10
-155.3937
 20
118.0439
 30
0.0
 10
-153.8997
 20
118.0439
 30
0.0
 10
-152.6886
 20
116.8328
 30
0.0
 10
-152.6886
 20
115.3387
 30
0.0
  0
SPLINE
  5
6F
330
1F
100
AcDbEntity
  8
layer 1
 62
     7
100
AcDbSpline
210
0.0
220
0.0
230
1.0
 70
    11
 71
     3
 72
    20
 73
    16
 74
     0
 42
0.0000000001
 43
0.0000000001
 12
1.0
 22
0.0
 32
0.0
 13
1.0
 23
0.0
 33
0.0
 40
0.0
 40
0.0
 40
0.0
 40
0.0
 40
0.2
 40
0.2
 40
0.2
 40
0.2
 40
0.4
 40
0.4
 40
0.4
 40
0.4
 40
0.6
 40
0.6
 40
0.6
 40
0.6
 40
1.0
 40
1.0
 40
1.0
 40
1.0
 10
-101.0992
 20
69.327
 30
0.0
 10
-101.0992
 20
68.5294
 30
0.0
 10
-100.4526
 20
67.8827
 30
0.0
 10
-99.6549
 20
67.8827
 30
0.0
 10
-99.6549
 20
67.8827
 30
0.0
 10
-98.8573
 20
67.8827
 30
0.0
 10
-98.2106
 20
68.5293
 30
0.0
 10
-98.2106
 20
69.327
 30
0.0
 10
-98.2106
 20
69.327
 30
0.0
 10
-98.2106
 20
70.1246
 30
0.0
 10
-98.8572
 20
70.7712
 30
0.0
 10
-99.6549
 20
70.7712
 30
0.0
 10
-99.6549
 20
70.7712
 30
0.0
 10
-100.4525
 20
70.7712
 30
0.0
 10
-101.0992
 20
70.1247
 30
0.0
 10
-101.0992
 20
69.327
 30
0.0
  0
SPLINE
  5
70
330
1F
100
AcDbEntity
  8
layer 1
 62
     7
100
AcDbSpline
210
0.0
220
0.0
230
1.0
 70
    11
 71
     3
 72
    20
 73
    16
 74
     0
 42
0.0000000001
 43
0.0000000001
 12
1.0
 22
0.0
 32
0.0
 13
1.0
 23
0.0
 33
0.0
 40
0.0
 40
0.0
 40
0.0
 40
0.0
 40
0.2
 40
0.2
 40
0.2
 40
0.2
 40
0.4
 40
0.4
 40
0.4
 40
0.4
 40
0.6
 40
0.6
 40
0.6
 40
0.6
 40
1.0
 40
1.0
 40
1.0
 40
1.0
 10
-74.4938
 20
102.8055
 30
0.0
 10
-74.4938
 20
101.6639
 30
0.0
 10
-73.5682
 20
100.7384
 30
0.0
 10
-72.4267
 20
100.7384
 30
0.0
 10
-72.4267
 20
100.7384
 30
0.0
 10
-71.285
 20
100.7384
 30
0.0
 10
-70.3595
 20
101.664
 30
0.0
 10
-70.3595
 20
102.8055
 30
0.0
 10
-70.3595
 20
102.8055
 30
0.0
 10
-70.3595
 20
103.9472
 30
0.0
 10
-71.2851
 20
104.8727
 30
0.0
 10
-72.4267
 20
104.8727
 30
0.0
 10
-72.4267
 20
104.8727
 30
0.0
 10
-73.5683
 20
104.8727
 30
0.0
 10
-74.4938
 20
103.9471
 30
0.0
 10
-74.4938
 20
102.8055
 30
0.0
  0
SPLINE
  5
71
330
1F
100
AcDbEntity
  8
layer 1
 62
     7
100
AcDbSpline
210
0.0
220
0.0
230
1.0
 70
    11
 71
     3
 72
    28
 73
    24
 74
     0
 42
0.0000000001
 43
0.0000000001
 12
1.0
 22
0.0
 32
0.0
 13
1.0
 23
0.0
 33
0.0
 40
0.0
 40
0.0
 40
0.0
 40
0.0
 40
0.1428571428571428
 40
0.1428571428571428
 40
0.1428571428571428
 40
0.1428571428571428
 40
0.2857142857142857
 40
0.2857142857142857
 40
0.2857142857142857
 40
0.2857142857142857
 40
0.4285714285714285
 40
0.4285714285714285
 40
0.4285714285714285
 40
0.4285714285714285
 40
0.5714285714285714
 40
0.5714285714285714
 40
0.5714285714285714
 40
0.5714285714285714
 40
0.7142857142857143
 40
0.7142857142857143
 40
0.7142857142857143
 40
0.7142857142857143
 40
1.0
 40
1.0
 40
1.0
 40
1.0
 10
-115.5007
 20
15.1615
 30
0.0
 10
-117.2291
 20
14.7407
 30
0.0
 10
-119.6708
 20
12.6609
 30
0.0
 10
-120.3439
 20
11.1123
 30
0.0
 10
-120.3439
 20
11.1123
 30
0.0
 10
-120.1141
 20
10.5134
 30
0.0
 10
-119.9853
 20
9.4469
 30
0.0
 10
-119.9786
 20
8.3268
 30
0.0
 10
-119.9786
 20
8.3268
 30
0.0
 10
-119.9853
 20
7.2068
 30
0.0
 10
-120.1141
 20
6.1403
 30
0.0
 10
-120.3439
 20
5.5413
 30
0.0
 10
-120.3439
 20
5.5413
 30
0.0
 10
-119.6708
 20
3.9926
 30
0.0
 10
-117.2291
 20
1.9128
 30
0.0
 10
-115.5007
 20
1.492
 30
0.0
 10
-115.5007
 20
1.492
 30
0.0
 10
-115.6466
 20
4.3589
 30
0.0
 10
-115.6303
 20
6.2846
 30
0.0
 10
-114.7523
 20
8.3268
 30
0.0
 10
-114.7523
 20
8.3268
 30
0.0
 10
-115.6303
 20
10.3689
 30
0.0
 10
-115.6466
 20
12.2946
 30
0.0
 10
-115.5007
 20
15.1615
 30
0.0
  0
SPLINE
  5
72
330
1F
100
AcDbEntity
  8
layer 1
 62
     7
100
AcDbSpline
210
0.0
220
0.0
230
1.0
 70
    11
 71
     3
 72
    20
 73
    16
 74
     0
 42
0.0000000001
 43
0.0000000001
 12
1.0
 22
0.0
 32
0.0
 13
1.0
 23
0.0
 33
0.0
 40
0.0
 40
0.0
 40
0.0
 40
0.0
 40
0.2
 40
0.2
 40
0.2
 40
0.2
 40
0.4
 40
0.4
 40
0.4
 40
0.4
 40
0.6
 40
0.6
 40
0.6
 40
0.6
 40
1.0
 40
1.0
 40
1.0
 40
1.0
 10
-90.5647
 20
9.3901
 30
0.0
 10
-89.297
 20
9.3901
 30
0.0
 10
-86.1012
 20
8.6437
 30
0.0
 10
-86.1012
 20
8.3269
 30
0.0
 10
-86.1012
 20
8.3269
 30
0.0
 10
-86.1012
 20
8.0101
 30
0.0
 10
-89.297
 20
7.2636
 30
0.0
 10
-90.5647
 20
7.2636
 30
0.0
 10
-90.5647
 20
7.2636
 30
0.0
 10
-91.7877
 20
7.2636
 30
0.0
 10
-92.5821
 20
7.7387
 30
0.0
 10
-92.5473
 20
8.3269
 30
0.0
 10
-92.5473
 20
8.3269
 30
0.0
 10
-92.5821
 20
8.9151
 30
0.0
 10
-91.7877
 20
9.3901
 30
0.0
 10
-90.5647
 20
9.3901
 30
0.0
  0
SPLINE
  5
73
330
1F
100
AcDbEntity
  8
layer 1
 62
     7
100
AcDbSpline
210
0.0
220
0.0
230
1.0
 70
    11
 71
     3
 72
    72
 73
    68
 74
     0
 42
0.0000000001
 43
0.0000000001
 12
1.0
 22
0.0
 32
0.0
 13
1.0
 23
0.0
 33
0.0
 40
0.0
 40
0.0
 40
0.0
 40
0.0
 40
0.0555555555555556
 40
0.0555555555555556
 40
0.0555555555555556
 40
0.0555555555555556
 40
0.1111111111111111
 40
0.1111111111111111
 40
0.1111111111111111
 40
0.1111111111111111
 40
0.1666666666666667
 40
0.1666666666666667
 40
0.1666666666666667
 40
0.1666666666666667
 40
0.2222222222222222
 40
0.2222222222222222
 40
0.2222222222222222
 40
0.2222222222222222
 40
0.2777777777777778
 40
0.2777777777777778
 40
0.2777777777777778
 40
0.2777777777777778
 40
0.3333333333333333
 40
0.3333333333333333
 40
0.3333333333333333
 40
0.3333333333333333
 40
0.3888888888888889
 40
0.3888888888888889
 40
0.3888888888888889
 40
0.3888888888888889
 40
0.4444444444444444
 40
0.4444444444444444
 40
0.4444444444444444
 40
0.4444444444444444
 40
0.5
 40
0.5
 40
0.5
 40
0.5
 40
0.5555555555555556
 40
0.5555555555555556
 40
0.5555555555555556
 40
0.5555555555555556
 40
0.6111111111111112
 40
0.6111111111111112
 40
0.6111111111111112
 40
0.6111111111111112
 40
0.6666666666666666
 40
0.6666666666666666
 40
0.6666666666666666
 40
0.6666666666666666
 40
0.7222222222222222
 40
0.7222222222222222
 40
0.7222222222222222
 40
0.7222222222222222
 40
0.7777777777777778
 40
0.7777777777777778
 40
0.7777777777777778
 40
0.7777777777777778
 40
0.8333333333333334
 40
0.8333333333333334
 40
0.8333333333333334
 40
0.8333333333333334
 40
0.8888888888888888
 40
0.8888888888888888
 40
0.8888888888888888
 40
0.8888888888888888
 40
1.0
 40
1.0
 40
1.0
 40
1.0
 10
-97.2946
 20
9.6287
 30
0.0
 10
-97.4974
 20
13.2858
 30
0.0
 10
-97.5154
 20
17.198
 30
0.0
 10
-98.9839
 20
20.2842
 30
0.0
 10
-98.9839
 20
20.2842
 30
0.0
 10
-93.1179
 20
18.7977
 30
0.0
 10
-93.7961
 20
25.1081
 30
0.0
 10
-94.1578
 20
26.9996
 30
0.0
 10
-94.1578
 20
26.9996
 30
0.0
 10
-93.5375
 20
27.1041
 30
0.0
 10
-93.0953
 20
26.3177
 30
0.0
 10
-92.2577
 20
25.6796
 30
0.0
 10
-92.2577
 20
25.6796
 30
0.0
 10
-91.7114
 20
27.9534
 30
0.0
 10
-93.066
 20
30.6378
 30
0.0
 10
-94.7483
 20
31.5891
 30
0.0
 10
-94.7483
 20
31.5891
 30
0.0
 10
-95.5876
 20
32.0231
 30
0.0
 10
-95.6254
 20
32.0932
 30
0.0
 10
-95.1164
 20
32.2718
 30
0.0
 10
-95.1164
 20
32.2718
 30
0.0
 10
-92.8314
 20
33.431
 30
0.0
 10
-89.9763
 20
31.5514
 30
0.0
 10
-88.2644
 20
30.0846
 30
0.0
 10
-88.2644
 20
30.0846
 30
0.0
 10
-89.3965
 20
29.3436
 30
0.0
 10
-89.6202
 20
27.8659
 30
0.0
 10
-89.3815
 20
27.114
 30
0.0
 10
-89.3815
 20
27.114
 30
0.0
 10
-87.9006
 20
25.0804
 30
0.0
 10
-85.7032
 20
24.0389
 30
0.0
 10
-86.5072
 20
21.595
 30
0.0
 10
-86.5072
 20
21.595
 30
0.0
 10
-86.9047
 20
20.4414
 30
0.0
 10
-86.7937
 20
20.3397
 30
0.0
 10
-85.6876
 20
20.8437
 30
0.0
 10
-85.6876
 20
20.8437
 30
0.0
 10
-84.2235
 20
21.8679
 30
0.0
 10
-84.5763
 20
23.2512
 30
0.0
 10
-84.0629
 20
24.5324
 30
0.0
 10
-84.0629
 20
24.5324
 30
0.0
 10
-83.7216
 20
24.5336
 30
0.0
 10
-82.6502
 20
20.5547
 30
0.0
 10
-82.4716
 20
18.6228
 30
0.0
 10
-82.4716
 20
18.6228
 30
0.0
 10
-82.2109
 20
15.8035
 30
0.0
 10
-82.6878
 20
13.9981
 30
0.0
 10
-84.1235
 20
12.3669
 30
0.0
 10
-84.1235
 20
12.3669
 30
0.0
 10
-87.7549
 20
8.3269
 30
0.0
 10
-92.4961
 20
11.8261
 30
0.0
 10
-91.453
 20
13.6614
 30
0.0
 10
-91.453
 20
13.6614
 30
0.0
 10
-88.5968
 20
11.8507
 30
0.0
 10
-87.1178
 20
15.2252
 30
0.0
 10
-88.6424
 20
16.8154
 30
0.0
 10
-88.6424
 20
16.8154
 30
0.0
 10
-92.0526
 20
19.792
 30
0.0
 10
-96.3982
 20
14.341
 30
0.0
 10
-92.7556
 20
10.7738
 30
0.0
 10
-92.7556
 20
10.7738
 30
0.0
 10
-94.482
 20
11.3814
 30
0.0
 10
-95.606
 20
11.1409
 30
0.0
 10
-97.2945
 20
9.6287
 30
0.0
 10
-97.2945
 20
9.6287
 30
0.0
 10
-97.2945
 20
9.6287
 30
0.0
 10
-97.2946
 20
9.6287
 30
0.0
 10
-97.2946
 20
9.6287
 30
0.0
  0
SPLINE
  5
74
330
1F
100
AcDbEntity
  8
layer 1
 62
     7
100
AcDbSpline
210
0.0
220
0.0
230
1.0
 70
    11
 71
     3
 72
    60
 73
    56
 74
     0
 42
0.0000000001
 43
0.0000000001
 12
1.0
 22
0.0
 32
0.0
 13
1.0
 23
0.0
 33
0.0
 40
0.0
 40
0.0
 40
0.0
 40
0.0
 40
0.0666666666666667
 40
0.0666666666666667
 40
0.0666666666666667
 40
0.0666666666666667
 40
0.1333333333333333
 40
0.1333333333333333
 40
0.1333333333333333
 40
0.1333333333333333
 40
0.2
 40
0.2
 40
0.2
 40
0.2
 40
0.2666666666666667
 40
0.2666666666666667
 40
0.2666666666666667
 40
0.2666666666666667
 40
0.3333333333333333
 40
0.3333333333333333
 40
0.3333333333333333
 40
0.3333333333333333
 40
0.4
 40
0.4
 40
0.4
 40
0.4
 40
0.4666666666666667
 40
0.4666666666666667
 40
0.4666666666666667
 40
0.4666666666666667
 40
0.5333333333333333
 40
0.5333333333333333
 40
0.5333333333333333
 40
0.5333333333333333
 40
0.6
 40
0.6
 40
0.6
 40
0.6
 40
0.6666666666666666
 40
0.6666666666666666
 40
0.6666666666666666
 40
0.6666666666666666
 40
0.7333333333333333
 40
0.7333333333333333
 40
0.7333333333333333
 40
0.7333333333333333
 40
0.8
 40
0.8
 40
0.8
 40
0.8
 40
0.8666666666666667
 40
0.8666666666666667
 40
0.8666666666666667
 40
0.8666666666666667
 40
1.0
 40
1.0
 40
1.0
 40
1.0
 10
-78.3505
 20
9.6272
 30
0.0
 10
-79.2012
 20
10.3975
 30
0.0
 10
-78.7514
 20
11.4603
 30
0.0
 10
-77.7102
 20
12.5453
 30
0.0
 10
-77.7102
 20
12.5453
 30
0.0
 10
-80.1958
 20
13.5057
 30
0.0
 10
-81.8143
 20
8.7257
 30
0.0
 10
-83.7258
 20
9.8671
 30
0.0
 10
-83.7258
 20
9.8671
 30
0.0
 10
-77.3911
 20
16.9815
 30
0.0
 10
-82.6348
 20
25.2708
 30
0.0
 10
-82.1462
 20
25.1818
 30
0.0
 10
-82.1462
 20
25.1818
 30
0.0
 10
-81.1014
 20
25.169
 30
0.0
 10
-79.7713
 20
25.6944
 30
0.0
 10
-79.2425
 20
26.5097
 30
0.0
 10
-79.2425
 20
26.5097
 30
0.0
 10
-83.4199
 20
27.241
 30
0.0
 10
-81.8714
 20
28.6328
 30
0.0
 10
-84.4237
 20
31.9134
 30
0.0
 10
-84.4237
 20
31.9134
 30
0.0
 10
-84.8582
 20
32.437
 30
0.0
 10
-86.1943
 20
32.0549
 30
0.0
 10
-86.822
 20
31.427
 30
0.0
 10
-86.822
 20
31.427
 30
0.0
 10
-88.0768
 20
32.4268
 30
0.0
 10
-90.0491
 20
33.4634
 30
0.0
 10
-91.1751
 20
34.0124
 30
0.0
 10
-91.1751
 20
34.0124
 30
0.0
 10
-88.5429
 20
36.0272
 30
0.0
 10
-87.1988
 20
37.7552
 30
0.0
 10
-86.7032
 20
38.4373
 30
0.0
 10
-86.7032
 20
38.4373
 30
0.0
 10
-86.1721
 20
39.152
 30
0.0
 10
-84.4577
 20
39.9133
 30
0.0
 10
-83.5047
 20
39.6768
 30
0.0
 10
-83.5047
 20
39.6768
 30
0.0
 10
-83.9716
 20
40.4297
 30
0.0
 10
-85.1548
 20
41.1491
 30
0.0
 10
-86.239
 20
40.3574
 30
0.0
 10
-86.239
 20
40.3574
 30
0.0
 10
-85.4304
 20
42.0369
 30
0.0
 10
-84.7052
 20
44.7427
 30
0.0
 10
-85.384
 20
46.8098
 30
0.0
 10
-85.384
 20
46.8098
 30
0.0
 10
-82.1683
 20
43.8151
 30
0.0
 10
-73.0406
 20
26.0709
 30
0.0
 10
-73.0611
 20
9.3404
 30
0.0
 10
-73.0611
 20
9.3404
 30
0.0
 10
-74.1928
 20
9.2503
 30
0.0
 10
-77.2495
 20
9.1258
 30
0.0
 10
-78.3504
 20
9.6271
 30
0.0
 10
-78.3504
 20
9.6271
 30
0.0
 10
-78.3504
 20
9.6271
 30
0.0
 10
-78.3505
 20
9.6272
 30
0.0
 10
-78.3505
 20
9.6272
 30
0.0
  0
SPLINE
  5
75
330
1F
100
AcDbEntity
  8
layer 1
 62
     7
100
AcDbSpline
210
0.0
220
0.0
230
1.0
 70
    11
 71
     3
 72
    20
 73
    16
 74
     0
 42
0.0000000001
 43
0.0000000001
 12
1.0
 22
0.0
 32
0.0
 13
1.0
 23
0.0
 33
0.0
 40
0.0
 40
0.0
 40
0.0
 40
0.0
 40
0.2
 40
0.2
 40
0.2
 40
0.2
 40
0.4
 40
0.4
 40
0.4
 40
0.4
 40
0.6
 40
0.6
 40
0.6
 40
0.6
 40
1.0
 40
1.0
 40
1.0
 40
1.0
 10
-113.0298
 20
18.517
 30
0.0
 10
-112.3595
 20
22.1084
 30
0.0
 10
-111.5173
 20
23.4499
 30
0.0
 10
-110.6175
 20
25.5823
 30
0.0
 10
-110.6175
 20
25.5823
 30
0.0
 10
-109.5889
 20
25.6473
 30
0.0
 10
-108.177
 20
26.227
 30
0.0
 10
-107.1596
 20
27.3055
 30
0.0
 10
-107.1596
 20
27.3055
 30
0.0
 10
-104.6256
 20
23.0905
 30
0.0
 10
-103.7087
 20
19.5841
 30
0.0
 10
-102.9348
 20
15.0031
 30
0.0
 10
-102.9348
 20
15.0031
 30
0.0
 10
-105.6335
 20
17.4422
 30
0.0
 10
-109.7607
 20
18.7556
 30
0.0
 10
-113.0298
 20
18.517
 30
0.0
  0
SPLINE
  5
76
330
1F
100
AcDbEntity
  8
layer 1
 62
     7
100
AcDbSpline
210
0.0
220
0.0
230
1.0
 70
    11
 71
     3
 72
    24
 73
    20
 74
     0
 42
0.0000000001
 43
0.0000000001
 12
1.0
 22
0.0
 32
0.0
 13
1.0
 23
0.0
 33
0.0
 40
0.0
 40
0.0
 40
0.0
 40
0.0
 40
0.1666666666666667
 40
0.1666666666666667
 40
0.1666666666666667
 40
0.1666666666666667
 40
0.3333333333333333
 40
0.3333333333333333
 40
0.3333333333333333
 40
0.3333333333333333
 40
0.5
 40
0.5
 40
0.5
 40
0.5
 40
0.6666666666666666
 40
0.6666666666666666
 40
0.6666666666666666
 40
0.6666666666666666
 40
1.0
 40
1.0
 40
1.0
 40
1.0
 10
-119.1618
 20
16.3412
 30
0.0
 10
-118.1082
 20
18.5332
 30
0.0
 10
-118.0192
 20
19.4555
 30
0.0
 10
-117.5485
 20
21.1912
 30
0.0
 10
-117.5485
 20
21.1912
 30
0.0
 10
-116.1534
 20
21.2888
 30
0.0
 10
-115.0505
 20
22.1216
 30
0.0
 10
-113.7639
 20
22.7845
 30
0.0
 10
-113.7639
 20
22.7845
 30
0.0
 10
-114.3071
 20
21.5117
 30
0.0
 10
-114.8895
 20
20.1267
 30
0.0
 10
-114.9287
 20
18.5678
 30
0.0
 10
-114.9287
 20
18.5678
 30
0.0
 10
-116.3062
 20
18.2232
 30
0.0
 10
-117.639
 20
17.3022
 30
0.0
 10
-119.1617
 20
16.3413
 30
0.0
 10
-119.1617
 20
16.3413
 30
0.0
 10
-119.1617
 20
16.3413
 30
0.0
 10
-119.1618
 20
16.3412
 30
0.0
 10
-119.1618
 20
16.3412
 30
0.0
  0
SPLINE
  5
77
330
1F
100
AcDbEntity
  8
layer 1
 62
     7
100
AcDbSpline
210
0.0
220
0.0
230
1.0
 70
    11
 71
     3
 72
    28
 73
    24
 74
     0
 42
0.0000000001
 43
0.0000000001
 12
1.0
 22
0.0
 32
0.0
 13
1.0
 23
0.0
 33
0.0
 40
0.0
 40
0.0
 40
0.0
 40
0.0
 40
0.1428571428571428
 40
0.1428571428571428
 40
0.1428571428571428
 40
0.1428571428571428
 40
0.2857142857142857
 40
0.2857142857142857
 40
0.2857142857142857
 40
0.2857142857142857
 40
0.4285714285714285
 40
0.4285714285714285
 40
0.4285714285714285
 40
0.4285714285714285
 40
0.5714285714285714
 40
0.5714285714285714
 40
0.5714285714285714
 40
0.5714285714285714
 40
0.7142857142857143
 40
0.7142857142857143
 40
0.7142857142857143
 40
0.7142857142857143
 40
1.0
 40
1.0
 40
1.0
 40
1.0
 10
-79.3033
 20
48.7771
 30
0.0
 10
-78.2483
 20
48.367
 30
0.0
 10
-75.5943
 20
48.0568
 30
0.0
 10
-74.7771
 20
48.1388
 30
0.0
 10
-74.7771
 20
48.1388
 30
0.0
 10
-74.4966
 20
46.0971
 30
0.0
 10
-73.9682
 20
44.6975
 30
0.0
 10
-71.8956
 20
43.8014
 30
0.0
 10
-71.8956
 20
43.8014
 30
0.0
 10
-72.3806
 20
45.6112
 30
0.0
 10
-72.6893
 20
47.4212
 30
0.0
 10
-71.8956
 20
49.0987
 30
0.0
 10
-71.8956
 20
49.0987
 30
0.0
 10
-70.3081
 20
49.561
 30
0.0
 10
-69.3988
 20
50.4422
 30
0.0
 10
-68.8528
 20
52.3736
 30
0.0
 10
-68.8528
 20
52.3736
 30
0.0
 10
-68.8528
 20
52.3736
 30
0.0
 10
-68.8528
 20
23.5296
 30
0.0
 10
-68.8528
 20
23.5296
 30
0.0
 10
-68.8528
 20
23.5296
 30
0.0
 10
-71.4714
 20
33.7376
 30
0.0
 10
-75.0172
 20
42.4569
 30
0.0
 10
-79.3033
 20
48.7771
 30
0.0
  0
SPLINE
  5
78
330
1F
100
AcDbEntity
  8
layer 1
 62
     7
100
AcDbSpline
210
0.0
220
0.0
230
1.0
 70
    11
 71
     3
 72
    16
 73
    12
 74
     0
 42
0.0000000001
 43
0.0000000001
 12
1.0
 22
0.0
 32
0.0
 13
1.0
 23
0.0
 33
0.0
 40
0.0
 40
0.0
 40
0.0
 40
0.0
 40
0.25
 40
0.25
 40
0.25
 40
0.25
 40
0.5
 40
0.5
 40
0.5
 40
0.5
 40
1.0
 40
1.0
 40
1.0
 40
1.0
 10
-104.4303
 20
31.8376
 30
0.0
 10
-100.1483
 20
32.7252
 30
0.0
 10
-95.0813
 20
28.9827
 30
0.0
 10
-96.4871
 20
24.7953
 30
0.0
 10
-96.4871
 20
24.7953
 30
0.0
 10
-97.9909
 20
26.1348
 30
0.0
 10
-99.4745
 20
25.3819
 30
0.0
 10
-100.0561
 20
23.6826
 30
0.0
 10
-100.0561
 20
23.6826
 30
0.0
 10
-100.5024
 20
26.5268
 30
0.0
 10
-102.2801
 20
29.3642
 30
0.0
 10
-104.4303
 20
31.8376
 30
0.0
  0
SPLINE
  5
79
330
1F
100
AcDbEntity
  8
layer 1
 62
     7
100
AcDbSpline
210
0.0
220
0.0
230
1.0
 70
    11
 71
     3
 72
    20
 73
    16
 74
     0
 42
0.0000000001
 43
0.0000000001
 12
1.0
 22
0.0
 32
0.0
 13
1.0
 23
0.0
 33
0.0
 40
0.0
 40
0.0
 40
0.0
 40
0.0
 40
0.2
 40
0.2
 40
0.2
 40
0.2
 40
0.4
 40
0.4
 40
0.4
 40
0.4
 40
0.6
 40
0.6
 40
0.6
 40
0.6
 40
1.0
 40
1.0
 40
1.0
 40
1.0
 10
-122.633
 20
38.2439
 30
0.0
 10
-118.4391
 20
37.8021
 30
0.0
 10
-112.2352
 20
33.2535
 30
0.0
 10
-109.894
 20
30.6399
 30
0.0
 10
-109.894
 20
30.6399
 30
0.0
 10
-111.0901
 20
29.4936
 30
0.0
 10
-111.4201
 20
28.1963
 30
0.0
 10
-111.5107
 20
26.9048
 30
0.0
 10
-111.5107
 20
26.9048
 30
0.0
 10
-113.3157
 20
25.1969
 30
0.0
 10
-115.0978
 20
24.8052
 30
0.0
 10
-117.1862
 20
23.71
 30
0.0
 10
-117.1862
 20
23.71
 30
0.0
 10
-116.7451
 20
29.1356
 30
0.0
 10
-119.5793
 20
34.1971
 30
0.0
 10
-122.633
 20
38.2439
 30
0.0
  0
SPLINE
  5
7A
330
1F
100
AcDbEntity
  8
layer 1
 62
     7
100
AcDbSpline
210
0.0
220
0.0
230
1.0
 70
    11
 71
     3
 72
    36
 73
    32
 74
     0
 42
0.0000000001
 43
0.0000000001
 12
1.0
 22
0.0
 32
0.0
 13
1.0
 23
0.0
 33
0.0
 40
0.0
 40
0.0
 40
0.0
 40
0.0
 40
0.1111111111111111
 40
0.1111111111111111
 40
0.1111111111111111
 40
0.1111111111111111
 40
0.2222222222222222
 40
0.2222222222222222
 40
0.2222222222222222
 40
0.2222222222222222
 40
0.3333333333333333
 40
0.3333333333333333
 40
0.3333333333333333
 40
0.3333333333333333
 40
0.4444444444444444
 40
0.4444444444444444
 40
0.4444444444444444
 40
0.4444444444444444
 40
0.5555555555555556
 40
0.5555555555555556
 40
0.5555555555555556
 40
0.5555555555555556
 40
0.6666666666666666
 40
0.6666666666666666
 40
0.6666666666666666
 40
0.6666666666666666
 40
0.7777777777777778
 40
0.7777777777777778
 40
0.7777777777777778
 40
0.7777777777777778
 40
1.0
 40
1.0
 40
1.0
 40
1.0
 10
-98.66
 20
34.8908
 30
0.0
 10
-99.3432
 20
35.0114
 30
0.0
 10
-99.7655
 20
35.2194
 30
0.0
 10
-98.6336
 20
35.8518
 30
0.0
 10
-98.6336
 20
35.8518
 30
0.0
 10
-92.8472
 20
39.0918
 30
0.0
 10
-92.9506
 20
47.2096
 30
0.0
 10
-97.0296
 20
50.8086
 30
0.0
 10
-97.0296
 20
50.8086
 30
0.0
 10
-94.3158
 20
51.1619
 30
0.0
 10
-93.13
 20
54.5262
 30
0.0
 10
-95.2842
 20
56.9476
 30
0.0
 10
-95.2842
 20
56.9476
 30
0.0
 10
-92.1122
 20
55.4814
 30
0.0
 10
-89.6535
 20
52.4944
 30
0.0
 10
-87.7867
 20
50.4748
 30
0.0
 10
-87.7867
 20
50.4748
 30
0.0
 10
-89.3698
 20
50.442
 30
0.0
 10
-90.4421
 20
49.3719
 30
0.0
 10
-90.3172
 20
48.1431
 30
0.0
 10
-90.3172
 20
48.1431
 30
0.0
 10
-90.2853
 20
46.8488
 30
0.0
 10
-88.6286
 20
46.3163
 30
0.0
 10
-87.0881
 20
46.4617
 30
0.0
 10
-87.0881
 20
46.4617
 30
0.0
 10
-87.1598
 20
38.0825
 30
0.0
 10
-93.7087
 20
34.1343
 30
0.0
 10
-98.6601
 20
34.8909
 30
0.0
 10
-98.6601
 20
34.8909
 30
0.0
 10
-98.6601
 20
34.8909
 30
0.0
 10
-98.66
 20
34.8908
 30
0.0
 10
-98.66
 20
34.8908
 30
0.0
  0
SPLINE
  5
7B
330
1F
100
AcDbEntity
  8
layer 1
 62
     7
100
AcDbSpline
210
0.0
220
0.0
230
1.0
 70
    11
 71
     3
 72
    48
 73
    44
 74
     0
 42
0.0000000001
 43
0.0000000001
 12
1.0
 22
0.0
 32
0.0
 13
1.0
 23
0.0
 33
0.0
 40
0.0
 40
0.0
 40
0.0
 40
0.0
 40
0.0833333333333333
 40
0.0833333333333333
 40
0.0833333333333333
 40
0.0833333333333333
 40
0.1666666666666667
 40
0.1666666666666667
 40
0.1666666666666667
 40
0.1666666666666667
 40
0.25
 40
0.25
 40
0.25
 40
0.25
 40
0.3333333333333333
 40
0.3333333333333333
 40
0.3333333333333333
 40
0.3333333333333333
 40
0.4166666666666667
 40
0.4166666666666667
 40
0.4166666666666667
 40
0.4166666666666667
 40
0.5
 40
0.5
 40
0.5
 40
0.5
 40
0.5833333333333334
 40
0.5833333333333334
 40
0.5833333333333334
 40
0.5833333333333334
 40
0.6666666666666666
 40
0.6666666666666666
 40
0.6666666666666666
 40
0.6666666666666666
 40
0.75
 40
0.75
 40
0.75
 40
0.75
 40
0.8333333333333334
 40
0.8333333333333334
 40
0.8333333333333334
 40
0.8333333333333334
 40
1.0
 40
1.0
 40
1.0
 40
1.0
 10
-105.6564
 20
38.3093
 30
0.0
 10
-109.8185
 20
39.4651
 30
0.0
 10
-111.6428
 20
46.4001
 30
0.0
 10
-109.1051
 20
51.4192
 30
0.0
 10
-109.1051
 20
51.4192
 30
0.0
 10
-106.3522
 20
55.9034
 30
0.0
 10
-103.3429
 20
57.139
 30
0.0
 10
-98.8406
 20
57.5611
 30
0.0
 10
-98.8406
 20
57.5611
 30
0.0
 10
-100.4494
 20
56.2622
 30
0.0
 10
-100.5926
 20
54.2264
 30
0.0
 10
-100.1305
 20
52.8134
 30
0.0
 10
-100.1305
 20
52.8134
 30
0.0
 10
-102.3138
 20
53.2033
 30
0.0
 10
-104.4282
 20
52.6188
 30
0.0
 10
-105.7395
 20
51.4115
 30
0.0
 10
-105.7395
 20
51.4115
 30
0.0
 10
-106.756
 20
50.612
 30
0.0
 10
-107.8641
 20
48.1815
 30
0.0
 10
-107.8655
 20
46.7483
 30
0.0
 10
-107.8655
 20
46.7483
 30
0.0
 10
-108.3181
 20
40.7706
 30
0.0
 10
-100.8716
 20
41.0838
 30
0.0
 10
-100.7048
 20
45.2858
 30
0.0
 10
-100.7048
 20
45.2858
 30
0.0
 10
-100.7065
 20
46.6111
 30
0.0
 10
-101.6802
 20
48.0185
 30
0.0
 10
-102.7426
 20
48.231
 30
0.0
 10
-102.7426
 20
48.231
 30
0.0
 10
-103.4715
 20
48.3768
 30
0.0
 10
-103.3012
 20
48.6154
 30
0.0
 10
-102.9159
 20
48.831
 30
0.0
 10
-102.9159
 20
48.831
 30
0.0
 10
-101.3556
 20
49.4105
 30
0.0
 10
-99.9615
 20
48.647
 30
0.0
 10
-99.1335
 20
47.4742
 30
0.0
 10
-99.1335
 20
47.4742
 30
0.0
 10
-95.8312
 20
42.709
 30
0.0
 10
-100.0672
 20
36.7574
 30
0.0
 10
-105.6563
 20
38.3094
 30
0.0
 10
-105.6563
 20
38.3094
 30
0.0
 10
-105.6563
 20
38.3094
 30
0.0
 10
-105.6564
 20
38.3093
 30
0.0
 10
-105.6564
 20
38.3093
 30
0.0
  0
SPLINE
  5
7C
330
1F
100
AcDbEntity
  8
layer 1
 62
     7
100
AcDbSpline
210
0.0
220
0.0
230
1.0
 70
    11
 71
     3
 72
    28
 73
    24
 74
     0
 42
0.0000000001
 43
0.0000000001
 12
1.0
 22
0.0
 32
0.0
 13
1.0
 23
0.0
 33
0.0
 40
0.0
 40
0.0
 40
0.0
 40
0.0
 40
0.1428571428571428
 40
0.1428571428571428
 40
0.1428571428571428
 40
0.1428571428571428
 40
0.2857142857142857
 40
0.2857142857142857
 40
0.2857142857142857
 40
0.2857142857142857
 40
0.4285714285714285
 40
0.4285714285714285
 40
0.4285714285714285
 40
0.4285714285714285
 40
0.5714285714285714
 40
0.5714285714285714
 40
0.5714285714285714
 40
0.5714285714285714
 40
0.7142857142857143
 40
0.7142857142857143
 40
0.7142857142857143
 40
0.7142857142857143
 40
1.0
 40
1.0
 40
1.0
 40
1.0
 10
-123.6457
 20
43.8218
 30
0.0
 10
-123.9445
 20
44.6015
 30
0.0
 10
-124.1658
 20
44.9902
 30
0.0
 10
-124.359
 20
45.6099
 30
0.0
 10
-124.359
 20
45.6099
 30
0.0
 10
-123.9012
 20
46.3978
 30
0.0
 10
-123.5627
 20
47.1188
 30
0.0
 10
-122.9656
 20
48.0306
 30
0.0
 10
-122.9656
 20
48.0306
 30
0.0
 10
-121.7849
 20
44.4586
 30
0.0
 10
-116.9239
 20
42.9851
 30
0.0
 10
-113.6957
 20
44.8669
 30
0.0
 10
-113.6957
 20
44.8669
 30
0.0
 10
-113.5482
 20
42.4575
 30
0.0
 10
-112.9416
 20
41.1708
 30
0.0
 10
-110.9064
 20
38.5787
 30
0.0
 10
-110.9064
 20
38.5787
 30
0.0
 10
-113.0843
 20
42.0282
 30
0.0
 10
-122.1542
 20
43.6804
 30
0.0
 10
-123.6456
 20
43.8217
 30
0.0
 10
-123.6456
 20
43.8217
 30
0.0
 10
-123.6456
 20
43.8217
 30
0.0
 10
-123.6457
 20
43.8218
 30
0.0
 10
-123.6457
 20
43.8218
 30
0.0
  0
SPLINE
  5
7D
330
1F
100
AcDbEntity
  8
layer 1
 62
     7
100
AcDbSpline
210
0.0
220
0.0
230
1.0
 70
    11
 71
     3
 72
    36
 73
    32
 74
     0
 42
0.0000000001
 43
0.0000000001
 12
1.0
 22
0.0
 32
0.0
 13
1.0
 23
0.0
 33
0.0
 40
0.0
 40
0.0
 40
0.0
 40
0.0
 40
0.1111111111111111
 40
0.1111111111111111
 40
0.1111111111111111
 40
0.1111111111111111
 40
0.2222222222222222
 40
0.2222222222222222
 40
0.2222222222222222
 40
0.2222222222222222
 40
0.3333333333333333
 40
0.3333333333333333
 40
0.3333333333333333
 40
0.3333333333333333
 40
0.4444444444444444
 40
0.4444444444444444
 40
0.4444444444444444
 40
0.4444444444444444
 40
0.5555555555555556
 40
0.5555555555555556
 40
0.5555555555555556
 40
0.5555555555555556
 40
0.6666666666666666
 40
0.6666666666666666
 40
0.6666666666666666
 40
0.6666666666666666
 40
0.7777777777777778
 40
0.7777777777777778
 40
0.7777777777777778
 40
0.7777777777777778
 40
1.0
 40
1.0
 40
1.0
 40
1.0
 10
-118.893
 20
46.4377
 30
0.0
 10
-121.3429
 20
47.6096
 30
0.0
 10
-121.4402
 20
49.651
 30
0.0
 10
-120.4217
 20
51.5542
 30
0.0
 10
-120.4217
 20
51.5542
 30
0.0
 10
-119.5216
 20
50.2856
 30
0.0
 10
-118.2439
 20
49.7381
 30
0.0
 10
-117.0334
 20
50.4833
 30
0.0
 10
-117.0334
 20
50.4833
 30
0.0
 10
-116.1266
 20
51.2859
 30
0.0
 10
-116.2632
 20
52.6967
 30
0.0
 10
-117.2711
 20
53.4714
 30
0.0
 10
-117.2711
 20
53.4714
 30
0.0
 10
-114.9346
 20
53.3434
 30
0.0
 10
-113.1986
 20
54.1986
 30
0.0
 10
-111.5965
 20
55.3161
 30
0.0
 10
-111.5965
 20
55.3161
 30
0.0
 10
-113.0869
 20
53.1217
 30
0.0
 10
-113.5671
 20
50.56
 30
0.0
 10
-113.6031
 20
48.1123
 30
0.0
 10
-113.6031
 20
48.1123
 30
0.0
 10
-113.6031
 20
46.9232
 30
0.0
 10
-113.7079
 20
46.642
 30
0.0
 10
-114.2481
 20
46.3815
 30
0.0
 10
-114.2481
 20
46.3815
 30
0.0
 10
-115.1779
 20
45.9331
 30
0.0
 10
-117.76
 20
45.9643
 30
0.0
 10
-118.893
 20
46.4378
 30
0.0
 10
-118.893
 20
46.4378
 30
0.0
 10
-118.893
 20
46.4378
 30
0.0
 10
-118.893
 20
46.4377
 30
0.0
 10
-118.893
 20
46.4377
 30
0.0
  0
SPLINE
  5
7E
330
1F
100
AcDbEntity
  8
layer 1
 62
     7
100
AcDbSpline
210
0.0
220
0.0
230
1.0
 70
    11
 71
     3
 72
    20
 73
    16
 74
     0
 42
0.0000000001
 43
0.0000000001
 12
1.0
 22
0.0
 32
0.0
 13
1.0
 23
0.0
 33
0.0
 40
0.0
 40
0.0
 40
0.0
 40
0.0
 40
0.2
 40
0.2
 40
0.2
 40
0.2
 40
0.4
 40
0.4
 40
0.4
 40
0.4
 40
0.6
 40
0.6
 40
0.6
 40
0.6
 40
1.0
 40
1.0
 40
1.0
 40
1.0
 10
-124.5902
 20
59.6475
 30
0.0
 10
-123.4499
 20
57.1356
 30
0.0
 10
-122.0788
 20
55.2648
 30
0.0
 10
-119.5947
 20
54.2762
 30
0.0
 10
-119.5947
 20
54.2762
 30
0.0
 10
-122.1736
 20
53.9176
 30
0.0
 10
-123.1237
 20
52.8045
 30
0.0
 10
-123.2987
 20
50.9047
 30
0.0
 10
-123.2987
 20
50.9047
 30
0.0
 10
-124.7064
 20
53.6584
 30
0.0
 10
-124.6035
 20
57.1913
 30
0.0
 10
-124.5901
 20
59.6475
 30
0.0
 10
-124.5901
 20
59.6475
 30
0.0
 10
-124.5901
 20
59.6475
 30
0.0
 10
-124.5902
 20
59.6475
 30
0.0
 10
-124.5902
 20
59.6475
 30
0.0
  0
SPLINE
  5
7F
330
1F
100
AcDbEntity
  8
layer 1
 62
     7
100
AcDbSpline
210
0.0
220
0.0
230
1.0
 70
    11
 71
     3
 72
    56
 73
    52
 74
     0
 42
0.0000000001
 43
0.0000000001
 12
1.0
 22
0.0
 32
0.0
 13
1.0
 23
0.0
 33
0.0
 40
0.0
 40
0.0
 40
0.0
 40
0.0
 40
0.0714285714285714
 40
0.0714285714285714
 40
0.0714285714285714
 40
0.0714285714285714
 40
0.1428571428571428
 40
0.1428571428571428
 40
0.1428571428571428
 40
0.1428571428571428
 40
0.2142857142857143
 40
0.2142857142857143
 40
0.2142857142857143
 40
0.2142857142857143
 40
0.2857142857142857
 40
0.2857142857142857
 40
0.2857142857142857
 40
0.2857142857142857
 40
0.3571428571428572
 40
0.3571428571428572
 40
0.3571428571428572
 40
0.3571428571428572
 40
0.4285714285714285
 40
0.4285714285714285
 40
0.4285714285714285
 40
0.4285714285714285
 40
0.5
 40
0.5
 40
0.5
 40
0.5
 40
0.5714285714285714
 40
0.5714285714285714
 40
0.5714285714285714
 40
0.5714285714285714
 40
0.6428571428571429
 40
0.6428571428571429
 40
0.6428571428571429
 40
0.6428571428571429
 40
0.7142857142857143
 40
0.7142857142857143
 40
0.7142857142857143
 40
0.7142857142857143
 40
0.7857142857142857
 40
0.7857142857142857
 40
0.7857142857142857
 40
0.7857142857142857
 40
0.8571428571428571
 40
0.8571428571428571
 40
0.8571428571428571
 40
0.8571428571428571
 40
1.0
 40
1.0
 40
1.0
 40
1.0
 10
-78.6539
 20
52.6034
 30
0.0
 10
-79.0067
 20
53.0023
 30
0.0
 10
-78.7861
 20
53.4076
 30
0.0
 10
-78.1302
 20
53.2249
 30
0.0
 10
-78.1302
 20
53.2249
 30
0.0
 10
-75.4044
 20
52.4656
 30
0.0
 10
-73.4854
 20
55.5484
 30
0.0
 10
-75.4567
 20
57.5196
 30
0.0
 10
-75.4567
 20
57.5196
 30
0.0
 10
-78.628
 20
60.3281
 30
0.0
 10
-82.4958
 20
57.5099
 30
0.0
 10
-82.3332
 20
52.6245
 30
0.0
 10
-82.3332
 20
52.6245
 30
0.0
 10
-85.08
 20
56.2973
 30
0.0
 10
-89.0694
 20
61.1399
 30
0.0
 10
-89.3294
 20
62.6689
 30
0.0
 10
-89.3294
 20
62.6689
 30
0.0
 10
-87.6985
 20
61.3526
 30
0.0
 10
-85.8508
 20
60.7588
 30
0.0
 10
-84.1327
 20
62.3779
 30
0.0
 10
-84.1327
 20
62.3779
 30
0.0
 10
-83.4252
 20
63.087
 30
0.0
 10
-82.645
 20
62.9196
 30
0.0
 10
-82.645
 20
62.067
 30
0.0
 10
-82.645
 20
62.067
 30
0.0
 10
-82.645
 20
61.7609
 30
0.0
 10
-82.5218
 20
61.5106
 30
0.0
 10
-82.3713
 20
61.5106
 30
0.0
 10
-82.3713
 20
61.5106
 30
0.0
 10
-82.0267
 20
61.5106
 30
0.0
 10
-81.6643
 20
63.3623
 30
0.0
 10
-81.8925
 20
63.9571
 30
0.0
 10
-81.8925
 20
63.9571
 30
0.0
 10
-82.0936
 20
65.0176
 30
0.0
 10
-81.95
 20
65.8243
 30
0.0
 10
-81.4057
 20
66.8593
 30
0.0
 10
-81.4057
 20
66.8593
 30
0.0
 10
-78.954
 20
65.2934
 30
0.0
 10
-76.0364
 20
64.1948
 30
0.0
 10
-73.8924
 20
62.2325
 30
0.0
 10
-73.8924
 20
62.2325
 30
0.0
 10
-72.6641
 20
61.073
 30
0.0
 10
-71.7429
 20
59.0632
 30
0.0
 10
-71.573
 20
57.1726
 30
0.0
 10
-71.573
 20
57.1726
 30
0.0
 10
-70.8364
 20
50.6617
 30
0.0
 10
-76.5302
 20
49.4288
 30
0.0
 10
-78.654
 20
52.6033
 30
0.0
 10
-78.654
 20
52.6033
 30
0.0
 10
-78.654
 20
52.6033
 30
0.0
 10
-78.6539
 20
52.6034
 30
0.0
 10
-78.6539
 20
52.6034
 30
0.0
  0
SPLINE
  5
80
330
1F
100
AcDbEntity
  8
layer 1
 62
     7
100
AcDbSpline
210
0.0
220
0.0
230
1.0
 70
    11
 71
     3
 72
    48
 73
    44
 74
     0
 42
0.0000000001
 43
0.0000000001
 12
1.0
 22
0.0
 32
0.0
 13
1.0
 23
0.0
 33
0.0
 40
0.0
 40
0.0
 40
0.0
 40
0.0
 40
0.0833333333333333
 40
0.0833333333333333
 40
0.0833333333333333
 40
0.0833333333333333
 40
0.1666666666666667
 40
0.1666666666666667
 40
0.1666666666666667
 40
0.1666666666666667
 40
0.25
 40
0.25
 40
0.25
 40
0.25
 40
0.3333333333333333
 40
0.3333333333333333
 40
0.3333333333333333
 40
0.3333333333333333
 40
0.4166666666666667
 40
0.4166666666666667
 40
0.4166666666666667
 40
0.4166666666666667
 40
0.5
 40
0.5
 40
0.5
 40
0.5
 40
0.5833333333333334
 40
0.5833333333333334
 40
0.5833333333333334
 40
0.5833333333333334
 40
0.6666666666666666
 40
0.6666666666666666
 40
0.6666666666666666
 40
0.6666666666666666
 40
0.75
 40
0.75
 40
0.75
 40
0.75
 40
0.8333333333333334
 40
0.8333333333333334
 40
0.8333333333333334
 40
0.8333333333333334
 40
1.0
 40
1.0
 40
1.0
 40
1.0
 10
-119.444
 20
56.9494
 30
0.0
 10
-121.5151
 20
57.9897
 30
0.0
 10
-122.7102
 20
59.0101
 30
0.0
 10
-123.1142
 20
61.1238
 30
0.0
 10
-123.1142
 20
61.1238
 30
0.0
 10
-121.1256
 20
61.2331
 30
0.0
 10
-118.9656
 20
60.8446
 30
0.0
 10
-118.7628
 20
62.6713
 30
0.0
 10
-118.7628
 20
62.6713
 30
0.0
 10
-120.4364
 20
65.0052
 30
0.0
 10
-121.9108
 20
67.1432
 30
0.0
 10
-120.8009
 20
69.6803
 30
0.0
 10
-120.8009
 20
69.6803
 30
0.0
 10
-119.8474
 20
71.7462
 30
0.0
 10
-118.344
 20
72.6901
 30
0.0
 10
-116.0067
 20
72.6901
 30
0.0
 10
-116.0067
 20
72.6901
 30
0.0
 10
-113.7643
 20
72.6901
 30
0.0
 10
-112.4767
 20
71.5798
 30
0.0
 10
-112.7918
 20
69.9179
 30
0.0
 10
-112.7918
 20
69.9179
 30
0.0
 10
-112.861
 20
69.5529
 30
0.0
 10
-113.1953
 20
69.365
 30
0.0
 10
-113.8921
 20
69.2994
 30
0.0
 10
-113.8921
 20
69.2994
 30
0.0
 10
-115.2168
 20
69.175
 30
0.0
 10
-115.8962
 20
68.5186
 30
0.0
 10
-115.8962
 20
67.3633
 30
0.0
 10
-115.8962
 20
67.3633
 30
0.0
 10
-114.8565
 20
63.4301
 30
0.0
 10
-110.6218
 20
64.7756
 30
0.0
 10
-109.1368
 20
67.828
 30
0.0
 10
-109.1368
 20
67.828
 30
0.0
 10
-109.384
 20
64.1016
 30
0.0
 10
-110.4727
 20
61.2379
 30
0.0
 10
-112.4298
 20
59.1221
 30
0.0
 10
-112.4298
 20
59.1221
 30
0.0
 10
-114.4479
 20
56.9695
 30
0.0
 10
-116.8439
 20
56.2274
 30
0.0
 10
-119.444
 20
56.9492
 30
0.0
 10
-119.444
 20
56.9492
 30
0.0
 10
-119.444
 20
56.9492
 30
0.0
 10
-119.444
 20
56.9494
 30
0.0
 10
-119.444
 20
56.9494
 30
0.0
  0
SPLINE
  5
81
330
1F
100
AcDbEntity
  8
layer 1
 62
     7
100
AcDbSpline
210
0.0
220
0.0
230
1.0
 70
    11
 71
     3
 72
    16
 73
    12
 74
     0
 42
0.0000000001
 43
0.0000000001
 12
1.0
 22
0.0
 32
0.0
 13
1.0
 23
0.0
 33
0.0
 40
0.0
 40
0.0
 40
0.0
 40
0.0
 40
0.25
 40
0.25
 40
0.25
 40
0.25
 40
0.5
 40
0.5
 40
0.5
 40
0.5
 40
1.0
 40
1.0
 40
1.0
 40
1.0
 10
-75.2727
 20
66.776
 30
0.0
 10
-72.9603
 20
67.3319
 30
0.0
 10
-70.2007
 20
70.0765
 30
0.0
 10
-68.8528
 20
72.8985
 30
0.0
 10
-68.8528
 20
72.8985
 30
0.0
 10
-68.8528
 20
72.8985
 30
0.0
 10
-68.8528
 20
60.7317
 30
0.0
 10
-68.8528
 20
60.7317
 30
0.0
 10
-68.8528
 20
60.7317
 30
0.0
 10
-70.2895
 20
64.1671
 30
0.0
 10
-73.1963
 20
65.9759
 30
0.0
 10
-75.2727
 20
66.776
 30
0.0
  0
SPLINE
  5
82
330
1F
100
AcDbEntity
  8
layer 1
 62
     7
100
AcDbSpline
210
0.0
220
0.0
230
1.0
 70
    11
 71
     3
 72
    24
 73
    20
 74
     0
 42
0.0000000001
 43
0.0000000001
 12
1.0
 22
0.0
 32
0.0
 13
1.0
 23
0.0
 33
0.0
 40
0.0
 40
0.0
 40
0.0
 40
0.0
 40
0.1666666666666667
 40
0.1666666666666667
 40
0.1666666666666667
 40
0.1666666666666667
 40
0.3333333333333333
 40
0.3333333333333333
 40
0.3333333333333333
 40
0.3333333333333333
 40
0.5
 40
0.5
 40
0.5
 40
0.5
 40
0.6666666666666666
 40
0.6666666666666666
 40
0.6666666666666666
 40
0.6666666666666666
 40
1.0
 40
1.0
 40
1.0
 40
1.0
 10
-105.9771
 20
66.7571
 30
0.0
 10
-104.9284
 20
66.1293
 30
0.0
 10
-102.9829
 20
66.1742
 30
0.0
 10
-102.1584
 20
66.5329
 30
0.0
 10
-102.1584
 20
66.5329
 30
0.0
 10
-102.5729
 20
64.9117
 30
0.0
 10
-102.5162
 20
64.0711
 30
0.0
 10
-101.4196
 20
63.0852
 30
0.0
 10
-101.4196
 20
63.0852
 30
0.0
 10
-103.3912
 20
62.4419
 30
0.0
 10
-105.2578
 20
61.4573
 30
0.0
 10
-107.2261
 20
60.1977
 30
0.0
 10
-107.2261
 20
60.1977
 30
0.0
 10
-105.9316
 20
62.6624
 30
0.0
 10
-105.6797
 20
64.5891
 30
0.0
 10
-105.9771
 20
66.757
 30
0.0
 10
-105.9771
 20
66.757
 30
0.0
 10
-105.9771
 20
66.757
 30
0.0
 10
-105.9771
 20
66.7571
 30
0.0
 10
-105.9771
 20
66.7571
 30
0.0
  0
SPLINE
  5
83
330
1F
100
AcDbEntity
  8
layer 1
 62
     7
100
AcDbSpline
210
0.0
220
0.0
230
1.0
 70
    11
 71
     3
 72
    24
 73
    20
 74
     0
 42
0.0000000001
 43
0.0000000001
 12
1.0
 22
0.0
 32
0.0
 13
1.0
 23
0.0
 33
0.0
 40
0.0
 40
0.0
 40
0.0
 40
0.0
 40
0.1666666666666667
 40
0.1666666666666667
 40
0.1666666666666667
 40
0.1666666666666667
 40
0.3333333333333333
 40
0.3333333333333333
 40
0.3333333333333333
 40
0.3333333333333333
 40
0.5
 40
0.5
 40
0.5
 40
0.5
 40
0.6666666666666666
 40
0.6666666666666666
 40
0.6666666666666666
 40
0.6666666666666666
 40
1.0
 40
1.0
 40
1.0
 40
1.0
 10
-97.3743
 20
62.8002
 30
0.0
 10
-96.3846
 20
63.9092
 30
0.0
 10
-96.7312
 20
65.6301
 30
0.0
 10
-96.9585
 20
66.2713
 30
0.0
 10
-96.9585
 20
66.2713
 30
0.0
 10
-96.6391
 20
66.1613
 30
0.0
 10
-95.2983
 20
65.6496
 30
0.0
 10
-94.1185
 20
66.3101
 30
0.0
 10
-94.1185
 20
66.3101
 30
0.0
 10
-94.0518
 20
64.9648
 30
0.0
 10
-93.5304
 20
63.369
 30
0.0
 10
-92.6777
 20
62.1284
 30
0.0
 10
-92.6777
 20
62.1284
 30
0.0
 10
-94.5182
 20
62.6839
 30
0.0
 10
-95.5168
 20
62.8163
 30
0.0
 10
-97.3743
 20
62.8003
 30
0.0
 10
-97.3743
 20
62.8003
 30
0.0
 10
-97.3743
 20
62.8003
 30
0.0
 10
-97.3743
 20
62.8002
 30
0.0
 10
-97.3743
 20
62.8002
 30
0.0
  0
SPLINE
  5
84
330
1F
100
AcDbEntity
  8
layer 1
 62
     7
100
AcDbSpline
210
0.0
220
0.0
230
1.0
 70
    11
 71
     3
 72
   104
 73
   100
 74
     0
 42
0.0000000001
 43
0.0000000001
 12
1.0
 22
0.0
 32
0.0
 13
1.0
 23
0.0
 33
0.0
 40
0.0
 40
0.0
 40
0.0
 40
0.0
 40
0.0384615384615385
 40
0.0384615384615385
 40
0.0384615384615385
 40
0.0384615384615385
 40
0.0769230769230769
 40
0.0769230769230769
 40
0.0769230769230769
 40
0.0769230769230769
 40
0.1153846153846154
 40
0.1153846153846154
 40
0.1153846153846154
 40
0.1153846153846154
 40
0.1538461538461539
 40
0.1538461538461539
 40
0.1538461538461539
 40
0.1538461538461539
 40
0.1923076923076923
 40
0.1923076923076923
 40
0.1923076923076923
 40
0.1923076923076923
 40
0.2307692307692308
 40
0.2307692307692308
 40
0.2307692307692308
 40
0.2307692307692308
 40
0.2692307692307692
 40
0.2692307692307692
 40
0.2692307692307692
 40
0.2692307692307692
 40
0.3076923076923077
 40
0.3076923076923077
 40
0.3076923076923077
 40
0.3076923076923077
 40
0.3461538461538461
 40
0.3461538461538461
 40
0.3461538461538461
 40
0.3461538461538461
 40
0.3846153846153846
 40
0.3846153846153846
 40
0.3846153846153846
 40
0.3846153846153846
 40
0.4230769230769231
 40
0.4230769230769231
 40
0.4230769230769231
 40
0.4230769230769231
 40
0.4615384615384616
 40
0.4615384615384616
 40
0.4615384615384616
 40
0.4615384615384616
 40
0.5
 40
0.5
 40
0.5
 40
0.5
 40
0.5384615384615384
 40
0.5384615384615384
 40
0.5384615384615384
 40
0.5384615384615384
 40
0.5769230769230769
 40
0.5769230769230769
 40
0.5769230769230769
 40
0.5769230769230769
 40
0.6153846153846154
 40
0.6153846153846154
 40
0.6153846153846154
 40
0.6153846153846154
 40
0.6538461538461539
 40
0.6538461538461539
 40
0.6538461538461539
 40
0.6538461538461539
 40
0.6923076923076923
 40
0.6923076923076923
 40
0.6923076923076923
 40
0.6923076923076923
 40
0.7307692307692307
 40
0.7307692307692307
 40
0.7307692307692307
 40
0.7307692307692307
 40
0.7692307692307693
 40
0.7692307692307693
 40
0.7692307692307693
 40
0.7692307692307693
 40
0.8076923076923077
 40
0.8076923076923077
 40
0.8076923076923077
 40
0.8076923076923077
 40
0.8461538461538461
 40
0.8461538461538461
 40
0.8461538461538461
 40
0.8461538461538461
 40
0.8846153846153846
 40
0.8846153846153846
 40
0.8846153846153846
 40
0.8846153846153846
 40
0.9230769230769231
 40
0.9230769230769231
 40
0.9230769230769231
 40
0.9230769230769231
 40
1.0
 40
1.0
 40
1.0
 40
1.0
 10
-88.6645
 20
65.5682
 30
0.0
 10
-88.6645
 20
66.4756
 30
0.0
 10
-88.5903
 20
66.5176
 30
0.0
 10
-87.7665
 20
66.0768
 30
0.0
 10
-87.7665
 20
66.0768
 30
0.0
 10
-86.9449
 20
65.637
 30
0.0
 10
-85.7981
 20
66.4328
 30
0.0
 10
-85.7981
 20
67.4427
 30
0.0
 10
-85.7981
 20
67.4427
 30
0.0
 10
-85.7981
 20
69.3596
 30
0.0
 10
-88.0949
 20
69.9207
 30
0.0
 10
-89.5528
 20
68.3599
 30
0.0
 10
-89.5528
 20
68.3599
 30
0.0
 10
-90.1381
 20
67.9578
 30
0.0
 10
-90.2024
 20
67.3844
 30
0.0
 10
-90.6252
 20
66.6704
 30
0.0
 10
-90.6252
 20
66.6704
 30
0.0
 10
-92.6536
 20
70.905
 30
0.0
 10
-91.8391
 20
75.5657
 30
0.0
 10
-91.1037
 20
79.4263
 30
0.0
 10
-91.1037
 20
79.4263
 30
0.0
 10
-91.1218
 20
80.2448
 30
0.0
 10
-91.5604
 20
80.6902
 30
0.0
 10
-92.0523
 20
81.2889
 30
0.0
 10
-92.0523
 20
81.2889
 30
0.0
 10
-96.3631
 20
77.766
 30
0.0
 10
-104.857
 20
78.8133
 30
0.0
 10
-108.1672
 20
83.8651
 30
0.0
 10
-108.1672
 20
83.8651
 30
0.0
 10
-105.8728
 20
82.4866
 30
0.0
 10
-102.3099
 20
82.1491
 30
0.0
 10
-102.1371
 20
82.5777
 30
0.0
 10
-102.1371
 20
82.5777
 30
0.0
 10
-102.5503
 20
83.7191
 30
0.0
 10
-102.7042
 20
84.9915
 30
0.0
 10
-101.6085
 20
85.2991
 30
0.0
 10
-101.6085
 20
85.2991
 30
0.0
 10
-100.9945
 20
85.447
 30
0.0
 10
-100.4335
 20
84.9459
 30
0.0
 10
-100.2763
 20
84.4507
 30
0.0
 10
-100.2763
 20
84.4507
 30
0.0
 10
-99.1482
 20
82.8806
 30
0.0
 10
-97.6008
 20
83.0438
 30
0.0
 10
-96.0201
 20
83.3403
 30
0.0
 10
-96.0201
 20
83.3403
 30
0.0
 10
-97.3122
 20
84.2754
 30
0.0
 10
-97.9512
 20
85.8553
 30
0.0
 10
-97.0303
 20
87.1891
 30
0.0
 10
-97.0303
 20
87.1891
 30
0.0
 10
-95.8635
 20
88.8954
 30
0.0
 10
-94.4587
 20
88.2287
 30
0.0
 10
-92.8833
 20
87.2684
 30
0.0
 10
-92.8833
 20
87.2684
 30
0.0
 10
-92.5592
 20
88.6554
 30
0.0
 10
-92.9506
 20
90.497
 30
0.0
 10
-95.5992
 20
90.5671
 30
0.0
 10
-95.5992
 20
90.5671
 30
0.0
 10
-94.9833
 20
92.2381
 30
0.0
 10
-94.6872
 20
94.2318
 30
0.0
 10
-94.8454
 20
95.9379
 30
0.0
 10
-94.8454
 20
95.9379
 30
0.0
 10
-92.803
 20
95.1914
 30
0.0
 10
-91.0377
 20
95.1445
 30
0.0
 10
-88.9669
 20
95.4787
 30
0.0
 10
-88.9669
 20
95.4787
 30
0.0
 10
-89.536
 20
94.1481
 30
0.0
 10
-89.2735
 20
92.2556
 30
0.0
 10
-88.3626
 20
91.3696
 30
0.0
 10
-88.3626
 20
91.3696
 30
0.0
 10
-87.8652
 20
90.9062
 30
0.0
 10
-87.8295
 20
90.7213
 30
0.0
 10
-88.1158
 20
90.0929
 30
0.0
 10
-88.1158
 20
90.0929
 30
0.0
 10
-88.5053
 20
89.2381
 30
0.0
 10
-88.2937
 20
88.1259
 30
0.0
 10
-87.6117
 20
87.444
 30
0.0
 10
-87.6117
 20
87.444
 30
0.0
 10
-87.1647
 20
86.997
 30
0.0
 10
-87.1072
 20
87.0304
 30
0.0
 10
-86.7398
 20
87.9515
 30
0.0
 10
-86.7398
 20
87.9515
 30
0.0
 10
-85.3972
 20
89.8911
 30
0.0
 10
-83.7816
 20
90.1865
 30
0.0
 10
-81.748
 20
90.519
 30
0.0
 10
-81.748
 20
90.519
 30
0.0
 10
-87.4366
 20
85.545
 30
0.0
 10
-86.715
 20
75.2451
 30
0.0
 10
-83.7381
 20
69.899
 30
0.0
 10
-83.7381
 20
69.899
 30
0.0
 10
-82.7148
 20
68.2099
 30
0.0
 10
-83.3756
 20
64.4843
 30
0.0
 10
-85.2982
 20
63.8014
 30
0.0
 10
-85.2982
 20
63.8014
 30
0.0
 10
-86.7666
 20
63.5034
 30
0.0
 10
-88.6325
 20
63.9029
 30
0.0
 10
-88.6645
 20
65.5683
 30
0.0
 10
-88.6645
 20
65.5683
 30
0.0
 10
-88.6645
 20
65.5683
 30
0.0
 10
-88.6645
 20
65.5682
 30
0.0
 10
-88.6645
 20
65.5682
 30
0.0
  0
SPLINE
  5
85
330
1F
100
AcDbEntity
  8
layer 1
 62
     7
100
AcDbSpline
210
0.0
220
0.0
230
1.0
 70
    11
 71
     3
 72
    48
 73
    44
 74
     0
 42
0.0000000001
 43
0.0000000001
 12
1.0
 22
0.0
 32
0.0
 13
1.0
 23
0.0
 33
0.0
 40
0.0
 40
0.0
 40
0.0
 40
0.0
 40
0.0833333333333333
 40
0.0833333333333333
 40
0.0833333333333333
 40
0.0833333333333333
 40
0.1666666666666667
 40
0.1666666666666667
 40
0.1666666666666667
 40
0.1666666666666667
 40
0.25
 40
0.25
 40
0.25
 40
0.25
 40
0.3333333333333333
 40
0.3333333333333333
 40
0.3333333333333333
 40
0.3333333333333333
 40
0.4166666666666667
 40
0.4166666666666667
 40
0.4166666666666667
 40
0.4166666666666667
 40
0.5
 40
0.5
 40
0.5
 40
0.5
 40
0.5833333333333334
 40
0.5833333333333334
 40
0.5833333333333334
 40
0.5833333333333334
 40
0.6666666666666666
 40
0.6666666666666666
 40
0.6666666666666666
 40
0.6666666666666666
 40
0.75
 40
0.75
 40
0.75
 40
0.75
 40
0.8333333333333334
 40
0.8333333333333334
 40
0.8333333333333334
 40
0.8333333333333334
 40
1.0
 40
1.0
 40
1.0
 40
1.0
 10
-80.3004
 20
70.2632
 30
0.0
 10
-82.8123
 20
73.3878
 30
0.0
 10
-84.3406
 20
78.2903
 30
0.0
 10
-83.2586
 20
82.2929
 30
0.0
 10
-83.2586
 20
82.2929
 30
0.0
 10
-82.4715
 20
85.4837
 30
0.0
 10
-81.4052
 20
87.8794
 30
0.0
 10
-79.6352
 20
90.4772
 30
0.0
 10
-79.6352
 20
90.4772
 30
0.0
 10
-79.6343
 20
89.4893
 30
0.0
 10
-79.3142
 20
88.2436
 30
0.0
 10
-79.7632
 20
87.3378
 30
0.0
 10
-79.7632
 20
87.3378
 30
0.0
 10
-80.249
 20
85.9535
 30
0.0
 10
-80.1242
 20
84.6876
 30
0.0
 10
-79.2869
 20
83.7919
 30
0.0
 10
-79.2869
 20
83.7919
 30
0.0
 10
-79.2869
 20
83.7919
 30
0.0
 10
-79.0973
 20
84.5473
 30
0.0
 10
-79.0973
 20
84.5473
 30
0.0
 10
-79.0973
 20
84.5473
 30
0.0
 10
-78.8591
 20
85.4961
 30
0.0
 10
-78.5423
 20
85.5029
 30
0.0
 10
-77.9327
 20
84.5725
 30
0.0
 10
-77.9327
 20
84.5725
 30
0.0
 10
-77.4727
 20
83.8477
 30
0.0
 10
-76.7098
 20
83.323
 30
0.0
 10
-75.8115
 20
82.724
 30
0.0
 10
-75.8115
 20
82.724
 30
0.0
 10
-79.8335
 20
81.9149
 30
0.0
 10
-80.8374
 20
77.5517
 30
0.0
 10
-78.6656
 20
75.2363
 30
0.0
 10
-78.6656
 20
75.2363
 30
0.0
 10
-77.2197
 20
73.5763
 30
0.0
 10
-73.7375
 20
74.0681
 30
0.0
 10
-73.0026
 20
75.7
 30
0.0
 10
-73.0026
 20
75.7
 30
0.0
 10
-72.7231
 20
76.4283
 30
0.0
 10
-72.3256
 20
75.8625
 30
0.0
 10
-72.3256
 20
74.7361
 30
0.0
 10
-72.3256
 20
74.7361
 30
0.0
 10
-72.387
 20
70.1275
 30
0.0
 10
-77.7487
 20
67.3798
 30
0.0
 10
-80.3004
 20
70.2632
 30
0.0
  0
SPLINE
  5
86
330
1F
100
AcDbEntity
  8
layer 1
 62
     7
100
AcDbSpline
210
0.0
220
0.0
230
1.0
 70
    11
 71
     3
 72
    20
 73
    16
 74
     0
 42
0.0000000001
 43
0.0000000001
 12
1.0
 22
0.0
 32
0.0
 13
1.0
 23
0.0
 33
0.0
 40
0.0
 40
0.0
 40
0.0
 40
0.0
 40
0.2
 40
0.2
 40
0.2
 40
0.2
 40
0.4
 40
0.4
 40
0.4
 40
0.4
 40
0.6
 40
0.6
 40
0.6
 40
0.6
 40
1.0
 40
1.0
 40
1.0
 40
1.0
 10
-97.4183
 20
71.9361
 30
0.0
 10
-96.7775
 20
73.1336
 30
0.0
 10
-96.9583
 20
75.9398
 30
0.0
 10
-98.0232
 20
76.6734
 30
0.0
 10
-98.0232
 20
76.6734
 30
0.0
 10
-95.2369
 20
76.6909
 30
0.0
 10
-94.8824
 20
76.8914
 30
0.0
 10
-93.7539
 20
77.7262
 30
0.0
 10
-93.7539
 20
77.7262
 30
0.0
 10
-94.2502
 20
76.0804
 30
0.0
 10
-94.4844
 20
73.9849
 30
0.0
 10
-94.1746
 20
71.9532
 30
0.0
 10
-94.1746
 20
71.9532
 30
0.0
 10
-94.9359
 20
72.7988
 30
0.0
 10
-96.5428
 20
72.3382
 30
0.0
 10
-97.4183
 20
71.9361
 30
0.0
  0
SPLINE
  5
87
330
1F
100
AcDbEntity
  8
layer 1
 62
     7
100
AcDbSpline
210
0.0
220
0.0
230
1.0
 70
    11
 71
     3
 72
    24
 73
    20
 74
     0
 42
0.0000000001
 43
0.0000000001
 12
1.0
 22
0.0
 32
0.0
 13
1.0
 23
0.0
 33
0.0
 40
0.0
 40
0.0
 40
0.0
 40
0.0
 40
0.1666666666666667
 40
0.1666666666666667
 40
0.1666666666666667
 40
0.1666666666666667
 40
0.3333333333333333
 40
0.3333333333333333
 40
0.3333333333333333
 40
0.3333333333333333
 40
0.5
 40
0.5
 40
0.5
 40
0.5
 40
0.6666666666666666
 40
0.6666666666666666
 40
0.6666666666666666
 40
0.6666666666666666
 40
1.0
 40
1.0
 40
1.0
 40
1.0
 10
-106.5049
 20
72.6602
 30
0.0
 10
-106.4747
 20
75.8002
 30
0.0
 10
-107.1401
 20
78.0567
 30
0.0
 10
-108.7993
 20
80.5504
 30
0.0
 10
-108.7993
 20
80.5504
 30
0.0
 10
-106.1358
 20
78.5825
 30
0.0
 10
-103.6443
 20
77.5339
 30
0.0
 10
-100.6532
 20
76.6724
 30
0.0
 10
-100.6532
 20
76.6724
 30
0.0
 10
-101.8497
 20
75.7079
 30
0.0
 10
-102.1099
 20
73.8027
 30
0.0
 10
-101.6601
 20
72.1674
 30
0.0
 10
-101.6601
 20
72.1674
 30
0.0
 10
-102.8234
 20
73.1371
 30
0.0
 10
-105.4879
 20
73.8066
 30
0.0
 10
-106.5049
 20
72.66
 30
0.0
 10
-106.5049
 20
72.66
 30
0.0
 10
-106.5049
 20
72.66
 30
0.0
 10
-106.5049
 20
72.6602
 30
0.0
 10
-106.5049
 20
72.6602
 30
0.0
  0
SPLINE
  5
88
330
1F
100
AcDbEntity
  8
layer 1
 62
     7
100
AcDbSpline
210
0.0
220
0.0
230
1.0
 70
    11
 71
     3
 72
    32
 73
    28
 74
     0
 42
0.0000000001
 43
0.0000000001
 12
1.0
 22
0.0
 32
0.0
 13
1.0
 23
0.0
 33
0.0
 40
0.0
 40
0.0
 40
0.0
 40
0.0
 40
0.125
 40
0.125
 40
0.125
 40
0.125
 40
0.25
 40
0.25
 40
0.25
 40
0.25
 40
0.375
 40
0.375
 40
0.375
 40
0.375
 40
0.5
 40
0.5
 40
0.5
 40
0.5
 40
0.625
 40
0.625
 40
0.625
 40
0.625
 40
0.75
 40
0.75
 40
0.75
 40
0.75
 40
1.0
 40
1.0
 40
1.0
 40
1.0
 10
-114.7497
 20
76.0508
 30
0.0
 10
-114.7497
 20
76.8423
 30
0.0
 10
-115.1243
 20
77.9157
 30
0.0
 10
-116.0446
 20
78.145
 30
0.0
 10
-116.0446
 20
78.145
 30
0.0
 10
-117.2023
 20
78.4334
 30
0.0
 10
-118.2996
 20
77.6205
 30
0.0
 10
-118.9311
 20
76.5293
 30
0.0
 10
-118.9311
 20
76.5293
 30
0.0
 10
-120.5612
 20
76.8744
 30
0.0
 10
-121.632
 20
76.5919
 30
0.0
 10
-123.6663
 20
75.5795
 30
0.0
 10
-123.6663
 20
75.5795
 30
0.0
 10
-121.4464
 20
77.9487
 30
0.0
 10
-121.9521
 20
80.9131
 30
0.0
 10
-123.4064
 20
82.4894
 30
0.0
 10
-123.4064
 20
82.4894
 30
0.0
 10
-122.3581
 20
83.999
 30
0.0
 10
-123.3276
 20
85.9448
 30
0.0
 10
-124.0728
 20
86.6582
 30
0.0
 10
-124.0728
 20
86.6582
 30
0.0
 10
-118.6882
 20
84.1321
 30
0.0
 10
-112.3713
 20
79.021
 30
0.0
 10
-109.9291
 20
72.6875
 30
0.0
 10
-109.9291
 20
72.6875
 30
0.0
 10
-111.4773
 20
75.1027
 30
0.0
 10
-113.2343
 20
75.6325
 30
0.0
 10
-114.7497
 20
76.0508
 30
0.0
  0
SPLINE
  5
89
330
1F
100
AcDbEntity
  8
layer 1
 62
     7
100
AcDbSpline
210
0.0
220
0.0
230
1.0
 70
    11
 71
     3
 72
    64
 73
    60
 74
     0
 42
0.0000000001
 43
0.0000000001
 12
1.0
 22
0.0
 32
0.0
 13
1.0
 23
0.0
 33
0.0
 40
0.0
 40
0.0
 40
0.0
 40
0.0
 40
0.0625
 40
0.0625
 40
0.0625
 40
0.0625
 40
0.125
 40
0.125
 40
0.125
 40
0.125
 40
0.1875
 40
0.1875
 40
0.1875
 40
0.1875
 40
0.25
 40
0.25
 40
0.25
 40
0.25
 40
0.3125
 40
0.3125
 40
0.3125
 40
0.3125
 40
0.375
 40
0.375
 40
0.375
 40
0.375
 40
0.4375
 40
0.4375
 40
0.4375
 40
0.4375
 40
0.5
 40
0.5
 40
0.5
 40
0.5
 40
0.5625
 40
0.5625
 40
0.5625
 40
0.5625
 40
0.625
 40
0.625
 40
0.625
 40
0.625
 40
0.6875
 40
0.6875
 40
0.6875
 40
0.6875
 40
0.75
 40
0.75
 40
0.75
 40
0.75
 40
0.8125
 40
0.8125
 40
0.8125
 40
0.8125
 40
0.875
 40
0.875
 40
0.875
 40
0.875
 40
1.0
 40
1.0
 40
1.0
 40
1.0
 10
-77.0772
 20
92.3785
 30
0.0
 10
-77.6647
 20
89.566
 30
0.0
 10
-77.6025
 20
87.7392
 30
0.0
 10
-76.8754
 20
86.4454
 30
0.0
 10
-76.8754
 20
86.4454
 30
0.0
 10
-76.1959
 20
85.2364
 30
0.0
 10
-75.1875
 20
84.5597
 30
0.0
 10
-74.4735
 20
84.8337
 30
0.0
 10
-74.4735
 20
84.8337
 30
0.0
 10
-74.0454
 20
84.998
 30
0.0
 10
-74.0436
 20
85.0549
 30
0.0
 10
-74.4541
 20
85.4655
 30
0.0
 10
-74.4541
 20
85.4655
 30
0.0
 10
-75.0873
 20
86.0986
 30
0.0
 10
-75.0154
 20
86.9434
 30
0.0
 10
-74.2958
 20
87.3285
 30
0.0
 10
-74.2958
 20
87.3285
 30
0.0
 10
-72.8422
 20
88.1065
 30
0.0
 10
-71.4669
 20
86.2409
 30
0.0
 10
-72.2032
 20
84.4898
 30
0.0
 10
-72.2032
 20
84.4898
 30
0.0
 10
-72.415
 20
83.986
 30
0.0
 10
-72.7871
 20
83.4976
 30
0.0
 10
-73.0302
 20
83.4043
 30
0.0
 10
-73.0302
 20
83.4043
 30
0.0
 10
-73.708
 20
83.1443
 30
0.0
 10
-73.5624
 20
82.8718
 30
0.0
 10
-72.5405
 20
82.4878
 30
0.0
 10
-72.5405
 20
82.4878
 30
0.0
 10
-70.8127
 20
81.8429
 30
0.0
 10
-69.5059
 20
80.9114
 30
0.0
 10
-68.8858
 20
78.9164
 30
0.0
 10
-68.8858
 20
78.9164
 30
0.0
 10
-68.8858
 20
78.9164
 30
0.0
 10
-68.8693
 20
100.6088
 30
0.0
 10
-68.8693
 20
100.6088
 30
0.0
 10
-68.8693
 20
100.6088
 30
0.0
 10
-69.1721
 20
100.0156
 30
0.0
 10
-70.3148
 20
99.0951
 30
0.0
 10
-71.2751
 20
99.0927
 30
0.0
 10
-71.2751
 20
99.0927
 30
0.0
 10
-71.2779
 20
98.8923
 30
0.0
 10
-71.2499
 20
97.6586
 30
0.0
 10
-72.4823
 20
97.58
 30
0.0
 10
-72.4823
 20
97.58
 30
0.0
 10
-73.1906
 20
97.6404
 30
0.0
 10
-73.5389
 20
98.0946
 30
0.0
 10
-73.5915
 20
98.9957
 30
0.0
 10
-73.5915
 20
98.9957
 30
0.0
 10
-74.5526
 20
99.0794
 30
0.0
 10
-75.6422
 20
99.8433
 30
0.0
 10
-76.2391
 20
100.7364
 30
0.0
 10
-76.2391
 20
100.7364
 30
0.0
 10
-76.3024
 20
97.9257
 30
0.0
 10
-76.5009
 20
95.2392
 30
0.0
 10
-77.077
 20
92.3784
 30
0.0
 10
-77.077
 20
92.3784
 30
0.0
 10
-77.077
 20
92.3784
 30
0.0
 10
-77.0772
 20
92.3785
 30
0.0
 10
-77.0772
 20
92.3785
 30
0.0
  0
SPLINE
  5
8A
330
1F
100
AcDbEntity
  8
layer 1
 62
     7
100
AcDbSpline
210
0.0
220
0.0
230
1.0
 70
    11
 71
     3
 72
    32
 73
    28
 74
     0
 42
0.0000000001
 43
0.0000000001
 12
1.0
 22
0.0
 32
0.0
 13
1.0
 23
0.0
 33
0.0
 40
0.0
 40
0.0
 40
0.0
 40
0.0
 40
0.125
 40
0.125
 40
0.125
 40
0.125
 40
0.25
 40
0.25
 40
0.25
 40
0.25
 40
0.375
 40
0.375
 40
0.375
 40
0.375
 40
0.5
 40
0.5
 40
0.5
 40
0.5
 40
0.625
 40
0.625
 40
0.625
 40
0.625
 40
0.75
 40
0.75
 40
0.75
 40
0.75
 40
1.0
 40
1.0
 40
1.0
 40
1.0
 10
-123.066
 20
91.1518
 30
0.0
 10
-122.6341
 20
93.0327
 30
0.0
 10
-123.2133
 20
94.4954
 30
0.0
 10
-124.2729
 20
95.3057
 30
0.0
 10
-124.2729
 20
95.3057
 30
0.0
 10
-122.551
 20
94.7755
 30
0.0
 10
-121.2497
 20
94.4766
 30
0.0
 10
-119.9747
 20
93.743
 30
0.0
 10
-119.9747
 20
93.743
 30
0.0
 10
-120.3175
 20
95.6591
 30
0.0
 10
-120.761
 20
97.5437
 30
0.0
 10
-120.7694
 20
99.6483
 30
0.0
 10
-120.7694
 20
99.6483
 30
0.0
 10
-119.7321
 20
98.8262
 30
0.0
 10
-118.317
 20
98.8179
 30
0.0
 10
-117.4135
 20
99.1893
 30
0.0
 10
-117.4135
 20
99.1893
 30
0.0
 10
-116.9334
 20
93.8197
 30
0.0
 10
-114.9913
 20
90.4654
 30
0.0
 10
-113.3164
 20
86.0019
 30
0.0
 10
-113.3164
 20
86.0019
 30
0.0
 10
-117.4229
 20
89.0892
 30
0.0
 10
-120.6666
 20
90.675
 30
0.0
 10
-123.066
 20
91.1517
 30
0.0
 10
-123.066
 20
91.1517
 30
0.0
 10
-123.066
 20
91.1517
 30
0.0
 10
-123.066
 20
91.1518
 30
0.0
 10
-123.066
 20
91.1518
 30
0.0
  0
SPLINE
  5
8B
330
1F
100
AcDbEntity
  8
layer 1
 62
     7
100
AcDbSpline
210
0.0
220
0.0
230
1.0
 70
    11
 71
     3
 72
    40
 73
    36
 74
     0
 42
0.0000000001
 43
0.0000000001
 12
1.0
 22
0.0
 32
0.0
 13
1.0
 23
0.0
 33
0.0
 40
0.0
 40
0.0
 40
0.0
 40
0.0
 40
0.1
 40
0.1
 40
0.1
 40
0.1
 40
0.2
 40
0.2
 40
0.2
 40
0.2
 40
0.3
 40
0.3
 40
0.3
 40
0.3
 40
0.4
 40
0.4
 40
0.4
 40
0.4
 40
0.5
 40
0.5
 40
0.5
 40
0.5
 40
0.6
 40
0.6
 40
0.6
 40
0.6
 40
0.7
 40
0.7
 40
0.7
 40
0.7
 40
0.8
 40
0.8
 40
0.8
 40
0.8
 40
1.0
 40
1.0
 40
1.0
 40
1.0
 10
-109.8766
 20
88.4098
 30
0.0
 10
-110.6981
 20
89.0158
 30
0.0
 10
-111.8832
 20
90.6604
 30
0.0
 10
-111.8832
 20
91.1945
 30
0.0
 10
-111.8832
 20
91.1945
 30
0.0
 10
-111.8832
 20
91.4721
 30
0.0
 10
-111.6593
 20
91.4866
 30
0.0
 10
-110.9127
 20
91.2574
 30
0.0
 10
-110.9127
 20
91.2574
 30
0.0
 10
-109.527
 20
90.9637
 30
0.0
 10
-107.7289
 20
91.363
 30
0.0
 10
-107.0134
 20
92.8864
 30
0.0
 10
-107.0134
 20
92.8864
 30
0.0
 10
-104.1121
 20
94.5703
 30
0.0
 10
-103.6583
 20
97.0641
 30
0.0
 10
-104.1436
 20
99.8432
 30
0.0
 10
-104.1436
 20
99.8432
 30
0.0
 10
-102.7637
 20
99.347
 30
0.0
 10
-100.7868
 20
99.5454
 30
0.0
 10
-99.324
 20
100.4395
 30
0.0
 10
-99.324
 20
100.4395
 30
0.0
 10
-98.993
 20
99.7908
 30
0.0
 10
-98.7722
 20
99.425
 30
0.0
 10
-98.353
 20
98.6743
 30
0.0
 10
-98.353
 20
98.6743
 30
0.0
 10
-101.6753
 20
98.1357
 30
0.0
 10
-100.7618
 20
94.0626
 30
0.0
 10
-97.5403
 20
95.3408
 30
0.0
 10
-97.5403
 20
95.3408
 30
0.0
 10
-97.7487
 20
88.3296
 30
0.0
 10
-106.0291
 20
85.9853
 30
0.0
 10
-109.8766
 20
88.4096
 30
0.0
 10
-109.8766
 20
88.4096
 30
0.0
 10
-109.8766
 20
88.4096
 30
0.0
 10
-109.8766
 20
88.4098
 30
0.0
 10
-109.8766
 20
88.4098
 30
0.0
  0
SPLINE
  5
8C
330
1F
100
AcDbEntity
  8
layer 1
 62
     7
100
AcDbSpline
210
0.0
220
0.0
230
1.0
 70
    11
 71
     3
 72
    28
 73
    24
 74
     0
 42
0.0000000001
 43
0.0000000001
 12
1.0
 22
0.0
 32
0.0
 13
1.0
 23
0.0
 33
0.0
 40
0.0
 40
0.0
 40
0.0
 40
0.0
 40
0.1428571428571428
 40
0.1428571428571428
 40
0.1428571428571428
 40
0.1428571428571428
 40
0.2857142857142857
 40
0.2857142857142857
 40
0.2857142857142857
 40
0.2857142857142857
 40
0.4285714285714285
 40
0.4285714285714285
 40
0.4285714285714285
 40
0.4285714285714285
 40
0.5714285714285714
 40
0.5714285714285714
 40
0.5714285714285714
 40
0.5714285714285714
 40
0.7142857142857143
 40
0.7142857142857143
 40
0.7142857142857143
 40
0.7142857142857143
 40
1.0
 40
1.0
 40
1.0
 40
1.0
 10
-87.6454
 20
93.6155
 30
0.0
 10
-86.2733
 20
93.5237
 30
0.0
 10
-85.3485
 20
94.8234
 30
0.0
 10
-86.2506
 20
95.6408
 30
0.0
 10
-86.2506
 20
95.6408
 30
0.0
 10
-86.6495
 20
95.9719
 30
0.0
 10
-86.5833
 20
96.0778
 30
0.0
 10
-85.6916
 20
96.5354
 30
0.0
 10
-85.6916
 20
96.5354
 30
0.0
 10
-77.422
 20
102.3223
 30
0.0
 10
-80.7789
 20
112.7084
 30
0.0
 10
-85.3538
 20
119.2706
 30
0.0
 10
-85.3538
 20
119.2706
 30
0.0
 10
-80.2445
 20
115.2974
 30
0.0
 10
-78.1358
 20
108.9835
 30
0.0
 10
-78.0585
 20
104.1589
 30
0.0
 10
-78.0585
 20
104.1589
 30
0.0
 10
-78.0585
 20
98.8737
 30
0.0
 10
-78.9263
 20
96.0738
 30
0.0
 10
-81.4891
 20
93.9623
 30
0.0
 10
-81.4891
 20
93.9623
 30
0.0
 10
-83.3869
 20
92.5421
 30
0.0
 10
-85.2656
 20
92.2243
 30
0.0
 10
-87.6454
 20
93.6155
 30
0.0
  0
SPLINE
  5
8D
330
1F
100
AcDbEntity
  8
layer 1
 62
     7
100
AcDbSpline
210
0.0
220
0.0
230
1.0
 70
    11
 71
     3
 72
    20
 73
    16
 74
     0
 42
0.0000000001
 43
0.0000000001
 12
1.0
 22
0.0
 32
0.0
 13
1.0
 23
0.0
 33
0.0
 40
0.0
 40
0.0
 40
0.0
 40
0.0
 40
0.2
 40
0.2
 40
0.2
 40
0.2
 40
0.4
 40
0.4
 40
0.4
 40
0.4
 40
0.6
 40
0.6
 40
0.6
 40
0.6
 40
1.0
 40
1.0
 40
1.0
 40
1.0
 10
-112.8339
 20
98.392
 30
0.0
 10
-112.8081
 20
100.624
 30
0.0
 10
-112.6374
 20
103.2387
 30
0.0
 10
-112.0336
 20
106.2281
 30
0.0
 10
-112.0336
 20
106.2281
 30
0.0
 10
-109.6871
 20
104.2121
 30
0.0
 10
-108.1433
 20
99.1759
 30
0.0
 10
-109.2445
 20
96.0394
 30
0.0
 10
-109.2445
 20
96.0394
 30
0.0
 10
-111.2104
 20
96.6153
 30
0.0
 10
-111.955
 20
97.1632
 30
0.0
 10
-112.8339
 20
98.3921
 30
0.0
 10
-112.8339
 20
98.3921
 30
0.0
 10
-112.8339
 20
98.3921
 30
0.0
 10
-112.8339
 20
98.392
 30
0.0
 10
-112.8339
 20
98.392
 30
0.0
  0
SPLINE
  5
8E
330
1F
100
AcDbEntity
  8
layer 1
 62
     7
100
AcDbSpline
210
0.0
220
0.0
230
1.0
 70
    11
 71
     3
 72
    40
 73
    36
 74
     0
 42
0.0000000001
 43
0.0000000001
 12
1.0
 22
0.0
 32
0.0
 13
1.0
 23
0.0
 33
0.0
 40
0.0
 40
0.0
 40
0.0
 40
0.0
 40
0.1
 40
0.1
 40
0.1
 40
0.1
 40
0.2
 40
0.2
 40
0.2
 40
0.2
 40
0.3
 40
0.3
 40
0.3
 40
0.3
 40
0.4
 40
0.4
 40
0.4
 40
0.4
 40
0.5
 40
0.5
 40
0.5
 40
0.5
 40
0.6
 40
0.6
 40
0.6
 40
0.6
 40
0.7
 40
0.7
 40
0.7
 40
0.7
 40
0.8
 40
0.8
 40
0.8
 40
0.8
 40
1.0
 40
1.0
 40
1.0
 40
1.0
 10
-94.8748
 20
104.646
 30
0.0
 10
-92.492
 20
103.8752
 30
0.0
 10
-90.0391
 20
104.4858
 30
0.0
 10
-89.3938
 20
106.8515
 30
0.0
 10
-89.3938
 20
106.8515
 30
0.0
 10
-88.8373
 20
109.1455
 30
0.0
 10
-90.4925
 20
111.4773
 30
0.0
 10
-92.9367
 20
111.5863
 30
0.0
 10
-92.9367
 20
111.5863
 30
0.0
 10
-92.0386
 20
112.3423
 30
0.0
 10
-91.3882
 20
113.372
 30
0.0
 10
-91.487
 20
114.3922
 30
0.0
 10
-91.487
 20
114.3922
 30
0.0
 10
-90.9051
 20
114.3198
 30
0.0
 10
-90.2367
 20
114.639
 30
0.0
 10
-90.0409
 20
115.4719
 30
0.0
 10
-90.0409
 20
115.4719
 30
0.0
 10
-90.1049
 20
116.6191
 30
0.0
 10
-90.7245
 20
116.9518
 30
0.0
 10
-91.3988
 20
116.9612
 30
0.0
 10
-91.3988
 20
116.9612
 30
0.0
 10
-91.7153
 20
117.7891
 30
0.0
 10
-92.4739
 20
118.7675
 30
0.0
 10
-93.6926
 20
119.5324
 30
0.0
 10
-93.6926
 20
119.5324
 30
0.0
 10
-89.7187
 20
118.2313
 30
0.0
 10
-87.0211
 20
115.36
 30
0.0
 10
-85.4359
 20
111.1252
 30
0.0
 10
-85.4359
 20
111.1252
 30
0.0
 10
-83.996
 20
106.9752
 30
0.0
 10
-84.6769
 20
101.6565
 30
0.0
 10
-88.5611
 20
100.4798
 30
0.0
 10
-88.5611
 20
100.4798
 30
0.0
 10
-94.0871
 20
99.313
 30
0.0
 10
-96.5621
 20
105.1893
 30
0.0
 10
-94.8748
 20
104.646
 30
0.0
  0
SPLINE
  5
8F
330
1F
100
AcDbEntity
  8
layer 1
 62
     7
100
AcDbSpline
210
0.0
220
0.0
230
1.0
 70
    11
 71
     3
 72
    32
 73
    28
 74
     0
 42
0.0000000001
 43
0.0000000001
 12
1.0
 22
0.0
 32
0.0
 13
1.0
 23
0.0
 33
0.0
 40
0.0
 40
0.0
 40
0.0
 40
0.0
 40
0.125
 40
0.125
 40
0.125
 40
0.125
 40
0.25
 40
0.25
 40
0.25
 40
0.25
 40
0.375
 40
0.375
 40
0.375
 40
0.375
 40
0.5
 40
0.5
 40
0.5
 40
0.5
 40
0.625
 40
0.625
 40
0.625
 40
0.625
 40
0.75
 40
0.75
 40
0.75
 40
0.75
 40
1.0
 40
1.0
 40
1.0
 40
1.0
 10
-106.5794
 20
106.5565
 30
0.0
 10
-107.6122
 20
108.3293
 30
0.0
 10
-108.8234
 20
109.9549
 30
0.0
 10
-110.1185
 20
111.5354
 30
0.0
 10
-110.1185
 20
111.5354
 30
0.0
 10
-109.6373
 20
112.8695
 30
0.0
 10
-108.0617
 20
114.516
 30
0.0
 10
-106.7524
 20
115.5078
 30
0.0
 10
-106.7524
 20
115.5078
 30
0.0
 10
-104.2678
 20
112.2304
 30
0.0
 10
-102.962
 20
109.8462
 30
0.0
 10
-102.6698
 20
106.2279
 30
0.0
 10
-102.6698
 20
106.2279
 30
0.0
 10
-101.6024
 20
106.5738
 30
0.0
 10
-100.6233
 20
106.9198
 30
0.0
 10
-99.4678
 20
106.6043
 30
0.0
 10
-99.4678
 20
106.6043
 30
0.0
 10
-99.8501
 20
105.3872
 30
0.0
 10
-99.7326
 20
104.2319
 30
0.0
 10
-99.7395
 20
102.7792
 30
0.0
 10
-99.7395
 20
102.7792
 30
0.0
 10
-103.9507
 20
101.8109
 30
0.0
 10
-104.8003
 20
103.6287
 30
0.0
 10
-106.5795
 20
106.5566
 30
0.0
 10
-106.5795
 20
106.5566
 30
0.0
 10
-106.5795
 20
106.5566
 30
0.0
 10
-106.5794
 20
106.5565
 30
0.0
 10
-106.5794
 20
106.5565
 30
0.0
  0
SPLINE
  5
90
330
1F
100
AcDbEntity
  8
layer 1
 62
     7
100
AcDbSpline
210
0.0
220
0.0
230
1.0
 70
    11
 71
     3
 72
    32
 73
    28
 74
     0
 42
0.0000000001
 43
0.0000000001
 12
1.0
 22
0.0
 32
0.0
 13
1.0
 23
0.0
 33
0.0
 40
0.0
 40
0.0
 40
0.0
 40
0.0
 40
0.125
 40
0.125
 40
0.125
 40
0.125
 40
0.25
 40
0.25
 40
0.25
 40
0.25
 40
0.375
 40
0.375
 40
0.375
 40
0.375
 40
0.5
 40
0.5
 40
0.5
 40
0.5
 40
0.625
 40
0.625
 40
0.625
 40
0.625
 40
0.75
 40
0.75
 40
0.75
 40
0.75
 40
1.0
 40
1.0
 40
1.0
 40
1.0
 10
-120.3509
 20
103.7564
 30
0.0
 10
-119.8172
 20
105.5042
 30
0.0
 10
-119.9659
 20
106.0059
 30
0.0
 10
-119.2336
 20
108.5848
 30
0.0
 10
-119.2336
 20
108.5848
 30
0.0
 10
-120.5527
 20
109.7796
 30
0.0
 10
-122.3278
 20
110.4918
 30
0.0
 10
-123.9225
 20
110.8686
 30
0.0
 10
-123.9225
 20
110.8686
 30
0.0
 10
-122.8156
 20
111.6952
 30
0.0
 10
-122.5006
 20
112.4865
 30
0.0
 10
-122.3716
 20
114.2542
 30
0.0
 10
-122.3716
 20
114.2542
 30
0.0
 10
-119.9989
 20
113.3398
 30
0.0
 10
-117.5273
 20
111.686
 30
0.0
 10
-115.4584
 20
110.2409
 30
0.0
 10
-115.4584
 20
110.2409
 30
0.0
 10
-116.2383
 20
108.1983
 30
0.0
 10
-116.8233
 20
105.41
 30
0.0
 10
-117.051
 20
103.2371
 30
0.0
 10
-117.051
 20
103.2371
 30
0.0
 10
-118.111
 20
104.4991
 30
0.0
 10
-119.2134
 20
104.6897
 30
0.0
 10
-120.3509
 20
103.7563
 30
0.0
 10
-120.3509
 20
103.7563
 30
0.0
 10
-120.3509
 20
103.7563
 30
0.0
 10
-120.3509
 20
103.7564
 30
0.0
 10
-120.3509
 20
103.7564
 30
0.0
  0
SPLINE
  5
91
330
1F
100
AcDbEntity
  8
layer 1
 62
     7
100
AcDbSpline
210
0.0
220
0.0
230
1.0
 70
    11
 71
     3
 72
    60
 73
    56
 74
     0
 42
0.0000000001
 43
0.0000000001
 12
1.0
 22
0.0
 32
0.0
 13
1.0
 23
0.0
 33
0.0
 40
0.0
 40
0.0
 40
0.0
 40
0.0
 40
0.0666666666666667
 40
0.0666666666666667
 40
0.0666666666666667
 40
0.0666666666666667
 40
0.1333333333333333
 40
0.1333333333333333
 40
0.1333333333333333
 40
0.1333333333333333
 40
0.2
 40
0.2
 40
0.2
 40
0.2
 40
0.2666666666666667
 40
0.2666666666666667
 40
0.2666666666666667
 40
0.2666666666666667
 40
0.3333333333333333
 40
0.3333333333333333
 40
0.3333333333333333
 40
0.3333333333333333
 40
0.4
 40
0.4
 40
0.4
 40
0.4
 40
0.4666666666666667
 40
0.4666666666666667
 40
0.4666666666666667
 40
0.4666666666666667
 40
0.5333333333333333
 40
0.5333333333333333
 40
0.5333333333333333
 40
0.5333333333333333
 40
0.6
 40
0.6
 40
0.6
 40
0.6
 40
0.6666666666666666
 40
0.6666666666666666
 40
0.6666666666666666
 40
0.6666666666666666
 40
0.7333333333333333
 40
0.7333333333333333
 40
0.7333333333333333
 40
0.7333333333333333
 40
0.8
 40
0.8
 40
0.8
 40
0.8
 40
0.8666666666666667
 40
0.8666666666666667
 40
0.8666666666666667
 40
0.8666666666666667
 40
1.0
 40
1.0
 40
1.0
 40
1.0
 10
-71.308
 20
106.4184
 30
0.0
 10
-71.3109
 20
106.6188
 30
0.0
 10
-71.2828
 20
107.8524
 30
0.0
 10
-72.5153
 20
107.9311
 30
0.0
 10
-72.5153
 20
107.9311
 30
0.0
 10
-73.2235
 20
107.8707
 30
0.0
 10
-73.5718
 20
107.4165
 30
0.0
 10
-73.6245
 20
106.5154
 30
0.0
 10
-73.6245
 20
106.5154
 30
0.0
 10
-74.3205
 20
106.4582
 30
0.0
 10
-75.2246
 20
105.9858
 30
0.0
 10
-75.8186
 20
105.2022
 30
0.0
 10
-75.8186
 20
105.2022
 30
0.0
 10
-76.4359
 20
111.0657
 30
0.0
 10
-77.8936
 20
114.2927
 30
0.0
 10
-80.9463
 20
117.9806
 30
0.0
 10
-80.9463
 20
117.9806
 30
0.0
 10
-80.9463
 20
117.9806
 30
0.0
 10
-79.3664
 20
117.9806
 30
0.0
 10
-79.3664
 20
117.9806
 30
0.0
 10
-79.3664
 20
117.9806
 30
0.0
 10
-77.9043
 20
117.9806
 30
0.0
 10
-77.7536
 20
117.9171
 30
0.0
 10
-77.3462
 20
117.1292
 30
0.0
 10
-77.3462
 20
117.1292
 30
0.0
 10
-76.8272
 20
116.1255
 30
0.0
 10
-76.108
 20
115.6858
 30
0.0
 10
-74.9957
 20
115.6918
 30
0.0
 10
-74.9957
 20
115.6918
 30
0.0
 10
-73.7846
 20
115.6984
 30
0.0
 10
-73.2382
 20
116.1399
 30
0.0
 10
-74.1561
 20
116.3702
 30
0.0
 10
-74.1561
 20
116.3702
 30
0.0
 10
-74.9721
 20
116.7387
 30
0.0
 10
-75.5168
 20
117.3703
 30
0.0
 10
-75.7569
 20
118.0926
 30
0.0
 10
-75.7569
 20
118.0926
 30
0.0
 10
-72.0022
 20
118.2551
 30
0.0
 10
-70.0729
 20
123.6507
 30
0.0
 10
-72.4896
 20
126.5467
 30
0.0
 10
-72.4896
 20
126.5467
 30
0.0
 10
-72.4896
 20
126.5467
 30
0.0
 10
-68.8856
 20
126.5801
 30
0.0
 10
-68.8856
 20
126.5801
 30
0.0
 10
-68.8856
 20
126.5801
 30
0.0
 10
-68.8856
 20
119.3076
 30
0.0
 10
-68.8856
 20
112.0349
 30
0.0
 10
-68.8856
 20
104.7624
 30
0.0
 10
-68.8856
 20
104.7624
 30
0.0
 10
-69.2048
 20
105.4955
 30
0.0
 10
-70.3475
 20
106.416
 30
0.0
 10
-71.3078
 20
106.4184
 30
0.0
 10
-71.3078
 20
106.4184
 30
0.0
 10
-71.3078
 20
106.4184
 30
0.0
 10
-71.308
 20
106.4184
 30
0.0
 10
-71.308
 20
106.4184
 30
0.0
  0
SPLINE
  5
92
330
1F
100
AcDbEntity
  8
layer 1
 62
     7
100
AcDbSpline
210
0.0
220
0.0
230
1.0
 70
    11
 71
     3
 72
    40
 73
    36
 74
     0
 42
0.0000000001
 43
0.0000000001
 12
1.0
 22
0.0
 32
0.0
 13
1.0
 23
0.0
 33
0.0
 40
0.0
 40
0.0
 40
0.0
 40
0.0
 40
0.1
 40
0.1
 40
0.1
 40
0.1
 40
0.2
 40
0.2
 40
0.2
 40
0.2
 40
0.3
 40
0.3
 40
0.3
 40
0.3
 40
0.4
 40
0.4
 40
0.4
 40
0.4
 40
0.5
 40
0.5
 40
0.5
 40
0.5
 40
0.6
 40
0.6
 40
0.6
 40
0.6
 40
0.7
 40
0.7
 40
0.7
 40
0.7
 40
0.8
 40
0.8
 40
0.8
 40
0.8
 40
1.0
 40
1.0
 40
1.0
 40
1.0
 10
-98.9605
 20
108.2353
 30
0.0
 10
-99.7577
 20
108.4083
 30
0.0
 10
-100.4284
 20
108.4532
 30
0.0
 10
-101.4132
 20
108.4874
 30
0.0
 10
-101.4132
 20
108.4874
 30
0.0
 10
-101.6436
 20
112.2092
 30
0.0
 10
-103.9415
 20
114.1742
 30
0.0
 10
-105.2903
 20
116.9428
 30
0.0
 10
-105.2903
 20
116.9428
 30
0.0
 10
-103.3554
 20
118.3485
 30
0.0
 10
-100.5707
 20
118.9586
 30
0.0
 10
-98.3415
 20
119.6178
 30
0.0
 10
-98.3415
 20
119.6178
 30
0.0
 10
-99.2626
 20
118.8655
 30
0.0
 10
-99.8308
 20
117.4663
 30
0.0
 10
-99.7321
 20
116.4463
 30
0.0
 10
-99.7321
 20
116.4463
 30
0.0
 10
-100.314
 20
116.5187
 30
0.0
 10
-101.3109
 20
116.0763
 30
0.0
 10
-101.2399
 20
115.2025
 30
0.0
 10
-101.2399
 20
115.2025
 30
0.0
 10
-101.3195
 20
114.1169
 30
0.0
 10
-100.5357
 20
113.8046
 30
0.0
 10
-99.7588
 20
113.7336
 30
0.0
 10
-99.7588
 20
113.7336
 30
0.0
 10
-99.4423
 20
112.5569
 30
0.0
 10
-98.2938
 20
111.127
 30
0.0
 10
-96.3985
 20
110.7464
 30
0.0
 10
-96.3985
 20
110.7464
 30
0.0
 10
-97.6426
 20
110.2242
 30
0.0
 10
-98.3293
 20
109.4088
 30
0.0
 10
-98.9606
 20
108.2352
 30
0.0
 10
-98.9606
 20
108.2352
 30
0.0
 10
-98.9606
 20
108.2352
 30
0.0
 10
-98.9605
 20
108.2353
 30
0.0
 10
-98.9605
 20
108.2353
 30
0.0
  0
SPLINE
  5
93
330
1F
100
AcDbEntity
  8
layer 1
 62
     7
100
AcDbSpline
210
0.0
220
0.0
230
1.0
 70
    11
 71
     3
 72
    32
 73
    28
 74
     0
 42
0.0000000001
 43
0.0000000001
 12
1.0
 22
0.0
 32
0.0
 13
1.0
 23
0.0
 33
0.0
 40
0.0
 40
0.0
 40
0.0
 40
0.0
 40
0.125
 40
0.125
 40
0.125
 40
0.125
 40
0.25
 40
0.25
 40
0.25
 40
0.25
 40
0.375
 40
0.375
 40
0.375
 40
0.375
 40
0.5
 40
0.5
 40
0.5
 40
0.5
 40
0.625
 40
0.625
 40
0.625
 40
0.625
 40
0.75
 40
0.75
 40
0.75
 40
0.75
 40
1.0
 40
1.0
 40
1.0
 40
1.0
 10
-113.3164
 20
122.4965
 30
0.0
 10
-113.5792
 20
123.8521
 30
0.0
 10
-113.8067
 20
125.1411
 30
0.0
 10
-114.4403
 20
126.5469
 30
0.0
 10
-114.4403
 20
126.5469
 30
0.0
 10
-114.4403
 20
126.5469
 30
0.0
 10
-98.16
 20
126.5803
 30
0.0
 10
-98.16
 20
126.5803
 30
0.0
 10
-98.16
 20
126.5803
 30
0.0
 10
-98.16
 20
126.5803
 30
0.0
 10
-98.3297
 20
125.5054
 30
0.0
 10
-98.3297
 20
125.5054
 30
0.0
 10
-98.3297
 20
125.5054
 30
0.0
 10
-98.5164
 20
124.3216
 30
0.0
 10
-98.8116
 20
124.0115
 30
0.0
 10
-99.7573
 20
124.0049
 30
0.0
 10
-99.7573
 20
124.0049
 30
0.0
 10
-103.2355
 20
123.481
 30
0.0
 10
-105.8216
 20
121.4232
 30
0.0
 10
-108.7613
 20
119.9883
 30
0.0
 10
-108.7613
 20
119.9883
 30
0.0
 10
-110.6731
 20
121.2437
 30
0.0
 10
-111.8892
 20
122.0683
 30
0.0
 10
-113.3163
 20
122.4967
 30
0.0
 10
-113.3163
 20
122.4967
 30
0.0
 10
-113.3163
 20
122.4967
 30
0.0
 10
-113.3164
 20
122.4965
 30
0.0
 10
-113.3164
 20
122.4965
 30
0.0
  0
SPLINE
  5
94
330
1F
100
AcDbEntity
  8
layer 1
 62
     7
100
AcDbSpline
210
0.0
220
0.0
230
1.0
 70
    11
 71
     3
 72
    36
 73
    32
 74
     0
 42
0.0000000001
 43
0.0000000001
 12
1.0
 22
0.0
 32
0.0
 13
1.0
 23
0.0
 33
0.0
 40
0.0
 40
0.0
 40
0.0
 40
0.0
 40
0.1111111111111111
 40
0.1111111111111111
 40
0.1111111111111111
 40
0.1111111111111111
 40
0.2222222222222222
 40
0.2222222222222222
 40
0.2222222222222222
 40
0.2222222222222222
 40
0.3333333333333333
 40
0.3333333333333333
 40
0.3333333333333333
 40
0.3333333333333333
 40
0.4444444444444444
 40
0.4444444444444444
 40
0.4444444444444444
 40
0.4444444444444444
 40
0.5555555555555556
 40
0.5555555555555556
 40
0.5555555555555556
 40
0.5555555555555556
 40
0.6666666666666666
 40
0.6666666666666666
 40
0.6666666666666666
 40
0.6666666666666666
 40
0.7777777777777778
 40
0.7777777777777778
 40
0.7777777777777778
 40
0.7777777777777778
 40
1.0
 40
1.0
 40
1.0
 40
1.0
 10
-82.768
 20
121.4281
 30
0.0
 10
-84.3629
 20
122.273
 30
0.0
 10
-85.502
 20
122.6547
 30
0.0
 10
-87.0205
 20
122.8528
 30
0.0
 10
-87.0205
 20
122.8528
 30
0.0
 10
-88.1612
 20
123.0015
 30
0.0
 10
-89.4924
 20
123.241
 30
0.0
 10
-89.9785
 20
123.3848
 30
0.0
 10
-89.9785
 20
123.3848
 30
0.0
 10
-91.4583
 20
123.7428
 30
0.0
 10
-92.7386
 20
123.8641
 30
0.0
 10
-94.2542
 20
124.0401
 30
0.0
 10
-94.2542
 20
124.0401
 30
0.0
 10
-94.2542
 20
124.8867
 30
0.0
 10
-94.2542
 20
125.7335
 30
0.0
 10
-94.2542
 20
126.5802
 30
0.0
 10
-94.2542
 20
126.5802
 30
0.0
 10
-87.8123
 20
126.5802
 30
0.0
 10
-81.3703
 20
126.5802
 30
0.0
 10
-74.9284
 20
126.5802
 30
0.0
 10
-74.9284
 20
126.5802
 30
0.0
 10
-74.9284
 20
126.5802
 30
0.0
 10
-74.603
 20
125.494
 30
0.0
 10
-74.603
 20
125.494
 30
0.0
 10
-74.603
 20
125.494
 30
0.0
 10
-73.9712
 20
123.3852
 30
0.0
 10
-75.2853
 20
120.9794
 30
0.0
 10
-77.3419
 20
120.4797
 30
0.0
 10
-77.3419
 20
120.4797
 30
0.0
 10
-79.1734
 20
120.0347
 30
0.0
 10
-80.6133
 20
120.2864
 30
0.0
 10
-82.768
 20
121.4281
 30
0.0
  0
SPLINE
  5
95
330
1F
100
AcDbEntity
  8
layer 1
 62
     7
100
AcDbSpline
210
0.0
220
0.0
230
1.0
 70
    11
 71
     3
 72
    20
 73
    16
 74
     0
 42
0.0000000001
 43
0.0000000001
 12
1.0
 22
0.0
 32
0.0
 13
1.0
 23
0.0
 33
0.0
 40
0.0
 40
0.0
 40
0.0
 40
0.0
 40
0.2
 40
0.2
 40
0.2
 40
0.2
 40
0.4
 40
0.4
 40
0.4
 40
0.4
 40
0.6
 40
0.6
 40
0.6
 40
0.6
 40
1.0
 40
1.0
 40
1.0
 40
1.0
 10
-98.4007
 20
115.3387
 30
0.0
 10
-98.4007
 20
113.8447
 30
0.0
 10
-97.1896
 20
112.6336
 30
0.0
 10
-95.6956
 20
112.6336
 30
0.0
 10
-95.6956
 20
112.6336
 30
0.0
 10
-94.2016
 20
112.6336
 30
0.0
 10
-92.9905
 20
113.8447
 30
0.0
 10
-92.9905
 20
115.3387
 30
0.0
 10
-92.9905
 20
115.3387
 30
0.0
 10
-92.9905
 20
116.8328
 30
0.0
 10
-94.2016
 20
118.0439
 30
0.0
 10
-95.6956
 20
118.0439
 30
0.0
 10
-95.6956
 20
118.0439
 30
0.0
 10
-97.1896
 20
118.0439
 30
0.0
 10
-98.4007
 20
116.8328
 30
0.0
 10
-98.4007
 20
115.3387
 30
0.0
  0
SPLINE
  5
96
330
1F
100
AcDbEntity
  8
layer 1
 62
     7
100
AcDbSpline
210
0.0
220
0.0
230
1.0
 70
    11
 71
     3
 72
    20
 73
    16
 74
     0
 42
0.0000000001
 43
0.0000000001
 12
1.0
 22
0.0
 32
0.0
 13
1.0
 23
0.0
 33
0.0
 40
0.0
 40
0.0
 40
0.0
 40
0.0
 40
0.2
 40
0.2
 40
0.2
 40
0.2
 40
0.4
 40
0.4
 40
0.4
 40
0.4
 40
0.6
 40
0.6
 40
0.6
 40
0.6
 40
1.0
 40
1.0
 40
1.0
 40
1.0
 10
-149.9902
 20
-52.6733
 30
0.0
 10
-149.9902
 20
-51.8757
 30
0.0
 10
-150.6368
 20
-51.229
 30
0.0
 10
-151.4345
 20
-51.229
 30
0.0
 10
-151.4345
 20
-51.229
 30
0.0
 10
-152.2321
 20
-51.229
 30
0.0
 10
-152.8787
 20
-51.8756
 30
0.0
 10
-152.8787
 20
-52.6733
 30
0.0
 10
-152.8787
 20
-52.6733
 30
0.0
 10
-152.8787
 20
-53.4709
 30
0.0
 10
-152.2322
 20
-54.1176
 30
0.0
 10
-151.4345
 20
-54.1176
 30
0.0
 10
-151.4345
 20
-54.1176
 30
0.0
 10
-150.6369
 20
-54.1176
 30
0.0
 10
-149.9902
 20
-53.471
 30
0.0
 10
-149.9902
 20
-52.6733
 30
0.0
  0
SPLINE
  5
97
330
1F
100
AcDbEntity
  8
layer 1
 62
     7
100
AcDbSpline
210
0.0
220
0.0
230
1.0
 70
    11
 71
     3
 72
    20
 73
    16
 74
     0
 42
0.0000000001
 43
0.0000000001
 12
1.0
 22
0.0
 32
0.0
 13
1.0
 23
0.0
 33
0.0
 40
0.0
 40
0.0
 40
0.0
 40
0.0
 40
0.2
 40
0.2
 40
0.2
 40
0.2
 40
0.4
 40
0.4
 40
0.4
 40
0.4
 40
0.6
 40
0.6
 40
0.6
 40
0.6
 40
1.0
 40
1.0
 40
1.0
 40
1.0
 10
-176.5956
 20
-86.1519
 30
0.0
 10
-176.5956
 20
-85.0102
 30
0.0
 10
-177.5211
 20
-84.0847
 30
0.0
 10
-178.6627
 20
-84.0847
 30
0.0
 10
-178.6627
 20
-84.0847
 30
0.0
 10
-179.8044
 20
-84.0847
 30
0.0
 10
-180.7298
 20
-85.0103
 30
0.0
 10
-180.7298
 20
-86.1519
 30
0.0
 10
-180.7298
 20
-86.1519
 30
0.0
 10
-180.7298
 20
-87.2935
 30
0.0
 10
-179.8043
 20
-88.219
 30
0.0
 10
-178.6627
 20
-88.219
 30
0.0
 10
-178.6627
 20
-88.219
 30
0.0
 10
-177.521
 20
-88.219
 30
0.0
 10
-176.5956
 20
-87.2934
 30
0.0
 10
-176.5956
 20
-86.1519
 30
0.0
  0
SPLINE
  5
98
330
1F
100
AcDbEntity
  8
layer 1
 62
     7
100
AcDbSpline
210
0.0
220
0.0
230
1.0
 70
    11
 71
     3
 72
    28
 73
    24
 74
     0
 42
0.0000000001
 43
0.0000000001
 12
1.0
 22
0.0
 32
0.0
 13
1.0
 23
0.0
 33
0.0
 40
0.0
 40
0.0
 40
0.0
 40
0.0
 40
0.1428571428571428
 40
0.1428571428571428
 40
0.1428571428571428
 40
0.1428571428571428
 40
0.2857142857142857
 40
0.2857142857142857
 40
0.2857142857142857
 40
0.2857142857142857
 40
0.4285714285714285
 40
0.4285714285714285
 40
0.4285714285714285
 40
0.4285714285714285
 40
0.5714285714285714
 40
0.5714285714285714
 40
0.5714285714285714
 40
0.5714285714285714
 40
0.7142857142857143
 40
0.7142857142857143
 40
0.7142857142857143
 40
0.7142857142857143
 40
1.0
 40
1.0
 40
1.0
 40
1.0
 10
-135.5887
 20
1.4922
 30
0.0
 10
-133.8602
 20
1.9129
 30
0.0
 10
-131.4185
 20
3.9928
 30
0.0
 10
-130.7454
 20
5.5414
 30
0.0
 10
-130.7454
 20
5.5414
 30
0.0
 10
-130.9752
 20
6.1403
 30
0.0
 10
-131.104
 20
7.2068
 30
0.0
 10
-131.1107
 20
8.3269
 30
0.0
 10
-131.1107
 20
8.3269
 30
0.0
 10
-131.104
 20
9.4469
 30
0.0
 10
-130.9752
 20
10.5134
 30
0.0
 10
-130.7454
 20
11.1124
 30
0.0
 10
-130.7454
 20
11.1124
 30
0.0
 10
-131.4185
 20
12.661
 30
0.0
 10
-133.8602
 20
14.7408
 30
0.0
 10
-135.5887
 20
15.1616
 30
0.0
 10
-135.5887
 20
15.1616
 30
0.0
 10
-135.4427
 20
12.2947
 30
0.0
 10
-135.4591
 20
10.3691
 30
0.0
 10
-136.3371
 20
8.3269
 30
0.0
 10
-136.3371
 20
8.3269
 30
0.0
 10
-135.4591
 20
6.2848
 30
0.0
 10
-135.4427
 20
4.359
 30
0.0
 10
-135.5887
 20
1.4922
 30
0.0
  0
SPLINE
  5
99
330
1F
100
AcDbEntity
  8
layer 1
 62
     7
100
AcDbSpline
210
0.0
220
0.0
230
1.0
 70
    11
 71
     3
 72
    72
 73
    68
 74
     0
 42
0.0000000001
 43
0.0000000001
 12
1.0
 22
0.0
 32
0.0
 13
1.0
 23
0.0
 33
0.0
 40
0.0
 40
0.0
 40
0.0
 40
0.0
 40
0.0555555555555556
 40
0.0555555555555556
 40
0.0555555555555556
 40
0.0555555555555556
 40
0.1111111111111111
 40
0.1111111111111111
 40
0.1111111111111111
 40
0.1111111111111111
 40
0.1666666666666667
 40
0.1666666666666667
 40
0.1666666666666667
 40
0.1666666666666667
 40
0.2222222222222222
 40
0.2222222222222222
 40
0.2222222222222222
 40
0.2222222222222222
 40
0.2777777777777778
 40
0.2777777777777778
 40
0.2777777777777778
 40
0.2777777777777778
 40
0.3333333333333333
 40
0.3333333333333333
 40
0.3333333333333333
 40
0.3333333333333333
 40
0.3888888888888889
 40
0.3888888888888889
 40
0.3888888888888889
 40
0.3888888888888889
 40
0.4444444444444444
 40
0.4444444444444444
 40
0.4444444444444444
 40
0.4444444444444444
 40
0.5
 40
0.5
 40
0.5
 40
0.5
 40
0.5555555555555556
 40
0.5555555555555556
 40
0.5555555555555556
 40
0.5555555555555556
 40
0.6111111111111112
 40
0.6111111111111112
 40
0.6111111111111112
 40
0.6111111111111112
 40
0.6666666666666666
 40
0.6666666666666666
 40
0.6666666666666666
 40
0.6666666666666666
 40
0.7222222222222222
 40
0.7222222222222222
 40
0.7222222222222222
 40
0.7222222222222222
 40
0.7777777777777778
 40
0.7777777777777778
 40
0.7777777777777778
 40
0.7777777777777778
 40
0.8333333333333334
 40
0.8333333333333334
 40
0.8333333333333334
 40
0.8333333333333334
 40
0.8888888888888888
 40
0.8888888888888888
 40
0.8888888888888888
 40
0.8888888888888888
 40
1.0
 40
1.0
 40
1.0
 40
1.0
 10
-153.7948
 20
7.025
 30
0.0
 10
-153.5919
 20
3.3678
 30
0.0
 10
-153.574
 20
-0.5443
 30
0.0
 10
-152.1054
 20
-3.6305
 30
0.0
 10
-152.1054
 20
-3.6305
 30
0.0
 10
-157.9715
 20
-2.1441
 30
0.0
 10
-157.2933
 20
-8.4544
 30
0.0
 10
-156.9315
 20
-10.3459
 30
0.0
 10
-156.9315
 20
-10.3459
 30
0.0
 10
-157.5519
 20
-10.4504
 30
0.0
 10
-157.994
 20
-9.664
 30
0.0
 10
-158.8316
 20
-9.0259
 30
0.0
 10
-158.8316
 20
-9.0259
 30
0.0
 10
-159.3779
 20
-11.2998
 30
0.0
 10
-158.0234
 20
-13.9841
 30
0.0
 10
-156.3411
 20
-14.9354
 30
0.0
 10
-156.3411
 20
-14.9354
 30
0.0
 10
-155.5018
 20
-15.3694
 30
0.0
 10
-155.4639
 20
-15.4395
 30
0.0
 10
-155.9729
 20
-15.6181
 30
0.0
 10
-155.9729
 20
-15.6181
 30
0.0
 10
-158.2579
 20
-16.7773
 30
0.0
 10
-161.113
 20
-14.8977
 30
0.0
 10
-162.8249
 20
-13.4309
 30
0.0
 10
-162.8249
 20
-13.4309
 30
0.0
 10
-161.6928
 20
-12.6899
 30
0.0
 10
-161.4691
 20
-11.2122
 30
0.0
 10
-161.7078
 20
-10.4603
 30
0.0
 10
-161.7078
 20
-10.4603
 30
0.0
 10
-163.1887
 20
-8.4267
 30
0.0
 10
-165.3862
 20
-7.3852
 30
0.0
 10
-164.5822
 20
-4.9413
 30
0.0
 10
-164.5822
 20
-4.9413
 30
0.0
 10
-164.1847
 20
-3.7877
 30
0.0
 10
-164.2956
 20
-3.6861
 30
0.0
 10
-165.4018
 20
-4.1901
 30
0.0
 10
-165.4018
 20
-4.1901
 30
0.0
 10
-166.8659
 20
-5.2142
 30
0.0
 10
-166.513
 20
-6.5975
 30
0.0
 10
-167.0264
 20
-7.8787
 30
0.0
 10
-167.0264
 20
-7.8787
 30
0.0
 10
-167.3677
 20
-7.8799
 30
0.0
 10
-168.4392
 20
-3.901
 30
0.0
 10
-168.6177
 20
-1.9691
 30
0.0
 10
-168.6177
 20
-1.9691
 30
0.0
 10
-168.8784
 20
0.8501
 30
0.0
 10
-168.4016
 20
2.6556
 30
0.0
 10
-166.9659
 20
4.2868
 30
0.0
 10
-166.9659
 20
4.2868
 30
0.0
 10
-163.3344
 20
8.3268
 30
0.0
 10
-158.5932
 20
4.8276
 30
0.0
 10
-159.6363
 20
2.9922
 30
0.0
 10
-159.6363
 20
2.9922
 30
0.0
 10
-162.4925
 20
4.803
 30
0.0
 10
-163.9716
 20
1.4285
 30
0.0
 10
-162.4469
 20
-0.1618
 30
0.0
 10
-162.4469
 20
-0.1618
 30
0.0
 10
-159.0368
 20
-3.1383
 30
0.0
 10
-154.6912
 20
2.3127
 30
0.0
 10
-158.3338
 20
5.8799
 30
0.0
 10
-158.3338
 20
5.8799
 30
0.0
 10
-156.6074
 20
5.2722
 30
0.0
 10
-155.4833
 20
5.5128
 30
0.0
 10
-153.7949
 20
7.025
 30
0.0
 10
-153.7949
 20
7.025
 30
0.0
 10
-153.7949
 20
7.025
 30
0.0
 10
-153.7948
 20
7.025
 30
0.0
 10
-153.7948
 20
7.025
 30
0.0
  0
SPLINE
  5
9A
330
1F
100
AcDbEntity
  8
layer 1
 62
     7
100
AcDbSpline
210
0.0
220
0.0
230
1.0
 70
    11
 71
     3
 72
    60
 73
    56
 74
     0
 42
0.0000000001
 43
0.0000000001
 12
1.0
 22
0.0
 32
0.0
 13
1.0
 23
0.0
 33
0.0
 40
0.0
 40
0.0
 40
0.0
 40
0.0
 40
0.0666666666666667
 40
0.0666666666666667
 40
0.0666666666666667
 40
0.0666666666666667
 40
0.1333333333333333
 40
0.1333333333333333
 40
0.1333333333333333
 40
0.1333333333333333
 40
0.2
 40
0.2
 40
0.2
 40
0.2
 40
0.2666666666666667
 40
0.2666666666666667
 40
0.2666666666666667
 40
0.2666666666666667
 40
0.3333333333333333
 40
0.3333333333333333
 40
0.3333333333333333
 40
0.3333333333333333
 40
0.4
 40
0.4
 40
0.4
 40
0.4
 40
0.4666666666666667
 40
0.4666666666666667
 40
0.4666666666666667
 40
0.4666666666666667
 40
0.5333333333333333
 40
0.5333333333333333
 40
0.5333333333333333
 40
0.5333333333333333
 40
0.6
 40
0.6
 40
0.6
 40
0.6
 40
0.6666666666666666
 40
0.6666666666666666
 40
0.6666666666666666
 40
0.6666666666666666
 40
0.7333333333333333
 40
0.7333333333333333
 40
0.7333333333333333
 40
0.7333333333333333
 40
0.8
 40
0.8
 40
0.8
 40
0.8
 40
0.8666666666666667
 40
0.8666666666666667
 40
0.8666666666666667
 40
0.8666666666666667
 40
1.0
 40
1.0
 40
1.0
 40
1.0
 10
-172.7389
 20
7.0265
 30
0.0
 10
-171.8882
 20
6.2562
 30
0.0
 10
-172.3379
 20
5.1934
 30
0.0
 10
-173.3792
 20
4.1084
 30
0.0
 10
-173.3792
 20
4.1084
 30
0.0
 10
-170.8935
 20
3.148
 30
0.0
 10
-169.275
 20
7.928
 30
0.0
 10
-167.3636
 20
6.7866
 30
0.0
 10
-167.3636
 20
6.7866
 30
0.0
 10
-173.6982
 20
-0.3278
 30
0.0
 10
-168.4546
 20
-8.6172
 30
0.0
 10
-168.9432
 20
-8.5281
 30
0.0
 10
-168.9432
 20
-8.5281
 30
0.0
 10
-169.9879
 20
-8.5153
 30
0.0
 10
-171.318
 20
-9.0408
 30
0.0
 10
-171.8468
 20
-9.856
 30
0.0
 10
-171.8468
 20
-9.856
 30
0.0
 10
-167.6694
 20
-10.5873
 30
0.0
 10
-169.2179
 20
-11.9792
 30
0.0
 10
-166.6657
 20
-15.2597
 30
0.0
 10
-166.6657
 20
-15.2597
 30
0.0
 10
-166.2311
 20
-15.7833
 30
0.0
 10
-164.8951
 20
-15.4012
 30
0.0
 10
-164.2673
 20
-14.7734
 30
0.0
 10
-164.2673
 20
-14.7734
 30
0.0
 10
-163.0125
 20
-15.7731
 30
0.0
 10
-161.0402
 20
-16.8097
 30
0.0
 10
-159.9142
 20
-17.3587
 30
0.0
 10
-159.9142
 20
-17.3587
 30
0.0
 10
-162.5465
 20
-19.3735
 30
0.0
 10
-163.8905
 20
-21.1015
 30
0.0
 10
-164.3862
 20
-21.7836
 30
0.0
 10
-164.3862
 20
-21.7836
 30
0.0
 10
-164.9173
 20
-22.4983
 30
0.0
 10
-166.6316
 20
-23.2596
 30
0.0
 10
-167.5846
 20
-23.0231
 30
0.0
 10
-167.5846
 20
-23.0231
 30
0.0
 10
-167.1178
 20
-23.776
 30
0.0
 10
-165.9346
 20
-24.4955
 30
0.0
 10
-164.8503
 20
-23.7037
 30
0.0
 10
-164.8503
 20
-23.7037
 30
0.0
 10
-165.659
 20
-25.3832
 30
0.0
 10
-166.3842
 20
-28.089
 30
0.0
 10
-165.7053
 20
-30.1561
 30
0.0
 10
-165.7053
 20
-30.1561
 30
0.0
 10
-168.9211
 20
-27.1614
 30
0.0
 10
-178.0487
 20
-9.4172
 30
0.0
 10
-178.0282
 20
7.3133
 30
0.0
 10
-178.0282
 20
7.3133
 30
0.0
 10
-176.8965
 20
7.4034
 30
0.0
 10
-173.8398
 20
7.5279
 30
0.0
 10
-172.739
 20
7.0266
 30
0.0
 10
-172.739
 20
7.0266
 30
0.0
 10
-172.739
 20
7.0266
 30
0.0
 10
-172.7389
 20
7.0265
 30
0.0
 10
-172.7389
 20
7.0265
 30
0.0
  0
SPLINE
  5
9B
330
1F
100
AcDbEntity
  8
layer 1
 62
     7
100
AcDbSpline
210
0.0
220
0.0
230
1.0
 70
    11
 71
     3
 72
    28
 73
    24
 74
     0
 42
0.0000000001
 43
0.0000000001
 12
1.0
 22
0.0
 32
0.0
 13
1.0
 23
0.0
 33
0.0
 40
0.0
 40
0.0
 40
0.0
 40
0.0
 40
0.1428571428571428
 40
0.1428571428571428
 40
0.1428571428571428
 40
0.1428571428571428
 40
0.2857142857142857
 40
0.2857142857142857
 40
0.2857142857142857
 40
0.2857142857142857
 40
0.4285714285714285
 40
0.4285714285714285
 40
0.4285714285714285
 40
0.4285714285714285
 40
0.5714285714285714
 40
0.5714285714285714
 40
0.5714285714285714
 40
0.5714285714285714
 40
0.7142857142857143
 40
0.7142857142857143
 40
0.7142857142857143
 40
0.7142857142857143
 40
1.0
 40
1.0
 40
1.0
 40
1.0
 10
-127.5061
 20
1.9702
 30
0.0
 10
-129.6587
 20
0.0451
 30
0.0
 10
-130.8192
 20
-3.5081
 30
0.0
 10
-130.8013
 20
-4.8391
 30
0.0
 10
-130.8013
 20
-4.8391
 30
0.0
 10
-129.132
 20
-4.926
 30
0.0
 10
-126.7074
 20
-5.6806
 30
0.0
 10
-125.5447
 20
-6.6933
 30
0.0
 10
-125.5447
 20
-6.6933
 30
0.0
 10
-124.382
 20
-5.6805
 30
0.0
 10
-121.9573
 20
-4.926
 30
0.0
 10
-120.288
 20
-4.8391
 30
0.0
 10
-120.288
 20
-4.8391
 30
0.0
 10
-120.2701
 20
-3.5082
 30
0.0
 10
-121.4307
 20
0.0451
 30
0.0
 10
-123.5833
 20
1.9702
 30
0.0
 10
-123.5833
 20
1.9702
 30
0.0
 10
-123.8487
 20
1.8437
 30
0.0
 10
-124.7108
 20
1.7498
 30
0.0
 10
-125.5447
 20
1.7614
 30
0.0
 10
-125.5447
 20
1.7614
 30
0.0
 10
-126.3786
 20
1.7497
 30
0.0
 10
-127.2406
 20
1.8436
 30
0.0
 10
-127.5061
 20
1.9702
 30
0.0
  0
SPLINE
  5
9C
330
1F
100
AcDbEntity
  8
layer 1
 62
     7
100
AcDbSpline
210
0.0
220
0.0
230
1.0
 70
    11
 71
     3
 72
    20
 73
    16
 74
     0
 42
0.0000000001
 43
0.0000000001
 12
1.0
 22
0.0
 32
0.0
 13
1.0
 23
0.0
 33
0.0
 40
0.0
 40
0.0
 40
0.0
 40
0.0
 40
0.2
 40
0.2
 40
0.2
 40
0.2
 40
0.4
 40
0.4
 40
0.4
 40
0.4
 40
0.6
 40
0.6
 40
0.6
 40
0.6
 40
1.0
 40
1.0
 40
1.0
 40
1.0
 10
-138.0596
 20
-1.8633
 30
0.0
 10
-138.7299
 20
-5.4547
 30
0.0
 10
-139.572
 20
-6.7962
 30
0.0
 10
-140.4719
 20
-8.9286
 30
0.0
 10
-140.4719
 20
-8.9286
 30
0.0
 10
-141.5004
 20
-8.9936
 30
0.0
 10
-142.9123
 20
-9.5734
 30
0.0
 10
-143.9297
 20
-10.6518
 30
0.0
 10
-143.9297
 20
-10.6518
 30
0.0
 10
-146.4637
 20
-6.4368
 30
0.0
 10
-147.3806
 20
-2.9304
 30
0.0
 10
-148.1546
 20
1.6506
 30
0.0
 10
-148.1546
 20
1.6506
 30
0.0
 10
-145.4558
 20
-0.7885
 30
0.0
 10
-141.3286
 20
-2.1019
 30
0.0
 10
-138.0596
 20
-1.8633
 30
0.0
  0
SPLINE
  5
9D
330
1F
100
AcDbEntity
  8
layer 1
 62
     7
100
AcDbSpline
210
0.0
220
0.0
230
1.0
 70
    11
 71
     3
 72
    24
 73
    20
 74
     0
 42
0.0000000001
 43
0.0000000001
 12
1.0
 22
0.0
 32
0.0
 13
1.0
 23
0.0
 33
0.0
 40
0.0
 40
0.0
 40
0.0
 40
0.0
 40
0.1666666666666667
 40
0.1666666666666667
 40
0.1666666666666667
 40
0.1666666666666667
 40
0.3333333333333333
 40
0.3333333333333333
 40
0.3333333333333333
 40
0.3333333333333333
 40
0.5
 40
0.5
 40
0.5
 40
0.5
 40
0.6666666666666666
 40
0.6666666666666666
 40
0.6666666666666666
 40
0.6666666666666666
 40
1.0
 40
1.0
 40
1.0
 40
1.0
 10
-131.9274
 20
0.3124
 30
0.0
 10
-132.981
 20
-1.8795
 30
0.0
 10
-133.0701
 20
-2.8018
 30
0.0
 10
-133.5407
 20
-4.5375
 30
0.0
 10
-133.5407
 20
-4.5375
 30
0.0
 10
-134.9358
 20
-4.6351
 30
0.0
 10
-136.0387
 20
-5.4679
 30
0.0
 10
-137.3253
 20
-6.1309
 30
0.0
 10
-137.3253
 20
-6.1309
 30
0.0
 10
-136.7821
 20
-4.858
 30
0.0
 10
-136.1997
 20
-3.4731
 30
0.0
 10
-136.1606
 20
-1.9142
 30
0.0
 10
-136.1606
 20
-1.9142
 30
0.0
 10
-134.783
 20
-1.5695
 30
0.0
 10
-133.4502
 20
-0.6485
 30
0.0
 10
-131.9275
 20
0.3123
 30
0.0
 10
-131.9275
 20
0.3123
 30
0.0
 10
-131.9275
 20
0.3123
 30
0.0
 10
-131.9274
 20
0.3124
 30
0.0
 10
-131.9274
 20
0.3124
 30
0.0
  0
SPLINE
  5
9E
330
1F
100
AcDbEntity
  8
layer 1
 62
     7
100
AcDbSpline
210
0.0
220
0.0
230
1.0
 70
    11
 71
     3
 72
    28
 73
    24
 74
     0
 42
0.0000000001
 43
0.0000000001
 12
1.0
 22
0.0
 32
0.0
 13
1.0
 23
0.0
 33
0.0
 40
0.0
 40
0.0
 40
0.0
 40
0.0
 40
0.1428571428571428
 40
0.1428571428571428
 40
0.1428571428571428
 40
0.1428571428571428
 40
0.2857142857142857
 40
0.2857142857142857
 40
0.2857142857142857
 40
0.2857142857142857
 40
0.4285714285714285
 40
0.4285714285714285
 40
0.4285714285714285
 40
0.4285714285714285
 40
0.5714285714285714
 40
0.5714285714285714
 40
0.5714285714285714
 40
0.5714285714285714
 40
0.7142857142857143
 40
0.7142857142857143
 40
0.7142857142857143
 40
0.7142857142857143
 40
1.0
 40
1.0
 40
1.0
 40
1.0
 10
-171.786
 20
-32.1235
 30
0.0
 10
-172.841
 20
-31.7133
 30
0.0
 10
-175.495
 20
-31.4031
 30
0.0
 10
-176.3122
 20
-31.4851
 30
0.0
 10
-176.3122
 20
-31.4851
 30
0.0
 10
-176.5927
 20
-29.4435
 30
0.0
 10
-177.1211
 20
-28.0438
 30
0.0
 10
-179.1938
 20
-27.1477
 30
0.0
 10
-179.1938
 20
-27.1477
 30
0.0
 10
-178.7087
 20
-28.9576
 30
0.0
 10
-178.4001
 20
-30.7675
 30
0.0
 10
-179.1938
 20
-32.445
 30
0.0
 10
-179.1938
 20
-32.445
 30
0.0
 10
-180.7813
 20
-32.9073
 30
0.0
 10
-181.6906
 20
-33.7885
 30
0.0
 10
-182.2365
 20
-35.7199
 30
0.0
 10
-182.2365
 20
-35.7199
 30
0.0
 10
-182.2365
 20
-35.7199
 30
0.0
 10
-182.2365
 20
-6.8759
 30
0.0
 10
-182.2365
 20
-6.8759
 30
0.0
 10
-182.2365
 20
-6.8759
 30
0.0
 10
-179.6179
 20
-17.0839
 30
0.0
 10
-176.0722
 20
-25.8032
 30
0.0
 10
-171.786
 20
-32.1235
 30
0.0
  0
SPLINE
  5
9F
330
1F
100
AcDbEntity
  8
layer 1
 62
     7
100
AcDbSpline
210
0.0
220
0.0
230
1.0
 70
    11
 71
     3
 72
    16
 73
    12
 74
     0
 42
0.0000000001
 43
0.0000000001
 12
1.0
 22
0.0
 32
0.0
 13
1.0
 23
0.0
 33
0.0
 40
0.0
 40
0.0
 40
0.0
 40
0.0
 40
0.25
 40
0.25
 40
0.25
 40
0.25
 40
0.5
 40
0.5
 40
0.5
 40
0.5
 40
1.0
 40
1.0
 40
1.0
 40
1.0
 10
-146.659
 20
-15.184
 30
0.0
 10
-150.9411
 20
-16.0715
 30
0.0
 10
-156.008
 20
-12.329
 30
0.0
 10
-154.6022
 20
-8.1417
 30
0.0
 10
-154.6022
 20
-8.1417
 30
0.0
 10
-153.0985
 20
-9.4812
 30
0.0
 10
-151.6148
 20
-8.7282
 30
0.0
 10
-151.0333
 20
-7.0289
 30
0.0
 10
-151.0333
 20
-7.0289
 30
0.0
 10
-150.5869
 20
-9.8731
 30
0.0
 10
-148.8093
 20
-12.7106
 30
0.0
 10
-146.659
 20
-15.184
 30
0.0
  0
SPLINE
  5
A0
330
1F
100
AcDbEntity
  8
layer 1
 62
     7
100
AcDbSpline
210
0.0
220
0.0
230
1.0
 70
    11
 71
     3
 72
    20
 73
    16
 74
     0
 42
0.0000000001
 43
0.0000000001
 12
1.0
 22
0.0
 32
0.0
 13
1.0
 23
0.0
 33
0.0
 40
0.0
 40
0.0
 40
0.0
 40
0.0
 40
0.2
 40
0.2
 40
0.2
 40
0.2
 40
0.4
 40
0.4
 40
0.4
 40
0.4
 40
0.6
 40
0.6
 40
0.6
 40
0.6
 40
1.0
 40
1.0
 40
1.0
 40
1.0
 10
-128.4563
 20
-21.5902
 30
0.0
 10
-132.6503
 20
-21.1484
 30
0.0
 10
-138.8541
 20
-16.5999
 30
0.0
 10
-141.1954
 20
-13.9863
 30
0.0
 10
-141.1954
 20
-13.9863
 30
0.0
 10
-139.9993
 20
-12.8399
 30
0.0
 10
-139.6693
 20
-11.5427
 30
0.0
 10
-139.5786
 20
-10.2511
 30
0.0
 10
-139.5786
 20
-10.2511
 30
0.0
 10
-137.7737
 20
-8.5433
 30
0.0
 10
-135.9916
 20
-8.1515
 30
0.0
 10
-133.9031
 20
-7.0563
 30
0.0
 10
-133.9031
 20
-7.0563
 30
0.0
 10
-134.3443
 20
-12.482
 30
0.0
 10
-131.5101
 20
-17.5434
 30
0.0
 10
-128.4563
 20
-21.5902
 30
0.0
  0
SPLINE
  5
A1
330
1F
100
AcDbEntity
  8
layer 1
 62
     7
100
AcDbSpline
210
0.0
220
0.0
230
1.0
 70
    11
 71
     3
 72
    20
 73
    16
 74
     0
 42
0.0000000001
 43
0.0000000001
 12
1.0
 22
0.0
 32
0.0
 13
1.0
 23
0.0
 33
0.0
 40
0.0
 40
0.0
 40
0.0
 40
0.0
 40
0.2
 40
0.2
 40
0.2
 40
0.2
 40
0.4
 40
0.4
 40
0.4
 40
0.4
 40
0.6
 40
0.6
 40
0.6
 40
0.6
 40
1.0
 40
1.0
 40
1.0
 40
1.0
 10
-131.18
 20
-6.9555
 30
0.0
 10
-131.7697
 20
-11.1732
 30
0.0
 10
-128.7417
 20
-17.3455
 30
0.0
 10
-125.5447
 20
-18.7675
 30
0.0
 10
-125.5447
 20
-18.7675
 30
0.0
 10
-122.3477
 20
-17.3455
 30
0.0
 10
-119.3197
 20
-11.1732
 30
0.0
 10
-119.9094
 20
-6.9555
 30
0.0
 10
-119.9094
 20
-6.9555
 30
0.0
 10
-122.0372
 20
-7.3172
 30
0.0
 10
-123.7462
 20
-7.9529
 30
0.0
 10
-125.5447
 20
-9.3045
 30
0.0
 10
-125.5447
 20
-9.3045
 30
0.0
 10
-127.3431
 20
-7.9529
 30
0.0
 10
-129.0522
 20
-7.3173
 30
0.0
 10
-131.18
 20
-6.9555
 30
0.0
  0
SPLINE
  5
A2
330
1F
100
AcDbEntity
  8
layer 1
 62
     7
100
AcDbSpline
210
0.0
220
0.0
230
1.0
 70
    11
 71
     3
 72
    36
 73
    32
 74
     0
 42
0.0000000001
 43
0.0000000001
 12
1.0
 22
0.0
 32
0.0
 13
1.0
 23
0.0
 33
0.0
 40
0.0
 40
0.0
 40
0.0
 40
0.0
 40
0.1111111111111111
 40
0.1111111111111111
 40
0.1111111111111111
 40
0.1111111111111111
 40
0.2222222222222222
 40
0.2222222222222222
 40
0.2222222222222222
 40
0.2222222222222222
 40
0.3333333333333333
 40
0.3333333333333333
 40
0.3333333333333333
 40
0.3333333333333333
 40
0.4444444444444444
 40
0.4444444444444444
 40
0.4444444444444444
 40
0.4444444444444444
 40
0.5555555555555556
 40
0.5555555555555556
 40
0.5555555555555556
 40
0.5555555555555556
 40
0.6666666666666666
 40
0.6666666666666666
 40
0.6666666666666666
 40
0.6666666666666666
 40
0.7777777777777778
 40
0.7777777777777778
 40
0.7777777777777778
 40
0.7777777777777778
 40
1.0
 40
1.0
 40
1.0
 40
1.0
 10
-152.4293
 20
-18.2371
 30
0.0
 10
-151.7462
 20
-18.3577
 30
0.0
 10
-151.3238
 20
-18.5657
 30
0.0
 10
-152.4558
 20
-19.1981
 30
0.0
 10
-152.4558
 20
-19.1981
 30
0.0
 10
-158.2421
 20
-22.4381
 30
0.0
 10
-158.1388
 20
-30.5559
 30
0.0
 10
-154.0598
 20
-34.1549
 30
0.0
 10
-154.0598
 20
-34.1549
 30
0.0
 10
-156.7736
 20
-34.5082
 30
0.0
 10
-157.9593
 20
-37.8725
 30
0.0
 10
-155.8051
 20
-40.2939
 30
0.0
 10
-155.8051
 20
-40.2939
 30
0.0
 10
-158.9771
 20
-38.8278
 30
0.0
 10
-161.4359
 20
-35.8407
 30
0.0
 10
-163.3027
 20
-33.8212
 30
0.0
 10
-163.3027
 20
-33.8212
 30
0.0
 10
-161.7195
 20
-33.7883
 30
0.0
 10
-160.6473
 20
-32.7183
 30
0.0
 10
-160.7722
 20
-31.4895
 30
0.0
 10
-160.7722
 20
-31.4895
 30
0.0
 10
-160.804
 20
-30.1951
 30
0.0
 10
-162.4608
 20
-29.6626
 30
0.0
 10
-164.0012
 20
-29.808
 30
0.0
 10
-164.0012
 20
-29.808
 30
0.0
 10
-163.9295
 20
-21.4288
 30
0.0
 10
-157.3806
 20
-17.4807
 30
0.0
 10
-152.4292
 20
-18.2372
 30
0.0
 10
-152.4292
 20
-18.2372
 30
0.0
 10
-152.4292
 20
-18.2372
 30
0.0
 10
-152.4293
 20
-18.2371
 30
0.0
 10
-152.4293
 20
-18.2371
 30
0.0
  0
SPLINE
  5
A3
330
1F
100
AcDbEntity
  8
layer 1
 62
     7
100
AcDbSpline
210
0.0
220
0.0
230
1.0
 70
    11
 71
     3
 72
    48
 73
    44
 74
     0
 42
0.0000000001
 43
0.0000000001
 12
1.0
 22
0.0
 32
0.0
 13
1.0
 23
0.0
 33
0.0
 40
0.0
 40
0.0
 40
0.0
 40
0.0
 40
0.0833333333333333
 40
0.0833333333333333
 40
0.0833333333333333
 40
0.0833333333333333
 40
0.1666666666666667
 40
0.1666666666666667
 40
0.1666666666666667
 40
0.1666666666666667
 40
0.25
 40
0.25
 40
0.25
 40
0.25
 40
0.3333333333333333
 40
0.3333333333333333
 40
0.3333333333333333
 40
0.3333333333333333
 40
0.4166666666666667
 40
0.4166666666666667
 40
0.4166666666666667
 40
0.4166666666666667
 40
0.5
 40
0.5
 40
0.5
 40
0.5
 40
0.5833333333333334
 40
0.5833333333333334
 40
0.5833333333333334
 40
0.5833333333333334
 40
0.6666666666666666
 40
0.6666666666666666
 40
0.6666666666666666
 40
0.6666666666666666
 40
0.75
 40
0.75
 40
0.75
 40
0.75
 40
0.8333333333333334
 40
0.8333333333333334
 40
0.8333333333333334
 40
0.8333333333333334
 40
1.0
 40
1.0
 40
1.0
 40
1.0
 10
-145.433
 20
-21.6557
 30
0.0
 10
-141.2709
 20
-22.8114
 30
0.0
 10
-139.4465
 20
-29.7464
 30
0.0
 10
-141.9843
 20
-34.7656
 30
0.0
 10
-141.9843
 20
-34.7656
 30
0.0
 10
-144.7371
 20
-39.2497
 30
0.0
 10
-147.7465
 20
-40.4854
 30
0.0
 10
-152.2487
 20
-40.9075
 30
0.0
 10
-152.2487
 20
-40.9075
 30
0.0
 10
-150.6399
 20
-39.6086
 30
0.0
 10
-150.4968
 20
-37.5728
 30
0.0
 10
-150.9588
 20
-36.1597
 30
0.0
 10
-150.9588
 20
-36.1597
 30
0.0
 10
-148.7756
 20
-36.5496
 30
0.0
 10
-146.6611
 20
-35.9651
 30
0.0
 10
-145.3499
 20
-34.7579
 30
0.0
 10
-145.3499
 20
-34.7579
 30
0.0
 10
-144.3333
 20
-33.9583
 30
0.0
 10
-143.2252
 20
-31.5278
 30
0.0
 10
-143.2238
 20
-30.0946
 30
0.0
 10
-143.2238
 20
-30.0946
 30
0.0
 10
-142.7713
 20
-24.1169
 30
0.0
 10
-150.2177
 20
-24.4301
 30
0.0
 10
-150.3845
 20
-28.6321
 30
0.0
 10
-150.3845
 20
-28.6321
 30
0.0
 10
-150.3828
 20
-29.9574
 30
0.0
 10
-149.4092
 20
-31.3649
 30
0.0
 10
-148.3468
 20
-31.5773
 30
0.0
 10
-148.3468
 20
-31.5773
 30
0.0
 10
-147.6179
 20
-31.7231
 30
0.0
 10
-147.7882
 20
-31.9617
 30
0.0
 10
-148.1734
 20
-32.1773
 30
0.0
 10
-148.1734
 20
-32.1773
 30
0.0
 10
-149.7337
 20
-32.7568
 30
0.0
 10
-151.1279
 20
-31.9933
 30
0.0
 10
-151.9558
 20
-30.8206
 30
0.0
 10
-151.9558
 20
-30.8206
 30
0.0
 10
-155.2581
 20
-26.0553
 30
0.0
 10
-151.0221
 20
-20.1037
 30
0.0
 10
-145.4331
 20
-21.6558
 30
0.0
 10
-145.4331
 20
-21.6558
 30
0.0
 10
-145.4331
 20
-21.6558
 30
0.0
 10
-145.433
 20
-21.6557
 30
0.0
 10
-145.433
 20
-21.6557
 30
0.0
  0
SPLINE
  5
A4
330
1F
100
AcDbEntity
  8
layer 1
 62
     7
100
AcDbSpline
210
0.0
220
0.0
230
1.0
 70
    11
 71
     3
 72
    28
 73
    24
 74
     0
 42
0.0000000001
 43
0.0000000001
 12
1.0
 22
0.0
 32
0.0
 13
1.0
 23
0.0
 33
0.0
 40
0.0
 40
0.0
 40
0.0
 40
0.0
 40
0.1428571428571428
 40
0.1428571428571428
 40
0.1428571428571428
 40
0.1428571428571428
 40
0.2857142857142857
 40
0.2857142857142857
 40
0.2857142857142857
 40
0.2857142857142857
 40
0.4285714285714285
 40
0.4285714285714285
 40
0.4285714285714285
 40
0.4285714285714285
 40
0.5714285714285714
 40
0.5714285714285714
 40
0.5714285714285714
 40
0.5714285714285714
 40
0.7142857142857143
 40
0.7142857142857143
 40
0.7142857142857143
 40
0.7142857142857143
 40
1.0
 40
1.0
 40
1.0
 40
1.0
 10
-127.4437
 20
-27.1681
 30
0.0
 10
-127.1449
 20
-27.9478
 30
0.0
 10
-126.9235
 20
-28.3366
 30
0.0
 10
-126.7303
 20
-28.9563
 30
0.0
 10
-126.7303
 20
-28.9563
 30
0.0
 10
-127.1882
 20
-29.7441
 30
0.0
 10
-127.5266
 20
-30.4651
 30
0.0
 10
-128.1237
 20
-31.3769
 30
0.0
 10
-128.1237
 20
-31.3769
 30
0.0
 10
-129.3044
 20
-27.8049
 30
0.0
 10
-134.1654
 20
-26.3314
 30
0.0
 10
-137.3936
 20
-28.2133
 30
0.0
 10
-137.3936
 20
-28.2133
 30
0.0
 10
-137.5412
 20
-25.8038
 30
0.0
 10
-138.1478
 20
-24.5171
 30
0.0
 10
-140.1829
 20
-21.925
 30
0.0
 10
-140.1829
 20
-21.925
 30
0.0
 10
-138.0051
 20
-25.3745
 30
0.0
 10
-128.9352
 20
-27.0267
 30
0.0
 10
-127.4438
 20
-27.168
 30
0.0
 10
-127.4438
 20
-27.168
 30
0.0
 10
-127.4438
 20
-27.168
 30
0.0
 10
-127.4437
 20
-27.1681
 30
0.0
 10
-127.4437
 20
-27.1681
 30
0.0
  0
SPLINE
  5
A5
330
1F
100
AcDbEntity
  8
layer 1
 62
     7
100
AcDbSpline
210
0.0
220
0.0
230
1.0
 70
    11
 71
     3
 72
    36
 73
    32
 74
     0
 42
0.0000000001
 43
0.0000000001
 12
1.0
 22
0.0
 32
0.0
 13
1.0
 23
0.0
 33
0.0
 40
0.0
 40
0.0
 40
0.0
 40
0.0
 40
0.1111111111111111
 40
0.1111111111111111
 40
0.1111111111111111
 40
0.1111111111111111
 40
0.2222222222222222
 40
0.2222222222222222
 40
0.2222222222222222
 40
0.2222222222222222
 40
0.3333333333333333
 40
0.3333333333333333
 40
0.3333333333333333
 40
0.3333333333333333
 40
0.4444444444444444
 40
0.4444444444444444
 40
0.4444444444444444
 40
0.4444444444444444
 40
0.5555555555555556
 40
0.5555555555555556
 40
0.5555555555555556
 40
0.5555555555555556
 40
0.6666666666666666
 40
0.6666666666666666
 40
0.6666666666666666
 40
0.6666666666666666
 40
0.7777777777777778
 40
0.7777777777777778
 40
0.7777777777777778
 40
0.7777777777777778
 40
1.0
 40
1.0
 40
1.0
 40
1.0
 10
-132.1963
 20
-29.784
 30
0.0
 10
-129.7464
 20
-30.9559
 30
0.0
 10
-129.6491
 20
-32.9973
 30
0.0
 10
-130.6676
 20
-34.9005
 30
0.0
 10
-130.6676
 20
-34.9005
 30
0.0
 10
-131.5677
 20
-33.6319
 30
0.0
 10
-132.8455
 20
-33.0844
 30
0.0
 10
-134.056
 20
-33.8296
 30
0.0
 10
-134.056
 20
-33.8296
 30
0.0
 10
-134.9628
 20
-34.6322
 30
0.0
 10
-134.8262
 20
-36.043
 30
0.0
 10
-133.8183
 20
-36.8177
 30
0.0
 10
-133.8183
 20
-36.8177
 30
0.0
 10
-136.1547
 20
-36.6897
 30
0.0
 10
-137.8908
 20
-37.5449
 30
0.0
 10
-139.4928
 20
-38.6624
 30
0.0
 10
-139.4928
 20
-38.6624
 30
0.0
 10
-138.0025
 20
-36.468
 30
0.0
 10
-137.5222
 20
-33.9063
 30
0.0
 10
-137.4862
 20
-31.4586
 30
0.0
 10
-137.4862
 20
-31.4586
 30
0.0
 10
-137.4862
 20
-30.2696
 30
0.0
 10
-137.3815
 20
-29.9883
 30
0.0
 10
-136.8413
 20
-29.7279
 30
0.0
 10
-136.8413
 20
-29.7279
 30
0.0
 10
-135.9114
 20
-29.2794
 30
0.0
 10
-133.3293
 20
-29.3106
 30
0.0
 10
-132.1963
 20
-29.7841
 30
0.0
 10
-132.1963
 20
-29.7841
 30
0.0
 10
-132.1963
 20
-29.7841
 30
0.0
 10
-132.1963
 20
-29.784
 30
0.0
 10
-132.1963
 20
-29.784
 30
0.0
  0
SPLINE
  5
A6
330
1F
100
AcDbEntity
  8
layer 1
 62
     7
100
AcDbSpline
210
0.0
220
0.0
230
1.0
 70
    11
 71
     3
 72
    20
 73
    16
 74
     0
 42
0.0000000001
 43
0.0000000001
 12
1.0
 22
0.0
 32
0.0
 13
1.0
 23
0.0
 33
0.0
 40
0.0
 40
0.0
 40
0.0
 40
0.0
 40
0.2
 40
0.2
 40
0.2
 40
0.2
 40
0.4
 40
0.4
 40
0.4
 40
0.4
 40
0.6
 40
0.6
 40
0.6
 40
0.6
 40
1.0
 40
1.0
 40
1.0
 40
1.0
 10
-126.4991
 20
-42.9939
 30
0.0
 10
-127.6394
 20
-40.4819
 30
0.0
 10
-129.0106
 20
-38.6111
 30
0.0
 10
-131.4946
 20
-37.6225
 30
0.0
 10
-131.4946
 20
-37.6225
 30
0.0
 10
-128.9158
 20
-37.2639
 30
0.0
 10
-127.9656
 20
-36.1508
 30
0.0
 10
-127.7907
 20
-34.251
 30
0.0
 10
-127.7907
 20
-34.251
 30
0.0
 10
-126.3829
 20
-37.0047
 30
0.0
 10
-126.4858
 20
-40.5376
 30
0.0
 10
-126.4993
 20
-42.9939
 30
0.0
 10
-126.4993
 20
-42.9939
 30
0.0
 10
-126.4993
 20
-42.9939
 30
0.0
 10
-126.4991
 20
-42.9939
 30
0.0
 10
-126.4991
 20
-42.9939
 30
0.0
  0
SPLINE
  5
A7
330
1F
100
AcDbEntity
  8
layer 1
 62
     7
100
AcDbSpline
210
0.0
220
0.0
230
1.0
 70
    11
 71
     3
 72
    56
 73
    52
 74
     0
 42
0.0000000001
 43
0.0000000001
 12
1.0
 22
0.0
 32
0.0
 13
1.0
 23
0.0
 33
0.0
 40
0.0
 40
0.0
 40
0.0
 40
0.0
 40
0.0714285714285714
 40
0.0714285714285714
 40
0.0714285714285714
 40
0.0714285714285714
 40
0.1428571428571428
 40
0.1428571428571428
 40
0.1428571428571428
 40
0.1428571428571428
 40
0.2142857142857143
 40
0.2142857142857143
 40
0.2142857142857143
 40
0.2142857142857143
 40
0.2857142857142857
 40
0.2857142857142857
 40
0.2857142857142857
 40
0.2857142857142857
 40
0.3571428571428572
 40
0.3571428571428572
 40
0.3571428571428572
 40
0.3571428571428572
 40
0.4285714285714285
 40
0.4285714285714285
 40
0.4285714285714285
 40
0.4285714285714285
 40
0.5
 40
0.5
 40
0.5
 40
0.5
 40
0.5714285714285714
 40
0.5714285714285714
 40
0.5714285714285714
 40
0.5714285714285714
 40
0.6428571428571429
 40
0.6428571428571429
 40
0.6428571428571429
 40
0.6428571428571429
 40
0.7142857142857143
 40
0.7142857142857143
 40
0.7142857142857143
 40
0.7142857142857143
 40
0.7857142857142857
 40
0.7857142857142857
 40
0.7857142857142857
 40
0.7857142857142857
 40
0.8571428571428571
 40
0.8571428571428571
 40
0.8571428571428571
 40
0.8571428571428571
 40
1.0
 40
1.0
 40
1.0
 40
1.0
 10
-172.4354
 20
-35.9497
 30
0.0
 10
-172.0827
 20
-36.3486
 30
0.0
 10
-172.3032
 20
-36.7539
 30
0.0
 10
-172.9591
 20
-36.5713
 30
0.0
 10
-172.9591
 20
-36.5713
 30
0.0
 10
-175.685
 20
-35.8119
 30
0.0
 10
-177.604
 20
-38.8947
 30
0.0
 10
-175.6326
 20
-40.866
 30
0.0
 10
-175.6326
 20
-40.866
 30
0.0
 10
-172.4613
 20
-43.6745
 30
0.0
 10
-168.5936
 20
-40.8562
 30
0.0
 10
-168.7562
 20
-35.9708
 30
0.0
 10
-168.7562
 20
-35.9708
 30
0.0
 10
-166.0093
 20
-39.6437
 30
0.0
 10
-162.0199
 20
-44.4863
 30
0.0
 10
-161.7599
 20
-46.0153
 30
0.0
 10
-161.7599
 20
-46.0153
 30
0.0
 10
-163.3909
 20
-44.6989
 30
0.0
 10
-165.2385
 20
-44.1051
 30
0.0
 10
-166.9567
 20
-45.7243
 30
0.0
 10
-166.9567
 20
-45.7243
 30
0.0
 10
-167.6641
 20
-46.4333
 30
0.0
 10
-168.4444
 20
-46.266
 30
0.0
 10
-168.4444
 20
-45.4133
 30
0.0
 10
-168.4444
 20
-45.4133
 30
0.0
 10
-168.4444
 20
-45.1073
 30
0.0
 10
-168.5676
 20
-44.8569
 30
0.0
 10
-168.718
 20
-44.8569
 30
0.0
 10
-168.718
 20
-44.8569
 30
0.0
 10
-169.0627
 20
-44.8569
 30
0.0
 10
-169.4251
 20
-46.7086
 30
0.0
 10
-169.1968
 20
-47.3034
 30
0.0
 10
-169.1968
 20
-47.3034
 30
0.0
 10
-168.9957
 20
-48.364
 30
0.0
 10
-169.1394
 20
-49.1707
 30
0.0
 10
-169.6837
 20
-50.2056
 30
0.0
 10
-169.6837
 20
-50.2056
 30
0.0
 10
-172.1353
 20
-48.6397
 30
0.0
 10
-175.0529
 20
-47.5411
 30
0.0
 10
-177.197
 20
-45.5789
 30
0.0
 10
-177.197
 20
-45.5789
 30
0.0
 10
-178.4252
 20
-44.4193
 30
0.0
 10
-179.3464
 20
-42.4095
 30
0.0
 10
-179.5163
 20
-40.5189
 30
0.0
 10
-179.5163
 20
-40.5189
 30
0.0
 10
-180.2529
 20
-34.008
 30
0.0
 10
-174.5591
 20
-32.7751
 30
0.0
 10
-172.4353
 20
-35.9496
 30
0.0
 10
-172.4353
 20
-35.9496
 30
0.0
 10
-172.4353
 20
-35.9496
 30
0.0
 10
-172.4354
 20
-35.9497
 30
0.0
 10
-172.4354
 20
-35.9497
 30
0.0
  0
SPLINE
  5
A8
330
1F
100
AcDbEntity
  8
layer 1
 62
     7
100
AcDbSpline
210
0.0
220
0.0
230
1.0
 70
    11
 71
     3
 72
    48
 73
    44
 74
     0
 42
0.0000000001
 43
0.0000000001
 12
1.0
 22
0.0
 32
0.0
 13
1.0
 23
0.0
 33
0.0
 40
0.0
 40
0.0
 40
0.0
 40
0.0
 40
0.0833333333333333
 40
0.0833333333333333
 40
0.0833333333333333
 40
0.0833333333333333
 40
0.1666666666666667
 40
0.1666666666666667
 40
0.1666666666666667
 40
0.1666666666666667
 40
0.25
 40
0.25
 40
0.25
 40
0.25
 40
0.3333333333333333
 40
0.3333333333333333
 40
0.3333333333333333
 40
0.3333333333333333
 40
0.4166666666666667
 40
0.4166666666666667
 40
0.4166666666666667
 40
0.4166666666666667
 40
0.5
 40
0.5
 40
0.5
 40
0.5
 40
0.5833333333333334
 40
0.5833333333333334
 40
0.5833333333333334
 40
0.5833333333333334
 40
0.6666666666666666
 40
0.6666666666666666
 40
0.6666666666666666
 40
0.6666666666666666
 40
0.75
 40
0.75
 40
0.75
 40
0.75
 40
0.8333333333333334
 40
0.8333333333333334
 40
0.8333333333333334
 40
0.8333333333333334
 40
1.0
 40
1.0
 40
1.0
 40
1.0
 10
-131.6453
 20
-40.2958
 30
0.0
 10
-129.5743
 20
-41.336
 30
0.0
 10
-128.3792
 20
-42.3564
 30
0.0
 10
-127.9752
 20
-44.4701
 30
0.0
 10
-127.9752
 20
-44.4701
 30
0.0
 10
-129.9637
 20
-44.5794
 30
0.0
 10
-132.1237
 20
-44.1909
 30
0.0
 10
-132.3265
 20
-46.0176
 30
0.0
 10
-132.3265
 20
-46.0176
 30
0.0
 10
-130.6529
 20
-48.3515
 30
0.0
 10
-129.1785
 20
-50.4895
 30
0.0
 10
-130.2884
 20
-53.0266
 30
0.0
 10
-130.2884
 20
-53.0266
 30
0.0
 10
-131.2419
 20
-55.0925
 30
0.0
 10
-132.7454
 20
-56.0364
 30
0.0
 10
-135.0826
 20
-56.0364
 30
0.0
 10
-135.0826
 20
-56.0364
 30
0.0
 10
-137.325
 20
-56.0364
 30
0.0
 10
-138.6126
 20
-54.9261
 30
0.0
 10
-138.2976
 20
-53.2642
 30
0.0
 10
-138.2976
 20
-53.2642
 30
0.0
 10
-138.2284
 20
-52.8992
 30
0.0
 10
-137.894
 20
-52.7113
 30
0.0
 10
-137.1973
 20
-52.6458
 30
0.0
 10
-137.1973
 20
-52.6458
 30
0.0
 10
-135.8725
 20
-52.5213
 30
0.0
 10
-135.1931
 20
-51.865
 30
0.0
 10
-135.1931
 20
-50.7096
 30
0.0
 10
-135.1931
 20
-50.7096
 30
0.0
 10
-136.2328
 20
-46.7764
 30
0.0
 10
-140.4675
 20
-48.1219
 30
0.0
 10
-141.9525
 20
-51.1743
 30
0.0
 10
-141.9525
 20
-51.1743
 30
0.0
 10
-141.7053
 20
-47.4479
 30
0.0
 10
-140.6166
 20
-44.5842
 30
0.0
 10
-138.6595
 20
-42.4684
 30
0.0
 10
-138.6595
 20
-42.4684
 30
0.0
 10
-136.6414
 20
-40.3158
 30
0.0
 10
-134.2455
 20
-39.5737
 30
0.0
 10
-131.6453
 20
-40.2956
 30
0.0
 10
-131.6453
 20
-40.2956
 30
0.0
 10
-131.6453
 20
-40.2956
 30
0.0
 10
-131.6453
 20
-40.2958
 30
0.0
 10
-131.6453
 20
-40.2958
 30
0.0
  0
SPLINE
  5
A9
330
1F
100
AcDbEntity
  8
layer 1
 62
     7
100
AcDbSpline
210
0.0
220
0.0
230
1.0
 70
    11
 71
     3
 72
    16
 73
    12
 74
     0
 42
0.0000000001
 43
0.0000000001
 12
1.0
 22
0.0
 32
0.0
 13
1.0
 23
0.0
 33
0.0
 40
0.0
 40
0.0
 40
0.0
 40
0.0
 40
0.25
 40
0.25
 40
0.25
 40
0.25
 40
0.5
 40
0.5
 40
0.5
 40
0.5
 40
1.0
 40
1.0
 40
1.0
 40
1.0
 10
-175.8166
 20
-50.1223
 30
0.0
 10
-178.129
 20
-50.6782
 30
0.0
 10
-180.8886
 20
-53.4228
 30
0.0
 10
-182.2365
 20
-56.2448
 30
0.0
 10
-182.2365
 20
-56.2448
 30
0.0
 10
-182.2365
 20
-56.2448
 30
0.0
 10
-182.2365
 20
-44.078
 30
0.0
 10
-182.2365
 20
-44.078
 30
0.0
 10
-182.2365
 20
-44.078
 30
0.0
 10
-180.7998
 20
-47.5134
 30
0.0
 10
-177.893
 20
-49.3222
 30
0.0
 10
-175.8166
 20
-50.1223
 30
0.0
  0
SPLINE
  5
AA
330
1F
100
AcDbEntity
  8
layer 1
 62
     7
100
AcDbSpline
210
0.0
220
0.0
230
1.0
 70
    11
 71
     3
 72
    24
 73
    20
 74
     0
 42
0.0000000001
 43
0.0000000001
 12
1.0
 22
0.0
 32
0.0
 13
1.0
 23
0.0
 33
0.0
 40
0.0
 40
0.0
 40
0.0
 40
0.0
 40
0.1666666666666667
 40
0.1666666666666667
 40
0.1666666666666667
 40
0.1666666666666667
 40
0.3333333333333333
 40
0.3333333333333333
 40
0.3333333333333333
 40
0.3333333333333333
 40
0.5
 40
0.5
 40
0.5
 40
0.5
 40
0.6666666666666666
 40
0.6666666666666666
 40
0.6666666666666666
 40
0.6666666666666666
 40
1.0
 40
1.0
 40
1.0
 40
1.0
 10
-145.1123
 20
-50.1035
 30
0.0
 10
-146.1609
 20
-49.4756
 30
0.0
 10
-148.1065
 20
-49.5205
 30
0.0
 10
-148.9309
 20
-49.8792
 30
0.0
 10
-148.9309
 20
-49.8792
 30
0.0
 10
-148.5164
 20
-48.258
 30
0.0
 10
-148.5731
 20
-47.4174
 30
0.0
 10
-149.6697
 20
-46.4315
 30
0.0
 10
-149.6697
 20
-46.4315
 30
0.0
 10
-147.6981
 20
-45.7882
 30
0.0
 10
-145.8315
 20
-44.8036
 30
0.0
 10
-143.8632
 20
-43.544
 30
0.0
 10
-143.8632
 20
-43.544
 30
0.0
 10
-145.1578
 20
-46.0088
 30
0.0
 10
-145.4097
 20
-47.9355
 30
0.0
 10
-145.1123
 20
-50.1034
 30
0.0
 10
-145.1123
 20
-50.1034
 30
0.0
 10
-145.1123
 20
-50.1034
 30
0.0
 10
-145.1123
 20
-50.1035
 30
0.0
 10
-145.1123
 20
-50.1035
 30
0.0
  0
SPLINE
  5
AB
330
1F
100
AcDbEntity
  8
layer 1
 62
     7
100
AcDbSpline
210
0.0
220
0.0
230
1.0
 70
    11
 71
     3
 72
    24
 73
    20
 74
     0
 42
0.0000000001
 43
0.0000000001
 12
1.0
 22
0.0
 32
0.0
 13
1.0
 23
0.0
 33
0.0
 40
0.0
 40
0.0
 40
0.0
 40
0.0
 40
0.1666666666666667
 40
0.1666666666666667
 40
0.1666666666666667
 40
0.1666666666666667
 40
0.3333333333333333
 40
0.3333333333333333
 40
0.3333333333333333
 40
0.3333333333333333
 40
0.5
 40
0.5
 40
0.5
 40
0.5
 40
0.6666666666666666
 40
0.6666666666666666
 40
0.6666666666666666
 40
0.6666666666666666
 40
1.0
 40
1.0
 40
1.0
 40
1.0
 10
-153.715
 20
-46.1466
 30
0.0
 10
-154.7047
 20
-47.2555
 30
0.0
 10
-154.3581
 20
-48.9764
 30
0.0
 10
-154.1308
 20
-49.6177
 30
0.0
 10
-154.1308
 20
-49.6177
 30
0.0
 10
-154.4502
 20
-49.5076
 30
0.0
 10
-155.791
 20
-48.9959
 30
0.0
 10
-156.9708
 20
-49.6565
 30
0.0
 10
-156.9708
 20
-49.6565
 30
0.0
 10
-157.0376
 20
-48.3111
 30
0.0
 10
-157.5589
 20
-46.7153
 30
0.0
 10
-158.4117
 20
-45.4747
 30
0.0
 10
-158.4117
 20
-45.4747
 30
0.0
 10
-156.5712
 20
-46.0302
 30
0.0
 10
-155.5725
 20
-46.1626
 30
0.0
 10
-153.715
 20
-46.1467
 30
0.0
 10
-153.715
 20
-46.1467
 30
0.0
 10
-153.715
 20
-46.1467
 30
0.0
 10
-153.715
 20
-46.1466
 30
0.0
 10
-153.715
 20
-46.1466
 30
0.0
  0
SPLINE
  5
AC
330
1F
100
AcDbEntity
  8
layer 1
 62
     7
100
AcDbSpline
210
0.0
220
0.0
230
1.0
 70
    11
 71
     3
 72
   104
 73
   100
 74
     0
 42
0.0000000001
 43
0.0000000001
 12
1.0
 22
0.0
 32
0.0
 13
1.0
 23
0.0
 33
0.0
 40
0.0
 40
0.0
 40
0.0
 40
0.0
 40
0.0384615384615385
 40
0.0384615384615385
 40
0.0384615384615385
 40
0.0384615384615385
 40
0.0769230769230769
 40
0.0769230769230769
 40
0.0769230769230769
 40
0.0769230769230769
 40
0.1153846153846154
 40
0.1153846153846154
 40
0.1153846153846154
 40
0.1153846153846154
 40
0.1538461538461539
 40
0.1538461538461539
 40
0.1538461538461539
 40
0.1538461538461539
 40
0.1923076923076923
 40
0.1923076923076923
 40
0.1923076923076923
 40
0.1923076923076923
 40
0.2307692307692308
 40
0.2307692307692308
 40
0.2307692307692308
 40
0.2307692307692308
 40
0.2692307692307692
 40
0.2692307692307692
 40
0.2692307692307692
 40
0.2692307692307692
 40
0.3076923076923077
 40
0.3076923076923077
 40
0.3076923076923077
 40
0.3076923076923077
 40
0.3461538461538461
 40
0.3461538461538461
 40
0.3461538461538461
 40
0.3461538461538461
 40
0.3846153846153846
 40
0.3846153846153846
 40
0.3846153846153846
 40
0.3846153846153846
 40
0.4230769230769231
 40
0.4230769230769231
 40
0.4230769230769231
 40
0.4230769230769231
 40
0.4615384615384616
 40
0.4615384615384616
 40
0.4615384615384616
 40
0.4615384615384616
 40
0.5
 40
0.5
 40
0.5
 40
0.5
 40
0.5384615384615384
 40
0.5384615384615384
 40
0.5384615384615384
 40
0.5384615384615384
 40
0.5769230769230769
 40
0.5769230769230769
 40
0.5769230769230769
 40
0.5769230769230769
 40
0.6153846153846154
 40
0.6153846153846154
 40
0.6153846153846154
 40
0.6153846153846154
 40
0.6538461538461539
 40
0.6538461538461539
 40
0.6538461538461539
 40
0.6538461538461539
 40
0.6923076923076923
 40
0.6923076923076923
 40
0.6923076923076923
 40
0.6923076923076923
 40
0.7307692307692307
 40
0.7307692307692307
 40
0.7307692307692307
 40
0.7307692307692307
 40
0.7692307692307693
 40
0.7692307692307693
 40
0.7692307692307693
 40
0.7692307692307693
 40
0.8076923076923077
 40
0.8076923076923077
 40
0.8076923076923077
 40
0.8076923076923077
 40
0.8461538461538461
 40
0.8461538461538461
 40
0.8461538461538461
 40
0.8461538461538461
 40
0.8846153846153846
 40
0.8846153846153846
 40
0.8846153846153846
 40
0.8846153846153846
 40
0.9230769230769231
 40
0.9230769230769231
 40
0.9230769230769231
 40
0.9230769230769231
 40
1.0
 40
1.0
 40
1.0
 40
1.0
 10
-162.4248
 20
-48.9145
 30
0.0
 10
-162.4248
 20
-49.8219
 30
0.0
 10
-162.499
 20
-49.8639
 30
0.0
 10
-163.3228
 20
-49.4231
 30
0.0
 10
-163.3228
 20
-49.4231
 30
0.0
 10
-164.1445
 20
-48.9833
 30
0.0
 10
-165.2913
 20
-49.7791
 30
0.0
 10
-165.2913
 20
-50.789
 30
0.0
 10
-165.2913
 20
-50.789
 30
0.0
 10
-165.2913
 20
-52.7059
 30
0.0
 10
-162.9944
 20
-53.267
 30
0.0
 10
-161.5365
 20
-51.7062
 30
0.0
 10
-161.5365
 20
-51.7062
 30
0.0
 10
-160.9513
 20
-51.3041
 30
0.0
 10
-160.8869
 20
-50.7308
 30
0.0
 10
-160.4642
 20
-50.0167
 30
0.0
 10
-160.4642
 20
-50.0167
 30
0.0
 10
-158.4357
 20
-54.2514
 30
0.0
 10
-159.2502
 20
-58.912
 30
0.0
 10
-159.9856
 20
-62.7726
 30
0.0
 10
-159.9856
 20
-62.7726
 30
0.0
 10
-159.9675
 20
-63.5911
 30
0.0
 10
-159.529
 20
-64.0365
 30
0.0
 10
-159.037
 20
-64.6352
 30
0.0
 10
-159.037
 20
-64.6352
 30
0.0
 10
-154.7263
 20
-61.1123
 30
0.0
 10
-146.2323
 20
-62.1596
 30
0.0
 10
-142.9222
 20
-67.2114
 30
0.0
 10
-142.9222
 20
-67.2114
 30
0.0
 10
-145.2165
 20
-65.8329
 30
0.0
 10
-148.7795
 20
-65.4954
 30
0.0
 10
-148.9523
 20
-65.924
 30
0.0
 10
-148.9523
 20
-65.924
 30
0.0
 10
-148.5391
 20
-67.0654
 30
0.0
 10
-148.3851
 20
-68.3378
 30
0.0
 10
-149.4809
 20
-68.6454
 30
0.0
 10
-149.4809
 20
-68.6454
 30
0.0
 10
-150.0948
 20
-68.7933
 30
0.0
 10
-150.6558
 20
-68.2922
 30
0.0
 10
-150.813
 20
-67.797
 30
0.0
 10
-150.813
 20
-67.797
 30
0.0
 10
-151.9412
 20
-66.2269
 30
0.0
 10
-153.4886
 20
-66.3901
 30
0.0
 10
-155.0693
 20
-66.6866
 30
0.0
 10
-155.0693
 20
-66.6866
 30
0.0
 10
-153.7771
 20
-67.6217
 30
0.0
 10
-153.1381
 20
-69.2016
 30
0.0
 10
-154.059
 20
-70.5354
 30
0.0
 10
-154.059
 20
-70.5354
 30
0.0
 10
-155.2258
 20
-72.2418
 30
0.0
 10
-156.6307
 20
-71.575
 30
0.0
 10
-158.206
 20
-70.6147
 30
0.0
 10
-158.206
 20
-70.6147
 30
0.0
 10
-158.5302
 20
-72.0017
 30
0.0
 10
-158.1388
 20
-73.8434
 30
0.0
 10
-155.4902
 20
-73.9134
 30
0.0
 10
-155.4902
 20
-73.9134
 30
0.0
 10
-156.1061
 20
-75.5844
 30
0.0
 10
-156.4022
 20
-77.5782
 30
0.0
 10
-156.2439
 20
-79.2842
 30
0.0
 10
-156.2439
 20
-79.2842
 30
0.0
 10
-158.2863
 20
-78.5377
 30
0.0
 10
-160.0516
 20
-78.4908
 30
0.0
 10
-162.1224
 20
-78.825
 30
0.0
 10
-162.1224
 20
-78.825
 30
0.0
 10
-161.5533
 20
-77.4944
 30
0.0
 10
-161.8158
 20
-75.6019
 30
0.0
 10
-162.7267
 20
-74.7159
 30
0.0
 10
-162.7267
 20
-74.7159
 30
0.0
 10
-163.2241
 20
-74.2526
 30
0.0
 10
-163.2599
 20
-74.0676
 30
0.0
 10
-162.9735
 20
-73.4392
 30
0.0
 10
-162.9735
 20
-73.4392
 30
0.0
 10
-162.5841
 20
-72.5844
 30
0.0
 10
-162.7956
 20
-71.4722
 30
0.0
 10
-163.4776
 20
-70.7903
 30
0.0
 10
-163.4776
 20
-70.7903
 30
0.0
 10
-163.9247
 20
-70.3433
 30
0.0
 10
-163.9822
 20
-70.3767
 30
0.0
 10
-164.3496
 20
-71.2978
 30
0.0
 10
-164.3496
 20
-71.2978
 30
0.0
 10
-165.6921
 20
-73.2374
 30
0.0
 10
-167.3078
 20
-73.5329
 30
0.0
 10
-169.3413
 20
-73.8653
 30
0.0
 10
-169.3413
 20
-73.8653
 30
0.0
 10
-163.6527
 20
-68.8913
 30
0.0
 10
-164.3744
 20
-58.5915
 30
0.0
 10
-167.3512
 20
-53.2453
 30
0.0
 10
-167.3512
 20
-53.2453
 30
0.0
 10
-168.3745
 20
-51.5562
 30
0.0
 10
-167.7137
 20
-47.8306
 30
0.0
 10
-165.7911
 20
-47.1477
 30
0.0
 10
-165.7911
 20
-47.1477
 30
0.0
 10
-164.3227
 20
-46.8497
 30
0.0
 10
-162.4569
 20
-47.2492
 30
0.0
 10
-162.4248
 20
-48.9146
 30
0.0
 10
-162.4248
 20
-48.9146
 30
0.0
 10
-162.4248
 20
-48.9146
 30
0.0
 10
-162.4248
 20
-48.9145
 30
0.0
 10
-162.4248
 20
-48.9145
 30
0.0
  0
SPLINE
  5
AD
330
1F
100
AcDbEntity
  8
layer 1
 62
     7
100
AcDbSpline
210
0.0
220
0.0
230
1.0
 70
    11
 71
     3
 72
    12
 73
     8
 74
     0
 42
0.0000000001
 43
0.0000000001
 12
1.0
 22
0.0
 32
0.0
 13
1.0
 23
0.0
 33
0.0
 40
0.0
 40
0.0
 40
0.0
 40
0.0
 40
0.3333333333333333
 40
0.3333333333333333
 40
0.3333333333333333
 40
0.3333333333333333
 40
1.0
 40
1.0
 40
1.0
 40
1.0
 10
-125.5447
 20
-52.0646
 30
0.0
 10
-123.7023
 20
-52.8994
 30
0.0
 10
-123.7928
 20
-55.9946
 30
0.0
 10
-125.5447
 20
-56.9384
 30
0.0
 10
-125.5447
 20
-56.9384
 30
0.0
 10
-127.2965
 20
-55.9946
 30
0.0
 10
-127.387
 20
-52.8993
 30
0.0
 10
-125.5447
 20
-52.0646
 30
0.0
  0
SPLINE
  5
AE
330
1F
100
AcDbEntity
  8
layer 1
 62
     7
100
AcDbSpline
210
0.0
220
0.0
230
1.0
 70
    11
 71
     3
 72
    48
 73
    44
 74
     0
 42
0.0000000001
 43
0.0000000001
 12
1.0
 22
0.0
 32
0.0
 13
1.0
 23
0.0
 33
0.0
 40
0.0
 40
0.0
 40
0.0
 40
0.0
 40
0.0833333333333333
 40
0.0833333333333333
 40
0.0833333333333333
 40
0.0833333333333333
 40
0.1666666666666667
 40
0.1666666666666667
 40
0.1666666666666667
 40
0.1666666666666667
 40
0.25
 40
0.25
 40
0.25
 40
0.25
 40
0.3333333333333333
 40
0.3333333333333333
 40
0.3333333333333333
 40
0.3333333333333333
 40
0.4166666666666667
 40
0.4166666666666667
 40
0.4166666666666667
 40
0.4166666666666667
 40
0.5
 40
0.5
 40
0.5
 40
0.5
 40
0.5833333333333334
 40
0.5833333333333334
 40
0.5833333333333334
 40
0.5833333333333334
 40
0.6666666666666666
 40
0.6666666666666666
 40
0.6666666666666666
 40
0.6666666666666666
 40
0.75
 40
0.75
 40
0.75
 40
0.75
 40
0.8333333333333334
 40
0.8333333333333334
 40
0.8333333333333334
 40
0.8333333333333334
 40
1.0
 40
1.0
 40
1.0
 40
1.0
 10
-170.789
 20
-53.6096
 30
0.0
 10
-168.277
 20
-56.7341
 30
0.0
 10
-166.7488
 20
-61.6366
 30
0.0
 10
-167.8307
 20
-65.6392
 30
0.0
 10
-167.8307
 20
-65.6392
 30
0.0
 10
-168.6178
 20
-68.83
 30
0.0
 10
-169.6841
 20
-71.2258
 30
0.0
 10
-171.4542
 20
-73.8235
 30
0.0
 10
-171.4542
 20
-73.8235
 30
0.0
 10
-171.455
 20
-72.8356
 30
0.0
 10
-171.7752
 20
-71.5899
 30
0.0
 10
-171.3261
 20
-70.6842
 30
0.0
 10
-171.3261
 20
-70.6842
 30
0.0
 10
-170.8403
 20
-69.2998
 30
0.0
 10
-170.9651
 20
-68.0339
 30
0.0
 10
-171.8025
 20
-67.1382
 30
0.0
 10
-171.8025
 20
-67.1382
 30
0.0
 10
-171.8025
 20
-67.1382
 30
0.0
 10
-171.9921
 20
-67.8936
 30
0.0
 10
-171.9921
 20
-67.8936
 30
0.0
 10
-171.9921
 20
-67.8936
 30
0.0
 10
-172.2302
 20
-68.8424
 30
0.0
 10
-172.547
 20
-68.8492
 30
0.0
 10
-173.1566
 20
-67.9188
 30
0.0
 10
-173.1566
 20
-67.9188
 30
0.0
 10
-173.6166
 20
-67.194
 30
0.0
 10
-174.3796
 20
-66.6693
 30
0.0
 10
-175.2778
 20
-66.0703
 30
0.0
 10
-175.2778
 20
-66.0703
 30
0.0
 10
-171.2558
 20
-65.2612
 30
0.0
 10
-170.2519
 20
-60.898
 30
0.0
 10
-172.4237
 20
-58.5826
 30
0.0
 10
-172.4237
 20
-58.5826
 30
0.0
 10
-173.8696
 20
-56.9226
 30
0.0
 10
-177.3519
 20
-57.4145
 30
0.0
 10
-178.0867
 20
-59.0463
 30
0.0
 10
-178.0867
 20
-59.0463
 30
0.0
 10
-178.3663
 20
-59.7746
 30
0.0
 10
-178.7638
 20
-59.2088
 30
0.0
 10
-178.7638
 20
-58.0824
 30
0.0
 10
-178.7638
 20
-58.0824
 30
0.0
 10
-178.7023
 20
-53.4738
 30
0.0
 10
-173.3406
 20
-50.7261
 30
0.0
 10
-170.789
 20
-53.6096
 30
0.0
  0
SPLINE
  5
AF
330
1F
100
AcDbEntity
  8
layer 1
 62
     7
100
AcDbSpline
210
0.0
220
0.0
230
1.0
 70
    11
 71
     3
 72
    20
 73
    16
 74
     0
 42
0.0000000001
 43
0.0000000001
 12
1.0
 22
0.0
 32
0.0
 13
1.0
 23
0.0
 33
0.0
 40
0.0
 40
0.0
 40
0.0
 40
0.0
 40
0.2
 40
0.2
 40
0.2
 40
0.2
 40
0.4
 40
0.4
 40
0.4
 40
0.4
 40
0.6
 40
0.6
 40
0.6
 40
0.6
 40
1.0
 40
1.0
 40
1.0
 40
1.0
 10
-153.671
 20
-55.2824
 30
0.0
 10
-154.3119
 20
-56.4799
 30
0.0
 10
-154.131
 20
-59.2861
 30
0.0
 10
-153.0662
 20
-60.0197
 30
0.0
 10
-153.0662
 20
-60.0197
 30
0.0
 10
-155.8525
 20
-60.0373
 30
0.0
 10
-156.2069
 20
-60.2377
 30
0.0
 10
-157.3354
 20
-61.0726
 30
0.0
 10
-157.3354
 20
-61.0726
 30
0.0
 10
-156.8391
 20
-59.4268
 30
0.0
 10
-156.605
 20
-57.3313
 30
0.0
 10
-156.9147
 20
-55.2996
 30
0.0
 10
-156.9147
 20
-55.2996
 30
0.0
 10
-156.1534
 20
-56.1452
 30
0.0
 10
-154.5465
 20
-55.6845
 30
0.0
 10
-153.671
 20
-55.2824
 30
0.0
  0
SPLINE
  5
B0
330
1F
100
AcDbEntity
  8
layer 1
 62
     7
100
AcDbSpline
210
0.0
220
0.0
230
1.0
 70
    11
 71
     3
 72
    24
 73
    20
 74
     0
 42
0.0000000001
 43
0.0000000001
 12
1.0
 22
0.0
 32
0.0
 13
1.0
 23
0.0
 33
0.0
 40
0.0
 40
0.0
 40
0.0
 40
0.0
 40
0.1666666666666667
 40
0.1666666666666667
 40
0.1666666666666667
 40
0.1666666666666667
 40
0.3333333333333333
 40
0.3333333333333333
 40
0.3333333333333333
 40
0.3333333333333333
 40
0.5
 40
0.5
 40
0.5
 40
0.5
 40
0.6666666666666666
 40
0.6666666666666666
 40
0.6666666666666666
 40
0.6666666666666666
 40
1.0
 40
1.0
 40
1.0
 40
1.0
 10
-144.5843
 20
-56.0065
 30
0.0
 10
-144.6146
 20
-59.1465
 30
0.0
 10
-143.9491
 20
-61.403
 30
0.0
 10
-142.2899
 20
-63.8968
 30
0.0
 10
-142.2899
 20
-63.8968
 30
0.0
 10
-144.9535
 20
-61.9288
 30
0.0
 10
-147.4449
 20
-60.8803
 30
0.0
 10
-150.436
 20
-60.0187
 30
0.0
 10
-150.436
 20
-60.0187
 30
0.0
 10
-149.2395
 20
-59.0542
 30
0.0
 10
-148.9794
 20
-57.149
 30
0.0
 10
-149.4291
 20
-55.5137
 30
0.0
 10
-149.4291
 20
-55.5137
 30
0.0
 10
-148.2658
 20
-56.4834
 30
0.0
 10
-145.6013
 20
-57.1529
 30
0.0
 10
-144.5843
 20
-56.0064
 30
0.0
 10
-144.5843
 20
-56.0064
 30
0.0
 10
-144.5843
 20
-56.0064
 30
0.0
 10
-144.5843
 20
-56.0065
 30
0.0
 10
-144.5843
 20
-56.0065
 30
0.0
  0
SPLINE
  5
B1
330
1F
100
AcDbEntity
  8
layer 1
 62
     7
100
AcDbSpline
210
0.0
220
0.0
230
1.0
 70
    11
 71
     3
 72
    32
 73
    28
 74
     0
 42
0.0000000001
 43
0.0000000001
 12
1.0
 22
0.0
 32
0.0
 13
1.0
 23
0.0
 33
0.0
 40
0.0
 40
0.0
 40
0.0
 40
0.0
 40
0.125
 40
0.125
 40
0.125
 40
0.125
 40
0.25
 40
0.25
 40
0.25
 40
0.25
 40
0.375
 40
0.375
 40
0.375
 40
0.375
 40
0.5
 40
0.5
 40
0.5
 40
0.5
 40
0.625
 40
0.625
 40
0.625
 40
0.625
 40
0.75
 40
0.75
 40
0.75
 40
0.75
 40
1.0
 40
1.0
 40
1.0
 40
1.0
 10
-136.3397
 20
-59.3971
 30
0.0
 10
-136.3397
 20
-60.1886
 30
0.0
 10
-135.965
 20
-61.262
 30
0.0
 10
-135.0448
 20
-61.4913
 30
0.0
 10
-135.0448
 20
-61.4913
 30
0.0
 10
-133.8871
 20
-61.7797
 30
0.0
 10
-132.7897
 20
-60.9668
 30
0.0
 10
-132.1583
 20
-59.8756
 30
0.0
 10
-132.1583
 20
-59.8756
 30
0.0
 10
-130.5281
 20
-60.2207
 30
0.0
 10
-129.4574
 20
-59.9382
 30
0.0
 10
-127.4231
 20
-58.9258
 30
0.0
 10
-127.4231
 20
-58.9258
 30
0.0
 10
-129.643
 20
-61.295
 30
0.0
 10
-129.1372
 20
-64.2594
 30
0.0
 10
-127.683
 20
-65.8357
 30
0.0
 10
-127.683
 20
-65.8357
 30
0.0
 10
-128.7313
 20
-67.3453
 30
0.0
 10
-127.7617
 20
-69.2911
 30
0.0
 10
-127.0166
 20
-70.0045
 30
0.0
 10
-127.0166
 20
-70.0045
 30
0.0
 10
-132.4012
 20
-67.4784
 30
0.0
 10
-138.7181
 20
-62.3673
 30
0.0
 10
-141.1603
 20
-56.0338
 30
0.0
 10
-141.1603
 20
-56.0338
 30
0.0
 10
-139.6121
 20
-58.449
 30
0.0
 10
-137.855
 20
-58.9788
 30
0.0
 10
-136.3397
 20
-59.3971
 30
0.0
  0
SPLINE
  5
B2
330
1F
100
AcDbEntity
  8
layer 1
 62
     7
100
AcDbSpline
210
0.0
220
0.0
230
1.0
 70
    11
 71
     3
 72
    64
 73
    60
 74
     0
 42
0.0000000001
 43
0.0000000001
 12
1.0
 22
0.0
 32
0.0
 13
1.0
 23
0.0
 33
0.0
 40
0.0
 40
0.0
 40
0.0
 40
0.0
 40
0.0625
 40
0.0625
 40
0.0625
 40
0.0625
 40
0.125
 40
0.125
 40
0.125
 40
0.125
 40
0.1875
 40
0.1875
 40
0.1875
 40
0.1875
 40
0.25
 40
0.25
 40
0.25
 40
0.25
 40
0.3125
 40
0.3125
 40
0.3125
 40
0.3125
 40
0.375
 40
0.375
 40
0.375
 40
0.375
 40
0.4375
 40
0.4375
 40
0.4375
 40
0.4375
 40
0.5
 40
0.5
 40
0.5
 40
0.5
 40
0.5625
 40
0.5625
 40
0.5625
 40
0.5625
 40
0.625
 40
0.625
 40
0.625
 40
0.625
 40
0.6875
 40
0.6875
 40
0.6875
 40
0.6875
 40
0.75
 40
0.75
 40
0.75
 40
0.75
 40
0.8125
 40
0.8125
 40
0.8125
 40
0.8125
 40
0.875
 40
0.875
 40
0.875
 40
0.875
 40
1.0
 40
1.0
 40
1.0
 40
1.0
 10
-174.0122
 20
-75.7248
 30
0.0
 10
-173.4247
 20
-72.9123
 30
0.0
 10
-173.4868
 20
-71.0856
 30
0.0
 10
-174.2139
 20
-69.7918
 30
0.0
 10
-174.2139
 20
-69.7918
 30
0.0
 10
-174.8934
 20
-68.5827
 30
0.0
 10
-175.9019
 20
-67.906
 30
0.0
 10
-176.6158
 20
-68.18
 30
0.0
 10
-176.6158
 20
-68.18
 30
0.0
 10
-177.044
 20
-68.3443
 30
0.0
 10
-177.0457
 20
-68.4012
 30
0.0
 10
-176.6352
 20
-68.8118
 30
0.0
 10
-176.6352
 20
-68.8118
 30
0.0
 10
-176.0021
 20
-69.445
 30
0.0
 10
-176.0739
 20
-70.2897
 30
0.0
 10
-176.7935
 20
-70.6748
 30
0.0
 10
-176.7935
 20
-70.6748
 30
0.0
 10
-178.2471
 20
-71.4528
 30
0.0
 10
-179.6225
 20
-69.5872
 30
0.0
 10
-178.8862
 20
-67.8361
 30
0.0
 10
-178.8862
 20
-67.8361
 30
0.0
 10
-178.6744
 20
-67.3323
 30
0.0
 10
-178.3022
 20
-66.8439
 30
0.0
 10
-178.0591
 20
-66.7507
 30
0.0
 10
-178.0591
 20
-66.7507
 30
0.0
 10
-177.3813
 20
-66.4906
 30
0.0
 10
-177.527
 20
-66.2182
 30
0.0
 10
-178.5488
 20
-65.8341
 30
0.0
 10
-178.5488
 20
-65.8341
 30
0.0
 10
-180.2766
 20
-65.1893
 30
0.0
 10
-181.5834
 20
-64.2578
 30
0.0
 10
-182.2036
 20
-62.2627
 30
0.0
 10
-182.2036
 20
-62.2627
 30
0.0
 10
-182.2036
 20
-62.2627
 30
0.0
 10
-182.22
 20
-83.9552
 30
0.0
 10
-182.22
 20
-83.9552
 30
0.0
 10
-182.22
 20
-83.9552
 30
0.0
 10
-181.9172
 20
-83.3619
 30
0.0
 10
-180.7746
 20
-82.4414
 30
0.0
 10
-179.8142
 20
-82.439
 30
0.0
 10
-179.8142
 20
-82.439
 30
0.0
 10
-179.8114
 20
-82.2386
 30
0.0
 10
-179.8395
 20
-81.005
 30
0.0
 10
-178.607
 20
-80.9263
 30
0.0
 10
-178.607
 20
-80.9263
 30
0.0
 10
-177.8988
 20
-80.9868
 30
0.0
 10
-177.5505
 20
-81.4409
 30
0.0
 10
-177.4978
 20
-82.342
 30
0.0
 10
-177.4978
 20
-82.342
 30
0.0
 10
-176.5367
 20
-82.4257
 30
0.0
 10
-175.4472
 20
-83.1896
 30
0.0
 10
-174.8502
 20
-84.0827
 30
0.0
 10
-174.8502
 20
-84.0827
 30
0.0
 10
-174.7869
 20
-81.272
 30
0.0
 10
-174.5884
 20
-78.5855
 30
0.0
 10
-174.0123
 20
-75.7247
 30
0.0
 10
-174.0123
 20
-75.7247
 30
0.0
 10
-174.0123
 20
-75.7247
 30
0.0
 10
-174.0122
 20
-75.7248
 30
0.0
 10
-174.0122
 20
-75.7248
 30
0.0
  0
SPLINE
  5
B3
330
1F
100
AcDbEntity
  8
layer 1
 62
     7
100
AcDbSpline
210
0.0
220
0.0
230
1.0
 70
    11
 71
     3
 72
    32
 73
    28
 74
     0
 42
0.0000000001
 43
0.0000000001
 12
1.0
 22
0.0
 32
0.0
 13
1.0
 23
0.0
 33
0.0
 40
0.0
 40
0.0
 40
0.0
 40
0.0
 40
0.125
 40
0.125
 40
0.125
 40
0.125
 40
0.25
 40
0.25
 40
0.25
 40
0.25
 40
0.375
 40
0.375
 40
0.375
 40
0.375
 40
0.5
 40
0.5
 40
0.5
 40
0.5
 40
0.625
 40
0.625
 40
0.625
 40
0.625
 40
0.75
 40
0.75
 40
0.75
 40
0.75
 40
1.0
 40
1.0
 40
1.0
 40
1.0
 10
-128.0234
 20
-74.4982
 30
0.0
 10
-128.4552
 20
-76.3791
 30
0.0
 10
-127.876
 20
-77.8417
 30
0.0
 10
-126.8165
 20
-78.652
 30
0.0
 10
-126.8165
 20
-78.652
 30
0.0
 10
-128.5383
 20
-78.1218
 30
0.0
 10
-129.8396
 20
-77.8229
 30
0.0
 10
-131.1146
 20
-77.0893
 30
0.0
 10
-131.1146
 20
-77.0893
 30
0.0
 10
-130.7719
 20
-79.0054
 30
0.0
 10
-130.3283
 20
-80.89
 30
0.0
 10
-130.32
 20
-82.9946
 30
0.0
 10
-130.32
 20
-82.9946
 30
0.0
 10
-131.3572
 20
-82.1725
 30
0.0
 10
-132.7724
 20
-82.1642
 30
0.0
 10
-133.6758
 20
-82.5356
 30
0.0
 10
-133.6758
 20
-82.5356
 30
0.0
 10
-134.156
 20
-77.166
 30
0.0
 10
-136.0981
 20
-73.8117
 30
0.0
 10
-137.7729
 20
-69.3482
 30
0.0
 10
-137.7729
 20
-69.3482
 30
0.0
 10
-133.6665
 20
-72.4355
 30
0.0
 10
-130.4228
 20
-74.0214
 30
0.0
 10
-128.0234
 20
-74.4981
 30
0.0
 10
-128.0234
 20
-74.4981
 30
0.0
 10
-128.0234
 20
-74.4981
 30
0.0
 10
-128.0234
 20
-74.4982
 30
0.0
 10
-128.0234
 20
-74.4982
 30
0.0
  0
SPLINE
  5
B4
330
1F
100
AcDbEntity
  8
layer 1
 62
     7
100
AcDbSpline
210
0.0
220
0.0
230
1.0
 70
    11
 71
     3
 72
    40
 73
    36
 74
     0
 42
0.0000000001
 43
0.0000000001
 12
1.0
 22
0.0
 32
0.0
 13
1.0
 23
0.0
 33
0.0
 40
0.0
 40
0.0
 40
0.0
 40
0.0
 40
0.1
 40
0.1
 40
0.1
 40
0.1
 40
0.2
 40
0.2
 40
0.2
 40
0.2
 40
0.3
 40
0.3
 40
0.3
 40
0.3
 40
0.4
 40
0.4
 40
0.4
 40
0.4
 40
0.5
 40
0.5
 40
0.5
 40
0.5
 40
0.6
 40
0.6
 40
0.6
 40
0.6
 40
0.7
 40
0.7
 40
0.7
 40
0.7
 40
0.8
 40
0.8
 40
0.8
 40
0.8
 40
1.0
 40
1.0
 40
1.0
 40
1.0
 10
-141.2127
 20
-71.7561
 30
0.0
 10
-140.3913
 20
-72.3621
 30
0.0
 10
-139.2061
 20
-74.0067
 30
0.0
 10
-139.2061
 20
-74.5408
 30
0.0
 10
-139.2061
 20
-74.5408
 30
0.0
 10
-139.2061
 20
-74.8184
 30
0.0
 10
-139.4301
 20
-74.8329
 30
0.0
 10
-140.1766
 20
-74.6037
 30
0.0
 10
-140.1766
 20
-74.6037
 30
0.0
 10
-141.5623
 20
-74.31
 30
0.0
 10
-143.3604
 20
-74.7093
 30
0.0
 10
-144.0759
 20
-76.2327
 30
0.0
 10
-144.0759
 20
-76.2327
 30
0.0
 10
-146.9772
 20
-77.9166
 30
0.0
 10
-147.4311
 20
-80.4104
 30
0.0
 10
-146.9457
 20
-83.1895
 30
0.0
 10
-146.9457
 20
-83.1895
 30
0.0
 10
-148.3256
 20
-82.6933
 30
0.0
 10
-150.3025
 20
-82.8917
 30
0.0
 10
-151.7653
 20
-83.7858
 30
0.0
 10
-151.7653
 20
-83.7858
 30
0.0
 10
-152.0963
 20
-83.1371
 30
0.0
 10
-152.3171
 20
-82.7713
 30
0.0
 10
-152.7364
 20
-82.0206
 30
0.0
 10
-152.7364
 20
-82.0206
 30
0.0
 10
-149.414
 20
-81.482
 30
0.0
 10
-150.3275
 20
-77.4089
 30
0.0
 10
-153.549
 20
-78.6871
 30
0.0
 10
-153.549
 20
-78.6871
 30
0.0
 10
-153.3406
 20
-71.6759
 30
0.0
 10
-145.0603
 20
-69.3316
 30
0.0
 10
-141.2127
 20
-71.756
 30
0.0
 10
-141.2127
 20
-71.756
 30
0.0
 10
-141.2127
 20
-71.756
 30
0.0
 10
-141.2127
 20
-71.7561
 30
0.0
 10
-141.2127
 20
-71.7561
 30
0.0
  0
SPLINE
  5
B5
330
1F
100
AcDbEntity
  8
layer 1
 62
     7
100
AcDbSpline
210
0.0
220
0.0
230
1.0
 70
    11
 71
     3
 72
    28
 73
    24
 74
     0
 42
0.0000000001
 43
0.0000000001
 12
1.0
 22
0.0
 32
0.0
 13
1.0
 23
0.0
 33
0.0
 40
0.0
 40
0.0
 40
0.0
 40
0.0
 40
0.1428571428571428
 40
0.1428571428571428
 40
0.1428571428571428
 40
0.1428571428571428
 40
0.2857142857142857
 40
0.2857142857142857
 40
0.2857142857142857
 40
0.2857142857142857
 40
0.4285714285714285
 40
0.4285714285714285
 40
0.4285714285714285
 40
0.4285714285714285
 40
0.5714285714285714
 40
0.5714285714285714
 40
0.5714285714285714
 40
0.5714285714285714
 40
0.7142857142857143
 40
0.7142857142857143
 40
0.7142857142857143
 40
0.7142857142857143
 40
1.0
 40
1.0
 40
1.0
 40
1.0
 10
-163.4439
 20
-76.9618
 30
0.0
 10
-164.8161
 20
-76.87
 30
0.0
 10
-165.7409
 20
-78.1697
 30
0.0
 10
-164.8387
 20
-78.9871
 30
0.0
 10
-164.8387
 20
-78.9871
 30
0.0
 10
-164.4398
 20
-79.3182
 30
0.0
 10
-164.506
 20
-79.4242
 30
0.0
 10
-165.3978
 20
-79.8817
 30
0.0
 10
-165.3978
 20
-79.8817
 30
0.0
 10
-173.6673
 20
-85.6687
 30
0.0
 10
-170.3104
 20
-96.0547
 30
0.0
 10
-165.7356
 20
-102.6169
 30
0.0
 10
-165.7356
 20
-102.6169
 30
0.0
 10
-170.8449
 20
-98.6437
 30
0.0
 10
-172.9535
 20
-92.3298
 30
0.0
 10
-173.0308
 20
-87.5052
 30
0.0
 10
-173.0308
 20
-87.5052
 30
0.0
 10
-173.0308
 20
-82.22
 30
0.0
 10
-172.163
 20
-79.4202
 30
0.0
 10
-169.6003
 20
-77.3086
 30
0.0
 10
-169.6003
 20
-77.3086
 30
0.0
 10
-167.7025
 20
-75.8884
 30
0.0
 10
-165.8237
 20
-75.5706
 30
0.0
 10
-163.4439
 20
-76.9618
 30
0.0
  0
SPLINE
  5
B6
330
1F
100
AcDbEntity
  8
layer 1
 62
     7
100
AcDbSpline
210
0.0
220
0.0
230
1.0
 70
    11
 71
     3
 72
    20
 73
    16
 74
     0
 42
0.0000000001
 43
0.0000000001
 12
1.0
 22
0.0
 32
0.0
 13
1.0
 23
0.0
 33
0.0
 40
0.0
 40
0.0
 40
0.0
 40
0.0
 40
0.2
 40
0.2
 40
0.2
 40
0.2
 40
0.4
 40
0.4
 40
0.4
 40
0.4
 40
0.6
 40
0.6
 40
0.6
 40
0.6
 40
1.0
 40
1.0
 40
1.0
 40
1.0
 10
-138.2554
 20
-81.7383
 30
0.0
 10
-138.2812
 20
-83.9703
 30
0.0
 10
-138.452
 20
-86.585
 30
0.0
 10
-139.0557
 20
-89.5744
 30
0.0
 10
-139.0557
 20
-89.5744
 30
0.0
 10
-141.4023
 20
-87.5584
 30
0.0
 10
-142.946
 20
-82.5223
 30
0.0
 10
-141.8449
 20
-79.3857
 30
0.0
 10
-141.8449
 20
-79.3857
 30
0.0
 10
-139.8789
 20
-79.9616
 30
0.0
 10
-139.1343
 20
-80.5095
 30
0.0
 10
-138.2554
 20
-81.7384
 30
0.0
 10
-138.2554
 20
-81.7384
 30
0.0
 10
-138.2554
 20
-81.7384
 30
0.0
 10
-138.2554
 20
-81.7383
 30
0.0
 10
-138.2554
 20
-81.7383
 30
0.0
  0
SPLINE
  5
B7
330
1F
100
AcDbEntity
  8
layer 1
 62
     7
100
AcDbSpline
210
0.0
220
0.0
230
1.0
 70
    11
 71
     3
 72
    28
 73
    24
 74
     0
 42
0.0000000001
 43
0.0000000001
 12
1.0
 22
0.0
 32
0.0
 13
1.0
 23
0.0
 33
0.0
 40
0.0
 40
0.0
 40
0.0
 40
0.0
 40
0.1428571428571428
 40
0.1428571428571428
 40
0.1428571428571428
 40
0.1428571428571428
 40
0.2857142857142857
 40
0.2857142857142857
 40
0.2857142857142857
 40
0.2857142857142857
 40
0.4285714285714285
 40
0.4285714285714285
 40
0.4285714285714285
 40
0.4285714285714285
 40
0.5714285714285714
 40
0.5714285714285714
 40
0.5714285714285714
 40
0.5714285714285714
 40
0.7142857142857143
 40
0.7142857142857143
 40
0.7142857142857143
 40
0.7142857142857143
 40
1.0
 40
1.0
 40
1.0
 40
1.0
 10
-128.8359
 20
-80.11
 30
0.0
 10
-128.4759
 20
-83.5427
 30
0.0
 10
-128.5466
 20
-87.3701
 30
0.0
 10
-129.7285
 20
-90.265
 30
0.0
 10
-129.7285
 20
-90.265
 30
0.0
 10
-128.4739
 20
-91.0963
 30
0.0
 10
-127.0391
 20
-91.6552
 30
0.0
 10
-125.5447
 20
-91.6927
 30
0.0
 10
-125.5447
 20
-91.6927
 30
0.0
 10
-124.0502
 20
-91.6552
 30
0.0
 10
-122.6155
 20
-91.0963
 30
0.0
 10
-121.3608
 20
-90.265
 30
0.0
 10
-121.3608
 20
-90.265
 30
0.0
 10
-122.5428
 20
-87.3701
 30
0.0
 10
-122.6134
 20
-83.5427
 30
0.0
 10
-122.2534
 20
-80.11
 30
0.0
 10
-122.2534
 20
-80.11
 30
0.0
 10
-123.4666
 20
-80.6312
 30
0.0
 10
-124.5018
 20
-80.9306
 30
0.0
 10
-125.5447
 20
-80.9037
 30
0.0
 10
-125.5447
 20
-80.9037
 30
0.0
 10
-126.5875
 20
-80.9305
 30
0.0
 10
-127.6226
 20
-80.6312
 30
0.0
 10
-128.8359
 20
-80.11
 30
0.0
  0
SPLINE
  5
B8
330
1F
100
AcDbEntity
  8
layer 1
 62
     7
100
AcDbSpline
210
0.0
220
0.0
230
1.0
 70
    11
 71
     3
 72
    40
 73
    36
 74
     0
 42
0.0000000001
 43
0.0000000001
 12
1.0
 22
0.0
 32
0.0
 13
1.0
 23
0.0
 33
0.0
 40
0.0
 40
0.0
 40
0.0
 40
0.0
 40
0.1
 40
0.1
 40
0.1
 40
0.1
 40
0.2
 40
0.2
 40
0.2
 40
0.2
 40
0.3
 40
0.3
 40
0.3
 40
0.3
 40
0.4
 40
0.4
 40
0.4
 40
0.4
 40
0.5
 40
0.5
 40
0.5
 40
0.5
 40
0.6
 40
0.6
 40
0.6
 40
0.6
 40
0.7
 40
0.7
 40
0.7
 40
0.7
 40
0.8
 40
0.8
 40
0.8
 40
0.8
 40
1.0
 40
1.0
 40
1.0
 40
1.0
 10
-156.2145
 20
-87.9923
 30
0.0
 10
-158.5974
 20
-87.2215
 30
0.0
 10
-161.0503
 20
-87.8321
 30
0.0
 10
-161.6956
 20
-90.1978
 30
0.0
 10
-161.6956
 20
-90.1978
 30
0.0
 10
-162.252
 20
-92.4918
 30
0.0
 10
-160.5969
 20
-94.8236
 30
0.0
 10
-158.1526
 20
-94.9326
 30
0.0
 10
-158.1526
 20
-94.9326
 30
0.0
 10
-159.0508
 20
-95.6886
 30
0.0
 10
-159.7011
 20
-96.7184
 30
0.0
 10
-159.6023
 20
-97.7385
 30
0.0
 10
-159.6023
 20
-97.7385
 30
0.0
 10
-160.1842
 20
-97.6661
 30
0.0
 10
-160.8527
 20
-97.9853
 30
0.0
 10
-161.0484
 20
-98.8182
 30
0.0
 10
-161.0484
 20
-98.8182
 30
0.0
 10
-160.9844
 20
-99.9654
 30
0.0
 10
-160.3648
 20
-100.2981
 30
0.0
 10
-159.6905
 20
-100.3076
 30
0.0
 10
-159.6905
 20
-100.3076
 30
0.0
 10
-159.374
 20
-101.1354
 30
0.0
 10
-158.6155
 20
-102.1138
 30
0.0
 10
-157.3967
 20
-102.8787
 30
0.0
 10
-157.3967
 20
-102.8787
 30
0.0
 10
-161.3706
 20
-101.5776
 30
0.0
 10
-164.0682
 20
-98.7063
 30
0.0
 10
-165.6534
 20
-94.4715
 30
0.0
 10
-165.6534
 20
-94.4715
 30
0.0
 10
-167.0934
 20
-90.3215
 30
0.0
 10
-166.4125
 20
-85.0028
 30
0.0
 10
-162.5283
 20
-83.8261
 30
0.0
 10
-162.5283
 20
-83.8261
 30
0.0
 10
-157.0023
 20
-82.6593
 30
0.0
 10
-154.5272
 20
-88.5357
 30
0.0
 10
-156.2145
 20
-87.9923
 30
0.0
  0
SPLINE
  5
B9
330
1F
100
AcDbEntity
  8
layer 1
 62
     7
100
AcDbSpline
210
0.0
220
0.0
230
1.0
 70
    11
 71
     3
 72
    32
 73
    28
 74
     0
 42
0.0000000001
 43
0.0000000001
 12
1.0
 22
0.0
 32
0.0
 13
1.0
 23
0.0
 33
0.0
 40
0.0
 40
0.0
 40
0.0
 40
0.0
 40
0.125
 40
0.125
 40
0.125
 40
0.125
 40
0.25
 40
0.25
 40
0.25
 40
0.25
 40
0.375
 40
0.375
 40
0.375
 40
0.375
 40
0.5
 40
0.5
 40
0.5
 40
0.5
 40
0.625
 40
0.625
 40
0.625
 40
0.625
 40
0.75
 40
0.75
 40
0.75
 40
0.75
 40
1.0
 40
1.0
 40
1.0
 40
1.0
 10
-144.5099
 20
-89.9028
 30
0.0
 10
-143.4771
 20
-91.6756
 30
0.0
 10
-142.266
 20
-93.3012
 30
0.0
 10
-140.9709
 20
-94.8817
 30
0.0
 10
-140.9709
 20
-94.8817
 30
0.0
 10
-141.452
 20
-96.2158
 30
0.0
 10
-143.0276
 20
-97.8623
 30
0.0
 10
-144.3369
 20
-98.8541
 30
0.0
 10
-144.3369
 20
-98.8541
 30
0.0
 10
-146.8216
 20
-95.5767
 30
0.0
 10
-148.1274
 20
-93.1926
 30
0.0
 10
-148.4196
 20
-89.5742
 30
0.0
 10
-148.4196
 20
-89.5742
 30
0.0
 10
-149.4869
 20
-89.9201
 30
0.0
 10
-150.466
 20
-90.2661
 30
0.0
 10
-151.6216
 20
-89.9506
 30
0.0
 10
-151.6216
 20
-89.9506
 30
0.0
 10
-151.2392
 20
-88.7335
 30
0.0
 10
-151.3568
 20
-87.5783
 30
0.0
 10
-151.3498
 20
-86.1255
 30
0.0
 10
-151.3498
 20
-86.1255
 30
0.0
 10
-147.1387
 20
-85.1572
 30
0.0
 10
-146.2891
 20
-86.975
 30
0.0
 10
-144.5098
 20
-89.9029
 30
0.0
 10
-144.5098
 20
-89.9029
 30
0.0
 10
-144.5098
 20
-89.9029
 30
0.0
 10
-144.5099
 20
-89.9028
 30
0.0
 10
-144.5099
 20
-89.9028
 30
0.0
  0
SPLINE
  5
BA
330
1F
100
AcDbEntity
  8
layer 1
 62
     7
100
AcDbSpline
210
0.0
220
0.0
230
1.0
 70
    11
 71
     3
 72
    32
 73
    28
 74
     0
 42
0.0000000001
 43
0.0000000001
 12
1.0
 22
0.0
 32
0.0
 13
1.0
 23
0.0
 33
0.0
 40
0.0
 40
0.0
 40
0.0
 40
0.0
 40
0.125
 40
0.125
 40
0.125
 40
0.125
 40
0.25
 40
0.25
 40
0.25
 40
0.25
 40
0.375
 40
0.375
 40
0.375
 40
0.375
 40
0.5
 40
0.5
 40
0.5
 40
0.5
 40
0.625
 40
0.625
 40
0.625
 40
0.625
 40
0.75
 40
0.75
 40
0.75
 40
0.75
 40
1.0
 40
1.0
 40
1.0
 40
1.0
 10
-130.7385
 20
-87.1028
 30
0.0
 10
-131.2722
 20
-88.8505
 30
0.0
 10
-131.1234
 20
-89.3522
 30
0.0
 10
-131.8557
 20
-91.9311
 30
0.0
 10
-131.8557
 20
-91.9311
 30
0.0
 10
-130.5367
 20
-93.1259
 30
0.0
 10
-128.7615
 20
-93.8381
 30
0.0
 10
-127.1668
 20
-94.215
 30
0.0
 10
-127.1668
 20
-94.215
 30
0.0
 10
-128.2738
 20
-95.0415
 30
0.0
 10
-128.5887
 20
-95.8328
 30
0.0
 10
-128.7177
 20
-97.6005
 30
0.0
 10
-128.7177
 20
-97.6005
 30
0.0
 10
-131.0905
 20
-96.6861
 30
0.0
 10
-133.562
 20
-95.0323
 30
0.0
 10
-135.6309
 20
-93.5872
 30
0.0
 10
-135.6309
 20
-93.5872
 30
0.0
 10
-134.8511
 20
-91.5446
 30
0.0
 10
-134.266
 20
-88.7564
 30
0.0
 10
-134.0383
 20
-86.5834
 30
0.0
 10
-134.0383
 20
-86.5834
 30
0.0
 10
-132.9783
 20
-87.8454
 30
0.0
 10
-131.8759
 20
-88.036
 30
0.0
 10
-130.7385
 20
-87.1027
 30
0.0
 10
-130.7385
 20
-87.1027
 30
0.0
 10
-130.7385
 20
-87.1027
 30
0.0
 10
-130.7385
 20
-87.1028
 30
0.0
 10
-130.7385
 20
-87.1028
 30
0.0
  0
SPLINE
  5
BB
330
1F
100
AcDbEntity
  8
layer 1
 62
     7
100
AcDbSpline
210
0.0
220
0.0
230
1.0
 70
    11
 71
     3
 72
    60
 73
    56
 74
     0
 42
0.0000000001
 43
0.0000000001
 12
1.0
 22
0.0
 32
0.0
 13
1.0
 23
0.0
 33
0.0
 40
0.0
 40
0.0
 40
0.0
 40
0.0
 40
0.0666666666666667
 40
0.0666666666666667
 40
0.0666666666666667
 40
0.0666666666666667
 40
0.1333333333333333
 40
0.1333333333333333
 40
0.1333333333333333
 40
0.1333333333333333
 40
0.2
 40
0.2
 40
0.2
 40
0.2
 40
0.2666666666666667
 40
0.2666666666666667
 40
0.2666666666666667
 40
0.2666666666666667
 40
0.3333333333333333
 40
0.3333333333333333
 40
0.3333333333333333
 40
0.3333333333333333
 40
0.4
 40
0.4
 40
0.4
 40
0.4
 40
0.4666666666666667
 40
0.4666666666666667
 40
0.4666666666666667
 40
0.4666666666666667
 40
0.5333333333333333
 40
0.5333333333333333
 40
0.5333333333333333
 40
0.5333333333333333
 40
0.6
 40
0.6
 40
0.6
 40
0.6
 40
0.6666666666666666
 40
0.6666666666666666
 40
0.6666666666666666
 40
0.6666666666666666
 40
0.7333333333333333
 40
0.7333333333333333
 40
0.7333333333333333
 40
0.7333333333333333
 40
0.8
 40
0.8
 40
0.8
 40
0.8
 40
0.8666666666666667
 40
0.8666666666666667
 40
0.8666666666666667
 40
0.8666666666666667
 40
1.0
 40
1.0
 40
1.0
 40
1.0
 10
-179.7813
 20
-89.7647
 30
0.0
 10
-179.7785
 20
-89.9651
 30
0.0
 10
-179.8065
 20
-91.1988
 30
0.0
 10
-178.5741
 20
-91.2774
 30
0.0
 10
-178.5741
 20
-91.2774
 30
0.0
 10
-177.8658
 20
-91.217
 30
0.0
 10
-177.5175
 20
-90.7628
 30
0.0
 10
-177.4649
 20
-89.8617
 30
0.0
 10
-177.4649
 20
-89.8617
 30
0.0
 10
-176.7688
 20
-89.8045
 30
0.0
 10
-175.8647
 20
-89.3321
 30
0.0
 10
-175.2708
 20
-88.5486
 30
0.0
 10
-175.2708
 20
-88.5486
 30
0.0
 10
-174.6535
 20
-94.412
 30
0.0
 10
-173.1957
 20
-97.639
 30
0.0
 10
-170.143
 20
-101.3269
 30
0.0
 10
-170.143
 20
-101.3269
 30
0.0
 10
-170.143
 20
-101.3269
 30
0.0
 10
-171.723
 20
-101.3269
 30
0.0
 10
-171.723
 20
-101.3269
 30
0.0
 10
-171.723
 20
-101.3269
 30
0.0
 10
-173.185
 20
-101.3269
 30
0.0
 10
-173.3357
 20
-101.2634
 30
0.0
 10
-173.7432
 20
-100.4755
 30
0.0
 10
-173.7432
 20
-100.4755
 30
0.0
 10
-174.2621
 20
-99.4718
 30
0.0
 10
-174.9813
 20
-99.0321
 30
0.0
 10
-176.0936
 20
-99.0381
 30
0.0
 10
-176.0936
 20
-99.0381
 30
0.0
 10
-177.3047
 20
-99.0448
 30
0.0
 10
-177.8511
 20
-99.4862
 30
0.0
 10
-176.9333
 20
-99.7166
 30
0.0
 10
-176.9333
 20
-99.7166
 30
0.0
 10
-176.1172
 20
-100.085
 30
0.0
 10
-175.5725
 20
-100.7167
 30
0.0
 10
-175.3324
 20
-101.439
 30
0.0
 10
-175.3324
 20
-101.439
 30
0.0
 10
-179.0872
 20
-101.6015
 30
0.0
 10
-181.0165
 20
-106.997
 30
0.0
 10
-178.5997
 20
-109.8931
 30
0.0
 10
-178.5997
 20
-109.8931
 30
0.0
 10
-178.5997
 20
-109.8931
 30
0.0
 10
-182.2038
 20
-109.9264
 30
0.0
 10
-182.2038
 20
-109.9264
 30
0.0
 10
-182.2038
 20
-109.9264
 30
0.0
 10
-182.2038
 20
-102.6539
 30
0.0
 10
-182.2038
 20
-95.3812
 30
0.0
 10
-182.2038
 20
-88.1087
 30
0.0
 10
-182.2038
 20
-88.1087
 30
0.0
 10
-181.8845
 20
-88.8418
 30
0.0
 10
-180.7418
 20
-89.7623
 30
0.0
 10
-179.7815
 20
-89.7647
 30
0.0
 10
-179.7815
 20
-89.7647
 30
0.0
 10
-179.7815
 20
-89.7647
 30
0.0
 10
-179.7813
 20
-89.7647
 30
0.0
 10
-179.7813
 20
-89.7647
 30
0.0
  0
SPLINE
  5
BC
330
1F
100
AcDbEntity
  8
layer 1
 62
     7
100
AcDbSpline
210
0.0
220
0.0
230
1.0
 70
    11
 71
     3
 72
    40
 73
    36
 74
     0
 42
0.0000000001
 43
0.0000000001
 12
1.0
 22
0.0
 32
0.0
 13
1.0
 23
0.0
 33
0.0
 40
0.0
 40
0.0
 40
0.0
 40
0.0
 40
0.1
 40
0.1
 40
0.1
 40
0.1
 40
0.2
 40
0.2
 40
0.2
 40
0.2
 40
0.3
 40
0.3
 40
0.3
 40
0.3
 40
0.4
 40
0.4
 40
0.4
 40
0.4
 40
0.5
 40
0.5
 40
0.5
 40
0.5
 40
0.6
 40
0.6
 40
0.6
 40
0.6
 40
0.7
 40
0.7
 40
0.7
 40
0.7
 40
0.8
 40
0.8
 40
0.8
 40
0.8
 40
1.0
 40
1.0
 40
1.0
 40
1.0
 10
-152.1288
 20
-91.5816
 30
0.0
 10
-151.3316
 20
-91.7547
 30
0.0
 10
-150.6609
 20
-91.7995
 30
0.0
 10
-149.6761
 20
-91.8338
 30
0.0
 10
-149.6761
 20
-91.8338
 30
0.0
 10
-149.4458
 20
-95.5556
 30
0.0
 10
-147.1479
 20
-97.5205
 30
0.0
 10
-145.799
 20
-100.2891
 30
0.0
 10
-145.799
 20
-100.2891
 30
0.0
 10
-147.7339
 20
-101.6949
 30
0.0
 10
-150.5187
 20
-102.3049
 30
0.0
 10
-152.7479
 20
-102.9642
 30
0.0
 10
-152.7479
 20
-102.9642
 30
0.0
 10
-151.8268
 20
-102.2119
 30
0.0
 10
-151.2585
 20
-100.8126
 30
0.0
 10
-151.3572
 20
-99.7926
 30
0.0
 10
-151.3572
 20
-99.7926
 30
0.0
 10
-150.7753
 20
-99.865
 30
0.0
 10
-149.7785
 20
-99.4226
 30
0.0
 10
-149.8494
 20
-98.5488
 30
0.0
 10
-149.8494
 20
-98.5488
 30
0.0
 10
-149.7698
 20
-97.4632
 30
0.0
 10
-150.5537
 20
-97.151
 30
0.0
 10
-151.3306
 20
-97.0799
 30
0.0
 10
-151.3306
 20
-97.0799
 30
0.0
 10
-151.647
 20
-95.9032
 30
0.0
 10
-152.7955
 20
-94.4733
 30
0.0
 10
-154.6908
 20
-94.0927
 30
0.0
 10
-154.6908
 20
-94.0927
 30
0.0
 10
-153.4468
 20
-93.5705
 30
0.0
 10
-152.76
 20
-92.7551
 30
0.0
 10
-152.1287
 20
-91.5815
 30
0.0
 10
-152.1287
 20
-91.5815
 30
0.0
 10
-152.1287
 20
-91.5815
 30
0.0
 10
-152.1288
 20
-91.5816
 30
0.0
 10
-152.1288
 20
-91.5816
 30
0.0
  0
SPLINE
  5
BD
330
1F
100
AcDbEntity
  8
layer 1
 62
     7
100
AcDbSpline
210
0.0
220
0.0
230
1.0
 70
    11
 71
     3
 72
    52
 73
    48
 74
     0
 42
0.0000000001
 43
0.0000000001
 12
1.0
 22
0.0
 32
0.0
 13
1.0
 23
0.0
 33
0.0
 40
0.0
 40
0.0
 40
0.0
 40
0.0
 40
0.0769230769230769
 40
0.0769230769230769
 40
0.0769230769230769
 40
0.0769230769230769
 40
0.1538461538461539
 40
0.1538461538461539
 40
0.1538461538461539
 40
0.1538461538461539
 40
0.2307692307692308
 40
0.2307692307692308
 40
0.2307692307692308
 40
0.2307692307692308
 40
0.3076923076923077
 40
0.3076923076923077
 40
0.3076923076923077
 40
0.3076923076923077
 40
0.3846153846153846
 40
0.3846153846153846
 40
0.3846153846153846
 40
0.3846153846153846
 40
0.4615384615384616
 40
0.4615384615384616
 40
0.4615384615384616
 40
0.4615384615384616
 40
0.5384615384615384
 40
0.5384615384615384
 40
0.5384615384615384
 40
0.5384615384615384
 40
0.6153846153846154
 40
0.6153846153846154
 40
0.6153846153846154
 40
0.6153846153846154
 40
0.6923076923076923
 40
0.6923076923076923
 40
0.6923076923076923
 40
0.6923076923076923
 40
0.7692307692307693
 40
0.7692307692307693
 40
0.7692307692307693
 40
0.7692307692307693
 40
0.8461538461538461
 40
0.8461538461538461
 40
0.8461538461538461
 40
0.8461538461538461
 40
1.0
 40
1.0
 40
1.0
 40
1.0
 10
-137.7369
 20
-98.1649
 30
0.0
 10
-138.4416
 20
-99.1108
 30
0.0
 10
-139.377
 20
-100.3995
 30
0.0
 10
-140.3624
 20
-101.4338
 30
0.0
 10
-140.3624
 20
-101.4338
 30
0.0
 10
-138.8623
 20
-102.5947
 30
0.0
 10
-137.4976
 20
-103.5934
 30
0.0
 10
-136.0428
 20
-104.1897
 30
0.0
 10
-136.0428
 20
-104.1897
 30
0.0
 10
-135.6696
 20
-106.3043
 30
0.0
 10
-135.0671
 20
-108.2949
 30
0.0
 10
-134.1693
 20
-109.8932
 30
0.0
 10
-134.1693
 20
-109.8932
 30
0.0
 10
-134.1693
 20
-109.8932
 30
0.0
 10
-125.5807
 20
-109.8932
 30
0.0
 10
-125.5807
 20
-109.8932
 30
0.0
 10
-125.5807
 20
-109.8932
 30
0.0
 10
-125.5807
 20
-109.8932
 30
0.0
 10
-125.5085
 20
-109.8932
 30
0.0
 10
-125.5085
 20
-109.8932
 30
0.0
 10
-125.5085
 20
-109.8932
 30
0.0
 10
-125.5085
 20
-109.8932
 30
0.0
 10
-116.9199
 20
-109.8932
 30
0.0
 10
-116.9199
 20
-109.8932
 30
0.0
 10
-116.9199
 20
-109.8932
 30
0.0
 10
-116.0221
 20
-108.2949
 30
0.0
 10
-115.4196
 20
-106.3043
 30
0.0
 10
-115.0464
 20
-104.1897
 30
0.0
 10
-115.0464
 20
-104.1897
 30
0.0
 10
-113.5916
 20
-103.5933
 30
0.0
 10
-112.227
 20
-102.5946
 30
0.0
 10
-110.7268
 20
-101.4338
 30
0.0
 10
-110.7268
 20
-101.4338
 30
0.0
 10
-111.7123
 20
-100.3995
 30
0.0
 10
-112.6477
 20
-99.1108
 30
0.0
 10
-113.3523
 20
-98.1649
 30
0.0
 10
-113.3523
 20
-98.1649
 30
0.0
 10
-116.6318
 20
-100.8206
 30
0.0
 10
-121.1993
 20
-103.3504
 30
0.0
 10
-125.6048
 20
-103.4256
 30
0.0
 10
-125.6048
 20
-103.4256
 30
0.0
 10
-130.0103
 20
-103.5008
 30
0.0
 10
-134.4575
 20
-100.8206
 30
0.0
 10
-137.7368
 20
-98.1649
 30
0.0
 10
-137.7368
 20
-98.1649
 30
0.0
 10
-137.7368
 20
-98.1649
 30
0.0
 10
-137.7369
 20
-98.1649
 30
0.0
 10
-137.7369
 20
-98.1649
 30
0.0
  0
SPLINE
  5
BE
330
1F
100
AcDbEntity
  8
layer 1
 62
     7
100
AcDbSpline
210
0.0
220
0.0
230
1.0
 70
    11
 71
     3
 72
    32
 73
    28
 74
     0
 42
0.0000000001
 43
0.0000000001
 12
1.0
 22
0.0
 32
0.0
 13
1.0
 23
0.0
 33
0.0
 40
0.0
 40
0.0
 40
0.0
 40
0.0
 40
0.125
 40
0.125
 40
0.125
 40
0.125
 40
0.25
 40
0.25
 40
0.25
 40
0.25
 40
0.375
 40
0.375
 40
0.375
 40
0.375
 40
0.5
 40
0.5
 40
0.5
 40
0.5
 40
0.625
 40
0.625
 40
0.625
 40
0.625
 40
0.75
 40
0.75
 40
0.75
 40
0.75
 40
1.0
 40
1.0
 40
1.0
 40
1.0
 10
-137.7729
 20
-105.8429
 30
0.0
 10
-137.5102
 20
-107.1984
 30
0.0
 10
-137.2827
 20
-108.4874
 30
0.0
 10
-136.6491
 20
-109.8933
 30
0.0
 10
-136.6491
 20
-109.8933
 30
0.0
 10
-136.6491
 20
-109.8933
 30
0.0
 10
-152.9293
 20
-109.9266
 30
0.0
 10
-152.9293
 20
-109.9266
 30
0.0
 10
-152.9293
 20
-109.9266
 30
0.0
 10
-152.9293
 20
-109.9266
 30
0.0
 10
-152.7597
 20
-108.8517
 30
0.0
 10
-152.7597
 20
-108.8517
 30
0.0
 10
-152.7597
 20
-108.8517
 30
0.0
 10
-152.5729
 20
-107.668
 30
0.0
 10
-152.2778
 20
-107.3578
 30
0.0
 10
-151.3321
 20
-107.3512
 30
0.0
 10
-151.3321
 20
-107.3512
 30
0.0
 10
-147.8538
 20
-106.8274
 30
0.0
 10
-145.2677
 20
-104.7695
 30
0.0
 10
-142.3281
 20
-103.3346
 30
0.0
 10
-142.3281
 20
-103.3346
 30
0.0
 10
-140.4163
 20
-104.59
 30
0.0
 10
-139.2002
 20
-105.4146
 30
0.0
 10
-137.773
 20
-105.843
 30
0.0
 10
-137.773
 20
-105.843
 30
0.0
 10
-137.773
 20
-105.843
 30
0.0
 10
-137.7729
 20
-105.8429
 30
0.0
 10
-137.7729
 20
-105.8429
 30
0.0
  0
SPLINE
  5
BF
330
1F
100
AcDbEntity
  8
layer 1
 62
     7
100
AcDbSpline
210
0.0
220
0.0
230
1.0
 70
    11
 71
     3
 72
    36
 73
    32
 74
     0
 42
0.0000000001
 43
0.0000000001
 12
1.0
 22
0.0
 32
0.0
 13
1.0
 23
0.0
 33
0.0
 40
0.0
 40
0.0
 40
0.0
 40
0.0
 40
0.1111111111111111
 40
0.1111111111111111
 40
0.1111111111111111
 40
0.1111111111111111
 40
0.2222222222222222
 40
0.2222222222222222
 40
0.2222222222222222
 40
0.2222222222222222
 40
0.3333333333333333
 40
0.3333333333333333
 40
0.3333333333333333
 40
0.3333333333333333
 40
0.4444444444444444
 40
0.4444444444444444
 40
0.4444444444444444
 40
0.4444444444444444
 40
0.5555555555555556
 40
0.5555555555555556
 40
0.5555555555555556
 40
0.5555555555555556
 40
0.6666666666666666
 40
0.6666666666666666
 40
0.6666666666666666
 40
0.6666666666666666
 40
0.7777777777777778
 40
0.7777777777777778
 40
0.7777777777777778
 40
0.7777777777777778
 40
1.0
 40
1.0
 40
1.0
 40
1.0
 10
-168.3213
 20
-104.7744
 30
0.0
 10
-166.7264
 20
-105.6194
 30
0.0
 10
-165.5873
 20
-106.001
 30
0.0
 10
-164.0689
 20
-106.1991
 30
0.0
 10
-164.0689
 20
-106.1991
 30
0.0
 10
-162.9281
 20
-106.3478
 30
0.0
 10
-161.5971
 20
-106.5873
 30
0.0
 10
-161.1108
 20
-106.7311
 30
0.0
 10
-161.1108
 20
-106.7311
 30
0.0
 10
-159.631
 20
-107.0891
 30
0.0
 10
-158.3508
 20
-107.2104
 30
0.0
 10
-156.8351
 20
-107.3864
 30
0.0
 10
-156.8351
 20
-107.3864
 30
0.0
 10
-156.8351
 20
-108.2332
 30
0.0
 10
-156.8351
 20
-109.0799
 30
0.0
 10
-156.8351
 20
-109.9265
 30
0.0
 10
-156.8351
 20
-109.9265
 30
0.0
 10
-163.277
 20
-109.9265
 30
0.0
 10
-169.719
 20
-109.9265
 30
0.0
 10
-176.1609
 20
-109.9265
 30
0.0
 10
-176.1609
 20
-109.9265
 30
0.0
 10
-176.1609
 20
-109.9265
 30
0.0
 10
-176.4863
 20
-108.8403
 30
0.0
 10
-176.4863
 20
-108.8403
 30
0.0
 10
-176.4863
 20
-108.8403
 30
0.0
 10
-177.1182
 20
-106.7315
 30
0.0
 10
-175.804
 20
-104.3257
 30
0.0
 10
-173.7474
 20
-103.826
 30
0.0
 10
-173.7474
 20
-103.826
 30
0.0
 10
-171.9159
 20
-103.3811
 30
0.0
 10
-170.4761
 20
-103.6327
 30
0.0
 10
-168.3213
 20
-104.7744
 30
0.0
  0
SPLINE
  5
C0
330
1F
100
AcDbEntity
  8
layer 1
 62
     7
100
AcDbSpline
210
0.0
220
0.0
230
1.0
 70
    11
 71
     3
 72
    20
 73
    16
 74
     0
 42
0.0000000001
 43
0.0000000001
 12
1.0
 22
0.0
 32
0.0
 13
1.0
 23
0.0
 33
0.0
 40
0.0
 40
0.0
 40
0.0
 40
0.0
 40
0.2
 40
0.2
 40
0.2
 40
0.2
 40
0.4
 40
0.4
 40
0.4
 40
0.4
 40
0.6
 40
0.6
 40
0.6
 40
0.6
 40
1.0
 40
1.0
 40
1.0
 40
1.0
 10
-152.6886
 20
-98.6851
 30
0.0
 10
-152.6886
 20
-97.1911
 30
0.0
 10
-153.8997
 20
-95.9799
 30
0.0
 10
-155.3937
 20
-95.9799
 30
0.0
 10
-155.3937
 20
-95.9799
 30
0.0
 10
-156.8878
 20
-95.9799
 30
0.0
 10
-158.0989
 20
-97.1911
 30
0.0
 10
-158.0989
 20
-98.6851
 30
0.0
 10
-158.0989
 20
-98.6851
 30
0.0
 10
-158.0989
 20
-100.1791
 30
0.0
 10
-156.8878
 20
-101.3902
 30
0.0
 10
-155.3937
 20
-101.3902
 30
0.0
 10
-155.3937
 20
-101.3902
 30
0.0
 10
-153.8997
 20
-101.3902
 30
0.0
 10
-152.6886
 20
-100.1791
 30
0.0
 10
-152.6886
 20
-98.6851
 30
0.0
  0
SPLINE
  5
C1
330
1F
100
AcDbEntity
  8
layer 1
 62
     7
100
AcDbSpline
210
0.0
220
0.0
230
1.0
 70
    11
 71
     3
 72
    20
 73
    16
 74
     0
 42
0.0000000001
 43
0.0000000001
 12
1.0
 22
0.0
 32
0.0
 13
1.0
 23
0.0
 33
0.0
 40
0.0
 40
0.0
 40
0.0
 40
0.0
 40
0.2
 40
0.2
 40
0.2
 40
0.2
 40
0.4
 40
0.4
 40
0.4
 40
0.4
 40
0.6
 40
0.6
 40
0.6
 40
0.6
 40
1.0
 40
1.0
 40
1.0
 40
1.0
 10
-101.0992
 20
-52.6733
 30
0.0
 10
-101.0992
 20
-51.8757
 30
0.0
 10
-100.4526
 20
-51.229
 30
0.0
 10
-99.6549
 20
-51.229
 30
0.0
 10
-99.6549
 20
-51.229
 30
0.0
 10
-98.8573
 20
-51.229
 30
0.0
 10
-98.2106
 20
-51.8756
 30
0.0
 10
-98.2106
 20
-52.6733
 30
0.0
 10
-98.2106
 20
-52.6733
 30
0.0
 10
-98.2106
 20
-53.4709
 30
0.0
 10
-98.8572
 20
-54.1176
 30
0.0
 10
-99.6549
 20
-54.1176
 30
0.0
 10
-99.6549
 20
-54.1176
 30
0.0
 10
-100.4525
 20
-54.1176
 30
0.0
 10
-101.0992
 20
-53.471
 30
0.0
 10
-101.0992
 20
-52.6733
 30
0.0
  0
SPLINE
  5
C2
330
1F
100
AcDbEntity
  8
layer 1
 62
     7
100
AcDbSpline
210
0.0
220
0.0
230
1.0
 70
    11
 71
     3
 72
    20
 73
    16
 74
     0
 42
0.0000000001
 43
0.0000000001
 12
1.0
 22
0.0
 32
0.0
 13
1.0
 23
0.0
 33
0.0
 40
0.0
 40
0.0
 40
0.0
 40
0.0
 40
0.2
 40
0.2
 40
0.2
 40
0.2
 40
0.4
 40
0.4
 40
0.4
 40
0.4
 40
0.6
 40
0.6
 40
0.6
 40
0.6
 40
1.0
 40
1.0
 40
1.0
 40
1.0
 10
-74.4938
 20
-86.1519
 30
0.0
 10
-74.4938
 20
-85.0102
 30
0.0
 10
-73.5682
 20
-84.0847
 30
0.0
 10
-72.4267
 20
-84.0847
 30
0.0
 10
-72.4267
 20
-84.0847
 30
0.0
 10
-71.285
 20
-84.0847
 30
0.0
 10
-70.3595
 20
-85.0103
 30
0.0
 10
-70.3595
 20
-86.1519
 30
0.0
 10
-70.3595
 20
-86.1519
 30
0.0
 10
-70.3595
 20
-87.2935
 30
0.0
 10
-71.2851
 20
-88.219
 30
0.0
 10
-72.4267
 20
-88.219
 30
0.0
 10
-72.4267
 20
-88.219
 30
0.0
 10
-73.5683
 20
-88.219
 30
0.0
 10
-74.4938
 20
-87.2934
 30
0.0
 10
-74.4938
 20
-86.1519
 30
0.0
  0
SPLINE
  5
C3
330
1F
100
AcDbEntity
  8
layer 1
 62
     7
100
AcDbSpline
210
0.0
220
0.0
230
1.0
 70
    11
 71
     3
 72
    72
 73
    68
 74
     0
 42
0.0000000001
 43
0.0000000001
 12
1.0
 22
0.0
 32
0.0
 13
1.0
 23
0.0
 33
0.0
 40
0.0
 40
0.0
 40
0.0
 40
0.0
 40
0.0555555555555556
 40
0.0555555555555556
 40
0.0555555555555556
 40
0.0555555555555556
 40
0.1111111111111111
 40
0.1111111111111111
 40
0.1111111111111111
 40
0.1111111111111111
 40
0.1666666666666667
 40
0.1666666666666667
 40
0.1666666666666667
 40
0.1666666666666667
 40
0.2222222222222222
 40
0.2222222222222222
 40
0.2222222222222222
 40
0.2222222222222222
 40
0.2777777777777778
 40
0.2777777777777778
 40
0.2777777777777778
 40
0.2777777777777778
 40
0.3333333333333333
 40
0.3333333333333333
 40
0.3333333333333333
 40
0.3333333333333333
 40
0.3888888888888889
 40
0.3888888888888889
 40
0.3888888888888889
 40
0.3888888888888889
 40
0.4444444444444444
 40
0.4444444444444444
 40
0.4444444444444444
 40
0.4444444444444444
 40
0.5
 40
0.5
 40
0.5
 40
0.5
 40
0.5555555555555556
 40
0.5555555555555556
 40
0.5555555555555556
 40
0.5555555555555556
 40
0.6111111111111112
 40
0.6111111111111112
 40
0.6111111111111112
 40
0.6111111111111112
 40
0.6666666666666666
 40
0.6666666666666666
 40
0.6666666666666666
 40
0.6666666666666666
 40
0.7222222222222222
 40
0.7222222222222222
 40
0.7222222222222222
 40
0.7222222222222222
 40
0.7777777777777778
 40
0.7777777777777778
 40
0.7777777777777778
 40
0.7777777777777778
 40
0.8333333333333334
 40
0.8333333333333334
 40
0.8333333333333334
 40
0.8333333333333334
 40
0.8888888888888888
 40
0.8888888888888888
 40
0.8888888888888888
 40
0.8888888888888888
 40
1.0
 40
1.0
 40
1.0
 40
1.0
 10
-97.2946
 20
7.025
 30
0.0
 10
-97.4974
 20
3.3678
 30
0.0
 10
-97.5154
 20
-0.5443
 30
0.0
 10
-98.9839
 20
-3.6305
 30
0.0
 10
-98.9839
 20
-3.6305
 30
0.0
 10
-93.1179
 20
-2.1441
 30
0.0
 10
-93.7961
 20
-8.4544
 30
0.0
 10
-94.1578
 20
-10.3459
 30
0.0
 10
-94.1578
 20
-10.3459
 30
0.0
 10
-93.5375
 20
-10.4504
 30
0.0
 10
-93.0953
 20
-9.664
 30
0.0
 10
-92.2577
 20
-9.0259
 30
0.0
 10
-92.2577
 20
-9.0259
 30
0.0
 10
-91.7114
 20
-11.2998
 30
0.0
 10
-93.066
 20
-13.9841
 30
0.0
 10
-94.7483
 20
-14.9354
 30
0.0
 10
-94.7483
 20
-14.9354
 30
0.0
 10
-95.5876
 20
-15.3694
 30
0.0
 10
-95.6254
 20
-15.4395
 30
0.0
 10
-95.1164
 20
-15.6181
 30
0.0
 10
-95.1164
 20
-15.6181
 30
0.0
 10
-92.8314
 20
-16.7773
 30
0.0
 10
-89.9763
 20
-14.8977
 30
0.0
 10
-88.2644
 20
-13.4309
 30
0.0
 10
-88.2644
 20
-13.4309
 30
0.0
 10
-89.3965
 20
-12.6899
 30
0.0
 10
-89.6202
 20
-11.2122
 30
0.0
 10
-89.3815
 20
-10.4603
 30
0.0
 10
-89.3815
 20
-10.4603
 30
0.0
 10
-87.9006
 20
-8.4267
 30
0.0
 10
-85.7032
 20
-7.3852
 30
0.0
 10
-86.5072
 20
-4.9413
 30
0.0
 10
-86.5072
 20
-4.9413
 30
0.0
 10
-86.9047
 20
-3.7877
 30
0.0
 10
-86.7937
 20
-3.6861
 30
0.0
 10
-85.6876
 20
-4.1901
 30
0.0
 10
-85.6876
 20
-4.1901
 30
0.0
 10
-84.2235
 20
-5.2142
 30
0.0
 10
-84.5763
 20
-6.5975
 30
0.0
 10
-84.0629
 20
-7.8787
 30
0.0
 10
-84.0629
 20
-7.8787
 30
0.0
 10
-83.7216
 20
-7.8799
 30
0.0
 10
-82.6502
 20
-3.901
 30
0.0
 10
-82.4716
 20
-1.9691
 30
0.0
 10
-82.4716
 20
-1.9691
 30
0.0
 10
-82.2109
 20
0.8501
 30
0.0
 10
-82.6878
 20
2.6556
 30
0.0
 10
-84.1235
 20
4.2868
 30
0.0
 10
-84.1235
 20
4.2868
 30
0.0
 10
-87.7549
 20
8.3268
 30
0.0
 10
-92.4961
 20
4.8276
 30
0.0
 10
-91.453
 20
2.9922
 30
0.0
 10
-91.453
 20
2.9922
 30
0.0
 10
-88.5968
 20
4.803
 30
0.0
 10
-87.1178
 20
1.4285
 30
0.0
 10
-88.6424
 20
-0.1618
 30
0.0
 10
-88.6424
 20
-0.1618
 30
0.0
 10
-92.0526
 20
-3.1383
 30
0.0
 10
-96.3982
 20
2.3127
 30
0.0
 10
-92.7556
 20
5.8799
 30
0.0
 10
-92.7556
 20
5.8799
 30
0.0
 10
-94.482
 20
5.2722
 30
0.0
 10
-95.606
 20
5.5128
 30
0.0
 10
-97.2945
 20
7.025
 30
0.0
 10
-97.2945
 20
7.025
 30
0.0
 10
-97.2945
 20
7.025
 30
0.0
 10
-97.2946
 20
7.025
 30
0.0
 10
-97.2946
 20
7.025
 30
0.0
  0
SPLINE
  5
C4
330
1F
100
AcDbEntity
  8
layer 1
 62
     7
100
AcDbSpline
210
0.0
220
0.0
230
1.0
 70
    11
 71
     3
 72
    60
 73
    56
 74
     0
 42
0.0000000001
 43
0.0000000001
 12
1.0
 22
0.0
 32
0.0
 13
1.0
 23
0.0
 33
0.0
 40
0.0
 40
0.0
 40
0.0
 40
0.0
 40
0.0666666666666667
 40
0.0666666666666667
 40
0.0666666666666667
 40
0.0666666666666667
 40
0.1333333333333333
 40
0.1333333333333333
 40
0.1333333333333333
 40
0.1333333333333333
 40
0.2
 40
0.2
 40
0.2
 40
0.2
 40
0.2666666666666667
 40
0.2666666666666667
 40
0.2666666666666667
 40
0.2666666666666667
 40
0.3333333333333333
 40
0.3333333333333333
 40
0.3333333333333333
 40
0.3333333333333333
 40
0.4
 40
0.4
 40
0.4
 40
0.4
 40
0.4666666666666667
 40
0.4666666666666667
 40
0.4666666666666667
 40
0.4666666666666667
 40
0.5333333333333333
 40
0.5333333333333333
 40
0.5333333333333333
 40
0.5333333333333333
 40
0.6
 40
0.6
 40
0.6
 40
0.6
 40
0.6666666666666666
 40
0.6666666666666666
 40
0.6666666666666666
 40
0.6666666666666666
 40
0.7333333333333333
 40
0.7333333333333333
 40
0.7333333333333333
 40
0.7333333333333333
 40
0.8
 40
0.8
 40
0.8
 40
0.8
 40
0.8666666666666667
 40
0.8666666666666667
 40
0.8666666666666667
 40
0.8666666666666667
 40
1.0
 40
1.0
 40
1.0
 40
1.0
 10
-78.3505
 20
7.0265
 30
0.0
 10
-79.2012
 20
6.2562
 30
0.0
 10
-78.7514
 20
5.1934
 30
0.0
 10
-77.7102
 20
4.1084
 30
0.0
 10
-77.7102
 20
4.1084
 30
0.0
 10
-80.1958
 20
3.148
 30
0.0
 10
-81.8143
 20
7.928
 30
0.0
 10
-83.7258
 20
6.7866
 30
0.0
 10
-83.7258
 20
6.7866
 30
0.0
 10
-77.3911
 20
-0.3278
 30
0.0
 10
-82.6348
 20
-8.6172
 30
0.0
 10
-82.1462
 20
-8.5281
 30
0.0
 10
-82.1462
 20
-8.5281
 30
0.0
 10
-81.1014
 20
-8.5153
 30
0.0
 10
-79.7713
 20
-9.0408
 30
0.0
 10
-79.2425
 20
-9.856
 30
0.0
 10
-79.2425
 20
-9.856
 30
0.0
 10
-83.4199
 20
-10.5873
 30
0.0
 10
-81.8714
 20
-11.9792
 30
0.0
 10
-84.4237
 20
-15.2597
 30
0.0
 10
-84.4237
 20
-15.2597
 30
0.0
 10
-84.8582
 20
-15.7833
 30
0.0
 10
-86.1943
 20
-15.4012
 30
0.0
 10
-86.822
 20
-14.7734
 30
0.0
 10
-86.822
 20
-14.7734
 30
0.0
 10
-88.0768
 20
-15.7731
 30
0.0
 10
-90.0491
 20
-16.8097
 30
0.0
 10
-91.1751
 20
-17.3587
 30
0.0
 10
-91.1751
 20
-17.3587
 30
0.0
 10
-88.5429
 20
-19.3735
 30
0.0
 10
-87.1988
 20
-21.1015
 30
0.0
 10
-86.7032
 20
-21.7836
 30
0.0
 10
-86.7032
 20
-21.7836
 30
0.0
 10
-86.1721
 20
-22.4983
 30
0.0
 10
-84.4577
 20
-23.2596
 30
0.0
 10
-83.5047
 20
-23.0231
 30
0.0
 10
-83.5047
 20
-23.0231
 30
0.0
 10
-83.9716
 20
-23.776
 30
0.0
 10
-85.1548
 20
-24.4955
 30
0.0
 10
-86.239
 20
-23.7037
 30
0.0
 10
-86.239
 20
-23.7037
 30
0.0
 10
-85.4304
 20
-25.3832
 30
0.0
 10
-84.7052
 20
-28.089
 30
0.0
 10
-85.384
 20
-30.1561
 30
0.0
 10
-85.384
 20
-30.1561
 30
0.0
 10
-82.1683
 20
-27.1614
 30
0.0
 10
-73.0406
 20
-9.4172
 30
0.0
 10
-73.0611
 20
7.3133
 30
0.0
 10
-73.0611
 20
7.3133
 30
0.0
 10
-74.1928
 20
7.4034
 30
0.0
 10
-77.2495
 20
7.5279
 30
0.0
 10
-78.3504
 20
7.0266
 30
0.0
 10
-78.3504
 20
7.0266
 30
0.0
 10
-78.3504
 20
7.0266
 30
0.0
 10
-78.3505
 20
7.0265
 30
0.0
 10
-78.3505
 20
7.0265
 30
0.0
  0
SPLINE
  5
C5
330
1F
100
AcDbEntity
  8
layer 1
 62
     7
100
AcDbSpline
210
0.0
220
0.0
230
1.0
 70
    11
 71
     3
 72
    20
 73
    16
 74
     0
 42
0.0000000001
 43
0.0000000001
 12
1.0
 22
0.0
 32
0.0
 13
1.0
 23
0.0
 33
0.0
 40
0.0
 40
0.0
 40
0.0
 40
0.0
 40
0.2
 40
0.2
 40
0.2
 40
0.2
 40
0.4
 40
0.4
 40
0.4
 40
0.4
 40
0.6
 40
0.6
 40
0.6
 40
0.6
 40
1.0
 40
1.0
 40
1.0
 40
1.0
 10
-113.0298
 20
-1.8633
 30
0.0
 10
-112.3595
 20
-5.4547
 30
0.0
 10
-111.5173
 20
-6.7962
 30
0.0
 10
-110.6175
 20
-8.9286
 30
0.0
 10
-110.6175
 20
-8.9286
 30
0.0
 10
-109.5889
 20
-8.9936
 30
0.0
 10
-108.177
 20
-9.5734
 30
0.0
 10
-107.1596
 20
-10.6518
 30
0.0
 10
-107.1596
 20
-10.6518
 30
0.0
 10
-104.6256
 20
-6.4368
 30
0.0
 10
-103.7087
 20
-2.9304
 30
0.0
 10
-102.9348
 20
1.6506
 30
0.0
 10
-102.9348
 20
1.6506
 30
0.0
 10
-105.6335
 20
-0.7885
 30
0.0
 10
-109.7607
 20
-2.1019
 30
0.0
 10
-113.0298
 20
-1.8633
 30
0.0
  0
SPLINE
  5
C6
330
1F
100
AcDbEntity
  8
layer 1
 62
     7
100
AcDbSpline
210
0.0
220
0.0
230
1.0
 70
    11
 71
     3
 72
    24
 73
    20
 74
     0
 42
0.0000000001
 43
0.0000000001
 12
1.0
 22
0.0
 32
0.0
 13
1.0
 23
0.0
 33
0.0
 40
0.0
 40
0.0
 40
0.0
 40
0.0
 40
0.1666666666666667
 40
0.1666666666666667
 40
0.1666666666666667
 40
0.1666666666666667
 40
0.3333333333333333
 40
0.3333333333333333
 40
0.3333333333333333
 40
0.3333333333333333
 40
0.5
 40
0.5
 40
0.5
 40
0.5
 40
0.6666666666666666
 40
0.6666666666666666
 40
0.6666666666666666
 40
0.6666666666666666
 40
1.0
 40
1.0
 40
1.0
 40
1.0
 10
-119.1618
 20
0.3124
 30
0.0
 10
-118.1082
 20
-1.8795
 30
0.0
 10
-118.0192
 20
-2.8018
 30
0.0
 10
-117.5485
 20
-4.5375
 30
0.0
 10
-117.5485
 20
-4.5375
 30
0.0
 10
-116.1534
 20
-4.6351
 30
0.0
 10
-115.0505
 20
-5.4679
 30
0.0
 10
-113.7639
 20
-6.1309
 30
0.0
 10
-113.7639
 20
-6.1309
 30
0.0
 10
-114.3071
 20
-4.858
 30
0.0
 10
-114.8895
 20
-3.4731
 30
0.0
 10
-114.9287
 20
-1.9142
 30
0.0
 10
-114.9287
 20
-1.9142
 30
0.0
 10
-116.3062
 20
-1.5695
 30
0.0
 10
-117.639
 20
-0.6485
 30
0.0
 10
-119.1617
 20
0.3123
 30
0.0
 10
-119.1617
 20
0.3123
 30
0.0
 10
-119.1617
 20
0.3123
 30
0.0
 10
-119.1618
 20
0.3124
 30
0.0
 10
-119.1618
 20
0.3124
 30
0.0
  0
SPLINE
  5
C7
330
1F
100
AcDbEntity
  8
layer 1
 62
     7
100
AcDbSpline
210
0.0
220
0.0
230
1.0
 70
    11
 71
     3
 72
    28
 73
    24
 74
     0
 42
0.0000000001
 43
0.0000000001
 12
1.0
 22
0.0
 32
0.0
 13
1.0
 23
0.0
 33
0.0
 40
0.0
 40
0.0
 40
0.0
 40
0.0
 40
0.1428571428571428
 40
0.1428571428571428
 40
0.1428571428571428
 40
0.1428571428571428
 40
0.2857142857142857
 40
0.2857142857142857
 40
0.2857142857142857
 40
0.2857142857142857
 40
0.4285714285714285
 40
0.4285714285714285
 40
0.4285714285714285
 40
0.4285714285714285
 40
0.5714285714285714
 40
0.5714285714285714
 40
0.5714285714285714
 40
0.5714285714285714
 40
0.7142857142857143
 40
0.7142857142857143
 40
0.7142857142857143
 40
0.7142857142857143
 40
1.0
 40
1.0
 40
1.0
 40
1.0
 10
-79.3033
 20
-32.1235
 30
0.0
 10
-78.2483
 20
-31.7133
 30
0.0
 10
-75.5943
 20
-31.4031
 30
0.0
 10
-74.7771
 20
-31.4851
 30
0.0
 10
-74.7771
 20
-31.4851
 30
0.0
 10
-74.4966
 20
-29.4435
 30
0.0
 10
-73.9682
 20
-28.0438
 30
0.0
 10
-71.8956
 20
-27.1477
 30
0.0
 10
-71.8956
 20
-27.1477
 30
0.0
 10
-72.3806
 20
-28.9576
 30
0.0
 10
-72.6893
 20
-30.7675
 30
0.0
 10
-71.8956
 20
-32.445
 30
0.0
 10
-71.8956
 20
-32.445
 30
0.0
 10
-70.3081
 20
-32.9073
 30
0.0
 10
-69.3988
 20
-33.7885
 30
0.0
 10
-68.8528
 20
-35.7199
 30
0.0
 10
-68.8528
 20
-35.7199
 30
0.0
 10
-68.8528
 20
-35.7199
 30
0.0
 10
-68.8528
 20
-6.8759
 30
0.0
 10
-68.8528
 20
-6.8759
 30
0.0
 10
-68.8528
 20
-6.8759
 30
0.0
 10
-71.4714
 20
-17.0839
 30
0.0
 10
-75.0172
 20
-25.8032
 30
0.0
 10
-79.3033
 20
-32.1235
 30
0.0
  0
SPLINE
  5
C8
330
1F
100
AcDbEntity
  8
layer 1
 62
     7
100
AcDbSpline
210
0.0
220
0.0
230
1.0
 70
    11
 71
     3
 72
    16
 73
    12
 74
     0
 42
0.0000000001
 43
0.0000000001
 12
1.0
 22
0.0
 32
0.0
 13
1.0
 23
0.0
 33
0.0
 40
0.0
 40
0.0
 40
0.0
 40
0.0
 40
0.25
 40
0.25
 40
0.25
 40
0.25
 40
0.5
 40
0.5
 40
0.5
 40
0.5
 40
1.0
 40
1.0
 40
1.0
 40
1.0
 10
-104.4303
 20
-15.184
 30
0.0
 10
-100.1483
 20
-16.0715
 30
0.0
 10
-95.0813
 20
-12.329
 30
0.0
 10
-96.4871
 20
-8.1417
 30
0.0
 10
-96.4871
 20
-8.1417
 30
0.0
 10
-97.9909
 20
-9.4812
 30
0.0
 10
-99.4745
 20
-8.7282
 30
0.0
 10
-100.0561
 20
-7.0289
 30
0.0
 10
-100.0561
 20
-7.0289
 30
0.0
 10
-100.5024
 20
-9.8731
 30
0.0
 10
-102.2801
 20
-12.7106
 30
0.0
 10
-104.4303
 20
-15.184
 30
0.0
  0
SPLINE
  5
C9
330
1F
100
AcDbEntity
  8
layer 1
 62
     7
100
AcDbSpline
210
0.0
220
0.0
230
1.0
 70
    11
 71
     3
 72
    20
 73
    16
 74
     0
 42
0.0000000001
 43
0.0000000001
 12
1.0
 22
0.0
 32
0.0
 13
1.0
 23
0.0
 33
0.0
 40
0.0
 40
0.0
 40
0.0
 40
0.0
 40
0.2
 40
0.2
 40
0.2
 40
0.2
 40
0.4
 40
0.4
 40
0.4
 40
0.4
 40
0.6
 40
0.6
 40
0.6
 40
0.6
 40
1.0
 40
1.0
 40
1.0
 40
1.0
 10
-122.633
 20
-21.5902
 30
0.0
 10
-118.4391
 20
-21.1484
 30
0.0
 10
-112.2352
 20
-16.5999
 30
0.0
 10
-109.894
 20
-13.9863
 30
0.0
 10
-109.894
 20
-13.9863
 30
0.0
 10
-111.0901
 20
-12.8399
 30
0.0
 10
-111.4201
 20
-11.5427
 30
0.0
 10
-111.5107
 20
-10.2511
 30
0.0
 10
-111.5107
 20
-10.2511
 30
0.0
 10
-113.3157
 20
-8.5433
 30
0.0
 10
-115.0978
 20
-8.1515
 30
0.0
 10
-117.1862
 20
-7.0563
 30
0.0
 10
-117.1862
 20
-7.0563
 30
0.0
 10
-116.7451
 20
-12.482
 30
0.0
 10
-119.5793
 20
-17.5434
 30
0.0
 10
-122.633
 20
-21.5902
 30
0.0
  0
SPLINE
  5
CA
330
1F
100
AcDbEntity
  8
layer 1
 62
     7
100
AcDbSpline
210
0.0
220
0.0
230
1.0
 70
    11
 71
     3
 72
    36
 73
    32
 74
     0
 42
0.0000000001
 43
0.0000000001
 12
1.0
 22
0.0
 32
0.0
 13
1.0
 23
0.0
 33
0.0
 40
0.0
 40
0.0
 40
0.0
 40
0.0
 40
0.1111111111111111
 40
0.1111111111111111
 40
0.1111111111111111
 40
0.1111111111111111
 40
0.2222222222222222
 40
0.2222222222222222
 40
0.2222222222222222
 40
0.2222222222222222
 40
0.3333333333333333
 40
0.3333333333333333
 40
0.3333333333333333
 40
0.3333333333333333
 40
0.4444444444444444
 40
0.4444444444444444
 40
0.4444444444444444
 40
0.4444444444444444
 40
0.5555555555555556
 40
0.5555555555555556
 40
0.5555555555555556
 40
0.5555555555555556
 40
0.6666666666666666
 40
0.6666666666666666
 40
0.6666666666666666
 40
0.6666666666666666
 40
0.7777777777777778
 40
0.7777777777777778
 40
0.7777777777777778
 40
0.7777777777777778
 40
1.0
 40
1.0
 40
1.0
 40
1.0
 10
-98.66
 20
-18.2371
 30
0.0
 10
-99.3432
 20
-18.3577
 30
0.0
 10
-99.7655
 20
-18.5657
 30
0.0
 10
-98.6336
 20
-19.1981
 30
0.0
 10
-98.6336
 20
-19.1981
 30
0.0
 10
-92.8472
 20
-22.4381
 30
0.0
 10
-92.9506
 20
-30.5559
 30
0.0
 10
-97.0296
 20
-34.1549
 30
0.0
 10
-97.0296
 20
-34.1549
 30
0.0
 10
-94.3158
 20
-34.5082
 30
0.0
 10
-93.13
 20
-37.8725
 30
0.0
 10
-95.2842
 20
-40.2939
 30
0.0
 10
-95.2842
 20
-40.2939
 30
0.0
 10
-92.1122
 20
-38.8278
 30
0.0
 10
-89.6535
 20
-35.8407
 30
0.0
 10
-87.7867
 20
-33.8212
 30
0.0
 10
-87.7867
 20
-33.8212
 30
0.0
 10
-89.3698
 20
-33.7883
 30
0.0
 10
-90.4421
 20
-32.7183
 30
0.0
 10
-90.3172
 20
-31.4895
 30
0.0
 10
-90.3172
 20
-31.4895
 30
0.0
 10
-90.2853
 20
-30.1951
 30
0.0
 10
-88.6286
 20
-29.6626
 30
0.0
 10
-87.0881
 20
-29.808
 30
0.0
 10
-87.0881
 20
-29.808
 30
0.0
 10
-87.1598
 20
-21.4288
 30
0.0
 10
-93.7087
 20
-17.4807
 30
0.0
 10
-98.6601
 20
-18.2372
 30
0.0
 10
-98.6601
 20
-18.2372
 30
0.0
 10
-98.6601
 20
-18.2372
 30
0.0
 10
-98.66
 20
-18.2371
 30
0.0
 10
-98.66
 20
-18.2371
 30
0.0
  0
SPLINE
  5
CB
330
1F
100
AcDbEntity
  8
layer 1
 62
     7
100
AcDbSpline
210
0.0
220
0.0
230
1.0
 70
    11
 71
     3
 72
    48
 73
    44
 74
     0
 42
0.0000000001
 43
0.0000000001
 12
1.0
 22
0.0
 32
0.0
 13
1.0
 23
0.0
 33
0.0
 40
0.0
 40
0.0
 40
0.0
 40
0.0
 40
0.0833333333333333
 40
0.0833333333333333
 40
0.0833333333333333
 40
0.0833333333333333
 40
0.1666666666666667
 40
0.1666666666666667
 40
0.1666666666666667
 40
0.1666666666666667
 40
0.25
 40
0.25
 40
0.25
 40
0.25
 40
0.3333333333333333
 40
0.3333333333333333
 40
0.3333333333333333
 40
0.3333333333333333
 40
0.4166666666666667
 40
0.4166666666666667
 40
0.4166666666666667
 40
0.4166666666666667
 40
0.5
 40
0.5
 40
0.5
 40
0.5
 40
0.5833333333333334
 40
0.5833333333333334
 40
0.5833333333333334
 40
0.5833333333333334
 40
0.6666666666666666
 40
0.6666666666666666
 40
0.6666666666666666
 40
0.6666666666666666
 40
0.75
 40
0.75
 40
0.75
 40
0.75
 40
0.8333333333333334
 40
0.8333333333333334
 40
0.8333333333333334
 40
0.8333333333333334
 40
1.0
 40
1.0
 40
1.0
 40
1.0
 10
-105.6564
 20
-21.6557
 30
0.0
 10
-109.8185
 20
-22.8114
 30
0.0
 10
-111.6428
 20
-29.7464
 30
0.0
 10
-109.1051
 20
-34.7656
 30
0.0
 10
-109.1051
 20
-34.7656
 30
0.0
 10
-106.3522
 20
-39.2497
 30
0.0
 10
-103.3429
 20
-40.4854
 30
0.0
 10
-98.8406
 20
-40.9075
 30
0.0
 10
-98.8406
 20
-40.9075
 30
0.0
 10
-100.4494
 20
-39.6086
 30
0.0
 10
-100.5926
 20
-37.5728
 30
0.0
 10
-100.1305
 20
-36.1597
 30
0.0
 10
-100.1305
 20
-36.1597
 30
0.0
 10
-102.3138
 20
-36.5496
 30
0.0
 10
-104.4282
 20
-35.9651
 30
0.0
 10
-105.7395
 20
-34.7579
 30
0.0
 10
-105.7395
 20
-34.7579
 30
0.0
 10
-106.756
 20
-33.9583
 30
0.0
 10
-107.8641
 20
-31.5278
 30
0.0
 10
-107.8655
 20
-30.0946
 30
0.0
 10
-107.8655
 20
-30.0946
 30
0.0
 10
-108.3181
 20
-24.1169
 30
0.0
 10
-100.8716
 20
-24.4301
 30
0.0
 10
-100.7048
 20
-28.6321
 30
0.0
 10
-100.7048
 20
-28.6321
 30
0.0
 10
-100.7065
 20
-29.9574
 30
0.0
 10
-101.6802
 20
-31.3649
 30
0.0
 10
-102.7426
 20
-31.5773
 30
0.0
 10
-102.7426
 20
-31.5773
 30
0.0
 10
-103.4715
 20
-31.7231
 30
0.0
 10
-103.3012
 20
-31.9617
 30
0.0
 10
-102.9159
 20
-32.1773
 30
0.0
 10
-102.9159
 20
-32.1773
 30
0.0
 10
-101.3556
 20
-32.7568
 30
0.0
 10
-99.9615
 20
-31.9933
 30
0.0
 10
-99.1335
 20
-30.8206
 30
0.0
 10
-99.1335
 20
-30.8206
 30
0.0
 10
-95.8312
 20
-26.0553
 30
0.0
 10
-100.0672
 20
-20.1037
 30
0.0
 10
-105.6563
 20
-21.6558
 30
0.0
 10
-105.6563
 20
-21.6558
 30
0.0
 10
-105.6563
 20
-21.6558
 30
0.0
 10
-105.6564
 20
-21.6557
 30
0.0
 10
-105.6564
 20
-21.6557
 30
0.0
  0
SPLINE
  5
CC
330
1F
100
AcDbEntity
  8
layer 1
 62
     7
100
AcDbSpline
210
0.0
220
0.0
230
1.0
 70
    11
 71
     3
 72
    28
 73
    24
 74
     0
 42
0.0000000001
 43
0.0000000001
 12
1.0
 22
0.0
 32
0.0
 13
1.0
 23
0.0
 33
0.0
 40
0.0
 40
0.0
 40
0.0
 40
0.0
 40
0.1428571428571428
 40
0.1428571428571428
 40
0.1428571428571428
 40
0.1428571428571428
 40
0.2857142857142857
 40
0.2857142857142857
 40
0.2857142857142857
 40
0.2857142857142857
 40
0.4285714285714285
 40
0.4285714285714285
 40
0.4285714285714285
 40
0.4285714285714285
 40
0.5714285714285714
 40
0.5714285714285714
 40
0.5714285714285714
 40
0.5714285714285714
 40
0.7142857142857143
 40
0.7142857142857143
 40
0.7142857142857143
 40
0.7142857142857143
 40
1.0
 40
1.0
 40
1.0
 40
1.0
 10
-123.6457
 20
-27.1681
 30
0.0
 10
-123.9445
 20
-27.9478
 30
0.0
 10
-124.1658
 20
-28.3366
 30
0.0
 10
-124.359
 20
-28.9563
 30
0.0
 10
-124.359
 20
-28.9563
 30
0.0
 10
-123.9012
 20
-29.7441
 30
0.0
 10
-123.5627
 20
-30.4651
 30
0.0
 10
-122.9656
 20
-31.3769
 30
0.0
 10
-122.9656
 20
-31.3769
 30
0.0
 10
-121.7849
 20
-27.8049
 30
0.0
 10
-116.9239
 20
-26.3314
 30
0.0
 10
-113.6957
 20
-28.2133
 30
0.0
 10
-113.6957
 20
-28.2133
 30
0.0
 10
-113.5482
 20
-25.8038
 30
0.0
 10
-112.9416
 20
-24.5171
 30
0.0
 10
-110.9064
 20
-21.925
 30
0.0
 10
-110.9064
 20
-21.925
 30
0.0
 10
-113.0843
 20
-25.3745
 30
0.0
 10
-122.1542
 20
-27.0267
 30
0.0
 10
-123.6456
 20
-27.168
 30
0.0
 10
-123.6456
 20
-27.168
 30
0.0
 10
-123.6456
 20
-27.168
 30
0.0
 10
-123.6457
 20
-27.1681
 30
0.0
 10
-123.6457
 20
-27.1681
 30
0.0
  0
SPLINE
  5
CD
330
1F
100
AcDbEntity
  8
layer 1
 62
     7
100
AcDbSpline
210
0.0
220
0.0
230
1.0
 70
    11
 71
     3
 72
    36
 73
    32
 74
     0
 42
0.0000000001
 43
0.0000000001
 12
1.0
 22
0.0
 32
0.0
 13
1.0
 23
0.0
 33
0.0
 40
0.0
 40
0.0
 40
0.0
 40
0.0
 40
0.1111111111111111
 40
0.1111111111111111
 40
0.1111111111111111
 40
0.1111111111111111
 40
0.2222222222222222
 40
0.2222222222222222
 40
0.2222222222222222
 40
0.2222222222222222
 40
0.3333333333333333
 40
0.3333333333333333
 40
0.3333333333333333
 40
0.3333333333333333
 40
0.4444444444444444
 40
0.4444444444444444
 40
0.4444444444444444
 40
0.4444444444444444
 40
0.5555555555555556
 40
0.5555555555555556
 40
0.5555555555555556
 40
0.5555555555555556
 40
0.6666666666666666
 40
0.6666666666666666
 40
0.6666666666666666
 40
0.6666666666666666
 40
0.7777777777777778
 40
0.7777777777777778
 40
0.7777777777777778
 40
0.7777777777777778
 40
1.0
 40
1.0
 40
1.0
 40
1.0
 10
-118.893
 20
-29.784
 30
0.0
 10
-121.3429
 20
-30.9559
 30
0.0
 10
-121.4402
 20
-32.9973
 30
0.0
 10
-120.4217
 20
-34.9005
 30
0.0
 10
-120.4217
 20
-34.9005
 30
0.0
 10
-119.5216
 20
-33.6319
 30
0.0
 10
-118.2439
 20
-33.0844
 30
0.0
 10
-117.0334
 20
-33.8296
 30
0.0
 10
-117.0334
 20
-33.8296
 30
0.0
 10
-116.1266
 20
-34.6322
 30
0.0
 10
-116.2632
 20
-36.043
 30
0.0
 10
-117.2711
 20
-36.8177
 30
0.0
 10
-117.2711
 20
-36.8177
 30
0.0
 10
-114.9346
 20
-36.6897
 30
0.0
 10
-113.1986
 20
-37.5449
 30
0.0
 10
-111.5965
 20
-38.6624
 30
0.0
 10
-111.5965
 20
-38.6624
 30
0.0
 10
-113.0869
 20
-36.468
 30
0.0
 10
-113.5671
 20
-33.9063
 30
0.0
 10
-113.6031
 20
-31.4586
 30
0.0
 10
-113.6031
 20
-31.4586
 30
0.0
 10
-113.6031
 20
-30.2696
 30
0.0
 10
-113.7079
 20
-29.9883
 30
0.0
 10
-114.2481
 20
-29.7279
 30
0.0
 10
-114.2481
 20
-29.7279
 30
0.0
 10
-115.1779
 20
-29.2794
 30
0.0
 10
-117.76
 20
-29.3106
 30
0.0
 10
-118.893
 20
-29.7841
 30
0.0
 10
-118.893
 20
-29.7841
 30
0.0
 10
-118.893
 20
-29.7841
 30
0.0
 10
-118.893
 20
-29.784
 30
0.0
 10
-118.893
 20
-29.784
 30
0.0
  0
SPLINE
  5
CE
330
1F
100
AcDbEntity
  8
layer 1
 62
     7
100
AcDbSpline
210
0.0
220
0.0
230
1.0
 70
    11
 71
     3
 72
    20
 73
    16
 74
     0
 42
0.0000000001
 43
0.0000000001
 12
1.0
 22
0.0
 32
0.0
 13
1.0
 23
0.0
 33
0.0
 40
0.0
 40
0.0
 40
0.0
 40
0.0
 40
0.2
 40
0.2
 40
0.2
 40
0.2
 40
0.4
 40
0.4
 40
0.4
 40
0.4
 40
0.6
 40
0.6
 40
0.6
 40
0.6
 40
1.0
 40
1.0
 40
1.0
 40
1.0
 10
-124.5902
 20
-42.9939
 30
0.0
 10
-123.4499
 20
-40.4819
 30
0.0
 10
-122.0788
 20
-38.6111
 30
0.0
 10
-119.5947
 20
-37.6225
 30
0.0
 10
-119.5947
 20
-37.6225
 30
0.0
 10
-122.1736
 20
-37.2639
 30
0.0
 10
-123.1237
 20
-36.1508
 30
0.0
 10
-123.2987
 20
-34.251
 30
0.0
 10
-123.2987
 20
-34.251
 30
0.0
 10
-124.7064
 20
-37.0047
 30
0.0
 10
-124.6035
 20
-40.5376
 30
0.0
 10
-124.5901
 20
-42.9939
 30
0.0
 10
-124.5901
 20
-42.9939
 30
0.0
 10
-124.5901
 20
-42.9939
 30
0.0
 10
-124.5902
 20
-42.9939
 30
0.0
 10
-124.5902
 20
-42.9939
 30
0.0
  0
SPLINE
  5
CF
330
1F
100
AcDbEntity
  8
layer 1
 62
     7
100
AcDbSpline
210
0.0
220
0.0
230
1.0
 70
    11
 71
     3
 72
    56
 73
    52
 74
     0
 42
0.0000000001
 43
0.0000000001
 12
1.0
 22
0.0
 32
0.0
 13
1.0
 23
0.0
 33
0.0
 40
0.0
 40
0.0
 40
0.0
 40
0.0
 40
0.0714285714285714
 40
0.0714285714285714
 40
0.0714285714285714
 40
0.0714285714285714
 40
0.1428571428571428
 40
0.1428571428571428
 40
0.1428571428571428
 40
0.1428571428571428
 40
0.2142857142857143
 40
0.2142857142857143
 40
0.2142857142857143
 40
0.2142857142857143
 40
0.2857142857142857
 40
0.2857142857142857
 40
0.2857142857142857
 40
0.2857142857142857
 40
0.3571428571428572
 40
0.3571428571428572
 40
0.3571428571428572
 40
0.3571428571428572
 40
0.4285714285714285
 40
0.4285714285714285
 40
0.4285714285714285
 40
0.4285714285714285
 40
0.5
 40
0.5
 40
0.5
 40
0.5
 40
0.5714285714285714
 40
0.5714285714285714
 40
0.5714285714285714
 40
0.5714285714285714
 40
0.6428571428571429
 40
0.6428571428571429
 40
0.6428571428571429
 40
0.6428571428571429
 40
0.7142857142857143
 40
0.7142857142857143
 40
0.7142857142857143
 40
0.7142857142857143
 40
0.7857142857142857
 40
0.7857142857142857
 40
0.7857142857142857
 40
0.7857142857142857
 40
0.8571428571428571
 40
0.8571428571428571
 40
0.8571428571428571
 40
0.8571428571428571
 40
1.0
 40
1.0
 40
1.0
 40
1.0
 10
-78.6539
 20
-35.9497
 30
0.0
 10
-79.0067
 20
-36.3486
 30
0.0
 10
-78.7861
 20
-36.7539
 30
0.0
 10
-78.1302
 20
-36.5713
 30
0.0
 10
-78.1302
 20
-36.5713
 30
0.0
 10
-75.4044
 20
-35.8119
 30
0.0
 10
-73.4854
 20
-38.8947
 30
0.0
 10
-75.4567
 20
-40.866
 30
0.0
 10
-75.4567
 20
-40.866
 30
0.0
 10
-78.628
 20
-43.6745
 30
0.0
 10
-82.4958
 20
-40.8562
 30
0.0
 10
-82.3332
 20
-35.9708
 30
0.0
 10
-82.3332
 20
-35.9708
 30
0.0
 10
-85.08
 20
-39.6437
 30
0.0
 10
-89.0694
 20
-44.4863
 30
0.0
 10
-89.3294
 20
-46.0153
 30
0.0
 10
-89.3294
 20
-46.0153
 30
0.0
 10
-87.6985
 20
-44.6989
 30
0.0
 10
-85.8508
 20
-44.1051
 30
0.0
 10
-84.1327
 20
-45.7243
 30
0.0
 10
-84.1327
 20
-45.7243
 30
0.0
 10
-83.4252
 20
-46.4333
 30
0.0
 10
-82.645
 20
-46.266
 30
0.0
 10
-82.645
 20
-45.4133
 30
0.0
 10
-82.645
 20
-45.4133
 30
0.0
 10
-82.645
 20
-45.1073
 30
0.0
 10
-82.5218
 20
-44.8569
 30
0.0
 10
-82.3713
 20
-44.8569
 30
0.0
 10
-82.3713
 20
-44.8569
 30
0.0
 10
-82.0267
 20
-44.8569
 30
0.0
 10
-81.6643
 20
-46.7086
 30
0.0
 10
-81.8925
 20
-47.3034
 30
0.0
 10
-81.8925
 20
-47.3034
 30
0.0
 10
-82.0936
 20
-48.364
 30
0.0
 10
-81.95
 20
-49.1707
 30
0.0
 10
-81.4057
 20
-50.2056
 30
0.0
 10
-81.4057
 20
-50.2056
 30
0.0
 10
-78.954
 20
-48.6397
 30
0.0
 10
-76.0364
 20
-47.5411
 30
0.0
 10
-73.8924
 20
-45.5789
 30
0.0
 10
-73.8924
 20
-45.5789
 30
0.0
 10
-72.6641
 20
-44.4193
 30
0.0
 10
-71.7429
 20
-42.4095
 30
0.0
 10
-71.573
 20
-40.5189
 30
0.0
 10
-71.573
 20
-40.5189
 30
0.0
 10
-70.8364
 20
-34.008
 30
0.0
 10
-76.5302
 20
-32.7751
 30
0.0
 10
-78.654
 20
-35.9496
 30
0.0
 10
-78.654
 20
-35.9496
 30
0.0
 10
-78.654
 20
-35.9496
 30
0.0
 10
-78.6539
 20
-35.9497
 30
0.0
 10
-78.6539
 20
-35.9497
 30
0.0
  0
SPLINE
  5
D0
330
1F
100
AcDbEntity
  8
layer 1
 62
     7
100
AcDbSpline
210
0.0
220
0.0
230
1.0
 70
    11
 71
     3
 72
    48
 73
    44
 74
     0
 42
0.0000000001
 43
0.0000000001
 12
1.0
 22
0.0
 32
0.0
 13
1.0
 23
0.0
 33
0.0
 40
0.0
 40
0.0
 40
0.0
 40
0.0
 40
0.0833333333333333
 40
0.0833333333333333
 40
0.0833333333333333
 40
0.0833333333333333
 40
0.1666666666666667
 40
0.1666666666666667
 40
0.1666666666666667
 40
0.1666666666666667
 40
0.25
 40
0.25
 40
0.25
 40
0.25
 40
0.3333333333333333
 40
0.3333333333333333
 40
0.3333333333333333
 40
0.3333333333333333
 40
0.4166666666666667
 40
0.4166666666666667
 40
0.4166666666666667
 40
0.4166666666666667
 40
0.5
 40
0.5
 40
0.5
 40
0.5
 40
0.5833333333333334
 40
0.5833333333333334
 40
0.5833333333333334
 40
0.5833333333333334
 40
0.6666666666666666
 40
0.6666666666666666
 40
0.6666666666666666
 40
0.6666666666666666
 40
0.75
 40
0.75
 40
0.75
 40
0.75
 40
0.8333333333333334
 40
0.8333333333333334
 40
0.8333333333333334
 40
0.8333333333333334
 40
1.0
 40
1.0
 40
1.0
 40
1.0
 10
-119.444
 20
-40.2958
 30
0.0
 10
-121.5151
 20
-41.336
 30
0.0
 10
-122.7102
 20
-42.3564
 30
0.0
 10
-123.1142
 20
-44.4701
 30
0.0
 10
-123.1142
 20
-44.4701
 30
0.0
 10
-121.1256
 20
-44.5794
 30
0.0
 10
-118.9656
 20
-44.1909
 30
0.0
 10
-118.7628
 20
-46.0176
 30
0.0
 10
-118.7628
 20
-46.0176
 30
0.0
 10
-120.4364
 20
-48.3515
 30
0.0
 10
-121.9108
 20
-50.4895
 30
0.0
 10
-120.8009
 20
-53.0266
 30
0.0
 10
-120.8009
 20
-53.0266
 30
0.0
 10
-119.8474
 20
-55.0925
 30
0.0
 10
-118.344
 20
-56.0364
 30
0.0
 10
-116.0067
 20
-56.0364
 30
0.0
 10
-116.0067
 20
-56.0364
 30
0.0
 10
-113.7643
 20
-56.0364
 30
0.0
 10
-112.4767
 20
-54.9261
 30
0.0
 10
-112.7918
 20
-53.2642
 30
0.0
 10
-112.7918
 20
-53.2642
 30
0.0
 10
-112.861
 20
-52.8992
 30
0.0
 10
-113.1953
 20
-52.7113
 30
0.0
 10
-113.8921
 20
-52.6458
 30
0.0
 10
-113.8921
 20
-52.6458
 30
0.0
 10
-115.2168
 20
-52.5213
 30
0.0
 10
-115.8962
 20
-51.865
 30
0.0
 10
-115.8962
 20
-50.7096
 30
0.0
 10
-115.8962
 20
-50.7096
 30
0.0
 10
-114.8565
 20
-46.7764
 30
0.0
 10
-110.6218
 20
-48.1219
 30
0.0
 10
-109.1368
 20
-51.1743
 30
0.0
 10
-109.1368
 20
-51.1743
 30
0.0
 10
-109.384
 20
-47.4479
 30
0.0
 10
-110.4727
 20
-44.5842
 30
0.0
 10
-112.4298
 20
-42.4684
 30
0.0
 10
-112.4298
 20
-42.4684
 30
0.0
 10
-114.4479
 20
-40.3158
 30
0.0
 10
-116.8439
 20
-39.5737
 30
0.0
 10
-119.444
 20
-40.2956
 30
0.0
 10
-119.444
 20
-40.2956
 30
0.0
 10
-119.444
 20
-40.2956
 30
0.0
 10
-119.444
 20
-40.2958
 30
0.0
 10
-119.444
 20
-40.2958
 30
0.0
  0
SPLINE
  5
D1
330
1F
100
AcDbEntity
  8
layer 1
 62
     7
100
AcDbSpline
210
0.0
220
0.0
230
1.0
 70
    11
 71
     3
 72
    16
 73
    12
 74
     0
 42
0.0000000001
 43
0.0000000001
 12
1.0
 22
0.0
 32
0.0
 13
1.0
 23
0.0
 33
0.0
 40
0.0
 40
0.0
 40
0.0
 40
0.0
 40
0.25
 40
0.25
 40
0.25
 40
0.25
 40
0.5
 40
0.5
 40
0.5
 40
0.5
 40
1.0
 40
1.0
 40
1.0
 40
1.0
 10
-75.2727
 20
-50.1223
 30
0.0
 10
-72.9603
 20
-50.6782
 30
0.0
 10
-70.2007
 20
-53.4228
 30
0.0
 10
-68.8528
 20
-56.2448
 30
0.0
 10
-68.8528
 20
-56.2448
 30
0.0
 10
-68.8528
 20
-56.2448
 30
0.0
 10
-68.8528
 20
-44.078
 30
0.0
 10
-68.8528
 20
-44.078
 30
0.0
 10
-68.8528
 20
-44.078
 30
0.0
 10
-70.2895
 20
-47.5134
 30
0.0
 10
-73.1963
 20
-49.3222
 30
0.0
 10
-75.2727
 20
-50.1223
 30
0.0
  0
SPLINE
  5
D2
330
1F
100
AcDbEntity
  8
layer 1
 62
     7
100
AcDbSpline
210
0.0
220
0.0
230
1.0
 70
    11
 71
     3
 72
    24
 73
    20
 74
     0
 42
0.0000000001
 43
0.0000000001
 12
1.0
 22
0.0
 32
0.0
 13
1.0
 23
0.0
 33
0.0
 40
0.0
 40
0.0
 40
0.0
 40
0.0
 40
0.1666666666666667
 40
0.1666666666666667
 40
0.1666666666666667
 40
0.1666666666666667
 40
0.3333333333333333
 40
0.3333333333333333
 40
0.3333333333333333
 40
0.3333333333333333
 40
0.5
 40
0.5
 40
0.5
 40
0.5
 40
0.6666666666666666
 40
0.6666666666666666
 40
0.6666666666666666
 40
0.6666666666666666
 40
1.0
 40
1.0
 40
1.0
 40
1.0
 10
-105.9771
 20
-50.1035
 30
0.0
 10
-104.9284
 20
-49.4756
 30
0.0
 10
-102.9829
 20
-49.5205
 30
0.0
 10
-102.1584
 20
-49.8792
 30
0.0
 10
-102.1584
 20
-49.8792
 30
0.0
 10
-102.5729
 20
-48.258
 30
0.0
 10
-102.5162
 20
-47.4174
 30
0.0
 10
-101.4196
 20
-46.4315
 30
0.0
 10
-101.4196
 20
-46.4315
 30
0.0
 10
-103.3912
 20
-45.7882
 30
0.0
 10
-105.2578
 20
-44.8036
 30
0.0
 10
-107.2261
 20
-43.544
 30
0.0
 10
-107.2261
 20
-43.544
 30
0.0
 10
-105.9316
 20
-46.0088
 30
0.0
 10
-105.6797
 20
-47.9355
 30
0.0
 10
-105.9771
 20
-50.1034
 30
0.0
 10
-105.9771
 20
-50.1034
 30
0.0
 10
-105.9771
 20
-50.1034
 30
0.0
 10
-105.9771
 20
-50.1035
 30
0.0
 10
-105.9771
 20
-50.1035
 30
0.0
  0
SPLINE
  5
D3
330
1F
100
AcDbEntity
  8
layer 1
 62
     7
100
AcDbSpline
210
0.0
220
0.0
230
1.0
 70
    11
 71
     3
 72
    24
 73
    20
 74
     0
 42
0.0000000001
 43
0.0000000001
 12
1.0
 22
0.0
 32
0.0
 13
1.0
 23
0.0
 33
0.0
 40
0.0
 40
0.0
 40
0.0
 40
0.0
 40
0.1666666666666667
 40
0.1666666666666667
 40
0.1666666666666667
 40
0.1666666666666667
 40
0.3333333333333333
 40
0.3333333333333333
 40
0.3333333333333333
 40
0.3333333333333333
 40
0.5
 40
0.5
 40
0.5
 40
0.5
 40
0.6666666666666666
 40
0.6666666666666666
 40
0.6666666666666666
 40
0.6666666666666666
 40
1.0
 40
1.0
 40
1.0
 40
1.0
 10
-97.3743
 20
-46.1466
 30
0.0
 10
-96.3846
 20
-47.2555
 30
0.0
 10
-96.7312
 20
-48.9764
 30
0.0
 10
-96.9585
 20
-49.6177
 30
0.0
 10
-96.9585
 20
-49.6177
 30
0.0
 10
-96.6391
 20
-49.5076
 30
0.0
 10
-95.2983
 20
-48.9959
 30
0.0
 10
-94.1185
 20
-49.6565
 30
0.0
 10
-94.1185
 20
-49.6565
 30
0.0
 10
-94.0518
 20
-48.3111
 30
0.0
 10
-93.5304
 20
-46.7153
 30
0.0
 10
-92.6777
 20
-45.4747
 30
0.0
 10
-92.6777
 20
-45.4747
 30
0.0
 10
-94.5182
 20
-46.0302
 30
0.0
 10
-95.5168
 20
-46.1626
 30
0.0
 10
-97.3743
 20
-46.1467
 30
0.0
 10
-97.3743
 20
-46.1467
 30
0.0
 10
-97.3743
 20
-46.1467
 30
0.0
 10
-97.3743
 20
-46.1466
 30
0.0
 10
-97.3743
 20
-46.1466
 30
0.0
  0
SPLINE
  5
D4
330
1F
100
AcDbEntity
  8
layer 1
 62
     7
100
AcDbSpline
210
0.0
220
0.0
230
1.0
 70
    11
 71
     3
 72
   104
 73
   100
 74
     0
 42
0.0000000001
 43
0.0000000001
 12
1.0
 22
0.0
 32
0.0
 13
1.0
 23
0.0
 33
0.0
 40
0.0
 40
0.0
 40
0.0
 40
0.0
 40
0.0384615384615385
 40
0.0384615384615385
 40
0.0384615384615385
 40
0.0384615384615385
 40
0.0769230769230769
 40
0.0769230769230769
 40
0.0769230769230769
 40
0.0769230769230769
 40
0.1153846153846154
 40
0.1153846153846154
 40
0.1153846153846154
 40
0.1153846153846154
 40
0.1538461538461539
 40
0.1538461538461539
 40
0.1538461538461539
 40
0.1538461538461539
 40
0.1923076923076923
 40
0.1923076923076923
 40
0.1923076923076923
 40
0.1923076923076923
 40
0.2307692307692308
 40
0.2307692307692308
 40
0.2307692307692308
 40
0.2307692307692308
 40
0.2692307692307692
 40
0.2692307692307692
 40
0.2692307692307692
 40
0.2692307692307692
 40
0.3076923076923077
 40
0.3076923076923077
 40
0.3076923076923077
 40
0.3076923076923077
 40
0.3461538461538461
 40
0.3461538461538461
 40
0.3461538461538461
 40
0.3461538461538461
 40
0.3846153846153846
 40
0.3846153846153846
 40
0.3846153846153846
 40
0.3846153846153846
 40
0.4230769230769231
 40
0.4230769230769231
 40
0.4230769230769231
 40
0.4230769230769231
 40
0.4615384615384616
 40
0.4615384615384616
 40
0.4615384615384616
 40
0.4615384615384616
 40
0.5
 40
0.5
 40
0.5
 40
0.5
 40
0.5384615384615384
 40
0.5384615384615384
 40
0.5384615384615384
 40
0.5384615384615384
 40
0.5769230769230769
 40
0.5769230769230769
 40
0.5769230769230769
 40
0.5769230769230769
 40
0.6153846153846154
 40
0.6153846153846154
 40
0.6153846153846154
 40
0.6153846153846154
 40
0.6538461538461539
 40
0.6538461538461539
 40
0.6538461538461539
 40
0.6538461538461539
 40
0.6923076923076923
 40
0.6923076923076923
 40
0.6923076923076923
 40
0.6923076923076923
 40
0.7307692307692307
 40
0.7307692307692307
 40
0.7307692307692307
 40
0.7307692307692307
 40
0.7692307692307693
 40
0.7692307692307693
 40
0.7692307692307693
 40
0.7692307692307693
 40
0.8076923076923077
 40
0.8076923076923077
 40
0.8076923076923077
 40
0.8076923076923077
 40
0.8461538461538461
 40
0.8461538461538461
 40
0.8461538461538461
 40
0.8461538461538461
 40
0.8846153846153846
 40
0.8846153846153846
 40
0.8846153846153846
 40
0.8846153846153846
 40
0.9230769230769231
 40
0.9230769230769231
 40
0.9230769230769231
 40
0.9230769230769231
 40
1.0
 40
1.0
 40
1.0
 40
1.0
 10
-88.6645
 20
-48.9145
 30
0.0
 10
-88.6645
 20
-49.8219
 30
0.0
 10
-88.5903
 20
-49.8639
 30
0.0
 10
-87.7665
 20
-49.4231
 30
0.0
 10
-87.7665
 20
-49.4231
 30
0.0
 10
-86.9449
 20
-48.9833
 30
0.0
 10
-85.7981
 20
-49.7791
 30
0.0
 10
-85.7981
 20
-50.789
 30
0.0
 10
-85.7981
 20
-50.789
 30
0.0
 10
-85.7981
 20
-52.7059
 30
0.0
 10
-88.0949
 20
-53.267
 30
0.0
 10
-89.5528
 20
-51.7062
 30
0.0
 10
-89.5528
 20
-51.7062
 30
0.0
 10
-90.1381
 20
-51.3041
 30
0.0
 10
-90.2024
 20
-50.7308
 30
0.0
 10
-90.6252
 20
-50.0167
 30
0.0
 10
-90.6252
 20
-50.0167
 30
0.0
 10
-92.6536
 20
-54.2514
 30
0.0
 10
-91.8391
 20
-58.912
 30
0.0
 10
-91.1037
 20
-62.7726
 30
0.0
 10
-91.1037
 20
-62.7726
 30
0.0
 10
-91.1218
 20
-63.5911
 30
0.0
 10
-91.5604
 20
-64.0365
 30
0.0
 10
-92.0523
 20
-64.6352
 30
0.0
 10
-92.0523
 20
-64.6352
 30
0.0
 10
-96.3631
 20
-61.1123
 30
0.0
 10
-104.857
 20
-62.1596
 30
0.0
 10
-108.1672
 20
-67.2114
 30
0.0
 10
-108.1672
 20
-67.2114
 30
0.0
 10
-105.8728
 20
-65.8329
 30
0.0
 10
-102.3099
 20
-65.4954
 30
0.0
 10
-102.1371
 20
-65.924
 30
0.0
 10
-102.1371
 20
-65.924
 30
0.0
 10
-102.5503
 20
-67.0654
 30
0.0
 10
-102.7042
 20
-68.3378
 30
0.0
 10
-101.6085
 20
-68.6454
 30
0.0
 10
-101.6085
 20
-68.6454
 30
0.0
 10
-100.9945
 20
-68.7933
 30
0.0
 10
-100.4335
 20
-68.2922
 30
0.0
 10
-100.2763
 20
-67.797
 30
0.0
 10
-100.2763
 20
-67.797
 30
0.0
 10
-99.1482
 20
-66.2269
 30
0.0
 10
-97.6008
 20
-66.3901
 30
0.0
 10
-96.0201
 20
-66.6866
 30
0.0
 10
-96.0201
 20
-66.6866
 30
0.0
 10
-97.3122
 20
-67.6217
 30
0.0
 10
-97.9512
 20
-69.2016
 30
0.0
 10
-97.0303
 20
-70.5354
 30
0.0
 10
-97.0303
 20
-70.5354
 30
0.0
 10
-95.8635
 20
-72.2418
 30
0.0
 10
-94.4587
 20
-71.575
 30
0.0
 10
-92.8833
 20
-70.6147
 30
0.0
 10
-92.8833
 20
-70.6147
 30
0.0
 10
-92.5592
 20
-72.0017
 30
0.0
 10
-92.9506
 20
-73.8434
 30
0.0
 10
-95.5992
 20
-73.9134
 30
0.0
 10
-95.5992
 20
-73.9134
 30
0.0
 10
-94.9833
 20
-75.5844
 30
0.0
 10
-94.6872
 20
-77.5782
 30
0.0
 10
-94.8454
 20
-79.2842
 30
0.0
 10
-94.8454
 20
-79.2842
 30
0.0
 10
-92.803
 20
-78.5377
 30
0.0
 10
-91.0377
 20
-78.4908
 30
0.0
 10
-88.9669
 20
-78.825
 30
0.0
 10
-88.9669
 20
-78.825
 30
0.0
 10
-89.536
 20
-77.4944
 30
0.0
 10
-89.2735
 20
-75.6019
 30
0.0
 10
-88.3626
 20
-74.7159
 30
0.0
 10
-88.3626
 20
-74.7159
 30
0.0
 10
-87.8652
 20
-74.2526
 30
0.0
 10
-87.8295
 20
-74.0676
 30
0.0
 10
-88.1158
 20
-73.4392
 30
0.0
 10
-88.1158
 20
-73.4392
 30
0.0
 10
-88.5053
 20
-72.5844
 30
0.0
 10
-88.2937
 20
-71.4722
 30
0.0
 10
-87.6117
 20
-70.7903
 30
0.0
 10
-87.6117
 20
-70.7903
 30
0.0
 10
-87.1647
 20
-70.3433
 30
0.0
 10
-87.1072
 20
-70.3767
 30
0.0
 10
-86.7398
 20
-71.2978
 30
0.0
 10
-86.7398
 20
-71.2978
 30
0.0
 10
-85.3972
 20
-73.2374
 30
0.0
 10
-83.7816
 20
-73.5329
 30
0.0
 10
-81.748
 20
-73.8653
 30
0.0
 10
-81.748
 20
-73.8653
 30
0.0
 10
-87.4366
 20
-68.8913
 30
0.0
 10
-86.715
 20
-58.5915
 30
0.0
 10
-83.7381
 20
-53.2453
 30
0.0
 10
-83.7381
 20
-53.2453
 30
0.0
 10
-82.7148
 20
-51.5562
 30
0.0
 10
-83.3756
 20
-47.8306
 30
0.0
 10
-85.2982
 20
-47.1477
 30
0.0
 10
-85.2982
 20
-47.1477
 30
0.0
 10
-86.7666
 20
-46.8497
 30
0.0
 10
-88.6325
 20
-47.2492
 30
0.0
 10
-88.6645
 20
-48.9146
 30
0.0
 10
-88.6645
 20
-48.9146
 30
0.0
 10
-88.6645
 20
-48.9146
 30
0.0
 10
-88.6645
 20
-48.9145
 30
0.0
 10
-88.6645
 20
-48.9145
 30
0.0
  0
SPLINE
  5
D5
330
1F
100
AcDbEntity
  8
layer 1
 62
     7
100
AcDbSpline
210
0.0
220
0.0
230
1.0
 70
    11
 71
     3
 72
    48
 73
    44
 74
     0
 42
0.0000000001
 43
0.0000000001
 12
1.0
 22
0.0
 32
0.0
 13
1.0
 23
0.0
 33
0.0
 40
0.0
 40
0.0
 40
0.0
 40
0.0
 40
0.0833333333333333
 40
0.0833333333333333
 40
0.0833333333333333
 40
0.0833333333333333
 40
0.1666666666666667
 40
0.1666666666666667
 40
0.1666666666666667
 40
0.1666666666666667
 40
0.25
 40
0.25
 40
0.25
 40
0.25
 40
0.3333333333333333
 40
0.3333333333333333
 40
0.3333333333333333
 40
0.3333333333333333
 40
0.4166666666666667
 40
0.4166666666666667
 40
0.4166666666666667
 40
0.4166666666666667
 40
0.5
 40
0.5
 40
0.5
 40
0.5
 40
0.5833333333333334
 40
0.5833333333333334
 40
0.5833333333333334
 40
0.5833333333333334
 40
0.6666666666666666
 40
0.6666666666666666
 40
0.6666666666666666
 40
0.6666666666666666
 40
0.75
 40
0.75
 40
0.75
 40
0.75
 40
0.8333333333333334
 40
0.8333333333333334
 40
0.8333333333333334
 40
0.8333333333333334
 40
1.0
 40
1.0
 40
1.0
 40
1.0
 10
-80.3004
 20
-53.6096
 30
0.0
 10
-82.8123
 20
-56.7341
 30
0.0
 10
-84.3406
 20
-61.6366
 30
0.0
 10
-83.2586
 20
-65.6392
 30
0.0
 10
-83.2586
 20
-65.6392
 30
0.0
 10
-82.4715
 20
-68.83
 30
0.0
 10
-81.4052
 20
-71.2258
 30
0.0
 10
-79.6352
 20
-73.8235
 30
0.0
 10
-79.6352
 20
-73.8235
 30
0.0
 10
-79.6343
 20
-72.8356
 30
0.0
 10
-79.3142
 20
-71.5899
 30
0.0
 10
-79.7632
 20
-70.6842
 30
0.0
 10
-79.7632
 20
-70.6842
 30
0.0
 10
-80.249
 20
-69.2998
 30
0.0
 10
-80.1242
 20
-68.0339
 30
0.0
 10
-79.2869
 20
-67.1382
 30
0.0
 10
-79.2869
 20
-67.1382
 30
0.0
 10
-79.2869
 20
-67.1382
 30
0.0
 10
-79.0973
 20
-67.8936
 30
0.0
 10
-79.0973
 20
-67.8936
 30
0.0
 10
-79.0973
 20
-67.8936
 30
0.0
 10
-78.8591
 20
-68.8424
 30
0.0
 10
-78.5423
 20
-68.8492
 30
0.0
 10
-77.9327
 20
-67.9188
 30
0.0
 10
-77.9327
 20
-67.9188
 30
0.0
 10
-77.4727
 20
-67.194
 30
0.0
 10
-76.7098
 20
-66.6693
 30
0.0
 10
-75.8115
 20
-66.0703
 30
0.0
 10
-75.8115
 20
-66.0703
 30
0.0
 10
-79.8335
 20
-65.2612
 30
0.0
 10
-80.8374
 20
-60.898
 30
0.0
 10
-78.6656
 20
-58.5826
 30
0.0
 10
-78.6656
 20
-58.5826
 30
0.0
 10
-77.2197
 20
-56.9226
 30
0.0
 10
-73.7375
 20
-57.4145
 30
0.0
 10
-73.0026
 20
-59.0463
 30
0.0
 10
-73.0026
 20
-59.0463
 30
0.0
 10
-72.7231
 20
-59.7746
 30
0.0
 10
-72.3256
 20
-59.2088
 30
0.0
 10
-72.3256
 20
-58.0824
 30
0.0
 10
-72.3256
 20
-58.0824
 30
0.0
 10
-72.387
 20
-53.4738
 30
0.0
 10
-77.7487
 20
-50.7261
 30
0.0
 10
-80.3004
 20
-53.6096
 30
0.0
  0
SPLINE
  5
D6
330
1F
100
AcDbEntity
  8
layer 1
 62
     7
100
AcDbSpline
210
0.0
220
0.0
230
1.0
 70
    11
 71
     3
 72
    20
 73
    16
 74
     0
 42
0.0000000001
 43
0.0000000001
 12
1.0
 22
0.0
 32
0.0
 13
1.0
 23
0.0
 33
0.0
 40
0.0
 40
0.0
 40
0.0
 40
0.0
 40
0.2
 40
0.2
 40
0.2
 40
0.2
 40
0.4
 40
0.4
 40
0.4
 40
0.4
 40
0.6
 40
0.6
 40
0.6
 40
0.6
 40
1.0
 40
1.0
 40
1.0
 40
1.0
 10
-97.4183
 20
-55.2824
 30
0.0
 10
-96.7775
 20
-56.4799
 30
0.0
 10
-96.9583
 20
-59.2861
 30
0.0
 10
-98.0232
 20
-60.0197
 30
0.0
 10
-98.0232
 20
-60.0197
 30
0.0
 10
-95.2369
 20
-60.0373
 30
0.0
 10
-94.8824
 20
-60.2377
 30
0.0
 10
-93.7539
 20
-61.0726
 30
0.0
 10
-93.7539
 20
-61.0726
 30
0.0
 10
-94.2502
 20
-59.4268
 30
0.0
 10
-94.4844
 20
-57.3313
 30
0.0
 10
-94.1746
 20
-55.2996
 30
0.0
 10
-94.1746
 20
-55.2996
 30
0.0
 10
-94.9359
 20
-56.1452
 30
0.0
 10
-96.5428
 20
-55.6845
 30
0.0
 10
-97.4183
 20
-55.2824
 30
0.0
  0
SPLINE
  5
D7
330
1F
100
AcDbEntity
  8
layer 1
 62
     7
100
AcDbSpline
210
0.0
220
0.0
230
1.0
 70
    11
 71
     3
 72
    24
 73
    20
 74
     0
 42
0.0000000001
 43
0.0000000001
 12
1.0
 22
0.0
 32
0.0
 13
1.0
 23
0.0
 33
0.0
 40
0.0
 40
0.0
 40
0.0
 40
0.0
 40
0.1666666666666667
 40
0.1666666666666667
 40
0.1666666666666667
 40
0.1666666666666667
 40
0.3333333333333333
 40
0.3333333333333333
 40
0.3333333333333333
 40
0.3333333333333333
 40
0.5
 40
0.5
 40
0.5
 40
0.5
 40
0.6666666666666666
 40
0.6666666666666666
 40
0.6666666666666666
 40
0.6666666666666666
 40
1.0
 40
1.0
 40
1.0
 40
1.0
 10
-106.5049
 20
-56.0065
 30
0.0
 10
-106.4747
 20
-59.1465
 30
0.0
 10
-107.1401
 20
-61.403
 30
0.0
 10
-108.7993
 20
-63.8968
 30
0.0
 10
-108.7993
 20
-63.8968
 30
0.0
 10
-106.1358
 20
-61.9288
 30
0.0
 10
-103.6443
 20
-60.8803
 30
0.0
 10
-100.6532
 20
-60.0187
 30
0.0
 10
-100.6532
 20
-60.0187
 30
0.0
 10
-101.8497
 20
-59.0542
 30
0.0
 10
-102.1099
 20
-57.149
 30
0.0
 10
-101.6601
 20
-55.5137
 30
0.0
 10
-101.6601
 20
-55.5137
 30
0.0
 10
-102.8234
 20
-56.4834
 30
0.0
 10
-105.4879
 20
-57.1529
 30
0.0
 10
-106.5049
 20
-56.0064
 30
0.0
 10
-106.5049
 20
-56.0064
 30
0.0
 10
-106.5049
 20
-56.0064
 30
0.0
 10
-106.5049
 20
-56.0065
 30
0.0
 10
-106.5049
 20
-56.0065
 30
0.0
  0
SPLINE
  5
D8
330
1F
100
AcDbEntity
  8
layer 1
 62
     7
100
AcDbSpline
210
0.0
220
0.0
230
1.0
 70
    11
 71
     3
 72
    32
 73
    28
 74
     0
 42
0.0000000001
 43
0.0000000001
 12
1.0
 22
0.0
 32
0.0
 13
1.0
 23
0.0
 33
0.0
 40
0.0
 40
0.0
 40
0.0
 40
0.0
 40
0.125
 40
0.125
 40
0.125
 40
0.125
 40
0.25
 40
0.25
 40
0.25
 40
0.25
 40
0.375
 40
0.375
 40
0.375
 40
0.375
 40
0.5
 40
0.5
 40
0.5
 40
0.5
 40
0.625
 40
0.625
 40
0.625
 40
0.625
 40
0.75
 40
0.75
 40
0.75
 40
0.75
 40
1.0
 40
1.0
 40
1.0
 40
1.0
 10
-114.7497
 20
-59.3971
 30
0.0
 10
-114.7497
 20
-60.1886
 30
0.0
 10
-115.1243
 20
-61.262
 30
0.0
 10
-116.0446
 20
-61.4913
 30
0.0
 10
-116.0446
 20
-61.4913
 30
0.0
 10
-117.2023
 20
-61.7797
 30
0.0
 10
-118.2996
 20
-60.9668
 30
0.0
 10
-118.9311
 20
-59.8756
 30
0.0
 10
-118.9311
 20
-59.8756
 30
0.0
 10
-120.5612
 20
-60.2207
 30
0.0
 10
-121.632
 20
-59.9382
 30
0.0
 10
-123.6663
 20
-58.9258
 30
0.0
 10
-123.6663
 20
-58.9258
 30
0.0
 10
-121.4464
 20
-61.295
 30
0.0
 10
-121.9521
 20
-64.2594
 30
0.0
 10
-123.4064
 20
-65.8357
 30
0.0
 10
-123.4064
 20
-65.8357
 30
0.0
 10
-122.3581
 20
-67.3453
 30
0.0
 10
-123.3276
 20
-69.2911
 30
0.0
 10
-124.0728
 20
-70.0045
 30
0.0
 10
-124.0728
 20
-70.0045
 30
0.0
 10
-118.6882
 20
-67.4784
 30
0.0
 10
-112.3713
 20
-62.3673
 30
0.0
 10
-109.9291
 20
-56.0338
 30
0.0
 10
-109.9291
 20
-56.0338
 30
0.0
 10
-111.4773
 20
-58.449
 30
0.0
 10
-113.2343
 20
-58.9788
 30
0.0
 10
-114.7497
 20
-59.3971
 30
0.0
  0
SPLINE
  5
D9
330
1F
100
AcDbEntity
  8
layer 1
 62
     7
100
AcDbSpline
210
0.0
220
0.0
230
1.0
 70
    11
 71
     3
 72
    64
 73
    60
 74
     0
 42
0.0000000001
 43
0.0000000001
 12
1.0
 22
0.0
 32
0.0
 13
1.0
 23
0.0
 33
0.0
 40
0.0
 40
0.0
 40
0.0
 40
0.0
 40
0.0625
 40
0.0625
 40
0.0625
 40
0.0625
 40
0.125
 40
0.125
 40
0.125
 40
0.125
 40
0.1875
 40
0.1875
 40
0.1875
 40
0.1875
 40
0.25
 40
0.25
 40
0.25
 40
0.25
 40
0.3125
 40
0.3125
 40
0.3125
 40
0.3125
 40
0.375
 40
0.375
 40
0.375
 40
0.375
 40
0.4375
 40
0.4375
 40
0.4375
 40
0.4375
 40
0.5
 40
0.5
 40
0.5
 40
0.5
 40
0.5625
 40
0.5625
 40
0.5625
 40
0.5625
 40
0.625
 40
0.625
 40
0.625
 40
0.625
 40
0.6875
 40
0.6875
 40
0.6875
 40
0.6875
 40
0.75
 40
0.75
 40
0.75
 40
0.75
 40
0.8125
 40
0.8125
 40
0.8125
 40
0.8125
 40
0.875
 40
0.875
 40
0.875
 40
0.875
 40
1.0
 40
1.0
 40
1.0
 40
1.0
 10
-77.0772
 20
-75.7248
 30
0.0
 10
-77.6647
 20
-72.9123
 30
0.0
 10
-77.6025
 20
-71.0856
 30
0.0
 10
-76.8754
 20
-69.7918
 30
0.0
 10
-76.8754
 20
-69.7918
 30
0.0
 10
-76.1959
 20
-68.5827
 30
0.0
 10
-75.1875
 20
-67.906
 30
0.0
 10
-74.4735
 20
-68.18
 30
0.0
 10
-74.4735
 20
-68.18
 30
0.0
 10
-74.0454
 20
-68.3443
 30
0.0
 10
-74.0436
 20
-68.4012
 30
0.0
 10
-74.4541
 20
-68.8118
 30
0.0
 10
-74.4541
 20
-68.8118
 30
0.0
 10
-75.0873
 20
-69.445
 30
0.0
 10
-75.0154
 20
-70.2897
 30
0.0
 10
-74.2958
 20
-70.6748
 30
0.0
 10
-74.2958
 20
-70.6748
 30
0.0
 10
-72.8422
 20
-71.4528
 30
0.0
 10
-71.4669
 20
-69.5872
 30
0.0
 10
-72.2032
 20
-67.8361
 30
0.0
 10
-72.2032
 20
-67.8361
 30
0.0
 10
-72.415
 20
-67.3323
 30
0.0
 10
-72.7871
 20
-66.8439
 30
0.0
 10
-73.0302
 20
-66.7507
 30
0.0
 10
-73.0302
 20
-66.7507
 30
0.0
 10
-73.708
 20
-66.4906
 30
0.0
 10
-73.5624
 20
-66.2182
 30
0.0
 10
-72.5405
 20
-65.8341
 30
0.0
 10
-72.5405
 20
-65.8341
 30
0.0
 10
-70.8127
 20
-65.1893
 30
0.0
 10
-69.5059
 20
-64.2578
 30
0.0
 10
-68.8858
 20
-62.2627
 30
0.0
 10
-68.8858
 20
-62.2627
 30
0.0
 10
-68.8858
 20
-62.2627
 30
0.0
 10
-68.8693
 20
-83.9552
 30
0.0
 10
-68.8693
 20
-83.9552
 30
0.0
 10
-68.8693
 20
-83.9552
 30
0.0
 10
-69.1721
 20
-83.3619
 30
0.0
 10
-70.3148
 20
-82.4414
 30
0.0
 10
-71.2751
 20
-82.439
 30
0.0
 10
-71.2751
 20
-82.439
 30
0.0
 10
-71.2779
 20
-82.2386
 30
0.0
 10
-71.2499
 20
-81.005
 30
0.0
 10
-72.4823
 20
-80.9263
 30
0.0
 10
-72.4823
 20
-80.9263
 30
0.0
 10
-73.1906
 20
-80.9868
 30
0.0
 10
-73.5389
 20
-81.4409
 30
0.0
 10
-73.5915
 20
-82.342
 30
0.0
 10
-73.5915
 20
-82.342
 30
0.0
 10
-74.5526
 20
-82.4257
 30
0.0
 10
-75.6422
 20
-83.1896
 30
0.0
 10
-76.2391
 20
-84.0827
 30
0.0
 10
-76.2391
 20
-84.0827
 30
0.0
 10
-76.3024
 20
-81.272
 30
0.0
 10
-76.5009
 20
-78.5855
 30
0.0
 10
-77.077
 20
-75.7247
 30
0.0
 10
-77.077
 20
-75.7247
 30
0.0
 10
-77.077
 20
-75.7247
 30
0.0
 10
-77.0772
 20
-75.7248
 30
0.0
 10
-77.0772
 20
-75.7248
 30
0.0
  0
SPLINE
  5
DA
330
1F
100
AcDbEntity
  8
layer 1
 62
     7
100
AcDbSpline
210
0.0
220
0.0
230
1.0
 70
    11
 71
     3
 72
    32
 73
    28
 74
     0
 42
0.0000000001
 43
0.0000000001
 12
1.0
 22
0.0
 32
0.0
 13
1.0
 23
0.0
 33
0.0
 40
0.0
 40
0.0
 40
0.0
 40
0.0
 40
0.125
 40
0.125
 40
0.125
 40
0.125
 40
0.25
 40
0.25
 40
0.25
 40
0.25
 40
0.375
 40
0.375
 40
0.375
 40
0.375
 40
0.5
 40
0.5
 40
0.5
 40
0.5
 40
0.625
 40
0.625
 40
0.625
 40
0.625
 40
0.75
 40
0.75
 40
0.75
 40
0.75
 40
1.0
 40
1.0
 40
1.0
 40
1.0
 10
-123.066
 20
-74.4982
 30
0.0
 10
-122.6341
 20
-76.3791
 30
0.0
 10
-123.2133
 20
-77.8417
 30
0.0
 10
-124.2729
 20
-78.652
 30
0.0
 10
-124.2729
 20
-78.652
 30
0.0
 10
-122.551
 20
-78.1218
 30
0.0
 10
-121.2497
 20
-77.8229
 30
0.0
 10
-119.9747
 20
-77.0893
 30
0.0
 10
-119.9747
 20
-77.0893
 30
0.0
 10
-120.3175
 20
-79.0054
 30
0.0
 10
-120.761
 20
-80.89
 30
0.0
 10
-120.7694
 20
-82.9946
 30
0.0
 10
-120.7694
 20
-82.9946
 30
0.0
 10
-119.7321
 20
-82.1725
 30
0.0
 10
-118.317
 20
-82.1642
 30
0.0
 10
-117.4135
 20
-82.5356
 30
0.0
 10
-117.4135
 20
-82.5356
 30
0.0
 10
-116.9334
 20
-77.166
 30
0.0
 10
-114.9913
 20
-73.8117
 30
0.0
 10
-113.3164
 20
-69.3482
 30
0.0
 10
-113.3164
 20
-69.3482
 30
0.0
 10
-117.4229
 20
-72.4355
 30
0.0
 10
-120.6666
 20
-74.0214
 30
0.0
 10
-123.066
 20
-74.4981
 30
0.0
 10
-123.066
 20
-74.4981
 30
0.0
 10
-123.066
 20
-74.4981
 30
0.0
 10
-123.066
 20
-74.4982
 30
0.0
 10
-123.066
 20
-74.4982
 30
0.0
  0
SPLINE
  5
DB
330
1F
100
AcDbEntity
  8
layer 1
 62
     7
100
AcDbSpline
210
0.0
220
0.0
230
1.0
 70
    11
 71
     3
 72
    40
 73
    36
 74
     0
 42
0.0000000001
 43
0.0000000001
 12
1.0
 22
0.0
 32
0.0
 13
1.0
 23
0.0
 33
0.0
 40
0.0
 40
0.0
 40
0.0
 40
0.0
 40
0.1
 40
0.1
 40
0.1
 40
0.1
 40
0.2
 40
0.2
 40
0.2
 40
0.2
 40
0.3
 40
0.3
 40
0.3
 40
0.3
 40
0.4
 40
0.4
 40
0.4
 40
0.4
 40
0.5
 40
0.5
 40
0.5
 40
0.5
 40
0.6
 40
0.6
 40
0.6
 40
0.6
 40
0.7
 40
0.7
 40
0.7
 40
0.7
 40
0.8
 40
0.8
 40
0.8
 40
0.8
 40
1.0
 40
1.0
 40
1.0
 40
1.0
 10
-109.8766
 20
-71.7561
 30
0.0
 10
-110.6981
 20
-72.3621
 30
0.0
 10
-111.8832
 20
-74.0067
 30
0.0
 10
-111.8832
 20
-74.5408
 30
0.0
 10
-111.8832
 20
-74.5408
 30
0.0
 10
-111.8832
 20
-74.8184
 30
0.0
 10
-111.6593
 20
-74.8329
 30
0.0
 10
-110.9127
 20
-74.6037
 30
0.0
 10
-110.9127
 20
-74.6037
 30
0.0
 10
-109.527
 20
-74.31
 30
0.0
 10
-107.7289
 20
-74.7093
 30
0.0
 10
-107.0134
 20
-76.2327
 30
0.0
 10
-107.0134
 20
-76.2327
 30
0.0
 10
-104.1121
 20
-77.9166
 30
0.0
 10
-103.6583
 20
-80.4104
 30
0.0
 10
-104.1436
 20
-83.1895
 30
0.0
 10
-104.1436
 20
-83.1895
 30
0.0
 10
-102.7637
 20
-82.6933
 30
0.0
 10
-100.7868
 20
-82.8917
 30
0.0
 10
-99.324
 20
-83.7858
 30
0.0
 10
-99.324
 20
-83.7858
 30
0.0
 10
-98.993
 20
-83.1371
 30
0.0
 10
-98.7722
 20
-82.7713
 30
0.0
 10
-98.353
 20
-82.0206
 30
0.0
 10
-98.353
 20
-82.0206
 30
0.0
 10
-101.6753
 20
-81.482
 30
0.0
 10
-100.7618
 20
-77.4089
 30
0.0
 10
-97.5403
 20
-78.6871
 30
0.0
 10
-97.5403
 20
-78.6871
 30
0.0
 10
-97.7487
 20
-71.6759
 30
0.0
 10
-106.0291
 20
-69.3316
 30
0.0
 10
-109.8766
 20
-71.756
 30
0.0
 10
-109.8766
 20
-71.756
 30
0.0
 10
-109.8766
 20
-71.756
 30
0.0
 10
-109.8766
 20
-71.7561
 30
0.0
 10
-109.8766
 20
-71.7561
 30
0.0
  0
SPLINE
  5
DC
330
1F
100
AcDbEntity
  8
layer 1
 62
     7
100
AcDbSpline
210
0.0
220
0.0
230
1.0
 70
    11
 71
     3
 72
    28
 73
    24
 74
     0
 42
0.0000000001
 43
0.0000000001
 12
1.0
 22
0.0
 32
0.0
 13
1.0
 23
0.0
 33
0.0
 40
0.0
 40
0.0
 40
0.0
 40
0.0
 40
0.1428571428571428
 40
0.1428571428571428
 40
0.1428571428571428
 40
0.1428571428571428
 40
0.2857142857142857
 40
0.2857142857142857
 40
0.2857142857142857
 40
0.2857142857142857
 40
0.4285714285714285
 40
0.4285714285714285
 40
0.4285714285714285
 40
0.4285714285714285
 40
0.5714285714285714
 40
0.5714285714285714
 40
0.5714285714285714
 40
0.5714285714285714
 40
0.7142857142857143
 40
0.7142857142857143
 40
0.7142857142857143
 40
0.7142857142857143
 40
1.0
 40
1.0
 40
1.0
 40
1.0
 10
-87.6454
 20
-76.9618
 30
0.0
 10
-86.2733
 20
-76.87
 30
0.0
 10
-85.3485
 20
-78.1697
 30
0.0
 10
-86.2506
 20
-78.9871
 30
0.0
 10
-86.2506
 20
-78.9871
 30
0.0
 10
-86.6495
 20
-79.3182
 30
0.0
 10
-86.5833
 20
-79.4242
 30
0.0
 10
-85.6916
 20
-79.8817
 30
0.0
 10
-85.6916
 20
-79.8817
 30
0.0
 10
-77.422
 20
-85.6687
 30
0.0
 10
-80.7789
 20
-96.0547
 30
0.0
 10
-85.3538
 20
-102.6169
 30
0.0
 10
-85.3538
 20
-102.6169
 30
0.0
 10
-80.2445
 20
-98.6437
 30
0.0
 10
-78.1358
 20
-92.3298
 30
0.0
 10
-78.0585
 20
-87.5052
 30
0.0
 10
-78.0585
 20
-87.5052
 30
0.0
 10
-78.0585
 20
-82.22
 30
0.0
 10
-78.9263
 20
-79.4202
 30
0.0
 10
-81.4891
 20
-77.3086
 30
0.0
 10
-81.4891
 20
-77.3086
 30
0.0
 10
-83.3869
 20
-75.8884
 30
0.0
 10
-85.2656
 20
-75.5706
 30
0.0
 10
-87.6454
 20
-76.9618
 30
0.0
  0
SPLINE
  5
DD
330
1F
100
AcDbEntity
  8
layer 1
 62
     7
100
AcDbSpline
210
0.0
220
0.0
230
1.0
 70
    11
 71
     3
 72
    20
 73
    16
 74
     0
 42
0.0000000001
 43
0.0000000001
 12
1.0
 22
0.0
 32
0.0
 13
1.0
 23
0.0
 33
0.0
 40
0.0
 40
0.0
 40
0.0
 40
0.0
 40
0.2
 40
0.2
 40
0.2
 40
0.2
 40
0.4
 40
0.4
 40
0.4
 40
0.4
 40
0.6
 40
0.6
 40
0.6
 40
0.6
 40
1.0
 40
1.0
 40
1.0
 40
1.0
 10
-112.8339
 20
-81.7383
 30
0.0
 10
-112.8081
 20
-83.9703
 30
0.0
 10
-112.6374
 20
-86.585
 30
0.0
 10
-112.0336
 20
-89.5744
 30
0.0
 10
-112.0336
 20
-89.5744
 30
0.0
 10
-109.6871
 20
-87.5584
 30
0.0
 10
-108.1433
 20
-82.5223
 30
0.0
 10
-109.2445
 20
-79.3857
 30
0.0
 10
-109.2445
 20
-79.3857
 30
0.0
 10
-111.2104
 20
-79.9616
 30
0.0
 10
-111.955
 20
-80.5095
 30
0.0
 10
-112.8339
 20
-81.7384
 30
0.0
 10
-112.8339
 20
-81.7384
 30
0.0
 10
-112.8339
 20
-81.7384
 30
0.0
 10
-112.8339
 20
-81.7383
 30
0.0
 10
-112.8339
 20
-81.7383
 30
0.0
  0
SPLINE
  5
DE
330
1F
100
AcDbEntity
  8
layer 1
 62
     7
100
AcDbSpline
210
0.0
220
0.0
230
1.0
 70
    11
 71
     3
 72
    40
 73
    36
 74
     0
 42
0.0000000001
 43
0.0000000001
 12
1.0
 22
0.0
 32
0.0
 13
1.0
 23
0.0
 33
0.0
 40
0.0
 40
0.0
 40
0.0
 40
0.0
 40
0.1
 40
0.1
 40
0.1
 40
0.1
 40
0.2
 40
0.2
 40
0.2
 40
0.2
 40
0.3
 40
0.3
 40
0.3
 40
0.3
 40
0.4
 40
0.4
 40
0.4
 40
0.4
 40
0.5
 40
0.5
 40
0.5
 40
0.5
 40
0.6
 40
0.6
 40
0.6
 40
0.6
 40
0.7
 40
0.7
 40
0.7
 40
0.7
 40
0.8
 40
0.8
 40
0.8
 40
0.8
 40
1.0
 40
1.0
 40
1.0
 40
1.0
 10
-94.8748
 20
-87.9923
 30
0.0
 10
-92.492
 20
-87.2215
 30
0.0
 10
-90.0391
 20
-87.8321
 30
0.0
 10
-89.3938
 20
-90.1978
 30
0.0
 10
-89.3938
 20
-90.1978
 30
0.0
 10
-88.8373
 20
-92.4918
 30
0.0
 10
-90.4925
 20
-94.8236
 30
0.0
 10
-92.9367
 20
-94.9326
 30
0.0
 10
-92.9367
 20
-94.9326
 30
0.0
 10
-92.0386
 20
-95.6886
 30
0.0
 10
-91.3882
 20
-96.7184
 30
0.0
 10
-91.487
 20
-97.7385
 30
0.0
 10
-91.487
 20
-97.7385
 30
0.0
 10
-90.9051
 20
-97.6661
 30
0.0
 10
-90.2367
 20
-97.9853
 30
0.0
 10
-90.0409
 20
-98.8182
 30
0.0
 10
-90.0409
 20
-98.8182
 30
0.0
 10
-90.1049
 20
-99.9654
 30
0.0
 10
-90.7245
 20
-100.2981
 30
0.0
 10
-91.3988
 20
-100.3076
 30
0.0
 10
-91.3988
 20
-100.3076
 30
0.0
 10
-91.7153
 20
-101.1354
 30
0.0
 10
-92.4739
 20
-102.1138
 30
0.0
 10
-93.6926
 20
-102.8787
 30
0.0
 10
-93.6926
 20
-102.8787
 30
0.0
 10
-89.7187
 20
-101.5776
 30
0.0
 10
-87.0211
 20
-98.7063
 30
0.0
 10
-85.4359
 20
-94.4715
 30
0.0
 10
-85.4359
 20
-94.4715
 30
0.0
 10
-83.996
 20
-90.3215
 30
0.0
 10
-84.6769
 20
-85.0028
 30
0.0
 10
-88.5611
 20
-83.8261
 30
0.0
 10
-88.5611
 20
-83.8261
 30
0.0
 10
-94.0871
 20
-82.6593
 30
0.0
 10
-96.5621
 20
-88.5357
 30
0.0
 10
-94.8748
 20
-87.9923
 30
0.0
  0
SPLINE
  5
DF
330
1F
100
AcDbEntity
  8
layer 1
 62
     7
100
AcDbSpline
210
0.0
220
0.0
230
1.0
 70
    11
 71
     3
 72
    32
 73
    28
 74
     0
 42
0.0000000001
 43
0.0000000001
 12
1.0
 22
0.0
 32
0.0
 13
1.0
 23
0.0
 33
0.0
 40
0.0
 40
0.0
 40
0.0
 40
0.0
 40
0.125
 40
0.125
 40
0.125
 40
0.125
 40
0.25
 40
0.25
 40
0.25
 40
0.25
 40
0.375
 40
0.375
 40
0.375
 40
0.375
 40
0.5
 40
0.5
 40
0.5
 40
0.5
 40
0.625
 40
0.625
 40
0.625
 40
0.625
 40
0.75
 40
0.75
 40
0.75
 40
0.75
 40
1.0
 40
1.0
 40
1.0
 40
1.0
 10
-106.5794
 20
-89.9028
 30
0.0
 10
-107.6122
 20
-91.6756
 30
0.0
 10
-108.8234
 20
-93.3012
 30
0.0
 10
-110.1185
 20
-94.8817
 30
0.0
 10
-110.1185
 20
-94.8817
 30
0.0
 10
-109.6373
 20
-96.2158
 30
0.0
 10
-108.0617
 20
-97.8623
 30
0.0
 10
-106.7524
 20
-98.8541
 30
0.0
 10
-106.7524
 20
-98.8541
 30
0.0
 10
-104.2678
 20
-95.5767
 30
0.0
 10
-102.962
 20
-93.1926
 30
0.0
 10
-102.6698
 20
-89.5742
 30
0.0
 10
-102.6698
 20
-89.5742
 30
0.0
 10
-101.6024
 20
-89.9201
 30
0.0
 10
-100.6233
 20
-90.2661
 30
0.0
 10
-99.4678
 20
-89.9506
 30
0.0
 10
-99.4678
 20
-89.9506
 30
0.0
 10
-99.8501
 20
-88.7335
 30
0.0
 10
-99.7326
 20
-87.5783
 30
0.0
 10
-99.7395
 20
-86.1255
 30
0.0
 10
-99.7395
 20
-86.1255
 30
0.0
 10
-103.9507
 20
-85.1572
 30
0.0
 10
-104.8003
 20
-86.975
 30
0.0
 10
-106.5795
 20
-89.9029
 30
0.0
 10
-106.5795
 20
-89.9029
 30
0.0
 10
-106.5795
 20
-89.9029
 30
0.0
 10
-106.5794
 20
-89.9028
 30
0.0
 10
-106.5794
 20
-89.9028
 30
0.0
  0
SPLINE
  5
E0
330
1F
100
AcDbEntity
  8
layer 1
 62
     7
100
AcDbSpline
210
0.0
220
0.0
230
1.0
 70
    11
 71
     3
 72
    32
 73
    28
 74
     0
 42
0.0000000001
 43
0.0000000001
 12
1.0
 22
0.0
 32
0.0
 13
1.0
 23
0.0
 33
0.0
 40
0.0
 40
0.0
 40
0.0
 40
0.0
 40
0.125
 40
0.125
 40
0.125
 40
0.125
 40
0.25
 40
0.25
 40
0.25
 40
0.25
 40
0.375
 40
0.375
 40
0.375
 40
0.375
 40
0.5
 40
0.5
 40
0.5
 40
0.5
 40
0.625
 40
0.625
 40
0.625
 40
0.625
 40
0.75
 40
0.75
 40
0.75
 40
0.75
 40
1.0
 40
1.0
 40
1.0
 40
1.0
 10
-120.3509
 20
-87.1028
 30
0.0
 10
-119.8172
 20
-88.8505
 30
0.0
 10
-119.9659
 20
-89.3522
 30
0.0
 10
-119.2336
 20
-91.9311
 30
0.0
 10
-119.2336
 20
-91.9311
 30
0.0
 10
-120.5527
 20
-93.1259
 30
0.0
 10
-122.3278
 20
-93.8381
 30
0.0
 10
-123.9225
 20
-94.215
 30
0.0
 10
-123.9225
 20
-94.215
 30
0.0
 10
-122.8156
 20
-95.0415
 30
0.0
 10
-122.5006
 20
-95.8328
 30
0.0
 10
-122.3716
 20
-97.6005
 30
0.0
 10
-122.3716
 20
-97.6005
 30
0.0
 10
-119.9989
 20
-96.6861
 30
0.0
 10
-117.5273
 20
-95.0323
 30
0.0
 10
-115.4584
 20
-93.5872
 30
0.0
 10
-115.4584
 20
-93.5872
 30
0.0
 10
-116.2383
 20
-91.5446
 30
0.0
 10
-116.8233
 20
-88.7564
 30
0.0
 10
-117.051
 20
-86.5834
 30
0.0
 10
-117.051
 20
-86.5834
 30
0.0
 10
-118.111
 20
-87.8454
 30
0.0
 10
-119.2134
 20
-88.036
 30
0.0
 10
-120.3509
 20
-87.1027
 30
0.0
 10
-120.3509
 20
-87.1027
 30
0.0
 10
-120.3509
 20
-87.1027
 30
0.0
 10
-120.3509
 20
-87.1028
 30
0.0
 10
-120.3509
 20
-87.1028
 30
0.0
  0
SPLINE
  5
E1
330
1F
100
AcDbEntity
  8
layer 1
 62
     7
100
AcDbSpline
210
0.0
220
0.0
230
1.0
 70
    11
 71
     3
 72
    60
 73
    56
 74
     0
 42
0.0000000001
 43
0.0000000001
 12
1.0
 22
0.0
 32
0.0
 13
1.0
 23
0.0
 33
0.0
 40
0.0
 40
0.0
 40
0.0
 40
0.0
 40
0.0666666666666667
 40
0.0666666666666667
 40
0.0666666666666667
 40
0.0666666666666667
 40
0.1333333333333333
 40
0.1333333333333333
 40
0.1333333333333333
 40
0.1333333333333333
 40
0.2
 40
0.2
 40
0.2
 40
0.2
 40
0.2666666666666667
 40
0.2666666666666667
 40
0.2666666666666667
 40
0.2666666666666667
 40
0.3333333333333333
 40
0.3333333333333333
 40
0.3333333333333333
 40
0.3333333333333333
 40
0.4
 40
0.4
 40
0.4
 40
0.4
 40
0.4666666666666667
 40
0.4666666666666667
 40
0.4666666666666667
 40
0.4666666666666667
 40
0.5333333333333333
 40
0.5333333333333333
 40
0.5333333333333333
 40
0.5333333333333333
 40
0.6
 40
0.6
 40
0.6
 40
0.6
 40
0.6666666666666666
 40
0.6666666666666666
 40
0.6666666666666666
 40
0.6666666666666666
 40
0.7333333333333333
 40
0.7333333333333333
 40
0.7333333333333333
 40
0.7333333333333333
 40
0.8
 40
0.8
 40
0.8
 40
0.8
 40
0.8666666666666667
 40
0.8666666666666667
 40
0.8666666666666667
 40
0.8666666666666667
 40
1.0
 40
1.0
 40
1.0
 40
1.0
 10
-71.308
 20
-89.7647
 30
0.0
 10
-71.3109
 20
-89.9651
 30
0.0
 10
-71.2828
 20
-91.1988
 30
0.0
 10
-72.5153
 20
-91.2774
 30
0.0
 10
-72.5153
 20
-91.2774
 30
0.0
 10
-73.2235
 20
-91.217
 30
0.0
 10
-73.5718
 20
-90.7628
 30
0.0
 10
-73.6245
 20
-89.8617
 30
0.0
 10
-73.6245
 20
-89.8617
 30
0.0
 10
-74.3205
 20
-89.8045
 30
0.0
 10
-75.2246
 20
-89.3321
 30
0.0
 10
-75.8186
 20
-88.5486
 30
0.0
 10
-75.8186
 20
-88.5486
 30
0.0
 10
-76.4359
 20
-94.412
 30
0.0
 10
-77.8936
 20
-97.639
 30
0.0
 10
-80.9463
 20
-101.3269
 30
0.0
 10
-80.9463
 20
-101.3269
 30
0.0
 10
-80.9463
 20
-101.3269
 30
0.0
 10
-79.3664
 20
-101.3269
 30
0.0
 10
-79.3664
 20
-101.3269
 30
0.0
 10
-79.3664
 20
-101.3269
 30
0.0
 10
-77.9043
 20
-101.3269
 30
0.0
 10
-77.7536
 20
-101.2634
 30
0.0
 10
-77.3462
 20
-100.4755
 30
0.0
 10
-77.3462
 20
-100.4755
 30
0.0
 10
-76.8272
 20
-99.4718
 30
0.0
 10
-76.108
 20
-99.0321
 30
0.0
 10
-74.9957
 20
-99.0381
 30
0.0
 10
-74.9957
 20
-99.0381
 30
0.0
 10
-73.7846
 20
-99.0448
 30
0.0
 10
-73.2382
 20
-99.4862
 30
0.0
 10
-74.1561
 20
-99.7166
 30
0.0
 10
-74.1561
 20
-99.7166
 30
0.0
 10
-74.9721
 20
-100.085
 30
0.0
 10
-75.5168
 20
-100.7167
 30
0.0
 10
-75.7569
 20
-101.439
 30
0.0
 10
-75.7569
 20
-101.439
 30
0.0
 10
-72.0022
 20
-101.6015
 30
0.0
 10
-70.0729
 20
-106.997
 30
0.0
 10
-72.4896
 20
-109.8931
 30
0.0
 10
-72.4896
 20
-109.8931
 30
0.0
 10
-72.4896
 20
-109.8931
 30
0.0
 10
-68.8856
 20
-109.9264
 30
0.0
 10
-68.8856
 20
-109.9264
 30
0.0
 10
-68.8856
 20
-109.9264
 30
0.0
 10
-68.8856
 20
-102.6539
 30
0.0
 10
-68.8856
 20
-95.3812
 30
0.0
 10
-68.8856
 20
-88.1087
 30
0.0
 10
-68.8856
 20
-88.1087
 30
0.0
 10
-69.2048
 20
-88.8418
 30
0.0
 10
-70.3475
 20
-89.7623
 30
0.0
 10
-71.3078
 20
-89.7647
 30
0.0
 10
-71.3078
 20
-89.7647
 30
0.0
 10
-71.3078
 20
-89.7647
 30
0.0
 10
-71.308
 20
-89.7647
 30
0.0
 10
-71.308
 20
-89.7647
 30
0.0
  0
SPLINE
  5
E2
330
1F
100
AcDbEntity
  8
layer 1
 62
     7
100
AcDbSpline
210
0.0
220
0.0
230
1.0
 70
    11
 71
     3
 72
    40
 73
    36
 74
     0
 42
0.0000000001
 43
0.0000000001
 12
1.0
 22
0.0
 32
0.0
 13
1.0
 23
0.0
 33
0.0
 40
0.0
 40
0.0
 40
0.0
 40
0.0
 40
0.1
 40
0.1
 40
0.1
 40
0.1
 40
0.2
 40
0.2
 40
0.2
 40
0.2
 40
0.3
 40
0.3
 40
0.3
 40
0.3
 40
0.4
 40
0.4
 40
0.4
 40
0.4
 40
0.5
 40
0.5
 40
0.5
 40
0.5
 40
0.6
 40
0.6
 40
0.6
 40
0.6
 40
0.7
 40
0.7
 40
0.7
 40
0.7
 40
0.8
 40
0.8
 40
0.8
 40
0.8
 40
1.0
 40
1.0
 40
1.0
 40
1.0
 10
-98.9605
 20
-91.5816
 30
0.0
 10
-99.7577
 20
-91.7547
 30
0.0
 10
-100.4284
 20
-91.7995
 30
0.0
 10
-101.4132
 20
-91.8338
 30
0.0
 10
-101.4132
 20
-91.8338
 30
0.0
 10
-101.6436
 20
-95.5556
 30
0.0
 10
-103.9415
 20
-97.5205
 30
0.0
 10
-105.2903
 20
-100.2891
 30
0.0
 10
-105.2903
 20
-100.2891
 30
0.0
 10
-103.3554
 20
-101.6949
 30
0.0
 10
-100.5707
 20
-102.3049
 30
0.0
 10
-98.3415
 20
-102.9642
 30
0.0
 10
-98.3415
 20
-102.9642
 30
0.0
 10
-99.2626
 20
-102.2119
 30
0.0
 10
-99.8308
 20
-100.8126
 30
0.0
 10
-99.7321
 20
-99.7926
 30
0.0
 10
-99.7321
 20
-99.7926
 30
0.0
 10
-100.314
 20
-99.865
 30
0.0
 10
-101.3109
 20
-99.4226
 30
0.0
 10
-101.2399
 20
-98.5488
 30
0.0
 10
-101.2399
 20
-98.5488
 30
0.0
 10
-101.3195
 20
-97.4632
 30
0.0
 10
-100.5357
 20
-97.151
 30
0.0
 10
-99.7588
 20
-97.0799
 30
0.0
 10
-99.7588
 20
-97.0799
 30
0.0
 10
-99.4423
 20
-95.9032
 30
0.0
 10
-98.2938
 20
-94.4733
 30
0.0
 10
-96.3985
 20
-94.0927
 30
0.0
 10
-96.3985
 20
-94.0927
 30
0.0
 10
-97.6426
 20
-93.5705
 30
0.0
 10
-98.3293
 20
-92.7551
 30
0.0
 10
-98.9606
 20
-91.5815
 30
0.0
 10
-98.9606
 20
-91.5815
 30
0.0
 10
-98.9606
 20
-91.5815
 30
0.0
 10
-98.9605
 20
-91.5816
 30
0.0
 10
-98.9605
 20
-91.5816
 30
0.0
  0
SPLINE
  5
E3
330
1F
100
AcDbEntity
  8
layer 1
 62
     7
100
AcDbSpline
210
0.0
220
0.0
230
1.0
 70
    11
 71
     3
 72
    32
 73
    28
 74
     0
 42
0.0000000001
 43
0.0000000001
 12
1.0
 22
0.0
 32
0.0
 13
1.0
 23
0.0
 33
0.0
 40
0.0
 40
0.0
 40
0.0
 40
0.0
 40
0.125
 40
0.125
 40
0.125
 40
0.125
 40
0.25
 40
0.25
 40
0.25
 40
0.25
 40
0.375
 40
0.375
 40
0.375
 40
0.375
 40
0.5
 40
0.5
 40
0.5
 40
0.5
 40
0.625
 40
0.625
 40
0.625
 40
0.625
 40
0.75
 40
0.75
 40
0.75
 40
0.75
 40
1.0
 40
1.0
 40
1.0
 40
1.0
 10
-113.3164
 20
-105.8429
 30
0.0
 10
-113.5792
 20
-107.1984
 30
0.0
 10
-113.8067
 20
-108.4874
 30
0.0
 10
-114.4403
 20
-109.8933
 30
0.0
 10
-114.4403
 20
-109.8933
 30
0.0
 10
-114.4403
 20
-109.8933
 30
0.0
 10
-98.16
 20
-109.9266
 30
0.0
 10
-98.16
 20
-109.9266
 30
0.0
 10
-98.16
 20
-109.9266
 30
0.0
 10
-98.16
 20
-109.9266
 30
0.0
 10
-98.3297
 20
-108.8517
 30
0.0
 10
-98.3297
 20
-108.8517
 30
0.0
 10
-98.3297
 20
-108.8517
 30
0.0
 10
-98.5164
 20
-107.668
 30
0.0
 10
-98.8116
 20
-107.3578
 30
0.0
 10
-99.7573
 20
-107.3512
 30
0.0
 10
-99.7573
 20
-107.3512
 30
0.0
 10
-103.2355
 20
-106.8274
 30
0.0
 10
-105.8216
 20
-104.7695
 30
0.0
 10
-108.7613
 20
-103.3346
 30
0.0
 10
-108.7613
 20
-103.3346
 30
0.0
 10
-110.6731
 20
-104.59
 30
0.0
 10
-111.8892
 20
-105.4146
 30
0.0
 10
-113.3163
 20
-105.843
 30
0.0
 10
-113.3163
 20
-105.843
 30
0.0
 10
-113.3163
 20
-105.843
 30
0.0
 10
-113.3164
 20
-105.8429
 30
0.0
 10
-113.3164
 20
-105.8429
 30
0.0
  0
SPLINE
  5
E4
330
1F
100
AcDbEntity
  8
layer 1
 62
     7
100
AcDbSpline
210
0.0
220
0.0
230
1.0
 70
    11
 71
     3
 72
    36
 73
    32
 74
     0
 42
0.0000000001
 43
0.0000000001
 12
1.0
 22
0.0
 32
0.0
 13
1.0
 23
0.0
 33
0.0
 40
0.0
 40
0.0
 40
0.0
 40
0.0
 40
0.1111111111111111
 40
0.1111111111111111
 40
0.1111111111111111
 40
0.1111111111111111
 40
0.2222222222222222
 40
0.2222222222222222
 40
0.2222222222222222
 40
0.2222222222222222
 40
0.3333333333333333
 40
0.3333333333333333
 40
0.3333333333333333
 40
0.3333333333333333
 40
0.4444444444444444
 40
0.4444444444444444
 40
0.4444444444444444
 40
0.4444444444444444
 40
0.5555555555555556
 40
0.5555555555555556
 40
0.5555555555555556
 40
0.5555555555555556
 40
0.6666666666666666
 40
0.6666666666666666
 40
0.6666666666666666
 40
0.6666666666666666
 40
0.7777777777777778
 40
0.7777777777777778
 40
0.7777777777777778
 40
0.7777777777777778
 40
1.0
 40
1.0
 40
1.0
 40
1.0
 10
-82.768
 20
-104.7744
 30
0.0
 10
-84.3629
 20
-105.6194
 30
0.0
 10
-85.502
 20
-106.001
 30
0.0
 10
-87.0205
 20
-106.1991
 30
0.0
 10
-87.0205
 20
-106.1991
 30
0.0
 10
-88.1612
 20
-106.3478
 30
0.0
 10
-89.4924
 20
-106.5873
 30
0.0
 10
-89.9785
 20
-106.7311
 30
0.0
 10
-89.9785
 20
-106.7311
 30
0.0
 10
-91.4583
 20
-107.0891
 30
0.0
 10
-92.7386
 20
-107.2104
 30
0.0
 10
-94.2542
 20
-107.3864
 30
0.0
 10
-94.2542
 20
-107.3864
 30
0.0
 10
-94.2542
 20
-108.2332
 30
0.0
 10
-94.2542
 20
-109.0799
 30
0.0
 10
-94.2542
 20
-109.9265
 30
0.0
 10
-94.2542
 20
-109.9265
 30
0.0
 10
-87.8123
 20
-109.9265
 30
0.0
 10
-81.3703
 20
-109.9265
 30
0.0
 10
-74.9284
 20
-109.9265
 30
0.0
 10
-74.9284
 20
-109.9265
 30
0.0
 10
-74.9284
 20
-109.9265
 30
0.0
 10
-74.603
 20
-108.8403
 30
0.0
 10
-74.603
 20
-108.8403
 30
0.0
 10
-74.603
 20
-108.8403
 30
0.0
 10
-73.9712
 20
-106.7315
 30
0.0
 10
-75.2853
 20
-104.3257
 30
0.0
 10
-77.3419
 20
-103.826
 30
0.0
 10
-77.3419
 20
-103.826
 30
0.0
 10
-79.1734
 20
-103.3811
 30
0.0
 10
-80.6133
 20
-103.6327
 30
0.0
 10
-82.768
 20
-104.7744
 30
0.0
  0
SPLINE
  5
E5
330
1F
100
AcDbEntity
  8
layer 1
 62
     7
100
AcDbSpline
210
0.0
220
0.0
230
1.0
 70
    11
 71
     3
 72
    20
 73
    16
 74
     0
 42
0.0000000001
 43
0.0000000001
 12
1.0
 22
0.0
 32
0.0
 13
1.0
 23
0.0
 33
0.0
 40
0.0
 40
0.0
 40
0.0
 40
0.0
 40
0.2
 40
0.2
 40
0.2
 40
0.2
 40
0.4
 40
0.4
 40
0.4
 40
0.4
 40
0.6
 40
0.6
 40
0.6
 40
0.6
 40
1.0
 40
1.0
 40
1.0
 40
1.0
 10
-98.4007
 20
-98.6851
 30
0.0
 10
-98.4007
 20
-97.1911
 30
0.0
 10
-97.1896
 20
-95.9799
 30
0.0
 10
-95.6956
 20
-95.9799
 30
0.0
 10
-95.6956
 20
-95.9799
 30
0.0
 10
-94.2016
 20
-95.9799
 30
0.0
 10
-92.9905
 20
-97.1911
 30
0.0
 10
-92.9905
 20
-98.6851
 30
0.0
 10
-92.9905
 20
-98.6851
 30
0.0
 10
-92.9905
 20
-100.1791
 30
0.0
 10
-94.2016
 20
-101.3902
 30
0.0
 10
-95.6956
 20
-101.3902
 30
0.0
 10
-95.6956
 20
-101.3902
 30
0.0
 10
-97.1896
 20
-101.3902
 30
0.0
 10
-98.4007
 20
-100.1791
 30
0.0
 10
-98.4007
 20
-98.6851
 30
0.0
  0
ENDSEC
  0
SECTION
  2
OBJECTS
  0
DICTIONARY
  5
C
330
0
100
AcDbDictionary
281
     1
  3
ACAD_GROUP
350
D
  3
ACAD_LAYOUT
350
1A
  3
ACAD_MATERIAL
350
3B
  3
ACAD_MLEADERSTYLE
350
108
  3
ACAD_MLINESTYLE
350
17
  3
ACAD_PLOTSETTINGS
350
19
  3
ACAD_PLOTSTYLENAME
350
E
  3
ACAD_TABLESTYLE
350
107
  3
ACAD_VISUALSTYLE
350
2A
  0
DICTIONARY
  5
D
102
{ACAD_REACTORS
330
C
102
}
330
C
100
AcDbDictionary
281
     1
  0
DICTIONARY
  5
1A
102
{ACAD_REACTORS
330
C
102
}
330
C
100
AcDbDictionary
281
     1
  3
Layout1
350
1E
  3
Layout2
350
26
  3
Model
350
22
  0
DICTIONARY
  5
3B
102
{ACAD_REACTORS
330
C
102
}
330
C
100
AcDbDictionary
281
     1
  3
ByBlock
350
3D
  3
ByLayer
350
3C
  3
Global
350
3E
  0
DICTIONARY
  5
108
102
{ACAD_REACTORS
330
C
102
}
330
C
100
AcDbDictionary
281
     1
  0
DICTIONARY
  5
17
102
{ACAD_REACTORS
330
C
102
}
330
C
100
AcDbDictionary
281
     1
  3
Standard
350
18
  0
DICTIONARY
  5
19
102
{ACAD_REACTORS
330
C
102
}
330
C
100
AcDbDictionary
281
     1
  0
ACDBDICTIONARYWDFLT
  5
E
102
{ACAD_REACTORS
330
C
102
}
330
C
100
AcDbDictionary
281
     1
  3
Normal
350
F
100
AcDbDictionaryWithDefault
340
F
  0
DICTIONARY
  5
107
102
{ACAD_REACTORS
330
C
102
}
330
C
100
AcDbDictionary
281
     1
  0
DICTIONARY
  5
2A
102
{ACAD_REACTORS
330
C
102
}
330
C
100
AcDbDictionary
281
     1
  3
2dWireframe
350
2F
  3
3D Hidden
350
31
  3
3dWireframe
350
30
  3
Basic
350
32
  3
Brighten
350
36
  3
ColorChange
350
3A
  3
Conceptual
350
34
  3
Dim
350
35
  3
Facepattern
350
39
  3
Flat
350
2B
  3
FlatWithEdges
350
2C
  3
Gouraud
350
2D
  3
GouraudWithEdges
350
2E
  3
Linepattern
350
38
  3
Realistic
350
33
  3
Thicken
350
37
  0
LAYOUT
  5
1E
102
{ACAD_REACTORS
330
1A
102
}
330
1A
100
AcDbPlotSettings
  1

  2
none_device
  4

  6

 40
0.0
 41
0.0
 42
0.0
 43
0.0
 44
0.0
 45
0.0
 46
0.0
 47
0.0
 48
0.0
 49
0.0
140
0.0
141
0.0
142
1.0
143
1.0
 70
   688
 72
     0
 73
     0
 74
     5
  7

 75
    16
 76
     0
 77
     2
 78
   300
147
1.0
148
0.0
149
0.0
100
AcDbLayout
  1
Layout1
 70
     1
 71
     1
 10
0.0
 20
0.0
 11
12.0
 21
9.0
 12
0.0
 22
0.0
 32
0.0
 14
1.000000000000000E+20
 24
1.000000000000000E+20
 34
1.000000000000000E+20
 15
-1.000000000000000E+20
 25
-1.000000000000000E+20
 35
-1.000000000000000E+20
146
0.0
 13
0.0
 23
0.0
 33
0.0
 16
1.0
 26
0.0
 36
0.0
 17
0.0
 27
1.0
 37
0.0
 76
     0
330
1B
  0
LAYOUT
  5
26
102
{ACAD_REACTORS
330
1A
102
}
330
1A
100
AcDbPlotSettings
  1

  2
none_device
  4

  6

 40
0.0
 41
0.0
 42
0.0
 43
0.0
 44
0.0
 45
0.0
 46
0.0
 47
0.0
 48
0.0
 49
0.0
140
0.0
141
0.0
142
1.0
143
1.0
 70
   688
 72
     0
 73
     0
 74
     5
  7

 75
    16
 76
     0
 77
     2
 78
   300
147
1.0
148
0.0
149
0.0
100
AcDbLayout
  1
Layout2
 70
     1
 71
     2
 10
0.0
 20
0.0
 11
0.0
 21
0.0
 12
0.0
 22
0.0
 32
0.0
 14
0.0
 24
0.0
 34
0.0
 15
0.0
 25
0.0
 35
0.0
146
0.0
 13
0.0
 23
0.0
 33
0.0
 16
1.0
 26
0.0
 36
0.0
 17
0.0
 27
1.0
 37
0.0
 76
     0
330
23
  0
LAYOUT
  5
22
102
{ACAD_REACTORS
330
1A
102
}
330
1A
100
AcDbPlotSettings
  1

  2
none_device
  4

  6

 40
0.0
 41
0.0
 42
0.0
 43
0.0
 44
0.0
 45
0.0
 46
0.0
 47
0.0
 48
0.0
 49
0.0
140
0.0
141
0.0
142
1.0
143
1.0
 70
  1712
 72
     0
 73
     0
 74
     0
  7

 75
     0
 76
     0
 77
     2
 78
   300
147
1.0
148
0.0
149
0.0
100
AcDbLayout
  1
Model
 70
     1
 71
     0
 10
0.0
 20
0.0
 11
12.0
 21
9.0
 12
0.0
 22
0.0
 32
0.0
 14
-187.3639
 24
-115.0654
 34
0.0
 15
-63.8173
 25
131.7412
 35
0.0
146
0.0
 13
0.0
 23
0.0
 33
0.0
 16
1.0
 26
0.0
 36
0.0
 17
0.0
 27
1.0
 37
0.0
 76
     0
330
1F
331
29
  0
MATERIAL
  5
3D
102
{ACAD_REACTORS
330
3B
102
}
330
3B
100
AcDbMaterial
  1
ByBlock
 72
     1
 94
      127
  0
MATERIAL
  5
3C
102
{ACAD_REACTORS
330
3B
102
}
330
3B
100
AcDbMaterial
  1
ByLayer
 72
     1
 94
      127
  0
MATERIAL
  5
3E
102
{ACAD_REACTORS
330
3B
102
}
330
3B
100
AcDbMaterial
  1
Global
 72
     1
 94
      127
  0
MLINESTYLE
  5
18
102
{ACAD_REACTORS
330
17
102
}
330
17
100
AcDbMlineStyle
  2
Standard
 70
     0
  3

 62
   256
 51
90.0
 52
90.0
 71
     2
 49
0.5
 62
   256
  6
BYLAYER
 49
-0.5
 62
   256
  6
BYLAYER
  0
ACDBPLACEHOLDER
  5
F
102
{ACAD_REACTORS
330
E
102
}
330
E
  0
VISUALSTYLE
  5
2F
102
{ACAD_REACTORS
330
2A
102
}
102
{ACAD_XDICTIONARY
360
EF
102
}
330
2A
100
AcDbVisualStyle
  2
2dWireframe
 70
     4
 71
     0
 72
     2
 73
     0
 90
        0
 40
-0.6
 41
-30.0
 62
     5
 63
     7
421
 16777215
 74
     1
 91
        4
 64
     7
 65
   257
 75
     1
175
     1
 42
1.0
 92
        0
 66
   257
 43
1.0
 76
     1
 77
     6
 78
     2
 67
     7
 79
     5
170
     0
171
     0
290
     0
174
     0
 93
        1
 44
0.0
173
     0
291
     0
 45
0.0
  0
VISUALSTYLE
  5
31
102
{ACAD_REACTORS
330
2A
102
}
102
{ACAD_XDICTIONARY
360
F3
102
}
330
2A
100
AcDbVisualStyle
  2
3D Hidden
 70
     6
 71
     1
 72
     2
 73
     2
 90
        0
 40
-0.6
 41
-30.0
 62
     5
 63
     7
421
 16777215
 74
     2
 91
        2
 64
     7
 65
   257
 75
     2
175
     1
 42
40.0
 92
        0
 66
   257
 43
1.0
 76
     1
 77
     6
 78
     2
 67
     7
 79
     3
170
     0
171
     0
290
     0
174
     0
 93
        1
 44
0.0
173
     0
291
     0
 45
0.0
  0
VISUALSTYLE
  5
30
102
{ACAD_REACTORS
330
2A
102
}
102
{ACAD_XDICTIONARY
360
F1
102
}
330
2A
100
AcDbVisualStyle
  2
3dWireframe
 70
     5
 71
     0
 72
     2
 73
     0
 90
        0
 40
-0.6
 41
-30.0
 62
     5
 63
     7
421
 16777215
 74
     1
 91
        4
 64
     7
 65
   257
 75
     1
175
     1
 42
1.0
 92
        0
 66
   257
 43
1.0
 76
     1
 77
     6
 78
     2
 67
     7
 79
     5
170
     0
171
     0
290
     0
174
     0
 93
        1
 44
0.0
173
     0
291
     0
 45
0.0
  0
VISUALSTYLE
  5
32
102
{ACAD_REACTORS
330
2A
102
}
102
{ACAD_XDICTIONARY
360
F5
102
}
330
2A
100
AcDbVisualStyle
  2
Basic
 70
     7
 71
     1
 72
     0
 73
     1
 90
        0
 40
-0.6
 41
-30.0
 62
     5
 63
     7
421
 16777215
 74
     0
 91
        4
 64
     7
 65
   257
 75
     1
175
     1
 42
1.0
 92
        8
 66
     7
 43
1.0
 76
     1
 77
     6
 78
     2
 67
     7
 79
     5
170
     0
171
     0
290
     0
174
     0
 93
        1
 44
0.0
173
     0
291
     1
 45
0.0
  0
VISUALSTYLE
  5
36
102
{ACAD_REACTORS
330
2A
102
}
102
{ACAD_XDICTIONARY
360
FD
102
}
330
2A
100
AcDbVisualStyle
  2
Brighten
 70
    12
 71
     2
 72
     2
 73
     0
 90
        0
 40
-0.6
 41
-30.0
 62
     5
 63
     7
421
 16777215
 74
     1
 91
        4
 64
     7
 65
   257
 75
     1
175
     1
 42
1.0
 92
        8
 66
     7
 43
1.0
 76
     1
 77
     6
 78
     2
 67
     7
 79
     5
170
     0
171
     0
290
     0
174
     0
 93
        1
 44
50.0
173
     0
291
     1
 45
0.0
  0
VISUALSTYLE
  5
3A
102
{ACAD_REACTORS
330
2A
102
}
102
{ACAD_XDICTIONARY
360
105
102
}
330
2A
100
AcDbVisualStyle
  2
ColorChange
 70
    16
 71
     2
 72
     2
 73
     3
 90
        0
 40
-0.6
 41
-30.0
 62
     5
 63
     8
421
  8421504
 74
     1
 91
        4
 64
     7
 65
   257
 75
     1
175
     1
 42
1.0
 92
        8
 66
     8
424
  8421504
 43
1.0
 76
     1
 77
     6
 78
     2
 67
     7
 79
     5
170
     0
171
     0
290
     0
174
     0
 93
        1
 44
0.0
173
     0
291
     1
 45
0.0
  0
VISUALSTYLE
  5
34
102
{ACAD_REACTORS
330
2A
102
}
102
{ACAD_XDICTIONARY
360
F9
102
}
330
2A
100
AcDbVisualStyle
  2
Conceptual
 70
     9
 71
     3
 72
     2
 73
     0
 90
        0
 40
-0.6
 41
-30.0
 62
     5
 63
     7
421
 16777215
 74
     2
 91
        2
 64
     7
 65
   257
 75
     1
175
     1
 42
40.0
 92
        8
 66
     7
 43
1.0
 76
     1
 77
     6
 78
     2
 67
     7
 79
     3
170
     0
171
     0
290
     0
174
     0
 93
        1
 44
0.0
173
     0
291
     0
 45
0.0
  0
VISUALSTYLE
  5
35
102
{ACAD_REACTORS
330
2A
102
}
102
{ACAD_XDICTIONARY
360
FB
102
}
330
2A
100
AcDbVisualStyle
  2
Dim
 70
    11
 71
     2
 72
     2
 73
     0
 90
        0
 40
-0.6
 41
-30.0
 62
     5
 63
     7
421
 16777215
 74
     1
 91
        4
 64
     7
 65
   257
 75
     1
175
     1
 42
1.0
 92
        8
 66
     7
 43
1.0
 76
     1
 77
     6
 78
     2
 67
     7
 79
     5
170
     0
171
     0
290
     0
174
     0
 93
        1
 44
-50.0
173
     0
291
     1
 45
0.0
  0
VISUALSTYLE
  5
39
102
{ACAD_REACTORS
330
2A
102
}
102
{ACAD_XDICTIONARY
360
103
102
}
330
2A
100
AcDbVisualStyle
  2
Facepattern
 70
    15
 71
     2
 72
     2
 73
     0
 90
        0
 40
-0.6
 41
-30.0
 62
     5
 63
     7
421
 16777215
 74
     1
 91
        4
 64
     7
 65
   257
 75
     1
175
     1
 42
1.0
 92
        8
 66
     7
 43
1.0
 76
     1
 77
     6
 78
     2
 67
     7
 79
     5
170
     0
171
     0
290
     0
174
     0
 93
        1
 44
0.0
173
     0
291
     1
 45
0.0
  0
VISUALSTYLE
  5
2B
102
{ACAD_REACTORS
330
2A
102
}
102
{ACAD_XDICTIONARY
360
E7
102
}
330
2A
100
AcDbVisualStyle
  2
Flat
 70
     0
 71
     2
 72
     1
 73
     1
 90
        2
 40
-0.6
 41
30.0
 62
     5
 63
     7
421
 16777215
 74
     0
 91
        4
 64
     7
 65
   257
 75
     1
175
     1
 42
1.0
 92
        8
 66
     7
 43
1.0
 76
     1
 77
     6
 78
     2
 67
     7
 79
     5
170
     0
171
     0
290
     0
174
     0
 93
       13
 44
0.0
173
     0
291
     1
 45
0.0
  0
VISUALSTYLE
  5
2C
102
{ACAD_REACTORS
330
2A
102
}
102
{ACAD_XDICTIONARY
360
E9
102
}
330
2A
100
AcDbVisualStyle
  2
FlatWithEdges
 70
     1
 71
     2
 72
     1
 73
     1
 90
        2
 40
-0.6
 41
30.0
 62
     5
 63
     7
421
 16777215
 74
     1
 91
        4
 64
     7
 65
   257
 75
     1
175
     1
 42
1.0
 92
        0
 66
   257
 43
1.0
 76
     1
 77
     6
 78
     2
 67
     7
 79
     5
170
     0
171
     0
290
     0
174
     0
 93
       13
 44
0.0
173
     0
291
     1
 45
0.0
  0
VISUALSTYLE
  5
2D
102
{ACAD_REACTORS
330
2A
102
}
102
{ACAD_XDICTIONARY
360
EB
102
}
330
2A
100
AcDbVisualStyle
  2
Gouraud
 70
     2
 71
     2
 72
     2
 73
     1
 90
        2
 40
-0.6
 41
30.0
 62
     5
 63
     7
421
 16777215
 74
     0
 91
        4
 64
     7
 65
   257
 75
     1
175
     1
 42
1.0
 92
        0
 66
     7
 43
1.0
 76
     1
 77
     6
 78
     2
 67
     7
 79
     5
170
     0
171
     0
290
     0
174
     0
 93
       13
 44
0.0
173
     0
291
     1
 45
0.0
  0
VISUALSTYLE
  5
2E
102
{ACAD_REACTORS
330
2A
102
}
102
{ACAD_XDICTIONARY
360
ED
102
}
330
2A
100
AcDbVisualStyle
  2
GouraudWithEdges
 70
     3
 71
     2
 72
     2
 73
     1
 90
        2
 40
-0.6
 41
30.0
 62
     5
 63
     7
421
 16777215
 74
     1
 91
        4
 64
     7
 65
   257
 75
     1
175
     1
 42
1.0
 92
        0
 66
   257
 43
1.0
 76
     1
 77
     6
 78
     2
 67
     7
 79
     5
170
     0
171
     0
290
     0
174
     0
 93
       13
 44
0.0
173
     0
291
     1
 45
0.0
  0
VISUALSTYLE
  5
38
102
{ACAD_REACTORS
330
2A
102
}
102
{ACAD_XDICTIONARY
360
101
102
}
330
2A
100
AcDbVisualStyle
  2
Linepattern
 70
    14
 71
     2
 72
     2
 73
     0
 90
        0
 40
-0.6
 41
-30.0
 62
     5
 63
     7
421
 16777215
 74
     1
 91
        4
 64
     7
 65
   257
 75
     7
175
     7
 42
1.0
 92
        8
 66
     7
 43
1.0
 76
     1
 77
     6
 78
     2
 67
     7
 79
     5
170
     0
171
     0
290
     0
174
     0
 93
        1
 44
0.0
173
     0
291
     1
 45
0.0
  0
VISUALSTYLE
  5
33
102
{ACAD_REACTORS
330
2A
102
}
102
{ACAD_XDICTIONARY
360
F7
102
}
330
2A
100
AcDbVisualStyle
  2
Realistic
 70
     8
 71
     2
 72
     2
 73
     0
 90
        0
 40
-0.6
 41
-30.0
 62
     5
 63
     7
421
 16777215
 74
     1
 91
        0
 64
     7
 65
   257
 75
     1
175
     1
 42
1.0
 92
        8
 66
     8
424
  7895160
 43
1.0
 76
     1
 77
     6
 78
     2
 67
     7
 79
     5
170
     0
171
     0
290
     0
174
     0
 93
       13
 44
0.0
173
     0
291
     0
 45
0.0
  0
VISUALSTYLE
  5
37
102
{ACAD_REACTORS
330
2A
102
}
102
{ACAD_XDICTIONARY
360
FF
102
}
330
2A
100
AcDbVisualStyle
  2
Thicken
 70
    13
 71
     2
 72
     2
 73
     0
 90
        0
 40
-0.6
 41
-30.0
 62
     5
 63
     7
421
 16777215
 74
     1
 91
        4
 64
     7
 65
   257
 75
     1
175
     1
 42
1.0
 92
       12
 66
     7
 43
1.0
 76
     1
 77
     6
 78
     2
 67
     7
 79
     5
170
     0
171
     0
290
     0
174
     0
 93
        1
 44
0.0
173
     0
291
     1
 45
0.0
  0
DICTIONARY
  5
EF
330
2F
100
AcDbDictionary
280
     1
281
     1
  3
ACAD_XREC_ROUNDTRIP
360
F0
  0
DICTIONARY
  5
F3
330
31
100
AcDbDictionary
280
     1
281
     1
  3
ACAD_XREC_ROUNDTRIP
360
F4
  0
DICTIONARY
  5
F1
330
30
100
AcDbDictionary
280
     1
281
     1
  3
ACAD_XREC_ROUNDTRIP
360
F2
  0
DICTIONARY
  5
F5
330
32
100
AcDbDictionary
280
     1
281
     1
  3
ACAD_XREC_ROUNDTRIP
360
F6
  0
DICTIONARY
  5
FD
330
36
100
AcDbDictionary
280
     1
281
     1
  3
ACAD_XREC_ROUNDTRIP
360
FE
  0
DICTIONARY
  5
105
330
3A
100
AcDbDictionary
280
     1
281
     1
  3
ACAD_XREC_ROUNDTRIP
360
106
  0
DICTIONARY
  5
F9
330
34
100
AcDbDictionary
280
     1
281
     1
  3
ACAD_XREC_ROUNDTRIP
360
FA
  0
DICTIONARY
  5
FB
330
35
100
AcDbDictionary
280
     1
281
     1
  3
ACAD_XREC_ROUNDTRIP
360
FC
  0
DICTIONARY
  5
103
330
39
100
AcDbDictionary
280
     1
281
     1
  3
ACAD_XREC_ROUNDTRIP
360
104
  0
DICTIONARY
  5
E7
330
2B
100
AcDbDictionary
280
     1
281
     1
  3
ACAD_XREC_ROUNDTRIP
360
E8
  0
DICTIONARY
  5
E9
330
2C
100
AcDbDictionary
280
     1
281
     1
  3
ACAD_XREC_ROUNDTRIP
360
EA
  0
DICTIONARY
  5
EB
330
2D
100
AcDbDictionary
280
     1
281
     1
  3
ACAD_XREC_ROUNDTRIP
360
EC
  0
DICTIONARY
  5
ED
330
2E
100
AcDbDictionary
280
     1
281
     1
  3
ACAD_XREC_ROUNDTRIP
360
EE
  0
DICTIONARY
  5
101
330
38
100
AcDbDictionary
280
     1
281
     1
  3
ACAD_XREC_ROUNDTRIP
360
102
  0
DICTIONARY
  5
F7
330
33
100
AcDbDictionary
280
     1
281
     1
  3
ACAD_XREC_ROUNDTRIP
360
F8
  0
DICTIONARY
  5
FF
330
37
100
AcDbDictionary
280
     1
281
     1
  3
ACAD_XREC_ROUNDTRIP
360
100
  0
XRECORD
  5
F0
102
{ACAD_REACTORS
330
EF
102
}
330
EF
100
AcDbXrecord
280
     1
102
RTVSPropertyOp0
 70
     1
102
RTVSPropertyOp1
 70
     1
102
RTVSPropertyOp2
 70
     1
102
RTVSPropertyOp3
 70
     1
102
RTVSPropertyOp4
 70
     1
102
RTVSPropertyOp5
 70
     1
102
RTVSPropertyOp6
 70
     1
102
RTVSPropertyOp7
 70
     1
102
RTVSPropertyOp8
 70
     1
102
RTVSPropertyOp9
 70
     1
102
RTVSPropertyOp10
 70
     1
102
RTVSPropertyOp11
 70
     1
102
RTVSPropertyOp12
 70
     1
102
RTVSPropertyOp13
 70
     1
102
RTVSPropertyOp14
 70
     1
102
RTVSPropertyOp15
 70
     1
102
RTVSPropertyOp16
 70
     1
102
RTVSPropertyOp17
 70
     1
102
RTVSPropertyOp18
 70
     1
102
RTVSPropertyOp19
 70
     1
102
RTVSPropertyOp20
 70
     1
102
RTVSPropertyOp21
 70
     1
102
RTVSPropertyOp22
 70
     1
102
RTVSPropertyOp23
 70
     1
102
RTVSPropertyOp24
 70
     1
102
RTVSPropertyOp25
 70
     1
102
RTVSPropertyOp26
 70
     1
102
RTVSPropertyOp27
 70
     1
102
RTVSPropertyOp28
 70
     1
102
RTVSPropertyOp29
 70
     1
102
RTVSPropertyOp30
 70
     1
102
RTVSPropertyOp31
 70
     1
102
RTVSPropertyOp32
 70
     1
  0
XRECORD
  5
F4
102
{ACAD_REACTORS
330
F3
102
}
330
F3
100
AcDbXrecord
280
     1
102
RTVSPropertyOp0
 70
     1
102
RTVSPropertyOp1
 70
     1
102
RTVSPropertyOp2
 70
     1
102
RTVSPropertyOp3
 70
     1
102
RTVSPropertyOp4
 70
     1
102
RTVSPropertyOp5
 70
     1
102
RTVSPropertyOp6
 70
     1
102
RTVSPropertyOp7
 70
     1
102
RTVSPropertyOp8
 70
     1
102
RTVSPropertyOp9
 70
     1
102
RTVSPropertyOp10
 70
     1
102
RTVSPropertyOp11
 70
     1
102
RTVSPropertyOp12
 70
     1
102
RTVSPropertyOp13
 70
     1
102
RTVSPropertyOp14
 70
     1
102
RTVSPropertyOp15
 70
     1
102
RTVSPropertyOp16
 70
     1
102
RTVSPropertyOp17
 70
     1
102
RTVSPropertyOp18
 70
     1
102
RTVSPropertyOp19
 70
     1
102
RTVSPropertyOp20
 70
     1
102
RTVSPropertyOp21
 70
     1
102
RTVSPropertyOp22
 70
     1
102
RTVSPropertyOp23
 70
     1
102
RTVSPropertyOp24
 70
     1
102
RTVSPropertyOp25
 70
     1
102
RTVSPropertyOp26
 70
     1
102
RTVSPropertyOp27
 70
     1
102
RTVSPropertyOp28
 70
     1
102
RTVSPropertyOp29
 70
     1
102
RTVSPropertyOp30
 70
     1
102
RTVSPropertyOp31
 70
     1
102
RTVSPropertyOp32
 70
     1
  0
XRECORD
  5
F2
102
{ACAD_REACTORS
330
F1
102
}
330
F1
100
AcDbXrecord
280
     1
102
RTVSPropertyOp0
 70
     1
102
RTVSPropertyOp1
 70
     1
102
RTVSPropertyOp2
 70
     1
102
RTVSPropertyOp3
 70
     1
102
RTVSPropertyOp4
 70
     1
102
RTVSPropertyOp5
 70
     1
102
RTVSPropertyOp6
 70
     1
102
RTVSPropertyOp7
 70
     1
102
RTVSPropertyOp8
 70
     1
102
RTVSPropertyOp9
 70
     1
102
RTVSPropertyOp10
 70
     1
102
RTVSPropertyOp11
 70
     1
102
RTVSPropertyOp12
 70
     1
102
RTVSPropertyOp13
 70
     1
102
RTVSPropertyOp14
 70
     1
102
RTVSPropertyOp15
 70
     1
102
RTVSPropertyOp16
 70
     1
102
RTVSPropertyOp17
 70
     1
102
RTVSPropertyOp18
 70
     1
102
RTVSPropertyOp19
 70
     1
102
RTVSPropertyOp20
 70
     1
102
RTVSPropertyOp21
 70
     1
102
RTVSPropertyOp22
 70
     1
102
RTVSPropertyOp23
 70
     1
102
RTVSPropertyOp24
 70
     1
102
RTVSPropertyOp25
 70
     1
102
RTVSPropertyOp26
 70
     1
102
RTVSPropertyOp27
 70
     1
102
RTVSPropertyOp28
 70
     1
102
RTVSPropertyOp29
 70
     1
102
RTVSPropertyOp30
 70
     1
102
RTVSPropertyOp31
 70
     1
102
RTVSPropertyOp32
 70
     1
  0
XRECORD
  5
F6
102
{ACAD_REACTORS
330
F5
102
}
330
F5
100
AcDbXrecord
280
     1
102
RTVSPropertyOp0
 70
     1
102
RTVSPropertyOp1
 70
     1
102
RTVSPropertyOp2
 70
     1
102
RTVSPropertyOp3
 70
     1
102
RTVSPropertyOp4
 70
     1
102
RTVSPropertyOp5
 70
     1
102
RTVSPropertyOp6
 70
     1
102
RTVSPropertyOp7
 70
     1
102
RTVSPropertyOp8
 70
     1
102
RTVSPropertyOp9
 70
     1
102
RTVSPropertyOp10
 70
     1
102
RTVSPropertyOp11
 70
     1
102
RTVSPropertyOp12
 70
     1
102
RTVSPropertyOp13
 70
     1
102
RTVSPropertyOp14
 70
     1
102
RTVSPropertyOp15
 70
     1
102
RTVSPropertyOp16
 70
     1
102
RTVSPropertyOp17
 70
     1
102
RTVSPropertyOp18
 70
     1
102
RTVSPropertyOp19
 70
     1
102
RTVSPropertyOp20
 70
     1
102
RTVSPropertyOp21
 70
     1
102
RTVSPropertyOp22
 70
     1
102
RTVSPropertyOp23
 70
     1
102
RTVSPropertyOp24
 70
     1
102
RTVSPropertyOp25
 70
     1
102
RTVSPropertyOp26
 70
     1
102
RTVSPropertyOp27
 70
     1
102
RTVSPropertyOp28
 70
     1
102
RTVSPropertyOp29
 70
     1
102
RTVSPropertyOp30
 70
     1
102
RTVSPropertyOp31
 70
     1
102
RTVSPropertyOp32
 70
     1
  0
XRECORD
  5
FE
102
{ACAD_REACTORS
330
FD
102
}
330
FD
100
AcDbXrecord
280
     1
102
RTVSPropertyOp0
 70
     1
102
RTVSPropertyOp1
 70
     1
102
RTVSPropertyOp2
 70
     1
102
RTVSPropertyOp3
 70
     1
102
RTVSPropertyOp4
 70
     1
102
RTVSPropertyOp5
 70
     1
102
RTVSPropertyOp6
 70
     1
102
RTVSPropertyOp7
 70
     1
102
RTVSPropertyOp8
 70
     1
102
RTVSPropertyOp9
 70
     1
102
RTVSPropertyOp10
 70
     1
102
RTVSPropertyOp11
 70
     1
102
RTVSPropertyOp12
 70
     1
102
RTVSPropertyOp13
 70
     1
102
RTVSPropertyOp14
 70
     1
102
RTVSPropertyOp15
 70
     1
102
RTVSPropertyOp16
 70
     1
102
RTVSPropertyOp17
 70
     1
102
RTVSPropertyOp18
 70
     1
102
RTVSPropertyOp19
 70
     1
102
RTVSPropertyOp20
 70
     1
102
RTVSPropertyOp21
 70
     1
102
RTVSPropertyOp22
 70
     1
102
RTVSPropertyOp23
 70
     1
102
RTVSPropertyOp24
 70
     1
102
RTVSPropertyOp25
 70
     1
102
RTVSPropertyOp26
 70
     1
102
RTVSPropertyOp27
 70
     1
102
RTVSPropertyOp28
 70
     1
102
RTVSPropertyOp29
 70
     1
102
RTVSPropertyOp30
 70
     1
102
RTVSPropertyOp31
 70
     1
102
RTVSPropertyOp32
 70
     1
  0
XRECORD
  5
106
102
{ACAD_REACTORS
330
105
102
}
330
105
100
AcDbXrecord
280
     1
102
RTVSPropertyOp0
 70
     1
102
RTVSPropertyOp1
 70
     1
102
RTVSPropertyOp2
 70
     1
102
RTVSPropertyOp3
 70
     1
102
RTVSPropertyOp4
 70
     1
102
RTVSPropertyOp5
 70
     1
102
RTVSPropertyOp6
 70
     1
102
RTVSPropertyOp7
 70
     1
102
RTVSPropertyOp8
 70
     1
102
RTVSPropertyOp9
 70
     1
102
RTVSPropertyOp10
 70
     1
102
RTVSPropertyOp11
 70
     1
102
RTVSPropertyOp12
 70
     1
102
RTVSPropertyOp13
 70
     1
102
RTVSPropertyOp14
 70
     1
102
RTVSPropertyOp15
 70
     1
102
RTVSPropertyOp16
 70
     1
102
RTVSPropertyOp17
 70
     1
102
RTVSPropertyOp18
 70
     1
102
RTVSPropertyOp19
 70
     1
102
RTVSPropertyOp20
 70
     1
102
RTVSPropertyOp21
 70
     1
102
RTVSPropertyOp22
 70
     1
102
RTVSPropertyOp23
 70
     1
102
RTVSPropertyOp24
 70
     1
102
RTVSPropertyOp25
 70
     1
102
RTVSPropertyOp26
 70
     1
102
RTVSPropertyOp27
 70
     1
102
RTVSPropertyOp28
 70
     1
102
RTVSPropertyOp29
 70
     1
102
RTVSPropertyOp30
 70
     1
102
RTVSPropertyOp31
 70
     1
102
RTVSPropertyOp32
 70
     1
  0
XRECORD
  5
FA
102
{ACAD_REACTORS
330
F9
102
}
330
F9
100
AcDbXrecord
280
     1
102
RTVSPropertyOp0
 70
     1
102
RTVSPropertyOp1
 70
     1
102
RTVSPropertyOp2
 70
     1
102
RTVSPropertyOp3
 70
     1
102
RTVSPropertyOp4
 70
     1
102
RTVSPropertyOp5
 70
     1
102
RTVSPropertyOp6
 70
     1
102
RTVSPropertyOp7
 70
     1
102
RTVSPropertyOp8
 70
     1
102
RTVSPropertyOp9
 70
     1
102
RTVSPropertyOp10
 70
     1
102
RTVSPropertyOp11
 70
     1
102
RTVSPropertyOp12
 70
     1
102
RTVSPropertyOp13
 70
     1
102
RTVSPropertyOp14
 70
     1
102
RTVSPropertyOp15
 70
     1
102
RTVSPropertyOp16
 70
     1
102
RTVSPropertyOp17
 70
     1
102
RTVSPropertyOp18
 70
     1
102
RTVSPropertyOp19
 70
     1
102
RTVSPropertyOp20
 70
     1
102
RTVSPropertyOp21
 70
     1
102
RTVSPropertyOp22
 70
     1
102
RTVSPropertyOp23
 70
     1
102
RTVSPropertyOp24
 70
     1
102
RTVSPropertyOp25
 70
     1
102
RTVSPropertyOp26
 70
     1
102
RTVSPropertyOp27
 70
     1
102
RTVSPropertyOp28
 70
     1
102
RTVSPropertyOp29
 70
     1
102
RTVSPropertyOp30
 70
     1
102
RTVSPropertyOp31
 70
     1
102
RTVSPropertyOp32
 70
     1
  0
XRECORD
  5
FC
102
{ACAD_REACTORS
330
FB
102
}
330
FB
100
AcDbXrecord
280
     1
102
RTVSPropertyOp0
 70
     1
102
RTVSPropertyOp1
 70
     1
102
RTVSPropertyOp2
 70
     1
102
RTVSPropertyOp3
 70
     1
102
RTVSPropertyOp4
 70
     1
102
RTVSPropertyOp5
 70
     1
102
RTVSPropertyOp6
 70
     1
102
RTVSPropertyOp7
 70
     1
102
RTVSPropertyOp8
 70
     1
102
RTVSPropertyOp9
 70
     1
102
RTVSPropertyOp10
 70
     1
102
RTVSPropertyOp11
 70
     1
102
RTVSPropertyOp12
 70
     1
102
RTVSPropertyOp13
 70
     1
102
RTVSPropertyOp14
 70
     1
102
RTVSPropertyOp15
 70
     1
102
RTVSPropertyOp16
 70
     1
102
RTVSPropertyOp17
 70
     1
102
RTVSPropertyOp18
 70
     1
102
RTVSPropertyOp19
 70
     1
102
RTVSPropertyOp20
 70
     1
102
RTVSPropertyOp21
 70
     1
102
RTVSPropertyOp22
 70
     1
102
RTVSPropertyOp23
 70
     1
102
RTVSPropertyOp24
 70
     1
102
RTVSPropertyOp25
 70
     1
102
RTVSPropertyOp26
 70
     1
102
RTVSPropertyOp27
 70
     1
102
RTVSPropertyOp28
 70
     1
102
RTVSPropertyOp29
 70
     1
102
RTVSPropertyOp30
 70
     1
102
RTVSPropertyOp31
 70
     1
102
RTVSPropertyOp32
 70
     1
  0
XRECORD
  5
104
102
{ACAD_REACTORS
330
103
102
}
330
103
100
AcDbXrecord
280
     1
102
RTVSPropertyOp0
 70
     1
102
RTVSPropertyOp1
 70
     1
102
RTVSPropertyOp2
 70
     1
102
RTVSPropertyOp3
 70
     1
102
RTVSPropertyOp4
 70
     1
102
RTVSPropertyOp5
 70
     1
102
RTVSPropertyOp6
 70
     1
102
RTVSPropertyOp7
 70
     1
102
RTVSPropertyOp8
 70
     1
102
RTVSPropertyOp9
 70
     1
102
RTVSPropertyOp10
 70
     1
102
RTVSPropertyOp11
 70
     1
102
RTVSPropertyOp12
 70
     1
102
RTVSPropertyOp13
 70
     1
102
RTVSPropertyOp14
 70
     1
102
RTVSPropertyOp15
 70
     1
102
RTVSPropertyOp16
 70
     1
102
RTVSPropertyOp17
 70
     1
102
RTVSPropertyOp18
 70
     1
102
RTVSPropertyOp19
 70
     1
102
RTVSPropertyOp20
 70
     1
102
RTVSPropertyOp21
 70
     1
102
RTVSPropertyOp22
 70
     1
102
RTVSPropertyOp23
 70
     1
102
RTVSPropertyOp24
 70
     1
102
RTVSPropertyOp25
 70
     1
102
RTVSPropertyOp26
 70
     1
102
RTVSPropertyOp27
 70
     1
102
RTVSPropertyOp28
 70
     1
102
RTVSPropertyOp29
 70
     1
102
RTVSPropertyOp30
 70
     1
102
RTVSPropertyOp31
 70
     1
102
RTVSPropertyOp32
 70
     1
  0
XRECORD
  5
E8
102
{ACAD_REACTORS
330
E7
102
}
330
E7
100
AcDbXrecord
280
     1
102
RTVSPropertyOp0
 70
     1
102
RTVSPropertyOp1
 70
     1
102
RTVSPropertyOp2
 70
     1
102
RTVSPropertyOp3
 70
     1
102
RTVSPropertyOp4
 70
     1
102
RTVSPropertyOp5
 70
     1
102
RTVSPropertyOp6
 70
     1
102
RTVSPropertyOp7
 70
     1
102
RTVSPropertyOp8
 70
     1
102
RTVSPropertyOp9
 70
     1
102
RTVSPropertyOp10
 70
     1
102
RTVSPropertyOp11
 70
     1
102
RTVSPropertyOp12
 70
     1
102
RTVSPropertyOp13
 70
     1
102
RTVSPropertyOp14
 70
     1
102
RTVSPropertyOp15
 70
     1
102
RTVSPropertyOp16
 70
     1
102
RTVSPropertyOp17
 70
     1
102
RTVSPropertyOp18
 70
     1
102
RTVSPropertyOp19
 70
     1
102
RTVSPropertyOp20
 70
     1
102
RTVSPropertyOp21
 70
     1
102
RTVSPropertyOp22
 70
     1
102
RTVSPropertyOp23
 70
     1
102
RTVSPropertyOp24
 70
     1
102
RTVSPropertyOp25
 70
     1
102
RTVSPropertyOp26
 70
     1
102
RTVSPropertyOp27
 70
     1
102
RTVSPropertyOp28
 70
     1
102
RTVSPropertyOp29
 70
     1
102
RTVSPropertyOp30
 70
     1
102
RTVSPropertyOp31
 70
     1
102
RTVSPropertyOp32
 70
     1
  0
XRECORD
  5
EA
102
{ACAD_REACTORS
330
E9
102
}
330
E9
100
AcDbXrecord
280
     1
102
RTVSPropertyOp0
 70
     1
102
RTVSPropertyOp1
 70
     1
102
RTVSPropertyOp2
 70
     1
102
RTVSPropertyOp3
 70
     1
102
RTVSPropertyOp4
 70
     1
102
RTVSPropertyOp5
 70
     1
102
RTVSPropertyOp6
 70
     1
102
RTVSPropertyOp7
 70
     1
102
RTVSPropertyOp8
 70
     1
102
RTVSPropertyOp9
 70
     1
102
RTVSPropertyOp10
 70
     1
102
RTVSPropertyOp11
 70
     1
102
RTVSPropertyOp12
 70
     1
102
RTVSPropertyOp13
 70
     1
102
RTVSPropertyOp14
 70
     1
102
RTVSPropertyOp15
 70
     1
102
RTVSPropertyOp16
 70
     1
102
RTVSPropertyOp17
 70
     1
102
RTVSPropertyOp18
 70
     1
102
RTVSPropertyOp19
 70
     1
102
RTVSPropertyOp20
 70
     1
102
RTVSPropertyOp21
 70
     1
102
RTVSPropertyOp22
 70
     1
102
RTVSPropertyOp23
 70
     1
102
RTVSPropertyOp24
 70
     1
102
RTVSPropertyOp25
 70
     1
102
RTVSPropertyOp26
 70
     1
102
RTVSPropertyOp27
 70
     1
102
RTVSPropertyOp28
 70
     1
102
RTVSPropertyOp29
 70
     1
102
RTVSPropertyOp30
 70
     1
102
RTVSPropertyOp31
 70
     1
102
RTVSPropertyOp32
 70
     1
  0
XRECORD
  5
EC
102
{ACAD_REACTORS
330
EB
102
}
330
EB
100
AcDbXrecord
280
     1
102
RTVSPropertyOp0
 70
     1
102
RTVSPropertyOp1
 70
     1
102
RTVSPropertyOp2
 70
     1
102
RTVSPropertyOp3
 70
     1
102
RTVSPropertyOp4
 70
     1
102
RTVSPropertyOp5
 70
     1
102
RTVSPropertyOp6
 70
     1
102
RTVSPropertyOp7
 70
     1
102
RTVSPropertyOp8
 70
     1
102
RTVSPropertyOp9
 70
     1
102
RTVSPropertyOp10
 70
     1
102
RTVSPropertyOp11
 70
     1
102
RTVSPropertyOp12
 70
     1
102
RTVSPropertyOp13
 70
     1
102
RTVSPropertyOp14
 70
     1
102
RTVSPropertyOp15
 70
     1
102
RTVSPropertyOp16
 70
     1
102
RTVSPropertyOp17
 70
     1
102
RTVSPropertyOp18
 70
     1
102
RTVSPropertyOp19
 70
     1
102
RTVSPropertyOp20
 70
     1
102
RTVSPropertyOp21
 70
     1
102
RTVSPropertyOp22
 70
     1
102
RTVSPropertyOp23
 70
     1
102
RTVSPropertyOp24
 70
     1
102
RTVSPropertyOp25
 70
     1
102
RTVSPropertyOp26
 70
     1
102
RTVSPropertyOp27
 70
     1
102
RTVSPropertyOp28
 70
     1
102
RTVSPropertyOp29
 70
     1
102
RTVSPropertyOp30
 70
     1
102
RTVSPropertyOp31
 70
     1
102
RTVSPropertyOp32
 70
     1
  0
XRECORD
  5
EE
102
{ACAD_REACTORS
330
ED
102
}
330
ED
100
AcDbXrecord
280
     1
102
RTVSPropertyOp0
 70
     1
102
RTVSPropertyOp1
 70
     1
102
RTVSPropertyOp2
 70
     1
102
RTVSPropertyOp3
 70
     1
102
RTVSPropertyOp4
 70
     1
102
RTVSPropertyOp5
 70
     1
102
RTVSPropertyOp6
 70
     1
102
RTVSPropertyOp7
 70
     1
102
RTVSPropertyOp8
 70
     1
102
RTVSPropertyOp9
 70
     1
102
RTVSPropertyOp10
 70
     1
102
RTVSPropertyOp11
 70
     1
102
RTVSPropertyOp12
 70
     1
102
RTVSPropertyOp13
 70
     1
102
RTVSPropertyOp14
 70
     1
102
RTVSPropertyOp15
 70
     1
102
RTVSPropertyOp16
 70
     1
102
RTVSPropertyOp17
 70
     1
102
RTVSPropertyOp18
 70
     1
102
RTVSPropertyOp19
 70
     1
102
RTVSPropertyOp20
 70
     1
102
RTVSPropertyOp21
 70
     1
102
RTVSPropertyOp22
 70
     1
102
RTVSPropertyOp23
 70
     1
102
RTVSPropertyOp24
 70
     1
102
RTVSPropertyOp25
 70
     1
102
RTVSPropertyOp26
 70
     1
102
RTVSPropertyOp27
 70
     1
102
RTVSPropertyOp28
 70
     1
102
RTVSPropertyOp29
 70
     1
102
RTVSPropertyOp30
 70
     1
102
RTVSPropertyOp31
 70
     1
102
RTVSPropertyOp32
 70
     1
  0
XRECORD
  5
102
102
{ACAD_REACTORS
330
101
102
}
330
101
100
AcDbXrecord
280
     1
102
RTVSPropertyOp0
 70
     1
102
RTVSPropertyOp1
 70
     1
102
RTVSPropertyOp2
 70
     1
102
RTVSPropertyOp3
 70
     1
102
RTVSPropertyOp4
 70
     1
102
RTVSPropertyOp5
 70
     1
102
RTVSPropertyOp6
 70
     1
102
RTVSPropertyOp7
 70
     1
102
RTVSPropertyOp8
 70
     1
102
RTVSPropertyOp9
 70
     1
102
RTVSPropertyOp10
 70
     1
102
RTVSPropertyOp11
 70
     1
102
RTVSPropertyOp12
 70
     1
102
RTVSPropertyOp13
 70
     1
102
RTVSPropertyOp14
 70
     1
102
RTVSPropertyOp15
 70
     1
102
RTVSPropertyOp16
 70
     1
102
RTVSPropertyOp17
 70
     1
102
RTVSPropertyOp18
 70
     1
102
RTVSPropertyOp19
 70
     1
102
RTVSPropertyOp20
 70
     1
102
RTVSPropertyOp21
 70
     1
102
RTVSPropertyOp22
 70
     1
102
RTVSPropertyOp23
 70
     1
102
RTVSPropertyOp24
 70
     1
102
RTVSPropertyOp25
 70
     1
102
RTVSPropertyOp26
 70
     1
102
RTVSPropertyOp27
 70
     1
102
RTVSPropertyOp28
 70
     1
102
RTVSPropertyOp29
 70
     1
102
RTVSPropertyOp30
 70
     1
102
RTVSPropertyOp31
 70
     1
102
RTVSPropertyOp32
 70
     1
  0
XRECORD
  5
F8
102
{ACAD_REACTORS
330
F7
102
}
330
F7
100
AcDbXrecord
280
     1
102
RTVSPropertyOp0
 70
     1
102
RTVSPropertyOp1
 70
     1
102
RTVSPropertyOp2
 70
     1
102
RTVSPropertyOp3
 70
     1
102
RTVSPropertyOp4
 70
     1
102
RTVSPropertyOp5
 70
     1
102
RTVSPropertyOp6
 70
     1
102
RTVSPropertyOp7
 70
     1
102
RTVSPropertyOp8
 70
     1
102
RTVSPropertyOp9
 70
     1
102
RTVSPropertyOp10
 70
     1
102
RTVSPropertyOp11
 70
     1
102
RTVSPropertyOp12
 70
     1
102
RTVSPropertyOp13
 70
     1
102
RTVSPropertyOp14
 70
     1
102
RTVSPropertyOp15
 70
     1
102
RTVSPropertyOp16
 70
     1
102
RTVSPropertyOp17
 70
     1
102
RTVSPropertyOp18
 70
     1
102
RTVSPropertyOp19
 70
     1
102
RTVSPropertyOp20
 70
     1
102
RTVSPropertyOp21
 70
     1
102
RTVSPropertyOp22
 70
     1
102
RTVSPropertyOp23
 70
     1
102
RTVSPropertyOp24
 70
     1
102
RTVSPropertyOp25
 70
     1
102
RTVSPropertyOp26
 70
     1
102
RTVSPropertyOp27
 70
     1
102
RTVSPropertyOp28
 70
     1
102
RTVSPropertyOp29
 70
     1
102
RTVSPropertyOp30
 70
     1
102
RTVSPropertyOp31
 70
     1
102
RTVSPropertyOp32
 70
     1
  0
XRECORD
  5
100
102
{ACAD_REACTORS
330
FF
102
}
330
FF
100
AcDbXrecord
280
     1
102
RTVSPropertyOp0
 70
     1
102
RTVSPropertyOp1
 70
     1
102
RTVSPropertyOp2
 70
     1
102
RTVSPropertyOp3
 70
     1
102
RTVSPropertyOp4
 70
     1
102
RTVSPropertyOp5
 70
     1
102
RTVSPropertyOp6
 70
     1
102
RTVSPropertyOp7
 70
     1
102
RTVSPropertyOp8
 70
     1
102
RTVSPropertyOp9
 70
     1
102
RTVSPropertyOp10
 70
     1
102
RTVSPropertyOp11
 70
     1
102
RTVSPropertyOp12
 70
     1
102
RTVSPropertyOp13
 70
     1
102
RTVSPropertyOp14
 70
     1
102
RTVSPropertyOp15
 70
     1
102
RTVSPropertyOp16
 70
     1
102
RTVSPropertyOp17
 70
     1
102
RTVSPropertyOp18
 70
     1
102
RTVSPropertyOp19
 70
     1
102
RTVSPropertyOp20
 70
     1
102
RTVSPropertyOp21
 70
     1
102
RTVSPropertyOp22
 70
     1
102
RTVSPropertyOp23
 70
     1
102
RTVSPropertyOp24
 70
     1
102
RTVSPropertyOp25
 70
     1
102
RTVSPropertyOp26
 70
     1
102
RTVSPropertyOp27
 70
     1
102
RTVSPropertyOp28
 70
     1
102
RTVSPropertyOp29
 70
     1
102
RTVSPropertyOp30
 70
     1
102
RTVSPropertyOp31
 70
     1
102
RTVSPropertyOp32
 70
     1
  0
ENDSEC
  0
EOF
