  0
SECTION
  2
HEADER
  9
$ACADVER
  1
AC1021
  9
$ACADMAINTVER
 70
    25
  9
$DWGCODEPAGE
  3
ANSI_1256
  9
$INSBASE
 10
0.0
 20
0.0
 30
0.0
  9
$EXTMIN
 10
-187.3976
 20
-114.7846
 30
0.0
  9
$EXTMAX
 10
-65.0734
 20
131.8585
 30
0.0
  9
$LIMMIN
 10
0.0
 20
0.0
  9
$LIMMAX
 10
12.0
 20
9.0
  9
$ORTHOMODE
 70
     0
  9
$REGENMODE
 70
     1
  9
$FILLMODE
 70
     1
  9
$QTEXTMODE
 70
     0
  9
$MIRRTEXT
 70
     1
  9
$LTSCALE
 40
1.0
  9
$ATTMODE
 70
     1
  9
$TEXTSIZE
 40
0.2
  9
$TRACEWID
 40
0.05
  9
$TEXTSTYLE
  7
Standard
  9
$CLAYER
  8
0
  9
$CELTYPE
  6
ByLayer
  9
$CECOLOR
 62
   256
  9
$CELTSCALE
 40
1.0
  9
$DISPSILH
 70
     0
  9
$DIMSCALE
 40
1.0
  9
$DIMASZ
 40
0.18
  9
$DIMEXO
 40
0.0625
  9
$DIMDLI
 40
0.38
  9
$DIMRND
 40
0.0
  9
$DIMDLE
 40
0.0
  9
$DIMEXE
 40
0.18
  9
$DIMTP
 40
0.0
  9
$DIMTM
 40
0.0
  9
$DIMTXT
 40
0.18
  9
$DIMCEN
 40
0.09
  9
$DIMTSZ
 40
0.0
  9
$DIMTOL
 70
     0
  9
$DIMLIM
 70
     0
  9
$DIMTIH
 70
     1
  9
$DIMTOH
 70
     1
  9
$DIMSE1
 70
     0
  9
$DIMSE2
 70
     0
  9
$DIMTAD
 70
     0
  9
$DIMZIN
 70
     0
  9
$DIMBLK
  1

  9
$DIMASO
 70
     1
  9
$DIMSHO
 70
     1
  9
$DIMPOST
  1

  9
$DIMAPOST
  1

  9
$DIMALT
 70
     0
  9
$DIMALTD
 70
     2
  9
$DIMALTF
 40
25.4
  9
$DIMLFAC
 40
1.0
  9
$DIMTOFL
 70
     0
  9
$DIMTVP
 40
0.0
  9
$DIMTIX
 70
     0
  9
$DIMSOXD
 70
     0
  9
$DIMSAH
 70
     0
  9
$DIMBLK1
  1

  9
$DIMBLK2
  1

  9
$DIMSTYLE
  2
Standard
  9
$DIMCLRD
 70
     0
  9
$DIMCLRE
 70
     0
  9
$DIMCLRT
 70
     0
  9
$DIMTFAC
 40
1.0
  9
$DIMGAP
 40
0.09
  9
$DIMJUST
 70
     0
  9
$DIMSD1
 70
     0
  9
$DIMSD2
 70
     0
  9
$DIMTOLJ
 70
     1
  9
$DIMTZIN
 70
     0
  9
$DIMALTZ
 70
     0
  9
$DIMALTTZ
 70
     0
  9
$DIMUPT
 70
     0
  9
$DIMDEC
 70
     4
  9
$DIMTDEC
 70
     4
  9
$DIMALTU
 70
     2
  9
$DIMALTTD
 70
     2
  9
$DIMTXSTY
  7
Standard
  9
$DIMAUNIT
 70
     0
  9
$DIMADEC
 70
     0
  9
$DIMALTRND
 40
0.0
  9
$DIMAZIN
 70
     0
  9
$DIMDSEP
 70
    46
  9
$DIMATFIT
 70
     3
  9
$DIMFRAC
 70
     0
  9
$DIMLDRBLK
  1

  9
$DIMLUNIT
 70
     2
  9
$DIMLWD
 70
    -2
  9
$DIMLWE
 70
    -2
  9
$DIMTMOVE
 70
     0
  9
$DIMFXL
 40
1.0
  9
$DIMFXLON
 70
     0
  9
$DIMJOGANG
 40
0.7853981633974483
  9
$DIMTFILL
 70
     0
  9
$DIMTFILLCLR
 70
     0
  9
$DIMARCSYM
 70
     0
  9
$DIMLTYPE
  6

  9
$DIMLTEX1
  6

  9
$DIMLTEX2
  6

  9
$LUNITS
 70
     2
  9
$LUPREC
 70
     4
  9
$SKETCHINC
 40
0.1
  9
$FILLETRAD
 40
0.5
  9
$AUNITS
 70
     0
  9
$AUPREC
 70
     0
  9
$MENU
  1
.
  9
$ELEVATION
 40
0.0
  9
$PELEVATION
 40
0.0
  9
$THICKNESS
 40
0.0
  9
$LIMCHECK
 70
     0
  9
$CHAMFERA
 40
0.5
  9
$CHAMFERB
 40
0.5
  9
$CHAMFERC
 40
1.0
  9
$CHAMFERD
 40
0.0
  9
$SKPOLY
 70
     0
  9
$TDCREATE
 40
2458492.383792164
  9
$TDUCREATE
 40
2458492.217125498
  9
$TDUPDATE
 40
2458492.383792373
  9
$TDUUPDATE
 40
2458492.217125706
  9
$TDINDWG
 40
0.0000000116
  9
$TDUSRTIMER
 40
0.0000000116
  9
$USRTIMER
 70
     1
  9
$ANGBASE
 50
0.0
  9
$ANGDIR
 70
     0
  9
$PDMODE
 70
     0
  9
$PDSIZE
 40
0.0
  9
$PLINEWID
 40
0.0
  9
$SPLFRAME
 70
     0
  9
$SPLINETYPE
 70
     6
  9
$SPLINESEGS
 70
     8
  9
$HANDSEED
  5
F4
  9
$SURFTAB1
 70
     6
  9
$SURFTAB2
 70
     6
  9
$SURFTYPE
 70
     6
  9
$SURFU
 70
     6
  9
$SURFV
 70
     6
  9
$UCSBASE
  2

  9
$UCSNAME
  2

  9
$UCSORG
 10
0.0
 20
0.0
 30
0.0
  9
$UCSXDIR
 10
1.0
 20
0.0
 30
0.0
  9
$UCSYDIR
 10
0.0
 20
1.0
 30
0.0
  9
$UCSORTHOREF
  2

  9
$UCSORTHOVIEW
 70
     0
  9
$UCSORGTOP
 10
0.0
 20
0.0
 30
0.0
  9
$UCSORGBOTTOM
 10
0.0
 20
0.0
 30
0.0
  9
$UCSORGLEFT
 10
0.0
 20
0.0
 30
0.0
  9
$UCSORGRIGHT
 10
0.0
 20
0.0
 30
0.0
  9
$UCSORGFRONT
 10
0.0
 20
0.0
 30
0.0
  9
$UCSORGBACK
 10
0.0
 20
0.0
 30
0.0
  9
$PUCSBASE
  2

  9
$PUCSNAME
  2

  9
$PUCSORG
 10
0.0
 20
0.0
 30
0.0
  9
$PUCSXDIR
 10
1.0
 20
0.0
 30
0.0
  9
$PUCSYDIR
 10
0.0
 20
1.0
 30
0.0
  9
$PUCSORTHOREF
  2

  9
$PUCSORTHOVIEW
 70
     0
  9
$PUCSORGTOP
 10
0.0
 20
0.0
 30
0.0
  9
$PUCSORGBOTTOM
 10
0.0
 20
0.0
 30
0.0
  9
$PUCSORGLEFT
 10
0.0
 20
0.0
 30
0.0
  9
$PUCSORGRIGHT
 10
0.0
 20
0.0
 30
0.0
  9
$PUCSORGFRONT
 10
0.0
 20
0.0
 30
0.0
  9
$PUCSORGBACK
 10
0.0
 20
0.0
 30
0.0
  9
$USERI1
 70
     0
  9
$USERI2
 70
     0
  9
$USERI3
 70
     0
  9
$USERI4
 70
     0
  9
$USERI5
 70
     0
  9
$USERR1
 40
0.0
  9
$USERR2
 40
0.0
  9
$USERR3
 40
0.0
  9
$USERR4
 40
0.0
  9
$USERR5
 40
0.0
  9
$WORLDVIEW
 70
     1
  9
$SHADEDGE
 70
     3
  9
$SHADEDIF
 70
    70
  9
$TILEMODE
 70
     1
  9
$MAXACTVP
 70
    64
  9
$PINSBASE
 10
0.0
 20
0.0
 30
0.0
  9
$PLIMCHECK
 70
     0
  9
$PEXTMIN
 10
1.000000000000000E+20
 20
1.000000000000000E+20
 30
1.000000000000000E+20
  9
$PEXTMAX
 10
-1.000000000000000E+20
 20
-1.000000000000000E+20
 30
-1.000000000000000E+20
  9
$PLIMMIN
 10
0.0
 20
0.0
  9
$PLIMMAX
 10
12.0
 20
9.0
  9
$UNITMODE
 70
     0
  9
$VISRETAIN
 70
     1
  9
$PLINEGEN
 70
     0
  9
$PSLTSCALE
 70
     1
  9
$TREEDEPTH
 70
  3020
  9
$CMLSTYLE
  2
Standard
  9
$CMLJUST
 70
     0
  9
$CMLSCALE
 40
1.0
  9
$PROXYGRAPHICS
 70
     1
  9
$MEASUREMENT
 70
     0
  9
$CELWEIGHT
370
    -1
  9
$ENDCAPS
280
     0
  9
$JOINSTYLE
280
     0
  9
$LWDISPLAY
290
     0
  9
$INSUNITS
 70
     4
  9
$HYPERLINKBASE
  1

  9
$STYLESHEET
  1

  9
$XEDIT
290
     1
  9
$CEPSNTYPE
380
     0
  9
$PSTYLEMODE
290
     1
  9
$FINGERPRINTGUID
  2
{286B86A1-FB51-4ED6-9A86-277713ED8C3E}
  9
$VERSIONGUID
  2
{FAEB1C32-E019-11D5-929B-00C0DF256EC4}
  9
$EXTNAMES
290
     1
  9
$PSVPSCALE
 40
0.0
  9
$OLESTARTUP
290
     0
  9
$SORTENTS
280
   127
  9
$INDEXCTL
280
     0
  9
$HIDETEXT
280
     1
  9
$XCLIPFRAME
290
     0
  9
$HALOGAP
280
     0
  9
$OBSCOLOR
 70
   257
  9
$OBSLTYPE
280
     0
  9
$INTERSECTIONDISPLAY
280
     0
  9
$INTERSECTIONCOLOR
 70
   257
  9
$DIMASSOC
280
     2
  9
$PROJECTNAME
  1

  9
$CAMERADISPLAY
290
     0
  9
$LENSLENGTH
 40
50.0
  9
$CAMERAHEIGHT
 40
0.0
  9
$STEPSPERSEC
 40
2.0
  9
$STEPSIZE
 40
6.0
  9
$3DDWFPREC
 40
2.0
  9
$PSOLWIDTH
 40
0.25
  9
$PSOLHEIGHT
 40
4.0
  9
$LOFTANG1
 40
1.570796326794897
  9
$LOFTANG2
 40
1.570796326794897
  9
$LOFTMAG1
 40
0.0
  9
$LOFTMAG2
 40
0.0
  9
$LOFTPARAM
 70
     7
  9
$LOFTNORMALS
280
     1
  9
$LATITUDE
 40
37.795
  9
$LONGITUDE
 40
-122.394
  9
$NORTHDIRECTION
 40
0.0
  9
$TIMEZONE
 70
 -8000
  9
$LIGHTGLYPHDISPLAY
280
     1
  9
$TILEMODELIGHTSYNCH
280
     1
  9
$SOLIDHIST
280
     1
  9
$SHOWHIST
280
     1
  9
$DWFFRAME
280
     2
  9
$DGNFRAME
280
     2
  9
$REALWORLDSCALE
290
     1
  9
$INTERFERECOLOR
 62
   256
  9
$CSHADOW
280
     0
  9
$SHADOWPLANELOCATION
 40
0.0
  0
ENDSEC
  0
SECTION
  2
CLASSES
  0
CLASS
  1
ACDBDICTIONARYWDFLT
  2
AcDbDictionaryWithDefault
  3
ObjectDBX Classes
 90
        0
 91
        4
280
     0
281
     0
  0
CLASS
  1
VISUALSTYLE
  2
AcDbVisualStyle
  3
ObjectDBX Classes
 90
     4095
 91
        4
280
     0
281
     0
  0
CLASS
  1
MATERIAL
  2
AcDbMaterial
  3
ObjectDBX Classes
 90
     1153
 91
        4
280
     0
281
     0
  0
ENDSEC
  0
SECTION
  2
TABLES
  0
TABLE
  2
VPORT
  5
8
330
0
100
AcDbSymbolTable
 70
     1
  0
VPORT
  5
29
330
8
100
AcDbSymbolTableRecord
100
AcDbViewportTableRecord
  2
*Active
 70
     0
 10
0.0
 20
0.0
 11
1.0
 21
1.0
 12
10.42990654205607
 22
4.5
 13
0.0
 23
0.0
 14
0.5
 24
0.5
 15
0.5
 25
0.5
 16
0.0
 26
0.0
 36
1.0
 17
0.0
 27
0.0
 37
0.0
 40
9.0
 41
1.972972972850329
 42
50.0
 43
0.0
 44
0.0
 50
0.0
 51
0.0
 71
     0
 72
   100
 73
     1
 74
     3
 75
     0
 76
     0
 77
     0
 78
     0
281
     0
 65
     1
110
0.0
120
0.0
130
0.0
111
1.0
121
0.0
131
0.0
112
0.0
122
1.0
132
0.0
 79
     0
146
0.0
 60
     3
 61
     5
292
     1
282
     1
141
0.0
142
0.0
 63
   250
  0
ENDTAB
  0
TABLE
  2
LTYPE
  5
5
330
0
100
AcDbSymbolTable
 70
     1
  0
LTYPE
  5
14
330
5
100
AcDbSymbolTableRecord
100
AcDbLinetypeTableRecord
  2
ByBlock
 70
     0
  3

 72
    65
 73
     0
 40
0.0
  0
LTYPE
  5
15
330
5
100
AcDbSymbolTableRecord
100
AcDbLinetypeTableRecord
  2
ByLayer
 70
     0
  3

 72
    65
 73
     0
 40
0.0
  0
LTYPE
  5
16
330
5
100
AcDbSymbolTableRecord
100
AcDbLinetypeTableRecord
  2
Continuous
 70
     0
  3
Solid line
 72
    65
 73
     0
 40
0.0
  0
ENDTAB
  0
TABLE
  2
LAYER
  5
2
330
0
100
AcDbSymbolTable
 70
     2
  0
LAYER
  5
10
330
2
100
AcDbSymbolTableRecord
100
AcDbLayerTableRecord
  2
0
 70
     0
 62
     7
  6
Continuous
370
    -3
390
F
347
3E
  0
LAYER
  5
40
330
2
100
AcDbSymbolTableRecord
100
AcDbLayerTableRecord
  2
layer 1
 70
     0
 62
     7
  6
Continuous
370
    -3
390
F
347
3E
  0
ENDTAB
  0
TABLE
  2
STYLE
  5
3
330
0
100
AcDbSymbolTable
 70
     1
  0
STYLE
  5
11
330
3
100
AcDbSymbolTableRecord
100
AcDbTextStyleTableRecord
  2
Standard
 70
     0
 40
0.0
 41
1.0
 50
0.0
 71
     0
 42
0.2
  3
txt
  4

  0
ENDTAB
  0
TABLE
  2
VIEW
  5
6
330
0
100
AcDbSymbolTable
 70
     0
  0
ENDTAB
  0
TABLE
  2
UCS
  5
7
330
0
100
AcDbSymbolTable
 70
     0
  0
ENDTAB
  0
TABLE
  2
APPID
  5
9
330
0
100
AcDbSymbolTable
 70
     2
  0
APPID
  5
12
330
9
100
AcDbSymbolTableRecord
100
AcDbRegAppTableRecord
  2
ACAD
 70
     0
  0
APPID
  5
3F
330
9
100
AcDbSymbolTableRecord
100
AcDbRegAppTableRecord
  2
ODA
 70
     0
  0
ENDTAB
  0
TABLE
  2
DIMSTYLE
  5
A
330
0
100
AcDbSymbolTable
 70
     1
100
AcDbDimStyleTable
  0
DIMSTYLE
105
27
330
A
100
AcDbSymbolTableRecord
100
AcDbDimStyleTableRecord
  2
Standard
 70
     0
178
     0
340
11
  0
ENDTAB
  0
TABLE
  2
BLOCK_RECORD
  5
1
330
0
100
AcDbSymbolTable
 70
     1
  0
BLOCK_RECORD
  5
1F
330
1
100
AcDbSymbolTableRecord
100
AcDbBlockTableRecord
  2
*Model_Space
340
22
 70
     0
280
     1
281
     0
  0
BLOCK_RECORD
  5
1B
330
1
100
AcDbSymbolTableRecord
100
AcDbBlockTableRecord
  2
*Paper_Space
340
1E
 70
     0
280
     1
281
     0
  0
BLOCK_RECORD
  5
23
330
1
100
AcDbSymbolTableRecord
100
AcDbBlockTableRecord
  2
*Paper_Space0
340
26
 70
     0
280
     1
281
     0
  0
ENDTAB
  0
ENDSEC
  0
SECTION
  2
BLOCKS
  0
BLOCK
  5
20
330
1F
100
AcDbEntity
  8
0
100
AcDbBlockBegin
  2
*Model_Space
 70
     0
 10
0.0
 20
0.0
 30
0.0
  3
*Model_Space
  1

  0
ENDBLK
  5
21
330
1F
100
AcDbEntity
  8
0
100
AcDbBlockEnd
  0
BLOCK
  5
1C
330
1B
100
AcDbEntity
 67
     1
  8
0
100
AcDbBlockBegin
  2
*Paper_Space
 70
     0
 10
0.0
 20
0.0
 30
0.0
  3
*Paper_Space
  1

  0
ENDBLK
  5
1D
330
1B
100
AcDbEntity
 67
     1
  8
0
100
AcDbBlockEnd
  0
BLOCK
  5
24
330
23
100
AcDbEntity
  8
0
100
AcDbBlockBegin
  2
*Paper_Space0
 70
     0
 10
0.0
 20
0.0
 30
0.0
  3
*Paper_Space0
  1

  0
ENDBLK
  5
25
330
23
100
AcDbEntity
  8
0
100
AcDbBlockEnd
  0
ENDSEC
  0
SECTION
  2
ENTITIES
  0
LWPOLYLINE
  5
41
330
1F
100
AcDbEntity
  8
layer 1
100
AcDbPolyline
 90
        5
 70
     1
 43
0.0
 10
-187.3976
 20
-114.7846
 10
-65.0734
 20
-114.7846
 10
-65.0734
 20
131.8584
 10
-187.3976
 20
131.8584
 10
-187.3976
 20
-114.7846
  0
SPLINE
  5
42
330
1F
100
AcDbEntity
  8
layer 1
 62
     7
100
AcDbSpline
210
0.0
220
0.0
230
1.0
 70
    11
 71
     3
 72
    32
 73
    28
 74
     0
 42
0.0000000001
 43
0.0000000001
 12
1.0
 22
0.0
 32
0.0
 13
1.0
 23
0.0
 33
0.0
 40
0.0
 40
0.0
 40
0.0
 40
0.0
 40
0.125
 40
0.125
 40
0.125
 40
0.125
 40
0.25
 40
0.25
 40
0.25
 40
0.25
 40
0.375
 40
0.375
 40
0.375
 40
0.375
 40
0.5
 40
0.5
 40
0.5
 40
0.5
 40
0.625
 40
0.625
 40
0.625
 40
0.625
 40
0.75
 40
0.75
 40
0.75
 40
0.75
 40
1.0
 40
1.0
 40
1.0
 40
1.0
 10
-168.9353
 20
127.4098
 30
0.0
 10
-168.9353
 20
127.4098
 30
0.0
 10
-182.3563
 20
127.4792
 30
0.0
 10
-182.3563
 20
127.4792
 30
0.0
 10
-182.3563
 20
127.4792
 30
0.0
 10
-183.5151
 20
127.4239
 30
0.0
 10
-184.4311
 20
126.8147
 30
0.0
 10
-184.3267
 20
125.5641
 30
0.0
 10
-184.3267
 20
125.5641
 30
0.0
 10
-184.3267
 20
125.5641
 30
0.0
 10
-184.2896
 20
111.4589
 30
0.0
 10
-184.2896
 20
111.4589
 30
0.0
 10
-184.2896
 20
111.4589
 30
0.0
 10
-184.2641
 20
109.9464
 30
0.0
 10
-182.5092
 20
109.7269
 30
0.0
 10
-181.5851
 20
110.466
 30
0.0
 10
-181.5851
 20
110.466
 30
0.0
 10
-181.5851
 20
110.466
 30
0.0
 10
-168.0749
 20
124.418
 30
0.0
 10
-168.0749
 20
124.418
 30
0.0
 10
-168.0749
 20
124.418
 30
0.0
 10
-167.2031
 20
125.2959
 30
0.0
 10
-167.2905
 20
127.2163
 30
0.0
 10
-168.9353
 20
127.4098
 30
0.0
 10
-168.9353
 20
127.4098
 30
0.0
 10
-168.9353
 20
127.4098
 30
0.0
 10
-168.9353
 20
127.4098
 30
0.0
 10
-168.9353
 20
127.4098
 30
0.0
  0
SPLINE
  5
43
330
1F
100
AcDbEntity
  8
layer 1
 62
     7
100
AcDbSpline
210
0.0
220
0.0
230
1.0
 70
    11
 71
     3
 72
    28
 73
    24
 74
     0
 42
0.0000000001
 43
0.0000000001
 12
1.0
 22
0.0
 32
0.0
 13
1.0
 23
0.0
 33
0.0
 40
0.0
 40
0.0
 40
0.0
 40
0.0
 40
0.1428571428571428
 40
0.1428571428571428
 40
0.1428571428571428
 40
0.1428571428571428
 40
0.2857142857142857
 40
0.2857142857142857
 40
0.2857142857142857
 40
0.2857142857142857
 40
0.4285714285714285
 40
0.4285714285714285
 40
0.4285714285714285
 40
0.4285714285714285
 40
0.5714285714285714
 40
0.5714285714285714
 40
0.5714285714285714
 40
0.5714285714285714
 40
0.7142857142857143
 40
0.7142857142857143
 40
0.7142857142857143
 40
0.7142857142857143
 40
1.0
 40
1.0
 40
1.0
 40
1.0
 10
-163.0527
 20
127.4098
 30
0.0
 10
-163.0527
 20
127.4098
 30
0.0
 10
-149.6316
 20
127.4792
 30
0.0
 10
-149.6316
 20
127.4792
 30
0.0
 10
-149.6316
 20
127.4792
 30
0.0
 10
-148.4729
 20
127.4239
 30
0.0
 10
-147.5569
 20
126.8147
 30
0.0
 10
-147.6613
 20
125.5641
 30
0.0
 10
-147.6613
 20
125.5641
 30
0.0
 10
-147.6613
 20
125.5641
 30
0.0
 10
-147.6984
 20
111.4589
 30
0.0
 10
-147.6984
 20
111.4589
 30
0.0
 10
-147.6984
 20
111.4589
 30
0.0
 10
-147.7238
 20
109.9464
 30
0.0
 10
-149.4787
 20
109.7269
 30
0.0
 10
-150.4028
 20
110.466
 30
0.0
 10
-150.4028
 20
110.466
 30
0.0
 10
-150.4028
 20
110.466
 30
0.0
 10
-163.9131
 20
124.418
 30
0.0
 10
-163.9131
 20
124.418
 30
0.0
 10
-163.9131
 20
124.418
 30
0.0
 10
-164.7849
 20
125.2959
 30
0.0
 10
-164.6974
 20
127.2163
 30
0.0
 10
-163.0527
 20
127.4098
 30
0.0
  0
SPLINE
  5
44
330
1F
100
AcDbEntity
  8
layer 1
 62
     7
100
AcDbSpline
210
0.0
220
0.0
230
1.0
 70
    11
 71
     3
 72
    32
 73
    28
 74
     0
 42
0.0000000001
 43
0.0000000001
 12
1.0
 22
0.0
 32
0.0
 13
1.0
 23
0.0
 33
0.0
 40
0.0
 40
0.0
 40
0.0
 40
0.0
 40
0.125
 40
0.125
 40
0.125
 40
0.125
 40
0.25
 40
0.25
 40
0.25
 40
0.25
 40
0.375
 40
0.375
 40
0.375
 40
0.375
 40
0.5
 40
0.5
 40
0.5
 40
0.5
 40
0.625
 40
0.625
 40
0.625
 40
0.625
 40
0.75
 40
0.75
 40
0.75
 40
0.75
 40
1.0
 40
1.0
 40
1.0
 40
1.0
 10
-168.9353
 20
89.8617
 30
0.0
 10
-168.9353
 20
89.8617
 30
0.0
 10
-182.3563
 20
89.7923
 30
0.0
 10
-182.3563
 20
89.7923
 30
0.0
 10
-182.3563
 20
89.7923
 30
0.0
 10
-183.5151
 20
89.8476
 30
0.0
 10
-184.4311
 20
90.4569
 30
0.0
 10
-184.3267
 20
91.7074
 30
0.0
 10
-184.3267
 20
91.7074
 30
0.0
 10
-184.3267
 20
91.7074
 30
0.0
 10
-184.2896
 20
105.8126
 30
0.0
 10
-184.2896
 20
105.8126
 30
0.0
 10
-184.2896
 20
105.8126
 30
0.0
 10
-184.2641
 20
107.3252
 30
0.0
 10
-182.5092
 20
107.5446
 30
0.0
 10
-181.5851
 20
106.8056
 30
0.0
 10
-181.5851
 20
106.8056
 30
0.0
 10
-181.5851
 20
106.8056
 30
0.0
 10
-168.0749
 20
92.8536
 30
0.0
 10
-168.0749
 20
92.8536
 30
0.0
 10
-168.0749
 20
92.8536
 30
0.0
 10
-167.2031
 20
91.9757
 30
0.0
 10
-167.2905
 20
90.0552
 30
0.0
 10
-168.9353
 20
89.8617
 30
0.0
 10
-168.9353
 20
89.8617
 30
0.0
 10
-168.9353
 20
89.8617
 30
0.0
 10
-168.9353
 20
89.8617
 30
0.0
 10
-168.9353
 20
89.8617
 30
0.0
  0
SPLINE
  5
45
330
1F
100
AcDbEntity
  8
layer 1
 62
     7
100
AcDbSpline
210
0.0
220
0.0
230
1.0
 70
    11
 71
     3
 72
    32
 73
    28
 74
     0
 42
0.0000000001
 43
0.0000000001
 12
1.0
 22
0.0
 32
0.0
 13
1.0
 23
0.0
 33
0.0
 40
0.0
 40
0.0
 40
0.0
 40
0.0
 40
0.125
 40
0.125
 40
0.125
 40
0.125
 40
0.25
 40
0.25
 40
0.25
 40
0.25
 40
0.375
 40
0.375
 40
0.375
 40
0.375
 40
0.5
 40
0.5
 40
0.5
 40
0.5
 40
0.625
 40
0.625
 40
0.625
 40
0.625
 40
0.75
 40
0.75
 40
0.75
 40
0.75
 40
1.0
 40
1.0
 40
1.0
 40
1.0
 10
-163.0527
 20
89.8617
 30
0.0
 10
-163.0527
 20
89.8617
 30
0.0
 10
-149.6316
 20
89.7922
 30
0.0
 10
-149.6316
 20
89.7922
 30
0.0
 10
-149.6316
 20
89.7922
 30
0.0
 10
-148.4729
 20
89.8476
 30
0.0
 10
-147.5569
 20
90.4568
 30
0.0
 10
-147.6613
 20
91.7073
 30
0.0
 10
-147.6613
 20
91.7073
 30
0.0
 10
-147.6613
 20
91.7073
 30
0.0
 10
-147.6984
 20
105.8125
 30
0.0
 10
-147.6984
 20
105.8125
 30
0.0
 10
-147.6984
 20
105.8125
 30
0.0
 10
-147.7238
 20
107.3251
 30
0.0
 10
-149.4787
 20
107.5445
 30
0.0
 10
-150.4028
 20
106.8055
 30
0.0
 10
-150.4028
 20
106.8055
 30
0.0
 10
-150.4028
 20
106.8055
 30
0.0
 10
-163.9131
 20
92.8535
 30
0.0
 10
-163.9131
 20
92.8535
 30
0.0
 10
-163.9131
 20
92.8535
 30
0.0
 10
-164.7849
 20
91.9756
 30
0.0
 10
-164.6974
 20
90.0552
 30
0.0
 10
-163.0527
 20
89.8616
 30
0.0
 10
-163.0527
 20
89.8616
 30
0.0
 10
-163.0527
 20
89.8616
 30
0.0
 10
-163.0527
 20
89.8617
 30
0.0
 10
-163.0527
 20
89.8617
 30
0.0
  0
SPLINE
  5
46
330
1F
100
AcDbEntity
  8
layer 1
 62
     7
100
AcDbSpline
210
0.0
220
0.0
230
1.0
 70
     8
 71
     3
 72
    36
 73
    32
 74
     0
 42
0.0000000001
 43
0.0000000001
 12
1.0
 22
0.0
 32
0.0
 13
1.0
 23
0.0
 33
0.0
 40
0.0
 40
0.0
 40
0.0
 40
0.0
 40
0.1111111111111111
 40
0.1111111111111111
 40
0.1111111111111111
 40
0.1111111111111111
 40
0.2222222222222222
 40
0.2222222222222222
 40
0.2222222222222222
 40
0.2222222222222222
 40
0.3333333333333333
 40
0.3333333333333333
 40
0.3333333333333333
 40
0.3333333333333333
 40
0.4444444444444444
 40
0.4444444444444444
 40
0.4444444444444444
 40
0.4444444444444444
 40
0.5555555555555556
 40
0.5555555555555556
 40
0.5555555555555556
 40
0.5555555555555556
 40
0.6666666666666666
 40
0.6666666666666666
 40
0.6666666666666666
 40
0.6666666666666666
 40
0.7777777777777778
 40
0.7777777777777778
 40
0.7777777777777778
 40
0.7777777777777778
 40
1.0
 40
1.0
 40
1.0
 40
1.0
 10
-164.8015
 20
120.6696
 30
0.0
 10
-164.8015
 20
120.6696
 30
0.0
 10
-161.7771
 20
117.6453
 30
0.0
 10
-161.7771
 20
117.6453
 30
0.0
 10
-161.7771
 20
117.6453
 30
0.0
 10
-161.112
 20
116.9802
 30
0.0
 10
-161.112
 20
115.9016
 30
0.0
 10
-161.7771
 20
115.2365
 30
0.0
 10
-161.7771
 20
115.2365
 30
0.0
 10
-161.7771
 20
115.2365
 30
0.0
 10
-164.8015
 20
112.2122
 30
0.0
 10
-164.8015
 20
112.2122
 30
0.0
 10
-164.8015
 20
112.2122
 30
0.0
 10
-165.4665
 20
111.547
 30
0.0
 10
-166.5452
 20
111.547
 30
0.0
 10
-167.2102
 20
112.2121
 30
0.0
 10
-167.2102
 20
112.2121
 30
0.0
 10
-167.2102
 20
112.2121
 30
0.0
 10
-170.2347
 20
115.2366
 30
0.0
 10
-170.2347
 20
115.2366
 30
0.0
 10
-170.2347
 20
115.2366
 30
0.0
 10
-170.8996
 20
115.9015
 30
0.0
 10
-170.8996
 20
116.9801
 30
0.0
 10
-170.2346
 20
117.6452
 30
0.0
 10
-170.2346
 20
117.6452
 30
0.0
 10
-170.2346
 20
117.6452
 30
0.0
 10
-167.2103
 20
120.6696
 30
0.0
 10
-167.2103
 20
120.6696
 30
0.0
 10
-167.2103
 20
120.6696
 30
0.0
 10
-166.5451
 20
121.3347
 30
0.0
 10
-165.4664
 20
121.3347
 30
0.0
 10
-164.8014
 20
120.6696
 30
0.0
  0
SPLINE
  5
47
330
1F
100
AcDbEntity
  8
layer 1
 62
     7
100
AcDbSpline
210
0.0
220
0.0
230
1.0
 70
    11
 71
     3
 72
    36
 73
    32
 74
     0
 42
0.0000000001
 43
0.0000000001
 12
1.0
 22
0.0
 32
0.0
 13
1.0
 23
0.0
 33
0.0
 40
0.0
 40
0.0
 40
0.0
 40
0.0
 40
0.1111111111111111
 40
0.1111111111111111
 40
0.1111111111111111
 40
0.1111111111111111
 40
0.2222222222222222
 40
0.2222222222222222
 40
0.2222222222222222
 40
0.2222222222222222
 40
0.3333333333333333
 40
0.3333333333333333
 40
0.3333333333333333
 40
0.3333333333333333
 40
0.4444444444444444
 40
0.4444444444444444
 40
0.4444444444444444
 40
0.4444444444444444
 40
0.5555555555555556
 40
0.5555555555555556
 40
0.5555555555555556
 40
0.5555555555555556
 40
0.6666666666666666
 40
0.6666666666666666
 40
0.6666666666666666
 40
0.6666666666666666
 40
0.7777777777777778
 40
0.7777777777777778
 40
0.7777777777777778
 40
0.7777777777777778
 40
1.0
 40
1.0
 40
1.0
 40
1.0
 10
-164.8015
 20
105.0751
 30
0.0
 10
-164.8015
 20
105.0751
 30
0.0
 10
-161.7771
 20
102.0508
 30
0.0
 10
-161.7771
 20
102.0508
 30
0.0
 10
-161.7771
 20
102.0508
 30
0.0
 10
-161.112
 20
101.3856
 30
0.0
 10
-161.112
 20
100.3069
 30
0.0
 10
-161.7771
 20
99.6419
 30
0.0
 10
-161.7771
 20
99.6419
 30
0.0
 10
-161.7771
 20
99.6419
 30
0.0
 10
-164.8015
 20
96.6176
 30
0.0
 10
-164.8015
 20
96.6176
 30
0.0
 10
-164.8015
 20
96.6176
 30
0.0
 10
-165.4664
 20
95.9525
 30
0.0
 10
-166.5451
 20
95.9525
 30
0.0
 10
-167.2101
 20
96.6175
 30
0.0
 10
-167.2101
 20
96.6175
 30
0.0
 10
-167.2101
 20
96.6175
 30
0.0
 10
-170.2347
 20
99.642
 30
0.0
 10
-170.2347
 20
99.642
 30
0.0
 10
-170.2347
 20
99.642
 30
0.0
 10
-170.8996
 20
100.307
 30
0.0
 10
-170.8996
 20
101.3856
 30
0.0
 10
-170.2346
 20
102.0507
 30
0.0
 10
-170.2346
 20
102.0507
 30
0.0
 10
-170.2346
 20
102.0507
 30
0.0
 10
-167.2103
 20
105.0751
 30
0.0
 10
-167.2103
 20
105.0751
 30
0.0
 10
-167.2103
 20
105.0751
 30
0.0
 10
-166.5452
 20
105.7401
 30
0.0
 10
-165.4665
 20
105.7401
 30
0.0
 10
-164.8015
 20
105.0751
 30
0.0
  0
SPLINE
  5
48
330
1F
100
AcDbEntity
  8
layer 1
 62
     7
100
AcDbSpline
210
0.0
220
0.0
230
1.0
 70
     8
 71
     3
 72
    36
 73
    32
 74
     0
 42
0.0000000001
 43
0.0000000001
 12
1.0
 22
0.0
 32
0.0
 13
1.0
 23
0.0
 33
0.0
 40
0.0
 40
0.0
 40
0.0
 40
0.0
 40
0.1111111111111111
 40
0.1111111111111111
 40
0.1111111111111111
 40
0.1111111111111111
 40
0.2222222222222222
 40
0.2222222222222222
 40
0.2222222222222222
 40
0.2222222222222222
 40
0.3333333333333333
 40
0.3333333333333333
 40
0.3333333333333333
 40
0.3333333333333333
 40
0.4444444444444444
 40
0.4444444444444444
 40
0.4444444444444444
 40
0.4444444444444444
 40
0.5555555555555556
 40
0.5555555555555556
 40
0.5555555555555556
 40
0.5555555555555556
 40
0.6666666666666666
 40
0.6666666666666666
 40
0.6666666666666666
 40
0.6666666666666666
 40
0.7777777777777778
 40
0.7777777777777778
 40
0.7777777777777778
 40
0.7777777777777778
 40
1.0
 40
1.0
 40
1.0
 40
1.0
 10
-172.3721
 20
112.8724
 30
0.0
 10
-172.3721
 20
112.8724
 30
0.0
 10
-169.3477
 20
109.848
 30
0.0
 10
-169.3477
 20
109.848
 30
0.0
 10
-169.3477
 20
109.848
 30
0.0
 10
-168.6826
 20
109.1828
 30
0.0
 10
-168.6826
 20
108.1043
 30
0.0
 10
-169.3476
 20
107.4392
 30
0.0
 10
-169.3476
 20
107.4392
 30
0.0
 10
-169.3476
 20
107.4392
 30
0.0
 10
-172.3721
 20
104.4149
 30
0.0
 10
-172.3721
 20
104.4149
 30
0.0
 10
-172.3721
 20
104.4149
 30
0.0
 10
-173.0371
 20
103.7498
 30
0.0
 10
-174.1158
 20
103.7498
 30
0.0
 10
-174.7808
 20
104.4148
 30
0.0
 10
-174.7808
 20
104.4148
 30
0.0
 10
-174.7808
 20
104.4148
 30
0.0
 10
-177.8052
 20
107.4393
 30
0.0
 10
-177.8052
 20
107.4393
 30
0.0
 10
-177.8052
 20
107.4393
 30
0.0
 10
-178.4702
 20
108.1042
 30
0.0
 10
-178.4702
 20
109.1828
 30
0.0
 10
-177.8052
 20
109.8479
 30
0.0
 10
-177.8052
 20
109.8479
 30
0.0
 10
-177.8052
 20
109.8479
 30
0.0
 10
-174.7809
 20
112.8724
 30
0.0
 10
-174.7809
 20
112.8724
 30
0.0
 10
-174.7809
 20
112.8724
 30
0.0
 10
-174.1157
 20
113.5373
 30
0.0
 10
-173.037
 20
113.5373
 30
0.0
 10
-172.372
 20
112.8723
 30
0.0
  0
SPLINE
  5
49
330
1F
100
AcDbEntity
  8
layer 1
 62
     7
100
AcDbSpline
210
0.0
220
0.0
230
1.0
 70
     8
 71
     3
 72
    36
 73
    32
 74
     0
 42
0.0000000001
 43
0.0000000001
 12
1.0
 22
0.0
 32
0.0
 13
1.0
 23
0.0
 33
0.0
 40
0.0
 40
0.0
 40
0.0
 40
0.0
 40
0.1111111111111111
 40
0.1111111111111111
 40
0.1111111111111111
 40
0.1111111111111111
 40
0.2222222222222222
 40
0.2222222222222222
 40
0.2222222222222222
 40
0.2222222222222222
 40
0.3333333333333333
 40
0.3333333333333333
 40
0.3333333333333333
 40
0.3333333333333333
 40
0.4444444444444444
 40
0.4444444444444444
 40
0.4444444444444444
 40
0.4444444444444444
 40
0.5555555555555556
 40
0.5555555555555556
 40
0.5555555555555556
 40
0.5555555555555556
 40
0.6666666666666666
 40
0.6666666666666666
 40
0.6666666666666666
 40
0.6666666666666666
 40
0.7777777777777778
 40
0.7777777777777778
 40
0.7777777777777778
 40
0.7777777777777778
 40
1.0
 40
1.0
 40
1.0
 40
1.0
 10
-157.1856
 20
112.8724
 30
0.0
 10
-157.1856
 20
112.8724
 30
0.0
 10
-154.1612
 20
109.848
 30
0.0
 10
-154.1612
 20
109.848
 30
0.0
 10
-154.1612
 20
109.848
 30
0.0
 10
-153.4961
 20
109.1828
 30
0.0
 10
-153.4961
 20
108.1043
 30
0.0
 10
-154.1612
 20
107.4392
 30
0.0
 10
-154.1612
 20
107.4392
 30
0.0
 10
-154.1612
 20
107.4392
 30
0.0
 10
-157.1856
 20
104.4149
 30
0.0
 10
-157.1856
 20
104.4149
 30
0.0
 10
-157.1856
 20
104.4149
 30
0.0
 10
-157.8506
 20
103.7498
 30
0.0
 10
-158.9291
 20
103.7498
 30
0.0
 10
-159.5943
 20
104.4149
 30
0.0
 10
-159.5943
 20
104.4149
 30
0.0
 10
-159.5943
 20
104.4149
 30
0.0
 10
-162.6187
 20
107.4392
 30
0.0
 10
-162.6187
 20
107.4392
 30
0.0
 10
-162.6187
 20
107.4392
 30
0.0
 10
-163.2836
 20
108.1043
 30
0.0
 10
-163.2836
 20
109.1828
 30
0.0
 10
-162.6185
 20
109.8479
 30
0.0
 10
-162.6185
 20
109.8479
 30
0.0
 10
-162.6185
 20
109.8479
 30
0.0
 10
-159.5943
 20
112.8724
 30
0.0
 10
-159.5943
 20
112.8724
 30
0.0
 10
-159.5943
 20
112.8724
 30
0.0
 10
-158.9291
 20
113.5373
 30
0.0
 10
-157.8506
 20
113.5373
 30
0.0
 10
-157.1854
 20
112.8723
 30
0.0
  0
SPLINE
  5
4A
330
1F
100
AcDbEntity
  8
layer 1
 62
     7
100
AcDbSpline
210
0.0
220
0.0
230
1.0
 70
     8
 71
     3
 72
    36
 73
    32
 74
     0
 42
0.0000000001
 43
0.0000000001
 12
1.0
 22
0.0
 32
0.0
 13
1.0
 23
0.0
 33
0.0
 40
0.0
 40
0.0
 40
0.0
 40
0.0
 40
0.1111111111111111
 40
0.1111111111111111
 40
0.1111111111111111
 40
0.1111111111111111
 40
0.2222222222222222
 40
0.2222222222222222
 40
0.2222222222222222
 40
0.2222222222222222
 40
0.3333333333333333
 40
0.3333333333333333
 40
0.3333333333333333
 40
0.3333333333333333
 40
0.4444444444444444
 40
0.4444444444444444
 40
0.4444444444444444
 40
0.4444444444444444
 40
0.5555555555555556
 40
0.5555555555555556
 40
0.5555555555555556
 40
0.5555555555555556
 40
0.6666666666666666
 40
0.6666666666666666
 40
0.6666666666666666
 40
0.6666666666666666
 40
0.7777777777777778
 40
0.7777777777777778
 40
0.7777777777777778
 40
0.7777777777777778
 40
1.0
 40
1.0
 40
1.0
 40
1.0
 10
-134.145
 20
125.8162
 30
0.0
 10
-134.145
 20
125.8162
 30
0.0
 10
-134.145
 20
118.8126
 30
0.0
 10
-134.145
 20
118.8126
 30
0.0
 10
-134.145
 20
118.8126
 30
0.0
 10
-134.1449
 20
117.8719
 30
0.0
 10
-134.9076
 20
117.1092
 30
0.0
 10
-135.8482
 20
117.1092
 30
0.0
 10
-135.8482
 20
117.1092
 30
0.0
 10
-135.8482
 20
117.1092
 30
0.0
 10
-142.8929
 20
117.1092
 30
0.0
 10
-142.8929
 20
117.1092
 30
0.0
 10
-142.8929
 20
117.1092
 30
0.0
 10
-143.8334
 20
117.1092
 30
0.0
 10
-144.5961
 20
117.8719
 30
0.0
 10
-144.5961
 20
118.8124
 30
0.0
 10
-144.5961
 20
118.8124
 30
0.0
 10
-144.5961
 20
118.8124
 30
0.0
 10
-144.5961
 20
125.8162
 30
0.0
 10
-144.5961
 20
125.8162
 30
0.0
 10
-144.5961
 20
125.8162
 30
0.0
 10
-144.5961
 20
126.7566
 30
0.0
 10
-143.8334
 20
127.5193
 30
0.0
 10
-142.8928
 20
127.5193
 30
0.0
 10
-142.8928
 20
127.5193
 30
0.0
 10
-142.8928
 20
127.5193
 30
0.0
 10
-135.8482
 20
127.5194
 30
0.0
 10
-135.8482
 20
127.5194
 30
0.0
 10
-135.8482
 20
127.5194
 30
0.0
 10
-134.9076
 20
127.5193
 30
0.0
 10
-134.1449
 20
126.7566
 30
0.0
 10
-134.1449
 20
125.816
 30
0.0
  0
SPLINE
  5
4B
330
1F
100
AcDbEntity
  8
layer 1
 62
     7
100
AcDbSpline
210
0.0
220
0.0
230
1.0
 70
     8
 71
     3
 72
    36
 73
    32
 74
     0
 42
0.0000000001
 43
0.0000000001
 12
1.0
 22
0.0
 32
0.0
 13
1.0
 23
0.0
 33
0.0
 40
0.0
 40
0.0
 40
0.0
 40
0.0
 40
0.1111111111111111
 40
0.1111111111111111
 40
0.1111111111111111
 40
0.1111111111111111
 40
0.2222222222222222
 40
0.2222222222222222
 40
0.2222222222222222
 40
0.2222222222222222
 40
0.3333333333333333
 40
0.3333333333333333
 40
0.3333333333333333
 40
0.3333333333333333
 40
0.4444444444444444
 40
0.4444444444444444
 40
0.4444444444444444
 40
0.4444444444444444
 40
0.5555555555555556
 40
0.5555555555555556
 40
0.5555555555555556
 40
0.5555555555555556
 40
0.6666666666666666
 40
0.6666666666666666
 40
0.6666666666666666
 40
0.6666666666666666
 40
0.7777777777777778
 40
0.7777777777777778
 40
0.7777777777777778
 40
0.7777777777777778
 40
1.0
 40
1.0
 40
1.0
 40
1.0
 10
-107.8754
 20
125.8162
 30
0.0
 10
-107.8754
 20
125.8162
 30
0.0
 10
-107.8754
 20
118.8126
 30
0.0
 10
-107.8754
 20
118.8126
 30
0.0
 10
-107.8754
 20
118.8126
 30
0.0
 10
-107.8754
 20
117.8719
 30
0.0
 10
-108.6381
 20
117.1092
 30
0.0
 10
-109.5787
 20
117.1092
 30
0.0
 10
-109.5787
 20
117.1092
 30
0.0
 10
-109.5787
 20
117.1092
 30
0.0
 10
-116.6233
 20
117.1092
 30
0.0
 10
-116.6233
 20
117.1092
 30
0.0
 10
-116.6233
 20
117.1092
 30
0.0
 10
-117.5638
 20
117.1092
 30
0.0
 10
-118.3266
 20
117.8719
 30
0.0
 10
-118.3266
 20
118.8124
 30
0.0
 10
-118.3266
 20
118.8124
 30
0.0
 10
-118.3266
 20
118.8124
 30
0.0
 10
-118.3266
 20
125.8162
 30
0.0
 10
-118.3266
 20
125.8162
 30
0.0
 10
-118.3266
 20
125.8162
 30
0.0
 10
-118.3266
 20
126.7566
 30
0.0
 10
-117.5638
 20
127.5193
 30
0.0
 10
-116.6233
 20
127.5193
 30
0.0
 10
-116.6233
 20
127.5193
 30
0.0
 10
-116.6233
 20
127.5193
 30
0.0
 10
-109.5787
 20
127.5194
 30
0.0
 10
-109.5787
 20
127.5194
 30
0.0
 10
-109.5787
 20
127.5194
 30
0.0
 10
-108.6381
 20
127.5193
 30
0.0
 10
-107.8754
 20
126.7566
 30
0.0
 10
-107.8754
 20
125.816
 30
0.0
  0
SPLINE
  5
4C
330
1F
100
AcDbEntity
  8
layer 1
 62
     7
100
AcDbSpline
210
0.0
220
0.0
230
1.0
 70
    11
 71
     3
 72
    48
 73
    44
 74
     0
 42
0.0000000001
 43
0.0000000001
 12
1.0
 22
0.0
 32
0.0
 13
1.0
 23
0.0
 33
0.0
 40
0.0
 40
0.0
 40
0.0
 40
0.0
 40
0.0833333333333333
 40
0.0833333333333333
 40
0.0833333333333333
 40
0.0833333333333333
 40
0.1666666666666667
 40
0.1666666666666667
 40
0.1666666666666667
 40
0.1666666666666667
 40
0.25
 40
0.25
 40
0.25
 40
0.25
 40
0.3333333333333333
 40
0.3333333333333333
 40
0.3333333333333333
 40
0.3333333333333333
 40
0.4166666666666667
 40
0.4166666666666667
 40
0.4166666666666667
 40
0.4166666666666667
 40
0.5
 40
0.5
 40
0.5
 40
0.5
 40
0.5833333333333334
 40
0.5833333333333334
 40
0.5833333333333334
 40
0.5833333333333334
 40
0.6666666666666666
 40
0.6666666666666666
 40
0.6666666666666666
 40
0.6666666666666666
 40
0.75
 40
0.75
 40
0.75
 40
0.75
 40
0.8333333333333334
 40
0.8333333333333334
 40
0.8333333333333334
 40
0.8333333333333334
 40
1.0
 40
1.0
 40
1.0
 40
1.0
 10
-121.0102
 20
125.8162
 30
0.0
 10
-121.0102
 20
125.8162
 30
0.0
 10
-121.0102
 20
117.6707
 30
0.0
 10
-121.0102
 20
117.6707
 30
0.0
 10
-121.0102
 20
117.6707
 30
0.0
 10
-121.0102
 20
116.8698
 30
0.0
 10
-121.3417
 20
115.8944
 30
0.0
 10
-121.8856
 20
115.3805
 30
0.0
 10
-121.8856
 20
115.3805
 30
0.0
 10
-121.8856
 20
115.3805
 30
0.0
 10
-124.1751
 20
112.5624
 30
0.0
 10
-125.3117
 20
111.8852
 30
0.0
 10
-125.3117
 20
111.8852
 30
0.0
 10
-125.8772
 20
111.3792
 30
0.0
 10
-126.8427
 20
111.4935
 30
0.0
 10
-127.31
 20
111.8852
 30
0.0
 10
-127.31
 20
111.8852
 30
0.0
 10
-128.3767
 20
112.591
 30
0.0
 10
-130.8715
 20
115.3679
 30
0.0
 10
-130.8715
 20
115.3679
 30
0.0
 10
-130.8715
 20
115.3679
 30
0.0
 10
-131.3833
 20
116.0651
 30
0.0
 10
-131.4614
 20
116.7271
 30
0.0
 10
-131.4614
 20
117.6707
 30
0.0
 10
-131.4614
 20
117.6707
 30
0.0
 10
-131.4614
 20
117.6707
 30
0.0
 10
-131.4614
 20
125.8162
 30
0.0
 10
-131.4614
 20
125.8162
 30
0.0
 10
-131.4614
 20
125.8162
 30
0.0
 10
-131.4614
 20
126.7598
 30
0.0
 10
-130.7018
 20
127.5194
 30
0.0
 10
-129.7582
 20
127.5194
 30
0.0
 10
-129.7582
 20
127.5194
 30
0.0
 10
-129.7582
 20
127.5194
 30
0.0
 10
-122.7135
 20
127.5194
 30
0.0
 10
-122.7135
 20
127.5194
 30
0.0
 10
-122.7135
 20
127.5194
 30
0.0
 10
-121.77
 20
127.5194
 30
0.0
 10
-121.0103
 20
126.7598
 30
0.0
 10
-121.0103
 20
125.8162
 30
0.0
 10
-121.0103
 20
125.8162
 30
0.0
 10
-121.0103
 20
125.8162
 30
0.0
 10
-121.0102
 20
125.8162
 30
0.0
 10
-121.0102
 20
125.8162
 30
0.0
  0
SPLINE
  5
4D
330
1F
100
AcDbEntity
  8
layer 1
 62
     7
100
AcDbSpline
210
0.0
220
0.0
230
1.0
 70
     8
 71
     3
 72
    36
 73
    32
 74
     0
 42
0.0000000001
 43
0.0000000001
 12
1.0
 22
0.0
 32
0.0
 13
1.0
 23
0.0
 33
0.0
 40
0.0
 40
0.0
 40
0.0
 40
0.0
 40
0.1111111111111111
 40
0.1111111111111111
 40
0.1111111111111111
 40
0.1111111111111111
 40
0.2222222222222222
 40
0.2222222222222222
 40
0.2222222222222222
 40
0.2222222222222222
 40
0.3333333333333333
 40
0.3333333333333333
 40
0.3333333333333333
 40
0.3333333333333333
 40
0.4444444444444444
 40
0.4444444444444444
 40
0.4444444444444444
 40
0.4444444444444444
 40
0.5555555555555556
 40
0.5555555555555556
 40
0.5555555555555556
 40
0.5555555555555556
 40
0.6666666666666666
 40
0.6666666666666666
 40
0.6666666666666666
 40
0.6666666666666666
 40
0.7777777777777778
 40
0.7777777777777778
 40
0.7777777777777778
 40
0.7777777777777778
 40
1.0
 40
1.0
 40
1.0
 40
1.0
 10
-134.145
 20
91.5136
 30
0.0
 10
-134.145
 20
91.5136
 30
0.0
 10
-134.145
 20
98.5172
 30
0.0
 10
-134.145
 20
98.5172
 30
0.0
 10
-134.145
 20
98.5172
 30
0.0
 10
-134.1449
 20
99.4577
 30
0.0
 10
-134.9076
 20
100.2204
 30
0.0
 10
-135.8482
 20
100.2204
 30
0.0
 10
-135.8482
 20
100.2204
 30
0.0
 10
-135.8482
 20
100.2204
 30
0.0
 10
-142.8929
 20
100.2204
 30
0.0
 10
-142.8929
 20
100.2204
 30
0.0
 10
-142.8929
 20
100.2204
 30
0.0
 10
-143.8334
 20
100.2204
 30
0.0
 10
-144.5961
 20
99.4577
 30
0.0
 10
-144.5961
 20
98.5172
 30
0.0
 10
-144.5961
 20
98.5172
 30
0.0
 10
-144.5961
 20
98.5172
 30
0.0
 10
-144.5961
 20
91.5136
 30
0.0
 10
-144.5961
 20
91.5136
 30
0.0
 10
-144.5961
 20
91.5136
 30
0.0
 10
-144.5961
 20
90.573
 30
0.0
 10
-143.8334
 20
89.8103
 30
0.0
 10
-142.8928
 20
89.8103
 30
0.0
 10
-142.8928
 20
89.8103
 30
0.0
 10
-142.8928
 20
89.8103
 30
0.0
 10
-135.8482
 20
89.8103
 30
0.0
 10
-135.8482
 20
89.8103
 30
0.0
 10
-135.8482
 20
89.8103
 30
0.0
 10
-134.9076
 20
89.8103
 30
0.0
 10
-134.1449
 20
90.573
 30
0.0
 10
-134.1449
 20
91.5136
 30
0.0
  0
SPLINE
  5
4E
330
1F
100
AcDbEntity
  8
layer 1
 62
     7
100
AcDbSpline
210
0.0
220
0.0
230
1.0
 70
    11
 71
     3
 72
    36
 73
    32
 74
     0
 42
0.0000000001
 43
0.0000000001
 12
1.0
 22
0.0
 32
0.0
 13
1.0
 23
0.0
 33
0.0
 40
0.0
 40
0.0
 40
0.0
 40
0.0
 40
0.1111111111111111
 40
0.1111111111111111
 40
0.1111111111111111
 40
0.1111111111111111
 40
0.2222222222222222
 40
0.2222222222222222
 40
0.2222222222222222
 40
0.2222222222222222
 40
0.3333333333333333
 40
0.3333333333333333
 40
0.3333333333333333
 40
0.3333333333333333
 40
0.4444444444444444
 40
0.4444444444444444
 40
0.4444444444444444
 40
0.4444444444444444
 40
0.5555555555555556
 40
0.5555555555555556
 40
0.5555555555555556
 40
0.5555555555555556
 40
0.6666666666666666
 40
0.6666666666666666
 40
0.6666666666666666
 40
0.6666666666666666
 40
0.7777777777777778
 40
0.7777777777777778
 40
0.7777777777777778
 40
0.7777777777777778
 40
1.0
 40
1.0
 40
1.0
 40
1.0
 10
-107.8754
 20
91.5136
 30
0.0
 10
-107.8754
 20
91.5136
 30
0.0
 10
-107.8754
 20
98.5172
 30
0.0
 10
-107.8754
 20
98.5172
 30
0.0
 10
-107.8754
 20
98.5172
 30
0.0
 10
-107.8754
 20
99.4577
 30
0.0
 10
-108.6381
 20
100.2204
 30
0.0
 10
-109.5787
 20
100.2204
 30
0.0
 10
-109.5787
 20
100.2204
 30
0.0
 10
-109.5787
 20
100.2204
 30
0.0
 10
-116.6233
 20
100.2204
 30
0.0
 10
-116.6233
 20
100.2204
 30
0.0
 10
-116.6233
 20
100.2204
 30
0.0
 10
-117.5638
 20
100.2204
 30
0.0
 10
-118.3266
 20
99.4577
 30
0.0
 10
-118.3266
 20
98.5172
 30
0.0
 10
-118.3266
 20
98.5172
 30
0.0
 10
-118.3266
 20
98.5172
 30
0.0
 10
-118.3266
 20
91.5136
 30
0.0
 10
-118.3266
 20
91.5136
 30
0.0
 10
-118.3266
 20
91.5136
 30
0.0
 10
-118.3266
 20
90.573
 30
0.0
 10
-117.5638
 20
89.8103
 30
0.0
 10
-116.6233
 20
89.8103
 30
0.0
 10
-116.6233
 20
89.8103
 30
0.0
 10
-116.6233
 20
89.8103
 30
0.0
 10
-109.5787
 20
89.8103
 30
0.0
 10
-109.5787
 20
89.8103
 30
0.0
 10
-109.5787
 20
89.8103
 30
0.0
 10
-108.6381
 20
89.8103
 30
0.0
 10
-107.8754
 20
90.573
 30
0.0
 10
-107.8754
 20
91.5136
 30
0.0
  0
SPLINE
  5
4F
330
1F
100
AcDbEntity
  8
layer 1
 62
     7
100
AcDbSpline
210
0.0
220
0.0
230
1.0
 70
    11
 71
     3
 72
    48
 73
    44
 74
     0
 42
0.0000000001
 43
0.0000000001
 12
1.0
 22
0.0
 32
0.0
 13
1.0
 23
0.0
 33
0.0
 40
0.0
 40
0.0
 40
0.0
 40
0.0
 40
0.0833333333333333
 40
0.0833333333333333
 40
0.0833333333333333
 40
0.0833333333333333
 40
0.1666666666666667
 40
0.1666666666666667
 40
0.1666666666666667
 40
0.1666666666666667
 40
0.25
 40
0.25
 40
0.25
 40
0.25
 40
0.3333333333333333
 40
0.3333333333333333
 40
0.3333333333333333
 40
0.3333333333333333
 40
0.4166666666666667
 40
0.4166666666666667
 40
0.4166666666666667
 40
0.4166666666666667
 40
0.5
 40
0.5
 40
0.5
 40
0.5
 40
0.5833333333333334
 40
0.5833333333333334
 40
0.5833333333333334
 40
0.5833333333333334
 40
0.6666666666666666
 40
0.6666666666666666
 40
0.6666666666666666
 40
0.6666666666666666
 40
0.75
 40
0.75
 40
0.75
 40
0.75
 40
0.8333333333333334
 40
0.8333333333333334
 40
0.8333333333333334
 40
0.8333333333333334
 40
1.0
 40
1.0
 40
1.0
 40
1.0
 10
-121.0102
 20
91.5136
 30
0.0
 10
-121.0102
 20
91.5136
 30
0.0
 10
-121.0102
 20
99.6591
 30
0.0
 10
-121.0102
 20
99.6591
 30
0.0
 10
-121.0102
 20
99.6591
 30
0.0
 10
-121.0102
 20
100.4599
 30
0.0
 10
-121.3417
 20
101.4354
 30
0.0
 10
-121.8856
 20
101.9492
 30
0.0
 10
-121.8856
 20
101.9492
 30
0.0
 10
-121.8856
 20
101.9492
 30
0.0
 10
-124.1751
 20
104.7673
 30
0.0
 10
-125.3117
 20
105.4445
 30
0.0
 10
-125.3117
 20
105.4445
 30
0.0
 10
-125.8772
 20
105.9506
 30
0.0
 10
-126.8427
 20
105.8363
 30
0.0
 10
-127.31
 20
105.4445
 30
0.0
 10
-127.31
 20
105.4445
 30
0.0
 10
-128.3767
 20
104.7388
 30
0.0
 10
-130.8715
 20
101.9618
 30
0.0
 10
-130.8715
 20
101.9618
 30
0.0
 10
-130.8715
 20
101.9618
 30
0.0
 10
-131.3833
 20
101.2646
 30
0.0
 10
-131.4614
 20
100.6027
 30
0.0
 10
-131.4614
 20
99.6591
 30
0.0
 10
-131.4614
 20
99.6591
 30
0.0
 10
-131.4614
 20
99.6591
 30
0.0
 10
-131.4614
 20
91.5136
 30
0.0
 10
-131.4614
 20
91.5136
 30
0.0
 10
-131.4614
 20
91.5136
 30
0.0
 10
-131.4614
 20
90.57
 30
0.0
 10
-130.7018
 20
89.8103
 30
0.0
 10
-129.7582
 20
89.8103
 30
0.0
 10
-129.7582
 20
89.8103
 30
0.0
 10
-129.7582
 20
89.8103
 30
0.0
 10
-122.7135
 20
89.8103
 30
0.0
 10
-122.7135
 20
89.8103
 30
0.0
 10
-122.7135
 20
89.8103
 30
0.0
 10
-121.77
 20
89.8103
 30
0.0
 10
-121.0103
 20
90.57
 30
0.0
 10
-121.0103
 20
91.5136
 30
0.0
 10
-121.0103
 20
91.5136
 30
0.0
 10
-121.0103
 20
91.5136
 30
0.0
 10
-121.0102
 20
91.5136
 30
0.0
 10
-121.0102
 20
91.5136
 30
0.0
  0
SPLINE
  5
50
330
1F
100
AcDbEntity
  8
layer 1
 62
     7
100
AcDbSpline
210
0.0
220
0.0
230
1.0
 70
    11
 71
     3
 72
    48
 73
    44
 74
     0
 42
0.0000000001
 43
0.0000000001
 12
1.0
 22
0.0
 32
0.0
 13
1.0
 23
0.0
 33
0.0
 40
0.0
 40
0.0
 40
0.0
 40
0.0
 40
0.0833333333333333
 40
0.0833333333333333
 40
0.0833333333333333
 40
0.0833333333333333
 40
0.1666666666666667
 40
0.1666666666666667
 40
0.1666666666666667
 40
0.1666666666666667
 40
0.25
 40
0.25
 40
0.25
 40
0.25
 40
0.3333333333333333
 40
0.3333333333333333
 40
0.3333333333333333
 40
0.3333333333333333
 40
0.4166666666666667
 40
0.4166666666666667
 40
0.4166666666666667
 40
0.4166666666666667
 40
0.5
 40
0.5
 40
0.5
 40
0.5
 40
0.5833333333333334
 40
0.5833333333333334
 40
0.5833333333333334
 40
0.5833333333333334
 40
0.6666666666666666
 40
0.6666666666666666
 40
0.6666666666666666
 40
0.6666666666666666
 40
0.75
 40
0.75
 40
0.75
 40
0.75
 40
0.8333333333333334
 40
0.8333333333333334
 40
0.8333333333333334
 40
0.8333333333333334
 40
1.0
 40
1.0
 40
1.0
 40
1.0
 10
-142.8929
 20
103.4598
 30
0.0
 10
-142.8929
 20
103.4598
 30
0.0
 10
-134.7474
 20
103.4598
 30
0.0
 10
-134.7474
 20
103.4598
 30
0.0
 10
-134.7474
 20
103.4598
 30
0.0
 10
-133.9465
 20
103.4598
 30
0.0
 10
-132.9711
 20
103.7913
 30
0.0
 10
-132.4572
 20
104.3352
 30
0.0
 10
-132.4572
 20
104.3352
 30
0.0
 10
-132.4572
 20
104.3352
 30
0.0
 10
-129.6391
 20
106.6247
 30
0.0
 10
-128.9619
 20
107.7613
 30
0.0
 10
-128.9619
 20
107.7613
 30
0.0
 10
-128.4559
 20
108.3268
 30
0.0
 10
-128.5702
 20
109.2923
 30
0.0
 10
-128.9619
 20
109.7596
 30
0.0
 10
-128.9619
 20
109.7596
 30
0.0
 10
-129.6677
 20
110.8263
 30
0.0
 10
-132.4446
 20
113.3211
 30
0.0
 10
-132.4446
 20
113.3211
 30
0.0
 10
-132.4446
 20
113.3211
 30
0.0
 10
-133.1418
 20
113.8329
 30
0.0
 10
-133.8038
 20
113.911
 30
0.0
 10
-134.7474
 20
113.911
 30
0.0
 10
-134.7474
 20
113.911
 30
0.0
 10
-134.7474
 20
113.911
 30
0.0
 10
-142.8929
 20
113.911
 30
0.0
 10
-142.8929
 20
113.911
 30
0.0
 10
-142.8929
 20
113.911
 30
0.0
 10
-143.8365
 20
113.911
 30
0.0
 10
-144.5961
 20
113.1513
 30
0.0
 10
-144.5961
 20
112.2078
 30
0.0
 10
-144.5961
 20
112.2078
 30
0.0
 10
-144.5961
 20
112.2078
 30
0.0
 10
-144.5961
 20
105.1631
 30
0.0
 10
-144.5961
 20
105.1631
 30
0.0
 10
-144.5961
 20
105.1631
 30
0.0
 10
-144.5961
 20
104.2195
 30
0.0
 10
-143.8365
 20
103.4599
 30
0.0
 10
-142.8929
 20
103.4599
 30
0.0
 10
-142.8929
 20
103.4599
 30
0.0
 10
-142.8929
 20
103.4599
 30
0.0
 10
-142.8929
 20
103.4598
 30
0.0
 10
-142.8929
 20
103.4598
 30
0.0
  0
SPLINE
  5
51
330
1F
100
AcDbEntity
  8
layer 1
 62
     7
100
AcDbSpline
210
0.0
220
0.0
230
1.0
 70
    11
 71
     3
 72
    48
 73
    44
 74
     0
 42
0.0000000001
 43
0.0000000001
 12
1.0
 22
0.0
 32
0.0
 13
1.0
 23
0.0
 33
0.0
 40
0.0
 40
0.0
 40
0.0
 40
0.0
 40
0.0833333333333333
 40
0.0833333333333333
 40
0.0833333333333333
 40
0.0833333333333333
 40
0.1666666666666667
 40
0.1666666666666667
 40
0.1666666666666667
 40
0.1666666666666667
 40
0.25
 40
0.25
 40
0.25
 40
0.25
 40
0.3333333333333333
 40
0.3333333333333333
 40
0.3333333333333333
 40
0.3333333333333333
 40
0.4166666666666667
 40
0.4166666666666667
 40
0.4166666666666667
 40
0.4166666666666667
 40
0.5
 40
0.5
 40
0.5
 40
0.5
 40
0.5833333333333334
 40
0.5833333333333334
 40
0.5833333333333334
 40
0.5833333333333334
 40
0.6666666666666666
 40
0.6666666666666666
 40
0.6666666666666666
 40
0.6666666666666666
 40
0.75
 40
0.75
 40
0.75
 40
0.75
 40
0.8333333333333334
 40
0.8333333333333334
 40
0.8333333333333334
 40
0.8333333333333334
 40
1.0
 40
1.0
 40
1.0
 40
1.0
 10
-109.6167
 20
103.4598
 30
0.0
 10
-109.6167
 20
103.4598
 30
0.0
 10
-117.7622
 20
103.4598
 30
0.0
 10
-117.7622
 20
103.4598
 30
0.0
 10
-117.7622
 20
103.4598
 30
0.0
 10
-118.5631
 20
103.4598
 30
0.0
 10
-119.5386
 20
103.7913
 30
0.0
 10
-120.0524
 20
104.3352
 30
0.0
 10
-120.0524
 20
104.3352
 30
0.0
 10
-120.0524
 20
104.3352
 30
0.0
 10
-122.8705
 20
106.6247
 30
0.0
 10
-123.5477
 20
107.7613
 30
0.0
 10
-123.5477
 20
107.7613
 30
0.0
 10
-124.0537
 20
108.3268
 30
0.0
 10
-123.9394
 20
109.2923
 30
0.0
 10
-123.5477
 20
109.7596
 30
0.0
 10
-123.5477
 20
109.7596
 30
0.0
 10
-122.842
 20
110.8263
 30
0.0
 10
-120.065
 20
113.3211
 30
0.0
 10
-120.065
 20
113.3211
 30
0.0
 10
-120.065
 20
113.3211
 30
0.0
 10
-119.3678
 20
113.8329
 30
0.0
 10
-118.7058
 20
113.911
 30
0.0
 10
-117.7622
 20
113.911
 30
0.0
 10
-117.7622
 20
113.911
 30
0.0
 10
-117.7622
 20
113.911
 30
0.0
 10
-109.6167
 20
113.911
 30
0.0
 10
-109.6167
 20
113.911
 30
0.0
 10
-109.6167
 20
113.911
 30
0.0
 10
-108.6731
 20
113.911
 30
0.0
 10
-107.9135
 20
113.1513
 30
0.0
 10
-107.9135
 20
112.2078
 30
0.0
 10
-107.9135
 20
112.2078
 30
0.0
 10
-107.9135
 20
112.2078
 30
0.0
 10
-107.9135
 20
105.1631
 30
0.0
 10
-107.9135
 20
105.1631
 30
0.0
 10
-107.9135
 20
105.1631
 30
0.0
 10
-107.9135
 20
104.2195
 30
0.0
 10
-108.6731
 20
103.4599
 30
0.0
 10
-109.6167
 20
103.4599
 30
0.0
 10
-109.6167
 20
103.4599
 30
0.0
 10
-109.6167
 20
103.4599
 30
0.0
 10
-109.6167
 20
103.4598
 30
0.0
 10
-109.6167
 20
103.4598
 30
0.0
  0
SPLINE
  5
52
330
1F
100
AcDbEntity
  8
layer 1
 62
     7
100
AcDbSpline
210
0.0
220
0.0
230
1.0
 70
    11
 71
     3
 72
    32
 73
    28
 74
     0
 42
0.0000000001
 43
0.0000000001
 12
1.0
 22
0.0
 32
0.0
 13
1.0
 23
0.0
 33
0.0
 40
0.0
 40
0.0
 40
0.0
 40
0.0
 40
0.125
 40
0.125
 40
0.125
 40
0.125
 40
0.25
 40
0.25
 40
0.25
 40
0.25
 40
0.375
 40
0.375
 40
0.375
 40
0.375
 40
0.5
 40
0.5
 40
0.5
 40
0.5
 40
0.625
 40
0.625
 40
0.625
 40
0.625
 40
0.75
 40
0.75
 40
0.75
 40
0.75
 40
1.0
 40
1.0
 40
1.0
 40
1.0
 10
-89.3798
 20
127.4098
 30
0.0
 10
-89.3798
 20
127.4098
 30
0.0
 10
-102.8008
 20
127.4792
 30
0.0
 10
-102.8008
 20
127.4792
 30
0.0
 10
-102.8008
 20
127.4792
 30
0.0
 10
-103.9595
 20
127.4239
 30
0.0
 10
-104.8756
 20
126.8147
 30
0.0
 10
-104.7711
 20
125.5641
 30
0.0
 10
-104.7711
 20
125.5641
 30
0.0
 10
-104.7711
 20
125.5641
 30
0.0
 10
-104.7341
 20
111.4589
 30
0.0
 10
-104.7341
 20
111.4589
 30
0.0
 10
-104.7341
 20
111.4589
 30
0.0
 10
-104.7086
 20
109.9464
 30
0.0
 10
-102.9537
 20
109.7269
 30
0.0
 10
-102.0296
 20
110.466
 30
0.0
 10
-102.0296
 20
110.466
 30
0.0
 10
-102.0296
 20
110.466
 30
0.0
 10
-88.5193
 20
124.418
 30
0.0
 10
-88.5193
 20
124.418
 30
0.0
 10
-88.5193
 20
124.418
 30
0.0
 10
-87.6475
 20
125.2959
 30
0.0
 10
-87.735
 20
127.2163
 30
0.0
 10
-89.3797
 20
127.4098
 30
0.0
 10
-89.3797
 20
127.4098
 30
0.0
 10
-89.3797
 20
127.4098
 30
0.0
 10
-89.3798
 20
127.4098
 30
0.0
 10
-89.3798
 20
127.4098
 30
0.0
  0
SPLINE
  5
53
330
1F
100
AcDbEntity
  8
layer 1
 62
     7
100
AcDbSpline
210
0.0
220
0.0
230
1.0
 70
    11
 71
     3
 72
    28
 73
    24
 74
     0
 42
0.0000000001
 43
0.0000000001
 12
1.0
 22
0.0
 32
0.0
 13
1.0
 23
0.0
 33
0.0
 40
0.0
 40
0.0
 40
0.0
 40
0.0
 40
0.1428571428571428
 40
0.1428571428571428
 40
0.1428571428571428
 40
0.1428571428571428
 40
0.2857142857142857
 40
0.2857142857142857
 40
0.2857142857142857
 40
0.2857142857142857
 40
0.4285714285714285
 40
0.4285714285714285
 40
0.4285714285714285
 40
0.4285714285714285
 40
0.5714285714285714
 40
0.5714285714285714
 40
0.5714285714285714
 40
0.5714285714285714
 40
0.7142857142857143
 40
0.7142857142857143
 40
0.7142857142857143
 40
0.7142857142857143
 40
1.0
 40
1.0
 40
1.0
 40
1.0
 10
-83.4972
 20
127.4098
 30
0.0
 10
-83.4972
 20
127.4098
 30
0.0
 10
-70.0761
 20
127.4792
 30
0.0
 10
-70.0761
 20
127.4792
 30
0.0
 10
-70.0761
 20
127.4792
 30
0.0
 10
-68.9174
 20
127.4239
 30
0.0
 10
-68.0013
 20
126.8147
 30
0.0
 10
-68.1057
 20
125.5641
 30
0.0
 10
-68.1057
 20
125.5641
 30
0.0
 10
-68.1057
 20
125.5641
 30
0.0
 10
-68.1428
 20
111.4589
 30
0.0
 10
-68.1428
 20
111.4589
 30
0.0
 10
-68.1428
 20
111.4589
 30
0.0
 10
-68.1683
 20
109.9464
 30
0.0
 10
-69.9232
 20
109.7269
 30
0.0
 10
-70.8473
 20
110.466
 30
0.0
 10
-70.8473
 20
110.466
 30
0.0
 10
-70.8473
 20
110.466
 30
0.0
 10
-84.3575
 20
124.418
 30
0.0
 10
-84.3575
 20
124.418
 30
0.0
 10
-84.3575
 20
124.418
 30
0.0
 10
-85.2293
 20
125.2959
 30
0.0
 10
-85.1419
 20
127.2163
 30
0.0
 10
-83.4972
 20
127.4098
 30
0.0
  0
SPLINE
  5
54
330
1F
100
AcDbEntity
  8
layer 1
 62
     7
100
AcDbSpline
210
0.0
220
0.0
230
1.0
 70
    11
 71
     3
 72
    32
 73
    28
 74
     0
 42
0.0000000001
 43
0.0000000001
 12
1.0
 22
0.0
 32
0.0
 13
1.0
 23
0.0
 33
0.0
 40
0.0
 40
0.0
 40
0.0
 40
0.0
 40
0.125
 40
0.125
 40
0.125
 40
0.125
 40
0.25
 40
0.25
 40
0.25
 40
0.25
 40
0.375
 40
0.375
 40
0.375
 40
0.375
 40
0.5
 40
0.5
 40
0.5
 40
0.5
 40
0.625
 40
0.625
 40
0.625
 40
0.625
 40
0.75
 40
0.75
 40
0.75
 40
0.75
 40
1.0
 40
1.0
 40
1.0
 40
1.0
 10
-89.3798
 20
89.8617
 30
0.0
 10
-89.3798
 20
89.8617
 30
0.0
 10
-102.8008
 20
89.7923
 30
0.0
 10
-102.8008
 20
89.7923
 30
0.0
 10
-102.8008
 20
89.7923
 30
0.0
 10
-103.9595
 20
89.8476
 30
0.0
 10
-104.8756
 20
90.4569
 30
0.0
 10
-104.7711
 20
91.7074
 30
0.0
 10
-104.7711
 20
91.7074
 30
0.0
 10
-104.7711
 20
91.7074
 30
0.0
 10
-104.7341
 20
105.8126
 30
0.0
 10
-104.7341
 20
105.8126
 30
0.0
 10
-104.7341
 20
105.8126
 30
0.0
 10
-104.7086
 20
107.3252
 30
0.0
 10
-102.9537
 20
107.5446
 30
0.0
 10
-102.0296
 20
106.8056
 30
0.0
 10
-102.0296
 20
106.8056
 30
0.0
 10
-102.0296
 20
106.8056
 30
0.0
 10
-88.5193
 20
92.8536
 30
0.0
 10
-88.5193
 20
92.8536
 30
0.0
 10
-88.5193
 20
92.8536
 30
0.0
 10
-87.6475
 20
91.9757
 30
0.0
 10
-87.735
 20
90.0552
 30
0.0
 10
-89.3797
 20
89.8617
 30
0.0
 10
-89.3797
 20
89.8617
 30
0.0
 10
-89.3797
 20
89.8617
 30
0.0
 10
-89.3798
 20
89.8617
 30
0.0
 10
-89.3798
 20
89.8617
 30
0.0
  0
SPLINE
  5
55
330
1F
100
AcDbEntity
  8
layer 1
 62
     7
100
AcDbSpline
210
0.0
220
0.0
230
1.0
 70
    11
 71
     3
 72
    32
 73
    28
 74
     0
 42
0.0000000001
 43
0.0000000001
 12
1.0
 22
0.0
 32
0.0
 13
1.0
 23
0.0
 33
0.0
 40
0.0
 40
0.0
 40
0.0
 40
0.0
 40
0.125
 40
0.125
 40
0.125
 40
0.125
 40
0.25
 40
0.25
 40
0.25
 40
0.25
 40
0.375
 40
0.375
 40
0.375
 40
0.375
 40
0.5
 40
0.5
 40
0.5
 40
0.5
 40
0.625
 40
0.625
 40
0.625
 40
0.625
 40
0.75
 40
0.75
 40
0.75
 40
0.75
 40
1.0
 40
1.0
 40
1.0
 40
1.0
 10
-83.4972
 20
89.8617
 30
0.0
 10
-83.4972
 20
89.8617
 30
0.0
 10
-70.0761
 20
89.7922
 30
0.0
 10
-70.0761
 20
89.7922
 30
0.0
 10
-70.0761
 20
89.7922
 30
0.0
 10
-68.9174
 20
89.8476
 30
0.0
 10
-68.0013
 20
90.4568
 30
0.0
 10
-68.1057
 20
91.7073
 30
0.0
 10
-68.1057
 20
91.7073
 30
0.0
 10
-68.1057
 20
91.7073
 30
0.0
 10
-68.1428
 20
105.8125
 30
0.0
 10
-68.1428
 20
105.8125
 30
0.0
 10
-68.1428
 20
105.8125
 30
0.0
 10
-68.1683
 20
107.3251
 30
0.0
 10
-69.9232
 20
107.5445
 30
0.0
 10
-70.8473
 20
106.8055
 30
0.0
 10
-70.8473
 20
106.8055
 30
0.0
 10
-70.8473
 20
106.8055
 30
0.0
 10
-84.3575
 20
92.8535
 30
0.0
 10
-84.3575
 20
92.8535
 30
0.0
 10
-84.3575
 20
92.8535
 30
0.0
 10
-85.2293
 20
91.9756
 30
0.0
 10
-85.1419
 20
90.0552
 30
0.0
 10
-83.4972
 20
89.8616
 30
0.0
 10
-83.4972
 20
89.8616
 30
0.0
 10
-83.4972
 20
89.8616
 30
0.0
 10
-83.4972
 20
89.8617
 30
0.0
 10
-83.4972
 20
89.8617
 30
0.0
  0
SPLINE
  5
56
330
1F
100
AcDbEntity
  8
layer 1
 62
     7
100
AcDbSpline
210
0.0
220
0.0
230
1.0
 70
    11
 71
     3
 72
    36
 73
    32
 74
     0
 42
0.0000000001
 43
0.0000000001
 12
1.0
 22
0.0
 32
0.0
 13
1.0
 23
0.0
 33
0.0
 40
0.0
 40
0.0
 40
0.0
 40
0.0
 40
0.1111111111111111
 40
0.1111111111111111
 40
0.1111111111111111
 40
0.1111111111111111
 40
0.2222222222222222
 40
0.2222222222222222
 40
0.2222222222222222
 40
0.2222222222222222
 40
0.3333333333333333
 40
0.3333333333333333
 40
0.3333333333333333
 40
0.3333333333333333
 40
0.4444444444444444
 40
0.4444444444444444
 40
0.4444444444444444
 40
0.4444444444444444
 40
0.5555555555555556
 40
0.5555555555555556
 40
0.5555555555555556
 40
0.5555555555555556
 40
0.6666666666666666
 40
0.6666666666666666
 40
0.6666666666666666
 40
0.6666666666666666
 40
0.7777777777777778
 40
0.7777777777777778
 40
0.7777777777777778
 40
0.7777777777777778
 40
1.0
 40
1.0
 40
1.0
 40
1.0
 10
-85.246
 20
120.6696
 30
0.0
 10
-85.246
 20
120.6696
 30
0.0
 10
-82.2216
 20
117.6453
 30
0.0
 10
-82.2216
 20
117.6453
 30
0.0
 10
-82.2216
 20
117.6453
 30
0.0
 10
-81.5566
 20
116.9802
 30
0.0
 10
-81.5566
 20
115.9016
 30
0.0
 10
-82.2216
 20
115.2365
 30
0.0
 10
-82.2216
 20
115.2365
 30
0.0
 10
-82.2216
 20
115.2365
 30
0.0
 10
-85.246
 20
112.2122
 30
0.0
 10
-85.246
 20
112.2122
 30
0.0
 10
-85.246
 20
112.2122
 30
0.0
 10
-85.9111
 20
111.547
 30
0.0
 10
-86.9897
 20
111.547
 30
0.0
 10
-87.6548
 20
112.2121
 30
0.0
 10
-87.6548
 20
112.2121
 30
0.0
 10
-87.6548
 20
112.2121
 30
0.0
 10
-90.6791
 20
115.2366
 30
0.0
 10
-90.6791
 20
115.2366
 30
0.0
 10
-90.6791
 20
115.2366
 30
0.0
 10
-91.3442
 20
115.9015
 30
0.0
 10
-91.3442
 20
116.9801
 30
0.0
 10
-90.6791
 20
117.6452
 30
0.0
 10
-90.6791
 20
117.6452
 30
0.0
 10
-90.6791
 20
117.6452
 30
0.0
 10
-87.6548
 20
120.6696
 30
0.0
 10
-87.6548
 20
120.6696
 30
0.0
 10
-87.6548
 20
120.6696
 30
0.0
 10
-86.9897
 20
121.3347
 30
0.0
 10
-85.911
 20
121.3347
 30
0.0
 10
-85.246
 20
120.6696
 30
0.0
  0
SPLINE
  5
57
330
1F
100
AcDbEntity
  8
layer 1
 62
     7
100
AcDbSpline
210
0.0
220
0.0
230
1.0
 70
    11
 71
     3
 72
    36
 73
    32
 74
     0
 42
0.0000000001
 43
0.0000000001
 12
1.0
 22
0.0
 32
0.0
 13
1.0
 23
0.0
 33
0.0
 40
0.0
 40
0.0
 40
0.0
 40
0.0
 40
0.1111111111111111
 40
0.1111111111111111
 40
0.1111111111111111
 40
0.1111111111111111
 40
0.2222222222222222
 40
0.2222222222222222
 40
0.2222222222222222
 40
0.2222222222222222
 40
0.3333333333333333
 40
0.3333333333333333
 40
0.3333333333333333
 40
0.3333333333333333
 40
0.4444444444444444
 40
0.4444444444444444
 40
0.4444444444444444
 40
0.4444444444444444
 40
0.5555555555555556
 40
0.5555555555555556
 40
0.5555555555555556
 40
0.5555555555555556
 40
0.6666666666666666
 40
0.6666666666666666
 40
0.6666666666666666
 40
0.6666666666666666
 40
0.7777777777777778
 40
0.7777777777777778
 40
0.7777777777777778
 40
0.7777777777777778
 40
1.0
 40
1.0
 40
1.0
 40
1.0
 10
-85.246
 20
105.0751
 30
0.0
 10
-85.246
 20
105.0751
 30
0.0
 10
-82.2216
 20
102.0508
 30
0.0
 10
-82.2216
 20
102.0508
 30
0.0
 10
-82.2216
 20
102.0508
 30
0.0
 10
-81.5566
 20
101.3856
 30
0.0
 10
-81.5566
 20
100.3069
 30
0.0
 10
-82.2216
 20
99.6419
 30
0.0
 10
-82.2216
 20
99.6419
 30
0.0
 10
-82.2216
 20
99.6419
 30
0.0
 10
-85.246
 20
96.6176
 30
0.0
 10
-85.246
 20
96.6176
 30
0.0
 10
-85.246
 20
96.6176
 30
0.0
 10
-85.911
 20
95.9525
 30
0.0
 10
-86.9897
 20
95.9525
 30
0.0
 10
-87.6547
 20
96.6175
 30
0.0
 10
-87.6547
 20
96.6175
 30
0.0
 10
-87.6547
 20
96.6175
 30
0.0
 10
-90.6791
 20
99.642
 30
0.0
 10
-90.6791
 20
99.642
 30
0.0
 10
-90.6791
 20
99.642
 30
0.0
 10
-91.3442
 20
100.307
 30
0.0
 10
-91.3442
 20
101.3856
 30
0.0
 10
-90.6791
 20
102.0507
 30
0.0
 10
-90.6791
 20
102.0507
 30
0.0
 10
-90.6791
 20
102.0507
 30
0.0
 10
-87.6548
 20
105.0751
 30
0.0
 10
-87.6548
 20
105.0751
 30
0.0
 10
-87.6548
 20
105.0751
 30
0.0
 10
-86.9897
 20
105.7401
 30
0.0
 10
-85.9111
 20
105.7401
 30
0.0
 10
-85.246
 20
105.0751
 30
0.0
  0
SPLINE
  5
58
330
1F
100
AcDbEntity
  8
layer 1
 62
     7
100
AcDbSpline
210
0.0
220
0.0
230
1.0
 70
     8
 71
     3
 72
    36
 73
    32
 74
     0
 42
0.0000000001
 43
0.0000000001
 12
1.0
 22
0.0
 32
0.0
 13
1.0
 23
0.0
 33
0.0
 40
0.0
 40
0.0
 40
0.0
 40
0.0
 40
0.1111111111111111
 40
0.1111111111111111
 40
0.1111111111111111
 40
0.1111111111111111
 40
0.2222222222222222
 40
0.2222222222222222
 40
0.2222222222222222
 40
0.2222222222222222
 40
0.3333333333333333
 40
0.3333333333333333
 40
0.3333333333333333
 40
0.3333333333333333
 40
0.4444444444444444
 40
0.4444444444444444
 40
0.4444444444444444
 40
0.4444444444444444
 40
0.5555555555555556
 40
0.5555555555555556
 40
0.5555555555555556
 40
0.5555555555555556
 40
0.6666666666666666
 40
0.6666666666666666
 40
0.6666666666666666
 40
0.6666666666666666
 40
0.7777777777777778
 40
0.7777777777777778
 40
0.7777777777777778
 40
0.7777777777777778
 40
1.0
 40
1.0
 40
1.0
 40
1.0
 10
-92.8165
 20
112.8724
 30
0.0
 10
-92.8165
 20
112.8724
 30
0.0
 10
-89.7922
 20
109.848
 30
0.0
 10
-89.7922
 20
109.848
 30
0.0
 10
-89.7922
 20
109.848
 30
0.0
 10
-89.1272
 20
109.1828
 30
0.0
 10
-89.1272
 20
108.1043
 30
0.0
 10
-89.7922
 20
107.4392
 30
0.0
 10
-89.7922
 20
107.4392
 30
0.0
 10
-89.7922
 20
107.4392
 30
0.0
 10
-92.8165
 20
104.4149
 30
0.0
 10
-92.8165
 20
104.4149
 30
0.0
 10
-92.8165
 20
104.4149
 30
0.0
 10
-93.4817
 20
103.7498
 30
0.0
 10
-94.5603
 20
103.7498
 30
0.0
 10
-95.2254
 20
104.4148
 30
0.0
 10
-95.2254
 20
104.4148
 30
0.0
 10
-95.2254
 20
104.4148
 30
0.0
 10
-98.2497
 20
107.4393
 30
0.0
 10
-98.2497
 20
107.4393
 30
0.0
 10
-98.2497
 20
107.4393
 30
0.0
 10
-98.9147
 20
108.1042
 30
0.0
 10
-98.9147
 20
109.1828
 30
0.0
 10
-98.2497
 20
109.8479
 30
0.0
 10
-98.2497
 20
109.8479
 30
0.0
 10
-98.2497
 20
109.8479
 30
0.0
 10
-95.2254
 20
112.8724
 30
0.0
 10
-95.2254
 20
112.8724
 30
0.0
 10
-95.2254
 20
112.8724
 30
0.0
 10
-94.5602
 20
113.5373
 30
0.0
 10
-93.4816
 20
113.5373
 30
0.0
 10
-92.8165
 20
112.8723
 30
0.0
  0
SPLINE
  5
59
330
1F
100
AcDbEntity
  8
layer 1
 62
     7
100
AcDbSpline
210
0.0
220
0.0
230
1.0
 70
     8
 71
     3
 72
    36
 73
    32
 74
     0
 42
0.0000000001
 43
0.0000000001
 12
1.0
 22
0.0
 32
0.0
 13
1.0
 23
0.0
 33
0.0
 40
0.0
 40
0.0
 40
0.0
 40
0.0
 40
0.1111111111111111
 40
0.1111111111111111
 40
0.1111111111111111
 40
0.1111111111111111
 40
0.2222222222222222
 40
0.2222222222222222
 40
0.2222222222222222
 40
0.2222222222222222
 40
0.3333333333333333
 40
0.3333333333333333
 40
0.3333333333333333
 40
0.3333333333333333
 40
0.4444444444444444
 40
0.4444444444444444
 40
0.4444444444444444
 40
0.4444444444444444
 40
0.5555555555555556
 40
0.5555555555555556
 40
0.5555555555555556
 40
0.5555555555555556
 40
0.6666666666666666
 40
0.6666666666666666
 40
0.6666666666666666
 40
0.6666666666666666
 40
0.7777777777777778
 40
0.7777777777777778
 40
0.7777777777777778
 40
0.7777777777777778
 40
1.0
 40
1.0
 40
1.0
 40
1.0
 10
-77.6301
 20
112.8724
 30
0.0
 10
-77.6301
 20
112.8724
 30
0.0
 10
-74.6056
 20
109.848
 30
0.0
 10
-74.6056
 20
109.848
 30
0.0
 10
-74.6056
 20
109.848
 30
0.0
 10
-73.9406
 20
109.1828
 30
0.0
 10
-73.9406
 20
108.1043
 30
0.0
 10
-74.6057
 20
107.4392
 30
0.0
 10
-74.6057
 20
107.4392
 30
0.0
 10
-74.6057
 20
107.4392
 30
0.0
 10
-77.6301
 20
104.4149
 30
0.0
 10
-77.6301
 20
104.4149
 30
0.0
 10
-77.6301
 20
104.4149
 30
0.0
 10
-78.2951
 20
103.7498
 30
0.0
 10
-79.3737
 20
103.7498
 30
0.0
 10
-80.0388
 20
104.4149
 30
0.0
 10
-80.0388
 20
104.4149
 30
0.0
 10
-80.0388
 20
104.4149
 30
0.0
 10
-83.0632
 20
107.4392
 30
0.0
 10
-83.0632
 20
107.4392
 30
0.0
 10
-83.0632
 20
107.4392
 30
0.0
 10
-83.7282
 20
108.1043
 30
0.0
 10
-83.7282
 20
109.1828
 30
0.0
 10
-83.0631
 20
109.8479
 30
0.0
 10
-83.0631
 20
109.8479
 30
0.0
 10
-83.0631
 20
109.8479
 30
0.0
 10
-80.0388
 20
112.8724
 30
0.0
 10
-80.0388
 20
112.8724
 30
0.0
 10
-80.0388
 20
112.8724
 30
0.0
 10
-79.3737
 20
113.5373
 30
0.0
 10
-78.2951
 20
113.5373
 30
0.0
 10
-77.63
 20
112.8723
 30
0.0
  0
SPLINE
  5
5A
330
1F
100
AcDbEntity
  8
layer 1
 62
     7
100
AcDbSpline
210
0.0
220
0.0
230
1.0
 70
    11
 71
     3
 72
    28
 73
    24
 74
     0
 42
0.0000000001
 43
0.0000000001
 12
1.0
 22
0.0
 32
0.0
 13
1.0
 23
0.0
 33
0.0
 40
0.0
 40
0.0
 40
0.0
 40
0.0
 40
0.1428571428571428
 40
0.1428571428571428
 40
0.1428571428571428
 40
0.1428571428571428
 40
0.2857142857142857
 40
0.2857142857142857
 40
0.2857142857142857
 40
0.2857142857142857
 40
0.4285714285714285
 40
0.4285714285714285
 40
0.4285714285714285
 40
0.4285714285714285
 40
0.5714285714285714
 40
0.5714285714285714
 40
0.5714285714285714
 40
0.5714285714285714
 40
0.7142857142857143
 40
0.7142857142857143
 40
0.7142857142857143
 40
0.7142857142857143
 40
1.0
 40
1.0
 40
1.0
 40
1.0
 10
-89.3755
 20
87.3622
 30
0.0
 10
-89.3755
 20
87.3622
 30
0.0
 10
-102.7966
 20
87.4317
 30
0.0
 10
-102.7966
 20
87.4317
 30
0.0
 10
-102.7966
 20
87.4317
 30
0.0
 10
-103.9553
 20
87.3763
 30
0.0
 10
-104.8714
 20
86.7671
 30
0.0
 10
-104.767
 20
85.5166
 30
0.0
 10
-104.767
 20
85.5166
 30
0.0
 10
-104.767
 20
85.5166
 30
0.0
 10
-104.7299
 20
71.4114
 30
0.0
 10
-104.7299
 20
71.4114
 30
0.0
 10
-104.7299
 20
71.4114
 30
0.0
 10
-104.7044
 20
69.8988
 30
0.0
 10
-102.9495
 20
69.6794
 30
0.0
 10
-102.0254
 20
70.4184
 30
0.0
 10
-102.0254
 20
70.4184
 30
0.0
 10
-102.0254
 20
70.4184
 30
0.0
 10
-88.5151
 20
84.3703
 30
0.0
 10
-88.5151
 20
84.3703
 30
0.0
 10
-88.5151
 20
84.3703
 30
0.0
 10
-87.6433
 20
85.2482
 30
0.0
 10
-87.7308
 20
87.1687
 30
0.0
 10
-89.3755
 20
87.3622
 30
0.0
  0
SPLINE
  5
5B
330
1F
100
AcDbEntity
  8
layer 1
 62
     7
100
AcDbSpline
210
0.0
220
0.0
230
1.0
 70
    11
 71
     3
 72
    32
 73
    28
 74
     0
 42
0.0000000001
 43
0.0000000001
 12
1.0
 22
0.0
 32
0.0
 13
1.0
 23
0.0
 33
0.0
 40
0.0
 40
0.0
 40
0.0
 40
0.0
 40
0.125
 40
0.125
 40
0.125
 40
0.125
 40
0.25
 40
0.25
 40
0.25
 40
0.25
 40
0.375
 40
0.375
 40
0.375
 40
0.375
 40
0.5
 40
0.5
 40
0.5
 40
0.5
 40
0.625
 40
0.625
 40
0.625
 40
0.625
 40
0.75
 40
0.75
 40
0.75
 40
0.75
 40
1.0
 40
1.0
 40
1.0
 40
1.0
 10
-83.4929
 20
87.3622
 30
0.0
 10
-83.4929
 20
87.3622
 30
0.0
 10
-70.0719
 20
87.4317
 30
0.0
 10
-70.0719
 20
87.4317
 30
0.0
 10
-70.0719
 20
87.4317
 30
0.0
 10
-68.9132
 20
87.3763
 30
0.0
 10
-67.9971
 20
86.7671
 30
0.0
 10
-68.1015
 20
85.5166
 30
0.0
 10
-68.1015
 20
85.5166
 30
0.0
 10
-68.1015
 20
85.5166
 30
0.0
 10
-68.1386
 20
71.4114
 30
0.0
 10
-68.1386
 20
71.4114
 30
0.0
 10
-68.1386
 20
71.4114
 30
0.0
 10
-68.1641
 20
69.8988
 30
0.0
 10
-69.919
 20
69.6794
 30
0.0
 10
-70.8431
 20
70.4184
 30
0.0
 10
-70.8431
 20
70.4184
 30
0.0
 10
-70.8431
 20
70.4184
 30
0.0
 10
-84.3534
 20
84.3703
 30
0.0
 10
-84.3534
 20
84.3703
 30
0.0
 10
-84.3534
 20
84.3703
 30
0.0
 10
-85.2252
 20
85.2482
 30
0.0
 10
-85.1377
 20
87.1687
 30
0.0
 10
-83.493
 20
87.3622
 30
0.0
 10
-83.493
 20
87.3622
 30
0.0
 10
-83.493
 20
87.3622
 30
0.0
 10
-83.4929
 20
87.3622
 30
0.0
 10
-83.4929
 20
87.3622
 30
0.0
  0
SPLINE
  5
5C
330
1F
100
AcDbEntity
  8
layer 1
 62
     7
100
AcDbSpline
210
0.0
220
0.0
230
1.0
 70
    11
 71
     3
 72
    32
 73
    28
 74
     0
 42
0.0000000001
 43
0.0000000001
 12
1.0
 22
0.0
 32
0.0
 13
1.0
 23
0.0
 33
0.0
 40
0.0
 40
0.0
 40
0.0
 40
0.0
 40
0.125
 40
0.125
 40
0.125
 40
0.125
 40
0.25
 40
0.25
 40
0.25
 40
0.25
 40
0.375
 40
0.375
 40
0.375
 40
0.375
 40
0.5
 40
0.5
 40
0.5
 40
0.5
 40
0.625
 40
0.625
 40
0.625
 40
0.625
 40
0.75
 40
0.75
 40
0.75
 40
0.75
 40
1.0
 40
1.0
 40
1.0
 40
1.0
 10
-89.3755
 20
49.8141
 30
0.0
 10
-89.3755
 20
49.8141
 30
0.0
 10
-102.7966
 20
49.7447
 30
0.0
 10
-102.7966
 20
49.7447
 30
0.0
 10
-102.7966
 20
49.7447
 30
0.0
 10
-103.9553
 20
49.8
 30
0.0
 10
-104.8714
 20
50.4092
 30
0.0
 10
-104.767
 20
51.6598
 30
0.0
 10
-104.767
 20
51.6598
 30
0.0
 10
-104.767
 20
51.6598
 30
0.0
 10
-104.7299
 20
65.765
 30
0.0
 10
-104.7299
 20
65.765
 30
0.0
 10
-104.7299
 20
65.765
 30
0.0
 10
-104.7044
 20
67.2775
 30
0.0
 10
-102.9495
 20
67.497
 30
0.0
 10
-102.0254
 20
66.758
 30
0.0
 10
-102.0254
 20
66.758
 30
0.0
 10
-102.0254
 20
66.758
 30
0.0
 10
-88.5151
 20
52.8059
 30
0.0
 10
-88.5151
 20
52.8059
 30
0.0
 10
-88.5151
 20
52.8059
 30
0.0
 10
-87.6433
 20
51.9281
 30
0.0
 10
-87.7308
 20
50.0076
 30
0.0
 10
-89.3755
 20
49.8141
 30
0.0
 10
-89.3755
 20
49.8141
 30
0.0
 10
-89.3755
 20
49.8141
 30
0.0
 10
-89.3755
 20
49.8141
 30
0.0
 10
-89.3755
 20
49.8141
 30
0.0
  0
SPLINE
  5
5D
330
1F
100
AcDbEntity
  8
layer 1
 62
     7
100
AcDbSpline
210
0.0
220
0.0
230
1.0
 70
    11
 71
     3
 72
    32
 73
    28
 74
     0
 42
0.0000000001
 43
0.0000000001
 12
1.0
 22
0.0
 32
0.0
 13
1.0
 23
0.0
 33
0.0
 40
0.0
 40
0.0
 40
0.0
 40
0.0
 40
0.125
 40
0.125
 40
0.125
 40
0.125
 40
0.25
 40
0.25
 40
0.25
 40
0.25
 40
0.375
 40
0.375
 40
0.375
 40
0.375
 40
0.5
 40
0.5
 40
0.5
 40
0.5
 40
0.625
 40
0.625
 40
0.625
 40
0.625
 40
0.75
 40
0.75
 40
0.75
 40
0.75
 40
1.0
 40
1.0
 40
1.0
 40
1.0
 10
-83.4929
 20
49.8141
 30
0.0
 10
-83.4929
 20
49.8141
 30
0.0
 10
-70.0718
 20
49.7447
 30
0.0
 10
-70.0718
 20
49.7447
 30
0.0
 10
-70.0718
 20
49.7447
 30
0.0
 10
-68.9131
 20
49.8
 30
0.0
 10
-67.9971
 20
50.4092
 30
0.0
 10
-68.1015
 20
51.6598
 30
0.0
 10
-68.1015
 20
51.6598
 30
0.0
 10
-68.1015
 20
51.6598
 30
0.0
 10
-68.1385
 20
65.765
 30
0.0
 10
-68.1385
 20
65.765
 30
0.0
 10
-68.1385
 20
65.765
 30
0.0
 10
-68.164
 20
67.2775
 30
0.0
 10
-69.9189
 20
67.497
 30
0.0
 10
-70.843
 20
66.758
 30
0.0
 10
-70.843
 20
66.758
 30
0.0
 10
-70.843
 20
66.758
 30
0.0
 10
-84.3533
 20
52.8059
 30
0.0
 10
-84.3533
 20
52.8059
 30
0.0
 10
-84.3533
 20
52.8059
 30
0.0
 10
-85.2251
 20
51.9281
 30
0.0
 10
-85.1376
 20
50.0076
 30
0.0
 10
-83.4929
 20
49.8141
 30
0.0
 10
-83.4929
 20
49.8141
 30
0.0
 10
-83.4929
 20
49.8141
 30
0.0
 10
-83.4929
 20
49.8141
 30
0.0
 10
-83.4929
 20
49.8141
 30
0.0
  0
SPLINE
  5
5E
330
1F
100
AcDbEntity
  8
layer 1
 62
     7
100
AcDbSpline
210
0.0
220
0.0
230
1.0
 70
     8
 71
     3
 72
    36
 73
    32
 74
     0
 42
0.0000000001
 43
0.0000000001
 12
1.0
 22
0.0
 32
0.0
 13
1.0
 23
0.0
 33
0.0
 40
0.0
 40
0.0
 40
0.0
 40
0.0
 40
0.1111111111111111
 40
0.1111111111111111
 40
0.1111111111111111
 40
0.1111111111111111
 40
0.2222222222222222
 40
0.2222222222222222
 40
0.2222222222222222
 40
0.2222222222222222
 40
0.3333333333333333
 40
0.3333333333333333
 40
0.3333333333333333
 40
0.3333333333333333
 40
0.4444444444444444
 40
0.4444444444444444
 40
0.4444444444444444
 40
0.4444444444444444
 40
0.5555555555555556
 40
0.5555555555555556
 40
0.5555555555555556
 40
0.5555555555555556
 40
0.6666666666666666
 40
0.6666666666666666
 40
0.6666666666666666
 40
0.6666666666666666
 40
0.7777777777777778
 40
0.7777777777777778
 40
0.7777777777777778
 40
0.7777777777777778
 40
1.0
 40
1.0
 40
1.0
 40
1.0
 10
-85.2418
 20
80.6221
 30
0.0
 10
-85.2418
 20
80.6221
 30
0.0
 10
-82.2174
 20
77.5977
 30
0.0
 10
-82.2174
 20
77.5977
 30
0.0
 10
-82.2174
 20
77.5977
 30
0.0
 10
-81.5523
 20
76.9326
 30
0.0
 10
-81.5523
 20
75.8539
 30
0.0
 10
-82.2174
 20
75.1889
 30
0.0
 10
-82.2174
 20
75.1889
 30
0.0
 10
-82.2174
 20
75.1889
 30
0.0
 10
-85.2418
 20
72.1646
 30
0.0
 10
-85.2418
 20
72.1646
 30
0.0
 10
-85.2418
 20
72.1646
 30
0.0
 10
-85.9068
 20
71.4994
 30
0.0
 10
-86.9855
 20
71.4994
 30
0.0
 10
-87.6505
 20
72.1645
 30
0.0
 10
-87.6505
 20
72.1645
 30
0.0
 10
-87.6505
 20
72.1645
 30
0.0
 10
-90.6748
 20
75.1889
 30
0.0
 10
-90.6748
 20
75.1889
 30
0.0
 10
-90.6748
 20
75.1889
 30
0.0
 10
-91.3399
 20
75.8539
 30
0.0
 10
-91.3399
 20
76.9325
 30
0.0
 10
-90.6748
 20
77.5976
 30
0.0
 10
-90.6748
 20
77.5976
 30
0.0
 10
-90.6748
 20
77.5976
 30
0.0
 10
-87.6505
 20
80.6221
 30
0.0
 10
-87.6505
 20
80.6221
 30
0.0
 10
-87.6505
 20
80.6221
 30
0.0
 10
-86.9854
 20
81.287
 30
0.0
 10
-85.9068
 20
81.287
 30
0.0
 10
-85.2417
 20
80.622
 30
0.0
  0
SPLINE
  5
5F
330
1F
100
AcDbEntity
  8
layer 1
 62
     7
100
AcDbSpline
210
0.0
220
0.0
230
1.0
 70
     8
 71
     3
 72
    36
 73
    32
 74
     0
 42
0.0000000001
 43
0.0000000001
 12
1.0
 22
0.0
 32
0.0
 13
1.0
 23
0.0
 33
0.0
 40
0.0
 40
0.0
 40
0.0
 40
0.0
 40
0.1111111111111111
 40
0.1111111111111111
 40
0.1111111111111111
 40
0.1111111111111111
 40
0.2222222222222222
 40
0.2222222222222222
 40
0.2222222222222222
 40
0.2222222222222222
 40
0.3333333333333333
 40
0.3333333333333333
 40
0.3333333333333333
 40
0.3333333333333333
 40
0.4444444444444444
 40
0.4444444444444444
 40
0.4444444444444444
 40
0.4444444444444444
 40
0.5555555555555556
 40
0.5555555555555556
 40
0.5555555555555556
 40
0.5555555555555556
 40
0.6666666666666666
 40
0.6666666666666666
 40
0.6666666666666666
 40
0.6666666666666666
 40
0.7777777777777778
 40
0.7777777777777778
 40
0.7777777777777778
 40
0.7777777777777778
 40
1.0
 40
1.0
 40
1.0
 40
1.0
 10
-85.2418
 20
65.0275
 30
0.0
 10
-85.2418
 20
65.0275
 30
0.0
 10
-82.2174
 20
62.0031
 30
0.0
 10
-82.2174
 20
62.0031
 30
0.0
 10
-82.2174
 20
62.0031
 30
0.0
 10
-81.5523
 20
61.3379
 30
0.0
 10
-81.5523
 20
60.2594
 30
0.0
 10
-82.2174
 20
59.5942
 30
0.0
 10
-82.2174
 20
59.5942
 30
0.0
 10
-82.2174
 20
59.5942
 30
0.0
 10
-85.2418
 20
56.5701
 30
0.0
 10
-85.2418
 20
56.5701
 30
0.0
 10
-85.2418
 20
56.5701
 30
0.0
 10
-85.9068
 20
55.9049
 30
0.0
 10
-86.9854
 20
55.9049
 30
0.0
 10
-87.6505
 20
56.57
 30
0.0
 10
-87.6505
 20
56.57
 30
0.0
 10
-87.6505
 20
56.57
 30
0.0
 10
-90.6748
 20
59.5944
 30
0.0
 10
-90.6748
 20
59.5944
 30
0.0
 10
-90.6748
 20
59.5944
 30
0.0
 10
-91.3399
 20
60.2594
 30
0.0
 10
-91.3399
 20
61.338
 30
0.0
 10
-90.6748
 20
62.0031
 30
0.0
 10
-90.6748
 20
62.0031
 30
0.0
 10
-90.6748
 20
62.0031
 30
0.0
 10
-87.6505
 20
65.0275
 30
0.0
 10
-87.6505
 20
65.0275
 30
0.0
 10
-87.6505
 20
65.0275
 30
0.0
 10
-86.9855
 20
65.6924
 30
0.0
 10
-85.9068
 20
65.6924
 30
0.0
 10
-85.2418
 20
65.0274
 30
0.0
  0
SPLINE
  5
60
330
1F
100
AcDbEntity
  8
layer 1
 62
     7
100
AcDbSpline
210
0.0
220
0.0
230
1.0
 70
     8
 71
     3
 72
    36
 73
    32
 74
     0
 42
0.0000000001
 43
0.0000000001
 12
1.0
 22
0.0
 32
0.0
 13
1.0
 23
0.0
 33
0.0
 40
0.0
 40
0.0
 40
0.0
 40
0.0
 40
0.1111111111111111
 40
0.1111111111111111
 40
0.1111111111111111
 40
0.1111111111111111
 40
0.2222222222222222
 40
0.2222222222222222
 40
0.2222222222222222
 40
0.2222222222222222
 40
0.3333333333333333
 40
0.3333333333333333
 40
0.3333333333333333
 40
0.3333333333333333
 40
0.4444444444444444
 40
0.4444444444444444
 40
0.4444444444444444
 40
0.4444444444444444
 40
0.5555555555555556
 40
0.5555555555555556
 40
0.5555555555555556
 40
0.5555555555555556
 40
0.6666666666666666
 40
0.6666666666666666
 40
0.6666666666666666
 40
0.6666666666666666
 40
0.7777777777777778
 40
0.7777777777777778
 40
0.7777777777777778
 40
0.7777777777777778
 40
1.0
 40
1.0
 40
1.0
 40
1.0
 10
-92.8123
 20
72.8248
 30
0.0
 10
-92.8123
 20
72.8248
 30
0.0
 10
-89.788
 20
69.8005
 30
0.0
 10
-89.788
 20
69.8005
 30
0.0
 10
-89.788
 20
69.8005
 30
0.0
 10
-89.1229
 20
69.1353
 30
0.0
 10
-89.1229
 20
68.0566
 30
0.0
 10
-89.788
 20
67.3916
 30
0.0
 10
-89.788
 20
67.3916
 30
0.0
 10
-89.788
 20
67.3916
 30
0.0
 10
-92.8123
 20
64.3673
 30
0.0
 10
-92.8123
 20
64.3673
 30
0.0
 10
-92.8123
 20
64.3673
 30
0.0
 10
-93.4774
 20
63.7021
 30
0.0
 10
-94.556
 20
63.7021
 30
0.0
 10
-95.2211
 20
64.3672
 30
0.0
 10
-95.2211
 20
64.3672
 30
0.0
 10
-95.2211
 20
64.3672
 30
0.0
 10
-98.2454
 20
67.3917
 30
0.0
 10
-98.2454
 20
67.3917
 30
0.0
 10
-98.2454
 20
67.3917
 30
0.0
 10
-98.9105
 20
68.0566
 30
0.0
 10
-98.9105
 20
69.1352
 30
0.0
 10
-98.2454
 20
69.8003
 30
0.0
 10
-98.2454
 20
69.8003
 30
0.0
 10
-98.2454
 20
69.8003
 30
0.0
 10
-95.2211
 20
72.8248
 30
0.0
 10
-95.2211
 20
72.8248
 30
0.0
 10
-95.2211
 20
72.8248
 30
0.0
 10
-94.556
 20
73.4897
 30
0.0
 10
-93.4774
 20
73.4897
 30
0.0
 10
-92.8123
 20
72.8247
 30
0.0
  0
SPLINE
  5
61
330
1F
100
AcDbEntity
  8
layer 1
 62
     7
100
AcDbSpline
210
0.0
220
0.0
230
1.0
 70
     8
 71
     3
 72
    36
 73
    32
 74
     0
 42
0.0000000001
 43
0.0000000001
 12
1.0
 22
0.0
 32
0.0
 13
1.0
 23
0.0
 33
0.0
 40
0.0
 40
0.0
 40
0.0
 40
0.0
 40
0.1111111111111111
 40
0.1111111111111111
 40
0.1111111111111111
 40
0.1111111111111111
 40
0.2222222222222222
 40
0.2222222222222222
 40
0.2222222222222222
 40
0.2222222222222222
 40
0.3333333333333333
 40
0.3333333333333333
 40
0.3333333333333333
 40
0.3333333333333333
 40
0.4444444444444444
 40
0.4444444444444444
 40
0.4444444444444444
 40
0.4444444444444444
 40
0.5555555555555556
 40
0.5555555555555556
 40
0.5555555555555556
 40
0.5555555555555556
 40
0.6666666666666666
 40
0.6666666666666666
 40
0.6666666666666666
 40
0.6666666666666666
 40
0.7777777777777778
 40
0.7777777777777778
 40
0.7777777777777778
 40
0.7777777777777778
 40
1.0
 40
1.0
 40
1.0
 40
1.0
 10
-77.6258
 20
72.8248
 30
0.0
 10
-77.6258
 20
72.8248
 30
0.0
 10
-74.6014
 20
69.8005
 30
0.0
 10
-74.6014
 20
69.8005
 30
0.0
 10
-74.6014
 20
69.8005
 30
0.0
 10
-73.9364
 20
69.1353
 30
0.0
 10
-73.9364
 20
68.0566
 30
0.0
 10
-74.6014
 20
67.3916
 30
0.0
 10
-74.6014
 20
67.3916
 30
0.0
 10
-74.6014
 20
67.3916
 30
0.0
 10
-77.6258
 20
64.3673
 30
0.0
 10
-77.6258
 20
64.3673
 30
0.0
 10
-77.6258
 20
64.3673
 30
0.0
 10
-78.2908
 20
63.7022
 30
0.0
 10
-79.3695
 20
63.7022
 30
0.0
 10
-80.0345
 20
64.3672
 30
0.0
 10
-80.0345
 20
64.3672
 30
0.0
 10
-80.0345
 20
64.3672
 30
0.0
 10
-83.059
 20
67.3917
 30
0.0
 10
-83.059
 20
67.3917
 30
0.0
 10
-83.059
 20
67.3917
 30
0.0
 10
-83.7239
 20
68.0566
 30
0.0
 10
-83.7239
 20
69.1353
 30
0.0
 10
-83.0589
 20
69.8003
 30
0.0
 10
-83.0589
 20
69.8003
 30
0.0
 10
-83.0589
 20
69.8003
 30
0.0
 10
-80.0346
 20
72.8248
 30
0.0
 10
-80.0346
 20
72.8248
 30
0.0
 10
-80.0346
 20
72.8248
 30
0.0
 10
-79.3695
 20
73.4897
 30
0.0
 10
-78.2908
 20
73.4897
 30
0.0
 10
-77.6258
 20
72.8247
 30
0.0
  0
SPLINE
  5
62
330
1F
100
AcDbEntity
  8
layer 1
 62
     7
100
AcDbSpline
210
0.0
220
0.0
230
1.0
 70
     8
 71
     3
 72
    36
 73
    32
 74
     0
 42
0.0000000001
 43
0.0000000001
 12
1.0
 22
0.0
 32
0.0
 13
1.0
 23
0.0
 33
0.0
 40
0.0
 40
0.0
 40
0.0
 40
0.0
 40
0.1111111111111111
 40
0.1111111111111111
 40
0.1111111111111111
 40
0.1111111111111111
 40
0.2222222222222222
 40
0.2222222222222222
 40
0.2222222222222222
 40
0.2222222222222222
 40
0.3333333333333333
 40
0.3333333333333333
 40
0.3333333333333333
 40
0.3333333333333333
 40
0.4444444444444444
 40
0.4444444444444444
 40
0.4444444444444444
 40
0.4444444444444444
 40
0.5555555555555556
 40
0.5555555555555556
 40
0.5555555555555556
 40
0.5555555555555556
 40
0.6666666666666666
 40
0.6666666666666666
 40
0.6666666666666666
 40
0.6666666666666666
 40
0.7777777777777778
 40
0.7777777777777778
 40
0.7777777777777778
 40
0.7777777777777778
 40
1.0
 40
1.0
 40
1.0
 40
1.0
 10
-173.9266
 20
85.7686
 30
0.0
 10
-173.9266
 20
85.7686
 30
0.0
 10
-173.9266
 20
78.7649
 30
0.0
 10
-173.9266
 20
78.7649
 30
0.0
 10
-173.9266
 20
78.7649
 30
0.0
 10
-173.9265
 20
77.8243
 30
0.0
 10
-174.6892
 20
77.0616
 30
0.0
 10
-175.6298
 20
77.0616
 30
0.0
 10
-175.6298
 20
77.0616
 30
0.0
 10
-175.6298
 20
77.0616
 30
0.0
 10
-182.6745
 20
77.0617
 30
0.0
 10
-182.6745
 20
77.0617
 30
0.0
 10
-182.6745
 20
77.0617
 30
0.0
 10
-183.6149
 20
77.0616
 30
0.0
 10
-184.3777
 20
77.8243
 30
0.0
 10
-184.3777
 20
78.7648
 30
0.0
 10
-184.3777
 20
78.7648
 30
0.0
 10
-184.3777
 20
78.7648
 30
0.0
 10
-184.3777
 20
85.7686
 30
0.0
 10
-184.3777
 20
85.7686
 30
0.0
 10
-184.3777
 20
85.7686
 30
0.0
 10
-184.3777
 20
86.709
 30
0.0
 10
-183.6149
 20
87.4717
 30
0.0
 10
-182.6744
 20
87.4717
 30
0.0
 10
-182.6744
 20
87.4717
 30
0.0
 10
-182.6744
 20
87.4717
 30
0.0
 10
-175.6298
 20
87.4718
 30
0.0
 10
-175.6298
 20
87.4718
 30
0.0
 10
-175.6298
 20
87.4718
 30
0.0
 10
-174.6892
 20
87.4717
 30
0.0
 10
-173.9265
 20
86.709
 30
0.0
 10
-173.9265
 20
85.7685
 30
0.0
  0
SPLINE
  5
63
330
1F
100
AcDbEntity
  8
layer 1
 62
     7
100
AcDbSpline
210
0.0
220
0.0
230
1.0
 70
     8
 71
     3
 72
    36
 73
    32
 74
     0
 42
0.0000000001
 43
0.0000000001
 12
1.0
 22
0.0
 32
0.0
 13
1.0
 23
0.0
 33
0.0
 40
0.0
 40
0.0
 40
0.0
 40
0.0
 40
0.1111111111111111
 40
0.1111111111111111
 40
0.1111111111111111
 40
0.1111111111111111
 40
0.2222222222222222
 40
0.2222222222222222
 40
0.2222222222222222
 40
0.2222222222222222
 40
0.3333333333333333
 40
0.3333333333333333
 40
0.3333333333333333
 40
0.3333333333333333
 40
0.4444444444444444
 40
0.4444444444444444
 40
0.4444444444444444
 40
0.4444444444444444
 40
0.5555555555555556
 40
0.5555555555555556
 40
0.5555555555555556
 40
0.5555555555555556
 40
0.6666666666666666
 40
0.6666666666666666
 40
0.6666666666666666
 40
0.6666666666666666
 40
0.7777777777777778
 40
0.7777777777777778
 40
0.7777777777777778
 40
0.7777777777777778
 40
1.0
 40
1.0
 40
1.0
 40
1.0
 10
-147.657
 20
85.7686
 30
0.0
 10
-147.657
 20
85.7686
 30
0.0
 10
-147.657
 20
78.7649
 30
0.0
 10
-147.657
 20
78.7649
 30
0.0
 10
-147.657
 20
78.7649
 30
0.0
 10
-147.6569
 20
77.8243
 30
0.0
 10
-148.4196
 20
77.0616
 30
0.0
 10
-149.3602
 20
77.0616
 30
0.0
 10
-149.3602
 20
77.0616
 30
0.0
 10
-149.3602
 20
77.0616
 30
0.0
 10
-156.4049
 20
77.0617
 30
0.0
 10
-156.4049
 20
77.0617
 30
0.0
 10
-156.4049
 20
77.0617
 30
0.0
 10
-157.3454
 20
77.0616
 30
0.0
 10
-158.1081
 20
77.8243
 30
0.0
 10
-158.1081
 20
78.7648
 30
0.0
 10
-158.1081
 20
78.7648
 30
0.0
 10
-158.1081
 20
78.7648
 30
0.0
 10
-158.1081
 20
85.7686
 30
0.0
 10
-158.1081
 20
85.7686
 30
0.0
 10
-158.1081
 20
85.7686
 30
0.0
 10
-158.1081
 20
86.709
 30
0.0
 10
-157.3454
 20
87.4717
 30
0.0
 10
-156.4048
 20
87.4717
 30
0.0
 10
-156.4048
 20
87.4717
 30
0.0
 10
-156.4048
 20
87.4717
 30
0.0
 10
-149.3602
 20
87.4718
 30
0.0
 10
-149.3602
 20
87.4718
 30
0.0
 10
-149.3602
 20
87.4718
 30
0.0
 10
-148.4196
 20
87.4717
 30
0.0
 10
-147.6569
 20
86.709
 30
0.0
 10
-147.6569
 20
85.7685
 30
0.0
  0
SPLINE
  5
64
330
1F
100
AcDbEntity
  8
layer 1
 62
     7
100
AcDbSpline
210
0.0
220
0.0
230
1.0
 70
    11
 71
     3
 72
    48
 73
    44
 74
     0
 42
0.0000000001
 43
0.0000000001
 12
1.0
 22
0.0
 32
0.0
 13
1.0
 23
0.0
 33
0.0
 40
0.0
 40
0.0
 40
0.0
 40
0.0
 40
0.0833333333333333
 40
0.0833333333333333
 40
0.0833333333333333
 40
0.0833333333333333
 40
0.1666666666666667
 40
0.1666666666666667
 40
0.1666666666666667
 40
0.1666666666666667
 40
0.25
 40
0.25
 40
0.25
 40
0.25
 40
0.3333333333333333
 40
0.3333333333333333
 40
0.3333333333333333
 40
0.3333333333333333
 40
0.4166666666666667
 40
0.4166666666666667
 40
0.4166666666666667
 40
0.4166666666666667
 40
0.5
 40
0.5
 40
0.5
 40
0.5
 40
0.5833333333333334
 40
0.5833333333333334
 40
0.5833333333333334
 40
0.5833333333333334
 40
0.6666666666666666
 40
0.6666666666666666
 40
0.6666666666666666
 40
0.6666666666666666
 40
0.75
 40
0.75
 40
0.75
 40
0.75
 40
0.8333333333333334
 40
0.8333333333333334
 40
0.8333333333333334
 40
0.8333333333333334
 40
1.0
 40
1.0
 40
1.0
 40
1.0
 10
-160.7918
 20
85.7686
 30
0.0
 10
-160.7918
 20
85.7686
 30
0.0
 10
-160.7918
 20
77.623
 30
0.0
 10
-160.7918
 20
77.623
 30
0.0
 10
-160.7918
 20
77.623
 30
0.0
 10
-160.7918
 20
76.8222
 30
0.0
 10
-161.1233
 20
75.8467
 30
0.0
 10
-161.6672
 20
75.3329
 30
0.0
 10
-161.6672
 20
75.3329
 30
0.0
 10
-161.6672
 20
75.3329
 30
0.0
 10
-163.9567
 20
72.5148
 30
0.0
 10
-165.0933
 20
71.8376
 30
0.0
 10
-165.0933
 20
71.8376
 30
0.0
 10
-165.6588
 20
71.3316
 30
0.0
 10
-166.6243
 20
71.4458
 30
0.0
 10
-167.0916
 20
71.8376
 30
0.0
 10
-167.0916
 20
71.8376
 30
0.0
 10
-168.1583
 20
72.5433
 30
0.0
 10
-170.6531
 20
75.3203
 30
0.0
 10
-170.6531
 20
75.3203
 30
0.0
 10
-170.6531
 20
75.3203
 30
0.0
 10
-171.1649
 20
76.0175
 30
0.0
 10
-171.243
 20
76.6795
 30
0.0
 10
-171.243
 20
77.623
 30
0.0
 10
-171.243
 20
77.623
 30
0.0
 10
-171.243
 20
77.623
 30
0.0
 10
-171.243
 20
85.7686
 30
0.0
 10
-171.243
 20
85.7686
 30
0.0
 10
-171.243
 20
85.7686
 30
0.0
 10
-171.243
 20
86.7121
 30
0.0
 10
-170.4834
 20
87.4718
 30
0.0
 10
-169.5398
 20
87.4718
 30
0.0
 10
-169.5398
 20
87.4718
 30
0.0
 10
-169.5398
 20
87.4718
 30
0.0
 10
-162.4951
 20
87.4718
 30
0.0
 10
-162.4951
 20
87.4718
 30
0.0
 10
-162.4951
 20
87.4718
 30
0.0
 10
-161.5515
 20
87.4718
 30
0.0
 10
-160.7919
 20
86.7121
 30
0.0
 10
-160.7919
 20
85.7686
 30
0.0
 10
-160.7919
 20
85.7686
 30
0.0
 10
-160.7919
 20
85.7686
 30
0.0
 10
-160.7918
 20
85.7686
 30
0.0
 10
-160.7918
 20
85.7686
 30
0.0
  0
SPLINE
  5
65
330
1F
100
AcDbEntity
  8
layer 1
 62
     7
100
AcDbSpline
210
0.0
220
0.0
230
1.0
 70
     8
 71
     3
 72
    36
 73
    32
 74
     0
 42
0.0000000001
 43
0.0000000001
 12
1.0
 22
0.0
 32
0.0
 13
1.0
 23
0.0
 33
0.0
 40
0.0
 40
0.0
 40
0.0
 40
0.0
 40
0.1111111111111111
 40
0.1111111111111111
 40
0.1111111111111111
 40
0.1111111111111111
 40
0.2222222222222222
 40
0.2222222222222222
 40
0.2222222222222222
 40
0.2222222222222222
 40
0.3333333333333333
 40
0.3333333333333333
 40
0.3333333333333333
 40
0.3333333333333333
 40
0.4444444444444444
 40
0.4444444444444444
 40
0.4444444444444444
 40
0.4444444444444444
 40
0.5555555555555556
 40
0.5555555555555556
 40
0.5555555555555556
 40
0.5555555555555556
 40
0.6666666666666666
 40
0.6666666666666666
 40
0.6666666666666666
 40
0.6666666666666666
 40
0.7777777777777778
 40
0.7777777777777778
 40
0.7777777777777778
 40
0.7777777777777778
 40
1.0
 40
1.0
 40
1.0
 40
1.0
 10
-173.9266
 20
51.466
 30
0.0
 10
-173.9266
 20
51.466
 30
0.0
 10
-173.9266
 20
58.4696
 30
0.0
 10
-173.9266
 20
58.4696
 30
0.0
 10
-173.9266
 20
58.4696
 30
0.0
 10
-173.9265
 20
59.4102
 30
0.0
 10
-174.6892
 20
60.1729
 30
0.0
 10
-175.6298
 20
60.1729
 30
0.0
 10
-175.6298
 20
60.1729
 30
0.0
 10
-175.6298
 20
60.1729
 30
0.0
 10
-182.6745
 20
60.1729
 30
0.0
 10
-182.6745
 20
60.1729
 30
0.0
 10
-182.6745
 20
60.1729
 30
0.0
 10
-183.6149
 20
60.1729
 30
0.0
 10
-184.3777
 20
59.4102
 30
0.0
 10
-184.3777
 20
58.4696
 30
0.0
 10
-184.3777
 20
58.4696
 30
0.0
 10
-184.3777
 20
58.4696
 30
0.0
 10
-184.3777
 20
51.466
 30
0.0
 10
-184.3777
 20
51.466
 30
0.0
 10
-184.3777
 20
51.466
 30
0.0
 10
-184.3777
 20
50.5255
 30
0.0
 10
-183.6149
 20
49.7628
 30
0.0
 10
-182.6744
 20
49.7628
 30
0.0
 10
-182.6744
 20
49.7628
 30
0.0
 10
-182.6744
 20
49.7628
 30
0.0
 10
-175.6298
 20
49.7628
 30
0.0
 10
-175.6298
 20
49.7628
 30
0.0
 10
-175.6298
 20
49.7628
 30
0.0
 10
-174.6892
 20
49.7628
 30
0.0
 10
-173.9265
 20
50.5255
 30
0.0
 10
-173.9265
 20
51.466
 30
0.0
  0
SPLINE
  5
66
330
1F
100
AcDbEntity
  8
layer 1
 62
     7
100
AcDbSpline
210
0.0
220
0.0
230
1.0
 70
     8
 71
     3
 72
    36
 73
    32
 74
     0
 42
0.0000000001
 43
0.0000000001
 12
1.0
 22
0.0
 32
0.0
 13
1.0
 23
0.0
 33
0.0
 40
0.0
 40
0.0
 40
0.0
 40
0.0
 40
0.1111111111111111
 40
0.1111111111111111
 40
0.1111111111111111
 40
0.1111111111111111
 40
0.2222222222222222
 40
0.2222222222222222
 40
0.2222222222222222
 40
0.2222222222222222
 40
0.3333333333333333
 40
0.3333333333333333
 40
0.3333333333333333
 40
0.3333333333333333
 40
0.4444444444444444
 40
0.4444444444444444
 40
0.4444444444444444
 40
0.4444444444444444
 40
0.5555555555555556
 40
0.5555555555555556
 40
0.5555555555555556
 40
0.5555555555555556
 40
0.6666666666666666
 40
0.6666666666666666
 40
0.6666666666666666
 40
0.6666666666666666
 40
0.7777777777777778
 40
0.7777777777777778
 40
0.7777777777777778
 40
0.7777777777777778
 40
1.0
 40
1.0
 40
1.0
 40
1.0
 10
-147.657
 20
51.466
 30
0.0
 10
-147.657
 20
51.466
 30
0.0
 10
-147.657
 20
58.4696
 30
0.0
 10
-147.657
 20
58.4696
 30
0.0
 10
-147.657
 20
58.4696
 30
0.0
 10
-147.6569
 20
59.4102
 30
0.0
 10
-148.4196
 20
60.1729
 30
0.0
 10
-149.3602
 20
60.1729
 30
0.0
 10
-149.3602
 20
60.1729
 30
0.0
 10
-149.3602
 20
60.1729
 30
0.0
 10
-156.4049
 20
60.1729
 30
0.0
 10
-156.4049
 20
60.1729
 30
0.0
 10
-156.4049
 20
60.1729
 30
0.0
 10
-157.3454
 20
60.1729
 30
0.0
 10
-158.1081
 20
59.4102
 30
0.0
 10
-158.1081
 20
58.4696
 30
0.0
 10
-158.1081
 20
58.4696
 30
0.0
 10
-158.1081
 20
58.4696
 30
0.0
 10
-158.1081
 20
51.466
 30
0.0
 10
-158.1081
 20
51.466
 30
0.0
 10
-158.1081
 20
51.466
 30
0.0
 10
-158.1081
 20
50.5255
 30
0.0
 10
-157.3454
 20
49.7628
 30
0.0
 10
-156.4048
 20
49.7628
 30
0.0
 10
-156.4048
 20
49.7628
 30
0.0
 10
-156.4048
 20
49.7628
 30
0.0
 10
-149.3602
 20
49.7628
 30
0.0
 10
-149.3602
 20
49.7628
 30
0.0
 10
-149.3602
 20
49.7628
 30
0.0
 10
-148.4196
 20
49.7628
 30
0.0
 10
-147.6569
 20
50.5255
 30
0.0
 10
-147.6569
 20
51.466
 30
0.0
  0
SPLINE
  5
67
330
1F
100
AcDbEntity
  8
layer 1
 62
     7
100
AcDbSpline
210
0.0
220
0.0
230
1.0
 70
    11
 71
     3
 72
    48
 73
    44
 74
     0
 42
0.0000000001
 43
0.0000000001
 12
1.0
 22
0.0
 32
0.0
 13
1.0
 23
0.0
 33
0.0
 40
0.0
 40
0.0
 40
0.0
 40
0.0
 40
0.0833333333333333
 40
0.0833333333333333
 40
0.0833333333333333
 40
0.0833333333333333
 40
0.1666666666666667
 40
0.1666666666666667
 40
0.1666666666666667
 40
0.1666666666666667
 40
0.25
 40
0.25
 40
0.25
 40
0.25
 40
0.3333333333333333
 40
0.3333333333333333
 40
0.3333333333333333
 40
0.3333333333333333
 40
0.4166666666666667
 40
0.4166666666666667
 40
0.4166666666666667
 40
0.4166666666666667
 40
0.5
 40
0.5
 40
0.5
 40
0.5
 40
0.5833333333333334
 40
0.5833333333333334
 40
0.5833333333333334
 40
0.5833333333333334
 40
0.6666666666666666
 40
0.6666666666666666
 40
0.6666666666666666
 40
0.6666666666666666
 40
0.75
 40
0.75
 40
0.75
 40
0.75
 40
0.8333333333333334
 40
0.8333333333333334
 40
0.8333333333333334
 40
0.8333333333333334
 40
1.0
 40
1.0
 40
1.0
 40
1.0
 10
-160.7918
 20
51.466
 30
0.0
 10
-160.7918
 20
51.466
 30
0.0
 10
-160.7918
 20
59.6115
 30
0.0
 10
-160.7918
 20
59.6115
 30
0.0
 10
-160.7918
 20
59.6115
 30
0.0
 10
-160.7918
 20
60.4124
 30
0.0
 10
-161.1233
 20
61.3878
 30
0.0
 10
-161.6672
 20
61.9017
 30
0.0
 10
-161.6672
 20
61.9017
 30
0.0
 10
-161.6672
 20
61.9017
 30
0.0
 10
-163.9567
 20
64.7198
 30
0.0
 10
-165.0933
 20
65.397
 30
0.0
 10
-165.0933
 20
65.397
 30
0.0
 10
-165.6588
 20
65.903
 30
0.0
 10
-166.6243
 20
65.7887
 30
0.0
 10
-167.0916
 20
65.397
 30
0.0
 10
-167.0916
 20
65.397
 30
0.0
 10
-168.1583
 20
64.6912
 30
0.0
 10
-170.6531
 20
61.9143
 30
0.0
 10
-170.6531
 20
61.9143
 30
0.0
 10
-170.6531
 20
61.9143
 30
0.0
 10
-171.1649
 20
61.2171
 30
0.0
 10
-171.243
 20
60.5551
 30
0.0
 10
-171.243
 20
59.6115
 30
0.0
 10
-171.243
 20
59.6115
 30
0.0
 10
-171.243
 20
59.6115
 30
0.0
 10
-171.243
 20
51.466
 30
0.0
 10
-171.243
 20
51.466
 30
0.0
 10
-171.243
 20
51.466
 30
0.0
 10
-171.243
 20
50.5224
 30
0.0
 10
-170.4834
 20
49.7628
 30
0.0
 10
-169.5398
 20
49.7628
 30
0.0
 10
-169.5398
 20
49.7628
 30
0.0
 10
-169.5398
 20
49.7628
 30
0.0
 10
-162.4951
 20
49.7628
 30
0.0
 10
-162.4951
 20
49.7628
 30
0.0
 10
-162.4951
 20
49.7628
 30
0.0
 10
-161.5515
 20
49.7628
 30
0.0
 10
-160.7919
 20
50.5224
 30
0.0
 10
-160.7919
 20
51.466
 30
0.0
 10
-160.7919
 20
51.466
 30
0.0
 10
-160.7919
 20
51.466
 30
0.0
 10
-160.7918
 20
51.466
 30
0.0
 10
-160.7918
 20
51.466
 30
0.0
  0
SPLINE
  5
68
330
1F
100
AcDbEntity
  8
layer 1
 62
     7
100
AcDbSpline
210
0.0
220
0.0
230
1.0
 70
    11
 71
     3
 72
    48
 73
    44
 74
     0
 42
0.0000000001
 43
0.0000000001
 12
1.0
 22
0.0
 32
0.0
 13
1.0
 23
0.0
 33
0.0
 40
0.0
 40
0.0
 40
0.0
 40
0.0
 40
0.0833333333333333
 40
0.0833333333333333
 40
0.0833333333333333
 40
0.0833333333333333
 40
0.1666666666666667
 40
0.1666666666666667
 40
0.1666666666666667
 40
0.1666666666666667
 40
0.25
 40
0.25
 40
0.25
 40
0.25
 40
0.3333333333333333
 40
0.3333333333333333
 40
0.3333333333333333
 40
0.3333333333333333
 40
0.4166666666666667
 40
0.4166666666666667
 40
0.4166666666666667
 40
0.4166666666666667
 40
0.5
 40
0.5
 40
0.5
 40
0.5
 40
0.5833333333333334
 40
0.5833333333333334
 40
0.5833333333333334
 40
0.5833333333333334
 40
0.6666666666666666
 40
0.6666666666666666
 40
0.6666666666666666
 40
0.6666666666666666
 40
0.75
 40
0.75
 40
0.75
 40
0.75
 40
0.8333333333333334
 40
0.8333333333333334
 40
0.8333333333333334
 40
0.8333333333333334
 40
1.0
 40
1.0
 40
1.0
 40
1.0
 10
-182.6745
 20
63.4122
 30
0.0
 10
-182.6745
 20
63.4122
 30
0.0
 10
-174.529
 20
63.4122
 30
0.0
 10
-174.529
 20
63.4122
 30
0.0
 10
-174.529
 20
63.4122
 30
0.0
 10
-173.7281
 20
63.4122
 30
0.0
 10
-172.7527
 20
63.7437
 30
0.0
 10
-172.2388
 20
64.2876
 30
0.0
 10
-172.2388
 20
64.2876
 30
0.0
 10
-172.2388
 20
64.2876
 30
0.0
 10
-169.4207
 20
66.5772
 30
0.0
 10
-168.7435
 20
67.7137
 30
0.0
 10
-168.7435
 20
67.7137
 30
0.0
 10
-168.2375
 20
68.2793
 30
0.0
 10
-168.3518
 20
69.2447
 30
0.0
 10
-168.7435
 20
69.712
 30
0.0
 10
-168.7435
 20
69.712
 30
0.0
 10
-169.4493
 20
70.7787
 30
0.0
 10
-172.2262
 20
73.2736
 30
0.0
 10
-172.2262
 20
73.2736
 30
0.0
 10
-172.2262
 20
73.2736
 30
0.0
 10
-172.9234
 20
73.7853
 30
0.0
 10
-173.5854
 20
73.8634
 30
0.0
 10
-174.529
 20
73.8634
 30
0.0
 10
-174.529
 20
73.8634
 30
0.0
 10
-174.529
 20
73.8634
 30
0.0
 10
-182.6745
 20
73.8634
 30
0.0
 10
-182.6745
 20
73.8634
 30
0.0
 10
-182.6745
 20
73.8634
 30
0.0
 10
-183.6181
 20
73.8634
 30
0.0
 10
-184.3777
 20
73.1038
 30
0.0
 10
-184.3777
 20
72.1602
 30
0.0
 10
-184.3777
 20
72.1602
 30
0.0
 10
-184.3777
 20
72.1602
 30
0.0
 10
-184.3777
 20
65.1155
 30
0.0
 10
-184.3777
 20
65.1155
 30
0.0
 10
-184.3777
 20
65.1155
 30
0.0
 10
-184.3777
 20
64.172
 30
0.0
 10
-183.6181
 20
63.4123
 30
0.0
 10
-182.6745
 20
63.4123
 30
0.0
 10
-182.6745
 20
63.4123
 30
0.0
 10
-182.6745
 20
63.4123
 30
0.0
 10
-182.6745
 20
63.4122
 30
0.0
 10
-182.6745
 20
63.4122
 30
0.0
  0
SPLINE
  5
69
330
1F
100
AcDbEntity
  8
layer 1
 62
     7
100
AcDbSpline
210
0.0
220
0.0
230
1.0
 70
    11
 71
     3
 72
    48
 73
    44
 74
     0
 42
0.0000000001
 43
0.0000000001
 12
1.0
 22
0.0
 32
0.0
 13
1.0
 23
0.0
 33
0.0
 40
0.0
 40
0.0
 40
0.0
 40
0.0
 40
0.0833333333333333
 40
0.0833333333333333
 40
0.0833333333333333
 40
0.0833333333333333
 40
0.1666666666666667
 40
0.1666666666666667
 40
0.1666666666666667
 40
0.1666666666666667
 40
0.25
 40
0.25
 40
0.25
 40
0.25
 40
0.3333333333333333
 40
0.3333333333333333
 40
0.3333333333333333
 40
0.3333333333333333
 40
0.4166666666666667
 40
0.4166666666666667
 40
0.4166666666666667
 40
0.4166666666666667
 40
0.5
 40
0.5
 40
0.5
 40
0.5
 40
0.5833333333333334
 40
0.5833333333333334
 40
0.5833333333333334
 40
0.5833333333333334
 40
0.6666666666666666
 40
0.6666666666666666
 40
0.6666666666666666
 40
0.6666666666666666
 40
0.75
 40
0.75
 40
0.75
 40
0.75
 40
0.8333333333333334
 40
0.8333333333333334
 40
0.8333333333333334
 40
0.8333333333333334
 40
1.0
 40
1.0
 40
1.0
 40
1.0
 10
-149.3983
 20
63.4122
 30
0.0
 10
-149.3983
 20
63.4122
 30
0.0
 10
-157.5438
 20
63.4122
 30
0.0
 10
-157.5438
 20
63.4122
 30
0.0
 10
-157.5438
 20
63.4122
 30
0.0
 10
-158.3447
 20
63.4122
 30
0.0
 10
-159.3202
 20
63.7437
 30
0.0
 10
-159.834
 20
64.2876
 30
0.0
 10
-159.834
 20
64.2876
 30
0.0
 10
-159.834
 20
64.2876
 30
0.0
 10
-162.6521
 20
66.5772
 30
0.0
 10
-163.3293
 20
67.7137
 30
0.0
 10
-163.3293
 20
67.7137
 30
0.0
 10
-163.8353
 20
68.2793
 30
0.0
 10
-163.721
 20
69.2447
 30
0.0
 10
-163.3293
 20
69.712
 30
0.0
 10
-163.3293
 20
69.712
 30
0.0
 10
-162.6235
 20
70.7787
 30
0.0
 10
-159.8466
 20
73.2736
 30
0.0
 10
-159.8466
 20
73.2736
 30
0.0
 10
-159.8466
 20
73.2736
 30
0.0
 10
-159.1494
 20
73.7853
 30
0.0
 10
-158.4874
 20
73.8634
 30
0.0
 10
-157.5438
 20
73.8634
 30
0.0
 10
-157.5438
 20
73.8634
 30
0.0
 10
-157.5438
 20
73.8634
 30
0.0
 10
-149.3983
 20
73.8634
 30
0.0
 10
-149.3983
 20
73.8634
 30
0.0
 10
-149.3983
 20
73.8634
 30
0.0
 10
-148.4547
 20
73.8634
 30
0.0
 10
-147.6951
 20
73.1038
 30
0.0
 10
-147.6951
 20
72.1602
 30
0.0
 10
-147.6951
 20
72.1602
 30
0.0
 10
-147.6951
 20
72.1602
 30
0.0
 10
-147.6951
 20
65.1155
 30
0.0
 10
-147.6951
 20
65.1155
 30
0.0
 10
-147.6951
 20
65.1155
 30
0.0
 10
-147.6951
 20
64.172
 30
0.0
 10
-148.4547
 20
63.4123
 30
0.0
 10
-149.3983
 20
63.4123
 30
0.0
 10
-149.3983
 20
63.4123
 30
0.0
 10
-149.3983
 20
63.4123
 30
0.0
 10
-149.3983
 20
63.4122
 30
0.0
 10
-149.3983
 20
63.4122
 30
0.0
  0
SPLINE
  5
6A
330
1F
100
AcDbEntity
  8
layer 1
 62
     7
100
AcDbSpline
210
0.0
220
0.0
230
1.0
 70
    11
 71
     3
 72
    32
 73
    28
 74
     0
 42
0.0000000001
 43
0.0000000001
 12
1.0
 22
0.0
 32
0.0
 13
1.0
 23
0.0
 33
0.0
 40
0.0
 40
0.0
 40
0.0
 40
0.0
 40
0.125
 40
0.125
 40
0.125
 40
0.125
 40
0.25
 40
0.25
 40
0.25
 40
0.25
 40
0.375
 40
0.375
 40
0.375
 40
0.375
 40
0.5
 40
0.5
 40
0.5
 40
0.5
 40
0.625
 40
0.625
 40
0.625
 40
0.625
 40
0.75
 40
0.75
 40
0.75
 40
0.75
 40
1.0
 40
1.0
 40
1.0
 40
1.0
 10
-129.1614
 20
87.3622
 30
0.0
 10
-129.1614
 20
87.3622
 30
0.0
 10
-142.5824
 20
87.4317
 30
0.0
 10
-142.5824
 20
87.4317
 30
0.0
 10
-142.5824
 20
87.4317
 30
0.0
 10
-143.7411
 20
87.3763
 30
0.0
 10
-144.6571
 20
86.7671
 30
0.0
 10
-144.5527
 20
85.5166
 30
0.0
 10
-144.5527
 20
85.5166
 30
0.0
 10
-144.5527
 20
85.5166
 30
0.0
 10
-144.5157
 20
71.4114
 30
0.0
 10
-144.5157
 20
71.4114
 30
0.0
 10
-144.5157
 20
71.4114
 30
0.0
 10
-144.4902
 20
69.8988
 30
0.0
 10
-142.7353
 20
69.6794
 30
0.0
 10
-141.8112
 20
70.4184
 30
0.0
 10
-141.8112
 20
70.4184
 30
0.0
 10
-141.8112
 20
70.4184
 30
0.0
 10
-128.3009
 20
84.3703
 30
0.0
 10
-128.3009
 20
84.3703
 30
0.0
 10
-128.3009
 20
84.3703
 30
0.0
 10
-127.4291
 20
85.2482
 30
0.0
 10
-127.5166
 20
87.1687
 30
0.0
 10
-129.1613
 20
87.3622
 30
0.0
 10
-129.1613
 20
87.3622
 30
0.0
 10
-129.1613
 20
87.3622
 30
0.0
 10
-129.1614
 20
87.3622
 30
0.0
 10
-129.1614
 20
87.3622
 30
0.0
  0
SPLINE
  5
6B
330
1F
100
AcDbEntity
  8
layer 1
 62
     7
100
AcDbSpline
210
0.0
220
0.0
230
1.0
 70
    11
 71
     3
 72
    28
 73
    24
 74
     0
 42
0.0000000001
 43
0.0000000001
 12
1.0
 22
0.0
 32
0.0
 13
1.0
 23
0.0
 33
0.0
 40
0.0
 40
0.0
 40
0.0
 40
0.0
 40
0.1428571428571428
 40
0.1428571428571428
 40
0.1428571428571428
 40
0.1428571428571428
 40
0.2857142857142857
 40
0.2857142857142857
 40
0.2857142857142857
 40
0.2857142857142857
 40
0.4285714285714285
 40
0.4285714285714285
 40
0.4285714285714285
 40
0.4285714285714285
 40
0.5714285714285714
 40
0.5714285714285714
 40
0.5714285714285714
 40
0.5714285714285714
 40
0.7142857142857143
 40
0.7142857142857143
 40
0.7142857142857143
 40
0.7142857142857143
 40
1.0
 40
1.0
 40
1.0
 40
1.0
 10
-123.2788
 20
87.3622
 30
0.0
 10
-123.2788
 20
87.3622
 30
0.0
 10
-109.8577
 20
87.4317
 30
0.0
 10
-109.8577
 20
87.4317
 30
0.0
 10
-109.8577
 20
87.4317
 30
0.0
 10
-108.699
 20
87.3763
 30
0.0
 10
-107.7829
 20
86.7671
 30
0.0
 10
-107.8873
 20
85.5166
 30
0.0
 10
-107.8873
 20
85.5166
 30
0.0
 10
-107.8873
 20
85.5166
 30
0.0
 10
-107.9244
 20
71.4114
 30
0.0
 10
-107.9244
 20
71.4114
 30
0.0
 10
-107.9244
 20
71.4114
 30
0.0
 10
-107.9499
 20
69.8988
 30
0.0
 10
-109.7048
 20
69.6794
 30
0.0
 10
-110.6289
 20
70.4184
 30
0.0
 10
-110.6289
 20
70.4184
 30
0.0
 10
-110.6289
 20
70.4184
 30
0.0
 10
-124.1391
 20
84.3703
 30
0.0
 10
-124.1391
 20
84.3703
 30
0.0
 10
-124.1391
 20
84.3703
 30
0.0
 10
-125.0109
 20
85.2482
 30
0.0
 10
-124.9235
 20
87.1687
 30
0.0
 10
-123.2788
 20
87.3622
 30
0.0
  0
SPLINE
  5
6C
330
1F
100
AcDbEntity
  8
layer 1
 62
     7
100
AcDbSpline
210
0.0
220
0.0
230
1.0
 70
    11
 71
     3
 72
    32
 73
    28
 74
     0
 42
0.0000000001
 43
0.0000000001
 12
1.0
 22
0.0
 32
0.0
 13
1.0
 23
0.0
 33
0.0
 40
0.0
 40
0.0
 40
0.0
 40
0.0
 40
0.125
 40
0.125
 40
0.125
 40
0.125
 40
0.25
 40
0.25
 40
0.25
 40
0.25
 40
0.375
 40
0.375
 40
0.375
 40
0.375
 40
0.5
 40
0.5
 40
0.5
 40
0.5
 40
0.625
 40
0.625
 40
0.625
 40
0.625
 40
0.75
 40
0.75
 40
0.75
 40
0.75
 40
1.0
 40
1.0
 40
1.0
 40
1.0
 10
-129.1614
 20
49.8141
 30
0.0
 10
-129.1614
 20
49.8141
 30
0.0
 10
-142.5824
 20
49.7447
 30
0.0
 10
-142.5824
 20
49.7447
 30
0.0
 10
-142.5824
 20
49.7447
 30
0.0
 10
-143.7411
 20
49.8
 30
0.0
 10
-144.6571
 20
50.4092
 30
0.0
 10
-144.5527
 20
51.6598
 30
0.0
 10
-144.5527
 20
51.6598
 30
0.0
 10
-144.5527
 20
51.6598
 30
0.0
 10
-144.5157
 20
65.765
 30
0.0
 10
-144.5157
 20
65.765
 30
0.0
 10
-144.5157
 20
65.765
 30
0.0
 10
-144.4902
 20
67.2775
 30
0.0
 10
-142.7353
 20
67.497
 30
0.0
 10
-141.8112
 20
66.758
 30
0.0
 10
-141.8112
 20
66.758
 30
0.0
 10
-141.8112
 20
66.758
 30
0.0
 10
-128.3009
 20
52.8059
 30
0.0
 10
-128.3009
 20
52.8059
 30
0.0
 10
-128.3009
 20
52.8059
 30
0.0
 10
-127.4291
 20
51.9281
 30
0.0
 10
-127.5166
 20
50.0076
 30
0.0
 10
-129.1613
 20
49.8141
 30
0.0
 10
-129.1613
 20
49.8141
 30
0.0
 10
-129.1613
 20
49.8141
 30
0.0
 10
-129.1614
 20
49.8141
 30
0.0
 10
-129.1614
 20
49.8141
 30
0.0
  0
SPLINE
  5
6D
330
1F
100
AcDbEntity
  8
layer 1
 62
     7
100
AcDbSpline
210
0.0
220
0.0
230
1.0
 70
    11
 71
     3
 72
    32
 73
    28
 74
     0
 42
0.0000000001
 43
0.0000000001
 12
1.0
 22
0.0
 32
0.0
 13
1.0
 23
0.0
 33
0.0
 40
0.0
 40
0.0
 40
0.0
 40
0.0
 40
0.125
 40
0.125
 40
0.125
 40
0.125
 40
0.25
 40
0.25
 40
0.25
 40
0.25
 40
0.375
 40
0.375
 40
0.375
 40
0.375
 40
0.5
 40
0.5
 40
0.5
 40
0.5
 40
0.625
 40
0.625
 40
0.625
 40
0.625
 40
0.75
 40
0.75
 40
0.75
 40
0.75
 40
1.0
 40
1.0
 40
1.0
 40
1.0
 10
-123.2788
 20
49.8141
 30
0.0
 10
-123.2788
 20
49.8141
 30
0.0
 10
-109.8577
 20
49.7447
 30
0.0
 10
-109.8577
 20
49.7447
 30
0.0
 10
-109.8577
 20
49.7447
 30
0.0
 10
-108.699
 20
49.8
 30
0.0
 10
-107.7829
 20
50.4092
 30
0.0
 10
-107.8873
 20
51.6598
 30
0.0
 10
-107.8873
 20
51.6598
 30
0.0
 10
-107.8873
 20
51.6598
 30
0.0
 10
-107.9244
 20
65.765
 30
0.0
 10
-107.9244
 20
65.765
 30
0.0
 10
-107.9244
 20
65.765
 30
0.0
 10
-107.9499
 20
67.2775
 30
0.0
 10
-109.7048
 20
67.497
 30
0.0
 10
-110.6289
 20
66.758
 30
0.0
 10
-110.6289
 20
66.758
 30
0.0
 10
-110.6289
 20
66.758
 30
0.0
 10
-124.1391
 20
52.8059
 30
0.0
 10
-124.1391
 20
52.8059
 30
0.0
 10
-124.1391
 20
52.8059
 30
0.0
 10
-125.0109
 20
51.9281
 30
0.0
 10
-124.9235
 20
50.0076
 30
0.0
 10
-123.2788
 20
49.8141
 30
0.0
 10
-123.2788
 20
49.8141
 30
0.0
 10
-123.2788
 20
49.8141
 30
0.0
 10
-123.2788
 20
49.8141
 30
0.0
 10
-123.2788
 20
49.8141
 30
0.0
  0
SPLINE
  5
6E
330
1F
100
AcDbEntity
  8
layer 1
 62
     7
100
AcDbSpline
210
0.0
220
0.0
230
1.0
 70
     8
 71
     3
 72
    36
 73
    32
 74
     0
 42
0.0000000001
 43
0.0000000001
 12
1.0
 22
0.0
 32
0.0
 13
1.0
 23
0.0
 33
0.0
 40
0.0
 40
0.0
 40
0.0
 40
0.0
 40
0.1111111111111111
 40
0.1111111111111111
 40
0.1111111111111111
 40
0.1111111111111111
 40
0.2222222222222222
 40
0.2222222222222222
 40
0.2222222222222222
 40
0.2222222222222222
 40
0.3333333333333333
 40
0.3333333333333333
 40
0.3333333333333333
 40
0.3333333333333333
 40
0.4444444444444444
 40
0.4444444444444444
 40
0.4444444444444444
 40
0.4444444444444444
 40
0.5555555555555556
 40
0.5555555555555556
 40
0.5555555555555556
 40
0.5555555555555556
 40
0.6666666666666666
 40
0.6666666666666666
 40
0.6666666666666666
 40
0.6666666666666666
 40
0.7777777777777778
 40
0.7777777777777778
 40
0.7777777777777778
 40
0.7777777777777778
 40
1.0
 40
1.0
 40
1.0
 40
1.0
 10
-125.0275
 20
80.6221
 30
0.0
 10
-125.0275
 20
80.6221
 30
0.0
 10
-122.0032
 20
77.5977
 30
0.0
 10
-122.0032
 20
77.5977
 30
0.0
 10
-122.0032
 20
77.5977
 30
0.0
 10
-121.3382
 20
76.9326
 30
0.0
 10
-121.3382
 20
75.8539
 30
0.0
 10
-122.0032
 20
75.1889
 30
0.0
 10
-122.0032
 20
75.1889
 30
0.0
 10
-122.0032
 20
75.1889
 30
0.0
 10
-125.0275
 20
72.1646
 30
0.0
 10
-125.0275
 20
72.1646
 30
0.0
 10
-125.0275
 20
72.1646
 30
0.0
 10
-125.6927
 20
71.4994
 30
0.0
 10
-126.7713
 20
71.4994
 30
0.0
 10
-127.4364
 20
72.1645
 30
0.0
 10
-127.4364
 20
72.1645
 30
0.0
 10
-127.4364
 20
72.1645
 30
0.0
 10
-130.4607
 20
75.1889
 30
0.0
 10
-130.4607
 20
75.1889
 30
0.0
 10
-130.4607
 20
75.1889
 30
0.0
 10
-131.1257
 20
75.8539
 30
0.0
 10
-131.1257
 20
76.9325
 30
0.0
 10
-130.4606
 20
77.5976
 30
0.0
 10
-130.4606
 20
77.5976
 30
0.0
 10
-130.4606
 20
77.5976
 30
0.0
 10
-127.4364
 20
80.6221
 30
0.0
 10
-127.4364
 20
80.6221
 30
0.0
 10
-127.4364
 20
80.6221
 30
0.0
 10
-126.7712
 20
81.287
 30
0.0
 10
-125.6926
 20
81.287
 30
0.0
 10
-125.0275
 20
80.622
 30
0.0
  0
SPLINE
  5
6F
330
1F
100
AcDbEntity
  8
layer 1
 62
     7
100
AcDbSpline
210
0.0
220
0.0
230
1.0
 70
     8
 71
     3
 72
    36
 73
    32
 74
     0
 42
0.0000000001
 43
0.0000000001
 12
1.0
 22
0.0
 32
0.0
 13
1.0
 23
0.0
 33
0.0
 40
0.0
 40
0.0
 40
0.0
 40
0.0
 40
0.1111111111111111
 40
0.1111111111111111
 40
0.1111111111111111
 40
0.1111111111111111
 40
0.2222222222222222
 40
0.2222222222222222
 40
0.2222222222222222
 40
0.2222222222222222
 40
0.3333333333333333
 40
0.3333333333333333
 40
0.3333333333333333
 40
0.3333333333333333
 40
0.4444444444444444
 40
0.4444444444444444
 40
0.4444444444444444
 40
0.4444444444444444
 40
0.5555555555555556
 40
0.5555555555555556
 40
0.5555555555555556
 40
0.5555555555555556
 40
0.6666666666666666
 40
0.6666666666666666
 40
0.6666666666666666
 40
0.6666666666666666
 40
0.7777777777777778
 40
0.7777777777777778
 40
0.7777777777777778
 40
0.7777777777777778
 40
1.0
 40
1.0
 40
1.0
 40
1.0
 10
-125.0275
 20
65.0275
 30
0.0
 10
-125.0275
 20
65.0275
 30
0.0
 10
-122.0032
 20
62.0031
 30
0.0
 10
-122.0032
 20
62.0031
 30
0.0
 10
-122.0032
 20
62.0031
 30
0.0
 10
-121.3382
 20
61.3379
 30
0.0
 10
-121.3382
 20
60.2594
 30
0.0
 10
-122.0032
 20
59.5942
 30
0.0
 10
-122.0032
 20
59.5942
 30
0.0
 10
-122.0032
 20
59.5942
 30
0.0
 10
-125.0275
 20
56.5701
 30
0.0
 10
-125.0275
 20
56.5701
 30
0.0
 10
-125.0275
 20
56.5701
 30
0.0
 10
-125.6926
 20
55.9049
 30
0.0
 10
-126.7712
 20
55.9049
 30
0.0
 10
-127.4363
 20
56.57
 30
0.0
 10
-127.4363
 20
56.57
 30
0.0
 10
-127.4363
 20
56.57
 30
0.0
 10
-130.4607
 20
59.5944
 30
0.0
 10
-130.4607
 20
59.5944
 30
0.0
 10
-130.4607
 20
59.5944
 30
0.0
 10
-131.1257
 20
60.2594
 30
0.0
 10
-131.1257
 20
61.338
 30
0.0
 10
-130.4606
 20
62.0031
 30
0.0
 10
-130.4606
 20
62.0031
 30
0.0
 10
-130.4606
 20
62.0031
 30
0.0
 10
-127.4364
 20
65.0275
 30
0.0
 10
-127.4364
 20
65.0275
 30
0.0
 10
-127.4364
 20
65.0275
 30
0.0
 10
-126.7713
 20
65.6924
 30
0.0
 10
-125.6927
 20
65.6924
 30
0.0
 10
-125.0276
 20
65.0274
 30
0.0
  0
SPLINE
  5
70
330
1F
100
AcDbEntity
  8
layer 1
 62
     7
100
AcDbSpline
210
0.0
220
0.0
230
1.0
 70
     8
 71
     3
 72
    36
 73
    32
 74
     0
 42
0.0000000001
 43
0.0000000001
 12
1.0
 22
0.0
 32
0.0
 13
1.0
 23
0.0
 33
0.0
 40
0.0
 40
0.0
 40
0.0
 40
0.0
 40
0.1111111111111111
 40
0.1111111111111111
 40
0.1111111111111111
 40
0.1111111111111111
 40
0.2222222222222222
 40
0.2222222222222222
 40
0.2222222222222222
 40
0.2222222222222222
 40
0.3333333333333333
 40
0.3333333333333333
 40
0.3333333333333333
 40
0.3333333333333333
 40
0.4444444444444444
 40
0.4444444444444444
 40
0.4444444444444444
 40
0.4444444444444444
 40
0.5555555555555556
 40
0.5555555555555556
 40
0.5555555555555556
 40
0.5555555555555556
 40
0.6666666666666666
 40
0.6666666666666666
 40
0.6666666666666666
 40
0.6666666666666666
 40
0.7777777777777778
 40
0.7777777777777778
 40
0.7777777777777778
 40
0.7777777777777778
 40
1.0
 40
1.0
 40
1.0
 40
1.0
 10
-132.5981
 20
72.8248
 30
0.0
 10
-132.5981
 20
72.8248
 30
0.0
 10
-129.5738
 20
69.8005
 30
0.0
 10
-129.5738
 20
69.8005
 30
0.0
 10
-129.5738
 20
69.8005
 30
0.0
 10
-128.9087
 20
69.1353
 30
0.0
 10
-128.9087
 20
68.0566
 30
0.0
 10
-129.5737
 20
67.3916
 30
0.0
 10
-129.5737
 20
67.3916
 30
0.0
 10
-129.5737
 20
67.3916
 30
0.0
 10
-132.5981
 20
64.3673
 30
0.0
 10
-132.5981
 20
64.3673
 30
0.0
 10
-132.5981
 20
64.3673
 30
0.0
 10
-133.2632
 20
63.7021
 30
0.0
 10
-134.3417
 20
63.7021
 30
0.0
 10
-135.0069
 20
64.3672
 30
0.0
 10
-135.0069
 20
64.3672
 30
0.0
 10
-135.0069
 20
64.3672
 30
0.0
 10
-138.0313
 20
67.3917
 30
0.0
 10
-138.0313
 20
67.3917
 30
0.0
 10
-138.0313
 20
67.3917
 30
0.0
 10
-138.6962
 20
68.0566
 30
0.0
 10
-138.6962
 20
69.1352
 30
0.0
 10
-138.0312
 20
69.8003
 30
0.0
 10
-138.0312
 20
69.8003
 30
0.0
 10
-138.0312
 20
69.8003
 30
0.0
 10
-135.0069
 20
72.8248
 30
0.0
 10
-135.0069
 20
72.8248
 30
0.0
 10
-135.0069
 20
72.8248
 30
0.0
 10
-134.3417
 20
73.4897
 30
0.0
 10
-133.2631
 20
73.4897
 30
0.0
 10
-132.5981
 20
72.8247
 30
0.0
  0
SPLINE
  5
71
330
1F
100
AcDbEntity
  8
layer 1
 62
     7
100
AcDbSpline
210
0.0
220
0.0
230
1.0
 70
     8
 71
     3
 72
    36
 73
    32
 74
     0
 42
0.0000000001
 43
0.0000000001
 12
1.0
 22
0.0
 32
0.0
 13
1.0
 23
0.0
 33
0.0
 40
0.0
 40
0.0
 40
0.0
 40
0.0
 40
0.1111111111111111
 40
0.1111111111111111
 40
0.1111111111111111
 40
0.1111111111111111
 40
0.2222222222222222
 40
0.2222222222222222
 40
0.2222222222222222
 40
0.2222222222222222
 40
0.3333333333333333
 40
0.3333333333333333
 40
0.3333333333333333
 40
0.3333333333333333
 40
0.4444444444444444
 40
0.4444444444444444
 40
0.4444444444444444
 40
0.4444444444444444
 40
0.5555555555555556
 40
0.5555555555555556
 40
0.5555555555555556
 40
0.5555555555555556
 40
0.6666666666666666
 40
0.6666666666666666
 40
0.6666666666666666
 40
0.6666666666666666
 40
0.7777777777777778
 40
0.7777777777777778
 40
0.7777777777777778
 40
0.7777777777777778
 40
1.0
 40
1.0
 40
1.0
 40
1.0
 10
-117.4117
 20
72.8248
 30
0.0
 10
-117.4117
 20
72.8248
 30
0.0
 10
-114.3872
 20
69.8005
 30
0.0
 10
-114.3872
 20
69.8005
 30
0.0
 10
-114.3872
 20
69.8005
 30
0.0
 10
-113.7222
 20
69.1353
 30
0.0
 10
-113.7222
 20
68.0566
 30
0.0
 10
-114.3872
 20
67.3916
 30
0.0
 10
-114.3872
 20
67.3916
 30
0.0
 10
-114.3872
 20
67.3916
 30
0.0
 10
-117.4117
 20
64.3673
 30
0.0
 10
-117.4117
 20
64.3673
 30
0.0
 10
-117.4117
 20
64.3673
 30
0.0
 10
-118.0767
 20
63.7022
 30
0.0
 10
-119.1553
 20
63.7022
 30
0.0
 10
-119.8204
 20
64.3672
 30
0.0
 10
-119.8204
 20
64.3672
 30
0.0
 10
-119.8204
 20
64.3672
 30
0.0
 10
-122.8447
 20
67.3917
 30
0.0
 10
-122.8447
 20
67.3917
 30
0.0
 10
-122.8447
 20
67.3917
 30
0.0
 10
-123.5098
 20
68.0566
 30
0.0
 10
-123.5098
 20
69.1353
 30
0.0
 10
-122.8447
 20
69.8003
 30
0.0
 10
-122.8447
 20
69.8003
 30
0.0
 10
-122.8447
 20
69.8003
 30
0.0
 10
-119.8204
 20
72.8248
 30
0.0
 10
-119.8204
 20
72.8248
 30
0.0
 10
-119.8204
 20
72.8248
 30
0.0
 10
-119.1553
 20
73.4897
 30
0.0
 10
-118.0767
 20
73.4897
 30
0.0
 10
-117.4116
 20
72.8247
 30
0.0
  0
SPLINE
  5
72
330
1F
100
AcDbEntity
  8
layer 1
 62
     7
100
AcDbSpline
210
0.0
220
0.0
230
1.0
 70
    11
 71
     3
 72
    32
 73
    28
 74
     0
 42
0.0000000001
 43
0.0000000001
 12
1.0
 22
0.0
 32
0.0
 13
1.0
 23
0.0
 33
0.0
 40
0.0
 40
0.0
 40
0.0
 40
0.0
 40
0.125
 40
0.125
 40
0.125
 40
0.125
 40
0.25
 40
0.25
 40
0.25
 40
0.25
 40
0.375
 40
0.375
 40
0.375
 40
0.375
 40
0.5
 40
0.5
 40
0.5
 40
0.5
 40
0.625
 40
0.625
 40
0.625
 40
0.625
 40
0.75
 40
0.75
 40
0.75
 40
0.75
 40
1.0
 40
1.0
 40
1.0
 40
1.0
 10
-168.9353
 20
47.3147
 30
0.0
 10
-168.9353
 20
47.3147
 30
0.0
 10
-182.3563
 20
47.384
 30
0.0
 10
-182.3563
 20
47.384
 30
0.0
 10
-182.3563
 20
47.384
 30
0.0
 10
-183.5151
 20
47.3287
 30
0.0
 10
-184.4311
 20
46.7195
 30
0.0
 10
-184.3267
 20
45.4689
 30
0.0
 10
-184.3267
 20
45.4689
 30
0.0
 10
-184.3267
 20
45.4689
 30
0.0
 10
-184.2896
 20
31.3638
 30
0.0
 10
-184.2896
 20
31.3638
 30
0.0
 10
-184.2896
 20
31.3638
 30
0.0
 10
-184.2641
 20
29.8512
 30
0.0
 10
-182.5092
 20
29.6317
 30
0.0
 10
-181.5851
 20
30.3708
 30
0.0
 10
-181.5851
 20
30.3708
 30
0.0
 10
-181.5851
 20
30.3708
 30
0.0
 10
-168.0749
 20
44.3228
 30
0.0
 10
-168.0749
 20
44.3228
 30
0.0
 10
-168.0749
 20
44.3228
 30
0.0
 10
-167.2031
 20
45.2007
 30
0.0
 10
-167.2905
 20
47.1211
 30
0.0
 10
-168.9353
 20
47.3147
 30
0.0
 10
-168.9353
 20
47.3147
 30
0.0
 10
-168.9353
 20
47.3147
 30
0.0
 10
-168.9353
 20
47.3147
 30
0.0
 10
-168.9353
 20
47.3147
 30
0.0
  0
SPLINE
  5
73
330
1F
100
AcDbEntity
  8
layer 1
 62
     7
100
AcDbSpline
210
0.0
220
0.0
230
1.0
 70
    11
 71
     3
 72
    28
 73
    24
 74
     0
 42
0.0000000001
 43
0.0000000001
 12
1.0
 22
0.0
 32
0.0
 13
1.0
 23
0.0
 33
0.0
 40
0.0
 40
0.0
 40
0.0
 40
0.0
 40
0.1428571428571428
 40
0.1428571428571428
 40
0.1428571428571428
 40
0.1428571428571428
 40
0.2857142857142857
 40
0.2857142857142857
 40
0.2857142857142857
 40
0.2857142857142857
 40
0.4285714285714285
 40
0.4285714285714285
 40
0.4285714285714285
 40
0.4285714285714285
 40
0.5714285714285714
 40
0.5714285714285714
 40
0.5714285714285714
 40
0.5714285714285714
 40
0.7142857142857143
 40
0.7142857142857143
 40
0.7142857142857143
 40
0.7142857142857143
 40
1.0
 40
1.0
 40
1.0
 40
1.0
 10
-163.0527
 20
47.3147
 30
0.0
 10
-163.0527
 20
47.3147
 30
0.0
 10
-149.6316
 20
47.384
 30
0.0
 10
-149.6316
 20
47.384
 30
0.0
 10
-149.6316
 20
47.384
 30
0.0
 10
-148.4729
 20
47.3287
 30
0.0
 10
-147.5569
 20
46.7195
 30
0.0
 10
-147.6613
 20
45.4689
 30
0.0
 10
-147.6613
 20
45.4689
 30
0.0
 10
-147.6613
 20
45.4689
 30
0.0
 10
-147.6984
 20
31.3638
 30
0.0
 10
-147.6984
 20
31.3638
 30
0.0
 10
-147.6984
 20
31.3638
 30
0.0
 10
-147.7238
 20
29.8512
 30
0.0
 10
-149.4787
 20
29.6317
 30
0.0
 10
-150.4028
 20
30.3708
 30
0.0
 10
-150.4028
 20
30.3708
 30
0.0
 10
-150.4028
 20
30.3708
 30
0.0
 10
-163.9131
 20
44.3228
 30
0.0
 10
-163.9131
 20
44.3228
 30
0.0
 10
-163.9131
 20
44.3228
 30
0.0
 10
-164.7849
 20
45.2007
 30
0.0
 10
-164.6974
 20
47.1211
 30
0.0
 10
-163.0527
 20
47.3147
 30
0.0
  0
SPLINE
  5
74
330
1F
100
AcDbEntity
  8
layer 1
 62
     7
100
AcDbSpline
210
0.0
220
0.0
230
1.0
 70
    11
 71
     3
 72
    32
 73
    28
 74
     0
 42
0.0000000001
 43
0.0000000001
 12
1.0
 22
0.0
 32
0.0
 13
1.0
 23
0.0
 33
0.0
 40
0.0
 40
0.0
 40
0.0
 40
0.0
 40
0.125
 40
0.125
 40
0.125
 40
0.125
 40
0.25
 40
0.25
 40
0.25
 40
0.25
 40
0.375
 40
0.375
 40
0.375
 40
0.375
 40
0.5
 40
0.5
 40
0.5
 40
0.5
 40
0.625
 40
0.625
 40
0.625
 40
0.625
 40
0.75
 40
0.75
 40
0.75
 40
0.75
 40
1.0
 40
1.0
 40
1.0
 40
1.0
 10
-168.9353
 20
9.7665
 30
0.0
 10
-168.9353
 20
9.7665
 30
0.0
 10
-182.3563
 20
9.6971
 30
0.0
 10
-182.3563
 20
9.6971
 30
0.0
 10
-182.3563
 20
9.6971
 30
0.0
 10
-183.5151
 20
9.7524
 30
0.0
 10
-184.4311
 20
10.3617
 30
0.0
 10
-184.3267
 20
11.6122
 30
0.0
 10
-184.3267
 20
11.6122
 30
0.0
 10
-184.3267
 20
11.6122
 30
0.0
 10
-184.2896
 20
25.7174
 30
0.0
 10
-184.2896
 20
25.7174
 30
0.0
 10
-184.2896
 20
25.7174
 30
0.0
 10
-184.2641
 20
27.23
 30
0.0
 10
-182.5092
 20
27.4494
 30
0.0
 10
-181.5851
 20
26.7104
 30
0.0
 10
-181.5851
 20
26.7104
 30
0.0
 10
-181.5851
 20
26.7104
 30
0.0
 10
-168.0749
 20
12.7584
 30
0.0
 10
-168.0749
 20
12.7584
 30
0.0
 10
-168.0749
 20
12.7584
 30
0.0
 10
-167.2031
 20
11.8805
 30
0.0
 10
-167.2905
 20
9.96
 30
0.0
 10
-168.9353
 20
9.7665
 30
0.0
 10
-168.9353
 20
9.7665
 30
0.0
 10
-168.9353
 20
9.7665
 30
0.0
 10
-168.9353
 20
9.7665
 30
0.0
 10
-168.9353
 20
9.7665
 30
0.0
  0
SPLINE
  5
75
330
1F
100
AcDbEntity
  8
layer 1
 62
     7
100
AcDbSpline
210
0.0
220
0.0
230
1.0
 70
    11
 71
     3
 72
    32
 73
    28
 74
     0
 42
0.0000000001
 43
0.0000000001
 12
1.0
 22
0.0
 32
0.0
 13
1.0
 23
0.0
 33
0.0
 40
0.0
 40
0.0
 40
0.0
 40
0.0
 40
0.125
 40
0.125
 40
0.125
 40
0.125
 40
0.25
 40
0.25
 40
0.25
 40
0.25
 40
0.375
 40
0.375
 40
0.375
 40
0.375
 40
0.5
 40
0.5
 40
0.5
 40
0.5
 40
0.625
 40
0.625
 40
0.625
 40
0.625
 40
0.75
 40
0.75
 40
0.75
 40
0.75
 40
1.0
 40
1.0
 40
1.0
 40
1.0
 10
-163.0527
 20
9.7665
 30
0.0
 10
-163.0527
 20
9.7665
 30
0.0
 10
-149.6316
 20
9.697
 30
0.0
 10
-149.6316
 20
9.697
 30
0.0
 10
-149.6316
 20
9.697
 30
0.0
 10
-148.4729
 20
9.7524
 30
0.0
 10
-147.5569
 20
10.3616
 30
0.0
 10
-147.6613
 20
11.6121
 30
0.0
 10
-147.6613
 20
11.6121
 30
0.0
 10
-147.6613
 20
11.6121
 30
0.0
 10
-147.6984
 20
25.7173
 30
0.0
 10
-147.6984
 20
25.7173
 30
0.0
 10
-147.6984
 20
25.7173
 30
0.0
 10
-147.7238
 20
27.2299
 30
0.0
 10
-149.4787
 20
27.4493
 30
0.0
 10
-150.4028
 20
26.7103
 30
0.0
 10
-150.4028
 20
26.7103
 30
0.0
 10
-150.4028
 20
26.7103
 30
0.0
 10
-163.9131
 20
12.7583
 30
0.0
 10
-163.9131
 20
12.7583
 30
0.0
 10
-163.9131
 20
12.7583
 30
0.0
 10
-164.7849
 20
11.8804
 30
0.0
 10
-164.6974
 20
9.96
 30
0.0
 10
-163.0527
 20
9.7664
 30
0.0
 10
-163.0527
 20
9.7664
 30
0.0
 10
-163.0527
 20
9.7664
 30
0.0
 10
-163.0527
 20
9.7665
 30
0.0
 10
-163.0527
 20
9.7665
 30
0.0
  0
SPLINE
  5
76
330
1F
100
AcDbEntity
  8
layer 1
 62
     7
100
AcDbSpline
210
0.0
220
0.0
230
1.0
 70
     8
 71
     3
 72
    36
 73
    32
 74
     0
 42
0.0000000001
 43
0.0000000001
 12
1.0
 22
0.0
 32
0.0
 13
1.0
 23
0.0
 33
0.0
 40
0.0
 40
0.0
 40
0.0
 40
0.0
 40
0.1111111111111111
 40
0.1111111111111111
 40
0.1111111111111111
 40
0.1111111111111111
 40
0.2222222222222222
 40
0.2222222222222222
 40
0.2222222222222222
 40
0.2222222222222222
 40
0.3333333333333333
 40
0.3333333333333333
 40
0.3333333333333333
 40
0.3333333333333333
 40
0.4444444444444444
 40
0.4444444444444444
 40
0.4444444444444444
 40
0.4444444444444444
 40
0.5555555555555556
 40
0.5555555555555556
 40
0.5555555555555556
 40
0.5555555555555556
 40
0.6666666666666666
 40
0.6666666666666666
 40
0.6666666666666666
 40
0.6666666666666666
 40
0.7777777777777778
 40
0.7777777777777778
 40
0.7777777777777778
 40
0.7777777777777778
 40
1.0
 40
1.0
 40
1.0
 40
1.0
 10
-164.8015
 20
40.5744
 30
0.0
 10
-164.8015
 20
40.5744
 30
0.0
 10
-161.7771
 20
37.5501
 30
0.0
 10
-161.7771
 20
37.5501
 30
0.0
 10
-161.7771
 20
37.5501
 30
0.0
 10
-161.112
 20
36.885
 30
0.0
 10
-161.112
 20
35.8064
 30
0.0
 10
-161.7771
 20
35.1413
 30
0.0
 10
-161.7771
 20
35.1413
 30
0.0
 10
-161.7771
 20
35.1413
 30
0.0
 10
-164.8015
 20
32.117
 30
0.0
 10
-164.8015
 20
32.117
 30
0.0
 10
-164.8015
 20
32.117
 30
0.0
 10
-165.4665
 20
31.4519
 30
0.0
 10
-166.5452
 20
31.4519
 30
0.0
 10
-167.2102
 20
32.1169
 30
0.0
 10
-167.2102
 20
32.1169
 30
0.0
 10
-167.2102
 20
32.1169
 30
0.0
 10
-170.2347
 20
35.1414
 30
0.0
 10
-170.2347
 20
35.1414
 30
0.0
 10
-170.2347
 20
35.1414
 30
0.0
 10
-170.8996
 20
35.8063
 30
0.0
 10
-170.8996
 20
36.885
 30
0.0
 10
-170.2346
 20
37.55
 30
0.0
 10
-170.2346
 20
37.55
 30
0.0
 10
-170.2346
 20
37.55
 30
0.0
 10
-167.2103
 20
40.5744
 30
0.0
 10
-167.2103
 20
40.5744
 30
0.0
 10
-167.2103
 20
40.5744
 30
0.0
 10
-166.5451
 20
41.2395
 30
0.0
 10
-165.4664
 20
41.2395
 30
0.0
 10
-164.8014
 20
40.5744
 30
0.0
  0
SPLINE
  5
77
330
1F
100
AcDbEntity
  8
layer 1
 62
     7
100
AcDbSpline
210
0.0
220
0.0
230
1.0
 70
    11
 71
     3
 72
    36
 73
    32
 74
     0
 42
0.0000000001
 43
0.0000000001
 12
1.0
 22
0.0
 32
0.0
 13
1.0
 23
0.0
 33
0.0
 40
0.0
 40
0.0
 40
0.0
 40
0.0
 40
0.1111111111111111
 40
0.1111111111111111
 40
0.1111111111111111
 40
0.1111111111111111
 40
0.2222222222222222
 40
0.2222222222222222
 40
0.2222222222222222
 40
0.2222222222222222
 40
0.3333333333333333
 40
0.3333333333333333
 40
0.3333333333333333
 40
0.3333333333333333
 40
0.4444444444444444
 40
0.4444444444444444
 40
0.4444444444444444
 40
0.4444444444444444
 40
0.5555555555555556
 40
0.5555555555555556
 40
0.5555555555555556
 40
0.5555555555555556
 40
0.6666666666666666
 40
0.6666666666666666
 40
0.6666666666666666
 40
0.6666666666666666
 40
0.7777777777777778
 40
0.7777777777777778
 40
0.7777777777777778
 40
0.7777777777777778
 40
1.0
 40
1.0
 40
1.0
 40
1.0
 10
-164.8015
 20
24.9799
 30
0.0
 10
-164.8015
 20
24.9799
 30
0.0
 10
-161.7771
 20
21.9556
 30
0.0
 10
-161.7771
 20
21.9556
 30
0.0
 10
-161.7771
 20
21.9556
 30
0.0
 10
-161.112
 20
21.2904
 30
0.0
 10
-161.112
 20
20.2117
 30
0.0
 10
-161.7771
 20
19.5467
 30
0.0
 10
-161.7771
 20
19.5467
 30
0.0
 10
-161.7771
 20
19.5467
 30
0.0
 10
-164.8015
 20
16.5224
 30
0.0
 10
-164.8015
 20
16.5224
 30
0.0
 10
-164.8015
 20
16.5224
 30
0.0
 10
-165.4664
 20
15.8573
 30
0.0
 10
-166.5451
 20
15.8573
 30
0.0
 10
-167.2101
 20
16.5223
 30
0.0
 10
-167.2101
 20
16.5223
 30
0.0
 10
-167.2101
 20
16.5223
 30
0.0
 10
-170.2347
 20
19.5468
 30
0.0
 10
-170.2347
 20
19.5468
 30
0.0
 10
-170.2347
 20
19.5468
 30
0.0
 10
-170.8996
 20
20.2118
 30
0.0
 10
-170.8996
 20
21.2905
 30
0.0
 10
-170.2346
 20
21.9555
 30
0.0
 10
-170.2346
 20
21.9555
 30
0.0
 10
-170.2346
 20
21.9555
 30
0.0
 10
-167.2103
 20
24.9799
 30
0.0
 10
-167.2103
 20
24.9799
 30
0.0
 10
-167.2103
 20
24.9799
 30
0.0
 10
-166.5452
 20
25.6449
 30
0.0
 10
-165.4665
 20
25.6449
 30
0.0
 10
-164.8015
 20
24.9799
 30
0.0
  0
SPLINE
  5
78
330
1F
100
AcDbEntity
  8
layer 1
 62
     7
100
AcDbSpline
210
0.0
220
0.0
230
1.0
 70
     8
 71
     3
 72
    36
 73
    32
 74
     0
 42
0.0000000001
 43
0.0000000001
 12
1.0
 22
0.0
 32
0.0
 13
1.0
 23
0.0
 33
0.0
 40
0.0
 40
0.0
 40
0.0
 40
0.0
 40
0.1111111111111111
 40
0.1111111111111111
 40
0.1111111111111111
 40
0.1111111111111111
 40
0.2222222222222222
 40
0.2222222222222222
 40
0.2222222222222222
 40
0.2222222222222222
 40
0.3333333333333333
 40
0.3333333333333333
 40
0.3333333333333333
 40
0.3333333333333333
 40
0.4444444444444444
 40
0.4444444444444444
 40
0.4444444444444444
 40
0.4444444444444444
 40
0.5555555555555556
 40
0.5555555555555556
 40
0.5555555555555556
 40
0.5555555555555556
 40
0.6666666666666666
 40
0.6666666666666666
 40
0.6666666666666666
 40
0.6666666666666666
 40
0.7777777777777778
 40
0.7777777777777778
 40
0.7777777777777778
 40
0.7777777777777778
 40
1.0
 40
1.0
 40
1.0
 40
1.0
 10
-172.3721
 20
32.7772
 30
0.0
 10
-172.3721
 20
32.7772
 30
0.0
 10
-169.3477
 20
29.7528
 30
0.0
 10
-169.3477
 20
29.7528
 30
0.0
 10
-169.3477
 20
29.7528
 30
0.0
 10
-168.6826
 20
29.0877
 30
0.0
 10
-168.6826
 20
28.0091
 30
0.0
 10
-169.3476
 20
27.344
 30
0.0
 10
-169.3476
 20
27.344
 30
0.0
 10
-169.3476
 20
27.344
 30
0.0
 10
-172.3721
 20
24.3198
 30
0.0
 10
-172.3721
 20
24.3198
 30
0.0
 10
-172.3721
 20
24.3198
 30
0.0
 10
-173.0371
 20
23.6546
 30
0.0
 10
-174.1158
 20
23.6546
 30
0.0
 10
-174.7808
 20
24.3196
 30
0.0
 10
-174.7808
 20
24.3196
 30
0.0
 10
-174.7808
 20
24.3196
 30
0.0
 10
-177.8052
 20
27.3441
 30
0.0
 10
-177.8052
 20
27.3441
 30
0.0
 10
-177.8052
 20
27.3441
 30
0.0
 10
-178.4702
 20
28.009
 30
0.0
 10
-178.4702
 20
29.0876
 30
0.0
 10
-177.8052
 20
29.7527
 30
0.0
 10
-177.8052
 20
29.7527
 30
0.0
 10
-177.8052
 20
29.7527
 30
0.0
 10
-174.7809
 20
32.7772
 30
0.0
 10
-174.7809
 20
32.7772
 30
0.0
 10
-174.7809
 20
32.7772
 30
0.0
 10
-174.1157
 20
33.4421
 30
0.0
 10
-173.037
 20
33.4421
 30
0.0
 10
-172.372
 20
32.7771
 30
0.0
  0
SPLINE
  5
79
330
1F
100
AcDbEntity
  8
layer 1
 62
     7
100
AcDbSpline
210
0.0
220
0.0
230
1.0
 70
     8
 71
     3
 72
    36
 73
    32
 74
     0
 42
0.0000000001
 43
0.0000000001
 12
1.0
 22
0.0
 32
0.0
 13
1.0
 23
0.0
 33
0.0
 40
0.0
 40
0.0
 40
0.0
 40
0.0
 40
0.1111111111111111
 40
0.1111111111111111
 40
0.1111111111111111
 40
0.1111111111111111
 40
0.2222222222222222
 40
0.2222222222222222
 40
0.2222222222222222
 40
0.2222222222222222
 40
0.3333333333333333
 40
0.3333333333333333
 40
0.3333333333333333
 40
0.3333333333333333
 40
0.4444444444444444
 40
0.4444444444444444
 40
0.4444444444444444
 40
0.4444444444444444
 40
0.5555555555555556
 40
0.5555555555555556
 40
0.5555555555555556
 40
0.5555555555555556
 40
0.6666666666666666
 40
0.6666666666666666
 40
0.6666666666666666
 40
0.6666666666666666
 40
0.7777777777777778
 40
0.7777777777777778
 40
0.7777777777777778
 40
0.7777777777777778
 40
1.0
 40
1.0
 40
1.0
 40
1.0
 10
-157.1856
 20
32.7772
 30
0.0
 10
-157.1856
 20
32.7772
 30
0.0
 10
-154.1612
 20
29.7528
 30
0.0
 10
-154.1612
 20
29.7528
 30
0.0
 10
-154.1612
 20
29.7528
 30
0.0
 10
-153.4961
 20
29.0877
 30
0.0
 10
-153.4961
 20
28.0091
 30
0.0
 10
-154.1612
 20
27.344
 30
0.0
 10
-154.1612
 20
27.344
 30
0.0
 10
-154.1612
 20
27.344
 30
0.0
 10
-157.1856
 20
24.3198
 30
0.0
 10
-157.1856
 20
24.3198
 30
0.0
 10
-157.1856
 20
24.3198
 30
0.0
 10
-157.8506
 20
23.6546
 30
0.0
 10
-158.9291
 20
23.6546
 30
0.0
 10
-159.5943
 20
24.3197
 30
0.0
 10
-159.5943
 20
24.3197
 30
0.0
 10
-159.5943
 20
24.3197
 30
0.0
 10
-162.6187
 20
27.3441
 30
0.0
 10
-162.6187
 20
27.3441
 30
0.0
 10
-162.6187
 20
27.3441
 30
0.0
 10
-163.2836
 20
28.0091
 30
0.0
 10
-163.2836
 20
29.0877
 30
0.0
 10
-162.6185
 20
29.7528
 30
0.0
 10
-162.6185
 20
29.7528
 30
0.0
 10
-162.6185
 20
29.7528
 30
0.0
 10
-159.5943
 20
32.7772
 30
0.0
 10
-159.5943
 20
32.7772
 30
0.0
 10
-159.5943
 20
32.7772
 30
0.0
 10
-158.9291
 20
33.4421
 30
0.0
 10
-157.8506
 20
33.4421
 30
0.0
 10
-157.1854
 20
32.7771
 30
0.0
  0
SPLINE
  5
7A
330
1F
100
AcDbEntity
  8
layer 1
 62
     7
100
AcDbSpline
210
0.0
220
0.0
230
1.0
 70
     8
 71
     3
 72
    36
 73
    32
 74
     0
 42
0.0000000001
 43
0.0000000001
 12
1.0
 22
0.0
 32
0.0
 13
1.0
 23
0.0
 33
0.0
 40
0.0
 40
0.0
 40
0.0
 40
0.0
 40
0.1111111111111111
 40
0.1111111111111111
 40
0.1111111111111111
 40
0.1111111111111111
 40
0.2222222222222222
 40
0.2222222222222222
 40
0.2222222222222222
 40
0.2222222222222222
 40
0.3333333333333333
 40
0.3333333333333333
 40
0.3333333333333333
 40
0.3333333333333333
 40
0.4444444444444444
 40
0.4444444444444444
 40
0.4444444444444444
 40
0.4444444444444444
 40
0.5555555555555556
 40
0.5555555555555556
 40
0.5555555555555556
 40
0.5555555555555556
 40
0.6666666666666666
 40
0.6666666666666666
 40
0.6666666666666666
 40
0.6666666666666666
 40
0.7777777777777778
 40
0.7777777777777778
 40
0.7777777777777778
 40
0.7777777777777778
 40
1.0
 40
1.0
 40
1.0
 40
1.0
 10
-134.145
 20
45.721
 30
0.0
 10
-134.145
 20
45.721
 30
0.0
 10
-134.145
 20
38.7174
 30
0.0
 10
-134.145
 20
38.7174
 30
0.0
 10
-134.145
 20
38.7174
 30
0.0
 10
-134.1449
 20
37.7767
 30
0.0
 10
-134.9076
 20
37.014
 30
0.0
 10
-135.8482
 20
37.014
 30
0.0
 10
-135.8482
 20
37.014
 30
0.0
 10
-135.8482
 20
37.014
 30
0.0
 10
-142.8929
 20
37.0141
 30
0.0
 10
-142.8929
 20
37.0141
 30
0.0
 10
-142.8929
 20
37.0141
 30
0.0
 10
-143.8334
 20
37.014
 30
0.0
 10
-144.5961
 20
37.7767
 30
0.0
 10
-144.5961
 20
38.7173
 30
0.0
 10
-144.5961
 20
38.7173
 30
0.0
 10
-144.5961
 20
38.7173
 30
0.0
 10
-144.5961
 20
45.721
 30
0.0
 10
-144.5961
 20
45.721
 30
0.0
 10
-144.5961
 20
45.721
 30
0.0
 10
-144.5961
 20
46.6615
 30
0.0
 10
-143.8334
 20
47.4242
 30
0.0
 10
-142.8928
 20
47.4242
 30
0.0
 10
-142.8928
 20
47.4242
 30
0.0
 10
-142.8928
 20
47.4242
 30
0.0
 10
-135.8482
 20
47.4242
 30
0.0
 10
-135.8482
 20
47.4242
 30
0.0
 10
-135.8482
 20
47.4242
 30
0.0
 10
-134.9076
 20
47.4242
 30
0.0
 10
-134.1449
 20
46.6615
 30
0.0
 10
-134.1449
 20
45.7209
 30
0.0
  0
SPLINE
  5
7B
330
1F
100
AcDbEntity
  8
layer 1
 62
     7
100
AcDbSpline
210
0.0
220
0.0
230
1.0
 70
     8
 71
     3
 72
    36
 73
    32
 74
     0
 42
0.0000000001
 43
0.0000000001
 12
1.0
 22
0.0
 32
0.0
 13
1.0
 23
0.0
 33
0.0
 40
0.0
 40
0.0
 40
0.0
 40
0.0
 40
0.1111111111111111
 40
0.1111111111111111
 40
0.1111111111111111
 40
0.1111111111111111
 40
0.2222222222222222
 40
0.2222222222222222
 40
0.2222222222222222
 40
0.2222222222222222
 40
0.3333333333333333
 40
0.3333333333333333
 40
0.3333333333333333
 40
0.3333333333333333
 40
0.4444444444444444
 40
0.4444444444444444
 40
0.4444444444444444
 40
0.4444444444444444
 40
0.5555555555555556
 40
0.5555555555555556
 40
0.5555555555555556
 40
0.5555555555555556
 40
0.6666666666666666
 40
0.6666666666666666
 40
0.6666666666666666
 40
0.6666666666666666
 40
0.7777777777777778
 40
0.7777777777777778
 40
0.7777777777777778
 40
0.7777777777777778
 40
1.0
 40
1.0
 40
1.0
 40
1.0
 10
-107.8754
 20
45.721
 30
0.0
 10
-107.8754
 20
45.721
 30
0.0
 10
-107.8754
 20
38.7174
 30
0.0
 10
-107.8754
 20
38.7174
 30
0.0
 10
-107.8754
 20
38.7174
 30
0.0
 10
-107.8754
 20
37.7767
 30
0.0
 10
-108.6381
 20
37.014
 30
0.0
 10
-109.5787
 20
37.014
 30
0.0
 10
-109.5787
 20
37.014
 30
0.0
 10
-109.5787
 20
37.014
 30
0.0
 10
-116.6233
 20
37.0141
 30
0.0
 10
-116.6233
 20
37.0141
 30
0.0
 10
-116.6233
 20
37.0141
 30
0.0
 10
-117.5638
 20
37.014
 30
0.0
 10
-118.3266
 20
37.7767
 30
0.0
 10
-118.3266
 20
38.7173
 30
0.0
 10
-118.3266
 20
38.7173
 30
0.0
 10
-118.3266
 20
38.7173
 30
0.0
 10
-118.3266
 20
45.721
 30
0.0
 10
-118.3266
 20
45.721
 30
0.0
 10
-118.3266
 20
45.721
 30
0.0
 10
-118.3266
 20
46.6615
 30
0.0
 10
-117.5638
 20
47.4242
 30
0.0
 10
-116.6233
 20
47.4242
 30
0.0
 10
-116.6233
 20
47.4242
 30
0.0
 10
-116.6233
 20
47.4242
 30
0.0
 10
-109.5787
 20
47.4242
 30
0.0
 10
-109.5787
 20
47.4242
 30
0.0
 10
-109.5787
 20
47.4242
 30
0.0
 10
-108.6381
 20
47.4242
 30
0.0
 10
-107.8754
 20
46.6615
 30
0.0
 10
-107.8754
 20
45.7209
 30
0.0
  0
SPLINE
  5
7C
330
1F
100
AcDbEntity
  8
layer 1
 62
     7
100
AcDbSpline
210
0.0
220
0.0
230
1.0
 70
    11
 71
     3
 72
    48
 73
    44
 74
     0
 42
0.0000000001
 43
0.0000000001
 12
1.0
 22
0.0
 32
0.0
 13
1.0
 23
0.0
 33
0.0
 40
0.0
 40
0.0
 40
0.0
 40
0.0
 40
0.0833333333333333
 40
0.0833333333333333
 40
0.0833333333333333
 40
0.0833333333333333
 40
0.1666666666666667
 40
0.1666666666666667
 40
0.1666666666666667
 40
0.1666666666666667
 40
0.25
 40
0.25
 40
0.25
 40
0.25
 40
0.3333333333333333
 40
0.3333333333333333
 40
0.3333333333333333
 40
0.3333333333333333
 40
0.4166666666666667
 40
0.4166666666666667
 40
0.4166666666666667
 40
0.4166666666666667
 40
0.5
 40
0.5
 40
0.5
 40
0.5
 40
0.5833333333333334
 40
0.5833333333333334
 40
0.5833333333333334
 40
0.5833333333333334
 40
0.6666666666666666
 40
0.6666666666666666
 40
0.6666666666666666
 40
0.6666666666666666
 40
0.75
 40
0.75
 40
0.75
 40
0.75
 40
0.8333333333333334
 40
0.8333333333333334
 40
0.8333333333333334
 40
0.8333333333333334
 40
1.0
 40
1.0
 40
1.0
 40
1.0
 10
-121.0102
 20
45.721
 30
0.0
 10
-121.0102
 20
45.721
 30
0.0
 10
-121.0102
 20
37.5755
 30
0.0
 10
-121.0102
 20
37.5755
 30
0.0
 10
-121.0102
 20
37.5755
 30
0.0
 10
-121.0102
 20
36.7746
 30
0.0
 10
-121.3417
 20
35.7992
 30
0.0
 10
-121.8856
 20
35.2853
 30
0.0
 10
-121.8856
 20
35.2853
 30
0.0
 10
-121.8856
 20
35.2853
 30
0.0
 10
-124.1751
 20
32.4672
 30
0.0
 10
-125.3117
 20
31.79
 30
0.0
 10
-125.3117
 20
31.79
 30
0.0
 10
-125.8772
 20
31.284
 30
0.0
 10
-126.8427
 20
31.3983
 30
0.0
 10
-127.31
 20
31.79
 30
0.0
 10
-127.31
 20
31.79
 30
0.0
 10
-128.3767
 20
32.4958
 30
0.0
 10
-130.8715
 20
35.2727
 30
0.0
 10
-130.8715
 20
35.2727
 30
0.0
 10
-130.8715
 20
35.2727
 30
0.0
 10
-131.3833
 20
35.9699
 30
0.0
 10
-131.4614
 20
36.6319
 30
0.0
 10
-131.4614
 20
37.5755
 30
0.0
 10
-131.4614
 20
37.5755
 30
0.0
 10
-131.4614
 20
37.5755
 30
0.0
 10
-131.4614
 20
45.721
 30
0.0
 10
-131.4614
 20
45.721
 30
0.0
 10
-131.4614
 20
45.721
 30
0.0
 10
-131.4614
 20
46.6646
 30
0.0
 10
-130.7018
 20
47.4242
 30
0.0
 10
-129.7582
 20
47.4242
 30
0.0
 10
-129.7582
 20
47.4242
 30
0.0
 10
-129.7582
 20
47.4242
 30
0.0
 10
-122.7135
 20
47.4242
 30
0.0
 10
-122.7135
 20
47.4242
 30
0.0
 10
-122.7135
 20
47.4242
 30
0.0
 10
-121.77
 20
47.4242
 30
0.0
 10
-121.0103
 20
46.6646
 30
0.0
 10
-121.0103
 20
45.721
 30
0.0
 10
-121.0103
 20
45.721
 30
0.0
 10
-121.0103
 20
45.721
 30
0.0
 10
-121.0102
 20
45.721
 30
0.0
 10
-121.0102
 20
45.721
 30
0.0
  0
SPLINE
  5
7D
330
1F
100
AcDbEntity
  8
layer 1
 62
     7
100
AcDbSpline
210
0.0
220
0.0
230
1.0
 70
     8
 71
     3
 72
    36
 73
    32
 74
     0
 42
0.0000000001
 43
0.0000000001
 12
1.0
 22
0.0
 32
0.0
 13
1.0
 23
0.0
 33
0.0
 40
0.0
 40
0.0
 40
0.0
 40
0.0
 40
0.1111111111111111
 40
0.1111111111111111
 40
0.1111111111111111
 40
0.1111111111111111
 40
0.2222222222222222
 40
0.2222222222222222
 40
0.2222222222222222
 40
0.2222222222222222
 40
0.3333333333333333
 40
0.3333333333333333
 40
0.3333333333333333
 40
0.3333333333333333
 40
0.4444444444444444
 40
0.4444444444444444
 40
0.4444444444444444
 40
0.4444444444444444
 40
0.5555555555555556
 40
0.5555555555555556
 40
0.5555555555555556
 40
0.5555555555555556
 40
0.6666666666666666
 40
0.6666666666666666
 40
0.6666666666666666
 40
0.6666666666666666
 40
0.7777777777777778
 40
0.7777777777777778
 40
0.7777777777777778
 40
0.7777777777777778
 40
1.0
 40
1.0
 40
1.0
 40
1.0
 10
-134.145
 20
11.4184
 30
0.0
 10
-134.145
 20
11.4184
 30
0.0
 10
-134.145
 20
18.422
 30
0.0
 10
-134.145
 20
18.422
 30
0.0
 10
-134.145
 20
18.422
 30
0.0
 10
-134.1449
 20
19.3626
 30
0.0
 10
-134.9076
 20
20.1253
 30
0.0
 10
-135.8482
 20
20.1253
 30
0.0
 10
-135.8482
 20
20.1253
 30
0.0
 10
-135.8482
 20
20.1253
 30
0.0
 10
-142.8929
 20
20.1252
 30
0.0
 10
-142.8929
 20
20.1252
 30
0.0
 10
-142.8929
 20
20.1252
 30
0.0
 10
-143.8334
 20
20.1253
 30
0.0
 10
-144.5961
 20
19.3626
 30
0.0
 10
-144.5961
 20
18.4221
 30
0.0
 10
-144.5961
 20
18.4221
 30
0.0
 10
-144.5961
 20
18.4221
 30
0.0
 10
-144.5961
 20
11.4184
 30
0.0
 10
-144.5961
 20
11.4184
 30
0.0
 10
-144.5961
 20
11.4184
 30
0.0
 10
-144.5961
 20
10.4779
 30
0.0
 10
-143.8334
 20
9.7152
 30
0.0
 10
-142.8928
 20
9.7152
 30
0.0
 10
-142.8928
 20
9.7152
 30
0.0
 10
-142.8928
 20
9.7152
 30
0.0
 10
-135.8482
 20
9.7151
 30
0.0
 10
-135.8482
 20
9.7151
 30
0.0
 10
-135.8482
 20
9.7151
 30
0.0
 10
-134.9076
 20
9.7152
 30
0.0
 10
-134.1449
 20
10.4779
 30
0.0
 10
-134.1449
 20
11.4184
 30
0.0
  0
SPLINE
  5
7E
330
1F
100
AcDbEntity
  8
layer 1
 62
     7
100
AcDbSpline
210
0.0
220
0.0
230
1.0
 70
    11
 71
     3
 72
    36
 73
    32
 74
     0
 42
0.0000000001
 43
0.0000000001
 12
1.0
 22
0.0
 32
0.0
 13
1.0
 23
0.0
 33
0.0
 40
0.0
 40
0.0
 40
0.0
 40
0.0
 40
0.1111111111111111
 40
0.1111111111111111
 40
0.1111111111111111
 40
0.1111111111111111
 40
0.2222222222222222
 40
0.2222222222222222
 40
0.2222222222222222
 40
0.2222222222222222
 40
0.3333333333333333
 40
0.3333333333333333
 40
0.3333333333333333
 40
0.3333333333333333
 40
0.4444444444444444
 40
0.4444444444444444
 40
0.4444444444444444
 40
0.4444444444444444
 40
0.5555555555555556
 40
0.5555555555555556
 40
0.5555555555555556
 40
0.5555555555555556
 40
0.6666666666666666
 40
0.6666666666666666
 40
0.6666666666666666
 40
0.6666666666666666
 40
0.7777777777777778
 40
0.7777777777777778
 40
0.7777777777777778
 40
0.7777777777777778
 40
1.0
 40
1.0
 40
1.0
 40
1.0
 10
-107.8754
 20
11.4184
 30
0.0
 10
-107.8754
 20
11.4184
 30
0.0
 10
-107.8754
 20
18.422
 30
0.0
 10
-107.8754
 20
18.422
 30
0.0
 10
-107.8754
 20
18.422
 30
0.0
 10
-107.8754
 20
19.3626
 30
0.0
 10
-108.6381
 20
20.1253
 30
0.0
 10
-109.5787
 20
20.1253
 30
0.0
 10
-109.5787
 20
20.1253
 30
0.0
 10
-109.5787
 20
20.1253
 30
0.0
 10
-116.6233
 20
20.1252
 30
0.0
 10
-116.6233
 20
20.1252
 30
0.0
 10
-116.6233
 20
20.1252
 30
0.0
 10
-117.5638
 20
20.1253
 30
0.0
 10
-118.3266
 20
19.3626
 30
0.0
 10
-118.3266
 20
18.4221
 30
0.0
 10
-118.3266
 20
18.4221
 30
0.0
 10
-118.3266
 20
18.4221
 30
0.0
 10
-118.3266
 20
11.4184
 30
0.0
 10
-118.3266
 20
11.4184
 30
0.0
 10
-118.3266
 20
11.4184
 30
0.0
 10
-118.3266
 20
10.4779
 30
0.0
 10
-117.5638
 20
9.7152
 30
0.0
 10
-116.6233
 20
9.7152
 30
0.0
 10
-116.6233
 20
9.7152
 30
0.0
 10
-116.6233
 20
9.7152
 30
0.0
 10
-109.5787
 20
9.7151
 30
0.0
 10
-109.5787
 20
9.7151
 30
0.0
 10
-109.5787
 20
9.7151
 30
0.0
 10
-108.6381
 20
9.7152
 30
0.0
 10
-107.8754
 20
10.4779
 30
0.0
 10
-107.8754
 20
11.4184
 30
0.0
  0
SPLINE
  5
7F
330
1F
100
AcDbEntity
  8
layer 1
 62
     7
100
AcDbSpline
210
0.0
220
0.0
230
1.0
 70
    11
 71
     3
 72
    48
 73
    44
 74
     0
 42
0.0000000001
 43
0.0000000001
 12
1.0
 22
0.0
 32
0.0
 13
1.0
 23
0.0
 33
0.0
 40
0.0
 40
0.0
 40
0.0
 40
0.0
 40
0.0833333333333333
 40
0.0833333333333333
 40
0.0833333333333333
 40
0.0833333333333333
 40
0.1666666666666667
 40
0.1666666666666667
 40
0.1666666666666667
 40
0.1666666666666667
 40
0.25
 40
0.25
 40
0.25
 40
0.25
 40
0.3333333333333333
 40
0.3333333333333333
 40
0.3333333333333333
 40
0.3333333333333333
 40
0.4166666666666667
 40
0.4166666666666667
 40
0.4166666666666667
 40
0.4166666666666667
 40
0.5
 40
0.5
 40
0.5
 40
0.5
 40
0.5833333333333334
 40
0.5833333333333334
 40
0.5833333333333334
 40
0.5833333333333334
 40
0.6666666666666666
 40
0.6666666666666666
 40
0.6666666666666666
 40
0.6666666666666666
 40
0.75
 40
0.75
 40
0.75
 40
0.75
 40
0.8333333333333334
 40
0.8333333333333334
 40
0.8333333333333334
 40
0.8333333333333334
 40
1.0
 40
1.0
 40
1.0
 40
1.0
 10
-121.0102
 20
11.4184
 30
0.0
 10
-121.0102
 20
11.4184
 30
0.0
 10
-121.0102
 20
19.564
 30
0.0
 10
-121.0102
 20
19.564
 30
0.0
 10
-121.0102
 20
19.564
 30
0.0
 10
-121.0102
 20
20.3648
 30
0.0
 10
-121.3417
 20
21.3403
 30
0.0
 10
-121.8856
 20
21.8541
 30
0.0
 10
-121.8856
 20
21.8541
 30
0.0
 10
-121.8856
 20
21.8541
 30
0.0
 10
-124.1751
 20
24.6722
 30
0.0
 10
-125.3117
 20
25.3494
 30
0.0
 10
-125.3117
 20
25.3494
 30
0.0
 10
-125.8772
 20
25.8554
 30
0.0
 10
-126.8427
 20
25.7412
 30
0.0
 10
-127.31
 20
25.3494
 30
0.0
 10
-127.31
 20
25.3494
 30
0.0
 10
-128.3767
 20
24.6437
 30
0.0
 10
-130.8715
 20
21.8667
 30
0.0
 10
-130.8715
 20
21.8667
 30
0.0
 10
-130.8715
 20
21.8667
 30
0.0
 10
-131.3833
 20
21.1695
 30
0.0
 10
-131.4614
 20
20.5075
 30
0.0
 10
-131.4614
 20
19.564
 30
0.0
 10
-131.4614
 20
19.564
 30
0.0
 10
-131.4614
 20
19.564
 30
0.0
 10
-131.4614
 20
11.4184
 30
0.0
 10
-131.4614
 20
11.4184
 30
0.0
 10
-131.4614
 20
11.4184
 30
0.0
 10
-131.4614
 20
10.4749
 30
0.0
 10
-130.7018
 20
9.7152
 30
0.0
 10
-129.7582
 20
9.7152
 30
0.0
 10
-129.7582
 20
9.7152
 30
0.0
 10
-129.7582
 20
9.7152
 30
0.0
 10
-122.7135
 20
9.7152
 30
0.0
 10
-122.7135
 20
9.7152
 30
0.0
 10
-122.7135
 20
9.7152
 30
0.0
 10
-121.77
 20
9.7152
 30
0.0
 10
-121.0103
 20
10.4749
 30
0.0
 10
-121.0103
 20
11.4184
 30
0.0
 10
-121.0103
 20
11.4184
 30
0.0
 10
-121.0103
 20
11.4184
 30
0.0
 10
-121.0102
 20
11.4184
 30
0.0
 10
-121.0102
 20
11.4184
 30
0.0
  0
SPLINE
  5
80
330
1F
100
AcDbEntity
  8
layer 1
 62
     7
100
AcDbSpline
210
0.0
220
0.0
230
1.0
 70
    11
 71
     3
 72
    48
 73
    44
 74
     0
 42
0.0000000001
 43
0.0000000001
 12
1.0
 22
0.0
 32
0.0
 13
1.0
 23
0.0
 33
0.0
 40
0.0
 40
0.0
 40
0.0
 40
0.0
 40
0.0833333333333333
 40
0.0833333333333333
 40
0.0833333333333333
 40
0.0833333333333333
 40
0.1666666666666667
 40
0.1666666666666667
 40
0.1666666666666667
 40
0.1666666666666667
 40
0.25
 40
0.25
 40
0.25
 40
0.25
 40
0.3333333333333333
 40
0.3333333333333333
 40
0.3333333333333333
 40
0.3333333333333333
 40
0.4166666666666667
 40
0.4166666666666667
 40
0.4166666666666667
 40
0.4166666666666667
 40
0.5
 40
0.5
 40
0.5
 40
0.5
 40
0.5833333333333334
 40
0.5833333333333334
 40
0.5833333333333334
 40
0.5833333333333334
 40
0.6666666666666666
 40
0.6666666666666666
 40
0.6666666666666666
 40
0.6666666666666666
 40
0.75
 40
0.75
 40
0.75
 40
0.75
 40
0.8333333333333334
 40
0.8333333333333334
 40
0.8333333333333334
 40
0.8333333333333334
 40
1.0
 40
1.0
 40
1.0
 40
1.0
 10
-142.8929
 20
23.3646
 30
0.0
 10
-142.8929
 20
23.3646
 30
0.0
 10
-134.7474
 20
23.3646
 30
0.0
 10
-134.7474
 20
23.3646
 30
0.0
 10
-134.7474
 20
23.3646
 30
0.0
 10
-133.9465
 20
23.3646
 30
0.0
 10
-132.9711
 20
23.6961
 30
0.0
 10
-132.4572
 20
24.24
 30
0.0
 10
-132.4572
 20
24.24
 30
0.0
 10
-132.4572
 20
24.24
 30
0.0
 10
-129.6391
 20
26.5295
 30
0.0
 10
-128.9619
 20
27.6661
 30
0.0
 10
-128.9619
 20
27.6661
 30
0.0
 10
-128.4559
 20
28.2316
 30
0.0
 10
-128.5702
 20
29.1971
 30
0.0
 10
-128.9619
 20
29.6644
 30
0.0
 10
-128.9619
 20
29.6644
 30
0.0
 10
-129.6677
 20
30.7311
 30
0.0
 10
-132.4446
 20
33.2259
 30
0.0
 10
-132.4446
 20
33.2259
 30
0.0
 10
-132.4446
 20
33.2259
 30
0.0
 10
-133.1418
 20
33.7377
 30
0.0
 10
-133.8038
 20
33.8158
 30
0.0
 10
-134.7474
 20
33.8158
 30
0.0
 10
-134.7474
 20
33.8158
 30
0.0
 10
-134.7474
 20
33.8158
 30
0.0
 10
-142.8929
 20
33.8158
 30
0.0
 10
-142.8929
 20
33.8158
 30
0.0
 10
-142.8929
 20
33.8158
 30
0.0
 10
-143.8365
 20
33.8158
 30
0.0
 10
-144.5961
 20
33.0561
 30
0.0
 10
-144.5961
 20
32.1126
 30
0.0
 10
-144.5961
 20
32.1126
 30
0.0
 10
-144.5961
 20
32.1126
 30
0.0
 10
-144.5961
 20
25.0679
 30
0.0
 10
-144.5961
 20
25.0679
 30
0.0
 10
-144.5961
 20
25.0679
 30
0.0
 10
-144.5961
 20
24.1243
 30
0.0
 10
-143.8365
 20
23.3647
 30
0.0
 10
-142.8929
 20
23.3647
 30
0.0
 10
-142.8929
 20
23.3647
 30
0.0
 10
-142.8929
 20
23.3647
 30
0.0
 10
-142.8929
 20
23.3646
 30
0.0
 10
-142.8929
 20
23.3646
 30
0.0
  0
SPLINE
  5
81
330
1F
100
AcDbEntity
  8
layer 1
 62
     7
100
AcDbSpline
210
0.0
220
0.0
230
1.0
 70
    11
 71
     3
 72
    48
 73
    44
 74
     0
 42
0.0000000001
 43
0.0000000001
 12
1.0
 22
0.0
 32
0.0
 13
1.0
 23
0.0
 33
0.0
 40
0.0
 40
0.0
 40
0.0
 40
0.0
 40
0.0833333333333333
 40
0.0833333333333333
 40
0.0833333333333333
 40
0.0833333333333333
 40
0.1666666666666667
 40
0.1666666666666667
 40
0.1666666666666667
 40
0.1666666666666667
 40
0.25
 40
0.25
 40
0.25
 40
0.25
 40
0.3333333333333333
 40
0.3333333333333333
 40
0.3333333333333333
 40
0.3333333333333333
 40
0.4166666666666667
 40
0.4166666666666667
 40
0.4166666666666667
 40
0.4166666666666667
 40
0.5
 40
0.5
 40
0.5
 40
0.5
 40
0.5833333333333334
 40
0.5833333333333334
 40
0.5833333333333334
 40
0.5833333333333334
 40
0.6666666666666666
 40
0.6666666666666666
 40
0.6666666666666666
 40
0.6666666666666666
 40
0.75
 40
0.75
 40
0.75
 40
0.75
 40
0.8333333333333334
 40
0.8333333333333334
 40
0.8333333333333334
 40
0.8333333333333334
 40
1.0
 40
1.0
 40
1.0
 40
1.0
 10
-109.6167
 20
23.3646
 30
0.0
 10
-109.6167
 20
23.3646
 30
0.0
 10
-117.7622
 20
23.3646
 30
0.0
 10
-117.7622
 20
23.3646
 30
0.0
 10
-117.7622
 20
23.3646
 30
0.0
 10
-118.5631
 20
23.3646
 30
0.0
 10
-119.5386
 20
23.6961
 30
0.0
 10
-120.0524
 20
24.24
 30
0.0
 10
-120.0524
 20
24.24
 30
0.0
 10
-120.0524
 20
24.24
 30
0.0
 10
-122.8705
 20
26.5295
 30
0.0
 10
-123.5477
 20
27.6661
 30
0.0
 10
-123.5477
 20
27.6661
 30
0.0
 10
-124.0537
 20
28.2316
 30
0.0
 10
-123.9394
 20
29.1971
 30
0.0
 10
-123.5477
 20
29.6644
 30
0.0
 10
-123.5477
 20
29.6644
 30
0.0
 10
-122.842
 20
30.7311
 30
0.0
 10
-120.065
 20
33.2259
 30
0.0
 10
-120.065
 20
33.2259
 30
0.0
 10
-120.065
 20
33.2259
 30
0.0
 10
-119.3678
 20
33.7377
 30
0.0
 10
-118.7058
 20
33.8158
 30
0.0
 10
-117.7622
 20
33.8158
 30
0.0
 10
-117.7622
 20
33.8158
 30
0.0
 10
-117.7622
 20
33.8158
 30
0.0
 10
-109.6167
 20
33.8158
 30
0.0
 10
-109.6167
 20
33.8158
 30
0.0
 10
-109.6167
 20
33.8158
 30
0.0
 10
-108.6731
 20
33.8158
 30
0.0
 10
-107.9135
 20
33.0561
 30
0.0
 10
-107.9135
 20
32.1126
 30
0.0
 10
-107.9135
 20
32.1126
 30
0.0
 10
-107.9135
 20
32.1126
 30
0.0
 10
-107.9135
 20
25.0679
 30
0.0
 10
-107.9135
 20
25.0679
 30
0.0
 10
-107.9135
 20
25.0679
 30
0.0
 10
-107.9135
 20
24.1243
 30
0.0
 10
-108.6731
 20
23.3647
 30
0.0
 10
-109.6167
 20
23.3647
 30
0.0
 10
-109.6167
 20
23.3647
 30
0.0
 10
-109.6167
 20
23.3647
 30
0.0
 10
-109.6167
 20
23.3646
 30
0.0
 10
-109.6167
 20
23.3646
 30
0.0
  0
SPLINE
  5
82
330
1F
100
AcDbEntity
  8
layer 1
 62
     7
100
AcDbSpline
210
0.0
220
0.0
230
1.0
 70
    11
 71
     3
 72
    32
 73
    28
 74
     0
 42
0.0000000001
 43
0.0000000001
 12
1.0
 22
0.0
 32
0.0
 13
1.0
 23
0.0
 33
0.0
 40
0.0
 40
0.0
 40
0.0
 40
0.0
 40
0.125
 40
0.125
 40
0.125
 40
0.125
 40
0.25
 40
0.25
 40
0.25
 40
0.25
 40
0.375
 40
0.375
 40
0.375
 40
0.375
 40
0.5
 40
0.5
 40
0.5
 40
0.5
 40
0.625
 40
0.625
 40
0.625
 40
0.625
 40
0.75
 40
0.75
 40
0.75
 40
0.75
 40
1.0
 40
1.0
 40
1.0
 40
1.0
 10
-89.3798
 20
47.3147
 30
0.0
 10
-89.3798
 20
47.3147
 30
0.0
 10
-102.8008
 20
47.384
 30
0.0
 10
-102.8008
 20
47.384
 30
0.0
 10
-102.8008
 20
47.384
 30
0.0
 10
-103.9595
 20
47.3287
 30
0.0
 10
-104.8756
 20
46.7195
 30
0.0
 10
-104.7711
 20
45.4689
 30
0.0
 10
-104.7711
 20
45.4689
 30
0.0
 10
-104.7711
 20
45.4689
 30
0.0
 10
-104.7341
 20
31.3638
 30
0.0
 10
-104.7341
 20
31.3638
 30
0.0
 10
-104.7341
 20
31.3638
 30
0.0
 10
-104.7086
 20
29.8512
 30
0.0
 10
-102.9537
 20
29.6317
 30
0.0
 10
-102.0296
 20
30.3708
 30
0.0
 10
-102.0296
 20
30.3708
 30
0.0
 10
-102.0296
 20
30.3708
 30
0.0
 10
-88.5193
 20
44.3228
 30
0.0
 10
-88.5193
 20
44.3228
 30
0.0
 10
-88.5193
 20
44.3228
 30
0.0
 10
-87.6475
 20
45.2007
 30
0.0
 10
-87.735
 20
47.1211
 30
0.0
 10
-89.3797
 20
47.3147
 30
0.0
 10
-89.3797
 20
47.3147
 30
0.0
 10
-89.3797
 20
47.3147
 30
0.0
 10
-89.3798
 20
47.3147
 30
0.0
 10
-89.3798
 20
47.3147
 30
0.0
  0
SPLINE
  5
83
330
1F
100
AcDbEntity
  8
layer 1
 62
     7
100
AcDbSpline
210
0.0
220
0.0
230
1.0
 70
    11
 71
     3
 72
    28
 73
    24
 74
     0
 42
0.0000000001
 43
0.0000000001
 12
1.0
 22
0.0
 32
0.0
 13
1.0
 23
0.0
 33
0.0
 40
0.0
 40
0.0
 40
0.0
 40
0.0
 40
0.1428571428571428
 40
0.1428571428571428
 40
0.1428571428571428
 40
0.1428571428571428
 40
0.2857142857142857
 40
0.2857142857142857
 40
0.2857142857142857
 40
0.2857142857142857
 40
0.4285714285714285
 40
0.4285714285714285
 40
0.4285714285714285
 40
0.4285714285714285
 40
0.5714285714285714
 40
0.5714285714285714
 40
0.5714285714285714
 40
0.5714285714285714
 40
0.7142857142857143
 40
0.7142857142857143
 40
0.7142857142857143
 40
0.7142857142857143
 40
1.0
 40
1.0
 40
1.0
 40
1.0
 10
-83.4972
 20
47.3147
 30
0.0
 10
-83.4972
 20
47.3147
 30
0.0
 10
-70.0761
 20
47.384
 30
0.0
 10
-70.0761
 20
47.384
 30
0.0
 10
-70.0761
 20
47.384
 30
0.0
 10
-68.9174
 20
47.3287
 30
0.0
 10
-68.0013
 20
46.7195
 30
0.0
 10
-68.1057
 20
45.4689
 30
0.0
 10
-68.1057
 20
45.4689
 30
0.0
 10
-68.1057
 20
45.4689
 30
0.0
 10
-68.1428
 20
31.3638
 30
0.0
 10
-68.1428
 20
31.3638
 30
0.0
 10
-68.1428
 20
31.3638
 30
0.0
 10
-68.1683
 20
29.8512
 30
0.0
 10
-69.9232
 20
29.6317
 30
0.0
 10
-70.8473
 20
30.3708
 30
0.0
 10
-70.8473
 20
30.3708
 30
0.0
 10
-70.8473
 20
30.3708
 30
0.0
 10
-84.3575
 20
44.3228
 30
0.0
 10
-84.3575
 20
44.3228
 30
0.0
 10
-84.3575
 20
44.3228
 30
0.0
 10
-85.2293
 20
45.2007
 30
0.0
 10
-85.1419
 20
47.1211
 30
0.0
 10
-83.4972
 20
47.3147
 30
0.0
  0
SPLINE
  5
84
330
1F
100
AcDbEntity
  8
layer 1
 62
     7
100
AcDbSpline
210
0.0
220
0.0
230
1.0
 70
    11
 71
     3
 72
    32
 73
    28
 74
     0
 42
0.0000000001
 43
0.0000000001
 12
1.0
 22
0.0
 32
0.0
 13
1.0
 23
0.0
 33
0.0
 40
0.0
 40
0.0
 40
0.0
 40
0.0
 40
0.125
 40
0.125
 40
0.125
 40
0.125
 40
0.25
 40
0.25
 40
0.25
 40
0.25
 40
0.375
 40
0.375
 40
0.375
 40
0.375
 40
0.5
 40
0.5
 40
0.5
 40
0.5
 40
0.625
 40
0.625
 40
0.625
 40
0.625
 40
0.75
 40
0.75
 40
0.75
 40
0.75
 40
1.0
 40
1.0
 40
1.0
 40
1.0
 10
-89.3798
 20
9.7665
 30
0.0
 10
-89.3798
 20
9.7665
 30
0.0
 10
-102.8008
 20
9.6971
 30
0.0
 10
-102.8008
 20
9.6971
 30
0.0
 10
-102.8008
 20
9.6971
 30
0.0
 10
-103.9595
 20
9.7524
 30
0.0
 10
-104.8756
 20
10.3617
 30
0.0
 10
-104.7711
 20
11.6122
 30
0.0
 10
-104.7711
 20
11.6122
 30
0.0
 10
-104.7711
 20
11.6122
 30
0.0
 10
-104.7341
 20
25.7174
 30
0.0
 10
-104.7341
 20
25.7174
 30
0.0
 10
-104.7341
 20
25.7174
 30
0.0
 10
-104.7086
 20
27.23
 30
0.0
 10
-102.9537
 20
27.4494
 30
0.0
 10
-102.0296
 20
26.7104
 30
0.0
 10
-102.0296
 20
26.7104
 30
0.0
 10
-102.0296
 20
26.7104
 30
0.0
 10
-88.5193
 20
12.7584
 30
0.0
 10
-88.5193
 20
12.7584
 30
0.0
 10
-88.5193
 20
12.7584
 30
0.0
 10
-87.6475
 20
11.8805
 30
0.0
 10
-87.735
 20
9.96
 30
0.0
 10
-89.3797
 20
9.7665
 30
0.0
 10
-89.3797
 20
9.7665
 30
0.0
 10
-89.3797
 20
9.7665
 30
0.0
 10
-89.3798
 20
9.7665
 30
0.0
 10
-89.3798
 20
9.7665
 30
0.0
  0
SPLINE
  5
85
330
1F
100
AcDbEntity
  8
layer 1
 62
     7
100
AcDbSpline
210
0.0
220
0.0
230
1.0
 70
    11
 71
     3
 72
    32
 73
    28
 74
     0
 42
0.0000000001
 43
0.0000000001
 12
1.0
 22
0.0
 32
0.0
 13
1.0
 23
0.0
 33
0.0
 40
0.0
 40
0.0
 40
0.0
 40
0.0
 40
0.125
 40
0.125
 40
0.125
 40
0.125
 40
0.25
 40
0.25
 40
0.25
 40
0.25
 40
0.375
 40
0.375
 40
0.375
 40
0.375
 40
0.5
 40
0.5
 40
0.5
 40
0.5
 40
0.625
 40
0.625
 40
0.625
 40
0.625
 40
0.75
 40
0.75
 40
0.75
 40
0.75
 40
1.0
 40
1.0
 40
1.0
 40
1.0
 10
-83.4972
 20
9.7665
 30
0.0
 10
-83.4972
 20
9.7665
 30
0.0
 10
-70.0761
 20
9.697
 30
0.0
 10
-70.0761
 20
9.697
 30
0.0
 10
-70.0761
 20
9.697
 30
0.0
 10
-68.9174
 20
9.7524
 30
0.0
 10
-68.0013
 20
10.3616
 30
0.0
 10
-68.1057
 20
11.6121
 30
0.0
 10
-68.1057
 20
11.6121
 30
0.0
 10
-68.1057
 20
11.6121
 30
0.0
 10
-68.1428
 20
25.7173
 30
0.0
 10
-68.1428
 20
25.7173
 30
0.0
 10
-68.1428
 20
25.7173
 30
0.0
 10
-68.1683
 20
27.2299
 30
0.0
 10
-69.9232
 20
27.4493
 30
0.0
 10
-70.8473
 20
26.7103
 30
0.0
 10
-70.8473
 20
26.7103
 30
0.0
 10
-70.8473
 20
26.7103
 30
0.0
 10
-84.3575
 20
12.7583
 30
0.0
 10
-84.3575
 20
12.7583
 30
0.0
 10
-84.3575
 20
12.7583
 30
0.0
 10
-85.2293
 20
11.8804
 30
0.0
 10
-85.1419
 20
9.96
 30
0.0
 10
-83.4972
 20
9.7664
 30
0.0
 10
-83.4972
 20
9.7664
 30
0.0
 10
-83.4972
 20
9.7664
 30
0.0
 10
-83.4972
 20
9.7665
 30
0.0
 10
-83.4972
 20
9.7665
 30
0.0
  0
SPLINE
  5
86
330
1F
100
AcDbEntity
  8
layer 1
 62
     7
100
AcDbSpline
210
0.0
220
0.0
230
1.0
 70
    11
 71
     3
 72
    36
 73
    32
 74
     0
 42
0.0000000001
 43
0.0000000001
 12
1.0
 22
0.0
 32
0.0
 13
1.0
 23
0.0
 33
0.0
 40
0.0
 40
0.0
 40
0.0
 40
0.0
 40
0.1111111111111111
 40
0.1111111111111111
 40
0.1111111111111111
 40
0.1111111111111111
 40
0.2222222222222222
 40
0.2222222222222222
 40
0.2222222222222222
 40
0.2222222222222222
 40
0.3333333333333333
 40
0.3333333333333333
 40
0.3333333333333333
 40
0.3333333333333333
 40
0.4444444444444444
 40
0.4444444444444444
 40
0.4444444444444444
 40
0.4444444444444444
 40
0.5555555555555556
 40
0.5555555555555556
 40
0.5555555555555556
 40
0.5555555555555556
 40
0.6666666666666666
 40
0.6666666666666666
 40
0.6666666666666666
 40
0.6666666666666666
 40
0.7777777777777778
 40
0.7777777777777778
 40
0.7777777777777778
 40
0.7777777777777778
 40
1.0
 40
1.0
 40
1.0
 40
1.0
 10
-85.246
 20
40.5744
 30
0.0
 10
-85.246
 20
40.5744
 30
0.0
 10
-82.2216
 20
37.5501
 30
0.0
 10
-82.2216
 20
37.5501
 30
0.0
 10
-82.2216
 20
37.5501
 30
0.0
 10
-81.5566
 20
36.885
 30
0.0
 10
-81.5566
 20
35.8064
 30
0.0
 10
-82.2216
 20
35.1413
 30
0.0
 10
-82.2216
 20
35.1413
 30
0.0
 10
-82.2216
 20
35.1413
 30
0.0
 10
-85.246
 20
32.117
 30
0.0
 10
-85.246
 20
32.117
 30
0.0
 10
-85.246
 20
32.117
 30
0.0
 10
-85.9111
 20
31.4519
 30
0.0
 10
-86.9897
 20
31.4519
 30
0.0
 10
-87.6548
 20
32.1169
 30
0.0
 10
-87.6548
 20
32.1169
 30
0.0
 10
-87.6548
 20
32.1169
 30
0.0
 10
-90.6791
 20
35.1414
 30
0.0
 10
-90.6791
 20
35.1414
 30
0.0
 10
-90.6791
 20
35.1414
 30
0.0
 10
-91.3442
 20
35.8063
 30
0.0
 10
-91.3442
 20
36.885
 30
0.0
 10
-90.6791
 20
37.55
 30
0.0
 10
-90.6791
 20
37.55
 30
0.0
 10
-90.6791
 20
37.55
 30
0.0
 10
-87.6548
 20
40.5744
 30
0.0
 10
-87.6548
 20
40.5744
 30
0.0
 10
-87.6548
 20
40.5744
 30
0.0
 10
-86.9897
 20
41.2395
 30
0.0
 10
-85.911
 20
41.2395
 30
0.0
 10
-85.246
 20
40.5744
 30
0.0
  0
SPLINE
  5
87
330
1F
100
AcDbEntity
  8
layer 1
 62
     7
100
AcDbSpline
210
0.0
220
0.0
230
1.0
 70
    11
 71
     3
 72
    36
 73
    32
 74
     0
 42
0.0000000001
 43
0.0000000001
 12
1.0
 22
0.0
 32
0.0
 13
1.0
 23
0.0
 33
0.0
 40
0.0
 40
0.0
 40
0.0
 40
0.0
 40
0.1111111111111111
 40
0.1111111111111111
 40
0.1111111111111111
 40
0.1111111111111111
 40
0.2222222222222222
 40
0.2222222222222222
 40
0.2222222222222222
 40
0.2222222222222222
 40
0.3333333333333333
 40
0.3333333333333333
 40
0.3333333333333333
 40
0.3333333333333333
 40
0.4444444444444444
 40
0.4444444444444444
 40
0.4444444444444444
 40
0.4444444444444444
 40
0.5555555555555556
 40
0.5555555555555556
 40
0.5555555555555556
 40
0.5555555555555556
 40
0.6666666666666666
 40
0.6666666666666666
 40
0.6666666666666666
 40
0.6666666666666666
 40
0.7777777777777778
 40
0.7777777777777778
 40
0.7777777777777778
 40
0.7777777777777778
 40
1.0
 40
1.0
 40
1.0
 40
1.0
 10
-85.246
 20
24.9799
 30
0.0
 10
-85.246
 20
24.9799
 30
0.0
 10
-82.2216
 20
21.9556
 30
0.0
 10
-82.2216
 20
21.9556
 30
0.0
 10
-82.2216
 20
21.9556
 30
0.0
 10
-81.5566
 20
21.2904
 30
0.0
 10
-81.5566
 20
20.2117
 30
0.0
 10
-82.2216
 20
19.5467
 30
0.0
 10
-82.2216
 20
19.5467
 30
0.0
 10
-82.2216
 20
19.5467
 30
0.0
 10
-85.246
 20
16.5224
 30
0.0
 10
-85.246
 20
16.5224
 30
0.0
 10
-85.246
 20
16.5224
 30
0.0
 10
-85.911
 20
15.8573
 30
0.0
 10
-86.9897
 20
15.8573
 30
0.0
 10
-87.6547
 20
16.5223
 30
0.0
 10
-87.6547
 20
16.5223
 30
0.0
 10
-87.6547
 20
16.5223
 30
0.0
 10
-90.6791
 20
19.5468
 30
0.0
 10
-90.6791
 20
19.5468
 30
0.0
 10
-90.6791
 20
19.5468
 30
0.0
 10
-91.3442
 20
20.2118
 30
0.0
 10
-91.3442
 20
21.2905
 30
0.0
 10
-90.6791
 20
21.9555
 30
0.0
 10
-90.6791
 20
21.9555
 30
0.0
 10
-90.6791
 20
21.9555
 30
0.0
 10
-87.6548
 20
24.9799
 30
0.0
 10
-87.6548
 20
24.9799
 30
0.0
 10
-87.6548
 20
24.9799
 30
0.0
 10
-86.9897
 20
25.6449
 30
0.0
 10
-85.9111
 20
25.6449
 30
0.0
 10
-85.246
 20
24.9799
 30
0.0
  0
SPLINE
  5
88
330
1F
100
AcDbEntity
  8
layer 1
 62
     7
100
AcDbSpline
210
0.0
220
0.0
230
1.0
 70
     8
 71
     3
 72
    36
 73
    32
 74
     0
 42
0.0000000001
 43
0.0000000001
 12
1.0
 22
0.0
 32
0.0
 13
1.0
 23
0.0
 33
0.0
 40
0.0
 40
0.0
 40
0.0
 40
0.0
 40
0.1111111111111111
 40
0.1111111111111111
 40
0.1111111111111111
 40
0.1111111111111111
 40
0.2222222222222222
 40
0.2222222222222222
 40
0.2222222222222222
 40
0.2222222222222222
 40
0.3333333333333333
 40
0.3333333333333333
 40
0.3333333333333333
 40
0.3333333333333333
 40
0.4444444444444444
 40
0.4444444444444444
 40
0.4444444444444444
 40
0.4444444444444444
 40
0.5555555555555556
 40
0.5555555555555556
 40
0.5555555555555556
 40
0.5555555555555556
 40
0.6666666666666666
 40
0.6666666666666666
 40
0.6666666666666666
 40
0.6666666666666666
 40
0.7777777777777778
 40
0.7777777777777778
 40
0.7777777777777778
 40
0.7777777777777778
 40
1.0
 40
1.0
 40
1.0
 40
1.0
 10
-92.8165
 20
32.7772
 30
0.0
 10
-92.8165
 20
32.7772
 30
0.0
 10
-89.7922
 20
29.7528
 30
0.0
 10
-89.7922
 20
29.7528
 30
0.0
 10
-89.7922
 20
29.7528
 30
0.0
 10
-89.1272
 20
29.0877
 30
0.0
 10
-89.1272
 20
28.0091
 30
0.0
 10
-89.7922
 20
27.344
 30
0.0
 10
-89.7922
 20
27.344
 30
0.0
 10
-89.7922
 20
27.344
 30
0.0
 10
-92.8165
 20
24.3198
 30
0.0
 10
-92.8165
 20
24.3198
 30
0.0
 10
-92.8165
 20
24.3198
 30
0.0
 10
-93.4817
 20
23.6546
 30
0.0
 10
-94.5603
 20
23.6546
 30
0.0
 10
-95.2254
 20
24.3196
 30
0.0
 10
-95.2254
 20
24.3196
 30
0.0
 10
-95.2254
 20
24.3196
 30
0.0
 10
-98.2497
 20
27.3441
 30
0.0
 10
-98.2497
 20
27.3441
 30
0.0
 10
-98.2497
 20
27.3441
 30
0.0
 10
-98.9147
 20
28.009
 30
0.0
 10
-98.9147
 20
29.0876
 30
0.0
 10
-98.2497
 20
29.7527
 30
0.0
 10
-98.2497
 20
29.7527
 30
0.0
 10
-98.2497
 20
29.7527
 30
0.0
 10
-95.2254
 20
32.7772
 30
0.0
 10
-95.2254
 20
32.7772
 30
0.0
 10
-95.2254
 20
32.7772
 30
0.0
 10
-94.5602
 20
33.4421
 30
0.0
 10
-93.4816
 20
33.4421
 30
0.0
 10
-92.8165
 20
32.7771
 30
0.0
  0
SPLINE
  5
89
330
1F
100
AcDbEntity
  8
layer 1
 62
     7
100
AcDbSpline
210
0.0
220
0.0
230
1.0
 70
     8
 71
     3
 72
    36
 73
    32
 74
     0
 42
0.0000000001
 43
0.0000000001
 12
1.0
 22
0.0
 32
0.0
 13
1.0
 23
0.0
 33
0.0
 40
0.0
 40
0.0
 40
0.0
 40
0.0
 40
0.1111111111111111
 40
0.1111111111111111
 40
0.1111111111111111
 40
0.1111111111111111
 40
0.2222222222222222
 40
0.2222222222222222
 40
0.2222222222222222
 40
0.2222222222222222
 40
0.3333333333333333
 40
0.3333333333333333
 40
0.3333333333333333
 40
0.3333333333333333
 40
0.4444444444444444
 40
0.4444444444444444
 40
0.4444444444444444
 40
0.4444444444444444
 40
0.5555555555555556
 40
0.5555555555555556
 40
0.5555555555555556
 40
0.5555555555555556
 40
0.6666666666666666
 40
0.6666666666666666
 40
0.6666666666666666
 40
0.6666666666666666
 40
0.7777777777777778
 40
0.7777777777777778
 40
0.7777777777777778
 40
0.7777777777777778
 40
1.0
 40
1.0
 40
1.0
 40
1.0
 10
-77.6301
 20
32.7772
 30
0.0
 10
-77.6301
 20
32.7772
 30
0.0
 10
-74.6056
 20
29.7528
 30
0.0
 10
-74.6056
 20
29.7528
 30
0.0
 10
-74.6056
 20
29.7528
 30
0.0
 10
-73.9406
 20
29.0877
 30
0.0
 10
-73.9406
 20
28.0091
 30
0.0
 10
-74.6057
 20
27.344
 30
0.0
 10
-74.6057
 20
27.344
 30
0.0
 10
-74.6057
 20
27.344
 30
0.0
 10
-77.6301
 20
24.3198
 30
0.0
 10
-77.6301
 20
24.3198
 30
0.0
 10
-77.6301
 20
24.3198
 30
0.0
 10
-78.2951
 20
23.6546
 30
0.0
 10
-79.3737
 20
23.6546
 30
0.0
 10
-80.0388
 20
24.3197
 30
0.0
 10
-80.0388
 20
24.3197
 30
0.0
 10
-80.0388
 20
24.3197
 30
0.0
 10
-83.0632
 20
27.3441
 30
0.0
 10
-83.0632
 20
27.3441
 30
0.0
 10
-83.0632
 20
27.3441
 30
0.0
 10
-83.7282
 20
28.0091
 30
0.0
 10
-83.7282
 20
29.0877
 30
0.0
 10
-83.0631
 20
29.7528
 30
0.0
 10
-83.0631
 20
29.7528
 30
0.0
 10
-83.0631
 20
29.7528
 30
0.0
 10
-80.0388
 20
32.7772
 30
0.0
 10
-80.0388
 20
32.7772
 30
0.0
 10
-80.0388
 20
32.7772
 30
0.0
 10
-79.3737
 20
33.4421
 30
0.0
 10
-78.2951
 20
33.4421
 30
0.0
 10
-77.63
 20
32.7771
 30
0.0
  0
SPLINE
  5
8A
330
1F
100
AcDbEntity
  8
layer 1
 62
     7
100
AcDbSpline
210
0.0
220
0.0
230
1.0
 70
    11
 71
     3
 72
    32
 73
    28
 74
     0
 42
0.0000000001
 43
0.0000000001
 12
1.0
 22
0.0
 32
0.0
 13
1.0
 23
0.0
 33
0.0
 40
0.0
 40
0.0
 40
0.0
 40
0.0
 40
0.125
 40
0.125
 40
0.125
 40
0.125
 40
0.25
 40
0.25
 40
0.25
 40
0.25
 40
0.375
 40
0.375
 40
0.375
 40
0.375
 40
0.5
 40
0.5
 40
0.5
 40
0.5
 40
0.625
 40
0.625
 40
0.625
 40
0.625
 40
0.75
 40
0.75
 40
0.75
 40
0.75
 40
1.0
 40
1.0
 40
1.0
 40
1.0
 10
-89.3755
 20
7.267
 30
0.0
 10
-89.3755
 20
7.267
 30
0.0
 10
-102.7966
 20
7.3365
 30
0.0
 10
-102.7966
 20
7.3365
 30
0.0
 10
-102.7966
 20
7.3365
 30
0.0
 10
-103.9553
 20
7.2812
 30
0.0
 10
-104.8714
 20
6.6719
 30
0.0
 10
-104.767
 20
5.4214
 30
0.0
 10
-104.767
 20
5.4214
 30
0.0
 10
-104.767
 20
5.4214
 30
0.0
 10
-104.7299
 20
-8.6838
 30
0.0
 10
-104.7299
 20
-8.6838
 30
0.0
 10
-104.7299
 20
-8.6838
 30
0.0
 10
-104.7044
 20
-10.1964
 30
0.0
 10
-102.9495
 20
-10.4158
 30
0.0
 10
-102.0254
 20
-9.6768
 30
0.0
 10
-102.0254
 20
-9.6768
 30
0.0
 10
-102.0254
 20
-9.6768
 30
0.0
 10
-88.5151
 20
4.2752
 30
0.0
 10
-88.5151
 20
4.2752
 30
0.0
 10
-88.5151
 20
4.2752
 30
0.0
 10
-87.6433
 20
5.1531
 30
0.0
 10
-87.7308
 20
7.0736
 30
0.0
 10
-89.3755
 20
7.2671
 30
0.0
 10
-89.3755
 20
7.2671
 30
0.0
 10
-89.3755
 20
7.2671
 30
0.0
 10
-89.3755
 20
7.267
 30
0.0
 10
-89.3755
 20
7.267
 30
0.0
  0
SPLINE
  5
8B
330
1F
100
AcDbEntity
  8
layer 1
 62
     7
100
AcDbSpline
210
0.0
220
0.0
230
1.0
 70
    11
 71
     3
 72
    32
 73
    28
 74
     0
 42
0.0000000001
 43
0.0000000001
 12
1.0
 22
0.0
 32
0.0
 13
1.0
 23
0.0
 33
0.0
 40
0.0
 40
0.0
 40
0.0
 40
0.0
 40
0.125
 40
0.125
 40
0.125
 40
0.125
 40
0.25
 40
0.25
 40
0.25
 40
0.25
 40
0.375
 40
0.375
 40
0.375
 40
0.375
 40
0.5
 40
0.5
 40
0.5
 40
0.5
 40
0.625
 40
0.625
 40
0.625
 40
0.625
 40
0.75
 40
0.75
 40
0.75
 40
0.75
 40
1.0
 40
1.0
 40
1.0
 40
1.0
 10
-83.4929
 20
7.267
 30
0.0
 10
-83.4929
 20
7.267
 30
0.0
 10
-70.0719
 20
7.3365
 30
0.0
 10
-70.0719
 20
7.3365
 30
0.0
 10
-70.0719
 20
7.3365
 30
0.0
 10
-68.9132
 20
7.2812
 30
0.0
 10
-67.9971
 20
6.6719
 30
0.0
 10
-68.1015
 20
5.4214
 30
0.0
 10
-68.1015
 20
5.4214
 30
0.0
 10
-68.1015
 20
5.4214
 30
0.0
 10
-68.1386
 20
-8.6838
 30
0.0
 10
-68.1386
 20
-8.6838
 30
0.0
 10
-68.1386
 20
-8.6838
 30
0.0
 10
-68.1641
 20
-10.1964
 30
0.0
 10
-69.919
 20
-10.4158
 30
0.0
 10
-70.8431
 20
-9.6768
 30
0.0
 10
-70.8431
 20
-9.6768
 30
0.0
 10
-70.8431
 20
-9.6768
 30
0.0
 10
-84.3534
 20
4.2752
 30
0.0
 10
-84.3534
 20
4.2752
 30
0.0
 10
-84.3534
 20
4.2752
 30
0.0
 10
-85.2252
 20
5.1531
 30
0.0
 10
-85.1377
 20
7.0736
 30
0.0
 10
-83.493
 20
7.2671
 30
0.0
 10
-83.493
 20
7.2671
 30
0.0
 10
-83.493
 20
7.2671
 30
0.0
 10
-83.4929
 20
7.267
 30
0.0
 10
-83.4929
 20
7.267
 30
0.0
  0
SPLINE
  5
8C
330
1F
100
AcDbEntity
  8
layer 1
 62
     7
100
AcDbSpline
210
0.0
220
0.0
230
1.0
 70
    11
 71
     3
 72
    32
 73
    28
 74
     0
 42
0.0000000001
 43
0.0000000001
 12
1.0
 22
0.0
 32
0.0
 13
1.0
 23
0.0
 33
0.0
 40
0.0
 40
0.0
 40
0.0
 40
0.0
 40
0.125
 40
0.125
 40
0.125
 40
0.125
 40
0.25
 40
0.25
 40
0.25
 40
0.25
 40
0.375
 40
0.375
 40
0.375
 40
0.375
 40
0.5
 40
0.5
 40
0.5
 40
0.5
 40
0.625
 40
0.625
 40
0.625
 40
0.625
 40
0.75
 40
0.75
 40
0.75
 40
0.75
 40
1.0
 40
1.0
 40
1.0
 40
1.0
 10
-89.3755
 20
-30.2811
 30
0.0
 10
-89.3755
 20
-30.2811
 30
0.0
 10
-102.7966
 20
-30.3505
 30
0.0
 10
-102.7966
 20
-30.3505
 30
0.0
 10
-102.7966
 20
-30.3505
 30
0.0
 10
-103.9553
 20
-30.2952
 30
0.0
 10
-104.8714
 20
-29.686
 30
0.0
 10
-104.767
 20
-28.4354
 30
0.0
 10
-104.767
 20
-28.4354
 30
0.0
 10
-104.767
 20
-28.4354
 30
0.0
 10
-104.7299
 20
-14.3302
 30
0.0
 10
-104.7299
 20
-14.3302
 30
0.0
 10
-104.7299
 20
-14.3302
 30
0.0
 10
-104.7044
 20
-12.8176
 30
0.0
 10
-102.9495
 20
-12.5982
 30
0.0
 10
-102.0254
 20
-13.3372
 30
0.0
 10
-102.0254
 20
-13.3372
 30
0.0
 10
-102.0254
 20
-13.3372
 30
0.0
 10
-88.5151
 20
-27.2893
 30
0.0
 10
-88.5151
 20
-27.2893
 30
0.0
 10
-88.5151
 20
-27.2893
 30
0.0
 10
-87.6433
 20
-28.1671
 30
0.0
 10
-87.7308
 20
-30.0876
 30
0.0
 10
-89.3755
 20
-30.2811
 30
0.0
 10
-89.3755
 20
-30.2811
 30
0.0
 10
-89.3755
 20
-30.2811
 30
0.0
 10
-89.3755
 20
-30.2811
 30
0.0
 10
-89.3755
 20
-30.2811
 30
0.0
  0
SPLINE
  5
8D
330
1F
100
AcDbEntity
  8
layer 1
 62
     7
100
AcDbSpline
210
0.0
220
0.0
230
1.0
 70
    11
 71
     3
 72
    32
 73
    28
 74
     0
 42
0.0000000001
 43
0.0000000001
 12
1.0
 22
0.0
 32
0.0
 13
1.0
 23
0.0
 33
0.0
 40
0.0
 40
0.0
 40
0.0
 40
0.0
 40
0.125
 40
0.125
 40
0.125
 40
0.125
 40
0.25
 40
0.25
 40
0.25
 40
0.25
 40
0.375
 40
0.375
 40
0.375
 40
0.375
 40
0.5
 40
0.5
 40
0.5
 40
0.5
 40
0.625
 40
0.625
 40
0.625
 40
0.625
 40
0.75
 40
0.75
 40
0.75
 40
0.75
 40
1.0
 40
1.0
 40
1.0
 40
1.0
 10
-83.4929
 20
-30.2811
 30
0.0
 10
-83.4929
 20
-30.2811
 30
0.0
 10
-70.0718
 20
-30.3505
 30
0.0
 10
-70.0718
 20
-30.3505
 30
0.0
 10
-70.0718
 20
-30.3505
 30
0.0
 10
-68.9131
 20
-30.2952
 30
0.0
 10
-67.9971
 20
-29.686
 30
0.0
 10
-68.1015
 20
-28.4354
 30
0.0
 10
-68.1015
 20
-28.4354
 30
0.0
 10
-68.1015
 20
-28.4354
 30
0.0
 10
-68.1385
 20
-14.3302
 30
0.0
 10
-68.1385
 20
-14.3302
 30
0.0
 10
-68.1385
 20
-14.3302
 30
0.0
 10
-68.164
 20
-12.8176
 30
0.0
 10
-69.9189
 20
-12.5982
 30
0.0
 10
-70.843
 20
-13.3372
 30
0.0
 10
-70.843
 20
-13.3372
 30
0.0
 10
-70.843
 20
-13.3372
 30
0.0
 10
-84.3533
 20
-27.2893
 30
0.0
 10
-84.3533
 20
-27.2893
 30
0.0
 10
-84.3533
 20
-27.2893
 30
0.0
 10
-85.2251
 20
-28.1671
 30
0.0
 10
-85.1376
 20
-30.0876
 30
0.0
 10
-83.4929
 20
-30.2811
 30
0.0
 10
-83.4929
 20
-30.2811
 30
0.0
 10
-83.4929
 20
-30.2811
 30
0.0
 10
-83.4929
 20
-30.2811
 30
0.0
 10
-83.4929
 20
-30.2811
 30
0.0
  0
SPLINE
  5
8E
330
1F
100
AcDbEntity
  8
layer 1
 62
     7
100
AcDbSpline
210
0.0
220
0.0
230
1.0
 70
     8
 71
     3
 72
    36
 73
    32
 74
     0
 42
0.0000000001
 43
0.0000000001
 12
1.0
 22
0.0
 32
0.0
 13
1.0
 23
0.0
 33
0.0
 40
0.0
 40
0.0
 40
0.0
 40
0.0
 40
0.1111111111111111
 40
0.1111111111111111
 40
0.1111111111111111
 40
0.1111111111111111
 40
0.2222222222222222
 40
0.2222222222222222
 40
0.2222222222222222
 40
0.2222222222222222
 40
0.3333333333333333
 40
0.3333333333333333
 40
0.3333333333333333
 40
0.3333333333333333
 40
0.4444444444444444
 40
0.4444444444444444
 40
0.4444444444444444
 40
0.4444444444444444
 40
0.5555555555555556
 40
0.5555555555555556
 40
0.5555555555555556
 40
0.5555555555555556
 40
0.6666666666666666
 40
0.6666666666666666
 40
0.6666666666666666
 40
0.6666666666666666
 40
0.7777777777777778
 40
0.7777777777777778
 40
0.7777777777777778
 40
0.7777777777777778
 40
1.0
 40
1.0
 40
1.0
 40
1.0
 10
-85.2418
 20
0.5269
 30
0.0
 10
-85.2418
 20
0.5269
 30
0.0
 10
-82.2174
 20
-2.4975
 30
0.0
 10
-82.2174
 20
-2.4975
 30
0.0
 10
-82.2174
 20
-2.4975
 30
0.0
 10
-81.5523
 20
-3.1625
 30
0.0
 10
-81.5523
 20
-4.2412
 30
0.0
 10
-82.2174
 20
-4.9062
 30
0.0
 10
-82.2174
 20
-4.9062
 30
0.0
 10
-82.2174
 20
-4.9062
 30
0.0
 10
-85.2418
 20
-7.9306
 30
0.0
 10
-85.2418
 20
-7.9306
 30
0.0
 10
-85.2418
 20
-7.9306
 30
0.0
 10
-85.9068
 20
-8.5957
 30
0.0
 10
-86.9855
 20
-8.5957
 30
0.0
 10
-87.6505
 20
-7.9306
 30
0.0
 10
-87.6505
 20
-7.9306
 30
0.0
 10
-87.6505
 20
-7.9306
 30
0.0
 10
-90.6748
 20
-4.9063
 30
0.0
 10
-90.6748
 20
-4.9063
 30
0.0
 10
-90.6748
 20
-4.9063
 30
0.0
 10
-91.3399
 20
-4.2412
 30
0.0
 10
-91.3399
 20
-3.1626
 30
0.0
 10
-90.6748
 20
-2.4975
 30
0.0
 10
-90.6748
 20
-2.4975
 30
0.0
 10
-90.6748
 20
-2.4975
 30
0.0
 10
-87.6505
 20
0.5269
 30
0.0
 10
-87.6505
 20
0.5269
 30
0.0
 10
-87.6505
 20
0.5269
 30
0.0
 10
-86.9854
 20
1.1919
 30
0.0
 10
-85.9068
 20
1.1919
 30
0.0
 10
-85.2417
 20
0.5269
 30
0.0
  0
SPLINE
  5
8F
330
1F
100
AcDbEntity
  8
layer 1
 62
     7
100
AcDbSpline
210
0.0
220
0.0
230
1.0
 70
     8
 71
     3
 72
    36
 73
    32
 74
     0
 42
0.0000000001
 43
0.0000000001
 12
1.0
 22
0.0
 32
0.0
 13
1.0
 23
0.0
 33
0.0
 40
0.0
 40
0.0
 40
0.0
 40
0.0
 40
0.1111111111111111
 40
0.1111111111111111
 40
0.1111111111111111
 40
0.1111111111111111
 40
0.2222222222222222
 40
0.2222222222222222
 40
0.2222222222222222
 40
0.2222222222222222
 40
0.3333333333333333
 40
0.3333333333333333
 40
0.3333333333333333
 40
0.3333333333333333
 40
0.4444444444444444
 40
0.4444444444444444
 40
0.4444444444444444
 40
0.4444444444444444
 40
0.5555555555555556
 40
0.5555555555555556
 40
0.5555555555555556
 40
0.5555555555555556
 40
0.6666666666666666
 40
0.6666666666666666
 40
0.6666666666666666
 40
0.6666666666666666
 40
0.7777777777777778
 40
0.7777777777777778
 40
0.7777777777777778
 40
0.7777777777777778
 40
1.0
 40
1.0
 40
1.0
 40
1.0
 10
-85.2418
 20
-15.0676
 30
0.0
 10
-85.2418
 20
-15.0676
 30
0.0
 10
-82.2174
 20
-18.092
 30
0.0
 10
-82.2174
 20
-18.092
 30
0.0
 10
-82.2174
 20
-18.092
 30
0.0
 10
-81.5523
 20
-18.7571
 30
0.0
 10
-81.5523
 20
-19.8357
 30
0.0
 10
-82.2174
 20
-20.5008
 30
0.0
 10
-82.2174
 20
-20.5008
 30
0.0
 10
-82.2174
 20
-20.5008
 30
0.0
 10
-85.2418
 20
-23.5251
 30
0.0
 10
-85.2418
 20
-23.5251
 30
0.0
 10
-85.2418
 20
-23.5251
 30
0.0
 10
-85.9068
 20
-24.1903
 30
0.0
 10
-86.9854
 20
-24.1903
 30
0.0
 10
-87.6505
 20
-23.5251
 30
0.0
 10
-87.6505
 20
-23.5251
 30
0.0
 10
-87.6505
 20
-23.5251
 30
0.0
 10
-90.6748
 20
-20.5008
 30
0.0
 10
-90.6748
 20
-20.5008
 30
0.0
 10
-90.6748
 20
-20.5008
 30
0.0
 10
-91.3399
 20
-19.8357
 30
0.0
 10
-91.3399
 20
-18.7571
 30
0.0
 10
-90.6748
 20
-18.092
 30
0.0
 10
-90.6748
 20
-18.092
 30
0.0
 10
-90.6748
 20
-18.092
 30
0.0
 10
-87.6505
 20
-15.0676
 30
0.0
 10
-87.6505
 20
-15.0676
 30
0.0
 10
-87.6505
 20
-15.0676
 30
0.0
 10
-86.9855
 20
-14.4026
 30
0.0
 10
-85.9068
 20
-14.4026
 30
0.0
 10
-85.2418
 20
-15.0677
 30
0.0
  0
SPLINE
  5
90
330
1F
100
AcDbEntity
  8
layer 1
 62
     7
100
AcDbSpline
210
0.0
220
0.0
230
1.0
 70
     8
 71
     3
 72
    36
 73
    32
 74
     0
 42
0.0000000001
 43
0.0000000001
 12
1.0
 22
0.0
 32
0.0
 13
1.0
 23
0.0
 33
0.0
 40
0.0
 40
0.0
 40
0.0
 40
0.0
 40
0.1111111111111111
 40
0.1111111111111111
 40
0.1111111111111111
 40
0.1111111111111111
 40
0.2222222222222222
 40
0.2222222222222222
 40
0.2222222222222222
 40
0.2222222222222222
 40
0.3333333333333333
 40
0.3333333333333333
 40
0.3333333333333333
 40
0.3333333333333333
 40
0.4444444444444444
 40
0.4444444444444444
 40
0.4444444444444444
 40
0.4444444444444444
 40
0.5555555555555556
 40
0.5555555555555556
 40
0.5555555555555556
 40
0.5555555555555556
 40
0.6666666666666666
 40
0.6666666666666666
 40
0.6666666666666666
 40
0.6666666666666666
 40
0.7777777777777778
 40
0.7777777777777778
 40
0.7777777777777778
 40
0.7777777777777778
 40
1.0
 40
1.0
 40
1.0
 40
1.0
 10
-92.8123
 20
-7.2704
 30
0.0
 10
-92.8123
 20
-7.2704
 30
0.0
 10
-89.788
 20
-10.2947
 30
0.0
 10
-89.788
 20
-10.2947
 30
0.0
 10
-89.788
 20
-10.2947
 30
0.0
 10
-89.1229
 20
-10.9598
 30
0.0
 10
-89.1229
 20
-12.0384
 30
0.0
 10
-89.788
 20
-12.7035
 30
0.0
 10
-89.788
 20
-12.7035
 30
0.0
 10
-89.788
 20
-12.7035
 30
0.0
 10
-92.8123
 20
-15.7279
 30
0.0
 10
-92.8123
 20
-15.7279
 30
0.0
 10
-92.8123
 20
-15.7279
 30
0.0
 10
-93.4774
 20
-16.393
 30
0.0
 10
-94.556
 20
-16.393
 30
0.0
 10
-95.2211
 20
-15.7279
 30
0.0
 10
-95.2211
 20
-15.7279
 30
0.0
 10
-95.2211
 20
-15.7279
 30
0.0
 10
-98.2454
 20
-12.7035
 30
0.0
 10
-98.2454
 20
-12.7035
 30
0.0
 10
-98.2454
 20
-12.7035
 30
0.0
 10
-98.9105
 20
-12.0385
 30
0.0
 10
-98.9105
 20
-10.9598
 30
0.0
 10
-98.2454
 20
-10.2948
 30
0.0
 10
-98.2454
 20
-10.2948
 30
0.0
 10
-98.2454
 20
-10.2948
 30
0.0
 10
-95.2211
 20
-7.2704
 30
0.0
 10
-95.2211
 20
-7.2704
 30
0.0
 10
-95.2211
 20
-7.2704
 30
0.0
 10
-94.556
 20
-6.6053
 30
0.0
 10
-93.4774
 20
-6.6053
 30
0.0
 10
-92.8123
 20
-7.2705
 30
0.0
  0
SPLINE
  5
91
330
1F
100
AcDbEntity
  8
layer 1
 62
     7
100
AcDbSpline
210
0.0
220
0.0
230
1.0
 70
     8
 71
     3
 72
    36
 73
    32
 74
     0
 42
0.0000000001
 43
0.0000000001
 12
1.0
 22
0.0
 32
0.0
 13
1.0
 23
0.0
 33
0.0
 40
0.0
 40
0.0
 40
0.0
 40
0.0
 40
0.1111111111111111
 40
0.1111111111111111
 40
0.1111111111111111
 40
0.1111111111111111
 40
0.2222222222222222
 40
0.2222222222222222
 40
0.2222222222222222
 40
0.2222222222222222
 40
0.3333333333333333
 40
0.3333333333333333
 40
0.3333333333333333
 40
0.3333333333333333
 40
0.4444444444444444
 40
0.4444444444444444
 40
0.4444444444444444
 40
0.4444444444444444
 40
0.5555555555555556
 40
0.5555555555555556
 40
0.5555555555555556
 40
0.5555555555555556
 40
0.6666666666666666
 40
0.6666666666666666
 40
0.6666666666666666
 40
0.6666666666666666
 40
0.7777777777777778
 40
0.7777777777777778
 40
0.7777777777777778
 40
0.7777777777777778
 40
1.0
 40
1.0
 40
1.0
 40
1.0
 10
-77.6258
 20
-7.2704
 30
0.0
 10
-77.6258
 20
-7.2704
 30
0.0
 10
-74.6014
 20
-10.2947
 30
0.0
 10
-74.6014
 20
-10.2947
 30
0.0
 10
-74.6014
 20
-10.2947
 30
0.0
 10
-73.9364
 20
-10.9598
 30
0.0
 10
-73.9364
 20
-12.0384
 30
0.0
 10
-74.6014
 20
-12.7035
 30
0.0
 10
-74.6014
 20
-12.7035
 30
0.0
 10
-74.6014
 20
-12.7035
 30
0.0
 10
-77.6258
 20
-15.7279
 30
0.0
 10
-77.6258
 20
-15.7279
 30
0.0
 10
-77.6258
 20
-15.7279
 30
0.0
 10
-78.2908
 20
-16.3929
 30
0.0
 10
-79.3695
 20
-16.3929
 30
0.0
 10
-80.0345
 20
-15.7279
 30
0.0
 10
-80.0345
 20
-15.7279
 30
0.0
 10
-80.0345
 20
-15.7279
 30
0.0
 10
-83.059
 20
-12.7035
 30
0.0
 10
-83.059
 20
-12.7035
 30
0.0
 10
-83.059
 20
-12.7035
 30
0.0
 10
-83.7239
 20
-12.0384
 30
0.0
 10
-83.7239
 20
-10.9598
 30
0.0
 10
-83.0589
 20
-10.2947
 30
0.0
 10
-83.0589
 20
-10.2947
 30
0.0
 10
-83.0589
 20
-10.2947
 30
0.0
 10
-80.0346
 20
-7.2704
 30
0.0
 10
-80.0346
 20
-7.2704
 30
0.0
 10
-80.0346
 20
-7.2704
 30
0.0
 10
-79.3695
 20
-6.6053
 30
0.0
 10
-78.2908
 20
-6.6053
 30
0.0
 10
-77.6258
 20
-7.2705
 30
0.0
  0
SPLINE
  5
92
330
1F
100
AcDbEntity
  8
layer 1
 62
     7
100
AcDbSpline
210
0.0
220
0.0
230
1.0
 70
     8
 71
     3
 72
    36
 73
    32
 74
     0
 42
0.0000000001
 43
0.0000000001
 12
1.0
 22
0.0
 32
0.0
 13
1.0
 23
0.0
 33
0.0
 40
0.0
 40
0.0
 40
0.0
 40
0.0
 40
0.1111111111111111
 40
0.1111111111111111
 40
0.1111111111111111
 40
0.1111111111111111
 40
0.2222222222222222
 40
0.2222222222222222
 40
0.2222222222222222
 40
0.2222222222222222
 40
0.3333333333333333
 40
0.3333333333333333
 40
0.3333333333333333
 40
0.3333333333333333
 40
0.4444444444444444
 40
0.4444444444444444
 40
0.4444444444444444
 40
0.4444444444444444
 40
0.5555555555555556
 40
0.5555555555555556
 40
0.5555555555555556
 40
0.5555555555555556
 40
0.6666666666666666
 40
0.6666666666666666
 40
0.6666666666666666
 40
0.6666666666666666
 40
0.7777777777777778
 40
0.7777777777777778
 40
0.7777777777777778
 40
0.7777777777777778
 40
1.0
 40
1.0
 40
1.0
 40
1.0
 10
-173.9266
 20
5.6734
 30
0.0
 10
-173.9266
 20
5.6734
 30
0.0
 10
-173.9266
 20
-1.3303
 30
0.0
 10
-173.9266
 20
-1.3303
 30
0.0
 10
-173.9266
 20
-1.3303
 30
0.0
 10
-173.9265
 20
-2.2708
 30
0.0
 10
-174.6892
 20
-3.0335
 30
0.0
 10
-175.6298
 20
-3.0335
 30
0.0
 10
-175.6298
 20
-3.0335
 30
0.0
 10
-175.6298
 20
-3.0335
 30
0.0
 10
-182.6745
 20
-3.0335
 30
0.0
 10
-182.6745
 20
-3.0335
 30
0.0
 10
-182.6745
 20
-3.0335
 30
0.0
 10
-183.6149
 20
-3.0335
 30
0.0
 10
-184.3777
 20
-2.2708
 30
0.0
 10
-184.3777
 20
-1.3303
 30
0.0
 10
-184.3777
 20
-1.3303
 30
0.0
 10
-184.3777
 20
-1.3303
 30
0.0
 10
-184.3777
 20
5.6734
 30
0.0
 10
-184.3777
 20
5.6734
 30
0.0
 10
-184.3777
 20
5.6734
 30
0.0
 10
-184.3777
 20
6.6139
 30
0.0
 10
-183.6149
 20
7.3766
 30
0.0
 10
-182.6744
 20
7.3766
 30
0.0
 10
-182.6744
 20
7.3766
 30
0.0
 10
-182.6744
 20
7.3766
 30
0.0
 10
-175.6298
 20
7.3766
 30
0.0
 10
-175.6298
 20
7.3766
 30
0.0
 10
-175.6298
 20
7.3766
 30
0.0
 10
-174.6892
 20
7.3766
 30
0.0
 10
-173.9265
 20
6.6139
 30
0.0
 10
-173.9265
 20
5.6734
 30
0.0
  0
SPLINE
  5
93
330
1F
100
AcDbEntity
  8
layer 1
 62
     7
100
AcDbSpline
210
0.0
220
0.0
230
1.0
 70
     8
 71
     3
 72
    36
 73
    32
 74
     0
 42
0.0000000001
 43
0.0000000001
 12
1.0
 22
0.0
 32
0.0
 13
1.0
 23
0.0
 33
0.0
 40
0.0
 40
0.0
 40
0.0
 40
0.0
 40
0.1111111111111111
 40
0.1111111111111111
 40
0.1111111111111111
 40
0.1111111111111111
 40
0.2222222222222222
 40
0.2222222222222222
 40
0.2222222222222222
 40
0.2222222222222222
 40
0.3333333333333333
 40
0.3333333333333333
 40
0.3333333333333333
 40
0.3333333333333333
 40
0.4444444444444444
 40
0.4444444444444444
 40
0.4444444444444444
 40
0.4444444444444444
 40
0.5555555555555556
 40
0.5555555555555556
 40
0.5555555555555556
 40
0.5555555555555556
 40
0.6666666666666666
 40
0.6666666666666666
 40
0.6666666666666666
 40
0.6666666666666666
 40
0.7777777777777778
 40
0.7777777777777778
 40
0.7777777777777778
 40
0.7777777777777778
 40
1.0
 40
1.0
 40
1.0
 40
1.0
 10
-147.657
 20
5.6734
 30
0.0
 10
-147.657
 20
5.6734
 30
0.0
 10
-147.657
 20
-1.3303
 30
0.0
 10
-147.657
 20
-1.3303
 30
0.0
 10
-147.657
 20
-1.3303
 30
0.0
 10
-147.6569
 20
-2.2708
 30
0.0
 10
-148.4196
 20
-3.0335
 30
0.0
 10
-149.3602
 20
-3.0335
 30
0.0
 10
-149.3602
 20
-3.0335
 30
0.0
 10
-149.3602
 20
-3.0335
 30
0.0
 10
-156.4049
 20
-3.0335
 30
0.0
 10
-156.4049
 20
-3.0335
 30
0.0
 10
-156.4049
 20
-3.0335
 30
0.0
 10
-157.3454
 20
-3.0335
 30
0.0
 10
-158.1081
 20
-2.2708
 30
0.0
 10
-158.1081
 20
-1.3303
 30
0.0
 10
-158.1081
 20
-1.3303
 30
0.0
 10
-158.1081
 20
-1.3303
 30
0.0
 10
-158.1081
 20
5.6734
 30
0.0
 10
-158.1081
 20
5.6734
 30
0.0
 10
-158.1081
 20
5.6734
 30
0.0
 10
-158.1081
 20
6.6139
 30
0.0
 10
-157.3454
 20
7.3766
 30
0.0
 10
-156.4048
 20
7.3766
 30
0.0
 10
-156.4048
 20
7.3766
 30
0.0
 10
-156.4048
 20
7.3766
 30
0.0
 10
-149.3602
 20
7.3766
 30
0.0
 10
-149.3602
 20
7.3766
 30
0.0
 10
-149.3602
 20
7.3766
 30
0.0
 10
-148.4196
 20
7.3766
 30
0.0
 10
-147.6569
 20
6.6139
 30
0.0
 10
-147.6569
 20
5.6734
 30
0.0
  0
SPLINE
  5
94
330
1F
100
AcDbEntity
  8
layer 1
 62
     7
100
AcDbSpline
210
0.0
220
0.0
230
1.0
 70
    11
 71
     3
 72
    48
 73
    44
 74
     0
 42
0.0000000001
 43
0.0000000001
 12
1.0
 22
0.0
 32
0.0
 13
1.0
 23
0.0
 33
0.0
 40
0.0
 40
0.0
 40
0.0
 40
0.0
 40
0.0833333333333333
 40
0.0833333333333333
 40
0.0833333333333333
 40
0.0833333333333333
 40
0.1666666666666667
 40
0.1666666666666667
 40
0.1666666666666667
 40
0.1666666666666667
 40
0.25
 40
0.25
 40
0.25
 40
0.25
 40
0.3333333333333333
 40
0.3333333333333333
 40
0.3333333333333333
 40
0.3333333333333333
 40
0.4166666666666667
 40
0.4166666666666667
 40
0.4166666666666667
 40
0.4166666666666667
 40
0.5
 40
0.5
 40
0.5
 40
0.5
 40
0.5833333333333334
 40
0.5833333333333334
 40
0.5833333333333334
 40
0.5833333333333334
 40
0.6666666666666666
 40
0.6666666666666666
 40
0.6666666666666666
 40
0.6666666666666666
 40
0.75
 40
0.75
 40
0.75
 40
0.75
 40
0.8333333333333334
 40
0.8333333333333334
 40
0.8333333333333334
 40
0.8333333333333334
 40
1.0
 40
1.0
 40
1.0
 40
1.0
 10
-160.7918
 20
5.6734
 30
0.0
 10
-160.7918
 20
5.6734
 30
0.0
 10
-160.7918
 20
-2.4722
 30
0.0
 10
-160.7918
 20
-2.4722
 30
0.0
 10
-160.7918
 20
-2.4722
 30
0.0
 10
-160.7918
 20
-3.273
 30
0.0
 10
-161.1233
 20
-4.2485
 30
0.0
 10
-161.6672
 20
-4.7623
 30
0.0
 10
-161.6672
 20
-4.7623
 30
0.0
 10
-161.6672
 20
-4.7623
 30
0.0
 10
-163.9567
 20
-7.5804
 30
0.0
 10
-165.0933
 20
-8.2576
 30
0.0
 10
-165.0933
 20
-8.2576
 30
0.0
 10
-165.6588
 20
-8.7636
 30
0.0
 10
-166.6243
 20
-8.6494
 30
0.0
 10
-167.0916
 20
-8.2576
 30
0.0
 10
-167.0916
 20
-8.2576
 30
0.0
 10
-168.1583
 20
-7.5519
 30
0.0
 10
-170.6531
 20
-4.7749
 30
0.0
 10
-170.6531
 20
-4.7749
 30
0.0
 10
-170.6531
 20
-4.7749
 30
0.0
 10
-171.1649
 20
-4.0777
 30
0.0
 10
-171.243
 20
-3.4157
 30
0.0
 10
-171.243
 20
-2.4722
 30
0.0
 10
-171.243
 20
-2.4722
 30
0.0
 10
-171.243
 20
-2.4722
 30
0.0
 10
-171.243
 20
5.6734
 30
0.0
 10
-171.243
 20
5.6734
 30
0.0
 10
-171.243
 20
5.6734
 30
0.0
 10
-171.243
 20
6.6169
 30
0.0
 10
-170.4834
 20
7.3766
 30
0.0
 10
-169.5398
 20
7.3766
 30
0.0
 10
-169.5398
 20
7.3766
 30
0.0
 10
-169.5398
 20
7.3766
 30
0.0
 10
-162.4951
 20
7.3766
 30
0.0
 10
-162.4951
 20
7.3766
 30
0.0
 10
-162.4951
 20
7.3766
 30
0.0
 10
-161.5515
 20
7.3766
 30
0.0
 10
-160.7919
 20
6.6169
 30
0.0
 10
-160.7919
 20
5.6734
 30
0.0
 10
-160.7919
 20
5.6734
 30
0.0
 10
-160.7919
 20
5.6734
 30
0.0
 10
-160.7918
 20
5.6734
 30
0.0
 10
-160.7918
 20
5.6734
 30
0.0
  0
SPLINE
  5
95
330
1F
100
AcDbEntity
  8
layer 1
 62
     7
100
AcDbSpline
210
0.0
220
0.0
230
1.0
 70
     8
 71
     3
 72
    36
 73
    32
 74
     0
 42
0.0000000001
 43
0.0000000001
 12
1.0
 22
0.0
 32
0.0
 13
1.0
 23
0.0
 33
0.0
 40
0.0
 40
0.0
 40
0.0
 40
0.0
 40
0.1111111111111111
 40
0.1111111111111111
 40
0.1111111111111111
 40
0.1111111111111111
 40
0.2222222222222222
 40
0.2222222222222222
 40
0.2222222222222222
 40
0.2222222222222222
 40
0.3333333333333333
 40
0.3333333333333333
 40
0.3333333333333333
 40
0.3333333333333333
 40
0.4444444444444444
 40
0.4444444444444444
 40
0.4444444444444444
 40
0.4444444444444444
 40
0.5555555555555556
 40
0.5555555555555556
 40
0.5555555555555556
 40
0.5555555555555556
 40
0.6666666666666666
 40
0.6666666666666666
 40
0.6666666666666666
 40
0.6666666666666666
 40
0.7777777777777778
 40
0.7777777777777778
 40
0.7777777777777778
 40
0.7777777777777778
 40
1.0
 40
1.0
 40
1.0
 40
1.0
 10
-173.9266
 20
-28.6292
 30
0.0
 10
-173.9266
 20
-28.6292
 30
0.0
 10
-173.9266
 20
-21.6256
 30
0.0
 10
-173.9266
 20
-21.6256
 30
0.0
 10
-173.9266
 20
-21.6256
 30
0.0
 10
-173.9265
 20
-20.6849
 30
0.0
 10
-174.6892
 20
-19.9222
 30
0.0
 10
-175.6298
 20
-19.9222
 30
0.0
 10
-175.6298
 20
-19.9222
 30
0.0
 10
-175.6298
 20
-19.9222
 30
0.0
 10
-182.6745
 20
-19.9223
 30
0.0
 10
-182.6745
 20
-19.9223
 30
0.0
 10
-182.6745
 20
-19.9223
 30
0.0
 10
-183.6149
 20
-19.9222
 30
0.0
 10
-184.3777
 20
-20.6849
 30
0.0
 10
-184.3777
 20
-21.6255
 30
0.0
 10
-184.3777
 20
-21.6255
 30
0.0
 10
-184.3777
 20
-21.6255
 30
0.0
 10
-184.3777
 20
-28.6292
 30
0.0
 10
-184.3777
 20
-28.6292
 30
0.0
 10
-184.3777
 20
-28.6292
 30
0.0
 10
-184.3777
 20
-29.5696
 30
0.0
 10
-183.6149
 20
-30.3324
 30
0.0
 10
-182.6744
 20
-30.3324
 30
0.0
 10
-182.6744
 20
-30.3324
 30
0.0
 10
-182.6744
 20
-30.3324
 30
0.0
 10
-175.6298
 20
-30.3324
 30
0.0
 10
-175.6298
 20
-30.3324
 30
0.0
 10
-175.6298
 20
-30.3324
 30
0.0
 10
-174.6892
 20
-30.3324
 30
0.0
 10
-173.9265
 20
-29.5696
 30
0.0
 10
-173.9265
 20
-28.6291
 30
0.0
  0
SPLINE
  5
96
330
1F
100
AcDbEntity
  8
layer 1
 62
     7
100
AcDbSpline
210
0.0
220
0.0
230
1.0
 70
     8
 71
     3
 72
    36
 73
    32
 74
     0
 42
0.0000000001
 43
0.0000000001
 12
1.0
 22
0.0
 32
0.0
 13
1.0
 23
0.0
 33
0.0
 40
0.0
 40
0.0
 40
0.0
 40
0.0
 40
0.1111111111111111
 40
0.1111111111111111
 40
0.1111111111111111
 40
0.1111111111111111
 40
0.2222222222222222
 40
0.2222222222222222
 40
0.2222222222222222
 40
0.2222222222222222
 40
0.3333333333333333
 40
0.3333333333333333
 40
0.3333333333333333
 40
0.3333333333333333
 40
0.4444444444444444
 40
0.4444444444444444
 40
0.4444444444444444
 40
0.4444444444444444
 40
0.5555555555555556
 40
0.5555555555555556
 40
0.5555555555555556
 40
0.5555555555555556
 40
0.6666666666666666
 40
0.6666666666666666
 40
0.6666666666666666
 40
0.6666666666666666
 40
0.7777777777777778
 40
0.7777777777777778
 40
0.7777777777777778
 40
0.7777777777777778
 40
1.0
 40
1.0
 40
1.0
 40
1.0
 10
-147.657
 20
-28.6292
 30
0.0
 10
-147.657
 20
-28.6292
 30
0.0
 10
-147.657
 20
-21.6256
 30
0.0
 10
-147.657
 20
-21.6256
 30
0.0
 10
-147.657
 20
-21.6256
 30
0.0
 10
-147.6569
 20
-20.6849
 30
0.0
 10
-148.4196
 20
-19.9222
 30
0.0
 10
-149.3602
 20
-19.9222
 30
0.0
 10
-149.3602
 20
-19.9222
 30
0.0
 10
-149.3602
 20
-19.9222
 30
0.0
 10
-156.4049
 20
-19.9223
 30
0.0
 10
-156.4049
 20
-19.9223
 30
0.0
 10
-156.4049
 20
-19.9223
 30
0.0
 10
-157.3454
 20
-19.9222
 30
0.0
 10
-158.1081
 20
-20.6849
 30
0.0
 10
-158.1081
 20
-21.6255
 30
0.0
 10
-158.1081
 20
-21.6255
 30
0.0
 10
-158.1081
 20
-21.6255
 30
0.0
 10
-158.1081
 20
-28.6292
 30
0.0
 10
-158.1081
 20
-28.6292
 30
0.0
 10
-158.1081
 20
-28.6292
 30
0.0
 10
-158.1081
 20
-29.5696
 30
0.0
 10
-157.3454
 20
-30.3324
 30
0.0
 10
-156.4048
 20
-30.3324
 30
0.0
 10
-156.4048
 20
-30.3324
 30
0.0
 10
-156.4048
 20
-30.3324
 30
0.0
 10
-149.3602
 20
-30.3324
 30
0.0
 10
-149.3602
 20
-30.3324
 30
0.0
 10
-149.3602
 20
-30.3324
 30
0.0
 10
-148.4196
 20
-30.3324
 30
0.0
 10
-147.6569
 20
-29.5696
 30
0.0
 10
-147.6569
 20
-28.6291
 30
0.0
  0
SPLINE
  5
97
330
1F
100
AcDbEntity
  8
layer 1
 62
     7
100
AcDbSpline
210
0.0
220
0.0
230
1.0
 70
    11
 71
     3
 72
    48
 73
    44
 74
     0
 42
0.0000000001
 43
0.0000000001
 12
1.0
 22
0.0
 32
0.0
 13
1.0
 23
0.0
 33
0.0
 40
0.0
 40
0.0
 40
0.0
 40
0.0
 40
0.0833333333333333
 40
0.0833333333333333
 40
0.0833333333333333
 40
0.0833333333333333
 40
0.1666666666666667
 40
0.1666666666666667
 40
0.1666666666666667
 40
0.1666666666666667
 40
0.25
 40
0.25
 40
0.25
 40
0.25
 40
0.3333333333333333
 40
0.3333333333333333
 40
0.3333333333333333
 40
0.3333333333333333
 40
0.4166666666666667
 40
0.4166666666666667
 40
0.4166666666666667
 40
0.4166666666666667
 40
0.5
 40
0.5
 40
0.5
 40
0.5
 40
0.5833333333333334
 40
0.5833333333333334
 40
0.5833333333333334
 40
0.5833333333333334
 40
0.6666666666666666
 40
0.6666666666666666
 40
0.6666666666666666
 40
0.6666666666666666
 40
0.75
 40
0.75
 40
0.75
 40
0.75
 40
0.8333333333333334
 40
0.8333333333333334
 40
0.8333333333333334
 40
0.8333333333333334
 40
1.0
 40
1.0
 40
1.0
 40
1.0
 10
-160.7918
 20
-28.6292
 30
0.0
 10
-160.7918
 20
-28.6292
 30
0.0
 10
-160.7918
 20
-20.4837
 30
0.0
 10
-160.7918
 20
-20.4837
 30
0.0
 10
-160.7918
 20
-20.4837
 30
0.0
 10
-160.7918
 20
-19.6828
 30
0.0
 10
-161.1233
 20
-18.7073
 30
0.0
 10
-161.6672
 20
-18.1935
 30
0.0
 10
-161.6672
 20
-18.1935
 30
0.0
 10
-161.6672
 20
-18.1935
 30
0.0
 10
-163.9567
 20
-15.3754
 30
0.0
 10
-165.0933
 20
-14.6982
 30
0.0
 10
-165.0933
 20
-14.6982
 30
0.0
 10
-165.6588
 20
-14.1922
 30
0.0
 10
-166.6243
 20
-14.3065
 30
0.0
 10
-167.0916
 20
-14.6982
 30
0.0
 10
-167.0916
 20
-14.6982
 30
0.0
 10
-168.1583
 20
-15.404
 30
0.0
 10
-170.6531
 20
-18.1809
 30
0.0
 10
-170.6531
 20
-18.1809
 30
0.0
 10
-170.6531
 20
-18.1809
 30
0.0
 10
-171.1649
 20
-18.8781
 30
0.0
 10
-171.243
 20
-19.5401
 30
0.0
 10
-171.243
 20
-20.4837
 30
0.0
 10
-171.243
 20
-20.4837
 30
0.0
 10
-171.243
 20
-20.4837
 30
0.0
 10
-171.243
 20
-28.6292
 30
0.0
 10
-171.243
 20
-28.6292
 30
0.0
 10
-171.243
 20
-28.6292
 30
0.0
 10
-171.243
 20
-29.5728
 30
0.0
 10
-170.4834
 20
-30.3324
 30
0.0
 10
-169.5398
 20
-30.3324
 30
0.0
 10
-169.5398
 20
-30.3324
 30
0.0
 10
-169.5398
 20
-30.3324
 30
0.0
 10
-162.4951
 20
-30.3324
 30
0.0
 10
-162.4951
 20
-30.3324
 30
0.0
 10
-162.4951
 20
-30.3324
 30
0.0
 10
-161.5515
 20
-30.3324
 30
0.0
 10
-160.7919
 20
-29.5728
 30
0.0
 10
-160.7919
 20
-28.6292
 30
0.0
 10
-160.7919
 20
-28.6292
 30
0.0
 10
-160.7919
 20
-28.6292
 30
0.0
 10
-160.7918
 20
-28.6292
 30
0.0
 10
-160.7918
 20
-28.6292
 30
0.0
  0
SPLINE
  5
98
330
1F
100
AcDbEntity
  8
layer 1
 62
     7
100
AcDbSpline
210
0.0
220
0.0
230
1.0
 70
    11
 71
     3
 72
    48
 73
    44
 74
     0
 42
0.0000000001
 43
0.0000000001
 12
1.0
 22
0.0
 32
0.0
 13
1.0
 23
0.0
 33
0.0
 40
0.0
 40
0.0
 40
0.0
 40
0.0
 40
0.0833333333333333
 40
0.0833333333333333
 40
0.0833333333333333
 40
0.0833333333333333
 40
0.1666666666666667
 40
0.1666666666666667
 40
0.1666666666666667
 40
0.1666666666666667
 40
0.25
 40
0.25
 40
0.25
 40
0.25
 40
0.3333333333333333
 40
0.3333333333333333
 40
0.3333333333333333
 40
0.3333333333333333
 40
0.4166666666666667
 40
0.4166666666666667
 40
0.4166666666666667
 40
0.4166666666666667
 40
0.5
 40
0.5
 40
0.5
 40
0.5
 40
0.5833333333333334
 40
0.5833333333333334
 40
0.5833333333333334
 40
0.5833333333333334
 40
0.6666666666666666
 40
0.6666666666666666
 40
0.6666666666666666
 40
0.6666666666666666
 40
0.75
 40
0.75
 40
0.75
 40
0.75
 40
0.8333333333333334
 40
0.8333333333333334
 40
0.8333333333333334
 40
0.8333333333333334
 40
1.0
 40
1.0
 40
1.0
 40
1.0
 10
-182.6745
 20
-16.683
 30
0.0
 10
-182.6745
 20
-16.683
 30
0.0
 10
-174.529
 20
-16.683
 30
0.0
 10
-174.529
 20
-16.683
 30
0.0
 10
-174.529
 20
-16.683
 30
0.0
 10
-173.7281
 20
-16.683
 30
0.0
 10
-172.7527
 20
-16.3515
 30
0.0
 10
-172.2388
 20
-15.8076
 30
0.0
 10
-172.2388
 20
-15.8076
 30
0.0
 10
-172.2388
 20
-15.8076
 30
0.0
 10
-169.4207
 20
-13.518
 30
0.0
 10
-168.7435
 20
-12.3815
 30
0.0
 10
-168.7435
 20
-12.3815
 30
0.0
 10
-168.2375
 20
-11.8159
 30
0.0
 10
-168.3518
 20
-10.8505
 30
0.0
 10
-168.7435
 20
-10.3832
 30
0.0
 10
-168.7435
 20
-10.3832
 30
0.0
 10
-169.4493
 20
-9.3164
 30
0.0
 10
-172.2262
 20
-6.8216
 30
0.0
 10
-172.2262
 20
-6.8216
 30
0.0
 10
-172.2262
 20
-6.8216
 30
0.0
 10
-172.9234
 20
-6.3099
 30
0.0
 10
-173.5854
 20
-6.2318
 30
0.0
 10
-174.529
 20
-6.2318
 30
0.0
 10
-174.529
 20
-6.2318
 30
0.0
 10
-174.529
 20
-6.2318
 30
0.0
 10
-182.6745
 20
-6.2318
 30
0.0
 10
-182.6745
 20
-6.2318
 30
0.0
 10
-182.6745
 20
-6.2318
 30
0.0
 10
-183.6181
 20
-6.2318
 30
0.0
 10
-184.3777
 20
-6.9914
 30
0.0
 10
-184.3777
 20
-7.935
 30
0.0
 10
-184.3777
 20
-7.935
 30
0.0
 10
-184.3777
 20
-7.935
 30
0.0
 10
-184.3777
 20
-14.9796
 30
0.0
 10
-184.3777
 20
-14.9796
 30
0.0
 10
-184.3777
 20
-14.9796
 30
0.0
 10
-184.3777
 20
-15.9232
 30
0.0
 10
-183.6181
 20
-16.6829
 30
0.0
 10
-182.6745
 20
-16.6829
 30
0.0
 10
-182.6745
 20
-16.6829
 30
0.0
 10
-182.6745
 20
-16.6829
 30
0.0
 10
-182.6745
 20
-16.683
 30
0.0
 10
-182.6745
 20
-16.683
 30
0.0
  0
SPLINE
  5
99
330
1F
100
AcDbEntity
  8
layer 1
 62
     7
100
AcDbSpline
210
0.0
220
0.0
230
1.0
 70
    11
 71
     3
 72
    48
 73
    44
 74
     0
 42
0.0000000001
 43
0.0000000001
 12
1.0
 22
0.0
 32
0.0
 13
1.0
 23
0.0
 33
0.0
 40
0.0
 40
0.0
 40
0.0
 40
0.0
 40
0.0833333333333333
 40
0.0833333333333333
 40
0.0833333333333333
 40
0.0833333333333333
 40
0.1666666666666667
 40
0.1666666666666667
 40
0.1666666666666667
 40
0.1666666666666667
 40
0.25
 40
0.25
 40
0.25
 40
0.25
 40
0.3333333333333333
 40
0.3333333333333333
 40
0.3333333333333333
 40
0.3333333333333333
 40
0.4166666666666667
 40
0.4166666666666667
 40
0.4166666666666667
 40
0.4166666666666667
 40
0.5
 40
0.5
 40
0.5
 40
0.5
 40
0.5833333333333334
 40
0.5833333333333334
 40
0.5833333333333334
 40
0.5833333333333334
 40
0.6666666666666666
 40
0.6666666666666666
 40
0.6666666666666666
 40
0.6666666666666666
 40
0.75
 40
0.75
 40
0.75
 40
0.75
 40
0.8333333333333334
 40
0.8333333333333334
 40
0.8333333333333334
 40
0.8333333333333334
 40
1.0
 40
1.0
 40
1.0
 40
1.0
 10
-149.3983
 20
-16.683
 30
0.0
 10
-149.3983
 20
-16.683
 30
0.0
 10
-157.5438
 20
-16.683
 30
0.0
 10
-157.5438
 20
-16.683
 30
0.0
 10
-157.5438
 20
-16.683
 30
0.0
 10
-158.3447
 20
-16.683
 30
0.0
 10
-159.3202
 20
-16.3515
 30
0.0
 10
-159.834
 20
-15.8076
 30
0.0
 10
-159.834
 20
-15.8076
 30
0.0
 10
-159.834
 20
-15.8076
 30
0.0
 10
-162.6521
 20
-13.518
 30
0.0
 10
-163.3293
 20
-12.3815
 30
0.0
 10
-163.3293
 20
-12.3815
 30
0.0
 10
-163.8353
 20
-11.8159
 30
0.0
 10
-163.721
 20
-10.8505
 30
0.0
 10
-163.3293
 20
-10.3832
 30
0.0
 10
-163.3293
 20
-10.3832
 30
0.0
 10
-162.6235
 20
-9.3164
 30
0.0
 10
-159.8466
 20
-6.8216
 30
0.0
 10
-159.8466
 20
-6.8216
 30
0.0
 10
-159.8466
 20
-6.8216
 30
0.0
 10
-159.1494
 20
-6.3099
 30
0.0
 10
-158.4874
 20
-6.2318
 30
0.0
 10
-157.5438
 20
-6.2318
 30
0.0
 10
-157.5438
 20
-6.2318
 30
0.0
 10
-157.5438
 20
-6.2318
 30
0.0
 10
-149.3983
 20
-6.2318
 30
0.0
 10
-149.3983
 20
-6.2318
 30
0.0
 10
-149.3983
 20
-6.2318
 30
0.0
 10
-148.4547
 20
-6.2318
 30
0.0
 10
-147.6951
 20
-6.9914
 30
0.0
 10
-147.6951
 20
-7.935
 30
0.0
 10
-147.6951
 20
-7.935
 30
0.0
 10
-147.6951
 20
-7.935
 30
0.0
 10
-147.6951
 20
-14.9796
 30
0.0
 10
-147.6951
 20
-14.9796
 30
0.0
 10
-147.6951
 20
-14.9796
 30
0.0
 10
-147.6951
 20
-15.9232
 30
0.0
 10
-148.4547
 20
-16.6829
 30
0.0
 10
-149.3983
 20
-16.6829
 30
0.0
 10
-149.3983
 20
-16.6829
 30
0.0
 10
-149.3983
 20
-16.6829
 30
0.0
 10
-149.3983
 20
-16.683
 30
0.0
 10
-149.3983
 20
-16.683
 30
0.0
  0
SPLINE
  5
9A
330
1F
100
AcDbEntity
  8
layer 1
 62
     7
100
AcDbSpline
210
0.0
220
0.0
230
1.0
 70
    11
 71
     3
 72
    32
 73
    28
 74
     0
 42
0.0000000001
 43
0.0000000001
 12
1.0
 22
0.0
 32
0.0
 13
1.0
 23
0.0
 33
0.0
 40
0.0
 40
0.0
 40
0.0
 40
0.0
 40
0.125
 40
0.125
 40
0.125
 40
0.125
 40
0.25
 40
0.25
 40
0.25
 40
0.25
 40
0.375
 40
0.375
 40
0.375
 40
0.375
 40
0.5
 40
0.5
 40
0.5
 40
0.5
 40
0.625
 40
0.625
 40
0.625
 40
0.625
 40
0.75
 40
0.75
 40
0.75
 40
0.75
 40
1.0
 40
1.0
 40
1.0
 40
1.0
 10
-129.1614
 20
7.267
 30
0.0
 10
-129.1614
 20
7.267
 30
0.0
 10
-142.5824
 20
7.3365
 30
0.0
 10
-142.5824
 20
7.3365
 30
0.0
 10
-142.5824
 20
7.3365
 30
0.0
 10
-143.7411
 20
7.2812
 30
0.0
 10
-144.6571
 20
6.6719
 30
0.0
 10
-144.5527
 20
5.4214
 30
0.0
 10
-144.5527
 20
5.4214
 30
0.0
 10
-144.5527
 20
5.4214
 30
0.0
 10
-144.5157
 20
-8.6838
 30
0.0
 10
-144.5157
 20
-8.6838
 30
0.0
 10
-144.5157
 20
-8.6838
 30
0.0
 10
-144.4902
 20
-10.1964
 30
0.0
 10
-142.7353
 20
-10.4158
 30
0.0
 10
-141.8112
 20
-9.6768
 30
0.0
 10
-141.8112
 20
-9.6768
 30
0.0
 10
-141.8112
 20
-9.6768
 30
0.0
 10
-128.3009
 20
4.2752
 30
0.0
 10
-128.3009
 20
4.2752
 30
0.0
 10
-128.3009
 20
4.2752
 30
0.0
 10
-127.4291
 20
5.1531
 30
0.0
 10
-127.5166
 20
7.0736
 30
0.0
 10
-129.1613
 20
7.2671
 30
0.0
 10
-129.1613
 20
7.2671
 30
0.0
 10
-129.1613
 20
7.2671
 30
0.0
 10
-129.1614
 20
7.267
 30
0.0
 10
-129.1614
 20
7.267
 30
0.0
  0
SPLINE
  5
9B
330
1F
100
AcDbEntity
  8
layer 1
 62
     7
100
AcDbSpline
210
0.0
220
0.0
230
1.0
 70
    11
 71
     3
 72
    32
 73
    28
 74
     0
 42
0.0000000001
 43
0.0000000001
 12
1.0
 22
0.0
 32
0.0
 13
1.0
 23
0.0
 33
0.0
 40
0.0
 40
0.0
 40
0.0
 40
0.0
 40
0.125
 40
0.125
 40
0.125
 40
0.125
 40
0.25
 40
0.25
 40
0.25
 40
0.25
 40
0.375
 40
0.375
 40
0.375
 40
0.375
 40
0.5
 40
0.5
 40
0.5
 40
0.5
 40
0.625
 40
0.625
 40
0.625
 40
0.625
 40
0.75
 40
0.75
 40
0.75
 40
0.75
 40
1.0
 40
1.0
 40
1.0
 40
1.0
 10
-123.2788
 20
7.267
 30
0.0
 10
-123.2788
 20
7.267
 30
0.0
 10
-109.8577
 20
7.3365
 30
0.0
 10
-109.8577
 20
7.3365
 30
0.0
 10
-109.8577
 20
7.3365
 30
0.0
 10
-108.699
 20
7.2812
 30
0.0
 10
-107.7829
 20
6.6719
 30
0.0
 10
-107.8873
 20
5.4214
 30
0.0
 10
-107.8873
 20
5.4214
 30
0.0
 10
-107.8873
 20
5.4214
 30
0.0
 10
-107.9244
 20
-8.6838
 30
0.0
 10
-107.9244
 20
-8.6838
 30
0.0
 10
-107.9244
 20
-8.6838
 30
0.0
 10
-107.9499
 20
-10.1964
 30
0.0
 10
-109.7048
 20
-10.4158
 30
0.0
 10
-110.6289
 20
-9.6768
 30
0.0
 10
-110.6289
 20
-9.6768
 30
0.0
 10
-110.6289
 20
-9.6768
 30
0.0
 10
-124.1391
 20
4.2752
 30
0.0
 10
-124.1391
 20
4.2752
 30
0.0
 10
-124.1391
 20
4.2752
 30
0.0
 10
-125.0109
 20
5.1531
 30
0.0
 10
-124.9235
 20
7.0736
 30
0.0
 10
-123.2788
 20
7.2671
 30
0.0
 10
-123.2788
 20
7.2671
 30
0.0
 10
-123.2788
 20
7.2671
 30
0.0
 10
-123.2788
 20
7.267
 30
0.0
 10
-123.2788
 20
7.267
 30
0.0
  0
SPLINE
  5
9C
330
1F
100
AcDbEntity
  8
layer 1
 62
     7
100
AcDbSpline
210
0.0
220
0.0
230
1.0
 70
    11
 71
     3
 72
    32
 73
    28
 74
     0
 42
0.0000000001
 43
0.0000000001
 12
1.0
 22
0.0
 32
0.0
 13
1.0
 23
0.0
 33
0.0
 40
0.0
 40
0.0
 40
0.0
 40
0.0
 40
0.125
 40
0.125
 40
0.125
 40
0.125
 40
0.25
 40
0.25
 40
0.25
 40
0.25
 40
0.375
 40
0.375
 40
0.375
 40
0.375
 40
0.5
 40
0.5
 40
0.5
 40
0.5
 40
0.625
 40
0.625
 40
0.625
 40
0.625
 40
0.75
 40
0.75
 40
0.75
 40
0.75
 40
1.0
 40
1.0
 40
1.0
 40
1.0
 10
-129.1614
 20
-30.2811
 30
0.0
 10
-129.1614
 20
-30.2811
 30
0.0
 10
-142.5824
 20
-30.3505
 30
0.0
 10
-142.5824
 20
-30.3505
 30
0.0
 10
-142.5824
 20
-30.3505
 30
0.0
 10
-143.7411
 20
-30.2952
 30
0.0
 10
-144.6571
 20
-29.686
 30
0.0
 10
-144.5527
 20
-28.4354
 30
0.0
 10
-144.5527
 20
-28.4354
 30
0.0
 10
-144.5527
 20
-28.4354
 30
0.0
 10
-144.5157
 20
-14.3302
 30
0.0
 10
-144.5157
 20
-14.3302
 30
0.0
 10
-144.5157
 20
-14.3302
 30
0.0
 10
-144.4902
 20
-12.8176
 30
0.0
 10
-142.7353
 20
-12.5982
 30
0.0
 10
-141.8112
 20
-13.3372
 30
0.0
 10
-141.8112
 20
-13.3372
 30
0.0
 10
-141.8112
 20
-13.3372
 30
0.0
 10
-128.3009
 20
-27.2893
 30
0.0
 10
-128.3009
 20
-27.2893
 30
0.0
 10
-128.3009
 20
-27.2893
 30
0.0
 10
-127.4291
 20
-28.1671
 30
0.0
 10
-127.5166
 20
-30.0876
 30
0.0
 10
-129.1613
 20
-30.2811
 30
0.0
 10
-129.1613
 20
-30.2811
 30
0.0
 10
-129.1613
 20
-30.2811
 30
0.0
 10
-129.1614
 20
-30.2811
 30
0.0
 10
-129.1614
 20
-30.2811
 30
0.0
  0
SPLINE
  5
9D
330
1F
100
AcDbEntity
  8
layer 1
 62
     7
100
AcDbSpline
210
0.0
220
0.0
230
1.0
 70
    11
 71
     3
 72
    32
 73
    28
 74
     0
 42
0.0000000001
 43
0.0000000001
 12
1.0
 22
0.0
 32
0.0
 13
1.0
 23
0.0
 33
0.0
 40
0.0
 40
0.0
 40
0.0
 40
0.0
 40
0.125
 40
0.125
 40
0.125
 40
0.125
 40
0.25
 40
0.25
 40
0.25
 40
0.25
 40
0.375
 40
0.375
 40
0.375
 40
0.375
 40
0.5
 40
0.5
 40
0.5
 40
0.5
 40
0.625
 40
0.625
 40
0.625
 40
0.625
 40
0.75
 40
0.75
 40
0.75
 40
0.75
 40
1.0
 40
1.0
 40
1.0
 40
1.0
 10
-123.2788
 20
-30.2811
 30
0.0
 10
-123.2788
 20
-30.2811
 30
0.0
 10
-109.8577
 20
-30.3505
 30
0.0
 10
-109.8577
 20
-30.3505
 30
0.0
 10
-109.8577
 20
-30.3505
 30
0.0
 10
-108.699
 20
-30.2952
 30
0.0
 10
-107.7829
 20
-29.686
 30
0.0
 10
-107.8873
 20
-28.4354
 30
0.0
 10
-107.8873
 20
-28.4354
 30
0.0
 10
-107.8873
 20
-28.4354
 30
0.0
 10
-107.9244
 20
-14.3302
 30
0.0
 10
-107.9244
 20
-14.3302
 30
0.0
 10
-107.9244
 20
-14.3302
 30
0.0
 10
-107.9499
 20
-12.8176
 30
0.0
 10
-109.7048
 20
-12.5982
 30
0.0
 10
-110.6289
 20
-13.3372
 30
0.0
 10
-110.6289
 20
-13.3372
 30
0.0
 10
-110.6289
 20
-13.3372
 30
0.0
 10
-124.1391
 20
-27.2893
 30
0.0
 10
-124.1391
 20
-27.2893
 30
0.0
 10
-124.1391
 20
-27.2893
 30
0.0
 10
-125.0109
 20
-28.1671
 30
0.0
 10
-124.9235
 20
-30.0876
 30
0.0
 10
-123.2788
 20
-30.2811
 30
0.0
 10
-123.2788
 20
-30.2811
 30
0.0
 10
-123.2788
 20
-30.2811
 30
0.0
 10
-123.2788
 20
-30.2811
 30
0.0
 10
-123.2788
 20
-30.2811
 30
0.0
  0
SPLINE
  5
9E
330
1F
100
AcDbEntity
  8
layer 1
 62
     7
100
AcDbSpline
210
0.0
220
0.0
230
1.0
 70
    11
 71
     3
 72
    36
 73
    32
 74
     0
 42
0.0000000001
 43
0.0000000001
 12
1.0
 22
0.0
 32
0.0
 13
1.0
 23
0.0
 33
0.0
 40
0.0
 40
0.0
 40
0.0
 40
0.0
 40
0.1111111111111111
 40
0.1111111111111111
 40
0.1111111111111111
 40
0.1111111111111111
 40
0.2222222222222222
 40
0.2222222222222222
 40
0.2222222222222222
 40
0.2222222222222222
 40
0.3333333333333333
 40
0.3333333333333333
 40
0.3333333333333333
 40
0.3333333333333333
 40
0.4444444444444444
 40
0.4444444444444444
 40
0.4444444444444444
 40
0.4444444444444444
 40
0.5555555555555556
 40
0.5555555555555556
 40
0.5555555555555556
 40
0.5555555555555556
 40
0.6666666666666666
 40
0.6666666666666666
 40
0.6666666666666666
 40
0.6666666666666666
 40
0.7777777777777778
 40
0.7777777777777778
 40
0.7777777777777778
 40
0.7777777777777778
 40
1.0
 40
1.0
 40
1.0
 40
1.0
 10
-125.0275
 20
0.5269
 30
0.0
 10
-125.0275
 20
0.5269
 30
0.0
 10
-122.0032
 20
-2.4975
 30
0.0
 10
-122.0032
 20
-2.4975
 30
0.0
 10
-122.0032
 20
-2.4975
 30
0.0
 10
-121.3382
 20
-3.1625
 30
0.0
 10
-121.3382
 20
-4.2412
 30
0.0
 10
-122.0032
 20
-4.9062
 30
0.0
 10
-122.0032
 20
-4.9062
 30
0.0
 10
-122.0032
 20
-4.9062
 30
0.0
 10
-125.0275
 20
-7.9306
 30
0.0
 10
-125.0275
 20
-7.9306
 30
0.0
 10
-125.0275
 20
-7.9306
 30
0.0
 10
-125.6927
 20
-8.5957
 30
0.0
 10
-126.7713
 20
-8.5957
 30
0.0
 10
-127.4364
 20
-7.9306
 30
0.0
 10
-127.4364
 20
-7.9306
 30
0.0
 10
-127.4364
 20
-7.9306
 30
0.0
 10
-130.4607
 20
-4.9063
 30
0.0
 10
-130.4607
 20
-4.9063
 30
0.0
 10
-130.4607
 20
-4.9063
 30
0.0
 10
-131.1257
 20
-4.2412
 30
0.0
 10
-131.1257
 20
-3.1626
 30
0.0
 10
-130.4606
 20
-2.4975
 30
0.0
 10
-130.4606
 20
-2.4975
 30
0.0
 10
-130.4606
 20
-2.4975
 30
0.0
 10
-127.4364
 20
0.5269
 30
0.0
 10
-127.4364
 20
0.5269
 30
0.0
 10
-127.4364
 20
0.5269
 30
0.0
 10
-126.7712
 20
1.1919
 30
0.0
 10
-125.6926
 20
1.1919
 30
0.0
 10
-125.0275
 20
0.5269
 30
0.0
  0
SPLINE
  5
9F
330
1F
100
AcDbEntity
  8
layer 1
 62
     7
100
AcDbSpline
210
0.0
220
0.0
230
1.0
 70
     8
 71
     3
 72
    36
 73
    32
 74
     0
 42
0.0000000001
 43
0.0000000001
 12
1.0
 22
0.0
 32
0.0
 13
1.0
 23
0.0
 33
0.0
 40
0.0
 40
0.0
 40
0.0
 40
0.0
 40
0.1111111111111111
 40
0.1111111111111111
 40
0.1111111111111111
 40
0.1111111111111111
 40
0.2222222222222222
 40
0.2222222222222222
 40
0.2222222222222222
 40
0.2222222222222222
 40
0.3333333333333333
 40
0.3333333333333333
 40
0.3333333333333333
 40
0.3333333333333333
 40
0.4444444444444444
 40
0.4444444444444444
 40
0.4444444444444444
 40
0.4444444444444444
 40
0.5555555555555556
 40
0.5555555555555556
 40
0.5555555555555556
 40
0.5555555555555556
 40
0.6666666666666666
 40
0.6666666666666666
 40
0.6666666666666666
 40
0.6666666666666666
 40
0.7777777777777778
 40
0.7777777777777778
 40
0.7777777777777778
 40
0.7777777777777778
 40
1.0
 40
1.0
 40
1.0
 40
1.0
 10
-125.0275
 20
-15.0676
 30
0.0
 10
-125.0275
 20
-15.0676
 30
0.0
 10
-122.0032
 20
-18.092
 30
0.0
 10
-122.0032
 20
-18.092
 30
0.0
 10
-122.0032
 20
-18.092
 30
0.0
 10
-121.3382
 20
-18.7571
 30
0.0
 10
-121.3382
 20
-19.8357
 30
0.0
 10
-122.0032
 20
-20.5008
 30
0.0
 10
-122.0032
 20
-20.5008
 30
0.0
 10
-122.0032
 20
-20.5008
 30
0.0
 10
-125.0275
 20
-23.5251
 30
0.0
 10
-125.0275
 20
-23.5251
 30
0.0
 10
-125.0275
 20
-23.5251
 30
0.0
 10
-125.6926
 20
-24.1903
 30
0.0
 10
-126.7712
 20
-24.1903
 30
0.0
 10
-127.4363
 20
-23.5251
 30
0.0
 10
-127.4363
 20
-23.5251
 30
0.0
 10
-127.4363
 20
-23.5251
 30
0.0
 10
-130.4607
 20
-20.5008
 30
0.0
 10
-130.4607
 20
-20.5008
 30
0.0
 10
-130.4607
 20
-20.5008
 30
0.0
 10
-131.1257
 20
-19.8357
 30
0.0
 10
-131.1257
 20
-18.7571
 30
0.0
 10
-130.4606
 20
-18.092
 30
0.0
 10
-130.4606
 20
-18.092
 30
0.0
 10
-130.4606
 20
-18.092
 30
0.0
 10
-127.4364
 20
-15.0676
 30
0.0
 10
-127.4364
 20
-15.0676
 30
0.0
 10
-127.4364
 20
-15.0676
 30
0.0
 10
-126.7713
 20
-14.4026
 30
0.0
 10
-125.6927
 20
-14.4026
 30
0.0
 10
-125.0276
 20
-15.0677
 30
0.0
  0
SPLINE
  5
A0
330
1F
100
AcDbEntity
  8
layer 1
 62
     7
100
AcDbSpline
210
0.0
220
0.0
230
1.0
 70
     8
 71
     3
 72
    36
 73
    32
 74
     0
 42
0.0000000001
 43
0.0000000001
 12
1.0
 22
0.0
 32
0.0
 13
1.0
 23
0.0
 33
0.0
 40
0.0
 40
0.0
 40
0.0
 40
0.0
 40
0.1111111111111111
 40
0.1111111111111111
 40
0.1111111111111111
 40
0.1111111111111111
 40
0.2222222222222222
 40
0.2222222222222222
 40
0.2222222222222222
 40
0.2222222222222222
 40
0.3333333333333333
 40
0.3333333333333333
 40
0.3333333333333333
 40
0.3333333333333333
 40
0.4444444444444444
 40
0.4444444444444444
 40
0.4444444444444444
 40
0.4444444444444444
 40
0.5555555555555556
 40
0.5555555555555556
 40
0.5555555555555556
 40
0.5555555555555556
 40
0.6666666666666666
 40
0.6666666666666666
 40
0.6666666666666666
 40
0.6666666666666666
 40
0.7777777777777778
 40
0.7777777777777778
 40
0.7777777777777778
 40
0.7777777777777778
 40
1.0
 40
1.0
 40
1.0
 40
1.0
 10
-132.5981
 20
-7.2704
 30
0.0
 10
-132.5981
 20
-7.2704
 30
0.0
 10
-129.5738
 20
-10.2947
 30
0.0
 10
-129.5738
 20
-10.2947
 30
0.0
 10
-129.5738
 20
-10.2947
 30
0.0
 10
-128.9087
 20
-10.9598
 30
0.0
 10
-128.9087
 20
-12.0384
 30
0.0
 10
-129.5737
 20
-12.7035
 30
0.0
 10
-129.5737
 20
-12.7035
 30
0.0
 10
-129.5737
 20
-12.7035
 30
0.0
 10
-132.5981
 20
-15.7279
 30
0.0
 10
-132.5981
 20
-15.7279
 30
0.0
 10
-132.5981
 20
-15.7279
 30
0.0
 10
-133.2632
 20
-16.393
 30
0.0
 10
-134.3417
 20
-16.393
 30
0.0
 10
-135.0069
 20
-15.7279
 30
0.0
 10
-135.0069
 20
-15.7279
 30
0.0
 10
-135.0069
 20
-15.7279
 30
0.0
 10
-138.0313
 20
-12.7035
 30
0.0
 10
-138.0313
 20
-12.7035
 30
0.0
 10
-138.0313
 20
-12.7035
 30
0.0
 10
-138.6962
 20
-12.0385
 30
0.0
 10
-138.6962
 20
-10.9598
 30
0.0
 10
-138.0312
 20
-10.2948
 30
0.0
 10
-138.0312
 20
-10.2948
 30
0.0
 10
-138.0312
 20
-10.2948
 30
0.0
 10
-135.0069
 20
-7.2704
 30
0.0
 10
-135.0069
 20
-7.2704
 30
0.0
 10
-135.0069
 20
-7.2704
 30
0.0
 10
-134.3417
 20
-6.6053
 30
0.0
 10
-133.2631
 20
-6.6053
 30
0.0
 10
-132.5981
 20
-7.2705
 30
0.0
  0
SPLINE
  5
A1
330
1F
100
AcDbEntity
  8
layer 1
 62
     7
100
AcDbSpline
210
0.0
220
0.0
230
1.0
 70
     8
 71
     3
 72
    36
 73
    32
 74
     0
 42
0.0000000001
 43
0.0000000001
 12
1.0
 22
0.0
 32
0.0
 13
1.0
 23
0.0
 33
0.0
 40
0.0
 40
0.0
 40
0.0
 40
0.0
 40
0.1111111111111111
 40
0.1111111111111111
 40
0.1111111111111111
 40
0.1111111111111111
 40
0.2222222222222222
 40
0.2222222222222222
 40
0.2222222222222222
 40
0.2222222222222222
 40
0.3333333333333333
 40
0.3333333333333333
 40
0.3333333333333333
 40
0.3333333333333333
 40
0.4444444444444444
 40
0.4444444444444444
 40
0.4444444444444444
 40
0.4444444444444444
 40
0.5555555555555556
 40
0.5555555555555556
 40
0.5555555555555556
 40
0.5555555555555556
 40
0.6666666666666666
 40
0.6666666666666666
 40
0.6666666666666666
 40
0.6666666666666666
 40
0.7777777777777778
 40
0.7777777777777778
 40
0.7777777777777778
 40
0.7777777777777778
 40
1.0
 40
1.0
 40
1.0
 40
1.0
 10
-117.4117
 20
-7.2704
 30
0.0
 10
-117.4117
 20
-7.2704
 30
0.0
 10
-114.3872
 20
-10.2947
 30
0.0
 10
-114.3872
 20
-10.2947
 30
0.0
 10
-114.3872
 20
-10.2947
 30
0.0
 10
-113.7222
 20
-10.9598
 30
0.0
 10
-113.7222
 20
-12.0384
 30
0.0
 10
-114.3872
 20
-12.7035
 30
0.0
 10
-114.3872
 20
-12.7035
 30
0.0
 10
-114.3872
 20
-12.7035
 30
0.0
 10
-117.4117
 20
-15.7279
 30
0.0
 10
-117.4117
 20
-15.7279
 30
0.0
 10
-117.4117
 20
-15.7279
 30
0.0
 10
-118.0767
 20
-16.3929
 30
0.0
 10
-119.1553
 20
-16.3929
 30
0.0
 10
-119.8204
 20
-15.7279
 30
0.0
 10
-119.8204
 20
-15.7279
 30
0.0
 10
-119.8204
 20
-15.7279
 30
0.0
 10
-122.8447
 20
-12.7035
 30
0.0
 10
-122.8447
 20
-12.7035
 30
0.0
 10
-122.8447
 20
-12.7035
 30
0.0
 10
-123.5098
 20
-12.0384
 30
0.0
 10
-123.5098
 20
-10.9598
 30
0.0
 10
-122.8447
 20
-10.2947
 30
0.0
 10
-122.8447
 20
-10.2947
 30
0.0
 10
-122.8447
 20
-10.2947
 30
0.0
 10
-119.8204
 20
-7.2704
 30
0.0
 10
-119.8204
 20
-7.2704
 30
0.0
 10
-119.8204
 20
-7.2704
 30
0.0
 10
-119.1553
 20
-6.6053
 30
0.0
 10
-118.0767
 20
-6.6053
 30
0.0
 10
-117.4116
 20
-7.2705
 30
0.0
  0
SPLINE
  5
A2
330
1F
100
AcDbEntity
  8
layer 1
 62
     7
100
AcDbSpline
210
0.0
220
0.0
230
1.0
 70
    11
 71
     3
 72
    32
 73
    28
 74
     0
 42
0.0000000001
 43
0.0000000001
 12
1.0
 22
0.0
 32
0.0
 13
1.0
 23
0.0
 33
0.0
 40
0.0
 40
0.0
 40
0.0
 40
0.0
 40
0.125
 40
0.125
 40
0.125
 40
0.125
 40
0.25
 40
0.25
 40
0.25
 40
0.25
 40
0.375
 40
0.375
 40
0.375
 40
0.375
 40
0.5
 40
0.5
 40
0.5
 40
0.5
 40
0.625
 40
0.625
 40
0.625
 40
0.625
 40
0.75
 40
0.75
 40
0.75
 40
0.75
 40
1.0
 40
1.0
 40
1.0
 40
1.0
 10
-168.9353
 20
-32.7805
 30
0.0
 10
-168.9353
 20
-32.7805
 30
0.0
 10
-182.3563
 20
-32.7111
 30
0.0
 10
-182.3563
 20
-32.7111
 30
0.0
 10
-182.3563
 20
-32.7111
 30
0.0
 10
-183.5151
 20
-32.7664
 30
0.0
 10
-184.4311
 20
-33.3756
 30
0.0
 10
-184.3267
 20
-34.6262
 30
0.0
 10
-184.3267
 20
-34.6262
 30
0.0
 10
-184.3267
 20
-34.6262
 30
0.0
 10
-184.2896
 20
-48.7314
 30
0.0
 10
-184.2896
 20
-48.7314
 30
0.0
 10
-184.2896
 20
-48.7314
 30
0.0
 10
-184.2641
 20
-50.244
 30
0.0
 10
-182.5092
 20
-50.4634
 30
0.0
 10
-181.5851
 20
-49.7244
 30
0.0
 10
-181.5851
 20
-49.7244
 30
0.0
 10
-181.5851
 20
-49.7244
 30
0.0
 10
-168.0749
 20
-35.7724
 30
0.0
 10
-168.0749
 20
-35.7724
 30
0.0
 10
-168.0749
 20
-35.7724
 30
0.0
 10
-167.2031
 20
-34.8945
 30
0.0
 10
-167.2905
 20
-32.9741
 30
0.0
 10
-168.9353
 20
-32.7805
 30
0.0
 10
-168.9353
 20
-32.7805
 30
0.0
 10
-168.9353
 20
-32.7805
 30
0.0
 10
-168.9353
 20
-32.7805
 30
0.0
 10
-168.9353
 20
-32.7805
 30
0.0
  0
SPLINE
  5
A3
330
1F
100
AcDbEntity
  8
layer 1
 62
     7
100
AcDbSpline
210
0.0
220
0.0
230
1.0
 70
    11
 71
     3
 72
    28
 73
    24
 74
     0
 42
0.0000000001
 43
0.0000000001
 12
1.0
 22
0.0
 32
0.0
 13
1.0
 23
0.0
 33
0.0
 40
0.0
 40
0.0
 40
0.0
 40
0.0
 40
0.1428571428571428
 40
0.1428571428571428
 40
0.1428571428571428
 40
0.1428571428571428
 40
0.2857142857142857
 40
0.2857142857142857
 40
0.2857142857142857
 40
0.2857142857142857
 40
0.4285714285714285
 40
0.4285714285714285
 40
0.4285714285714285
 40
0.4285714285714285
 40
0.5714285714285714
 40
0.5714285714285714
 40
0.5714285714285714
 40
0.5714285714285714
 40
0.7142857142857143
 40
0.7142857142857143
 40
0.7142857142857143
 40
0.7142857142857143
 40
1.0
 40
1.0
 40
1.0
 40
1.0
 10
-163.0527
 20
-32.7805
 30
0.0
 10
-163.0527
 20
-32.7805
 30
0.0
 10
-149.6316
 20
-32.7111
 30
0.0
 10
-149.6316
 20
-32.7111
 30
0.0
 10
-149.6316
 20
-32.7111
 30
0.0
 10
-148.4729
 20
-32.7664
 30
0.0
 10
-147.5569
 20
-33.3756
 30
0.0
 10
-147.6613
 20
-34.6262
 30
0.0
 10
-147.6613
 20
-34.6262
 30
0.0
 10
-147.6613
 20
-34.6262
 30
0.0
 10
-147.6984
 20
-48.7314
 30
0.0
 10
-147.6984
 20
-48.7314
 30
0.0
 10
-147.6984
 20
-48.7314
 30
0.0
 10
-147.7238
 20
-50.244
 30
0.0
 10
-149.4787
 20
-50.4634
 30
0.0
 10
-150.4028
 20
-49.7244
 30
0.0
 10
-150.4028
 20
-49.7244
 30
0.0
 10
-150.4028
 20
-49.7244
 30
0.0
 10
-163.9131
 20
-35.7724
 30
0.0
 10
-163.9131
 20
-35.7724
 30
0.0
 10
-163.9131
 20
-35.7724
 30
0.0
 10
-164.7849
 20
-34.8945
 30
0.0
 10
-164.6974
 20
-32.9741
 30
0.0
 10
-163.0527
 20
-32.7805
 30
0.0
  0
SPLINE
  5
A4
330
1F
100
AcDbEntity
  8
layer 1
 62
     7
100
AcDbSpline
210
0.0
220
0.0
230
1.0
 70
    11
 71
     3
 72
    32
 73
    28
 74
     0
 42
0.0000000001
 43
0.0000000001
 12
1.0
 22
0.0
 32
0.0
 13
1.0
 23
0.0
 33
0.0
 40
0.0
 40
0.0
 40
0.0
 40
0.0
 40
0.125
 40
0.125
 40
0.125
 40
0.125
 40
0.25
 40
0.25
 40
0.25
 40
0.25
 40
0.375
 40
0.375
 40
0.375
 40
0.375
 40
0.5
 40
0.5
 40
0.5
 40
0.5
 40
0.625
 40
0.625
 40
0.625
 40
0.625
 40
0.75
 40
0.75
 40
0.75
 40
0.75
 40
1.0
 40
1.0
 40
1.0
 40
1.0
 10
-168.9353
 20
-70.3286
 30
0.0
 10
-168.9353
 20
-70.3286
 30
0.0
 10
-182.3563
 20
-70.3981
 30
0.0
 10
-182.3563
 20
-70.3981
 30
0.0
 10
-182.3563
 20
-70.3981
 30
0.0
 10
-183.5151
 20
-70.3428
 30
0.0
 10
-184.4311
 20
-69.7335
 30
0.0
 10
-184.3267
 20
-68.483
 30
0.0
 10
-184.3267
 20
-68.483
 30
0.0
 10
-184.3267
 20
-68.483
 30
0.0
 10
-184.2896
 20
-54.3778
 30
0.0
 10
-184.2896
 20
-54.3778
 30
0.0
 10
-184.2896
 20
-54.3778
 30
0.0
 10
-184.2641
 20
-52.8652
 30
0.0
 10
-182.5092
 20
-52.6458
 30
0.0
 10
-181.5851
 20
-53.3848
 30
0.0
 10
-181.5851
 20
-53.3848
 30
0.0
 10
-181.5851
 20
-53.3848
 30
0.0
 10
-168.0749
 20
-67.3368
 30
0.0
 10
-168.0749
 20
-67.3368
 30
0.0
 10
-168.0749
 20
-67.3368
 30
0.0
 10
-167.2031
 20
-68.2147
 30
0.0
 10
-167.2905
 20
-70.1352
 30
0.0
 10
-168.9353
 20
-70.3287
 30
0.0
 10
-168.9353
 20
-70.3287
 30
0.0
 10
-168.9353
 20
-70.3287
 30
0.0
 10
-168.9353
 20
-70.3286
 30
0.0
 10
-168.9353
 20
-70.3286
 30
0.0
  0
SPLINE
  5
A5
330
1F
100
AcDbEntity
  8
layer 1
 62
     7
100
AcDbSpline
210
0.0
220
0.0
230
1.0
 70
    11
 71
     3
 72
    32
 73
    28
 74
     0
 42
0.0000000001
 43
0.0000000001
 12
1.0
 22
0.0
 32
0.0
 13
1.0
 23
0.0
 33
0.0
 40
0.0
 40
0.0
 40
0.0
 40
0.0
 40
0.125
 40
0.125
 40
0.125
 40
0.125
 40
0.25
 40
0.25
 40
0.25
 40
0.25
 40
0.375
 40
0.375
 40
0.375
 40
0.375
 40
0.5
 40
0.5
 40
0.5
 40
0.5
 40
0.625
 40
0.625
 40
0.625
 40
0.625
 40
0.75
 40
0.75
 40
0.75
 40
0.75
 40
1.0
 40
1.0
 40
1.0
 40
1.0
 10
-163.0527
 20
-70.3286
 30
0.0
 10
-163.0527
 20
-70.3286
 30
0.0
 10
-149.6316
 20
-70.3981
 30
0.0
 10
-149.6316
 20
-70.3981
 30
0.0
 10
-149.6316
 20
-70.3981
 30
0.0
 10
-148.4729
 20
-70.3428
 30
0.0
 10
-147.5569
 20
-69.7335
 30
0.0
 10
-147.6613
 20
-68.483
 30
0.0
 10
-147.6613
 20
-68.483
 30
0.0
 10
-147.6613
 20
-68.483
 30
0.0
 10
-147.6984
 20
-54.3778
 30
0.0
 10
-147.6984
 20
-54.3778
 30
0.0
 10
-147.6984
 20
-54.3778
 30
0.0
 10
-147.7238
 20
-52.8652
 30
0.0
 10
-149.4787
 20
-52.6458
 30
0.0
 10
-150.4028
 20
-53.3848
 30
0.0
 10
-150.4028
 20
-53.3848
 30
0.0
 10
-150.4028
 20
-53.3848
 30
0.0
 10
-163.9131
 20
-67.3368
 30
0.0
 10
-163.9131
 20
-67.3368
 30
0.0
 10
-163.9131
 20
-67.3368
 30
0.0
 10
-164.7849
 20
-68.2147
 30
0.0
 10
-164.6974
 20
-70.1352
 30
0.0
 10
-163.0527
 20
-70.3287
 30
0.0
 10
-163.0527
 20
-70.3287
 30
0.0
 10
-163.0527
 20
-70.3287
 30
0.0
 10
-163.0527
 20
-70.3286
 30
0.0
 10
-163.0527
 20
-70.3286
 30
0.0
  0
SPLINE
  5
A6
330
1F
100
AcDbEntity
  8
layer 1
 62
     7
100
AcDbSpline
210
0.0
220
0.0
230
1.0
 70
     8
 71
     3
 72
    36
 73
    32
 74
     0
 42
0.0000000001
 43
0.0000000001
 12
1.0
 22
0.0
 32
0.0
 13
1.0
 23
0.0
 33
0.0
 40
0.0
 40
0.0
 40
0.0
 40
0.0
 40
0.1111111111111111
 40
0.1111111111111111
 40
0.1111111111111111
 40
0.1111111111111111
 40
0.2222222222222222
 40
0.2222222222222222
 40
0.2222222222222222
 40
0.2222222222222222
 40
0.3333333333333333
 40
0.3333333333333333
 40
0.3333333333333333
 40
0.3333333333333333
 40
0.4444444444444444
 40
0.4444444444444444
 40
0.4444444444444444
 40
0.4444444444444444
 40
0.5555555555555556
 40
0.5555555555555556
 40
0.5555555555555556
 40
0.5555555555555556
 40
0.6666666666666666
 40
0.6666666666666666
 40
0.6666666666666666
 40
0.6666666666666666
 40
0.7777777777777778
 40
0.7777777777777778
 40
0.7777777777777778
 40
0.7777777777777778
 40
1.0
 40
1.0
 40
1.0
 40
1.0
 10
-164.8015
 20
-39.5207
 30
0.0
 10
-164.8015
 20
-39.5207
 30
0.0
 10
-161.7771
 20
-42.545
 30
0.0
 10
-161.7771
 20
-42.545
 30
0.0
 10
-161.7771
 20
-42.545
 30
0.0
 10
-161.112
 20
-43.2101
 30
0.0
 10
-161.112
 20
-44.2887
 30
0.0
 10
-161.7771
 20
-44.9538
 30
0.0
 10
-161.7771
 20
-44.9538
 30
0.0
 10
-161.7771
 20
-44.9538
 30
0.0
 10
-164.8015
 20
-47.9782
 30
0.0
 10
-164.8015
 20
-47.9782
 30
0.0
 10
-164.8015
 20
-47.9782
 30
0.0
 10
-165.4665
 20
-48.6432
 30
0.0
 10
-166.5452
 20
-48.6432
 30
0.0
 10
-167.2102
 20
-47.9782
 30
0.0
 10
-167.2102
 20
-47.9782
 30
0.0
 10
-167.2102
 20
-47.9782
 30
0.0
 10
-170.2347
 20
-44.9538
 30
0.0
 10
-170.2347
 20
-44.9538
 30
0.0
 10
-170.2347
 20
-44.9538
 30
0.0
 10
-170.8996
 20
-44.2888
 30
0.0
 10
-170.8996
 20
-43.2101
 30
0.0
 10
-170.2346
 20
-42.5451
 30
0.0
 10
-170.2346
 20
-42.5451
 30
0.0
 10
-170.2346
 20
-42.5451
 30
0.0
 10
-167.2103
 20
-39.5207
 30
0.0
 10
-167.2103
 20
-39.5207
 30
0.0
 10
-167.2103
 20
-39.5207
 30
0.0
 10
-166.5451
 20
-38.8556
 30
0.0
 10
-165.4664
 20
-38.8556
 30
0.0
 10
-164.8014
 20
-39.5207
 30
0.0
  0
SPLINE
  5
A7
330
1F
100
AcDbEntity
  8
layer 1
 62
     7
100
AcDbSpline
210
0.0
220
0.0
230
1.0
 70
    11
 71
     3
 72
    36
 73
    32
 74
     0
 42
0.0000000001
 43
0.0000000001
 12
1.0
 22
0.0
 32
0.0
 13
1.0
 23
0.0
 33
0.0
 40
0.0
 40
0.0
 40
0.0
 40
0.0
 40
0.1111111111111111
 40
0.1111111111111111
 40
0.1111111111111111
 40
0.1111111111111111
 40
0.2222222222222222
 40
0.2222222222222222
 40
0.2222222222222222
 40
0.2222222222222222
 40
0.3333333333333333
 40
0.3333333333333333
 40
0.3333333333333333
 40
0.3333333333333333
 40
0.4444444444444444
 40
0.4444444444444444
 40
0.4444444444444444
 40
0.4444444444444444
 40
0.5555555555555556
 40
0.5555555555555556
 40
0.5555555555555556
 40
0.5555555555555556
 40
0.6666666666666666
 40
0.6666666666666666
 40
0.6666666666666666
 40
0.6666666666666666
 40
0.7777777777777778
 40
0.7777777777777778
 40
0.7777777777777778
 40
0.7777777777777778
 40
1.0
 40
1.0
 40
1.0
 40
1.0
 10
-164.8015
 20
-55.1153
 30
0.0
 10
-164.8015
 20
-55.1153
 30
0.0
 10
-161.7771
 20
-58.1396
 30
0.0
 10
-161.7771
 20
-58.1396
 30
0.0
 10
-161.7771
 20
-58.1396
 30
0.0
 10
-161.112
 20
-58.8047
 30
0.0
 10
-161.112
 20
-59.8834
 30
0.0
 10
-161.7771
 20
-60.5484
 30
0.0
 10
-161.7771
 20
-60.5484
 30
0.0
 10
-161.7771
 20
-60.5484
 30
0.0
 10
-164.8015
 20
-63.5727
 30
0.0
 10
-164.8015
 20
-63.5727
 30
0.0
 10
-164.8015
 20
-63.5727
 30
0.0
 10
-165.4664
 20
-64.2378
 30
0.0
 10
-166.5451
 20
-64.2378
 30
0.0
 10
-167.2101
 20
-63.5728
 30
0.0
 10
-167.2101
 20
-63.5728
 30
0.0
 10
-167.2101
 20
-63.5728
 30
0.0
 10
-170.2347
 20
-60.5483
 30
0.0
 10
-170.2347
 20
-60.5483
 30
0.0
 10
-170.2347
 20
-60.5483
 30
0.0
 10
-170.8996
 20
-59.8833
 30
0.0
 10
-170.8996
 20
-58.8046
 30
0.0
 10
-170.2346
 20
-58.1396
 30
0.0
 10
-170.2346
 20
-58.1396
 30
0.0
 10
-170.2346
 20
-58.1396
 30
0.0
 10
-167.2103
 20
-55.1153
 30
0.0
 10
-167.2103
 20
-55.1153
 30
0.0
 10
-167.2103
 20
-55.1153
 30
0.0
 10
-166.5452
 20
-54.4502
 30
0.0
 10
-165.4665
 20
-54.4502
 30
0.0
 10
-164.8015
 20
-55.1153
 30
0.0
  0
SPLINE
  5
A8
330
1F
100
AcDbEntity
  8
layer 1
 62
     7
100
AcDbSpline
210
0.0
220
0.0
230
1.0
 70
     8
 71
     3
 72
    36
 73
    32
 74
     0
 42
0.0000000001
 43
0.0000000001
 12
1.0
 22
0.0
 32
0.0
 13
1.0
 23
0.0
 33
0.0
 40
0.0
 40
0.0
 40
0.0
 40
0.0
 40
0.1111111111111111
 40
0.1111111111111111
 40
0.1111111111111111
 40
0.1111111111111111
 40
0.2222222222222222
 40
0.2222222222222222
 40
0.2222222222222222
 40
0.2222222222222222
 40
0.3333333333333333
 40
0.3333333333333333
 40
0.3333333333333333
 40
0.3333333333333333
 40
0.4444444444444444
 40
0.4444444444444444
 40
0.4444444444444444
 40
0.4444444444444444
 40
0.5555555555555556
 40
0.5555555555555556
 40
0.5555555555555556
 40
0.5555555555555556
 40
0.6666666666666666
 40
0.6666666666666666
 40
0.6666666666666666
 40
0.6666666666666666
 40
0.7777777777777778
 40
0.7777777777777778
 40
0.7777777777777778
 40
0.7777777777777778
 40
1.0
 40
1.0
 40
1.0
 40
1.0
 10
-172.3721
 20
-47.318
 30
0.0
 10
-172.3721
 20
-47.318
 30
0.0
 10
-169.3477
 20
-50.3424
 30
0.0
 10
-169.3477
 20
-50.3424
 30
0.0
 10
-169.3477
 20
-50.3424
 30
0.0
 10
-168.6826
 20
-51.0074
 30
0.0
 10
-168.6826
 20
-52.0861
 30
0.0
 10
-169.3476
 20
-52.7511
 30
0.0
 10
-169.3476
 20
-52.7511
 30
0.0
 10
-169.3476
 20
-52.7511
 30
0.0
 10
-172.3721
 20
-55.7754
 30
0.0
 10
-172.3721
 20
-55.7754
 30
0.0
 10
-172.3721
 20
-55.7754
 30
0.0
 10
-173.0371
 20
-56.4406
 30
0.0
 10
-174.1158
 20
-56.4406
 30
0.0
 10
-174.7808
 20
-55.7755
 30
0.0
 10
-174.7808
 20
-55.7755
 30
0.0
 10
-174.7808
 20
-55.7755
 30
0.0
 10
-177.8052
 20
-52.7511
 30
0.0
 10
-177.8052
 20
-52.7511
 30
0.0
 10
-177.8052
 20
-52.7511
 30
0.0
 10
-178.4702
 20
-52.0861
 30
0.0
 10
-178.4702
 20
-51.0075
 30
0.0
 10
-177.8052
 20
-50.3424
 30
0.0
 10
-177.8052
 20
-50.3424
 30
0.0
 10
-177.8052
 20
-50.3424
 30
0.0
 10
-174.7809
 20
-47.318
 30
0.0
 10
-174.7809
 20
-47.318
 30
0.0
 10
-174.7809
 20
-47.318
 30
0.0
 10
-174.1157
 20
-46.653
 30
0.0
 10
-173.037
 20
-46.653
 30
0.0
 10
-172.372
 20
-47.318
 30
0.0
  0
SPLINE
  5
A9
330
1F
100
AcDbEntity
  8
layer 1
 62
     7
100
AcDbSpline
210
0.0
220
0.0
230
1.0
 70
     8
 71
     3
 72
    36
 73
    32
 74
     0
 42
0.0000000001
 43
0.0000000001
 12
1.0
 22
0.0
 32
0.0
 13
1.0
 23
0.0
 33
0.0
 40
0.0
 40
0.0
 40
0.0
 40
0.0
 40
0.1111111111111111
 40
0.1111111111111111
 40
0.1111111111111111
 40
0.1111111111111111
 40
0.2222222222222222
 40
0.2222222222222222
 40
0.2222222222222222
 40
0.2222222222222222
 40
0.3333333333333333
 40
0.3333333333333333
 40
0.3333333333333333
 40
0.3333333333333333
 40
0.4444444444444444
 40
0.4444444444444444
 40
0.4444444444444444
 40
0.4444444444444444
 40
0.5555555555555556
 40
0.5555555555555556
 40
0.5555555555555556
 40
0.5555555555555556
 40
0.6666666666666666
 40
0.6666666666666666
 40
0.6666666666666666
 40
0.6666666666666666
 40
0.7777777777777778
 40
0.7777777777777778
 40
0.7777777777777778
 40
0.7777777777777778
 40
1.0
 40
1.0
 40
1.0
 40
1.0
 10
-157.1856
 20
-47.318
 30
0.0
 10
-157.1856
 20
-47.318
 30
0.0
 10
-154.1612
 20
-50.3424
 30
0.0
 10
-154.1612
 20
-50.3424
 30
0.0
 10
-154.1612
 20
-50.3424
 30
0.0
 10
-153.4961
 20
-51.0074
 30
0.0
 10
-153.4961
 20
-52.0861
 30
0.0
 10
-154.1612
 20
-52.7511
 30
0.0
 10
-154.1612
 20
-52.7511
 30
0.0
 10
-154.1612
 20
-52.7511
 30
0.0
 10
-157.1856
 20
-55.7754
 30
0.0
 10
-157.1856
 20
-55.7754
 30
0.0
 10
-157.1856
 20
-55.7754
 30
0.0
 10
-157.8506
 20
-56.4405
 30
0.0
 10
-158.9291
 20
-56.4405
 30
0.0
 10
-159.5943
 20
-55.7754
 30
0.0
 10
-159.5943
 20
-55.7754
 30
0.0
 10
-159.5943
 20
-55.7754
 30
0.0
 10
-162.6187
 20
-52.7511
 30
0.0
 10
-162.6187
 20
-52.7511
 30
0.0
 10
-162.6187
 20
-52.7511
 30
0.0
 10
-163.2836
 20
-52.0861
 30
0.0
 10
-163.2836
 20
-51.0074
 30
0.0
 10
-162.6185
 20
-50.3424
 30
0.0
 10
-162.6185
 20
-50.3424
 30
0.0
 10
-162.6185
 20
-50.3424
 30
0.0
 10
-159.5943
 20
-47.318
 30
0.0
 10
-159.5943
 20
-47.318
 30
0.0
 10
-159.5943
 20
-47.318
 30
0.0
 10
-158.9291
 20
-46.653
 30
0.0
 10
-157.8506
 20
-46.653
 30
0.0
 10
-157.1854
 20
-47.318
 30
0.0
  0
SPLINE
  5
AA
330
1F
100
AcDbEntity
  8
layer 1
 62
     7
100
AcDbSpline
210
0.0
220
0.0
230
1.0
 70
     8
 71
     3
 72
    36
 73
    32
 74
     0
 42
0.0000000001
 43
0.0000000001
 12
1.0
 22
0.0
 32
0.0
 13
1.0
 23
0.0
 33
0.0
 40
0.0
 40
0.0
 40
0.0
 40
0.0
 40
0.1111111111111111
 40
0.1111111111111111
 40
0.1111111111111111
 40
0.1111111111111111
 40
0.2222222222222222
 40
0.2222222222222222
 40
0.2222222222222222
 40
0.2222222222222222
 40
0.3333333333333333
 40
0.3333333333333333
 40
0.3333333333333333
 40
0.3333333333333333
 40
0.4444444444444444
 40
0.4444444444444444
 40
0.4444444444444444
 40
0.4444444444444444
 40
0.5555555555555556
 40
0.5555555555555556
 40
0.5555555555555556
 40
0.5555555555555556
 40
0.6666666666666666
 40
0.6666666666666666
 40
0.6666666666666666
 40
0.6666666666666666
 40
0.7777777777777778
 40
0.7777777777777778
 40
0.7777777777777778
 40
0.7777777777777778
 40
1.0
 40
1.0
 40
1.0
 40
1.0
 10
-134.145
 20
-34.3742
 30
0.0
 10
-134.145
 20
-34.3742
 30
0.0
 10
-134.145
 20
-41.3778
 30
0.0
 10
-134.145
 20
-41.3778
 30
0.0
 10
-134.145
 20
-41.3778
 30
0.0
 10
-134.1449
 20
-42.3184
 30
0.0
 10
-134.9076
 20
-43.0811
 30
0.0
 10
-135.8482
 20
-43.0811
 30
0.0
 10
-135.8482
 20
-43.0811
 30
0.0
 10
-135.8482
 20
-43.0811
 30
0.0
 10
-142.8929
 20
-43.0811
 30
0.0
 10
-142.8929
 20
-43.0811
 30
0.0
 10
-142.8929
 20
-43.0811
 30
0.0
 10
-143.8334
 20
-43.0811
 30
0.0
 10
-144.5961
 20
-42.3184
 30
0.0
 10
-144.5961
 20
-41.3778
 30
0.0
 10
-144.5961
 20
-41.3778
 30
0.0
 10
-144.5961
 20
-41.3778
 30
0.0
 10
-144.5961
 20
-34.3742
 30
0.0
 10
-144.5961
 20
-34.3742
 30
0.0
 10
-144.5961
 20
-34.3742
 30
0.0
 10
-144.5961
 20
-33.4337
 30
0.0
 10
-143.8334
 20
-32.671
 30
0.0
 10
-142.8928
 20
-32.671
 30
0.0
 10
-142.8928
 20
-32.671
 30
0.0
 10
-142.8928
 20
-32.671
 30
0.0
 10
-135.8482
 20
-32.671
 30
0.0
 10
-135.8482
 20
-32.671
 30
0.0
 10
-135.8482
 20
-32.671
 30
0.0
 10
-134.9076
 20
-32.671
 30
0.0
 10
-134.1449
 20
-33.4337
 30
0.0
 10
-134.1449
 20
-34.3742
 30
0.0
  0
SPLINE
  5
AB
330
1F
100
AcDbEntity
  8
layer 1
 62
     7
100
AcDbSpline
210
0.0
220
0.0
230
1.0
 70
    11
 71
     3
 72
    36
 73
    32
 74
     0
 42
0.0000000001
 43
0.0000000001
 12
1.0
 22
0.0
 32
0.0
 13
1.0
 23
0.0
 33
0.0
 40
0.0
 40
0.0
 40
0.0
 40
0.0
 40
0.1111111111111111
 40
0.1111111111111111
 40
0.1111111111111111
 40
0.1111111111111111
 40
0.2222222222222222
 40
0.2222222222222222
 40
0.2222222222222222
 40
0.2222222222222222
 40
0.3333333333333333
 40
0.3333333333333333
 40
0.3333333333333333
 40
0.3333333333333333
 40
0.4444444444444444
 40
0.4444444444444444
 40
0.4444444444444444
 40
0.4444444444444444
 40
0.5555555555555556
 40
0.5555555555555556
 40
0.5555555555555556
 40
0.5555555555555556
 40
0.6666666666666666
 40
0.6666666666666666
 40
0.6666666666666666
 40
0.6666666666666666
 40
0.7777777777777778
 40
0.7777777777777778
 40
0.7777777777777778
 40
0.7777777777777778
 40
1.0
 40
1.0
 40
1.0
 40
1.0
 10
-107.8754
 20
-34.3742
 30
0.0
 10
-107.8754
 20
-34.3742
 30
0.0
 10
-107.8754
 20
-41.3778
 30
0.0
 10
-107.8754
 20
-41.3778
 30
0.0
 10
-107.8754
 20
-41.3778
 30
0.0
 10
-107.8754
 20
-42.3184
 30
0.0
 10
-108.6381
 20
-43.0811
 30
0.0
 10
-109.5787
 20
-43.0811
 30
0.0
 10
-109.5787
 20
-43.0811
 30
0.0
 10
-109.5787
 20
-43.0811
 30
0.0
 10
-116.6233
 20
-43.0811
 30
0.0
 10
-116.6233
 20
-43.0811
 30
0.0
 10
-116.6233
 20
-43.0811
 30
0.0
 10
-117.5638
 20
-43.0811
 30
0.0
 10
-118.3266
 20
-42.3184
 30
0.0
 10
-118.3266
 20
-41.3778
 30
0.0
 10
-118.3266
 20
-41.3778
 30
0.0
 10
-118.3266
 20
-41.3778
 30
0.0
 10
-118.3266
 20
-34.3742
 30
0.0
 10
-118.3266
 20
-34.3742
 30
0.0
 10
-118.3266
 20
-34.3742
 30
0.0
 10
-118.3266
 20
-33.4337
 30
0.0
 10
-117.5638
 20
-32.671
 30
0.0
 10
-116.6233
 20
-32.671
 30
0.0
 10
-116.6233
 20
-32.671
 30
0.0
 10
-116.6233
 20
-32.671
 30
0.0
 10
-109.5787
 20
-32.671
 30
0.0
 10
-109.5787
 20
-32.671
 30
0.0
 10
-109.5787
 20
-32.671
 30
0.0
 10
-108.6381
 20
-32.671
 30
0.0
 10
-107.8754
 20
-33.4337
 30
0.0
 10
-107.8754
 20
-34.3742
 30
0.0
  0
SPLINE
  5
AC
330
1F
100
AcDbEntity
  8
layer 1
 62
     7
100
AcDbSpline
210
0.0
220
0.0
230
1.0
 70
    11
 71
     3
 72
    48
 73
    44
 74
     0
 42
0.0000000001
 43
0.0000000001
 12
1.0
 22
0.0
 32
0.0
 13
1.0
 23
0.0
 33
0.0
 40
0.0
 40
0.0
 40
0.0
 40
0.0
 40
0.0833333333333333
 40
0.0833333333333333
 40
0.0833333333333333
 40
0.0833333333333333
 40
0.1666666666666667
 40
0.1666666666666667
 40
0.1666666666666667
 40
0.1666666666666667
 40
0.25
 40
0.25
 40
0.25
 40
0.25
 40
0.3333333333333333
 40
0.3333333333333333
 40
0.3333333333333333
 40
0.3333333333333333
 40
0.4166666666666667
 40
0.4166666666666667
 40
0.4166666666666667
 40
0.4166666666666667
 40
0.5
 40
0.5
 40
0.5
 40
0.5
 40
0.5833333333333334
 40
0.5833333333333334
 40
0.5833333333333334
 40
0.5833333333333334
 40
0.6666666666666666
 40
0.6666666666666666
 40
0.6666666666666666
 40
0.6666666666666666
 40
0.75
 40
0.75
 40
0.75
 40
0.75
 40
0.8333333333333334
 40
0.8333333333333334
 40
0.8333333333333334
 40
0.8333333333333334
 40
1.0
 40
1.0
 40
1.0
 40
1.0
 10
-121.0102
 20
-34.3742
 30
0.0
 10
-121.0102
 20
-34.3742
 30
0.0
 10
-121.0102
 20
-42.5197
 30
0.0
 10
-121.0102
 20
-42.5197
 30
0.0
 10
-121.0102
 20
-42.5197
 30
0.0
 10
-121.0102
 20
-43.3206
 30
0.0
 10
-121.3417
 20
-44.296
 30
0.0
 10
-121.8856
 20
-44.8099
 30
0.0
 10
-121.8856
 20
-44.8099
 30
0.0
 10
-121.8856
 20
-44.8099
 30
0.0
 10
-124.1751
 20
-47.628
 30
0.0
 10
-125.3117
 20
-48.3052
 30
0.0
 10
-125.3117
 20
-48.3052
 30
0.0
 10
-125.8772
 20
-48.8112
 30
0.0
 10
-126.8427
 20
-48.6969
 30
0.0
 10
-127.31
 20
-48.3052
 30
0.0
 10
-127.31
 20
-48.3052
 30
0.0
 10
-128.3767
 20
-47.5994
 30
0.0
 10
-130.8715
 20
-44.8225
 30
0.0
 10
-130.8715
 20
-44.8225
 30
0.0
 10
-130.8715
 20
-44.8225
 30
0.0
 10
-131.3833
 20
-44.1253
 30
0.0
 10
-131.4614
 20
-43.4633
 30
0.0
 10
-131.4614
 20
-42.5197
 30
0.0
 10
-131.4614
 20
-42.5197
 30
0.0
 10
-131.4614
 20
-42.5197
 30
0.0
 10
-131.4614
 20
-34.3742
 30
0.0
 10
-131.4614
 20
-34.3742
 30
0.0
 10
-131.4614
 20
-34.3742
 30
0.0
 10
-131.4614
 20
-33.4306
 30
0.0
 10
-130.7018
 20
-32.671
 30
0.0
 10
-129.7582
 20
-32.671
 30
0.0
 10
-129.7582
 20
-32.671
 30
0.0
 10
-129.7582
 20
-32.671
 30
0.0
 10
-122.7135
 20
-32.671
 30
0.0
 10
-122.7135
 20
-32.671
 30
0.0
 10
-122.7135
 20
-32.671
 30
0.0
 10
-121.77
 20
-32.671
 30
0.0
 10
-121.0103
 20
-33.4306
 30
0.0
 10
-121.0103
 20
-34.3742
 30
0.0
 10
-121.0103
 20
-34.3742
 30
0.0
 10
-121.0103
 20
-34.3742
 30
0.0
 10
-121.0102
 20
-34.3742
 30
0.0
 10
-121.0102
 20
-34.3742
 30
0.0
  0
SPLINE
  5
AD
330
1F
100
AcDbEntity
  8
layer 1
 62
     7
100
AcDbSpline
210
0.0
220
0.0
230
1.0
 70
     8
 71
     3
 72
    36
 73
    32
 74
     0
 42
0.0000000001
 43
0.0000000001
 12
1.0
 22
0.0
 32
0.0
 13
1.0
 23
0.0
 33
0.0
 40
0.0
 40
0.0
 40
0.0
 40
0.0
 40
0.1111111111111111
 40
0.1111111111111111
 40
0.1111111111111111
 40
0.1111111111111111
 40
0.2222222222222222
 40
0.2222222222222222
 40
0.2222222222222222
 40
0.2222222222222222
 40
0.3333333333333333
 40
0.3333333333333333
 40
0.3333333333333333
 40
0.3333333333333333
 40
0.4444444444444444
 40
0.4444444444444444
 40
0.4444444444444444
 40
0.4444444444444444
 40
0.5555555555555556
 40
0.5555555555555556
 40
0.5555555555555556
 40
0.5555555555555556
 40
0.6666666666666666
 40
0.6666666666666666
 40
0.6666666666666666
 40
0.6666666666666666
 40
0.7777777777777778
 40
0.7777777777777778
 40
0.7777777777777778
 40
0.7777777777777778
 40
1.0
 40
1.0
 40
1.0
 40
1.0
 10
-134.145
 20
-68.6768
 30
0.0
 10
-134.145
 20
-68.6768
 30
0.0
 10
-134.145
 20
-61.6732
 30
0.0
 10
-134.145
 20
-61.6732
 30
0.0
 10
-134.145
 20
-61.6732
 30
0.0
 10
-134.1449
 20
-60.7325
 30
0.0
 10
-134.9076
 20
-59.9698
 30
0.0
 10
-135.8482
 20
-59.9698
 30
0.0
 10
-135.8482
 20
-59.9698
 30
0.0
 10
-135.8482
 20
-59.9698
 30
0.0
 10
-142.8929
 20
-59.9699
 30
0.0
 10
-142.8929
 20
-59.9699
 30
0.0
 10
-142.8929
 20
-59.9699
 30
0.0
 10
-143.8334
 20
-59.9698
 30
0.0
 10
-144.5961
 20
-60.7325
 30
0.0
 10
-144.5961
 20
-61.673
 30
0.0
 10
-144.5961
 20
-61.673
 30
0.0
 10
-144.5961
 20
-61.673
 30
0.0
 10
-144.5961
 20
-68.6768
 30
0.0
 10
-144.5961
 20
-68.6768
 30
0.0
 10
-144.5961
 20
-68.6768
 30
0.0
 10
-144.5961
 20
-69.6172
 30
0.0
 10
-143.8334
 20
-70.3799
 30
0.0
 10
-142.8928
 20
-70.3799
 30
0.0
 10
-142.8928
 20
-70.3799
 30
0.0
 10
-142.8928
 20
-70.3799
 30
0.0
 10
-135.8482
 20
-70.3801
 30
0.0
 10
-135.8482
 20
-70.3801
 30
0.0
 10
-135.8482
 20
-70.3801
 30
0.0
 10
-134.9076
 20
-70.3799
 30
0.0
 10
-134.1449
 20
-69.6172
 30
0.0
 10
-134.1449
 20
-68.6767
 30
0.0
  0
SPLINE
  5
AE
330
1F
100
AcDbEntity
  8
layer 1
 62
     7
100
AcDbSpline
210
0.0
220
0.0
230
1.0
 70
     8
 71
     3
 72
    36
 73
    32
 74
     0
 42
0.0000000001
 43
0.0000000001
 12
1.0
 22
0.0
 32
0.0
 13
1.0
 23
0.0
 33
0.0
 40
0.0
 40
0.0
 40
0.0
 40
0.0
 40
0.1111111111111111
 40
0.1111111111111111
 40
0.1111111111111111
 40
0.1111111111111111
 40
0.2222222222222222
 40
0.2222222222222222
 40
0.2222222222222222
 40
0.2222222222222222
 40
0.3333333333333333
 40
0.3333333333333333
 40
0.3333333333333333
 40
0.3333333333333333
 40
0.4444444444444444
 40
0.4444444444444444
 40
0.4444444444444444
 40
0.4444444444444444
 40
0.5555555555555556
 40
0.5555555555555556
 40
0.5555555555555556
 40
0.5555555555555556
 40
0.6666666666666666
 40
0.6666666666666666
 40
0.6666666666666666
 40
0.6666666666666666
 40
0.7777777777777778
 40
0.7777777777777778
 40
0.7777777777777778
 40
0.7777777777777778
 40
1.0
 40
1.0
 40
1.0
 40
1.0
 10
-107.8754
 20
-68.6768
 30
0.0
 10
-107.8754
 20
-68.6768
 30
0.0
 10
-107.8754
 20
-61.6732
 30
0.0
 10
-107.8754
 20
-61.6732
 30
0.0
 10
-107.8754
 20
-61.6732
 30
0.0
 10
-107.8754
 20
-60.7325
 30
0.0
 10
-108.6381
 20
-59.9698
 30
0.0
 10
-109.5787
 20
-59.9698
 30
0.0
 10
-109.5787
 20
-59.9698
 30
0.0
 10
-109.5787
 20
-59.9698
 30
0.0
 10
-116.6233
 20
-59.9699
 30
0.0
 10
-116.6233
 20
-59.9699
 30
0.0
 10
-116.6233
 20
-59.9699
 30
0.0
 10
-117.5638
 20
-59.9698
 30
0.0
 10
-118.3266
 20
-60.7325
 30
0.0
 10
-118.3266
 20
-61.673
 30
0.0
 10
-118.3266
 20
-61.673
 30
0.0
 10
-118.3266
 20
-61.673
 30
0.0
 10
-118.3266
 20
-68.6768
 30
0.0
 10
-118.3266
 20
-68.6768
 30
0.0
 10
-118.3266
 20
-68.6768
 30
0.0
 10
-118.3266
 20
-69.6172
 30
0.0
 10
-117.5638
 20
-70.3799
 30
0.0
 10
-116.6233
 20
-70.3799
 30
0.0
 10
-116.6233
 20
-70.3799
 30
0.0
 10
-116.6233
 20
-70.3799
 30
0.0
 10
-109.5787
 20
-70.3801
 30
0.0
 10
-109.5787
 20
-70.3801
 30
0.0
 10
-109.5787
 20
-70.3801
 30
0.0
 10
-108.6381
 20
-70.3799
 30
0.0
 10
-107.8754
 20
-69.6172
 30
0.0
 10
-107.8754
 20
-68.6767
 30
0.0
  0
SPLINE
  5
AF
330
1F
100
AcDbEntity
  8
layer 1
 62
     7
100
AcDbSpline
210
0.0
220
0.0
230
1.0
 70
    11
 71
     3
 72
    48
 73
    44
 74
     0
 42
0.0000000001
 43
0.0000000001
 12
1.0
 22
0.0
 32
0.0
 13
1.0
 23
0.0
 33
0.0
 40
0.0
 40
0.0
 40
0.0
 40
0.0
 40
0.0833333333333333
 40
0.0833333333333333
 40
0.0833333333333333
 40
0.0833333333333333
 40
0.1666666666666667
 40
0.1666666666666667
 40
0.1666666666666667
 40
0.1666666666666667
 40
0.25
 40
0.25
 40
0.25
 40
0.25
 40
0.3333333333333333
 40
0.3333333333333333
 40
0.3333333333333333
 40
0.3333333333333333
 40
0.4166666666666667
 40
0.4166666666666667
 40
0.4166666666666667
 40
0.4166666666666667
 40
0.5
 40
0.5
 40
0.5
 40
0.5
 40
0.5833333333333334
 40
0.5833333333333334
 40
0.5833333333333334
 40
0.5833333333333334
 40
0.6666666666666666
 40
0.6666666666666666
 40
0.6666666666666666
 40
0.6666666666666666
 40
0.75
 40
0.75
 40
0.75
 40
0.75
 40
0.8333333333333334
 40
0.8333333333333334
 40
0.8333333333333334
 40
0.8333333333333334
 40
1.0
 40
1.0
 40
1.0
 40
1.0
 10
-121.0102
 20
-68.6768
 30
0.0
 10
-121.0102
 20
-68.6768
 30
0.0
 10
-121.0102
 20
-60.5312
 30
0.0
 10
-121.0102
 20
-60.5312
 30
0.0
 10
-121.0102
 20
-60.5312
 30
0.0
 10
-121.0102
 20
-59.7304
 30
0.0
 10
-121.3417
 20
-58.7549
 30
0.0
 10
-121.8856
 20
-58.2411
 30
0.0
 10
-121.8856
 20
-58.2411
 30
0.0
 10
-121.8856
 20
-58.2411
 30
0.0
 10
-124.1751
 20
-55.423
 30
0.0
 10
-125.3117
 20
-54.7458
 30
0.0
 10
-125.3117
 20
-54.7458
 30
0.0
 10
-125.8772
 20
-54.2398
 30
0.0
 10
-126.8427
 20
-54.354
 30
0.0
 10
-127.31
 20
-54.7458
 30
0.0
 10
-127.31
 20
-54.7458
 30
0.0
 10
-128.3767
 20
-55.4515
 30
0.0
 10
-130.8715
 20
-58.2285
 30
0.0
 10
-130.8715
 20
-58.2285
 30
0.0
 10
-130.8715
 20
-58.2285
 30
0.0
 10
-131.3833
 20
-58.9257
 30
0.0
 10
-131.4614
 20
-59.5877
 30
0.0
 10
-131.4614
 20
-60.5312
 30
0.0
 10
-131.4614
 20
-60.5312
 30
0.0
 10
-131.4614
 20
-60.5312
 30
0.0
 10
-131.4614
 20
-68.6768
 30
0.0
 10
-131.4614
 20
-68.6768
 30
0.0
 10
-131.4614
 20
-68.6768
 30
0.0
 10
-131.4614
 20
-69.6203
 30
0.0
 10
-130.7018
 20
-70.38
 30
0.0
 10
-129.7582
 20
-70.38
 30
0.0
 10
-129.7582
 20
-70.38
 30
0.0
 10
-129.7582
 20
-70.38
 30
0.0
 10
-122.7135
 20
-70.38
 30
0.0
 10
-122.7135
 20
-70.38
 30
0.0
 10
-122.7135
 20
-70.38
 30
0.0
 10
-121.77
 20
-70.38
 30
0.0
 10
-121.0103
 20
-69.6203
 30
0.0
 10
-121.0103
 20
-68.6768
 30
0.0
 10
-121.0103
 20
-68.6768
 30
0.0
 10
-121.0103
 20
-68.6768
 30
0.0
 10
-121.0102
 20
-68.6768
 30
0.0
 10
-121.0102
 20
-68.6768
 30
0.0
  0
SPLINE
  5
B0
330
1F
100
AcDbEntity
  8
layer 1
 62
     7
100
AcDbSpline
210
0.0
220
0.0
230
1.0
 70
    11
 71
     3
 72
    48
 73
    44
 74
     0
 42
0.0000000001
 43
0.0000000001
 12
1.0
 22
0.0
 32
0.0
 13
1.0
 23
0.0
 33
0.0
 40
0.0
 40
0.0
 40
0.0
 40
0.0
 40
0.0833333333333333
 40
0.0833333333333333
 40
0.0833333333333333
 40
0.0833333333333333
 40
0.1666666666666667
 40
0.1666666666666667
 40
0.1666666666666667
 40
0.1666666666666667
 40
0.25
 40
0.25
 40
0.25
 40
0.25
 40
0.3333333333333333
 40
0.3333333333333333
 40
0.3333333333333333
 40
0.3333333333333333
 40
0.4166666666666667
 40
0.4166666666666667
 40
0.4166666666666667
 40
0.4166666666666667
 40
0.5
 40
0.5
 40
0.5
 40
0.5
 40
0.5833333333333334
 40
0.5833333333333334
 40
0.5833333333333334
 40
0.5833333333333334
 40
0.6666666666666666
 40
0.6666666666666666
 40
0.6666666666666666
 40
0.6666666666666666
 40
0.75
 40
0.75
 40
0.75
 40
0.75
 40
0.8333333333333334
 40
0.8333333333333334
 40
0.8333333333333334
 40
0.8333333333333334
 40
1.0
 40
1.0
 40
1.0
 40
1.0
 10
-142.8929
 20
-56.7305
 30
0.0
 10
-142.8929
 20
-56.7305
 30
0.0
 10
-134.7474
 20
-56.7305
 30
0.0
 10
-134.7474
 20
-56.7305
 30
0.0
 10
-134.7474
 20
-56.7305
 30
0.0
 10
-133.9465
 20
-56.7305
 30
0.0
 10
-132.9711
 20
-56.399
 30
0.0
 10
-132.4572
 20
-55.8551
 30
0.0
 10
-132.4572
 20
-55.8551
 30
0.0
 10
-132.4572
 20
-55.8551
 30
0.0
 10
-129.6391
 20
-53.5656
 30
0.0
 10
-128.9619
 20
-52.4291
 30
0.0
 10
-128.9619
 20
-52.4291
 30
0.0
 10
-128.4559
 20
-51.8635
 30
0.0
 10
-128.5702
 20
-50.8981
 30
0.0
 10
-128.9619
 20
-50.4307
 30
0.0
 10
-128.9619
 20
-50.4307
 30
0.0
 10
-129.6677
 20
-49.364
 30
0.0
 10
-132.4446
 20
-46.8692
 30
0.0
 10
-132.4446
 20
-46.8692
 30
0.0
 10
-132.4446
 20
-46.8692
 30
0.0
 10
-133.1418
 20
-46.3574
 30
0.0
 10
-133.8038
 20
-46.2793
 30
0.0
 10
-134.7474
 20
-46.2793
 30
0.0
 10
-134.7474
 20
-46.2793
 30
0.0
 10
-134.7474
 20
-46.2793
 30
0.0
 10
-142.8929
 20
-46.2793
 30
0.0
 10
-142.8929
 20
-46.2793
 30
0.0
 10
-142.8929
 20
-46.2793
 30
0.0
 10
-143.8365
 20
-46.2793
 30
0.0
 10
-144.5961
 20
-47.039
 30
0.0
 10
-144.5961
 20
-47.9826
 30
0.0
 10
-144.5961
 20
-47.9826
 30
0.0
 10
-144.5961
 20
-47.9826
 30
0.0
 10
-144.5961
 20
-55.0272
 30
0.0
 10
-144.5961
 20
-55.0272
 30
0.0
 10
-144.5961
 20
-55.0272
 30
0.0
 10
-144.5961
 20
-55.9708
 30
0.0
 10
-143.8365
 20
-56.7305
 30
0.0
 10
-142.8929
 20
-56.7305
 30
0.0
 10
-142.8929
 20
-56.7305
 30
0.0
 10
-142.8929
 20
-56.7305
 30
0.0
 10
-142.8929
 20
-56.7305
 30
0.0
 10
-142.8929
 20
-56.7305
 30
0.0
  0
SPLINE
  5
B1
330
1F
100
AcDbEntity
  8
layer 1
 62
     7
100
AcDbSpline
210
0.0
220
0.0
230
1.0
 70
    11
 71
     3
 72
    48
 73
    44
 74
     0
 42
0.0000000001
 43
0.0000000001
 12
1.0
 22
0.0
 32
0.0
 13
1.0
 23
0.0
 33
0.0
 40
0.0
 40
0.0
 40
0.0
 40
0.0
 40
0.0833333333333333
 40
0.0833333333333333
 40
0.0833333333333333
 40
0.0833333333333333
 40
0.1666666666666667
 40
0.1666666666666667
 40
0.1666666666666667
 40
0.1666666666666667
 40
0.25
 40
0.25
 40
0.25
 40
0.25
 40
0.3333333333333333
 40
0.3333333333333333
 40
0.3333333333333333
 40
0.3333333333333333
 40
0.4166666666666667
 40
0.4166666666666667
 40
0.4166666666666667
 40
0.4166666666666667
 40
0.5
 40
0.5
 40
0.5
 40
0.5
 40
0.5833333333333334
 40
0.5833333333333334
 40
0.5833333333333334
 40
0.5833333333333334
 40
0.6666666666666666
 40
0.6666666666666666
 40
0.6666666666666666
 40
0.6666666666666666
 40
0.75
 40
0.75
 40
0.75
 40
0.75
 40
0.8333333333333334
 40
0.8333333333333334
 40
0.8333333333333334
 40
0.8333333333333334
 40
1.0
 40
1.0
 40
1.0
 40
1.0
 10
-109.6167
 20
-56.7305
 30
0.0
 10
-109.6167
 20
-56.7305
 30
0.0
 10
-117.7622
 20
-56.7305
 30
0.0
 10
-117.7622
 20
-56.7305
 30
0.0
 10
-117.7622
 20
-56.7305
 30
0.0
 10
-118.5631
 20
-56.7305
 30
0.0
 10
-119.5386
 20
-56.399
 30
0.0
 10
-120.0524
 20
-55.8551
 30
0.0
 10
-120.0524
 20
-55.8551
 30
0.0
 10
-120.0524
 20
-55.8551
 30
0.0
 10
-122.8705
 20
-53.5656
 30
0.0
 10
-123.5477
 20
-52.4291
 30
0.0
 10
-123.5477
 20
-52.4291
 30
0.0
 10
-124.0537
 20
-51.8635
 30
0.0
 10
-123.9394
 20
-50.8981
 30
0.0
 10
-123.5477
 20
-50.4307
 30
0.0
 10
-123.5477
 20
-50.4307
 30
0.0
 10
-122.842
 20
-49.364
 30
0.0
 10
-120.065
 20
-46.8692
 30
0.0
 10
-120.065
 20
-46.8692
 30
0.0
 10
-120.065
 20
-46.8692
 30
0.0
 10
-119.3678
 20
-46.3574
 30
0.0
 10
-118.7058
 20
-46.2793
 30
0.0
 10
-117.7622
 20
-46.2793
 30
0.0
 10
-117.7622
 20
-46.2793
 30
0.0
 10
-117.7622
 20
-46.2793
 30
0.0
 10
-109.6167
 20
-46.2793
 30
0.0
 10
-109.6167
 20
-46.2793
 30
0.0
 10
-109.6167
 20
-46.2793
 30
0.0
 10
-108.6731
 20
-46.2793
 30
0.0
 10
-107.9135
 20
-47.039
 30
0.0
 10
-107.9135
 20
-47.9826
 30
0.0
 10
-107.9135
 20
-47.9826
 30
0.0
 10
-107.9135
 20
-47.9826
 30
0.0
 10
-107.9135
 20
-55.0272
 30
0.0
 10
-107.9135
 20
-55.0272
 30
0.0
 10
-107.9135
 20
-55.0272
 30
0.0
 10
-107.9135
 20
-55.9708
 30
0.0
 10
-108.6731
 20
-56.7305
 30
0.0
 10
-109.6167
 20
-56.7305
 30
0.0
 10
-109.6167
 20
-56.7305
 30
0.0
 10
-109.6167
 20
-56.7305
 30
0.0
 10
-109.6167
 20
-56.7305
 30
0.0
 10
-109.6167
 20
-56.7305
 30
0.0
  0
SPLINE
  5
B2
330
1F
100
AcDbEntity
  8
layer 1
 62
     7
100
AcDbSpline
210
0.0
220
0.0
230
1.0
 70
    11
 71
     3
 72
    32
 73
    28
 74
     0
 42
0.0000000001
 43
0.0000000001
 12
1.0
 22
0.0
 32
0.0
 13
1.0
 23
0.0
 33
0.0
 40
0.0
 40
0.0
 40
0.0
 40
0.0
 40
0.125
 40
0.125
 40
0.125
 40
0.125
 40
0.25
 40
0.25
 40
0.25
 40
0.25
 40
0.375
 40
0.375
 40
0.375
 40
0.375
 40
0.5
 40
0.5
 40
0.5
 40
0.5
 40
0.625
 40
0.625
 40
0.625
 40
0.625
 40
0.75
 40
0.75
 40
0.75
 40
0.75
 40
1.0
 40
1.0
 40
1.0
 40
1.0
 10
-89.3798
 20
-32.7805
 30
0.0
 10
-89.3798
 20
-32.7805
 30
0.0
 10
-102.8008
 20
-32.7111
 30
0.0
 10
-102.8008
 20
-32.7111
 30
0.0
 10
-102.8008
 20
-32.7111
 30
0.0
 10
-103.9595
 20
-32.7664
 30
0.0
 10
-104.8756
 20
-33.3756
 30
0.0
 10
-104.7711
 20
-34.6262
 30
0.0
 10
-104.7711
 20
-34.6262
 30
0.0
 10
-104.7711
 20
-34.6262
 30
0.0
 10
-104.7341
 20
-48.7314
 30
0.0
 10
-104.7341
 20
-48.7314
 30
0.0
 10
-104.7341
 20
-48.7314
 30
0.0
 10
-104.7086
 20
-50.244
 30
0.0
 10
-102.9537
 20
-50.4634
 30
0.0
 10
-102.0296
 20
-49.7244
 30
0.0
 10
-102.0296
 20
-49.7244
 30
0.0
 10
-102.0296
 20
-49.7244
 30
0.0
 10
-88.5193
 20
-35.7724
 30
0.0
 10
-88.5193
 20
-35.7724
 30
0.0
 10
-88.5193
 20
-35.7724
 30
0.0
 10
-87.6475
 20
-34.8945
 30
0.0
 10
-87.735
 20
-32.9741
 30
0.0
 10
-89.3797
 20
-32.7805
 30
0.0
 10
-89.3797
 20
-32.7805
 30
0.0
 10
-89.3797
 20
-32.7805
 30
0.0
 10
-89.3798
 20
-32.7805
 30
0.0
 10
-89.3798
 20
-32.7805
 30
0.0
  0
SPLINE
  5
B3
330
1F
100
AcDbEntity
  8
layer 1
 62
     7
100
AcDbSpline
210
0.0
220
0.0
230
1.0
 70
    11
 71
     3
 72
    28
 73
    24
 74
     0
 42
0.0000000001
 43
0.0000000001
 12
1.0
 22
0.0
 32
0.0
 13
1.0
 23
0.0
 33
0.0
 40
0.0
 40
0.0
 40
0.0
 40
0.0
 40
0.1428571428571428
 40
0.1428571428571428
 40
0.1428571428571428
 40
0.1428571428571428
 40
0.2857142857142857
 40
0.2857142857142857
 40
0.2857142857142857
 40
0.2857142857142857
 40
0.4285714285714285
 40
0.4285714285714285
 40
0.4285714285714285
 40
0.4285714285714285
 40
0.5714285714285714
 40
0.5714285714285714
 40
0.5714285714285714
 40
0.5714285714285714
 40
0.7142857142857143
 40
0.7142857142857143
 40
0.7142857142857143
 40
0.7142857142857143
 40
1.0
 40
1.0
 40
1.0
 40
1.0
 10
-83.4972
 20
-32.7805
 30
0.0
 10
-83.4972
 20
-32.7805
 30
0.0
 10
-70.0761
 20
-32.7111
 30
0.0
 10
-70.0761
 20
-32.7111
 30
0.0
 10
-70.0761
 20
-32.7111
 30
0.0
 10
-68.9174
 20
-32.7664
 30
0.0
 10
-68.0013
 20
-33.3756
 30
0.0
 10
-68.1057
 20
-34.6262
 30
0.0
 10
-68.1057
 20
-34.6262
 30
0.0
 10
-68.1057
 20
-34.6262
 30
0.0
 10
-68.1428
 20
-48.7314
 30
0.0
 10
-68.1428
 20
-48.7314
 30
0.0
 10
-68.1428
 20
-48.7314
 30
0.0
 10
-68.1683
 20
-50.244
 30
0.0
 10
-69.9232
 20
-50.4634
 30
0.0
 10
-70.8473
 20
-49.7244
 30
0.0
 10
-70.8473
 20
-49.7244
 30
0.0
 10
-70.8473
 20
-49.7244
 30
0.0
 10
-84.3575
 20
-35.7724
 30
0.0
 10
-84.3575
 20
-35.7724
 30
0.0
 10
-84.3575
 20
-35.7724
 30
0.0
 10
-85.2293
 20
-34.8945
 30
0.0
 10
-85.1419
 20
-32.9741
 30
0.0
 10
-83.4972
 20
-32.7805
 30
0.0
  0
SPLINE
  5
B4
330
1F
100
AcDbEntity
  8
layer 1
 62
     7
100
AcDbSpline
210
0.0
220
0.0
230
1.0
 70
    11
 71
     3
 72
    32
 73
    28
 74
     0
 42
0.0000000001
 43
0.0000000001
 12
1.0
 22
0.0
 32
0.0
 13
1.0
 23
0.0
 33
0.0
 40
0.0
 40
0.0
 40
0.0
 40
0.0
 40
0.125
 40
0.125
 40
0.125
 40
0.125
 40
0.25
 40
0.25
 40
0.25
 40
0.25
 40
0.375
 40
0.375
 40
0.375
 40
0.375
 40
0.5
 40
0.5
 40
0.5
 40
0.5
 40
0.625
 40
0.625
 40
0.625
 40
0.625
 40
0.75
 40
0.75
 40
0.75
 40
0.75
 40
1.0
 40
1.0
 40
1.0
 40
1.0
 10
-89.3798
 20
-70.3286
 30
0.0
 10
-89.3798
 20
-70.3286
 30
0.0
 10
-102.8008
 20
-70.3981
 30
0.0
 10
-102.8008
 20
-70.3981
 30
0.0
 10
-102.8008
 20
-70.3981
 30
0.0
 10
-103.9595
 20
-70.3428
 30
0.0
 10
-104.8756
 20
-69.7335
 30
0.0
 10
-104.7711
 20
-68.483
 30
0.0
 10
-104.7711
 20
-68.483
 30
0.0
 10
-104.7711
 20
-68.483
 30
0.0
 10
-104.7341
 20
-54.3778
 30
0.0
 10
-104.7341
 20
-54.3778
 30
0.0
 10
-104.7341
 20
-54.3778
 30
0.0
 10
-104.7086
 20
-52.8652
 30
0.0
 10
-102.9537
 20
-52.6458
 30
0.0
 10
-102.0296
 20
-53.3848
 30
0.0
 10
-102.0296
 20
-53.3848
 30
0.0
 10
-102.0296
 20
-53.3848
 30
0.0
 10
-88.5193
 20
-67.3368
 30
0.0
 10
-88.5193
 20
-67.3368
 30
0.0
 10
-88.5193
 20
-67.3368
 30
0.0
 10
-87.6475
 20
-68.2147
 30
0.0
 10
-87.735
 20
-70.1352
 30
0.0
 10
-89.3797
 20
-70.3287
 30
0.0
 10
-89.3797
 20
-70.3287
 30
0.0
 10
-89.3797
 20
-70.3287
 30
0.0
 10
-89.3798
 20
-70.3286
 30
0.0
 10
-89.3798
 20
-70.3286
 30
0.0
  0
SPLINE
  5
B5
330
1F
100
AcDbEntity
  8
layer 1
 62
     7
100
AcDbSpline
210
0.0
220
0.0
230
1.0
 70
    11
 71
     3
 72
    32
 73
    28
 74
     0
 42
0.0000000001
 43
0.0000000001
 12
1.0
 22
0.0
 32
0.0
 13
1.0
 23
0.0
 33
0.0
 40
0.0
 40
0.0
 40
0.0
 40
0.0
 40
0.125
 40
0.125
 40
0.125
 40
0.125
 40
0.25
 40
0.25
 40
0.25
 40
0.25
 40
0.375
 40
0.375
 40
0.375
 40
0.375
 40
0.5
 40
0.5
 40
0.5
 40
0.5
 40
0.625
 40
0.625
 40
0.625
 40
0.625
 40
0.75
 40
0.75
 40
0.75
 40
0.75
 40
1.0
 40
1.0
 40
1.0
 40
1.0
 10
-83.4972
 20
-70.3286
 30
0.0
 10
-83.4972
 20
-70.3286
 30
0.0
 10
-70.0761
 20
-70.3981
 30
0.0
 10
-70.0761
 20
-70.3981
 30
0.0
 10
-70.0761
 20
-70.3981
 30
0.0
 10
-68.9174
 20
-70.3428
 30
0.0
 10
-68.0013
 20
-69.7335
 30
0.0
 10
-68.1057
 20
-68.483
 30
0.0
 10
-68.1057
 20
-68.483
 30
0.0
 10
-68.1057
 20
-68.483
 30
0.0
 10
-68.1428
 20
-54.3778
 30
0.0
 10
-68.1428
 20
-54.3778
 30
0.0
 10
-68.1428
 20
-54.3778
 30
0.0
 10
-68.1683
 20
-52.8652
 30
0.0
 10
-69.9232
 20
-52.6458
 30
0.0
 10
-70.8473
 20
-53.3848
 30
0.0
 10
-70.8473
 20
-53.3848
 30
0.0
 10
-70.8473
 20
-53.3848
 30
0.0
 10
-84.3575
 20
-67.3368
 30
0.0
 10
-84.3575
 20
-67.3368
 30
0.0
 10
-84.3575
 20
-67.3368
 30
0.0
 10
-85.2293
 20
-68.2147
 30
0.0
 10
-85.1419
 20
-70.1352
 30
0.0
 10
-83.4972
 20
-70.3287
 30
0.0
 10
-83.4972
 20
-70.3287
 30
0.0
 10
-83.4972
 20
-70.3287
 30
0.0
 10
-83.4972
 20
-70.3286
 30
0.0
 10
-83.4972
 20
-70.3286
 30
0.0
  0
SPLINE
  5
B6
330
1F
100
AcDbEntity
  8
layer 1
 62
     7
100
AcDbSpline
210
0.0
220
0.0
230
1.0
 70
    11
 71
     3
 72
    36
 73
    32
 74
     0
 42
0.0000000001
 43
0.0000000001
 12
1.0
 22
0.0
 32
0.0
 13
1.0
 23
0.0
 33
0.0
 40
0.0
 40
0.0
 40
0.0
 40
0.0
 40
0.1111111111111111
 40
0.1111111111111111
 40
0.1111111111111111
 40
0.1111111111111111
 40
0.2222222222222222
 40
0.2222222222222222
 40
0.2222222222222222
 40
0.2222222222222222
 40
0.3333333333333333
 40
0.3333333333333333
 40
0.3333333333333333
 40
0.3333333333333333
 40
0.4444444444444444
 40
0.4444444444444444
 40
0.4444444444444444
 40
0.4444444444444444
 40
0.5555555555555556
 40
0.5555555555555556
 40
0.5555555555555556
 40
0.5555555555555556
 40
0.6666666666666666
 40
0.6666666666666666
 40
0.6666666666666666
 40
0.6666666666666666
 40
0.7777777777777778
 40
0.7777777777777778
 40
0.7777777777777778
 40
0.7777777777777778
 40
1.0
 40
1.0
 40
1.0
 40
1.0
 10
-85.246
 20
-39.5207
 30
0.0
 10
-85.246
 20
-39.5207
 30
0.0
 10
-82.2216
 20
-42.545
 30
0.0
 10
-82.2216
 20
-42.545
 30
0.0
 10
-82.2216
 20
-42.545
 30
0.0
 10
-81.5566
 20
-43.2101
 30
0.0
 10
-81.5566
 20
-44.2887
 30
0.0
 10
-82.2216
 20
-44.9538
 30
0.0
 10
-82.2216
 20
-44.9538
 30
0.0
 10
-82.2216
 20
-44.9538
 30
0.0
 10
-85.246
 20
-47.9782
 30
0.0
 10
-85.246
 20
-47.9782
 30
0.0
 10
-85.246
 20
-47.9782
 30
0.0
 10
-85.9111
 20
-48.6432
 30
0.0
 10
-86.9897
 20
-48.6432
 30
0.0
 10
-87.6548
 20
-47.9782
 30
0.0
 10
-87.6548
 20
-47.9782
 30
0.0
 10
-87.6548
 20
-47.9782
 30
0.0
 10
-90.6791
 20
-44.9538
 30
0.0
 10
-90.6791
 20
-44.9538
 30
0.0
 10
-90.6791
 20
-44.9538
 30
0.0
 10
-91.3442
 20
-44.2888
 30
0.0
 10
-91.3442
 20
-43.2101
 30
0.0
 10
-90.6791
 20
-42.5451
 30
0.0
 10
-90.6791
 20
-42.5451
 30
0.0
 10
-90.6791
 20
-42.5451
 30
0.0
 10
-87.6548
 20
-39.5207
 30
0.0
 10
-87.6548
 20
-39.5207
 30
0.0
 10
-87.6548
 20
-39.5207
 30
0.0
 10
-86.9897
 20
-38.8556
 30
0.0
 10
-85.911
 20
-38.8556
 30
0.0
 10
-85.246
 20
-39.5207
 30
0.0
  0
SPLINE
  5
B7
330
1F
100
AcDbEntity
  8
layer 1
 62
     7
100
AcDbSpline
210
0.0
220
0.0
230
1.0
 70
    11
 71
     3
 72
    36
 73
    32
 74
     0
 42
0.0000000001
 43
0.0000000001
 12
1.0
 22
0.0
 32
0.0
 13
1.0
 23
0.0
 33
0.0
 40
0.0
 40
0.0
 40
0.0
 40
0.0
 40
0.1111111111111111
 40
0.1111111111111111
 40
0.1111111111111111
 40
0.1111111111111111
 40
0.2222222222222222
 40
0.2222222222222222
 40
0.2222222222222222
 40
0.2222222222222222
 40
0.3333333333333333
 40
0.3333333333333333
 40
0.3333333333333333
 40
0.3333333333333333
 40
0.4444444444444444
 40
0.4444444444444444
 40
0.4444444444444444
 40
0.4444444444444444
 40
0.5555555555555556
 40
0.5555555555555556
 40
0.5555555555555556
 40
0.5555555555555556
 40
0.6666666666666666
 40
0.6666666666666666
 40
0.6666666666666666
 40
0.6666666666666666
 40
0.7777777777777778
 40
0.7777777777777778
 40
0.7777777777777778
 40
0.7777777777777778
 40
1.0
 40
1.0
 40
1.0
 40
1.0
 10
-85.246
 20
-55.1153
 30
0.0
 10
-85.246
 20
-55.1153
 30
0.0
 10
-82.2216
 20
-58.1396
 30
0.0
 10
-82.2216
 20
-58.1396
 30
0.0
 10
-82.2216
 20
-58.1396
 30
0.0
 10
-81.5566
 20
-58.8047
 30
0.0
 10
-81.5566
 20
-59.8834
 30
0.0
 10
-82.2216
 20
-60.5484
 30
0.0
 10
-82.2216
 20
-60.5484
 30
0.0
 10
-82.2216
 20
-60.5484
 30
0.0
 10
-85.246
 20
-63.5727
 30
0.0
 10
-85.246
 20
-63.5727
 30
0.0
 10
-85.246
 20
-63.5727
 30
0.0
 10
-85.911
 20
-64.2378
 30
0.0
 10
-86.9897
 20
-64.2378
 30
0.0
 10
-87.6547
 20
-63.5728
 30
0.0
 10
-87.6547
 20
-63.5728
 30
0.0
 10
-87.6547
 20
-63.5728
 30
0.0
 10
-90.6791
 20
-60.5483
 30
0.0
 10
-90.6791
 20
-60.5483
 30
0.0
 10
-90.6791
 20
-60.5483
 30
0.0
 10
-91.3442
 20
-59.8833
 30
0.0
 10
-91.3442
 20
-58.8046
 30
0.0
 10
-90.6791
 20
-58.1396
 30
0.0
 10
-90.6791
 20
-58.1396
 30
0.0
 10
-90.6791
 20
-58.1396
 30
0.0
 10
-87.6548
 20
-55.1153
 30
0.0
 10
-87.6548
 20
-55.1153
 30
0.0
 10
-87.6548
 20
-55.1153
 30
0.0
 10
-86.9897
 20
-54.4502
 30
0.0
 10
-85.9111
 20
-54.4502
 30
0.0
 10
-85.246
 20
-55.1153
 30
0.0
  0
SPLINE
  5
B8
330
1F
100
AcDbEntity
  8
layer 1
 62
     7
100
AcDbSpline
210
0.0
220
0.0
230
1.0
 70
    11
 71
     3
 72
    36
 73
    32
 74
     0
 42
0.0000000001
 43
0.0000000001
 12
1.0
 22
0.0
 32
0.0
 13
1.0
 23
0.0
 33
0.0
 40
0.0
 40
0.0
 40
0.0
 40
0.0
 40
0.1111111111111111
 40
0.1111111111111111
 40
0.1111111111111111
 40
0.1111111111111111
 40
0.2222222222222222
 40
0.2222222222222222
 40
0.2222222222222222
 40
0.2222222222222222
 40
0.3333333333333333
 40
0.3333333333333333
 40
0.3333333333333333
 40
0.3333333333333333
 40
0.4444444444444444
 40
0.4444444444444444
 40
0.4444444444444444
 40
0.4444444444444444
 40
0.5555555555555556
 40
0.5555555555555556
 40
0.5555555555555556
 40
0.5555555555555556
 40
0.6666666666666666
 40
0.6666666666666666
 40
0.6666666666666666
 40
0.6666666666666666
 40
0.7777777777777778
 40
0.7777777777777778
 40
0.7777777777777778
 40
0.7777777777777778
 40
1.0
 40
1.0
 40
1.0
 40
1.0
 10
-92.8165
 20
-47.318
 30
0.0
 10
-92.8165
 20
-47.318
 30
0.0
 10
-89.7922
 20
-50.3424
 30
0.0
 10
-89.7922
 20
-50.3424
 30
0.0
 10
-89.7922
 20
-50.3424
 30
0.0
 10
-89.1272
 20
-51.0074
 30
0.0
 10
-89.1272
 20
-52.0861
 30
0.0
 10
-89.7922
 20
-52.7511
 30
0.0
 10
-89.7922
 20
-52.7511
 30
0.0
 10
-89.7922
 20
-52.7511
 30
0.0
 10
-92.8165
 20
-55.7754
 30
0.0
 10
-92.8165
 20
-55.7754
 30
0.0
 10
-92.8165
 20
-55.7754
 30
0.0
 10
-93.4817
 20
-56.4406
 30
0.0
 10
-94.5603
 20
-56.4406
 30
0.0
 10
-95.2254
 20
-55.7755
 30
0.0
 10
-95.2254
 20
-55.7755
 30
0.0
 10
-95.2254
 20
-55.7755
 30
0.0
 10
-98.2497
 20
-52.7511
 30
0.0
 10
-98.2497
 20
-52.7511
 30
0.0
 10
-98.2497
 20
-52.7511
 30
0.0
 10
-98.9147
 20
-52.0861
 30
0.0
 10
-98.9147
 20
-51.0075
 30
0.0
 10
-98.2497
 20
-50.3424
 30
0.0
 10
-98.2497
 20
-50.3424
 30
0.0
 10
-98.2497
 20
-50.3424
 30
0.0
 10
-95.2254
 20
-47.318
 30
0.0
 10
-95.2254
 20
-47.318
 30
0.0
 10
-95.2254
 20
-47.318
 30
0.0
 10
-94.5602
 20
-46.653
 30
0.0
 10
-93.4816
 20
-46.653
 30
0.0
 10
-92.8165
 20
-47.318
 30
0.0
  0
SPLINE
  5
B9
330
1F
100
AcDbEntity
  8
layer 1
 62
     7
100
AcDbSpline
210
0.0
220
0.0
230
1.0
 70
     8
 71
     3
 72
    36
 73
    32
 74
     0
 42
0.0000000001
 43
0.0000000001
 12
1.0
 22
0.0
 32
0.0
 13
1.0
 23
0.0
 33
0.0
 40
0.0
 40
0.0
 40
0.0
 40
0.0
 40
0.1111111111111111
 40
0.1111111111111111
 40
0.1111111111111111
 40
0.1111111111111111
 40
0.2222222222222222
 40
0.2222222222222222
 40
0.2222222222222222
 40
0.2222222222222222
 40
0.3333333333333333
 40
0.3333333333333333
 40
0.3333333333333333
 40
0.3333333333333333
 40
0.4444444444444444
 40
0.4444444444444444
 40
0.4444444444444444
 40
0.4444444444444444
 40
0.5555555555555556
 40
0.5555555555555556
 40
0.5555555555555556
 40
0.5555555555555556
 40
0.6666666666666666
 40
0.6666666666666666
 40
0.6666666666666666
 40
0.6666666666666666
 40
0.7777777777777778
 40
0.7777777777777778
 40
0.7777777777777778
 40
0.7777777777777778
 40
1.0
 40
1.0
 40
1.0
 40
1.0
 10
-77.6301
 20
-47.318
 30
0.0
 10
-77.6301
 20
-47.318
 30
0.0
 10
-74.6056
 20
-50.3424
 30
0.0
 10
-74.6056
 20
-50.3424
 30
0.0
 10
-74.6056
 20
-50.3424
 30
0.0
 10
-73.9406
 20
-51.0074
 30
0.0
 10
-73.9406
 20
-52.0861
 30
0.0
 10
-74.6057
 20
-52.7511
 30
0.0
 10
-74.6057
 20
-52.7511
 30
0.0
 10
-74.6057
 20
-52.7511
 30
0.0
 10
-77.6301
 20
-55.7754
 30
0.0
 10
-77.6301
 20
-55.7754
 30
0.0
 10
-77.6301
 20
-55.7754
 30
0.0
 10
-78.2951
 20
-56.4405
 30
0.0
 10
-79.3737
 20
-56.4405
 30
0.0
 10
-80.0388
 20
-55.7754
 30
0.0
 10
-80.0388
 20
-55.7754
 30
0.0
 10
-80.0388
 20
-55.7754
 30
0.0
 10
-83.0632
 20
-52.7511
 30
0.0
 10
-83.0632
 20
-52.7511
 30
0.0
 10
-83.0632
 20
-52.7511
 30
0.0
 10
-83.7282
 20
-52.0861
 30
0.0
 10
-83.7282
 20
-51.0074
 30
0.0
 10
-83.0631
 20
-50.3424
 30
0.0
 10
-83.0631
 20
-50.3424
 30
0.0
 10
-83.0631
 20
-50.3424
 30
0.0
 10
-80.0388
 20
-47.318
 30
0.0
 10
-80.0388
 20
-47.318
 30
0.0
 10
-80.0388
 20
-47.318
 30
0.0
 10
-79.3737
 20
-46.653
 30
0.0
 10
-78.2951
 20
-46.653
 30
0.0
 10
-77.63
 20
-47.318
 30
0.0
  0
SPLINE
  5
BA
330
1F
100
AcDbEntity
  8
layer 1
 62
     7
100
AcDbSpline
210
0.0
220
0.0
230
1.0
 70
    11
 71
     3
 72
    28
 73
    24
 74
     0
 42
0.0000000001
 43
0.0000000001
 12
1.0
 22
0.0
 32
0.0
 13
1.0
 23
0.0
 33
0.0
 40
0.0
 40
0.0
 40
0.0
 40
0.0
 40
0.1428571428571428
 40
0.1428571428571428
 40
0.1428571428571428
 40
0.1428571428571428
 40
0.2857142857142857
 40
0.2857142857142857
 40
0.2857142857142857
 40
0.2857142857142857
 40
0.4285714285714285
 40
0.4285714285714285
 40
0.4285714285714285
 40
0.4285714285714285
 40
0.5714285714285714
 40
0.5714285714285714
 40
0.5714285714285714
 40
0.5714285714285714
 40
0.7142857142857143
 40
0.7142857142857143
 40
0.7142857142857143
 40
0.7142857142857143
 40
1.0
 40
1.0
 40
1.0
 40
1.0
 10
-89.3755
 20
-72.8281
 30
0.0
 10
-89.3755
 20
-72.8281
 30
0.0
 10
-102.7966
 20
-72.7587
 30
0.0
 10
-102.7966
 20
-72.7587
 30
0.0
 10
-102.7966
 20
-72.7587
 30
0.0
 10
-103.9553
 20
-72.814
 30
0.0
 10
-104.8714
 20
-73.4233
 30
0.0
 10
-104.767
 20
-74.6738
 30
0.0
 10
-104.767
 20
-74.6738
 30
0.0
 10
-104.767
 20
-74.6738
 30
0.0
 10
-104.7299
 20
-88.779
 30
0.0
 10
-104.7299
 20
-88.779
 30
0.0
 10
-104.7299
 20
-88.779
 30
0.0
 10
-104.7044
 20
-90.2916
 30
0.0
 10
-102.9495
 20
-90.511
 30
0.0
 10
-102.0254
 20
-89.772
 30
0.0
 10
-102.0254
 20
-89.772
 30
0.0
 10
-102.0254
 20
-89.772
 30
0.0
 10
-88.5151
 20
-75.82
 30
0.0
 10
-88.5151
 20
-75.82
 30
0.0
 10
-88.5151
 20
-75.82
 30
0.0
 10
-87.6433
 20
-74.9421
 30
0.0
 10
-87.7308
 20
-73.0216
 30
0.0
 10
-89.3755
 20
-72.8281
 30
0.0
  0
SPLINE
  5
BB
330
1F
100
AcDbEntity
  8
layer 1
 62
     7
100
AcDbSpline
210
0.0
220
0.0
230
1.0
 70
    11
 71
     3
 72
    32
 73
    28
 74
     0
 42
0.0000000001
 43
0.0000000001
 12
1.0
 22
0.0
 32
0.0
 13
1.0
 23
0.0
 33
0.0
 40
0.0
 40
0.0
 40
0.0
 40
0.0
 40
0.125
 40
0.125
 40
0.125
 40
0.125
 40
0.25
 40
0.25
 40
0.25
 40
0.25
 40
0.375
 40
0.375
 40
0.375
 40
0.375
 40
0.5
 40
0.5
 40
0.5
 40
0.5
 40
0.625
 40
0.625
 40
0.625
 40
0.625
 40
0.75
 40
0.75
 40
0.75
 40
0.75
 40
1.0
 40
1.0
 40
1.0
 40
1.0
 10
-83.4929
 20
-72.8281
 30
0.0
 10
-83.4929
 20
-72.8281
 30
0.0
 10
-70.0719
 20
-72.7587
 30
0.0
 10
-70.0719
 20
-72.7587
 30
0.0
 10
-70.0719
 20
-72.7587
 30
0.0
 10
-68.9132
 20
-72.814
 30
0.0
 10
-67.9971
 20
-73.4233
 30
0.0
 10
-68.1015
 20
-74.6738
 30
0.0
 10
-68.1015
 20
-74.6738
 30
0.0
 10
-68.1015
 20
-74.6738
 30
0.0
 10
-68.1386
 20
-88.779
 30
0.0
 10
-68.1386
 20
-88.779
 30
0.0
 10
-68.1386
 20
-88.779
 30
0.0
 10
-68.1641
 20
-90.2916
 30
0.0
 10
-69.919
 20
-90.511
 30
0.0
 10
-70.8431
 20
-89.772
 30
0.0
 10
-70.8431
 20
-89.772
 30
0.0
 10
-70.8431
 20
-89.772
 30
0.0
 10
-84.3534
 20
-75.82
 30
0.0
 10
-84.3534
 20
-75.82
 30
0.0
 10
-84.3534
 20
-75.82
 30
0.0
 10
-85.2252
 20
-74.9421
 30
0.0
 10
-85.1377
 20
-73.0216
 30
0.0
 10
-83.493
 20
-72.8281
 30
0.0
 10
-83.493
 20
-72.8281
 30
0.0
 10
-83.493
 20
-72.8281
 30
0.0
 10
-83.4929
 20
-72.8281
 30
0.0
 10
-83.4929
 20
-72.8281
 30
0.0
  0
SPLINE
  5
BC
330
1F
100
AcDbEntity
  8
layer 1
 62
     7
100
AcDbSpline
210
0.0
220
0.0
230
1.0
 70
    11
 71
     3
 72
    28
 73
    24
 74
     0
 42
0.0000000001
 43
0.0000000001
 12
1.0
 22
0.0
 32
0.0
 13
1.0
 23
0.0
 33
0.0
 40
0.0
 40
0.0
 40
0.0
 40
0.0
 40
0.1428571428571428
 40
0.1428571428571428
 40
0.1428571428571428
 40
0.1428571428571428
 40
0.2857142857142857
 40
0.2857142857142857
 40
0.2857142857142857
 40
0.2857142857142857
 40
0.4285714285714285
 40
0.4285714285714285
 40
0.4285714285714285
 40
0.4285714285714285
 40
0.5714285714285714
 40
0.5714285714285714
 40
0.5714285714285714
 40
0.5714285714285714
 40
0.7142857142857143
 40
0.7142857142857143
 40
0.7142857142857143
 40
0.7142857142857143
 40
1.0
 40
1.0
 40
1.0
 40
1.0
 10
-89.3755
 20
-110.3762
 30
0.0
 10
-89.3755
 20
-110.3762
 30
0.0
 10
-102.7966
 20
-110.4456
 30
0.0
 10
-102.7966
 20
-110.4456
 30
0.0
 10
-102.7966
 20
-110.4456
 30
0.0
 10
-103.9553
 20
-110.3903
 30
0.0
 10
-104.8714
 20
-109.7811
 30
0.0
 10
-104.767
 20
-108.5305
 30
0.0
 10
-104.767
 20
-108.5305
 30
0.0
 10
-104.767
 20
-108.5305
 30
0.0
 10
-104.7299
 20
-94.4253
 30
0.0
 10
-104.7299
 20
-94.4253
 30
0.0
 10
-104.7299
 20
-94.4253
 30
0.0
 10
-104.7044
 20
-92.9128
 30
0.0
 10
-102.9495
 20
-92.6933
 30
0.0
 10
-102.0254
 20
-93.4324
 30
0.0
 10
-102.0254
 20
-93.4324
 30
0.0
 10
-102.0254
 20
-93.4324
 30
0.0
 10
-88.5151
 20
-107.3844
 30
0.0
 10
-88.5151
 20
-107.3844
 30
0.0
 10
-88.5151
 20
-107.3844
 30
0.0
 10
-87.6433
 20
-108.2623
 30
0.0
 10
-87.7308
 20
-110.1827
 30
0.0
 10
-89.3755
 20
-110.3762
 30
0.0
  0
SPLINE
  5
BD
330
1F
100
AcDbEntity
  8
layer 1
 62
     7
100
AcDbSpline
210
0.0
220
0.0
230
1.0
 70
    11
 71
     3
 72
    32
 73
    28
 74
     0
 42
0.0000000001
 43
0.0000000001
 12
1.0
 22
0.0
 32
0.0
 13
1.0
 23
0.0
 33
0.0
 40
0.0
 40
0.0
 40
0.0
 40
0.0
 40
0.125
 40
0.125
 40
0.125
 40
0.125
 40
0.25
 40
0.25
 40
0.25
 40
0.25
 40
0.375
 40
0.375
 40
0.375
 40
0.375
 40
0.5
 40
0.5
 40
0.5
 40
0.5
 40
0.625
 40
0.625
 40
0.625
 40
0.625
 40
0.75
 40
0.75
 40
0.75
 40
0.75
 40
1.0
 40
1.0
 40
1.0
 40
1.0
 10
-83.4929
 20
-110.3762
 30
0.0
 10
-83.4929
 20
-110.3762
 30
0.0
 10
-70.0718
 20
-110.4457
 30
0.0
 10
-70.0718
 20
-110.4457
 30
0.0
 10
-70.0718
 20
-110.4457
 30
0.0
 10
-68.9131
 20
-110.3904
 30
0.0
 10
-67.9971
 20
-109.7812
 30
0.0
 10
-68.1015
 20
-108.5306
 30
0.0
 10
-68.1015
 20
-108.5306
 30
0.0
 10
-68.1015
 20
-108.5306
 30
0.0
 10
-68.1385
 20
-94.4254
 30
0.0
 10
-68.1385
 20
-94.4254
 30
0.0
 10
-68.1385
 20
-94.4254
 30
0.0
 10
-68.164
 20
-92.9128
 30
0.0
 10
-69.9189
 20
-92.6934
 30
0.0
 10
-70.843
 20
-93.4324
 30
0.0
 10
-70.843
 20
-93.4324
 30
0.0
 10
-70.843
 20
-93.4324
 30
0.0
 10
-84.3533
 20
-107.3845
 30
0.0
 10
-84.3533
 20
-107.3845
 30
0.0
 10
-84.3533
 20
-107.3845
 30
0.0
 10
-85.2251
 20
-108.2623
 30
0.0
 10
-85.1376
 20
-110.1828
 30
0.0
 10
-83.4929
 20
-110.3763
 30
0.0
 10
-83.4929
 20
-110.3763
 30
0.0
 10
-83.4929
 20
-110.3763
 30
0.0
 10
-83.4929
 20
-110.3762
 30
0.0
 10
-83.4929
 20
-110.3762
 30
0.0
  0
SPLINE
  5
BE
330
1F
100
AcDbEntity
  8
layer 1
 62
     7
100
AcDbSpline
210
0.0
220
0.0
230
1.0
 70
     8
 71
     3
 72
    36
 73
    32
 74
     0
 42
0.0000000001
 43
0.0000000001
 12
1.0
 22
0.0
 32
0.0
 13
1.0
 23
0.0
 33
0.0
 40
0.0
 40
0.0
 40
0.0
 40
0.0
 40
0.1111111111111111
 40
0.1111111111111111
 40
0.1111111111111111
 40
0.1111111111111111
 40
0.2222222222222222
 40
0.2222222222222222
 40
0.2222222222222222
 40
0.2222222222222222
 40
0.3333333333333333
 40
0.3333333333333333
 40
0.3333333333333333
 40
0.3333333333333333
 40
0.4444444444444444
 40
0.4444444444444444
 40
0.4444444444444444
 40
0.4444444444444444
 40
0.5555555555555556
 40
0.5555555555555556
 40
0.5555555555555556
 40
0.5555555555555556
 40
0.6666666666666666
 40
0.6666666666666666
 40
0.6666666666666666
 40
0.6666666666666666
 40
0.7777777777777778
 40
0.7777777777777778
 40
0.7777777777777778
 40
0.7777777777777778
 40
1.0
 40
1.0
 40
1.0
 40
1.0
 10
-85.2418
 20
-79.5683
 30
0.0
 10
-85.2418
 20
-79.5683
 30
0.0
 10
-82.2174
 20
-82.5927
 30
0.0
 10
-82.2174
 20
-82.5927
 30
0.0
 10
-82.2174
 20
-82.5927
 30
0.0
 10
-81.5523
 20
-83.2577
 30
0.0
 10
-81.5523
 20
-84.3364
 30
0.0
 10
-82.2174
 20
-85.0014
 30
0.0
 10
-82.2174
 20
-85.0014
 30
0.0
 10
-82.2174
 20
-85.0014
 30
0.0
 10
-85.2418
 20
-88.0258
 30
0.0
 10
-85.2418
 20
-88.0258
 30
0.0
 10
-85.2418
 20
-88.0258
 30
0.0
 10
-85.9068
 20
-88.6909
 30
0.0
 10
-86.9855
 20
-88.6909
 30
0.0
 10
-87.6505
 20
-88.0258
 30
0.0
 10
-87.6505
 20
-88.0258
 30
0.0
 10
-87.6505
 20
-88.0258
 30
0.0
 10
-90.6748
 20
-85.0014
 30
0.0
 10
-90.6748
 20
-85.0014
 30
0.0
 10
-90.6748
 20
-85.0014
 30
0.0
 10
-91.3399
 20
-84.3364
 30
0.0
 10
-91.3399
 20
-83.2578
 30
0.0
 10
-90.6748
 20
-82.5927
 30
0.0
 10
-90.6748
 20
-82.5927
 30
0.0
 10
-90.6748
 20
-82.5927
 30
0.0
 10
-87.6505
 20
-79.5683
 30
0.0
 10
-87.6505
 20
-79.5683
 30
0.0
 10
-87.6505
 20
-79.5683
 30
0.0
 10
-86.9854
 20
-78.9032
 30
0.0
 10
-85.9068
 20
-78.9032
 30
0.0
 10
-85.2417
 20
-79.5683
 30
0.0
  0
SPLINE
  5
BF
330
1F
100
AcDbEntity
  8
layer 1
 62
     7
100
AcDbSpline
210
0.0
220
0.0
230
1.0
 70
    11
 71
     3
 72
    36
 73
    32
 74
     0
 42
0.0000000001
 43
0.0000000001
 12
1.0
 22
0.0
 32
0.0
 13
1.0
 23
0.0
 33
0.0
 40
0.0
 40
0.0
 40
0.0
 40
0.0
 40
0.1111111111111111
 40
0.1111111111111111
 40
0.1111111111111111
 40
0.1111111111111111
 40
0.2222222222222222
 40
0.2222222222222222
 40
0.2222222222222222
 40
0.2222222222222222
 40
0.3333333333333333
 40
0.3333333333333333
 40
0.3333333333333333
 40
0.3333333333333333
 40
0.4444444444444444
 40
0.4444444444444444
 40
0.4444444444444444
 40
0.4444444444444444
 40
0.5555555555555556
 40
0.5555555555555556
 40
0.5555555555555556
 40
0.5555555555555556
 40
0.6666666666666666
 40
0.6666666666666666
 40
0.6666666666666666
 40
0.6666666666666666
 40
0.7777777777777778
 40
0.7777777777777778
 40
0.7777777777777778
 40
0.7777777777777778
 40
1.0
 40
1.0
 40
1.0
 40
1.0
 10
-85.2418
 20
-95.1628
 30
0.0
 10
-85.2418
 20
-95.1628
 30
0.0
 10
-82.2174
 20
-98.1872
 30
0.0
 10
-82.2174
 20
-98.1872
 30
0.0
 10
-82.2174
 20
-98.1872
 30
0.0
 10
-81.5523
 20
-98.8523
 30
0.0
 10
-81.5523
 20
-99.9309
 30
0.0
 10
-82.2174
 20
-100.596
 30
0.0
 10
-82.2174
 20
-100.596
 30
0.0
 10
-82.2174
 20
-100.596
 30
0.0
 10
-85.2418
 20
-103.6203
 30
0.0
 10
-85.2418
 20
-103.6203
 30
0.0
 10
-85.2418
 20
-103.6203
 30
0.0
 10
-85.9068
 20
-104.2854
 30
0.0
 10
-86.9854
 20
-104.2854
 30
0.0
 10
-87.6505
 20
-103.6203
 30
0.0
 10
-87.6505
 20
-103.6203
 30
0.0
 10
-87.6505
 20
-103.6203
 30
0.0
 10
-90.6748
 20
-100.596
 30
0.0
 10
-90.6748
 20
-100.596
 30
0.0
 10
-90.6748
 20
-100.596
 30
0.0
 10
-91.3399
 20
-99.9309
 30
0.0
 10
-91.3399
 20
-98.8523
 30
0.0
 10
-90.6748
 20
-98.1872
 30
0.0
 10
-90.6748
 20
-98.1872
 30
0.0
 10
-90.6748
 20
-98.1872
 30
0.0
 10
-87.6505
 20
-95.1628
 30
0.0
 10
-87.6505
 20
-95.1628
 30
0.0
 10
-87.6505
 20
-95.1628
 30
0.0
 10
-86.9855
 20
-94.4978
 30
0.0
 10
-85.9068
 20
-94.4978
 30
0.0
 10
-85.2418
 20
-95.1628
 30
0.0
  0
SPLINE
  5
C0
330
1F
100
AcDbEntity
  8
layer 1
 62
     7
100
AcDbSpline
210
0.0
220
0.0
230
1.0
 70
    11
 71
     3
 72
    36
 73
    32
 74
     0
 42
0.0000000001
 43
0.0000000001
 12
1.0
 22
0.0
 32
0.0
 13
1.0
 23
0.0
 33
0.0
 40
0.0
 40
0.0
 40
0.0
 40
0.0
 40
0.1111111111111111
 40
0.1111111111111111
 40
0.1111111111111111
 40
0.1111111111111111
 40
0.2222222222222222
 40
0.2222222222222222
 40
0.2222222222222222
 40
0.2222222222222222
 40
0.3333333333333333
 40
0.3333333333333333
 40
0.3333333333333333
 40
0.3333333333333333
 40
0.4444444444444444
 40
0.4444444444444444
 40
0.4444444444444444
 40
0.4444444444444444
 40
0.5555555555555556
 40
0.5555555555555556
 40
0.5555555555555556
 40
0.5555555555555556
 40
0.6666666666666666
 40
0.6666666666666666
 40
0.6666666666666666
 40
0.6666666666666666
 40
0.7777777777777778
 40
0.7777777777777778
 40
0.7777777777777778
 40
0.7777777777777778
 40
1.0
 40
1.0
 40
1.0
 40
1.0
 10
-92.8123
 20
-87.3656
 30
0.0
 10
-92.8123
 20
-87.3656
 30
0.0
 10
-89.788
 20
-90.3899
 30
0.0
 10
-89.788
 20
-90.3899
 30
0.0
 10
-89.788
 20
-90.3899
 30
0.0
 10
-89.1229
 20
-91.055
 30
0.0
 10
-89.1229
 20
-92.1336
 30
0.0
 10
-89.788
 20
-92.7987
 30
0.0
 10
-89.788
 20
-92.7987
 30
0.0
 10
-89.788
 20
-92.7987
 30
0.0
 10
-92.8123
 20
-95.8231
 30
0.0
 10
-92.8123
 20
-95.8231
 30
0.0
 10
-92.8123
 20
-95.8231
 30
0.0
 10
-93.4774
 20
-96.4881
 30
0.0
 10
-94.556
 20
-96.4881
 30
0.0
 10
-95.2211
 20
-95.8231
 30
0.0
 10
-95.2211
 20
-95.8231
 30
0.0
 10
-95.2211
 20
-95.8231
 30
0.0
 10
-98.2454
 20
-92.7987
 30
0.0
 10
-98.2454
 20
-92.7987
 30
0.0
 10
-98.2454
 20
-92.7987
 30
0.0
 10
-98.9105
 20
-92.1337
 30
0.0
 10
-98.9105
 20
-91.055
 30
0.0
 10
-98.2454
 20
-90.39
 30
0.0
 10
-98.2454
 20
-90.39
 30
0.0
 10
-98.2454
 20
-90.39
 30
0.0
 10
-95.2211
 20
-87.3656
 30
0.0
 10
-95.2211
 20
-87.3656
 30
0.0
 10
-95.2211
 20
-87.3656
 30
0.0
 10
-94.556
 20
-86.7005
 30
0.0
 10
-93.4774
 20
-86.7005
 30
0.0
 10
-92.8123
 20
-87.3656
 30
0.0
  0
SPLINE
  5
C1
330
1F
100
AcDbEntity
  8
layer 1
 62
     7
100
AcDbSpline
210
0.0
220
0.0
230
1.0
 70
    11
 71
     3
 72
    36
 73
    32
 74
     0
 42
0.0000000001
 43
0.0000000001
 12
1.0
 22
0.0
 32
0.0
 13
1.0
 23
0.0
 33
0.0
 40
0.0
 40
0.0
 40
0.0
 40
0.0
 40
0.1111111111111111
 40
0.1111111111111111
 40
0.1111111111111111
 40
0.1111111111111111
 40
0.2222222222222222
 40
0.2222222222222222
 40
0.2222222222222222
 40
0.2222222222222222
 40
0.3333333333333333
 40
0.3333333333333333
 40
0.3333333333333333
 40
0.3333333333333333
 40
0.4444444444444444
 40
0.4444444444444444
 40
0.4444444444444444
 40
0.4444444444444444
 40
0.5555555555555556
 40
0.5555555555555556
 40
0.5555555555555556
 40
0.5555555555555556
 40
0.6666666666666666
 40
0.6666666666666666
 40
0.6666666666666666
 40
0.6666666666666666
 40
0.7777777777777778
 40
0.7777777777777778
 40
0.7777777777777778
 40
0.7777777777777778
 40
1.0
 40
1.0
 40
1.0
 40
1.0
 10
-77.6258
 20
-87.3656
 30
0.0
 10
-77.6258
 20
-87.3656
 30
0.0
 10
-74.6014
 20
-90.3899
 30
0.0
 10
-74.6014
 20
-90.3899
 30
0.0
 10
-74.6014
 20
-90.3899
 30
0.0
 10
-73.9364
 20
-91.055
 30
0.0
 10
-73.9364
 20
-92.1336
 30
0.0
 10
-74.6014
 20
-92.7987
 30
0.0
 10
-74.6014
 20
-92.7987
 30
0.0
 10
-74.6014
 20
-92.7987
 30
0.0
 10
-77.6258
 20
-95.8231
 30
0.0
 10
-77.6258
 20
-95.8231
 30
0.0
 10
-77.6258
 20
-95.8231
 30
0.0
 10
-78.2908
 20
-96.4881
 30
0.0
 10
-79.3695
 20
-96.4881
 30
0.0
 10
-80.0345
 20
-95.823
 30
0.0
 10
-80.0345
 20
-95.823
 30
0.0
 10
-80.0345
 20
-95.823
 30
0.0
 10
-83.059
 20
-92.7987
 30
0.0
 10
-83.059
 20
-92.7987
 30
0.0
 10
-83.059
 20
-92.7987
 30
0.0
 10
-83.7239
 20
-92.1336
 30
0.0
 10
-83.7239
 20
-91.055
 30
0.0
 10
-83.0589
 20
-90.3899
 30
0.0
 10
-83.0589
 20
-90.3899
 30
0.0
 10
-83.0589
 20
-90.3899
 30
0.0
 10
-80.0346
 20
-87.3656
 30
0.0
 10
-80.0346
 20
-87.3656
 30
0.0
 10
-80.0346
 20
-87.3656
 30
0.0
 10
-79.3695
 20
-86.7005
 30
0.0
 10
-78.2908
 20
-86.7005
 30
0.0
 10
-77.6258
 20
-87.3656
 30
0.0
  0
SPLINE
  5
C2
330
1F
100
AcDbEntity
  8
layer 1
 62
     7
100
AcDbSpline
210
0.0
220
0.0
230
1.0
 70
     8
 71
     3
 72
    36
 73
    32
 74
     0
 42
0.0000000001
 43
0.0000000001
 12
1.0
 22
0.0
 32
0.0
 13
1.0
 23
0.0
 33
0.0
 40
0.0
 40
0.0
 40
0.0
 40
0.0
 40
0.1111111111111111
 40
0.1111111111111111
 40
0.1111111111111111
 40
0.1111111111111111
 40
0.2222222222222222
 40
0.2222222222222222
 40
0.2222222222222222
 40
0.2222222222222222
 40
0.3333333333333333
 40
0.3333333333333333
 40
0.3333333333333333
 40
0.3333333333333333
 40
0.4444444444444444
 40
0.4444444444444444
 40
0.4444444444444444
 40
0.4444444444444444
 40
0.5555555555555556
 40
0.5555555555555556
 40
0.5555555555555556
 40
0.5555555555555556
 40
0.6666666666666666
 40
0.6666666666666666
 40
0.6666666666666666
 40
0.6666666666666666
 40
0.7777777777777778
 40
0.7777777777777778
 40
0.7777777777777778
 40
0.7777777777777778
 40
1.0
 40
1.0
 40
1.0
 40
1.0
 10
-173.9266
 20
-74.4218
 30
0.0
 10
-173.9266
 20
-74.4218
 30
0.0
 10
-173.9266
 20
-81.4254
 30
0.0
 10
-173.9266
 20
-81.4254
 30
0.0
 10
-173.9266
 20
-81.4254
 30
0.0
 10
-173.9265
 20
-82.366
 30
0.0
 10
-174.6892
 20
-83.1287
 30
0.0
 10
-175.6298
 20
-83.1287
 30
0.0
 10
-175.6298
 20
-83.1287
 30
0.0
 10
-175.6298
 20
-83.1287
 30
0.0
 10
-182.6745
 20
-83.1287
 30
0.0
 10
-182.6745
 20
-83.1287
 30
0.0
 10
-182.6745
 20
-83.1287
 30
0.0
 10
-183.6149
 20
-83.1287
 30
0.0
 10
-184.3777
 20
-82.366
 30
0.0
 10
-184.3777
 20
-81.4255
 30
0.0
 10
-184.3777
 20
-81.4255
 30
0.0
 10
-184.3777
 20
-81.4255
 30
0.0
 10
-184.3777
 20
-74.4218
 30
0.0
 10
-184.3777
 20
-74.4218
 30
0.0
 10
-184.3777
 20
-74.4218
 30
0.0
 10
-184.3777
 20
-73.4813
 30
0.0
 10
-183.6149
 20
-72.7186
 30
0.0
 10
-182.6744
 20
-72.7186
 30
0.0
 10
-182.6744
 20
-72.7186
 30
0.0
 10
-182.6744
 20
-72.7186
 30
0.0
 10
-175.6298
 20
-72.7185
 30
0.0
 10
-175.6298
 20
-72.7185
 30
0.0
 10
-175.6298
 20
-72.7185
 30
0.0
 10
-174.6892
 20
-72.7186
 30
0.0
 10
-173.9265
 20
-73.4813
 30
0.0
 10
-173.9265
 20
-74.4218
 30
0.0
  0
SPLINE
  5
C3
330
1F
100
AcDbEntity
  8
layer 1
 62
     7
100
AcDbSpline
210
0.0
220
0.0
230
1.0
 70
     8
 71
     3
 72
    36
 73
    32
 74
     0
 42
0.0000000001
 43
0.0000000001
 12
1.0
 22
0.0
 32
0.0
 13
1.0
 23
0.0
 33
0.0
 40
0.0
 40
0.0
 40
0.0
 40
0.0
 40
0.1111111111111111
 40
0.1111111111111111
 40
0.1111111111111111
 40
0.1111111111111111
 40
0.2222222222222222
 40
0.2222222222222222
 40
0.2222222222222222
 40
0.2222222222222222
 40
0.3333333333333333
 40
0.3333333333333333
 40
0.3333333333333333
 40
0.3333333333333333
 40
0.4444444444444444
 40
0.4444444444444444
 40
0.4444444444444444
 40
0.4444444444444444
 40
0.5555555555555556
 40
0.5555555555555556
 40
0.5555555555555556
 40
0.5555555555555556
 40
0.6666666666666666
 40
0.6666666666666666
 40
0.6666666666666666
 40
0.6666666666666666
 40
0.7777777777777778
 40
0.7777777777777778
 40
0.7777777777777778
 40
0.7777777777777778
 40
1.0
 40
1.0
 40
1.0
 40
1.0
 10
-147.657
 20
-74.4218
 30
0.0
 10
-147.657
 20
-74.4218
 30
0.0
 10
-147.657
 20
-81.4254
 30
0.0
 10
-147.657
 20
-81.4254
 30
0.0
 10
-147.657
 20
-81.4254
 30
0.0
 10
-147.6569
 20
-82.366
 30
0.0
 10
-148.4196
 20
-83.1287
 30
0.0
 10
-149.3602
 20
-83.1287
 30
0.0
 10
-149.3602
 20
-83.1287
 30
0.0
 10
-149.3602
 20
-83.1287
 30
0.0
 10
-156.4049
 20
-83.1287
 30
0.0
 10
-156.4049
 20
-83.1287
 30
0.0
 10
-156.4049
 20
-83.1287
 30
0.0
 10
-157.3454
 20
-83.1287
 30
0.0
 10
-158.1081
 20
-82.366
 30
0.0
 10
-158.1081
 20
-81.4255
 30
0.0
 10
-158.1081
 20
-81.4255
 30
0.0
 10
-158.1081
 20
-81.4255
 30
0.0
 10
-158.1081
 20
-74.4218
 30
0.0
 10
-158.1081
 20
-74.4218
 30
0.0
 10
-158.1081
 20
-74.4218
 30
0.0
 10
-158.1081
 20
-73.4813
 30
0.0
 10
-157.3454
 20
-72.7186
 30
0.0
 10
-156.4048
 20
-72.7186
 30
0.0
 10
-156.4048
 20
-72.7186
 30
0.0
 10
-156.4048
 20
-72.7186
 30
0.0
 10
-149.3602
 20
-72.7185
 30
0.0
 10
-149.3602
 20
-72.7185
 30
0.0
 10
-149.3602
 20
-72.7185
 30
0.0
 10
-148.4196
 20
-72.7186
 30
0.0
 10
-147.6569
 20
-73.4813
 30
0.0
 10
-147.6569
 20
-74.4218
 30
0.0
  0
SPLINE
  5
C4
330
1F
100
AcDbEntity
  8
layer 1
 62
     7
100
AcDbSpline
210
0.0
220
0.0
230
1.0
 70
    11
 71
     3
 72
    48
 73
    44
 74
     0
 42
0.0000000001
 43
0.0000000001
 12
1.0
 22
0.0
 32
0.0
 13
1.0
 23
0.0
 33
0.0
 40
0.0
 40
0.0
 40
0.0
 40
0.0
 40
0.0833333333333333
 40
0.0833333333333333
 40
0.0833333333333333
 40
0.0833333333333333
 40
0.1666666666666667
 40
0.1666666666666667
 40
0.1666666666666667
 40
0.1666666666666667
 40
0.25
 40
0.25
 40
0.25
 40
0.25
 40
0.3333333333333333
 40
0.3333333333333333
 40
0.3333333333333333
 40
0.3333333333333333
 40
0.4166666666666667
 40
0.4166666666666667
 40
0.4166666666666667
 40
0.4166666666666667
 40
0.5
 40
0.5
 40
0.5
 40
0.5
 40
0.5833333333333334
 40
0.5833333333333334
 40
0.5833333333333334
 40
0.5833333333333334
 40
0.6666666666666666
 40
0.6666666666666666
 40
0.6666666666666666
 40
0.6666666666666666
 40
0.75
 40
0.75
 40
0.75
 40
0.75
 40
0.8333333333333334
 40
0.8333333333333334
 40
0.8333333333333334
 40
0.8333333333333334
 40
1.0
 40
1.0
 40
1.0
 40
1.0
 10
-160.7918
 20
-74.4218
 30
0.0
 10
-160.7918
 20
-74.4218
 30
0.0
 10
-160.7918
 20
-82.5673
 30
0.0
 10
-160.7918
 20
-82.5673
 30
0.0
 10
-160.7918
 20
-82.5673
 30
0.0
 10
-160.7918
 20
-83.3682
 30
0.0
 10
-161.1233
 20
-84.3437
 30
0.0
 10
-161.6672
 20
-84.8575
 30
0.0
 10
-161.6672
 20
-84.8575
 30
0.0
 10
-161.6672
 20
-84.8575
 30
0.0
 10
-163.9567
 20
-87.6756
 30
0.0
 10
-165.0933
 20
-88.3528
 30
0.0
 10
-165.0933
 20
-88.3528
 30
0.0
 10
-165.6588
 20
-88.8588
 30
0.0
 10
-166.6243
 20
-88.7446
 30
0.0
 10
-167.0916
 20
-88.3528
 30
0.0
 10
-167.0916
 20
-88.3528
 30
0.0
 10
-168.1583
 20
-87.6471
 30
0.0
 10
-170.6531
 20
-84.8701
 30
0.0
 10
-170.6531
 20
-84.8701
 30
0.0
 10
-170.6531
 20
-84.8701
 30
0.0
 10
-171.1649
 20
-84.1729
 30
0.0
 10
-171.243
 20
-83.5109
 30
0.0
 10
-171.243
 20
-82.5673
 30
0.0
 10
-171.243
 20
-82.5673
 30
0.0
 10
-171.243
 20
-82.5673
 30
0.0
 10
-171.243
 20
-74.4218
 30
0.0
 10
-171.243
 20
-74.4218
 30
0.0
 10
-171.243
 20
-74.4218
 30
0.0
 10
-171.243
 20
-73.4783
 30
0.0
 10
-170.4834
 20
-72.7186
 30
0.0
 10
-169.5398
 20
-72.7186
 30
0.0
 10
-169.5398
 20
-72.7186
 30
0.0
 10
-169.5398
 20
-72.7186
 30
0.0
 10
-162.4951
 20
-72.7186
 30
0.0
 10
-162.4951
 20
-72.7186
 30
0.0
 10
-162.4951
 20
-72.7186
 30
0.0
 10
-161.5515
 20
-72.7186
 30
0.0
 10
-160.7919
 20
-73.4783
 30
0.0
 10
-160.7919
 20
-74.4218
 30
0.0
 10
-160.7919
 20
-74.4218
 30
0.0
 10
-160.7919
 20
-74.4218
 30
0.0
 10
-160.7918
 20
-74.4218
 30
0.0
 10
-160.7918
 20
-74.4218
 30
0.0
  0
SPLINE
  5
C5
330
1F
100
AcDbEntity
  8
layer 1
 62
     7
100
AcDbSpline
210
0.0
220
0.0
230
1.0
 70
     8
 71
     3
 72
    36
 73
    32
 74
     0
 42
0.0000000001
 43
0.0000000001
 12
1.0
 22
0.0
 32
0.0
 13
1.0
 23
0.0
 33
0.0
 40
0.0
 40
0.0
 40
0.0
 40
0.0
 40
0.1111111111111111
 40
0.1111111111111111
 40
0.1111111111111111
 40
0.1111111111111111
 40
0.2222222222222222
 40
0.2222222222222222
 40
0.2222222222222222
 40
0.2222222222222222
 40
0.3333333333333333
 40
0.3333333333333333
 40
0.3333333333333333
 40
0.3333333333333333
 40
0.4444444444444444
 40
0.4444444444444444
 40
0.4444444444444444
 40
0.4444444444444444
 40
0.5555555555555556
 40
0.5555555555555556
 40
0.5555555555555556
 40
0.5555555555555556
 40
0.6666666666666666
 40
0.6666666666666666
 40
0.6666666666666666
 40
0.6666666666666666
 40
0.7777777777777778
 40
0.7777777777777778
 40
0.7777777777777778
 40
0.7777777777777778
 40
1.0
 40
1.0
 40
1.0
 40
1.0
 10
-173.9266
 20
-108.7244
 30
0.0
 10
-173.9266
 20
-108.7244
 30
0.0
 10
-173.9266
 20
-101.7208
 30
0.0
 10
-173.9266
 20
-101.7208
 30
0.0
 10
-173.9266
 20
-101.7208
 30
0.0
 10
-173.9265
 20
-100.7801
 30
0.0
 10
-174.6892
 20
-100.0174
 30
0.0
 10
-175.6298
 20
-100.0174
 30
0.0
 10
-175.6298
 20
-100.0174
 30
0.0
 10
-175.6298
 20
-100.0174
 30
0.0
 10
-182.6745
 20
-100.0175
 30
0.0
 10
-182.6745
 20
-100.0175
 30
0.0
 10
-182.6745
 20
-100.0175
 30
0.0
 10
-183.6149
 20
-100.0174
 30
0.0
 10
-184.3777
 20
-100.7801
 30
0.0
 10
-184.3777
 20
-101.7207
 30
0.0
 10
-184.3777
 20
-101.7207
 30
0.0
 10
-184.3777
 20
-101.7207
 30
0.0
 10
-184.3777
 20
-108.7244
 30
0.0
 10
-184.3777
 20
-108.7244
 30
0.0
 10
-184.3777
 20
-108.7244
 30
0.0
 10
-184.3777
 20
-109.6648
 30
0.0
 10
-183.6149
 20
-110.4276
 30
0.0
 10
-182.6744
 20
-110.4276
 30
0.0
 10
-182.6744
 20
-110.4276
 30
0.0
 10
-182.6744
 20
-110.4276
 30
0.0
 10
-175.6298
 20
-110.4276
 30
0.0
 10
-175.6298
 20
-110.4276
 30
0.0
 10
-175.6298
 20
-110.4276
 30
0.0
 10
-174.6892
 20
-110.4276
 30
0.0
 10
-173.9265
 20
-109.6648
 30
0.0
 10
-173.9265
 20
-108.7243
 30
0.0
  0
SPLINE
  5
C6
330
1F
100
AcDbEntity
  8
layer 1
 62
     7
100
AcDbSpline
210
0.0
220
0.0
230
1.0
 70
     8
 71
     3
 72
    36
 73
    32
 74
     0
 42
0.0000000001
 43
0.0000000001
 12
1.0
 22
0.0
 32
0.0
 13
1.0
 23
0.0
 33
0.0
 40
0.0
 40
0.0
 40
0.0
 40
0.0
 40
0.1111111111111111
 40
0.1111111111111111
 40
0.1111111111111111
 40
0.1111111111111111
 40
0.2222222222222222
 40
0.2222222222222222
 40
0.2222222222222222
 40
0.2222222222222222
 40
0.3333333333333333
 40
0.3333333333333333
 40
0.3333333333333333
 40
0.3333333333333333
 40
0.4444444444444444
 40
0.4444444444444444
 40
0.4444444444444444
 40
0.4444444444444444
 40
0.5555555555555556
 40
0.5555555555555556
 40
0.5555555555555556
 40
0.5555555555555556
 40
0.6666666666666666
 40
0.6666666666666666
 40
0.6666666666666666
 40
0.6666666666666666
 40
0.7777777777777778
 40
0.7777777777777778
 40
0.7777777777777778
 40
0.7777777777777778
 40
1.0
 40
1.0
 40
1.0
 40
1.0
 10
-147.657
 20
-108.7244
 30
0.0
 10
-147.657
 20
-108.7244
 30
0.0
 10
-147.657
 20
-101.7208
 30
0.0
 10
-147.657
 20
-101.7208
 30
0.0
 10
-147.657
 20
-101.7208
 30
0.0
 10
-147.6569
 20
-100.7801
 30
0.0
 10
-148.4196
 20
-100.0174
 30
0.0
 10
-149.3602
 20
-100.0174
 30
0.0
 10
-149.3602
 20
-100.0174
 30
0.0
 10
-149.3602
 20
-100.0174
 30
0.0
 10
-156.4049
 20
-100.0175
 30
0.0
 10
-156.4049
 20
-100.0175
 30
0.0
 10
-156.4049
 20
-100.0175
 30
0.0
 10
-157.3454
 20
-100.0174
 30
0.0
 10
-158.1081
 20
-100.7801
 30
0.0
 10
-158.1081
 20
-101.7207
 30
0.0
 10
-158.1081
 20
-101.7207
 30
0.0
 10
-158.1081
 20
-101.7207
 30
0.0
 10
-158.1081
 20
-108.7244
 30
0.0
 10
-158.1081
 20
-108.7244
 30
0.0
 10
-158.1081
 20
-108.7244
 30
0.0
 10
-158.1081
 20
-109.6648
 30
0.0
 10
-157.3454
 20
-110.4276
 30
0.0
 10
-156.4048
 20
-110.4276
 30
0.0
 10
-156.4048
 20
-110.4276
 30
0.0
 10
-156.4048
 20
-110.4276
 30
0.0
 10
-149.3602
 20
-110.4276
 30
0.0
 10
-149.3602
 20
-110.4276
 30
0.0
 10
-149.3602
 20
-110.4276
 30
0.0
 10
-148.4196
 20
-110.4276
 30
0.0
 10
-147.6569
 20
-109.6648
 30
0.0
 10
-147.6569
 20
-108.7243
 30
0.0
  0
SPLINE
  5
C7
330
1F
100
AcDbEntity
  8
layer 1
 62
     7
100
AcDbSpline
210
0.0
220
0.0
230
1.0
 70
    11
 71
     3
 72
    48
 73
    44
 74
     0
 42
0.0000000001
 43
0.0000000001
 12
1.0
 22
0.0
 32
0.0
 13
1.0
 23
0.0
 33
0.0
 40
0.0
 40
0.0
 40
0.0
 40
0.0
 40
0.0833333333333333
 40
0.0833333333333333
 40
0.0833333333333333
 40
0.0833333333333333
 40
0.1666666666666667
 40
0.1666666666666667
 40
0.1666666666666667
 40
0.1666666666666667
 40
0.25
 40
0.25
 40
0.25
 40
0.25
 40
0.3333333333333333
 40
0.3333333333333333
 40
0.3333333333333333
 40
0.3333333333333333
 40
0.4166666666666667
 40
0.4166666666666667
 40
0.4166666666666667
 40
0.4166666666666667
 40
0.5
 40
0.5
 40
0.5
 40
0.5
 40
0.5833333333333334
 40
0.5833333333333334
 40
0.5833333333333334
 40
0.5833333333333334
 40
0.6666666666666666
 40
0.6666666666666666
 40
0.6666666666666666
 40
0.6666666666666666
 40
0.75
 40
0.75
 40
0.75
 40
0.75
 40
0.8333333333333334
 40
0.8333333333333334
 40
0.8333333333333334
 40
0.8333333333333334
 40
1.0
 40
1.0
 40
1.0
 40
1.0
 10
-160.7918
 20
-108.7244
 30
0.0
 10
-160.7918
 20
-108.7244
 30
0.0
 10
-160.7918
 20
-100.5789
 30
0.0
 10
-160.7918
 20
-100.5789
 30
0.0
 10
-160.7918
 20
-100.5789
 30
0.0
 10
-160.7918
 20
-99.778
 30
0.0
 10
-161.1233
 20
-98.8025
 30
0.0
 10
-161.6672
 20
-98.2887
 30
0.0
 10
-161.6672
 20
-98.2887
 30
0.0
 10
-161.6672
 20
-98.2887
 30
0.0
 10
-163.9567
 20
-95.4706
 30
0.0
 10
-165.0933
 20
-94.7934
 30
0.0
 10
-165.0933
 20
-94.7934
 30
0.0
 10
-165.6588
 20
-94.2874
 30
0.0
 10
-166.6243
 20
-94.4017
 30
0.0
 10
-167.0916
 20
-94.7934
 30
0.0
 10
-167.0916
 20
-94.7934
 30
0.0
 10
-168.1583
 20
-95.4992
 30
0.0
 10
-170.6531
 20
-98.2761
 30
0.0
 10
-170.6531
 20
-98.2761
 30
0.0
 10
-170.6531
 20
-98.2761
 30
0.0
 10
-171.1649
 20
-98.9733
 30
0.0
 10
-171.243
 20
-99.6353
 30
0.0
 10
-171.243
 20
-100.5789
 30
0.0
 10
-171.243
 20
-100.5789
 30
0.0
 10
-171.243
 20
-100.5789
 30
0.0
 10
-171.243
 20
-108.7244
 30
0.0
 10
-171.243
 20
-108.7244
 30
0.0
 10
-171.243
 20
-108.7244
 30
0.0
 10
-171.243
 20
-109.668
 30
0.0
 10
-170.4834
 20
-110.4276
 30
0.0
 10
-169.5398
 20
-110.4276
 30
0.0
 10
-169.5398
 20
-110.4276
 30
0.0
 10
-169.5398
 20
-110.4276
 30
0.0
 10
-162.4951
 20
-110.4276
 30
0.0
 10
-162.4951
 20
-110.4276
 30
0.0
 10
-162.4951
 20
-110.4276
 30
0.0
 10
-161.5515
 20
-110.4276
 30
0.0
 10
-160.7919
 20
-109.668
 30
0.0
 10
-160.7919
 20
-108.7244
 30
0.0
 10
-160.7919
 20
-108.7244
 30
0.0
 10
-160.7919
 20
-108.7244
 30
0.0
 10
-160.7918
 20
-108.7244
 30
0.0
 10
-160.7918
 20
-108.7244
 30
0.0
  0
SPLINE
  5
C8
330
1F
100
AcDbEntity
  8
layer 1
 62
     7
100
AcDbSpline
210
0.0
220
0.0
230
1.0
 70
    11
 71
     3
 72
    48
 73
    44
 74
     0
 42
0.0000000001
 43
0.0000000001
 12
1.0
 22
0.0
 32
0.0
 13
1.0
 23
0.0
 33
0.0
 40
0.0
 40
0.0
 40
0.0
 40
0.0
 40
0.0833333333333333
 40
0.0833333333333333
 40
0.0833333333333333
 40
0.0833333333333333
 40
0.1666666666666667
 40
0.1666666666666667
 40
0.1666666666666667
 40
0.1666666666666667
 40
0.25
 40
0.25
 40
0.25
 40
0.25
 40
0.3333333333333333
 40
0.3333333333333333
 40
0.3333333333333333
 40
0.3333333333333333
 40
0.4166666666666667
 40
0.4166666666666667
 40
0.4166666666666667
 40
0.4166666666666667
 40
0.5
 40
0.5
 40
0.5
 40
0.5
 40
0.5833333333333334
 40
0.5833333333333334
 40
0.5833333333333334
 40
0.5833333333333334
 40
0.6666666666666666
 40
0.6666666666666666
 40
0.6666666666666666
 40
0.6666666666666666
 40
0.75
 40
0.75
 40
0.75
 40
0.75
 40
0.8333333333333334
 40
0.8333333333333334
 40
0.8333333333333334
 40
0.8333333333333334
 40
1.0
 40
1.0
 40
1.0
 40
1.0
 10
-182.6745
 20
-96.7782
 30
0.0
 10
-182.6745
 20
-96.7782
 30
0.0
 10
-174.529
 20
-96.7782
 30
0.0
 10
-174.529
 20
-96.7782
 30
0.0
 10
-174.529
 20
-96.7782
 30
0.0
 10
-173.7281
 20
-96.7782
 30
0.0
 10
-172.7527
 20
-96.4467
 30
0.0
 10
-172.2388
 20
-95.9027
 30
0.0
 10
-172.2388
 20
-95.9027
 30
0.0
 10
-172.2388
 20
-95.9027
 30
0.0
 10
-169.4207
 20
-93.6132
 30
0.0
 10
-168.7435
 20
-92.4767
 30
0.0
 10
-168.7435
 20
-92.4767
 30
0.0
 10
-168.2375
 20
-91.9111
 30
0.0
 10
-168.3518
 20
-90.9457
 30
0.0
 10
-168.7435
 20
-90.4784
 30
0.0
 10
-168.7435
 20
-90.4784
 30
0.0
 10
-169.4493
 20
-89.4116
 30
0.0
 10
-172.2262
 20
-86.9168
 30
0.0
 10
-172.2262
 20
-86.9168
 30
0.0
 10
-172.2262
 20
-86.9168
 30
0.0
 10
-172.9234
 20
-86.4051
 30
0.0
 10
-173.5854
 20
-86.3269
 30
0.0
 10
-174.529
 20
-86.3269
 30
0.0
 10
-174.529
 20
-86.3269
 30
0.0
 10
-174.529
 20
-86.3269
 30
0.0
 10
-182.6745
 20
-86.3269
 30
0.0
 10
-182.6745
 20
-86.3269
 30
0.0
 10
-182.6745
 20
-86.3269
 30
0.0
 10
-183.6181
 20
-86.3269
 30
0.0
 10
-184.3777
 20
-87.0866
 30
0.0
 10
-184.3777
 20
-88.0302
 30
0.0
 10
-184.3777
 20
-88.0302
 30
0.0
 10
-184.3777
 20
-88.0302
 30
0.0
 10
-184.3777
 20
-95.0748
 30
0.0
 10
-184.3777
 20
-95.0748
 30
0.0
 10
-184.3777
 20
-95.0748
 30
0.0
 10
-184.3777
 20
-96.0184
 30
0.0
 10
-183.6181
 20
-96.7781
 30
0.0
 10
-182.6745
 20
-96.7781
 30
0.0
 10
-182.6745
 20
-96.7781
 30
0.0
 10
-182.6745
 20
-96.7781
 30
0.0
 10
-182.6745
 20
-96.7782
 30
0.0
 10
-182.6745
 20
-96.7782
 30
0.0
  0
SPLINE
  5
C9
330
1F
100
AcDbEntity
  8
layer 1
 62
     7
100
AcDbSpline
210
0.0
220
0.0
230
1.0
 70
    11
 71
     3
 72
    48
 73
    44
 74
     0
 42
0.0000000001
 43
0.0000000001
 12
1.0
 22
0.0
 32
0.0
 13
1.0
 23
0.0
 33
0.0
 40
0.0
 40
0.0
 40
0.0
 40
0.0
 40
0.0833333333333333
 40
0.0833333333333333
 40
0.0833333333333333
 40
0.0833333333333333
 40
0.1666666666666667
 40
0.1666666666666667
 40
0.1666666666666667
 40
0.1666666666666667
 40
0.25
 40
0.25
 40
0.25
 40
0.25
 40
0.3333333333333333
 40
0.3333333333333333
 40
0.3333333333333333
 40
0.3333333333333333
 40
0.4166666666666667
 40
0.4166666666666667
 40
0.4166666666666667
 40
0.4166666666666667
 40
0.5
 40
0.5
 40
0.5
 40
0.5
 40
0.5833333333333334
 40
0.5833333333333334
 40
0.5833333333333334
 40
0.5833333333333334
 40
0.6666666666666666
 40
0.6666666666666666
 40
0.6666666666666666
 40
0.6666666666666666
 40
0.75
 40
0.75
 40
0.75
 40
0.75
 40
0.8333333333333334
 40
0.8333333333333334
 40
0.8333333333333334
 40
0.8333333333333334
 40
1.0
 40
1.0
 40
1.0
 40
1.0
 10
-149.3983
 20
-96.7782
 30
0.0
 10
-149.3983
 20
-96.7782
 30
0.0
 10
-157.5438
 20
-96.7782
 30
0.0
 10
-157.5438
 20
-96.7782
 30
0.0
 10
-157.5438
 20
-96.7782
 30
0.0
 10
-158.3447
 20
-96.7782
 30
0.0
 10
-159.3202
 20
-96.4467
 30
0.0
 10
-159.834
 20
-95.9027
 30
0.0
 10
-159.834
 20
-95.9027
 30
0.0
 10
-159.834
 20
-95.9027
 30
0.0
 10
-162.6521
 20
-93.6132
 30
0.0
 10
-163.3293
 20
-92.4767
 30
0.0
 10
-163.3293
 20
-92.4767
 30
0.0
 10
-163.8353
 20
-91.9111
 30
0.0
 10
-163.721
 20
-90.9457
 30
0.0
 10
-163.3293
 20
-90.4784
 30
0.0
 10
-163.3293
 20
-90.4784
 30
0.0
 10
-162.6235
 20
-89.4116
 30
0.0
 10
-159.8466
 20
-86.9168
 30
0.0
 10
-159.8466
 20
-86.9168
 30
0.0
 10
-159.8466
 20
-86.9168
 30
0.0
 10
-159.1494
 20
-86.4051
 30
0.0
 10
-158.4874
 20
-86.3269
 30
0.0
 10
-157.5438
 20
-86.3269
 30
0.0
 10
-157.5438
 20
-86.3269
 30
0.0
 10
-157.5438
 20
-86.3269
 30
0.0
 10
-149.3983
 20
-86.3269
 30
0.0
 10
-149.3983
 20
-86.3269
 30
0.0
 10
-149.3983
 20
-86.3269
 30
0.0
 10
-148.4547
 20
-86.3269
 30
0.0
 10
-147.6951
 20
-87.0866
 30
0.0
 10
-147.6951
 20
-88.0302
 30
0.0
 10
-147.6951
 20
-88.0302
 30
0.0
 10
-147.6951
 20
-88.0302
 30
0.0
 10
-147.6951
 20
-95.0748
 30
0.0
 10
-147.6951
 20
-95.0748
 30
0.0
 10
-147.6951
 20
-95.0748
 30
0.0
 10
-147.6951
 20
-96.0184
 30
0.0
 10
-148.4547
 20
-96.7781
 30
0.0
 10
-149.3983
 20
-96.7781
 30
0.0
 10
-149.3983
 20
-96.7781
 30
0.0
 10
-149.3983
 20
-96.7781
 30
0.0
 10
-149.3983
 20
-96.7782
 30
0.0
 10
-149.3983
 20
-96.7782
 30
0.0
  0
SPLINE
  5
CA
330
1F
100
AcDbEntity
  8
layer 1
 62
     7
100
AcDbSpline
210
0.0
220
0.0
230
1.0
 70
    11
 71
     3
 72
    32
 73
    28
 74
     0
 42
0.0000000001
 43
0.0000000001
 12
1.0
 22
0.0
 32
0.0
 13
1.0
 23
0.0
 33
0.0
 40
0.0
 40
0.0
 40
0.0
 40
0.0
 40
0.125
 40
0.125
 40
0.125
 40
0.125
 40
0.25
 40
0.25
 40
0.25
 40
0.25
 40
0.375
 40
0.375
 40
0.375
 40
0.375
 40
0.5
 40
0.5
 40
0.5
 40
0.5
 40
0.625
 40
0.625
 40
0.625
 40
0.625
 40
0.75
 40
0.75
 40
0.75
 40
0.75
 40
1.0
 40
1.0
 40
1.0
 40
1.0
 10
-129.1614
 20
-72.8281
 30
0.0
 10
-129.1614
 20
-72.8281
 30
0.0
 10
-142.5824
 20
-72.7587
 30
0.0
 10
-142.5824
 20
-72.7587
 30
0.0
 10
-142.5824
 20
-72.7587
 30
0.0
 10
-143.7411
 20
-72.814
 30
0.0
 10
-144.6571
 20
-73.4233
 30
0.0
 10
-144.5527
 20
-74.6738
 30
0.0
 10
-144.5527
 20
-74.6738
 30
0.0
 10
-144.5527
 20
-74.6738
 30
0.0
 10
-144.5157
 20
-88.779
 30
0.0
 10
-144.5157
 20
-88.779
 30
0.0
 10
-144.5157
 20
-88.779
 30
0.0
 10
-144.4902
 20
-90.2916
 30
0.0
 10
-142.7353
 20
-90.511
 30
0.0
 10
-141.8112
 20
-89.772
 30
0.0
 10
-141.8112
 20
-89.772
 30
0.0
 10
-141.8112
 20
-89.772
 30
0.0
 10
-128.3009
 20
-75.82
 30
0.0
 10
-128.3009
 20
-75.82
 30
0.0
 10
-128.3009
 20
-75.82
 30
0.0
 10
-127.4291
 20
-74.9421
 30
0.0
 10
-127.5166
 20
-73.0216
 30
0.0
 10
-129.1613
 20
-72.8281
 30
0.0
 10
-129.1613
 20
-72.8281
 30
0.0
 10
-129.1613
 20
-72.8281
 30
0.0
 10
-129.1614
 20
-72.8281
 30
0.0
 10
-129.1614
 20
-72.8281
 30
0.0
  0
SPLINE
  5
CB
330
1F
100
AcDbEntity
  8
layer 1
 62
     7
100
AcDbSpline
210
0.0
220
0.0
230
1.0
 70
    11
 71
     3
 72
    28
 73
    24
 74
     0
 42
0.0000000001
 43
0.0000000001
 12
1.0
 22
0.0
 32
0.0
 13
1.0
 23
0.0
 33
0.0
 40
0.0
 40
0.0
 40
0.0
 40
0.0
 40
0.1428571428571428
 40
0.1428571428571428
 40
0.1428571428571428
 40
0.1428571428571428
 40
0.2857142857142857
 40
0.2857142857142857
 40
0.2857142857142857
 40
0.2857142857142857
 40
0.4285714285714285
 40
0.4285714285714285
 40
0.4285714285714285
 40
0.4285714285714285
 40
0.5714285714285714
 40
0.5714285714285714
 40
0.5714285714285714
 40
0.5714285714285714
 40
0.7142857142857143
 40
0.7142857142857143
 40
0.7142857142857143
 40
0.7142857142857143
 40
1.0
 40
1.0
 40
1.0
 40
1.0
 10
-123.2788
 20
-72.8281
 30
0.0
 10
-123.2788
 20
-72.8281
 30
0.0
 10
-109.8577
 20
-72.7587
 30
0.0
 10
-109.8577
 20
-72.7587
 30
0.0
 10
-109.8577
 20
-72.7587
 30
0.0
 10
-108.699
 20
-72.814
 30
0.0
 10
-107.7829
 20
-73.4233
 30
0.0
 10
-107.8873
 20
-74.6738
 30
0.0
 10
-107.8873
 20
-74.6738
 30
0.0
 10
-107.8873
 20
-74.6738
 30
0.0
 10
-107.9244
 20
-88.779
 30
0.0
 10
-107.9244
 20
-88.779
 30
0.0
 10
-107.9244
 20
-88.779
 30
0.0
 10
-107.9499
 20
-90.2916
 30
0.0
 10
-109.7048
 20
-90.511
 30
0.0
 10
-110.6289
 20
-89.772
 30
0.0
 10
-110.6289
 20
-89.772
 30
0.0
 10
-110.6289
 20
-89.772
 30
0.0
 10
-124.1391
 20
-75.82
 30
0.0
 10
-124.1391
 20
-75.82
 30
0.0
 10
-124.1391
 20
-75.82
 30
0.0
 10
-125.0109
 20
-74.9421
 30
0.0
 10
-124.9235
 20
-73.0216
 30
0.0
 10
-123.2788
 20
-72.8281
 30
0.0
  0
SPLINE
  5
CC
330
1F
100
AcDbEntity
  8
layer 1
 62
     7
100
AcDbSpline
210
0.0
220
0.0
230
1.0
 70
    11
 71
     3
 72
    32
 73
    28
 74
     0
 42
0.0000000001
 43
0.0000000001
 12
1.0
 22
0.0
 32
0.0
 13
1.0
 23
0.0
 33
0.0
 40
0.0
 40
0.0
 40
0.0
 40
0.0
 40
0.125
 40
0.125
 40
0.125
 40
0.125
 40
0.25
 40
0.25
 40
0.25
 40
0.25
 40
0.375
 40
0.375
 40
0.375
 40
0.375
 40
0.5
 40
0.5
 40
0.5
 40
0.5
 40
0.625
 40
0.625
 40
0.625
 40
0.625
 40
0.75
 40
0.75
 40
0.75
 40
0.75
 40
1.0
 40
1.0
 40
1.0
 40
1.0
 10
-129.1614
 20
-110.3762
 30
0.0
 10
-129.1614
 20
-110.3762
 30
0.0
 10
-142.5824
 20
-110.4456
 30
0.0
 10
-142.5824
 20
-110.4456
 30
0.0
 10
-142.5824
 20
-110.4456
 30
0.0
 10
-143.7411
 20
-110.3903
 30
0.0
 10
-144.6571
 20
-109.7811
 30
0.0
 10
-144.5527
 20
-108.5305
 30
0.0
 10
-144.5527
 20
-108.5305
 30
0.0
 10
-144.5527
 20
-108.5305
 30
0.0
 10
-144.5157
 20
-94.4253
 30
0.0
 10
-144.5157
 20
-94.4253
 30
0.0
 10
-144.5157
 20
-94.4253
 30
0.0
 10
-144.4902
 20
-92.9128
 30
0.0
 10
-142.7353
 20
-92.6933
 30
0.0
 10
-141.8112
 20
-93.4324
 30
0.0
 10
-141.8112
 20
-93.4324
 30
0.0
 10
-141.8112
 20
-93.4324
 30
0.0
 10
-128.3009
 20
-107.3844
 30
0.0
 10
-128.3009
 20
-107.3844
 30
0.0
 10
-128.3009
 20
-107.3844
 30
0.0
 10
-127.4291
 20
-108.2623
 30
0.0
 10
-127.5166
 20
-110.1827
 30
0.0
 10
-129.1613
 20
-110.3762
 30
0.0
 10
-129.1613
 20
-110.3762
 30
0.0
 10
-129.1613
 20
-110.3762
 30
0.0
 10
-129.1614
 20
-110.3762
 30
0.0
 10
-129.1614
 20
-110.3762
 30
0.0
  0
SPLINE
  5
CD
330
1F
100
AcDbEntity
  8
layer 1
 62
     7
100
AcDbSpline
210
0.0
220
0.0
230
1.0
 70
    11
 71
     3
 72
    32
 73
    28
 74
     0
 42
0.0000000001
 43
0.0000000001
 12
1.0
 22
0.0
 32
0.0
 13
1.0
 23
0.0
 33
0.0
 40
0.0
 40
0.0
 40
0.0
 40
0.0
 40
0.125
 40
0.125
 40
0.125
 40
0.125
 40
0.25
 40
0.25
 40
0.25
 40
0.25
 40
0.375
 40
0.375
 40
0.375
 40
0.375
 40
0.5
 40
0.5
 40
0.5
 40
0.5
 40
0.625
 40
0.625
 40
0.625
 40
0.625
 40
0.75
 40
0.75
 40
0.75
 40
0.75
 40
1.0
 40
1.0
 40
1.0
 40
1.0
 10
-123.2788
 20
-110.3762
 30
0.0
 10
-123.2788
 20
-110.3762
 30
0.0
 10
-109.8577
 20
-110.4457
 30
0.0
 10
-109.8577
 20
-110.4457
 30
0.0
 10
-109.8577
 20
-110.4457
 30
0.0
 10
-108.699
 20
-110.3904
 30
0.0
 10
-107.7829
 20
-109.7812
 30
0.0
 10
-107.8873
 20
-108.5306
 30
0.0
 10
-107.8873
 20
-108.5306
 30
0.0
 10
-107.8873
 20
-108.5306
 30
0.0
 10
-107.9244
 20
-94.4254
 30
0.0
 10
-107.9244
 20
-94.4254
 30
0.0
 10
-107.9244
 20
-94.4254
 30
0.0
 10
-107.9499
 20
-92.9128
 30
0.0
 10
-109.7048
 20
-92.6934
 30
0.0
 10
-110.6289
 20
-93.4324
 30
0.0
 10
-110.6289
 20
-93.4324
 30
0.0
 10
-110.6289
 20
-93.4324
 30
0.0
 10
-124.1391
 20
-107.3845
 30
0.0
 10
-124.1391
 20
-107.3845
 30
0.0
 10
-124.1391
 20
-107.3845
 30
0.0
 10
-125.0109
 20
-108.2623
 30
0.0
 10
-124.9235
 20
-110.1828
 30
0.0
 10
-123.2788
 20
-110.3763
 30
0.0
 10
-123.2788
 20
-110.3763
 30
0.0
 10
-123.2788
 20
-110.3763
 30
0.0
 10
-123.2788
 20
-110.3762
 30
0.0
 10
-123.2788
 20
-110.3762
 30
0.0
  0
SPLINE
  5
CE
330
1F
100
AcDbEntity
  8
layer 1
 62
     7
100
AcDbSpline
210
0.0
220
0.0
230
1.0
 70
    11
 71
     3
 72
    36
 73
    32
 74
     0
 42
0.0000000001
 43
0.0000000001
 12
1.0
 22
0.0
 32
0.0
 13
1.0
 23
0.0
 33
0.0
 40
0.0
 40
0.0
 40
0.0
 40
0.0
 40
0.1111111111111111
 40
0.1111111111111111
 40
0.1111111111111111
 40
0.1111111111111111
 40
0.2222222222222222
 40
0.2222222222222222
 40
0.2222222222222222
 40
0.2222222222222222
 40
0.3333333333333333
 40
0.3333333333333333
 40
0.3333333333333333
 40
0.3333333333333333
 40
0.4444444444444444
 40
0.4444444444444444
 40
0.4444444444444444
 40
0.4444444444444444
 40
0.5555555555555556
 40
0.5555555555555556
 40
0.5555555555555556
 40
0.5555555555555556
 40
0.6666666666666666
 40
0.6666666666666666
 40
0.6666666666666666
 40
0.6666666666666666
 40
0.7777777777777778
 40
0.7777777777777778
 40
0.7777777777777778
 40
0.7777777777777778
 40
1.0
 40
1.0
 40
1.0
 40
1.0
 10
-125.0275
 20
-79.5683
 30
0.0
 10
-125.0275
 20
-79.5683
 30
0.0
 10
-122.0032
 20
-82.5927
 30
0.0
 10
-122.0032
 20
-82.5927
 30
0.0
 10
-122.0032
 20
-82.5927
 30
0.0
 10
-121.3382
 20
-83.2577
 30
0.0
 10
-121.3382
 20
-84.3364
 30
0.0
 10
-122.0032
 20
-85.0014
 30
0.0
 10
-122.0032
 20
-85.0014
 30
0.0
 10
-122.0032
 20
-85.0014
 30
0.0
 10
-125.0275
 20
-88.0258
 30
0.0
 10
-125.0275
 20
-88.0258
 30
0.0
 10
-125.0275
 20
-88.0258
 30
0.0
 10
-125.6927
 20
-88.6909
 30
0.0
 10
-126.7713
 20
-88.6909
 30
0.0
 10
-127.4364
 20
-88.0258
 30
0.0
 10
-127.4364
 20
-88.0258
 30
0.0
 10
-127.4364
 20
-88.0258
 30
0.0
 10
-130.4607
 20
-85.0014
 30
0.0
 10
-130.4607
 20
-85.0014
 30
0.0
 10
-130.4607
 20
-85.0014
 30
0.0
 10
-131.1257
 20
-84.3364
 30
0.0
 10
-131.1257
 20
-83.2578
 30
0.0
 10
-130.4606
 20
-82.5927
 30
0.0
 10
-130.4606
 20
-82.5927
 30
0.0
 10
-130.4606
 20
-82.5927
 30
0.0
 10
-127.4364
 20
-79.5683
 30
0.0
 10
-127.4364
 20
-79.5683
 30
0.0
 10
-127.4364
 20
-79.5683
 30
0.0
 10
-126.7712
 20
-78.9032
 30
0.0
 10
-125.6926
 20
-78.9032
 30
0.0
 10
-125.0275
 20
-79.5683
 30
0.0
  0
SPLINE
  5
CF
330
1F
100
AcDbEntity
  8
layer 1
 62
     7
100
AcDbSpline
210
0.0
220
0.0
230
1.0
 70
     8
 71
     3
 72
    36
 73
    32
 74
     0
 42
0.0000000001
 43
0.0000000001
 12
1.0
 22
0.0
 32
0.0
 13
1.0
 23
0.0
 33
0.0
 40
0.0
 40
0.0
 40
0.0
 40
0.0
 40
0.1111111111111111
 40
0.1111111111111111
 40
0.1111111111111111
 40
0.1111111111111111
 40
0.2222222222222222
 40
0.2222222222222222
 40
0.2222222222222222
 40
0.2222222222222222
 40
0.3333333333333333
 40
0.3333333333333333
 40
0.3333333333333333
 40
0.3333333333333333
 40
0.4444444444444444
 40
0.4444444444444444
 40
0.4444444444444444
 40
0.4444444444444444
 40
0.5555555555555556
 40
0.5555555555555556
 40
0.5555555555555556
 40
0.5555555555555556
 40
0.6666666666666666
 40
0.6666666666666666
 40
0.6666666666666666
 40
0.6666666666666666
 40
0.7777777777777778
 40
0.7777777777777778
 40
0.7777777777777778
 40
0.7777777777777778
 40
1.0
 40
1.0
 40
1.0
 40
1.0
 10
-125.0275
 20
-95.1628
 30
0.0
 10
-125.0275
 20
-95.1628
 30
0.0
 10
-122.0032
 20
-98.1872
 30
0.0
 10
-122.0032
 20
-98.1872
 30
0.0
 10
-122.0032
 20
-98.1872
 30
0.0
 10
-121.3382
 20
-98.8523
 30
0.0
 10
-121.3382
 20
-99.9309
 30
0.0
 10
-122.0032
 20
-100.596
 30
0.0
 10
-122.0032
 20
-100.596
 30
0.0
 10
-122.0032
 20
-100.596
 30
0.0
 10
-125.0275
 20
-103.6203
 30
0.0
 10
-125.0275
 20
-103.6203
 30
0.0
 10
-125.0275
 20
-103.6203
 30
0.0
 10
-125.6926
 20
-104.2854
 30
0.0
 10
-126.7712
 20
-104.2854
 30
0.0
 10
-127.4363
 20
-103.6203
 30
0.0
 10
-127.4363
 20
-103.6203
 30
0.0
 10
-127.4363
 20
-103.6203
 30
0.0
 10
-130.4607
 20
-100.596
 30
0.0
 10
-130.4607
 20
-100.596
 30
0.0
 10
-130.4607
 20
-100.596
 30
0.0
 10
-131.1257
 20
-99.9309
 30
0.0
 10
-131.1257
 20
-98.8523
 30
0.0
 10
-130.4606
 20
-98.1872
 30
0.0
 10
-130.4606
 20
-98.1872
 30
0.0
 10
-130.4606
 20
-98.1872
 30
0.0
 10
-127.4364
 20
-95.1628
 30
0.0
 10
-127.4364
 20
-95.1628
 30
0.0
 10
-127.4364
 20
-95.1628
 30
0.0
 10
-126.7713
 20
-94.4978
 30
0.0
 10
-125.6927
 20
-94.4978
 30
0.0
 10
-125.0276
 20
-95.1628
 30
0.0
  0
SPLINE
  5
D0
330
1F
100
AcDbEntity
  8
layer 1
 62
     7
100
AcDbSpline
210
0.0
220
0.0
230
1.0
 70
    11
 71
     3
 72
    36
 73
    32
 74
     0
 42
0.0000000001
 43
0.0000000001
 12
1.0
 22
0.0
 32
0.0
 13
1.0
 23
0.0
 33
0.0
 40
0.0
 40
0.0
 40
0.0
 40
0.0
 40
0.1111111111111111
 40
0.1111111111111111
 40
0.1111111111111111
 40
0.1111111111111111
 40
0.2222222222222222
 40
0.2222222222222222
 40
0.2222222222222222
 40
0.2222222222222222
 40
0.3333333333333333
 40
0.3333333333333333
 40
0.3333333333333333
 40
0.3333333333333333
 40
0.4444444444444444
 40
0.4444444444444444
 40
0.4444444444444444
 40
0.4444444444444444
 40
0.5555555555555556
 40
0.5555555555555556
 40
0.5555555555555556
 40
0.5555555555555556
 40
0.6666666666666666
 40
0.6666666666666666
 40
0.6666666666666666
 40
0.6666666666666666
 40
0.7777777777777778
 40
0.7777777777777778
 40
0.7777777777777778
 40
0.7777777777777778
 40
1.0
 40
1.0
 40
1.0
 40
1.0
 10
-132.5981
 20
-87.3656
 30
0.0
 10
-132.5981
 20
-87.3656
 30
0.0
 10
-129.5738
 20
-90.3899
 30
0.0
 10
-129.5738
 20
-90.3899
 30
0.0
 10
-129.5738
 20
-90.3899
 30
0.0
 10
-128.9087
 20
-91.055
 30
0.0
 10
-128.9087
 20
-92.1336
 30
0.0
 10
-129.5737
 20
-92.7987
 30
0.0
 10
-129.5737
 20
-92.7987
 30
0.0
 10
-129.5737
 20
-92.7987
 30
0.0
 10
-132.5981
 20
-95.8231
 30
0.0
 10
-132.5981
 20
-95.8231
 30
0.0
 10
-132.5981
 20
-95.8231
 30
0.0
 10
-133.2632
 20
-96.4881
 30
0.0
 10
-134.3417
 20
-96.4881
 30
0.0
 10
-135.0069
 20
-95.8231
 30
0.0
 10
-135.0069
 20
-95.8231
 30
0.0
 10
-135.0069
 20
-95.8231
 30
0.0
 10
-138.0313
 20
-92.7987
 30
0.0
 10
-138.0313
 20
-92.7987
 30
0.0
 10
-138.0313
 20
-92.7987
 30
0.0
 10
-138.6962
 20
-92.1337
 30
0.0
 10
-138.6962
 20
-91.055
 30
0.0
 10
-138.0312
 20
-90.39
 30
0.0
 10
-138.0312
 20
-90.39
 30
0.0
 10
-138.0312
 20
-90.39
 30
0.0
 10
-135.0069
 20
-87.3656
 30
0.0
 10
-135.0069
 20
-87.3656
 30
0.0
 10
-135.0069
 20
-87.3656
 30
0.0
 10
-134.3417
 20
-86.7005
 30
0.0
 10
-133.2631
 20
-86.7005
 30
0.0
 10
-132.5981
 20
-87.3656
 30
0.0
  0
SPLINE
  5
D1
330
1F
100
AcDbEntity
  8
layer 1
 62
     7
100
AcDbSpline
210
0.0
220
0.0
230
1.0
 70
     8
 71
     3
 72
    36
 73
    32
 74
     0
 42
0.0000000001
 43
0.0000000001
 12
1.0
 22
0.0
 32
0.0
 13
1.0
 23
0.0
 33
0.0
 40
0.0
 40
0.0
 40
0.0
 40
0.0
 40
0.1111111111111111
 40
0.1111111111111111
 40
0.1111111111111111
 40
0.1111111111111111
 40
0.2222222222222222
 40
0.2222222222222222
 40
0.2222222222222222
 40
0.2222222222222222
 40
0.3333333333333333
 40
0.3333333333333333
 40
0.3333333333333333
 40
0.3333333333333333
 40
0.4444444444444444
 40
0.4444444444444444
 40
0.4444444444444444
 40
0.4444444444444444
 40
0.5555555555555556
 40
0.5555555555555556
 40
0.5555555555555556
 40
0.5555555555555556
 40
0.6666666666666666
 40
0.6666666666666666
 40
0.6666666666666666
 40
0.6666666666666666
 40
0.7777777777777778
 40
0.7777777777777778
 40
0.7777777777777778
 40
0.7777777777777778
 40
1.0
 40
1.0
 40
1.0
 40
1.0
 10
-117.4117
 20
-87.3656
 30
0.0
 10
-117.4117
 20
-87.3656
 30
0.0
 10
-114.3872
 20
-90.3899
 30
0.0
 10
-114.3872
 20
-90.3899
 30
0.0
 10
-114.3872
 20
-90.3899
 30
0.0
 10
-113.7222
 20
-91.055
 30
0.0
 10
-113.7222
 20
-92.1336
 30
0.0
 10
-114.3872
 20
-92.7987
 30
0.0
 10
-114.3872
 20
-92.7987
 30
0.0
 10
-114.3872
 20
-92.7987
 30
0.0
 10
-117.4117
 20
-95.8231
 30
0.0
 10
-117.4117
 20
-95.8231
 30
0.0
 10
-117.4117
 20
-95.8231
 30
0.0
 10
-118.0767
 20
-96.4881
 30
0.0
 10
-119.1553
 20
-96.4881
 30
0.0
 10
-119.8204
 20
-95.823
 30
0.0
 10
-119.8204
 20
-95.823
 30
0.0
 10
-119.8204
 20
-95.823
 30
0.0
 10
-122.8447
 20
-92.7987
 30
0.0
 10
-122.8447
 20
-92.7987
 30
0.0
 10
-122.8447
 20
-92.7987
 30
0.0
 10
-123.5098
 20
-92.1336
 30
0.0
 10
-123.5098
 20
-91.055
 30
0.0
 10
-122.8447
 20
-90.3899
 30
0.0
 10
-122.8447
 20
-90.3899
 30
0.0
 10
-122.8447
 20
-90.3899
 30
0.0
 10
-119.8204
 20
-87.3656
 30
0.0
 10
-119.8204
 20
-87.3656
 30
0.0
 10
-119.8204
 20
-87.3656
 30
0.0
 10
-119.1553
 20
-86.7005
 30
0.0
 10
-118.0767
 20
-86.7005
 30
0.0
 10
-117.4116
 20
-87.3656
 30
0.0
  0
ENDSEC
  0
SECTION
  2
OBJECTS
  0
DICTIONARY
  5
C
330
0
100
AcDbDictionary
281
     1
  3
ACAD_GROUP
350
D
  3
ACAD_LAYOUT
350
1A
  3
ACAD_MATERIAL
350
3B
  3
ACAD_MLEADERSTYLE
350
F3
  3
ACAD_MLINESTYLE
350
17
  3
ACAD_PLOTSETTINGS
350
19
  3
ACAD_PLOTSTYLENAME
350
E
  3
ACAD_TABLESTYLE
350
F2
  3
ACAD_VISUALSTYLE
350
2A
  0
DICTIONARY
  5
D
102
{ACAD_REACTORS
330
C
102
}
330
C
100
AcDbDictionary
281
     1
  0
DICTIONARY
  5
1A
102
{ACAD_REACTORS
330
C
102
}
330
C
100
AcDbDictionary
281
     1
  3
Layout1
350
1E
  3
Layout2
350
26
  3
Model
350
22
  0
DICTIONARY
  5
3B
102
{ACAD_REACTORS
330
C
102
}
330
C
100
AcDbDictionary
281
     1
  3
ByBlock
350
3D
  3
ByLayer
350
3C
  3
Global
350
3E
  0
DICTIONARY
  5
F3
102
{ACAD_REACTORS
330
C
102
}
330
C
100
AcDbDictionary
281
     1
  0
DICTIONARY
  5
17
102
{ACAD_REACTORS
330
C
102
}
330
C
100
AcDbDictionary
281
     1
  3
Standard
350
18
  0
DICTIONARY
  5
19
102
{ACAD_REACTORS
330
C
102
}
330
C
100
AcDbDictionary
281
     1
  0
ACDBDICTIONARYWDFLT
  5
E
102
{ACAD_REACTORS
330
C
102
}
330
C
100
AcDbDictionary
281
     1
  3
Normal
350
F
100
AcDbDictionaryWithDefault
340
F
  0
DICTIONARY
  5
F2
102
{ACAD_REACTORS
330
C
102
}
330
C
100
AcDbDictionary
281
     1
  0
DICTIONARY
  5
2A
102
{ACAD_REACTORS
330
C
102
}
330
C
100
AcDbDictionary
281
     1
  3
2dWireframe
350
2F
  3
3D Hidden
350
31
  3
3dWireframe
350
30
  3
Basic
350
32
  3
Brighten
350
36
  3
ColorChange
350
3A
  3
Conceptual
350
34
  3
Dim
350
35
  3
Facepattern
350
39
  3
Flat
350
2B
  3
FlatWithEdges
350
2C
  3
Gouraud
350
2D
  3
GouraudWithEdges
350
2E
  3
Linepattern
350
38
  3
Realistic
350
33
  3
Thicken
350
37
  0
LAYOUT
  5
1E
102
{ACAD_REACTORS
330
1A
102
}
330
1A
100
AcDbPlotSettings
  1

  2
none_device
  4

  6

 40
0.0
 41
0.0
 42
0.0
 43
0.0
 44
0.0
 45
0.0
 46
0.0
 47
0.0
 48
0.0
 49
0.0
140
0.0
141
0.0
142
1.0
143
1.0
 70
   688
 72
     0
 73
     0
 74
     5
  7

 75
    16
 76
     0
 77
     2
 78
   300
147
1.0
148
0.0
149
0.0
100
AcDbLayout
  1
Layout1
 70
     1
 71
     1
 10
0.0
 20
0.0
 11
12.0
 21
9.0
 12
0.0
 22
0.0
 32
0.0
 14
1.000000000000000E+20
 24
1.000000000000000E+20
 34
1.000000000000000E+20
 15
-1.000000000000000E+20
 25
-1.000000000000000E+20
 35
-1.000000000000000E+20
146
0.0
 13
0.0
 23
0.0
 33
0.0
 16
1.0
 26
0.0
 36
0.0
 17
0.0
 27
1.0
 37
0.0
 76
     0
330
1B
  0
LAYOUT
  5
26
102
{ACAD_REACTORS
330
1A
102
}
330
1A
100
AcDbPlotSettings
  1

  2
none_device
  4

  6

 40
0.0
 41
0.0
 42
0.0
 43
0.0
 44
0.0
 45
0.0
 46
0.0
 47
0.0
 48
0.0
 49
0.0
140
0.0
141
0.0
142
1.0
143
1.0
 70
   688
 72
     0
 73
     0
 74
     5
  7

 75
    16
 76
     0
 77
     2
 78
   300
147
1.0
148
0.0
149
0.0
100
AcDbLayout
  1
Layout2
 70
     1
 71
     2
 10
0.0
 20
0.0
 11
0.0
 21
0.0
 12
0.0
 22
0.0
 32
0.0
 14
0.0
 24
0.0
 34
0.0
 15
0.0
 25
0.0
 35
0.0
146
0.0
 13
0.0
 23
0.0
 33
0.0
 16
1.0
 26
0.0
 36
0.0
 17
0.0
 27
1.0
 37
0.0
 76
     0
330
23
  0
LAYOUT
  5
22
102
{ACAD_REACTORS
330
1A
102
}
330
1A
100
AcDbPlotSettings
  1

  2
none_device
  4

  6

 40
0.0
 41
0.0
 42
0.0
 43
0.0
 44
0.0
 45
0.0
 46
0.0
 47
0.0
 48
0.0
 49
0.0
140
0.0
141
0.0
142
1.0
143
1.0
 70
  1712
 72
     0
 73
     0
 74
     0
  7

 75
     0
 76
     0
 77
     2
 78
   300
147
1.0
148
0.0
149
0.0
100
AcDbLayout
  1
Model
 70
     1
 71
     0
 10
0.0
 20
0.0
 11
12.0
 21
9.0
 12
0.0
 22
0.0
 32
0.0
 14
-187.3976
 24
-114.7846
 34
0.0
 15
-65.0734
 25
131.8585
 35
0.0
146
0.0
 13
0.0
 23
0.0
 33
0.0
 16
1.0
 26
0.0
 36
0.0
 17
0.0
 27
1.0
 37
0.0
 76
     0
330
1F
331
29
  0
MATERIAL
  5
3D
102
{ACAD_REACTORS
330
3B
102
}
330
3B
100
AcDbMaterial
  1
ByBlock
 72
     1
 94
      127
  0
MATERIAL
  5
3C
102
{ACAD_REACTORS
330
3B
102
}
330
3B
100
AcDbMaterial
  1
ByLayer
 72
     1
 94
      127
  0
MATERIAL
  5
3E
102
{ACAD_REACTORS
330
3B
102
}
330
3B
100
AcDbMaterial
  1
Global
 72
     1
 94
      127
  0
MLINESTYLE
  5
18
102
{ACAD_REACTORS
330
17
102
}
330
17
100
AcDbMlineStyle
  2
Standard
 70
     0
  3

 62
   256
 51
90.0
 52
90.0
 71
     2
 49
0.5
 62
   256
  6
BYLAYER
 49
-0.5
 62
   256
  6
BYLAYER
  0
ACDBPLACEHOLDER
  5
F
102
{ACAD_REACTORS
330
E
102
}
330
E
  0
VISUALSTYLE
  5
2F
102
{ACAD_REACTORS
330
2A
102
}
102
{ACAD_XDICTIONARY
360
DA
102
}
330
2A
100
AcDbVisualStyle
  2
2dWireframe
 70
     4
 71
     0
 72
     2
 73
     0
 90
        0
 40
-0.6
 41
-30.0
 62
     5
 63
     7
421
 16777215
 74
     1
 91
        4
 64
     7
 65
   257
 75
     1
175
     1
 42
1.0
 92
        0
 66
   257
 43
1.0
 76
     1
 77
     6
 78
     2
 67
     7
 79
     5
170
     0
171
     0
290
     0
174
     0
 93
        1
 44
0.0
173
     0
291
     0
 45
0.0
  0
VISUALSTYLE
  5
31
102
{ACAD_REACTORS
330
2A
102
}
102
{ACAD_XDICTIONARY
360
DE
102
}
330
2A
100
AcDbVisualStyle
  2
3D Hidden
 70
     6
 71
     1
 72
     2
 73
     2
 90
        0
 40
-0.6
 41
-30.0
 62
     5
 63
     7
421
 16777215
 74
     2
 91
        2
 64
     7
 65
   257
 75
     2
175
     1
 42
40.0
 92
        0
 66
   257
 43
1.0
 76
     1
 77
     6
 78
     2
 67
     7
 79
     3
170
     0
171
     0
290
     0
174
     0
 93
        1
 44
0.0
173
     0
291
     0
 45
0.0
  0
VISUALSTYLE
  5
30
102
{ACAD_REACTORS
330
2A
102
}
102
{ACAD_XDICTIONARY
360
DC
102
}
330
2A
100
AcDbVisualStyle
  2
3dWireframe
 70
     5
 71
     0
 72
     2
 73
     0
 90
        0
 40
-0.6
 41
-30.0
 62
     5
 63
     7
421
 16777215
 74
     1
 91
        4
 64
     7
 65
   257
 75
     1
175
     1
 42
1.0
 92
        0
 66
   257
 43
1.0
 76
     1
 77
     6
 78
     2
 67
     7
 79
     5
170
     0
171
     0
290
     0
174
     0
 93
        1
 44
0.0
173
     0
291
     0
 45
0.0
  0
VISUALSTYLE
  5
32
102
{ACAD_REACTORS
330
2A
102
}
102
{ACAD_XDICTIONARY
360
E0
102
}
330
2A
100
AcDbVisualStyle
  2
Basic
 70
     7
 71
     1
 72
     0
 73
     1
 90
        0
 40
-0.6
 41
-30.0
 62
     5
 63
     7
421
 16777215
 74
     0
 91
        4
 64
     7
 65
   257
 75
     1
175
     1
 42
1.0
 92
        8
 66
     7
 43
1.0
 76
     1
 77
     6
 78
     2
 67
     7
 79
     5
170
     0
171
     0
290
     0
174
     0
 93
        1
 44
0.0
173
     0
291
     1
 45
0.0
  0
VISUALSTYLE
  5
36
102
{ACAD_REACTORS
330
2A
102
}
102
{ACAD_XDICTIONARY
360
E8
102
}
330
2A
100
AcDbVisualStyle
  2
Brighten
 70
    12
 71
     2
 72
     2
 73
     0
 90
        0
 40
-0.6
 41
-30.0
 62
     5
 63
     7
421
 16777215
 74
     1
 91
        4
 64
     7
 65
   257
 75
     1
175
     1
 42
1.0
 92
        8
 66
     7
 43
1.0
 76
     1
 77
     6
 78
     2
 67
     7
 79
     5
170
     0
171
     0
290
     0
174
     0
 93
        1
 44
50.0
173
     0
291
     1
 45
0.0
  0
VISUALSTYLE
  5
3A
102
{ACAD_REACTORS
330
2A
102
}
102
{ACAD_XDICTIONARY
360
F0
102
}
330
2A
100
AcDbVisualStyle
  2
ColorChange
 70
    16
 71
     2
 72
     2
 73
     3
 90
        0
 40
-0.6
 41
-30.0
 62
     5
 63
     8
421
  8421504
 74
     1
 91
        4
 64
     7
 65
   257
 75
     1
175
     1
 42
1.0
 92
        8
 66
     8
424
  8421504
 43
1.0
 76
     1
 77
     6
 78
     2
 67
     7
 79
     5
170
     0
171
     0
290
     0
174
     0
 93
        1
 44
0.0
173
     0
291
     1
 45
0.0
  0
VISUALSTYLE
  5
34
102
{ACAD_REACTORS
330
2A
102
}
102
{ACAD_XDICTIONARY
360
E4
102
}
330
2A
100
AcDbVisualStyle
  2
Conceptual
 70
     9
 71
     3
 72
     2
 73
     0
 90
        0
 40
-0.6
 41
-30.0
 62
     5
 63
     7
421
 16777215
 74
     2
 91
        2
 64
     7
 65
   257
 75
     1
175
     1
 42
40.0
 92
        8
 66
     7
 43
1.0
 76
     1
 77
     6
 78
     2
 67
     7
 79
     3
170
     0
171
     0
290
     0
174
     0
 93
        1
 44
0.0
173
     0
291
     0
 45
0.0
  0
VISUALSTYLE
  5
35
102
{ACAD_REACTORS
330
2A
102
}
102
{ACAD_XDICTIONARY
360
E6
102
}
330
2A
100
AcDbVisualStyle
  2
Dim
 70
    11
 71
     2
 72
     2
 73
     0
 90
        0
 40
-0.6
 41
-30.0
 62
     5
 63
     7
421
 16777215
 74
     1
 91
        4
 64
     7
 65
   257
 75
     1
175
     1
 42
1.0
 92
        8
 66
     7
 43
1.0
 76
     1
 77
     6
 78
     2
 67
     7
 79
     5
170
     0
171
     0
290
     0
174
     0
 93
        1
 44
-50.0
173
     0
291
     1
 45
0.0
  0
VISUALSTYLE
  5
39
102
{ACAD_REACTORS
330
2A
102
}
102
{ACAD_XDICTIONARY
360
EE
102
}
330
2A
100
AcDbVisualStyle
  2
Facepattern
 70
    15
 71
     2
 72
     2
 73
     0
 90
        0
 40
-0.6
 41
-30.0
 62
     5
 63
     7
421
 16777215
 74
     1
 91
        4
 64
     7
 65
   257
 75
     1
175
     1
 42
1.0
 92
        8
 66
     7
 43
1.0
 76
     1
 77
     6
 78
     2
 67
     7
 79
     5
170
     0
171
     0
290
     0
174
     0
 93
        1
 44
0.0
173
     0
291
     1
 45
0.0
  0
VISUALSTYLE
  5
2B
102
{ACAD_REACTORS
330
2A
102
}
102
{ACAD_XDICTIONARY
360
D2
102
}
330
2A
100
AcDbVisualStyle
  2
Flat
 70
     0
 71
     2
 72
     1
 73
     1
 90
        2
 40
-0.6
 41
30.0
 62
     5
 63
     7
421
 16777215
 74
     0
 91
        4
 64
     7
 65
   257
 75
     1
175
     1
 42
1.0
 92
        8
 66
     7
 43
1.0
 76
     1
 77
     6
 78
     2
 67
     7
 79
     5
170
     0
171
     0
290
     0
174
     0
 93
       13
 44
0.0
173
     0
291
     1
 45
0.0
  0
VISUALSTYLE
  5
2C
102
{ACAD_REACTORS
330
2A
102
}
102
{ACAD_XDICTIONARY
360
D4
102
}
330
2A
100
AcDbVisualStyle
  2
FlatWithEdges
 70
     1
 71
     2
 72
     1
 73
     1
 90
        2
 40
-0.6
 41
30.0
 62
     5
 63
     7
421
 16777215
 74
     1
 91
        4
 64
     7
 65
   257
 75
     1
175
     1
 42
1.0
 92
        0
 66
   257
 43
1.0
 76
     1
 77
     6
 78
     2
 67
     7
 79
     5
170
     0
171
     0
290
     0
174
     0
 93
       13
 44
0.0
173
     0
291
     1
 45
0.0
  0
VISUALSTYLE
  5
2D
102
{ACAD_REACTORS
330
2A
102
}
102
{ACAD_XDICTIONARY
360
D6
102
}
330
2A
100
AcDbVisualStyle
  2
Gouraud
 70
     2
 71
     2
 72
     2
 73
     1
 90
        2
 40
-0.6
 41
30.0
 62
     5
 63
     7
421
 16777215
 74
     0
 91
        4
 64
     7
 65
   257
 75
     1
175
     1
 42
1.0
 92
        0
 66
     7
 43
1.0
 76
     1
 77
     6
 78
     2
 67
     7
 79
     5
170
     0
171
     0
290
     0
174
     0
 93
       13
 44
0.0
173
     0
291
     1
 45
0.0
  0
VISUALSTYLE
  5
2E
102
{ACAD_REACTORS
330
2A
102
}
102
{ACAD_XDICTIONARY
360
D8
102
}
330
2A
100
AcDbVisualStyle
  2
GouraudWithEdges
 70
     3
 71
     2
 72
     2
 73
     1
 90
        2
 40
-0.6
 41
30.0
 62
     5
 63
     7
421
 16777215
 74
     1
 91
        4
 64
     7
 65
   257
 75
     1
175
     1
 42
1.0
 92
        0
 66
   257
 43
1.0
 76
     1
 77
     6
 78
     2
 67
     7
 79
     5
170
     0
171
     0
290
     0
174
     0
 93
       13
 44
0.0
173
     0
291
     1
 45
0.0
  0
VISUALSTYLE
  5
38
102
{ACAD_REACTORS
330
2A
102
}
102
{ACAD_XDICTIONARY
360
EC
102
}
330
2A
100
AcDbVisualStyle
  2
Linepattern
 70
    14
 71
     2
 72
     2
 73
     0
 90
        0
 40
-0.6
 41
-30.0
 62
     5
 63
     7
421
 16777215
 74
     1
 91
        4
 64
     7
 65
   257
 75
     7
175
     7
 42
1.0
 92
        8
 66
     7
 43
1.0
 76
     1
 77
     6
 78
     2
 67
     7
 79
     5
170
     0
171
     0
290
     0
174
     0
 93
        1
 44
0.0
173
     0
291
     1
 45
0.0
  0
VISUALSTYLE
  5
33
102
{ACAD_REACTORS
330
2A
102
}
102
{ACAD_XDICTIONARY
360
E2
102
}
330
2A
100
AcDbVisualStyle
  2
Realistic
 70
     8
 71
     2
 72
     2
 73
     0
 90
        0
 40
-0.6
 41
-30.0
 62
     5
 63
     7
421
 16777215
 74
     1
 91
        0
 64
     7
 65
   257
 75
     1
175
     1
 42
1.0
 92
        8
 66
     8
424
  7895160
 43
1.0
 76
     1
 77
     6
 78
     2
 67
     7
 79
     5
170
     0
171
     0
290
     0
174
     0
 93
       13
 44
0.0
173
     0
291
     0
 45
0.0
  0
VISUALSTYLE
  5
37
102
{ACAD_REACTORS
330
2A
102
}
102
{ACAD_XDICTIONARY
360
EA
102
}
330
2A
100
AcDbVisualStyle
  2
Thicken
 70
    13
 71
     2
 72
     2
 73
     0
 90
        0
 40
-0.6
 41
-30.0
 62
     5
 63
     7
421
 16777215
 74
     1
 91
        4
 64
     7
 65
   257
 75
     1
175
     1
 42
1.0
 92
       12
 66
     7
 43
1.0
 76
     1
 77
     6
 78
     2
 67
     7
 79
     5
170
     0
171
     0
290
     0
174
     0
 93
        1
 44
0.0
173
     0
291
     1
 45
0.0
  0
DICTIONARY
  5
DA
330
2F
100
AcDbDictionary
280
     1
281
     1
  3
ACAD_XREC_ROUNDTRIP
360
DB
  0
DICTIONARY
  5
DE
330
31
100
AcDbDictionary
280
     1
281
     1
  3
ACAD_XREC_ROUNDTRIP
360
DF
  0
DICTIONARY
  5
DC
330
30
100
AcDbDictionary
280
     1
281
     1
  3
ACAD_XREC_ROUNDTRIP
360
DD
  0
DICTIONARY
  5
E0
330
32
100
AcDbDictionary
280
     1
281
     1
  3
ACAD_XREC_ROUNDTRIP
360
E1
  0
DICTIONARY
  5
E8
330
36
100
AcDbDictionary
280
     1
281
     1
  3
ACAD_XREC_ROUNDTRIP
360
E9
  0
DICTIONARY
  5
F0
330
3A
100
AcDbDictionary
280
     1
281
     1
  3
ACAD_XREC_ROUNDTRIP
360
F1
  0
DICTIONARY
  5
E4
330
34
100
AcDbDictionary
280
     1
281
     1
  3
ACAD_XREC_ROUNDTRIP
360
E5
  0
DICTIONARY
  5
E6
330
35
100
AcDbDictionary
280
     1
281
     1
  3
ACAD_XREC_ROUNDTRIP
360
E7
  0
DICTIONARY
  5
EE
330
39
100
AcDbDictionary
280
     1
281
     1
  3
ACAD_XREC_ROUNDTRIP
360
EF
  0
DICTIONARY
  5
D2
330
2B
100
AcDbDictionary
280
     1
281
     1
  3
ACAD_XREC_ROUNDTRIP
360
D3
  0
DICTIONARY
  5
D4
330
2C
100
AcDbDictionary
280
     1
281
     1
  3
ACAD_XREC_ROUNDTRIP
360
D5
  0
DICTIONARY
  5
D6
330
2D
100
AcDbDictionary
280
     1
281
     1
  3
ACAD_XREC_ROUNDTRIP
360
D7
  0
DICTIONARY
  5
D8
330
2E
100
AcDbDictionary
280
     1
281
     1
  3
ACAD_XREC_ROUNDTRIP
360
D9
  0
DICTIONARY
  5
EC
330
38
100
AcDbDictionary
280
     1
281
     1
  3
ACAD_XREC_ROUNDTRIP
360
ED
  0
DICTIONARY
  5
E2
330
33
100
AcDbDictionary
280
     1
281
     1
  3
ACAD_XREC_ROUNDTRIP
360
E3
  0
DICTIONARY
  5
EA
330
37
100
AcDbDictionary
280
     1
281
     1
  3
ACAD_XREC_ROUNDTRIP
360
EB
  0
XRECORD
  5
DB
102
{ACAD_REACTORS
330
DA
102
}
330
DA
100
AcDbXrecord
280
     1
102
RTVSPropertyOp0
 70
     1
102
RTVSPropertyOp1
 70
     1
102
RTVSPropertyOp2
 70
     1
102
RTVSPropertyOp3
 70
     1
102
RTVSPropertyOp4
 70
     1
102
RTVSPropertyOp5
 70
     1
102
RTVSPropertyOp6
 70
     1
102
RTVSPropertyOp7
 70
     1
102
RTVSPropertyOp8
 70
     1
102
RTVSPropertyOp9
 70
     1
102
RTVSPropertyOp10
 70
     1
102
RTVSPropertyOp11
 70
     1
102
RTVSPropertyOp12
 70
     1
102
RTVSPropertyOp13
 70
     1
102
RTVSPropertyOp14
 70
     1
102
RTVSPropertyOp15
 70
     1
102
RTVSPropertyOp16
 70
     1
102
RTVSPropertyOp17
 70
     1
102
RTVSPropertyOp18
 70
     1
102
RTVSPropertyOp19
 70
     1
102
RTVSPropertyOp20
 70
     1
102
RTVSPropertyOp21
 70
     1
102
RTVSPropertyOp22
 70
     1
102
RTVSPropertyOp23
 70
     1
102
RTVSPropertyOp24
 70
     1
102
RTVSPropertyOp25
 70
     1
102
RTVSPropertyOp26
 70
     1
102
RTVSPropertyOp27
 70
     1
102
RTVSPropertyOp28
 70
     1
102
RTVSPropertyOp29
 70
     1
102
RTVSPropertyOp30
 70
     1
102
RTVSPropertyOp31
 70
     1
102
RTVSPropertyOp32
 70
     1
  0
XRECORD
  5
DF
102
{ACAD_REACTORS
330
DE
102
}
330
DE
100
AcDbXrecord
280
     1
102
RTVSPropertyOp0
 70
     1
102
RTVSPropertyOp1
 70
     1
102
RTVSPropertyOp2
 70
     1
102
RTVSPropertyOp3
 70
     1
102
RTVSPropertyOp4
 70
     1
102
RTVSPropertyOp5
 70
     1
102
RTVSPropertyOp6
 70
     1
102
RTVSPropertyOp7
 70
     1
102
RTVSPropertyOp8
 70
     1
102
RTVSPropertyOp9
 70
     1
102
RTVSPropertyOp10
 70
     1
102
RTVSPropertyOp11
 70
     1
102
RTVSPropertyOp12
 70
     1
102
RTVSPropertyOp13
 70
     1
102
RTVSPropertyOp14
 70
     1
102
RTVSPropertyOp15
 70
     1
102
RTVSPropertyOp16
 70
     1
102
RTVSPropertyOp17
 70
     1
102
RTVSPropertyOp18
 70
     1
102
RTVSPropertyOp19
 70
     1
102
RTVSPropertyOp20
 70
     1
102
RTVSPropertyOp21
 70
     1
102
RTVSPropertyOp22
 70
     1
102
RTVSPropertyOp23
 70
     1
102
RTVSPropertyOp24
 70
     1
102
RTVSPropertyOp25
 70
     1
102
RTVSPropertyOp26
 70
     1
102
RTVSPropertyOp27
 70
     1
102
RTVSPropertyOp28
 70
     1
102
RTVSPropertyOp29
 70
     1
102
RTVSPropertyOp30
 70
     1
102
RTVSPropertyOp31
 70
     1
102
RTVSPropertyOp32
 70
     1
  0
XRECORD
  5
DD
102
{ACAD_REACTORS
330
DC
102
}
330
DC
100
AcDbXrecord
280
     1
102
RTVSPropertyOp0
 70
     1
102
RTVSPropertyOp1
 70
     1
102
RTVSPropertyOp2
 70
     1
102
RTVSPropertyOp3
 70
     1
102
RTVSPropertyOp4
 70
     1
102
RTVSPropertyOp5
 70
     1
102
RTVSPropertyOp6
 70
     1
102
RTVSPropertyOp7
 70
     1
102
RTVSPropertyOp8
 70
     1
102
RTVSPropertyOp9
 70
     1
102
RTVSPropertyOp10
 70
     1
102
RTVSPropertyOp11
 70
     1
102
RTVSPropertyOp12
 70
     1
102
RTVSPropertyOp13
 70
     1
102
RTVSPropertyOp14
 70
     1
102
RTVSPropertyOp15
 70
     1
102
RTVSPropertyOp16
 70
     1
102
RTVSPropertyOp17
 70
     1
102
RTVSPropertyOp18
 70
     1
102
RTVSPropertyOp19
 70
     1
102
RTVSPropertyOp20
 70
     1
102
RTVSPropertyOp21
 70
     1
102
RTVSPropertyOp22
 70
     1
102
RTVSPropertyOp23
 70
     1
102
RTVSPropertyOp24
 70
     1
102
RTVSPropertyOp25
 70
     1
102
RTVSPropertyOp26
 70
     1
102
RTVSPropertyOp27
 70
     1
102
RTVSPropertyOp28
 70
     1
102
RTVSPropertyOp29
 70
     1
102
RTVSPropertyOp30
 70
     1
102
RTVSPropertyOp31
 70
     1
102
RTVSPropertyOp32
 70
     1
  0
XRECORD
  5
E1
102
{ACAD_REACTORS
330
E0
102
}
330
E0
100
AcDbXrecord
280
     1
102
RTVSPropertyOp0
 70
     1
102
RTVSPropertyOp1
 70
     1
102
RTVSPropertyOp2
 70
     1
102
RTVSPropertyOp3
 70
     1
102
RTVSPropertyOp4
 70
     1
102
RTVSPropertyOp5
 70
     1
102
RTVSPropertyOp6
 70
     1
102
RTVSPropertyOp7
 70
     1
102
RTVSPropertyOp8
 70
     1
102
RTVSPropertyOp9
 70
     1
102
RTVSPropertyOp10
 70
     1
102
RTVSPropertyOp11
 70
     1
102
RTVSPropertyOp12
 70
     1
102
RTVSPropertyOp13
 70
     1
102
RTVSPropertyOp14
 70
     1
102
RTVSPropertyOp15
 70
     1
102
RTVSPropertyOp16
 70
     1
102
RTVSPropertyOp17
 70
     1
102
RTVSPropertyOp18
 70
     1
102
RTVSPropertyOp19
 70
     1
102
RTVSPropertyOp20
 70
     1
102
RTVSPropertyOp21
 70
     1
102
RTVSPropertyOp22
 70
     1
102
RTVSPropertyOp23
 70
     1
102
RTVSPropertyOp24
 70
     1
102
RTVSPropertyOp25
 70
     1
102
RTVSPropertyOp26
 70
     1
102
RTVSPropertyOp27
 70
     1
102
RTVSPropertyOp28
 70
     1
102
RTVSPropertyOp29
 70
     1
102
RTVSPropertyOp30
 70
     1
102
RTVSPropertyOp31
 70
     1
102
RTVSPropertyOp32
 70
     1
  0
XRECORD
  5
E9
102
{ACAD_REACTORS
330
E8
102
}
330
E8
100
AcDbXrecord
280
     1
102
RTVSPropertyOp0
 70
     1
102
RTVSPropertyOp1
 70
     1
102
RTVSPropertyOp2
 70
     1
102
RTVSPropertyOp3
 70
     1
102
RTVSPropertyOp4
 70
     1
102
RTVSPropertyOp5
 70
     1
102
RTVSPropertyOp6
 70
     1
102
RTVSPropertyOp7
 70
     1
102
RTVSPropertyOp8
 70
     1
102
RTVSPropertyOp9
 70
     1
102
RTVSPropertyOp10
 70
     1
102
RTVSPropertyOp11
 70
     1
102
RTVSPropertyOp12
 70
     1
102
RTVSPropertyOp13
 70
     1
102
RTVSPropertyOp14
 70
     1
102
RTVSPropertyOp15
 70
     1
102
RTVSPropertyOp16
 70
     1
102
RTVSPropertyOp17
 70
     1
102
RTVSPropertyOp18
 70
     1
102
RTVSPropertyOp19
 70
     1
102
RTVSPropertyOp20
 70
     1
102
RTVSPropertyOp21
 70
     1
102
RTVSPropertyOp22
 70
     1
102
RTVSPropertyOp23
 70
     1
102
RTVSPropertyOp24
 70
     1
102
RTVSPropertyOp25
 70
     1
102
RTVSPropertyOp26
 70
     1
102
RTVSPropertyOp27
 70
     1
102
RTVSPropertyOp28
 70
     1
102
RTVSPropertyOp29
 70
     1
102
RTVSPropertyOp30
 70
     1
102
RTVSPropertyOp31
 70
     1
102
RTVSPropertyOp32
 70
     1
  0
XRECORD
  5
F1
102
{ACAD_REACTORS
330
F0
102
}
330
F0
100
AcDbXrecord
280
     1
102
RTVSPropertyOp0
 70
     1
102
RTVSPropertyOp1
 70
     1
102
RTVSPropertyOp2
 70
     1
102
RTVSPropertyOp3
 70
     1
102
RTVSPropertyOp4
 70
     1
102
RTVSPropertyOp5
 70
     1
102
RTVSPropertyOp6
 70
     1
102
RTVSPropertyOp7
 70
     1
102
RTVSPropertyOp8
 70
     1
102
RTVSPropertyOp9
 70
     1
102
RTVSPropertyOp10
 70
     1
102
RTVSPropertyOp11
 70
     1
102
RTVSPropertyOp12
 70
     1
102
RTVSPropertyOp13
 70
     1
102
RTVSPropertyOp14
 70
     1
102
RTVSPropertyOp15
 70
     1
102
RTVSPropertyOp16
 70
     1
102
RTVSPropertyOp17
 70
     1
102
RTVSPropertyOp18
 70
     1
102
RTVSPropertyOp19
 70
     1
102
RTVSPropertyOp20
 70
     1
102
RTVSPropertyOp21
 70
     1
102
RTVSPropertyOp22
 70
     1
102
RTVSPropertyOp23
 70
     1
102
RTVSPropertyOp24
 70
     1
102
RTVSPropertyOp25
 70
     1
102
RTVSPropertyOp26
 70
     1
102
RTVSPropertyOp27
 70
     1
102
RTVSPropertyOp28
 70
     1
102
RTVSPropertyOp29
 70
     1
102
RTVSPropertyOp30
 70
     1
102
RTVSPropertyOp31
 70
     1
102
RTVSPropertyOp32
 70
     1
  0
XRECORD
  5
E5
102
{ACAD_REACTORS
330
E4
102
}
330
E4
100
AcDbXrecord
280
     1
102
RTVSPropertyOp0
 70
     1
102
RTVSPropertyOp1
 70
     1
102
RTVSPropertyOp2
 70
     1
102
RTVSPropertyOp3
 70
     1
102
RTVSPropertyOp4
 70
     1
102
RTVSPropertyOp5
 70
     1
102
RTVSPropertyOp6
 70
     1
102
RTVSPropertyOp7
 70
     1
102
RTVSPropertyOp8
 70
     1
102
RTVSPropertyOp9
 70
     1
102
RTVSPropertyOp10
 70
     1
102
RTVSPropertyOp11
 70
     1
102
RTVSPropertyOp12
 70
     1
102
RTVSPropertyOp13
 70
     1
102
RTVSPropertyOp14
 70
     1
102
RTVSPropertyOp15
 70
     1
102
RTVSPropertyOp16
 70
     1
102
RTVSPropertyOp17
 70
     1
102
RTVSPropertyOp18
 70
     1
102
RTVSPropertyOp19
 70
     1
102
RTVSPropertyOp20
 70
     1
102
RTVSPropertyOp21
 70
     1
102
RTVSPropertyOp22
 70
     1
102
RTVSPropertyOp23
 70
     1
102
RTVSPropertyOp24
 70
     1
102
RTVSPropertyOp25
 70
     1
102
RTVSPropertyOp26
 70
     1
102
RTVSPropertyOp27
 70
     1
102
RTVSPropertyOp28
 70
     1
102
RTVSPropertyOp29
 70
     1
102
RTVSPropertyOp30
 70
     1
102
RTVSPropertyOp31
 70
     1
102
RTVSPropertyOp32
 70
     1
  0
XRECORD
  5
E7
102
{ACAD_REACTORS
330
E6
102
}
330
E6
100
AcDbXrecord
280
     1
102
RTVSPropertyOp0
 70
     1
102
RTVSPropertyOp1
 70
     1
102
RTVSPropertyOp2
 70
     1
102
RTVSPropertyOp3
 70
     1
102
RTVSPropertyOp4
 70
     1
102
RTVSPropertyOp5
 70
     1
102
RTVSPropertyOp6
 70
     1
102
RTVSPropertyOp7
 70
     1
102
RTVSPropertyOp8
 70
     1
102
RTVSPropertyOp9
 70
     1
102
RTVSPropertyOp10
 70
     1
102
RTVSPropertyOp11
 70
     1
102
RTVSPropertyOp12
 70
     1
102
RTVSPropertyOp13
 70
     1
102
RTVSPropertyOp14
 70
     1
102
RTVSPropertyOp15
 70
     1
102
RTVSPropertyOp16
 70
     1
102
RTVSPropertyOp17
 70
     1
102
RTVSPropertyOp18
 70
     1
102
RTVSPropertyOp19
 70
     1
102
RTVSPropertyOp20
 70
     1
102
RTVSPropertyOp21
 70
     1
102
RTVSPropertyOp22
 70
     1
102
RTVSPropertyOp23
 70
     1
102
RTVSPropertyOp24
 70
     1
102
RTVSPropertyOp25
 70
     1
102
RTVSPropertyOp26
 70
     1
102
RTVSPropertyOp27
 70
     1
102
RTVSPropertyOp28
 70
     1
102
RTVSPropertyOp29
 70
     1
102
RTVSPropertyOp30
 70
     1
102
RTVSPropertyOp31
 70
     1
102
RTVSPropertyOp32
 70
     1
  0
XRECORD
  5
EF
102
{ACAD_REACTORS
330
EE
102
}
330
EE
100
AcDbXrecord
280
     1
102
RTVSPropertyOp0
 70
     1
102
RTVSPropertyOp1
 70
     1
102
RTVSPropertyOp2
 70
     1
102
RTVSPropertyOp3
 70
     1
102
RTVSPropertyOp4
 70
     1
102
RTVSPropertyOp5
 70
     1
102
RTVSPropertyOp6
 70
     1
102
RTVSPropertyOp7
 70
     1
102
RTVSPropertyOp8
 70
     1
102
RTVSPropertyOp9
 70
     1
102
RTVSPropertyOp10
 70
     1
102
RTVSPropertyOp11
 70
     1
102
RTVSPropertyOp12
 70
     1
102
RTVSPropertyOp13
 70
     1
102
RTVSPropertyOp14
 70
     1
102
RTVSPropertyOp15
 70
     1
102
RTVSPropertyOp16
 70
     1
102
RTVSPropertyOp17
 70
     1
102
RTVSPropertyOp18
 70
     1
102
RTVSPropertyOp19
 70
     1
102
RTVSPropertyOp20
 70
     1
102
RTVSPropertyOp21
 70
     1
102
RTVSPropertyOp22
 70
     1
102
RTVSPropertyOp23
 70
     1
102
RTVSPropertyOp24
 70
     1
102
RTVSPropertyOp25
 70
     1
102
RTVSPropertyOp26
 70
     1
102
RTVSPropertyOp27
 70
     1
102
RTVSPropertyOp28
 70
     1
102
RTVSPropertyOp29
 70
     1
102
RTVSPropertyOp30
 70
     1
102
RTVSPropertyOp31
 70
     1
102
RTVSPropertyOp32
 70
     1
  0
XRECORD
  5
D3
102
{ACAD_REACTORS
330
D2
102
}
330
D2
100
AcDbXrecord
280
     1
102
RTVSPropertyOp0
 70
     1
102
RTVSPropertyOp1
 70
     1
102
RTVSPropertyOp2
 70
     1
102
RTVSPropertyOp3
 70
     1
102
RTVSPropertyOp4
 70
     1
102
RTVSPropertyOp5
 70
     1
102
RTVSPropertyOp6
 70
     1
102
RTVSPropertyOp7
 70
     1
102
RTVSPropertyOp8
 70
     1
102
RTVSPropertyOp9
 70
     1
102
RTVSPropertyOp10
 70
     1
102
RTVSPropertyOp11
 70
     1
102
RTVSPropertyOp12
 70
     1
102
RTVSPropertyOp13
 70
     1
102
RTVSPropertyOp14
 70
     1
102
RTVSPropertyOp15
 70
     1
102
RTVSPropertyOp16
 70
     1
102
RTVSPropertyOp17
 70
     1
102
RTVSPropertyOp18
 70
     1
102
RTVSPropertyOp19
 70
     1
102
RTVSPropertyOp20
 70
     1
102
RTVSPropertyOp21
 70
     1
102
RTVSPropertyOp22
 70
     1
102
RTVSPropertyOp23
 70
     1
102
RTVSPropertyOp24
 70
     1
102
RTVSPropertyOp25
 70
     1
102
RTVSPropertyOp26
 70
     1
102
RTVSPropertyOp27
 70
     1
102
RTVSPropertyOp28
 70
     1
102
RTVSPropertyOp29
 70
     1
102
RTVSPropertyOp30
 70
     1
102
RTVSPropertyOp31
 70
     1
102
RTVSPropertyOp32
 70
     1
  0
XRECORD
  5
D5
102
{ACAD_REACTORS
330
D4
102
}
330
D4
100
AcDbXrecord
280
     1
102
RTVSPropertyOp0
 70
     1
102
RTVSPropertyOp1
 70
     1
102
RTVSPropertyOp2
 70
     1
102
RTVSPropertyOp3
 70
     1
102
RTVSPropertyOp4
 70
     1
102
RTVSPropertyOp5
 70
     1
102
RTVSPropertyOp6
 70
     1
102
RTVSPropertyOp7
 70
     1
102
RTVSPropertyOp8
 70
     1
102
RTVSPropertyOp9
 70
     1
102
RTVSPropertyOp10
 70
     1
102
RTVSPropertyOp11
 70
     1
102
RTVSPropertyOp12
 70
     1
102
RTVSPropertyOp13
 70
     1
102
RTVSPropertyOp14
 70
     1
102
RTVSPropertyOp15
 70
     1
102
RTVSPropertyOp16
 70
     1
102
RTVSPropertyOp17
 70
     1
102
RTVSPropertyOp18
 70
     1
102
RTVSPropertyOp19
 70
     1
102
RTVSPropertyOp20
 70
     1
102
RTVSPropertyOp21
 70
     1
102
RTVSPropertyOp22
 70
     1
102
RTVSPropertyOp23
 70
     1
102
RTVSPropertyOp24
 70
     1
102
RTVSPropertyOp25
 70
     1
102
RTVSPropertyOp26
 70
     1
102
RTVSPropertyOp27
 70
     1
102
RTVSPropertyOp28
 70
     1
102
RTVSPropertyOp29
 70
     1
102
RTVSPropertyOp30
 70
     1
102
RTVSPropertyOp31
 70
     1
102
RTVSPropertyOp32
 70
     1
  0
XRECORD
  5
D7
102
{ACAD_REACTORS
330
D6
102
}
330
D6
100
AcDbXrecord
280
     1
102
RTVSPropertyOp0
 70
     1
102
RTVSPropertyOp1
 70
     1
102
RTVSPropertyOp2
 70
     1
102
RTVSPropertyOp3
 70
     1
102
RTVSPropertyOp4
 70
     1
102
RTVSPropertyOp5
 70
     1
102
RTVSPropertyOp6
 70
     1
102
RTVSPropertyOp7
 70
     1
102
RTVSPropertyOp8
 70
     1
102
RTVSPropertyOp9
 70
     1
102
RTVSPropertyOp10
 70
     1
102
RTVSPropertyOp11
 70
     1
102
RTVSPropertyOp12
 70
     1
102
RTVSPropertyOp13
 70
     1
102
RTVSPropertyOp14
 70
     1
102
RTVSPropertyOp15
 70
     1
102
RTVSPropertyOp16
 70
     1
102
RTVSPropertyOp17
 70
     1
102
RTVSPropertyOp18
 70
     1
102
RTVSPropertyOp19
 70
     1
102
RTVSPropertyOp20
 70
     1
102
RTVSPropertyOp21
 70
     1
102
RTVSPropertyOp22
 70
     1
102
RTVSPropertyOp23
 70
     1
102
RTVSPropertyOp24
 70
     1
102
RTVSPropertyOp25
 70
     1
102
RTVSPropertyOp26
 70
     1
102
RTVSPropertyOp27
 70
     1
102
RTVSPropertyOp28
 70
     1
102
RTVSPropertyOp29
 70
     1
102
RTVSPropertyOp30
 70
     1
102
RTVSPropertyOp31
 70
     1
102
RTVSPropertyOp32
 70
     1
  0
XRECORD
  5
D9
102
{ACAD_REACTORS
330
D8
102
}
330
D8
100
AcDbXrecord
280
     1
102
RTVSPropertyOp0
 70
     1
102
RTVSPropertyOp1
 70
     1
102
RTVSPropertyOp2
 70
     1
102
RTVSPropertyOp3
 70
     1
102
RTVSPropertyOp4
 70
     1
102
RTVSPropertyOp5
 70
     1
102
RTVSPropertyOp6
 70
     1
102
RTVSPropertyOp7
 70
     1
102
RTVSPropertyOp8
 70
     1
102
RTVSPropertyOp9
 70
     1
102
RTVSPropertyOp10
 70
     1
102
RTVSPropertyOp11
 70
     1
102
RTVSPropertyOp12
 70
     1
102
RTVSPropertyOp13
 70
     1
102
RTVSPropertyOp14
 70
     1
102
RTVSPropertyOp15
 70
     1
102
RTVSPropertyOp16
 70
     1
102
RTVSPropertyOp17
 70
     1
102
RTVSPropertyOp18
 70
     1
102
RTVSPropertyOp19
 70
     1
102
RTVSPropertyOp20
 70
     1
102
RTVSPropertyOp21
 70
     1
102
RTVSPropertyOp22
 70
     1
102
RTVSPropertyOp23
 70
     1
102
RTVSPropertyOp24
 70
     1
102
RTVSPropertyOp25
 70
     1
102
RTVSPropertyOp26
 70
     1
102
RTVSPropertyOp27
 70
     1
102
RTVSPropertyOp28
 70
     1
102
RTVSPropertyOp29
 70
     1
102
RTVSPropertyOp30
 70
     1
102
RTVSPropertyOp31
 70
     1
102
RTVSPropertyOp32
 70
     1
  0
XRECORD
  5
ED
102
{ACAD_REACTORS
330
EC
102
}
330
EC
100
AcDbXrecord
280
     1
102
RTVSPropertyOp0
 70
     1
102
RTVSPropertyOp1
 70
     1
102
RTVSPropertyOp2
 70
     1
102
RTVSPropertyOp3
 70
     1
102
RTVSPropertyOp4
 70
     1
102
RTVSPropertyOp5
 70
     1
102
RTVSPropertyOp6
 70
     1
102
RTVSPropertyOp7
 70
     1
102
RTVSPropertyOp8
 70
     1
102
RTVSPropertyOp9
 70
     1
102
RTVSPropertyOp10
 70
     1
102
RTVSPropertyOp11
 70
     1
102
RTVSPropertyOp12
 70
     1
102
RTVSPropertyOp13
 70
     1
102
RTVSPropertyOp14
 70
     1
102
RTVSPropertyOp15
 70
     1
102
RTVSPropertyOp16
 70
     1
102
RTVSPropertyOp17
 70
     1
102
RTVSPropertyOp18
 70
     1
102
RTVSPropertyOp19
 70
     1
102
RTVSPropertyOp20
 70
     1
102
RTVSPropertyOp21
 70
     1
102
RTVSPropertyOp22
 70
     1
102
RTVSPropertyOp23
 70
     1
102
RTVSPropertyOp24
 70
     1
102
RTVSPropertyOp25
 70
     1
102
RTVSPropertyOp26
 70
     1
102
RTVSPropertyOp27
 70
     1
102
RTVSPropertyOp28
 70
     1
102
RTVSPropertyOp29
 70
     1
102
RTVSPropertyOp30
 70
     1
102
RTVSPropertyOp31
 70
     1
102
RTVSPropertyOp32
 70
     1
  0
XRECORD
  5
E3
102
{ACAD_REACTORS
330
E2
102
}
330
E2
100
AcDbXrecord
280
     1
102
RTVSPropertyOp0
 70
     1
102
RTVSPropertyOp1
 70
     1
102
RTVSPropertyOp2
 70
     1
102
RTVSPropertyOp3
 70
     1
102
RTVSPropertyOp4
 70
     1
102
RTVSPropertyOp5
 70
     1
102
RTVSPropertyOp6
 70
     1
102
RTVSPropertyOp7
 70
     1
102
RTVSPropertyOp8
 70
     1
102
RTVSPropertyOp9
 70
     1
102
RTVSPropertyOp10
 70
     1
102
RTVSPropertyOp11
 70
     1
102
RTVSPropertyOp12
 70
     1
102
RTVSPropertyOp13
 70
     1
102
RTVSPropertyOp14
 70
     1
102
RTVSPropertyOp15
 70
     1
102
RTVSPropertyOp16
 70
     1
102
RTVSPropertyOp17
 70
     1
102
RTVSPropertyOp18
 70
     1
102
RTVSPropertyOp19
 70
     1
102
RTVSPropertyOp20
 70
     1
102
RTVSPropertyOp21
 70
     1
102
RTVSPropertyOp22
 70
     1
102
RTVSPropertyOp23
 70
     1
102
RTVSPropertyOp24
 70
     1
102
RTVSPropertyOp25
 70
     1
102
RTVSPropertyOp26
 70
     1
102
RTVSPropertyOp27
 70
     1
102
RTVSPropertyOp28
 70
     1
102
RTVSPropertyOp29
 70
     1
102
RTVSPropertyOp30
 70
     1
102
RTVSPropertyOp31
 70
     1
102
RTVSPropertyOp32
 70
     1
  0
XRECORD
  5
EB
102
{ACAD_REACTORS
330
EA
102
}
330
EA
100
AcDbXrecord
280
     1
102
RTVSPropertyOp0
 70
     1
102
RTVSPropertyOp1
 70
     1
102
RTVSPropertyOp2
 70
     1
102
RTVSPropertyOp3
 70
     1
102
RTVSPropertyOp4
 70
     1
102
RTVSPropertyOp5
 70
     1
102
RTVSPropertyOp6
 70
     1
102
RTVSPropertyOp7
 70
     1
102
RTVSPropertyOp8
 70
     1
102
RTVSPropertyOp9
 70
     1
102
RTVSPropertyOp10
 70
     1
102
RTVSPropertyOp11
 70
     1
102
RTVSPropertyOp12
 70
     1
102
RTVSPropertyOp13
 70
     1
102
RTVSPropertyOp14
 70
     1
102
RTVSPropertyOp15
 70
     1
102
RTVSPropertyOp16
 70
     1
102
RTVSPropertyOp17
 70
     1
102
RTVSPropertyOp18
 70
     1
102
RTVSPropertyOp19
 70
     1
102
RTVSPropertyOp20
 70
     1
102
RTVSPropertyOp21
 70
     1
102
RTVSPropertyOp22
 70
     1
102
RTVSPropertyOp23
 70
     1
102
RTVSPropertyOp24
 70
     1
102
RTVSPropertyOp25
 70
     1
102
RTVSPropertyOp26
 70
     1
102
RTVSPropertyOp27
 70
     1
102
RTVSPropertyOp28
 70
     1
102
RTVSPropertyOp29
 70
     1
102
RTVSPropertyOp30
 70
     1
102
RTVSPropertyOp31
 70
     1
102
RTVSPropertyOp32
 70
     1
  0
ENDSEC
  0
EOF
