  0
SECTION
  2
HEADER
  9
$ACADVER
  1
AC1021
  9
$ACADMAINTVER
 70
    25
  9
$DWGCODEPAGE
  3
ANSI_1256
  9
$INSBASE
 10
0.0
 20
0.0
 30
0.0
  9
$EXTMIN
 10
-187.3071
 20
-114.7585
 30
0.0
  9
$EXTMAX
 10
5.3255
 20
132.075
 30
0.0
  9
$LIMMIN
 10
0.0
 20
0.0
  9
$LIMMAX
 10
12.0
 20
9.0
  9
$ORTHOMODE
 70
     0
  9
$REGENMODE
 70
     1
  9
$FILLMODE
 70
     1
  9
$QTEXTMODE
 70
     0
  9
$MIRRTEXT
 70
     1
  9
$LTSCALE
 40
1.0
  9
$ATTMODE
 70
     1
  9
$TEXTSIZE
 40
0.2
  9
$TRACEWID
 40
0.05
  9
$TEXTSTYLE
  7
Standard
  9
$CLAYER
  8
0
  9
$CELTYPE
  6
ByLayer
  9
$CECOLOR
 62
   256
  9
$CELTSCALE
 40
1.0
  9
$DISPSILH
 70
     0
  9
$DIMSCALE
 40
1.0
  9
$DIMASZ
 40
0.18
  9
$DIMEXO
 40
0.0625
  9
$DIMDLI
 40
0.38
  9
$DIMRND
 40
0.0
  9
$DIMDLE
 40
0.0
  9
$DIMEXE
 40
0.18
  9
$DIMTP
 40
0.0
  9
$DIMTM
 40
0.0
  9
$DIMTXT
 40
0.18
  9
$DIMCEN
 40
0.09
  9
$DIMTSZ
 40
0.0
  9
$DIMTOL
 70
     0
  9
$DIMLIM
 70
     0
  9
$DIMTIH
 70
     1
  9
$DIMTOH
 70
     1
  9
$DIMSE1
 70
     0
  9
$DIMSE2
 70
     0
  9
$DIMTAD
 70
     0
  9
$DIMZIN
 70
     0
  9
$DIMBLK
  1

  9
$DIMASO
 70
     1
  9
$DIMSHO
 70
     1
  9
$DIMPOST
  1

  9
$DIMAPOST
  1

  9
$DIMALT
 70
     0
  9
$DIMALTD
 70
     2
  9
$DIMALTF
 40
25.4
  9
$DIMLFAC
 40
1.0
  9
$DIMTOFL
 70
     0
  9
$DIMTVP
 40
0.0
  9
$DIMTIX
 70
     0
  9
$DIMSOXD
 70
     0
  9
$DIMSAH
 70
     0
  9
$DIMBLK1
  1

  9
$DIMBLK2
  1

  9
$DIMSTYLE
  2
Standard
  9
$DIMCLRD
 70
     0
  9
$DIMCLRE
 70
     0
  9
$DIMCLRT
 70
     0
  9
$DIMTFAC
 40
1.0
  9
$DIMGAP
 40
0.09
  9
$DIMJUST
 70
     0
  9
$DIMSD1
 70
     0
  9
$DIMSD2
 70
     0
  9
$DIMTOLJ
 70
     1
  9
$DIMTZIN
 70
     0
  9
$DIMALTZ
 70
     0
  9
$DIMALTTZ
 70
     0
  9
$DIMUPT
 70
     0
  9
$DIMDEC
 70
     4
  9
$DIMTDEC
 70
     4
  9
$DIMALTU
 70
     2
  9
$DIMALTTD
 70
     2
  9
$DIMTXSTY
  7
Standard
  9
$DIMAUNIT
 70
     0
  9
$DIMADEC
 70
     0
  9
$DIMALTRND
 40
0.0
  9
$DIMAZIN
 70
     0
  9
$DIMDSEP
 70
    46
  9
$DIMATFIT
 70
     3
  9
$DIMFRAC
 70
     0
  9
$DIMLDRBLK
  1

  9
$DIMLUNIT
 70
     2
  9
$DIMLWD
 70
    -2
  9
$DIMLWE
 70
    -2
  9
$DIMTMOVE
 70
     0
  9
$DIMFXL
 40
1.0
  9
$DIMFXLON
 70
     0
  9
$DIMJOGANG
 40
0.7853981633974483
  9
$DIMTFILL
 70
     0
  9
$DIMTFILLCLR
 70
     0
  9
$DIMARCSYM
 70
     0
  9
$DIMLTYPE
  6

  9
$DIMLTEX1
  6

  9
$DIMLTEX2
  6

  9
$LUNITS
 70
     2
  9
$LUPREC
 70
     4
  9
$SKETCHINC
 40
0.1
  9
$FILLETRAD
 40
0.5
  9
$AUNITS
 70
     0
  9
$AUPREC
 70
     0
  9
$MENU
  1
.
  9
$ELEVATION
 40
0.0
  9
$PELEVATION
 40
0.0
  9
$THICKNESS
 40
0.0
  9
$LIMCHECK
 70
     0
  9
$CHAMFERA
 40
0.5
  9
$CHAMFERB
 40
0.5
  9
$CHAMFERC
 40
1.0
  9
$CHAMFERD
 40
0.0
  9
$SKPOLY
 70
     0
  9
$TDCREATE
 40
2458492.405229086
  9
$TDUCREATE
 40
2458492.238562419
  9
$TDUPDATE
 40
2458492.40522919
  9
$TDUUPDATE
 40
2458492.238562523
  9
$TDINDWG
 40
0.0000000116
  9
$TDUSRTIMER
 40
0.0000000116
  9
$USRTIMER
 70
     1
  9
$ANGBASE
 50
0.0
  9
$ANGDIR
 70
     0
  9
$PDMODE
 70
     0
  9
$PDSIZE
 40
0.0
  9
$PLINEWID
 40
0.0
  9
$SPLFRAME
 70
     0
  9
$SPLINETYPE
 70
     6
  9
$SPLINESEGS
 70
     8
  9
$HANDSEED
  5
9E
  9
$SURFTAB1
 70
     6
  9
$SURFTAB2
 70
     6
  9
$SURFTYPE
 70
     6
  9
$SURFU
 70
     6
  9
$SURFV
 70
     6
  9
$UCSBASE
  2

  9
$UCSNAME
  2

  9
$UCSORG
 10
0.0
 20
0.0
 30
0.0
  9
$UCSXDIR
 10
1.0
 20
0.0
 30
0.0
  9
$UCSYDIR
 10
0.0
 20
1.0
 30
0.0
  9
$UCSORTHOREF
  2

  9
$UCSORTHOVIEW
 70
     0
  9
$UCSORGTOP
 10
0.0
 20
0.0
 30
0.0
  9
$UCSORGBOTTOM
 10
0.0
 20
0.0
 30
0.0
  9
$UCSORGLEFT
 10
0.0
 20
0.0
 30
0.0
  9
$UCSORGRIGHT
 10
0.0
 20
0.0
 30
0.0
  9
$UCSORGFRONT
 10
0.0
 20
0.0
 30
0.0
  9
$UCSORGBACK
 10
0.0
 20
0.0
 30
0.0
  9
$PUCSBASE
  2

  9
$PUCSNAME
  2

  9
$PUCSORG
 10
0.0
 20
0.0
 30
0.0
  9
$PUCSXDIR
 10
1.0
 20
0.0
 30
0.0
  9
$PUCSYDIR
 10
0.0
 20
1.0
 30
0.0
  9
$PUCSORTHOREF
  2

  9
$PUCSORTHOVIEW
 70
     0
  9
$PUCSORGTOP
 10
0.0
 20
0.0
 30
0.0
  9
$PUCSORGBOTTOM
 10
0.0
 20
0.0
 30
0.0
  9
$PUCSORGLEFT
 10
0.0
 20
0.0
 30
0.0
  9
$PUCSORGRIGHT
 10
0.0
 20
0.0
 30
0.0
  9
$PUCSORGFRONT
 10
0.0
 20
0.0
 30
0.0
  9
$PUCSORGBACK
 10
0.0
 20
0.0
 30
0.0
  9
$USERI1
 70
     0
  9
$USERI2
 70
     0
  9
$USERI3
 70
     0
  9
$USERI4
 70
     0
  9
$USERI5
 70
     0
  9
$USERR1
 40
0.0
  9
$USERR2
 40
0.0
  9
$USERR3
 40
0.0
  9
$USERR4
 40
0.0
  9
$USERR5
 40
0.0
  9
$WORLDVIEW
 70
     1
  9
$SHADEDGE
 70
     3
  9
$SHADEDIF
 70
    70
  9
$TILEMODE
 70
     1
  9
$MAXACTVP
 70
    64
  9
$PINSBASE
 10
0.0
 20
0.0
 30
0.0
  9
$PLIMCHECK
 70
     0
  9
$PEXTMIN
 10
1.000000000000000E+20
 20
1.000000000000000E+20
 30
1.000000000000000E+20
  9
$PEXTMAX
 10
-1.000000000000000E+20
 20
-1.000000000000000E+20
 30
-1.000000000000000E+20
  9
$PLIMMIN
 10
0.0
 20
0.0
  9
$PLIMMAX
 10
12.0
 20
9.0
  9
$UNITMODE
 70
     0
  9
$VISRETAIN
 70
     1
  9
$PLINEGEN
 70
     0
  9
$PSLTSCALE
 70
     1
  9
$TREEDEPTH
 70
  3020
  9
$CMLSTYLE
  2
Standard
  9
$CMLJUST
 70
     0
  9
$CMLSCALE
 40
1.0
  9
$PROXYGRAPHICS
 70
     1
  9
$MEASUREMENT
 70
     0
  9
$CELWEIGHT
370
    -1
  9
$ENDCAPS
280
     0
  9
$JOINSTYLE
280
     0
  9
$LWDISPLAY
290
     0
  9
$INSUNITS
 70
     4
  9
$HYPERLINKBASE
  1

  9
$STYLESHEET
  1

  9
$XEDIT
290
     1
  9
$CEPSNTYPE
380
     0
  9
$PSTYLEMODE
290
     1
  9
$FINGERPRINTGUID
  2
{FF840CE5-F380-404B-8F26-FA7C9382A9E1}
  9
$VERSIONGUID
  2
{FAEB1C32-E019-11D5-929B-00C0DF256EC4}
  9
$EXTNAMES
290
     1
  9
$PSVPSCALE
 40
0.0
  9
$OLESTARTUP
290
     0
  9
$SORTENTS
280
   127
  9
$INDEXCTL
280
     0
  9
$HIDETEXT
280
     1
  9
$XCLIPFRAME
290
     0
  9
$HALOGAP
280
     0
  9
$OBSCOLOR
 70
   257
  9
$OBSLTYPE
280
     0
  9
$INTERSECTIONDISPLAY
280
     0
  9
$INTERSECTIONCOLOR
 70
   257
  9
$DIMASSOC
280
     2
  9
$PROJECTNAME
  1

  9
$CAMERADISPLAY
290
     0
  9
$LENSLENGTH
 40
50.0
  9
$CAMERAHEIGHT
 40
0.0
  9
$STEPSPERSEC
 40
2.0
  9
$STEPSIZE
 40
6.0
  9
$3DDWFPREC
 40
2.0
  9
$PSOLWIDTH
 40
0.25
  9
$PSOLHEIGHT
 40
4.0
  9
$LOFTANG1
 40
1.570796326794897
  9
$LOFTANG2
 40
1.570796326794897
  9
$LOFTMAG1
 40
0.0
  9
$LOFTMAG2
 40
0.0
  9
$LOFTPARAM
 70
     7
  9
$LOFTNORMALS
280
     1
  9
$LATITUDE
 40
37.795
  9
$LONGITUDE
 40
-122.394
  9
$NORTHDIRECTION
 40
0.0
  9
$TIMEZONE
 70
 -8000
  9
$LIGHTGLYPHDISPLAY
280
     1
  9
$TILEMODELIGHTSYNCH
280
     1
  9
$SOLIDHIST
280
     1
  9
$SHOWHIST
280
     1
  9
$DWFFRAME
280
     2
  9
$DGNFRAME
280
     2
  9
$REALWORLDSCALE
290
     1
  9
$INTERFERECOLOR
 62
   256
  9
$CSHADOW
280
     0
  9
$SHADOWPLANELOCATION
 40
0.0
  0
ENDSEC
  0
SECTION
  2
CLASSES
  0
CLASS
  1
ACDBDICTIONARYWDFLT
  2
AcDbDictionaryWithDefault
  3
ObjectDBX Classes
 90
        0
 91
        4
280
     0
281
     0
  0
CLASS
  1
VISUALSTYLE
  2
AcDbVisualStyle
  3
ObjectDBX Classes
 90
     4095
 91
        4
280
     0
281
     0
  0
CLASS
  1
MATERIAL
  2
AcDbMaterial
  3
ObjectDBX Classes
 90
     1153
 91
        4
280
     0
281
     0
  0
ENDSEC
  0
SECTION
  2
TABLES
  0
TABLE
  2
VPORT
  5
8
330
0
100
AcDbSymbolTable
 70
     1
  0
VPORT
  5
29
330
8
100
AcDbSymbolTableRecord
100
AcDbViewportTableRecord
  2
*Active
 70
     0
 10
0.0
 20
0.0
 11
1.0
 21
1.0
 12
10.42990654205607
 22
4.5
 13
0.0
 23
0.0
 14
0.5
 24
0.5
 15
0.5
 25
0.5
 16
0.0
 26
0.0
 36
1.0
 17
0.0
 27
0.0
 37
0.0
 40
9.0
 41
1.972972972850329
 42
50.0
 43
0.0
 44
0.0
 50
0.0
 51
0.0
 71
     0
 72
   100
 73
     1
 74
     3
 75
     0
 76
     0
 77
     0
 78
     0
281
     0
 65
     1
110
0.0
120
0.0
130
0.0
111
1.0
121
0.0
131
0.0
112
0.0
122
1.0
132
0.0
 79
     0
146
0.0
 60
     3
 61
     5
292
     1
282
     1
141
0.0
142
0.0
 63
   250
  0
ENDTAB
  0
TABLE
  2
LTYPE
  5
5
330
0
100
AcDbSymbolTable
 70
     1
  0
LTYPE
  5
14
330
5
100
AcDbSymbolTableRecord
100
AcDbLinetypeTableRecord
  2
ByBlock
 70
     0
  3

 72
    65
 73
     0
 40
0.0
  0
LTYPE
  5
15
330
5
100
AcDbSymbolTableRecord
100
AcDbLinetypeTableRecord
  2
ByLayer
 70
     0
  3

 72
    65
 73
     0
 40
0.0
  0
LTYPE
  5
16
330
5
100
AcDbSymbolTableRecord
100
AcDbLinetypeTableRecord
  2
Continuous
 70
     0
  3
Solid line
 72
    65
 73
     0
 40
0.0
  0
ENDTAB
  0
TABLE
  2
LAYER
  5
2
330
0
100
AcDbSymbolTable
 70
     2
  0
LAYER
  5
10
330
2
100
AcDbSymbolTableRecord
100
AcDbLayerTableRecord
  2
0
 70
     0
 62
     7
  6
Continuous
370
    -3
390
F
347
3E
  0
LAYER
  5
40
330
2
100
AcDbSymbolTableRecord
100
AcDbLayerTableRecord
  2
layer 1
 70
     0
 62
     7
  6
Continuous
370
    -3
390
F
347
3E
  0
ENDTAB
  0
TABLE
  2
STYLE
  5
3
330
0
100
AcDbSymbolTable
 70
     1
  0
STYLE
  5
11
330
3
100
AcDbSymbolTableRecord
100
AcDbTextStyleTableRecord
  2
Standard
 70
     0
 40
0.0
 41
1.0
 50
0.0
 71
     0
 42
0.2
  3
txt
  4

  0
ENDTAB
  0
TABLE
  2
VIEW
  5
6
330
0
100
AcDbSymbolTable
 70
     0
  0
ENDTAB
  0
TABLE
  2
UCS
  5
7
330
0
100
AcDbSymbolTable
 70
     0
  0
ENDTAB
  0
TABLE
  2
APPID
  5
9
330
0
100
AcDbSymbolTable
 70
     2
  0
APPID
  5
12
330
9
100
AcDbSymbolTableRecord
100
AcDbRegAppTableRecord
  2
ACAD
 70
     0
  0
APPID
  5
3F
330
9
100
AcDbSymbolTableRecord
100
AcDbRegAppTableRecord
  2
ODA
 70
     0
  0
ENDTAB
  0
TABLE
  2
DIMSTYLE
  5
A
330
0
100
AcDbSymbolTable
 70
     1
100
AcDbDimStyleTable
  0
DIMSTYLE
105
27
330
A
100
AcDbSymbolTableRecord
100
AcDbDimStyleTableRecord
  2
Standard
 70
     0
178
     0
340
11
  0
ENDTAB
  0
TABLE
  2
BLOCK_RECORD
  5
1
330
0
100
AcDbSymbolTable
 70
     1
  0
BLOCK_RECORD
  5
1F
330
1
100
AcDbSymbolTableRecord
100
AcDbBlockTableRecord
  2
*Model_Space
340
22
 70
     0
280
     1
281
     0
  0
BLOCK_RECORD
  5
1B
330
1
100
AcDbSymbolTableRecord
100
AcDbBlockTableRecord
  2
*Paper_Space
340
1E
 70
     0
280
     1
281
     0
  0
BLOCK_RECORD
  5
23
330
1
100
AcDbSymbolTableRecord
100
AcDbBlockTableRecord
  2
*Paper_Space0
340
26
 70
     0
280
     1
281
     0
  0
ENDTAB
  0
ENDSEC
  0
SECTION
  2
BLOCKS
  0
BLOCK
  5
20
330
1F
100
AcDbEntity
  8
0
100
AcDbBlockBegin
  2
*Model_Space
 70
     0
 10
0.0
 20
0.0
 30
0.0
  3
*Model_Space
  1

  0
ENDBLK
  5
21
330
1F
100
AcDbEntity
  8
0
100
AcDbBlockEnd
  0
BLOCK
  5
1C
330
1B
100
AcDbEntity
 67
     1
  8
0
100
AcDbBlockBegin
  2
*Paper_Space
 70
     0
 10
0.0
 20
0.0
 30
0.0
  3
*Paper_Space
  1

  0
ENDBLK
  5
1D
330
1B
100
AcDbEntity
 67
     1
  8
0
100
AcDbBlockEnd
  0
BLOCK
  5
24
330
23
100
AcDbEntity
  8
0
100
AcDbBlockBegin
  2
*Paper_Space0
 70
     0
 10
0.0
 20
0.0
 30
0.0
  3
*Paper_Space0
  1

  0
ENDBLK
  5
25
330
23
100
AcDbEntity
  8
0
100
AcDbBlockEnd
  0
ENDSEC
  0
SECTION
  2
ENTITIES
  0
LWPOLYLINE
  5
41
330
1F
100
AcDbEntity
  8
layer 1
100
AcDbPolyline
 90
        5
 70
     1
 43
0.0
 10
-187.3071
 20
-114.7585
 10
-95.0551
 20
-114.7585
 10
-95.0551
 20
132.0749
 10
-187.3071
 20
132.0749
 10
-187.3071
 20
-114.7585
  0
SPLINE
  5
42
330
1F
100
AcDbEntity
  8
layer 1
 62
     7
100
AcDbSpline
210
0.0
220
0.0
230
1.0
 70
    11
 71
     3
 72
    48
 73
    44
 74
     0
 42
0.0000000001
 43
0.0000000001
 12
1.0
 22
0.0
 32
0.0
 13
1.0
 23
0.0
 33
0.0
 40
0.0
 40
0.0
 40
0.0
 40
0.0
 40
0.0833333333333333
 40
0.0833333333333333
 40
0.0833333333333333
 40
0.0833333333333333
 40
0.1666666666666667
 40
0.1666666666666667
 40
0.1666666666666667
 40
0.1666666666666667
 40
0.25
 40
0.25
 40
0.25
 40
0.25
 40
0.3333333333333333
 40
0.3333333333333333
 40
0.3333333333333333
 40
0.3333333333333333
 40
0.4166666666666667
 40
0.4166666666666667
 40
0.4166666666666667
 40
0.4166666666666667
 40
0.5
 40
0.5
 40
0.5
 40
0.5
 40
0.5833333333333334
 40
0.5833333333333334
 40
0.5833333333333334
 40
0.5833333333333334
 40
0.6666666666666666
 40
0.6666666666666666
 40
0.6666666666666666
 40
0.6666666666666666
 40
0.75
 40
0.75
 40
0.75
 40
0.75
 40
0.8333333333333334
 40
0.8333333333333334
 40
0.8333333333333334
 40
0.8333333333333334
 40
1.0
 40
1.0
 40
1.0
 40
1.0
 10
-177.7152
 20
-107.6382
 30
0.0
 10
-172.7418
 20
-104.9788
 30
0.0
 10
-168.0759
 20
-104.6279
 30
0.0
 10
-163.4188
 20
-106.5629
 30
0.0
 10
-163.4188
 20
-106.5629
 30
0.0
 10
-160.6114
 20
-107.7295
 30
0.0
 10
-159.2163
 20
-107.8502
 30
0.0
 10
-157.8895
 20
-107.0411
 30
0.0
 10
-157.8895
 20
-107.0411
 30
0.0
 10
-156.6571
 20
-106.2897
 30
0.0
 10
-156.1983
 20
-105.2894
 30
0.0
 10
-155.8205
 20
-102.5291
 30
0.0
 10
-155.8205
 20
-102.5291
 30
0.0
 10
-154.5219
 20
-96.4434
 30
0.0
 10
-152.5384
 20
-93.563
 30
0.0
 10
-148.0556
 20
-90.6042
 30
0.0
 10
-148.0556
 20
-90.6042
 30
0.0
 10
-146.129
 20
-89.3391
 30
0.0
 10
-143.972
 20
-88.1603
 30
0.0
 10
-143.5063
 20
-88.5037
 30
0.0
 10
-143.5063
 20
-88.5037
 30
0.0
 10
-143.3342
 20
-90.2102
 30
0.0
 10
-143.2629
 20
-92.0659
 30
0.0
 10
-143.3699
 20
-93.8566
 30
0.0
 10
-143.3699
 20
-93.8566
 30
0.0
 10
-143.6669
 20
-99.5243
 30
0.0
 10
-146.5385
 20
-103.4679
 30
0.0
 10
-149.9218
 20
-106.1498
 30
0.0
 10
-149.9218
 20
-106.1498
 30
0.0
 10
-152.0265
 20
-107.8036
 30
0.0
 10
-152.6853
 20
-108.7734
 30
0.0
 10
-152.6837
 20
-110.2154
 30
0.0
 10
-152.6837
 20
-110.2154
 30
0.0
 10
-152.6837
 20
-110.2154
 30
0.0
 10
-181.5973
 20
-110.177
 30
0.0
 10
-181.5973
 20
-110.177
 30
0.0
 10
-181.5973
 20
-110.177
 30
0.0
 10
-180.3689
 20
-109.145
 30
0.0
 10
-178.9408
 20
-108.2976
 30
0.0
 10
-177.7153
 20
-107.6381
 30
0.0
 10
-177.7153
 20
-107.6381
 30
0.0
 10
-177.7153
 20
-107.6381
 30
0.0
 10
-177.7152
 20
-107.6382
 30
0.0
 10
-177.7152
 20
-107.6382
 30
0.0
  0
SPLINE
  5
43
330
1F
100
AcDbEntity
  8
layer 1
 62
     7
100
AcDbSpline
210
0.0
220
0.0
230
1.0
 70
    11
 71
     3
 72
    48
 73
    44
 74
     0
 42
0.0000000001
 43
0.0000000001
 12
1.0
 22
0.0
 32
0.0
 13
1.0
 23
0.0
 33
0.0
 40
0.0
 40
0.0
 40
0.0
 40
0.0
 40
0.0833333333333333
 40
0.0833333333333333
 40
0.0833333333333333
 40
0.0833333333333333
 40
0.1666666666666667
 40
0.1666666666666667
 40
0.1666666666666667
 40
0.1666666666666667
 40
0.25
 40
0.25
 40
0.25
 40
0.25
 40
0.3333333333333333
 40
0.3333333333333333
 40
0.3333333333333333
 40
0.3333333333333333
 40
0.4166666666666667
 40
0.4166666666666667
 40
0.4166666666666667
 40
0.4166666666666667
 40
0.5
 40
0.5
 40
0.5
 40
0.5
 40
0.5833333333333334
 40
0.5833333333333334
 40
0.5833333333333334
 40
0.5833333333333334
 40
0.6666666666666666
 40
0.6666666666666666
 40
0.6666666666666666
 40
0.6666666666666666
 40
0.75
 40
0.75
 40
0.75
 40
0.75
 40
0.8333333333333334
 40
0.8333333333333334
 40
0.8333333333333334
 40
0.8333333333333334
 40
1.0
 40
1.0
 40
1.0
 40
1.0
 10
-104.453
 20
-107.6382
 30
0.0
 10
-109.4264
 20
-104.9788
 30
0.0
 10
-114.0922
 20
-104.6279
 30
0.0
 10
-118.7493
 20
-106.5629
 30
0.0
 10
-118.7493
 20
-106.5629
 30
0.0
 10
-121.5568
 20
-107.7295
 30
0.0
 10
-122.9519
 20
-107.8502
 30
0.0
 10
-124.2787
 20
-107.0411
 30
0.0
 10
-124.2787
 20
-107.0411
 30
0.0
 10
-125.5111
 20
-106.2897
 30
0.0
 10
-125.9698
 20
-105.2894
 30
0.0
 10
-126.3477
 20
-102.5291
 30
0.0
 10
-126.3477
 20
-102.5291
 30
0.0
 10
-127.6462
 20
-96.4434
 30
0.0
 10
-129.6298
 20
-93.563
 30
0.0
 10
-134.1126
 20
-90.6042
 30
0.0
 10
-134.1126
 20
-90.6042
 30
0.0
 10
-136.0392
 20
-89.3391
 30
0.0
 10
-138.1962
 20
-88.1603
 30
0.0
 10
-138.6619
 20
-88.5037
 30
0.0
 10
-138.6619
 20
-88.5037
 30
0.0
 10
-138.834
 20
-90.2102
 30
0.0
 10
-138.9052
 20
-92.0659
 30
0.0
 10
-138.7983
 20
-93.8566
 30
0.0
 10
-138.7983
 20
-93.8566
 30
0.0
 10
-138.5012
 20
-99.5243
 30
0.0
 10
-135.6297
 20
-103.4679
 30
0.0
 10
-132.2463
 20
-106.1498
 30
0.0
 10
-132.2463
 20
-106.1498
 30
0.0
 10
-130.1416
 20
-107.8036
 30
0.0
 10
-129.4828
 20
-108.7734
 30
0.0
 10
-129.4845
 20
-110.2154
 30
0.0
 10
-129.4845
 20
-110.2154
 30
0.0
 10
-129.4845
 20
-110.2154
 30
0.0
 10
-100.5708
 20
-110.177
 30
0.0
 10
-100.5708
 20
-110.177
 30
0.0
 10
-100.5708
 20
-110.177
 30
0.0
 10
-101.7993
 20
-109.145
 30
0.0
 10
-103.2274
 20
-108.2976
 30
0.0
 10
-104.4529
 20
-107.6381
 30
0.0
 10
-104.4529
 20
-107.6381
 30
0.0
 10
-104.4529
 20
-107.6381
 30
0.0
 10
-104.453
 20
-107.6382
 30
0.0
 10
-104.453
 20
-107.6382
 30
0.0
  0
SPLINE
  5
44
330
1F
100
AcDbEntity
  8
layer 1
 62
     7
100
AcDbSpline
210
0.0
220
0.0
230
1.0
 70
    11
 71
     3
 72
    80
 73
    76
 74
     0
 42
0.0000000001
 43
0.0000000001
 12
1.0
 22
0.0
 32
0.0
 13
1.0
 23
0.0
 33
0.0
 40
0.0
 40
0.0
 40
0.0
 40
0.0
 40
0.05
 40
0.05
 40
0.05
 40
0.05
 40
0.1
 40
0.1
 40
0.1
 40
0.1
 40
0.15
 40
0.15
 40
0.15
 40
0.15
 40
0.2
 40
0.2
 40
0.2
 40
0.2
 40
0.25
 40
0.25
 40
0.25
 40
0.25
 40
0.3
 40
0.3
 40
0.3
 40
0.3
 40
0.35
 40
0.35
 40
0.35
 40
0.35
 40
0.4
 40
0.4
 40
0.4
 40
0.4
 40
0.45
 40
0.45
 40
0.45
 40
0.45
 40
0.5
 40
0.5
 40
0.5
 40
0.5
 40
0.55
 40
0.55
 40
0.55
 40
0.55
 40
0.6
 40
0.6
 40
0.6
 40
0.6
 40
0.65
 40
0.65
 40
0.65
 40
0.65
 40
0.7
 40
0.7
 40
0.7
 40
0.7
 40
0.75
 40
0.75
 40
0.75
 40
0.75
 40
0.8
 40
0.8
 40
0.8
 40
0.8
 40
0.85
 40
0.85
 40
0.85
 40
0.85
 40
0.9
 40
0.9
 40
0.9
 40
0.9
 40
1.0
 40
1.0
 40
1.0
 40
1.0
 10
-101.2164
 20
-104.9349
 30
0.0
 10
-107.2887
 20
-101.393
 30
0.0
 10
-109.3092
 20
-97.612
 30
0.0
 10
-110.0559
 20
-92.5246
 30
0.0
 10
-110.0559
 20
-92.5246
 30
0.0
 10
-110.4099
 20
-90.4645
 30
0.0
 10
-110.6599
 20
-88.4205
 30
0.0
 10
-112.3435
 20
-87.4199
 30
0.0
 10
-112.3435
 20
-87.4199
 30
0.0
 10
-113.9378
 20
-85.7447
 30
0.0
 10
-118.3645
 20
-88.2263
 30
0.0
 10
-119.4821
 20
-88.6331
 30
0.0
 10
-119.4821
 20
-88.6331
 30
0.0
 10
-124.2253
 20
-89.7972
 30
0.0
 10
-127.7456
 20
-89.1043
 30
0.0
 10
-131.6596
 20
-87.0849
 30
0.0
 10
-131.6596
 20
-87.0849
 30
0.0
 10
-133.1442
 20
-86.3136
 30
0.0
 10
-134.5449
 20
-85.4118
 30
0.0
 10
-135.8372
 20
-84.3224
 30
0.0
 10
-135.8372
 20
-84.3224
 30
0.0
 10
-134.6508
 20
-83.2925
 30
0.0
 10
-133.2228
 20
-82.4452
 30
0.0
 10
-131.9973
 20
-81.7856
 30
0.0
 10
-131.9973
 20
-81.7856
 30
0.0
 10
-127.0239
 20
-79.1262
 30
0.0
 10
-122.358
 20
-78.7753
 30
0.0
 10
-117.7009
 20
-80.7104
 30
0.0
 10
-117.7009
 20
-80.7104
 30
0.0
 10
-114.8935
 20
-81.8769
 30
0.0
 10
-113.4984
 20
-81.9976
 30
0.0
 10
-112.1716
 20
-81.1886
 30
0.0
 10
-112.1716
 20
-81.1886
 30
0.0
 10
-110.9392
 20
-80.4371
 30
0.0
 10
-110.4804
 20
-79.4369
 30
0.0
 10
-110.1026
 20
-76.6765
 30
0.0
 10
-110.1026
 20
-76.6765
 30
0.0
 10
-108.804
 20
-70.5908
 30
0.0
 10
-106.8205
 20
-67.7105
 30
0.0
 10
-102.3377
 20
-64.7516
 30
0.0
 10
-102.3377
 20
-64.7516
 30
0.0
 10
-100.4111
 20
-63.4865
 30
0.0
 10
-98.2541
 20
-62.3077
 30
0.0
 10
-97.7884
 20
-62.6511
 30
0.0
 10
-97.7884
 20
-62.6511
 30
0.0
 10
-97.6163
 20
-64.3576
 30
0.0
 10
-97.545
 20
-66.2134
 30
0.0
 10
-97.652
 20
-68.004
 30
0.0
 10
-97.652
 20
-68.004
 30
0.0
 10
-97.949
 20
-73.6718
 30
0.0
 10
-100.8206
 20
-77.6153
 30
0.0
 10
-104.2039
 20
-80.2972
 30
0.0
 10
-104.2039
 20
-80.2972
 30
0.0
 10
-106.3086
 20
-81.9511
 30
0.0
 10
-106.9674
 20
-82.9209
 30
0.0
 10
-106.9658
 20
-84.3628
 30
0.0
 10
-106.9658
 20
-84.3628
 30
0.0
 10
-106.9644
 20
-85.7221
 30
0.0
 10
-106.138
 20
-86.8795
 30
0.0
 10
-103.8868
 20
-88.6757
 30
0.0
 10
-103.8868
 20
-88.6757
 30
0.0
 10
-99.1369
 20
-92.4655
 30
0.0
 10
-97.4941
 20
-96.119
 30
0.0
 10
-97.6427
 20
-102.5613
 30
0.0
 10
-97.6427
 20
-102.5613
 30
0.0
 10
-97.6885
 20
-104.543
 30
0.0
 10
-97.844
 20
-106.0579
 30
0.0
 10
-98.007
 20
-106.1102
 30
0.0
 10
-98.007
 20
-106.1102
 30
0.0
 10
-98.1634
 20
-106.1606
 30
0.0
 10
-100.403
 20
-105.3175
 30
0.0
 10
-101.2164
 20
-104.9347
 30
0.0
 10
-101.2164
 20
-104.9347
 30
0.0
 10
-101.2164
 20
-104.9347
 30
0.0
 10
-101.2164
 20
-104.9349
 30
0.0
 10
-101.2164
 20
-104.9349
 30
0.0
  0
SPLINE
  5
45
330
1F
100
AcDbEntity
  8
layer 1
 62
     7
100
AcDbSpline
210
0.0
220
0.0
230
1.0
 70
    11
 71
     3
 72
    80
 73
    76
 74
     0
 42
0.0000000001
 43
0.0000000001
 12
1.0
 22
0.0
 32
0.0
 13
1.0
 23
0.0
 33
0.0
 40
0.0
 40
0.0
 40
0.0
 40
0.0
 40
0.05
 40
0.05
 40
0.05
 40
0.05
 40
0.1
 40
0.1
 40
0.1
 40
0.1
 40
0.15
 40
0.15
 40
0.15
 40
0.15
 40
0.2
 40
0.2
 40
0.2
 40
0.2
 40
0.25
 40
0.25
 40
0.25
 40
0.25
 40
0.3
 40
0.3
 40
0.3
 40
0.3
 40
0.35
 40
0.35
 40
0.35
 40
0.35
 40
0.4
 40
0.4
 40
0.4
 40
0.4
 40
0.45
 40
0.45
 40
0.45
 40
0.45
 40
0.5
 40
0.5
 40
0.5
 40
0.5
 40
0.55
 40
0.55
 40
0.55
 40
0.55
 40
0.6
 40
0.6
 40
0.6
 40
0.6
 40
0.65
 40
0.65
 40
0.65
 40
0.65
 40
0.7
 40
0.7
 40
0.7
 40
0.7
 40
0.75
 40
0.75
 40
0.75
 40
0.75
 40
0.8
 40
0.8
 40
0.8
 40
0.8
 40
0.85
 40
0.85
 40
0.85
 40
0.85
 40
0.9
 40
0.9
 40
0.9
 40
0.9
 40
1.0
 40
1.0
 40
1.0
 40
1.0
 10
-181.0193
 20
-104.6628
 30
0.0
 10
-174.9469
 20
-101.1209
 30
0.0
 10
-172.9265
 20
-97.34
 30
0.0
 10
-172.1798
 20
-92.2525
 30
0.0
 10
-172.1798
 20
-92.2525
 30
0.0
 10
-171.8258
 20
-90.1924
 30
0.0
 10
-171.5758
 20
-88.1484
 30
0.0
 10
-169.8922
 20
-87.1478
 30
0.0
 10
-169.8922
 20
-87.1478
 30
0.0
 10
-168.2979
 20
-85.4726
 30
0.0
 10
-163.8712
 20
-87.9542
 30
0.0
 10
-162.7536
 20
-88.361
 30
0.0
 10
-162.7536
 20
-88.361
 30
0.0
 10
-158.0104
 20
-89.5251
 30
0.0
 10
-154.4901
 20
-88.8322
 30
0.0
 10
-150.5761
 20
-86.8128
 30
0.0
 10
-150.5761
 20
-86.8128
 30
0.0
 10
-149.0915
 20
-86.0415
 30
0.0
 10
-147.6908
 20
-85.1398
 30
0.0
 10
-146.3985
 20
-84.0503
 30
0.0
 10
-146.3985
 20
-84.0503
 30
0.0
 10
-147.5849
 20
-83.0204
 30
0.0
 10
-149.0129
 20
-82.1731
 30
0.0
 10
-150.2384
 20
-81.5135
 30
0.0
 10
-150.2384
 20
-81.5135
 30
0.0
 10
-155.2118
 20
-78.8541
 30
0.0
 10
-159.8777
 20
-78.5032
 30
0.0
 10
-164.5347
 20
-80.4383
 30
0.0
 10
-164.5347
 20
-80.4383
 30
0.0
 10
-167.3422
 20
-81.6048
 30
0.0
 10
-168.7373
 20
-81.7255
 30
0.0
 10
-170.0641
 20
-80.9165
 30
0.0
 10
-170.0641
 20
-80.9165
 30
0.0
 10
-171.2965
 20
-80.165
 30
0.0
 10
-171.7552
 20
-79.1648
 30
0.0
 10
-172.1331
 20
-76.4044
 30
0.0
 10
-172.1331
 20
-76.4044
 30
0.0
 10
-173.4317
 20
-70.3187
 30
0.0
 10
-175.4152
 20
-67.4384
 30
0.0
 10
-179.898
 20
-64.4795
 30
0.0
 10
-179.898
 20
-64.4795
 30
0.0
 10
-181.8246
 20
-63.2144
 30
0.0
 10
-183.9816
 20
-62.0356
 30
0.0
 10
-184.4473
 20
-62.379
 30
0.0
 10
-184.4473
 20
-62.379
 30
0.0
 10
-184.6194
 20
-64.0855
 30
0.0
 10
-184.6907
 20
-65.9413
 30
0.0
 10
-184.5837
 20
-67.732
 30
0.0
 10
-184.5837
 20
-67.732
 30
0.0
 10
-184.2867
 20
-73.3997
 30
0.0
 10
-181.4151
 20
-77.3432
 30
0.0
 10
-178.0318
 20
-80.0251
 30
0.0
 10
-178.0318
 20
-80.0251
 30
0.0
 10
-175.927
 20
-81.679
 30
0.0
 10
-175.2683
 20
-82.6488
 30
0.0
 10
-175.2699
 20
-84.0907
 30
0.0
 10
-175.2699
 20
-84.0907
 30
0.0
 10
-175.2713
 20
-85.45
 30
0.0
 10
-176.0977
 20
-86.6074
 30
0.0
 10
-178.3489
 20
-88.4036
 30
0.0
 10
-178.3489
 20
-88.4036
 30
0.0
 10
-183.0987
 20
-92.1934
 30
0.0
 10
-184.7416
 20
-95.8469
 30
0.0
 10
-184.5929
 20
-102.2892
 30
0.0
 10
-184.5929
 20
-102.2892
 30
0.0
 10
-184.5471
 20
-104.271
 30
0.0
 10
-184.3917
 20
-105.7858
 30
0.0
 10
-184.2287
 20
-105.8381
 30
0.0
 10
-184.2287
 20
-105.8381
 30
0.0
 10
-184.0723
 20
-105.8885
 30
0.0
 10
-181.8327
 20
-105.0454
 30
0.0
 10
-181.0193
 20
-104.6626
 30
0.0
 10
-181.0193
 20
-104.6626
 30
0.0
 10
-181.0193
 20
-104.6626
 30
0.0
 10
-181.0193
 20
-104.6628
 30
0.0
 10
-181.0193
 20
-104.6628
 30
0.0
  0
SPLINE
  5
46
330
1F
100
AcDbEntity
  8
layer 1
 62
     7
100
AcDbSpline
210
0.0
220
0.0
230
1.0
 70
    11
 71
     3
 72
    80
 73
    76
 74
     0
 42
0.0000000001
 43
0.0000000001
 12
1.0
 22
0.0
 32
0.0
 13
1.0
 23
0.0
 33
0.0
 40
0.0
 40
0.0
 40
0.0
 40
0.0
 40
0.05
 40
0.05
 40
0.05
 40
0.05
 40
0.1
 40
0.1
 40
0.1
 40
0.1
 40
0.15
 40
0.15
 40
0.15
 40
0.15
 40
0.2
 40
0.2
 40
0.2
 40
0.2
 40
0.25
 40
0.25
 40
0.25
 40
0.25
 40
0.3
 40
0.3
 40
0.3
 40
0.3
 40
0.35
 40
0.35
 40
0.35
 40
0.35
 40
0.4
 40
0.4
 40
0.4
 40
0.4
 40
0.45
 40
0.45
 40
0.45
 40
0.45
 40
0.5
 40
0.5
 40
0.5
 40
0.5
 40
0.55
 40
0.55
 40
0.55
 40
0.55
 40
0.6
 40
0.6
 40
0.6
 40
0.6
 40
0.65
 40
0.65
 40
0.65
 40
0.65
 40
0.7
 40
0.7
 40
0.7
 40
0.7
 40
0.75
 40
0.75
 40
0.75
 40
0.75
 40
0.8
 40
0.8
 40
0.8
 40
0.8
 40
0.85
 40
0.85
 40
0.85
 40
0.85
 40
0.9
 40
0.9
 40
0.9
 40
0.9
 40
1.0
 40
1.0
 40
1.0
 40
1.0
 10
-146.9342
 20
-78.2662
 30
0.0
 10
-153.0065
 20
-74.7242
 30
0.0
 10
-155.027
 20
-70.9433
 30
0.0
 10
-155.7737
 20
-65.8559
 30
0.0
 10
-155.7737
 20
-65.8559
 30
0.0
 10
-156.1277
 20
-63.7958
 30
0.0
 10
-156.3777
 20
-61.7517
 30
0.0
 10
-158.0613
 20
-60.7512
 30
0.0
 10
-158.0613
 20
-60.7512
 30
0.0
 10
-159.6556
 20
-59.0759
 30
0.0
 10
-164.0823
 20
-61.5576
 30
0.0
 10
-165.1999
 20
-61.9644
 30
0.0
 10
-165.1999
 20
-61.9644
 30
0.0
 10
-169.9431
 20
-63.1284
 30
0.0
 10
-173.4634
 20
-62.4356
 30
0.0
 10
-177.3774
 20
-60.4162
 30
0.0
 10
-177.3774
 20
-60.4162
 30
0.0
 10
-178.862
 20
-59.6449
 30
0.0
 10
-180.2627
 20
-58.7431
 30
0.0
 10
-181.555
 20
-57.6537
 30
0.0
 10
-181.555
 20
-57.6537
 30
0.0
 10
-180.3686
 20
-56.6238
 30
0.0
 10
-178.9406
 20
-55.7764
 30
0.0
 10
-177.7151
 20
-55.1169
 30
0.0
 10
-177.7151
 20
-55.1169
 30
0.0
 10
-172.7417
 20
-52.4575
 30
0.0
 10
-168.0758
 20
-52.1066
 30
0.0
 10
-163.4187
 20
-54.0416
 30
0.0
 10
-163.4187
 20
-54.0416
 30
0.0
 10
-160.6113
 20
-55.2082
 30
0.0
 10
-159.2162
 20
-55.3289
 30
0.0
 10
-157.8894
 20
-54.5198
 30
0.0
 10
-157.8894
 20
-54.5198
 30
0.0
 10
-156.657
 20
-53.7684
 30
0.0
 10
-156.1982
 20
-52.7681
 30
0.0
 10
-155.8204
 20
-50.0078
 30
0.0
 10
-155.8204
 20
-50.0078
 30
0.0
 10
-154.5218
 20
-43.9221
 30
0.0
 10
-152.5383
 20
-41.0417
 30
0.0
 10
-148.0555
 20
-38.0829
 30
0.0
 10
-148.0555
 20
-38.0829
 30
0.0
 10
-146.1289
 20
-36.8178
 30
0.0
 10
-143.9719
 20
-35.639
 30
0.0
 10
-143.5062
 20
-35.9824
 30
0.0
 10
-143.5062
 20
-35.9824
 30
0.0
 10
-143.3341
 20
-37.6889
 30
0.0
 10
-143.2628
 20
-39.5446
 30
0.0
 10
-143.3698
 20
-41.3353
 30
0.0
 10
-143.3698
 20
-41.3353
 30
0.0
 10
-143.6668
 20
-47.003
 30
0.0
 10
-146.5384
 20
-50.9466
 30
0.0
 10
-149.9217
 20
-53.6285
 30
0.0
 10
-149.9217
 20
-53.6285
 30
0.0
 10
-152.0264
 20
-55.2823
 30
0.0
 10
-152.6852
 20
-56.2521
 30
0.0
 10
-152.6836
 20
-57.6941
 30
0.0
 10
-152.6836
 20
-57.6941
 30
0.0
 10
-152.6822
 20
-59.0534
 30
0.0
 10
-151.8558
 20
-60.2108
 30
0.0
 10
-149.6046
 20
-62.0069
 30
0.0
 10
-149.6046
 20
-62.0069
 30
0.0
 10
-144.8547
 20
-65.7968
 30
0.0
 10
-143.2119
 20
-69.4503
 30
0.0
 10
-143.3605
 20
-75.8926
 30
0.0
 10
-143.3605
 20
-75.8926
 30
0.0
 10
-143.4063
 20
-77.8743
 30
0.0
 10
-143.5618
 20
-79.3892
 30
0.0
 10
-143.7248
 20
-79.4415
 30
0.0
 10
-143.7248
 20
-79.4415
 30
0.0
 10
-143.8812
 20
-79.4918
 30
0.0
 10
-146.1208
 20
-78.6488
 30
0.0
 10
-146.9342
 20
-78.2659
 30
0.0
 10
-146.9342
 20
-78.2659
 30
0.0
 10
-146.9342
 20
-78.2659
 30
0.0
 10
-146.9342
 20
-78.2662
 30
0.0
 10
-146.9342
 20
-78.2662
 30
0.0
  0
SPLINE
  5
47
330
1F
100
AcDbEntity
  8
layer 1
 62
     7
100
AcDbSpline
210
0.0
220
0.0
230
1.0
 70
    11
 71
     3
 72
    80
 73
    76
 74
     0
 42
0.0000000001
 43
0.0000000001
 12
1.0
 22
0.0
 32
0.0
 13
1.0
 23
0.0
 33
0.0
 40
0.0
 40
0.0
 40
0.0
 40
0.0
 40
0.05
 40
0.05
 40
0.05
 40
0.05
 40
0.1
 40
0.1
 40
0.1
 40
0.1
 40
0.15
 40
0.15
 40
0.15
 40
0.15
 40
0.2
 40
0.2
 40
0.2
 40
0.2
 40
0.25
 40
0.25
 40
0.25
 40
0.25
 40
0.3
 40
0.3
 40
0.3
 40
0.3
 40
0.35
 40
0.35
 40
0.35
 40
0.35
 40
0.4
 40
0.4
 40
0.4
 40
0.4
 40
0.45
 40
0.45
 40
0.45
 40
0.45
 40
0.5
 40
0.5
 40
0.5
 40
0.5
 40
0.55
 40
0.55
 40
0.55
 40
0.55
 40
0.6
 40
0.6
 40
0.6
 40
0.6
 40
0.65
 40
0.65
 40
0.65
 40
0.65
 40
0.7
 40
0.7
 40
0.7
 40
0.7
 40
0.75
 40
0.75
 40
0.75
 40
0.75
 40
0.8
 40
0.8
 40
0.8
 40
0.8
 40
0.85
 40
0.85
 40
0.85
 40
0.85
 40
0.9
 40
0.9
 40
0.9
 40
0.9
 40
1.0
 40
1.0
 40
1.0
 40
1.0
 10
-135.0293
 20
-78.2662
 30
0.0
 10
-128.9569
 20
-74.7242
 30
0.0
 10
-126.9365
 20
-70.9433
 30
0.0
 10
-126.1898
 20
-65.8559
 30
0.0
 10
-126.1898
 20
-65.8559
 30
0.0
 10
-125.8358
 20
-63.7958
 30
0.0
 10
-125.5858
 20
-61.7517
 30
0.0
 10
-123.9022
 20
-60.7512
 30
0.0
 10
-123.9022
 20
-60.7512
 30
0.0
 10
-122.3079
 20
-59.0759
 30
0.0
 10
-117.8812
 20
-61.5576
 30
0.0
 10
-116.7636
 20
-61.9644
 30
0.0
 10
-116.7636
 20
-61.9644
 30
0.0
 10
-112.0204
 20
-63.1284
 30
0.0
 10
-108.5001
 20
-62.4356
 30
0.0
 10
-104.5861
 20
-60.4162
 30
0.0
 10
-104.5861
 20
-60.4162
 30
0.0
 10
-103.1015
 20
-59.6449
 30
0.0
 10
-101.7008
 20
-58.7431
 30
0.0
 10
-100.4085
 20
-57.6537
 30
0.0
 10
-100.4085
 20
-57.6537
 30
0.0
 10
-101.5949
 20
-56.6238
 30
0.0
 10
-103.0229
 20
-55.7764
 30
0.0
 10
-104.2484
 20
-55.1169
 30
0.0
 10
-104.2484
 20
-55.1169
 30
0.0
 10
-109.2218
 20
-52.4575
 30
0.0
 10
-113.8877
 20
-52.1066
 30
0.0
 10
-118.5447
 20
-54.0416
 30
0.0
 10
-118.5447
 20
-54.0416
 30
0.0
 10
-121.3522
 20
-55.2082
 30
0.0
 10
-122.7473
 20
-55.3289
 30
0.0
 10
-124.0741
 20
-54.5198
 30
0.0
 10
-124.0741
 20
-54.5198
 30
0.0
 10
-125.3065
 20
-53.7684
 30
0.0
 10
-125.7652
 20
-52.7681
 30
0.0
 10
-126.1431
 20
-50.0078
 30
0.0
 10
-126.1431
 20
-50.0078
 30
0.0
 10
-127.4417
 20
-43.9221
 30
0.0
 10
-129.4252
 20
-41.0417
 30
0.0
 10
-133.908
 20
-38.0829
 30
0.0
 10
-133.908
 20
-38.0829
 30
0.0
 10
-135.8346
 20
-36.8178
 30
0.0
 10
-137.9916
 20
-35.639
 30
0.0
 10
-138.4573
 20
-35.9824
 30
0.0
 10
-138.4573
 20
-35.9824
 30
0.0
 10
-138.6294
 20
-37.6889
 30
0.0
 10
-138.7007
 20
-39.5446
 30
0.0
 10
-138.5937
 20
-41.3353
 30
0.0
 10
-138.5937
 20
-41.3353
 30
0.0
 10
-138.2967
 20
-47.003
 30
0.0
 10
-135.4251
 20
-50.9466
 30
0.0
 10
-132.0418
 20
-53.6285
 30
0.0
 10
-132.0418
 20
-53.6285
 30
0.0
 10
-129.937
 20
-55.2823
 30
0.0
 10
-129.2783
 20
-56.2521
 30
0.0
 10
-129.2799
 20
-57.6941
 30
0.0
 10
-129.2799
 20
-57.6941
 30
0.0
 10
-129.2813
 20
-59.0534
 30
0.0
 10
-130.1077
 20
-60.2108
 30
0.0
 10
-132.3589
 20
-62.0069
 30
0.0
 10
-132.3589
 20
-62.0069
 30
0.0
 10
-137.1087
 20
-65.7968
 30
0.0
 10
-138.7516
 20
-69.4503
 30
0.0
 10
-138.6029
 20
-75.8926
 30
0.0
 10
-138.6029
 20
-75.8926
 30
0.0
 10
-138.5571
 20
-77.8743
 30
0.0
 10
-138.4017
 20
-79.3892
 30
0.0
 10
-138.2387
 20
-79.4415
 30
0.0
 10
-138.2387
 20
-79.4415
 30
0.0
 10
-138.0823
 20
-79.4918
 30
0.0
 10
-135.8427
 20
-78.6488
 30
0.0
 10
-135.0293
 20
-78.2659
 30
0.0
 10
-135.0293
 20
-78.2659
 30
0.0
 10
-135.0293
 20
-78.2659
 30
0.0
 10
-135.0293
 20
-78.2662
 30
0.0
 10
-135.0293
 20
-78.2662
 30
0.0
  0
SPLINE
  5
48
330
1F
100
AcDbEntity
  8
layer 1
 62
     7
100
AcDbSpline
210
0.0
220
0.0
230
1.0
 70
    11
 71
     3
 72
    80
 73
    76
 74
     0
 42
0.0000000001
 43
0.0000000001
 12
1.0
 22
0.0
 32
0.0
 13
1.0
 23
0.0
 33
0.0
 40
0.0
 40
0.0
 40
0.0
 40
0.0
 40
0.05
 40
0.05
 40
0.05
 40
0.05
 40
0.1
 40
0.1
 40
0.1
 40
0.1
 40
0.15
 40
0.15
 40
0.15
 40
0.15
 40
0.2
 40
0.2
 40
0.2
 40
0.2
 40
0.25
 40
0.25
 40
0.25
 40
0.25
 40
0.3
 40
0.3
 40
0.3
 40
0.3
 40
0.35
 40
0.35
 40
0.35
 40
0.35
 40
0.4
 40
0.4
 40
0.4
 40
0.4
 40
0.45
 40
0.45
 40
0.45
 40
0.45
 40
0.5
 40
0.5
 40
0.5
 40
0.5
 40
0.55
 40
0.55
 40
0.55
 40
0.55
 40
0.6
 40
0.6
 40
0.6
 40
0.6
 40
0.65
 40
0.65
 40
0.65
 40
0.65
 40
0.7
 40
0.7
 40
0.7
 40
0.7
 40
0.75
 40
0.75
 40
0.75
 40
0.75
 40
0.8
 40
0.8
 40
0.8
 40
0.8
 40
0.85
 40
0.85
 40
0.85
 40
0.85
 40
0.9
 40
0.9
 40
0.9
 40
0.9
 40
1.0
 40
1.0
 40
1.0
 40
1.0
 10
-146.9342
 20
-25.4729
 30
0.0
 10
-153.0065
 20
-21.9309
 30
0.0
 10
-155.027
 20
-18.15
 30
0.0
 10
-155.7737
 20
-13.0626
 30
0.0
 10
-155.7737
 20
-13.0626
 30
0.0
 10
-156.1277
 20
-11.0025
 30
0.0
 10
-156.3777
 20
-8.9584
 30
0.0
 10
-158.0613
 20
-7.9579
 30
0.0
 10
-158.0613
 20
-7.9579
 30
0.0
 10
-159.6556
 20
-6.2827
 30
0.0
 10
-164.0823
 20
-8.7643
 30
0.0
 10
-165.1999
 20
-9.1711
 30
0.0
 10
-165.1999
 20
-9.1711
 30
0.0
 10
-169.9431
 20
-10.3351
 30
0.0
 10
-173.4634
 20
-9.6423
 30
0.0
 10
-177.3774
 20
-7.6229
 30
0.0
 10
-177.3774
 20
-7.6229
 30
0.0
 10
-178.862
 20
-6.8516
 30
0.0
 10
-180.2627
 20
-5.9498
 30
0.0
 10
-181.555
 20
-4.8604
 30
0.0
 10
-181.555
 20
-4.8604
 30
0.0
 10
-180.3686
 20
-3.8305
 30
0.0
 10
-178.9406
 20
-2.9831
 30
0.0
 10
-177.7151
 20
-2.3236
 30
0.0
 10
-177.7151
 20
-2.3236
 30
0.0
 10
-172.7417
 20
0.3358
 30
0.0
 10
-168.0758
 20
0.6867
 30
0.0
 10
-163.4187
 20
-1.2484
 30
0.0
 10
-163.4187
 20
-1.2484
 30
0.0
 10
-160.6113
 20
-2.4149
 30
0.0
 10
-159.2162
 20
-2.5356
 30
0.0
 10
-157.8894
 20
-1.7265
 30
0.0
 10
-157.8894
 20
-1.7265
 30
0.0
 10
-156.657
 20
-0.9751
 30
0.0
 10
-156.1982
 20
0.0251
 30
0.0
 10
-155.8204
 20
2.7855
 30
0.0
 10
-155.8204
 20
2.7855
 30
0.0
 10
-154.5218
 20
8.8712
 30
0.0
 10
-152.5383
 20
11.7516
 30
0.0
 10
-148.0555
 20
14.7104
 30
0.0
 10
-148.0555
 20
14.7104
 30
0.0
 10
-146.1289
 20
15.9755
 30
0.0
 10
-143.9719
 20
17.1543
 30
0.0
 10
-143.5062
 20
16.8109
 30
0.0
 10
-143.5062
 20
16.8109
 30
0.0
 10
-143.3341
 20
15.1044
 30
0.0
 10
-143.2628
 20
13.2487
 30
0.0
 10
-143.3698
 20
11.458
 30
0.0
 10
-143.3698
 20
11.458
 30
0.0
 10
-143.6668
 20
5.7903
 30
0.0
 10
-146.5384
 20
1.8467
 30
0.0
 10
-149.9217
 20
-0.8352
 30
0.0
 10
-149.9217
 20
-0.8352
 30
0.0
 10
-152.0264
 20
-2.4891
 30
0.0
 10
-152.6852
 20
-3.4589
 30
0.0
 10
-152.6836
 20
-4.9008
 30
0.0
 10
-152.6836
 20
-4.9008
 30
0.0
 10
-152.6822
 20
-6.2601
 30
0.0
 10
-151.8558
 20
-7.4175
 30
0.0
 10
-149.6046
 20
-9.2137
 30
0.0
 10
-149.6046
 20
-9.2137
 30
0.0
 10
-144.8547
 20
-13.0035
 30
0.0
 10
-143.2119
 20
-16.657
 30
0.0
 10
-143.3605
 20
-23.0993
 30
0.0
 10
-143.3605
 20
-23.0993
 30
0.0
 10
-143.4063
 20
-25.081
 30
0.0
 10
-143.5618
 20
-26.5959
 30
0.0
 10
-143.7248
 20
-26.6482
 30
0.0
 10
-143.7248
 20
-26.6482
 30
0.0
 10
-143.8812
 20
-26.6985
 30
0.0
 10
-146.1208
 20
-25.8555
 30
0.0
 10
-146.9342
 20
-25.4727
 30
0.0
 10
-146.9342
 20
-25.4727
 30
0.0
 10
-146.9342
 20
-25.4727
 30
0.0
 10
-146.9342
 20
-25.4729
 30
0.0
 10
-146.9342
 20
-25.4729
 30
0.0
  0
SPLINE
  5
49
330
1F
100
AcDbEntity
  8
layer 1
 62
     7
100
AcDbSpline
210
0.0
220
0.0
230
1.0
 70
    11
 71
     3
 72
    80
 73
    76
 74
     0
 42
0.0000000001
 43
0.0000000001
 12
1.0
 22
0.0
 32
0.0
 13
1.0
 23
0.0
 33
0.0
 40
0.0
 40
0.0
 40
0.0
 40
0.0
 40
0.05
 40
0.05
 40
0.05
 40
0.05
 40
0.1
 40
0.1
 40
0.1
 40
0.1
 40
0.15
 40
0.15
 40
0.15
 40
0.15
 40
0.2
 40
0.2
 40
0.2
 40
0.2
 40
0.25
 40
0.25
 40
0.25
 40
0.25
 40
0.3
 40
0.3
 40
0.3
 40
0.3
 40
0.35
 40
0.35
 40
0.35
 40
0.35
 40
0.4
 40
0.4
 40
0.4
 40
0.4
 40
0.45
 40
0.45
 40
0.45
 40
0.45
 40
0.5
 40
0.5
 40
0.5
 40
0.5
 40
0.55
 40
0.55
 40
0.55
 40
0.55
 40
0.6
 40
0.6
 40
0.6
 40
0.6
 40
0.65
 40
0.65
 40
0.65
 40
0.65
 40
0.7
 40
0.7
 40
0.7
 40
0.7
 40
0.75
 40
0.75
 40
0.75
 40
0.75
 40
0.8
 40
0.8
 40
0.8
 40
0.8
 40
0.85
 40
0.85
 40
0.85
 40
0.85
 40
0.9
 40
0.9
 40
0.9
 40
0.9
 40
1.0
 40
1.0
 40
1.0
 40
1.0
 10
-135.0293
 20
-25.4729
 30
0.0
 10
-128.9569
 20
-21.9309
 30
0.0
 10
-126.9365
 20
-18.15
 30
0.0
 10
-126.1898
 20
-13.0626
 30
0.0
 10
-126.1898
 20
-13.0626
 30
0.0
 10
-125.8358
 20
-11.0025
 30
0.0
 10
-125.5858
 20
-8.9584
 30
0.0
 10
-123.9022
 20
-7.9579
 30
0.0
 10
-123.9022
 20
-7.9579
 30
0.0
 10
-122.3079
 20
-6.2827
 30
0.0
 10
-117.8812
 20
-8.7643
 30
0.0
 10
-116.7636
 20
-9.1711
 30
0.0
 10
-116.7636
 20
-9.1711
 30
0.0
 10
-112.0204
 20
-10.3351
 30
0.0
 10
-108.5001
 20
-9.6423
 30
0.0
 10
-104.5861
 20
-7.6229
 30
0.0
 10
-104.5861
 20
-7.6229
 30
0.0
 10
-103.1015
 20
-6.8516
 30
0.0
 10
-101.7008
 20
-5.9498
 30
0.0
 10
-100.4085
 20
-4.8604
 30
0.0
 10
-100.4085
 20
-4.8604
 30
0.0
 10
-101.5949
 20
-3.8305
 30
0.0
 10
-103.0229
 20
-2.9831
 30
0.0
 10
-104.2484
 20
-2.3236
 30
0.0
 10
-104.2484
 20
-2.3236
 30
0.0
 10
-109.2218
 20
0.3358
 30
0.0
 10
-113.8877
 20
0.6867
 30
0.0
 10
-118.5447
 20
-1.2484
 30
0.0
 10
-118.5447
 20
-1.2484
 30
0.0
 10
-121.3522
 20
-2.4149
 30
0.0
 10
-122.7473
 20
-2.5356
 30
0.0
 10
-124.0741
 20
-1.7265
 30
0.0
 10
-124.0741
 20
-1.7265
 30
0.0
 10
-125.3065
 20
-0.9751
 30
0.0
 10
-125.7652
 20
0.0251
 30
0.0
 10
-126.1431
 20
2.7855
 30
0.0
 10
-126.1431
 20
2.7855
 30
0.0
 10
-127.4417
 20
8.8712
 30
0.0
 10
-129.4252
 20
11.7516
 30
0.0
 10
-133.908
 20
14.7104
 30
0.0
 10
-133.908
 20
14.7104
 30
0.0
 10
-135.8346
 20
15.9755
 30
0.0
 10
-137.9916
 20
17.1543
 30
0.0
 10
-138.4573
 20
16.8109
 30
0.0
 10
-138.4573
 20
16.8109
 30
0.0
 10
-138.6294
 20
15.1044
 30
0.0
 10
-138.7007
 20
13.2487
 30
0.0
 10
-138.5937
 20
11.458
 30
0.0
 10
-138.5937
 20
11.458
 30
0.0
 10
-138.2967
 20
5.7903
 30
0.0
 10
-135.4251
 20
1.8467
 30
0.0
 10
-132.0418
 20
-0.8352
 30
0.0
 10
-132.0418
 20
-0.8352
 30
0.0
 10
-129.937
 20
-2.4891
 30
0.0
 10
-129.2783
 20
-3.4589
 30
0.0
 10
-129.2799
 20
-4.9008
 30
0.0
 10
-129.2799
 20
-4.9008
 30
0.0
 10
-129.2813
 20
-6.2601
 30
0.0
 10
-130.1077
 20
-7.4175
 30
0.0
 10
-132.3589
 20
-9.2137
 30
0.0
 10
-132.3589
 20
-9.2137
 30
0.0
 10
-137.1087
 20
-13.0035
 30
0.0
 10
-138.7516
 20
-16.657
 30
0.0
 10
-138.6029
 20
-23.0993
 30
0.0
 10
-138.6029
 20
-23.0993
 30
0.0
 10
-138.5571
 20
-25.081
 30
0.0
 10
-138.4017
 20
-26.5959
 30
0.0
 10
-138.2387
 20
-26.6482
 30
0.0
 10
-138.2387
 20
-26.6482
 30
0.0
 10
-138.0823
 20
-26.6985
 30
0.0
 10
-135.8427
 20
-25.8555
 30
0.0
 10
-135.0293
 20
-25.4727
 30
0.0
 10
-135.0293
 20
-25.4727
 30
0.0
 10
-135.0293
 20
-25.4727
 30
0.0
 10
-135.0293
 20
-25.4729
 30
0.0
 10
-135.0293
 20
-25.4729
 30
0.0
  0
SPLINE
  5
4A
330
1F
100
AcDbEntity
  8
layer 1
 62
     7
100
AcDbSpline
210
0.0
220
0.0
230
1.0
 70
    11
 71
     3
 72
    80
 73
    76
 74
     0
 42
0.0000000001
 43
0.0000000001
 12
1.0
 22
0.0
 32
0.0
 13
1.0
 23
0.0
 33
0.0
 40
0.0
 40
0.0
 40
0.0
 40
0.0
 40
0.05
 40
0.05
 40
0.05
 40
0.05
 40
0.1
 40
0.1
 40
0.1
 40
0.1
 40
0.15
 40
0.15
 40
0.15
 40
0.15
 40
0.2
 40
0.2
 40
0.2
 40
0.2
 40
0.25
 40
0.25
 40
0.25
 40
0.25
 40
0.3
 40
0.3
 40
0.3
 40
0.3
 40
0.35
 40
0.35
 40
0.35
 40
0.35
 40
0.4
 40
0.4
 40
0.4
 40
0.4
 40
0.45
 40
0.45
 40
0.45
 40
0.45
 40
0.5
 40
0.5
 40
0.5
 40
0.5
 40
0.55
 40
0.55
 40
0.55
 40
0.55
 40
0.6
 40
0.6
 40
0.6
 40
0.6
 40
0.65
 40
0.65
 40
0.65
 40
0.65
 40
0.7
 40
0.7
 40
0.7
 40
0.7
 40
0.75
 40
0.75
 40
0.75
 40
0.75
 40
0.8
 40
0.8
 40
0.8
 40
0.8
 40
0.85
 40
0.85
 40
0.85
 40
0.85
 40
0.9
 40
0.9
 40
0.9
 40
0.9
 40
1.0
 40
1.0
 40
1.0
 40
1.0
 10
-101.2164
 20
-52.1417
 30
0.0
 10
-107.2887
 20
-48.5998
 30
0.0
 10
-109.3092
 20
-44.8189
 30
0.0
 10
-110.0559
 20
-39.7315
 30
0.0
 10
-110.0559
 20
-39.7315
 30
0.0
 10
-110.4099
 20
-37.6714
 30
0.0
 10
-110.6599
 20
-35.6273
 30
0.0
 10
-112.3435
 20
-34.6267
 30
0.0
 10
-112.3435
 20
-34.6267
 30
0.0
 10
-113.9378
 20
-32.9515
 30
0.0
 10
-118.3645
 20
-35.4331
 30
0.0
 10
-119.4821
 20
-35.8399
 30
0.0
 10
-119.4821
 20
-35.8399
 30
0.0
 10
-124.2253
 20
-37.004
 30
0.0
 10
-127.7456
 20
-36.3111
 30
0.0
 10
-131.6596
 20
-34.2918
 30
0.0
 10
-131.6596
 20
-34.2918
 30
0.0
 10
-133.1442
 20
-33.5204
 30
0.0
 10
-134.5449
 20
-32.6187
 30
0.0
 10
-135.8372
 20
-31.5292
 30
0.0
 10
-135.8372
 20
-31.5292
 30
0.0
 10
-134.6508
 20
-30.4993
 30
0.0
 10
-133.2228
 20
-29.652
 30
0.0
 10
-131.9973
 20
-28.9925
 30
0.0
 10
-131.9973
 20
-28.9925
 30
0.0
 10
-127.0239
 20
-26.333
 30
0.0
 10
-122.358
 20
-25.9821
 30
0.0
 10
-117.7009
 20
-27.9172
 30
0.0
 10
-117.7009
 20
-27.9172
 30
0.0
 10
-114.8935
 20
-29.0837
 30
0.0
 10
-113.4984
 20
-29.2045
 30
0.0
 10
-112.1716
 20
-28.3954
 30
0.0
 10
-112.1716
 20
-28.3954
 30
0.0
 10
-110.9392
 20
-27.6439
 30
0.0
 10
-110.4804
 20
-26.6437
 30
0.0
 10
-110.1026
 20
-23.8833
 30
0.0
 10
-110.1026
 20
-23.8833
 30
0.0
 10
-108.804
 20
-17.7976
 30
0.0
 10
-106.8205
 20
-14.9173
 30
0.0
 10
-102.3377
 20
-11.9584
 30
0.0
 10
-102.3377
 20
-11.9584
 30
0.0
 10
-100.4111
 20
-10.6933
 30
0.0
 10
-98.2541
 20
-9.5146
 30
0.0
 10
-97.7884
 20
-9.8579
 30
0.0
 10
-97.7884
 20
-9.8579
 30
0.0
 10
-97.6163
 20
-11.5644
 30
0.0
 10
-97.545
 20
-13.4202
 30
0.0
 10
-97.652
 20
-15.2109
 30
0.0
 10
-97.652
 20
-15.2109
 30
0.0
 10
-97.949
 20
-20.8786
 30
0.0
 10
-100.8206
 20
-24.8222
 30
0.0
 10
-104.2039
 20
-27.5041
 30
0.0
 10
-104.2039
 20
-27.5041
 30
0.0
 10
-106.3086
 20
-29.1579
 30
0.0
 10
-106.9674
 20
-30.1277
 30
0.0
 10
-106.9658
 20
-31.5696
 30
0.0
 10
-106.9658
 20
-31.5696
 30
0.0
 10
-106.9644
 20
-32.9289
 30
0.0
 10
-106.138
 20
-34.0863
 30
0.0
 10
-103.8868
 20
-35.8825
 30
0.0
 10
-103.8868
 20
-35.8825
 30
0.0
 10
-99.1369
 20
-39.6723
 30
0.0
 10
-97.4941
 20
-43.3259
 30
0.0
 10
-97.6427
 20
-49.7681
 30
0.0
 10
-97.6427
 20
-49.7681
 30
0.0
 10
-97.6885
 20
-51.7499
 30
0.0
 10
-97.844
 20
-53.2647
 30
0.0
 10
-98.007
 20
-53.3171
 30
0.0
 10
-98.007
 20
-53.3171
 30
0.0
 10
-98.1634
 20
-53.3674
 30
0.0
 10
-100.403
 20
-52.5243
 30
0.0
 10
-101.2164
 20
-52.1415
 30
0.0
 10
-101.2164
 20
-52.1415
 30
0.0
 10
-101.2164
 20
-52.1415
 30
0.0
 10
-101.2164
 20
-52.1417
 30
0.0
 10
-101.2164
 20
-52.1417
 30
0.0
  0
SPLINE
  5
4B
330
1F
100
AcDbEntity
  8
layer 1
 62
     7
100
AcDbSpline
210
0.0
220
0.0
230
1.0
 70
    11
 71
     3
 72
    80
 73
    76
 74
     0
 42
0.0000000001
 43
0.0000000001
 12
1.0
 22
0.0
 32
0.0
 13
1.0
 23
0.0
 33
0.0
 40
0.0
 40
0.0
 40
0.0
 40
0.0
 40
0.05
 40
0.05
 40
0.05
 40
0.05
 40
0.1
 40
0.1
 40
0.1
 40
0.1
 40
0.15
 40
0.15
 40
0.15
 40
0.15
 40
0.2
 40
0.2
 40
0.2
 40
0.2
 40
0.25
 40
0.25
 40
0.25
 40
0.25
 40
0.3
 40
0.3
 40
0.3
 40
0.3
 40
0.35
 40
0.35
 40
0.35
 40
0.35
 40
0.4
 40
0.4
 40
0.4
 40
0.4
 40
0.45
 40
0.45
 40
0.45
 40
0.45
 40
0.5
 40
0.5
 40
0.5
 40
0.5
 40
0.55
 40
0.55
 40
0.55
 40
0.55
 40
0.6
 40
0.6
 40
0.6
 40
0.6
 40
0.65
 40
0.65
 40
0.65
 40
0.65
 40
0.7
 40
0.7
 40
0.7
 40
0.7
 40
0.75
 40
0.75
 40
0.75
 40
0.75
 40
0.8
 40
0.8
 40
0.8
 40
0.8
 40
0.85
 40
0.85
 40
0.85
 40
0.85
 40
0.9
 40
0.9
 40
0.9
 40
0.9
 40
1.0
 40
1.0
 40
1.0
 40
1.0
 10
-181.0193
 20
-51.8695
 30
0.0
 10
-174.9469
 20
-48.3276
 30
0.0
 10
-172.9265
 20
-44.5467
 30
0.0
 10
-172.1798
 20
-39.4593
 30
0.0
 10
-172.1798
 20
-39.4593
 30
0.0
 10
-171.8258
 20
-37.3992
 30
0.0
 10
-171.5758
 20
-35.3551
 30
0.0
 10
-169.8922
 20
-34.3545
 30
0.0
 10
-169.8922
 20
-34.3545
 30
0.0
 10
-168.2979
 20
-32.6793
 30
0.0
 10
-163.8712
 20
-35.1609
 30
0.0
 10
-162.7536
 20
-35.5677
 30
0.0
 10
-162.7536
 20
-35.5677
 30
0.0
 10
-158.0104
 20
-36.7318
 30
0.0
 10
-154.4901
 20
-36.0389
 30
0.0
 10
-150.5761
 20
-34.0196
 30
0.0
 10
-150.5761
 20
-34.0196
 30
0.0
 10
-149.0915
 20
-33.2482
 30
0.0
 10
-147.6908
 20
-32.3465
 30
0.0
 10
-146.3985
 20
-31.257
 30
0.0
 10
-146.3985
 20
-31.257
 30
0.0
 10
-147.5849
 20
-30.2271
 30
0.0
 10
-149.0129
 20
-29.3798
 30
0.0
 10
-150.2384
 20
-28.7203
 30
0.0
 10
-150.2384
 20
-28.7203
 30
0.0
 10
-155.2118
 20
-26.0608
 30
0.0
 10
-159.8777
 20
-25.7099
 30
0.0
 10
-164.5347
 20
-27.645
 30
0.0
 10
-164.5347
 20
-27.645
 30
0.0
 10
-167.3422
 20
-28.8115
 30
0.0
 10
-168.7373
 20
-28.9323
 30
0.0
 10
-170.0641
 20
-28.1232
 30
0.0
 10
-170.0641
 20
-28.1232
 30
0.0
 10
-171.2965
 20
-27.3717
 30
0.0
 10
-171.7552
 20
-26.3715
 30
0.0
 10
-172.1331
 20
-23.6111
 30
0.0
 10
-172.1331
 20
-23.6111
 30
0.0
 10
-173.4317
 20
-17.5254
 30
0.0
 10
-175.4152
 20
-14.6451
 30
0.0
 10
-179.898
 20
-11.6862
 30
0.0
 10
-179.898
 20
-11.6862
 30
0.0
 10
-181.8246
 20
-10.4211
 30
0.0
 10
-183.9816
 20
-9.2424
 30
0.0
 10
-184.4473
 20
-9.5857
 30
0.0
 10
-184.4473
 20
-9.5857
 30
0.0
 10
-184.6194
 20
-11.2922
 30
0.0
 10
-184.6907
 20
-13.148
 30
0.0
 10
-184.5837
 20
-14.9387
 30
0.0
 10
-184.5837
 20
-14.9387
 30
0.0
 10
-184.2867
 20
-20.6064
 30
0.0
 10
-181.4151
 20
-24.55
 30
0.0
 10
-178.0318
 20
-27.2319
 30
0.0
 10
-178.0318
 20
-27.2319
 30
0.0
 10
-175.927
 20
-28.8857
 30
0.0
 10
-175.2683
 20
-29.8555
 30
0.0
 10
-175.2699
 20
-31.2974
 30
0.0
 10
-175.2699
 20
-31.2974
 30
0.0
 10
-175.2713
 20
-32.6567
 30
0.0
 10
-176.0977
 20
-33.8141
 30
0.0
 10
-178.3489
 20
-35.6103
 30
0.0
 10
-178.3489
 20
-35.6103
 30
0.0
 10
-183.0987
 20
-39.4001
 30
0.0
 10
-184.7416
 20
-43.0537
 30
0.0
 10
-184.5929
 20
-49.4959
 30
0.0
 10
-184.5929
 20
-49.4959
 30
0.0
 10
-184.5471
 20
-51.4777
 30
0.0
 10
-184.3917
 20
-52.9925
 30
0.0
 10
-184.2287
 20
-53.0449
 30
0.0
 10
-184.2287
 20
-53.0449
 30
0.0
 10
-184.0723
 20
-53.0952
 30
0.0
 10
-181.8327
 20
-52.2521
 30
0.0
 10
-181.0193
 20
-51.8693
 30
0.0
 10
-181.0193
 20
-51.8693
 30
0.0
 10
-181.0193
 20
-51.8693
 30
0.0
 10
-181.0193
 20
-51.8695
 30
0.0
 10
-181.0193
 20
-51.8695
 30
0.0
  0
SPLINE
  5
4C
330
1F
100
AcDbEntity
  8
layer 1
 62
     7
100
AcDbSpline
210
0.0
220
0.0
230
1.0
 70
    11
 71
     3
 72
    80
 73
    76
 74
     0
 42
0.0000000001
 43
0.0000000001
 12
1.0
 22
0.0
 32
0.0
 13
1.0
 23
0.0
 33
0.0
 40
0.0
 40
0.0
 40
0.0
 40
0.0
 40
0.05
 40
0.05
 40
0.05
 40
0.05
 40
0.1
 40
0.1
 40
0.1
 40
0.1
 40
0.15
 40
0.15
 40
0.15
 40
0.15
 40
0.2
 40
0.2
 40
0.2
 40
0.2
 40
0.25
 40
0.25
 40
0.25
 40
0.25
 40
0.3
 40
0.3
 40
0.3
 40
0.3
 40
0.35
 40
0.35
 40
0.35
 40
0.35
 40
0.4
 40
0.4
 40
0.4
 40
0.4
 40
0.45
 40
0.45
 40
0.45
 40
0.45
 40
0.5
 40
0.5
 40
0.5
 40
0.5
 40
0.55
 40
0.55
 40
0.55
 40
0.55
 40
0.6
 40
0.6
 40
0.6
 40
0.6
 40
0.65
 40
0.65
 40
0.65
 40
0.65
 40
0.7
 40
0.7
 40
0.7
 40
0.7
 40
0.75
 40
0.75
 40
0.75
 40
0.75
 40
0.8
 40
0.8
 40
0.8
 40
0.8
 40
0.85
 40
0.85
 40
0.85
 40
0.85
 40
0.9
 40
0.9
 40
0.9
 40
0.9
 40
1.0
 40
1.0
 40
1.0
 40
1.0
 10
-181.0193
 20
0.9237
 30
0.0
 10
-174.9469
 20
4.4656
 30
0.0
 10
-172.9265
 20
8.2465
 30
0.0
 10
-172.1798
 20
13.3339
 30
0.0
 10
-172.1798
 20
13.3339
 30
0.0
 10
-171.8258
 20
15.394
 30
0.0
 10
-171.5758
 20
17.4381
 30
0.0
 10
-169.8922
 20
18.4386
 30
0.0
 10
-169.8922
 20
18.4386
 30
0.0
 10
-168.2979
 20
20.1139
 30
0.0
 10
-163.8712
 20
17.6323
 30
0.0
 10
-162.7536
 20
17.2255
 30
0.0
 10
-162.7536
 20
17.2255
 30
0.0
 10
-158.0104
 20
16.0614
 30
0.0
 10
-154.4901
 20
16.7543
 30
0.0
 10
-150.5761
 20
18.7736
 30
0.0
 10
-150.5761
 20
18.7736
 30
0.0
 10
-149.0915
 20
19.545
 30
0.0
 10
-147.6908
 20
20.4467
 30
0.0
 10
-146.3985
 20
21.5362
 30
0.0
 10
-146.3985
 20
21.5362
 30
0.0
 10
-147.5849
 20
22.566
 30
0.0
 10
-149.0129
 20
23.4134
 30
0.0
 10
-150.2384
 20
24.0729
 30
0.0
 10
-150.2384
 20
24.0729
 30
0.0
 10
-155.2118
 20
26.7324
 30
0.0
 10
-159.8777
 20
27.0833
 30
0.0
 10
-164.5347
 20
25.1482
 30
0.0
 10
-164.5347
 20
25.1482
 30
0.0
 10
-167.3422
 20
23.9817
 30
0.0
 10
-168.7373
 20
23.8609
 30
0.0
 10
-170.0641
 20
24.67
 30
0.0
 10
-170.0641
 20
24.67
 30
0.0
 10
-171.2965
 20
25.4215
 30
0.0
 10
-171.7552
 20
26.4217
 30
0.0
 10
-172.1331
 20
29.1821
 30
0.0
 10
-172.1331
 20
29.1821
 30
0.0
 10
-173.4317
 20
35.2677
 30
0.0
 10
-175.4152
 20
38.1481
 30
0.0
 10
-179.898
 20
41.1069
 30
0.0
 10
-179.898
 20
41.1069
 30
0.0
 10
-181.8246
 20
42.372
 30
0.0
 10
-183.9816
 20
43.5508
 30
0.0
 10
-184.4473
 20
43.2075
 30
0.0
 10
-184.4473
 20
43.2075
 30
0.0
 10
-184.6194
 20
41.5009
 30
0.0
 10
-184.6907
 20
39.6452
 30
0.0
 10
-184.5837
 20
37.8545
 30
0.0
 10
-184.5837
 20
37.8545
 30
0.0
 10
-184.2867
 20
32.1868
 30
0.0
 10
-181.4151
 20
28.2432
 30
0.0
 10
-178.0318
 20
25.5613
 30
0.0
 10
-178.0318
 20
25.5613
 30
0.0
 10
-175.927
 20
23.9075
 30
0.0
 10
-175.2683
 20
22.9377
 30
0.0
 10
-175.2699
 20
21.4957
 30
0.0
 10
-175.2699
 20
21.4957
 30
0.0
 10
-175.2713
 20
20.1364
 30
0.0
 10
-176.0977
 20
18.9791
 30
0.0
 10
-178.3489
 20
17.1829
 30
0.0
 10
-178.3489
 20
17.1829
 30
0.0
 10
-183.0987
 20
13.393
 30
0.0
 10
-184.7416
 20
9.7395
 30
0.0
 10
-184.5929
 20
3.2972
 30
0.0
 10
-184.5929
 20
3.2972
 30
0.0
 10
-184.5471
 20
1.3155
 30
0.0
 10
-184.3917
 20
-0.1993
 30
0.0
 10
-184.2287
 20
-0.2517
 30
0.0
 10
-184.2287
 20
-0.2517
 30
0.0
 10
-184.0723
 20
-0.302
 30
0.0
 10
-181.8327
 20
0.541
 30
0.0
 10
-181.0193
 20
0.9239
 30
0.0
 10
-181.0193
 20
0.9239
 30
0.0
 10
-181.0193
 20
0.9239
 30
0.0
 10
-181.0193
 20
0.9237
 30
0.0
 10
-181.0193
 20
0.9237
 30
0.0
  0
SPLINE
  5
4D
330
1F
100
AcDbEntity
  8
layer 1
 62
     7
100
AcDbSpline
210
0.0
220
0.0
230
1.0
 70
    11
 71
     3
 72
    80
 73
    76
 74
     0
 42
0.0000000001
 43
0.0000000001
 12
1.0
 22
0.0
 32
0.0
 13
1.0
 23
0.0
 33
0.0
 40
0.0
 40
0.0
 40
0.0
 40
0.0
 40
0.05
 40
0.05
 40
0.05
 40
0.05
 40
0.1
 40
0.1
 40
0.1
 40
0.1
 40
0.15
 40
0.15
 40
0.15
 40
0.15
 40
0.2
 40
0.2
 40
0.2
 40
0.2
 40
0.25
 40
0.25
 40
0.25
 40
0.25
 40
0.3
 40
0.3
 40
0.3
 40
0.3
 40
0.35
 40
0.35
 40
0.35
 40
0.35
 40
0.4
 40
0.4
 40
0.4
 40
0.4
 40
0.45
 40
0.45
 40
0.45
 40
0.45
 40
0.5
 40
0.5
 40
0.5
 40
0.5
 40
0.55
 40
0.55
 40
0.55
 40
0.55
 40
0.6
 40
0.6
 40
0.6
 40
0.6
 40
0.65
 40
0.65
 40
0.65
 40
0.65
 40
0.7
 40
0.7
 40
0.7
 40
0.7
 40
0.75
 40
0.75
 40
0.75
 40
0.75
 40
0.8
 40
0.8
 40
0.8
 40
0.8
 40
0.85
 40
0.85
 40
0.85
 40
0.85
 40
0.9
 40
0.9
 40
0.9
 40
0.9
 40
1.0
 40
1.0
 40
1.0
 40
1.0
 10
-101.2164
 20
0.9237
 30
0.0
 10
-107.2887
 20
4.4656
 30
0.0
 10
-109.3092
 20
8.2465
 30
0.0
 10
-110.0559
 20
13.3339
 30
0.0
 10
-110.0559
 20
13.3339
 30
0.0
 10
-110.4099
 20
15.394
 30
0.0
 10
-110.6599
 20
17.4381
 30
0.0
 10
-112.3435
 20
18.4386
 30
0.0
 10
-112.3435
 20
18.4386
 30
0.0
 10
-113.9378
 20
20.1139
 30
0.0
 10
-118.3645
 20
17.6323
 30
0.0
 10
-119.4821
 20
17.2255
 30
0.0
 10
-119.4821
 20
17.2255
 30
0.0
 10
-124.2253
 20
16.0614
 30
0.0
 10
-127.7456
 20
16.7543
 30
0.0
 10
-131.6596
 20
18.7736
 30
0.0
 10
-131.6596
 20
18.7736
 30
0.0
 10
-133.1442
 20
19.545
 30
0.0
 10
-134.5449
 20
20.4467
 30
0.0
 10
-135.8372
 20
21.5362
 30
0.0
 10
-135.8372
 20
21.5362
 30
0.0
 10
-134.6508
 20
22.566
 30
0.0
 10
-133.2228
 20
23.4134
 30
0.0
 10
-131.9973
 20
24.0729
 30
0.0
 10
-131.9973
 20
24.0729
 30
0.0
 10
-127.0239
 20
26.7324
 30
0.0
 10
-122.358
 20
27.0833
 30
0.0
 10
-117.7009
 20
25.1482
 30
0.0
 10
-117.7009
 20
25.1482
 30
0.0
 10
-114.8935
 20
23.9817
 30
0.0
 10
-113.4984
 20
23.8609
 30
0.0
 10
-112.1716
 20
24.67
 30
0.0
 10
-112.1716
 20
24.67
 30
0.0
 10
-110.9392
 20
25.4215
 30
0.0
 10
-110.4804
 20
26.4217
 30
0.0
 10
-110.1026
 20
29.1821
 30
0.0
 10
-110.1026
 20
29.1821
 30
0.0
 10
-108.804
 20
35.2677
 30
0.0
 10
-106.8205
 20
38.1481
 30
0.0
 10
-102.3377
 20
41.1069
 30
0.0
 10
-102.3377
 20
41.1069
 30
0.0
 10
-100.4111
 20
42.372
 30
0.0
 10
-98.2541
 20
43.5508
 30
0.0
 10
-97.7884
 20
43.2075
 30
0.0
 10
-97.7884
 20
43.2075
 30
0.0
 10
-97.6163
 20
41.5009
 30
0.0
 10
-97.545
 20
39.6452
 30
0.0
 10
-97.652
 20
37.8545
 30
0.0
 10
-97.652
 20
37.8545
 30
0.0
 10
-97.949
 20
32.1868
 30
0.0
 10
-100.8206
 20
28.2432
 30
0.0
 10
-104.2039
 20
25.5613
 30
0.0
 10
-104.2039
 20
25.5613
 30
0.0
 10
-106.3086
 20
23.9075
 30
0.0
 10
-106.9674
 20
22.9377
 30
0.0
 10
-106.9658
 20
21.4957
 30
0.0
 10
-106.9658
 20
21.4957
 30
0.0
 10
-106.9644
 20
20.1364
 30
0.0
 10
-106.138
 20
18.9791
 30
0.0
 10
-103.8868
 20
17.1829
 30
0.0
 10
-103.8868
 20
17.1829
 30
0.0
 10
-99.1369
 20
13.393
 30
0.0
 10
-97.4941
 20
9.7395
 30
0.0
 10
-97.6427
 20
3.2972
 30
0.0
 10
-97.6427
 20
3.2972
 30
0.0
 10
-97.6885
 20
1.3155
 30
0.0
 10
-97.844
 20
-0.1993
 30
0.0
 10
-98.007
 20
-0.2517
 30
0.0
 10
-98.007
 20
-0.2517
 30
0.0
 10
-98.1634
 20
-0.302
 30
0.0
 10
-100.403
 20
0.541
 30
0.0
 10
-101.2164
 20
0.9239
 30
0.0
 10
-101.2164
 20
0.9239
 30
0.0
 10
-101.2164
 20
0.9239
 30
0.0
 10
-101.2164
 20
0.9237
 30
0.0
 10
-101.2164
 20
0.9237
 30
0.0
  0
SPLINE
  5
4E
330
1F
100
AcDbEntity
  8
layer 1
 62
     7
100
AcDbSpline
210
0.0
220
0.0
230
1.0
 70
    11
 71
     3
 72
    80
 73
    76
 74
     0
 42
0.0000000001
 43
0.0000000001
 12
1.0
 22
0.0
 32
0.0
 13
1.0
 23
0.0
 33
0.0
 40
0.0
 40
0.0
 40
0.0
 40
0.0
 40
0.05
 40
0.05
 40
0.05
 40
0.05
 40
0.1
 40
0.1
 40
0.1
 40
0.1
 40
0.15
 40
0.15
 40
0.15
 40
0.15
 40
0.2
 40
0.2
 40
0.2
 40
0.2
 40
0.25
 40
0.25
 40
0.25
 40
0.25
 40
0.3
 40
0.3
 40
0.3
 40
0.3
 40
0.35
 40
0.35
 40
0.35
 40
0.35
 40
0.4
 40
0.4
 40
0.4
 40
0.4
 40
0.45
 40
0.45
 40
0.45
 40
0.45
 40
0.5
 40
0.5
 40
0.5
 40
0.5
 40
0.55
 40
0.55
 40
0.55
 40
0.55
 40
0.6
 40
0.6
 40
0.6
 40
0.6
 40
0.65
 40
0.65
 40
0.65
 40
0.65
 40
0.7
 40
0.7
 40
0.7
 40
0.7
 40
0.75
 40
0.75
 40
0.75
 40
0.75
 40
0.8
 40
0.8
 40
0.8
 40
0.8
 40
0.85
 40
0.85
 40
0.85
 40
0.85
 40
0.9
 40
0.9
 40
0.9
 40
0.9
 40
1.0
 40
1.0
 40
1.0
 40
1.0
 10
-146.8111
 20
28.033
 30
0.0
 10
-152.8835
 20
31.575
 30
0.0
 10
-154.9039
 20
35.3559
 30
0.0
 10
-155.6506
 20
40.4433
 30
0.0
 10
-155.6506
 20
40.4433
 30
0.0
 10
-156.0046
 20
42.5034
 30
0.0
 10
-156.2546
 20
44.5475
 30
0.0
 10
-157.9382
 20
45.548
 30
0.0
 10
-157.9382
 20
45.548
 30
0.0
 10
-159.5325
 20
47.2233
 30
0.0
 10
-163.9592
 20
44.7416
 30
0.0
 10
-165.0768
 20
44.3348
 30
0.0
 10
-165.0768
 20
44.3348
 30
0.0
 10
-169.82
 20
43.1708
 30
0.0
 10
-173.3403
 20
43.8637
 30
0.0
 10
-177.2543
 20
45.883
 30
0.0
 10
-177.2543
 20
45.883
 30
0.0
 10
-178.7389
 20
46.6544
 30
0.0
 10
-180.1396
 20
47.5561
 30
0.0
 10
-181.4319
 20
48.6455
 30
0.0
 10
-181.4319
 20
48.6455
 30
0.0
 10
-180.2455
 20
49.6754
 30
0.0
 10
-178.8175
 20
50.5228
 30
0.0
 10
-177.592
 20
51.1823
 30
0.0
 10
-177.592
 20
51.1823
 30
0.0
 10
-172.6186
 20
53.8418
 30
0.0
 10
-167.9527
 20
54.1926
 30
0.0
 10
-163.2956
 20
52.2576
 30
0.0
 10
-163.2956
 20
52.2576
 30
0.0
 10
-160.4882
 20
51.091
 30
0.0
 10
-159.0931
 20
50.9703
 30
0.0
 10
-157.7663
 20
51.7794
 30
0.0
 10
-157.7663
 20
51.7794
 30
0.0
 10
-156.5339
 20
52.5308
 30
0.0
 10
-156.0751
 20
53.5311
 30
0.0
 10
-155.6973
 20
56.2914
 30
0.0
 10
-155.6973
 20
56.2914
 30
0.0
 10
-154.3987
 20
62.3771
 30
0.0
 10
-152.4152
 20
65.2575
 30
0.0
 10
-147.9324
 20
68.2163
 30
0.0
 10
-147.9324
 20
68.2163
 30
0.0
 10
-146.0058
 20
69.4814
 30
0.0
 10
-143.8488
 20
70.6602
 30
0.0
 10
-143.3831
 20
70.3168
 30
0.0
 10
-143.3831
 20
70.3168
 30
0.0
 10
-143.211
 20
68.6103
 30
0.0
 10
-143.1397
 20
66.7546
 30
0.0
 10
-143.2467
 20
64.9639
 30
0.0
 10
-143.2467
 20
64.9639
 30
0.0
 10
-143.5437
 20
59.2962
 30
0.0
 10
-146.4153
 20
55.3526
 30
0.0
 10
-149.7986
 20
52.6707
 30
0.0
 10
-149.7986
 20
52.6707
 30
0.0
 10
-151.9033
 20
51.0169
 30
0.0
 10
-152.5621
 20
50.0471
 30
0.0
 10
-152.5605
 20
48.6051
 30
0.0
 10
-152.5605
 20
48.6051
 30
0.0
 10
-152.5591
 20
47.2458
 30
0.0
 10
-151.7327
 20
46.0885
 30
0.0
 10
-149.4815
 20
44.2923
 30
0.0
 10
-149.4815
 20
44.2923
 30
0.0
 10
-144.7316
 20
40.5024
 30
0.0
 10
-143.0888
 20
36.8489
 30
0.0
 10
-143.2374
 20
30.4066
 30
0.0
 10
-143.2374
 20
30.4066
 30
0.0
 10
-143.2832
 20
28.4249
 30
0.0
 10
-143.4387
 20
26.9101
 30
0.0
 10
-143.6017
 20
26.8577
 30
0.0
 10
-143.6017
 20
26.8577
 30
0.0
 10
-143.7581
 20
26.8074
 30
0.0
 10
-145.9977
 20
27.6504
 30
0.0
 10
-146.8111
 20
28.0333
 30
0.0
 10
-146.8111
 20
28.0333
 30
0.0
 10
-146.8111
 20
28.0333
 30
0.0
 10
-146.8111
 20
28.033
 30
0.0
 10
-146.8111
 20
28.033
 30
0.0
  0
SPLINE
  5
4F
330
1F
100
AcDbEntity
  8
layer 1
 62
     7
100
AcDbSpline
210
0.0
220
0.0
230
1.0
 70
    11
 71
     3
 72
    80
 73
    76
 74
     0
 42
0.0000000001
 43
0.0000000001
 12
1.0
 22
0.0
 32
0.0
 13
1.0
 23
0.0
 33
0.0
 40
0.0
 40
0.0
 40
0.0
 40
0.0
 40
0.05
 40
0.05
 40
0.05
 40
0.05
 40
0.1
 40
0.1
 40
0.1
 40
0.1
 40
0.15
 40
0.15
 40
0.15
 40
0.15
 40
0.2
 40
0.2
 40
0.2
 40
0.2
 40
0.25
 40
0.25
 40
0.25
 40
0.25
 40
0.3
 40
0.3
 40
0.3
 40
0.3
 40
0.35
 40
0.35
 40
0.35
 40
0.35
 40
0.4
 40
0.4
 40
0.4
 40
0.4
 40
0.45
 40
0.45
 40
0.45
 40
0.45
 40
0.5
 40
0.5
 40
0.5
 40
0.5
 40
0.55
 40
0.55
 40
0.55
 40
0.55
 40
0.6
 40
0.6
 40
0.6
 40
0.6
 40
0.65
 40
0.65
 40
0.65
 40
0.65
 40
0.7
 40
0.7
 40
0.7
 40
0.7
 40
0.75
 40
0.75
 40
0.75
 40
0.75
 40
0.8
 40
0.8
 40
0.8
 40
0.8
 40
0.85
 40
0.85
 40
0.85
 40
0.85
 40
0.9
 40
0.9
 40
0.9
 40
0.9
 40
1.0
 40
1.0
 40
1.0
 40
1.0
 10
-134.9062
 20
28.033
 30
0.0
 10
-128.8338
 20
31.575
 30
0.0
 10
-126.8134
 20
35.3559
 30
0.0
 10
-126.0667
 20
40.4433
 30
0.0
 10
-126.0667
 20
40.4433
 30
0.0
 10
-125.7127
 20
42.5034
 30
0.0
 10
-125.4627
 20
44.5475
 30
0.0
 10
-123.7791
 20
45.548
 30
0.0
 10
-123.7791
 20
45.548
 30
0.0
 10
-122.1848
 20
47.2233
 30
0.0
 10
-117.7581
 20
44.7416
 30
0.0
 10
-116.6405
 20
44.3348
 30
0.0
 10
-116.6405
 20
44.3348
 30
0.0
 10
-111.8973
 20
43.1708
 30
0.0
 10
-108.377
 20
43.8637
 30
0.0
 10
-104.463
 20
45.883
 30
0.0
 10
-104.463
 20
45.883
 30
0.0
 10
-102.9784
 20
46.6544
 30
0.0
 10
-101.5777
 20
47.5561
 30
0.0
 10
-100.2854
 20
48.6455
 30
0.0
 10
-100.2854
 20
48.6455
 30
0.0
 10
-101.4718
 20
49.6754
 30
0.0
 10
-102.8998
 20
50.5228
 30
0.0
 10
-104.1253
 20
51.1823
 30
0.0
 10
-104.1253
 20
51.1823
 30
0.0
 10
-109.0987
 20
53.8418
 30
0.0
 10
-113.7646
 20
54.1926
 30
0.0
 10
-118.4216
 20
52.2576
 30
0.0
 10
-118.4216
 20
52.2576
 30
0.0
 10
-121.2291
 20
51.091
 30
0.0
 10
-122.6242
 20
50.9703
 30
0.0
 10
-123.951
 20
51.7794
 30
0.0
 10
-123.951
 20
51.7794
 30
0.0
 10
-125.1834
 20
52.5308
 30
0.0
 10
-125.6422
 20
53.5311
 30
0.0
 10
-126.02
 20
56.2914
 30
0.0
 10
-126.02
 20
56.2914
 30
0.0
 10
-127.3186
 20
62.3771
 30
0.0
 10
-129.3021
 20
65.2575
 30
0.0
 10
-133.7849
 20
68.2163
 30
0.0
 10
-133.7849
 20
68.2163
 30
0.0
 10
-135.7115
 20
69.4814
 30
0.0
 10
-137.8685
 20
70.6602
 30
0.0
 10
-138.3342
 20
70.3168
 30
0.0
 10
-138.3342
 20
70.3168
 30
0.0
 10
-138.5063
 20
68.6103
 30
0.0
 10
-138.5776
 20
66.7546
 30
0.0
 10
-138.4706
 20
64.9639
 30
0.0
 10
-138.4706
 20
64.9639
 30
0.0
 10
-138.1736
 20
59.2962
 30
0.0
 10
-135.302
 20
55.3526
 30
0.0
 10
-131.9187
 20
52.6707
 30
0.0
 10
-131.9187
 20
52.6707
 30
0.0
 10
-129.814
 20
51.0169
 30
0.0
 10
-129.1552
 20
50.0471
 30
0.0
 10
-129.1568
 20
48.6051
 30
0.0
 10
-129.1568
 20
48.6051
 30
0.0
 10
-129.1582
 20
47.2458
 30
0.0
 10
-129.9846
 20
46.0885
 30
0.0
 10
-132.2358
 20
44.2923
 30
0.0
 10
-132.2358
 20
44.2923
 30
0.0
 10
-136.9857
 20
40.5024
 30
0.0
 10
-138.6285
 20
36.8489
 30
0.0
 10
-138.4799
 20
30.4066
 30
0.0
 10
-138.4799
 20
30.4066
 30
0.0
 10
-138.4341
 20
28.4249
 30
0.0
 10
-138.2786
 20
26.9101
 30
0.0
 10
-138.1156
 20
26.8577
 30
0.0
 10
-138.1156
 20
26.8577
 30
0.0
 10
-137.9592
 20
26.8074
 30
0.0
 10
-135.7196
 20
27.6504
 30
0.0
 10
-134.9062
 20
28.0333
 30
0.0
 10
-134.9062
 20
28.0333
 30
0.0
 10
-134.9062
 20
28.0333
 30
0.0
 10
-134.9062
 20
28.033
 30
0.0
 10
-134.9062
 20
28.033
 30
0.0
  0
SPLINE
  5
50
330
1F
100
AcDbEntity
  8
layer 1
 62
     7
100
AcDbSpline
210
0.0
220
0.0
230
1.0
 70
    11
 71
     3
 72
    80
 73
    76
 74
     0
 42
0.0000000001
 43
0.0000000001
 12
1.0
 22
0.0
 32
0.0
 13
1.0
 23
0.0
 33
0.0
 40
0.0
 40
0.0
 40
0.0
 40
0.0
 40
0.05
 40
0.05
 40
0.05
 40
0.05
 40
0.1
 40
0.1
 40
0.1
 40
0.1
 40
0.15
 40
0.15
 40
0.15
 40
0.15
 40
0.2
 40
0.2
 40
0.2
 40
0.2
 40
0.25
 40
0.25
 40
0.25
 40
0.25
 40
0.3
 40
0.3
 40
0.3
 40
0.3
 40
0.35
 40
0.35
 40
0.35
 40
0.35
 40
0.4
 40
0.4
 40
0.4
 40
0.4
 40
0.45
 40
0.45
 40
0.45
 40
0.45
 40
0.5
 40
0.5
 40
0.5
 40
0.5
 40
0.55
 40
0.55
 40
0.55
 40
0.55
 40
0.6
 40
0.6
 40
0.6
 40
0.6
 40
0.65
 40
0.65
 40
0.65
 40
0.65
 40
0.7
 40
0.7
 40
0.7
 40
0.7
 40
0.75
 40
0.75
 40
0.75
 40
0.75
 40
0.8
 40
0.8
 40
0.8
 40
0.8
 40
0.85
 40
0.85
 40
0.85
 40
0.85
 40
0.9
 40
0.9
 40
0.9
 40
0.9
 40
1.0
 40
1.0
 40
1.0
 40
1.0
 10
-146.8111
 20
80.8262
 30
0.0
 10
-152.8835
 20
84.3682
 30
0.0
 10
-154.9039
 20
88.1491
 30
0.0
 10
-155.6506
 20
93.2365
 30
0.0
 10
-155.6506
 20
93.2365
 30
0.0
 10
-156.0046
 20
95.2966
 30
0.0
 10
-156.2546
 20
97.3407
 30
0.0
 10
-157.9382
 20
98.3412
 30
0.0
 10
-157.9382
 20
98.3412
 30
0.0
 10
-159.5325
 20
100.0164
 30
0.0
 10
-163.9592
 20
97.5348
 30
0.0
 10
-165.0768
 20
97.128
 30
0.0
 10
-165.0768
 20
97.128
 30
0.0
 10
-169.82
 20
95.964
 30
0.0
 10
-173.3403
 20
96.6568
 30
0.0
 10
-177.2543
 20
98.6762
 30
0.0
 10
-177.2543
 20
98.6762
 30
0.0
 10
-178.7389
 20
99.4475
 30
0.0
 10
-180.1396
 20
100.3493
 30
0.0
 10
-181.4319
 20
101.4387
 30
0.0
 10
-181.4319
 20
101.4387
 30
0.0
 10
-180.2455
 20
102.4686
 30
0.0
 10
-178.8175
 20
103.316
 30
0.0
 10
-177.592
 20
103.9755
 30
0.0
 10
-177.592
 20
103.9755
 30
0.0
 10
-172.6186
 20
106.6349
 30
0.0
 10
-167.9527
 20
106.9858
 30
0.0
 10
-163.2956
 20
105.0507
 30
0.0
 10
-163.2956
 20
105.0507
 30
0.0
 10
-160.4882
 20
103.8842
 30
0.0
 10
-159.0931
 20
103.7635
 30
0.0
 10
-157.7663
 20
104.5726
 30
0.0
 10
-157.7663
 20
104.5726
 30
0.0
 10
-156.5339
 20
105.324
 30
0.0
 10
-156.0751
 20
106.3242
 30
0.0
 10
-155.6973
 20
109.0846
 30
0.0
 10
-155.6973
 20
109.0846
 30
0.0
 10
-154.3987
 20
115.1703
 30
0.0
 10
-152.4152
 20
118.0507
 30
0.0
 10
-147.9324
 20
121.0095
 30
0.0
 10
-147.9324
 20
121.0095
 30
0.0
 10
-146.0058
 20
122.2746
 30
0.0
 10
-143.8488
 20
123.4534
 30
0.0
 10
-143.3831
 20
123.11
 30
0.0
 10
-143.3831
 20
123.11
 30
0.0
 10
-143.211
 20
121.4035
 30
0.0
 10
-143.1397
 20
119.5478
 30
0.0
 10
-143.2467
 20
117.7571
 30
0.0
 10
-143.2467
 20
117.7571
 30
0.0
 10
-143.5437
 20
112.0894
 30
0.0
 10
-146.4153
 20
108.1458
 30
0.0
 10
-149.7986
 20
105.4639
 30
0.0
 10
-149.7986
 20
105.4639
 30
0.0
 10
-151.9033
 20
103.81
 30
0.0
 10
-152.5621
 20
102.8403
 30
0.0
 10
-152.5605
 20
101.3983
 30
0.0
 10
-152.5605
 20
101.3983
 30
0.0
 10
-152.5591
 20
100.039
 30
0.0
 10
-151.7327
 20
98.8816
 30
0.0
 10
-149.4815
 20
97.0855
 30
0.0
 10
-149.4815
 20
97.0855
 30
0.0
 10
-144.7316
 20
93.2956
 30
0.0
 10
-143.0888
 20
89.6421
 30
0.0
 10
-143.2374
 20
83.1998
 30
0.0
 10
-143.2374
 20
83.1998
 30
0.0
 10
-143.2832
 20
81.2181
 30
0.0
 10
-143.4387
 20
79.7032
 30
0.0
 10
-143.6017
 20
79.6509
 30
0.0
 10
-143.6017
 20
79.6509
 30
0.0
 10
-143.7581
 20
79.6006
 30
0.0
 10
-145.9977
 20
80.4436
 30
0.0
 10
-146.8111
 20
80.8264
 30
0.0
 10
-146.8111
 20
80.8264
 30
0.0
 10
-146.8111
 20
80.8264
 30
0.0
 10
-146.8111
 20
80.8262
 30
0.0
 10
-146.8111
 20
80.8262
 30
0.0
  0
SPLINE
  5
51
330
1F
100
AcDbEntity
  8
layer 1
 62
     7
100
AcDbSpline
210
0.0
220
0.0
230
1.0
 70
    11
 71
     3
 72
    80
 73
    76
 74
     0
 42
0.0000000001
 43
0.0000000001
 12
1.0
 22
0.0
 32
0.0
 13
1.0
 23
0.0
 33
0.0
 40
0.0
 40
0.0
 40
0.0
 40
0.0
 40
0.05
 40
0.05
 40
0.05
 40
0.05
 40
0.1
 40
0.1
 40
0.1
 40
0.1
 40
0.15
 40
0.15
 40
0.15
 40
0.15
 40
0.2
 40
0.2
 40
0.2
 40
0.2
 40
0.25
 40
0.25
 40
0.25
 40
0.25
 40
0.3
 40
0.3
 40
0.3
 40
0.3
 40
0.35
 40
0.35
 40
0.35
 40
0.35
 40
0.4
 40
0.4
 40
0.4
 40
0.4
 40
0.45
 40
0.45
 40
0.45
 40
0.45
 40
0.5
 40
0.5
 40
0.5
 40
0.5
 40
0.55
 40
0.55
 40
0.55
 40
0.55
 40
0.6
 40
0.6
 40
0.6
 40
0.6
 40
0.65
 40
0.65
 40
0.65
 40
0.65
 40
0.7
 40
0.7
 40
0.7
 40
0.7
 40
0.75
 40
0.75
 40
0.75
 40
0.75
 40
0.8
 40
0.8
 40
0.8
 40
0.8
 40
0.85
 40
0.85
 40
0.85
 40
0.85
 40
0.9
 40
0.9
 40
0.9
 40
0.9
 40
1.0
 40
1.0
 40
1.0
 40
1.0
 10
-134.9062
 20
80.8262
 30
0.0
 10
-128.8338
 20
84.3682
 30
0.0
 10
-126.8134
 20
88.1491
 30
0.0
 10
-126.0667
 20
93.2365
 30
0.0
 10
-126.0667
 20
93.2365
 30
0.0
 10
-125.7127
 20
95.2966
 30
0.0
 10
-125.4627
 20
97.3407
 30
0.0
 10
-123.7791
 20
98.3412
 30
0.0
 10
-123.7791
 20
98.3412
 30
0.0
 10
-122.1848
 20
100.0164
 30
0.0
 10
-117.7581
 20
97.5348
 30
0.0
 10
-116.6405
 20
97.128
 30
0.0
 10
-116.6405
 20
97.128
 30
0.0
 10
-111.8973
 20
95.964
 30
0.0
 10
-108.377
 20
96.6568
 30
0.0
 10
-104.463
 20
98.6762
 30
0.0
 10
-104.463
 20
98.6762
 30
0.0
 10
-102.9784
 20
99.4475
 30
0.0
 10
-101.5777
 20
100.3493
 30
0.0
 10
-100.2854
 20
101.4387
 30
0.0
 10
-100.2854
 20
101.4387
 30
0.0
 10
-101.4718
 20
102.4686
 30
0.0
 10
-102.8998
 20
103.316
 30
0.0
 10
-104.1253
 20
103.9755
 30
0.0
 10
-104.1253
 20
103.9755
 30
0.0
 10
-109.0987
 20
106.6349
 30
0.0
 10
-113.7646
 20
106.9858
 30
0.0
 10
-118.4216
 20
105.0507
 30
0.0
 10
-118.4216
 20
105.0507
 30
0.0
 10
-121.2291
 20
103.8842
 30
0.0
 10
-122.6242
 20
103.7635
 30
0.0
 10
-123.951
 20
104.5726
 30
0.0
 10
-123.951
 20
104.5726
 30
0.0
 10
-125.1834
 20
105.324
 30
0.0
 10
-125.6422
 20
106.3242
 30
0.0
 10
-126.02
 20
109.0846
 30
0.0
 10
-126.02
 20
109.0846
 30
0.0
 10
-127.3186
 20
115.1703
 30
0.0
 10
-129.3021
 20
118.0507
 30
0.0
 10
-133.7849
 20
121.0095
 30
0.0
 10
-133.7849
 20
121.0095
 30
0.0
 10
-135.7115
 20
122.2746
 30
0.0
 10
-137.8685
 20
123.4534
 30
0.0
 10
-138.3342
 20
123.11
 30
0.0
 10
-138.3342
 20
123.11
 30
0.0
 10
-138.5063
 20
121.4035
 30
0.0
 10
-138.5776
 20
119.5478
 30
0.0
 10
-138.4706
 20
117.7571
 30
0.0
 10
-138.4706
 20
117.7571
 30
0.0
 10
-138.1736
 20
112.0894
 30
0.0
 10
-135.302
 20
108.1458
 30
0.0
 10
-131.9187
 20
105.4639
 30
0.0
 10
-131.9187
 20
105.4639
 30
0.0
 10
-129.814
 20
103.81
 30
0.0
 10
-129.1552
 20
102.8403
 30
0.0
 10
-129.1568
 20
101.3983
 30
0.0
 10
-129.1568
 20
101.3983
 30
0.0
 10
-129.1582
 20
100.039
 30
0.0
 10
-129.9846
 20
98.8816
 30
0.0
 10
-132.2358
 20
97.0855
 30
0.0
 10
-132.2358
 20
97.0855
 30
0.0
 10
-136.9857
 20
93.2956
 30
0.0
 10
-138.6285
 20
89.6421
 30
0.0
 10
-138.4799
 20
83.1998
 30
0.0
 10
-138.4799
 20
83.1998
 30
0.0
 10
-138.4341
 20
81.2181
 30
0.0
 10
-138.2786
 20
79.7032
 30
0.0
 10
-138.1156
 20
79.6509
 30
0.0
 10
-138.1156
 20
79.6509
 30
0.0
 10
-137.9592
 20
79.6006
 30
0.0
 10
-135.7196
 20
80.4436
 30
0.0
 10
-134.9062
 20
80.8264
 30
0.0
 10
-134.9062
 20
80.8264
 30
0.0
 10
-134.9062
 20
80.8264
 30
0.0
 10
-134.9062
 20
80.8262
 30
0.0
 10
-134.9062
 20
80.8262
 30
0.0
  0
SPLINE
  5
52
330
1F
100
AcDbEntity
  8
layer 1
 62
     7
100
AcDbSpline
210
0.0
220
0.0
230
1.0
 70
    11
 71
     3
 72
    80
 73
    76
 74
     0
 42
0.0000000001
 43
0.0000000001
 12
1.0
 22
0.0
 32
0.0
 13
1.0
 23
0.0
 33
0.0
 40
0.0
 40
0.0
 40
0.0
 40
0.0
 40
0.05
 40
0.05
 40
0.05
 40
0.05
 40
0.1
 40
0.1
 40
0.1
 40
0.1
 40
0.15
 40
0.15
 40
0.15
 40
0.15
 40
0.2
 40
0.2
 40
0.2
 40
0.2
 40
0.25
 40
0.25
 40
0.25
 40
0.25
 40
0.3
 40
0.3
 40
0.3
 40
0.3
 40
0.35
 40
0.35
 40
0.35
 40
0.35
 40
0.4
 40
0.4
 40
0.4
 40
0.4
 40
0.45
 40
0.45
 40
0.45
 40
0.45
 40
0.5
 40
0.5
 40
0.5
 40
0.5
 40
0.55
 40
0.55
 40
0.55
 40
0.55
 40
0.6
 40
0.6
 40
0.6
 40
0.6
 40
0.65
 40
0.65
 40
0.65
 40
0.65
 40
0.7
 40
0.7
 40
0.7
 40
0.7
 40
0.75
 40
0.75
 40
0.75
 40
0.75
 40
0.8
 40
0.8
 40
0.8
 40
0.8
 40
0.85
 40
0.85
 40
0.85
 40
0.85
 40
0.9
 40
0.9
 40
0.9
 40
0.9
 40
1.0
 40
1.0
 40
1.0
 40
1.0
 10
-101.0932
 20
54.1575
 30
0.0
 10
-107.1655
 20
57.6994
 30
0.0
 10
-109.186
 20
61.4803
 30
0.0
 10
-109.9327
 20
66.5678
 30
0.0
 10
-109.9327
 20
66.5678
 30
0.0
 10
-110.2867
 20
68.6279
 30
0.0
 10
-110.5367
 20
70.6719
 30
0.0
 10
-112.2203
 20
71.6725
 30
0.0
 10
-112.2203
 20
71.6725
 30
0.0
 10
-113.8146
 20
73.3477
 30
0.0
 10
-118.2413
 20
70.8661
 30
0.0
 10
-119.3589
 20
70.4593
 30
0.0
 10
-119.3589
 20
70.4593
 30
0.0
 10
-124.1021
 20
69.2952
 30
0.0
 10
-127.6224
 20
69.9881
 30
0.0
 10
-131.5364
 20
72.0075
 30
0.0
 10
-131.5364
 20
72.0075
 30
0.0
 10
-133.021
 20
72.7788
 30
0.0
 10
-134.4217
 20
73.6805
 30
0.0
 10
-135.714
 20
74.77
 30
0.0
 10
-135.714
 20
74.77
 30
0.0
 10
-134.5276
 20
75.7999
 30
0.0
 10
-133.0996
 20
76.6472
 30
0.0
 10
-131.8741
 20
77.3068
 30
0.0
 10
-131.8741
 20
77.3068
 30
0.0
 10
-126.9007
 20
79.9662
 30
0.0
 10
-122.2348
 20
80.3171
 30
0.0
 10
-117.5777
 20
78.382
 30
0.0
 10
-117.5777
 20
78.382
 30
0.0
 10
-114.7703
 20
77.2155
 30
0.0
 10
-113.3752
 20
77.0948
 30
0.0
 10
-112.0484
 20
77.9038
 30
0.0
 10
-112.0484
 20
77.9038
 30
0.0
 10
-110.816
 20
78.6553
 30
0.0
 10
-110.3572
 20
79.6555
 30
0.0
 10
-109.9794
 20
82.4159
 30
0.0
 10
-109.9794
 20
82.4159
 30
0.0
 10
-108.6808
 20
88.5016
 30
0.0
 10
-106.6973
 20
91.3819
 30
0.0
 10
-102.2145
 20
94.3408
 30
0.0
 10
-102.2145
 20
94.3408
 30
0.0
 10
-100.2879
 20
95.6059
 30
0.0
 10
-98.1309
 20
96.7847
 30
0.0
 10
-97.6652
 20
96.4413
 30
0.0
 10
-97.6652
 20
96.4413
 30
0.0
 10
-97.4931
 20
94.7348
 30
0.0
 10
-97.4218
 20
92.879
 30
0.0
 10
-97.5288
 20
91.0883
 30
0.0
 10
-97.5288
 20
91.0883
 30
0.0
 10
-97.8258
 20
85.4206
 30
0.0
 10
-100.6974
 20
81.4771
 30
0.0
 10
-104.0807
 20
78.7952
 30
0.0
 10
-104.0807
 20
78.7952
 30
0.0
 10
-106.1854
 20
77.1413
 30
0.0
 10
-106.8442
 20
76.1715
 30
0.0
 10
-106.8426
 20
74.7296
 30
0.0
 10
-106.8426
 20
74.7296
 30
0.0
 10
-106.8412
 20
73.3703
 30
0.0
 10
-106.0148
 20
72.2129
 30
0.0
 10
-103.7636
 20
70.4167
 30
0.0
 10
-103.7636
 20
70.4167
 30
0.0
 10
-99.0137
 20
66.6269
 30
0.0
 10
-97.3709
 20
62.9734
 30
0.0
 10
-97.5195
 20
56.5311
 30
0.0
 10
-97.5195
 20
56.5311
 30
0.0
 10
-97.5653
 20
54.5493
 30
0.0
 10
-97.7208
 20
53.0345
 30
0.0
 10
-97.8838
 20
52.9821
 30
0.0
 10
-97.8838
 20
52.9821
 30
0.0
 10
-98.0402
 20
52.9318
 30
0.0
 10
-100.2798
 20
53.7749
 30
0.0
 10
-101.0932
 20
54.1577
 30
0.0
 10
-101.0932
 20
54.1577
 30
0.0
 10
-101.0932
 20
54.1577
 30
0.0
 10
-101.0932
 20
54.1575
 30
0.0
 10
-101.0932
 20
54.1575
 30
0.0
  0
SPLINE
  5
53
330
1F
100
AcDbEntity
  8
layer 1
 62
     7
100
AcDbSpline
210
0.0
220
0.0
230
1.0
 70
    11
 71
     3
 72
    80
 73
    76
 74
     0
 42
0.0000000001
 43
0.0000000001
 12
1.0
 22
0.0
 32
0.0
 13
1.0
 23
0.0
 33
0.0
 40
0.0
 40
0.0
 40
0.0
 40
0.0
 40
0.05
 40
0.05
 40
0.05
 40
0.05
 40
0.1
 40
0.1
 40
0.1
 40
0.1
 40
0.15
 40
0.15
 40
0.15
 40
0.15
 40
0.2
 40
0.2
 40
0.2
 40
0.2
 40
0.25
 40
0.25
 40
0.25
 40
0.25
 40
0.3
 40
0.3
 40
0.3
 40
0.3
 40
0.35
 40
0.35
 40
0.35
 40
0.35
 40
0.4
 40
0.4
 40
0.4
 40
0.4
 40
0.45
 40
0.45
 40
0.45
 40
0.45
 40
0.5
 40
0.5
 40
0.5
 40
0.5
 40
0.55
 40
0.55
 40
0.55
 40
0.55
 40
0.6
 40
0.6
 40
0.6
 40
0.6
 40
0.65
 40
0.65
 40
0.65
 40
0.65
 40
0.7
 40
0.7
 40
0.7
 40
0.7
 40
0.75
 40
0.75
 40
0.75
 40
0.75
 40
0.8
 40
0.8
 40
0.8
 40
0.8
 40
0.85
 40
0.85
 40
0.85
 40
0.85
 40
0.9
 40
0.9
 40
0.9
 40
0.9
 40
1.0
 40
1.0
 40
1.0
 40
1.0
 10
-180.8962
 20
54.4296
 30
0.0
 10
-174.8238
 20
57.9715
 30
0.0
 10
-172.8034
 20
61.7524
 30
0.0
 10
-172.0567
 20
66.8398
 30
0.0
 10
-172.0567
 20
66.8398
 30
0.0
 10
-171.7027
 20
68.8999
 30
0.0
 10
-171.4527
 20
70.944
 30
0.0
 10
-169.7691
 20
71.9446
 30
0.0
 10
-169.7691
 20
71.9446
 30
0.0
 10
-168.1748
 20
73.6198
 30
0.0
 10
-163.7481
 20
71.1382
 30
0.0
 10
-162.6305
 20
70.7314
 30
0.0
 10
-162.6305
 20
70.7314
 30
0.0
 10
-157.8873
 20
69.5673
 30
0.0
 10
-154.367
 20
70.2602
 30
0.0
 10
-150.453
 20
72.2795
 30
0.0
 10
-150.453
 20
72.2795
 30
0.0
 10
-148.9684
 20
73.0509
 30
0.0
 10
-147.5677
 20
73.9526
 30
0.0
 10
-146.2754
 20
75.0421
 30
0.0
 10
-146.2754
 20
75.0421
 30
0.0
 10
-147.4618
 20
76.072
 30
0.0
 10
-148.8898
 20
76.9193
 30
0.0
 10
-150.1153
 20
77.5789
 30
0.0
 10
-150.1153
 20
77.5789
 30
0.0
 10
-155.0887
 20
80.2383
 30
0.0
 10
-159.7546
 20
80.5892
 30
0.0
 10
-164.4116
 20
78.6541
 30
0.0
 10
-164.4116
 20
78.6541
 30
0.0
 10
-167.2191
 20
77.4876
 30
0.0
 10
-168.6142
 20
77.3669
 30
0.0
 10
-169.941
 20
78.1759
 30
0.0
 10
-169.941
 20
78.1759
 30
0.0
 10
-171.1734
 20
78.9274
 30
0.0
 10
-171.6322
 20
79.9276
 30
0.0
 10
-172.01
 20
82.688
 30
0.0
 10
-172.01
 20
82.688
 30
0.0
 10
-173.3086
 20
88.7737
 30
0.0
 10
-175.2921
 20
91.654
 30
0.0
 10
-179.7749
 20
94.6129
 30
0.0
 10
-179.7749
 20
94.6129
 30
0.0
 10
-181.7015
 20
95.878
 30
0.0
 10
-183.8585
 20
97.0568
 30
0.0
 10
-184.3242
 20
96.7134
 30
0.0
 10
-184.3242
 20
96.7134
 30
0.0
 10
-184.4963
 20
95.0069
 30
0.0
 10
-184.5676
 20
93.1511
 30
0.0
 10
-184.4606
 20
91.3604
 30
0.0
 10
-184.4606
 20
91.3604
 30
0.0
 10
-184.1636
 20
85.6927
 30
0.0
 10
-181.292
 20
81.7491
 30
0.0
 10
-177.9087
 20
79.0672
 30
0.0
 10
-177.9087
 20
79.0672
 30
0.0
 10
-175.804
 20
77.4134
 30
0.0
 10
-175.1452
 20
76.4436
 30
0.0
 10
-175.1468
 20
75.0017
 30
0.0
 10
-175.1468
 20
75.0017
 30
0.0
 10
-175.1482
 20
73.6424
 30
0.0
 10
-175.9746
 20
72.485
 30
0.0
 10
-178.2258
 20
70.6888
 30
0.0
 10
-178.2258
 20
70.6888
 30
0.0
 10
-182.9757
 20
66.899
 30
0.0
 10
-184.6185
 20
63.2454
 30
0.0
 10
-184.4699
 20
56.8032
 30
0.0
 10
-184.4699
 20
56.8032
 30
0.0
 10
-184.4241
 20
54.8214
 30
0.0
 10
-184.2686
 20
53.3066
 30
0.0
 10
-184.1056
 20
53.2542
 30
0.0
 10
-184.1056
 20
53.2542
 30
0.0
 10
-183.9492
 20
53.2039
 30
0.0
 10
-181.7096
 20
54.047
 30
0.0
 10
-180.8962
 20
54.4298
 30
0.0
 10
-180.8962
 20
54.4298
 30
0.0
 10
-180.8962
 20
54.4298
 30
0.0
 10
-180.8962
 20
54.4296
 30
0.0
 10
-180.8962
 20
54.4296
 30
0.0
  0
SPLINE
  5
54
330
1F
100
AcDbEntity
  8
layer 1
 62
     7
100
AcDbSpline
210
0.0
220
0.0
230
1.0
 70
    11
 71
     3
 72
    48
 73
    44
 74
     0
 42
0.0000000001
 43
0.0000000001
 12
1.0
 22
0.0
 32
0.0
 13
1.0
 23
0.0
 33
0.0
 40
0.0
 40
0.0
 40
0.0
 40
0.0
 40
0.0833333333333333
 40
0.0833333333333333
 40
0.0833333333333333
 40
0.0833333333333333
 40
0.1666666666666667
 40
0.1666666666666667
 40
0.1666666666666667
 40
0.1666666666666667
 40
0.25
 40
0.25
 40
0.25
 40
0.25
 40
0.3333333333333333
 40
0.3333333333333333
 40
0.3333333333333333
 40
0.3333333333333333
 40
0.4166666666666667
 40
0.4166666666666667
 40
0.4166666666666667
 40
0.4166666666666667
 40
0.5
 40
0.5
 40
0.5
 40
0.5
 40
0.5833333333333334
 40
0.5833333333333334
 40
0.5833333333333334
 40
0.5833333333333334
 40
0.6666666666666666
 40
0.6666666666666666
 40
0.6666666666666666
 40
0.6666666666666666
 40
0.75
 40
0.75
 40
0.75
 40
0.75
 40
0.8333333333333334
 40
0.8333333333333334
 40
0.8333333333333334
 40
0.8333333333333334
 40
1.0
 40
1.0
 40
1.0
 40
1.0
 10
-150.0906
 20
125.6129
 30
0.0
 10
-155.064
 20
122.9535
 30
0.0
 10
-159.7298
 20
122.6026
 30
0.0
 10
-164.3869
 20
124.5377
 30
0.0
 10
-164.3869
 20
124.5377
 30
0.0
 10
-167.1944
 20
125.7042
 30
0.0
 10
-168.5895
 20
125.8249
 30
0.0
 10
-169.9163
 20
125.0159
 30
0.0
 10
-169.9163
 20
125.0159
 30
0.0
 10
-171.1487
 20
124.2644
 30
0.0
 10
-171.6074
 20
123.2642
 30
0.0
 10
-171.9853
 20
120.5038
 30
0.0
 10
-171.9853
 20
120.5038
 30
0.0
 10
-173.2838
 20
114.4181
 30
0.0
 10
-175.2674
 20
111.5378
 30
0.0
 10
-179.7502
 20
108.5789
 30
0.0
 10
-179.7502
 20
108.5789
 30
0.0
 10
-181.6768
 20
107.3138
 30
0.0
 10
-183.8338
 20
106.135
 30
0.0
 10
-184.2995
 20
106.4784
 30
0.0
 10
-184.2995
 20
106.4784
 30
0.0
 10
-184.4716
 20
108.1849
 30
0.0
 10
-184.5428
 20
110.0407
 30
0.0
 10
-184.4359
 20
111.8313
 30
0.0
 10
-184.4359
 20
111.8313
 30
0.0
 10
-184.1388
 20
117.4991
 30
0.0
 10
-181.2673
 20
121.4426
 30
0.0
 10
-177.8839
 20
124.1245
 30
0.0
 10
-177.8839
 20
124.1245
 30
0.0
 10
-175.7792
 20
125.7784
 30
0.0
 10
-175.1204
 20
126.7482
 30
0.0
 10
-175.1221
 20
128.1901
 30
0.0
 10
-175.1221
 20
128.1901
 30
0.0
 10
-175.1221
 20
128.1901
 30
0.0
 10
-146.2084
 20
128.1517
 30
0.0
 10
-146.2084
 20
128.1517
 30
0.0
 10
-146.2084
 20
128.1517
 30
0.0
 10
-147.4369
 20
127.1197
 30
0.0
 10
-148.865
 20
126.2724
 30
0.0
 10
-150.0905
 20
125.6128
 30
0.0
 10
-150.0905
 20
125.6128
 30
0.0
 10
-150.0905
 20
125.6128
 30
0.0
 10
-150.0906
 20
125.6129
 30
0.0
 10
-150.0906
 20
125.6129
 30
0.0
  0
SPLINE
  5
55
330
1F
100
AcDbEntity
  8
layer 1
 62
     7
100
AcDbSpline
210
0.0
220
0.0
230
1.0
 70
    11
 71
     3
 72
    48
 73
    44
 74
     0
 42
0.0000000001
 43
0.0000000001
 12
1.0
 22
0.0
 32
0.0
 13
1.0
 23
0.0
 33
0.0
 40
0.0
 40
0.0
 40
0.0
 40
0.0
 40
0.0833333333333333
 40
0.0833333333333333
 40
0.0833333333333333
 40
0.0833333333333333
 40
0.1666666666666667
 40
0.1666666666666667
 40
0.1666666666666667
 40
0.1666666666666667
 40
0.25
 40
0.25
 40
0.25
 40
0.25
 40
0.3333333333333333
 40
0.3333333333333333
 40
0.3333333333333333
 40
0.3333333333333333
 40
0.4166666666666667
 40
0.4166666666666667
 40
0.4166666666666667
 40
0.4166666666666667
 40
0.5
 40
0.5
 40
0.5
 40
0.5
 40
0.5833333333333334
 40
0.5833333333333334
 40
0.5833333333333334
 40
0.5833333333333334
 40
0.6666666666666666
 40
0.6666666666666666
 40
0.6666666666666666
 40
0.6666666666666666
 40
0.75
 40
0.75
 40
0.75
 40
0.75
 40
0.8333333333333334
 40
0.8333333333333334
 40
0.8333333333333334
 40
0.8333333333333334
 40
1.0
 40
1.0
 40
1.0
 40
1.0
 10
-132.1469
 20
125.6129
 30
0.0
 10
-127.1735
 20
122.9535
 30
0.0
 10
-122.5077
 20
122.6026
 30
0.0
 10
-117.8506
 20
124.5377
 30
0.0
 10
-117.8506
 20
124.5377
 30
0.0
 10
-115.0431
 20
125.7042
 30
0.0
 10
-113.648
 20
125.8249
 30
0.0
 10
-112.3212
 20
125.0159
 30
0.0
 10
-112.3212
 20
125.0159
 30
0.0
 10
-111.0888
 20
124.2644
 30
0.0
 10
-110.6301
 20
123.2642
 30
0.0
 10
-110.2522
 20
120.5038
 30
0.0
 10
-110.2522
 20
120.5038
 30
0.0
 10
-108.9537
 20
114.4181
 30
0.0
 10
-106.9701
 20
111.5378
 30
0.0
 10
-102.4873
 20
108.5789
 30
0.0
 10
-102.4873
 20
108.5789
 30
0.0
 10
-100.5607
 20
107.3138
 30
0.0
 10
-98.4038
 20
106.135
 30
0.0
 10
-97.938
 20
106.4784
 30
0.0
 10
-97.938
 20
106.4784
 30
0.0
 10
-97.7659
 20
108.1849
 30
0.0
 10
-97.6947
 20
110.0407
 30
0.0
 10
-97.8016
 20
111.8313
 30
0.0
 10
-97.8016
 20
111.8313
 30
0.0
 10
-98.0987
 20
117.4991
 30
0.0
 10
-100.9702
 20
121.4426
 30
0.0
 10
-104.3536
 20
124.1245
 30
0.0
 10
-104.3536
 20
124.1245
 30
0.0
 10
-106.4583
 20
125.7784
 30
0.0
 10
-107.1171
 20
126.7482
 30
0.0
 10
-107.1155
 20
128.1901
 30
0.0
 10
-107.1155
 20
128.1901
 30
0.0
 10
-107.1155
 20
128.1901
 30
0.0
 10
-136.0291
 20
128.1517
 30
0.0
 10
-136.0291
 20
128.1517
 30
0.0
 10
-136.0291
 20
128.1517
 30
0.0
 10
-134.8006
 20
127.1197
 30
0.0
 10
-133.3726
 20
126.2724
 30
0.0
 10
-132.147
 20
125.6128
 30
0.0
 10
-132.147
 20
125.6128
 30
0.0
 10
-132.147
 20
125.6128
 30
0.0
 10
-132.1469
 20
125.6129
 30
0.0
 10
-132.1469
 20
125.6129
 30
0.0
  0
LWPOLYLINE
  5
56
330
1F
100
AcDbEntity
  8
layer 1
100
AcDbPolyline
 90
        5
 70
     1
 43
0.0
 10
-89.2099
 20
-69.5945
 10
5.3255
 20
-69.5945
 10
5.3255
 20
90.5717
 10
-89.2099
 20
90.5717
 10
-89.2099
 20
-69.5945
  0
SPLINE
  5
57
330
1F
100
AcDbEntity
  8
layer 1
 62
     7
100
AcDbSpline
210
0.0
220
0.0
230
1.0
 70
    11
 71
     3
 72
    20
 73
    16
 74
     0
 42
0.0000000001
 43
0.0000000001
 12
1.0
 22
0.0
 32
0.0
 13
1.0
 23
0.0
 33
0.0
 40
0.0
 40
0.0
 40
0.0
 40
0.0
 40
0.2
 40
0.2
 40
0.2
 40
0.2
 40
0.4
 40
0.4
 40
0.4
 40
0.4
 40
0.6
 40
0.6
 40
0.6
 40
0.6
 40
1.0
 40
1.0
 40
1.0
 40
1.0
 10
-32.9096
 20
59.1941
 30
0.0
 10
-32.9096
 20
54.2238
 30
0.0
 10
-36.9504
 20
50.1946
 30
0.0
 10
-41.935
 20
50.1946
 30
0.0
 10
-41.935
 20
50.1946
 30
0.0
 10
-46.9195
 20
50.1946
 30
0.0
 10
-50.9605
 20
54.2238
 30
0.0
 10
-50.9605
 20
59.1941
 30
0.0
 10
-50.9605
 20
59.1941
 30
0.0
 10
-50.9605
 20
64.1642
 30
0.0
 10
-46.9197
 20
68.1934
 30
0.0
 10
-41.935
 20
68.1934
 30
0.0
 10
-41.935
 20
68.1934
 30
0.0
 10
-36.9504
 20
68.1934
 30
0.0
 10
-32.9096
 20
64.1642
 30
0.0
 10
-32.9096
 20
59.1941
 30
0.0
  0
SPLINE
  5
58
330
1F
100
AcDbEntity
  8
layer 1
 62
     7
100
AcDbSpline
210
0.0
220
0.0
230
1.0
 70
    11
 71
     3
 72
    20
 73
    16
 74
     0
 42
0.0000000001
 43
0.0000000001
 12
1.0
 22
0.0
 32
0.0
 13
1.0
 23
0.0
 33
0.0
 40
0.0
 40
0.0
 40
0.0
 40
0.0
 40
0.2
 40
0.2
 40
0.2
 40
0.2
 40
0.4
 40
0.4
 40
0.4
 40
0.4
 40
0.6
 40
0.6
 40
0.6
 40
0.6
 40
1.0
 40
1.0
 40
1.0
 40
1.0
 10
-53.1983
 20
68.1123
 30
0.0
 10
-58.4846
 20
63.0697
 30
0.0
 10
-60.8674
 20
61.9045
 30
0.0
 10
-64.7407
 20
59.1919
 30
0.0
 10
-64.7407
 20
59.1919
 30
0.0
 10
-60.8674
 20
56.4794
 30
0.0
 10
-58.4849
 20
55.314
 30
0.0
 10
-53.1983
 20
50.2715
 30
0.0
 10
-53.1983
 20
50.2715
 30
0.0
 10
-55.3063
 20
52.7226
 30
0.0
 10
-56.4563
 20
55.9422
 30
0.0
 10
-56.5064
 20
59.1919
 30
0.0
 10
-56.5064
 20
59.1919
 30
0.0
 10
-56.4563
 20
62.4419
 30
0.0
 10
-55.3063
 20
65.6613
 30
0.0
 10
-53.1983
 20
68.1123
 30
0.0
  0
SPLINE
  5
59
330
1F
100
AcDbEntity
  8
layer 1
 62
     7
100
AcDbSpline
210
0.0
220
0.0
230
1.0
 70
    11
 71
     3
 72
    20
 73
    16
 74
     0
 42
0.0000000001
 43
0.0000000001
 12
1.0
 22
0.0
 32
0.0
 13
1.0
 23
0.0
 33
0.0
 40
0.0
 40
0.0
 40
0.0
 40
0.0
 40
0.2
 40
0.2
 40
0.2
 40
0.2
 40
0.4
 40
0.4
 40
0.4
 40
0.4
 40
0.6
 40
0.6
 40
0.6
 40
0.6
 40
1.0
 40
1.0
 40
1.0
 40
1.0
 10
-34.9286
 20
71.7563
 30
0.0
 10
-37.7031
 20
74.3771
 30
0.0
 10
-40.0716
 20
76.9652
 30
0.0
 10
-41.9436
 20
79.1986
 30
0.0
 10
-41.9436
 20
79.1986
 30
0.0
 10
-43.9032
 20
76.936
 30
0.0
 10
-46.1548
 20
74.3771
 30
0.0
 10
-48.9295
 20
71.7563
 30
0.0
 10
-48.9295
 20
71.7563
 30
0.0
 10
-44.3809
 20
74.4027
 30
0.0
 10
-38.6497
 20
74.1173
 30
0.0
 10
-34.9288
 20
71.7563
 30
0.0
 10
-34.9288
 20
71.7563
 30
0.0
 10
-34.9288
 20
71.7563
 30
0.0
 10
-34.9286
 20
71.7563
 30
0.0
 10
-34.9286
 20
71.7563
 30
0.0
  0
SPLINE
  5
5A
330
1F
100
AcDbEntity
  8
layer 1
 62
     7
100
AcDbSpline
210
0.0
220
0.0
230
1.0
 70
    11
 71
     3
 72
    36
 73
    32
 74
     0
 42
0.0000000001
 43
0.0000000001
 12
1.0
 22
0.0
 32
0.0
 13
1.0
 23
0.0
 33
0.0
 40
0.0
 40
0.0
 40
0.0
 40
0.0
 40
0.1111111111111111
 40
0.1111111111111111
 40
0.1111111111111111
 40
0.1111111111111111
 40
0.2222222222222222
 40
0.2222222222222222
 40
0.2222222222222222
 40
0.2222222222222222
 40
0.3333333333333333
 40
0.3333333333333333
 40
0.3333333333333333
 40
0.3333333333333333
 40
0.4444444444444444
 40
0.4444444444444444
 40
0.4444444444444444
 40
0.4444444444444444
 40
0.5555555555555556
 40
0.5555555555555556
 40
0.5555555555555556
 40
0.5555555555555556
 40
0.6666666666666666
 40
0.6666666666666666
 40
0.6666666666666666
 40
0.6666666666666666
 40
0.7777777777777778
 40
0.7777777777777778
 40
0.7777777777777778
 40
0.7777777777777778
 40
1.0
 40
1.0
 40
1.0
 40
1.0
 10
-44.0248
 20
83.8519
 30
0.0
 10
-47.5827
 20
79.7052
 30
0.0
 10
-60.691
 20
67.33
 30
0.0
 10
-66.255
 20
65.0269
 30
0.0
 10
-66.255
 20
65.0269
 30
0.0
 10
-67.0786
 20
68.8199
 30
0.0
 10
-73.0614
 20
68.5386
 30
0.0
 10
-73.7053
 20
64.6011
 30
0.0
 10
-73.7053
 20
64.6011
 30
0.0
 10
-86.1029
 20
69.0143
 30
0.0
 10
-75.9112
 20
85.316
 30
0.0
 10
-71.6
 20
78.9656
 30
0.0
 10
-71.6
 20
78.9656
 30
0.0
 10
-78.2363
 20
74.3899
 30
0.0
 10
-71.0808
 20
67.2868
 30
0.0
 10
-66.1703
 20
74.5241
 30
0.0
 10
-66.1703
 20
74.5241
 30
0.0
 10
-65.7665
 20
75.2977
 30
0.0
 10
-64.7
 20
75.2939
 30
0.0
 10
-64.4694
 20
74.5795
 30
0.0
 10
-64.4694
 20
74.5795
 30
0.0
 10
-63.0318
 20
70.4304
 30
0.0
 10
-56.3979
 20
73.0013
 30
0.0
 10
-58.1995
 20
79.5281
 30
0.0
 10
-58.1995
 20
79.5281
 30
0.0
 10
-54.9114
 20
79.174
 30
0.0
 10
-51.312
 20
80.86
 30
0.0
 10
-49.454
 20
83.8522
 30
0.0
 10
-49.454
 20
83.8522
 30
0.0
 10
-49.454
 20
83.8522
 30
0.0
 10
-44.0248
 20
83.8519
 30
0.0
 10
-44.0248
 20
83.8519
 30
0.0
  0
SPLINE
  5
5B
330
1F
100
AcDbEntity
  8
layer 1
 62
     7
100
AcDbSpline
210
0.0
220
0.0
230
1.0
 70
    11
 71
     3
 72
    36
 73
    32
 74
     0
 42
0.0000000001
 43
0.0000000001
 12
1.0
 22
0.0
 32
0.0
 13
1.0
 23
0.0
 33
0.0
 40
0.0
 40
0.0
 40
0.0
 40
0.0
 40
0.1111111111111111
 40
0.1111111111111111
 40
0.1111111111111111
 40
0.1111111111111111
 40
0.2222222222222222
 40
0.2222222222222222
 40
0.2222222222222222
 40
0.2222222222222222
 40
0.3333333333333333
 40
0.3333333333333333
 40
0.3333333333333333
 40
0.3333333333333333
 40
0.4444444444444444
 40
0.4444444444444444
 40
0.4444444444444444
 40
0.4444444444444444
 40
0.5555555555555556
 40
0.5555555555555556
 40
0.5555555555555556
 40
0.5555555555555556
 40
0.6666666666666666
 40
0.6666666666666666
 40
0.6666666666666666
 40
0.6666666666666666
 40
0.7777777777777778
 40
0.7777777777777778
 40
0.7777777777777778
 40
0.7777777777777778
 40
1.0
 40
1.0
 40
1.0
 40
1.0
 10
-40.5198
 20
83.6828
 30
0.0
 10
-36.962
 20
79.5361
 30
0.0
 10
-23.8536
 20
67.1609
 30
0.0
 10
-18.2896
 20
64.8577
 30
0.0
 10
-18.2896
 20
64.8577
 30
0.0
 10
-17.466
 20
68.6508
 30
0.0
 10
-11.4833
 20
68.3695
 30
0.0
 10
-10.8394
 20
64.4319
 30
0.0
 10
-10.8394
 20
64.4319
 30
0.0
 10
1.5583
 20
68.8452
 30
0.0
 10
-8.6335
 20
85.1469
 30
0.0
 10
-12.9447
 20
78.7964
 30
0.0
 10
-12.9447
 20
78.7964
 30
0.0
 10
-6.3084
 20
74.2208
 30
0.0
 10
-13.4638
 20
67.1177
 30
0.0
 10
-18.3743
 20
74.3549
 30
0.0
 10
-18.3743
 20
74.3549
 30
0.0
 10
-18.7782
 20
75.1286
 30
0.0
 10
-19.8447
 20
75.1247
 30
0.0
 10
-20.0753
 20
74.4104
 30
0.0
 10
-20.0753
 20
74.4104
 30
0.0
 10
-21.5129
 20
70.2613
 30
0.0
 10
-28.1468
 20
72.8322
 30
0.0
 10
-26.3452
 20
79.359
 30
0.0
 10
-26.3452
 20
79.359
 30
0.0
 10
-29.6333
 20
79.0049
 30
0.0
 10
-33.2326
 20
80.6909
 30
0.0
 10
-35.0907
 20
83.683
 30
0.0
 10
-35.0907
 20
83.683
 30
0.0
 10
-35.0907
 20
83.683
 30
0.0
 10
-40.5198
 20
83.6828
 30
0.0
 10
-40.5198
 20
83.6828
 30
0.0
  0
SPLINE
  5
5C
330
1F
100
AcDbEntity
  8
layer 1
 62
     7
100
AcDbSpline
210
0.0
220
0.0
230
1.0
 70
    11
 71
     3
 72
    16
 73
    12
 74
     0
 42
0.0000000001
 43
0.0000000001
 12
1.0
 22
0.0
 32
0.0
 13
1.0
 23
0.0
 33
0.0
 40
0.0
 40
0.0
 40
0.0
 40
0.0
 40
0.25
 40
0.25
 40
0.25
 40
0.25
 40
0.5
 40
0.5
 40
0.5
 40
0.5
 40
1.0
 40
1.0
 40
1.0
 40
1.0
 10
-75.3472
 20
83.6828
 30
0.0
 10
-75.3472
 20
83.6828
 30
0.0
 10
-83.1678
 20
83.6828
 30
0.0
 10
-83.1678
 20
83.6828
 30
0.0
 10
-83.1678
 20
83.6828
 30
0.0
 10
-83.1678
 20
83.6828
 30
0.0
 10
-83.2242
 20
76.3826
 30
0.0
 10
-83.2242
 20
76.3826
 30
0.0
 10
-83.2242
 20
76.3826
 30
0.0
 10
-82.212
 20
79.703
 30
0.0
 10
-79.4512
 20
83.0049
 30
0.0
 10
-75.3472
 20
83.6828
 30
0.0
  0
SPLINE
  5
5D
330
1F
100
AcDbEntity
  8
layer 1
 62
     7
100
AcDbSpline
210
0.0
220
0.0
230
1.0
 70
    11
 71
     3
 72
    20
 73
    16
 74
     0
 42
0.0000000001
 43
0.0000000001
 12
1.0
 22
0.0
 32
0.0
 13
1.0
 23
0.0
 33
0.0
 40
0.0
 40
0.0
 40
0.0
 40
0.0
 40
0.2
 40
0.2
 40
0.2
 40
0.2
 40
0.4
 40
0.4
 40
0.4
 40
0.4
 40
0.6
 40
0.6
 40
0.6
 40
0.6
 40
1.0
 40
1.0
 40
1.0
 40
1.0
 10
-83.2242
 20
51.3545
 30
0.0
 10
-83.1834
 20
56.5793
 30
0.0
 10
-83.2047
 20
61.8039
 30
0.0
 10
-83.2242
 20
67.0287
 30
0.0
 10
-83.2242
 20
67.0287
 30
0.0
 10
-82.2568
 20
63.8872
 30
0.0
 10
-77.7459
 20
59.8469
 30
0.0
 10
-73.9562
 20
59.1915
 30
0.0
 10
-73.9562
 20
59.1915
 30
0.0
 10
-77.7459
 20
58.536
 30
0.0
 10
-82.2568
 20
54.4959
 30
0.0
 10
-83.2242
 20
51.3542
 30
0.0
 10
-83.2242
 20
51.3542
 30
0.0
 10
-83.2242
 20
51.3542
 30
0.0
 10
-83.2242
 20
51.3545
 30
0.0
 10
-83.2242
 20
51.3545
 30
0.0
  0
SPLINE
  5
5E
330
1F
100
AcDbEntity
  8
layer 1
 62
     7
100
AcDbSpline
210
0.0
220
0.0
230
1.0
 70
    11
 71
     3
 72
    16
 73
    12
 74
     0
 42
0.0000000001
 43
0.0000000001
 12
1.0
 22
0.0
 32
0.0
 13
1.0
 23
0.0
 33
0.0
 40
0.0
 40
0.0
 40
0.0
 40
0.0
 40
0.25
 40
0.25
 40
0.25
 40
0.25
 40
0.5
 40
0.5
 40
0.5
 40
0.5
 40
1.0
 40
1.0
 40
1.0
 40
1.0
 10
-8.4016
 20
83.6828
 30
0.0
 10
-8.4016
 20
83.6828
 30
0.0
 10
-0.5811
 20
83.6828
 30
0.0
 10
-0.5811
 20
83.6828
 30
0.0
 10
-0.5811
 20
83.6828
 30
0.0
 10
-0.5811
 20
83.6828
 30
0.0
 10
-0.5246
 20
76.3826
 30
0.0
 10
-0.5246
 20
76.3826
 30
0.0
 10
-0.5246
 20
76.3826
 30
0.0
 10
-1.5369
 20
79.703
 30
0.0
 10
-4.2976
 20
83.0049
 30
0.0
 10
-8.4016
 20
83.6828
 30
0.0
  0
SPLINE
  5
5F
330
1F
100
AcDbEntity
  8
layer 1
 62
     7
100
AcDbSpline
210
0.0
220
0.0
230
1.0
 70
    11
 71
     3
 72
    20
 73
    16
 74
     0
 42
0.0000000001
 43
0.0000000001
 12
1.0
 22
0.0
 32
0.0
 13
1.0
 23
0.0
 33
0.0
 40
0.0
 40
0.0
 40
0.0
 40
0.0
 40
0.2
 40
0.2
 40
0.2
 40
0.2
 40
0.4
 40
0.4
 40
0.4
 40
0.4
 40
0.6
 40
0.6
 40
0.6
 40
0.6
 40
1.0
 40
1.0
 40
1.0
 40
1.0
 10
-0.5586
 20
51.3545
 30
0.0
 10
-0.5994
 20
56.5793
 30
0.0
 10
-0.5782
 20
61.8039
 30
0.0
 10
-0.5586
 20
67.0287
 30
0.0
 10
-0.5586
 20
67.0287
 30
0.0
 10
-1.526
 20
63.8872
 30
0.0
 10
-6.037
 20
59.8469
 30
0.0
 10
-9.8266
 20
59.1915
 30
0.0
 10
-9.8266
 20
59.1915
 30
0.0
 10
-6.0367
 20
58.536
 30
0.0
 10
-1.526
 20
54.4959
 30
0.0
 10
-0.5586
 20
51.3542
 30
0.0
 10
-0.5586
 20
51.3542
 30
0.0
 10
-0.5586
 20
51.3542
 30
0.0
 10
-0.5586
 20
51.3545
 30
0.0
 10
-0.5586
 20
51.3545
 30
0.0
  0
SPLINE
  5
60
330
1F
100
AcDbEntity
  8
layer 1
 62
     7
100
AcDbSpline
210
0.0
220
0.0
230
1.0
 70
    11
 71
     3
 72
    20
 73
    16
 74
     0
 42
0.0000000001
 43
0.0000000001
 12
1.0
 22
0.0
 32
0.0
 13
1.0
 23
0.0
 33
0.0
 40
0.0
 40
0.0
 40
0.0
 40
0.0
 40
0.2
 40
0.2
 40
0.2
 40
0.2
 40
0.4
 40
0.4
 40
0.4
 40
0.4
 40
0.6
 40
0.6
 40
0.6
 40
0.6
 40
1.0
 40
1.0
 40
1.0
 40
1.0
 10
-30.536
 20
68.1123
 30
0.0
 10
-25.2497
 20
63.0697
 30
0.0
 10
-22.867
 20
61.9045
 30
0.0
 10
-18.9936
 20
59.1919
 30
0.0
 10
-18.9936
 20
59.1919
 30
0.0
 10
-22.867
 20
56.4794
 30
0.0
 10
-25.2495
 20
55.314
 30
0.0
 10
-30.536
 20
50.2715
 30
0.0
 10
-30.536
 20
50.2715
 30
0.0
 10
-28.4281
 20
52.7226
 30
0.0
 10
-27.2781
 20
55.9422
 30
0.0
 10
-27.2279
 20
59.1919
 30
0.0
 10
-27.2279
 20
59.1919
 30
0.0
 10
-27.2781
 20
62.4419
 30
0.0
 10
-28.4281
 20
65.6613
 30
0.0
 10
-30.536
 20
68.1123
 30
0.0
  0
SPLINE
  5
61
330
1F
100
AcDbEntity
  8
layer 1
 62
     7
100
AcDbSpline
210
0.0
220
0.0
230
1.0
 70
    11
 71
     3
 72
    20
 73
    16
 74
     0
 42
0.0000000001
 43
0.0000000001
 12
1.0
 22
0.0
 32
0.0
 13
1.0
 23
0.0
 33
0.0
 40
0.0
 40
0.0
 40
0.0
 40
0.0
 40
0.2
 40
0.2
 40
0.2
 40
0.2
 40
0.4
 40
0.4
 40
0.4
 40
0.4
 40
0.6
 40
0.6
 40
0.6
 40
0.6
 40
1.0
 40
1.0
 40
1.0
 40
1.0
 10
-34.9286
 20
46.6915
 30
0.0
 10
-37.7031
 20
44.0707
 30
0.0
 10
-40.0716
 20
41.4826
 30
0.0
 10
-41.9436
 20
39.2492
 30
0.0
 10
-41.9436
 20
39.2492
 30
0.0
 10
-43.9032
 20
41.5118
 30
0.0
 10
-46.1548
 20
44.0709
 30
0.0
 10
-48.9295
 20
46.6915
 30
0.0
 10
-48.9295
 20
46.6915
 30
0.0
 10
-44.3809
 20
44.0451
 30
0.0
 10
-38.6497
 20
44.3305
 30
0.0
 10
-34.9288
 20
46.6915
 30
0.0
 10
-34.9288
 20
46.6915
 30
0.0
 10
-34.9288
 20
46.6915
 30
0.0
 10
-34.9286
 20
46.6915
 30
0.0
 10
-34.9286
 20
46.6915
 30
0.0
  0
SPLINE
  5
62
330
1F
100
AcDbEntity
  8
layer 1
 62
     7
100
AcDbSpline
210
0.0
220
0.0
230
1.0
 70
    11
 71
     3
 72
    64
 73
    60
 74
     0
 42
0.0000000001
 43
0.0000000001
 12
1.0
 22
0.0
 32
0.0
 13
1.0
 23
0.0
 33
0.0
 40
0.0
 40
0.0
 40
0.0
 40
0.0
 40
0.0625
 40
0.0625
 40
0.0625
 40
0.0625
 40
0.125
 40
0.125
 40
0.125
 40
0.125
 40
0.1875
 40
0.1875
 40
0.1875
 40
0.1875
 40
0.25
 40
0.25
 40
0.25
 40
0.25
 40
0.3125
 40
0.3125
 40
0.3125
 40
0.3125
 40
0.375
 40
0.375
 40
0.375
 40
0.375
 40
0.4375
 40
0.4375
 40
0.4375
 40
0.4375
 40
0.5
 40
0.5
 40
0.5
 40
0.5
 40
0.5625
 40
0.5625
 40
0.5625
 40
0.5625
 40
0.625
 40
0.625
 40
0.625
 40
0.625
 40
0.6875
 40
0.6875
 40
0.6875
 40
0.6875
 40
0.75
 40
0.75
 40
0.75
 40
0.75
 40
0.8125
 40
0.8125
 40
0.8125
 40
0.8125
 40
0.875
 40
0.875
 40
0.875
 40
0.875
 40
1.0
 40
1.0
 40
1.0
 40
1.0
 10
-65.7376
 20
16.3739
 30
0.0
 10
-66.5612
 20
20.167
 30
0.0
 10
-72.544
 20
19.8857
 30
0.0
 10
-73.1878
 20
15.9481
 30
0.0
 10
-73.1878
 20
15.9481
 30
0.0
 10
-85.5855
 20
20.3614
 30
0.0
 10
-75.3937
 20
36.6631
 30
0.0
 10
-71.0825
 20
30.3126
 30
0.0
 10
-71.0825
 20
30.3126
 30
0.0
 10
-77.7188
 20
25.737
 30
0.0
 10
-70.5634
 20
18.6339
 30
0.0
 10
-65.6529
 20
25.8711
 30
0.0
 10
-65.6529
 20
25.8711
 30
0.0
 10
-65.249
 20
26.6448
 30
0.0
 10
-64.1825
 20
26.6409
 30
0.0
 10
-63.9519
 20
25.9266
 30
0.0
 10
-63.9519
 20
25.9266
 30
0.0
 10
-62.5143
 20
21.7775
 30
0.0
 10
-55.8804
 20
24.3484
 30
0.0
 10
-57.682
 20
30.8752
 30
0.0
 10
-57.682
 20
30.8752
 30
0.0
 10
-54.3939
 20
30.5211
 30
0.0
 10
-50.7946
 20
32.2071
 30
0.0
 10
-48.9365
 20
35.1505
 30
0.0
 10
-48.9365
 20
35.1505
 30
0.0
 10
-50.7946
 20
38.0941
 30
0.0
 10
-54.3939
 20
39.7802
 30
0.0
 10
-57.682
 20
39.426
 30
0.0
 10
-57.682
 20
39.426
 30
0.0
 10
-55.8804
 20
45.9528
 30
0.0
 10
-62.5143
 20
48.524
 30
0.0
 10
-63.9519
 20
44.3746
 30
0.0
 10
-63.9519
 20
44.3746
 30
0.0
 10
-64.1825
 20
43.6603
 30
0.0
 10
-65.249
 20
43.6564
 30
0.0
 10
-65.6529
 20
44.4301
 30
0.0
 10
-65.6529
 20
44.4301
 30
0.0
 10
-70.5631
 20
51.6674
 30
0.0
 10
-77.7188
 20
44.5642
 30
0.0
 10
-71.0825
 20
39.9886
 30
0.0
 10
-71.0825
 20
39.9886
 30
0.0
 10
-75.394
 20
33.6382
 30
0.0
 10
-85.5855
 20
49.9401
 30
0.0
 10
-73.1878
 20
54.3531
 30
0.0
 10
-73.1878
 20
54.3531
 30
0.0
 10
-72.5437
 20
50.4153
 30
0.0
 10
-66.5612
 20
50.1343
 30
0.0
 10
-65.7376
 20
53.9273
 30
0.0
 10
-65.7376
 20
53.9273
 30
0.0
 10
-60.1736
 20
51.6244
 30
0.0
 10
-47.0652
 20
39.249
 30
0.0
 10
-43.5074
 20
35.1505
 30
0.0
 10
-43.5074
 20
35.1505
 30
0.0
 10
-47.0652
 20
31.052
 30
0.0
 10
-60.1736
 20
18.6766
 30
0.0
 10
-65.7376
 20
16.3737
 30
0.0
 10
-65.7376
 20
16.3737
 30
0.0
 10
-65.7376
 20
16.3737
 30
0.0
 10
-65.7376
 20
16.3739
 30
0.0
 10
-65.7376
 20
16.3739
 30
0.0
  0
SPLINE
  5
63
330
1F
100
AcDbEntity
  8
layer 1
 62
     7
100
AcDbSpline
210
0.0
220
0.0
230
1.0
 70
    11
 71
     3
 72
    64
 73
    60
 74
     0
 42
0.0000000001
 43
0.0000000001
 12
1.0
 22
0.0
 32
0.0
 13
1.0
 23
0.0
 33
0.0
 40
0.0
 40
0.0
 40
0.0
 40
0.0
 40
0.0625
 40
0.0625
 40
0.0625
 40
0.0625
 40
0.125
 40
0.125
 40
0.125
 40
0.125
 40
0.1875
 40
0.1875
 40
0.1875
 40
0.1875
 40
0.25
 40
0.25
 40
0.25
 40
0.25
 40
0.3125
 40
0.3125
 40
0.3125
 40
0.3125
 40
0.375
 40
0.375
 40
0.375
 40
0.375
 40
0.4375
 40
0.4375
 40
0.4375
 40
0.4375
 40
0.5
 40
0.5
 40
0.5
 40
0.5
 40
0.5625
 40
0.5625
 40
0.5625
 40
0.5625
 40
0.625
 40
0.625
 40
0.625
 40
0.625
 40
0.6875
 40
0.6875
 40
0.6875
 40
0.6875
 40
0.75
 40
0.75
 40
0.75
 40
0.75
 40
0.8125
 40
0.8125
 40
0.8125
 40
0.8125
 40
0.875
 40
0.875
 40
0.875
 40
0.875
 40
1.0
 40
1.0
 40
1.0
 40
1.0
 10
-26.3452
 20
30.8752
 30
0.0
 10
-28.1468
 20
24.3484
 30
0.0
 10
-21.5129
 20
21.7773
 30
0.0
 10
-20.0753
 20
25.9266
 30
0.0
 10
-20.0753
 20
25.9266
 30
0.0
 10
-19.8447
 20
26.6409
 30
0.0
 10
-18.7782
 20
26.6448
 30
0.0
 10
-18.3743
 20
25.8711
 30
0.0
 10
-18.3743
 20
25.8711
 30
0.0
 10
-13.4641
 20
18.6339
 30
0.0
 10
-6.3084
 20
25.737
 30
0.0
 10
-12.9447
 20
30.3126
 30
0.0
 10
-12.9447
 20
30.3126
 30
0.0
 10
-8.6332
 20
36.6631
 30
0.0
 10
1.5583
 20
20.3612
 30
0.0
 10
-10.8394
 20
15.9481
 30
0.0
 10
-10.8394
 20
15.9481
 30
0.0
 10
-11.4835
 20
19.8859
 30
0.0
 10
-17.466
 20
20.167
 30
0.0
 10
-18.2896
 20
16.3739
 30
0.0
 10
-18.2896
 20
16.3739
 30
0.0
 10
-23.8536
 20
18.6768
 30
0.0
 10
-36.962
 20
31.0523
 30
0.0
 10
-40.5198
 20
35.1507
 30
0.0
 10
-40.5198
 20
35.1507
 30
0.0
 10
-36.962
 20
39.2492
 30
0.0
 10
-23.8536
 20
51.6247
 30
0.0
 10
-18.2896
 20
53.9276
 30
0.0
 10
-18.2896
 20
53.9276
 30
0.0
 10
-17.466
 20
50.1345
 30
0.0
 10
-11.4833
 20
50.4158
 30
0.0
 10
-10.8394
 20
54.3534
 30
0.0
 10
-10.8394
 20
54.3534
 30
0.0
 10
1.5583
 20
49.9401
 30
0.0
 10
-8.6335
 20
33.6384
 30
0.0
 10
-12.9447
 20
39.9889
 30
0.0
 10
-12.9447
 20
39.9889
 30
0.0
 10
-6.3084
 20
44.5645
 30
0.0
 10
-13.4638
 20
51.6676
 30
0.0
 10
-18.3743
 20
44.4304
 30
0.0
 10
-18.3743
 20
44.4304
 30
0.0
 10
-18.7782
 20
43.6567
 30
0.0
 10
-19.8447
 20
43.6605
 30
0.0
 10
-20.0753
 20
44.3749
 30
0.0
 10
-20.0753
 20
44.3749
 30
0.0
 10
-21.5129
 20
48.524
 30
0.0
 10
-28.1468
 20
45.9531
 30
0.0
 10
-26.3452
 20
39.4263
 30
0.0
 10
-26.3452
 20
39.4263
 30
0.0
 10
-29.6333
 20
39.7804
 30
0.0
 10
-33.2326
 20
38.0944
 30
0.0
 10
-35.0907
 20
35.1507
 30
0.0
 10
-35.0907
 20
35.1507
 30
0.0
 10
-33.2326
 20
32.2071
 30
0.0
 10
-29.6333
 20
30.5211
 30
0.0
 10
-26.3452
 20
30.8755
 30
0.0
 10
-26.3452
 20
30.8755
 30
0.0
 10
-26.3452
 20
30.8755
 30
0.0
 10
-26.3452
 20
30.8752
 30
0.0
 10
-26.3452
 20
30.8752
 30
0.0
  0
SPLINE
  5
64
330
1F
100
AcDbEntity
  8
layer 1
 62
     7
100
AcDbSpline
210
0.0
220
0.0
230
1.0
 70
    11
 71
     3
 72
    20
 73
    16
 74
     0
 42
0.0000000001
 43
0.0000000001
 12
1.0
 22
0.0
 32
0.0
 13
1.0
 23
0.0
 33
0.0
 40
0.0
 40
0.0
 40
0.0
 40
0.0
 40
0.2
 40
0.2
 40
0.2
 40
0.2
 40
0.4
 40
0.4
 40
0.4
 40
0.4
 40
0.6
 40
0.6
 40
0.6
 40
0.6
 40
1.0
 40
1.0
 40
1.0
 40
1.0
 10
-32.9096
 20
10.4109
 30
0.0
 10
-32.9096
 20
5.4406
 30
0.0
 10
-36.9504
 20
1.4114
 30
0.0
 10
-41.935
 20
1.4114
 30
0.0
 10
-41.935
 20
1.4114
 30
0.0
 10
-46.9195
 20
1.4114
 30
0.0
 10
-50.9605
 20
5.4406
 30
0.0
 10
-50.9605
 20
10.4109
 30
0.0
 10
-50.9605
 20
10.4109
 30
0.0
 10
-50.9605
 20
15.381
 30
0.0
 10
-46.9197
 20
19.4102
 30
0.0
 10
-41.935
 20
19.4102
 30
0.0
 10
-41.935
 20
19.4102
 30
0.0
 10
-36.9504
 20
19.4102
 30
0.0
 10
-32.9096
 20
15.381
 30
0.0
 10
-32.9096
 20
10.4109
 30
0.0
  0
SPLINE
  5
65
330
1F
100
AcDbEntity
  8
layer 1
 62
     7
100
AcDbSpline
210
0.0
220
0.0
230
1.0
 70
    11
 71
     3
 72
    20
 73
    16
 74
     0
 42
0.0000000001
 43
0.0000000001
 12
1.0
 22
0.0
 32
0.0
 13
1.0
 23
0.0
 33
0.0
 40
0.0
 40
0.0
 40
0.0
 40
0.0
 40
0.2
 40
0.2
 40
0.2
 40
0.2
 40
0.4
 40
0.4
 40
0.4
 40
0.4
 40
0.6
 40
0.6
 40
0.6
 40
0.6
 40
1.0
 40
1.0
 40
1.0
 40
1.0
 10
-53.1983
 20
19.3291
 30
0.0
 10
-58.4846
 20
14.2865
 30
0.0
 10
-60.8674
 20
13.1213
 30
0.0
 10
-64.7407
 20
10.4087
 30
0.0
 10
-64.7407
 20
10.4087
 30
0.0
 10
-60.8674
 20
7.6962
 30
0.0
 10
-58.4849
 20
6.5308
 30
0.0
 10
-53.1983
 20
1.4884
 30
0.0
 10
-53.1983
 20
1.4884
 30
0.0
 10
-55.3063
 20
3.9394
 30
0.0
 10
-56.4563
 20
7.159
 30
0.0
 10
-56.5064
 20
10.4087
 30
0.0
 10
-56.5064
 20
10.4087
 30
0.0
 10
-56.4563
 20
13.6588
 30
0.0
 10
-55.3063
 20
16.8781
 30
0.0
 10
-53.1983
 20
19.3291
 30
0.0
  0
SPLINE
  5
66
330
1F
100
AcDbEntity
  8
layer 1
 62
     7
100
AcDbSpline
210
0.0
220
0.0
230
1.0
 70
    11
 71
     3
 72
    20
 73
    16
 74
     0
 42
0.0000000001
 43
0.0000000001
 12
1.0
 22
0.0
 32
0.0
 13
1.0
 23
0.0
 33
0.0
 40
0.0
 40
0.0
 40
0.0
 40
0.0
 40
0.2
 40
0.2
 40
0.2
 40
0.2
 40
0.4
 40
0.4
 40
0.4
 40
0.4
 40
0.6
 40
0.6
 40
0.6
 40
0.6
 40
1.0
 40
1.0
 40
1.0
 40
1.0
 10
-34.9286
 20
22.9731
 30
0.0
 10
-37.7031
 20
25.594
 30
0.0
 10
-40.0716
 20
28.182
 30
0.0
 10
-41.9436
 20
30.4154
 30
0.0
 10
-41.9436
 20
30.4154
 30
0.0
 10
-43.9032
 20
28.1528
 30
0.0
 10
-46.1548
 20
25.594
 30
0.0
 10
-48.9295
 20
22.9731
 30
0.0
 10
-48.9295
 20
22.9731
 30
0.0
 10
-44.3809
 20
25.6195
 30
0.0
 10
-38.6497
 20
25.3341
 30
0.0
 10
-34.9288
 20
22.9731
 30
0.0
 10
-34.9288
 20
22.9731
 30
0.0
 10
-34.9288
 20
22.9731
 30
0.0
 10
-34.9286
 20
22.9731
 30
0.0
 10
-34.9286
 20
22.9731
 30
0.0
  0
SPLINE
  5
67
330
1F
100
AcDbEntity
  8
layer 1
 62
     7
100
AcDbSpline
210
0.0
220
0.0
230
1.0
 70
    11
 71
     3
 72
    20
 73
    16
 74
     0
 42
0.0000000001
 43
0.0000000001
 12
1.0
 22
0.0
 32
0.0
 13
1.0
 23
0.0
 33
0.0
 40
0.0
 40
0.0
 40
0.0
 40
0.0
 40
0.2
 40
0.2
 40
0.2
 40
0.2
 40
0.4
 40
0.4
 40
0.4
 40
0.4
 40
0.6
 40
0.6
 40
0.6
 40
0.6
 40
1.0
 40
1.0
 40
1.0
 40
1.0
 10
-30.536
 20
19.3291
 30
0.0
 10
-25.2497
 20
14.2865
 30
0.0
 10
-22.867
 20
13.1213
 30
0.0
 10
-18.9936
 20
10.4087
 30
0.0
 10
-18.9936
 20
10.4087
 30
0.0
 10
-22.867
 20
7.6962
 30
0.0
 10
-25.2495
 20
6.5308
 30
0.0
 10
-30.536
 20
1.4884
 30
0.0
 10
-30.536
 20
1.4884
 30
0.0
 10
-28.4281
 20
3.9394
 30
0.0
 10
-27.2781
 20
7.159
 30
0.0
 10
-27.2279
 20
10.4087
 30
0.0
 10
-27.2279
 20
10.4087
 30
0.0
 10
-27.2781
 20
13.6588
 30
0.0
 10
-28.4281
 20
16.8781
 30
0.0
 10
-30.536
 20
19.3291
 30
0.0
  0
SPLINE
  5
68
330
1F
100
AcDbEntity
  8
layer 1
 62
     7
100
AcDbSpline
210
0.0
220
0.0
230
1.0
 70
    11
 71
     3
 72
    20
 73
    16
 74
     0
 42
0.0000000001
 43
0.0000000001
 12
1.0
 22
0.0
 32
0.0
 13
1.0
 23
0.0
 33
0.0
 40
0.0
 40
0.0
 40
0.0
 40
0.0
 40
0.2
 40
0.2
 40
0.2
 40
0.2
 40
0.4
 40
0.4
 40
0.4
 40
0.4
 40
0.6
 40
0.6
 40
0.6
 40
0.6
 40
1.0
 40
1.0
 40
1.0
 40
1.0
 10
-34.9286
 20
-2.0917
 30
0.0
 10
-37.7031
 20
-4.7125
 30
0.0
 10
-40.0716
 20
-7.3006
 30
0.0
 10
-41.9436
 20
-9.534
 30
0.0
 10
-41.9436
 20
-9.534
 30
0.0
 10
-43.9032
 20
-7.2714
 30
0.0
 10
-46.1548
 20
-4.7123
 30
0.0
 10
-48.9295
 20
-2.0917
 30
0.0
 10
-48.9295
 20
-2.0917
 30
0.0
 10
-44.3809
 20
-4.7381
 30
0.0
 10
-38.6497
 20
-4.4527
 30
0.0
 10
-34.9288
 20
-2.0917
 30
0.0
 10
-34.9288
 20
-2.0917
 30
0.0
 10
-34.9288
 20
-2.0917
 30
0.0
 10
-34.9286
 20
-2.0917
 30
0.0
 10
-34.9286
 20
-2.0917
 30
0.0
  0
SPLINE
  5
69
330
1F
100
AcDbEntity
  8
layer 1
 62
     7
100
AcDbSpline
210
0.0
220
0.0
230
1.0
 70
    11
 71
     3
 72
    20
 73
    16
 74
     0
 42
0.0000000001
 43
0.0000000001
 12
1.0
 22
0.0
 32
0.0
 13
1.0
 23
0.0
 33
0.0
 40
0.0
 40
0.0
 40
0.0
 40
0.0
 40
0.2
 40
0.2
 40
0.2
 40
0.2
 40
0.4
 40
0.4
 40
0.4
 40
0.4
 40
0.6
 40
0.6
 40
0.6
 40
0.6
 40
1.0
 40
1.0
 40
1.0
 40
1.0
 10
-83.2242
 20
2.5713
 30
0.0
 10
-83.1834
 20
7.7961
 30
0.0
 10
-83.2047
 20
13.0207
 30
0.0
 10
-83.2242
 20
18.2455
 30
0.0
 10
-83.2242
 20
18.2455
 30
0.0
 10
-82.2568
 20
15.104
 30
0.0
 10
-77.7459
 20
11.0637
 30
0.0
 10
-73.9562
 20
10.4083
 30
0.0
 10
-73.9562
 20
10.4083
 30
0.0
 10
-77.7459
 20
9.7528
 30
0.0
 10
-82.2568
 20
5.7127
 30
0.0
 10
-83.2242
 20
2.571
 30
0.0
 10
-83.2242
 20
2.571
 30
0.0
 10
-83.2242
 20
2.571
 30
0.0
 10
-83.2242
 20
2.5713
 30
0.0
 10
-83.2242
 20
2.5713
 30
0.0
  0
SPLINE
  5
6A
330
1F
100
AcDbEntity
  8
layer 1
 62
     7
100
AcDbSpline
210
0.0
220
0.0
230
1.0
 70
    11
 71
     3
 72
    20
 73
    16
 74
     0
 42
0.0000000001
 43
0.0000000001
 12
1.0
 22
0.0
 32
0.0
 13
1.0
 23
0.0
 33
0.0
 40
0.0
 40
0.0
 40
0.0
 40
0.0
 40
0.2
 40
0.2
 40
0.2
 40
0.2
 40
0.4
 40
0.4
 40
0.4
 40
0.4
 40
0.6
 40
0.6
 40
0.6
 40
0.6
 40
1.0
 40
1.0
 40
1.0
 40
1.0
 10
-0.5586
 20
2.5713
 30
0.0
 10
-0.5994
 20
7.7961
 30
0.0
 10
-0.5782
 20
13.0207
 30
0.0
 10
-0.5586
 20
18.2455
 30
0.0
 10
-0.5586
 20
18.2455
 30
0.0
 10
-1.526
 20
15.104
 30
0.0
 10
-6.037
 20
11.0637
 30
0.0
 10
-9.8266
 20
10.4083
 30
0.0
 10
-9.8266
 20
10.4083
 30
0.0
 10
-6.0367
 20
9.7528
 30
0.0
 10
-1.526
 20
5.7127
 30
0.0
 10
-0.5586
 20
2.571
 30
0.0
 10
-0.5586
 20
2.571
 30
0.0
 10
-0.5586
 20
2.571
 30
0.0
 10
-0.5586
 20
2.5713
 30
0.0
 10
-0.5586
 20
2.5713
 30
0.0
  0
SPLINE
  5
6B
330
1F
100
AcDbEntity
  8
layer 1
 62
     7
100
AcDbSpline
210
0.0
220
0.0
230
1.0
 70
    11
 71
     3
 72
    24
 73
    20
 74
     0
 42
0.0000000001
 43
0.0000000001
 12
1.0
 22
0.0
 32
0.0
 13
1.0
 23
0.0
 33
0.0
 40
0.0
 40
0.0
 40
0.0
 40
0.0
 40
0.1666666666666667
 40
0.1666666666666667
 40
0.1666666666666667
 40
0.1666666666666667
 40
0.3333333333333333
 40
0.3333333333333333
 40
0.3333333333333333
 40
0.3333333333333333
 40
0.5
 40
0.5
 40
0.5
 40
0.5
 40
0.6666666666666666
 40
0.6666666666666666
 40
0.6666666666666666
 40
0.6666666666666666
 40
1.0
 40
1.0
 40
1.0
 40
1.0
 10
-8.4016
 20
34.8996
 30
0.0
 10
-4.2976
 20
34.2217
 30
0.0
 10
-1.5369
 20
30.9201
 30
0.0
 10
-0.5246
 20
27.5994
 30
0.0
 10
-0.5246
 20
27.5994
 30
0.0
 10
-0.5246
 20
27.5994
 30
0.0
 10
-0.5246
 20
42.2343
 30
0.0
 10
-0.5246
 20
42.2343
 30
0.0
 10
-0.5246
 20
42.2343
 30
0.0
 10
-1.5369
 20
38.9139
 30
0.0
 10
-4.2976
 20
35.612
 30
0.0
 10
-8.4016
 20
34.9341
 30
0.0
 10
-8.4016
 20
34.9341
 30
0.0
 10
-8.4016
 20
34.9341
 30
0.0
 10
-8.4016
 20
34.917
 30
0.0
 10
-8.4016
 20
34.917
 30
0.0
 10
-8.4016
 20
34.917
 30
0.0
 10
-8.4016
 20
34.917
 30
0.0
 10
-8.4016
 20
34.8996
 30
0.0
 10
-8.4016
 20
34.8996
 30
0.0
  0
SPLINE
  5
6C
330
1F
100
AcDbEntity
  8
layer 1
 62
     7
100
AcDbSpline
210
0.0
220
0.0
230
1.0
 70
    11
 71
     3
 72
    24
 73
    20
 74
     0
 42
0.0000000001
 43
0.0000000001
 12
1.0
 22
0.0
 32
0.0
 13
1.0
 23
0.0
 33
0.0
 40
0.0
 40
0.0
 40
0.0
 40
0.0
 40
0.1666666666666667
 40
0.1666666666666667
 40
0.1666666666666667
 40
0.1666666666666667
 40
0.3333333333333333
 40
0.3333333333333333
 40
0.3333333333333333
 40
0.3333333333333333
 40
0.5
 40
0.5
 40
0.5
 40
0.5
 40
0.6666666666666666
 40
0.6666666666666666
 40
0.6666666666666666
 40
0.6666666666666666
 40
1.0
 40
1.0
 40
1.0
 40
1.0
 10
-75.4825
 20
34.8996
 30
0.0
 10
-79.5865
 20
34.2217
 30
0.0
 10
-82.3473
 20
30.9201
 30
0.0
 10
-83.3595
 20
27.5994
 30
0.0
 10
-83.3595
 20
27.5994
 30
0.0
 10
-83.3595
 20
27.5994
 30
0.0
 10
-83.3595
 20
42.2343
 30
0.0
 10
-83.3595
 20
42.2343
 30
0.0
 10
-83.3595
 20
42.2343
 30
0.0
 10
-82.3473
 20
38.9139
 30
0.0
 10
-79.5865
 20
35.612
 30
0.0
 10
-75.4825
 20
34.9341
 30
0.0
 10
-75.4825
 20
34.9341
 30
0.0
 10
-75.4825
 20
34.9341
 30
0.0
 10
-75.4825
 20
34.917
 30
0.0
 10
-75.4825
 20
34.917
 30
0.0
 10
-75.4825
 20
34.917
 30
0.0
 10
-75.4825
 20
34.917
 30
0.0
 10
-75.4825
 20
34.8996
 30
0.0
 10
-75.4825
 20
34.8996
 30
0.0
  0
SPLINE
  5
6D
330
1F
100
AcDbEntity
  8
layer 1
 62
     7
100
AcDbSpline
210
0.0
220
0.0
230
1.0
 70
    11
 71
     3
 72
    64
 73
    60
 74
     0
 42
0.0000000001
 43
0.0000000001
 12
1.0
 22
0.0
 32
0.0
 13
1.0
 23
0.0
 33
0.0
 40
0.0
 40
0.0
 40
0.0
 40
0.0
 40
0.0625
 40
0.0625
 40
0.0625
 40
0.0625
 40
0.125
 40
0.125
 40
0.125
 40
0.125
 40
0.1875
 40
0.1875
 40
0.1875
 40
0.1875
 40
0.25
 40
0.25
 40
0.25
 40
0.25
 40
0.3125
 40
0.3125
 40
0.3125
 40
0.3125
 40
0.375
 40
0.375
 40
0.375
 40
0.375
 40
0.4375
 40
0.4375
 40
0.4375
 40
0.4375
 40
0.5
 40
0.5
 40
0.5
 40
0.5
 40
0.5625
 40
0.5625
 40
0.5625
 40
0.5625
 40
0.625
 40
0.625
 40
0.625
 40
0.625
 40
0.6875
 40
0.6875
 40
0.6875
 40
0.6875
 40
0.75
 40
0.75
 40
0.75
 40
0.75
 40
0.8125
 40
0.8125
 40
0.8125
 40
0.8125
 40
0.875
 40
0.875
 40
0.875
 40
0.875
 40
1.0
 40
1.0
 40
1.0
 40
1.0
 10
-65.7376
 20
-32.5957
 30
0.0
 10
-66.5612
 20
-28.8027
 30
0.0
 10
-72.544
 20
-29.084
 30
0.0
 10
-73.1878
 20
-33.0215
 30
0.0
 10
-73.1878
 20
-33.0215
 30
0.0
 10
-85.5855
 20
-28.6082
 30
0.0
 10
-75.3937
 20
-12.3066
 30
0.0
 10
-71.0825
 20
-18.657
 30
0.0
 10
-71.0825
 20
-18.657
 30
0.0
 10
-77.7188
 20
-23.2327
 30
0.0
 10
-70.5634
 20
-30.3358
 30
0.0
 10
-65.6529
 20
-23.0985
 30
0.0
 10
-65.6529
 20
-23.0985
 30
0.0
 10
-65.249
 20
-22.3249
 30
0.0
 10
-64.1825
 20
-22.3287
 30
0.0
 10
-63.9519
 20
-23.043
 30
0.0
 10
-63.9519
 20
-23.043
 30
0.0
 10
-62.5143
 20
-27.1922
 30
0.0
 10
-55.8804
 20
-24.6212
 30
0.0
 10
-57.682
 20
-18.0944
 30
0.0
 10
-57.682
 20
-18.0944
 30
0.0
 10
-54.3939
 20
-18.4486
 30
0.0
 10
-50.7946
 20
-16.7626
 30
0.0
 10
-48.9365
 20
-13.8192
 30
0.0
 10
-48.9365
 20
-13.8192
 30
0.0
 10
-50.7946
 20
-10.8755
 30
0.0
 10
-54.3939
 20
-9.1895
 30
0.0
 10
-57.682
 20
-9.5436
 30
0.0
 10
-57.682
 20
-9.5436
 30
0.0
 10
-55.8804
 20
-3.0168
 30
0.0
 10
-62.5143
 20
-0.4457
 30
0.0
 10
-63.9519
 20
-4.595
 30
0.0
 10
-63.9519
 20
-4.595
 30
0.0
 10
-64.1825
 20
-5.3094
 30
0.0
 10
-65.249
 20
-5.3132
 30
0.0
 10
-65.6529
 20
-4.5396
 30
0.0
 10
-65.6529
 20
-4.5396
 30
0.0
 10
-70.5631
 20
2.6977
 30
0.0
 10
-77.7188
 20
-4.4054
 30
0.0
 10
-71.0825
 20
-8.9811
 30
0.0
 10
-71.0825
 20
-8.9811
 30
0.0
 10
-75.394
 20
-15.3315
 30
0.0
 10
-85.5855
 20
0.9704
 30
0.0
 10
-73.1878
 20
5.3834
 30
0.0
 10
-73.1878
 20
5.3834
 30
0.0
 10
-72.5437
 20
1.4457
 30
0.0
 10
-66.5612
 20
1.1646
 30
0.0
 10
-65.7376
 20
4.9577
 30
0.0
 10
-65.7376
 20
4.9577
 30
0.0
 10
-60.1736
 20
2.6548
 30
0.0
 10
-47.0652
 20
-9.7207
 30
0.0
 10
-43.5074
 20
-13.8192
 30
0.0
 10
-43.5074
 20
-13.8192
 30
0.0
 10
-47.0652
 20
-17.9176
 30
0.0
 10
-60.1736
 20
-30.2931
 30
0.0
 10
-65.7376
 20
-32.596
 30
0.0
 10
-65.7376
 20
-32.596
 30
0.0
 10
-65.7376
 20
-32.596
 30
0.0
 10
-65.7376
 20
-32.5957
 30
0.0
 10
-65.7376
 20
-32.5957
 30
0.0
  0
SPLINE
  5
6E
330
1F
100
AcDbEntity
  8
layer 1
 62
     7
100
AcDbSpline
210
0.0
220
0.0
230
1.0
 70
    11
 71
     3
 72
    64
 73
    60
 74
     0
 42
0.0000000001
 43
0.0000000001
 12
1.0
 22
0.0
 32
0.0
 13
1.0
 23
0.0
 33
0.0
 40
0.0
 40
0.0
 40
0.0
 40
0.0
 40
0.0625
 40
0.0625
 40
0.0625
 40
0.0625
 40
0.125
 40
0.125
 40
0.125
 40
0.125
 40
0.1875
 40
0.1875
 40
0.1875
 40
0.1875
 40
0.25
 40
0.25
 40
0.25
 40
0.25
 40
0.3125
 40
0.3125
 40
0.3125
 40
0.3125
 40
0.375
 40
0.375
 40
0.375
 40
0.375
 40
0.4375
 40
0.4375
 40
0.4375
 40
0.4375
 40
0.5
 40
0.5
 40
0.5
 40
0.5
 40
0.5625
 40
0.5625
 40
0.5625
 40
0.5625
 40
0.625
 40
0.625
 40
0.625
 40
0.625
 40
0.6875
 40
0.6875
 40
0.6875
 40
0.6875
 40
0.75
 40
0.75
 40
0.75
 40
0.75
 40
0.8125
 40
0.8125
 40
0.8125
 40
0.8125
 40
0.875
 40
0.875
 40
0.875
 40
0.875
 40
1.0
 40
1.0
 40
1.0
 40
1.0
 10
-26.3452
 20
-18.0942
 30
0.0
 10
-28.1468
 20
-24.621
 30
0.0
 10
-21.5129
 20
-27.1922
 30
0.0
 10
-20.0753
 20
-23.0428
 30
0.0
 10
-20.0753
 20
-23.0428
 30
0.0
 10
-19.8447
 20
-22.3285
 30
0.0
 10
-18.7782
 20
-22.3246
 30
0.0
 10
-18.3743
 20
-23.0983
 30
0.0
 10
-18.3743
 20
-23.0983
 30
0.0
 10
-13.4641
 20
-30.3355
 30
0.0
 10
-6.3084
 20
-23.2324
 30
0.0
 10
-12.9447
 20
-18.6568
 30
0.0
 10
-12.9447
 20
-18.6568
 30
0.0
 10
-8.6332
 20
-12.3063
 30
0.0
 10
1.5583
 20
-28.6082
 30
0.0
 10
-10.8394
 20
-33.0213
 30
0.0
 10
-10.8394
 20
-33.0213
 30
0.0
 10
-11.4835
 20
-29.0835
 30
0.0
 10
-17.466
 20
-28.8024
 30
0.0
 10
-18.2896
 20
-32.5955
 30
0.0
 10
-18.2896
 20
-32.5955
 30
0.0
 10
-23.8536
 20
-30.2926
 30
0.0
 10
-36.962
 20
-17.9171
 30
0.0
 10
-40.5198
 20
-13.8187
 30
0.0
 10
-40.5198
 20
-13.8187
 30
0.0
 10
-36.962
 20
-9.7202
 30
0.0
 10
-23.8536
 20
2.6552
 30
0.0
 10
-18.2896
 20
4.9581
 30
0.0
 10
-18.2896
 20
4.9581
 30
0.0
 10
-17.466
 20
1.1651
 30
0.0
 10
-11.4833
 20
1.4464
 30
0.0
 10
-10.8394
 20
5.3839
 30
0.0
 10
-10.8394
 20
5.3839
 30
0.0
 10
1.5583
 20
0.9706
 30
0.0
 10
-8.6335
 20
-15.331
 30
0.0
 10
-12.9447
 20
-8.9806
 30
0.0
 10
-12.9447
 20
-8.9806
 30
0.0
 10
-6.3084
 20
-4.4049
 30
0.0
 10
-13.4638
 20
2.6982
 30
0.0
 10
-18.3743
 20
-4.5391
 30
0.0
 10
-18.3743
 20
-4.5391
 30
0.0
 10
-18.7782
 20
-5.3127
 30
0.0
 10
-19.8447
 20
-5.3089
 30
0.0
 10
-20.0753
 20
-4.5946
 30
0.0
 10
-20.0753
 20
-4.5946
 30
0.0
 10
-21.5129
 20
-0.4454
 30
0.0
 10
-28.1468
 20
-3.0164
 30
0.0
 10
-26.3452
 20
-9.5432
 30
0.0
 10
-26.3452
 20
-9.5432
 30
0.0
 10
-29.6333
 20
-9.189
 30
0.0
 10
-33.2326
 20
-10.875
 30
0.0
 10
-35.0907
 20
-13.8187
 30
0.0
 10
-35.0907
 20
-13.8187
 30
0.0
 10
-33.2326
 20
-16.7623
 30
0.0
 10
-29.6333
 20
-18.4483
 30
0.0
 10
-26.3452
 20
-18.094
 30
0.0
 10
-26.3452
 20
-18.094
 30
0.0
 10
-26.3452
 20
-18.094
 30
0.0
 10
-26.3452
 20
-18.0942
 30
0.0
 10
-26.3452
 20
-18.0942
 30
0.0
  0
SPLINE
  5
6F
330
1F
100
AcDbEntity
  8
layer 1
 62
     7
100
AcDbSpline
210
0.0
220
0.0
230
1.0
 70
    11
 71
     3
 72
    24
 73
    20
 74
     0
 42
0.0000000001
 43
0.0000000001
 12
1.0
 22
0.0
 32
0.0
 13
1.0
 23
0.0
 33
0.0
 40
0.0
 40
0.0
 40
0.0
 40
0.0
 40
0.1666666666666667
 40
0.1666666666666667
 40
0.1666666666666667
 40
0.1666666666666667
 40
0.3333333333333333
 40
0.3333333333333333
 40
0.3333333333333333
 40
0.3333333333333333
 40
0.5
 40
0.5
 40
0.5
 40
0.5
 40
0.6666666666666666
 40
0.6666666666666666
 40
0.6666666666666666
 40
0.6666666666666666
 40
1.0
 40
1.0
 40
1.0
 40
1.0
 10
-8.4016
 20
-13.8136
 30
0.0
 10
-4.2976
 20
-14.4915
 30
0.0
 10
-1.5369
 20
-17.7931
 30
0.0
 10
-0.5246
 20
-21.1138
 30
0.0
 10
-0.5246
 20
-21.1138
 30
0.0
 10
-0.5246
 20
-21.1138
 30
0.0
 10
-0.5246
 20
-6.4789
 30
0.0
 10
-0.5246
 20
-6.4789
 30
0.0
 10
-0.5246
 20
-6.4789
 30
0.0
 10
-1.5369
 20
-9.7993
 30
0.0
 10
-4.2976
 20
-13.1012
 30
0.0
 10
-8.4016
 20
-13.7791
 30
0.0
 10
-8.4016
 20
-13.7791
 30
0.0
 10
-8.4016
 20
-13.7791
 30
0.0
 10
-8.4016
 20
-13.7962
 30
0.0
 10
-8.4016
 20
-13.7962
 30
0.0
 10
-8.4016
 20
-13.7962
 30
0.0
 10
-8.4016
 20
-13.7962
 30
0.0
 10
-8.4016
 20
-13.8136
 30
0.0
 10
-8.4016
 20
-13.8136
 30
0.0
  0
SPLINE
  5
70
330
1F
100
AcDbEntity
  8
layer 1
 62
     7
100
AcDbSpline
210
0.0
220
0.0
230
1.0
 70
    11
 71
     3
 72
    24
 73
    20
 74
     0
 42
0.0000000001
 43
0.0000000001
 12
1.0
 22
0.0
 32
0.0
 13
1.0
 23
0.0
 33
0.0
 40
0.0
 40
0.0
 40
0.0
 40
0.0
 40
0.1666666666666667
 40
0.1666666666666667
 40
0.1666666666666667
 40
0.1666666666666667
 40
0.3333333333333333
 40
0.3333333333333333
 40
0.3333333333333333
 40
0.3333333333333333
 40
0.5
 40
0.5
 40
0.5
 40
0.5
 40
0.6666666666666666
 40
0.6666666666666666
 40
0.6666666666666666
 40
0.6666666666666666
 40
1.0
 40
1.0
 40
1.0
 40
1.0
 10
-75.4825
 20
-13.8136
 30
0.0
 10
-79.5865
 20
-14.4915
 30
0.0
 10
-82.3473
 20
-17.7931
 30
0.0
 10
-83.3595
 20
-21.1138
 30
0.0
 10
-83.3595
 20
-21.1138
 30
0.0
 10
-83.3595
 20
-21.1138
 30
0.0
 10
-83.3595
 20
-6.4789
 30
0.0
 10
-83.3595
 20
-6.4789
 30
0.0
 10
-83.3595
 20
-6.4789
 30
0.0
 10
-82.3473
 20
-9.7993
 30
0.0
 10
-79.5865
 20
-13.1012
 30
0.0
 10
-75.4825
 20
-13.7791
 30
0.0
 10
-75.4825
 20
-13.7791
 30
0.0
 10
-75.4825
 20
-13.7791
 30
0.0
 10
-75.4825
 20
-13.7962
 30
0.0
 10
-75.4825
 20
-13.7962
 30
0.0
 10
-75.4825
 20
-13.7962
 30
0.0
 10
-75.4825
 20
-13.7962
 30
0.0
 10
-75.4825
 20
-13.8136
 30
0.0
 10
-75.4825
 20
-13.8136
 30
0.0
  0
SPLINE
  5
71
330
1F
100
AcDbEntity
  8
layer 1
 62
     7
100
AcDbSpline
210
0.0
220
0.0
230
1.0
 70
    11
 71
     3
 72
    36
 73
    32
 74
     0
 42
0.0000000001
 43
0.0000000001
 12
1.0
 22
0.0
 32
0.0
 13
1.0
 23
0.0
 33
0.0
 40
0.0
 40
0.0
 40
0.0
 40
0.0
 40
0.1111111111111111
 40
0.1111111111111111
 40
0.1111111111111111
 40
0.1111111111111111
 40
0.2222222222222222
 40
0.2222222222222222
 40
0.2222222222222222
 40
0.2222222222222222
 40
0.3333333333333333
 40
0.3333333333333333
 40
0.3333333333333333
 40
0.3333333333333333
 40
0.4444444444444444
 40
0.4444444444444444
 40
0.4444444444444444
 40
0.4444444444444444
 40
0.5555555555555556
 40
0.5555555555555556
 40
0.5555555555555556
 40
0.5555555555555556
 40
0.6666666666666666
 40
0.6666666666666666
 40
0.6666666666666666
 40
0.6666666666666666
 40
0.7777777777777778
 40
0.7777777777777778
 40
0.7777777777777778
 40
0.7777777777777778
 40
1.0
 40
1.0
 40
1.0
 40
1.0
 10
-44.0248
 20
-63.2154
 30
0.0
 10
-47.5827
 20
-59.0687
 30
0.0
 10
-60.691
 20
-46.6935
 30
0.0
 10
-66.255
 20
-44.3904
 30
0.0
 10
-66.255
 20
-44.3904
 30
0.0
 10
-67.0786
 20
-48.1834
 30
0.0
 10
-73.0614
 20
-47.9021
 30
0.0
 10
-73.7053
 20
-43.9646
 30
0.0
 10
-73.7053
 20
-43.9646
 30
0.0
 10
-86.1029
 20
-48.3779
 30
0.0
 10
-75.9112
 20
-64.6795
 30
0.0
 10
-71.6
 20
-58.3291
 30
0.0
 10
-71.6
 20
-58.3291
 30
0.0
 10
-78.2363
 20
-53.7535
 30
0.0
 10
-71.0808
 20
-46.6503
 30
0.0
 10
-66.1703
 20
-53.8876
 30
0.0
 10
-66.1703
 20
-53.8876
 30
0.0
 10
-65.7665
 20
-54.6613
 30
0.0
 10
-64.7
 20
-54.6574
 30
0.0
 10
-64.4694
 20
-53.9431
 30
0.0
 10
-64.4694
 20
-53.9431
 30
0.0
 10
-63.0318
 20
-49.794
 30
0.0
 10
-56.3979
 20
-52.3649
 30
0.0
 10
-58.1995
 20
-58.8917
 30
0.0
 10
-58.1995
 20
-58.8917
 30
0.0
 10
-54.9114
 20
-58.5375
 30
0.0
 10
-51.312
 20
-60.2236
 30
0.0
 10
-49.454
 20
-63.2157
 30
0.0
 10
-49.454
 20
-63.2157
 30
0.0
 10
-49.454
 20
-63.2157
 30
0.0
 10
-44.0248
 20
-63.2154
 30
0.0
 10
-44.0248
 20
-63.2154
 30
0.0
  0
SPLINE
  5
72
330
1F
100
AcDbEntity
  8
layer 1
 62
     7
100
AcDbSpline
210
0.0
220
0.0
230
1.0
 70
    11
 71
     3
 72
    36
 73
    32
 74
     0
 42
0.0000000001
 43
0.0000000001
 12
1.0
 22
0.0
 32
0.0
 13
1.0
 23
0.0
 33
0.0
 40
0.0
 40
0.0
 40
0.0
 40
0.0
 40
0.1111111111111111
 40
0.1111111111111111
 40
0.1111111111111111
 40
0.1111111111111111
 40
0.2222222222222222
 40
0.2222222222222222
 40
0.2222222222222222
 40
0.2222222222222222
 40
0.3333333333333333
 40
0.3333333333333333
 40
0.3333333333333333
 40
0.3333333333333333
 40
0.4444444444444444
 40
0.4444444444444444
 40
0.4444444444444444
 40
0.4444444444444444
 40
0.5555555555555556
 40
0.5555555555555556
 40
0.5555555555555556
 40
0.5555555555555556
 40
0.6666666666666666
 40
0.6666666666666666
 40
0.6666666666666666
 40
0.6666666666666666
 40
0.7777777777777778
 40
0.7777777777777778
 40
0.7777777777777778
 40
0.7777777777777778
 40
1.0
 40
1.0
 40
1.0
 40
1.0
 10
-40.5198
 20
-63.0463
 30
0.0
 10
-36.962
 20
-58.8996
 30
0.0
 10
-23.8536
 20
-46.5244
 30
0.0
 10
-18.2896
 20
-44.2213
 30
0.0
 10
-18.2896
 20
-44.2213
 30
0.0
 10
-17.466
 20
-48.0143
 30
0.0
 10
-11.4833
 20
-47.733
 30
0.0
 10
-10.8394
 20
-43.7955
 30
0.0
 10
-10.8394
 20
-43.7955
 30
0.0
 10
1.5583
 20
-48.2088
 30
0.0
 10
-8.6335
 20
-64.5104
 30
0.0
 10
-12.9447
 20
-58.16
 30
0.0
 10
-12.9447
 20
-58.16
 30
0.0
 10
-6.3084
 20
-53.5843
 30
0.0
 10
-13.4638
 20
-46.4812
 30
0.0
 10
-18.3743
 20
-53.7185
 30
0.0
 10
-18.3743
 20
-53.7185
 30
0.0
 10
-18.7782
 20
-54.4921
 30
0.0
 10
-19.8447
 20
-54.4883
 30
0.0
 10
-20.0753
 20
-53.774
 30
0.0
 10
-20.0753
 20
-53.774
 30
0.0
 10
-21.5129
 20
-49.6248
 30
0.0
 10
-28.1468
 20
-52.1958
 30
0.0
 10
-26.3452
 20
-58.7226
 30
0.0
 10
-26.3452
 20
-58.7226
 30
0.0
 10
-29.6333
 20
-58.3684
 30
0.0
 10
-33.2326
 20
-60.0545
 30
0.0
 10
-35.0907
 20
-63.0466
 30
0.0
 10
-35.0907
 20
-63.0466
 30
0.0
 10
-35.0907
 20
-63.0466
 30
0.0
 10
-40.5198
 20
-63.0463
 30
0.0
 10
-40.5198
 20
-63.0463
 30
0.0
  0
SPLINE
  5
73
330
1F
100
AcDbEntity
  8
layer 1
 62
     7
100
AcDbSpline
210
0.0
220
0.0
230
1.0
 70
    11
 71
     3
 72
    20
 73
    16
 74
     0
 42
0.0000000001
 43
0.0000000001
 12
1.0
 22
0.0
 32
0.0
 13
1.0
 23
0.0
 33
0.0
 40
0.0
 40
0.0
 40
0.0
 40
0.0
 40
0.2
 40
0.2
 40
0.2
 40
0.2
 40
0.4
 40
0.4
 40
0.4
 40
0.4
 40
0.6
 40
0.6
 40
0.6
 40
0.6
 40
1.0
 40
1.0
 40
1.0
 40
1.0
 10
-83.2242
 20
-46.2995
 30
0.0
 10
-83.1834
 20
-41.0747
 30
0.0
 10
-83.2047
 20
-35.8502
 30
0.0
 10
-83.2242
 20
-30.6253
 30
0.0
 10
-83.2242
 20
-30.6253
 30
0.0
 10
-82.2568
 20
-33.7668
 30
0.0
 10
-77.7459
 20
-37.8071
 30
0.0
 10
-73.9562
 20
-38.4626
 30
0.0
 10
-73.9562
 20
-38.4626
 30
0.0
 10
-77.7459
 20
-39.118
 30
0.0
 10
-82.2568
 20
-43.1581
 30
0.0
 10
-83.2242
 20
-46.2998
 30
0.0
 10
-83.2242
 20
-46.2998
 30
0.0
 10
-83.2242
 20
-46.2998
 30
0.0
 10
-83.2242
 20
-46.2995
 30
0.0
 10
-83.2242
 20
-46.2995
 30
0.0
  0
SPLINE
  5
74
330
1F
100
AcDbEntity
  8
layer 1
 62
     7
100
AcDbSpline
210
0.0
220
0.0
230
1.0
 70
    11
 71
     3
 72
    20
 73
    16
 74
     0
 42
0.0000000001
 43
0.0000000001
 12
1.0
 22
0.0
 32
0.0
 13
1.0
 23
0.0
 33
0.0
 40
0.0
 40
0.0
 40
0.0
 40
0.0
 40
0.2
 40
0.2
 40
0.2
 40
0.2
 40
0.4
 40
0.4
 40
0.4
 40
0.4
 40
0.6
 40
0.6
 40
0.6
 40
0.6
 40
1.0
 40
1.0
 40
1.0
 40
1.0
 10
-0.5586
 20
-46.2995
 30
0.0
 10
-0.5994
 20
-41.0747
 30
0.0
 10
-0.5782
 20
-35.8502
 30
0.0
 10
-0.5586
 20
-30.6253
 30
0.0
 10
-0.5586
 20
-30.6253
 30
0.0
 10
-1.526
 20
-33.7668
 30
0.0
 10
-6.037
 20
-37.8071
 30
0.0
 10
-9.8266
 20
-38.4626
 30
0.0
 10
-9.8266
 20
-38.4626
 30
0.0
 10
-6.0367
 20
-39.118
 30
0.0
 10
-1.526
 20
-43.1581
 30
0.0
 10
-0.5586
 20
-46.2998
 30
0.0
 10
-0.5586
 20
-46.2998
 30
0.0
 10
-0.5586
 20
-46.2998
 30
0.0
 10
-0.5586
 20
-46.2995
 30
0.0
 10
-0.5586
 20
-46.2995
 30
0.0
  0
SPLINE
  5
75
330
1F
100
AcDbEntity
  8
layer 1
 62
     7
100
AcDbSpline
210
0.0
220
0.0
230
1.0
 70
    11
 71
     3
 72
    20
 73
    16
 74
     0
 42
0.0000000001
 43
0.0000000001
 12
1.0
 22
0.0
 32
0.0
 13
1.0
 23
0.0
 33
0.0
 40
0.0
 40
0.0
 40
0.0
 40
0.0
 40
0.2
 40
0.2
 40
0.2
 40
0.2
 40
0.4
 40
0.4
 40
0.4
 40
0.4
 40
0.6
 40
0.6
 40
0.6
 40
0.6
 40
1.0
 40
1.0
 40
1.0
 40
1.0
 10
-32.9096
 20
-38.4858
 30
0.0
 10
-32.9096
 20
-43.4561
 30
0.0
 10
-36.9504
 20
-47.4853
 30
0.0
 10
-41.935
 20
-47.4853
 30
0.0
 10
-41.935
 20
-47.4853
 30
0.0
 10
-46.9195
 20
-47.4853
 30
0.0
 10
-50.9605
 20
-43.4561
 30
0.0
 10
-50.9605
 20
-38.4858
 30
0.0
 10
-50.9605
 20
-38.4858
 30
0.0
 10
-50.9605
 20
-33.5157
 30
0.0
 10
-46.9197
 20
-29.4865
 30
0.0
 10
-41.935
 20
-29.4865
 30
0.0
 10
-41.935
 20
-29.4865
 30
0.0
 10
-36.9504
 20
-29.4865
 30
0.0
 10
-32.9096
 20
-33.5157
 30
0.0
 10
-32.9096
 20
-38.4858
 30
0.0
  0
SPLINE
  5
76
330
1F
100
AcDbEntity
  8
layer 1
 62
     7
100
AcDbSpline
210
0.0
220
0.0
230
1.0
 70
    11
 71
     3
 72
    20
 73
    16
 74
     0
 42
0.0000000001
 43
0.0000000001
 12
1.0
 22
0.0
 32
0.0
 13
1.0
 23
0.0
 33
0.0
 40
0.0
 40
0.0
 40
0.0
 40
0.0
 40
0.2
 40
0.2
 40
0.2
 40
0.2
 40
0.4
 40
0.4
 40
0.4
 40
0.4
 40
0.6
 40
0.6
 40
0.6
 40
0.6
 40
1.0
 40
1.0
 40
1.0
 40
1.0
 10
-53.1983
 20
-29.5675
 30
0.0
 10
-58.4846
 20
-34.6102
 30
0.0
 10
-60.8674
 20
-35.7754
 30
0.0
 10
-64.7407
 20
-38.4879
 30
0.0
 10
-64.7407
 20
-38.4879
 30
0.0
 10
-60.8674
 20
-41.2004
 30
0.0
 10
-58.4849
 20
-42.3659
 30
0.0
 10
-53.1983
 20
-47.4083
 30
0.0
 10
-53.1983
 20
-47.4083
 30
0.0
 10
-55.3063
 20
-44.9573
 30
0.0
 10
-56.4563
 20
-41.7377
 30
0.0
 10
-56.5064
 20
-38.4879
 30
0.0
 10
-56.5064
 20
-38.4879
 30
0.0
 10
-56.4563
 20
-35.2379
 30
0.0
 10
-55.3063
 20
-32.0185
 30
0.0
 10
-53.1983
 20
-29.5675
 30
0.0
  0
SPLINE
  5
77
330
1F
100
AcDbEntity
  8
layer 1
 62
     7
100
AcDbSpline
210
0.0
220
0.0
230
1.0
 70
    11
 71
     3
 72
    20
 73
    16
 74
     0
 42
0.0000000001
 43
0.0000000001
 12
1.0
 22
0.0
 32
0.0
 13
1.0
 23
0.0
 33
0.0
 40
0.0
 40
0.0
 40
0.0
 40
0.0
 40
0.2
 40
0.2
 40
0.2
 40
0.2
 40
0.4
 40
0.4
 40
0.4
 40
0.4
 40
0.6
 40
0.6
 40
0.6
 40
0.6
 40
1.0
 40
1.0
 40
1.0
 40
1.0
 10
-34.9286
 20
-25.5826
 30
0.0
 10
-37.7031
 20
-22.9617
 30
0.0
 10
-40.0716
 20
-20.3737
 30
0.0
 10
-41.9436
 20
-18.1403
 30
0.0
 10
-41.9436
 20
-18.1403
 30
0.0
 10
-43.9032
 20
-20.4029
 30
0.0
 10
-46.1548
 20
-22.9617
 30
0.0
 10
-48.9295
 20
-25.5826
 30
0.0
 10
-48.9295
 20
-25.5826
 30
0.0
 10
-44.3809
 20
-22.9362
 30
0.0
 10
-38.6497
 20
-23.2216
 30
0.0
 10
-34.9288
 20
-25.5826
 30
0.0
 10
-34.9288
 20
-25.5826
 30
0.0
 10
-34.9288
 20
-25.5826
 30
0.0
 10
-34.9286
 20
-25.5826
 30
0.0
 10
-34.9286
 20
-25.5826
 30
0.0
  0
SPLINE
  5
78
330
1F
100
AcDbEntity
  8
layer 1
 62
     7
100
AcDbSpline
210
0.0
220
0.0
230
1.0
 70
    11
 71
     3
 72
    20
 73
    16
 74
     0
 42
0.0000000001
 43
0.0000000001
 12
1.0
 22
0.0
 32
0.0
 13
1.0
 23
0.0
 33
0.0
 40
0.0
 40
0.0
 40
0.0
 40
0.0
 40
0.2
 40
0.2
 40
0.2
 40
0.2
 40
0.4
 40
0.4
 40
0.4
 40
0.4
 40
0.6
 40
0.6
 40
0.6
 40
0.6
 40
1.0
 40
1.0
 40
1.0
 40
1.0
 10
-30.536
 20
-29.5675
 30
0.0
 10
-25.2497
 20
-34.6102
 30
0.0
 10
-22.867
 20
-35.7754
 30
0.0
 10
-18.9936
 20
-38.4879
 30
0.0
 10
-18.9936
 20
-38.4879
 30
0.0
 10
-22.867
 20
-41.2004
 30
0.0
 10
-25.2495
 20
-42.3659
 30
0.0
 10
-30.536
 20
-47.4083
 30
0.0
 10
-30.536
 20
-47.4083
 30
0.0
 10
-28.4281
 20
-44.9573
 30
0.0
 10
-27.2781
 20
-41.7377
 30
0.0
 10
-27.2279
 20
-38.4879
 30
0.0
 10
-27.2279
 20
-38.4879
 30
0.0
 10
-27.2781
 20
-35.2379
 30
0.0
 10
-28.4281
 20
-32.0185
 30
0.0
 10
-30.536
 20
-29.5675
 30
0.0
  0
SPLINE
  5
79
330
1F
100
AcDbEntity
  8
layer 1
 62
     7
100
AcDbSpline
210
0.0
220
0.0
230
1.0
 70
    11
 71
     3
 72
    20
 73
    16
 74
     0
 42
0.0000000001
 43
0.0000000001
 12
1.0
 22
0.0
 32
0.0
 13
1.0
 23
0.0
 33
0.0
 40
0.0
 40
0.0
 40
0.0
 40
0.0
 40
0.2
 40
0.2
 40
0.2
 40
0.2
 40
0.4
 40
0.4
 40
0.4
 40
0.4
 40
0.6
 40
0.6
 40
0.6
 40
0.6
 40
1.0
 40
1.0
 40
1.0
 40
1.0
 10
-34.9286
 20
-50.6474
 30
0.0
 10
-37.7031
 20
-53.2682
 30
0.0
 10
-40.0716
 20
-55.8563
 30
0.0
 10
-41.9436
 20
-58.0897
 30
0.0
 10
-41.9436
 20
-58.0897
 30
0.0
 10
-43.9032
 20
-55.8271
 30
0.0
 10
-46.1548
 20
-53.268
 30
0.0
 10
-48.9295
 20
-50.6474
 30
0.0
 10
-48.9295
 20
-50.6474
 30
0.0
 10
-44.3809
 20
-53.2938
 30
0.0
 10
-38.6497
 20
-53.0084
 30
0.0
 10
-34.9288
 20
-50.6474
 30
0.0
 10
-34.9288
 20
-50.6474
 30
0.0
 10
-34.9288
 20
-50.6474
 30
0.0
 10
-34.9286
 20
-50.6474
 30
0.0
 10
-34.9286
 20
-50.6474
 30
0.0
  0
SPLINE
  5
7A
330
1F
100
AcDbEntity
  8
layer 1
 62
     7
100
AcDbSpline
210
0.0
220
0.0
230
1.0
 70
    11
 71
     3
 72
    16
 73
    12
 74
     0
 42
0.0000000001
 43
0.0000000001
 12
1.0
 22
0.0
 32
0.0
 13
1.0
 23
0.0
 33
0.0
 40
0.0
 40
0.0
 40
0.0
 40
0.0
 40
0.25
 40
0.25
 40
0.25
 40
0.25
 40
0.5
 40
0.5
 40
0.5
 40
0.5
 40
1.0
 40
1.0
 40
1.0
 40
1.0
 10
-75.3472
 20
-63.2159
 30
0.0
 10
-75.3472
 20
-63.2159
 30
0.0
 10
-83.1678
 20
-63.2159
 30
0.0
 10
-83.1678
 20
-63.2159
 30
0.0
 10
-83.1678
 20
-63.2159
 30
0.0
 10
-83.1678
 20
-63.2159
 30
0.0
 10
-83.2242
 20
-55.9157
 30
0.0
 10
-83.2242
 20
-55.9157
 30
0.0
 10
-83.2242
 20
-55.9157
 30
0.0
 10
-82.212
 20
-59.2362
 30
0.0
 10
-79.4512
 20
-62.538
 30
0.0
 10
-75.3472
 20
-63.2159
 30
0.0
  0
SPLINE
  5
7B
330
1F
100
AcDbEntity
  8
layer 1
 62
     7
100
AcDbSpline
210
0.0
220
0.0
230
1.0
 70
    11
 71
     3
 72
    16
 73
    12
 74
     0
 42
0.0000000001
 43
0.0000000001
 12
1.0
 22
0.0
 32
0.0
 13
1.0
 23
0.0
 33
0.0
 40
0.0
 40
0.0
 40
0.0
 40
0.0
 40
0.25
 40
0.25
 40
0.25
 40
0.25
 40
0.5
 40
0.5
 40
0.5
 40
0.5
 40
1.0
 40
1.0
 40
1.0
 40
1.0
 10
-8.4016
 20
-63.2159
 30
0.0
 10
-8.4016
 20
-63.2159
 30
0.0
 10
-0.5811
 20
-63.2159
 30
0.0
 10
-0.5811
 20
-63.2159
 30
0.0
 10
-0.5811
 20
-63.2159
 30
0.0
 10
-0.5811
 20
-63.2159
 30
0.0
 10
-0.5246
 20
-55.9157
 30
0.0
 10
-0.5246
 20
-55.9157
 30
0.0
 10
-0.5246
 20
-55.9157
 30
0.0
 10
-1.5369
 20
-59.2362
 30
0.0
 10
-4.2976
 20
-62.538
 30
0.0
 10
-8.4016
 20
-63.2159
 30
0.0
  0
ENDSEC
  0
SECTION
  2
OBJECTS
  0
DICTIONARY
  5
C
330
0
100
AcDbDictionary
281
     1
  3
ACAD_GROUP
350
D
  3
ACAD_LAYOUT
350
1A
  3
ACAD_MATERIAL
350
3B
  3
ACAD_MLEADERSTYLE
350
9D
  3
ACAD_MLINESTYLE
350
17
  3
ACAD_PLOTSETTINGS
350
19
  3
ACAD_PLOTSTYLENAME
350
E
  3
ACAD_TABLESTYLE
350
9C
  3
ACAD_VISUALSTYLE
350
2A
  0
DICTIONARY
  5
D
102
{ACAD_REACTORS
330
C
102
}
330
C
100
AcDbDictionary
281
     1
  0
DICTIONARY
  5
1A
102
{ACAD_REACTORS
330
C
102
}
330
C
100
AcDbDictionary
281
     1
  3
Layout1
350
1E
  3
Layout2
350
26
  3
Model
350
22
  0
DICTIONARY
  5
3B
102
{ACAD_REACTORS
330
C
102
}
330
C
100
AcDbDictionary
281
     1
  3
ByBlock
350
3D
  3
ByLayer
350
3C
  3
Global
350
3E
  0
DICTIONARY
  5
9D
102
{ACAD_REACTORS
330
C
102
}
330
C
100
AcDbDictionary
281
     1
  0
DICTIONARY
  5
17
102
{ACAD_REACTORS
330
C
102
}
330
C
100
AcDbDictionary
281
     1
  3
Standard
350
18
  0
DICTIONARY
  5
19
102
{ACAD_REACTORS
330
C
102
}
330
C
100
AcDbDictionary
281
     1
  0
ACDBDICTIONARYWDFLT
  5
E
102
{ACAD_REACTORS
330
C
102
}
330
C
100
AcDbDictionary
281
     1
  3
Normal
350
F
100
AcDbDictionaryWithDefault
340
F
  0
DICTIONARY
  5
9C
102
{ACAD_REACTORS
330
C
102
}
330
C
100
AcDbDictionary
281
     1
  0
DICTIONARY
  5
2A
102
{ACAD_REACTORS
330
C
102
}
330
C
100
AcDbDictionary
281
     1
  3
2dWireframe
350
2F
  3
3D Hidden
350
31
  3
3dWireframe
350
30
  3
Basic
350
32
  3
Brighten
350
36
  3
ColorChange
350
3A
  3
Conceptual
350
34
  3
Dim
350
35
  3
Facepattern
350
39
  3
Flat
350
2B
  3
FlatWithEdges
350
2C
  3
Gouraud
350
2D
  3
GouraudWithEdges
350
2E
  3
Linepattern
350
38
  3
Realistic
350
33
  3
Thicken
350
37
  0
LAYOUT
  5
1E
102
{ACAD_REACTORS
330
1A
102
}
330
1A
100
AcDbPlotSettings
  1

  2
none_device
  4

  6

 40
0.0
 41
0.0
 42
0.0
 43
0.0
 44
0.0
 45
0.0
 46
0.0
 47
0.0
 48
0.0
 49
0.0
140
0.0
141
0.0
142
1.0
143
1.0
 70
   688
 72
     0
 73
     0
 74
     5
  7

 75
    16
 76
     0
 77
     2
 78
   300
147
1.0
148
0.0
149
0.0
100
AcDbLayout
  1
Layout1
 70
     1
 71
     1
 10
0.0
 20
0.0
 11
12.0
 21
9.0
 12
0.0
 22
0.0
 32
0.0
 14
1.000000000000000E+20
 24
1.000000000000000E+20
 34
1.000000000000000E+20
 15
-1.000000000000000E+20
 25
-1.000000000000000E+20
 35
-1.000000000000000E+20
146
0.0
 13
0.0
 23
0.0
 33
0.0
 16
1.0
 26
0.0
 36
0.0
 17
0.0
 27
1.0
 37
0.0
 76
     0
330
1B
  0
LAYOUT
  5
26
102
{ACAD_REACTORS
330
1A
102
}
330
1A
100
AcDbPlotSettings
  1

  2
none_device
  4

  6

 40
0.0
 41
0.0
 42
0.0
 43
0.0
 44
0.0
 45
0.0
 46
0.0
 47
0.0
 48
0.0
 49
0.0
140
0.0
141
0.0
142
1.0
143
1.0
 70
   688
 72
     0
 73
     0
 74
     5
  7

 75
    16
 76
     0
 77
     2
 78
   300
147
1.0
148
0.0
149
0.0
100
AcDbLayout
  1
Layout2
 70
     1
 71
     2
 10
0.0
 20
0.0
 11
0.0
 21
0.0
 12
0.0
 22
0.0
 32
0.0
 14
0.0
 24
0.0
 34
0.0
 15
0.0
 25
0.0
 35
0.0
146
0.0
 13
0.0
 23
0.0
 33
0.0
 16
1.0
 26
0.0
 36
0.0
 17
0.0
 27
1.0
 37
0.0
 76
     0
330
23
  0
LAYOUT
  5
22
102
{ACAD_REACTORS
330
1A
102
}
330
1A
100
AcDbPlotSettings
  1

  2
none_device
  4

  6

 40
0.0
 41
0.0
 42
0.0
 43
0.0
 44
0.0
 45
0.0
 46
0.0
 47
0.0
 48
0.0
 49
0.0
140
0.0
141
0.0
142
1.0
143
1.0
 70
  1712
 72
     0
 73
     0
 74
     0
  7

 75
     0
 76
     0
 77
     2
 78
   300
147
1.0
148
0.0
149
0.0
100
AcDbLayout
  1
Model
 70
     1
 71
     0
 10
0.0
 20
0.0
 11
12.0
 21
9.0
 12
0.0
 22
0.0
 32
0.0
 14
-187.3071
 24
-114.7585
 34
0.0
 15
5.3255
 25
132.075
 35
0.0
146
0.0
 13
0.0
 23
0.0
 33
0.0
 16
1.0
 26
0.0
 36
0.0
 17
0.0
 27
1.0
 37
0.0
 76
     0
330
1F
331
29
  0
MATERIAL
  5
3D
102
{ACAD_REACTORS
330
3B
102
}
330
3B
100
AcDbMaterial
  1
ByBlock
 72
     1
 94
      127
  0
MATERIAL
  5
3C
102
{ACAD_REACTORS
330
3B
102
}
330
3B
100
AcDbMaterial
  1
ByLayer
 72
     1
 94
      127
  0
MATERIAL
  5
3E
102
{ACAD_REACTORS
330
3B
102
}
330
3B
100
AcDbMaterial
  1
Global
 72
     1
 94
      127
  0
MLINESTYLE
  5
18
102
{ACAD_REACTORS
330
17
102
}
330
17
100
AcDbMlineStyle
  2
Standard
 70
     0
  3

 62
   256
 51
90.0
 52
90.0
 71
     2
 49
0.5
 62
   256
  6
BYLAYER
 49
-0.5
 62
   256
  6
BYLAYER
  0
ACDBPLACEHOLDER
  5
F
102
{ACAD_REACTORS
330
E
102
}
330
E
  0
VISUALSTYLE
  5
2F
102
{ACAD_REACTORS
330
2A
102
}
102
{ACAD_XDICTIONARY
360
84
102
}
330
2A
100
AcDbVisualStyle
  2
2dWireframe
 70
     4
 71
     0
 72
     2
 73
     0
 90
        0
 40
-0.6
 41
-30.0
 62
     5
 63
     7
421
 16777215
 74
     1
 91
        4
 64
     7
 65
   257
 75
     1
175
     1
 42
1.0
 92
        0
 66
   257
 43
1.0
 76
     1
 77
     6
 78
     2
 67
     7
 79
     5
170
     0
171
     0
290
     0
174
     0
 93
        1
 44
0.0
173
     0
291
     0
 45
0.0
  0
VISUALSTYLE
  5
31
102
{ACAD_REACTORS
330
2A
102
}
102
{ACAD_XDICTIONARY
360
88
102
}
330
2A
100
AcDbVisualStyle
  2
3D Hidden
 70
     6
 71
     1
 72
     2
 73
     2
 90
        0
 40
-0.6
 41
-30.0
 62
     5
 63
     7
421
 16777215
 74
     2
 91
        2
 64
     7
 65
   257
 75
     2
175
     1
 42
40.0
 92
        0
 66
   257
 43
1.0
 76
     1
 77
     6
 78
     2
 67
     7
 79
     3
170
     0
171
     0
290
     0
174
     0
 93
        1
 44
0.0
173
     0
291
     0
 45
0.0
  0
VISUALSTYLE
  5
30
102
{ACAD_REACTORS
330
2A
102
}
102
{ACAD_XDICTIONARY
360
86
102
}
330
2A
100
AcDbVisualStyle
  2
3dWireframe
 70
     5
 71
     0
 72
     2
 73
     0
 90
        0
 40
-0.6
 41
-30.0
 62
     5
 63
     7
421
 16777215
 74
     1
 91
        4
 64
     7
 65
   257
 75
     1
175
     1
 42
1.0
 92
        0
 66
   257
 43
1.0
 76
     1
 77
     6
 78
     2
 67
     7
 79
     5
170
     0
171
     0
290
     0
174
     0
 93
        1
 44
0.0
173
     0
291
     0
 45
0.0
  0
VISUALSTYLE
  5
32
102
{ACAD_REACTORS
330
2A
102
}
102
{ACAD_XDICTIONARY
360
8A
102
}
330
2A
100
AcDbVisualStyle
  2
Basic
 70
     7
 71
     1
 72
     0
 73
     1
 90
        0
 40
-0.6
 41
-30.0
 62
     5
 63
     7
421
 16777215
 74
     0
 91
        4
 64
     7
 65
   257
 75
     1
175
     1
 42
1.0
 92
        8
 66
     7
 43
1.0
 76
     1
 77
     6
 78
     2
 67
     7
 79
     5
170
     0
171
     0
290
     0
174
     0
 93
        1
 44
0.0
173
     0
291
     1
 45
0.0
  0
VISUALSTYLE
  5
36
102
{ACAD_REACTORS
330
2A
102
}
102
{ACAD_XDICTIONARY
360
92
102
}
330
2A
100
AcDbVisualStyle
  2
Brighten
 70
    12
 71
     2
 72
     2
 73
     0
 90
        0
 40
-0.6
 41
-30.0
 62
     5
 63
     7
421
 16777215
 74
     1
 91
        4
 64
     7
 65
   257
 75
     1
175
     1
 42
1.0
 92
        8
 66
     7
 43
1.0
 76
     1
 77
     6
 78
     2
 67
     7
 79
     5
170
     0
171
     0
290
     0
174
     0
 93
        1
 44
50.0
173
     0
291
     1
 45
0.0
  0
VISUALSTYLE
  5
3A
102
{ACAD_REACTORS
330
2A
102
}
102
{ACAD_XDICTIONARY
360
9A
102
}
330
2A
100
AcDbVisualStyle
  2
ColorChange
 70
    16
 71
     2
 72
     2
 73
     3
 90
        0
 40
-0.6
 41
-30.0
 62
     5
 63
     8
421
  8421504
 74
     1
 91
        4
 64
     7
 65
   257
 75
     1
175
     1
 42
1.0
 92
        8
 66
     8
424
  8421504
 43
1.0
 76
     1
 77
     6
 78
     2
 67
     7
 79
     5
170
     0
171
     0
290
     0
174
     0
 93
        1
 44
0.0
173
     0
291
     1
 45
0.0
  0
VISUALSTYLE
  5
34
102
{ACAD_REACTORS
330
2A
102
}
102
{ACAD_XDICTIONARY
360
8E
102
}
330
2A
100
AcDbVisualStyle
  2
Conceptual
 70
     9
 71
     3
 72
     2
 73
     0
 90
        0
 40
-0.6
 41
-30.0
 62
     5
 63
     7
421
 16777215
 74
     2
 91
        2
 64
     7
 65
   257
 75
     1
175
     1
 42
40.0
 92
        8
 66
     7
 43
1.0
 76
     1
 77
     6
 78
     2
 67
     7
 79
     3
170
     0
171
     0
290
     0
174
     0
 93
        1
 44
0.0
173
     0
291
     0
 45
0.0
  0
VISUALSTYLE
  5
35
102
{ACAD_REACTORS
330
2A
102
}
102
{ACAD_XDICTIONARY
360
90
102
}
330
2A
100
AcDbVisualStyle
  2
Dim
 70
    11
 71
     2
 72
     2
 73
     0
 90
        0
 40
-0.6
 41
-30.0
 62
     5
 63
     7
421
 16777215
 74
     1
 91
        4
 64
     7
 65
   257
 75
     1
175
     1
 42
1.0
 92
        8
 66
     7
 43
1.0
 76
     1
 77
     6
 78
     2
 67
     7
 79
     5
170
     0
171
     0
290
     0
174
     0
 93
        1
 44
-50.0
173
     0
291
     1
 45
0.0
  0
VISUALSTYLE
  5
39
102
{ACAD_REACTORS
330
2A
102
}
102
{ACAD_XDICTIONARY
360
98
102
}
330
2A
100
AcDbVisualStyle
  2
Facepattern
 70
    15
 71
     2
 72
     2
 73
     0
 90
        0
 40
-0.6
 41
-30.0
 62
     5
 63
     7
421
 16777215
 74
     1
 91
        4
 64
     7
 65
   257
 75
     1
175
     1
 42
1.0
 92
        8
 66
     7
 43
1.0
 76
     1
 77
     6
 78
     2
 67
     7
 79
     5
170
     0
171
     0
290
     0
174
     0
 93
        1
 44
0.0
173
     0
291
     1
 45
0.0
  0
VISUALSTYLE
  5
2B
102
{ACAD_REACTORS
330
2A
102
}
102
{ACAD_XDICTIONARY
360
7C
102
}
330
2A
100
AcDbVisualStyle
  2
Flat
 70
     0
 71
     2
 72
     1
 73
     1
 90
        2
 40
-0.6
 41
30.0
 62
     5
 63
     7
421
 16777215
 74
     0
 91
        4
 64
     7
 65
   257
 75
     1
175
     1
 42
1.0
 92
        8
 66
     7
 43
1.0
 76
     1
 77
     6
 78
     2
 67
     7
 79
     5
170
     0
171
     0
290
     0
174
     0
 93
       13
 44
0.0
173
     0
291
     1
 45
0.0
  0
VISUALSTYLE
  5
2C
102
{ACAD_REACTORS
330
2A
102
}
102
{ACAD_XDICTIONARY
360
7E
102
}
330
2A
100
AcDbVisualStyle
  2
FlatWithEdges
 70
     1
 71
     2
 72
     1
 73
     1
 90
        2
 40
-0.6
 41
30.0
 62
     5
 63
     7
421
 16777215
 74
     1
 91
        4
 64
     7
 65
   257
 75
     1
175
     1
 42
1.0
 92
        0
 66
   257
 43
1.0
 76
     1
 77
     6
 78
     2
 67
     7
 79
     5
170
     0
171
     0
290
     0
174
     0
 93
       13
 44
0.0
173
     0
291
     1
 45
0.0
  0
VISUALSTYLE
  5
2D
102
{ACAD_REACTORS
330
2A
102
}
102
{ACAD_XDICTIONARY
360
80
102
}
330
2A
100
AcDbVisualStyle
  2
Gouraud
 70
     2
 71
     2
 72
     2
 73
     1
 90
        2
 40
-0.6
 41
30.0
 62
     5
 63
     7
421
 16777215
 74
     0
 91
        4
 64
     7
 65
   257
 75
     1
175
     1
 42
1.0
 92
        0
 66
     7
 43
1.0
 76
     1
 77
     6
 78
     2
 67
     7
 79
     5
170
     0
171
     0
290
     0
174
     0
 93
       13
 44
0.0
173
     0
291
     1
 45
0.0
  0
VISUALSTYLE
  5
2E
102
{ACAD_REACTORS
330
2A
102
}
102
{ACAD_XDICTIONARY
360
82
102
}
330
2A
100
AcDbVisualStyle
  2
GouraudWithEdges
 70
     3
 71
     2
 72
     2
 73
     1
 90
        2
 40
-0.6
 41
30.0
 62
     5
 63
     7
421
 16777215
 74
     1
 91
        4
 64
     7
 65
   257
 75
     1
175
     1
 42
1.0
 92
        0
 66
   257
 43
1.0
 76
     1
 77
     6
 78
     2
 67
     7
 79
     5
170
     0
171
     0
290
     0
174
     0
 93
       13
 44
0.0
173
     0
291
     1
 45
0.0
  0
VISUALSTYLE
  5
38
102
{ACAD_REACTORS
330
2A
102
}
102
{ACAD_XDICTIONARY
360
96
102
}
330
2A
100
AcDbVisualStyle
  2
Linepattern
 70
    14
 71
     2
 72
     2
 73
     0
 90
        0
 40
-0.6
 41
-30.0
 62
     5
 63
     7
421
 16777215
 74
     1
 91
        4
 64
     7
 65
   257
 75
     7
175
     7
 42
1.0
 92
        8
 66
     7
 43
1.0
 76
     1
 77
     6
 78
     2
 67
     7
 79
     5
170
     0
171
     0
290
     0
174
     0
 93
        1
 44
0.0
173
     0
291
     1
 45
0.0
  0
VISUALSTYLE
  5
33
102
{ACAD_REACTORS
330
2A
102
}
102
{ACAD_XDICTIONARY
360
8C
102
}
330
2A
100
AcDbVisualStyle
  2
Realistic
 70
     8
 71
     2
 72
     2
 73
     0
 90
        0
 40
-0.6
 41
-30.0
 62
     5
 63
     7
421
 16777215
 74
     1
 91
        0
 64
     7
 65
   257
 75
     1
175
     1
 42
1.0
 92
        8
 66
     8
424
  7895160
 43
1.0
 76
     1
 77
     6
 78
     2
 67
     7
 79
     5
170
     0
171
     0
290
     0
174
     0
 93
       13
 44
0.0
173
     0
291
     0
 45
0.0
  0
VISUALSTYLE
  5
37
102
{ACAD_REACTORS
330
2A
102
}
102
{ACAD_XDICTIONARY
360
94
102
}
330
2A
100
AcDbVisualStyle
  2
Thicken
 70
    13
 71
     2
 72
     2
 73
     0
 90
        0
 40
-0.6
 41
-30.0
 62
     5
 63
     7
421
 16777215
 74
     1
 91
        4
 64
     7
 65
   257
 75
     1
175
     1
 42
1.0
 92
       12
 66
     7
 43
1.0
 76
     1
 77
     6
 78
     2
 67
     7
 79
     5
170
     0
171
     0
290
     0
174
     0
 93
        1
 44
0.0
173
     0
291
     1
 45
0.0
  0
DICTIONARY
  5
84
330
2F
100
AcDbDictionary
280
     1
281
     1
  3
ACAD_XREC_ROUNDTRIP
360
85
  0
DICTIONARY
  5
88
330
31
100
AcDbDictionary
280
     1
281
     1
  3
ACAD_XREC_ROUNDTRIP
360
89
  0
DICTIONARY
  5
86
330
30
100
AcDbDictionary
280
     1
281
     1
  3
ACAD_XREC_ROUNDTRIP
360
87
  0
DICTIONARY
  5
8A
330
32
100
AcDbDictionary
280
     1
281
     1
  3
ACAD_XREC_ROUNDTRIP
360
8B
  0
DICTIONARY
  5
92
330
36
100
AcDbDictionary
280
     1
281
     1
  3
ACAD_XREC_ROUNDTRIP
360
93
  0
DICTIONARY
  5
9A
330
3A
100
AcDbDictionary
280
     1
281
     1
  3
ACAD_XREC_ROUNDTRIP
360
9B
  0
DICTIONARY
  5
8E
330
34
100
AcDbDictionary
280
     1
281
     1
  3
ACAD_XREC_ROUNDTRIP
360
8F
  0
DICTIONARY
  5
90
330
35
100
AcDbDictionary
280
     1
281
     1
  3
ACAD_XREC_ROUNDTRIP
360
91
  0
DICTIONARY
  5
98
330
39
100
AcDbDictionary
280
     1
281
     1
  3
ACAD_XREC_ROUNDTRIP
360
99
  0
DICTIONARY
  5
7C
330
2B
100
AcDbDictionary
280
     1
281
     1
  3
ACAD_XREC_ROUNDTRIP
360
7D
  0
DICTIONARY
  5
7E
330
2C
100
AcDbDictionary
280
     1
281
     1
  3
ACAD_XREC_ROUNDTRIP
360
7F
  0
DICTIONARY
  5
80
330
2D
100
AcDbDictionary
280
     1
281
     1
  3
ACAD_XREC_ROUNDTRIP
360
81
  0
DICTIONARY
  5
82
330
2E
100
AcDbDictionary
280
     1
281
     1
  3
ACAD_XREC_ROUNDTRIP
360
83
  0
DICTIONARY
  5
96
330
38
100
AcDbDictionary
280
     1
281
     1
  3
ACAD_XREC_ROUNDTRIP
360
97
  0
DICTIONARY
  5
8C
330
33
100
AcDbDictionary
280
     1
281
     1
  3
ACAD_XREC_ROUNDTRIP
360
8D
  0
DICTIONARY
  5
94
330
37
100
AcDbDictionary
280
     1
281
     1
  3
ACAD_XREC_ROUNDTRIP
360
95
  0
XRECORD
  5
85
102
{ACAD_REACTORS
330
84
102
}
330
84
100
AcDbXrecord
280
     1
102
RTVSPropertyOp0
 70
     1
102
RTVSPropertyOp1
 70
     1
102
RTVSPropertyOp2
 70
     1
102
RTVSPropertyOp3
 70
     1
102
RTVSPropertyOp4
 70
     1
102
RTVSPropertyOp5
 70
     1
102
RTVSPropertyOp6
 70
     1
102
RTVSPropertyOp7
 70
     1
102
RTVSPropertyOp8
 70
     1
102
RTVSPropertyOp9
 70
     1
102
RTVSPropertyOp10
 70
     1
102
RTVSPropertyOp11
 70
     1
102
RTVSPropertyOp12
 70
     1
102
RTVSPropertyOp13
 70
     1
102
RTVSPropertyOp14
 70
     1
102
RTVSPropertyOp15
 70
     1
102
RTVSPropertyOp16
 70
     1
102
RTVSPropertyOp17
 70
     1
102
RTVSPropertyOp18
 70
     1
102
RTVSPropertyOp19
 70
     1
102
RTVSPropertyOp20
 70
     1
102
RTVSPropertyOp21
 70
     1
102
RTVSPropertyOp22
 70
     1
102
RTVSPropertyOp23
 70
     1
102
RTVSPropertyOp24
 70
     1
102
RTVSPropertyOp25
 70
     1
102
RTVSPropertyOp26
 70
     1
102
RTVSPropertyOp27
 70
     1
102
RTVSPropertyOp28
 70
     1
102
RTVSPropertyOp29
 70
     1
102
RTVSPropertyOp30
 70
     1
102
RTVSPropertyOp31
 70
     1
102
RTVSPropertyOp32
 70
     1
  0
XRECORD
  5
89
102
{ACAD_REACTORS
330
88
102
}
330
88
100
AcDbXrecord
280
     1
102
RTVSPropertyOp0
 70
     1
102
RTVSPropertyOp1
 70
     1
102
RTVSPropertyOp2
 70
     1
102
RTVSPropertyOp3
 70
     1
102
RTVSPropertyOp4
 70
     1
102
RTVSPropertyOp5
 70
     1
102
RTVSPropertyOp6
 70
     1
102
RTVSPropertyOp7
 70
     1
102
RTVSPropertyOp8
 70
     1
102
RTVSPropertyOp9
 70
     1
102
RTVSPropertyOp10
 70
     1
102
RTVSPropertyOp11
 70
     1
102
RTVSPropertyOp12
 70
     1
102
RTVSPropertyOp13
 70
     1
102
RTVSPropertyOp14
 70
     1
102
RTVSPropertyOp15
 70
     1
102
RTVSPropertyOp16
 70
     1
102
RTVSPropertyOp17
 70
     1
102
RTVSPropertyOp18
 70
     1
102
RTVSPropertyOp19
 70
     1
102
RTVSPropertyOp20
 70
     1
102
RTVSPropertyOp21
 70
     1
102
RTVSPropertyOp22
 70
     1
102
RTVSPropertyOp23
 70
     1
102
RTVSPropertyOp24
 70
     1
102
RTVSPropertyOp25
 70
     1
102
RTVSPropertyOp26
 70
     1
102
RTVSPropertyOp27
 70
     1
102
RTVSPropertyOp28
 70
     1
102
RTVSPropertyOp29
 70
     1
102
RTVSPropertyOp30
 70
     1
102
RTVSPropertyOp31
 70
     1
102
RTVSPropertyOp32
 70
     1
  0
XRECORD
  5
87
102
{ACAD_REACTORS
330
86
102
}
330
86
100
AcDbXrecord
280
     1
102
RTVSPropertyOp0
 70
     1
102
RTVSPropertyOp1
 70
     1
102
RTVSPropertyOp2
 70
     1
102
RTVSPropertyOp3
 70
     1
102
RTVSPropertyOp4
 70
     1
102
RTVSPropertyOp5
 70
     1
102
RTVSPropertyOp6
 70
     1
102
RTVSPropertyOp7
 70
     1
102
RTVSPropertyOp8
 70
     1
102
RTVSPropertyOp9
 70
     1
102
RTVSPropertyOp10
 70
     1
102
RTVSPropertyOp11
 70
     1
102
RTVSPropertyOp12
 70
     1
102
RTVSPropertyOp13
 70
     1
102
RTVSPropertyOp14
 70
     1
102
RTVSPropertyOp15
 70
     1
102
RTVSPropertyOp16
 70
     1
102
RTVSPropertyOp17
 70
     1
102
RTVSPropertyOp18
 70
     1
102
RTVSPropertyOp19
 70
     1
102
RTVSPropertyOp20
 70
     1
102
RTVSPropertyOp21
 70
     1
102
RTVSPropertyOp22
 70
     1
102
RTVSPropertyOp23
 70
     1
102
RTVSPropertyOp24
 70
     1
102
RTVSPropertyOp25
 70
     1
102
RTVSPropertyOp26
 70
     1
102
RTVSPropertyOp27
 70
     1
102
RTVSPropertyOp28
 70
     1
102
RTVSPropertyOp29
 70
     1
102
RTVSPropertyOp30
 70
     1
102
RTVSPropertyOp31
 70
     1
102
RTVSPropertyOp32
 70
     1
  0
XRECORD
  5
8B
102
{ACAD_REACTORS
330
8A
102
}
330
8A
100
AcDbXrecord
280
     1
102
RTVSPropertyOp0
 70
     1
102
RTVSPropertyOp1
 70
     1
102
RTVSPropertyOp2
 70
     1
102
RTVSPropertyOp3
 70
     1
102
RTVSPropertyOp4
 70
     1
102
RTVSPropertyOp5
 70
     1
102
RTVSPropertyOp6
 70
     1
102
RTVSPropertyOp7
 70
     1
102
RTVSPropertyOp8
 70
     1
102
RTVSPropertyOp9
 70
     1
102
RTVSPropertyOp10
 70
     1
102
RTVSPropertyOp11
 70
     1
102
RTVSPropertyOp12
 70
     1
102
RTVSPropertyOp13
 70
     1
102
RTVSPropertyOp14
 70
     1
102
RTVSPropertyOp15
 70
     1
102
RTVSPropertyOp16
 70
     1
102
RTVSPropertyOp17
 70
     1
102
RTVSPropertyOp18
 70
     1
102
RTVSPropertyOp19
 70
     1
102
RTVSPropertyOp20
 70
     1
102
RTVSPropertyOp21
 70
     1
102
RTVSPropertyOp22
 70
     1
102
RTVSPropertyOp23
 70
     1
102
RTVSPropertyOp24
 70
     1
102
RTVSPropertyOp25
 70
     1
102
RTVSPropertyOp26
 70
     1
102
RTVSPropertyOp27
 70
     1
102
RTVSPropertyOp28
 70
     1
102
RTVSPropertyOp29
 70
     1
102
RTVSPropertyOp30
 70
     1
102
RTVSPropertyOp31
 70
     1
102
RTVSPropertyOp32
 70
     1
  0
XRECORD
  5
93
102
{ACAD_REACTORS
330
92
102
}
330
92
100
AcDbXrecord
280
     1
102
RTVSPropertyOp0
 70
     1
102
RTVSPropertyOp1
 70
     1
102
RTVSPropertyOp2
 70
     1
102
RTVSPropertyOp3
 70
     1
102
RTVSPropertyOp4
 70
     1
102
RTVSPropertyOp5
 70
     1
102
RTVSPropertyOp6
 70
     1
102
RTVSPropertyOp7
 70
     1
102
RTVSPropertyOp8
 70
     1
102
RTVSPropertyOp9
 70
     1
102
RTVSPropertyOp10
 70
     1
102
RTVSPropertyOp11
 70
     1
102
RTVSPropertyOp12
 70
     1
102
RTVSPropertyOp13
 70
     1
102
RTVSPropertyOp14
 70
     1
102
RTVSPropertyOp15
 70
     1
102
RTVSPropertyOp16
 70
     1
102
RTVSPropertyOp17
 70
     1
102
RTVSPropertyOp18
 70
     1
102
RTVSPropertyOp19
 70
     1
102
RTVSPropertyOp20
 70
     1
102
RTVSPropertyOp21
 70
     1
102
RTVSPropertyOp22
 70
     1
102
RTVSPropertyOp23
 70
     1
102
RTVSPropertyOp24
 70
     1
102
RTVSPropertyOp25
 70
     1
102
RTVSPropertyOp26
 70
     1
102
RTVSPropertyOp27
 70
     1
102
RTVSPropertyOp28
 70
     1
102
RTVSPropertyOp29
 70
     1
102
RTVSPropertyOp30
 70
     1
102
RTVSPropertyOp31
 70
     1
102
RTVSPropertyOp32
 70
     1
  0
XRECORD
  5
9B
102
{ACAD_REACTORS
330
9A
102
}
330
9A
100
AcDbXrecord
280
     1
102
RTVSPropertyOp0
 70
     1
102
RTVSPropertyOp1
 70
     1
102
RTVSPropertyOp2
 70
     1
102
RTVSPropertyOp3
 70
     1
102
RTVSPropertyOp4
 70
     1
102
RTVSPropertyOp5
 70
     1
102
RTVSPropertyOp6
 70
     1
102
RTVSPropertyOp7
 70
     1
102
RTVSPropertyOp8
 70
     1
102
RTVSPropertyOp9
 70
     1
102
RTVSPropertyOp10
 70
     1
102
RTVSPropertyOp11
 70
     1
102
RTVSPropertyOp12
 70
     1
102
RTVSPropertyOp13
 70
     1
102
RTVSPropertyOp14
 70
     1
102
RTVSPropertyOp15
 70
     1
102
RTVSPropertyOp16
 70
     1
102
RTVSPropertyOp17
 70
     1
102
RTVSPropertyOp18
 70
     1
102
RTVSPropertyOp19
 70
     1
102
RTVSPropertyOp20
 70
     1
102
RTVSPropertyOp21
 70
     1
102
RTVSPropertyOp22
 70
     1
102
RTVSPropertyOp23
 70
     1
102
RTVSPropertyOp24
 70
     1
102
RTVSPropertyOp25
 70
     1
102
RTVSPropertyOp26
 70
     1
102
RTVSPropertyOp27
 70
     1
102
RTVSPropertyOp28
 70
     1
102
RTVSPropertyOp29
 70
     1
102
RTVSPropertyOp30
 70
     1
102
RTVSPropertyOp31
 70
     1
102
RTVSPropertyOp32
 70
     1
  0
XRECORD
  5
8F
102
{ACAD_REACTORS
330
8E
102
}
330
8E
100
AcDbXrecord
280
     1
102
RTVSPropertyOp0
 70
     1
102
RTVSPropertyOp1
 70
     1
102
RTVSPropertyOp2
 70
     1
102
RTVSPropertyOp3
 70
     1
102
RTVSPropertyOp4
 70
     1
102
RTVSPropertyOp5
 70
     1
102
RTVSPropertyOp6
 70
     1
102
RTVSPropertyOp7
 70
     1
102
RTVSPropertyOp8
 70
     1
102
RTVSPropertyOp9
 70
     1
102
RTVSPropertyOp10
 70
     1
102
RTVSPropertyOp11
 70
     1
102
RTVSPropertyOp12
 70
     1
102
RTVSPropertyOp13
 70
     1
102
RTVSPropertyOp14
 70
     1
102
RTVSPropertyOp15
 70
     1
102
RTVSPropertyOp16
 70
     1
102
RTVSPropertyOp17
 70
     1
102
RTVSPropertyOp18
 70
     1
102
RTVSPropertyOp19
 70
     1
102
RTVSPropertyOp20
 70
     1
102
RTVSPropertyOp21
 70
     1
102
RTVSPropertyOp22
 70
     1
102
RTVSPropertyOp23
 70
     1
102
RTVSPropertyOp24
 70
     1
102
RTVSPropertyOp25
 70
     1
102
RTVSPropertyOp26
 70
     1
102
RTVSPropertyOp27
 70
     1
102
RTVSPropertyOp28
 70
     1
102
RTVSPropertyOp29
 70
     1
102
RTVSPropertyOp30
 70
     1
102
RTVSPropertyOp31
 70
     1
102
RTVSPropertyOp32
 70
     1
  0
XRECORD
  5
91
102
{ACAD_REACTORS
330
90
102
}
330
90
100
AcDbXrecord
280
     1
102
RTVSPropertyOp0
 70
     1
102
RTVSPropertyOp1
 70
     1
102
RTVSPropertyOp2
 70
     1
102
RTVSPropertyOp3
 70
     1
102
RTVSPropertyOp4
 70
     1
102
RTVSPropertyOp5
 70
     1
102
RTVSPropertyOp6
 70
     1
102
RTVSPropertyOp7
 70
     1
102
RTVSPropertyOp8
 70
     1
102
RTVSPropertyOp9
 70
     1
102
RTVSPropertyOp10
 70
     1
102
RTVSPropertyOp11
 70
     1
102
RTVSPropertyOp12
 70
     1
102
RTVSPropertyOp13
 70
     1
102
RTVSPropertyOp14
 70
     1
102
RTVSPropertyOp15
 70
     1
102
RTVSPropertyOp16
 70
     1
102
RTVSPropertyOp17
 70
     1
102
RTVSPropertyOp18
 70
     1
102
RTVSPropertyOp19
 70
     1
102
RTVSPropertyOp20
 70
     1
102
RTVSPropertyOp21
 70
     1
102
RTVSPropertyOp22
 70
     1
102
RTVSPropertyOp23
 70
     1
102
RTVSPropertyOp24
 70
     1
102
RTVSPropertyOp25
 70
     1
102
RTVSPropertyOp26
 70
     1
102
RTVSPropertyOp27
 70
     1
102
RTVSPropertyOp28
 70
     1
102
RTVSPropertyOp29
 70
     1
102
RTVSPropertyOp30
 70
     1
102
RTVSPropertyOp31
 70
     1
102
RTVSPropertyOp32
 70
     1
  0
XRECORD
  5
99
102
{ACAD_REACTORS
330
98
102
}
330
98
100
AcDbXrecord
280
     1
102
RTVSPropertyOp0
 70
     1
102
RTVSPropertyOp1
 70
     1
102
RTVSPropertyOp2
 70
     1
102
RTVSPropertyOp3
 70
     1
102
RTVSPropertyOp4
 70
     1
102
RTVSPropertyOp5
 70
     1
102
RTVSPropertyOp6
 70
     1
102
RTVSPropertyOp7
 70
     1
102
RTVSPropertyOp8
 70
     1
102
RTVSPropertyOp9
 70
     1
102
RTVSPropertyOp10
 70
     1
102
RTVSPropertyOp11
 70
     1
102
RTVSPropertyOp12
 70
     1
102
RTVSPropertyOp13
 70
     1
102
RTVSPropertyOp14
 70
     1
102
RTVSPropertyOp15
 70
     1
102
RTVSPropertyOp16
 70
     1
102
RTVSPropertyOp17
 70
     1
102
RTVSPropertyOp18
 70
     1
102
RTVSPropertyOp19
 70
     1
102
RTVSPropertyOp20
 70
     1
102
RTVSPropertyOp21
 70
     1
102
RTVSPropertyOp22
 70
     1
102
RTVSPropertyOp23
 70
     1
102
RTVSPropertyOp24
 70
     1
102
RTVSPropertyOp25
 70
     1
102
RTVSPropertyOp26
 70
     1
102
RTVSPropertyOp27
 70
     1
102
RTVSPropertyOp28
 70
     1
102
RTVSPropertyOp29
 70
     1
102
RTVSPropertyOp30
 70
     1
102
RTVSPropertyOp31
 70
     1
102
RTVSPropertyOp32
 70
     1
  0
XRECORD
  5
7D
102
{ACAD_REACTORS
330
7C
102
}
330
7C
100
AcDbXrecord
280
     1
102
RTVSPropertyOp0
 70
     1
102
RTVSPropertyOp1
 70
     1
102
RTVSPropertyOp2
 70
     1
102
RTVSPropertyOp3
 70
     1
102
RTVSPropertyOp4
 70
     1
102
RTVSPropertyOp5
 70
     1
102
RTVSPropertyOp6
 70
     1
102
RTVSPropertyOp7
 70
     1
102
RTVSPropertyOp8
 70
     1
102
RTVSPropertyOp9
 70
     1
102
RTVSPropertyOp10
 70
     1
102
RTVSPropertyOp11
 70
     1
102
RTVSPropertyOp12
 70
     1
102
RTVSPropertyOp13
 70
     1
102
RTVSPropertyOp14
 70
     1
102
RTVSPropertyOp15
 70
     1
102
RTVSPropertyOp16
 70
     1
102
RTVSPropertyOp17
 70
     1
102
RTVSPropertyOp18
 70
     1
102
RTVSPropertyOp19
 70
     1
102
RTVSPropertyOp20
 70
     1
102
RTVSPropertyOp21
 70
     1
102
RTVSPropertyOp22
 70
     1
102
RTVSPropertyOp23
 70
     1
102
RTVSPropertyOp24
 70
     1
102
RTVSPropertyOp25
 70
     1
102
RTVSPropertyOp26
 70
     1
102
RTVSPropertyOp27
 70
     1
102
RTVSPropertyOp28
 70
     1
102
RTVSPropertyOp29
 70
     1
102
RTVSPropertyOp30
 70
     1
102
RTVSPropertyOp31
 70
     1
102
RTVSPropertyOp32
 70
     1
  0
XRECORD
  5
7F
102
{ACAD_REACTORS
330
7E
102
}
330
7E
100
AcDbXrecord
280
     1
102
RTVSPropertyOp0
 70
     1
102
RTVSPropertyOp1
 70
     1
102
RTVSPropertyOp2
 70
     1
102
RTVSPropertyOp3
 70
     1
102
RTVSPropertyOp4
 70
     1
102
RTVSPropertyOp5
 70
     1
102
RTVSPropertyOp6
 70
     1
102
RTVSPropertyOp7
 70
     1
102
RTVSPropertyOp8
 70
     1
102
RTVSPropertyOp9
 70
     1
102
RTVSPropertyOp10
 70
     1
102
RTVSPropertyOp11
 70
     1
102
RTVSPropertyOp12
 70
     1
102
RTVSPropertyOp13
 70
     1
102
RTVSPropertyOp14
 70
     1
102
RTVSPropertyOp15
 70
     1
102
RTVSPropertyOp16
 70
     1
102
RTVSPropertyOp17
 70
     1
102
RTVSPropertyOp18
 70
     1
102
RTVSPropertyOp19
 70
     1
102
RTVSPropertyOp20
 70
     1
102
RTVSPropertyOp21
 70
     1
102
RTVSPropertyOp22
 70
     1
102
RTVSPropertyOp23
 70
     1
102
RTVSPropertyOp24
 70
     1
102
RTVSPropertyOp25
 70
     1
102
RTVSPropertyOp26
 70
     1
102
RTVSPropertyOp27
 70
     1
102
RTVSPropertyOp28
 70
     1
102
RTVSPropertyOp29
 70
     1
102
RTVSPropertyOp30
 70
     1
102
RTVSPropertyOp31
 70
     1
102
RTVSPropertyOp32
 70
     1
  0
XRECORD
  5
81
102
{ACAD_REACTORS
330
80
102
}
330
80
100
AcDbXrecord
280
     1
102
RTVSPropertyOp0
 70
     1
102
RTVSPropertyOp1
 70
     1
102
RTVSPropertyOp2
 70
     1
102
RTVSPropertyOp3
 70
     1
102
RTVSPropertyOp4
 70
     1
102
RTVSPropertyOp5
 70
     1
102
RTVSPropertyOp6
 70
     1
102
RTVSPropertyOp7
 70
     1
102
RTVSPropertyOp8
 70
     1
102
RTVSPropertyOp9
 70
     1
102
RTVSPropertyOp10
 70
     1
102
RTVSPropertyOp11
 70
     1
102
RTVSPropertyOp12
 70
     1
102
RTVSPropertyOp13
 70
     1
102
RTVSPropertyOp14
 70
     1
102
RTVSPropertyOp15
 70
     1
102
RTVSPropertyOp16
 70
     1
102
RTVSPropertyOp17
 70
     1
102
RTVSPropertyOp18
 70
     1
102
RTVSPropertyOp19
 70
     1
102
RTVSPropertyOp20
 70
     1
102
RTVSPropertyOp21
 70
     1
102
RTVSPropertyOp22
 70
     1
102
RTVSPropertyOp23
 70
     1
102
RTVSPropertyOp24
 70
     1
102
RTVSPropertyOp25
 70
     1
102
RTVSPropertyOp26
 70
     1
102
RTVSPropertyOp27
 70
     1
102
RTVSPropertyOp28
 70
     1
102
RTVSPropertyOp29
 70
     1
102
RTVSPropertyOp30
 70
     1
102
RTVSPropertyOp31
 70
     1
102
RTVSPropertyOp32
 70
     1
  0
XRECORD
  5
83
102
{ACAD_REACTORS
330
82
102
}
330
82
100
AcDbXrecord
280
     1
102
RTVSPropertyOp0
 70
     1
102
RTVSPropertyOp1
 70
     1
102
RTVSPropertyOp2
 70
     1
102
RTVSPropertyOp3
 70
     1
102
RTVSPropertyOp4
 70
     1
102
RTVSPropertyOp5
 70
     1
102
RTVSPropertyOp6
 70
     1
102
RTVSPropertyOp7
 70
     1
102
RTVSPropertyOp8
 70
     1
102
RTVSPropertyOp9
 70
     1
102
RTVSPropertyOp10
 70
     1
102
RTVSPropertyOp11
 70
     1
102
RTVSPropertyOp12
 70
     1
102
RTVSPropertyOp13
 70
     1
102
RTVSPropertyOp14
 70
     1
102
RTVSPropertyOp15
 70
     1
102
RTVSPropertyOp16
 70
     1
102
RTVSPropertyOp17
 70
     1
102
RTVSPropertyOp18
 70
     1
102
RTVSPropertyOp19
 70
     1
102
RTVSPropertyOp20
 70
     1
102
RTVSPropertyOp21
 70
     1
102
RTVSPropertyOp22
 70
     1
102
RTVSPropertyOp23
 70
     1
102
RTVSPropertyOp24
 70
     1
102
RTVSPropertyOp25
 70
     1
102
RTVSPropertyOp26
 70
     1
102
RTVSPropertyOp27
 70
     1
102
RTVSPropertyOp28
 70
     1
102
RTVSPropertyOp29
 70
     1
102
RTVSPropertyOp30
 70
     1
102
RTVSPropertyOp31
 70
     1
102
RTVSPropertyOp32
 70
     1
  0
XRECORD
  5
97
102
{ACAD_REACTORS
330
96
102
}
330
96
100
AcDbXrecord
280
     1
102
RTVSPropertyOp0
 70
     1
102
RTVSPropertyOp1
 70
     1
102
RTVSPropertyOp2
 70
     1
102
RTVSPropertyOp3
 70
     1
102
RTVSPropertyOp4
 70
     1
102
RTVSPropertyOp5
 70
     1
102
RTVSPropertyOp6
 70
     1
102
RTVSPropertyOp7
 70
     1
102
RTVSPropertyOp8
 70
     1
102
RTVSPropertyOp9
 70
     1
102
RTVSPropertyOp10
 70
     1
102
RTVSPropertyOp11
 70
     1
102
RTVSPropertyOp12
 70
     1
102
RTVSPropertyOp13
 70
     1
102
RTVSPropertyOp14
 70
     1
102
RTVSPropertyOp15
 70
     1
102
RTVSPropertyOp16
 70
     1
102
RTVSPropertyOp17
 70
     1
102
RTVSPropertyOp18
 70
     1
102
RTVSPropertyOp19
 70
     1
102
RTVSPropertyOp20
 70
     1
102
RTVSPropertyOp21
 70
     1
102
RTVSPropertyOp22
 70
     1
102
RTVSPropertyOp23
 70
     1
102
RTVSPropertyOp24
 70
     1
102
RTVSPropertyOp25
 70
     1
102
RTVSPropertyOp26
 70
     1
102
RTVSPropertyOp27
 70
     1
102
RTVSPropertyOp28
 70
     1
102
RTVSPropertyOp29
 70
     1
102
RTVSPropertyOp30
 70
     1
102
RTVSPropertyOp31
 70
     1
102
RTVSPropertyOp32
 70
     1
  0
XRECORD
  5
8D
102
{ACAD_REACTORS
330
8C
102
}
330
8C
100
AcDbXrecord
280
     1
102
RTVSPropertyOp0
 70
     1
102
RTVSPropertyOp1
 70
     1
102
RTVSPropertyOp2
 70
     1
102
RTVSPropertyOp3
 70
     1
102
RTVSPropertyOp4
 70
     1
102
RTVSPropertyOp5
 70
     1
102
RTVSPropertyOp6
 70
     1
102
RTVSPropertyOp7
 70
     1
102
RTVSPropertyOp8
 70
     1
102
RTVSPropertyOp9
 70
     1
102
RTVSPropertyOp10
 70
     1
102
RTVSPropertyOp11
 70
     1
102
RTVSPropertyOp12
 70
     1
102
RTVSPropertyOp13
 70
     1
102
RTVSPropertyOp14
 70
     1
102
RTVSPropertyOp15
 70
     1
102
RTVSPropertyOp16
 70
     1
102
RTVSPropertyOp17
 70
     1
102
RTVSPropertyOp18
 70
     1
102
RTVSPropertyOp19
 70
     1
102
RTVSPropertyOp20
 70
     1
102
RTVSPropertyOp21
 70
     1
102
RTVSPropertyOp22
 70
     1
102
RTVSPropertyOp23
 70
     1
102
RTVSPropertyOp24
 70
     1
102
RTVSPropertyOp25
 70
     1
102
RTVSPropertyOp26
 70
     1
102
RTVSPropertyOp27
 70
     1
102
RTVSPropertyOp28
 70
     1
102
RTVSPropertyOp29
 70
     1
102
RTVSPropertyOp30
 70
     1
102
RTVSPropertyOp31
 70
     1
102
RTVSPropertyOp32
 70
     1
  0
XRECORD
  5
95
102
{ACAD_REACTORS
330
94
102
}
330
94
100
AcDbXrecord
280
     1
102
RTVSPropertyOp0
 70
     1
102
RTVSPropertyOp1
 70
     1
102
RTVSPropertyOp2
 70
     1
102
RTVSPropertyOp3
 70
     1
102
RTVSPropertyOp4
 70
     1
102
RTVSPropertyOp5
 70
     1
102
RTVSPropertyOp6
 70
     1
102
RTVSPropertyOp7
 70
     1
102
RTVSPropertyOp8
 70
     1
102
RTVSPropertyOp9
 70
     1
102
RTVSPropertyOp10
 70
     1
102
RTVSPropertyOp11
 70
     1
102
RTVSPropertyOp12
 70
     1
102
RTVSPropertyOp13
 70
     1
102
RTVSPropertyOp14
 70
     1
102
RTVSPropertyOp15
 70
     1
102
RTVSPropertyOp16
 70
     1
102
RTVSPropertyOp17
 70
     1
102
RTVSPropertyOp18
 70
     1
102
RTVSPropertyOp19
 70
     1
102
RTVSPropertyOp20
 70
     1
102
RTVSPropertyOp21
 70
     1
102
RTVSPropertyOp22
 70
     1
102
RTVSPropertyOp23
 70
     1
102
RTVSPropertyOp24
 70
     1
102
RTVSPropertyOp25
 70
     1
102
RTVSPropertyOp26
 70
     1
102
RTVSPropertyOp27
 70
     1
102
RTVSPropertyOp28
 70
     1
102
RTVSPropertyOp29
 70
     1
102
RTVSPropertyOp30
 70
     1
102
RTVSPropertyOp31
 70
     1
102
RTVSPropertyOp32
 70
     1
  0
ENDSEC
  0
EOF
