  0
SECTION
  2
HEADER
  9
$ACADVER
  1
AC1021
  9
$ACADMAINTVER
 70
    25
  9
$DWGCODEPAGE
  3
ANSI_1256
  9
$INSBASE
 10
0.0
 20
0.0
 30
0.0
  9
$EXTMIN
 10
80.379
 20
-114.9187
 30
0.0
  9
$EXTMAX
 10
196.3191
 20
131.8907
 30
0.0
  9
$LIMMIN
 10
0.0
 20
0.0
  9
$LIMMAX
 10
12.0
 20
9.0
  9
$ORTHOMODE
 70
     0
  9
$REGENMODE
 70
     1
  9
$FILLMODE
 70
     1
  9
$QTEXTMODE
 70
     0
  9
$MIRRTEXT
 70
     1
  9
$LTSCALE
 40
1.0
  9
$ATTMODE
 70
     1
  9
$TEXTSIZE
 40
0.2
  9
$TRACEWID
 40
0.05
  9
$TEXTSTYLE
  7
Standard
  9
$CLAYER
  8
0
  9
$CELTYPE
  6
ByLayer
  9
$CECOLOR
 62
   256
  9
$CELTSCALE
 40
1.0
  9
$DISPSILH
 70
     0
  9
$DIMSCALE
 40
1.0
  9
$DIMASZ
 40
0.18
  9
$DIMEXO
 40
0.0625
  9
$DIMDLI
 40
0.38
  9
$DIMRND
 40
0.0
  9
$DIMDLE
 40
0.0
  9
$DIMEXE
 40
0.18
  9
$DIMTP
 40
0.0
  9
$DIMTM
 40
0.0
  9
$DIMTXT
 40
0.18
  9
$DIMCEN
 40
0.09
  9
$DIMTSZ
 40
0.0
  9
$DIMTOL
 70
     0
  9
$DIMLIM
 70
     0
  9
$DIMTIH
 70
     1
  9
$DIMTOH
 70
     1
  9
$DIMSE1
 70
     0
  9
$DIMSE2
 70
     0
  9
$DIMTAD
 70
     0
  9
$DIMZIN
 70
     0
  9
$DIMBLK
  1

  9
$DIMASO
 70
     1
  9
$DIMSHO
 70
     1
  9
$DIMPOST
  1

  9
$DIMAPOST
  1

  9
$DIMALT
 70
     0
  9
$DIMALTD
 70
     2
  9
$DIMALTF
 40
25.4
  9
$DIMLFAC
 40
1.0
  9
$DIMTOFL
 70
     0
  9
$DIMTVP
 40
0.0
  9
$DIMTIX
 70
     0
  9
$DIMSOXD
 70
     0
  9
$DIMSAH
 70
     0
  9
$DIMBLK1
  1

  9
$DIMBLK2
  1

  9
$DIMSTYLE
  2
Standard
  9
$DIMCLRD
 70
     0
  9
$DIMCLRE
 70
     0
  9
$DIMCLRT
 70
     0
  9
$DIMTFAC
 40
1.0
  9
$DIMGAP
 40
0.09
  9
$DIMJUST
 70
     0
  9
$DIMSD1
 70
     0
  9
$DIMSD2
 70
     0
  9
$DIMTOLJ
 70
     1
  9
$DIMTZIN
 70
     0
  9
$DIMALTZ
 70
     0
  9
$DIMALTTZ
 70
     0
  9
$DIMUPT
 70
     0
  9
$DIMDEC
 70
     4
  9
$DIMTDEC
 70
     4
  9
$DIMALTU
 70
     2
  9
$DIMALTTD
 70
     2
  9
$DIMTXSTY
  7
Standard
  9
$DIMAUNIT
 70
     0
  9
$DIMADEC
 70
     0
  9
$DIMALTRND
 40
0.0
  9
$DIMAZIN
 70
     0
  9
$DIMDSEP
 70
    46
  9
$DIMATFIT
 70
     3
  9
$DIMFRAC
 70
     0
  9
$DIMLDRBLK
  1

  9
$DIMLUNIT
 70
     2
  9
$DIMLWD
 70
    -2
  9
$DIMLWE
 70
    -2
  9
$DIMTMOVE
 70
     0
  9
$DIMFXL
 40
1.0
  9
$DIMFXLON
 70
     0
  9
$DIMJOGANG
 40
0.7853981633974483
  9
$DIMTFILL
 70
     0
  9
$DIMTFILLCLR
 70
     0
  9
$DIMARCSYM
 70
     0
  9
$DIMLTYPE
  6

  9
$DIMLTEX1
  6

  9
$DIMLTEX2
  6

  9
$LUNITS
 70
     2
  9
$LUPREC
 70
     4
  9
$SKETCHINC
 40
0.1
  9
$FILLETRAD
 40
0.5
  9
$AUNITS
 70
     0
  9
$AUPREC
 70
     0
  9
$MENU
  1
.
  9
$ELEVATION
 40
0.0
  9
$PELEVATION
 40
0.0
  9
$THICKNESS
 40
0.0
  9
$LIMCHECK
 70
     0
  9
$CHAMFERA
 40
0.5
  9
$CHAMFERB
 40
0.5
  9
$CHAMFERC
 40
1.0
  9
$CHAMFERD
 40
0.0
  9
$SKPOLY
 70
     0
  9
$TDCREATE
 40
2458492.40416059
  9
$TDUCREATE
 40
2458492.237493923
  9
$TDUPDATE
 40
2458492.404160775
  9
$TDUUPDATE
 40
2458492.237494109
  9
$TDINDWG
 40
0.0000000116
  9
$TDUSRTIMER
 40
0.0000000116
  9
$USRTIMER
 70
     1
  9
$ANGBASE
 50
0.0
  9
$ANGDIR
 70
     0
  9
$PDMODE
 70
     0
  9
$PDSIZE
 40
0.0
  9
$PLINEWID
 40
0.0
  9
$SPLFRAME
 70
     0
  9
$SPLINETYPE
 70
     6
  9
$SPLINESEGS
 70
     8
  9
$HANDSEED
  5
A4
  9
$SURFTAB1
 70
     6
  9
$SURFTAB2
 70
     6
  9
$SURFTYPE
 70
     6
  9
$SURFU
 70
     6
  9
$SURFV
 70
     6
  9
$UCSBASE
  2

  9
$UCSNAME
  2

  9
$UCSORG
 10
0.0
 20
0.0
 30
0.0
  9
$UCSXDIR
 10
1.0
 20
0.0
 30
0.0
  9
$UCSYDIR
 10
0.0
 20
1.0
 30
0.0
  9
$UCSORTHOREF
  2

  9
$UCSORTHOVIEW
 70
     0
  9
$UCSORGTOP
 10
0.0
 20
0.0
 30
0.0
  9
$UCSORGBOTTOM
 10
0.0
 20
0.0
 30
0.0
  9
$UCSORGLEFT
 10
0.0
 20
0.0
 30
0.0
  9
$UCSORGRIGHT
 10
0.0
 20
0.0
 30
0.0
  9
$UCSORGFRONT
 10
0.0
 20
0.0
 30
0.0
  9
$UCSORGBACK
 10
0.0
 20
0.0
 30
0.0
  9
$PUCSBASE
  2

  9
$PUCSNAME
  2

  9
$PUCSORG
 10
0.0
 20
0.0
 30
0.0
  9
$PUCSXDIR
 10
1.0
 20
0.0
 30
0.0
  9
$PUCSYDIR
 10
0.0
 20
1.0
 30
0.0
  9
$PUCSORTHOREF
  2

  9
$PUCSORTHOVIEW
 70
     0
  9
$PUCSORGTOP
 10
0.0
 20
0.0
 30
0.0
  9
$PUCSORGBOTTOM
 10
0.0
 20
0.0
 30
0.0
  9
$PUCSORGLEFT
 10
0.0
 20
0.0
 30
0.0
  9
$PUCSORGRIGHT
 10
0.0
 20
0.0
 30
0.0
  9
$PUCSORGFRONT
 10
0.0
 20
0.0
 30
0.0
  9
$PUCSORGBACK
 10
0.0
 20
0.0
 30
0.0
  9
$USERI1
 70
     0
  9
$USERI2
 70
     0
  9
$USERI3
 70
     0
  9
$USERI4
 70
     0
  9
$USERI5
 70
     0
  9
$USERR1
 40
0.0
  9
$USERR2
 40
0.0
  9
$USERR3
 40
0.0
  9
$USERR4
 40
0.0
  9
$USERR5
 40
0.0
  9
$WORLDVIEW
 70
     1
  9
$SHADEDGE
 70
     3
  9
$SHADEDIF
 70
    70
  9
$TILEMODE
 70
     1
  9
$MAXACTVP
 70
    64
  9
$PINSBASE
 10
0.0
 20
0.0
 30
0.0
  9
$PLIMCHECK
 70
     0
  9
$PEXTMIN
 10
1.000000000000000E+20
 20
1.000000000000000E+20
 30
1.000000000000000E+20
  9
$PEXTMAX
 10
-1.000000000000000E+20
 20
-1.000000000000000E+20
 30
-1.000000000000000E+20
  9
$PLIMMIN
 10
0.0
 20
0.0
  9
$PLIMMAX
 10
12.0
 20
9.0
  9
$UNITMODE
 70
     0
  9
$VISRETAIN
 70
     1
  9
$PLINEGEN
 70
     0
  9
$PSLTSCALE
 70
     1
  9
$TREEDEPTH
 70
  3020
  9
$CMLSTYLE
  2
Standard
  9
$CMLJUST
 70
     0
  9
$CMLSCALE
 40
1.0
  9
$PROXYGRAPHICS
 70
     1
  9
$MEASUREMENT
 70
     0
  9
$CELWEIGHT
370
    -1
  9
$ENDCAPS
280
     0
  9
$JOINSTYLE
280
     0
  9
$LWDISPLAY
290
     0
  9
$INSUNITS
 70
     4
  9
$HYPERLINKBASE
  1

  9
$STYLESHEET
  1

  9
$XEDIT
290
     1
  9
$CEPSNTYPE
380
     0
  9
$PSTYLEMODE
290
     1
  9
$FINGERPRINTGUID
  2
{E0121DCA-FF43-49B8-AA60-871BAE604E35}
  9
$VERSIONGUID
  2
{FAEB1C32-E019-11D5-929B-00C0DF256EC4}
  9
$EXTNAMES
290
     1
  9
$PSVPSCALE
 40
0.0
  9
$OLESTARTUP
290
     0
  9
$SORTENTS
280
   127
  9
$INDEXCTL
280
     0
  9
$HIDETEXT
280
     1
  9
$XCLIPFRAME
290
     0
  9
$HALOGAP
280
     0
  9
$OBSCOLOR
 70
   257
  9
$OBSLTYPE
280
     0
  9
$INTERSECTIONDISPLAY
280
     0
  9
$INTERSECTIONCOLOR
 70
   257
  9
$DIMASSOC
280
     2
  9
$PROJECTNAME
  1

  9
$CAMERADISPLAY
290
     0
  9
$LENSLENGTH
 40
50.0
  9
$CAMERAHEIGHT
 40
0.0
  9
$STEPSPERSEC
 40
2.0
  9
$STEPSIZE
 40
6.0
  9
$3DDWFPREC
 40
2.0
  9
$PSOLWIDTH
 40
0.25
  9
$PSOLHEIGHT
 40
4.0
  9
$LOFTANG1
 40
1.570796326794897
  9
$LOFTANG2
 40
1.570796326794897
  9
$LOFTMAG1
 40
0.0
  9
$LOFTMAG2
 40
0.0
  9
$LOFTPARAM
 70
     7
  9
$LOFTNORMALS
280
     1
  9
$LATITUDE
 40
37.795
  9
$LONGITUDE
 40
-122.394
  9
$NORTHDIRECTION
 40
0.0
  9
$TIMEZONE
 70
 -8000
  9
$LIGHTGLYPHDISPLAY
280
     1
  9
$TILEMODELIGHTSYNCH
280
     1
  9
$SOLIDHIST
280
     1
  9
$SHOWHIST
280
     1
  9
$DWFFRAME
280
     2
  9
$DGNFRAME
280
     2
  9
$REALWORLDSCALE
290
     1
  9
$INTERFERECOLOR
 62
   256
  9
$CSHADOW
280
     0
  9
$SHADOWPLANELOCATION
 40
0.0
  0
ENDSEC
  0
SECTION
  2
CLASSES
  0
CLASS
  1
ACDBDICTIONARYWDFLT
  2
AcDbDictionaryWithDefault
  3
ObjectDBX Classes
 90
        0
 91
        4
280
     0
281
     0
  0
CLASS
  1
VISUALSTYLE
  2
AcDbVisualStyle
  3
ObjectDBX Classes
 90
     4095
 91
        4
280
     0
281
     0
  0
CLASS
  1
MATERIAL
  2
AcDbMaterial
  3
ObjectDBX Classes
 90
     1153
 91
        4
280
     0
281
     0
  0
ENDSEC
  0
SECTION
  2
TABLES
  0
TABLE
  2
VPORT
  5
8
330
0
100
AcDbSymbolTable
 70
     1
  0
VPORT
  5
29
330
8
100
AcDbSymbolTableRecord
100
AcDbViewportTableRecord
  2
*Active
 70
     0
 10
0.0
 20
0.0
 11
1.0
 21
1.0
 12
10.42990654205607
 22
4.5
 13
0.0
 23
0.0
 14
0.5
 24
0.5
 15
0.5
 25
0.5
 16
0.0
 26
0.0
 36
1.0
 17
0.0
 27
0.0
 37
0.0
 40
9.0
 41
1.972972972850329
 42
50.0
 43
0.0
 44
0.0
 50
0.0
 51
0.0
 71
     0
 72
   100
 73
     1
 74
     3
 75
     0
 76
     0
 77
     0
 78
     0
281
     0
 65
     1
110
0.0
120
0.0
130
0.0
111
1.0
121
0.0
131
0.0
112
0.0
122
1.0
132
0.0
 79
     0
146
0.0
 60
     3
 61
     5
292
     1
282
     1
141
0.0
142
0.0
 63
   250
  0
ENDTAB
  0
TABLE
  2
LTYPE
  5
5
330
0
100
AcDbSymbolTable
 70
     1
  0
LTYPE
  5
14
330
5
100
AcDbSymbolTableRecord
100
AcDbLinetypeTableRecord
  2
ByBlock
 70
     0
  3

 72
    65
 73
     0
 40
0.0
  0
LTYPE
  5
15
330
5
100
AcDbSymbolTableRecord
100
AcDbLinetypeTableRecord
  2
ByLayer
 70
     0
  3

 72
    65
 73
     0
 40
0.0
  0
LTYPE
  5
16
330
5
100
AcDbSymbolTableRecord
100
AcDbLinetypeTableRecord
  2
Continuous
 70
     0
  3
Solid line
 72
    65
 73
     0
 40
0.0
  0
ENDTAB
  0
TABLE
  2
LAYER
  5
2
330
0
100
AcDbSymbolTable
 70
     2
  0
LAYER
  5
10
330
2
100
AcDbSymbolTableRecord
100
AcDbLayerTableRecord
  2
0
 70
     0
 62
     7
  6
Continuous
370
    -3
390
F
347
3E
  0
LAYER
  5
40
330
2
100
AcDbSymbolTableRecord
100
AcDbLayerTableRecord
  2
layer 1
 70
     0
 62
     7
  6
Continuous
370
    -3
390
F
347
3E
  0
ENDTAB
  0
TABLE
  2
STYLE
  5
3
330
0
100
AcDbSymbolTable
 70
     1
  0
STYLE
  5
11
330
3
100
AcDbSymbolTableRecord
100
AcDbTextStyleTableRecord
  2
Standard
 70
     0
 40
0.0
 41
1.0
 50
0.0
 71
     0
 42
0.2
  3
txt
  4

  0
ENDTAB
  0
TABLE
  2
VIEW
  5
6
330
0
100
AcDbSymbolTable
 70
     0
  0
ENDTAB
  0
TABLE
  2
UCS
  5
7
330
0
100
AcDbSymbolTable
 70
     0
  0
ENDTAB
  0
TABLE
  2
APPID
  5
9
330
0
100
AcDbSymbolTable
 70
     2
  0
APPID
  5
12
330
9
100
AcDbSymbolTableRecord
100
AcDbRegAppTableRecord
  2
ACAD
 70
     0
  0
APPID
  5
3F
330
9
100
AcDbSymbolTableRecord
100
AcDbRegAppTableRecord
  2
ODA
 70
     0
  0
ENDTAB
  0
TABLE
  2
DIMSTYLE
  5
A
330
0
100
AcDbSymbolTable
 70
     1
100
AcDbDimStyleTable
  0
DIMSTYLE
105
27
330
A
100
AcDbSymbolTableRecord
100
AcDbDimStyleTableRecord
  2
Standard
 70
     0
178
     0
340
11
  0
ENDTAB
  0
TABLE
  2
BLOCK_RECORD
  5
1
330
0
100
AcDbSymbolTable
 70
     1
  0
BLOCK_RECORD
  5
1F
330
1
100
AcDbSymbolTableRecord
100
AcDbBlockTableRecord
  2
*Model_Space
340
22
 70
     0
280
     1
281
     0
  0
BLOCK_RECORD
  5
1B
330
1
100
AcDbSymbolTableRecord
100
AcDbBlockTableRecord
  2
*Paper_Space
340
1E
 70
     0
280
     1
281
     0
  0
BLOCK_RECORD
  5
23
330
1
100
AcDbSymbolTableRecord
100
AcDbBlockTableRecord
  2
*Paper_Space0
340
26
 70
     0
280
     1
281
     0
  0
ENDTAB
  0
ENDSEC
  0
SECTION
  2
BLOCKS
  0
BLOCK
  5
20
330
1F
100
AcDbEntity
  8
0
100
AcDbBlockBegin
  2
*Model_Space
 70
     0
 10
0.0
 20
0.0
 30
0.0
  3
*Model_Space
  1

  0
ENDBLK
  5
21
330
1F
100
AcDbEntity
  8
0
100
AcDbBlockEnd
  0
BLOCK
  5
1C
330
1B
100
AcDbEntity
 67
     1
  8
0
100
AcDbBlockBegin
  2
*Paper_Space
 70
     0
 10
0.0
 20
0.0
 30
0.0
  3
*Paper_Space
  1

  0
ENDBLK
  5
1D
330
1B
100
AcDbEntity
 67
     1
  8
0
100
AcDbBlockEnd
  0
BLOCK
  5
24
330
23
100
AcDbEntity
  8
0
100
AcDbBlockBegin
  2
*Paper_Space0
 70
     0
 10
0.0
 20
0.0
 30
0.0
  3
*Paper_Space0
  1

  0
ENDBLK
  5
25
330
23
100
AcDbEntity
  8
0
100
AcDbBlockEnd
  0
ENDSEC
  0
SECTION
  2
ENTITIES
  0
LWPOLYLINE
  5
41
330
1F
100
AcDbEntity
  8
layer 1
 62
   250
100
AcDbPolyline
 90
        5
 70
     1
 43
0.0
 10
80.379
 20
-114.9187
 10
196.319
 20
-114.9187
 10
196.319
 20
131.8907
 10
80.379
 20
131.8907
 10
80.379
 20
-114.9187
  0
SPLINE
  5
42
330
1F
100
AcDbEntity
  8
layer 1
 62
     7
100
AcDbSpline
210
0.0
220
0.0
230
1.0
 70
    11
 71
     3
 72
    28
 73
    24
 74
     0
 42
0.0000000001
 43
0.0000000001
 12
1.0
 22
0.0
 32
0.0
 13
1.0
 23
0.0
 33
0.0
 40
0.0
 40
0.0
 40
0.0
 40
0.0
 40
0.1428571428571428
 40
0.1428571428571428
 40
0.1428571428571428
 40
0.1428571428571428
 40
0.2857142857142857
 40
0.2857142857142857
 40
0.2857142857142857
 40
0.2857142857142857
 40
0.4285714285714285
 40
0.4285714285714285
 40
0.4285714285714285
 40
0.4285714285714285
 40
0.5714285714285714
 40
0.5714285714285714
 40
0.5714285714285714
 40
0.5714285714285714
 40
0.7142857142857143
 40
0.7142857142857143
 40
0.7142857142857143
 40
0.7142857142857143
 40
1.0
 40
1.0
 40
1.0
 40
1.0
 10
88.2192
 20
-26.9943
 30
0.0
 10
88.898
 20
-24.4765
 30
0.0
 10
90.0057
 20
-21.5039
 30
0.0
 10
90.5755
 20
-19.006
 30
0.0
 10
90.5755
 20
-19.006
 30
0.0
 10
91.0781
 20
-16.8032
 30
0.0
 10
91.0895
 20
-14.9697
 30
0.0
 10
91.0542
 20
-14.1428
 30
0.0
 10
91.0542
 20
-14.1428
 30
0.0
 10
90.9088
 20
-10.7382
 30
0.0
 10
88.6771
 20
-8.6234
 30
0.0
 10
86.4112
 20
-8.6096
 30
0.0
 10
86.4112
 20
-8.6096
 30
0.0
 10
86.4112
 20
-8.6096
 30
0.0
 10
86.4112
 20
-33.6997
 30
0.0
 10
86.4112
 20
-33.6997
 30
0.0
 10
86.4112
 20
-33.6997
 30
0.0
 10
86.4112
 20
-33.6997
 30
0.0
 10
87.5402
 20
-29.5122
 30
0.0
 10
88.2192
 20
-26.9944
 30
0.0
 10
88.2192
 20
-26.9944
 30
0.0
 10
88.2192
 20
-26.9944
 30
0.0
 10
88.2192
 20
-26.9943
 30
0.0
 10
88.2192
 20
-26.9943
 30
0.0
  0
SPLINE
  5
43
330
1F
100
AcDbEntity
  8
layer 1
 62
     7
100
AcDbSpline
210
0.0
220
0.0
230
1.0
 70
    11
 71
     3
 72
    40
 73
    36
 74
     0
 42
0.0000000001
 43
0.0000000001
 12
1.0
 22
0.0
 32
0.0
 13
1.0
 23
0.0
 33
0.0
 40
0.0
 40
0.0
 40
0.0
 40
0.0
 40
0.1
 40
0.1
 40
0.1
 40
0.1
 40
0.2
 40
0.2
 40
0.2
 40
0.2
 40
0.3
 40
0.3
 40
0.3
 40
0.3
 40
0.4
 40
0.4
 40
0.4
 40
0.4
 40
0.5
 40
0.5
 40
0.5
 40
0.5
 40
0.6
 40
0.6
 40
0.6
 40
0.6
 40
0.7
 40
0.7
 40
0.7
 40
0.7
 40
0.8
 40
0.8
 40
0.8
 40
0.8
 40
1.0
 40
1.0
 40
1.0
 40
1.0
 10
95.8973
 20
-33.2844
 30
0.0
 10
98.4172
 20
-32.6134
 30
0.0
 10
101.5454
 20
-32.0864
 30
0.0
 10
103.9935
 20
-31.331
 30
0.0
 10
103.9935
 20
-31.331
 30
0.0
 10
106.1525
 20
-30.6648
 30
0.0
 10
107.7461
 20
-29.7578
 30
0.0
 10
108.4445
 20
-29.3139
 30
0.0
 10
108.4445
 20
-29.3139
 30
0.0
 10
111.3203
 20
-27.4858
 30
0.0
 10
112.036
 20
-24.4956
 30
0.0
 10
110.915
 20
-22.5264
 30
0.0
 10
110.915
 20
-22.5264
 30
0.0
 10
109.5479
 20
-20.0056
 30
0.0
 10
105.9449
 20
-19.8742
 30
0.0
 10
103.905
 20
-21.128
 30
0.0
 10
103.905
 20
-21.128
 30
0.0
 10
102.8141
 20
-21.7802
 30
0.0
 10
101.277
 20
-22.7271
 30
0.0
 10
99.8841
 20
-24.0119
 30
0.0
 10
99.8841
 20
-24.0119
 30
0.0
 10
97.8964
 20
-25.8453
 30
0.0
 10
95.9651
 20
-28.2285
 30
0.0
 10
94.0193
 20
-30.2444
 30
0.0
 10
94.0193
 20
-30.2444
 30
0.0
 10
92.4161
 20
-31.9014
 30
0.0
 10
90.8697
 20
-33.4074
 30
0.0
 10
89.1864
 20
-35.0714
 30
0.0
 10
89.1864
 20
-35.0714
 30
0.0
 10
89.1864
 20
-35.0714
 30
0.0
 10
93.3774
 20
-33.9555
 30
0.0
 10
95.8973
 20
-33.2844
 30
0.0
 10
95.8973
 20
-33.2844
 30
0.0
 10
95.8973
 20
-33.2844
 30
0.0
 10
95.8973
 20
-33.2844
 30
0.0
 10
95.8973
 20
-33.2844
 30
0.0
  0
SPLINE
  5
44
330
1F
100
AcDbEntity
  8
layer 1
 62
     7
100
AcDbSpline
210
0.0
220
0.0
230
1.0
 70
    11
 71
     3
 72
    40
 73
    36
 74
     0
 42
0.0000000001
 43
0.0000000001
 12
1.0
 22
0.0
 32
0.0
 13
1.0
 23
0.0
 33
0.0
 40
0.0
 40
0.0
 40
0.0
 40
0.0
 40
0.1
 40
0.1
 40
0.1
 40
0.1
 40
0.2
 40
0.2
 40
0.2
 40
0.2
 40
0.3
 40
0.3
 40
0.3
 40
0.3
 40
0.4
 40
0.4
 40
0.4
 40
0.4
 40
0.5
 40
0.5
 40
0.5
 40
0.5
 40
0.6
 40
0.6
 40
0.6
 40
0.6
 40
0.7
 40
0.7
 40
0.7
 40
0.7
 40
0.8
 40
0.8
 40
0.8
 40
0.8
 40
1.0
 40
1.0
 40
1.0
 40
1.0
 10
94.0167
 20
-42.9576
 30
0.0
 10
95.8578
 20
-44.8044
 30
0.0
 10
97.8783
 20
-47.2499
 30
0.0
 10
99.7566
 20
-48.9925
 30
0.0
 10
99.7566
 20
-48.9925
 30
0.0
 10
101.413
 20
-50.5291
 30
0.0
 10
102.9952
 20
-51.4557
 30
0.0
 10
103.729
 20
-51.8386
 30
0.0
 10
103.729
 20
-51.8386
 30
0.0
 10
106.7502
 20
-53.415
 30
0.0
 10
109.6974
 20
-52.5397
 30
0.0
 10
110.8424
 20
-50.5843
 30
0.0
 10
110.8424
 20
-50.5843
 30
0.0
 10
112.3419
 20
-48.14
 30
0.0
 10
110.6542
 20
-44.9539
 30
0.0
 10
108.5484
 20
-43.8142
 30
0.0
 10
108.5484
 20
-43.8142
 30
0.0
 10
107.4381
 20
-43.1956
 30
0.0
 10
105.8495
 20
-42.3379
 30
0.0
 10
104.0405
 20
-41.774
 30
0.0
 10
104.0405
 20
-41.774
 30
0.0
 10
101.4588
 20
-40.9693
 30
0.0
 10
98.4293
 20
-40.4883
 30
0.0
 10
95.7105
 20
-39.8112
 30
0.0
 10
95.7105
 20
-39.8112
 30
0.0
 10
93.474
 20
-39.2513
 30
0.0
 10
91.3965
 20
-38.6651
 30
0.0
 10
89.1138
 20
-38.0393
 30
0.0
 10
89.1138
 20
-38.0393
 30
0.0
 10
89.1138
 20
-38.0393
 30
0.0
 10
92.1757
 20
-41.1109
 30
0.0
 10
94.0168
 20
-42.9577
 30
0.0
 10
94.0168
 20
-42.9577
 30
0.0
 10
94.0168
 20
-42.9577
 30
0.0
 10
94.0167
 20
-42.9576
 30
0.0
 10
94.0167
 20
-42.9576
 30
0.0
  0
SPLINE
  5
45
330
1F
100
AcDbEntity
  8
layer 1
 62
     7
100
AcDbSpline
210
0.0
220
0.0
230
1.0
 70
    11
 71
     3
 72
    28
 73
    24
 74
     0
 42
0.0000000001
 43
0.0000000001
 12
1.0
 22
0.0
 32
0.0
 13
1.0
 23
0.0
 33
0.0
 40
0.0
 40
0.0
 40
0.0
 40
0.0
 40
0.1428571428571428
 40
0.1428571428571428
 40
0.1428571428571428
 40
0.1428571428571428
 40
0.2857142857142857
 40
0.2857142857142857
 40
0.2857142857142857
 40
0.2857142857142857
 40
0.4285714285714285
 40
0.4285714285714285
 40
0.4285714285714285
 40
0.4285714285714285
 40
0.5714285714285714
 40
0.5714285714285714
 40
0.5714285714285714
 40
0.5714285714285714
 40
0.7142857142857143
 40
0.7142857142857143
 40
0.7142857142857143
 40
0.7142857142857143
 40
1.0
 40
1.0
 40
1.0
 40
1.0
 10
88.2192
 20
-46.2477
 30
0.0
 10
88.898
 20
-48.7656
 30
0.0
 10
90.0057
 20
-51.7382
 30
0.0
 10
90.5755
 20
-54.236
 30
0.0
 10
90.5755
 20
-54.236
 30
0.0
 10
91.0781
 20
-56.4388
 30
0.0
 10
91.0895
 20
-58.2723
 30
0.0
 10
91.0542
 20
-59.0992
 30
0.0
 10
91.0542
 20
-59.0992
 30
0.0
 10
90.9088
 20
-62.5038
 30
0.0
 10
88.6771
 20
-64.6186
 30
0.0
 10
86.4112
 20
-64.6324
 30
0.0
 10
86.4112
 20
-64.6324
 30
0.0
 10
86.4112
 20
-64.6324
 30
0.0
 10
86.4112
 20
-39.5423
 30
0.0
 10
86.4112
 20
-39.5423
 30
0.0
 10
86.4112
 20
-39.5423
 30
0.0
 10
86.4112
 20
-39.5423
 30
0.0
 10
87.5402
 20
-43.7298
 30
0.0
 10
88.2192
 20
-46.2477
 30
0.0
 10
88.2192
 20
-46.2477
 30
0.0
 10
88.2192
 20
-46.2477
 30
0.0
 10
88.2192
 20
-46.2477
 30
0.0
 10
88.2192
 20
-46.2477
 30
0.0
  0
SPLINE
  5
46
330
1F
100
AcDbEntity
  8
layer 1
 62
     7
100
AcDbSpline
210
0.0
220
0.0
230
1.0
 70
    11
 71
     3
 72
    40
 73
    36
 74
     0
 42
0.0000000001
 43
0.0000000001
 12
1.0
 22
0.0
 32
0.0
 13
1.0
 23
0.0
 33
0.0
 40
0.0
 40
0.0
 40
0.0
 40
0.0
 40
0.1
 40
0.1
 40
0.1
 40
0.1
 40
0.2
 40
0.2
 40
0.2
 40
0.2
 40
0.3
 40
0.3
 40
0.3
 40
0.3
 40
0.4
 40
0.4
 40
0.4
 40
0.4
 40
0.5
 40
0.5
 40
0.5
 40
0.5
 40
0.6
 40
0.6
 40
0.6
 40
0.6
 40
0.7
 40
0.7
 40
0.7
 40
0.7
 40
0.8
 40
0.8
 40
0.8
 40
0.8
 40
1.0
 40
1.0
 40
1.0
 40
1.0
 10
110.4391
 20
17.9017
 30
0.0
 10
109.7603
 20
20.4195
 30
0.0
 10
108.6526
 20
23.3921
 30
0.0
 10
108.0828
 20
25.89
 30
0.0
 10
108.0828
 20
25.89
 30
0.0
 10
107.5802
 20
28.0928
 30
0.0
 10
107.5688
 20
29.9263
 30
0.0
 10
107.6041
 20
30.7532
 30
0.0
 10
107.6041
 20
30.7532
 30
0.0
 10
107.7495
 20
34.1578
 30
0.0
 10
109.9812
 20
36.2726
 30
0.0
 10
112.2471
 20
36.2864
 30
0.0
 10
112.2471
 20
36.2864
 30
0.0
 10
115.1137
 20
36.3628
 30
0.0
 10
117.029
 20
33.3082
 30
0.0
 10
116.9631
 20
30.9146
 30
0.0
 10
116.9631
 20
30.9146
 30
0.0
 10
116.9436
 20
29.6438
 30
0.0
 10
116.8922
 20
27.8392
 30
0.0
 10
116.476
 20
25.9905
 30
0.0
 10
116.476
 20
25.9905
 30
0.0
 10
115.8821
 20
23.3524
 30
0.0
 10
114.7838
 20
20.4883
 30
0.0
 10
114.0109
 20
17.7952
 30
0.0
 10
114.0109
 20
17.7952
 30
0.0
 10
113.3775
 20
15.5783
 30
0.0
 10
112.8465
 20
13.4861
 30
0.0
 10
112.2471
 20
11.1963
 30
0.0
 10
112.2471
 20
11.1963
 30
0.0
 10
112.2471
 20
11.1963
 30
0.0
 10
111.1181
 20
15.3838
 30
0.0
 10
110.4391
 20
17.9016
 30
0.0
 10
110.4391
 20
17.9016
 30
0.0
 10
110.4391
 20
17.9016
 30
0.0
 10
110.4391
 20
17.9017
 30
0.0
 10
110.4391
 20
17.9017
 30
0.0
  0
SPLINE
  5
47
330
1F
100
AcDbEntity
  8
layer 1
 62
     7
100
AcDbSpline
210
0.0
220
0.0
230
1.0
 70
    11
 71
     3
 72
    40
 73
    36
 74
     0
 42
0.0000000001
 43
0.0000000001
 12
1.0
 22
0.0
 32
0.0
 13
1.0
 23
0.0
 33
0.0
 40
0.0
 40
0.0
 40
0.0
 40
0.0
 40
0.1
 40
0.1
 40
0.1
 40
0.1
 40
0.2
 40
0.2
 40
0.2
 40
0.2
 40
0.3
 40
0.3
 40
0.3
 40
0.3
 40
0.4
 40
0.4
 40
0.4
 40
0.4
 40
0.5
 40
0.5
 40
0.5
 40
0.5
 40
0.6
 40
0.6
 40
0.6
 40
0.6
 40
0.7
 40
0.7
 40
0.7
 40
0.7
 40
0.8
 40
0.8
 40
0.8
 40
0.8
 40
1.0
 40
1.0
 40
1.0
 40
1.0
 10
102.7611
 20
11.6116
 30
0.0
 10
100.2412
 20
12.2826
 30
0.0
 10
97.113
 20
12.8097
 30
0.0
 10
94.6648
 20
13.5651
 30
0.0
 10
94.6648
 20
13.5651
 30
0.0
 10
92.5059
 20
14.2313
 30
0.0
 10
90.9123
 20
15.1382
 30
0.0
 10
90.2138
 20
15.5822
 30
0.0
 10
90.2138
 20
15.5822
 30
0.0
 10
87.338
 20
17.4103
 30
0.0
 10
86.6224
 20
20.4004
 30
0.0
 10
87.7434
 20
22.3697
 30
0.0
 10
87.7434
 20
22.3697
 30
0.0
 10
89.1105
 20
24.8905
 30
0.0
 10
92.7135
 20
25.0219
 30
0.0
 10
94.7534
 20
23.7681
 30
0.0
 10
94.7534
 20
23.7681
 30
0.0
 10
95.8443
 20
23.1159
 30
0.0
 10
97.3814
 20
22.169
 30
0.0
 10
98.7743
 20
20.8842
 30
0.0
 10
98.7743
 20
20.8842
 30
0.0
 10
100.762
 20
19.0508
 30
0.0
 10
102.6933
 20
16.6676
 30
0.0
 10
104.6391
 20
14.6516
 30
0.0
 10
104.6391
 20
14.6516
 30
0.0
 10
106.2423
 20
12.9947
 30
0.0
 10
107.7887
 20
11.4887
 30
0.0
 10
109.472
 20
9.8247
 30
0.0
 10
109.472
 20
9.8247
 30
0.0
 10
109.472
 20
9.8247
 30
0.0
 10
105.2809
 20
10.9406
 30
0.0
 10
102.761
 20
11.6116
 30
0.0
 10
102.761
 20
11.6116
 30
0.0
 10
102.761
 20
11.6116
 30
0.0
 10
102.7611
 20
11.6116
 30
0.0
 10
102.7611
 20
11.6116
 30
0.0
  0
SPLINE
  5
48
330
1F
100
AcDbEntity
  8
layer 1
 62
     7
100
AcDbSpline
210
0.0
220
0.0
230
1.0
 70
    11
 71
     3
 72
    40
 73
    36
 74
     0
 42
0.0000000001
 43
0.0000000001
 12
1.0
 22
0.0
 32
0.0
 13
1.0
 23
0.0
 33
0.0
 40
0.0
 40
0.0
 40
0.0
 40
0.0
 40
0.1
 40
0.1
 40
0.1
 40
0.1
 40
0.2
 40
0.2
 40
0.2
 40
0.2
 40
0.3
 40
0.3
 40
0.3
 40
0.3
 40
0.4
 40
0.4
 40
0.4
 40
0.4
 40
0.5
 40
0.5
 40
0.5
 40
0.5
 40
0.6
 40
0.6
 40
0.6
 40
0.6
 40
0.7
 40
0.7
 40
0.7
 40
0.7
 40
0.8
 40
0.8
 40
0.8
 40
0.8
 40
1.0
 40
1.0
 40
1.0
 40
1.0
 10
104.6417
 20
1.9385
 30
0.0
 10
102.8006
 20
0.0917
 30
0.0
 10
100.7801
 20
-2.3539
 30
0.0
 10
98.9018
 20
-4.0964
 30
0.0
 10
98.9018
 20
-4.0964
 30
0.0
 10
97.2454
 20
-5.633
 30
0.0
 10
95.6631
 20
-6.5597
 30
0.0
 10
94.9294
 20
-6.9425
 30
0.0
 10
94.9294
 20
-6.9425
 30
0.0
 10
91.9082
 20
-8.519
 30
0.0
 10
88.961
 20
-7.6437
 30
0.0
 10
87.816
 20
-5.6883
 30
0.0
 10
87.816
 20
-5.6883
 30
0.0
 10
86.3165
 20
-3.2439
 30
0.0
 10
88.0042
 20
-0.0579
 30
0.0
 10
90.11
 20
1.0818
 30
0.0
 10
90.11
 20
1.0818
 30
0.0
 10
91.2203
 20
1.7005
 30
0.0
 10
92.8089
 20
2.5582
 30
0.0
 10
94.6179
 20
3.1221
 30
0.0
 10
94.6179
 20
3.1221
 30
0.0
 10
97.1996
 20
3.9267
 30
0.0
 10
100.2291
 20
4.4077
 30
0.0
 10
102.9479
 20
5.0848
 30
0.0
 10
102.9479
 20
5.0848
 30
0.0
 10
105.1844
 20
5.6447
 30
0.0
 10
107.2618
 20
6.231
 30
0.0
 10
109.5446
 20
6.8568
 30
0.0
 10
109.5446
 20
6.8568
 30
0.0
 10
109.5446
 20
6.8568
 30
0.0
 10
106.4826
 20
3.7852
 30
0.0
 10
104.6416
 20
1.9384
 30
0.0
 10
104.6416
 20
1.9384
 30
0.0
 10
104.6416
 20
1.9384
 30
0.0
 10
104.6417
 20
1.9385
 30
0.0
 10
104.6417
 20
1.9385
 30
0.0
  0
SPLINE
  5
49
330
1F
100
AcDbEntity
  8
layer 1
 62
     7
100
AcDbSpline
210
0.0
220
0.0
230
1.0
 70
    11
 71
     3
 72
    40
 73
    36
 74
     0
 42
0.0000000001
 43
0.0000000001
 12
1.0
 22
0.0
 32
0.0
 13
1.0
 23
0.0
 33
0.0
 40
0.0
 40
0.0
 40
0.0
 40
0.0
 40
0.1
 40
0.1
 40
0.1
 40
0.1
 40
0.2
 40
0.2
 40
0.2
 40
0.2
 40
0.3
 40
0.3
 40
0.3
 40
0.3
 40
0.4
 40
0.4
 40
0.4
 40
0.4
 40
0.5
 40
0.5
 40
0.5
 40
0.5
 40
0.6
 40
0.6
 40
0.6
 40
0.6
 40
0.7
 40
0.7
 40
0.7
 40
0.7
 40
0.8
 40
0.8
 40
0.8
 40
0.8
 40
1.0
 40
1.0
 40
1.0
 40
1.0
 10
110.4391
 20
-1.3517
 30
0.0
 10
109.7603
 20
-3.8695
 30
0.0
 10
108.6526
 20
-6.8421
 30
0.0
 10
108.0828
 20
-9.34
 30
0.0
 10
108.0828
 20
-9.34
 30
0.0
 10
107.5802
 20
-11.5427
 30
0.0
 10
107.5688
 20
-13.3763
 30
0.0
 10
107.6041
 20
-14.2032
 30
0.0
 10
107.6041
 20
-14.2032
 30
0.0
 10
107.7495
 20
-17.6077
 30
0.0
 10
109.9812
 20
-19.7226
 30
0.0
 10
112.2471
 20
-19.7363
 30
0.0
 10
112.2471
 20
-19.7363
 30
0.0
 10
115.1137
 20
-19.8128
 30
0.0
 10
117.029
 20
-16.7582
 30
0.0
 10
116.9631
 20
-14.3646
 30
0.0
 10
116.9631
 20
-14.3646
 30
0.0
 10
116.9436
 20
-13.0938
 30
0.0
 10
116.8922
 20
-11.2892
 30
0.0
 10
116.476
 20
-9.4405
 30
0.0
 10
116.476
 20
-9.4405
 30
0.0
 10
115.8821
 20
-6.8024
 30
0.0
 10
114.7838
 20
-3.9383
 30
0.0
 10
114.0109
 20
-1.2452
 30
0.0
 10
114.0109
 20
-1.2452
 30
0.0
 10
113.3775
 20
0.9718
 30
0.0
 10
112.8465
 20
3.0639
 30
0.0
 10
112.2471
 20
5.3537
 30
0.0
 10
112.2471
 20
5.3537
 30
0.0
 10
112.2471
 20
5.3537
 30
0.0
 10
111.1181
 20
1.1662
 30
0.0
 10
110.4391
 20
-1.3516
 30
0.0
 10
110.4391
 20
-1.3516
 30
0.0
 10
110.4391
 20
-1.3516
 30
0.0
 10
110.4391
 20
-1.3517
 30
0.0
 10
110.4391
 20
-1.3517
 30
0.0
  0
SPLINE
  5
4A
330
1F
100
AcDbEntity
  8
layer 1
 62
     7
100
AcDbSpline
210
0.0
220
0.0
230
1.0
 70
    11
 71
     3
 72
    40
 73
    36
 74
     0
 42
0.0000000001
 43
0.0000000001
 12
1.0
 22
0.0
 32
0.0
 13
1.0
 23
0.0
 33
0.0
 40
0.0
 40
0.0
 40
0.0
 40
0.0
 40
0.1
 40
0.1
 40
0.1
 40
0.1
 40
0.2
 40
0.2
 40
0.2
 40
0.2
 40
0.3
 40
0.3
 40
0.3
 40
0.3
 40
0.4
 40
0.4
 40
0.4
 40
0.4
 40
0.5
 40
0.5
 40
0.5
 40
0.5
 40
0.6
 40
0.6
 40
0.6
 40
0.6
 40
0.7
 40
0.7
 40
0.7
 40
0.7
 40
0.8
 40
0.8
 40
0.8
 40
0.8
 40
1.0
 40
1.0
 40
1.0
 40
1.0
 10
121.6437
 20
11.5497
 30
0.0
 10
124.1636
 20
12.2207
 30
0.0
 10
127.2918
 20
12.7477
 30
0.0
 10
129.74
 20
13.5032
 30
0.0
 10
129.74
 20
13.5032
 30
0.0
 10
131.8989
 20
14.1693
 30
0.0
 10
133.4925
 20
15.0763
 30
0.0
 10
134.191
 20
15.5202
 30
0.0
 10
134.191
 20
15.5202
 30
0.0
 10
137.0668
 20
17.3484
 30
0.0
 10
137.7824
 20
20.3385
 30
0.0
 10
136.6614
 20
22.3078
 30
0.0
 10
136.6614
 20
22.3078
 30
0.0
 10
135.2943
 20
24.8285
 30
0.0
 10
131.6913
 20
24.96
 30
0.0
 10
129.6514
 20
23.7061
 30
0.0
 10
129.6514
 20
23.7061
 30
0.0
 10
128.5606
 20
23.0539
 30
0.0
 10
127.0234
 20
22.1071
 30
0.0
 10
125.6305
 20
20.8223
 30
0.0
 10
125.6305
 20
20.8223
 30
0.0
 10
123.6428
 20
18.9888
 30
0.0
 10
121.7115
 20
16.6056
 30
0.0
 10
119.7658
 20
14.5897
 30
0.0
 10
119.7658
 20
14.5897
 30
0.0
 10
118.1625
 20
12.9328
 30
0.0
 10
116.6161
 20
11.4268
 30
0.0
 10
114.9328
 20
9.7627
 30
0.0
 10
114.9328
 20
9.7627
 30
0.0
 10
114.9328
 20
9.7627
 30
0.0
 10
119.1239
 20
10.8787
 30
0.0
 10
121.6438
 20
11.5497
 30
0.0
 10
121.6438
 20
11.5497
 30
0.0
 10
121.6438
 20
11.5497
 30
0.0
 10
121.6437
 20
11.5497
 30
0.0
 10
121.6437
 20
11.5497
 30
0.0
  0
SPLINE
  5
4B
330
1F
100
AcDbEntity
  8
layer 1
 62
     7
100
AcDbSpline
210
0.0
220
0.0
230
1.0
 70
    11
 71
     3
 72
    40
 73
    36
 74
     0
 42
0.0000000001
 43
0.0000000001
 12
1.0
 22
0.0
 32
0.0
 13
1.0
 23
0.0
 33
0.0
 40
0.0
 40
0.0
 40
0.0
 40
0.0
 40
0.1
 40
0.1
 40
0.1
 40
0.1
 40
0.2
 40
0.2
 40
0.2
 40
0.2
 40
0.3
 40
0.3
 40
0.3
 40
0.3
 40
0.4
 40
0.4
 40
0.4
 40
0.4
 40
0.5
 40
0.5
 40
0.5
 40
0.5
 40
0.6
 40
0.6
 40
0.6
 40
0.6
 40
0.7
 40
0.7
 40
0.7
 40
0.7
 40
0.8
 40
0.8
 40
0.8
 40
0.8
 40
1.0
 40
1.0
 40
1.0
 40
1.0
 10
119.7011
 20
2.0004
 30
0.0
 10
121.5422
 20
0.1536
 30
0.0
 10
123.5627
 20
-2.2919
 30
0.0
 10
125.441
 20
-4.0345
 30
0.0
 10
125.441
 20
-4.0345
 30
0.0
 10
127.0974
 20
-5.5711
 30
0.0
 10
128.6797
 20
-6.4977
 30
0.0
 10
129.4134
 20
-6.8806
 30
0.0
 10
129.4134
 20
-6.8806
 30
0.0
 10
132.4346
 20
-8.457
 30
0.0
 10
135.3818
 20
-7.5817
 30
0.0
 10
136.5268
 20
-5.6263
 30
0.0
 10
136.5268
 20
-5.6263
 30
0.0
 10
138.0263
 20
-3.182
 30
0.0
 10
136.3386
 20
0.0041
 30
0.0
 10
134.2328
 20
1.1438
 30
0.0
 10
134.2328
 20
1.1438
 30
0.0
 10
133.1225
 20
1.7624
 30
0.0
 10
131.5339
 20
2.6201
 30
0.0
 10
129.7249
 20
3.184
 30
0.0
 10
129.7249
 20
3.184
 30
0.0
 10
127.1432
 20
3.9887
 30
0.0
 10
124.1137
 20
4.4697
 30
0.0
 10
121.3949
 20
5.1468
 30
0.0
 10
121.3949
 20
5.1468
 30
0.0
 10
119.1584
 20
5.7067
 30
0.0
 10
117.081
 20
6.2929
 30
0.0
 10
114.7982
 20
6.9187
 30
0.0
 10
114.7982
 20
6.9187
 30
0.0
 10
114.7982
 20
6.9187
 30
0.0
 10
117.8602
 20
3.8471
 30
0.0
 10
119.7012
 20
2.0003
 30
0.0
 10
119.7012
 20
2.0003
 30
0.0
 10
119.7012
 20
2.0003
 30
0.0
 10
119.7011
 20
2.0004
 30
0.0
 10
119.7011
 20
2.0004
 30
0.0
  0
SPLINE
  5
4C
330
1F
100
AcDbEntity
  8
layer 1
 62
     7
100
AcDbSpline
210
0.0
220
0.0
230
1.0
 70
    11
 71
     3
 72
    40
 73
    36
 74
     0
 42
0.0000000001
 43
0.0000000001
 12
1.0
 22
0.0
 32
0.0
 13
1.0
 23
0.0
 33
0.0
 40
0.0
 40
0.0
 40
0.0
 40
0.0
 40
0.1
 40
0.1
 40
0.1
 40
0.1
 40
0.2
 40
0.2
 40
0.2
 40
0.2
 40
0.3
 40
0.3
 40
0.3
 40
0.3
 40
0.4
 40
0.4
 40
0.4
 40
0.4
 40
0.5
 40
0.5
 40
0.5
 40
0.5
 40
0.6
 40
0.6
 40
0.6
 40
0.6
 40
0.7
 40
0.7
 40
0.7
 40
0.7
 40
0.8
 40
0.8
 40
0.8
 40
0.8
 40
1.0
 40
1.0
 40
1.0
 40
1.0
 10
162.518
 20
17.9017
 30
0.0
 10
161.8392
 20
20.4195
 30
0.0
 10
160.7315
 20
23.3921
 30
0.0
 10
160.1616
 20
25.89
 30
0.0
 10
160.1616
 20
25.89
 30
0.0
 10
159.6591
 20
28.0928
 30
0.0
 10
159.6477
 20
29.9263
 30
0.0
 10
159.683
 20
30.7532
 30
0.0
 10
159.683
 20
30.7532
 30
0.0
 10
159.8284
 20
34.1578
 30
0.0
 10
162.06
 20
36.2726
 30
0.0
 10
164.326
 20
36.2864
 30
0.0
 10
164.326
 20
36.2864
 30
0.0
 10
167.1926
 20
36.3628
 30
0.0
 10
169.1079
 20
33.3082
 30
0.0
 10
169.042
 20
30.9146
 30
0.0
 10
169.042
 20
30.9146
 30
0.0
 10
169.0225
 20
29.6438
 30
0.0
 10
168.9711
 20
27.8392
 30
0.0
 10
168.5549
 20
25.9905
 30
0.0
 10
168.5549
 20
25.9905
 30
0.0
 10
167.961
 20
23.3524
 30
0.0
 10
166.8627
 20
20.4883
 30
0.0
 10
166.0897
 20
17.7952
 30
0.0
 10
166.0897
 20
17.7952
 30
0.0
 10
165.4564
 20
15.5783
 30
0.0
 10
164.9254
 20
13.4861
 30
0.0
 10
164.326
 20
11.1963
 30
0.0
 10
164.326
 20
11.1963
 30
0.0
 10
164.326
 20
11.1963
 30
0.0
 10
163.1969
 20
15.3838
 30
0.0
 10
162.518
 20
17.9016
 30
0.0
 10
162.518
 20
17.9016
 30
0.0
 10
162.518
 20
17.9016
 30
0.0
 10
162.518
 20
17.9017
 30
0.0
 10
162.518
 20
17.9017
 30
0.0
  0
SPLINE
  5
4D
330
1F
100
AcDbEntity
  8
layer 1
 62
     7
100
AcDbSpline
210
0.0
220
0.0
230
1.0
 70
    11
 71
     3
 72
    40
 73
    36
 74
     0
 42
0.0000000001
 43
0.0000000001
 12
1.0
 22
0.0
 32
0.0
 13
1.0
 23
0.0
 33
0.0
 40
0.0
 40
0.0
 40
0.0
 40
0.0
 40
0.1
 40
0.1
 40
0.1
 40
0.1
 40
0.2
 40
0.2
 40
0.2
 40
0.2
 40
0.3
 40
0.3
 40
0.3
 40
0.3
 40
0.4
 40
0.4
 40
0.4
 40
0.4
 40
0.5
 40
0.5
 40
0.5
 40
0.5
 40
0.6
 40
0.6
 40
0.6
 40
0.6
 40
0.7
 40
0.7
 40
0.7
 40
0.7
 40
0.8
 40
0.8
 40
0.8
 40
0.8
 40
1.0
 40
1.0
 40
1.0
 40
1.0
 10
154.84
 20
11.6116
 30
0.0
 10
152.3201
 20
12.2826
 30
0.0
 10
149.1919
 20
12.8097
 30
0.0
 10
146.7437
 20
13.5651
 30
0.0
 10
146.7437
 20
13.5651
 30
0.0
 10
144.5848
 20
14.2313
 30
0.0
 10
142.9912
 20
15.1382
 30
0.0
 10
142.2927
 20
15.5822
 30
0.0
 10
142.2927
 20
15.5822
 30
0.0
 10
139.4169
 20
17.4103
 30
0.0
 10
138.7013
 20
20.4004
 30
0.0
 10
139.8223
 20
22.3697
 30
0.0
 10
139.8223
 20
22.3697
 30
0.0
 10
141.1894
 20
24.8905
 30
0.0
 10
144.7924
 20
25.0219
 30
0.0
 10
146.8323
 20
23.7681
 30
0.0
 10
146.8323
 20
23.7681
 30
0.0
 10
147.9231
 20
23.1159
 30
0.0
 10
149.4603
 20
22.169
 30
0.0
 10
150.8532
 20
20.8842
 30
0.0
 10
150.8532
 20
20.8842
 30
0.0
 10
152.8409
 20
19.0508
 30
0.0
 10
154.7722
 20
16.6676
 30
0.0
 10
156.7179
 20
14.6516
 30
0.0
 10
156.7179
 20
14.6516
 30
0.0
 10
158.3212
 20
12.9947
 30
0.0
 10
159.8676
 20
11.4887
 30
0.0
 10
161.5509
 20
9.8247
 30
0.0
 10
161.5509
 20
9.8247
 30
0.0
 10
161.5509
 20
9.8247
 30
0.0
 10
157.3598
 20
10.9406
 30
0.0
 10
154.8399
 20
11.6116
 30
0.0
 10
154.8399
 20
11.6116
 30
0.0
 10
154.8399
 20
11.6116
 30
0.0
 10
154.84
 20
11.6116
 30
0.0
 10
154.84
 20
11.6116
 30
0.0
  0
SPLINE
  5
4E
330
1F
100
AcDbEntity
  8
layer 1
 62
     7
100
AcDbSpline
210
0.0
220
0.0
230
1.0
 70
    11
 71
     3
 72
    40
 73
    36
 74
     0
 42
0.0000000001
 43
0.0000000001
 12
1.0
 22
0.0
 32
0.0
 13
1.0
 23
0.0
 33
0.0
 40
0.0
 40
0.0
 40
0.0
 40
0.0
 40
0.1
 40
0.1
 40
0.1
 40
0.1
 40
0.2
 40
0.2
 40
0.2
 40
0.2
 40
0.3
 40
0.3
 40
0.3
 40
0.3
 40
0.4
 40
0.4
 40
0.4
 40
0.4
 40
0.5
 40
0.5
 40
0.5
 40
0.5
 40
0.6
 40
0.6
 40
0.6
 40
0.6
 40
0.7
 40
0.7
 40
0.7
 40
0.7
 40
0.8
 40
0.8
 40
0.8
 40
0.8
 40
1.0
 40
1.0
 40
1.0
 40
1.0
 10
156.7205
 20
1.9385
 30
0.0
 10
154.8795
 20
0.0917
 30
0.0
 10
152.8589
 20
-2.3539
 30
0.0
 10
150.9807
 20
-4.0964
 30
0.0
 10
150.9807
 20
-4.0964
 30
0.0
 10
149.3243
 20
-5.633
 30
0.0
 10
147.742
 20
-6.5597
 30
0.0
 10
147.0083
 20
-6.9425
 30
0.0
 10
147.0083
 20
-6.9425
 30
0.0
 10
143.9871
 20
-8.519
 30
0.0
 10
141.0398
 20
-7.6437
 30
0.0
 10
139.8949
 20
-5.6883
 30
0.0
 10
139.8949
 20
-5.6883
 30
0.0
 10
138.3954
 20
-3.2439
 30
0.0
 10
140.0831
 20
-0.0579
 30
0.0
 10
142.1889
 20
1.0818
 30
0.0
 10
142.1889
 20
1.0818
 30
0.0
 10
143.2992
 20
1.7005
 30
0.0
 10
144.8877
 20
2.5582
 30
0.0
 10
146.6968
 20
3.1221
 30
0.0
 10
146.6968
 20
3.1221
 30
0.0
 10
149.2785
 20
3.9267
 30
0.0
 10
152.308
 20
4.4077
 30
0.0
 10
155.0268
 20
5.0848
 30
0.0
 10
155.0268
 20
5.0848
 30
0.0
 10
157.2633
 20
5.6447
 30
0.0
 10
159.3407
 20
6.231
 30
0.0
 10
161.6235
 20
6.8568
 30
0.0
 10
161.6235
 20
6.8568
 30
0.0
 10
161.6235
 20
6.8568
 30
0.0
 10
158.5615
 20
3.7852
 30
0.0
 10
156.7205
 20
1.9384
 30
0.0
 10
156.7205
 20
1.9384
 30
0.0
 10
156.7205
 20
1.9384
 30
0.0
 10
156.7205
 20
1.9385
 30
0.0
 10
156.7205
 20
1.9385
 30
0.0
  0
SPLINE
  5
4F
330
1F
100
AcDbEntity
  8
layer 1
 62
     7
100
AcDbSpline
210
0.0
220
0.0
230
1.0
 70
    11
 71
     3
 72
    40
 73
    36
 74
     0
 42
0.0000000001
 43
0.0000000001
 12
1.0
 22
0.0
 32
0.0
 13
1.0
 23
0.0
 33
0.0
 40
0.0
 40
0.0
 40
0.0
 40
0.0
 40
0.1
 40
0.1
 40
0.1
 40
0.1
 40
0.2
 40
0.2
 40
0.2
 40
0.2
 40
0.3
 40
0.3
 40
0.3
 40
0.3
 40
0.4
 40
0.4
 40
0.4
 40
0.4
 40
0.5
 40
0.5
 40
0.5
 40
0.5
 40
0.6
 40
0.6
 40
0.6
 40
0.6
 40
0.7
 40
0.7
 40
0.7
 40
0.7
 40
0.8
 40
0.8
 40
0.8
 40
0.8
 40
1.0
 40
1.0
 40
1.0
 40
1.0
 10
162.518
 20
-1.3517
 30
0.0
 10
161.8392
 20
-3.8695
 30
0.0
 10
160.7315
 20
-6.8421
 30
0.0
 10
160.1616
 20
-9.34
 30
0.0
 10
160.1616
 20
-9.34
 30
0.0
 10
159.6591
 20
-11.5427
 30
0.0
 10
159.6477
 20
-13.3763
 30
0.0
 10
159.683
 20
-14.2032
 30
0.0
 10
159.683
 20
-14.2032
 30
0.0
 10
159.8284
 20
-17.6077
 30
0.0
 10
162.06
 20
-19.7226
 30
0.0
 10
164.326
 20
-19.7363
 30
0.0
 10
164.326
 20
-19.7363
 30
0.0
 10
167.1926
 20
-19.8128
 30
0.0
 10
169.1079
 20
-16.7582
 30
0.0
 10
169.042
 20
-14.3646
 30
0.0
 10
169.042
 20
-14.3646
 30
0.0
 10
169.0225
 20
-13.0938
 30
0.0
 10
168.9711
 20
-11.2892
 30
0.0
 10
168.5549
 20
-9.4405
 30
0.0
 10
168.5549
 20
-9.4405
 30
0.0
 10
167.961
 20
-6.8024
 30
0.0
 10
166.8627
 20
-3.9383
 30
0.0
 10
166.0897
 20
-1.2452
 30
0.0
 10
166.0897
 20
-1.2452
 30
0.0
 10
165.4564
 20
0.9718
 30
0.0
 10
164.9254
 20
3.0639
 30
0.0
 10
164.326
 20
5.3537
 30
0.0
 10
164.326
 20
5.3537
 30
0.0
 10
164.326
 20
5.3537
 30
0.0
 10
163.1969
 20
1.1662
 30
0.0
 10
162.518
 20
-1.3516
 30
0.0
 10
162.518
 20
-1.3516
 30
0.0
 10
162.518
 20
-1.3516
 30
0.0
 10
162.518
 20
-1.3517
 30
0.0
 10
162.518
 20
-1.3517
 30
0.0
  0
SPLINE
  5
50
330
1F
100
AcDbEntity
  8
layer 1
 62
     7
100
AcDbSpline
210
0.0
220
0.0
230
1.0
 70
    11
 71
     3
 72
    40
 73
    36
 74
     0
 42
0.0000000001
 43
0.0000000001
 12
1.0
 22
0.0
 32
0.0
 13
1.0
 23
0.0
 33
0.0
 40
0.0
 40
0.0
 40
0.0
 40
0.0
 40
0.1
 40
0.1
 40
0.1
 40
0.1
 40
0.2
 40
0.2
 40
0.2
 40
0.2
 40
0.3
 40
0.3
 40
0.3
 40
0.3
 40
0.4
 40
0.4
 40
0.4
 40
0.4
 40
0.5
 40
0.5
 40
0.5
 40
0.5
 40
0.6
 40
0.6
 40
0.6
 40
0.6
 40
0.7
 40
0.7
 40
0.7
 40
0.7
 40
0.8
 40
0.8
 40
0.8
 40
0.8
 40
1.0
 40
1.0
 40
1.0
 40
1.0
 10
173.7226
 20
11.5497
 30
0.0
 10
176.2425
 20
12.2207
 30
0.0
 10
179.3707
 20
12.7477
 30
0.0
 10
181.8189
 20
13.5032
 30
0.0
 10
181.8189
 20
13.5032
 30
0.0
 10
183.9778
 20
14.1693
 30
0.0
 10
185.5714
 20
15.0763
 30
0.0
 10
186.2699
 20
15.5202
 30
0.0
 10
186.2699
 20
15.5202
 30
0.0
 10
189.1457
 20
17.3484
 30
0.0
 10
189.8613
 20
20.3385
 30
0.0
 10
188.7403
 20
22.3078
 30
0.0
 10
188.7403
 20
22.3078
 30
0.0
 10
187.3732
 20
24.8285
 30
0.0
 10
183.7702
 20
24.96
 30
0.0
 10
181.7303
 20
23.7061
 30
0.0
 10
181.7303
 20
23.7061
 30
0.0
 10
180.6394
 20
23.0539
 30
0.0
 10
179.1023
 20
22.1071
 30
0.0
 10
177.7094
 20
20.8223
 30
0.0
 10
177.7094
 20
20.8223
 30
0.0
 10
175.7217
 20
18.9888
 30
0.0
 10
173.7904
 20
16.6056
 30
0.0
 10
171.8446
 20
14.5897
 30
0.0
 10
171.8446
 20
14.5897
 30
0.0
 10
170.2414
 20
12.9328
 30
0.0
 10
168.695
 20
11.4268
 30
0.0
 10
167.0117
 20
9.7627
 30
0.0
 10
167.0117
 20
9.7627
 30
0.0
 10
167.0117
 20
9.7627
 30
0.0
 10
171.2028
 20
10.8787
 30
0.0
 10
173.7227
 20
11.5497
 30
0.0
 10
173.7227
 20
11.5497
 30
0.0
 10
173.7227
 20
11.5497
 30
0.0
 10
173.7226
 20
11.5497
 30
0.0
 10
173.7226
 20
11.5497
 30
0.0
  0
SPLINE
  5
51
330
1F
100
AcDbEntity
  8
layer 1
 62
     7
100
AcDbSpline
210
0.0
220
0.0
230
1.0
 70
    11
 71
     3
 72
    40
 73
    36
 74
     0
 42
0.0000000001
 43
0.0000000001
 12
1.0
 22
0.0
 32
0.0
 13
1.0
 23
0.0
 33
0.0
 40
0.0
 40
0.0
 40
0.0
 40
0.0
 40
0.1
 40
0.1
 40
0.1
 40
0.1
 40
0.2
 40
0.2
 40
0.2
 40
0.2
 40
0.3
 40
0.3
 40
0.3
 40
0.3
 40
0.4
 40
0.4
 40
0.4
 40
0.4
 40
0.5
 40
0.5
 40
0.5
 40
0.5
 40
0.6
 40
0.6
 40
0.6
 40
0.6
 40
0.7
 40
0.7
 40
0.7
 40
0.7
 40
0.8
 40
0.8
 40
0.8
 40
0.8
 40
1.0
 40
1.0
 40
1.0
 40
1.0
 10
171.78
 20
2.0004
 30
0.0
 10
173.6211
 20
0.1536
 30
0.0
 10
175.6416
 20
-2.2919
 30
0.0
 10
177.5199
 20
-4.0345
 30
0.0
 10
177.5199
 20
-4.0345
 30
0.0
 10
179.1763
 20
-5.5711
 30
0.0
 10
180.7585
 20
-6.4977
 30
0.0
 10
181.4923
 20
-6.8806
 30
0.0
 10
181.4923
 20
-6.8806
 30
0.0
 10
184.5134
 20
-8.457
 30
0.0
 10
187.4607
 20
-7.5817
 30
0.0
 10
188.6057
 20
-5.6263
 30
0.0
 10
188.6057
 20
-5.6263
 30
0.0
 10
190.1052
 20
-3.182
 30
0.0
 10
188.4175
 20
0.0041
 30
0.0
 10
186.3117
 20
1.1438
 30
0.0
 10
186.3117
 20
1.1438
 30
0.0
 10
185.2014
 20
1.7624
 30
0.0
 10
183.6128
 20
2.6201
 30
0.0
 10
181.8038
 20
3.184
 30
0.0
 10
181.8038
 20
3.184
 30
0.0
 10
179.2221
 20
3.9887
 30
0.0
 10
176.1926
 20
4.4697
 30
0.0
 10
173.4738
 20
5.1468
 30
0.0
 10
173.4738
 20
5.1468
 30
0.0
 10
171.2373
 20
5.7067
 30
0.0
 10
169.1598
 20
6.2929
 30
0.0
 10
166.8771
 20
6.9187
 30
0.0
 10
166.8771
 20
6.9187
 30
0.0
 10
166.8771
 20
6.9187
 30
0.0
 10
169.939
 20
3.8471
 30
0.0
 10
171.7801
 20
2.0003
 30
0.0
 10
171.7801
 20
2.0003
 30
0.0
 10
171.7801
 20
2.0003
 30
0.0
 10
171.78
 20
2.0004
 30
0.0
 10
171.78
 20
2.0004
 30
0.0
  0
SPLINE
  5
52
330
1F
100
AcDbEntity
  8
layer 1
 62
     7
100
AcDbSpline
210
0.0
220
0.0
230
1.0
 70
    11
 71
     3
 72
    28
 73
    24
 74
     0
 42
0.0000000001
 43
0.0000000001
 12
1.0
 22
0.0
 32
0.0
 13
1.0
 23
0.0
 33
0.0
 40
0.0
 40
0.0
 40
0.0
 40
0.0
 40
0.1428571428571428
 40
0.1428571428571428
 40
0.1428571428571428
 40
0.1428571428571428
 40
0.2857142857142857
 40
0.2857142857142857
 40
0.2857142857142857
 40
0.2857142857142857
 40
0.4285714285714285
 40
0.4285714285714285
 40
0.4285714285714285
 40
0.4285714285714285
 40
0.5714285714285714
 40
0.5714285714285714
 40
0.5714285714285714
 40
0.5714285714285714
 40
0.7142857142857143
 40
0.7142857142857143
 40
0.7142857142857143
 40
0.7142857142857143
 40
1.0
 40
1.0
 40
1.0
 40
1.0
 10
188.4789
 20
-26.9943
 30
0.0
 10
187.8
 20
-24.4765
 30
0.0
 10
186.6924
 20
-21.5039
 30
0.0
 10
186.1225
 20
-19.006
 30
0.0
 10
186.1225
 20
-19.006
 30
0.0
 10
185.6199
 20
-16.8032
 30
0.0
 10
185.6085
 20
-14.9697
 30
0.0
 10
185.6439
 20
-14.1428
 30
0.0
 10
185.6439
 20
-14.1428
 30
0.0
 10
185.7892
 20
-10.7382
 30
0.0
 10
188.0209
 20
-8.6234
 30
0.0
 10
190.2868
 20
-8.6096
 30
0.0
 10
190.2868
 20
-8.6096
 30
0.0
 10
190.2868
 20
-8.6096
 30
0.0
 10
190.2868
 20
-33.6997
 30
0.0
 10
190.2868
 20
-33.6997
 30
0.0
 10
190.2868
 20
-33.6997
 30
0.0
 10
190.2868
 20
-33.6997
 30
0.0
 10
189.1578
 20
-29.5122
 30
0.0
 10
188.4789
 20
-26.9944
 30
0.0
 10
188.4789
 20
-26.9944
 30
0.0
 10
188.4789
 20
-26.9944
 30
0.0
 10
188.4789
 20
-26.9943
 30
0.0
 10
188.4789
 20
-26.9943
 30
0.0
  0
SPLINE
  5
53
330
1F
100
AcDbEntity
  8
layer 1
 62
     7
100
AcDbSpline
210
0.0
220
0.0
230
1.0
 70
    11
 71
     3
 72
    40
 73
    36
 74
     0
 42
0.0000000001
 43
0.0000000001
 12
1.0
 22
0.0
 32
0.0
 13
1.0
 23
0.0
 33
0.0
 40
0.0
 40
0.0
 40
0.0
 40
0.0
 40
0.1
 40
0.1
 40
0.1
 40
0.1
 40
0.2
 40
0.2
 40
0.2
 40
0.2
 40
0.3
 40
0.3
 40
0.3
 40
0.3
 40
0.4
 40
0.4
 40
0.4
 40
0.4
 40
0.5
 40
0.5
 40
0.5
 40
0.5
 40
0.6
 40
0.6
 40
0.6
 40
0.6
 40
0.7
 40
0.7
 40
0.7
 40
0.7
 40
0.8
 40
0.8
 40
0.8
 40
0.8
 40
1.0
 40
1.0
 40
1.0
 40
1.0
 10
180.8008
 20
-33.2844
 30
0.0
 10
178.2809
 20
-32.6134
 30
0.0
 10
175.1527
 20
-32.0864
 30
0.0
 10
172.7045
 20
-31.331
 30
0.0
 10
172.7045
 20
-31.331
 30
0.0
 10
170.5455
 20
-30.6648
 30
0.0
 10
168.9519
 20
-29.7578
 30
0.0
 10
168.2535
 20
-29.3139
 30
0.0
 10
168.2535
 20
-29.3139
 30
0.0
 10
165.3777
 20
-27.4858
 30
0.0
 10
164.6621
 20
-24.4956
 30
0.0
 10
165.783
 20
-22.5264
 30
0.0
 10
165.783
 20
-22.5264
 30
0.0
 10
167.1501
 20
-20.0056
 30
0.0
 10
170.7532
 20
-19.8742
 30
0.0
 10
172.7931
 20
-21.128
 30
0.0
 10
172.7931
 20
-21.128
 30
0.0
 10
173.8839
 20
-21.7802
 30
0.0
 10
175.421
 20
-22.7271
 30
0.0
 10
176.8139
 20
-24.0119
 30
0.0
 10
176.8139
 20
-24.0119
 30
0.0
 10
178.8017
 20
-25.8453
 30
0.0
 10
180.7329
 20
-28.2285
 30
0.0
 10
182.6787
 20
-30.2444
 30
0.0
 10
182.6787
 20
-30.2444
 30
0.0
 10
184.2819
 20
-31.9014
 30
0.0
 10
185.8283
 20
-33.4074
 30
0.0
 10
187.5116
 20
-35.0714
 30
0.0
 10
187.5116
 20
-35.0714
 30
0.0
 10
187.5116
 20
-35.0714
 30
0.0
 10
183.3206
 20
-33.9555
 30
0.0
 10
180.8007
 20
-33.2844
 30
0.0
 10
180.8007
 20
-33.2844
 30
0.0
 10
180.8007
 20
-33.2844
 30
0.0
 10
180.8008
 20
-33.2844
 30
0.0
 10
180.8008
 20
-33.2844
 30
0.0
  0
SPLINE
  5
54
330
1F
100
AcDbEntity
  8
layer 1
 62
     7
100
AcDbSpline
210
0.0
220
0.0
230
1.0
 70
    11
 71
     3
 72
    40
 73
    36
 74
     0
 42
0.0000000001
 43
0.0000000001
 12
1.0
 22
0.0
 32
0.0
 13
1.0
 23
0.0
 33
0.0
 40
0.0
 40
0.0
 40
0.0
 40
0.0
 40
0.1
 40
0.1
 40
0.1
 40
0.1
 40
0.2
 40
0.2
 40
0.2
 40
0.2
 40
0.3
 40
0.3
 40
0.3
 40
0.3
 40
0.4
 40
0.4
 40
0.4
 40
0.4
 40
0.5
 40
0.5
 40
0.5
 40
0.5
 40
0.6
 40
0.6
 40
0.6
 40
0.6
 40
0.7
 40
0.7
 40
0.7
 40
0.7
 40
0.8
 40
0.8
 40
0.8
 40
0.8
 40
1.0
 40
1.0
 40
1.0
 40
1.0
 10
182.6814
 20
-42.9576
 30
0.0
 10
180.8403
 20
-44.8044
 30
0.0
 10
178.8198
 20
-47.2499
 30
0.0
 10
176.9415
 20
-48.9925
 30
0.0
 10
176.9415
 20
-48.9925
 30
0.0
 10
175.2851
 20
-50.5291
 30
0.0
 10
173.7029
 20
-51.4557
 30
0.0
 10
172.9691
 20
-51.8386
 30
0.0
 10
172.9691
 20
-51.8386
 30
0.0
 10
169.948
 20
-53.415
 30
0.0
 10
167.0007
 20
-52.5397
 30
0.0
 10
165.8557
 20
-50.5843
 30
0.0
 10
165.8557
 20
-50.5843
 30
0.0
 10
164.3562
 20
-48.14
 30
0.0
 10
166.0439
 20
-44.9539
 30
0.0
 10
168.1497
 20
-43.8142
 30
0.0
 10
168.1497
 20
-43.8142
 30
0.0
 10
169.26
 20
-43.1956
 30
0.0
 10
170.8486
 20
-42.3379
 30
0.0
 10
172.6577
 20
-41.774
 30
0.0
 10
172.6577
 20
-41.774
 30
0.0
 10
175.2393
 20
-40.9693
 30
0.0
 10
178.2688
 20
-40.4883
 30
0.0
 10
180.9876
 20
-39.8112
 30
0.0
 10
180.9876
 20
-39.8112
 30
0.0
 10
183.2241
 20
-39.2513
 30
0.0
 10
185.3016
 20
-38.6651
 30
0.0
 10
187.5843
 20
-38.0393
 30
0.0
 10
187.5843
 20
-38.0393
 30
0.0
 10
187.5843
 20
-38.0393
 30
0.0
 10
184.5224
 20
-41.1109
 30
0.0
 10
182.6813
 20
-42.9577
 30
0.0
 10
182.6813
 20
-42.9577
 30
0.0
 10
182.6813
 20
-42.9577
 30
0.0
 10
182.6814
 20
-42.9576
 30
0.0
 10
182.6814
 20
-42.9576
 30
0.0
  0
SPLINE
  5
55
330
1F
100
AcDbEntity
  8
layer 1
 62
     7
100
AcDbSpline
210
0.0
220
0.0
230
1.0
 70
    11
 71
     3
 72
    28
 73
    24
 74
     0
 42
0.0000000001
 43
0.0000000001
 12
1.0
 22
0.0
 32
0.0
 13
1.0
 23
0.0
 33
0.0
 40
0.0
 40
0.0
 40
0.0
 40
0.0
 40
0.1428571428571428
 40
0.1428571428571428
 40
0.1428571428571428
 40
0.1428571428571428
 40
0.2857142857142857
 40
0.2857142857142857
 40
0.2857142857142857
 40
0.2857142857142857
 40
0.4285714285714285
 40
0.4285714285714285
 40
0.4285714285714285
 40
0.4285714285714285
 40
0.5714285714285714
 40
0.5714285714285714
 40
0.5714285714285714
 40
0.5714285714285714
 40
0.7142857142857143
 40
0.7142857142857143
 40
0.7142857142857143
 40
0.7142857142857143
 40
1.0
 40
1.0
 40
1.0
 40
1.0
 10
188.4789
 20
-46.2477
 30
0.0
 10
187.8
 20
-48.7656
 30
0.0
 10
186.6924
 20
-51.7382
 30
0.0
 10
186.1225
 20
-54.236
 30
0.0
 10
186.1225
 20
-54.236
 30
0.0
 10
185.6199
 20
-56.4388
 30
0.0
 10
185.6085
 20
-58.2723
 30
0.0
 10
185.6439
 20
-59.0992
 30
0.0
 10
185.6439
 20
-59.0992
 30
0.0
 10
185.7892
 20
-62.5038
 30
0.0
 10
188.0209
 20
-64.6186
 30
0.0
 10
190.2868
 20
-64.6324
 30
0.0
 10
190.2868
 20
-64.6324
 30
0.0
 10
190.2868
 20
-64.6324
 30
0.0
 10
190.2868
 20
-39.5423
 30
0.0
 10
190.2868
 20
-39.5423
 30
0.0
 10
190.2868
 20
-39.5423
 30
0.0
 10
190.2868
 20
-39.5423
 30
0.0
 10
189.1578
 20
-43.7298
 30
0.0
 10
188.4789
 20
-46.2477
 30
0.0
 10
188.4789
 20
-46.2477
 30
0.0
 10
188.4789
 20
-46.2477
 30
0.0
 10
188.4789
 20
-46.2477
 30
0.0
 10
188.4789
 20
-46.2477
 30
0.0
  0
SPLINE
  5
56
330
1F
100
AcDbEntity
  8
layer 1
 62
     7
100
AcDbSpline
210
0.0
220
0.0
230
1.0
 70
    11
 71
     3
 72
    40
 73
    36
 74
     0
 42
0.0000000001
 43
0.0000000001
 12
1.0
 22
0.0
 32
0.0
 13
1.0
 23
0.0
 33
0.0
 40
0.0
 40
0.0
 40
0.0
 40
0.0
 40
0.1
 40
0.1
 40
0.1
 40
0.1
 40
0.2
 40
0.2
 40
0.2
 40
0.2
 40
0.3
 40
0.3
 40
0.3
 40
0.3
 40
0.4
 40
0.4
 40
0.4
 40
0.4
 40
0.5
 40
0.5
 40
0.5
 40
0.5
 40
0.6
 40
0.6
 40
0.6
 40
0.6
 40
0.7
 40
0.7
 40
0.7
 40
0.7
 40
0.8
 40
0.8
 40
0.8
 40
0.8
 40
1.0
 40
1.0
 40
1.0
 40
1.0
 10
110.4943
 20
-71.9327
 30
0.0
 10
109.8155
 20
-69.4149
 30
0.0
 10
108.7078
 20
-66.4423
 30
0.0
 10
108.1379
 20
-63.9444
 30
0.0
 10
108.1379
 20
-63.9444
 30
0.0
 10
107.6353
 20
-61.7416
 30
0.0
 10
107.624
 20
-59.9081
 30
0.0
 10
107.6593
 20
-59.0812
 30
0.0
 10
107.6593
 20
-59.0812
 30
0.0
 10
107.8047
 20
-55.6766
 30
0.0
 10
110.0363
 20
-53.5618
 30
0.0
 10
112.3022
 20
-53.548
 30
0.0
 10
112.3022
 20
-53.548
 30
0.0
 10
115.1689
 20
-53.4716
 30
0.0
 10
117.0842
 20
-56.5262
 30
0.0
 10
117.0182
 20
-58.9198
 30
0.0
 10
117.0182
 20
-58.9198
 30
0.0
 10
116.9988
 20
-60.1906
 30
0.0
 10
116.9474
 20
-61.9952
 30
0.0
 10
116.5312
 20
-63.8439
 30
0.0
 10
116.5312
 20
-63.8439
 30
0.0
 10
115.9373
 20
-66.482
 30
0.0
 10
114.839
 20
-69.3461
 30
0.0
 10
114.066
 20
-72.0392
 30
0.0
 10
114.066
 20
-72.0392
 30
0.0
 10
113.4327
 20
-74.2561
 30
0.0
 10
112.9017
 20
-76.3483
 30
0.0
 10
112.3022
 20
-78.6381
 30
0.0
 10
112.3022
 20
-78.6381
 30
0.0
 10
112.3022
 20
-78.6381
 30
0.0
 10
111.1732
 20
-74.4506
 30
0.0
 10
110.4943
 20
-71.9328
 30
0.0
 10
110.4943
 20
-71.9328
 30
0.0
 10
110.4943
 20
-71.9328
 30
0.0
 10
110.4943
 20
-71.9327
 30
0.0
 10
110.4943
 20
-71.9327
 30
0.0
  0
SPLINE
  5
57
330
1F
100
AcDbEntity
  8
layer 1
 62
     7
100
AcDbSpline
210
0.0
220
0.0
230
1.0
 70
    11
 71
     3
 72
    40
 73
    36
 74
     0
 42
0.0000000001
 43
0.0000000001
 12
1.0
 22
0.0
 32
0.0
 13
1.0
 23
0.0
 33
0.0
 40
0.0
 40
0.0
 40
0.0
 40
0.0
 40
0.1
 40
0.1
 40
0.1
 40
0.1
 40
0.2
 40
0.2
 40
0.2
 40
0.2
 40
0.3
 40
0.3
 40
0.3
 40
0.3
 40
0.4
 40
0.4
 40
0.4
 40
0.4
 40
0.5
 40
0.5
 40
0.5
 40
0.5
 40
0.6
 40
0.6
 40
0.6
 40
0.6
 40
0.7
 40
0.7
 40
0.7
 40
0.7
 40
0.8
 40
0.8
 40
0.8
 40
0.8
 40
1.0
 40
1.0
 40
1.0
 40
1.0
 10
102.8162
 20
-78.2228
 30
0.0
 10
100.2963
 20
-77.5517
 30
0.0
 10
97.1681
 20
-77.0247
 30
0.0
 10
94.7199
 20
-76.2693
 30
0.0
 10
94.7199
 20
-76.2693
 30
0.0
 10
92.561
 20
-75.6031
 30
0.0
 10
90.9674
 20
-74.6961
 30
0.0
 10
90.2689
 20
-74.2522
 30
0.0
 10
90.2689
 20
-74.2522
 30
0.0
 10
87.3931
 20
-72.4241
 30
0.0
 10
86.6775
 20
-69.4339
 30
0.0
 10
87.7985
 20
-67.4647
 30
0.0
 10
87.7985
 20
-67.4647
 30
0.0
 10
89.1656
 20
-64.9439
 30
0.0
 10
92.7686
 20
-64.8125
 30
0.0
 10
94.8085
 20
-66.0663
 30
0.0
 10
94.8085
 20
-66.0663
 30
0.0
 10
95.8993
 20
-66.7185
 30
0.0
 10
97.4365
 20
-67.6654
 30
0.0
 10
98.8294
 20
-68.9502
 30
0.0
 10
98.8294
 20
-68.9502
 30
0.0
 10
100.8171
 20
-70.7836
 30
0.0
 10
102.7484
 20
-73.1668
 30
0.0
 10
104.6941
 20
-75.1828
 30
0.0
 10
104.6941
 20
-75.1828
 30
0.0
 10
106.2974
 20
-76.8397
 30
0.0
 10
107.8438
 20
-78.3457
 30
0.0
 10
109.5271
 20
-80.0097
 30
0.0
 10
109.5271
 20
-80.0097
 30
0.0
 10
109.5271
 20
-80.0097
 30
0.0
 10
105.336
 20
-78.8938
 30
0.0
 10
102.8161
 20
-78.2228
 30
0.0
 10
102.8161
 20
-78.2228
 30
0.0
 10
102.8161
 20
-78.2228
 30
0.0
 10
102.8162
 20
-78.2228
 30
0.0
 10
102.8162
 20
-78.2228
 30
0.0
  0
SPLINE
  5
58
330
1F
100
AcDbEntity
  8
layer 1
 62
     7
100
AcDbSpline
210
0.0
220
0.0
230
1.0
 70
    11
 71
     3
 72
    40
 73
    36
 74
     0
 42
0.0000000001
 43
0.0000000001
 12
1.0
 22
0.0
 32
0.0
 13
1.0
 23
0.0
 33
0.0
 40
0.0
 40
0.0
 40
0.0
 40
0.0
 40
0.1
 40
0.1
 40
0.1
 40
0.1
 40
0.2
 40
0.2
 40
0.2
 40
0.2
 40
0.3
 40
0.3
 40
0.3
 40
0.3
 40
0.4
 40
0.4
 40
0.4
 40
0.4
 40
0.5
 40
0.5
 40
0.5
 40
0.5
 40
0.6
 40
0.6
 40
0.6
 40
0.6
 40
0.7
 40
0.7
 40
0.7
 40
0.7
 40
0.8
 40
0.8
 40
0.8
 40
0.8
 40
1.0
 40
1.0
 40
1.0
 40
1.0
 10
104.6967
 20
-87.896
 30
0.0
 10
102.8557
 20
-89.7428
 30
0.0
 10
100.8351
 20
-92.1883
 30
0.0
 10
98.9569
 20
-93.9309
 30
0.0
 10
98.9569
 20
-93.9309
 30
0.0
 10
97.3005
 20
-95.4675
 30
0.0
 10
95.7182
 20
-96.3941
 30
0.0
 10
94.9845
 20
-96.777
 30
0.0
 10
94.9845
 20
-96.777
 30
0.0
 10
91.9633
 20
-98.3534
 30
0.0
 10
89.016
 20
-97.4781
 30
0.0
 10
87.8711
 20
-95.5227
 30
0.0
 10
87.8711
 20
-95.5227
 30
0.0
 10
86.3716
 20
-93.0784
 30
0.0
 10
88.0593
 20
-89.8923
 30
0.0
 10
90.1651
 20
-88.7526
 30
0.0
 10
90.1651
 20
-88.7526
 30
0.0
 10
91.2754
 20
-88.134
 30
0.0
 10
92.8639
 20
-87.2763
 30
0.0
 10
94.673
 20
-86.7124
 30
0.0
 10
94.673
 20
-86.7124
 30
0.0
 10
97.2547
 20
-85.9077
 30
0.0
 10
100.2842
 20
-85.4267
 30
0.0
 10
103.003
 20
-84.7496
 30
0.0
 10
103.003
 20
-84.7496
 30
0.0
 10
105.2395
 20
-84.1897
 30
0.0
 10
107.3169
 20
-83.6034
 30
0.0
 10
109.5997
 20
-82.9777
 30
0.0
 10
109.5997
 20
-82.9777
 30
0.0
 10
109.5997
 20
-82.9777
 30
0.0
 10
106.5377
 20
-86.0493
 30
0.0
 10
104.6967
 20
-87.8961
 30
0.0
 10
104.6967
 20
-87.8961
 30
0.0
 10
104.6967
 20
-87.8961
 30
0.0
 10
104.6967
 20
-87.896
 30
0.0
 10
104.6967
 20
-87.896
 30
0.0
  0
SPLINE
  5
59
330
1F
100
AcDbEntity
  8
layer 1
 62
     7
100
AcDbSpline
210
0.0
220
0.0
230
1.0
 70
    11
 71
     3
 72
    40
 73
    36
 74
     0
 42
0.0000000001
 43
0.0000000001
 12
1.0
 22
0.0
 32
0.0
 13
1.0
 23
0.0
 33
0.0
 40
0.0
 40
0.0
 40
0.0
 40
0.0
 40
0.1
 40
0.1
 40
0.1
 40
0.1
 40
0.2
 40
0.2
 40
0.2
 40
0.2
 40
0.3
 40
0.3
 40
0.3
 40
0.3
 40
0.4
 40
0.4
 40
0.4
 40
0.4
 40
0.5
 40
0.5
 40
0.5
 40
0.5
 40
0.6
 40
0.6
 40
0.6
 40
0.6
 40
0.7
 40
0.7
 40
0.7
 40
0.7
 40
0.8
 40
0.8
 40
0.8
 40
0.8
 40
1.0
 40
1.0
 40
1.0
 40
1.0
 10
110.4943
 20
-91.1861
 30
0.0
 10
109.8155
 20
-93.704
 30
0.0
 10
108.7078
 20
-96.6766
 30
0.0
 10
108.1379
 20
-99.1744
 30
0.0
 10
108.1379
 20
-99.1744
 30
0.0
 10
107.6353
 20
-101.3772
 30
0.0
 10
107.624
 20
-103.2107
 30
0.0
 10
107.6593
 20
-104.0376
 30
0.0
 10
107.6593
 20
-104.0376
 30
0.0
 10
107.8047
 20
-107.4422
 30
0.0
 10
110.0363
 20
-109.557
 30
0.0
 10
112.3022
 20
-109.5708
 30
0.0
 10
112.3022
 20
-109.5708
 30
0.0
 10
115.1689
 20
-109.6472
 30
0.0
 10
117.0842
 20
-106.5927
 30
0.0
 10
117.0182
 20
-104.199
 30
0.0
 10
117.0182
 20
-104.199
 30
0.0
 10
116.9988
 20
-102.9282
 30
0.0
 10
116.9474
 20
-101.1237
 30
0.0
 10
116.5312
 20
-99.275
 30
0.0
 10
116.5312
 20
-99.275
 30
0.0
 10
115.9373
 20
-96.6368
 30
0.0
 10
114.839
 20
-93.7727
 30
0.0
 10
114.066
 20
-91.0796
 30
0.0
 10
114.066
 20
-91.0796
 30
0.0
 10
113.4327
 20
-88.8627
 30
0.0
 10
112.9017
 20
-86.7705
 30
0.0
 10
112.3022
 20
-84.4807
 30
0.0
 10
112.3022
 20
-84.4807
 30
0.0
 10
112.3022
 20
-84.4807
 30
0.0
 10
111.1732
 20
-88.6682
 30
0.0
 10
110.4943
 20
-91.1861
 30
0.0
 10
110.4943
 20
-91.1861
 30
0.0
 10
110.4943
 20
-91.1861
 30
0.0
 10
110.4943
 20
-91.1861
 30
0.0
 10
110.4943
 20
-91.1861
 30
0.0
  0
SPLINE
  5
5A
330
1F
100
AcDbEntity
  8
layer 1
 62
     7
100
AcDbSpline
210
0.0
220
0.0
230
1.0
 70
    11
 71
     3
 72
    40
 73
    36
 74
     0
 42
0.0000000001
 43
0.0000000001
 12
1.0
 22
0.0
 32
0.0
 13
1.0
 23
0.0
 33
0.0
 40
0.0
 40
0.0
 40
0.0
 40
0.0
 40
0.1
 40
0.1
 40
0.1
 40
0.1
 40
0.2
 40
0.2
 40
0.2
 40
0.2
 40
0.3
 40
0.3
 40
0.3
 40
0.3
 40
0.4
 40
0.4
 40
0.4
 40
0.4
 40
0.5
 40
0.5
 40
0.5
 40
0.5
 40
0.6
 40
0.6
 40
0.6
 40
0.6
 40
0.7
 40
0.7
 40
0.7
 40
0.7
 40
0.8
 40
0.8
 40
0.8
 40
0.8
 40
1.0
 40
1.0
 40
1.0
 40
1.0
 10
121.6988
 20
-78.2847
 30
0.0
 10
124.2187
 20
-77.6137
 30
0.0
 10
127.3469
 20
-77.0866
 30
0.0
 10
129.795
 20
-76.3312
 30
0.0
 10
129.795
 20
-76.3312
 30
0.0
 10
131.954
 20
-75.665
 30
0.0
 10
133.5476
 20
-74.7581
 30
0.0
 10
134.2461
 20
-74.3141
 30
0.0
 10
134.2461
 20
-74.3141
 30
0.0
 10
137.1219
 20
-72.486
 30
0.0
 10
137.8375
 20
-69.4959
 30
0.0
 10
136.7165
 20
-67.5266
 30
0.0
 10
136.7165
 20
-67.5266
 30
0.0
 10
135.3494
 20
-65.0058
 30
0.0
 10
131.7464
 20
-64.8744
 30
0.0
 10
129.7065
 20
-66.1283
 30
0.0
 10
129.7065
 20
-66.1283
 30
0.0
 10
128.6156
 20
-66.7805
 30
0.0
 10
127.0785
 20
-67.7273
 30
0.0
 10
125.6856
 20
-69.0121
 30
0.0
 10
125.6856
 20
-69.0121
 30
0.0
 10
123.6979
 20
-70.8456
 30
0.0
 10
121.7666
 20
-73.2288
 30
0.0
 10
119.8208
 20
-75.2447
 30
0.0
 10
119.8208
 20
-75.2447
 30
0.0
 10
118.2176
 20
-76.9016
 30
0.0
 10
116.6712
 20
-78.4076
 30
0.0
 10
114.9879
 20
-80.0716
 30
0.0
 10
114.9879
 20
-80.0716
 30
0.0
 10
114.9879
 20
-80.0716
 30
0.0
 10
119.179
 20
-78.9557
 30
0.0
 10
121.6989
 20
-78.2847
 30
0.0
 10
121.6989
 20
-78.2847
 30
0.0
 10
121.6989
 20
-78.2847
 30
0.0
 10
121.6988
 20
-78.2847
 30
0.0
 10
121.6988
 20
-78.2847
 30
0.0
  0
SPLINE
  5
5B
330
1F
100
AcDbEntity
  8
layer 1
 62
     7
100
AcDbSpline
210
0.0
220
0.0
230
1.0
 70
    11
 71
     3
 72
    40
 73
    36
 74
     0
 42
0.0000000001
 43
0.0000000001
 12
1.0
 22
0.0
 32
0.0
 13
1.0
 23
0.0
 33
0.0
 40
0.0
 40
0.0
 40
0.0
 40
0.0
 40
0.1
 40
0.1
 40
0.1
 40
0.1
 40
0.2
 40
0.2
 40
0.2
 40
0.2
 40
0.3
 40
0.3
 40
0.3
 40
0.3
 40
0.4
 40
0.4
 40
0.4
 40
0.4
 40
0.5
 40
0.5
 40
0.5
 40
0.5
 40
0.6
 40
0.6
 40
0.6
 40
0.6
 40
0.7
 40
0.7
 40
0.7
 40
0.7
 40
0.8
 40
0.8
 40
0.8
 40
0.8
 40
1.0
 40
1.0
 40
1.0
 40
1.0
 10
119.7563
 20
-87.834
 30
0.0
 10
121.5974
 20
-89.6808
 30
0.0
 10
123.6179
 20
-92.1264
 30
0.0
 10
125.4962
 20
-93.8689
 30
0.0
 10
125.4962
 20
-93.8689
 30
0.0
 10
127.1526
 20
-95.4055
 30
0.0
 10
128.7348
 20
-96.3322
 30
0.0
 10
129.4686
 20
-96.7151
 30
0.0
 10
129.4686
 20
-96.7151
 30
0.0
 10
132.4897
 20
-98.2915
 30
0.0
 10
135.437
 20
-97.4162
 30
0.0
 10
136.582
 20
-95.4608
 30
0.0
 10
136.582
 20
-95.4608
 30
0.0
 10
138.0815
 20
-93.0165
 30
0.0
 10
136.3938
 20
-89.8304
 30
0.0
 10
134.288
 20
-88.6907
 30
0.0
 10
134.288
 20
-88.6907
 30
0.0
 10
133.1777
 20
-88.0721
 30
0.0
 10
131.5891
 20
-87.2144
 30
0.0
 10
129.78
 20
-86.6505
 30
0.0
 10
129.78
 20
-86.6505
 30
0.0
 10
127.1984
 20
-85.8458
 30
0.0
 10
124.1689
 20
-85.3648
 30
0.0
 10
121.4501
 20
-84.6877
 30
0.0
 10
121.4501
 20
-84.6877
 30
0.0
 10
119.2136
 20
-84.1278
 30
0.0
 10
117.1361
 20
-83.5415
 30
0.0
 10
114.8534
 20
-82.9158
 30
0.0
 10
114.8534
 20
-82.9158
 30
0.0
 10
114.8534
 20
-82.9158
 30
0.0
 10
117.9153
 20
-85.9873
 30
0.0
 10
119.7564
 20
-87.8341
 30
0.0
 10
119.7564
 20
-87.8341
 30
0.0
 10
119.7564
 20
-87.8341
 30
0.0
 10
119.7563
 20
-87.834
 30
0.0
 10
119.7563
 20
-87.834
 30
0.0
  0
SPLINE
  5
5C
330
1F
100
AcDbEntity
  8
layer 1
 62
     7
100
AcDbSpline
210
0.0
220
0.0
230
1.0
 70
    11
 71
     3
 72
    40
 73
    36
 74
     0
 42
0.0000000001
 43
0.0000000001
 12
1.0
 22
0.0
 32
0.0
 13
1.0
 23
0.0
 33
0.0
 40
0.0
 40
0.0
 40
0.0
 40
0.0
 40
0.1
 40
0.1
 40
0.1
 40
0.1
 40
0.2
 40
0.2
 40
0.2
 40
0.2
 40
0.3
 40
0.3
 40
0.3
 40
0.3
 40
0.4
 40
0.4
 40
0.4
 40
0.4
 40
0.5
 40
0.5
 40
0.5
 40
0.5
 40
0.6
 40
0.6
 40
0.6
 40
0.6
 40
0.7
 40
0.7
 40
0.7
 40
0.7
 40
0.8
 40
0.8
 40
0.8
 40
0.8
 40
1.0
 40
1.0
 40
1.0
 40
1.0
 10
162.4238
 20
-71.9327
 30
0.0
 10
161.745
 20
-69.4149
 30
0.0
 10
160.6373
 20
-66.4423
 30
0.0
 10
160.0674
 20
-63.9444
 30
0.0
 10
160.0674
 20
-63.9444
 30
0.0
 10
159.5649
 20
-61.7416
 30
0.0
 10
159.5535
 20
-59.9081
 30
0.0
 10
159.5888
 20
-59.0812
 30
0.0
 10
159.5888
 20
-59.0812
 30
0.0
 10
159.7342
 20
-55.6766
 30
0.0
 10
161.9658
 20
-53.5618
 30
0.0
 10
164.2318
 20
-53.548
 30
0.0
 10
164.2318
 20
-53.548
 30
0.0
 10
167.0984
 20
-53.4716
 30
0.0
 10
169.0137
 20
-56.5262
 30
0.0
 10
168.9478
 20
-58.9198
 30
0.0
 10
168.9478
 20
-58.9198
 30
0.0
 10
168.9283
 20
-60.1906
 30
0.0
 10
168.8769
 20
-61.9952
 30
0.0
 10
168.4607
 20
-63.8439
 30
0.0
 10
168.4607
 20
-63.8439
 30
0.0
 10
167.8668
 20
-66.482
 30
0.0
 10
166.7685
 20
-69.3461
 30
0.0
 10
165.9955
 20
-72.0392
 30
0.0
 10
165.9955
 20
-72.0392
 30
0.0
 10
165.3622
 20
-74.2561
 30
0.0
 10
164.8312
 20
-76.3483
 30
0.0
 10
164.2318
 20
-78.6381
 30
0.0
 10
164.2318
 20
-78.6381
 30
0.0
 10
164.2318
 20
-78.6381
 30
0.0
 10
163.1027
 20
-74.4506
 30
0.0
 10
162.4238
 20
-71.9328
 30
0.0
 10
162.4238
 20
-71.9328
 30
0.0
 10
162.4238
 20
-71.9328
 30
0.0
 10
162.4238
 20
-71.9327
 30
0.0
 10
162.4238
 20
-71.9327
 30
0.0
  0
SPLINE
  5
5D
330
1F
100
AcDbEntity
  8
layer 1
 62
     7
100
AcDbSpline
210
0.0
220
0.0
230
1.0
 70
    11
 71
     3
 72
    40
 73
    36
 74
     0
 42
0.0000000001
 43
0.0000000001
 12
1.0
 22
0.0
 32
0.0
 13
1.0
 23
0.0
 33
0.0
 40
0.0
 40
0.0
 40
0.0
 40
0.0
 40
0.1
 40
0.1
 40
0.1
 40
0.1
 40
0.2
 40
0.2
 40
0.2
 40
0.2
 40
0.3
 40
0.3
 40
0.3
 40
0.3
 40
0.4
 40
0.4
 40
0.4
 40
0.4
 40
0.5
 40
0.5
 40
0.5
 40
0.5
 40
0.6
 40
0.6
 40
0.6
 40
0.6
 40
0.7
 40
0.7
 40
0.7
 40
0.7
 40
0.8
 40
0.8
 40
0.8
 40
0.8
 40
1.0
 40
1.0
 40
1.0
 40
1.0
 10
154.7457
 20
-78.2228
 30
0.0
 10
152.2258
 20
-77.5517
 30
0.0
 10
149.0976
 20
-77.0247
 30
0.0
 10
146.6494
 20
-76.2693
 30
0.0
 10
146.6494
 20
-76.2693
 30
0.0
 10
144.4905
 20
-75.6031
 30
0.0
 10
142.8969
 20
-74.6961
 30
0.0
 10
142.1984
 20
-74.2522
 30
0.0
 10
142.1984
 20
-74.2522
 30
0.0
 10
139.3226
 20
-72.4241
 30
0.0
 10
138.607
 20
-69.4339
 30
0.0
 10
139.728
 20
-67.4647
 30
0.0
 10
139.728
 20
-67.4647
 30
0.0
 10
141.0951
 20
-64.9439
 30
0.0
 10
144.6981
 20
-64.8125
 30
0.0
 10
146.738
 20
-66.0663
 30
0.0
 10
146.738
 20
-66.0663
 30
0.0
 10
147.8289
 20
-66.7185
 30
0.0
 10
149.366
 20
-67.6654
 30
0.0
 10
150.7589
 20
-68.9502
 30
0.0
 10
150.7589
 20
-68.9502
 30
0.0
 10
152.7466
 20
-70.7836
 30
0.0
 10
154.6779
 20
-73.1668
 30
0.0
 10
156.6237
 20
-75.1828
 30
0.0
 10
156.6237
 20
-75.1828
 30
0.0
 10
158.2269
 20
-76.8397
 30
0.0
 10
159.7733
 20
-78.3457
 30
0.0
 10
161.4566
 20
-80.0097
 30
0.0
 10
161.4566
 20
-80.0097
 30
0.0
 10
161.4566
 20
-80.0097
 30
0.0
 10
157.2655
 20
-78.8938
 30
0.0
 10
154.7456
 20
-78.2228
 30
0.0
 10
154.7456
 20
-78.2228
 30
0.0
 10
154.7456
 20
-78.2228
 30
0.0
 10
154.7457
 20
-78.2228
 30
0.0
 10
154.7457
 20
-78.2228
 30
0.0
  0
SPLINE
  5
5E
330
1F
100
AcDbEntity
  8
layer 1
 62
     7
100
AcDbSpline
210
0.0
220
0.0
230
1.0
 70
    11
 71
     3
 72
    40
 73
    36
 74
     0
 42
0.0000000001
 43
0.0000000001
 12
1.0
 22
0.0
 32
0.0
 13
1.0
 23
0.0
 33
0.0
 40
0.0
 40
0.0
 40
0.0
 40
0.0
 40
0.1
 40
0.1
 40
0.1
 40
0.1
 40
0.2
 40
0.2
 40
0.2
 40
0.2
 40
0.3
 40
0.3
 40
0.3
 40
0.3
 40
0.4
 40
0.4
 40
0.4
 40
0.4
 40
0.5
 40
0.5
 40
0.5
 40
0.5
 40
0.6
 40
0.6
 40
0.6
 40
0.6
 40
0.7
 40
0.7
 40
0.7
 40
0.7
 40
0.8
 40
0.8
 40
0.8
 40
0.8
 40
1.0
 40
1.0
 40
1.0
 40
1.0
 10
156.6263
 20
-87.896
 30
0.0
 10
154.7852
 20
-89.7428
 30
0.0
 10
152.7647
 20
-92.1883
 30
0.0
 10
150.8864
 20
-93.9309
 30
0.0
 10
150.8864
 20
-93.9309
 30
0.0
 10
149.23
 20
-95.4675
 30
0.0
 10
147.6477
 20
-96.3941
 30
0.0
 10
146.914
 20
-96.777
 30
0.0
 10
146.914
 20
-96.777
 30
0.0
 10
143.8928
 20
-98.3534
 30
0.0
 10
140.9456
 20
-97.4781
 30
0.0
 10
139.8006
 20
-95.5227
 30
0.0
 10
139.8006
 20
-95.5227
 30
0.0
 10
138.3011
 20
-93.0784
 30
0.0
 10
139.9888
 20
-89.8923
 30
0.0
 10
142.0946
 20
-88.7526
 30
0.0
 10
142.0946
 20
-88.7526
 30
0.0
 10
143.2049
 20
-88.134
 30
0.0
 10
144.7935
 20
-87.2763
 30
0.0
 10
146.6025
 20
-86.7124
 30
0.0
 10
146.6025
 20
-86.7124
 30
0.0
 10
149.1842
 20
-85.9077
 30
0.0
 10
152.2137
 20
-85.4267
 30
0.0
 10
154.9325
 20
-84.7496
 30
0.0
 10
154.9325
 20
-84.7496
 30
0.0
 10
157.169
 20
-84.1897
 30
0.0
 10
159.2464
 20
-83.6034
 30
0.0
 10
161.5292
 20
-82.9777
 30
0.0
 10
161.5292
 20
-82.9777
 30
0.0
 10
161.5292
 20
-82.9777
 30
0.0
 10
158.4672
 20
-86.0493
 30
0.0
 10
156.6262
 20
-87.8961
 30
0.0
 10
156.6262
 20
-87.8961
 30
0.0
 10
156.6262
 20
-87.8961
 30
0.0
 10
156.6263
 20
-87.896
 30
0.0
 10
156.6263
 20
-87.896
 30
0.0
  0
SPLINE
  5
5F
330
1F
100
AcDbEntity
  8
layer 1
 62
     7
100
AcDbSpline
210
0.0
220
0.0
230
1.0
 70
    11
 71
     3
 72
    40
 73
    36
 74
     0
 42
0.0000000001
 43
0.0000000001
 12
1.0
 22
0.0
 32
0.0
 13
1.0
 23
0.0
 33
0.0
 40
0.0
 40
0.0
 40
0.0
 40
0.0
 40
0.1
 40
0.1
 40
0.1
 40
0.1
 40
0.2
 40
0.2
 40
0.2
 40
0.2
 40
0.3
 40
0.3
 40
0.3
 40
0.3
 40
0.4
 40
0.4
 40
0.4
 40
0.4
 40
0.5
 40
0.5
 40
0.5
 40
0.5
 40
0.6
 40
0.6
 40
0.6
 40
0.6
 40
0.7
 40
0.7
 40
0.7
 40
0.7
 40
0.8
 40
0.8
 40
0.8
 40
0.8
 40
1.0
 40
1.0
 40
1.0
 40
1.0
 10
162.4238
 20
-91.1861
 30
0.0
 10
161.745
 20
-93.704
 30
0.0
 10
160.6373
 20
-96.6766
 30
0.0
 10
160.0674
 20
-99.1744
 30
0.0
 10
160.0674
 20
-99.1744
 30
0.0
 10
159.5649
 20
-101.3772
 30
0.0
 10
159.5535
 20
-103.2107
 30
0.0
 10
159.5888
 20
-104.0376
 30
0.0
 10
159.5888
 20
-104.0376
 30
0.0
 10
159.7342
 20
-107.4422
 30
0.0
 10
161.9658
 20
-109.557
 30
0.0
 10
164.2318
 20
-109.5708
 30
0.0
 10
164.2318
 20
-109.5708
 30
0.0
 10
167.0984
 20
-109.6472
 30
0.0
 10
169.0137
 20
-106.5927
 30
0.0
 10
168.9478
 20
-104.199
 30
0.0
 10
168.9478
 20
-104.199
 30
0.0
 10
168.9283
 20
-102.9282
 30
0.0
 10
168.8769
 20
-101.1237
 30
0.0
 10
168.4607
 20
-99.275
 30
0.0
 10
168.4607
 20
-99.275
 30
0.0
 10
167.8668
 20
-96.6368
 30
0.0
 10
166.7685
 20
-93.7727
 30
0.0
 10
165.9955
 20
-91.0796
 30
0.0
 10
165.9955
 20
-91.0796
 30
0.0
 10
165.3622
 20
-88.8627
 30
0.0
 10
164.8312
 20
-86.7705
 30
0.0
 10
164.2318
 20
-84.4807
 30
0.0
 10
164.2318
 20
-84.4807
 30
0.0
 10
164.2318
 20
-84.4807
 30
0.0
 10
163.1027
 20
-88.6682
 30
0.0
 10
162.4238
 20
-91.1861
 30
0.0
 10
162.4238
 20
-91.1861
 30
0.0
 10
162.4238
 20
-91.1861
 30
0.0
 10
162.4238
 20
-91.1861
 30
0.0
 10
162.4238
 20
-91.1861
 30
0.0
  0
SPLINE
  5
60
330
1F
100
AcDbEntity
  8
layer 1
 62
     7
100
AcDbSpline
210
0.0
220
0.0
230
1.0
 70
    11
 71
     3
 72
    40
 73
    36
 74
     0
 42
0.0000000001
 43
0.0000000001
 12
1.0
 22
0.0
 32
0.0
 13
1.0
 23
0.0
 33
0.0
 40
0.0
 40
0.0
 40
0.0
 40
0.0
 40
0.1
 40
0.1
 40
0.1
 40
0.1
 40
0.2
 40
0.2
 40
0.2
 40
0.2
 40
0.3
 40
0.3
 40
0.3
 40
0.3
 40
0.4
 40
0.4
 40
0.4
 40
0.4
 40
0.5
 40
0.5
 40
0.5
 40
0.5
 40
0.6
 40
0.6
 40
0.6
 40
0.6
 40
0.7
 40
0.7
 40
0.7
 40
0.7
 40
0.8
 40
0.8
 40
0.8
 40
0.8
 40
1.0
 40
1.0
 40
1.0
 40
1.0
 10
173.6283
 20
-78.2847
 30
0.0
 10
176.1482
 20
-77.6137
 30
0.0
 10
179.2764
 20
-77.0866
 30
0.0
 10
181.7246
 20
-76.3312
 30
0.0
 10
181.7246
 20
-76.3312
 30
0.0
 10
183.8835
 20
-75.665
 30
0.0
 10
185.4771
 20
-74.7581
 30
0.0
 10
186.1756
 20
-74.3141
 30
0.0
 10
186.1756
 20
-74.3141
 30
0.0
 10
189.0514
 20
-72.486
 30
0.0
 10
189.767
 20
-69.4959
 30
0.0
 10
188.646
 20
-67.5266
 30
0.0
 10
188.646
 20
-67.5266
 30
0.0
 10
187.2789
 20
-65.0058
 30
0.0
 10
183.6759
 20
-64.8744
 30
0.0
 10
181.636
 20
-66.1283
 30
0.0
 10
181.636
 20
-66.1283
 30
0.0
 10
180.5452
 20
-66.7805
 30
0.0
 10
179.008
 20
-67.7273
 30
0.0
 10
177.6151
 20
-69.0121
 30
0.0
 10
177.6151
 20
-69.0121
 30
0.0
 10
175.6274
 20
-70.8456
 30
0.0
 10
173.6961
 20
-73.2288
 30
0.0
 10
171.7503
 20
-75.2447
 30
0.0
 10
171.7503
 20
-75.2447
 30
0.0
 10
170.1471
 20
-76.9016
 30
0.0
 10
168.6007
 20
-78.4076
 30
0.0
 10
166.9174
 20
-80.0716
 30
0.0
 10
166.9174
 20
-80.0716
 30
0.0
 10
166.9174
 20
-80.0716
 30
0.0
 10
171.1085
 20
-78.9557
 30
0.0
 10
173.6284
 20
-78.2847
 30
0.0
 10
173.6284
 20
-78.2847
 30
0.0
 10
173.6284
 20
-78.2847
 30
0.0
 10
173.6283
 20
-78.2847
 30
0.0
 10
173.6283
 20
-78.2847
 30
0.0
  0
SPLINE
  5
61
330
1F
100
AcDbEntity
  8
layer 1
 62
     7
100
AcDbSpline
210
0.0
220
0.0
230
1.0
 70
    11
 71
     3
 72
    40
 73
    36
 74
     0
 42
0.0000000001
 43
0.0000000001
 12
1.0
 22
0.0
 32
0.0
 13
1.0
 23
0.0
 33
0.0
 40
0.0
 40
0.0
 40
0.0
 40
0.0
 40
0.1
 40
0.1
 40
0.1
 40
0.1
 40
0.2
 40
0.2
 40
0.2
 40
0.2
 40
0.3
 40
0.3
 40
0.3
 40
0.3
 40
0.4
 40
0.4
 40
0.4
 40
0.4
 40
0.5
 40
0.5
 40
0.5
 40
0.5
 40
0.6
 40
0.6
 40
0.6
 40
0.6
 40
0.7
 40
0.7
 40
0.7
 40
0.7
 40
0.8
 40
0.8
 40
0.8
 40
0.8
 40
1.0
 40
1.0
 40
1.0
 40
1.0
 10
171.6858
 20
-87.834
 30
0.0
 10
173.5269
 20
-89.6808
 30
0.0
 10
175.5474
 20
-92.1264
 30
0.0
 10
177.4257
 20
-93.8689
 30
0.0
 10
177.4257
 20
-93.8689
 30
0.0
 10
179.0821
 20
-95.4055
 30
0.0
 10
180.6643
 20
-96.3322
 30
0.0
 10
181.3981
 20
-96.7151
 30
0.0
 10
181.3981
 20
-96.7151
 30
0.0
 10
184.4192
 20
-98.2915
 30
0.0
 10
187.3665
 20
-97.4162
 30
0.0
 10
188.5115
 20
-95.4608
 30
0.0
 10
188.5115
 20
-95.4608
 30
0.0
 10
190.011
 20
-93.0165
 30
0.0
 10
188.3233
 20
-89.8304
 30
0.0
 10
186.2175
 20
-88.6907
 30
0.0
 10
186.2175
 20
-88.6907
 30
0.0
 10
185.1072
 20
-88.0721
 30
0.0
 10
183.5186
 20
-87.2144
 30
0.0
 10
181.7096
 20
-86.6505
 30
0.0
 10
181.7096
 20
-86.6505
 30
0.0
 10
179.1279
 20
-85.8458
 30
0.0
 10
176.0984
 20
-85.3648
 30
0.0
 10
173.3796
 20
-84.6877
 30
0.0
 10
173.3796
 20
-84.6877
 30
0.0
 10
171.1431
 20
-84.1278
 30
0.0
 10
169.0656
 20
-83.5415
 30
0.0
 10
166.7829
 20
-82.9158
 30
0.0
 10
166.7829
 20
-82.9158
 30
0.0
 10
166.7829
 20
-82.9158
 30
0.0
 10
169.8448
 20
-85.9873
 30
0.0
 10
171.6859
 20
-87.8341
 30
0.0
 10
171.6859
 20
-87.8341
 30
0.0
 10
171.6859
 20
-87.8341
 30
0.0
 10
171.6858
 20
-87.834
 30
0.0
 10
171.6858
 20
-87.834
 30
0.0
  0
SPLINE
  5
62
330
1F
100
AcDbEntity
  8
layer 1
 62
     7
100
AcDbSpline
210
0.0
220
0.0
230
1.0
 70
    11
 71
     3
 72
    40
 73
    36
 74
     0
 42
0.0000000001
 43
0.0000000001
 12
1.0
 22
0.0
 32
0.0
 13
1.0
 23
0.0
 33
0.0
 40
0.0
 40
0.0
 40
0.0
 40
0.0
 40
0.1
 40
0.1
 40
0.1
 40
0.1
 40
0.2
 40
0.2
 40
0.2
 40
0.2
 40
0.3
 40
0.3
 40
0.3
 40
0.3
 40
0.4
 40
0.4
 40
0.4
 40
0.4
 40
0.5
 40
0.5
 40
0.5
 40
0.5
 40
0.6
 40
0.6
 40
0.6
 40
0.6
 40
0.7
 40
0.7
 40
0.7
 40
0.7
 40
0.8
 40
0.8
 40
0.8
 40
0.8
 40
1.0
 40
1.0
 40
1.0
 40
1.0
 10
136.4793
 20
-26.8864
 30
0.0
 10
135.8004
 20
-24.3686
 30
0.0
 10
134.6928
 20
-21.396
 30
0.0
 10
134.1229
 20
-18.8981
 30
0.0
 10
134.1229
 20
-18.8981
 30
0.0
 10
133.6203
 20
-16.6953
 30
0.0
 10
133.6089
 20
-14.8618
 30
0.0
 10
133.6443
 20
-14.0349
 30
0.0
 10
133.6443
 20
-14.0349
 30
0.0
 10
133.7896
 20
-10.6303
 30
0.0
 10
136.0213
 20
-8.5155
 30
0.0
 10
138.2872
 20
-8.5017
 30
0.0
 10
138.2872
 20
-8.5017
 30
0.0
 10
141.1538
 20
-8.4253
 30
0.0
 10
143.0691
 20
-11.4799
 30
0.0
 10
143.0032
 20
-13.8735
 30
0.0
 10
143.0032
 20
-13.8735
 30
0.0
 10
142.9838
 20
-15.1443
 30
0.0
 10
142.9323
 20
-16.9489
 30
0.0
 10
142.5162
 20
-18.7976
 30
0.0
 10
142.5162
 20
-18.7976
 30
0.0
 10
141.9223
 20
-21.4357
 30
0.0
 10
140.8239
 20
-24.2998
 30
0.0
 10
140.051
 20
-26.9929
 30
0.0
 10
140.051
 20
-26.9929
 30
0.0
 10
139.4176
 20
-29.2098
 30
0.0
 10
138.8867
 20
-31.302
 30
0.0
 10
138.2872
 20
-33.5918
 30
0.0
 10
138.2872
 20
-33.5918
 30
0.0
 10
138.2872
 20
-33.5918
 30
0.0
 10
137.1582
 20
-29.4043
 30
0.0
 10
136.4793
 20
-26.8865
 30
0.0
 10
136.4793
 20
-26.8865
 30
0.0
 10
136.4793
 20
-26.8865
 30
0.0
 10
136.4793
 20
-26.8864
 30
0.0
 10
136.4793
 20
-26.8864
 30
0.0
  0
SPLINE
  5
63
330
1F
100
AcDbEntity
  8
layer 1
 62
     7
100
AcDbSpline
210
0.0
220
0.0
230
1.0
 70
    11
 71
     3
 72
    40
 73
    36
 74
     0
 42
0.0000000001
 43
0.0000000001
 12
1.0
 22
0.0
 32
0.0
 13
1.0
 23
0.0
 33
0.0
 40
0.0
 40
0.0
 40
0.0
 40
0.0
 40
0.1
 40
0.1
 40
0.1
 40
0.1
 40
0.2
 40
0.2
 40
0.2
 40
0.2
 40
0.3
 40
0.3
 40
0.3
 40
0.3
 40
0.4
 40
0.4
 40
0.4
 40
0.4
 40
0.5
 40
0.5
 40
0.5
 40
0.5
 40
0.6
 40
0.6
 40
0.6
 40
0.6
 40
0.7
 40
0.7
 40
0.7
 40
0.7
 40
0.8
 40
0.8
 40
0.8
 40
0.8
 40
1.0
 40
1.0
 40
1.0
 40
1.0
 10
128.8013
 20
-33.1765
 30
0.0
 10
126.2814
 20
-32.5054
 30
0.0
 10
123.1531
 20
-31.9784
 30
0.0
 10
120.705
 20
-31.223
 30
0.0
 10
120.705
 20
-31.223
 30
0.0
 10
118.546
 20
-30.5568
 30
0.0
 10
116.9524
 20
-29.6498
 30
0.0
 10
116.254
 20
-29.2059
 30
0.0
 10
116.254
 20
-29.2059
 30
0.0
 10
113.3782
 20
-27.3778
 30
0.0
 10
112.6626
 20
-24.3876
 30
0.0
 10
113.7835
 20
-22.4184
 30
0.0
 10
113.7835
 20
-22.4184
 30
0.0
 10
115.1506
 20
-19.8976
 30
0.0
 10
118.7537
 20
-19.7662
 30
0.0
 10
120.7935
 20
-21.02
 30
0.0
 10
120.7935
 20
-21.02
 30
0.0
 10
121.8844
 20
-21.6722
 30
0.0
 10
123.4215
 20
-22.6191
 30
0.0
 10
124.8144
 20
-23.9039
 30
0.0
 10
124.8144
 20
-23.9039
 30
0.0
 10
126.8022
 20
-25.7373
 30
0.0
 10
128.7334
 20
-28.1205
 30
0.0
 10
130.6792
 20
-30.1365
 30
0.0
 10
130.6792
 20
-30.1365
 30
0.0
 10
132.2824
 20
-31.7934
 30
0.0
 10
133.8288
 20
-33.2994
 30
0.0
 10
135.5121
 20
-34.9634
 30
0.0
 10
135.5121
 20
-34.9634
 30
0.0
 10
135.5121
 20
-34.9634
 30
0.0
 10
131.3211
 20
-33.8475
 30
0.0
 10
128.8012
 20
-33.1765
 30
0.0
 10
128.8012
 20
-33.1765
 30
0.0
 10
128.8012
 20
-33.1765
 30
0.0
 10
128.8013
 20
-33.1765
 30
0.0
 10
128.8013
 20
-33.1765
 30
0.0
  0
SPLINE
  5
64
330
1F
100
AcDbEntity
  8
layer 1
 62
     7
100
AcDbSpline
210
0.0
220
0.0
230
1.0
 70
    11
 71
     3
 72
    40
 73
    36
 74
     0
 42
0.0000000001
 43
0.0000000001
 12
1.0
 22
0.0
 32
0.0
 13
1.0
 23
0.0
 33
0.0
 40
0.0
 40
0.0
 40
0.0
 40
0.0
 40
0.1
 40
0.1
 40
0.1
 40
0.1
 40
0.2
 40
0.2
 40
0.2
 40
0.2
 40
0.3
 40
0.3
 40
0.3
 40
0.3
 40
0.4
 40
0.4
 40
0.4
 40
0.4
 40
0.5
 40
0.5
 40
0.5
 40
0.5
 40
0.6
 40
0.6
 40
0.6
 40
0.6
 40
0.7
 40
0.7
 40
0.7
 40
0.7
 40
0.8
 40
0.8
 40
0.8
 40
0.8
 40
1.0
 40
1.0
 40
1.0
 40
1.0
 10
130.6818
 20
-42.8496
 30
0.0
 10
128.8407
 20
-44.6964
 30
0.0
 10
126.8202
 20
-47.142
 30
0.0
 10
124.9419
 20
-48.8845
 30
0.0
 10
124.9419
 20
-48.8845
 30
0.0
 10
123.2855
 20
-50.4211
 30
0.0
 10
121.7033
 20
-51.3477
 30
0.0
 10
120.9695
 20
-51.7306
 30
0.0
 10
120.9695
 20
-51.7306
 30
0.0
 10
117.9484
 20
-53.307
 30
0.0
 10
115.0011
 20
-52.4317
 30
0.0
 10
113.8561
 20
-50.4763
 30
0.0
 10
113.8561
 20
-50.4763
 30
0.0
 10
112.3566
 20
-48.032
 30
0.0
 10
114.0443
 20
-44.8459
 30
0.0
 10
116.1501
 20
-43.7062
 30
0.0
 10
116.1501
 20
-43.7062
 30
0.0
 10
117.2604
 20
-43.0876
 30
0.0
 10
118.849
 20
-42.2299
 30
0.0
 10
120.6581
 20
-41.666
 30
0.0
 10
120.6581
 20
-41.666
 30
0.0
 10
123.2397
 20
-40.8613
 30
0.0
 10
126.2692
 20
-40.3803
 30
0.0
 10
128.988
 20
-39.7033
 30
0.0
 10
128.988
 20
-39.7033
 30
0.0
 10
131.2245
 20
-39.1433
 30
0.0
 10
133.302
 20
-38.5571
 30
0.0
 10
135.5847
 20
-37.9313
 30
0.0
 10
135.5847
 20
-37.9313
 30
0.0
 10
135.5847
 20
-37.9313
 30
0.0
 10
132.5228
 20
-41.0029
 30
0.0
 10
130.6817
 20
-42.8497
 30
0.0
 10
130.6817
 20
-42.8497
 30
0.0
 10
130.6817
 20
-42.8497
 30
0.0
 10
130.6818
 20
-42.8496
 30
0.0
 10
130.6818
 20
-42.8496
 30
0.0
  0
SPLINE
  5
65
330
1F
100
AcDbEntity
  8
layer 1
 62
     7
100
AcDbSpline
210
0.0
220
0.0
230
1.0
 70
    11
 71
     3
 72
    40
 73
    36
 74
     0
 42
0.0000000001
 43
0.0000000001
 12
1.0
 22
0.0
 32
0.0
 13
1.0
 23
0.0
 33
0.0
 40
0.0
 40
0.0
 40
0.0
 40
0.0
 40
0.1
 40
0.1
 40
0.1
 40
0.1
 40
0.2
 40
0.2
 40
0.2
 40
0.2
 40
0.3
 40
0.3
 40
0.3
 40
0.3
 40
0.4
 40
0.4
 40
0.4
 40
0.4
 40
0.5
 40
0.5
 40
0.5
 40
0.5
 40
0.6
 40
0.6
 40
0.6
 40
0.6
 40
0.7
 40
0.7
 40
0.7
 40
0.7
 40
0.8
 40
0.8
 40
0.8
 40
0.8
 40
1.0
 40
1.0
 40
1.0
 40
1.0
 10
136.4793
 20
-46.1398
 30
0.0
 10
135.8004
 20
-48.6576
 30
0.0
 10
134.6928
 20
-51.6302
 30
0.0
 10
134.1229
 20
-54.128
 30
0.0
 10
134.1229
 20
-54.128
 30
0.0
 10
133.6203
 20
-56.3308
 30
0.0
 10
133.6089
 20
-58.1643
 30
0.0
 10
133.6443
 20
-58.9912
 30
0.0
 10
133.6443
 20
-58.9912
 30
0.0
 10
133.7896
 20
-62.3958
 30
0.0
 10
136.0213
 20
-64.5106
 30
0.0
 10
138.2872
 20
-64.5244
 30
0.0
 10
138.2872
 20
-64.5244
 30
0.0
 10
141.1538
 20
-64.6008
 30
0.0
 10
143.0691
 20
-61.5463
 30
0.0
 10
143.0032
 20
-59.1527
 30
0.0
 10
143.0032
 20
-59.1527
 30
0.0
 10
142.9838
 20
-57.8818
 30
0.0
 10
142.9323
 20
-56.0773
 30
0.0
 10
142.5162
 20
-54.2286
 30
0.0
 10
142.5162
 20
-54.2286
 30
0.0
 10
141.9223
 20
-51.5904
 30
0.0
 10
140.8239
 20
-48.7264
 30
0.0
 10
140.051
 20
-46.0332
 30
0.0
 10
140.051
 20
-46.0332
 30
0.0
 10
139.4176
 20
-43.8163
 30
0.0
 10
138.8867
 20
-41.7241
 30
0.0
 10
138.2872
 20
-39.4344
 30
0.0
 10
138.2872
 20
-39.4344
 30
0.0
 10
138.2872
 20
-39.4344
 30
0.0
 10
137.1582
 20
-43.6218
 30
0.0
 10
136.4793
 20
-46.1397
 30
0.0
 10
136.4793
 20
-46.1397
 30
0.0
 10
136.4793
 20
-46.1397
 30
0.0
 10
136.4793
 20
-46.1398
 30
0.0
 10
136.4793
 20
-46.1398
 30
0.0
  0
SPLINE
  5
66
330
1F
100
AcDbEntity
  8
layer 1
 62
     7
100
AcDbSpline
210
0.0
220
0.0
230
1.0
 70
    11
 71
     3
 72
    40
 73
    36
 74
     0
 42
0.0000000001
 43
0.0000000001
 12
1.0
 22
0.0
 32
0.0
 13
1.0
 23
0.0
 33
0.0
 40
0.0
 40
0.0
 40
0.0
 40
0.0
 40
0.1
 40
0.1
 40
0.1
 40
0.1
 40
0.2
 40
0.2
 40
0.2
 40
0.2
 40
0.3
 40
0.3
 40
0.3
 40
0.3
 40
0.4
 40
0.4
 40
0.4
 40
0.4
 40
0.5
 40
0.5
 40
0.5
 40
0.5
 40
0.6
 40
0.6
 40
0.6
 40
0.6
 40
0.7
 40
0.7
 40
0.7
 40
0.7
 40
0.8
 40
0.8
 40
0.8
 40
0.8
 40
1.0
 40
1.0
 40
1.0
 40
1.0
 10
147.6838
 20
-33.2384
 30
0.0
 10
150.2037
 20
-32.5674
 30
0.0
 10
153.3319
 20
-32.0403
 30
0.0
 10
155.7801
 20
-31.2849
 30
0.0
 10
155.7801
 20
-31.2849
 30
0.0
 10
157.9391
 20
-30.6187
 30
0.0
 10
159.5327
 20
-29.7118
 30
0.0
 10
160.2311
 20
-29.2678
 30
0.0
 10
160.2311
 20
-29.2678
 30
0.0
 10
163.1069
 20
-27.4397
 30
0.0
 10
163.8225
 20
-24.4496
 30
0.0
 10
162.7016
 20
-22.4803
 30
0.0
 10
162.7016
 20
-22.4803
 30
0.0
 10
161.3345
 20
-19.9595
 30
0.0
 10
157.7314
 20
-19.8281
 30
0.0
 10
155.6915
 20
-21.082
 30
0.0
 10
155.6915
 20
-21.082
 30
0.0
 10
154.6007
 20
-21.7342
 30
0.0
 10
153.0636
 20
-22.681
 30
0.0
 10
151.6707
 20
-23.9658
 30
0.0
 10
151.6707
 20
-23.9658
 30
0.0
 10
149.6829
 20
-25.7993
 30
0.0
 10
147.7517
 20
-28.1825
 30
0.0
 10
145.8059
 20
-30.1984
 30
0.0
 10
145.8059
 20
-30.1984
 30
0.0
 10
144.2027
 20
-31.8553
 30
0.0
 10
142.6563
 20
-33.3613
 30
0.0
 10
140.973
 20
-35.0253
 30
0.0
 10
140.973
 20
-35.0253
 30
0.0
 10
140.973
 20
-35.0253
 30
0.0
 10
145.164
 20
-33.9094
 30
0.0
 10
147.6839
 20
-33.2384
 30
0.0
 10
147.6839
 20
-33.2384
 30
0.0
 10
147.6839
 20
-33.2384
 30
0.0
 10
147.6838
 20
-33.2384
 30
0.0
 10
147.6838
 20
-33.2384
 30
0.0
  0
SPLINE
  5
67
330
1F
100
AcDbEntity
  8
layer 1
 62
     7
100
AcDbSpline
210
0.0
220
0.0
230
1.0
 70
    11
 71
     3
 72
    40
 73
    36
 74
     0
 42
0.0000000001
 43
0.0000000001
 12
1.0
 22
0.0
 32
0.0
 13
1.0
 23
0.0
 33
0.0
 40
0.0
 40
0.0
 40
0.0
 40
0.0
 40
0.1
 40
0.1
 40
0.1
 40
0.1
 40
0.2
 40
0.2
 40
0.2
 40
0.2
 40
0.3
 40
0.3
 40
0.3
 40
0.3
 40
0.4
 40
0.4
 40
0.4
 40
0.4
 40
0.5
 40
0.5
 40
0.5
 40
0.5
 40
0.6
 40
0.6
 40
0.6
 40
0.6
 40
0.7
 40
0.7
 40
0.7
 40
0.7
 40
0.8
 40
0.8
 40
0.8
 40
0.8
 40
1.0
 40
1.0
 40
1.0
 40
1.0
 10
145.7413
 20
-42.7877
 30
0.0
 10
147.5823
 20
-44.6345
 30
0.0
 10
149.6029
 20
-47.08
 30
0.0
 10
151.4812
 20
-48.8226
 30
0.0
 10
151.4812
 20
-48.8226
 30
0.0
 10
153.1376
 20
-50.3592
 30
0.0
 10
154.7198
 20
-51.2858
 30
0.0
 10
155.4535
 20
-51.6687
 30
0.0
 10
155.4535
 20
-51.6687
 30
0.0
 10
158.4747
 20
-53.2451
 30
0.0
 10
161.422
 20
-52.3698
 30
0.0
 10
162.5669
 20
-50.4144
 30
0.0
 10
162.5669
 20
-50.4144
 30
0.0
 10
164.0664
 20
-47.9701
 30
0.0
 10
162.3787
 20
-44.784
 30
0.0
 10
160.2729
 20
-43.6443
 30
0.0
 10
160.2729
 20
-43.6443
 30
0.0
 10
159.1626
 20
-43.0257
 30
0.0
 10
157.5741
 20
-42.168
 30
0.0
 10
155.765
 20
-41.6041
 30
0.0
 10
155.765
 20
-41.6041
 30
0.0
 10
153.1834
 20
-40.7994
 30
0.0
 10
150.1538
 20
-40.3184
 30
0.0
 10
147.4351
 20
-39.6413
 30
0.0
 10
147.4351
 20
-39.6413
 30
0.0
 10
145.1985
 20
-39.0814
 30
0.0
 10
143.1211
 20
-38.4951
 30
0.0
 10
140.8383
 20
-37.8694
 30
0.0
 10
140.8383
 20
-37.8694
 30
0.0
 10
140.8383
 20
-37.8694
 30
0.0
 10
143.9003
 20
-40.941
 30
0.0
 10
145.7414
 20
-42.7877
 30
0.0
 10
145.7414
 20
-42.7877
 30
0.0
 10
145.7414
 20
-42.7877
 30
0.0
 10
145.7413
 20
-42.7877
 30
0.0
 10
145.7413
 20
-42.7877
 30
0.0
  0
SPLINE
  5
68
330
1F
100
AcDbEntity
  8
layer 1
 62
     7
100
AcDbSpline
210
0.0
220
0.0
230
1.0
 70
    11
 71
     3
 72
    40
 73
    36
 74
     0
 42
0.0000000001
 43
0.0000000001
 12
1.0
 22
0.0
 32
0.0
 13
1.0
 23
0.0
 33
0.0
 40
0.0
 40
0.0
 40
0.0
 40
0.0
 40
0.1
 40
0.1
 40
0.1
 40
0.1
 40
0.2
 40
0.2
 40
0.2
 40
0.2
 40
0.3
 40
0.3
 40
0.3
 40
0.3
 40
0.4
 40
0.4
 40
0.4
 40
0.4
 40
0.5
 40
0.5
 40
0.5
 40
0.5
 40
0.6
 40
0.6
 40
0.6
 40
0.6
 40
0.7
 40
0.7
 40
0.7
 40
0.7
 40
0.8
 40
0.8
 40
0.8
 40
0.8
 40
1.0
 40
1.0
 40
1.0
 40
1.0
 10
110.4391
 20
108.1582
 30
0.0
 10
109.7603
 20
110.676
 30
0.0
 10
108.6526
 20
113.6486
 30
0.0
 10
108.0828
 20
116.1464
 30
0.0
 10
108.0828
 20
116.1464
 30
0.0
 10
107.5802
 20
118.3492
 30
0.0
 10
107.5688
 20
120.1827
 30
0.0
 10
107.6041
 20
121.0096
 30
0.0
 10
107.6041
 20
121.0096
 30
0.0
 10
107.7495
 20
124.4142
 30
0.0
 10
109.9812
 20
126.529
 30
0.0
 10
112.2471
 20
126.5428
 30
0.0
 10
112.2471
 20
126.5428
 30
0.0
 10
115.1137
 20
126.6192
 30
0.0
 10
117.029
 20
123.5647
 30
0.0
 10
116.9631
 20
121.1711
 30
0.0
 10
116.9631
 20
121.1711
 30
0.0
 10
116.9436
 20
119.9002
 30
0.0
 10
116.8922
 20
118.0957
 30
0.0
 10
116.476
 20
116.247
 30
0.0
 10
116.476
 20
116.247
 30
0.0
 10
115.8821
 20
113.6088
 30
0.0
 10
114.7838
 20
110.7448
 30
0.0
 10
114.0109
 20
108.0516
 30
0.0
 10
114.0109
 20
108.0516
 30
0.0
 10
113.3775
 20
105.8347
 30
0.0
 10
112.8465
 20
103.7425
 30
0.0
 10
112.2471
 20
101.4528
 30
0.0
 10
112.2471
 20
101.4528
 30
0.0
 10
112.2471
 20
101.4528
 30
0.0
 10
111.1181
 20
105.6402
 30
0.0
 10
110.4391
 20
108.1581
 30
0.0
 10
110.4391
 20
108.1581
 30
0.0
 10
110.4391
 20
108.1581
 30
0.0
 10
110.4391
 20
108.1582
 30
0.0
 10
110.4391
 20
108.1582
 30
0.0
  0
SPLINE
  5
69
330
1F
100
AcDbEntity
  8
layer 1
 62
     7
100
AcDbSpline
210
0.0
220
0.0
230
1.0
 70
    11
 71
     3
 72
    40
 73
    36
 74
     0
 42
0.0000000001
 43
0.0000000001
 12
1.0
 22
0.0
 32
0.0
 13
1.0
 23
0.0
 33
0.0
 40
0.0
 40
0.0
 40
0.0
 40
0.0
 40
0.1
 40
0.1
 40
0.1
 40
0.1
 40
0.2
 40
0.2
 40
0.2
 40
0.2
 40
0.3
 40
0.3
 40
0.3
 40
0.3
 40
0.4
 40
0.4
 40
0.4
 40
0.4
 40
0.5
 40
0.5
 40
0.5
 40
0.5
 40
0.6
 40
0.6
 40
0.6
 40
0.6
 40
0.7
 40
0.7
 40
0.7
 40
0.7
 40
0.8
 40
0.8
 40
0.8
 40
0.8
 40
1.0
 40
1.0
 40
1.0
 40
1.0
 10
102.7611
 20
101.8681
 30
0.0
 10
100.2412
 20
102.5391
 30
0.0
 10
97.113
 20
103.0661
 30
0.0
 10
94.6648
 20
103.8216
 30
0.0
 10
94.6648
 20
103.8216
 30
0.0
 10
92.5059
 20
104.4877
 30
0.0
 10
90.9123
 20
105.3947
 30
0.0
 10
90.2138
 20
105.8386
 30
0.0
 10
90.2138
 20
105.8386
 30
0.0
 10
87.338
 20
107.6668
 30
0.0
 10
86.6224
 20
110.6569
 30
0.0
 10
87.7434
 20
112.6262
 30
0.0
 10
87.7434
 20
112.6262
 30
0.0
 10
89.1105
 20
115.1469
 30
0.0
 10
92.7135
 20
115.2783
 30
0.0
 10
94.7534
 20
114.0245
 30
0.0
 10
94.7534
 20
114.0245
 30
0.0
 10
95.8443
 20
113.3723
 30
0.0
 10
97.3814
 20
112.4254
 30
0.0
 10
98.7743
 20
111.1406
 30
0.0
 10
98.7743
 20
111.1406
 30
0.0
 10
100.762
 20
109.3072
 30
0.0
 10
102.6933
 20
106.924
 30
0.0
 10
104.6391
 20
104.9081
 30
0.0
 10
104.6391
 20
104.9081
 30
0.0
 10
106.2423
 20
103.2512
 30
0.0
 10
107.7887
 20
101.7452
 30
0.0
 10
109.472
 20
100.0811
 30
0.0
 10
109.472
 20
100.0811
 30
0.0
 10
109.472
 20
100.0811
 30
0.0
 10
105.2809
 20
101.197
 30
0.0
 10
102.761
 20
101.8681
 30
0.0
 10
102.761
 20
101.8681
 30
0.0
 10
102.761
 20
101.8681
 30
0.0
 10
102.7611
 20
101.8681
 30
0.0
 10
102.7611
 20
101.8681
 30
0.0
  0
SPLINE
  5
6A
330
1F
100
AcDbEntity
  8
layer 1
 62
     7
100
AcDbSpline
210
0.0
220
0.0
230
1.0
 70
    11
 71
     3
 72
    40
 73
    36
 74
     0
 42
0.0000000001
 43
0.0000000001
 12
1.0
 22
0.0
 32
0.0
 13
1.0
 23
0.0
 33
0.0
 40
0.0
 40
0.0
 40
0.0
 40
0.0
 40
0.1
 40
0.1
 40
0.1
 40
0.1
 40
0.2
 40
0.2
 40
0.2
 40
0.2
 40
0.3
 40
0.3
 40
0.3
 40
0.3
 40
0.4
 40
0.4
 40
0.4
 40
0.4
 40
0.5
 40
0.5
 40
0.5
 40
0.5
 40
0.6
 40
0.6
 40
0.6
 40
0.6
 40
0.7
 40
0.7
 40
0.7
 40
0.7
 40
0.8
 40
0.8
 40
0.8
 40
0.8
 40
1.0
 40
1.0
 40
1.0
 40
1.0
 10
104.6417
 20
92.1949
 30
0.0
 10
102.8006
 20
90.3481
 30
0.0
 10
100.7801
 20
87.9026
 30
0.0
 10
98.9018
 20
86.16
 30
0.0
 10
98.9018
 20
86.16
 30
0.0
 10
97.2454
 20
84.6234
 30
0.0
 10
95.6631
 20
83.6968
 30
0.0
 10
94.9294
 20
83.3139
 30
0.0
 10
94.9294
 20
83.3139
 30
0.0
 10
91.9082
 20
81.7375
 30
0.0
 10
88.961
 20
82.6128
 30
0.0
 10
87.816
 20
84.5682
 30
0.0
 10
87.816
 20
84.5682
 30
0.0
 10
86.3165
 20
87.0125
 30
0.0
 10
88.0042
 20
90.1986
 30
0.0
 10
90.11
 20
91.3383
 30
0.0
 10
90.11
 20
91.3383
 30
0.0
 10
91.2203
 20
91.9569
 30
0.0
 10
92.8089
 20
92.8146
 30
0.0
 10
94.6179
 20
93.3785
 30
0.0
 10
94.6179
 20
93.3785
 30
0.0
 10
97.1996
 20
94.1832
 30
0.0
 10
100.2291
 20
94.6642
 30
0.0
 10
102.9479
 20
95.3413
 30
0.0
 10
102.9479
 20
95.3413
 30
0.0
 10
105.1844
 20
95.9012
 30
0.0
 10
107.2618
 20
96.4875
 30
0.0
 10
109.5446
 20
97.1132
 30
0.0
 10
109.5446
 20
97.1132
 30
0.0
 10
109.5446
 20
97.1132
 30
0.0
 10
106.4826
 20
94.0416
 30
0.0
 10
104.6416
 20
92.1948
 30
0.0
 10
104.6416
 20
92.1948
 30
0.0
 10
104.6416
 20
92.1948
 30
0.0
 10
104.6417
 20
92.1949
 30
0.0
 10
104.6417
 20
92.1949
 30
0.0
  0
SPLINE
  5
6B
330
1F
100
AcDbEntity
  8
layer 1
 62
     7
100
AcDbSpline
210
0.0
220
0.0
230
1.0
 70
    11
 71
     3
 72
    40
 73
    36
 74
     0
 42
0.0000000001
 43
0.0000000001
 12
1.0
 22
0.0
 32
0.0
 13
1.0
 23
0.0
 33
0.0
 40
0.0
 40
0.0
 40
0.0
 40
0.0
 40
0.1
 40
0.1
 40
0.1
 40
0.1
 40
0.2
 40
0.2
 40
0.2
 40
0.2
 40
0.3
 40
0.3
 40
0.3
 40
0.3
 40
0.4
 40
0.4
 40
0.4
 40
0.4
 40
0.5
 40
0.5
 40
0.5
 40
0.5
 40
0.6
 40
0.6
 40
0.6
 40
0.6
 40
0.7
 40
0.7
 40
0.7
 40
0.7
 40
0.8
 40
0.8
 40
0.8
 40
0.8
 40
1.0
 40
1.0
 40
1.0
 40
1.0
 10
110.4391
 20
88.9048
 30
0.0
 10
109.7603
 20
86.387
 30
0.0
 10
108.6526
 20
83.4144
 30
0.0
 10
108.0828
 20
80.9165
 30
0.0
 10
108.0828
 20
80.9165
 30
0.0
 10
107.5802
 20
78.7137
 30
0.0
 10
107.5688
 20
76.8802
 30
0.0
 10
107.6041
 20
76.0533
 30
0.0
 10
107.6041
 20
76.0533
 30
0.0
 10
107.7495
 20
72.6487
 30
0.0
 10
109.9812
 20
70.5339
 30
0.0
 10
112.2471
 20
70.5201
 30
0.0
 10
112.2471
 20
70.5201
 30
0.0
 10
115.1137
 20
70.4437
 30
0.0
 10
117.029
 20
73.4983
 30
0.0
 10
116.9631
 20
75.8919
 30
0.0
 10
116.9631
 20
75.8919
 30
0.0
 10
116.9436
 20
77.1627
 30
0.0
 10
116.8922
 20
78.9673
 30
0.0
 10
116.476
 20
80.816
 30
0.0
 10
116.476
 20
80.816
 30
0.0
 10
115.8821
 20
83.4541
 30
0.0
 10
114.7838
 20
86.3182
 30
0.0
 10
114.0109
 20
89.0113
 30
0.0
 10
114.0109
 20
89.0113
 30
0.0
 10
113.3775
 20
91.2282
 30
0.0
 10
112.8465
 20
93.3204
 30
0.0
 10
112.2471
 20
95.6102
 30
0.0
 10
112.2471
 20
95.6102
 30
0.0
 10
112.2471
 20
95.6102
 30
0.0
 10
111.1181
 20
91.4227
 30
0.0
 10
110.4391
 20
88.9049
 30
0.0
 10
110.4391
 20
88.9049
 30
0.0
 10
110.4391
 20
88.9049
 30
0.0
 10
110.4391
 20
88.9048
 30
0.0
 10
110.4391
 20
88.9048
 30
0.0
  0
SPLINE
  5
6C
330
1F
100
AcDbEntity
  8
layer 1
 62
     7
100
AcDbSpline
210
0.0
220
0.0
230
1.0
 70
    11
 71
     3
 72
    40
 73
    36
 74
     0
 42
0.0000000001
 43
0.0000000001
 12
1.0
 22
0.0
 32
0.0
 13
1.0
 23
0.0
 33
0.0
 40
0.0
 40
0.0
 40
0.0
 40
0.0
 40
0.1
 40
0.1
 40
0.1
 40
0.1
 40
0.2
 40
0.2
 40
0.2
 40
0.2
 40
0.3
 40
0.3
 40
0.3
 40
0.3
 40
0.4
 40
0.4
 40
0.4
 40
0.4
 40
0.5
 40
0.5
 40
0.5
 40
0.5
 40
0.6
 40
0.6
 40
0.6
 40
0.6
 40
0.7
 40
0.7
 40
0.7
 40
0.7
 40
0.8
 40
0.8
 40
0.8
 40
0.8
 40
1.0
 40
1.0
 40
1.0
 40
1.0
 10
121.6437
 20
101.8061
 30
0.0
 10
124.1636
 20
102.4772
 30
0.0
 10
127.2918
 20
103.0042
 30
0.0
 10
129.74
 20
103.7596
 30
0.0
 10
129.74
 20
103.7596
 30
0.0
 10
131.8989
 20
104.4258
 30
0.0
 10
133.4925
 20
105.3328
 30
0.0
 10
134.191
 20
105.7767
 30
0.0
 10
134.191
 20
105.7767
 30
0.0
 10
137.0668
 20
107.6048
 30
0.0
 10
137.7824
 20
110.595
 30
0.0
 10
136.6614
 20
112.5642
 30
0.0
 10
136.6614
 20
112.5642
 30
0.0
 10
135.2943
 20
115.085
 30
0.0
 10
131.6913
 20
115.2164
 30
0.0
 10
129.6514
 20
113.9626
 30
0.0
 10
129.6514
 20
113.9626
 30
0.0
 10
128.5606
 20
113.3104
 30
0.0
 10
127.0234
 20
112.3635
 30
0.0
 10
125.6305
 20
111.0787
 30
0.0
 10
125.6305
 20
111.0787
 30
0.0
 10
123.6428
 20
109.2453
 30
0.0
 10
121.7115
 20
106.8621
 30
0.0
 10
119.7658
 20
104.8461
 30
0.0
 10
119.7658
 20
104.8461
 30
0.0
 10
118.1625
 20
103.1892
 30
0.0
 10
116.6161
 20
101.6832
 30
0.0
 10
114.9328
 20
100.0192
 30
0.0
 10
114.9328
 20
100.0192
 30
0.0
 10
114.9328
 20
100.0192
 30
0.0
 10
119.1239
 20
101.1351
 30
0.0
 10
121.6438
 20
101.8061
 30
0.0
 10
121.6438
 20
101.8061
 30
0.0
 10
121.6438
 20
101.8061
 30
0.0
 10
121.6437
 20
101.8061
 30
0.0
 10
121.6437
 20
101.8061
 30
0.0
  0
SPLINE
  5
6D
330
1F
100
AcDbEntity
  8
layer 1
 62
     7
100
AcDbSpline
210
0.0
220
0.0
230
1.0
 70
    11
 71
     3
 72
    40
 73
    36
 74
     0
 42
0.0000000001
 43
0.0000000001
 12
1.0
 22
0.0
 32
0.0
 13
1.0
 23
0.0
 33
0.0
 40
0.0
 40
0.0
 40
0.0
 40
0.0
 40
0.1
 40
0.1
 40
0.1
 40
0.1
 40
0.2
 40
0.2
 40
0.2
 40
0.2
 40
0.3
 40
0.3
 40
0.3
 40
0.3
 40
0.4
 40
0.4
 40
0.4
 40
0.4
 40
0.5
 40
0.5
 40
0.5
 40
0.5
 40
0.6
 40
0.6
 40
0.6
 40
0.6
 40
0.7
 40
0.7
 40
0.7
 40
0.7
 40
0.8
 40
0.8
 40
0.8
 40
0.8
 40
1.0
 40
1.0
 40
1.0
 40
1.0
 10
119.7011
 20
92.2569
 30
0.0
 10
121.5422
 20
90.4101
 30
0.0
 10
123.5627
 20
87.9645
 30
0.0
 10
125.441
 20
86.222
 30
0.0
 10
125.441
 20
86.222
 30
0.0
 10
127.0974
 20
84.6854
 30
0.0
 10
128.6797
 20
83.7587
 30
0.0
 10
129.4134
 20
83.3758
 30
0.0
 10
129.4134
 20
83.3758
 30
0.0
 10
132.4346
 20
81.7994
 30
0.0
 10
135.3818
 20
82.6747
 30
0.0
 10
136.5268
 20
84.6301
 30
0.0
 10
136.5268
 20
84.6301
 30
0.0
 10
138.0263
 20
87.0745
 30
0.0
 10
136.3386
 20
90.2605
 30
0.0
 10
134.2328
 20
91.4002
 30
0.0
 10
134.2328
 20
91.4002
 30
0.0
 10
133.1225
 20
92.0189
 30
0.0
 10
131.5339
 20
92.8765
 30
0.0
 10
129.7249
 20
93.4404
 30
0.0
 10
129.7249
 20
93.4404
 30
0.0
 10
127.1432
 20
94.2451
 30
0.0
 10
124.1137
 20
94.7261
 30
0.0
 10
121.3949
 20
95.4032
 30
0.0
 10
121.3949
 20
95.4032
 30
0.0
 10
119.1584
 20
95.9631
 30
0.0
 10
117.081
 20
96.5494
 30
0.0
 10
114.7982
 20
97.1751
 30
0.0
 10
114.7982
 20
97.1751
 30
0.0
 10
114.7982
 20
97.1751
 30
0.0
 10
117.8602
 20
94.1036
 30
0.0
 10
119.7012
 20
92.2568
 30
0.0
 10
119.7012
 20
92.2568
 30
0.0
 10
119.7012
 20
92.2568
 30
0.0
 10
119.7011
 20
92.2569
 30
0.0
 10
119.7011
 20
92.2569
 30
0.0
  0
SPLINE
  5
6E
330
1F
100
AcDbEntity
  8
layer 1
 62
     7
100
AcDbSpline
210
0.0
220
0.0
230
1.0
 70
    11
 71
     3
 72
    40
 73
    36
 74
     0
 42
0.0000000001
 43
0.0000000001
 12
1.0
 22
0.0
 32
0.0
 13
1.0
 23
0.0
 33
0.0
 40
0.0
 40
0.0
 40
0.0
 40
0.0
 40
0.1
 40
0.1
 40
0.1
 40
0.1
 40
0.2
 40
0.2
 40
0.2
 40
0.2
 40
0.3
 40
0.3
 40
0.3
 40
0.3
 40
0.4
 40
0.4
 40
0.4
 40
0.4
 40
0.5
 40
0.5
 40
0.5
 40
0.5
 40
0.6
 40
0.6
 40
0.6
 40
0.6
 40
0.7
 40
0.7
 40
0.7
 40
0.7
 40
0.8
 40
0.8
 40
0.8
 40
0.8
 40
1.0
 40
1.0
 40
1.0
 40
1.0
 10
162.518
 20
108.1582
 30
0.0
 10
161.8392
 20
110.676
 30
0.0
 10
160.7315
 20
113.6486
 30
0.0
 10
160.1616
 20
116.1464
 30
0.0
 10
160.1616
 20
116.1464
 30
0.0
 10
159.6591
 20
118.3492
 30
0.0
 10
159.6477
 20
120.1827
 30
0.0
 10
159.683
 20
121.0096
 30
0.0
 10
159.683
 20
121.0096
 30
0.0
 10
159.8284
 20
124.4142
 30
0.0
 10
162.06
 20
126.529
 30
0.0
 10
164.326
 20
126.5428
 30
0.0
 10
164.326
 20
126.5428
 30
0.0
 10
167.1926
 20
126.6192
 30
0.0
 10
169.1079
 20
123.5647
 30
0.0
 10
169.042
 20
121.1711
 30
0.0
 10
169.042
 20
121.1711
 30
0.0
 10
169.0225
 20
119.9002
 30
0.0
 10
168.9711
 20
118.0957
 30
0.0
 10
168.5549
 20
116.247
 30
0.0
 10
168.5549
 20
116.247
 30
0.0
 10
167.961
 20
113.6088
 30
0.0
 10
166.8627
 20
110.7448
 30
0.0
 10
166.0897
 20
108.0516
 30
0.0
 10
166.0897
 20
108.0516
 30
0.0
 10
165.4564
 20
105.8347
 30
0.0
 10
164.9254
 20
103.7425
 30
0.0
 10
164.326
 20
101.4528
 30
0.0
 10
164.326
 20
101.4528
 30
0.0
 10
164.326
 20
101.4528
 30
0.0
 10
163.1969
 20
105.6402
 30
0.0
 10
162.518
 20
108.1581
 30
0.0
 10
162.518
 20
108.1581
 30
0.0
 10
162.518
 20
108.1581
 30
0.0
 10
162.518
 20
108.1582
 30
0.0
 10
162.518
 20
108.1582
 30
0.0
  0
SPLINE
  5
6F
330
1F
100
AcDbEntity
  8
layer 1
 62
     7
100
AcDbSpline
210
0.0
220
0.0
230
1.0
 70
    11
 71
     3
 72
    40
 73
    36
 74
     0
 42
0.0000000001
 43
0.0000000001
 12
1.0
 22
0.0
 32
0.0
 13
1.0
 23
0.0
 33
0.0
 40
0.0
 40
0.0
 40
0.0
 40
0.0
 40
0.1
 40
0.1
 40
0.1
 40
0.1
 40
0.2
 40
0.2
 40
0.2
 40
0.2
 40
0.3
 40
0.3
 40
0.3
 40
0.3
 40
0.4
 40
0.4
 40
0.4
 40
0.4
 40
0.5
 40
0.5
 40
0.5
 40
0.5
 40
0.6
 40
0.6
 40
0.6
 40
0.6
 40
0.7
 40
0.7
 40
0.7
 40
0.7
 40
0.8
 40
0.8
 40
0.8
 40
0.8
 40
1.0
 40
1.0
 40
1.0
 40
1.0
 10
154.84
 20
101.8681
 30
0.0
 10
152.3201
 20
102.5391
 30
0.0
 10
149.1919
 20
103.0661
 30
0.0
 10
146.7437
 20
103.8216
 30
0.0
 10
146.7437
 20
103.8216
 30
0.0
 10
144.5848
 20
104.4877
 30
0.0
 10
142.9912
 20
105.3947
 30
0.0
 10
142.2927
 20
105.8386
 30
0.0
 10
142.2927
 20
105.8386
 30
0.0
 10
139.4169
 20
107.6668
 30
0.0
 10
138.7013
 20
110.6569
 30
0.0
 10
139.8223
 20
112.6262
 30
0.0
 10
139.8223
 20
112.6262
 30
0.0
 10
141.1894
 20
115.1469
 30
0.0
 10
144.7924
 20
115.2783
 30
0.0
 10
146.8323
 20
114.0245
 30
0.0
 10
146.8323
 20
114.0245
 30
0.0
 10
147.9231
 20
113.3723
 30
0.0
 10
149.4603
 20
112.4254
 30
0.0
 10
150.8532
 20
111.1406
 30
0.0
 10
150.8532
 20
111.1406
 30
0.0
 10
152.8409
 20
109.3072
 30
0.0
 10
154.7722
 20
106.924
 30
0.0
 10
156.7179
 20
104.9081
 30
0.0
 10
156.7179
 20
104.9081
 30
0.0
 10
158.3212
 20
103.2512
 30
0.0
 10
159.8676
 20
101.7452
 30
0.0
 10
161.5509
 20
100.0811
 30
0.0
 10
161.5509
 20
100.0811
 30
0.0
 10
161.5509
 20
100.0811
 30
0.0
 10
157.3598
 20
101.197
 30
0.0
 10
154.8399
 20
101.8681
 30
0.0
 10
154.8399
 20
101.8681
 30
0.0
 10
154.8399
 20
101.8681
 30
0.0
 10
154.84
 20
101.8681
 30
0.0
 10
154.84
 20
101.8681
 30
0.0
  0
SPLINE
  5
70
330
1F
100
AcDbEntity
  8
layer 1
 62
     7
100
AcDbSpline
210
0.0
220
0.0
230
1.0
 70
    11
 71
     3
 72
    40
 73
    36
 74
     0
 42
0.0000000001
 43
0.0000000001
 12
1.0
 22
0.0
 32
0.0
 13
1.0
 23
0.0
 33
0.0
 40
0.0
 40
0.0
 40
0.0
 40
0.0
 40
0.1
 40
0.1
 40
0.1
 40
0.1
 40
0.2
 40
0.2
 40
0.2
 40
0.2
 40
0.3
 40
0.3
 40
0.3
 40
0.3
 40
0.4
 40
0.4
 40
0.4
 40
0.4
 40
0.5
 40
0.5
 40
0.5
 40
0.5
 40
0.6
 40
0.6
 40
0.6
 40
0.6
 40
0.7
 40
0.7
 40
0.7
 40
0.7
 40
0.8
 40
0.8
 40
0.8
 40
0.8
 40
1.0
 40
1.0
 40
1.0
 40
1.0
 10
156.7205
 20
92.1949
 30
0.0
 10
154.8795
 20
90.3481
 30
0.0
 10
152.8589
 20
87.9026
 30
0.0
 10
150.9807
 20
86.16
 30
0.0
 10
150.9807
 20
86.16
 30
0.0
 10
149.3243
 20
84.6234
 30
0.0
 10
147.742
 20
83.6968
 30
0.0
 10
147.0083
 20
83.3139
 30
0.0
 10
147.0083
 20
83.3139
 30
0.0
 10
143.9871
 20
81.7375
 30
0.0
 10
141.0398
 20
82.6128
 30
0.0
 10
139.8949
 20
84.5682
 30
0.0
 10
139.8949
 20
84.5682
 30
0.0
 10
138.3954
 20
87.0125
 30
0.0
 10
140.0831
 20
90.1986
 30
0.0
 10
142.1889
 20
91.3383
 30
0.0
 10
142.1889
 20
91.3383
 30
0.0
 10
143.2992
 20
91.9569
 30
0.0
 10
144.8877
 20
92.8146
 30
0.0
 10
146.6968
 20
93.3785
 30
0.0
 10
146.6968
 20
93.3785
 30
0.0
 10
149.2785
 20
94.1832
 30
0.0
 10
152.308
 20
94.6642
 30
0.0
 10
155.0268
 20
95.3413
 30
0.0
 10
155.0268
 20
95.3413
 30
0.0
 10
157.2633
 20
95.9012
 30
0.0
 10
159.3407
 20
96.4875
 30
0.0
 10
161.6235
 20
97.1132
 30
0.0
 10
161.6235
 20
97.1132
 30
0.0
 10
161.6235
 20
97.1132
 30
0.0
 10
158.5615
 20
94.0416
 30
0.0
 10
156.7205
 20
92.1948
 30
0.0
 10
156.7205
 20
92.1948
 30
0.0
 10
156.7205
 20
92.1948
 30
0.0
 10
156.7205
 20
92.1949
 30
0.0
 10
156.7205
 20
92.1949
 30
0.0
  0
SPLINE
  5
71
330
1F
100
AcDbEntity
  8
layer 1
 62
     7
100
AcDbSpline
210
0.0
220
0.0
230
1.0
 70
    11
 71
     3
 72
    40
 73
    36
 74
     0
 42
0.0000000001
 43
0.0000000001
 12
1.0
 22
0.0
 32
0.0
 13
1.0
 23
0.0
 33
0.0
 40
0.0
 40
0.0
 40
0.0
 40
0.0
 40
0.1
 40
0.1
 40
0.1
 40
0.1
 40
0.2
 40
0.2
 40
0.2
 40
0.2
 40
0.3
 40
0.3
 40
0.3
 40
0.3
 40
0.4
 40
0.4
 40
0.4
 40
0.4
 40
0.5
 40
0.5
 40
0.5
 40
0.5
 40
0.6
 40
0.6
 40
0.6
 40
0.6
 40
0.7
 40
0.7
 40
0.7
 40
0.7
 40
0.8
 40
0.8
 40
0.8
 40
0.8
 40
1.0
 40
1.0
 40
1.0
 40
1.0
 10
162.518
 20
88.9048
 30
0.0
 10
161.8392
 20
86.387
 30
0.0
 10
160.7315
 20
83.4144
 30
0.0
 10
160.1616
 20
80.9165
 30
0.0
 10
160.1616
 20
80.9165
 30
0.0
 10
159.6591
 20
78.7137
 30
0.0
 10
159.6477
 20
76.8802
 30
0.0
 10
159.683
 20
76.0533
 30
0.0
 10
159.683
 20
76.0533
 30
0.0
 10
159.8284
 20
72.6487
 30
0.0
 10
162.06
 20
70.5339
 30
0.0
 10
164.326
 20
70.5201
 30
0.0
 10
164.326
 20
70.5201
 30
0.0
 10
167.1926
 20
70.4437
 30
0.0
 10
169.1079
 20
73.4983
 30
0.0
 10
169.042
 20
75.8919
 30
0.0
 10
169.042
 20
75.8919
 30
0.0
 10
169.0225
 20
77.1627
 30
0.0
 10
168.9711
 20
78.9673
 30
0.0
 10
168.5549
 20
80.816
 30
0.0
 10
168.5549
 20
80.816
 30
0.0
 10
167.961
 20
83.4541
 30
0.0
 10
166.8627
 20
86.3182
 30
0.0
 10
166.0897
 20
89.0113
 30
0.0
 10
166.0897
 20
89.0113
 30
0.0
 10
165.4564
 20
91.2282
 30
0.0
 10
164.9254
 20
93.3204
 30
0.0
 10
164.326
 20
95.6102
 30
0.0
 10
164.326
 20
95.6102
 30
0.0
 10
164.326
 20
95.6102
 30
0.0
 10
163.1969
 20
91.4227
 30
0.0
 10
162.518
 20
88.9049
 30
0.0
 10
162.518
 20
88.9049
 30
0.0
 10
162.518
 20
88.9049
 30
0.0
 10
162.518
 20
88.9048
 30
0.0
 10
162.518
 20
88.9048
 30
0.0
  0
SPLINE
  5
72
330
1F
100
AcDbEntity
  8
layer 1
 62
     7
100
AcDbSpline
210
0.0
220
0.0
230
1.0
 70
    11
 71
     3
 72
    40
 73
    36
 74
     0
 42
0.0000000001
 43
0.0000000001
 12
1.0
 22
0.0
 32
0.0
 13
1.0
 23
0.0
 33
0.0
 40
0.0
 40
0.0
 40
0.0
 40
0.0
 40
0.1
 40
0.1
 40
0.1
 40
0.1
 40
0.2
 40
0.2
 40
0.2
 40
0.2
 40
0.3
 40
0.3
 40
0.3
 40
0.3
 40
0.4
 40
0.4
 40
0.4
 40
0.4
 40
0.5
 40
0.5
 40
0.5
 40
0.5
 40
0.6
 40
0.6
 40
0.6
 40
0.6
 40
0.7
 40
0.7
 40
0.7
 40
0.7
 40
0.8
 40
0.8
 40
0.8
 40
0.8
 40
1.0
 40
1.0
 40
1.0
 40
1.0
 10
173.7226
 20
101.8061
 30
0.0
 10
176.2425
 20
102.4772
 30
0.0
 10
179.3707
 20
103.0042
 30
0.0
 10
181.8189
 20
103.7596
 30
0.0
 10
181.8189
 20
103.7596
 30
0.0
 10
183.9778
 20
104.4258
 30
0.0
 10
185.5714
 20
105.3328
 30
0.0
 10
186.2699
 20
105.7767
 30
0.0
 10
186.2699
 20
105.7767
 30
0.0
 10
189.1457
 20
107.6048
 30
0.0
 10
189.8613
 20
110.595
 30
0.0
 10
188.7403
 20
112.5642
 30
0.0
 10
188.7403
 20
112.5642
 30
0.0
 10
187.3732
 20
115.085
 30
0.0
 10
183.7702
 20
115.2164
 30
0.0
 10
181.7303
 20
113.9626
 30
0.0
 10
181.7303
 20
113.9626
 30
0.0
 10
180.6394
 20
113.3104
 30
0.0
 10
179.1023
 20
112.3635
 30
0.0
 10
177.7094
 20
111.0787
 30
0.0
 10
177.7094
 20
111.0787
 30
0.0
 10
175.7217
 20
109.2453
 30
0.0
 10
173.7904
 20
106.8621
 30
0.0
 10
171.8446
 20
104.8461
 30
0.0
 10
171.8446
 20
104.8461
 30
0.0
 10
170.2414
 20
103.1892
 30
0.0
 10
168.695
 20
101.6832
 30
0.0
 10
167.0117
 20
100.0192
 30
0.0
 10
167.0117
 20
100.0192
 30
0.0
 10
167.0117
 20
100.0192
 30
0.0
 10
171.2028
 20
101.1351
 30
0.0
 10
173.7227
 20
101.8061
 30
0.0
 10
173.7227
 20
101.8061
 30
0.0
 10
173.7227
 20
101.8061
 30
0.0
 10
173.7226
 20
101.8061
 30
0.0
 10
173.7226
 20
101.8061
 30
0.0
  0
SPLINE
  5
73
330
1F
100
AcDbEntity
  8
layer 1
 62
     7
100
AcDbSpline
210
0.0
220
0.0
230
1.0
 70
    11
 71
     3
 72
    40
 73
    36
 74
     0
 42
0.0000000001
 43
0.0000000001
 12
1.0
 22
0.0
 32
0.0
 13
1.0
 23
0.0
 33
0.0
 40
0.0
 40
0.0
 40
0.0
 40
0.0
 40
0.1
 40
0.1
 40
0.1
 40
0.1
 40
0.2
 40
0.2
 40
0.2
 40
0.2
 40
0.3
 40
0.3
 40
0.3
 40
0.3
 40
0.4
 40
0.4
 40
0.4
 40
0.4
 40
0.5
 40
0.5
 40
0.5
 40
0.5
 40
0.6
 40
0.6
 40
0.6
 40
0.6
 40
0.7
 40
0.7
 40
0.7
 40
0.7
 40
0.8
 40
0.8
 40
0.8
 40
0.8
 40
1.0
 40
1.0
 40
1.0
 40
1.0
 10
171.78
 20
92.2569
 30
0.0
 10
173.6211
 20
90.4101
 30
0.0
 10
175.6416
 20
87.9645
 30
0.0
 10
177.5199
 20
86.222
 30
0.0
 10
177.5199
 20
86.222
 30
0.0
 10
179.1763
 20
84.6854
 30
0.0
 10
180.7585
 20
83.7587
 30
0.0
 10
181.4923
 20
83.3758
 30
0.0
 10
181.4923
 20
83.3758
 30
0.0
 10
184.5134
 20
81.7994
 30
0.0
 10
187.4607
 20
82.6747
 30
0.0
 10
188.6057
 20
84.6301
 30
0.0
 10
188.6057
 20
84.6301
 30
0.0
 10
190.1052
 20
87.0745
 30
0.0
 10
188.4175
 20
90.2605
 30
0.0
 10
186.3117
 20
91.4002
 30
0.0
 10
186.3117
 20
91.4002
 30
0.0
 10
185.2014
 20
92.0189
 30
0.0
 10
183.6128
 20
92.8765
 30
0.0
 10
181.8038
 20
93.4404
 30
0.0
 10
181.8038
 20
93.4404
 30
0.0
 10
179.2221
 20
94.2451
 30
0.0
 10
176.1926
 20
94.7261
 30
0.0
 10
173.4738
 20
95.4032
 30
0.0
 10
173.4738
 20
95.4032
 30
0.0
 10
171.2373
 20
95.9631
 30
0.0
 10
169.1598
 20
96.5494
 30
0.0
 10
166.8771
 20
97.1751
 30
0.0
 10
166.8771
 20
97.1751
 30
0.0
 10
166.8771
 20
97.1751
 30
0.0
 10
169.939
 20
94.1036
 30
0.0
 10
171.7801
 20
92.2568
 30
0.0
 10
171.7801
 20
92.2568
 30
0.0
 10
171.7801
 20
92.2568
 30
0.0
 10
171.78
 20
92.2569
 30
0.0
 10
171.78
 20
92.2569
 30
0.0
  0
SPLINE
  5
74
330
1F
100
AcDbEntity
  8
layer 1
 62
     7
100
AcDbSpline
210
0.0
220
0.0
230
1.0
 70
    11
 71
     3
 72
    28
 73
    24
 74
     0
 42
0.0000000001
 43
0.0000000001
 12
1.0
 22
0.0
 32
0.0
 13
1.0
 23
0.0
 33
0.0
 40
0.0
 40
0.0
 40
0.0
 40
0.0
 40
0.1428571428571428
 40
0.1428571428571428
 40
0.1428571428571428
 40
0.1428571428571428
 40
0.2857142857142857
 40
0.2857142857142857
 40
0.2857142857142857
 40
0.2857142857142857
 40
0.4285714285714285
 40
0.4285714285714285
 40
0.4285714285714285
 40
0.4285714285714285
 40
0.5714285714285714
 40
0.5714285714285714
 40
0.5714285714285714
 40
0.5714285714285714
 40
0.7142857142857143
 40
0.7142857142857143
 40
0.7142857142857143
 40
0.7142857142857143
 40
1.0
 40
1.0
 40
1.0
 40
1.0
 10
188.4789
 20
63.2622
 30
0.0
 10
187.8
 20
65.78
 30
0.0
 10
186.6924
 20
68.7526
 30
0.0
 10
186.1225
 20
71.2505
 30
0.0
 10
186.1225
 20
71.2505
 30
0.0
 10
185.6199
 20
73.4532
 30
0.0
 10
185.6085
 20
75.2868
 30
0.0
 10
185.6439
 20
76.1137
 30
0.0
 10
185.6439
 20
76.1137
 30
0.0
 10
185.7892
 20
79.5182
 30
0.0
 10
188.0209
 20
81.6331
 30
0.0
 10
190.2868
 20
81.6468
 30
0.0
 10
190.2868
 20
81.6468
 30
0.0
 10
190.2868
 20
81.6468
 30
0.0
 10
190.2868
 20
56.5568
 30
0.0
 10
190.2868
 20
56.5568
 30
0.0
 10
190.2868
 20
56.5568
 30
0.0
 10
190.2868
 20
56.5568
 30
0.0
 10
189.1578
 20
60.7443
 30
0.0
 10
188.4789
 20
63.2621
 30
0.0
 10
188.4789
 20
63.2621
 30
0.0
 10
188.4789
 20
63.2621
 30
0.0
 10
188.4789
 20
63.2622
 30
0.0
 10
188.4789
 20
63.2622
 30
0.0
  0
SPLINE
  5
75
330
1F
100
AcDbEntity
  8
layer 1
 62
     7
100
AcDbSpline
210
0.0
220
0.0
230
1.0
 70
    11
 71
     3
 72
    40
 73
    36
 74
     0
 42
0.0000000001
 43
0.0000000001
 12
1.0
 22
0.0
 32
0.0
 13
1.0
 23
0.0
 33
0.0
 40
0.0
 40
0.0
 40
0.0
 40
0.0
 40
0.1
 40
0.1
 40
0.1
 40
0.1
 40
0.2
 40
0.2
 40
0.2
 40
0.2
 40
0.3
 40
0.3
 40
0.3
 40
0.3
 40
0.4
 40
0.4
 40
0.4
 40
0.4
 40
0.5
 40
0.5
 40
0.5
 40
0.5
 40
0.6
 40
0.6
 40
0.6
 40
0.6
 40
0.7
 40
0.7
 40
0.7
 40
0.7
 40
0.8
 40
0.8
 40
0.8
 40
0.8
 40
1.0
 40
1.0
 40
1.0
 40
1.0
 10
180.8008
 20
56.972
 30
0.0
 10
178.2809
 20
57.643
 30
0.0
 10
175.1527
 20
58.1701
 30
0.0
 10
172.7045
 20
58.9255
 30
0.0
 10
172.7045
 20
58.9255
 30
0.0
 10
170.5455
 20
59.5917
 30
0.0
 10
168.9519
 20
60.4986
 30
0.0
 10
168.2535
 20
60.9426
 30
0.0
 10
168.2535
 20
60.9426
 30
0.0
 10
165.3777
 20
62.7707
 30
0.0
 10
164.6621
 20
65.7608
 30
0.0
 10
165.783
 20
67.7301
 30
0.0
 10
165.783
 20
67.7301
 30
0.0
 10
167.1501
 20
70.2509
 30
0.0
 10
170.7532
 20
70.3823
 30
0.0
 10
172.7931
 20
69.1284
 30
0.0
 10
172.7931
 20
69.1284
 30
0.0
 10
173.8839
 20
68.4762
 30
0.0
 10
175.421
 20
67.5294
 30
0.0
 10
176.8139
 20
66.2446
 30
0.0
 10
176.8139
 20
66.2446
 30
0.0
 10
178.8017
 20
64.4111
 30
0.0
 10
180.7329
 20
62.0279
 30
0.0
 10
182.6787
 20
60.012
 30
0.0
 10
182.6787
 20
60.012
 30
0.0
 10
184.2819
 20
58.3551
 30
0.0
 10
185.8283
 20
56.8491
 30
0.0
 10
187.5116
 20
55.1851
 30
0.0
 10
187.5116
 20
55.1851
 30
0.0
 10
187.5116
 20
55.1851
 30
0.0
 10
183.3206
 20
56.301
 30
0.0
 10
180.8007
 20
56.972
 30
0.0
 10
180.8007
 20
56.972
 30
0.0
 10
180.8007
 20
56.972
 30
0.0
 10
180.8008
 20
56.972
 30
0.0
 10
180.8008
 20
56.972
 30
0.0
  0
SPLINE
  5
76
330
1F
100
AcDbEntity
  8
layer 1
 62
     7
100
AcDbSpline
210
0.0
220
0.0
230
1.0
 70
    11
 71
     3
 72
    40
 73
    36
 74
     0
 42
0.0000000001
 43
0.0000000001
 12
1.0
 22
0.0
 32
0.0
 13
1.0
 23
0.0
 33
0.0
 40
0.0
 40
0.0
 40
0.0
 40
0.0
 40
0.1
 40
0.1
 40
0.1
 40
0.1
 40
0.2
 40
0.2
 40
0.2
 40
0.2
 40
0.3
 40
0.3
 40
0.3
 40
0.3
 40
0.4
 40
0.4
 40
0.4
 40
0.4
 40
0.5
 40
0.5
 40
0.5
 40
0.5
 40
0.6
 40
0.6
 40
0.6
 40
0.6
 40
0.7
 40
0.7
 40
0.7
 40
0.7
 40
0.8
 40
0.8
 40
0.8
 40
0.8
 40
1.0
 40
1.0
 40
1.0
 40
1.0
 10
182.6814
 20
47.2989
 30
0.0
 10
180.8403
 20
45.4521
 30
0.0
 10
178.8198
 20
43.0065
 30
0.0
 10
176.9415
 20
41.264
 30
0.0
 10
176.9415
 20
41.264
 30
0.0
 10
175.2851
 20
39.7274
 30
0.0
 10
173.7029
 20
38.8007
 30
0.0
 10
172.9691
 20
38.4178
 30
0.0
 10
172.9691
 20
38.4178
 30
0.0
 10
169.948
 20
36.8414
 30
0.0
 10
167.0007
 20
37.7167
 30
0.0
 10
165.8557
 20
39.6721
 30
0.0
 10
165.8557
 20
39.6721
 30
0.0
 10
164.3562
 20
42.1165
 30
0.0
 10
166.0439
 20
45.3025
 30
0.0
 10
168.1497
 20
46.4422
 30
0.0
 10
168.1497
 20
46.4422
 30
0.0
 10
169.26
 20
47.0609
 30
0.0
 10
170.8486
 20
47.9185
 30
0.0
 10
172.6577
 20
48.4824
 30
0.0
 10
172.6577
 20
48.4824
 30
0.0
 10
175.2393
 20
49.2871
 30
0.0
 10
178.2688
 20
49.7681
 30
0.0
 10
180.9876
 20
50.4452
 30
0.0
 10
180.9876
 20
50.4452
 30
0.0
 10
183.2241
 20
51.0051
 30
0.0
 10
185.3016
 20
51.5914
 30
0.0
 10
187.5843
 20
52.2171
 30
0.0
 10
187.5843
 20
52.2171
 30
0.0
 10
187.5843
 20
52.2171
 30
0.0
 10
184.5224
 20
49.1456
 30
0.0
 10
182.6813
 20
47.2988
 30
0.0
 10
182.6813
 20
47.2988
 30
0.0
 10
182.6813
 20
47.2988
 30
0.0
 10
182.6814
 20
47.2989
 30
0.0
 10
182.6814
 20
47.2989
 30
0.0
  0
SPLINE
  5
77
330
1F
100
AcDbEntity
  8
layer 1
 62
     7
100
AcDbSpline
210
0.0
220
0.0
230
1.0
 70
    11
 71
     3
 72
    28
 73
    24
 74
     0
 42
0.0000000001
 43
0.0000000001
 12
1.0
 22
0.0
 32
0.0
 13
1.0
 23
0.0
 33
0.0
 40
0.0
 40
0.0
 40
0.0
 40
0.0
 40
0.1428571428571428
 40
0.1428571428571428
 40
0.1428571428571428
 40
0.1428571428571428
 40
0.2857142857142857
 40
0.2857142857142857
 40
0.2857142857142857
 40
0.2857142857142857
 40
0.4285714285714285
 40
0.4285714285714285
 40
0.4285714285714285
 40
0.4285714285714285
 40
0.5714285714285714
 40
0.5714285714285714
 40
0.5714285714285714
 40
0.5714285714285714
 40
0.7142857142857143
 40
0.7142857142857143
 40
0.7142857142857143
 40
0.7142857142857143
 40
1.0
 40
1.0
 40
1.0
 40
1.0
 10
188.4789
 20
44.0087
 30
0.0
 10
187.8
 20
41.4909
 30
0.0
 10
186.6924
 20
38.5183
 30
0.0
 10
186.1225
 20
36.0204
 30
0.0
 10
186.1225
 20
36.0204
 30
0.0
 10
185.6199
 20
33.8176
 30
0.0
 10
185.6085
 20
31.9841
 30
0.0
 10
185.6439
 20
31.1572
 30
0.0
 10
185.6439
 20
31.1572
 30
0.0
 10
185.7892
 20
27.7527
 30
0.0
 10
188.0209
 20
25.6378
 30
0.0
 10
190.2868
 20
25.624
 30
0.0
 10
190.2868
 20
25.624
 30
0.0
 10
190.2868
 20
25.624
 30
0.0
 10
190.2868
 20
50.7141
 30
0.0
 10
190.2868
 20
50.7141
 30
0.0
 10
190.2868
 20
50.7141
 30
0.0
 10
190.2868
 20
50.7141
 30
0.0
 10
189.1578
 20
46.5266
 30
0.0
 10
188.4789
 20
44.0088
 30
0.0
 10
188.4789
 20
44.0088
 30
0.0
 10
188.4789
 20
44.0088
 30
0.0
 10
188.4789
 20
44.0087
 30
0.0
 10
188.4789
 20
44.0087
 30
0.0
  0
SPLINE
  5
78
330
1F
100
AcDbEntity
  8
layer 1
 62
     7
100
AcDbSpline
210
0.0
220
0.0
230
1.0
 70
    11
 71
     3
 72
    40
 73
    36
 74
     0
 42
0.0000000001
 43
0.0000000001
 12
1.0
 22
0.0
 32
0.0
 13
1.0
 23
0.0
 33
0.0
 40
0.0
 40
0.0
 40
0.0
 40
0.0
 40
0.1
 40
0.1
 40
0.1
 40
0.1
 40
0.2
 40
0.2
 40
0.2
 40
0.2
 40
0.3
 40
0.3
 40
0.3
 40
0.3
 40
0.4
 40
0.4
 40
0.4
 40
0.4
 40
0.5
 40
0.5
 40
0.5
 40
0.5
 40
0.6
 40
0.6
 40
0.6
 40
0.6
 40
0.7
 40
0.7
 40
0.7
 40
0.7
 40
0.8
 40
0.8
 40
0.8
 40
0.8
 40
1.0
 40
1.0
 40
1.0
 40
1.0
 10
136.4793
 20
63.3701
 30
0.0
 10
135.8004
 20
65.8879
 30
0.0
 10
134.6928
 20
68.8605
 30
0.0
 10
134.1229
 20
71.3584
 30
0.0
 10
134.1229
 20
71.3584
 30
0.0
 10
133.6203
 20
73.5611
 30
0.0
 10
133.6089
 20
75.3947
 30
0.0
 10
133.6443
 20
76.2216
 30
0.0
 10
133.6443
 20
76.2216
 30
0.0
 10
133.7896
 20
79.6261
 30
0.0
 10
136.0213
 20
81.741
 30
0.0
 10
138.2872
 20
81.7548
 30
0.0
 10
138.2872
 20
81.7548
 30
0.0
 10
141.1538
 20
81.8312
 30
0.0
 10
143.0691
 20
78.7766
 30
0.0
 10
143.0032
 20
76.383
 30
0.0
 10
143.0032
 20
76.383
 30
0.0
 10
142.9838
 20
75.1122
 30
0.0
 10
142.9323
 20
73.3076
 30
0.0
 10
142.5162
 20
71.4589
 30
0.0
 10
142.5162
 20
71.4589
 30
0.0
 10
141.9223
 20
68.8208
 30
0.0
 10
140.8239
 20
65.9567
 30
0.0
 10
140.051
 20
63.2636
 30
0.0
 10
140.051
 20
63.2636
 30
0.0
 10
139.4176
 20
61.0466
 30
0.0
 10
138.8867
 20
58.9545
 30
0.0
 10
138.2872
 20
56.6647
 30
0.0
 10
138.2872
 20
56.6647
 30
0.0
 10
138.2872
 20
56.6647
 30
0.0
 10
137.1582
 20
60.8522
 30
0.0
 10
136.4793
 20
63.37
 30
0.0
 10
136.4793
 20
63.37
 30
0.0
 10
136.4793
 20
63.37
 30
0.0
 10
136.4793
 20
63.3701
 30
0.0
 10
136.4793
 20
63.3701
 30
0.0
  0
SPLINE
  5
79
330
1F
100
AcDbEntity
  8
layer 1
 62
     7
100
AcDbSpline
210
0.0
220
0.0
230
1.0
 70
    11
 71
     3
 72
    40
 73
    36
 74
     0
 42
0.0000000001
 43
0.0000000001
 12
1.0
 22
0.0
 32
0.0
 13
1.0
 23
0.0
 33
0.0
 40
0.0
 40
0.0
 40
0.0
 40
0.0
 40
0.1
 40
0.1
 40
0.1
 40
0.1
 40
0.2
 40
0.2
 40
0.2
 40
0.2
 40
0.3
 40
0.3
 40
0.3
 40
0.3
 40
0.4
 40
0.4
 40
0.4
 40
0.4
 40
0.5
 40
0.5
 40
0.5
 40
0.5
 40
0.6
 40
0.6
 40
0.6
 40
0.6
 40
0.7
 40
0.7
 40
0.7
 40
0.7
 40
0.8
 40
0.8
 40
0.8
 40
0.8
 40
1.0
 40
1.0
 40
1.0
 40
1.0
 10
128.8013
 20
57.08
 30
0.0
 10
126.2814
 20
57.751
 30
0.0
 10
123.1531
 20
58.2781
 30
0.0
 10
120.705
 20
59.0335
 30
0.0
 10
120.705
 20
59.0335
 30
0.0
 10
118.546
 20
59.6997
 30
0.0
 10
116.9524
 20
60.6066
 30
0.0
 10
116.254
 20
61.0506
 30
0.0
 10
116.254
 20
61.0506
 30
0.0
 10
113.3782
 20
62.8787
 30
0.0
 10
112.6626
 20
65.8688
 30
0.0
 10
113.7835
 20
67.8381
 30
0.0
 10
113.7835
 20
67.8381
 30
0.0
 10
115.1506
 20
70.3589
 30
0.0
 10
118.7537
 20
70.4903
 30
0.0
 10
120.7935
 20
69.2364
 30
0.0
 10
120.7935
 20
69.2364
 30
0.0
 10
121.8844
 20
68.5842
 30
0.0
 10
123.4215
 20
67.6374
 30
0.0
 10
124.8144
 20
66.3526
 30
0.0
 10
124.8144
 20
66.3526
 30
0.0
 10
126.8022
 20
64.5191
 30
0.0
 10
128.7334
 20
62.1359
 30
0.0
 10
130.6792
 20
60.12
 30
0.0
 10
130.6792
 20
60.12
 30
0.0
 10
132.2824
 20
58.4631
 30
0.0
 10
133.8288
 20
56.9571
 30
0.0
 10
135.5121
 20
55.2931
 30
0.0
 10
135.5121
 20
55.2931
 30
0.0
 10
135.5121
 20
55.2931
 30
0.0
 10
131.3211
 20
56.409
 30
0.0
 10
128.8012
 20
57.08
 30
0.0
 10
128.8012
 20
57.08
 30
0.0
 10
128.8012
 20
57.08
 30
0.0
 10
128.8013
 20
57.08
 30
0.0
 10
128.8013
 20
57.08
 30
0.0
  0
SPLINE
  5
7A
330
1F
100
AcDbEntity
  8
layer 1
 62
     7
100
AcDbSpline
210
0.0
220
0.0
230
1.0
 70
    11
 71
     3
 72
    40
 73
    36
 74
     0
 42
0.0000000001
 43
0.0000000001
 12
1.0
 22
0.0
 32
0.0
 13
1.0
 23
0.0
 33
0.0
 40
0.0
 40
0.0
 40
0.0
 40
0.0
 40
0.1
 40
0.1
 40
0.1
 40
0.1
 40
0.2
 40
0.2
 40
0.2
 40
0.2
 40
0.3
 40
0.3
 40
0.3
 40
0.3
 40
0.4
 40
0.4
 40
0.4
 40
0.4
 40
0.5
 40
0.5
 40
0.5
 40
0.5
 40
0.6
 40
0.6
 40
0.6
 40
0.6
 40
0.7
 40
0.7
 40
0.7
 40
0.7
 40
0.8
 40
0.8
 40
0.8
 40
0.8
 40
1.0
 40
1.0
 40
1.0
 40
1.0
 10
130.6818
 20
47.4069
 30
0.0
 10
128.8407
 20
45.5601
 30
0.0
 10
126.8202
 20
43.1145
 30
0.0
 10
124.9419
 20
41.372
 30
0.0
 10
124.9419
 20
41.372
 30
0.0
 10
123.2855
 20
39.8354
 30
0.0
 10
121.7033
 20
38.9087
 30
0.0
 10
120.9695
 20
38.5258
 30
0.0
 10
120.9695
 20
38.5258
 30
0.0
 10
117.9484
 20
36.9494
 30
0.0
 10
115.0011
 20
37.8247
 30
0.0
 10
113.8561
 20
39.7801
 30
0.0
 10
113.8561
 20
39.7801
 30
0.0
 10
112.3566
 20
42.2245
 30
0.0
 10
114.0443
 20
45.4105
 30
0.0
 10
116.1501
 20
46.5502
 30
0.0
 10
116.1501
 20
46.5502
 30
0.0
 10
117.2604
 20
47.1688
 30
0.0
 10
118.849
 20
48.0265
 30
0.0
 10
120.6581
 20
48.5904
 30
0.0
 10
120.6581
 20
48.5904
 30
0.0
 10
123.2397
 20
49.3951
 30
0.0
 10
126.2692
 20
49.8761
 30
0.0
 10
128.988
 20
50.5532
 30
0.0
 10
128.988
 20
50.5532
 30
0.0
 10
131.2245
 20
51.1131
 30
0.0
 10
133.302
 20
51.6994
 30
0.0
 10
135.5847
 20
52.3251
 30
0.0
 10
135.5847
 20
52.3251
 30
0.0
 10
135.5847
 20
52.3251
 30
0.0
 10
132.5228
 20
49.2536
 30
0.0
 10
130.6817
 20
47.4068
 30
0.0
 10
130.6817
 20
47.4068
 30
0.0
 10
130.6817
 20
47.4068
 30
0.0
 10
130.6818
 20
47.4069
 30
0.0
 10
130.6818
 20
47.4069
 30
0.0
  0
SPLINE
  5
7B
330
1F
100
AcDbEntity
  8
layer 1
 62
     7
100
AcDbSpline
210
0.0
220
0.0
230
1.0
 70
    11
 71
     3
 72
    40
 73
    36
 74
     0
 42
0.0000000001
 43
0.0000000001
 12
1.0
 22
0.0
 32
0.0
 13
1.0
 23
0.0
 33
0.0
 40
0.0
 40
0.0
 40
0.0
 40
0.0
 40
0.1
 40
0.1
 40
0.1
 40
0.1
 40
0.2
 40
0.2
 40
0.2
 40
0.2
 40
0.3
 40
0.3
 40
0.3
 40
0.3
 40
0.4
 40
0.4
 40
0.4
 40
0.4
 40
0.5
 40
0.5
 40
0.5
 40
0.5
 40
0.6
 40
0.6
 40
0.6
 40
0.6
 40
0.7
 40
0.7
 40
0.7
 40
0.7
 40
0.8
 40
0.8
 40
0.8
 40
0.8
 40
1.0
 40
1.0
 40
1.0
 40
1.0
 10
136.4793
 20
44.1167
 30
0.0
 10
135.8004
 20
41.5989
 30
0.0
 10
134.6928
 20
38.6263
 30
0.0
 10
134.1229
 20
36.1284
 30
0.0
 10
134.1229
 20
36.1284
 30
0.0
 10
133.6203
 20
33.9256
 30
0.0
 10
133.6089
 20
32.0921
 30
0.0
 10
133.6443
 20
31.2652
 30
0.0
 10
133.6443
 20
31.2652
 30
0.0
 10
133.7896
 20
27.8606
 30
0.0
 10
136.0213
 20
25.7458
 30
0.0
 10
138.2872
 20
25.732
 30
0.0
 10
138.2872
 20
25.732
 30
0.0
 10
141.1538
 20
25.6556
 30
0.0
 10
143.0691
 20
28.7102
 30
0.0
 10
143.0032
 20
31.1038
 30
0.0
 10
143.0032
 20
31.1038
 30
0.0
 10
142.9838
 20
32.3746
 30
0.0
 10
142.9323
 20
34.1792
 30
0.0
 10
142.5162
 20
36.0279
 30
0.0
 10
142.5162
 20
36.0279
 30
0.0
 10
141.9223
 20
38.666
 30
0.0
 10
140.8239
 20
41.5301
 30
0.0
 10
140.051
 20
44.2232
 30
0.0
 10
140.051
 20
44.2232
 30
0.0
 10
139.4176
 20
46.4401
 30
0.0
 10
138.8867
 20
48.5323
 30
0.0
 10
138.2872
 20
50.8221
 30
0.0
 10
138.2872
 20
50.8221
 30
0.0
 10
138.2872
 20
50.8221
 30
0.0
 10
137.1582
 20
46.6346
 30
0.0
 10
136.4793
 20
44.1168
 30
0.0
 10
136.4793
 20
44.1168
 30
0.0
 10
136.4793
 20
44.1168
 30
0.0
 10
136.4793
 20
44.1167
 30
0.0
 10
136.4793
 20
44.1167
 30
0.0
  0
SPLINE
  5
7C
330
1F
100
AcDbEntity
  8
layer 1
 62
     7
100
AcDbSpline
210
0.0
220
0.0
230
1.0
 70
    11
 71
     3
 72
    40
 73
    36
 74
     0
 42
0.0000000001
 43
0.0000000001
 12
1.0
 22
0.0
 32
0.0
 13
1.0
 23
0.0
 33
0.0
 40
0.0
 40
0.0
 40
0.0
 40
0.0
 40
0.1
 40
0.1
 40
0.1
 40
0.1
 40
0.2
 40
0.2
 40
0.2
 40
0.2
 40
0.3
 40
0.3
 40
0.3
 40
0.3
 40
0.4
 40
0.4
 40
0.4
 40
0.4
 40
0.5
 40
0.5
 40
0.5
 40
0.5
 40
0.6
 40
0.6
 40
0.6
 40
0.6
 40
0.7
 40
0.7
 40
0.7
 40
0.7
 40
0.8
 40
0.8
 40
0.8
 40
0.8
 40
1.0
 40
1.0
 40
1.0
 40
1.0
 10
147.6838
 20
57.0181
 30
0.0
 10
150.2037
 20
57.6891
 30
0.0
 10
153.3319
 20
58.2161
 30
0.0
 10
155.7801
 20
58.9716
 30
0.0
 10
155.7801
 20
58.9716
 30
0.0
 10
157.9391
 20
59.6377
 30
0.0
 10
159.5327
 20
60.5447
 30
0.0
 10
160.2311
 20
60.9886
 30
0.0
 10
160.2311
 20
60.9886
 30
0.0
 10
163.1069
 20
62.8168
 30
0.0
 10
163.8225
 20
65.8069
 30
0.0
 10
162.7016
 20
67.7762
 30
0.0
 10
162.7016
 20
67.7762
 30
0.0
 10
161.3345
 20
70.2969
 30
0.0
 10
157.7314
 20
70.4283
 30
0.0
 10
155.6915
 20
69.1745
 30
0.0
 10
155.6915
 20
69.1745
 30
0.0
 10
154.6007
 20
68.5223
 30
0.0
 10
153.0636
 20
67.5754
 30
0.0
 10
151.6707
 20
66.2906
 30
0.0
 10
151.6707
 20
66.2906
 30
0.0
 10
149.6829
 20
64.4572
 30
0.0
 10
147.7517
 20
62.074
 30
0.0
 10
145.8059
 20
60.0581
 30
0.0
 10
145.8059
 20
60.0581
 30
0.0
 10
144.2027
 20
58.4011
 30
0.0
 10
142.6563
 20
56.8952
 30
0.0
 10
140.973
 20
55.2311
 30
0.0
 10
140.973
 20
55.2311
 30
0.0
 10
140.973
 20
55.2311
 30
0.0
 10
145.164
 20
56.347
 30
0.0
 10
147.6839
 20
57.0181
 30
0.0
 10
147.6839
 20
57.0181
 30
0.0
 10
147.6839
 20
57.0181
 30
0.0
 10
147.6838
 20
57.0181
 30
0.0
 10
147.6838
 20
57.0181
 30
0.0
  0
SPLINE
  5
7D
330
1F
100
AcDbEntity
  8
layer 1
 62
     7
100
AcDbSpline
210
0.0
220
0.0
230
1.0
 70
    11
 71
     3
 72
    40
 73
    36
 74
     0
 42
0.0000000001
 43
0.0000000001
 12
1.0
 22
0.0
 32
0.0
 13
1.0
 23
0.0
 33
0.0
 40
0.0
 40
0.0
 40
0.0
 40
0.0
 40
0.1
 40
0.1
 40
0.1
 40
0.1
 40
0.2
 40
0.2
 40
0.2
 40
0.2
 40
0.3
 40
0.3
 40
0.3
 40
0.3
 40
0.4
 40
0.4
 40
0.4
 40
0.4
 40
0.5
 40
0.5
 40
0.5
 40
0.5
 40
0.6
 40
0.6
 40
0.6
 40
0.6
 40
0.7
 40
0.7
 40
0.7
 40
0.7
 40
0.8
 40
0.8
 40
0.8
 40
0.8
 40
1.0
 40
1.0
 40
1.0
 40
1.0
 10
145.7413
 20
47.4688
 30
0.0
 10
147.5823
 20
45.622
 30
0.0
 10
149.6029
 20
43.1764
 30
0.0
 10
151.4812
 20
41.4339
 30
0.0
 10
151.4812
 20
41.4339
 30
0.0
 10
153.1376
 20
39.8973
 30
0.0
 10
154.7198
 20
38.9706
 30
0.0
 10
155.4535
 20
38.5878
 30
0.0
 10
155.4535
 20
38.5878
 30
0.0
 10
158.4747
 20
37.0113
 30
0.0
 10
161.422
 20
37.8866
 30
0.0
 10
162.5669
 20
39.842
 30
0.0
 10
162.5669
 20
39.842
 30
0.0
 10
164.0664
 20
42.2864
 30
0.0
 10
162.3787
 20
45.4725
 30
0.0
 10
160.2729
 20
46.6121
 30
0.0
 10
160.2729
 20
46.6121
 30
0.0
 10
159.1626
 20
47.2308
 30
0.0
 10
157.5741
 20
48.0885
 30
0.0
 10
155.765
 20
48.6524
 30
0.0
 10
155.765
 20
48.6524
 30
0.0
 10
153.1834
 20
49.4571
 30
0.0
 10
150.1538
 20
49.938
 30
0.0
 10
147.4351
 20
50.6151
 30
0.0
 10
147.4351
 20
50.6151
 30
0.0
 10
145.1985
 20
51.175
 30
0.0
 10
143.1211
 20
51.7613
 30
0.0
 10
140.8383
 20
52.3871
 30
0.0
 10
140.8383
 20
52.3871
 30
0.0
 10
140.8383
 20
52.3871
 30
0.0
 10
143.9003
 20
49.3155
 30
0.0
 10
145.7414
 20
47.4687
 30
0.0
 10
145.7414
 20
47.4687
 30
0.0
 10
145.7414
 20
47.4687
 30
0.0
 10
145.7413
 20
47.4688
 30
0.0
 10
145.7413
 20
47.4688
 30
0.0
  0
SPLINE
  5
7E
330
1F
100
AcDbEntity
  8
layer 1
 62
     7
100
AcDbSpline
210
0.0
220
0.0
230
1.0
 70
    11
 71
     3
 72
    28
 73
    24
 74
     0
 42
0.0000000001
 43
0.0000000001
 12
1.0
 22
0.0
 32
0.0
 13
1.0
 23
0.0
 33
0.0
 40
0.0
 40
0.0
 40
0.0
 40
0.0
 40
0.1428571428571428
 40
0.1428571428571428
 40
0.1428571428571428
 40
0.1428571428571428
 40
0.2857142857142857
 40
0.2857142857142857
 40
0.2857142857142857
 40
0.2857142857142857
 40
0.4285714285714285
 40
0.4285714285714285
 40
0.4285714285714285
 40
0.4285714285714285
 40
0.5714285714285714
 40
0.5714285714285714
 40
0.5714285714285714
 40
0.5714285714285714
 40
0.7142857142857143
 40
0.7142857142857143
 40
0.7142857142857143
 40
0.7142857142857143
 40
1.0
 40
1.0
 40
1.0
 40
1.0
 10
88.2192
 20
63.2622
 30
0.0
 10
88.898
 20
65.78
 30
0.0
 10
90.0057
 20
68.7526
 30
0.0
 10
90.5755
 20
71.2505
 30
0.0
 10
90.5755
 20
71.2505
 30
0.0
 10
91.0781
 20
73.4532
 30
0.0
 10
91.0895
 20
75.2868
 30
0.0
 10
91.0542
 20
76.1137
 30
0.0
 10
91.0542
 20
76.1137
 30
0.0
 10
90.9088
 20
79.5182
 30
0.0
 10
88.6771
 20
81.6331
 30
0.0
 10
86.4112
 20
81.6468
 30
0.0
 10
86.4112
 20
81.6468
 30
0.0
 10
86.4112
 20
81.6468
 30
0.0
 10
86.4112
 20
56.5568
 30
0.0
 10
86.4112
 20
56.5568
 30
0.0
 10
86.4112
 20
56.5568
 30
0.0
 10
86.4112
 20
56.5568
 30
0.0
 10
87.5402
 20
60.7443
 30
0.0
 10
88.2192
 20
63.2621
 30
0.0
 10
88.2192
 20
63.2621
 30
0.0
 10
88.2192
 20
63.2621
 30
0.0
 10
88.2192
 20
63.2622
 30
0.0
 10
88.2192
 20
63.2622
 30
0.0
  0
SPLINE
  5
7F
330
1F
100
AcDbEntity
  8
layer 1
 62
     7
100
AcDbSpline
210
0.0
220
0.0
230
1.0
 70
    11
 71
     3
 72
    40
 73
    36
 74
     0
 42
0.0000000001
 43
0.0000000001
 12
1.0
 22
0.0
 32
0.0
 13
1.0
 23
0.0
 33
0.0
 40
0.0
 40
0.0
 40
0.0
 40
0.0
 40
0.1
 40
0.1
 40
0.1
 40
0.1
 40
0.2
 40
0.2
 40
0.2
 40
0.2
 40
0.3
 40
0.3
 40
0.3
 40
0.3
 40
0.4
 40
0.4
 40
0.4
 40
0.4
 40
0.5
 40
0.5
 40
0.5
 40
0.5
 40
0.6
 40
0.6
 40
0.6
 40
0.6
 40
0.7
 40
0.7
 40
0.7
 40
0.7
 40
0.8
 40
0.8
 40
0.8
 40
0.8
 40
1.0
 40
1.0
 40
1.0
 40
1.0
 10
95.8973
 20
56.972
 30
0.0
 10
98.4172
 20
57.643
 30
0.0
 10
101.5454
 20
58.1701
 30
0.0
 10
103.9935
 20
58.9255
 30
0.0
 10
103.9935
 20
58.9255
 30
0.0
 10
106.1525
 20
59.5917
 30
0.0
 10
107.7461
 20
60.4986
 30
0.0
 10
108.4445
 20
60.9426
 30
0.0
 10
108.4445
 20
60.9426
 30
0.0
 10
111.3203
 20
62.7707
 30
0.0
 10
112.036
 20
65.7608
 30
0.0
 10
110.915
 20
67.7301
 30
0.0
 10
110.915
 20
67.7301
 30
0.0
 10
109.5479
 20
70.2509
 30
0.0
 10
105.9449
 20
70.3823
 30
0.0
 10
103.905
 20
69.1284
 30
0.0
 10
103.905
 20
69.1284
 30
0.0
 10
102.8141
 20
68.4762
 30
0.0
 10
101.277
 20
67.5294
 30
0.0
 10
99.8841
 20
66.2446
 30
0.0
 10
99.8841
 20
66.2446
 30
0.0
 10
97.8964
 20
64.4111
 30
0.0
 10
95.9651
 20
62.0279
 30
0.0
 10
94.0193
 20
60.012
 30
0.0
 10
94.0193
 20
60.012
 30
0.0
 10
92.4161
 20
58.3551
 30
0.0
 10
90.8697
 20
56.8491
 30
0.0
 10
89.1864
 20
55.1851
 30
0.0
 10
89.1864
 20
55.1851
 30
0.0
 10
89.1864
 20
55.1851
 30
0.0
 10
93.3774
 20
56.301
 30
0.0
 10
95.8973
 20
56.972
 30
0.0
 10
95.8973
 20
56.972
 30
0.0
 10
95.8973
 20
56.972
 30
0.0
 10
95.8973
 20
56.972
 30
0.0
 10
95.8973
 20
56.972
 30
0.0
  0
SPLINE
  5
80
330
1F
100
AcDbEntity
  8
layer 1
 62
     7
100
AcDbSpline
210
0.0
220
0.0
230
1.0
 70
    11
 71
     3
 72
    40
 73
    36
 74
     0
 42
0.0000000001
 43
0.0000000001
 12
1.0
 22
0.0
 32
0.0
 13
1.0
 23
0.0
 33
0.0
 40
0.0
 40
0.0
 40
0.0
 40
0.0
 40
0.1
 40
0.1
 40
0.1
 40
0.1
 40
0.2
 40
0.2
 40
0.2
 40
0.2
 40
0.3
 40
0.3
 40
0.3
 40
0.3
 40
0.4
 40
0.4
 40
0.4
 40
0.4
 40
0.5
 40
0.5
 40
0.5
 40
0.5
 40
0.6
 40
0.6
 40
0.6
 40
0.6
 40
0.7
 40
0.7
 40
0.7
 40
0.7
 40
0.8
 40
0.8
 40
0.8
 40
0.8
 40
1.0
 40
1.0
 40
1.0
 40
1.0
 10
94.0167
 20
47.2989
 30
0.0
 10
95.8578
 20
45.4521
 30
0.0
 10
97.8783
 20
43.0065
 30
0.0
 10
99.7566
 20
41.264
 30
0.0
 10
99.7566
 20
41.264
 30
0.0
 10
101.413
 20
39.7274
 30
0.0
 10
102.9952
 20
38.8007
 30
0.0
 10
103.729
 20
38.4178
 30
0.0
 10
103.729
 20
38.4178
 30
0.0
 10
106.7502
 20
36.8414
 30
0.0
 10
109.6974
 20
37.7167
 30
0.0
 10
110.8424
 20
39.6721
 30
0.0
 10
110.8424
 20
39.6721
 30
0.0
 10
112.3419
 20
42.1165
 30
0.0
 10
110.6542
 20
45.3025
 30
0.0
 10
108.5484
 20
46.4422
 30
0.0
 10
108.5484
 20
46.4422
 30
0.0
 10
107.4381
 20
47.0609
 30
0.0
 10
105.8495
 20
47.9185
 30
0.0
 10
104.0405
 20
48.4824
 30
0.0
 10
104.0405
 20
48.4824
 30
0.0
 10
101.4588
 20
49.2871
 30
0.0
 10
98.4293
 20
49.7681
 30
0.0
 10
95.7105
 20
50.4452
 30
0.0
 10
95.7105
 20
50.4452
 30
0.0
 10
93.474
 20
51.0051
 30
0.0
 10
91.3965
 20
51.5914
 30
0.0
 10
89.1138
 20
52.2171
 30
0.0
 10
89.1138
 20
52.2171
 30
0.0
 10
89.1138
 20
52.2171
 30
0.0
 10
92.1757
 20
49.1456
 30
0.0
 10
94.0168
 20
47.2988
 30
0.0
 10
94.0168
 20
47.2988
 30
0.0
 10
94.0168
 20
47.2988
 30
0.0
 10
94.0167
 20
47.2989
 30
0.0
 10
94.0167
 20
47.2989
 30
0.0
  0
SPLINE
  5
81
330
1F
100
AcDbEntity
  8
layer 1
 62
     7
100
AcDbSpline
210
0.0
220
0.0
230
1.0
 70
    11
 71
     3
 72
    28
 73
    24
 74
     0
 42
0.0000000001
 43
0.0000000001
 12
1.0
 22
0.0
 32
0.0
 13
1.0
 23
0.0
 33
0.0
 40
0.0
 40
0.0
 40
0.0
 40
0.0
 40
0.1428571428571428
 40
0.1428571428571428
 40
0.1428571428571428
 40
0.1428571428571428
 40
0.2857142857142857
 40
0.2857142857142857
 40
0.2857142857142857
 40
0.2857142857142857
 40
0.4285714285714285
 40
0.4285714285714285
 40
0.4285714285714285
 40
0.4285714285714285
 40
0.5714285714285714
 40
0.5714285714285714
 40
0.5714285714285714
 40
0.5714285714285714
 40
0.7142857142857143
 40
0.7142857142857143
 40
0.7142857142857143
 40
0.7142857142857143
 40
1.0
 40
1.0
 40
1.0
 40
1.0
 10
88.2192
 20
44.0087
 30
0.0
 10
88.898
 20
41.4909
 30
0.0
 10
90.0057
 20
38.5183
 30
0.0
 10
90.5755
 20
36.0204
 30
0.0
 10
90.5755
 20
36.0204
 30
0.0
 10
91.0781
 20
33.8176
 30
0.0
 10
91.0895
 20
31.9841
 30
0.0
 10
91.0542
 20
31.1572
 30
0.0
 10
91.0542
 20
31.1572
 30
0.0
 10
90.9088
 20
27.7527
 30
0.0
 10
88.6771
 20
25.6378
 30
0.0
 10
86.4112
 20
25.624
 30
0.0
 10
86.4112
 20
25.624
 30
0.0
 10
86.4112
 20
25.624
 30
0.0
 10
86.4112
 20
50.7141
 30
0.0
 10
86.4112
 20
50.7141
 30
0.0
 10
86.4112
 20
50.7141
 30
0.0
 10
86.4112
 20
50.7141
 30
0.0
 10
87.5402
 20
46.5266
 30
0.0
 10
88.2192
 20
44.0088
 30
0.0
 10
88.2192
 20
44.0088
 30
0.0
 10
88.2192
 20
44.0088
 30
0.0
 10
88.2192
 20
44.0087
 30
0.0
 10
88.2192
 20
44.0087
 30
0.0
  0
ENDSEC
  0
SECTION
  2
OBJECTS
  0
DICTIONARY
  5
C
330
0
100
AcDbDictionary
281
     1
  3
ACAD_GROUP
350
D
  3
ACAD_LAYOUT
350
1A
  3
ACAD_MATERIAL
350
3B
  3
ACAD_MLEADERSTYLE
350
A3
  3
ACAD_MLINESTYLE
350
17
  3
ACAD_PLOTSETTINGS
350
19
  3
ACAD_PLOTSTYLENAME
350
E
  3
ACAD_TABLESTYLE
350
A2
  3
ACAD_VISUALSTYLE
350
2A
  0
DICTIONARY
  5
D
102
{ACAD_REACTORS
330
C
102
}
330
C
100
AcDbDictionary
281
     1
  0
DICTIONARY
  5
1A
102
{ACAD_REACTORS
330
C
102
}
330
C
100
AcDbDictionary
281
     1
  3
Layout1
350
1E
  3
Layout2
350
26
  3
Model
350
22
  0
DICTIONARY
  5
3B
102
{ACAD_REACTORS
330
C
102
}
330
C
100
AcDbDictionary
281
     1
  3
ByBlock
350
3D
  3
ByLayer
350
3C
  3
Global
350
3E
  0
DICTIONARY
  5
A3
102
{ACAD_REACTORS
330
C
102
}
330
C
100
AcDbDictionary
281
     1
  0
DICTIONARY
  5
17
102
{ACAD_REACTORS
330
C
102
}
330
C
100
AcDbDictionary
281
     1
  3
Standard
350
18
  0
DICTIONARY
  5
19
102
{ACAD_REACTORS
330
C
102
}
330
C
100
AcDbDictionary
281
     1
  0
ACDBDICTIONARYWDFLT
  5
E
102
{ACAD_REACTORS
330
C
102
}
330
C
100
AcDbDictionary
281
     1
  3
Normal
350
F
100
AcDbDictionaryWithDefault
340
F
  0
DICTIONARY
  5
A2
102
{ACAD_REACTORS
330
C
102
}
330
C
100
AcDbDictionary
281
     1
  0
DICTIONARY
  5
2A
102
{ACAD_REACTORS
330
C
102
}
330
C
100
AcDbDictionary
281
     1
  3
2dWireframe
350
2F
  3
3D Hidden
350
31
  3
3dWireframe
350
30
  3
Basic
350
32
  3
Brighten
350
36
  3
ColorChange
350
3A
  3
Conceptual
350
34
  3
Dim
350
35
  3
Facepattern
350
39
  3
Flat
350
2B
  3
FlatWithEdges
350
2C
  3
Gouraud
350
2D
  3
GouraudWithEdges
350
2E
  3
Linepattern
350
38
  3
Realistic
350
33
  3
Thicken
350
37
  0
LAYOUT
  5
1E
102
{ACAD_REACTORS
330
1A
102
}
330
1A
100
AcDbPlotSettings
  1

  2
none_device
  4

  6

 40
0.0
 41
0.0
 42
0.0
 43
0.0
 44
0.0
 45
0.0
 46
0.0
 47
0.0
 48
0.0
 49
0.0
140
0.0
141
0.0
142
1.0
143
1.0
 70
   688
 72
     0
 73
     0
 74
     5
  7

 75
    16
 76
     0
 77
     2
 78
   300
147
1.0
148
0.0
149
0.0
100
AcDbLayout
  1
Layout1
 70
     1
 71
     1
 10
0.0
 20
0.0
 11
12.0
 21
9.0
 12
0.0
 22
0.0
 32
0.0
 14
1.000000000000000E+20
 24
1.000000000000000E+20
 34
1.000000000000000E+20
 15
-1.000000000000000E+20
 25
-1.000000000000000E+20
 35
-1.000000000000000E+20
146
0.0
 13
0.0
 23
0.0
 33
0.0
 16
1.0
 26
0.0
 36
0.0
 17
0.0
 27
1.0
 37
0.0
 76
     0
330
1B
  0
LAYOUT
  5
26
102
{ACAD_REACTORS
330
1A
102
}
330
1A
100
AcDbPlotSettings
  1

  2
none_device
  4

  6

 40
0.0
 41
0.0
 42
0.0
 43
0.0
 44
0.0
 45
0.0
 46
0.0
 47
0.0
 48
0.0
 49
0.0
140
0.0
141
0.0
142
1.0
143
1.0
 70
   688
 72
     0
 73
     0
 74
     5
  7

 75
    16
 76
     0
 77
     2
 78
   300
147
1.0
148
0.0
149
0.0
100
AcDbLayout
  1
Layout2
 70
     1
 71
     2
 10
0.0
 20
0.0
 11
0.0
 21
0.0
 12
0.0
 22
0.0
 32
0.0
 14
0.0
 24
0.0
 34
0.0
 15
0.0
 25
0.0
 35
0.0
146
0.0
 13
0.0
 23
0.0
 33
0.0
 16
1.0
 26
0.0
 36
0.0
 17
0.0
 27
1.0
 37
0.0
 76
     0
330
23
  0
LAYOUT
  5
22
102
{ACAD_REACTORS
330
1A
102
}
330
1A
100
AcDbPlotSettings
  1

  2
none_device
  4

  6

 40
0.0
 41
0.0
 42
0.0
 43
0.0
 44
0.0
 45
0.0
 46
0.0
 47
0.0
 48
0.0
 49
0.0
140
0.0
141
0.0
142
1.0
143
1.0
 70
  1712
 72
     0
 73
     0
 74
     0
  7

 75
     0
 76
     0
 77
     2
 78
   300
147
1.0
148
0.0
149
0.0
100
AcDbLayout
  1
Model
 70
     1
 71
     0
 10
0.0
 20
0.0
 11
12.0
 21
9.0
 12
0.0
 22
0.0
 32
0.0
 14
80.379
 24
-114.9187
 34
0.0
 15
196.3191
 25
131.8907
 35
0.0
146
0.0
 13
0.0
 23
0.0
 33
0.0
 16
1.0
 26
0.0
 36
0.0
 17
0.0
 27
1.0
 37
0.0
 76
     0
330
1F
331
29
  0
MATERIAL
  5
3D
102
{ACAD_REACTORS
330
3B
102
}
330
3B
100
AcDbMaterial
  1
ByBlock
 72
     1
 94
      127
  0
MATERIAL
  5
3C
102
{ACAD_REACTORS
330
3B
102
}
330
3B
100
AcDbMaterial
  1
ByLayer
 72
     1
 94
      127
  0
MATERIAL
  5
3E
102
{ACAD_REACTORS
330
3B
102
}
330
3B
100
AcDbMaterial
  1
Global
 72
     1
 94
      127
  0
MLINESTYLE
  5
18
102
{ACAD_REACTORS
330
17
102
}
330
17
100
AcDbMlineStyle
  2
Standard
 70
     0
  3

 62
   256
 51
90.0
 52
90.0
 71
     2
 49
0.5
 62
   256
  6
BYLAYER
 49
-0.5
 62
   256
  6
BYLAYER
  0
ACDBPLACEHOLDER
  5
F
102
{ACAD_REACTORS
330
E
102
}
330
E
  0
VISUALSTYLE
  5
2F
102
{ACAD_REACTORS
330
2A
102
}
102
{ACAD_XDICTIONARY
360
8A
102
}
330
2A
100
AcDbVisualStyle
  2
2dWireframe
 70
     4
 71
     0
 72
     2
 73
     0
 90
        0
 40
-0.6
 41
-30.0
 62
     5
 63
     7
421
 16777215
 74
     1
 91
        4
 64
     7
 65
   257
 75
     1
175
     1
 42
1.0
 92
        0
 66
   257
 43
1.0
 76
     1
 77
     6
 78
     2
 67
     7
 79
     5
170
     0
171
     0
290
     0
174
     0
 93
        1
 44
0.0
173
     0
291
     0
 45
0.0
  0
VISUALSTYLE
  5
31
102
{ACAD_REACTORS
330
2A
102
}
102
{ACAD_XDICTIONARY
360
8E
102
}
330
2A
100
AcDbVisualStyle
  2
3D Hidden
 70
     6
 71
     1
 72
     2
 73
     2
 90
        0
 40
-0.6
 41
-30.0
 62
     5
 63
     7
421
 16777215
 74
     2
 91
        2
 64
     7
 65
   257
 75
     2
175
     1
 42
40.0
 92
        0
 66
   257
 43
1.0
 76
     1
 77
     6
 78
     2
 67
     7
 79
     3
170
     0
171
     0
290
     0
174
     0
 93
        1
 44
0.0
173
     0
291
     0
 45
0.0
  0
VISUALSTYLE
  5
30
102
{ACAD_REACTORS
330
2A
102
}
102
{ACAD_XDICTIONARY
360
8C
102
}
330
2A
100
AcDbVisualStyle
  2
3dWireframe
 70
     5
 71
     0
 72
     2
 73
     0
 90
        0
 40
-0.6
 41
-30.0
 62
     5
 63
     7
421
 16777215
 74
     1
 91
        4
 64
     7
 65
   257
 75
     1
175
     1
 42
1.0
 92
        0
 66
   257
 43
1.0
 76
     1
 77
     6
 78
     2
 67
     7
 79
     5
170
     0
171
     0
290
     0
174
     0
 93
        1
 44
0.0
173
     0
291
     0
 45
0.0
  0
VISUALSTYLE
  5
32
102
{ACAD_REACTORS
330
2A
102
}
102
{ACAD_XDICTIONARY
360
90
102
}
330
2A
100
AcDbVisualStyle
  2
Basic
 70
     7
 71
     1
 72
     0
 73
     1
 90
        0
 40
-0.6
 41
-30.0
 62
     5
 63
     7
421
 16777215
 74
     0
 91
        4
 64
     7
 65
   257
 75
     1
175
     1
 42
1.0
 92
        8
 66
     7
 43
1.0
 76
     1
 77
     6
 78
     2
 67
     7
 79
     5
170
     0
171
     0
290
     0
174
     0
 93
        1
 44
0.0
173
     0
291
     1
 45
0.0
  0
VISUALSTYLE
  5
36
102
{ACAD_REACTORS
330
2A
102
}
102
{ACAD_XDICTIONARY
360
98
102
}
330
2A
100
AcDbVisualStyle
  2
Brighten
 70
    12
 71
     2
 72
     2
 73
     0
 90
        0
 40
-0.6
 41
-30.0
 62
     5
 63
     7
421
 16777215
 74
     1
 91
        4
 64
     7
 65
   257
 75
     1
175
     1
 42
1.0
 92
        8
 66
     7
 43
1.0
 76
     1
 77
     6
 78
     2
 67
     7
 79
     5
170
     0
171
     0
290
     0
174
     0
 93
        1
 44
50.0
173
     0
291
     1
 45
0.0
  0
VISUALSTYLE
  5
3A
102
{ACAD_REACTORS
330
2A
102
}
102
{ACAD_XDICTIONARY
360
A0
102
}
330
2A
100
AcDbVisualStyle
  2
ColorChange
 70
    16
 71
     2
 72
     2
 73
     3
 90
        0
 40
-0.6
 41
-30.0
 62
     5
 63
     8
421
  8421504
 74
     1
 91
        4
 64
     7
 65
   257
 75
     1
175
     1
 42
1.0
 92
        8
 66
     8
424
  8421504
 43
1.0
 76
     1
 77
     6
 78
     2
 67
     7
 79
     5
170
     0
171
     0
290
     0
174
     0
 93
        1
 44
0.0
173
     0
291
     1
 45
0.0
  0
VISUALSTYLE
  5
34
102
{ACAD_REACTORS
330
2A
102
}
102
{ACAD_XDICTIONARY
360
94
102
}
330
2A
100
AcDbVisualStyle
  2
Conceptual
 70
     9
 71
     3
 72
     2
 73
     0
 90
        0
 40
-0.6
 41
-30.0
 62
     5
 63
     7
421
 16777215
 74
     2
 91
        2
 64
     7
 65
   257
 75
     1
175
     1
 42
40.0
 92
        8
 66
     7
 43
1.0
 76
     1
 77
     6
 78
     2
 67
     7
 79
     3
170
     0
171
     0
290
     0
174
     0
 93
        1
 44
0.0
173
     0
291
     0
 45
0.0
  0
VISUALSTYLE
  5
35
102
{ACAD_REACTORS
330
2A
102
}
102
{ACAD_XDICTIONARY
360
96
102
}
330
2A
100
AcDbVisualStyle
  2
Dim
 70
    11
 71
     2
 72
     2
 73
     0
 90
        0
 40
-0.6
 41
-30.0
 62
     5
 63
     7
421
 16777215
 74
     1
 91
        4
 64
     7
 65
   257
 75
     1
175
     1
 42
1.0
 92
        8
 66
     7
 43
1.0
 76
     1
 77
     6
 78
     2
 67
     7
 79
     5
170
     0
171
     0
290
     0
174
     0
 93
        1
 44
-50.0
173
     0
291
     1
 45
0.0
  0
VISUALSTYLE
  5
39
102
{ACAD_REACTORS
330
2A
102
}
102
{ACAD_XDICTIONARY
360
9E
102
}
330
2A
100
AcDbVisualStyle
  2
Facepattern
 70
    15
 71
     2
 72
     2
 73
     0
 90
        0
 40
-0.6
 41
-30.0
 62
     5
 63
     7
421
 16777215
 74
     1
 91
        4
 64
     7
 65
   257
 75
     1
175
     1
 42
1.0
 92
        8
 66
     7
 43
1.0
 76
     1
 77
     6
 78
     2
 67
     7
 79
     5
170
     0
171
     0
290
     0
174
     0
 93
        1
 44
0.0
173
     0
291
     1
 45
0.0
  0
VISUALSTYLE
  5
2B
102
{ACAD_REACTORS
330
2A
102
}
102
{ACAD_XDICTIONARY
360
82
102
}
330
2A
100
AcDbVisualStyle
  2
Flat
 70
     0
 71
     2
 72
     1
 73
     1
 90
        2
 40
-0.6
 41
30.0
 62
     5
 63
     7
421
 16777215
 74
     0
 91
        4
 64
     7
 65
   257
 75
     1
175
     1
 42
1.0
 92
        8
 66
     7
 43
1.0
 76
     1
 77
     6
 78
     2
 67
     7
 79
     5
170
     0
171
     0
290
     0
174
     0
 93
       13
 44
0.0
173
     0
291
     1
 45
0.0
  0
VISUALSTYLE
  5
2C
102
{ACAD_REACTORS
330
2A
102
}
102
{ACAD_XDICTIONARY
360
84
102
}
330
2A
100
AcDbVisualStyle
  2
FlatWithEdges
 70
     1
 71
     2
 72
     1
 73
     1
 90
        2
 40
-0.6
 41
30.0
 62
     5
 63
     7
421
 16777215
 74
     1
 91
        4
 64
     7
 65
   257
 75
     1
175
     1
 42
1.0
 92
        0
 66
   257
 43
1.0
 76
     1
 77
     6
 78
     2
 67
     7
 79
     5
170
     0
171
     0
290
     0
174
     0
 93
       13
 44
0.0
173
     0
291
     1
 45
0.0
  0
VISUALSTYLE
  5
2D
102
{ACAD_REACTORS
330
2A
102
}
102
{ACAD_XDICTIONARY
360
86
102
}
330
2A
100
AcDbVisualStyle
  2
Gouraud
 70
     2
 71
     2
 72
     2
 73
     1
 90
        2
 40
-0.6
 41
30.0
 62
     5
 63
     7
421
 16777215
 74
     0
 91
        4
 64
     7
 65
   257
 75
     1
175
     1
 42
1.0
 92
        0
 66
     7
 43
1.0
 76
     1
 77
     6
 78
     2
 67
     7
 79
     5
170
     0
171
     0
290
     0
174
     0
 93
       13
 44
0.0
173
     0
291
     1
 45
0.0
  0
VISUALSTYLE
  5
2E
102
{ACAD_REACTORS
330
2A
102
}
102
{ACAD_XDICTIONARY
360
88
102
}
330
2A
100
AcDbVisualStyle
  2
GouraudWithEdges
 70
     3
 71
     2
 72
     2
 73
     1
 90
        2
 40
-0.6
 41
30.0
 62
     5
 63
     7
421
 16777215
 74
     1
 91
        4
 64
     7
 65
   257
 75
     1
175
     1
 42
1.0
 92
        0
 66
   257
 43
1.0
 76
     1
 77
     6
 78
     2
 67
     7
 79
     5
170
     0
171
     0
290
     0
174
     0
 93
       13
 44
0.0
173
     0
291
     1
 45
0.0
  0
VISUALSTYLE
  5
38
102
{ACAD_REACTORS
330
2A
102
}
102
{ACAD_XDICTIONARY
360
9C
102
}
330
2A
100
AcDbVisualStyle
  2
Linepattern
 70
    14
 71
     2
 72
     2
 73
     0
 90
        0
 40
-0.6
 41
-30.0
 62
     5
 63
     7
421
 16777215
 74
     1
 91
        4
 64
     7
 65
   257
 75
     7
175
     7
 42
1.0
 92
        8
 66
     7
 43
1.0
 76
     1
 77
     6
 78
     2
 67
     7
 79
     5
170
     0
171
     0
290
     0
174
     0
 93
        1
 44
0.0
173
     0
291
     1
 45
0.0
  0
VISUALSTYLE
  5
33
102
{ACAD_REACTORS
330
2A
102
}
102
{ACAD_XDICTIONARY
360
92
102
}
330
2A
100
AcDbVisualStyle
  2
Realistic
 70
     8
 71
     2
 72
     2
 73
     0
 90
        0
 40
-0.6
 41
-30.0
 62
     5
 63
     7
421
 16777215
 74
     1
 91
        0
 64
     7
 65
   257
 75
     1
175
     1
 42
1.0
 92
        8
 66
     8
424
  7895160
 43
1.0
 76
     1
 77
     6
 78
     2
 67
     7
 79
     5
170
     0
171
     0
290
     0
174
     0
 93
       13
 44
0.0
173
     0
291
     0
 45
0.0
  0
VISUALSTYLE
  5
37
102
{ACAD_REACTORS
330
2A
102
}
102
{ACAD_XDICTIONARY
360
9A
102
}
330
2A
100
AcDbVisualStyle
  2
Thicken
 70
    13
 71
     2
 72
     2
 73
     0
 90
        0
 40
-0.6
 41
-30.0
 62
     5
 63
     7
421
 16777215
 74
     1
 91
        4
 64
     7
 65
   257
 75
     1
175
     1
 42
1.0
 92
       12
 66
     7
 43
1.0
 76
     1
 77
     6
 78
     2
 67
     7
 79
     5
170
     0
171
     0
290
     0
174
     0
 93
        1
 44
0.0
173
     0
291
     1
 45
0.0
  0
DICTIONARY
  5
8A
330
2F
100
AcDbDictionary
280
     1
281
     1
  3
ACAD_XREC_ROUNDTRIP
360
8B
  0
DICTIONARY
  5
8E
330
31
100
AcDbDictionary
280
     1
281
     1
  3
ACAD_XREC_ROUNDTRIP
360
8F
  0
DICTIONARY
  5
8C
330
30
100
AcDbDictionary
280
     1
281
     1
  3
ACAD_XREC_ROUNDTRIP
360
8D
  0
DICTIONARY
  5
90
330
32
100
AcDbDictionary
280
     1
281
     1
  3
ACAD_XREC_ROUNDTRIP
360
91
  0
DICTIONARY
  5
98
330
36
100
AcDbDictionary
280
     1
281
     1
  3
ACAD_XREC_ROUNDTRIP
360
99
  0
DICTIONARY
  5
A0
330
3A
100
AcDbDictionary
280
     1
281
     1
  3
ACAD_XREC_ROUNDTRIP
360
A1
  0
DICTIONARY
  5
94
330
34
100
AcDbDictionary
280
     1
281
     1
  3
ACAD_XREC_ROUNDTRIP
360
95
  0
DICTIONARY
  5
96
330
35
100
AcDbDictionary
280
     1
281
     1
  3
ACAD_XREC_ROUNDTRIP
360
97
  0
DICTIONARY
  5
9E
330
39
100
AcDbDictionary
280
     1
281
     1
  3
ACAD_XREC_ROUNDTRIP
360
9F
  0
DICTIONARY
  5
82
330
2B
100
AcDbDictionary
280
     1
281
     1
  3
ACAD_XREC_ROUNDTRIP
360
83
  0
DICTIONARY
  5
84
330
2C
100
AcDbDictionary
280
     1
281
     1
  3
ACAD_XREC_ROUNDTRIP
360
85
  0
DICTIONARY
  5
86
330
2D
100
AcDbDictionary
280
     1
281
     1
  3
ACAD_XREC_ROUNDTRIP
360
87
  0
DICTIONARY
  5
88
330
2E
100
AcDbDictionary
280
     1
281
     1
  3
ACAD_XREC_ROUNDTRIP
360
89
  0
DICTIONARY
  5
9C
330
38
100
AcDbDictionary
280
     1
281
     1
  3
ACAD_XREC_ROUNDTRIP
360
9D
  0
DICTIONARY
  5
92
330
33
100
AcDbDictionary
280
     1
281
     1
  3
ACAD_XREC_ROUNDTRIP
360
93
  0
DICTIONARY
  5
9A
330
37
100
AcDbDictionary
280
     1
281
     1
  3
ACAD_XREC_ROUNDTRIP
360
9B
  0
XRECORD
  5
8B
102
{ACAD_REACTORS
330
8A
102
}
330
8A
100
AcDbXrecord
280
     1
102
RTVSPropertyOp0
 70
     1
102
RTVSPropertyOp1
 70
     1
102
RTVSPropertyOp2
 70
     1
102
RTVSPropertyOp3
 70
     1
102
RTVSPropertyOp4
 70
     1
102
RTVSPropertyOp5
 70
     1
102
RTVSPropertyOp6
 70
     1
102
RTVSPropertyOp7
 70
     1
102
RTVSPropertyOp8
 70
     1
102
RTVSPropertyOp9
 70
     1
102
RTVSPropertyOp10
 70
     1
102
RTVSPropertyOp11
 70
     1
102
RTVSPropertyOp12
 70
     1
102
RTVSPropertyOp13
 70
     1
102
RTVSPropertyOp14
 70
     1
102
RTVSPropertyOp15
 70
     1
102
RTVSPropertyOp16
 70
     1
102
RTVSPropertyOp17
 70
     1
102
RTVSPropertyOp18
 70
     1
102
RTVSPropertyOp19
 70
     1
102
RTVSPropertyOp20
 70
     1
102
RTVSPropertyOp21
 70
     1
102
RTVSPropertyOp22
 70
     1
102
RTVSPropertyOp23
 70
     1
102
RTVSPropertyOp24
 70
     1
102
RTVSPropertyOp25
 70
     1
102
RTVSPropertyOp26
 70
     1
102
RTVSPropertyOp27
 70
     1
102
RTVSPropertyOp28
 70
     1
102
RTVSPropertyOp29
 70
     1
102
RTVSPropertyOp30
 70
     1
102
RTVSPropertyOp31
 70
     1
102
RTVSPropertyOp32
 70
     1
  0
XRECORD
  5
8F
102
{ACAD_REACTORS
330
8E
102
}
330
8E
100
AcDbXrecord
280
     1
102
RTVSPropertyOp0
 70
     1
102
RTVSPropertyOp1
 70
     1
102
RTVSPropertyOp2
 70
     1
102
RTVSPropertyOp3
 70
     1
102
RTVSPropertyOp4
 70
     1
102
RTVSPropertyOp5
 70
     1
102
RTVSPropertyOp6
 70
     1
102
RTVSPropertyOp7
 70
     1
102
RTVSPropertyOp8
 70
     1
102
RTVSPropertyOp9
 70
     1
102
RTVSPropertyOp10
 70
     1
102
RTVSPropertyOp11
 70
     1
102
RTVSPropertyOp12
 70
     1
102
RTVSPropertyOp13
 70
     1
102
RTVSPropertyOp14
 70
     1
102
RTVSPropertyOp15
 70
     1
102
RTVSPropertyOp16
 70
     1
102
RTVSPropertyOp17
 70
     1
102
RTVSPropertyOp18
 70
     1
102
RTVSPropertyOp19
 70
     1
102
RTVSPropertyOp20
 70
     1
102
RTVSPropertyOp21
 70
     1
102
RTVSPropertyOp22
 70
     1
102
RTVSPropertyOp23
 70
     1
102
RTVSPropertyOp24
 70
     1
102
RTVSPropertyOp25
 70
     1
102
RTVSPropertyOp26
 70
     1
102
RTVSPropertyOp27
 70
     1
102
RTVSPropertyOp28
 70
     1
102
RTVSPropertyOp29
 70
     1
102
RTVSPropertyOp30
 70
     1
102
RTVSPropertyOp31
 70
     1
102
RTVSPropertyOp32
 70
     1
  0
XRECORD
  5
8D
102
{ACAD_REACTORS
330
8C
102
}
330
8C
100
AcDbXrecord
280
     1
102
RTVSPropertyOp0
 70
     1
102
RTVSPropertyOp1
 70
     1
102
RTVSPropertyOp2
 70
     1
102
RTVSPropertyOp3
 70
     1
102
RTVSPropertyOp4
 70
     1
102
RTVSPropertyOp5
 70
     1
102
RTVSPropertyOp6
 70
     1
102
RTVSPropertyOp7
 70
     1
102
RTVSPropertyOp8
 70
     1
102
RTVSPropertyOp9
 70
     1
102
RTVSPropertyOp10
 70
     1
102
RTVSPropertyOp11
 70
     1
102
RTVSPropertyOp12
 70
     1
102
RTVSPropertyOp13
 70
     1
102
RTVSPropertyOp14
 70
     1
102
RTVSPropertyOp15
 70
     1
102
RTVSPropertyOp16
 70
     1
102
RTVSPropertyOp17
 70
     1
102
RTVSPropertyOp18
 70
     1
102
RTVSPropertyOp19
 70
     1
102
RTVSPropertyOp20
 70
     1
102
RTVSPropertyOp21
 70
     1
102
RTVSPropertyOp22
 70
     1
102
RTVSPropertyOp23
 70
     1
102
RTVSPropertyOp24
 70
     1
102
RTVSPropertyOp25
 70
     1
102
RTVSPropertyOp26
 70
     1
102
RTVSPropertyOp27
 70
     1
102
RTVSPropertyOp28
 70
     1
102
RTVSPropertyOp29
 70
     1
102
RTVSPropertyOp30
 70
     1
102
RTVSPropertyOp31
 70
     1
102
RTVSPropertyOp32
 70
     1
  0
XRECORD
  5
91
102
{ACAD_REACTORS
330
90
102
}
330
90
100
AcDbXrecord
280
     1
102
RTVSPropertyOp0
 70
     1
102
RTVSPropertyOp1
 70
     1
102
RTVSPropertyOp2
 70
     1
102
RTVSPropertyOp3
 70
     1
102
RTVSPropertyOp4
 70
     1
102
RTVSPropertyOp5
 70
     1
102
RTVSPropertyOp6
 70
     1
102
RTVSPropertyOp7
 70
     1
102
RTVSPropertyOp8
 70
     1
102
RTVSPropertyOp9
 70
     1
102
RTVSPropertyOp10
 70
     1
102
RTVSPropertyOp11
 70
     1
102
RTVSPropertyOp12
 70
     1
102
RTVSPropertyOp13
 70
     1
102
RTVSPropertyOp14
 70
     1
102
RTVSPropertyOp15
 70
     1
102
RTVSPropertyOp16
 70
     1
102
RTVSPropertyOp17
 70
     1
102
RTVSPropertyOp18
 70
     1
102
RTVSPropertyOp19
 70
     1
102
RTVSPropertyOp20
 70
     1
102
RTVSPropertyOp21
 70
     1
102
RTVSPropertyOp22
 70
     1
102
RTVSPropertyOp23
 70
     1
102
RTVSPropertyOp24
 70
     1
102
RTVSPropertyOp25
 70
     1
102
RTVSPropertyOp26
 70
     1
102
RTVSPropertyOp27
 70
     1
102
RTVSPropertyOp28
 70
     1
102
RTVSPropertyOp29
 70
     1
102
RTVSPropertyOp30
 70
     1
102
RTVSPropertyOp31
 70
     1
102
RTVSPropertyOp32
 70
     1
  0
XRECORD
  5
99
102
{ACAD_REACTORS
330
98
102
}
330
98
100
AcDbXrecord
280
     1
102
RTVSPropertyOp0
 70
     1
102
RTVSPropertyOp1
 70
     1
102
RTVSPropertyOp2
 70
     1
102
RTVSPropertyOp3
 70
     1
102
RTVSPropertyOp4
 70
     1
102
RTVSPropertyOp5
 70
     1
102
RTVSPropertyOp6
 70
     1
102
RTVSPropertyOp7
 70
     1
102
RTVSPropertyOp8
 70
     1
102
RTVSPropertyOp9
 70
     1
102
RTVSPropertyOp10
 70
     1
102
RTVSPropertyOp11
 70
     1
102
RTVSPropertyOp12
 70
     1
102
RTVSPropertyOp13
 70
     1
102
RTVSPropertyOp14
 70
     1
102
RTVSPropertyOp15
 70
     1
102
RTVSPropertyOp16
 70
     1
102
RTVSPropertyOp17
 70
     1
102
RTVSPropertyOp18
 70
     1
102
RTVSPropertyOp19
 70
     1
102
RTVSPropertyOp20
 70
     1
102
RTVSPropertyOp21
 70
     1
102
RTVSPropertyOp22
 70
     1
102
RTVSPropertyOp23
 70
     1
102
RTVSPropertyOp24
 70
     1
102
RTVSPropertyOp25
 70
     1
102
RTVSPropertyOp26
 70
     1
102
RTVSPropertyOp27
 70
     1
102
RTVSPropertyOp28
 70
     1
102
RTVSPropertyOp29
 70
     1
102
RTVSPropertyOp30
 70
     1
102
RTVSPropertyOp31
 70
     1
102
RTVSPropertyOp32
 70
     1
  0
XRECORD
  5
A1
102
{ACAD_REACTORS
330
A0
102
}
330
A0
100
AcDbXrecord
280
     1
102
RTVSPropertyOp0
 70
     1
102
RTVSPropertyOp1
 70
     1
102
RTVSPropertyOp2
 70
     1
102
RTVSPropertyOp3
 70
     1
102
RTVSPropertyOp4
 70
     1
102
RTVSPropertyOp5
 70
     1
102
RTVSPropertyOp6
 70
     1
102
RTVSPropertyOp7
 70
     1
102
RTVSPropertyOp8
 70
     1
102
RTVSPropertyOp9
 70
     1
102
RTVSPropertyOp10
 70
     1
102
RTVSPropertyOp11
 70
     1
102
RTVSPropertyOp12
 70
     1
102
RTVSPropertyOp13
 70
     1
102
RTVSPropertyOp14
 70
     1
102
RTVSPropertyOp15
 70
     1
102
RTVSPropertyOp16
 70
     1
102
RTVSPropertyOp17
 70
     1
102
RTVSPropertyOp18
 70
     1
102
RTVSPropertyOp19
 70
     1
102
RTVSPropertyOp20
 70
     1
102
RTVSPropertyOp21
 70
     1
102
RTVSPropertyOp22
 70
     1
102
RTVSPropertyOp23
 70
     1
102
RTVSPropertyOp24
 70
     1
102
RTVSPropertyOp25
 70
     1
102
RTVSPropertyOp26
 70
     1
102
RTVSPropertyOp27
 70
     1
102
RTVSPropertyOp28
 70
     1
102
RTVSPropertyOp29
 70
     1
102
RTVSPropertyOp30
 70
     1
102
RTVSPropertyOp31
 70
     1
102
RTVSPropertyOp32
 70
     1
  0
XRECORD
  5
95
102
{ACAD_REACTORS
330
94
102
}
330
94
100
AcDbXrecord
280
     1
102
RTVSPropertyOp0
 70
     1
102
RTVSPropertyOp1
 70
     1
102
RTVSPropertyOp2
 70
     1
102
RTVSPropertyOp3
 70
     1
102
RTVSPropertyOp4
 70
     1
102
RTVSPropertyOp5
 70
     1
102
RTVSPropertyOp6
 70
     1
102
RTVSPropertyOp7
 70
     1
102
RTVSPropertyOp8
 70
     1
102
RTVSPropertyOp9
 70
     1
102
RTVSPropertyOp10
 70
     1
102
RTVSPropertyOp11
 70
     1
102
RTVSPropertyOp12
 70
     1
102
RTVSPropertyOp13
 70
     1
102
RTVSPropertyOp14
 70
     1
102
RTVSPropertyOp15
 70
     1
102
RTVSPropertyOp16
 70
     1
102
RTVSPropertyOp17
 70
     1
102
RTVSPropertyOp18
 70
     1
102
RTVSPropertyOp19
 70
     1
102
RTVSPropertyOp20
 70
     1
102
RTVSPropertyOp21
 70
     1
102
RTVSPropertyOp22
 70
     1
102
RTVSPropertyOp23
 70
     1
102
RTVSPropertyOp24
 70
     1
102
RTVSPropertyOp25
 70
     1
102
RTVSPropertyOp26
 70
     1
102
RTVSPropertyOp27
 70
     1
102
RTVSPropertyOp28
 70
     1
102
RTVSPropertyOp29
 70
     1
102
RTVSPropertyOp30
 70
     1
102
RTVSPropertyOp31
 70
     1
102
RTVSPropertyOp32
 70
     1
  0
XRECORD
  5
97
102
{ACAD_REACTORS
330
96
102
}
330
96
100
AcDbXrecord
280
     1
102
RTVSPropertyOp0
 70
     1
102
RTVSPropertyOp1
 70
     1
102
RTVSPropertyOp2
 70
     1
102
RTVSPropertyOp3
 70
     1
102
RTVSPropertyOp4
 70
     1
102
RTVSPropertyOp5
 70
     1
102
RTVSPropertyOp6
 70
     1
102
RTVSPropertyOp7
 70
     1
102
RTVSPropertyOp8
 70
     1
102
RTVSPropertyOp9
 70
     1
102
RTVSPropertyOp10
 70
     1
102
RTVSPropertyOp11
 70
     1
102
RTVSPropertyOp12
 70
     1
102
RTVSPropertyOp13
 70
     1
102
RTVSPropertyOp14
 70
     1
102
RTVSPropertyOp15
 70
     1
102
RTVSPropertyOp16
 70
     1
102
RTVSPropertyOp17
 70
     1
102
RTVSPropertyOp18
 70
     1
102
RTVSPropertyOp19
 70
     1
102
RTVSPropertyOp20
 70
     1
102
RTVSPropertyOp21
 70
     1
102
RTVSPropertyOp22
 70
     1
102
RTVSPropertyOp23
 70
     1
102
RTVSPropertyOp24
 70
     1
102
RTVSPropertyOp25
 70
     1
102
RTVSPropertyOp26
 70
     1
102
RTVSPropertyOp27
 70
     1
102
RTVSPropertyOp28
 70
     1
102
RTVSPropertyOp29
 70
     1
102
RTVSPropertyOp30
 70
     1
102
RTVSPropertyOp31
 70
     1
102
RTVSPropertyOp32
 70
     1
  0
XRECORD
  5
9F
102
{ACAD_REACTORS
330
9E
102
}
330
9E
100
AcDbXrecord
280
     1
102
RTVSPropertyOp0
 70
     1
102
RTVSPropertyOp1
 70
     1
102
RTVSPropertyOp2
 70
     1
102
RTVSPropertyOp3
 70
     1
102
RTVSPropertyOp4
 70
     1
102
RTVSPropertyOp5
 70
     1
102
RTVSPropertyOp6
 70
     1
102
RTVSPropertyOp7
 70
     1
102
RTVSPropertyOp8
 70
     1
102
RTVSPropertyOp9
 70
     1
102
RTVSPropertyOp10
 70
     1
102
RTVSPropertyOp11
 70
     1
102
RTVSPropertyOp12
 70
     1
102
RTVSPropertyOp13
 70
     1
102
RTVSPropertyOp14
 70
     1
102
RTVSPropertyOp15
 70
     1
102
RTVSPropertyOp16
 70
     1
102
RTVSPropertyOp17
 70
     1
102
RTVSPropertyOp18
 70
     1
102
RTVSPropertyOp19
 70
     1
102
RTVSPropertyOp20
 70
     1
102
RTVSPropertyOp21
 70
     1
102
RTVSPropertyOp22
 70
     1
102
RTVSPropertyOp23
 70
     1
102
RTVSPropertyOp24
 70
     1
102
RTVSPropertyOp25
 70
     1
102
RTVSPropertyOp26
 70
     1
102
RTVSPropertyOp27
 70
     1
102
RTVSPropertyOp28
 70
     1
102
RTVSPropertyOp29
 70
     1
102
RTVSPropertyOp30
 70
     1
102
RTVSPropertyOp31
 70
     1
102
RTVSPropertyOp32
 70
     1
  0
XRECORD
  5
83
102
{ACAD_REACTORS
330
82
102
}
330
82
100
AcDbXrecord
280
     1
102
RTVSPropertyOp0
 70
     1
102
RTVSPropertyOp1
 70
     1
102
RTVSPropertyOp2
 70
     1
102
RTVSPropertyOp3
 70
     1
102
RTVSPropertyOp4
 70
     1
102
RTVSPropertyOp5
 70
     1
102
RTVSPropertyOp6
 70
     1
102
RTVSPropertyOp7
 70
     1
102
RTVSPropertyOp8
 70
     1
102
RTVSPropertyOp9
 70
     1
102
RTVSPropertyOp10
 70
     1
102
RTVSPropertyOp11
 70
     1
102
RTVSPropertyOp12
 70
     1
102
RTVSPropertyOp13
 70
     1
102
RTVSPropertyOp14
 70
     1
102
RTVSPropertyOp15
 70
     1
102
RTVSPropertyOp16
 70
     1
102
RTVSPropertyOp17
 70
     1
102
RTVSPropertyOp18
 70
     1
102
RTVSPropertyOp19
 70
     1
102
RTVSPropertyOp20
 70
     1
102
RTVSPropertyOp21
 70
     1
102
RTVSPropertyOp22
 70
     1
102
RTVSPropertyOp23
 70
     1
102
RTVSPropertyOp24
 70
     1
102
RTVSPropertyOp25
 70
     1
102
RTVSPropertyOp26
 70
     1
102
RTVSPropertyOp27
 70
     1
102
RTVSPropertyOp28
 70
     1
102
RTVSPropertyOp29
 70
     1
102
RTVSPropertyOp30
 70
     1
102
RTVSPropertyOp31
 70
     1
102
RTVSPropertyOp32
 70
     1
  0
XRECORD
  5
85
102
{ACAD_REACTORS
330
84
102
}
330
84
100
AcDbXrecord
280
     1
102
RTVSPropertyOp0
 70
     1
102
RTVSPropertyOp1
 70
     1
102
RTVSPropertyOp2
 70
     1
102
RTVSPropertyOp3
 70
     1
102
RTVSPropertyOp4
 70
     1
102
RTVSPropertyOp5
 70
     1
102
RTVSPropertyOp6
 70
     1
102
RTVSPropertyOp7
 70
     1
102
RTVSPropertyOp8
 70
     1
102
RTVSPropertyOp9
 70
     1
102
RTVSPropertyOp10
 70
     1
102
RTVSPropertyOp11
 70
     1
102
RTVSPropertyOp12
 70
     1
102
RTVSPropertyOp13
 70
     1
102
RTVSPropertyOp14
 70
     1
102
RTVSPropertyOp15
 70
     1
102
RTVSPropertyOp16
 70
     1
102
RTVSPropertyOp17
 70
     1
102
RTVSPropertyOp18
 70
     1
102
RTVSPropertyOp19
 70
     1
102
RTVSPropertyOp20
 70
     1
102
RTVSPropertyOp21
 70
     1
102
RTVSPropertyOp22
 70
     1
102
RTVSPropertyOp23
 70
     1
102
RTVSPropertyOp24
 70
     1
102
RTVSPropertyOp25
 70
     1
102
RTVSPropertyOp26
 70
     1
102
RTVSPropertyOp27
 70
     1
102
RTVSPropertyOp28
 70
     1
102
RTVSPropertyOp29
 70
     1
102
RTVSPropertyOp30
 70
     1
102
RTVSPropertyOp31
 70
     1
102
RTVSPropertyOp32
 70
     1
  0
XRECORD
  5
87
102
{ACAD_REACTORS
330
86
102
}
330
86
100
AcDbXrecord
280
     1
102
RTVSPropertyOp0
 70
     1
102
RTVSPropertyOp1
 70
     1
102
RTVSPropertyOp2
 70
     1
102
RTVSPropertyOp3
 70
     1
102
RTVSPropertyOp4
 70
     1
102
RTVSPropertyOp5
 70
     1
102
RTVSPropertyOp6
 70
     1
102
RTVSPropertyOp7
 70
     1
102
RTVSPropertyOp8
 70
     1
102
RTVSPropertyOp9
 70
     1
102
RTVSPropertyOp10
 70
     1
102
RTVSPropertyOp11
 70
     1
102
RTVSPropertyOp12
 70
     1
102
RTVSPropertyOp13
 70
     1
102
RTVSPropertyOp14
 70
     1
102
RTVSPropertyOp15
 70
     1
102
RTVSPropertyOp16
 70
     1
102
RTVSPropertyOp17
 70
     1
102
RTVSPropertyOp18
 70
     1
102
RTVSPropertyOp19
 70
     1
102
RTVSPropertyOp20
 70
     1
102
RTVSPropertyOp21
 70
     1
102
RTVSPropertyOp22
 70
     1
102
RTVSPropertyOp23
 70
     1
102
RTVSPropertyOp24
 70
     1
102
RTVSPropertyOp25
 70
     1
102
RTVSPropertyOp26
 70
     1
102
RTVSPropertyOp27
 70
     1
102
RTVSPropertyOp28
 70
     1
102
RTVSPropertyOp29
 70
     1
102
RTVSPropertyOp30
 70
     1
102
RTVSPropertyOp31
 70
     1
102
RTVSPropertyOp32
 70
     1
  0
XRECORD
  5
89
102
{ACAD_REACTORS
330
88
102
}
330
88
100
AcDbXrecord
280
     1
102
RTVSPropertyOp0
 70
     1
102
RTVSPropertyOp1
 70
     1
102
RTVSPropertyOp2
 70
     1
102
RTVSPropertyOp3
 70
     1
102
RTVSPropertyOp4
 70
     1
102
RTVSPropertyOp5
 70
     1
102
RTVSPropertyOp6
 70
     1
102
RTVSPropertyOp7
 70
     1
102
RTVSPropertyOp8
 70
     1
102
RTVSPropertyOp9
 70
     1
102
RTVSPropertyOp10
 70
     1
102
RTVSPropertyOp11
 70
     1
102
RTVSPropertyOp12
 70
     1
102
RTVSPropertyOp13
 70
     1
102
RTVSPropertyOp14
 70
     1
102
RTVSPropertyOp15
 70
     1
102
RTVSPropertyOp16
 70
     1
102
RTVSPropertyOp17
 70
     1
102
RTVSPropertyOp18
 70
     1
102
RTVSPropertyOp19
 70
     1
102
RTVSPropertyOp20
 70
     1
102
RTVSPropertyOp21
 70
     1
102
RTVSPropertyOp22
 70
     1
102
RTVSPropertyOp23
 70
     1
102
RTVSPropertyOp24
 70
     1
102
RTVSPropertyOp25
 70
     1
102
RTVSPropertyOp26
 70
     1
102
RTVSPropertyOp27
 70
     1
102
RTVSPropertyOp28
 70
     1
102
RTVSPropertyOp29
 70
     1
102
RTVSPropertyOp30
 70
     1
102
RTVSPropertyOp31
 70
     1
102
RTVSPropertyOp32
 70
     1
  0
XRECORD
  5
9D
102
{ACAD_REACTORS
330
9C
102
}
330
9C
100
AcDbXrecord
280
     1
102
RTVSPropertyOp0
 70
     1
102
RTVSPropertyOp1
 70
     1
102
RTVSPropertyOp2
 70
     1
102
RTVSPropertyOp3
 70
     1
102
RTVSPropertyOp4
 70
     1
102
RTVSPropertyOp5
 70
     1
102
RTVSPropertyOp6
 70
     1
102
RTVSPropertyOp7
 70
     1
102
RTVSPropertyOp8
 70
     1
102
RTVSPropertyOp9
 70
     1
102
RTVSPropertyOp10
 70
     1
102
RTVSPropertyOp11
 70
     1
102
RTVSPropertyOp12
 70
     1
102
RTVSPropertyOp13
 70
     1
102
RTVSPropertyOp14
 70
     1
102
RTVSPropertyOp15
 70
     1
102
RTVSPropertyOp16
 70
     1
102
RTVSPropertyOp17
 70
     1
102
RTVSPropertyOp18
 70
     1
102
RTVSPropertyOp19
 70
     1
102
RTVSPropertyOp20
 70
     1
102
RTVSPropertyOp21
 70
     1
102
RTVSPropertyOp22
 70
     1
102
RTVSPropertyOp23
 70
     1
102
RTVSPropertyOp24
 70
     1
102
RTVSPropertyOp25
 70
     1
102
RTVSPropertyOp26
 70
     1
102
RTVSPropertyOp27
 70
     1
102
RTVSPropertyOp28
 70
     1
102
RTVSPropertyOp29
 70
     1
102
RTVSPropertyOp30
 70
     1
102
RTVSPropertyOp31
 70
     1
102
RTVSPropertyOp32
 70
     1
  0
XRECORD
  5
93
102
{ACAD_REACTORS
330
92
102
}
330
92
100
AcDbXrecord
280
     1
102
RTVSPropertyOp0
 70
     1
102
RTVSPropertyOp1
 70
     1
102
RTVSPropertyOp2
 70
     1
102
RTVSPropertyOp3
 70
     1
102
RTVSPropertyOp4
 70
     1
102
RTVSPropertyOp5
 70
     1
102
RTVSPropertyOp6
 70
     1
102
RTVSPropertyOp7
 70
     1
102
RTVSPropertyOp8
 70
     1
102
RTVSPropertyOp9
 70
     1
102
RTVSPropertyOp10
 70
     1
102
RTVSPropertyOp11
 70
     1
102
RTVSPropertyOp12
 70
     1
102
RTVSPropertyOp13
 70
     1
102
RTVSPropertyOp14
 70
     1
102
RTVSPropertyOp15
 70
     1
102
RTVSPropertyOp16
 70
     1
102
RTVSPropertyOp17
 70
     1
102
RTVSPropertyOp18
 70
     1
102
RTVSPropertyOp19
 70
     1
102
RTVSPropertyOp20
 70
     1
102
RTVSPropertyOp21
 70
     1
102
RTVSPropertyOp22
 70
     1
102
RTVSPropertyOp23
 70
     1
102
RTVSPropertyOp24
 70
     1
102
RTVSPropertyOp25
 70
     1
102
RTVSPropertyOp26
 70
     1
102
RTVSPropertyOp27
 70
     1
102
RTVSPropertyOp28
 70
     1
102
RTVSPropertyOp29
 70
     1
102
RTVSPropertyOp30
 70
     1
102
RTVSPropertyOp31
 70
     1
102
RTVSPropertyOp32
 70
     1
  0
XRECORD
  5
9B
102
{ACAD_REACTORS
330
9A
102
}
330
9A
100
AcDbXrecord
280
     1
102
RTVSPropertyOp0
 70
     1
102
RTVSPropertyOp1
 70
     1
102
RTVSPropertyOp2
 70
     1
102
RTVSPropertyOp3
 70
     1
102
RTVSPropertyOp4
 70
     1
102
RTVSPropertyOp5
 70
     1
102
RTVSPropertyOp6
 70
     1
102
RTVSPropertyOp7
 70
     1
102
RTVSPropertyOp8
 70
     1
102
RTVSPropertyOp9
 70
     1
102
RTVSPropertyOp10
 70
     1
102
RTVSPropertyOp11
 70
     1
102
RTVSPropertyOp12
 70
     1
102
RTVSPropertyOp13
 70
     1
102
RTVSPropertyOp14
 70
     1
102
RTVSPropertyOp15
 70
     1
102
RTVSPropertyOp16
 70
     1
102
RTVSPropertyOp17
 70
     1
102
RTVSPropertyOp18
 70
     1
102
RTVSPropertyOp19
 70
     1
102
RTVSPropertyOp20
 70
     1
102
RTVSPropertyOp21
 70
     1
102
RTVSPropertyOp22
 70
     1
102
RTVSPropertyOp23
 70
     1
102
RTVSPropertyOp24
 70
     1
102
RTVSPropertyOp25
 70
     1
102
RTVSPropertyOp26
 70
     1
102
RTVSPropertyOp27
 70
     1
102
RTVSPropertyOp28
 70
     1
102
RTVSPropertyOp29
 70
     1
102
RTVSPropertyOp30
 70
     1
102
RTVSPropertyOp31
 70
     1
102
RTVSPropertyOp32
 70
     1
  0
ENDSEC
  0
EOF
