  0
SECTION
  2
HEADER
  9
$ACADVER
  1
AC1021
  9
$ACADMAINTVER
 70
    25
  9
$DWGCODEPAGE
  3
ANSI_1256
  9
$INSBASE
 10
0.0
 20
0.0
 30
0.0
  9
$EXTMIN
 10
-187.3435
 20
-115.6749
 30
0.0
  9
$EXTMAX
 10
24.1205
 20
131.8999
 30
0.0
  9
$LIMMIN
 10
0.0
 20
0.0
  9
$LIMMAX
 10
12.0
 20
9.0
  9
$ORTHOMODE
 70
     0
  9
$REGENMODE
 70
     1
  9
$FILLMODE
 70
     1
  9
$QTEXTMODE
 70
     0
  9
$MIRRTEXT
 70
     1
  9
$LTSCALE
 40
1.0
  9
$ATTMODE
 70
     1
  9
$TEXTSIZE
 40
0.2
  9
$TRACEWID
 40
0.05
  9
$TEXTSTYLE
  7
Standard
  9
$CLAYER
  8
0
  9
$CELTYPE
  6
ByLayer
  9
$CECOLOR
 62
   256
  9
$CELTSCALE
 40
1.0
  9
$DISPSILH
 70
     0
  9
$DIMSCALE
 40
1.0
  9
$DIMASZ
 40
0.18
  9
$DIMEXO
 40
0.0625
  9
$DIMDLI
 40
0.38
  9
$DIMRND
 40
0.0
  9
$DIMDLE
 40
0.0
  9
$DIMEXE
 40
0.18
  9
$DIMTP
 40
0.0
  9
$DIMTM
 40
0.0
  9
$DIMTXT
 40
0.18
  9
$DIMCEN
 40
0.09
  9
$DIMTSZ
 40
0.0
  9
$DIMTOL
 70
     0
  9
$DIMLIM
 70
     0
  9
$DIMTIH
 70
     1
  9
$DIMTOH
 70
     1
  9
$DIMSE1
 70
     0
  9
$DIMSE2
 70
     0
  9
$DIMTAD
 70
     0
  9
$DIMZIN
 70
     0
  9
$DIMBLK
  1

  9
$DIMASO
 70
     1
  9
$DIMSHO
 70
     1
  9
$DIMPOST
  1

  9
$DIMAPOST
  1

  9
$DIMALT
 70
     0
  9
$DIMALTD
 70
     2
  9
$DIMALTF
 40
25.4
  9
$DIMLFAC
 40
1.0
  9
$DIMTOFL
 70
     0
  9
$DIMTVP
 40
0.0
  9
$DIMTIX
 70
     0
  9
$DIMSOXD
 70
     0
  9
$DIMSAH
 70
     0
  9
$DIMBLK1
  1

  9
$DIMBLK2
  1

  9
$DIMSTYLE
  2
Standard
  9
$DIMCLRD
 70
     0
  9
$DIMCLRE
 70
     0
  9
$DIMCLRT
 70
     0
  9
$DIMTFAC
 40
1.0
  9
$DIMGAP
 40
0.09
  9
$DIMJUST
 70
     0
  9
$DIMSD1
 70
     0
  9
$DIMSD2
 70
     0
  9
$DIMTOLJ
 70
     1
  9
$DIMTZIN
 70
     0
  9
$DIMALTZ
 70
     0
  9
$DIMALTTZ
 70
     0
  9
$DIMUPT
 70
     0
  9
$DIMDEC
 70
     4
  9
$DIMTDEC
 70
     4
  9
$DIMALTU
 70
     2
  9
$DIMALTTD
 70
     2
  9
$DIMTXSTY
  7
Standard
  9
$DIMAUNIT
 70
     0
  9
$DIMADEC
 70
     0
  9
$DIMALTRND
 40
0.0
  9
$DIMAZIN
 70
     0
  9
$DIMDSEP
 70
    46
  9
$DIMATFIT
 70
     3
  9
$DIMFRAC
 70
     0
  9
$DIMLDRBLK
  1

  9
$DIMLUNIT
 70
     2
  9
$DIMLWD
 70
    -2
  9
$DIMLWE
 70
    -2
  9
$DIMTMOVE
 70
     0
  9
$DIMFXL
 40
1.0
  9
$DIMFXLON
 70
     0
  9
$DIMJOGANG
 40
0.7853981633974483
  9
$DIMTFILL
 70
     0
  9
$DIMTFILLCLR
 70
     0
  9
$DIMARCSYM
 70
     0
  9
$DIMLTYPE
  6

  9
$DIMLTEX1
  6

  9
$DIMLTEX2
  6

  9
$LUNITS
 70
     2
  9
$LUPREC
 70
     4
  9
$SKETCHINC
 40
0.1
  9
$FILLETRAD
 40
0.5
  9
$AUNITS
 70
     0
  9
$AUPREC
 70
     0
  9
$MENU
  1
.
  9
$ELEVATION
 40
0.0
  9
$PELEVATION
 40
0.0
  9
$THICKNESS
 40
0.0
  9
$LIMCHECK
 70
     0
  9
$CHAMFERA
 40
0.5
  9
$CHAMFERB
 40
0.5
  9
$CHAMFERC
 40
1.0
  9
$CHAMFERD
 40
0.0
  9
$SKPOLY
 70
     0
  9
$TDCREATE
 40
2458492.403969884
  9
$TDUCREATE
 40
2458492.237303217
  9
$TDUPDATE
 40
2458492.40397015
  9
$TDUUPDATE
 40
2458492.237303484
  9
$TDINDWG
 40
0.0000000116
  9
$TDUSRTIMER
 40
0.0000000116
  9
$USRTIMER
 70
     1
  9
$ANGBASE
 50
0.0
  9
$ANGDIR
 70
     0
  9
$PDMODE
 70
     0
  9
$PDSIZE
 40
0.0
  9
$PLINEWID
 40
0.0
  9
$SPLFRAME
 70
     0
  9
$SPLINETYPE
 70
     6
  9
$SPLINESEGS
 70
     8
  9
$HANDSEED
  5
10B
  9
$SURFTAB1
 70
     6
  9
$SURFTAB2
 70
     6
  9
$SURFTYPE
 70
     6
  9
$SURFU
 70
     6
  9
$SURFV
 70
     6
  9
$UCSBASE
  2

  9
$UCSNAME
  2

  9
$UCSORG
 10
0.0
 20
0.0
 30
0.0
  9
$UCSXDIR
 10
1.0
 20
0.0
 30
0.0
  9
$UCSYDIR
 10
0.0
 20
1.0
 30
0.0
  9
$UCSORTHOREF
  2

  9
$UCSORTHOVIEW
 70
     0
  9
$UCSORGTOP
 10
0.0
 20
0.0
 30
0.0
  9
$UCSORGBOTTOM
 10
0.0
 20
0.0
 30
0.0
  9
$UCSORGLEFT
 10
0.0
 20
0.0
 30
0.0
  9
$UCSORGRIGHT
 10
0.0
 20
0.0
 30
0.0
  9
$UCSORGFRONT
 10
0.0
 20
0.0
 30
0.0
  9
$UCSORGBACK
 10
0.0
 20
0.0
 30
0.0
  9
$PUCSBASE
  2

  9
$PUCSNAME
  2

  9
$PUCSORG
 10
0.0
 20
0.0
 30
0.0
  9
$PUCSXDIR
 10
1.0
 20
0.0
 30
0.0
  9
$PUCSYDIR
 10
0.0
 20
1.0
 30
0.0
  9
$PUCSORTHOREF
  2

  9
$PUCSORTHOVIEW
 70
     0
  9
$PUCSORGTOP
 10
0.0
 20
0.0
 30
0.0
  9
$PUCSORGBOTTOM
 10
0.0
 20
0.0
 30
0.0
  9
$PUCSORGLEFT
 10
0.0
 20
0.0
 30
0.0
  9
$PUCSORGRIGHT
 10
0.0
 20
0.0
 30
0.0
  9
$PUCSORGFRONT
 10
0.0
 20
0.0
 30
0.0
  9
$PUCSORGBACK
 10
0.0
 20
0.0
 30
0.0
  9
$USERI1
 70
     0
  9
$USERI2
 70
     0
  9
$USERI3
 70
     0
  9
$USERI4
 70
     0
  9
$USERI5
 70
     0
  9
$USERR1
 40
0.0
  9
$USERR2
 40
0.0
  9
$USERR3
 40
0.0
  9
$USERR4
 40
0.0
  9
$USERR5
 40
0.0
  9
$WORLDVIEW
 70
     1
  9
$SHADEDGE
 70
     3
  9
$SHADEDIF
 70
    70
  9
$TILEMODE
 70
     1
  9
$MAXACTVP
 70
    64
  9
$PINSBASE
 10
0.0
 20
0.0
 30
0.0
  9
$PLIMCHECK
 70
     0
  9
$PEXTMIN
 10
1.000000000000000E+20
 20
1.000000000000000E+20
 30
1.000000000000000E+20
  9
$PEXTMAX
 10
-1.000000000000000E+20
 20
-1.000000000000000E+20
 30
-1.000000000000000E+20
  9
$PLIMMIN
 10
0.0
 20
0.0
  9
$PLIMMAX
 10
12.0
 20
9.0
  9
$UNITMODE
 70
     0
  9
$VISRETAIN
 70
     1
  9
$PLINEGEN
 70
     0
  9
$PSLTSCALE
 70
     1
  9
$TREEDEPTH
 70
  3020
  9
$CMLSTYLE
  2
Standard
  9
$CMLJUST
 70
     0
  9
$CMLSCALE
 40
1.0
  9
$PROXYGRAPHICS
 70
     1
  9
$MEASUREMENT
 70
     0
  9
$CELWEIGHT
370
    -1
  9
$ENDCAPS
280
     0
  9
$JOINSTYLE
280
     0
  9
$LWDISPLAY
290
     0
  9
$INSUNITS
 70
     4
  9
$HYPERLINKBASE
  1

  9
$STYLESHEET
  1

  9
$XEDIT
290
     1
  9
$CEPSNTYPE
380
     0
  9
$PSTYLEMODE
290
     1
  9
$FINGERPRINTGUID
  2
{3112CDC5-E2A1-4171-8BB4-B83F61E908F1}
  9
$VERSIONGUID
  2
{FAEB1C32-E019-11D5-929B-00C0DF256EC4}
  9
$EXTNAMES
290
     1
  9
$PSVPSCALE
 40
0.0
  9
$OLESTARTUP
290
     0
  9
$SORTENTS
280
   127
  9
$INDEXCTL
280
     0
  9
$HIDETEXT
280
     1
  9
$XCLIPFRAME
290
     0
  9
$HALOGAP
280
     0
  9
$OBSCOLOR
 70
   257
  9
$OBSLTYPE
280
     0
  9
$INTERSECTIONDISPLAY
280
     0
  9
$INTERSECTIONCOLOR
 70
   257
  9
$DIMASSOC
280
     2
  9
$PROJECTNAME
  1

  9
$CAMERADISPLAY
290
     0
  9
$LENSLENGTH
 40
50.0
  9
$CAMERAHEIGHT
 40
0.0
  9
$STEPSPERSEC
 40
2.0
  9
$STEPSIZE
 40
6.0
  9
$3DDWFPREC
 40
2.0
  9
$PSOLWIDTH
 40
0.25
  9
$PSOLHEIGHT
 40
4.0
  9
$LOFTANG1
 40
1.570796326794897
  9
$LOFTANG2
 40
1.570796326794897
  9
$LOFTMAG1
 40
0.0
  9
$LOFTMAG2
 40
0.0
  9
$LOFTPARAM
 70
     7
  9
$LOFTNORMALS
280
     1
  9
$LATITUDE
 40
37.795
  9
$LONGITUDE
 40
-122.394
  9
$NORTHDIRECTION
 40
0.0
  9
$TIMEZONE
 70
 -8000
  9
$LIGHTGLYPHDISPLAY
280
     1
  9
$TILEMODELIGHTSYNCH
280
     1
  9
$SOLIDHIST
280
     1
  9
$SHOWHIST
280
     1
  9
$DWFFRAME
280
     2
  9
$DGNFRAME
280
     2
  9
$REALWORLDSCALE
290
     1
  9
$INTERFERECOLOR
 62
   256
  9
$CSHADOW
280
     0
  9
$SHADOWPLANELOCATION
 40
0.0
  0
ENDSEC
  0
SECTION
  2
CLASSES
  0
CLASS
  1
ACDBDICTIONARYWDFLT
  2
AcDbDictionaryWithDefault
  3
ObjectDBX Classes
 90
        0
 91
        4
280
     0
281
     0
  0
CLASS
  1
VISUALSTYLE
  2
AcDbVisualStyle
  3
ObjectDBX Classes
 90
     4095
 91
        4
280
     0
281
     0
  0
CLASS
  1
MATERIAL
  2
AcDbMaterial
  3
ObjectDBX Classes
 90
     1153
 91
        4
280
     0
281
     0
  0
ENDSEC
  0
SECTION
  2
TABLES
  0
TABLE
  2
VPORT
  5
8
330
0
100
AcDbSymbolTable
 70
     1
  0
VPORT
  5
29
330
8
100
AcDbSymbolTableRecord
100
AcDbViewportTableRecord
  2
*Active
 70
     0
 10
0.0
 20
0.0
 11
1.0
 21
1.0
 12
10.42990654205607
 22
4.5
 13
0.0
 23
0.0
 14
0.5
 24
0.5
 15
0.5
 25
0.5
 16
0.0
 26
0.0
 36
1.0
 17
0.0
 27
0.0
 37
0.0
 40
9.0
 41
1.972972972850329
 42
50.0
 43
0.0
 44
0.0
 50
0.0
 51
0.0
 71
     0
 72
   100
 73
     1
 74
     3
 75
     0
 76
     0
 77
     0
 78
     0
281
     0
 65
     1
110
0.0
120
0.0
130
0.0
111
1.0
121
0.0
131
0.0
112
0.0
122
1.0
132
0.0
 79
     0
146
0.0
 60
     3
 61
     5
292
     1
282
     1
141
0.0
142
0.0
 63
   250
  0
ENDTAB
  0
TABLE
  2
LTYPE
  5
5
330
0
100
AcDbSymbolTable
 70
     1
  0
LTYPE
  5
14
330
5
100
AcDbSymbolTableRecord
100
AcDbLinetypeTableRecord
  2
ByBlock
 70
     0
  3

 72
    65
 73
     0
 40
0.0
  0
LTYPE
  5
15
330
5
100
AcDbSymbolTableRecord
100
AcDbLinetypeTableRecord
  2
ByLayer
 70
     0
  3

 72
    65
 73
     0
 40
0.0
  0
LTYPE
  5
16
330
5
100
AcDbSymbolTableRecord
100
AcDbLinetypeTableRecord
  2
Continuous
 70
     0
  3
Solid line
 72
    65
 73
     0
 40
0.0
  0
ENDTAB
  0
TABLE
  2
LAYER
  5
2
330
0
100
AcDbSymbolTable
 70
     2
  0
LAYER
  5
10
330
2
100
AcDbSymbolTableRecord
100
AcDbLayerTableRecord
  2
0
 70
     0
 62
     7
  6
Continuous
370
    -3
390
F
347
3E
  0
LAYER
  5
40
330
2
100
AcDbSymbolTableRecord
100
AcDbLayerTableRecord
  2
layer 1
 70
     0
 62
     7
  6
Continuous
370
    -3
390
F
347
3E
  0
ENDTAB
  0
TABLE
  2
STYLE
  5
3
330
0
100
AcDbSymbolTable
 70
     1
  0
STYLE
  5
11
330
3
100
AcDbSymbolTableRecord
100
AcDbTextStyleTableRecord
  2
Standard
 70
     0
 40
0.0
 41
1.0
 50
0.0
 71
     0
 42
0.2
  3
txt
  4

  0
ENDTAB
  0
TABLE
  2
VIEW
  5
6
330
0
100
AcDbSymbolTable
 70
     0
  0
ENDTAB
  0
TABLE
  2
UCS
  5
7
330
0
100
AcDbSymbolTable
 70
     0
  0
ENDTAB
  0
TABLE
  2
APPID
  5
9
330
0
100
AcDbSymbolTable
 70
     2
  0
APPID
  5
12
330
9
100
AcDbSymbolTableRecord
100
AcDbRegAppTableRecord
  2
ACAD
 70
     0
  0
APPID
  5
3F
330
9
100
AcDbSymbolTableRecord
100
AcDbRegAppTableRecord
  2
ODA
 70
     0
  0
ENDTAB
  0
TABLE
  2
DIMSTYLE
  5
A
330
0
100
AcDbSymbolTable
 70
     1
100
AcDbDimStyleTable
  0
DIMSTYLE
105
27
330
A
100
AcDbSymbolTableRecord
100
AcDbDimStyleTableRecord
  2
Standard
 70
     0
178
     0
340
11
  0
ENDTAB
  0
TABLE
  2
BLOCK_RECORD
  5
1
330
0
100
AcDbSymbolTable
 70
     1
  0
BLOCK_RECORD
  5
1F
330
1
100
AcDbSymbolTableRecord
100
AcDbBlockTableRecord
  2
*Model_Space
340
22
 70
     0
280
     1
281
     0
  0
BLOCK_RECORD
  5
1B
330
1
100
AcDbSymbolTableRecord
100
AcDbBlockTableRecord
  2
*Paper_Space
340
1E
 70
     0
280
     1
281
     0
  0
BLOCK_RECORD
  5
23
330
1
100
AcDbSymbolTableRecord
100
AcDbBlockTableRecord
  2
*Paper_Space0
340
26
 70
     0
280
     1
281
     0
  0
ENDTAB
  0
ENDSEC
  0
SECTION
  2
BLOCKS
  0
BLOCK
  5
20
330
1F
100
AcDbEntity
  8
0
100
AcDbBlockBegin
  2
*Model_Space
 70
     0
 10
0.0
 20
0.0
 30
0.0
  3
*Model_Space
  1

  0
ENDBLK
  5
21
330
1F
100
AcDbEntity
  8
0
100
AcDbBlockEnd
  0
BLOCK
  5
1C
330
1B
100
AcDbEntity
 67
     1
  8
0
100
AcDbBlockBegin
  2
*Paper_Space
 70
     0
 10
0.0
 20
0.0
 30
0.0
  3
*Paper_Space
  1

  0
ENDBLK
  5
1D
330
1B
100
AcDbEntity
 67
     1
  8
0
100
AcDbBlockEnd
  0
BLOCK
  5
24
330
23
100
AcDbEntity
  8
0
100
AcDbBlockBegin
  2
*Paper_Space0
 70
     0
 10
0.0
 20
0.0
 30
0.0
  3
*Paper_Space0
  1

  0
ENDBLK
  5
25
330
23
100
AcDbEntity
  8
0
100
AcDbBlockEnd
  0
ENDSEC
  0
SECTION
  2
ENTITIES
  0
SPLINE
  5
41
330
1F
100
AcDbEntity
  8
layer 1
100
AcDbSpline
210
0.0
220
0.0
230
1.0
 70
    11
 71
     3
 72
    24
 73
    20
 74
     0
 42
0.0000000001
 43
0.0000000001
 12
1.0
 22
0.0
 32
0.0
 13
1.0
 23
0.0
 33
0.0
 40
0.0
 40
0.0
 40
0.0
 40
0.0
 40
0.1666666666666667
 40
0.1666666666666667
 40
0.1666666666666667
 40
0.1666666666666667
 40
0.3333333333333333
 40
0.3333333333333333
 40
0.3333333333333333
 40
0.3333333333333333
 40
0.5
 40
0.5
 40
0.5
 40
0.5
 40
0.6666666666666666
 40
0.6666666666666666
 40
0.6666666666666666
 40
0.6666666666666666
 40
1.0
 40
1.0
 40
1.0
 40
1.0
 10
-164.3952
 20
124.9441
 30
0.0
 10
-164.3952
 20
124.9441
 30
0.0
 10
-139.8461
 20
124.9441
 30
0.0
 10
-139.8461
 20
124.9441
 30
0.0
 10
-139.8461
 20
124.9441
 30
0.0
 10
-139.8461
 20
124.9441
 30
0.0
 10
-144.4921
 20
118.4237
 30
0.0
 10
-144.4921
 20
118.4237
 30
0.0
 10
-144.4921
 20
118.4237
 30
0.0
 10
-144.4921
 20
118.4237
 30
0.0
 10
-152.0999
 20
122.7801
 30
0.0
 10
-152.0999
 20
122.7801
 30
0.0
 10
-152.0999
 20
122.7801
 30
0.0
 10
-152.0999
 20
122.7801
 30
0.0
 10
-159.803
 20
118.318
 30
0.0
 10
-159.803
 20
118.318
 30
0.0
 10
-159.803
 20
118.318
 30
0.0
 10
-159.803
 20
118.318
 30
0.0
 10
-164.3952
 20
124.9441
 30
0.0
 10
-164.3952
 20
124.9441
 30
0.0
  0
SPLINE
  5
42
330
1F
100
AcDbEntity
  8
layer 1
100
AcDbSpline
210
0.0
220
0.0
230
1.0
 70
    11
 71
     3
 72
    20
 73
    16
 74
     0
 42
0.0000000001
 43
0.0000000001
 12
1.0
 22
0.0
 32
0.0
 13
1.0
 23
0.0
 33
0.0
 40
0.0
 40
0.0
 40
0.0
 40
0.0
 40
0.2
 40
0.2
 40
0.2
 40
0.2
 40
0.4
 40
0.4
 40
0.4
 40
0.4
 40
0.6
 40
0.6
 40
0.6
 40
0.6
 40
1.0
 40
1.0
 40
1.0
 40
1.0
 10
-180.1515
 20
124.9376
 30
0.0
 10
-180.1515
 20
124.9376
 30
0.0
 10
-170.0678
 20
124.9376
 30
0.0
 10
-170.0678
 20
124.9376
 30
0.0
 10
-170.0678
 20
124.9376
 30
0.0
 10
-170.0678
 20
124.9376
 30
0.0
 10
-164.1343
 20
115.7192
 30
0.0
 10
-164.1343
 20
115.7192
 30
0.0
 10
-164.1343
 20
115.7192
 30
0.0
 10
-164.204
 20
115.6645
 30
0.0
 10
-179.7538
 20
106.5031
 30
0.0
 10
-180.1502
 20
106.281
 30
0.0
 10
-180.1502
 20
106.281
 30
0.0
 10
-180.1502
 20
106.281
 30
0.0
 10
-180.1515
 20
124.9376
 30
0.0
 10
-180.1515
 20
124.9376
 30
0.0
  0
SPLINE
  5
43
330
1F
100
AcDbEntity
  8
layer 1
100
AcDbSpline
210
0.0
220
0.0
230
1.0
 70
    11
 71
     3
 72
    24
 73
    20
 74
     0
 42
0.0000000001
 43
0.0000000001
 12
1.0
 22
0.0
 32
0.0
 13
1.0
 23
0.0
 33
0.0
 40
0.0
 40
0.0
 40
0.0
 40
0.0
 40
0.1666666666666667
 40
0.1666666666666667
 40
0.1666666666666667
 40
0.1666666666666667
 40
0.3333333333333333
 40
0.3333333333333333
 40
0.3333333333333333
 40
0.3333333333333333
 40
0.5
 40
0.5
 40
0.5
 40
0.5
 40
0.6666666666666666
 40
0.6666666666666666
 40
0.6666666666666666
 40
0.6666666666666666
 40
1.0
 40
1.0
 40
1.0
 40
1.0
 10
-154.618
 20
88.0148
 30
0.0
 10
-154.618
 20
88.0148
 30
0.0
 10
-157.0891
 20
89.6724
 30
0.0
 10
-157.0891
 20
89.6724
 30
0.0
 10
-157.0891
 20
89.6724
 30
0.0
 10
-157.0891
 20
89.6724
 30
0.0
 10
-152.1123
 20
97.3684
 30
0.0
 10
-152.1123
 20
97.3684
 30
0.0
 10
-152.1123
 20
97.3684
 30
0.0
 10
-152.1123
 20
97.3684
 30
0.0
 10
-147.0684
 20
89.7047
 30
0.0
 10
-147.0684
 20
89.7047
 30
0.0
 10
-147.0684
 20
89.7047
 30
0.0
 10
-147.0684
 20
89.7047
 30
0.0
 10
-152.1193
 20
86.5823
 30
0.0
 10
-152.1193
 20
86.5823
 30
0.0
 10
-152.1193
 20
86.5823
 30
0.0
 10
-152.1193
 20
86.5823
 30
0.0
 10
-154.618
 20
88.0148
 30
0.0
 10
-154.618
 20
88.0148
 30
0.0
  0
SPLINE
  5
44
330
1F
100
AcDbEntity
  8
layer 1
100
AcDbSpline
210
0.0
220
0.0
230
1.0
 70
    11
 71
     3
 72
    20
 73
    16
 74
     0
 42
0.0000000001
 43
0.0000000001
 12
1.0
 22
0.0
 32
0.0
 13
1.0
 23
0.0
 33
0.0
 40
0.0
 40
0.0
 40
0.0
 40
0.0
 40
0.2
 40
0.2
 40
0.2
 40
0.2
 40
0.4
 40
0.4
 40
0.4
 40
0.4
 40
0.6
 40
0.6
 40
0.6
 40
0.6
 40
1.0
 40
1.0
 40
1.0
 40
1.0
 10
-177.7542
 20
101.9284
 30
0.0
 10
-177.7542
 20
101.9284
 30
0.0
 10
-161.3572
 20
111.7157
 30
0.0
 10
-161.3572
 20
111.7157
 30
0.0
 10
-161.3572
 20
111.7157
 30
0.0
 10
-161.3572
 20
111.7157
 30
0.0
 10
-154.9641
 20
101.9339
 30
0.0
 10
-154.9641
 20
101.9339
 30
0.0
 10
-154.9641
 20
101.9339
 30
0.0
 10
-154.9641
 20
101.9339
 30
0.0
 10
-161.5023
 20
92.1063
 30
0.0
 10
-161.5023
 20
92.1063
 30
0.0
 10
-161.5023
 20
92.1063
 30
0.0
 10
-161.5023
 20
92.1063
 30
0.0
 10
-177.7542
 20
101.9284
 30
0.0
 10
-177.7542
 20
101.9284
 30
0.0
  0
SPLINE
  5
45
330
1F
100
AcDbEntity
  8
layer 1
100
AcDbSpline
210
0.0
220
0.0
230
1.0
 70
    11
 71
     3
 72
    20
 73
    16
 74
     0
 42
0.0000000001
 43
0.0000000001
 12
1.0
 22
0.0
 32
0.0
 13
1.0
 23
0.0
 33
0.0
 40
0.0
 40
0.0
 40
0.0
 40
0.0
 40
0.2
 40
0.2
 40
0.2
 40
0.2
 40
0.4
 40
0.4
 40
0.4
 40
0.4
 40
0.6
 40
0.6
 40
0.6
 40
0.6
 40
1.0
 40
1.0
 40
1.0
 40
1.0
 10
-149.2829
 20
101.9149
 30
0.0
 10
-149.2829
 20
101.9149
 30
0.0
 10
-142.8623
 20
111.7143
 30
0.0
 10
-142.8623
 20
111.7143
 30
0.0
 10
-142.8623
 20
111.7143
 30
0.0
 10
-142.8623
 20
111.7143
 30
0.0
 10
-126.4516
 20
101.9301
 30
0.0
 10
-126.4516
 20
101.9301
 30
0.0
 10
-126.4516
 20
101.9301
 30
0.0
 10
-126.4516
 20
101.9301
 30
0.0
 10
-142.7124
 20
92.1629
 30
0.0
 10
-142.7124
 20
92.1629
 30
0.0
 10
-142.7124
 20
92.1629
 30
0.0
 10
-142.7124
 20
92.1629
 30
0.0
 10
-149.2829
 20
101.9149
 30
0.0
 10
-149.2829
 20
101.9149
 30
0.0
  0
SPLINE
  5
46
330
1F
100
AcDbEntity
  8
layer 1
100
AcDbSpline
210
0.0
220
0.0
230
1.0
 70
    11
 71
     3
 72
    20
 73
    16
 74
     0
 42
0.0000000001
 43
0.0000000001
 12
1.0
 22
0.0
 32
0.0
 13
1.0
 23
0.0
 33
0.0
 40
0.0
 40
0.0
 40
0.0
 40
0.0
 40
0.2
 40
0.2
 40
0.2
 40
0.2
 40
0.4
 40
0.4
 40
0.4
 40
0.4
 40
0.6
 40
0.6
 40
0.6
 40
0.6
 40
1.0
 40
1.0
 40
1.0
 40
1.0
 10
-187.3435
 20
107.4859
 30
0.0
 10
-187.3435
 20
107.4859
 30
0.0
 10
-187.3435
 20
124.9377
 30
0.0
 10
-187.3435
 20
124.9377
 30
0.0
 10
-187.3435
 20
124.9377
 30
0.0
 10
-187.3435
 20
124.9377
 30
0.0
 10
-184.9462
 20
124.9377
 30
0.0
 10
-184.9462
 20
124.9377
 30
0.0
 10
-184.9462
 20
124.9377
 30
0.0
 10
-184.9462
 20
124.9377
 30
0.0
 10
-185.126
 20
106.2479
 30
0.0
 10
-185.126
 20
106.2479
 30
0.0
 10
-185.126
 20
106.2479
 30
0.0
 10
-185.126
 20
106.2479
 30
0.0
 10
-187.3435
 20
107.4859
 30
0.0
 10
-187.3435
 20
107.4859
 30
0.0
  0
SPLINE
  5
47
330
1F
100
AcDbEntity
  8
layer 1
100
AcDbSpline
210
0.0
220
0.0
230
1.0
 70
    11
 71
     3
 72
    20
 73
    16
 74
     0
 42
0.0000000001
 43
0.0000000001
 12
1.0
 22
0.0
 32
0.0
 13
1.0
 23
0.0
 33
0.0
 40
0.0
 40
0.0
 40
0.0
 40
0.0
 40
0.2
 40
0.2
 40
0.2
 40
0.2
 40
0.4
 40
0.4
 40
0.4
 40
0.4
 40
0.6
 40
0.6
 40
0.6
 40
0.6
 40
1.0
 40
1.0
 40
1.0
 40
1.0
 10
-140.1093
 20
115.8277
 30
0.0
 10
-138.0748
 20
119.0714
 30
0.0
 10
-136.4246
 20
121.5089
 30
0.0
 10
-134.1595
 20
124.944
 30
0.0
 10
-134.1595
 20
124.944
 30
0.0
 10
-134.1595
 20
124.944
 30
0.0
 10
-124.0542
 20
124.9471
 30
0.0
 10
-124.0542
 20
124.9471
 30
0.0
 10
-124.0542
 20
124.9471
 30
0.0
 10
-124.0542
 20
124.9471
 30
0.0
 10
-124.1141
 20
106.2419
 30
0.0
 10
-124.1141
 20
106.2419
 30
0.0
 10
-124.1141
 20
106.2419
 30
0.0
 10
-124.1141
 20
106.2419
 30
0.0
 10
-140.1093
 20
115.8277
 30
0.0
 10
-140.1093
 20
115.8277
 30
0.0
  0
SPLINE
  5
48
330
1F
100
AcDbEntity
  8
layer 1
100
AcDbSpline
210
0.0
220
0.0
230
1.0
 70
    11
 71
     3
 72
    20
 73
    16
 74
     0
 42
0.0000000001
 43
0.0000000001
 12
1.0
 22
0.0
 32
0.0
 13
1.0
 23
0.0
 33
0.0
 40
0.0
 40
0.0
 40
0.0
 40
0.0
 40
0.2
 40
0.2
 40
0.2
 40
0.2
 40
0.4
 40
0.4
 40
0.4
 40
0.4
 40
0.6
 40
0.6
 40
0.6
 40
0.6
 40
1.0
 40
1.0
 40
1.0
 40
1.0
 10
-119.2595
 20
124.9376
 30
0.0
 10
-119.2595
 20
124.9376
 30
0.0
 10
-116.8622
 20
124.9376
 30
0.0
 10
-116.8622
 20
124.9376
 30
0.0
 10
-116.8622
 20
124.9376
 30
0.0
 10
-116.8622
 20
124.9376
 30
0.0
 10
-116.8622
 20
107.4827
 30
0.0
 10
-116.8622
 20
107.4827
 30
0.0
 10
-116.8622
 20
107.4827
 30
0.0
 10
-116.8622
 20
107.4827
 30
0.0
 10
-119.2393
 20
106.2385
 30
0.0
 10
-119.2393
 20
106.2385
 30
0.0
 10
-119.2393
 20
106.2385
 30
0.0
 10
-119.2393
 20
106.2385
 30
0.0
 10
-119.2595
 20
124.9376
 30
0.0
 10
-119.2595
 20
124.9376
 30
0.0
  0
SPLINE
  5
49
330
1F
100
AcDbEntity
  8
layer 1
100
AcDbSpline
210
0.0
220
0.0
230
1.0
 70
    11
 71
     3
 72
    20
 73
    16
 74
     0
 42
0.0000000001
 43
0.0000000001
 12
1.0
 22
0.0
 32
0.0
 13
1.0
 23
0.0
 33
0.0
 40
0.0
 40
0.0
 40
0.0
 40
0.0
 40
0.2
 40
0.2
 40
0.2
 40
0.2
 40
0.4
 40
0.4
 40
0.4
 40
0.4
 40
0.6
 40
0.6
 40
0.6
 40
0.6
 40
1.0
 40
1.0
 40
1.0
 40
1.0
 10
-157.1372
 20
114.1572
 30
0.0
 10
-157.1372
 20
114.1572
 30
0.0
 10
-152.079
 20
117.2041
 30
0.0
 10
-152.079
 20
117.2041
 30
0.0
 10
-152.079
 20
117.2041
 30
0.0
 10
-152.079
 20
117.2041
 30
0.0
 10
-147.0684
 20
114.1512
 30
0.0
 10
-147.0684
 20
114.1512
 30
0.0
 10
-147.0684
 20
114.1512
 30
0.0
 10
-147.0684
 20
114.1512
 30
0.0
 10
-152.0736
 20
106.5296
 30
0.0
 10
-152.0736
 20
106.5296
 30
0.0
 10
-152.0736
 20
106.5296
 30
0.0
 10
-152.0736
 20
106.5296
 30
0.0
 10
-157.1372
 20
114.1572
 30
0.0
 10
-157.1372
 20
114.1572
 30
0.0
  0
SPLINE
  5
4A
330
1F
100
AcDbEntity
  8
layer 1
100
AcDbSpline
210
0.0
220
0.0
230
1.0
 70
    11
 71
     3
 72
    36
 73
    32
 74
     0
 42
0.0000000001
 43
0.0000000001
 12
1.0
 22
0.0
 32
0.0
 13
1.0
 23
0.0
 33
0.0
 40
0.0
 40
0.0
 40
0.0
 40
0.0
 40
0.1111111111111111
 40
0.1111111111111111
 40
0.1111111111111111
 40
0.1111111111111111
 40
0.2222222222222222
 40
0.2222222222222222
 40
0.2222222222222222
 40
0.2222222222222222
 40
0.3333333333333333
 40
0.3333333333333333
 40
0.3333333333333333
 40
0.3333333333333333
 40
0.4444444444444444
 40
0.4444444444444444
 40
0.4444444444444444
 40
0.4444444444444444
 40
0.5555555555555556
 40
0.5555555555555556
 40
0.5555555555555556
 40
0.5555555555555556
 40
0.6666666666666666
 40
0.6666666666666666
 40
0.6666666666666666
 40
0.6666666666666666
 40
0.7777777777777778
 40
0.7777777777777778
 40
0.7777777777777778
 40
0.7777777777777778
 40
1.0
 40
1.0
 40
1.0
 40
1.0
 10
-187.3435
 20
130.8111
 30
0.0
 10
-187.3435
 20
130.8111
 30
0.0
 10
-187.3435
 20
131.8898
 30
0.0
 10
-187.3435
 20
131.8898
 30
0.0
 10
-187.3435
 20
131.8898
 30
0.0
 10
-187.3435
 20
131.8898
 30
0.0
 10
-186.1449
 20
131.8898
 30
0.0
 10
-186.1449
 20
131.8898
 30
0.0
 10
-186.1449
 20
131.8898
 30
0.0
 10
-186.1449
 20
131.8898
 30
0.0
 10
-184.9462
 20
131.8898
 30
0.0
 10
-184.9462
 20
131.8898
 30
0.0
 10
-184.9462
 20
131.8898
 30
0.0
 10
-184.9462
 20
131.8898
 30
0.0
 10
-184.9462
 20
130.8111
 30
0.0
 10
-184.9462
 20
130.8111
 30
0.0
 10
-184.9462
 20
130.8111
 30
0.0
 10
-184.9462
 20
130.8111
 30
0.0
 10
-184.9462
 20
129.7323
 30
0.0
 10
-184.9462
 20
129.7323
 30
0.0
 10
-184.9462
 20
129.7323
 30
0.0
 10
-184.9462
 20
129.7323
 30
0.0
 10
-186.1449
 20
129.7323
 30
0.0
 10
-186.1449
 20
129.7323
 30
0.0
 10
-186.1449
 20
129.7323
 30
0.0
 10
-186.1449
 20
129.7323
 30
0.0
 10
-187.3435
 20
129.7323
 30
0.0
 10
-187.3435
 20
129.7323
 30
0.0
 10
-187.3435
 20
129.7323
 30
0.0
 10
-187.3435
 20
129.7323
 30
0.0
 10
-187.3435
 20
130.8111
 30
0.0
 10
-187.3435
 20
130.8111
 30
0.0
  0
SPLINE
  5
4B
330
1F
100
AcDbEntity
  8
layer 1
100
AcDbSpline
210
0.0
220
0.0
230
1.0
 70
    11
 71
     3
 72
    36
 73
    32
 74
     0
 42
0.0000000001
 43
0.0000000001
 12
1.0
 22
0.0
 32
0.0
 13
1.0
 23
0.0
 33
0.0
 40
0.0
 40
0.0
 40
0.0
 40
0.0
 40
0.1111111111111111
 40
0.1111111111111111
 40
0.1111111111111111
 40
0.1111111111111111
 40
0.2222222222222222
 40
0.2222222222222222
 40
0.2222222222222222
 40
0.2222222222222222
 40
0.3333333333333333
 40
0.3333333333333333
 40
0.3333333333333333
 40
0.3333333333333333
 40
0.4444444444444444
 40
0.4444444444444444
 40
0.4444444444444444
 40
0.4444444444444444
 40
0.5555555555555556
 40
0.5555555555555556
 40
0.5555555555555556
 40
0.5555555555555556
 40
0.6666666666666666
 40
0.6666666666666666
 40
0.6666666666666666
 40
0.6666666666666666
 40
0.7777777777777778
 40
0.7777777777777778
 40
0.7777777777777778
 40
0.7777777777777778
 40
1.0
 40
1.0
 40
1.0
 40
1.0
 10
-180.1515
 20
130.8111
 30
0.0
 10
-180.1515
 20
130.8111
 30
0.0
 10
-180.1515
 20
131.8898
 30
0.0
 10
-180.1515
 20
131.8898
 30
0.0
 10
-180.1515
 20
131.8898
 30
0.0
 10
-180.1515
 20
131.8898
 30
0.0
 10
-174.5178
 20
131.8898
 30
0.0
 10
-174.5178
 20
131.8898
 30
0.0
 10
-174.5178
 20
131.8898
 30
0.0
 10
-171.4193
 20
131.8898
 30
0.0
 10
-168.8841
 20
131.8338
 30
0.0
 10
-168.8841
 20
131.7653
 30
0.0
 10
-168.8841
 20
131.7653
 30
0.0
 10
-168.8841
 20
131.6967
 30
0.0
 10
-169.1552
 20
131.2113
 30
0.0
 10
-169.4865
 20
130.6865
 30
0.0
 10
-169.4865
 20
130.6865
 30
0.0
 10
-169.4865
 20
130.6865
 30
0.0
 10
-170.0888
 20
129.7323
 30
0.0
 10
-170.0888
 20
129.7323
 30
0.0
 10
-170.0888
 20
129.7323
 30
0.0
 10
-170.0888
 20
129.7323
 30
0.0
 10
-175.1202
 20
129.7323
 30
0.0
 10
-175.1202
 20
129.7323
 30
0.0
 10
-175.1202
 20
129.7323
 30
0.0
 10
-175.1202
 20
129.7323
 30
0.0
 10
-180.1515
 20
129.7323
 30
0.0
 10
-180.1515
 20
129.7323
 30
0.0
 10
-180.1515
 20
129.7323
 30
0.0
 10
-180.1515
 20
129.7323
 30
0.0
 10
-180.1515
 20
130.8111
 30
0.0
 10
-180.1515
 20
130.8111
 30
0.0
  0
SPLINE
  5
4C
330
1F
100
AcDbEntity
  8
layer 1
100
AcDbSpline
210
0.0
220
0.0
230
1.0
 70
    11
 71
     3
 72
    20
 73
    16
 74
     0
 42
0.0000000001
 43
0.0000000001
 12
1.0
 22
0.0
 32
0.0
 13
1.0
 23
0.0
 33
0.0
 40
0.0
 40
0.0
 40
0.0
 40
0.0
 40
0.2
 40
0.2
 40
0.2
 40
0.2
 40
0.4
 40
0.4
 40
0.4
 40
0.4
 40
0.6
 40
0.6
 40
0.6
 40
0.6
 40
1.0
 40
1.0
 40
1.0
 40
1.0
 10
-163.0198
 20
131.8999
 30
0.0
 10
-163.0198
 20
131.8999
 30
0.0
 10
-141.1905
 20
131.8899
 30
0.0
 10
-141.1905
 20
131.8899
 30
0.0
 10
-141.1905
 20
131.8899
 30
0.0
 10
-141.1905
 20
131.8899
 30
0.0
 10
-139.8214
 20
129.7323
 30
0.0
 10
-139.8214
 20
129.7323
 30
0.0
 10
-139.8214
 20
129.7323
 30
0.0
 10
-139.8214
 20
129.7323
 30
0.0
 10
-164.3415
 20
129.7323
 30
0.0
 10
-164.3415
 20
129.7323
 30
0.0
 10
-164.3415
 20
129.7323
 30
0.0
 10
-164.3415
 20
129.7323
 30
0.0
 10
-163.0198
 20
131.8999
 30
0.0
 10
-163.0198
 20
131.8999
 30
0.0
  0
SPLINE
  5
4D
330
1F
100
AcDbEntity
  8
layer 1
100
AcDbSpline
210
0.0
220
0.0
230
1.0
 70
    11
 71
     3
 72
    20
 73
    16
 74
     0
 42
0.0000000001
 43
0.0000000001
 12
1.0
 22
0.0
 32
0.0
 13
1.0
 23
0.0
 33
0.0
 40
0.0
 40
0.0
 40
0.0
 40
0.0
 40
0.2
 40
0.2
 40
0.2
 40
0.2
 40
0.4
 40
0.4
 40
0.4
 40
0.4
 40
0.6
 40
0.6
 40
0.6
 40
0.6
 40
1.0
 40
1.0
 40
1.0
 40
1.0
 10
-135.3836
 20
131.8999
 30
0.0
 10
-135.3836
 20
131.8999
 30
0.0
 10
-124.0542
 20
131.8899
 30
0.0
 10
-124.0542
 20
131.8899
 30
0.0
 10
-124.0542
 20
131.8899
 30
0.0
 10
-124.0542
 20
131.8899
 30
0.0
 10
-124.0542
 20
129.7323
 30
0.0
 10
-124.0542
 20
129.7323
 30
0.0
 10
-124.0542
 20
129.7323
 30
0.0
 10
-124.0542
 20
129.7323
 30
0.0
 10
-134.1057
 20
129.7323
 30
0.0
 10
-134.1057
 20
129.7323
 30
0.0
 10
-134.1057
 20
129.7323
 30
0.0
 10
-134.1057
 20
129.7323
 30
0.0
 10
-135.3836
 20
131.8999
 30
0.0
 10
-135.3836
 20
131.8999
 30
0.0
  0
SPLINE
  5
4E
330
1F
100
AcDbEntity
  8
layer 1
100
AcDbSpline
210
0.0
220
0.0
230
1.0
 70
    11
 71
     3
 72
    20
 73
    16
 74
     0
 42
0.0000000001
 43
0.0000000001
 12
1.0
 22
0.0
 32
0.0
 13
1.0
 23
0.0
 33
0.0
 40
0.0
 40
0.0
 40
0.0
 40
0.0
 40
0.2
 40
0.2
 40
0.2
 40
0.2
 40
0.4
 40
0.4
 40
0.4
 40
0.4
 40
0.6
 40
0.6
 40
0.6
 40
0.6
 40
1.0
 40
1.0
 40
1.0
 40
1.0
 10
-119.2595
 20
131.8898
 30
0.0
 10
-119.2595
 20
131.8898
 30
0.0
 10
-116.8622
 20
131.8898
 30
0.0
 10
-116.8622
 20
131.8898
 30
0.0
 10
-116.8622
 20
131.8898
 30
0.0
 10
-116.8622
 20
131.8898
 30
0.0
 10
-116.8622
 20
129.7322
 30
0.0
 10
-116.8622
 20
129.7322
 30
0.0
 10
-116.8622
 20
129.7322
 30
0.0
 10
-116.8622
 20
129.7322
 30
0.0
 10
-119.2595
 20
129.7322
 30
0.0
 10
-119.2595
 20
129.7322
 30
0.0
 10
-119.2595
 20
129.7322
 30
0.0
 10
-119.2595
 20
129.7322
 30
0.0
 10
-119.2595
 20
131.8898
 30
0.0
 10
-119.2595
 20
131.8898
 30
0.0
  0
SPLINE
  5
4F
330
1F
100
AcDbEntity
  8
layer 1
100
AcDbSpline
210
0.0
220
0.0
230
1.0
 70
    11
 71
     3
 72
    20
 73
    16
 74
     0
 42
0.0000000001
 43
0.0000000001
 12
1.0
 22
0.0
 32
0.0
 13
1.0
 23
0.0
 33
0.0
 40
0.0
 40
0.0
 40
0.0
 40
0.0
 40
0.2
 40
0.2
 40
0.2
 40
0.2
 40
0.4
 40
0.4
 40
0.4
 40
0.4
 40
0.6
 40
0.6
 40
0.6
 40
0.6
 40
1.0
 40
1.0
 40
1.0
 40
1.0
 10
-180.1515
 20
131.8898
 30
0.0
 10
-180.1515
 20
131.8898
 30
0.0
 10
-168.7991
 20
131.8998
 30
0.0
 10
-168.7991
 20
131.8998
 30
0.0
 10
-168.7991
 20
131.8998
 30
0.0
 10
-168.7991
 20
131.8998
 30
0.0
 10
-170.0888
 20
129.7322
 30
0.0
 10
-170.0888
 20
129.7322
 30
0.0
 10
-170.0888
 20
129.7322
 30
0.0
 10
-170.0888
 20
129.7322
 30
0.0
 10
-180.1516
 20
129.7322
 30
0.0
 10
-180.1516
 20
129.7322
 30
0.0
 10
-180.1516
 20
129.7322
 30
0.0
 10
-180.1516
 20
129.7322
 30
0.0
 10
-180.1515
 20
131.8898
 30
0.0
 10
-180.1515
 20
131.8898
 30
0.0
  0
SPLINE
  5
50
330
1F
100
AcDbEntity
  8
layer 1
100
AcDbSpline
210
0.0
220
0.0
230
1.0
 70
    11
 71
     3
 72
    24
 73
    20
 74
     0
 42
0.0000000001
 43
0.0000000001
 12
1.0
 22
0.0
 32
0.0
 13
1.0
 23
0.0
 33
0.0
 40
0.0
 40
0.0
 40
0.0
 40
0.0
 40
0.1666666666666667
 40
0.1666666666666667
 40
0.1666666666666667
 40
0.1666666666666667
 40
0.3333333333333333
 40
0.3333333333333333
 40
0.3333333333333333
 40
0.3333333333333333
 40
0.5
 40
0.5
 40
0.5
 40
0.5
 40
0.6666666666666666
 40
0.6666666666666666
 40
0.6666666666666666
 40
0.6666666666666666
 40
1.0
 40
1.0
 40
1.0
 40
1.0
 10
-164.394
 20
78.8943
 30
0.0
 10
-164.394
 20
78.8943
 30
0.0
 10
-139.8448
 20
78.8943
 30
0.0
 10
-139.8448
 20
78.8943
 30
0.0
 10
-139.8448
 20
78.8943
 30
0.0
 10
-139.8448
 20
78.8943
 30
0.0
 10
-144.4908
 20
85.4147
 30
0.0
 10
-144.4908
 20
85.4147
 30
0.0
 10
-144.4908
 20
85.4147
 30
0.0
 10
-144.4908
 20
85.4147
 30
0.0
 10
-152.0986
 20
81.0584
 30
0.0
 10
-152.0986
 20
81.0584
 30
0.0
 10
-152.0986
 20
81.0584
 30
0.0
 10
-152.0986
 20
81.0584
 30
0.0
 10
-159.8017
 20
85.5204
 30
0.0
 10
-159.8017
 20
85.5204
 30
0.0
 10
-159.8017
 20
85.5204
 30
0.0
 10
-159.8017
 20
85.5204
 30
0.0
 10
-164.394
 20
78.8943
 30
0.0
 10
-164.394
 20
78.8943
 30
0.0
  0
SPLINE
  5
51
330
1F
100
AcDbEntity
  8
layer 1
100
AcDbSpline
210
0.0
220
0.0
230
1.0
 70
    11
 71
     3
 72
    20
 73
    16
 74
     0
 42
0.0000000001
 43
0.0000000001
 12
1.0
 22
0.0
 32
0.0
 13
1.0
 23
0.0
 33
0.0
 40
0.0
 40
0.0
 40
0.0
 40
0.0
 40
0.2
 40
0.2
 40
0.2
 40
0.2
 40
0.4
 40
0.4
 40
0.4
 40
0.4
 40
0.6
 40
0.6
 40
0.6
 40
0.6
 40
1.0
 40
1.0
 40
1.0
 40
1.0
 10
-180.1503
 20
78.9008
 30
0.0
 10
-180.1503
 20
78.9008
 30
0.0
 10
-170.0665
 20
78.9008
 30
0.0
 10
-170.0665
 20
78.9008
 30
0.0
 10
-170.0665
 20
78.9008
 30
0.0
 10
-170.0665
 20
78.9008
 30
0.0
 10
-164.133
 20
88.1192
 30
0.0
 10
-164.133
 20
88.1192
 30
0.0
 10
-164.133
 20
88.1192
 30
0.0
 10
-164.2028
 20
88.1739
 30
0.0
 10
-179.7525
 20
97.3353
 30
0.0
 10
-180.1489
 20
97.5575
 30
0.0
 10
-180.1489
 20
97.5575
 30
0.0
 10
-180.1489
 20
97.5575
 30
0.0
 10
-180.1503
 20
78.9008
 30
0.0
 10
-180.1503
 20
78.9008
 30
0.0
  0
SPLINE
  5
52
330
1F
100
AcDbEntity
  8
layer 1
100
AcDbSpline
210
0.0
220
0.0
230
1.0
 70
    11
 71
     3
 72
    20
 73
    16
 74
     0
 42
0.0000000001
 43
0.0000000001
 12
1.0
 22
0.0
 32
0.0
 13
1.0
 23
0.0
 33
0.0
 40
0.0
 40
0.0
 40
0.0
 40
0.0
 40
0.2
 40
0.2
 40
0.2
 40
0.2
 40
0.4
 40
0.4
 40
0.4
 40
0.4
 40
0.6
 40
0.6
 40
0.6
 40
0.6
 40
1.0
 40
1.0
 40
1.0
 40
1.0
 10
-187.3422
 20
96.3526
 30
0.0
 10
-187.3422
 20
96.3526
 30
0.0
 10
-187.3422
 20
78.9007
 30
0.0
 10
-187.3422
 20
78.9007
 30
0.0
 10
-187.3422
 20
78.9007
 30
0.0
 10
-187.3422
 20
78.9007
 30
0.0
 10
-184.9449
 20
78.9007
 30
0.0
 10
-184.9449
 20
78.9007
 30
0.0
 10
-184.9449
 20
78.9007
 30
0.0
 10
-184.9449
 20
78.9007
 30
0.0
 10
-185.1247
 20
97.5905
 30
0.0
 10
-185.1247
 20
97.5905
 30
0.0
 10
-185.1247
 20
97.5905
 30
0.0
 10
-185.1247
 20
97.5905
 30
0.0
 10
-187.3422
 20
96.3526
 30
0.0
 10
-187.3422
 20
96.3526
 30
0.0
  0
SPLINE
  5
53
330
1F
100
AcDbEntity
  8
layer 1
100
AcDbSpline
210
0.0
220
0.0
230
1.0
 70
    11
 71
     3
 72
    20
 73
    16
 74
     0
 42
0.0000000001
 43
0.0000000001
 12
1.0
 22
0.0
 32
0.0
 13
1.0
 23
0.0
 33
0.0
 40
0.0
 40
0.0
 40
0.0
 40
0.0
 40
0.2
 40
0.2
 40
0.2
 40
0.2
 40
0.4
 40
0.4
 40
0.4
 40
0.4
 40
0.6
 40
0.6
 40
0.6
 40
0.6
 40
1.0
 40
1.0
 40
1.0
 40
1.0
 10
-140.108
 20
88.0106
 30
0.0
 10
-138.0735
 20
84.7669
 30
0.0
 10
-136.4232
 20
82.3294
 30
0.0
 10
-134.1581
 20
78.8943
 30
0.0
 10
-134.1581
 20
78.8943
 30
0.0
 10
-134.1581
 20
78.8943
 30
0.0
 10
-124.0528
 20
78.8912
 30
0.0
 10
-124.0528
 20
78.8912
 30
0.0
 10
-124.0528
 20
78.8912
 30
0.0
 10
-124.0528
 20
78.8912
 30
0.0
 10
-124.1127
 20
97.5964
 30
0.0
 10
-124.1127
 20
97.5964
 30
0.0
 10
-124.1127
 20
97.5964
 30
0.0
 10
-124.1127
 20
97.5964
 30
0.0
 10
-140.108
 20
88.0106
 30
0.0
 10
-140.108
 20
88.0106
 30
0.0
  0
SPLINE
  5
54
330
1F
100
AcDbEntity
  8
layer 1
100
AcDbSpline
210
0.0
220
0.0
230
1.0
 70
    11
 71
     3
 72
    20
 73
    16
 74
     0
 42
0.0000000001
 43
0.0000000001
 12
1.0
 22
0.0
 32
0.0
 13
1.0
 23
0.0
 33
0.0
 40
0.0
 40
0.0
 40
0.0
 40
0.0
 40
0.2
 40
0.2
 40
0.2
 40
0.2
 40
0.4
 40
0.4
 40
0.4
 40
0.4
 40
0.6
 40
0.6
 40
0.6
 40
0.6
 40
1.0
 40
1.0
 40
1.0
 40
1.0
 10
-119.2582
 20
78.9008
 30
0.0
 10
-119.2582
 20
78.9008
 30
0.0
 10
-116.8609
 20
78.9008
 30
0.0
 10
-116.8609
 20
78.9008
 30
0.0
 10
-116.8609
 20
78.9008
 30
0.0
 10
-116.8609
 20
78.9008
 30
0.0
 10
-116.8609
 20
96.3557
 30
0.0
 10
-116.8609
 20
96.3557
 30
0.0
 10
-116.8609
 20
96.3557
 30
0.0
 10
-116.8609
 20
96.3557
 30
0.0
 10
-119.2379
 20
97.5999
 30
0.0
 10
-119.2379
 20
97.5999
 30
0.0
 10
-119.2379
 20
97.5999
 30
0.0
 10
-119.2379
 20
97.5999
 30
0.0
 10
-119.2582
 20
78.9008
 30
0.0
 10
-119.2582
 20
78.9008
 30
0.0
  0
SPLINE
  5
55
330
1F
100
AcDbEntity
  8
layer 1
100
AcDbSpline
210
0.0
220
0.0
230
1.0
 70
    11
 71
     3
 72
    36
 73
    32
 74
     0
 42
0.0000000001
 43
0.0000000001
 12
1.0
 22
0.0
 32
0.0
 13
1.0
 23
0.0
 33
0.0
 40
0.0
 40
0.0
 40
0.0
 40
0.0
 40
0.1111111111111111
 40
0.1111111111111111
 40
0.1111111111111111
 40
0.1111111111111111
 40
0.2222222222222222
 40
0.2222222222222222
 40
0.2222222222222222
 40
0.2222222222222222
 40
0.3333333333333333
 40
0.3333333333333333
 40
0.3333333333333333
 40
0.3333333333333333
 40
0.4444444444444444
 40
0.4444444444444444
 40
0.4444444444444444
 40
0.4444444444444444
 40
0.5555555555555556
 40
0.5555555555555556
 40
0.5555555555555556
 40
0.5555555555555556
 40
0.6666666666666666
 40
0.6666666666666666
 40
0.6666666666666666
 40
0.6666666666666666
 40
0.7777777777777778
 40
0.7777777777777778
 40
0.7777777777777778
 40
0.7777777777777778
 40
1.0
 40
1.0
 40
1.0
 40
1.0
 10
-187.3422
 20
73.0274
 30
0.0
 10
-187.3422
 20
73.0274
 30
0.0
 10
-187.3422
 20
71.9486
 30
0.0
 10
-187.3422
 20
71.9486
 30
0.0
 10
-187.3422
 20
71.9486
 30
0.0
 10
-187.3422
 20
71.9486
 30
0.0
 10
-186.1436
 20
71.9486
 30
0.0
 10
-186.1436
 20
71.9486
 30
0.0
 10
-186.1436
 20
71.9486
 30
0.0
 10
-186.1436
 20
71.9486
 30
0.0
 10
-184.9449
 20
71.9486
 30
0.0
 10
-184.9449
 20
71.9486
 30
0.0
 10
-184.9449
 20
71.9486
 30
0.0
 10
-184.9449
 20
71.9486
 30
0.0
 10
-184.9449
 20
73.0274
 30
0.0
 10
-184.9449
 20
73.0274
 30
0.0
 10
-184.9449
 20
73.0274
 30
0.0
 10
-184.9449
 20
73.0274
 30
0.0
 10
-184.9449
 20
74.1061
 30
0.0
 10
-184.9449
 20
74.1061
 30
0.0
 10
-184.9449
 20
74.1061
 30
0.0
 10
-184.9449
 20
74.1061
 30
0.0
 10
-186.1436
 20
74.1061
 30
0.0
 10
-186.1436
 20
74.1061
 30
0.0
 10
-186.1436
 20
74.1061
 30
0.0
 10
-186.1436
 20
74.1061
 30
0.0
 10
-187.3422
 20
74.1061
 30
0.0
 10
-187.3422
 20
74.1061
 30
0.0
 10
-187.3422
 20
74.1061
 30
0.0
 10
-187.3422
 20
74.1061
 30
0.0
 10
-187.3422
 20
73.0274
 30
0.0
 10
-187.3422
 20
73.0274
 30
0.0
  0
SPLINE
  5
56
330
1F
100
AcDbEntity
  8
layer 1
100
AcDbSpline
210
0.0
220
0.0
230
1.0
 70
    11
 71
     3
 72
    36
 73
    32
 74
     0
 42
0.0000000001
 43
0.0000000001
 12
1.0
 22
0.0
 32
0.0
 13
1.0
 23
0.0
 33
0.0
 40
0.0
 40
0.0
 40
0.0
 40
0.0
 40
0.1111111111111111
 40
0.1111111111111111
 40
0.1111111111111111
 40
0.1111111111111111
 40
0.2222222222222222
 40
0.2222222222222222
 40
0.2222222222222222
 40
0.2222222222222222
 40
0.3333333333333333
 40
0.3333333333333333
 40
0.3333333333333333
 40
0.3333333333333333
 40
0.4444444444444444
 40
0.4444444444444444
 40
0.4444444444444444
 40
0.4444444444444444
 40
0.5555555555555556
 40
0.5555555555555556
 40
0.5555555555555556
 40
0.5555555555555556
 40
0.6666666666666666
 40
0.6666666666666666
 40
0.6666666666666666
 40
0.6666666666666666
 40
0.7777777777777778
 40
0.7777777777777778
 40
0.7777777777777778
 40
0.7777777777777778
 40
1.0
 40
1.0
 40
1.0
 40
1.0
 10
-180.1503
 20
73.0274
 30
0.0
 10
-180.1503
 20
73.0274
 30
0.0
 10
-180.1503
 20
71.9486
 30
0.0
 10
-180.1503
 20
71.9486
 30
0.0
 10
-180.1503
 20
71.9486
 30
0.0
 10
-180.1503
 20
71.9486
 30
0.0
 10
-174.5165
 20
71.9486
 30
0.0
 10
-174.5165
 20
71.9486
 30
0.0
 10
-174.5165
 20
71.9486
 30
0.0
 10
-171.418
 20
71.9486
 30
0.0
 10
-168.8828
 20
72.0047
 30
0.0
 10
-168.8828
 20
72.0732
 30
0.0
 10
-168.8828
 20
72.0732
 30
0.0
 10
-168.8828
 20
72.1418
 30
0.0
 10
-169.1539
 20
72.6271
 30
0.0
 10
-169.4852
 20
73.1519
 30
0.0
 10
-169.4852
 20
73.1519
 30
0.0
 10
-169.4852
 20
73.1519
 30
0.0
 10
-170.0876
 20
74.1061
 30
0.0
 10
-170.0876
 20
74.1061
 30
0.0
 10
-170.0876
 20
74.1061
 30
0.0
 10
-170.0876
 20
74.1061
 30
0.0
 10
-175.1189
 20
74.1061
 30
0.0
 10
-175.1189
 20
74.1061
 30
0.0
 10
-175.1189
 20
74.1061
 30
0.0
 10
-175.1189
 20
74.1061
 30
0.0
 10
-180.1503
 20
74.1061
 30
0.0
 10
-180.1503
 20
74.1061
 30
0.0
 10
-180.1503
 20
74.1061
 30
0.0
 10
-180.1503
 20
74.1061
 30
0.0
 10
-180.1503
 20
73.0274
 30
0.0
 10
-180.1503
 20
73.0274
 30
0.0
  0
SPLINE
  5
57
330
1F
100
AcDbEntity
  8
layer 1
100
AcDbSpline
210
0.0
220
0.0
230
1.0
 70
    11
 71
     3
 72
    20
 73
    16
 74
     0
 42
0.0000000001
 43
0.0000000001
 12
1.0
 22
0.0
 32
0.0
 13
1.0
 23
0.0
 33
0.0
 40
0.0
 40
0.0
 40
0.0
 40
0.0
 40
0.2
 40
0.2
 40
0.2
 40
0.2
 40
0.4
 40
0.4
 40
0.4
 40
0.4
 40
0.6
 40
0.6
 40
0.6
 40
0.6
 40
1.0
 40
1.0
 40
1.0
 40
1.0
 10
-163.0184
 20
71.9385
 30
0.0
 10
-163.0184
 20
71.9385
 30
0.0
 10
-141.1892
 20
71.9485
 30
0.0
 10
-141.1892
 20
71.9485
 30
0.0
 10
-141.1892
 20
71.9485
 30
0.0
 10
-141.1892
 20
71.9485
 30
0.0
 10
-139.82
 20
74.1061
 30
0.0
 10
-139.82
 20
74.1061
 30
0.0
 10
-139.82
 20
74.1061
 30
0.0
 10
-139.82
 20
74.1061
 30
0.0
 10
-164.3401
 20
74.1061
 30
0.0
 10
-164.3401
 20
74.1061
 30
0.0
 10
-164.3401
 20
74.1061
 30
0.0
 10
-164.3401
 20
74.1061
 30
0.0
 10
-163.0184
 20
71.9385
 30
0.0
 10
-163.0184
 20
71.9385
 30
0.0
  0
SPLINE
  5
58
330
1F
100
AcDbEntity
  8
layer 1
100
AcDbSpline
210
0.0
220
0.0
230
1.0
 70
    11
 71
     3
 72
    20
 73
    16
 74
     0
 42
0.0000000001
 43
0.0000000001
 12
1.0
 22
0.0
 32
0.0
 13
1.0
 23
0.0
 33
0.0
 40
0.0
 40
0.0
 40
0.0
 40
0.0
 40
0.2
 40
0.2
 40
0.2
 40
0.2
 40
0.4
 40
0.4
 40
0.4
 40
0.4
 40
0.6
 40
0.6
 40
0.6
 40
0.6
 40
1.0
 40
1.0
 40
1.0
 40
1.0
 10
-135.3822
 20
71.9385
 30
0.0
 10
-135.3822
 20
71.9385
 30
0.0
 10
-124.0528
 20
71.9485
 30
0.0
 10
-124.0528
 20
71.9485
 30
0.0
 10
-124.0528
 20
71.9485
 30
0.0
 10
-124.0528
 20
71.9485
 30
0.0
 10
-124.0528
 20
74.1061
 30
0.0
 10
-124.0528
 20
74.1061
 30
0.0
 10
-124.0528
 20
74.1061
 30
0.0
 10
-124.0528
 20
74.1061
 30
0.0
 10
-134.1043
 20
74.1061
 30
0.0
 10
-134.1043
 20
74.1061
 30
0.0
 10
-134.1043
 20
74.1061
 30
0.0
 10
-134.1043
 20
74.1061
 30
0.0
 10
-135.3822
 20
71.9385
 30
0.0
 10
-135.3822
 20
71.9385
 30
0.0
  0
SPLINE
  5
59
330
1F
100
AcDbEntity
  8
layer 1
100
AcDbSpline
210
0.0
220
0.0
230
1.0
 70
    11
 71
     3
 72
    20
 73
    16
 74
     0
 42
0.0000000001
 43
0.0000000001
 12
1.0
 22
0.0
 32
0.0
 13
1.0
 23
0.0
 33
0.0
 40
0.0
 40
0.0
 40
0.0
 40
0.0
 40
0.2
 40
0.2
 40
0.2
 40
0.2
 40
0.4
 40
0.4
 40
0.4
 40
0.4
 40
0.6
 40
0.6
 40
0.6
 40
0.6
 40
1.0
 40
1.0
 40
1.0
 40
1.0
 10
-119.2787
 20
72.0569
 30
0.0
 10
-119.2787
 20
72.0569
 30
0.0
 10
-116.8814
 20
72.0569
 30
0.0
 10
-116.8814
 20
72.0569
 30
0.0
 10
-116.8814
 20
72.0569
 30
0.0
 10
-116.8814
 20
72.0569
 30
0.0
 10
-116.8814
 20
74.2146
 30
0.0
 10
-116.8814
 20
74.2146
 30
0.0
 10
-116.8814
 20
74.2146
 30
0.0
 10
-116.8814
 20
74.2146
 30
0.0
 10
-119.2787
 20
74.2146
 30
0.0
 10
-119.2787
 20
74.2146
 30
0.0
 10
-119.2787
 20
74.2146
 30
0.0
 10
-119.2787
 20
74.2146
 30
0.0
 10
-119.2787
 20
72.0569
 30
0.0
 10
-119.2787
 20
72.0569
 30
0.0
  0
SPLINE
  5
5A
330
1F
100
AcDbEntity
  8
layer 1
100
AcDbSpline
210
0.0
220
0.0
230
1.0
 70
    11
 71
     3
 72
    20
 73
    16
 74
     0
 42
0.0000000001
 43
0.0000000001
 12
1.0
 22
0.0
 32
0.0
 13
1.0
 23
0.0
 33
0.0
 40
0.0
 40
0.0
 40
0.0
 40
0.0
 40
0.2
 40
0.2
 40
0.2
 40
0.2
 40
0.4
 40
0.4
 40
0.4
 40
0.4
 40
0.6
 40
0.6
 40
0.6
 40
0.6
 40
1.0
 40
1.0
 40
1.0
 40
1.0
 10
-180.1503
 20
71.9485
 30
0.0
 10
-180.1503
 20
71.9485
 30
0.0
 10
-168.7978
 20
71.9385
 30
0.0
 10
-168.7978
 20
71.9385
 30
0.0
 10
-168.7978
 20
71.9385
 30
0.0
 10
-168.7978
 20
71.9385
 30
0.0
 10
-170.0876
 20
74.1061
 30
0.0
 10
-170.0876
 20
74.1061
 30
0.0
 10
-170.0876
 20
74.1061
 30
0.0
 10
-170.0876
 20
74.1061
 30
0.0
 10
-180.1503
 20
74.1061
 30
0.0
 10
-180.1503
 20
74.1061
 30
0.0
 10
-180.1503
 20
74.1061
 30
0.0
 10
-180.1503
 20
74.1061
 30
0.0
 10
-180.1503
 20
71.9485
 30
0.0
 10
-180.1503
 20
71.9485
 30
0.0
  0
SPLINE
  5
5B
330
1F
100
AcDbEntity
  8
layer 1
100
AcDbSpline
210
0.0
220
0.0
230
1.0
 70
    11
 71
     3
 72
    24
 73
    20
 74
     0
 42
0.0000000001
 43
0.0000000001
 12
1.0
 22
0.0
 32
0.0
 13
1.0
 23
0.0
 33
0.0
 40
0.0
 40
0.0
 40
0.0
 40
0.0
 40
0.1666666666666667
 40
0.1666666666666667
 40
0.1666666666666667
 40
0.1666666666666667
 40
0.3333333333333333
 40
0.3333333333333333
 40
0.3333333333333333
 40
0.3333333333333333
 40
0.5
 40
0.5
 40
0.5
 40
0.5
 40
0.6666666666666666
 40
0.6666666666666666
 40
0.6666666666666666
 40
0.6666666666666666
 40
1.0
 40
1.0
 40
1.0
 40
1.0
 10
-170.9851
 20
68.4792
 30
0.0
 10
-170.9851
 20
68.4792
 30
0.0
 10
-146.436
 20
68.4792
 30
0.0
 10
-146.436
 20
68.4792
 30
0.0
 10
-146.436
 20
68.4792
 30
0.0
 10
-146.436
 20
68.4792
 30
0.0
 10
-151.082
 20
61.9588
 30
0.0
 10
-151.082
 20
61.9588
 30
0.0
 10
-151.082
 20
61.9588
 30
0.0
 10
-151.082
 20
61.9588
 30
0.0
 10
-158.6898
 20
66.3151
 30
0.0
 10
-158.6898
 20
66.3151
 30
0.0
 10
-158.6898
 20
66.3151
 30
0.0
 10
-158.6898
 20
66.3151
 30
0.0
 10
-166.3929
 20
61.8531
 30
0.0
 10
-166.3929
 20
61.8531
 30
0.0
 10
-166.3929
 20
61.8531
 30
0.0
 10
-166.3929
 20
61.8531
 30
0.0
 10
-170.9851
 20
68.4792
 30
0.0
 10
-170.9851
 20
68.4792
 30
0.0
  0
SPLINE
  5
5C
330
1F
100
AcDbEntity
  8
layer 1
100
AcDbSpline
210
0.0
220
0.0
230
1.0
 70
    11
 71
     3
 72
    20
 73
    16
 74
     0
 42
0.0000000001
 43
0.0000000001
 12
1.0
 22
0.0
 32
0.0
 13
1.0
 23
0.0
 33
0.0
 40
0.0
 40
0.0
 40
0.0
 40
0.0
 40
0.2
 40
0.2
 40
0.2
 40
0.2
 40
0.4
 40
0.4
 40
0.4
 40
0.4
 40
0.6
 40
0.6
 40
0.6
 40
0.6
 40
1.0
 40
1.0
 40
1.0
 40
1.0
 10
-186.7414
 20
68.4727
 30
0.0
 10
-186.7414
 20
68.4727
 30
0.0
 10
-176.6577
 20
68.4727
 30
0.0
 10
-176.6577
 20
68.4727
 30
0.0
 10
-176.6577
 20
68.4727
 30
0.0
 10
-176.6577
 20
68.4727
 30
0.0
 10
-170.7242
 20
59.2543
 30
0.0
 10
-170.7242
 20
59.2543
 30
0.0
 10
-170.7242
 20
59.2543
 30
0.0
 10
-170.7939
 20
59.1995
 30
0.0
 10
-186.3436
 20
50.0382
 30
0.0
 10
-186.7401
 20
49.816
 30
0.0
 10
-186.7401
 20
49.816
 30
0.0
 10
-186.7401
 20
49.816
 30
0.0
 10
-186.7414
 20
68.4727
 30
0.0
 10
-186.7414
 20
68.4727
 30
0.0
  0
SPLINE
  5
5D
330
1F
100
AcDbEntity
  8
layer 1
100
AcDbSpline
210
0.0
220
0.0
230
1.0
 70
    11
 71
     3
 72
    24
 73
    20
 74
     0
 42
0.0000000001
 43
0.0000000001
 12
1.0
 22
0.0
 32
0.0
 13
1.0
 23
0.0
 33
0.0
 40
0.0
 40
0.0
 40
0.0
 40
0.0
 40
0.1666666666666667
 40
0.1666666666666667
 40
0.1666666666666667
 40
0.1666666666666667
 40
0.3333333333333333
 40
0.3333333333333333
 40
0.3333333333333333
 40
0.3333333333333333
 40
0.5
 40
0.5
 40
0.5
 40
0.5
 40
0.6666666666666666
 40
0.6666666666666666
 40
0.6666666666666666
 40
0.6666666666666666
 40
1.0
 40
1.0
 40
1.0
 40
1.0
 10
-161.2079
 20
31.5499
 30
0.0
 10
-161.2079
 20
31.5499
 30
0.0
 10
-163.679
 20
33.2075
 30
0.0
 10
-163.679
 20
33.2075
 30
0.0
 10
-163.679
 20
33.2075
 30
0.0
 10
-163.679
 20
33.2075
 30
0.0
 10
-158.7022
 20
40.9034
 30
0.0
 10
-158.7022
 20
40.9034
 30
0.0
 10
-158.7022
 20
40.9034
 30
0.0
 10
-158.7022
 20
40.9034
 30
0.0
 10
-153.6583
 20
33.2398
 30
0.0
 10
-153.6583
 20
33.2398
 30
0.0
 10
-153.6583
 20
33.2398
 30
0.0
 10
-153.6583
 20
33.2398
 30
0.0
 10
-158.7092
 20
30.1174
 30
0.0
 10
-158.7092
 20
30.1174
 30
0.0
 10
-158.7092
 20
30.1174
 30
0.0
 10
-158.7092
 20
30.1174
 30
0.0
 10
-161.2079
 20
31.5499
 30
0.0
 10
-161.2079
 20
31.5499
 30
0.0
  0
SPLINE
  5
5E
330
1F
100
AcDbEntity
  8
layer 1
100
AcDbSpline
210
0.0
220
0.0
230
1.0
 70
    11
 71
     3
 72
    20
 73
    16
 74
     0
 42
0.0000000001
 43
0.0000000001
 12
1.0
 22
0.0
 32
0.0
 13
1.0
 23
0.0
 33
0.0
 40
0.0
 40
0.0
 40
0.0
 40
0.0
 40
0.2
 40
0.2
 40
0.2
 40
0.2
 40
0.4
 40
0.4
 40
0.4
 40
0.4
 40
0.6
 40
0.6
 40
0.6
 40
0.6
 40
1.0
 40
1.0
 40
1.0
 40
1.0
 10
-184.3441
 20
45.4634
 30
0.0
 10
-184.3441
 20
45.4634
 30
0.0
 10
-167.9471
 20
55.2508
 30
0.0
 10
-167.9471
 20
55.2508
 30
0.0
 10
-167.9471
 20
55.2508
 30
0.0
 10
-167.9471
 20
55.2508
 30
0.0
 10
-161.554
 20
45.469
 30
0.0
 10
-161.554
 20
45.469
 30
0.0
 10
-161.554
 20
45.469
 30
0.0
 10
-161.554
 20
45.469
 30
0.0
 10
-168.0922
 20
35.6414
 30
0.0
 10
-168.0922
 20
35.6414
 30
0.0
 10
-168.0922
 20
35.6414
 30
0.0
 10
-168.0922
 20
35.6414
 30
0.0
 10
-184.3441
 20
45.4634
 30
0.0
 10
-184.3441
 20
45.4634
 30
0.0
  0
SPLINE
  5
5F
330
1F
100
AcDbEntity
  8
layer 1
100
AcDbSpline
210
0.0
220
0.0
230
1.0
 70
    11
 71
     3
 72
    20
 73
    16
 74
     0
 42
0.0000000001
 43
0.0000000001
 12
1.0
 22
0.0
 32
0.0
 13
1.0
 23
0.0
 33
0.0
 40
0.0
 40
0.0
 40
0.0
 40
0.0
 40
0.2
 40
0.2
 40
0.2
 40
0.2
 40
0.4
 40
0.4
 40
0.4
 40
0.4
 40
0.6
 40
0.6
 40
0.6
 40
0.6
 40
1.0
 40
1.0
 40
1.0
 40
1.0
 10
-155.8728
 20
45.4499
 30
0.0
 10
-155.8728
 20
45.4499
 30
0.0
 10
-149.4522
 20
55.2494
 30
0.0
 10
-149.4522
 20
55.2494
 30
0.0
 10
-149.4522
 20
55.2494
 30
0.0
 10
-149.4522
 20
55.2494
 30
0.0
 10
-133.0415
 20
45.4652
 30
0.0
 10
-133.0415
 20
45.4652
 30
0.0
 10
-133.0415
 20
45.4652
 30
0.0
 10
-133.0415
 20
45.4652
 30
0.0
 10
-149.3023
 20
35.6979
 30
0.0
 10
-149.3023
 20
35.6979
 30
0.0
 10
-149.3023
 20
35.6979
 30
0.0
 10
-149.3023
 20
35.6979
 30
0.0
 10
-155.8728
 20
45.4499
 30
0.0
 10
-155.8728
 20
45.4499
 30
0.0
  0
SPLINE
  5
60
330
1F
100
AcDbEntity
  8
layer 1
100
AcDbSpline
210
0.0
220
0.0
230
1.0
 70
    11
 71
     3
 72
    20
 73
    16
 74
     0
 42
0.0000000001
 43
0.0000000001
 12
1.0
 22
0.0
 32
0.0
 13
1.0
 23
0.0
 33
0.0
 40
0.0
 40
0.0
 40
0.0
 40
0.0
 40
0.2
 40
0.2
 40
0.2
 40
0.2
 40
0.4
 40
0.4
 40
0.4
 40
0.4
 40
0.6
 40
0.6
 40
0.6
 40
0.6
 40
1.0
 40
1.0
 40
1.0
 40
1.0
 10
-146.6992
 20
59.3628
 30
0.0
 10
-144.6647
 20
62.6065
 30
0.0
 10
-143.0145
 20
65.044
 30
0.0
 10
-140.7494
 20
68.4791
 30
0.0
 10
-140.7494
 20
68.4791
 30
0.0
 10
-140.7494
 20
68.4791
 30
0.0
 10
-130.6441
 20
68.4822
 30
0.0
 10
-130.6441
 20
68.4822
 30
0.0
 10
-130.6441
 20
68.4822
 30
0.0
 10
-130.6441
 20
68.4822
 30
0.0
 10
-130.704
 20
49.777
 30
0.0
 10
-130.704
 20
49.777
 30
0.0
 10
-130.704
 20
49.777
 30
0.0
 10
-130.704
 20
49.777
 30
0.0
 10
-146.6992
 20
59.3628
 30
0.0
 10
-146.6992
 20
59.3628
 30
0.0
  0
SPLINE
  5
61
330
1F
100
AcDbEntity
  8
layer 1
100
AcDbSpline
210
0.0
220
0.0
230
1.0
 70
    11
 71
     3
 72
    20
 73
    16
 74
     0
 42
0.0000000001
 43
0.0000000001
 12
1.0
 22
0.0
 32
0.0
 13
1.0
 23
0.0
 33
0.0
 40
0.0
 40
0.0
 40
0.0
 40
0.0
 40
0.2
 40
0.2
 40
0.2
 40
0.2
 40
0.4
 40
0.4
 40
0.4
 40
0.4
 40
0.6
 40
0.6
 40
0.6
 40
0.6
 40
1.0
 40
1.0
 40
1.0
 40
1.0
 10
-163.7271
 20
57.6923
 30
0.0
 10
-163.7271
 20
57.6923
 30
0.0
 10
-158.6689
 20
60.7392
 30
0.0
 10
-158.6689
 20
60.7392
 30
0.0
 10
-158.6689
 20
60.7392
 30
0.0
 10
-158.6689
 20
60.7392
 30
0.0
 10
-153.6583
 20
57.6863
 30
0.0
 10
-153.6583
 20
57.6863
 30
0.0
 10
-153.6583
 20
57.6863
 30
0.0
 10
-153.6583
 20
57.6863
 30
0.0
 10
-158.6635
 20
50.0647
 30
0.0
 10
-158.6635
 20
50.0647
 30
0.0
 10
-158.6635
 20
50.0647
 30
0.0
 10
-158.6635
 20
50.0647
 30
0.0
 10
-163.7271
 20
57.6923
 30
0.0
 10
-163.7271
 20
57.6923
 30
0.0
  0
SPLINE
  5
62
330
1F
100
AcDbEntity
  8
layer 1
100
AcDbSpline
210
0.0
220
0.0
230
1.0
 70
    11
 71
     3
 72
    24
 73
    20
 74
     0
 42
0.0000000001
 43
0.0000000001
 12
1.0
 22
0.0
 32
0.0
 13
1.0
 23
0.0
 33
0.0
 40
0.0
 40
0.0
 40
0.0
 40
0.0
 40
0.1666666666666667
 40
0.1666666666666667
 40
0.1666666666666667
 40
0.1666666666666667
 40
0.3333333333333333
 40
0.3333333333333333
 40
0.3333333333333333
 40
0.3333333333333333
 40
0.5
 40
0.5
 40
0.5
 40
0.5
 40
0.6666666666666666
 40
0.6666666666666666
 40
0.6666666666666666
 40
0.6666666666666666
 40
1.0
 40
1.0
 40
1.0
 40
1.0
 10
-170.9838
 20
22.4294
 30
0.0
 10
-170.9838
 20
22.4294
 30
0.0
 10
-146.4347
 20
22.4294
 30
0.0
 10
-146.4347
 20
22.4294
 30
0.0
 10
-146.4347
 20
22.4294
 30
0.0
 10
-146.4347
 20
22.4294
 30
0.0
 10
-151.0807
 20
28.9498
 30
0.0
 10
-151.0807
 20
28.9498
 30
0.0
 10
-151.0807
 20
28.9498
 30
0.0
 10
-151.0807
 20
28.9498
 30
0.0
 10
-158.6885
 20
24.5934
 30
0.0
 10
-158.6885
 20
24.5934
 30
0.0
 10
-158.6885
 20
24.5934
 30
0.0
 10
-158.6885
 20
24.5934
 30
0.0
 10
-166.3916
 20
29.0555
 30
0.0
 10
-166.3916
 20
29.0555
 30
0.0
 10
-166.3916
 20
29.0555
 30
0.0
 10
-166.3916
 20
29.0555
 30
0.0
 10
-170.9838
 20
22.4294
 30
0.0
 10
-170.9838
 20
22.4294
 30
0.0
  0
SPLINE
  5
63
330
1F
100
AcDbEntity
  8
layer 1
100
AcDbSpline
210
0.0
220
0.0
230
1.0
 70
    11
 71
     3
 72
    20
 73
    16
 74
     0
 42
0.0000000001
 43
0.0000000001
 12
1.0
 22
0.0
 32
0.0
 13
1.0
 23
0.0
 33
0.0
 40
0.0
 40
0.0
 40
0.0
 40
0.0
 40
0.2
 40
0.2
 40
0.2
 40
0.2
 40
0.4
 40
0.4
 40
0.4
 40
0.4
 40
0.6
 40
0.6
 40
0.6
 40
0.6
 40
1.0
 40
1.0
 40
1.0
 40
1.0
 10
-186.7401
 20
22.4359
 30
0.0
 10
-186.7401
 20
22.4359
 30
0.0
 10
-176.6564
 20
22.4359
 30
0.0
 10
-176.6564
 20
22.4359
 30
0.0
 10
-176.6564
 20
22.4359
 30
0.0
 10
-176.6564
 20
22.4359
 30
0.0
 10
-170.7229
 20
31.6543
 30
0.0
 10
-170.7229
 20
31.6543
 30
0.0
 10
-170.7229
 20
31.6543
 30
0.0
 10
-170.7927
 20
31.709
 30
0.0
 10
-186.3424
 20
40.8704
 30
0.0
 10
-186.7388
 20
41.0925
 30
0.0
 10
-186.7388
 20
41.0925
 30
0.0
 10
-186.7388
 20
41.0925
 30
0.0
 10
-186.7401
 20
22.4359
 30
0.0
 10
-186.7401
 20
22.4359
 30
0.0
  0
SPLINE
  5
64
330
1F
100
AcDbEntity
  8
layer 1
100
AcDbSpline
210
0.0
220
0.0
230
1.0
 70
    11
 71
     3
 72
    20
 73
    16
 74
     0
 42
0.0000000001
 43
0.0000000001
 12
1.0
 22
0.0
 32
0.0
 13
1.0
 23
0.0
 33
0.0
 40
0.0
 40
0.0
 40
0.0
 40
0.0
 40
0.2
 40
0.2
 40
0.2
 40
0.2
 40
0.4
 40
0.4
 40
0.4
 40
0.4
 40
0.6
 40
0.6
 40
0.6
 40
0.6
 40
1.0
 40
1.0
 40
1.0
 40
1.0
 10
-146.6978
 20
31.5457
 30
0.0
 10
-144.6633
 20
28.302
 30
0.0
 10
-143.0131
 20
25.8645
 30
0.0
 10
-140.748
 20
22.4294
 30
0.0
 10
-140.748
 20
22.4294
 30
0.0
 10
-140.748
 20
22.4294
 30
0.0
 10
-130.6427
 20
22.4263
 30
0.0
 10
-130.6427
 20
22.4263
 30
0.0
 10
-130.6427
 20
22.4263
 30
0.0
 10
-130.6427
 20
22.4263
 30
0.0
 10
-130.7026
 20
41.1315
 30
0.0
 10
-130.7026
 20
41.1315
 30
0.0
 10
-130.7026
 20
41.1315
 30
0.0
 10
-130.7026
 20
41.1315
 30
0.0
 10
-146.6978
 20
31.5457
 30
0.0
 10
-146.6978
 20
31.5457
 30
0.0
  0
SPLINE
  5
65
330
1F
100
AcDbEntity
  8
layer 1
100
AcDbSpline
210
0.0
220
0.0
230
1.0
 70
    11
 71
     3
 72
    24
 73
    20
 74
     0
 42
0.0000000001
 43
0.0000000001
 12
1.0
 22
0.0
 32
0.0
 13
1.0
 23
0.0
 33
0.0
 40
0.0
 40
0.0
 40
0.0
 40
0.0
 40
0.1666666666666667
 40
0.1666666666666667
 40
0.1666666666666667
 40
0.1666666666666667
 40
0.3333333333333333
 40
0.3333333333333333
 40
0.3333333333333333
 40
0.3333333333333333
 40
0.5
 40
0.5
 40
0.5
 40
0.5
 40
0.6666666666666666
 40
0.6666666666666666
 40
0.6666666666666666
 40
0.6666666666666666
 40
1.0
 40
1.0
 40
1.0
 40
1.0
 10
-170.9851
 20
22.4535
 30
0.0
 10
-170.9851
 20
22.4535
 30
0.0
 10
-146.436
 20
22.4535
 30
0.0
 10
-146.436
 20
22.4535
 30
0.0
 10
-146.436
 20
22.4535
 30
0.0
 10
-146.436
 20
22.4535
 30
0.0
 10
-151.082
 20
15.9331
 30
0.0
 10
-151.082
 20
15.9331
 30
0.0
 10
-151.082
 20
15.9331
 30
0.0
 10
-151.082
 20
15.9331
 30
0.0
 10
-158.6898
 20
20.2894
 30
0.0
 10
-158.6898
 20
20.2894
 30
0.0
 10
-158.6898
 20
20.2894
 30
0.0
 10
-158.6898
 20
20.2894
 30
0.0
 10
-166.3929
 20
15.8273
 30
0.0
 10
-166.3929
 20
15.8273
 30
0.0
 10
-166.3929
 20
15.8273
 30
0.0
 10
-166.3929
 20
15.8273
 30
0.0
 10
-170.9851
 20
22.4535
 30
0.0
 10
-170.9851
 20
22.4535
 30
0.0
  0
SPLINE
  5
66
330
1F
100
AcDbEntity
  8
layer 1
100
AcDbSpline
210
0.0
220
0.0
230
1.0
 70
    11
 71
     3
 72
    20
 73
    16
 74
     0
 42
0.0000000001
 43
0.0000000001
 12
1.0
 22
0.0
 32
0.0
 13
1.0
 23
0.0
 33
0.0
 40
0.0
 40
0.0
 40
0.0
 40
0.0
 40
0.2
 40
0.2
 40
0.2
 40
0.2
 40
0.4
 40
0.4
 40
0.4
 40
0.4
 40
0.6
 40
0.6
 40
0.6
 40
0.6
 40
1.0
 40
1.0
 40
1.0
 40
1.0
 10
-186.7414
 20
22.4469
 30
0.0
 10
-186.7414
 20
22.4469
 30
0.0
 10
-176.6577
 20
22.4469
 30
0.0
 10
-176.6577
 20
22.4469
 30
0.0
 10
-176.6577
 20
22.4469
 30
0.0
 10
-176.6577
 20
22.4469
 30
0.0
 10
-170.7242
 20
13.2285
 30
0.0
 10
-170.7242
 20
13.2285
 30
0.0
 10
-170.7242
 20
13.2285
 30
0.0
 10
-170.7939
 20
13.1738
 30
0.0
 10
-186.3436
 20
4.0125
 30
0.0
 10
-186.7401
 20
3.7903
 30
0.0
 10
-186.7401
 20
3.7903
 30
0.0
 10
-186.7401
 20
3.7903
 30
0.0
 10
-186.7414
 20
22.4469
 30
0.0
 10
-186.7414
 20
22.4469
 30
0.0
  0
SPLINE
  5
67
330
1F
100
AcDbEntity
  8
layer 1
100
AcDbSpline
210
0.0
220
0.0
230
1.0
 70
    11
 71
     3
 72
    24
 73
    20
 74
     0
 42
0.0000000001
 43
0.0000000001
 12
1.0
 22
0.0
 32
0.0
 13
1.0
 23
0.0
 33
0.0
 40
0.0
 40
0.0
 40
0.0
 40
0.0
 40
0.1666666666666667
 40
0.1666666666666667
 40
0.1666666666666667
 40
0.1666666666666667
 40
0.3333333333333333
 40
0.3333333333333333
 40
0.3333333333333333
 40
0.3333333333333333
 40
0.5
 40
0.5
 40
0.5
 40
0.5
 40
0.6666666666666666
 40
0.6666666666666666
 40
0.6666666666666666
 40
0.6666666666666666
 40
1.0
 40
1.0
 40
1.0
 40
1.0
 10
-161.2079
 20
-14.4758
 30
0.0
 10
-161.2079
 20
-14.4758
 30
0.0
 10
-163.679
 20
-12.8183
 30
0.0
 10
-163.679
 20
-12.8183
 30
0.0
 10
-163.679
 20
-12.8183
 30
0.0
 10
-163.679
 20
-12.8183
 30
0.0
 10
-158.7022
 20
-5.1223
 30
0.0
 10
-158.7022
 20
-5.1223
 30
0.0
 10
-158.7022
 20
-5.1223
 30
0.0
 10
-158.7022
 20
-5.1223
 30
0.0
 10
-153.6583
 20
-12.786
 30
0.0
 10
-153.6583
 20
-12.786
 30
0.0
 10
-153.6583
 20
-12.786
 30
0.0
 10
-153.6583
 20
-12.786
 30
0.0
 10
-158.7092
 20
-15.9083
 30
0.0
 10
-158.7092
 20
-15.9083
 30
0.0
 10
-158.7092
 20
-15.9083
 30
0.0
 10
-158.7092
 20
-15.9083
 30
0.0
 10
-161.2079
 20
-14.4758
 30
0.0
 10
-161.2079
 20
-14.4758
 30
0.0
  0
SPLINE
  5
68
330
1F
100
AcDbEntity
  8
layer 1
100
AcDbSpline
210
0.0
220
0.0
230
1.0
 70
    11
 71
     3
 72
    20
 73
    16
 74
     0
 42
0.0000000001
 43
0.0000000001
 12
1.0
 22
0.0
 32
0.0
 13
1.0
 23
0.0
 33
0.0
 40
0.0
 40
0.0
 40
0.0
 40
0.0
 40
0.2
 40
0.2
 40
0.2
 40
0.2
 40
0.4
 40
0.4
 40
0.4
 40
0.4
 40
0.6
 40
0.6
 40
0.6
 40
0.6
 40
1.0
 40
1.0
 40
1.0
 40
1.0
 10
-184.3441
 20
-0.5623
 30
0.0
 10
-184.3441
 20
-0.5623
 30
0.0
 10
-167.9471
 20
9.225
 30
0.0
 10
-167.9471
 20
9.225
 30
0.0
 10
-167.9471
 20
9.225
 30
0.0
 10
-167.9471
 20
9.225
 30
0.0
 10
-161.554
 20
-0.5568
 30
0.0
 10
-161.554
 20
-0.5568
 30
0.0
 10
-161.554
 20
-0.5568
 30
0.0
 10
-161.554
 20
-0.5568
 30
0.0
 10
-168.0922
 20
-10.3844
 30
0.0
 10
-168.0922
 20
-10.3844
 30
0.0
 10
-168.0922
 20
-10.3844
 30
0.0
 10
-168.0922
 20
-10.3844
 30
0.0
 10
-184.3441
 20
-0.5623
 30
0.0
 10
-184.3441
 20
-0.5623
 30
0.0
  0
SPLINE
  5
69
330
1F
100
AcDbEntity
  8
layer 1
100
AcDbSpline
210
0.0
220
0.0
230
1.0
 70
    11
 71
     3
 72
    20
 73
    16
 74
     0
 42
0.0000000001
 43
0.0000000001
 12
1.0
 22
0.0
 32
0.0
 13
1.0
 23
0.0
 33
0.0
 40
0.0
 40
0.0
 40
0.0
 40
0.0
 40
0.2
 40
0.2
 40
0.2
 40
0.2
 40
0.4
 40
0.4
 40
0.4
 40
0.4
 40
0.6
 40
0.6
 40
0.6
 40
0.6
 40
1.0
 40
1.0
 40
1.0
 40
1.0
 10
-155.8728
 20
-0.5758
 30
0.0
 10
-155.8728
 20
-0.5758
 30
0.0
 10
-149.4522
 20
9.2237
 30
0.0
 10
-149.4522
 20
9.2237
 30
0.0
 10
-149.4522
 20
9.2237
 30
0.0
 10
-149.4522
 20
9.2237
 30
0.0
 10
-133.0415
 20
-0.5606
 30
0.0
 10
-133.0415
 20
-0.5606
 30
0.0
 10
-133.0415
 20
-0.5606
 30
0.0
 10
-133.0415
 20
-0.5606
 30
0.0
 10
-149.3023
 20
-10.3278
 30
0.0
 10
-149.3023
 20
-10.3278
 30
0.0
 10
-149.3023
 20
-10.3278
 30
0.0
 10
-149.3023
 20
-10.3278
 30
0.0
 10
-155.8728
 20
-0.5758
 30
0.0
 10
-155.8728
 20
-0.5758
 30
0.0
  0
SPLINE
  5
6A
330
1F
100
AcDbEntity
  8
layer 1
100
AcDbSpline
210
0.0
220
0.0
230
1.0
 70
    11
 71
     3
 72
    20
 73
    16
 74
     0
 42
0.0000000001
 43
0.0000000001
 12
1.0
 22
0.0
 32
0.0
 13
1.0
 23
0.0
 33
0.0
 40
0.0
 40
0.0
 40
0.0
 40
0.0
 40
0.2
 40
0.2
 40
0.2
 40
0.2
 40
0.4
 40
0.4
 40
0.4
 40
0.4
 40
0.6
 40
0.6
 40
0.6
 40
0.6
 40
1.0
 40
1.0
 40
1.0
 40
1.0
 10
-146.6992
 20
13.3371
 30
0.0
 10
-144.6647
 20
16.5807
 30
0.0
 10
-143.0145
 20
19.0183
 30
0.0
 10
-140.7494
 20
22.4534
 30
0.0
 10
-140.7494
 20
22.4534
 30
0.0
 10
-140.7494
 20
22.4534
 30
0.0
 10
-130.6441
 20
22.4565
 30
0.0
 10
-130.6441
 20
22.4565
 30
0.0
 10
-130.6441
 20
22.4565
 30
0.0
 10
-130.6441
 20
22.4565
 30
0.0
 10
-130.704
 20
3.7512
 30
0.0
 10
-130.704
 20
3.7512
 30
0.0
 10
-130.704
 20
3.7512
 30
0.0
 10
-130.704
 20
3.7512
 30
0.0
 10
-146.6992
 20
13.3371
 30
0.0
 10
-146.6992
 20
13.3371
 30
0.0
  0
SPLINE
  5
6B
330
1F
100
AcDbEntity
  8
layer 1
100
AcDbSpline
210
0.0
220
0.0
230
1.0
 70
    11
 71
     3
 72
    20
 73
    16
 74
     0
 42
0.0000000001
 43
0.0000000001
 12
1.0
 22
0.0
 32
0.0
 13
1.0
 23
0.0
 33
0.0
 40
0.0
 40
0.0
 40
0.0
 40
0.0
 40
0.2
 40
0.2
 40
0.2
 40
0.2
 40
0.4
 40
0.4
 40
0.4
 40
0.4
 40
0.6
 40
0.6
 40
0.6
 40
0.6
 40
1.0
 40
1.0
 40
1.0
 40
1.0
 10
-163.7271
 20
11.6665
 30
0.0
 10
-163.7271
 20
11.6665
 30
0.0
 10
-158.6689
 20
14.7134
 30
0.0
 10
-158.6689
 20
14.7134
 30
0.0
 10
-158.6689
 20
14.7134
 30
0.0
 10
-158.6689
 20
14.7134
 30
0.0
 10
-153.6583
 20
11.6606
 30
0.0
 10
-153.6583
 20
11.6606
 30
0.0
 10
-153.6583
 20
11.6606
 30
0.0
 10
-153.6583
 20
11.6606
 30
0.0
 10
-158.6635
 20
4.0389
 30
0.0
 10
-158.6635
 20
4.0389
 30
0.0
 10
-158.6635
 20
4.0389
 30
0.0
 10
-158.6635
 20
4.0389
 30
0.0
 10
-163.7271
 20
11.6665
 30
0.0
 10
-163.7271
 20
11.6665
 30
0.0
  0
SPLINE
  5
6C
330
1F
100
AcDbEntity
  8
layer 1
100
AcDbSpline
210
0.0
220
0.0
230
1.0
 70
    11
 71
     3
 72
    24
 73
    20
 74
     0
 42
0.0000000001
 43
0.0000000001
 12
1.0
 22
0.0
 32
0.0
 13
1.0
 23
0.0
 33
0.0
 40
0.0
 40
0.0
 40
0.0
 40
0.0
 40
0.1666666666666667
 40
0.1666666666666667
 40
0.1666666666666667
 40
0.1666666666666667
 40
0.3333333333333333
 40
0.3333333333333333
 40
0.3333333333333333
 40
0.3333333333333333
 40
0.5
 40
0.5
 40
0.5
 40
0.5
 40
0.6666666666666666
 40
0.6666666666666666
 40
0.6666666666666666
 40
0.6666666666666666
 40
1.0
 40
1.0
 40
1.0
 40
1.0
 10
-170.9838
 20
-23.5964
 30
0.0
 10
-170.9838
 20
-23.5964
 30
0.0
 10
-146.4347
 20
-23.5964
 30
0.0
 10
-146.4347
 20
-23.5964
 30
0.0
 10
-146.4347
 20
-23.5964
 30
0.0
 10
-146.4347
 20
-23.5964
 30
0.0
 10
-151.0807
 20
-17.076
 30
0.0
 10
-151.0807
 20
-17.076
 30
0.0
 10
-151.0807
 20
-17.076
 30
0.0
 10
-151.0807
 20
-17.076
 30
0.0
 10
-158.6885
 20
-21.4323
 30
0.0
 10
-158.6885
 20
-21.4323
 30
0.0
 10
-158.6885
 20
-21.4323
 30
0.0
 10
-158.6885
 20
-21.4323
 30
0.0
 10
-166.3916
 20
-16.9703
 30
0.0
 10
-166.3916
 20
-16.9703
 30
0.0
 10
-166.3916
 20
-16.9703
 30
0.0
 10
-166.3916
 20
-16.9703
 30
0.0
 10
-170.9838
 20
-23.5964
 30
0.0
 10
-170.9838
 20
-23.5964
 30
0.0
  0
SPLINE
  5
6D
330
1F
100
AcDbEntity
  8
layer 1
100
AcDbSpline
210
0.0
220
0.0
230
1.0
 70
    11
 71
     3
 72
    20
 73
    16
 74
     0
 42
0.0000000001
 43
0.0000000001
 12
1.0
 22
0.0
 32
0.0
 13
1.0
 23
0.0
 33
0.0
 40
0.0
 40
0.0
 40
0.0
 40
0.0
 40
0.2
 40
0.2
 40
0.2
 40
0.2
 40
0.4
 40
0.4
 40
0.4
 40
0.4
 40
0.6
 40
0.6
 40
0.6
 40
0.6
 40
1.0
 40
1.0
 40
1.0
 40
1.0
 10
-186.7401
 20
-23.5899
 30
0.0
 10
-186.7401
 20
-23.5899
 30
0.0
 10
-176.6564
 20
-23.5899
 30
0.0
 10
-176.6564
 20
-23.5899
 30
0.0
 10
-176.6564
 20
-23.5899
 30
0.0
 10
-176.6564
 20
-23.5899
 30
0.0
 10
-170.7229
 20
-14.3715
 30
0.0
 10
-170.7229
 20
-14.3715
 30
0.0
 10
-170.7229
 20
-14.3715
 30
0.0
 10
-170.7927
 20
-14.3167
 30
0.0
 10
-186.3424
 20
-5.1554
 30
0.0
 10
-186.7388
 20
-4.9332
 30
0.0
 10
-186.7388
 20
-4.9332
 30
0.0
 10
-186.7388
 20
-4.9332
 30
0.0
 10
-186.7401
 20
-23.5899
 30
0.0
 10
-186.7401
 20
-23.5899
 30
0.0
  0
SPLINE
  5
6E
330
1F
100
AcDbEntity
  8
layer 1
100
AcDbSpline
210
0.0
220
0.0
230
1.0
 70
    11
 71
     3
 72
    20
 73
    16
 74
     0
 42
0.0000000001
 43
0.0000000001
 12
1.0
 22
0.0
 32
0.0
 13
1.0
 23
0.0
 33
0.0
 40
0.0
 40
0.0
 40
0.0
 40
0.0
 40
0.2
 40
0.2
 40
0.2
 40
0.2
 40
0.4
 40
0.4
 40
0.4
 40
0.4
 40
0.6
 40
0.6
 40
0.6
 40
0.6
 40
1.0
 40
1.0
 40
1.0
 40
1.0
 10
-146.6978
 20
-14.4801
 30
0.0
 10
-144.6633
 20
-17.7238
 30
0.0
 10
-143.0131
 20
-20.1613
 30
0.0
 10
-140.748
 20
-23.5964
 30
0.0
 10
-140.748
 20
-23.5964
 30
0.0
 10
-140.748
 20
-23.5964
 30
0.0
 10
-130.6427
 20
-23.5995
 30
0.0
 10
-130.6427
 20
-23.5995
 30
0.0
 10
-130.6427
 20
-23.5995
 30
0.0
 10
-130.6427
 20
-23.5995
 30
0.0
 10
-130.7026
 20
-4.8943
 30
0.0
 10
-130.7026
 20
-4.8943
 30
0.0
 10
-130.7026
 20
-4.8943
 30
0.0
 10
-130.7026
 20
-4.8943
 30
0.0
 10
-146.6978
 20
-14.4801
 30
0.0
 10
-146.6978
 20
-14.4801
 30
0.0
  0
SPLINE
  5
6F
330
1F
100
AcDbEntity
  8
layer 1
100
AcDbSpline
210
0.0
220
0.0
230
1.0
 70
    11
 71
     3
 72
    24
 73
    20
 74
     0
 42
0.0000000001
 43
0.0000000001
 12
1.0
 22
0.0
 32
0.0
 13
1.0
 23
0.0
 33
0.0
 40
0.0
 40
0.0
 40
0.0
 40
0.0
 40
0.1666666666666667
 40
0.1666666666666667
 40
0.1666666666666667
 40
0.1666666666666667
 40
0.3333333333333333
 40
0.3333333333333333
 40
0.3333333333333333
 40
0.3333333333333333
 40
0.5
 40
0.5
 40
0.5
 40
0.5
 40
0.6666666666666666
 40
0.6666666666666666
 40
0.6666666666666666
 40
0.6666666666666666
 40
1.0
 40
1.0
 40
1.0
 40
1.0
 10
-170.9851
 20
-23.5962
 30
0.0
 10
-170.9851
 20
-23.5962
 30
0.0
 10
-146.436
 20
-23.5962
 30
0.0
 10
-146.436
 20
-23.5962
 30
0.0
 10
-146.436
 20
-23.5962
 30
0.0
 10
-146.436
 20
-23.5962
 30
0.0
 10
-151.082
 20
-30.1166
 30
0.0
 10
-151.082
 20
-30.1166
 30
0.0
 10
-151.082
 20
-30.1166
 30
0.0
 10
-151.082
 20
-30.1166
 30
0.0
 10
-158.6898
 20
-25.7603
 30
0.0
 10
-158.6898
 20
-25.7603
 30
0.0
 10
-158.6898
 20
-25.7603
 30
0.0
 10
-158.6898
 20
-25.7603
 30
0.0
 10
-166.3929
 20
-30.2223
 30
0.0
 10
-166.3929
 20
-30.2223
 30
0.0
 10
-166.3929
 20
-30.2223
 30
0.0
 10
-166.3929
 20
-30.2223
 30
0.0
 10
-170.9851
 20
-23.5962
 30
0.0
 10
-170.9851
 20
-23.5962
 30
0.0
  0
SPLINE
  5
70
330
1F
100
AcDbEntity
  8
layer 1
100
AcDbSpline
210
0.0
220
0.0
230
1.0
 70
    11
 71
     3
 72
    20
 73
    16
 74
     0
 42
0.0000000001
 43
0.0000000001
 12
1.0
 22
0.0
 32
0.0
 13
1.0
 23
0.0
 33
0.0
 40
0.0
 40
0.0
 40
0.0
 40
0.0
 40
0.2
 40
0.2
 40
0.2
 40
0.2
 40
0.4
 40
0.4
 40
0.4
 40
0.4
 40
0.6
 40
0.6
 40
0.6
 40
0.6
 40
1.0
 40
1.0
 40
1.0
 40
1.0
 10
-186.7414
 20
-23.6027
 30
0.0
 10
-186.7414
 20
-23.6027
 30
0.0
 10
-176.6577
 20
-23.6027
 30
0.0
 10
-176.6577
 20
-23.6027
 30
0.0
 10
-176.6577
 20
-23.6027
 30
0.0
 10
-176.6577
 20
-23.6027
 30
0.0
 10
-170.7242
 20
-32.8212
 30
0.0
 10
-170.7242
 20
-32.8212
 30
0.0
 10
-170.7242
 20
-32.8212
 30
0.0
 10
-170.7939
 20
-32.8759
 30
0.0
 10
-186.3436
 20
-42.0372
 30
0.0
 10
-186.7401
 20
-42.2594
 30
0.0
 10
-186.7401
 20
-42.2594
 30
0.0
 10
-186.7401
 20
-42.2594
 30
0.0
 10
-186.7414
 20
-23.6027
 30
0.0
 10
-186.7414
 20
-23.6027
 30
0.0
  0
SPLINE
  5
71
330
1F
100
AcDbEntity
  8
layer 1
100
AcDbSpline
210
0.0
220
0.0
230
1.0
 70
    11
 71
     3
 72
    24
 73
    20
 74
     0
 42
0.0000000001
 43
0.0000000001
 12
1.0
 22
0.0
 32
0.0
 13
1.0
 23
0.0
 33
0.0
 40
0.0
 40
0.0
 40
0.0
 40
0.0
 40
0.1666666666666667
 40
0.1666666666666667
 40
0.1666666666666667
 40
0.1666666666666667
 40
0.3333333333333333
 40
0.3333333333333333
 40
0.3333333333333333
 40
0.3333333333333333
 40
0.5
 40
0.5
 40
0.5
 40
0.5
 40
0.6666666666666666
 40
0.6666666666666666
 40
0.6666666666666666
 40
0.6666666666666666
 40
1.0
 40
1.0
 40
1.0
 40
1.0
 10
-161.2079
 20
-60.5255
 30
0.0
 10
-161.2079
 20
-60.5255
 30
0.0
 10
-163.679
 20
-58.8679
 30
0.0
 10
-163.679
 20
-58.8679
 30
0.0
 10
-163.679
 20
-58.8679
 30
0.0
 10
-163.679
 20
-58.8679
 30
0.0
 10
-158.7022
 20
-51.172
 30
0.0
 10
-158.7022
 20
-51.172
 30
0.0
 10
-158.7022
 20
-51.172
 30
0.0
 10
-158.7022
 20
-51.172
 30
0.0
 10
-153.6583
 20
-58.8357
 30
0.0
 10
-153.6583
 20
-58.8357
 30
0.0
 10
-153.6583
 20
-58.8357
 30
0.0
 10
-153.6583
 20
-58.8357
 30
0.0
 10
-158.7092
 20
-61.958
 30
0.0
 10
-158.7092
 20
-61.958
 30
0.0
 10
-158.7092
 20
-61.958
 30
0.0
 10
-158.7092
 20
-61.958
 30
0.0
 10
-161.2079
 20
-60.5255
 30
0.0
 10
-161.2079
 20
-60.5255
 30
0.0
  0
SPLINE
  5
72
330
1F
100
AcDbEntity
  8
layer 1
100
AcDbSpline
210
0.0
220
0.0
230
1.0
 70
    11
 71
     3
 72
    20
 73
    16
 74
     0
 42
0.0000000001
 43
0.0000000001
 12
1.0
 22
0.0
 32
0.0
 13
1.0
 23
0.0
 33
0.0
 40
0.0
 40
0.0
 40
0.0
 40
0.0
 40
0.2
 40
0.2
 40
0.2
 40
0.2
 40
0.4
 40
0.4
 40
0.4
 40
0.4
 40
0.6
 40
0.6
 40
0.6
 40
0.6
 40
1.0
 40
1.0
 40
1.0
 40
1.0
 10
-184.3441
 20
-46.612
 30
0.0
 10
-184.3441
 20
-46.612
 30
0.0
 10
-167.9471
 20
-36.8246
 30
0.0
 10
-167.9471
 20
-36.8246
 30
0.0
 10
-167.9471
 20
-36.8246
 30
0.0
 10
-167.9471
 20
-36.8246
 30
0.0
 10
-161.554
 20
-46.6065
 30
0.0
 10
-161.554
 20
-46.6065
 30
0.0
 10
-161.554
 20
-46.6065
 30
0.0
 10
-161.554
 20
-46.6065
 30
0.0
 10
-168.0922
 20
-56.434
 30
0.0
 10
-168.0922
 20
-56.434
 30
0.0
 10
-168.0922
 20
-56.434
 30
0.0
 10
-168.0922
 20
-56.434
 30
0.0
 10
-184.3441
 20
-46.612
 30
0.0
 10
-184.3441
 20
-46.612
 30
0.0
  0
SPLINE
  5
73
330
1F
100
AcDbEntity
  8
layer 1
100
AcDbSpline
210
0.0
220
0.0
230
1.0
 70
    11
 71
     3
 72
    20
 73
    16
 74
     0
 42
0.0000000001
 43
0.0000000001
 12
1.0
 22
0.0
 32
0.0
 13
1.0
 23
0.0
 33
0.0
 40
0.0
 40
0.0
 40
0.0
 40
0.0
 40
0.2
 40
0.2
 40
0.2
 40
0.2
 40
0.4
 40
0.4
 40
0.4
 40
0.4
 40
0.6
 40
0.6
 40
0.6
 40
0.6
 40
1.0
 40
1.0
 40
1.0
 40
1.0
 10
-155.8728
 20
-46.6255
 30
0.0
 10
-155.8728
 20
-46.6255
 30
0.0
 10
-149.4522
 20
-36.826
 30
0.0
 10
-149.4522
 20
-36.826
 30
0.0
 10
-149.4522
 20
-36.826
 30
0.0
 10
-149.4522
 20
-36.826
 30
0.0
 10
-133.0415
 20
-46.6103
 30
0.0
 10
-133.0415
 20
-46.6103
 30
0.0
 10
-133.0415
 20
-46.6103
 30
0.0
 10
-133.0415
 20
-46.6103
 30
0.0
 10
-149.3023
 20
-56.3775
 30
0.0
 10
-149.3023
 20
-56.3775
 30
0.0
 10
-149.3023
 20
-56.3775
 30
0.0
 10
-149.3023
 20
-56.3775
 30
0.0
 10
-155.8728
 20
-46.6255
 30
0.0
 10
-155.8728
 20
-46.6255
 30
0.0
  0
SPLINE
  5
74
330
1F
100
AcDbEntity
  8
layer 1
100
AcDbSpline
210
0.0
220
0.0
230
1.0
 70
    11
 71
     3
 72
    20
 73
    16
 74
     0
 42
0.0000000001
 43
0.0000000001
 12
1.0
 22
0.0
 32
0.0
 13
1.0
 23
0.0
 33
0.0
 40
0.0
 40
0.0
 40
0.0
 40
0.0
 40
0.2
 40
0.2
 40
0.2
 40
0.2
 40
0.4
 40
0.4
 40
0.4
 40
0.4
 40
0.6
 40
0.6
 40
0.6
 40
0.6
 40
1.0
 40
1.0
 40
1.0
 40
1.0
 10
-146.6992
 20
-32.7126
 30
0.0
 10
-144.6647
 20
-29.4689
 30
0.0
 10
-143.0145
 20
-27.0314
 30
0.0
 10
-140.7494
 20
-23.5963
 30
0.0
 10
-140.7494
 20
-23.5963
 30
0.0
 10
-140.7494
 20
-23.5963
 30
0.0
 10
-130.6441
 20
-23.5932
 30
0.0
 10
-130.6441
 20
-23.5932
 30
0.0
 10
-130.6441
 20
-23.5932
 30
0.0
 10
-130.6441
 20
-23.5932
 30
0.0
 10
-130.704
 20
-42.2984
 30
0.0
 10
-130.704
 20
-42.2984
 30
0.0
 10
-130.704
 20
-42.2984
 30
0.0
 10
-130.704
 20
-42.2984
 30
0.0
 10
-146.6992
 20
-32.7126
 30
0.0
 10
-146.6992
 20
-32.7126
 30
0.0
  0
SPLINE
  5
75
330
1F
100
AcDbEntity
  8
layer 1
100
AcDbSpline
210
0.0
220
0.0
230
1.0
 70
    11
 71
     3
 72
    20
 73
    16
 74
     0
 42
0.0000000001
 43
0.0000000001
 12
1.0
 22
0.0
 32
0.0
 13
1.0
 23
0.0
 33
0.0
 40
0.0
 40
0.0
 40
0.0
 40
0.0
 40
0.2
 40
0.2
 40
0.2
 40
0.2
 40
0.4
 40
0.4
 40
0.4
 40
0.4
 40
0.6
 40
0.6
 40
0.6
 40
0.6
 40
1.0
 40
1.0
 40
1.0
 40
1.0
 10
-163.7271
 20
-34.3831
 30
0.0
 10
-163.7271
 20
-34.3831
 30
0.0
 10
-158.6689
 20
-31.3363
 30
0.0
 10
-158.6689
 20
-31.3363
 30
0.0
 10
-158.6689
 20
-31.3363
 30
0.0
 10
-158.6689
 20
-31.3363
 30
0.0
 10
-153.6583
 20
-34.3891
 30
0.0
 10
-153.6583
 20
-34.3891
 30
0.0
 10
-153.6583
 20
-34.3891
 30
0.0
 10
-153.6583
 20
-34.3891
 30
0.0
 10
-158.6635
 20
-42.0108
 30
0.0
 10
-158.6635
 20
-42.0108
 30
0.0
 10
-158.6635
 20
-42.0108
 30
0.0
 10
-158.6635
 20
-42.0108
 30
0.0
 10
-163.7271
 20
-34.3831
 30
0.0
 10
-163.7271
 20
-34.3831
 30
0.0
  0
SPLINE
  5
76
330
1F
100
AcDbEntity
  8
layer 1
100
AcDbSpline
210
0.0
220
0.0
230
1.0
 70
    11
 71
     3
 72
    24
 73
    20
 74
     0
 42
0.0000000001
 43
0.0000000001
 12
1.0
 22
0.0
 32
0.0
 13
1.0
 23
0.0
 33
0.0
 40
0.0
 40
0.0
 40
0.0
 40
0.0
 40
0.1666666666666667
 40
0.1666666666666667
 40
0.1666666666666667
 40
0.1666666666666667
 40
0.3333333333333333
 40
0.3333333333333333
 40
0.3333333333333333
 40
0.3333333333333333
 40
0.5
 40
0.5
 40
0.5
 40
0.5
 40
0.6666666666666666
 40
0.6666666666666666
 40
0.6666666666666666
 40
0.6666666666666666
 40
1.0
 40
1.0
 40
1.0
 40
1.0
 10
-170.9838
 20
-69.6461
 30
0.0
 10
-170.9838
 20
-69.6461
 30
0.0
 10
-146.4347
 20
-69.6461
 30
0.0
 10
-146.4347
 20
-69.6461
 30
0.0
 10
-146.4347
 20
-69.6461
 30
0.0
 10
-146.4347
 20
-69.6461
 30
0.0
 10
-151.0807
 20
-63.1257
 30
0.0
 10
-151.0807
 20
-63.1257
 30
0.0
 10
-151.0807
 20
-63.1257
 30
0.0
 10
-151.0807
 20
-63.1257
 30
0.0
 10
-158.6885
 20
-67.482
 30
0.0
 10
-158.6885
 20
-67.482
 30
0.0
 10
-158.6885
 20
-67.482
 30
0.0
 10
-158.6885
 20
-67.482
 30
0.0
 10
-166.3916
 20
-63.0199
 30
0.0
 10
-166.3916
 20
-63.0199
 30
0.0
 10
-166.3916
 20
-63.0199
 30
0.0
 10
-166.3916
 20
-63.0199
 30
0.0
 10
-170.9838
 20
-69.6461
 30
0.0
 10
-170.9838
 20
-69.6461
 30
0.0
  0
SPLINE
  5
77
330
1F
100
AcDbEntity
  8
layer 1
100
AcDbSpline
210
0.0
220
0.0
230
1.0
 70
    11
 71
     3
 72
    20
 73
    16
 74
     0
 42
0.0000000001
 43
0.0000000001
 12
1.0
 22
0.0
 32
0.0
 13
1.0
 23
0.0
 33
0.0
 40
0.0
 40
0.0
 40
0.0
 40
0.0
 40
0.2
 40
0.2
 40
0.2
 40
0.2
 40
0.4
 40
0.4
 40
0.4
 40
0.4
 40
0.6
 40
0.6
 40
0.6
 40
0.6
 40
1.0
 40
1.0
 40
1.0
 40
1.0
 10
-186.7401
 20
-69.6395
 30
0.0
 10
-186.7401
 20
-69.6395
 30
0.0
 10
-176.6564
 20
-69.6395
 30
0.0
 10
-176.6564
 20
-69.6395
 30
0.0
 10
-176.6564
 20
-69.6395
 30
0.0
 10
-176.6564
 20
-69.6395
 30
0.0
 10
-170.7229
 20
-60.4211
 30
0.0
 10
-170.7229
 20
-60.4211
 30
0.0
 10
-170.7229
 20
-60.4211
 30
0.0
 10
-170.7927
 20
-60.3664
 30
0.0
 10
-186.3424
 20
-51.2051
 30
0.0
 10
-186.7388
 20
-50.9829
 30
0.0
 10
-186.7388
 20
-50.9829
 30
0.0
 10
-186.7388
 20
-50.9829
 30
0.0
 10
-186.7401
 20
-69.6395
 30
0.0
 10
-186.7401
 20
-69.6395
 30
0.0
  0
SPLINE
  5
78
330
1F
100
AcDbEntity
  8
layer 1
100
AcDbSpline
210
0.0
220
0.0
230
1.0
 70
    11
 71
     3
 72
    20
 73
    16
 74
     0
 42
0.0000000001
 43
0.0000000001
 12
1.0
 22
0.0
 32
0.0
 13
1.0
 23
0.0
 33
0.0
 40
0.0
 40
0.0
 40
0.0
 40
0.0
 40
0.2
 40
0.2
 40
0.2
 40
0.2
 40
0.4
 40
0.4
 40
0.4
 40
0.4
 40
0.6
 40
0.6
 40
0.6
 40
0.6
 40
1.0
 40
1.0
 40
1.0
 40
1.0
 10
-146.6978
 20
-60.5298
 30
0.0
 10
-144.6633
 20
-63.7734
 30
0.0
 10
-143.0131
 20
-66.211
 30
0.0
 10
-140.748
 20
-69.6461
 30
0.0
 10
-140.748
 20
-69.6461
 30
0.0
 10
-140.748
 20
-69.6461
 30
0.0
 10
-130.6427
 20
-69.6491
 30
0.0
 10
-130.6427
 20
-69.6491
 30
0.0
 10
-130.6427
 20
-69.6491
 30
0.0
 10
-130.6427
 20
-69.6491
 30
0.0
 10
-130.7026
 20
-50.9439
 30
0.0
 10
-130.7026
 20
-50.9439
 30
0.0
 10
-130.7026
 20
-50.9439
 30
0.0
 10
-130.7026
 20
-50.9439
 30
0.0
 10
-146.6978
 20
-60.5298
 30
0.0
 10
-146.6978
 20
-60.5298
 30
0.0
  0
SPLINE
  5
79
330
1F
100
AcDbEntity
  8
layer 1
100
AcDbSpline
210
0.0
220
0.0
230
1.0
 70
    11
 71
     3
 72
    24
 73
    20
 74
     0
 42
0.0000000001
 43
0.0000000001
 12
1.0
 22
0.0
 32
0.0
 13
1.0
 23
0.0
 33
0.0
 40
0.0
 40
0.0
 40
0.0
 40
0.0
 40
0.1666666666666667
 40
0.1666666666666667
 40
0.1666666666666667
 40
0.1666666666666667
 40
0.3333333333333333
 40
0.3333333333333333
 40
0.3333333333333333
 40
0.3333333333333333
 40
0.5
 40
0.5
 40
0.5
 40
0.5
 40
0.6666666666666666
 40
0.6666666666666666
 40
0.6666666666666666
 40
0.6666666666666666
 40
1.0
 40
1.0
 40
1.0
 40
1.0
 10
-170.9851
 20
-69.622
 30
0.0
 10
-170.9851
 20
-69.622
 30
0.0
 10
-146.436
 20
-69.622
 30
0.0
 10
-146.436
 20
-69.622
 30
0.0
 10
-146.436
 20
-69.622
 30
0.0
 10
-146.436
 20
-69.622
 30
0.0
 10
-151.082
 20
-76.1424
 30
0.0
 10
-151.082
 20
-76.1424
 30
0.0
 10
-151.082
 20
-76.1424
 30
0.0
 10
-151.082
 20
-76.1424
 30
0.0
 10
-158.6898
 20
-71.786
 30
0.0
 10
-158.6898
 20
-71.786
 30
0.0
 10
-158.6898
 20
-71.786
 30
0.0
 10
-158.6898
 20
-71.786
 30
0.0
 10
-166.3929
 20
-76.2481
 30
0.0
 10
-166.3929
 20
-76.2481
 30
0.0
 10
-166.3929
 20
-76.2481
 30
0.0
 10
-166.3929
 20
-76.2481
 30
0.0
 10
-170.9851
 20
-69.622
 30
0.0
 10
-170.9851
 20
-69.622
 30
0.0
  0
SPLINE
  5
7A
330
1F
100
AcDbEntity
  8
layer 1
100
AcDbSpline
210
0.0
220
0.0
230
1.0
 70
    11
 71
     3
 72
    20
 73
    16
 74
     0
 42
0.0000000001
 43
0.0000000001
 12
1.0
 22
0.0
 32
0.0
 13
1.0
 23
0.0
 33
0.0
 40
0.0
 40
0.0
 40
0.0
 40
0.0
 40
0.2
 40
0.2
 40
0.2
 40
0.2
 40
0.4
 40
0.4
 40
0.4
 40
0.4
 40
0.6
 40
0.6
 40
0.6
 40
0.6
 40
1.0
 40
1.0
 40
1.0
 40
1.0
 10
-186.7414
 20
-69.6285
 30
0.0
 10
-186.7414
 20
-69.6285
 30
0.0
 10
-176.6577
 20
-69.6285
 30
0.0
 10
-176.6577
 20
-69.6285
 30
0.0
 10
-176.6577
 20
-69.6285
 30
0.0
 10
-176.6577
 20
-69.6285
 30
0.0
 10
-170.7242
 20
-78.8469
 30
0.0
 10
-170.7242
 20
-78.8469
 30
0.0
 10
-170.7242
 20
-78.8469
 30
0.0
 10
-170.7939
 20
-78.9016
 30
0.0
 10
-186.3436
 20
-88.063
 30
0.0
 10
-186.7401
 20
-88.2851
 30
0.0
 10
-186.7401
 20
-88.2851
 30
0.0
 10
-186.7401
 20
-88.2851
 30
0.0
 10
-186.7414
 20
-69.6285
 30
0.0
 10
-186.7414
 20
-69.6285
 30
0.0
  0
SPLINE
  5
7B
330
1F
100
AcDbEntity
  8
layer 1
100
AcDbSpline
210
0.0
220
0.0
230
1.0
 70
    11
 71
     3
 72
    24
 73
    20
 74
     0
 42
0.0000000001
 43
0.0000000001
 12
1.0
 22
0.0
 32
0.0
 13
1.0
 23
0.0
 33
0.0
 40
0.0
 40
0.0
 40
0.0
 40
0.0
 40
0.1666666666666667
 40
0.1666666666666667
 40
0.1666666666666667
 40
0.1666666666666667
 40
0.3333333333333333
 40
0.3333333333333333
 40
0.3333333333333333
 40
0.3333333333333333
 40
0.5
 40
0.5
 40
0.5
 40
0.5
 40
0.6666666666666666
 40
0.6666666666666666
 40
0.6666666666666666
 40
0.6666666666666666
 40
1.0
 40
1.0
 40
1.0
 40
1.0
 10
-161.2079
 20
-106.5513
 30
0.0
 10
-161.2079
 20
-106.5513
 30
0.0
 10
-163.679
 20
-104.8937
 30
0.0
 10
-163.679
 20
-104.8937
 30
0.0
 10
-163.679
 20
-104.8937
 30
0.0
 10
-163.679
 20
-104.8937
 30
0.0
 10
-158.7022
 20
-97.1977
 30
0.0
 10
-158.7022
 20
-97.1977
 30
0.0
 10
-158.7022
 20
-97.1977
 30
0.0
 10
-158.7022
 20
-97.1977
 30
0.0
 10
-153.6583
 20
-104.8614
 30
0.0
 10
-153.6583
 20
-104.8614
 30
0.0
 10
-153.6583
 20
-104.8614
 30
0.0
 10
-153.6583
 20
-104.8614
 30
0.0
 10
-158.7092
 20
-107.9838
 30
0.0
 10
-158.7092
 20
-107.9838
 30
0.0
 10
-158.7092
 20
-107.9838
 30
0.0
 10
-158.7092
 20
-107.9838
 30
0.0
 10
-161.2079
 20
-106.5513
 30
0.0
 10
-161.2079
 20
-106.5513
 30
0.0
  0
SPLINE
  5
7C
330
1F
100
AcDbEntity
  8
layer 1
100
AcDbSpline
210
0.0
220
0.0
230
1.0
 70
    11
 71
     3
 72
    20
 73
    16
 74
     0
 42
0.0000000001
 43
0.0000000001
 12
1.0
 22
0.0
 32
0.0
 13
1.0
 23
0.0
 33
0.0
 40
0.0
 40
0.0
 40
0.0
 40
0.0
 40
0.2
 40
0.2
 40
0.2
 40
0.2
 40
0.4
 40
0.4
 40
0.4
 40
0.4
 40
0.6
 40
0.6
 40
0.6
 40
0.6
 40
1.0
 40
1.0
 40
1.0
 40
1.0
 10
-184.3441
 20
-92.6377
 30
0.0
 10
-184.3441
 20
-92.6377
 30
0.0
 10
-167.9471
 20
-82.8504
 30
0.0
 10
-167.9471
 20
-82.8504
 30
0.0
 10
-167.9471
 20
-82.8504
 30
0.0
 10
-167.9471
 20
-82.8504
 30
0.0
 10
-161.554
 20
-92.6322
 30
0.0
 10
-161.554
 20
-92.6322
 30
0.0
 10
-161.554
 20
-92.6322
 30
0.0
 10
-161.554
 20
-92.6322
 30
0.0
 10
-168.0922
 20
-102.4598
 30
0.0
 10
-168.0922
 20
-102.4598
 30
0.0
 10
-168.0922
 20
-102.4598
 30
0.0
 10
-168.0922
 20
-102.4598
 30
0.0
 10
-184.3441
 20
-92.6377
 30
0.0
 10
-184.3441
 20
-92.6377
 30
0.0
  0
SPLINE
  5
7D
330
1F
100
AcDbEntity
  8
layer 1
100
AcDbSpline
210
0.0
220
0.0
230
1.0
 70
    11
 71
     3
 72
    20
 73
    16
 74
     0
 42
0.0000000001
 43
0.0000000001
 12
1.0
 22
0.0
 32
0.0
 13
1.0
 23
0.0
 33
0.0
 40
0.0
 40
0.0
 40
0.0
 40
0.0
 40
0.2
 40
0.2
 40
0.2
 40
0.2
 40
0.4
 40
0.4
 40
0.4
 40
0.4
 40
0.6
 40
0.6
 40
0.6
 40
0.6
 40
1.0
 40
1.0
 40
1.0
 40
1.0
 10
-155.8728
 20
-92.6512
 30
0.0
 10
-155.8728
 20
-92.6512
 30
0.0
 10
-149.4522
 20
-82.8518
 30
0.0
 10
-149.4522
 20
-82.8518
 30
0.0
 10
-149.4522
 20
-82.8518
 30
0.0
 10
-149.4522
 20
-82.8518
 30
0.0
 10
-133.0415
 20
-92.636
 30
0.0
 10
-133.0415
 20
-92.636
 30
0.0
 10
-133.0415
 20
-92.636
 30
0.0
 10
-133.0415
 20
-92.636
 30
0.0
 10
-149.3023
 20
-102.4032
 30
0.0
 10
-149.3023
 20
-102.4032
 30
0.0
 10
-149.3023
 20
-102.4032
 30
0.0
 10
-149.3023
 20
-102.4032
 30
0.0
 10
-155.8728
 20
-92.6512
 30
0.0
 10
-155.8728
 20
-92.6512
 30
0.0
  0
SPLINE
  5
7E
330
1F
100
AcDbEntity
  8
layer 1
100
AcDbSpline
210
0.0
220
0.0
230
1.0
 70
    11
 71
     3
 72
    20
 73
    16
 74
     0
 42
0.0000000001
 43
0.0000000001
 12
1.0
 22
0.0
 32
0.0
 13
1.0
 23
0.0
 33
0.0
 40
0.0
 40
0.0
 40
0.0
 40
0.0
 40
0.2
 40
0.2
 40
0.2
 40
0.2
 40
0.4
 40
0.4
 40
0.4
 40
0.4
 40
0.6
 40
0.6
 40
0.6
 40
0.6
 40
1.0
 40
1.0
 40
1.0
 40
1.0
 10
-146.6992
 20
-78.7384
 30
0.0
 10
-144.6647
 20
-75.4947
 30
0.0
 10
-143.0145
 20
-73.0572
 30
0.0
 10
-140.7494
 20
-69.6221
 30
0.0
 10
-140.7494
 20
-69.6221
 30
0.0
 10
-140.7494
 20
-69.6221
 30
0.0
 10
-130.6441
 20
-69.619
 30
0.0
 10
-130.6441
 20
-69.619
 30
0.0
 10
-130.6441
 20
-69.619
 30
0.0
 10
-130.6441
 20
-69.619
 30
0.0
 10
-130.704
 20
-88.3242
 30
0.0
 10
-130.704
 20
-88.3242
 30
0.0
 10
-130.704
 20
-88.3242
 30
0.0
 10
-130.704
 20
-88.3242
 30
0.0
 10
-146.6992
 20
-78.7384
 30
0.0
 10
-146.6992
 20
-78.7384
 30
0.0
  0
SPLINE
  5
7F
330
1F
100
AcDbEntity
  8
layer 1
100
AcDbSpline
210
0.0
220
0.0
230
1.0
 70
    11
 71
     3
 72
    20
 73
    16
 74
     0
 42
0.0000000001
 43
0.0000000001
 12
1.0
 22
0.0
 32
0.0
 13
1.0
 23
0.0
 33
0.0
 40
0.0
 40
0.0
 40
0.0
 40
0.0
 40
0.2
 40
0.2
 40
0.2
 40
0.2
 40
0.4
 40
0.4
 40
0.4
 40
0.4
 40
0.6
 40
0.6
 40
0.6
 40
0.6
 40
1.0
 40
1.0
 40
1.0
 40
1.0
 10
-163.7271
 20
-80.4089
 30
0.0
 10
-163.7271
 20
-80.4089
 30
0.0
 10
-158.6689
 20
-77.362
 30
0.0
 10
-158.6689
 20
-77.362
 30
0.0
 10
-158.6689
 20
-77.362
 30
0.0
 10
-158.6689
 20
-77.362
 30
0.0
 10
-153.6583
 20
-80.4149
 30
0.0
 10
-153.6583
 20
-80.4149
 30
0.0
 10
-153.6583
 20
-80.4149
 30
0.0
 10
-153.6583
 20
-80.4149
 30
0.0
 10
-158.6635
 20
-88.0365
 30
0.0
 10
-158.6635
 20
-88.0365
 30
0.0
 10
-158.6635
 20
-88.0365
 30
0.0
 10
-158.6635
 20
-88.0365
 30
0.0
 10
-163.7271
 20
-80.4089
 30
0.0
 10
-163.7271
 20
-80.4089
 30
0.0
  0
SPLINE
  5
80
330
1F
100
AcDbEntity
  8
layer 1
100
AcDbSpline
210
0.0
220
0.0
230
1.0
 70
    11
 71
     3
 72
    24
 73
    20
 74
     0
 42
0.0000000001
 43
0.0000000001
 12
1.0
 22
0.0
 32
0.0
 13
1.0
 23
0.0
 33
0.0
 40
0.0
 40
0.0
 40
0.0
 40
0.0
 40
0.1666666666666667
 40
0.1666666666666667
 40
0.1666666666666667
 40
0.1666666666666667
 40
0.3333333333333333
 40
0.3333333333333333
 40
0.3333333333333333
 40
0.3333333333333333
 40
0.5
 40
0.5
 40
0.5
 40
0.5
 40
0.6666666666666666
 40
0.6666666666666666
 40
0.6666666666666666
 40
0.6666666666666666
 40
1.0
 40
1.0
 40
1.0
 40
1.0
 10
-170.9838
 20
-115.6718
 30
0.0
 10
-170.9838
 20
-115.6718
 30
0.0
 10
-146.4347
 20
-115.6718
 30
0.0
 10
-146.4347
 20
-115.6718
 30
0.0
 10
-146.4347
 20
-115.6718
 30
0.0
 10
-146.4347
 20
-115.6718
 30
0.0
 10
-151.0807
 20
-109.1514
 30
0.0
 10
-151.0807
 20
-109.1514
 30
0.0
 10
-151.0807
 20
-109.1514
 30
0.0
 10
-151.0807
 20
-109.1514
 30
0.0
 10
-158.6885
 20
-113.5077
 30
0.0
 10
-158.6885
 20
-113.5077
 30
0.0
 10
-158.6885
 20
-113.5077
 30
0.0
 10
-158.6885
 20
-113.5077
 30
0.0
 10
-166.3916
 20
-109.0457
 30
0.0
 10
-166.3916
 20
-109.0457
 30
0.0
 10
-166.3916
 20
-109.0457
 30
0.0
 10
-166.3916
 20
-109.0457
 30
0.0
 10
-170.9838
 20
-115.6718
 30
0.0
 10
-170.9838
 20
-115.6718
 30
0.0
  0
SPLINE
  5
81
330
1F
100
AcDbEntity
  8
layer 1
100
AcDbSpline
210
0.0
220
0.0
230
1.0
 70
    11
 71
     3
 72
    20
 73
    16
 74
     0
 42
0.0000000001
 43
0.0000000001
 12
1.0
 22
0.0
 32
0.0
 13
1.0
 23
0.0
 33
0.0
 40
0.0
 40
0.0
 40
0.0
 40
0.0
 40
0.2
 40
0.2
 40
0.2
 40
0.2
 40
0.4
 40
0.4
 40
0.4
 40
0.4
 40
0.6
 40
0.6
 40
0.6
 40
0.6
 40
1.0
 40
1.0
 40
1.0
 40
1.0
 10
-186.7401
 20
-115.6653
 30
0.0
 10
-186.7401
 20
-115.6653
 30
0.0
 10
-176.6564
 20
-115.6653
 30
0.0
 10
-176.6564
 20
-115.6653
 30
0.0
 10
-176.6564
 20
-115.6653
 30
0.0
 10
-176.6564
 20
-115.6653
 30
0.0
 10
-170.7229
 20
-106.4469
 30
0.0
 10
-170.7229
 20
-106.4469
 30
0.0
 10
-170.7229
 20
-106.4469
 30
0.0
 10
-170.7927
 20
-106.3922
 30
0.0
 10
-186.3424
 20
-97.2308
 30
0.0
 10
-186.7388
 20
-97.0086
 30
0.0
 10
-186.7388
 20
-97.0086
 30
0.0
 10
-186.7388
 20
-97.0086
 30
0.0
 10
-186.7401
 20
-115.6653
 30
0.0
 10
-186.7401
 20
-115.6653
 30
0.0
  0
SPLINE
  5
82
330
1F
100
AcDbEntity
  8
layer 1
100
AcDbSpline
210
0.0
220
0.0
230
1.0
 70
    11
 71
     3
 72
    20
 73
    16
 74
     0
 42
0.0000000001
 43
0.0000000001
 12
1.0
 22
0.0
 32
0.0
 13
1.0
 23
0.0
 33
0.0
 40
0.0
 40
0.0
 40
0.0
 40
0.0
 40
0.2
 40
0.2
 40
0.2
 40
0.2
 40
0.4
 40
0.4
 40
0.4
 40
0.4
 40
0.6
 40
0.6
 40
0.6
 40
0.6
 40
1.0
 40
1.0
 40
1.0
 40
1.0
 10
-146.6978
 20
-106.5555
 30
0.0
 10
-144.6633
 20
-109.7992
 30
0.0
 10
-143.0131
 20
-112.2367
 30
0.0
 10
-140.748
 20
-115.6718
 30
0.0
 10
-140.748
 20
-115.6718
 30
0.0
 10
-140.748
 20
-115.6718
 30
0.0
 10
-130.6427
 20
-115.6749
 30
0.0
 10
-130.6427
 20
-115.6749
 30
0.0
 10
-130.6427
 20
-115.6749
 30
0.0
 10
-130.6427
 20
-115.6749
 30
0.0
 10
-130.7026
 20
-96.9697
 30
0.0
 10
-130.7026
 20
-96.9697
 30
0.0
 10
-130.7026
 20
-96.9697
 30
0.0
 10
-130.7026
 20
-96.9697
 30
0.0
 10
-146.6978
 20
-106.5555
 30
0.0
 10
-146.6978
 20
-106.5555
 30
0.0
  0
SPLINE
  5
83
330
1F
100
AcDbEntity
  8
layer 1
100
AcDbSpline
210
0.0
220
0.0
230
1.0
 70
    11
 71
     3
 72
    24
 73
    20
 74
     0
 42
0.0000000001
 43
0.0000000001
 12
1.0
 22
0.0
 32
0.0
 13
1.0
 23
0.0
 33
0.0
 40
0.0
 40
0.0
 40
0.0
 40
0.0
 40
0.1666666666666667
 40
0.1666666666666667
 40
0.1666666666666667
 40
0.1666666666666667
 40
0.3333333333333333
 40
0.3333333333333333
 40
0.3333333333333333
 40
0.3333333333333333
 40
0.5
 40
0.5
 40
0.5
 40
0.5
 40
0.6666666666666666
 40
0.6666666666666666
 40
0.6666666666666666
 40
0.6666666666666666
 40
1.0
 40
1.0
 40
1.0
 40
1.0
 10
-114.9298
 20
68.4792
 30
0.0
 10
-114.9298
 20
68.4792
 30
0.0
 10
-90.3807
 20
68.4792
 30
0.0
 10
-90.3807
 20
68.4792
 30
0.0
 10
-90.3807
 20
68.4792
 30
0.0
 10
-90.3807
 20
68.4792
 30
0.0
 10
-95.0267
 20
61.9588
 30
0.0
 10
-95.0267
 20
61.9588
 30
0.0
 10
-95.0267
 20
61.9588
 30
0.0
 10
-95.0267
 20
61.9588
 30
0.0
 10
-102.6345
 20
66.3151
 30
0.0
 10
-102.6345
 20
66.3151
 30
0.0
 10
-102.6345
 20
66.3151
 30
0.0
 10
-102.6345
 20
66.3151
 30
0.0
 10
-110.3376
 20
61.8531
 30
0.0
 10
-110.3376
 20
61.8531
 30
0.0
 10
-110.3376
 20
61.8531
 30
0.0
 10
-110.3376
 20
61.8531
 30
0.0
 10
-114.9298
 20
68.4792
 30
0.0
 10
-114.9298
 20
68.4792
 30
0.0
  0
SPLINE
  5
84
330
1F
100
AcDbEntity
  8
layer 1
100
AcDbSpline
210
0.0
220
0.0
230
1.0
 70
    11
 71
     3
 72
    20
 73
    16
 74
     0
 42
0.0000000001
 43
0.0000000001
 12
1.0
 22
0.0
 32
0.0
 13
1.0
 23
0.0
 33
0.0
 40
0.0
 40
0.0
 40
0.0
 40
0.0
 40
0.2
 40
0.2
 40
0.2
 40
0.2
 40
0.4
 40
0.4
 40
0.4
 40
0.4
 40
0.6
 40
0.6
 40
0.6
 40
0.6
 40
1.0
 40
1.0
 40
1.0
 40
1.0
 10
-130.6861
 20
68.4727
 30
0.0
 10
-130.6861
 20
68.4727
 30
0.0
 10
-120.6024
 20
68.4727
 30
0.0
 10
-120.6024
 20
68.4727
 30
0.0
 10
-120.6024
 20
68.4727
 30
0.0
 10
-120.6024
 20
68.4727
 30
0.0
 10
-114.6689
 20
59.2543
 30
0.0
 10
-114.6689
 20
59.2543
 30
0.0
 10
-114.6689
 20
59.2543
 30
0.0
 10
-114.7386
 20
59.1995
 30
0.0
 10
-130.2884
 20
50.0382
 30
0.0
 10
-130.6848
 20
49.816
 30
0.0
 10
-130.6848
 20
49.816
 30
0.0
 10
-130.6848
 20
49.816
 30
0.0
 10
-130.6861
 20
68.4727
 30
0.0
 10
-130.6861
 20
68.4727
 30
0.0
  0
SPLINE
  5
85
330
1F
100
AcDbEntity
  8
layer 1
100
AcDbSpline
210
0.0
220
0.0
230
1.0
 70
    11
 71
     3
 72
    24
 73
    20
 74
     0
 42
0.0000000001
 43
0.0000000001
 12
1.0
 22
0.0
 32
0.0
 13
1.0
 23
0.0
 33
0.0
 40
0.0
 40
0.0
 40
0.0
 40
0.0
 40
0.1666666666666667
 40
0.1666666666666667
 40
0.1666666666666667
 40
0.1666666666666667
 40
0.3333333333333333
 40
0.3333333333333333
 40
0.3333333333333333
 40
0.3333333333333333
 40
0.5
 40
0.5
 40
0.5
 40
0.5
 40
0.6666666666666666
 40
0.6666666666666666
 40
0.6666666666666666
 40
0.6666666666666666
 40
1.0
 40
1.0
 40
1.0
 40
1.0
 10
-105.1526
 20
31.5499
 30
0.0
 10
-105.1526
 20
31.5499
 30
0.0
 10
-107.6237
 20
33.2075
 30
0.0
 10
-107.6237
 20
33.2075
 30
0.0
 10
-107.6237
 20
33.2075
 30
0.0
 10
-107.6237
 20
33.2075
 30
0.0
 10
-102.6469
 20
40.9034
 30
0.0
 10
-102.6469
 20
40.9034
 30
0.0
 10
-102.6469
 20
40.9034
 30
0.0
 10
-102.6469
 20
40.9034
 30
0.0
 10
-97.603
 20
33.2398
 30
0.0
 10
-97.603
 20
33.2398
 30
0.0
 10
-97.603
 20
33.2398
 30
0.0
 10
-97.603
 20
33.2398
 30
0.0
 10
-102.654
 20
30.1174
 30
0.0
 10
-102.654
 20
30.1174
 30
0.0
 10
-102.654
 20
30.1174
 30
0.0
 10
-102.654
 20
30.1174
 30
0.0
 10
-105.1526
 20
31.5499
 30
0.0
 10
-105.1526
 20
31.5499
 30
0.0
  0
SPLINE
  5
86
330
1F
100
AcDbEntity
  8
layer 1
100
AcDbSpline
210
0.0
220
0.0
230
1.0
 70
    11
 71
     3
 72
    20
 73
    16
 74
     0
 42
0.0000000001
 43
0.0000000001
 12
1.0
 22
0.0
 32
0.0
 13
1.0
 23
0.0
 33
0.0
 40
0.0
 40
0.0
 40
0.0
 40
0.0
 40
0.2
 40
0.2
 40
0.2
 40
0.2
 40
0.4
 40
0.4
 40
0.4
 40
0.4
 40
0.6
 40
0.6
 40
0.6
 40
0.6
 40
1.0
 40
1.0
 40
1.0
 40
1.0
 10
-128.2888
 20
45.4634
 30
0.0
 10
-128.2888
 20
45.4634
 30
0.0
 10
-111.8918
 20
55.2508
 30
0.0
 10
-111.8918
 20
55.2508
 30
0.0
 10
-111.8918
 20
55.2508
 30
0.0
 10
-111.8918
 20
55.2508
 30
0.0
 10
-105.4987
 20
45.469
 30
0.0
 10
-105.4987
 20
45.469
 30
0.0
 10
-105.4987
 20
45.469
 30
0.0
 10
-105.4987
 20
45.469
 30
0.0
 10
-112.0369
 20
35.6414
 30
0.0
 10
-112.0369
 20
35.6414
 30
0.0
 10
-112.0369
 20
35.6414
 30
0.0
 10
-112.0369
 20
35.6414
 30
0.0
 10
-128.2888
 20
45.4634
 30
0.0
 10
-128.2888
 20
45.4634
 30
0.0
  0
SPLINE
  5
87
330
1F
100
AcDbEntity
  8
layer 1
100
AcDbSpline
210
0.0
220
0.0
230
1.0
 70
    11
 71
     3
 72
    20
 73
    16
 74
     0
 42
0.0000000001
 43
0.0000000001
 12
1.0
 22
0.0
 32
0.0
 13
1.0
 23
0.0
 33
0.0
 40
0.0
 40
0.0
 40
0.0
 40
0.0
 40
0.2
 40
0.2
 40
0.2
 40
0.2
 40
0.4
 40
0.4
 40
0.4
 40
0.4
 40
0.6
 40
0.6
 40
0.6
 40
0.6
 40
1.0
 40
1.0
 40
1.0
 40
1.0
 10
-99.8175
 20
45.4499
 30
0.0
 10
-99.8175
 20
45.4499
 30
0.0
 10
-93.3969
 20
55.2494
 30
0.0
 10
-93.3969
 20
55.2494
 30
0.0
 10
-93.3969
 20
55.2494
 30
0.0
 10
-93.3969
 20
55.2494
 30
0.0
 10
-76.9862
 20
45.4652
 30
0.0
 10
-76.9862
 20
45.4652
 30
0.0
 10
-76.9862
 20
45.4652
 30
0.0
 10
-76.9862
 20
45.4652
 30
0.0
 10
-93.247
 20
35.6979
 30
0.0
 10
-93.247
 20
35.6979
 30
0.0
 10
-93.247
 20
35.6979
 30
0.0
 10
-93.247
 20
35.6979
 30
0.0
 10
-99.8175
 20
45.4499
 30
0.0
 10
-99.8175
 20
45.4499
 30
0.0
  0
SPLINE
  5
88
330
1F
100
AcDbEntity
  8
layer 1
100
AcDbSpline
210
0.0
220
0.0
230
1.0
 70
    11
 71
     3
 72
    20
 73
    16
 74
     0
 42
0.0000000001
 43
0.0000000001
 12
1.0
 22
0.0
 32
0.0
 13
1.0
 23
0.0
 33
0.0
 40
0.0
 40
0.0
 40
0.0
 40
0.0
 40
0.2
 40
0.2
 40
0.2
 40
0.2
 40
0.4
 40
0.4
 40
0.4
 40
0.4
 40
0.6
 40
0.6
 40
0.6
 40
0.6
 40
1.0
 40
1.0
 40
1.0
 40
1.0
 10
-90.6439
 20
59.3628
 30
0.0
 10
-88.6094
 20
62.6065
 30
0.0
 10
-86.9592
 20
65.044
 30
0.0
 10
-84.6941
 20
68.4791
 30
0.0
 10
-84.6941
 20
68.4791
 30
0.0
 10
-84.6941
 20
68.4791
 30
0.0
 10
-74.5888
 20
68.4822
 30
0.0
 10
-74.5888
 20
68.4822
 30
0.0
 10
-74.5888
 20
68.4822
 30
0.0
 10
-74.5888
 20
68.4822
 30
0.0
 10
-74.6487
 20
49.777
 30
0.0
 10
-74.6487
 20
49.777
 30
0.0
 10
-74.6487
 20
49.777
 30
0.0
 10
-74.6487
 20
49.777
 30
0.0
 10
-90.6439
 20
59.3628
 30
0.0
 10
-90.6439
 20
59.3628
 30
0.0
  0
SPLINE
  5
89
330
1F
100
AcDbEntity
  8
layer 1
100
AcDbSpline
210
0.0
220
0.0
230
1.0
 70
    11
 71
     3
 72
    20
 73
    16
 74
     0
 42
0.0000000001
 43
0.0000000001
 12
1.0
 22
0.0
 32
0.0
 13
1.0
 23
0.0
 33
0.0
 40
0.0
 40
0.0
 40
0.0
 40
0.0
 40
0.2
 40
0.2
 40
0.2
 40
0.2
 40
0.4
 40
0.4
 40
0.4
 40
0.4
 40
0.6
 40
0.6
 40
0.6
 40
0.6
 40
1.0
 40
1.0
 40
1.0
 40
1.0
 10
-107.6718
 20
57.6923
 30
0.0
 10
-107.6718
 20
57.6923
 30
0.0
 10
-102.6136
 20
60.7392
 30
0.0
 10
-102.6136
 20
60.7392
 30
0.0
 10
-102.6136
 20
60.7392
 30
0.0
 10
-102.6136
 20
60.7392
 30
0.0
 10
-97.603
 20
57.6863
 30
0.0
 10
-97.603
 20
57.6863
 30
0.0
 10
-97.603
 20
57.6863
 30
0.0
 10
-97.603
 20
57.6863
 30
0.0
 10
-102.6082
 20
50.0647
 30
0.0
 10
-102.6082
 20
50.0647
 30
0.0
 10
-102.6082
 20
50.0647
 30
0.0
 10
-102.6082
 20
50.0647
 30
0.0
 10
-107.6718
 20
57.6923
 30
0.0
 10
-107.6718
 20
57.6923
 30
0.0
  0
SPLINE
  5
8A
330
1F
100
AcDbEntity
  8
layer 1
100
AcDbSpline
210
0.0
220
0.0
230
1.0
 70
    11
 71
     3
 72
    24
 73
    20
 74
     0
 42
0.0000000001
 43
0.0000000001
 12
1.0
 22
0.0
 32
0.0
 13
1.0
 23
0.0
 33
0.0
 40
0.0
 40
0.0
 40
0.0
 40
0.0
 40
0.1666666666666667
 40
0.1666666666666667
 40
0.1666666666666667
 40
0.1666666666666667
 40
0.3333333333333333
 40
0.3333333333333333
 40
0.3333333333333333
 40
0.3333333333333333
 40
0.5
 40
0.5
 40
0.5
 40
0.5
 40
0.6666666666666666
 40
0.6666666666666666
 40
0.6666666666666666
 40
0.6666666666666666
 40
1.0
 40
1.0
 40
1.0
 40
1.0
 10
-114.9286
 20
22.4294
 30
0.0
 10
-114.9286
 20
22.4294
 30
0.0
 10
-90.3794
 20
22.4294
 30
0.0
 10
-90.3794
 20
22.4294
 30
0.0
 10
-90.3794
 20
22.4294
 30
0.0
 10
-90.3794
 20
22.4294
 30
0.0
 10
-95.0254
 20
28.9498
 30
0.0
 10
-95.0254
 20
28.9498
 30
0.0
 10
-95.0254
 20
28.9498
 30
0.0
 10
-95.0254
 20
28.9498
 30
0.0
 10
-102.6332
 20
24.5934
 30
0.0
 10
-102.6332
 20
24.5934
 30
0.0
 10
-102.6332
 20
24.5934
 30
0.0
 10
-102.6332
 20
24.5934
 30
0.0
 10
-110.3363
 20
29.0555
 30
0.0
 10
-110.3363
 20
29.0555
 30
0.0
 10
-110.3363
 20
29.0555
 30
0.0
 10
-110.3363
 20
29.0555
 30
0.0
 10
-114.9286
 20
22.4294
 30
0.0
 10
-114.9286
 20
22.4294
 30
0.0
  0
SPLINE
  5
8B
330
1F
100
AcDbEntity
  8
layer 1
100
AcDbSpline
210
0.0
220
0.0
230
1.0
 70
    11
 71
     3
 72
    20
 73
    16
 74
     0
 42
0.0000000001
 43
0.0000000001
 12
1.0
 22
0.0
 32
0.0
 13
1.0
 23
0.0
 33
0.0
 40
0.0
 40
0.0
 40
0.0
 40
0.0
 40
0.2
 40
0.2
 40
0.2
 40
0.2
 40
0.4
 40
0.4
 40
0.4
 40
0.4
 40
0.6
 40
0.6
 40
0.6
 40
0.6
 40
1.0
 40
1.0
 40
1.0
 40
1.0
 10
-130.6849
 20
22.4359
 30
0.0
 10
-130.6849
 20
22.4359
 30
0.0
 10
-120.6011
 20
22.4359
 30
0.0
 10
-120.6011
 20
22.4359
 30
0.0
 10
-120.6011
 20
22.4359
 30
0.0
 10
-120.6011
 20
22.4359
 30
0.0
 10
-114.6676
 20
31.6543
 30
0.0
 10
-114.6676
 20
31.6543
 30
0.0
 10
-114.6676
 20
31.6543
 30
0.0
 10
-114.7374
 20
31.709
 30
0.0
 10
-130.2871
 20
40.8704
 30
0.0
 10
-130.6835
 20
41.0925
 30
0.0
 10
-130.6835
 20
41.0925
 30
0.0
 10
-130.6835
 20
41.0925
 30
0.0
 10
-130.6849
 20
22.4359
 30
0.0
 10
-130.6849
 20
22.4359
 30
0.0
  0
SPLINE
  5
8C
330
1F
100
AcDbEntity
  8
layer 1
100
AcDbSpline
210
0.0
220
0.0
230
1.0
 70
    11
 71
     3
 72
    20
 73
    16
 74
     0
 42
0.0000000001
 43
0.0000000001
 12
1.0
 22
0.0
 32
0.0
 13
1.0
 23
0.0
 33
0.0
 40
0.0
 40
0.0
 40
0.0
 40
0.0
 40
0.2
 40
0.2
 40
0.2
 40
0.2
 40
0.4
 40
0.4
 40
0.4
 40
0.4
 40
0.6
 40
0.6
 40
0.6
 40
0.6
 40
1.0
 40
1.0
 40
1.0
 40
1.0
 10
-90.6426
 20
31.5457
 30
0.0
 10
-88.6081
 20
28.302
 30
0.0
 10
-86.9578
 20
25.8645
 30
0.0
 10
-84.6927
 20
22.4294
 30
0.0
 10
-84.6927
 20
22.4294
 30
0.0
 10
-84.6927
 20
22.4294
 30
0.0
 10
-74.5874
 20
22.4263
 30
0.0
 10
-74.5874
 20
22.4263
 30
0.0
 10
-74.5874
 20
22.4263
 30
0.0
 10
-74.5874
 20
22.4263
 30
0.0
 10
-74.6473
 20
41.1315
 30
0.0
 10
-74.6473
 20
41.1315
 30
0.0
 10
-74.6473
 20
41.1315
 30
0.0
 10
-74.6473
 20
41.1315
 30
0.0
 10
-90.6426
 20
31.5457
 30
0.0
 10
-90.6426
 20
31.5457
 30
0.0
  0
SPLINE
  5
8D
330
1F
100
AcDbEntity
  8
layer 1
100
AcDbSpline
210
0.0
220
0.0
230
1.0
 70
    11
 71
     3
 72
    24
 73
    20
 74
     0
 42
0.0000000001
 43
0.0000000001
 12
1.0
 22
0.0
 32
0.0
 13
1.0
 23
0.0
 33
0.0
 40
0.0
 40
0.0
 40
0.0
 40
0.0
 40
0.1666666666666667
 40
0.1666666666666667
 40
0.1666666666666667
 40
0.1666666666666667
 40
0.3333333333333333
 40
0.3333333333333333
 40
0.3333333333333333
 40
0.3333333333333333
 40
0.5
 40
0.5
 40
0.5
 40
0.5
 40
0.6666666666666666
 40
0.6666666666666666
 40
0.6666666666666666
 40
0.6666666666666666
 40
1.0
 40
1.0
 40
1.0
 40
1.0
 10
-114.9298
 20
22.4535
 30
0.0
 10
-114.9298
 20
22.4535
 30
0.0
 10
-90.3807
 20
22.4535
 30
0.0
 10
-90.3807
 20
22.4535
 30
0.0
 10
-90.3807
 20
22.4535
 30
0.0
 10
-90.3807
 20
22.4535
 30
0.0
 10
-95.0267
 20
15.9331
 30
0.0
 10
-95.0267
 20
15.9331
 30
0.0
 10
-95.0267
 20
15.9331
 30
0.0
 10
-95.0267
 20
15.9331
 30
0.0
 10
-102.6345
 20
20.2894
 30
0.0
 10
-102.6345
 20
20.2894
 30
0.0
 10
-102.6345
 20
20.2894
 30
0.0
 10
-102.6345
 20
20.2894
 30
0.0
 10
-110.3376
 20
15.8273
 30
0.0
 10
-110.3376
 20
15.8273
 30
0.0
 10
-110.3376
 20
15.8273
 30
0.0
 10
-110.3376
 20
15.8273
 30
0.0
 10
-114.9298
 20
22.4535
 30
0.0
 10
-114.9298
 20
22.4535
 30
0.0
  0
SPLINE
  5
8E
330
1F
100
AcDbEntity
  8
layer 1
100
AcDbSpline
210
0.0
220
0.0
230
1.0
 70
    11
 71
     3
 72
    20
 73
    16
 74
     0
 42
0.0000000001
 43
0.0000000001
 12
1.0
 22
0.0
 32
0.0
 13
1.0
 23
0.0
 33
0.0
 40
0.0
 40
0.0
 40
0.0
 40
0.0
 40
0.2
 40
0.2
 40
0.2
 40
0.2
 40
0.4
 40
0.4
 40
0.4
 40
0.4
 40
0.6
 40
0.6
 40
0.6
 40
0.6
 40
1.0
 40
1.0
 40
1.0
 40
1.0
 10
-130.6861
 20
22.4469
 30
0.0
 10
-130.6861
 20
22.4469
 30
0.0
 10
-120.6024
 20
22.4469
 30
0.0
 10
-120.6024
 20
22.4469
 30
0.0
 10
-120.6024
 20
22.4469
 30
0.0
 10
-120.6024
 20
22.4469
 30
0.0
 10
-114.6689
 20
13.2285
 30
0.0
 10
-114.6689
 20
13.2285
 30
0.0
 10
-114.6689
 20
13.2285
 30
0.0
 10
-114.7386
 20
13.1738
 30
0.0
 10
-130.2884
 20
4.0125
 30
0.0
 10
-130.6848
 20
3.7903
 30
0.0
 10
-130.6848
 20
3.7903
 30
0.0
 10
-130.6848
 20
3.7903
 30
0.0
 10
-130.6861
 20
22.4469
 30
0.0
 10
-130.6861
 20
22.4469
 30
0.0
  0
SPLINE
  5
8F
330
1F
100
AcDbEntity
  8
layer 1
100
AcDbSpline
210
0.0
220
0.0
230
1.0
 70
    11
 71
     3
 72
    24
 73
    20
 74
     0
 42
0.0000000001
 43
0.0000000001
 12
1.0
 22
0.0
 32
0.0
 13
1.0
 23
0.0
 33
0.0
 40
0.0
 40
0.0
 40
0.0
 40
0.0
 40
0.1666666666666667
 40
0.1666666666666667
 40
0.1666666666666667
 40
0.1666666666666667
 40
0.3333333333333333
 40
0.3333333333333333
 40
0.3333333333333333
 40
0.3333333333333333
 40
0.5
 40
0.5
 40
0.5
 40
0.5
 40
0.6666666666666666
 40
0.6666666666666666
 40
0.6666666666666666
 40
0.6666666666666666
 40
1.0
 40
1.0
 40
1.0
 40
1.0
 10
-105.1526
 20
-14.4758
 30
0.0
 10
-105.1526
 20
-14.4758
 30
0.0
 10
-107.6237
 20
-12.8183
 30
0.0
 10
-107.6237
 20
-12.8183
 30
0.0
 10
-107.6237
 20
-12.8183
 30
0.0
 10
-107.6237
 20
-12.8183
 30
0.0
 10
-102.6469
 20
-5.1223
 30
0.0
 10
-102.6469
 20
-5.1223
 30
0.0
 10
-102.6469
 20
-5.1223
 30
0.0
 10
-102.6469
 20
-5.1223
 30
0.0
 10
-97.603
 20
-12.786
 30
0.0
 10
-97.603
 20
-12.786
 30
0.0
 10
-97.603
 20
-12.786
 30
0.0
 10
-97.603
 20
-12.786
 30
0.0
 10
-102.654
 20
-15.9083
 30
0.0
 10
-102.654
 20
-15.9083
 30
0.0
 10
-102.654
 20
-15.9083
 30
0.0
 10
-102.654
 20
-15.9083
 30
0.0
 10
-105.1526
 20
-14.4758
 30
0.0
 10
-105.1526
 20
-14.4758
 30
0.0
  0
SPLINE
  5
90
330
1F
100
AcDbEntity
  8
layer 1
100
AcDbSpline
210
0.0
220
0.0
230
1.0
 70
    11
 71
     3
 72
    20
 73
    16
 74
     0
 42
0.0000000001
 43
0.0000000001
 12
1.0
 22
0.0
 32
0.0
 13
1.0
 23
0.0
 33
0.0
 40
0.0
 40
0.0
 40
0.0
 40
0.0
 40
0.2
 40
0.2
 40
0.2
 40
0.2
 40
0.4
 40
0.4
 40
0.4
 40
0.4
 40
0.6
 40
0.6
 40
0.6
 40
0.6
 40
1.0
 40
1.0
 40
1.0
 40
1.0
 10
-128.2888
 20
-0.5623
 30
0.0
 10
-128.2888
 20
-0.5623
 30
0.0
 10
-111.8918
 20
9.225
 30
0.0
 10
-111.8918
 20
9.225
 30
0.0
 10
-111.8918
 20
9.225
 30
0.0
 10
-111.8918
 20
9.225
 30
0.0
 10
-105.4987
 20
-0.5568
 30
0.0
 10
-105.4987
 20
-0.5568
 30
0.0
 10
-105.4987
 20
-0.5568
 30
0.0
 10
-105.4987
 20
-0.5568
 30
0.0
 10
-112.0369
 20
-10.3844
 30
0.0
 10
-112.0369
 20
-10.3844
 30
0.0
 10
-112.0369
 20
-10.3844
 30
0.0
 10
-112.0369
 20
-10.3844
 30
0.0
 10
-128.2888
 20
-0.5623
 30
0.0
 10
-128.2888
 20
-0.5623
 30
0.0
  0
SPLINE
  5
91
330
1F
100
AcDbEntity
  8
layer 1
100
AcDbSpline
210
0.0
220
0.0
230
1.0
 70
    11
 71
     3
 72
    20
 73
    16
 74
     0
 42
0.0000000001
 43
0.0000000001
 12
1.0
 22
0.0
 32
0.0
 13
1.0
 23
0.0
 33
0.0
 40
0.0
 40
0.0
 40
0.0
 40
0.0
 40
0.2
 40
0.2
 40
0.2
 40
0.2
 40
0.4
 40
0.4
 40
0.4
 40
0.4
 40
0.6
 40
0.6
 40
0.6
 40
0.6
 40
1.0
 40
1.0
 40
1.0
 40
1.0
 10
-99.8175
 20
-0.5758
 30
0.0
 10
-99.8175
 20
-0.5758
 30
0.0
 10
-93.3969
 20
9.2237
 30
0.0
 10
-93.3969
 20
9.2237
 30
0.0
 10
-93.3969
 20
9.2237
 30
0.0
 10
-93.3969
 20
9.2237
 30
0.0
 10
-76.9862
 20
-0.5606
 30
0.0
 10
-76.9862
 20
-0.5606
 30
0.0
 10
-76.9862
 20
-0.5606
 30
0.0
 10
-76.9862
 20
-0.5606
 30
0.0
 10
-93.247
 20
-10.3278
 30
0.0
 10
-93.247
 20
-10.3278
 30
0.0
 10
-93.247
 20
-10.3278
 30
0.0
 10
-93.247
 20
-10.3278
 30
0.0
 10
-99.8175
 20
-0.5758
 30
0.0
 10
-99.8175
 20
-0.5758
 30
0.0
  0
SPLINE
  5
92
330
1F
100
AcDbEntity
  8
layer 1
100
AcDbSpline
210
0.0
220
0.0
230
1.0
 70
    11
 71
     3
 72
    20
 73
    16
 74
     0
 42
0.0000000001
 43
0.0000000001
 12
1.0
 22
0.0
 32
0.0
 13
1.0
 23
0.0
 33
0.0
 40
0.0
 40
0.0
 40
0.0
 40
0.0
 40
0.2
 40
0.2
 40
0.2
 40
0.2
 40
0.4
 40
0.4
 40
0.4
 40
0.4
 40
0.6
 40
0.6
 40
0.6
 40
0.6
 40
1.0
 40
1.0
 40
1.0
 40
1.0
 10
-90.6439
 20
13.3371
 30
0.0
 10
-88.6094
 20
16.5807
 30
0.0
 10
-86.9592
 20
19.0183
 30
0.0
 10
-84.6941
 20
22.4534
 30
0.0
 10
-84.6941
 20
22.4534
 30
0.0
 10
-84.6941
 20
22.4534
 30
0.0
 10
-74.5888
 20
22.4565
 30
0.0
 10
-74.5888
 20
22.4565
 30
0.0
 10
-74.5888
 20
22.4565
 30
0.0
 10
-74.5888
 20
22.4565
 30
0.0
 10
-74.6487
 20
3.7512
 30
0.0
 10
-74.6487
 20
3.7512
 30
0.0
 10
-74.6487
 20
3.7512
 30
0.0
 10
-74.6487
 20
3.7512
 30
0.0
 10
-90.6439
 20
13.3371
 30
0.0
 10
-90.6439
 20
13.3371
 30
0.0
  0
SPLINE
  5
93
330
1F
100
AcDbEntity
  8
layer 1
100
AcDbSpline
210
0.0
220
0.0
230
1.0
 70
    11
 71
     3
 72
    20
 73
    16
 74
     0
 42
0.0000000001
 43
0.0000000001
 12
1.0
 22
0.0
 32
0.0
 13
1.0
 23
0.0
 33
0.0
 40
0.0
 40
0.0
 40
0.0
 40
0.0
 40
0.2
 40
0.2
 40
0.2
 40
0.2
 40
0.4
 40
0.4
 40
0.4
 40
0.4
 40
0.6
 40
0.6
 40
0.6
 40
0.6
 40
1.0
 40
1.0
 40
1.0
 40
1.0
 10
-107.6718
 20
11.6665
 30
0.0
 10
-107.6718
 20
11.6665
 30
0.0
 10
-102.6136
 20
14.7134
 30
0.0
 10
-102.6136
 20
14.7134
 30
0.0
 10
-102.6136
 20
14.7134
 30
0.0
 10
-102.6136
 20
14.7134
 30
0.0
 10
-97.603
 20
11.6606
 30
0.0
 10
-97.603
 20
11.6606
 30
0.0
 10
-97.603
 20
11.6606
 30
0.0
 10
-97.603
 20
11.6606
 30
0.0
 10
-102.6082
 20
4.0389
 30
0.0
 10
-102.6082
 20
4.0389
 30
0.0
 10
-102.6082
 20
4.0389
 30
0.0
 10
-102.6082
 20
4.0389
 30
0.0
 10
-107.6718
 20
11.6665
 30
0.0
 10
-107.6718
 20
11.6665
 30
0.0
  0
SPLINE
  5
94
330
1F
100
AcDbEntity
  8
layer 1
100
AcDbSpline
210
0.0
220
0.0
230
1.0
 70
    11
 71
     3
 72
    24
 73
    20
 74
     0
 42
0.0000000001
 43
0.0000000001
 12
1.0
 22
0.0
 32
0.0
 13
1.0
 23
0.0
 33
0.0
 40
0.0
 40
0.0
 40
0.0
 40
0.0
 40
0.1666666666666667
 40
0.1666666666666667
 40
0.1666666666666667
 40
0.1666666666666667
 40
0.3333333333333333
 40
0.3333333333333333
 40
0.3333333333333333
 40
0.3333333333333333
 40
0.5
 40
0.5
 40
0.5
 40
0.5
 40
0.6666666666666666
 40
0.6666666666666666
 40
0.6666666666666666
 40
0.6666666666666666
 40
1.0
 40
1.0
 40
1.0
 40
1.0
 10
-114.9286
 20
-23.5964
 30
0.0
 10
-114.9286
 20
-23.5964
 30
0.0
 10
-90.3794
 20
-23.5964
 30
0.0
 10
-90.3794
 20
-23.5964
 30
0.0
 10
-90.3794
 20
-23.5964
 30
0.0
 10
-90.3794
 20
-23.5964
 30
0.0
 10
-95.0254
 20
-17.076
 30
0.0
 10
-95.0254
 20
-17.076
 30
0.0
 10
-95.0254
 20
-17.076
 30
0.0
 10
-95.0254
 20
-17.076
 30
0.0
 10
-102.6332
 20
-21.4323
 30
0.0
 10
-102.6332
 20
-21.4323
 30
0.0
 10
-102.6332
 20
-21.4323
 30
0.0
 10
-102.6332
 20
-21.4323
 30
0.0
 10
-110.3363
 20
-16.9703
 30
0.0
 10
-110.3363
 20
-16.9703
 30
0.0
 10
-110.3363
 20
-16.9703
 30
0.0
 10
-110.3363
 20
-16.9703
 30
0.0
 10
-114.9286
 20
-23.5964
 30
0.0
 10
-114.9286
 20
-23.5964
 30
0.0
  0
SPLINE
  5
95
330
1F
100
AcDbEntity
  8
layer 1
100
AcDbSpline
210
0.0
220
0.0
230
1.0
 70
    11
 71
     3
 72
    20
 73
    16
 74
     0
 42
0.0000000001
 43
0.0000000001
 12
1.0
 22
0.0
 32
0.0
 13
1.0
 23
0.0
 33
0.0
 40
0.0
 40
0.0
 40
0.0
 40
0.0
 40
0.2
 40
0.2
 40
0.2
 40
0.2
 40
0.4
 40
0.4
 40
0.4
 40
0.4
 40
0.6
 40
0.6
 40
0.6
 40
0.6
 40
1.0
 40
1.0
 40
1.0
 40
1.0
 10
-130.6849
 20
-23.5899
 30
0.0
 10
-130.6849
 20
-23.5899
 30
0.0
 10
-120.6011
 20
-23.5899
 30
0.0
 10
-120.6011
 20
-23.5899
 30
0.0
 10
-120.6011
 20
-23.5899
 30
0.0
 10
-120.6011
 20
-23.5899
 30
0.0
 10
-114.6676
 20
-14.3715
 30
0.0
 10
-114.6676
 20
-14.3715
 30
0.0
 10
-114.6676
 20
-14.3715
 30
0.0
 10
-114.7374
 20
-14.3167
 30
0.0
 10
-130.2871
 20
-5.1554
 30
0.0
 10
-130.6835
 20
-4.9332
 30
0.0
 10
-130.6835
 20
-4.9332
 30
0.0
 10
-130.6835
 20
-4.9332
 30
0.0
 10
-130.6849
 20
-23.5899
 30
0.0
 10
-130.6849
 20
-23.5899
 30
0.0
  0
SPLINE
  5
96
330
1F
100
AcDbEntity
  8
layer 1
100
AcDbSpline
210
0.0
220
0.0
230
1.0
 70
    11
 71
     3
 72
    20
 73
    16
 74
     0
 42
0.0000000001
 43
0.0000000001
 12
1.0
 22
0.0
 32
0.0
 13
1.0
 23
0.0
 33
0.0
 40
0.0
 40
0.0
 40
0.0
 40
0.0
 40
0.2
 40
0.2
 40
0.2
 40
0.2
 40
0.4
 40
0.4
 40
0.4
 40
0.4
 40
0.6
 40
0.6
 40
0.6
 40
0.6
 40
1.0
 40
1.0
 40
1.0
 40
1.0
 10
-90.6426
 20
-14.4801
 30
0.0
 10
-88.6081
 20
-17.7238
 30
0.0
 10
-86.9578
 20
-20.1613
 30
0.0
 10
-84.6927
 20
-23.5964
 30
0.0
 10
-84.6927
 20
-23.5964
 30
0.0
 10
-84.6927
 20
-23.5964
 30
0.0
 10
-74.5874
 20
-23.5995
 30
0.0
 10
-74.5874
 20
-23.5995
 30
0.0
 10
-74.5874
 20
-23.5995
 30
0.0
 10
-74.5874
 20
-23.5995
 30
0.0
 10
-74.6473
 20
-4.8943
 30
0.0
 10
-74.6473
 20
-4.8943
 30
0.0
 10
-74.6473
 20
-4.8943
 30
0.0
 10
-74.6473
 20
-4.8943
 30
0.0
 10
-90.6426
 20
-14.4801
 30
0.0
 10
-90.6426
 20
-14.4801
 30
0.0
  0
SPLINE
  5
97
330
1F
100
AcDbEntity
  8
layer 1
100
AcDbSpline
210
0.0
220
0.0
230
1.0
 70
    11
 71
     3
 72
    24
 73
    20
 74
     0
 42
0.0000000001
 43
0.0000000001
 12
1.0
 22
0.0
 32
0.0
 13
1.0
 23
0.0
 33
0.0
 40
0.0
 40
0.0
 40
0.0
 40
0.0
 40
0.1666666666666667
 40
0.1666666666666667
 40
0.1666666666666667
 40
0.1666666666666667
 40
0.3333333333333333
 40
0.3333333333333333
 40
0.3333333333333333
 40
0.3333333333333333
 40
0.5
 40
0.5
 40
0.5
 40
0.5
 40
0.6666666666666666
 40
0.6666666666666666
 40
0.6666666666666666
 40
0.6666666666666666
 40
1.0
 40
1.0
 40
1.0
 40
1.0
 10
-114.9298
 20
-23.5962
 30
0.0
 10
-114.9298
 20
-23.5962
 30
0.0
 10
-90.3807
 20
-23.5962
 30
0.0
 10
-90.3807
 20
-23.5962
 30
0.0
 10
-90.3807
 20
-23.5962
 30
0.0
 10
-90.3807
 20
-23.5962
 30
0.0
 10
-95.0267
 20
-30.1166
 30
0.0
 10
-95.0267
 20
-30.1166
 30
0.0
 10
-95.0267
 20
-30.1166
 30
0.0
 10
-95.0267
 20
-30.1166
 30
0.0
 10
-102.6345
 20
-25.7603
 30
0.0
 10
-102.6345
 20
-25.7603
 30
0.0
 10
-102.6345
 20
-25.7603
 30
0.0
 10
-102.6345
 20
-25.7603
 30
0.0
 10
-110.3376
 20
-30.2223
 30
0.0
 10
-110.3376
 20
-30.2223
 30
0.0
 10
-110.3376
 20
-30.2223
 30
0.0
 10
-110.3376
 20
-30.2223
 30
0.0
 10
-114.9298
 20
-23.5962
 30
0.0
 10
-114.9298
 20
-23.5962
 30
0.0
  0
SPLINE
  5
98
330
1F
100
AcDbEntity
  8
layer 1
100
AcDbSpline
210
0.0
220
0.0
230
1.0
 70
    11
 71
     3
 72
    20
 73
    16
 74
     0
 42
0.0000000001
 43
0.0000000001
 12
1.0
 22
0.0
 32
0.0
 13
1.0
 23
0.0
 33
0.0
 40
0.0
 40
0.0
 40
0.0
 40
0.0
 40
0.2
 40
0.2
 40
0.2
 40
0.2
 40
0.4
 40
0.4
 40
0.4
 40
0.4
 40
0.6
 40
0.6
 40
0.6
 40
0.6
 40
1.0
 40
1.0
 40
1.0
 40
1.0
 10
-130.6861
 20
-23.6027
 30
0.0
 10
-130.6861
 20
-23.6027
 30
0.0
 10
-120.6024
 20
-23.6027
 30
0.0
 10
-120.6024
 20
-23.6027
 30
0.0
 10
-120.6024
 20
-23.6027
 30
0.0
 10
-120.6024
 20
-23.6027
 30
0.0
 10
-114.6689
 20
-32.8212
 30
0.0
 10
-114.6689
 20
-32.8212
 30
0.0
 10
-114.6689
 20
-32.8212
 30
0.0
 10
-114.7386
 20
-32.8759
 30
0.0
 10
-130.2884
 20
-42.0372
 30
0.0
 10
-130.6848
 20
-42.2594
 30
0.0
 10
-130.6848
 20
-42.2594
 30
0.0
 10
-130.6848
 20
-42.2594
 30
0.0
 10
-130.6861
 20
-23.6027
 30
0.0
 10
-130.6861
 20
-23.6027
 30
0.0
  0
SPLINE
  5
99
330
1F
100
AcDbEntity
  8
layer 1
100
AcDbSpline
210
0.0
220
0.0
230
1.0
 70
    11
 71
     3
 72
    24
 73
    20
 74
     0
 42
0.0000000001
 43
0.0000000001
 12
1.0
 22
0.0
 32
0.0
 13
1.0
 23
0.0
 33
0.0
 40
0.0
 40
0.0
 40
0.0
 40
0.0
 40
0.1666666666666667
 40
0.1666666666666667
 40
0.1666666666666667
 40
0.1666666666666667
 40
0.3333333333333333
 40
0.3333333333333333
 40
0.3333333333333333
 40
0.3333333333333333
 40
0.5
 40
0.5
 40
0.5
 40
0.5
 40
0.6666666666666666
 40
0.6666666666666666
 40
0.6666666666666666
 40
0.6666666666666666
 40
1.0
 40
1.0
 40
1.0
 40
1.0
 10
-105.1526
 20
-60.5255
 30
0.0
 10
-105.1526
 20
-60.5255
 30
0.0
 10
-107.6237
 20
-58.8679
 30
0.0
 10
-107.6237
 20
-58.8679
 30
0.0
 10
-107.6237
 20
-58.8679
 30
0.0
 10
-107.6237
 20
-58.8679
 30
0.0
 10
-102.6469
 20
-51.172
 30
0.0
 10
-102.6469
 20
-51.172
 30
0.0
 10
-102.6469
 20
-51.172
 30
0.0
 10
-102.6469
 20
-51.172
 30
0.0
 10
-97.603
 20
-58.8357
 30
0.0
 10
-97.603
 20
-58.8357
 30
0.0
 10
-97.603
 20
-58.8357
 30
0.0
 10
-97.603
 20
-58.8357
 30
0.0
 10
-102.654
 20
-61.958
 30
0.0
 10
-102.654
 20
-61.958
 30
0.0
 10
-102.654
 20
-61.958
 30
0.0
 10
-102.654
 20
-61.958
 30
0.0
 10
-105.1526
 20
-60.5255
 30
0.0
 10
-105.1526
 20
-60.5255
 30
0.0
  0
SPLINE
  5
9A
330
1F
100
AcDbEntity
  8
layer 1
100
AcDbSpline
210
0.0
220
0.0
230
1.0
 70
    11
 71
     3
 72
    20
 73
    16
 74
     0
 42
0.0000000001
 43
0.0000000001
 12
1.0
 22
0.0
 32
0.0
 13
1.0
 23
0.0
 33
0.0
 40
0.0
 40
0.0
 40
0.0
 40
0.0
 40
0.2
 40
0.2
 40
0.2
 40
0.2
 40
0.4
 40
0.4
 40
0.4
 40
0.4
 40
0.6
 40
0.6
 40
0.6
 40
0.6
 40
1.0
 40
1.0
 40
1.0
 40
1.0
 10
-128.2888
 20
-46.612
 30
0.0
 10
-128.2888
 20
-46.612
 30
0.0
 10
-111.8918
 20
-36.8246
 30
0.0
 10
-111.8918
 20
-36.8246
 30
0.0
 10
-111.8918
 20
-36.8246
 30
0.0
 10
-111.8918
 20
-36.8246
 30
0.0
 10
-105.4987
 20
-46.6065
 30
0.0
 10
-105.4987
 20
-46.6065
 30
0.0
 10
-105.4987
 20
-46.6065
 30
0.0
 10
-105.4987
 20
-46.6065
 30
0.0
 10
-112.0369
 20
-56.434
 30
0.0
 10
-112.0369
 20
-56.434
 30
0.0
 10
-112.0369
 20
-56.434
 30
0.0
 10
-112.0369
 20
-56.434
 30
0.0
 10
-128.2888
 20
-46.612
 30
0.0
 10
-128.2888
 20
-46.612
 30
0.0
  0
SPLINE
  5
9B
330
1F
100
AcDbEntity
  8
layer 1
100
AcDbSpline
210
0.0
220
0.0
230
1.0
 70
    11
 71
     3
 72
    20
 73
    16
 74
     0
 42
0.0000000001
 43
0.0000000001
 12
1.0
 22
0.0
 32
0.0
 13
1.0
 23
0.0
 33
0.0
 40
0.0
 40
0.0
 40
0.0
 40
0.0
 40
0.2
 40
0.2
 40
0.2
 40
0.2
 40
0.4
 40
0.4
 40
0.4
 40
0.4
 40
0.6
 40
0.6
 40
0.6
 40
0.6
 40
1.0
 40
1.0
 40
1.0
 40
1.0
 10
-99.8175
 20
-46.6255
 30
0.0
 10
-99.8175
 20
-46.6255
 30
0.0
 10
-93.3969
 20
-36.826
 30
0.0
 10
-93.3969
 20
-36.826
 30
0.0
 10
-93.3969
 20
-36.826
 30
0.0
 10
-93.3969
 20
-36.826
 30
0.0
 10
-76.9862
 20
-46.6103
 30
0.0
 10
-76.9862
 20
-46.6103
 30
0.0
 10
-76.9862
 20
-46.6103
 30
0.0
 10
-76.9862
 20
-46.6103
 30
0.0
 10
-93.247
 20
-56.3775
 30
0.0
 10
-93.247
 20
-56.3775
 30
0.0
 10
-93.247
 20
-56.3775
 30
0.0
 10
-93.247
 20
-56.3775
 30
0.0
 10
-99.8175
 20
-46.6255
 30
0.0
 10
-99.8175
 20
-46.6255
 30
0.0
  0
SPLINE
  5
9C
330
1F
100
AcDbEntity
  8
layer 1
100
AcDbSpline
210
0.0
220
0.0
230
1.0
 70
    11
 71
     3
 72
    20
 73
    16
 74
     0
 42
0.0000000001
 43
0.0000000001
 12
1.0
 22
0.0
 32
0.0
 13
1.0
 23
0.0
 33
0.0
 40
0.0
 40
0.0
 40
0.0
 40
0.0
 40
0.2
 40
0.2
 40
0.2
 40
0.2
 40
0.4
 40
0.4
 40
0.4
 40
0.4
 40
0.6
 40
0.6
 40
0.6
 40
0.6
 40
1.0
 40
1.0
 40
1.0
 40
1.0
 10
-90.6439
 20
-32.7126
 30
0.0
 10
-88.6094
 20
-29.4689
 30
0.0
 10
-86.9592
 20
-27.0314
 30
0.0
 10
-84.6941
 20
-23.5963
 30
0.0
 10
-84.6941
 20
-23.5963
 30
0.0
 10
-84.6941
 20
-23.5963
 30
0.0
 10
-74.5888
 20
-23.5932
 30
0.0
 10
-74.5888
 20
-23.5932
 30
0.0
 10
-74.5888
 20
-23.5932
 30
0.0
 10
-74.5888
 20
-23.5932
 30
0.0
 10
-74.6487
 20
-42.2984
 30
0.0
 10
-74.6487
 20
-42.2984
 30
0.0
 10
-74.6487
 20
-42.2984
 30
0.0
 10
-74.6487
 20
-42.2984
 30
0.0
 10
-90.6439
 20
-32.7126
 30
0.0
 10
-90.6439
 20
-32.7126
 30
0.0
  0
SPLINE
  5
9D
330
1F
100
AcDbEntity
  8
layer 1
100
AcDbSpline
210
0.0
220
0.0
230
1.0
 70
    11
 71
     3
 72
    20
 73
    16
 74
     0
 42
0.0000000001
 43
0.0000000001
 12
1.0
 22
0.0
 32
0.0
 13
1.0
 23
0.0
 33
0.0
 40
0.0
 40
0.0
 40
0.0
 40
0.0
 40
0.2
 40
0.2
 40
0.2
 40
0.2
 40
0.4
 40
0.4
 40
0.4
 40
0.4
 40
0.6
 40
0.6
 40
0.6
 40
0.6
 40
1.0
 40
1.0
 40
1.0
 40
1.0
 10
-107.6718
 20
-34.3831
 30
0.0
 10
-107.6718
 20
-34.3831
 30
0.0
 10
-102.6136
 20
-31.3363
 30
0.0
 10
-102.6136
 20
-31.3363
 30
0.0
 10
-102.6136
 20
-31.3363
 30
0.0
 10
-102.6136
 20
-31.3363
 30
0.0
 10
-97.603
 20
-34.3891
 30
0.0
 10
-97.603
 20
-34.3891
 30
0.0
 10
-97.603
 20
-34.3891
 30
0.0
 10
-97.603
 20
-34.3891
 30
0.0
 10
-102.6082
 20
-42.0108
 30
0.0
 10
-102.6082
 20
-42.0108
 30
0.0
 10
-102.6082
 20
-42.0108
 30
0.0
 10
-102.6082
 20
-42.0108
 30
0.0
 10
-107.6718
 20
-34.3831
 30
0.0
 10
-107.6718
 20
-34.3831
 30
0.0
  0
SPLINE
  5
9E
330
1F
100
AcDbEntity
  8
layer 1
100
AcDbSpline
210
0.0
220
0.0
230
1.0
 70
    11
 71
     3
 72
    24
 73
    20
 74
     0
 42
0.0000000001
 43
0.0000000001
 12
1.0
 22
0.0
 32
0.0
 13
1.0
 23
0.0
 33
0.0
 40
0.0
 40
0.0
 40
0.0
 40
0.0
 40
0.1666666666666667
 40
0.1666666666666667
 40
0.1666666666666667
 40
0.1666666666666667
 40
0.3333333333333333
 40
0.3333333333333333
 40
0.3333333333333333
 40
0.3333333333333333
 40
0.5
 40
0.5
 40
0.5
 40
0.5
 40
0.6666666666666666
 40
0.6666666666666666
 40
0.6666666666666666
 40
0.6666666666666666
 40
1.0
 40
1.0
 40
1.0
 40
1.0
 10
-114.9286
 20
-69.6461
 30
0.0
 10
-114.9286
 20
-69.6461
 30
0.0
 10
-90.3794
 20
-69.6461
 30
0.0
 10
-90.3794
 20
-69.6461
 30
0.0
 10
-90.3794
 20
-69.6461
 30
0.0
 10
-90.3794
 20
-69.6461
 30
0.0
 10
-95.0254
 20
-63.1257
 30
0.0
 10
-95.0254
 20
-63.1257
 30
0.0
 10
-95.0254
 20
-63.1257
 30
0.0
 10
-95.0254
 20
-63.1257
 30
0.0
 10
-102.6332
 20
-67.482
 30
0.0
 10
-102.6332
 20
-67.482
 30
0.0
 10
-102.6332
 20
-67.482
 30
0.0
 10
-102.6332
 20
-67.482
 30
0.0
 10
-110.3363
 20
-63.0199
 30
0.0
 10
-110.3363
 20
-63.0199
 30
0.0
 10
-110.3363
 20
-63.0199
 30
0.0
 10
-110.3363
 20
-63.0199
 30
0.0
 10
-114.9286
 20
-69.6461
 30
0.0
 10
-114.9286
 20
-69.6461
 30
0.0
  0
SPLINE
  5
9F
330
1F
100
AcDbEntity
  8
layer 1
100
AcDbSpline
210
0.0
220
0.0
230
1.0
 70
    11
 71
     3
 72
    20
 73
    16
 74
     0
 42
0.0000000001
 43
0.0000000001
 12
1.0
 22
0.0
 32
0.0
 13
1.0
 23
0.0
 33
0.0
 40
0.0
 40
0.0
 40
0.0
 40
0.0
 40
0.2
 40
0.2
 40
0.2
 40
0.2
 40
0.4
 40
0.4
 40
0.4
 40
0.4
 40
0.6
 40
0.6
 40
0.6
 40
0.6
 40
1.0
 40
1.0
 40
1.0
 40
1.0
 10
-130.6849
 20
-69.6395
 30
0.0
 10
-130.6849
 20
-69.6395
 30
0.0
 10
-120.6011
 20
-69.6395
 30
0.0
 10
-120.6011
 20
-69.6395
 30
0.0
 10
-120.6011
 20
-69.6395
 30
0.0
 10
-120.6011
 20
-69.6395
 30
0.0
 10
-114.6676
 20
-60.4211
 30
0.0
 10
-114.6676
 20
-60.4211
 30
0.0
 10
-114.6676
 20
-60.4211
 30
0.0
 10
-114.7374
 20
-60.3664
 30
0.0
 10
-130.2871
 20
-51.2051
 30
0.0
 10
-130.6835
 20
-50.9829
 30
0.0
 10
-130.6835
 20
-50.9829
 30
0.0
 10
-130.6835
 20
-50.9829
 30
0.0
 10
-130.6849
 20
-69.6395
 30
0.0
 10
-130.6849
 20
-69.6395
 30
0.0
  0
SPLINE
  5
A0
330
1F
100
AcDbEntity
  8
layer 1
100
AcDbSpline
210
0.0
220
0.0
230
1.0
 70
    11
 71
     3
 72
    20
 73
    16
 74
     0
 42
0.0000000001
 43
0.0000000001
 12
1.0
 22
0.0
 32
0.0
 13
1.0
 23
0.0
 33
0.0
 40
0.0
 40
0.0
 40
0.0
 40
0.0
 40
0.2
 40
0.2
 40
0.2
 40
0.2
 40
0.4
 40
0.4
 40
0.4
 40
0.4
 40
0.6
 40
0.6
 40
0.6
 40
0.6
 40
1.0
 40
1.0
 40
1.0
 40
1.0
 10
-90.6426
 20
-60.5298
 30
0.0
 10
-88.6081
 20
-63.7734
 30
0.0
 10
-86.9578
 20
-66.211
 30
0.0
 10
-84.6927
 20
-69.6461
 30
0.0
 10
-84.6927
 20
-69.6461
 30
0.0
 10
-84.6927
 20
-69.6461
 30
0.0
 10
-74.5874
 20
-69.6491
 30
0.0
 10
-74.5874
 20
-69.6491
 30
0.0
 10
-74.5874
 20
-69.6491
 30
0.0
 10
-74.5874
 20
-69.6491
 30
0.0
 10
-74.6473
 20
-50.9439
 30
0.0
 10
-74.6473
 20
-50.9439
 30
0.0
 10
-74.6473
 20
-50.9439
 30
0.0
 10
-74.6473
 20
-50.9439
 30
0.0
 10
-90.6426
 20
-60.5298
 30
0.0
 10
-90.6426
 20
-60.5298
 30
0.0
  0
SPLINE
  5
A1
330
1F
100
AcDbEntity
  8
layer 1
100
AcDbSpline
210
0.0
220
0.0
230
1.0
 70
    11
 71
     3
 72
    24
 73
    20
 74
     0
 42
0.0000000001
 43
0.0000000001
 12
1.0
 22
0.0
 32
0.0
 13
1.0
 23
0.0
 33
0.0
 40
0.0
 40
0.0
 40
0.0
 40
0.0
 40
0.1666666666666667
 40
0.1666666666666667
 40
0.1666666666666667
 40
0.1666666666666667
 40
0.3333333333333333
 40
0.3333333333333333
 40
0.3333333333333333
 40
0.3333333333333333
 40
0.5
 40
0.5
 40
0.5
 40
0.5
 40
0.6666666666666666
 40
0.6666666666666666
 40
0.6666666666666666
 40
0.6666666666666666
 40
1.0
 40
1.0
 40
1.0
 40
1.0
 10
-114.9298
 20
-69.622
 30
0.0
 10
-114.9298
 20
-69.622
 30
0.0
 10
-90.3807
 20
-69.622
 30
0.0
 10
-90.3807
 20
-69.622
 30
0.0
 10
-90.3807
 20
-69.622
 30
0.0
 10
-90.3807
 20
-69.622
 30
0.0
 10
-95.0267
 20
-76.1424
 30
0.0
 10
-95.0267
 20
-76.1424
 30
0.0
 10
-95.0267
 20
-76.1424
 30
0.0
 10
-95.0267
 20
-76.1424
 30
0.0
 10
-102.6345
 20
-71.786
 30
0.0
 10
-102.6345
 20
-71.786
 30
0.0
 10
-102.6345
 20
-71.786
 30
0.0
 10
-102.6345
 20
-71.786
 30
0.0
 10
-110.3376
 20
-76.2481
 30
0.0
 10
-110.3376
 20
-76.2481
 30
0.0
 10
-110.3376
 20
-76.2481
 30
0.0
 10
-110.3376
 20
-76.2481
 30
0.0
 10
-114.9298
 20
-69.622
 30
0.0
 10
-114.9298
 20
-69.622
 30
0.0
  0
SPLINE
  5
A2
330
1F
100
AcDbEntity
  8
layer 1
100
AcDbSpline
210
0.0
220
0.0
230
1.0
 70
    11
 71
     3
 72
    20
 73
    16
 74
     0
 42
0.0000000001
 43
0.0000000001
 12
1.0
 22
0.0
 32
0.0
 13
1.0
 23
0.0
 33
0.0
 40
0.0
 40
0.0
 40
0.0
 40
0.0
 40
0.2
 40
0.2
 40
0.2
 40
0.2
 40
0.4
 40
0.4
 40
0.4
 40
0.4
 40
0.6
 40
0.6
 40
0.6
 40
0.6
 40
1.0
 40
1.0
 40
1.0
 40
1.0
 10
-130.6861
 20
-69.6285
 30
0.0
 10
-130.6861
 20
-69.6285
 30
0.0
 10
-120.6024
 20
-69.6285
 30
0.0
 10
-120.6024
 20
-69.6285
 30
0.0
 10
-120.6024
 20
-69.6285
 30
0.0
 10
-120.6024
 20
-69.6285
 30
0.0
 10
-114.6689
 20
-78.8469
 30
0.0
 10
-114.6689
 20
-78.8469
 30
0.0
 10
-114.6689
 20
-78.8469
 30
0.0
 10
-114.7386
 20
-78.9016
 30
0.0
 10
-130.2884
 20
-88.063
 30
0.0
 10
-130.6848
 20
-88.2851
 30
0.0
 10
-130.6848
 20
-88.2851
 30
0.0
 10
-130.6848
 20
-88.2851
 30
0.0
 10
-130.6861
 20
-69.6285
 30
0.0
 10
-130.6861
 20
-69.6285
 30
0.0
  0
SPLINE
  5
A3
330
1F
100
AcDbEntity
  8
layer 1
100
AcDbSpline
210
0.0
220
0.0
230
1.0
 70
    11
 71
     3
 72
    24
 73
    20
 74
     0
 42
0.0000000001
 43
0.0000000001
 12
1.0
 22
0.0
 32
0.0
 13
1.0
 23
0.0
 33
0.0
 40
0.0
 40
0.0
 40
0.0
 40
0.0
 40
0.1666666666666667
 40
0.1666666666666667
 40
0.1666666666666667
 40
0.1666666666666667
 40
0.3333333333333333
 40
0.3333333333333333
 40
0.3333333333333333
 40
0.3333333333333333
 40
0.5
 40
0.5
 40
0.5
 40
0.5
 40
0.6666666666666666
 40
0.6666666666666666
 40
0.6666666666666666
 40
0.6666666666666666
 40
1.0
 40
1.0
 40
1.0
 40
1.0
 10
-105.1526
 20
-106.5513
 30
0.0
 10
-105.1526
 20
-106.5513
 30
0.0
 10
-107.6237
 20
-104.8937
 30
0.0
 10
-107.6237
 20
-104.8937
 30
0.0
 10
-107.6237
 20
-104.8937
 30
0.0
 10
-107.6237
 20
-104.8937
 30
0.0
 10
-102.6469
 20
-97.1977
 30
0.0
 10
-102.6469
 20
-97.1977
 30
0.0
 10
-102.6469
 20
-97.1977
 30
0.0
 10
-102.6469
 20
-97.1977
 30
0.0
 10
-97.603
 20
-104.8614
 30
0.0
 10
-97.603
 20
-104.8614
 30
0.0
 10
-97.603
 20
-104.8614
 30
0.0
 10
-97.603
 20
-104.8614
 30
0.0
 10
-102.654
 20
-107.9838
 30
0.0
 10
-102.654
 20
-107.9838
 30
0.0
 10
-102.654
 20
-107.9838
 30
0.0
 10
-102.654
 20
-107.9838
 30
0.0
 10
-105.1526
 20
-106.5513
 30
0.0
 10
-105.1526
 20
-106.5513
 30
0.0
  0
SPLINE
  5
A4
330
1F
100
AcDbEntity
  8
layer 1
100
AcDbSpline
210
0.0
220
0.0
230
1.0
 70
    11
 71
     3
 72
    20
 73
    16
 74
     0
 42
0.0000000001
 43
0.0000000001
 12
1.0
 22
0.0
 32
0.0
 13
1.0
 23
0.0
 33
0.0
 40
0.0
 40
0.0
 40
0.0
 40
0.0
 40
0.2
 40
0.2
 40
0.2
 40
0.2
 40
0.4
 40
0.4
 40
0.4
 40
0.4
 40
0.6
 40
0.6
 40
0.6
 40
0.6
 40
1.0
 40
1.0
 40
1.0
 40
1.0
 10
-128.2888
 20
-92.6377
 30
0.0
 10
-128.2888
 20
-92.6377
 30
0.0
 10
-111.8918
 20
-82.8504
 30
0.0
 10
-111.8918
 20
-82.8504
 30
0.0
 10
-111.8918
 20
-82.8504
 30
0.0
 10
-111.8918
 20
-82.8504
 30
0.0
 10
-105.4987
 20
-92.6322
 30
0.0
 10
-105.4987
 20
-92.6322
 30
0.0
 10
-105.4987
 20
-92.6322
 30
0.0
 10
-105.4987
 20
-92.6322
 30
0.0
 10
-112.0369
 20
-102.4598
 30
0.0
 10
-112.0369
 20
-102.4598
 30
0.0
 10
-112.0369
 20
-102.4598
 30
0.0
 10
-112.0369
 20
-102.4598
 30
0.0
 10
-128.2888
 20
-92.6377
 30
0.0
 10
-128.2888
 20
-92.6377
 30
0.0
  0
SPLINE
  5
A5
330
1F
100
AcDbEntity
  8
layer 1
100
AcDbSpline
210
0.0
220
0.0
230
1.0
 70
    11
 71
     3
 72
    20
 73
    16
 74
     0
 42
0.0000000001
 43
0.0000000001
 12
1.0
 22
0.0
 32
0.0
 13
1.0
 23
0.0
 33
0.0
 40
0.0
 40
0.0
 40
0.0
 40
0.0
 40
0.2
 40
0.2
 40
0.2
 40
0.2
 40
0.4
 40
0.4
 40
0.4
 40
0.4
 40
0.6
 40
0.6
 40
0.6
 40
0.6
 40
1.0
 40
1.0
 40
1.0
 40
1.0
 10
-99.8175
 20
-92.6512
 30
0.0
 10
-99.8175
 20
-92.6512
 30
0.0
 10
-93.3969
 20
-82.8518
 30
0.0
 10
-93.3969
 20
-82.8518
 30
0.0
 10
-93.3969
 20
-82.8518
 30
0.0
 10
-93.3969
 20
-82.8518
 30
0.0
 10
-76.9862
 20
-92.636
 30
0.0
 10
-76.9862
 20
-92.636
 30
0.0
 10
-76.9862
 20
-92.636
 30
0.0
 10
-76.9862
 20
-92.636
 30
0.0
 10
-93.247
 20
-102.4032
 30
0.0
 10
-93.247
 20
-102.4032
 30
0.0
 10
-93.247
 20
-102.4032
 30
0.0
 10
-93.247
 20
-102.4032
 30
0.0
 10
-99.8175
 20
-92.6512
 30
0.0
 10
-99.8175
 20
-92.6512
 30
0.0
  0
SPLINE
  5
A6
330
1F
100
AcDbEntity
  8
layer 1
100
AcDbSpline
210
0.0
220
0.0
230
1.0
 70
    11
 71
     3
 72
    20
 73
    16
 74
     0
 42
0.0000000001
 43
0.0000000001
 12
1.0
 22
0.0
 32
0.0
 13
1.0
 23
0.0
 33
0.0
 40
0.0
 40
0.0
 40
0.0
 40
0.0
 40
0.2
 40
0.2
 40
0.2
 40
0.2
 40
0.4
 40
0.4
 40
0.4
 40
0.4
 40
0.6
 40
0.6
 40
0.6
 40
0.6
 40
1.0
 40
1.0
 40
1.0
 40
1.0
 10
-90.6439
 20
-78.7384
 30
0.0
 10
-88.6094
 20
-75.4947
 30
0.0
 10
-86.9592
 20
-73.0572
 30
0.0
 10
-84.6941
 20
-69.6221
 30
0.0
 10
-84.6941
 20
-69.6221
 30
0.0
 10
-84.6941
 20
-69.6221
 30
0.0
 10
-74.5888
 20
-69.619
 30
0.0
 10
-74.5888
 20
-69.619
 30
0.0
 10
-74.5888
 20
-69.619
 30
0.0
 10
-74.5888
 20
-69.619
 30
0.0
 10
-74.6487
 20
-88.3242
 30
0.0
 10
-74.6487
 20
-88.3242
 30
0.0
 10
-74.6487
 20
-88.3242
 30
0.0
 10
-74.6487
 20
-88.3242
 30
0.0
 10
-90.6439
 20
-78.7384
 30
0.0
 10
-90.6439
 20
-78.7384
 30
0.0
  0
SPLINE
  5
A7
330
1F
100
AcDbEntity
  8
layer 1
100
AcDbSpline
210
0.0
220
0.0
230
1.0
 70
    11
 71
     3
 72
    20
 73
    16
 74
     0
 42
0.0000000001
 43
0.0000000001
 12
1.0
 22
0.0
 32
0.0
 13
1.0
 23
0.0
 33
0.0
 40
0.0
 40
0.0
 40
0.0
 40
0.0
 40
0.2
 40
0.2
 40
0.2
 40
0.2
 40
0.4
 40
0.4
 40
0.4
 40
0.4
 40
0.6
 40
0.6
 40
0.6
 40
0.6
 40
1.0
 40
1.0
 40
1.0
 40
1.0
 10
-107.6718
 20
-80.4089
 30
0.0
 10
-107.6718
 20
-80.4089
 30
0.0
 10
-102.6136
 20
-77.362
 30
0.0
 10
-102.6136
 20
-77.362
 30
0.0
 10
-102.6136
 20
-77.362
 30
0.0
 10
-102.6136
 20
-77.362
 30
0.0
 10
-97.603
 20
-80.4149
 30
0.0
 10
-97.603
 20
-80.4149
 30
0.0
 10
-97.603
 20
-80.4149
 30
0.0
 10
-97.603
 20
-80.4149
 30
0.0
 10
-102.6082
 20
-88.0365
 30
0.0
 10
-102.6082
 20
-88.0365
 30
0.0
 10
-102.6082
 20
-88.0365
 30
0.0
 10
-102.6082
 20
-88.0365
 30
0.0
 10
-107.6718
 20
-80.4089
 30
0.0
 10
-107.6718
 20
-80.4089
 30
0.0
  0
SPLINE
  5
A8
330
1F
100
AcDbEntity
  8
layer 1
100
AcDbSpline
210
0.0
220
0.0
230
1.0
 70
    11
 71
     3
 72
    24
 73
    20
 74
     0
 42
0.0000000001
 43
0.0000000001
 12
1.0
 22
0.0
 32
0.0
 13
1.0
 23
0.0
 33
0.0
 40
0.0
 40
0.0
 40
0.0
 40
0.0
 40
0.1666666666666667
 40
0.1666666666666667
 40
0.1666666666666667
 40
0.1666666666666667
 40
0.3333333333333333
 40
0.3333333333333333
 40
0.3333333333333333
 40
0.3333333333333333
 40
0.5
 40
0.5
 40
0.5
 40
0.5
 40
0.6666666666666666
 40
0.6666666666666666
 40
0.6666666666666666
 40
0.6666666666666666
 40
1.0
 40
1.0
 40
1.0
 40
1.0
 10
-114.9286
 20
-115.6718
 30
0.0
 10
-114.9286
 20
-115.6718
 30
0.0
 10
-90.3794
 20
-115.6718
 30
0.0
 10
-90.3794
 20
-115.6718
 30
0.0
 10
-90.3794
 20
-115.6718
 30
0.0
 10
-90.3794
 20
-115.6718
 30
0.0
 10
-95.0254
 20
-109.1514
 30
0.0
 10
-95.0254
 20
-109.1514
 30
0.0
 10
-95.0254
 20
-109.1514
 30
0.0
 10
-95.0254
 20
-109.1514
 30
0.0
 10
-102.6332
 20
-113.5077
 30
0.0
 10
-102.6332
 20
-113.5077
 30
0.0
 10
-102.6332
 20
-113.5077
 30
0.0
 10
-102.6332
 20
-113.5077
 30
0.0
 10
-110.3363
 20
-109.0457
 30
0.0
 10
-110.3363
 20
-109.0457
 30
0.0
 10
-110.3363
 20
-109.0457
 30
0.0
 10
-110.3363
 20
-109.0457
 30
0.0
 10
-114.9286
 20
-115.6718
 30
0.0
 10
-114.9286
 20
-115.6718
 30
0.0
  0
SPLINE
  5
A9
330
1F
100
AcDbEntity
  8
layer 1
100
AcDbSpline
210
0.0
220
0.0
230
1.0
 70
    11
 71
     3
 72
    20
 73
    16
 74
     0
 42
0.0000000001
 43
0.0000000001
 12
1.0
 22
0.0
 32
0.0
 13
1.0
 23
0.0
 33
0.0
 40
0.0
 40
0.0
 40
0.0
 40
0.0
 40
0.2
 40
0.2
 40
0.2
 40
0.2
 40
0.4
 40
0.4
 40
0.4
 40
0.4
 40
0.6
 40
0.6
 40
0.6
 40
0.6
 40
1.0
 40
1.0
 40
1.0
 40
1.0
 10
-130.6849
 20
-115.6653
 30
0.0
 10
-130.6849
 20
-115.6653
 30
0.0
 10
-120.6011
 20
-115.6653
 30
0.0
 10
-120.6011
 20
-115.6653
 30
0.0
 10
-120.6011
 20
-115.6653
 30
0.0
 10
-120.6011
 20
-115.6653
 30
0.0
 10
-114.6676
 20
-106.4469
 30
0.0
 10
-114.6676
 20
-106.4469
 30
0.0
 10
-114.6676
 20
-106.4469
 30
0.0
 10
-114.7374
 20
-106.3922
 30
0.0
 10
-130.2871
 20
-97.2308
 30
0.0
 10
-130.6835
 20
-97.0086
 30
0.0
 10
-130.6835
 20
-97.0086
 30
0.0
 10
-130.6835
 20
-97.0086
 30
0.0
 10
-130.6849
 20
-115.6653
 30
0.0
 10
-130.6849
 20
-115.6653
 30
0.0
  0
SPLINE
  5
AA
330
1F
100
AcDbEntity
  8
layer 1
100
AcDbSpline
210
0.0
220
0.0
230
1.0
 70
    11
 71
     3
 72
    20
 73
    16
 74
     0
 42
0.0000000001
 43
0.0000000001
 12
1.0
 22
0.0
 32
0.0
 13
1.0
 23
0.0
 33
0.0
 40
0.0
 40
0.0
 40
0.0
 40
0.0
 40
0.2
 40
0.2
 40
0.2
 40
0.2
 40
0.4
 40
0.4
 40
0.4
 40
0.4
 40
0.6
 40
0.6
 40
0.6
 40
0.6
 40
1.0
 40
1.0
 40
1.0
 40
1.0
 10
-90.6426
 20
-106.5555
 30
0.0
 10
-88.6081
 20
-109.7992
 30
0.0
 10
-86.9578
 20
-112.2367
 30
0.0
 10
-84.6927
 20
-115.6718
 30
0.0
 10
-84.6927
 20
-115.6718
 30
0.0
 10
-84.6927
 20
-115.6718
 30
0.0
 10
-74.5874
 20
-115.6749
 30
0.0
 10
-74.5874
 20
-115.6749
 30
0.0
 10
-74.5874
 20
-115.6749
 30
0.0
 10
-74.5874
 20
-115.6749
 30
0.0
 10
-74.6473
 20
-96.9697
 30
0.0
 10
-74.6473
 20
-96.9697
 30
0.0
 10
-74.6473
 20
-96.9697
 30
0.0
 10
-74.6473
 20
-96.9697
 30
0.0
 10
-90.6426
 20
-106.5555
 30
0.0
 10
-90.6426
 20
-106.5555
 30
0.0
  0
SPLINE
  5
AB
330
1F
100
AcDbEntity
  8
layer 1
100
AcDbSpline
210
0.0
220
0.0
230
1.0
 70
    11
 71
     3
 72
    24
 73
    20
 74
     0
 42
0.0000000001
 43
0.0000000001
 12
1.0
 22
0.0
 32
0.0
 13
1.0
 23
0.0
 33
0.0
 40
0.0
 40
0.0
 40
0.0
 40
0.0
 40
0.1666666666666667
 40
0.1666666666666667
 40
0.1666666666666667
 40
0.1666666666666667
 40
0.3333333333333333
 40
0.3333333333333333
 40
0.3333333333333333
 40
0.3333333333333333
 40
0.5
 40
0.5
 40
0.5
 40
0.5
 40
0.6666666666666666
 40
0.6666666666666666
 40
0.6666666666666666
 40
0.6666666666666666
 40
1.0
 40
1.0
 40
1.0
 40
1.0
 10
-68.0854
 20
11.8899
 30
0.0
 10
-68.0854
 20
11.8899
 30
0.0
 10
-68.0854
 20
36.439
 30
0.0
 10
-68.0854
 20
36.439
 30
0.0
 10
-68.0854
 20
36.439
 30
0.0
 10
-68.0854
 20
36.439
 30
0.0
 10
-61.565
 20
31.7931
 30
0.0
 10
-61.565
 20
31.7931
 30
0.0
 10
-61.565
 20
31.7931
 30
0.0
 10
-61.565
 20
31.7931
 30
0.0
 10
-65.9213
 20
24.1853
 30
0.0
 10
-65.9213
 20
24.1853
 30
0.0
 10
-65.9213
 20
24.1853
 30
0.0
 10
-65.9213
 20
24.1853
 30
0.0
 10
-61.4593
 20
16.4822
 30
0.0
 10
-61.4593
 20
16.4822
 30
0.0
 10
-61.4593
 20
16.4822
 30
0.0
 10
-61.4593
 20
16.4822
 30
0.0
 10
-68.0854
 20
11.8899
 30
0.0
 10
-68.0854
 20
11.8899
 30
0.0
  0
SPLINE
  5
AC
330
1F
100
AcDbEntity
  8
layer 1
100
AcDbSpline
210
0.0
220
0.0
230
1.0
 70
    11
 71
     3
 72
    20
 73
    16
 74
     0
 42
0.0000000001
 43
0.0000000001
 12
1.0
 22
0.0
 32
0.0
 13
1.0
 23
0.0
 33
0.0
 40
0.0
 40
0.0
 40
0.0
 40
0.0
 40
0.2
 40
0.2
 40
0.2
 40
0.2
 40
0.4
 40
0.4
 40
0.4
 40
0.4
 40
0.6
 40
0.6
 40
0.6
 40
0.6
 40
1.0
 40
1.0
 40
1.0
 40
1.0
 10
-68.0789
 20
-3.8664
 30
0.0
 10
-68.0789
 20
-3.8664
 30
0.0
 10
-68.0789
 20
6.2173
 30
0.0
 10
-68.0789
 20
6.2173
 30
0.0
 10
-68.0789
 20
6.2173
 30
0.0
 10
-68.0789
 20
6.2173
 30
0.0
 10
-58.8605
 20
12.1509
 30
0.0
 10
-58.8605
 20
12.1509
 30
0.0
 10
-58.8605
 20
12.1509
 30
0.0
 10
-58.8057
 20
12.0811
 30
0.0
 10
-49.6444
 20
-3.4686
 30
0.0
 10
-49.4222
 20
-3.865
 30
0.0
 10
-49.4222
 20
-3.865
 30
0.0
 10
-49.4222
 20
-3.865
 30
0.0
 10
-68.0789
 20
-3.8664
 30
0.0
 10
-68.0789
 20
-3.8664
 30
0.0
  0
SPLINE
  5
AD
330
1F
100
AcDbEntity
  8
layer 1
100
AcDbSpline
210
0.0
220
0.0
230
1.0
 70
    11
 71
     3
 72
    24
 73
    20
 74
     0
 42
0.0000000001
 43
0.0000000001
 12
1.0
 22
0.0
 32
0.0
 13
1.0
 23
0.0
 33
0.0
 40
0.0
 40
0.0
 40
0.0
 40
0.0
 40
0.1666666666666667
 40
0.1666666666666667
 40
0.1666666666666667
 40
0.1666666666666667
 40
0.3333333333333333
 40
0.3333333333333333
 40
0.3333333333333333
 40
0.3333333333333333
 40
0.5
 40
0.5
 40
0.5
 40
0.5
 40
0.6666666666666666
 40
0.6666666666666666
 40
0.6666666666666666
 40
0.6666666666666666
 40
1.0
 40
1.0
 40
1.0
 40
1.0
 10
-31.1561
 20
21.6671
 30
0.0
 10
-31.1561
 20
21.6671
 30
0.0
 10
-32.8137
 20
19.1961
 30
0.0
 10
-32.8137
 20
19.1961
 30
0.0
 10
-32.8137
 20
19.1961
 30
0.0
 10
-32.8137
 20
19.1961
 30
0.0
 10
-40.5096
 20
24.1729
 30
0.0
 10
-40.5096
 20
24.1729
 30
0.0
 10
-40.5096
 20
24.1729
 30
0.0
 10
-40.5096
 20
24.1729
 30
0.0
 10
-32.846
 20
29.2167
 30
0.0
 10
-32.846
 20
29.2167
 30
0.0
 10
-32.846
 20
29.2167
 30
0.0
 10
-32.846
 20
29.2167
 30
0.0
 10
-29.7236
 20
24.1658
 30
0.0
 10
-29.7236
 20
24.1658
 30
0.0
 10
-29.7236
 20
24.1658
 30
0.0
 10
-29.7236
 20
24.1658
 30
0.0
 10
-31.1561
 20
21.6671
 30
0.0
 10
-31.1561
 20
21.6671
 30
0.0
  0
SPLINE
  5
AE
330
1F
100
AcDbEntity
  8
layer 1
100
AcDbSpline
210
0.0
220
0.0
230
1.0
 70
    11
 71
     3
 72
    20
 73
    16
 74
     0
 42
0.0000000001
 43
0.0000000001
 12
1.0
 22
0.0
 32
0.0
 13
1.0
 23
0.0
 33
0.0
 40
0.0
 40
0.0
 40
0.0
 40
0.0
 40
0.2
 40
0.2
 40
0.2
 40
0.2
 40
0.4
 40
0.4
 40
0.4
 40
0.4
 40
0.6
 40
0.6
 40
0.6
 40
0.6
 40
1.0
 40
1.0
 40
1.0
 40
1.0
 10
-45.0696
 20
-1.4691
 30
0.0
 10
-45.0696
 20
-1.4691
 30
0.0
 10
-54.857
 20
14.9279
 30
0.0
 10
-54.857
 20
14.9279
 30
0.0
 10
-54.857
 20
14.9279
 30
0.0
 10
-54.857
 20
14.9279
 30
0.0
 10
-45.0752
 20
21.3211
 30
0.0
 10
-45.0752
 20
21.3211
 30
0.0
 10
-45.0752
 20
21.3211
 30
0.0
 10
-45.0752
 20
21.3211
 30
0.0
 10
-35.2476
 20
14.7828
 30
0.0
 10
-35.2476
 20
14.7828
 30
0.0
 10
-35.2476
 20
14.7828
 30
0.0
 10
-35.2476
 20
14.7828
 30
0.0
 10
-45.0696
 20
-1.4691
 30
0.0
 10
-45.0696
 20
-1.4691
 30
0.0
  0
SPLINE
  5
AF
330
1F
100
AcDbEntity
  8
layer 1
100
AcDbSpline
210
0.0
220
0.0
230
1.0
 70
    11
 71
     3
 72
    20
 73
    16
 74
     0
 42
0.0000000001
 43
0.0000000001
 12
1.0
 22
0.0
 32
0.0
 13
1.0
 23
0.0
 33
0.0
 40
0.0
 40
0.0
 40
0.0
 40
0.0
 40
0.2
 40
0.2
 40
0.2
 40
0.2
 40
0.4
 40
0.4
 40
0.4
 40
0.4
 40
0.6
 40
0.6
 40
0.6
 40
0.6
 40
1.0
 40
1.0
 40
1.0
 40
1.0
 10
-45.0561
 20
27.0023
 30
0.0
 10
-45.0561
 20
27.0023
 30
0.0
 10
-54.8556
 20
33.4228
 30
0.0
 10
-54.8556
 20
33.4228
 30
0.0
 10
-54.8556
 20
33.4228
 30
0.0
 10
-54.8556
 20
33.4228
 30
0.0
 10
-45.0714
 20
49.8336
 30
0.0
 10
-45.0714
 20
49.8336
 30
0.0
 10
-45.0714
 20
49.8336
 30
0.0
 10
-45.0714
 20
49.8336
 30
0.0
 10
-35.3041
 20
33.5728
 30
0.0
 10
-35.3041
 20
33.5728
 30
0.0
 10
-35.3041
 20
33.5728
 30
0.0
 10
-35.3041
 20
33.5728
 30
0.0
 10
-45.0561
 20
27.0023
 30
0.0
 10
-45.0561
 20
27.0023
 30
0.0
  0
SPLINE
  5
B0
330
1F
100
AcDbEntity
  8
layer 1
100
AcDbSpline
210
0.0
220
0.0
230
1.0
 70
    11
 71
     3
 72
    20
 73
    16
 74
     0
 42
0.0000000001
 43
0.0000000001
 12
1.0
 22
0.0
 32
0.0
 13
1.0
 23
0.0
 33
0.0
 40
0.0
 40
0.0
 40
0.0
 40
0.0
 40
0.2
 40
0.2
 40
0.2
 40
0.2
 40
0.4
 40
0.4
 40
0.4
 40
0.4
 40
0.6
 40
0.6
 40
0.6
 40
0.6
 40
1.0
 40
1.0
 40
1.0
 40
1.0
 10
-58.969
 20
36.1758
 30
0.0
 10
-62.2127
 20
38.2103
 30
0.0
 10
-64.6502
 20
39.8606
 30
0.0
 10
-68.0853
 20
42.1257
 30
0.0
 10
-68.0853
 20
42.1257
 30
0.0
 10
-68.0853
 20
42.1257
 30
0.0
 10
-68.0884
 20
52.231
 30
0.0
 10
-68.0884
 20
52.231
 30
0.0
 10
-68.0884
 20
52.231
 30
0.0
 10
-68.0884
 20
52.231
 30
0.0
 10
-49.3832
 20
52.1711
 30
0.0
 10
-49.3832
 20
52.1711
 30
0.0
 10
-49.3832
 20
52.1711
 30
0.0
 10
-49.3832
 20
52.1711
 30
0.0
 10
-58.969
 20
36.1758
 30
0.0
 10
-58.969
 20
36.1758
 30
0.0
  0
SPLINE
  5
B1
330
1F
100
AcDbEntity
  8
layer 1
100
AcDbSpline
210
0.0
220
0.0
230
1.0
 70
    11
 71
     3
 72
    20
 73
    16
 74
     0
 42
0.0000000001
 43
0.0000000001
 12
1.0
 22
0.0
 32
0.0
 13
1.0
 23
0.0
 33
0.0
 40
0.0
 40
0.0
 40
0.0
 40
0.0
 40
0.2
 40
0.2
 40
0.2
 40
0.2
 40
0.4
 40
0.4
 40
0.4
 40
0.4
 40
0.6
 40
0.6
 40
0.6
 40
0.6
 40
1.0
 40
1.0
 40
1.0
 40
1.0
 10
-57.2985
 20
19.1479
 30
0.0
 10
-57.2985
 20
19.1479
 30
0.0
 10
-60.3454
 20
24.2061
 30
0.0
 10
-60.3454
 20
24.2061
 30
0.0
 10
-60.3454
 20
24.2061
 30
0.0
 10
-60.3454
 20
24.2061
 30
0.0
 10
-57.2925
 20
29.2167
 30
0.0
 10
-57.2925
 20
29.2167
 30
0.0
 10
-57.2925
 20
29.2167
 30
0.0
 10
-57.2925
 20
29.2167
 30
0.0
 10
-49.6709
 20
24.2116
 30
0.0
 10
-49.6709
 20
24.2116
 30
0.0
 10
-49.6709
 20
24.2116
 30
0.0
 10
-49.6709
 20
24.2116
 30
0.0
 10
-57.2985
 20
19.1479
 30
0.0
 10
-57.2985
 20
19.1479
 30
0.0
  0
SPLINE
  5
B2
330
1F
100
AcDbEntity
  8
layer 1
100
AcDbSpline
210
0.0
220
0.0
230
1.0
 70
    11
 71
     3
 72
    24
 73
    20
 74
     0
 42
0.0000000001
 43
0.0000000001
 12
1.0
 22
0.0
 32
0.0
 13
1.0
 23
0.0
 33
0.0
 40
0.0
 40
0.0
 40
0.0
 40
0.0
 40
0.1666666666666667
 40
0.1666666666666667
 40
0.1666666666666667
 40
0.1666666666666667
 40
0.3333333333333333
 40
0.3333333333333333
 40
0.3333333333333333
 40
0.3333333333333333
 40
0.5
 40
0.5
 40
0.5
 40
0.5
 40
0.6666666666666666
 40
0.6666666666666666
 40
0.6666666666666666
 40
0.6666666666666666
 40
1.0
 40
1.0
 40
1.0
 40
1.0
 10
-22.0356
 20
11.8912
 30
0.0
 10
-22.0356
 20
11.8912
 30
0.0
 10
-22.0356
 20
36.4403
 30
0.0
 10
-22.0356
 20
36.4403
 30
0.0
 10
-22.0356
 20
36.4403
 30
0.0
 10
-22.0356
 20
36.4403
 30
0.0
 10
-28.556
 20
31.7943
 30
0.0
 10
-28.556
 20
31.7943
 30
0.0
 10
-28.556
 20
31.7943
 30
0.0
 10
-28.556
 20
31.7943
 30
0.0
 10
-24.1996
 20
24.1865
 30
0.0
 10
-24.1996
 20
24.1865
 30
0.0
 10
-24.1996
 20
24.1865
 30
0.0
 10
-24.1996
 20
24.1865
 30
0.0
 10
-28.6617
 20
16.4835
 30
0.0
 10
-28.6617
 20
16.4835
 30
0.0
 10
-28.6617
 20
16.4835
 30
0.0
 10
-28.6617
 20
16.4835
 30
0.0
 10
-22.0356
 20
11.8912
 30
0.0
 10
-22.0356
 20
11.8912
 30
0.0
  0
SPLINE
  5
B3
330
1F
100
AcDbEntity
  8
layer 1
100
AcDbSpline
210
0.0
220
0.0
230
1.0
 70
    11
 71
     3
 72
    20
 73
    16
 74
     0
 42
0.0000000001
 43
0.0000000001
 12
1.0
 22
0.0
 32
0.0
 13
1.0
 23
0.0
 33
0.0
 40
0.0
 40
0.0
 40
0.0
 40
0.0
 40
0.2
 40
0.2
 40
0.2
 40
0.2
 40
0.4
 40
0.4
 40
0.4
 40
0.4
 40
0.6
 40
0.6
 40
0.6
 40
0.6
 40
1.0
 40
1.0
 40
1.0
 40
1.0
 10
-22.0421
 20
-3.8651
 30
0.0
 10
-22.0421
 20
-3.8651
 30
0.0
 10
-22.0421
 20
6.2186
 30
0.0
 10
-22.0421
 20
6.2186
 30
0.0
 10
-22.0421
 20
6.2186
 30
0.0
 10
-22.0421
 20
6.2186
 30
0.0
 10
-31.2605
 20
12.1521
 30
0.0
 10
-31.2605
 20
12.1521
 30
0.0
 10
-31.2605
 20
12.1521
 30
0.0
 10
-31.3152
 20
12.0824
 30
0.0
 10
-40.4766
 20
-3.4673
 30
0.0
 10
-40.6987
 20
-3.8637
 30
0.0
 10
-40.6987
 20
-3.8637
 30
0.0
 10
-40.6987
 20
-3.8637
 30
0.0
 10
-22.0421
 20
-3.8651
 30
0.0
 10
-22.0421
 20
-3.8651
 30
0.0
  0
SPLINE
  5
B4
330
1F
100
AcDbEntity
  8
layer 1
100
AcDbSpline
210
0.0
220
0.0
230
1.0
 70
    11
 71
     3
 72
    20
 73
    16
 74
     0
 42
0.0000000001
 43
0.0000000001
 12
1.0
 22
0.0
 32
0.0
 13
1.0
 23
0.0
 33
0.0
 40
0.0
 40
0.0
 40
0.0
 40
0.0
 40
0.2
 40
0.2
 40
0.2
 40
0.2
 40
0.4
 40
0.4
 40
0.4
 40
0.4
 40
0.6
 40
0.6
 40
0.6
 40
0.6
 40
1.0
 40
1.0
 40
1.0
 40
1.0
 10
-31.1519
 20
36.1772
 30
0.0
 10
-27.9082
 20
38.2117
 30
0.0
 10
-25.4707
 20
39.8619
 30
0.0
 10
-22.0356
 20
42.127
 30
0.0
 10
-22.0356
 20
42.127
 30
0.0
 10
-22.0356
 20
42.127
 30
0.0
 10
-22.0325
 20
52.2323
 30
0.0
 10
-22.0325
 20
52.2323
 30
0.0
 10
-22.0325
 20
52.2323
 30
0.0
 10
-22.0325
 20
52.2323
 30
0.0
 10
-40.7377
 20
52.1724
 30
0.0
 10
-40.7377
 20
52.1724
 30
0.0
 10
-40.7377
 20
52.1724
 30
0.0
 10
-40.7377
 20
52.1724
 30
0.0
 10
-31.1519
 20
36.1772
 30
0.0
 10
-31.1519
 20
36.1772
 30
0.0
  0
SPLINE
  5
B5
330
1F
100
AcDbEntity
  8
layer 1
100
AcDbSpline
210
0.0
220
0.0
230
1.0
 70
    11
 71
     3
 72
    24
 73
    20
 74
     0
 42
0.0000000001
 43
0.0000000001
 12
1.0
 22
0.0
 32
0.0
 13
1.0
 23
0.0
 33
0.0
 40
0.0
 40
0.0
 40
0.0
 40
0.0
 40
0.1666666666666667
 40
0.1666666666666667
 40
0.1666666666666667
 40
0.1666666666666667
 40
0.3333333333333333
 40
0.3333333333333333
 40
0.3333333333333333
 40
0.3333333333333333
 40
0.5
 40
0.5
 40
0.5
 40
0.5
 40
0.6666666666666666
 40
0.6666666666666666
 40
0.6666666666666666
 40
0.6666666666666666
 40
1.0
 40
1.0
 40
1.0
 40
1.0
 10
-21.9325
 20
11.8899
 30
0.0
 10
-21.9325
 20
11.8899
 30
0.0
 10
-21.9325
 20
36.439
 30
0.0
 10
-21.9325
 20
36.439
 30
0.0
 10
-21.9325
 20
36.439
 30
0.0
 10
-21.9325
 20
36.439
 30
0.0
 10
-15.4121
 20
31.7931
 30
0.0
 10
-15.4121
 20
31.7931
 30
0.0
 10
-15.4121
 20
31.7931
 30
0.0
 10
-15.4121
 20
31.7931
 30
0.0
 10
-19.7684
 20
24.1853
 30
0.0
 10
-19.7684
 20
24.1853
 30
0.0
 10
-19.7684
 20
24.1853
 30
0.0
 10
-19.7684
 20
24.1853
 30
0.0
 10
-15.3063
 20
16.4822
 30
0.0
 10
-15.3063
 20
16.4822
 30
0.0
 10
-15.3063
 20
16.4822
 30
0.0
 10
-15.3063
 20
16.4822
 30
0.0
 10
-21.9325
 20
11.8899
 30
0.0
 10
-21.9325
 20
11.8899
 30
0.0
  0
SPLINE
  5
B6
330
1F
100
AcDbEntity
  8
layer 1
100
AcDbSpline
210
0.0
220
0.0
230
1.0
 70
    11
 71
     3
 72
    20
 73
    16
 74
     0
 42
0.0000000001
 43
0.0000000001
 12
1.0
 22
0.0
 32
0.0
 13
1.0
 23
0.0
 33
0.0
 40
0.0
 40
0.0
 40
0.0
 40
0.0
 40
0.2
 40
0.2
 40
0.2
 40
0.2
 40
0.4
 40
0.4
 40
0.4
 40
0.4
 40
0.6
 40
0.6
 40
0.6
 40
0.6
 40
1.0
 40
1.0
 40
1.0
 40
1.0
 10
-21.9259
 20
-3.8664
 30
0.0
 10
-21.9259
 20
-3.8664
 30
0.0
 10
-21.9259
 20
6.2173
 30
0.0
 10
-21.9259
 20
6.2173
 30
0.0
 10
-21.9259
 20
6.2173
 30
0.0
 10
-21.9259
 20
6.2173
 30
0.0
 10
-12.7075
 20
12.1509
 30
0.0
 10
-12.7075
 20
12.1509
 30
0.0
 10
-12.7075
 20
12.1509
 30
0.0
 10
-12.6528
 20
12.0811
 30
0.0
 10
-3.4915
 20
-3.4686
 30
0.0
 10
-3.2693
 20
-3.865
 30
0.0
 10
-3.2693
 20
-3.865
 30
0.0
 10
-3.2693
 20
-3.865
 30
0.0
 10
-21.9259
 20
-3.8664
 30
0.0
 10
-21.9259
 20
-3.8664
 30
0.0
  0
SPLINE
  5
B7
330
1F
100
AcDbEntity
  8
layer 1
100
AcDbSpline
210
0.0
220
0.0
230
1.0
 70
    11
 71
     3
 72
    24
 73
    20
 74
     0
 42
0.0000000001
 43
0.0000000001
 12
1.0
 22
0.0
 32
0.0
 13
1.0
 23
0.0
 33
0.0
 40
0.0
 40
0.0
 40
0.0
 40
0.0
 40
0.1666666666666667
 40
0.1666666666666667
 40
0.1666666666666667
 40
0.1666666666666667
 40
0.3333333333333333
 40
0.3333333333333333
 40
0.3333333333333333
 40
0.3333333333333333
 40
0.5
 40
0.5
 40
0.5
 40
0.5
 40
0.6666666666666666
 40
0.6666666666666666
 40
0.6666666666666666
 40
0.6666666666666666
 40
1.0
 40
1.0
 40
1.0
 40
1.0
 10
14.9968
 20
21.6671
 30
0.0
 10
14.9968
 20
21.6671
 30
0.0
 10
13.3393
 20
19.1961
 30
0.0
 10
13.3393
 20
19.1961
 30
0.0
 10
13.3393
 20
19.1961
 30
0.0
 10
13.3393
 20
19.1961
 30
0.0
 10
5.6433
 20
24.1729
 30
0.0
 10
5.6433
 20
24.1729
 30
0.0
 10
5.6433
 20
24.1729
 30
0.0
 10
5.6433
 20
24.1729
 30
0.0
 10
13.307
 20
29.2167
 30
0.0
 10
13.307
 20
29.2167
 30
0.0
 10
13.307
 20
29.2167
 30
0.0
 10
13.307
 20
29.2167
 30
0.0
 10
16.4293
 20
24.1658
 30
0.0
 10
16.4293
 20
24.1658
 30
0.0
 10
16.4293
 20
24.1658
 30
0.0
 10
16.4293
 20
24.1658
 30
0.0
 10
14.9968
 20
21.6671
 30
0.0
 10
14.9968
 20
21.6671
 30
0.0
  0
SPLINE
  5
B8
330
1F
100
AcDbEntity
  8
layer 1
100
AcDbSpline
210
0.0
220
0.0
230
1.0
 70
    11
 71
     3
 72
    20
 73
    16
 74
     0
 42
0.0000000001
 43
0.0000000001
 12
1.0
 22
0.0
 32
0.0
 13
1.0
 23
0.0
 33
0.0
 40
0.0
 40
0.0
 40
0.0
 40
0.0
 40
0.2
 40
0.2
 40
0.2
 40
0.2
 40
0.4
 40
0.4
 40
0.4
 40
0.4
 40
0.6
 40
0.6
 40
0.6
 40
0.6
 40
1.0
 40
1.0
 40
1.0
 40
1.0
 10
1.0833
 20
-1.4691
 30
0.0
 10
1.0833
 20
-1.4691
 30
0.0
 10
-8.704
 20
14.9279
 30
0.0
 10
-8.704
 20
14.9279
 30
0.0
 10
-8.704
 20
14.9279
 30
0.0
 10
-8.704
 20
14.9279
 30
0.0
 10
1.0778
 20
21.3211
 30
0.0
 10
1.0778
 20
21.3211
 30
0.0
 10
1.0778
 20
21.3211
 30
0.0
 10
1.0778
 20
21.3211
 30
0.0
 10
10.9054
 20
14.7828
 30
0.0
 10
10.9054
 20
14.7828
 30
0.0
 10
10.9054
 20
14.7828
 30
0.0
 10
10.9054
 20
14.7828
 30
0.0
 10
1.0833
 20
-1.4691
 30
0.0
 10
1.0833
 20
-1.4691
 30
0.0
  0
SPLINE
  5
B9
330
1F
100
AcDbEntity
  8
layer 1
100
AcDbSpline
210
0.0
220
0.0
230
1.0
 70
    11
 71
     3
 72
    20
 73
    16
 74
     0
 42
0.0000000001
 43
0.0000000001
 12
1.0
 22
0.0
 32
0.0
 13
1.0
 23
0.0
 33
0.0
 40
0.0
 40
0.0
 40
0.0
 40
0.0
 40
0.2
 40
0.2
 40
0.2
 40
0.2
 40
0.4
 40
0.4
 40
0.4
 40
0.4
 40
0.6
 40
0.6
 40
0.6
 40
0.6
 40
1.0
 40
1.0
 40
1.0
 40
1.0
 10
1.0968
 20
27.0023
 30
0.0
 10
1.0968
 20
27.0023
 30
0.0
 10
-8.7027
 20
33.4228
 30
0.0
 10
-8.7027
 20
33.4228
 30
0.0
 10
-8.7027
 20
33.4228
 30
0.0
 10
-8.7027
 20
33.4228
 30
0.0
 10
1.0816
 20
49.8336
 30
0.0
 10
1.0816
 20
49.8336
 30
0.0
 10
1.0816
 20
49.8336
 30
0.0
 10
1.0816
 20
49.8336
 30
0.0
 10
10.8488
 20
33.5728
 30
0.0
 10
10.8488
 20
33.5728
 30
0.0
 10
10.8488
 20
33.5728
 30
0.0
 10
10.8488
 20
33.5728
 30
0.0
 10
1.0968
 20
27.0023
 30
0.0
 10
1.0968
 20
27.0023
 30
0.0
  0
SPLINE
  5
BA
330
1F
100
AcDbEntity
  8
layer 1
100
AcDbSpline
210
0.0
220
0.0
230
1.0
 70
    11
 71
     3
 72
    20
 73
    16
 74
     0
 42
0.0000000001
 43
0.0000000001
 12
1.0
 22
0.0
 32
0.0
 13
1.0
 23
0.0
 33
0.0
 40
0.0
 40
0.0
 40
0.0
 40
0.0
 40
0.2
 40
0.2
 40
0.2
 40
0.2
 40
0.4
 40
0.4
 40
0.4
 40
0.4
 40
0.6
 40
0.6
 40
0.6
 40
0.6
 40
1.0
 40
1.0
 40
1.0
 40
1.0
 10
-12.8161
 20
36.1758
 30
0.0
 10
-16.0597
 20
38.2103
 30
0.0
 10
-18.4972
 20
39.8606
 30
0.0
 10
-21.9324
 20
42.1257
 30
0.0
 10
-21.9324
 20
42.1257
 30
0.0
 10
-21.9324
 20
42.1257
 30
0.0
 10
-21.9354
 20
52.231
 30
0.0
 10
-21.9354
 20
52.231
 30
0.0
 10
-21.9354
 20
52.231
 30
0.0
 10
-21.9354
 20
52.231
 30
0.0
 10
-3.2302
 20
52.1711
 30
0.0
 10
-3.2302
 20
52.1711
 30
0.0
 10
-3.2302
 20
52.1711
 30
0.0
 10
-3.2302
 20
52.1711
 30
0.0
 10
-12.8161
 20
36.1758
 30
0.0
 10
-12.8161
 20
36.1758
 30
0.0
  0
SPLINE
  5
BB
330
1F
100
AcDbEntity
  8
layer 1
100
AcDbSpline
210
0.0
220
0.0
230
1.0
 70
    11
 71
     3
 72
    20
 73
    16
 74
     0
 42
0.0000000001
 43
0.0000000001
 12
1.0
 22
0.0
 32
0.0
 13
1.0
 23
0.0
 33
0.0
 40
0.0
 40
0.0
 40
0.0
 40
0.0
 40
0.2
 40
0.2
 40
0.2
 40
0.2
 40
0.4
 40
0.4
 40
0.4
 40
0.4
 40
0.6
 40
0.6
 40
0.6
 40
0.6
 40
1.0
 40
1.0
 40
1.0
 40
1.0
 10
-11.1455
 20
19.1479
 30
0.0
 10
-11.1455
 20
19.1479
 30
0.0
 10
-14.1924
 20
24.2061
 30
0.0
 10
-14.1924
 20
24.2061
 30
0.0
 10
-14.1924
 20
24.2061
 30
0.0
 10
-14.1924
 20
24.2061
 30
0.0
 10
-11.1395
 20
29.2167
 30
0.0
 10
-11.1395
 20
29.2167
 30
0.0
 10
-11.1395
 20
29.2167
 30
0.0
 10
-11.1395
 20
29.2167
 30
0.0
 10
-3.5179
 20
24.2116
 30
0.0
 10
-3.5179
 20
24.2116
 30
0.0
 10
-3.5179
 20
24.2116
 30
0.0
 10
-3.5179
 20
24.2116
 30
0.0
 10
-11.1455
 20
19.1479
 30
0.0
 10
-11.1455
 20
19.1479
 30
0.0
  0
SPLINE
  5
BC
330
1F
100
AcDbEntity
  8
layer 1
100
AcDbSpline
210
0.0
220
0.0
230
1.0
 70
    11
 71
     3
 72
    24
 73
    20
 74
     0
 42
0.0000000001
 43
0.0000000001
 12
1.0
 22
0.0
 32
0.0
 13
1.0
 23
0.0
 33
0.0
 40
0.0
 40
0.0
 40
0.0
 40
0.0
 40
0.1666666666666667
 40
0.1666666666666667
 40
0.1666666666666667
 40
0.1666666666666667
 40
0.3333333333333333
 40
0.3333333333333333
 40
0.3333333333333333
 40
0.3333333333333333
 40
0.5
 40
0.5
 40
0.5
 40
0.5
 40
0.6666666666666666
 40
0.6666666666666666
 40
0.6666666666666666
 40
0.6666666666666666
 40
1.0
 40
1.0
 40
1.0
 40
1.0
 10
24.1174
 20
11.8912
 30
0.0
 10
24.1174
 20
11.8912
 30
0.0
 10
24.1174
 20
36.4403
 30
0.0
 10
24.1174
 20
36.4403
 30
0.0
 10
24.1174
 20
36.4403
 30
0.0
 10
24.1174
 20
36.4403
 30
0.0
 10
17.597
 20
31.7943
 30
0.0
 10
17.597
 20
31.7943
 30
0.0
 10
17.597
 20
31.7943
 30
0.0
 10
17.597
 20
31.7943
 30
0.0
 10
21.9533
 20
24.1865
 30
0.0
 10
21.9533
 20
24.1865
 30
0.0
 10
21.9533
 20
24.1865
 30
0.0
 10
21.9533
 20
24.1865
 30
0.0
 10
17.4913
 20
16.4835
 30
0.0
 10
17.4913
 20
16.4835
 30
0.0
 10
17.4913
 20
16.4835
 30
0.0
 10
17.4913
 20
16.4835
 30
0.0
 10
24.1174
 20
11.8912
 30
0.0
 10
24.1174
 20
11.8912
 30
0.0
  0
SPLINE
  5
BD
330
1F
100
AcDbEntity
  8
layer 1
100
AcDbSpline
210
0.0
220
0.0
230
1.0
 70
    11
 71
     3
 72
    20
 73
    16
 74
     0
 42
0.0000000001
 43
0.0000000001
 12
1.0
 22
0.0
 32
0.0
 13
1.0
 23
0.0
 33
0.0
 40
0.0
 40
0.0
 40
0.0
 40
0.0
 40
0.2
 40
0.2
 40
0.2
 40
0.2
 40
0.4
 40
0.4
 40
0.4
 40
0.4
 40
0.6
 40
0.6
 40
0.6
 40
0.6
 40
1.0
 40
1.0
 40
1.0
 40
1.0
 10
24.1109
 20
-3.8651
 30
0.0
 10
24.1109
 20
-3.8651
 30
0.0
 10
24.1109
 20
6.2186
 30
0.0
 10
24.1109
 20
6.2186
 30
0.0
 10
24.1109
 20
6.2186
 30
0.0
 10
24.1109
 20
6.2186
 30
0.0
 10
14.8925
 20
12.1521
 30
0.0
 10
14.8925
 20
12.1521
 30
0.0
 10
14.8925
 20
12.1521
 30
0.0
 10
14.8377
 20
12.0824
 30
0.0
 10
5.6764
 20
-3.4673
 30
0.0
 10
5.4542
 20
-3.8637
 30
0.0
 10
5.4542
 20
-3.8637
 30
0.0
 10
5.4542
 20
-3.8637
 30
0.0
 10
24.1109
 20
-3.8651
 30
0.0
 10
24.1109
 20
-3.8651
 30
0.0
  0
SPLINE
  5
BE
330
1F
100
AcDbEntity
  8
layer 1
100
AcDbSpline
210
0.0
220
0.0
230
1.0
 70
    11
 71
     3
 72
    20
 73
    16
 74
     0
 42
0.0000000001
 43
0.0000000001
 12
1.0
 22
0.0
 32
0.0
 13
1.0
 23
0.0
 33
0.0
 40
0.0
 40
0.0
 40
0.0
 40
0.0
 40
0.2
 40
0.2
 40
0.2
 40
0.2
 40
0.4
 40
0.4
 40
0.4
 40
0.4
 40
0.6
 40
0.6
 40
0.6
 40
0.6
 40
1.0
 40
1.0
 40
1.0
 40
1.0
 10
15.0011
 20
36.1772
 30
0.0
 10
18.2448
 20
38.2117
 30
0.0
 10
20.6823
 20
39.8619
 30
0.0
 10
24.1174
 20
42.127
 30
0.0
 10
24.1174
 20
42.127
 30
0.0
 10
24.1174
 20
42.127
 30
0.0
 10
24.1205
 20
52.2323
 30
0.0
 10
24.1205
 20
52.2323
 30
0.0
 10
24.1205
 20
52.2323
 30
0.0
 10
24.1205
 20
52.2323
 30
0.0
 10
5.4153
 20
52.1724
 30
0.0
 10
5.4153
 20
52.1724
 30
0.0
 10
5.4153
 20
52.1724
 30
0.0
 10
5.4153
 20
52.1724
 30
0.0
 10
15.0011
 20
36.1772
 30
0.0
 10
15.0011
 20
36.1772
 30
0.0
  0
SPLINE
  5
BF
330
1F
100
AcDbEntity
  8
layer 1
100
AcDbSpline
210
0.0
220
0.0
230
1.0
 70
    11
 71
     3
 72
    20
 73
    16
 74
     0
 42
0.0000000001
 43
0.0000000001
 12
1.0
 22
0.0
 32
0.0
 13
1.0
 23
0.0
 33
0.0
 40
0.0
 40
0.0
 40
0.0
 40
0.0
 40
0.2
 40
0.2
 40
0.2
 40
0.2
 40
0.4
 40
0.4
 40
0.4
 40
0.4
 40
0.6
 40
0.6
 40
0.6
 40
0.6
 40
1.0
 40
1.0
 40
1.0
 40
1.0
 10
-60.9773
 20
-1.4185
 30
0.0
 10
-60.9773
 20
-1.4185
 30
0.0
 10
-58.58
 20
-1.4185
 30
0.0
 10
-58.58
 20
-1.4185
 30
0.0
 10
-58.58
 20
-1.4185
 30
0.0
 10
-58.58
 20
-1.4185
 30
0.0
 10
-58.58
 20
0.7391
 30
0.0
 10
-58.58
 20
0.7391
 30
0.0
 10
-58.58
 20
0.7391
 30
0.0
 10
-58.58
 20
0.7391
 30
0.0
 10
-60.9773
 20
0.7391
 30
0.0
 10
-60.9773
 20
0.7391
 30
0.0
 10
-60.9773
 20
0.7391
 30
0.0
 10
-60.9773
 20
0.7391
 30
0.0
 10
-60.9773
 20
-1.4185
 30
0.0
 10
-60.9773
 20
-1.4185
 30
0.0
  0
SPLINE
  5
C0
330
1F
100
AcDbEntity
  8
layer 1
100
AcDbSpline
210
0.0
220
0.0
230
1.0
 70
    11
 71
     3
 72
    24
 73
    20
 74
     0
 42
0.0000000001
 43
0.0000000001
 12
1.0
 22
0.0
 32
0.0
 13
1.0
 23
0.0
 33
0.0
 40
0.0
 40
0.0
 40
0.0
 40
0.0
 40
0.1666666666666667
 40
0.1666666666666667
 40
0.1666666666666667
 40
0.1666666666666667
 40
0.3333333333333333
 40
0.3333333333333333
 40
0.3333333333333333
 40
0.3333333333333333
 40
0.5
 40
0.5
 40
0.5
 40
0.5
 40
0.6666666666666666
 40
0.6666666666666666
 40
0.6666666666666666
 40
0.6666666666666666
 40
1.0
 40
1.0
 40
1.0
 40
1.0
 10
-68.0854
 20
-43.6481
 30
0.0
 10
-68.0854
 20
-43.6481
 30
0.0
 10
-68.0854
 20
-19.099
 30
0.0
 10
-68.0854
 20
-19.099
 30
0.0
 10
-68.0854
 20
-19.099
 30
0.0
 10
-68.0854
 20
-19.099
 30
0.0
 10
-61.565
 20
-23.745
 30
0.0
 10
-61.565
 20
-23.745
 30
0.0
 10
-61.565
 20
-23.745
 30
0.0
 10
-61.565
 20
-23.745
 30
0.0
 10
-65.9213
 20
-31.3527
 30
0.0
 10
-65.9213
 20
-31.3527
 30
0.0
 10
-65.9213
 20
-31.3527
 30
0.0
 10
-65.9213
 20
-31.3527
 30
0.0
 10
-61.4593
 20
-39.0558
 30
0.0
 10
-61.4593
 20
-39.0558
 30
0.0
 10
-61.4593
 20
-39.0558
 30
0.0
 10
-61.4593
 20
-39.0558
 30
0.0
 10
-68.0854
 20
-43.6481
 30
0.0
 10
-68.0854
 20
-43.6481
 30
0.0
  0
SPLINE
  5
C1
330
1F
100
AcDbEntity
  8
layer 1
100
AcDbSpline
210
0.0
220
0.0
230
1.0
 70
    11
 71
     3
 72
    20
 73
    16
 74
     0
 42
0.0000000001
 43
0.0000000001
 12
1.0
 22
0.0
 32
0.0
 13
1.0
 23
0.0
 33
0.0
 40
0.0
 40
0.0
 40
0.0
 40
0.0
 40
0.2
 40
0.2
 40
0.2
 40
0.2
 40
0.4
 40
0.4
 40
0.4
 40
0.4
 40
0.6
 40
0.6
 40
0.6
 40
0.6
 40
1.0
 40
1.0
 40
1.0
 40
1.0
 10
-68.0789
 20
-59.4044
 30
0.0
 10
-68.0789
 20
-59.4044
 30
0.0
 10
-68.0789
 20
-49.3207
 30
0.0
 10
-68.0789
 20
-49.3207
 30
0.0
 10
-68.0789
 20
-49.3207
 30
0.0
 10
-68.0789
 20
-49.3207
 30
0.0
 10
-58.8605
 20
-43.3871
 30
0.0
 10
-58.8605
 20
-43.3871
 30
0.0
 10
-58.8605
 20
-43.3871
 30
0.0
 10
-58.8057
 20
-43.4569
 30
0.0
 10
-49.6444
 20
-59.0066
 30
0.0
 10
-49.4222
 20
-59.403
 30
0.0
 10
-49.4222
 20
-59.403
 30
0.0
 10
-49.4222
 20
-59.403
 30
0.0
 10
-68.0789
 20
-59.4044
 30
0.0
 10
-68.0789
 20
-59.4044
 30
0.0
  0
SPLINE
  5
C2
330
1F
100
AcDbEntity
  8
layer 1
100
AcDbSpline
210
0.0
220
0.0
230
1.0
 70
    11
 71
     3
 72
    24
 73
    20
 74
     0
 42
0.0000000001
 43
0.0000000001
 12
1.0
 22
0.0
 32
0.0
 13
1.0
 23
0.0
 33
0.0
 40
0.0
 40
0.0
 40
0.0
 40
0.0
 40
0.1666666666666667
 40
0.1666666666666667
 40
0.1666666666666667
 40
0.1666666666666667
 40
0.3333333333333333
 40
0.3333333333333333
 40
0.3333333333333333
 40
0.3333333333333333
 40
0.5
 40
0.5
 40
0.5
 40
0.5
 40
0.6666666666666666
 40
0.6666666666666666
 40
0.6666666666666666
 40
0.6666666666666666
 40
1.0
 40
1.0
 40
1.0
 40
1.0
 10
-31.1561
 20
-33.8709
 30
0.0
 10
-31.1561
 20
-33.8709
 30
0.0
 10
-32.8137
 20
-36.3419
 30
0.0
 10
-32.8137
 20
-36.3419
 30
0.0
 10
-32.8137
 20
-36.3419
 30
0.0
 10
-32.8137
 20
-36.3419
 30
0.0
 10
-40.5096
 20
-31.3651
 30
0.0
 10
-40.5096
 20
-31.3651
 30
0.0
 10
-40.5096
 20
-31.3651
 30
0.0
 10
-40.5096
 20
-31.3651
 30
0.0
 10
-32.846
 20
-26.3213
 30
0.0
 10
-32.846
 20
-26.3213
 30
0.0
 10
-32.846
 20
-26.3213
 30
0.0
 10
-32.846
 20
-26.3213
 30
0.0
 10
-29.7236
 20
-31.3722
 30
0.0
 10
-29.7236
 20
-31.3722
 30
0.0
 10
-29.7236
 20
-31.3722
 30
0.0
 10
-29.7236
 20
-31.3722
 30
0.0
 10
-31.1561
 20
-33.8709
 30
0.0
 10
-31.1561
 20
-33.8709
 30
0.0
  0
SPLINE
  5
C3
330
1F
100
AcDbEntity
  8
layer 1
100
AcDbSpline
210
0.0
220
0.0
230
1.0
 70
    11
 71
     3
 72
    20
 73
    16
 74
     0
 42
0.0000000001
 43
0.0000000001
 12
1.0
 22
0.0
 32
0.0
 13
1.0
 23
0.0
 33
0.0
 40
0.0
 40
0.0
 40
0.0
 40
0.0
 40
0.2
 40
0.2
 40
0.2
 40
0.2
 40
0.4
 40
0.4
 40
0.4
 40
0.4
 40
0.6
 40
0.6
 40
0.6
 40
0.6
 40
1.0
 40
1.0
 40
1.0
 40
1.0
 10
-45.0696
 20
-57.0071
 30
0.0
 10
-45.0696
 20
-57.0071
 30
0.0
 10
-54.857
 20
-40.6101
 30
0.0
 10
-54.857
 20
-40.6101
 30
0.0
 10
-54.857
 20
-40.6101
 30
0.0
 10
-54.857
 20
-40.6101
 30
0.0
 10
-45.0752
 20
-34.2169
 30
0.0
 10
-45.0752
 20
-34.2169
 30
0.0
 10
-45.0752
 20
-34.2169
 30
0.0
 10
-45.0752
 20
-34.2169
 30
0.0
 10
-35.2476
 20
-40.7552
 30
0.0
 10
-35.2476
 20
-40.7552
 30
0.0
 10
-35.2476
 20
-40.7552
 30
0.0
 10
-35.2476
 20
-40.7552
 30
0.0
 10
-45.0696
 20
-57.0071
 30
0.0
 10
-45.0696
 20
-57.0071
 30
0.0
  0
SPLINE
  5
C4
330
1F
100
AcDbEntity
  8
layer 1
100
AcDbSpline
210
0.0
220
0.0
230
1.0
 70
    11
 71
     3
 72
    20
 73
    16
 74
     0
 42
0.0000000001
 43
0.0000000001
 12
1.0
 22
0.0
 32
0.0
 13
1.0
 23
0.0
 33
0.0
 40
0.0
 40
0.0
 40
0.0
 40
0.0
 40
0.2
 40
0.2
 40
0.2
 40
0.2
 40
0.4
 40
0.4
 40
0.4
 40
0.4
 40
0.6
 40
0.6
 40
0.6
 40
0.6
 40
1.0
 40
1.0
 40
1.0
 40
1.0
 10
-45.0561
 20
-28.5357
 30
0.0
 10
-45.0561
 20
-28.5357
 30
0.0
 10
-54.8556
 20
-22.1152
 30
0.0
 10
-54.8556
 20
-22.1152
 30
0.0
 10
-54.8556
 20
-22.1152
 30
0.0
 10
-54.8556
 20
-22.1152
 30
0.0
 10
-45.0714
 20
-5.7044
 30
0.0
 10
-45.0714
 20
-5.7044
 30
0.0
 10
-45.0714
 20
-5.7044
 30
0.0
 10
-45.0714
 20
-5.7044
 30
0.0
 10
-35.3041
 20
-21.9652
 30
0.0
 10
-35.3041
 20
-21.9652
 30
0.0
 10
-35.3041
 20
-21.9652
 30
0.0
 10
-35.3041
 20
-21.9652
 30
0.0
 10
-45.0561
 20
-28.5357
 30
0.0
 10
-45.0561
 20
-28.5357
 30
0.0
  0
SPLINE
  5
C5
330
1F
100
AcDbEntity
  8
layer 1
100
AcDbSpline
210
0.0
220
0.0
230
1.0
 70
    11
 71
     3
 72
    20
 73
    16
 74
     0
 42
0.0000000001
 43
0.0000000001
 12
1.0
 22
0.0
 32
0.0
 13
1.0
 23
0.0
 33
0.0
 40
0.0
 40
0.0
 40
0.0
 40
0.0
 40
0.2
 40
0.2
 40
0.2
 40
0.2
 40
0.4
 40
0.4
 40
0.4
 40
0.4
 40
0.6
 40
0.6
 40
0.6
 40
0.6
 40
1.0
 40
1.0
 40
1.0
 40
1.0
 10
-58.969
 20
-19.3622
 30
0.0
 10
-62.2127
 20
-17.3277
 30
0.0
 10
-64.6502
 20
-15.6774
 30
0.0
 10
-68.0853
 20
-13.4123
 30
0.0
 10
-68.0853
 20
-13.4123
 30
0.0
 10
-68.0853
 20
-13.4123
 30
0.0
 10
-68.0884
 20
-3.3071
 30
0.0
 10
-68.0884
 20
-3.3071
 30
0.0
 10
-68.0884
 20
-3.3071
 30
0.0
 10
-68.0884
 20
-3.3071
 30
0.0
 10
-49.3832
 20
-3.3669
 30
0.0
 10
-49.3832
 20
-3.3669
 30
0.0
 10
-49.3832
 20
-3.3669
 30
0.0
 10
-49.3832
 20
-3.3669
 30
0.0
 10
-58.969
 20
-19.3622
 30
0.0
 10
-58.969
 20
-19.3622
 30
0.0
  0
SPLINE
  5
C6
330
1F
100
AcDbEntity
  8
layer 1
100
AcDbSpline
210
0.0
220
0.0
230
1.0
 70
    11
 71
     3
 72
    20
 73
    16
 74
     0
 42
0.0000000001
 43
0.0000000001
 12
1.0
 22
0.0
 32
0.0
 13
1.0
 23
0.0
 33
0.0
 40
0.0
 40
0.0
 40
0.0
 40
0.0
 40
0.2
 40
0.2
 40
0.2
 40
0.2
 40
0.4
 40
0.4
 40
0.4
 40
0.4
 40
0.6
 40
0.6
 40
0.6
 40
0.6
 40
1.0
 40
1.0
 40
1.0
 40
1.0
 10
-57.2985
 20
-36.3901
 30
0.0
 10
-57.2985
 20
-36.3901
 30
0.0
 10
-60.3454
 20
-31.3319
 30
0.0
 10
-60.3454
 20
-31.3319
 30
0.0
 10
-60.3454
 20
-31.3319
 30
0.0
 10
-60.3454
 20
-31.3319
 30
0.0
 10
-57.2925
 20
-26.3213
 30
0.0
 10
-57.2925
 20
-26.3213
 30
0.0
 10
-57.2925
 20
-26.3213
 30
0.0
 10
-57.2925
 20
-26.3213
 30
0.0
 10
-49.6709
 20
-31.3265
 30
0.0
 10
-49.6709
 20
-31.3265
 30
0.0
 10
-49.6709
 20
-31.3265
 30
0.0
 10
-49.6709
 20
-31.3265
 30
0.0
 10
-57.2985
 20
-36.3901
 30
0.0
 10
-57.2985
 20
-36.3901
 30
0.0
  0
SPLINE
  5
C7
330
1F
100
AcDbEntity
  8
layer 1
100
AcDbSpline
210
0.0
220
0.0
230
1.0
 70
    11
 71
     3
 72
    24
 73
    20
 74
     0
 42
0.0000000001
 43
0.0000000001
 12
1.0
 22
0.0
 32
0.0
 13
1.0
 23
0.0
 33
0.0
 40
0.0
 40
0.0
 40
0.0
 40
0.0
 40
0.1666666666666667
 40
0.1666666666666667
 40
0.1666666666666667
 40
0.1666666666666667
 40
0.3333333333333333
 40
0.3333333333333333
 40
0.3333333333333333
 40
0.3333333333333333
 40
0.5
 40
0.5
 40
0.5
 40
0.5
 40
0.6666666666666666
 40
0.6666666666666666
 40
0.6666666666666666
 40
0.6666666666666666
 40
1.0
 40
1.0
 40
1.0
 40
1.0
 10
-22.0356
 20
-43.6468
 30
0.0
 10
-22.0356
 20
-43.6468
 30
0.0
 10
-22.0356
 20
-19.0977
 30
0.0
 10
-22.0356
 20
-19.0977
 30
0.0
 10
-22.0356
 20
-19.0977
 30
0.0
 10
-22.0356
 20
-19.0977
 30
0.0
 10
-28.556
 20
-23.7437
 30
0.0
 10
-28.556
 20
-23.7437
 30
0.0
 10
-28.556
 20
-23.7437
 30
0.0
 10
-28.556
 20
-23.7437
 30
0.0
 10
-24.1996
 20
-31.3515
 30
0.0
 10
-24.1996
 20
-31.3515
 30
0.0
 10
-24.1996
 20
-31.3515
 30
0.0
 10
-24.1996
 20
-31.3515
 30
0.0
 10
-28.6617
 20
-39.0546
 30
0.0
 10
-28.6617
 20
-39.0546
 30
0.0
 10
-28.6617
 20
-39.0546
 30
0.0
 10
-28.6617
 20
-39.0546
 30
0.0
 10
-22.0356
 20
-43.6468
 30
0.0
 10
-22.0356
 20
-43.6468
 30
0.0
  0
SPLINE
  5
C8
330
1F
100
AcDbEntity
  8
layer 1
100
AcDbSpline
210
0.0
220
0.0
230
1.0
 70
    11
 71
     3
 72
    20
 73
    16
 74
     0
 42
0.0000000001
 43
0.0000000001
 12
1.0
 22
0.0
 32
0.0
 13
1.0
 23
0.0
 33
0.0
 40
0.0
 40
0.0
 40
0.0
 40
0.0
 40
0.2
 40
0.2
 40
0.2
 40
0.2
 40
0.4
 40
0.4
 40
0.4
 40
0.4
 40
0.6
 40
0.6
 40
0.6
 40
0.6
 40
1.0
 40
1.0
 40
1.0
 40
1.0
 10
-22.0421
 20
-59.4031
 30
0.0
 10
-22.0421
 20
-59.4031
 30
0.0
 10
-22.0421
 20
-49.3194
 30
0.0
 10
-22.0421
 20
-49.3194
 30
0.0
 10
-22.0421
 20
-49.3194
 30
0.0
 10
-22.0421
 20
-49.3194
 30
0.0
 10
-31.2605
 20
-43.3859
 30
0.0
 10
-31.2605
 20
-43.3859
 30
0.0
 10
-31.2605
 20
-43.3859
 30
0.0
 10
-31.3152
 20
-43.4556
 30
0.0
 10
-40.4766
 20
-59.0053
 30
0.0
 10
-40.6987
 20
-59.4018
 30
0.0
 10
-40.6987
 20
-59.4018
 30
0.0
 10
-40.6987
 20
-59.4018
 30
0.0
 10
-22.0421
 20
-59.4031
 30
0.0
 10
-22.0421
 20
-59.4031
 30
0.0
  0
SPLINE
  5
C9
330
1F
100
AcDbEntity
  8
layer 1
100
AcDbSpline
210
0.0
220
0.0
230
1.0
 70
    11
 71
     3
 72
    20
 73
    16
 74
     0
 42
0.0000000001
 43
0.0000000001
 12
1.0
 22
0.0
 32
0.0
 13
1.0
 23
0.0
 33
0.0
 40
0.0
 40
0.0
 40
0.0
 40
0.0
 40
0.2
 40
0.2
 40
0.2
 40
0.2
 40
0.4
 40
0.4
 40
0.4
 40
0.4
 40
0.6
 40
0.6
 40
0.6
 40
0.6
 40
1.0
 40
1.0
 40
1.0
 40
1.0
 10
-31.1519
 20
-19.3608
 30
0.0
 10
-27.9082
 20
-17.3263
 30
0.0
 10
-25.4707
 20
-15.6761
 30
0.0
 10
-22.0356
 20
-13.411
 30
0.0
 10
-22.0356
 20
-13.411
 30
0.0
 10
-22.0356
 20
-13.411
 30
0.0
 10
-22.0325
 20
-3.3057
 30
0.0
 10
-22.0325
 20
-3.3057
 30
0.0
 10
-22.0325
 20
-3.3057
 30
0.0
 10
-22.0325
 20
-3.3057
 30
0.0
 10
-40.7377
 20
-3.3656
 30
0.0
 10
-40.7377
 20
-3.3656
 30
0.0
 10
-40.7377
 20
-3.3656
 30
0.0
 10
-40.7377
 20
-3.3656
 30
0.0
 10
-31.1519
 20
-19.3608
 30
0.0
 10
-31.1519
 20
-19.3608
 30
0.0
  0
SPLINE
  5
CA
330
1F
100
AcDbEntity
  8
layer 1
100
AcDbSpline
210
0.0
220
0.0
230
1.0
 70
    11
 71
     3
 72
    24
 73
    20
 74
     0
 42
0.0000000001
 43
0.0000000001
 12
1.0
 22
0.0
 32
0.0
 13
1.0
 23
0.0
 33
0.0
 40
0.0
 40
0.0
 40
0.0
 40
0.0
 40
0.1666666666666667
 40
0.1666666666666667
 40
0.1666666666666667
 40
0.1666666666666667
 40
0.3333333333333333
 40
0.3333333333333333
 40
0.3333333333333333
 40
0.3333333333333333
 40
0.5
 40
0.5
 40
0.5
 40
0.5
 40
0.6666666666666666
 40
0.6666666666666666
 40
0.6666666666666666
 40
0.6666666666666666
 40
1.0
 40
1.0
 40
1.0
 40
1.0
 10
-21.9325
 20
-43.6481
 30
0.0
 10
-21.9325
 20
-43.6481
 30
0.0
 10
-21.9325
 20
-19.099
 30
0.0
 10
-21.9325
 20
-19.099
 30
0.0
 10
-21.9325
 20
-19.099
 30
0.0
 10
-21.9325
 20
-19.099
 30
0.0
 10
-15.4121
 20
-23.745
 30
0.0
 10
-15.4121
 20
-23.745
 30
0.0
 10
-15.4121
 20
-23.745
 30
0.0
 10
-15.4121
 20
-23.745
 30
0.0
 10
-19.7684
 20
-31.3527
 30
0.0
 10
-19.7684
 20
-31.3527
 30
0.0
 10
-19.7684
 20
-31.3527
 30
0.0
 10
-19.7684
 20
-31.3527
 30
0.0
 10
-15.3063
 20
-39.0558
 30
0.0
 10
-15.3063
 20
-39.0558
 30
0.0
 10
-15.3063
 20
-39.0558
 30
0.0
 10
-15.3063
 20
-39.0558
 30
0.0
 10
-21.9325
 20
-43.6481
 30
0.0
 10
-21.9325
 20
-43.6481
 30
0.0
  0
SPLINE
  5
CB
330
1F
100
AcDbEntity
  8
layer 1
100
AcDbSpline
210
0.0
220
0.0
230
1.0
 70
    11
 71
     3
 72
    20
 73
    16
 74
     0
 42
0.0000000001
 43
0.0000000001
 12
1.0
 22
0.0
 32
0.0
 13
1.0
 23
0.0
 33
0.0
 40
0.0
 40
0.0
 40
0.0
 40
0.0
 40
0.2
 40
0.2
 40
0.2
 40
0.2
 40
0.4
 40
0.4
 40
0.4
 40
0.4
 40
0.6
 40
0.6
 40
0.6
 40
0.6
 40
1.0
 40
1.0
 40
1.0
 40
1.0
 10
-21.9259
 20
-59.4044
 30
0.0
 10
-21.9259
 20
-59.4044
 30
0.0
 10
-21.9259
 20
-49.3207
 30
0.0
 10
-21.9259
 20
-49.3207
 30
0.0
 10
-21.9259
 20
-49.3207
 30
0.0
 10
-21.9259
 20
-49.3207
 30
0.0
 10
-12.7075
 20
-43.3871
 30
0.0
 10
-12.7075
 20
-43.3871
 30
0.0
 10
-12.7075
 20
-43.3871
 30
0.0
 10
-12.6528
 20
-43.4569
 30
0.0
 10
-3.4915
 20
-59.0066
 30
0.0
 10
-3.2693
 20
-59.403
 30
0.0
 10
-3.2693
 20
-59.403
 30
0.0
 10
-3.2693
 20
-59.403
 30
0.0
 10
-21.9259
 20
-59.4044
 30
0.0
 10
-21.9259
 20
-59.4044
 30
0.0
  0
SPLINE
  5
CC
330
1F
100
AcDbEntity
  8
layer 1
100
AcDbSpline
210
0.0
220
0.0
230
1.0
 70
    11
 71
     3
 72
    24
 73
    20
 74
     0
 42
0.0000000001
 43
0.0000000001
 12
1.0
 22
0.0
 32
0.0
 13
1.0
 23
0.0
 33
0.0
 40
0.0
 40
0.0
 40
0.0
 40
0.0
 40
0.1666666666666667
 40
0.1666666666666667
 40
0.1666666666666667
 40
0.1666666666666667
 40
0.3333333333333333
 40
0.3333333333333333
 40
0.3333333333333333
 40
0.3333333333333333
 40
0.5
 40
0.5
 40
0.5
 40
0.5
 40
0.6666666666666666
 40
0.6666666666666666
 40
0.6666666666666666
 40
0.6666666666666666
 40
1.0
 40
1.0
 40
1.0
 40
1.0
 10
14.9968
 20
-33.8709
 30
0.0
 10
14.9968
 20
-33.8709
 30
0.0
 10
13.3393
 20
-36.3419
 30
0.0
 10
13.3393
 20
-36.3419
 30
0.0
 10
13.3393
 20
-36.3419
 30
0.0
 10
13.3393
 20
-36.3419
 30
0.0
 10
5.6433
 20
-31.3651
 30
0.0
 10
5.6433
 20
-31.3651
 30
0.0
 10
5.6433
 20
-31.3651
 30
0.0
 10
5.6433
 20
-31.3651
 30
0.0
 10
13.307
 20
-26.3213
 30
0.0
 10
13.307
 20
-26.3213
 30
0.0
 10
13.307
 20
-26.3213
 30
0.0
 10
13.307
 20
-26.3213
 30
0.0
 10
16.4293
 20
-31.3722
 30
0.0
 10
16.4293
 20
-31.3722
 30
0.0
 10
16.4293
 20
-31.3722
 30
0.0
 10
16.4293
 20
-31.3722
 30
0.0
 10
14.9968
 20
-33.8709
 30
0.0
 10
14.9968
 20
-33.8709
 30
0.0
  0
SPLINE
  5
CD
330
1F
100
AcDbEntity
  8
layer 1
100
AcDbSpline
210
0.0
220
0.0
230
1.0
 70
    11
 71
     3
 72
    20
 73
    16
 74
     0
 42
0.0000000001
 43
0.0000000001
 12
1.0
 22
0.0
 32
0.0
 13
1.0
 23
0.0
 33
0.0
 40
0.0
 40
0.0
 40
0.0
 40
0.0
 40
0.2
 40
0.2
 40
0.2
 40
0.2
 40
0.4
 40
0.4
 40
0.4
 40
0.4
 40
0.6
 40
0.6
 40
0.6
 40
0.6
 40
1.0
 40
1.0
 40
1.0
 40
1.0
 10
1.0833
 20
-57.0071
 30
0.0
 10
1.0833
 20
-57.0071
 30
0.0
 10
-8.704
 20
-40.6101
 30
0.0
 10
-8.704
 20
-40.6101
 30
0.0
 10
-8.704
 20
-40.6101
 30
0.0
 10
-8.704
 20
-40.6101
 30
0.0
 10
1.0778
 20
-34.2169
 30
0.0
 10
1.0778
 20
-34.2169
 30
0.0
 10
1.0778
 20
-34.2169
 30
0.0
 10
1.0778
 20
-34.2169
 30
0.0
 10
10.9054
 20
-40.7552
 30
0.0
 10
10.9054
 20
-40.7552
 30
0.0
 10
10.9054
 20
-40.7552
 30
0.0
 10
10.9054
 20
-40.7552
 30
0.0
 10
1.0833
 20
-57.0071
 30
0.0
 10
1.0833
 20
-57.0071
 30
0.0
  0
SPLINE
  5
CE
330
1F
100
AcDbEntity
  8
layer 1
100
AcDbSpline
210
0.0
220
0.0
230
1.0
 70
    11
 71
     3
 72
    20
 73
    16
 74
     0
 42
0.0000000001
 43
0.0000000001
 12
1.0
 22
0.0
 32
0.0
 13
1.0
 23
0.0
 33
0.0
 40
0.0
 40
0.0
 40
0.0
 40
0.0
 40
0.2
 40
0.2
 40
0.2
 40
0.2
 40
0.4
 40
0.4
 40
0.4
 40
0.4
 40
0.6
 40
0.6
 40
0.6
 40
0.6
 40
1.0
 40
1.0
 40
1.0
 40
1.0
 10
1.0968
 20
-28.5357
 30
0.0
 10
1.0968
 20
-28.5357
 30
0.0
 10
-8.7027
 20
-22.1152
 30
0.0
 10
-8.7027
 20
-22.1152
 30
0.0
 10
-8.7027
 20
-22.1152
 30
0.0
 10
-8.7027
 20
-22.1152
 30
0.0
 10
1.0816
 20
-5.7044
 30
0.0
 10
1.0816
 20
-5.7044
 30
0.0
 10
1.0816
 20
-5.7044
 30
0.0
 10
1.0816
 20
-5.7044
 30
0.0
 10
10.8488
 20
-21.9652
 30
0.0
 10
10.8488
 20
-21.9652
 30
0.0
 10
10.8488
 20
-21.9652
 30
0.0
 10
10.8488
 20
-21.9652
 30
0.0
 10
1.0968
 20
-28.5357
 30
0.0
 10
1.0968
 20
-28.5357
 30
0.0
  0
SPLINE
  5
CF
330
1F
100
AcDbEntity
  8
layer 1
100
AcDbSpline
210
0.0
220
0.0
230
1.0
 70
    11
 71
     3
 72
    20
 73
    16
 74
     0
 42
0.0000000001
 43
0.0000000001
 12
1.0
 22
0.0
 32
0.0
 13
1.0
 23
0.0
 33
0.0
 40
0.0
 40
0.0
 40
0.0
 40
0.0
 40
0.2
 40
0.2
 40
0.2
 40
0.2
 40
0.4
 40
0.4
 40
0.4
 40
0.4
 40
0.6
 40
0.6
 40
0.6
 40
0.6
 40
1.0
 40
1.0
 40
1.0
 40
1.0
 10
-12.8161
 20
-19.3622
 30
0.0
 10
-16.0597
 20
-17.3277
 30
0.0
 10
-18.4972
 20
-15.6774
 30
0.0
 10
-21.9324
 20
-13.4123
 30
0.0
 10
-21.9324
 20
-13.4123
 30
0.0
 10
-21.9324
 20
-13.4123
 30
0.0
 10
-21.9354
 20
-3.3071
 30
0.0
 10
-21.9354
 20
-3.3071
 30
0.0
 10
-21.9354
 20
-3.3071
 30
0.0
 10
-21.9354
 20
-3.3071
 30
0.0
 10
-3.2302
 20
-3.3669
 30
0.0
 10
-3.2302
 20
-3.3669
 30
0.0
 10
-3.2302
 20
-3.3669
 30
0.0
 10
-3.2302
 20
-3.3669
 30
0.0
 10
-12.8161
 20
-19.3622
 30
0.0
 10
-12.8161
 20
-19.3622
 30
0.0
  0
SPLINE
  5
D0
330
1F
100
AcDbEntity
  8
layer 1
100
AcDbSpline
210
0.0
220
0.0
230
1.0
 70
    11
 71
     3
 72
    20
 73
    16
 74
     0
 42
0.0000000001
 43
0.0000000001
 12
1.0
 22
0.0
 32
0.0
 13
1.0
 23
0.0
 33
0.0
 40
0.0
 40
0.0
 40
0.0
 40
0.0
 40
0.2
 40
0.2
 40
0.2
 40
0.2
 40
0.4
 40
0.4
 40
0.4
 40
0.4
 40
0.6
 40
0.6
 40
0.6
 40
0.6
 40
1.0
 40
1.0
 40
1.0
 40
1.0
 10
-11.1455
 20
-36.3901
 30
0.0
 10
-11.1455
 20
-36.3901
 30
0.0
 10
-14.1924
 20
-31.3319
 30
0.0
 10
-14.1924
 20
-31.3319
 30
0.0
 10
-14.1924
 20
-31.3319
 30
0.0
 10
-14.1924
 20
-31.3319
 30
0.0
 10
-11.1395
 20
-26.3213
 30
0.0
 10
-11.1395
 20
-26.3213
 30
0.0
 10
-11.1395
 20
-26.3213
 30
0.0
 10
-11.1395
 20
-26.3213
 30
0.0
 10
-3.5179
 20
-31.3265
 30
0.0
 10
-3.5179
 20
-31.3265
 30
0.0
 10
-3.5179
 20
-31.3265
 30
0.0
 10
-3.5179
 20
-31.3265
 30
0.0
 10
-11.1455
 20
-36.3901
 30
0.0
 10
-11.1455
 20
-36.3901
 30
0.0
  0
SPLINE
  5
D1
330
1F
100
AcDbEntity
  8
layer 1
100
AcDbSpline
210
0.0
220
0.0
230
1.0
 70
    11
 71
     3
 72
    24
 73
    20
 74
     0
 42
0.0000000001
 43
0.0000000001
 12
1.0
 22
0.0
 32
0.0
 13
1.0
 23
0.0
 33
0.0
 40
0.0
 40
0.0
 40
0.0
 40
0.0
 40
0.1666666666666667
 40
0.1666666666666667
 40
0.1666666666666667
 40
0.1666666666666667
 40
0.3333333333333333
 40
0.3333333333333333
 40
0.3333333333333333
 40
0.3333333333333333
 40
0.5
 40
0.5
 40
0.5
 40
0.5
 40
0.6666666666666666
 40
0.6666666666666666
 40
0.6666666666666666
 40
0.6666666666666666
 40
1.0
 40
1.0
 40
1.0
 40
1.0
 10
24.1174
 20
-43.6468
 30
0.0
 10
24.1174
 20
-43.6468
 30
0.0
 10
24.1174
 20
-19.0977
 30
0.0
 10
24.1174
 20
-19.0977
 30
0.0
 10
24.1174
 20
-19.0977
 30
0.0
 10
24.1174
 20
-19.0977
 30
0.0
 10
17.597
 20
-23.7437
 30
0.0
 10
17.597
 20
-23.7437
 30
0.0
 10
17.597
 20
-23.7437
 30
0.0
 10
17.597
 20
-23.7437
 30
0.0
 10
21.9533
 20
-31.3515
 30
0.0
 10
21.9533
 20
-31.3515
 30
0.0
 10
21.9533
 20
-31.3515
 30
0.0
 10
21.9533
 20
-31.3515
 30
0.0
 10
17.4913
 20
-39.0546
 30
0.0
 10
17.4913
 20
-39.0546
 30
0.0
 10
17.4913
 20
-39.0546
 30
0.0
 10
17.4913
 20
-39.0546
 30
0.0
 10
24.1174
 20
-43.6468
 30
0.0
 10
24.1174
 20
-43.6468
 30
0.0
  0
SPLINE
  5
D2
330
1F
100
AcDbEntity
  8
layer 1
100
AcDbSpline
210
0.0
220
0.0
230
1.0
 70
    11
 71
     3
 72
    20
 73
    16
 74
     0
 42
0.0000000001
 43
0.0000000001
 12
1.0
 22
0.0
 32
0.0
 13
1.0
 23
0.0
 33
0.0
 40
0.0
 40
0.0
 40
0.0
 40
0.0
 40
0.2
 40
0.2
 40
0.2
 40
0.2
 40
0.4
 40
0.4
 40
0.4
 40
0.4
 40
0.6
 40
0.6
 40
0.6
 40
0.6
 40
1.0
 40
1.0
 40
1.0
 40
1.0
 10
24.1109
 20
-59.4031
 30
0.0
 10
24.1109
 20
-59.4031
 30
0.0
 10
24.1109
 20
-49.3194
 30
0.0
 10
24.1109
 20
-49.3194
 30
0.0
 10
24.1109
 20
-49.3194
 30
0.0
 10
24.1109
 20
-49.3194
 30
0.0
 10
14.8925
 20
-43.3859
 30
0.0
 10
14.8925
 20
-43.3859
 30
0.0
 10
14.8925
 20
-43.3859
 30
0.0
 10
14.8377
 20
-43.4556
 30
0.0
 10
5.6764
 20
-59.0053
 30
0.0
 10
5.4542
 20
-59.4018
 30
0.0
 10
5.4542
 20
-59.4018
 30
0.0
 10
5.4542
 20
-59.4018
 30
0.0
 10
24.1109
 20
-59.4031
 30
0.0
 10
24.1109
 20
-59.4031
 30
0.0
  0
SPLINE
  5
D3
330
1F
100
AcDbEntity
  8
layer 1
100
AcDbSpline
210
0.0
220
0.0
230
1.0
 70
    11
 71
     3
 72
    20
 73
    16
 74
     0
 42
0.0000000001
 43
0.0000000001
 12
1.0
 22
0.0
 32
0.0
 13
1.0
 23
0.0
 33
0.0
 40
0.0
 40
0.0
 40
0.0
 40
0.0
 40
0.2
 40
0.2
 40
0.2
 40
0.2
 40
0.4
 40
0.4
 40
0.4
 40
0.4
 40
0.6
 40
0.6
 40
0.6
 40
0.6
 40
1.0
 40
1.0
 40
1.0
 40
1.0
 10
15.0011
 20
-19.3608
 30
0.0
 10
18.2448
 20
-17.3263
 30
0.0
 10
20.6823
 20
-15.6761
 30
0.0
 10
24.1174
 20
-13.411
 30
0.0
 10
24.1174
 20
-13.411
 30
0.0
 10
24.1174
 20
-13.411
 30
0.0
 10
24.1205
 20
-3.3057
 30
0.0
 10
24.1205
 20
-3.3057
 30
0.0
 10
24.1205
 20
-3.3057
 30
0.0
 10
24.1205
 20
-3.3057
 30
0.0
 10
5.4153
 20
-3.3656
 30
0.0
 10
5.4153
 20
-3.3656
 30
0.0
 10
5.4153
 20
-3.3656
 30
0.0
 10
5.4153
 20
-3.3656
 30
0.0
 10
15.0011
 20
-19.3608
 30
0.0
 10
15.0011
 20
-19.3608
 30
0.0
  0
SPLINE
  5
D4
330
1F
100
AcDbEntity
  8
layer 1
100
AcDbSpline
210
0.0
220
0.0
230
1.0
 70
    11
 71
     3
 72
    20
 73
    16
 74
     0
 42
0.0000000001
 43
0.0000000001
 12
1.0
 22
0.0
 32
0.0
 13
1.0
 23
0.0
 33
0.0
 40
0.0
 40
0.0
 40
0.0
 40
0.0
 40
0.2
 40
0.2
 40
0.2
 40
0.2
 40
0.4
 40
0.4
 40
0.4
 40
0.4
 40
0.6
 40
0.6
 40
0.6
 40
0.6
 40
1.0
 40
1.0
 40
1.0
 40
1.0
 10
-60.9773
 20
-57.1074
 30
0.0
 10
-60.9773
 20
-57.1074
 30
0.0
 10
-58.58
 20
-57.1074
 30
0.0
 10
-58.58
 20
-57.1074
 30
0.0
 10
-58.58
 20
-57.1074
 30
0.0
 10
-58.58
 20
-57.1074
 30
0.0
 10
-58.58
 20
-54.9498
 30
0.0
 10
-58.58
 20
-54.9498
 30
0.0
 10
-58.58
 20
-54.9498
 30
0.0
 10
-58.58
 20
-54.9498
 30
0.0
 10
-60.9773
 20
-54.9498
 30
0.0
 10
-60.9773
 20
-54.9498
 30
0.0
 10
-60.9773
 20
-54.9498
 30
0.0
 10
-60.9773
 20
-54.9498
 30
0.0
 10
-60.9773
 20
-57.1074
 30
0.0
 10
-60.9773
 20
-57.1074
 30
0.0
  0
SPLINE
  5
D5
330
1F
100
AcDbEntity
  8
layer 1
100
AcDbSpline
210
0.0
220
0.0
230
1.0
 70
    11
 71
     3
 72
    24
 73
    20
 74
     0
 42
0.0000000001
 43
0.0000000001
 12
1.0
 22
0.0
 32
0.0
 13
1.0
 23
0.0
 33
0.0
 40
0.0
 40
0.0
 40
0.0
 40
0.0
 40
0.1666666666666667
 40
0.1666666666666667
 40
0.1666666666666667
 40
0.1666666666666667
 40
0.3333333333333333
 40
0.3333333333333333
 40
0.3333333333333333
 40
0.3333333333333333
 40
0.5
 40
0.5
 40
0.5
 40
0.5
 40
0.6666666666666666
 40
0.6666666666666666
 40
0.6666666666666666
 40
0.6666666666666666
 40
1.0
 40
1.0
 40
1.0
 40
1.0
 10
-68.0854
 20
-99.337
 30
0.0
 10
-68.0854
 20
-99.337
 30
0.0
 10
-68.0854
 20
-74.7878
 30
0.0
 10
-68.0854
 20
-74.7878
 30
0.0
 10
-68.0854
 20
-74.7878
 30
0.0
 10
-68.0854
 20
-74.7878
 30
0.0
 10
-61.565
 20
-79.4338
 30
0.0
 10
-61.565
 20
-79.4338
 30
0.0
 10
-61.565
 20
-79.4338
 30
0.0
 10
-61.565
 20
-79.4338
 30
0.0
 10
-65.9213
 20
-87.0416
 30
0.0
 10
-65.9213
 20
-87.0416
 30
0.0
 10
-65.9213
 20
-87.0416
 30
0.0
 10
-65.9213
 20
-87.0416
 30
0.0
 10
-61.4593
 20
-94.7447
 30
0.0
 10
-61.4593
 20
-94.7447
 30
0.0
 10
-61.4593
 20
-94.7447
 30
0.0
 10
-61.4593
 20
-94.7447
 30
0.0
 10
-68.0854
 20
-99.337
 30
0.0
 10
-68.0854
 20
-99.337
 30
0.0
  0
SPLINE
  5
D6
330
1F
100
AcDbEntity
  8
layer 1
100
AcDbSpline
210
0.0
220
0.0
230
1.0
 70
    11
 71
     3
 72
    20
 73
    16
 74
     0
 42
0.0000000001
 43
0.0000000001
 12
1.0
 22
0.0
 32
0.0
 13
1.0
 23
0.0
 33
0.0
 40
0.0
 40
0.0
 40
0.0
 40
0.0
 40
0.2
 40
0.2
 40
0.2
 40
0.2
 40
0.4
 40
0.4
 40
0.4
 40
0.4
 40
0.6
 40
0.6
 40
0.6
 40
0.6
 40
1.0
 40
1.0
 40
1.0
 40
1.0
 10
-68.0789
 20
-115.0933
 30
0.0
 10
-68.0789
 20
-115.0933
 30
0.0
 10
-68.0789
 20
-105.0095
 30
0.0
 10
-68.0789
 20
-105.0095
 30
0.0
 10
-68.0789
 20
-105.0095
 30
0.0
 10
-68.0789
 20
-105.0095
 30
0.0
 10
-58.8605
 20
-99.076
 30
0.0
 10
-58.8605
 20
-99.076
 30
0.0
 10
-58.8605
 20
-99.076
 30
0.0
 10
-58.8057
 20
-99.1458
 30
0.0
 10
-49.6444
 20
-114.6955
 30
0.0
 10
-49.4222
 20
-115.0919
 30
0.0
 10
-49.4222
 20
-115.0919
 30
0.0
 10
-49.4222
 20
-115.0919
 30
0.0
 10
-68.0789
 20
-115.0933
 30
0.0
 10
-68.0789
 20
-115.0933
 30
0.0
  0
SPLINE
  5
D7
330
1F
100
AcDbEntity
  8
layer 1
100
AcDbSpline
210
0.0
220
0.0
230
1.0
 70
    11
 71
     3
 72
    24
 73
    20
 74
     0
 42
0.0000000001
 43
0.0000000001
 12
1.0
 22
0.0
 32
0.0
 13
1.0
 23
0.0
 33
0.0
 40
0.0
 40
0.0
 40
0.0
 40
0.0
 40
0.1666666666666667
 40
0.1666666666666667
 40
0.1666666666666667
 40
0.1666666666666667
 40
0.3333333333333333
 40
0.3333333333333333
 40
0.3333333333333333
 40
0.3333333333333333
 40
0.5
 40
0.5
 40
0.5
 40
0.5
 40
0.6666666666666666
 40
0.6666666666666666
 40
0.6666666666666666
 40
0.6666666666666666
 40
1.0
 40
1.0
 40
1.0
 40
1.0
 10
-31.1561
 20
-89.5598
 30
0.0
 10
-31.1561
 20
-89.5598
 30
0.0
 10
-32.8137
 20
-92.0308
 30
0.0
 10
-32.8137
 20
-92.0308
 30
0.0
 10
-32.8137
 20
-92.0308
 30
0.0
 10
-32.8137
 20
-92.0308
 30
0.0
 10
-40.5096
 20
-87.054
 30
0.0
 10
-40.5096
 20
-87.054
 30
0.0
 10
-40.5096
 20
-87.054
 30
0.0
 10
-40.5096
 20
-87.054
 30
0.0
 10
-32.846
 20
-82.0102
 30
0.0
 10
-32.846
 20
-82.0102
 30
0.0
 10
-32.846
 20
-82.0102
 30
0.0
 10
-32.846
 20
-82.0102
 30
0.0
 10
-29.7236
 20
-87.0611
 30
0.0
 10
-29.7236
 20
-87.0611
 30
0.0
 10
-29.7236
 20
-87.0611
 30
0.0
 10
-29.7236
 20
-87.0611
 30
0.0
 10
-31.1561
 20
-89.5598
 30
0.0
 10
-31.1561
 20
-89.5598
 30
0.0
  0
SPLINE
  5
D8
330
1F
100
AcDbEntity
  8
layer 1
100
AcDbSpline
210
0.0
220
0.0
230
1.0
 70
    11
 71
     3
 72
    20
 73
    16
 74
     0
 42
0.0000000001
 43
0.0000000001
 12
1.0
 22
0.0
 32
0.0
 13
1.0
 23
0.0
 33
0.0
 40
0.0
 40
0.0
 40
0.0
 40
0.0
 40
0.2
 40
0.2
 40
0.2
 40
0.2
 40
0.4
 40
0.4
 40
0.4
 40
0.4
 40
0.6
 40
0.6
 40
0.6
 40
0.6
 40
1.0
 40
1.0
 40
1.0
 40
1.0
 10
-45.0696
 20
-112.696
 30
0.0
 10
-45.0696
 20
-112.696
 30
0.0
 10
-54.857
 20
-96.299
 30
0.0
 10
-54.857
 20
-96.299
 30
0.0
 10
-54.857
 20
-96.299
 30
0.0
 10
-54.857
 20
-96.299
 30
0.0
 10
-45.0752
 20
-89.9058
 30
0.0
 10
-45.0752
 20
-89.9058
 30
0.0
 10
-45.0752
 20
-89.9058
 30
0.0
 10
-45.0752
 20
-89.9058
 30
0.0
 10
-35.2476
 20
-96.444
 30
0.0
 10
-35.2476
 20
-96.444
 30
0.0
 10
-35.2476
 20
-96.444
 30
0.0
 10
-35.2476
 20
-96.444
 30
0.0
 10
-45.0696
 20
-112.696
 30
0.0
 10
-45.0696
 20
-112.696
 30
0.0
  0
SPLINE
  5
D9
330
1F
100
AcDbEntity
  8
layer 1
100
AcDbSpline
210
0.0
220
0.0
230
1.0
 70
    11
 71
     3
 72
    20
 73
    16
 74
     0
 42
0.0000000001
 43
0.0000000001
 12
1.0
 22
0.0
 32
0.0
 13
1.0
 23
0.0
 33
0.0
 40
0.0
 40
0.0
 40
0.0
 40
0.0
 40
0.2
 40
0.2
 40
0.2
 40
0.2
 40
0.4
 40
0.4
 40
0.4
 40
0.4
 40
0.6
 40
0.6
 40
0.6
 40
0.6
 40
1.0
 40
1.0
 40
1.0
 40
1.0
 10
-45.0561
 20
-84.2246
 30
0.0
 10
-45.0561
 20
-84.2246
 30
0.0
 10
-54.8556
 20
-77.8041
 30
0.0
 10
-54.8556
 20
-77.8041
 30
0.0
 10
-54.8556
 20
-77.8041
 30
0.0
 10
-54.8556
 20
-77.8041
 30
0.0
 10
-45.0714
 20
-61.3933
 30
0.0
 10
-45.0714
 20
-61.3933
 30
0.0
 10
-45.0714
 20
-61.3933
 30
0.0
 10
-45.0714
 20
-61.3933
 30
0.0
 10
-35.3041
 20
-77.6541
 30
0.0
 10
-35.3041
 20
-77.6541
 30
0.0
 10
-35.3041
 20
-77.6541
 30
0.0
 10
-35.3041
 20
-77.6541
 30
0.0
 10
-45.0561
 20
-84.2246
 30
0.0
 10
-45.0561
 20
-84.2246
 30
0.0
  0
SPLINE
  5
DA
330
1F
100
AcDbEntity
  8
layer 1
100
AcDbSpline
210
0.0
220
0.0
230
1.0
 70
    11
 71
     3
 72
    20
 73
    16
 74
     0
 42
0.0000000001
 43
0.0000000001
 12
1.0
 22
0.0
 32
0.0
 13
1.0
 23
0.0
 33
0.0
 40
0.0
 40
0.0
 40
0.0
 40
0.0
 40
0.2
 40
0.2
 40
0.2
 40
0.2
 40
0.4
 40
0.4
 40
0.4
 40
0.4
 40
0.6
 40
0.6
 40
0.6
 40
0.6
 40
1.0
 40
1.0
 40
1.0
 40
1.0
 10
-58.969
 20
-75.051
 30
0.0
 10
-62.2127
 20
-73.0165
 30
0.0
 10
-64.6502
 20
-71.3663
 30
0.0
 10
-68.0853
 20
-69.1012
 30
0.0
 10
-68.0853
 20
-69.1012
 30
0.0
 10
-68.0853
 20
-69.1012
 30
0.0
 10
-68.0884
 20
-58.9959
 30
0.0
 10
-68.0884
 20
-58.9959
 30
0.0
 10
-68.0884
 20
-58.9959
 30
0.0
 10
-68.0884
 20
-58.9959
 30
0.0
 10
-49.3832
 20
-59.0558
 30
0.0
 10
-49.3832
 20
-59.0558
 30
0.0
 10
-49.3832
 20
-59.0558
 30
0.0
 10
-49.3832
 20
-59.0558
 30
0.0
 10
-58.969
 20
-75.051
 30
0.0
 10
-58.969
 20
-75.051
 30
0.0
  0
SPLINE
  5
DB
330
1F
100
AcDbEntity
  8
layer 1
100
AcDbSpline
210
0.0
220
0.0
230
1.0
 70
    11
 71
     3
 72
    20
 73
    16
 74
     0
 42
0.0000000001
 43
0.0000000001
 12
1.0
 22
0.0
 32
0.0
 13
1.0
 23
0.0
 33
0.0
 40
0.0
 40
0.0
 40
0.0
 40
0.0
 40
0.2
 40
0.2
 40
0.2
 40
0.2
 40
0.4
 40
0.4
 40
0.4
 40
0.4
 40
0.6
 40
0.6
 40
0.6
 40
0.6
 40
1.0
 40
1.0
 40
1.0
 40
1.0
 10
-57.2985
 20
-92.0789
 30
0.0
 10
-57.2985
 20
-92.0789
 30
0.0
 10
-60.3454
 20
-87.0208
 30
0.0
 10
-60.3454
 20
-87.0208
 30
0.0
 10
-60.3454
 20
-87.0208
 30
0.0
 10
-60.3454
 20
-87.0208
 30
0.0
 10
-57.2925
 20
-82.0102
 30
0.0
 10
-57.2925
 20
-82.0102
 30
0.0
 10
-57.2925
 20
-82.0102
 30
0.0
 10
-57.2925
 20
-82.0102
 30
0.0
 10
-49.6709
 20
-87.0153
 30
0.0
 10
-49.6709
 20
-87.0153
 30
0.0
 10
-49.6709
 20
-87.0153
 30
0.0
 10
-49.6709
 20
-87.0153
 30
0.0
 10
-57.2985
 20
-92.0789
 30
0.0
 10
-57.2985
 20
-92.0789
 30
0.0
  0
SPLINE
  5
DC
330
1F
100
AcDbEntity
  8
layer 1
100
AcDbSpline
210
0.0
220
0.0
230
1.0
 70
    11
 71
     3
 72
    24
 73
    20
 74
     0
 42
0.0000000001
 43
0.0000000001
 12
1.0
 22
0.0
 32
0.0
 13
1.0
 23
0.0
 33
0.0
 40
0.0
 40
0.0
 40
0.0
 40
0.0
 40
0.1666666666666667
 40
0.1666666666666667
 40
0.1666666666666667
 40
0.1666666666666667
 40
0.3333333333333333
 40
0.3333333333333333
 40
0.3333333333333333
 40
0.3333333333333333
 40
0.5
 40
0.5
 40
0.5
 40
0.5
 40
0.6666666666666666
 40
0.6666666666666666
 40
0.6666666666666666
 40
0.6666666666666666
 40
1.0
 40
1.0
 40
1.0
 40
1.0
 10
-22.0356
 20
-99.3357
 30
0.0
 10
-22.0356
 20
-99.3357
 30
0.0
 10
-22.0356
 20
-74.7866
 30
0.0
 10
-22.0356
 20
-74.7866
 30
0.0
 10
-22.0356
 20
-74.7866
 30
0.0
 10
-22.0356
 20
-74.7866
 30
0.0
 10
-28.556
 20
-79.4326
 30
0.0
 10
-28.556
 20
-79.4326
 30
0.0
 10
-28.556
 20
-79.4326
 30
0.0
 10
-28.556
 20
-79.4326
 30
0.0
 10
-24.1996
 20
-87.0403
 30
0.0
 10
-24.1996
 20
-87.0403
 30
0.0
 10
-24.1996
 20
-87.0403
 30
0.0
 10
-24.1996
 20
-87.0403
 30
0.0
 10
-28.6617
 20
-94.7434
 30
0.0
 10
-28.6617
 20
-94.7434
 30
0.0
 10
-28.6617
 20
-94.7434
 30
0.0
 10
-28.6617
 20
-94.7434
 30
0.0
 10
-22.0356
 20
-99.3357
 30
0.0
 10
-22.0356
 20
-99.3357
 30
0.0
  0
SPLINE
  5
DD
330
1F
100
AcDbEntity
  8
layer 1
100
AcDbSpline
210
0.0
220
0.0
230
1.0
 70
    11
 71
     3
 72
    20
 73
    16
 74
     0
 42
0.0000000001
 43
0.0000000001
 12
1.0
 22
0.0
 32
0.0
 13
1.0
 23
0.0
 33
0.0
 40
0.0
 40
0.0
 40
0.0
 40
0.0
 40
0.2
 40
0.2
 40
0.2
 40
0.2
 40
0.4
 40
0.4
 40
0.4
 40
0.4
 40
0.6
 40
0.6
 40
0.6
 40
0.6
 40
1.0
 40
1.0
 40
1.0
 40
1.0
 10
-22.0421
 20
-115.092
 30
0.0
 10
-22.0421
 20
-115.092
 30
0.0
 10
-22.0421
 20
-105.0083
 30
0.0
 10
-22.0421
 20
-105.0083
 30
0.0
 10
-22.0421
 20
-105.0083
 30
0.0
 10
-22.0421
 20
-105.0083
 30
0.0
 10
-31.2605
 20
-99.0747
 30
0.0
 10
-31.2605
 20
-99.0747
 30
0.0
 10
-31.2605
 20
-99.0747
 30
0.0
 10
-31.3152
 20
-99.1445
 30
0.0
 10
-40.4766
 20
-114.6942
 30
0.0
 10
-40.6987
 20
-115.0906
 30
0.0
 10
-40.6987
 20
-115.0906
 30
0.0
 10
-40.6987
 20
-115.0906
 30
0.0
 10
-22.0421
 20
-115.092
 30
0.0
 10
-22.0421
 20
-115.092
 30
0.0
  0
SPLINE
  5
DE
330
1F
100
AcDbEntity
  8
layer 1
100
AcDbSpline
210
0.0
220
0.0
230
1.0
 70
    11
 71
     3
 72
    20
 73
    16
 74
     0
 42
0.0000000001
 43
0.0000000001
 12
1.0
 22
0.0
 32
0.0
 13
1.0
 23
0.0
 33
0.0
 40
0.0
 40
0.0
 40
0.0
 40
0.0
 40
0.2
 40
0.2
 40
0.2
 40
0.2
 40
0.4
 40
0.4
 40
0.4
 40
0.4
 40
0.6
 40
0.6
 40
0.6
 40
0.6
 40
1.0
 40
1.0
 40
1.0
 40
1.0
 10
-31.1519
 20
-75.0497
 30
0.0
 10
-27.9082
 20
-73.0152
 30
0.0
 10
-25.4707
 20
-71.3649
 30
0.0
 10
-22.0356
 20
-69.0998
 30
0.0
 10
-22.0356
 20
-69.0998
 30
0.0
 10
-22.0356
 20
-69.0998
 30
0.0
 10
-22.0325
 20
-58.9946
 30
0.0
 10
-22.0325
 20
-58.9946
 30
0.0
 10
-22.0325
 20
-58.9946
 30
0.0
 10
-22.0325
 20
-58.9946
 30
0.0
 10
-40.7377
 20
-59.0545
 30
0.0
 10
-40.7377
 20
-59.0545
 30
0.0
 10
-40.7377
 20
-59.0545
 30
0.0
 10
-40.7377
 20
-59.0545
 30
0.0
 10
-31.1519
 20
-75.0497
 30
0.0
 10
-31.1519
 20
-75.0497
 30
0.0
  0
SPLINE
  5
DF
330
1F
100
AcDbEntity
  8
layer 1
100
AcDbSpline
210
0.0
220
0.0
230
1.0
 70
    11
 71
     3
 72
    24
 73
    20
 74
     0
 42
0.0000000001
 43
0.0000000001
 12
1.0
 22
0.0
 32
0.0
 13
1.0
 23
0.0
 33
0.0
 40
0.0
 40
0.0
 40
0.0
 40
0.0
 40
0.1666666666666667
 40
0.1666666666666667
 40
0.1666666666666667
 40
0.1666666666666667
 40
0.3333333333333333
 40
0.3333333333333333
 40
0.3333333333333333
 40
0.3333333333333333
 40
0.5
 40
0.5
 40
0.5
 40
0.5
 40
0.6666666666666666
 40
0.6666666666666666
 40
0.6666666666666666
 40
0.6666666666666666
 40
1.0
 40
1.0
 40
1.0
 40
1.0
 10
-21.9325
 20
-99.337
 30
0.0
 10
-21.9325
 20
-99.337
 30
0.0
 10
-21.9325
 20
-74.7878
 30
0.0
 10
-21.9325
 20
-74.7878
 30
0.0
 10
-21.9325
 20
-74.7878
 30
0.0
 10
-21.9325
 20
-74.7878
 30
0.0
 10
-15.4121
 20
-79.4338
 30
0.0
 10
-15.4121
 20
-79.4338
 30
0.0
 10
-15.4121
 20
-79.4338
 30
0.0
 10
-15.4121
 20
-79.4338
 30
0.0
 10
-19.7684
 20
-87.0416
 30
0.0
 10
-19.7684
 20
-87.0416
 30
0.0
 10
-19.7684
 20
-87.0416
 30
0.0
 10
-19.7684
 20
-87.0416
 30
0.0
 10
-15.3063
 20
-94.7447
 30
0.0
 10
-15.3063
 20
-94.7447
 30
0.0
 10
-15.3063
 20
-94.7447
 30
0.0
 10
-15.3063
 20
-94.7447
 30
0.0
 10
-21.9325
 20
-99.337
 30
0.0
 10
-21.9325
 20
-99.337
 30
0.0
  0
SPLINE
  5
E0
330
1F
100
AcDbEntity
  8
layer 1
100
AcDbSpline
210
0.0
220
0.0
230
1.0
 70
    11
 71
     3
 72
    20
 73
    16
 74
     0
 42
0.0000000001
 43
0.0000000001
 12
1.0
 22
0.0
 32
0.0
 13
1.0
 23
0.0
 33
0.0
 40
0.0
 40
0.0
 40
0.0
 40
0.0
 40
0.2
 40
0.2
 40
0.2
 40
0.2
 40
0.4
 40
0.4
 40
0.4
 40
0.4
 40
0.6
 40
0.6
 40
0.6
 40
0.6
 40
1.0
 40
1.0
 40
1.0
 40
1.0
 10
-21.9259
 20
-115.0933
 30
0.0
 10
-21.9259
 20
-115.0933
 30
0.0
 10
-21.9259
 20
-105.0095
 30
0.0
 10
-21.9259
 20
-105.0095
 30
0.0
 10
-21.9259
 20
-105.0095
 30
0.0
 10
-21.9259
 20
-105.0095
 30
0.0
 10
-12.7075
 20
-99.076
 30
0.0
 10
-12.7075
 20
-99.076
 30
0.0
 10
-12.7075
 20
-99.076
 30
0.0
 10
-12.6528
 20
-99.1458
 30
0.0
 10
-3.4915
 20
-114.6955
 30
0.0
 10
-3.2693
 20
-115.0919
 30
0.0
 10
-3.2693
 20
-115.0919
 30
0.0
 10
-3.2693
 20
-115.0919
 30
0.0
 10
-21.9259
 20
-115.0933
 30
0.0
 10
-21.9259
 20
-115.0933
 30
0.0
  0
SPLINE
  5
E1
330
1F
100
AcDbEntity
  8
layer 1
100
AcDbSpline
210
0.0
220
0.0
230
1.0
 70
    11
 71
     3
 72
    24
 73
    20
 74
     0
 42
0.0000000001
 43
0.0000000001
 12
1.0
 22
0.0
 32
0.0
 13
1.0
 23
0.0
 33
0.0
 40
0.0
 40
0.0
 40
0.0
 40
0.0
 40
0.1666666666666667
 40
0.1666666666666667
 40
0.1666666666666667
 40
0.1666666666666667
 40
0.3333333333333333
 40
0.3333333333333333
 40
0.3333333333333333
 40
0.3333333333333333
 40
0.5
 40
0.5
 40
0.5
 40
0.5
 40
0.6666666666666666
 40
0.6666666666666666
 40
0.6666666666666666
 40
0.6666666666666666
 40
1.0
 40
1.0
 40
1.0
 40
1.0
 10
14.9968
 20
-89.5598
 30
0.0
 10
14.9968
 20
-89.5598
 30
0.0
 10
13.3393
 20
-92.0308
 30
0.0
 10
13.3393
 20
-92.0308
 30
0.0
 10
13.3393
 20
-92.0308
 30
0.0
 10
13.3393
 20
-92.0308
 30
0.0
 10
5.6433
 20
-87.054
 30
0.0
 10
5.6433
 20
-87.054
 30
0.0
 10
5.6433
 20
-87.054
 30
0.0
 10
5.6433
 20
-87.054
 30
0.0
 10
13.307
 20
-82.0102
 30
0.0
 10
13.307
 20
-82.0102
 30
0.0
 10
13.307
 20
-82.0102
 30
0.0
 10
13.307
 20
-82.0102
 30
0.0
 10
16.4293
 20
-87.0611
 30
0.0
 10
16.4293
 20
-87.0611
 30
0.0
 10
16.4293
 20
-87.0611
 30
0.0
 10
16.4293
 20
-87.0611
 30
0.0
 10
14.9968
 20
-89.5598
 30
0.0
 10
14.9968
 20
-89.5598
 30
0.0
  0
SPLINE
  5
E2
330
1F
100
AcDbEntity
  8
layer 1
100
AcDbSpline
210
0.0
220
0.0
230
1.0
 70
    11
 71
     3
 72
    20
 73
    16
 74
     0
 42
0.0000000001
 43
0.0000000001
 12
1.0
 22
0.0
 32
0.0
 13
1.0
 23
0.0
 33
0.0
 40
0.0
 40
0.0
 40
0.0
 40
0.0
 40
0.2
 40
0.2
 40
0.2
 40
0.2
 40
0.4
 40
0.4
 40
0.4
 40
0.4
 40
0.6
 40
0.6
 40
0.6
 40
0.6
 40
1.0
 40
1.0
 40
1.0
 40
1.0
 10
1.0833
 20
-112.696
 30
0.0
 10
1.0833
 20
-112.696
 30
0.0
 10
-8.704
 20
-96.299
 30
0.0
 10
-8.704
 20
-96.299
 30
0.0
 10
-8.704
 20
-96.299
 30
0.0
 10
-8.704
 20
-96.299
 30
0.0
 10
1.0778
 20
-89.9058
 30
0.0
 10
1.0778
 20
-89.9058
 30
0.0
 10
1.0778
 20
-89.9058
 30
0.0
 10
1.0778
 20
-89.9058
 30
0.0
 10
10.9054
 20
-96.444
 30
0.0
 10
10.9054
 20
-96.444
 30
0.0
 10
10.9054
 20
-96.444
 30
0.0
 10
10.9054
 20
-96.444
 30
0.0
 10
1.0833
 20
-112.696
 30
0.0
 10
1.0833
 20
-112.696
 30
0.0
  0
SPLINE
  5
E3
330
1F
100
AcDbEntity
  8
layer 1
100
AcDbSpline
210
0.0
220
0.0
230
1.0
 70
    11
 71
     3
 72
    20
 73
    16
 74
     0
 42
0.0000000001
 43
0.0000000001
 12
1.0
 22
0.0
 32
0.0
 13
1.0
 23
0.0
 33
0.0
 40
0.0
 40
0.0
 40
0.0
 40
0.0
 40
0.2
 40
0.2
 40
0.2
 40
0.2
 40
0.4
 40
0.4
 40
0.4
 40
0.4
 40
0.6
 40
0.6
 40
0.6
 40
0.6
 40
1.0
 40
1.0
 40
1.0
 40
1.0
 10
1.0968
 20
-84.2246
 30
0.0
 10
1.0968
 20
-84.2246
 30
0.0
 10
-8.7027
 20
-77.8041
 30
0.0
 10
-8.7027
 20
-77.8041
 30
0.0
 10
-8.7027
 20
-77.8041
 30
0.0
 10
-8.7027
 20
-77.8041
 30
0.0
 10
1.0816
 20
-61.3933
 30
0.0
 10
1.0816
 20
-61.3933
 30
0.0
 10
1.0816
 20
-61.3933
 30
0.0
 10
1.0816
 20
-61.3933
 30
0.0
 10
10.8488
 20
-77.6541
 30
0.0
 10
10.8488
 20
-77.6541
 30
0.0
 10
10.8488
 20
-77.6541
 30
0.0
 10
10.8488
 20
-77.6541
 30
0.0
 10
1.0968
 20
-84.2246
 30
0.0
 10
1.0968
 20
-84.2246
 30
0.0
  0
SPLINE
  5
E4
330
1F
100
AcDbEntity
  8
layer 1
100
AcDbSpline
210
0.0
220
0.0
230
1.0
 70
    11
 71
     3
 72
    20
 73
    16
 74
     0
 42
0.0000000001
 43
0.0000000001
 12
1.0
 22
0.0
 32
0.0
 13
1.0
 23
0.0
 33
0.0
 40
0.0
 40
0.0
 40
0.0
 40
0.0
 40
0.2
 40
0.2
 40
0.2
 40
0.2
 40
0.4
 40
0.4
 40
0.4
 40
0.4
 40
0.6
 40
0.6
 40
0.6
 40
0.6
 40
1.0
 40
1.0
 40
1.0
 40
1.0
 10
-12.8161
 20
-75.051
 30
0.0
 10
-16.0597
 20
-73.0165
 30
0.0
 10
-18.4972
 20
-71.3663
 30
0.0
 10
-21.9324
 20
-69.1012
 30
0.0
 10
-21.9324
 20
-69.1012
 30
0.0
 10
-21.9324
 20
-69.1012
 30
0.0
 10
-21.9354
 20
-58.9959
 30
0.0
 10
-21.9354
 20
-58.9959
 30
0.0
 10
-21.9354
 20
-58.9959
 30
0.0
 10
-21.9354
 20
-58.9959
 30
0.0
 10
-3.2302
 20
-59.0558
 30
0.0
 10
-3.2302
 20
-59.0558
 30
0.0
 10
-3.2302
 20
-59.0558
 30
0.0
 10
-3.2302
 20
-59.0558
 30
0.0
 10
-12.8161
 20
-75.051
 30
0.0
 10
-12.8161
 20
-75.051
 30
0.0
  0
SPLINE
  5
E5
330
1F
100
AcDbEntity
  8
layer 1
100
AcDbSpline
210
0.0
220
0.0
230
1.0
 70
    11
 71
     3
 72
    20
 73
    16
 74
     0
 42
0.0000000001
 43
0.0000000001
 12
1.0
 22
0.0
 32
0.0
 13
1.0
 23
0.0
 33
0.0
 40
0.0
 40
0.0
 40
0.0
 40
0.0
 40
0.2
 40
0.2
 40
0.2
 40
0.2
 40
0.4
 40
0.4
 40
0.4
 40
0.4
 40
0.6
 40
0.6
 40
0.6
 40
0.6
 40
1.0
 40
1.0
 40
1.0
 40
1.0
 10
-11.1455
 20
-92.0789
 30
0.0
 10
-11.1455
 20
-92.0789
 30
0.0
 10
-14.1924
 20
-87.0208
 30
0.0
 10
-14.1924
 20
-87.0208
 30
0.0
 10
-14.1924
 20
-87.0208
 30
0.0
 10
-14.1924
 20
-87.0208
 30
0.0
 10
-11.1395
 20
-82.0102
 30
0.0
 10
-11.1395
 20
-82.0102
 30
0.0
 10
-11.1395
 20
-82.0102
 30
0.0
 10
-11.1395
 20
-82.0102
 30
0.0
 10
-3.5179
 20
-87.0153
 30
0.0
 10
-3.5179
 20
-87.0153
 30
0.0
 10
-3.5179
 20
-87.0153
 30
0.0
 10
-3.5179
 20
-87.0153
 30
0.0
 10
-11.1455
 20
-92.0789
 30
0.0
 10
-11.1455
 20
-92.0789
 30
0.0
  0
SPLINE
  5
E6
330
1F
100
AcDbEntity
  8
layer 1
100
AcDbSpline
210
0.0
220
0.0
230
1.0
 70
    11
 71
     3
 72
    24
 73
    20
 74
     0
 42
0.0000000001
 43
0.0000000001
 12
1.0
 22
0.0
 32
0.0
 13
1.0
 23
0.0
 33
0.0
 40
0.0
 40
0.0
 40
0.0
 40
0.0
 40
0.1666666666666667
 40
0.1666666666666667
 40
0.1666666666666667
 40
0.1666666666666667
 40
0.3333333333333333
 40
0.3333333333333333
 40
0.3333333333333333
 40
0.3333333333333333
 40
0.5
 40
0.5
 40
0.5
 40
0.5
 40
0.6666666666666666
 40
0.6666666666666666
 40
0.6666666666666666
 40
0.6666666666666666
 40
1.0
 40
1.0
 40
1.0
 40
1.0
 10
24.1174
 20
-99.3357
 30
0.0
 10
24.1174
 20
-99.3357
 30
0.0
 10
24.1174
 20
-74.7866
 30
0.0
 10
24.1174
 20
-74.7866
 30
0.0
 10
24.1174
 20
-74.7866
 30
0.0
 10
24.1174
 20
-74.7866
 30
0.0
 10
17.597
 20
-79.4326
 30
0.0
 10
17.597
 20
-79.4326
 30
0.0
 10
17.597
 20
-79.4326
 30
0.0
 10
17.597
 20
-79.4326
 30
0.0
 10
21.9533
 20
-87.0403
 30
0.0
 10
21.9533
 20
-87.0403
 30
0.0
 10
21.9533
 20
-87.0403
 30
0.0
 10
21.9533
 20
-87.0403
 30
0.0
 10
17.4913
 20
-94.7434
 30
0.0
 10
17.4913
 20
-94.7434
 30
0.0
 10
17.4913
 20
-94.7434
 30
0.0
 10
17.4913
 20
-94.7434
 30
0.0
 10
24.1174
 20
-99.3357
 30
0.0
 10
24.1174
 20
-99.3357
 30
0.0
  0
SPLINE
  5
E7
330
1F
100
AcDbEntity
  8
layer 1
100
AcDbSpline
210
0.0
220
0.0
230
1.0
 70
    11
 71
     3
 72
    20
 73
    16
 74
     0
 42
0.0000000001
 43
0.0000000001
 12
1.0
 22
0.0
 32
0.0
 13
1.0
 23
0.0
 33
0.0
 40
0.0
 40
0.0
 40
0.0
 40
0.0
 40
0.2
 40
0.2
 40
0.2
 40
0.2
 40
0.4
 40
0.4
 40
0.4
 40
0.4
 40
0.6
 40
0.6
 40
0.6
 40
0.6
 40
1.0
 40
1.0
 40
1.0
 40
1.0
 10
24.1109
 20
-115.092
 30
0.0
 10
24.1109
 20
-115.092
 30
0.0
 10
24.1109
 20
-105.0083
 30
0.0
 10
24.1109
 20
-105.0083
 30
0.0
 10
24.1109
 20
-105.0083
 30
0.0
 10
24.1109
 20
-105.0083
 30
0.0
 10
14.8925
 20
-99.0747
 30
0.0
 10
14.8925
 20
-99.0747
 30
0.0
 10
14.8925
 20
-99.0747
 30
0.0
 10
14.8377
 20
-99.1445
 30
0.0
 10
5.6764
 20
-114.6942
 30
0.0
 10
5.4542
 20
-115.0906
 30
0.0
 10
5.4542
 20
-115.0906
 30
0.0
 10
5.4542
 20
-115.0906
 30
0.0
 10
24.1109
 20
-115.092
 30
0.0
 10
24.1109
 20
-115.092
 30
0.0
  0
SPLINE
  5
E8
330
1F
100
AcDbEntity
  8
layer 1
100
AcDbSpline
210
0.0
220
0.0
230
1.0
 70
    11
 71
     3
 72
    20
 73
    16
 74
     0
 42
0.0000000001
 43
0.0000000001
 12
1.0
 22
0.0
 32
0.0
 13
1.0
 23
0.0
 33
0.0
 40
0.0
 40
0.0
 40
0.0
 40
0.0
 40
0.2
 40
0.2
 40
0.2
 40
0.2
 40
0.4
 40
0.4
 40
0.4
 40
0.4
 40
0.6
 40
0.6
 40
0.6
 40
0.6
 40
1.0
 40
1.0
 40
1.0
 40
1.0
 10
15.0011
 20
-75.0497
 30
0.0
 10
18.2448
 20
-73.0152
 30
0.0
 10
20.6823
 20
-71.3649
 30
0.0
 10
24.1174
 20
-69.0998
 30
0.0
 10
24.1174
 20
-69.0998
 30
0.0
 10
24.1174
 20
-69.0998
 30
0.0
 10
24.1205
 20
-58.9946
 30
0.0
 10
24.1205
 20
-58.9946
 30
0.0
 10
24.1205
 20
-58.9946
 30
0.0
 10
24.1205
 20
-58.9946
 30
0.0
 10
5.4153
 20
-59.0545
 30
0.0
 10
5.4153
 20
-59.0545
 30
0.0
 10
5.4153
 20
-59.0545
 30
0.0
 10
5.4153
 20
-59.0545
 30
0.0
 10
15.0011
 20
-75.0497
 30
0.0
 10
15.0011
 20
-75.0497
 30
0.0
  0
ENDSEC
  0
SECTION
  2
OBJECTS
  0
DICTIONARY
  5
C
330
0
100
AcDbDictionary
281
     1
  3
ACAD_GROUP
350
D
  3
ACAD_LAYOUT
350
1A
  3
ACAD_MATERIAL
350
3B
  3
ACAD_MLEADERSTYLE
350
10A
  3
ACAD_MLINESTYLE
350
17
  3
ACAD_PLOTSETTINGS
350
19
  3
ACAD_PLOTSTYLENAME
350
E
  3
ACAD_TABLESTYLE
350
109
  3
ACAD_VISUALSTYLE
350
2A
  0
DICTIONARY
  5
D
102
{ACAD_REACTORS
330
C
102
}
330
C
100
AcDbDictionary
281
     1
  0
DICTIONARY
  5
1A
102
{ACAD_REACTORS
330
C
102
}
330
C
100
AcDbDictionary
281
     1
  3
Layout1
350
1E
  3
Layout2
350
26
  3
Model
350
22
  0
DICTIONARY
  5
3B
102
{ACAD_REACTORS
330
C
102
}
330
C
100
AcDbDictionary
281
     1
  3
ByBlock
350
3D
  3
ByLayer
350
3C
  3
Global
350
3E
  0
DICTIONARY
  5
10A
102
{ACAD_REACTORS
330
C
102
}
330
C
100
AcDbDictionary
281
     1
  0
DICTIONARY
  5
17
102
{ACAD_REACTORS
330
C
102
}
330
C
100
AcDbDictionary
281
     1
  3
Standard
350
18
  0
DICTIONARY
  5
19
102
{ACAD_REACTORS
330
C
102
}
330
C
100
AcDbDictionary
281
     1
  0
ACDBDICTIONARYWDFLT
  5
E
102
{ACAD_REACTORS
330
C
102
}
330
C
100
AcDbDictionary
281
     1
  3
Normal
350
F
100
AcDbDictionaryWithDefault
340
F
  0
DICTIONARY
  5
109
102
{ACAD_REACTORS
330
C
102
}
330
C
100
AcDbDictionary
281
     1
  0
DICTIONARY
  5
2A
102
{ACAD_REACTORS
330
C
102
}
330
C
100
AcDbDictionary
281
     1
  3
2dWireframe
350
2F
  3
3D Hidden
350
31
  3
3dWireframe
350
30
  3
Basic
350
32
  3
Brighten
350
36
  3
ColorChange
350
3A
  3
Conceptual
350
34
  3
Dim
350
35
  3
Facepattern
350
39
  3
Flat
350
2B
  3
FlatWithEdges
350
2C
  3
Gouraud
350
2D
  3
GouraudWithEdges
350
2E
  3
Linepattern
350
38
  3
Realistic
350
33
  3
Thicken
350
37
  0
LAYOUT
  5
1E
102
{ACAD_REACTORS
330
1A
102
}
330
1A
100
AcDbPlotSettings
  1

  2
none_device
  4

  6

 40
0.0
 41
0.0
 42
0.0
 43
0.0
 44
0.0
 45
0.0
 46
0.0
 47
0.0
 48
0.0
 49
0.0
140
0.0
141
0.0
142
1.0
143
1.0
 70
   688
 72
     0
 73
     0
 74
     5
  7

 75
    16
 76
     0
 77
     2
 78
   300
147
1.0
148
0.0
149
0.0
100
AcDbLayout
  1
Layout1
 70
     1
 71
     1
 10
0.0
 20
0.0
 11
12.0
 21
9.0
 12
0.0
 22
0.0
 32
0.0
 14
1.000000000000000E+20
 24
1.000000000000000E+20
 34
1.000000000000000E+20
 15
-1.000000000000000E+20
 25
-1.000000000000000E+20
 35
-1.000000000000000E+20
146
0.0
 13
0.0
 23
0.0
 33
0.0
 16
1.0
 26
0.0
 36
0.0
 17
0.0
 27
1.0
 37
0.0
 76
     0
330
1B
  0
LAYOUT
  5
26
102
{ACAD_REACTORS
330
1A
102
}
330
1A
100
AcDbPlotSettings
  1

  2
none_device
  4

  6

 40
0.0
 41
0.0
 42
0.0
 43
0.0
 44
0.0
 45
0.0
 46
0.0
 47
0.0
 48
0.0
 49
0.0
140
0.0
141
0.0
142
1.0
143
1.0
 70
   688
 72
     0
 73
     0
 74
     5
  7

 75
    16
 76
     0
 77
     2
 78
   300
147
1.0
148
0.0
149
0.0
100
AcDbLayout
  1
Layout2
 70
     1
 71
     2
 10
0.0
 20
0.0
 11
0.0
 21
0.0
 12
0.0
 22
0.0
 32
0.0
 14
0.0
 24
0.0
 34
0.0
 15
0.0
 25
0.0
 35
0.0
146
0.0
 13
0.0
 23
0.0
 33
0.0
 16
1.0
 26
0.0
 36
0.0
 17
0.0
 27
1.0
 37
0.0
 76
     0
330
23
  0
LAYOUT
  5
22
102
{ACAD_REACTORS
330
1A
102
}
330
1A
100
AcDbPlotSettings
  1

  2
none_device
  4

  6

 40
0.0
 41
0.0
 42
0.0
 43
0.0
 44
0.0
 45
0.0
 46
0.0
 47
0.0
 48
0.0
 49
0.0
140
0.0
141
0.0
142
1.0
143
1.0
 70
  1712
 72
     0
 73
     0
 74
     0
  7

 75
     0
 76
     0
 77
     2
 78
   300
147
1.0
148
0.0
149
0.0
100
AcDbLayout
  1
Model
 70
     1
 71
     0
 10
0.0
 20
0.0
 11
12.0
 21
9.0
 12
0.0
 22
0.0
 32
0.0
 14
-187.3435
 24
-115.6749
 34
0.0
 15
24.1205
 25
131.8999
 35
0.0
146
0.0
 13
0.0
 23
0.0
 33
0.0
 16
1.0
 26
0.0
 36
0.0
 17
0.0
 27
1.0
 37
0.0
 76
     0
330
1F
331
29
  0
MATERIAL
  5
3D
102
{ACAD_REACTORS
330
3B
102
}
330
3B
100
AcDbMaterial
  1
ByBlock
 72
     1
 94
      127
  0
MATERIAL
  5
3C
102
{ACAD_REACTORS
330
3B
102
}
330
3B
100
AcDbMaterial
  1
ByLayer
 72
     1
 94
      127
  0
MATERIAL
  5
3E
102
{ACAD_REACTORS
330
3B
102
}
330
3B
100
AcDbMaterial
  1
Global
 72
     1
 94
      127
  0
MLINESTYLE
  5
18
102
{ACAD_REACTORS
330
17
102
}
330
17
100
AcDbMlineStyle
  2
Standard
 70
     0
  3

 62
   256
 51
90.0
 52
90.0
 71
     2
 49
0.5
 62
   256
  6
BYLAYER
 49
-0.5
 62
   256
  6
BYLAYER
  0
ACDBPLACEHOLDER
  5
F
102
{ACAD_REACTORS
330
E
102
}
330
E
  0
VISUALSTYLE
  5
2F
102
{ACAD_REACTORS
330
2A
102
}
102
{ACAD_XDICTIONARY
360
F1
102
}
330
2A
100
AcDbVisualStyle
  2
2dWireframe
 70
     4
 71
     0
 72
     2
 73
     0
 90
        0
 40
-0.6
 41
-30.0
 62
     5
 63
     7
421
 16777215
 74
     1
 91
        4
 64
     7
 65
   257
 75
     1
175
     1
 42
1.0
 92
        0
 66
   257
 43
1.0
 76
     1
 77
     6
 78
     2
 67
     7
 79
     5
170
     0
171
     0
290
     0
174
     0
 93
        1
 44
0.0
173
     0
291
     0
 45
0.0
  0
VISUALSTYLE
  5
31
102
{ACAD_REACTORS
330
2A
102
}
102
{ACAD_XDICTIONARY
360
F5
102
}
330
2A
100
AcDbVisualStyle
  2
3D Hidden
 70
     6
 71
     1
 72
     2
 73
     2
 90
        0
 40
-0.6
 41
-30.0
 62
     5
 63
     7
421
 16777215
 74
     2
 91
        2
 64
     7
 65
   257
 75
     2
175
     1
 42
40.0
 92
        0
 66
   257
 43
1.0
 76
     1
 77
     6
 78
     2
 67
     7
 79
     3
170
     0
171
     0
290
     0
174
     0
 93
        1
 44
0.0
173
     0
291
     0
 45
0.0
  0
VISUALSTYLE
  5
30
102
{ACAD_REACTORS
330
2A
102
}
102
{ACAD_XDICTIONARY
360
F3
102
}
330
2A
100
AcDbVisualStyle
  2
3dWireframe
 70
     5
 71
     0
 72
     2
 73
     0
 90
        0
 40
-0.6
 41
-30.0
 62
     5
 63
     7
421
 16777215
 74
     1
 91
        4
 64
     7
 65
   257
 75
     1
175
     1
 42
1.0
 92
        0
 66
   257
 43
1.0
 76
     1
 77
     6
 78
     2
 67
     7
 79
     5
170
     0
171
     0
290
     0
174
     0
 93
        1
 44
0.0
173
     0
291
     0
 45
0.0
  0
VISUALSTYLE
  5
32
102
{ACAD_REACTORS
330
2A
102
}
102
{ACAD_XDICTIONARY
360
F7
102
}
330
2A
100
AcDbVisualStyle
  2
Basic
 70
     7
 71
     1
 72
     0
 73
     1
 90
        0
 40
-0.6
 41
-30.0
 62
     5
 63
     7
421
 16777215
 74
     0
 91
        4
 64
     7
 65
   257
 75
     1
175
     1
 42
1.0
 92
        8
 66
     7
 43
1.0
 76
     1
 77
     6
 78
     2
 67
     7
 79
     5
170
     0
171
     0
290
     0
174
     0
 93
        1
 44
0.0
173
     0
291
     1
 45
0.0
  0
VISUALSTYLE
  5
36
102
{ACAD_REACTORS
330
2A
102
}
102
{ACAD_XDICTIONARY
360
FF
102
}
330
2A
100
AcDbVisualStyle
  2
Brighten
 70
    12
 71
     2
 72
     2
 73
     0
 90
        0
 40
-0.6
 41
-30.0
 62
     5
 63
     7
421
 16777215
 74
     1
 91
        4
 64
     7
 65
   257
 75
     1
175
     1
 42
1.0
 92
        8
 66
     7
 43
1.0
 76
     1
 77
     6
 78
     2
 67
     7
 79
     5
170
     0
171
     0
290
     0
174
     0
 93
        1
 44
50.0
173
     0
291
     1
 45
0.0
  0
VISUALSTYLE
  5
3A
102
{ACAD_REACTORS
330
2A
102
}
102
{ACAD_XDICTIONARY
360
107
102
}
330
2A
100
AcDbVisualStyle
  2
ColorChange
 70
    16
 71
     2
 72
     2
 73
     3
 90
        0
 40
-0.6
 41
-30.0
 62
     5
 63
     8
421
  8421504
 74
     1
 91
        4
 64
     7
 65
   257
 75
     1
175
     1
 42
1.0
 92
        8
 66
     8
424
  8421504
 43
1.0
 76
     1
 77
     6
 78
     2
 67
     7
 79
     5
170
     0
171
     0
290
     0
174
     0
 93
        1
 44
0.0
173
     0
291
     1
 45
0.0
  0
VISUALSTYLE
  5
34
102
{ACAD_REACTORS
330
2A
102
}
102
{ACAD_XDICTIONARY
360
FB
102
}
330
2A
100
AcDbVisualStyle
  2
Conceptual
 70
     9
 71
     3
 72
     2
 73
     0
 90
        0
 40
-0.6
 41
-30.0
 62
     5
 63
     7
421
 16777215
 74
     2
 91
        2
 64
     7
 65
   257
 75
     1
175
     1
 42
40.0
 92
        8
 66
     7
 43
1.0
 76
     1
 77
     6
 78
     2
 67
     7
 79
     3
170
     0
171
     0
290
     0
174
     0
 93
        1
 44
0.0
173
     0
291
     0
 45
0.0
  0
VISUALSTYLE
  5
35
102
{ACAD_REACTORS
330
2A
102
}
102
{ACAD_XDICTIONARY
360
FD
102
}
330
2A
100
AcDbVisualStyle
  2
Dim
 70
    11
 71
     2
 72
     2
 73
     0
 90
        0
 40
-0.6
 41
-30.0
 62
     5
 63
     7
421
 16777215
 74
     1
 91
        4
 64
     7
 65
   257
 75
     1
175
     1
 42
1.0
 92
        8
 66
     7
 43
1.0
 76
     1
 77
     6
 78
     2
 67
     7
 79
     5
170
     0
171
     0
290
     0
174
     0
 93
        1
 44
-50.0
173
     0
291
     1
 45
0.0
  0
VISUALSTYLE
  5
39
102
{ACAD_REACTORS
330
2A
102
}
102
{ACAD_XDICTIONARY
360
105
102
}
330
2A
100
AcDbVisualStyle
  2
Facepattern
 70
    15
 71
     2
 72
     2
 73
     0
 90
        0
 40
-0.6
 41
-30.0
 62
     5
 63
     7
421
 16777215
 74
     1
 91
        4
 64
     7
 65
   257
 75
     1
175
     1
 42
1.0
 92
        8
 66
     7
 43
1.0
 76
     1
 77
     6
 78
     2
 67
     7
 79
     5
170
     0
171
     0
290
     0
174
     0
 93
        1
 44
0.0
173
     0
291
     1
 45
0.0
  0
VISUALSTYLE
  5
2B
102
{ACAD_REACTORS
330
2A
102
}
102
{ACAD_XDICTIONARY
360
E9
102
}
330
2A
100
AcDbVisualStyle
  2
Flat
 70
     0
 71
     2
 72
     1
 73
     1
 90
        2
 40
-0.6
 41
30.0
 62
     5
 63
     7
421
 16777215
 74
     0
 91
        4
 64
     7
 65
   257
 75
     1
175
     1
 42
1.0
 92
        8
 66
     7
 43
1.0
 76
     1
 77
     6
 78
     2
 67
     7
 79
     5
170
     0
171
     0
290
     0
174
     0
 93
       13
 44
0.0
173
     0
291
     1
 45
0.0
  0
VISUALSTYLE
  5
2C
102
{ACAD_REACTORS
330
2A
102
}
102
{ACAD_XDICTIONARY
360
EB
102
}
330
2A
100
AcDbVisualStyle
  2
FlatWithEdges
 70
     1
 71
     2
 72
     1
 73
     1
 90
        2
 40
-0.6
 41
30.0
 62
     5
 63
     7
421
 16777215
 74
     1
 91
        4
 64
     7
 65
   257
 75
     1
175
     1
 42
1.0
 92
        0
 66
   257
 43
1.0
 76
     1
 77
     6
 78
     2
 67
     7
 79
     5
170
     0
171
     0
290
     0
174
     0
 93
       13
 44
0.0
173
     0
291
     1
 45
0.0
  0
VISUALSTYLE
  5
2D
102
{ACAD_REACTORS
330
2A
102
}
102
{ACAD_XDICTIONARY
360
ED
102
}
330
2A
100
AcDbVisualStyle
  2
Gouraud
 70
     2
 71
     2
 72
     2
 73
     1
 90
        2
 40
-0.6
 41
30.0
 62
     5
 63
     7
421
 16777215
 74
     0
 91
        4
 64
     7
 65
   257
 75
     1
175
     1
 42
1.0
 92
        0
 66
     7
 43
1.0
 76
     1
 77
     6
 78
     2
 67
     7
 79
     5
170
     0
171
     0
290
     0
174
     0
 93
       13
 44
0.0
173
     0
291
     1
 45
0.0
  0
VISUALSTYLE
  5
2E
102
{ACAD_REACTORS
330
2A
102
}
102
{ACAD_XDICTIONARY
360
EF
102
}
330
2A
100
AcDbVisualStyle
  2
GouraudWithEdges
 70
     3
 71
     2
 72
     2
 73
     1
 90
        2
 40
-0.6
 41
30.0
 62
     5
 63
     7
421
 16777215
 74
     1
 91
        4
 64
     7
 65
   257
 75
     1
175
     1
 42
1.0
 92
        0
 66
   257
 43
1.0
 76
     1
 77
     6
 78
     2
 67
     7
 79
     5
170
     0
171
     0
290
     0
174
     0
 93
       13
 44
0.0
173
     0
291
     1
 45
0.0
  0
VISUALSTYLE
  5
38
102
{ACAD_REACTORS
330
2A
102
}
102
{ACAD_XDICTIONARY
360
103
102
}
330
2A
100
AcDbVisualStyle
  2
Linepattern
 70
    14
 71
     2
 72
     2
 73
     0
 90
        0
 40
-0.6
 41
-30.0
 62
     5
 63
     7
421
 16777215
 74
     1
 91
        4
 64
     7
 65
   257
 75
     7
175
     7
 42
1.0
 92
        8
 66
     7
 43
1.0
 76
     1
 77
     6
 78
     2
 67
     7
 79
     5
170
     0
171
     0
290
     0
174
     0
 93
        1
 44
0.0
173
     0
291
     1
 45
0.0
  0
VISUALSTYLE
  5
33
102
{ACAD_REACTORS
330
2A
102
}
102
{ACAD_XDICTIONARY
360
F9
102
}
330
2A
100
AcDbVisualStyle
  2
Realistic
 70
     8
 71
     2
 72
     2
 73
     0
 90
        0
 40
-0.6
 41
-30.0
 62
     5
 63
     7
421
 16777215
 74
     1
 91
        0
 64
     7
 65
   257
 75
     1
175
     1
 42
1.0
 92
        8
 66
     8
424
  7895160
 43
1.0
 76
     1
 77
     6
 78
     2
 67
     7
 79
     5
170
     0
171
     0
290
     0
174
     0
 93
       13
 44
0.0
173
     0
291
     0
 45
0.0
  0
VISUALSTYLE
  5
37
102
{ACAD_REACTORS
330
2A
102
}
102
{ACAD_XDICTIONARY
360
101
102
}
330
2A
100
AcDbVisualStyle
  2
Thicken
 70
    13
 71
     2
 72
     2
 73
     0
 90
        0
 40
-0.6
 41
-30.0
 62
     5
 63
     7
421
 16777215
 74
     1
 91
        4
 64
     7
 65
   257
 75
     1
175
     1
 42
1.0
 92
       12
 66
     7
 43
1.0
 76
     1
 77
     6
 78
     2
 67
     7
 79
     5
170
     0
171
     0
290
     0
174
     0
 93
        1
 44
0.0
173
     0
291
     1
 45
0.0
  0
DICTIONARY
  5
F1
330
2F
100
AcDbDictionary
280
     1
281
     1
  3
ACAD_XREC_ROUNDTRIP
360
F2
  0
DICTIONARY
  5
F5
330
31
100
AcDbDictionary
280
     1
281
     1
  3
ACAD_XREC_ROUNDTRIP
360
F6
  0
DICTIONARY
  5
F3
330
30
100
AcDbDictionary
280
     1
281
     1
  3
ACAD_XREC_ROUNDTRIP
360
F4
  0
DICTIONARY
  5
F7
330
32
100
AcDbDictionary
280
     1
281
     1
  3
ACAD_XREC_ROUNDTRIP
360
F8
  0
DICTIONARY
  5
FF
330
36
100
AcDbDictionary
280
     1
281
     1
  3
ACAD_XREC_ROUNDTRIP
360
100
  0
DICTIONARY
  5
107
330
3A
100
AcDbDictionary
280
     1
281
     1
  3
ACAD_XREC_ROUNDTRIP
360
108
  0
DICTIONARY
  5
FB
330
34
100
AcDbDictionary
280
     1
281
     1
  3
ACAD_XREC_ROUNDTRIP
360
FC
  0
DICTIONARY
  5
FD
330
35
100
AcDbDictionary
280
     1
281
     1
  3
ACAD_XREC_ROUNDTRIP
360
FE
  0
DICTIONARY
  5
105
330
39
100
AcDbDictionary
280
     1
281
     1
  3
ACAD_XREC_ROUNDTRIP
360
106
  0
DICTIONARY
  5
E9
330
2B
100
AcDbDictionary
280
     1
281
     1
  3
ACAD_XREC_ROUNDTRIP
360
EA
  0
DICTIONARY
  5
EB
330
2C
100
AcDbDictionary
280
     1
281
     1
  3
ACAD_XREC_ROUNDTRIP
360
EC
  0
DICTIONARY
  5
ED
330
2D
100
AcDbDictionary
280
     1
281
     1
  3
ACAD_XREC_ROUNDTRIP
360
EE
  0
DICTIONARY
  5
EF
330
2E
100
AcDbDictionary
280
     1
281
     1
  3
ACAD_XREC_ROUNDTRIP
360
F0
  0
DICTIONARY
  5
103
330
38
100
AcDbDictionary
280
     1
281
     1
  3
ACAD_XREC_ROUNDTRIP
360
104
  0
DICTIONARY
  5
F9
330
33
100
AcDbDictionary
280
     1
281
     1
  3
ACAD_XREC_ROUNDTRIP
360
FA
  0
DICTIONARY
  5
101
330
37
100
AcDbDictionary
280
     1
281
     1
  3
ACAD_XREC_ROUNDTRIP
360
102
  0
XRECORD
  5
F2
102
{ACAD_REACTORS
330
F1
102
}
330
F1
100
AcDbXrecord
280
     1
102
RTVSPropertyOp0
 70
     1
102
RTVSPropertyOp1
 70
     1
102
RTVSPropertyOp2
 70
     1
102
RTVSPropertyOp3
 70
     1
102
RTVSPropertyOp4
 70
     1
102
RTVSPropertyOp5
 70
     1
102
RTVSPropertyOp6
 70
     1
102
RTVSPropertyOp7
 70
     1
102
RTVSPropertyOp8
 70
     1
102
RTVSPropertyOp9
 70
     1
102
RTVSPropertyOp10
 70
     1
102
RTVSPropertyOp11
 70
     1
102
RTVSPropertyOp12
 70
     1
102
RTVSPropertyOp13
 70
     1
102
RTVSPropertyOp14
 70
     1
102
RTVSPropertyOp15
 70
     1
102
RTVSPropertyOp16
 70
     1
102
RTVSPropertyOp17
 70
     1
102
RTVSPropertyOp18
 70
     1
102
RTVSPropertyOp19
 70
     1
102
RTVSPropertyOp20
 70
     1
102
RTVSPropertyOp21
 70
     1
102
RTVSPropertyOp22
 70
     1
102
RTVSPropertyOp23
 70
     1
102
RTVSPropertyOp24
 70
     1
102
RTVSPropertyOp25
 70
     1
102
RTVSPropertyOp26
 70
     1
102
RTVSPropertyOp27
 70
     1
102
RTVSPropertyOp28
 70
     1
102
RTVSPropertyOp29
 70
     1
102
RTVSPropertyOp30
 70
     1
102
RTVSPropertyOp31
 70
     1
102
RTVSPropertyOp32
 70
     1
  0
XRECORD
  5
F6
102
{ACAD_REACTORS
330
F5
102
}
330
F5
100
AcDbXrecord
280
     1
102
RTVSPropertyOp0
 70
     1
102
RTVSPropertyOp1
 70
     1
102
RTVSPropertyOp2
 70
     1
102
RTVSPropertyOp3
 70
     1
102
RTVSPropertyOp4
 70
     1
102
RTVSPropertyOp5
 70
     1
102
RTVSPropertyOp6
 70
     1
102
RTVSPropertyOp7
 70
     1
102
RTVSPropertyOp8
 70
     1
102
RTVSPropertyOp9
 70
     1
102
RTVSPropertyOp10
 70
     1
102
RTVSPropertyOp11
 70
     1
102
RTVSPropertyOp12
 70
     1
102
RTVSPropertyOp13
 70
     1
102
RTVSPropertyOp14
 70
     1
102
RTVSPropertyOp15
 70
     1
102
RTVSPropertyOp16
 70
     1
102
RTVSPropertyOp17
 70
     1
102
RTVSPropertyOp18
 70
     1
102
RTVSPropertyOp19
 70
     1
102
RTVSPropertyOp20
 70
     1
102
RTVSPropertyOp21
 70
     1
102
RTVSPropertyOp22
 70
     1
102
RTVSPropertyOp23
 70
     1
102
RTVSPropertyOp24
 70
     1
102
RTVSPropertyOp25
 70
     1
102
RTVSPropertyOp26
 70
     1
102
RTVSPropertyOp27
 70
     1
102
RTVSPropertyOp28
 70
     1
102
RTVSPropertyOp29
 70
     1
102
RTVSPropertyOp30
 70
     1
102
RTVSPropertyOp31
 70
     1
102
RTVSPropertyOp32
 70
     1
  0
XRECORD
  5
F4
102
{ACAD_REACTORS
330
F3
102
}
330
F3
100
AcDbXrecord
280
     1
102
RTVSPropertyOp0
 70
     1
102
RTVSPropertyOp1
 70
     1
102
RTVSPropertyOp2
 70
     1
102
RTVSPropertyOp3
 70
     1
102
RTVSPropertyOp4
 70
     1
102
RTVSPropertyOp5
 70
     1
102
RTVSPropertyOp6
 70
     1
102
RTVSPropertyOp7
 70
     1
102
RTVSPropertyOp8
 70
     1
102
RTVSPropertyOp9
 70
     1
102
RTVSPropertyOp10
 70
     1
102
RTVSPropertyOp11
 70
     1
102
RTVSPropertyOp12
 70
     1
102
RTVSPropertyOp13
 70
     1
102
RTVSPropertyOp14
 70
     1
102
RTVSPropertyOp15
 70
     1
102
RTVSPropertyOp16
 70
     1
102
RTVSPropertyOp17
 70
     1
102
RTVSPropertyOp18
 70
     1
102
RTVSPropertyOp19
 70
     1
102
RTVSPropertyOp20
 70
     1
102
RTVSPropertyOp21
 70
     1
102
RTVSPropertyOp22
 70
     1
102
RTVSPropertyOp23
 70
     1
102
RTVSPropertyOp24
 70
     1
102
RTVSPropertyOp25
 70
     1
102
RTVSPropertyOp26
 70
     1
102
RTVSPropertyOp27
 70
     1
102
RTVSPropertyOp28
 70
     1
102
RTVSPropertyOp29
 70
     1
102
RTVSPropertyOp30
 70
     1
102
RTVSPropertyOp31
 70
     1
102
RTVSPropertyOp32
 70
     1
  0
XRECORD
  5
F8
102
{ACAD_REACTORS
330
F7
102
}
330
F7
100
AcDbXrecord
280
     1
102
RTVSPropertyOp0
 70
     1
102
RTVSPropertyOp1
 70
     1
102
RTVSPropertyOp2
 70
     1
102
RTVSPropertyOp3
 70
     1
102
RTVSPropertyOp4
 70
     1
102
RTVSPropertyOp5
 70
     1
102
RTVSPropertyOp6
 70
     1
102
RTVSPropertyOp7
 70
     1
102
RTVSPropertyOp8
 70
     1
102
RTVSPropertyOp9
 70
     1
102
RTVSPropertyOp10
 70
     1
102
RTVSPropertyOp11
 70
     1
102
RTVSPropertyOp12
 70
     1
102
RTVSPropertyOp13
 70
     1
102
RTVSPropertyOp14
 70
     1
102
RTVSPropertyOp15
 70
     1
102
RTVSPropertyOp16
 70
     1
102
RTVSPropertyOp17
 70
     1
102
RTVSPropertyOp18
 70
     1
102
RTVSPropertyOp19
 70
     1
102
RTVSPropertyOp20
 70
     1
102
RTVSPropertyOp21
 70
     1
102
RTVSPropertyOp22
 70
     1
102
RTVSPropertyOp23
 70
     1
102
RTVSPropertyOp24
 70
     1
102
RTVSPropertyOp25
 70
     1
102
RTVSPropertyOp26
 70
     1
102
RTVSPropertyOp27
 70
     1
102
RTVSPropertyOp28
 70
     1
102
RTVSPropertyOp29
 70
     1
102
RTVSPropertyOp30
 70
     1
102
RTVSPropertyOp31
 70
     1
102
RTVSPropertyOp32
 70
     1
  0
XRECORD
  5
100
102
{ACAD_REACTORS
330
FF
102
}
330
FF
100
AcDbXrecord
280
     1
102
RTVSPropertyOp0
 70
     1
102
RTVSPropertyOp1
 70
     1
102
RTVSPropertyOp2
 70
     1
102
RTVSPropertyOp3
 70
     1
102
RTVSPropertyOp4
 70
     1
102
RTVSPropertyOp5
 70
     1
102
RTVSPropertyOp6
 70
     1
102
RTVSPropertyOp7
 70
     1
102
RTVSPropertyOp8
 70
     1
102
RTVSPropertyOp9
 70
     1
102
RTVSPropertyOp10
 70
     1
102
RTVSPropertyOp11
 70
     1
102
RTVSPropertyOp12
 70
     1
102
RTVSPropertyOp13
 70
     1
102
RTVSPropertyOp14
 70
     1
102
RTVSPropertyOp15
 70
     1
102
RTVSPropertyOp16
 70
     1
102
RTVSPropertyOp17
 70
     1
102
RTVSPropertyOp18
 70
     1
102
RTVSPropertyOp19
 70
     1
102
RTVSPropertyOp20
 70
     1
102
RTVSPropertyOp21
 70
     1
102
RTVSPropertyOp22
 70
     1
102
RTVSPropertyOp23
 70
     1
102
RTVSPropertyOp24
 70
     1
102
RTVSPropertyOp25
 70
     1
102
RTVSPropertyOp26
 70
     1
102
RTVSPropertyOp27
 70
     1
102
RTVSPropertyOp28
 70
     1
102
RTVSPropertyOp29
 70
     1
102
RTVSPropertyOp30
 70
     1
102
RTVSPropertyOp31
 70
     1
102
RTVSPropertyOp32
 70
     1
  0
XRECORD
  5
108
102
{ACAD_REACTORS
330
107
102
}
330
107
100
AcDbXrecord
280
     1
102
RTVSPropertyOp0
 70
     1
102
RTVSPropertyOp1
 70
     1
102
RTVSPropertyOp2
 70
     1
102
RTVSPropertyOp3
 70
     1
102
RTVSPropertyOp4
 70
     1
102
RTVSPropertyOp5
 70
     1
102
RTVSPropertyOp6
 70
     1
102
RTVSPropertyOp7
 70
     1
102
RTVSPropertyOp8
 70
     1
102
RTVSPropertyOp9
 70
     1
102
RTVSPropertyOp10
 70
     1
102
RTVSPropertyOp11
 70
     1
102
RTVSPropertyOp12
 70
     1
102
RTVSPropertyOp13
 70
     1
102
RTVSPropertyOp14
 70
     1
102
RTVSPropertyOp15
 70
     1
102
RTVSPropertyOp16
 70
     1
102
RTVSPropertyOp17
 70
     1
102
RTVSPropertyOp18
 70
     1
102
RTVSPropertyOp19
 70
     1
102
RTVSPropertyOp20
 70
     1
102
RTVSPropertyOp21
 70
     1
102
RTVSPropertyOp22
 70
     1
102
RTVSPropertyOp23
 70
     1
102
RTVSPropertyOp24
 70
     1
102
RTVSPropertyOp25
 70
     1
102
RTVSPropertyOp26
 70
     1
102
RTVSPropertyOp27
 70
     1
102
RTVSPropertyOp28
 70
     1
102
RTVSPropertyOp29
 70
     1
102
RTVSPropertyOp30
 70
     1
102
RTVSPropertyOp31
 70
     1
102
RTVSPropertyOp32
 70
     1
  0
XRECORD
  5
FC
102
{ACAD_REACTORS
330
FB
102
}
330
FB
100
AcDbXrecord
280
     1
102
RTVSPropertyOp0
 70
     1
102
RTVSPropertyOp1
 70
     1
102
RTVSPropertyOp2
 70
     1
102
RTVSPropertyOp3
 70
     1
102
RTVSPropertyOp4
 70
     1
102
RTVSPropertyOp5
 70
     1
102
RTVSPropertyOp6
 70
     1
102
RTVSPropertyOp7
 70
     1
102
RTVSPropertyOp8
 70
     1
102
RTVSPropertyOp9
 70
     1
102
RTVSPropertyOp10
 70
     1
102
RTVSPropertyOp11
 70
     1
102
RTVSPropertyOp12
 70
     1
102
RTVSPropertyOp13
 70
     1
102
RTVSPropertyOp14
 70
     1
102
RTVSPropertyOp15
 70
     1
102
RTVSPropertyOp16
 70
     1
102
RTVSPropertyOp17
 70
     1
102
RTVSPropertyOp18
 70
     1
102
RTVSPropertyOp19
 70
     1
102
RTVSPropertyOp20
 70
     1
102
RTVSPropertyOp21
 70
     1
102
RTVSPropertyOp22
 70
     1
102
RTVSPropertyOp23
 70
     1
102
RTVSPropertyOp24
 70
     1
102
RTVSPropertyOp25
 70
     1
102
RTVSPropertyOp26
 70
     1
102
RTVSPropertyOp27
 70
     1
102
RTVSPropertyOp28
 70
     1
102
RTVSPropertyOp29
 70
     1
102
RTVSPropertyOp30
 70
     1
102
RTVSPropertyOp31
 70
     1
102
RTVSPropertyOp32
 70
     1
  0
XRECORD
  5
FE
102
{ACAD_REACTORS
330
FD
102
}
330
FD
100
AcDbXrecord
280
     1
102
RTVSPropertyOp0
 70
     1
102
RTVSPropertyOp1
 70
     1
102
RTVSPropertyOp2
 70
     1
102
RTVSPropertyOp3
 70
     1
102
RTVSPropertyOp4
 70
     1
102
RTVSPropertyOp5
 70
     1
102
RTVSPropertyOp6
 70
     1
102
RTVSPropertyOp7
 70
     1
102
RTVSPropertyOp8
 70
     1
102
RTVSPropertyOp9
 70
     1
102
RTVSPropertyOp10
 70
     1
102
RTVSPropertyOp11
 70
     1
102
RTVSPropertyOp12
 70
     1
102
RTVSPropertyOp13
 70
     1
102
RTVSPropertyOp14
 70
     1
102
RTVSPropertyOp15
 70
     1
102
RTVSPropertyOp16
 70
     1
102
RTVSPropertyOp17
 70
     1
102
RTVSPropertyOp18
 70
     1
102
RTVSPropertyOp19
 70
     1
102
RTVSPropertyOp20
 70
     1
102
RTVSPropertyOp21
 70
     1
102
RTVSPropertyOp22
 70
     1
102
RTVSPropertyOp23
 70
     1
102
RTVSPropertyOp24
 70
     1
102
RTVSPropertyOp25
 70
     1
102
RTVSPropertyOp26
 70
     1
102
RTVSPropertyOp27
 70
     1
102
RTVSPropertyOp28
 70
     1
102
RTVSPropertyOp29
 70
     1
102
RTVSPropertyOp30
 70
     1
102
RTVSPropertyOp31
 70
     1
102
RTVSPropertyOp32
 70
     1
  0
XRECORD
  5
106
102
{ACAD_REACTORS
330
105
102
}
330
105
100
AcDbXrecord
280
     1
102
RTVSPropertyOp0
 70
     1
102
RTVSPropertyOp1
 70
     1
102
RTVSPropertyOp2
 70
     1
102
RTVSPropertyOp3
 70
     1
102
RTVSPropertyOp4
 70
     1
102
RTVSPropertyOp5
 70
     1
102
RTVSPropertyOp6
 70
     1
102
RTVSPropertyOp7
 70
     1
102
RTVSPropertyOp8
 70
     1
102
RTVSPropertyOp9
 70
     1
102
RTVSPropertyOp10
 70
     1
102
RTVSPropertyOp11
 70
     1
102
RTVSPropertyOp12
 70
     1
102
RTVSPropertyOp13
 70
     1
102
RTVSPropertyOp14
 70
     1
102
RTVSPropertyOp15
 70
     1
102
RTVSPropertyOp16
 70
     1
102
RTVSPropertyOp17
 70
     1
102
RTVSPropertyOp18
 70
     1
102
RTVSPropertyOp19
 70
     1
102
RTVSPropertyOp20
 70
     1
102
RTVSPropertyOp21
 70
     1
102
RTVSPropertyOp22
 70
     1
102
RTVSPropertyOp23
 70
     1
102
RTVSPropertyOp24
 70
     1
102
RTVSPropertyOp25
 70
     1
102
RTVSPropertyOp26
 70
     1
102
RTVSPropertyOp27
 70
     1
102
RTVSPropertyOp28
 70
     1
102
RTVSPropertyOp29
 70
     1
102
RTVSPropertyOp30
 70
     1
102
RTVSPropertyOp31
 70
     1
102
RTVSPropertyOp32
 70
     1
  0
XRECORD
  5
EA
102
{ACAD_REACTORS
330
E9
102
}
330
E9
100
AcDbXrecord
280
     1
102
RTVSPropertyOp0
 70
     1
102
RTVSPropertyOp1
 70
     1
102
RTVSPropertyOp2
 70
     1
102
RTVSPropertyOp3
 70
     1
102
RTVSPropertyOp4
 70
     1
102
RTVSPropertyOp5
 70
     1
102
RTVSPropertyOp6
 70
     1
102
RTVSPropertyOp7
 70
     1
102
RTVSPropertyOp8
 70
     1
102
RTVSPropertyOp9
 70
     1
102
RTVSPropertyOp10
 70
     1
102
RTVSPropertyOp11
 70
     1
102
RTVSPropertyOp12
 70
     1
102
RTVSPropertyOp13
 70
     1
102
RTVSPropertyOp14
 70
     1
102
RTVSPropertyOp15
 70
     1
102
RTVSPropertyOp16
 70
     1
102
RTVSPropertyOp17
 70
     1
102
RTVSPropertyOp18
 70
     1
102
RTVSPropertyOp19
 70
     1
102
RTVSPropertyOp20
 70
     1
102
RTVSPropertyOp21
 70
     1
102
RTVSPropertyOp22
 70
     1
102
RTVSPropertyOp23
 70
     1
102
RTVSPropertyOp24
 70
     1
102
RTVSPropertyOp25
 70
     1
102
RTVSPropertyOp26
 70
     1
102
RTVSPropertyOp27
 70
     1
102
RTVSPropertyOp28
 70
     1
102
RTVSPropertyOp29
 70
     1
102
RTVSPropertyOp30
 70
     1
102
RTVSPropertyOp31
 70
     1
102
RTVSPropertyOp32
 70
     1
  0
XRECORD
  5
EC
102
{ACAD_REACTORS
330
EB
102
}
330
EB
100
AcDbXrecord
280
     1
102
RTVSPropertyOp0
 70
     1
102
RTVSPropertyOp1
 70
     1
102
RTVSPropertyOp2
 70
     1
102
RTVSPropertyOp3
 70
     1
102
RTVSPropertyOp4
 70
     1
102
RTVSPropertyOp5
 70
     1
102
RTVSPropertyOp6
 70
     1
102
RTVSPropertyOp7
 70
     1
102
RTVSPropertyOp8
 70
     1
102
RTVSPropertyOp9
 70
     1
102
RTVSPropertyOp10
 70
     1
102
RTVSPropertyOp11
 70
     1
102
RTVSPropertyOp12
 70
     1
102
RTVSPropertyOp13
 70
     1
102
RTVSPropertyOp14
 70
     1
102
RTVSPropertyOp15
 70
     1
102
RTVSPropertyOp16
 70
     1
102
RTVSPropertyOp17
 70
     1
102
RTVSPropertyOp18
 70
     1
102
RTVSPropertyOp19
 70
     1
102
RTVSPropertyOp20
 70
     1
102
RTVSPropertyOp21
 70
     1
102
RTVSPropertyOp22
 70
     1
102
RTVSPropertyOp23
 70
     1
102
RTVSPropertyOp24
 70
     1
102
RTVSPropertyOp25
 70
     1
102
RTVSPropertyOp26
 70
     1
102
RTVSPropertyOp27
 70
     1
102
RTVSPropertyOp28
 70
     1
102
RTVSPropertyOp29
 70
     1
102
RTVSPropertyOp30
 70
     1
102
RTVSPropertyOp31
 70
     1
102
RTVSPropertyOp32
 70
     1
  0
XRECORD
  5
EE
102
{ACAD_REACTORS
330
ED
102
}
330
ED
100
AcDbXrecord
280
     1
102
RTVSPropertyOp0
 70
     1
102
RTVSPropertyOp1
 70
     1
102
RTVSPropertyOp2
 70
     1
102
RTVSPropertyOp3
 70
     1
102
RTVSPropertyOp4
 70
     1
102
RTVSPropertyOp5
 70
     1
102
RTVSPropertyOp6
 70
     1
102
RTVSPropertyOp7
 70
     1
102
RTVSPropertyOp8
 70
     1
102
RTVSPropertyOp9
 70
     1
102
RTVSPropertyOp10
 70
     1
102
RTVSPropertyOp11
 70
     1
102
RTVSPropertyOp12
 70
     1
102
RTVSPropertyOp13
 70
     1
102
RTVSPropertyOp14
 70
     1
102
RTVSPropertyOp15
 70
     1
102
RTVSPropertyOp16
 70
     1
102
RTVSPropertyOp17
 70
     1
102
RTVSPropertyOp18
 70
     1
102
RTVSPropertyOp19
 70
     1
102
RTVSPropertyOp20
 70
     1
102
RTVSPropertyOp21
 70
     1
102
RTVSPropertyOp22
 70
     1
102
RTVSPropertyOp23
 70
     1
102
RTVSPropertyOp24
 70
     1
102
RTVSPropertyOp25
 70
     1
102
RTVSPropertyOp26
 70
     1
102
RTVSPropertyOp27
 70
     1
102
RTVSPropertyOp28
 70
     1
102
RTVSPropertyOp29
 70
     1
102
RTVSPropertyOp30
 70
     1
102
RTVSPropertyOp31
 70
     1
102
RTVSPropertyOp32
 70
     1
  0
XRECORD
  5
F0
102
{ACAD_REACTORS
330
EF
102
}
330
EF
100
AcDbXrecord
280
     1
102
RTVSPropertyOp0
 70
     1
102
RTVSPropertyOp1
 70
     1
102
RTVSPropertyOp2
 70
     1
102
RTVSPropertyOp3
 70
     1
102
RTVSPropertyOp4
 70
     1
102
RTVSPropertyOp5
 70
     1
102
RTVSPropertyOp6
 70
     1
102
RTVSPropertyOp7
 70
     1
102
RTVSPropertyOp8
 70
     1
102
RTVSPropertyOp9
 70
     1
102
RTVSPropertyOp10
 70
     1
102
RTVSPropertyOp11
 70
     1
102
RTVSPropertyOp12
 70
     1
102
RTVSPropertyOp13
 70
     1
102
RTVSPropertyOp14
 70
     1
102
RTVSPropertyOp15
 70
     1
102
RTVSPropertyOp16
 70
     1
102
RTVSPropertyOp17
 70
     1
102
RTVSPropertyOp18
 70
     1
102
RTVSPropertyOp19
 70
     1
102
RTVSPropertyOp20
 70
     1
102
RTVSPropertyOp21
 70
     1
102
RTVSPropertyOp22
 70
     1
102
RTVSPropertyOp23
 70
     1
102
RTVSPropertyOp24
 70
     1
102
RTVSPropertyOp25
 70
     1
102
RTVSPropertyOp26
 70
     1
102
RTVSPropertyOp27
 70
     1
102
RTVSPropertyOp28
 70
     1
102
RTVSPropertyOp29
 70
     1
102
RTVSPropertyOp30
 70
     1
102
RTVSPropertyOp31
 70
     1
102
RTVSPropertyOp32
 70
     1
  0
XRECORD
  5
104
102
{ACAD_REACTORS
330
103
102
}
330
103
100
AcDbXrecord
280
     1
102
RTVSPropertyOp0
 70
     1
102
RTVSPropertyOp1
 70
     1
102
RTVSPropertyOp2
 70
     1
102
RTVSPropertyOp3
 70
     1
102
RTVSPropertyOp4
 70
     1
102
RTVSPropertyOp5
 70
     1
102
RTVSPropertyOp6
 70
     1
102
RTVSPropertyOp7
 70
     1
102
RTVSPropertyOp8
 70
     1
102
RTVSPropertyOp9
 70
     1
102
RTVSPropertyOp10
 70
     1
102
RTVSPropertyOp11
 70
     1
102
RTVSPropertyOp12
 70
     1
102
RTVSPropertyOp13
 70
     1
102
RTVSPropertyOp14
 70
     1
102
RTVSPropertyOp15
 70
     1
102
RTVSPropertyOp16
 70
     1
102
RTVSPropertyOp17
 70
     1
102
RTVSPropertyOp18
 70
     1
102
RTVSPropertyOp19
 70
     1
102
RTVSPropertyOp20
 70
     1
102
RTVSPropertyOp21
 70
     1
102
RTVSPropertyOp22
 70
     1
102
RTVSPropertyOp23
 70
     1
102
RTVSPropertyOp24
 70
     1
102
RTVSPropertyOp25
 70
     1
102
RTVSPropertyOp26
 70
     1
102
RTVSPropertyOp27
 70
     1
102
RTVSPropertyOp28
 70
     1
102
RTVSPropertyOp29
 70
     1
102
RTVSPropertyOp30
 70
     1
102
RTVSPropertyOp31
 70
     1
102
RTVSPropertyOp32
 70
     1
  0
XRECORD
  5
FA
102
{ACAD_REACTORS
330
F9
102
}
330
F9
100
AcDbXrecord
280
     1
102
RTVSPropertyOp0
 70
     1
102
RTVSPropertyOp1
 70
     1
102
RTVSPropertyOp2
 70
     1
102
RTVSPropertyOp3
 70
     1
102
RTVSPropertyOp4
 70
     1
102
RTVSPropertyOp5
 70
     1
102
RTVSPropertyOp6
 70
     1
102
RTVSPropertyOp7
 70
     1
102
RTVSPropertyOp8
 70
     1
102
RTVSPropertyOp9
 70
     1
102
RTVSPropertyOp10
 70
     1
102
RTVSPropertyOp11
 70
     1
102
RTVSPropertyOp12
 70
     1
102
RTVSPropertyOp13
 70
     1
102
RTVSPropertyOp14
 70
     1
102
RTVSPropertyOp15
 70
     1
102
RTVSPropertyOp16
 70
     1
102
RTVSPropertyOp17
 70
     1
102
RTVSPropertyOp18
 70
     1
102
RTVSPropertyOp19
 70
     1
102
RTVSPropertyOp20
 70
     1
102
RTVSPropertyOp21
 70
     1
102
RTVSPropertyOp22
 70
     1
102
RTVSPropertyOp23
 70
     1
102
RTVSPropertyOp24
 70
     1
102
RTVSPropertyOp25
 70
     1
102
RTVSPropertyOp26
 70
     1
102
RTVSPropertyOp27
 70
     1
102
RTVSPropertyOp28
 70
     1
102
RTVSPropertyOp29
 70
     1
102
RTVSPropertyOp30
 70
     1
102
RTVSPropertyOp31
 70
     1
102
RTVSPropertyOp32
 70
     1
  0
XRECORD
  5
102
102
{ACAD_REACTORS
330
101
102
}
330
101
100
AcDbXrecord
280
     1
102
RTVSPropertyOp0
 70
     1
102
RTVSPropertyOp1
 70
     1
102
RTVSPropertyOp2
 70
     1
102
RTVSPropertyOp3
 70
     1
102
RTVSPropertyOp4
 70
     1
102
RTVSPropertyOp5
 70
     1
102
RTVSPropertyOp6
 70
     1
102
RTVSPropertyOp7
 70
     1
102
RTVSPropertyOp8
 70
     1
102
RTVSPropertyOp9
 70
     1
102
RTVSPropertyOp10
 70
     1
102
RTVSPropertyOp11
 70
     1
102
RTVSPropertyOp12
 70
     1
102
RTVSPropertyOp13
 70
     1
102
RTVSPropertyOp14
 70
     1
102
RTVSPropertyOp15
 70
     1
102
RTVSPropertyOp16
 70
     1
102
RTVSPropertyOp17
 70
     1
102
RTVSPropertyOp18
 70
     1
102
RTVSPropertyOp19
 70
     1
102
RTVSPropertyOp20
 70
     1
102
RTVSPropertyOp21
 70
     1
102
RTVSPropertyOp22
 70
     1
102
RTVSPropertyOp23
 70
     1
102
RTVSPropertyOp24
 70
     1
102
RTVSPropertyOp25
 70
     1
102
RTVSPropertyOp26
 70
     1
102
RTVSPropertyOp27
 70
     1
102
RTVSPropertyOp28
 70
     1
102
RTVSPropertyOp29
 70
     1
102
RTVSPropertyOp30
 70
     1
102
RTVSPropertyOp31
 70
     1
102
RTVSPropertyOp32
 70
     1
  0
ENDSEC
  0
EOF
