  0
SECTION
  2
HEADER
  9
$ACADVER
  1
AC1021
  9
$ACADMAINTVER
 70
    25
  9
$DWGCODEPAGE
  3
ANSI_1256
  9
$INSBASE
 10
0.0
 20
0.0
 30
0.0
  9
$EXTMIN
 10
-30.3933
 20
-114.5692
 30
0.0
  9
$EXTMAX
 10
27.2591
 20
131.8049
 30
0.0
  9
$LIMMIN
 10
0.0
 20
0.0
  9
$LIMMAX
 10
12.0
 20
9.0
  9
$ORTHOMODE
 70
     0
  9
$REGENMODE
 70
     1
  9
$FILLMODE
 70
     1
  9
$QTEXTMODE
 70
     0
  9
$MIRRTEXT
 70
     1
  9
$LTSCALE
 40
1.0
  9
$ATTMODE
 70
     1
  9
$TEXTSIZE
 40
0.2
  9
$TRACEWID
 40
0.05
  9
$TEXTSTYLE
  7
Standard
  9
$CLAYER
  8
0
  9
$CELTYPE
  6
ByLayer
  9
$CECOLOR
 62
   256
  9
$CELTSCALE
 40
1.0
  9
$DISPSILH
 70
     0
  9
$DIMSCALE
 40
1.0
  9
$DIMASZ
 40
0.18
  9
$DIMEXO
 40
0.0625
  9
$DIMDLI
 40
0.38
  9
$DIMRND
 40
0.0
  9
$DIMDLE
 40
0.0
  9
$DIMEXE
 40
0.18
  9
$DIMTP
 40
0.0
  9
$DIMTM
 40
0.0
  9
$DIMTXT
 40
0.18
  9
$DIMCEN
 40
0.09
  9
$DIMTSZ
 40
0.0
  9
$DIMTOL
 70
     0
  9
$DIMLIM
 70
     0
  9
$DIMTIH
 70
     1
  9
$DIMTOH
 70
     1
  9
$DIMSE1
 70
     0
  9
$DIMSE2
 70
     0
  9
$DIMTAD
 70
     0
  9
$DIMZIN
 70
     0
  9
$DIMBLK
  1

  9
$DIMASO
 70
     1
  9
$DIMSHO
 70
     1
  9
$DIMPOST
  1

  9
$DIMAPOST
  1

  9
$DIMALT
 70
     0
  9
$DIMALTD
 70
     2
  9
$DIMALTF
 40
25.4
  9
$DIMLFAC
 40
1.0
  9
$DIMTOFL
 70
     0
  9
$DIMTVP
 40
0.0
  9
$DIMTIX
 70
     0
  9
$DIMSOXD
 70
     0
  9
$DIMSAH
 70
     0
  9
$DIMBLK1
  1

  9
$DIMBLK2
  1

  9
$DIMSTYLE
  2
Standard
  9
$DIMCLRD
 70
     0
  9
$DIMCLRE
 70
     0
  9
$DIMCLRT
 70
     0
  9
$DIMTFAC
 40
1.0
  9
$DIMGAP
 40
0.09
  9
$DIMJUST
 70
     0
  9
$DIMSD1
 70
     0
  9
$DIMSD2
 70
     0
  9
$DIMTOLJ
 70
     1
  9
$DIMTZIN
 70
     0
  9
$DIMALTZ
 70
     0
  9
$DIMALTTZ
 70
     0
  9
$DIMUPT
 70
     0
  9
$DIMDEC
 70
     4
  9
$DIMTDEC
 70
     4
  9
$DIMALTU
 70
     2
  9
$DIMALTTD
 70
     2
  9
$DIMTXSTY
  7
Standard
  9
$DIMAUNIT
 70
     0
  9
$DIMADEC
 70
     0
  9
$DIMALTRND
 40
0.0
  9
$DIMAZIN
 70
     0
  9
$DIMDSEP
 70
    46
  9
$DIMATFIT
 70
     3
  9
$DIMFRAC
 70
     0
  9
$DIMLDRBLK
  1

  9
$DIMLUNIT
 70
     2
  9
$DIMLWD
 70
    -2
  9
$DIMLWE
 70
    -2
  9
$DIMTMOVE
 70
     0
  9
$DIMFXL
 40
1.0
  9
$DIMFXLON
 70
     0
  9
$DIMJOGANG
 40
0.7853981633974483
  9
$DIMTFILL
 70
     0
  9
$DIMTFILLCLR
 70
     0
  9
$DIMARCSYM
 70
     0
  9
$DIMLTYPE
  6

  9
$DIMLTEX1
  6

  9
$DIMLTEX2
  6

  9
$LUNITS
 70
     2
  9
$LUPREC
 70
     4
  9
$SKETCHINC
 40
0.1
  9
$FILLETRAD
 40
0.5
  9
$AUNITS
 70
     0
  9
$AUPREC
 70
     0
  9
$MENU
  1
.
  9
$ELEVATION
 40
0.0
  9
$PELEVATION
 40
0.0
  9
$THICKNESS
 40
0.0
  9
$LIMCHECK
 70
     0
  9
$CHAMFERA
 40
0.5
  9
$CHAMFERB
 40
0.5
  9
$CHAMFERC
 40
1.0
  9
$CHAMFERD
 40
0.0
  9
$SKPOLY
 70
     0
  9
$TDCREATE
 40
2458492.401986585
  9
$TDUCREATE
 40
2458492.235319919
  9
$TDUPDATE
 40
2458492.401986782
  9
$TDUUPDATE
 40
2458492.235320116
  9
$TDINDWG
 40
0.0000000116
  9
$TDUSRTIMER
 40
0.0000000116
  9
$USRTIMER
 70
     1
  9
$ANGBASE
 50
0.0
  9
$ANGDIR
 70
     0
  9
$PDMODE
 70
     0
  9
$PDSIZE
 40
0.0
  9
$PLINEWID
 40
0.0
  9
$SPLFRAME
 70
     0
  9
$SPLINETYPE
 70
     6
  9
$SPLINESEGS
 70
     8
  9
$HANDSEED
  5
A4
  9
$SURFTAB1
 70
     6
  9
$SURFTAB2
 70
     6
  9
$SURFTYPE
 70
     6
  9
$SURFU
 70
     6
  9
$SURFV
 70
     6
  9
$UCSBASE
  2

  9
$UCSNAME
  2

  9
$UCSORG
 10
0.0
 20
0.0
 30
0.0
  9
$UCSXDIR
 10
1.0
 20
0.0
 30
0.0
  9
$UCSYDIR
 10
0.0
 20
1.0
 30
0.0
  9
$UCSORTHOREF
  2

  9
$UCSORTHOVIEW
 70
     0
  9
$UCSORGTOP
 10
0.0
 20
0.0
 30
0.0
  9
$UCSORGBOTTOM
 10
0.0
 20
0.0
 30
0.0
  9
$UCSORGLEFT
 10
0.0
 20
0.0
 30
0.0
  9
$UCSORGRIGHT
 10
0.0
 20
0.0
 30
0.0
  9
$UCSORGFRONT
 10
0.0
 20
0.0
 30
0.0
  9
$UCSORGBACK
 10
0.0
 20
0.0
 30
0.0
  9
$PUCSBASE
  2

  9
$PUCSNAME
  2

  9
$PUCSORG
 10
0.0
 20
0.0
 30
0.0
  9
$PUCSXDIR
 10
1.0
 20
0.0
 30
0.0
  9
$PUCSYDIR
 10
0.0
 20
1.0
 30
0.0
  9
$PUCSORTHOREF
  2

  9
$PUCSORTHOVIEW
 70
     0
  9
$PUCSORGTOP
 10
0.0
 20
0.0
 30
0.0
  9
$PUCSORGBOTTOM
 10
0.0
 20
0.0
 30
0.0
  9
$PUCSORGLEFT
 10
0.0
 20
0.0
 30
0.0
  9
$PUCSORGRIGHT
 10
0.0
 20
0.0
 30
0.0
  9
$PUCSORGFRONT
 10
0.0
 20
0.0
 30
0.0
  9
$PUCSORGBACK
 10
0.0
 20
0.0
 30
0.0
  9
$USERI1
 70
     0
  9
$USERI2
 70
     0
  9
$USERI3
 70
     0
  9
$USERI4
 70
     0
  9
$USERI5
 70
     0
  9
$USERR1
 40
0.0
  9
$USERR2
 40
0.0
  9
$USERR3
 40
0.0
  9
$USERR4
 40
0.0
  9
$USERR5
 40
0.0
  9
$WORLDVIEW
 70
     1
  9
$SHADEDGE
 70
     3
  9
$SHADEDIF
 70
    70
  9
$TILEMODE
 70
     1
  9
$MAXACTVP
 70
    64
  9
$PINSBASE
 10
0.0
 20
0.0
 30
0.0
  9
$PLIMCHECK
 70
     0
  9
$PEXTMIN
 10
1.000000000000000E+20
 20
1.000000000000000E+20
 30
1.000000000000000E+20
  9
$PEXTMAX
 10
-1.000000000000000E+20
 20
-1.000000000000000E+20
 30
-1.000000000000000E+20
  9
$PLIMMIN
 10
0.0
 20
0.0
  9
$PLIMMAX
 10
12.0
 20
9.0
  9
$UNITMODE
 70
     0
  9
$VISRETAIN
 70
     1
  9
$PLINEGEN
 70
     0
  9
$PSLTSCALE
 70
     1
  9
$TREEDEPTH
 70
  3020
  9
$CMLSTYLE
  2
Standard
  9
$CMLJUST
 70
     0
  9
$CMLSCALE
 40
1.0
  9
$PROXYGRAPHICS
 70
     1
  9
$MEASUREMENT
 70
     0
  9
$CELWEIGHT
370
    -1
  9
$ENDCAPS
280
     0
  9
$JOINSTYLE
280
     0
  9
$LWDISPLAY
290
     0
  9
$INSUNITS
 70
     4
  9
$HYPERLINKBASE
  1

  9
$STYLESHEET
  1

  9
$XEDIT
290
     1
  9
$CEPSNTYPE
380
     0
  9
$PSTYLEMODE
290
     1
  9
$FINGERPRINTGUID
  2
{4F34FE75-9E7E-402E-8490-65BFB247577F}
  9
$VERSIONGUID
  2
{FAEB1C32-E019-11D5-929B-00C0DF256EC4}
  9
$EXTNAMES
290
     1
  9
$PSVPSCALE
 40
0.0
  9
$OLESTARTUP
290
     0
  9
$SORTENTS
280
   127
  9
$INDEXCTL
280
     0
  9
$HIDETEXT
280
     1
  9
$XCLIPFRAME
290
     0
  9
$HALOGAP
280
     0
  9
$OBSCOLOR
 70
   257
  9
$OBSLTYPE
280
     0
  9
$INTERSECTIONDISPLAY
280
     0
  9
$INTERSECTIONCOLOR
 70
   257
  9
$DIMASSOC
280
     2
  9
$PROJECTNAME
  1

  9
$CAMERADISPLAY
290
     0
  9
$LENSLENGTH
 40
50.0
  9
$CAMERAHEIGHT
 40
0.0
  9
$STEPSPERSEC
 40
2.0
  9
$STEPSIZE
 40
6.0
  9
$3DDWFPREC
 40
2.0
  9
$PSOLWIDTH
 40
0.25
  9
$PSOLHEIGHT
 40
4.0
  9
$LOFTANG1
 40
1.570796326794897
  9
$LOFTANG2
 40
1.570796326794897
  9
$LOFTMAG1
 40
0.0
  9
$LOFTMAG2
 40
0.0
  9
$LOFTPARAM
 70
     7
  9
$LOFTNORMALS
280
     1
  9
$LATITUDE
 40
37.795
  9
$LONGITUDE
 40
-122.394
  9
$NORTHDIRECTION
 40
0.0
  9
$TIMEZONE
 70
 -8000
  9
$LIGHTGLYPHDISPLAY
280
     1
  9
$TILEMODELIGHTSYNCH
280
     1
  9
$SOLIDHIST
280
     1
  9
$SHOWHIST
280
     1
  9
$DWFFRAME
280
     2
  9
$DGNFRAME
280
     2
  9
$REALWORLDSCALE
290
     1
  9
$INTERFERECOLOR
 62
   256
  9
$CSHADOW
280
     0
  9
$SHADOWPLANELOCATION
 40
0.0
  0
ENDSEC
  0
SECTION
  2
CLASSES
  0
CLASS
  1
ACDBDICTIONARYWDFLT
  2
AcDbDictionaryWithDefault
  3
ObjectDBX Classes
 90
        0
 91
        4
280
     0
281
     0
  0
CLASS
  1
VISUALSTYLE
  2
AcDbVisualStyle
  3
ObjectDBX Classes
 90
     4095
 91
        4
280
     0
281
     0
  0
CLASS
  1
MATERIAL
  2
AcDbMaterial
  3
ObjectDBX Classes
 90
     1153
 91
        4
280
     0
281
     0
  0
ENDSEC
  0
SECTION
  2
TABLES
  0
TABLE
  2
VPORT
  5
8
330
0
100
AcDbSymbolTable
 70
     1
  0
VPORT
  5
29
330
8
100
AcDbSymbolTableRecord
100
AcDbViewportTableRecord
  2
*Active
 70
     0
 10
0.0
 20
0.0
 11
1.0
 21
1.0
 12
10.42990654205607
 22
4.5
 13
0.0
 23
0.0
 14
0.5
 24
0.5
 15
0.5
 25
0.5
 16
0.0
 26
0.0
 36
1.0
 17
0.0
 27
0.0
 37
0.0
 40
9.0
 41
1.972972972850329
 42
50.0
 43
0.0
 44
0.0
 50
0.0
 51
0.0
 71
     0
 72
   100
 73
     1
 74
     3
 75
     0
 76
     0
 77
     0
 78
     0
281
     0
 65
     1
110
0.0
120
0.0
130
0.0
111
1.0
121
0.0
131
0.0
112
0.0
122
1.0
132
0.0
 79
     0
146
0.0
 60
     3
 61
     5
292
     1
282
     1
141
0.0
142
0.0
 63
   250
  0
ENDTAB
  0
TABLE
  2
LTYPE
  5
5
330
0
100
AcDbSymbolTable
 70
     1
  0
LTYPE
  5
14
330
5
100
AcDbSymbolTableRecord
100
AcDbLinetypeTableRecord
  2
ByBlock
 70
     0
  3

 72
    65
 73
     0
 40
0.0
  0
LTYPE
  5
15
330
5
100
AcDbSymbolTableRecord
100
AcDbLinetypeTableRecord
  2
ByLayer
 70
     0
  3

 72
    65
 73
     0
 40
0.0
  0
LTYPE
  5
16
330
5
100
AcDbSymbolTableRecord
100
AcDbLinetypeTableRecord
  2
Continuous
 70
     0
  3
Solid line
 72
    65
 73
     0
 40
0.0
  0
ENDTAB
  0
TABLE
  2
LAYER
  5
2
330
0
100
AcDbSymbolTable
 70
     2
  0
LAYER
  5
10
330
2
100
AcDbSymbolTableRecord
100
AcDbLayerTableRecord
  2
0
 70
     0
 62
     7
  6
Continuous
370
    -3
390
F
347
3E
  0
LAYER
  5
40
330
2
100
AcDbSymbolTableRecord
100
AcDbLayerTableRecord
  2
layer 1
 70
     0
 62
     7
  6
Continuous
370
    -3
390
F
347
3E
  0
ENDTAB
  0
TABLE
  2
STYLE
  5
3
330
0
100
AcDbSymbolTable
 70
     1
  0
STYLE
  5
11
330
3
100
AcDbSymbolTableRecord
100
AcDbTextStyleTableRecord
  2
Standard
 70
     0
 40
0.0
 41
1.0
 50
0.0
 71
     0
 42
0.2
  3
txt
  4

  0
ENDTAB
  0
TABLE
  2
VIEW
  5
6
330
0
100
AcDbSymbolTable
 70
     0
  0
ENDTAB
  0
TABLE
  2
UCS
  5
7
330
0
100
AcDbSymbolTable
 70
     0
  0
ENDTAB
  0
TABLE
  2
APPID
  5
9
330
0
100
AcDbSymbolTable
 70
     2
  0
APPID
  5
12
330
9
100
AcDbSymbolTableRecord
100
AcDbRegAppTableRecord
  2
ACAD
 70
     0
  0
APPID
  5
3F
330
9
100
AcDbSymbolTableRecord
100
AcDbRegAppTableRecord
  2
ODA
 70
     0
  0
ENDTAB
  0
TABLE
  2
DIMSTYLE
  5
A
330
0
100
AcDbSymbolTable
 70
     1
100
AcDbDimStyleTable
  0
DIMSTYLE
105
27
330
A
100
AcDbSymbolTableRecord
100
AcDbDimStyleTableRecord
  2
Standard
 70
     0
178
     0
340
11
  0
ENDTAB
  0
TABLE
  2
BLOCK_RECORD
  5
1
330
0
100
AcDbSymbolTable
 70
     1
  0
BLOCK_RECORD
  5
1F
330
1
100
AcDbSymbolTableRecord
100
AcDbBlockTableRecord
  2
*Model_Space
340
22
 70
     0
280
     1
281
     0
  0
BLOCK_RECORD
  5
1B
330
1
100
AcDbSymbolTableRecord
100
AcDbBlockTableRecord
  2
*Paper_Space
340
1E
 70
     0
280
     1
281
     0
  0
BLOCK_RECORD
  5
23
330
1
100
AcDbSymbolTableRecord
100
AcDbBlockTableRecord
  2
*Paper_Space0
340
26
 70
     0
280
     1
281
     0
  0
ENDTAB
  0
ENDSEC
  0
SECTION
  2
BLOCKS
  0
BLOCK
  5
20
330
1F
100
AcDbEntity
  8
0
100
AcDbBlockBegin
  2
*Model_Space
 70
     0
 10
0.0
 20
0.0
 30
0.0
  3
*Model_Space
  1

  0
ENDBLK
  5
21
330
1F
100
AcDbEntity
  8
0
100
AcDbBlockEnd
  0
BLOCK
  5
1C
330
1B
100
AcDbEntity
 67
     1
  8
0
100
AcDbBlockBegin
  2
*Paper_Space
 70
     0
 10
0.0
 20
0.0
 30
0.0
  3
*Paper_Space
  1

  0
ENDBLK
  5
1D
330
1B
100
AcDbEntity
 67
     1
  8
0
100
AcDbBlockEnd
  0
BLOCK
  5
24
330
23
100
AcDbEntity
  8
0
100
AcDbBlockBegin
  2
*Paper_Space0
 70
     0
 10
0.0
 20
0.0
 30
0.0
  3
*Paper_Space0
  1

  0
ENDBLK
  5
25
330
23
100
AcDbEntity
  8
0
100
AcDbBlockEnd
  0
ENDSEC
  0
SECTION
  2
ENTITIES
  0
LWPOLYLINE
  5
41
330
1F
100
AcDbEntity
  8
layer 1
 62
   250
370
     9
100
AcDbPolyline
 90
        5
 70
     1
 43
0.0
 10
-30.3552
 20
-114.531
 10
27.221
 20
-114.531
 10
27.221
 20
131.7668
 10
-30.3552
 20
131.7668
 10
-30.3552
 20
-114.531
  0
SPLINE
  5
42
330
1F
100
AcDbEntity
  8
layer 1
 62
     7
100
AcDbSpline
210
0.0
220
0.0
230
1.0
 70
    11
 71
     3
 72
    44
 73
    40
 74
     0
 42
0.0000000001
 43
0.0000000001
 12
1.0
 22
0.0
 32
0.0
 13
1.0
 23
0.0
 33
0.0
 40
0.0
 40
0.0
 40
0.0
 40
0.0
 40
0.0909090909090909
 40
0.0909090909090909
 40
0.0909090909090909
 40
0.0909090909090909
 40
0.1818181818181818
 40
0.1818181818181818
 40
0.1818181818181818
 40
0.1818181818181818
 40
0.2727272727272727
 40
0.2727272727272727
 40
0.2727272727272727
 40
0.2727272727272727
 40
0.3636363636363636
 40
0.3636363636363636
 40
0.3636363636363636
 40
0.3636363636363636
 40
0.4545454545454545
 40
0.4545454545454545
 40
0.4545454545454545
 40
0.4545454545454545
 40
0.5454545454545454
 40
0.5454545454545454
 40
0.5454545454545454
 40
0.5454545454545454
 40
0.6363636363636364
 40
0.6363636363636364
 40
0.6363636363636364
 40
0.6363636363636364
 40
0.7272727272727273
 40
0.7272727272727273
 40
0.7272727272727273
 40
0.7272727272727273
 40
0.8181818181818182
 40
0.8181818181818182
 40
0.8181818181818182
 40
0.8181818181818182
 40
1.0
 40
1.0
 40
1.0
 40
1.0
 10
-10.4122
 20
95.5463
 30
0.0
 10
-10.4122
 20
95.5463
 30
0.0
 10
-14.0638
 20
95.5592
 30
0.0
 10
-14.0638
 20
95.5592
 30
0.0
 10
-14.0638
 20
95.5592
 30
0.0
 10
-14.0638
 20
95.5592
 30
0.0
 10
-14.0638
 20
102.8416
 30
0.0
 10
-14.0638
 20
102.8416
 30
0.0
 10
-14.0638
 20
102.8416
 30
0.0
 10
-14.0638
 20
102.8416
 30
0.0
 10
-10.526
 20
102.8416
 30
0.0
 10
-10.526
 20
102.8416
 30
0.0
 10
-10.526
 20
102.8416
 30
0.0
 10
-10.526
 20
102.8416
 30
0.0
 10
-1.4367
 20
109.4888
 30
0.0
 10
-1.4367
 20
109.4888
 30
0.0
 10
-1.4367
 20
109.4888
 30
0.0
 10
-1.4367
 20
109.4888
 30
0.0
 10
7.6525
 20
102.8416
 30
0.0
 10
7.6525
 20
102.8416
 30
0.0
 10
7.6525
 20
102.8416
 30
0.0
 10
7.6525
 20
102.8416
 30
0.0
 10
11.1903
 20
102.8416
 30
0.0
 10
11.1903
 20
102.8416
 30
0.0
 10
11.1903
 20
102.8416
 30
0.0
 10
11.1903
 20
102.8416
 30
0.0
 10
11.1903
 20
95.5592
 30
0.0
 10
11.1903
 20
95.5592
 30
0.0
 10
11.1903
 20
95.5592
 30
0.0
 10
11.1903
 20
95.5592
 30
0.0
 10
7.5387
 20
95.5463
 30
0.0
 10
7.5387
 20
95.5463
 30
0.0
 10
7.5387
 20
95.5463
 30
0.0
 10
7.5387
 20
95.5463
 30
0.0
 10
-1.4369
 20
89.0382
 30
0.0
 10
-1.4369
 20
89.0382
 30
0.0
 10
-1.4369
 20
89.0382
 30
0.0
 10
-1.4369
 20
89.0382
 30
0.0
 10
-10.4122
 20
95.5463
 30
0.0
 10
-10.4122
 20
95.5463
 30
0.0
  0
SPLINE
  5
43
330
1F
100
AcDbEntity
  8
layer 1
 62
     7
100
AcDbSpline
210
0.0
220
0.0
230
1.0
 70
    11
 71
     3
 72
    32
 73
    28
 74
     0
 42
0.0000000001
 43
0.0000000001
 12
1.0
 22
0.0
 32
0.0
 13
1.0
 23
0.0
 33
0.0
 40
0.0
 40
0.0
 40
0.0
 40
0.0
 40
0.125
 40
0.125
 40
0.125
 40
0.125
 40
0.25
 40
0.25
 40
0.25
 40
0.25
 40
0.375
 40
0.375
 40
0.375
 40
0.375
 40
0.5
 40
0.5
 40
0.5
 40
0.5
 40
0.625
 40
0.625
 40
0.625
 40
0.625
 40
0.75
 40
0.75
 40
0.75
 40
0.75
 40
1.0
 40
1.0
 40
1.0
 40
1.0
 10
-24.0328
 20
107.3985
 30
0.0
 10
-24.0328
 20
107.3985
 30
0.0
 10
-24.0328
 20
124.4876
 30
0.0
 10
-24.0328
 20
124.4876
 30
0.0
 10
-24.0328
 20
124.4876
 30
0.0
 10
-24.0328
 20
124.4876
 30
0.0
 10
-19.4732
 20
124.4876
 30
0.0
 10
-19.4732
 20
124.4876
 30
0.0
 10
-19.4732
 20
124.4876
 30
0.0
 10
-19.4732
 20
124.4876
 30
0.0
 10
-19.3679
 20
122.5889
 30
0.0
 10
-19.3679
 20
122.5889
 30
0.0
 10
-19.3679
 20
122.5889
 30
0.0
 10
-19.3679
 20
122.5889
 30
0.0
 10
-10.4121
 20
116.0446
 30
0.0
 10
-10.4121
 20
116.0446
 30
0.0
 10
-10.4121
 20
116.0446
 30
0.0
 10
-10.4121
 20
116.0446
 30
0.0
 10
-19.3137
 20
109.1519
 30
0.0
 10
-19.3137
 20
109.1519
 30
0.0
 10
-19.3137
 20
109.1519
 30
0.0
 10
-19.3137
 20
109.1519
 30
0.0
 10
-19.3556
 20
107.3985
 30
0.0
 10
-19.3556
 20
107.3985
 30
0.0
 10
-19.3556
 20
107.3985
 30
0.0
 10
-19.3556
 20
107.3985
 30
0.0
 10
-24.0328
 20
107.3985
 30
0.0
 10
-24.0328
 20
107.3985
 30
0.0
  0
SPLINE
  5
44
330
1F
100
AcDbEntity
  8
layer 1
 62
     7
100
AcDbSpline
210
0.0
220
0.0
230
1.0
 70
    11
 71
     3
 72
    28
 73
    24
 74
     0
 42
0.0000000001
 43
0.0000000001
 12
1.0
 22
0.0
 32
0.0
 13
1.0
 23
0.0
 33
0.0
 40
0.0
 40
0.0
 40
0.0
 40
0.0
 40
0.1428571428571428
 40
0.1428571428571428
 40
0.1428571428571428
 40
0.1428571428571428
 40
0.2857142857142857
 40
0.2857142857142857
 40
0.2857142857142857
 40
0.2857142857142857
 40
0.4285714285714285
 40
0.4285714285714285
 40
0.4285714285714285
 40
0.4285714285714285
 40
0.5714285714285714
 40
0.5714285714285714
 40
0.5714285714285714
 40
0.5714285714285714
 40
0.7142857142857143
 40
0.7142857142857143
 40
0.7142857142857143
 40
0.7142857142857143
 40
1.0
 40
1.0
 40
1.0
 40
1.0
 10
-7.6088
 20
117.9124
 30
0.0
 10
-7.6088
 20
117.9124
 30
0.0
 10
-14.7806
 20
123.5835
 30
0.0
 10
-14.7806
 20
123.5835
 30
0.0
 10
-14.7806
 20
123.5835
 30
0.0
 10
-14.7806
 20
123.5835
 30
0.0
 10
-14.7958
 20
125.692
 30
0.0
 10
-14.7958
 20
125.692
 30
0.0
 10
-14.7958
 20
125.692
 30
0.0
 10
-14.7958
 20
125.692
 30
0.0
 10
-11.2863
 20
125.692
 30
0.0
 10
-11.2863
 20
125.692
 30
0.0
 10
-11.2863
 20
125.692
 30
0.0
 10
-11.2863
 20
125.692
 30
0.0
 10
-4.0198
 20
120.1552
 30
0.0
 10
-4.0198
 20
120.1552
 30
0.0
 10
-4.0198
 20
120.1552
 30
0.0
 10
-4.0198
 20
120.1552
 30
0.0
 10
-3.9986
 20
117.9274
 30
0.0
 10
-3.9986
 20
117.9274
 30
0.0
 10
-3.9986
 20
117.9274
 30
0.0
 10
-3.9986
 20
117.9274
 30
0.0
 10
-7.6088
 20
117.9124
 30
0.0
 10
-7.6088
 20
117.9124
 30
0.0
  0
SPLINE
  5
45
330
1F
100
AcDbEntity
  8
layer 1
 62
     7
100
AcDbSpline
210
0.0
220
0.0
230
1.0
 70
    11
 71
     3
 72
    28
 73
    24
 74
     0
 42
0.0000000001
 43
0.0000000001
 12
1.0
 22
0.0
 32
0.0
 13
1.0
 23
0.0
 33
0.0
 40
0.0
 40
0.0
 40
0.0
 40
0.0
 40
0.1428571428571428
 40
0.1428571428571428
 40
0.1428571428571428
 40
0.1428571428571428
 40
0.2857142857142857
 40
0.2857142857142857
 40
0.2857142857142857
 40
0.2857142857142857
 40
0.4285714285714285
 40
0.4285714285714285
 40
0.4285714285714285
 40
0.4285714285714285
 40
0.5714285714285714
 40
0.5714285714285714
 40
0.5714285714285714
 40
0.5714285714285714
 40
0.7142857142857143
 40
0.7142857142857143
 40
0.7142857142857143
 40
0.7142857142857143
 40
1.0
 40
1.0
 40
1.0
 40
1.0
 10
-7.6088
 20
114.1372
 30
0.0
 10
-7.6088
 20
114.1372
 30
0.0
 10
-14.7806
 20
108.4661
 30
0.0
 10
-14.7806
 20
108.4661
 30
0.0
 10
-14.7806
 20
108.4661
 30
0.0
 10
-14.7806
 20
108.4661
 30
0.0
 10
-14.7958
 20
106.3575
 30
0.0
 10
-14.7958
 20
106.3575
 30
0.0
 10
-14.7958
 20
106.3575
 30
0.0
 10
-14.7958
 20
106.3575
 30
0.0
 10
-11.2863
 20
106.3575
 30
0.0
 10
-11.2863
 20
106.3575
 30
0.0
 10
-11.2863
 20
106.3575
 30
0.0
 10
-11.2863
 20
106.3575
 30
0.0
 10
-4.0198
 20
111.8943
 30
0.0
 10
-4.0198
 20
111.8943
 30
0.0
 10
-4.0198
 20
111.8943
 30
0.0
 10
-4.0198
 20
111.8943
 30
0.0
 10
-3.9986
 20
114.1222
 30
0.0
 10
-3.9986
 20
114.1222
 30
0.0
 10
-3.9986
 20
114.1222
 30
0.0
 10
-3.9986
 20
114.1222
 30
0.0
 10
-7.6088
 20
114.1372
 30
0.0
 10
-7.6088
 20
114.1372
 30
0.0
  0
SPLINE
  5
46
330
1F
100
AcDbEntity
  8
layer 1
 62
     7
100
AcDbSpline
210
0.0
220
0.0
230
1.0
 70
    11
 71
     3
 72
    32
 73
    28
 74
     0
 42
0.0000000001
 43
0.0000000001
 12
1.0
 22
0.0
 32
0.0
 13
1.0
 23
0.0
 33
0.0
 40
0.0
 40
0.0
 40
0.0
 40
0.0
 40
0.125
 40
0.125
 40
0.125
 40
0.125
 40
0.25
 40
0.25
 40
0.25
 40
0.25
 40
0.375
 40
0.375
 40
0.375
 40
0.375
 40
0.5
 40
0.5
 40
0.5
 40
0.5
 40
0.625
 40
0.625
 40
0.625
 40
0.625
 40
0.75
 40
0.75
 40
0.75
 40
0.75
 40
1.0
 40
1.0
 40
1.0
 40
1.0
 10
20.8471
 20
107.3985
 30
0.0
 10
20.8471
 20
107.3985
 30
0.0
 10
20.8471
 20
124.4876
 30
0.0
 10
20.8471
 20
124.4876
 30
0.0
 10
20.8471
 20
124.4876
 30
0.0
 10
20.8471
 20
124.4876
 30
0.0
 10
16.2876
 20
124.4876
 30
0.0
 10
16.2876
 20
124.4876
 30
0.0
 10
16.2876
 20
124.4876
 30
0.0
 10
16.2876
 20
124.4876
 30
0.0
 10
16.1823
 20
122.5889
 30
0.0
 10
16.1823
 20
122.5889
 30
0.0
 10
16.1823
 20
122.5889
 30
0.0
 10
16.1823
 20
122.5889
 30
0.0
 10
7.2264
 20
116.0446
 30
0.0
 10
7.2264
 20
116.0446
 30
0.0
 10
7.2264
 20
116.0446
 30
0.0
 10
7.2264
 20
116.0446
 30
0.0
 10
16.1281
 20
109.1519
 30
0.0
 10
16.1281
 20
109.1519
 30
0.0
 10
16.1281
 20
109.1519
 30
0.0
 10
16.1281
 20
109.1519
 30
0.0
 10
16.1699
 20
107.3985
 30
0.0
 10
16.1699
 20
107.3985
 30
0.0
 10
16.1699
 20
107.3985
 30
0.0
 10
16.1699
 20
107.3985
 30
0.0
 10
20.8471
 20
107.3985
 30
0.0
 10
20.8471
 20
107.3985
 30
0.0
  0
SPLINE
  5
47
330
1F
100
AcDbEntity
  8
layer 1
 62
     7
100
AcDbSpline
210
0.0
220
0.0
230
1.0
 70
    11
 71
     3
 72
    28
 73
    24
 74
     0
 42
0.0000000001
 43
0.0000000001
 12
1.0
 22
0.0
 32
0.0
 13
1.0
 23
0.0
 33
0.0
 40
0.0
 40
0.0
 40
0.0
 40
0.0
 40
0.1428571428571428
 40
0.1428571428571428
 40
0.1428571428571428
 40
0.1428571428571428
 40
0.2857142857142857
 40
0.2857142857142857
 40
0.2857142857142857
 40
0.2857142857142857
 40
0.4285714285714285
 40
0.4285714285714285
 40
0.4285714285714285
 40
0.4285714285714285
 40
0.5714285714285714
 40
0.5714285714285714
 40
0.5714285714285714
 40
0.5714285714285714
 40
0.7142857142857143
 40
0.7142857142857143
 40
0.7142857142857143
 40
0.7142857142857143
 40
1.0
 40
1.0
 40
1.0
 40
1.0
 10
4.4232
 20
117.9124
 30
0.0
 10
4.4232
 20
117.9124
 30
0.0
 10
11.595
 20
123.5835
 30
0.0
 10
11.595
 20
123.5835
 30
0.0
 10
11.595
 20
123.5835
 30
0.0
 10
11.595
 20
123.5835
 30
0.0
 10
11.6102
 20
125.692
 30
0.0
 10
11.6102
 20
125.692
 30
0.0
 10
11.6102
 20
125.692
 30
0.0
 10
11.6102
 20
125.692
 30
0.0
 10
8.1007
 20
125.692
 30
0.0
 10
8.1007
 20
125.692
 30
0.0
 10
8.1007
 20
125.692
 30
0.0
 10
8.1007
 20
125.692
 30
0.0
 10
0.8342
 20
120.1552
 30
0.0
 10
0.8342
 20
120.1552
 30
0.0
 10
0.8342
 20
120.1552
 30
0.0
 10
0.8342
 20
120.1552
 30
0.0
 10
0.813
 20
117.9274
 30
0.0
 10
0.813
 20
117.9274
 30
0.0
 10
0.813
 20
117.9274
 30
0.0
 10
0.813
 20
117.9274
 30
0.0
 10
4.4232
 20
117.9124
 30
0.0
 10
4.4232
 20
117.9124
 30
0.0
  0
SPLINE
  5
48
330
1F
100
AcDbEntity
  8
layer 1
 62
     7
100
AcDbSpline
210
0.0
220
0.0
230
1.0
 70
    11
 71
     3
 72
    28
 73
    24
 74
     0
 42
0.0000000001
 43
0.0000000001
 12
1.0
 22
0.0
 32
0.0
 13
1.0
 23
0.0
 33
0.0
 40
0.0
 40
0.0
 40
0.0
 40
0.0
 40
0.1428571428571428
 40
0.1428571428571428
 40
0.1428571428571428
 40
0.1428571428571428
 40
0.2857142857142857
 40
0.2857142857142857
 40
0.2857142857142857
 40
0.2857142857142857
 40
0.4285714285714285
 40
0.4285714285714285
 40
0.4285714285714285
 40
0.4285714285714285
 40
0.5714285714285714
 40
0.5714285714285714
 40
0.5714285714285714
 40
0.5714285714285714
 40
0.7142857142857143
 40
0.7142857142857143
 40
0.7142857142857143
 40
0.7142857142857143
 40
1.0
 40
1.0
 40
1.0
 40
1.0
 10
4.4232
 20
114.1372
 30
0.0
 10
4.4232
 20
114.1372
 30
0.0
 10
11.595
 20
108.4661
 30
0.0
 10
11.595
 20
108.4661
 30
0.0
 10
11.595
 20
108.4661
 30
0.0
 10
11.595
 20
108.4661
 30
0.0
 10
11.6102
 20
106.3575
 30
0.0
 10
11.6102
 20
106.3575
 30
0.0
 10
11.6102
 20
106.3575
 30
0.0
 10
11.6102
 20
106.3575
 30
0.0
 10
8.1007
 20
106.3575
 30
0.0
 10
8.1007
 20
106.3575
 30
0.0
 10
8.1007
 20
106.3575
 30
0.0
 10
8.1007
 20
106.3575
 30
0.0
 10
0.8342
 20
111.8943
 30
0.0
 10
0.8342
 20
111.8943
 30
0.0
 10
0.8342
 20
111.8943
 30
0.0
 10
0.8342
 20
111.8943
 30
0.0
 10
0.813
 20
114.1222
 30
0.0
 10
0.813
 20
114.1222
 30
0.0
 10
0.813
 20
114.1222
 30
0.0
 10
0.813
 20
114.1222
 30
0.0
 10
4.4232
 20
114.1372
 30
0.0
 10
4.4232
 20
114.1372
 30
0.0
  0
SPLINE
  5
49
330
1F
100
AcDbEntity
  8
layer 1
 62
     7
100
AcDbSpline
210
0.0
220
0.0
230
1.0
 70
    11
 71
     3
 72
    36
 73
    32
 74
     0
 42
0.0000000001
 43
0.0000000001
 12
1.0
 22
0.0
 32
0.0
 13
1.0
 23
0.0
 33
0.0
 40
0.0
 40
0.0
 40
0.0
 40
0.0
 40
0.1111111111111111
 40
0.1111111111111111
 40
0.1111111111111111
 40
0.1111111111111111
 40
0.2222222222222222
 40
0.2222222222222222
 40
0.2222222222222222
 40
0.2222222222222222
 40
0.3333333333333333
 40
0.3333333333333333
 40
0.3333333333333333
 40
0.3333333333333333
 40
0.4444444444444444
 40
0.4444444444444444
 40
0.4444444444444444
 40
0.4444444444444444
 40
0.5555555555555556
 40
0.5555555555555556
 40
0.5555555555555556
 40
0.5555555555555556
 40
0.6666666666666666
 40
0.6666666666666666
 40
0.6666666666666666
 40
0.6666666666666666
 40
0.7777777777777778
 40
0.7777777777777778
 40
0.7777777777777778
 40
0.7777777777777778
 40
1.0
 40
1.0
 40
1.0
 40
1.0
 10
-19.1287
 20
95.7006
 30
0.0
 10
-19.1287
 20
95.7006
 30
0.0
 10
-17.4945
 20
95.7135
 30
0.0
 10
-17.4945
 20
95.7135
 30
0.0
 10
-17.4945
 20
95.7135
 30
0.0
 10
-17.4945
 20
95.7135
 30
0.0
 10
-17.4945
 20
102.9959
 30
0.0
 10
-17.4945
 20
102.9959
 30
0.0
 10
-17.4945
 20
102.9959
 30
0.0
 10
-17.4945
 20
102.9959
 30
0.0
 10
-19.1287
 20
102.9959
 30
0.0
 10
-19.1287
 20
102.9959
 30
0.0
 10
-19.1287
 20
102.9959
 30
0.0
 10
-19.1287
 20
102.9959
 30
0.0
 10
-19.1287
 20
104.4893
 30
0.0
 10
-19.1287
 20
104.4893
 30
0.0
 10
-19.1287
 20
104.4893
 30
0.0
 10
-19.1287
 20
104.4893
 30
0.0
 10
-24.0328
 20
104.5345
 30
0.0
 10
-24.0328
 20
104.5345
 30
0.0
 10
-24.0328
 20
104.5345
 30
0.0
 10
-24.0328
 20
104.5345
 30
0.0
 10
-24.0328
 20
94.0283
 30
0.0
 10
-24.0328
 20
94.0283
 30
0.0
 10
-24.0328
 20
94.0283
 30
0.0
 10
-24.0328
 20
94.0283
 30
0.0
 10
-19.1287
 20
94.0389
 30
0.0
 10
-19.1287
 20
94.0389
 30
0.0
 10
-19.1287
 20
94.0389
 30
0.0
 10
-19.1287
 20
94.0389
 30
0.0
 10
-19.1287
 20
95.7006
 30
0.0
 10
-19.1287
 20
95.7006
 30
0.0
  0
SPLINE
  5
4A
330
1F
100
AcDbEntity
  8
layer 1
 62
     7
100
AcDbSpline
210
0.0
220
0.0
230
1.0
 70
    11
 71
     3
 72
    36
 73
    32
 74
     0
 42
0.0000000001
 43
0.0000000001
 12
1.0
 22
0.0
 32
0.0
 13
1.0
 23
0.0
 33
0.0
 40
0.0
 40
0.0
 40
0.0
 40
0.0
 40
0.1111111111111111
 40
0.1111111111111111
 40
0.1111111111111111
 40
0.1111111111111111
 40
0.2222222222222222
 40
0.2222222222222222
 40
0.2222222222222222
 40
0.2222222222222222
 40
0.3333333333333333
 40
0.3333333333333333
 40
0.3333333333333333
 40
0.3333333333333333
 40
0.4444444444444444
 40
0.4444444444444444
 40
0.4444444444444444
 40
0.4444444444444444
 40
0.5555555555555556
 40
0.5555555555555556
 40
0.5555555555555556
 40
0.5555555555555556
 40
0.6666666666666666
 40
0.6666666666666666
 40
0.6666666666666666
 40
0.6666666666666666
 40
0.7777777777777778
 40
0.7777777777777778
 40
0.7777777777777778
 40
0.7777777777777778
 40
1.0
 40
1.0
 40
1.0
 40
1.0
 10
15.9945
 20
95.7006
 30
0.0
 10
15.9945
 20
95.7006
 30
0.0
 10
14.3602
 20
95.7135
 30
0.0
 10
14.3602
 20
95.7135
 30
0.0
 10
14.3602
 20
95.7135
 30
0.0
 10
14.3602
 20
95.7135
 30
0.0
 10
14.3602
 20
102.9959
 30
0.0
 10
14.3602
 20
102.9959
 30
0.0
 10
14.3602
 20
102.9959
 30
0.0
 10
14.3602
 20
102.9959
 30
0.0
 10
15.9945
 20
102.9959
 30
0.0
 10
15.9945
 20
102.9959
 30
0.0
 10
15.9945
 20
102.9959
 30
0.0
 10
15.9945
 20
102.9959
 30
0.0
 10
15.9945
 20
104.4893
 30
0.0
 10
15.9945
 20
104.4893
 30
0.0
 10
15.9945
 20
104.4893
 30
0.0
 10
15.9945
 20
104.4893
 30
0.0
 10
20.8985
 20
104.5345
 30
0.0
 10
20.8985
 20
104.5345
 30
0.0
 10
20.8985
 20
104.5345
 30
0.0
 10
20.8985
 20
104.5345
 30
0.0
 10
20.8985
 20
94.0283
 30
0.0
 10
20.8985
 20
94.0283
 30
0.0
 10
20.8985
 20
94.0283
 30
0.0
 10
20.8985
 20
94.0283
 30
0.0
 10
15.9945
 20
94.0389
 30
0.0
 10
15.9945
 20
94.0389
 30
0.0
 10
15.9945
 20
94.0389
 30
0.0
 10
15.9945
 20
94.0389
 30
0.0
 10
15.9945
 20
95.7006
 30
0.0
 10
15.9945
 20
95.7006
 30
0.0
  0
SPLINE
  5
4B
330
1F
100
AcDbEntity
  8
layer 1
 62
     7
100
AcDbSpline
210
0.0
220
0.0
230
1.0
 70
    11
 71
     3
 72
    44
 73
    40
 74
     0
 42
0.0000000001
 43
0.0000000001
 12
1.0
 22
0.0
 32
0.0
 13
1.0
 23
0.0
 33
0.0
 40
0.0
 40
0.0
 40
0.0
 40
0.0
 40
0.0909090909090909
 40
0.0909090909090909
 40
0.0909090909090909
 40
0.0909090909090909
 40
0.1818181818181818
 40
0.1818181818181818
 40
0.1818181818181818
 40
0.1818181818181818
 40
0.2727272727272727
 40
0.2727272727272727
 40
0.2727272727272727
 40
0.2727272727272727
 40
0.3636363636363636
 40
0.3636363636363636
 40
0.3636363636363636
 40
0.3636363636363636
 40
0.4545454545454545
 40
0.4545454545454545
 40
0.4545454545454545
 40
0.4545454545454545
 40
0.5454545454545454
 40
0.5454545454545454
 40
0.5454545454545454
 40
0.5454545454545454
 40
0.6363636363636364
 40
0.6363636363636364
 40
0.6363636363636364
 40
0.6363636363636364
 40
0.7272727272727273
 40
0.7272727272727273
 40
0.7272727272727273
 40
0.7272727272727273
 40
0.8181818181818182
 40
0.8181818181818182
 40
0.8181818181818182
 40
0.8181818181818182
 40
1.0
 40
1.0
 40
1.0
 40
1.0
 10
-10.4122
 20
61.7631
 30
0.0
 10
-10.4122
 20
61.7631
 30
0.0
 10
-14.0638
 20
61.776
 30
0.0
 10
-14.0638
 20
61.776
 30
0.0
 10
-14.0638
 20
61.776
 30
0.0
 10
-14.0638
 20
61.776
 30
0.0
 10
-14.0638
 20
69.0584
 30
0.0
 10
-14.0638
 20
69.0584
 30
0.0
 10
-14.0638
 20
69.0584
 30
0.0
 10
-14.0638
 20
69.0584
 30
0.0
 10
-10.526
 20
69.0584
 30
0.0
 10
-10.526
 20
69.0584
 30
0.0
 10
-10.526
 20
69.0584
 30
0.0
 10
-10.526
 20
69.0584
 30
0.0
 10
-1.4367
 20
75.7055
 30
0.0
 10
-1.4367
 20
75.7055
 30
0.0
 10
-1.4367
 20
75.7055
 30
0.0
 10
-1.4367
 20
75.7055
 30
0.0
 10
7.6525
 20
69.0584
 30
0.0
 10
7.6525
 20
69.0584
 30
0.0
 10
7.6525
 20
69.0584
 30
0.0
 10
7.6525
 20
69.0584
 30
0.0
 10
11.1903
 20
69.0584
 30
0.0
 10
11.1903
 20
69.0584
 30
0.0
 10
11.1903
 20
69.0584
 30
0.0
 10
11.1903
 20
69.0584
 30
0.0
 10
11.1903
 20
61.776
 30
0.0
 10
11.1903
 20
61.776
 30
0.0
 10
11.1903
 20
61.776
 30
0.0
 10
11.1903
 20
61.776
 30
0.0
 10
7.5387
 20
61.7631
 30
0.0
 10
7.5387
 20
61.7631
 30
0.0
 10
7.5387
 20
61.7631
 30
0.0
 10
7.5387
 20
61.7631
 30
0.0
 10
-1.4369
 20
55.255
 30
0.0
 10
-1.4369
 20
55.255
 30
0.0
 10
-1.4369
 20
55.255
 30
0.0
 10
-1.4369
 20
55.255
 30
0.0
 10
-10.4122
 20
61.7631
 30
0.0
 10
-10.4122
 20
61.7631
 30
0.0
  0
SPLINE
  5
4C
330
1F
100
AcDbEntity
  8
layer 1
 62
     7
100
AcDbSpline
210
0.0
220
0.0
230
1.0
 70
    11
 71
     3
 72
    32
 73
    28
 74
     0
 42
0.0000000001
 43
0.0000000001
 12
1.0
 22
0.0
 32
0.0
 13
1.0
 23
0.0
 33
0.0
 40
0.0
 40
0.0
 40
0.0
 40
0.0
 40
0.125
 40
0.125
 40
0.125
 40
0.125
 40
0.25
 40
0.25
 40
0.25
 40
0.25
 40
0.375
 40
0.375
 40
0.375
 40
0.375
 40
0.5
 40
0.5
 40
0.5
 40
0.5
 40
0.625
 40
0.625
 40
0.625
 40
0.625
 40
0.75
 40
0.75
 40
0.75
 40
0.75
 40
1.0
 40
1.0
 40
1.0
 40
1.0
 10
-24.0328
 20
73.6153
 30
0.0
 10
-24.0328
 20
73.6153
 30
0.0
 10
-24.0328
 20
90.7043
 30
0.0
 10
-24.0328
 20
90.7043
 30
0.0
 10
-24.0328
 20
90.7043
 30
0.0
 10
-24.0328
 20
90.7043
 30
0.0
 10
-19.4732
 20
90.7043
 30
0.0
 10
-19.4732
 20
90.7043
 30
0.0
 10
-19.4732
 20
90.7043
 30
0.0
 10
-19.4732
 20
90.7043
 30
0.0
 10
-19.3679
 20
88.8056
 30
0.0
 10
-19.3679
 20
88.8056
 30
0.0
 10
-19.3679
 20
88.8056
 30
0.0
 10
-19.3679
 20
88.8056
 30
0.0
 10
-10.4121
 20
82.2613
 30
0.0
 10
-10.4121
 20
82.2613
 30
0.0
 10
-10.4121
 20
82.2613
 30
0.0
 10
-10.4121
 20
82.2613
 30
0.0
 10
-19.3137
 20
75.3686
 30
0.0
 10
-19.3137
 20
75.3686
 30
0.0
 10
-19.3137
 20
75.3686
 30
0.0
 10
-19.3137
 20
75.3686
 30
0.0
 10
-19.3556
 20
73.6153
 30
0.0
 10
-19.3556
 20
73.6153
 30
0.0
 10
-19.3556
 20
73.6153
 30
0.0
 10
-19.3556
 20
73.6153
 30
0.0
 10
-24.0328
 20
73.6153
 30
0.0
 10
-24.0328
 20
73.6153
 30
0.0
  0
SPLINE
  5
4D
330
1F
100
AcDbEntity
  8
layer 1
 62
     7
100
AcDbSpline
210
0.0
220
0.0
230
1.0
 70
    11
 71
     3
 72
    28
 73
    24
 74
     0
 42
0.0000000001
 43
0.0000000001
 12
1.0
 22
0.0
 32
0.0
 13
1.0
 23
0.0
 33
0.0
 40
0.0
 40
0.0
 40
0.0
 40
0.0
 40
0.1428571428571428
 40
0.1428571428571428
 40
0.1428571428571428
 40
0.1428571428571428
 40
0.2857142857142857
 40
0.2857142857142857
 40
0.2857142857142857
 40
0.2857142857142857
 40
0.4285714285714285
 40
0.4285714285714285
 40
0.4285714285714285
 40
0.4285714285714285
 40
0.5714285714285714
 40
0.5714285714285714
 40
0.5714285714285714
 40
0.5714285714285714
 40
0.7142857142857143
 40
0.7142857142857143
 40
0.7142857142857143
 40
0.7142857142857143
 40
1.0
 40
1.0
 40
1.0
 40
1.0
 10
-7.6088
 20
84.1291
 30
0.0
 10
-7.6088
 20
84.1291
 30
0.0
 10
-14.7806
 20
89.8002
 30
0.0
 10
-14.7806
 20
89.8002
 30
0.0
 10
-14.7806
 20
89.8002
 30
0.0
 10
-14.7806
 20
89.8002
 30
0.0
 10
-14.7958
 20
91.9088
 30
0.0
 10
-14.7958
 20
91.9088
 30
0.0
 10
-14.7958
 20
91.9088
 30
0.0
 10
-14.7958
 20
91.9088
 30
0.0
 10
-11.2863
 20
91.9088
 30
0.0
 10
-11.2863
 20
91.9088
 30
0.0
 10
-11.2863
 20
91.9088
 30
0.0
 10
-11.2863
 20
91.9088
 30
0.0
 10
-4.0198
 20
86.3719
 30
0.0
 10
-4.0198
 20
86.3719
 30
0.0
 10
-4.0198
 20
86.3719
 30
0.0
 10
-4.0198
 20
86.3719
 30
0.0
 10
-3.9986
 20
84.1441
 30
0.0
 10
-3.9986
 20
84.1441
 30
0.0
 10
-3.9986
 20
84.1441
 30
0.0
 10
-3.9986
 20
84.1441
 30
0.0
 10
-7.6088
 20
84.1291
 30
0.0
 10
-7.6088
 20
84.1291
 30
0.0
  0
SPLINE
  5
4E
330
1F
100
AcDbEntity
  8
layer 1
 62
     7
100
AcDbSpline
210
0.0
220
0.0
230
1.0
 70
    11
 71
     3
 72
    28
 73
    24
 74
     0
 42
0.0000000001
 43
0.0000000001
 12
1.0
 22
0.0
 32
0.0
 13
1.0
 23
0.0
 33
0.0
 40
0.0
 40
0.0
 40
0.0
 40
0.0
 40
0.1428571428571428
 40
0.1428571428571428
 40
0.1428571428571428
 40
0.1428571428571428
 40
0.2857142857142857
 40
0.2857142857142857
 40
0.2857142857142857
 40
0.2857142857142857
 40
0.4285714285714285
 40
0.4285714285714285
 40
0.4285714285714285
 40
0.4285714285714285
 40
0.5714285714285714
 40
0.5714285714285714
 40
0.5714285714285714
 40
0.5714285714285714
 40
0.7142857142857143
 40
0.7142857142857143
 40
0.7142857142857143
 40
0.7142857142857143
 40
1.0
 40
1.0
 40
1.0
 40
1.0
 10
-7.6088
 20
80.3539
 30
0.0
 10
-7.6088
 20
80.3539
 30
0.0
 10
-14.7806
 20
74.6828
 30
0.0
 10
-14.7806
 20
74.6828
 30
0.0
 10
-14.7806
 20
74.6828
 30
0.0
 10
-14.7806
 20
74.6828
 30
0.0
 10
-14.7958
 20
72.5742
 30
0.0
 10
-14.7958
 20
72.5742
 30
0.0
 10
-14.7958
 20
72.5742
 30
0.0
 10
-14.7958
 20
72.5742
 30
0.0
 10
-11.2863
 20
72.5742
 30
0.0
 10
-11.2863
 20
72.5742
 30
0.0
 10
-11.2863
 20
72.5742
 30
0.0
 10
-11.2863
 20
72.5742
 30
0.0
 10
-4.0198
 20
78.111
 30
0.0
 10
-4.0198
 20
78.111
 30
0.0
 10
-4.0198
 20
78.111
 30
0.0
 10
-4.0198
 20
78.111
 30
0.0
 10
-3.9986
 20
80.3389
 30
0.0
 10
-3.9986
 20
80.3389
 30
0.0
 10
-3.9986
 20
80.3389
 30
0.0
 10
-3.9986
 20
80.3389
 30
0.0
 10
-7.6088
 20
80.3539
 30
0.0
 10
-7.6088
 20
80.3539
 30
0.0
  0
SPLINE
  5
4F
330
1F
100
AcDbEntity
  8
layer 1
 62
     7
100
AcDbSpline
210
0.0
220
0.0
230
1.0
 70
    11
 71
     3
 72
    32
 73
    28
 74
     0
 42
0.0000000001
 43
0.0000000001
 12
1.0
 22
0.0
 32
0.0
 13
1.0
 23
0.0
 33
0.0
 40
0.0
 40
0.0
 40
0.0
 40
0.0
 40
0.125
 40
0.125
 40
0.125
 40
0.125
 40
0.25
 40
0.25
 40
0.25
 40
0.25
 40
0.375
 40
0.375
 40
0.375
 40
0.375
 40
0.5
 40
0.5
 40
0.5
 40
0.5
 40
0.625
 40
0.625
 40
0.625
 40
0.625
 40
0.75
 40
0.75
 40
0.75
 40
0.75
 40
1.0
 40
1.0
 40
1.0
 40
1.0
 10
20.8471
 20
73.6153
 30
0.0
 10
20.8471
 20
73.6153
 30
0.0
 10
20.8471
 20
90.7043
 30
0.0
 10
20.8471
 20
90.7043
 30
0.0
 10
20.8471
 20
90.7043
 30
0.0
 10
20.8471
 20
90.7043
 30
0.0
 10
16.2876
 20
90.7043
 30
0.0
 10
16.2876
 20
90.7043
 30
0.0
 10
16.2876
 20
90.7043
 30
0.0
 10
16.2876
 20
90.7043
 30
0.0
 10
16.1823
 20
88.8056
 30
0.0
 10
16.1823
 20
88.8056
 30
0.0
 10
16.1823
 20
88.8056
 30
0.0
 10
16.1823
 20
88.8056
 30
0.0
 10
7.2264
 20
82.2613
 30
0.0
 10
7.2264
 20
82.2613
 30
0.0
 10
7.2264
 20
82.2613
 30
0.0
 10
7.2264
 20
82.2613
 30
0.0
 10
16.1281
 20
75.3686
 30
0.0
 10
16.1281
 20
75.3686
 30
0.0
 10
16.1281
 20
75.3686
 30
0.0
 10
16.1281
 20
75.3686
 30
0.0
 10
16.1699
 20
73.6153
 30
0.0
 10
16.1699
 20
73.6153
 30
0.0
 10
16.1699
 20
73.6153
 30
0.0
 10
16.1699
 20
73.6153
 30
0.0
 10
20.8471
 20
73.6153
 30
0.0
 10
20.8471
 20
73.6153
 30
0.0
  0
SPLINE
  5
50
330
1F
100
AcDbEntity
  8
layer 1
 62
     7
100
AcDbSpline
210
0.0
220
0.0
230
1.0
 70
    11
 71
     3
 72
    28
 73
    24
 74
     0
 42
0.0000000001
 43
0.0000000001
 12
1.0
 22
0.0
 32
0.0
 13
1.0
 23
0.0
 33
0.0
 40
0.0
 40
0.0
 40
0.0
 40
0.0
 40
0.1428571428571428
 40
0.1428571428571428
 40
0.1428571428571428
 40
0.1428571428571428
 40
0.2857142857142857
 40
0.2857142857142857
 40
0.2857142857142857
 40
0.2857142857142857
 40
0.4285714285714285
 40
0.4285714285714285
 40
0.4285714285714285
 40
0.4285714285714285
 40
0.5714285714285714
 40
0.5714285714285714
 40
0.5714285714285714
 40
0.5714285714285714
 40
0.7142857142857143
 40
0.7142857142857143
 40
0.7142857142857143
 40
0.7142857142857143
 40
1.0
 40
1.0
 40
1.0
 40
1.0
 10
4.4232
 20
84.1291
 30
0.0
 10
4.4232
 20
84.1291
 30
0.0
 10
11.595
 20
89.8002
 30
0.0
 10
11.595
 20
89.8002
 30
0.0
 10
11.595
 20
89.8002
 30
0.0
 10
11.595
 20
89.8002
 30
0.0
 10
11.6102
 20
91.9088
 30
0.0
 10
11.6102
 20
91.9088
 30
0.0
 10
11.6102
 20
91.9088
 30
0.0
 10
11.6102
 20
91.9088
 30
0.0
 10
8.1007
 20
91.9088
 30
0.0
 10
8.1007
 20
91.9088
 30
0.0
 10
8.1007
 20
91.9088
 30
0.0
 10
8.1007
 20
91.9088
 30
0.0
 10
0.8342
 20
86.3719
 30
0.0
 10
0.8342
 20
86.3719
 30
0.0
 10
0.8342
 20
86.3719
 30
0.0
 10
0.8342
 20
86.3719
 30
0.0
 10
0.813
 20
84.1441
 30
0.0
 10
0.813
 20
84.1441
 30
0.0
 10
0.813
 20
84.1441
 30
0.0
 10
0.813
 20
84.1441
 30
0.0
 10
4.4232
 20
84.1291
 30
0.0
 10
4.4232
 20
84.1291
 30
0.0
  0
SPLINE
  5
51
330
1F
100
AcDbEntity
  8
layer 1
 62
     7
100
AcDbSpline
210
0.0
220
0.0
230
1.0
 70
    11
 71
     3
 72
    28
 73
    24
 74
     0
 42
0.0000000001
 43
0.0000000001
 12
1.0
 22
0.0
 32
0.0
 13
1.0
 23
0.0
 33
0.0
 40
0.0
 40
0.0
 40
0.0
 40
0.0
 40
0.1428571428571428
 40
0.1428571428571428
 40
0.1428571428571428
 40
0.1428571428571428
 40
0.2857142857142857
 40
0.2857142857142857
 40
0.2857142857142857
 40
0.2857142857142857
 40
0.4285714285714285
 40
0.4285714285714285
 40
0.4285714285714285
 40
0.4285714285714285
 40
0.5714285714285714
 40
0.5714285714285714
 40
0.5714285714285714
 40
0.5714285714285714
 40
0.7142857142857143
 40
0.7142857142857143
 40
0.7142857142857143
 40
0.7142857142857143
 40
1.0
 40
1.0
 40
1.0
 40
1.0
 10
4.4232
 20
80.3539
 30
0.0
 10
4.4232
 20
80.3539
 30
0.0
 10
11.595
 20
74.6828
 30
0.0
 10
11.595
 20
74.6828
 30
0.0
 10
11.595
 20
74.6828
 30
0.0
 10
11.595
 20
74.6828
 30
0.0
 10
11.6102
 20
72.5742
 30
0.0
 10
11.6102
 20
72.5742
 30
0.0
 10
11.6102
 20
72.5742
 30
0.0
 10
11.6102
 20
72.5742
 30
0.0
 10
8.1007
 20
72.5742
 30
0.0
 10
8.1007
 20
72.5742
 30
0.0
 10
8.1007
 20
72.5742
 30
0.0
 10
8.1007
 20
72.5742
 30
0.0
 10
0.8342
 20
78.111
 30
0.0
 10
0.8342
 20
78.111
 30
0.0
 10
0.8342
 20
78.111
 30
0.0
 10
0.8342
 20
78.111
 30
0.0
 10
0.813
 20
80.3389
 30
0.0
 10
0.813
 20
80.3389
 30
0.0
 10
0.813
 20
80.3389
 30
0.0
 10
0.813
 20
80.3389
 30
0.0
 10
4.4232
 20
80.3539
 30
0.0
 10
4.4232
 20
80.3539
 30
0.0
  0
SPLINE
  5
52
330
1F
100
AcDbEntity
  8
layer 1
 62
     7
100
AcDbSpline
210
0.0
220
0.0
230
1.0
 70
    11
 71
     3
 72
    36
 73
    32
 74
     0
 42
0.0000000001
 43
0.0000000001
 12
1.0
 22
0.0
 32
0.0
 13
1.0
 23
0.0
 33
0.0
 40
0.0
 40
0.0
 40
0.0
 40
0.0
 40
0.1111111111111111
 40
0.1111111111111111
 40
0.1111111111111111
 40
0.1111111111111111
 40
0.2222222222222222
 40
0.2222222222222222
 40
0.2222222222222222
 40
0.2222222222222222
 40
0.3333333333333333
 40
0.3333333333333333
 40
0.3333333333333333
 40
0.3333333333333333
 40
0.4444444444444444
 40
0.4444444444444444
 40
0.4444444444444444
 40
0.4444444444444444
 40
0.5555555555555556
 40
0.5555555555555556
 40
0.5555555555555556
 40
0.5555555555555556
 40
0.6666666666666666
 40
0.6666666666666666
 40
0.6666666666666666
 40
0.6666666666666666
 40
0.7777777777777778
 40
0.7777777777777778
 40
0.7777777777777778
 40
0.7777777777777778
 40
1.0
 40
1.0
 40
1.0
 40
1.0
 10
-19.1287
 20
61.9173
 30
0.0
 10
-19.1287
 20
61.9173
 30
0.0
 10
-17.4945
 20
61.9302
 30
0.0
 10
-17.4945
 20
61.9302
 30
0.0
 10
-17.4945
 20
61.9302
 30
0.0
 10
-17.4945
 20
61.9302
 30
0.0
 10
-17.4945
 20
69.2126
 30
0.0
 10
-17.4945
 20
69.2126
 30
0.0
 10
-17.4945
 20
69.2126
 30
0.0
 10
-17.4945
 20
69.2126
 30
0.0
 10
-19.1287
 20
69.2126
 30
0.0
 10
-19.1287
 20
69.2126
 30
0.0
 10
-19.1287
 20
69.2126
 30
0.0
 10
-19.1287
 20
69.2126
 30
0.0
 10
-19.1287
 20
70.706
 30
0.0
 10
-19.1287
 20
70.706
 30
0.0
 10
-19.1287
 20
70.706
 30
0.0
 10
-19.1287
 20
70.706
 30
0.0
 10
-24.0328
 20
70.7513
 30
0.0
 10
-24.0328
 20
70.7513
 30
0.0
 10
-24.0328
 20
70.7513
 30
0.0
 10
-24.0328
 20
70.7513
 30
0.0
 10
-24.0328
 20
60.245
 30
0.0
 10
-24.0328
 20
60.245
 30
0.0
 10
-24.0328
 20
60.245
 30
0.0
 10
-24.0328
 20
60.245
 30
0.0
 10
-19.1287
 20
60.2556
 30
0.0
 10
-19.1287
 20
60.2556
 30
0.0
 10
-19.1287
 20
60.2556
 30
0.0
 10
-19.1287
 20
60.2556
 30
0.0
 10
-19.1287
 20
61.9173
 30
0.0
 10
-19.1287
 20
61.9173
 30
0.0
  0
SPLINE
  5
53
330
1F
100
AcDbEntity
  8
layer 1
 62
     7
100
AcDbSpline
210
0.0
220
0.0
230
1.0
 70
    11
 71
     3
 72
    36
 73
    32
 74
     0
 42
0.0000000001
 43
0.0000000001
 12
1.0
 22
0.0
 32
0.0
 13
1.0
 23
0.0
 33
0.0
 40
0.0
 40
0.0
 40
0.0
 40
0.0
 40
0.1111111111111111
 40
0.1111111111111111
 40
0.1111111111111111
 40
0.1111111111111111
 40
0.2222222222222222
 40
0.2222222222222222
 40
0.2222222222222222
 40
0.2222222222222222
 40
0.3333333333333333
 40
0.3333333333333333
 40
0.3333333333333333
 40
0.3333333333333333
 40
0.4444444444444444
 40
0.4444444444444444
 40
0.4444444444444444
 40
0.4444444444444444
 40
0.5555555555555556
 40
0.5555555555555556
 40
0.5555555555555556
 40
0.5555555555555556
 40
0.6666666666666666
 40
0.6666666666666666
 40
0.6666666666666666
 40
0.6666666666666666
 40
0.7777777777777778
 40
0.7777777777777778
 40
0.7777777777777778
 40
0.7777777777777778
 40
1.0
 40
1.0
 40
1.0
 40
1.0
 10
15.9945
 20
61.9173
 30
0.0
 10
15.9945
 20
61.9173
 30
0.0
 10
14.3602
 20
61.9302
 30
0.0
 10
14.3602
 20
61.9302
 30
0.0
 10
14.3602
 20
61.9302
 30
0.0
 10
14.3602
 20
61.9302
 30
0.0
 10
14.3602
 20
69.2126
 30
0.0
 10
14.3602
 20
69.2126
 30
0.0
 10
14.3602
 20
69.2126
 30
0.0
 10
14.3602
 20
69.2126
 30
0.0
 10
15.9945
 20
69.2126
 30
0.0
 10
15.9945
 20
69.2126
 30
0.0
 10
15.9945
 20
69.2126
 30
0.0
 10
15.9945
 20
69.2126
 30
0.0
 10
15.9945
 20
70.706
 30
0.0
 10
15.9945
 20
70.706
 30
0.0
 10
15.9945
 20
70.706
 30
0.0
 10
15.9945
 20
70.706
 30
0.0
 10
20.8985
 20
70.7513
 30
0.0
 10
20.8985
 20
70.7513
 30
0.0
 10
20.8985
 20
70.7513
 30
0.0
 10
20.8985
 20
70.7513
 30
0.0
 10
20.8985
 20
60.245
 30
0.0
 10
20.8985
 20
60.245
 30
0.0
 10
20.8985
 20
60.245
 30
0.0
 10
20.8985
 20
60.245
 30
0.0
 10
15.9945
 20
60.2556
 30
0.0
 10
15.9945
 20
60.2556
 30
0.0
 10
15.9945
 20
60.2556
 30
0.0
 10
15.9945
 20
60.2556
 30
0.0
 10
15.9945
 20
61.9173
 30
0.0
 10
15.9945
 20
61.9173
 30
0.0
  0
SPLINE
  5
54
330
1F
100
AcDbEntity
  8
layer 1
 62
     7
100
AcDbSpline
210
0.0
220
0.0
230
1.0
 70
    11
 71
     3
 72
    44
 73
    40
 74
     0
 42
0.0000000001
 43
0.0000000001
 12
1.0
 22
0.0
 32
0.0
 13
1.0
 23
0.0
 33
0.0
 40
0.0
 40
0.0
 40
0.0
 40
0.0
 40
0.0909090909090909
 40
0.0909090909090909
 40
0.0909090909090909
 40
0.0909090909090909
 40
0.1818181818181818
 40
0.1818181818181818
 40
0.1818181818181818
 40
0.1818181818181818
 40
0.2727272727272727
 40
0.2727272727272727
 40
0.2727272727272727
 40
0.2727272727272727
 40
0.3636363636363636
 40
0.3636363636363636
 40
0.3636363636363636
 40
0.3636363636363636
 40
0.4545454545454545
 40
0.4545454545454545
 40
0.4545454545454545
 40
0.4545454545454545
 40
0.5454545454545454
 40
0.5454545454545454
 40
0.5454545454545454
 40
0.5454545454545454
 40
0.6363636363636364
 40
0.6363636363636364
 40
0.6363636363636364
 40
0.6363636363636364
 40
0.7272727272727273
 40
0.7272727272727273
 40
0.7272727272727273
 40
0.7272727272727273
 40
0.8181818181818182
 40
0.8181818181818182
 40
0.8181818181818182
 40
0.8181818181818182
 40
1.0
 40
1.0
 40
1.0
 40
1.0
 10
-10.4122
 20
27.9798
 30
0.0
 10
-10.4122
 20
27.9798
 30
0.0
 10
-14.0638
 20
27.9927
 30
0.0
 10
-14.0638
 20
27.9927
 30
0.0
 10
-14.0638
 20
27.9927
 30
0.0
 10
-14.0638
 20
27.9927
 30
0.0
 10
-14.0638
 20
35.2751
 30
0.0
 10
-14.0638
 20
35.2751
 30
0.0
 10
-14.0638
 20
35.2751
 30
0.0
 10
-14.0638
 20
35.2751
 30
0.0
 10
-10.526
 20
35.2751
 30
0.0
 10
-10.526
 20
35.2751
 30
0.0
 10
-10.526
 20
35.2751
 30
0.0
 10
-10.526
 20
35.2751
 30
0.0
 10
-1.4367
 20
41.9222
 30
0.0
 10
-1.4367
 20
41.9222
 30
0.0
 10
-1.4367
 20
41.9222
 30
0.0
 10
-1.4367
 20
41.9222
 30
0.0
 10
7.6525
 20
35.2751
 30
0.0
 10
7.6525
 20
35.2751
 30
0.0
 10
7.6525
 20
35.2751
 30
0.0
 10
7.6525
 20
35.2751
 30
0.0
 10
11.1903
 20
35.2751
 30
0.0
 10
11.1903
 20
35.2751
 30
0.0
 10
11.1903
 20
35.2751
 30
0.0
 10
11.1903
 20
35.2751
 30
0.0
 10
11.1903
 20
27.9927
 30
0.0
 10
11.1903
 20
27.9927
 30
0.0
 10
11.1903
 20
27.9927
 30
0.0
 10
11.1903
 20
27.9927
 30
0.0
 10
7.5387
 20
27.9798
 30
0.0
 10
7.5387
 20
27.9798
 30
0.0
 10
7.5387
 20
27.9798
 30
0.0
 10
7.5387
 20
27.9798
 30
0.0
 10
-1.4369
 20
21.4717
 30
0.0
 10
-1.4369
 20
21.4717
 30
0.0
 10
-1.4369
 20
21.4717
 30
0.0
 10
-1.4369
 20
21.4717
 30
0.0
 10
-10.4122
 20
27.9798
 30
0.0
 10
-10.4122
 20
27.9798
 30
0.0
  0
SPLINE
  5
55
330
1F
100
AcDbEntity
  8
layer 1
 62
     7
100
AcDbSpline
210
0.0
220
0.0
230
1.0
 70
    11
 71
     3
 72
    32
 73
    28
 74
     0
 42
0.0000000001
 43
0.0000000001
 12
1.0
 22
0.0
 32
0.0
 13
1.0
 23
0.0
 33
0.0
 40
0.0
 40
0.0
 40
0.0
 40
0.0
 40
0.125
 40
0.125
 40
0.125
 40
0.125
 40
0.25
 40
0.25
 40
0.25
 40
0.25
 40
0.375
 40
0.375
 40
0.375
 40
0.375
 40
0.5
 40
0.5
 40
0.5
 40
0.5
 40
0.625
 40
0.625
 40
0.625
 40
0.625
 40
0.75
 40
0.75
 40
0.75
 40
0.75
 40
1.0
 40
1.0
 40
1.0
 40
1.0
 10
-24.0328
 20
39.832
 30
0.0
 10
-24.0328
 20
39.832
 30
0.0
 10
-24.0328
 20
56.921
 30
0.0
 10
-24.0328
 20
56.921
 30
0.0
 10
-24.0328
 20
56.921
 30
0.0
 10
-24.0328
 20
56.921
 30
0.0
 10
-19.4732
 20
56.921
 30
0.0
 10
-19.4732
 20
56.921
 30
0.0
 10
-19.4732
 20
56.921
 30
0.0
 10
-19.4732
 20
56.921
 30
0.0
 10
-19.3679
 20
55.0223
 30
0.0
 10
-19.3679
 20
55.0223
 30
0.0
 10
-19.3679
 20
55.0223
 30
0.0
 10
-19.3679
 20
55.0223
 30
0.0
 10
-10.4121
 20
48.478
 30
0.0
 10
-10.4121
 20
48.478
 30
0.0
 10
-10.4121
 20
48.478
 30
0.0
 10
-10.4121
 20
48.478
 30
0.0
 10
-19.3137
 20
41.5853
 30
0.0
 10
-19.3137
 20
41.5853
 30
0.0
 10
-19.3137
 20
41.5853
 30
0.0
 10
-19.3137
 20
41.5853
 30
0.0
 10
-19.3556
 20
39.832
 30
0.0
 10
-19.3556
 20
39.832
 30
0.0
 10
-19.3556
 20
39.832
 30
0.0
 10
-19.3556
 20
39.832
 30
0.0
 10
-24.0328
 20
39.832
 30
0.0
 10
-24.0328
 20
39.832
 30
0.0
  0
SPLINE
  5
56
330
1F
100
AcDbEntity
  8
layer 1
 62
     7
100
AcDbSpline
210
0.0
220
0.0
230
1.0
 70
    11
 71
     3
 72
    28
 73
    24
 74
     0
 42
0.0000000001
 43
0.0000000001
 12
1.0
 22
0.0
 32
0.0
 13
1.0
 23
0.0
 33
0.0
 40
0.0
 40
0.0
 40
0.0
 40
0.0
 40
0.1428571428571428
 40
0.1428571428571428
 40
0.1428571428571428
 40
0.1428571428571428
 40
0.2857142857142857
 40
0.2857142857142857
 40
0.2857142857142857
 40
0.2857142857142857
 40
0.4285714285714285
 40
0.4285714285714285
 40
0.4285714285714285
 40
0.4285714285714285
 40
0.5714285714285714
 40
0.5714285714285714
 40
0.5714285714285714
 40
0.5714285714285714
 40
0.7142857142857143
 40
0.7142857142857143
 40
0.7142857142857143
 40
0.7142857142857143
 40
1.0
 40
1.0
 40
1.0
 40
1.0
 10
-7.6088
 20
50.3458
 30
0.0
 10
-7.6088
 20
50.3458
 30
0.0
 10
-14.7806
 20
56.0169
 30
0.0
 10
-14.7806
 20
56.0169
 30
0.0
 10
-14.7806
 20
56.0169
 30
0.0
 10
-14.7806
 20
56.0169
 30
0.0
 10
-14.7958
 20
58.1255
 30
0.0
 10
-14.7958
 20
58.1255
 30
0.0
 10
-14.7958
 20
58.1255
 30
0.0
 10
-14.7958
 20
58.1255
 30
0.0
 10
-11.2863
 20
58.1255
 30
0.0
 10
-11.2863
 20
58.1255
 30
0.0
 10
-11.2863
 20
58.1255
 30
0.0
 10
-11.2863
 20
58.1255
 30
0.0
 10
-4.0198
 20
52.5887
 30
0.0
 10
-4.0198
 20
52.5887
 30
0.0
 10
-4.0198
 20
52.5887
 30
0.0
 10
-4.0198
 20
52.5887
 30
0.0
 10
-3.9986
 20
50.3608
 30
0.0
 10
-3.9986
 20
50.3608
 30
0.0
 10
-3.9986
 20
50.3608
 30
0.0
 10
-3.9986
 20
50.3608
 30
0.0
 10
-7.6088
 20
50.3458
 30
0.0
 10
-7.6088
 20
50.3458
 30
0.0
  0
SPLINE
  5
57
330
1F
100
AcDbEntity
  8
layer 1
 62
     7
100
AcDbSpline
210
0.0
220
0.0
230
1.0
 70
    11
 71
     3
 72
    28
 73
    24
 74
     0
 42
0.0000000001
 43
0.0000000001
 12
1.0
 22
0.0
 32
0.0
 13
1.0
 23
0.0
 33
0.0
 40
0.0
 40
0.0
 40
0.0
 40
0.0
 40
0.1428571428571428
 40
0.1428571428571428
 40
0.1428571428571428
 40
0.1428571428571428
 40
0.2857142857142857
 40
0.2857142857142857
 40
0.2857142857142857
 40
0.2857142857142857
 40
0.4285714285714285
 40
0.4285714285714285
 40
0.4285714285714285
 40
0.4285714285714285
 40
0.5714285714285714
 40
0.5714285714285714
 40
0.5714285714285714
 40
0.5714285714285714
 40
0.7142857142857143
 40
0.7142857142857143
 40
0.7142857142857143
 40
0.7142857142857143
 40
1.0
 40
1.0
 40
1.0
 40
1.0
 10
-7.6088
 20
46.5706
 30
0.0
 10
-7.6088
 20
46.5706
 30
0.0
 10
-14.7806
 20
40.8995
 30
0.0
 10
-14.7806
 20
40.8995
 30
0.0
 10
-14.7806
 20
40.8995
 30
0.0
 10
-14.7806
 20
40.8995
 30
0.0
 10
-14.7958
 20
38.7909
 30
0.0
 10
-14.7958
 20
38.7909
 30
0.0
 10
-14.7958
 20
38.7909
 30
0.0
 10
-14.7958
 20
38.7909
 30
0.0
 10
-11.2863
 20
38.7909
 30
0.0
 10
-11.2863
 20
38.7909
 30
0.0
 10
-11.2863
 20
38.7909
 30
0.0
 10
-11.2863
 20
38.7909
 30
0.0
 10
-4.0198
 20
44.3278
 30
0.0
 10
-4.0198
 20
44.3278
 30
0.0
 10
-4.0198
 20
44.3278
 30
0.0
 10
-4.0198
 20
44.3278
 30
0.0
 10
-3.9986
 20
46.5556
 30
0.0
 10
-3.9986
 20
46.5556
 30
0.0
 10
-3.9986
 20
46.5556
 30
0.0
 10
-3.9986
 20
46.5556
 30
0.0
 10
-7.6088
 20
46.5706
 30
0.0
 10
-7.6088
 20
46.5706
 30
0.0
  0
SPLINE
  5
58
330
1F
100
AcDbEntity
  8
layer 1
 62
     7
100
AcDbSpline
210
0.0
220
0.0
230
1.0
 70
    11
 71
     3
 72
    32
 73
    28
 74
     0
 42
0.0000000001
 43
0.0000000001
 12
1.0
 22
0.0
 32
0.0
 13
1.0
 23
0.0
 33
0.0
 40
0.0
 40
0.0
 40
0.0
 40
0.0
 40
0.125
 40
0.125
 40
0.125
 40
0.125
 40
0.25
 40
0.25
 40
0.25
 40
0.25
 40
0.375
 40
0.375
 40
0.375
 40
0.375
 40
0.5
 40
0.5
 40
0.5
 40
0.5
 40
0.625
 40
0.625
 40
0.625
 40
0.625
 40
0.75
 40
0.75
 40
0.75
 40
0.75
 40
1.0
 40
1.0
 40
1.0
 40
1.0
 10
20.8471
 20
39.832
 30
0.0
 10
20.8471
 20
39.832
 30
0.0
 10
20.8471
 20
56.921
 30
0.0
 10
20.8471
 20
56.921
 30
0.0
 10
20.8471
 20
56.921
 30
0.0
 10
20.8471
 20
56.921
 30
0.0
 10
16.2876
 20
56.921
 30
0.0
 10
16.2876
 20
56.921
 30
0.0
 10
16.2876
 20
56.921
 30
0.0
 10
16.2876
 20
56.921
 30
0.0
 10
16.1823
 20
55.0223
 30
0.0
 10
16.1823
 20
55.0223
 30
0.0
 10
16.1823
 20
55.0223
 30
0.0
 10
16.1823
 20
55.0223
 30
0.0
 10
7.2264
 20
48.478
 30
0.0
 10
7.2264
 20
48.478
 30
0.0
 10
7.2264
 20
48.478
 30
0.0
 10
7.2264
 20
48.478
 30
0.0
 10
16.1281
 20
41.5853
 30
0.0
 10
16.1281
 20
41.5853
 30
0.0
 10
16.1281
 20
41.5853
 30
0.0
 10
16.1281
 20
41.5853
 30
0.0
 10
16.1699
 20
39.832
 30
0.0
 10
16.1699
 20
39.832
 30
0.0
 10
16.1699
 20
39.832
 30
0.0
 10
16.1699
 20
39.832
 30
0.0
 10
20.8471
 20
39.832
 30
0.0
 10
20.8471
 20
39.832
 30
0.0
  0
SPLINE
  5
59
330
1F
100
AcDbEntity
  8
layer 1
 62
     7
100
AcDbSpline
210
0.0
220
0.0
230
1.0
 70
    11
 71
     3
 72
    28
 73
    24
 74
     0
 42
0.0000000001
 43
0.0000000001
 12
1.0
 22
0.0
 32
0.0
 13
1.0
 23
0.0
 33
0.0
 40
0.0
 40
0.0
 40
0.0
 40
0.0
 40
0.1428571428571428
 40
0.1428571428571428
 40
0.1428571428571428
 40
0.1428571428571428
 40
0.2857142857142857
 40
0.2857142857142857
 40
0.2857142857142857
 40
0.2857142857142857
 40
0.4285714285714285
 40
0.4285714285714285
 40
0.4285714285714285
 40
0.4285714285714285
 40
0.5714285714285714
 40
0.5714285714285714
 40
0.5714285714285714
 40
0.5714285714285714
 40
0.7142857142857143
 40
0.7142857142857143
 40
0.7142857142857143
 40
0.7142857142857143
 40
1.0
 40
1.0
 40
1.0
 40
1.0
 10
4.4232
 20
50.3458
 30
0.0
 10
4.4232
 20
50.3458
 30
0.0
 10
11.595
 20
56.0169
 30
0.0
 10
11.595
 20
56.0169
 30
0.0
 10
11.595
 20
56.0169
 30
0.0
 10
11.595
 20
56.0169
 30
0.0
 10
11.6102
 20
58.1255
 30
0.0
 10
11.6102
 20
58.1255
 30
0.0
 10
11.6102
 20
58.1255
 30
0.0
 10
11.6102
 20
58.1255
 30
0.0
 10
8.1007
 20
58.1255
 30
0.0
 10
8.1007
 20
58.1255
 30
0.0
 10
8.1007
 20
58.1255
 30
0.0
 10
8.1007
 20
58.1255
 30
0.0
 10
0.8342
 20
52.5887
 30
0.0
 10
0.8342
 20
52.5887
 30
0.0
 10
0.8342
 20
52.5887
 30
0.0
 10
0.8342
 20
52.5887
 30
0.0
 10
0.813
 20
50.3608
 30
0.0
 10
0.813
 20
50.3608
 30
0.0
 10
0.813
 20
50.3608
 30
0.0
 10
0.813
 20
50.3608
 30
0.0
 10
4.4232
 20
50.3458
 30
0.0
 10
4.4232
 20
50.3458
 30
0.0
  0
SPLINE
  5
5A
330
1F
100
AcDbEntity
  8
layer 1
 62
     7
100
AcDbSpline
210
0.0
220
0.0
230
1.0
 70
    11
 71
     3
 72
    28
 73
    24
 74
     0
 42
0.0000000001
 43
0.0000000001
 12
1.0
 22
0.0
 32
0.0
 13
1.0
 23
0.0
 33
0.0
 40
0.0
 40
0.0
 40
0.0
 40
0.0
 40
0.1428571428571428
 40
0.1428571428571428
 40
0.1428571428571428
 40
0.1428571428571428
 40
0.2857142857142857
 40
0.2857142857142857
 40
0.2857142857142857
 40
0.2857142857142857
 40
0.4285714285714285
 40
0.4285714285714285
 40
0.4285714285714285
 40
0.4285714285714285
 40
0.5714285714285714
 40
0.5714285714285714
 40
0.5714285714285714
 40
0.5714285714285714
 40
0.7142857142857143
 40
0.7142857142857143
 40
0.7142857142857143
 40
0.7142857142857143
 40
1.0
 40
1.0
 40
1.0
 40
1.0
 10
4.4232
 20
46.5706
 30
0.0
 10
4.4232
 20
46.5706
 30
0.0
 10
11.595
 20
40.8995
 30
0.0
 10
11.595
 20
40.8995
 30
0.0
 10
11.595
 20
40.8995
 30
0.0
 10
11.595
 20
40.8995
 30
0.0
 10
11.6102
 20
38.7909
 30
0.0
 10
11.6102
 20
38.7909
 30
0.0
 10
11.6102
 20
38.7909
 30
0.0
 10
11.6102
 20
38.7909
 30
0.0
 10
8.1007
 20
38.7909
 30
0.0
 10
8.1007
 20
38.7909
 30
0.0
 10
8.1007
 20
38.7909
 30
0.0
 10
8.1007
 20
38.7909
 30
0.0
 10
0.8342
 20
44.3278
 30
0.0
 10
0.8342
 20
44.3278
 30
0.0
 10
0.8342
 20
44.3278
 30
0.0
 10
0.8342
 20
44.3278
 30
0.0
 10
0.813
 20
46.5556
 30
0.0
 10
0.813
 20
46.5556
 30
0.0
 10
0.813
 20
46.5556
 30
0.0
 10
0.813
 20
46.5556
 30
0.0
 10
4.4232
 20
46.5706
 30
0.0
 10
4.4232
 20
46.5706
 30
0.0
  0
SPLINE
  5
5B
330
1F
100
AcDbEntity
  8
layer 1
 62
     7
100
AcDbSpline
210
0.0
220
0.0
230
1.0
 70
    11
 71
     3
 72
    36
 73
    32
 74
     0
 42
0.0000000001
 43
0.0000000001
 12
1.0
 22
0.0
 32
0.0
 13
1.0
 23
0.0
 33
0.0
 40
0.0
 40
0.0
 40
0.0
 40
0.0
 40
0.1111111111111111
 40
0.1111111111111111
 40
0.1111111111111111
 40
0.1111111111111111
 40
0.2222222222222222
 40
0.2222222222222222
 40
0.2222222222222222
 40
0.2222222222222222
 40
0.3333333333333333
 40
0.3333333333333333
 40
0.3333333333333333
 40
0.3333333333333333
 40
0.4444444444444444
 40
0.4444444444444444
 40
0.4444444444444444
 40
0.4444444444444444
 40
0.5555555555555556
 40
0.5555555555555556
 40
0.5555555555555556
 40
0.5555555555555556
 40
0.6666666666666666
 40
0.6666666666666666
 40
0.6666666666666666
 40
0.6666666666666666
 40
0.7777777777777778
 40
0.7777777777777778
 40
0.7777777777777778
 40
0.7777777777777778
 40
1.0
 40
1.0
 40
1.0
 40
1.0
 10
-19.1287
 20
28.134
 30
0.0
 10
-19.1287
 20
28.134
 30
0.0
 10
-17.4945
 20
28.1469
 30
0.0
 10
-17.4945
 20
28.1469
 30
0.0
 10
-17.4945
 20
28.1469
 30
0.0
 10
-17.4945
 20
28.1469
 30
0.0
 10
-17.4945
 20
35.4293
 30
0.0
 10
-17.4945
 20
35.4293
 30
0.0
 10
-17.4945
 20
35.4293
 30
0.0
 10
-17.4945
 20
35.4293
 30
0.0
 10
-19.1287
 20
35.4293
 30
0.0
 10
-19.1287
 20
35.4293
 30
0.0
 10
-19.1287
 20
35.4293
 30
0.0
 10
-19.1287
 20
35.4293
 30
0.0
 10
-19.1287
 20
36.9228
 30
0.0
 10
-19.1287
 20
36.9228
 30
0.0
 10
-19.1287
 20
36.9228
 30
0.0
 10
-19.1287
 20
36.9228
 30
0.0
 10
-24.0328
 20
36.968
 30
0.0
 10
-24.0328
 20
36.968
 30
0.0
 10
-24.0328
 20
36.968
 30
0.0
 10
-24.0328
 20
36.968
 30
0.0
 10
-24.0328
 20
26.4618
 30
0.0
 10
-24.0328
 20
26.4618
 30
0.0
 10
-24.0328
 20
26.4618
 30
0.0
 10
-24.0328
 20
26.4618
 30
0.0
 10
-19.1287
 20
26.4724
 30
0.0
 10
-19.1287
 20
26.4724
 30
0.0
 10
-19.1287
 20
26.4724
 30
0.0
 10
-19.1287
 20
26.4724
 30
0.0
 10
-19.1287
 20
28.134
 30
0.0
 10
-19.1287
 20
28.134
 30
0.0
  0
SPLINE
  5
5C
330
1F
100
AcDbEntity
  8
layer 1
 62
     7
100
AcDbSpline
210
0.0
220
0.0
230
1.0
 70
    11
 71
     3
 72
    36
 73
    32
 74
     0
 42
0.0000000001
 43
0.0000000001
 12
1.0
 22
0.0
 32
0.0
 13
1.0
 23
0.0
 33
0.0
 40
0.0
 40
0.0
 40
0.0
 40
0.0
 40
0.1111111111111111
 40
0.1111111111111111
 40
0.1111111111111111
 40
0.1111111111111111
 40
0.2222222222222222
 40
0.2222222222222222
 40
0.2222222222222222
 40
0.2222222222222222
 40
0.3333333333333333
 40
0.3333333333333333
 40
0.3333333333333333
 40
0.3333333333333333
 40
0.4444444444444444
 40
0.4444444444444444
 40
0.4444444444444444
 40
0.4444444444444444
 40
0.5555555555555556
 40
0.5555555555555556
 40
0.5555555555555556
 40
0.5555555555555556
 40
0.6666666666666666
 40
0.6666666666666666
 40
0.6666666666666666
 40
0.6666666666666666
 40
0.7777777777777778
 40
0.7777777777777778
 40
0.7777777777777778
 40
0.7777777777777778
 40
1.0
 40
1.0
 40
1.0
 40
1.0
 10
15.9945
 20
28.134
 30
0.0
 10
15.9945
 20
28.134
 30
0.0
 10
14.3602
 20
28.1469
 30
0.0
 10
14.3602
 20
28.1469
 30
0.0
 10
14.3602
 20
28.1469
 30
0.0
 10
14.3602
 20
28.1469
 30
0.0
 10
14.3602
 20
35.4293
 30
0.0
 10
14.3602
 20
35.4293
 30
0.0
 10
14.3602
 20
35.4293
 30
0.0
 10
14.3602
 20
35.4293
 30
0.0
 10
15.9945
 20
35.4293
 30
0.0
 10
15.9945
 20
35.4293
 30
0.0
 10
15.9945
 20
35.4293
 30
0.0
 10
15.9945
 20
35.4293
 30
0.0
 10
15.9945
 20
36.9228
 30
0.0
 10
15.9945
 20
36.9228
 30
0.0
 10
15.9945
 20
36.9228
 30
0.0
 10
15.9945
 20
36.9228
 30
0.0
 10
20.8985
 20
36.968
 30
0.0
 10
20.8985
 20
36.968
 30
0.0
 10
20.8985
 20
36.968
 30
0.0
 10
20.8985
 20
36.968
 30
0.0
 10
20.8985
 20
26.4618
 30
0.0
 10
20.8985
 20
26.4618
 30
0.0
 10
20.8985
 20
26.4618
 30
0.0
 10
20.8985
 20
26.4618
 30
0.0
 10
15.9945
 20
26.4724
 30
0.0
 10
15.9945
 20
26.4724
 30
0.0
 10
15.9945
 20
26.4724
 30
0.0
 10
15.9945
 20
26.4724
 30
0.0
 10
15.9945
 20
28.134
 30
0.0
 10
15.9945
 20
28.134
 30
0.0
  0
SPLINE
  5
5D
330
1F
100
AcDbEntity
  8
layer 1
 62
     7
100
AcDbSpline
210
0.0
220
0.0
230
1.0
 70
    11
 71
     3
 72
    44
 73
    40
 74
     0
 42
0.0000000001
 43
0.0000000001
 12
1.0
 22
0.0
 32
0.0
 13
1.0
 23
0.0
 33
0.0
 40
0.0
 40
0.0
 40
0.0
 40
0.0
 40
0.0909090909090909
 40
0.0909090909090909
 40
0.0909090909090909
 40
0.0909090909090909
 40
0.1818181818181818
 40
0.1818181818181818
 40
0.1818181818181818
 40
0.1818181818181818
 40
0.2727272727272727
 40
0.2727272727272727
 40
0.2727272727272727
 40
0.2727272727272727
 40
0.3636363636363636
 40
0.3636363636363636
 40
0.3636363636363636
 40
0.3636363636363636
 40
0.4545454545454545
 40
0.4545454545454545
 40
0.4545454545454545
 40
0.4545454545454545
 40
0.5454545454545454
 40
0.5454545454545454
 40
0.5454545454545454
 40
0.5454545454545454
 40
0.6363636363636364
 40
0.6363636363636364
 40
0.6363636363636364
 40
0.6363636363636364
 40
0.7272727272727273
 40
0.7272727272727273
 40
0.7272727272727273
 40
0.7272727272727273
 40
0.8181818181818182
 40
0.8181818181818182
 40
0.8181818181818182
 40
0.8181818181818182
 40
1.0
 40
1.0
 40
1.0
 40
1.0
 10
-10.4122
 20
-5.8035
 30
0.0
 10
-10.4122
 20
-5.8035
 30
0.0
 10
-14.0638
 20
-5.7906
 30
0.0
 10
-14.0638
 20
-5.7906
 30
0.0
 10
-14.0638
 20
-5.7906
 30
0.0
 10
-14.0638
 20
-5.7906
 30
0.0
 10
-14.0638
 20
1.4918
 30
0.0
 10
-14.0638
 20
1.4918
 30
0.0
 10
-14.0638
 20
1.4918
 30
0.0
 10
-14.0638
 20
1.4918
 30
0.0
 10
-10.526
 20
1.4918
 30
0.0
 10
-10.526
 20
1.4918
 30
0.0
 10
-10.526
 20
1.4918
 30
0.0
 10
-10.526
 20
1.4918
 30
0.0
 10
-1.4367
 20
8.1389
 30
0.0
 10
-1.4367
 20
8.1389
 30
0.0
 10
-1.4367
 20
8.1389
 30
0.0
 10
-1.4367
 20
8.1389
 30
0.0
 10
7.6525
 20
1.4918
 30
0.0
 10
7.6525
 20
1.4918
 30
0.0
 10
7.6525
 20
1.4918
 30
0.0
 10
7.6525
 20
1.4918
 30
0.0
 10
11.1903
 20
1.4918
 30
0.0
 10
11.1903
 20
1.4918
 30
0.0
 10
11.1903
 20
1.4918
 30
0.0
 10
11.1903
 20
1.4918
 30
0.0
 10
11.1903
 20
-5.7906
 30
0.0
 10
11.1903
 20
-5.7906
 30
0.0
 10
11.1903
 20
-5.7906
 30
0.0
 10
11.1903
 20
-5.7906
 30
0.0
 10
7.5387
 20
-5.8035
 30
0.0
 10
7.5387
 20
-5.8035
 30
0.0
 10
7.5387
 20
-5.8035
 30
0.0
 10
7.5387
 20
-5.8035
 30
0.0
 10
-1.4369
 20
-12.3116
 30
0.0
 10
-1.4369
 20
-12.3116
 30
0.0
 10
-1.4369
 20
-12.3116
 30
0.0
 10
-1.4369
 20
-12.3116
 30
0.0
 10
-10.4122
 20
-5.8035
 30
0.0
 10
-10.4122
 20
-5.8035
 30
0.0
  0
SPLINE
  5
5E
330
1F
100
AcDbEntity
  8
layer 1
 62
     7
100
AcDbSpline
210
0.0
220
0.0
230
1.0
 70
    11
 71
     3
 72
    32
 73
    28
 74
     0
 42
0.0000000001
 43
0.0000000001
 12
1.0
 22
0.0
 32
0.0
 13
1.0
 23
0.0
 33
0.0
 40
0.0
 40
0.0
 40
0.0
 40
0.0
 40
0.125
 40
0.125
 40
0.125
 40
0.125
 40
0.25
 40
0.25
 40
0.25
 40
0.25
 40
0.375
 40
0.375
 40
0.375
 40
0.375
 40
0.5
 40
0.5
 40
0.5
 40
0.5
 40
0.625
 40
0.625
 40
0.625
 40
0.625
 40
0.75
 40
0.75
 40
0.75
 40
0.75
 40
1.0
 40
1.0
 40
1.0
 40
1.0
 10
-24.0328
 20
6.0487
 30
0.0
 10
-24.0328
 20
6.0487
 30
0.0
 10
-24.0328
 20
23.1378
 30
0.0
 10
-24.0328
 20
23.1378
 30
0.0
 10
-24.0328
 20
23.1378
 30
0.0
 10
-24.0328
 20
23.1378
 30
0.0
 10
-19.4732
 20
23.1378
 30
0.0
 10
-19.4732
 20
23.1378
 30
0.0
 10
-19.4732
 20
23.1378
 30
0.0
 10
-19.4732
 20
23.1378
 30
0.0
 10
-19.3679
 20
21.239
 30
0.0
 10
-19.3679
 20
21.239
 30
0.0
 10
-19.3679
 20
21.239
 30
0.0
 10
-19.3679
 20
21.239
 30
0.0
 10
-10.4121
 20
14.6947
 30
0.0
 10
-10.4121
 20
14.6947
 30
0.0
 10
-10.4121
 20
14.6947
 30
0.0
 10
-10.4121
 20
14.6947
 30
0.0
 10
-19.3137
 20
7.802
 30
0.0
 10
-19.3137
 20
7.802
 30
0.0
 10
-19.3137
 20
7.802
 30
0.0
 10
-19.3137
 20
7.802
 30
0.0
 10
-19.3556
 20
6.0487
 30
0.0
 10
-19.3556
 20
6.0487
 30
0.0
 10
-19.3556
 20
6.0487
 30
0.0
 10
-19.3556
 20
6.0487
 30
0.0
 10
-24.0328
 20
6.0487
 30
0.0
 10
-24.0328
 20
6.0487
 30
0.0
  0
SPLINE
  5
5F
330
1F
100
AcDbEntity
  8
layer 1
 62
     7
100
AcDbSpline
210
0.0
220
0.0
230
1.0
 70
    11
 71
     3
 72
    28
 73
    24
 74
     0
 42
0.0000000001
 43
0.0000000001
 12
1.0
 22
0.0
 32
0.0
 13
1.0
 23
0.0
 33
0.0
 40
0.0
 40
0.0
 40
0.0
 40
0.0
 40
0.1428571428571428
 40
0.1428571428571428
 40
0.1428571428571428
 40
0.1428571428571428
 40
0.2857142857142857
 40
0.2857142857142857
 40
0.2857142857142857
 40
0.2857142857142857
 40
0.4285714285714285
 40
0.4285714285714285
 40
0.4285714285714285
 40
0.4285714285714285
 40
0.5714285714285714
 40
0.5714285714285714
 40
0.5714285714285714
 40
0.5714285714285714
 40
0.7142857142857143
 40
0.7142857142857143
 40
0.7142857142857143
 40
0.7142857142857143
 40
1.0
 40
1.0
 40
1.0
 40
1.0
 10
-7.6088
 20
16.5625
 30
0.0
 10
-7.6088
 20
16.5625
 30
0.0
 10
-14.7806
 20
22.2336
 30
0.0
 10
-14.7806
 20
22.2336
 30
0.0
 10
-14.7806
 20
22.2336
 30
0.0
 10
-14.7806
 20
22.2336
 30
0.0
 10
-14.7958
 20
24.3422
 30
0.0
 10
-14.7958
 20
24.3422
 30
0.0
 10
-14.7958
 20
24.3422
 30
0.0
 10
-14.7958
 20
24.3422
 30
0.0
 10
-11.2863
 20
24.3422
 30
0.0
 10
-11.2863
 20
24.3422
 30
0.0
 10
-11.2863
 20
24.3422
 30
0.0
 10
-11.2863
 20
24.3422
 30
0.0
 10
-4.0198
 20
18.8054
 30
0.0
 10
-4.0198
 20
18.8054
 30
0.0
 10
-4.0198
 20
18.8054
 30
0.0
 10
-4.0198
 20
18.8054
 30
0.0
 10
-3.9986
 20
16.5775
 30
0.0
 10
-3.9986
 20
16.5775
 30
0.0
 10
-3.9986
 20
16.5775
 30
0.0
 10
-3.9986
 20
16.5775
 30
0.0
 10
-7.6088
 20
16.5625
 30
0.0
 10
-7.6088
 20
16.5625
 30
0.0
  0
SPLINE
  5
60
330
1F
100
AcDbEntity
  8
layer 1
 62
     7
100
AcDbSpline
210
0.0
220
0.0
230
1.0
 70
    11
 71
     3
 72
    28
 73
    24
 74
     0
 42
0.0000000001
 43
0.0000000001
 12
1.0
 22
0.0
 32
0.0
 13
1.0
 23
0.0
 33
0.0
 40
0.0
 40
0.0
 40
0.0
 40
0.0
 40
0.1428571428571428
 40
0.1428571428571428
 40
0.1428571428571428
 40
0.1428571428571428
 40
0.2857142857142857
 40
0.2857142857142857
 40
0.2857142857142857
 40
0.2857142857142857
 40
0.4285714285714285
 40
0.4285714285714285
 40
0.4285714285714285
 40
0.4285714285714285
 40
0.5714285714285714
 40
0.5714285714285714
 40
0.5714285714285714
 40
0.5714285714285714
 40
0.7142857142857143
 40
0.7142857142857143
 40
0.7142857142857143
 40
0.7142857142857143
 40
1.0
 40
1.0
 40
1.0
 40
1.0
 10
-7.6088
 20
12.7873
 30
0.0
 10
-7.6088
 20
12.7873
 30
0.0
 10
-14.7806
 20
7.1163
 30
0.0
 10
-14.7806
 20
7.1163
 30
0.0
 10
-14.7806
 20
7.1163
 30
0.0
 10
-14.7806
 20
7.1163
 30
0.0
 10
-14.7958
 20
5.0077
 30
0.0
 10
-14.7958
 20
5.0077
 30
0.0
 10
-14.7958
 20
5.0077
 30
0.0
 10
-14.7958
 20
5.0077
 30
0.0
 10
-11.2863
 20
5.0077
 30
0.0
 10
-11.2863
 20
5.0077
 30
0.0
 10
-11.2863
 20
5.0077
 30
0.0
 10
-11.2863
 20
5.0077
 30
0.0
 10
-4.0198
 20
10.5445
 30
0.0
 10
-4.0198
 20
10.5445
 30
0.0
 10
-4.0198
 20
10.5445
 30
0.0
 10
-4.0198
 20
10.5445
 30
0.0
 10
-3.9986
 20
12.7723
 30
0.0
 10
-3.9986
 20
12.7723
 30
0.0
 10
-3.9986
 20
12.7723
 30
0.0
 10
-3.9986
 20
12.7723
 30
0.0
 10
-7.6088
 20
12.7873
 30
0.0
 10
-7.6088
 20
12.7873
 30
0.0
  0
SPLINE
  5
61
330
1F
100
AcDbEntity
  8
layer 1
 62
     7
100
AcDbSpline
210
0.0
220
0.0
230
1.0
 70
    11
 71
     3
 72
    32
 73
    28
 74
     0
 42
0.0000000001
 43
0.0000000001
 12
1.0
 22
0.0
 32
0.0
 13
1.0
 23
0.0
 33
0.0
 40
0.0
 40
0.0
 40
0.0
 40
0.0
 40
0.125
 40
0.125
 40
0.125
 40
0.125
 40
0.25
 40
0.25
 40
0.25
 40
0.25
 40
0.375
 40
0.375
 40
0.375
 40
0.375
 40
0.5
 40
0.5
 40
0.5
 40
0.5
 40
0.625
 40
0.625
 40
0.625
 40
0.625
 40
0.75
 40
0.75
 40
0.75
 40
0.75
 40
1.0
 40
1.0
 40
1.0
 40
1.0
 10
20.8471
 20
6.0487
 30
0.0
 10
20.8471
 20
6.0487
 30
0.0
 10
20.8471
 20
23.1378
 30
0.0
 10
20.8471
 20
23.1378
 30
0.0
 10
20.8471
 20
23.1378
 30
0.0
 10
20.8471
 20
23.1378
 30
0.0
 10
16.2876
 20
23.1378
 30
0.0
 10
16.2876
 20
23.1378
 30
0.0
 10
16.2876
 20
23.1378
 30
0.0
 10
16.2876
 20
23.1378
 30
0.0
 10
16.1823
 20
21.239
 30
0.0
 10
16.1823
 20
21.239
 30
0.0
 10
16.1823
 20
21.239
 30
0.0
 10
16.1823
 20
21.239
 30
0.0
 10
7.2264
 20
14.6947
 30
0.0
 10
7.2264
 20
14.6947
 30
0.0
 10
7.2264
 20
14.6947
 30
0.0
 10
7.2264
 20
14.6947
 30
0.0
 10
16.1281
 20
7.802
 30
0.0
 10
16.1281
 20
7.802
 30
0.0
 10
16.1281
 20
7.802
 30
0.0
 10
16.1281
 20
7.802
 30
0.0
 10
16.1699
 20
6.0487
 30
0.0
 10
16.1699
 20
6.0487
 30
0.0
 10
16.1699
 20
6.0487
 30
0.0
 10
16.1699
 20
6.0487
 30
0.0
 10
20.8471
 20
6.0487
 30
0.0
 10
20.8471
 20
6.0487
 30
0.0
  0
SPLINE
  5
62
330
1F
100
AcDbEntity
  8
layer 1
 62
     7
100
AcDbSpline
210
0.0
220
0.0
230
1.0
 70
    11
 71
     3
 72
    28
 73
    24
 74
     0
 42
0.0000000001
 43
0.0000000001
 12
1.0
 22
0.0
 32
0.0
 13
1.0
 23
0.0
 33
0.0
 40
0.0
 40
0.0
 40
0.0
 40
0.0
 40
0.1428571428571428
 40
0.1428571428571428
 40
0.1428571428571428
 40
0.1428571428571428
 40
0.2857142857142857
 40
0.2857142857142857
 40
0.2857142857142857
 40
0.2857142857142857
 40
0.4285714285714285
 40
0.4285714285714285
 40
0.4285714285714285
 40
0.4285714285714285
 40
0.5714285714285714
 40
0.5714285714285714
 40
0.5714285714285714
 40
0.5714285714285714
 40
0.7142857142857143
 40
0.7142857142857143
 40
0.7142857142857143
 40
0.7142857142857143
 40
1.0
 40
1.0
 40
1.0
 40
1.0
 10
4.4232
 20
16.5625
 30
0.0
 10
4.4232
 20
16.5625
 30
0.0
 10
11.595
 20
22.2336
 30
0.0
 10
11.595
 20
22.2336
 30
0.0
 10
11.595
 20
22.2336
 30
0.0
 10
11.595
 20
22.2336
 30
0.0
 10
11.6102
 20
24.3422
 30
0.0
 10
11.6102
 20
24.3422
 30
0.0
 10
11.6102
 20
24.3422
 30
0.0
 10
11.6102
 20
24.3422
 30
0.0
 10
8.1007
 20
24.3422
 30
0.0
 10
8.1007
 20
24.3422
 30
0.0
 10
8.1007
 20
24.3422
 30
0.0
 10
8.1007
 20
24.3422
 30
0.0
 10
0.8342
 20
18.8054
 30
0.0
 10
0.8342
 20
18.8054
 30
0.0
 10
0.8342
 20
18.8054
 30
0.0
 10
0.8342
 20
18.8054
 30
0.0
 10
0.813
 20
16.5775
 30
0.0
 10
0.813
 20
16.5775
 30
0.0
 10
0.813
 20
16.5775
 30
0.0
 10
0.813
 20
16.5775
 30
0.0
 10
4.4232
 20
16.5625
 30
0.0
 10
4.4232
 20
16.5625
 30
0.0
  0
SPLINE
  5
63
330
1F
100
AcDbEntity
  8
layer 1
 62
     7
100
AcDbSpline
210
0.0
220
0.0
230
1.0
 70
    11
 71
     3
 72
    28
 73
    24
 74
     0
 42
0.0000000001
 43
0.0000000001
 12
1.0
 22
0.0
 32
0.0
 13
1.0
 23
0.0
 33
0.0
 40
0.0
 40
0.0
 40
0.0
 40
0.0
 40
0.1428571428571428
 40
0.1428571428571428
 40
0.1428571428571428
 40
0.1428571428571428
 40
0.2857142857142857
 40
0.2857142857142857
 40
0.2857142857142857
 40
0.2857142857142857
 40
0.4285714285714285
 40
0.4285714285714285
 40
0.4285714285714285
 40
0.4285714285714285
 40
0.5714285714285714
 40
0.5714285714285714
 40
0.5714285714285714
 40
0.5714285714285714
 40
0.7142857142857143
 40
0.7142857142857143
 40
0.7142857142857143
 40
0.7142857142857143
 40
1.0
 40
1.0
 40
1.0
 40
1.0
 10
4.4232
 20
12.7873
 30
0.0
 10
4.4232
 20
12.7873
 30
0.0
 10
11.595
 20
7.1163
 30
0.0
 10
11.595
 20
7.1163
 30
0.0
 10
11.595
 20
7.1163
 30
0.0
 10
11.595
 20
7.1163
 30
0.0
 10
11.6102
 20
5.0077
 30
0.0
 10
11.6102
 20
5.0077
 30
0.0
 10
11.6102
 20
5.0077
 30
0.0
 10
11.6102
 20
5.0077
 30
0.0
 10
8.1007
 20
5.0077
 30
0.0
 10
8.1007
 20
5.0077
 30
0.0
 10
8.1007
 20
5.0077
 30
0.0
 10
8.1007
 20
5.0077
 30
0.0
 10
0.8342
 20
10.5445
 30
0.0
 10
0.8342
 20
10.5445
 30
0.0
 10
0.8342
 20
10.5445
 30
0.0
 10
0.8342
 20
10.5445
 30
0.0
 10
0.813
 20
12.7723
 30
0.0
 10
0.813
 20
12.7723
 30
0.0
 10
0.813
 20
12.7723
 30
0.0
 10
0.813
 20
12.7723
 30
0.0
 10
4.4232
 20
12.7873
 30
0.0
 10
4.4232
 20
12.7873
 30
0.0
  0
SPLINE
  5
64
330
1F
100
AcDbEntity
  8
layer 1
 62
     7
100
AcDbSpline
210
0.0
220
0.0
230
1.0
 70
    11
 71
     3
 72
    36
 73
    32
 74
     0
 42
0.0000000001
 43
0.0000000001
 12
1.0
 22
0.0
 32
0.0
 13
1.0
 23
0.0
 33
0.0
 40
0.0
 40
0.0
 40
0.0
 40
0.0
 40
0.1111111111111111
 40
0.1111111111111111
 40
0.1111111111111111
 40
0.1111111111111111
 40
0.2222222222222222
 40
0.2222222222222222
 40
0.2222222222222222
 40
0.2222222222222222
 40
0.3333333333333333
 40
0.3333333333333333
 40
0.3333333333333333
 40
0.3333333333333333
 40
0.4444444444444444
 40
0.4444444444444444
 40
0.4444444444444444
 40
0.4444444444444444
 40
0.5555555555555556
 40
0.5555555555555556
 40
0.5555555555555556
 40
0.5555555555555556
 40
0.6666666666666666
 40
0.6666666666666666
 40
0.6666666666666666
 40
0.6666666666666666
 40
0.7777777777777778
 40
0.7777777777777778
 40
0.7777777777777778
 40
0.7777777777777778
 40
1.0
 40
1.0
 40
1.0
 40
1.0
 10
-19.1287
 20
-5.6493
 30
0.0
 10
-19.1287
 20
-5.6493
 30
0.0
 10
-17.4945
 20
-5.6364
 30
0.0
 10
-17.4945
 20
-5.6364
 30
0.0
 10
-17.4945
 20
-5.6364
 30
0.0
 10
-17.4945
 20
-5.6364
 30
0.0
 10
-17.4945
 20
1.646
 30
0.0
 10
-17.4945
 20
1.646
 30
0.0
 10
-17.4945
 20
1.646
 30
0.0
 10
-17.4945
 20
1.646
 30
0.0
 10
-19.1287
 20
1.646
 30
0.0
 10
-19.1287
 20
1.646
 30
0.0
 10
-19.1287
 20
1.646
 30
0.0
 10
-19.1287
 20
1.646
 30
0.0
 10
-19.1287
 20
3.1395
 30
0.0
 10
-19.1287
 20
3.1395
 30
0.0
 10
-19.1287
 20
3.1395
 30
0.0
 10
-19.1287
 20
3.1395
 30
0.0
 10
-24.0328
 20
3.1847
 30
0.0
 10
-24.0328
 20
3.1847
 30
0.0
 10
-24.0328
 20
3.1847
 30
0.0
 10
-24.0328
 20
3.1847
 30
0.0
 10
-24.0328
 20
-7.3215
 30
0.0
 10
-24.0328
 20
-7.3215
 30
0.0
 10
-24.0328
 20
-7.3215
 30
0.0
 10
-24.0328
 20
-7.3215
 30
0.0
 10
-19.1287
 20
-7.3109
 30
0.0
 10
-19.1287
 20
-7.3109
 30
0.0
 10
-19.1287
 20
-7.3109
 30
0.0
 10
-19.1287
 20
-7.3109
 30
0.0
 10
-19.1287
 20
-5.6493
 30
0.0
 10
-19.1287
 20
-5.6493
 30
0.0
  0
SPLINE
  5
65
330
1F
100
AcDbEntity
  8
layer 1
 62
     7
100
AcDbSpline
210
0.0
220
0.0
230
1.0
 70
    11
 71
     3
 72
    36
 73
    32
 74
     0
 42
0.0000000001
 43
0.0000000001
 12
1.0
 22
0.0
 32
0.0
 13
1.0
 23
0.0
 33
0.0
 40
0.0
 40
0.0
 40
0.0
 40
0.0
 40
0.1111111111111111
 40
0.1111111111111111
 40
0.1111111111111111
 40
0.1111111111111111
 40
0.2222222222222222
 40
0.2222222222222222
 40
0.2222222222222222
 40
0.2222222222222222
 40
0.3333333333333333
 40
0.3333333333333333
 40
0.3333333333333333
 40
0.3333333333333333
 40
0.4444444444444444
 40
0.4444444444444444
 40
0.4444444444444444
 40
0.4444444444444444
 40
0.5555555555555556
 40
0.5555555555555556
 40
0.5555555555555556
 40
0.5555555555555556
 40
0.6666666666666666
 40
0.6666666666666666
 40
0.6666666666666666
 40
0.6666666666666666
 40
0.7777777777777778
 40
0.7777777777777778
 40
0.7777777777777778
 40
0.7777777777777778
 40
1.0
 40
1.0
 40
1.0
 40
1.0
 10
15.9945
 20
-5.6493
 30
0.0
 10
15.9945
 20
-5.6493
 30
0.0
 10
14.3602
 20
-5.6364
 30
0.0
 10
14.3602
 20
-5.6364
 30
0.0
 10
14.3602
 20
-5.6364
 30
0.0
 10
14.3602
 20
-5.6364
 30
0.0
 10
14.3602
 20
1.646
 30
0.0
 10
14.3602
 20
1.646
 30
0.0
 10
14.3602
 20
1.646
 30
0.0
 10
14.3602
 20
1.646
 30
0.0
 10
15.9945
 20
1.646
 30
0.0
 10
15.9945
 20
1.646
 30
0.0
 10
15.9945
 20
1.646
 30
0.0
 10
15.9945
 20
1.646
 30
0.0
 10
15.9945
 20
3.1395
 30
0.0
 10
15.9945
 20
3.1395
 30
0.0
 10
15.9945
 20
3.1395
 30
0.0
 10
15.9945
 20
3.1395
 30
0.0
 10
20.8985
 20
3.1847
 30
0.0
 10
20.8985
 20
3.1847
 30
0.0
 10
20.8985
 20
3.1847
 30
0.0
 10
20.8985
 20
3.1847
 30
0.0
 10
20.8985
 20
-7.3215
 30
0.0
 10
20.8985
 20
-7.3215
 30
0.0
 10
20.8985
 20
-7.3215
 30
0.0
 10
20.8985
 20
-7.3215
 30
0.0
 10
15.9945
 20
-7.3109
 30
0.0
 10
15.9945
 20
-7.3109
 30
0.0
 10
15.9945
 20
-7.3109
 30
0.0
 10
15.9945
 20
-7.3109
 30
0.0
 10
15.9945
 20
-5.6493
 30
0.0
 10
15.9945
 20
-5.6493
 30
0.0
  0
SPLINE
  5
66
330
1F
100
AcDbEntity
  8
layer 1
 62
     7
100
AcDbSpline
210
0.0
220
0.0
230
1.0
 70
    11
 71
     3
 72
    44
 73
    40
 74
     0
 42
0.0000000001
 43
0.0000000001
 12
1.0
 22
0.0
 32
0.0
 13
1.0
 23
0.0
 33
0.0
 40
0.0
 40
0.0
 40
0.0
 40
0.0
 40
0.0909090909090909
 40
0.0909090909090909
 40
0.0909090909090909
 40
0.0909090909090909
 40
0.1818181818181818
 40
0.1818181818181818
 40
0.1818181818181818
 40
0.1818181818181818
 40
0.2727272727272727
 40
0.2727272727272727
 40
0.2727272727272727
 40
0.2727272727272727
 40
0.3636363636363636
 40
0.3636363636363636
 40
0.3636363636363636
 40
0.3636363636363636
 40
0.4545454545454545
 40
0.4545454545454545
 40
0.4545454545454545
 40
0.4545454545454545
 40
0.5454545454545454
 40
0.5454545454545454
 40
0.5454545454545454
 40
0.5454545454545454
 40
0.6363636363636364
 40
0.6363636363636364
 40
0.6363636363636364
 40
0.6363636363636364
 40
0.7272727272727273
 40
0.7272727272727273
 40
0.7272727272727273
 40
0.7272727272727273
 40
0.8181818181818182
 40
0.8181818181818182
 40
0.8181818181818182
 40
0.8181818181818182
 40
1.0
 40
1.0
 40
1.0
 40
1.0
 10
-10.4122
 20
-39.5868
 30
0.0
 10
-10.4122
 20
-39.5868
 30
0.0
 10
-14.0638
 20
-39.5739
 30
0.0
 10
-14.0638
 20
-39.5739
 30
0.0
 10
-14.0638
 20
-39.5739
 30
0.0
 10
-14.0638
 20
-39.5739
 30
0.0
 10
-14.0638
 20
-32.2915
 30
0.0
 10
-14.0638
 20
-32.2915
 30
0.0
 10
-14.0638
 20
-32.2915
 30
0.0
 10
-14.0638
 20
-32.2915
 30
0.0
 10
-10.526
 20
-32.2915
 30
0.0
 10
-10.526
 20
-32.2915
 30
0.0
 10
-10.526
 20
-32.2915
 30
0.0
 10
-10.526
 20
-32.2915
 30
0.0
 10
-1.4367
 20
-25.6443
 30
0.0
 10
-1.4367
 20
-25.6443
 30
0.0
 10
-1.4367
 20
-25.6443
 30
0.0
 10
-1.4367
 20
-25.6443
 30
0.0
 10
7.6525
 20
-32.2915
 30
0.0
 10
7.6525
 20
-32.2915
 30
0.0
 10
7.6525
 20
-32.2915
 30
0.0
 10
7.6525
 20
-32.2915
 30
0.0
 10
11.1903
 20
-32.2915
 30
0.0
 10
11.1903
 20
-32.2915
 30
0.0
 10
11.1903
 20
-32.2915
 30
0.0
 10
11.1903
 20
-32.2915
 30
0.0
 10
11.1903
 20
-39.5739
 30
0.0
 10
11.1903
 20
-39.5739
 30
0.0
 10
11.1903
 20
-39.5739
 30
0.0
 10
11.1903
 20
-39.5739
 30
0.0
 10
7.5387
 20
-39.5868
 30
0.0
 10
7.5387
 20
-39.5868
 30
0.0
 10
7.5387
 20
-39.5868
 30
0.0
 10
7.5387
 20
-39.5868
 30
0.0
 10
-1.4369
 20
-46.0949
 30
0.0
 10
-1.4369
 20
-46.0949
 30
0.0
 10
-1.4369
 20
-46.0949
 30
0.0
 10
-1.4369
 20
-46.0949
 30
0.0
 10
-10.4122
 20
-39.5868
 30
0.0
 10
-10.4122
 20
-39.5868
 30
0.0
  0
SPLINE
  5
67
330
1F
100
AcDbEntity
  8
layer 1
 62
     7
100
AcDbSpline
210
0.0
220
0.0
230
1.0
 70
    11
 71
     3
 72
    32
 73
    28
 74
     0
 42
0.0000000001
 43
0.0000000001
 12
1.0
 22
0.0
 32
0.0
 13
1.0
 23
0.0
 33
0.0
 40
0.0
 40
0.0
 40
0.0
 40
0.0
 40
0.125
 40
0.125
 40
0.125
 40
0.125
 40
0.25
 40
0.25
 40
0.25
 40
0.25
 40
0.375
 40
0.375
 40
0.375
 40
0.375
 40
0.5
 40
0.5
 40
0.5
 40
0.5
 40
0.625
 40
0.625
 40
0.625
 40
0.625
 40
0.75
 40
0.75
 40
0.75
 40
0.75
 40
1.0
 40
1.0
 40
1.0
 40
1.0
 10
-24.0328
 20
-27.7346
 30
0.0
 10
-24.0328
 20
-27.7346
 30
0.0
 10
-24.0328
 20
-10.6455
 30
0.0
 10
-24.0328
 20
-10.6455
 30
0.0
 10
-24.0328
 20
-10.6455
 30
0.0
 10
-24.0328
 20
-10.6455
 30
0.0
 10
-19.4732
 20
-10.6455
 30
0.0
 10
-19.4732
 20
-10.6455
 30
0.0
 10
-19.4732
 20
-10.6455
 30
0.0
 10
-19.4732
 20
-10.6455
 30
0.0
 10
-19.3679
 20
-12.5442
 30
0.0
 10
-19.3679
 20
-12.5442
 30
0.0
 10
-19.3679
 20
-12.5442
 30
0.0
 10
-19.3679
 20
-12.5442
 30
0.0
 10
-10.4121
 20
-19.0886
 30
0.0
 10
-10.4121
 20
-19.0886
 30
0.0
 10
-10.4121
 20
-19.0886
 30
0.0
 10
-10.4121
 20
-19.0886
 30
0.0
 10
-19.3137
 20
-25.9812
 30
0.0
 10
-19.3137
 20
-25.9812
 30
0.0
 10
-19.3137
 20
-25.9812
 30
0.0
 10
-19.3137
 20
-25.9812
 30
0.0
 10
-19.3556
 20
-27.7346
 30
0.0
 10
-19.3556
 20
-27.7346
 30
0.0
 10
-19.3556
 20
-27.7346
 30
0.0
 10
-19.3556
 20
-27.7346
 30
0.0
 10
-24.0328
 20
-27.7346
 30
0.0
 10
-24.0328
 20
-27.7346
 30
0.0
  0
SPLINE
  5
68
330
1F
100
AcDbEntity
  8
layer 1
 62
     7
100
AcDbSpline
210
0.0
220
0.0
230
1.0
 70
    11
 71
     3
 72
    28
 73
    24
 74
     0
 42
0.0000000001
 43
0.0000000001
 12
1.0
 22
0.0
 32
0.0
 13
1.0
 23
0.0
 33
0.0
 40
0.0
 40
0.0
 40
0.0
 40
0.0
 40
0.1428571428571428
 40
0.1428571428571428
 40
0.1428571428571428
 40
0.1428571428571428
 40
0.2857142857142857
 40
0.2857142857142857
 40
0.2857142857142857
 40
0.2857142857142857
 40
0.4285714285714285
 40
0.4285714285714285
 40
0.4285714285714285
 40
0.4285714285714285
 40
0.5714285714285714
 40
0.5714285714285714
 40
0.5714285714285714
 40
0.5714285714285714
 40
0.7142857142857143
 40
0.7142857142857143
 40
0.7142857142857143
 40
0.7142857142857143
 40
1.0
 40
1.0
 40
1.0
 40
1.0
 10
-7.6088
 20
-17.2207
 30
0.0
 10
-7.6088
 20
-17.2207
 30
0.0
 10
-14.7806
 20
-11.5497
 30
0.0
 10
-14.7806
 20
-11.5497
 30
0.0
 10
-14.7806
 20
-11.5497
 30
0.0
 10
-14.7806
 20
-11.5497
 30
0.0
 10
-14.7958
 20
-9.4411
 30
0.0
 10
-14.7958
 20
-9.4411
 30
0.0
 10
-14.7958
 20
-9.4411
 30
0.0
 10
-14.7958
 20
-9.4411
 30
0.0
 10
-11.2863
 20
-9.4411
 30
0.0
 10
-11.2863
 20
-9.4411
 30
0.0
 10
-11.2863
 20
-9.4411
 30
0.0
 10
-11.2863
 20
-9.4411
 30
0.0
 10
-4.0198
 20
-14.9779
 30
0.0
 10
-4.0198
 20
-14.9779
 30
0.0
 10
-4.0198
 20
-14.9779
 30
0.0
 10
-4.0198
 20
-14.9779
 30
0.0
 10
-3.9986
 20
-17.2057
 30
0.0
 10
-3.9986
 20
-17.2057
 30
0.0
 10
-3.9986
 20
-17.2057
 30
0.0
 10
-3.9986
 20
-17.2057
 30
0.0
 10
-7.6088
 20
-17.2207
 30
0.0
 10
-7.6088
 20
-17.2207
 30
0.0
  0
SPLINE
  5
69
330
1F
100
AcDbEntity
  8
layer 1
 62
     7
100
AcDbSpline
210
0.0
220
0.0
230
1.0
 70
    11
 71
     3
 72
    28
 73
    24
 74
     0
 42
0.0000000001
 43
0.0000000001
 12
1.0
 22
0.0
 32
0.0
 13
1.0
 23
0.0
 33
0.0
 40
0.0
 40
0.0
 40
0.0
 40
0.0
 40
0.1428571428571428
 40
0.1428571428571428
 40
0.1428571428571428
 40
0.1428571428571428
 40
0.2857142857142857
 40
0.2857142857142857
 40
0.2857142857142857
 40
0.2857142857142857
 40
0.4285714285714285
 40
0.4285714285714285
 40
0.4285714285714285
 40
0.4285714285714285
 40
0.5714285714285714
 40
0.5714285714285714
 40
0.5714285714285714
 40
0.5714285714285714
 40
0.7142857142857143
 40
0.7142857142857143
 40
0.7142857142857143
 40
0.7142857142857143
 40
1.0
 40
1.0
 40
1.0
 40
1.0
 10
-7.6088
 20
-20.9959
 30
0.0
 10
-7.6088
 20
-20.9959
 30
0.0
 10
-14.7806
 20
-26.667
 30
0.0
 10
-14.7806
 20
-26.667
 30
0.0
 10
-14.7806
 20
-26.667
 30
0.0
 10
-14.7806
 20
-26.667
 30
0.0
 10
-14.7958
 20
-28.7756
 30
0.0
 10
-14.7958
 20
-28.7756
 30
0.0
 10
-14.7958
 20
-28.7756
 30
0.0
 10
-14.7958
 20
-28.7756
 30
0.0
 10
-11.2863
 20
-28.7756
 30
0.0
 10
-11.2863
 20
-28.7756
 30
0.0
 10
-11.2863
 20
-28.7756
 30
0.0
 10
-11.2863
 20
-28.7756
 30
0.0
 10
-4.0198
 20
-23.2388
 30
0.0
 10
-4.0198
 20
-23.2388
 30
0.0
 10
-4.0198
 20
-23.2388
 30
0.0
 10
-4.0198
 20
-23.2388
 30
0.0
 10
-3.9986
 20
-21.011
 30
0.0
 10
-3.9986
 20
-21.011
 30
0.0
 10
-3.9986
 20
-21.011
 30
0.0
 10
-3.9986
 20
-21.011
 30
0.0
 10
-7.6088
 20
-20.9959
 30
0.0
 10
-7.6088
 20
-20.9959
 30
0.0
  0
SPLINE
  5
6A
330
1F
100
AcDbEntity
  8
layer 1
 62
     7
100
AcDbSpline
210
0.0
220
0.0
230
1.0
 70
    11
 71
     3
 72
    32
 73
    28
 74
     0
 42
0.0000000001
 43
0.0000000001
 12
1.0
 22
0.0
 32
0.0
 13
1.0
 23
0.0
 33
0.0
 40
0.0
 40
0.0
 40
0.0
 40
0.0
 40
0.125
 40
0.125
 40
0.125
 40
0.125
 40
0.25
 40
0.25
 40
0.25
 40
0.25
 40
0.375
 40
0.375
 40
0.375
 40
0.375
 40
0.5
 40
0.5
 40
0.5
 40
0.5
 40
0.625
 40
0.625
 40
0.625
 40
0.625
 40
0.75
 40
0.75
 40
0.75
 40
0.75
 40
1.0
 40
1.0
 40
1.0
 40
1.0
 10
20.8471
 20
-27.7346
 30
0.0
 10
20.8471
 20
-27.7346
 30
0.0
 10
20.8471
 20
-10.6455
 30
0.0
 10
20.8471
 20
-10.6455
 30
0.0
 10
20.8471
 20
-10.6455
 30
0.0
 10
20.8471
 20
-10.6455
 30
0.0
 10
16.2876
 20
-10.6455
 30
0.0
 10
16.2876
 20
-10.6455
 30
0.0
 10
16.2876
 20
-10.6455
 30
0.0
 10
16.2876
 20
-10.6455
 30
0.0
 10
16.1823
 20
-12.5442
 30
0.0
 10
16.1823
 20
-12.5442
 30
0.0
 10
16.1823
 20
-12.5442
 30
0.0
 10
16.1823
 20
-12.5442
 30
0.0
 10
7.2264
 20
-19.0886
 30
0.0
 10
7.2264
 20
-19.0886
 30
0.0
 10
7.2264
 20
-19.0886
 30
0.0
 10
7.2264
 20
-19.0886
 30
0.0
 10
16.1281
 20
-25.9812
 30
0.0
 10
16.1281
 20
-25.9812
 30
0.0
 10
16.1281
 20
-25.9812
 30
0.0
 10
16.1281
 20
-25.9812
 30
0.0
 10
16.1699
 20
-27.7346
 30
0.0
 10
16.1699
 20
-27.7346
 30
0.0
 10
16.1699
 20
-27.7346
 30
0.0
 10
16.1699
 20
-27.7346
 30
0.0
 10
20.8471
 20
-27.7346
 30
0.0
 10
20.8471
 20
-27.7346
 30
0.0
  0
SPLINE
  5
6B
330
1F
100
AcDbEntity
  8
layer 1
 62
     7
100
AcDbSpline
210
0.0
220
0.0
230
1.0
 70
    11
 71
     3
 72
    28
 73
    24
 74
     0
 42
0.0000000001
 43
0.0000000001
 12
1.0
 22
0.0
 32
0.0
 13
1.0
 23
0.0
 33
0.0
 40
0.0
 40
0.0
 40
0.0
 40
0.0
 40
0.1428571428571428
 40
0.1428571428571428
 40
0.1428571428571428
 40
0.1428571428571428
 40
0.2857142857142857
 40
0.2857142857142857
 40
0.2857142857142857
 40
0.2857142857142857
 40
0.4285714285714285
 40
0.4285714285714285
 40
0.4285714285714285
 40
0.4285714285714285
 40
0.5714285714285714
 40
0.5714285714285714
 40
0.5714285714285714
 40
0.5714285714285714
 40
0.7142857142857143
 40
0.7142857142857143
 40
0.7142857142857143
 40
0.7142857142857143
 40
1.0
 40
1.0
 40
1.0
 40
1.0
 10
4.4232
 20
-17.2207
 30
0.0
 10
4.4232
 20
-17.2207
 30
0.0
 10
11.595
 20
-11.5497
 30
0.0
 10
11.595
 20
-11.5497
 30
0.0
 10
11.595
 20
-11.5497
 30
0.0
 10
11.595
 20
-11.5497
 30
0.0
 10
11.6102
 20
-9.4411
 30
0.0
 10
11.6102
 20
-9.4411
 30
0.0
 10
11.6102
 20
-9.4411
 30
0.0
 10
11.6102
 20
-9.4411
 30
0.0
 10
8.1007
 20
-9.4411
 30
0.0
 10
8.1007
 20
-9.4411
 30
0.0
 10
8.1007
 20
-9.4411
 30
0.0
 10
8.1007
 20
-9.4411
 30
0.0
 10
0.8342
 20
-14.9779
 30
0.0
 10
0.8342
 20
-14.9779
 30
0.0
 10
0.8342
 20
-14.9779
 30
0.0
 10
0.8342
 20
-14.9779
 30
0.0
 10
0.813
 20
-17.2057
 30
0.0
 10
0.813
 20
-17.2057
 30
0.0
 10
0.813
 20
-17.2057
 30
0.0
 10
0.813
 20
-17.2057
 30
0.0
 10
4.4232
 20
-17.2207
 30
0.0
 10
4.4232
 20
-17.2207
 30
0.0
  0
SPLINE
  5
6C
330
1F
100
AcDbEntity
  8
layer 1
 62
     7
100
AcDbSpline
210
0.0
220
0.0
230
1.0
 70
    11
 71
     3
 72
    28
 73
    24
 74
     0
 42
0.0000000001
 43
0.0000000001
 12
1.0
 22
0.0
 32
0.0
 13
1.0
 23
0.0
 33
0.0
 40
0.0
 40
0.0
 40
0.0
 40
0.0
 40
0.1428571428571428
 40
0.1428571428571428
 40
0.1428571428571428
 40
0.1428571428571428
 40
0.2857142857142857
 40
0.2857142857142857
 40
0.2857142857142857
 40
0.2857142857142857
 40
0.4285714285714285
 40
0.4285714285714285
 40
0.4285714285714285
 40
0.4285714285714285
 40
0.5714285714285714
 40
0.5714285714285714
 40
0.5714285714285714
 40
0.5714285714285714
 40
0.7142857142857143
 40
0.7142857142857143
 40
0.7142857142857143
 40
0.7142857142857143
 40
1.0
 40
1.0
 40
1.0
 40
1.0
 10
4.4232
 20
-20.9959
 30
0.0
 10
4.4232
 20
-20.9959
 30
0.0
 10
11.595
 20
-26.667
 30
0.0
 10
11.595
 20
-26.667
 30
0.0
 10
11.595
 20
-26.667
 30
0.0
 10
11.595
 20
-26.667
 30
0.0
 10
11.6102
 20
-28.7756
 30
0.0
 10
11.6102
 20
-28.7756
 30
0.0
 10
11.6102
 20
-28.7756
 30
0.0
 10
11.6102
 20
-28.7756
 30
0.0
 10
8.1007
 20
-28.7756
 30
0.0
 10
8.1007
 20
-28.7756
 30
0.0
 10
8.1007
 20
-28.7756
 30
0.0
 10
8.1007
 20
-28.7756
 30
0.0
 10
0.8342
 20
-23.2388
 30
0.0
 10
0.8342
 20
-23.2388
 30
0.0
 10
0.8342
 20
-23.2388
 30
0.0
 10
0.8342
 20
-23.2388
 30
0.0
 10
0.813
 20
-21.011
 30
0.0
 10
0.813
 20
-21.011
 30
0.0
 10
0.813
 20
-21.011
 30
0.0
 10
0.813
 20
-21.011
 30
0.0
 10
4.4232
 20
-20.9959
 30
0.0
 10
4.4232
 20
-20.9959
 30
0.0
  0
SPLINE
  5
6D
330
1F
100
AcDbEntity
  8
layer 1
 62
     7
100
AcDbSpline
210
0.0
220
0.0
230
1.0
 70
    11
 71
     3
 72
    36
 73
    32
 74
     0
 42
0.0000000001
 43
0.0000000001
 12
1.0
 22
0.0
 32
0.0
 13
1.0
 23
0.0
 33
0.0
 40
0.0
 40
0.0
 40
0.0
 40
0.0
 40
0.1111111111111111
 40
0.1111111111111111
 40
0.1111111111111111
 40
0.1111111111111111
 40
0.2222222222222222
 40
0.2222222222222222
 40
0.2222222222222222
 40
0.2222222222222222
 40
0.3333333333333333
 40
0.3333333333333333
 40
0.3333333333333333
 40
0.3333333333333333
 40
0.4444444444444444
 40
0.4444444444444444
 40
0.4444444444444444
 40
0.4444444444444444
 40
0.5555555555555556
 40
0.5555555555555556
 40
0.5555555555555556
 40
0.5555555555555556
 40
0.6666666666666666
 40
0.6666666666666666
 40
0.6666666666666666
 40
0.6666666666666666
 40
0.7777777777777778
 40
0.7777777777777778
 40
0.7777777777777778
 40
0.7777777777777778
 40
1.0
 40
1.0
 40
1.0
 40
1.0
 10
-19.1287
 20
-39.4325
 30
0.0
 10
-19.1287
 20
-39.4325
 30
0.0
 10
-17.4945
 20
-39.4196
 30
0.0
 10
-17.4945
 20
-39.4196
 30
0.0
 10
-17.4945
 20
-39.4196
 30
0.0
 10
-17.4945
 20
-39.4196
 30
0.0
 10
-17.4945
 20
-32.1373
 30
0.0
 10
-17.4945
 20
-32.1373
 30
0.0
 10
-17.4945
 20
-32.1373
 30
0.0
 10
-17.4945
 20
-32.1373
 30
0.0
 10
-19.1287
 20
-32.1373
 30
0.0
 10
-19.1287
 20
-32.1373
 30
0.0
 10
-19.1287
 20
-32.1373
 30
0.0
 10
-19.1287
 20
-32.1373
 30
0.0
 10
-19.1287
 20
-30.6438
 30
0.0
 10
-19.1287
 20
-30.6438
 30
0.0
 10
-19.1287
 20
-30.6438
 30
0.0
 10
-19.1287
 20
-30.6438
 30
0.0
 10
-24.0328
 20
-30.5986
 30
0.0
 10
-24.0328
 20
-30.5986
 30
0.0
 10
-24.0328
 20
-30.5986
 30
0.0
 10
-24.0328
 20
-30.5986
 30
0.0
 10
-24.0328
 20
-41.1048
 30
0.0
 10
-24.0328
 20
-41.1048
 30
0.0
 10
-24.0328
 20
-41.1048
 30
0.0
 10
-24.0328
 20
-41.1048
 30
0.0
 10
-19.1287
 20
-41.0942
 30
0.0
 10
-19.1287
 20
-41.0942
 30
0.0
 10
-19.1287
 20
-41.0942
 30
0.0
 10
-19.1287
 20
-41.0942
 30
0.0
 10
-19.1287
 20
-39.4325
 30
0.0
 10
-19.1287
 20
-39.4325
 30
0.0
  0
SPLINE
  5
6E
330
1F
100
AcDbEntity
  8
layer 1
 62
     7
100
AcDbSpline
210
0.0
220
0.0
230
1.0
 70
    11
 71
     3
 72
    36
 73
    32
 74
     0
 42
0.0000000001
 43
0.0000000001
 12
1.0
 22
0.0
 32
0.0
 13
1.0
 23
0.0
 33
0.0
 40
0.0
 40
0.0
 40
0.0
 40
0.0
 40
0.1111111111111111
 40
0.1111111111111111
 40
0.1111111111111111
 40
0.1111111111111111
 40
0.2222222222222222
 40
0.2222222222222222
 40
0.2222222222222222
 40
0.2222222222222222
 40
0.3333333333333333
 40
0.3333333333333333
 40
0.3333333333333333
 40
0.3333333333333333
 40
0.4444444444444444
 40
0.4444444444444444
 40
0.4444444444444444
 40
0.4444444444444444
 40
0.5555555555555556
 40
0.5555555555555556
 40
0.5555555555555556
 40
0.5555555555555556
 40
0.6666666666666666
 40
0.6666666666666666
 40
0.6666666666666666
 40
0.6666666666666666
 40
0.7777777777777778
 40
0.7777777777777778
 40
0.7777777777777778
 40
0.7777777777777778
 40
1.0
 40
1.0
 40
1.0
 40
1.0
 10
15.9945
 20
-39.4325
 30
0.0
 10
15.9945
 20
-39.4325
 30
0.0
 10
14.3602
 20
-39.4196
 30
0.0
 10
14.3602
 20
-39.4196
 30
0.0
 10
14.3602
 20
-39.4196
 30
0.0
 10
14.3602
 20
-39.4196
 30
0.0
 10
14.3602
 20
-32.1373
 30
0.0
 10
14.3602
 20
-32.1373
 30
0.0
 10
14.3602
 20
-32.1373
 30
0.0
 10
14.3602
 20
-32.1373
 30
0.0
 10
15.9945
 20
-32.1373
 30
0.0
 10
15.9945
 20
-32.1373
 30
0.0
 10
15.9945
 20
-32.1373
 30
0.0
 10
15.9945
 20
-32.1373
 30
0.0
 10
15.9945
 20
-30.6438
 30
0.0
 10
15.9945
 20
-30.6438
 30
0.0
 10
15.9945
 20
-30.6438
 30
0.0
 10
15.9945
 20
-30.6438
 30
0.0
 10
20.8985
 20
-30.5986
 30
0.0
 10
20.8985
 20
-30.5986
 30
0.0
 10
20.8985
 20
-30.5986
 30
0.0
 10
20.8985
 20
-30.5986
 30
0.0
 10
20.8985
 20
-41.1048
 30
0.0
 10
20.8985
 20
-41.1048
 30
0.0
 10
20.8985
 20
-41.1048
 30
0.0
 10
20.8985
 20
-41.1048
 30
0.0
 10
15.9945
 20
-41.0942
 30
0.0
 10
15.9945
 20
-41.0942
 30
0.0
 10
15.9945
 20
-41.0942
 30
0.0
 10
15.9945
 20
-41.0942
 30
0.0
 10
15.9945
 20
-39.4325
 30
0.0
 10
15.9945
 20
-39.4325
 30
0.0
  0
SPLINE
  5
6F
330
1F
100
AcDbEntity
  8
layer 1
 62
     7
100
AcDbSpline
210
0.0
220
0.0
230
1.0
 70
    11
 71
     3
 72
    44
 73
    40
 74
     0
 42
0.0000000001
 43
0.0000000001
 12
1.0
 22
0.0
 32
0.0
 13
1.0
 23
0.0
 33
0.0
 40
0.0
 40
0.0
 40
0.0
 40
0.0
 40
0.0909090909090909
 40
0.0909090909090909
 40
0.0909090909090909
 40
0.0909090909090909
 40
0.1818181818181818
 40
0.1818181818181818
 40
0.1818181818181818
 40
0.1818181818181818
 40
0.2727272727272727
 40
0.2727272727272727
 40
0.2727272727272727
 40
0.2727272727272727
 40
0.3636363636363636
 40
0.3636363636363636
 40
0.3636363636363636
 40
0.3636363636363636
 40
0.4545454545454545
 40
0.4545454545454545
 40
0.4545454545454545
 40
0.4545454545454545
 40
0.5454545454545454
 40
0.5454545454545454
 40
0.5454545454545454
 40
0.5454545454545454
 40
0.6363636363636364
 40
0.6363636363636364
 40
0.6363636363636364
 40
0.6363636363636364
 40
0.7272727272727273
 40
0.7272727272727273
 40
0.7272727272727273
 40
0.7272727272727273
 40
0.8181818181818182
 40
0.8181818181818182
 40
0.8181818181818182
 40
0.8181818181818182
 40
1.0
 40
1.0
 40
1.0
 40
1.0
 10
-10.4122
 20
-73.37
 30
0.0
 10
-10.4122
 20
-73.37
 30
0.0
 10
-14.0638
 20
-73.3571
 30
0.0
 10
-14.0638
 20
-73.3571
 30
0.0
 10
-14.0638
 20
-73.3571
 30
0.0
 10
-14.0638
 20
-73.3571
 30
0.0
 10
-14.0638
 20
-66.0748
 30
0.0
 10
-14.0638
 20
-66.0748
 30
0.0
 10
-14.0638
 20
-66.0748
 30
0.0
 10
-14.0638
 20
-66.0748
 30
0.0
 10
-10.526
 20
-66.0748
 30
0.0
 10
-10.526
 20
-66.0748
 30
0.0
 10
-10.526
 20
-66.0748
 30
0.0
 10
-10.526
 20
-66.0748
 30
0.0
 10
-1.4367
 20
-59.4276
 30
0.0
 10
-1.4367
 20
-59.4276
 30
0.0
 10
-1.4367
 20
-59.4276
 30
0.0
 10
-1.4367
 20
-59.4276
 30
0.0
 10
7.6525
 20
-66.0748
 30
0.0
 10
7.6525
 20
-66.0748
 30
0.0
 10
7.6525
 20
-66.0748
 30
0.0
 10
7.6525
 20
-66.0748
 30
0.0
 10
11.1903
 20
-66.0748
 30
0.0
 10
11.1903
 20
-66.0748
 30
0.0
 10
11.1903
 20
-66.0748
 30
0.0
 10
11.1903
 20
-66.0748
 30
0.0
 10
11.1903
 20
-73.3571
 30
0.0
 10
11.1903
 20
-73.3571
 30
0.0
 10
11.1903
 20
-73.3571
 30
0.0
 10
11.1903
 20
-73.3571
 30
0.0
 10
7.5387
 20
-73.37
 30
0.0
 10
7.5387
 20
-73.37
 30
0.0
 10
7.5387
 20
-73.37
 30
0.0
 10
7.5387
 20
-73.37
 30
0.0
 10
-1.4369
 20
-79.8781
 30
0.0
 10
-1.4369
 20
-79.8781
 30
0.0
 10
-1.4369
 20
-79.8781
 30
0.0
 10
-1.4369
 20
-79.8781
 30
0.0
 10
-10.4122
 20
-73.37
 30
0.0
 10
-10.4122
 20
-73.37
 30
0.0
  0
SPLINE
  5
70
330
1F
100
AcDbEntity
  8
layer 1
 62
     7
100
AcDbSpline
210
0.0
220
0.0
230
1.0
 70
    11
 71
     3
 72
    32
 73
    28
 74
     0
 42
0.0000000001
 43
0.0000000001
 12
1.0
 22
0.0
 32
0.0
 13
1.0
 23
0.0
 33
0.0
 40
0.0
 40
0.0
 40
0.0
 40
0.0
 40
0.125
 40
0.125
 40
0.125
 40
0.125
 40
0.25
 40
0.25
 40
0.25
 40
0.25
 40
0.375
 40
0.375
 40
0.375
 40
0.375
 40
0.5
 40
0.5
 40
0.5
 40
0.5
 40
0.625
 40
0.625
 40
0.625
 40
0.625
 40
0.75
 40
0.75
 40
0.75
 40
0.75
 40
1.0
 40
1.0
 40
1.0
 40
1.0
 10
-24.0328
 20
-61.5178
 30
0.0
 10
-24.0328
 20
-61.5178
 30
0.0
 10
-24.0328
 20
-44.4288
 30
0.0
 10
-24.0328
 20
-44.4288
 30
0.0
 10
-24.0328
 20
-44.4288
 30
0.0
 10
-24.0328
 20
-44.4288
 30
0.0
 10
-19.4732
 20
-44.4288
 30
0.0
 10
-19.4732
 20
-44.4288
 30
0.0
 10
-19.4732
 20
-44.4288
 30
0.0
 10
-19.4732
 20
-44.4288
 30
0.0
 10
-19.3679
 20
-46.3275
 30
0.0
 10
-19.3679
 20
-46.3275
 30
0.0
 10
-19.3679
 20
-46.3275
 30
0.0
 10
-19.3679
 20
-46.3275
 30
0.0
 10
-10.4121
 20
-52.8718
 30
0.0
 10
-10.4121
 20
-52.8718
 30
0.0
 10
-10.4121
 20
-52.8718
 30
0.0
 10
-10.4121
 20
-52.8718
 30
0.0
 10
-19.3137
 20
-59.7645
 30
0.0
 10
-19.3137
 20
-59.7645
 30
0.0
 10
-19.3137
 20
-59.7645
 30
0.0
 10
-19.3137
 20
-59.7645
 30
0.0
 10
-19.3556
 20
-61.5178
 30
0.0
 10
-19.3556
 20
-61.5178
 30
0.0
 10
-19.3556
 20
-61.5178
 30
0.0
 10
-19.3556
 20
-61.5178
 30
0.0
 10
-24.0328
 20
-61.5178
 30
0.0
 10
-24.0328
 20
-61.5178
 30
0.0
  0
SPLINE
  5
71
330
1F
100
AcDbEntity
  8
layer 1
 62
     7
100
AcDbSpline
210
0.0
220
0.0
230
1.0
 70
    11
 71
     3
 72
    28
 73
    24
 74
     0
 42
0.0000000001
 43
0.0000000001
 12
1.0
 22
0.0
 32
0.0
 13
1.0
 23
0.0
 33
0.0
 40
0.0
 40
0.0
 40
0.0
 40
0.0
 40
0.1428571428571428
 40
0.1428571428571428
 40
0.1428571428571428
 40
0.1428571428571428
 40
0.2857142857142857
 40
0.2857142857142857
 40
0.2857142857142857
 40
0.2857142857142857
 40
0.4285714285714285
 40
0.4285714285714285
 40
0.4285714285714285
 40
0.4285714285714285
 40
0.5714285714285714
 40
0.5714285714285714
 40
0.5714285714285714
 40
0.5714285714285714
 40
0.7142857142857143
 40
0.7142857142857143
 40
0.7142857142857143
 40
0.7142857142857143
 40
1.0
 40
1.0
 40
1.0
 40
1.0
 10
-7.6088
 20
-51.004
 30
0.0
 10
-7.6088
 20
-51.004
 30
0.0
 10
-14.7806
 20
-45.3329
 30
0.0
 10
-14.7806
 20
-45.3329
 30
0.0
 10
-14.7806
 20
-45.3329
 30
0.0
 10
-14.7806
 20
-45.3329
 30
0.0
 10
-14.7958
 20
-43.2243
 30
0.0
 10
-14.7958
 20
-43.2243
 30
0.0
 10
-14.7958
 20
-43.2243
 30
0.0
 10
-14.7958
 20
-43.2243
 30
0.0
 10
-11.2863
 20
-43.2243
 30
0.0
 10
-11.2863
 20
-43.2243
 30
0.0
 10
-11.2863
 20
-43.2243
 30
0.0
 10
-11.2863
 20
-43.2243
 30
0.0
 10
-4.0198
 20
-48.7612
 30
0.0
 10
-4.0198
 20
-48.7612
 30
0.0
 10
-4.0198
 20
-48.7612
 30
0.0
 10
-4.0198
 20
-48.7612
 30
0.0
 10
-3.9986
 20
-50.989
 30
0.0
 10
-3.9986
 20
-50.989
 30
0.0
 10
-3.9986
 20
-50.989
 30
0.0
 10
-3.9986
 20
-50.989
 30
0.0
 10
-7.6088
 20
-51.004
 30
0.0
 10
-7.6088
 20
-51.004
 30
0.0
  0
SPLINE
  5
72
330
1F
100
AcDbEntity
  8
layer 1
 62
     7
100
AcDbSpline
210
0.0
220
0.0
230
1.0
 70
    11
 71
     3
 72
    28
 73
    24
 74
     0
 42
0.0000000001
 43
0.0000000001
 12
1.0
 22
0.0
 32
0.0
 13
1.0
 23
0.0
 33
0.0
 40
0.0
 40
0.0
 40
0.0
 40
0.0
 40
0.1428571428571428
 40
0.1428571428571428
 40
0.1428571428571428
 40
0.1428571428571428
 40
0.2857142857142857
 40
0.2857142857142857
 40
0.2857142857142857
 40
0.2857142857142857
 40
0.4285714285714285
 40
0.4285714285714285
 40
0.4285714285714285
 40
0.4285714285714285
 40
0.5714285714285714
 40
0.5714285714285714
 40
0.5714285714285714
 40
0.5714285714285714
 40
0.7142857142857143
 40
0.7142857142857143
 40
0.7142857142857143
 40
0.7142857142857143
 40
1.0
 40
1.0
 40
1.0
 40
1.0
 10
-7.6088
 20
-54.7792
 30
0.0
 10
-7.6088
 20
-54.7792
 30
0.0
 10
-14.7806
 20
-60.4503
 30
0.0
 10
-14.7806
 20
-60.4503
 30
0.0
 10
-14.7806
 20
-60.4503
 30
0.0
 10
-14.7806
 20
-60.4503
 30
0.0
 10
-14.7958
 20
-62.5589
 30
0.0
 10
-14.7958
 20
-62.5589
 30
0.0
 10
-14.7958
 20
-62.5589
 30
0.0
 10
-14.7958
 20
-62.5589
 30
0.0
 10
-11.2863
 20
-62.5589
 30
0.0
 10
-11.2863
 20
-62.5589
 30
0.0
 10
-11.2863
 20
-62.5589
 30
0.0
 10
-11.2863
 20
-62.5589
 30
0.0
 10
-4.0198
 20
-57.0221
 30
0.0
 10
-4.0198
 20
-57.0221
 30
0.0
 10
-4.0198
 20
-57.0221
 30
0.0
 10
-4.0198
 20
-57.0221
 30
0.0
 10
-3.9986
 20
-54.7942
 30
0.0
 10
-3.9986
 20
-54.7942
 30
0.0
 10
-3.9986
 20
-54.7942
 30
0.0
 10
-3.9986
 20
-54.7942
 30
0.0
 10
-7.6088
 20
-54.7792
 30
0.0
 10
-7.6088
 20
-54.7792
 30
0.0
  0
SPLINE
  5
73
330
1F
100
AcDbEntity
  8
layer 1
 62
     7
100
AcDbSpline
210
0.0
220
0.0
230
1.0
 70
    11
 71
     3
 72
    32
 73
    28
 74
     0
 42
0.0000000001
 43
0.0000000001
 12
1.0
 22
0.0
 32
0.0
 13
1.0
 23
0.0
 33
0.0
 40
0.0
 40
0.0
 40
0.0
 40
0.0
 40
0.125
 40
0.125
 40
0.125
 40
0.125
 40
0.25
 40
0.25
 40
0.25
 40
0.25
 40
0.375
 40
0.375
 40
0.375
 40
0.375
 40
0.5
 40
0.5
 40
0.5
 40
0.5
 40
0.625
 40
0.625
 40
0.625
 40
0.625
 40
0.75
 40
0.75
 40
0.75
 40
0.75
 40
1.0
 40
1.0
 40
1.0
 40
1.0
 10
20.8471
 20
-61.5178
 30
0.0
 10
20.8471
 20
-61.5178
 30
0.0
 10
20.8471
 20
-44.4288
 30
0.0
 10
20.8471
 20
-44.4288
 30
0.0
 10
20.8471
 20
-44.4288
 30
0.0
 10
20.8471
 20
-44.4288
 30
0.0
 10
16.2876
 20
-44.4288
 30
0.0
 10
16.2876
 20
-44.4288
 30
0.0
 10
16.2876
 20
-44.4288
 30
0.0
 10
16.2876
 20
-44.4288
 30
0.0
 10
16.1823
 20
-46.3275
 30
0.0
 10
16.1823
 20
-46.3275
 30
0.0
 10
16.1823
 20
-46.3275
 30
0.0
 10
16.1823
 20
-46.3275
 30
0.0
 10
7.2264
 20
-52.8718
 30
0.0
 10
7.2264
 20
-52.8718
 30
0.0
 10
7.2264
 20
-52.8718
 30
0.0
 10
7.2264
 20
-52.8718
 30
0.0
 10
16.1281
 20
-59.7645
 30
0.0
 10
16.1281
 20
-59.7645
 30
0.0
 10
16.1281
 20
-59.7645
 30
0.0
 10
16.1281
 20
-59.7645
 30
0.0
 10
16.1699
 20
-61.5178
 30
0.0
 10
16.1699
 20
-61.5178
 30
0.0
 10
16.1699
 20
-61.5178
 30
0.0
 10
16.1699
 20
-61.5178
 30
0.0
 10
20.8471
 20
-61.5178
 30
0.0
 10
20.8471
 20
-61.5178
 30
0.0
  0
SPLINE
  5
74
330
1F
100
AcDbEntity
  8
layer 1
 62
     7
100
AcDbSpline
210
0.0
220
0.0
230
1.0
 70
    11
 71
     3
 72
    28
 73
    24
 74
     0
 42
0.0000000001
 43
0.0000000001
 12
1.0
 22
0.0
 32
0.0
 13
1.0
 23
0.0
 33
0.0
 40
0.0
 40
0.0
 40
0.0
 40
0.0
 40
0.1428571428571428
 40
0.1428571428571428
 40
0.1428571428571428
 40
0.1428571428571428
 40
0.2857142857142857
 40
0.2857142857142857
 40
0.2857142857142857
 40
0.2857142857142857
 40
0.4285714285714285
 40
0.4285714285714285
 40
0.4285714285714285
 40
0.4285714285714285
 40
0.5714285714285714
 40
0.5714285714285714
 40
0.5714285714285714
 40
0.5714285714285714
 40
0.7142857142857143
 40
0.7142857142857143
 40
0.7142857142857143
 40
0.7142857142857143
 40
1.0
 40
1.0
 40
1.0
 40
1.0
 10
4.4232
 20
-51.004
 30
0.0
 10
4.4232
 20
-51.004
 30
0.0
 10
11.595
 20
-45.3329
 30
0.0
 10
11.595
 20
-45.3329
 30
0.0
 10
11.595
 20
-45.3329
 30
0.0
 10
11.595
 20
-45.3329
 30
0.0
 10
11.6102
 20
-43.2243
 30
0.0
 10
11.6102
 20
-43.2243
 30
0.0
 10
11.6102
 20
-43.2243
 30
0.0
 10
11.6102
 20
-43.2243
 30
0.0
 10
8.1007
 20
-43.2243
 30
0.0
 10
8.1007
 20
-43.2243
 30
0.0
 10
8.1007
 20
-43.2243
 30
0.0
 10
8.1007
 20
-43.2243
 30
0.0
 10
0.8342
 20
-48.7612
 30
0.0
 10
0.8342
 20
-48.7612
 30
0.0
 10
0.8342
 20
-48.7612
 30
0.0
 10
0.8342
 20
-48.7612
 30
0.0
 10
0.813
 20
-50.989
 30
0.0
 10
0.813
 20
-50.989
 30
0.0
 10
0.813
 20
-50.989
 30
0.0
 10
0.813
 20
-50.989
 30
0.0
 10
4.4232
 20
-51.004
 30
0.0
 10
4.4232
 20
-51.004
 30
0.0
  0
SPLINE
  5
75
330
1F
100
AcDbEntity
  8
layer 1
 62
     7
100
AcDbSpline
210
0.0
220
0.0
230
1.0
 70
    11
 71
     3
 72
    28
 73
    24
 74
     0
 42
0.0000000001
 43
0.0000000001
 12
1.0
 22
0.0
 32
0.0
 13
1.0
 23
0.0
 33
0.0
 40
0.0
 40
0.0
 40
0.0
 40
0.0
 40
0.1428571428571428
 40
0.1428571428571428
 40
0.1428571428571428
 40
0.1428571428571428
 40
0.2857142857142857
 40
0.2857142857142857
 40
0.2857142857142857
 40
0.2857142857142857
 40
0.4285714285714285
 40
0.4285714285714285
 40
0.4285714285714285
 40
0.4285714285714285
 40
0.5714285714285714
 40
0.5714285714285714
 40
0.5714285714285714
 40
0.5714285714285714
 40
0.7142857142857143
 40
0.7142857142857143
 40
0.7142857142857143
 40
0.7142857142857143
 40
1.0
 40
1.0
 40
1.0
 40
1.0
 10
4.4232
 20
-54.7792
 30
0.0
 10
4.4232
 20
-54.7792
 30
0.0
 10
11.595
 20
-60.4503
 30
0.0
 10
11.595
 20
-60.4503
 30
0.0
 10
11.595
 20
-60.4503
 30
0.0
 10
11.595
 20
-60.4503
 30
0.0
 10
11.6102
 20
-62.5589
 30
0.0
 10
11.6102
 20
-62.5589
 30
0.0
 10
11.6102
 20
-62.5589
 30
0.0
 10
11.6102
 20
-62.5589
 30
0.0
 10
8.1007
 20
-62.5589
 30
0.0
 10
8.1007
 20
-62.5589
 30
0.0
 10
8.1007
 20
-62.5589
 30
0.0
 10
8.1007
 20
-62.5589
 30
0.0
 10
0.8342
 20
-57.0221
 30
0.0
 10
0.8342
 20
-57.0221
 30
0.0
 10
0.8342
 20
-57.0221
 30
0.0
 10
0.8342
 20
-57.0221
 30
0.0
 10
0.813
 20
-54.7942
 30
0.0
 10
0.813
 20
-54.7942
 30
0.0
 10
0.813
 20
-54.7942
 30
0.0
 10
0.813
 20
-54.7942
 30
0.0
 10
4.4232
 20
-54.7792
 30
0.0
 10
4.4232
 20
-54.7792
 30
0.0
  0
SPLINE
  5
76
330
1F
100
AcDbEntity
  8
layer 1
 62
     7
100
AcDbSpline
210
0.0
220
0.0
230
1.0
 70
    11
 71
     3
 72
    36
 73
    32
 74
     0
 42
0.0000000001
 43
0.0000000001
 12
1.0
 22
0.0
 32
0.0
 13
1.0
 23
0.0
 33
0.0
 40
0.0
 40
0.0
 40
0.0
 40
0.0
 40
0.1111111111111111
 40
0.1111111111111111
 40
0.1111111111111111
 40
0.1111111111111111
 40
0.2222222222222222
 40
0.2222222222222222
 40
0.2222222222222222
 40
0.2222222222222222
 40
0.3333333333333333
 40
0.3333333333333333
 40
0.3333333333333333
 40
0.3333333333333333
 40
0.4444444444444444
 40
0.4444444444444444
 40
0.4444444444444444
 40
0.4444444444444444
 40
0.5555555555555556
 40
0.5555555555555556
 40
0.5555555555555556
 40
0.5555555555555556
 40
0.6666666666666666
 40
0.6666666666666666
 40
0.6666666666666666
 40
0.6666666666666666
 40
0.7777777777777778
 40
0.7777777777777778
 40
0.7777777777777778
 40
0.7777777777777778
 40
1.0
 40
1.0
 40
1.0
 40
1.0
 10
-19.1287
 20
-73.2158
 30
0.0
 10
-19.1287
 20
-73.2158
 30
0.0
 10
-17.4945
 20
-73.2029
 30
0.0
 10
-17.4945
 20
-73.2029
 30
0.0
 10
-17.4945
 20
-73.2029
 30
0.0
 10
-17.4945
 20
-73.2029
 30
0.0
 10
-17.4945
 20
-65.9205
 30
0.0
 10
-17.4945
 20
-65.9205
 30
0.0
 10
-17.4945
 20
-65.9205
 30
0.0
 10
-17.4945
 20
-65.9205
 30
0.0
 10
-19.1287
 20
-65.9205
 30
0.0
 10
-19.1287
 20
-65.9205
 30
0.0
 10
-19.1287
 20
-65.9205
 30
0.0
 10
-19.1287
 20
-65.9205
 30
0.0
 10
-19.1287
 20
-64.4271
 30
0.0
 10
-19.1287
 20
-64.4271
 30
0.0
 10
-19.1287
 20
-64.4271
 30
0.0
 10
-19.1287
 20
-64.4271
 30
0.0
 10
-24.0328
 20
-64.3818
 30
0.0
 10
-24.0328
 20
-64.3818
 30
0.0
 10
-24.0328
 20
-64.3818
 30
0.0
 10
-24.0328
 20
-64.3818
 30
0.0
 10
-24.0328
 20
-74.8881
 30
0.0
 10
-24.0328
 20
-74.8881
 30
0.0
 10
-24.0328
 20
-74.8881
 30
0.0
 10
-24.0328
 20
-74.8881
 30
0.0
 10
-19.1287
 20
-74.8775
 30
0.0
 10
-19.1287
 20
-74.8775
 30
0.0
 10
-19.1287
 20
-74.8775
 30
0.0
 10
-19.1287
 20
-74.8775
 30
0.0
 10
-19.1287
 20
-73.2158
 30
0.0
 10
-19.1287
 20
-73.2158
 30
0.0
  0
SPLINE
  5
77
330
1F
100
AcDbEntity
  8
layer 1
 62
     7
100
AcDbSpline
210
0.0
220
0.0
230
1.0
 70
    11
 71
     3
 72
    36
 73
    32
 74
     0
 42
0.0000000001
 43
0.0000000001
 12
1.0
 22
0.0
 32
0.0
 13
1.0
 23
0.0
 33
0.0
 40
0.0
 40
0.0
 40
0.0
 40
0.0
 40
0.1111111111111111
 40
0.1111111111111111
 40
0.1111111111111111
 40
0.1111111111111111
 40
0.2222222222222222
 40
0.2222222222222222
 40
0.2222222222222222
 40
0.2222222222222222
 40
0.3333333333333333
 40
0.3333333333333333
 40
0.3333333333333333
 40
0.3333333333333333
 40
0.4444444444444444
 40
0.4444444444444444
 40
0.4444444444444444
 40
0.4444444444444444
 40
0.5555555555555556
 40
0.5555555555555556
 40
0.5555555555555556
 40
0.5555555555555556
 40
0.6666666666666666
 40
0.6666666666666666
 40
0.6666666666666666
 40
0.6666666666666666
 40
0.7777777777777778
 40
0.7777777777777778
 40
0.7777777777777778
 40
0.7777777777777778
 40
1.0
 40
1.0
 40
1.0
 40
1.0
 10
15.9945
 20
-73.2158
 30
0.0
 10
15.9945
 20
-73.2158
 30
0.0
 10
14.3602
 20
-73.2029
 30
0.0
 10
14.3602
 20
-73.2029
 30
0.0
 10
14.3602
 20
-73.2029
 30
0.0
 10
14.3602
 20
-73.2029
 30
0.0
 10
14.3602
 20
-65.9205
 30
0.0
 10
14.3602
 20
-65.9205
 30
0.0
 10
14.3602
 20
-65.9205
 30
0.0
 10
14.3602
 20
-65.9205
 30
0.0
 10
15.9945
 20
-65.9205
 30
0.0
 10
15.9945
 20
-65.9205
 30
0.0
 10
15.9945
 20
-65.9205
 30
0.0
 10
15.9945
 20
-65.9205
 30
0.0
 10
15.9945
 20
-64.4271
 30
0.0
 10
15.9945
 20
-64.4271
 30
0.0
 10
15.9945
 20
-64.4271
 30
0.0
 10
15.9945
 20
-64.4271
 30
0.0
 10
20.8985
 20
-64.3818
 30
0.0
 10
20.8985
 20
-64.3818
 30
0.0
 10
20.8985
 20
-64.3818
 30
0.0
 10
20.8985
 20
-64.3818
 30
0.0
 10
20.8985
 20
-74.8881
 30
0.0
 10
20.8985
 20
-74.8881
 30
0.0
 10
20.8985
 20
-74.8881
 30
0.0
 10
20.8985
 20
-74.8881
 30
0.0
 10
15.9945
 20
-74.8775
 30
0.0
 10
15.9945
 20
-74.8775
 30
0.0
 10
15.9945
 20
-74.8775
 30
0.0
 10
15.9945
 20
-74.8775
 30
0.0
 10
15.9945
 20
-73.2158
 30
0.0
 10
15.9945
 20
-73.2158
 30
0.0
  0
SPLINE
  5
78
330
1F
100
AcDbEntity
  8
layer 1
 62
     7
100
AcDbSpline
210
0.0
220
0.0
230
1.0
 70
    11
 71
     3
 72
    48
 73
    44
 74
     0
 42
0.0000000001
 43
0.0000000001
 12
1.0
 22
0.0
 32
0.0
 13
1.0
 23
0.0
 33
0.0
 40
0.0
 40
0.0
 40
0.0
 40
0.0
 40
0.0833333333333333
 40
0.0833333333333333
 40
0.0833333333333333
 40
0.0833333333333333
 40
0.1666666666666667
 40
0.1666666666666667
 40
0.1666666666666667
 40
0.1666666666666667
 40
0.25
 40
0.25
 40
0.25
 40
0.25
 40
0.3333333333333333
 40
0.3333333333333333
 40
0.3333333333333333
 40
0.3333333333333333
 40
0.4166666666666667
 40
0.4166666666666667
 40
0.4166666666666667
 40
0.4166666666666667
 40
0.5
 40
0.5
 40
0.5
 40
0.5
 40
0.5833333333333334
 40
0.5833333333333334
 40
0.5833333333333334
 40
0.5833333333333334
 40
0.6666666666666666
 40
0.6666666666666666
 40
0.6666666666666666
 40
0.6666666666666666
 40
0.75
 40
0.75
 40
0.75
 40
0.75
 40
0.8333333333333334
 40
0.8333333333333334
 40
0.8333333333333334
 40
0.8333333333333334
 40
1.0
 40
1.0
 40
1.0
 40
1.0
 10
-10.4122
 20
-107.1533
 30
0.0
 10
-10.4122
 20
-107.1533
 30
0.0
 10
-14.0638
 20
-107.1404
 30
0.0
 10
-14.0638
 20
-107.1404
 30
0.0
 10
-14.0638
 20
-107.1404
 30
0.0
 10
-14.0638
 20
-107.1404
 30
0.0
 10
-14.0638
 20
-99.858
 30
0.0
 10
-14.0638
 20
-99.858
 30
0.0
 10
-14.0638
 20
-99.858
 30
0.0
 10
-14.0638
 20
-99.858
 30
0.0
 10
-10.526
 20
-99.858
 30
0.0
 10
-10.526
 20
-99.858
 30
0.0
 10
-10.526
 20
-99.858
 30
0.0
 10
-10.526
 20
-99.858
 30
0.0
 10
-1.4367
 20
-93.2109
 30
0.0
 10
-1.4367
 20
-93.2109
 30
0.0
 10
-1.4367
 20
-93.2109
 30
0.0
 10
-1.4367
 20
-93.2109
 30
0.0
 10
7.6525
 20
-99.858
 30
0.0
 10
7.6525
 20
-99.858
 30
0.0
 10
7.6525
 20
-99.858
 30
0.0
 10
7.6525
 20
-99.858
 30
0.0
 10
11.1903
 20
-99.858
 30
0.0
 10
11.1903
 20
-99.858
 30
0.0
 10
11.1903
 20
-99.858
 30
0.0
 10
11.1903
 20
-99.858
 30
0.0
 10
11.1903
 20
-107.1404
 30
0.0
 10
11.1903
 20
-107.1404
 30
0.0
 10
11.1903
 20
-107.1404
 30
0.0
 10
11.1903
 20
-107.1404
 30
0.0
 10
7.5387
 20
-107.1533
 30
0.0
 10
7.5387
 20
-107.1533
 30
0.0
 10
7.5387
 20
-107.1533
 30
0.0
 10
7.5387
 20
-107.1533
 30
0.0
 10
5.6582
 20
-108.5169
 30
0.0
 10
5.6582
 20
-108.5169
 30
0.0
 10
5.6582
 20
-108.5169
 30
0.0
 10
5.6582
 20
-108.5169
 30
0.0
 10
-8.4771
 20
-108.5565
 30
0.0
 10
-8.4771
 20
-108.5565
 30
0.0
 10
-8.4771
 20
-108.5565
 30
0.0
 10
-8.4771
 20
-108.5565
 30
0.0
 10
-10.4122
 20
-107.1533
 30
0.0
 10
-10.4122
 20
-107.1533
 30
0.0
  0
SPLINE
  5
79
330
1F
100
AcDbEntity
  8
layer 1
 62
     7
100
AcDbSpline
210
0.0
220
0.0
230
1.0
 70
    11
 71
     3
 72
    32
 73
    28
 74
     0
 42
0.0000000001
 43
0.0000000001
 12
1.0
 22
0.0
 32
0.0
 13
1.0
 23
0.0
 33
0.0
 40
0.0
 40
0.0
 40
0.0
 40
0.0
 40
0.125
 40
0.125
 40
0.125
 40
0.125
 40
0.25
 40
0.25
 40
0.25
 40
0.25
 40
0.375
 40
0.375
 40
0.375
 40
0.375
 40
0.5
 40
0.5
 40
0.5
 40
0.5
 40
0.625
 40
0.625
 40
0.625
 40
0.625
 40
0.75
 40
0.75
 40
0.75
 40
0.75
 40
1.0
 40
1.0
 40
1.0
 40
1.0
 10
-24.0328
 20
-95.3011
 30
0.0
 10
-24.0328
 20
-95.3011
 30
0.0
 10
-24.0328
 20
-78.2121
 30
0.0
 10
-24.0328
 20
-78.2121
 30
0.0
 10
-24.0328
 20
-78.2121
 30
0.0
 10
-24.0328
 20
-78.2121
 30
0.0
 10
-19.4732
 20
-78.2121
 30
0.0
 10
-19.4732
 20
-78.2121
 30
0.0
 10
-19.4732
 20
-78.2121
 30
0.0
 10
-19.4732
 20
-78.2121
 30
0.0
 10
-19.3679
 20
-80.1108
 30
0.0
 10
-19.3679
 20
-80.1108
 30
0.0
 10
-19.3679
 20
-80.1108
 30
0.0
 10
-19.3679
 20
-80.1108
 30
0.0
 10
-10.4121
 20
-86.6551
 30
0.0
 10
-10.4121
 20
-86.6551
 30
0.0
 10
-10.4121
 20
-86.6551
 30
0.0
 10
-10.4121
 20
-86.6551
 30
0.0
 10
-19.3137
 20
-93.5478
 30
0.0
 10
-19.3137
 20
-93.5478
 30
0.0
 10
-19.3137
 20
-93.5478
 30
0.0
 10
-19.3137
 20
-93.5478
 30
0.0
 10
-19.3556
 20
-95.3011
 30
0.0
 10
-19.3556
 20
-95.3011
 30
0.0
 10
-19.3556
 20
-95.3011
 30
0.0
 10
-19.3556
 20
-95.3011
 30
0.0
 10
-24.0328
 20
-95.3011
 30
0.0
 10
-24.0328
 20
-95.3011
 30
0.0
  0
SPLINE
  5
7A
330
1F
100
AcDbEntity
  8
layer 1
 62
     7
100
AcDbSpline
210
0.0
220
0.0
230
1.0
 70
    11
 71
     3
 72
    28
 73
    24
 74
     0
 42
0.0000000001
 43
0.0000000001
 12
1.0
 22
0.0
 32
0.0
 13
1.0
 23
0.0
 33
0.0
 40
0.0
 40
0.0
 40
0.0
 40
0.0
 40
0.1428571428571428
 40
0.1428571428571428
 40
0.1428571428571428
 40
0.1428571428571428
 40
0.2857142857142857
 40
0.2857142857142857
 40
0.2857142857142857
 40
0.2857142857142857
 40
0.4285714285714285
 40
0.4285714285714285
 40
0.4285714285714285
 40
0.4285714285714285
 40
0.5714285714285714
 40
0.5714285714285714
 40
0.5714285714285714
 40
0.5714285714285714
 40
0.7142857142857143
 40
0.7142857142857143
 40
0.7142857142857143
 40
0.7142857142857143
 40
1.0
 40
1.0
 40
1.0
 40
1.0
 10
-7.6088
 20
-84.7873
 30
0.0
 10
-7.6088
 20
-84.7873
 30
0.0
 10
-14.7806
 20
-79.1162
 30
0.0
 10
-14.7806
 20
-79.1162
 30
0.0
 10
-14.7806
 20
-79.1162
 30
0.0
 10
-14.7806
 20
-79.1162
 30
0.0
 10
-14.7958
 20
-77.0076
 30
0.0
 10
-14.7958
 20
-77.0076
 30
0.0
 10
-14.7958
 20
-77.0076
 30
0.0
 10
-14.7958
 20
-77.0076
 30
0.0
 10
-11.2863
 20
-77.0076
 30
0.0
 10
-11.2863
 20
-77.0076
 30
0.0
 10
-11.2863
 20
-77.0076
 30
0.0
 10
-11.2863
 20
-77.0076
 30
0.0
 10
-4.0198
 20
-82.5444
 30
0.0
 10
-4.0198
 20
-82.5444
 30
0.0
 10
-4.0198
 20
-82.5444
 30
0.0
 10
-4.0198
 20
-82.5444
 30
0.0
 10
-3.9986
 20
-84.7723
 30
0.0
 10
-3.9986
 20
-84.7723
 30
0.0
 10
-3.9986
 20
-84.7723
 30
0.0
 10
-3.9986
 20
-84.7723
 30
0.0
 10
-7.6088
 20
-84.7873
 30
0.0
 10
-7.6088
 20
-84.7873
 30
0.0
  0
SPLINE
  5
7B
330
1F
100
AcDbEntity
  8
layer 1
 62
     7
100
AcDbSpline
210
0.0
220
0.0
230
1.0
 70
    11
 71
     3
 72
    28
 73
    24
 74
     0
 42
0.0000000001
 43
0.0000000001
 12
1.0
 22
0.0
 32
0.0
 13
1.0
 23
0.0
 33
0.0
 40
0.0
 40
0.0
 40
0.0
 40
0.0
 40
0.1428571428571428
 40
0.1428571428571428
 40
0.1428571428571428
 40
0.1428571428571428
 40
0.2857142857142857
 40
0.2857142857142857
 40
0.2857142857142857
 40
0.2857142857142857
 40
0.4285714285714285
 40
0.4285714285714285
 40
0.4285714285714285
 40
0.4285714285714285
 40
0.5714285714285714
 40
0.5714285714285714
 40
0.5714285714285714
 40
0.5714285714285714
 40
0.7142857142857143
 40
0.7142857142857143
 40
0.7142857142857143
 40
0.7142857142857143
 40
1.0
 40
1.0
 40
1.0
 40
1.0
 10
-7.6088
 20
-88.5625
 30
0.0
 10
-7.6088
 20
-88.5625
 30
0.0
 10
-14.7806
 20
-94.2336
 30
0.0
 10
-14.7806
 20
-94.2336
 30
0.0
 10
-14.7806
 20
-94.2336
 30
0.0
 10
-14.7806
 20
-94.2336
 30
0.0
 10
-14.7958
 20
-96.3422
 30
0.0
 10
-14.7958
 20
-96.3422
 30
0.0
 10
-14.7958
 20
-96.3422
 30
0.0
 10
-14.7958
 20
-96.3422
 30
0.0
 10
-11.2863
 20
-96.3422
 30
0.0
 10
-11.2863
 20
-96.3422
 30
0.0
 10
-11.2863
 20
-96.3422
 30
0.0
 10
-11.2863
 20
-96.3422
 30
0.0
 10
-4.0198
 20
-90.8053
 30
0.0
 10
-4.0198
 20
-90.8053
 30
0.0
 10
-4.0198
 20
-90.8053
 30
0.0
 10
-4.0198
 20
-90.8053
 30
0.0
 10
-3.9986
 20
-88.5775
 30
0.0
 10
-3.9986
 20
-88.5775
 30
0.0
 10
-3.9986
 20
-88.5775
 30
0.0
 10
-3.9986
 20
-88.5775
 30
0.0
 10
-7.6088
 20
-88.5625
 30
0.0
 10
-7.6088
 20
-88.5625
 30
0.0
  0
SPLINE
  5
7C
330
1F
100
AcDbEntity
  8
layer 1
 62
     7
100
AcDbSpline
210
0.0
220
0.0
230
1.0
 70
    11
 71
     3
 72
    32
 73
    28
 74
     0
 42
0.0000000001
 43
0.0000000001
 12
1.0
 22
0.0
 32
0.0
 13
1.0
 23
0.0
 33
0.0
 40
0.0
 40
0.0
 40
0.0
 40
0.0
 40
0.125
 40
0.125
 40
0.125
 40
0.125
 40
0.25
 40
0.25
 40
0.25
 40
0.25
 40
0.375
 40
0.375
 40
0.375
 40
0.375
 40
0.5
 40
0.5
 40
0.5
 40
0.5
 40
0.625
 40
0.625
 40
0.625
 40
0.625
 40
0.75
 40
0.75
 40
0.75
 40
0.75
 40
1.0
 40
1.0
 40
1.0
 40
1.0
 10
20.8471
 20
-95.3011
 30
0.0
 10
20.8471
 20
-95.3011
 30
0.0
 10
20.8471
 20
-78.2121
 30
0.0
 10
20.8471
 20
-78.2121
 30
0.0
 10
20.8471
 20
-78.2121
 30
0.0
 10
20.8471
 20
-78.2121
 30
0.0
 10
16.2876
 20
-78.2121
 30
0.0
 10
16.2876
 20
-78.2121
 30
0.0
 10
16.2876
 20
-78.2121
 30
0.0
 10
16.2876
 20
-78.2121
 30
0.0
 10
16.1823
 20
-80.1108
 30
0.0
 10
16.1823
 20
-80.1108
 30
0.0
 10
16.1823
 20
-80.1108
 30
0.0
 10
16.1823
 20
-80.1108
 30
0.0
 10
7.2264
 20
-86.6551
 30
0.0
 10
7.2264
 20
-86.6551
 30
0.0
 10
7.2264
 20
-86.6551
 30
0.0
 10
7.2264
 20
-86.6551
 30
0.0
 10
16.1281
 20
-93.5478
 30
0.0
 10
16.1281
 20
-93.5478
 30
0.0
 10
16.1281
 20
-93.5478
 30
0.0
 10
16.1281
 20
-93.5478
 30
0.0
 10
16.1699
 20
-95.3011
 30
0.0
 10
16.1699
 20
-95.3011
 30
0.0
 10
16.1699
 20
-95.3011
 30
0.0
 10
16.1699
 20
-95.3011
 30
0.0
 10
20.8471
 20
-95.3011
 30
0.0
 10
20.8471
 20
-95.3011
 30
0.0
  0
SPLINE
  5
7D
330
1F
100
AcDbEntity
  8
layer 1
 62
     7
100
AcDbSpline
210
0.0
220
0.0
230
1.0
 70
    11
 71
     3
 72
    28
 73
    24
 74
     0
 42
0.0000000001
 43
0.0000000001
 12
1.0
 22
0.0
 32
0.0
 13
1.0
 23
0.0
 33
0.0
 40
0.0
 40
0.0
 40
0.0
 40
0.0
 40
0.1428571428571428
 40
0.1428571428571428
 40
0.1428571428571428
 40
0.1428571428571428
 40
0.2857142857142857
 40
0.2857142857142857
 40
0.2857142857142857
 40
0.2857142857142857
 40
0.4285714285714285
 40
0.4285714285714285
 40
0.4285714285714285
 40
0.4285714285714285
 40
0.5714285714285714
 40
0.5714285714285714
 40
0.5714285714285714
 40
0.5714285714285714
 40
0.7142857142857143
 40
0.7142857142857143
 40
0.7142857142857143
 40
0.7142857142857143
 40
1.0
 40
1.0
 40
1.0
 40
1.0
 10
4.4232
 20
-84.7873
 30
0.0
 10
4.4232
 20
-84.7873
 30
0.0
 10
11.595
 20
-79.1162
 30
0.0
 10
11.595
 20
-79.1162
 30
0.0
 10
11.595
 20
-79.1162
 30
0.0
 10
11.595
 20
-79.1162
 30
0.0
 10
11.6102
 20
-77.0076
 30
0.0
 10
11.6102
 20
-77.0076
 30
0.0
 10
11.6102
 20
-77.0076
 30
0.0
 10
11.6102
 20
-77.0076
 30
0.0
 10
8.1007
 20
-77.0076
 30
0.0
 10
8.1007
 20
-77.0076
 30
0.0
 10
8.1007
 20
-77.0076
 30
0.0
 10
8.1007
 20
-77.0076
 30
0.0
 10
0.8342
 20
-82.5444
 30
0.0
 10
0.8342
 20
-82.5444
 30
0.0
 10
0.8342
 20
-82.5444
 30
0.0
 10
0.8342
 20
-82.5444
 30
0.0
 10
0.813
 20
-84.7723
 30
0.0
 10
0.813
 20
-84.7723
 30
0.0
 10
0.813
 20
-84.7723
 30
0.0
 10
0.813
 20
-84.7723
 30
0.0
 10
4.4232
 20
-84.7873
 30
0.0
 10
4.4232
 20
-84.7873
 30
0.0
  0
SPLINE
  5
7E
330
1F
100
AcDbEntity
  8
layer 1
 62
     7
100
AcDbSpline
210
0.0
220
0.0
230
1.0
 70
    11
 71
     3
 72
    28
 73
    24
 74
     0
 42
0.0000000001
 43
0.0000000001
 12
1.0
 22
0.0
 32
0.0
 13
1.0
 23
0.0
 33
0.0
 40
0.0
 40
0.0
 40
0.0
 40
0.0
 40
0.1428571428571428
 40
0.1428571428571428
 40
0.1428571428571428
 40
0.1428571428571428
 40
0.2857142857142857
 40
0.2857142857142857
 40
0.2857142857142857
 40
0.2857142857142857
 40
0.4285714285714285
 40
0.4285714285714285
 40
0.4285714285714285
 40
0.4285714285714285
 40
0.5714285714285714
 40
0.5714285714285714
 40
0.5714285714285714
 40
0.5714285714285714
 40
0.7142857142857143
 40
0.7142857142857143
 40
0.7142857142857143
 40
0.7142857142857143
 40
1.0
 40
1.0
 40
1.0
 40
1.0
 10
4.4232
 20
-88.5625
 30
0.0
 10
4.4232
 20
-88.5625
 30
0.0
 10
11.595
 20
-94.2336
 30
0.0
 10
11.595
 20
-94.2336
 30
0.0
 10
11.595
 20
-94.2336
 30
0.0
 10
11.595
 20
-94.2336
 30
0.0
 10
11.6102
 20
-96.3422
 30
0.0
 10
11.6102
 20
-96.3422
 30
0.0
 10
11.6102
 20
-96.3422
 30
0.0
 10
11.6102
 20
-96.3422
 30
0.0
 10
8.1007
 20
-96.3422
 30
0.0
 10
8.1007
 20
-96.3422
 30
0.0
 10
8.1007
 20
-96.3422
 30
0.0
 10
8.1007
 20
-96.3422
 30
0.0
 10
0.8342
 20
-90.8053
 30
0.0
 10
0.8342
 20
-90.8053
 30
0.0
 10
0.8342
 20
-90.8053
 30
0.0
 10
0.8342
 20
-90.8053
 30
0.0
 10
0.813
 20
-88.5775
 30
0.0
 10
0.813
 20
-88.5775
 30
0.0
 10
0.813
 20
-88.5775
 30
0.0
 10
0.813
 20
-88.5775
 30
0.0
 10
4.4232
 20
-88.5625
 30
0.0
 10
4.4232
 20
-88.5625
 30
0.0
  0
SPLINE
  5
7F
330
1F
100
AcDbEntity
  8
layer 1
 62
     7
100
AcDbSpline
210
0.0
220
0.0
230
1.0
 70
    11
 71
     3
 72
    36
 73
    32
 74
     0
 42
0.0000000001
 43
0.0000000001
 12
1.0
 22
0.0
 32
0.0
 13
1.0
 23
0.0
 33
0.0
 40
0.0
 40
0.0
 40
0.0
 40
0.0
 40
0.1111111111111111
 40
0.1111111111111111
 40
0.1111111111111111
 40
0.1111111111111111
 40
0.2222222222222222
 40
0.2222222222222222
 40
0.2222222222222222
 40
0.2222222222222222
 40
0.3333333333333333
 40
0.3333333333333333
 40
0.3333333333333333
 40
0.3333333333333333
 40
0.4444444444444444
 40
0.4444444444444444
 40
0.4444444444444444
 40
0.4444444444444444
 40
0.5555555555555556
 40
0.5555555555555556
 40
0.5555555555555556
 40
0.5555555555555556
 40
0.6666666666666666
 40
0.6666666666666666
 40
0.6666666666666666
 40
0.6666666666666666
 40
0.7777777777777778
 40
0.7777777777777778
 40
0.7777777777777778
 40
0.7777777777777778
 40
1.0
 40
1.0
 40
1.0
 40
1.0
 10
-19.1287
 20
-106.9991
 30
0.0
 10
-19.1287
 20
-106.9991
 30
0.0
 10
-17.4945
 20
-106.9862
 30
0.0
 10
-17.4945
 20
-106.9862
 30
0.0
 10
-17.4945
 20
-106.9862
 30
0.0
 10
-17.4945
 20
-106.9862
 30
0.0
 10
-17.4945
 20
-99.7038
 30
0.0
 10
-17.4945
 20
-99.7038
 30
0.0
 10
-17.4945
 20
-99.7038
 30
0.0
 10
-17.4945
 20
-99.7038
 30
0.0
 10
-19.1287
 20
-99.7038
 30
0.0
 10
-19.1287
 20
-99.7038
 30
0.0
 10
-19.1287
 20
-99.7038
 30
0.0
 10
-19.1287
 20
-99.7038
 30
0.0
 10
-19.1287
 20
-98.2103
 30
0.0
 10
-19.1287
 20
-98.2103
 30
0.0
 10
-19.1287
 20
-98.2103
 30
0.0
 10
-19.1287
 20
-98.2103
 30
0.0
 10
-24.0328
 20
-98.1651
 30
0.0
 10
-24.0328
 20
-98.1651
 30
0.0
 10
-24.0328
 20
-98.1651
 30
0.0
 10
-24.0328
 20
-98.1651
 30
0.0
 10
-24.0328
 20
-108.6713
 30
0.0
 10
-24.0328
 20
-108.6713
 30
0.0
 10
-24.0328
 20
-108.6713
 30
0.0
 10
-24.0328
 20
-108.6713
 30
0.0
 10
-19.1287
 20
-108.6607
 30
0.0
 10
-19.1287
 20
-108.6607
 30
0.0
 10
-19.1287
 20
-108.6607
 30
0.0
 10
-19.1287
 20
-108.6607
 30
0.0
 10
-19.1287
 20
-106.9991
 30
0.0
 10
-19.1287
 20
-106.9991
 30
0.0
  0
SPLINE
  5
80
330
1F
100
AcDbEntity
  8
layer 1
 62
     7
100
AcDbSpline
210
0.0
220
0.0
230
1.0
 70
    11
 71
     3
 72
    36
 73
    32
 74
     0
 42
0.0000000001
 43
0.0000000001
 12
1.0
 22
0.0
 32
0.0
 13
1.0
 23
0.0
 33
0.0
 40
0.0
 40
0.0
 40
0.0
 40
0.0
 40
0.1111111111111111
 40
0.1111111111111111
 40
0.1111111111111111
 40
0.1111111111111111
 40
0.2222222222222222
 40
0.2222222222222222
 40
0.2222222222222222
 40
0.2222222222222222
 40
0.3333333333333333
 40
0.3333333333333333
 40
0.3333333333333333
 40
0.3333333333333333
 40
0.4444444444444444
 40
0.4444444444444444
 40
0.4444444444444444
 40
0.4444444444444444
 40
0.5555555555555556
 40
0.5555555555555556
 40
0.5555555555555556
 40
0.5555555555555556
 40
0.6666666666666666
 40
0.6666666666666666
 40
0.6666666666666666
 40
0.6666666666666666
 40
0.7777777777777778
 40
0.7777777777777778
 40
0.7777777777777778
 40
0.7777777777777778
 40
1.0
 40
1.0
 40
1.0
 40
1.0
 10
15.9945
 20
-106.9991
 30
0.0
 10
15.9945
 20
-106.9991
 30
0.0
 10
14.3602
 20
-106.9862
 30
0.0
 10
14.3602
 20
-106.9862
 30
0.0
 10
14.3602
 20
-106.9862
 30
0.0
 10
14.3602
 20
-106.9862
 30
0.0
 10
14.3602
 20
-99.7038
 30
0.0
 10
14.3602
 20
-99.7038
 30
0.0
 10
14.3602
 20
-99.7038
 30
0.0
 10
14.3602
 20
-99.7038
 30
0.0
 10
15.9945
 20
-99.7038
 30
0.0
 10
15.9945
 20
-99.7038
 30
0.0
 10
15.9945
 20
-99.7038
 30
0.0
 10
15.9945
 20
-99.7038
 30
0.0
 10
15.9945
 20
-98.2103
 30
0.0
 10
15.9945
 20
-98.2103
 30
0.0
 10
15.9945
 20
-98.2103
 30
0.0
 10
15.9945
 20
-98.2103
 30
0.0
 10
20.8985
 20
-98.1651
 30
0.0
 10
20.8985
 20
-98.1651
 30
0.0
 10
20.8985
 20
-98.1651
 30
0.0
 10
20.8985
 20
-98.1651
 30
0.0
 10
20.8985
 20
-108.6713
 30
0.0
 10
20.8985
 20
-108.6713
 30
0.0
 10
20.8985
 20
-108.6713
 30
0.0
 10
20.8985
 20
-108.6713
 30
0.0
 10
15.9945
 20
-108.6607
 30
0.0
 10
15.9945
 20
-108.6607
 30
0.0
 10
15.9945
 20
-108.6607
 30
0.0
 10
15.9945
 20
-108.6607
 30
0.0
 10
15.9945
 20
-106.9991
 30
0.0
 10
15.9945
 20
-106.9991
 30
0.0
  0
SPLINE
  5
81
330
1F
100
AcDbEntity
  8
layer 1
 62
     7
100
AcDbSpline
210
0.0
220
0.0
230
1.0
 70
    11
 71
     3
 72
    16
 73
    12
 74
     0
 42
0.0000000001
 43
0.0000000001
 12
1.0
 22
0.0
 32
0.0
 13
1.0
 23
0.0
 33
0.0
 40
0.0
 40
0.0
 40
0.0
 40
0.0
 40
0.25
 40
0.25
 40
0.25
 40
0.25
 40
0.5
 40
0.5
 40
0.5
 40
0.5
 40
1.0
 40
1.0
 40
1.0
 40
1.0
 10
3.1057
 20
125.9072
 30
0.0
 10
3.1057
 20
125.9072
 30
0.0
 10
-1.4369
 20
122.6136
 30
0.0
 10
-1.4369
 20
122.6136
 30
0.0
 10
-1.4369
 20
122.6136
 30
0.0
 10
-1.4369
 20
122.6136
 30
0.0
 10
-5.7991
 20
125.7767
 30
0.0
 10
-5.7991
 20
125.7767
 30
0.0
 10
-5.7991
 20
125.7767
 30
0.0
 10
-5.7991
 20
125.7767
 30
0.0
 10
3.1057
 20
125.9072
 30
0.0
 10
3.1057
 20
125.9072
 30
0.0
  0
ENDSEC
  0
SECTION
  2
OBJECTS
  0
DICTIONARY
  5
C
330
0
100
AcDbDictionary
281
     1
  3
ACAD_GROUP
350
D
  3
ACAD_LAYOUT
350
1A
  3
ACAD_MATERIAL
350
3B
  3
ACAD_MLEADERSTYLE
350
A3
  3
ACAD_MLINESTYLE
350
17
  3
ACAD_PLOTSETTINGS
350
19
  3
ACAD_PLOTSTYLENAME
350
E
  3
ACAD_TABLESTYLE
350
A2
  3
ACAD_VISUALSTYLE
350
2A
  0
DICTIONARY
  5
D
102
{ACAD_REACTORS
330
C
102
}
330
C
100
AcDbDictionary
281
     1
  0
DICTIONARY
  5
1A
102
{ACAD_REACTORS
330
C
102
}
330
C
100
AcDbDictionary
281
     1
  3
Layout1
350
1E
  3
Layout2
350
26
  3
Model
350
22
  0
DICTIONARY
  5
3B
102
{ACAD_REACTORS
330
C
102
}
330
C
100
AcDbDictionary
281
     1
  3
ByBlock
350
3D
  3
ByLayer
350
3C
  3
Global
350
3E
  0
DICTIONARY
  5
A3
102
{ACAD_REACTORS
330
C
102
}
330
C
100
AcDbDictionary
281
     1
  0
DICTIONARY
  5
17
102
{ACAD_REACTORS
330
C
102
}
330
C
100
AcDbDictionary
281
     1
  3
Standard
350
18
  0
DICTIONARY
  5
19
102
{ACAD_REACTORS
330
C
102
}
330
C
100
AcDbDictionary
281
     1
  0
ACDBDICTIONARYWDFLT
  5
E
102
{ACAD_REACTORS
330
C
102
}
330
C
100
AcDbDictionary
281
     1
  3
Normal
350
F
100
AcDbDictionaryWithDefault
340
F
  0
DICTIONARY
  5
A2
102
{ACAD_REACTORS
330
C
102
}
330
C
100
AcDbDictionary
281
     1
  0
DICTIONARY
  5
2A
102
{ACAD_REACTORS
330
C
102
}
330
C
100
AcDbDictionary
281
     1
  3
2dWireframe
350
2F
  3
3D Hidden
350
31
  3
3dWireframe
350
30
  3
Basic
350
32
  3
Brighten
350
36
  3
ColorChange
350
3A
  3
Conceptual
350
34
  3
Dim
350
35
  3
Facepattern
350
39
  3
Flat
350
2B
  3
FlatWithEdges
350
2C
  3
Gouraud
350
2D
  3
GouraudWithEdges
350
2E
  3
Linepattern
350
38
  3
Realistic
350
33
  3
Thicken
350
37
  0
LAYOUT
  5
1E
102
{ACAD_REACTORS
330
1A
102
}
330
1A
100
AcDbPlotSettings
  1

  2
none_device
  4

  6

 40
0.0
 41
0.0
 42
0.0
 43
0.0
 44
0.0
 45
0.0
 46
0.0
 47
0.0
 48
0.0
 49
0.0
140
0.0
141
0.0
142
1.0
143
1.0
 70
   688
 72
     0
 73
     0
 74
     5
  7

 75
    16
 76
     0
 77
     2
 78
   300
147
1.0
148
0.0
149
0.0
100
AcDbLayout
  1
Layout1
 70
     1
 71
     1
 10
0.0
 20
0.0
 11
12.0
 21
9.0
 12
0.0
 22
0.0
 32
0.0
 14
1.000000000000000E+20
 24
1.000000000000000E+20
 34
1.000000000000000E+20
 15
-1.000000000000000E+20
 25
-1.000000000000000E+20
 35
-1.000000000000000E+20
146
0.0
 13
0.0
 23
0.0
 33
0.0
 16
1.0
 26
0.0
 36
0.0
 17
0.0
 27
1.0
 37
0.0
 76
     0
330
1B
  0
LAYOUT
  5
26
102
{ACAD_REACTORS
330
1A
102
}
330
1A
100
AcDbPlotSettings
  1

  2
none_device
  4

  6

 40
0.0
 41
0.0
 42
0.0
 43
0.0
 44
0.0
 45
0.0
 46
0.0
 47
0.0
 48
0.0
 49
0.0
140
0.0
141
0.0
142
1.0
143
1.0
 70
   688
 72
     0
 73
     0
 74
     5
  7

 75
    16
 76
     0
 77
     2
 78
   300
147
1.0
148
0.0
149
0.0
100
AcDbLayout
  1
Layout2
 70
     1
 71
     2
 10
0.0
 20
0.0
 11
0.0
 21
0.0
 12
0.0
 22
0.0
 32
0.0
 14
0.0
 24
0.0
 34
0.0
 15
0.0
 25
0.0
 35
0.0
146
0.0
 13
0.0
 23
0.0
 33
0.0
 16
1.0
 26
0.0
 36
0.0
 17
0.0
 27
1.0
 37
0.0
 76
     0
330
23
  0
LAYOUT
  5
22
102
{ACAD_REACTORS
330
1A
102
}
330
1A
100
AcDbPlotSettings
  1

  2
none_device
  4

  6

 40
0.0
 41
0.0
 42
0.0
 43
0.0
 44
0.0
 45
0.0
 46
0.0
 47
0.0
 48
0.0
 49
0.0
140
0.0
141
0.0
142
1.0
143
1.0
 70
  1712
 72
     0
 73
     0
 74
     0
  7

 75
     0
 76
     0
 77
     2
 78
   300
147
1.0
148
0.0
149
0.0
100
AcDbLayout
  1
Model
 70
     1
 71
     0
 10
0.0
 20
0.0
 11
12.0
 21
9.0
 12
0.0
 22
0.0
 32
0.0
 14
-30.3933
 24
-114.5692
 34
0.0
 15
27.2591
 25
131.8049
 35
0.0
146
0.0
 13
0.0
 23
0.0
 33
0.0
 16
1.0
 26
0.0
 36
0.0
 17
0.0
 27
1.0
 37
0.0
 76
     0
330
1F
331
29
  0
MATERIAL
  5
3D
102
{ACAD_REACTORS
330
3B
102
}
330
3B
100
AcDbMaterial
  1
ByBlock
 72
     1
 94
      127
  0
MATERIAL
  5
3C
102
{ACAD_REACTORS
330
3B
102
}
330
3B
100
AcDbMaterial
  1
ByLayer
 72
     1
 94
      127
  0
MATERIAL
  5
3E
102
{ACAD_REACTORS
330
3B
102
}
330
3B
100
AcDbMaterial
  1
Global
 72
     1
 94
      127
  0
MLINESTYLE
  5
18
102
{ACAD_REACTORS
330
17
102
}
330
17
100
AcDbMlineStyle
  2
Standard
 70
     0
  3

 62
   256
 51
90.0
 52
90.0
 71
     2
 49
0.5
 62
   256
  6
BYLAYER
 49
-0.5
 62
   256
  6
BYLAYER
  0
ACDBPLACEHOLDER
  5
F
102
{ACAD_REACTORS
330
E
102
}
330
E
  0
VISUALSTYLE
  5
2F
102
{ACAD_REACTORS
330
2A
102
}
102
{ACAD_XDICTIONARY
360
8A
102
}
330
2A
100
AcDbVisualStyle
  2
2dWireframe
 70
     4
 71
     0
 72
     2
 73
     0
 90
        0
 40
-0.6
 41
-30.0
 62
     5
 63
     7
421
 16777215
 74
     1
 91
        4
 64
     7
 65
   257
 75
     1
175
     1
 42
1.0
 92
        0
 66
   257
 43
1.0
 76
     1
 77
     6
 78
     2
 67
     7
 79
     5
170
     0
171
     0
290
     0
174
     0
 93
        1
 44
0.0
173
     0
291
     0
 45
0.0
  0
VISUALSTYLE
  5
31
102
{ACAD_REACTORS
330
2A
102
}
102
{ACAD_XDICTIONARY
360
8E
102
}
330
2A
100
AcDbVisualStyle
  2
3D Hidden
 70
     6
 71
     1
 72
     2
 73
     2
 90
        0
 40
-0.6
 41
-30.0
 62
     5
 63
     7
421
 16777215
 74
     2
 91
        2
 64
     7
 65
   257
 75
     2
175
     1
 42
40.0
 92
        0
 66
   257
 43
1.0
 76
     1
 77
     6
 78
     2
 67
     7
 79
     3
170
     0
171
     0
290
     0
174
     0
 93
        1
 44
0.0
173
     0
291
     0
 45
0.0
  0
VISUALSTYLE
  5
30
102
{ACAD_REACTORS
330
2A
102
}
102
{ACAD_XDICTIONARY
360
8C
102
}
330
2A
100
AcDbVisualStyle
  2
3dWireframe
 70
     5
 71
     0
 72
     2
 73
     0
 90
        0
 40
-0.6
 41
-30.0
 62
     5
 63
     7
421
 16777215
 74
     1
 91
        4
 64
     7
 65
   257
 75
     1
175
     1
 42
1.0
 92
        0
 66
   257
 43
1.0
 76
     1
 77
     6
 78
     2
 67
     7
 79
     5
170
     0
171
     0
290
     0
174
     0
 93
        1
 44
0.0
173
     0
291
     0
 45
0.0
  0
VISUALSTYLE
  5
32
102
{ACAD_REACTORS
330
2A
102
}
102
{ACAD_XDICTIONARY
360
90
102
}
330
2A
100
AcDbVisualStyle
  2
Basic
 70
     7
 71
     1
 72
     0
 73
     1
 90
        0
 40
-0.6
 41
-30.0
 62
     5
 63
     7
421
 16777215
 74
     0
 91
        4
 64
     7
 65
   257
 75
     1
175
     1
 42
1.0
 92
        8
 66
     7
 43
1.0
 76
     1
 77
     6
 78
     2
 67
     7
 79
     5
170
     0
171
     0
290
     0
174
     0
 93
        1
 44
0.0
173
     0
291
     1
 45
0.0
  0
VISUALSTYLE
  5
36
102
{ACAD_REACTORS
330
2A
102
}
102
{ACAD_XDICTIONARY
360
98
102
}
330
2A
100
AcDbVisualStyle
  2
Brighten
 70
    12
 71
     2
 72
     2
 73
     0
 90
        0
 40
-0.6
 41
-30.0
 62
     5
 63
     7
421
 16777215
 74
     1
 91
        4
 64
     7
 65
   257
 75
     1
175
     1
 42
1.0
 92
        8
 66
     7
 43
1.0
 76
     1
 77
     6
 78
     2
 67
     7
 79
     5
170
     0
171
     0
290
     0
174
     0
 93
        1
 44
50.0
173
     0
291
     1
 45
0.0
  0
VISUALSTYLE
  5
3A
102
{ACAD_REACTORS
330
2A
102
}
102
{ACAD_XDICTIONARY
360
A0
102
}
330
2A
100
AcDbVisualStyle
  2
ColorChange
 70
    16
 71
     2
 72
     2
 73
     3
 90
        0
 40
-0.6
 41
-30.0
 62
     5
 63
     8
421
  8421504
 74
     1
 91
        4
 64
     7
 65
   257
 75
     1
175
     1
 42
1.0
 92
        8
 66
     8
424
  8421504
 43
1.0
 76
     1
 77
     6
 78
     2
 67
     7
 79
     5
170
     0
171
     0
290
     0
174
     0
 93
        1
 44
0.0
173
     0
291
     1
 45
0.0
  0
VISUALSTYLE
  5
34
102
{ACAD_REACTORS
330
2A
102
}
102
{ACAD_XDICTIONARY
360
94
102
}
330
2A
100
AcDbVisualStyle
  2
Conceptual
 70
     9
 71
     3
 72
     2
 73
     0
 90
        0
 40
-0.6
 41
-30.0
 62
     5
 63
     7
421
 16777215
 74
     2
 91
        2
 64
     7
 65
   257
 75
     1
175
     1
 42
40.0
 92
        8
 66
     7
 43
1.0
 76
     1
 77
     6
 78
     2
 67
     7
 79
     3
170
     0
171
     0
290
     0
174
     0
 93
        1
 44
0.0
173
     0
291
     0
 45
0.0
  0
VISUALSTYLE
  5
35
102
{ACAD_REACTORS
330
2A
102
}
102
{ACAD_XDICTIONARY
360
96
102
}
330
2A
100
AcDbVisualStyle
  2
Dim
 70
    11
 71
     2
 72
     2
 73
     0
 90
        0
 40
-0.6
 41
-30.0
 62
     5
 63
     7
421
 16777215
 74
     1
 91
        4
 64
     7
 65
   257
 75
     1
175
     1
 42
1.0
 92
        8
 66
     7
 43
1.0
 76
     1
 77
     6
 78
     2
 67
     7
 79
     5
170
     0
171
     0
290
     0
174
     0
 93
        1
 44
-50.0
173
     0
291
     1
 45
0.0
  0
VISUALSTYLE
  5
39
102
{ACAD_REACTORS
330
2A
102
}
102
{ACAD_XDICTIONARY
360
9E
102
}
330
2A
100
AcDbVisualStyle
  2
Facepattern
 70
    15
 71
     2
 72
     2
 73
     0
 90
        0
 40
-0.6
 41
-30.0
 62
     5
 63
     7
421
 16777215
 74
     1
 91
        4
 64
     7
 65
   257
 75
     1
175
     1
 42
1.0
 92
        8
 66
     7
 43
1.0
 76
     1
 77
     6
 78
     2
 67
     7
 79
     5
170
     0
171
     0
290
     0
174
     0
 93
        1
 44
0.0
173
     0
291
     1
 45
0.0
  0
VISUALSTYLE
  5
2B
102
{ACAD_REACTORS
330
2A
102
}
102
{ACAD_XDICTIONARY
360
82
102
}
330
2A
100
AcDbVisualStyle
  2
Flat
 70
     0
 71
     2
 72
     1
 73
     1
 90
        2
 40
-0.6
 41
30.0
 62
     5
 63
     7
421
 16777215
 74
     0
 91
        4
 64
     7
 65
   257
 75
     1
175
     1
 42
1.0
 92
        8
 66
     7
 43
1.0
 76
     1
 77
     6
 78
     2
 67
     7
 79
     5
170
     0
171
     0
290
     0
174
     0
 93
       13
 44
0.0
173
     0
291
     1
 45
0.0
  0
VISUALSTYLE
  5
2C
102
{ACAD_REACTORS
330
2A
102
}
102
{ACAD_XDICTIONARY
360
84
102
}
330
2A
100
AcDbVisualStyle
  2
FlatWithEdges
 70
     1
 71
     2
 72
     1
 73
     1
 90
        2
 40
-0.6
 41
30.0
 62
     5
 63
     7
421
 16777215
 74
     1
 91
        4
 64
     7
 65
   257
 75
     1
175
     1
 42
1.0
 92
        0
 66
   257
 43
1.0
 76
     1
 77
     6
 78
     2
 67
     7
 79
     5
170
     0
171
     0
290
     0
174
     0
 93
       13
 44
0.0
173
     0
291
     1
 45
0.0
  0
VISUALSTYLE
  5
2D
102
{ACAD_REACTORS
330
2A
102
}
102
{ACAD_XDICTIONARY
360
86
102
}
330
2A
100
AcDbVisualStyle
  2
Gouraud
 70
     2
 71
     2
 72
     2
 73
     1
 90
        2
 40
-0.6
 41
30.0
 62
     5
 63
     7
421
 16777215
 74
     0
 91
        4
 64
     7
 65
   257
 75
     1
175
     1
 42
1.0
 92
        0
 66
     7
 43
1.0
 76
     1
 77
     6
 78
     2
 67
     7
 79
     5
170
     0
171
     0
290
     0
174
     0
 93
       13
 44
0.0
173
     0
291
     1
 45
0.0
  0
VISUALSTYLE
  5
2E
102
{ACAD_REACTORS
330
2A
102
}
102
{ACAD_XDICTIONARY
360
88
102
}
330
2A
100
AcDbVisualStyle
  2
GouraudWithEdges
 70
     3
 71
     2
 72
     2
 73
     1
 90
        2
 40
-0.6
 41
30.0
 62
     5
 63
     7
421
 16777215
 74
     1
 91
        4
 64
     7
 65
   257
 75
     1
175
     1
 42
1.0
 92
        0
 66
   257
 43
1.0
 76
     1
 77
     6
 78
     2
 67
     7
 79
     5
170
     0
171
     0
290
     0
174
     0
 93
       13
 44
0.0
173
     0
291
     1
 45
0.0
  0
VISUALSTYLE
  5
38
102
{ACAD_REACTORS
330
2A
102
}
102
{ACAD_XDICTIONARY
360
9C
102
}
330
2A
100
AcDbVisualStyle
  2
Linepattern
 70
    14
 71
     2
 72
     2
 73
     0
 90
        0
 40
-0.6
 41
-30.0
 62
     5
 63
     7
421
 16777215
 74
     1
 91
        4
 64
     7
 65
   257
 75
     7
175
     7
 42
1.0
 92
        8
 66
     7
 43
1.0
 76
     1
 77
     6
 78
     2
 67
     7
 79
     5
170
     0
171
     0
290
     0
174
     0
 93
        1
 44
0.0
173
     0
291
     1
 45
0.0
  0
VISUALSTYLE
  5
33
102
{ACAD_REACTORS
330
2A
102
}
102
{ACAD_XDICTIONARY
360
92
102
}
330
2A
100
AcDbVisualStyle
  2
Realistic
 70
     8
 71
     2
 72
     2
 73
     0
 90
        0
 40
-0.6
 41
-30.0
 62
     5
 63
     7
421
 16777215
 74
     1
 91
        0
 64
     7
 65
   257
 75
     1
175
     1
 42
1.0
 92
        8
 66
     8
424
  7895160
 43
1.0
 76
     1
 77
     6
 78
     2
 67
     7
 79
     5
170
     0
171
     0
290
     0
174
     0
 93
       13
 44
0.0
173
     0
291
     0
 45
0.0
  0
VISUALSTYLE
  5
37
102
{ACAD_REACTORS
330
2A
102
}
102
{ACAD_XDICTIONARY
360
9A
102
}
330
2A
100
AcDbVisualStyle
  2
Thicken
 70
    13
 71
     2
 72
     2
 73
     0
 90
        0
 40
-0.6
 41
-30.0
 62
     5
 63
     7
421
 16777215
 74
     1
 91
        4
 64
     7
 65
   257
 75
     1
175
     1
 42
1.0
 92
       12
 66
     7
 43
1.0
 76
     1
 77
     6
 78
     2
 67
     7
 79
     5
170
     0
171
     0
290
     0
174
     0
 93
        1
 44
0.0
173
     0
291
     1
 45
0.0
  0
DICTIONARY
  5
8A
330
2F
100
AcDbDictionary
280
     1
281
     1
  3
ACAD_XREC_ROUNDTRIP
360
8B
  0
DICTIONARY
  5
8E
330
31
100
AcDbDictionary
280
     1
281
     1
  3
ACAD_XREC_ROUNDTRIP
360
8F
  0
DICTIONARY
  5
8C
330
30
100
AcDbDictionary
280
     1
281
     1
  3
ACAD_XREC_ROUNDTRIP
360
8D
  0
DICTIONARY
  5
90
330
32
100
AcDbDictionary
280
     1
281
     1
  3
ACAD_XREC_ROUNDTRIP
360
91
  0
DICTIONARY
  5
98
330
36
100
AcDbDictionary
280
     1
281
     1
  3
ACAD_XREC_ROUNDTRIP
360
99
  0
DICTIONARY
  5
A0
330
3A
100
AcDbDictionary
280
     1
281
     1
  3
ACAD_XREC_ROUNDTRIP
360
A1
  0
DICTIONARY
  5
94
330
34
100
AcDbDictionary
280
     1
281
     1
  3
ACAD_XREC_ROUNDTRIP
360
95
  0
DICTIONARY
  5
96
330
35
100
AcDbDictionary
280
     1
281
     1
  3
ACAD_XREC_ROUNDTRIP
360
97
  0
DICTIONARY
  5
9E
330
39
100
AcDbDictionary
280
     1
281
     1
  3
ACAD_XREC_ROUNDTRIP
360
9F
  0
DICTIONARY
  5
82
330
2B
100
AcDbDictionary
280
     1
281
     1
  3
ACAD_XREC_ROUNDTRIP
360
83
  0
DICTIONARY
  5
84
330
2C
100
AcDbDictionary
280
     1
281
     1
  3
ACAD_XREC_ROUNDTRIP
360
85
  0
DICTIONARY
  5
86
330
2D
100
AcDbDictionary
280
     1
281
     1
  3
ACAD_XREC_ROUNDTRIP
360
87
  0
DICTIONARY
  5
88
330
2E
100
AcDbDictionary
280
     1
281
     1
  3
ACAD_XREC_ROUNDTRIP
360
89
  0
DICTIONARY
  5
9C
330
38
100
AcDbDictionary
280
     1
281
     1
  3
ACAD_XREC_ROUNDTRIP
360
9D
  0
DICTIONARY
  5
92
330
33
100
AcDbDictionary
280
     1
281
     1
  3
ACAD_XREC_ROUNDTRIP
360
93
  0
DICTIONARY
  5
9A
330
37
100
AcDbDictionary
280
     1
281
     1
  3
ACAD_XREC_ROUNDTRIP
360
9B
  0
XRECORD
  5
8B
102
{ACAD_REACTORS
330
8A
102
}
330
8A
100
AcDbXrecord
280
     1
102
RTVSPropertyOp0
 70
     1
102
RTVSPropertyOp1
 70
     1
102
RTVSPropertyOp2
 70
     1
102
RTVSPropertyOp3
 70
     1
102
RTVSPropertyOp4
 70
     1
102
RTVSPropertyOp5
 70
     1
102
RTVSPropertyOp6
 70
     1
102
RTVSPropertyOp7
 70
     1
102
RTVSPropertyOp8
 70
     1
102
RTVSPropertyOp9
 70
     1
102
RTVSPropertyOp10
 70
     1
102
RTVSPropertyOp11
 70
     1
102
RTVSPropertyOp12
 70
     1
102
RTVSPropertyOp13
 70
     1
102
RTVSPropertyOp14
 70
     1
102
RTVSPropertyOp15
 70
     1
102
RTVSPropertyOp16
 70
     1
102
RTVSPropertyOp17
 70
     1
102
RTVSPropertyOp18
 70
     1
102
RTVSPropertyOp19
 70
     1
102
RTVSPropertyOp20
 70
     1
102
RTVSPropertyOp21
 70
     1
102
RTVSPropertyOp22
 70
     1
102
RTVSPropertyOp23
 70
     1
102
RTVSPropertyOp24
 70
     1
102
RTVSPropertyOp25
 70
     1
102
RTVSPropertyOp26
 70
     1
102
RTVSPropertyOp27
 70
     1
102
RTVSPropertyOp28
 70
     1
102
RTVSPropertyOp29
 70
     1
102
RTVSPropertyOp30
 70
     1
102
RTVSPropertyOp31
 70
     1
102
RTVSPropertyOp32
 70
     1
  0
XRECORD
  5
8F
102
{ACAD_REACTORS
330
8E
102
}
330
8E
100
AcDbXrecord
280
     1
102
RTVSPropertyOp0
 70
     1
102
RTVSPropertyOp1
 70
     1
102
RTVSPropertyOp2
 70
     1
102
RTVSPropertyOp3
 70
     1
102
RTVSPropertyOp4
 70
     1
102
RTVSPropertyOp5
 70
     1
102
RTVSPropertyOp6
 70
     1
102
RTVSPropertyOp7
 70
     1
102
RTVSPropertyOp8
 70
     1
102
RTVSPropertyOp9
 70
     1
102
RTVSPropertyOp10
 70
     1
102
RTVSPropertyOp11
 70
     1
102
RTVSPropertyOp12
 70
     1
102
RTVSPropertyOp13
 70
     1
102
RTVSPropertyOp14
 70
     1
102
RTVSPropertyOp15
 70
     1
102
RTVSPropertyOp16
 70
     1
102
RTVSPropertyOp17
 70
     1
102
RTVSPropertyOp18
 70
     1
102
RTVSPropertyOp19
 70
     1
102
RTVSPropertyOp20
 70
     1
102
RTVSPropertyOp21
 70
     1
102
RTVSPropertyOp22
 70
     1
102
RTVSPropertyOp23
 70
     1
102
RTVSPropertyOp24
 70
     1
102
RTVSPropertyOp25
 70
     1
102
RTVSPropertyOp26
 70
     1
102
RTVSPropertyOp27
 70
     1
102
RTVSPropertyOp28
 70
     1
102
RTVSPropertyOp29
 70
     1
102
RTVSPropertyOp30
 70
     1
102
RTVSPropertyOp31
 70
     1
102
RTVSPropertyOp32
 70
     1
  0
XRECORD
  5
8D
102
{ACAD_REACTORS
330
8C
102
}
330
8C
100
AcDbXrecord
280
     1
102
RTVSPropertyOp0
 70
     1
102
RTVSPropertyOp1
 70
     1
102
RTVSPropertyOp2
 70
     1
102
RTVSPropertyOp3
 70
     1
102
RTVSPropertyOp4
 70
     1
102
RTVSPropertyOp5
 70
     1
102
RTVSPropertyOp6
 70
     1
102
RTVSPropertyOp7
 70
     1
102
RTVSPropertyOp8
 70
     1
102
RTVSPropertyOp9
 70
     1
102
RTVSPropertyOp10
 70
     1
102
RTVSPropertyOp11
 70
     1
102
RTVSPropertyOp12
 70
     1
102
RTVSPropertyOp13
 70
     1
102
RTVSPropertyOp14
 70
     1
102
RTVSPropertyOp15
 70
     1
102
RTVSPropertyOp16
 70
     1
102
RTVSPropertyOp17
 70
     1
102
RTVSPropertyOp18
 70
     1
102
RTVSPropertyOp19
 70
     1
102
RTVSPropertyOp20
 70
     1
102
RTVSPropertyOp21
 70
     1
102
RTVSPropertyOp22
 70
     1
102
RTVSPropertyOp23
 70
     1
102
RTVSPropertyOp24
 70
     1
102
RTVSPropertyOp25
 70
     1
102
RTVSPropertyOp26
 70
     1
102
RTVSPropertyOp27
 70
     1
102
RTVSPropertyOp28
 70
     1
102
RTVSPropertyOp29
 70
     1
102
RTVSPropertyOp30
 70
     1
102
RTVSPropertyOp31
 70
     1
102
RTVSPropertyOp32
 70
     1
  0
XRECORD
  5
91
102
{ACAD_REACTORS
330
90
102
}
330
90
100
AcDbXrecord
280
     1
102
RTVSPropertyOp0
 70
     1
102
RTVSPropertyOp1
 70
     1
102
RTVSPropertyOp2
 70
     1
102
RTVSPropertyOp3
 70
     1
102
RTVSPropertyOp4
 70
     1
102
RTVSPropertyOp5
 70
     1
102
RTVSPropertyOp6
 70
     1
102
RTVSPropertyOp7
 70
     1
102
RTVSPropertyOp8
 70
     1
102
RTVSPropertyOp9
 70
     1
102
RTVSPropertyOp10
 70
     1
102
RTVSPropertyOp11
 70
     1
102
RTVSPropertyOp12
 70
     1
102
RTVSPropertyOp13
 70
     1
102
RTVSPropertyOp14
 70
     1
102
RTVSPropertyOp15
 70
     1
102
RTVSPropertyOp16
 70
     1
102
RTVSPropertyOp17
 70
     1
102
RTVSPropertyOp18
 70
     1
102
RTVSPropertyOp19
 70
     1
102
RTVSPropertyOp20
 70
     1
102
RTVSPropertyOp21
 70
     1
102
RTVSPropertyOp22
 70
     1
102
RTVSPropertyOp23
 70
     1
102
RTVSPropertyOp24
 70
     1
102
RTVSPropertyOp25
 70
     1
102
RTVSPropertyOp26
 70
     1
102
RTVSPropertyOp27
 70
     1
102
RTVSPropertyOp28
 70
     1
102
RTVSPropertyOp29
 70
     1
102
RTVSPropertyOp30
 70
     1
102
RTVSPropertyOp31
 70
     1
102
RTVSPropertyOp32
 70
     1
  0
XRECORD
  5
99
102
{ACAD_REACTORS
330
98
102
}
330
98
100
AcDbXrecord
280
     1
102
RTVSPropertyOp0
 70
     1
102
RTVSPropertyOp1
 70
     1
102
RTVSPropertyOp2
 70
     1
102
RTVSPropertyOp3
 70
     1
102
RTVSPropertyOp4
 70
     1
102
RTVSPropertyOp5
 70
     1
102
RTVSPropertyOp6
 70
     1
102
RTVSPropertyOp7
 70
     1
102
RTVSPropertyOp8
 70
     1
102
RTVSPropertyOp9
 70
     1
102
RTVSPropertyOp10
 70
     1
102
RTVSPropertyOp11
 70
     1
102
RTVSPropertyOp12
 70
     1
102
RTVSPropertyOp13
 70
     1
102
RTVSPropertyOp14
 70
     1
102
RTVSPropertyOp15
 70
     1
102
RTVSPropertyOp16
 70
     1
102
RTVSPropertyOp17
 70
     1
102
RTVSPropertyOp18
 70
     1
102
RTVSPropertyOp19
 70
     1
102
RTVSPropertyOp20
 70
     1
102
RTVSPropertyOp21
 70
     1
102
RTVSPropertyOp22
 70
     1
102
RTVSPropertyOp23
 70
     1
102
RTVSPropertyOp24
 70
     1
102
RTVSPropertyOp25
 70
     1
102
RTVSPropertyOp26
 70
     1
102
RTVSPropertyOp27
 70
     1
102
RTVSPropertyOp28
 70
     1
102
RTVSPropertyOp29
 70
     1
102
RTVSPropertyOp30
 70
     1
102
RTVSPropertyOp31
 70
     1
102
RTVSPropertyOp32
 70
     1
  0
XRECORD
  5
A1
102
{ACAD_REACTORS
330
A0
102
}
330
A0
100
AcDbXrecord
280
     1
102
RTVSPropertyOp0
 70
     1
102
RTVSPropertyOp1
 70
     1
102
RTVSPropertyOp2
 70
     1
102
RTVSPropertyOp3
 70
     1
102
RTVSPropertyOp4
 70
     1
102
RTVSPropertyOp5
 70
     1
102
RTVSPropertyOp6
 70
     1
102
RTVSPropertyOp7
 70
     1
102
RTVSPropertyOp8
 70
     1
102
RTVSPropertyOp9
 70
     1
102
RTVSPropertyOp10
 70
     1
102
RTVSPropertyOp11
 70
     1
102
RTVSPropertyOp12
 70
     1
102
RTVSPropertyOp13
 70
     1
102
RTVSPropertyOp14
 70
     1
102
RTVSPropertyOp15
 70
     1
102
RTVSPropertyOp16
 70
     1
102
RTVSPropertyOp17
 70
     1
102
RTVSPropertyOp18
 70
     1
102
RTVSPropertyOp19
 70
     1
102
RTVSPropertyOp20
 70
     1
102
RTVSPropertyOp21
 70
     1
102
RTVSPropertyOp22
 70
     1
102
RTVSPropertyOp23
 70
     1
102
RTVSPropertyOp24
 70
     1
102
RTVSPropertyOp25
 70
     1
102
RTVSPropertyOp26
 70
     1
102
RTVSPropertyOp27
 70
     1
102
RTVSPropertyOp28
 70
     1
102
RTVSPropertyOp29
 70
     1
102
RTVSPropertyOp30
 70
     1
102
RTVSPropertyOp31
 70
     1
102
RTVSPropertyOp32
 70
     1
  0
XRECORD
  5
95
102
{ACAD_REACTORS
330
94
102
}
330
94
100
AcDbXrecord
280
     1
102
RTVSPropertyOp0
 70
     1
102
RTVSPropertyOp1
 70
     1
102
RTVSPropertyOp2
 70
     1
102
RTVSPropertyOp3
 70
     1
102
RTVSPropertyOp4
 70
     1
102
RTVSPropertyOp5
 70
     1
102
RTVSPropertyOp6
 70
     1
102
RTVSPropertyOp7
 70
     1
102
RTVSPropertyOp8
 70
     1
102
RTVSPropertyOp9
 70
     1
102
RTVSPropertyOp10
 70
     1
102
RTVSPropertyOp11
 70
     1
102
RTVSPropertyOp12
 70
     1
102
RTVSPropertyOp13
 70
     1
102
RTVSPropertyOp14
 70
     1
102
RTVSPropertyOp15
 70
     1
102
RTVSPropertyOp16
 70
     1
102
RTVSPropertyOp17
 70
     1
102
RTVSPropertyOp18
 70
     1
102
RTVSPropertyOp19
 70
     1
102
RTVSPropertyOp20
 70
     1
102
RTVSPropertyOp21
 70
     1
102
RTVSPropertyOp22
 70
     1
102
RTVSPropertyOp23
 70
     1
102
RTVSPropertyOp24
 70
     1
102
RTVSPropertyOp25
 70
     1
102
RTVSPropertyOp26
 70
     1
102
RTVSPropertyOp27
 70
     1
102
RTVSPropertyOp28
 70
     1
102
RTVSPropertyOp29
 70
     1
102
RTVSPropertyOp30
 70
     1
102
RTVSPropertyOp31
 70
     1
102
RTVSPropertyOp32
 70
     1
  0
XRECORD
  5
97
102
{ACAD_REACTORS
330
96
102
}
330
96
100
AcDbXrecord
280
     1
102
RTVSPropertyOp0
 70
     1
102
RTVSPropertyOp1
 70
     1
102
RTVSPropertyOp2
 70
     1
102
RTVSPropertyOp3
 70
     1
102
RTVSPropertyOp4
 70
     1
102
RTVSPropertyOp5
 70
     1
102
RTVSPropertyOp6
 70
     1
102
RTVSPropertyOp7
 70
     1
102
RTVSPropertyOp8
 70
     1
102
RTVSPropertyOp9
 70
     1
102
RTVSPropertyOp10
 70
     1
102
RTVSPropertyOp11
 70
     1
102
RTVSPropertyOp12
 70
     1
102
RTVSPropertyOp13
 70
     1
102
RTVSPropertyOp14
 70
     1
102
RTVSPropertyOp15
 70
     1
102
RTVSPropertyOp16
 70
     1
102
RTVSPropertyOp17
 70
     1
102
RTVSPropertyOp18
 70
     1
102
RTVSPropertyOp19
 70
     1
102
RTVSPropertyOp20
 70
     1
102
RTVSPropertyOp21
 70
     1
102
RTVSPropertyOp22
 70
     1
102
RTVSPropertyOp23
 70
     1
102
RTVSPropertyOp24
 70
     1
102
RTVSPropertyOp25
 70
     1
102
RTVSPropertyOp26
 70
     1
102
RTVSPropertyOp27
 70
     1
102
RTVSPropertyOp28
 70
     1
102
RTVSPropertyOp29
 70
     1
102
RTVSPropertyOp30
 70
     1
102
RTVSPropertyOp31
 70
     1
102
RTVSPropertyOp32
 70
     1
  0
XRECORD
  5
9F
102
{ACAD_REACTORS
330
9E
102
}
330
9E
100
AcDbXrecord
280
     1
102
RTVSPropertyOp0
 70
     1
102
RTVSPropertyOp1
 70
     1
102
RTVSPropertyOp2
 70
     1
102
RTVSPropertyOp3
 70
     1
102
RTVSPropertyOp4
 70
     1
102
RTVSPropertyOp5
 70
     1
102
RTVSPropertyOp6
 70
     1
102
RTVSPropertyOp7
 70
     1
102
RTVSPropertyOp8
 70
     1
102
RTVSPropertyOp9
 70
     1
102
RTVSPropertyOp10
 70
     1
102
RTVSPropertyOp11
 70
     1
102
RTVSPropertyOp12
 70
     1
102
RTVSPropertyOp13
 70
     1
102
RTVSPropertyOp14
 70
     1
102
RTVSPropertyOp15
 70
     1
102
RTVSPropertyOp16
 70
     1
102
RTVSPropertyOp17
 70
     1
102
RTVSPropertyOp18
 70
     1
102
RTVSPropertyOp19
 70
     1
102
RTVSPropertyOp20
 70
     1
102
RTVSPropertyOp21
 70
     1
102
RTVSPropertyOp22
 70
     1
102
RTVSPropertyOp23
 70
     1
102
RTVSPropertyOp24
 70
     1
102
RTVSPropertyOp25
 70
     1
102
RTVSPropertyOp26
 70
     1
102
RTVSPropertyOp27
 70
     1
102
RTVSPropertyOp28
 70
     1
102
RTVSPropertyOp29
 70
     1
102
RTVSPropertyOp30
 70
     1
102
RTVSPropertyOp31
 70
     1
102
RTVSPropertyOp32
 70
     1
  0
XRECORD
  5
83
102
{ACAD_REACTORS
330
82
102
}
330
82
100
AcDbXrecord
280
     1
102
RTVSPropertyOp0
 70
     1
102
RTVSPropertyOp1
 70
     1
102
RTVSPropertyOp2
 70
     1
102
RTVSPropertyOp3
 70
     1
102
RTVSPropertyOp4
 70
     1
102
RTVSPropertyOp5
 70
     1
102
RTVSPropertyOp6
 70
     1
102
RTVSPropertyOp7
 70
     1
102
RTVSPropertyOp8
 70
     1
102
RTVSPropertyOp9
 70
     1
102
RTVSPropertyOp10
 70
     1
102
RTVSPropertyOp11
 70
     1
102
RTVSPropertyOp12
 70
     1
102
RTVSPropertyOp13
 70
     1
102
RTVSPropertyOp14
 70
     1
102
RTVSPropertyOp15
 70
     1
102
RTVSPropertyOp16
 70
     1
102
RTVSPropertyOp17
 70
     1
102
RTVSPropertyOp18
 70
     1
102
RTVSPropertyOp19
 70
     1
102
RTVSPropertyOp20
 70
     1
102
RTVSPropertyOp21
 70
     1
102
RTVSPropertyOp22
 70
     1
102
RTVSPropertyOp23
 70
     1
102
RTVSPropertyOp24
 70
     1
102
RTVSPropertyOp25
 70
     1
102
RTVSPropertyOp26
 70
     1
102
RTVSPropertyOp27
 70
     1
102
RTVSPropertyOp28
 70
     1
102
RTVSPropertyOp29
 70
     1
102
RTVSPropertyOp30
 70
     1
102
RTVSPropertyOp31
 70
     1
102
RTVSPropertyOp32
 70
     1
  0
XRECORD
  5
85
102
{ACAD_REACTORS
330
84
102
}
330
84
100
AcDbXrecord
280
     1
102
RTVSPropertyOp0
 70
     1
102
RTVSPropertyOp1
 70
     1
102
RTVSPropertyOp2
 70
     1
102
RTVSPropertyOp3
 70
     1
102
RTVSPropertyOp4
 70
     1
102
RTVSPropertyOp5
 70
     1
102
RTVSPropertyOp6
 70
     1
102
RTVSPropertyOp7
 70
     1
102
RTVSPropertyOp8
 70
     1
102
RTVSPropertyOp9
 70
     1
102
RTVSPropertyOp10
 70
     1
102
RTVSPropertyOp11
 70
     1
102
RTVSPropertyOp12
 70
     1
102
RTVSPropertyOp13
 70
     1
102
RTVSPropertyOp14
 70
     1
102
RTVSPropertyOp15
 70
     1
102
RTVSPropertyOp16
 70
     1
102
RTVSPropertyOp17
 70
     1
102
RTVSPropertyOp18
 70
     1
102
RTVSPropertyOp19
 70
     1
102
RTVSPropertyOp20
 70
     1
102
RTVSPropertyOp21
 70
     1
102
RTVSPropertyOp22
 70
     1
102
RTVSPropertyOp23
 70
     1
102
RTVSPropertyOp24
 70
     1
102
RTVSPropertyOp25
 70
     1
102
RTVSPropertyOp26
 70
     1
102
RTVSPropertyOp27
 70
     1
102
RTVSPropertyOp28
 70
     1
102
RTVSPropertyOp29
 70
     1
102
RTVSPropertyOp30
 70
     1
102
RTVSPropertyOp31
 70
     1
102
RTVSPropertyOp32
 70
     1
  0
XRECORD
  5
87
102
{ACAD_REACTORS
330
86
102
}
330
86
100
AcDbXrecord
280
     1
102
RTVSPropertyOp0
 70
     1
102
RTVSPropertyOp1
 70
     1
102
RTVSPropertyOp2
 70
     1
102
RTVSPropertyOp3
 70
     1
102
RTVSPropertyOp4
 70
     1
102
RTVSPropertyOp5
 70
     1
102
RTVSPropertyOp6
 70
     1
102
RTVSPropertyOp7
 70
     1
102
RTVSPropertyOp8
 70
     1
102
RTVSPropertyOp9
 70
     1
102
RTVSPropertyOp10
 70
     1
102
RTVSPropertyOp11
 70
     1
102
RTVSPropertyOp12
 70
     1
102
RTVSPropertyOp13
 70
     1
102
RTVSPropertyOp14
 70
     1
102
RTVSPropertyOp15
 70
     1
102
RTVSPropertyOp16
 70
     1
102
RTVSPropertyOp17
 70
     1
102
RTVSPropertyOp18
 70
     1
102
RTVSPropertyOp19
 70
     1
102
RTVSPropertyOp20
 70
     1
102
RTVSPropertyOp21
 70
     1
102
RTVSPropertyOp22
 70
     1
102
RTVSPropertyOp23
 70
     1
102
RTVSPropertyOp24
 70
     1
102
RTVSPropertyOp25
 70
     1
102
RTVSPropertyOp26
 70
     1
102
RTVSPropertyOp27
 70
     1
102
RTVSPropertyOp28
 70
     1
102
RTVSPropertyOp29
 70
     1
102
RTVSPropertyOp30
 70
     1
102
RTVSPropertyOp31
 70
     1
102
RTVSPropertyOp32
 70
     1
  0
XRECORD
  5
89
102
{ACAD_REACTORS
330
88
102
}
330
88
100
AcDbXrecord
280
     1
102
RTVSPropertyOp0
 70
     1
102
RTVSPropertyOp1
 70
     1
102
RTVSPropertyOp2
 70
     1
102
RTVSPropertyOp3
 70
     1
102
RTVSPropertyOp4
 70
     1
102
RTVSPropertyOp5
 70
     1
102
RTVSPropertyOp6
 70
     1
102
RTVSPropertyOp7
 70
     1
102
RTVSPropertyOp8
 70
     1
102
RTVSPropertyOp9
 70
     1
102
RTVSPropertyOp10
 70
     1
102
RTVSPropertyOp11
 70
     1
102
RTVSPropertyOp12
 70
     1
102
RTVSPropertyOp13
 70
     1
102
RTVSPropertyOp14
 70
     1
102
RTVSPropertyOp15
 70
     1
102
RTVSPropertyOp16
 70
     1
102
RTVSPropertyOp17
 70
     1
102
RTVSPropertyOp18
 70
     1
102
RTVSPropertyOp19
 70
     1
102
RTVSPropertyOp20
 70
     1
102
RTVSPropertyOp21
 70
     1
102
RTVSPropertyOp22
 70
     1
102
RTVSPropertyOp23
 70
     1
102
RTVSPropertyOp24
 70
     1
102
RTVSPropertyOp25
 70
     1
102
RTVSPropertyOp26
 70
     1
102
RTVSPropertyOp27
 70
     1
102
RTVSPropertyOp28
 70
     1
102
RTVSPropertyOp29
 70
     1
102
RTVSPropertyOp30
 70
     1
102
RTVSPropertyOp31
 70
     1
102
RTVSPropertyOp32
 70
     1
  0
XRECORD
  5
9D
102
{ACAD_REACTORS
330
9C
102
}
330
9C
100
AcDbXrecord
280
     1
102
RTVSPropertyOp0
 70
     1
102
RTVSPropertyOp1
 70
     1
102
RTVSPropertyOp2
 70
     1
102
RTVSPropertyOp3
 70
     1
102
RTVSPropertyOp4
 70
     1
102
RTVSPropertyOp5
 70
     1
102
RTVSPropertyOp6
 70
     1
102
RTVSPropertyOp7
 70
     1
102
RTVSPropertyOp8
 70
     1
102
RTVSPropertyOp9
 70
     1
102
RTVSPropertyOp10
 70
     1
102
RTVSPropertyOp11
 70
     1
102
RTVSPropertyOp12
 70
     1
102
RTVSPropertyOp13
 70
     1
102
RTVSPropertyOp14
 70
     1
102
RTVSPropertyOp15
 70
     1
102
RTVSPropertyOp16
 70
     1
102
RTVSPropertyOp17
 70
     1
102
RTVSPropertyOp18
 70
     1
102
RTVSPropertyOp19
 70
     1
102
RTVSPropertyOp20
 70
     1
102
RTVSPropertyOp21
 70
     1
102
RTVSPropertyOp22
 70
     1
102
RTVSPropertyOp23
 70
     1
102
RTVSPropertyOp24
 70
     1
102
RTVSPropertyOp25
 70
     1
102
RTVSPropertyOp26
 70
     1
102
RTVSPropertyOp27
 70
     1
102
RTVSPropertyOp28
 70
     1
102
RTVSPropertyOp29
 70
     1
102
RTVSPropertyOp30
 70
     1
102
RTVSPropertyOp31
 70
     1
102
RTVSPropertyOp32
 70
     1
  0
XRECORD
  5
93
102
{ACAD_REACTORS
330
92
102
}
330
92
100
AcDbXrecord
280
     1
102
RTVSPropertyOp0
 70
     1
102
RTVSPropertyOp1
 70
     1
102
RTVSPropertyOp2
 70
     1
102
RTVSPropertyOp3
 70
     1
102
RTVSPropertyOp4
 70
     1
102
RTVSPropertyOp5
 70
     1
102
RTVSPropertyOp6
 70
     1
102
RTVSPropertyOp7
 70
     1
102
RTVSPropertyOp8
 70
     1
102
RTVSPropertyOp9
 70
     1
102
RTVSPropertyOp10
 70
     1
102
RTVSPropertyOp11
 70
     1
102
RTVSPropertyOp12
 70
     1
102
RTVSPropertyOp13
 70
     1
102
RTVSPropertyOp14
 70
     1
102
RTVSPropertyOp15
 70
     1
102
RTVSPropertyOp16
 70
     1
102
RTVSPropertyOp17
 70
     1
102
RTVSPropertyOp18
 70
     1
102
RTVSPropertyOp19
 70
     1
102
RTVSPropertyOp20
 70
     1
102
RTVSPropertyOp21
 70
     1
102
RTVSPropertyOp22
 70
     1
102
RTVSPropertyOp23
 70
     1
102
RTVSPropertyOp24
 70
     1
102
RTVSPropertyOp25
 70
     1
102
RTVSPropertyOp26
 70
     1
102
RTVSPropertyOp27
 70
     1
102
RTVSPropertyOp28
 70
     1
102
RTVSPropertyOp29
 70
     1
102
RTVSPropertyOp30
 70
     1
102
RTVSPropertyOp31
 70
     1
102
RTVSPropertyOp32
 70
     1
  0
XRECORD
  5
9B
102
{ACAD_REACTORS
330
9A
102
}
330
9A
100
AcDbXrecord
280
     1
102
RTVSPropertyOp0
 70
     1
102
RTVSPropertyOp1
 70
     1
102
RTVSPropertyOp2
 70
     1
102
RTVSPropertyOp3
 70
     1
102
RTVSPropertyOp4
 70
     1
102
RTVSPropertyOp5
 70
     1
102
RTVSPropertyOp6
 70
     1
102
RTVSPropertyOp7
 70
     1
102
RTVSPropertyOp8
 70
     1
102
RTVSPropertyOp9
 70
     1
102
RTVSPropertyOp10
 70
     1
102
RTVSPropertyOp11
 70
     1
102
RTVSPropertyOp12
 70
     1
102
RTVSPropertyOp13
 70
     1
102
RTVSPropertyOp14
 70
     1
102
RTVSPropertyOp15
 70
     1
102
RTVSPropertyOp16
 70
     1
102
RTVSPropertyOp17
 70
     1
102
RTVSPropertyOp18
 70
     1
102
RTVSPropertyOp19
 70
     1
102
RTVSPropertyOp20
 70
     1
102
RTVSPropertyOp21
 70
     1
102
RTVSPropertyOp22
 70
     1
102
RTVSPropertyOp23
 70
     1
102
RTVSPropertyOp24
 70
     1
102
RTVSPropertyOp25
 70
     1
102
RTVSPropertyOp26
 70
     1
102
RTVSPropertyOp27
 70
     1
102
RTVSPropertyOp28
 70
     1
102
RTVSPropertyOp29
 70
     1
102
RTVSPropertyOp30
 70
     1
102
RTVSPropertyOp31
 70
     1
102
RTVSPropertyOp32
 70
     1
  0
ENDSEC
  0
EOF
