  0
SECTION
  2
HEADER
  9
$ACADVER
  1
AC1021
  9
$ACADMAINTVER
 70
    25
  9
$DWGCODEPAGE
  3
ANSI_1256
  9
$INSBASE
 10
0.0
 20
0.0
 30
0.0
  9
$EXTMIN
 10
72.0258
 20
-114.7062
 30
0.0
  9
$EXTMAX
 10
196.3584
 20
131.8298
 30
0.0
  9
$LIMMIN
 10
0.0
 20
0.0
  9
$LIMMAX
 10
12.0
 20
9.0
  9
$ORTHOMODE
 70
     0
  9
$REGENMODE
 70
     1
  9
$FILLMODE
 70
     1
  9
$QTEXTMODE
 70
     0
  9
$MIRRTEXT
 70
     1
  9
$LTSCALE
 40
1.0
  9
$ATTMODE
 70
     1
  9
$TEXTSIZE
 40
0.2
  9
$TRACEWID
 40
0.05
  9
$TEXTSTYLE
  7
Standard
  9
$CLAYER
  8
0
  9
$CELTYPE
  6
ByLayer
  9
$CECOLOR
 62
   256
  9
$CELTSCALE
 40
1.0
  9
$DISPSILH
 70
     0
  9
$DIMSCALE
 40
1.0
  9
$DIMASZ
 40
0.18
  9
$DIMEXO
 40
0.0625
  9
$DIMDLI
 40
0.38
  9
$DIMRND
 40
0.0
  9
$DIMDLE
 40
0.0
  9
$DIMEXE
 40
0.18
  9
$DIMTP
 40
0.0
  9
$DIMTM
 40
0.0
  9
$DIMTXT
 40
0.18
  9
$DIMCEN
 40
0.09
  9
$DIMTSZ
 40
0.0
  9
$DIMTOL
 70
     0
  9
$DIMLIM
 70
     0
  9
$DIMTIH
 70
     1
  9
$DIMTOH
 70
     1
  9
$DIMSE1
 70
     0
  9
$DIMSE2
 70
     0
  9
$DIMTAD
 70
     0
  9
$DIMZIN
 70
     0
  9
$DIMBLK
  1

  9
$DIMASO
 70
     1
  9
$DIMSHO
 70
     1
  9
$DIMPOST
  1

  9
$DIMAPOST
  1

  9
$DIMALT
 70
     0
  9
$DIMALTD
 70
     2
  9
$DIMALTF
 40
25.4
  9
$DIMLFAC
 40
1.0
  9
$DIMTOFL
 70
     0
  9
$DIMTVP
 40
0.0
  9
$DIMTIX
 70
     0
  9
$DIMSOXD
 70
     0
  9
$DIMSAH
 70
     0
  9
$DIMBLK1
  1

  9
$DIMBLK2
  1

  9
$DIMSTYLE
  2
Standard
  9
$DIMCLRD
 70
     0
  9
$DIMCLRE
 70
     0
  9
$DIMCLRT
 70
     0
  9
$DIMTFAC
 40
1.0
  9
$DIMGAP
 40
0.09
  9
$DIMJUST
 70
     0
  9
$DIMSD1
 70
     0
  9
$DIMSD2
 70
     0
  9
$DIMTOLJ
 70
     1
  9
$DIMTZIN
 70
     0
  9
$DIMALTZ
 70
     0
  9
$DIMALTTZ
 70
     0
  9
$DIMUPT
 70
     0
  9
$DIMDEC
 70
     4
  9
$DIMTDEC
 70
     4
  9
$DIMALTU
 70
     2
  9
$DIMALTTD
 70
     2
  9
$DIMTXSTY
  7
Standard
  9
$DIMAUNIT
 70
     0
  9
$DIMADEC
 70
     0
  9
$DIMALTRND
 40
0.0
  9
$DIMAZIN
 70
     0
  9
$DIMDSEP
 70
    46
  9
$DIMATFIT
 70
     3
  9
$DIMFRAC
 70
     0
  9
$DIMLDRBLK
  1

  9
$DIMLUNIT
 70
     2
  9
$DIMLWD
 70
    -2
  9
$DIMLWE
 70
    -2
  9
$DIMTMOVE
 70
     0
  9
$DIMFXL
 40
1.0
  9
$DIMFXLON
 70
     0
  9
$DIMJOGANG
 40
0.7853981633974483
  9
$DIMTFILL
 70
     0
  9
$DIMTFILLCLR
 70
     0
  9
$DIMARCSYM
 70
     0
  9
$DIMLTYPE
  6

  9
$DIMLTEX1
  6

  9
$DIMLTEX2
  6

  9
$LUNITS
 70
     2
  9
$LUPREC
 70
     4
  9
$SKETCHINC
 40
0.1
  9
$FILLETRAD
 40
0.5
  9
$AUNITS
 70
     0
  9
$AUPREC
 70
     0
  9
$MENU
  1
.
  9
$ELEVATION
 40
0.0
  9
$PELEVATION
 40
0.0
  9
$THICKNESS
 40
0.0
  9
$LIMCHECK
 70
     0
  9
$CHAMFERA
 40
0.5
  9
$CHAMFERB
 40
0.5
  9
$CHAMFERC
 40
1.0
  9
$CHAMFERD
 40
0.0
  9
$SKPOLY
 70
     0
  9
$TDCREATE
 40
2458492.38338088
  9
$TDUCREATE
 40
2458492.216714213
  9
$TDUPDATE
 40
2458492.383381065
  9
$TDUUPDATE
 40
2458492.216714398
  9
$TDINDWG
 40
0.0000000116
  9
$TDUSRTIMER
 40
0.0000000116
  9
$USRTIMER
 70
     1
  9
$ANGBASE
 50
0.0
  9
$ANGDIR
 70
     0
  9
$PDMODE
 70
     0
  9
$PDSIZE
 40
0.0
  9
$PLINEWID
 40
0.0
  9
$SPLFRAME
 70
     0
  9
$SPLINETYPE
 70
     6
  9
$SPLINESEGS
 70
     8
  9
$HANDSEED
  5
AC
  9
$SURFTAB1
 70
     6
  9
$SURFTAB2
 70
     6
  9
$SURFTYPE
 70
     6
  9
$SURFU
 70
     6
  9
$SURFV
 70
     6
  9
$UCSBASE
  2

  9
$UCSNAME
  2

  9
$UCSORG
 10
0.0
 20
0.0
 30
0.0
  9
$UCSXDIR
 10
1.0
 20
0.0
 30
0.0
  9
$UCSYDIR
 10
0.0
 20
1.0
 30
0.0
  9
$UCSORTHOREF
  2

  9
$UCSORTHOVIEW
 70
     0
  9
$UCSORGTOP
 10
0.0
 20
0.0
 30
0.0
  9
$UCSORGBOTTOM
 10
0.0
 20
0.0
 30
0.0
  9
$UCSORGLEFT
 10
0.0
 20
0.0
 30
0.0
  9
$UCSORGRIGHT
 10
0.0
 20
0.0
 30
0.0
  9
$UCSORGFRONT
 10
0.0
 20
0.0
 30
0.0
  9
$UCSORGBACK
 10
0.0
 20
0.0
 30
0.0
  9
$PUCSBASE
  2

  9
$PUCSNAME
  2

  9
$PUCSORG
 10
0.0
 20
0.0
 30
0.0
  9
$PUCSXDIR
 10
1.0
 20
0.0
 30
0.0
  9
$PUCSYDIR
 10
0.0
 20
1.0
 30
0.0
  9
$PUCSORTHOREF
  2

  9
$PUCSORTHOVIEW
 70
     0
  9
$PUCSORGTOP
 10
0.0
 20
0.0
 30
0.0
  9
$PUCSORGBOTTOM
 10
0.0
 20
0.0
 30
0.0
  9
$PUCSORGLEFT
 10
0.0
 20
0.0
 30
0.0
  9
$PUCSORGRIGHT
 10
0.0
 20
0.0
 30
0.0
  9
$PUCSORGFRONT
 10
0.0
 20
0.0
 30
0.0
  9
$PUCSORGBACK
 10
0.0
 20
0.0
 30
0.0
  9
$USERI1
 70
     0
  9
$USERI2
 70
     0
  9
$USERI3
 70
     0
  9
$USERI4
 70
     0
  9
$USERI5
 70
     0
  9
$USERR1
 40
0.0
  9
$USERR2
 40
0.0
  9
$USERR3
 40
0.0
  9
$USERR4
 40
0.0
  9
$USERR5
 40
0.0
  9
$WORLDVIEW
 70
     1
  9
$SHADEDGE
 70
     3
  9
$SHADEDIF
 70
    70
  9
$TILEMODE
 70
     1
  9
$MAXACTVP
 70
    64
  9
$PINSBASE
 10
0.0
 20
0.0
 30
0.0
  9
$PLIMCHECK
 70
     0
  9
$PEXTMIN
 10
1.000000000000000E+20
 20
1.000000000000000E+20
 30
1.000000000000000E+20
  9
$PEXTMAX
 10
-1.000000000000000E+20
 20
-1.000000000000000E+20
 30
-1.000000000000000E+20
  9
$PLIMMIN
 10
0.0
 20
0.0
  9
$PLIMMAX
 10
12.0
 20
9.0
  9
$UNITMODE
 70
     0
  9
$VISRETAIN
 70
     1
  9
$PLINEGEN
 70
     0
  9
$PSLTSCALE
 70
     1
  9
$TREEDEPTH
 70
  3020
  9
$CMLSTYLE
  2
Standard
  9
$CMLJUST
 70
     0
  9
$CMLSCALE
 40
1.0
  9
$PROXYGRAPHICS
 70
     1
  9
$MEASUREMENT
 70
     0
  9
$CELWEIGHT
370
    -1
  9
$ENDCAPS
280
     0
  9
$JOINSTYLE
280
     0
  9
$LWDISPLAY
290
     0
  9
$INSUNITS
 70
     4
  9
$HYPERLINKBASE
  1

  9
$STYLESHEET
  1

  9
$XEDIT
290
     1
  9
$CEPSNTYPE
380
     0
  9
$PSTYLEMODE
290
     1
  9
$FINGERPRINTGUID
  2
{A17D3017-66FD-44DF-BA68-AFF5B63BD1A6}
  9
$VERSIONGUID
  2
{FAEB1C32-E019-11D5-929B-00C0DF256EC4}
  9
$EXTNAMES
290
     1
  9
$PSVPSCALE
 40
0.0
  9
$OLESTARTUP
290
     0
  9
$SORTENTS
280
   127
  9
$INDEXCTL
280
     0
  9
$HIDETEXT
280
     1
  9
$XCLIPFRAME
290
     0
  9
$HALOGAP
280
     0
  9
$OBSCOLOR
 70
   257
  9
$OBSLTYPE
280
     0
  9
$INTERSECTIONDISPLAY
280
     0
  9
$INTERSECTIONCOLOR
 70
   257
  9
$DIMASSOC
280
     2
  9
$PROJECTNAME
  1

  9
$CAMERADISPLAY
290
     0
  9
$LENSLENGTH
 40
50.0
  9
$CAMERAHEIGHT
 40
0.0
  9
$STEPSPERSEC
 40
2.0
  9
$STEPSIZE
 40
6.0
  9
$3DDWFPREC
 40
2.0
  9
$PSOLWIDTH
 40
0.25
  9
$PSOLHEIGHT
 40
4.0
  9
$LOFTANG1
 40
1.570796326794897
  9
$LOFTANG2
 40
1.570796326794897
  9
$LOFTMAG1
 40
0.0
  9
$LOFTMAG2
 40
0.0
  9
$LOFTPARAM
 70
     7
  9
$LOFTNORMALS
280
     1
  9
$LATITUDE
 40
37.795
  9
$LONGITUDE
 40
-122.394
  9
$NORTHDIRECTION
 40
0.0
  9
$TIMEZONE
 70
 -8000
  9
$LIGHTGLYPHDISPLAY
280
     1
  9
$TILEMODELIGHTSYNCH
280
     1
  9
$SOLIDHIST
280
     1
  9
$SHOWHIST
280
     1
  9
$DWFFRAME
280
     2
  9
$DGNFRAME
280
     2
  9
$REALWORLDSCALE
290
     1
  9
$INTERFERECOLOR
 62
   256
  9
$CSHADOW
280
     0
  9
$SHADOWPLANELOCATION
 40
0.0
  0
ENDSEC
  0
SECTION
  2
CLASSES
  0
CLASS
  1
ACDBDICTIONARYWDFLT
  2
AcDbDictionaryWithDefault
  3
ObjectDBX Classes
 90
        0
 91
        4
280
     0
281
     0
  0
CLASS
  1
VISUALSTYLE
  2
AcDbVisualStyle
  3
ObjectDBX Classes
 90
     4095
 91
        4
280
     0
281
     0
  0
CLASS
  1
MATERIAL
  2
AcDbMaterial
  3
ObjectDBX Classes
 90
     1153
 91
        4
280
     0
281
     0
  0
ENDSEC
  0
SECTION
  2
TABLES
  0
TABLE
  2
VPORT
  5
8
330
0
100
AcDbSymbolTable
 70
     1
  0
VPORT
  5
29
330
8
100
AcDbSymbolTableRecord
100
AcDbViewportTableRecord
  2
*Active
 70
     0
 10
0.0
 20
0.0
 11
1.0
 21
1.0
 12
10.42990654205607
 22
4.5
 13
0.0
 23
0.0
 14
0.5
 24
0.5
 15
0.5
 25
0.5
 16
0.0
 26
0.0
 36
1.0
 17
0.0
 27
0.0
 37
0.0
 40
9.0
 41
1.972972972850329
 42
50.0
 43
0.0
 44
0.0
 50
0.0
 51
0.0
 71
     0
 72
   100
 73
     1
 74
     3
 75
     0
 76
     0
 77
     0
 78
     0
281
     0
 65
     1
110
0.0
120
0.0
130
0.0
111
1.0
121
0.0
131
0.0
112
0.0
122
1.0
132
0.0
 79
     0
146
0.0
 60
     3
 61
     5
292
     1
282
     1
141
0.0
142
0.0
 63
   250
  0
ENDTAB
  0
TABLE
  2
LTYPE
  5
5
330
0
100
AcDbSymbolTable
 70
     1
  0
LTYPE
  5
14
330
5
100
AcDbSymbolTableRecord
100
AcDbLinetypeTableRecord
  2
ByBlock
 70
     0
  3

 72
    65
 73
     0
 40
0.0
  0
LTYPE
  5
15
330
5
100
AcDbSymbolTableRecord
100
AcDbLinetypeTableRecord
  2
ByLayer
 70
     0
  3

 72
    65
 73
     0
 40
0.0
  0
LTYPE
  5
16
330
5
100
AcDbSymbolTableRecord
100
AcDbLinetypeTableRecord
  2
Continuous
 70
     0
  3
Solid line
 72
    65
 73
     0
 40
0.0
  0
ENDTAB
  0
TABLE
  2
LAYER
  5
2
330
0
100
AcDbSymbolTable
 70
     2
  0
LAYER
  5
10
330
2
100
AcDbSymbolTableRecord
100
AcDbLayerTableRecord
  2
0
 70
     0
 62
     7
  6
Continuous
370
    -3
390
F
347
3E
  0
LAYER
  5
40
330
2
100
AcDbSymbolTableRecord
100
AcDbLayerTableRecord
  2
layer 1
 70
     0
 62
     7
  6
Continuous
370
    -3
390
F
347
3E
  0
ENDTAB
  0
TABLE
  2
STYLE
  5
3
330
0
100
AcDbSymbolTable
 70
     1
  0
STYLE
  5
11
330
3
100
AcDbSymbolTableRecord
100
AcDbTextStyleTableRecord
  2
Standard
 70
     0
 40
0.0
 41
1.0
 50
0.0
 71
     0
 42
0.2
  3
txt
  4

  0
ENDTAB
  0
TABLE
  2
VIEW
  5
6
330
0
100
AcDbSymbolTable
 70
     0
  0
ENDTAB
  0
TABLE
  2
UCS
  5
7
330
0
100
AcDbSymbolTable
 70
     0
  0
ENDTAB
  0
TABLE
  2
APPID
  5
9
330
0
100
AcDbSymbolTable
 70
     2
  0
APPID
  5
12
330
9
100
AcDbSymbolTableRecord
100
AcDbRegAppTableRecord
  2
ACAD
 70
     0
  0
APPID
  5
3F
330
9
100
AcDbSymbolTableRecord
100
AcDbRegAppTableRecord
  2
ODA
 70
     0
  0
ENDTAB
  0
TABLE
  2
DIMSTYLE
  5
A
330
0
100
AcDbSymbolTable
 70
     1
100
AcDbDimStyleTable
  0
DIMSTYLE
105
27
330
A
100
AcDbSymbolTableRecord
100
AcDbDimStyleTableRecord
  2
Standard
 70
     0
178
     0
340
11
  0
ENDTAB
  0
TABLE
  2
BLOCK_RECORD
  5
1
330
0
100
AcDbSymbolTable
 70
     1
  0
BLOCK_RECORD
  5
1F
330
1
100
AcDbSymbolTableRecord
100
AcDbBlockTableRecord
  2
*Model_Space
340
22
 70
     0
280
     1
281
     0
  0
BLOCK_RECORD
  5
1B
330
1
100
AcDbSymbolTableRecord
100
AcDbBlockTableRecord
  2
*Paper_Space
340
1E
 70
     0
280
     1
281
     0
  0
BLOCK_RECORD
  5
23
330
1
100
AcDbSymbolTableRecord
100
AcDbBlockTableRecord
  2
*Paper_Space0
340
26
 70
     0
280
     1
281
     0
  0
ENDTAB
  0
ENDSEC
  0
SECTION
  2
BLOCKS
  0
BLOCK
  5
20
330
1F
100
AcDbEntity
  8
0
100
AcDbBlockBegin
  2
*Model_Space
 70
     0
 10
0.0
 20
0.0
 30
0.0
  3
*Model_Space
  1

  0
ENDBLK
  5
21
330
1F
100
AcDbEntity
  8
0
100
AcDbBlockEnd
  0
BLOCK
  5
1C
330
1B
100
AcDbEntity
 67
     1
  8
0
100
AcDbBlockBegin
  2
*Paper_Space
 70
     0
 10
0.0
 20
0.0
 30
0.0
  3
*Paper_Space
  1

  0
ENDBLK
  5
1D
330
1B
100
AcDbEntity
 67
     1
  8
0
100
AcDbBlockEnd
  0
BLOCK
  5
24
330
23
100
AcDbEntity
  8
0
100
AcDbBlockBegin
  2
*Paper_Space0
 70
     0
 10
0.0
 20
0.0
 30
0.0
  3
*Paper_Space0
  1

  0
ENDBLK
  5
25
330
23
100
AcDbEntity
  8
0
100
AcDbBlockEnd
  0
ENDSEC
  0
SECTION
  2
ENTITIES
  0
LWPOLYLINE
  5
41
330
1F
100
AcDbEntity
  8
layer 1
100
AcDbPolyline
 90
        5
 70
     1
 43
0.0
 10
72.0258
 20
-114.7062
 10
196.3584
 20
-114.7062
 10
196.3584
 20
131.8298
 10
72.0258
 20
131.8298
 10
72.0258
 20
-114.7062
  0
SPLINE
  5
42
330
1F
100
AcDbEntity
  8
layer 1
 62
     7
100
AcDbSpline
210
0.0
220
0.0
230
1.0
 70
    11
 71
     3
 72
   136
 73
   132
 74
     0
 42
0.0000000001
 43
0.0000000001
 12
1.0
 22
0.0
 32
0.0
 13
1.0
 23
0.0
 33
0.0
 40
0.0
 40
0.0
 40
0.0
 40
0.0
 40
0.0294117647058824
 40
0.0294117647058824
 40
0.0294117647058824
 40
0.0294117647058824
 40
0.0588235294117647
 40
0.0588235294117647
 40
0.0588235294117647
 40
0.0588235294117647
 40
0.0882352941176471
 40
0.0882352941176471
 40
0.0882352941176471
 40
0.0882352941176471
 40
0.1176470588235294
 40
0.1176470588235294
 40
0.1176470588235294
 40
0.1176470588235294
 40
0.1470588235294118
 40
0.1470588235294118
 40
0.1470588235294118
 40
0.1470588235294118
 40
0.1764705882352941
 40
0.1764705882352941
 40
0.1764705882352941
 40
0.1764705882352941
 40
0.2058823529411765
 40
0.2058823529411765
 40
0.2058823529411765
 40
0.2058823529411765
 40
0.2352941176470588
 40
0.2352941176470588
 40
0.2352941176470588
 40
0.2352941176470588
 40
0.2647058823529412
 40
0.2647058823529412
 40
0.2647058823529412
 40
0.2647058823529412
 40
0.2941176470588235
 40
0.2941176470588235
 40
0.2941176470588235
 40
0.2941176470588235
 40
0.3235294117647059
 40
0.3235294117647059
 40
0.3235294117647059
 40
0.3235294117647059
 40
0.3529411764705883
 40
0.3529411764705883
 40
0.3529411764705883
 40
0.3529411764705883
 40
0.3823529411764706
 40
0.3823529411764706
 40
0.3823529411764706
 40
0.3823529411764706
 40
0.4117647058823529
 40
0.4117647058823529
 40
0.4117647058823529
 40
0.4117647058823529
 40
0.4411764705882353
 40
0.4411764705882353
 40
0.4411764705882353
 40
0.4411764705882353
 40
0.4705882352941176
 40
0.4705882352941176
 40
0.4705882352941176
 40
0.4705882352941176
 40
0.5
 40
0.5
 40
0.5
 40
0.5
 40
0.5294117647058824
 40
0.5294117647058824
 40
0.5294117647058824
 40
0.5294117647058824
 40
0.5588235294117647
 40
0.5588235294117647
 40
0.5588235294117647
 40
0.5588235294117647
 40
0.5882352941176471
 40
0.5882352941176471
 40
0.5882352941176471
 40
0.5882352941176471
 40
0.6176470588235294
 40
0.6176470588235294
 40
0.6176470588235294
 40
0.6176470588235294
 40
0.6470588235294118
 40
0.6470588235294118
 40
0.6470588235294118
 40
0.6470588235294118
 40
0.6764705882352942
 40
0.6764705882352942
 40
0.6764705882352942
 40
0.6764705882352942
 40
0.7058823529411765
 40
0.7058823529411765
 40
0.7058823529411765
 40
0.7058823529411765
 40
0.7352941176470589
 40
0.7352941176470589
 40
0.7352941176470589
 40
0.7352941176470589
 40
0.7647058823529411
 40
0.7647058823529411
 40
0.7647058823529411
 40
0.7647058823529411
 40
0.7941176470588235
 40
0.7941176470588235
 40
0.7941176470588235
 40
0.7941176470588235
 40
0.8235294117647058
 40
0.8235294117647058
 40
0.8235294117647058
 40
0.8235294117647058
 40
0.8529411764705882
 40
0.8529411764705882
 40
0.8529411764705882
 40
0.8529411764705882
 40
0.8823529411764706
 40
0.8823529411764706
 40
0.8823529411764706
 40
0.8823529411764706
 40
0.9117647058823529
 40
0.9117647058823529
 40
0.9117647058823529
 40
0.9117647058823529
 40
0.9411764705882353
 40
0.9411764705882353
 40
0.9411764705882353
 40
0.9411764705882353
 40
1.0
 40
1.0
 40
1.0
 40
1.0
 10
110.7119
 20
91.5003
 30
0.0
 10
110.7119
 20
91.5003
 30
0.0
 10
108.9299
 20
91.4942
 30
0.0
 10
108.9299
 20
91.4942
 30
0.0
 10
108.9299
 20
91.4942
 30
0.0
 10
108.0302
 20
91.5124
 30
0.0
 10
107.8053
 20
91.3893
 30
0.0
 10
107.2027
 20
90.7907
 30
0.0
 10
107.2027
 20
90.7907
 30
0.0
 10
107.2027
 20
90.7907
 30
0.0
 10
105.9112
 20
89.508
 30
0.0
 10
105.9112
 20
89.508
 30
0.0
 10
105.9112
 20
89.508
 30
0.0
 10
105.4839
 20
89.0473
 30
0.0
 10
105.2155
 20
89.0103
 30
0.0
 10
104.7522
 20
89.4994
 30
0.0
 10
104.7522
 20
89.4994
 30
0.0
 10
104.7522
 20
89.4994
 30
0.0
 10
103.4757
 20
90.7673
 30
0.0
 10
103.4757
 20
90.7673
 30
0.0
 10
103.4757
 20
90.7673
 30
0.0
 10
102.944
 20
91.3999
 30
0.0
 10
102.5865
 20
91.4912
 30
0.0
 10
101.7224
 20
91.4942
 30
0.0
 10
101.7224
 20
91.4942
 30
0.0
 10
101.7224
 20
91.4942
 30
0.0
 10
99.9403
 20
91.5003
 30
0.0
 10
99.9403
 20
91.5003
 30
0.0
 10
99.9403
 20
91.5003
 30
0.0
 10
99.2483
 20
91.451
 30
0.0
 10
99.111
 20
91.5431
 30
0.0
 10
99.1082
 20
92.3208
 30
0.0
 10
99.1082
 20
92.3208
 30
0.0
 10
99.1082
 20
92.3208
 30
0.0
 10
99.1022
 20
94.083
 30
0.0
 10
99.1022
 20
94.083
 30
0.0
 10
99.1022
 20
94.083
 30
0.0
 10
99.1422
 20
94.9777
 30
0.0
 10
98.9561
 20
95.2829
 30
0.0
 10
98.3129
 20
95.9306
 30
0.0
 10
98.3129
 20
95.9306
 30
0.0
 10
98.3129
 20
95.9306
 30
0.0
 10
97.1092
 20
97.1425
 30
0.0
 10
97.1092
 20
97.1425
 30
0.0
 10
97.1092
 20
97.1425
 30
0.0
 10
96.6163
 20
97.6721
 30
0.0
 10
96.7869
 20
97.9604
 30
0.0
 10
97.1012
 20
98.2884
 30
0.0
 10
97.1012
 20
98.2884
 30
0.0
 10
97.1012
 20
98.2884
 30
0.0
 10
98.3
 20
99.4953
 30
0.0
 10
98.3
 20
99.4953
 30
0.0
 10
98.3
 20
99.4953
 30
0.0
 10
98.9708
 20
100.005
 30
0.0
 10
99.1388
 20
100.5852
 30
0.0
 10
99.1024
 20
101.3795
 30
0.0
 10
99.1024
 20
101.3795
 30
0.0
 10
99.1024
 20
101.3795
 30
0.0
 10
99.1083
 20
103.122
 30
0.0
 10
99.1083
 20
103.122
 30
0.0
 10
99.1083
 20
103.122
 30
0.0
 10
99.0722
 20
103.8302
 30
0.0
 10
99.391
 20
103.9651
 30
0.0
 10
99.9008
 20
103.9386
 30
0.0
 10
99.9008
 20
103.9386
 30
0.0
 10
99.9008
 20
103.9386
 30
0.0
 10
101.6929
 20
103.9447
 30
0.0
 10
101.6929
 20
103.9447
 30
0.0
 10
101.6929
 20
103.9447
 30
0.0
 10
102.5774
 20
103.9651
 30
0.0
 10
102.8488
 20
104.049
 30
0.0
 10
103.4676
 20
104.6636
 30
0.0
 10
103.4676
 20
104.6636
 30
0.0
 10
103.4676
 20
104.6636
 30
0.0
 10
104.7641
 20
105.9513
 30
0.0
 10
104.7641
 20
105.9513
 30
0.0
 10
104.7641
 20
105.9513
 30
0.0
 10
105.2801
 20
106.3579
 30
0.0
 10
105.585
 20
106.2732
 30
0.0
 10
105.9094
 20
105.9328
 30
0.0
 10
105.9094
 20
105.9328
 30
0.0
 10
105.9094
 20
105.9328
 30
0.0
 10
107.2058
 20
104.6453
 30
0.0
 10
107.2058
 20
104.6453
 30
0.0
 10
107.2058
 20
104.6453
 30
0.0
 10
107.6572
 20
104.1135
 30
0.0
 10
108.0897
 20
103.9477
 30
0.0
 10
108.9397
 20
103.9448
 30
0.0
 10
108.9397
 20
103.9448
 30
0.0
 10
108.9397
 20
103.9448
 30
0.0
 10
110.7218
 20
103.9388
 30
0.0
 10
110.7218
 20
103.9388
 30
0.0
 10
110.7218
 20
103.9388
 30
0.0
 10
111.4079
 20
103.9652
 30
0.0
 10
111.5042
 20
103.6957
 30
0.0
 10
111.5467
 20
103.122
 30
0.0
 10
111.5467
 20
103.122
 30
0.0
 10
111.5467
 20
103.122
 30
0.0
 10
111.5526
 20
101.3895
 30
0.0
 10
111.5526
 20
101.3895
 30
0.0
 10
111.5526
 20
101.3895
 30
0.0
 10
111.4954
 20
100.5426
 30
0.0
 10
111.6713
 20
100.1838
 30
0.0
 10
112.3142
 20
99.5365
 30
0.0
 10
112.3142
 20
99.5365
 30
0.0
 10
112.3142
 20
99.5365
 30
0.0
 10
113.5526
 20
98.2896
 30
0.0
 10
113.5526
 20
98.2896
 30
0.0
 10
113.5526
 20
98.2896
 30
0.0
 10
113.9332
 20
97.9129
 30
0.0
 10
114.0227
 20
97.6431
 30
0.0
 10
113.5543
 20
97.1511
 30
0.0
 10
113.5543
 20
97.1511
 30
0.0
 10
113.5543
 20
97.1511
 30
0.0
 10
112.3159
 20
95.9043
 30
0.0
 10
112.3159
 20
95.9043
 30
0.0
 10
112.3159
 20
95.9043
 30
0.0
 10
111.6631
 20
95.3225
 30
0.0
 10
111.5556
 20
94.9645
 30
0.0
 10
111.5525
 20
94.0532
 30
0.0
 10
111.5525
 20
94.0532
 30
0.0
 10
111.5525
 20
94.0532
 30
0.0
 10
111.5467
 20
92.3306
 30
0.0
 10
111.5467
 20
92.3306
 30
0.0
 10
111.5467
 20
92.3306
 30
0.0
 10
111.5686
 20
91.7803
 30
0.0
 10
111.4148
 20
91.4833
 30
0.0
 10
110.7119
 20
91.5002
 30
0.0
 10
110.7119
 20
91.5002
 30
0.0
 10
110.7119
 20
91.5002
 30
0.0
 10
110.7119
 20
91.5003
 30
0.0
 10
110.7119
 20
91.5003
 30
0.0
  0
SPLINE
  5
43
330
1F
100
AcDbEntity
  8
layer 1
 62
     7
100
AcDbSpline
210
0.0
220
0.0
230
1.0
 70
    11
 71
     3
 72
    28
 73
    24
 74
     0
 42
0.0000000001
 43
0.0000000001
 12
1.0
 22
0.0
 32
0.0
 13
1.0
 23
0.0
 33
0.0
 40
0.0
 40
0.0
 40
0.0
 40
0.0
 40
0.1428571428571428
 40
0.1428571428571428
 40
0.1428571428571428
 40
0.1428571428571428
 40
0.2857142857142857
 40
0.2857142857142857
 40
0.2857142857142857
 40
0.2857142857142857
 40
0.4285714285714285
 40
0.4285714285714285
 40
0.4285714285714285
 40
0.4285714285714285
 40
0.5714285714285714
 40
0.5714285714285714
 40
0.5714285714285714
 40
0.5714285714285714
 40
0.7142857142857143
 40
0.7142857142857143
 40
0.7142857142857143
 40
0.7142857142857143
 40
1.0
 40
1.0
 40
1.0
 40
1.0
 10
80.5547
 20
107.3358
 30
0.0
 10
80.5547
 20
107.3358
 30
0.0
 10
89.0232
 20
98.9117
 30
0.0
 10
89.0232
 20
98.9117
 30
0.0
 10
89.0232
 20
98.9117
 30
0.0
 10
89.6896
 20
98.1797
 30
0.0
 10
89.8803
 20
97.265
 30
0.0
 10
89.0743
 20
96.5851
 30
0.0
 10
89.0743
 20
96.5851
 30
0.0
 10
89.0743
 20
96.5851
 30
0.0
 10
80.7471
 20
88.4572
 30
0.0
 10
80.7471
 20
88.4572
 30
0.0
 10
80.7471
 20
88.4572
 30
0.0
 10
80.2524
 20
87.9545
 30
0.0
 10
78.4942
 20
88.0046
 30
0.0
 10
78.5253
 20
89.4991
 30
0.0
 10
78.5253
 20
89.4991
 30
0.0
 10
78.5253
 20
89.4991
 30
0.0
 10
78.5253
 20
106.2674
 30
0.0
 10
78.5253
 20
106.2674
 30
0.0
 10
78.5253
 20
106.2674
 30
0.0
 10
78.463
 20
107.3346
 30
0.0
 10
79.4473
 20
108.2133
 30
0.0
 10
80.5547
 20
107.3358
 30
0.0
  0
SPLINE
  5
44
330
1F
100
AcDbEntity
  8
layer 1
 62
     7
100
AcDbSpline
210
0.0
220
0.0
230
1.0
 70
    11
 71
     3
 72
    28
 73
    24
 74
     0
 42
0.0000000001
 43
0.0000000001
 12
1.0
 22
0.0
 32
0.0
 13
1.0
 23
0.0
 33
0.0
 40
0.0
 40
0.0
 40
0.0
 40
0.0
 40
0.1428571428571428
 40
0.1428571428571428
 40
0.1428571428571428
 40
0.1428571428571428
 40
0.2857142857142857
 40
0.2857142857142857
 40
0.2857142857142857
 40
0.2857142857142857
 40
0.4285714285714285
 40
0.4285714285714285
 40
0.4285714285714285
 40
0.4285714285714285
 40
0.5714285714285714
 40
0.5714285714285714
 40
0.5714285714285714
 40
0.5714285714285714
 40
0.7142857142857143
 40
0.7142857142857143
 40
0.7142857142857143
 40
0.7142857142857143
 40
1.0
 40
1.0
 40
1.0
 40
1.0
 10
130.0064
 20
107.3358
 30
0.0
 10
130.0064
 20
107.3358
 30
0.0
 10
121.5379
 20
98.9117
 30
0.0
 10
121.5379
 20
98.9117
 30
0.0
 10
121.5379
 20
98.9117
 30
0.0
 10
120.8715
 20
98.1797
 30
0.0
 10
120.6807
 20
97.265
 30
0.0
 10
121.4867
 20
96.5851
 30
0.0
 10
121.4867
 20
96.5851
 30
0.0
 10
121.4867
 20
96.5851
 30
0.0
 10
129.814
 20
88.4572
 30
0.0
 10
129.814
 20
88.4572
 30
0.0
 10
129.814
 20
88.4572
 30
0.0
 10
130.3087
 20
87.9545
 30
0.0
 10
132.0669
 20
88.0046
 30
0.0
 10
132.0358
 20
89.4991
 30
0.0
 10
132.0358
 20
89.4991
 30
0.0
 10
132.0358
 20
89.4991
 30
0.0
 10
132.0358
 20
106.2674
 30
0.0
 10
132.0358
 20
106.2674
 30
0.0
 10
132.0358
 20
106.2674
 30
0.0
 10
132.098
 20
107.3346
 30
0.0
 10
131.1138
 20
108.2133
 30
0.0
 10
130.0064
 20
107.3358
 30
0.0
  0
SPLINE
  5
45
330
1F
100
AcDbEntity
  8
layer 1
 62
     7
100
AcDbSpline
210
0.0
220
0.0
230
1.0
 70
    11
 71
     3
 72
    28
 73
    24
 74
     0
 42
0.0000000001
 43
0.0000000001
 12
1.0
 22
0.0
 32
0.0
 13
1.0
 23
0.0
 33
0.0
 40
0.0
 40
0.0
 40
0.0
 40
0.0
 40
0.1428571428571428
 40
0.1428571428571428
 40
0.1428571428571428
 40
0.1428571428571428
 40
0.2857142857142857
 40
0.2857142857142857
 40
0.2857142857142857
 40
0.2857142857142857
 40
0.4285714285714285
 40
0.4285714285714285
 40
0.4285714285714285
 40
0.4285714285714285
 40
0.5714285714285714
 40
0.5714285714285714
 40
0.5714285714285714
 40
0.5714285714285714
 40
0.7142857142857143
 40
0.7142857142857143
 40
0.7142857142857143
 40
0.7142857142857143
 40
1.0
 40
1.0
 40
1.0
 40
1.0
 10
114.8082
 20
122.9696
 30
0.0
 10
114.8082
 20
122.9696
 30
0.0
 10
106.3841
 20
114.501
 30
0.0
 10
106.3841
 20
114.501
 30
0.0
 10
106.3841
 20
114.501
 30
0.0
 10
105.6521
 20
113.8347
 30
0.0
 10
104.7374
 20
113.6439
 30
0.0
 10
104.0575
 20
114.4499
 30
0.0
 10
104.0575
 20
114.4499
 30
0.0
 10
104.0575
 20
114.4499
 30
0.0
 10
95.9296
 20
122.7771
 30
0.0
 10
95.9296
 20
122.7771
 30
0.0
 10
95.9296
 20
122.7771
 30
0.0
 10
95.4269
 20
123.2719
 30
0.0
 10
95.477
 20
125.03
 30
0.0
 10
96.9715
 20
124.999
 30
0.0
 10
96.9715
 20
124.999
 30
0.0
 10
96.9715
 20
124.999
 30
0.0
 10
113.7398
 20
124.999
 30
0.0
 10
113.7398
 20
124.999
 30
0.0
 10
113.7398
 20
124.999
 30
0.0
 10
114.807
 20
125.0612
 30
0.0
 10
115.6857
 20
124.077
 30
0.0
 10
114.8082
 20
122.9696
 30
0.0
  0
SPLINE
  5
46
330
1F
100
AcDbEntity
  8
layer 1
 62
     7
100
AcDbSpline
210
0.0
220
0.0
230
1.0
 70
    11
 71
     3
 72
    28
 73
    24
 74
     0
 42
0.0000000001
 43
0.0000000001
 12
1.0
 22
0.0
 32
0.0
 13
1.0
 23
0.0
 33
0.0
 40
0.0
 40
0.0
 40
0.0
 40
0.0
 40
0.1428571428571428
 40
0.1428571428571428
 40
0.1428571428571428
 40
0.1428571428571428
 40
0.2857142857142857
 40
0.2857142857142857
 40
0.2857142857142857
 40
0.2857142857142857
 40
0.4285714285714285
 40
0.4285714285714285
 40
0.4285714285714285
 40
0.4285714285714285
 40
0.5714285714285714
 40
0.5714285714285714
 40
0.5714285714285714
 40
0.5714285714285714
 40
0.7142857142857143
 40
0.7142857142857143
 40
0.7142857142857143
 40
0.7142857142857143
 40
1.0
 40
1.0
 40
1.0
 40
1.0
 10
114.8082
 20
72.6468
 30
0.0
 10
114.8082
 20
72.6468
 30
0.0
 10
106.3841
 20
81.1153
 30
0.0
 10
106.3841
 20
81.1153
 30
0.0
 10
106.3841
 20
81.1153
 30
0.0
 10
105.6521
 20
81.7816
 30
0.0
 10
104.7374
 20
81.9724
 30
0.0
 10
104.0575
 20
81.1664
 30
0.0
 10
104.0575
 20
81.1664
 30
0.0
 10
104.0575
 20
81.1664
 30
0.0
 10
95.9296
 20
72.8392
 30
0.0
 10
95.9296
 20
72.8392
 30
0.0
 10
95.9296
 20
72.8392
 30
0.0
 10
95.4269
 20
72.3445
 30
0.0
 10
95.477
 20
70.5863
 30
0.0
 10
96.9715
 20
70.6173
 30
0.0
 10
96.9715
 20
70.6173
 30
0.0
 10
96.9715
 20
70.6173
 30
0.0
 10
113.7398
 20
70.6173
 30
0.0
 10
113.7398
 20
70.6173
 30
0.0
 10
113.7398
 20
70.6173
 30
0.0
 10
114.807
 20
70.5551
 30
0.0
 10
115.6857
 20
71.5394
 30
0.0
 10
114.8082
 20
72.6468
 30
0.0
  0
SPLINE
  5
47
330
1F
100
AcDbEntity
  8
layer 1
 62
     7
100
AcDbSpline
210
0.0
220
0.0
230
1.0
 70
    11
 71
     3
 72
    44
 73
    40
 74
     0
 42
0.0000000001
 43
0.0000000001
 12
1.0
 22
0.0
 32
0.0
 13
1.0
 23
0.0
 33
0.0
 40
0.0
 40
0.0
 40
0.0
 40
0.0
 40
0.0909090909090909
 40
0.0909090909090909
 40
0.0909090909090909
 40
0.0909090909090909
 40
0.1818181818181818
 40
0.1818181818181818
 40
0.1818181818181818
 40
0.1818181818181818
 40
0.2727272727272727
 40
0.2727272727272727
 40
0.2727272727272727
 40
0.2727272727272727
 40
0.3636363636363636
 40
0.3636363636363636
 40
0.3636363636363636
 40
0.3636363636363636
 40
0.4545454545454545
 40
0.4545454545454545
 40
0.4545454545454545
 40
0.4545454545454545
 40
0.5454545454545454
 40
0.5454545454545454
 40
0.5454545454545454
 40
0.5454545454545454
 40
0.6363636363636364
 40
0.6363636363636364
 40
0.6363636363636364
 40
0.6363636363636364
 40
0.7272727272727273
 40
0.7272727272727273
 40
0.7272727272727273
 40
0.7272727272727273
 40
0.8181818181818182
 40
0.8181818181818182
 40
0.8181818181818182
 40
0.8181818181818182
 40
1.0
 40
1.0
 40
1.0
 40
1.0
 10
118.7452
 20
102.3762
 30
0.0
 10
118.7452
 20
102.3762
 30
0.0
 10
132.0446
 20
115.8341
 30
0.0
 10
132.0446
 20
115.8341
 30
0.0
 10
132.0446
 20
115.8341
 30
0.0
 10
132.0446
 20
115.8341
 30
0.0
 10
132.0667
 20
123.923
 30
0.0
 10
132.0667
 20
123.923
 30
0.0
 10
132.0667
 20
123.923
 30
0.0
 10
132.0348
 20
124.5541
 30
0.0
 10
131.6834
 20
125.0529
 30
0.0
 10
130.9619
 20
124.9961
 30
0.0
 10
130.9619
 20
124.9961
 30
0.0
 10
130.9619
 20
124.9961
 30
0.0
 10
123.0694
 20
124.9061
 30
0.0
 10
123.0694
 20
124.9061
 30
0.0
 10
123.0694
 20
124.9061
 30
0.0
 10
123.0694
 20
124.9061
 30
0.0
 10
109.6431
 20
111.2265
 30
0.0
 10
109.6431
 20
111.2265
 30
0.0
 10
109.6431
 20
111.2265
 30
0.0
 10
108.9591
 20
110.6826
 30
0.0
 10
108.9831
 20
108.7345
 30
0.0
 10
110.6544
 20
108.7733
 30
0.0
 10
110.6544
 20
108.7733
 30
0.0
 10
110.6544
 20
108.7733
 30
0.0
 10
116.1009
 20
108.7412
 30
0.0
 10
116.1009
 20
108.7412
 30
0.0
 10
116.1009
 20
108.7412
 30
0.0
 10
116.1009
 20
108.7412
 30
0.0
 10
116.1603
 20
103.2864
 30
0.0
 10
116.1603
 20
103.2864
 30
0.0
 10
116.1603
 20
103.2864
 30
0.0
 10
116.1963
 20
101.5689
 30
0.0
 10
117.717
 20
101.3658
 30
0.0
 10
118.7452
 20
102.3762
 30
0.0
 10
118.7452
 20
102.3762
 30
0.0
 10
118.7452
 20
102.3762
 30
0.0
 10
118.7452
 20
102.3762
 30
0.0
 10
118.7452
 20
102.3762
 30
0.0
  0
SPLINE
  5
48
330
1F
100
AcDbEntity
  8
layer 1
 62
     7
100
AcDbSpline
210
0.0
220
0.0
230
1.0
 70
    11
 71
     3
 72
    44
 73
    40
 74
     0
 42
0.0000000001
 43
0.0000000001
 12
1.0
 22
0.0
 32
0.0
 13
1.0
 23
0.0
 33
0.0
 40
0.0
 40
0.0
 40
0.0
 40
0.0
 40
0.0909090909090909
 40
0.0909090909090909
 40
0.0909090909090909
 40
0.0909090909090909
 40
0.1818181818181818
 40
0.1818181818181818
 40
0.1818181818181818
 40
0.1818181818181818
 40
0.2727272727272727
 40
0.2727272727272727
 40
0.2727272727272727
 40
0.2727272727272727
 40
0.3636363636363636
 40
0.3636363636363636
 40
0.3636363636363636
 40
0.3636363636363636
 40
0.4545454545454545
 40
0.4545454545454545
 40
0.4545454545454545
 40
0.4545454545454545
 40
0.5454545454545454
 40
0.5454545454545454
 40
0.5454545454545454
 40
0.5454545454545454
 40
0.6363636363636364
 40
0.6363636363636364
 40
0.6363636363636364
 40
0.6363636363636364
 40
0.7272727272727273
 40
0.7272727272727273
 40
0.7272727272727273
 40
0.7272727272727273
 40
0.8181818181818182
 40
0.8181818181818182
 40
0.8181818181818182
 40
0.8181818181818182
 40
1.0
 40
1.0
 40
1.0
 40
1.0
 10
91.8462
 20
102.3762
 30
0.0
 10
91.8462
 20
102.3762
 30
0.0
 10
78.5468
 20
115.8341
 30
0.0
 10
78.5468
 20
115.8341
 30
0.0
 10
78.5468
 20
115.8341
 30
0.0
 10
78.5468
 20
115.8341
 30
0.0
 10
78.5247
 20
123.923
 30
0.0
 10
78.5247
 20
123.923
 30
0.0
 10
78.5247
 20
123.923
 30
0.0
 10
78.5566
 20
124.5541
 30
0.0
 10
78.908
 20
125.0529
 30
0.0
 10
79.6295
 20
124.9961
 30
0.0
 10
79.6295
 20
124.9961
 30
0.0
 10
79.6295
 20
124.9961
 30
0.0
 10
87.522
 20
124.9061
 30
0.0
 10
87.522
 20
124.9061
 30
0.0
 10
87.522
 20
124.9061
 30
0.0
 10
87.522
 20
124.9061
 30
0.0
 10
100.9483
 20
111.2265
 30
0.0
 10
100.9483
 20
111.2265
 30
0.0
 10
100.9483
 20
111.2265
 30
0.0
 10
101.6323
 20
110.6826
 30
0.0
 10
101.6083
 20
108.7345
 30
0.0
 10
99.937
 20
108.7733
 30
0.0
 10
99.937
 20
108.7733
 30
0.0
 10
99.937
 20
108.7733
 30
0.0
 10
94.4906
 20
108.7412
 30
0.0
 10
94.4906
 20
108.7412
 30
0.0
 10
94.4906
 20
108.7412
 30
0.0
 10
94.4906
 20
108.7412
 30
0.0
 10
94.4311
 20
103.2864
 30
0.0
 10
94.4311
 20
103.2864
 30
0.0
 10
94.4311
 20
103.2864
 30
0.0
 10
94.3951
 20
101.5689
 30
0.0
 10
92.8744
 20
101.3658
 30
0.0
 10
91.8463
 20
102.3762
 30
0.0
 10
91.8463
 20
102.3762
 30
0.0
 10
91.8463
 20
102.3762
 30
0.0
 10
91.8462
 20
102.3762
 30
0.0
 10
91.8462
 20
102.3762
 30
0.0
  0
SPLINE
  5
49
330
1F
100
AcDbEntity
  8
layer 1
 62
     7
100
AcDbSpline
210
0.0
220
0.0
230
1.0
 70
    11
 71
     3
 72
    44
 73
    40
 74
     0
 42
0.0000000001
 43
0.0000000001
 12
1.0
 22
0.0
 32
0.0
 13
1.0
 23
0.0
 33
0.0
 40
0.0
 40
0.0
 40
0.0
 40
0.0
 40
0.0909090909090909
 40
0.0909090909090909
 40
0.0909090909090909
 40
0.0909090909090909
 40
0.1818181818181818
 40
0.1818181818181818
 40
0.1818181818181818
 40
0.1818181818181818
 40
0.2727272727272727
 40
0.2727272727272727
 40
0.2727272727272727
 40
0.2727272727272727
 40
0.3636363636363636
 40
0.3636363636363636
 40
0.3636363636363636
 40
0.3636363636363636
 40
0.4545454545454545
 40
0.4545454545454545
 40
0.4545454545454545
 40
0.4545454545454545
 40
0.5454545454545454
 40
0.5454545454545454
 40
0.5454545454545454
 40
0.5454545454545454
 40
0.6363636363636364
 40
0.6363636363636364
 40
0.6363636363636364
 40
0.6363636363636364
 40
0.7272727272727273
 40
0.7272727272727273
 40
0.7272727272727273
 40
0.7272727272727273
 40
0.8181818181818182
 40
0.8181818181818182
 40
0.8181818181818182
 40
0.8181818181818182
 40
1.0
 40
1.0
 40
1.0
 40
1.0
 10
118.7452
 20
93.1844
 30
0.0
 10
118.7452
 20
93.1844
 30
0.0
 10
132.0446
 20
79.7265
 30
0.0
 10
132.0446
 20
79.7265
 30
0.0
 10
132.0446
 20
79.7265
 30
0.0
 10
132.0446
 20
79.7265
 30
0.0
 10
132.0667
 20
71.6376
 30
0.0
 10
132.0667
 20
71.6376
 30
0.0
 10
132.0667
 20
71.6376
 30
0.0
 10
132.0348
 20
71.0065
 30
0.0
 10
131.6834
 20
70.5077
 30
0.0
 10
130.9619
 20
70.5645
 30
0.0
 10
130.9619
 20
70.5645
 30
0.0
 10
130.9619
 20
70.5645
 30
0.0
 10
123.0694
 20
70.6545
 30
0.0
 10
123.0694
 20
70.6545
 30
0.0
 10
123.0694
 20
70.6545
 30
0.0
 10
123.0694
 20
70.6545
 30
0.0
 10
109.6431
 20
84.3341
 30
0.0
 10
109.6431
 20
84.3341
 30
0.0
 10
109.6431
 20
84.3341
 30
0.0
 10
108.9591
 20
84.878
 30
0.0
 10
108.9831
 20
86.826
 30
0.0
 10
110.6544
 20
86.7873
 30
0.0
 10
110.6544
 20
86.7873
 30
0.0
 10
110.6544
 20
86.7873
 30
0.0
 10
116.1009
 20
86.8194
 30
0.0
 10
116.1009
 20
86.8194
 30
0.0
 10
116.1009
 20
86.8194
 30
0.0
 10
116.1009
 20
86.8194
 30
0.0
 10
116.1603
 20
92.2742
 30
0.0
 10
116.1603
 20
92.2742
 30
0.0
 10
116.1603
 20
92.2742
 30
0.0
 10
116.1963
 20
93.9917
 30
0.0
 10
117.717
 20
94.1948
 30
0.0
 10
118.7452
 20
93.1844
 30
0.0
 10
118.7452
 20
93.1844
 30
0.0
 10
118.7452
 20
93.1844
 30
0.0
 10
118.7452
 20
93.1844
 30
0.0
 10
118.7452
 20
93.1844
 30
0.0
  0
SPLINE
  5
4A
330
1F
100
AcDbEntity
  8
layer 1
 62
     7
100
AcDbSpline
210
0.0
220
0.0
230
1.0
 70
    11
 71
     3
 72
    44
 73
    40
 74
     0
 42
0.0000000001
 43
0.0000000001
 12
1.0
 22
0.0
 32
0.0
 13
1.0
 23
0.0
 33
0.0
 40
0.0
 40
0.0
 40
0.0
 40
0.0
 40
0.0909090909090909
 40
0.0909090909090909
 40
0.0909090909090909
 40
0.0909090909090909
 40
0.1818181818181818
 40
0.1818181818181818
 40
0.1818181818181818
 40
0.1818181818181818
 40
0.2727272727272727
 40
0.2727272727272727
 40
0.2727272727272727
 40
0.2727272727272727
 40
0.3636363636363636
 40
0.3636363636363636
 40
0.3636363636363636
 40
0.3636363636363636
 40
0.4545454545454545
 40
0.4545454545454545
 40
0.4545454545454545
 40
0.4545454545454545
 40
0.5454545454545454
 40
0.5454545454545454
 40
0.5454545454545454
 40
0.5454545454545454
 40
0.6363636363636364
 40
0.6363636363636364
 40
0.6363636363636364
 40
0.6363636363636364
 40
0.7272727272727273
 40
0.7272727272727273
 40
0.7272727272727273
 40
0.7272727272727273
 40
0.8181818181818182
 40
0.8181818181818182
 40
0.8181818181818182
 40
0.8181818181818182
 40
1.0
 40
1.0
 40
1.0
 40
1.0
 10
91.8462
 20
93.1844
 30
0.0
 10
91.8462
 20
93.1844
 30
0.0
 10
78.5468
 20
79.7265
 30
0.0
 10
78.5468
 20
79.7265
 30
0.0
 10
78.5468
 20
79.7265
 30
0.0
 10
78.5468
 20
79.7265
 30
0.0
 10
78.5247
 20
71.6376
 30
0.0
 10
78.5247
 20
71.6376
 30
0.0
 10
78.5247
 20
71.6376
 30
0.0
 10
78.5566
 20
71.0065
 30
0.0
 10
78.908
 20
70.5077
 30
0.0
 10
79.6295
 20
70.5645
 30
0.0
 10
79.6295
 20
70.5645
 30
0.0
 10
79.6295
 20
70.5645
 30
0.0
 10
87.522
 20
70.6545
 30
0.0
 10
87.522
 20
70.6545
 30
0.0
 10
87.522
 20
70.6545
 30
0.0
 10
87.522
 20
70.6545
 30
0.0
 10
100.9483
 20
84.3341
 30
0.0
 10
100.9483
 20
84.3341
 30
0.0
 10
100.9483
 20
84.3341
 30
0.0
 10
101.6323
 20
84.878
 30
0.0
 10
101.6083
 20
86.826
 30
0.0
 10
99.937
 20
86.7873
 30
0.0
 10
99.937
 20
86.7873
 30
0.0
 10
99.937
 20
86.7873
 30
0.0
 10
94.4906
 20
86.8194
 30
0.0
 10
94.4906
 20
86.8194
 30
0.0
 10
94.4906
 20
86.8194
 30
0.0
 10
94.4906
 20
86.8194
 30
0.0
 10
94.4311
 20
92.2742
 30
0.0
 10
94.4311
 20
92.2742
 30
0.0
 10
94.4311
 20
92.2742
 30
0.0
 10
94.3951
 20
93.9917
 30
0.0
 10
92.8744
 20
94.1948
 30
0.0
 10
91.8463
 20
93.1844
 30
0.0
 10
91.8463
 20
93.1844
 30
0.0
 10
91.8463
 20
93.1844
 30
0.0
 10
91.8462
 20
93.1844
 30
0.0
 10
91.8462
 20
93.1844
 30
0.0
  0
SPLINE
  5
4B
330
1F
100
AcDbEntity
  8
layer 1
 62
     7
100
AcDbSpline
210
0.0
220
0.0
230
1.0
 70
    11
 71
     3
 72
   136
 73
   132
 74
     0
 42
0.0000000001
 43
0.0000000001
 12
1.0
 22
0.0
 32
0.0
 13
1.0
 23
0.0
 33
0.0
 40
0.0
 40
0.0
 40
0.0
 40
0.0
 40
0.0294117647058824
 40
0.0294117647058824
 40
0.0294117647058824
 40
0.0294117647058824
 40
0.0588235294117647
 40
0.0588235294117647
 40
0.0588235294117647
 40
0.0588235294117647
 40
0.0882352941176471
 40
0.0882352941176471
 40
0.0882352941176471
 40
0.0882352941176471
 40
0.1176470588235294
 40
0.1176470588235294
 40
0.1176470588235294
 40
0.1176470588235294
 40
0.1470588235294118
 40
0.1470588235294118
 40
0.1470588235294118
 40
0.1470588235294118
 40
0.1764705882352941
 40
0.1764705882352941
 40
0.1764705882352941
 40
0.1764705882352941
 40
0.2058823529411765
 40
0.2058823529411765
 40
0.2058823529411765
 40
0.2058823529411765
 40
0.2352941176470588
 40
0.2352941176470588
 40
0.2352941176470588
 40
0.2352941176470588
 40
0.2647058823529412
 40
0.2647058823529412
 40
0.2647058823529412
 40
0.2647058823529412
 40
0.2941176470588235
 40
0.2941176470588235
 40
0.2941176470588235
 40
0.2941176470588235
 40
0.3235294117647059
 40
0.3235294117647059
 40
0.3235294117647059
 40
0.3235294117647059
 40
0.3529411764705883
 40
0.3529411764705883
 40
0.3529411764705883
 40
0.3529411764705883
 40
0.3823529411764706
 40
0.3823529411764706
 40
0.3823529411764706
 40
0.3823529411764706
 40
0.4117647058823529
 40
0.4117647058823529
 40
0.4117647058823529
 40
0.4117647058823529
 40
0.4411764705882353
 40
0.4411764705882353
 40
0.4411764705882353
 40
0.4411764705882353
 40
0.4705882352941176
 40
0.4705882352941176
 40
0.4705882352941176
 40
0.4705882352941176
 40
0.5
 40
0.5
 40
0.5
 40
0.5
 40
0.5294117647058824
 40
0.5294117647058824
 40
0.5294117647058824
 40
0.5294117647058824
 40
0.5588235294117647
 40
0.5588235294117647
 40
0.5588235294117647
 40
0.5588235294117647
 40
0.5882352941176471
 40
0.5882352941176471
 40
0.5882352941176471
 40
0.5882352941176471
 40
0.6176470588235294
 40
0.6176470588235294
 40
0.6176470588235294
 40
0.6176470588235294
 40
0.6470588235294118
 40
0.6470588235294118
 40
0.6470588235294118
 40
0.6470588235294118
 40
0.6764705882352942
 40
0.6764705882352942
 40
0.6764705882352942
 40
0.6764705882352942
 40
0.7058823529411765
 40
0.7058823529411765
 40
0.7058823529411765
 40
0.7058823529411765
 40
0.7352941176470589
 40
0.7352941176470589
 40
0.7352941176470589
 40
0.7352941176470589
 40
0.7647058823529411
 40
0.7647058823529411
 40
0.7647058823529411
 40
0.7647058823529411
 40
0.7941176470588235
 40
0.7941176470588235
 40
0.7941176470588235
 40
0.7941176470588235
 40
0.8235294117647058
 40
0.8235294117647058
 40
0.8235294117647058
 40
0.8235294117647058
 40
0.8529411764705882
 40
0.8529411764705882
 40
0.8529411764705882
 40
0.8529411764705882
 40
0.8823529411764706
 40
0.8823529411764706
 40
0.8823529411764706
 40
0.8823529411764706
 40
0.9117647058823529
 40
0.9117647058823529
 40
0.9117647058823529
 40
0.9117647058823529
 40
0.9411764705882353
 40
0.9411764705882353
 40
0.9411764705882353
 40
0.9411764705882353
 40
1.0
 40
1.0
 40
1.0
 40
1.0
 10
168.8331
 20
91.5003
 30
0.0
 10
168.8331
 20
91.5003
 30
0.0
 10
167.051
 20
91.4942
 30
0.0
 10
167.051
 20
91.4942
 30
0.0
 10
167.051
 20
91.4942
 30
0.0
 10
166.1514
 20
91.5124
 30
0.0
 10
165.9265
 20
91.3893
 30
0.0
 10
165.3238
 20
90.7907
 30
0.0
 10
165.3238
 20
90.7907
 30
0.0
 10
165.3238
 20
90.7907
 30
0.0
 10
164.0324
 20
89.508
 30
0.0
 10
164.0324
 20
89.508
 30
0.0
 10
164.0324
 20
89.508
 30
0.0
 10
163.6051
 20
89.0473
 30
0.0
 10
163.3367
 20
89.0103
 30
0.0
 10
162.8734
 20
89.4994
 30
0.0
 10
162.8734
 20
89.4994
 30
0.0
 10
162.8734
 20
89.4994
 30
0.0
 10
161.5969
 20
90.7673
 30
0.0
 10
161.5969
 20
90.7673
 30
0.0
 10
161.5969
 20
90.7673
 30
0.0
 10
161.0652
 20
91.3999
 30
0.0
 10
160.7077
 20
91.4912
 30
0.0
 10
159.8436
 20
91.4942
 30
0.0
 10
159.8436
 20
91.4942
 30
0.0
 10
159.8436
 20
91.4942
 30
0.0
 10
158.0615
 20
91.5003
 30
0.0
 10
158.0615
 20
91.5003
 30
0.0
 10
158.0615
 20
91.5003
 30
0.0
 10
157.3695
 20
91.451
 30
0.0
 10
157.2322
 20
91.5431
 30
0.0
 10
157.2294
 20
92.3208
 30
0.0
 10
157.2294
 20
92.3208
 30
0.0
 10
157.2294
 20
92.3208
 30
0.0
 10
157.2234
 20
94.083
 30
0.0
 10
157.2234
 20
94.083
 30
0.0
 10
157.2234
 20
94.083
 30
0.0
 10
157.2634
 20
94.9777
 30
0.0
 10
157.0773
 20
95.2829
 30
0.0
 10
156.434
 20
95.9306
 30
0.0
 10
156.434
 20
95.9306
 30
0.0
 10
156.434
 20
95.9306
 30
0.0
 10
155.2304
 20
97.1425
 30
0.0
 10
155.2304
 20
97.1425
 30
0.0
 10
155.2304
 20
97.1425
 30
0.0
 10
154.7375
 20
97.6721
 30
0.0
 10
154.9081
 20
97.9604
 30
0.0
 10
155.2224
 20
98.2884
 30
0.0
 10
155.2224
 20
98.2884
 30
0.0
 10
155.2224
 20
98.2884
 30
0.0
 10
156.4212
 20
99.4953
 30
0.0
 10
156.4212
 20
99.4953
 30
0.0
 10
156.4212
 20
99.4953
 30
0.0
 10
157.092
 20
100.005
 30
0.0
 10
157.26
 20
100.5852
 30
0.0
 10
157.2236
 20
101.3795
 30
0.0
 10
157.2236
 20
101.3795
 30
0.0
 10
157.2236
 20
101.3795
 30
0.0
 10
157.2295
 20
103.122
 30
0.0
 10
157.2295
 20
103.122
 30
0.0
 10
157.2295
 20
103.122
 30
0.0
 10
157.1934
 20
103.8302
 30
0.0
 10
157.5122
 20
103.9651
 30
0.0
 10
158.0219
 20
103.9386
 30
0.0
 10
158.0219
 20
103.9386
 30
0.0
 10
158.0219
 20
103.9386
 30
0.0
 10
159.814
 20
103.9447
 30
0.0
 10
159.814
 20
103.9447
 30
0.0
 10
159.814
 20
103.9447
 30
0.0
 10
160.6986
 20
103.9651
 30
0.0
 10
160.97
 20
104.049
 30
0.0
 10
161.5888
 20
104.6636
 30
0.0
 10
161.5888
 20
104.6636
 30
0.0
 10
161.5888
 20
104.6636
 30
0.0
 10
162.8852
 20
105.9513
 30
0.0
 10
162.8852
 20
105.9513
 30
0.0
 10
162.8852
 20
105.9513
 30
0.0
 10
163.4013
 20
106.3579
 30
0.0
 10
163.7061
 20
106.2732
 30
0.0
 10
164.0306
 20
105.9328
 30
0.0
 10
164.0306
 20
105.9328
 30
0.0
 10
164.0306
 20
105.9328
 30
0.0
 10
165.327
 20
104.6453
 30
0.0
 10
165.327
 20
104.6453
 30
0.0
 10
165.327
 20
104.6453
 30
0.0
 10
165.7783
 20
104.1135
 30
0.0
 10
166.2108
 20
103.9477
 30
0.0
 10
167.0609
 20
103.9448
 30
0.0
 10
167.0609
 20
103.9448
 30
0.0
 10
167.0609
 20
103.9448
 30
0.0
 10
168.843
 20
103.9388
 30
0.0
 10
168.843
 20
103.9388
 30
0.0
 10
168.843
 20
103.9388
 30
0.0
 10
169.5291
 20
103.9652
 30
0.0
 10
169.6254
 20
103.6957
 30
0.0
 10
169.6678
 20
103.122
 30
0.0
 10
169.6678
 20
103.122
 30
0.0
 10
169.6678
 20
103.122
 30
0.0
 10
169.6738
 20
101.3895
 30
0.0
 10
169.6738
 20
101.3895
 30
0.0
 10
169.6738
 20
101.3895
 30
0.0
 10
169.6165
 20
100.5426
 30
0.0
 10
169.7925
 20
100.1838
 30
0.0
 10
170.4354
 20
99.5365
 30
0.0
 10
170.4354
 20
99.5365
 30
0.0
 10
170.4354
 20
99.5365
 30
0.0
 10
171.6738
 20
98.2896
 30
0.0
 10
171.6738
 20
98.2896
 30
0.0
 10
171.6738
 20
98.2896
 30
0.0
 10
172.0543
 20
97.9129
 30
0.0
 10
172.1438
 20
97.6431
 30
0.0
 10
171.6754
 20
97.1511
 30
0.0
 10
171.6754
 20
97.1511
 30
0.0
 10
171.6754
 20
97.1511
 30
0.0
 10
170.4371
 20
95.9043
 30
0.0
 10
170.4371
 20
95.9043
 30
0.0
 10
170.4371
 20
95.9043
 30
0.0
 10
169.7843
 20
95.3225
 30
0.0
 10
169.6768
 20
94.9645
 30
0.0
 10
169.6737
 20
94.0532
 30
0.0
 10
169.6737
 20
94.0532
 30
0.0
 10
169.6737
 20
94.0532
 30
0.0
 10
169.6678
 20
92.3306
 30
0.0
 10
169.6678
 20
92.3306
 30
0.0
 10
169.6678
 20
92.3306
 30
0.0
 10
169.6898
 20
91.7803
 30
0.0
 10
169.536
 20
91.4833
 30
0.0
 10
168.8331
 20
91.5002
 30
0.0
 10
168.8331
 20
91.5002
 30
0.0
 10
168.8331
 20
91.5002
 30
0.0
 10
168.8331
 20
91.5003
 30
0.0
 10
168.8331
 20
91.5003
 30
0.0
  0
SPLINE
  5
4C
330
1F
100
AcDbEntity
  8
layer 1
 62
     7
100
AcDbSpline
210
0.0
220
0.0
230
1.0
 70
    11
 71
     3
 72
    28
 73
    24
 74
     0
 42
0.0000000001
 43
0.0000000001
 12
1.0
 22
0.0
 32
0.0
 13
1.0
 23
0.0
 33
0.0
 40
0.0
 40
0.0
 40
0.0
 40
0.0
 40
0.1428571428571428
 40
0.1428571428571428
 40
0.1428571428571428
 40
0.1428571428571428
 40
0.2857142857142857
 40
0.2857142857142857
 40
0.2857142857142857
 40
0.2857142857142857
 40
0.4285714285714285
 40
0.4285714285714285
 40
0.4285714285714285
 40
0.4285714285714285
 40
0.5714285714285714
 40
0.5714285714285714
 40
0.5714285714285714
 40
0.5714285714285714
 40
0.7142857142857143
 40
0.7142857142857143
 40
0.7142857142857143
 40
0.7142857142857143
 40
1.0
 40
1.0
 40
1.0
 40
1.0
 10
138.6759
 20
107.3358
 30
0.0
 10
138.6759
 20
107.3358
 30
0.0
 10
147.1444
 20
98.9117
 30
0.0
 10
147.1444
 20
98.9117
 30
0.0
 10
147.1444
 20
98.9117
 30
0.0
 10
147.8107
 20
98.1797
 30
0.0
 10
148.0015
 20
97.265
 30
0.0
 10
147.1955
 20
96.5851
 30
0.0
 10
147.1955
 20
96.5851
 30
0.0
 10
147.1955
 20
96.5851
 30
0.0
 10
138.8683
 20
88.4572
 30
0.0
 10
138.8683
 20
88.4572
 30
0.0
 10
138.8683
 20
88.4572
 30
0.0
 10
138.3735
 20
87.9545
 30
0.0
 10
136.6154
 20
88.0046
 30
0.0
 10
136.6464
 20
89.4991
 30
0.0
 10
136.6464
 20
89.4991
 30
0.0
 10
136.6464
 20
89.4991
 30
0.0
 10
136.6464
 20
106.2674
 30
0.0
 10
136.6464
 20
106.2674
 30
0.0
 10
136.6464
 20
106.2674
 30
0.0
 10
136.5842
 20
107.3346
 30
0.0
 10
137.5685
 20
108.2133
 30
0.0
 10
138.6759
 20
107.3358
 30
0.0
  0
SPLINE
  5
4D
330
1F
100
AcDbEntity
  8
layer 1
 62
     7
100
AcDbSpline
210
0.0
220
0.0
230
1.0
 70
    11
 71
     3
 72
    28
 73
    24
 74
     0
 42
0.0000000001
 43
0.0000000001
 12
1.0
 22
0.0
 32
0.0
 13
1.0
 23
0.0
 33
0.0
 40
0.0
 40
0.0
 40
0.0
 40
0.0
 40
0.1428571428571428
 40
0.1428571428571428
 40
0.1428571428571428
 40
0.1428571428571428
 40
0.2857142857142857
 40
0.2857142857142857
 40
0.2857142857142857
 40
0.2857142857142857
 40
0.4285714285714285
 40
0.4285714285714285
 40
0.4285714285714285
 40
0.4285714285714285
 40
0.5714285714285714
 40
0.5714285714285714
 40
0.5714285714285714
 40
0.5714285714285714
 40
0.7142857142857143
 40
0.7142857142857143
 40
0.7142857142857143
 40
0.7142857142857143
 40
1.0
 40
1.0
 40
1.0
 40
1.0
 10
188.1276
 20
107.3358
 30
0.0
 10
188.1276
 20
107.3358
 30
0.0
 10
179.659
 20
98.9117
 30
0.0
 10
179.659
 20
98.9117
 30
0.0
 10
179.659
 20
98.9117
 30
0.0
 10
178.9927
 20
98.1797
 30
0.0
 10
178.8019
 20
97.265
 30
0.0
 10
179.6079
 20
96.5851
 30
0.0
 10
179.6079
 20
96.5851
 30
0.0
 10
179.6079
 20
96.5851
 30
0.0
 10
187.9351
 20
88.4572
 30
0.0
 10
187.9351
 20
88.4572
 30
0.0
 10
187.9351
 20
88.4572
 30
0.0
 10
188.4299
 20
87.9545
 30
0.0
 10
190.188
 20
88.0046
 30
0.0
 10
190.157
 20
89.4991
 30
0.0
 10
190.157
 20
89.4991
 30
0.0
 10
190.157
 20
89.4991
 30
0.0
 10
190.157
 20
106.2674
 30
0.0
 10
190.157
 20
106.2674
 30
0.0
 10
190.157
 20
106.2674
 30
0.0
 10
190.2192
 20
107.3346
 30
0.0
 10
189.235
 20
108.2133
 30
0.0
 10
188.1276
 20
107.3358
 30
0.0
  0
SPLINE
  5
4E
330
1F
100
AcDbEntity
  8
layer 1
 62
     7
100
AcDbSpline
210
0.0
220
0.0
230
1.0
 70
    11
 71
     3
 72
    28
 73
    24
 74
     0
 42
0.0000000001
 43
0.0000000001
 12
1.0
 22
0.0
 32
0.0
 13
1.0
 23
0.0
 33
0.0
 40
0.0
 40
0.0
 40
0.0
 40
0.0
 40
0.1428571428571428
 40
0.1428571428571428
 40
0.1428571428571428
 40
0.1428571428571428
 40
0.2857142857142857
 40
0.2857142857142857
 40
0.2857142857142857
 40
0.2857142857142857
 40
0.4285714285714285
 40
0.4285714285714285
 40
0.4285714285714285
 40
0.4285714285714285
 40
0.5714285714285714
 40
0.5714285714285714
 40
0.5714285714285714
 40
0.5714285714285714
 40
0.7142857142857143
 40
0.7142857142857143
 40
0.7142857142857143
 40
0.7142857142857143
 40
1.0
 40
1.0
 40
1.0
 40
1.0
 10
172.9294
 20
122.9696
 30
0.0
 10
172.9294
 20
122.9696
 30
0.0
 10
164.5053
 20
114.501
 30
0.0
 10
164.5053
 20
114.501
 30
0.0
 10
164.5053
 20
114.501
 30
0.0
 10
163.7733
 20
113.8347
 30
0.0
 10
162.8586
 20
113.6439
 30
0.0
 10
162.1786
 20
114.4499
 30
0.0
 10
162.1786
 20
114.4499
 30
0.0
 10
162.1786
 20
114.4499
 30
0.0
 10
154.0508
 20
122.7771
 30
0.0
 10
154.0508
 20
122.7771
 30
0.0
 10
154.0508
 20
122.7771
 30
0.0
 10
153.5481
 20
123.2719
 30
0.0
 10
153.5982
 20
125.03
 30
0.0
 10
155.0927
 20
124.999
 30
0.0
 10
155.0927
 20
124.999
 30
0.0
 10
155.0927
 20
124.999
 30
0.0
 10
171.861
 20
124.999
 30
0.0
 10
171.861
 20
124.999
 30
0.0
 10
171.861
 20
124.999
 30
0.0
 10
172.9282
 20
125.0612
 30
0.0
 10
173.8069
 20
124.077
 30
0.0
 10
172.9294
 20
122.9696
 30
0.0
  0
SPLINE
  5
4F
330
1F
100
AcDbEntity
  8
layer 1
 62
     7
100
AcDbSpline
210
0.0
220
0.0
230
1.0
 70
    11
 71
     3
 72
    28
 73
    24
 74
     0
 42
0.0000000001
 43
0.0000000001
 12
1.0
 22
0.0
 32
0.0
 13
1.0
 23
0.0
 33
0.0
 40
0.0
 40
0.0
 40
0.0
 40
0.0
 40
0.1428571428571428
 40
0.1428571428571428
 40
0.1428571428571428
 40
0.1428571428571428
 40
0.2857142857142857
 40
0.2857142857142857
 40
0.2857142857142857
 40
0.2857142857142857
 40
0.4285714285714285
 40
0.4285714285714285
 40
0.4285714285714285
 40
0.4285714285714285
 40
0.5714285714285714
 40
0.5714285714285714
 40
0.5714285714285714
 40
0.5714285714285714
 40
0.7142857142857143
 40
0.7142857142857143
 40
0.7142857142857143
 40
0.7142857142857143
 40
1.0
 40
1.0
 40
1.0
 40
1.0
 10
172.9294
 20
72.6468
 30
0.0
 10
172.9294
 20
72.6468
 30
0.0
 10
164.5053
 20
81.1153
 30
0.0
 10
164.5053
 20
81.1153
 30
0.0
 10
164.5053
 20
81.1153
 30
0.0
 10
163.7733
 20
81.7816
 30
0.0
 10
162.8586
 20
81.9724
 30
0.0
 10
162.1786
 20
81.1664
 30
0.0
 10
162.1786
 20
81.1664
 30
0.0
 10
162.1786
 20
81.1664
 30
0.0
 10
154.0508
 20
72.8392
 30
0.0
 10
154.0508
 20
72.8392
 30
0.0
 10
154.0508
 20
72.8392
 30
0.0
 10
153.5481
 20
72.3445
 30
0.0
 10
153.5982
 20
70.5863
 30
0.0
 10
155.0927
 20
70.6173
 30
0.0
 10
155.0927
 20
70.6173
 30
0.0
 10
155.0927
 20
70.6173
 30
0.0
 10
171.861
 20
70.6173
 30
0.0
 10
171.861
 20
70.6173
 30
0.0
 10
171.861
 20
70.6173
 30
0.0
 10
172.9282
 20
70.5551
 30
0.0
 10
173.8069
 20
71.5394
 30
0.0
 10
172.9294
 20
72.6468
 30
0.0
  0
SPLINE
  5
50
330
1F
100
AcDbEntity
  8
layer 1
 62
     7
100
AcDbSpline
210
0.0
220
0.0
230
1.0
 70
    11
 71
     3
 72
    44
 73
    40
 74
     0
 42
0.0000000001
 43
0.0000000001
 12
1.0
 22
0.0
 32
0.0
 13
1.0
 23
0.0
 33
0.0
 40
0.0
 40
0.0
 40
0.0
 40
0.0
 40
0.0909090909090909
 40
0.0909090909090909
 40
0.0909090909090909
 40
0.0909090909090909
 40
0.1818181818181818
 40
0.1818181818181818
 40
0.1818181818181818
 40
0.1818181818181818
 40
0.2727272727272727
 40
0.2727272727272727
 40
0.2727272727272727
 40
0.2727272727272727
 40
0.3636363636363636
 40
0.3636363636363636
 40
0.3636363636363636
 40
0.3636363636363636
 40
0.4545454545454545
 40
0.4545454545454545
 40
0.4545454545454545
 40
0.4545454545454545
 40
0.5454545454545454
 40
0.5454545454545454
 40
0.5454545454545454
 40
0.5454545454545454
 40
0.6363636363636364
 40
0.6363636363636364
 40
0.6363636363636364
 40
0.6363636363636364
 40
0.7272727272727273
 40
0.7272727272727273
 40
0.7272727272727273
 40
0.7272727272727273
 40
0.8181818181818182
 40
0.8181818181818182
 40
0.8181818181818182
 40
0.8181818181818182
 40
1.0
 40
1.0
 40
1.0
 40
1.0
 10
176.8664
 20
102.3762
 30
0.0
 10
176.8664
 20
102.3762
 30
0.0
 10
190.1658
 20
115.8341
 30
0.0
 10
190.1658
 20
115.8341
 30
0.0
 10
190.1658
 20
115.8341
 30
0.0
 10
190.1658
 20
115.8341
 30
0.0
 10
190.1879
 20
123.923
 30
0.0
 10
190.1879
 20
123.923
 30
0.0
 10
190.1879
 20
123.923
 30
0.0
 10
190.1559
 20
124.5541
 30
0.0
 10
189.8045
 20
125.0529
 30
0.0
 10
189.0831
 20
124.9961
 30
0.0
 10
189.0831
 20
124.9961
 30
0.0
 10
189.0831
 20
124.9961
 30
0.0
 10
181.1906
 20
124.9061
 30
0.0
 10
181.1906
 20
124.9061
 30
0.0
 10
181.1906
 20
124.9061
 30
0.0
 10
181.1906
 20
124.9061
 30
0.0
 10
167.7643
 20
111.2265
 30
0.0
 10
167.7643
 20
111.2265
 30
0.0
 10
167.7643
 20
111.2265
 30
0.0
 10
167.0804
 20
110.6826
 30
0.0
 10
167.1044
 20
108.7345
 30
0.0
 10
168.7756
 20
108.7733
 30
0.0
 10
168.7756
 20
108.7733
 30
0.0
 10
168.7756
 20
108.7733
 30
0.0
 10
174.2221
 20
108.7412
 30
0.0
 10
174.2221
 20
108.7412
 30
0.0
 10
174.2221
 20
108.7412
 30
0.0
 10
174.2221
 20
108.7412
 30
0.0
 10
174.2816
 20
103.2864
 30
0.0
 10
174.2816
 20
103.2864
 30
0.0
 10
174.2816
 20
103.2864
 30
0.0
 10
174.3175
 20
101.5689
 30
0.0
 10
175.8382
 20
101.3658
 30
0.0
 10
176.8664
 20
102.3762
 30
0.0
 10
176.8664
 20
102.3762
 30
0.0
 10
176.8664
 20
102.3762
 30
0.0
 10
176.8664
 20
102.3762
 30
0.0
 10
176.8664
 20
102.3762
 30
0.0
  0
SPLINE
  5
51
330
1F
100
AcDbEntity
  8
layer 1
 62
     7
100
AcDbSpline
210
0.0
220
0.0
230
1.0
 70
    11
 71
     3
 72
    44
 73
    40
 74
     0
 42
0.0000000001
 43
0.0000000001
 12
1.0
 22
0.0
 32
0.0
 13
1.0
 23
0.0
 33
0.0
 40
0.0
 40
0.0
 40
0.0
 40
0.0
 40
0.0909090909090909
 40
0.0909090909090909
 40
0.0909090909090909
 40
0.0909090909090909
 40
0.1818181818181818
 40
0.1818181818181818
 40
0.1818181818181818
 40
0.1818181818181818
 40
0.2727272727272727
 40
0.2727272727272727
 40
0.2727272727272727
 40
0.2727272727272727
 40
0.3636363636363636
 40
0.3636363636363636
 40
0.3636363636363636
 40
0.3636363636363636
 40
0.4545454545454545
 40
0.4545454545454545
 40
0.4545454545454545
 40
0.4545454545454545
 40
0.5454545454545454
 40
0.5454545454545454
 40
0.5454545454545454
 40
0.5454545454545454
 40
0.6363636363636364
 40
0.6363636363636364
 40
0.6363636363636364
 40
0.6363636363636364
 40
0.7272727272727273
 40
0.7272727272727273
 40
0.7272727272727273
 40
0.7272727272727273
 40
0.8181818181818182
 40
0.8181818181818182
 40
0.8181818181818182
 40
0.8181818181818182
 40
1.0
 40
1.0
 40
1.0
 40
1.0
 10
149.9673
 20
102.3762
 30
0.0
 10
149.9673
 20
102.3762
 30
0.0
 10
136.6679
 20
115.8341
 30
0.0
 10
136.6679
 20
115.8341
 30
0.0
 10
136.6679
 20
115.8341
 30
0.0
 10
136.6679
 20
115.8341
 30
0.0
 10
136.6459
 20
123.923
 30
0.0
 10
136.6459
 20
123.923
 30
0.0
 10
136.6459
 20
123.923
 30
0.0
 10
136.6778
 20
124.5541
 30
0.0
 10
137.0292
 20
125.0529
 30
0.0
 10
137.7507
 20
124.9961
 30
0.0
 10
137.7507
 20
124.9961
 30
0.0
 10
137.7507
 20
124.9961
 30
0.0
 10
145.6432
 20
124.9061
 30
0.0
 10
145.6432
 20
124.9061
 30
0.0
 10
145.6432
 20
124.9061
 30
0.0
 10
145.6432
 20
124.9061
 30
0.0
 10
159.0695
 20
111.2265
 30
0.0
 10
159.0695
 20
111.2265
 30
0.0
 10
159.0695
 20
111.2265
 30
0.0
 10
159.7535
 20
110.6826
 30
0.0
 10
159.7294
 20
108.7345
 30
0.0
 10
158.0582
 20
108.7733
 30
0.0
 10
158.0582
 20
108.7733
 30
0.0
 10
158.0582
 20
108.7733
 30
0.0
 10
152.6117
 20
108.7412
 30
0.0
 10
152.6117
 20
108.7412
 30
0.0
 10
152.6117
 20
108.7412
 30
0.0
 10
152.6117
 20
108.7412
 30
0.0
 10
152.5523
 20
103.2864
 30
0.0
 10
152.5523
 20
103.2864
 30
0.0
 10
152.5523
 20
103.2864
 30
0.0
 10
152.5163
 20
101.5689
 30
0.0
 10
150.9956
 20
101.3658
 30
0.0
 10
149.9674
 20
102.3762
 30
0.0
 10
149.9674
 20
102.3762
 30
0.0
 10
149.9674
 20
102.3762
 30
0.0
 10
149.9673
 20
102.3762
 30
0.0
 10
149.9673
 20
102.3762
 30
0.0
  0
SPLINE
  5
52
330
1F
100
AcDbEntity
  8
layer 1
 62
     7
100
AcDbSpline
210
0.0
220
0.0
230
1.0
 70
    11
 71
     3
 72
    44
 73
    40
 74
     0
 42
0.0000000001
 43
0.0000000001
 12
1.0
 22
0.0
 32
0.0
 13
1.0
 23
0.0
 33
0.0
 40
0.0
 40
0.0
 40
0.0
 40
0.0
 40
0.0909090909090909
 40
0.0909090909090909
 40
0.0909090909090909
 40
0.0909090909090909
 40
0.1818181818181818
 40
0.1818181818181818
 40
0.1818181818181818
 40
0.1818181818181818
 40
0.2727272727272727
 40
0.2727272727272727
 40
0.2727272727272727
 40
0.2727272727272727
 40
0.3636363636363636
 40
0.3636363636363636
 40
0.3636363636363636
 40
0.3636363636363636
 40
0.4545454545454545
 40
0.4545454545454545
 40
0.4545454545454545
 40
0.4545454545454545
 40
0.5454545454545454
 40
0.5454545454545454
 40
0.5454545454545454
 40
0.5454545454545454
 40
0.6363636363636364
 40
0.6363636363636364
 40
0.6363636363636364
 40
0.6363636363636364
 40
0.7272727272727273
 40
0.7272727272727273
 40
0.7272727272727273
 40
0.7272727272727273
 40
0.8181818181818182
 40
0.8181818181818182
 40
0.8181818181818182
 40
0.8181818181818182
 40
1.0
 40
1.0
 40
1.0
 40
1.0
 10
176.8664
 20
93.1844
 30
0.0
 10
176.8664
 20
93.1844
 30
0.0
 10
190.1658
 20
79.7265
 30
0.0
 10
190.1658
 20
79.7265
 30
0.0
 10
190.1658
 20
79.7265
 30
0.0
 10
190.1658
 20
79.7265
 30
0.0
 10
190.1879
 20
71.6376
 30
0.0
 10
190.1879
 20
71.6376
 30
0.0
 10
190.1879
 20
71.6376
 30
0.0
 10
190.1559
 20
71.0065
 30
0.0
 10
189.8045
 20
70.5077
 30
0.0
 10
189.0831
 20
70.5645
 30
0.0
 10
189.0831
 20
70.5645
 30
0.0
 10
189.0831
 20
70.5645
 30
0.0
 10
181.1906
 20
70.6545
 30
0.0
 10
181.1906
 20
70.6545
 30
0.0
 10
181.1906
 20
70.6545
 30
0.0
 10
181.1906
 20
70.6545
 30
0.0
 10
167.7643
 20
84.3341
 30
0.0
 10
167.7643
 20
84.3341
 30
0.0
 10
167.7643
 20
84.3341
 30
0.0
 10
167.0803
 20
84.878
 30
0.0
 10
167.1043
 20
86.826
 30
0.0
 10
168.7755
 20
86.7873
 30
0.0
 10
168.7755
 20
86.7873
 30
0.0
 10
168.7755
 20
86.7873
 30
0.0
 10
174.222
 20
86.8194
 30
0.0
 10
174.222
 20
86.8194
 30
0.0
 10
174.222
 20
86.8194
 30
0.0
 10
174.222
 20
86.8194
 30
0.0
 10
174.2815
 20
92.2742
 30
0.0
 10
174.2815
 20
92.2742
 30
0.0
 10
174.2815
 20
92.2742
 30
0.0
 10
174.3174
 20
93.9917
 30
0.0
 10
175.8381
 20
94.1948
 30
0.0
 10
176.8663
 20
93.1844
 30
0.0
 10
176.8663
 20
93.1844
 30
0.0
 10
176.8663
 20
93.1844
 30
0.0
 10
176.8664
 20
93.1844
 30
0.0
 10
176.8664
 20
93.1844
 30
0.0
  0
SPLINE
  5
53
330
1F
100
AcDbEntity
  8
layer 1
 62
     7
100
AcDbSpline
210
0.0
220
0.0
230
1.0
 70
    11
 71
     3
 72
    44
 73
    40
 74
     0
 42
0.0000000001
 43
0.0000000001
 12
1.0
 22
0.0
 32
0.0
 13
1.0
 23
0.0
 33
0.0
 40
0.0
 40
0.0
 40
0.0
 40
0.0
 40
0.0909090909090909
 40
0.0909090909090909
 40
0.0909090909090909
 40
0.0909090909090909
 40
0.1818181818181818
 40
0.1818181818181818
 40
0.1818181818181818
 40
0.1818181818181818
 40
0.2727272727272727
 40
0.2727272727272727
 40
0.2727272727272727
 40
0.2727272727272727
 40
0.3636363636363636
 40
0.3636363636363636
 40
0.3636363636363636
 40
0.3636363636363636
 40
0.4545454545454545
 40
0.4545454545454545
 40
0.4545454545454545
 40
0.4545454545454545
 40
0.5454545454545454
 40
0.5454545454545454
 40
0.5454545454545454
 40
0.5454545454545454
 40
0.6363636363636364
 40
0.6363636363636364
 40
0.6363636363636364
 40
0.6363636363636364
 40
0.7272727272727273
 40
0.7272727272727273
 40
0.7272727272727273
 40
0.7272727272727273
 40
0.8181818181818182
 40
0.8181818181818182
 40
0.8181818181818182
 40
0.8181818181818182
 40
1.0
 40
1.0
 40
1.0
 40
1.0
 10
149.9673
 20
93.1844
 30
0.0
 10
149.9673
 20
93.1844
 30
0.0
 10
136.6679
 20
79.7265
 30
0.0
 10
136.6679
 20
79.7265
 30
0.0
 10
136.6679
 20
79.7265
 30
0.0
 10
136.6679
 20
79.7265
 30
0.0
 10
136.6459
 20
71.6376
 30
0.0
 10
136.6459
 20
71.6376
 30
0.0
 10
136.6459
 20
71.6376
 30
0.0
 10
136.6778
 20
71.0065
 30
0.0
 10
137.0292
 20
70.5077
 30
0.0
 10
137.7507
 20
70.5645
 30
0.0
 10
137.7507
 20
70.5645
 30
0.0
 10
137.7507
 20
70.5645
 30
0.0
 10
145.6432
 20
70.6545
 30
0.0
 10
145.6432
 20
70.6545
 30
0.0
 10
145.6432
 20
70.6545
 30
0.0
 10
145.6432
 20
70.6545
 30
0.0
 10
159.0695
 20
84.3341
 30
0.0
 10
159.0695
 20
84.3341
 30
0.0
 10
159.0695
 20
84.3341
 30
0.0
 10
159.7535
 20
84.878
 30
0.0
 10
159.7294
 20
86.826
 30
0.0
 10
158.0582
 20
86.7873
 30
0.0
 10
158.0582
 20
86.7873
 30
0.0
 10
158.0582
 20
86.7873
 30
0.0
 10
152.6117
 20
86.8194
 30
0.0
 10
152.6117
 20
86.8194
 30
0.0
 10
152.6117
 20
86.8194
 30
0.0
 10
152.6117
 20
86.8194
 30
0.0
 10
152.5523
 20
92.2742
 30
0.0
 10
152.5523
 20
92.2742
 30
0.0
 10
152.5523
 20
92.2742
 30
0.0
 10
152.5163
 20
93.9917
 30
0.0
 10
150.9956
 20
94.1948
 30
0.0
 10
149.9674
 20
93.1844
 30
0.0
 10
149.9674
 20
93.1844
 30
0.0
 10
149.9674
 20
93.1844
 30
0.0
 10
149.9673
 20
93.1844
 30
0.0
 10
149.9673
 20
93.1844
 30
0.0
  0
SPLINE
  5
54
330
1F
100
AcDbEntity
  8
layer 1
 62
     7
100
AcDbSpline
210
0.0
220
0.0
230
1.0
 70
    11
 71
     3
 72
   136
 73
   132
 74
     0
 42
0.0000000001
 43
0.0000000001
 12
1.0
 22
0.0
 32
0.0
 13
1.0
 23
0.0
 33
0.0
 40
0.0
 40
0.0
 40
0.0
 40
0.0
 40
0.0294117647058824
 40
0.0294117647058824
 40
0.0294117647058824
 40
0.0294117647058824
 40
0.0588235294117647
 40
0.0588235294117647
 40
0.0588235294117647
 40
0.0588235294117647
 40
0.0882352941176471
 40
0.0882352941176471
 40
0.0882352941176471
 40
0.0882352941176471
 40
0.1176470588235294
 40
0.1176470588235294
 40
0.1176470588235294
 40
0.1176470588235294
 40
0.1470588235294118
 40
0.1470588235294118
 40
0.1470588235294118
 40
0.1470588235294118
 40
0.1764705882352941
 40
0.1764705882352941
 40
0.1764705882352941
 40
0.1764705882352941
 40
0.2058823529411765
 40
0.2058823529411765
 40
0.2058823529411765
 40
0.2058823529411765
 40
0.2352941176470588
 40
0.2352941176470588
 40
0.2352941176470588
 40
0.2352941176470588
 40
0.2647058823529412
 40
0.2647058823529412
 40
0.2647058823529412
 40
0.2647058823529412
 40
0.2941176470588235
 40
0.2941176470588235
 40
0.2941176470588235
 40
0.2941176470588235
 40
0.3235294117647059
 40
0.3235294117647059
 40
0.3235294117647059
 40
0.3235294117647059
 40
0.3529411764705883
 40
0.3529411764705883
 40
0.3529411764705883
 40
0.3529411764705883
 40
0.3823529411764706
 40
0.3823529411764706
 40
0.3823529411764706
 40
0.3823529411764706
 40
0.4117647058823529
 40
0.4117647058823529
 40
0.4117647058823529
 40
0.4117647058823529
 40
0.4411764705882353
 40
0.4411764705882353
 40
0.4411764705882353
 40
0.4411764705882353
 40
0.4705882352941176
 40
0.4705882352941176
 40
0.4705882352941176
 40
0.4705882352941176
 40
0.5
 40
0.5
 40
0.5
 40
0.5
 40
0.5294117647058824
 40
0.5294117647058824
 40
0.5294117647058824
 40
0.5294117647058824
 40
0.5588235294117647
 40
0.5588235294117647
 40
0.5588235294117647
 40
0.5588235294117647
 40
0.5882352941176471
 40
0.5882352941176471
 40
0.5882352941176471
 40
0.5882352941176471
 40
0.6176470588235294
 40
0.6176470588235294
 40
0.6176470588235294
 40
0.6176470588235294
 40
0.6470588235294118
 40
0.6470588235294118
 40
0.6470588235294118
 40
0.6470588235294118
 40
0.6764705882352942
 40
0.6764705882352942
 40
0.6764705882352942
 40
0.6764705882352942
 40
0.7058823529411765
 40
0.7058823529411765
 40
0.7058823529411765
 40
0.7058823529411765
 40
0.7352941176470589
 40
0.7352941176470589
 40
0.7352941176470589
 40
0.7352941176470589
 40
0.7647058823529411
 40
0.7647058823529411
 40
0.7647058823529411
 40
0.7647058823529411
 40
0.7941176470588235
 40
0.7941176470588235
 40
0.7941176470588235
 40
0.7941176470588235
 40
0.8235294117647058
 40
0.8235294117647058
 40
0.8235294117647058
 40
0.8235294117647058
 40
0.8529411764705882
 40
0.8529411764705882
 40
0.8529411764705882
 40
0.8529411764705882
 40
0.8823529411764706
 40
0.8823529411764706
 40
0.8823529411764706
 40
0.8823529411764706
 40
0.9117647058823529
 40
0.9117647058823529
 40
0.9117647058823529
 40
0.9117647058823529
 40
0.9411764705882353
 40
0.9411764705882353
 40
0.9411764705882353
 40
0.9411764705882353
 40
1.0
 40
1.0
 40
1.0
 40
1.0
 10
110.7119
 20
32.1372
 30
0.0
 10
110.7119
 20
32.1372
 30
0.0
 10
108.9299
 20
32.1311
 30
0.0
 10
108.9299
 20
32.1311
 30
0.0
 10
108.9299
 20
32.1311
 30
0.0
 10
108.0302
 20
32.1494
 30
0.0
 10
107.8053
 20
32.0262
 30
0.0
 10
107.2027
 20
31.4276
 30
0.0
 10
107.2027
 20
31.4276
 30
0.0
 10
107.2027
 20
31.4276
 30
0.0
 10
105.9112
 20
30.1449
 30
0.0
 10
105.9112
 20
30.1449
 30
0.0
 10
105.9112
 20
30.1449
 30
0.0
 10
105.4839
 20
29.6843
 30
0.0
 10
105.2155
 20
29.6473
 30
0.0
 10
104.7522
 20
30.1364
 30
0.0
 10
104.7522
 20
30.1364
 30
0.0
 10
104.7522
 20
30.1364
 30
0.0
 10
103.4757
 20
31.4043
 30
0.0
 10
103.4757
 20
31.4043
 30
0.0
 10
103.4757
 20
31.4043
 30
0.0
 10
102.944
 20
32.0368
 30
0.0
 10
102.5865
 20
32.1282
 30
0.0
 10
101.7224
 20
32.1311
 30
0.0
 10
101.7224
 20
32.1311
 30
0.0
 10
101.7224
 20
32.1311
 30
0.0
 10
99.9403
 20
32.1372
 30
0.0
 10
99.9403
 20
32.1372
 30
0.0
 10
99.9403
 20
32.1372
 30
0.0
 10
99.2483
 20
32.088
 30
0.0
 10
99.111
 20
32.1801
 30
0.0
 10
99.1082
 20
32.9577
 30
0.0
 10
99.1082
 20
32.9577
 30
0.0
 10
99.1082
 20
32.9577
 30
0.0
 10
99.1022
 20
34.7199
 30
0.0
 10
99.1022
 20
34.7199
 30
0.0
 10
99.1022
 20
34.7199
 30
0.0
 10
99.1422
 20
35.6147
 30
0.0
 10
98.9561
 20
35.9199
 30
0.0
 10
98.3129
 20
36.5675
 30
0.0
 10
98.3129
 20
36.5675
 30
0.0
 10
98.3129
 20
36.5675
 30
0.0
 10
97.1092
 20
37.7794
 30
0.0
 10
97.1092
 20
37.7794
 30
0.0
 10
97.1092
 20
37.7794
 30
0.0
 10
96.6163
 20
38.3091
 30
0.0
 10
96.7869
 20
38.5973
 30
0.0
 10
97.1012
 20
38.9253
 30
0.0
 10
97.1012
 20
38.9253
 30
0.0
 10
97.1012
 20
38.9253
 30
0.0
 10
98.3
 20
40.1323
 30
0.0
 10
98.3
 20
40.1323
 30
0.0
 10
98.3
 20
40.1323
 30
0.0
 10
98.9708
 20
40.6419
 30
0.0
 10
99.1388
 20
41.2222
 30
0.0
 10
99.1024
 20
42.0165
 30
0.0
 10
99.1024
 20
42.0165
 30
0.0
 10
99.1024
 20
42.0165
 30
0.0
 10
99.1083
 20
43.7589
 30
0.0
 10
99.1083
 20
43.7589
 30
0.0
 10
99.1083
 20
43.7589
 30
0.0
 10
99.0722
 20
44.4672
 30
0.0
 10
99.391
 20
44.602
 30
0.0
 10
99.9008
 20
44.5755
 30
0.0
 10
99.9008
 20
44.5755
 30
0.0
 10
99.9008
 20
44.5755
 30
0.0
 10
101.6929
 20
44.5816
 30
0.0
 10
101.6929
 20
44.5816
 30
0.0
 10
101.6929
 20
44.5816
 30
0.0
 10
102.5774
 20
44.602
 30
0.0
 10
102.8488
 20
44.6859
 30
0.0
 10
103.4676
 20
45.3006
 30
0.0
 10
103.4676
 20
45.3006
 30
0.0
 10
103.4676
 20
45.3006
 30
0.0
 10
104.7641
 20
46.5882
 30
0.0
 10
104.7641
 20
46.5882
 30
0.0
 10
104.7641
 20
46.5882
 30
0.0
 10
105.2801
 20
46.9949
 30
0.0
 10
105.585
 20
46.9101
 30
0.0
 10
105.9094
 20
46.5698
 30
0.0
 10
105.9094
 20
46.5698
 30
0.0
 10
105.9094
 20
46.5698
 30
0.0
 10
107.2058
 20
45.2822
 30
0.0
 10
107.2058
 20
45.2822
 30
0.0
 10
107.2058
 20
45.2822
 30
0.0
 10
107.6572
 20
44.7505
 30
0.0
 10
108.0897
 20
44.5846
 30
0.0
 10
108.9397
 20
44.5818
 30
0.0
 10
108.9397
 20
44.5818
 30
0.0
 10
108.9397
 20
44.5818
 30
0.0
 10
110.7218
 20
44.5757
 30
0.0
 10
110.7218
 20
44.5757
 30
0.0
 10
110.7218
 20
44.5757
 30
0.0
 10
111.4079
 20
44.6021
 30
0.0
 10
111.5042
 20
44.3327
 30
0.0
 10
111.5467
 20
43.7589
 30
0.0
 10
111.5467
 20
43.7589
 30
0.0
 10
111.5467
 20
43.7589
 30
0.0
 10
111.5526
 20
42.0264
 30
0.0
 10
111.5526
 20
42.0264
 30
0.0
 10
111.5526
 20
42.0264
 30
0.0
 10
111.4954
 20
41.1795
 30
0.0
 10
111.6713
 20
40.8208
 30
0.0
 10
112.3142
 20
40.1735
 30
0.0
 10
112.3142
 20
40.1735
 30
0.0
 10
112.3142
 20
40.1735
 30
0.0
 10
113.5526
 20
38.9266
 30
0.0
 10
113.5526
 20
38.9266
 30
0.0
 10
113.5526
 20
38.9266
 30
0.0
 10
113.9332
 20
38.5499
 30
0.0
 10
114.0227
 20
38.28
 30
0.0
 10
113.5543
 20
37.788
 30
0.0
 10
113.5543
 20
37.788
 30
0.0
 10
113.5543
 20
37.788
 30
0.0
 10
112.3159
 20
36.5413
 30
0.0
 10
112.3159
 20
36.5413
 30
0.0
 10
112.3159
 20
36.5413
 30
0.0
 10
111.6631
 20
35.9594
 30
0.0
 10
111.5556
 20
35.6015
 30
0.0
 10
111.5525
 20
34.6901
 30
0.0
 10
111.5525
 20
34.6901
 30
0.0
 10
111.5525
 20
34.6901
 30
0.0
 10
111.5467
 20
32.9675
 30
0.0
 10
111.5467
 20
32.9675
 30
0.0
 10
111.5467
 20
32.9675
 30
0.0
 10
111.5686
 20
32.4173
 30
0.0
 10
111.4148
 20
32.1202
 30
0.0
 10
110.7119
 20
32.1371
 30
0.0
 10
110.7119
 20
32.1371
 30
0.0
 10
110.7119
 20
32.1371
 30
0.0
 10
110.7119
 20
32.1372
 30
0.0
 10
110.7119
 20
32.1372
 30
0.0
  0
SPLINE
  5
55
330
1F
100
AcDbEntity
  8
layer 1
 62
     7
100
AcDbSpline
210
0.0
220
0.0
230
1.0
 70
    11
 71
     3
 72
    28
 73
    24
 74
     0
 42
0.0000000001
 43
0.0000000001
 12
1.0
 22
0.0
 32
0.0
 13
1.0
 23
0.0
 33
0.0
 40
0.0
 40
0.0
 40
0.0
 40
0.0
 40
0.1428571428571428
 40
0.1428571428571428
 40
0.1428571428571428
 40
0.1428571428571428
 40
0.2857142857142857
 40
0.2857142857142857
 40
0.2857142857142857
 40
0.2857142857142857
 40
0.4285714285714285
 40
0.4285714285714285
 40
0.4285714285714285
 40
0.4285714285714285
 40
0.5714285714285714
 40
0.5714285714285714
 40
0.5714285714285714
 40
0.5714285714285714
 40
0.7142857142857143
 40
0.7142857142857143
 40
0.7142857142857143
 40
0.7142857142857143
 40
1.0
 40
1.0
 40
1.0
 40
1.0
 10
80.5547
 20
47.9728
 30
0.0
 10
80.5547
 20
47.9728
 30
0.0
 10
89.0232
 20
39.5487
 30
0.0
 10
89.0232
 20
39.5487
 30
0.0
 10
89.0232
 20
39.5487
 30
0.0
 10
89.6896
 20
38.8166
 30
0.0
 10
89.8803
 20
37.902
 30
0.0
 10
89.0743
 20
37.222
 30
0.0
 10
89.0743
 20
37.222
 30
0.0
 10
89.0743
 20
37.222
 30
0.0
 10
80.7471
 20
29.0941
 30
0.0
 10
80.7471
 20
29.0941
 30
0.0
 10
80.7471
 20
29.0941
 30
0.0
 10
80.2524
 20
28.5914
 30
0.0
 10
78.4942
 20
28.6416
 30
0.0
 10
78.5253
 20
30.1361
 30
0.0
 10
78.5253
 20
30.1361
 30
0.0
 10
78.5253
 20
30.1361
 30
0.0
 10
78.5253
 20
46.9043
 30
0.0
 10
78.5253
 20
46.9043
 30
0.0
 10
78.5253
 20
46.9043
 30
0.0
 10
78.463
 20
47.9716
 30
0.0
 10
79.4473
 20
48.8503
 30
0.0
 10
80.5547
 20
47.9728
 30
0.0
  0
SPLINE
  5
56
330
1F
100
AcDbEntity
  8
layer 1
 62
     7
100
AcDbSpline
210
0.0
220
0.0
230
1.0
 70
    11
 71
     3
 72
    28
 73
    24
 74
     0
 42
0.0000000001
 43
0.0000000001
 12
1.0
 22
0.0
 32
0.0
 13
1.0
 23
0.0
 33
0.0
 40
0.0
 40
0.0
 40
0.0
 40
0.0
 40
0.1428571428571428
 40
0.1428571428571428
 40
0.1428571428571428
 40
0.1428571428571428
 40
0.2857142857142857
 40
0.2857142857142857
 40
0.2857142857142857
 40
0.2857142857142857
 40
0.4285714285714285
 40
0.4285714285714285
 40
0.4285714285714285
 40
0.4285714285714285
 40
0.5714285714285714
 40
0.5714285714285714
 40
0.5714285714285714
 40
0.5714285714285714
 40
0.7142857142857143
 40
0.7142857142857143
 40
0.7142857142857143
 40
0.7142857142857143
 40
1.0
 40
1.0
 40
1.0
 40
1.0
 10
130.0064
 20
47.9728
 30
0.0
 10
130.0064
 20
47.9728
 30
0.0
 10
121.5379
 20
39.5487
 30
0.0
 10
121.5379
 20
39.5487
 30
0.0
 10
121.5379
 20
39.5487
 30
0.0
 10
120.8715
 20
38.8166
 30
0.0
 10
120.6807
 20
37.902
 30
0.0
 10
121.4867
 20
37.222
 30
0.0
 10
121.4867
 20
37.222
 30
0.0
 10
121.4867
 20
37.222
 30
0.0
 10
129.814
 20
29.0941
 30
0.0
 10
129.814
 20
29.0941
 30
0.0
 10
129.814
 20
29.0941
 30
0.0
 10
130.3087
 20
28.5914
 30
0.0
 10
132.0669
 20
28.6416
 30
0.0
 10
132.0358
 20
30.1361
 30
0.0
 10
132.0358
 20
30.1361
 30
0.0
 10
132.0358
 20
30.1361
 30
0.0
 10
132.0358
 20
46.9043
 30
0.0
 10
132.0358
 20
46.9043
 30
0.0
 10
132.0358
 20
46.9043
 30
0.0
 10
132.098
 20
47.9716
 30
0.0
 10
131.1138
 20
48.8503
 30
0.0
 10
130.0064
 20
47.9728
 30
0.0
  0
SPLINE
  5
57
330
1F
100
AcDbEntity
  8
layer 1
 62
     7
100
AcDbSpline
210
0.0
220
0.0
230
1.0
 70
    11
 71
     3
 72
    28
 73
    24
 74
     0
 42
0.0000000001
 43
0.0000000001
 12
1.0
 22
0.0
 32
0.0
 13
1.0
 23
0.0
 33
0.0
 40
0.0
 40
0.0
 40
0.0
 40
0.0
 40
0.1428571428571428
 40
0.1428571428571428
 40
0.1428571428571428
 40
0.1428571428571428
 40
0.2857142857142857
 40
0.2857142857142857
 40
0.2857142857142857
 40
0.2857142857142857
 40
0.4285714285714285
 40
0.4285714285714285
 40
0.4285714285714285
 40
0.4285714285714285
 40
0.5714285714285714
 40
0.5714285714285714
 40
0.5714285714285714
 40
0.5714285714285714
 40
0.7142857142857143
 40
0.7142857142857143
 40
0.7142857142857143
 40
0.7142857142857143
 40
1.0
 40
1.0
 40
1.0
 40
1.0
 10
114.8082
 20
63.6064
 30
0.0
 10
114.8082
 20
63.6064
 30
0.0
 10
106.3841
 20
55.1379
 30
0.0
 10
106.3841
 20
55.1379
 30
0.0
 10
106.3841
 20
55.1379
 30
0.0
 10
105.6521
 20
54.4716
 30
0.0
 10
104.7374
 20
54.2808
 30
0.0
 10
104.0575
 20
55.0868
 30
0.0
 10
104.0575
 20
55.0868
 30
0.0
 10
104.0575
 20
55.0868
 30
0.0
 10
95.9296
 20
63.414
 30
0.0
 10
95.9296
 20
63.414
 30
0.0
 10
95.9296
 20
63.414
 30
0.0
 10
95.4269
 20
63.9087
 30
0.0
 10
95.477
 20
65.6669
 30
0.0
 10
96.9715
 20
65.6359
 30
0.0
 10
96.9715
 20
65.6359
 30
0.0
 10
96.9715
 20
65.6359
 30
0.0
 10
113.7398
 20
65.6359
 30
0.0
 10
113.7398
 20
65.6359
 30
0.0
 10
113.7398
 20
65.6359
 30
0.0
 10
114.807
 20
65.6981
 30
0.0
 10
115.6857
 20
64.7138
 30
0.0
 10
114.8082
 20
63.6064
 30
0.0
  0
SPLINE
  5
58
330
1F
100
AcDbEntity
  8
layer 1
 62
     7
100
AcDbSpline
210
0.0
220
0.0
230
1.0
 70
    11
 71
     3
 72
    28
 73
    24
 74
     0
 42
0.0000000001
 43
0.0000000001
 12
1.0
 22
0.0
 32
0.0
 13
1.0
 23
0.0
 33
0.0
 40
0.0
 40
0.0
 40
0.0
 40
0.0
 40
0.1428571428571428
 40
0.1428571428571428
 40
0.1428571428571428
 40
0.1428571428571428
 40
0.2857142857142857
 40
0.2857142857142857
 40
0.2857142857142857
 40
0.2857142857142857
 40
0.4285714285714285
 40
0.4285714285714285
 40
0.4285714285714285
 40
0.4285714285714285
 40
0.5714285714285714
 40
0.5714285714285714
 40
0.5714285714285714
 40
0.5714285714285714
 40
0.7142857142857143
 40
0.7142857142857143
 40
0.7142857142857143
 40
0.7142857142857143
 40
1.0
 40
1.0
 40
1.0
 40
1.0
 10
114.8082
 20
13.2837
 30
0.0
 10
114.8082
 20
13.2837
 30
0.0
 10
106.3841
 20
21.7522
 30
0.0
 10
106.3841
 20
21.7522
 30
0.0
 10
106.3841
 20
21.7522
 30
0.0
 10
105.6521
 20
22.4186
 30
0.0
 10
104.7374
 20
22.6093
 30
0.0
 10
104.0575
 20
21.8034
 30
0.0
 10
104.0575
 20
21.8034
 30
0.0
 10
104.0575
 20
21.8034
 30
0.0
 10
95.9296
 20
13.4761
 30
0.0
 10
95.9296
 20
13.4761
 30
0.0
 10
95.9296
 20
13.4761
 30
0.0
 10
95.4269
 20
12.9814
 30
0.0
 10
95.477
 20
11.2232
 30
0.0
 10
96.9715
 20
11.2543
 30
0.0
 10
96.9715
 20
11.2543
 30
0.0
 10
96.9715
 20
11.2543
 30
0.0
 10
113.7398
 20
11.2543
 30
0.0
 10
113.7398
 20
11.2543
 30
0.0
 10
113.7398
 20
11.2543
 30
0.0
 10
114.807
 20
11.1921
 30
0.0
 10
115.6857
 20
12.1763
 30
0.0
 10
114.8082
 20
13.2837
 30
0.0
  0
SPLINE
  5
59
330
1F
100
AcDbEntity
  8
layer 1
 62
     7
100
AcDbSpline
210
0.0
220
0.0
230
1.0
 70
    11
 71
     3
 72
    44
 73
    40
 74
     0
 42
0.0000000001
 43
0.0000000001
 12
1.0
 22
0.0
 32
0.0
 13
1.0
 23
0.0
 33
0.0
 40
0.0
 40
0.0
 40
0.0
 40
0.0
 40
0.0909090909090909
 40
0.0909090909090909
 40
0.0909090909090909
 40
0.0909090909090909
 40
0.1818181818181818
 40
0.1818181818181818
 40
0.1818181818181818
 40
0.1818181818181818
 40
0.2727272727272727
 40
0.2727272727272727
 40
0.2727272727272727
 40
0.2727272727272727
 40
0.3636363636363636
 40
0.3636363636363636
 40
0.3636363636363636
 40
0.3636363636363636
 40
0.4545454545454545
 40
0.4545454545454545
 40
0.4545454545454545
 40
0.4545454545454545
 40
0.5454545454545454
 40
0.5454545454545454
 40
0.5454545454545454
 40
0.5454545454545454
 40
0.6363636363636364
 40
0.6363636363636364
 40
0.6363636363636364
 40
0.6363636363636364
 40
0.7272727272727273
 40
0.7272727272727273
 40
0.7272727272727273
 40
0.7272727272727273
 40
0.8181818181818182
 40
0.8181818181818182
 40
0.8181818181818182
 40
0.8181818181818182
 40
1.0
 40
1.0
 40
1.0
 40
1.0
 10
118.7452
 20
43.0132
 30
0.0
 10
118.7452
 20
43.0132
 30
0.0
 10
132.0446
 20
56.471
 30
0.0
 10
132.0446
 20
56.471
 30
0.0
 10
132.0446
 20
56.471
 30
0.0
 10
132.0446
 20
56.471
 30
0.0
 10
132.0667
 20
64.5599
 30
0.0
 10
132.0667
 20
64.5599
 30
0.0
 10
132.0667
 20
64.5599
 30
0.0
 10
132.0348
 20
65.191
 30
0.0
 10
131.6834
 20
65.6898
 30
0.0
 10
130.9619
 20
65.6329
 30
0.0
 10
130.9619
 20
65.6329
 30
0.0
 10
130.9619
 20
65.6329
 30
0.0
 10
123.0694
 20
65.543
 30
0.0
 10
123.0694
 20
65.543
 30
0.0
 10
123.0694
 20
65.543
 30
0.0
 10
123.0694
 20
65.543
 30
0.0
 10
109.6431
 20
51.8634
 30
0.0
 10
109.6431
 20
51.8634
 30
0.0
 10
109.6431
 20
51.8634
 30
0.0
 10
108.9591
 20
51.3195
 30
0.0
 10
108.9831
 20
49.3715
 30
0.0
 10
110.6544
 20
49.4101
 30
0.0
 10
110.6544
 20
49.4101
 30
0.0
 10
110.6544
 20
49.4101
 30
0.0
 10
116.1009
 20
49.3781
 30
0.0
 10
116.1009
 20
49.3781
 30
0.0
 10
116.1009
 20
49.3781
 30
0.0
 10
116.1009
 20
49.3781
 30
0.0
 10
116.1603
 20
43.9233
 30
0.0
 10
116.1603
 20
43.9233
 30
0.0
 10
116.1603
 20
43.9233
 30
0.0
 10
116.1963
 20
42.2058
 30
0.0
 10
117.717
 20
42.0027
 30
0.0
 10
118.7452
 20
43.013
 30
0.0
 10
118.7452
 20
43.013
 30
0.0
 10
118.7452
 20
43.013
 30
0.0
 10
118.7452
 20
43.0132
 30
0.0
 10
118.7452
 20
43.0132
 30
0.0
  0
SPLINE
  5
5A
330
1F
100
AcDbEntity
  8
layer 1
 62
     7
100
AcDbSpline
210
0.0
220
0.0
230
1.0
 70
    11
 71
     3
 72
    44
 73
    40
 74
     0
 42
0.0000000001
 43
0.0000000001
 12
1.0
 22
0.0
 32
0.0
 13
1.0
 23
0.0
 33
0.0
 40
0.0
 40
0.0
 40
0.0
 40
0.0
 40
0.0909090909090909
 40
0.0909090909090909
 40
0.0909090909090909
 40
0.0909090909090909
 40
0.1818181818181818
 40
0.1818181818181818
 40
0.1818181818181818
 40
0.1818181818181818
 40
0.2727272727272727
 40
0.2727272727272727
 40
0.2727272727272727
 40
0.2727272727272727
 40
0.3636363636363636
 40
0.3636363636363636
 40
0.3636363636363636
 40
0.3636363636363636
 40
0.4545454545454545
 40
0.4545454545454545
 40
0.4545454545454545
 40
0.4545454545454545
 40
0.5454545454545454
 40
0.5454545454545454
 40
0.5454545454545454
 40
0.5454545454545454
 40
0.6363636363636364
 40
0.6363636363636364
 40
0.6363636363636364
 40
0.6363636363636364
 40
0.7272727272727273
 40
0.7272727272727273
 40
0.7272727272727273
 40
0.7272727272727273
 40
0.8181818181818182
 40
0.8181818181818182
 40
0.8181818181818182
 40
0.8181818181818182
 40
1.0
 40
1.0
 40
1.0
 40
1.0
 10
91.8462
 20
43.0132
 30
0.0
 10
91.8462
 20
43.0132
 30
0.0
 10
78.5468
 20
56.471
 30
0.0
 10
78.5468
 20
56.471
 30
0.0
 10
78.5468
 20
56.471
 30
0.0
 10
78.5468
 20
56.471
 30
0.0
 10
78.5247
 20
64.5599
 30
0.0
 10
78.5247
 20
64.5599
 30
0.0
 10
78.5247
 20
64.5599
 30
0.0
 10
78.5566
 20
65.191
 30
0.0
 10
78.908
 20
65.6898
 30
0.0
 10
79.6295
 20
65.6329
 30
0.0
 10
79.6295
 20
65.6329
 30
0.0
 10
79.6295
 20
65.6329
 30
0.0
 10
87.522
 20
65.543
 30
0.0
 10
87.522
 20
65.543
 30
0.0
 10
87.522
 20
65.543
 30
0.0
 10
87.522
 20
65.543
 30
0.0
 10
100.9483
 20
51.8634
 30
0.0
 10
100.9483
 20
51.8634
 30
0.0
 10
100.9483
 20
51.8634
 30
0.0
 10
101.6323
 20
51.3195
 30
0.0
 10
101.6083
 20
49.3715
 30
0.0
 10
99.937
 20
49.4101
 30
0.0
 10
99.937
 20
49.4101
 30
0.0
 10
99.937
 20
49.4101
 30
0.0
 10
94.4906
 20
49.3781
 30
0.0
 10
94.4906
 20
49.3781
 30
0.0
 10
94.4906
 20
49.3781
 30
0.0
 10
94.4906
 20
49.3781
 30
0.0
 10
94.4311
 20
43.9233
 30
0.0
 10
94.4311
 20
43.9233
 30
0.0
 10
94.4311
 20
43.9233
 30
0.0
 10
94.3951
 20
42.2058
 30
0.0
 10
92.8744
 20
42.0027
 30
0.0
 10
91.8463
 20
43.013
 30
0.0
 10
91.8463
 20
43.013
 30
0.0
 10
91.8463
 20
43.013
 30
0.0
 10
91.8462
 20
43.0132
 30
0.0
 10
91.8462
 20
43.0132
 30
0.0
  0
SPLINE
  5
5B
330
1F
100
AcDbEntity
  8
layer 1
 62
     7
100
AcDbSpline
210
0.0
220
0.0
230
1.0
 70
    11
 71
     3
 72
    44
 73
    40
 74
     0
 42
0.0000000001
 43
0.0000000001
 12
1.0
 22
0.0
 32
0.0
 13
1.0
 23
0.0
 33
0.0
 40
0.0
 40
0.0
 40
0.0
 40
0.0
 40
0.0909090909090909
 40
0.0909090909090909
 40
0.0909090909090909
 40
0.0909090909090909
 40
0.1818181818181818
 40
0.1818181818181818
 40
0.1818181818181818
 40
0.1818181818181818
 40
0.2727272727272727
 40
0.2727272727272727
 40
0.2727272727272727
 40
0.2727272727272727
 40
0.3636363636363636
 40
0.3636363636363636
 40
0.3636363636363636
 40
0.3636363636363636
 40
0.4545454545454545
 40
0.4545454545454545
 40
0.4545454545454545
 40
0.4545454545454545
 40
0.5454545454545454
 40
0.5454545454545454
 40
0.5454545454545454
 40
0.5454545454545454
 40
0.6363636363636364
 40
0.6363636363636364
 40
0.6363636363636364
 40
0.6363636363636364
 40
0.7272727272727273
 40
0.7272727272727273
 40
0.7272727272727273
 40
0.7272727272727273
 40
0.8181818181818182
 40
0.8181818181818182
 40
0.8181818181818182
 40
0.8181818181818182
 40
1.0
 40
1.0
 40
1.0
 40
1.0
 10
118.7452
 20
33.8212
 30
0.0
 10
118.7452
 20
33.8212
 30
0.0
 10
132.0446
 20
20.3634
 30
0.0
 10
132.0446
 20
20.3634
 30
0.0
 10
132.0446
 20
20.3634
 30
0.0
 10
132.0446
 20
20.3634
 30
0.0
 10
132.0667
 20
12.2745
 30
0.0
 10
132.0667
 20
12.2745
 30
0.0
 10
132.0667
 20
12.2745
 30
0.0
 10
132.0348
 20
11.6434
 30
0.0
 10
131.6834
 20
11.1446
 30
0.0
 10
130.9619
 20
11.2014
 30
0.0
 10
130.9619
 20
11.2014
 30
0.0
 10
130.9619
 20
11.2014
 30
0.0
 10
123.0694
 20
11.2914
 30
0.0
 10
123.0694
 20
11.2914
 30
0.0
 10
123.0694
 20
11.2914
 30
0.0
 10
123.0694
 20
11.2914
 30
0.0
 10
109.6431
 20
24.971
 30
0.0
 10
109.6431
 20
24.971
 30
0.0
 10
109.6431
 20
24.971
 30
0.0
 10
108.9591
 20
25.5149
 30
0.0
 10
108.9831
 20
27.4629
 30
0.0
 10
110.6544
 20
27.4242
 30
0.0
 10
110.6544
 20
27.4242
 30
0.0
 10
110.6544
 20
27.4242
 30
0.0
 10
116.1009
 20
27.4563
 30
0.0
 10
116.1009
 20
27.4563
 30
0.0
 10
116.1009
 20
27.4563
 30
0.0
 10
116.1009
 20
27.4563
 30
0.0
 10
116.1603
 20
32.9111
 30
0.0
 10
116.1603
 20
32.9111
 30
0.0
 10
116.1603
 20
32.9111
 30
0.0
 10
116.1963
 20
34.6285
 30
0.0
 10
117.717
 20
34.8316
 30
0.0
 10
118.7452
 20
33.8213
 30
0.0
 10
118.7452
 20
33.8213
 30
0.0
 10
118.7452
 20
33.8213
 30
0.0
 10
118.7452
 20
33.8212
 30
0.0
 10
118.7452
 20
33.8212
 30
0.0
  0
SPLINE
  5
5C
330
1F
100
AcDbEntity
  8
layer 1
 62
     7
100
AcDbSpline
210
0.0
220
0.0
230
1.0
 70
    11
 71
     3
 72
    44
 73
    40
 74
     0
 42
0.0000000001
 43
0.0000000001
 12
1.0
 22
0.0
 32
0.0
 13
1.0
 23
0.0
 33
0.0
 40
0.0
 40
0.0
 40
0.0
 40
0.0
 40
0.0909090909090909
 40
0.0909090909090909
 40
0.0909090909090909
 40
0.0909090909090909
 40
0.1818181818181818
 40
0.1818181818181818
 40
0.1818181818181818
 40
0.1818181818181818
 40
0.2727272727272727
 40
0.2727272727272727
 40
0.2727272727272727
 40
0.2727272727272727
 40
0.3636363636363636
 40
0.3636363636363636
 40
0.3636363636363636
 40
0.3636363636363636
 40
0.4545454545454545
 40
0.4545454545454545
 40
0.4545454545454545
 40
0.4545454545454545
 40
0.5454545454545454
 40
0.5454545454545454
 40
0.5454545454545454
 40
0.5454545454545454
 40
0.6363636363636364
 40
0.6363636363636364
 40
0.6363636363636364
 40
0.6363636363636364
 40
0.7272727272727273
 40
0.7272727272727273
 40
0.7272727272727273
 40
0.7272727272727273
 40
0.8181818181818182
 40
0.8181818181818182
 40
0.8181818181818182
 40
0.8181818181818182
 40
1.0
 40
1.0
 40
1.0
 40
1.0
 10
91.8462
 20
33.8212
 30
0.0
 10
91.8462
 20
33.8212
 30
0.0
 10
78.5468
 20
20.3634
 30
0.0
 10
78.5468
 20
20.3634
 30
0.0
 10
78.5468
 20
20.3634
 30
0.0
 10
78.5468
 20
20.3634
 30
0.0
 10
78.5247
 20
12.2745
 30
0.0
 10
78.5247
 20
12.2745
 30
0.0
 10
78.5247
 20
12.2745
 30
0.0
 10
78.5566
 20
11.6434
 30
0.0
 10
78.908
 20
11.1446
 30
0.0
 10
79.6295
 20
11.2014
 30
0.0
 10
79.6295
 20
11.2014
 30
0.0
 10
79.6295
 20
11.2014
 30
0.0
 10
87.522
 20
11.2914
 30
0.0
 10
87.522
 20
11.2914
 30
0.0
 10
87.522
 20
11.2914
 30
0.0
 10
87.522
 20
11.2914
 30
0.0
 10
100.9483
 20
24.971
 30
0.0
 10
100.9483
 20
24.971
 30
0.0
 10
100.9483
 20
24.971
 30
0.0
 10
101.6323
 20
25.5149
 30
0.0
 10
101.6083
 20
27.4629
 30
0.0
 10
99.937
 20
27.4242
 30
0.0
 10
99.937
 20
27.4242
 30
0.0
 10
99.937
 20
27.4242
 30
0.0
 10
94.4906
 20
27.4563
 30
0.0
 10
94.4906
 20
27.4563
 30
0.0
 10
94.4906
 20
27.4563
 30
0.0
 10
94.4906
 20
27.4563
 30
0.0
 10
94.4311
 20
32.9111
 30
0.0
 10
94.4311
 20
32.9111
 30
0.0
 10
94.4311
 20
32.9111
 30
0.0
 10
94.3951
 20
34.6285
 30
0.0
 10
92.8744
 20
34.8316
 30
0.0
 10
91.8463
 20
33.8213
 30
0.0
 10
91.8463
 20
33.8213
 30
0.0
 10
91.8463
 20
33.8213
 30
0.0
 10
91.8462
 20
33.8212
 30
0.0
 10
91.8462
 20
33.8212
 30
0.0
  0
SPLINE
  5
5D
330
1F
100
AcDbEntity
  8
layer 1
 62
     7
100
AcDbSpline
210
0.0
220
0.0
230
1.0
 70
    11
 71
     3
 72
   136
 73
   132
 74
     0
 42
0.0000000001
 43
0.0000000001
 12
1.0
 22
0.0
 32
0.0
 13
1.0
 23
0.0
 33
0.0
 40
0.0
 40
0.0
 40
0.0
 40
0.0
 40
0.0294117647058824
 40
0.0294117647058824
 40
0.0294117647058824
 40
0.0294117647058824
 40
0.0588235294117647
 40
0.0588235294117647
 40
0.0588235294117647
 40
0.0588235294117647
 40
0.0882352941176471
 40
0.0882352941176471
 40
0.0882352941176471
 40
0.0882352941176471
 40
0.1176470588235294
 40
0.1176470588235294
 40
0.1176470588235294
 40
0.1176470588235294
 40
0.1470588235294118
 40
0.1470588235294118
 40
0.1470588235294118
 40
0.1470588235294118
 40
0.1764705882352941
 40
0.1764705882352941
 40
0.1764705882352941
 40
0.1764705882352941
 40
0.2058823529411765
 40
0.2058823529411765
 40
0.2058823529411765
 40
0.2058823529411765
 40
0.2352941176470588
 40
0.2352941176470588
 40
0.2352941176470588
 40
0.2352941176470588
 40
0.2647058823529412
 40
0.2647058823529412
 40
0.2647058823529412
 40
0.2647058823529412
 40
0.2941176470588235
 40
0.2941176470588235
 40
0.2941176470588235
 40
0.2941176470588235
 40
0.3235294117647059
 40
0.3235294117647059
 40
0.3235294117647059
 40
0.3235294117647059
 40
0.3529411764705883
 40
0.3529411764705883
 40
0.3529411764705883
 40
0.3529411764705883
 40
0.3823529411764706
 40
0.3823529411764706
 40
0.3823529411764706
 40
0.3823529411764706
 40
0.4117647058823529
 40
0.4117647058823529
 40
0.4117647058823529
 40
0.4117647058823529
 40
0.4411764705882353
 40
0.4411764705882353
 40
0.4411764705882353
 40
0.4411764705882353
 40
0.4705882352941176
 40
0.4705882352941176
 40
0.4705882352941176
 40
0.4705882352941176
 40
0.5
 40
0.5
 40
0.5
 40
0.5
 40
0.5294117647058824
 40
0.5294117647058824
 40
0.5294117647058824
 40
0.5294117647058824
 40
0.5588235294117647
 40
0.5588235294117647
 40
0.5588235294117647
 40
0.5588235294117647
 40
0.5882352941176471
 40
0.5882352941176471
 40
0.5882352941176471
 40
0.5882352941176471
 40
0.6176470588235294
 40
0.6176470588235294
 40
0.6176470588235294
 40
0.6176470588235294
 40
0.6470588235294118
 40
0.6470588235294118
 40
0.6470588235294118
 40
0.6470588235294118
 40
0.6764705882352942
 40
0.6764705882352942
 40
0.6764705882352942
 40
0.6764705882352942
 40
0.7058823529411765
 40
0.7058823529411765
 40
0.7058823529411765
 40
0.7058823529411765
 40
0.7352941176470589
 40
0.7352941176470589
 40
0.7352941176470589
 40
0.7352941176470589
 40
0.7647058823529411
 40
0.7647058823529411
 40
0.7647058823529411
 40
0.7647058823529411
 40
0.7941176470588235
 40
0.7941176470588235
 40
0.7941176470588235
 40
0.7941176470588235
 40
0.8235294117647058
 40
0.8235294117647058
 40
0.8235294117647058
 40
0.8235294117647058
 40
0.8529411764705882
 40
0.8529411764705882
 40
0.8529411764705882
 40
0.8529411764705882
 40
0.8823529411764706
 40
0.8823529411764706
 40
0.8823529411764706
 40
0.8823529411764706
 40
0.9117647058823529
 40
0.9117647058823529
 40
0.9117647058823529
 40
0.9117647058823529
 40
0.9411764705882353
 40
0.9411764705882353
 40
0.9411764705882353
 40
0.9411764705882353
 40
1.0
 40
1.0
 40
1.0
 40
1.0
 10
168.8331
 20
32.1372
 30
0.0
 10
168.8331
 20
32.1372
 30
0.0
 10
167.051
 20
32.1311
 30
0.0
 10
167.051
 20
32.1311
 30
0.0
 10
167.051
 20
32.1311
 30
0.0
 10
166.1514
 20
32.1494
 30
0.0
 10
165.9265
 20
32.0262
 30
0.0
 10
165.3238
 20
31.4276
 30
0.0
 10
165.3238
 20
31.4276
 30
0.0
 10
165.3238
 20
31.4276
 30
0.0
 10
164.0324
 20
30.1449
 30
0.0
 10
164.0324
 20
30.1449
 30
0.0
 10
164.0324
 20
30.1449
 30
0.0
 10
163.6051
 20
29.6843
 30
0.0
 10
163.3367
 20
29.6473
 30
0.0
 10
162.8734
 20
30.1364
 30
0.0
 10
162.8734
 20
30.1364
 30
0.0
 10
162.8734
 20
30.1364
 30
0.0
 10
161.5969
 20
31.4043
 30
0.0
 10
161.5969
 20
31.4043
 30
0.0
 10
161.5969
 20
31.4043
 30
0.0
 10
161.0652
 20
32.0368
 30
0.0
 10
160.7077
 20
32.1282
 30
0.0
 10
159.8436
 20
32.1311
 30
0.0
 10
159.8436
 20
32.1311
 30
0.0
 10
159.8436
 20
32.1311
 30
0.0
 10
158.0615
 20
32.1372
 30
0.0
 10
158.0615
 20
32.1372
 30
0.0
 10
158.0615
 20
32.1372
 30
0.0
 10
157.3695
 20
32.088
 30
0.0
 10
157.2322
 20
32.1801
 30
0.0
 10
157.2294
 20
32.9577
 30
0.0
 10
157.2294
 20
32.9577
 30
0.0
 10
157.2294
 20
32.9577
 30
0.0
 10
157.2234
 20
34.7199
 30
0.0
 10
157.2234
 20
34.7199
 30
0.0
 10
157.2234
 20
34.7199
 30
0.0
 10
157.2634
 20
35.6147
 30
0.0
 10
157.0773
 20
35.9199
 30
0.0
 10
156.434
 20
36.5675
 30
0.0
 10
156.434
 20
36.5675
 30
0.0
 10
156.434
 20
36.5675
 30
0.0
 10
155.2304
 20
37.7794
 30
0.0
 10
155.2304
 20
37.7794
 30
0.0
 10
155.2304
 20
37.7794
 30
0.0
 10
154.7375
 20
38.3091
 30
0.0
 10
154.9081
 20
38.5973
 30
0.0
 10
155.2224
 20
38.9253
 30
0.0
 10
155.2224
 20
38.9253
 30
0.0
 10
155.2224
 20
38.9253
 30
0.0
 10
156.4212
 20
40.1323
 30
0.0
 10
156.4212
 20
40.1323
 30
0.0
 10
156.4212
 20
40.1323
 30
0.0
 10
157.092
 20
40.6419
 30
0.0
 10
157.26
 20
41.2222
 30
0.0
 10
157.2236
 20
42.0165
 30
0.0
 10
157.2236
 20
42.0165
 30
0.0
 10
157.2236
 20
42.0165
 30
0.0
 10
157.2295
 20
43.7589
 30
0.0
 10
157.2295
 20
43.7589
 30
0.0
 10
157.2295
 20
43.7589
 30
0.0
 10
157.1934
 20
44.4672
 30
0.0
 10
157.5122
 20
44.602
 30
0.0
 10
158.0219
 20
44.5755
 30
0.0
 10
158.0219
 20
44.5755
 30
0.0
 10
158.0219
 20
44.5755
 30
0.0
 10
159.814
 20
44.5816
 30
0.0
 10
159.814
 20
44.5816
 30
0.0
 10
159.814
 20
44.5816
 30
0.0
 10
160.6986
 20
44.602
 30
0.0
 10
160.97
 20
44.6859
 30
0.0
 10
161.5888
 20
45.3006
 30
0.0
 10
161.5888
 20
45.3006
 30
0.0
 10
161.5888
 20
45.3006
 30
0.0
 10
162.8852
 20
46.5882
 30
0.0
 10
162.8852
 20
46.5882
 30
0.0
 10
162.8852
 20
46.5882
 30
0.0
 10
163.4013
 20
46.9949
 30
0.0
 10
163.7061
 20
46.9101
 30
0.0
 10
164.0306
 20
46.5698
 30
0.0
 10
164.0306
 20
46.5698
 30
0.0
 10
164.0306
 20
46.5698
 30
0.0
 10
165.327
 20
45.2822
 30
0.0
 10
165.327
 20
45.2822
 30
0.0
 10
165.327
 20
45.2822
 30
0.0
 10
165.7783
 20
44.7505
 30
0.0
 10
166.2108
 20
44.5846
 30
0.0
 10
167.0609
 20
44.5818
 30
0.0
 10
167.0609
 20
44.5818
 30
0.0
 10
167.0609
 20
44.5818
 30
0.0
 10
168.843
 20
44.5757
 30
0.0
 10
168.843
 20
44.5757
 30
0.0
 10
168.843
 20
44.5757
 30
0.0
 10
169.5291
 20
44.6021
 30
0.0
 10
169.6254
 20
44.3327
 30
0.0
 10
169.6678
 20
43.7589
 30
0.0
 10
169.6678
 20
43.7589
 30
0.0
 10
169.6678
 20
43.7589
 30
0.0
 10
169.6738
 20
42.0264
 30
0.0
 10
169.6738
 20
42.0264
 30
0.0
 10
169.6738
 20
42.0264
 30
0.0
 10
169.6165
 20
41.1795
 30
0.0
 10
169.7925
 20
40.8208
 30
0.0
 10
170.4354
 20
40.1735
 30
0.0
 10
170.4354
 20
40.1735
 30
0.0
 10
170.4354
 20
40.1735
 30
0.0
 10
171.6738
 20
38.9266
 30
0.0
 10
171.6738
 20
38.9266
 30
0.0
 10
171.6738
 20
38.9266
 30
0.0
 10
172.0543
 20
38.5499
 30
0.0
 10
172.1438
 20
38.28
 30
0.0
 10
171.6754
 20
37.788
 30
0.0
 10
171.6754
 20
37.788
 30
0.0
 10
171.6754
 20
37.788
 30
0.0
 10
170.4371
 20
36.5413
 30
0.0
 10
170.4371
 20
36.5413
 30
0.0
 10
170.4371
 20
36.5413
 30
0.0
 10
169.7843
 20
35.9594
 30
0.0
 10
169.6768
 20
35.6015
 30
0.0
 10
169.6737
 20
34.6901
 30
0.0
 10
169.6737
 20
34.6901
 30
0.0
 10
169.6737
 20
34.6901
 30
0.0
 10
169.6678
 20
32.9675
 30
0.0
 10
169.6678
 20
32.9675
 30
0.0
 10
169.6678
 20
32.9675
 30
0.0
 10
169.6898
 20
32.4173
 30
0.0
 10
169.536
 20
32.1202
 30
0.0
 10
168.8331
 20
32.1371
 30
0.0
 10
168.8331
 20
32.1371
 30
0.0
 10
168.8331
 20
32.1371
 30
0.0
 10
168.8331
 20
32.1372
 30
0.0
 10
168.8331
 20
32.1372
 30
0.0
  0
SPLINE
  5
5E
330
1F
100
AcDbEntity
  8
layer 1
 62
     7
100
AcDbSpline
210
0.0
220
0.0
230
1.0
 70
    11
 71
     3
 72
    28
 73
    24
 74
     0
 42
0.0000000001
 43
0.0000000001
 12
1.0
 22
0.0
 32
0.0
 13
1.0
 23
0.0
 33
0.0
 40
0.0
 40
0.0
 40
0.0
 40
0.0
 40
0.1428571428571428
 40
0.1428571428571428
 40
0.1428571428571428
 40
0.1428571428571428
 40
0.2857142857142857
 40
0.2857142857142857
 40
0.2857142857142857
 40
0.2857142857142857
 40
0.4285714285714285
 40
0.4285714285714285
 40
0.4285714285714285
 40
0.4285714285714285
 40
0.5714285714285714
 40
0.5714285714285714
 40
0.5714285714285714
 40
0.5714285714285714
 40
0.7142857142857143
 40
0.7142857142857143
 40
0.7142857142857143
 40
0.7142857142857143
 40
1.0
 40
1.0
 40
1.0
 40
1.0
 10
138.6759
 20
47.9728
 30
0.0
 10
138.6759
 20
47.9728
 30
0.0
 10
147.1444
 20
39.5487
 30
0.0
 10
147.1444
 20
39.5487
 30
0.0
 10
147.1444
 20
39.5487
 30
0.0
 10
147.8107
 20
38.8166
 30
0.0
 10
148.0015
 20
37.902
 30
0.0
 10
147.1955
 20
37.222
 30
0.0
 10
147.1955
 20
37.222
 30
0.0
 10
147.1955
 20
37.222
 30
0.0
 10
138.8683
 20
29.0941
 30
0.0
 10
138.8683
 20
29.0941
 30
0.0
 10
138.8683
 20
29.0941
 30
0.0
 10
138.3735
 20
28.5914
 30
0.0
 10
136.6154
 20
28.6416
 30
0.0
 10
136.6464
 20
30.1361
 30
0.0
 10
136.6464
 20
30.1361
 30
0.0
 10
136.6464
 20
30.1361
 30
0.0
 10
136.6464
 20
46.9043
 30
0.0
 10
136.6464
 20
46.9043
 30
0.0
 10
136.6464
 20
46.9043
 30
0.0
 10
136.5842
 20
47.9716
 30
0.0
 10
137.5685
 20
48.8503
 30
0.0
 10
138.6759
 20
47.9728
 30
0.0
  0
SPLINE
  5
5F
330
1F
100
AcDbEntity
  8
layer 1
 62
     7
100
AcDbSpline
210
0.0
220
0.0
230
1.0
 70
    11
 71
     3
 72
    28
 73
    24
 74
     0
 42
0.0000000001
 43
0.0000000001
 12
1.0
 22
0.0
 32
0.0
 13
1.0
 23
0.0
 33
0.0
 40
0.0
 40
0.0
 40
0.0
 40
0.0
 40
0.1428571428571428
 40
0.1428571428571428
 40
0.1428571428571428
 40
0.1428571428571428
 40
0.2857142857142857
 40
0.2857142857142857
 40
0.2857142857142857
 40
0.2857142857142857
 40
0.4285714285714285
 40
0.4285714285714285
 40
0.4285714285714285
 40
0.4285714285714285
 40
0.5714285714285714
 40
0.5714285714285714
 40
0.5714285714285714
 40
0.5714285714285714
 40
0.7142857142857143
 40
0.7142857142857143
 40
0.7142857142857143
 40
0.7142857142857143
 40
1.0
 40
1.0
 40
1.0
 40
1.0
 10
188.1276
 20
47.9728
 30
0.0
 10
188.1276
 20
47.9728
 30
0.0
 10
179.659
 20
39.5487
 30
0.0
 10
179.659
 20
39.5487
 30
0.0
 10
179.659
 20
39.5487
 30
0.0
 10
178.9927
 20
38.8166
 30
0.0
 10
178.8019
 20
37.902
 30
0.0
 10
179.6079
 20
37.222
 30
0.0
 10
179.6079
 20
37.222
 30
0.0
 10
179.6079
 20
37.222
 30
0.0
 10
187.9351
 20
29.0941
 30
0.0
 10
187.9351
 20
29.0941
 30
0.0
 10
187.9351
 20
29.0941
 30
0.0
 10
188.4299
 20
28.5914
 30
0.0
 10
190.188
 20
28.6416
 30
0.0
 10
190.157
 20
30.1361
 30
0.0
 10
190.157
 20
30.1361
 30
0.0
 10
190.157
 20
30.1361
 30
0.0
 10
190.157
 20
46.9043
 30
0.0
 10
190.157
 20
46.9043
 30
0.0
 10
190.157
 20
46.9043
 30
0.0
 10
190.2192
 20
47.9716
 30
0.0
 10
189.235
 20
48.8503
 30
0.0
 10
188.1276
 20
47.9728
 30
0.0
  0
SPLINE
  5
60
330
1F
100
AcDbEntity
  8
layer 1
 62
     7
100
AcDbSpline
210
0.0
220
0.0
230
1.0
 70
    11
 71
     3
 72
    28
 73
    24
 74
     0
 42
0.0000000001
 43
0.0000000001
 12
1.0
 22
0.0
 32
0.0
 13
1.0
 23
0.0
 33
0.0
 40
0.0
 40
0.0
 40
0.0
 40
0.0
 40
0.1428571428571428
 40
0.1428571428571428
 40
0.1428571428571428
 40
0.1428571428571428
 40
0.2857142857142857
 40
0.2857142857142857
 40
0.2857142857142857
 40
0.2857142857142857
 40
0.4285714285714285
 40
0.4285714285714285
 40
0.4285714285714285
 40
0.4285714285714285
 40
0.5714285714285714
 40
0.5714285714285714
 40
0.5714285714285714
 40
0.5714285714285714
 40
0.7142857142857143
 40
0.7142857142857143
 40
0.7142857142857143
 40
0.7142857142857143
 40
1.0
 40
1.0
 40
1.0
 40
1.0
 10
172.9294
 20
63.6064
 30
0.0
 10
172.9294
 20
63.6064
 30
0.0
 10
164.5053
 20
55.1379
 30
0.0
 10
164.5053
 20
55.1379
 30
0.0
 10
164.5053
 20
55.1379
 30
0.0
 10
163.7733
 20
54.4716
 30
0.0
 10
162.8586
 20
54.2808
 30
0.0
 10
162.1786
 20
55.0868
 30
0.0
 10
162.1786
 20
55.0868
 30
0.0
 10
162.1786
 20
55.0868
 30
0.0
 10
154.0508
 20
63.414
 30
0.0
 10
154.0508
 20
63.414
 30
0.0
 10
154.0508
 20
63.414
 30
0.0
 10
153.5481
 20
63.9087
 30
0.0
 10
153.5982
 20
65.6669
 30
0.0
 10
155.0927
 20
65.6359
 30
0.0
 10
155.0927
 20
65.6359
 30
0.0
 10
155.0927
 20
65.6359
 30
0.0
 10
171.861
 20
65.6359
 30
0.0
 10
171.861
 20
65.6359
 30
0.0
 10
171.861
 20
65.6359
 30
0.0
 10
172.9282
 20
65.6981
 30
0.0
 10
173.8069
 20
64.7138
 30
0.0
 10
172.9294
 20
63.6064
 30
0.0
  0
SPLINE
  5
61
330
1F
100
AcDbEntity
  8
layer 1
 62
     7
100
AcDbSpline
210
0.0
220
0.0
230
1.0
 70
    11
 71
     3
 72
    28
 73
    24
 74
     0
 42
0.0000000001
 43
0.0000000001
 12
1.0
 22
0.0
 32
0.0
 13
1.0
 23
0.0
 33
0.0
 40
0.0
 40
0.0
 40
0.0
 40
0.0
 40
0.1428571428571428
 40
0.1428571428571428
 40
0.1428571428571428
 40
0.1428571428571428
 40
0.2857142857142857
 40
0.2857142857142857
 40
0.2857142857142857
 40
0.2857142857142857
 40
0.4285714285714285
 40
0.4285714285714285
 40
0.4285714285714285
 40
0.4285714285714285
 40
0.5714285714285714
 40
0.5714285714285714
 40
0.5714285714285714
 40
0.5714285714285714
 40
0.7142857142857143
 40
0.7142857142857143
 40
0.7142857142857143
 40
0.7142857142857143
 40
1.0
 40
1.0
 40
1.0
 40
1.0
 10
172.9294
 20
13.2837
 30
0.0
 10
172.9294
 20
13.2837
 30
0.0
 10
164.5053
 20
21.7522
 30
0.0
 10
164.5053
 20
21.7522
 30
0.0
 10
164.5053
 20
21.7522
 30
0.0
 10
163.7733
 20
22.4186
 30
0.0
 10
162.8586
 20
22.6093
 30
0.0
 10
162.1786
 20
21.8034
 30
0.0
 10
162.1786
 20
21.8034
 30
0.0
 10
162.1786
 20
21.8034
 30
0.0
 10
154.0508
 20
13.4761
 30
0.0
 10
154.0508
 20
13.4761
 30
0.0
 10
154.0508
 20
13.4761
 30
0.0
 10
153.5481
 20
12.9814
 30
0.0
 10
153.5982
 20
11.2232
 30
0.0
 10
155.0927
 20
11.2543
 30
0.0
 10
155.0927
 20
11.2543
 30
0.0
 10
155.0927
 20
11.2543
 30
0.0
 10
171.861
 20
11.2543
 30
0.0
 10
171.861
 20
11.2543
 30
0.0
 10
171.861
 20
11.2543
 30
0.0
 10
172.9282
 20
11.1921
 30
0.0
 10
173.8069
 20
12.1763
 30
0.0
 10
172.9294
 20
13.2837
 30
0.0
  0
SPLINE
  5
62
330
1F
100
AcDbEntity
  8
layer 1
 62
     7
100
AcDbSpline
210
0.0
220
0.0
230
1.0
 70
    11
 71
     3
 72
    44
 73
    40
 74
     0
 42
0.0000000001
 43
0.0000000001
 12
1.0
 22
0.0
 32
0.0
 13
1.0
 23
0.0
 33
0.0
 40
0.0
 40
0.0
 40
0.0
 40
0.0
 40
0.0909090909090909
 40
0.0909090909090909
 40
0.0909090909090909
 40
0.0909090909090909
 40
0.1818181818181818
 40
0.1818181818181818
 40
0.1818181818181818
 40
0.1818181818181818
 40
0.2727272727272727
 40
0.2727272727272727
 40
0.2727272727272727
 40
0.2727272727272727
 40
0.3636363636363636
 40
0.3636363636363636
 40
0.3636363636363636
 40
0.3636363636363636
 40
0.4545454545454545
 40
0.4545454545454545
 40
0.4545454545454545
 40
0.4545454545454545
 40
0.5454545454545454
 40
0.5454545454545454
 40
0.5454545454545454
 40
0.5454545454545454
 40
0.6363636363636364
 40
0.6363636363636364
 40
0.6363636363636364
 40
0.6363636363636364
 40
0.7272727272727273
 40
0.7272727272727273
 40
0.7272727272727273
 40
0.7272727272727273
 40
0.8181818181818182
 40
0.8181818181818182
 40
0.8181818181818182
 40
0.8181818181818182
 40
1.0
 40
1.0
 40
1.0
 40
1.0
 10
176.8664
 20
43.0132
 30
0.0
 10
176.8664
 20
43.0132
 30
0.0
 10
190.1658
 20
56.471
 30
0.0
 10
190.1658
 20
56.471
 30
0.0
 10
190.1658
 20
56.471
 30
0.0
 10
190.1658
 20
56.471
 30
0.0
 10
190.1879
 20
64.5599
 30
0.0
 10
190.1879
 20
64.5599
 30
0.0
 10
190.1879
 20
64.5599
 30
0.0
 10
190.1559
 20
65.191
 30
0.0
 10
189.8045
 20
65.6898
 30
0.0
 10
189.0831
 20
65.6329
 30
0.0
 10
189.0831
 20
65.6329
 30
0.0
 10
189.0831
 20
65.6329
 30
0.0
 10
181.1906
 20
65.543
 30
0.0
 10
181.1906
 20
65.543
 30
0.0
 10
181.1906
 20
65.543
 30
0.0
 10
181.1906
 20
65.543
 30
0.0
 10
167.7643
 20
51.8634
 30
0.0
 10
167.7643
 20
51.8634
 30
0.0
 10
167.7643
 20
51.8634
 30
0.0
 10
167.0803
 20
51.3195
 30
0.0
 10
167.1043
 20
49.3715
 30
0.0
 10
168.7755
 20
49.4101
 30
0.0
 10
168.7755
 20
49.4101
 30
0.0
 10
168.7755
 20
49.4101
 30
0.0
 10
174.222
 20
49.3781
 30
0.0
 10
174.222
 20
49.3781
 30
0.0
 10
174.222
 20
49.3781
 30
0.0
 10
174.222
 20
49.3781
 30
0.0
 10
174.2815
 20
43.9233
 30
0.0
 10
174.2815
 20
43.9233
 30
0.0
 10
174.2815
 20
43.9233
 30
0.0
 10
174.3174
 20
42.2058
 30
0.0
 10
175.8381
 20
42.0027
 30
0.0
 10
176.8663
 20
43.013
 30
0.0
 10
176.8663
 20
43.013
 30
0.0
 10
176.8663
 20
43.013
 30
0.0
 10
176.8664
 20
43.0132
 30
0.0
 10
176.8664
 20
43.0132
 30
0.0
  0
SPLINE
  5
63
330
1F
100
AcDbEntity
  8
layer 1
 62
     7
100
AcDbSpline
210
0.0
220
0.0
230
1.0
 70
    11
 71
     3
 72
    44
 73
    40
 74
     0
 42
0.0000000001
 43
0.0000000001
 12
1.0
 22
0.0
 32
0.0
 13
1.0
 23
0.0
 33
0.0
 40
0.0
 40
0.0
 40
0.0
 40
0.0
 40
0.0909090909090909
 40
0.0909090909090909
 40
0.0909090909090909
 40
0.0909090909090909
 40
0.1818181818181818
 40
0.1818181818181818
 40
0.1818181818181818
 40
0.1818181818181818
 40
0.2727272727272727
 40
0.2727272727272727
 40
0.2727272727272727
 40
0.2727272727272727
 40
0.3636363636363636
 40
0.3636363636363636
 40
0.3636363636363636
 40
0.3636363636363636
 40
0.4545454545454545
 40
0.4545454545454545
 40
0.4545454545454545
 40
0.4545454545454545
 40
0.5454545454545454
 40
0.5454545454545454
 40
0.5454545454545454
 40
0.5454545454545454
 40
0.6363636363636364
 40
0.6363636363636364
 40
0.6363636363636364
 40
0.6363636363636364
 40
0.7272727272727273
 40
0.7272727272727273
 40
0.7272727272727273
 40
0.7272727272727273
 40
0.8181818181818182
 40
0.8181818181818182
 40
0.8181818181818182
 40
0.8181818181818182
 40
1.0
 40
1.0
 40
1.0
 40
1.0
 10
149.9673
 20
43.0132
 30
0.0
 10
149.9673
 20
43.0132
 30
0.0
 10
136.6679
 20
56.471
 30
0.0
 10
136.6679
 20
56.471
 30
0.0
 10
136.6679
 20
56.471
 30
0.0
 10
136.6679
 20
56.471
 30
0.0
 10
136.6459
 20
64.5599
 30
0.0
 10
136.6459
 20
64.5599
 30
0.0
 10
136.6459
 20
64.5599
 30
0.0
 10
136.6778
 20
65.191
 30
0.0
 10
137.0292
 20
65.6898
 30
0.0
 10
137.7507
 20
65.6329
 30
0.0
 10
137.7507
 20
65.6329
 30
0.0
 10
137.7507
 20
65.6329
 30
0.0
 10
145.6432
 20
65.543
 30
0.0
 10
145.6432
 20
65.543
 30
0.0
 10
145.6432
 20
65.543
 30
0.0
 10
145.6432
 20
65.543
 30
0.0
 10
159.0695
 20
51.8634
 30
0.0
 10
159.0695
 20
51.8634
 30
0.0
 10
159.0695
 20
51.8634
 30
0.0
 10
159.7535
 20
51.3195
 30
0.0
 10
159.7294
 20
49.3715
 30
0.0
 10
158.0582
 20
49.4101
 30
0.0
 10
158.0582
 20
49.4101
 30
0.0
 10
158.0582
 20
49.4101
 30
0.0
 10
152.6117
 20
49.3781
 30
0.0
 10
152.6117
 20
49.3781
 30
0.0
 10
152.6117
 20
49.3781
 30
0.0
 10
152.6117
 20
49.3781
 30
0.0
 10
152.5523
 20
43.9233
 30
0.0
 10
152.5523
 20
43.9233
 30
0.0
 10
152.5523
 20
43.9233
 30
0.0
 10
152.5163
 20
42.2058
 30
0.0
 10
150.9956
 20
42.0027
 30
0.0
 10
149.9674
 20
43.013
 30
0.0
 10
149.9674
 20
43.013
 30
0.0
 10
149.9674
 20
43.013
 30
0.0
 10
149.9673
 20
43.0132
 30
0.0
 10
149.9673
 20
43.0132
 30
0.0
  0
SPLINE
  5
64
330
1F
100
AcDbEntity
  8
layer 1
 62
     7
100
AcDbSpline
210
0.0
220
0.0
230
1.0
 70
    11
 71
     3
 72
    44
 73
    40
 74
     0
 42
0.0000000001
 43
0.0000000001
 12
1.0
 22
0.0
 32
0.0
 13
1.0
 23
0.0
 33
0.0
 40
0.0
 40
0.0
 40
0.0
 40
0.0
 40
0.0909090909090909
 40
0.0909090909090909
 40
0.0909090909090909
 40
0.0909090909090909
 40
0.1818181818181818
 40
0.1818181818181818
 40
0.1818181818181818
 40
0.1818181818181818
 40
0.2727272727272727
 40
0.2727272727272727
 40
0.2727272727272727
 40
0.2727272727272727
 40
0.3636363636363636
 40
0.3636363636363636
 40
0.3636363636363636
 40
0.3636363636363636
 40
0.4545454545454545
 40
0.4545454545454545
 40
0.4545454545454545
 40
0.4545454545454545
 40
0.5454545454545454
 40
0.5454545454545454
 40
0.5454545454545454
 40
0.5454545454545454
 40
0.6363636363636364
 40
0.6363636363636364
 40
0.6363636363636364
 40
0.6363636363636364
 40
0.7272727272727273
 40
0.7272727272727273
 40
0.7272727272727273
 40
0.7272727272727273
 40
0.8181818181818182
 40
0.8181818181818182
 40
0.8181818181818182
 40
0.8181818181818182
 40
1.0
 40
1.0
 40
1.0
 40
1.0
 10
176.8664
 20
33.8212
 30
0.0
 10
176.8664
 20
33.8212
 30
0.0
 10
190.1658
 20
20.3634
 30
0.0
 10
190.1658
 20
20.3634
 30
0.0
 10
190.1658
 20
20.3634
 30
0.0
 10
190.1658
 20
20.3634
 30
0.0
 10
190.1879
 20
12.2745
 30
0.0
 10
190.1879
 20
12.2745
 30
0.0
 10
190.1879
 20
12.2745
 30
0.0
 10
190.1559
 20
11.6434
 30
0.0
 10
189.8045
 20
11.1446
 30
0.0
 10
189.0831
 20
11.2014
 30
0.0
 10
189.0831
 20
11.2014
 30
0.0
 10
189.0831
 20
11.2014
 30
0.0
 10
181.1906
 20
11.2914
 30
0.0
 10
181.1906
 20
11.2914
 30
0.0
 10
181.1906
 20
11.2914
 30
0.0
 10
181.1906
 20
11.2914
 30
0.0
 10
167.7643
 20
24.971
 30
0.0
 10
167.7643
 20
24.971
 30
0.0
 10
167.7643
 20
24.971
 30
0.0
 10
167.0803
 20
25.5149
 30
0.0
 10
167.1043
 20
27.4629
 30
0.0
 10
168.7755
 20
27.4242
 30
0.0
 10
168.7755
 20
27.4242
 30
0.0
 10
168.7755
 20
27.4242
 30
0.0
 10
174.222
 20
27.4563
 30
0.0
 10
174.222
 20
27.4563
 30
0.0
 10
174.222
 20
27.4563
 30
0.0
 10
174.222
 20
27.4563
 30
0.0
 10
174.2815
 20
32.9111
 30
0.0
 10
174.2815
 20
32.9111
 30
0.0
 10
174.2815
 20
32.9111
 30
0.0
 10
174.3174
 20
34.6285
 30
0.0
 10
175.8381
 20
34.8316
 30
0.0
 10
176.8663
 20
33.8213
 30
0.0
 10
176.8663
 20
33.8213
 30
0.0
 10
176.8663
 20
33.8213
 30
0.0
 10
176.8664
 20
33.8212
 30
0.0
 10
176.8664
 20
33.8212
 30
0.0
  0
SPLINE
  5
65
330
1F
100
AcDbEntity
  8
layer 1
 62
     7
100
AcDbSpline
210
0.0
220
0.0
230
1.0
 70
    11
 71
     3
 72
    44
 73
    40
 74
     0
 42
0.0000000001
 43
0.0000000001
 12
1.0
 22
0.0
 32
0.0
 13
1.0
 23
0.0
 33
0.0
 40
0.0
 40
0.0
 40
0.0
 40
0.0
 40
0.0909090909090909
 40
0.0909090909090909
 40
0.0909090909090909
 40
0.0909090909090909
 40
0.1818181818181818
 40
0.1818181818181818
 40
0.1818181818181818
 40
0.1818181818181818
 40
0.2727272727272727
 40
0.2727272727272727
 40
0.2727272727272727
 40
0.2727272727272727
 40
0.3636363636363636
 40
0.3636363636363636
 40
0.3636363636363636
 40
0.3636363636363636
 40
0.4545454545454545
 40
0.4545454545454545
 40
0.4545454545454545
 40
0.4545454545454545
 40
0.5454545454545454
 40
0.5454545454545454
 40
0.5454545454545454
 40
0.5454545454545454
 40
0.6363636363636364
 40
0.6363636363636364
 40
0.6363636363636364
 40
0.6363636363636364
 40
0.7272727272727273
 40
0.7272727272727273
 40
0.7272727272727273
 40
0.7272727272727273
 40
0.8181818181818182
 40
0.8181818181818182
 40
0.8181818181818182
 40
0.8181818181818182
 40
1.0
 40
1.0
 40
1.0
 40
1.0
 10
149.9673
 20
33.8212
 30
0.0
 10
149.9673
 20
33.8212
 30
0.0
 10
136.6679
 20
20.3634
 30
0.0
 10
136.6679
 20
20.3634
 30
0.0
 10
136.6679
 20
20.3634
 30
0.0
 10
136.6679
 20
20.3634
 30
0.0
 10
136.6459
 20
12.2745
 30
0.0
 10
136.6459
 20
12.2745
 30
0.0
 10
136.6459
 20
12.2745
 30
0.0
 10
136.6778
 20
11.6434
 30
0.0
 10
137.0292
 20
11.1446
 30
0.0
 10
137.7507
 20
11.2014
 30
0.0
 10
137.7507
 20
11.2014
 30
0.0
 10
137.7507
 20
11.2014
 30
0.0
 10
145.6432
 20
11.2914
 30
0.0
 10
145.6432
 20
11.2914
 30
0.0
 10
145.6432
 20
11.2914
 30
0.0
 10
145.6432
 20
11.2914
 30
0.0
 10
159.0695
 20
24.971
 30
0.0
 10
159.0695
 20
24.971
 30
0.0
 10
159.0695
 20
24.971
 30
0.0
 10
159.7535
 20
25.5149
 30
0.0
 10
159.7294
 20
27.4629
 30
0.0
 10
158.0582
 20
27.4242
 30
0.0
 10
158.0582
 20
27.4242
 30
0.0
 10
158.0582
 20
27.4242
 30
0.0
 10
152.6117
 20
27.4563
 30
0.0
 10
152.6117
 20
27.4563
 30
0.0
 10
152.6117
 20
27.4563
 30
0.0
 10
152.6117
 20
27.4563
 30
0.0
 10
152.5523
 20
32.9111
 30
0.0
 10
152.5523
 20
32.9111
 30
0.0
 10
152.5523
 20
32.9111
 30
0.0
 10
152.5163
 20
34.6285
 30
0.0
 10
150.9956
 20
34.8316
 30
0.0
 10
149.9674
 20
33.8213
 30
0.0
 10
149.9674
 20
33.8213
 30
0.0
 10
149.9674
 20
33.8213
 30
0.0
 10
149.9673
 20
33.8212
 30
0.0
 10
149.9673
 20
33.8212
 30
0.0
  0
SPLINE
  5
66
330
1F
100
AcDbEntity
  8
layer 1
 62
     7
100
AcDbSpline
210
0.0
220
0.0
230
1.0
 70
    11
 71
     3
 72
   136
 73
   132
 74
     0
 42
0.0000000001
 43
0.0000000001
 12
1.0
 22
0.0
 32
0.0
 13
1.0
 23
0.0
 33
0.0
 40
0.0
 40
0.0
 40
0.0
 40
0.0
 40
0.0294117647058824
 40
0.0294117647058824
 40
0.0294117647058824
 40
0.0294117647058824
 40
0.0588235294117647
 40
0.0588235294117647
 40
0.0588235294117647
 40
0.0588235294117647
 40
0.0882352941176471
 40
0.0882352941176471
 40
0.0882352941176471
 40
0.0882352941176471
 40
0.1176470588235294
 40
0.1176470588235294
 40
0.1176470588235294
 40
0.1176470588235294
 40
0.1470588235294118
 40
0.1470588235294118
 40
0.1470588235294118
 40
0.1470588235294118
 40
0.1764705882352941
 40
0.1764705882352941
 40
0.1764705882352941
 40
0.1764705882352941
 40
0.2058823529411765
 40
0.2058823529411765
 40
0.2058823529411765
 40
0.2058823529411765
 40
0.2352941176470588
 40
0.2352941176470588
 40
0.2352941176470588
 40
0.2352941176470588
 40
0.2647058823529412
 40
0.2647058823529412
 40
0.2647058823529412
 40
0.2647058823529412
 40
0.2941176470588235
 40
0.2941176470588235
 40
0.2941176470588235
 40
0.2941176470588235
 40
0.3235294117647059
 40
0.3235294117647059
 40
0.3235294117647059
 40
0.3235294117647059
 40
0.3529411764705883
 40
0.3529411764705883
 40
0.3529411764705883
 40
0.3529411764705883
 40
0.3823529411764706
 40
0.3823529411764706
 40
0.3823529411764706
 40
0.3823529411764706
 40
0.4117647058823529
 40
0.4117647058823529
 40
0.4117647058823529
 40
0.4117647058823529
 40
0.4411764705882353
 40
0.4411764705882353
 40
0.4411764705882353
 40
0.4411764705882353
 40
0.4705882352941176
 40
0.4705882352941176
 40
0.4705882352941176
 40
0.4705882352941176
 40
0.5
 40
0.5
 40
0.5
 40
0.5
 40
0.5294117647058824
 40
0.5294117647058824
 40
0.5294117647058824
 40
0.5294117647058824
 40
0.5588235294117647
 40
0.5588235294117647
 40
0.5588235294117647
 40
0.5588235294117647
 40
0.5882352941176471
 40
0.5882352941176471
 40
0.5882352941176471
 40
0.5882352941176471
 40
0.6176470588235294
 40
0.6176470588235294
 40
0.6176470588235294
 40
0.6176470588235294
 40
0.6470588235294118
 40
0.6470588235294118
 40
0.6470588235294118
 40
0.6470588235294118
 40
0.6764705882352942
 40
0.6764705882352942
 40
0.6764705882352942
 40
0.6764705882352942
 40
0.7058823529411765
 40
0.7058823529411765
 40
0.7058823529411765
 40
0.7058823529411765
 40
0.7352941176470589
 40
0.7352941176470589
 40
0.7352941176470589
 40
0.7352941176470589
 40
0.7647058823529411
 40
0.7647058823529411
 40
0.7647058823529411
 40
0.7647058823529411
 40
0.7941176470588235
 40
0.7941176470588235
 40
0.7941176470588235
 40
0.7941176470588235
 40
0.8235294117647058
 40
0.8235294117647058
 40
0.8235294117647058
 40
0.8235294117647058
 40
0.8529411764705882
 40
0.8529411764705882
 40
0.8529411764705882
 40
0.8529411764705882
 40
0.8823529411764706
 40
0.8823529411764706
 40
0.8823529411764706
 40
0.8823529411764706
 40
0.9117647058823529
 40
0.9117647058823529
 40
0.9117647058823529
 40
0.9117647058823529
 40
0.9411764705882353
 40
0.9411764705882353
 40
0.9411764705882353
 40
0.9411764705882353
 40
1.0
 40
1.0
 40
1.0
 40
1.0
 10
110.7119
 20
-27.2259
 30
0.0
 10
110.7119
 20
-27.2259
 30
0.0
 10
108.9299
 20
-27.232
 30
0.0
 10
108.9299
 20
-27.232
 30
0.0
 10
108.9299
 20
-27.232
 30
0.0
 10
108.0302
 20
-27.2138
 30
0.0
 10
107.8053
 20
-27.3369
 30
0.0
 10
107.2027
 20
-27.9355
 30
0.0
 10
107.2027
 20
-27.9355
 30
0.0
 10
107.2027
 20
-27.9355
 30
0.0
 10
105.9112
 20
-29.2182
 30
0.0
 10
105.9112
 20
-29.2182
 30
0.0
 10
105.9112
 20
-29.2182
 30
0.0
 10
105.4839
 20
-29.6788
 30
0.0
 10
105.2155
 20
-29.7158
 30
0.0
 10
104.7522
 20
-29.2267
 30
0.0
 10
104.7522
 20
-29.2267
 30
0.0
 10
104.7522
 20
-29.2267
 30
0.0
 10
103.4757
 20
-27.9588
 30
0.0
 10
103.4757
 20
-27.9588
 30
0.0
 10
103.4757
 20
-27.9588
 30
0.0
 10
102.944
 20
-27.3263
 30
0.0
 10
102.5865
 20
-27.2349
 30
0.0
 10
101.7224
 20
-27.232
 30
0.0
 10
101.7224
 20
-27.232
 30
0.0
 10
101.7224
 20
-27.232
 30
0.0
 10
99.9403
 20
-27.2259
 30
0.0
 10
99.9403
 20
-27.2259
 30
0.0
 10
99.9403
 20
-27.2259
 30
0.0
 10
99.2483
 20
-27.2752
 30
0.0
 10
99.111
 20
-27.1831
 30
0.0
 10
99.1082
 20
-26.4054
 30
0.0
 10
99.1082
 20
-26.4054
 30
0.0
 10
99.1082
 20
-26.4054
 30
0.0
 10
99.1022
 20
-24.6432
 30
0.0
 10
99.1022
 20
-24.6432
 30
0.0
 10
99.1022
 20
-24.6432
 30
0.0
 10
99.1422
 20
-23.7485
 30
0.0
 10
98.9561
 20
-23.4432
 30
0.0
 10
98.3129
 20
-22.7956
 30
0.0
 10
98.3129
 20
-22.7956
 30
0.0
 10
98.3129
 20
-22.7956
 30
0.0
 10
97.1092
 20
-21.5837
 30
0.0
 10
97.1092
 20
-21.5837
 30
0.0
 10
97.1092
 20
-21.5837
 30
0.0
 10
96.6163
 20
-21.054
 30
0.0
 10
96.7869
 20
-20.7658
 30
0.0
 10
97.1012
 20
-20.4378
 30
0.0
 10
97.1012
 20
-20.4378
 30
0.0
 10
97.1012
 20
-20.4378
 30
0.0
 10
98.3
 20
-19.2309
 30
0.0
 10
98.3
 20
-19.2309
 30
0.0
 10
98.3
 20
-19.2309
 30
0.0
 10
98.9708
 20
-18.7212
 30
0.0
 10
99.1388
 20
-18.1409
 30
0.0
 10
99.1024
 20
-17.3467
 30
0.0
 10
99.1024
 20
-17.3467
 30
0.0
 10
99.1024
 20
-17.3467
 30
0.0
 10
99.1083
 20
-15.6042
 30
0.0
 10
99.1083
 20
-15.6042
 30
0.0
 10
99.1083
 20
-15.6042
 30
0.0
 10
99.0722
 20
-14.896
 30
0.0
 10
99.391
 20
-14.7611
 30
0.0
 10
99.9008
 20
-14.7876
 30
0.0
 10
99.9008
 20
-14.7876
 30
0.0
 10
99.9008
 20
-14.7876
 30
0.0
 10
101.6929
 20
-14.7815
 30
0.0
 10
101.6929
 20
-14.7815
 30
0.0
 10
101.6929
 20
-14.7815
 30
0.0
 10
102.5774
 20
-14.7611
 30
0.0
 10
102.8488
 20
-14.6772
 30
0.0
 10
103.4676
 20
-14.0626
 30
0.0
 10
103.4676
 20
-14.0626
 30
0.0
 10
103.4676
 20
-14.0626
 30
0.0
 10
104.7641
 20
-12.7749
 30
0.0
 10
104.7641
 20
-12.7749
 30
0.0
 10
104.7641
 20
-12.7749
 30
0.0
 10
105.2801
 20
-12.3683
 30
0.0
 10
105.585
 20
-12.453
 30
0.0
 10
105.9094
 20
-12.7933
 30
0.0
 10
105.9094
 20
-12.7933
 30
0.0
 10
105.9094
 20
-12.7933
 30
0.0
 10
107.2058
 20
-14.0809
 30
0.0
 10
107.2058
 20
-14.0809
 30
0.0
 10
107.2058
 20
-14.0809
 30
0.0
 10
107.6572
 20
-14.6126
 30
0.0
 10
108.0897
 20
-14.7785
 30
0.0
 10
108.9397
 20
-14.7813
 30
0.0
 10
108.9397
 20
-14.7813
 30
0.0
 10
108.9397
 20
-14.7813
 30
0.0
 10
110.7218
 20
-14.7874
 30
0.0
 10
110.7218
 20
-14.7874
 30
0.0
 10
110.7218
 20
-14.7874
 30
0.0
 10
111.4079
 20
-14.761
 30
0.0
 10
111.5042
 20
-15.0304
 30
0.0
 10
111.5467
 20
-15.6042
 30
0.0
 10
111.5467
 20
-15.6042
 30
0.0
 10
111.5467
 20
-15.6042
 30
0.0
 10
111.5526
 20
-17.3367
 30
0.0
 10
111.5526
 20
-17.3367
 30
0.0
 10
111.5526
 20
-17.3367
 30
0.0
 10
111.4954
 20
-18.1836
 30
0.0
 10
111.6713
 20
-18.5424
 30
0.0
 10
112.3142
 20
-19.1897
 30
0.0
 10
112.3142
 20
-19.1897
 30
0.0
 10
112.3142
 20
-19.1897
 30
0.0
 10
113.5526
 20
-20.4365
 30
0.0
 10
113.5526
 20
-20.4365
 30
0.0
 10
113.5526
 20
-20.4365
 30
0.0
 10
113.9332
 20
-20.8132
 30
0.0
 10
114.0227
 20
-21.0831
 30
0.0
 10
113.5543
 20
-21.5751
 30
0.0
 10
113.5543
 20
-21.5751
 30
0.0
 10
113.5543
 20
-21.5751
 30
0.0
 10
112.3159
 20
-22.8219
 30
0.0
 10
112.3159
 20
-22.8219
 30
0.0
 10
112.3159
 20
-22.8219
 30
0.0
 10
111.6631
 20
-23.4037
 30
0.0
 10
111.5556
 20
-23.7617
 30
0.0
 10
111.5525
 20
-24.673
 30
0.0
 10
111.5525
 20
-24.673
 30
0.0
 10
111.5525
 20
-24.673
 30
0.0
 10
111.5467
 20
-26.3956
 30
0.0
 10
111.5467
 20
-26.3956
 30
0.0
 10
111.5467
 20
-26.3956
 30
0.0
 10
111.5686
 20
-26.9458
 30
0.0
 10
111.4148
 20
-27.2429
 30
0.0
 10
110.7119
 20
-27.226
 30
0.0
 10
110.7119
 20
-27.226
 30
0.0
 10
110.7119
 20
-27.226
 30
0.0
 10
110.7119
 20
-27.2259
 30
0.0
 10
110.7119
 20
-27.2259
 30
0.0
  0
SPLINE
  5
67
330
1F
100
AcDbEntity
  8
layer 1
 62
     7
100
AcDbSpline
210
0.0
220
0.0
230
1.0
 70
    11
 71
     3
 72
    28
 73
    24
 74
     0
 42
0.0000000001
 43
0.0000000001
 12
1.0
 22
0.0
 32
0.0
 13
1.0
 23
0.0
 33
0.0
 40
0.0
 40
0.0
 40
0.0
 40
0.0
 40
0.1428571428571428
 40
0.1428571428571428
 40
0.1428571428571428
 40
0.1428571428571428
 40
0.2857142857142857
 40
0.2857142857142857
 40
0.2857142857142857
 40
0.2857142857142857
 40
0.4285714285714285
 40
0.4285714285714285
 40
0.4285714285714285
 40
0.4285714285714285
 40
0.5714285714285714
 40
0.5714285714285714
 40
0.5714285714285714
 40
0.5714285714285714
 40
0.7142857142857143
 40
0.7142857142857143
 40
0.7142857142857143
 40
0.7142857142857143
 40
1.0
 40
1.0
 40
1.0
 40
1.0
 10
80.5547
 20
-11.3904
 30
0.0
 10
80.5547
 20
-11.3904
 30
0.0
 10
89.0232
 20
-19.8144
 30
0.0
 10
89.0232
 20
-19.8144
 30
0.0
 10
89.0232
 20
-19.8144
 30
0.0
 10
89.6896
 20
-20.5465
 30
0.0
 10
89.8803
 20
-21.4612
 30
0.0
 10
89.0743
 20
-22.1411
 30
0.0
 10
89.0743
 20
-22.1411
 30
0.0
 10
89.0743
 20
-22.1411
 30
0.0
 10
80.7471
 20
-30.269
 30
0.0
 10
80.7471
 20
-30.269
 30
0.0
 10
80.7471
 20
-30.269
 30
0.0
 10
80.2524
 20
-30.7717
 30
0.0
 10
78.4942
 20
-30.7216
 30
0.0
 10
78.5253
 20
-29.227
 30
0.0
 10
78.5253
 20
-29.227
 30
0.0
 10
78.5253
 20
-29.227
 30
0.0
 10
78.5253
 20
-12.4588
 30
0.0
 10
78.5253
 20
-12.4588
 30
0.0
 10
78.5253
 20
-12.4588
 30
0.0
 10
78.463
 20
-11.3915
 30
0.0
 10
79.4473
 20
-10.5128
 30
0.0
 10
80.5547
 20
-11.3904
 30
0.0
  0
SPLINE
  5
68
330
1F
100
AcDbEntity
  8
layer 1
 62
     7
100
AcDbSpline
210
0.0
220
0.0
230
1.0
 70
    11
 71
     3
 72
    28
 73
    24
 74
     0
 42
0.0000000001
 43
0.0000000001
 12
1.0
 22
0.0
 32
0.0
 13
1.0
 23
0.0
 33
0.0
 40
0.0
 40
0.0
 40
0.0
 40
0.0
 40
0.1428571428571428
 40
0.1428571428571428
 40
0.1428571428571428
 40
0.1428571428571428
 40
0.2857142857142857
 40
0.2857142857142857
 40
0.2857142857142857
 40
0.2857142857142857
 40
0.4285714285714285
 40
0.4285714285714285
 40
0.4285714285714285
 40
0.4285714285714285
 40
0.5714285714285714
 40
0.5714285714285714
 40
0.5714285714285714
 40
0.5714285714285714
 40
0.7142857142857143
 40
0.7142857142857143
 40
0.7142857142857143
 40
0.7142857142857143
 40
1.0
 40
1.0
 40
1.0
 40
1.0
 10
130.0064
 20
-11.3904
 30
0.0
 10
130.0064
 20
-11.3904
 30
0.0
 10
121.5379
 20
-19.8144
 30
0.0
 10
121.5379
 20
-19.8144
 30
0.0
 10
121.5379
 20
-19.8144
 30
0.0
 10
120.8715
 20
-20.5465
 30
0.0
 10
120.6807
 20
-21.4612
 30
0.0
 10
121.4867
 20
-22.1411
 30
0.0
 10
121.4867
 20
-22.1411
 30
0.0
 10
121.4867
 20
-22.1411
 30
0.0
 10
129.814
 20
-30.269
 30
0.0
 10
129.814
 20
-30.269
 30
0.0
 10
129.814
 20
-30.269
 30
0.0
 10
130.3087
 20
-30.7717
 30
0.0
 10
132.0669
 20
-30.7216
 30
0.0
 10
132.0358
 20
-29.227
 30
0.0
 10
132.0358
 20
-29.227
 30
0.0
 10
132.0358
 20
-29.227
 30
0.0
 10
132.0358
 20
-12.4588
 30
0.0
 10
132.0358
 20
-12.4588
 30
0.0
 10
132.0358
 20
-12.4588
 30
0.0
 10
132.098
 20
-11.3915
 30
0.0
 10
131.1138
 20
-10.5128
 30
0.0
 10
130.0064
 20
-11.3904
 30
0.0
  0
SPLINE
  5
69
330
1F
100
AcDbEntity
  8
layer 1
 62
     7
100
AcDbSpline
210
0.0
220
0.0
230
1.0
 70
    11
 71
     3
 72
    28
 73
    24
 74
     0
 42
0.0000000001
 43
0.0000000001
 12
1.0
 22
0.0
 32
0.0
 13
1.0
 23
0.0
 33
0.0
 40
0.0
 40
0.0
 40
0.0
 40
0.0
 40
0.1428571428571428
 40
0.1428571428571428
 40
0.1428571428571428
 40
0.1428571428571428
 40
0.2857142857142857
 40
0.2857142857142857
 40
0.2857142857142857
 40
0.2857142857142857
 40
0.4285714285714285
 40
0.4285714285714285
 40
0.4285714285714285
 40
0.4285714285714285
 40
0.5714285714285714
 40
0.5714285714285714
 40
0.5714285714285714
 40
0.5714285714285714
 40
0.7142857142857143
 40
0.7142857142857143
 40
0.7142857142857143
 40
0.7142857142857143
 40
1.0
 40
1.0
 40
1.0
 40
1.0
 10
114.8082
 20
4.2434
 30
0.0
 10
114.8082
 20
4.2434
 30
0.0
 10
106.3841
 20
-4.2251
 30
0.0
 10
106.3841
 20
-4.2251
 30
0.0
 10
106.3841
 20
-4.2251
 30
0.0
 10
105.6521
 20
-4.8915
 30
0.0
 10
104.7374
 20
-5.0822
 30
0.0
 10
104.0575
 20
-4.2763
 30
0.0
 10
104.0575
 20
-4.2763
 30
0.0
 10
104.0575
 20
-4.2763
 30
0.0
 10
95.9296
 20
4.051
 30
0.0
 10
95.9296
 20
4.051
 30
0.0
 10
95.9296
 20
4.051
 30
0.0
 10
95.4269
 20
4.5457
 30
0.0
 10
95.477
 20
6.3039
 30
0.0
 10
96.9715
 20
6.2728
 30
0.0
 10
96.9715
 20
6.2728
 30
0.0
 10
96.9715
 20
6.2728
 30
0.0
 10
113.7398
 20
6.2728
 30
0.0
 10
113.7398
 20
6.2728
 30
0.0
 10
113.7398
 20
6.2728
 30
0.0
 10
114.807
 20
6.335
 30
0.0
 10
115.6857
 20
5.3508
 30
0.0
 10
114.8082
 20
4.2434
 30
0.0
  0
SPLINE
  5
6A
330
1F
100
AcDbEntity
  8
layer 1
 62
     7
100
AcDbSpline
210
0.0
220
0.0
230
1.0
 70
    11
 71
     3
 72
    28
 73
    24
 74
     0
 42
0.0000000001
 43
0.0000000001
 12
1.0
 22
0.0
 32
0.0
 13
1.0
 23
0.0
 33
0.0
 40
0.0
 40
0.0
 40
0.0
 40
0.0
 40
0.1428571428571428
 40
0.1428571428571428
 40
0.1428571428571428
 40
0.1428571428571428
 40
0.2857142857142857
 40
0.2857142857142857
 40
0.2857142857142857
 40
0.2857142857142857
 40
0.4285714285714285
 40
0.4285714285714285
 40
0.4285714285714285
 40
0.4285714285714285
 40
0.5714285714285714
 40
0.5714285714285714
 40
0.5714285714285714
 40
0.5714285714285714
 40
0.7142857142857143
 40
0.7142857142857143
 40
0.7142857142857143
 40
0.7142857142857143
 40
1.0
 40
1.0
 40
1.0
 40
1.0
 10
114.8082
 20
-46.0794
 30
0.0
 10
114.8082
 20
-46.0794
 30
0.0
 10
106.3841
 20
-37.6109
 30
0.0
 10
106.3841
 20
-37.6109
 30
0.0
 10
106.3841
 20
-37.6109
 30
0.0
 10
105.6521
 20
-36.9445
 30
0.0
 10
104.7374
 20
-36.7538
 30
0.0
 10
104.0575
 20
-37.5597
 30
0.0
 10
104.0575
 20
-37.5597
 30
0.0
 10
104.0575
 20
-37.5597
 30
0.0
 10
95.9296
 20
-45.887
 30
0.0
 10
95.9296
 20
-45.887
 30
0.0
 10
95.9296
 20
-45.887
 30
0.0
 10
95.4269
 20
-46.3817
 30
0.0
 10
95.477
 20
-48.1399
 30
0.0
 10
96.9715
 20
-48.1088
 30
0.0
 10
96.9715
 20
-48.1088
 30
0.0
 10
96.9715
 20
-48.1088
 30
0.0
 10
113.7398
 20
-48.1088
 30
0.0
 10
113.7398
 20
-48.1088
 30
0.0
 10
113.7398
 20
-48.1088
 30
0.0
 10
114.807
 20
-48.1711
 30
0.0
 10
115.6857
 20
-47.1868
 30
0.0
 10
114.8082
 20
-46.0794
 30
0.0
  0
SPLINE
  5
6B
330
1F
100
AcDbEntity
  8
layer 1
 62
     7
100
AcDbSpline
210
0.0
220
0.0
230
1.0
 70
    11
 71
     3
 72
    44
 73
    40
 74
     0
 42
0.0000000001
 43
0.0000000001
 12
1.0
 22
0.0
 32
0.0
 13
1.0
 23
0.0
 33
0.0
 40
0.0
 40
0.0
 40
0.0
 40
0.0
 40
0.0909090909090909
 40
0.0909090909090909
 40
0.0909090909090909
 40
0.0909090909090909
 40
0.1818181818181818
 40
0.1818181818181818
 40
0.1818181818181818
 40
0.1818181818181818
 40
0.2727272727272727
 40
0.2727272727272727
 40
0.2727272727272727
 40
0.2727272727272727
 40
0.3636363636363636
 40
0.3636363636363636
 40
0.3636363636363636
 40
0.3636363636363636
 40
0.4545454545454545
 40
0.4545454545454545
 40
0.4545454545454545
 40
0.4545454545454545
 40
0.5454545454545454
 40
0.5454545454545454
 40
0.5454545454545454
 40
0.5454545454545454
 40
0.6363636363636364
 40
0.6363636363636364
 40
0.6363636363636364
 40
0.6363636363636364
 40
0.7272727272727273
 40
0.7272727272727273
 40
0.7272727272727273
 40
0.7272727272727273
 40
0.8181818181818182
 40
0.8181818181818182
 40
0.8181818181818182
 40
0.8181818181818182
 40
1.0
 40
1.0
 40
1.0
 40
1.0
 10
118.7452
 20
-16.3499
 30
0.0
 10
118.7452
 20
-16.3499
 30
0.0
 10
132.0446
 20
-2.8921
 30
0.0
 10
132.0446
 20
-2.8921
 30
0.0
 10
132.0446
 20
-2.8921
 30
0.0
 10
132.0446
 20
-2.8921
 30
0.0
 10
132.0667
 20
5.1968
 30
0.0
 10
132.0667
 20
5.1968
 30
0.0
 10
132.0667
 20
5.1968
 30
0.0
 10
132.0348
 20
5.8279
 30
0.0
 10
131.6834
 20
6.3267
 30
0.0
 10
130.9619
 20
6.2698
 30
0.0
 10
130.9619
 20
6.2698
 30
0.0
 10
130.9619
 20
6.2698
 30
0.0
 10
123.0694
 20
6.1798
 30
0.0
 10
123.0694
 20
6.1798
 30
0.0
 10
123.0694
 20
6.1798
 30
0.0
 10
123.0694
 20
6.1798
 30
0.0
 10
109.6431
 20
-7.4997
 30
0.0
 10
109.6431
 20
-7.4997
 30
0.0
 10
109.6431
 20
-7.4997
 30
0.0
 10
108.9591
 20
-8.0436
 30
0.0
 10
108.9831
 20
-9.9916
 30
0.0
 10
110.6544
 20
-9.953
 30
0.0
 10
110.6544
 20
-9.953
 30
0.0
 10
110.6544
 20
-9.953
 30
0.0
 10
116.1009
 20
-9.9851
 30
0.0
 10
116.1009
 20
-9.9851
 30
0.0
 10
116.1009
 20
-9.9851
 30
0.0
 10
116.1009
 20
-9.9851
 30
0.0
 10
116.1603
 20
-15.4399
 30
0.0
 10
116.1603
 20
-15.4399
 30
0.0
 10
116.1603
 20
-15.4399
 30
0.0
 10
116.1963
 20
-17.1573
 30
0.0
 10
117.717
 20
-17.3604
 30
0.0
 10
118.7452
 20
-16.3501
 30
0.0
 10
118.7452
 20
-16.3501
 30
0.0
 10
118.7452
 20
-16.3501
 30
0.0
 10
118.7452
 20
-16.3499
 30
0.0
 10
118.7452
 20
-16.3499
 30
0.0
  0
SPLINE
  5
6C
330
1F
100
AcDbEntity
  8
layer 1
 62
     7
100
AcDbSpline
210
0.0
220
0.0
230
1.0
 70
    11
 71
     3
 72
    44
 73
    40
 74
     0
 42
0.0000000001
 43
0.0000000001
 12
1.0
 22
0.0
 32
0.0
 13
1.0
 23
0.0
 33
0.0
 40
0.0
 40
0.0
 40
0.0
 40
0.0
 40
0.0909090909090909
 40
0.0909090909090909
 40
0.0909090909090909
 40
0.0909090909090909
 40
0.1818181818181818
 40
0.1818181818181818
 40
0.1818181818181818
 40
0.1818181818181818
 40
0.2727272727272727
 40
0.2727272727272727
 40
0.2727272727272727
 40
0.2727272727272727
 40
0.3636363636363636
 40
0.3636363636363636
 40
0.3636363636363636
 40
0.3636363636363636
 40
0.4545454545454545
 40
0.4545454545454545
 40
0.4545454545454545
 40
0.4545454545454545
 40
0.5454545454545454
 40
0.5454545454545454
 40
0.5454545454545454
 40
0.5454545454545454
 40
0.6363636363636364
 40
0.6363636363636364
 40
0.6363636363636364
 40
0.6363636363636364
 40
0.7272727272727273
 40
0.7272727272727273
 40
0.7272727272727273
 40
0.7272727272727273
 40
0.8181818181818182
 40
0.8181818181818182
 40
0.8181818181818182
 40
0.8181818181818182
 40
1.0
 40
1.0
 40
1.0
 40
1.0
 10
91.8462
 20
-16.3499
 30
0.0
 10
91.8462
 20
-16.3499
 30
0.0
 10
78.5468
 20
-2.8921
 30
0.0
 10
78.5468
 20
-2.8921
 30
0.0
 10
78.5468
 20
-2.8921
 30
0.0
 10
78.5468
 20
-2.8921
 30
0.0
 10
78.5247
 20
5.1968
 30
0.0
 10
78.5247
 20
5.1968
 30
0.0
 10
78.5247
 20
5.1968
 30
0.0
 10
78.5566
 20
5.8279
 30
0.0
 10
78.908
 20
6.3267
 30
0.0
 10
79.6295
 20
6.2698
 30
0.0
 10
79.6295
 20
6.2698
 30
0.0
 10
79.6295
 20
6.2698
 30
0.0
 10
87.522
 20
6.1798
 30
0.0
 10
87.522
 20
6.1798
 30
0.0
 10
87.522
 20
6.1798
 30
0.0
 10
87.522
 20
6.1798
 30
0.0
 10
100.9483
 20
-7.4997
 30
0.0
 10
100.9483
 20
-7.4997
 30
0.0
 10
100.9483
 20
-7.4997
 30
0.0
 10
101.6323
 20
-8.0436
 30
0.0
 10
101.6083
 20
-9.9916
 30
0.0
 10
99.937
 20
-9.953
 30
0.0
 10
99.937
 20
-9.953
 30
0.0
 10
99.937
 20
-9.953
 30
0.0
 10
94.4906
 20
-9.9851
 30
0.0
 10
94.4906
 20
-9.9851
 30
0.0
 10
94.4906
 20
-9.9851
 30
0.0
 10
94.4906
 20
-9.9851
 30
0.0
 10
94.4311
 20
-15.4399
 30
0.0
 10
94.4311
 20
-15.4399
 30
0.0
 10
94.4311
 20
-15.4399
 30
0.0
 10
94.3951
 20
-17.1573
 30
0.0
 10
92.8744
 20
-17.3604
 30
0.0
 10
91.8463
 20
-16.3501
 30
0.0
 10
91.8463
 20
-16.3501
 30
0.0
 10
91.8463
 20
-16.3501
 30
0.0
 10
91.8462
 20
-16.3499
 30
0.0
 10
91.8462
 20
-16.3499
 30
0.0
  0
SPLINE
  5
6D
330
1F
100
AcDbEntity
  8
layer 1
 62
     7
100
AcDbSpline
210
0.0
220
0.0
230
1.0
 70
    11
 71
     3
 72
    44
 73
    40
 74
     0
 42
0.0000000001
 43
0.0000000001
 12
1.0
 22
0.0
 32
0.0
 13
1.0
 23
0.0
 33
0.0
 40
0.0
 40
0.0
 40
0.0
 40
0.0
 40
0.0909090909090909
 40
0.0909090909090909
 40
0.0909090909090909
 40
0.0909090909090909
 40
0.1818181818181818
 40
0.1818181818181818
 40
0.1818181818181818
 40
0.1818181818181818
 40
0.2727272727272727
 40
0.2727272727272727
 40
0.2727272727272727
 40
0.2727272727272727
 40
0.3636363636363636
 40
0.3636363636363636
 40
0.3636363636363636
 40
0.3636363636363636
 40
0.4545454545454545
 40
0.4545454545454545
 40
0.4545454545454545
 40
0.4545454545454545
 40
0.5454545454545454
 40
0.5454545454545454
 40
0.5454545454545454
 40
0.5454545454545454
 40
0.6363636363636364
 40
0.6363636363636364
 40
0.6363636363636364
 40
0.6363636363636364
 40
0.7272727272727273
 40
0.7272727272727273
 40
0.7272727272727273
 40
0.7272727272727273
 40
0.8181818181818182
 40
0.8181818181818182
 40
0.8181818181818182
 40
0.8181818181818182
 40
1.0
 40
1.0
 40
1.0
 40
1.0
 10
118.7452
 20
-25.5418
 30
0.0
 10
118.7452
 20
-25.5418
 30
0.0
 10
132.0446
 20
-38.9997
 30
0.0
 10
132.0446
 20
-38.9997
 30
0.0
 10
132.0446
 20
-38.9997
 30
0.0
 10
132.0446
 20
-38.9997
 30
0.0
 10
132.0667
 20
-47.0886
 30
0.0
 10
132.0667
 20
-47.0886
 30
0.0
 10
132.0667
 20
-47.0886
 30
0.0
 10
132.0348
 20
-47.7196
 30
0.0
 10
131.6834
 20
-48.2185
 30
0.0
 10
130.9619
 20
-48.1616
 30
0.0
 10
130.9619
 20
-48.1616
 30
0.0
 10
130.9619
 20
-48.1616
 30
0.0
 10
123.0694
 20
-48.0717
 30
0.0
 10
123.0694
 20
-48.0717
 30
0.0
 10
123.0694
 20
-48.0717
 30
0.0
 10
123.0694
 20
-48.0717
 30
0.0
 10
109.6431
 20
-34.3921
 30
0.0
 10
109.6431
 20
-34.3921
 30
0.0
 10
109.6431
 20
-34.3921
 30
0.0
 10
108.9591
 20
-33.8482
 30
0.0
 10
108.9831
 20
-31.9001
 30
0.0
 10
110.6544
 20
-31.9389
 30
0.0
 10
110.6544
 20
-31.9389
 30
0.0
 10
110.6544
 20
-31.9389
 30
0.0
 10
116.1009
 20
-31.9068
 30
0.0
 10
116.1009
 20
-31.9068
 30
0.0
 10
116.1009
 20
-31.9068
 30
0.0
 10
116.1009
 20
-31.9068
 30
0.0
 10
116.1603
 20
-26.452
 30
0.0
 10
116.1603
 20
-26.452
 30
0.0
 10
116.1603
 20
-26.452
 30
0.0
 10
116.1963
 20
-24.7345
 30
0.0
 10
117.717
 20
-24.5314
 30
0.0
 10
118.7452
 20
-25.5417
 30
0.0
 10
118.7452
 20
-25.5417
 30
0.0
 10
118.7452
 20
-25.5417
 30
0.0
 10
118.7452
 20
-25.5418
 30
0.0
 10
118.7452
 20
-25.5418
 30
0.0
  0
SPLINE
  5
6E
330
1F
100
AcDbEntity
  8
layer 1
 62
     7
100
AcDbSpline
210
0.0
220
0.0
230
1.0
 70
    11
 71
     3
 72
    40
 73
    36
 74
     0
 42
0.0000000001
 43
0.0000000001
 12
1.0
 22
0.0
 32
0.0
 13
1.0
 23
0.0
 33
0.0
 40
0.0
 40
0.0
 40
0.0
 40
0.0
 40
0.1
 40
0.1
 40
0.1
 40
0.1
 40
0.2
 40
0.2
 40
0.2
 40
0.2
 40
0.3
 40
0.3
 40
0.3
 40
0.3
 40
0.4
 40
0.4
 40
0.4
 40
0.4
 40
0.5
 40
0.5
 40
0.5
 40
0.5
 40
0.6
 40
0.6
 40
0.6
 40
0.6
 40
0.7
 40
0.7
 40
0.7
 40
0.7
 40
0.8
 40
0.8
 40
0.8
 40
0.8
 40
1.0
 40
1.0
 40
1.0
 40
1.0
 10
91.8462
 20
-25.5418
 30
0.0
 10
91.8462
 20
-25.5418
 30
0.0
 10
78.5468
 20
-38.9997
 30
0.0
 10
78.5468
 20
-38.9997
 30
0.0
 10
78.5468
 20
-38.9997
 30
0.0
 10
78.5468
 20
-38.9997
 30
0.0
 10
78.5247
 20
-47.0886
 30
0.0
 10
78.5247
 20
-47.0886
 30
0.0
 10
78.5247
 20
-47.0886
 30
0.0
 10
78.5566
 20
-47.7196
 30
0.0
 10
78.908
 20
-48.2185
 30
0.0
 10
79.6295
 20
-48.1616
 30
0.0
 10
79.6295
 20
-48.1616
 30
0.0
 10
79.6295
 20
-48.1616
 30
0.0
 10
87.522
 20
-48.0717
 30
0.0
 10
87.522
 20
-48.0717
 30
0.0
 10
87.522
 20
-48.0717
 30
0.0
 10
87.522
 20
-48.0717
 30
0.0
 10
100.9483
 20
-34.3921
 30
0.0
 10
100.9483
 20
-34.3921
 30
0.0
 10
100.9483
 20
-34.3921
 30
0.0
 10
101.6323
 20
-33.8482
 30
0.0
 10
101.6083
 20
-31.9001
 30
0.0
 10
99.937
 20
-31.9389
 30
0.0
 10
99.937
 20
-31.9389
 30
0.0
 10
99.937
 20
-31.9389
 30
0.0
 10
94.4905
 20
-31.9068
 30
0.0
 10
94.4905
 20
-31.9068
 30
0.0
 10
94.4905
 20
-31.9068
 30
0.0
 10
94.4905
 20
-31.9068
 30
0.0
 10
94.431
 20
-26.4521
 30
0.0
 10
94.431
 20
-26.4521
 30
0.0
 10
94.431
 20
-26.4521
 30
0.0
 10
94.3951
 20
-24.7346
 30
0.0
 10
92.8744
 20
-24.5315
 30
0.0
 10
91.8462
 20
-25.5418
 30
0.0
  0
SPLINE
  5
6F
330
1F
100
AcDbEntity
  8
layer 1
 62
     7
100
AcDbSpline
210
0.0
220
0.0
230
1.0
 70
    11
 71
     3
 72
   136
 73
   132
 74
     0
 42
0.0000000001
 43
0.0000000001
 12
1.0
 22
0.0
 32
0.0
 13
1.0
 23
0.0
 33
0.0
 40
0.0
 40
0.0
 40
0.0
 40
0.0
 40
0.0294117647058824
 40
0.0294117647058824
 40
0.0294117647058824
 40
0.0294117647058824
 40
0.0588235294117647
 40
0.0588235294117647
 40
0.0588235294117647
 40
0.0588235294117647
 40
0.0882352941176471
 40
0.0882352941176471
 40
0.0882352941176471
 40
0.0882352941176471
 40
0.1176470588235294
 40
0.1176470588235294
 40
0.1176470588235294
 40
0.1176470588235294
 40
0.1470588235294118
 40
0.1470588235294118
 40
0.1470588235294118
 40
0.1470588235294118
 40
0.1764705882352941
 40
0.1764705882352941
 40
0.1764705882352941
 40
0.1764705882352941
 40
0.2058823529411765
 40
0.2058823529411765
 40
0.2058823529411765
 40
0.2058823529411765
 40
0.2352941176470588
 40
0.2352941176470588
 40
0.2352941176470588
 40
0.2352941176470588
 40
0.2647058823529412
 40
0.2647058823529412
 40
0.2647058823529412
 40
0.2647058823529412
 40
0.2941176470588235
 40
0.2941176470588235
 40
0.2941176470588235
 40
0.2941176470588235
 40
0.3235294117647059
 40
0.3235294117647059
 40
0.3235294117647059
 40
0.3235294117647059
 40
0.3529411764705883
 40
0.3529411764705883
 40
0.3529411764705883
 40
0.3529411764705883
 40
0.3823529411764706
 40
0.3823529411764706
 40
0.3823529411764706
 40
0.3823529411764706
 40
0.4117647058823529
 40
0.4117647058823529
 40
0.4117647058823529
 40
0.4117647058823529
 40
0.4411764705882353
 40
0.4411764705882353
 40
0.4411764705882353
 40
0.4411764705882353
 40
0.4705882352941176
 40
0.4705882352941176
 40
0.4705882352941176
 40
0.4705882352941176
 40
0.5
 40
0.5
 40
0.5
 40
0.5
 40
0.5294117647058824
 40
0.5294117647058824
 40
0.5294117647058824
 40
0.5294117647058824
 40
0.5588235294117647
 40
0.5588235294117647
 40
0.5588235294117647
 40
0.5588235294117647
 40
0.5882352941176471
 40
0.5882352941176471
 40
0.5882352941176471
 40
0.5882352941176471
 40
0.6176470588235294
 40
0.6176470588235294
 40
0.6176470588235294
 40
0.6176470588235294
 40
0.6470588235294118
 40
0.6470588235294118
 40
0.6470588235294118
 40
0.6470588235294118
 40
0.6764705882352942
 40
0.6764705882352942
 40
0.6764705882352942
 40
0.6764705882352942
 40
0.7058823529411765
 40
0.7058823529411765
 40
0.7058823529411765
 40
0.7058823529411765
 40
0.7352941176470589
 40
0.7352941176470589
 40
0.7352941176470589
 40
0.7352941176470589
 40
0.7647058823529411
 40
0.7647058823529411
 40
0.7647058823529411
 40
0.7647058823529411
 40
0.7941176470588235
 40
0.7941176470588235
 40
0.7941176470588235
 40
0.7941176470588235
 40
0.8235294117647058
 40
0.8235294117647058
 40
0.8235294117647058
 40
0.8235294117647058
 40
0.8529411764705882
 40
0.8529411764705882
 40
0.8529411764705882
 40
0.8529411764705882
 40
0.8823529411764706
 40
0.8823529411764706
 40
0.8823529411764706
 40
0.8823529411764706
 40
0.9117647058823529
 40
0.9117647058823529
 40
0.9117647058823529
 40
0.9117647058823529
 40
0.9411764705882353
 40
0.9411764705882353
 40
0.9411764705882353
 40
0.9411764705882353
 40
1.0
 40
1.0
 40
1.0
 40
1.0
 10
168.8331
 20
-27.2259
 30
0.0
 10
168.8331
 20
-27.2259
 30
0.0
 10
167.051
 20
-27.232
 30
0.0
 10
167.051
 20
-27.232
 30
0.0
 10
167.051
 20
-27.232
 30
0.0
 10
166.1514
 20
-27.2138
 30
0.0
 10
165.9265
 20
-27.3369
 30
0.0
 10
165.3238
 20
-27.9355
 30
0.0
 10
165.3238
 20
-27.9355
 30
0.0
 10
165.3238
 20
-27.9355
 30
0.0
 10
164.0324
 20
-29.2182
 30
0.0
 10
164.0324
 20
-29.2182
 30
0.0
 10
164.0324
 20
-29.2182
 30
0.0
 10
163.6051
 20
-29.6788
 30
0.0
 10
163.3367
 20
-29.7158
 30
0.0
 10
162.8734
 20
-29.2267
 30
0.0
 10
162.8734
 20
-29.2267
 30
0.0
 10
162.8734
 20
-29.2267
 30
0.0
 10
161.5969
 20
-27.9588
 30
0.0
 10
161.5969
 20
-27.9588
 30
0.0
 10
161.5969
 20
-27.9588
 30
0.0
 10
161.0652
 20
-27.3263
 30
0.0
 10
160.7077
 20
-27.2349
 30
0.0
 10
159.8436
 20
-27.232
 30
0.0
 10
159.8436
 20
-27.232
 30
0.0
 10
159.8436
 20
-27.232
 30
0.0
 10
158.0615
 20
-27.2259
 30
0.0
 10
158.0615
 20
-27.2259
 30
0.0
 10
158.0615
 20
-27.2259
 30
0.0
 10
157.3695
 20
-27.2752
 30
0.0
 10
157.2322
 20
-27.1831
 30
0.0
 10
157.2294
 20
-26.4054
 30
0.0
 10
157.2294
 20
-26.4054
 30
0.0
 10
157.2294
 20
-26.4054
 30
0.0
 10
157.2234
 20
-24.6432
 30
0.0
 10
157.2234
 20
-24.6432
 30
0.0
 10
157.2234
 20
-24.6432
 30
0.0
 10
157.2634
 20
-23.7485
 30
0.0
 10
157.0773
 20
-23.4432
 30
0.0
 10
156.434
 20
-22.7956
 30
0.0
 10
156.434
 20
-22.7956
 30
0.0
 10
156.434
 20
-22.7956
 30
0.0
 10
155.2304
 20
-21.5837
 30
0.0
 10
155.2304
 20
-21.5837
 30
0.0
 10
155.2304
 20
-21.5837
 30
0.0
 10
154.7375
 20
-21.054
 30
0.0
 10
154.9081
 20
-20.7658
 30
0.0
 10
155.2224
 20
-20.4378
 30
0.0
 10
155.2224
 20
-20.4378
 30
0.0
 10
155.2224
 20
-20.4378
 30
0.0
 10
156.4212
 20
-19.2309
 30
0.0
 10
156.4212
 20
-19.2309
 30
0.0
 10
156.4212
 20
-19.2309
 30
0.0
 10
157.092
 20
-18.7212
 30
0.0
 10
157.26
 20
-18.1409
 30
0.0
 10
157.2236
 20
-17.3467
 30
0.0
 10
157.2236
 20
-17.3467
 30
0.0
 10
157.2236
 20
-17.3467
 30
0.0
 10
157.2295
 20
-15.6042
 30
0.0
 10
157.2295
 20
-15.6042
 30
0.0
 10
157.2295
 20
-15.6042
 30
0.0
 10
157.1934
 20
-14.896
 30
0.0
 10
157.5122
 20
-14.7611
 30
0.0
 10
158.0219
 20
-14.7876
 30
0.0
 10
158.0219
 20
-14.7876
 30
0.0
 10
158.0219
 20
-14.7876
 30
0.0
 10
159.814
 20
-14.7815
 30
0.0
 10
159.814
 20
-14.7815
 30
0.0
 10
159.814
 20
-14.7815
 30
0.0
 10
160.6986
 20
-14.7611
 30
0.0
 10
160.97
 20
-14.6772
 30
0.0
 10
161.5888
 20
-14.0626
 30
0.0
 10
161.5888
 20
-14.0626
 30
0.0
 10
161.5888
 20
-14.0626
 30
0.0
 10
162.8852
 20
-12.7749
 30
0.0
 10
162.8852
 20
-12.7749
 30
0.0
 10
162.8852
 20
-12.7749
 30
0.0
 10
163.4013
 20
-12.3683
 30
0.0
 10
163.7061
 20
-12.453
 30
0.0
 10
164.0306
 20
-12.7933
 30
0.0
 10
164.0306
 20
-12.7933
 30
0.0
 10
164.0306
 20
-12.7933
 30
0.0
 10
165.327
 20
-14.0809
 30
0.0
 10
165.327
 20
-14.0809
 30
0.0
 10
165.327
 20
-14.0809
 30
0.0
 10
165.7783
 20
-14.6126
 30
0.0
 10
166.2108
 20
-14.7785
 30
0.0
 10
167.0609
 20
-14.7813
 30
0.0
 10
167.0609
 20
-14.7813
 30
0.0
 10
167.0609
 20
-14.7813
 30
0.0
 10
168.843
 20
-14.7874
 30
0.0
 10
168.843
 20
-14.7874
 30
0.0
 10
168.843
 20
-14.7874
 30
0.0
 10
169.5291
 20
-14.761
 30
0.0
 10
169.6254
 20
-15.0304
 30
0.0
 10
169.6678
 20
-15.6042
 30
0.0
 10
169.6678
 20
-15.6042
 30
0.0
 10
169.6678
 20
-15.6042
 30
0.0
 10
169.6738
 20
-17.3367
 30
0.0
 10
169.6738
 20
-17.3367
 30
0.0
 10
169.6738
 20
-17.3367
 30
0.0
 10
169.6165
 20
-18.1836
 30
0.0
 10
169.7925
 20
-18.5424
 30
0.0
 10
170.4354
 20
-19.1897
 30
0.0
 10
170.4354
 20
-19.1897
 30
0.0
 10
170.4354
 20
-19.1897
 30
0.0
 10
171.6738
 20
-20.4365
 30
0.0
 10
171.6738
 20
-20.4365
 30
0.0
 10
171.6738
 20
-20.4365
 30
0.0
 10
172.0543
 20
-20.8132
 30
0.0
 10
172.1438
 20
-21.0831
 30
0.0
 10
171.6754
 20
-21.5751
 30
0.0
 10
171.6754
 20
-21.5751
 30
0.0
 10
171.6754
 20
-21.5751
 30
0.0
 10
170.4371
 20
-22.8219
 30
0.0
 10
170.4371
 20
-22.8219
 30
0.0
 10
170.4371
 20
-22.8219
 30
0.0
 10
169.7843
 20
-23.4037
 30
0.0
 10
169.6768
 20
-23.7617
 30
0.0
 10
169.6737
 20
-24.673
 30
0.0
 10
169.6737
 20
-24.673
 30
0.0
 10
169.6737
 20
-24.673
 30
0.0
 10
169.6678
 20
-26.3956
 30
0.0
 10
169.6678
 20
-26.3956
 30
0.0
 10
169.6678
 20
-26.3956
 30
0.0
 10
169.6898
 20
-26.9458
 30
0.0
 10
169.536
 20
-27.2429
 30
0.0
 10
168.8331
 20
-27.226
 30
0.0
 10
168.8331
 20
-27.226
 30
0.0
 10
168.8331
 20
-27.226
 30
0.0
 10
168.8331
 20
-27.2259
 30
0.0
 10
168.8331
 20
-27.2259
 30
0.0
  0
SPLINE
  5
70
330
1F
100
AcDbEntity
  8
layer 1
 62
     7
100
AcDbSpline
210
0.0
220
0.0
230
1.0
 70
    11
 71
     3
 72
    28
 73
    24
 74
     0
 42
0.0000000001
 43
0.0000000001
 12
1.0
 22
0.0
 32
0.0
 13
1.0
 23
0.0
 33
0.0
 40
0.0
 40
0.0
 40
0.0
 40
0.0
 40
0.1428571428571428
 40
0.1428571428571428
 40
0.1428571428571428
 40
0.1428571428571428
 40
0.2857142857142857
 40
0.2857142857142857
 40
0.2857142857142857
 40
0.2857142857142857
 40
0.4285714285714285
 40
0.4285714285714285
 40
0.4285714285714285
 40
0.4285714285714285
 40
0.5714285714285714
 40
0.5714285714285714
 40
0.5714285714285714
 40
0.5714285714285714
 40
0.7142857142857143
 40
0.7142857142857143
 40
0.7142857142857143
 40
0.7142857142857143
 40
1.0
 40
1.0
 40
1.0
 40
1.0
 10
138.6759
 20
-11.3904
 30
0.0
 10
138.6759
 20
-11.3904
 30
0.0
 10
147.1444
 20
-19.8144
 30
0.0
 10
147.1444
 20
-19.8144
 30
0.0
 10
147.1444
 20
-19.8144
 30
0.0
 10
147.8107
 20
-20.5465
 30
0.0
 10
148.0015
 20
-21.4612
 30
0.0
 10
147.1955
 20
-22.1411
 30
0.0
 10
147.1955
 20
-22.1411
 30
0.0
 10
147.1955
 20
-22.1411
 30
0.0
 10
138.8683
 20
-30.269
 30
0.0
 10
138.8683
 20
-30.269
 30
0.0
 10
138.8683
 20
-30.269
 30
0.0
 10
138.3735
 20
-30.7717
 30
0.0
 10
136.6154
 20
-30.7216
 30
0.0
 10
136.6464
 20
-29.227
 30
0.0
 10
136.6464
 20
-29.227
 30
0.0
 10
136.6464
 20
-29.227
 30
0.0
 10
136.6464
 20
-12.4588
 30
0.0
 10
136.6464
 20
-12.4588
 30
0.0
 10
136.6464
 20
-12.4588
 30
0.0
 10
136.5842
 20
-11.3915
 30
0.0
 10
137.5685
 20
-10.5128
 30
0.0
 10
138.6759
 20
-11.3904
 30
0.0
  0
SPLINE
  5
71
330
1F
100
AcDbEntity
  8
layer 1
 62
     7
100
AcDbSpline
210
0.0
220
0.0
230
1.0
 70
    11
 71
     3
 72
    28
 73
    24
 74
     0
 42
0.0000000001
 43
0.0000000001
 12
1.0
 22
0.0
 32
0.0
 13
1.0
 23
0.0
 33
0.0
 40
0.0
 40
0.0
 40
0.0
 40
0.0
 40
0.1428571428571428
 40
0.1428571428571428
 40
0.1428571428571428
 40
0.1428571428571428
 40
0.2857142857142857
 40
0.2857142857142857
 40
0.2857142857142857
 40
0.2857142857142857
 40
0.4285714285714285
 40
0.4285714285714285
 40
0.4285714285714285
 40
0.4285714285714285
 40
0.5714285714285714
 40
0.5714285714285714
 40
0.5714285714285714
 40
0.5714285714285714
 40
0.7142857142857143
 40
0.7142857142857143
 40
0.7142857142857143
 40
0.7142857142857143
 40
1.0
 40
1.0
 40
1.0
 40
1.0
 10
188.1276
 20
-11.3904
 30
0.0
 10
188.1276
 20
-11.3904
 30
0.0
 10
179.659
 20
-19.8144
 30
0.0
 10
179.659
 20
-19.8144
 30
0.0
 10
179.659
 20
-19.8144
 30
0.0
 10
178.9927
 20
-20.5465
 30
0.0
 10
178.8019
 20
-21.4612
 30
0.0
 10
179.6079
 20
-22.1411
 30
0.0
 10
179.6079
 20
-22.1411
 30
0.0
 10
179.6079
 20
-22.1411
 30
0.0
 10
187.9351
 20
-30.269
 30
0.0
 10
187.9351
 20
-30.269
 30
0.0
 10
187.9351
 20
-30.269
 30
0.0
 10
188.4299
 20
-30.7717
 30
0.0
 10
190.188
 20
-30.7216
 30
0.0
 10
190.157
 20
-29.227
 30
0.0
 10
190.157
 20
-29.227
 30
0.0
 10
190.157
 20
-29.227
 30
0.0
 10
190.157
 20
-12.4588
 30
0.0
 10
190.157
 20
-12.4588
 30
0.0
 10
190.157
 20
-12.4588
 30
0.0
 10
190.2192
 20
-11.3915
 30
0.0
 10
189.235
 20
-10.5128
 30
0.0
 10
188.1276
 20
-11.3904
 30
0.0
  0
SPLINE
  5
72
330
1F
100
AcDbEntity
  8
layer 1
 62
     7
100
AcDbSpline
210
0.0
220
0.0
230
1.0
 70
    11
 71
     3
 72
    28
 73
    24
 74
     0
 42
0.0000000001
 43
0.0000000001
 12
1.0
 22
0.0
 32
0.0
 13
1.0
 23
0.0
 33
0.0
 40
0.0
 40
0.0
 40
0.0
 40
0.0
 40
0.1428571428571428
 40
0.1428571428571428
 40
0.1428571428571428
 40
0.1428571428571428
 40
0.2857142857142857
 40
0.2857142857142857
 40
0.2857142857142857
 40
0.2857142857142857
 40
0.4285714285714285
 40
0.4285714285714285
 40
0.4285714285714285
 40
0.4285714285714285
 40
0.5714285714285714
 40
0.5714285714285714
 40
0.5714285714285714
 40
0.5714285714285714
 40
0.7142857142857143
 40
0.7142857142857143
 40
0.7142857142857143
 40
0.7142857142857143
 40
1.0
 40
1.0
 40
1.0
 40
1.0
 10
172.9294
 20
4.2434
 30
0.0
 10
172.9294
 20
4.2434
 30
0.0
 10
164.5053
 20
-4.2251
 30
0.0
 10
164.5053
 20
-4.2251
 30
0.0
 10
164.5053
 20
-4.2251
 30
0.0
 10
163.7733
 20
-4.8915
 30
0.0
 10
162.8586
 20
-5.0822
 30
0.0
 10
162.1786
 20
-4.2763
 30
0.0
 10
162.1786
 20
-4.2763
 30
0.0
 10
162.1786
 20
-4.2763
 30
0.0
 10
154.0508
 20
4.051
 30
0.0
 10
154.0508
 20
4.051
 30
0.0
 10
154.0508
 20
4.051
 30
0.0
 10
153.5481
 20
4.5457
 30
0.0
 10
153.5982
 20
6.3039
 30
0.0
 10
155.0927
 20
6.2728
 30
0.0
 10
155.0927
 20
6.2728
 30
0.0
 10
155.0927
 20
6.2728
 30
0.0
 10
171.861
 20
6.2728
 30
0.0
 10
171.861
 20
6.2728
 30
0.0
 10
171.861
 20
6.2728
 30
0.0
 10
172.9282
 20
6.335
 30
0.0
 10
173.8069
 20
5.3508
 30
0.0
 10
172.9294
 20
4.2434
 30
0.0
  0
SPLINE
  5
73
330
1F
100
AcDbEntity
  8
layer 1
 62
     7
100
AcDbSpline
210
0.0
220
0.0
230
1.0
 70
    11
 71
     3
 72
    28
 73
    24
 74
     0
 42
0.0000000001
 43
0.0000000001
 12
1.0
 22
0.0
 32
0.0
 13
1.0
 23
0.0
 33
0.0
 40
0.0
 40
0.0
 40
0.0
 40
0.0
 40
0.1428571428571428
 40
0.1428571428571428
 40
0.1428571428571428
 40
0.1428571428571428
 40
0.2857142857142857
 40
0.2857142857142857
 40
0.2857142857142857
 40
0.2857142857142857
 40
0.4285714285714285
 40
0.4285714285714285
 40
0.4285714285714285
 40
0.4285714285714285
 40
0.5714285714285714
 40
0.5714285714285714
 40
0.5714285714285714
 40
0.5714285714285714
 40
0.7142857142857143
 40
0.7142857142857143
 40
0.7142857142857143
 40
0.7142857142857143
 40
1.0
 40
1.0
 40
1.0
 40
1.0
 10
172.9294
 20
-46.0794
 30
0.0
 10
172.9294
 20
-46.0794
 30
0.0
 10
164.5053
 20
-37.6109
 30
0.0
 10
164.5053
 20
-37.6109
 30
0.0
 10
164.5053
 20
-37.6109
 30
0.0
 10
163.7733
 20
-36.9445
 30
0.0
 10
162.8586
 20
-36.7538
 30
0.0
 10
162.1786
 20
-37.5597
 30
0.0
 10
162.1786
 20
-37.5597
 30
0.0
 10
162.1786
 20
-37.5597
 30
0.0
 10
154.0508
 20
-45.887
 30
0.0
 10
154.0508
 20
-45.887
 30
0.0
 10
154.0508
 20
-45.887
 30
0.0
 10
153.5481
 20
-46.3817
 30
0.0
 10
153.5982
 20
-48.1399
 30
0.0
 10
155.0927
 20
-48.1088
 30
0.0
 10
155.0927
 20
-48.1088
 30
0.0
 10
155.0927
 20
-48.1088
 30
0.0
 10
171.861
 20
-48.1088
 30
0.0
 10
171.861
 20
-48.1088
 30
0.0
 10
171.861
 20
-48.1088
 30
0.0
 10
172.9282
 20
-48.1711
 30
0.0
 10
173.8069
 20
-47.1868
 30
0.0
 10
172.9294
 20
-46.0794
 30
0.0
  0
SPLINE
  5
74
330
1F
100
AcDbEntity
  8
layer 1
 62
     7
100
AcDbSpline
210
0.0
220
0.0
230
1.0
 70
    11
 71
     3
 72
    44
 73
    40
 74
     0
 42
0.0000000001
 43
0.0000000001
 12
1.0
 22
0.0
 32
0.0
 13
1.0
 23
0.0
 33
0.0
 40
0.0
 40
0.0
 40
0.0
 40
0.0
 40
0.0909090909090909
 40
0.0909090909090909
 40
0.0909090909090909
 40
0.0909090909090909
 40
0.1818181818181818
 40
0.1818181818181818
 40
0.1818181818181818
 40
0.1818181818181818
 40
0.2727272727272727
 40
0.2727272727272727
 40
0.2727272727272727
 40
0.2727272727272727
 40
0.3636363636363636
 40
0.3636363636363636
 40
0.3636363636363636
 40
0.3636363636363636
 40
0.4545454545454545
 40
0.4545454545454545
 40
0.4545454545454545
 40
0.4545454545454545
 40
0.5454545454545454
 40
0.5454545454545454
 40
0.5454545454545454
 40
0.5454545454545454
 40
0.6363636363636364
 40
0.6363636363636364
 40
0.6363636363636364
 40
0.6363636363636364
 40
0.7272727272727273
 40
0.7272727272727273
 40
0.7272727272727273
 40
0.7272727272727273
 40
0.8181818181818182
 40
0.8181818181818182
 40
0.8181818181818182
 40
0.8181818181818182
 40
1.0
 40
1.0
 40
1.0
 40
1.0
 10
176.8664
 20
-16.3499
 30
0.0
 10
176.8664
 20
-16.3499
 30
0.0
 10
190.1658
 20
-2.8921
 30
0.0
 10
190.1658
 20
-2.8921
 30
0.0
 10
190.1658
 20
-2.8921
 30
0.0
 10
190.1658
 20
-2.8921
 30
0.0
 10
190.1879
 20
5.1968
 30
0.0
 10
190.1879
 20
5.1968
 30
0.0
 10
190.1879
 20
5.1968
 30
0.0
 10
190.1559
 20
5.8279
 30
0.0
 10
189.8045
 20
6.3267
 30
0.0
 10
189.0831
 20
6.2698
 30
0.0
 10
189.0831
 20
6.2698
 30
0.0
 10
189.0831
 20
6.2698
 30
0.0
 10
181.1906
 20
6.1798
 30
0.0
 10
181.1906
 20
6.1798
 30
0.0
 10
181.1906
 20
6.1798
 30
0.0
 10
181.1906
 20
6.1798
 30
0.0
 10
167.7643
 20
-7.4997
 30
0.0
 10
167.7643
 20
-7.4997
 30
0.0
 10
167.7643
 20
-7.4997
 30
0.0
 10
167.0803
 20
-8.0436
 30
0.0
 10
167.1043
 20
-9.9916
 30
0.0
 10
168.7755
 20
-9.953
 30
0.0
 10
168.7755
 20
-9.953
 30
0.0
 10
168.7755
 20
-9.953
 30
0.0
 10
174.222
 20
-9.9851
 30
0.0
 10
174.222
 20
-9.9851
 30
0.0
 10
174.222
 20
-9.9851
 30
0.0
 10
174.222
 20
-9.9851
 30
0.0
 10
174.2815
 20
-15.4399
 30
0.0
 10
174.2815
 20
-15.4399
 30
0.0
 10
174.2815
 20
-15.4399
 30
0.0
 10
174.3174
 20
-17.1573
 30
0.0
 10
175.8381
 20
-17.3604
 30
0.0
 10
176.8663
 20
-16.3501
 30
0.0
 10
176.8663
 20
-16.3501
 30
0.0
 10
176.8663
 20
-16.3501
 30
0.0
 10
176.8664
 20
-16.3499
 30
0.0
 10
176.8664
 20
-16.3499
 30
0.0
  0
SPLINE
  5
75
330
1F
100
AcDbEntity
  8
layer 1
 62
     7
100
AcDbSpline
210
0.0
220
0.0
230
1.0
 70
    11
 71
     3
 72
    44
 73
    40
 74
     0
 42
0.0000000001
 43
0.0000000001
 12
1.0
 22
0.0
 32
0.0
 13
1.0
 23
0.0
 33
0.0
 40
0.0
 40
0.0
 40
0.0
 40
0.0
 40
0.0909090909090909
 40
0.0909090909090909
 40
0.0909090909090909
 40
0.0909090909090909
 40
0.1818181818181818
 40
0.1818181818181818
 40
0.1818181818181818
 40
0.1818181818181818
 40
0.2727272727272727
 40
0.2727272727272727
 40
0.2727272727272727
 40
0.2727272727272727
 40
0.3636363636363636
 40
0.3636363636363636
 40
0.3636363636363636
 40
0.3636363636363636
 40
0.4545454545454545
 40
0.4545454545454545
 40
0.4545454545454545
 40
0.4545454545454545
 40
0.5454545454545454
 40
0.5454545454545454
 40
0.5454545454545454
 40
0.5454545454545454
 40
0.6363636363636364
 40
0.6363636363636364
 40
0.6363636363636364
 40
0.6363636363636364
 40
0.7272727272727273
 40
0.7272727272727273
 40
0.7272727272727273
 40
0.7272727272727273
 40
0.8181818181818182
 40
0.8181818181818182
 40
0.8181818181818182
 40
0.8181818181818182
 40
1.0
 40
1.0
 40
1.0
 40
1.0
 10
149.9673
 20
-16.3499
 30
0.0
 10
149.9673
 20
-16.3499
 30
0.0
 10
136.6679
 20
-2.8921
 30
0.0
 10
136.6679
 20
-2.8921
 30
0.0
 10
136.6679
 20
-2.8921
 30
0.0
 10
136.6679
 20
-2.8921
 30
0.0
 10
136.6459
 20
5.1968
 30
0.0
 10
136.6459
 20
5.1968
 30
0.0
 10
136.6459
 20
5.1968
 30
0.0
 10
136.6778
 20
5.8279
 30
0.0
 10
137.0292
 20
6.3267
 30
0.0
 10
137.7507
 20
6.2698
 30
0.0
 10
137.7507
 20
6.2698
 30
0.0
 10
137.7507
 20
6.2698
 30
0.0
 10
145.6432
 20
6.1798
 30
0.0
 10
145.6432
 20
6.1798
 30
0.0
 10
145.6432
 20
6.1798
 30
0.0
 10
145.6432
 20
6.1798
 30
0.0
 10
159.0695
 20
-7.4997
 30
0.0
 10
159.0695
 20
-7.4997
 30
0.0
 10
159.0695
 20
-7.4997
 30
0.0
 10
159.7535
 20
-8.0436
 30
0.0
 10
159.7294
 20
-9.9916
 30
0.0
 10
158.0582
 20
-9.953
 30
0.0
 10
158.0582
 20
-9.953
 30
0.0
 10
158.0582
 20
-9.953
 30
0.0
 10
152.6117
 20
-9.9851
 30
0.0
 10
152.6117
 20
-9.9851
 30
0.0
 10
152.6117
 20
-9.9851
 30
0.0
 10
152.6117
 20
-9.9851
 30
0.0
 10
152.5523
 20
-15.4399
 30
0.0
 10
152.5523
 20
-15.4399
 30
0.0
 10
152.5523
 20
-15.4399
 30
0.0
 10
152.5163
 20
-17.1573
 30
0.0
 10
150.9956
 20
-17.3604
 30
0.0
 10
149.9674
 20
-16.3501
 30
0.0
 10
149.9674
 20
-16.3501
 30
0.0
 10
149.9674
 20
-16.3501
 30
0.0
 10
149.9673
 20
-16.3499
 30
0.0
 10
149.9673
 20
-16.3499
 30
0.0
  0
SPLINE
  5
76
330
1F
100
AcDbEntity
  8
layer 1
 62
     7
100
AcDbSpline
210
0.0
220
0.0
230
1.0
 70
    11
 71
     3
 72
    44
 73
    40
 74
     0
 42
0.0000000001
 43
0.0000000001
 12
1.0
 22
0.0
 32
0.0
 13
1.0
 23
0.0
 33
0.0
 40
0.0
 40
0.0
 40
0.0
 40
0.0
 40
0.0909090909090909
 40
0.0909090909090909
 40
0.0909090909090909
 40
0.0909090909090909
 40
0.1818181818181818
 40
0.1818181818181818
 40
0.1818181818181818
 40
0.1818181818181818
 40
0.2727272727272727
 40
0.2727272727272727
 40
0.2727272727272727
 40
0.2727272727272727
 40
0.3636363636363636
 40
0.3636363636363636
 40
0.3636363636363636
 40
0.3636363636363636
 40
0.4545454545454545
 40
0.4545454545454545
 40
0.4545454545454545
 40
0.4545454545454545
 40
0.5454545454545454
 40
0.5454545454545454
 40
0.5454545454545454
 40
0.5454545454545454
 40
0.6363636363636364
 40
0.6363636363636364
 40
0.6363636363636364
 40
0.6363636363636364
 40
0.7272727272727273
 40
0.7272727272727273
 40
0.7272727272727273
 40
0.7272727272727273
 40
0.8181818181818182
 40
0.8181818181818182
 40
0.8181818181818182
 40
0.8181818181818182
 40
1.0
 40
1.0
 40
1.0
 40
1.0
 10
176.8664
 20
-25.5418
 30
0.0
 10
176.8664
 20
-25.5418
 30
0.0
 10
190.1658
 20
-38.9997
 30
0.0
 10
190.1658
 20
-38.9997
 30
0.0
 10
190.1658
 20
-38.9997
 30
0.0
 10
190.1658
 20
-38.9997
 30
0.0
 10
190.1879
 20
-47.0886
 30
0.0
 10
190.1879
 20
-47.0886
 30
0.0
 10
190.1879
 20
-47.0886
 30
0.0
 10
190.1559
 20
-47.7196
 30
0.0
 10
189.8045
 20
-48.2185
 30
0.0
 10
189.0831
 20
-48.1616
 30
0.0
 10
189.0831
 20
-48.1616
 30
0.0
 10
189.0831
 20
-48.1616
 30
0.0
 10
181.1906
 20
-48.0717
 30
0.0
 10
181.1906
 20
-48.0717
 30
0.0
 10
181.1906
 20
-48.0717
 30
0.0
 10
181.1906
 20
-48.0717
 30
0.0
 10
167.7643
 20
-34.3921
 30
0.0
 10
167.7643
 20
-34.3921
 30
0.0
 10
167.7643
 20
-34.3921
 30
0.0
 10
167.0804
 20
-33.8482
 30
0.0
 10
167.1044
 20
-31.9001
 30
0.0
 10
168.7756
 20
-31.9389
 30
0.0
 10
168.7756
 20
-31.9389
 30
0.0
 10
168.7756
 20
-31.9389
 30
0.0
 10
174.2221
 20
-31.9068
 30
0.0
 10
174.2221
 20
-31.9068
 30
0.0
 10
174.2221
 20
-31.9068
 30
0.0
 10
174.2221
 20
-31.9068
 30
0.0
 10
174.2816
 20
-26.452
 30
0.0
 10
174.2816
 20
-26.452
 30
0.0
 10
174.2816
 20
-26.452
 30
0.0
 10
174.3175
 20
-24.7345
 30
0.0
 10
175.8382
 20
-24.5314
 30
0.0
 10
176.8664
 20
-25.5417
 30
0.0
 10
176.8664
 20
-25.5417
 30
0.0
 10
176.8664
 20
-25.5417
 30
0.0
 10
176.8664
 20
-25.5418
 30
0.0
 10
176.8664
 20
-25.5418
 30
0.0
  0
SPLINE
  5
77
330
1F
100
AcDbEntity
  8
layer 1
 62
     7
100
AcDbSpline
210
0.0
220
0.0
230
1.0
 70
    11
 71
     3
 72
    44
 73
    40
 74
     0
 42
0.0000000001
 43
0.0000000001
 12
1.0
 22
0.0
 32
0.0
 13
1.0
 23
0.0
 33
0.0
 40
0.0
 40
0.0
 40
0.0
 40
0.0
 40
0.0909090909090909
 40
0.0909090909090909
 40
0.0909090909090909
 40
0.0909090909090909
 40
0.1818181818181818
 40
0.1818181818181818
 40
0.1818181818181818
 40
0.1818181818181818
 40
0.2727272727272727
 40
0.2727272727272727
 40
0.2727272727272727
 40
0.2727272727272727
 40
0.3636363636363636
 40
0.3636363636363636
 40
0.3636363636363636
 40
0.3636363636363636
 40
0.4545454545454545
 40
0.4545454545454545
 40
0.4545454545454545
 40
0.4545454545454545
 40
0.5454545454545454
 40
0.5454545454545454
 40
0.5454545454545454
 40
0.5454545454545454
 40
0.6363636363636364
 40
0.6363636363636364
 40
0.6363636363636364
 40
0.6363636363636364
 40
0.7272727272727273
 40
0.7272727272727273
 40
0.7272727272727273
 40
0.7272727272727273
 40
0.8181818181818182
 40
0.8181818181818182
 40
0.8181818181818182
 40
0.8181818181818182
 40
1.0
 40
1.0
 40
1.0
 40
1.0
 10
149.9673
 20
-25.5418
 30
0.0
 10
149.9673
 20
-25.5418
 30
0.0
 10
136.6679
 20
-38.9997
 30
0.0
 10
136.6679
 20
-38.9997
 30
0.0
 10
136.6679
 20
-38.9997
 30
0.0
 10
136.6679
 20
-38.9997
 30
0.0
 10
136.6459
 20
-47.0886
 30
0.0
 10
136.6459
 20
-47.0886
 30
0.0
 10
136.6459
 20
-47.0886
 30
0.0
 10
136.6778
 20
-47.7196
 30
0.0
 10
137.0292
 20
-48.2185
 30
0.0
 10
137.7507
 20
-48.1616
 30
0.0
 10
137.7507
 20
-48.1616
 30
0.0
 10
137.7507
 20
-48.1616
 30
0.0
 10
145.6432
 20
-48.0717
 30
0.0
 10
145.6432
 20
-48.0717
 30
0.0
 10
145.6432
 20
-48.0717
 30
0.0
 10
145.6432
 20
-48.0717
 30
0.0
 10
159.0695
 20
-34.3921
 30
0.0
 10
159.0695
 20
-34.3921
 30
0.0
 10
159.0695
 20
-34.3921
 30
0.0
 10
159.7535
 20
-33.8482
 30
0.0
 10
159.7294
 20
-31.9001
 30
0.0
 10
158.0582
 20
-31.9389
 30
0.0
 10
158.0582
 20
-31.9389
 30
0.0
 10
158.0582
 20
-31.9389
 30
0.0
 10
152.6117
 20
-31.9068
 30
0.0
 10
152.6117
 20
-31.9068
 30
0.0
 10
152.6117
 20
-31.9068
 30
0.0
 10
152.6117
 20
-31.9068
 30
0.0
 10
152.5523
 20
-26.452
 30
0.0
 10
152.5523
 20
-26.452
 30
0.0
 10
152.5523
 20
-26.452
 30
0.0
 10
152.5163
 20
-24.7345
 30
0.0
 10
150.9956
 20
-24.5314
 30
0.0
 10
149.9674
 20
-25.5417
 30
0.0
 10
149.9674
 20
-25.5417
 30
0.0
 10
149.9674
 20
-25.5417
 30
0.0
 10
149.9673
 20
-25.5418
 30
0.0
 10
149.9673
 20
-25.5418
 30
0.0
  0
SPLINE
  5
78
330
1F
100
AcDbEntity
  8
layer 1
 62
     7
100
AcDbSpline
210
0.0
220
0.0
230
1.0
 70
    11
 71
     3
 72
   136
 73
   132
 74
     0
 42
0.0000000001
 43
0.0000000001
 12
1.0
 22
0.0
 32
0.0
 13
1.0
 23
0.0
 33
0.0
 40
0.0
 40
0.0
 40
0.0
 40
0.0
 40
0.0294117647058824
 40
0.0294117647058824
 40
0.0294117647058824
 40
0.0294117647058824
 40
0.0588235294117647
 40
0.0588235294117647
 40
0.0588235294117647
 40
0.0588235294117647
 40
0.0882352941176471
 40
0.0882352941176471
 40
0.0882352941176471
 40
0.0882352941176471
 40
0.1176470588235294
 40
0.1176470588235294
 40
0.1176470588235294
 40
0.1176470588235294
 40
0.1470588235294118
 40
0.1470588235294118
 40
0.1470588235294118
 40
0.1470588235294118
 40
0.1764705882352941
 40
0.1764705882352941
 40
0.1764705882352941
 40
0.1764705882352941
 40
0.2058823529411765
 40
0.2058823529411765
 40
0.2058823529411765
 40
0.2058823529411765
 40
0.2352941176470588
 40
0.2352941176470588
 40
0.2352941176470588
 40
0.2352941176470588
 40
0.2647058823529412
 40
0.2647058823529412
 40
0.2647058823529412
 40
0.2647058823529412
 40
0.2941176470588235
 40
0.2941176470588235
 40
0.2941176470588235
 40
0.2941176470588235
 40
0.3235294117647059
 40
0.3235294117647059
 40
0.3235294117647059
 40
0.3235294117647059
 40
0.3529411764705883
 40
0.3529411764705883
 40
0.3529411764705883
 40
0.3529411764705883
 40
0.3823529411764706
 40
0.3823529411764706
 40
0.3823529411764706
 40
0.3823529411764706
 40
0.4117647058823529
 40
0.4117647058823529
 40
0.4117647058823529
 40
0.4117647058823529
 40
0.4411764705882353
 40
0.4411764705882353
 40
0.4411764705882353
 40
0.4411764705882353
 40
0.4705882352941176
 40
0.4705882352941176
 40
0.4705882352941176
 40
0.4705882352941176
 40
0.5
 40
0.5
 40
0.5
 40
0.5
 40
0.5294117647058824
 40
0.5294117647058824
 40
0.5294117647058824
 40
0.5294117647058824
 40
0.5588235294117647
 40
0.5588235294117647
 40
0.5588235294117647
 40
0.5588235294117647
 40
0.5882352941176471
 40
0.5882352941176471
 40
0.5882352941176471
 40
0.5882352941176471
 40
0.6176470588235294
 40
0.6176470588235294
 40
0.6176470588235294
 40
0.6176470588235294
 40
0.6470588235294118
 40
0.6470588235294118
 40
0.6470588235294118
 40
0.6470588235294118
 40
0.6764705882352942
 40
0.6764705882352942
 40
0.6764705882352942
 40
0.6764705882352942
 40
0.7058823529411765
 40
0.7058823529411765
 40
0.7058823529411765
 40
0.7058823529411765
 40
0.7352941176470589
 40
0.7352941176470589
 40
0.7352941176470589
 40
0.7352941176470589
 40
0.7647058823529411
 40
0.7647058823529411
 40
0.7647058823529411
 40
0.7647058823529411
 40
0.7941176470588235
 40
0.7941176470588235
 40
0.7941176470588235
 40
0.7941176470588235
 40
0.8235294117647058
 40
0.8235294117647058
 40
0.8235294117647058
 40
0.8235294117647058
 40
0.8529411764705882
 40
0.8529411764705882
 40
0.8529411764705882
 40
0.8529411764705882
 40
0.8823529411764706
 40
0.8823529411764706
 40
0.8823529411764706
 40
0.8823529411764706
 40
0.9117647058823529
 40
0.9117647058823529
 40
0.9117647058823529
 40
0.9117647058823529
 40
0.9411764705882353
 40
0.9411764705882353
 40
0.9411764705882353
 40
0.9411764705882353
 40
1.0
 40
1.0
 40
1.0
 40
1.0
 10
110.7119
 20
-86.5891
 30
0.0
 10
110.7119
 20
-86.5891
 30
0.0
 10
108.9299
 20
-86.5951
 30
0.0
 10
108.9299
 20
-86.5951
 30
0.0
 10
108.9299
 20
-86.5951
 30
0.0
 10
108.0302
 20
-86.577
 30
0.0
 10
107.8053
 20
-86.7
 30
0.0
 10
107.2027
 20
-87.2986
 30
0.0
 10
107.2027
 20
-87.2986
 30
0.0
 10
107.2027
 20
-87.2986
 30
0.0
 10
105.9112
 20
-88.5813
 30
0.0
 10
105.9112
 20
-88.5813
 30
0.0
 10
105.9112
 20
-88.5813
 30
0.0
 10
105.4839
 20
-89.042
 30
0.0
 10
105.2155
 20
-89.079
 30
0.0
 10
104.7522
 20
-88.5899
 30
0.0
 10
104.7522
 20
-88.5899
 30
0.0
 10
104.7522
 20
-88.5899
 30
0.0
 10
103.4757
 20
-87.322
 30
0.0
 10
103.4757
 20
-87.322
 30
0.0
 10
103.4757
 20
-87.322
 30
0.0
 10
102.944
 20
-86.6895
 30
0.0
 10
102.5865
 20
-86.5981
 30
0.0
 10
101.7224
 20
-86.5951
 30
0.0
 10
101.7224
 20
-86.5951
 30
0.0
 10
101.7224
 20
-86.5951
 30
0.0
 10
99.9403
 20
-86.5891
 30
0.0
 10
99.9403
 20
-86.5891
 30
0.0
 10
99.9403
 20
-86.5891
 30
0.0
 10
99.2483
 20
-86.6383
 30
0.0
 10
99.111
 20
-86.5462
 30
0.0
 10
99.1082
 20
-85.7685
 30
0.0
 10
99.1082
 20
-85.7685
 30
0.0
 10
99.1082
 20
-85.7685
 30
0.0
 10
99.1022
 20
-84.0063
 30
0.0
 10
99.1022
 20
-84.0063
 30
0.0
 10
99.1022
 20
-84.0063
 30
0.0
 10
99.1422
 20
-83.1116
 30
0.0
 10
98.9561
 20
-82.8064
 30
0.0
 10
98.3129
 20
-82.1587
 30
0.0
 10
98.3129
 20
-82.1587
 30
0.0
 10
98.3129
 20
-82.1587
 30
0.0
 10
97.1092
 20
-80.9468
 30
0.0
 10
97.1092
 20
-80.9468
 30
0.0
 10
97.1092
 20
-80.9468
 30
0.0
 10
96.6163
 20
-80.4172
 30
0.0
 10
96.7869
 20
-80.1289
 30
0.0
 10
97.1012
 20
-79.8009
 30
0.0
 10
97.1012
 20
-79.8009
 30
0.0
 10
97.1012
 20
-79.8009
 30
0.0
 10
98.3
 20
-78.594
 30
0.0
 10
98.3
 20
-78.594
 30
0.0
 10
98.3
 20
-78.594
 30
0.0
 10
98.9708
 20
-78.0843
 30
0.0
 10
99.1388
 20
-77.5041
 30
0.0
 10
99.1024
 20
-76.7098
 30
0.0
 10
99.1024
 20
-76.7098
 30
0.0
 10
99.1024
 20
-76.7098
 30
0.0
 10
99.1083
 20
-74.9673
 30
0.0
 10
99.1083
 20
-74.9673
 30
0.0
 10
99.1083
 20
-74.9673
 30
0.0
 10
99.0722
 20
-74.2591
 30
0.0
 10
99.391
 20
-74.1242
 30
0.0
 10
99.9008
 20
-74.1507
 30
0.0
 10
99.9008
 20
-74.1507
 30
0.0
 10
99.9008
 20
-74.1507
 30
0.0
 10
101.6929
 20
-74.1446
 30
0.0
 10
101.6929
 20
-74.1446
 30
0.0
 10
101.6929
 20
-74.1446
 30
0.0
 10
102.5774
 20
-74.1242
 30
0.0
 10
102.8488
 20
-74.0403
 30
0.0
 10
103.4676
 20
-73.4257
 30
0.0
 10
103.4676
 20
-73.4257
 30
0.0
 10
103.4676
 20
-73.4257
 30
0.0
 10
104.7641
 20
-72.1381
 30
0.0
 10
104.7641
 20
-72.1381
 30
0.0
 10
104.7641
 20
-72.1381
 30
0.0
 10
105.2801
 20
-71.7314
 30
0.0
 10
105.585
 20
-71.8161
 30
0.0
 10
105.9094
 20
-72.1565
 30
0.0
 10
105.9094
 20
-72.1565
 30
0.0
 10
105.9094
 20
-72.1565
 30
0.0
 10
107.2058
 20
-73.444
 30
0.0
 10
107.2058
 20
-73.444
 30
0.0
 10
107.2058
 20
-73.444
 30
0.0
 10
107.6572
 20
-73.9758
 30
0.0
 10
108.0897
 20
-74.1416
 30
0.0
 10
108.9397
 20
-74.1445
 30
0.0
 10
108.9397
 20
-74.1445
 30
0.0
 10
108.9397
 20
-74.1445
 30
0.0
 10
110.7218
 20
-74.1506
 30
0.0
 10
110.7218
 20
-74.1506
 30
0.0
 10
110.7218
 20
-74.1506
 30
0.0
 10
111.4079
 20
-74.1241
 30
0.0
 10
111.5042
 20
-74.3936
 30
0.0
 10
111.5467
 20
-74.9673
 30
0.0
 10
111.5467
 20
-74.9673
 30
0.0
 10
111.5467
 20
-74.9673
 30
0.0
 10
111.5526
 20
-76.6998
 30
0.0
 10
111.5526
 20
-76.6998
 30
0.0
 10
111.5526
 20
-76.6998
 30
0.0
 10
111.4954
 20
-77.5468
 30
0.0
 10
111.6713
 20
-77.9055
 30
0.0
 10
112.3142
 20
-78.5528
 30
0.0
 10
112.3142
 20
-78.5528
 30
0.0
 10
112.3142
 20
-78.5528
 30
0.0
 10
113.5526
 20
-79.7997
 30
0.0
 10
113.5526
 20
-79.7997
 30
0.0
 10
113.5526
 20
-79.7997
 30
0.0
 10
113.9332
 20
-80.1764
 30
0.0
 10
114.0227
 20
-80.4462
 30
0.0
 10
113.5543
 20
-80.9382
 30
0.0
 10
113.5543
 20
-80.9382
 30
0.0
 10
113.5543
 20
-80.9382
 30
0.0
 10
112.3159
 20
-82.185
 30
0.0
 10
112.3159
 20
-82.185
 30
0.0
 10
112.3159
 20
-82.185
 30
0.0
 10
111.6631
 20
-82.7668
 30
0.0
 10
111.5556
 20
-83.1247
 30
0.0
 10
111.5525
 20
-84.0361
 30
0.0
 10
111.5525
 20
-84.0361
 30
0.0
 10
111.5525
 20
-84.0361
 30
0.0
 10
111.5467
 20
-85.7587
 30
0.0
 10
111.5467
 20
-85.7587
 30
0.0
 10
111.5467
 20
-85.7587
 30
0.0
 10
111.5686
 20
-86.309
 30
0.0
 10
111.4148
 20
-86.6061
 30
0.0
 10
110.7119
 20
-86.5891
 30
0.0
 10
110.7119
 20
-86.5891
 30
0.0
 10
110.7119
 20
-86.5891
 30
0.0
 10
110.7119
 20
-86.5891
 30
0.0
 10
110.7119
 20
-86.5891
 30
0.0
  0
SPLINE
  5
79
330
1F
100
AcDbEntity
  8
layer 1
 62
     7
100
AcDbSpline
210
0.0
220
0.0
230
1.0
 70
    11
 71
     3
 72
    28
 73
    24
 74
     0
 42
0.0000000001
 43
0.0000000001
 12
1.0
 22
0.0
 32
0.0
 13
1.0
 23
0.0
 33
0.0
 40
0.0
 40
0.0
 40
0.0
 40
0.0
 40
0.1428571428571428
 40
0.1428571428571428
 40
0.1428571428571428
 40
0.1428571428571428
 40
0.2857142857142857
 40
0.2857142857142857
 40
0.2857142857142857
 40
0.2857142857142857
 40
0.4285714285714285
 40
0.4285714285714285
 40
0.4285714285714285
 40
0.4285714285714285
 40
0.5714285714285714
 40
0.5714285714285714
 40
0.5714285714285714
 40
0.5714285714285714
 40
0.7142857142857143
 40
0.7142857142857143
 40
0.7142857142857143
 40
0.7142857142857143
 40
1.0
 40
1.0
 40
1.0
 40
1.0
 10
80.5547
 20
-70.7534
 30
0.0
 10
80.5547
 20
-70.7534
 30
0.0
 10
89.0232
 20
-79.1775
 30
0.0
 10
89.0232
 20
-79.1775
 30
0.0
 10
89.0232
 20
-79.1775
 30
0.0
 10
89.6896
 20
-79.9095
 30
0.0
 10
89.8803
 20
-80.8242
 30
0.0
 10
89.0743
 20
-81.5042
 30
0.0
 10
89.0743
 20
-81.5042
 30
0.0
 10
89.0743
 20
-81.5042
 30
0.0
 10
80.7471
 20
-89.632
 30
0.0
 10
80.7471
 20
-89.632
 30
0.0
 10
80.7471
 20
-89.632
 30
0.0
 10
80.2524
 20
-90.1347
 30
0.0
 10
78.4942
 20
-90.0845
 30
0.0
 10
78.5253
 20
-88.5901
 30
0.0
 10
78.5253
 20
-88.5901
 30
0.0
 10
78.5253
 20
-88.5901
 30
0.0
 10
78.5253
 20
-71.8218
 30
0.0
 10
78.5253
 20
-71.8218
 30
0.0
 10
78.5253
 20
-71.8218
 30
0.0
 10
78.463
 20
-70.7546
 30
0.0
 10
79.4473
 20
-69.8759
 30
0.0
 10
80.5547
 20
-70.7534
 30
0.0
  0
SPLINE
  5
7A
330
1F
100
AcDbEntity
  8
layer 1
 62
     7
100
AcDbSpline
210
0.0
220
0.0
230
1.0
 70
    11
 71
     3
 72
    28
 73
    24
 74
     0
 42
0.0000000001
 43
0.0000000001
 12
1.0
 22
0.0
 32
0.0
 13
1.0
 23
0.0
 33
0.0
 40
0.0
 40
0.0
 40
0.0
 40
0.0
 40
0.1428571428571428
 40
0.1428571428571428
 40
0.1428571428571428
 40
0.1428571428571428
 40
0.2857142857142857
 40
0.2857142857142857
 40
0.2857142857142857
 40
0.2857142857142857
 40
0.4285714285714285
 40
0.4285714285714285
 40
0.4285714285714285
 40
0.4285714285714285
 40
0.5714285714285714
 40
0.5714285714285714
 40
0.5714285714285714
 40
0.5714285714285714
 40
0.7142857142857143
 40
0.7142857142857143
 40
0.7142857142857143
 40
0.7142857142857143
 40
1.0
 40
1.0
 40
1.0
 40
1.0
 10
130.0064
 20
-70.7534
 30
0.0
 10
130.0064
 20
-70.7534
 30
0.0
 10
121.5379
 20
-79.1775
 30
0.0
 10
121.5379
 20
-79.1775
 30
0.0
 10
121.5379
 20
-79.1775
 30
0.0
 10
120.8715
 20
-79.9095
 30
0.0
 10
120.6807
 20
-80.8242
 30
0.0
 10
121.4867
 20
-81.5042
 30
0.0
 10
121.4867
 20
-81.5042
 30
0.0
 10
121.4867
 20
-81.5042
 30
0.0
 10
129.814
 20
-89.632
 30
0.0
 10
129.814
 20
-89.632
 30
0.0
 10
129.814
 20
-89.632
 30
0.0
 10
130.3087
 20
-90.1347
 30
0.0
 10
132.0669
 20
-90.0845
 30
0.0
 10
132.0358
 20
-88.5901
 30
0.0
 10
132.0358
 20
-88.5901
 30
0.0
 10
132.0358
 20
-88.5901
 30
0.0
 10
132.0358
 20
-71.8218
 30
0.0
 10
132.0358
 20
-71.8218
 30
0.0
 10
132.0358
 20
-71.8218
 30
0.0
 10
132.098
 20
-70.7546
 30
0.0
 10
131.1138
 20
-69.8759
 30
0.0
 10
130.0064
 20
-70.7534
 30
0.0
  0
SPLINE
  5
7B
330
1F
100
AcDbEntity
  8
layer 1
 62
     7
100
AcDbSpline
210
0.0
220
0.0
230
1.0
 70
    11
 71
     3
 72
    28
 73
    24
 74
     0
 42
0.0000000001
 43
0.0000000001
 12
1.0
 22
0.0
 32
0.0
 13
1.0
 23
0.0
 33
0.0
 40
0.0
 40
0.0
 40
0.0
 40
0.0
 40
0.1428571428571428
 40
0.1428571428571428
 40
0.1428571428571428
 40
0.1428571428571428
 40
0.2857142857142857
 40
0.2857142857142857
 40
0.2857142857142857
 40
0.2857142857142857
 40
0.4285714285714285
 40
0.4285714285714285
 40
0.4285714285714285
 40
0.4285714285714285
 40
0.5714285714285714
 40
0.5714285714285714
 40
0.5714285714285714
 40
0.5714285714285714
 40
0.7142857142857143
 40
0.7142857142857143
 40
0.7142857142857143
 40
0.7142857142857143
 40
1.0
 40
1.0
 40
1.0
 40
1.0
 10
114.8082
 20
-55.1197
 30
0.0
 10
114.8082
 20
-55.1197
 30
0.0
 10
106.3841
 20
-63.5883
 30
0.0
 10
106.3841
 20
-63.5883
 30
0.0
 10
106.3841
 20
-63.5883
 30
0.0
 10
105.6521
 20
-64.2546
 30
0.0
 10
104.7374
 20
-64.4454
 30
0.0
 10
104.0575
 20
-63.6394
 30
0.0
 10
104.0575
 20
-63.6394
 30
0.0
 10
104.0575
 20
-63.6394
 30
0.0
 10
95.9296
 20
-55.3122
 30
0.0
 10
95.9296
 20
-55.3122
 30
0.0
 10
95.9296
 20
-55.3122
 30
0.0
 10
95.4269
 20
-54.8174
 30
0.0
 10
95.477
 20
-53.0593
 30
0.0
 10
96.9715
 20
-53.0903
 30
0.0
 10
96.9715
 20
-53.0903
 30
0.0
 10
96.9715
 20
-53.0903
 30
0.0
 10
113.7398
 20
-53.0903
 30
0.0
 10
113.7398
 20
-53.0903
 30
0.0
 10
113.7398
 20
-53.0903
 30
0.0
 10
114.807
 20
-53.0281
 30
0.0
 10
115.6857
 20
-54.0123
 30
0.0
 10
114.8082
 20
-55.1197
 30
0.0
  0
SPLINE
  5
7C
330
1F
100
AcDbEntity
  8
layer 1
 62
     7
100
AcDbSpline
210
0.0
220
0.0
230
1.0
 70
    11
 71
     3
 72
    28
 73
    24
 74
     0
 42
0.0000000001
 43
0.0000000001
 12
1.0
 22
0.0
 32
0.0
 13
1.0
 23
0.0
 33
0.0
 40
0.0
 40
0.0
 40
0.0
 40
0.0
 40
0.1428571428571428
 40
0.1428571428571428
 40
0.1428571428571428
 40
0.1428571428571428
 40
0.2857142857142857
 40
0.2857142857142857
 40
0.2857142857142857
 40
0.2857142857142857
 40
0.4285714285714285
 40
0.4285714285714285
 40
0.4285714285714285
 40
0.4285714285714285
 40
0.5714285714285714
 40
0.5714285714285714
 40
0.5714285714285714
 40
0.5714285714285714
 40
0.7142857142857143
 40
0.7142857142857143
 40
0.7142857142857143
 40
0.7142857142857143
 40
1.0
 40
1.0
 40
1.0
 40
1.0
 10
114.8082
 20
-105.4425
 30
0.0
 10
114.8082
 20
-105.4425
 30
0.0
 10
106.3841
 20
-96.9739
 30
0.0
 10
106.3841
 20
-96.9739
 30
0.0
 10
106.3841
 20
-96.9739
 30
0.0
 10
105.6521
 20
-96.3076
 30
0.0
 10
104.7374
 20
-96.1168
 30
0.0
 10
104.0575
 20
-96.9228
 30
0.0
 10
104.0575
 20
-96.9228
 30
0.0
 10
104.0575
 20
-96.9228
 30
0.0
 10
95.9296
 20
-105.25
 30
0.0
 10
95.9296
 20
-105.25
 30
0.0
 10
95.9296
 20
-105.25
 30
0.0
 10
95.4269
 20
-105.7448
 30
0.0
 10
95.477
 20
-107.503
 30
0.0
 10
96.9715
 20
-107.4719
 30
0.0
 10
96.9715
 20
-107.4719
 30
0.0
 10
96.9715
 20
-107.4719
 30
0.0
 10
113.7398
 20
-107.4719
 30
0.0
 10
113.7398
 20
-107.4719
 30
0.0
 10
113.7398
 20
-107.4719
 30
0.0
 10
114.807
 20
-107.5341
 30
0.0
 10
115.6857
 20
-106.5499
 30
0.0
 10
114.8082
 20
-105.4425
 30
0.0
  0
SPLINE
  5
7D
330
1F
100
AcDbEntity
  8
layer 1
 62
     7
100
AcDbSpline
210
0.0
220
0.0
230
1.0
 70
    11
 71
     3
 72
    44
 73
    40
 74
     0
 42
0.0000000001
 43
0.0000000001
 12
1.0
 22
0.0
 32
0.0
 13
1.0
 23
0.0
 33
0.0
 40
0.0
 40
0.0
 40
0.0
 40
0.0
 40
0.0909090909090909
 40
0.0909090909090909
 40
0.0909090909090909
 40
0.0909090909090909
 40
0.1818181818181818
 40
0.1818181818181818
 40
0.1818181818181818
 40
0.1818181818181818
 40
0.2727272727272727
 40
0.2727272727272727
 40
0.2727272727272727
 40
0.2727272727272727
 40
0.3636363636363636
 40
0.3636363636363636
 40
0.3636363636363636
 40
0.3636363636363636
 40
0.4545454545454545
 40
0.4545454545454545
 40
0.4545454545454545
 40
0.4545454545454545
 40
0.5454545454545454
 40
0.5454545454545454
 40
0.5454545454545454
 40
0.5454545454545454
 40
0.6363636363636364
 40
0.6363636363636364
 40
0.6363636363636364
 40
0.6363636363636364
 40
0.7272727272727273
 40
0.7272727272727273
 40
0.7272727272727273
 40
0.7272727272727273
 40
0.8181818181818182
 40
0.8181818181818182
 40
0.8181818181818182
 40
0.8181818181818182
 40
1.0
 40
1.0
 40
1.0
 40
1.0
 10
118.7452
 20
-75.713
 30
0.0
 10
118.7452
 20
-75.713
 30
0.0
 10
132.0446
 20
-62.2552
 30
0.0
 10
132.0446
 20
-62.2552
 30
0.0
 10
132.0446
 20
-62.2552
 30
0.0
 10
132.0446
 20
-62.2552
 30
0.0
 10
132.0667
 20
-54.1663
 30
0.0
 10
132.0667
 20
-54.1663
 30
0.0
 10
132.0667
 20
-54.1663
 30
0.0
 10
132.0348
 20
-53.5352
 30
0.0
 10
131.6834
 20
-53.0363
 30
0.0
 10
130.9619
 20
-53.0932
 30
0.0
 10
130.9619
 20
-53.0932
 30
0.0
 10
130.9619
 20
-53.0932
 30
0.0
 10
123.0694
 20
-53.1832
 30
0.0
 10
123.0694
 20
-53.1832
 30
0.0
 10
123.0694
 20
-53.1832
 30
0.0
 10
123.0694
 20
-53.1832
 30
0.0
 10
109.6431
 20
-66.8628
 30
0.0
 10
109.6431
 20
-66.8628
 30
0.0
 10
109.6431
 20
-66.8628
 30
0.0
 10
108.9591
 20
-67.4067
 30
0.0
 10
108.9831
 20
-69.3547
 30
0.0
 10
110.6544
 20
-69.316
 30
0.0
 10
110.6544
 20
-69.316
 30
0.0
 10
110.6544
 20
-69.316
 30
0.0
 10
116.1009
 20
-69.3481
 30
0.0
 10
116.1009
 20
-69.3481
 30
0.0
 10
116.1009
 20
-69.3481
 30
0.0
 10
116.1009
 20
-69.3481
 30
0.0
 10
116.1603
 20
-74.8029
 30
0.0
 10
116.1603
 20
-74.8029
 30
0.0
 10
116.1603
 20
-74.8029
 30
0.0
 10
116.1963
 20
-76.5204
 30
0.0
 10
117.717
 20
-76.7235
 30
0.0
 10
118.7452
 20
-75.7132
 30
0.0
 10
118.7452
 20
-75.7132
 30
0.0
 10
118.7452
 20
-75.7132
 30
0.0
 10
118.7452
 20
-75.713
 30
0.0
 10
118.7452
 20
-75.713
 30
0.0
  0
SPLINE
  5
7E
330
1F
100
AcDbEntity
  8
layer 1
 62
     7
100
AcDbSpline
210
0.0
220
0.0
230
1.0
 70
    11
 71
     3
 72
    44
 73
    40
 74
     0
 42
0.0000000001
 43
0.0000000001
 12
1.0
 22
0.0
 32
0.0
 13
1.0
 23
0.0
 33
0.0
 40
0.0
 40
0.0
 40
0.0
 40
0.0
 40
0.0909090909090909
 40
0.0909090909090909
 40
0.0909090909090909
 40
0.0909090909090909
 40
0.1818181818181818
 40
0.1818181818181818
 40
0.1818181818181818
 40
0.1818181818181818
 40
0.2727272727272727
 40
0.2727272727272727
 40
0.2727272727272727
 40
0.2727272727272727
 40
0.3636363636363636
 40
0.3636363636363636
 40
0.3636363636363636
 40
0.3636363636363636
 40
0.4545454545454545
 40
0.4545454545454545
 40
0.4545454545454545
 40
0.4545454545454545
 40
0.5454545454545454
 40
0.5454545454545454
 40
0.5454545454545454
 40
0.5454545454545454
 40
0.6363636363636364
 40
0.6363636363636364
 40
0.6363636363636364
 40
0.6363636363636364
 40
0.7272727272727273
 40
0.7272727272727273
 40
0.7272727272727273
 40
0.7272727272727273
 40
0.8181818181818182
 40
0.8181818181818182
 40
0.8181818181818182
 40
0.8181818181818182
 40
1.0
 40
1.0
 40
1.0
 40
1.0
 10
91.8462
 20
-75.713
 30
0.0
 10
91.8462
 20
-75.713
 30
0.0
 10
78.5468
 20
-62.2552
 30
0.0
 10
78.5468
 20
-62.2552
 30
0.0
 10
78.5468
 20
-62.2552
 30
0.0
 10
78.5468
 20
-62.2552
 30
0.0
 10
78.5247
 20
-54.1663
 30
0.0
 10
78.5247
 20
-54.1663
 30
0.0
 10
78.5247
 20
-54.1663
 30
0.0
 10
78.5566
 20
-53.5352
 30
0.0
 10
78.908
 20
-53.0363
 30
0.0
 10
79.6295
 20
-53.0932
 30
0.0
 10
79.6295
 20
-53.0932
 30
0.0
 10
79.6295
 20
-53.0932
 30
0.0
 10
87.522
 20
-53.1832
 30
0.0
 10
87.522
 20
-53.1832
 30
0.0
 10
87.522
 20
-53.1832
 30
0.0
 10
87.522
 20
-53.1832
 30
0.0
 10
100.9483
 20
-66.8628
 30
0.0
 10
100.9483
 20
-66.8628
 30
0.0
 10
100.9483
 20
-66.8628
 30
0.0
 10
101.6323
 20
-67.4067
 30
0.0
 10
101.6083
 20
-69.3547
 30
0.0
 10
99.937
 20
-69.316
 30
0.0
 10
99.937
 20
-69.316
 30
0.0
 10
99.937
 20
-69.316
 30
0.0
 10
94.4906
 20
-69.3481
 30
0.0
 10
94.4906
 20
-69.3481
 30
0.0
 10
94.4906
 20
-69.3481
 30
0.0
 10
94.4906
 20
-69.3481
 30
0.0
 10
94.4311
 20
-74.8029
 30
0.0
 10
94.4311
 20
-74.8029
 30
0.0
 10
94.4311
 20
-74.8029
 30
0.0
 10
94.3951
 20
-76.5204
 30
0.0
 10
92.8744
 20
-76.7235
 30
0.0
 10
91.8463
 20
-75.7132
 30
0.0
 10
91.8463
 20
-75.7132
 30
0.0
 10
91.8463
 20
-75.7132
 30
0.0
 10
91.8462
 20
-75.713
 30
0.0
 10
91.8462
 20
-75.713
 30
0.0
  0
SPLINE
  5
7F
330
1F
100
AcDbEntity
  8
layer 1
 62
     7
100
AcDbSpline
210
0.0
220
0.0
230
1.0
 70
    11
 71
     3
 72
    44
 73
    40
 74
     0
 42
0.0000000001
 43
0.0000000001
 12
1.0
 22
0.0
 32
0.0
 13
1.0
 23
0.0
 33
0.0
 40
0.0
 40
0.0
 40
0.0
 40
0.0
 40
0.0909090909090909
 40
0.0909090909090909
 40
0.0909090909090909
 40
0.0909090909090909
 40
0.1818181818181818
 40
0.1818181818181818
 40
0.1818181818181818
 40
0.1818181818181818
 40
0.2727272727272727
 40
0.2727272727272727
 40
0.2727272727272727
 40
0.2727272727272727
 40
0.3636363636363636
 40
0.3636363636363636
 40
0.3636363636363636
 40
0.3636363636363636
 40
0.4545454545454545
 40
0.4545454545454545
 40
0.4545454545454545
 40
0.4545454545454545
 40
0.5454545454545454
 40
0.5454545454545454
 40
0.5454545454545454
 40
0.5454545454545454
 40
0.6363636363636364
 40
0.6363636363636364
 40
0.6363636363636364
 40
0.6363636363636364
 40
0.7272727272727273
 40
0.7272727272727273
 40
0.7272727272727273
 40
0.7272727272727273
 40
0.8181818181818182
 40
0.8181818181818182
 40
0.8181818181818182
 40
0.8181818181818182
 40
1.0
 40
1.0
 40
1.0
 40
1.0
 10
118.7452
 20
-84.9049
 30
0.0
 10
118.7452
 20
-84.9049
 30
0.0
 10
132.0446
 20
-98.3627
 30
0.0
 10
132.0446
 20
-98.3627
 30
0.0
 10
132.0446
 20
-98.3627
 30
0.0
 10
132.0446
 20
-98.3627
 30
0.0
 10
132.0667
 20
-106.4516
 30
0.0
 10
132.0667
 20
-106.4516
 30
0.0
 10
132.0667
 20
-106.4516
 30
0.0
 10
132.0348
 20
-107.0827
 30
0.0
 10
131.6834
 20
-107.5815
 30
0.0
 10
130.9619
 20
-107.5247
 30
0.0
 10
130.9619
 20
-107.5247
 30
0.0
 10
130.9619
 20
-107.5247
 30
0.0
 10
123.0694
 20
-107.4347
 30
0.0
 10
123.0694
 20
-107.4347
 30
0.0
 10
123.0694
 20
-107.4347
 30
0.0
 10
123.0694
 20
-107.4347
 30
0.0
 10
109.6431
 20
-93.7551
 30
0.0
 10
109.6431
 20
-93.7551
 30
0.0
 10
109.6431
 20
-93.7551
 30
0.0
 10
108.9591
 20
-93.2112
 30
0.0
 10
108.9831
 20
-91.2633
 30
0.0
 10
110.6544
 20
-91.3019
 30
0.0
 10
110.6544
 20
-91.3019
 30
0.0
 10
110.6544
 20
-91.3019
 30
0.0
 10
116.1009
 20
-91.2698
 30
0.0
 10
116.1009
 20
-91.2698
 30
0.0
 10
116.1009
 20
-91.2698
 30
0.0
 10
116.1009
 20
-91.2698
 30
0.0
 10
116.1603
 20
-85.815
 30
0.0
 10
116.1603
 20
-85.815
 30
0.0
 10
116.1603
 20
-85.815
 30
0.0
 10
116.1963
 20
-84.0976
 30
0.0
 10
117.717
 20
-83.8945
 30
0.0
 10
118.7452
 20
-84.9049
 30
0.0
 10
118.7452
 20
-84.9049
 30
0.0
 10
118.7452
 20
-84.9049
 30
0.0
 10
118.7452
 20
-84.9049
 30
0.0
 10
118.7452
 20
-84.9049
 30
0.0
  0
SPLINE
  5
80
330
1F
100
AcDbEntity
  8
layer 1
 62
     7
100
AcDbSpline
210
0.0
220
0.0
230
1.0
 70
    11
 71
     3
 72
    44
 73
    40
 74
     0
 42
0.0000000001
 43
0.0000000001
 12
1.0
 22
0.0
 32
0.0
 13
1.0
 23
0.0
 33
0.0
 40
0.0
 40
0.0
 40
0.0
 40
0.0
 40
0.0909090909090909
 40
0.0909090909090909
 40
0.0909090909090909
 40
0.0909090909090909
 40
0.1818181818181818
 40
0.1818181818181818
 40
0.1818181818181818
 40
0.1818181818181818
 40
0.2727272727272727
 40
0.2727272727272727
 40
0.2727272727272727
 40
0.2727272727272727
 40
0.3636363636363636
 40
0.3636363636363636
 40
0.3636363636363636
 40
0.3636363636363636
 40
0.4545454545454545
 40
0.4545454545454545
 40
0.4545454545454545
 40
0.4545454545454545
 40
0.5454545454545454
 40
0.5454545454545454
 40
0.5454545454545454
 40
0.5454545454545454
 40
0.6363636363636364
 40
0.6363636363636364
 40
0.6363636363636364
 40
0.6363636363636364
 40
0.7272727272727273
 40
0.7272727272727273
 40
0.7272727272727273
 40
0.7272727272727273
 40
0.8181818181818182
 40
0.8181818181818182
 40
0.8181818181818182
 40
0.8181818181818182
 40
1.0
 40
1.0
 40
1.0
 40
1.0
 10
91.8462
 20
-84.9049
 30
0.0
 10
91.8462
 20
-84.9049
 30
0.0
 10
78.5468
 20
-98.3627
 30
0.0
 10
78.5468
 20
-98.3627
 30
0.0
 10
78.5468
 20
-98.3627
 30
0.0
 10
78.5468
 20
-98.3627
 30
0.0
 10
78.5247
 20
-106.4516
 30
0.0
 10
78.5247
 20
-106.4516
 30
0.0
 10
78.5247
 20
-106.4516
 30
0.0
 10
78.5566
 20
-107.0827
 30
0.0
 10
78.908
 20
-107.5815
 30
0.0
 10
79.6295
 20
-107.5247
 30
0.0
 10
79.6295
 20
-107.5247
 30
0.0
 10
79.6295
 20
-107.5247
 30
0.0
 10
87.522
 20
-107.4347
 30
0.0
 10
87.522
 20
-107.4347
 30
0.0
 10
87.522
 20
-107.4347
 30
0.0
 10
87.522
 20
-107.4347
 30
0.0
 10
100.9483
 20
-93.7551
 30
0.0
 10
100.9483
 20
-93.7551
 30
0.0
 10
100.9483
 20
-93.7551
 30
0.0
 10
101.6323
 20
-93.2112
 30
0.0
 10
101.6083
 20
-91.2633
 30
0.0
 10
99.937
 20
-91.3019
 30
0.0
 10
99.937
 20
-91.3019
 30
0.0
 10
99.937
 20
-91.3019
 30
0.0
 10
94.4906
 20
-91.2698
 30
0.0
 10
94.4906
 20
-91.2698
 30
0.0
 10
94.4906
 20
-91.2698
 30
0.0
 10
94.4906
 20
-91.2698
 30
0.0
 10
94.4311
 20
-85.815
 30
0.0
 10
94.4311
 20
-85.815
 30
0.0
 10
94.4311
 20
-85.815
 30
0.0
 10
94.3951
 20
-84.0976
 30
0.0
 10
92.8744
 20
-83.8945
 30
0.0
 10
91.8463
 20
-84.9049
 30
0.0
 10
91.8463
 20
-84.9049
 30
0.0
 10
91.8463
 20
-84.9049
 30
0.0
 10
91.8462
 20
-84.9049
 30
0.0
 10
91.8462
 20
-84.9049
 30
0.0
  0
SPLINE
  5
81
330
1F
100
AcDbEntity
  8
layer 1
 62
     7
100
AcDbSpline
210
0.0
220
0.0
230
1.0
 70
    11
 71
     3
 72
   136
 73
   132
 74
     0
 42
0.0000000001
 43
0.0000000001
 12
1.0
 22
0.0
 32
0.0
 13
1.0
 23
0.0
 33
0.0
 40
0.0
 40
0.0
 40
0.0
 40
0.0
 40
0.0294117647058824
 40
0.0294117647058824
 40
0.0294117647058824
 40
0.0294117647058824
 40
0.0588235294117647
 40
0.0588235294117647
 40
0.0588235294117647
 40
0.0588235294117647
 40
0.0882352941176471
 40
0.0882352941176471
 40
0.0882352941176471
 40
0.0882352941176471
 40
0.1176470588235294
 40
0.1176470588235294
 40
0.1176470588235294
 40
0.1176470588235294
 40
0.1470588235294118
 40
0.1470588235294118
 40
0.1470588235294118
 40
0.1470588235294118
 40
0.1764705882352941
 40
0.1764705882352941
 40
0.1764705882352941
 40
0.1764705882352941
 40
0.2058823529411765
 40
0.2058823529411765
 40
0.2058823529411765
 40
0.2058823529411765
 40
0.2352941176470588
 40
0.2352941176470588
 40
0.2352941176470588
 40
0.2352941176470588
 40
0.2647058823529412
 40
0.2647058823529412
 40
0.2647058823529412
 40
0.2647058823529412
 40
0.2941176470588235
 40
0.2941176470588235
 40
0.2941176470588235
 40
0.2941176470588235
 40
0.3235294117647059
 40
0.3235294117647059
 40
0.3235294117647059
 40
0.3235294117647059
 40
0.3529411764705883
 40
0.3529411764705883
 40
0.3529411764705883
 40
0.3529411764705883
 40
0.3823529411764706
 40
0.3823529411764706
 40
0.3823529411764706
 40
0.3823529411764706
 40
0.4117647058823529
 40
0.4117647058823529
 40
0.4117647058823529
 40
0.4117647058823529
 40
0.4411764705882353
 40
0.4411764705882353
 40
0.4411764705882353
 40
0.4411764705882353
 40
0.4705882352941176
 40
0.4705882352941176
 40
0.4705882352941176
 40
0.4705882352941176
 40
0.5
 40
0.5
 40
0.5
 40
0.5
 40
0.5294117647058824
 40
0.5294117647058824
 40
0.5294117647058824
 40
0.5294117647058824
 40
0.5588235294117647
 40
0.5588235294117647
 40
0.5588235294117647
 40
0.5588235294117647
 40
0.5882352941176471
 40
0.5882352941176471
 40
0.5882352941176471
 40
0.5882352941176471
 40
0.6176470588235294
 40
0.6176470588235294
 40
0.6176470588235294
 40
0.6176470588235294
 40
0.6470588235294118
 40
0.6470588235294118
 40
0.6470588235294118
 40
0.6470588235294118
 40
0.6764705882352942
 40
0.6764705882352942
 40
0.6764705882352942
 40
0.6764705882352942
 40
0.7058823529411765
 40
0.7058823529411765
 40
0.7058823529411765
 40
0.7058823529411765
 40
0.7352941176470589
 40
0.7352941176470589
 40
0.7352941176470589
 40
0.7352941176470589
 40
0.7647058823529411
 40
0.7647058823529411
 40
0.7647058823529411
 40
0.7647058823529411
 40
0.7941176470588235
 40
0.7941176470588235
 40
0.7941176470588235
 40
0.7941176470588235
 40
0.8235294117647058
 40
0.8235294117647058
 40
0.8235294117647058
 40
0.8235294117647058
 40
0.8529411764705882
 40
0.8529411764705882
 40
0.8529411764705882
 40
0.8529411764705882
 40
0.8823529411764706
 40
0.8823529411764706
 40
0.8823529411764706
 40
0.8823529411764706
 40
0.9117647058823529
 40
0.9117647058823529
 40
0.9117647058823529
 40
0.9117647058823529
 40
0.9411764705882353
 40
0.9411764705882353
 40
0.9411764705882353
 40
0.9411764705882353
 40
1.0
 40
1.0
 40
1.0
 40
1.0
 10
168.8331
 20
-86.5891
 30
0.0
 10
168.8331
 20
-86.5891
 30
0.0
 10
167.051
 20
-86.5951
 30
0.0
 10
167.051
 20
-86.5951
 30
0.0
 10
167.051
 20
-86.5951
 30
0.0
 10
166.1514
 20
-86.577
 30
0.0
 10
165.9265
 20
-86.7
 30
0.0
 10
165.3238
 20
-87.2986
 30
0.0
 10
165.3238
 20
-87.2986
 30
0.0
 10
165.3238
 20
-87.2986
 30
0.0
 10
164.0324
 20
-88.5813
 30
0.0
 10
164.0324
 20
-88.5813
 30
0.0
 10
164.0324
 20
-88.5813
 30
0.0
 10
163.6051
 20
-89.042
 30
0.0
 10
163.3367
 20
-89.079
 30
0.0
 10
162.8734
 20
-88.5899
 30
0.0
 10
162.8734
 20
-88.5899
 30
0.0
 10
162.8734
 20
-88.5899
 30
0.0
 10
161.5969
 20
-87.322
 30
0.0
 10
161.5969
 20
-87.322
 30
0.0
 10
161.5969
 20
-87.322
 30
0.0
 10
161.0652
 20
-86.6895
 30
0.0
 10
160.7077
 20
-86.5981
 30
0.0
 10
159.8436
 20
-86.5951
 30
0.0
 10
159.8436
 20
-86.5951
 30
0.0
 10
159.8436
 20
-86.5951
 30
0.0
 10
158.0615
 20
-86.5891
 30
0.0
 10
158.0615
 20
-86.5891
 30
0.0
 10
158.0615
 20
-86.5891
 30
0.0
 10
157.3695
 20
-86.6383
 30
0.0
 10
157.2322
 20
-86.5462
 30
0.0
 10
157.2294
 20
-85.7685
 30
0.0
 10
157.2294
 20
-85.7685
 30
0.0
 10
157.2294
 20
-85.7685
 30
0.0
 10
157.2234
 20
-84.0063
 30
0.0
 10
157.2234
 20
-84.0063
 30
0.0
 10
157.2234
 20
-84.0063
 30
0.0
 10
157.2634
 20
-83.1116
 30
0.0
 10
157.0773
 20
-82.8064
 30
0.0
 10
156.434
 20
-82.1587
 30
0.0
 10
156.434
 20
-82.1587
 30
0.0
 10
156.434
 20
-82.1587
 30
0.0
 10
155.2304
 20
-80.9468
 30
0.0
 10
155.2304
 20
-80.9468
 30
0.0
 10
155.2304
 20
-80.9468
 30
0.0
 10
154.7375
 20
-80.4172
 30
0.0
 10
154.9081
 20
-80.1289
 30
0.0
 10
155.2224
 20
-79.8009
 30
0.0
 10
155.2224
 20
-79.8009
 30
0.0
 10
155.2224
 20
-79.8009
 30
0.0
 10
156.4212
 20
-78.594
 30
0.0
 10
156.4212
 20
-78.594
 30
0.0
 10
156.4212
 20
-78.594
 30
0.0
 10
157.092
 20
-78.0843
 30
0.0
 10
157.26
 20
-77.5041
 30
0.0
 10
157.2236
 20
-76.7098
 30
0.0
 10
157.2236
 20
-76.7098
 30
0.0
 10
157.2236
 20
-76.7098
 30
0.0
 10
157.2295
 20
-74.9673
 30
0.0
 10
157.2295
 20
-74.9673
 30
0.0
 10
157.2295
 20
-74.9673
 30
0.0
 10
157.1934
 20
-74.2591
 30
0.0
 10
157.5122
 20
-74.1242
 30
0.0
 10
158.0219
 20
-74.1507
 30
0.0
 10
158.0219
 20
-74.1507
 30
0.0
 10
158.0219
 20
-74.1507
 30
0.0
 10
159.814
 20
-74.1446
 30
0.0
 10
159.814
 20
-74.1446
 30
0.0
 10
159.814
 20
-74.1446
 30
0.0
 10
160.6986
 20
-74.1242
 30
0.0
 10
160.97
 20
-74.0403
 30
0.0
 10
161.5888
 20
-73.4257
 30
0.0
 10
161.5888
 20
-73.4257
 30
0.0
 10
161.5888
 20
-73.4257
 30
0.0
 10
162.8852
 20
-72.1381
 30
0.0
 10
162.8852
 20
-72.1381
 30
0.0
 10
162.8852
 20
-72.1381
 30
0.0
 10
163.4013
 20
-71.7314
 30
0.0
 10
163.7061
 20
-71.8161
 30
0.0
 10
164.0306
 20
-72.1565
 30
0.0
 10
164.0306
 20
-72.1565
 30
0.0
 10
164.0306
 20
-72.1565
 30
0.0
 10
165.327
 20
-73.444
 30
0.0
 10
165.327
 20
-73.444
 30
0.0
 10
165.327
 20
-73.444
 30
0.0
 10
165.7783
 20
-73.9758
 30
0.0
 10
166.2108
 20
-74.1416
 30
0.0
 10
167.0609
 20
-74.1445
 30
0.0
 10
167.0609
 20
-74.1445
 30
0.0
 10
167.0609
 20
-74.1445
 30
0.0
 10
168.843
 20
-74.1506
 30
0.0
 10
168.843
 20
-74.1506
 30
0.0
 10
168.843
 20
-74.1506
 30
0.0
 10
169.5291
 20
-74.1241
 30
0.0
 10
169.6254
 20
-74.3936
 30
0.0
 10
169.6678
 20
-74.9673
 30
0.0
 10
169.6678
 20
-74.9673
 30
0.0
 10
169.6678
 20
-74.9673
 30
0.0
 10
169.6738
 20
-76.6998
 30
0.0
 10
169.6738
 20
-76.6998
 30
0.0
 10
169.6738
 20
-76.6998
 30
0.0
 10
169.6165
 20
-77.5468
 30
0.0
 10
169.7925
 20
-77.9055
 30
0.0
 10
170.4354
 20
-78.5528
 30
0.0
 10
170.4354
 20
-78.5528
 30
0.0
 10
170.4354
 20
-78.5528
 30
0.0
 10
171.6738
 20
-79.7997
 30
0.0
 10
171.6738
 20
-79.7997
 30
0.0
 10
171.6738
 20
-79.7997
 30
0.0
 10
172.0543
 20
-80.1764
 30
0.0
 10
172.1438
 20
-80.4462
 30
0.0
 10
171.6754
 20
-80.9382
 30
0.0
 10
171.6754
 20
-80.9382
 30
0.0
 10
171.6754
 20
-80.9382
 30
0.0
 10
170.4371
 20
-82.185
 30
0.0
 10
170.4371
 20
-82.185
 30
0.0
 10
170.4371
 20
-82.185
 30
0.0
 10
169.7843
 20
-82.7668
 30
0.0
 10
169.6768
 20
-83.1247
 30
0.0
 10
169.6737
 20
-84.0361
 30
0.0
 10
169.6737
 20
-84.0361
 30
0.0
 10
169.6737
 20
-84.0361
 30
0.0
 10
169.6678
 20
-85.7587
 30
0.0
 10
169.6678
 20
-85.7587
 30
0.0
 10
169.6678
 20
-85.7587
 30
0.0
 10
169.6898
 20
-86.309
 30
0.0
 10
169.536
 20
-86.6061
 30
0.0
 10
168.8331
 20
-86.5891
 30
0.0
 10
168.8331
 20
-86.5891
 30
0.0
 10
168.8331
 20
-86.5891
 30
0.0
 10
168.8331
 20
-86.5891
 30
0.0
 10
168.8331
 20
-86.5891
 30
0.0
  0
SPLINE
  5
82
330
1F
100
AcDbEntity
  8
layer 1
 62
     7
100
AcDbSpline
210
0.0
220
0.0
230
1.0
 70
    11
 71
     3
 72
    28
 73
    24
 74
     0
 42
0.0000000001
 43
0.0000000001
 12
1.0
 22
0.0
 32
0.0
 13
1.0
 23
0.0
 33
0.0
 40
0.0
 40
0.0
 40
0.0
 40
0.0
 40
0.1428571428571428
 40
0.1428571428571428
 40
0.1428571428571428
 40
0.1428571428571428
 40
0.2857142857142857
 40
0.2857142857142857
 40
0.2857142857142857
 40
0.2857142857142857
 40
0.4285714285714285
 40
0.4285714285714285
 40
0.4285714285714285
 40
0.4285714285714285
 40
0.5714285714285714
 40
0.5714285714285714
 40
0.5714285714285714
 40
0.5714285714285714
 40
0.7142857142857143
 40
0.7142857142857143
 40
0.7142857142857143
 40
0.7142857142857143
 40
1.0
 40
1.0
 40
1.0
 40
1.0
 10
138.6759
 20
-70.7534
 30
0.0
 10
138.6759
 20
-70.7534
 30
0.0
 10
147.1444
 20
-79.1775
 30
0.0
 10
147.1444
 20
-79.1775
 30
0.0
 10
147.1444
 20
-79.1775
 30
0.0
 10
147.8107
 20
-79.9095
 30
0.0
 10
148.0015
 20
-80.8242
 30
0.0
 10
147.1955
 20
-81.5042
 30
0.0
 10
147.1955
 20
-81.5042
 30
0.0
 10
147.1955
 20
-81.5042
 30
0.0
 10
138.8683
 20
-89.632
 30
0.0
 10
138.8683
 20
-89.632
 30
0.0
 10
138.8683
 20
-89.632
 30
0.0
 10
138.3735
 20
-90.1347
 30
0.0
 10
136.6154
 20
-90.0845
 30
0.0
 10
136.6464
 20
-88.5901
 30
0.0
 10
136.6464
 20
-88.5901
 30
0.0
 10
136.6464
 20
-88.5901
 30
0.0
 10
136.6464
 20
-71.8218
 30
0.0
 10
136.6464
 20
-71.8218
 30
0.0
 10
136.6464
 20
-71.8218
 30
0.0
 10
136.5842
 20
-70.7546
 30
0.0
 10
137.5685
 20
-69.8759
 30
0.0
 10
138.6759
 20
-70.7534
 30
0.0
  0
SPLINE
  5
83
330
1F
100
AcDbEntity
  8
layer 1
 62
     7
100
AcDbSpline
210
0.0
220
0.0
230
1.0
 70
    11
 71
     3
 72
    28
 73
    24
 74
     0
 42
0.0000000001
 43
0.0000000001
 12
1.0
 22
0.0
 32
0.0
 13
1.0
 23
0.0
 33
0.0
 40
0.0
 40
0.0
 40
0.0
 40
0.0
 40
0.1428571428571428
 40
0.1428571428571428
 40
0.1428571428571428
 40
0.1428571428571428
 40
0.2857142857142857
 40
0.2857142857142857
 40
0.2857142857142857
 40
0.2857142857142857
 40
0.4285714285714285
 40
0.4285714285714285
 40
0.4285714285714285
 40
0.4285714285714285
 40
0.5714285714285714
 40
0.5714285714285714
 40
0.5714285714285714
 40
0.5714285714285714
 40
0.7142857142857143
 40
0.7142857142857143
 40
0.7142857142857143
 40
0.7142857142857143
 40
1.0
 40
1.0
 40
1.0
 40
1.0
 10
188.1276
 20
-70.7534
 30
0.0
 10
188.1276
 20
-70.7534
 30
0.0
 10
179.659
 20
-79.1775
 30
0.0
 10
179.659
 20
-79.1775
 30
0.0
 10
179.659
 20
-79.1775
 30
0.0
 10
178.9927
 20
-79.9095
 30
0.0
 10
178.8019
 20
-80.8242
 30
0.0
 10
179.6079
 20
-81.5042
 30
0.0
 10
179.6079
 20
-81.5042
 30
0.0
 10
179.6079
 20
-81.5042
 30
0.0
 10
187.9351
 20
-89.632
 30
0.0
 10
187.9351
 20
-89.632
 30
0.0
 10
187.9351
 20
-89.632
 30
0.0
 10
188.4299
 20
-90.1347
 30
0.0
 10
190.188
 20
-90.0845
 30
0.0
 10
190.157
 20
-88.5901
 30
0.0
 10
190.157
 20
-88.5901
 30
0.0
 10
190.157
 20
-88.5901
 30
0.0
 10
190.157
 20
-71.8218
 30
0.0
 10
190.157
 20
-71.8218
 30
0.0
 10
190.157
 20
-71.8218
 30
0.0
 10
190.2192
 20
-70.7546
 30
0.0
 10
189.235
 20
-69.8759
 30
0.0
 10
188.1276
 20
-70.7534
 30
0.0
  0
SPLINE
  5
84
330
1F
100
AcDbEntity
  8
layer 1
 62
     7
100
AcDbSpline
210
0.0
220
0.0
230
1.0
 70
    11
 71
     3
 72
    28
 73
    24
 74
     0
 42
0.0000000001
 43
0.0000000001
 12
1.0
 22
0.0
 32
0.0
 13
1.0
 23
0.0
 33
0.0
 40
0.0
 40
0.0
 40
0.0
 40
0.0
 40
0.1428571428571428
 40
0.1428571428571428
 40
0.1428571428571428
 40
0.1428571428571428
 40
0.2857142857142857
 40
0.2857142857142857
 40
0.2857142857142857
 40
0.2857142857142857
 40
0.4285714285714285
 40
0.4285714285714285
 40
0.4285714285714285
 40
0.4285714285714285
 40
0.5714285714285714
 40
0.5714285714285714
 40
0.5714285714285714
 40
0.5714285714285714
 40
0.7142857142857143
 40
0.7142857142857143
 40
0.7142857142857143
 40
0.7142857142857143
 40
1.0
 40
1.0
 40
1.0
 40
1.0
 10
172.9294
 20
-55.1197
 30
0.0
 10
172.9294
 20
-55.1197
 30
0.0
 10
164.5053
 20
-63.5883
 30
0.0
 10
164.5053
 20
-63.5883
 30
0.0
 10
164.5053
 20
-63.5883
 30
0.0
 10
163.7733
 20
-64.2546
 30
0.0
 10
162.8586
 20
-64.4454
 30
0.0
 10
162.1786
 20
-63.6394
 30
0.0
 10
162.1786
 20
-63.6394
 30
0.0
 10
162.1786
 20
-63.6394
 30
0.0
 10
154.0508
 20
-55.3122
 30
0.0
 10
154.0508
 20
-55.3122
 30
0.0
 10
154.0508
 20
-55.3122
 30
0.0
 10
153.5481
 20
-54.8174
 30
0.0
 10
153.5982
 20
-53.0593
 30
0.0
 10
155.0927
 20
-53.0903
 30
0.0
 10
155.0927
 20
-53.0903
 30
0.0
 10
155.0927
 20
-53.0903
 30
0.0
 10
171.861
 20
-53.0903
 30
0.0
 10
171.861
 20
-53.0903
 30
0.0
 10
171.861
 20
-53.0903
 30
0.0
 10
172.9282
 20
-53.0281
 30
0.0
 10
173.8069
 20
-54.0123
 30
0.0
 10
172.9294
 20
-55.1197
 30
0.0
  0
SPLINE
  5
85
330
1F
100
AcDbEntity
  8
layer 1
 62
     7
100
AcDbSpline
210
0.0
220
0.0
230
1.0
 70
    11
 71
     3
 72
    28
 73
    24
 74
     0
 42
0.0000000001
 43
0.0000000001
 12
1.0
 22
0.0
 32
0.0
 13
1.0
 23
0.0
 33
0.0
 40
0.0
 40
0.0
 40
0.0
 40
0.0
 40
0.1428571428571428
 40
0.1428571428571428
 40
0.1428571428571428
 40
0.1428571428571428
 40
0.2857142857142857
 40
0.2857142857142857
 40
0.2857142857142857
 40
0.2857142857142857
 40
0.4285714285714285
 40
0.4285714285714285
 40
0.4285714285714285
 40
0.4285714285714285
 40
0.5714285714285714
 40
0.5714285714285714
 40
0.5714285714285714
 40
0.5714285714285714
 40
0.7142857142857143
 40
0.7142857142857143
 40
0.7142857142857143
 40
0.7142857142857143
 40
1.0
 40
1.0
 40
1.0
 40
1.0
 10
172.9294
 20
-105.4425
 30
0.0
 10
172.9294
 20
-105.4425
 30
0.0
 10
164.5053
 20
-96.9739
 30
0.0
 10
164.5053
 20
-96.9739
 30
0.0
 10
164.5053
 20
-96.9739
 30
0.0
 10
163.7733
 20
-96.3076
 30
0.0
 10
162.8586
 20
-96.1168
 30
0.0
 10
162.1786
 20
-96.9228
 30
0.0
 10
162.1786
 20
-96.9228
 30
0.0
 10
162.1786
 20
-96.9228
 30
0.0
 10
154.0508
 20
-105.25
 30
0.0
 10
154.0508
 20
-105.25
 30
0.0
 10
154.0508
 20
-105.25
 30
0.0
 10
153.5481
 20
-105.7448
 30
0.0
 10
153.5982
 20
-107.503
 30
0.0
 10
155.0927
 20
-107.4719
 30
0.0
 10
155.0927
 20
-107.4719
 30
0.0
 10
155.0927
 20
-107.4719
 30
0.0
 10
171.861
 20
-107.4719
 30
0.0
 10
171.861
 20
-107.4719
 30
0.0
 10
171.861
 20
-107.4719
 30
0.0
 10
172.9282
 20
-107.5341
 30
0.0
 10
173.8069
 20
-106.5499
 30
0.0
 10
172.9294
 20
-105.4425
 30
0.0
  0
SPLINE
  5
86
330
1F
100
AcDbEntity
  8
layer 1
 62
     7
100
AcDbSpline
210
0.0
220
0.0
230
1.0
 70
    11
 71
     3
 72
    44
 73
    40
 74
     0
 42
0.0000000001
 43
0.0000000001
 12
1.0
 22
0.0
 32
0.0
 13
1.0
 23
0.0
 33
0.0
 40
0.0
 40
0.0
 40
0.0
 40
0.0
 40
0.0909090909090909
 40
0.0909090909090909
 40
0.0909090909090909
 40
0.0909090909090909
 40
0.1818181818181818
 40
0.1818181818181818
 40
0.1818181818181818
 40
0.1818181818181818
 40
0.2727272727272727
 40
0.2727272727272727
 40
0.2727272727272727
 40
0.2727272727272727
 40
0.3636363636363636
 40
0.3636363636363636
 40
0.3636363636363636
 40
0.3636363636363636
 40
0.4545454545454545
 40
0.4545454545454545
 40
0.4545454545454545
 40
0.4545454545454545
 40
0.5454545454545454
 40
0.5454545454545454
 40
0.5454545454545454
 40
0.5454545454545454
 40
0.6363636363636364
 40
0.6363636363636364
 40
0.6363636363636364
 40
0.6363636363636364
 40
0.7272727272727273
 40
0.7272727272727273
 40
0.7272727272727273
 40
0.7272727272727273
 40
0.8181818181818182
 40
0.8181818181818182
 40
0.8181818181818182
 40
0.8181818181818182
 40
1.0
 40
1.0
 40
1.0
 40
1.0
 10
176.8664
 20
-75.713
 30
0.0
 10
176.8664
 20
-75.713
 30
0.0
 10
190.1658
 20
-62.2552
 30
0.0
 10
190.1658
 20
-62.2552
 30
0.0
 10
190.1658
 20
-62.2552
 30
0.0
 10
190.1658
 20
-62.2552
 30
0.0
 10
190.1879
 20
-54.1663
 30
0.0
 10
190.1879
 20
-54.1663
 30
0.0
 10
190.1879
 20
-54.1663
 30
0.0
 10
190.1559
 20
-53.5352
 30
0.0
 10
189.8045
 20
-53.0363
 30
0.0
 10
189.0831
 20
-53.0932
 30
0.0
 10
189.0831
 20
-53.0932
 30
0.0
 10
189.0831
 20
-53.0932
 30
0.0
 10
181.1906
 20
-53.1832
 30
0.0
 10
181.1906
 20
-53.1832
 30
0.0
 10
181.1906
 20
-53.1832
 30
0.0
 10
181.1906
 20
-53.1832
 30
0.0
 10
167.7643
 20
-66.8628
 30
0.0
 10
167.7643
 20
-66.8628
 30
0.0
 10
167.7643
 20
-66.8628
 30
0.0
 10
167.0803
 20
-67.4067
 30
0.0
 10
167.1043
 20
-69.3547
 30
0.0
 10
168.7755
 20
-69.316
 30
0.0
 10
168.7755
 20
-69.316
 30
0.0
 10
168.7755
 20
-69.316
 30
0.0
 10
174.222
 20
-69.3481
 30
0.0
 10
174.222
 20
-69.3481
 30
0.0
 10
174.222
 20
-69.3481
 30
0.0
 10
174.222
 20
-69.3481
 30
0.0
 10
174.2815
 20
-74.8029
 30
0.0
 10
174.2815
 20
-74.8029
 30
0.0
 10
174.2815
 20
-74.8029
 30
0.0
 10
174.3174
 20
-76.5204
 30
0.0
 10
175.8381
 20
-76.7235
 30
0.0
 10
176.8663
 20
-75.7132
 30
0.0
 10
176.8663
 20
-75.7132
 30
0.0
 10
176.8663
 20
-75.7132
 30
0.0
 10
176.8664
 20
-75.713
 30
0.0
 10
176.8664
 20
-75.713
 30
0.0
  0
SPLINE
  5
87
330
1F
100
AcDbEntity
  8
layer 1
 62
     7
100
AcDbSpline
210
0.0
220
0.0
230
1.0
 70
    11
 71
     3
 72
    44
 73
    40
 74
     0
 42
0.0000000001
 43
0.0000000001
 12
1.0
 22
0.0
 32
0.0
 13
1.0
 23
0.0
 33
0.0
 40
0.0
 40
0.0
 40
0.0
 40
0.0
 40
0.0909090909090909
 40
0.0909090909090909
 40
0.0909090909090909
 40
0.0909090909090909
 40
0.1818181818181818
 40
0.1818181818181818
 40
0.1818181818181818
 40
0.1818181818181818
 40
0.2727272727272727
 40
0.2727272727272727
 40
0.2727272727272727
 40
0.2727272727272727
 40
0.3636363636363636
 40
0.3636363636363636
 40
0.3636363636363636
 40
0.3636363636363636
 40
0.4545454545454545
 40
0.4545454545454545
 40
0.4545454545454545
 40
0.4545454545454545
 40
0.5454545454545454
 40
0.5454545454545454
 40
0.5454545454545454
 40
0.5454545454545454
 40
0.6363636363636364
 40
0.6363636363636364
 40
0.6363636363636364
 40
0.6363636363636364
 40
0.7272727272727273
 40
0.7272727272727273
 40
0.7272727272727273
 40
0.7272727272727273
 40
0.8181818181818182
 40
0.8181818181818182
 40
0.8181818181818182
 40
0.8181818181818182
 40
1.0
 40
1.0
 40
1.0
 40
1.0
 10
149.9673
 20
-75.713
 30
0.0
 10
149.9673
 20
-75.713
 30
0.0
 10
136.6679
 20
-62.2552
 30
0.0
 10
136.6679
 20
-62.2552
 30
0.0
 10
136.6679
 20
-62.2552
 30
0.0
 10
136.6679
 20
-62.2552
 30
0.0
 10
136.6459
 20
-54.1663
 30
0.0
 10
136.6459
 20
-54.1663
 30
0.0
 10
136.6459
 20
-54.1663
 30
0.0
 10
136.6778
 20
-53.5352
 30
0.0
 10
137.0292
 20
-53.0363
 30
0.0
 10
137.7507
 20
-53.0932
 30
0.0
 10
137.7507
 20
-53.0932
 30
0.0
 10
137.7507
 20
-53.0932
 30
0.0
 10
145.6432
 20
-53.1832
 30
0.0
 10
145.6432
 20
-53.1832
 30
0.0
 10
145.6432
 20
-53.1832
 30
0.0
 10
145.6432
 20
-53.1832
 30
0.0
 10
159.0695
 20
-66.8628
 30
0.0
 10
159.0695
 20
-66.8628
 30
0.0
 10
159.0695
 20
-66.8628
 30
0.0
 10
159.7535
 20
-67.4067
 30
0.0
 10
159.7294
 20
-69.3547
 30
0.0
 10
158.0582
 20
-69.316
 30
0.0
 10
158.0582
 20
-69.316
 30
0.0
 10
158.0582
 20
-69.316
 30
0.0
 10
152.6117
 20
-69.3481
 30
0.0
 10
152.6117
 20
-69.3481
 30
0.0
 10
152.6117
 20
-69.3481
 30
0.0
 10
152.6117
 20
-69.3481
 30
0.0
 10
152.5523
 20
-74.8029
 30
0.0
 10
152.5523
 20
-74.8029
 30
0.0
 10
152.5523
 20
-74.8029
 30
0.0
 10
152.5163
 20
-76.5204
 30
0.0
 10
150.9956
 20
-76.7235
 30
0.0
 10
149.9674
 20
-75.7132
 30
0.0
 10
149.9674
 20
-75.7132
 30
0.0
 10
149.9674
 20
-75.7132
 30
0.0
 10
149.9673
 20
-75.713
 30
0.0
 10
149.9673
 20
-75.713
 30
0.0
  0
SPLINE
  5
88
330
1F
100
AcDbEntity
  8
layer 1
 62
     7
100
AcDbSpline
210
0.0
220
0.0
230
1.0
 70
    11
 71
     3
 72
    44
 73
    40
 74
     0
 42
0.0000000001
 43
0.0000000001
 12
1.0
 22
0.0
 32
0.0
 13
1.0
 23
0.0
 33
0.0
 40
0.0
 40
0.0
 40
0.0
 40
0.0
 40
0.0909090909090909
 40
0.0909090909090909
 40
0.0909090909090909
 40
0.0909090909090909
 40
0.1818181818181818
 40
0.1818181818181818
 40
0.1818181818181818
 40
0.1818181818181818
 40
0.2727272727272727
 40
0.2727272727272727
 40
0.2727272727272727
 40
0.2727272727272727
 40
0.3636363636363636
 40
0.3636363636363636
 40
0.3636363636363636
 40
0.3636363636363636
 40
0.4545454545454545
 40
0.4545454545454545
 40
0.4545454545454545
 40
0.4545454545454545
 40
0.5454545454545454
 40
0.5454545454545454
 40
0.5454545454545454
 40
0.5454545454545454
 40
0.6363636363636364
 40
0.6363636363636364
 40
0.6363636363636364
 40
0.6363636363636364
 40
0.7272727272727273
 40
0.7272727272727273
 40
0.7272727272727273
 40
0.7272727272727273
 40
0.8181818181818182
 40
0.8181818181818182
 40
0.8181818181818182
 40
0.8181818181818182
 40
1.0
 40
1.0
 40
1.0
 40
1.0
 10
176.8664
 20
-84.9049
 30
0.0
 10
176.8664
 20
-84.9049
 30
0.0
 10
190.1658
 20
-98.3627
 30
0.0
 10
190.1658
 20
-98.3627
 30
0.0
 10
190.1658
 20
-98.3627
 30
0.0
 10
190.1658
 20
-98.3627
 30
0.0
 10
190.1879
 20
-106.4516
 30
0.0
 10
190.1879
 20
-106.4516
 30
0.0
 10
190.1879
 20
-106.4516
 30
0.0
 10
190.1559
 20
-107.0827
 30
0.0
 10
189.8045
 20
-107.5815
 30
0.0
 10
189.0831
 20
-107.5247
 30
0.0
 10
189.0831
 20
-107.5247
 30
0.0
 10
189.0831
 20
-107.5247
 30
0.0
 10
181.1906
 20
-107.4347
 30
0.0
 10
181.1906
 20
-107.4347
 30
0.0
 10
181.1906
 20
-107.4347
 30
0.0
 10
181.1906
 20
-107.4347
 30
0.0
 10
167.7643
 20
-93.7551
 30
0.0
 10
167.7643
 20
-93.7551
 30
0.0
 10
167.7643
 20
-93.7551
 30
0.0
 10
167.0803
 20
-93.2112
 30
0.0
 10
167.1043
 20
-91.2633
 30
0.0
 10
168.7755
 20
-91.3019
 30
0.0
 10
168.7755
 20
-91.3019
 30
0.0
 10
168.7755
 20
-91.3019
 30
0.0
 10
174.222
 20
-91.2698
 30
0.0
 10
174.222
 20
-91.2698
 30
0.0
 10
174.222
 20
-91.2698
 30
0.0
 10
174.222
 20
-91.2698
 30
0.0
 10
174.2815
 20
-85.815
 30
0.0
 10
174.2815
 20
-85.815
 30
0.0
 10
174.2815
 20
-85.815
 30
0.0
 10
174.3174
 20
-84.0976
 30
0.0
 10
175.8381
 20
-83.8945
 30
0.0
 10
176.8663
 20
-84.9049
 30
0.0
 10
176.8663
 20
-84.9049
 30
0.0
 10
176.8663
 20
-84.9049
 30
0.0
 10
176.8664
 20
-84.9049
 30
0.0
 10
176.8664
 20
-84.9049
 30
0.0
  0
SPLINE
  5
89
330
1F
100
AcDbEntity
  8
layer 1
 62
     7
100
AcDbSpline
210
0.0
220
0.0
230
1.0
 70
    11
 71
     3
 72
    44
 73
    40
 74
     0
 42
0.0000000001
 43
0.0000000001
 12
1.0
 22
0.0
 32
0.0
 13
1.0
 23
0.0
 33
0.0
 40
0.0
 40
0.0
 40
0.0
 40
0.0
 40
0.0909090909090909
 40
0.0909090909090909
 40
0.0909090909090909
 40
0.0909090909090909
 40
0.1818181818181818
 40
0.1818181818181818
 40
0.1818181818181818
 40
0.1818181818181818
 40
0.2727272727272727
 40
0.2727272727272727
 40
0.2727272727272727
 40
0.2727272727272727
 40
0.3636363636363636
 40
0.3636363636363636
 40
0.3636363636363636
 40
0.3636363636363636
 40
0.4545454545454545
 40
0.4545454545454545
 40
0.4545454545454545
 40
0.4545454545454545
 40
0.5454545454545454
 40
0.5454545454545454
 40
0.5454545454545454
 40
0.5454545454545454
 40
0.6363636363636364
 40
0.6363636363636364
 40
0.6363636363636364
 40
0.6363636363636364
 40
0.7272727272727273
 40
0.7272727272727273
 40
0.7272727272727273
 40
0.7272727272727273
 40
0.8181818181818182
 40
0.8181818181818182
 40
0.8181818181818182
 40
0.8181818181818182
 40
1.0
 40
1.0
 40
1.0
 40
1.0
 10
149.9673
 20
-84.9049
 30
0.0
 10
149.9673
 20
-84.9049
 30
0.0
 10
136.6679
 20
-98.3627
 30
0.0
 10
136.6679
 20
-98.3627
 30
0.0
 10
136.6679
 20
-98.3627
 30
0.0
 10
136.6679
 20
-98.3627
 30
0.0
 10
136.6459
 20
-106.4516
 30
0.0
 10
136.6459
 20
-106.4516
 30
0.0
 10
136.6459
 20
-106.4516
 30
0.0
 10
136.6778
 20
-107.0827
 30
0.0
 10
137.0292
 20
-107.5815
 30
0.0
 10
137.7507
 20
-107.5247
 30
0.0
 10
137.7507
 20
-107.5247
 30
0.0
 10
137.7507
 20
-107.5247
 30
0.0
 10
145.6432
 20
-107.4347
 30
0.0
 10
145.6432
 20
-107.4347
 30
0.0
 10
145.6432
 20
-107.4347
 30
0.0
 10
145.6432
 20
-107.4347
 30
0.0
 10
159.0695
 20
-93.7551
 30
0.0
 10
159.0695
 20
-93.7551
 30
0.0
 10
159.0695
 20
-93.7551
 30
0.0
 10
159.7535
 20
-93.2112
 30
0.0
 10
159.7294
 20
-91.2633
 30
0.0
 10
158.0582
 20
-91.3019
 30
0.0
 10
158.0582
 20
-91.3019
 30
0.0
 10
158.0582
 20
-91.3019
 30
0.0
 10
152.6117
 20
-91.2698
 30
0.0
 10
152.6117
 20
-91.2698
 30
0.0
 10
152.6117
 20
-91.2698
 30
0.0
 10
152.6117
 20
-91.2698
 30
0.0
 10
152.5523
 20
-85.815
 30
0.0
 10
152.5523
 20
-85.815
 30
0.0
 10
152.5523
 20
-85.815
 30
0.0
 10
152.5163
 20
-84.0976
 30
0.0
 10
150.9956
 20
-83.8945
 30
0.0
 10
149.9674
 20
-84.9049
 30
0.0
 10
149.9674
 20
-84.9049
 30
0.0
 10
149.9674
 20
-84.9049
 30
0.0
 10
149.9673
 20
-84.9049
 30
0.0
 10
149.9673
 20
-84.9049
 30
0.0
  0
ENDSEC
  0
SECTION
  2
OBJECTS
  0
DICTIONARY
  5
C
330
0
100
AcDbDictionary
281
     1
  3
ACAD_GROUP
350
D
  3
ACAD_LAYOUT
350
1A
  3
ACAD_MATERIAL
350
3B
  3
ACAD_MLEADERSTYLE
350
AB
  3
ACAD_MLINESTYLE
350
17
  3
ACAD_PLOTSETTINGS
350
19
  3
ACAD_PLOTSTYLENAME
350
E
  3
ACAD_TABLESTYLE
350
AA
  3
ACAD_VISUALSTYLE
350
2A
  0
DICTIONARY
  5
D
102
{ACAD_REACTORS
330
C
102
}
330
C
100
AcDbDictionary
281
     1
  0
DICTIONARY
  5
1A
102
{ACAD_REACTORS
330
C
102
}
330
C
100
AcDbDictionary
281
     1
  3
Layout1
350
1E
  3
Layout2
350
26
  3
Model
350
22
  0
DICTIONARY
  5
3B
102
{ACAD_REACTORS
330
C
102
}
330
C
100
AcDbDictionary
281
     1
  3
ByBlock
350
3D
  3
ByLayer
350
3C
  3
Global
350
3E
  0
DICTIONARY
  5
AB
102
{ACAD_REACTORS
330
C
102
}
330
C
100
AcDbDictionary
281
     1
  0
DICTIONARY
  5
17
102
{ACAD_REACTORS
330
C
102
}
330
C
100
AcDbDictionary
281
     1
  3
Standard
350
18
  0
DICTIONARY
  5
19
102
{ACAD_REACTORS
330
C
102
}
330
C
100
AcDbDictionary
281
     1
  0
ACDBDICTIONARYWDFLT
  5
E
102
{ACAD_REACTORS
330
C
102
}
330
C
100
AcDbDictionary
281
     1
  3
Normal
350
F
100
AcDbDictionaryWithDefault
340
F
  0
DICTIONARY
  5
AA
102
{ACAD_REACTORS
330
C
102
}
330
C
100
AcDbDictionary
281
     1
  0
DICTIONARY
  5
2A
102
{ACAD_REACTORS
330
C
102
}
330
C
100
AcDbDictionary
281
     1
  3
2dWireframe
350
2F
  3
3D Hidden
350
31
  3
3dWireframe
350
30
  3
Basic
350
32
  3
Brighten
350
36
  3
ColorChange
350
3A
  3
Conceptual
350
34
  3
Dim
350
35
  3
Facepattern
350
39
  3
Flat
350
2B
  3
FlatWithEdges
350
2C
  3
Gouraud
350
2D
  3
GouraudWithEdges
350
2E
  3
Linepattern
350
38
  3
Realistic
350
33
  3
Thicken
350
37
  0
LAYOUT
  5
1E
102
{ACAD_REACTORS
330
1A
102
}
330
1A
100
AcDbPlotSettings
  1

  2
none_device
  4

  6

 40
0.0
 41
0.0
 42
0.0
 43
0.0
 44
0.0
 45
0.0
 46
0.0
 47
0.0
 48
0.0
 49
0.0
140
0.0
141
0.0
142
1.0
143
1.0
 70
   688
 72
     0
 73
     0
 74
     5
  7

 75
    16
 76
     0
 77
     2
 78
   300
147
1.0
148
0.0
149
0.0
100
AcDbLayout
  1
Layout1
 70
     1
 71
     1
 10
0.0
 20
0.0
 11
12.0
 21
9.0
 12
0.0
 22
0.0
 32
0.0
 14
1.000000000000000E+20
 24
1.000000000000000E+20
 34
1.000000000000000E+20
 15
-1.000000000000000E+20
 25
-1.000000000000000E+20
 35
-1.000000000000000E+20
146
0.0
 13
0.0
 23
0.0
 33
0.0
 16
1.0
 26
0.0
 36
0.0
 17
0.0
 27
1.0
 37
0.0
 76
     0
330
1B
  0
LAYOUT
  5
26
102
{ACAD_REACTORS
330
1A
102
}
330
1A
100
AcDbPlotSettings
  1

  2
none_device
  4

  6

 40
0.0
 41
0.0
 42
0.0
 43
0.0
 44
0.0
 45
0.0
 46
0.0
 47
0.0
 48
0.0
 49
0.0
140
0.0
141
0.0
142
1.0
143
1.0
 70
   688
 72
     0
 73
     0
 74
     5
  7

 75
    16
 76
     0
 77
     2
 78
   300
147
1.0
148
0.0
149
0.0
100
AcDbLayout
  1
Layout2
 70
     1
 71
     2
 10
0.0
 20
0.0
 11
0.0
 21
0.0
 12
0.0
 22
0.0
 32
0.0
 14
0.0
 24
0.0
 34
0.0
 15
0.0
 25
0.0
 35
0.0
146
0.0
 13
0.0
 23
0.0
 33
0.0
 16
1.0
 26
0.0
 36
0.0
 17
0.0
 27
1.0
 37
0.0
 76
     0
330
23
  0
LAYOUT
  5
22
102
{ACAD_REACTORS
330
1A
102
}
330
1A
100
AcDbPlotSettings
  1

  2
none_device
  4

  6

 40
0.0
 41
0.0
 42
0.0
 43
0.0
 44
0.0
 45
0.0
 46
0.0
 47
0.0
 48
0.0
 49
0.0
140
0.0
141
0.0
142
1.0
143
1.0
 70
  1712
 72
     0
 73
     0
 74
     0
  7

 75
     0
 76
     0
 77
     2
 78
   300
147
1.0
148
0.0
149
0.0
100
AcDbLayout
  1
Model
 70
     1
 71
     0
 10
0.0
 20
0.0
 11
12.0
 21
9.0
 12
0.0
 22
0.0
 32
0.0
 14
72.0258
 24
-114.7062
 34
0.0
 15
196.3584
 25
131.8298
 35
0.0
146
0.0
 13
0.0
 23
0.0
 33
0.0
 16
1.0
 26
0.0
 36
0.0
 17
0.0
 27
1.0
 37
0.0
 76
     0
330
1F
331
29
  0
MATERIAL
  5
3D
102
{ACAD_REACTORS
330
3B
102
}
330
3B
100
AcDbMaterial
  1
ByBlock
 72
     1
 94
      127
  0
MATERIAL
  5
3C
102
{ACAD_REACTORS
330
3B
102
}
330
3B
100
AcDbMaterial
  1
ByLayer
 72
     1
 94
      127
  0
MATERIAL
  5
3E
102
{ACAD_REACTORS
330
3B
102
}
330
3B
100
AcDbMaterial
  1
Global
 72
     1
 94
      127
  0
MLINESTYLE
  5
18
102
{ACAD_REACTORS
330
17
102
}
330
17
100
AcDbMlineStyle
  2
Standard
 70
     0
  3

 62
   256
 51
90.0
 52
90.0
 71
     2
 49
0.5
 62
   256
  6
BYLAYER
 49
-0.5
 62
   256
  6
BYLAYER
  0
ACDBPLACEHOLDER
  5
F
102
{ACAD_REACTORS
330
E
102
}
330
E
  0
VISUALSTYLE
  5
2F
102
{ACAD_REACTORS
330
2A
102
}
102
{ACAD_XDICTIONARY
360
92
102
}
330
2A
100
AcDbVisualStyle
  2
2dWireframe
 70
     4
 71
     0
 72
     2
 73
     0
 90
        0
 40
-0.6
 41
-30.0
 62
     5
 63
     7
421
 16777215
 74
     1
 91
        4
 64
     7
 65
   257
 75
     1
175
     1
 42
1.0
 92
        0
 66
   257
 43
1.0
 76
     1
 77
     6
 78
     2
 67
     7
 79
     5
170
     0
171
     0
290
     0
174
     0
 93
        1
 44
0.0
173
     0
291
     0
 45
0.0
  0
VISUALSTYLE
  5
31
102
{ACAD_REACTORS
330
2A
102
}
102
{ACAD_XDICTIONARY
360
96
102
}
330
2A
100
AcDbVisualStyle
  2
3D Hidden
 70
     6
 71
     1
 72
     2
 73
     2
 90
        0
 40
-0.6
 41
-30.0
 62
     5
 63
     7
421
 16777215
 74
     2
 91
        2
 64
     7
 65
   257
 75
     2
175
     1
 42
40.0
 92
        0
 66
   257
 43
1.0
 76
     1
 77
     6
 78
     2
 67
     7
 79
     3
170
     0
171
     0
290
     0
174
     0
 93
        1
 44
0.0
173
     0
291
     0
 45
0.0
  0
VISUALSTYLE
  5
30
102
{ACAD_REACTORS
330
2A
102
}
102
{ACAD_XDICTIONARY
360
94
102
}
330
2A
100
AcDbVisualStyle
  2
3dWireframe
 70
     5
 71
     0
 72
     2
 73
     0
 90
        0
 40
-0.6
 41
-30.0
 62
     5
 63
     7
421
 16777215
 74
     1
 91
        4
 64
     7
 65
   257
 75
     1
175
     1
 42
1.0
 92
        0
 66
   257
 43
1.0
 76
     1
 77
     6
 78
     2
 67
     7
 79
     5
170
     0
171
     0
290
     0
174
     0
 93
        1
 44
0.0
173
     0
291
     0
 45
0.0
  0
VISUALSTYLE
  5
32
102
{ACAD_REACTORS
330
2A
102
}
102
{ACAD_XDICTIONARY
360
98
102
}
330
2A
100
AcDbVisualStyle
  2
Basic
 70
     7
 71
     1
 72
     0
 73
     1
 90
        0
 40
-0.6
 41
-30.0
 62
     5
 63
     7
421
 16777215
 74
     0
 91
        4
 64
     7
 65
   257
 75
     1
175
     1
 42
1.0
 92
        8
 66
     7
 43
1.0
 76
     1
 77
     6
 78
     2
 67
     7
 79
     5
170
     0
171
     0
290
     0
174
     0
 93
        1
 44
0.0
173
     0
291
     1
 45
0.0
  0
VISUALSTYLE
  5
36
102
{ACAD_REACTORS
330
2A
102
}
102
{ACAD_XDICTIONARY
360
A0
102
}
330
2A
100
AcDbVisualStyle
  2
Brighten
 70
    12
 71
     2
 72
     2
 73
     0
 90
        0
 40
-0.6
 41
-30.0
 62
     5
 63
     7
421
 16777215
 74
     1
 91
        4
 64
     7
 65
   257
 75
     1
175
     1
 42
1.0
 92
        8
 66
     7
 43
1.0
 76
     1
 77
     6
 78
     2
 67
     7
 79
     5
170
     0
171
     0
290
     0
174
     0
 93
        1
 44
50.0
173
     0
291
     1
 45
0.0
  0
VISUALSTYLE
  5
3A
102
{ACAD_REACTORS
330
2A
102
}
102
{ACAD_XDICTIONARY
360
A8
102
}
330
2A
100
AcDbVisualStyle
  2
ColorChange
 70
    16
 71
     2
 72
     2
 73
     3
 90
        0
 40
-0.6
 41
-30.0
 62
     5
 63
     8
421
  8421504
 74
     1
 91
        4
 64
     7
 65
   257
 75
     1
175
     1
 42
1.0
 92
        8
 66
     8
424
  8421504
 43
1.0
 76
     1
 77
     6
 78
     2
 67
     7
 79
     5
170
     0
171
     0
290
     0
174
     0
 93
        1
 44
0.0
173
     0
291
     1
 45
0.0
  0
VISUALSTYLE
  5
34
102
{ACAD_REACTORS
330
2A
102
}
102
{ACAD_XDICTIONARY
360
9C
102
}
330
2A
100
AcDbVisualStyle
  2
Conceptual
 70
     9
 71
     3
 72
     2
 73
     0
 90
        0
 40
-0.6
 41
-30.0
 62
     5
 63
     7
421
 16777215
 74
     2
 91
        2
 64
     7
 65
   257
 75
     1
175
     1
 42
40.0
 92
        8
 66
     7
 43
1.0
 76
     1
 77
     6
 78
     2
 67
     7
 79
     3
170
     0
171
     0
290
     0
174
     0
 93
        1
 44
0.0
173
     0
291
     0
 45
0.0
  0
VISUALSTYLE
  5
35
102
{ACAD_REACTORS
330
2A
102
}
102
{ACAD_XDICTIONARY
360
9E
102
}
330
2A
100
AcDbVisualStyle
  2
Dim
 70
    11
 71
     2
 72
     2
 73
     0
 90
        0
 40
-0.6
 41
-30.0
 62
     5
 63
     7
421
 16777215
 74
     1
 91
        4
 64
     7
 65
   257
 75
     1
175
     1
 42
1.0
 92
        8
 66
     7
 43
1.0
 76
     1
 77
     6
 78
     2
 67
     7
 79
     5
170
     0
171
     0
290
     0
174
     0
 93
        1
 44
-50.0
173
     0
291
     1
 45
0.0
  0
VISUALSTYLE
  5
39
102
{ACAD_REACTORS
330
2A
102
}
102
{ACAD_XDICTIONARY
360
A6
102
}
330
2A
100
AcDbVisualStyle
  2
Facepattern
 70
    15
 71
     2
 72
     2
 73
     0
 90
        0
 40
-0.6
 41
-30.0
 62
     5
 63
     7
421
 16777215
 74
     1
 91
        4
 64
     7
 65
   257
 75
     1
175
     1
 42
1.0
 92
        8
 66
     7
 43
1.0
 76
     1
 77
     6
 78
     2
 67
     7
 79
     5
170
     0
171
     0
290
     0
174
     0
 93
        1
 44
0.0
173
     0
291
     1
 45
0.0
  0
VISUALSTYLE
  5
2B
102
{ACAD_REACTORS
330
2A
102
}
102
{ACAD_XDICTIONARY
360
8A
102
}
330
2A
100
AcDbVisualStyle
  2
Flat
 70
     0
 71
     2
 72
     1
 73
     1
 90
        2
 40
-0.6
 41
30.0
 62
     5
 63
     7
421
 16777215
 74
     0
 91
        4
 64
     7
 65
   257
 75
     1
175
     1
 42
1.0
 92
        8
 66
     7
 43
1.0
 76
     1
 77
     6
 78
     2
 67
     7
 79
     5
170
     0
171
     0
290
     0
174
     0
 93
       13
 44
0.0
173
     0
291
     1
 45
0.0
  0
VISUALSTYLE
  5
2C
102
{ACAD_REACTORS
330
2A
102
}
102
{ACAD_XDICTIONARY
360
8C
102
}
330
2A
100
AcDbVisualStyle
  2
FlatWithEdges
 70
     1
 71
     2
 72
     1
 73
     1
 90
        2
 40
-0.6
 41
30.0
 62
     5
 63
     7
421
 16777215
 74
     1
 91
        4
 64
     7
 65
   257
 75
     1
175
     1
 42
1.0
 92
        0
 66
   257
 43
1.0
 76
     1
 77
     6
 78
     2
 67
     7
 79
     5
170
     0
171
     0
290
     0
174
     0
 93
       13
 44
0.0
173
     0
291
     1
 45
0.0
  0
VISUALSTYLE
  5
2D
102
{ACAD_REACTORS
330
2A
102
}
102
{ACAD_XDICTIONARY
360
8E
102
}
330
2A
100
AcDbVisualStyle
  2
Gouraud
 70
     2
 71
     2
 72
     2
 73
     1
 90
        2
 40
-0.6
 41
30.0
 62
     5
 63
     7
421
 16777215
 74
     0
 91
        4
 64
     7
 65
   257
 75
     1
175
     1
 42
1.0
 92
        0
 66
     7
 43
1.0
 76
     1
 77
     6
 78
     2
 67
     7
 79
     5
170
     0
171
     0
290
     0
174
     0
 93
       13
 44
0.0
173
     0
291
     1
 45
0.0
  0
VISUALSTYLE
  5
2E
102
{ACAD_REACTORS
330
2A
102
}
102
{ACAD_XDICTIONARY
360
90
102
}
330
2A
100
AcDbVisualStyle
  2
GouraudWithEdges
 70
     3
 71
     2
 72
     2
 73
     1
 90
        2
 40
-0.6
 41
30.0
 62
     5
 63
     7
421
 16777215
 74
     1
 91
        4
 64
     7
 65
   257
 75
     1
175
     1
 42
1.0
 92
        0
 66
   257
 43
1.0
 76
     1
 77
     6
 78
     2
 67
     7
 79
     5
170
     0
171
     0
290
     0
174
     0
 93
       13
 44
0.0
173
     0
291
     1
 45
0.0
  0
VISUALSTYLE
  5
38
102
{ACAD_REACTORS
330
2A
102
}
102
{ACAD_XDICTIONARY
360
A4
102
}
330
2A
100
AcDbVisualStyle
  2
Linepattern
 70
    14
 71
     2
 72
     2
 73
     0
 90
        0
 40
-0.6
 41
-30.0
 62
     5
 63
     7
421
 16777215
 74
     1
 91
        4
 64
     7
 65
   257
 75
     7
175
     7
 42
1.0
 92
        8
 66
     7
 43
1.0
 76
     1
 77
     6
 78
     2
 67
     7
 79
     5
170
     0
171
     0
290
     0
174
     0
 93
        1
 44
0.0
173
     0
291
     1
 45
0.0
  0
VISUALSTYLE
  5
33
102
{ACAD_REACTORS
330
2A
102
}
102
{ACAD_XDICTIONARY
360
9A
102
}
330
2A
100
AcDbVisualStyle
  2
Realistic
 70
     8
 71
     2
 72
     2
 73
     0
 90
        0
 40
-0.6
 41
-30.0
 62
     5
 63
     7
421
 16777215
 74
     1
 91
        0
 64
     7
 65
   257
 75
     1
175
     1
 42
1.0
 92
        8
 66
     8
424
  7895160
 43
1.0
 76
     1
 77
     6
 78
     2
 67
     7
 79
     5
170
     0
171
     0
290
     0
174
     0
 93
       13
 44
0.0
173
     0
291
     0
 45
0.0
  0
VISUALSTYLE
  5
37
102
{ACAD_REACTORS
330
2A
102
}
102
{ACAD_XDICTIONARY
360
A2
102
}
330
2A
100
AcDbVisualStyle
  2
Thicken
 70
    13
 71
     2
 72
     2
 73
     0
 90
        0
 40
-0.6
 41
-30.0
 62
     5
 63
     7
421
 16777215
 74
     1
 91
        4
 64
     7
 65
   257
 75
     1
175
     1
 42
1.0
 92
       12
 66
     7
 43
1.0
 76
     1
 77
     6
 78
     2
 67
     7
 79
     5
170
     0
171
     0
290
     0
174
     0
 93
        1
 44
0.0
173
     0
291
     1
 45
0.0
  0
DICTIONARY
  5
92
330
2F
100
AcDbDictionary
280
     1
281
     1
  3
ACAD_XREC_ROUNDTRIP
360
93
  0
DICTIONARY
  5
96
330
31
100
AcDbDictionary
280
     1
281
     1
  3
ACAD_XREC_ROUNDTRIP
360
97
  0
DICTIONARY
  5
94
330
30
100
AcDbDictionary
280
     1
281
     1
  3
ACAD_XREC_ROUNDTRIP
360
95
  0
DICTIONARY
  5
98
330
32
100
AcDbDictionary
280
     1
281
     1
  3
ACAD_XREC_ROUNDTRIP
360
99
  0
DICTIONARY
  5
A0
330
36
100
AcDbDictionary
280
     1
281
     1
  3
ACAD_XREC_ROUNDTRIP
360
A1
  0
DICTIONARY
  5
A8
330
3A
100
AcDbDictionary
280
     1
281
     1
  3
ACAD_XREC_ROUNDTRIP
360
A9
  0
DICTIONARY
  5
9C
330
34
100
AcDbDictionary
280
     1
281
     1
  3
ACAD_XREC_ROUNDTRIP
360
9D
  0
DICTIONARY
  5
9E
330
35
100
AcDbDictionary
280
     1
281
     1
  3
ACAD_XREC_ROUNDTRIP
360
9F
  0
DICTIONARY
  5
A6
330
39
100
AcDbDictionary
280
     1
281
     1
  3
ACAD_XREC_ROUNDTRIP
360
A7
  0
DICTIONARY
  5
8A
330
2B
100
AcDbDictionary
280
     1
281
     1
  3
ACAD_XREC_ROUNDTRIP
360
8B
  0
DICTIONARY
  5
8C
330
2C
100
AcDbDictionary
280
     1
281
     1
  3
ACAD_XREC_ROUNDTRIP
360
8D
  0
DICTIONARY
  5
8E
330
2D
100
AcDbDictionary
280
     1
281
     1
  3
ACAD_XREC_ROUNDTRIP
360
8F
  0
DICTIONARY
  5
90
330
2E
100
AcDbDictionary
280
     1
281
     1
  3
ACAD_XREC_ROUNDTRIP
360
91
  0
DICTIONARY
  5
A4
330
38
100
AcDbDictionary
280
     1
281
     1
  3
ACAD_XREC_ROUNDTRIP
360
A5
  0
DICTIONARY
  5
9A
330
33
100
AcDbDictionary
280
     1
281
     1
  3
ACAD_XREC_ROUNDTRIP
360
9B
  0
DICTIONARY
  5
A2
330
37
100
AcDbDictionary
280
     1
281
     1
  3
ACAD_XREC_ROUNDTRIP
360
A3
  0
XRECORD
  5
93
102
{ACAD_REACTORS
330
92
102
}
330
92
100
AcDbXrecord
280
     1
102
RTVSPropertyOp0
 70
     1
102
RTVSPropertyOp1
 70
     1
102
RTVSPropertyOp2
 70
     1
102
RTVSPropertyOp3
 70
     1
102
RTVSPropertyOp4
 70
     1
102
RTVSPropertyOp5
 70
     1
102
RTVSPropertyOp6
 70
     1
102
RTVSPropertyOp7
 70
     1
102
RTVSPropertyOp8
 70
     1
102
RTVSPropertyOp9
 70
     1
102
RTVSPropertyOp10
 70
     1
102
RTVSPropertyOp11
 70
     1
102
RTVSPropertyOp12
 70
     1
102
RTVSPropertyOp13
 70
     1
102
RTVSPropertyOp14
 70
     1
102
RTVSPropertyOp15
 70
     1
102
RTVSPropertyOp16
 70
     1
102
RTVSPropertyOp17
 70
     1
102
RTVSPropertyOp18
 70
     1
102
RTVSPropertyOp19
 70
     1
102
RTVSPropertyOp20
 70
     1
102
RTVSPropertyOp21
 70
     1
102
RTVSPropertyOp22
 70
     1
102
RTVSPropertyOp23
 70
     1
102
RTVSPropertyOp24
 70
     1
102
RTVSPropertyOp25
 70
     1
102
RTVSPropertyOp26
 70
     1
102
RTVSPropertyOp27
 70
     1
102
RTVSPropertyOp28
 70
     1
102
RTVSPropertyOp29
 70
     1
102
RTVSPropertyOp30
 70
     1
102
RTVSPropertyOp31
 70
     1
102
RTVSPropertyOp32
 70
     1
  0
XRECORD
  5
97
102
{ACAD_REACTORS
330
96
102
}
330
96
100
AcDbXrecord
280
     1
102
RTVSPropertyOp0
 70
     1
102
RTVSPropertyOp1
 70
     1
102
RTVSPropertyOp2
 70
     1
102
RTVSPropertyOp3
 70
     1
102
RTVSPropertyOp4
 70
     1
102
RTVSPropertyOp5
 70
     1
102
RTVSPropertyOp6
 70
     1
102
RTVSPropertyOp7
 70
     1
102
RTVSPropertyOp8
 70
     1
102
RTVSPropertyOp9
 70
     1
102
RTVSPropertyOp10
 70
     1
102
RTVSPropertyOp11
 70
     1
102
RTVSPropertyOp12
 70
     1
102
RTVSPropertyOp13
 70
     1
102
RTVSPropertyOp14
 70
     1
102
RTVSPropertyOp15
 70
     1
102
RTVSPropertyOp16
 70
     1
102
RTVSPropertyOp17
 70
     1
102
RTVSPropertyOp18
 70
     1
102
RTVSPropertyOp19
 70
     1
102
RTVSPropertyOp20
 70
     1
102
RTVSPropertyOp21
 70
     1
102
RTVSPropertyOp22
 70
     1
102
RTVSPropertyOp23
 70
     1
102
RTVSPropertyOp24
 70
     1
102
RTVSPropertyOp25
 70
     1
102
RTVSPropertyOp26
 70
     1
102
RTVSPropertyOp27
 70
     1
102
RTVSPropertyOp28
 70
     1
102
RTVSPropertyOp29
 70
     1
102
RTVSPropertyOp30
 70
     1
102
RTVSPropertyOp31
 70
     1
102
RTVSPropertyOp32
 70
     1
  0
XRECORD
  5
95
102
{ACAD_REACTORS
330
94
102
}
330
94
100
AcDbXrecord
280
     1
102
RTVSPropertyOp0
 70
     1
102
RTVSPropertyOp1
 70
     1
102
RTVSPropertyOp2
 70
     1
102
RTVSPropertyOp3
 70
     1
102
RTVSPropertyOp4
 70
     1
102
RTVSPropertyOp5
 70
     1
102
RTVSPropertyOp6
 70
     1
102
RTVSPropertyOp7
 70
     1
102
RTVSPropertyOp8
 70
     1
102
RTVSPropertyOp9
 70
     1
102
RTVSPropertyOp10
 70
     1
102
RTVSPropertyOp11
 70
     1
102
RTVSPropertyOp12
 70
     1
102
RTVSPropertyOp13
 70
     1
102
RTVSPropertyOp14
 70
     1
102
RTVSPropertyOp15
 70
     1
102
RTVSPropertyOp16
 70
     1
102
RTVSPropertyOp17
 70
     1
102
RTVSPropertyOp18
 70
     1
102
RTVSPropertyOp19
 70
     1
102
RTVSPropertyOp20
 70
     1
102
RTVSPropertyOp21
 70
     1
102
RTVSPropertyOp22
 70
     1
102
RTVSPropertyOp23
 70
     1
102
RTVSPropertyOp24
 70
     1
102
RTVSPropertyOp25
 70
     1
102
RTVSPropertyOp26
 70
     1
102
RTVSPropertyOp27
 70
     1
102
RTVSPropertyOp28
 70
     1
102
RTVSPropertyOp29
 70
     1
102
RTVSPropertyOp30
 70
     1
102
RTVSPropertyOp31
 70
     1
102
RTVSPropertyOp32
 70
     1
  0
XRECORD
  5
99
102
{ACAD_REACTORS
330
98
102
}
330
98
100
AcDbXrecord
280
     1
102
RTVSPropertyOp0
 70
     1
102
RTVSPropertyOp1
 70
     1
102
RTVSPropertyOp2
 70
     1
102
RTVSPropertyOp3
 70
     1
102
RTVSPropertyOp4
 70
     1
102
RTVSPropertyOp5
 70
     1
102
RTVSPropertyOp6
 70
     1
102
RTVSPropertyOp7
 70
     1
102
RTVSPropertyOp8
 70
     1
102
RTVSPropertyOp9
 70
     1
102
RTVSPropertyOp10
 70
     1
102
RTVSPropertyOp11
 70
     1
102
RTVSPropertyOp12
 70
     1
102
RTVSPropertyOp13
 70
     1
102
RTVSPropertyOp14
 70
     1
102
RTVSPropertyOp15
 70
     1
102
RTVSPropertyOp16
 70
     1
102
RTVSPropertyOp17
 70
     1
102
RTVSPropertyOp18
 70
     1
102
RTVSPropertyOp19
 70
     1
102
RTVSPropertyOp20
 70
     1
102
RTVSPropertyOp21
 70
     1
102
RTVSPropertyOp22
 70
     1
102
RTVSPropertyOp23
 70
     1
102
RTVSPropertyOp24
 70
     1
102
RTVSPropertyOp25
 70
     1
102
RTVSPropertyOp26
 70
     1
102
RTVSPropertyOp27
 70
     1
102
RTVSPropertyOp28
 70
     1
102
RTVSPropertyOp29
 70
     1
102
RTVSPropertyOp30
 70
     1
102
RTVSPropertyOp31
 70
     1
102
RTVSPropertyOp32
 70
     1
  0
XRECORD
  5
A1
102
{ACAD_REACTORS
330
A0
102
}
330
A0
100
AcDbXrecord
280
     1
102
RTVSPropertyOp0
 70
     1
102
RTVSPropertyOp1
 70
     1
102
RTVSPropertyOp2
 70
     1
102
RTVSPropertyOp3
 70
     1
102
RTVSPropertyOp4
 70
     1
102
RTVSPropertyOp5
 70
     1
102
RTVSPropertyOp6
 70
     1
102
RTVSPropertyOp7
 70
     1
102
RTVSPropertyOp8
 70
     1
102
RTVSPropertyOp9
 70
     1
102
RTVSPropertyOp10
 70
     1
102
RTVSPropertyOp11
 70
     1
102
RTVSPropertyOp12
 70
     1
102
RTVSPropertyOp13
 70
     1
102
RTVSPropertyOp14
 70
     1
102
RTVSPropertyOp15
 70
     1
102
RTVSPropertyOp16
 70
     1
102
RTVSPropertyOp17
 70
     1
102
RTVSPropertyOp18
 70
     1
102
RTVSPropertyOp19
 70
     1
102
RTVSPropertyOp20
 70
     1
102
RTVSPropertyOp21
 70
     1
102
RTVSPropertyOp22
 70
     1
102
RTVSPropertyOp23
 70
     1
102
RTVSPropertyOp24
 70
     1
102
RTVSPropertyOp25
 70
     1
102
RTVSPropertyOp26
 70
     1
102
RTVSPropertyOp27
 70
     1
102
RTVSPropertyOp28
 70
     1
102
RTVSPropertyOp29
 70
     1
102
RTVSPropertyOp30
 70
     1
102
RTVSPropertyOp31
 70
     1
102
RTVSPropertyOp32
 70
     1
  0
XRECORD
  5
A9
102
{ACAD_REACTORS
330
A8
102
}
330
A8
100
AcDbXrecord
280
     1
102
RTVSPropertyOp0
 70
     1
102
RTVSPropertyOp1
 70
     1
102
RTVSPropertyOp2
 70
     1
102
RTVSPropertyOp3
 70
     1
102
RTVSPropertyOp4
 70
     1
102
RTVSPropertyOp5
 70
     1
102
RTVSPropertyOp6
 70
     1
102
RTVSPropertyOp7
 70
     1
102
RTVSPropertyOp8
 70
     1
102
RTVSPropertyOp9
 70
     1
102
RTVSPropertyOp10
 70
     1
102
RTVSPropertyOp11
 70
     1
102
RTVSPropertyOp12
 70
     1
102
RTVSPropertyOp13
 70
     1
102
RTVSPropertyOp14
 70
     1
102
RTVSPropertyOp15
 70
     1
102
RTVSPropertyOp16
 70
     1
102
RTVSPropertyOp17
 70
     1
102
RTVSPropertyOp18
 70
     1
102
RTVSPropertyOp19
 70
     1
102
RTVSPropertyOp20
 70
     1
102
RTVSPropertyOp21
 70
     1
102
RTVSPropertyOp22
 70
     1
102
RTVSPropertyOp23
 70
     1
102
RTVSPropertyOp24
 70
     1
102
RTVSPropertyOp25
 70
     1
102
RTVSPropertyOp26
 70
     1
102
RTVSPropertyOp27
 70
     1
102
RTVSPropertyOp28
 70
     1
102
RTVSPropertyOp29
 70
     1
102
RTVSPropertyOp30
 70
     1
102
RTVSPropertyOp31
 70
     1
102
RTVSPropertyOp32
 70
     1
  0
XRECORD
  5
9D
102
{ACAD_REACTORS
330
9C
102
}
330
9C
100
AcDbXrecord
280
     1
102
RTVSPropertyOp0
 70
     1
102
RTVSPropertyOp1
 70
     1
102
RTVSPropertyOp2
 70
     1
102
RTVSPropertyOp3
 70
     1
102
RTVSPropertyOp4
 70
     1
102
RTVSPropertyOp5
 70
     1
102
RTVSPropertyOp6
 70
     1
102
RTVSPropertyOp7
 70
     1
102
RTVSPropertyOp8
 70
     1
102
RTVSPropertyOp9
 70
     1
102
RTVSPropertyOp10
 70
     1
102
RTVSPropertyOp11
 70
     1
102
RTVSPropertyOp12
 70
     1
102
RTVSPropertyOp13
 70
     1
102
RTVSPropertyOp14
 70
     1
102
RTVSPropertyOp15
 70
     1
102
RTVSPropertyOp16
 70
     1
102
RTVSPropertyOp17
 70
     1
102
RTVSPropertyOp18
 70
     1
102
RTVSPropertyOp19
 70
     1
102
RTVSPropertyOp20
 70
     1
102
RTVSPropertyOp21
 70
     1
102
RTVSPropertyOp22
 70
     1
102
RTVSPropertyOp23
 70
     1
102
RTVSPropertyOp24
 70
     1
102
RTVSPropertyOp25
 70
     1
102
RTVSPropertyOp26
 70
     1
102
RTVSPropertyOp27
 70
     1
102
RTVSPropertyOp28
 70
     1
102
RTVSPropertyOp29
 70
     1
102
RTVSPropertyOp30
 70
     1
102
RTVSPropertyOp31
 70
     1
102
RTVSPropertyOp32
 70
     1
  0
XRECORD
  5
9F
102
{ACAD_REACTORS
330
9E
102
}
330
9E
100
AcDbXrecord
280
     1
102
RTVSPropertyOp0
 70
     1
102
RTVSPropertyOp1
 70
     1
102
RTVSPropertyOp2
 70
     1
102
RTVSPropertyOp3
 70
     1
102
RTVSPropertyOp4
 70
     1
102
RTVSPropertyOp5
 70
     1
102
RTVSPropertyOp6
 70
     1
102
RTVSPropertyOp7
 70
     1
102
RTVSPropertyOp8
 70
     1
102
RTVSPropertyOp9
 70
     1
102
RTVSPropertyOp10
 70
     1
102
RTVSPropertyOp11
 70
     1
102
RTVSPropertyOp12
 70
     1
102
RTVSPropertyOp13
 70
     1
102
RTVSPropertyOp14
 70
     1
102
RTVSPropertyOp15
 70
     1
102
RTVSPropertyOp16
 70
     1
102
RTVSPropertyOp17
 70
     1
102
RTVSPropertyOp18
 70
     1
102
RTVSPropertyOp19
 70
     1
102
RTVSPropertyOp20
 70
     1
102
RTVSPropertyOp21
 70
     1
102
RTVSPropertyOp22
 70
     1
102
RTVSPropertyOp23
 70
     1
102
RTVSPropertyOp24
 70
     1
102
RTVSPropertyOp25
 70
     1
102
RTVSPropertyOp26
 70
     1
102
RTVSPropertyOp27
 70
     1
102
RTVSPropertyOp28
 70
     1
102
RTVSPropertyOp29
 70
     1
102
RTVSPropertyOp30
 70
     1
102
RTVSPropertyOp31
 70
     1
102
RTVSPropertyOp32
 70
     1
  0
XRECORD
  5
A7
102
{ACAD_REACTORS
330
A6
102
}
330
A6
100
AcDbXrecord
280
     1
102
RTVSPropertyOp0
 70
     1
102
RTVSPropertyOp1
 70
     1
102
RTVSPropertyOp2
 70
     1
102
RTVSPropertyOp3
 70
     1
102
RTVSPropertyOp4
 70
     1
102
RTVSPropertyOp5
 70
     1
102
RTVSPropertyOp6
 70
     1
102
RTVSPropertyOp7
 70
     1
102
RTVSPropertyOp8
 70
     1
102
RTVSPropertyOp9
 70
     1
102
RTVSPropertyOp10
 70
     1
102
RTVSPropertyOp11
 70
     1
102
RTVSPropertyOp12
 70
     1
102
RTVSPropertyOp13
 70
     1
102
RTVSPropertyOp14
 70
     1
102
RTVSPropertyOp15
 70
     1
102
RTVSPropertyOp16
 70
     1
102
RTVSPropertyOp17
 70
     1
102
RTVSPropertyOp18
 70
     1
102
RTVSPropertyOp19
 70
     1
102
RTVSPropertyOp20
 70
     1
102
RTVSPropertyOp21
 70
     1
102
RTVSPropertyOp22
 70
     1
102
RTVSPropertyOp23
 70
     1
102
RTVSPropertyOp24
 70
     1
102
RTVSPropertyOp25
 70
     1
102
RTVSPropertyOp26
 70
     1
102
RTVSPropertyOp27
 70
     1
102
RTVSPropertyOp28
 70
     1
102
RTVSPropertyOp29
 70
     1
102
RTVSPropertyOp30
 70
     1
102
RTVSPropertyOp31
 70
     1
102
RTVSPropertyOp32
 70
     1
  0
XRECORD
  5
8B
102
{ACAD_REACTORS
330
8A
102
}
330
8A
100
AcDbXrecord
280
     1
102
RTVSPropertyOp0
 70
     1
102
RTVSPropertyOp1
 70
     1
102
RTVSPropertyOp2
 70
     1
102
RTVSPropertyOp3
 70
     1
102
RTVSPropertyOp4
 70
     1
102
RTVSPropertyOp5
 70
     1
102
RTVSPropertyOp6
 70
     1
102
RTVSPropertyOp7
 70
     1
102
RTVSPropertyOp8
 70
     1
102
RTVSPropertyOp9
 70
     1
102
RTVSPropertyOp10
 70
     1
102
RTVSPropertyOp11
 70
     1
102
RTVSPropertyOp12
 70
     1
102
RTVSPropertyOp13
 70
     1
102
RTVSPropertyOp14
 70
     1
102
RTVSPropertyOp15
 70
     1
102
RTVSPropertyOp16
 70
     1
102
RTVSPropertyOp17
 70
     1
102
RTVSPropertyOp18
 70
     1
102
RTVSPropertyOp19
 70
     1
102
RTVSPropertyOp20
 70
     1
102
RTVSPropertyOp21
 70
     1
102
RTVSPropertyOp22
 70
     1
102
RTVSPropertyOp23
 70
     1
102
RTVSPropertyOp24
 70
     1
102
RTVSPropertyOp25
 70
     1
102
RTVSPropertyOp26
 70
     1
102
RTVSPropertyOp27
 70
     1
102
RTVSPropertyOp28
 70
     1
102
RTVSPropertyOp29
 70
     1
102
RTVSPropertyOp30
 70
     1
102
RTVSPropertyOp31
 70
     1
102
RTVSPropertyOp32
 70
     1
  0
XRECORD
  5
8D
102
{ACAD_REACTORS
330
8C
102
}
330
8C
100
AcDbXrecord
280
     1
102
RTVSPropertyOp0
 70
     1
102
RTVSPropertyOp1
 70
     1
102
RTVSPropertyOp2
 70
     1
102
RTVSPropertyOp3
 70
     1
102
RTVSPropertyOp4
 70
     1
102
RTVSPropertyOp5
 70
     1
102
RTVSPropertyOp6
 70
     1
102
RTVSPropertyOp7
 70
     1
102
RTVSPropertyOp8
 70
     1
102
RTVSPropertyOp9
 70
     1
102
RTVSPropertyOp10
 70
     1
102
RTVSPropertyOp11
 70
     1
102
RTVSPropertyOp12
 70
     1
102
RTVSPropertyOp13
 70
     1
102
RTVSPropertyOp14
 70
     1
102
RTVSPropertyOp15
 70
     1
102
RTVSPropertyOp16
 70
     1
102
RTVSPropertyOp17
 70
     1
102
RTVSPropertyOp18
 70
     1
102
RTVSPropertyOp19
 70
     1
102
RTVSPropertyOp20
 70
     1
102
RTVSPropertyOp21
 70
     1
102
RTVSPropertyOp22
 70
     1
102
RTVSPropertyOp23
 70
     1
102
RTVSPropertyOp24
 70
     1
102
RTVSPropertyOp25
 70
     1
102
RTVSPropertyOp26
 70
     1
102
RTVSPropertyOp27
 70
     1
102
RTVSPropertyOp28
 70
     1
102
RTVSPropertyOp29
 70
     1
102
RTVSPropertyOp30
 70
     1
102
RTVSPropertyOp31
 70
     1
102
RTVSPropertyOp32
 70
     1
  0
XRECORD
  5
8F
102
{ACAD_REACTORS
330
8E
102
}
330
8E
100
AcDbXrecord
280
     1
102
RTVSPropertyOp0
 70
     1
102
RTVSPropertyOp1
 70
     1
102
RTVSPropertyOp2
 70
     1
102
RTVSPropertyOp3
 70
     1
102
RTVSPropertyOp4
 70
     1
102
RTVSPropertyOp5
 70
     1
102
RTVSPropertyOp6
 70
     1
102
RTVSPropertyOp7
 70
     1
102
RTVSPropertyOp8
 70
     1
102
RTVSPropertyOp9
 70
     1
102
RTVSPropertyOp10
 70
     1
102
RTVSPropertyOp11
 70
     1
102
RTVSPropertyOp12
 70
     1
102
RTVSPropertyOp13
 70
     1
102
RTVSPropertyOp14
 70
     1
102
RTVSPropertyOp15
 70
     1
102
RTVSPropertyOp16
 70
     1
102
RTVSPropertyOp17
 70
     1
102
RTVSPropertyOp18
 70
     1
102
RTVSPropertyOp19
 70
     1
102
RTVSPropertyOp20
 70
     1
102
RTVSPropertyOp21
 70
     1
102
RTVSPropertyOp22
 70
     1
102
RTVSPropertyOp23
 70
     1
102
RTVSPropertyOp24
 70
     1
102
RTVSPropertyOp25
 70
     1
102
RTVSPropertyOp26
 70
     1
102
RTVSPropertyOp27
 70
     1
102
RTVSPropertyOp28
 70
     1
102
RTVSPropertyOp29
 70
     1
102
RTVSPropertyOp30
 70
     1
102
RTVSPropertyOp31
 70
     1
102
RTVSPropertyOp32
 70
     1
  0
XRECORD
  5
91
102
{ACAD_REACTORS
330
90
102
}
330
90
100
AcDbXrecord
280
     1
102
RTVSPropertyOp0
 70
     1
102
RTVSPropertyOp1
 70
     1
102
RTVSPropertyOp2
 70
     1
102
RTVSPropertyOp3
 70
     1
102
RTVSPropertyOp4
 70
     1
102
RTVSPropertyOp5
 70
     1
102
RTVSPropertyOp6
 70
     1
102
RTVSPropertyOp7
 70
     1
102
RTVSPropertyOp8
 70
     1
102
RTVSPropertyOp9
 70
     1
102
RTVSPropertyOp10
 70
     1
102
RTVSPropertyOp11
 70
     1
102
RTVSPropertyOp12
 70
     1
102
RTVSPropertyOp13
 70
     1
102
RTVSPropertyOp14
 70
     1
102
RTVSPropertyOp15
 70
     1
102
RTVSPropertyOp16
 70
     1
102
RTVSPropertyOp17
 70
     1
102
RTVSPropertyOp18
 70
     1
102
RTVSPropertyOp19
 70
     1
102
RTVSPropertyOp20
 70
     1
102
RTVSPropertyOp21
 70
     1
102
RTVSPropertyOp22
 70
     1
102
RTVSPropertyOp23
 70
     1
102
RTVSPropertyOp24
 70
     1
102
RTVSPropertyOp25
 70
     1
102
RTVSPropertyOp26
 70
     1
102
RTVSPropertyOp27
 70
     1
102
RTVSPropertyOp28
 70
     1
102
RTVSPropertyOp29
 70
     1
102
RTVSPropertyOp30
 70
     1
102
RTVSPropertyOp31
 70
     1
102
RTVSPropertyOp32
 70
     1
  0
XRECORD
  5
A5
102
{ACAD_REACTORS
330
A4
102
}
330
A4
100
AcDbXrecord
280
     1
102
RTVSPropertyOp0
 70
     1
102
RTVSPropertyOp1
 70
     1
102
RTVSPropertyOp2
 70
     1
102
RTVSPropertyOp3
 70
     1
102
RTVSPropertyOp4
 70
     1
102
RTVSPropertyOp5
 70
     1
102
RTVSPropertyOp6
 70
     1
102
RTVSPropertyOp7
 70
     1
102
RTVSPropertyOp8
 70
     1
102
RTVSPropertyOp9
 70
     1
102
RTVSPropertyOp10
 70
     1
102
RTVSPropertyOp11
 70
     1
102
RTVSPropertyOp12
 70
     1
102
RTVSPropertyOp13
 70
     1
102
RTVSPropertyOp14
 70
     1
102
RTVSPropertyOp15
 70
     1
102
RTVSPropertyOp16
 70
     1
102
RTVSPropertyOp17
 70
     1
102
RTVSPropertyOp18
 70
     1
102
RTVSPropertyOp19
 70
     1
102
RTVSPropertyOp20
 70
     1
102
RTVSPropertyOp21
 70
     1
102
RTVSPropertyOp22
 70
     1
102
RTVSPropertyOp23
 70
     1
102
RTVSPropertyOp24
 70
     1
102
RTVSPropertyOp25
 70
     1
102
RTVSPropertyOp26
 70
     1
102
RTVSPropertyOp27
 70
     1
102
RTVSPropertyOp28
 70
     1
102
RTVSPropertyOp29
 70
     1
102
RTVSPropertyOp30
 70
     1
102
RTVSPropertyOp31
 70
     1
102
RTVSPropertyOp32
 70
     1
  0
XRECORD
  5
9B
102
{ACAD_REACTORS
330
9A
102
}
330
9A
100
AcDbXrecord
280
     1
102
RTVSPropertyOp0
 70
     1
102
RTVSPropertyOp1
 70
     1
102
RTVSPropertyOp2
 70
     1
102
RTVSPropertyOp3
 70
     1
102
RTVSPropertyOp4
 70
     1
102
RTVSPropertyOp5
 70
     1
102
RTVSPropertyOp6
 70
     1
102
RTVSPropertyOp7
 70
     1
102
RTVSPropertyOp8
 70
     1
102
RTVSPropertyOp9
 70
     1
102
RTVSPropertyOp10
 70
     1
102
RTVSPropertyOp11
 70
     1
102
RTVSPropertyOp12
 70
     1
102
RTVSPropertyOp13
 70
     1
102
RTVSPropertyOp14
 70
     1
102
RTVSPropertyOp15
 70
     1
102
RTVSPropertyOp16
 70
     1
102
RTVSPropertyOp17
 70
     1
102
RTVSPropertyOp18
 70
     1
102
RTVSPropertyOp19
 70
     1
102
RTVSPropertyOp20
 70
     1
102
RTVSPropertyOp21
 70
     1
102
RTVSPropertyOp22
 70
     1
102
RTVSPropertyOp23
 70
     1
102
RTVSPropertyOp24
 70
     1
102
RTVSPropertyOp25
 70
     1
102
RTVSPropertyOp26
 70
     1
102
RTVSPropertyOp27
 70
     1
102
RTVSPropertyOp28
 70
     1
102
RTVSPropertyOp29
 70
     1
102
RTVSPropertyOp30
 70
     1
102
RTVSPropertyOp31
 70
     1
102
RTVSPropertyOp32
 70
     1
  0
XRECORD
  5
A3
102
{ACAD_REACTORS
330
A2
102
}
330
A2
100
AcDbXrecord
280
     1
102
RTVSPropertyOp0
 70
     1
102
RTVSPropertyOp1
 70
     1
102
RTVSPropertyOp2
 70
     1
102
RTVSPropertyOp3
 70
     1
102
RTVSPropertyOp4
 70
     1
102
RTVSPropertyOp5
 70
     1
102
RTVSPropertyOp6
 70
     1
102
RTVSPropertyOp7
 70
     1
102
RTVSPropertyOp8
 70
     1
102
RTVSPropertyOp9
 70
     1
102
RTVSPropertyOp10
 70
     1
102
RTVSPropertyOp11
 70
     1
102
RTVSPropertyOp12
 70
     1
102
RTVSPropertyOp13
 70
     1
102
RTVSPropertyOp14
 70
     1
102
RTVSPropertyOp15
 70
     1
102
RTVSPropertyOp16
 70
     1
102
RTVSPropertyOp17
 70
     1
102
RTVSPropertyOp18
 70
     1
102
RTVSPropertyOp19
 70
     1
102
RTVSPropertyOp20
 70
     1
102
RTVSPropertyOp21
 70
     1
102
RTVSPropertyOp22
 70
     1
102
RTVSPropertyOp23
 70
     1
102
RTVSPropertyOp24
 70
     1
102
RTVSPropertyOp25
 70
     1
102
RTVSPropertyOp26
 70
     1
102
RTVSPropertyOp27
 70
     1
102
RTVSPropertyOp28
 70
     1
102
RTVSPropertyOp29
 70
     1
102
RTVSPropertyOp30
 70
     1
102
RTVSPropertyOp31
 70
     1
102
RTVSPropertyOp32
 70
     1
  0
ENDSEC
  0
EOF
