  0
SECTION
  2
HEADER
  9
$ACADVER
  1
AC1021
  9
$ACADMAINTVER
 70
    25
  9
$DWGCODEPAGE
  3
ANSI_1256
  9
$INSBASE
 10
0.0
 20
0.0
 30
0.0
  9
$EXTMIN
 10
-187.2482
 20
-114.6992
 30
0.0
  9
$EXTMAX
 10
196.3472
 20
131.9605
 30
0.0
  9
$LIMMIN
 10
0.0
 20
0.0
  9
$LIMMAX
 10
12.0
 20
9.0
  9
$ORTHOMODE
 70
     0
  9
$REGENMODE
 70
     1
  9
$FILLMODE
 70
     1
  9
$QTEXTMODE
 70
     0
  9
$MIRRTEXT
 70
     1
  9
$LTSCALE
 40
1.0
  9
$ATTMODE
 70
     1
  9
$TEXTSIZE
 40
0.2
  9
$TRACEWID
 40
0.05
  9
$TEXTSTYLE
  7
Standard
  9
$CLAYER
  8
0
  9
$CELTYPE
  6
ByLayer
  9
$CECOLOR
 62
   256
  9
$CELTSCALE
 40
1.0
  9
$DISPSILH
 70
     0
  9
$DIMSCALE
 40
1.0
  9
$DIMASZ
 40
0.18
  9
$DIMEXO
 40
0.0625
  9
$DIMDLI
 40
0.38
  9
$DIMRND
 40
0.0
  9
$DIMDLE
 40
0.0
  9
$DIMEXE
 40
0.18
  9
$DIMTP
 40
0.0
  9
$DIMTM
 40
0.0
  9
$DIMTXT
 40
0.18
  9
$DIMCEN
 40
0.09
  9
$DIMTSZ
 40
0.0
  9
$DIMTOL
 70
     0
  9
$DIMLIM
 70
     0
  9
$DIMTIH
 70
     1
  9
$DIMTOH
 70
     1
  9
$DIMSE1
 70
     0
  9
$DIMSE2
 70
     0
  9
$DIMTAD
 70
     0
  9
$DIMZIN
 70
     0
  9
$DIMBLK
  1

  9
$DIMASO
 70
     1
  9
$DIMSHO
 70
     1
  9
$DIMPOST
  1

  9
$DIMAPOST
  1

  9
$DIMALT
 70
     0
  9
$DIMALTD
 70
     2
  9
$DIMALTF
 40
25.4
  9
$DIMLFAC
 40
1.0
  9
$DIMTOFL
 70
     0
  9
$DIMTVP
 40
0.0
  9
$DIMTIX
 70
     0
  9
$DIMSOXD
 70
     0
  9
$DIMSAH
 70
     0
  9
$DIMBLK1
  1

  9
$DIMBLK2
  1

  9
$DIMSTYLE
  2
Standard
  9
$DIMCLRD
 70
     0
  9
$DIMCLRE
 70
     0
  9
$DIMCLRT
 70
     0
  9
$DIMTFAC
 40
1.0
  9
$DIMGAP
 40
0.09
  9
$DIMJUST
 70
     0
  9
$DIMSD1
 70
     0
  9
$DIMSD2
 70
     0
  9
$DIMTOLJ
 70
     1
  9
$DIMTZIN
 70
     0
  9
$DIMALTZ
 70
     0
  9
$DIMALTTZ
 70
     0
  9
$DIMUPT
 70
     0
  9
$DIMDEC
 70
     4
  9
$DIMTDEC
 70
     4
  9
$DIMALTU
 70
     2
  9
$DIMALTTD
 70
     2
  9
$DIMTXSTY
  7
Standard
  9
$DIMAUNIT
 70
     0
  9
$DIMADEC
 70
     0
  9
$DIMALTRND
 40
0.0
  9
$DIMAZIN
 70
     0
  9
$DIMDSEP
 70
    46
  9
$DIMATFIT
 70
     3
  9
$DIMFRAC
 70
     0
  9
$DIMLDRBLK
  1

  9
$DIMLUNIT
 70
     2
  9
$DIMLWD
 70
    -2
  9
$DIMLWE
 70
    -2
  9
$DIMTMOVE
 70
     0
  9
$DIMFXL
 40
1.0
  9
$DIMFXLON
 70
     0
  9
$DIMJOGANG
 40
0.7853981633974483
  9
$DIMTFILL
 70
     0
  9
$DIMTFILLCLR
 70
     0
  9
$DIMARCSYM
 70
     0
  9
$DIMLTYPE
  6

  9
$DIMLTEX1
  6

  9
$DIMLTEX2
  6

  9
$LUNITS
 70
     2
  9
$LUPREC
 70
     4
  9
$SKETCHINC
 40
0.1
  9
$FILLETRAD
 40
0.5
  9
$AUNITS
 70
     0
  9
$AUPREC
 70
     0
  9
$MENU
  1
.
  9
$ELEVATION
 40
0.0
  9
$PELEVATION
 40
0.0
  9
$THICKNESS
 40
0.0
  9
$LIMCHECK
 70
     0
  9
$CHAMFERA
 40
0.5
  9
$CHAMFERB
 40
0.5
  9
$CHAMFERC
 40
1.0
  9
$CHAMFERD
 40
0.0
  9
$SKPOLY
 70
     0
  9
$TDCREATE
 40
2458492.399187234
  9
$TDUCREATE
 40
2458492.232520567
  9
$TDUPDATE
 40
2458492.399187454
  9
$TDUUPDATE
 40
2458492.232520787
  9
$TDINDWG
 40
0.0000000116
  9
$TDUSRTIMER
 40
0.0000000116
  9
$USRTIMER
 70
     1
  9
$ANGBASE
 50
0.0
  9
$ANGDIR
 70
     0
  9
$PDMODE
 70
     0
  9
$PDSIZE
 40
0.0
  9
$PLINEWID
 40
0.0
  9
$SPLFRAME
 70
     0
  9
$SPLINETYPE
 70
     6
  9
$SPLINESEGS
 70
     8
  9
$HANDSEED
  5
FD
  9
$SURFTAB1
 70
     6
  9
$SURFTAB2
 70
     6
  9
$SURFTYPE
 70
     6
  9
$SURFU
 70
     6
  9
$SURFV
 70
     6
  9
$UCSBASE
  2

  9
$UCSNAME
  2

  9
$UCSORG
 10
0.0
 20
0.0
 30
0.0
  9
$UCSXDIR
 10
1.0
 20
0.0
 30
0.0
  9
$UCSYDIR
 10
0.0
 20
1.0
 30
0.0
  9
$UCSORTHOREF
  2

  9
$UCSORTHOVIEW
 70
     0
  9
$UCSORGTOP
 10
0.0
 20
0.0
 30
0.0
  9
$UCSORGBOTTOM
 10
0.0
 20
0.0
 30
0.0
  9
$UCSORGLEFT
 10
0.0
 20
0.0
 30
0.0
  9
$UCSORGRIGHT
 10
0.0
 20
0.0
 30
0.0
  9
$UCSORGFRONT
 10
0.0
 20
0.0
 30
0.0
  9
$UCSORGBACK
 10
0.0
 20
0.0
 30
0.0
  9
$PUCSBASE
  2

  9
$PUCSNAME
  2

  9
$PUCSORG
 10
0.0
 20
0.0
 30
0.0
  9
$PUCSXDIR
 10
1.0
 20
0.0
 30
0.0
  9
$PUCSYDIR
 10
0.0
 20
1.0
 30
0.0
  9
$PUCSORTHOREF
  2

  9
$PUCSORTHOVIEW
 70
     0
  9
$PUCSORGTOP
 10
0.0
 20
0.0
 30
0.0
  9
$PUCSORGBOTTOM
 10
0.0
 20
0.0
 30
0.0
  9
$PUCSORGLEFT
 10
0.0
 20
0.0
 30
0.0
  9
$PUCSORGRIGHT
 10
0.0
 20
0.0
 30
0.0
  9
$PUCSORGFRONT
 10
0.0
 20
0.0
 30
0.0
  9
$PUCSORGBACK
 10
0.0
 20
0.0
 30
0.0
  9
$USERI1
 70
     0
  9
$USERI2
 70
     0
  9
$USERI3
 70
     0
  9
$USERI4
 70
     0
  9
$USERI5
 70
     0
  9
$USERR1
 40
0.0
  9
$USERR2
 40
0.0
  9
$USERR3
 40
0.0
  9
$USERR4
 40
0.0
  9
$USERR5
 40
0.0
  9
$WORLDVIEW
 70
     1
  9
$SHADEDGE
 70
     3
  9
$SHADEDIF
 70
    70
  9
$TILEMODE
 70
     1
  9
$MAXACTVP
 70
    64
  9
$PINSBASE
 10
0.0
 20
0.0
 30
0.0
  9
$PLIMCHECK
 70
     0
  9
$PEXTMIN
 10
1.000000000000000E+20
 20
1.000000000000000E+20
 30
1.000000000000000E+20
  9
$PEXTMAX
 10
-1.000000000000000E+20
 20
-1.000000000000000E+20
 30
-1.000000000000000E+20
  9
$PLIMMIN
 10
0.0
 20
0.0
  9
$PLIMMAX
 10
12.0
 20
9.0
  9
$UNITMODE
 70
     0
  9
$VISRETAIN
 70
     1
  9
$PLINEGEN
 70
     0
  9
$PSLTSCALE
 70
     1
  9
$TREEDEPTH
 70
  3020
  9
$CMLSTYLE
  2
Standard
  9
$CMLJUST
 70
     0
  9
$CMLSCALE
 40
1.0
  9
$PROXYGRAPHICS
 70
     1
  9
$MEASUREMENT
 70
     0
  9
$CELWEIGHT
370
    -1
  9
$ENDCAPS
280
     0
  9
$JOINSTYLE
280
     0
  9
$LWDISPLAY
290
     0
  9
$INSUNITS
 70
     4
  9
$HYPERLINKBASE
  1

  9
$STYLESHEET
  1

  9
$XEDIT
290
     1
  9
$CEPSNTYPE
380
     0
  9
$PSTYLEMODE
290
     1
  9
$FINGERPRINTGUID
  2
{B10BA7F7-A233-4AD2-BDAD-2320C9545AF7}
  9
$VERSIONGUID
  2
{FAEB1C32-E019-11D5-929B-00C0DF256EC4}
  9
$EXTNAMES
290
     1
  9
$PSVPSCALE
 40
0.0
  9
$OLESTARTUP
290
     0
  9
$SORTENTS
280
   127
  9
$INDEXCTL
280
     0
  9
$HIDETEXT
280
     1
  9
$XCLIPFRAME
290
     0
  9
$HALOGAP
280
     0
  9
$OBSCOLOR
 70
   257
  9
$OBSLTYPE
280
     0
  9
$INTERSECTIONDISPLAY
280
     0
  9
$INTERSECTIONCOLOR
 70
   257
  9
$DIMASSOC
280
     2
  9
$PROJECTNAME
  1

  9
$CAMERADISPLAY
290
     0
  9
$LENSLENGTH
 40
50.0
  9
$CAMERAHEIGHT
 40
0.0
  9
$STEPSPERSEC
 40
2.0
  9
$STEPSIZE
 40
6.0
  9
$3DDWFPREC
 40
2.0
  9
$PSOLWIDTH
 40
0.25
  9
$PSOLHEIGHT
 40
4.0
  9
$LOFTANG1
 40
1.570796326794897
  9
$LOFTANG2
 40
1.570796326794897
  9
$LOFTMAG1
 40
0.0
  9
$LOFTMAG2
 40
0.0
  9
$LOFTPARAM
 70
     7
  9
$LOFTNORMALS
280
     1
  9
$LATITUDE
 40
37.795
  9
$LONGITUDE
 40
-122.394
  9
$NORTHDIRECTION
 40
0.0
  9
$TIMEZONE
 70
 -8000
  9
$LIGHTGLYPHDISPLAY
280
     1
  9
$TILEMODELIGHTSYNCH
280
     1
  9
$SOLIDHIST
280
     1
  9
$SHOWHIST
280
     1
  9
$DWFFRAME
280
     2
  9
$DGNFRAME
280
     2
  9
$REALWORLDSCALE
290
     1
  9
$INTERFERECOLOR
 62
   256
  9
$CSHADOW
280
     0
  9
$SHADOWPLANELOCATION
 40
0.0
  0
ENDSEC
  0
SECTION
  2
CLASSES
  0
CLASS
  1
ACDBDICTIONARYWDFLT
  2
AcDbDictionaryWithDefault
  3
ObjectDBX Classes
 90
        0
 91
        4
280
     0
281
     0
  0
CLASS
  1
VISUALSTYLE
  2
AcDbVisualStyle
  3
ObjectDBX Classes
 90
     4095
 91
        4
280
     0
281
     0
  0
CLASS
  1
MATERIAL
  2
AcDbMaterial
  3
ObjectDBX Classes
 90
     1153
 91
        4
280
     0
281
     0
  0
ENDSEC
  0
SECTION
  2
TABLES
  0
TABLE
  2
VPORT
  5
8
330
0
100
AcDbSymbolTable
 70
     1
  0
VPORT
  5
29
330
8
100
AcDbSymbolTableRecord
100
AcDbViewportTableRecord
  2
*Active
 70
     0
 10
0.0
 20
0.0
 11
1.0
 21
1.0
 12
10.42990654205607
 22
4.5
 13
0.0
 23
0.0
 14
0.5
 24
0.5
 15
0.5
 25
0.5
 16
0.0
 26
0.0
 36
1.0
 17
0.0
 27
0.0
 37
0.0
 40
9.0
 41
1.972972972850329
 42
50.0
 43
0.0
 44
0.0
 50
0.0
 51
0.0
 71
     0
 72
   100
 73
     1
 74
     3
 75
     0
 76
     0
 77
     0
 78
     0
281
     0
 65
     1
110
0.0
120
0.0
130
0.0
111
1.0
121
0.0
131
0.0
112
0.0
122
1.0
132
0.0
 79
     0
146
0.0
 60
     3
 61
     5
292
     1
282
     1
141
0.0
142
0.0
 63
   250
  0
ENDTAB
  0
TABLE
  2
LTYPE
  5
5
330
0
100
AcDbSymbolTable
 70
     1
  0
LTYPE
  5
14
330
5
100
AcDbSymbolTableRecord
100
AcDbLinetypeTableRecord
  2
ByBlock
 70
     0
  3

 72
    65
 73
     0
 40
0.0
  0
LTYPE
  5
15
330
5
100
AcDbSymbolTableRecord
100
AcDbLinetypeTableRecord
  2
ByLayer
 70
     0
  3

 72
    65
 73
     0
 40
0.0
  0
LTYPE
  5
16
330
5
100
AcDbSymbolTableRecord
100
AcDbLinetypeTableRecord
  2
Continuous
 70
     0
  3
Solid line
 72
    65
 73
     0
 40
0.0
  0
ENDTAB
  0
TABLE
  2
LAYER
  5
2
330
0
100
AcDbSymbolTable
 70
     2
  0
LAYER
  5
10
330
2
100
AcDbSymbolTableRecord
100
AcDbLayerTableRecord
  2
0
 70
     0
 62
     7
  6
Continuous
370
    -3
390
F
347
3E
  0
LAYER
  5
40
330
2
100
AcDbSymbolTableRecord
100
AcDbLayerTableRecord
  2
layer 1
 70
     0
 62
     7
  6
Continuous
370
    -3
390
F
347
3E
  0
ENDTAB
  0
TABLE
  2
STYLE
  5
3
330
0
100
AcDbSymbolTable
 70
     1
  0
STYLE
  5
11
330
3
100
AcDbSymbolTableRecord
100
AcDbTextStyleTableRecord
  2
Standard
 70
     0
 40
0.0
 41
1.0
 50
0.0
 71
     0
 42
0.2
  3
txt
  4

  0
ENDTAB
  0
TABLE
  2
VIEW
  5
6
330
0
100
AcDbSymbolTable
 70
     0
  0
ENDTAB
  0
TABLE
  2
UCS
  5
7
330
0
100
AcDbSymbolTable
 70
     0
  0
ENDTAB
  0
TABLE
  2
APPID
  5
9
330
0
100
AcDbSymbolTable
 70
     2
  0
APPID
  5
12
330
9
100
AcDbSymbolTableRecord
100
AcDbRegAppTableRecord
  2
ACAD
 70
     0
  0
APPID
  5
3F
330
9
100
AcDbSymbolTableRecord
100
AcDbRegAppTableRecord
  2
ODA
 70
     0
  0
ENDTAB
  0
TABLE
  2
DIMSTYLE
  5
A
330
0
100
AcDbSymbolTable
 70
     1
100
AcDbDimStyleTable
  0
DIMSTYLE
105
27
330
A
100
AcDbSymbolTableRecord
100
AcDbDimStyleTableRecord
  2
Standard
 70
     0
178
     0
340
11
  0
ENDTAB
  0
TABLE
  2
BLOCK_RECORD
  5
1
330
0
100
AcDbSymbolTable
 70
     1
  0
BLOCK_RECORD
  5
1F
330
1
100
AcDbSymbolTableRecord
100
AcDbBlockTableRecord
  2
*Model_Space
340
22
 70
     0
280
     1
281
     0
  0
BLOCK_RECORD
  5
1B
330
1
100
AcDbSymbolTableRecord
100
AcDbBlockTableRecord
  2
*Paper_Space
340
1E
 70
     0
280
     1
281
     0
  0
BLOCK_RECORD
  5
23
330
1
100
AcDbSymbolTableRecord
100
AcDbBlockTableRecord
  2
*Paper_Space0
340
26
 70
     0
280
     1
281
     0
  0
ENDTAB
  0
ENDSEC
  0
SECTION
  2
BLOCKS
  0
BLOCK
  5
20
330
1F
100
AcDbEntity
  8
0
100
AcDbBlockBegin
  2
*Model_Space
 70
     0
 10
0.0
 20
0.0
 30
0.0
  3
*Model_Space
  1

  0
ENDBLK
  5
21
330
1F
100
AcDbEntity
  8
0
100
AcDbBlockEnd
  0
BLOCK
  5
1C
330
1B
100
AcDbEntity
 67
     1
  8
0
100
AcDbBlockBegin
  2
*Paper_Space
 70
     0
 10
0.0
 20
0.0
 30
0.0
  3
*Paper_Space
  1

  0
ENDBLK
  5
1D
330
1B
100
AcDbEntity
 67
     1
  8
0
100
AcDbBlockEnd
  0
BLOCK
  5
24
330
23
100
AcDbEntity
  8
0
100
AcDbBlockBegin
  2
*Paper_Space0
 70
     0
 10
0.0
 20
0.0
 30
0.0
  3
*Paper_Space0
  1

  0
ENDBLK
  5
25
330
23
100
AcDbEntity
  8
0
100
AcDbBlockEnd
  0
ENDSEC
  0
SECTION
  2
ENTITIES
  0
LWPOLYLINE
  5
41
330
1F
100
AcDbEntity
  8
layer 1
 62
   250
100
AcDbPolyline
 90
        5
 70
     1
 43
0.0
 10
-187.2482
 20
-114.6991
 10
-21.3576
 20
-114.6991
 10
-21.3576
 20
131.9605
 10
-187.2482
 20
131.9605
 10
-187.2482
 20
-114.6991
  0
SPLINE
  5
42
330
1F
100
AcDbEntity
  8
layer 1
 62
     7
100
AcDbSpline
210
0.0
220
0.0
230
1.0
 70
    11
 71
     3
 72
    52
 73
    48
 74
     0
 42
0.0000000001
 43
0.0000000001
 12
1.0
 22
0.0
 32
0.0
 13
1.0
 23
0.0
 33
0.0
 40
0.0
 40
0.0
 40
0.0
 40
0.0
 40
0.0769230769230769
 40
0.0769230769230769
 40
0.0769230769230769
 40
0.0769230769230769
 40
0.1538461538461539
 40
0.1538461538461539
 40
0.1538461538461539
 40
0.1538461538461539
 40
0.2307692307692308
 40
0.2307692307692308
 40
0.2307692307692308
 40
0.2307692307692308
 40
0.3076923076923077
 40
0.3076923076923077
 40
0.3076923076923077
 40
0.3076923076923077
 40
0.3846153846153846
 40
0.3846153846153846
 40
0.3846153846153846
 40
0.3846153846153846
 40
0.4615384615384616
 40
0.4615384615384616
 40
0.4615384615384616
 40
0.4615384615384616
 40
0.5384615384615384
 40
0.5384615384615384
 40
0.5384615384615384
 40
0.5384615384615384
 40
0.6153846153846154
 40
0.6153846153846154
 40
0.6153846153846154
 40
0.6153846153846154
 40
0.6923076923076923
 40
0.6923076923076923
 40
0.6923076923076923
 40
0.6923076923076923
 40
0.7692307692307693
 40
0.7692307692307693
 40
0.7692307692307693
 40
0.7692307692307693
 40
0.8461538461538461
 40
0.8461538461538461
 40
0.8461538461538461
 40
0.8461538461538461
 40
1.0
 40
1.0
 40
1.0
 40
1.0
 10
-73.3109
 20
-74.1294
 30
0.0
 10
-73.3109
 20
-74.1294
 30
0.0
 10
-73.3109
 20
-68.7911
 30
0.0
 10
-73.3109
 20
-68.7911
 30
0.0
 10
-73.3109
 20
-68.7911
 30
0.0
 10
-79.9274
 20
-67.6615
 30
0.0
 10
-82.594
 20
-63.2406
 30
0.0
 10
-82.7304
 20
-55.8948
 30
0.0
 10
-82.7304
 20
-55.8948
 30
0.0
 10
-82.7224
 20
-48.9756
 30
0.0
 10
-80.0073
 20
-44.3274
 30
0.0
 10
-73.3883
 20
-43.4412
 30
0.0
 10
-73.3883
 20
-43.4412
 30
0.0
 10
-73.3883
 20
-43.4412
 30
0.0
 10
-73.3883
 20
-38.3726
 30
0.0
 10
-73.3883
 20
-38.3726
 30
0.0
 10
-73.3883
 20
-38.3726
 30
0.0
 10
-71.0337
 20
-37.3566
 30
0.0
 10
-68.3582
 20
-35.5559
 30
0.0
 10
-66.4112
 20
-33.2078
 30
0.0
 10
-66.4112
 20
-33.2078
 30
0.0
 10
-64.4642
 20
-35.5559
 30
0.0
 10
-61.7888
 20
-37.3566
 30
0.0
 10
-59.4341
 20
-38.3726
 30
0.0
 10
-59.4341
 20
-38.3726
 30
0.0
 10
-59.4341
 20
-38.3726
 30
0.0
 10
-59.4341
 20
-43.4412
 30
0.0
 10
-59.4341
 20
-43.4412
 30
0.0
 10
-59.4341
 20
-43.4412
 30
0.0
 10
-52.8151
 20
-44.3274
 30
0.0
 10
-50.1
 20
-48.9755
 30
0.0
 10
-50.0921
 20
-55.8948
 30
0.0
 10
-50.0921
 20
-55.8948
 30
0.0
 10
-50.2285
 20
-63.2406
 30
0.0
 10
-52.895
 20
-67.6615
 30
0.0
 10
-59.5115
 20
-68.7911
 30
0.0
 10
-59.5115
 20
-68.7911
 30
0.0
 10
-59.5115
 20
-68.7911
 30
0.0
 10
-59.5115
 20
-74.1294
 30
0.0
 10
-59.5115
 20
-74.1294
 30
0.0
 10
-59.5115
 20
-74.1294
 30
0.0
 10
-62.6274
 20
-74.9753
 30
0.0
 10
-64.3417
 20
-77.039
 30
0.0
 10
-66.4112
 20
-78.9932
 30
0.0
 10
-66.4112
 20
-78.9932
 30
0.0
 10
-68.4805
 20
-77.039
 30
0.0
 10
-70.195
 20
-74.9753
 30
0.0
 10
-73.3109
 20
-74.1294
 30
0.0
  0
SPLINE
  5
43
330
1F
100
AcDbEntity
  8
layer 1
 62
     7
100
AcDbSpline
210
0.0
220
0.0
230
1.0
 70
    11
 71
     3
 72
    52
 73
    48
 74
     0
 42
0.0000000001
 43
0.0000000001
 12
1.0
 22
0.0
 32
0.0
 13
1.0
 23
0.0
 33
0.0
 40
0.0
 40
0.0
 40
0.0
 40
0.0
 40
0.0769230769230769
 40
0.0769230769230769
 40
0.0769230769230769
 40
0.0769230769230769
 40
0.1538461538461539
 40
0.1538461538461539
 40
0.1538461538461539
 40
0.1538461538461539
 40
0.2307692307692308
 40
0.2307692307692308
 40
0.2307692307692308
 40
0.2307692307692308
 40
0.3076923076923077
 40
0.3076923076923077
 40
0.3076923076923077
 40
0.3076923076923077
 40
0.3846153846153846
 40
0.3846153846153846
 40
0.3846153846153846
 40
0.3846153846153846
 40
0.4615384615384616
 40
0.4615384615384616
 40
0.4615384615384616
 40
0.4615384615384616
 40
0.5384615384615384
 40
0.5384615384615384
 40
0.5384615384615384
 40
0.5384615384615384
 40
0.6153846153846154
 40
0.6153846153846154
 40
0.6153846153846154
 40
0.6153846153846154
 40
0.6923076923076923
 40
0.6923076923076923
 40
0.6923076923076923
 40
0.6923076923076923
 40
0.7692307692307693
 40
0.7692307692307693
 40
0.7692307692307693
 40
0.7692307692307693
 40
0.8461538461538461
 40
0.8461538461538461
 40
0.8461538461538461
 40
0.8461538461538461
 40
1.0
 40
1.0
 40
1.0
 40
1.0
 10
-110.8684
 20
-74.1294
 30
0.0
 10
-110.8684
 20
-74.1294
 30
0.0
 10
-110.8684
 20
-68.7911
 30
0.0
 10
-110.8684
 20
-68.7911
 30
0.0
 10
-110.8684
 20
-68.7911
 30
0.0
 10
-117.4849
 20
-67.6615
 30
0.0
 10
-120.1515
 20
-63.2406
 30
0.0
 10
-120.2878
 20
-55.8948
 30
0.0
 10
-120.2878
 20
-55.8948
 30
0.0
 10
-120.2799
 20
-48.9756
 30
0.0
 10
-117.5648
 20
-44.3274
 30
0.0
 10
-110.9458
 20
-43.4412
 30
0.0
 10
-110.9458
 20
-43.4412
 30
0.0
 10
-110.9458
 20
-43.4412
 30
0.0
 10
-110.9458
 20
-38.3726
 30
0.0
 10
-110.9458
 20
-38.3726
 30
0.0
 10
-110.9458
 20
-38.3726
 30
0.0
 10
-108.5912
 20
-37.3566
 30
0.0
 10
-105.9157
 20
-35.5559
 30
0.0
 10
-103.9687
 20
-33.2078
 30
0.0
 10
-103.9687
 20
-33.2078
 30
0.0
 10
-102.0217
 20
-35.5559
 30
0.0
 10
-99.3462
 20
-37.3566
 30
0.0
 10
-96.9916
 20
-38.3726
 30
0.0
 10
-96.9916
 20
-38.3726
 30
0.0
 10
-96.9916
 20
-38.3726
 30
0.0
 10
-96.9916
 20
-43.4412
 30
0.0
 10
-96.9916
 20
-43.4412
 30
0.0
 10
-96.9916
 20
-43.4412
 30
0.0
 10
-90.3726
 20
-44.3274
 30
0.0
 10
-87.6575
 20
-48.9755
 30
0.0
 10
-87.6496
 20
-55.8948
 30
0.0
 10
-87.6496
 20
-55.8948
 30
0.0
 10
-87.7859
 20
-63.2406
 30
0.0
 10
-90.4525
 20
-67.6615
 30
0.0
 10
-97.069
 20
-68.7911
 30
0.0
 10
-97.069
 20
-68.7911
 30
0.0
 10
-97.069
 20
-68.7911
 30
0.0
 10
-97.069
 20
-74.1294
 30
0.0
 10
-97.069
 20
-74.1294
 30
0.0
 10
-97.069
 20
-74.1294
 30
0.0
 10
-100.1849
 20
-74.9753
 30
0.0
 10
-101.8992
 20
-77.039
 30
0.0
 10
-103.9687
 20
-78.9932
 30
0.0
 10
-103.9687
 20
-78.9932
 30
0.0
 10
-106.038
 20
-77.039
 30
0.0
 10
-107.7525
 20
-74.9753
 30
0.0
 10
-110.8684
 20
-74.1294
 30
0.0
  0
SPLINE
  5
44
330
1F
100
AcDbEntity
  8
layer 1
 62
     7
100
AcDbSpline
210
0.0
220
0.0
230
1.0
 70
    11
 71
     3
 72
    52
 73
    48
 74
     0
 42
0.0000000001
 43
0.0000000001
 12
1.0
 22
0.0
 32
0.0
 13
1.0
 23
0.0
 33
0.0
 40
0.0
 40
0.0
 40
0.0
 40
0.0
 40
0.0769230769230769
 40
0.0769230769230769
 40
0.0769230769230769
 40
0.0769230769230769
 40
0.1538461538461539
 40
0.1538461538461539
 40
0.1538461538461539
 40
0.1538461538461539
 40
0.2307692307692308
 40
0.2307692307692308
 40
0.2307692307692308
 40
0.2307692307692308
 40
0.3076923076923077
 40
0.3076923076923077
 40
0.3076923076923077
 40
0.3076923076923077
 40
0.3846153846153846
 40
0.3846153846153846
 40
0.3846153846153846
 40
0.3846153846153846
 40
0.4615384615384616
 40
0.4615384615384616
 40
0.4615384615384616
 40
0.4615384615384616
 40
0.5384615384615384
 40
0.5384615384615384
 40
0.5384615384615384
 40
0.5384615384615384
 40
0.6153846153846154
 40
0.6153846153846154
 40
0.6153846153846154
 40
0.6153846153846154
 40
0.6923076923076923
 40
0.6923076923076923
 40
0.6923076923076923
 40
0.6923076923076923
 40
0.7692307692307693
 40
0.7692307692307693
 40
0.7692307692307693
 40
0.7692307692307693
 40
0.8461538461538461
 40
0.8461538461538461
 40
0.8461538461538461
 40
0.8461538461538461
 40
1.0
 40
1.0
 40
1.0
 40
1.0
 10
-148.4259
 20
-74.1294
 30
0.0
 10
-148.4259
 20
-74.1294
 30
0.0
 10
-148.4259
 20
-68.7911
 30
0.0
 10
-148.4259
 20
-68.7911
 30
0.0
 10
-148.4259
 20
-68.7911
 30
0.0
 10
-155.0424
 20
-67.6615
 30
0.0
 10
-157.7089
 20
-63.2406
 30
0.0
 10
-157.8453
 20
-55.8948
 30
0.0
 10
-157.8453
 20
-55.8948
 30
0.0
 10
-157.8374
 20
-48.9756
 30
0.0
 10
-155.1223
 20
-44.3274
 30
0.0
 10
-148.5033
 20
-43.4412
 30
0.0
 10
-148.5033
 20
-43.4412
 30
0.0
 10
-148.5033
 20
-43.4412
 30
0.0
 10
-148.5033
 20
-38.3726
 30
0.0
 10
-148.5033
 20
-38.3726
 30
0.0
 10
-148.5033
 20
-38.3726
 30
0.0
 10
-146.1487
 20
-37.3566
 30
0.0
 10
-143.4732
 20
-35.5559
 30
0.0
 10
-141.5262
 20
-33.2078
 30
0.0
 10
-141.5262
 20
-33.2078
 30
0.0
 10
-139.5792
 20
-35.5559
 30
0.0
 10
-136.9037
 20
-37.3566
 30
0.0
 10
-134.5491
 20
-38.3726
 30
0.0
 10
-134.5491
 20
-38.3726
 30
0.0
 10
-134.5491
 20
-38.3726
 30
0.0
 10
-134.5491
 20
-43.4412
 30
0.0
 10
-134.5491
 20
-43.4412
 30
0.0
 10
-134.5491
 20
-43.4412
 30
0.0
 10
-127.9301
 20
-44.3274
 30
0.0
 10
-125.215
 20
-48.9755
 30
0.0
 10
-125.207
 20
-55.8948
 30
0.0
 10
-125.207
 20
-55.8948
 30
0.0
 10
-125.3434
 20
-63.2406
 30
0.0
 10
-128.01
 20
-67.6615
 30
0.0
 10
-134.6265
 20
-68.7911
 30
0.0
 10
-134.6265
 20
-68.7911
 30
0.0
 10
-134.6265
 20
-68.7911
 30
0.0
 10
-134.6265
 20
-74.1294
 30
0.0
 10
-134.6265
 20
-74.1294
 30
0.0
 10
-134.6265
 20
-74.1294
 30
0.0
 10
-137.7424
 20
-74.9753
 30
0.0
 10
-139.4567
 20
-77.039
 30
0.0
 10
-141.5262
 20
-78.9932
 30
0.0
 10
-141.5262
 20
-78.9932
 30
0.0
 10
-143.5955
 20
-77.039
 30
0.0
 10
-145.31
 20
-74.9753
 30
0.0
 10
-148.4259
 20
-74.1294
 30
0.0
  0
SPLINE
  5
45
330
1F
100
AcDbEntity
  8
layer 1
 62
     7
100
AcDbSpline
210
0.0
220
0.0
230
1.0
 70
    11
 71
     3
 72
    52
 73
    48
 74
     0
 42
0.0000000001
 43
0.0000000001
 12
1.0
 22
0.0
 32
0.0
 13
1.0
 23
0.0
 33
0.0
 40
0.0
 40
0.0
 40
0.0
 40
0.0
 40
0.0769230769230769
 40
0.0769230769230769
 40
0.0769230769230769
 40
0.0769230769230769
 40
0.1538461538461539
 40
0.1538461538461539
 40
0.1538461538461539
 40
0.1538461538461539
 40
0.2307692307692308
 40
0.2307692307692308
 40
0.2307692307692308
 40
0.2307692307692308
 40
0.3076923076923077
 40
0.3076923076923077
 40
0.3076923076923077
 40
0.3076923076923077
 40
0.3846153846153846
 40
0.3846153846153846
 40
0.3846153846153846
 40
0.3846153846153846
 40
0.4615384615384616
 40
0.4615384615384616
 40
0.4615384615384616
 40
0.4615384615384616
 40
0.5384615384615384
 40
0.5384615384615384
 40
0.5384615384615384
 40
0.5384615384615384
 40
0.6153846153846154
 40
0.6153846153846154
 40
0.6153846153846154
 40
0.6153846153846154
 40
0.6923076923076923
 40
0.6923076923076923
 40
0.6923076923076923
 40
0.6923076923076923
 40
0.7692307692307693
 40
0.7692307692307693
 40
0.7692307692307693
 40
0.7692307692307693
 40
0.8461538461538461
 40
0.8461538461538461
 40
0.8461538461538461
 40
0.8461538461538461
 40
1.0
 40
1.0
 40
1.0
 40
1.0
 10
-54.6326
 20
-41.3281
 30
0.0
 10
-54.6326
 20
-41.3281
 30
0.0
 10
-54.6326
 20
-35.9898
 30
0.0
 10
-54.6326
 20
-35.9898
 30
0.0
 10
-54.6326
 20
-35.9898
 30
0.0
 10
-61.2491
 20
-34.8602
 30
0.0
 10
-63.9157
 20
-30.4394
 30
0.0
 10
-64.0521
 20
-23.0935
 30
0.0
 10
-64.0521
 20
-23.0935
 30
0.0
 10
-64.0442
 20
-16.1744
 30
0.0
 10
-61.329
 20
-11.5261
 30
0.0
 10
-54.7101
 20
-10.6399
 30
0.0
 10
-54.7101
 20
-10.6399
 30
0.0
 10
-54.7101
 20
-10.6399
 30
0.0
 10
-54.7101
 20
-5.5713
 30
0.0
 10
-54.7101
 20
-5.5713
 30
0.0
 10
-54.7101
 20
-5.5713
 30
0.0
 10
-52.3554
 20
-4.5553
 30
0.0
 10
-49.6799
 20
-2.7546
 30
0.0
 10
-47.7329
 20
-0.4066
 30
0.0
 10
-47.7329
 20
-0.4066
 30
0.0
 10
-45.786
 20
-2.7546
 30
0.0
 10
-43.1105
 20
-4.5553
 30
0.0
 10
-40.7558
 20
-5.5713
 30
0.0
 10
-40.7558
 20
-5.5713
 30
0.0
 10
-40.7558
 20
-5.5713
 30
0.0
 10
-40.7558
 20
-10.6399
 30
0.0
 10
-40.7558
 20
-10.6399
 30
0.0
 10
-40.7558
 20
-10.6399
 30
0.0
 10
-34.1369
 20
-11.5261
 30
0.0
 10
-31.4217
 20
-16.1742
 30
0.0
 10
-31.4138
 20
-23.0935
 30
0.0
 10
-31.4138
 20
-23.0935
 30
0.0
 10
-31.5502
 20
-30.4394
 30
0.0
 10
-34.2168
 20
-34.8602
 30
0.0
 10
-40.8333
 20
-35.9898
 30
0.0
 10
-40.8333
 20
-35.9898
 30
0.0
 10
-40.8333
 20
-35.9898
 30
0.0
 10
-40.8333
 20
-41.3281
 30
0.0
 10
-40.8333
 20
-41.3281
 30
0.0
 10
-40.8333
 20
-41.3281
 30
0.0
 10
-43.9491
 20
-42.174
 30
0.0
 10
-45.6635
 20
-44.2377
 30
0.0
 10
-47.7329
 20
-46.192
 30
0.0
 10
-47.7329
 20
-46.192
 30
0.0
 10
-49.8023
 20
-44.2377
 30
0.0
 10
-51.5168
 20
-42.174
 30
0.0
 10
-54.6326
 20
-41.3281
 30
0.0
  0
SPLINE
  5
46
330
1F
100
AcDbEntity
  8
layer 1
 62
     7
100
AcDbSpline
210
0.0
220
0.0
230
1.0
 70
    11
 71
     3
 72
    52
 73
    48
 74
     0
 42
0.0000000001
 43
0.0000000001
 12
1.0
 22
0.0
 32
0.0
 13
1.0
 23
0.0
 33
0.0
 40
0.0
 40
0.0
 40
0.0
 40
0.0
 40
0.0769230769230769
 40
0.0769230769230769
 40
0.0769230769230769
 40
0.0769230769230769
 40
0.1538461538461539
 40
0.1538461538461539
 40
0.1538461538461539
 40
0.1538461538461539
 40
0.2307692307692308
 40
0.2307692307692308
 40
0.2307692307692308
 40
0.2307692307692308
 40
0.3076923076923077
 40
0.3076923076923077
 40
0.3076923076923077
 40
0.3076923076923077
 40
0.3846153846153846
 40
0.3846153846153846
 40
0.3846153846153846
 40
0.3846153846153846
 40
0.4615384615384616
 40
0.4615384615384616
 40
0.4615384615384616
 40
0.4615384615384616
 40
0.5384615384615384
 40
0.5384615384615384
 40
0.5384615384615384
 40
0.5384615384615384
 40
0.6153846153846154
 40
0.6153846153846154
 40
0.6153846153846154
 40
0.6153846153846154
 40
0.6923076923076923
 40
0.6923076923076923
 40
0.6923076923076923
 40
0.6923076923076923
 40
0.7692307692307693
 40
0.7692307692307693
 40
0.7692307692307693
 40
0.7692307692307693
 40
0.8461538461538461
 40
0.8461538461538461
 40
0.8461538461538461
 40
0.8461538461538461
 40
1.0
 40
1.0
 40
1.0
 40
1.0
 10
-92.1901
 20
-41.3281
 30
0.0
 10
-92.1901
 20
-41.3281
 30
0.0
 10
-92.1901
 20
-35.9898
 30
0.0
 10
-92.1901
 20
-35.9898
 30
0.0
 10
-92.1901
 20
-35.9898
 30
0.0
 10
-98.8066
 20
-34.8602
 30
0.0
 10
-101.4732
 20
-30.4394
 30
0.0
 10
-101.6096
 20
-23.0935
 30
0.0
 10
-101.6096
 20
-23.0935
 30
0.0
 10
-101.6017
 20
-16.1744
 30
0.0
 10
-98.8865
 20
-11.5261
 30
0.0
 10
-92.2676
 20
-10.6399
 30
0.0
 10
-92.2676
 20
-10.6399
 30
0.0
 10
-92.2676
 20
-10.6399
 30
0.0
 10
-92.2676
 20
-5.5713
 30
0.0
 10
-92.2676
 20
-5.5713
 30
0.0
 10
-92.2676
 20
-5.5713
 30
0.0
 10
-89.9129
 20
-4.5553
 30
0.0
 10
-87.2374
 20
-2.7546
 30
0.0
 10
-85.2904
 20
-0.4066
 30
0.0
 10
-85.2904
 20
-0.4066
 30
0.0
 10
-83.3435
 20
-2.7546
 30
0.0
 10
-80.668
 20
-4.5553
 30
0.0
 10
-78.3133
 20
-5.5713
 30
0.0
 10
-78.3133
 20
-5.5713
 30
0.0
 10
-78.3133
 20
-5.5713
 30
0.0
 10
-78.3133
 20
-10.6399
 30
0.0
 10
-78.3133
 20
-10.6399
 30
0.0
 10
-78.3133
 20
-10.6399
 30
0.0
 10
-71.6943
 20
-11.5261
 30
0.0
 10
-68.9792
 20
-16.1742
 30
0.0
 10
-68.9713
 20
-23.0935
 30
0.0
 10
-68.9713
 20
-23.0935
 30
0.0
 10
-69.1077
 20
-30.4394
 30
0.0
 10
-71.7743
 20
-34.8602
 30
0.0
 10
-78.3908
 20
-35.9898
 30
0.0
 10
-78.3908
 20
-35.9898
 30
0.0
 10
-78.3908
 20
-35.9898
 30
0.0
 10
-78.3908
 20
-41.3281
 30
0.0
 10
-78.3908
 20
-41.3281
 30
0.0
 10
-78.3908
 20
-41.3281
 30
0.0
 10
-81.5066
 20
-42.174
 30
0.0
 10
-83.2209
 20
-44.2377
 30
0.0
 10
-85.2904
 20
-46.192
 30
0.0
 10
-85.2904
 20
-46.192
 30
0.0
 10
-87.3598
 20
-44.2377
 30
0.0
 10
-89.0742
 20
-42.174
 30
0.0
 10
-92.1901
 20
-41.3281
 30
0.0
  0
SPLINE
  5
47
330
1F
100
AcDbEntity
  8
layer 1
 62
     7
100
AcDbSpline
210
0.0
220
0.0
230
1.0
 70
    11
 71
     3
 72
    52
 73
    48
 74
     0
 42
0.0000000001
 43
0.0000000001
 12
1.0
 22
0.0
 32
0.0
 13
1.0
 23
0.0
 33
0.0
 40
0.0
 40
0.0
 40
0.0
 40
0.0
 40
0.0769230769230769
 40
0.0769230769230769
 40
0.0769230769230769
 40
0.0769230769230769
 40
0.1538461538461539
 40
0.1538461538461539
 40
0.1538461538461539
 40
0.1538461538461539
 40
0.2307692307692308
 40
0.2307692307692308
 40
0.2307692307692308
 40
0.2307692307692308
 40
0.3076923076923077
 40
0.3076923076923077
 40
0.3076923076923077
 40
0.3076923076923077
 40
0.3846153846153846
 40
0.3846153846153846
 40
0.3846153846153846
 40
0.3846153846153846
 40
0.4615384615384616
 40
0.4615384615384616
 40
0.4615384615384616
 40
0.4615384615384616
 40
0.5384615384615384
 40
0.5384615384615384
 40
0.5384615384615384
 40
0.5384615384615384
 40
0.6153846153846154
 40
0.6153846153846154
 40
0.6153846153846154
 40
0.6153846153846154
 40
0.6923076923076923
 40
0.6923076923076923
 40
0.6923076923076923
 40
0.6923076923076923
 40
0.7692307692307693
 40
0.7692307692307693
 40
0.7692307692307693
 40
0.7692307692307693
 40
0.8461538461538461
 40
0.8461538461538461
 40
0.8461538461538461
 40
0.8461538461538461
 40
1.0
 40
1.0
 40
1.0
 40
1.0
 10
-129.7476
 20
-41.3281
 30
0.0
 10
-129.7476
 20
-41.3281
 30
0.0
 10
-129.7476
 20
-35.9898
 30
0.0
 10
-129.7476
 20
-35.9898
 30
0.0
 10
-129.7476
 20
-35.9898
 30
0.0
 10
-136.3641
 20
-34.8602
 30
0.0
 10
-139.0307
 20
-30.4394
 30
0.0
 10
-139.1671
 20
-23.0935
 30
0.0
 10
-139.1671
 20
-23.0935
 30
0.0
 10
-139.1591
 20
-16.1744
 30
0.0
 10
-136.444
 20
-11.5261
 30
0.0
 10
-129.825
 20
-10.6399
 30
0.0
 10
-129.825
 20
-10.6399
 30
0.0
 10
-129.825
 20
-10.6399
 30
0.0
 10
-129.825
 20
-5.5713
 30
0.0
 10
-129.825
 20
-5.5713
 30
0.0
 10
-129.825
 20
-5.5713
 30
0.0
 10
-127.4704
 20
-4.5553
 30
0.0
 10
-124.7949
 20
-2.7546
 30
0.0
 10
-122.8479
 20
-0.4066
 30
0.0
 10
-122.8479
 20
-0.4066
 30
0.0
 10
-120.901
 20
-2.7546
 30
0.0
 10
-118.2255
 20
-4.5553
 30
0.0
 10
-115.8708
 20
-5.5713
 30
0.0
 10
-115.8708
 20
-5.5713
 30
0.0
 10
-115.8708
 20
-5.5713
 30
0.0
 10
-115.8708
 20
-10.6399
 30
0.0
 10
-115.8708
 20
-10.6399
 30
0.0
 10
-115.8708
 20
-10.6399
 30
0.0
 10
-109.2518
 20
-11.5261
 30
0.0
 10
-106.5367
 20
-16.1742
 30
0.0
 10
-106.5288
 20
-23.0935
 30
0.0
 10
-106.5288
 20
-23.0935
 30
0.0
 10
-106.6652
 20
-30.4394
 30
0.0
 10
-109.3317
 20
-34.8602
 30
0.0
 10
-115.9482
 20
-35.9898
 30
0.0
 10
-115.9482
 20
-35.9898
 30
0.0
 10
-115.9482
 20
-35.9898
 30
0.0
 10
-115.9482
 20
-41.3281
 30
0.0
 10
-115.9482
 20
-41.3281
 30
0.0
 10
-115.9482
 20
-41.3281
 30
0.0
 10
-119.0641
 20
-42.174
 30
0.0
 10
-120.7784
 20
-44.2377
 30
0.0
 10
-122.8479
 20
-46.192
 30
0.0
 10
-122.8479
 20
-46.192
 30
0.0
 10
-124.9172
 20
-44.2377
 30
0.0
 10
-126.6317
 20
-42.174
 30
0.0
 10
-129.7476
 20
-41.3281
 30
0.0
  0
SPLINE
  5
48
330
1F
100
AcDbEntity
  8
layer 1
 62
     7
100
AcDbSpline
210
0.0
220
0.0
230
1.0
 70
    11
 71
     3
 72
    52
 73
    48
 74
     0
 42
0.0000000001
 43
0.0000000001
 12
1.0
 22
0.0
 32
0.0
 13
1.0
 23
0.0
 33
0.0
 40
0.0
 40
0.0
 40
0.0
 40
0.0
 40
0.0769230769230769
 40
0.0769230769230769
 40
0.0769230769230769
 40
0.0769230769230769
 40
0.1538461538461539
 40
0.1538461538461539
 40
0.1538461538461539
 40
0.1538461538461539
 40
0.2307692307692308
 40
0.2307692307692308
 40
0.2307692307692308
 40
0.2307692307692308
 40
0.3076923076923077
 40
0.3076923076923077
 40
0.3076923076923077
 40
0.3076923076923077
 40
0.3846153846153846
 40
0.3846153846153846
 40
0.3846153846153846
 40
0.3846153846153846
 40
0.4615384615384616
 40
0.4615384615384616
 40
0.4615384615384616
 40
0.4615384615384616
 40
0.5384615384615384
 40
0.5384615384615384
 40
0.5384615384615384
 40
0.5384615384615384
 40
0.6153846153846154
 40
0.6153846153846154
 40
0.6153846153846154
 40
0.6153846153846154
 40
0.6923076923076923
 40
0.6923076923076923
 40
0.6923076923076923
 40
0.6923076923076923
 40
0.7692307692307693
 40
0.7692307692307693
 40
0.7692307692307693
 40
0.7692307692307693
 40
0.8461538461538461
 40
0.8461538461538461
 40
0.8461538461538461
 40
0.8461538461538461
 40
1.0
 40
1.0
 40
1.0
 40
1.0
 10
-167.3051
 20
-41.3281
 30
0.0
 10
-167.3051
 20
-41.3281
 30
0.0
 10
-167.3051
 20
-35.9898
 30
0.0
 10
-167.3051
 20
-35.9898
 30
0.0
 10
-167.3051
 20
-35.9898
 30
0.0
 10
-173.9216
 20
-34.8602
 30
0.0
 10
-176.5882
 20
-30.4394
 30
0.0
 10
-176.7246
 20
-23.0935
 30
0.0
 10
-176.7246
 20
-23.0935
 30
0.0
 10
-176.7166
 20
-16.1744
 30
0.0
 10
-174.0015
 20
-11.5261
 30
0.0
 10
-167.3825
 20
-10.6399
 30
0.0
 10
-167.3825
 20
-10.6399
 30
0.0
 10
-167.3825
 20
-10.6399
 30
0.0
 10
-167.3825
 20
-5.5713
 30
0.0
 10
-167.3825
 20
-5.5713
 30
0.0
 10
-167.3825
 20
-5.5713
 30
0.0
 10
-165.0279
 20
-4.5553
 30
0.0
 10
-162.3524
 20
-2.7546
 30
0.0
 10
-160.4054
 20
-0.4066
 30
0.0
 10
-160.4054
 20
-0.4066
 30
0.0
 10
-158.4584
 20
-2.7546
 30
0.0
 10
-155.7829
 20
-4.5553
 30
0.0
 10
-153.4283
 20
-5.5713
 30
0.0
 10
-153.4283
 20
-5.5713
 30
0.0
 10
-153.4283
 20
-5.5713
 30
0.0
 10
-153.4283
 20
-10.6399
 30
0.0
 10
-153.4283
 20
-10.6399
 30
0.0
 10
-153.4283
 20
-10.6399
 30
0.0
 10
-146.8093
 20
-11.5261
 30
0.0
 10
-144.0942
 20
-16.1742
 30
0.0
 10
-144.0863
 20
-23.0935
 30
0.0
 10
-144.0863
 20
-23.0935
 30
0.0
 10
-144.2227
 20
-30.4394
 30
0.0
 10
-146.8892
 20
-34.8602
 30
0.0
 10
-153.5057
 20
-35.9898
 30
0.0
 10
-153.5057
 20
-35.9898
 30
0.0
 10
-153.5057
 20
-35.9898
 30
0.0
 10
-153.5057
 20
-41.3281
 30
0.0
 10
-153.5057
 20
-41.3281
 30
0.0
 10
-153.5057
 20
-41.3281
 30
0.0
 10
-156.6216
 20
-42.174
 30
0.0
 10
-158.3359
 20
-44.2377
 30
0.0
 10
-160.4054
 20
-46.192
 30
0.0
 10
-160.4054
 20
-46.192
 30
0.0
 10
-162.4747
 20
-44.2377
 30
0.0
 10
-164.1892
 20
-42.174
 30
0.0
 10
-167.3051
 20
-41.3281
 30
0.0
  0
SPLINE
  5
49
330
1F
100
AcDbEntity
  8
layer 1
 62
     7
100
AcDbSpline
210
0.0
220
0.0
230
1.0
 70
    11
 71
     3
 72
    52
 73
    48
 74
     0
 42
0.0000000001
 43
0.0000000001
 12
1.0
 22
0.0
 32
0.0
 13
1.0
 23
0.0
 33
0.0
 40
0.0
 40
0.0
 40
0.0
 40
0.0
 40
0.0769230769230769
 40
0.0769230769230769
 40
0.0769230769230769
 40
0.0769230769230769
 40
0.1538461538461539
 40
0.1538461538461539
 40
0.1538461538461539
 40
0.1538461538461539
 40
0.2307692307692308
 40
0.2307692307692308
 40
0.2307692307692308
 40
0.2307692307692308
 40
0.3076923076923077
 40
0.3076923076923077
 40
0.3076923076923077
 40
0.3076923076923077
 40
0.3846153846153846
 40
0.3846153846153846
 40
0.3846153846153846
 40
0.3846153846153846
 40
0.4615384615384616
 40
0.4615384615384616
 40
0.4615384615384616
 40
0.4615384615384616
 40
0.5384615384615384
 40
0.5384615384615384
 40
0.5384615384615384
 40
0.5384615384615384
 40
0.6153846153846154
 40
0.6153846153846154
 40
0.6153846153846154
 40
0.6153846153846154
 40
0.6923076923076923
 40
0.6923076923076923
 40
0.6923076923076923
 40
0.6923076923076923
 40
0.7692307692307693
 40
0.7692307692307693
 40
0.7692307692307693
 40
0.7692307692307693
 40
0.8461538461538461
 40
0.8461538461538461
 40
0.8461538461538461
 40
0.8461538461538461
 40
1.0
 40
1.0
 40
1.0
 40
1.0
 10
-54.6326
 20
22.5317
 30
0.0
 10
-54.6326
 20
22.5317
 30
0.0
 10
-54.6326
 20
27.87
 30
0.0
 10
-54.6326
 20
27.87
 30
0.0
 10
-54.6326
 20
27.87
 30
0.0
 10
-61.2491
 20
28.9996
 30
0.0
 10
-63.9157
 20
33.4205
 30
0.0
 10
-64.0521
 20
40.7663
 30
0.0
 10
-64.0521
 20
40.7663
 30
0.0
 10
-64.0442
 20
47.6855
 30
0.0
 10
-61.329
 20
52.3337
 30
0.0
 10
-54.7101
 20
53.2199
 30
0.0
 10
-54.7101
 20
53.2199
 30
0.0
 10
-54.7101
 20
53.2199
 30
0.0
 10
-54.7101
 20
58.2885
 30
0.0
 10
-54.7101
 20
58.2885
 30
0.0
 10
-54.7101
 20
58.2885
 30
0.0
 10
-52.3554
 20
59.3045
 30
0.0
 10
-49.6799
 20
61.1052
 30
0.0
 10
-47.7329
 20
63.4533
 30
0.0
 10
-47.7329
 20
63.4533
 30
0.0
 10
-45.786
 20
61.1052
 30
0.0
 10
-43.1105
 20
59.3045
 30
0.0
 10
-40.7558
 20
58.2885
 30
0.0
 10
-40.7558
 20
58.2885
 30
0.0
 10
-40.7558
 20
58.2885
 30
0.0
 10
-40.7558
 20
53.2199
 30
0.0
 10
-40.7558
 20
53.2199
 30
0.0
 10
-40.7558
 20
53.2199
 30
0.0
 10
-34.1369
 20
52.3337
 30
0.0
 10
-31.4217
 20
47.6856
 30
0.0
 10
-31.4138
 20
40.7663
 30
0.0
 10
-31.4138
 20
40.7663
 30
0.0
 10
-31.5502
 20
33.4205
 30
0.0
 10
-34.2168
 20
28.9996
 30
0.0
 10
-40.8333
 20
27.87
 30
0.0
 10
-40.8333
 20
27.87
 30
0.0
 10
-40.8333
 20
27.87
 30
0.0
 10
-40.8333
 20
22.5317
 30
0.0
 10
-40.8333
 20
22.5317
 30
0.0
 10
-40.8333
 20
22.5317
 30
0.0
 10
-43.9491
 20
21.6858
 30
0.0
 10
-45.6635
 20
19.6221
 30
0.0
 10
-47.7329
 20
17.6679
 30
0.0
 10
-47.7329
 20
17.6679
 30
0.0
 10
-49.8023
 20
19.6221
 30
0.0
 10
-51.5168
 20
21.6858
 30
0.0
 10
-54.6326
 20
22.5317
 30
0.0
  0
SPLINE
  5
4A
330
1F
100
AcDbEntity
  8
layer 1
 62
     7
100
AcDbSpline
210
0.0
220
0.0
230
1.0
 70
    11
 71
     3
 72
    52
 73
    48
 74
     0
 42
0.0000000001
 43
0.0000000001
 12
1.0
 22
0.0
 32
0.0
 13
1.0
 23
0.0
 33
0.0
 40
0.0
 40
0.0
 40
0.0
 40
0.0
 40
0.0769230769230769
 40
0.0769230769230769
 40
0.0769230769230769
 40
0.0769230769230769
 40
0.1538461538461539
 40
0.1538461538461539
 40
0.1538461538461539
 40
0.1538461538461539
 40
0.2307692307692308
 40
0.2307692307692308
 40
0.2307692307692308
 40
0.2307692307692308
 40
0.3076923076923077
 40
0.3076923076923077
 40
0.3076923076923077
 40
0.3076923076923077
 40
0.3846153846153846
 40
0.3846153846153846
 40
0.3846153846153846
 40
0.3846153846153846
 40
0.4615384615384616
 40
0.4615384615384616
 40
0.4615384615384616
 40
0.4615384615384616
 40
0.5384615384615384
 40
0.5384615384615384
 40
0.5384615384615384
 40
0.5384615384615384
 40
0.6153846153846154
 40
0.6153846153846154
 40
0.6153846153846154
 40
0.6153846153846154
 40
0.6923076923076923
 40
0.6923076923076923
 40
0.6923076923076923
 40
0.6923076923076923
 40
0.7692307692307693
 40
0.7692307692307693
 40
0.7692307692307693
 40
0.7692307692307693
 40
0.8461538461538461
 40
0.8461538461538461
 40
0.8461538461538461
 40
0.8461538461538461
 40
1.0
 40
1.0
 40
1.0
 40
1.0
 10
-92.1901
 20
22.5317
 30
0.0
 10
-92.1901
 20
22.5317
 30
0.0
 10
-92.1901
 20
27.87
 30
0.0
 10
-92.1901
 20
27.87
 30
0.0
 10
-92.1901
 20
27.87
 30
0.0
 10
-98.8066
 20
28.9996
 30
0.0
 10
-101.4732
 20
33.4205
 30
0.0
 10
-101.6096
 20
40.7663
 30
0.0
 10
-101.6096
 20
40.7663
 30
0.0
 10
-101.6017
 20
47.6855
 30
0.0
 10
-98.8865
 20
52.3337
 30
0.0
 10
-92.2676
 20
53.2199
 30
0.0
 10
-92.2676
 20
53.2199
 30
0.0
 10
-92.2676
 20
53.2199
 30
0.0
 10
-92.2676
 20
58.2885
 30
0.0
 10
-92.2676
 20
58.2885
 30
0.0
 10
-92.2676
 20
58.2885
 30
0.0
 10
-89.9129
 20
59.3045
 30
0.0
 10
-87.2374
 20
61.1052
 30
0.0
 10
-85.2904
 20
63.4533
 30
0.0
 10
-85.2904
 20
63.4533
 30
0.0
 10
-83.3435
 20
61.1052
 30
0.0
 10
-80.668
 20
59.3045
 30
0.0
 10
-78.3133
 20
58.2885
 30
0.0
 10
-78.3133
 20
58.2885
 30
0.0
 10
-78.3133
 20
58.2885
 30
0.0
 10
-78.3133
 20
53.2199
 30
0.0
 10
-78.3133
 20
53.2199
 30
0.0
 10
-78.3133
 20
53.2199
 30
0.0
 10
-71.6943
 20
52.3337
 30
0.0
 10
-68.9792
 20
47.6856
 30
0.0
 10
-68.9713
 20
40.7663
 30
0.0
 10
-68.9713
 20
40.7663
 30
0.0
 10
-69.1077
 20
33.4205
 30
0.0
 10
-71.7743
 20
28.9996
 30
0.0
 10
-78.3908
 20
27.87
 30
0.0
 10
-78.3908
 20
27.87
 30
0.0
 10
-78.3908
 20
27.87
 30
0.0
 10
-78.3908
 20
22.5317
 30
0.0
 10
-78.3908
 20
22.5317
 30
0.0
 10
-78.3908
 20
22.5317
 30
0.0
 10
-81.5066
 20
21.6858
 30
0.0
 10
-83.2209
 20
19.6221
 30
0.0
 10
-85.2904
 20
17.6679
 30
0.0
 10
-85.2904
 20
17.6679
 30
0.0
 10
-87.3598
 20
19.6221
 30
0.0
 10
-89.0742
 20
21.6858
 30
0.0
 10
-92.1901
 20
22.5317
 30
0.0
  0
SPLINE
  5
4B
330
1F
100
AcDbEntity
  8
layer 1
 62
     7
100
AcDbSpline
210
0.0
220
0.0
230
1.0
 70
    11
 71
     3
 72
    52
 73
    48
 74
     0
 42
0.0000000001
 43
0.0000000001
 12
1.0
 22
0.0
 32
0.0
 13
1.0
 23
0.0
 33
0.0
 40
0.0
 40
0.0
 40
0.0
 40
0.0
 40
0.0769230769230769
 40
0.0769230769230769
 40
0.0769230769230769
 40
0.0769230769230769
 40
0.1538461538461539
 40
0.1538461538461539
 40
0.1538461538461539
 40
0.1538461538461539
 40
0.2307692307692308
 40
0.2307692307692308
 40
0.2307692307692308
 40
0.2307692307692308
 40
0.3076923076923077
 40
0.3076923076923077
 40
0.3076923076923077
 40
0.3076923076923077
 40
0.3846153846153846
 40
0.3846153846153846
 40
0.3846153846153846
 40
0.3846153846153846
 40
0.4615384615384616
 40
0.4615384615384616
 40
0.4615384615384616
 40
0.4615384615384616
 40
0.5384615384615384
 40
0.5384615384615384
 40
0.5384615384615384
 40
0.5384615384615384
 40
0.6153846153846154
 40
0.6153846153846154
 40
0.6153846153846154
 40
0.6153846153846154
 40
0.6923076923076923
 40
0.6923076923076923
 40
0.6923076923076923
 40
0.6923076923076923
 40
0.7692307692307693
 40
0.7692307692307693
 40
0.7692307692307693
 40
0.7692307692307693
 40
0.8461538461538461
 40
0.8461538461538461
 40
0.8461538461538461
 40
0.8461538461538461
 40
1.0
 40
1.0
 40
1.0
 40
1.0
 10
-129.7476
 20
22.5317
 30
0.0
 10
-129.7476
 20
22.5317
 30
0.0
 10
-129.7476
 20
27.87
 30
0.0
 10
-129.7476
 20
27.87
 30
0.0
 10
-129.7476
 20
27.87
 30
0.0
 10
-136.3641
 20
28.9996
 30
0.0
 10
-139.0307
 20
33.4205
 30
0.0
 10
-139.1671
 20
40.7663
 30
0.0
 10
-139.1671
 20
40.7663
 30
0.0
 10
-139.1591
 20
47.6855
 30
0.0
 10
-136.444
 20
52.3337
 30
0.0
 10
-129.825
 20
53.2199
 30
0.0
 10
-129.825
 20
53.2199
 30
0.0
 10
-129.825
 20
53.2199
 30
0.0
 10
-129.825
 20
58.2885
 30
0.0
 10
-129.825
 20
58.2885
 30
0.0
 10
-129.825
 20
58.2885
 30
0.0
 10
-127.4704
 20
59.3045
 30
0.0
 10
-124.7949
 20
61.1052
 30
0.0
 10
-122.8479
 20
63.4533
 30
0.0
 10
-122.8479
 20
63.4533
 30
0.0
 10
-120.901
 20
61.1052
 30
0.0
 10
-118.2255
 20
59.3045
 30
0.0
 10
-115.8708
 20
58.2885
 30
0.0
 10
-115.8708
 20
58.2885
 30
0.0
 10
-115.8708
 20
58.2885
 30
0.0
 10
-115.8708
 20
53.2199
 30
0.0
 10
-115.8708
 20
53.2199
 30
0.0
 10
-115.8708
 20
53.2199
 30
0.0
 10
-109.2518
 20
52.3337
 30
0.0
 10
-106.5367
 20
47.6856
 30
0.0
 10
-106.5288
 20
40.7663
 30
0.0
 10
-106.5288
 20
40.7663
 30
0.0
 10
-106.6652
 20
33.4205
 30
0.0
 10
-109.3317
 20
28.9996
 30
0.0
 10
-115.9482
 20
27.87
 30
0.0
 10
-115.9482
 20
27.87
 30
0.0
 10
-115.9482
 20
27.87
 30
0.0
 10
-115.9482
 20
22.5317
 30
0.0
 10
-115.9482
 20
22.5317
 30
0.0
 10
-115.9482
 20
22.5317
 30
0.0
 10
-119.0641
 20
21.6858
 30
0.0
 10
-120.7784
 20
19.6221
 30
0.0
 10
-122.8479
 20
17.6679
 30
0.0
 10
-122.8479
 20
17.6679
 30
0.0
 10
-124.9172
 20
19.6221
 30
0.0
 10
-126.6317
 20
21.6858
 30
0.0
 10
-129.7476
 20
22.5317
 30
0.0
  0
SPLINE
  5
4C
330
1F
100
AcDbEntity
  8
layer 1
 62
     7
100
AcDbSpline
210
0.0
220
0.0
230
1.0
 70
    11
 71
     3
 72
    52
 73
    48
 74
     0
 42
0.0000000001
 43
0.0000000001
 12
1.0
 22
0.0
 32
0.0
 13
1.0
 23
0.0
 33
0.0
 40
0.0
 40
0.0
 40
0.0
 40
0.0
 40
0.0769230769230769
 40
0.0769230769230769
 40
0.0769230769230769
 40
0.0769230769230769
 40
0.1538461538461539
 40
0.1538461538461539
 40
0.1538461538461539
 40
0.1538461538461539
 40
0.2307692307692308
 40
0.2307692307692308
 40
0.2307692307692308
 40
0.2307692307692308
 40
0.3076923076923077
 40
0.3076923076923077
 40
0.3076923076923077
 40
0.3076923076923077
 40
0.3846153846153846
 40
0.3846153846153846
 40
0.3846153846153846
 40
0.3846153846153846
 40
0.4615384615384616
 40
0.4615384615384616
 40
0.4615384615384616
 40
0.4615384615384616
 40
0.5384615384615384
 40
0.5384615384615384
 40
0.5384615384615384
 40
0.5384615384615384
 40
0.6153846153846154
 40
0.6153846153846154
 40
0.6153846153846154
 40
0.6153846153846154
 40
0.6923076923076923
 40
0.6923076923076923
 40
0.6923076923076923
 40
0.6923076923076923
 40
0.7692307692307693
 40
0.7692307692307693
 40
0.7692307692307693
 40
0.7692307692307693
 40
0.8461538461538461
 40
0.8461538461538461
 40
0.8461538461538461
 40
0.8461538461538461
 40
1.0
 40
1.0
 40
1.0
 40
1.0
 10
-167.3051
 20
22.5317
 30
0.0
 10
-167.3051
 20
22.5317
 30
0.0
 10
-167.3051
 20
27.87
 30
0.0
 10
-167.3051
 20
27.87
 30
0.0
 10
-167.3051
 20
27.87
 30
0.0
 10
-173.9216
 20
28.9996
 30
0.0
 10
-176.5882
 20
33.4205
 30
0.0
 10
-176.7246
 20
40.7663
 30
0.0
 10
-176.7246
 20
40.7663
 30
0.0
 10
-176.7166
 20
47.6855
 30
0.0
 10
-174.0015
 20
52.3337
 30
0.0
 10
-167.3825
 20
53.2199
 30
0.0
 10
-167.3825
 20
53.2199
 30
0.0
 10
-167.3825
 20
53.2199
 30
0.0
 10
-167.3825
 20
58.2885
 30
0.0
 10
-167.3825
 20
58.2885
 30
0.0
 10
-167.3825
 20
58.2885
 30
0.0
 10
-165.0279
 20
59.3045
 30
0.0
 10
-162.3524
 20
61.1052
 30
0.0
 10
-160.4054
 20
63.4533
 30
0.0
 10
-160.4054
 20
63.4533
 30
0.0
 10
-158.4584
 20
61.1052
 30
0.0
 10
-155.7829
 20
59.3045
 30
0.0
 10
-153.4283
 20
58.2885
 30
0.0
 10
-153.4283
 20
58.2885
 30
0.0
 10
-153.4283
 20
58.2885
 30
0.0
 10
-153.4283
 20
53.2199
 30
0.0
 10
-153.4283
 20
53.2199
 30
0.0
 10
-153.4283
 20
53.2199
 30
0.0
 10
-146.8093
 20
52.3337
 30
0.0
 10
-144.0942
 20
47.6856
 30
0.0
 10
-144.0863
 20
40.7663
 30
0.0
 10
-144.0863
 20
40.7663
 30
0.0
 10
-144.2227
 20
33.4205
 30
0.0
 10
-146.8892
 20
28.9996
 30
0.0
 10
-153.5057
 20
27.87
 30
0.0
 10
-153.5057
 20
27.87
 30
0.0
 10
-153.5057
 20
27.87
 30
0.0
 10
-153.5057
 20
22.5317
 30
0.0
 10
-153.5057
 20
22.5317
 30
0.0
 10
-153.5057
 20
22.5317
 30
0.0
 10
-156.6216
 20
21.6858
 30
0.0
 10
-158.3359
 20
19.6221
 30
0.0
 10
-160.4054
 20
17.6679
 30
0.0
 10
-160.4054
 20
17.6679
 30
0.0
 10
-162.4747
 20
19.6221
 30
0.0
 10
-164.1892
 20
21.6858
 30
0.0
 10
-167.3051
 20
22.5317
 30
0.0
  0
SPLINE
  5
4D
330
1F
100
AcDbEntity
  8
layer 1
 62
     7
100
AcDbSpline
210
0.0
220
0.0
230
1.0
 70
    11
 71
     3
 72
    52
 73
    48
 74
     0
 42
0.0000000001
 43
0.0000000001
 12
1.0
 22
0.0
 32
0.0
 13
1.0
 23
0.0
 33
0.0
 40
0.0
 40
0.0
 40
0.0
 40
0.0
 40
0.0769230769230769
 40
0.0769230769230769
 40
0.0769230769230769
 40
0.0769230769230769
 40
0.1538461538461539
 40
0.1538461538461539
 40
0.1538461538461539
 40
0.1538461538461539
 40
0.2307692307692308
 40
0.2307692307692308
 40
0.2307692307692308
 40
0.2307692307692308
 40
0.3076923076923077
 40
0.3076923076923077
 40
0.3076923076923077
 40
0.3076923076923077
 40
0.3846153846153846
 40
0.3846153846153846
 40
0.3846153846153846
 40
0.3846153846153846
 40
0.4615384615384616
 40
0.4615384615384616
 40
0.4615384615384616
 40
0.4615384615384616
 40
0.5384615384615384
 40
0.5384615384615384
 40
0.5384615384615384
 40
0.5384615384615384
 40
0.6153846153846154
 40
0.6153846153846154
 40
0.6153846153846154
 40
0.6153846153846154
 40
0.6923076923076923
 40
0.6923076923076923
 40
0.6923076923076923
 40
0.6923076923076923
 40
0.7692307692307693
 40
0.7692307692307693
 40
0.7692307692307693
 40
0.7692307692307693
 40
0.8461538461538461
 40
0.8461538461538461
 40
0.8461538461538461
 40
0.8461538461538461
 40
1.0
 40
1.0
 40
1.0
 40
1.0
 10
-73.3109
 20
54.2993
 30
0.0
 10
-73.3109
 20
54.2993
 30
0.0
 10
-73.3109
 20
59.6376
 30
0.0
 10
-73.3109
 20
59.6376
 30
0.0
 10
-73.3109
 20
59.6376
 30
0.0
 10
-79.9274
 20
60.7672
 30
0.0
 10
-82.594
 20
65.1881
 30
0.0
 10
-82.7304
 20
72.5339
 30
0.0
 10
-82.7304
 20
72.5339
 30
0.0
 10
-82.7224
 20
79.4531
 30
0.0
 10
-80.0073
 20
84.1013
 30
0.0
 10
-73.3883
 20
84.9875
 30
0.0
 10
-73.3883
 20
84.9875
 30
0.0
 10
-73.3883
 20
84.9875
 30
0.0
 10
-73.3883
 20
90.0561
 30
0.0
 10
-73.3883
 20
90.0561
 30
0.0
 10
-73.3883
 20
90.0561
 30
0.0
 10
-71.0337
 20
91.0721
 30
0.0
 10
-68.3582
 20
92.8728
 30
0.0
 10
-66.4112
 20
95.2209
 30
0.0
 10
-66.4112
 20
95.2209
 30
0.0
 10
-64.4642
 20
92.8728
 30
0.0
 10
-61.7888
 20
91.0721
 30
0.0
 10
-59.4341
 20
90.0561
 30
0.0
 10
-59.4341
 20
90.0561
 30
0.0
 10
-59.4341
 20
90.0561
 30
0.0
 10
-59.4341
 20
84.9875
 30
0.0
 10
-59.4341
 20
84.9875
 30
0.0
 10
-59.4341
 20
84.9875
 30
0.0
 10
-52.8151
 20
84.1013
 30
0.0
 10
-50.1
 20
79.4532
 30
0.0
 10
-50.0921
 20
72.5339
 30
0.0
 10
-50.0921
 20
72.5339
 30
0.0
 10
-50.2285
 20
65.1881
 30
0.0
 10
-52.895
 20
60.7672
 30
0.0
 10
-59.5115
 20
59.6376
 30
0.0
 10
-59.5115
 20
59.6376
 30
0.0
 10
-59.5115
 20
59.6376
 30
0.0
 10
-59.5115
 20
54.2993
 30
0.0
 10
-59.5115
 20
54.2993
 30
0.0
 10
-59.5115
 20
54.2993
 30
0.0
 10
-62.6274
 20
53.4534
 30
0.0
 10
-64.3417
 20
51.3897
 30
0.0
 10
-66.4112
 20
49.4354
 30
0.0
 10
-66.4112
 20
49.4354
 30
0.0
 10
-68.4805
 20
51.3897
 30
0.0
 10
-70.195
 20
53.4534
 30
0.0
 10
-73.3109
 20
54.2993
 30
0.0
  0
SPLINE
  5
4E
330
1F
100
AcDbEntity
  8
layer 1
 62
     7
100
AcDbSpline
210
0.0
220
0.0
230
1.0
 70
    11
 71
     3
 72
    52
 73
    48
 74
     0
 42
0.0000000001
 43
0.0000000001
 12
1.0
 22
0.0
 32
0.0
 13
1.0
 23
0.0
 33
0.0
 40
0.0
 40
0.0
 40
0.0
 40
0.0
 40
0.0769230769230769
 40
0.0769230769230769
 40
0.0769230769230769
 40
0.0769230769230769
 40
0.1538461538461539
 40
0.1538461538461539
 40
0.1538461538461539
 40
0.1538461538461539
 40
0.2307692307692308
 40
0.2307692307692308
 40
0.2307692307692308
 40
0.2307692307692308
 40
0.3076923076923077
 40
0.3076923076923077
 40
0.3076923076923077
 40
0.3076923076923077
 40
0.3846153846153846
 40
0.3846153846153846
 40
0.3846153846153846
 40
0.3846153846153846
 40
0.4615384615384616
 40
0.4615384615384616
 40
0.4615384615384616
 40
0.4615384615384616
 40
0.5384615384615384
 40
0.5384615384615384
 40
0.5384615384615384
 40
0.5384615384615384
 40
0.6153846153846154
 40
0.6153846153846154
 40
0.6153846153846154
 40
0.6153846153846154
 40
0.6923076923076923
 40
0.6923076923076923
 40
0.6923076923076923
 40
0.6923076923076923
 40
0.7692307692307693
 40
0.7692307692307693
 40
0.7692307692307693
 40
0.7692307692307693
 40
0.8461538461538461
 40
0.8461538461538461
 40
0.8461538461538461
 40
0.8461538461538461
 40
1.0
 40
1.0
 40
1.0
 40
1.0
 10
-110.8684
 20
54.2993
 30
0.0
 10
-110.8684
 20
54.2993
 30
0.0
 10
-110.8684
 20
59.6376
 30
0.0
 10
-110.8684
 20
59.6376
 30
0.0
 10
-110.8684
 20
59.6376
 30
0.0
 10
-117.4849
 20
60.7672
 30
0.0
 10
-120.1515
 20
65.1881
 30
0.0
 10
-120.2878
 20
72.5339
 30
0.0
 10
-120.2878
 20
72.5339
 30
0.0
 10
-120.2799
 20
79.4531
 30
0.0
 10
-117.5648
 20
84.1013
 30
0.0
 10
-110.9458
 20
84.9875
 30
0.0
 10
-110.9458
 20
84.9875
 30
0.0
 10
-110.9458
 20
84.9875
 30
0.0
 10
-110.9458
 20
90.0561
 30
0.0
 10
-110.9458
 20
90.0561
 30
0.0
 10
-110.9458
 20
90.0561
 30
0.0
 10
-108.5912
 20
91.0721
 30
0.0
 10
-105.9157
 20
92.8728
 30
0.0
 10
-103.9687
 20
95.2209
 30
0.0
 10
-103.9687
 20
95.2209
 30
0.0
 10
-102.0217
 20
92.8728
 30
0.0
 10
-99.3462
 20
91.0721
 30
0.0
 10
-96.9916
 20
90.0561
 30
0.0
 10
-96.9916
 20
90.0561
 30
0.0
 10
-96.9916
 20
90.0561
 30
0.0
 10
-96.9916
 20
84.9875
 30
0.0
 10
-96.9916
 20
84.9875
 30
0.0
 10
-96.9916
 20
84.9875
 30
0.0
 10
-90.3726
 20
84.1013
 30
0.0
 10
-87.6575
 20
79.4532
 30
0.0
 10
-87.6496
 20
72.5339
 30
0.0
 10
-87.6496
 20
72.5339
 30
0.0
 10
-87.7859
 20
65.1881
 30
0.0
 10
-90.4525
 20
60.7672
 30
0.0
 10
-97.069
 20
59.6376
 30
0.0
 10
-97.069
 20
59.6376
 30
0.0
 10
-97.069
 20
59.6376
 30
0.0
 10
-97.069
 20
54.2993
 30
0.0
 10
-97.069
 20
54.2993
 30
0.0
 10
-97.069
 20
54.2993
 30
0.0
 10
-100.1849
 20
53.4534
 30
0.0
 10
-101.8992
 20
51.3897
 30
0.0
 10
-103.9687
 20
49.4354
 30
0.0
 10
-103.9687
 20
49.4354
 30
0.0
 10
-106.038
 20
51.3897
 30
0.0
 10
-107.7525
 20
53.4534
 30
0.0
 10
-110.8684
 20
54.2993
 30
0.0
  0
SPLINE
  5
4F
330
1F
100
AcDbEntity
  8
layer 1
 62
     7
100
AcDbSpline
210
0.0
220
0.0
230
1.0
 70
    11
 71
     3
 72
    52
 73
    48
 74
     0
 42
0.0000000001
 43
0.0000000001
 12
1.0
 22
0.0
 32
0.0
 13
1.0
 23
0.0
 33
0.0
 40
0.0
 40
0.0
 40
0.0
 40
0.0
 40
0.0769230769230769
 40
0.0769230769230769
 40
0.0769230769230769
 40
0.0769230769230769
 40
0.1538461538461539
 40
0.1538461538461539
 40
0.1538461538461539
 40
0.1538461538461539
 40
0.2307692307692308
 40
0.2307692307692308
 40
0.2307692307692308
 40
0.2307692307692308
 40
0.3076923076923077
 40
0.3076923076923077
 40
0.3076923076923077
 40
0.3076923076923077
 40
0.3846153846153846
 40
0.3846153846153846
 40
0.3846153846153846
 40
0.3846153846153846
 40
0.4615384615384616
 40
0.4615384615384616
 40
0.4615384615384616
 40
0.4615384615384616
 40
0.5384615384615384
 40
0.5384615384615384
 40
0.5384615384615384
 40
0.5384615384615384
 40
0.6153846153846154
 40
0.6153846153846154
 40
0.6153846153846154
 40
0.6153846153846154
 40
0.6923076923076923
 40
0.6923076923076923
 40
0.6923076923076923
 40
0.6923076923076923
 40
0.7692307692307693
 40
0.7692307692307693
 40
0.7692307692307693
 40
0.7692307692307693
 40
0.8461538461538461
 40
0.8461538461538461
 40
0.8461538461538461
 40
0.8461538461538461
 40
1.0
 40
1.0
 40
1.0
 40
1.0
 10
-148.4259
 20
54.2993
 30
0.0
 10
-148.4259
 20
54.2993
 30
0.0
 10
-148.4259
 20
59.6376
 30
0.0
 10
-148.4259
 20
59.6376
 30
0.0
 10
-148.4259
 20
59.6376
 30
0.0
 10
-155.0424
 20
60.7672
 30
0.0
 10
-157.7089
 20
65.1881
 30
0.0
 10
-157.8453
 20
72.5339
 30
0.0
 10
-157.8453
 20
72.5339
 30
0.0
 10
-157.8374
 20
79.4531
 30
0.0
 10
-155.1223
 20
84.1013
 30
0.0
 10
-148.5033
 20
84.9875
 30
0.0
 10
-148.5033
 20
84.9875
 30
0.0
 10
-148.5033
 20
84.9875
 30
0.0
 10
-148.5033
 20
90.0561
 30
0.0
 10
-148.5033
 20
90.0561
 30
0.0
 10
-148.5033
 20
90.0561
 30
0.0
 10
-146.1487
 20
91.0721
 30
0.0
 10
-143.4732
 20
92.8728
 30
0.0
 10
-141.5262
 20
95.2209
 30
0.0
 10
-141.5262
 20
95.2209
 30
0.0
 10
-139.5792
 20
92.8728
 30
0.0
 10
-136.9037
 20
91.0721
 30
0.0
 10
-134.5491
 20
90.0561
 30
0.0
 10
-134.5491
 20
90.0561
 30
0.0
 10
-134.5491
 20
90.0561
 30
0.0
 10
-134.5491
 20
84.9875
 30
0.0
 10
-134.5491
 20
84.9875
 30
0.0
 10
-134.5491
 20
84.9875
 30
0.0
 10
-127.9301
 20
84.1013
 30
0.0
 10
-125.215
 20
79.4532
 30
0.0
 10
-125.207
 20
72.5339
 30
0.0
 10
-125.207
 20
72.5339
 30
0.0
 10
-125.3434
 20
65.1881
 30
0.0
 10
-128.01
 20
60.7672
 30
0.0
 10
-134.6265
 20
59.6376
 30
0.0
 10
-134.6265
 20
59.6376
 30
0.0
 10
-134.6265
 20
59.6376
 30
0.0
 10
-134.6265
 20
54.2993
 30
0.0
 10
-134.6265
 20
54.2993
 30
0.0
 10
-134.6265
 20
54.2993
 30
0.0
 10
-137.7424
 20
53.4534
 30
0.0
 10
-139.4567
 20
51.3897
 30
0.0
 10
-141.5262
 20
49.4354
 30
0.0
 10
-141.5262
 20
49.4354
 30
0.0
 10
-143.5955
 20
51.3897
 30
0.0
 10
-145.31
 20
53.4534
 30
0.0
 10
-148.4259
 20
54.2993
 30
0.0
  0
SPLINE
  5
50
330
1F
100
AcDbEntity
  8
layer 1
 62
     7
100
AcDbSpline
210
0.0
220
0.0
230
1.0
 70
    11
 71
     3
 72
    52
 73
    48
 74
     0
 42
0.0000000001
 43
0.0000000001
 12
1.0
 22
0.0
 32
0.0
 13
1.0
 23
0.0
 33
0.0
 40
0.0
 40
0.0
 40
0.0
 40
0.0
 40
0.0769230769230769
 40
0.0769230769230769
 40
0.0769230769230769
 40
0.0769230769230769
 40
0.1538461538461539
 40
0.1538461538461539
 40
0.1538461538461539
 40
0.1538461538461539
 40
0.2307692307692308
 40
0.2307692307692308
 40
0.2307692307692308
 40
0.2307692307692308
 40
0.3076923076923077
 40
0.3076923076923077
 40
0.3076923076923077
 40
0.3076923076923077
 40
0.3846153846153846
 40
0.3846153846153846
 40
0.3846153846153846
 40
0.3846153846153846
 40
0.4615384615384616
 40
0.4615384615384616
 40
0.4615384615384616
 40
0.4615384615384616
 40
0.5384615384615384
 40
0.5384615384615384
 40
0.5384615384615384
 40
0.5384615384615384
 40
0.6153846153846154
 40
0.6153846153846154
 40
0.6153846153846154
 40
0.6153846153846154
 40
0.6923076923076923
 40
0.6923076923076923
 40
0.6923076923076923
 40
0.6923076923076923
 40
0.7692307692307693
 40
0.7692307692307693
 40
0.7692307692307693
 40
0.7692307692307693
 40
0.8461538461538461
 40
0.8461538461538461
 40
0.8461538461538461
 40
0.8461538461538461
 40
1.0
 40
1.0
 40
1.0
 40
1.0
 10
-92.1901
 20
86.3916
 30
0.0
 10
-92.1901
 20
86.3916
 30
0.0
 10
-92.1901
 20
91.7298
 30
0.0
 10
-92.1901
 20
91.7298
 30
0.0
 10
-92.1901
 20
91.7298
 30
0.0
 10
-98.8066
 20
92.8594
 30
0.0
 10
-101.4732
 20
97.2803
 30
0.0
 10
-101.6096
 20
104.6261
 30
0.0
 10
-101.6096
 20
104.6261
 30
0.0
 10
-101.6017
 20
111.5453
 30
0.0
 10
-98.8865
 20
116.1935
 30
0.0
 10
-92.2676
 20
117.0797
 30
0.0
 10
-92.2676
 20
117.0797
 30
0.0
 10
-92.2676
 20
117.0797
 30
0.0
 10
-92.2676
 20
122.1484
 30
0.0
 10
-92.2676
 20
122.1484
 30
0.0
 10
-92.2676
 20
122.1484
 30
0.0
 10
-89.9129
 20
123.1644
 30
0.0
 10
-87.2374
 20
124.965
 30
0.0
 10
-85.2904
 20
127.3131
 30
0.0
 10
-85.2904
 20
127.3131
 30
0.0
 10
-83.3435
 20
124.965
 30
0.0
 10
-80.668
 20
123.1644
 30
0.0
 10
-78.3133
 20
122.1484
 30
0.0
 10
-78.3133
 20
122.1484
 30
0.0
 10
-78.3133
 20
122.1484
 30
0.0
 10
-78.3133
 20
117.0797
 30
0.0
 10
-78.3133
 20
117.0797
 30
0.0
 10
-78.3133
 20
117.0797
 30
0.0
 10
-71.6943
 20
116.1935
 30
0.0
 10
-68.9792
 20
111.5455
 30
0.0
 10
-68.9713
 20
104.6261
 30
0.0
 10
-68.9713
 20
104.6261
 30
0.0
 10
-69.1077
 20
97.2803
 30
0.0
 10
-71.7743
 20
92.8594
 30
0.0
 10
-78.3908
 20
91.7298
 30
0.0
 10
-78.3908
 20
91.7298
 30
0.0
 10
-78.3908
 20
91.7298
 30
0.0
 10
-78.3908
 20
86.3916
 30
0.0
 10
-78.3908
 20
86.3916
 30
0.0
 10
-78.3908
 20
86.3916
 30
0.0
 10
-81.5066
 20
85.5456
 30
0.0
 10
-83.2209
 20
83.4819
 30
0.0
 10
-85.2904
 20
81.5277
 30
0.0
 10
-85.2904
 20
81.5277
 30
0.0
 10
-87.3598
 20
83.4819
 30
0.0
 10
-89.0742
 20
85.5456
 30
0.0
 10
-92.1901
 20
86.3916
 30
0.0
  0
SPLINE
  5
51
330
1F
100
AcDbEntity
  8
layer 1
 62
     7
100
AcDbSpline
210
0.0
220
0.0
230
1.0
 70
    11
 71
     3
 72
    52
 73
    48
 74
     0
 42
0.0000000001
 43
0.0000000001
 12
1.0
 22
0.0
 32
0.0
 13
1.0
 23
0.0
 33
0.0
 40
0.0
 40
0.0
 40
0.0
 40
0.0
 40
0.0769230769230769
 40
0.0769230769230769
 40
0.0769230769230769
 40
0.0769230769230769
 40
0.1538461538461539
 40
0.1538461538461539
 40
0.1538461538461539
 40
0.1538461538461539
 40
0.2307692307692308
 40
0.2307692307692308
 40
0.2307692307692308
 40
0.2307692307692308
 40
0.3076923076923077
 40
0.3076923076923077
 40
0.3076923076923077
 40
0.3076923076923077
 40
0.3846153846153846
 40
0.3846153846153846
 40
0.3846153846153846
 40
0.3846153846153846
 40
0.4615384615384616
 40
0.4615384615384616
 40
0.4615384615384616
 40
0.4615384615384616
 40
0.5384615384615384
 40
0.5384615384615384
 40
0.5384615384615384
 40
0.5384615384615384
 40
0.6153846153846154
 40
0.6153846153846154
 40
0.6153846153846154
 40
0.6153846153846154
 40
0.6923076923076923
 40
0.6923076923076923
 40
0.6923076923076923
 40
0.6923076923076923
 40
0.7692307692307693
 40
0.7692307692307693
 40
0.7692307692307693
 40
0.7692307692307693
 40
0.8461538461538461
 40
0.8461538461538461
 40
0.8461538461538461
 40
0.8461538461538461
 40
1.0
 40
1.0
 40
1.0
 40
1.0
 10
-129.7476
 20
86.3916
 30
0.0
 10
-129.7476
 20
86.3916
 30
0.0
 10
-129.7476
 20
91.7298
 30
0.0
 10
-129.7476
 20
91.7298
 30
0.0
 10
-129.7476
 20
91.7298
 30
0.0
 10
-136.3641
 20
92.8594
 30
0.0
 10
-139.0307
 20
97.2803
 30
0.0
 10
-139.1671
 20
104.6261
 30
0.0
 10
-139.1671
 20
104.6261
 30
0.0
 10
-139.1591
 20
111.5453
 30
0.0
 10
-136.444
 20
116.1935
 30
0.0
 10
-129.825
 20
117.0797
 30
0.0
 10
-129.825
 20
117.0797
 30
0.0
 10
-129.825
 20
117.0797
 30
0.0
 10
-129.825
 20
122.1484
 30
0.0
 10
-129.825
 20
122.1484
 30
0.0
 10
-129.825
 20
122.1484
 30
0.0
 10
-127.4704
 20
123.1644
 30
0.0
 10
-124.7949
 20
124.965
 30
0.0
 10
-122.8479
 20
127.3131
 30
0.0
 10
-122.8479
 20
127.3131
 30
0.0
 10
-120.901
 20
124.965
 30
0.0
 10
-118.2255
 20
123.1644
 30
0.0
 10
-115.8708
 20
122.1484
 30
0.0
 10
-115.8708
 20
122.1484
 30
0.0
 10
-115.8708
 20
122.1484
 30
0.0
 10
-115.8708
 20
117.0797
 30
0.0
 10
-115.8708
 20
117.0797
 30
0.0
 10
-115.8708
 20
117.0797
 30
0.0
 10
-109.2518
 20
116.1935
 30
0.0
 10
-106.5367
 20
111.5455
 30
0.0
 10
-106.5288
 20
104.6261
 30
0.0
 10
-106.5288
 20
104.6261
 30
0.0
 10
-106.6652
 20
97.2803
 30
0.0
 10
-109.3317
 20
92.8594
 30
0.0
 10
-115.9482
 20
91.7298
 30
0.0
 10
-115.9482
 20
91.7298
 30
0.0
 10
-115.9482
 20
91.7298
 30
0.0
 10
-115.9482
 20
86.3916
 30
0.0
 10
-115.9482
 20
86.3916
 30
0.0
 10
-115.9482
 20
86.3916
 30
0.0
 10
-119.0641
 20
85.5456
 30
0.0
 10
-120.7784
 20
83.4819
 30
0.0
 10
-122.8479
 20
81.5277
 30
0.0
 10
-122.8479
 20
81.5277
 30
0.0
 10
-124.9172
 20
83.4819
 30
0.0
 10
-126.6317
 20
85.5456
 30
0.0
 10
-129.7476
 20
86.3916
 30
0.0
  0
SPLINE
  5
52
330
1F
100
AcDbEntity
  8
layer 1
 62
     7
100
AcDbSpline
210
0.0
220
0.0
230
1.0
 70
    11
 71
     3
 72
    52
 73
    48
 74
     0
 42
0.0000000001
 43
0.0000000001
 12
1.0
 22
0.0
 32
0.0
 13
1.0
 23
0.0
 33
0.0
 40
0.0
 40
0.0
 40
0.0
 40
0.0
 40
0.0769230769230769
 40
0.0769230769230769
 40
0.0769230769230769
 40
0.0769230769230769
 40
0.1538461538461539
 40
0.1538461538461539
 40
0.1538461538461539
 40
0.1538461538461539
 40
0.2307692307692308
 40
0.2307692307692308
 40
0.2307692307692308
 40
0.2307692307692308
 40
0.3076923076923077
 40
0.3076923076923077
 40
0.3076923076923077
 40
0.3076923076923077
 40
0.3846153846153846
 40
0.3846153846153846
 40
0.3846153846153846
 40
0.3846153846153846
 40
0.4615384615384616
 40
0.4615384615384616
 40
0.4615384615384616
 40
0.4615384615384616
 40
0.5384615384615384
 40
0.5384615384615384
 40
0.5384615384615384
 40
0.5384615384615384
 40
0.6153846153846154
 40
0.6153846153846154
 40
0.6153846153846154
 40
0.6153846153846154
 40
0.6923076923076923
 40
0.6923076923076923
 40
0.6923076923076923
 40
0.6923076923076923
 40
0.7692307692307693
 40
0.7692307692307693
 40
0.7692307692307693
 40
0.7692307692307693
 40
0.8461538461538461
 40
0.8461538461538461
 40
0.8461538461538461
 40
0.8461538461538461
 40
1.0
 40
1.0
 40
1.0
 40
1.0
 10
-167.3051
 20
86.3916
 30
0.0
 10
-167.3051
 20
86.3916
 30
0.0
 10
-167.3051
 20
91.7298
 30
0.0
 10
-167.3051
 20
91.7298
 30
0.0
 10
-167.3051
 20
91.7298
 30
0.0
 10
-173.9216
 20
92.8594
 30
0.0
 10
-176.5882
 20
97.2803
 30
0.0
 10
-176.7246
 20
104.6261
 30
0.0
 10
-176.7246
 20
104.6261
 30
0.0
 10
-176.7166
 20
111.5453
 30
0.0
 10
-174.0015
 20
116.1935
 30
0.0
 10
-167.3825
 20
117.0797
 30
0.0
 10
-167.3825
 20
117.0797
 30
0.0
 10
-167.3825
 20
117.0797
 30
0.0
 10
-167.3825
 20
122.1484
 30
0.0
 10
-167.3825
 20
122.1484
 30
0.0
 10
-167.3825
 20
122.1484
 30
0.0
 10
-165.0279
 20
123.1644
 30
0.0
 10
-162.3524
 20
124.965
 30
0.0
 10
-160.4054
 20
127.3131
 30
0.0
 10
-160.4054
 20
127.3131
 30
0.0
 10
-158.4584
 20
124.965
 30
0.0
 10
-155.7829
 20
123.1644
 30
0.0
 10
-153.4283
 20
122.1484
 30
0.0
 10
-153.4283
 20
122.1484
 30
0.0
 10
-153.4283
 20
122.1484
 30
0.0
 10
-153.4283
 20
117.0797
 30
0.0
 10
-153.4283
 20
117.0797
 30
0.0
 10
-153.4283
 20
117.0797
 30
0.0
 10
-146.8093
 20
116.1935
 30
0.0
 10
-144.0942
 20
111.5455
 30
0.0
 10
-144.0863
 20
104.6261
 30
0.0
 10
-144.0863
 20
104.6261
 30
0.0
 10
-144.2227
 20
97.2803
 30
0.0
 10
-146.8892
 20
92.8594
 30
0.0
 10
-153.5057
 20
91.7298
 30
0.0
 10
-153.5057
 20
91.7298
 30
0.0
 10
-153.5057
 20
91.7298
 30
0.0
 10
-153.5057
 20
86.3916
 30
0.0
 10
-153.5057
 20
86.3916
 30
0.0
 10
-153.5057
 20
86.3916
 30
0.0
 10
-156.6216
 20
85.5456
 30
0.0
 10
-158.3359
 20
83.4819
 30
0.0
 10
-160.4054
 20
81.5277
 30
0.0
 10
-160.4054
 20
81.5277
 30
0.0
 10
-162.4747
 20
83.4819
 30
0.0
 10
-164.1892
 20
85.5456
 30
0.0
 10
-167.3051
 20
86.3916
 30
0.0
  0
SPLINE
  5
53
330
1F
100
AcDbEntity
  8
layer 1
 62
     7
100
AcDbSpline
210
0.0
220
0.0
230
1.0
 70
    11
 71
     3
 72
   108
 73
   104
 74
     0
 42
0.0000000001
 43
0.0000000001
 12
1.0
 22
0.0
 32
0.0
 13
1.0
 23
0.0
 33
0.0
 40
0.0
 40
0.0
 40
0.0
 40
0.0
 40
0.037037037037037
 40
0.037037037037037
 40
0.037037037037037
 40
0.037037037037037
 40
0.0740740740740741
 40
0.0740740740740741
 40
0.0740740740740741
 40
0.0740740740740741
 40
0.1111111111111111
 40
0.1111111111111111
 40
0.1111111111111111
 40
0.1111111111111111
 40
0.1481481481481481
 40
0.1481481481481481
 40
0.1481481481481481
 40
0.1481481481481481
 40
0.1851851851851852
 40
0.1851851851851852
 40
0.1851851851851852
 40
0.1851851851851852
 40
0.2222222222222222
 40
0.2222222222222222
 40
0.2222222222222222
 40
0.2222222222222222
 40
0.2592592592592592
 40
0.2592592592592592
 40
0.2592592592592592
 40
0.2592592592592592
 40
0.2962962962962963
 40
0.2962962962962963
 40
0.2962962962962963
 40
0.2962962962962963
 40
0.3333333333333333
 40
0.3333333333333333
 40
0.3333333333333333
 40
0.3333333333333333
 40
0.3703703703703703
 40
0.3703703703703703
 40
0.3703703703703703
 40
0.3703703703703703
 40
0.4074074074074074
 40
0.4074074074074074
 40
0.4074074074074074
 40
0.4074074074074074
 40
0.4444444444444444
 40
0.4444444444444444
 40
0.4444444444444444
 40
0.4444444444444444
 40
0.4814814814814815
 40
0.4814814814814815
 40
0.4814814814814815
 40
0.4814814814814815
 40
0.5185185185185185
 40
0.5185185185185185
 40
0.5185185185185185
 40
0.5185185185185185
 40
0.5555555555555556
 40
0.5555555555555556
 40
0.5555555555555556
 40
0.5555555555555556
 40
0.5925925925925926
 40
0.5925925925925926
 40
0.5925925925925926
 40
0.5925925925925926
 40
0.6296296296296297
 40
0.6296296296296297
 40
0.6296296296296297
 40
0.6296296296296297
 40
0.6666666666666666
 40
0.6666666666666666
 40
0.6666666666666666
 40
0.6666666666666666
 40
0.7037037037037037
 40
0.7037037037037037
 40
0.7037037037037037
 40
0.7037037037037037
 40
0.7407407407407407
 40
0.7407407407407407
 40
0.7407407407407407
 40
0.7407407407407407
 40
0.7777777777777778
 40
0.7777777777777778
 40
0.7777777777777778
 40
0.7777777777777778
 40
0.8148148148148148
 40
0.8148148148148148
 40
0.8148148148148148
 40
0.8148148148148148
 40
0.8518518518518519
 40
0.8518518518518519
 40
0.8518518518518519
 40
0.8518518518518519
 40
0.8888888888888888
 40
0.8888888888888888
 40
0.8888888888888888
 40
0.8888888888888888
 40
0.9259259259259259
 40
0.9259259259259259
 40
0.9259259259259259
 40
0.9259259259259259
 40
1.0
 40
1.0
 40
1.0
 40
1.0
 10
-143.3635
 20
-12.8478
 30
0.0
 10
-144.2522
 20
-11.8139
 30
0.0
 10
-145.5017
 20
-10.9396
 30
0.0
 10
-146.5309
 20
-10.6312
 30
0.0
 10
-146.5309
 20
-10.6312
 30
0.0
 10
-146.5309
 20
-10.6312
 30
0.0
 10
-148.2307
 20
-10.1219
 30
0.0
 10
-148.2307
 20
-10.1219
 30
0.0
 10
-148.2307
 20
-10.1219
 30
0.0
 10
-148.2307
 20
-10.1219
 30
0.0
 10
-148.2307
 20
-7.4098
 30
0.0
 10
-148.2307
 20
-7.4098
 30
0.0
 10
-148.2307
 20
-7.4098
 30
0.0
 10
-148.2307
 20
-7.4098
 30
0.0
 10
-148.2307
 20
-4.6976
 30
0.0
 10
-148.2307
 20
-4.6976
 30
0.0
 10
-148.2307
 20
-4.6976
 30
0.0
 10
-148.2307
 20
-4.6976
 30
0.0
 10
-150.8317
 20
-3.7492
 30
0.0
 10
-150.8317
 20
-3.7492
 30
0.0
 10
-150.8317
 20
-3.7492
 30
0.0
 10
-155.4297
 20
-2.0727
 30
0.0
 10
-157.8503
 20
2.0419
 30
0.0
 10
-157.8356
 20
8.1566
 30
0.0
 10
-157.8356
 20
8.1566
 30
0.0
 10
-157.8206
 20
14.4313
 30
0.0
 10
-154.8406
 20
19.0129
 30
0.0
 10
-149.9108
 20
20.3404
 30
0.0
 10
-149.9108
 20
20.3404
 30
0.0
 10
-149.9108
 20
20.3404
 30
0.0
 10
-148.2305
 20
20.7928
 30
0.0
 10
-148.2305
 20
20.7928
 30
0.0
 10
-148.2305
 20
20.7928
 30
0.0
 10
-148.2305
 20
20.7928
 30
0.0
 10
-148.2305
 20
23.5611
 30
0.0
 10
-148.2305
 20
23.5611
 30
0.0
 10
-148.2305
 20
23.5611
 30
0.0
 10
-148.2305
 20
26.3137
 30
0.0
 10
-148.2228
 20
26.3311
 30
0.0
 10
-146.8617
 20
26.6032
 30
0.0
 10
-146.8617
 20
26.6032
 30
0.0
 10
-146.0705
 20
26.7614
 30
0.0
 10
-144.6677
 20
27.7021
 30
0.0
 10
-143.5382
 20
28.8315
 30
0.0
 10
-143.5382
 20
28.8315
 30
0.0
 10
-143.5382
 20
28.8315
 30
0.0
 10
-141.5836
 20
30.7861
 30
0.0
 10
-141.5836
 20
30.7861
 30
0.0
 10
-141.5836
 20
30.7861
 30
0.0
 10
-141.5836
 20
30.7861
 30
0.0
 10
-139.7016
 20
28.9547
 30
0.0
 10
-139.7016
 20
28.9547
 30
0.0
 10
-139.7016
 20
28.9547
 30
0.0
 10
-138.6664
 20
27.9474
 30
0.0
 10
-137.164
 20
26.9034
 30
0.0
 10
-136.3624
 20
26.6344
 30
0.0
 10
-136.3624
 20
26.6344
 30
0.0
 10
-134.9463
 20
26.1593
 30
0.0
 10
-134.9018
 20
26.0707
 30
0.0
 10
-134.7761
 20
23.4807
 30
0.0
 10
-134.7761
 20
23.4807
 30
0.0
 10
-134.7761
 20
23.4807
 30
0.0
 10
-134.6468
 20
20.8158
 30
0.0
 10
-134.6468
 20
20.8158
 30
0.0
 10
-134.6468
 20
20.8158
 30
0.0
 10
-134.6468
 20
20.8158
 30
0.0
 10
-132.539
 20
20.1156
 30
0.0
 10
-132.539
 20
20.1156
 30
0.0
 10
-132.539
 20
20.1156
 30
0.0
 10
-127.3555
 20
18.3939
 30
0.0
 10
-124.2059
 20
11.9363
 30
0.0
 10
-125.4049
 20
5.4887
 30
0.0
 10
-125.4049
 20
5.4887
 30
0.0
 10
-126.3363
 20
0.4803
 30
0.0
 10
-128.7011
 20
-2.6626
 30
0.0
 10
-132.4834
 20
-3.9189
 30
0.0
 10
-132.4834
 20
-3.9189
 30
0.0
 10
-132.4834
 20
-3.9189
 30
0.0
 10
-134.6871
 20
-4.6509
 30
0.0
 10
-134.6871
 20
-4.6509
 30
0.0
 10
-134.6871
 20
-4.6509
 30
0.0
 10
-134.6871
 20
-4.6509
 30
0.0
 10
-134.6871
 20
-7.4555
 30
0.0
 10
-134.6871
 20
-7.4555
 30
0.0
 10
-134.6871
 20
-7.4555
 30
0.0
 10
-134.6871
 20
-9.6895
 30
0.0
 10
-134.824
 20
-10.2601
 30
0.0
 10
-135.3598
 20
-10.2601
 30
0.0
 10
-135.3598
 20
-10.2601
 30
0.0
 10
-136.5875
 20
-10.2601
 30
0.0
 10
-139.26
 20
-11.9008
 30
0.0
 10
-140.2704
 20
-13.2746
 30
0.0
 10
-140.2704
 20
-13.2746
 30
0.0
 10
-140.8183
 20
-14.0195
 30
0.0
 10
-141.4081
 20
-14.6123
 30
0.0
 10
-141.5812
 20
-14.592
 30
0.0
 10
-141.5812
 20
-14.592
 30
0.0
 10
-141.7542
 20
-14.5717
 30
0.0
 10
-142.5562
 20
-13.7867
 30
0.0
 10
-143.3633
 20
-12.8476
 30
0.0
 10
-143.3633
 20
-12.8476
 30
0.0
 10
-143.3633
 20
-12.8476
 30
0.0
 10
-143.3635
 20
-12.8478
 30
0.0
 10
-143.3635
 20
-12.8478
 30
0.0
  0
SPLINE
  5
54
330
1F
100
AcDbEntity
  8
layer 1
 62
     7
100
AcDbSpline
210
0.0
220
0.0
230
1.0
 70
    11
 71
     3
 72
   116
 73
   112
 74
     0
 42
0.0000000001
 43
0.0000000001
 12
1.0
 22
0.0
 32
0.0
 13
1.0
 23
0.0
 33
0.0
 40
0.0
 40
0.0
 40
0.0
 40
0.0
 40
0.0344827586206897
 40
0.0344827586206897
 40
0.0344827586206897
 40
0.0344827586206897
 40
0.0689655172413793
 40
0.0689655172413793
 40
0.0689655172413793
 40
0.0689655172413793
 40
0.103448275862069
 40
0.103448275862069
 40
0.103448275862069
 40
0.103448275862069
 40
0.1379310344827586
 40
0.1379310344827586
 40
0.1379310344827586
 40
0.1379310344827586
 40
0.1724137931034483
 40
0.1724137931034483
 40
0.1724137931034483
 40
0.1724137931034483
 40
0.2068965517241379
 40
0.2068965517241379
 40
0.2068965517241379
 40
0.2068965517241379
 40
0.2413793103448276
 40
0.2413793103448276
 40
0.2413793103448276
 40
0.2413793103448276
 40
0.2758620689655172
 40
0.2758620689655172
 40
0.2758620689655172
 40
0.2758620689655172
 40
0.3103448275862069
 40
0.3103448275862069
 40
0.3103448275862069
 40
0.3103448275862069
 40
0.3448275862068966
 40
0.3448275862068966
 40
0.3448275862068966
 40
0.3448275862068966
 40
0.3793103448275862
 40
0.3793103448275862
 40
0.3793103448275862
 40
0.3793103448275862
 40
0.4137931034482759
 40
0.4137931034482759
 40
0.4137931034482759
 40
0.4137931034482759
 40
0.4482758620689655
 40
0.4482758620689655
 40
0.4482758620689655
 40
0.4482758620689655
 40
0.4827586206896552
 40
0.4827586206896552
 40
0.4827586206896552
 40
0.4827586206896552
 40
0.5172413793103449
 40
0.5172413793103449
 40
0.5172413793103449
 40
0.5172413793103449
 40
0.5517241379310345
 40
0.5517241379310345
 40
0.5517241379310345
 40
0.5517241379310345
 40
0.5862068965517241
 40
0.5862068965517241
 40
0.5862068965517241
 40
0.5862068965517241
 40
0.6206896551724138
 40
0.6206896551724138
 40
0.6206896551724138
 40
0.6206896551724138
 40
0.6551724137931034
 40
0.6551724137931034
 40
0.6551724137931034
 40
0.6551724137931034
 40
0.6896551724137931
 40
0.6896551724137931
 40
0.6896551724137931
 40
0.6896551724137931
 40
0.7241379310344828
 40
0.7241379310344828
 40
0.7241379310344828
 40
0.7241379310344828
 40
0.7586206896551724
 40
0.7586206896551724
 40
0.7586206896551724
 40
0.7586206896551724
 40
0.7931034482758621
 40
0.7931034482758621
 40
0.7931034482758621
 40
0.7931034482758621
 40
0.8275862068965517
 40
0.8275862068965517
 40
0.8275862068965517
 40
0.8275862068965517
 40
0.8620689655172413
 40
0.8620689655172413
 40
0.8620689655172413
 40
0.8620689655172413
 40
0.896551724137931
 40
0.896551724137931
 40
0.896551724137931
 40
0.896551724137931
 40
0.9310344827586207
 40
0.9310344827586207
 40
0.9310344827586207
 40
0.9310344827586207
 40
1.0
 40
1.0
 40
1.0
 40
1.0
 10
-105.7565
 20
-12.8872
 30
0.0
 10
-106.6627
 20
-11.7959
 30
0.0
 10
-107.8275
 20
-10.97
 30
0.0
 10
-108.9239
 20
-10.6416
 30
0.0
 10
-108.9239
 20
-10.6416
 30
0.0
 10
-108.9239
 20
-10.6416
 30
0.0
 10
-110.6582
 20
-10.1219
 30
0.0
 10
-110.6582
 20
-10.1219
 30
0.0
 10
-110.6582
 20
-10.1219
 30
0.0
 10
-110.6582
 20
-10.1219
 30
0.0
 10
-110.6582
 20
-7.4418
 30
0.0
 10
-110.6582
 20
-7.4418
 30
0.0
 10
-110.6582
 20
-7.4418
 30
0.0
 10
-110.6582
 20
-7.4418
 30
0.0
 10
-110.6582
 20
-4.7617
 30
0.0
 10
-110.6582
 20
-4.7617
 30
0.0
 10
-110.6582
 20
-4.7617
 30
0.0
 10
-110.6582
 20
-4.7617
 30
0.0
 10
-113.0972
 20
-3.9326
 30
0.0
 10
-113.0972
 20
-3.9326
 30
0.0
 10
-113.0972
 20
-3.9326
 30
0.0
 10
-116.0625
 20
-2.9247
 30
0.0
 10
-118.5679
 20
-0.3042
 30
0.0
 10
-119.6335
 20
2.9037
 30
0.0
 10
-119.6335
 20
2.9037
 30
0.0
 10
-120.7421
 20
6.2413
 30
0.0
 10
-120.3925
 20
12.0228
 30
0.0
 10
-118.9107
 20
14.8608
 30
0.0
 10
-118.9107
 20
14.8608
 30
0.0
 10
-117.5952
 20
17.38
 30
0.0
 10
-114.8792
 20
19.6558
 30
0.0
 10
-112.3875
 20
20.3268
 30
0.0
 10
-112.3875
 20
20.3268
 30
0.0
 10
-112.3875
 20
20.3268
 30
0.0
 10
-110.6583
 20
20.7925
 30
0.0
 10
-110.6583
 20
20.7925
 30
0.0
 10
-110.6583
 20
20.7925
 30
0.0
 10
-110.6583
 20
20.7925
 30
0.0
 10
-110.6583
 20
23.5608
 30
0.0
 10
-110.6583
 20
23.5608
 30
0.0
 10
-110.6583
 20
23.5608
 30
0.0
 10
-110.6583
 20
26.3225
 30
0.0
 10
-110.6549
 20
26.3297
 30
0.0
 10
-109.268
 20
26.6071
 30
0.0
 10
-109.268
 20
26.6071
 30
0.0
 10
-108.4229
 20
26.7762
 30
0.0
 10
-107.1326
 20
27.6628
 30
0.0
 10
-105.9783
 20
28.8675
 30
0.0
 10
-105.9783
 20
28.8675
 30
0.0
 10
-105.9783
 20
28.8675
 30
0.0
 10
-104.0788
 20
30.8498
 30
0.0
 10
-104.0788
 20
30.8498
 30
0.0
 10
-104.0788
 20
30.8498
 30
0.0
 10
-104.0788
 20
30.8498
 30
0.0
 10
-102.0962
 20
28.8672
 30
0.0
 10
-102.0962
 20
28.8672
 30
0.0
 10
-102.0962
 20
28.8672
 30
0.0
 10
-101.0057
 20
27.7767
 30
0.0
 10
-99.4881
 20
26.7184
 30
0.0
 10
-98.7234
 20
26.5153
 30
0.0
 10
-98.7234
 20
26.5153
 30
0.0
 10
-97.7023
 20
26.244
 30
0.0
 10
-97.3722
 20
25.9316
 30
0.0
 10
-97.48
 20
25.338
 30
0.0
 10
-97.48
 20
25.338
 30
0.0
 10
-97.5608
 20
24.8937
 30
0.0
 10
-97.5003
 20
23.6859
 30
0.0
 10
-97.3454
 20
22.6542
 30
0.0
 10
-97.3454
 20
22.6542
 30
0.0
 10
-97.0862
 20
20.9257
 30
0.0
 10
-96.9268
 20
20.7373
 30
0.0
 10
-95.3161
 20
20.2547
 30
0.0
 10
-95.3161
 20
20.2547
 30
0.0
 10
-92.8315
 20
19.5103
 30
0.0
 10
-89.9958
 20
16.8431
 30
0.0
 10
-88.7856
 20
14.1124
 30
0.0
 10
-88.7856
 20
14.1124
 30
0.0
 10
-87.347
 20
10.8663
 30
0.0
 10
-87.3266
 20
5.3165
 30
0.0
 10
-88.7418
 20
2.1907
 30
0.0
 10
-88.7418
 20
2.1907
 30
0.0
 10
-90.0813
 20
-0.7682
 30
0.0
 10
-92.4573
 20
-3.1043
 30
0.0
 10
-94.9787
 20
-3.9418
 30
0.0
 10
-94.9787
 20
-3.9418
 30
0.0
 10
-94.9787
 20
-3.9418
 30
0.0
 10
-97.0505
 20
-4.6299
 30
0.0
 10
-97.0505
 20
-4.6299
 30
0.0
 10
-97.0505
 20
-4.6299
 30
0.0
 10
-97.0505
 20
-4.6299
 30
0.0
 10
-97.3415
 20
-7.3475
 30
0.0
 10
-97.3415
 20
-7.3475
 30
0.0
 10
-97.3415
 20
-7.3475
 30
0.0
 10
-97.6316
 20
-10.057
 30
0.0
 10
-97.638
 20
-10.0674
 30
0.0
 10
-99.5305
 20
-10.8501
 30
0.0
 10
-99.5305
 20
-10.8501
 30
0.0
 10
-100.5744
 20
-11.2819
 30
0.0
 10
-101.9425
 20
-12.309
 30
0.0
 10
-102.5706
 20
-13.1325
 30
0.0
 10
-102.5706
 20
-13.1325
 30
0.0
 10
-103.1987
 20
-13.9559
 30
0.0
 10
-103.85
 20
-14.6262
 30
0.0
 10
-104.0181
 20
-14.6219
 30
0.0
 10
-104.0181
 20
-14.6219
 30
0.0
 10
-104.186
 20
-14.6176
 30
0.0
 10
-104.9684
 20
-13.8372
 30
0.0
 10
-105.7567
 20
-12.8879
 30
0.0
 10
-105.7567
 20
-12.8879
 30
0.0
 10
-105.7567
 20
-12.8879
 30
0.0
 10
-105.7565
 20
-12.8872
 30
0.0
 10
-105.7565
 20
-12.8872
 30
0.0
  0
SPLINE
  5
55
330
1F
100
AcDbEntity
  8
layer 1
 62
     7
100
AcDbSpline
210
0.0
220
0.0
230
1.0
 70
    11
 71
     3
 72
   104
 73
   100
 74
     0
 42
0.0000000001
 43
0.0000000001
 12
1.0
 22
0.0
 32
0.0
 13
1.0
 23
0.0
 33
0.0
 40
0.0
 40
0.0
 40
0.0
 40
0.0
 40
0.0384615384615385
 40
0.0384615384615385
 40
0.0384615384615385
 40
0.0384615384615385
 40
0.0769230769230769
 40
0.0769230769230769
 40
0.0769230769230769
 40
0.0769230769230769
 40
0.1153846153846154
 40
0.1153846153846154
 40
0.1153846153846154
 40
0.1153846153846154
 40
0.1538461538461539
 40
0.1538461538461539
 40
0.1538461538461539
 40
0.1538461538461539
 40
0.1923076923076923
 40
0.1923076923076923
 40
0.1923076923076923
 40
0.1923076923076923
 40
0.2307692307692308
 40
0.2307692307692308
 40
0.2307692307692308
 40
0.2307692307692308
 40
0.2692307692307692
 40
0.2692307692307692
 40
0.2692307692307692
 40
0.2692307692307692
 40
0.3076923076923077
 40
0.3076923076923077
 40
0.3076923076923077
 40
0.3076923076923077
 40
0.3461538461538461
 40
0.3461538461538461
 40
0.3461538461538461
 40
0.3461538461538461
 40
0.3846153846153846
 40
0.3846153846153846
 40
0.3846153846153846
 40
0.3846153846153846
 40
0.4230769230769231
 40
0.4230769230769231
 40
0.4230769230769231
 40
0.4230769230769231
 40
0.4615384615384616
 40
0.4615384615384616
 40
0.4615384615384616
 40
0.4615384615384616
 40
0.5
 40
0.5
 40
0.5
 40
0.5
 40
0.5384615384615384
 40
0.5384615384615384
 40
0.5384615384615384
 40
0.5384615384615384
 40
0.5769230769230769
 40
0.5769230769230769
 40
0.5769230769230769
 40
0.5769230769230769
 40
0.6153846153846154
 40
0.6153846153846154
 40
0.6153846153846154
 40
0.6153846153846154
 40
0.6538461538461539
 40
0.6538461538461539
 40
0.6538461538461539
 40
0.6538461538461539
 40
0.6923076923076923
 40
0.6923076923076923
 40
0.6923076923076923
 40
0.6923076923076923
 40
0.7307692307692307
 40
0.7307692307692307
 40
0.7307692307692307
 40
0.7307692307692307
 40
0.7692307692307693
 40
0.7692307692307693
 40
0.7692307692307693
 40
0.7692307692307693
 40
0.8076923076923077
 40
0.8076923076923077
 40
0.8076923076923077
 40
0.8076923076923077
 40
0.8461538461538461
 40
0.8461538461538461
 40
0.8461538461538461
 40
0.8461538461538461
 40
0.8846153846153846
 40
0.8846153846153846
 40
0.8846153846153846
 40
0.8846153846153846
 40
0.9230769230769231
 40
0.9230769230769231
 40
0.9230769230769231
 40
0.9230769230769231
 40
1.0
 40
1.0
 40
1.0
 40
1.0
 10
-68.1237
 20
-12.9591
 30
0.0
 10
-68.9498
 20
-11.9635
 30
0.0
 10
-70.211
 20
-11.0691
 30
0.0
 10
-71.2911
 20
-10.7126
 30
0.0
 10
-71.2911
 20
-10.7126
 30
0.0
 10
-72.9237
 20
-10.1738
 30
0.0
 10
-73.0924
 20
-9.9786
 30
0.0
 10
-73.1605
 20
-8.5519
 30
0.0
 10
-73.1605
 20
-8.5519
 30
0.0
 10
-73.2016
 20
-7.6893
 30
0.0
 10
-73.279
 20
-6.6887
 30
0.0
 10
-73.3325
 20
-6.3282
 30
0.0
 10
-73.3325
 20
-6.3282
 30
0.0
 10
-73.386
 20
-5.9677
 30
0.0
 10
-73.4508
 20
-5.4539
 30
0.0
 10
-73.4762
 20
-5.1861
 30
0.0
 10
-73.4762
 20
-5.1861
 30
0.0
 10
-73.5018
 20
-4.9184
 30
0.0
 10
-74.4565
 20
-4.3527
 30
0.0
 10
-75.5979
 20
-3.929
 30
0.0
 10
-75.5979
 20
-3.929
 30
0.0
 10
-80.2616
 20
-2.1977
 30
0.0
 10
-82.6973
 20
1.9256
 30
0.0
 10
-82.6973
 20
8.0892
 30
0.0
 10
-82.6973
 20
8.0892
 30
0.0
 10
-82.6973
 20
14.8281
 30
0.0
 10
-79.7463
 20
19.1786
 30
0.0
 10
-74.2873
 20
20.4875
 30
0.0
 10
-74.2873
 20
20.4875
 30
0.0
 10
-73.1329
 20
20.7642
 30
0.0
 10
-73.0858
 20
20.8843
 30
0.0
 10
-73.0858
 20
23.5524
 30
0.0
 10
-73.0858
 20
23.5524
 30
0.0
 10
-73.0858
 20
26.3236
 30
0.0
 10
-73.0832
 20
26.3297
 30
0.0
 10
-71.6955
 20
26.6073
 30
0.0
 10
-71.6955
 20
26.6073
 30
0.0
 10
-70.8525
 20
26.7759
 30
0.0
 10
-69.5624
 20
27.6605
 30
0.0
 10
-68.4188
 20
28.854
 30
0.0
 10
-68.4188
 20
28.854
 30
0.0
 10
-68.4188
 20
28.854
 30
0.0
 10
-66.5324
 20
30.8226
 30
0.0
 10
-66.5324
 20
30.8226
 30
0.0
 10
-66.5324
 20
30.8226
 30
0.0
 10
-66.5324
 20
30.8226
 30
0.0
 10
-64.646
 20
28.854
 30
0.0
 10
-64.646
 20
28.854
 30
0.0
 10
-64.646
 20
28.854
 30
0.0
 10
-63.5024
 20
27.6605
 30
0.0
 10
-62.2123
 20
26.7759
 30
0.0
 10
-61.3693
 20
26.6073
 30
0.0
 10
-61.3693
 20
26.6073
 30
0.0
 10
-60.0649
 20
26.3464
 30
0.0
 10
-59.979
 20
26.213
 30
0.0
 10
-59.979
 20
24.4463
 30
0.0
 10
-59.979
 20
24.4463
 30
0.0
 10
-59.979
 20
21.7307
 30
0.0
 10
-59.385
 20
20.49
 30
0.0
 10
-57.9379
 20
20.182
 30
0.0
 10
-57.9379
 20
20.182
 30
0.0
 10
-54.9095
 20
19.5375
 30
0.0
 10
-51.6936
 20
16.1954
 30
0.0
 10
-50.7562
 20
12.7184
 30
0.0
 10
-50.7562
 20
12.7184
 30
0.0
 10
-49.9984
 20
9.9075
 30
0.0
 10
-50.4611
 20
3.4146
 30
0.0
 10
-51.5714
 20
1.2761
 30
0.0
 10
-51.5714
 20
1.2761
 30
0.0
 10
-52.7606
 20
-1.0142
 30
0.0
 10
-54.9825
 20
-2.958
 30
0.0
 10
-57.518
 20
-3.9263
 30
0.0
 10
-57.518
 20
-3.9263
 30
0.0
 10
-59.3081
 20
-4.6099
 30
0.0
 10
-60.1364
 20
-5.527
 30
0.0
 10
-59.9422
 20
-6.6106
 30
0.0
 10
-59.9422
 20
-6.6106
 30
0.0
 10
-59.9054
 20
-6.8157
 30
0.0
 10
-59.8986
 20
-7.6893
 30
0.0
 10
-59.9271
 20
-8.5519
 30
0.0
 10
-59.9271
 20
-8.5519
 30
0.0
 10
-59.9744
 20
-9.9859
 30
0.0
 10
-60.1329
 20
-10.1711
 30
0.0
 10
-61.7749
 20
-10.7131
 30
0.0
 10
-61.7749
 20
-10.7131
 30
0.0
 10
-62.8848
 20
-11.0793
 30
0.0
 10
-64.081
 20
-11.9406
 30
0.0
 10
-64.9063
 20
-12.9675
 30
0.0
 10
-64.9063
 20
-12.9675
 30
0.0
 10
-65.6407
 20
-13.8815
 30
0.0
 10
-66.3562
 20
-14.6257
 30
0.0
 10
-66.4961
 20
-14.6212
 30
0.0
 10
-66.4961
 20
-14.6212
 30
0.0
 10
-66.6361
 20
-14.6169
 30
0.0
 10
-67.3684
 20
-13.8689
 30
0.0
 10
-68.1234
 20
-12.9591
 30
0.0
 10
-68.1234
 20
-12.9591
 30
0.0
 10
-68.1234
 20
-12.9591
 30
0.0
 10
-68.1237
 20
-12.9591
 30
0.0
 10
-68.1237
 20
-12.9591
 30
0.0
  0
SPLINE
  5
56
330
1F
100
AcDbEntity
  8
layer 1
 62
     7
100
AcDbSpline
210
0.0
220
0.0
230
1.0
 70
    11
 71
     3
 72
    52
 73
    48
 74
     0
 42
0.0000000001
 43
0.0000000001
 12
1.0
 22
0.0
 32
0.0
 13
1.0
 23
0.0
 33
0.0
 40
0.0
 40
0.0
 40
0.0
 40
0.0
 40
0.0769230769230769
 40
0.0769230769230769
 40
0.0769230769230769
 40
0.0769230769230769
 40
0.1538461538461539
 40
0.1538461538461539
 40
0.1538461538461539
 40
0.1538461538461539
 40
0.2307692307692308
 40
0.2307692307692308
 40
0.2307692307692308
 40
0.2307692307692308
 40
0.3076923076923077
 40
0.3076923076923077
 40
0.3076923076923077
 40
0.3076923076923077
 40
0.3846153846153846
 40
0.3846153846153846
 40
0.3846153846153846
 40
0.3846153846153846
 40
0.4615384615384616
 40
0.4615384615384616
 40
0.4615384615384616
 40
0.4615384615384616
 40
0.5384615384615384
 40
0.5384615384615384
 40
0.5384615384615384
 40
0.5384615384615384
 40
0.6153846153846154
 40
0.6153846153846154
 40
0.6153846153846154
 40
0.6153846153846154
 40
0.6923076923076923
 40
0.6923076923076923
 40
0.6923076923076923
 40
0.6923076923076923
 40
0.7692307692307693
 40
0.7692307692307693
 40
0.7692307692307693
 40
0.7692307692307693
 40
0.8461538461538461
 40
0.8461538461538461
 40
0.8461538461538461
 40
0.8461538461538461
 40
1.0
 40
1.0
 40
1.0
 40
1.0
 10
-73.3109
 20
-9.915
 30
0.0
 10
-73.3109
 20
-9.915
 30
0.0
 10
-73.3109
 20
-4.5767
 30
0.0
 10
-73.3109
 20
-4.5767
 30
0.0
 10
-73.3109
 20
-4.5767
 30
0.0
 10
-79.9274
 20
-3.4471
 30
0.0
 10
-82.594
 20
0.9737
 30
0.0
 10
-82.7304
 20
8.3196
 30
0.0
 10
-82.7304
 20
8.3196
 30
0.0
 10
-82.7224
 20
15.2387
 30
0.0
 10
-80.0073
 20
19.8869
 30
0.0
 10
-73.3883
 20
20.7732
 30
0.0
 10
-73.3883
 20
20.7732
 30
0.0
 10
-73.3883
 20
20.7732
 30
0.0
 10
-73.3883
 20
25.8418
 30
0.0
 10
-73.3883
 20
25.8418
 30
0.0
 10
-73.3883
 20
25.8418
 30
0.0
 10
-71.0337
 20
26.8578
 30
0.0
 10
-68.3582
 20
28.6585
 30
0.0
 10
-66.4112
 20
31.0065
 30
0.0
 10
-66.4112
 20
31.0065
 30
0.0
 10
-64.4642
 20
28.6585
 30
0.0
 10
-61.7888
 20
26.8578
 30
0.0
 10
-59.4341
 20
25.8418
 30
0.0
 10
-59.4341
 20
25.8418
 30
0.0
 10
-59.4341
 20
25.8418
 30
0.0
 10
-59.4341
 20
20.7732
 30
0.0
 10
-59.4341
 20
20.7732
 30
0.0
 10
-59.4341
 20
20.7732
 30
0.0
 10
-52.8151
 20
19.8869
 30
0.0
 10
-50.1
 20
15.2389
 30
0.0
 10
-50.0921
 20
8.3196
 30
0.0
 10
-50.0921
 20
8.3196
 30
0.0
 10
-50.2285
 20
0.9737
 30
0.0
 10
-52.895
 20
-3.4471
 30
0.0
 10
-59.5115
 20
-4.5767
 30
0.0
 10
-59.5115
 20
-4.5767
 30
0.0
 10
-59.5115
 20
-4.5767
 30
0.0
 10
-59.5115
 20
-9.915
 30
0.0
 10
-59.5115
 20
-9.915
 30
0.0
 10
-59.5115
 20
-9.915
 30
0.0
 10
-62.6274
 20
-10.761
 30
0.0
 10
-64.3417
 20
-12.8247
 30
0.0
 10
-66.4112
 20
-14.7789
 30
0.0
 10
-66.4112
 20
-14.7789
 30
0.0
 10
-68.4805
 20
-12.8247
 30
0.0
 10
-70.195
 20
-10.761
 30
0.0
 10
-73.3109
 20
-9.915
 30
0.0
  0
SPLINE
  5
57
330
1F
100
AcDbEntity
  8
layer 1
 62
     7
100
AcDbSpline
210
0.0
220
0.0
230
1.0
 70
    11
 71
     3
 72
    52
 73
    48
 74
     0
 42
0.0000000001
 43
0.0000000001
 12
1.0
 22
0.0
 32
0.0
 13
1.0
 23
0.0
 33
0.0
 40
0.0
 40
0.0
 40
0.0
 40
0.0
 40
0.0769230769230769
 40
0.0769230769230769
 40
0.0769230769230769
 40
0.0769230769230769
 40
0.1538461538461539
 40
0.1538461538461539
 40
0.1538461538461539
 40
0.1538461538461539
 40
0.2307692307692308
 40
0.2307692307692308
 40
0.2307692307692308
 40
0.2307692307692308
 40
0.3076923076923077
 40
0.3076923076923077
 40
0.3076923076923077
 40
0.3076923076923077
 40
0.3846153846153846
 40
0.3846153846153846
 40
0.3846153846153846
 40
0.3846153846153846
 40
0.4615384615384616
 40
0.4615384615384616
 40
0.4615384615384616
 40
0.4615384615384616
 40
0.5384615384615384
 40
0.5384615384615384
 40
0.5384615384615384
 40
0.5384615384615384
 40
0.6153846153846154
 40
0.6153846153846154
 40
0.6153846153846154
 40
0.6153846153846154
 40
0.6923076923076923
 40
0.6923076923076923
 40
0.6923076923076923
 40
0.6923076923076923
 40
0.7692307692307693
 40
0.7692307692307693
 40
0.7692307692307693
 40
0.7692307692307693
 40
0.8461538461538461
 40
0.8461538461538461
 40
0.8461538461538461
 40
0.8461538461538461
 40
1.0
 40
1.0
 40
1.0
 40
1.0
 10
-110.8684
 20
-9.915
 30
0.0
 10
-110.8684
 20
-9.915
 30
0.0
 10
-110.8684
 20
-4.5767
 30
0.0
 10
-110.8684
 20
-4.5767
 30
0.0
 10
-110.8684
 20
-4.5767
 30
0.0
 10
-117.4849
 20
-3.4471
 30
0.0
 10
-120.1515
 20
0.9737
 30
0.0
 10
-120.2878
 20
8.3196
 30
0.0
 10
-120.2878
 20
8.3196
 30
0.0
 10
-120.2799
 20
15.2387
 30
0.0
 10
-117.5648
 20
19.8869
 30
0.0
 10
-110.9458
 20
20.7732
 30
0.0
 10
-110.9458
 20
20.7732
 30
0.0
 10
-110.9458
 20
20.7732
 30
0.0
 10
-110.9458
 20
25.8418
 30
0.0
 10
-110.9458
 20
25.8418
 30
0.0
 10
-110.9458
 20
25.8418
 30
0.0
 10
-108.5912
 20
26.8578
 30
0.0
 10
-105.9157
 20
28.6585
 30
0.0
 10
-103.9687
 20
31.0065
 30
0.0
 10
-103.9687
 20
31.0065
 30
0.0
 10
-102.0217
 20
28.6585
 30
0.0
 10
-99.3462
 20
26.8578
 30
0.0
 10
-96.9916
 20
25.8418
 30
0.0
 10
-96.9916
 20
25.8418
 30
0.0
 10
-96.9916
 20
25.8418
 30
0.0
 10
-96.9916
 20
20.7732
 30
0.0
 10
-96.9916
 20
20.7732
 30
0.0
 10
-96.9916
 20
20.7732
 30
0.0
 10
-90.3726
 20
19.8869
 30
0.0
 10
-87.6575
 20
15.2389
 30
0.0
 10
-87.6496
 20
8.3196
 30
0.0
 10
-87.6496
 20
8.3196
 30
0.0
 10
-87.7859
 20
0.9737
 30
0.0
 10
-90.4525
 20
-3.4471
 30
0.0
 10
-97.069
 20
-4.5767
 30
0.0
 10
-97.069
 20
-4.5767
 30
0.0
 10
-97.069
 20
-4.5767
 30
0.0
 10
-97.069
 20
-9.915
 30
0.0
 10
-97.069
 20
-9.915
 30
0.0
 10
-97.069
 20
-9.915
 30
0.0
 10
-100.1849
 20
-10.761
 30
0.0
 10
-101.8992
 20
-12.8247
 30
0.0
 10
-103.9687
 20
-14.7789
 30
0.0
 10
-103.9687
 20
-14.7789
 30
0.0
 10
-106.038
 20
-12.8247
 30
0.0
 10
-107.7525
 20
-10.761
 30
0.0
 10
-110.8684
 20
-9.915
 30
0.0
  0
SPLINE
  5
58
330
1F
100
AcDbEntity
  8
layer 1
 62
     7
100
AcDbSpline
210
0.0
220
0.0
230
1.0
 70
    11
 71
     3
 72
    52
 73
    48
 74
     0
 42
0.0000000001
 43
0.0000000001
 12
1.0
 22
0.0
 32
0.0
 13
1.0
 23
0.0
 33
0.0
 40
0.0
 40
0.0
 40
0.0
 40
0.0
 40
0.0769230769230769
 40
0.0769230769230769
 40
0.0769230769230769
 40
0.0769230769230769
 40
0.1538461538461539
 40
0.1538461538461539
 40
0.1538461538461539
 40
0.1538461538461539
 40
0.2307692307692308
 40
0.2307692307692308
 40
0.2307692307692308
 40
0.2307692307692308
 40
0.3076923076923077
 40
0.3076923076923077
 40
0.3076923076923077
 40
0.3076923076923077
 40
0.3846153846153846
 40
0.3846153846153846
 40
0.3846153846153846
 40
0.3846153846153846
 40
0.4615384615384616
 40
0.4615384615384616
 40
0.4615384615384616
 40
0.4615384615384616
 40
0.5384615384615384
 40
0.5384615384615384
 40
0.5384615384615384
 40
0.5384615384615384
 40
0.6153846153846154
 40
0.6153846153846154
 40
0.6153846153846154
 40
0.6153846153846154
 40
0.6923076923076923
 40
0.6923076923076923
 40
0.6923076923076923
 40
0.6923076923076923
 40
0.7692307692307693
 40
0.7692307692307693
 40
0.7692307692307693
 40
0.7692307692307693
 40
0.8461538461538461
 40
0.8461538461538461
 40
0.8461538461538461
 40
0.8461538461538461
 40
1.0
 40
1.0
 40
1.0
 40
1.0
 10
-148.4259
 20
-9.915
 30
0.0
 10
-148.4259
 20
-9.915
 30
0.0
 10
-148.4259
 20
-4.5767
 30
0.0
 10
-148.4259
 20
-4.5767
 30
0.0
 10
-148.4259
 20
-4.5767
 30
0.0
 10
-155.0424
 20
-3.4471
 30
0.0
 10
-157.7089
 20
0.9737
 30
0.0
 10
-157.8453
 20
8.3196
 30
0.0
 10
-157.8453
 20
8.3196
 30
0.0
 10
-157.8374
 20
15.2387
 30
0.0
 10
-155.1223
 20
19.8869
 30
0.0
 10
-148.5033
 20
20.7732
 30
0.0
 10
-148.5033
 20
20.7732
 30
0.0
 10
-148.5033
 20
20.7732
 30
0.0
 10
-148.5033
 20
25.8418
 30
0.0
 10
-148.5033
 20
25.8418
 30
0.0
 10
-148.5033
 20
25.8418
 30
0.0
 10
-146.1487
 20
26.8578
 30
0.0
 10
-143.4732
 20
28.6585
 30
0.0
 10
-141.5262
 20
31.0065
 30
0.0
 10
-141.5262
 20
31.0065
 30
0.0
 10
-139.5792
 20
28.6585
 30
0.0
 10
-136.9037
 20
26.8578
 30
0.0
 10
-134.5491
 20
25.8418
 30
0.0
 10
-134.5491
 20
25.8418
 30
0.0
 10
-134.5491
 20
25.8418
 30
0.0
 10
-134.5491
 20
20.7732
 30
0.0
 10
-134.5491
 20
20.7732
 30
0.0
 10
-134.5491
 20
20.7732
 30
0.0
 10
-127.9301
 20
19.8869
 30
0.0
 10
-125.215
 20
15.2389
 30
0.0
 10
-125.207
 20
8.3196
 30
0.0
 10
-125.207
 20
8.3196
 30
0.0
 10
-125.3434
 20
0.9737
 30
0.0
 10
-128.01
 20
-3.4471
 30
0.0
 10
-134.6265
 20
-4.5767
 30
0.0
 10
-134.6265
 20
-4.5767
 30
0.0
 10
-134.6265
 20
-4.5767
 30
0.0
 10
-134.6265
 20
-9.915
 30
0.0
 10
-134.6265
 20
-9.915
 30
0.0
 10
-134.6265
 20
-9.915
 30
0.0
 10
-137.7424
 20
-10.761
 30
0.0
 10
-139.4567
 20
-12.8247
 30
0.0
 10
-141.5262
 20
-14.7789
 30
0.0
 10
-141.5262
 20
-14.7789
 30
0.0
 10
-143.5955
 20
-12.8247
 30
0.0
 10
-145.31
 20
-10.761
 30
0.0
 10
-148.4259
 20
-9.915
 30
0.0
  0
SPLINE
  5
59
330
1F
100
AcDbEntity
  8
layer 1
 62
     7
100
AcDbSpline
210
0.0
220
0.0
230
1.0
 70
    11
 71
     3
 72
    52
 73
    48
 74
     0
 42
0.0000000001
 43
0.0000000001
 12
1.0
 22
0.0
 32
0.0
 13
1.0
 23
0.0
 33
0.0
 40
0.0
 40
0.0
 40
0.0
 40
0.0
 40
0.0769230769230769
 40
0.0769230769230769
 40
0.0769230769230769
 40
0.0769230769230769
 40
0.1538461538461539
 40
0.1538461538461539
 40
0.1538461538461539
 40
0.1538461538461539
 40
0.2307692307692308
 40
0.2307692307692308
 40
0.2307692307692308
 40
0.2307692307692308
 40
0.3076923076923077
 40
0.3076923076923077
 40
0.3076923076923077
 40
0.3076923076923077
 40
0.3846153846153846
 40
0.3846153846153846
 40
0.3846153846153846
 40
0.3846153846153846
 40
0.4615384615384616
 40
0.4615384615384616
 40
0.4615384615384616
 40
0.4615384615384616
 40
0.5384615384615384
 40
0.5384615384615384
 40
0.5384615384615384
 40
0.5384615384615384
 40
0.6153846153846154
 40
0.6153846153846154
 40
0.6153846153846154
 40
0.6153846153846154
 40
0.6923076923076923
 40
0.6923076923076923
 40
0.6923076923076923
 40
0.6923076923076923
 40
0.7692307692307693
 40
0.7692307692307693
 40
0.7692307692307693
 40
0.7692307692307693
 40
0.8461538461538461
 40
0.8461538461538461
 40
0.8461538461538461
 40
0.8461538461538461
 40
1.0
 40
1.0
 40
1.0
 40
1.0
 10
-54.5994
 20
86.3916
 30
0.0
 10
-54.5994
 20
86.3916
 30
0.0
 10
-54.5994
 20
91.7298
 30
0.0
 10
-54.5994
 20
91.7298
 30
0.0
 10
-54.5994
 20
91.7298
 30
0.0
 10
-61.2159
 20
92.8594
 30
0.0
 10
-63.8825
 20
97.2803
 30
0.0
 10
-64.0189
 20
104.6261
 30
0.0
 10
-64.0189
 20
104.6261
 30
0.0
 10
-64.011
 20
111.5453
 30
0.0
 10
-61.2959
 20
116.1935
 30
0.0
 10
-54.6769
 20
117.0797
 30
0.0
 10
-54.6769
 20
117.0797
 30
0.0
 10
-54.6769
 20
117.0797
 30
0.0
 10
-54.6769
 20
122.1484
 30
0.0
 10
-54.6769
 20
122.1484
 30
0.0
 10
-54.6769
 20
122.1484
 30
0.0
 10
-52.3222
 20
123.1644
 30
0.0
 10
-49.6467
 20
124.965
 30
0.0
 10
-47.6998
 20
127.3131
 30
0.0
 10
-47.6998
 20
127.3131
 30
0.0
 10
-45.7528
 20
124.965
 30
0.0
 10
-43.0773
 20
123.1644
 30
0.0
 10
-40.7226
 20
122.1484
 30
0.0
 10
-40.7226
 20
122.1484
 30
0.0
 10
-40.7226
 20
122.1484
 30
0.0
 10
-40.7226
 20
117.0797
 30
0.0
 10
-40.7226
 20
117.0797
 30
0.0
 10
-40.7226
 20
117.0797
 30
0.0
 10
-34.1037
 20
116.1935
 30
0.0
 10
-31.3885
 20
111.5455
 30
0.0
 10
-31.3806
 20
104.6261
 30
0.0
 10
-31.3806
 20
104.6261
 30
0.0
 10
-31.517
 20
97.2803
 30
0.0
 10
-34.1836
 20
92.8594
 30
0.0
 10
-40.8001
 20
91.7298
 30
0.0
 10
-40.8001
 20
91.7298
 30
0.0
 10
-40.8001
 20
91.7298
 30
0.0
 10
-40.8001
 20
86.3916
 30
0.0
 10
-40.8001
 20
86.3916
 30
0.0
 10
-40.8001
 20
86.3916
 30
0.0
 10
-43.916
 20
85.5456
 30
0.0
 10
-45.6303
 20
83.4819
 30
0.0
 10
-47.6998
 20
81.5277
 30
0.0
 10
-47.6998
 20
81.5277
 30
0.0
 10
-49.7691
 20
83.4819
 30
0.0
 10
-51.4836
 20
85.5456
 30
0.0
 10
-54.5994
 20
86.3916
 30
0.0
  0
SPLINE
  5
5A
330
1F
100
AcDbEntity
  8
layer 1
 62
     7
100
AcDbSpline
210
0.0
220
0.0
230
1.0
 70
    11
 71
     3
 72
    32
 73
    28
 74
     0
 42
0.0000000001
 43
0.0000000001
 12
1.0
 22
0.0
 32
0.0
 13
1.0
 23
0.0
 33
0.0
 40
0.0
 40
0.0
 40
0.0
 40
0.0
 40
0.125
 40
0.125
 40
0.125
 40
0.125
 40
0.25
 40
0.25
 40
0.25
 40
0.25
 40
0.375
 40
0.375
 40
0.375
 40
0.375
 40
0.5
 40
0.5
 40
0.5
 40
0.5
 40
0.625
 40
0.625
 40
0.625
 40
0.625
 40
0.75
 40
0.75
 40
0.75
 40
0.75
 40
1.0
 40
1.0
 40
1.0
 40
1.0
 10
-28.998
 20
94.9199
 30
0.0
 10
-28.998
 20
94.9199
 30
0.0
 10
-28.998
 20
49.1344
 30
0.0
 10
-28.998
 20
49.1344
 30
0.0
 10
-28.998
 20
49.1344
 30
0.0
 10
-31.0456
 20
51.0748
 30
0.0
 10
-32.8063
 20
53.1591
 30
0.0
 10
-35.8977
 20
53.9983
 30
0.0
 10
-35.8977
 20
53.9983
 30
0.0
 10
-35.8977
 20
53.9983
 30
0.0
 10
-35.8977
 20
59.3366
 30
0.0
 10
-35.8977
 20
59.3366
 30
0.0
 10
-35.8977
 20
59.3366
 30
0.0
 10
-42.5142
 20
60.4662
 30
0.0
 10
-45.1808
 20
64.887
 30
0.0
 10
-45.3172
 20
72.2329
 30
0.0
 10
-45.3172
 20
72.2329
 30
0.0
 10
-45.3093
 20
79.1521
 30
0.0
 10
-42.5941
 20
83.8003
 30
0.0
 10
-35.9752
 20
84.6865
 30
0.0
 10
-35.9752
 20
84.6865
 30
0.0
 10
-35.9752
 20
84.6865
 30
0.0
 10
-35.9752
 20
89.7551
 30
0.0
 10
-35.9752
 20
89.7551
 30
0.0
 10
-35.9752
 20
89.7551
 30
0.0
 10
-33.6205
 20
90.7711
 30
0.0
 10
-30.945
 20
92.5718
 30
0.0
 10
-28.998
 20
94.9199
 30
0.0
  0
SPLINE
  5
5B
330
1F
100
AcDbEntity
  8
layer 1
 62
     7
100
AcDbSpline
210
0.0
220
0.0
230
1.0
 70
    11
 71
     3
 72
    32
 73
    28
 74
     0
 42
0.0000000001
 43
0.0000000001
 12
1.0
 22
0.0
 32
0.0
 13
1.0
 23
0.0
 33
0.0
 40
0.0
 40
0.0
 40
0.0
 40
0.0
 40
0.125
 40
0.125
 40
0.125
 40
0.125
 40
0.25
 40
0.25
 40
0.25
 40
0.25
 40
0.375
 40
0.375
 40
0.375
 40
0.375
 40
0.5
 40
0.5
 40
0.5
 40
0.5
 40
0.625
 40
0.625
 40
0.625
 40
0.625
 40
0.75
 40
0.75
 40
0.75
 40
0.75
 40
1.0
 40
1.0
 40
1.0
 40
1.0
 10
-28.998
 20
31.1761
 30
0.0
 10
-28.998
 20
31.1761
 30
0.0
 10
-28.998
 20
-14.6093
 30
0.0
 10
-28.998
 20
-14.6093
 30
0.0
 10
-28.998
 20
-14.6093
 30
0.0
 10
-31.0456
 20
-12.669
 30
0.0
 10
-32.8063
 20
-10.5846
 30
0.0
 10
-35.8977
 20
-9.7454
 30
0.0
 10
-35.8977
 20
-9.7454
 30
0.0
 10
-35.8977
 20
-9.7454
 30
0.0
 10
-35.8977
 20
-4.4072
 30
0.0
 10
-35.8977
 20
-4.4072
 30
0.0
 10
-35.8977
 20
-4.4072
 30
0.0
 10
-42.5142
 20
-3.2776
 30
0.0
 10
-45.1808
 20
1.1433
 30
0.0
 10
-45.3172
 20
8.4891
 30
0.0
 10
-45.3172
 20
8.4891
 30
0.0
 10
-45.3093
 20
15.4083
 30
0.0
 10
-42.5941
 20
20.0565
 30
0.0
 10
-35.9752
 20
20.9427
 30
0.0
 10
-35.9752
 20
20.9427
 30
0.0
 10
-35.9752
 20
20.9427
 30
0.0
 10
-35.9752
 20
26.0114
 30
0.0
 10
-35.9752
 20
26.0114
 30
0.0
 10
-35.9752
 20
26.0114
 30
0.0
 10
-33.6205
 20
27.0274
 30
0.0
 10
-30.945
 20
28.828
 30
0.0
 10
-28.998
 20
31.1761
 30
0.0
  0
SPLINE
  5
5C
330
1F
100
AcDbEntity
  8
layer 1
 62
     7
100
AcDbSpline
210
0.0
220
0.0
230
1.0
 70
    11
 71
     3
 72
    32
 73
    28
 74
     0
 42
0.0000000001
 43
0.0000000001
 12
1.0
 22
0.0
 32
0.0
 13
1.0
 23
0.0
 33
0.0
 40
0.0
 40
0.0
 40
0.0
 40
0.0
 40
0.125
 40
0.125
 40
0.125
 40
0.125
 40
0.25
 40
0.25
 40
0.25
 40
0.25
 40
0.375
 40
0.375
 40
0.375
 40
0.375
 40
0.5
 40
0.5
 40
0.5
 40
0.5
 40
0.625
 40
0.625
 40
0.625
 40
0.625
 40
0.75
 40
0.75
 40
0.75
 40
0.75
 40
1.0
 40
1.0
 40
1.0
 40
1.0
 10
-28.998
 20
-31.9182
 30
0.0
 10
-28.998
 20
-31.9182
 30
0.0
 10
-28.998
 20
-77.7036
 30
0.0
 10
-28.998
 20
-77.7036
 30
0.0
 10
-28.998
 20
-77.7036
 30
0.0
 10
-31.0456
 20
-75.7633
 30
0.0
 10
-32.8063
 20
-73.6789
 30
0.0
 10
-35.8977
 20
-72.8398
 30
0.0
 10
-35.8977
 20
-72.8398
 30
0.0
 10
-35.8977
 20
-72.8398
 30
0.0
 10
-35.8977
 20
-67.5015
 30
0.0
 10
-35.8977
 20
-67.5015
 30
0.0
 10
-35.8977
 20
-67.5015
 30
0.0
 10
-42.5142
 20
-66.3719
 30
0.0
 10
-45.1808
 20
-61.951
 30
0.0
 10
-45.3172
 20
-54.6052
 30
0.0
 10
-45.3172
 20
-54.6052
 30
0.0
 10
-45.3093
 20
-47.686
 30
0.0
 10
-42.5941
 20
-43.0378
 30
0.0
 10
-35.9752
 20
-42.1516
 30
0.0
 10
-35.9752
 20
-42.1516
 30
0.0
 10
-35.9752
 20
-42.1516
 30
0.0
 10
-35.9752
 20
-37.0829
 30
0.0
 10
-35.9752
 20
-37.0829
 30
0.0
 10
-35.9752
 20
-37.0829
 30
0.0
 10
-33.6205
 20
-36.0669
 30
0.0
 10
-30.945
 20
-34.2663
 30
0.0
 10
-28.998
 20
-31.9182
 30
0.0
  0
SPLINE
  5
5D
330
1F
100
AcDbEntity
  8
layer 1
 62
     7
100
AcDbSpline
210
0.0
220
0.0
230
1.0
 70
    11
 71
     3
 72
    32
 73
    28
 74
     0
 42
0.0000000001
 43
0.0000000001
 12
1.0
 22
0.0
 32
0.0
 13
1.0
 23
0.0
 33
0.0
 40
0.0
 40
0.0
 40
0.0
 40
0.0
 40
0.125
 40
0.125
 40
0.125
 40
0.125
 40
0.25
 40
0.25
 40
0.25
 40
0.25
 40
0.375
 40
0.375
 40
0.375
 40
0.375
 40
0.5
 40
0.5
 40
0.5
 40
0.5
 40
0.625
 40
0.625
 40
0.625
 40
0.625
 40
0.75
 40
0.75
 40
0.75
 40
0.75
 40
1.0
 40
1.0
 40
1.0
 40
1.0
 10
-179.6076
 20
94.9199
 30
0.0
 10
-179.6076
 20
94.9199
 30
0.0
 10
-179.6076
 20
49.1344
 30
0.0
 10
-179.6076
 20
49.1344
 30
0.0
 10
-179.6076
 20
49.1344
 30
0.0
 10
-177.5601
 20
51.0748
 30
0.0
 10
-175.7994
 20
53.1591
 30
0.0
 10
-172.7079
 20
53.9983
 30
0.0
 10
-172.7079
 20
53.9983
 30
0.0
 10
-172.7079
 20
53.9983
 30
0.0
 10
-172.7079
 20
59.3366
 30
0.0
 10
-172.7079
 20
59.3366
 30
0.0
 10
-172.7079
 20
59.3366
 30
0.0
 10
-166.0914
 20
60.4662
 30
0.0
 10
-163.4249
 20
64.887
 30
0.0
 10
-163.2885
 20
72.2329
 30
0.0
 10
-163.2885
 20
72.2329
 30
0.0
 10
-163.2964
 20
79.1521
 30
0.0
 10
-166.0115
 20
83.8003
 30
0.0
 10
-172.6305
 20
84.6865
 30
0.0
 10
-172.6305
 20
84.6865
 30
0.0
 10
-172.6305
 20
84.6865
 30
0.0
 10
-172.6305
 20
89.7551
 30
0.0
 10
-172.6305
 20
89.7551
 30
0.0
 10
-172.6305
 20
89.7551
 30
0.0
 10
-174.9851
 20
90.7711
 30
0.0
 10
-177.6606
 20
92.5718
 30
0.0
 10
-179.6076
 20
94.9199
 30
0.0
  0
SPLINE
  5
5E
330
1F
100
AcDbEntity
  8
layer 1
 62
     7
100
AcDbSpline
210
0.0
220
0.0
230
1.0
 70
    11
 71
     3
 72
    32
 73
    28
 74
     0
 42
0.0000000001
 43
0.0000000001
 12
1.0
 22
0.0
 32
0.0
 13
1.0
 23
0.0
 33
0.0
 40
0.0
 40
0.0
 40
0.0
 40
0.0
 40
0.125
 40
0.125
 40
0.125
 40
0.125
 40
0.25
 40
0.25
 40
0.25
 40
0.25
 40
0.375
 40
0.375
 40
0.375
 40
0.375
 40
0.5
 40
0.5
 40
0.5
 40
0.5
 40
0.625
 40
0.625
 40
0.625
 40
0.625
 40
0.75
 40
0.75
 40
0.75
 40
0.75
 40
1.0
 40
1.0
 40
1.0
 40
1.0
 10
-179.6076
 20
31.1761
 30
0.0
 10
-179.6076
 20
31.1761
 30
0.0
 10
-179.6076
 20
-14.6093
 30
0.0
 10
-179.6076
 20
-14.6093
 30
0.0
 10
-179.6076
 20
-14.6093
 30
0.0
 10
-177.5601
 20
-12.669
 30
0.0
 10
-175.7994
 20
-10.5846
 30
0.0
 10
-172.7079
 20
-9.7454
 30
0.0
 10
-172.7079
 20
-9.7454
 30
0.0
 10
-172.7079
 20
-9.7454
 30
0.0
 10
-172.7079
 20
-4.4072
 30
0.0
 10
-172.7079
 20
-4.4072
 30
0.0
 10
-172.7079
 20
-4.4072
 30
0.0
 10
-166.0914
 20
-3.2776
 30
0.0
 10
-163.4249
 20
1.1433
 30
0.0
 10
-163.2885
 20
8.4891
 30
0.0
 10
-163.2885
 20
8.4891
 30
0.0
 10
-163.2964
 20
15.4083
 30
0.0
 10
-166.0115
 20
20.0565
 30
0.0
 10
-172.6305
 20
20.9427
 30
0.0
 10
-172.6305
 20
20.9427
 30
0.0
 10
-172.6305
 20
20.9427
 30
0.0
 10
-172.6305
 20
26.0114
 30
0.0
 10
-172.6305
 20
26.0114
 30
0.0
 10
-172.6305
 20
26.0114
 30
0.0
 10
-174.9851
 20
27.0274
 30
0.0
 10
-177.6606
 20
28.828
 30
0.0
 10
-179.6076
 20
31.1761
 30
0.0
  0
SPLINE
  5
5F
330
1F
100
AcDbEntity
  8
layer 1
 62
     7
100
AcDbSpline
210
0.0
220
0.0
230
1.0
 70
    11
 71
     3
 72
    32
 73
    28
 74
     0
 42
0.0000000001
 43
0.0000000001
 12
1.0
 22
0.0
 32
0.0
 13
1.0
 23
0.0
 33
0.0
 40
0.0
 40
0.0
 40
0.0
 40
0.0
 40
0.125
 40
0.125
 40
0.125
 40
0.125
 40
0.25
 40
0.25
 40
0.25
 40
0.25
 40
0.375
 40
0.375
 40
0.375
 40
0.375
 40
0.5
 40
0.5
 40
0.5
 40
0.5
 40
0.625
 40
0.625
 40
0.625
 40
0.625
 40
0.75
 40
0.75
 40
0.75
 40
0.75
 40
1.0
 40
1.0
 40
1.0
 40
1.0
 10
-179.6076
 20
-31.9182
 30
0.0
 10
-179.6076
 20
-31.9182
 30
0.0
 10
-179.6076
 20
-77.7036
 30
0.0
 10
-179.6076
 20
-77.7036
 30
0.0
 10
-179.6076
 20
-77.7036
 30
0.0
 10
-177.5601
 20
-75.7633
 30
0.0
 10
-175.7994
 20
-73.6789
 30
0.0
 10
-172.7079
 20
-72.8398
 30
0.0
 10
-172.7079
 20
-72.8398
 30
0.0
 10
-172.7079
 20
-72.8398
 30
0.0
 10
-172.7079
 20
-67.5015
 30
0.0
 10
-172.7079
 20
-67.5015
 30
0.0
 10
-172.7079
 20
-67.5015
 30
0.0
 10
-166.0914
 20
-66.3719
 30
0.0
 10
-163.4249
 20
-61.951
 30
0.0
 10
-163.2885
 20
-54.6052
 30
0.0
 10
-163.2885
 20
-54.6052
 30
0.0
 10
-163.2964
 20
-47.686
 30
0.0
 10
-166.0115
 20
-43.0378
 30
0.0
 10
-172.6305
 20
-42.1516
 30
0.0
 10
-172.6305
 20
-42.1516
 30
0.0
 10
-172.6305
 20
-42.1516
 30
0.0
 10
-172.6305
 20
-37.0829
 30
0.0
 10
-172.6305
 20
-37.0829
 30
0.0
 10
-172.6305
 20
-37.0829
 30
0.0
 10
-174.9851
 20
-36.0669
 30
0.0
 10
-177.6606
 20
-34.2663
 30
0.0
 10
-179.6076
 20
-31.9182
 30
0.0
  0
SPLINE
  5
60
330
1F
100
AcDbEntity
  8
layer 1
 62
     7
100
AcDbSpline
210
0.0
220
0.0
230
1.0
 70
    11
 71
     3
 72
    52
 73
    48
 74
     0
 42
0.0000000001
 43
0.0000000001
 12
1.0
 22
0.0
 32
0.0
 13
1.0
 23
0.0
 33
0.0
 40
0.0
 40
0.0
 40
0.0
 40
0.0
 40
0.0769230769230769
 40
0.0769230769230769
 40
0.0769230769230769
 40
0.0769230769230769
 40
0.1538461538461539
 40
0.1538461538461539
 40
0.1538461538461539
 40
0.1538461538461539
 40
0.2307692307692308
 40
0.2307692307692308
 40
0.2307692307692308
 40
0.2307692307692308
 40
0.3076923076923077
 40
0.3076923076923077
 40
0.3076923076923077
 40
0.3076923076923077
 40
0.3846153846153846
 40
0.3846153846153846
 40
0.3846153846153846
 40
0.3846153846153846
 40
0.4615384615384616
 40
0.4615384615384616
 40
0.4615384615384616
 40
0.4615384615384616
 40
0.5384615384615384
 40
0.5384615384615384
 40
0.5384615384615384
 40
0.5384615384615384
 40
0.6153846153846154
 40
0.6153846153846154
 40
0.6153846153846154
 40
0.6153846153846154
 40
0.6923076923076923
 40
0.6923076923076923
 40
0.6923076923076923
 40
0.6923076923076923
 40
0.7692307692307693
 40
0.7692307692307693
 40
0.7692307692307693
 40
0.7692307692307693
 40
0.8461538461538461
 40
0.8461538461538461
 40
0.8461538461538461
 40
0.8461538461538461
 40
1.0
 40
1.0
 40
1.0
 40
1.0
 10
-54.6326
 20
-105.1879
 30
0.0
 10
-54.6326
 20
-105.1879
 30
0.0
 10
-54.6326
 20
-99.8497
 30
0.0
 10
-54.6326
 20
-99.8497
 30
0.0
 10
-54.6326
 20
-99.8497
 30
0.0
 10
-61.2491
 20
-98.72
 30
0.0
 10
-63.9157
 20
-94.2992
 30
0.0
 10
-64.0521
 20
-86.9534
 30
0.0
 10
-64.0521
 20
-86.9534
 30
0.0
 10
-64.0442
 20
-80.0342
 30
0.0
 10
-61.329
 20
-75.386
 30
0.0
 10
-54.7101
 20
-74.4997
 30
0.0
 10
-54.7101
 20
-74.4997
 30
0.0
 10
-54.7101
 20
-74.4997
 30
0.0
 10
-54.7101
 20
-69.4311
 30
0.0
 10
-54.7101
 20
-69.4311
 30
0.0
 10
-54.7101
 20
-69.4311
 30
0.0
 10
-52.3554
 20
-68.4151
 30
0.0
 10
-49.6799
 20
-66.6144
 30
0.0
 10
-47.7329
 20
-64.2664
 30
0.0
 10
-47.7329
 20
-64.2664
 30
0.0
 10
-45.786
 20
-66.6144
 30
0.0
 10
-43.1105
 20
-68.4151
 30
0.0
 10
-40.7558
 20
-69.4311
 30
0.0
 10
-40.7558
 20
-69.4311
 30
0.0
 10
-40.7558
 20
-69.4311
 30
0.0
 10
-40.7558
 20
-74.4997
 30
0.0
 10
-40.7558
 20
-74.4997
 30
0.0
 10
-40.7558
 20
-74.4997
 30
0.0
 10
-34.1369
 20
-75.386
 30
0.0
 10
-31.4217
 20
-80.034
 30
0.0
 10
-31.4138
 20
-86.9534
 30
0.0
 10
-31.4138
 20
-86.9534
 30
0.0
 10
-31.5502
 20
-94.2992
 30
0.0
 10
-34.2168
 20
-98.72
 30
0.0
 10
-40.8333
 20
-99.8497
 30
0.0
 10
-40.8333
 20
-99.8497
 30
0.0
 10
-40.8333
 20
-99.8497
 30
0.0
 10
-40.8333
 20
-105.1879
 30
0.0
 10
-40.8333
 20
-105.1879
 30
0.0
 10
-40.8333
 20
-105.1879
 30
0.0
 10
-43.9491
 20
-106.0339
 30
0.0
 10
-45.6635
 20
-108.0976
 30
0.0
 10
-47.7329
 20
-110.0518
 30
0.0
 10
-47.7329
 20
-110.0518
 30
0.0
 10
-49.8023
 20
-108.0976
 30
0.0
 10
-51.5168
 20
-106.0339
 30
0.0
 10
-54.6326
 20
-105.1879
 30
0.0
  0
SPLINE
  5
61
330
1F
100
AcDbEntity
  8
layer 1
 62
     7
100
AcDbSpline
210
0.0
220
0.0
230
1.0
 70
    11
 71
     3
 72
    52
 73
    48
 74
     0
 42
0.0000000001
 43
0.0000000001
 12
1.0
 22
0.0
 32
0.0
 13
1.0
 23
0.0
 33
0.0
 40
0.0
 40
0.0
 40
0.0
 40
0.0
 40
0.0769230769230769
 40
0.0769230769230769
 40
0.0769230769230769
 40
0.0769230769230769
 40
0.1538461538461539
 40
0.1538461538461539
 40
0.1538461538461539
 40
0.1538461538461539
 40
0.2307692307692308
 40
0.2307692307692308
 40
0.2307692307692308
 40
0.2307692307692308
 40
0.3076923076923077
 40
0.3076923076923077
 40
0.3076923076923077
 40
0.3076923076923077
 40
0.3846153846153846
 40
0.3846153846153846
 40
0.3846153846153846
 40
0.3846153846153846
 40
0.4615384615384616
 40
0.4615384615384616
 40
0.4615384615384616
 40
0.4615384615384616
 40
0.5384615384615384
 40
0.5384615384615384
 40
0.5384615384615384
 40
0.5384615384615384
 40
0.6153846153846154
 40
0.6153846153846154
 40
0.6153846153846154
 40
0.6153846153846154
 40
0.6923076923076923
 40
0.6923076923076923
 40
0.6923076923076923
 40
0.6923076923076923
 40
0.7692307692307693
 40
0.7692307692307693
 40
0.7692307692307693
 40
0.7692307692307693
 40
0.8461538461538461
 40
0.8461538461538461
 40
0.8461538461538461
 40
0.8461538461538461
 40
1.0
 40
1.0
 40
1.0
 40
1.0
 10
-92.1901
 20
-105.1879
 30
0.0
 10
-92.1901
 20
-105.1879
 30
0.0
 10
-92.1901
 20
-99.8497
 30
0.0
 10
-92.1901
 20
-99.8497
 30
0.0
 10
-92.1901
 20
-99.8497
 30
0.0
 10
-98.8066
 20
-98.72
 30
0.0
 10
-101.4732
 20
-94.2992
 30
0.0
 10
-101.6096
 20
-86.9534
 30
0.0
 10
-101.6096
 20
-86.9534
 30
0.0
 10
-101.6017
 20
-80.0342
 30
0.0
 10
-98.8865
 20
-75.386
 30
0.0
 10
-92.2676
 20
-74.4997
 30
0.0
 10
-92.2676
 20
-74.4997
 30
0.0
 10
-92.2676
 20
-74.4997
 30
0.0
 10
-92.2676
 20
-69.4311
 30
0.0
 10
-92.2676
 20
-69.4311
 30
0.0
 10
-92.2676
 20
-69.4311
 30
0.0
 10
-89.9129
 20
-68.4151
 30
0.0
 10
-87.2374
 20
-66.6144
 30
0.0
 10
-85.2904
 20
-64.2664
 30
0.0
 10
-85.2904
 20
-64.2664
 30
0.0
 10
-83.3435
 20
-66.6144
 30
0.0
 10
-80.668
 20
-68.4151
 30
0.0
 10
-78.3133
 20
-69.4311
 30
0.0
 10
-78.3133
 20
-69.4311
 30
0.0
 10
-78.3133
 20
-69.4311
 30
0.0
 10
-78.3133
 20
-74.4997
 30
0.0
 10
-78.3133
 20
-74.4997
 30
0.0
 10
-78.3133
 20
-74.4997
 30
0.0
 10
-71.6943
 20
-75.386
 30
0.0
 10
-68.9792
 20
-80.034
 30
0.0
 10
-68.9713
 20
-86.9534
 30
0.0
 10
-68.9713
 20
-86.9534
 30
0.0
 10
-69.1077
 20
-94.2992
 30
0.0
 10
-71.7743
 20
-98.72
 30
0.0
 10
-78.3908
 20
-99.8497
 30
0.0
 10
-78.3908
 20
-99.8497
 30
0.0
 10
-78.3908
 20
-99.8497
 30
0.0
 10
-78.3908
 20
-105.1879
 30
0.0
 10
-78.3908
 20
-105.1879
 30
0.0
 10
-78.3908
 20
-105.1879
 30
0.0
 10
-81.5066
 20
-106.0339
 30
0.0
 10
-83.2209
 20
-108.0976
 30
0.0
 10
-85.2904
 20
-110.0518
 30
0.0
 10
-85.2904
 20
-110.0518
 30
0.0
 10
-87.3598
 20
-108.0976
 30
0.0
 10
-89.0742
 20
-106.0339
 30
0.0
 10
-92.1901
 20
-105.1879
 30
0.0
  0
SPLINE
  5
62
330
1F
100
AcDbEntity
  8
layer 1
 62
     7
100
AcDbSpline
210
0.0
220
0.0
230
1.0
 70
    11
 71
     3
 72
    52
 73
    48
 74
     0
 42
0.0000000001
 43
0.0000000001
 12
1.0
 22
0.0
 32
0.0
 13
1.0
 23
0.0
 33
0.0
 40
0.0
 40
0.0
 40
0.0
 40
0.0
 40
0.0769230769230769
 40
0.0769230769230769
 40
0.0769230769230769
 40
0.0769230769230769
 40
0.1538461538461539
 40
0.1538461538461539
 40
0.1538461538461539
 40
0.1538461538461539
 40
0.2307692307692308
 40
0.2307692307692308
 40
0.2307692307692308
 40
0.2307692307692308
 40
0.3076923076923077
 40
0.3076923076923077
 40
0.3076923076923077
 40
0.3076923076923077
 40
0.3846153846153846
 40
0.3846153846153846
 40
0.3846153846153846
 40
0.3846153846153846
 40
0.4615384615384616
 40
0.4615384615384616
 40
0.4615384615384616
 40
0.4615384615384616
 40
0.5384615384615384
 40
0.5384615384615384
 40
0.5384615384615384
 40
0.5384615384615384
 40
0.6153846153846154
 40
0.6153846153846154
 40
0.6153846153846154
 40
0.6153846153846154
 40
0.6923076923076923
 40
0.6923076923076923
 40
0.6923076923076923
 40
0.6923076923076923
 40
0.7692307692307693
 40
0.7692307692307693
 40
0.7692307692307693
 40
0.7692307692307693
 40
0.8461538461538461
 40
0.8461538461538461
 40
0.8461538461538461
 40
0.8461538461538461
 40
1.0
 40
1.0
 40
1.0
 40
1.0
 10
-129.7476
 20
-105.1879
 30
0.0
 10
-129.7476
 20
-105.1879
 30
0.0
 10
-129.7476
 20
-99.8497
 30
0.0
 10
-129.7476
 20
-99.8497
 30
0.0
 10
-129.7476
 20
-99.8497
 30
0.0
 10
-136.3641
 20
-98.72
 30
0.0
 10
-139.0307
 20
-94.2992
 30
0.0
 10
-139.1671
 20
-86.9534
 30
0.0
 10
-139.1671
 20
-86.9534
 30
0.0
 10
-139.1591
 20
-80.0342
 30
0.0
 10
-136.444
 20
-75.386
 30
0.0
 10
-129.825
 20
-74.4997
 30
0.0
 10
-129.825
 20
-74.4997
 30
0.0
 10
-129.825
 20
-74.4997
 30
0.0
 10
-129.825
 20
-69.4311
 30
0.0
 10
-129.825
 20
-69.4311
 30
0.0
 10
-129.825
 20
-69.4311
 30
0.0
 10
-127.4704
 20
-68.4151
 30
0.0
 10
-124.7949
 20
-66.6144
 30
0.0
 10
-122.8479
 20
-64.2664
 30
0.0
 10
-122.8479
 20
-64.2664
 30
0.0
 10
-120.901
 20
-66.6144
 30
0.0
 10
-118.2255
 20
-68.4151
 30
0.0
 10
-115.8708
 20
-69.4311
 30
0.0
 10
-115.8708
 20
-69.4311
 30
0.0
 10
-115.8708
 20
-69.4311
 30
0.0
 10
-115.8708
 20
-74.4997
 30
0.0
 10
-115.8708
 20
-74.4997
 30
0.0
 10
-115.8708
 20
-74.4997
 30
0.0
 10
-109.2518
 20
-75.386
 30
0.0
 10
-106.5367
 20
-80.034
 30
0.0
 10
-106.5288
 20
-86.9534
 30
0.0
 10
-106.5288
 20
-86.9534
 30
0.0
 10
-106.6652
 20
-94.2992
 30
0.0
 10
-109.3317
 20
-98.72
 30
0.0
 10
-115.9482
 20
-99.8497
 30
0.0
 10
-115.9482
 20
-99.8497
 30
0.0
 10
-115.9482
 20
-99.8497
 30
0.0
 10
-115.9482
 20
-105.1879
 30
0.0
 10
-115.9482
 20
-105.1879
 30
0.0
 10
-115.9482
 20
-105.1879
 30
0.0
 10
-119.0641
 20
-106.0339
 30
0.0
 10
-120.7784
 20
-108.0976
 30
0.0
 10
-122.8479
 20
-110.0518
 30
0.0
 10
-122.8479
 20
-110.0518
 30
0.0
 10
-124.9172
 20
-108.0976
 30
0.0
 10
-126.6317
 20
-106.0339
 30
0.0
 10
-129.7476
 20
-105.1879
 30
0.0
  0
SPLINE
  5
63
330
1F
100
AcDbEntity
  8
layer 1
 62
     7
100
AcDbSpline
210
0.0
220
0.0
230
1.0
 70
    11
 71
     3
 72
    52
 73
    48
 74
     0
 42
0.0000000001
 43
0.0000000001
 12
1.0
 22
0.0
 32
0.0
 13
1.0
 23
0.0
 33
0.0
 40
0.0
 40
0.0
 40
0.0
 40
0.0
 40
0.0769230769230769
 40
0.0769230769230769
 40
0.0769230769230769
 40
0.0769230769230769
 40
0.1538461538461539
 40
0.1538461538461539
 40
0.1538461538461539
 40
0.1538461538461539
 40
0.2307692307692308
 40
0.2307692307692308
 40
0.2307692307692308
 40
0.2307692307692308
 40
0.3076923076923077
 40
0.3076923076923077
 40
0.3076923076923077
 40
0.3076923076923077
 40
0.3846153846153846
 40
0.3846153846153846
 40
0.3846153846153846
 40
0.3846153846153846
 40
0.4615384615384616
 40
0.4615384615384616
 40
0.4615384615384616
 40
0.4615384615384616
 40
0.5384615384615384
 40
0.5384615384615384
 40
0.5384615384615384
 40
0.5384615384615384
 40
0.6153846153846154
 40
0.6153846153846154
 40
0.6153846153846154
 40
0.6153846153846154
 40
0.6923076923076923
 40
0.6923076923076923
 40
0.6923076923076923
 40
0.6923076923076923
 40
0.7692307692307693
 40
0.7692307692307693
 40
0.7692307692307693
 40
0.7692307692307693
 40
0.8461538461538461
 40
0.8461538461538461
 40
0.8461538461538461
 40
0.8461538461538461
 40
1.0
 40
1.0
 40
1.0
 40
1.0
 10
-167.3051
 20
-105.1879
 30
0.0
 10
-167.3051
 20
-105.1879
 30
0.0
 10
-167.3051
 20
-99.8497
 30
0.0
 10
-167.3051
 20
-99.8497
 30
0.0
 10
-167.3051
 20
-99.8497
 30
0.0
 10
-173.9216
 20
-98.72
 30
0.0
 10
-176.5882
 20
-94.2992
 30
0.0
 10
-176.7246
 20
-86.9534
 30
0.0
 10
-176.7246
 20
-86.9534
 30
0.0
 10
-176.7166
 20
-80.0342
 30
0.0
 10
-174.0015
 20
-75.386
 30
0.0
 10
-167.3825
 20
-74.4997
 30
0.0
 10
-167.3825
 20
-74.4997
 30
0.0
 10
-167.3825
 20
-74.4997
 30
0.0
 10
-167.3825
 20
-69.4311
 30
0.0
 10
-167.3825
 20
-69.4311
 30
0.0
 10
-167.3825
 20
-69.4311
 30
0.0
 10
-165.0279
 20
-68.4151
 30
0.0
 10
-162.3524
 20
-66.6144
 30
0.0
 10
-160.4054
 20
-64.2664
 30
0.0
 10
-160.4054
 20
-64.2664
 30
0.0
 10
-158.4584
 20
-66.6144
 30
0.0
 10
-155.7829
 20
-68.4151
 30
0.0
 10
-153.4283
 20
-69.4311
 30
0.0
 10
-153.4283
 20
-69.4311
 30
0.0
 10
-153.4283
 20
-69.4311
 30
0.0
 10
-153.4283
 20
-74.4997
 30
0.0
 10
-153.4283
 20
-74.4997
 30
0.0
 10
-153.4283
 20
-74.4997
 30
0.0
 10
-146.8093
 20
-75.386
 30
0.0
 10
-144.0942
 20
-80.034
 30
0.0
 10
-144.0863
 20
-86.9534
 30
0.0
 10
-144.0863
 20
-86.9534
 30
0.0
 10
-144.2227
 20
-94.2992
 30
0.0
 10
-146.8892
 20
-98.72
 30
0.0
 10
-153.5057
 20
-99.8497
 30
0.0
 10
-153.5057
 20
-99.8497
 30
0.0
 10
-153.5057
 20
-99.8497
 30
0.0
 10
-153.5057
 20
-105.1879
 30
0.0
 10
-153.5057
 20
-105.1879
 30
0.0
 10
-153.5057
 20
-105.1879
 30
0.0
 10
-156.6216
 20
-106.0339
 30
0.0
 10
-158.3359
 20
-108.0976
 30
0.0
 10
-160.4054
 20
-110.0518
 30
0.0
 10
-160.4054
 20
-110.0518
 30
0.0
 10
-162.4747
 20
-108.0976
 30
0.0
 10
-164.1892
 20
-106.0339
 30
0.0
 10
-167.3051
 20
-105.1879
 30
0.0
  0
LWPOLYLINE
  5
64
330
1F
100
AcDbEntity
  8
layer 1
100
AcDbPolyline
 90
        5
 70
     1
 43
0.0
 10
-16.426
 20
-99.9868
 10
196.3472
 20
-99.9868
 10
196.3472
 20
112.7864
 10
-16.426
 20
112.7864
 10
-16.426
 20
-99.9868
  0
SPLINE
  5
65
330
1F
100
AcDbEntity
  8
layer 1
 62
     7
100
AcDbSpline
210
0.0
220
0.0
230
1.0
 70
    11
 71
     3
 72
    16
 73
    12
 74
     0
 42
0.0000000001
 43
0.0000000001
 12
1.0
 22
0.0
 32
0.0
 13
1.0
 23
0.0
 33
0.0
 40
0.0
 40
0.0
 40
0.0
 40
0.0
 40
0.25
 40
0.25
 40
0.25
 40
0.25
 40
0.5
 40
0.5
 40
0.5
 40
0.5
 40
1.0
 40
1.0
 40
1.0
 40
1.0
 10
60.5615
 20
89.0889
 30
0.0
 10
56.5126
 20
86.4911
 30
0.0
 10
48.0161
 20
78.6741
 30
0.0
 10
46.3419
 20
71.8288
 30
0.0
 10
46.3419
 20
71.8288
 30
0.0
 10
42.0467
 20
72.675
 30
0.0
 10
36.8651
 20
73.0728
 30
0.0
 10
27.4095
 20
67.3474
 30
0.0
 10
27.4095
 20
67.3474
 30
0.0
 10
38.2744
 20
78.0718
 30
0.0
 10
50.0599
 20
84.9645
 30
0.0
 10
60.5615
 20
89.0889
 30
0.0
  0
SPLINE
  5
66
330
1F
100
AcDbEntity
  8
layer 1
 62
     7
100
AcDbSpline
210
0.0
220
0.0
230
1.0
 70
    11
 71
     3
 72
    28
 73
    24
 74
     0
 42
0.0000000001
 43
0.0000000001
 12
1.0
 22
0.0
 32
0.0
 13
1.0
 23
0.0
 33
0.0
 40
0.0
 40
0.0
 40
0.0
 40
0.0
 40
0.1428571428571428
 40
0.1428571428571428
 40
0.1428571428571428
 40
0.1428571428571428
 40
0.2857142857142857
 40
0.2857142857142857
 40
0.2857142857142857
 40
0.2857142857142857
 40
0.4285714285714285
 40
0.4285714285714285
 40
0.4285714285714285
 40
0.4285714285714285
 40
0.5714285714285714
 40
0.5714285714285714
 40
0.5714285714285714
 40
0.5714285714285714
 40
0.7142857142857143
 40
0.7142857142857143
 40
0.7142857142857143
 40
0.7142857142857143
 40
1.0
 40
1.0
 40
1.0
 40
1.0
 10
73.5278
 20
86.4761
 30
0.0
 10
72.7056
 20
84.3893
 30
0.0
 10
72.6714
 20
82.3419
 30
0.0
 10
72.8055
 20
79.8179
 30
0.0
 10
72.8055
 20
79.8179
 30
0.0
 10
91.776
 20
78.7235
 30
0.0
 10
78.5342
 20
59.2673
 30
0.0
 10
67.2427
 20
75.6023
 30
0.0
 10
67.2427
 20
75.6023
 30
0.0
 10
65.3139
 20
74.6085
 30
0.0
 10
64.1028
 20
72.0393
 30
0.0
 10
61.4064
 20
68.7396
 30
0.0
 10
61.4064
 20
68.7396
 30
0.0
 10
59.3069
 20
69.9525
 30
0.0
 10
57.9903
 20
70.9208
 30
0.0
 10
53.9225
 20
71.0243
 30
0.0
 10
53.9225
 20
71.0243
 30
0.0
 10
56.8527
 20
76.0397
 30
0.0
 10
63.0261
 20
83.2228
 30
0.0
 10
73.5276
 20
86.4763
 30
0.0
 10
73.5276
 20
86.4763
 30
0.0
 10
73.5276
 20
86.4763
 30
0.0
 10
73.5278
 20
86.4761
 30
0.0
 10
73.5278
 20
86.4761
 30
0.0
  0
SPLINE
  5
67
330
1F
100
AcDbEntity
  8
layer 1
 62
     7
100
AcDbSpline
210
0.0
220
0.0
230
1.0
 70
    11
 71
     3
 72
    28
 73
    24
 74
     0
 42
0.0000000001
 43
0.0000000001
 12
1.0
 22
0.0
 32
0.0
 13
1.0
 23
0.0
 33
0.0
 40
0.0
 40
0.0
 40
0.0
 40
0.0
 40
0.1428571428571428
 40
0.1428571428571428
 40
0.1428571428571428
 40
0.1428571428571428
 40
0.2857142857142857
 40
0.2857142857142857
 40
0.2857142857142857
 40
0.2857142857142857
 40
0.4285714285714285
 40
0.4285714285714285
 40
0.4285714285714285
 40
0.4285714285714285
 40
0.5714285714285714
 40
0.5714285714285714
 40
0.5714285714285714
 40
0.5714285714285714
 40
0.7142857142857143
 40
0.7142857142857143
 40
0.7142857142857143
 40
0.7142857142857143
 40
1.0
 40
1.0
 40
1.0
 40
1.0
 10
18.276
 20
55.3185
 30
0.0
 10
20.7906
 20
54.2221
 30
0.0
 10
23.4215
 20
53.4101
 30
0.0
 10
25.3835
 20
53.1585
 30
0.0
 10
25.3835
 20
53.1585
 30
0.0
 10
25.3412
 20
51.2425
 30
0.0
 10
23.3249
 20
46.8708
 30
0.0
 10
28.0536
 20
42.7997
 30
0.0
 10
28.0536
 20
42.7997
 30
0.0
 10
24.4199
 20
44.0989
 30
0.0
 10
20.1862
 20
42.7581
 30
0.0
 10
17.6095
 20
40.0162
 30
0.0
 10
17.6095
 20
40.0162
 30
0.0
 10
16.0081
 20
41.4153
 30
0.0
 10
14.2559
 20
43.006
 30
0.0
 10
12.2177
 20
44.2209
 30
0.0
 10
12.2177
 20
44.2209
 30
0.0
 10
14.2771
 20
48.8491
 30
0.0
 10
15.9024
 20
51.4843
 30
0.0
 10
18.2759
 20
55.3185
 30
0.0
 10
18.2759
 20
55.3185
 30
0.0
 10
18.2759
 20
55.3185
 30
0.0
 10
18.276
 20
55.3185
 30
0.0
 10
18.276
 20
55.3185
 30
0.0
  0
SPLINE
  5
68
330
1F
100
AcDbEntity
  8
layer 1
 62
     7
100
AcDbSpline
210
0.0
220
0.0
230
1.0
 70
    11
 71
     3
 72
    20
 73
    16
 74
     0
 42
0.0000000001
 43
0.0000000001
 12
1.0
 22
0.0
 32
0.0
 13
1.0
 23
0.0
 33
0.0
 40
0.0
 40
0.0
 40
0.0
 40
0.0
 40
0.2
 40
0.2
 40
0.2
 40
0.2
 40
0.4
 40
0.4
 40
0.4
 40
0.4
 40
0.6
 40
0.6
 40
0.6
 40
0.6
 40
1.0
 40
1.0
 40
1.0
 40
1.0
 10
28.9239
 20
81.8278
 30
0.0
 10
24.1004
 20
79.9076
 30
0.0
 10
20.8314
 20
79.3457
 30
0.0
 10
16.405
 20
80.2841
 30
0.0
 10
16.405
 20
80.2841
 30
0.0
 10
17.2512
 20
75.9888
 30
0.0
 10
16.7781
 20
72.936
 30
0.0
 10
14.7298
 20
67.6414
 30
0.0
 10
14.7298
 20
67.6414
 30
0.0
 10
19.6484
 20
74.2487
 30
0.0
 10
22.6707
 20
77.0352
 30
0.0
 10
28.9237
 20
81.8278
 30
0.0
 10
28.9237
 20
81.8278
 30
0.0
 10
28.9237
 20
81.8278
 30
0.0
 10
28.9239
 20
81.8278
 30
0.0
 10
28.9239
 20
81.8278
 30
0.0
  0
SPLINE
  5
69
330
1F
100
AcDbEntity
  8
layer 1
 62
     7
100
AcDbSpline
210
0.0
220
0.0
230
1.0
 70
    11
 71
     3
 72
    20
 73
    16
 74
     0
 42
0.0000000001
 43
0.0000000001
 12
1.0
 22
0.0
 32
0.0
 13
1.0
 23
0.0
 33
0.0
 40
0.0
 40
0.0
 40
0.0
 40
0.0
 40
0.2
 40
0.2
 40
0.2
 40
0.2
 40
0.4
 40
0.4
 40
0.4
 40
0.4
 40
0.6
 40
0.6
 40
0.6
 40
0.6
 40
1.0
 40
1.0
 40
1.0
 40
1.0
 10
9.2809
 20
59.669
 30
0.0
 10
5.1788
 20
57.3371
 30
0.0
 10
-2.3362
 20
53.6356
 30
0.0
 10
-1.8445
 20
45.9667
 30
0.0
 10
-1.8445
 20
45.9667
 30
0.0
 10
-3.4884
 20
45.5447
 30
0.0
 10
-5.7007
 20
48.3244
 30
0.0
 10
-6.9442
 20
52.126
 30
0.0
 10
-6.9442
 20
52.126
 30
0.0
 10
-6.9442
 20
52.126
 30
0.0
 10
-6.9442
 20
19.6469
 30
0.0
 10
-6.9442
 20
19.6469
 30
0.0
 10
-6.9442
 20
19.6469
 30
0.0
 10
-3.3803
 20
33.4147
 30
0.0
 10
0.8022
 20
48.974
 30
0.0
 10
9.2809
 20
59.669
 30
0.0
  0
SPLINE
  5
6A
330
1F
100
AcDbEntity
  8
layer 1
 62
     7
100
AcDbSpline
210
0.0
220
0.0
230
1.0
 70
    11
 71
     3
 72
    16
 73
    12
 74
     0
 42
0.0000000001
 43
0.0000000001
 12
1.0
 22
0.0
 32
0.0
 13
1.0
 23
0.0
 33
0.0
 40
0.0
 40
0.0
 40
0.0
 40
0.0
 40
0.25
 40
0.25
 40
0.25
 40
0.25
 40
0.5
 40
0.5
 40
0.5
 40
0.5
 40
1.0
 40
1.0
 40
1.0
 40
1.0
 10
15.5702
 20
103.8685
 30
0.0
 10
12.7619
 20
101.5721
 30
0.0
 10
11.8708
 20
99.7957
 30
0.0
 10
11.2122
 20
96.2818
 30
0.0
 10
11.2122
 20
96.2818
 30
0.0
 10
8.5019
 20
99.8497
 30
0.0
 10
4.8961
 20
102.0609
 30
0.0
 10
0.4862
 20
103.8685
 30
0.0
 10
0.4862
 20
103.8685
 30
0.0
 10
0.4862
 20
103.8685
 30
0.0
 10
15.5702
 20
103.8685
 30
0.0
 10
15.5702
 20
103.8685
 30
0.0
  0
SPLINE
  5
6B
330
1F
100
AcDbEntity
  8
layer 1
 62
     7
100
AcDbSpline
210
0.0
220
0.0
230
1.0
 70
    11
 71
     3
 72
    16
 73
    12
 74
     0
 42
0.0000000001
 43
0.0000000001
 12
1.0
 22
0.0
 32
0.0
 13
1.0
 23
0.0
 33
0.0
 40
0.0
 40
0.0
 40
0.0
 40
0.0
 40
0.25
 40
0.25
 40
0.25
 40
0.25
 40
0.5
 40
0.5
 40
0.5
 40
0.5
 40
1.0
 40
1.0
 40
1.0
 40
1.0
 10
29.087
 20
103.8685
 30
0.0
 10
27.5586
 20
101.9817
 30
0.0
 10
26.2069
 20
100.3591
 30
0.0
 10
25.8043
 20
99.1489
 30
0.0
 10
25.8043
 20
99.1489
 30
0.0
 10
24.8859
 20
101.0274
 30
0.0
 10
22.9697
 20
102.6241
 30
0.0
 10
20.915
 20
103.8685
 30
0.0
 10
20.915
 20
103.8685
 30
0.0
 10
20.915
 20
103.8685
 30
0.0
 10
29.087
 20
103.8685
 30
0.0
 10
29.087
 20
103.8685
 30
0.0
  0
SPLINE
  5
6C
330
1F
100
AcDbEntity
  8
layer 1
 62
     7
100
AcDbSpline
210
0.0
220
0.0
230
1.0
 70
    11
 71
     3
 72
    16
 73
    12
 74
     0
 42
0.0000000001
 43
0.0000000001
 12
1.0
 22
0.0
 32
0.0
 13
1.0
 23
0.0
 33
0.0
 40
0.0
 40
0.0
 40
0.0
 40
0.0
 40
0.25
 40
0.25
 40
0.25
 40
0.25
 40
0.5
 40
0.5
 40
0.5
 40
0.5
 40
1.0
 40
1.0
 40
1.0
 40
1.0
 10
39.7492
 20
103.8685
 30
0.0
 10
37.1456
 20
102.1353
 30
0.0
 10
35.794
 20
99.7445
 30
0.0
 10
35.3912
 20
98.5346
 30
0.0
 10
35.3912
 20
98.5346
 30
0.0
 10
34.0121
 20
101.6418
 30
0.0
 10
32.5567
 20
100.2689
 30
0.0
 10
30.8092
 20
103.8685
 30
0.0
 10
30.8092
 20
103.8685
 30
0.0
 10
30.8092
 20
103.8685
 30
0.0
 10
39.7492
 20
103.8685
 30
0.0
 10
39.7492
 20
103.8685
 30
0.0
  0
SPLINE
  5
6D
330
1F
100
AcDbEntity
  8
layer 1
 62
     7
100
AcDbSpline
210
0.0
220
0.0
230
1.0
 70
    11
 71
     3
 72
    16
 73
    12
 74
     0
 42
0.0000000001
 43
0.0000000001
 12
1.0
 22
0.0
 32
0.0
 13
1.0
 23
0.0
 33
0.0
 40
0.0
 40
0.0
 40
0.0
 40
0.0
 40
0.25
 40
0.25
 40
0.25
 40
0.25
 40
0.5
 40
0.5
 40
0.5
 40
0.5
 40
1.0
 40
1.0
 40
1.0
 40
1.0
 10
-6.9442
 20
81.269
 30
0.0
 10
-4.6478
 20
84.0773
 30
0.0
 10
-2.8714
 20
84.9684
 30
0.0
 10
0.6425
 20
85.627
 30
0.0
 10
0.6425
 20
85.627
 30
0.0
 10
-2.9254
 20
88.3373
 30
0.0
 10
-5.1366
 20
91.9431
 30
0.0
 10
-6.9442
 20
96.353
 30
0.0
 10
-6.9442
 20
96.353
 30
0.0
 10
-6.9442
 20
96.353
 30
0.0
 10
-6.9442
 20
81.269
 30
0.0
 10
-6.9442
 20
81.269
 30
0.0
  0
SPLINE
  5
6E
330
1F
100
AcDbEntity
  8
layer 1
 62
     7
100
AcDbSpline
210
0.0
220
0.0
230
1.0
 70
    11
 71
     3
 72
    16
 73
    12
 74
     0
 42
0.0000000001
 43
0.0000000001
 12
1.0
 22
0.0
 32
0.0
 13
1.0
 23
0.0
 33
0.0
 40
0.0
 40
0.0
 40
0.0
 40
0.0
 40
0.25
 40
0.25
 40
0.25
 40
0.25
 40
0.5
 40
0.5
 40
0.5
 40
0.5
 40
1.0
 40
1.0
 40
1.0
 40
1.0
 10
-6.9442
 20
66.9075
 30
0.0
 10
-5.0574
 20
68.4358
 30
0.0
 10
-3.4348
 20
69.7876
 30
0.0
 10
-2.2246
 20
70.1902
 30
0.0
 10
-2.2246
 20
70.1902
 30
0.0
 10
-4.1031
 20
71.1085
 30
0.0
 10
-5.6998
 20
73.0247
 30
0.0
 10
-6.9442
 20
75.0794
 30
0.0
 10
-6.9442
 20
75.0794
 30
0.0
 10
-6.9442
 20
75.0794
 30
0.0
 10
-6.9442
 20
66.9075
 30
0.0
 10
-6.9442
 20
66.9075
 30
0.0
  0
SPLINE
  5
6F
330
1F
100
AcDbEntity
  8
layer 1
 62
     7
100
AcDbSpline
210
0.0
220
0.0
230
1.0
 70
    11
 71
     3
 72
    16
 73
    12
 74
     0
 42
0.0000000001
 43
0.0000000001
 12
1.0
 22
0.0
 32
0.0
 13
1.0
 23
0.0
 33
0.0
 40
0.0
 40
0.0
 40
0.0
 40
0.0
 40
0.25
 40
0.25
 40
0.25
 40
0.25
 40
0.5
 40
0.5
 40
0.5
 40
0.5
 40
1.0
 40
1.0
 40
1.0
 40
1.0
 10
-6.9442
 20
56.2323
 30
0.0
 10
-5.6717
 20
59.0406
 30
0.0
 10
-3.8955
 20
60.6996
 30
0.0
 10
-1.7639
 20
61.819
 30
0.0
 10
-1.7639
 20
61.819
 30
0.0
 10
-3.847
 20
62.4813
 30
0.0
 10
-5.3415
 20
62.9639
 30
0.0
 10
-6.9442
 20
64.0458
 30
0.0
 10
-6.9442
 20
64.0458
 30
0.0
 10
-6.9442
 20
64.0458
 30
0.0
 10
-6.9442
 20
56.2323
 30
0.0
 10
-6.9442
 20
56.2323
 30
0.0
  0
SPLINE
  5
70
330
1F
100
AcDbEntity
  8
layer 1
 62
     7
100
AcDbSpline
210
0.0
220
0.0
230
1.0
 70
    11
 71
     3
 72
    20
 73
    16
 74
     0
 42
0.0000000001
 43
0.0000000001
 12
1.0
 22
0.0
 32
0.0
 13
1.0
 23
0.0
 33
0.0
 40
0.0
 40
0.0
 40
0.0
 40
0.0
 40
0.2
 40
0.2
 40
0.2
 40
0.2
 40
0.4
 40
0.4
 40
0.4
 40
0.4
 40
0.6
 40
0.6
 40
0.6
 40
0.6
 40
1.0
 40
1.0
 40
1.0
 40
1.0
 10
10.5429
 20
80.1894
 30
0.0
 10
7.1021
 20
80.8805
 30
0.0
 10
5.881
 20
81.4449
 30
0.0
 10
2.7858
 20
83.3562
 30
0.0
 10
2.7858
 20
83.3562
 30
0.0
 10
3.652
 20
82.4325
 30
0.0
 10
4.2283
 20
81.5683
 30
0.0
 10
4.0401
 20
80.7926
 30
0.0
 10
4.0401
 20
80.7926
 30
0.0
 10
-0.7555
 20
80.3527
 30
0.0
 10
-0.0834
 20
75.5968
 30
0.0
 10
4.7457
 20
74.8605
 30
0.0
 10
4.7457
 20
74.8605
 30
0.0
 10
8.2307
 20
74.5046
 30
0.0
 10
11.4577
 20
76.472
 30
0.0
 10
10.5429
 20
80.1894
 30
0.0
  0
SPLINE
  5
71
330
1F
100
AcDbEntity
  8
layer 1
 62
     7
100
AcDbSpline
210
0.0
220
0.0
230
1.0
 70
    11
 71
     3
 72
    20
 73
    16
 74
     0
 42
0.0000000001
 43
0.0000000001
 12
1.0
 22
0.0
 32
0.0
 13
1.0
 23
0.0
 33
0.0
 40
0.0
 40
0.0
 40
0.0
 40
0.0
 40
0.2
 40
0.2
 40
0.2
 40
0.2
 40
0.4
 40
0.4
 40
0.4
 40
0.4
 40
0.6
 40
0.6
 40
0.6
 40
0.6
 40
1.0
 40
1.0
 40
1.0
 40
1.0
 10
16.3516
 20
87.4207
 30
0.0
 10
15.7114
 20
89.8933
 30
0.0
 10
15.2016
 20
91.116
 30
0.0
 10
13.691
 20
93.2879
 30
0.0
 10
13.691
 20
93.2879
 30
0.0
 10
14.3956
 20
92.696
 30
0.0
 10
15.3526
 20
91.749
 30
0.0
 10
15.9071
 20
91.9172
 30
0.0
 10
15.9071
 20
91.9172
 30
0.0
 10
16.032
 20
95.4201
 30
0.0
 10
21.1961
 20
95.6366
 30
0.0
 10
21.9252
 20
92.1571
 30
0.0
 10
21.9252
 20
92.1571
 30
0.0
 10
22.3244
 20
89.6389
 30
0.0
 10
19.1344
 20
87.1627
 30
0.0
 10
16.3516
 20
87.4207
 30
0.0
  0
SPLINE
  5
72
330
1F
100
AcDbEntity
  8
layer 1
 62
     7
100
AcDbSpline
210
0.0
220
0.0
230
1.0
 70
    11
 71
     3
 72
    12
 73
     8
 74
     0
 42
0.0000000001
 43
0.0000000001
 12
1.0
 22
0.0
 32
0.0
 13
1.0
 23
0.0
 33
0.0
 40
0.0
 40
0.0
 40
0.0
 40
0.0
 40
0.3333333333333333
 40
0.3333333333333333
 40
0.3333333333333333
 40
0.3333333333333333
 40
1.0
 40
1.0
 40
1.0
 40
1.0
 10
-4.426
 20
101.0627
 30
0.0
 10
-1.6442
 20
93.3196
 30
0.0
 10
5.3134
 20
89.0227
 30
0.0
 10
10.1405
 20
88.496
 30
0.0
 10
10.1405
 20
88.496
 30
0.0
 10
7.8688
 20
94.6264
 30
0.0
 10
0.8213
 20
99.9895
 30
0.0
 10
-4.426
 20
101.0627
 30
0.0
  0
SPLINE
  5
73
330
1F
100
AcDbEntity
  8
layer 1
 62
     7
100
AcDbSpline
210
0.0
220
0.0
230
1.0
 70
    11
 71
     3
 72
    24
 73
    20
 74
     0
 42
0.0000000001
 43
0.0000000001
 12
1.0
 22
0.0
 32
0.0
 13
1.0
 23
0.0
 33
0.0
 40
0.0
 40
0.0
 40
0.0
 40
0.0
 40
0.1666666666666667
 40
0.1666666666666667
 40
0.1666666666666667
 40
0.1666666666666667
 40
0.3333333333333333
 40
0.3333333333333333
 40
0.3333333333333333
 40
0.3333333333333333
 40
0.5
 40
0.5
 40
0.5
 40
0.5
 40
0.6666666666666666
 40
0.6666666666666666
 40
0.6666666666666666
 40
0.6666666666666666
 40
1.0
 40
1.0
 40
1.0
 40
1.0
 10
34.3046
 20
86.34
 30
0.0
 10
36.6365
 20
90.4421
 30
0.0
 10
43.9585
 20
100.4189
 30
0.0
 10
51.6272
 20
99.9271
 30
0.0
 10
51.6272
 20
99.9271
 30
0.0
 10
52.0491
 20
101.571
 30
0.0
 10
50.5727
 20
102.6248
 30
0.0
 10
46.7713
 20
103.8683
 30
0.0
 10
46.7713
 20
103.8683
 30
0.0
 10
46.7713
 20
103.8683
 30
0.0
 10
79.2504
 20
103.8683
 30
0.0
 10
79.2504
 20
103.8683
 30
0.0
 10
79.2504
 20
103.8683
 30
0.0
 10
64.6139
 20
101.463
 30
0.0
 10
44.9997
 20
94.8185
 30
0.0
 10
34.3045
 20
86.3398
 30
0.0
 10
34.3045
 20
86.3398
 30
0.0
 10
34.3045
 20
86.3398
 30
0.0
 10
34.3046
 20
86.34
 30
0.0
 10
34.3046
 20
86.34
 30
0.0
  0
SPLINE
  5
74
330
1F
100
AcDbEntity
  8
layer 1
 62
     7
100
AcDbSpline
210
0.0
220
0.0
230
1.0
 70
    11
 71
     3
 72
    20
 73
    16
 74
     0
 42
0.0000000001
 43
0.0000000001
 12
1.0
 22
0.0
 32
0.0
 13
1.0
 23
0.0
 33
0.0
 40
0.0
 40
0.0
 40
0.0
 40
0.0
 40
0.2
 40
0.2
 40
0.2
 40
0.2
 40
0.4
 40
0.4
 40
0.4
 40
0.4
 40
0.6
 40
0.6
 40
0.6
 40
0.6
 40
1.0
 40
1.0
 40
1.0
 40
1.0
 10
6.4334
 20
30.573
 30
0.0
 10
4.5449
 20
23.9732
 30
0.0
 10
2.4942
 20
15.7823
 30
0.0
 10
2.5525
 20
7.227
 30
0.0
 10
2.5525
 20
7.227
 30
0.0
 10
2.465
 20
-1.2633
 30
0.0
 10
4.5806
 20
-9.5191
 30
0.0
 10
6.4691
 20
-16.1189
 30
0.0
 10
6.4691
 20
-16.1189
 30
0.0
 10
6.0729
 20
-11.3246
 30
0.0
 10
6.6641
 20
1.7692
 30
0.0
 10
11.0666
 20
7.227
 30
0.0
 10
11.0666
 20
7.227
 30
0.0
 10
6.6284
 20
12.6849
 30
0.0
 10
6.037
 20
25.7787
 30
0.0
 10
6.4334
 20
30.573
 30
0.0
  0
SPLINE
  5
75
330
1F
100
AcDbEntity
  8
layer 1
 62
     7
100
AcDbSpline
210
0.0
220
0.0
230
1.0
 70
    11
 71
     3
 72
    16
 73
    12
 74
     0
 42
0.0000000001
 43
0.0000000001
 12
1.0
 22
0.0
 32
0.0
 13
1.0
 23
0.0
 33
0.0
 40
0.0
 40
0.0
 40
0.0
 40
0.0
 40
0.25
 40
0.25
 40
0.25
 40
0.25
 40
0.5
 40
0.5
 40
0.5
 40
0.5
 40
1.0
 40
1.0
 40
1.0
 40
1.0
 10
44.3416
 20
40.7337
 30
0.0
 10
40.5442
 20
38.0258
 30
0.0
 10
38.6659
 20
37.8691
 30
0.0
 10
35.4792
 20
38.6702
 30
0.0
 10
35.4792
 20
38.6702
 30
0.0
 10
37.4295
 20
36.483
 30
0.0
 10
38.4857
 20
34.4112
 30
0.0
 10
38.0058
 20
28.9349
 30
0.0
 10
38.0058
 20
28.9349
 30
0.0
 10
39.9092
 20
33.6563
 30
0.0
 10
42.2435
 20
37.05
 30
0.0
 10
44.3416
 20
40.7337
 30
0.0
  0
SPLINE
  5
76
330
1F
100
AcDbEntity
  8
layer 1
 62
     7
100
AcDbSpline
210
0.0
220
0.0
230
1.0
 70
    11
 71
     3
 72
    28
 73
    24
 74
     0
 42
0.0000000001
 43
0.0000000001
 12
1.0
 22
0.0
 32
0.0
 13
1.0
 23
0.0
 33
0.0
 40
0.0
 40
0.0
 40
0.0
 40
0.0
 40
0.1428571428571428
 40
0.1428571428571428
 40
0.1428571428571428
 40
0.1428571428571428
 40
0.2857142857142857
 40
0.2857142857142857
 40
0.2857142857142857
 40
0.2857142857142857
 40
0.4285714285714285
 40
0.4285714285714285
 40
0.4285714285714285
 40
0.4285714285714285
 40
0.5714285714285714
 40
0.5714285714285714
 40
0.5714285714285714
 40
0.5714285714285714
 40
0.7142857142857143
 40
0.7142857142857143
 40
0.7142857142857143
 40
0.7142857142857143
 40
1.0
 40
1.0
 40
1.0
 40
1.0
 10
35.094
 20
23.5024
 30
0.0
 10
33.4535
 20
21.3631
 30
0.0
 10
31.0657
 20
19.3487
 30
0.0
 10
28.4577
 20
19.0952
 30
0.0
 10
28.4577
 20
19.0952
 30
0.0
 10
29.1192
 20
18.4765
 30
0.0
 10
29.7037
 20
17.0677
 30
0.0
 10
30.3605
 20
15.8415
 30
0.0
 10
30.3605
 20
15.8415
 30
0.0
 10
27.392
 20
14.9004
 30
0.0
 10
24.3091
 20
13.3188
 30
0.0
 10
22.9052
 20
11.7921
 30
0.0
 10
22.9052
 20
11.7921
 30
0.0
 10
26.053
 20
9.7379
 30
0.0
 10
29.3711
 20
8.527
 30
0.0
 10
33.2822
 20
8.3105
 30
0.0
 10
33.2822
 20
8.3105
 30
0.0
 10
33.1233
 20
12.9654
 30
0.0
 10
33.3285
 20
17.8227
 30
0.0
 10
35.094
 20
23.5022
 30
0.0
 10
35.094
 20
23.5022
 30
0.0
 10
35.094
 20
23.5022
 30
0.0
 10
35.094
 20
23.5024
 30
0.0
 10
35.094
 20
23.5024
 30
0.0
  0
SPLINE
  5
77
330
1F
100
AcDbEntity
  8
layer 1
 62
     7
100
AcDbSpline
210
0.0
220
0.0
230
1.0
 70
    11
 71
     3
 72
    36
 73
    32
 74
     0
 42
0.0000000001
 43
0.0000000001
 12
1.0
 22
0.0
 32
0.0
 13
1.0
 23
0.0
 33
0.0
 40
0.0
 40
0.0
 40
0.0
 40
0.0
 40
0.1111111111111111
 40
0.1111111111111111
 40
0.1111111111111111
 40
0.1111111111111111
 40
0.2222222222222222
 40
0.2222222222222222
 40
0.2222222222222222
 40
0.2222222222222222
 40
0.3333333333333333
 40
0.3333333333333333
 40
0.3333333333333333
 40
0.3333333333333333
 40
0.4444444444444444
 40
0.4444444444444444
 40
0.4444444444444444
 40
0.4444444444444444
 40
0.5555555555555556
 40
0.5555555555555556
 40
0.5555555555555556
 40
0.5555555555555556
 40
0.6666666666666666
 40
0.6666666666666666
 40
0.6666666666666666
 40
0.6666666666666666
 40
0.7777777777777778
 40
0.7777777777777778
 40
0.7777777777777778
 40
0.7777777777777778
 40
1.0
 40
1.0
 40
1.0
 40
1.0
 10
29.5719
 20
32.2178
 30
0.0
 10
27.6857
 20
37.3795
 30
0.0
 10
21.1966
 20
35.9325
 30
0.0
 10
19.3036
 20
29.476
 30
0.0
 10
19.3036
 20
29.476
 30
0.0
 10
16.5335
 20
31.1079
 30
0.0
 10
15.3491
 20
32.1847
 30
0.0
 10
14.22
 20
33.6653
 30
0.0
 10
14.22
 20
33.6653
 30
0.0
 10
13.551
 20
33.1796
 30
0.0
 10
13.204
 20
31.7708
 30
0.0
 10
13.3287
 20
30.0789
 30
0.0
 10
13.3287
 20
30.0789
 30
0.0
 10
13.7531
 20
23.0836
 30
0.0
 10
14.9948
 20
21.1692
 30
0.0
 10
17.5826
 20
16.5823
 30
0.0
 10
17.5826
 20
16.5823
 30
0.0
 10
19.3998
 20
17.9879
 30
0.0
 10
20.4558
 20
18.9059
 30
0.0
 10
22.6371
 20
19.8869
 30
0.0
 10
22.6371
 20
19.8869
 30
0.0
 10
21.9823
 20
21.4601
 30
0.0
 10
21.5427
 20
22.4372
 30
0.0
 10
21.1222
 20
23.6278
 30
0.0
 10
21.1222
 20
23.6278
 30
0.0
 10
25.5236
 20
23.0789
 30
0.0
 10
30.3574
 20
26.7426
 30
0.0
 10
29.5718
 20
32.2178
 30
0.0
 10
29.5718
 20
32.2178
 30
0.0
 10
29.5718
 20
32.2178
 30
0.0
 10
29.5719
 20
32.2178
 30
0.0
 10
29.5719
 20
32.2178
 30
0.0
  0
SPLINE
  5
78
330
1F
100
AcDbEntity
  8
layer 1
 62
     7
100
AcDbSpline
210
0.0
220
0.0
230
1.0
 70
    11
 71
     3
 72
    16
 73
    12
 74
     0
 42
0.0000000001
 43
0.0000000001
 12
1.0
 22
0.0
 32
0.0
 13
1.0
 23
0.0
 33
0.0
 40
0.0
 40
0.0
 40
0.0
 40
0.0
 40
0.25
 40
0.25
 40
0.25
 40
0.25
 40
0.5
 40
0.5
 40
0.5
 40
0.5
 40
1.0
 40
1.0
 40
1.0
 40
1.0
 10
76.364
 20
62.3393
 30
0.0
 10
71.7517
 20
62.577
 30
0.0
 10
70.4266
 20
64.0381
 30
0.0
 10
68.3444
 20
65.9984
 30
0.0
 10
68.3444
 20
65.9984
 30
0.0
 10
67.9312
 20
63.0436
 30
0.0
 10
66.7409
 20
60.5788
 30
0.0
 10
64.3578
 20
58.2352
 30
0.0
 10
64.3578
 20
58.2352
 30
0.0
 10
69.0081
 20
60.306
 30
0.0
 10
72.2952
 20
61.15
 30
0.0
 10
76.364
 20
62.3393
 30
0.0
  0
SPLINE
  5
79
330
1F
100
AcDbEntity
  8
layer 1
 62
     7
100
AcDbSpline
210
0.0
220
0.0
230
1.0
 70
    11
 71
     3
 72
    24
 73
    20
 74
     0
 42
0.0000000001
 43
0.0000000001
 12
1.0
 22
0.0
 32
0.0
 13
1.0
 23
0.0
 33
0.0
 40
0.0
 40
0.0
 40
0.0
 40
0.0
 40
0.1666666666666667
 40
0.1666666666666667
 40
0.1666666666666667
 40
0.1666666666666667
 40
0.3333333333333333
 40
0.3333333333333333
 40
0.3333333333333333
 40
0.3333333333333333
 40
0.5
 40
0.5
 40
0.5
 40
0.5
 40
0.6666666666666666
 40
0.6666666666666666
 40
0.6666666666666666
 40
0.6666666666666666
 40
1.0
 40
1.0
 40
1.0
 40
1.0
 10
48.7704
 20
46.8528
 30
0.0
 10
49.7601
 20
49.3604
 30
0.0
 10
50.2576
 20
52.4446
 30
0.0
 10
49.1324
 20
54.8109
 30
0.0
 10
49.1324
 20
54.8109
 30
0.0
 10
50.0034
 20
54.5623
 30
0.0
 10
51.512
 20
54.7865
 30
0.0
 10
52.9015
 20
54.8545
 30
0.0
 10
52.9015
 20
54.8545
 30
0.0
 10
52.1802
 20
57.884
 30
0.0
 10
51.9491
 20
61.3412
 30
0.0
 10
52.5352
 20
63.3306
 30
0.0
 10
52.5352
 20
63.3306
 30
0.0
 10
55.9167
 20
61.6894
 30
0.0
 10
58.6628
 20
59.468
 30
0.0
 10
60.8619
 20
56.2265
 30
0.0
 10
60.8619
 20
56.2265
 30
0.0
 10
56.7895
 20
53.9666
 30
0.0
 10
52.7308
 20
51.2898
 30
0.0
 10
48.7704
 20
46.8528
 30
0.0
  0
SPLINE
  5
7A
330
1F
100
AcDbEntity
  8
layer 1
 62
     7
100
AcDbSpline
210
0.0
220
0.0
230
1.0
 70
    11
 71
     3
 72
    32
 73
    28
 74
     0
 42
0.0000000001
 43
0.0000000001
 12
1.0
 22
0.0
 32
0.0
 13
1.0
 23
0.0
 33
0.0
 40
0.0
 40
0.0
 40
0.0
 40
0.0
 40
0.125
 40
0.125
 40
0.125
 40
0.125
 40
0.25
 40
0.25
 40
0.25
 40
0.25
 40
0.375
 40
0.375
 40
0.375
 40
0.375
 40
0.5
 40
0.5
 40
0.5
 40
0.5
 40
0.625
 40
0.625
 40
0.625
 40
0.625
 40
0.75
 40
0.75
 40
0.75
 40
0.75
 40
1.0
 40
1.0
 40
1.0
 40
1.0
 10
39.1006
 20
46.5969
 30
0.0
 10
33.8521
 20
44.9676
 30
0.0
 10
31.0688
 20
51.0053
 30
0.0
 10
35.0555
 20
56.4249
 30
0.0
 10
35.0555
 20
56.4249
 30
0.0
 10
32.0784
 20
57.6384
 30
0.0
 10
30.504
 20
57.9276
 30
0.0
 10
28.6421
 20
57.9278
 30
0.0
 10
28.6421
 20
57.9278
 30
0.0
 10
28.6228
 20
58.7543
 30
0.0
 10
29.5328
 20
59.8844
 30
0.0
 10
30.9538
 20
60.811
 30
0.0
 10
30.9538
 20
60.811
 30
0.0
 10
36.7741
 20
64.7146
 30
0.0
 10
39.0494
 20
64.8878
 30
0.0
 10
44.2661
 20
65.6108
 30
0.0
 10
44.2661
 20
65.6108
 30
0.0
 10
44.2501
 20
63.3135
 30
0.0
 10
44.1602
 20
61.9171
 30
0.0
 10
44.7026
 20
59.5875
 30
0.0
 10
44.7026
 20
59.5875
 30
0.0
 10
43.0547
 20
59.1545
 30
0.0
 10
42.0109
 20
58.9118
 30
0.0
 10
40.8092
 20
58.5243
 30
0.0
 10
40.8092
 20
58.5243
 30
0.0
 10
43.9142
 20
55.357
 30
0.0
 10
43.9313
 20
49.2915
 30
0.0
 10
39.1006
 20
46.5969
 30
0.0
  0
SPLINE
  5
7B
330
1F
100
AcDbEntity
  8
layer 1
 62
     7
100
AcDbSpline
210
0.0
220
0.0
230
1.0
 70
    11
 71
     3
 72
    20
 73
    16
 74
     0
 42
0.0000000001
 43
0.0000000001
 12
1.0
 22
0.0
 32
0.0
 13
1.0
 23
0.0
 33
0.0
 40
0.0
 40
0.0
 40
0.0
 40
0.0
 40
0.2
 40
0.2
 40
0.2
 40
0.2
 40
0.4
 40
0.4
 40
0.4
 40
0.4
 40
0.6
 40
0.6
 40
0.6
 40
0.6
 40
1.0
 40
1.0
 40
1.0
 40
1.0
 10
80.5978
 20
55.3123
 30
0.0
 10
74.6138
 20
52.5855
 30
0.0
 10
71.6648
 20
47.8218
 30
0.0
 10
72.0976
 20
39.9874
 30
0.0
 10
72.0976
 20
39.9874
 30
0.0
 10
70.1521
 20
43.8719
 30
0.0
 10
63.8969
 20
48.1965
 30
0.0
 10
57.1689
 20
44.9371
 30
0.0
 10
57.1689
 20
44.9371
 30
0.0
 10
64.4214
 20
51.3611
 30
0.0
 10
73.3645
 20
54.5423
 30
0.0
 10
80.5976
 20
55.3123
 30
0.0
 10
80.5976
 20
55.3123
 30
0.0
 10
80.5976
 20
55.3123
 30
0.0
 10
80.5978
 20
55.3123
 30
0.0
 10
80.5978
 20
55.3123
 30
0.0
  0
SPLINE
  5
7C
330
1F
100
AcDbEntity
  8
layer 1
 62
     7
100
AcDbSpline
210
0.0
220
0.0
230
1.0
 70
    11
 71
     3
 72
    20
 73
    16
 74
     0
 42
0.0000000001
 43
0.0000000001
 12
1.0
 22
0.0
 32
0.0
 13
1.0
 23
0.0
 33
0.0
 40
0.0
 40
0.0
 40
0.0
 40
0.0
 40
0.2
 40
0.2
 40
0.2
 40
0.2
 40
0.4
 40
0.4
 40
0.4
 40
0.4
 40
0.6
 40
0.6
 40
0.6
 40
0.6
 40
1.0
 40
1.0
 40
1.0
 40
1.0
 10
51.4018
 20
38.6617
 30
0.0
 10
49.5767
 20
32.834
 30
0.0
 10
51.4382
 20
28.409
 30
0.0
 10
55.6985
 20
25.2828
 30
0.0
 10
55.6985
 20
25.2828
 30
0.0
 10
50.6292
 20
26.688
 30
0.0
 10
44.9475
 20
22.9445
 30
0.0
 10
41.7707
 20
17.4342
 30
0.0
 10
41.7707
 20
17.4342
 30
0.0
 10
42.2285
 20
21.923
 30
0.0
 10
45.3274
 20
31.869
 30
0.0
 10
52.6037
 20
40.0787
 30
0.0
 10
52.6037
 20
40.0787
 30
0.0
 10
52.6037
 20
40.0787
 30
0.0
 10
51.4018
 20
38.6617
 30
0.0
 10
51.4018
 20
38.6617
 30
0.0
  0
SPLINE
  5
7D
330
1F
100
AcDbEntity
  8
layer 1
 62
     7
100
AcDbSpline
210
0.0
220
0.0
230
1.0
 70
    11
 71
     3
 72
    20
 73
    16
 74
     0
 42
0.0000000001
 43
0.0000000001
 12
1.0
 22
0.0
 32
0.0
 13
1.0
 23
0.0
 33
0.0
 40
0.0
 40
0.0
 40
0.0
 40
0.0
 40
0.2
 40
0.2
 40
0.2
 40
0.2
 40
0.4
 40
0.4
 40
0.4
 40
0.4
 40
0.6
 40
0.6
 40
0.6
 40
0.6
 40
1.0
 40
1.0
 40
1.0
 40
1.0
 10
63.4701
 20
21.3318
 30
0.0
 10
64.5038
 20
22.6034
 30
0.0
 10
65.432
 20
23.4137
 30
0.0
 10
66.477
 20
24.2416
 30
0.0
 10
66.477
 20
24.2416
 30
0.0
 10
63.7996
 20
23.4949
 30
0.0
 10
62.7012
 20
23.0171
 30
0.0
 10
59.6268
 20
23.659
 30
0.0
 10
59.6268
 20
23.659
 30
0.0
 10
59.6268
 20
23.659
 30
0.0
 10
62.5687
 20
22.7904
 30
0.0
 10
63.4699
 20
21.332
 30
0.0
 10
63.4699
 20
21.332
 30
0.0
 10
63.4699
 20
21.332
 30
0.0
 10
63.4701
 20
21.3318
 30
0.0
 10
63.4701
 20
21.3318
 30
0.0
  0
SPLINE
  5
7E
330
1F
100
AcDbEntity
  8
layer 1
 62
     7
100
AcDbSpline
210
0.0
220
0.0
230
1.0
 70
    11
 71
     3
 72
    16
 73
    12
 74
     0
 42
0.0000000001
 43
0.0000000001
 12
1.0
 22
0.0
 32
0.0
 13
1.0
 23
0.0
 33
0.0
 40
0.0
 40
0.0
 40
0.0
 40
0.0
 40
0.25
 40
0.25
 40
0.25
 40
0.25
 40
0.5
 40
0.5
 40
0.5
 40
0.5
 40
1.0
 40
1.0
 40
1.0
 40
1.0
 10
71.4519
 20
28.4015
 30
0.0
 10
72.7508
 20
29.8057
 30
0.0
 10
73.9402
 20
31.9747
 30
0.0
 10
74.985
 20
33.0677
 30
0.0
 10
74.985
 20
33.0677
 30
0.0
 10
74.0151
 20
34.2601
 30
0.0
 10
74.2017
 20
34.116
 30
0.0
 10
73.1443
 20
36.8847
 30
0.0
 10
73.1443
 20
36.8847
 30
0.0
 10
73.3534
 20
34.4366
 30
0.0
 10
73.8114
 20
31.5681
 30
0.0
 10
71.4519
 20
28.4015
 30
0.0
  0
SPLINE
  5
7F
330
1F
100
AcDbEntity
  8
layer 1
 62
     7
100
AcDbSpline
210
0.0
220
0.0
230
1.0
 70
    11
 71
     3
 72
    20
 73
    16
 74
     0
 42
0.0000000001
 43
0.0000000001
 12
1.0
 22
0.0
 32
0.0
 13
1.0
 23
0.0
 33
0.0
 40
0.0
 40
0.0
 40
0.0
 40
0.0
 40
0.2
 40
0.2
 40
0.2
 40
0.2
 40
0.4
 40
0.4
 40
0.4
 40
0.4
 40
0.6
 40
0.6
 40
0.6
 40
0.6
 40
1.0
 40
1.0
 40
1.0
 40
1.0
 10
83.1233
 20
63.3242
 30
0.0
 10
86.3806
 20
65.3317
 30
0.0
 10
89.1556
 20
68.1973
 30
0.0
 10
89.1676
 20
72.0262
 30
0.0
 10
89.1676
 20
72.0262
 30
0.0
 10
89.1797
 20
68.1971
 30
0.0
 10
91.9544
 20
65.3317
 30
0.0
 10
95.212
 20
63.3242
 30
0.0
 10
95.212
 20
63.3242
 30
0.0
 10
92.7283
 20
63.6302
 30
0.0
 10
91.1121
 20
63.6315
 30
0.0
 10
89.1676
 20
63.6284
 30
0.0
 10
89.1676
 20
63.6284
 30
0.0
 10
87.2232
 20
63.6315
 30
0.0
 10
85.607
 20
63.6302
 30
0.0
 10
83.1233
 20
63.3242
 30
0.0
  0
SPLINE
  5
80
330
1F
100
AcDbEntity
  8
layer 1
 62
     7
100
AcDbSpline
210
0.0
220
0.0
230
1.0
 70
    11
 71
     3
 72
    20
 73
    16
 74
     0
 42
0.0000000001
 43
0.0000000001
 12
1.0
 22
0.0
 32
0.0
 13
1.0
 23
0.0
 33
0.0
 40
0.0
 40
0.0
 40
0.0
 40
0.0
 40
0.2
 40
0.2
 40
0.2
 40
0.2
 40
0.4
 40
0.4
 40
0.4
 40
0.4
 40
0.6
 40
0.6
 40
0.6
 40
0.6
 40
1.0
 40
1.0
 40
1.0
 40
1.0
 10
84.649
 20
22.2798
 30
0.0
 10
84.649
 20
22.2798
 30
0.0
 10
79.3847
 20
27.7681
 30
0.0
 10
79.3847
 20
27.7681
 30
0.0
 10
79.3847
 20
27.7681
 30
0.0
 10
79.3847
 20
27.7681
 30
0.0
 10
69.9324
 20
17.5912
 30
0.0
 10
69.9324
 20
17.5912
 30
0.0
 10
69.9324
 20
17.5912
 30
0.0
 10
69.9324
 20
17.5912
 30
0.0
 10
75.4876
 20
12.364
 30
0.0
 10
75.4876
 20
12.364
 30
0.0
 10
75.4876
 20
12.364
 30
0.0
 10
75.4876
 20
12.364
 30
0.0
 10
84.649
 20
22.2798
 30
0.0
 10
84.649
 20
22.2798
 30
0.0
  0
SPLINE
  5
81
330
1F
100
AcDbEntity
  8
layer 1
 62
     7
100
AcDbSpline
210
0.0
220
0.0
230
1.0
 70
    11
 71
     3
 72
    16
 73
    12
 74
     0
 42
0.0000000001
 43
0.0000000001
 12
1.0
 22
0.0
 32
0.0
 13
1.0
 23
0.0
 33
0.0
 40
0.0
 40
0.0
 40
0.0
 40
0.0
 40
0.25
 40
0.25
 40
0.25
 40
0.25
 40
0.5
 40
0.5
 40
0.5
 40
0.5
 40
1.0
 40
1.0
 40
1.0
 40
1.0
 10
117.7735
 20
89.0889
 30
0.0
 10
121.8224
 20
86.4911
 30
0.0
 10
130.319
 20
78.6741
 30
0.0
 10
131.9931
 20
71.8288
 30
0.0
 10
131.9931
 20
71.8288
 30
0.0
 10
136.2884
 20
72.675
 30
0.0
 10
141.47
 20
73.0728
 30
0.0
 10
150.9255
 20
67.3474
 30
0.0
 10
150.9255
 20
67.3474
 30
0.0
 10
140.0606
 20
78.0718
 30
0.0
 10
128.2752
 20
84.9645
 30
0.0
 10
117.7735
 20
89.0889
 30
0.0
  0
SPLINE
  5
82
330
1F
100
AcDbEntity
  8
layer 1
 62
     7
100
AcDbSpline
210
0.0
220
0.0
230
1.0
 70
    11
 71
     3
 72
    28
 73
    24
 74
     0
 42
0.0000000001
 43
0.0000000001
 12
1.0
 22
0.0
 32
0.0
 13
1.0
 23
0.0
 33
0.0
 40
0.0
 40
0.0
 40
0.0
 40
0.0
 40
0.1428571428571428
 40
0.1428571428571428
 40
0.1428571428571428
 40
0.1428571428571428
 40
0.2857142857142857
 40
0.2857142857142857
 40
0.2857142857142857
 40
0.2857142857142857
 40
0.4285714285714285
 40
0.4285714285714285
 40
0.4285714285714285
 40
0.4285714285714285
 40
0.5714285714285714
 40
0.5714285714285714
 40
0.5714285714285714
 40
0.5714285714285714
 40
0.7142857142857143
 40
0.7142857142857143
 40
0.7142857142857143
 40
0.7142857142857143
 40
1.0
 40
1.0
 40
1.0
 40
1.0
 10
104.8073
 20
86.4761
 30
0.0
 10
105.6294
 20
84.3893
 30
0.0
 10
105.6637
 20
82.3419
 30
0.0
 10
105.5296
 20
79.8179
 30
0.0
 10
105.5296
 20
79.8179
 30
0.0
 10
86.5591
 20
78.7235
 30
0.0
 10
99.8009
 20
59.2673
 30
0.0
 10
111.0924
 20
75.6023
 30
0.0
 10
111.0924
 20
75.6023
 30
0.0
 10
113.0212
 20
74.6085
 30
0.0
 10
114.2322
 20
72.0393
 30
0.0
 10
116.9286
 20
68.7396
 30
0.0
 10
116.9286
 20
68.7396
 30
0.0
 10
119.0282
 20
69.9525
 30
0.0
 10
120.3447
 20
70.9208
 30
0.0
 10
124.4126
 20
71.0243
 30
0.0
 10
124.4126
 20
71.0243
 30
0.0
 10
121.4824
 20
76.0397
 30
0.0
 10
115.309
 20
83.2228
 30
0.0
 10
104.8075
 20
86.4763
 30
0.0
 10
104.8075
 20
86.4763
 30
0.0
 10
104.8075
 20
86.4763
 30
0.0
 10
104.8073
 20
86.4761
 30
0.0
 10
104.8073
 20
86.4761
 30
0.0
  0
SPLINE
  5
83
330
1F
100
AcDbEntity
  8
layer 1
 62
     7
100
AcDbSpline
210
0.0
220
0.0
230
1.0
 70
    11
 71
     3
 72
    28
 73
    24
 74
     0
 42
0.0000000001
 43
0.0000000001
 12
1.0
 22
0.0
 32
0.0
 13
1.0
 23
0.0
 33
0.0
 40
0.0
 40
0.0
 40
0.0
 40
0.0
 40
0.1428571428571428
 40
0.1428571428571428
 40
0.1428571428571428
 40
0.1428571428571428
 40
0.2857142857142857
 40
0.2857142857142857
 40
0.2857142857142857
 40
0.2857142857142857
 40
0.4285714285714285
 40
0.4285714285714285
 40
0.4285714285714285
 40
0.4285714285714285
 40
0.5714285714285714
 40
0.5714285714285714
 40
0.5714285714285714
 40
0.5714285714285714
 40
0.7142857142857143
 40
0.7142857142857143
 40
0.7142857142857143
 40
0.7142857142857143
 40
1.0
 40
1.0
 40
1.0
 40
1.0
 10
160.0592
 20
55.3185
 30
0.0
 10
157.5447
 20
54.2221
 30
0.0
 10
154.9137
 20
53.4101
 30
0.0
 10
152.9518
 20
53.1585
 30
0.0
 10
152.9518
 20
53.1585
 30
0.0
 10
152.9941
 20
51.2425
 30
0.0
 10
155.0103
 20
46.8708
 30
0.0
 10
150.2816
 20
42.7997
 30
0.0
 10
150.2816
 20
42.7997
 30
0.0
 10
153.9154
 20
44.0989
 30
0.0
 10
158.1491
 20
42.7581
 30
0.0
 10
160.7257
 20
40.0162
 30
0.0
 10
160.7257
 20
40.0162
 30
0.0
 10
162.3272
 20
41.4153
 30
0.0
 10
164.0793
 20
43.006
 30
0.0
 10
166.1176
 20
44.2209
 30
0.0
 10
166.1176
 20
44.2209
 30
0.0
 10
164.0582
 20
48.8491
 30
0.0
 10
162.4329
 20
51.4843
 30
0.0
 10
160.0594
 20
55.3185
 30
0.0
 10
160.0594
 20
55.3185
 30
0.0
 10
160.0594
 20
55.3185
 30
0.0
 10
160.0592
 20
55.3185
 30
0.0
 10
160.0592
 20
55.3185
 30
0.0
  0
SPLINE
  5
84
330
1F
100
AcDbEntity
  8
layer 1
 62
     7
100
AcDbSpline
210
0.0
220
0.0
230
1.0
 70
    11
 71
     3
 72
    20
 73
    16
 74
     0
 42
0.0000000001
 43
0.0000000001
 12
1.0
 22
0.0
 32
0.0
 13
1.0
 23
0.0
 33
0.0
 40
0.0
 40
0.0
 40
0.0
 40
0.0
 40
0.2
 40
0.2
 40
0.2
 40
0.2
 40
0.4
 40
0.4
 40
0.4
 40
0.4
 40
0.6
 40
0.6
 40
0.6
 40
0.6
 40
1.0
 40
1.0
 40
1.0
 40
1.0
 10
149.4114
 20
81.8278
 30
0.0
 10
154.2348
 20
79.9076
 30
0.0
 10
157.5039
 20
79.3457
 30
0.0
 10
161.9302
 20
80.2841
 30
0.0
 10
161.9302
 20
80.2841
 30
0.0
 10
161.084
 20
75.9888
 30
0.0
 10
161.5571
 20
72.936
 30
0.0
 10
163.6055
 20
67.6414
 30
0.0
 10
163.6055
 20
67.6414
 30
0.0
 10
158.6869
 20
74.2487
 30
0.0
 10
155.6646
 20
77.0352
 30
0.0
 10
149.4116
 20
81.8278
 30
0.0
 10
149.4116
 20
81.8278
 30
0.0
 10
149.4116
 20
81.8278
 30
0.0
 10
149.4114
 20
81.8278
 30
0.0
 10
149.4114
 20
81.8278
 30
0.0
  0
SPLINE
  5
85
330
1F
100
AcDbEntity
  8
layer 1
 62
     7
100
AcDbSpline
210
0.0
220
0.0
230
1.0
 70
    11
 71
     3
 72
    20
 73
    16
 74
     0
 42
0.0000000001
 43
0.0000000001
 12
1.0
 22
0.0
 32
0.0
 13
1.0
 23
0.0
 33
0.0
 40
0.0
 40
0.0
 40
0.0
 40
0.0
 40
0.2
 40
0.2
 40
0.2
 40
0.2
 40
0.4
 40
0.4
 40
0.4
 40
0.4
 40
0.6
 40
0.6
 40
0.6
 40
0.6
 40
1.0
 40
1.0
 40
1.0
 40
1.0
 10
169.0544
 20
59.669
 30
0.0
 10
173.1565
 20
57.3371
 30
0.0
 10
180.6714
 20
53.6356
 30
0.0
 10
180.1797
 20
45.9667
 30
0.0
 10
180.1797
 20
45.9667
 30
0.0
 10
181.8236
 20
45.5447
 30
0.0
 10
184.036
 20
48.3244
 30
0.0
 10
185.2795
 20
52.126
 30
0.0
 10
185.2795
 20
52.126
 30
0.0
 10
185.2795
 20
52.126
 30
0.0
 10
185.2795
 20
19.6469
 30
0.0
 10
185.2795
 20
19.6469
 30
0.0
 10
185.2795
 20
19.6469
 30
0.0
 10
181.7156
 20
33.4145
 30
0.0
 10
177.5331
 20
48.9738
 30
0.0
 10
169.0544
 20
59.669
 30
0.0
  0
SPLINE
  5
86
330
1F
100
AcDbEntity
  8
layer 1
 62
     7
100
AcDbSpline
210
0.0
220
0.0
230
1.0
 70
    11
 71
     3
 72
    16
 73
    12
 74
     0
 42
0.0000000001
 43
0.0000000001
 12
1.0
 22
0.0
 32
0.0
 13
1.0
 23
0.0
 33
0.0
 40
0.0
 40
0.0
 40
0.0
 40
0.0
 40
0.25
 40
0.25
 40
0.25
 40
0.25
 40
0.5
 40
0.5
 40
0.5
 40
0.5
 40
1.0
 40
1.0
 40
1.0
 40
1.0
 10
162.7651
 20
103.8685
 30
0.0
 10
165.5734
 20
101.5721
 30
0.0
 10
166.4644
 20
99.7957
 30
0.0
 10
167.1231
 20
96.2818
 30
0.0
 10
167.1231
 20
96.2818
 30
0.0
 10
169.8333
 20
99.8497
 30
0.0
 10
173.4392
 20
102.0609
 30
0.0
 10
177.8491
 20
103.8685
 30
0.0
 10
177.8491
 20
103.8685
 30
0.0
 10
177.8491
 20
103.8685
 30
0.0
 10
162.7651
 20
103.8685
 30
0.0
 10
162.7651
 20
103.8685
 30
0.0
  0
SPLINE
  5
87
330
1F
100
AcDbEntity
  8
layer 1
 62
     7
100
AcDbSpline
210
0.0
220
0.0
230
1.0
 70
    11
 71
     3
 72
    16
 73
    12
 74
     0
 42
0.0000000001
 43
0.0000000001
 12
1.0
 22
0.0
 32
0.0
 13
1.0
 23
0.0
 33
0.0
 40
0.0
 40
0.0
 40
0.0
 40
0.0
 40
0.25
 40
0.25
 40
0.25
 40
0.25
 40
0.5
 40
0.5
 40
0.5
 40
0.5
 40
1.0
 40
1.0
 40
1.0
 40
1.0
 10
149.2483
 20
103.8685
 30
0.0
 10
150.7766
 20
101.9817
 30
0.0
 10
152.1284
 20
100.3591
 30
0.0
 10
152.531
 20
99.1489
 30
0.0
 10
152.531
 20
99.1489
 30
0.0
 10
153.4493
 20
101.0274
 30
0.0
 10
155.3655
 20
102.6241
 30
0.0
 10
157.4202
 20
103.8685
 30
0.0
 10
157.4202
 20
103.8685
 30
0.0
 10
157.4202
 20
103.8685
 30
0.0
 10
149.2483
 20
103.8685
 30
0.0
 10
149.2483
 20
103.8685
 30
0.0
  0
SPLINE
  5
88
330
1F
100
AcDbEntity
  8
layer 1
 62
     7
100
AcDbSpline
210
0.0
220
0.0
230
1.0
 70
    11
 71
     3
 72
    16
 73
    12
 74
     0
 42
0.0000000001
 43
0.0000000001
 12
1.0
 22
0.0
 32
0.0
 13
1.0
 23
0.0
 33
0.0
 40
0.0
 40
0.0
 40
0.0
 40
0.0
 40
0.25
 40
0.25
 40
0.25
 40
0.25
 40
0.5
 40
0.5
 40
0.5
 40
0.5
 40
1.0
 40
1.0
 40
1.0
 40
1.0
 10
138.5861
 20
103.8685
 30
0.0
 10
141.1897
 20
102.1353
 30
0.0
 10
142.5413
 20
99.7445
 30
0.0
 10
142.944
 20
98.5346
 30
0.0
 10
142.944
 20
98.5346
 30
0.0
 10
144.3231
 20
101.6418
 30
0.0
 10
145.7786
 20
100.2689
 30
0.0
 10
147.526
 20
103.8685
 30
0.0
 10
147.526
 20
103.8685
 30
0.0
 10
147.526
 20
103.8685
 30
0.0
 10
138.5861
 20
103.8685
 30
0.0
 10
138.5861
 20
103.8685
 30
0.0
  0
SPLINE
  5
89
330
1F
100
AcDbEntity
  8
layer 1
 62
     7
100
AcDbSpline
210
0.0
220
0.0
230
1.0
 70
    11
 71
     3
 72
    16
 73
    12
 74
     0
 42
0.0000000001
 43
0.0000000001
 12
1.0
 22
0.0
 32
0.0
 13
1.0
 23
0.0
 33
0.0
 40
0.0
 40
0.0
 40
0.0
 40
0.0
 40
0.25
 40
0.25
 40
0.25
 40
0.25
 40
0.5
 40
0.5
 40
0.5
 40
0.5
 40
1.0
 40
1.0
 40
1.0
 40
1.0
 10
185.2795
 20
81.269
 30
0.0
 10
182.9831
 20
84.0773
 30
0.0
 10
181.2067
 20
84.9684
 30
0.0
 10
177.6927
 20
85.627
 30
0.0
 10
177.6927
 20
85.627
 30
0.0
 10
181.2607
 20
88.3373
 30
0.0
 10
183.4719
 20
91.9431
 30
0.0
 10
185.2795
 20
96.353
 30
0.0
 10
185.2795
 20
96.353
 30
0.0
 10
185.2795
 20
96.353
 30
0.0
 10
185.2795
 20
81.269
 30
0.0
 10
185.2795
 20
81.269
 30
0.0
  0
SPLINE
  5
8A
330
1F
100
AcDbEntity
  8
layer 1
 62
     7
100
AcDbSpline
210
0.0
220
0.0
230
1.0
 70
    11
 71
     3
 72
    16
 73
    12
 74
     0
 42
0.0000000001
 43
0.0000000001
 12
1.0
 22
0.0
 32
0.0
 13
1.0
 23
0.0
 33
0.0
 40
0.0
 40
0.0
 40
0.0
 40
0.0
 40
0.25
 40
0.25
 40
0.25
 40
0.25
 40
0.5
 40
0.5
 40
0.5
 40
0.5
 40
1.0
 40
1.0
 40
1.0
 40
1.0
 10
185.2795
 20
66.9075
 30
0.0
 10
183.3926
 20
68.4358
 30
0.0
 10
181.77
 20
69.7876
 30
0.0
 10
180.5599
 20
70.1902
 30
0.0
 10
180.5599
 20
70.1902
 30
0.0
 10
182.4384
 20
71.1085
 30
0.0
 10
184.0351
 20
73.0247
 30
0.0
 10
185.2795
 20
75.0794
 30
0.0
 10
185.2795
 20
75.0794
 30
0.0
 10
185.2795
 20
75.0794
 30
0.0
 10
185.2795
 20
66.9075
 30
0.0
 10
185.2795
 20
66.9075
 30
0.0
  0
SPLINE
  5
8B
330
1F
100
AcDbEntity
  8
layer 1
 62
     7
100
AcDbSpline
210
0.0
220
0.0
230
1.0
 70
    11
 71
     3
 72
    16
 73
    12
 74
     0
 42
0.0000000001
 43
0.0000000001
 12
1.0
 22
0.0
 32
0.0
 13
1.0
 23
0.0
 33
0.0
 40
0.0
 40
0.0
 40
0.0
 40
0.0
 40
0.25
 40
0.25
 40
0.25
 40
0.25
 40
0.5
 40
0.5
 40
0.5
 40
0.5
 40
1.0
 40
1.0
 40
1.0
 40
1.0
 10
185.2795
 20
56.2323
 30
0.0
 10
184.007
 20
59.0406
 30
0.0
 10
182.2308
 20
60.6996
 30
0.0
 10
180.0992
 20
61.819
 30
0.0
 10
180.0992
 20
61.819
 30
0.0
 10
182.1823
 20
62.4813
 30
0.0
 10
183.6768
 20
62.9639
 30
0.0
 10
185.2795
 20
64.0458
 30
0.0
 10
185.2795
 20
64.0458
 30
0.0
 10
185.2795
 20
64.0458
 30
0.0
 10
185.2795
 20
56.2323
 30
0.0
 10
185.2795
 20
56.2323
 30
0.0
  0
SPLINE
  5
8C
330
1F
100
AcDbEntity
  8
layer 1
 62
     7
100
AcDbSpline
210
0.0
220
0.0
230
1.0
 70
    11
 71
     3
 72
    20
 73
    16
 74
     0
 42
0.0000000001
 43
0.0000000001
 12
1.0
 22
0.0
 32
0.0
 13
1.0
 23
0.0
 33
0.0
 40
0.0
 40
0.0
 40
0.0
 40
0.0
 40
0.2
 40
0.2
 40
0.2
 40
0.2
 40
0.4
 40
0.4
 40
0.4
 40
0.4
 40
0.6
 40
0.6
 40
0.6
 40
0.6
 40
1.0
 40
1.0
 40
1.0
 40
1.0
 10
167.7923
 20
80.1894
 30
0.0
 10
171.2332
 20
80.8805
 30
0.0
 10
172.4543
 20
81.4449
 30
0.0
 10
175.5495
 20
83.3562
 30
0.0
 10
175.5495
 20
83.3562
 30
0.0
 10
174.6832
 20
82.4325
 30
0.0
 10
174.1069
 20
81.5683
 30
0.0
 10
174.2952
 20
80.7926
 30
0.0
 10
174.2952
 20
80.7926
 30
0.0
 10
179.0908
 20
80.3527
 30
0.0
 10
178.4186
 20
75.5968
 30
0.0
 10
173.5895
 20
74.8605
 30
0.0
 10
173.5895
 20
74.8605
 30
0.0
 10
170.1045
 20
74.5046
 30
0.0
 10
166.8776
 20
76.472
 30
0.0
 10
167.7923
 20
80.1894
 30
0.0
  0
SPLINE
  5
8D
330
1F
100
AcDbEntity
  8
layer 1
 62
     7
100
AcDbSpline
210
0.0
220
0.0
230
1.0
 70
    11
 71
     3
 72
    20
 73
    16
 74
     0
 42
0.0000000001
 43
0.0000000001
 12
1.0
 22
0.0
 32
0.0
 13
1.0
 23
0.0
 33
0.0
 40
0.0
 40
0.0
 40
0.0
 40
0.0
 40
0.2
 40
0.2
 40
0.2
 40
0.2
 40
0.4
 40
0.4
 40
0.4
 40
0.4
 40
0.6
 40
0.6
 40
0.6
 40
0.6
 40
1.0
 40
1.0
 40
1.0
 40
1.0
 10
161.9834
 20
87.4207
 30
0.0
 10
162.6237
 20
89.8933
 30
0.0
 10
163.1334
 20
91.116
 30
0.0
 10
164.6441
 20
93.2879
 30
0.0
 10
164.6441
 20
93.2879
 30
0.0
 10
163.9395
 20
92.696
 30
0.0
 10
162.9825
 20
91.749
 30
0.0
 10
162.4279
 20
91.9172
 30
0.0
 10
162.4279
 20
91.9172
 30
0.0
 10
162.3031
 20
95.4201
 30
0.0
 10
157.139
 20
95.6366
 30
0.0
 10
156.4098
 20
92.1571
 30
0.0
 10
156.4098
 20
92.1571
 30
0.0
 10
156.0107
 20
89.6389
 30
0.0
 10
159.2006
 20
87.1627
 30
0.0
 10
161.9834
 20
87.4207
 30
0.0
  0
SPLINE
  5
8E
330
1F
100
AcDbEntity
  8
layer 1
 62
     7
100
AcDbSpline
210
0.0
220
0.0
230
1.0
 70
    11
 71
     3
 72
    12
 73
     8
 74
     0
 42
0.0000000001
 43
0.0000000001
 12
1.0
 22
0.0
 32
0.0
 13
1.0
 23
0.0
 33
0.0
 40
0.0
 40
0.0
 40
0.0
 40
0.0
 40
0.3333333333333333
 40
0.3333333333333333
 40
0.3333333333333333
 40
0.3333333333333333
 40
1.0
 40
1.0
 40
1.0
 40
1.0
 10
182.7613
 20
101.0627
 30
0.0
 10
179.9794
 20
93.3196
 30
0.0
 10
173.0218
 20
89.0227
 30
0.0
 10
168.1947
 20
88.496
 30
0.0
 10
168.1947
 20
88.496
 30
0.0
 10
170.4665
 20
94.6264
 30
0.0
 10
177.5139
 20
99.9895
 30
0.0
 10
182.7613
 20
101.0627
 30
0.0
  0
SPLINE
  5
8F
330
1F
100
AcDbEntity
  8
layer 1
 62
     7
100
AcDbSpline
210
0.0
220
0.0
230
1.0
 70
    11
 71
     3
 72
    24
 73
    20
 74
     0
 42
0.0000000001
 43
0.0000000001
 12
1.0
 22
0.0
 32
0.0
 13
1.0
 23
0.0
 33
0.0
 40
0.0
 40
0.0
 40
0.0
 40
0.0
 40
0.1666666666666667
 40
0.1666666666666667
 40
0.1666666666666667
 40
0.1666666666666667
 40
0.3333333333333333
 40
0.3333333333333333
 40
0.3333333333333333
 40
0.3333333333333333
 40
0.5
 40
0.5
 40
0.5
 40
0.5
 40
0.6666666666666666
 40
0.6666666666666666
 40
0.6666666666666666
 40
0.6666666666666666
 40
1.0
 40
1.0
 40
1.0
 40
1.0
 10
144.0306
 20
86.34
 30
0.0
 10
141.6987
 20
90.4421
 30
0.0
 10
134.3768
 20
100.4189
 30
0.0
 10
126.708
 20
99.9271
 30
0.0
 10
126.708
 20
99.9271
 30
0.0
 10
126.2861
 20
101.571
 30
0.0
 10
127.7625
 20
102.6248
 30
0.0
 10
131.5639
 20
103.8683
 30
0.0
 10
131.5639
 20
103.8683
 30
0.0
 10
131.5639
 20
103.8683
 30
0.0
 10
99.0848
 20
103.8683
 30
0.0
 10
99.0848
 20
103.8683
 30
0.0
 10
99.0848
 20
103.8683
 30
0.0
 10
113.7214
 20
101.463
 30
0.0
 10
133.3356
 20
94.8185
 30
0.0
 10
144.0308
 20
86.3398
 30
0.0
 10
144.0308
 20
86.3398
 30
0.0
 10
144.0308
 20
86.3398
 30
0.0
 10
144.0306
 20
86.34
 30
0.0
 10
144.0306
 20
86.34
 30
0.0
  0
SPLINE
  5
90
330
1F
100
AcDbEntity
  8
layer 1
 62
     7
100
AcDbSpline
210
0.0
220
0.0
230
1.0
 70
    11
 71
     3
 72
    16
 73
    12
 74
     0
 42
0.0000000001
 43
0.0000000001
 12
1.0
 22
0.0
 32
0.0
 13
1.0
 23
0.0
 33
0.0
 40
0.0
 40
0.0
 40
0.0
 40
0.0
 40
0.25
 40
0.25
 40
0.25
 40
0.25
 40
0.5
 40
0.5
 40
0.5
 40
0.5
 40
1.0
 40
1.0
 40
1.0
 40
1.0
 10
133.9935
 20
40.7337
 30
0.0
 10
137.7909
 20
38.0258
 30
0.0
 10
139.6692
 20
37.8691
 30
0.0
 10
142.8558
 20
38.6702
 30
0.0
 10
142.8558
 20
38.6702
 30
0.0
 10
140.9056
 20
36.483
 30
0.0
 10
139.8494
 20
34.4112
 30
0.0
 10
140.3293
 20
28.9349
 30
0.0
 10
140.3293
 20
28.9349
 30
0.0
 10
138.4259
 20
33.6563
 30
0.0
 10
136.0916
 20
37.05
 30
0.0
 10
133.9935
 20
40.7337
 30
0.0
  0
SPLINE
  5
91
330
1F
100
AcDbEntity
  8
layer 1
 62
     7
100
AcDbSpline
210
0.0
220
0.0
230
1.0
 70
    11
 71
     3
 72
    28
 73
    24
 74
     0
 42
0.0000000001
 43
0.0000000001
 12
1.0
 22
0.0
 32
0.0
 13
1.0
 23
0.0
 33
0.0
 40
0.0
 40
0.0
 40
0.0
 40
0.0
 40
0.1428571428571428
 40
0.1428571428571428
 40
0.1428571428571428
 40
0.1428571428571428
 40
0.2857142857142857
 40
0.2857142857142857
 40
0.2857142857142857
 40
0.2857142857142857
 40
0.4285714285714285
 40
0.4285714285714285
 40
0.4285714285714285
 40
0.4285714285714285
 40
0.5714285714285714
 40
0.5714285714285714
 40
0.5714285714285714
 40
0.5714285714285714
 40
0.7142857142857143
 40
0.7142857142857143
 40
0.7142857142857143
 40
0.7142857142857143
 40
1.0
 40
1.0
 40
1.0
 40
1.0
 10
143.2413
 20
23.5024
 30
0.0
 10
144.8817
 20
21.3631
 30
0.0
 10
147.2696
 20
19.3487
 30
0.0
 10
149.8776
 20
19.0952
 30
0.0
 10
149.8776
 20
19.0952
 30
0.0
 10
149.216
 20
18.4765
 30
0.0
 10
148.6315
 20
17.0677
 30
0.0
 10
147.9747
 20
15.8415
 30
0.0
 10
147.9747
 20
15.8415
 30
0.0
 10
150.9432
 20
14.9004
 30
0.0
 10
154.0262
 20
13.3188
 30
0.0
 10
155.43
 20
11.7921
 30
0.0
 10
155.43
 20
11.7921
 30
0.0
 10
152.2822
 20
9.7379
 30
0.0
 10
148.9642
 20
8.527
 30
0.0
 10
145.053
 20
8.3105
 30
0.0
 10
145.053
 20
8.3105
 30
0.0
 10
145.212
 20
12.9654
 30
0.0
 10
145.0068
 20
17.8227
 30
0.0
 10
143.2413
 20
23.5022
 30
0.0
 10
143.2413
 20
23.5022
 30
0.0
 10
143.2413
 20
23.5022
 30
0.0
 10
143.2413
 20
23.5024
 30
0.0
 10
143.2413
 20
23.5024
 30
0.0
  0
SPLINE
  5
92
330
1F
100
AcDbEntity
  8
layer 1
 62
     7
100
AcDbSpline
210
0.0
220
0.0
230
1.0
 70
    11
 71
     3
 72
    36
 73
    32
 74
     0
 42
0.0000000001
 43
0.0000000001
 12
1.0
 22
0.0
 32
0.0
 13
1.0
 23
0.0
 33
0.0
 40
0.0
 40
0.0
 40
0.0
 40
0.0
 40
0.1111111111111111
 40
0.1111111111111111
 40
0.1111111111111111
 40
0.1111111111111111
 40
0.2222222222222222
 40
0.2222222222222222
 40
0.2222222222222222
 40
0.2222222222222222
 40
0.3333333333333333
 40
0.3333333333333333
 40
0.3333333333333333
 40
0.3333333333333333
 40
0.4444444444444444
 40
0.4444444444444444
 40
0.4444444444444444
 40
0.4444444444444444
 40
0.5555555555555556
 40
0.5555555555555556
 40
0.5555555555555556
 40
0.5555555555555556
 40
0.6666666666666666
 40
0.6666666666666666
 40
0.6666666666666666
 40
0.6666666666666666
 40
0.7777777777777778
 40
0.7777777777777778
 40
0.7777777777777778
 40
0.7777777777777778
 40
1.0
 40
1.0
 40
1.0
 40
1.0
 10
148.7633
 20
32.2178
 30
0.0
 10
150.6496
 20
37.3795
 30
0.0
 10
157.1387
 20
35.9325
 30
0.0
 10
159.0317
 20
29.476
 30
0.0
 10
159.0317
 20
29.476
 30
0.0
 10
161.8017
 20
31.1079
 30
0.0
 10
162.9862
 20
32.1847
 30
0.0
 10
164.1152
 20
33.6653
 30
0.0
 10
164.1152
 20
33.6653
 30
0.0
 10
164.7843
 20
33.1796
 30
0.0
 10
165.1313
 20
31.7708
 30
0.0
 10
165.0066
 20
30.0789
 30
0.0
 10
165.0066
 20
30.0789
 30
0.0
 10
164.5821
 20
23.0836
 30
0.0
 10
163.3405
 20
21.1692
 30
0.0
 10
160.7527
 20
16.5823
 30
0.0
 10
160.7527
 20
16.5823
 30
0.0
 10
158.9355
 20
17.9879
 30
0.0
 10
157.8795
 20
18.9059
 30
0.0
 10
155.6981
 20
19.8869
 30
0.0
 10
155.6981
 20
19.8869
 30
0.0
 10
156.353
 20
21.4601
 30
0.0
 10
156.7926
 20
22.4372
 30
0.0
 10
157.213
 20
23.6278
 30
0.0
 10
157.213
 20
23.6278
 30
0.0
 10
152.8117
 20
23.0789
 30
0.0
 10
147.9778
 20
26.7426
 30
0.0
 10
148.7635
 20
32.2178
 30
0.0
 10
148.7635
 20
32.2178
 30
0.0
 10
148.7635
 20
32.2178
 30
0.0
 10
148.7633
 20
32.2178
 30
0.0
 10
148.7633
 20
32.2178
 30
0.0
  0
SPLINE
  5
93
330
1F
100
AcDbEntity
  8
layer 1
 62
     7
100
AcDbSpline
210
0.0
220
0.0
230
1.0
 70
    11
 71
     3
 72
    16
 73
    12
 74
     0
 42
0.0000000001
 43
0.0000000001
 12
1.0
 22
0.0
 32
0.0
 13
1.0
 23
0.0
 33
0.0
 40
0.0
 40
0.0
 40
0.0
 40
0.0
 40
0.25
 40
0.25
 40
0.25
 40
0.25
 40
0.5
 40
0.5
 40
0.5
 40
0.5
 40
1.0
 40
1.0
 40
1.0
 40
1.0
 10
101.9713
 20
62.3393
 30
0.0
 10
106.5835
 20
62.577
 30
0.0
 10
107.9087
 20
64.0381
 30
0.0
 10
109.9909
 20
65.9984
 30
0.0
 10
109.9909
 20
65.9984
 30
0.0
 10
110.4041
 20
63.0436
 30
0.0
 10
111.5943
 20
60.5788
 30
0.0
 10
113.9774
 20
58.2352
 30
0.0
 10
113.9774
 20
58.2352
 30
0.0
 10
109.3271
 20
60.306
 30
0.0
 10
106.0401
 20
61.15
 30
0.0
 10
101.9713
 20
62.3393
 30
0.0
  0
SPLINE
  5
94
330
1F
100
AcDbEntity
  8
layer 1
 62
     7
100
AcDbSpline
210
0.0
220
0.0
230
1.0
 70
    11
 71
     3
 72
    24
 73
    20
 74
     0
 42
0.0000000001
 43
0.0000000001
 12
1.0
 22
0.0
 32
0.0
 13
1.0
 23
0.0
 33
0.0
 40
0.0
 40
0.0
 40
0.0
 40
0.0
 40
0.1666666666666667
 40
0.1666666666666667
 40
0.1666666666666667
 40
0.1666666666666667
 40
0.3333333333333333
 40
0.3333333333333333
 40
0.3333333333333333
 40
0.3333333333333333
 40
0.5
 40
0.5
 40
0.5
 40
0.5
 40
0.6666666666666666
 40
0.6666666666666666
 40
0.6666666666666666
 40
0.6666666666666666
 40
1.0
 40
1.0
 40
1.0
 40
1.0
 10
129.5648
 20
46.8528
 30
0.0
 10
128.5752
 20
49.3604
 30
0.0
 10
128.0777
 20
52.4446
 30
0.0
 10
129.2029
 20
54.8109
 30
0.0
 10
129.2029
 20
54.8109
 30
0.0
 10
128.3319
 20
54.5623
 30
0.0
 10
126.8232
 20
54.7865
 30
0.0
 10
125.4337
 20
54.8545
 30
0.0
 10
125.4337
 20
54.8545
 30
0.0
 10
126.1551
 20
57.884
 30
0.0
 10
126.3862
 20
61.3412
 30
0.0
 10
125.8001
 20
63.3306
 30
0.0
 10
125.8001
 20
63.3306
 30
0.0
 10
122.4186
 20
61.6894
 30
0.0
 10
119.6724
 20
59.468
 30
0.0
 10
117.4734
 20
56.2265
 30
0.0
 10
117.4734
 20
56.2265
 30
0.0
 10
121.5458
 20
53.9666
 30
0.0
 10
125.6045
 20
51.2898
 30
0.0
 10
129.5648
 20
46.8528
 30
0.0
  0
SPLINE
  5
95
330
1F
100
AcDbEntity
  8
layer 1
 62
     7
100
AcDbSpline
210
0.0
220
0.0
230
1.0
 70
    11
 71
     3
 72
    32
 73
    28
 74
     0
 42
0.0000000001
 43
0.0000000001
 12
1.0
 22
0.0
 32
0.0
 13
1.0
 23
0.0
 33
0.0
 40
0.0
 40
0.0
 40
0.0
 40
0.0
 40
0.125
 40
0.125
 40
0.125
 40
0.125
 40
0.25
 40
0.25
 40
0.25
 40
0.25
 40
0.375
 40
0.375
 40
0.375
 40
0.375
 40
0.5
 40
0.5
 40
0.5
 40
0.5
 40
0.625
 40
0.625
 40
0.625
 40
0.625
 40
0.75
 40
0.75
 40
0.75
 40
0.75
 40
1.0
 40
1.0
 40
1.0
 40
1.0
 10
139.2347
 20
46.5969
 30
0.0
 10
144.4831
 20
44.9676
 30
0.0
 10
147.2665
 20
51.0053
 30
0.0
 10
143.2797
 20
56.4249
 30
0.0
 10
143.2797
 20
56.4249
 30
0.0
 10
146.2568
 20
57.6384
 30
0.0
 10
147.8313
 20
57.9276
 30
0.0
 10
149.6932
 20
57.9278
 30
0.0
 10
149.6932
 20
57.9278
 30
0.0
 10
149.7125
 20
58.7543
 30
0.0
 10
148.8025
 20
59.8844
 30
0.0
 10
147.3815
 20
60.811
 30
0.0
 10
147.3815
 20
60.811
 30
0.0
 10
141.5611
 20
64.7146
 30
0.0
 10
139.2859
 20
64.8878
 30
0.0
 10
134.0691
 20
65.6108
 30
0.0
 10
134.0691
 20
65.6108
 30
0.0
 10
134.0852
 20
63.3135
 30
0.0
 10
134.175
 20
61.9171
 30
0.0
 10
133.6327
 20
59.5875
 30
0.0
 10
133.6327
 20
59.5875
 30
0.0
 10
135.2806
 20
59.1545
 30
0.0
 10
136.3243
 20
58.9118
 30
0.0
 10
137.5261
 20
58.5243
 30
0.0
 10
137.5261
 20
58.5243
 30
0.0
 10
134.4211
 20
55.357
 30
0.0
 10
134.4039
 20
49.2915
 30
0.0
 10
139.2347
 20
46.5969
 30
0.0
  0
SPLINE
  5
96
330
1F
100
AcDbEntity
  8
layer 1
 62
     7
100
AcDbSpline
210
0.0
220
0.0
230
1.0
 70
    11
 71
     3
 72
    20
 73
    16
 74
     0
 42
0.0000000001
 43
0.0000000001
 12
1.0
 22
0.0
 32
0.0
 13
1.0
 23
0.0
 33
0.0
 40
0.0
 40
0.0
 40
0.0
 40
0.0
 40
0.2
 40
0.2
 40
0.2
 40
0.2
 40
0.4
 40
0.4
 40
0.4
 40
0.4
 40
0.6
 40
0.6
 40
0.6
 40
0.6
 40
1.0
 40
1.0
 40
1.0
 40
1.0
 10
98.3363
 20
38.0455
 30
0.0
 10
102.2447
 20
40.5055
 30
0.0
 10
99.5581
 20
50.3115
 30
0.0
 10
89.1676
 20
51.1395
 30
0.0
 10
89.1676
 20
51.1395
 30
0.0
 10
78.7771
 20
50.3115
 30
0.0
 10
76.0906
 20
40.5053
 30
0.0
 10
79.999
 20
38.0455
 30
0.0
 10
79.999
 20
38.0455
 30
0.0
 10
84.1246
 20
42.1627
 30
0.0
 10
85.6626
 20
43.6692
 30
0.0
 10
89.1676
 20
46.5659
 30
0.0
 10
89.1676
 20
46.5659
 30
0.0
 10
92.6727
 20
43.669
 30
0.0
 10
94.2107
 20
42.1627
 30
0.0
 10
98.3363
 20
38.0455
 30
0.0
  0
SPLINE
  5
97
330
1F
100
AcDbEntity
  8
layer 1
 62
     7
100
AcDbSpline
210
0.0
220
0.0
230
1.0
 70
    11
 71
     3
 72
    32
 73
    28
 74
     0
 42
0.0000000001
 43
0.0000000001
 12
1.0
 22
0.0
 32
0.0
 13
1.0
 23
0.0
 33
0.0
 40
0.0
 40
0.0
 40
0.0
 40
0.0
 40
0.125
 40
0.125
 40
0.125
 40
0.125
 40
0.25
 40
0.25
 40
0.25
 40
0.25
 40
0.375
 40
0.375
 40
0.375
 40
0.375
 40
0.5
 40
0.5
 40
0.5
 40
0.5
 40
0.625
 40
0.625
 40
0.625
 40
0.625
 40
0.75
 40
0.75
 40
0.75
 40
0.75
 40
1.0
 40
1.0
 40
1.0
 40
1.0
 10
97.2612
 20
86.4479
 30
0.0
 10
97.2304
 20
88.7111
 30
0.0
 10
97.2213
 20
91.7541
 30
0.0
 10
97.1783
 20
93.7284
 30
0.0
 10
97.1783
 20
93.7284
 30
0.0
 10
95.1959
 20
93.7749
 30
0.0
 10
92.5019
 20
93.8247
 30
0.0
 10
89.1678
 20
93.8148
 30
0.0
 10
89.1678
 20
93.8148
 30
0.0
 10
85.8335
 20
93.8247
 30
0.0
 10
83.1395
 20
93.7751
 30
0.0
 10
81.1572
 20
93.7284
 30
0.0
 10
81.1572
 20
93.7284
 30
0.0
 10
81.114
 20
91.7543
 30
0.0
 10
81.1048
 20
88.7111
 30
0.0
 10
81.0742
 20
86.4479
 30
0.0
 10
81.0742
 20
86.4479
 30
0.0
 10
85.1725
 20
86.1329
 30
0.0
 10
88.3721
 20
82.812
 30
0.0
 10
89.1678
 20
78.4308
 30
0.0
 10
89.1678
 20
78.4308
 30
0.0
 10
89.9633
 20
82.8118
 30
0.0
 10
93.1631
 20
86.1328
 30
0.0
 10
97.2614
 20
86.4479
 30
0.0
 10
97.2614
 20
86.4479
 30
0.0
 10
97.2614
 20
86.4479
 30
0.0
 10
97.2612
 20
86.4479
 30
0.0
 10
97.2612
 20
86.4479
 30
0.0
  0
SPLINE
  5
98
330
1F
100
AcDbEntity
  8
layer 1
 62
     7
100
AcDbSpline
210
0.0
220
0.0
230
1.0
 70
    11
 71
     3
 72
    16
 73
    12
 74
     0
 42
0.0000000001
 43
0.0000000001
 12
1.0
 22
0.0
 32
0.0
 13
1.0
 23
0.0
 33
0.0
 40
0.0
 40
0.0
 40
0.0
 40
0.0
 40
0.25
 40
0.25
 40
0.25
 40
0.25
 40
0.5
 40
0.5
 40
0.5
 40
0.5
 40
1.0
 40
1.0
 40
1.0
 40
1.0
 10
60.5974
 20
-74.6346
 30
0.0
 10
56.5485
 20
-72.0368
 30
0.0
 10
48.052
 20
-64.2199
 30
0.0
 10
46.3779
 20
-57.3745
 30
0.0
 10
46.3779
 20
-57.3745
 30
0.0
 10
42.0826
 20
-58.2207
 30
0.0
 10
36.901
 20
-58.6186
 30
0.0
 10
27.4454
 20
-52.8932
 30
0.0
 10
27.4454
 20
-52.8932
 30
0.0
 10
38.3103
 20
-63.6175
 30
0.0
 10
50.0958
 20
-70.5103
 30
0.0
 10
60.5974
 20
-74.6346
 30
0.0
  0
SPLINE
  5
99
330
1F
100
AcDbEntity
  8
layer 1
 62
     7
100
AcDbSpline
210
0.0
220
0.0
230
1.0
 70
    11
 71
     3
 72
    28
 73
    24
 74
     0
 42
0.0000000001
 43
0.0000000001
 12
1.0
 22
0.0
 32
0.0
 13
1.0
 23
0.0
 33
0.0
 40
0.0
 40
0.0
 40
0.0
 40
0.0
 40
0.1428571428571428
 40
0.1428571428571428
 40
0.1428571428571428
 40
0.1428571428571428
 40
0.2857142857142857
 40
0.2857142857142857
 40
0.2857142857142857
 40
0.2857142857142857
 40
0.4285714285714285
 40
0.4285714285714285
 40
0.4285714285714285
 40
0.4285714285714285
 40
0.5714285714285714
 40
0.5714285714285714
 40
0.5714285714285714
 40
0.5714285714285714
 40
0.7142857142857143
 40
0.7142857142857143
 40
0.7142857142857143
 40
0.7142857142857143
 40
1.0
 40
1.0
 40
1.0
 40
1.0
 10
73.5637
 20
-72.0218
 30
0.0
 10
72.7415
 20
-69.9351
 30
0.0
 10
72.7073
 20
-67.8877
 30
0.0
 10
72.8414
 20
-65.3637
 30
0.0
 10
72.8414
 20
-65.3637
 30
0.0
 10
91.8119
 20
-64.2693
 30
0.0
 10
78.5701
 20
-44.8131
 30
0.0
 10
67.2786
 20
-61.148
 30
0.0
 10
67.2786
 20
-61.148
 30
0.0
 10
65.3498
 20
-60.1542
 30
0.0
 10
64.1387
 20
-57.585
 30
0.0
 10
61.4423
 20
-54.2854
 30
0.0
 10
61.4423
 20
-54.2854
 30
0.0
 10
59.3428
 20
-55.4983
 30
0.0
 10
58.0262
 20
-56.4666
 30
0.0
 10
53.9584
 20
-56.5701
 30
0.0
 10
53.9584
 20
-56.5701
 30
0.0
 10
56.8886
 20
-61.5854
 30
0.0
 10
63.062
 20
-68.7685
 30
0.0
 10
73.5635
 20
-72.022
 30
0.0
 10
73.5635
 20
-72.022
 30
0.0
 10
73.5635
 20
-72.022
 30
0.0
 10
73.5637
 20
-72.0218
 30
0.0
 10
73.5637
 20
-72.0218
 30
0.0
  0
SPLINE
  5
9A
330
1F
100
AcDbEntity
  8
layer 1
 62
     7
100
AcDbSpline
210
0.0
220
0.0
230
1.0
 70
    11
 71
     3
 72
    28
 73
    24
 74
     0
 42
0.0000000001
 43
0.0000000001
 12
1.0
 22
0.0
 32
0.0
 13
1.0
 23
0.0
 33
0.0
 40
0.0
 40
0.0
 40
0.0
 40
0.0
 40
0.1428571428571428
 40
0.1428571428571428
 40
0.1428571428571428
 40
0.1428571428571428
 40
0.2857142857142857
 40
0.2857142857142857
 40
0.2857142857142857
 40
0.2857142857142857
 40
0.4285714285714285
 40
0.4285714285714285
 40
0.4285714285714285
 40
0.4285714285714285
 40
0.5714285714285714
 40
0.5714285714285714
 40
0.5714285714285714
 40
0.5714285714285714
 40
0.7142857142857143
 40
0.7142857142857143
 40
0.7142857142857143
 40
0.7142857142857143
 40
1.0
 40
1.0
 40
1.0
 40
1.0
 10
18.3119
 20
-40.8642
 30
0.0
 10
20.8265
 20
-39.7678
 30
0.0
 10
23.4574
 20
-38.9559
 30
0.0
 10
25.4194
 20
-38.7042
 30
0.0
 10
25.4194
 20
-38.7042
 30
0.0
 10
25.3771
 20
-36.7882
 30
0.0
 10
23.3608
 20
-32.4165
 30
0.0
 10
28.0895
 20
-28.3454
 30
0.0
 10
28.0895
 20
-28.3454
 30
0.0
 10
24.4558
 20
-29.6447
 30
0.0
 10
20.2221
 20
-28.3039
 30
0.0
 10
17.6454
 20
-25.5619
 30
0.0
 10
17.6454
 20
-25.5619
 30
0.0
 10
16.044
 20
-26.961
 30
0.0
 10
14.2919
 20
-28.5517
 30
0.0
 10
12.2536
 20
-29.7666
 30
0.0
 10
12.2536
 20
-29.7666
 30
0.0
 10
14.313
 20
-34.3949
 30
0.0
 10
15.9383
 20
-37.03
 30
0.0
 10
18.3118
 20
-40.8642
 30
0.0
 10
18.3118
 20
-40.8642
 30
0.0
 10
18.3118
 20
-40.8642
 30
0.0
 10
18.3119
 20
-40.8642
 30
0.0
 10
18.3119
 20
-40.8642
 30
0.0
  0
SPLINE
  5
9B
330
1F
100
AcDbEntity
  8
layer 1
 62
     7
100
AcDbSpline
210
0.0
220
0.0
230
1.0
 70
    11
 71
     3
 72
    20
 73
    16
 74
     0
 42
0.0000000001
 43
0.0000000001
 12
1.0
 22
0.0
 32
0.0
 13
1.0
 23
0.0
 33
0.0
 40
0.0
 40
0.0
 40
0.0
 40
0.0
 40
0.2
 40
0.2
 40
0.2
 40
0.2
 40
0.4
 40
0.4
 40
0.4
 40
0.4
 40
0.6
 40
0.6
 40
0.6
 40
0.6
 40
1.0
 40
1.0
 40
1.0
 40
1.0
 10
28.9596
 20
-67.3735
 30
0.0
 10
24.1361
 20
-65.4533
 30
0.0
 10
20.8671
 20
-64.8915
 30
0.0
 10
16.4408
 20
-65.8299
 30
0.0
 10
16.4408
 20
-65.8299
 30
0.0
 10
17.287
 20
-61.5346
 30
0.0
 10
16.8138
 20
-58.4817
 30
0.0
 10
14.7655
 20
-53.1871
 30
0.0
 10
14.7655
 20
-53.1871
 30
0.0
 10
19.6841
 20
-59.7945
 30
0.0
 10
22.7064
 20
-62.5809
 30
0.0
 10
28.9594
 20
-67.3735
 30
0.0
 10
28.9594
 20
-67.3735
 30
0.0
 10
28.9594
 20
-67.3735
 30
0.0
 10
28.9596
 20
-67.3735
 30
0.0
 10
28.9596
 20
-67.3735
 30
0.0
  0
SPLINE
  5
9C
330
1F
100
AcDbEntity
  8
layer 1
 62
     7
100
AcDbSpline
210
0.0
220
0.0
230
1.0
 70
    11
 71
     3
 72
    20
 73
    16
 74
     0
 42
0.0000000001
 43
0.0000000001
 12
1.0
 22
0.0
 32
0.0
 13
1.0
 23
0.0
 33
0.0
 40
0.0
 40
0.0
 40
0.0
 40
0.0
 40
0.2
 40
0.2
 40
0.2
 40
0.2
 40
0.4
 40
0.4
 40
0.4
 40
0.4
 40
0.6
 40
0.6
 40
0.6
 40
0.6
 40
1.0
 40
1.0
 40
1.0
 40
1.0
 10
9.3166
 20
-45.2147
 30
0.0
 10
5.2145
 20
-42.8828
 30
0.0
 10
-2.3005
 20
-39.1813
 30
0.0
 10
-1.8087
 20
-31.5124
 30
0.0
 10
-1.8087
 20
-31.5124
 30
0.0
 10
-3.4526
 20
-31.0905
 30
0.0
 10
-5.665
 20
-33.8702
 30
0.0
 10
-6.9085
 20
-37.6717
 30
0.0
 10
-6.9085
 20
-37.6717
 30
0.0
 10
-6.9085
 20
-37.6717
 30
0.0
 10
-6.9085
 20
-5.1926
 30
0.0
 10
-6.9085
 20
-5.1926
 30
0.0
 10
-6.9085
 20
-5.1926
 30
0.0
 10
-3.3446
 20
-18.9604
 30
0.0
 10
0.8379
 20
-34.5197
 30
0.0
 10
9.3166
 20
-45.2147
 30
0.0
  0
SPLINE
  5
9D
330
1F
100
AcDbEntity
  8
layer 1
 62
     7
100
AcDbSpline
210
0.0
220
0.0
230
1.0
 70
    11
 71
     3
 72
    16
 73
    12
 74
     0
 42
0.0000000001
 43
0.0000000001
 12
1.0
 22
0.0
 32
0.0
 13
1.0
 23
0.0
 33
0.0
 40
0.0
 40
0.0
 40
0.0
 40
0.0
 40
0.25
 40
0.25
 40
0.25
 40
0.25
 40
0.5
 40
0.5
 40
0.5
 40
0.5
 40
1.0
 40
1.0
 40
1.0
 40
1.0
 10
15.6059
 20
-89.4142
 30
0.0
 10
12.7976
 20
-87.1179
 30
0.0
 10
11.9066
 20
-85.3415
 30
0.0
 10
11.2479
 20
-81.8275
 30
0.0
 10
11.2479
 20
-81.8275
 30
0.0
 10
8.5376
 20
-85.3954
 30
0.0
 10
4.9318
 20
-87.6067
 30
0.0
 10
0.5219
 20
-89.4142
 30
0.0
 10
0.5219
 20
-89.4142
 30
0.0
 10
0.5219
 20
-89.4142
 30
0.0
 10
15.6059
 20
-89.4142
 30
0.0
 10
15.6059
 20
-89.4142
 30
0.0
  0
SPLINE
  5
9E
330
1F
100
AcDbEntity
  8
layer 1
 62
     7
100
AcDbSpline
210
0.0
220
0.0
230
1.0
 70
    11
 71
     3
 72
    16
 73
    12
 74
     0
 42
0.0000000001
 43
0.0000000001
 12
1.0
 22
0.0
 32
0.0
 13
1.0
 23
0.0
 33
0.0
 40
0.0
 40
0.0
 40
0.0
 40
0.0
 40
0.25
 40
0.25
 40
0.25
 40
0.25
 40
0.5
 40
0.5
 40
0.5
 40
0.5
 40
1.0
 40
1.0
 40
1.0
 40
1.0
 10
29.1227
 20
-89.4142
 30
0.0
 10
27.5943
 20
-87.5274
 30
0.0
 10
26.2426
 20
-85.9048
 30
0.0
 10
25.84
 20
-84.6947
 30
0.0
 10
25.84
 20
-84.6947
 30
0.0
 10
24.9216
 20
-86.5731
 30
0.0
 10
23.0054
 20
-88.1698
 30
0.0
 10
20.9508
 20
-89.4142
 30
0.0
 10
20.9508
 20
-89.4142
 30
0.0
 10
20.9508
 20
-89.4142
 30
0.0
 10
29.1227
 20
-89.4142
 30
0.0
 10
29.1227
 20
-89.4142
 30
0.0
  0
SPLINE
  5
9F
330
1F
100
AcDbEntity
  8
layer 1
 62
     7
100
AcDbSpline
210
0.0
220
0.0
230
1.0
 70
    11
 71
     3
 72
    16
 73
    12
 74
     0
 42
0.0000000001
 43
0.0000000001
 12
1.0
 22
0.0
 32
0.0
 13
1.0
 23
0.0
 33
0.0
 40
0.0
 40
0.0
 40
0.0
 40
0.0
 40
0.25
 40
0.25
 40
0.25
 40
0.25
 40
0.5
 40
0.5
 40
0.5
 40
0.5
 40
1.0
 40
1.0
 40
1.0
 40
1.0
 10
39.7849
 20
-89.4142
 30
0.0
 10
37.1813
 20
-87.681
 30
0.0
 10
35.8297
 20
-85.2903
 30
0.0
 10
35.4269
 20
-84.0803
 30
0.0
 10
35.4269
 20
-84.0803
 30
0.0
 10
34.0478
 20
-87.1875
 30
0.0
 10
32.5924
 20
-85.8146
 30
0.0
 10
30.845
 20
-89.4142
 30
0.0
 10
30.845
 20
-89.4142
 30
0.0
 10
30.845
 20
-89.4142
 30
0.0
 10
39.7849
 20
-89.4142
 30
0.0
 10
39.7849
 20
-89.4142
 30
0.0
  0
SPLINE
  5
A0
330
1F
100
AcDbEntity
  8
layer 1
 62
     7
100
AcDbSpline
210
0.0
220
0.0
230
1.0
 70
    11
 71
     3
 72
    16
 73
    12
 74
     0
 42
0.0000000001
 43
0.0000000001
 12
1.0
 22
0.0
 32
0.0
 13
1.0
 23
0.0
 33
0.0
 40
0.0
 40
0.0
 40
0.0
 40
0.0
 40
0.25
 40
0.25
 40
0.25
 40
0.25
 40
0.5
 40
0.5
 40
0.5
 40
0.5
 40
1.0
 40
1.0
 40
1.0
 40
1.0
 10
-6.9085
 20
-66.8148
 30
0.0
 10
-4.6121
 20
-69.6231
 30
0.0
 10
-2.8357
 20
-70.5141
 30
0.0
 10
0.6783
 20
-71.1727
 30
0.0
 10
0.6783
 20
-71.1727
 30
0.0
 10
-2.8897
 20
-73.883
 30
0.0
 10
-5.1009
 20
-77.4888
 30
0.0
 10
-6.9085
 20
-81.8988
 30
0.0
 10
-6.9085
 20
-81.8988
 30
0.0
 10
-6.9085
 20
-81.8988
 30
0.0
 10
-6.9085
 20
-66.8148
 30
0.0
 10
-6.9085
 20
-66.8148
 30
0.0
  0
SPLINE
  5
A1
330
1F
100
AcDbEntity
  8
layer 1
 62
     7
100
AcDbSpline
210
0.0
220
0.0
230
1.0
 70
    11
 71
     3
 72
    16
 73
    12
 74
     0
 42
0.0000000001
 43
0.0000000001
 12
1.0
 22
0.0
 32
0.0
 13
1.0
 23
0.0
 33
0.0
 40
0.0
 40
0.0
 40
0.0
 40
0.0
 40
0.25
 40
0.25
 40
0.25
 40
0.25
 40
0.5
 40
0.5
 40
0.5
 40
0.5
 40
1.0
 40
1.0
 40
1.0
 40
1.0
 10
-6.9085
 20
-52.4532
 30
0.0
 10
-5.0216
 20
-53.9816
 30
0.0
 10
-3.3991
 20
-55.3333
 30
0.0
 10
-2.1889
 20
-55.7359
 30
0.0
 10
-2.1889
 20
-55.7359
 30
0.0
 10
-4.0674
 20
-56.6543
 30
0.0
 10
-5.6641
 20
-58.5705
 30
0.0
 10
-6.9085
 20
-60.6252
 30
0.0
 10
-6.9085
 20
-60.6252
 30
0.0
 10
-6.9085
 20
-60.6252
 30
0.0
 10
-6.9085
 20
-52.4532
 30
0.0
 10
-6.9085
 20
-52.4532
 30
0.0
  0
SPLINE
  5
A2
330
1F
100
AcDbEntity
  8
layer 1
 62
     7
100
AcDbSpline
210
0.0
220
0.0
230
1.0
 70
    11
 71
     3
 72
    16
 73
    12
 74
     0
 42
0.0000000001
 43
0.0000000001
 12
1.0
 22
0.0
 32
0.0
 13
1.0
 23
0.0
 33
0.0
 40
0.0
 40
0.0
 40
0.0
 40
0.0
 40
0.25
 40
0.25
 40
0.25
 40
0.25
 40
0.5
 40
0.5
 40
0.5
 40
0.5
 40
1.0
 40
1.0
 40
1.0
 40
1.0
 10
-6.9085
 20
-41.778
 30
0.0
 10
-5.636
 20
-44.5863
 30
0.0
 10
-3.8598
 20
-46.2454
 30
0.0
 10
-1.7282
 20
-47.3648
 30
0.0
 10
-1.7282
 20
-47.3648
 30
0.0
 10
-3.8113
 20
-48.0271
 30
0.0
 10
-5.3058
 20
-48.5097
 30
0.0
 10
-6.9085
 20
-49.5915
 30
0.0
 10
-6.9085
 20
-49.5915
 30
0.0
 10
-6.9085
 20
-49.5915
 30
0.0
 10
-6.9085
 20
-41.778
 30
0.0
 10
-6.9085
 20
-41.778
 30
0.0
  0
SPLINE
  5
A3
330
1F
100
AcDbEntity
  8
layer 1
 62
     7
100
AcDbSpline
210
0.0
220
0.0
230
1.0
 70
    11
 71
     3
 72
    20
 73
    16
 74
     0
 42
0.0000000001
 43
0.0000000001
 12
1.0
 22
0.0
 32
0.0
 13
1.0
 23
0.0
 33
0.0
 40
0.0
 40
0.0
 40
0.0
 40
0.0
 40
0.2
 40
0.2
 40
0.2
 40
0.2
 40
0.4
 40
0.4
 40
0.4
 40
0.4
 40
0.6
 40
0.6
 40
0.6
 40
0.6
 40
1.0
 40
1.0
 40
1.0
 40
1.0
 10
10.5789
 20
-65.7351
 30
0.0
 10
7.138
 20
-66.4262
 30
0.0
 10
5.9169
 20
-66.9906
 30
0.0
 10
2.8217
 20
-68.9019
 30
0.0
 10
2.8217
 20
-68.9019
 30
0.0
 10
3.6879
 20
-67.9782
 30
0.0
 10
4.2642
 20
-67.114
 30
0.0
 10
4.076
 20
-66.3384
 30
0.0
 10
4.076
 20
-66.3384
 30
0.0
 10
-0.7196
 20
-65.8984
 30
0.0
 10
-0.0475
 20
-61.1426
 30
0.0
 10
4.7816
 20
-60.4063
 30
0.0
 10
4.7816
 20
-60.4063
 30
0.0
 10
8.2666
 20
-60.0503
 30
0.0
 10
11.4936
 20
-62.0177
 30
0.0
 10
10.5789
 20
-65.7351
 30
0.0
  0
SPLINE
  5
A4
330
1F
100
AcDbEntity
  8
layer 1
 62
     7
100
AcDbSpline
210
0.0
220
0.0
230
1.0
 70
    11
 71
     3
 72
    20
 73
    16
 74
     0
 42
0.0000000001
 43
0.0000000001
 12
1.0
 22
0.0
 32
0.0
 13
1.0
 23
0.0
 33
0.0
 40
0.0
 40
0.0
 40
0.0
 40
0.0
 40
0.2
 40
0.2
 40
0.2
 40
0.2
 40
0.4
 40
0.4
 40
0.4
 40
0.4
 40
0.6
 40
0.6
 40
0.6
 40
0.6
 40
1.0
 40
1.0
 40
1.0
 40
1.0
 10
16.3876
 20
-72.9665
 30
0.0
 10
15.7473
 20
-75.4391
 30
0.0
 10
15.2376
 20
-76.6618
 30
0.0
 10
13.7269
 20
-78.8337
 30
0.0
 10
13.7269
 20
-78.8337
 30
0.0
 10
14.4315
 20
-78.2417
 30
0.0
 10
15.3885
 20
-77.2947
 30
0.0
 10
15.943
 20
-77.463
 30
0.0
 10
15.943
 20
-77.463
 30
0.0
 10
16.0679
 20
-80.9658
 30
0.0
 10
21.232
 20
-81.1823
 30
0.0
 10
21.9612
 20
-77.7028
 30
0.0
 10
21.9612
 20
-77.7028
 30
0.0
 10
22.3603
 20
-75.1846
 30
0.0
 10
19.1703
 20
-72.7084
 30
0.0
 10
16.3876
 20
-72.9665
 30
0.0
  0
SPLINE
  5
A5
330
1F
100
AcDbEntity
  8
layer 1
 62
     7
100
AcDbSpline
210
0.0
220
0.0
230
1.0
 70
    11
 71
     3
 72
    12
 73
     8
 74
     0
 42
0.0000000001
 43
0.0000000001
 12
1.0
 22
0.0
 32
0.0
 13
1.0
 23
0.0
 33
0.0
 40
0.0
 40
0.0
 40
0.0
 40
0.0
 40
0.3333333333333333
 40
0.3333333333333333
 40
0.3333333333333333
 40
0.3333333333333333
 40
1.0
 40
1.0
 40
1.0
 40
1.0
 10
-4.3903
 20
-86.6085
 30
0.0
 10
-1.6084
 20
-78.8654
 30
0.0
 10
5.3492
 20
-74.5684
 30
0.0
 10
10.1763
 20
-74.0417
 30
0.0
 10
10.1763
 20
-74.0417
 30
0.0
 10
7.9045
 20
-80.1721
 30
0.0
 10
0.857
 20
-85.5352
 30
0.0
 10
-4.3903
 20
-86.6085
 30
0.0
  0
SPLINE
  5
A6
330
1F
100
AcDbEntity
  8
layer 1
 62
     7
100
AcDbSpline
210
0.0
220
0.0
230
1.0
 70
    11
 71
     3
 72
    24
 73
    20
 74
     0
 42
0.0000000001
 43
0.0000000001
 12
1.0
 22
0.0
 32
0.0
 13
1.0
 23
0.0
 33
0.0
 40
0.0
 40
0.0
 40
0.0
 40
0.0
 40
0.1666666666666667
 40
0.1666666666666667
 40
0.1666666666666667
 40
0.1666666666666667
 40
0.3333333333333333
 40
0.3333333333333333
 40
0.3333333333333333
 40
0.3333333333333333
 40
0.5
 40
0.5
 40
0.5
 40
0.5
 40
0.6666666666666666
 40
0.6666666666666666
 40
0.6666666666666666
 40
0.6666666666666666
 40
1.0
 40
1.0
 40
1.0
 40
1.0
 10
34.3404
 20
-71.8857
 30
0.0
 10
36.6723
 20
-75.9878
 30
0.0
 10
43.9942
 20
-85.9646
 30
0.0
 10
51.6629
 20
-85.4729
 30
0.0
 10
51.6629
 20
-85.4729
 30
0.0
 10
52.0849
 20
-87.1168
 30
0.0
 10
50.6084
 20
-88.1706
 30
0.0
 10
46.8071
 20
-89.4141
 30
0.0
 10
46.8071
 20
-89.4141
 30
0.0
 10
46.8071
 20
-89.4141
 30
0.0
 10
79.2862
 20
-89.4141
 30
0.0
 10
79.2862
 20
-89.4141
 30
0.0
 10
79.2862
 20
-89.4141
 30
0.0
 10
64.6496
 20
-87.0087
 30
0.0
 10
45.0354
 20
-80.3642
 30
0.0
 10
34.3402
 20
-71.8855
 30
0.0
 10
34.3402
 20
-71.8855
 30
0.0
 10
34.3402
 20
-71.8855
 30
0.0
 10
34.3404
 20
-71.8857
 30
0.0
 10
34.3404
 20
-71.8857
 30
0.0
  0
SPLINE
  5
A7
330
1F
100
AcDbEntity
  8
layer 1
 62
     7
100
AcDbSpline
210
0.0
220
0.0
230
1.0
 70
    11
 71
     3
 72
    16
 73
    12
 74
     0
 42
0.0000000001
 43
0.0000000001
 12
1.0
 22
0.0
 32
0.0
 13
1.0
 23
0.0
 33
0.0
 40
0.0
 40
0.0
 40
0.0
 40
0.0
 40
0.25
 40
0.25
 40
0.25
 40
0.25
 40
0.5
 40
0.5
 40
0.5
 40
0.5
 40
1.0
 40
1.0
 40
1.0
 40
1.0
 10
44.3775
 20
-26.2794
 30
0.0
 10
40.5801
 20
-23.5715
 30
0.0
 10
38.7018
 20
-23.4148
 30
0.0
 10
35.5152
 20
-24.216
 30
0.0
 10
35.5152
 20
-24.216
 30
0.0
 10
37.4654
 20
-22.0288
 30
0.0
 10
38.5216
 20
-19.957
 30
0.0
 10
38.0417
 20
-14.4807
 30
0.0
 10
38.0417
 20
-14.4807
 30
0.0
 10
39.9451
 20
-19.2021
 30
0.0
 10
42.2794
 20
-22.5958
 30
0.0
 10
44.3775
 20
-26.2794
 30
0.0
  0
SPLINE
  5
A8
330
1F
100
AcDbEntity
  8
layer 1
 62
     7
100
AcDbSpline
210
0.0
220
0.0
230
1.0
 70
    11
 71
     3
 72
    28
 73
    24
 74
     0
 42
0.0000000001
 43
0.0000000001
 12
1.0
 22
0.0
 32
0.0
 13
1.0
 23
0.0
 33
0.0
 40
0.0
 40
0.0
 40
0.0
 40
0.0
 40
0.1428571428571428
 40
0.1428571428571428
 40
0.1428571428571428
 40
0.1428571428571428
 40
0.2857142857142857
 40
0.2857142857142857
 40
0.2857142857142857
 40
0.2857142857142857
 40
0.4285714285714285
 40
0.4285714285714285
 40
0.4285714285714285
 40
0.4285714285714285
 40
0.5714285714285714
 40
0.5714285714285714
 40
0.5714285714285714
 40
0.5714285714285714
 40
0.7142857142857143
 40
0.7142857142857143
 40
0.7142857142857143
 40
0.7142857142857143
 40
1.0
 40
1.0
 40
1.0
 40
1.0
 10
35.1297
 20
-9.0481
 30
0.0
 10
33.4892
 20
-6.9089
 30
0.0
 10
31.1014
 20
-4.8945
 30
0.0
 10
28.4934
 20
-4.641
 30
0.0
 10
28.4934
 20
-4.641
 30
0.0
 10
29.155
 20
-4.0222
 30
0.0
 10
29.7394
 20
-2.6134
 30
0.0
 10
30.3963
 20
-1.3872
 30
0.0
 10
30.3963
 20
-1.3872
 30
0.0
 10
27.4278
 20
-0.4461
 30
0.0
 10
24.3448
 20
1.1355
 30
0.0
 10
22.9409
 20
2.6622
 30
0.0
 10
22.9409
 20
2.6622
 30
0.0
 10
26.0888
 20
4.7164
 30
0.0
 10
29.4068
 20
5.9272
 30
0.0
 10
33.3179
 20
6.1437
 30
0.0
 10
33.3179
 20
6.1437
 30
0.0
 10
33.159
 20
1.4889
 30
0.0
 10
33.3642
 20
-3.3685
 30
0.0
 10
35.1297
 20
-9.048
 30
0.0
 10
35.1297
 20
-9.048
 30
0.0
 10
35.1297
 20
-9.048
 30
0.0
 10
35.1297
 20
-9.0481
 30
0.0
 10
35.1297
 20
-9.0481
 30
0.0
  0
SPLINE
  5
A9
330
1F
100
AcDbEntity
  8
layer 1
 62
     7
100
AcDbSpline
210
0.0
220
0.0
230
1.0
 70
    11
 71
     3
 72
    36
 73
    32
 74
     0
 42
0.0000000001
 43
0.0000000001
 12
1.0
 22
0.0
 32
0.0
 13
1.0
 23
0.0
 33
0.0
 40
0.0
 40
0.0
 40
0.0
 40
0.0
 40
0.1111111111111111
 40
0.1111111111111111
 40
0.1111111111111111
 40
0.1111111111111111
 40
0.2222222222222222
 40
0.2222222222222222
 40
0.2222222222222222
 40
0.2222222222222222
 40
0.3333333333333333
 40
0.3333333333333333
 40
0.3333333333333333
 40
0.3333333333333333
 40
0.4444444444444444
 40
0.4444444444444444
 40
0.4444444444444444
 40
0.4444444444444444
 40
0.5555555555555556
 40
0.5555555555555556
 40
0.5555555555555556
 40
0.5555555555555556
 40
0.6666666666666666
 40
0.6666666666666666
 40
0.6666666666666666
 40
0.6666666666666666
 40
0.7777777777777778
 40
0.7777777777777778
 40
0.7777777777777778
 40
0.7777777777777778
 40
1.0
 40
1.0
 40
1.0
 40
1.0
 10
29.6077
 20
-17.7636
 30
0.0
 10
27.7214
 20
-22.9253
 30
0.0
 10
21.2323
 20
-21.4782
 30
0.0
 10
19.3393
 20
-15.0218
 30
0.0
 10
19.3393
 20
-15.0218
 30
0.0
 10
16.5693
 20
-16.6537
 30
0.0
 10
15.3848
 20
-17.7304
 30
0.0
 10
14.2558
 20
-19.211
 30
0.0
 10
14.2558
 20
-19.211
 30
0.0
 10
13.5867
 20
-18.7253
 30
0.0
 10
13.2397
 20
-17.3165
 30
0.0
 10
13.3644
 20
-15.6247
 30
0.0
 10
13.3644
 20
-15.6247
 30
0.0
 10
13.7888
 20
-8.6293
 30
0.0
 10
15.0305
 20
-6.715
 30
0.0
 10
17.6183
 20
-2.1281
 30
0.0
 10
17.6183
 20
-2.1281
 30
0.0
 10
19.4355
 20
-3.5336
 30
0.0
 10
20.4915
 20
-4.4516
 30
0.0
 10
22.6728
 20
-5.4327
 30
0.0
 10
22.6728
 20
-5.4327
 30
0.0
 10
22.018
 20
-7.0058
 30
0.0
 10
21.5784
 20
-7.9829
 30
0.0
 10
21.158
 20
-9.1735
 30
0.0
 10
21.158
 20
-9.1735
 30
0.0
 10
25.5593
 20
-8.6246
 30
0.0
 10
30.3932
 20
-12.2884
 30
0.0
 10
29.6075
 20
-17.7636
 30
0.0
 10
29.6075
 20
-17.7636
 30
0.0
 10
29.6075
 20
-17.7636
 30
0.0
 10
29.6077
 20
-17.7636
 30
0.0
 10
29.6077
 20
-17.7636
 30
0.0
  0
SPLINE
  5
AA
330
1F
100
AcDbEntity
  8
layer 1
 62
     7
100
AcDbSpline
210
0.0
220
0.0
230
1.0
 70
    11
 71
     3
 72
    16
 73
    12
 74
     0
 42
0.0000000001
 43
0.0000000001
 12
1.0
 22
0.0
 32
0.0
 13
1.0
 23
0.0
 33
0.0
 40
0.0
 40
0.0
 40
0.0
 40
0.0
 40
0.25
 40
0.25
 40
0.25
 40
0.25
 40
0.5
 40
0.5
 40
0.5
 40
0.5
 40
1.0
 40
1.0
 40
1.0
 40
1.0
 10
76.3999
 20
-47.8851
 30
0.0
 10
71.7876
 20
-48.1227
 30
0.0
 10
70.4625
 20
-49.5838
 30
0.0
 10
68.3803
 20
-51.5441
 30
0.0
 10
68.3803
 20
-51.5441
 30
0.0
 10
67.9671
 20
-48.5893
 30
0.0
 10
66.7768
 20
-46.1245
 30
0.0
 10
64.3937
 20
-43.781
 30
0.0
 10
64.3937
 20
-43.781
 30
0.0
 10
69.044
 20
-45.8517
 30
0.0
 10
72.3311
 20
-46.6957
 30
0.0
 10
76.3999
 20
-47.8851
 30
0.0
  0
SPLINE
  5
AB
330
1F
100
AcDbEntity
  8
layer 1
 62
     7
100
AcDbSpline
210
0.0
220
0.0
230
1.0
 70
    11
 71
     3
 72
    24
 73
    20
 74
     0
 42
0.0000000001
 43
0.0000000001
 12
1.0
 22
0.0
 32
0.0
 13
1.0
 23
0.0
 33
0.0
 40
0.0
 40
0.0
 40
0.0
 40
0.0
 40
0.1666666666666667
 40
0.1666666666666667
 40
0.1666666666666667
 40
0.1666666666666667
 40
0.3333333333333333
 40
0.3333333333333333
 40
0.3333333333333333
 40
0.3333333333333333
 40
0.5
 40
0.5
 40
0.5
 40
0.5
 40
0.6666666666666666
 40
0.6666666666666666
 40
0.6666666666666666
 40
0.6666666666666666
 40
1.0
 40
1.0
 40
1.0
 40
1.0
 10
48.8062
 20
-32.3985
 30
0.0
 10
49.7958
 20
-34.9061
 30
0.0
 10
50.2933
 20
-37.9903
 30
0.0
 10
49.1681
 20
-40.3567
 30
0.0
 10
49.1681
 20
-40.3567
 30
0.0
 10
50.0391
 20
-40.1081
 30
0.0
 10
51.5478
 20
-40.3322
 30
0.0
 10
52.9372
 20
-40.4002
 30
0.0
 10
52.9372
 20
-40.4002
 30
0.0
 10
52.2159
 20
-43.4298
 30
0.0
 10
51.9848
 20
-46.8869
 30
0.0
 10
52.5709
 20
-48.8763
 30
0.0
 10
52.5709
 20
-48.8763
 30
0.0
 10
55.9524
 20
-47.2352
 30
0.0
 10
58.6986
 20
-45.0137
 30
0.0
 10
60.8976
 20
-41.7722
 30
0.0
 10
60.8976
 20
-41.7722
 30
0.0
 10
56.8252
 20
-39.5123
 30
0.0
 10
52.7665
 20
-36.8356
 30
0.0
 10
48.8062
 20
-32.3985
 30
0.0
  0
SPLINE
  5
AC
330
1F
100
AcDbEntity
  8
layer 1
 62
     7
100
AcDbSpline
210
0.0
220
0.0
230
1.0
 70
    11
 71
     3
 72
    32
 73
    28
 74
     0
 42
0.0000000001
 43
0.0000000001
 12
1.0
 22
0.0
 32
0.0
 13
1.0
 23
0.0
 33
0.0
 40
0.0
 40
0.0
 40
0.0
 40
0.0
 40
0.125
 40
0.125
 40
0.125
 40
0.125
 40
0.25
 40
0.25
 40
0.25
 40
0.25
 40
0.375
 40
0.375
 40
0.375
 40
0.375
 40
0.5
 40
0.5
 40
0.5
 40
0.5
 40
0.625
 40
0.625
 40
0.625
 40
0.625
 40
0.75
 40
0.75
 40
0.75
 40
0.75
 40
1.0
 40
1.0
 40
1.0
 40
1.0
 10
39.1363
 20
-32.1426
 30
0.0
 10
33.8878
 20
-30.5133
 30
0.0
 10
31.1045
 20
-36.5511
 30
0.0
 10
35.0912
 20
-41.9707
 30
0.0
 10
35.0912
 20
-41.9707
 30
0.0
 10
32.1142
 20
-43.1841
 30
0.0
 10
30.5397
 20
-43.4733
 30
0.0
 10
28.6778
 20
-43.4735
 30
0.0
 10
28.6778
 20
-43.4735
 30
0.0
 10
28.6585
 20
-44.3
 30
0.0
 10
29.5685
 20
-45.4302
 30
0.0
 10
30.9895
 20
-46.3567
 30
0.0
 10
30.9895
 20
-46.3567
 30
0.0
 10
36.8099
 20
-50.2604
 30
0.0
 10
39.0851
 20
-50.4335
 30
0.0
 10
44.3018
 20
-51.1565
 30
0.0
 10
44.3018
 20
-51.1565
 30
0.0
 10
44.2858
 20
-48.8592
 30
0.0
 10
44.1959
 20
-47.4628
 30
0.0
 10
44.7383
 20
-45.1333
 30
0.0
 10
44.7383
 20
-45.1333
 30
0.0
 10
43.0904
 20
-44.7003
 30
0.0
 10
42.0467
 20
-44.4575
 30
0.0
 10
40.8449
 20
-44.07
 30
0.0
 10
40.8449
 20
-44.07
 30
0.0
 10
43.9499
 20
-40.9027
 30
0.0
 10
43.967
 20
-34.8372
 30
0.0
 10
39.1363
 20
-32.1426
 30
0.0
  0
SPLINE
  5
AD
330
1F
100
AcDbEntity
  8
layer 1
 62
     7
100
AcDbSpline
210
0.0
220
0.0
230
1.0
 70
    11
 71
     3
 72
    20
 73
    16
 74
     0
 42
0.0000000001
 43
0.0000000001
 12
1.0
 22
0.0
 32
0.0
 13
1.0
 23
0.0
 33
0.0
 40
0.0
 40
0.0
 40
0.0
 40
0.0
 40
0.2
 40
0.2
 40
0.2
 40
0.2
 40
0.4
 40
0.4
 40
0.4
 40
0.4
 40
0.6
 40
0.6
 40
0.6
 40
0.6
 40
1.0
 40
1.0
 40
1.0
 40
1.0
 10
58.8947
 20
-2.0284
 30
0.0
 10
56.375
 20
-5.8985
 30
0.0
 10
46.6113
 20
-3.0621
 30
0.0
 10
45.9235
 20
7.2272
 30
0.0
 10
45.9235
 20
7.2272
 30
0.0
 10
46.5756
 20
17.5166
 30
0.0
 10
56.3393
 20
20.3529
 30
0.0
 10
58.8589
 20
16.4828
 30
0.0
 10
58.8589
 20
16.4828
 30
0.0
 10
54.8053
 20
12.2945
 30
0.0
 10
53.3227
 20
10.7337
 30
0.0
 10
50.4976
 20
7.2272
 30
0.0
 10
50.4976
 20
7.2272
 30
0.0
 10
53.3584
 20
3.7207
 30
0.0
 10
54.841
 20
2.1599
 30
0.0
 10
58.8947
 20
-2.0284
 30
0.0
  0
SPLINE
  5
AE
330
1F
100
AcDbEntity
  8
layer 1
 62
     7
100
AcDbSpline
210
0.0
220
0.0
230
1.0
 70
    11
 71
     3
 72
    20
 73
    16
 74
     0
 42
0.0000000001
 43
0.0000000001
 12
1.0
 22
0.0
 32
0.0
 13
1.0
 23
0.0
 33
0.0
 40
0.0
 40
0.0
 40
0.0
 40
0.0
 40
0.2
 40
0.2
 40
0.2
 40
0.2
 40
0.4
 40
0.4
 40
0.4
 40
0.4
 40
0.6
 40
0.6
 40
0.6
 40
0.6
 40
1.0
 40
1.0
 40
1.0
 40
1.0
 10
83.159
 20
-48.87
 30
0.0
 10
86.4164
 20
-50.8775
 30
0.0
 10
89.1913
 20
-53.743
 30
0.0
 10
89.2034
 20
-57.5719
 30
0.0
 10
89.2034
 20
-57.5719
 30
0.0
 10
89.2154
 20
-53.7428
 30
0.0
 10
91.9901
 20
-50.8775
 30
0.0
 10
95.2477
 20
-48.87
 30
0.0
 10
95.2477
 20
-48.87
 30
0.0
 10
92.764
 20
-49.176
 30
0.0
 10
91.1478
 20
-49.1772
 30
0.0
 10
89.2034
 20
-49.1741
 30
0.0
 10
89.2034
 20
-49.1741
 30
0.0
 10
87.2589
 20
-49.1772
 30
0.0
 10
85.6427
 20
-49.176
 30
0.0
 10
83.159
 20
-48.87
 30
0.0
  0
SPLINE
  5
AF
330
1F
100
AcDbEntity
  8
layer 1
 62
     7
100
AcDbSpline
210
0.0
220
0.0
230
1.0
 70
    11
 71
     3
 72
    16
 73
    12
 74
     0
 42
0.0000000001
 43
0.0000000001
 12
1.0
 22
0.0
 32
0.0
 13
1.0
 23
0.0
 33
0.0
 40
0.0
 40
0.0
 40
0.0
 40
0.0
 40
0.25
 40
0.25
 40
0.25
 40
0.25
 40
0.5
 40
0.5
 40
0.5
 40
0.5
 40
1.0
 40
1.0
 40
1.0
 40
1.0
 10
117.8095
 20
-74.6346
 30
0.0
 10
121.8583
 20
-72.0368
 30
0.0
 10
130.3549
 20
-64.2199
 30
0.0
 10
132.029
 20
-57.3745
 30
0.0
 10
132.029
 20
-57.3745
 30
0.0
 10
136.3243
 20
-58.2207
 30
0.0
 10
141.5059
 20
-58.6186
 30
0.0
 10
150.9614
 20
-52.8932
 30
0.0
 10
150.9614
 20
-52.8932
 30
0.0
 10
140.0966
 20
-63.6175
 30
0.0
 10
128.3111
 20
-70.5103
 30
0.0
 10
117.8095
 20
-74.6346
 30
0.0
  0
SPLINE
  5
B0
330
1F
100
AcDbEntity
  8
layer 1
 62
     7
100
AcDbSpline
210
0.0
220
0.0
230
1.0
 70
    11
 71
     3
 72
    28
 73
    24
 74
     0
 42
0.0000000001
 43
0.0000000001
 12
1.0
 22
0.0
 32
0.0
 13
1.0
 23
0.0
 33
0.0
 40
0.0
 40
0.0
 40
0.0
 40
0.0
 40
0.1428571428571428
 40
0.1428571428571428
 40
0.1428571428571428
 40
0.1428571428571428
 40
0.2857142857142857
 40
0.2857142857142857
 40
0.2857142857142857
 40
0.2857142857142857
 40
0.4285714285714285
 40
0.4285714285714285
 40
0.4285714285714285
 40
0.4285714285714285
 40
0.5714285714285714
 40
0.5714285714285714
 40
0.5714285714285714
 40
0.5714285714285714
 40
0.7142857142857143
 40
0.7142857142857143
 40
0.7142857142857143
 40
0.7142857142857143
 40
1.0
 40
1.0
 40
1.0
 40
1.0
 10
104.8432
 20
-72.0218
 30
0.0
 10
105.6653
 20
-69.9351
 30
0.0
 10
105.6996
 20
-67.8877
 30
0.0
 10
105.5655
 20
-65.3637
 30
0.0
 10
105.5655
 20
-65.3637
 30
0.0
 10
86.595
 20
-64.2693
 30
0.0
 10
99.8368
 20
-44.8131
 30
0.0
 10
111.1283
 20
-61.148
 30
0.0
 10
111.1283
 20
-61.148
 30
0.0
 10
113.0571
 20
-60.1542
 30
0.0
 10
114.2681
 20
-57.585
 30
0.0
 10
116.9645
 20
-54.2854
 30
0.0
 10
116.9645
 20
-54.2854
 30
0.0
 10
119.0641
 20
-55.4983
 30
0.0
 10
120.3806
 20
-56.4666
 30
0.0
 10
124.4485
 20
-56.5701
 30
0.0
 10
124.4485
 20
-56.5701
 30
0.0
 10
121.5183
 20
-61.5854
 30
0.0
 10
115.3449
 20
-68.7685
 30
0.0
 10
104.8434
 20
-72.022
 30
0.0
 10
104.8434
 20
-72.022
 30
0.0
 10
104.8434
 20
-72.022
 30
0.0
 10
104.8432
 20
-72.0218
 30
0.0
 10
104.8432
 20
-72.0218
 30
0.0
  0
SPLINE
  5
B1
330
1F
100
AcDbEntity
  8
layer 1
 62
     7
100
AcDbSpline
210
0.0
220
0.0
230
1.0
 70
    11
 71
     3
 72
    28
 73
    24
 74
     0
 42
0.0000000001
 43
0.0000000001
 12
1.0
 22
0.0
 32
0.0
 13
1.0
 23
0.0
 33
0.0
 40
0.0
 40
0.0
 40
0.0
 40
0.0
 40
0.1428571428571428
 40
0.1428571428571428
 40
0.1428571428571428
 40
0.1428571428571428
 40
0.2857142857142857
 40
0.2857142857142857
 40
0.2857142857142857
 40
0.2857142857142857
 40
0.4285714285714285
 40
0.4285714285714285
 40
0.4285714285714285
 40
0.4285714285714285
 40
0.5714285714285714
 40
0.5714285714285714
 40
0.5714285714285714
 40
0.5714285714285714
 40
0.7142857142857143
 40
0.7142857142857143
 40
0.7142857142857143
 40
0.7142857142857143
 40
1.0
 40
1.0
 40
1.0
 40
1.0
 10
160.0949
 20
-40.8642
 30
0.0
 10
157.5804
 20
-39.7678
 30
0.0
 10
154.9495
 20
-38.9559
 30
0.0
 10
152.9875
 20
-38.7042
 30
0.0
 10
152.9875
 20
-38.7042
 30
0.0
 10
153.0298
 20
-36.7882
 30
0.0
 10
155.046
 20
-32.4165
 30
0.0
 10
150.3174
 20
-28.3454
 30
0.0
 10
150.3174
 20
-28.3454
 30
0.0
 10
153.9511
 20
-29.6447
 30
0.0
 10
158.1848
 20
-28.3039
 30
0.0
 10
160.7614
 20
-25.5619
 30
0.0
 10
160.7614
 20
-25.5619
 30
0.0
 10
162.3629
 20
-26.961
 30
0.0
 10
164.115
 20
-28.5517
 30
0.0
 10
166.1533
 20
-29.7666
 30
0.0
 10
166.1533
 20
-29.7666
 30
0.0
 10
164.0939
 20
-34.3949
 30
0.0
 10
162.4686
 20
-37.03
 30
0.0
 10
160.0951
 20
-40.8642
 30
0.0
 10
160.0951
 20
-40.8642
 30
0.0
 10
160.0951
 20
-40.8642
 30
0.0
 10
160.0949
 20
-40.8642
 30
0.0
 10
160.0949
 20
-40.8642
 30
0.0
  0
SPLINE
  5
B2
330
1F
100
AcDbEntity
  8
layer 1
 62
     7
100
AcDbSpline
210
0.0
220
0.0
230
1.0
 70
    11
 71
     3
 72
    20
 73
    16
 74
     0
 42
0.0000000001
 43
0.0000000001
 12
1.0
 22
0.0
 32
0.0
 13
1.0
 23
0.0
 33
0.0
 40
0.0
 40
0.0
 40
0.0
 40
0.0
 40
0.2
 40
0.2
 40
0.2
 40
0.2
 40
0.4
 40
0.4
 40
0.4
 40
0.4
 40
0.6
 40
0.6
 40
0.6
 40
0.6
 40
1.0
 40
1.0
 40
1.0
 40
1.0
 10
149.4473
 20
-67.3735
 30
0.0
 10
154.2708
 20
-65.4533
 30
0.0
 10
157.5398
 20
-64.8915
 30
0.0
 10
161.9661
 20
-65.8299
 30
0.0
 10
161.9661
 20
-65.8299
 30
0.0
 10
161.1199
 20
-61.5346
 30
0.0
 10
161.593
 20
-58.4817
 30
0.0
 10
163.6414
 20
-53.1871
 30
0.0
 10
163.6414
 20
-53.1871
 30
0.0
 10
158.7228
 20
-59.7945
 30
0.0
 10
155.7005
 20
-62.5809
 30
0.0
 10
149.4475
 20
-67.3735
 30
0.0
 10
149.4475
 20
-67.3735
 30
0.0
 10
149.4475
 20
-67.3735
 30
0.0
 10
149.4473
 20
-67.3735
 30
0.0
 10
149.4473
 20
-67.3735
 30
0.0
  0
SPLINE
  5
B3
330
1F
100
AcDbEntity
  8
layer 1
 62
     7
100
AcDbSpline
210
0.0
220
0.0
230
1.0
 70
    11
 71
     3
 72
    20
 73
    16
 74
     0
 42
0.0000000001
 43
0.0000000001
 12
1.0
 22
0.0
 32
0.0
 13
1.0
 23
0.0
 33
0.0
 40
0.0
 40
0.0
 40
0.0
 40
0.0
 40
0.2
 40
0.2
 40
0.2
 40
0.2
 40
0.4
 40
0.4
 40
0.4
 40
0.4
 40
0.6
 40
0.6
 40
0.6
 40
0.6
 40
1.0
 40
1.0
 40
1.0
 40
1.0
 10
169.0901
 20
-45.2147
 30
0.0
 10
173.1922
 20
-42.8828
 30
0.0
 10
180.7072
 20
-39.1813
 30
0.0
 10
180.2154
 20
-31.5124
 30
0.0
 10
180.2154
 20
-31.5124
 30
0.0
 10
181.8593
 20
-31.0905
 30
0.0
 10
184.0717
 20
-33.8702
 30
0.0
 10
185.3152
 20
-37.6717
 30
0.0
 10
185.3152
 20
-37.6717
 30
0.0
 10
185.3152
 20
-37.6717
 30
0.0
 10
185.3152
 20
-5.1926
 30
0.0
 10
185.3152
 20
-5.1926
 30
0.0
 10
185.3152
 20
-5.1926
 30
0.0
 10
181.7513
 20
-18.9602
 30
0.0
 10
177.5688
 20
-34.5195
 30
0.0
 10
169.0901
 20
-45.2147
 30
0.0
  0
SPLINE
  5
B4
330
1F
100
AcDbEntity
  8
layer 1
 62
     7
100
AcDbSpline
210
0.0
220
0.0
230
1.0
 70
    11
 71
     3
 72
    16
 73
    12
 74
     0
 42
0.0000000001
 43
0.0000000001
 12
1.0
 22
0.0
 32
0.0
 13
1.0
 23
0.0
 33
0.0
 40
0.0
 40
0.0
 40
0.0
 40
0.0
 40
0.25
 40
0.25
 40
0.25
 40
0.25
 40
0.5
 40
0.5
 40
0.5
 40
0.5
 40
1.0
 40
1.0
 40
1.0
 40
1.0
 10
162.8008
 20
-89.4142
 30
0.0
 10
165.6091
 20
-87.1179
 30
0.0
 10
166.5002
 20
-85.3415
 30
0.0
 10
167.1588
 20
-81.8275
 30
0.0
 10
167.1588
 20
-81.8275
 30
0.0
 10
169.8691
 20
-85.3954
 30
0.0
 10
173.4749
 20
-87.6067
 30
0.0
 10
177.8848
 20
-89.4142
 30
0.0
 10
177.8848
 20
-89.4142
 30
0.0
 10
177.8848
 20
-89.4142
 30
0.0
 10
162.8008
 20
-89.4142
 30
0.0
 10
162.8008
 20
-89.4142
 30
0.0
  0
SPLINE
  5
B5
330
1F
100
AcDbEntity
  8
layer 1
 62
     7
100
AcDbSpline
210
0.0
220
0.0
230
1.0
 70
    11
 71
     3
 72
    16
 73
    12
 74
     0
 42
0.0000000001
 43
0.0000000001
 12
1.0
 22
0.0
 32
0.0
 13
1.0
 23
0.0
 33
0.0
 40
0.0
 40
0.0
 40
0.0
 40
0.0
 40
0.25
 40
0.25
 40
0.25
 40
0.25
 40
0.5
 40
0.5
 40
0.5
 40
0.5
 40
1.0
 40
1.0
 40
1.0
 40
1.0
 10
149.284
 20
-89.4142
 30
0.0
 10
150.8124
 20
-87.5274
 30
0.0
 10
152.1641
 20
-85.9048
 30
0.0
 10
152.5667
 20
-84.6947
 30
0.0
 10
152.5667
 20
-84.6947
 30
0.0
 10
153.4851
 20
-86.5731
 30
0.0
 10
155.4013
 20
-88.1698
 30
0.0
 10
157.456
 20
-89.4142
 30
0.0
 10
157.456
 20
-89.4142
 30
0.0
 10
157.456
 20
-89.4142
 30
0.0
 10
149.284
 20
-89.4142
 30
0.0
 10
149.284
 20
-89.4142
 30
0.0
  0
SPLINE
  5
B6
330
1F
100
AcDbEntity
  8
layer 1
 62
     7
100
AcDbSpline
210
0.0
220
0.0
230
1.0
 70
    11
 71
     3
 72
    16
 73
    12
 74
     0
 42
0.0000000001
 43
0.0000000001
 12
1.0
 22
0.0
 32
0.0
 13
1.0
 23
0.0
 33
0.0
 40
0.0
 40
0.0
 40
0.0
 40
0.0
 40
0.25
 40
0.25
 40
0.25
 40
0.25
 40
0.5
 40
0.5
 40
0.5
 40
0.5
 40
1.0
 40
1.0
 40
1.0
 40
1.0
 10
138.6218
 20
-89.4142
 30
0.0
 10
141.2254
 20
-87.681
 30
0.0
 10
142.577
 20
-85.2903
 30
0.0
 10
142.9798
 20
-84.0803
 30
0.0
 10
142.9798
 20
-84.0803
 30
0.0
 10
144.3589
 20
-87.1875
 30
0.0
 10
145.8143
 20
-85.8146
 30
0.0
 10
147.5617
 20
-89.4142
 30
0.0
 10
147.5617
 20
-89.4142
 30
0.0
 10
147.5617
 20
-89.4142
 30
0.0
 10
138.6218
 20
-89.4142
 30
0.0
 10
138.6218
 20
-89.4142
 30
0.0
  0
SPLINE
  5
B7
330
1F
100
AcDbEntity
  8
layer 1
 62
     7
100
AcDbSpline
210
0.0
220
0.0
230
1.0
 70
    11
 71
     3
 72
    16
 73
    12
 74
     0
 42
0.0000000001
 43
0.0000000001
 12
1.0
 22
0.0
 32
0.0
 13
1.0
 23
0.0
 33
0.0
 40
0.0
 40
0.0
 40
0.0
 40
0.0
 40
0.25
 40
0.25
 40
0.25
 40
0.25
 40
0.5
 40
0.5
 40
0.5
 40
0.5
 40
1.0
 40
1.0
 40
1.0
 40
1.0
 10
185.3152
 20
-66.8148
 30
0.0
 10
183.0188
 20
-69.6231
 30
0.0
 10
181.2424
 20
-70.5141
 30
0.0
 10
177.7284
 20
-71.1727
 30
0.0
 10
177.7284
 20
-71.1727
 30
0.0
 10
181.2964
 20
-73.883
 30
0.0
 10
183.5076
 20
-77.4888
 30
0.0
 10
185.3152
 20
-81.8988
 30
0.0
 10
185.3152
 20
-81.8988
 30
0.0
 10
185.3152
 20
-81.8988
 30
0.0
 10
185.3152
 20
-66.8148
 30
0.0
 10
185.3152
 20
-66.8148
 30
0.0
  0
SPLINE
  5
B8
330
1F
100
AcDbEntity
  8
layer 1
 62
     7
100
AcDbSpline
210
0.0
220
0.0
230
1.0
 70
    11
 71
     3
 72
    16
 73
    12
 74
     0
 42
0.0000000001
 43
0.0000000001
 12
1.0
 22
0.0
 32
0.0
 13
1.0
 23
0.0
 33
0.0
 40
0.0
 40
0.0
 40
0.0
 40
0.0
 40
0.25
 40
0.25
 40
0.25
 40
0.25
 40
0.5
 40
0.5
 40
0.5
 40
0.5
 40
1.0
 40
1.0
 40
1.0
 40
1.0
 10
185.3152
 20
-52.4532
 30
0.0
 10
183.4283
 20
-53.9816
 30
0.0
 10
181.8058
 20
-55.3333
 30
0.0
 10
180.5956
 20
-55.7359
 30
0.0
 10
180.5956
 20
-55.7359
 30
0.0
 10
182.4741
 20
-56.6543
 30
0.0
 10
184.0708
 20
-58.5705
 30
0.0
 10
185.3152
 20
-60.6252
 30
0.0
 10
185.3152
 20
-60.6252
 30
0.0
 10
185.3152
 20
-60.6252
 30
0.0
 10
185.3152
 20
-52.4532
 30
0.0
 10
185.3152
 20
-52.4532
 30
0.0
  0
SPLINE
  5
B9
330
1F
100
AcDbEntity
  8
layer 1
 62
     7
100
AcDbSpline
210
0.0
220
0.0
230
1.0
 70
    11
 71
     3
 72
    16
 73
    12
 74
     0
 42
0.0000000001
 43
0.0000000001
 12
1.0
 22
0.0
 32
0.0
 13
1.0
 23
0.0
 33
0.0
 40
0.0
 40
0.0
 40
0.0
 40
0.0
 40
0.25
 40
0.25
 40
0.25
 40
0.25
 40
0.5
 40
0.5
 40
0.5
 40
0.5
 40
1.0
 40
1.0
 40
1.0
 40
1.0
 10
185.3152
 20
-41.778
 30
0.0
 10
184.0427
 20
-44.5863
 30
0.0
 10
182.2665
 20
-46.2454
 30
0.0
 10
180.1349
 20
-47.3648
 30
0.0
 10
180.1349
 20
-47.3648
 30
0.0
 10
182.218
 20
-48.0271
 30
0.0
 10
183.7125
 20
-48.5097
 30
0.0
 10
185.3152
 20
-49.5915
 30
0.0
 10
185.3152
 20
-49.5915
 30
0.0
 10
185.3152
 20
-49.5915
 30
0.0
 10
185.3152
 20
-41.778
 30
0.0
 10
185.3152
 20
-41.778
 30
0.0
  0
SPLINE
  5
BA
330
1F
100
AcDbEntity
  8
layer 1
 62
     7
100
AcDbSpline
210
0.0
220
0.0
230
1.0
 70
    11
 71
     3
 72
    20
 73
    16
 74
     0
 42
0.0000000001
 43
0.0000000001
 12
1.0
 22
0.0
 32
0.0
 13
1.0
 23
0.0
 33
0.0
 40
0.0
 40
0.0
 40
0.0
 40
0.0
 40
0.2
 40
0.2
 40
0.2
 40
0.2
 40
0.4
 40
0.4
 40
0.4
 40
0.4
 40
0.6
 40
0.6
 40
0.6
 40
0.6
 40
1.0
 40
1.0
 40
1.0
 40
1.0
 10
167.828
 20
-65.7351
 30
0.0
 10
171.2689
 20
-66.4262
 30
0.0
 10
172.49
 20
-66.9906
 30
0.0
 10
175.5852
 20
-68.9019
 30
0.0
 10
175.5852
 20
-68.9019
 30
0.0
 10
174.7189
 20
-67.9782
 30
0.0
 10
174.1427
 20
-67.114
 30
0.0
 10
174.3309
 20
-66.3384
 30
0.0
 10
174.3309
 20
-66.3384
 30
0.0
 10
179.1265
 20
-65.8984
 30
0.0
 10
178.4544
 20
-61.1426
 30
0.0
 10
173.6253
 20
-60.4063
 30
0.0
 10
173.6253
 20
-60.4063
 30
0.0
 10
170.1402
 20
-60.0503
 30
0.0
 10
166.9133
 20
-62.0177
 30
0.0
 10
167.828
 20
-65.7351
 30
0.0
  0
SPLINE
  5
BB
330
1F
100
AcDbEntity
  8
layer 1
 62
     7
100
AcDbSpline
210
0.0
220
0.0
230
1.0
 70
    11
 71
     3
 72
    20
 73
    16
 74
     0
 42
0.0000000001
 43
0.0000000001
 12
1.0
 22
0.0
 32
0.0
 13
1.0
 23
0.0
 33
0.0
 40
0.0
 40
0.0
 40
0.0
 40
0.0
 40
0.2
 40
0.2
 40
0.2
 40
0.2
 40
0.4
 40
0.4
 40
0.4
 40
0.4
 40
0.6
 40
0.6
 40
0.6
 40
0.6
 40
1.0
 40
1.0
 40
1.0
 40
1.0
 10
162.0193
 20
-72.9665
 30
0.0
 10
162.6596
 20
-75.4391
 30
0.0
 10
163.1693
 20
-76.6618
 30
0.0
 10
164.68
 20
-78.8337
 30
0.0
 10
164.68
 20
-78.8337
 30
0.0
 10
163.9754
 20
-78.2417
 30
0.0
 10
163.0184
 20
-77.2947
 30
0.0
 10
162.4638
 20
-77.463
 30
0.0
 10
162.4638
 20
-77.463
 30
0.0
 10
162.339
 20
-80.9658
 30
0.0
 10
157.1749
 20
-81.1823
 30
0.0
 10
156.4457
 20
-77.7028
 30
0.0
 10
156.4457
 20
-77.7028
 30
0.0
 10
156.0466
 20
-75.1846
 30
0.0
 10
159.2365
 20
-72.7084
 30
0.0
 10
162.0193
 20
-72.9665
 30
0.0
  0
SPLINE
  5
BC
330
1F
100
AcDbEntity
  8
layer 1
 62
     7
100
AcDbSpline
210
0.0
220
0.0
230
1.0
 70
    11
 71
     3
 72
    12
 73
     8
 74
     0
 42
0.0000000001
 43
0.0000000001
 12
1.0
 22
0.0
 32
0.0
 13
1.0
 23
0.0
 33
0.0
 40
0.0
 40
0.0
 40
0.0
 40
0.0
 40
0.3333333333333333
 40
0.3333333333333333
 40
0.3333333333333333
 40
0.3333333333333333
 40
1.0
 40
1.0
 40
1.0
 40
1.0
 10
182.797
 20
-86.6085
 30
0.0
 10
180.0151
 20
-78.8654
 30
0.0
 10
173.0575
 20
-74.5684
 30
0.0
 10
168.2304
 20
-74.0417
 30
0.0
 10
168.2304
 20
-74.0417
 30
0.0
 10
170.5022
 20
-80.1721
 30
0.0
 10
177.5497
 20
-85.5352
 30
0.0
 10
182.797
 20
-86.6085
 30
0.0
  0
SPLINE
  5
BD
330
1F
100
AcDbEntity
  8
layer 1
 62
     7
100
AcDbSpline
210
0.0
220
0.0
230
1.0
 70
    11
 71
     3
 72
    24
 73
    20
 74
     0
 42
0.0000000001
 43
0.0000000001
 12
1.0
 22
0.0
 32
0.0
 13
1.0
 23
0.0
 33
0.0
 40
0.0
 40
0.0
 40
0.0
 40
0.0
 40
0.1666666666666667
 40
0.1666666666666667
 40
0.1666666666666667
 40
0.1666666666666667
 40
0.3333333333333333
 40
0.3333333333333333
 40
0.3333333333333333
 40
0.3333333333333333
 40
0.5
 40
0.5
 40
0.5
 40
0.5
 40
0.6666666666666666
 40
0.6666666666666666
 40
0.6666666666666666
 40
0.6666666666666666
 40
1.0
 40
1.0
 40
1.0
 40
1.0
 10
144.0665
 20
-71.8857
 30
0.0
 10
141.7346
 20
-75.9878
 30
0.0
 10
134.4127
 20
-85.9646
 30
0.0
 10
126.7439
 20
-85.4729
 30
0.0
 10
126.7439
 20
-85.4729
 30
0.0
 10
126.322
 20
-87.1168
 30
0.0
 10
127.7984
 20
-88.1706
 30
0.0
 10
131.5998
 20
-89.4141
 30
0.0
 10
131.5998
 20
-89.4141
 30
0.0
 10
131.5998
 20
-89.4141
 30
0.0
 10
99.1207
 20
-89.4141
 30
0.0
 10
99.1207
 20
-89.4141
 30
0.0
 10
99.1207
 20
-89.4141
 30
0.0
 10
113.7573
 20
-87.0087
 30
0.0
 10
133.3715
 20
-80.3642
 30
0.0
 10
144.0667
 20
-71.8855
 30
0.0
 10
144.0667
 20
-71.8855
 30
0.0
 10
144.0667
 20
-71.8855
 30
0.0
 10
144.0665
 20
-71.8857
 30
0.0
 10
144.0665
 20
-71.8857
 30
0.0
  0
SPLINE
  5
BE
330
1F
100
AcDbEntity
  8
layer 1
 62
     7
100
AcDbSpline
210
0.0
220
0.0
230
1.0
 70
    11
 71
     3
 72
    20
 73
    16
 74
     0
 42
0.0000000001
 43
0.0000000001
 12
1.0
 22
0.0
 32
0.0
 13
1.0
 23
0.0
 33
0.0
 40
0.0
 40
0.0
 40
0.0
 40
0.0
 40
0.2
 40
0.2
 40
0.2
 40
0.2
 40
0.4
 40
0.4
 40
0.4
 40
0.4
 40
0.6
 40
0.6
 40
0.6
 40
0.6
 40
1.0
 40
1.0
 40
1.0
 40
1.0
 10
171.9378
 20
-16.1188
 30
0.0
 10
172.334
 20
-11.3245
 30
0.0
 10
171.7428
 20
1.7694
 30
0.0
 10
167.3046
 20
7.2272
 30
0.0
 10
167.3046
 20
7.2272
 30
0.0
 10
171.7071
 20
12.6851
 30
0.0
 10
172.2983
 20
25.7789
 30
0.0
 10
171.9021
 20
30.5732
 30
0.0
 10
171.9021
 20
30.5732
 30
0.0
 10
173.7906
 20
23.9733
 30
0.0
 10
175.8996
 20
16.1189
 30
0.0
 10
175.8186
 20
7.2272
 30
0.0
 10
175.8186
 20
7.2272
 30
0.0
 10
175.8392
 20
-1.3278
 30
0.0
 10
173.8265
 20
-9.5189
 30
0.0
 10
171.9378
 20
-16.1188
 30
0.0
  0
SPLINE
  5
BF
330
1F
100
AcDbEntity
  8
layer 1
 62
     7
100
AcDbSpline
210
0.0
220
0.0
230
1.0
 70
    11
 71
     3
 72
    28
 73
    24
 74
     0
 42
0.0000000001
 43
0.0000000001
 12
1.0
 22
0.0
 32
0.0
 13
1.0
 23
0.0
 33
0.0
 40
0.0
 40
0.0
 40
0.0
 40
0.0
 40
0.1428571428571428
 40
0.1428571428571428
 40
0.1428571428571428
 40
0.1428571428571428
 40
0.2857142857142857
 40
0.2857142857142857
 40
0.2857142857142857
 40
0.2857142857142857
 40
0.4285714285714285
 40
0.4285714285714285
 40
0.4285714285714285
 40
0.4285714285714285
 40
0.5714285714285714
 40
0.5714285714285714
 40
0.5714285714285714
 40
0.5714285714285714
 40
0.7142857142857143
 40
0.7142857142857143
 40
0.7142857142857143
 40
0.7142857142857143
 40
1.0
 40
1.0
 40
1.0
 40
1.0
 10
143.277
 20
-9.0481
 30
0.0
 10
144.9175
 20
-6.9089
 30
0.0
 10
147.3053
 20
-4.8945
 30
0.0
 10
149.9133
 20
-4.641
 30
0.0
 10
149.9133
 20
-4.641
 30
0.0
 10
149.2517
 20
-4.0222
 30
0.0
 10
148.6673
 20
-2.6134
 30
0.0
 10
148.0104
 20
-1.3872
 30
0.0
 10
148.0104
 20
-1.3872
 30
0.0
 10
150.9789
 20
-0.4461
 30
0.0
 10
154.0619
 20
1.1355
 30
0.0
 10
155.4658
 20
2.6622
 30
0.0
 10
155.4658
 20
2.6622
 30
0.0
 10
152.3179
 20
4.7164
 30
0.0
 10
148.9999
 20
5.9272
 30
0.0
 10
145.0888
 20
6.1437
 30
0.0
 10
145.0888
 20
6.1437
 30
0.0
 10
145.2477
 20
1.4889
 30
0.0
 10
145.0425
 20
-3.3685
 30
0.0
 10
143.277
 20
-9.048
 30
0.0
 10
143.277
 20
-9.048
 30
0.0
 10
143.277
 20
-9.048
 30
0.0
 10
143.277
 20
-9.0481
 30
0.0
 10
143.277
 20
-9.0481
 30
0.0
  0
SPLINE
  5
C0
330
1F
100
AcDbEntity
  8
layer 1
 62
     7
100
AcDbSpline
210
0.0
220
0.0
230
1.0
 70
    11
 71
     3
 72
    36
 73
    32
 74
     0
 42
0.0000000001
 43
0.0000000001
 12
1.0
 22
0.0
 32
0.0
 13
1.0
 23
0.0
 33
0.0
 40
0.0
 40
0.0
 40
0.0
 40
0.0
 40
0.1111111111111111
 40
0.1111111111111111
 40
0.1111111111111111
 40
0.1111111111111111
 40
0.2222222222222222
 40
0.2222222222222222
 40
0.2222222222222222
 40
0.2222222222222222
 40
0.3333333333333333
 40
0.3333333333333333
 40
0.3333333333333333
 40
0.3333333333333333
 40
0.4444444444444444
 40
0.4444444444444444
 40
0.4444444444444444
 40
0.4444444444444444
 40
0.5555555555555556
 40
0.5555555555555556
 40
0.5555555555555556
 40
0.5555555555555556
 40
0.6666666666666666
 40
0.6666666666666666
 40
0.6666666666666666
 40
0.6666666666666666
 40
0.7777777777777778
 40
0.7777777777777778
 40
0.7777777777777778
 40
0.7777777777777778
 40
1.0
 40
1.0
 40
1.0
 40
1.0
 10
148.799
 20
-17.7636
 30
0.0
 10
150.6853
 20
-22.9253
 30
0.0
 10
157.1744
 20
-21.4782
 30
0.0
 10
159.0674
 20
-15.0218
 30
0.0
 10
159.0674
 20
-15.0218
 30
0.0
 10
161.8374
 20
-16.6537
 30
0.0
 10
163.0219
 20
-17.7304
 30
0.0
 10
164.1509
 20
-19.211
 30
0.0
 10
164.1509
 20
-19.211
 30
0.0
 10
164.82
 20
-18.7253
 30
0.0
 10
165.167
 20
-17.3165
 30
0.0
 10
165.0423
 20
-15.6247
 30
0.0
 10
165.0423
 20
-15.6247
 30
0.0
 10
164.6179
 20
-8.6293
 30
0.0
 10
163.3762
 20
-6.715
 30
0.0
 10
160.7884
 20
-2.1281
 30
0.0
 10
160.7884
 20
-2.1281
 30
0.0
 10
158.9712
 20
-3.5336
 30
0.0
 10
157.9152
 20
-4.4516
 30
0.0
 10
155.7339
 20
-5.4327
 30
0.0
 10
155.7339
 20
-5.4327
 30
0.0
 10
156.3887
 20
-7.0058
 30
0.0
 10
156.8283
 20
-7.9829
 30
0.0
 10
157.2487
 20
-9.1735
 30
0.0
 10
157.2487
 20
-9.1735
 30
0.0
 10
152.8474
 20
-8.6246
 30
0.0
 10
148.0135
 20
-12.2884
 30
0.0
 10
148.7992
 20
-17.7636
 30
0.0
 10
148.7992
 20
-17.7636
 30
0.0
 10
148.7992
 20
-17.7636
 30
0.0
 10
148.799
 20
-17.7636
 30
0.0
 10
148.799
 20
-17.7636
 30
0.0
  0
SPLINE
  5
C1
330
1F
100
AcDbEntity
  8
layer 1
 62
     7
100
AcDbSpline
210
0.0
220
0.0
230
1.0
 70
    11
 71
     3
 72
    16
 73
    12
 74
     0
 42
0.0000000001
 43
0.0000000001
 12
1.0
 22
0.0
 32
0.0
 13
1.0
 23
0.0
 33
0.0
 40
0.0
 40
0.0
 40
0.0
 40
0.0
 40
0.25
 40
0.25
 40
0.25
 40
0.25
 40
0.5
 40
0.5
 40
0.5
 40
0.5
 40
1.0
 40
1.0
 40
1.0
 40
1.0
 10
102.007
 20
-47.8851
 30
0.0
 10
106.6192
 20
-48.1227
 30
0.0
 10
107.9444
 20
-49.5838
 30
0.0
 10
110.0266
 20
-51.5441
 30
0.0
 10
110.0266
 20
-51.5441
 30
0.0
 10
110.4398
 20
-48.5893
 30
0.0
 10
111.6301
 20
-46.1245
 30
0.0
 10
114.0132
 20
-43.781
 30
0.0
 10
114.0132
 20
-43.781
 30
0.0
 10
109.3629
 20
-45.8517
 30
0.0
 10
106.0758
 20
-46.6957
 30
0.0
 10
102.007
 20
-47.8851
 30
0.0
  0
SPLINE
  5
C2
330
1F
100
AcDbEntity
  8
layer 1
 62
     7
100
AcDbSpline
210
0.0
220
0.0
230
1.0
 70
    11
 71
     3
 72
    24
 73
    20
 74
     0
 42
0.0000000001
 43
0.0000000001
 12
1.0
 22
0.0
 32
0.0
 13
1.0
 23
0.0
 33
0.0
 40
0.0
 40
0.0
 40
0.0
 40
0.0
 40
0.1666666666666667
 40
0.1666666666666667
 40
0.1666666666666667
 40
0.1666666666666667
 40
0.3333333333333333
 40
0.3333333333333333
 40
0.3333333333333333
 40
0.3333333333333333
 40
0.5
 40
0.5
 40
0.5
 40
0.5
 40
0.6666666666666666
 40
0.6666666666666666
 40
0.6666666666666666
 40
0.6666666666666666
 40
1.0
 40
1.0
 40
1.0
 40
1.0
 10
129.6005
 20
-32.3985
 30
0.0
 10
128.6109
 20
-34.9061
 30
0.0
 10
128.1134
 20
-37.9903
 30
0.0
 10
129.2386
 20
-40.3567
 30
0.0
 10
129.2386
 20
-40.3567
 30
0.0
 10
128.3676
 20
-40.1081
 30
0.0
 10
126.8589
 20
-40.3322
 30
0.0
 10
125.4695
 20
-40.4002
 30
0.0
 10
125.4695
 20
-40.4002
 30
0.0
 10
126.1908
 20
-43.4298
 30
0.0
 10
126.4219
 20
-46.8869
 30
0.0
 10
125.8358
 20
-48.8763
 30
0.0
 10
125.8358
 20
-48.8763
 30
0.0
 10
122.4543
 20
-47.2352
 30
0.0
 10
119.7081
 20
-45.0137
 30
0.0
 10
117.5091
 20
-41.7722
 30
0.0
 10
117.5091
 20
-41.7722
 30
0.0
 10
121.5815
 20
-39.5123
 30
0.0
 10
125.6402
 20
-36.8356
 30
0.0
 10
129.6005
 20
-32.3985
 30
0.0
  0
SPLINE
  5
C3
330
1F
100
AcDbEntity
  8
layer 1
 62
     7
100
AcDbSpline
210
0.0
220
0.0
230
1.0
 70
    11
 71
     3
 72
    32
 73
    28
 74
     0
 42
0.0000000001
 43
0.0000000001
 12
1.0
 22
0.0
 32
0.0
 13
1.0
 23
0.0
 33
0.0
 40
0.0
 40
0.0
 40
0.0
 40
0.0
 40
0.125
 40
0.125
 40
0.125
 40
0.125
 40
0.25
 40
0.25
 40
0.25
 40
0.25
 40
0.375
 40
0.375
 40
0.375
 40
0.375
 40
0.5
 40
0.5
 40
0.5
 40
0.5
 40
0.625
 40
0.625
 40
0.625
 40
0.625
 40
0.75
 40
0.75
 40
0.75
 40
0.75
 40
1.0
 40
1.0
 40
1.0
 40
1.0
 10
139.2704
 20
-32.1426
 30
0.0
 10
144.5189
 20
-30.5133
 30
0.0
 10
147.3022
 20
-36.5511
 30
0.0
 10
143.3155
 20
-41.9707
 30
0.0
 10
143.3155
 20
-41.9707
 30
0.0
 10
146.2925
 20
-43.1841
 30
0.0
 10
147.867
 20
-43.4733
 30
0.0
 10
149.7289
 20
-43.4735
 30
0.0
 10
149.7289
 20
-43.4735
 30
0.0
 10
149.7482
 20
-44.3
 30
0.0
 10
148.8382
 20
-45.4302
 30
0.0
 10
147.4172
 20
-46.3567
 30
0.0
 10
147.4172
 20
-46.3567
 30
0.0
 10
141.5968
 20
-50.2604
 30
0.0
 10
139.3216
 20
-50.4335
 30
0.0
 10
134.1049
 20
-51.1565
 30
0.0
 10
134.1049
 20
-51.1565
 30
0.0
 10
134.1209
 20
-48.8592
 30
0.0
 10
134.2108
 20
-47.4628
 30
0.0
 10
133.6684
 20
-45.1333
 30
0.0
 10
133.6684
 20
-45.1333
 30
0.0
 10
135.3163
 20
-44.7003
 30
0.0
 10
136.36
 20
-44.4575
 30
0.0
 10
137.5618
 20
-44.07
 30
0.0
 10
137.5618
 20
-44.07
 30
0.0
 10
134.4568
 20
-40.9027
 30
0.0
 10
134.4397
 20
-34.8372
 30
0.0
 10
139.2704
 20
-32.1426
 30
0.0
  0
SPLINE
  5
C4
330
1F
100
AcDbEntity
  8
layer 1
 62
     7
100
AcDbSpline
210
0.0
220
0.0
230
1.0
 70
    11
 71
     3
 72
    20
 73
    16
 74
     0
 42
0.0000000001
 43
0.0000000001
 12
1.0
 22
0.0
 32
0.0
 13
1.0
 23
0.0
 33
0.0
 40
0.0
 40
0.0
 40
0.0
 40
0.0
 40
0.2
 40
0.2
 40
0.2
 40
0.2
 40
0.4
 40
0.4
 40
0.4
 40
0.4
 40
0.6
 40
0.6
 40
0.6
 40
0.6
 40
1.0
 40
1.0
 40
1.0
 40
1.0
 10
119.5122
 20
-2.0284
 30
0.0
 10
123.5658
 20
2.1599
 30
0.0
 10
125.0485
 20
3.7207
 30
0.0
 10
127.8735
 20
7.2272
 30
0.0
 10
127.8735
 20
7.2272
 30
0.0
 10
125.0127
 20
10.7337
 30
0.0
 10
123.5301
 20
12.2945
 30
0.0
 10
119.4765
 20
16.4828
 30
0.0
 10
119.4765
 20
16.4828
 30
0.0
 10
121.9961
 20
20.3529
 30
0.0
 10
131.7598
 20
17.5166
 30
0.0
 10
132.4477
 20
7.2272
 30
0.0
 10
132.4477
 20
7.2272
 30
0.0
 10
131.7956
 20
-3.0621
 30
0.0
 10
122.0318
 20
-5.8985
 30
0.0
 10
119.5122
 20
-2.0284
 30
0.0
  0
SPLINE
  5
C5
330
1F
100
AcDbEntity
  8
layer 1
 62
     7
100
AcDbSpline
210
0.0
220
0.0
230
1.0
 70
    11
 71
     3
 72
    20
 73
    16
 74
     0
 42
0.0000000001
 43
0.0000000001
 12
1.0
 22
0.0
 32
0.0
 13
1.0
 23
0.0
 33
0.0
 40
0.0
 40
0.0
 40
0.0
 40
0.0
 40
0.2
 40
0.2
 40
0.2
 40
0.2
 40
0.4
 40
0.4
 40
0.4
 40
0.4
 40
0.6
 40
0.6
 40
0.6
 40
0.6
 40
1.0
 40
1.0
 40
1.0
 40
1.0
 10
98.372
 20
-23.5912
 30
0.0
 10
102.2804
 20
-26.0512
 30
0.0
 10
99.5938
 20
-35.8573
 30
0.0
 10
89.2034
 20
-36.6852
 30
0.0
 10
89.2034
 20
-36.6852
 30
0.0
 10
78.8129
 20
-35.8573
 30
0.0
 10
76.1263
 20
-26.0511
 30
0.0
 10
80.0347
 20
-23.5912
 30
0.0
 10
80.0347
 20
-23.5912
 30
0.0
 10
84.1603
 20
-27.7085
 30
0.0
 10
85.6983
 20
-29.2149
 30
0.0
 10
89.2034
 20
-32.1116
 30
0.0
 10
89.2034
 20
-32.1116
 30
0.0
 10
92.7084
 20
-29.2148
 30
0.0
 10
94.2464
 20
-27.7085
 30
0.0
 10
98.372
 20
-23.5912
 30
0.0
  0
SPLINE
  5
C6
330
1F
100
AcDbEntity
  8
layer 1
 62
     7
100
AcDbSpline
210
0.0
220
0.0
230
1.0
 70
    11
 71
     3
 72
    32
 73
    28
 74
     0
 42
0.0000000001
 43
0.0000000001
 12
1.0
 22
0.0
 32
0.0
 13
1.0
 23
0.0
 33
0.0
 40
0.0
 40
0.0
 40
0.0
 40
0.0
 40
0.125
 40
0.125
 40
0.125
 40
0.125
 40
0.25
 40
0.25
 40
0.25
 40
0.25
 40
0.375
 40
0.375
 40
0.375
 40
0.375
 40
0.5
 40
0.5
 40
0.5
 40
0.5
 40
0.625
 40
0.625
 40
0.625
 40
0.625
 40
0.75
 40
0.75
 40
0.75
 40
0.75
 40
1.0
 40
1.0
 40
1.0
 40
1.0
 10
97.2969
 20
-71.9936
 30
0.0
 10
97.2661
 20
-74.2568
 30
0.0
 10
97.257
 20
-77.2998
 30
0.0
 10
97.214
 20
-79.2742
 30
0.0
 10
97.214
 20
-79.2742
 30
0.0
 10
95.2317
 20
-79.3206
 30
0.0
 10
92.5376
 20
-79.3704
 30
0.0
 10
89.2035
 20
-79.3605
 30
0.0
 10
89.2035
 20
-79.3605
 30
0.0
 10
85.8693
 20
-79.3704
 30
0.0
 10
83.1752
 20
-79.3208
 30
0.0
 10
81.1929
 20
-79.2742
 30
0.0
 10
81.1929
 20
-79.2742
 30
0.0
 10
81.1497
 20
-77.3
 30
0.0
 10
81.1406
 20
-74.2568
 30
0.0
 10
81.11
 20
-71.9936
 30
0.0
 10
81.11
 20
-71.9936
 30
0.0
 10
85.2082
 20
-71.6787
 30
0.0
 10
88.4078
 20
-68.3577
 30
0.0
 10
89.2035
 20
-63.9766
 30
0.0
 10
89.2035
 20
-63.9766
 30
0.0
 10
89.9991
 20
-68.3575
 30
0.0
 10
93.1988
 20
-71.6785
 30
0.0
 10
97.2971
 20
-71.9936
 30
0.0
 10
97.2971
 20
-71.9936
 30
0.0
 10
97.2971
 20
-71.9936
 30
0.0
 10
97.2969
 20
-71.9936
 30
0.0
 10
97.2969
 20
-71.9936
 30
0.0
  0
SPLINE
  5
C7
330
1F
100
AcDbEntity
  8
layer 1
 62
     7
370
     9
100
AcDbSpline
210
0.0
220
0.0
230
1.0
 70
    11
 71
     3
 72
    20
 73
    16
 74
     0
 42
0.0000000001
 43
0.0000000001
 12
1.0
 22
0.0
 32
0.0
 13
1.0
 23
0.0
 33
0.0
 40
0.0
 40
0.0
 40
0.0
 40
0.0
 40
0.2
 40
0.2
 40
0.2
 40
0.2
 40
0.4
 40
0.4
 40
0.4
 40
0.4
 40
0.6
 40
0.6
 40
0.6
 40
0.6
 40
1.0
 40
1.0
 40
1.0
 40
1.0
 10
83.4514
 20
31.7394
 30
0.0
 10
83.4514
 20
31.7394
 30
0.0
 10
89.0637
 20
37.3517
 30
0.0
 10
89.0637
 20
37.3517
 30
0.0
 10
89.0637
 20
37.3517
 30
0.0
 10
89.0637
 20
37.3517
 30
0.0
 10
94.676
 20
31.7394
 30
0.0
 10
94.676
 20
31.7394
 30
0.0
 10
94.676
 20
31.7394
 30
0.0
 10
94.676
 20
31.7394
 30
0.0
 10
89.0637
 20
26.1271
 30
0.0
 10
89.0637
 20
26.1271
 30
0.0
 10
89.0637
 20
26.1271
 30
0.0
 10
89.0637
 20
26.1271
 30
0.0
 10
83.4514
 20
31.7394
 30
0.0
 10
83.4514
 20
31.7394
 30
0.0
  0
SPLINE
  5
C8
330
1F
100
AcDbEntity
  8
layer 1
 62
     7
370
     9
100
AcDbSpline
210
0.0
220
0.0
230
1.0
 70
    11
 71
     3
 72
    20
 73
    16
 74
     0
 42
0.0000000001
 43
0.0000000001
 12
1.0
 22
0.0
 32
0.0
 13
1.0
 23
0.0
 33
0.0
 40
0.0
 40
0.0
 40
0.0
 40
0.0
 40
0.2
 40
0.2
 40
0.2
 40
0.2
 40
0.4
 40
0.4
 40
0.4
 40
0.4
 40
0.6
 40
0.6
 40
0.6
 40
0.6
 40
1.0
 40
1.0
 40
1.0
 40
1.0
 10
107.3154
 20
7.2978
 30
0.0
 10
107.3154
 20
7.2978
 30
0.0
 10
112.9277
 20
12.9101
 30
0.0
 10
112.9277
 20
12.9101
 30
0.0
 10
112.9277
 20
12.9101
 30
0.0
 10
112.9277
 20
12.9101
 30
0.0
 10
118.54
 20
7.2978
 30
0.0
 10
118.54
 20
7.2978
 30
0.0
 10
118.54
 20
7.2978
 30
0.0
 10
118.54
 20
7.2978
 30
0.0
 10
112.9277
 20
1.6854
 30
0.0
 10
112.9277
 20
1.6854
 30
0.0
 10
112.9277
 20
1.6854
 30
0.0
 10
112.9277
 20
1.6854
 30
0.0
 10
107.3154
 20
7.2978
 30
0.0
 10
107.3154
 20
7.2978
 30
0.0
  0
SPLINE
  5
C9
330
1F
100
AcDbEntity
  8
layer 1
 62
     7
370
     9
100
AcDbSpline
210
0.0
220
0.0
230
1.0
 70
    11
 71
     3
 72
    20
 73
    16
 74
     0
 42
0.0000000001
 43
0.0000000001
 12
1.0
 22
0.0
 32
0.0
 13
1.0
 23
0.0
 33
0.0
 40
0.0
 40
0.0
 40
0.0
 40
0.0
 40
0.2
 40
0.2
 40
0.2
 40
0.2
 40
0.4
 40
0.4
 40
0.4
 40
0.4
 40
0.6
 40
0.6
 40
0.6
 40
0.6
 40
1.0
 40
1.0
 40
1.0
 40
1.0
 10
60.3061
 20
7.412
 30
0.0
 10
60.3061
 20
7.412
 30
0.0
 10
65.9184
 20
13.0243
 30
0.0
 10
65.9184
 20
13.0243
 30
0.0
 10
65.9184
 20
13.0243
 30
0.0
 10
65.9184
 20
13.0243
 30
0.0
 10
71.5307
 20
7.412
 30
0.0
 10
71.5307
 20
7.412
 30
0.0
 10
71.5307
 20
7.412
 30
0.0
 10
71.5307
 20
7.412
 30
0.0
 10
65.9184
 20
1.7997
 30
0.0
 10
65.9184
 20
1.7997
 30
0.0
 10
65.9184
 20
1.7997
 30
0.0
 10
65.9184
 20
1.7997
 30
0.0
 10
60.3061
 20
7.412
 30
0.0
 10
60.3061
 20
7.412
 30
0.0
  0
SPLINE
  5
CA
330
1F
100
AcDbEntity
  8
layer 1
 62
     7
370
     9
100
AcDbSpline
210
0.0
220
0.0
230
1.0
 70
    11
 71
     3
 72
    20
 73
    16
 74
     0
 42
0.0000000001
 43
0.0000000001
 12
1.0
 22
0.0
 32
0.0
 13
1.0
 23
0.0
 33
0.0
 40
0.0
 40
0.0
 40
0.0
 40
0.0
 40
0.2
 40
0.2
 40
0.2
 40
0.2
 40
0.4
 40
0.4
 40
0.4
 40
0.4
 40
0.6
 40
0.6
 40
0.6
 40
0.6
 40
1.0
 40
1.0
 40
1.0
 40
1.0
 10
84.0662
 20
-17.1335
 30
0.0
 10
84.0662
 20
-17.1335
 30
0.0
 10
89.6785
 20
-11.5212
 30
0.0
 10
89.6785
 20
-11.5212
 30
0.0
 10
89.6785
 20
-11.5212
 30
0.0
 10
89.6785
 20
-11.5212
 30
0.0
 10
95.2908
 20
-17.1335
 30
0.0
 10
95.2908
 20
-17.1335
 30
0.0
 10
95.2908
 20
-17.1335
 30
0.0
 10
95.2908
 20
-17.1335
 30
0.0
 10
89.6785
 20
-22.7458
 30
0.0
 10
89.6785
 20
-22.7458
 30
0.0
 10
89.6785
 20
-22.7458
 30
0.0
 10
89.6785
 20
-22.7458
 30
0.0
 10
84.0662
 20
-17.1335
 30
0.0
 10
84.0662
 20
-17.1335
 30
0.0
  0
SPLINE
  5
CB
330
1F
100
AcDbEntity
  8
layer 1
 62
     7
370
     9
100
AcDbSpline
210
0.0
220
0.0
230
1.0
 70
    11
 71
     3
 72
    20
 73
    16
 74
     0
 42
0.0000000001
 43
0.0000000001
 12
1.0
 22
0.0
 32
0.0
 13
1.0
 23
0.0
 33
0.0
 40
0.0
 40
0.0
 40
0.0
 40
0.0
 40
0.2
 40
0.2
 40
0.2
 40
0.2
 40
0.4
 40
0.4
 40
0.4
 40
0.4
 40
0.6
 40
0.6
 40
0.6
 40
0.6
 40
1.0
 40
1.0
 40
1.0
 40
1.0
 10
69.9256
 20
-2.8924
 30
0.0
 10
69.9256
 20
-2.8924
 30
0.0
 10
75.6797
 20
2.8617
 30
0.0
 10
75.6797
 20
2.8617
 30
0.0
 10
75.6797
 20
2.8617
 30
0.0
 10
75.6797
 20
2.8617
 30
0.0
 10
85.4945
 20
-6.9531
 30
0.0
 10
85.4945
 20
-6.9531
 30
0.0
 10
85.4945
 20
-6.9531
 30
0.0
 10
85.4945
 20
-6.9531
 30
0.0
 10
79.7404
 20
-12.7071
 30
0.0
 10
79.7404
 20
-12.7071
 30
0.0
 10
79.7404
 20
-12.7071
 30
0.0
 10
79.7404
 20
-12.7071
 30
0.0
 10
69.9256
 20
-2.8924
 30
0.0
 10
69.9256
 20
-2.8924
 30
0.0
  0
SPLINE
  5
CC
330
1F
100
AcDbEntity
  8
layer 1
 62
     7
370
     9
100
AcDbSpline
210
0.0
220
0.0
230
1.0
 70
    11
 71
     3
 72
    20
 73
    16
 74
     0
 42
0.0000000001
 43
0.0000000001
 12
1.0
 22
0.0
 32
0.0
 13
1.0
 23
0.0
 33
0.0
 40
0.0
 40
0.0
 40
0.0
 40
0.0
 40
0.2
 40
0.2
 40
0.2
 40
0.2
 40
0.4
 40
0.4
 40
0.4
 40
0.4
 40
0.6
 40
0.6
 40
0.6
 40
0.6
 40
1.0
 40
1.0
 40
1.0
 40
1.0
 10
93.5818
 20
21.2832
 30
0.0
 10
93.5818
 20
21.2832
 30
0.0
 10
99.3359
 20
27.0373
 30
0.0
 10
99.3359
 20
27.0373
 30
0.0
 10
99.3359
 20
27.0373
 30
0.0
 10
99.3359
 20
27.0373
 30
0.0
 10
109.1507
 20
17.2225
 30
0.0
 10
109.1507
 20
17.2225
 30
0.0
 10
109.1507
 20
17.2225
 30
0.0
 10
109.1507
 20
17.2225
 30
0.0
 10
103.3966
 20
11.4684
 30
0.0
 10
103.3966
 20
11.4684
 30
0.0
 10
103.3966
 20
11.4684
 30
0.0
 10
103.3966
 20
11.4684
 30
0.0
 10
93.5818
 20
21.2832
 30
0.0
 10
93.5818
 20
21.2832
 30
0.0
  0
SPLINE
  5
CD
330
1F
100
AcDbEntity
  8
layer 1
 62
     7
100
AcDbSpline
210
0.0
220
0.0
230
1.0
 70
    11
 71
     3
 72
    20
 73
    16
 74
     0
 42
0.0000000001
 43
0.0000000001
 12
1.0
 22
0.0
 32
0.0
 13
1.0
 23
0.0
 33
0.0
 40
0.0
 40
0.0
 40
0.0
 40
0.0
 40
0.2
 40
0.2
 40
0.2
 40
0.2
 40
0.4
 40
0.4
 40
0.4
 40
0.4
 40
0.6
 40
0.6
 40
0.6
 40
0.6
 40
1.0
 40
1.0
 40
1.0
 40
1.0
 10
108.5421
 20
-2.8599
 30
0.0
 10
108.5421
 20
-2.8599
 30
0.0
 10
103.2777
 20
2.6284
 30
0.0
 10
103.2777
 20
2.6284
 30
0.0
 10
103.2777
 20
2.6284
 30
0.0
 10
103.2777
 20
2.6284
 30
0.0
 10
93.8255
 20
-7.5485
 30
0.0
 10
93.8255
 20
-7.5485
 30
0.0
 10
93.8255
 20
-7.5485
 30
0.0
 10
93.8255
 20
-7.5485
 30
0.0
 10
99.3807
 20
-12.7756
 30
0.0
 10
99.3807
 20
-12.7756
 30
0.0
 10
99.3807
 20
-12.7756
 30
0.0
 10
99.3807
 20
-12.7756
 30
0.0
 10
108.5421
 20
-2.8599
 30
0.0
 10
108.5421
 20
-2.8599
 30
0.0
  0
SPLINE
  5
CE
330
1F
100
AcDbEntity
  8
layer 1
 62
     7
370
     9
100
AcDbSpline
210
0.0
220
0.0
230
1.0
 70
    11
 71
     3
 72
    20
 73
    16
 74
     0
 42
0.0000000001
 43
0.0000000001
 12
1.0
 22
0.0
 32
0.0
 13
1.0
 23
0.0
 33
0.0
 40
0.0
 40
0.0
 40
0.0
 40
0.0
 40
0.2
 40
0.2
 40
0.2
 40
0.2
 40
0.4
 40
0.4
 40
0.4
 40
0.4
 40
0.6
 40
0.6
 40
0.6
 40
0.6
 40
1.0
 40
1.0
 40
1.0
 40
1.0
 10
78.3838
 20
7.5389
 30
0.0
 10
78.3838
 20
7.5389
 30
0.0
 10
89.3933
 20
18.5483
 30
0.0
 10
89.3933
 20
18.5483
 30
0.0
 10
89.3933
 20
18.5483
 30
0.0
 10
89.3933
 20
18.5483
 30
0.0
 10
100.4027
 20
7.5389
 30
0.0
 10
100.4027
 20
7.5389
 30
0.0
 10
100.4027
 20
7.5389
 30
0.0
 10
100.4027
 20
7.5389
 30
0.0
 10
89.3933
 20
-3.4706
 30
0.0
 10
89.3933
 20
-3.4706
 30
0.0
 10
89.3933
 20
-3.4706
 30
0.0
 10
89.3933
 20
-3.4706
 30
0.0
 10
78.3838
 20
7.5389
 30
0.0
 10
78.3838
 20
7.5389
 30
0.0
  0
SPLINE
  5
CF
330
1F
100
AcDbEntity
  8
layer 1
 62
     7
100
AcDbSpline
210
0.0
220
0.0
230
1.0
 70
    11
 71
     3
 72
    20
 73
    16
 74
     0
 42
0.0000000001
 43
0.0000000001
 12
1.0
 22
0.0
 32
0.0
 13
1.0
 23
0.0
 33
0.0
 40
0.0
 40
0.0
 40
0.0
 40
0.0
 40
0.2
 40
0.2
 40
0.2
 40
0.2
 40
0.4
 40
0.4
 40
0.4
 40
0.4
 40
0.6
 40
0.6
 40
0.6
 40
0.6
 40
1.0
 40
1.0
 40
1.0
 40
1.0
 10
80.6089
 20
-40.7645
 30
0.0
 10
74.6249
 20
-38.0377
 30
0.0
 10
71.6759
 20
-33.274
 30
0.0
 10
72.1088
 20
-25.4396
 30
0.0
 10
72.1088
 20
-25.4396
 30
0.0
 10
70.1632
 20
-29.3241
 30
0.0
 10
63.908
 20
-33.6487
 30
0.0
 10
57.18
 20
-30.3894
 30
0.0
 10
57.18
 20
-30.3894
 30
0.0
 10
64.4325
 20
-36.8133
 30
0.0
 10
73.3756
 20
-39.9945
 30
0.0
 10
80.6088
 20
-40.7645
 30
0.0
 10
80.6088
 20
-40.7645
 30
0.0
 10
80.6088
 20
-40.7645
 30
0.0
 10
80.6089
 20
-40.7645
 30
0.0
 10
80.6089
 20
-40.7645
 30
0.0
  0
SPLINE
  5
D0
330
1F
100
AcDbEntity
  8
layer 1
 62
     7
100
AcDbSpline
210
0.0
220
0.0
230
1.0
 70
    11
 71
     3
 72
    20
 73
    16
 74
     0
 42
0.0000000001
 43
0.0000000001
 12
1.0
 22
0.0
 32
0.0
 13
1.0
 23
0.0
 33
0.0
 40
0.0
 40
0.0
 40
0.0
 40
0.0
 40
0.2
 40
0.2
 40
0.2
 40
0.2
 40
0.4
 40
0.4
 40
0.4
 40
0.4
 40
0.6
 40
0.6
 40
0.6
 40
0.6
 40
1.0
 40
1.0
 40
1.0
 40
1.0
 10
51.4129
 20
-24.1139
 30
0.0
 10
49.5878
 20
-18.2863
 30
0.0
 10
51.4493
 20
-13.8612
 30
0.0
 10
55.7096
 20
-10.7351
 30
0.0
 10
55.7096
 20
-10.7351
 30
0.0
 10
50.6403
 20
-12.1402
 30
0.0
 10
44.9587
 20
-8.3968
 30
0.0
 10
41.7818
 20
-2.8864
 30
0.0
 10
41.7818
 20
-2.8864
 30
0.0
 10
42.2397
 20
-7.3753
 30
0.0
 10
45.3385
 20
-17.3212
 30
0.0
 10
52.6148
 20
-25.5309
 30
0.0
 10
52.6148
 20
-25.5309
 30
0.0
 10
52.6148
 20
-25.5309
 30
0.0
 10
51.4129
 20
-24.1139
 30
0.0
 10
51.4129
 20
-24.1139
 30
0.0
  0
SPLINE
  5
D1
330
1F
100
AcDbEntity
  8
layer 1
 62
     7
100
AcDbSpline
210
0.0
220
0.0
230
1.0
 70
    11
 71
     3
 72
    20
 73
    16
 74
     0
 42
0.0000000001
 43
0.0000000001
 12
1.0
 22
0.0
 32
0.0
 13
1.0
 23
0.0
 33
0.0
 40
0.0
 40
0.0
 40
0.0
 40
0.0
 40
0.2
 40
0.2
 40
0.2
 40
0.2
 40
0.4
 40
0.4
 40
0.4
 40
0.4
 40
0.6
 40
0.6
 40
0.6
 40
0.6
 40
1.0
 40
1.0
 40
1.0
 40
1.0
 10
63.4812
 20
-6.784
 30
0.0
 10
64.5149
 20
-8.0556
 30
0.0
 10
65.4431
 20
-8.8659
 30
0.0
 10
66.4881
 20
-9.6939
 30
0.0
 10
66.4881
 20
-9.6939
 30
0.0
 10
63.8107
 20
-8.9472
 30
0.0
 10
62.7123
 20
-8.4693
 30
0.0
 10
59.6379
 20
-9.1112
 30
0.0
 10
59.6379
 20
-9.1112
 30
0.0
 10
59.6379
 20
-9.1112
 30
0.0
 10
62.5798
 20
-8.2426
 30
0.0
 10
63.481
 20
-6.7842
 30
0.0
 10
63.481
 20
-6.7842
 30
0.0
 10
63.481
 20
-6.7842
 30
0.0
 10
63.4812
 20
-6.784
 30
0.0
 10
63.4812
 20
-6.784
 30
0.0
  0
SPLINE
  5
D2
330
1F
100
AcDbEntity
  8
layer 1
 62
     7
100
AcDbSpline
210
0.0
220
0.0
230
1.0
 70
    11
 71
     3
 72
    16
 73
    12
 74
     0
 42
0.0000000001
 43
0.0000000001
 12
1.0
 22
0.0
 32
0.0
 13
1.0
 23
0.0
 33
0.0
 40
0.0
 40
0.0
 40
0.0
 40
0.0
 40
0.25
 40
0.25
 40
0.25
 40
0.25
 40
0.5
 40
0.5
 40
0.5
 40
0.5
 40
1.0
 40
1.0
 40
1.0
 40
1.0
 10
71.463
 20
-13.8537
 30
0.0
 10
72.762
 20
-15.258
 30
0.0
 10
73.9513
 20
-17.427
 30
0.0
 10
74.9962
 20
-18.5199
 30
0.0
 10
74.9962
 20
-18.5199
 30
0.0
 10
74.0262
 20
-19.7124
 30
0.0
 10
74.2128
 20
-19.5682
 30
0.0
 10
73.1554
 20
-22.337
 30
0.0
 10
73.1554
 20
-22.337
 30
0.0
 10
73.3645
 20
-19.8888
 30
0.0
 10
73.8225
 20
-17.0203
 30
0.0
 10
71.463
 20
-13.8537
 30
0.0
  0
SPLINE
  5
D3
330
1F
100
AcDbEntity
  8
layer 1
 62
     7
100
AcDbSpline
210
0.0
220
0.0
230
1.0
 70
    11
 71
     3
 72
    20
 73
    16
 74
     0
 42
0.0000000001
 43
0.0000000001
 12
1.0
 22
0.0
 32
0.0
 13
1.0
 23
0.0
 33
0.0
 40
0.0
 40
0.0
 40
0.0
 40
0.0
 40
0.2
 40
0.2
 40
0.2
 40
0.2
 40
0.4
 40
0.4
 40
0.4
 40
0.4
 40
0.6
 40
0.6
 40
0.6
 40
0.6
 40
1.0
 40
1.0
 40
1.0
 40
1.0
 10
97.5278
 20
55.4155
 30
0.0
 10
103.5119
 20
52.6886
 30
0.0
 10
106.4609
 20
47.9249
 30
0.0
 10
106.028
 20
40.0905
 30
0.0
 10
106.028
 20
40.0905
 30
0.0
 10
107.9736
 20
43.975
 30
0.0
 10
114.2288
 20
48.2997
 30
0.0
 10
120.9567
 20
45.0403
 30
0.0
 10
120.9567
 20
45.0403
 30
0.0
 10
113.7043
 20
51.4643
 30
0.0
 10
104.7612
 20
54.6454
 30
0.0
 10
97.528
 20
55.4155
 30
0.0
 10
97.528
 20
55.4155
 30
0.0
 10
97.528
 20
55.4155
 30
0.0
 10
97.5278
 20
55.4155
 30
0.0
 10
97.5278
 20
55.4155
 30
0.0
  0
SPLINE
  5
D4
330
1F
100
AcDbEntity
  8
layer 1
 62
     7
100
AcDbSpline
210
0.0
220
0.0
230
1.0
 70
    11
 71
     3
 72
    20
 73
    16
 74
     0
 42
0.0000000001
 43
0.0000000001
 12
1.0
 22
0.0
 32
0.0
 13
1.0
 23
0.0
 33
0.0
 40
0.0
 40
0.0
 40
0.0
 40
0.0
 40
0.2
 40
0.2
 40
0.2
 40
0.2
 40
0.4
 40
0.4
 40
0.4
 40
0.4
 40
0.6
 40
0.6
 40
0.6
 40
0.6
 40
1.0
 40
1.0
 40
1.0
 40
1.0
 10
126.7239
 20
38.7648
 30
0.0
 10
128.549
 20
32.9372
 30
0.0
 10
126.6874
 20
28.5121
 30
0.0
 10
122.4271
 20
25.386
 30
0.0
 10
122.4271
 20
25.386
 30
0.0
 10
127.4965
 20
26.7911
 30
0.0
 10
133.1781
 20
23.0477
 30
0.0
 10
136.3549
 20
17.5373
 30
0.0
 10
136.3549
 20
17.5373
 30
0.0
 10
135.8971
 20
22.0262
 30
0.0
 10
132.7983
 20
31.9722
 30
0.0
 10
125.5219
 20
40.1818
 30
0.0
 10
125.5219
 20
40.1818
 30
0.0
 10
125.5219
 20
40.1818
 30
0.0
 10
126.7239
 20
38.7648
 30
0.0
 10
126.7239
 20
38.7648
 30
0.0
  0
SPLINE
  5
D5
330
1F
100
AcDbEntity
  8
layer 1
 62
     7
100
AcDbSpline
210
0.0
220
0.0
230
1.0
 70
    11
 71
     3
 72
    20
 73
    16
 74
     0
 42
0.0000000001
 43
0.0000000001
 12
1.0
 22
0.0
 32
0.0
 13
1.0
 23
0.0
 33
0.0
 40
0.0
 40
0.0
 40
0.0
 40
0.0
 40
0.2
 40
0.2
 40
0.2
 40
0.2
 40
0.4
 40
0.4
 40
0.4
 40
0.4
 40
0.6
 40
0.6
 40
0.6
 40
0.6
 40
1.0
 40
1.0
 40
1.0
 40
1.0
 10
114.6556
 20
21.435
 30
0.0
 10
113.6219
 20
22.7065
 30
0.0
 10
112.6937
 20
23.5168
 30
0.0
 10
111.6486
 20
24.3448
 30
0.0
 10
111.6486
 20
24.3448
 30
0.0
 10
114.3261
 20
23.5981
 30
0.0
 10
115.4245
 20
23.1202
 30
0.0
 10
118.4989
 20
23.7621
 30
0.0
 10
118.4989
 20
23.7621
 30
0.0
 10
118.4989
 20
23.7621
 30
0.0
 10
115.557
 20
22.8935
 30
0.0
 10
114.6558
 20
21.4351
 30
0.0
 10
114.6558
 20
21.4351
 30
0.0
 10
114.6558
 20
21.4351
 30
0.0
 10
114.6556
 20
21.435
 30
0.0
 10
114.6556
 20
21.435
 30
0.0
  0
SPLINE
  5
D6
330
1F
100
AcDbEntity
  8
layer 1
 62
     7
100
AcDbSpline
210
0.0
220
0.0
230
1.0
 70
    11
 71
     3
 72
    16
 73
    12
 74
     0
 42
0.0000000001
 43
0.0000000001
 12
1.0
 22
0.0
 32
0.0
 13
1.0
 23
0.0
 33
0.0
 40
0.0
 40
0.0
 40
0.0
 40
0.0
 40
0.25
 40
0.25
 40
0.25
 40
0.25
 40
0.5
 40
0.5
 40
0.5
 40
0.5
 40
1.0
 40
1.0
 40
1.0
 40
1.0
 10
106.6737
 20
28.5047
 30
0.0
 10
105.3748
 20
29.9089
 30
0.0
 10
104.1855
 20
32.0779
 30
0.0
 10
103.1406
 20
33.1708
 30
0.0
 10
103.1406
 20
33.1708
 30
0.0
 10
104.1106
 20
34.3633
 30
0.0
 10
103.9239
 20
34.2191
 30
0.0
 10
104.9814
 20
36.9879
 30
0.0
 10
104.9814
 20
36.9879
 30
0.0
 10
104.7723
 20
34.5397
 30
0.0
 10
104.3143
 20
31.6713
 30
0.0
 10
106.6737
 20
28.5047
 30
0.0
  0
SPLINE
  5
D7
330
1F
100
AcDbEntity
  8
layer 1
 62
     7
100
AcDbSpline
210
0.0
220
0.0
230
1.0
 70
    11
 71
     3
 72
    20
 73
    16
 74
     0
 42
0.0000000001
 43
0.0000000001
 12
1.0
 22
0.0
 32
0.0
 13
1.0
 23
0.0
 33
0.0
 40
0.0
 40
0.0
 40
0.0
 40
0.0
 40
0.2
 40
0.2
 40
0.2
 40
0.2
 40
0.4
 40
0.4
 40
0.4
 40
0.4
 40
0.6
 40
0.6
 40
0.6
 40
0.6
 40
1.0
 40
1.0
 40
1.0
 40
1.0
 10
97.5167
 20
-40.6614
 30
0.0
 10
103.5008
 20
-37.9346
 30
0.0
 10
106.4498
 20
-33.1709
 30
0.0
 10
106.0169
 20
-25.3365
 30
0.0
 10
106.0169
 20
-25.3365
 30
0.0
 10
107.9624
 20
-29.221
 30
0.0
 10
114.2177
 20
-33.5456
 30
0.0
 10
120.9456
 20
-30.2862
 30
0.0
 10
120.9456
 20
-30.2862
 30
0.0
 10
113.6931
 20
-36.7102
 30
0.0
 10
104.7501
 20
-39.8914
 30
0.0
 10
97.5169
 20
-40.6614
 30
0.0
 10
97.5169
 20
-40.6614
 30
0.0
 10
97.5169
 20
-40.6614
 30
0.0
 10
97.5167
 20
-40.6614
 30
0.0
 10
97.5167
 20
-40.6614
 30
0.0
  0
SPLINE
  5
D8
330
1F
100
AcDbEntity
  8
layer 1
 62
     7
100
AcDbSpline
210
0.0
220
0.0
230
1.0
 70
    11
 71
     3
 72
    20
 73
    16
 74
     0
 42
0.0000000001
 43
0.0000000001
 12
1.0
 22
0.0
 32
0.0
 13
1.0
 23
0.0
 33
0.0
 40
0.0
 40
0.0
 40
0.0
 40
0.0
 40
0.2
 40
0.2
 40
0.2
 40
0.2
 40
0.4
 40
0.4
 40
0.4
 40
0.4
 40
0.6
 40
0.6
 40
0.6
 40
0.6
 40
1.0
 40
1.0
 40
1.0
 40
1.0
 10
126.7128
 20
-24.0108
 30
0.0
 10
128.5378
 20
-18.1831
 30
0.0
 10
126.6763
 20
-13.7581
 30
0.0
 10
122.416
 20
-10.6319
 30
0.0
 10
122.416
 20
-10.6319
 30
0.0
 10
127.4853
 20
-12.0371
 30
0.0
 10
133.167
 20
-8.2936
 30
0.0
 10
136.3438
 20
-2.7833
 30
0.0
 10
136.3438
 20
-2.7833
 30
0.0
 10
135.886
 20
-7.2721
 30
0.0
 10
132.7872
 20
-17.2181
 30
0.0
 10
125.5108
 20
-25.4278
 30
0.0
 10
125.5108
 20
-25.4278
 30
0.0
 10
125.5108
 20
-25.4278
 30
0.0
 10
126.7128
 20
-24.0108
 30
0.0
 10
126.7128
 20
-24.0108
 30
0.0
  0
SPLINE
  5
D9
330
1F
100
AcDbEntity
  8
layer 1
 62
     7
100
AcDbSpline
210
0.0
220
0.0
230
1.0
 70
    11
 71
     3
 72
    20
 73
    16
 74
     0
 42
0.0000000001
 43
0.0000000001
 12
1.0
 22
0.0
 32
0.0
 13
1.0
 23
0.0
 33
0.0
 40
0.0
 40
0.0
 40
0.0
 40
0.0
 40
0.2
 40
0.2
 40
0.2
 40
0.2
 40
0.4
 40
0.4
 40
0.4
 40
0.4
 40
0.6
 40
0.6
 40
0.6
 40
0.6
 40
1.0
 40
1.0
 40
1.0
 40
1.0
 10
114.6445
 20
-6.6809
 30
0.0
 10
113.6108
 20
-7.9525
 30
0.0
 10
112.6826
 20
-8.7627
 30
0.0
 10
111.6375
 20
-9.5907
 30
0.0
 10
111.6375
 20
-9.5907
 30
0.0
 10
114.315
 20
-8.844
 30
0.0
 10
115.4134
 20
-8.3662
 30
0.0
 10
118.4878
 20
-9.0081
 30
0.0
 10
118.4878
 20
-9.0081
 30
0.0
 10
118.4878
 20
-9.0081
 30
0.0
 10
115.5459
 20
-8.1394
 30
0.0
 10
114.6447
 20
-6.6811
 30
0.0
 10
114.6447
 20
-6.6811
 30
0.0
 10
114.6447
 20
-6.6811
 30
0.0
 10
114.6445
 20
-6.6809
 30
0.0
 10
114.6445
 20
-6.6809
 30
0.0
  0
SPLINE
  5
DA
330
1F
100
AcDbEntity
  8
layer 1
 62
     7
100
AcDbSpline
210
0.0
220
0.0
230
1.0
 70
    11
 71
     3
 72
    16
 73
    12
 74
     0
 42
0.0000000001
 43
0.0000000001
 12
1.0
 22
0.0
 32
0.0
 13
1.0
 23
0.0
 33
0.0
 40
0.0
 40
0.0
 40
0.0
 40
0.0
 40
0.25
 40
0.25
 40
0.25
 40
0.25
 40
0.5
 40
0.5
 40
0.5
 40
0.5
 40
1.0
 40
1.0
 40
1.0
 40
1.0
 10
106.6626
 20
-13.7506
 30
0.0
 10
105.3637
 20
-15.1548
 30
0.0
 10
104.1744
 20
-17.3238
 30
0.0
 10
103.1295
 20
-18.4168
 30
0.0
 10
103.1295
 20
-18.4168
 30
0.0
 10
104.0994
 20
-19.6092
 30
0.0
 10
103.9128
 20
-19.4651
 30
0.0
 10
104.9702
 20
-22.2338
 30
0.0
 10
104.9702
 20
-22.2338
 30
0.0
 10
104.7612
 20
-19.7856
 30
0.0
 10
104.3032
 20
-16.9172
 30
0.0
 10
106.6626
 20
-13.7506
 30
0.0
  0
ENDSEC
  0
SECTION
  2
OBJECTS
  0
DICTIONARY
  5
C
330
0
100
AcDbDictionary
281
     1
  3
ACAD_GROUP
350
D
  3
ACAD_LAYOUT
350
1A
  3
ACAD_MATERIAL
350
3B
  3
ACAD_MLEADERSTYLE
350
FC
  3
ACAD_MLINESTYLE
350
17
  3
ACAD_PLOTSETTINGS
350
19
  3
ACAD_PLOTSTYLENAME
350
E
  3
ACAD_TABLESTYLE
350
FB
  3
ACAD_VISUALSTYLE
350
2A
  0
DICTIONARY
  5
D
102
{ACAD_REACTORS
330
C
102
}
330
C
100
AcDbDictionary
281
     1
  0
DICTIONARY
  5
1A
102
{ACAD_REACTORS
330
C
102
}
330
C
100
AcDbDictionary
281
     1
  3
Layout1
350
1E
  3
Layout2
350
26
  3
Model
350
22
  0
DICTIONARY
  5
3B
102
{ACAD_REACTORS
330
C
102
}
330
C
100
AcDbDictionary
281
     1
  3
ByBlock
350
3D
  3
ByLayer
350
3C
  3
Global
350
3E
  0
DICTIONARY
  5
FC
102
{ACAD_REACTORS
330
C
102
}
330
C
100
AcDbDictionary
281
     1
  0
DICTIONARY
  5
17
102
{ACAD_REACTORS
330
C
102
}
330
C
100
AcDbDictionary
281
     1
  3
Standard
350
18
  0
DICTIONARY
  5
19
102
{ACAD_REACTORS
330
C
102
}
330
C
100
AcDbDictionary
281
     1
  0
ACDBDICTIONARYWDFLT
  5
E
102
{ACAD_REACTORS
330
C
102
}
330
C
100
AcDbDictionary
281
     1
  3
Normal
350
F
100
AcDbDictionaryWithDefault
340
F
  0
DICTIONARY
  5
FB
102
{ACAD_REACTORS
330
C
102
}
330
C
100
AcDbDictionary
281
     1
  0
DICTIONARY
  5
2A
102
{ACAD_REACTORS
330
C
102
}
330
C
100
AcDbDictionary
281
     1
  3
2dWireframe
350
2F
  3
3D Hidden
350
31
  3
3dWireframe
350
30
  3
Basic
350
32
  3
Brighten
350
36
  3
ColorChange
350
3A
  3
Conceptual
350
34
  3
Dim
350
35
  3
Facepattern
350
39
  3
Flat
350
2B
  3
FlatWithEdges
350
2C
  3
Gouraud
350
2D
  3
GouraudWithEdges
350
2E
  3
Linepattern
350
38
  3
Realistic
350
33
  3
Thicken
350
37
  0
LAYOUT
  5
1E
102
{ACAD_REACTORS
330
1A
102
}
330
1A
100
AcDbPlotSettings
  1

  2
none_device
  4

  6

 40
0.0
 41
0.0
 42
0.0
 43
0.0
 44
0.0
 45
0.0
 46
0.0
 47
0.0
 48
0.0
 49
0.0
140
0.0
141
0.0
142
1.0
143
1.0
 70
   688
 72
     0
 73
     0
 74
     5
  7

 75
    16
 76
     0
 77
     2
 78
   300
147
1.0
148
0.0
149
0.0
100
AcDbLayout
  1
Layout1
 70
     1
 71
     1
 10
0.0
 20
0.0
 11
12.0
 21
9.0
 12
0.0
 22
0.0
 32
0.0
 14
1.000000000000000E+20
 24
1.000000000000000E+20
 34
1.000000000000000E+20
 15
-1.000000000000000E+20
 25
-1.000000000000000E+20
 35
-1.000000000000000E+20
146
0.0
 13
0.0
 23
0.0
 33
0.0
 16
1.0
 26
0.0
 36
0.0
 17
0.0
 27
1.0
 37
0.0
 76
     0
330
1B
  0
LAYOUT
  5
26
102
{ACAD_REACTORS
330
1A
102
}
330
1A
100
AcDbPlotSettings
  1

  2
none_device
  4

  6

 40
0.0
 41
0.0
 42
0.0
 43
0.0
 44
0.0
 45
0.0
 46
0.0
 47
0.0
 48
0.0
 49
0.0
140
0.0
141
0.0
142
1.0
143
1.0
 70
   688
 72
     0
 73
     0
 74
     5
  7

 75
    16
 76
     0
 77
     2
 78
   300
147
1.0
148
0.0
149
0.0
100
AcDbLayout
  1
Layout2
 70
     1
 71
     2
 10
0.0
 20
0.0
 11
0.0
 21
0.0
 12
0.0
 22
0.0
 32
0.0
 14
0.0
 24
0.0
 34
0.0
 15
0.0
 25
0.0
 35
0.0
146
0.0
 13
0.0
 23
0.0
 33
0.0
 16
1.0
 26
0.0
 36
0.0
 17
0.0
 27
1.0
 37
0.0
 76
     0
330
23
  0
LAYOUT
  5
22
102
{ACAD_REACTORS
330
1A
102
}
330
1A
100
AcDbPlotSettings
  1

  2
none_device
  4

  6

 40
0.0
 41
0.0
 42
0.0
 43
0.0
 44
0.0
 45
0.0
 46
0.0
 47
0.0
 48
0.0
 49
0.0
140
0.0
141
0.0
142
1.0
143
1.0
 70
  1712
 72
     0
 73
     0
 74
     0
  7

 75
     0
 76
     0
 77
     2
 78
   300
147
1.0
148
0.0
149
0.0
100
AcDbLayout
  1
Model
 70
     1
 71
     0
 10
0.0
 20
0.0
 11
12.0
 21
9.0
 12
0.0
 22
0.0
 32
0.0
 14
-187.2482
 24
-114.6992
 34
0.0
 15
196.3472
 25
131.9605
 35
0.0
146
0.0
 13
0.0
 23
0.0
 33
0.0
 16
1.0
 26
0.0
 36
0.0
 17
0.0
 27
1.0
 37
0.0
 76
     0
330
1F
331
29
  0
MATERIAL
  5
3D
102
{ACAD_REACTORS
330
3B
102
}
330
3B
100
AcDbMaterial
  1
ByBlock
 72
     1
 94
      127
  0
MATERIAL
  5
3C
102
{ACAD_REACTORS
330
3B
102
}
330
3B
100
AcDbMaterial
  1
ByLayer
 72
     1
 94
      127
  0
MATERIAL
  5
3E
102
{ACAD_REACTORS
330
3B
102
}
330
3B
100
AcDbMaterial
  1
Global
 72
     1
 94
      127
  0
MLINESTYLE
  5
18
102
{ACAD_REACTORS
330
17
102
}
330
17
100
AcDbMlineStyle
  2
Standard
 70
     0
  3

 62
   256
 51
90.0
 52
90.0
 71
     2
 49
0.5
 62
   256
  6
BYLAYER
 49
-0.5
 62
   256
  6
BYLAYER
  0
ACDBPLACEHOLDER
  5
F
102
{ACAD_REACTORS
330
E
102
}
330
E
  0
VISUALSTYLE
  5
2F
102
{ACAD_REACTORS
330
2A
102
}
102
{ACAD_XDICTIONARY
360
E3
102
}
330
2A
100
AcDbVisualStyle
  2
2dWireframe
 70
     4
 71
     0
 72
     2
 73
     0
 90
        0
 40
-0.6
 41
-30.0
 62
     5
 63
     7
421
 16777215
 74
     1
 91
        4
 64
     7
 65
   257
 75
     1
175
     1
 42
1.0
 92
        0
 66
   257
 43
1.0
 76
     1
 77
     6
 78
     2
 67
     7
 79
     5
170
     0
171
     0
290
     0
174
     0
 93
        1
 44
0.0
173
     0
291
     0
 45
0.0
  0
VISUALSTYLE
  5
31
102
{ACAD_REACTORS
330
2A
102
}
102
{ACAD_XDICTIONARY
360
E7
102
}
330
2A
100
AcDbVisualStyle
  2
3D Hidden
 70
     6
 71
     1
 72
     2
 73
     2
 90
        0
 40
-0.6
 41
-30.0
 62
     5
 63
     7
421
 16777215
 74
     2
 91
        2
 64
     7
 65
   257
 75
     2
175
     1
 42
40.0
 92
        0
 66
   257
 43
1.0
 76
     1
 77
     6
 78
     2
 67
     7
 79
     3
170
     0
171
     0
290
     0
174
     0
 93
        1
 44
0.0
173
     0
291
     0
 45
0.0
  0
VISUALSTYLE
  5
30
102
{ACAD_REACTORS
330
2A
102
}
102
{ACAD_XDICTIONARY
360
E5
102
}
330
2A
100
AcDbVisualStyle
  2
3dWireframe
 70
     5
 71
     0
 72
     2
 73
     0
 90
        0
 40
-0.6
 41
-30.0
 62
     5
 63
     7
421
 16777215
 74
     1
 91
        4
 64
     7
 65
   257
 75
     1
175
     1
 42
1.0
 92
        0
 66
   257
 43
1.0
 76
     1
 77
     6
 78
     2
 67
     7
 79
     5
170
     0
171
     0
290
     0
174
     0
 93
        1
 44
0.0
173
     0
291
     0
 45
0.0
  0
VISUALSTYLE
  5
32
102
{ACAD_REACTORS
330
2A
102
}
102
{ACAD_XDICTIONARY
360
E9
102
}
330
2A
100
AcDbVisualStyle
  2
Basic
 70
     7
 71
     1
 72
     0
 73
     1
 90
        0
 40
-0.6
 41
-30.0
 62
     5
 63
     7
421
 16777215
 74
     0
 91
        4
 64
     7
 65
   257
 75
     1
175
     1
 42
1.0
 92
        8
 66
     7
 43
1.0
 76
     1
 77
     6
 78
     2
 67
     7
 79
     5
170
     0
171
     0
290
     0
174
     0
 93
        1
 44
0.0
173
     0
291
     1
 45
0.0
  0
VISUALSTYLE
  5
36
102
{ACAD_REACTORS
330
2A
102
}
102
{ACAD_XDICTIONARY
360
F1
102
}
330
2A
100
AcDbVisualStyle
  2
Brighten
 70
    12
 71
     2
 72
     2
 73
     0
 90
        0
 40
-0.6
 41
-30.0
 62
     5
 63
     7
421
 16777215
 74
     1
 91
        4
 64
     7
 65
   257
 75
     1
175
     1
 42
1.0
 92
        8
 66
     7
 43
1.0
 76
     1
 77
     6
 78
     2
 67
     7
 79
     5
170
     0
171
     0
290
     0
174
     0
 93
        1
 44
50.0
173
     0
291
     1
 45
0.0
  0
VISUALSTYLE
  5
3A
102
{ACAD_REACTORS
330
2A
102
}
102
{ACAD_XDICTIONARY
360
F9
102
}
330
2A
100
AcDbVisualStyle
  2
ColorChange
 70
    16
 71
     2
 72
     2
 73
     3
 90
        0
 40
-0.6
 41
-30.0
 62
     5
 63
     8
421
  8421504
 74
     1
 91
        4
 64
     7
 65
   257
 75
     1
175
     1
 42
1.0
 92
        8
 66
     8
424
  8421504
 43
1.0
 76
     1
 77
     6
 78
     2
 67
     7
 79
     5
170
     0
171
     0
290
     0
174
     0
 93
        1
 44
0.0
173
     0
291
     1
 45
0.0
  0
VISUALSTYLE
  5
34
102
{ACAD_REACTORS
330
2A
102
}
102
{ACAD_XDICTIONARY
360
ED
102
}
330
2A
100
AcDbVisualStyle
  2
Conceptual
 70
     9
 71
     3
 72
     2
 73
     0
 90
        0
 40
-0.6
 41
-30.0
 62
     5
 63
     7
421
 16777215
 74
     2
 91
        2
 64
     7
 65
   257
 75
     1
175
     1
 42
40.0
 92
        8
 66
     7
 43
1.0
 76
     1
 77
     6
 78
     2
 67
     7
 79
     3
170
     0
171
     0
290
     0
174
     0
 93
        1
 44
0.0
173
     0
291
     0
 45
0.0
  0
VISUALSTYLE
  5
35
102
{ACAD_REACTORS
330
2A
102
}
102
{ACAD_XDICTIONARY
360
EF
102
}
330
2A
100
AcDbVisualStyle
  2
Dim
 70
    11
 71
     2
 72
     2
 73
     0
 90
        0
 40
-0.6
 41
-30.0
 62
     5
 63
     7
421
 16777215
 74
     1
 91
        4
 64
     7
 65
   257
 75
     1
175
     1
 42
1.0
 92
        8
 66
     7
 43
1.0
 76
     1
 77
     6
 78
     2
 67
     7
 79
     5
170
     0
171
     0
290
     0
174
     0
 93
        1
 44
-50.0
173
     0
291
     1
 45
0.0
  0
VISUALSTYLE
  5
39
102
{ACAD_REACTORS
330
2A
102
}
102
{ACAD_XDICTIONARY
360
F7
102
}
330
2A
100
AcDbVisualStyle
  2
Facepattern
 70
    15
 71
     2
 72
     2
 73
     0
 90
        0
 40
-0.6
 41
-30.0
 62
     5
 63
     7
421
 16777215
 74
     1
 91
        4
 64
     7
 65
   257
 75
     1
175
     1
 42
1.0
 92
        8
 66
     7
 43
1.0
 76
     1
 77
     6
 78
     2
 67
     7
 79
     5
170
     0
171
     0
290
     0
174
     0
 93
        1
 44
0.0
173
     0
291
     1
 45
0.0
  0
VISUALSTYLE
  5
2B
102
{ACAD_REACTORS
330
2A
102
}
102
{ACAD_XDICTIONARY
360
DB
102
}
330
2A
100
AcDbVisualStyle
  2
Flat
 70
     0
 71
     2
 72
     1
 73
     1
 90
        2
 40
-0.6
 41
30.0
 62
     5
 63
     7
421
 16777215
 74
     0
 91
        4
 64
     7
 65
   257
 75
     1
175
     1
 42
1.0
 92
        8
 66
     7
 43
1.0
 76
     1
 77
     6
 78
     2
 67
     7
 79
     5
170
     0
171
     0
290
     0
174
     0
 93
       13
 44
0.0
173
     0
291
     1
 45
0.0
  0
VISUALSTYLE
  5
2C
102
{ACAD_REACTORS
330
2A
102
}
102
{ACAD_XDICTIONARY
360
DD
102
}
330
2A
100
AcDbVisualStyle
  2
FlatWithEdges
 70
     1
 71
     2
 72
     1
 73
     1
 90
        2
 40
-0.6
 41
30.0
 62
     5
 63
     7
421
 16777215
 74
     1
 91
        4
 64
     7
 65
   257
 75
     1
175
     1
 42
1.0
 92
        0
 66
   257
 43
1.0
 76
     1
 77
     6
 78
     2
 67
     7
 79
     5
170
     0
171
     0
290
     0
174
     0
 93
       13
 44
0.0
173
     0
291
     1
 45
0.0
  0
VISUALSTYLE
  5
2D
102
{ACAD_REACTORS
330
2A
102
}
102
{ACAD_XDICTIONARY
360
DF
102
}
330
2A
100
AcDbVisualStyle
  2
Gouraud
 70
     2
 71
     2
 72
     2
 73
     1
 90
        2
 40
-0.6
 41
30.0
 62
     5
 63
     7
421
 16777215
 74
     0
 91
        4
 64
     7
 65
   257
 75
     1
175
     1
 42
1.0
 92
        0
 66
     7
 43
1.0
 76
     1
 77
     6
 78
     2
 67
     7
 79
     5
170
     0
171
     0
290
     0
174
     0
 93
       13
 44
0.0
173
     0
291
     1
 45
0.0
  0
VISUALSTYLE
  5
2E
102
{ACAD_REACTORS
330
2A
102
}
102
{ACAD_XDICTIONARY
360
E1
102
}
330
2A
100
AcDbVisualStyle
  2
GouraudWithEdges
 70
     3
 71
     2
 72
     2
 73
     1
 90
        2
 40
-0.6
 41
30.0
 62
     5
 63
     7
421
 16777215
 74
     1
 91
        4
 64
     7
 65
   257
 75
     1
175
     1
 42
1.0
 92
        0
 66
   257
 43
1.0
 76
     1
 77
     6
 78
     2
 67
     7
 79
     5
170
     0
171
     0
290
     0
174
     0
 93
       13
 44
0.0
173
     0
291
     1
 45
0.0
  0
VISUALSTYLE
  5
38
102
{ACAD_REACTORS
330
2A
102
}
102
{ACAD_XDICTIONARY
360
F5
102
}
330
2A
100
AcDbVisualStyle
  2
Linepattern
 70
    14
 71
     2
 72
     2
 73
     0
 90
        0
 40
-0.6
 41
-30.0
 62
     5
 63
     7
421
 16777215
 74
     1
 91
        4
 64
     7
 65
   257
 75
     7
175
     7
 42
1.0
 92
        8
 66
     7
 43
1.0
 76
     1
 77
     6
 78
     2
 67
     7
 79
     5
170
     0
171
     0
290
     0
174
     0
 93
        1
 44
0.0
173
     0
291
     1
 45
0.0
  0
VISUALSTYLE
  5
33
102
{ACAD_REACTORS
330
2A
102
}
102
{ACAD_XDICTIONARY
360
EB
102
}
330
2A
100
AcDbVisualStyle
  2
Realistic
 70
     8
 71
     2
 72
     2
 73
     0
 90
        0
 40
-0.6
 41
-30.0
 62
     5
 63
     7
421
 16777215
 74
     1
 91
        0
 64
     7
 65
   257
 75
     1
175
     1
 42
1.0
 92
        8
 66
     8
424
  7895160
 43
1.0
 76
     1
 77
     6
 78
     2
 67
     7
 79
     5
170
     0
171
     0
290
     0
174
     0
 93
       13
 44
0.0
173
     0
291
     0
 45
0.0
  0
VISUALSTYLE
  5
37
102
{ACAD_REACTORS
330
2A
102
}
102
{ACAD_XDICTIONARY
360
F3
102
}
330
2A
100
AcDbVisualStyle
  2
Thicken
 70
    13
 71
     2
 72
     2
 73
     0
 90
        0
 40
-0.6
 41
-30.0
 62
     5
 63
     7
421
 16777215
 74
     1
 91
        4
 64
     7
 65
   257
 75
     1
175
     1
 42
1.0
 92
       12
 66
     7
 43
1.0
 76
     1
 77
     6
 78
     2
 67
     7
 79
     5
170
     0
171
     0
290
     0
174
     0
 93
        1
 44
0.0
173
     0
291
     1
 45
0.0
  0
DICTIONARY
  5
E3
330
2F
100
AcDbDictionary
280
     1
281
     1
  3
ACAD_XREC_ROUNDTRIP
360
E4
  0
DICTIONARY
  5
E7
330
31
100
AcDbDictionary
280
     1
281
     1
  3
ACAD_XREC_ROUNDTRIP
360
E8
  0
DICTIONARY
  5
E5
330
30
100
AcDbDictionary
280
     1
281
     1
  3
ACAD_XREC_ROUNDTRIP
360
E6
  0
DICTIONARY
  5
E9
330
32
100
AcDbDictionary
280
     1
281
     1
  3
ACAD_XREC_ROUNDTRIP
360
EA
  0
DICTIONARY
  5
F1
330
36
100
AcDbDictionary
280
     1
281
     1
  3
ACAD_XREC_ROUNDTRIP
360
F2
  0
DICTIONARY
  5
F9
330
3A
100
AcDbDictionary
280
     1
281
     1
  3
ACAD_XREC_ROUNDTRIP
360
FA
  0
DICTIONARY
  5
ED
330
34
100
AcDbDictionary
280
     1
281
     1
  3
ACAD_XREC_ROUNDTRIP
360
EE
  0
DICTIONARY
  5
EF
330
35
100
AcDbDictionary
280
     1
281
     1
  3
ACAD_XREC_ROUNDTRIP
360
F0
  0
DICTIONARY
  5
F7
330
39
100
AcDbDictionary
280
     1
281
     1
  3
ACAD_XREC_ROUNDTRIP
360
F8
  0
DICTIONARY
  5
DB
330
2B
100
AcDbDictionary
280
     1
281
     1
  3
ACAD_XREC_ROUNDTRIP
360
DC
  0
DICTIONARY
  5
DD
330
2C
100
AcDbDictionary
280
     1
281
     1
  3
ACAD_XREC_ROUNDTRIP
360
DE
  0
DICTIONARY
  5
DF
330
2D
100
AcDbDictionary
280
     1
281
     1
  3
ACAD_XREC_ROUNDTRIP
360
E0
  0
DICTIONARY
  5
E1
330
2E
100
AcDbDictionary
280
     1
281
     1
  3
ACAD_XREC_ROUNDTRIP
360
E2
  0
DICTIONARY
  5
F5
330
38
100
AcDbDictionary
280
     1
281
     1
  3
ACAD_XREC_ROUNDTRIP
360
F6
  0
DICTIONARY
  5
EB
330
33
100
AcDbDictionary
280
     1
281
     1
  3
ACAD_XREC_ROUNDTRIP
360
EC
  0
DICTIONARY
  5
F3
330
37
100
AcDbDictionary
280
     1
281
     1
  3
ACAD_XREC_ROUNDTRIP
360
F4
  0
XRECORD
  5
E4
102
{ACAD_REACTORS
330
E3
102
}
330
E3
100
AcDbXrecord
280
     1
102
RTVSPropertyOp0
 70
     1
102
RTVSPropertyOp1
 70
     1
102
RTVSPropertyOp2
 70
     1
102
RTVSPropertyOp3
 70
     1
102
RTVSPropertyOp4
 70
     1
102
RTVSPropertyOp5
 70
     1
102
RTVSPropertyOp6
 70
     1
102
RTVSPropertyOp7
 70
     1
102
RTVSPropertyOp8
 70
     1
102
RTVSPropertyOp9
 70
     1
102
RTVSPropertyOp10
 70
     1
102
RTVSPropertyOp11
 70
     1
102
RTVSPropertyOp12
 70
     1
102
RTVSPropertyOp13
 70
     1
102
RTVSPropertyOp14
 70
     1
102
RTVSPropertyOp15
 70
     1
102
RTVSPropertyOp16
 70
     1
102
RTVSPropertyOp17
 70
     1
102
RTVSPropertyOp18
 70
     1
102
RTVSPropertyOp19
 70
     1
102
RTVSPropertyOp20
 70
     1
102
RTVSPropertyOp21
 70
     1
102
RTVSPropertyOp22
 70
     1
102
RTVSPropertyOp23
 70
     1
102
RTVSPropertyOp24
 70
     1
102
RTVSPropertyOp25
 70
     1
102
RTVSPropertyOp26
 70
     1
102
RTVSPropertyOp27
 70
     1
102
RTVSPropertyOp28
 70
     1
102
RTVSPropertyOp29
 70
     1
102
RTVSPropertyOp30
 70
     1
102
RTVSPropertyOp31
 70
     1
102
RTVSPropertyOp32
 70
     1
  0
XRECORD
  5
E8
102
{ACAD_REACTORS
330
E7
102
}
330
E7
100
AcDbXrecord
280
     1
102
RTVSPropertyOp0
 70
     1
102
RTVSPropertyOp1
 70
     1
102
RTVSPropertyOp2
 70
     1
102
RTVSPropertyOp3
 70
     1
102
RTVSPropertyOp4
 70
     1
102
RTVSPropertyOp5
 70
     1
102
RTVSPropertyOp6
 70
     1
102
RTVSPropertyOp7
 70
     1
102
RTVSPropertyOp8
 70
     1
102
RTVSPropertyOp9
 70
     1
102
RTVSPropertyOp10
 70
     1
102
RTVSPropertyOp11
 70
     1
102
RTVSPropertyOp12
 70
     1
102
RTVSPropertyOp13
 70
     1
102
RTVSPropertyOp14
 70
     1
102
RTVSPropertyOp15
 70
     1
102
RTVSPropertyOp16
 70
     1
102
RTVSPropertyOp17
 70
     1
102
RTVSPropertyOp18
 70
     1
102
RTVSPropertyOp19
 70
     1
102
RTVSPropertyOp20
 70
     1
102
RTVSPropertyOp21
 70
     1
102
RTVSPropertyOp22
 70
     1
102
RTVSPropertyOp23
 70
     1
102
RTVSPropertyOp24
 70
     1
102
RTVSPropertyOp25
 70
     1
102
RTVSPropertyOp26
 70
     1
102
RTVSPropertyOp27
 70
     1
102
RTVSPropertyOp28
 70
     1
102
RTVSPropertyOp29
 70
     1
102
RTVSPropertyOp30
 70
     1
102
RTVSPropertyOp31
 70
     1
102
RTVSPropertyOp32
 70
     1
  0
XRECORD
  5
E6
102
{ACAD_REACTORS
330
E5
102
}
330
E5
100
AcDbXrecord
280
     1
102
RTVSPropertyOp0
 70
     1
102
RTVSPropertyOp1
 70
     1
102
RTVSPropertyOp2
 70
     1
102
RTVSPropertyOp3
 70
     1
102
RTVSPropertyOp4
 70
     1
102
RTVSPropertyOp5
 70
     1
102
RTVSPropertyOp6
 70
     1
102
RTVSPropertyOp7
 70
     1
102
RTVSPropertyOp8
 70
     1
102
RTVSPropertyOp9
 70
     1
102
RTVSPropertyOp10
 70
     1
102
RTVSPropertyOp11
 70
     1
102
RTVSPropertyOp12
 70
     1
102
RTVSPropertyOp13
 70
     1
102
RTVSPropertyOp14
 70
     1
102
RTVSPropertyOp15
 70
     1
102
RTVSPropertyOp16
 70
     1
102
RTVSPropertyOp17
 70
     1
102
RTVSPropertyOp18
 70
     1
102
RTVSPropertyOp19
 70
     1
102
RTVSPropertyOp20
 70
     1
102
RTVSPropertyOp21
 70
     1
102
RTVSPropertyOp22
 70
     1
102
RTVSPropertyOp23
 70
     1
102
RTVSPropertyOp24
 70
     1
102
RTVSPropertyOp25
 70
     1
102
RTVSPropertyOp26
 70
     1
102
RTVSPropertyOp27
 70
     1
102
RTVSPropertyOp28
 70
     1
102
RTVSPropertyOp29
 70
     1
102
RTVSPropertyOp30
 70
     1
102
RTVSPropertyOp31
 70
     1
102
RTVSPropertyOp32
 70
     1
  0
XRECORD
  5
EA
102
{ACAD_REACTORS
330
E9
102
}
330
E9
100
AcDbXrecord
280
     1
102
RTVSPropertyOp0
 70
     1
102
RTVSPropertyOp1
 70
     1
102
RTVSPropertyOp2
 70
     1
102
RTVSPropertyOp3
 70
     1
102
RTVSPropertyOp4
 70
     1
102
RTVSPropertyOp5
 70
     1
102
RTVSPropertyOp6
 70
     1
102
RTVSPropertyOp7
 70
     1
102
RTVSPropertyOp8
 70
     1
102
RTVSPropertyOp9
 70
     1
102
RTVSPropertyOp10
 70
     1
102
RTVSPropertyOp11
 70
     1
102
RTVSPropertyOp12
 70
     1
102
RTVSPropertyOp13
 70
     1
102
RTVSPropertyOp14
 70
     1
102
RTVSPropertyOp15
 70
     1
102
RTVSPropertyOp16
 70
     1
102
RTVSPropertyOp17
 70
     1
102
RTVSPropertyOp18
 70
     1
102
RTVSPropertyOp19
 70
     1
102
RTVSPropertyOp20
 70
     1
102
RTVSPropertyOp21
 70
     1
102
RTVSPropertyOp22
 70
     1
102
RTVSPropertyOp23
 70
     1
102
RTVSPropertyOp24
 70
     1
102
RTVSPropertyOp25
 70
     1
102
RTVSPropertyOp26
 70
     1
102
RTVSPropertyOp27
 70
     1
102
RTVSPropertyOp28
 70
     1
102
RTVSPropertyOp29
 70
     1
102
RTVSPropertyOp30
 70
     1
102
RTVSPropertyOp31
 70
     1
102
RTVSPropertyOp32
 70
     1
  0
XRECORD
  5
F2
102
{ACAD_REACTORS
330
F1
102
}
330
F1
100
AcDbXrecord
280
     1
102
RTVSPropertyOp0
 70
     1
102
RTVSPropertyOp1
 70
     1
102
RTVSPropertyOp2
 70
     1
102
RTVSPropertyOp3
 70
     1
102
RTVSPropertyOp4
 70
     1
102
RTVSPropertyOp5
 70
     1
102
RTVSPropertyOp6
 70
     1
102
RTVSPropertyOp7
 70
     1
102
RTVSPropertyOp8
 70
     1
102
RTVSPropertyOp9
 70
     1
102
RTVSPropertyOp10
 70
     1
102
RTVSPropertyOp11
 70
     1
102
RTVSPropertyOp12
 70
     1
102
RTVSPropertyOp13
 70
     1
102
RTVSPropertyOp14
 70
     1
102
RTVSPropertyOp15
 70
     1
102
RTVSPropertyOp16
 70
     1
102
RTVSPropertyOp17
 70
     1
102
RTVSPropertyOp18
 70
     1
102
RTVSPropertyOp19
 70
     1
102
RTVSPropertyOp20
 70
     1
102
RTVSPropertyOp21
 70
     1
102
RTVSPropertyOp22
 70
     1
102
RTVSPropertyOp23
 70
     1
102
RTVSPropertyOp24
 70
     1
102
RTVSPropertyOp25
 70
     1
102
RTVSPropertyOp26
 70
     1
102
RTVSPropertyOp27
 70
     1
102
RTVSPropertyOp28
 70
     1
102
RTVSPropertyOp29
 70
     1
102
RTVSPropertyOp30
 70
     1
102
RTVSPropertyOp31
 70
     1
102
RTVSPropertyOp32
 70
     1
  0
XRECORD
  5
FA
102
{ACAD_REACTORS
330
F9
102
}
330
F9
100
AcDbXrecord
280
     1
102
RTVSPropertyOp0
 70
     1
102
RTVSPropertyOp1
 70
     1
102
RTVSPropertyOp2
 70
     1
102
RTVSPropertyOp3
 70
     1
102
RTVSPropertyOp4
 70
     1
102
RTVSPropertyOp5
 70
     1
102
RTVSPropertyOp6
 70
     1
102
RTVSPropertyOp7
 70
     1
102
RTVSPropertyOp8
 70
     1
102
RTVSPropertyOp9
 70
     1
102
RTVSPropertyOp10
 70
     1
102
RTVSPropertyOp11
 70
     1
102
RTVSPropertyOp12
 70
     1
102
RTVSPropertyOp13
 70
     1
102
RTVSPropertyOp14
 70
     1
102
RTVSPropertyOp15
 70
     1
102
RTVSPropertyOp16
 70
     1
102
RTVSPropertyOp17
 70
     1
102
RTVSPropertyOp18
 70
     1
102
RTVSPropertyOp19
 70
     1
102
RTVSPropertyOp20
 70
     1
102
RTVSPropertyOp21
 70
     1
102
RTVSPropertyOp22
 70
     1
102
RTVSPropertyOp23
 70
     1
102
RTVSPropertyOp24
 70
     1
102
RTVSPropertyOp25
 70
     1
102
RTVSPropertyOp26
 70
     1
102
RTVSPropertyOp27
 70
     1
102
RTVSPropertyOp28
 70
     1
102
RTVSPropertyOp29
 70
     1
102
RTVSPropertyOp30
 70
     1
102
RTVSPropertyOp31
 70
     1
102
RTVSPropertyOp32
 70
     1
  0
XRECORD
  5
EE
102
{ACAD_REACTORS
330
ED
102
}
330
ED
100
AcDbXrecord
280
     1
102
RTVSPropertyOp0
 70
     1
102
RTVSPropertyOp1
 70
     1
102
RTVSPropertyOp2
 70
     1
102
RTVSPropertyOp3
 70
     1
102
RTVSPropertyOp4
 70
     1
102
RTVSPropertyOp5
 70
     1
102
RTVSPropertyOp6
 70
     1
102
RTVSPropertyOp7
 70
     1
102
RTVSPropertyOp8
 70
     1
102
RTVSPropertyOp9
 70
     1
102
RTVSPropertyOp10
 70
     1
102
RTVSPropertyOp11
 70
     1
102
RTVSPropertyOp12
 70
     1
102
RTVSPropertyOp13
 70
     1
102
RTVSPropertyOp14
 70
     1
102
RTVSPropertyOp15
 70
     1
102
RTVSPropertyOp16
 70
     1
102
RTVSPropertyOp17
 70
     1
102
RTVSPropertyOp18
 70
     1
102
RTVSPropertyOp19
 70
     1
102
RTVSPropertyOp20
 70
     1
102
RTVSPropertyOp21
 70
     1
102
RTVSPropertyOp22
 70
     1
102
RTVSPropertyOp23
 70
     1
102
RTVSPropertyOp24
 70
     1
102
RTVSPropertyOp25
 70
     1
102
RTVSPropertyOp26
 70
     1
102
RTVSPropertyOp27
 70
     1
102
RTVSPropertyOp28
 70
     1
102
RTVSPropertyOp29
 70
     1
102
RTVSPropertyOp30
 70
     1
102
RTVSPropertyOp31
 70
     1
102
RTVSPropertyOp32
 70
     1
  0
XRECORD
  5
F0
102
{ACAD_REACTORS
330
EF
102
}
330
EF
100
AcDbXrecord
280
     1
102
RTVSPropertyOp0
 70
     1
102
RTVSPropertyOp1
 70
     1
102
RTVSPropertyOp2
 70
     1
102
RTVSPropertyOp3
 70
     1
102
RTVSPropertyOp4
 70
     1
102
RTVSPropertyOp5
 70
     1
102
RTVSPropertyOp6
 70
     1
102
RTVSPropertyOp7
 70
     1
102
RTVSPropertyOp8
 70
     1
102
RTVSPropertyOp9
 70
     1
102
RTVSPropertyOp10
 70
     1
102
RTVSPropertyOp11
 70
     1
102
RTVSPropertyOp12
 70
     1
102
RTVSPropertyOp13
 70
     1
102
RTVSPropertyOp14
 70
     1
102
RTVSPropertyOp15
 70
     1
102
RTVSPropertyOp16
 70
     1
102
RTVSPropertyOp17
 70
     1
102
RTVSPropertyOp18
 70
     1
102
RTVSPropertyOp19
 70
     1
102
RTVSPropertyOp20
 70
     1
102
RTVSPropertyOp21
 70
     1
102
RTVSPropertyOp22
 70
     1
102
RTVSPropertyOp23
 70
     1
102
RTVSPropertyOp24
 70
     1
102
RTVSPropertyOp25
 70
     1
102
RTVSPropertyOp26
 70
     1
102
RTVSPropertyOp27
 70
     1
102
RTVSPropertyOp28
 70
     1
102
RTVSPropertyOp29
 70
     1
102
RTVSPropertyOp30
 70
     1
102
RTVSPropertyOp31
 70
     1
102
RTVSPropertyOp32
 70
     1
  0
XRECORD
  5
F8
102
{ACAD_REACTORS
330
F7
102
}
330
F7
100
AcDbXrecord
280
     1
102
RTVSPropertyOp0
 70
     1
102
RTVSPropertyOp1
 70
     1
102
RTVSPropertyOp2
 70
     1
102
RTVSPropertyOp3
 70
     1
102
RTVSPropertyOp4
 70
     1
102
RTVSPropertyOp5
 70
     1
102
RTVSPropertyOp6
 70
     1
102
RTVSPropertyOp7
 70
     1
102
RTVSPropertyOp8
 70
     1
102
RTVSPropertyOp9
 70
     1
102
RTVSPropertyOp10
 70
     1
102
RTVSPropertyOp11
 70
     1
102
RTVSPropertyOp12
 70
     1
102
RTVSPropertyOp13
 70
     1
102
RTVSPropertyOp14
 70
     1
102
RTVSPropertyOp15
 70
     1
102
RTVSPropertyOp16
 70
     1
102
RTVSPropertyOp17
 70
     1
102
RTVSPropertyOp18
 70
     1
102
RTVSPropertyOp19
 70
     1
102
RTVSPropertyOp20
 70
     1
102
RTVSPropertyOp21
 70
     1
102
RTVSPropertyOp22
 70
     1
102
RTVSPropertyOp23
 70
     1
102
RTVSPropertyOp24
 70
     1
102
RTVSPropertyOp25
 70
     1
102
RTVSPropertyOp26
 70
     1
102
RTVSPropertyOp27
 70
     1
102
RTVSPropertyOp28
 70
     1
102
RTVSPropertyOp29
 70
     1
102
RTVSPropertyOp30
 70
     1
102
RTVSPropertyOp31
 70
     1
102
RTVSPropertyOp32
 70
     1
  0
XRECORD
  5
DC
102
{ACAD_REACTORS
330
DB
102
}
330
DB
100
AcDbXrecord
280
     1
102
RTVSPropertyOp0
 70
     1
102
RTVSPropertyOp1
 70
     1
102
RTVSPropertyOp2
 70
     1
102
RTVSPropertyOp3
 70
     1
102
RTVSPropertyOp4
 70
     1
102
RTVSPropertyOp5
 70
     1
102
RTVSPropertyOp6
 70
     1
102
RTVSPropertyOp7
 70
     1
102
RTVSPropertyOp8
 70
     1
102
RTVSPropertyOp9
 70
     1
102
RTVSPropertyOp10
 70
     1
102
RTVSPropertyOp11
 70
     1
102
RTVSPropertyOp12
 70
     1
102
RTVSPropertyOp13
 70
     1
102
RTVSPropertyOp14
 70
     1
102
RTVSPropertyOp15
 70
     1
102
RTVSPropertyOp16
 70
     1
102
RTVSPropertyOp17
 70
     1
102
RTVSPropertyOp18
 70
     1
102
RTVSPropertyOp19
 70
     1
102
RTVSPropertyOp20
 70
     1
102
RTVSPropertyOp21
 70
     1
102
RTVSPropertyOp22
 70
     1
102
RTVSPropertyOp23
 70
     1
102
RTVSPropertyOp24
 70
     1
102
RTVSPropertyOp25
 70
     1
102
RTVSPropertyOp26
 70
     1
102
RTVSPropertyOp27
 70
     1
102
RTVSPropertyOp28
 70
     1
102
RTVSPropertyOp29
 70
     1
102
RTVSPropertyOp30
 70
     1
102
RTVSPropertyOp31
 70
     1
102
RTVSPropertyOp32
 70
     1
  0
XRECORD
  5
DE
102
{ACAD_REACTORS
330
DD
102
}
330
DD
100
AcDbXrecord
280
     1
102
RTVSPropertyOp0
 70
     1
102
RTVSPropertyOp1
 70
     1
102
RTVSPropertyOp2
 70
     1
102
RTVSPropertyOp3
 70
     1
102
RTVSPropertyOp4
 70
     1
102
RTVSPropertyOp5
 70
     1
102
RTVSPropertyOp6
 70
     1
102
RTVSPropertyOp7
 70
     1
102
RTVSPropertyOp8
 70
     1
102
RTVSPropertyOp9
 70
     1
102
RTVSPropertyOp10
 70
     1
102
RTVSPropertyOp11
 70
     1
102
RTVSPropertyOp12
 70
     1
102
RTVSPropertyOp13
 70
     1
102
RTVSPropertyOp14
 70
     1
102
RTVSPropertyOp15
 70
     1
102
RTVSPropertyOp16
 70
     1
102
RTVSPropertyOp17
 70
     1
102
RTVSPropertyOp18
 70
     1
102
RTVSPropertyOp19
 70
     1
102
RTVSPropertyOp20
 70
     1
102
RTVSPropertyOp21
 70
     1
102
RTVSPropertyOp22
 70
     1
102
RTVSPropertyOp23
 70
     1
102
RTVSPropertyOp24
 70
     1
102
RTVSPropertyOp25
 70
     1
102
RTVSPropertyOp26
 70
     1
102
RTVSPropertyOp27
 70
     1
102
RTVSPropertyOp28
 70
     1
102
RTVSPropertyOp29
 70
     1
102
RTVSPropertyOp30
 70
     1
102
RTVSPropertyOp31
 70
     1
102
RTVSPropertyOp32
 70
     1
  0
XRECORD
  5
E0
102
{ACAD_REACTORS
330
DF
102
}
330
DF
100
AcDbXrecord
280
     1
102
RTVSPropertyOp0
 70
     1
102
RTVSPropertyOp1
 70
     1
102
RTVSPropertyOp2
 70
     1
102
RTVSPropertyOp3
 70
     1
102
RTVSPropertyOp4
 70
     1
102
RTVSPropertyOp5
 70
     1
102
RTVSPropertyOp6
 70
     1
102
RTVSPropertyOp7
 70
     1
102
RTVSPropertyOp8
 70
     1
102
RTVSPropertyOp9
 70
     1
102
RTVSPropertyOp10
 70
     1
102
RTVSPropertyOp11
 70
     1
102
RTVSPropertyOp12
 70
     1
102
RTVSPropertyOp13
 70
     1
102
RTVSPropertyOp14
 70
     1
102
RTVSPropertyOp15
 70
     1
102
RTVSPropertyOp16
 70
     1
102
RTVSPropertyOp17
 70
     1
102
RTVSPropertyOp18
 70
     1
102
RTVSPropertyOp19
 70
     1
102
RTVSPropertyOp20
 70
     1
102
RTVSPropertyOp21
 70
     1
102
RTVSPropertyOp22
 70
     1
102
RTVSPropertyOp23
 70
     1
102
RTVSPropertyOp24
 70
     1
102
RTVSPropertyOp25
 70
     1
102
RTVSPropertyOp26
 70
     1
102
RTVSPropertyOp27
 70
     1
102
RTVSPropertyOp28
 70
     1
102
RTVSPropertyOp29
 70
     1
102
RTVSPropertyOp30
 70
     1
102
RTVSPropertyOp31
 70
     1
102
RTVSPropertyOp32
 70
     1
  0
XRECORD
  5
E2
102
{ACAD_REACTORS
330
E1
102
}
330
E1
100
AcDbXrecord
280
     1
102
RTVSPropertyOp0
 70
     1
102
RTVSPropertyOp1
 70
     1
102
RTVSPropertyOp2
 70
     1
102
RTVSPropertyOp3
 70
     1
102
RTVSPropertyOp4
 70
     1
102
RTVSPropertyOp5
 70
     1
102
RTVSPropertyOp6
 70
     1
102
RTVSPropertyOp7
 70
     1
102
RTVSPropertyOp8
 70
     1
102
RTVSPropertyOp9
 70
     1
102
RTVSPropertyOp10
 70
     1
102
RTVSPropertyOp11
 70
     1
102
RTVSPropertyOp12
 70
     1
102
RTVSPropertyOp13
 70
     1
102
RTVSPropertyOp14
 70
     1
102
RTVSPropertyOp15
 70
     1
102
RTVSPropertyOp16
 70
     1
102
RTVSPropertyOp17
 70
     1
102
RTVSPropertyOp18
 70
     1
102
RTVSPropertyOp19
 70
     1
102
RTVSPropertyOp20
 70
     1
102
RTVSPropertyOp21
 70
     1
102
RTVSPropertyOp22
 70
     1
102
RTVSPropertyOp23
 70
     1
102
RTVSPropertyOp24
 70
     1
102
RTVSPropertyOp25
 70
     1
102
RTVSPropertyOp26
 70
     1
102
RTVSPropertyOp27
 70
     1
102
RTVSPropertyOp28
 70
     1
102
RTVSPropertyOp29
 70
     1
102
RTVSPropertyOp30
 70
     1
102
RTVSPropertyOp31
 70
     1
102
RTVSPropertyOp32
 70
     1
  0
XRECORD
  5
F6
102
{ACAD_REACTORS
330
F5
102
}
330
F5
100
AcDbXrecord
280
     1
102
RTVSPropertyOp0
 70
     1
102
RTVSPropertyOp1
 70
     1
102
RTVSPropertyOp2
 70
     1
102
RTVSPropertyOp3
 70
     1
102
RTVSPropertyOp4
 70
     1
102
RTVSPropertyOp5
 70
     1
102
RTVSPropertyOp6
 70
     1
102
RTVSPropertyOp7
 70
     1
102
RTVSPropertyOp8
 70
     1
102
RTVSPropertyOp9
 70
     1
102
RTVSPropertyOp10
 70
     1
102
RTVSPropertyOp11
 70
     1
102
RTVSPropertyOp12
 70
     1
102
RTVSPropertyOp13
 70
     1
102
RTVSPropertyOp14
 70
     1
102
RTVSPropertyOp15
 70
     1
102
RTVSPropertyOp16
 70
     1
102
RTVSPropertyOp17
 70
     1
102
RTVSPropertyOp18
 70
     1
102
RTVSPropertyOp19
 70
     1
102
RTVSPropertyOp20
 70
     1
102
RTVSPropertyOp21
 70
     1
102
RTVSPropertyOp22
 70
     1
102
RTVSPropertyOp23
 70
     1
102
RTVSPropertyOp24
 70
     1
102
RTVSPropertyOp25
 70
     1
102
RTVSPropertyOp26
 70
     1
102
RTVSPropertyOp27
 70
     1
102
RTVSPropertyOp28
 70
     1
102
RTVSPropertyOp29
 70
     1
102
RTVSPropertyOp30
 70
     1
102
RTVSPropertyOp31
 70
     1
102
RTVSPropertyOp32
 70
     1
  0
XRECORD
  5
EC
102
{ACAD_REACTORS
330
EB
102
}
330
EB
100
AcDbXrecord
280
     1
102
RTVSPropertyOp0
 70
     1
102
RTVSPropertyOp1
 70
     1
102
RTVSPropertyOp2
 70
     1
102
RTVSPropertyOp3
 70
     1
102
RTVSPropertyOp4
 70
     1
102
RTVSPropertyOp5
 70
     1
102
RTVSPropertyOp6
 70
     1
102
RTVSPropertyOp7
 70
     1
102
RTVSPropertyOp8
 70
     1
102
RTVSPropertyOp9
 70
     1
102
RTVSPropertyOp10
 70
     1
102
RTVSPropertyOp11
 70
     1
102
RTVSPropertyOp12
 70
     1
102
RTVSPropertyOp13
 70
     1
102
RTVSPropertyOp14
 70
     1
102
RTVSPropertyOp15
 70
     1
102
RTVSPropertyOp16
 70
     1
102
RTVSPropertyOp17
 70
     1
102
RTVSPropertyOp18
 70
     1
102
RTVSPropertyOp19
 70
     1
102
RTVSPropertyOp20
 70
     1
102
RTVSPropertyOp21
 70
     1
102
RTVSPropertyOp22
 70
     1
102
RTVSPropertyOp23
 70
     1
102
RTVSPropertyOp24
 70
     1
102
RTVSPropertyOp25
 70
     1
102
RTVSPropertyOp26
 70
     1
102
RTVSPropertyOp27
 70
     1
102
RTVSPropertyOp28
 70
     1
102
RTVSPropertyOp29
 70
     1
102
RTVSPropertyOp30
 70
     1
102
RTVSPropertyOp31
 70
     1
102
RTVSPropertyOp32
 70
     1
  0
XRECORD
  5
F4
102
{ACAD_REACTORS
330
F3
102
}
330
F3
100
AcDbXrecord
280
     1
102
RTVSPropertyOp0
 70
     1
102
RTVSPropertyOp1
 70
     1
102
RTVSPropertyOp2
 70
     1
102
RTVSPropertyOp3
 70
     1
102
RTVSPropertyOp4
 70
     1
102
RTVSPropertyOp5
 70
     1
102
RTVSPropertyOp6
 70
     1
102
RTVSPropertyOp7
 70
     1
102
RTVSPropertyOp8
 70
     1
102
RTVSPropertyOp9
 70
     1
102
RTVSPropertyOp10
 70
     1
102
RTVSPropertyOp11
 70
     1
102
RTVSPropertyOp12
 70
     1
102
RTVSPropertyOp13
 70
     1
102
RTVSPropertyOp14
 70
     1
102
RTVSPropertyOp15
 70
     1
102
RTVSPropertyOp16
 70
     1
102
RTVSPropertyOp17
 70
     1
102
RTVSPropertyOp18
 70
     1
102
RTVSPropertyOp19
 70
     1
102
RTVSPropertyOp20
 70
     1
102
RTVSPropertyOp21
 70
     1
102
RTVSPropertyOp22
 70
     1
102
RTVSPropertyOp23
 70
     1
102
RTVSPropertyOp24
 70
     1
102
RTVSPropertyOp25
 70
     1
102
RTVSPropertyOp26
 70
     1
102
RTVSPropertyOp27
 70
     1
102
RTVSPropertyOp28
 70
     1
102
RTVSPropertyOp29
 70
     1
102
RTVSPropertyOp30
 70
     1
102
RTVSPropertyOp31
 70
     1
102
RTVSPropertyOp32
 70
     1
  0
ENDSEC
  0
EOF
