  0
SECTION
  2
HEADER
  9
$ACADVER
  1
AC1021
  9
$ACADMAINTVER
 70
    25
  9
$DWGCODEPAGE
  3
ANSI_1256
  9
$INSBASE
 10
0.0
 20
0.0
 30
0.0
  9
$EXTMIN
 10
17.0634
 20
-114.8446
 30
0.0
  9
$EXTMAX
 10
196.2159
 20
131.9665
 30
0.0
  9
$LIMMIN
 10
0.0
 20
0.0
  9
$LIMMAX
 10
12.0
 20
9.0
  9
$ORTHOMODE
 70
     0
  9
$REGENMODE
 70
     1
  9
$FILLMODE
 70
     1
  9
$QTEXTMODE
 70
     0
  9
$MIRRTEXT
 70
     1
  9
$LTSCALE
 40
1.0
  9
$ATTMODE
 70
     1
  9
$TEXTSIZE
 40
0.2
  9
$TRACEWID
 40
0.05
  9
$TEXTSTYLE
  7
Standard
  9
$CLAYER
  8
0
  9
$CELTYPE
  6
ByLayer
  9
$CECOLOR
 62
   256
  9
$CELTSCALE
 40
1.0
  9
$DISPSILH
 70
     0
  9
$DIMSCALE
 40
1.0
  9
$DIMASZ
 40
0.18
  9
$DIMEXO
 40
0.0625
  9
$DIMDLI
 40
0.38
  9
$DIMRND
 40
0.0
  9
$DIMDLE
 40
0.0
  9
$DIMEXE
 40
0.18
  9
$DIMTP
 40
0.0
  9
$DIMTM
 40
0.0
  9
$DIMTXT
 40
0.18
  9
$DIMCEN
 40
0.09
  9
$DIMTSZ
 40
0.0
  9
$DIMTOL
 70
     0
  9
$DIMLIM
 70
     0
  9
$DIMTIH
 70
     1
  9
$DIMTOH
 70
     1
  9
$DIMSE1
 70
     0
  9
$DIMSE2
 70
     0
  9
$DIMTAD
 70
     0
  9
$DIMZIN
 70
     0
  9
$DIMBLK
  1

  9
$DIMASO
 70
     1
  9
$DIMSHO
 70
     1
  9
$DIMPOST
  1

  9
$DIMAPOST
  1

  9
$DIMALT
 70
     0
  9
$DIMALTD
 70
     2
  9
$DIMALTF
 40
25.4
  9
$DIMLFAC
 40
1.0
  9
$DIMTOFL
 70
     0
  9
$DIMTVP
 40
0.0
  9
$DIMTIX
 70
     0
  9
$DIMSOXD
 70
     0
  9
$DIMSAH
 70
     0
  9
$DIMBLK1
  1

  9
$DIMBLK2
  1

  9
$DIMSTYLE
  2
Standard
  9
$DIMCLRD
 70
     0
  9
$DIMCLRE
 70
     0
  9
$DIMCLRT
 70
     0
  9
$DIMTFAC
 40
1.0
  9
$DIMGAP
 40
0.09
  9
$DIMJUST
 70
     0
  9
$DIMSD1
 70
     0
  9
$DIMSD2
 70
     0
  9
$DIMTOLJ
 70
     1
  9
$DIMTZIN
 70
     0
  9
$DIMALTZ
 70
     0
  9
$DIMALTTZ
 70
     0
  9
$DIMUPT
 70
     0
  9
$DIMDEC
 70
     4
  9
$DIMTDEC
 70
     4
  9
$DIMALTU
 70
     2
  9
$DIMALTTD
 70
     2
  9
$DIMTXSTY
  7
Standard
  9
$DIMAUNIT
 70
     0
  9
$DIMADEC
 70
     0
  9
$DIMALTRND
 40
0.0
  9
$DIMAZIN
 70
     0
  9
$DIMDSEP
 70
    46
  9
$DIMATFIT
 70
     3
  9
$DIMFRAC
 70
     0
  9
$DIMLDRBLK
  1

  9
$DIMLUNIT
 70
     2
  9
$DIMLWD
 70
    -2
  9
$DIMLWE
 70
    -2
  9
$DIMTMOVE
 70
     0
  9
$DIMFXL
 40
1.0
  9
$DIMFXLON
 70
     0
  9
$DIMJOGANG
 40
0.7853981633974483
  9
$DIMTFILL
 70
     0
  9
$DIMTFILLCLR
 70
     0
  9
$DIMARCSYM
 70
     0
  9
$DIMLTYPE
  6

  9
$DIMLTEX1
  6

  9
$DIMLTEX2
  6

  9
$LUNITS
 70
     2
  9
$LUPREC
 70
     4
  9
$SKETCHINC
 40
0.1
  9
$FILLETRAD
 40
0.5
  9
$AUNITS
 70
     0
  9
$AUPREC
 70
     0
  9
$MENU
  1
.
  9
$ELEVATION
 40
0.0
  9
$PELEVATION
 40
0.0
  9
$THICKNESS
 40
0.0
  9
$LIMCHECK
 70
     0
  9
$CHAMFERA
 40
0.5
  9
$CHAMFERB
 40
0.5
  9
$CHAMFERC
 40
1.0
  9
$CHAMFERD
 40
0.0
  9
$SKPOLY
 70
     0
  9
$TDCREATE
 40
2458492.398301215
  9
$TDUCREATE
 40
2458492.231634548
  9
$TDUPDATE
 40
2458492.398301331
  9
$TDUUPDATE
 40
2458492.231634664
  9
$TDINDWG
 40
0.0000000116
  9
$TDUSRTIMER
 40
0.0000000116
  9
$USRTIMER
 70
     1
  9
$ANGBASE
 50
0.0
  9
$ANGDIR
 70
     0
  9
$PDMODE
 70
     0
  9
$PDSIZE
 40
0.0
  9
$PLINEWID
 40
0.0
  9
$SPLFRAME
 70
     0
  9
$SPLINETYPE
 70
     6
  9
$SPLINESEGS
 70
     8
  9
$HANDSEED
  5
89
  9
$SURFTAB1
 70
     6
  9
$SURFTAB2
 70
     6
  9
$SURFTYPE
 70
     6
  9
$SURFU
 70
     6
  9
$SURFV
 70
     6
  9
$UCSBASE
  2

  9
$UCSNAME
  2

  9
$UCSORG
 10
0.0
 20
0.0
 30
0.0
  9
$UCSXDIR
 10
1.0
 20
0.0
 30
0.0
  9
$UCSYDIR
 10
0.0
 20
1.0
 30
0.0
  9
$UCSORTHOREF
  2

  9
$UCSORTHOVIEW
 70
     0
  9
$UCSORGTOP
 10
0.0
 20
0.0
 30
0.0
  9
$UCSORGBOTTOM
 10
0.0
 20
0.0
 30
0.0
  9
$UCSORGLEFT
 10
0.0
 20
0.0
 30
0.0
  9
$UCSORGRIGHT
 10
0.0
 20
0.0
 30
0.0
  9
$UCSORGFRONT
 10
0.0
 20
0.0
 30
0.0
  9
$UCSORGBACK
 10
0.0
 20
0.0
 30
0.0
  9
$PUCSBASE
  2

  9
$PUCSNAME
  2

  9
$PUCSORG
 10
0.0
 20
0.0
 30
0.0
  9
$PUCSXDIR
 10
1.0
 20
0.0
 30
0.0
  9
$PUCSYDIR
 10
0.0
 20
1.0
 30
0.0
  9
$PUCSORTHOREF
  2

  9
$PUCSORTHOVIEW
 70
     0
  9
$PUCSORGTOP
 10
0.0
 20
0.0
 30
0.0
  9
$PUCSORGBOTTOM
 10
0.0
 20
0.0
 30
0.0
  9
$PUCSORGLEFT
 10
0.0
 20
0.0
 30
0.0
  9
$PUCSORGRIGHT
 10
0.0
 20
0.0
 30
0.0
  9
$PUCSORGFRONT
 10
0.0
 20
0.0
 30
0.0
  9
$PUCSORGBACK
 10
0.0
 20
0.0
 30
0.0
  9
$USERI1
 70
     0
  9
$USERI2
 70
     0
  9
$USERI3
 70
     0
  9
$USERI4
 70
     0
  9
$USERI5
 70
     0
  9
$USERR1
 40
0.0
  9
$USERR2
 40
0.0
  9
$USERR3
 40
0.0
  9
$USERR4
 40
0.0
  9
$USERR5
 40
0.0
  9
$WORLDVIEW
 70
     1
  9
$SHADEDGE
 70
     3
  9
$SHADEDIF
 70
    70
  9
$TILEMODE
 70
     1
  9
$MAXACTVP
 70
    64
  9
$PINSBASE
 10
0.0
 20
0.0
 30
0.0
  9
$PLIMCHECK
 70
     0
  9
$PEXTMIN
 10
1.000000000000000E+20
 20
1.000000000000000E+20
 30
1.000000000000000E+20
  9
$PEXTMAX
 10
-1.000000000000000E+20
 20
-1.000000000000000E+20
 30
-1.000000000000000E+20
  9
$PLIMMIN
 10
0.0
 20
0.0
  9
$PLIMMAX
 10
12.0
 20
9.0
  9
$UNITMODE
 70
     0
  9
$VISRETAIN
 70
     1
  9
$PLINEGEN
 70
     0
  9
$PSLTSCALE
 70
     1
  9
$TREEDEPTH
 70
  3020
  9
$CMLSTYLE
  2
Standard
  9
$CMLJUST
 70
     0
  9
$CMLSCALE
 40
1.0
  9
$PROXYGRAPHICS
 70
     1
  9
$MEASUREMENT
 70
     0
  9
$CELWEIGHT
370
    -1
  9
$ENDCAPS
280
     0
  9
$JOINSTYLE
280
     0
  9
$LWDISPLAY
290
     0
  9
$INSUNITS
 70
     4
  9
$HYPERLINKBASE
  1

  9
$STYLESHEET
  1

  9
$XEDIT
290
     1
  9
$CEPSNTYPE
380
     0
  9
$PSTYLEMODE
290
     1
  9
$FINGERPRINTGUID
  2
{B03F7A12-FD0C-41F9-8816-C953B35F3DA4}
  9
$VERSIONGUID
  2
{FAEB1C32-E019-11D5-929B-00C0DF256EC4}
  9
$EXTNAMES
290
     1
  9
$PSVPSCALE
 40
0.0
  9
$OLESTARTUP
290
     0
  9
$SORTENTS
280
   127
  9
$INDEXCTL
280
     0
  9
$HIDETEXT
280
     1
  9
$XCLIPFRAME
290
     0
  9
$HALOGAP
280
     0
  9
$OBSCOLOR
 70
   257
  9
$OBSLTYPE
280
     0
  9
$INTERSECTIONDISPLAY
280
     0
  9
$INTERSECTIONCOLOR
 70
   257
  9
$DIMASSOC
280
     2
  9
$PROJECTNAME
  1

  9
$CAMERADISPLAY
290
     0
  9
$LENSLENGTH
 40
50.0
  9
$CAMERAHEIGHT
 40
0.0
  9
$STEPSPERSEC
 40
2.0
  9
$STEPSIZE
 40
6.0
  9
$3DDWFPREC
 40
2.0
  9
$PSOLWIDTH
 40
0.25
  9
$PSOLHEIGHT
 40
4.0
  9
$LOFTANG1
 40
1.570796326794897
  9
$LOFTANG2
 40
1.570796326794897
  9
$LOFTMAG1
 40
0.0
  9
$LOFTMAG2
 40
0.0
  9
$LOFTPARAM
 70
     7
  9
$LOFTNORMALS
280
     1
  9
$LATITUDE
 40
37.795
  9
$LONGITUDE
 40
-122.394
  9
$NORTHDIRECTION
 40
0.0
  9
$TIMEZONE
 70
 -8000
  9
$LIGHTGLYPHDISPLAY
280
     1
  9
$TILEMODELIGHTSYNCH
280
     1
  9
$SOLIDHIST
280
     1
  9
$SHOWHIST
280
     1
  9
$DWFFRAME
280
     2
  9
$DGNFRAME
280
     2
  9
$REALWORLDSCALE
290
     1
  9
$INTERFERECOLOR
 62
   256
  9
$CSHADOW
280
     0
  9
$SHADOWPLANELOCATION
 40
0.0
  0
ENDSEC
  0
SECTION
  2
CLASSES
  0
CLASS
  1
ACDBDICTIONARYWDFLT
  2
AcDbDictionaryWithDefault
  3
ObjectDBX Classes
 90
        0
 91
        4
280
     0
281
     0
  0
CLASS
  1
VISUALSTYLE
  2
AcDbVisualStyle
  3
ObjectDBX Classes
 90
     4095
 91
        4
280
     0
281
     0
  0
CLASS
  1
MATERIAL
  2
AcDbMaterial
  3
ObjectDBX Classes
 90
     1153
 91
        4
280
     0
281
     0
  0
ENDSEC
  0
SECTION
  2
TABLES
  0
TABLE
  2
VPORT
  5
8
330
0
100
AcDbSymbolTable
 70
     1
  0
VPORT
  5
29
330
8
100
AcDbSymbolTableRecord
100
AcDbViewportTableRecord
  2
*Active
 70
     0
 10
0.0
 20
0.0
 11
1.0
 21
1.0
 12
10.42990654205607
 22
4.5
 13
0.0
 23
0.0
 14
0.5
 24
0.5
 15
0.5
 25
0.5
 16
0.0
 26
0.0
 36
1.0
 17
0.0
 27
0.0
 37
0.0
 40
9.0
 41
1.972972972850329
 42
50.0
 43
0.0
 44
0.0
 50
0.0
 51
0.0
 71
     0
 72
   100
 73
     1
 74
     3
 75
     0
 76
     0
 77
     0
 78
     0
281
     0
 65
     1
110
0.0
120
0.0
130
0.0
111
1.0
121
0.0
131
0.0
112
0.0
122
1.0
132
0.0
 79
     0
146
0.0
 60
     3
 61
     5
292
     1
282
     1
141
0.0
142
0.0
 63
   250
  0
ENDTAB
  0
TABLE
  2
LTYPE
  5
5
330
0
100
AcDbSymbolTable
 70
     1
  0
LTYPE
  5
14
330
5
100
AcDbSymbolTableRecord
100
AcDbLinetypeTableRecord
  2
ByBlock
 70
     0
  3

 72
    65
 73
     0
 40
0.0
  0
LTYPE
  5
15
330
5
100
AcDbSymbolTableRecord
100
AcDbLinetypeTableRecord
  2
ByLayer
 70
     0
  3

 72
    65
 73
     0
 40
0.0
  0
LTYPE
  5
16
330
5
100
AcDbSymbolTableRecord
100
AcDbLinetypeTableRecord
  2
Continuous
 70
     0
  3
Solid line
 72
    65
 73
     0
 40
0.0
  0
ENDTAB
  0
TABLE
  2
LAYER
  5
2
330
0
100
AcDbSymbolTable
 70
     2
  0
LAYER
  5
10
330
2
100
AcDbSymbolTableRecord
100
AcDbLayerTableRecord
  2
0
 70
     0
 62
     7
  6
Continuous
370
    -3
390
F
347
3E
  0
LAYER
  5
40
330
2
100
AcDbSymbolTableRecord
100
AcDbLayerTableRecord
  2
layer 1
 70
     0
 62
     7
  6
Continuous
370
    -3
390
F
347
3E
  0
ENDTAB
  0
TABLE
  2
STYLE
  5
3
330
0
100
AcDbSymbolTable
 70
     1
  0
STYLE
  5
11
330
3
100
AcDbSymbolTableRecord
100
AcDbTextStyleTableRecord
  2
Standard
 70
     0
 40
0.0
 41
1.0
 50
0.0
 71
     0
 42
0.2
  3
txt
  4

  0
ENDTAB
  0
TABLE
  2
VIEW
  5
6
330
0
100
AcDbSymbolTable
 70
     0
  0
ENDTAB
  0
TABLE
  2
UCS
  5
7
330
0
100
AcDbSymbolTable
 70
     0
  0
ENDTAB
  0
TABLE
  2
APPID
  5
9
330
0
100
AcDbSymbolTable
 70
     2
  0
APPID
  5
12
330
9
100
AcDbSymbolTableRecord
100
AcDbRegAppTableRecord
  2
ACAD
 70
     0
  0
APPID
  5
3F
330
9
100
AcDbSymbolTableRecord
100
AcDbRegAppTableRecord
  2
ODA
 70
     0
  0
ENDTAB
  0
TABLE
  2
DIMSTYLE
  5
A
330
0
100
AcDbSymbolTable
 70
     1
100
AcDbDimStyleTable
  0
DIMSTYLE
105
27
330
A
100
AcDbSymbolTableRecord
100
AcDbDimStyleTableRecord
  2
Standard
 70
     0
178
     0
340
11
  0
ENDTAB
  0
TABLE
  2
BLOCK_RECORD
  5
1
330
0
100
AcDbSymbolTable
 70
     1
  0
BLOCK_RECORD
  5
1F
330
1
100
AcDbSymbolTableRecord
100
AcDbBlockTableRecord
  2
*Model_Space
340
22
 70
     0
280
     1
281
     0
  0
BLOCK_RECORD
  5
1B
330
1
100
AcDbSymbolTableRecord
100
AcDbBlockTableRecord
  2
*Paper_Space
340
1E
 70
     0
280
     1
281
     0
  0
BLOCK_RECORD
  5
23
330
1
100
AcDbSymbolTableRecord
100
AcDbBlockTableRecord
  2
*Paper_Space0
340
26
 70
     0
280
     1
281
     0
  0
ENDTAB
  0
ENDSEC
  0
SECTION
  2
BLOCKS
  0
BLOCK
  5
20
330
1F
100
AcDbEntity
  8
0
100
AcDbBlockBegin
  2
*Model_Space
 70
     0
 10
0.0
 20
0.0
 30
0.0
  3
*Model_Space
  1

  0
ENDBLK
  5
21
330
1F
100
AcDbEntity
  8
0
100
AcDbBlockEnd
  0
BLOCK
  5
1C
330
1B
100
AcDbEntity
 67
     1
  8
0
100
AcDbBlockBegin
  2
*Paper_Space
 70
     0
 10
0.0
 20
0.0
 30
0.0
  3
*Paper_Space
  1

  0
ENDBLK
  5
1D
330
1B
100
AcDbEntity
 67
     1
  8
0
100
AcDbBlockEnd
  0
BLOCK
  5
24
330
23
100
AcDbEntity
  8
0
100
AcDbBlockBegin
  2
*Paper_Space0
 70
     0
 10
0.0
 20
0.0
 30
0.0
  3
*Paper_Space0
  1

  0
ENDBLK
  5
25
330
23
100
AcDbEntity
  8
0
100
AcDbBlockEnd
  0
ENDSEC
  0
SECTION
  2
ENTITIES
  0
SPLINE
  5
41
330
1F
100
AcDbEntity
  8
layer 1
 62
   250
100
AcDbSpline
210
0.0
220
0.0
230
1.0
 70
    11
 71
     3
 72
    36
 73
    32
 74
     0
 42
0.0000000001
 43
0.0000000001
 12
1.0
 22
0.0
 32
0.0
 13
1.0
 23
0.0
 33
0.0
 40
0.0
 40
0.0
 40
0.0
 40
0.0
 40
0.1111111111111111
 40
0.1111111111111111
 40
0.1111111111111111
 40
0.1111111111111111
 40
0.2222222222222222
 40
0.2222222222222222
 40
0.2222222222222222
 40
0.2222222222222222
 40
0.3333333333333333
 40
0.3333333333333333
 40
0.3333333333333333
 40
0.3333333333333333
 40
0.4444444444444444
 40
0.4444444444444444
 40
0.4444444444444444
 40
0.4444444444444444
 40
0.5555555555555556
 40
0.5555555555555556
 40
0.5555555555555556
 40
0.5555555555555556
 40
0.6666666666666666
 40
0.6666666666666666
 40
0.6666666666666666
 40
0.6666666666666666
 40
0.7777777777777778
 40
0.7777777777777778
 40
0.7777777777777778
 40
0.7777777777777778
 40
1.0
 40
1.0
 40
1.0
 40
1.0
 10
17.0634
 20
8.5609
 30
0.0
 10
17.0634
 20
8.5609
 30
0.0
 10
17.0634
 20
131.9665
 30
0.0
 10
17.0634
 20
131.9665
 30
0.0
 10
17.0634
 20
131.9665
 30
0.0
 10
17.0634
 20
131.9665
 30
0.0
 10
106.6397
 20
131.9665
 30
0.0
 10
106.6397
 20
131.9665
 30
0.0
 10
106.6397
 20
131.9665
 30
0.0
 10
106.6397
 20
131.9665
 30
0.0
 10
196.2159
 20
131.9665
 30
0.0
 10
196.2159
 20
131.9665
 30
0.0
 10
196.2159
 20
131.9665
 30
0.0
 10
196.2159
 20
131.9665
 30
0.0
 10
196.2159
 20
8.5609
 30
0.0
 10
196.2159
 20
8.5609
 30
0.0
 10
196.2159
 20
8.5609
 30
0.0
 10
196.2159
 20
8.5609
 30
0.0
 10
196.2159
 20
-114.8446
 30
0.0
 10
196.2159
 20
-114.8446
 30
0.0
 10
196.2159
 20
-114.8446
 30
0.0
 10
196.2159
 20
-114.8446
 30
0.0
 10
106.6397
 20
-114.8446
 30
0.0
 10
106.6397
 20
-114.8446
 30
0.0
 10
106.6397
 20
-114.8446
 30
0.0
 10
106.6397
 20
-114.8446
 30
0.0
 10
17.0634
 20
-114.8446
 30
0.0
 10
17.0634
 20
-114.8446
 30
0.0
 10
17.0634
 20
-114.8446
 30
0.0
 10
17.0634
 20
-114.8446
 30
0.0
 10
17.0634
 20
8.5609
 30
0.0
 10
17.0634
 20
8.5609
 30
0.0
  0
SPLINE
  5
42
330
1F
100
AcDbEntity
  8
layer 1
 62
     7
100
AcDbSpline
210
0.0
220
0.0
230
1.0
 70
    11
 71
     3
 72
    20
 73
    16
 74
     0
 42
0.0000000001
 43
0.0000000001
 12
1.0
 22
0.0
 32
0.0
 13
1.0
 23
0.0
 33
0.0
 40
0.0
 40
0.0
 40
0.0
 40
0.0
 40
0.2
 40
0.2
 40
0.2
 40
0.2
 40
0.4
 40
0.4
 40
0.4
 40
0.4
 40
0.6
 40
0.6
 40
0.6
 40
0.6
 40
1.0
 40
1.0
 40
1.0
 40
1.0
 10
45.9525
 20
-83.5162
 30
0.0
 10
40.5072
 20
-78.8267
 30
0.0
 10
31.2449
 20
-80.6697
 30
0.0
 10
27.2673
 20
-85.6992
 30
0.0
 10
27.2673
 20
-85.6992
 30
0.0
 10
27.2673
 20
-85.6992
 30
0.0
 10
27.2673
 20
-104.7039
 30
0.0
 10
27.2673
 20
-104.7039
 30
0.0
 10
27.2673
 20
-104.7039
 30
0.0
 10
27.2673
 20
-104.7039
 30
0.0
 10
52.577
 20
-104.7039
 30
0.0
 10
52.577
 20
-104.7039
 30
0.0
 10
52.577
 20
-104.7039
 30
0.0
 10
54.9209
 20
-97.0197
 30
0.0
 10
50.0557
 20
-87.6927
 30
0.0
 10
45.9525
 20
-83.5162
 30
0.0
  0
SPLINE
  5
43
330
1F
100
AcDbEntity
  8
layer 1
 62
     7
100
AcDbSpline
210
0.0
220
0.0
230
1.0
 70
    11
 71
     3
 72
    20
 73
    16
 74
     0
 42
0.0000000001
 43
0.0000000001
 12
1.0
 22
0.0
 32
0.0
 13
1.0
 23
0.0
 33
0.0
 40
0.0
 40
0.0
 40
0.0
 40
0.0
 40
0.2
 40
0.2
 40
0.2
 40
0.2
 40
0.4
 40
0.4
 40
0.4
 40
0.4
 40
0.6
 40
0.6
 40
0.6
 40
0.6
 40
1.0
 40
1.0
 40
1.0
 40
1.0
 10
57.844
 20
-101.8716
 30
0.0
 10
57.1825
 20
-102.5841
 30
0.0
 10
56.847
 20
-103.2294
 30
0.0
 10
56.6436
 20
-104.4604
 30
0.0
 10
56.6436
 20
-104.4604
 30
0.0
 10
56.6436
 20
-104.4604
 30
0.0
 10
60.1634
 20
-104.6187
 30
0.0
 10
60.1634
 20
-104.6187
 30
0.0
 10
60.1634
 20
-104.6187
 30
0.0
 10
58.829
 20
-103.4709
 30
0.0
 10
58.8514
 20
-103.2432
 30
0.0
 10
57.8439
 20
-101.8717
 30
0.0
 10
57.8439
 20
-101.8717
 30
0.0
 10
57.8439
 20
-101.8717
 30
0.0
 10
57.844
 20
-101.8716
 30
0.0
 10
57.844
 20
-101.8716
 30
0.0
  0
SPLINE
  5
44
330
1F
100
AcDbEntity
  8
layer 1
 62
     7
100
AcDbSpline
210
0.0
220
0.0
230
1.0
 70
    11
 71
     3
 72
    32
 73
    28
 74
     0
 42
0.0000000001
 43
0.0000000001
 12
1.0
 22
0.0
 32
0.0
 13
1.0
 23
0.0
 33
0.0
 40
0.0
 40
0.0
 40
0.0
 40
0.0
 40
0.125
 40
0.125
 40
0.125
 40
0.125
 40
0.25
 40
0.25
 40
0.25
 40
0.25
 40
0.375
 40
0.375
 40
0.375
 40
0.375
 40
0.5
 40
0.5
 40
0.5
 40
0.5
 40
0.625
 40
0.625
 40
0.625
 40
0.625
 40
0.75
 40
0.75
 40
0.75
 40
0.75
 40
1.0
 40
1.0
 40
1.0
 40
1.0
 10
88.8225
 20
-99.1553
 30
0.0
 10
75.4361
 20
-94.5775
 30
0.0
 10
66.4367
 20
-80.525
 30
0.0
 10
64.8532
 20
-68.4922
 30
0.0
 10
64.8532
 20
-68.4922
 30
0.0
 10
55.5486
 20
-74.0306
 30
0.0
 10
57.2714
 20
-95.9333
 30
0.0
 10
61.3558
 20
-100.098
 30
0.0
 10
61.3558
 20
-100.098
 30
0.0
 10
61.8111
 20
-90.1736
 30
0.0
 10
66.5096
 20
-90.9465
 30
0.0
 10
68.7201
 20
-84.8641
 30
0.0
 10
68.7201
 20
-84.8641
 30
0.0
 10
68.3661
 20
-93.2987
 30
0.0
 10
73.8695
 20
-94.3856
 30
0.0
 10
73.0972
 20
-104.7038
 30
0.0
 10
73.0972
 20
-104.7038
 30
0.0
 10
73.0972
 20
-104.7038
 30
0.0
 10
85.687
 20
-104.7038
 30
0.0
 10
85.687
 20
-104.7038
 30
0.0
 10
85.687
 20
-104.7038
 30
0.0
 10
87.1695
 20
-103.0694
 30
0.0
 10
88.122
 20
-100.8758
 30
0.0
 10
88.8224
 20
-99.1553
 30
0.0
 10
88.8224
 20
-99.1553
 30
0.0
 10
88.8224
 20
-99.1553
 30
0.0
 10
88.8225
 20
-99.1553
 30
0.0
 10
88.8225
 20
-99.1553
 30
0.0
  0
SPLINE
  5
45
330
1F
100
AcDbEntity
  8
layer 1
 62
     7
100
AcDbSpline
210
0.0
220
0.0
230
1.0
 70
    11
 71
     3
 72
    24
 73
    20
 74
     0
 42
0.0000000001
 43
0.0000000001
 12
1.0
 22
0.0
 32
0.0
 13
1.0
 23
0.0
 33
0.0
 40
0.0
 40
0.0
 40
0.0
 40
0.0
 40
0.1666666666666667
 40
0.1666666666666667
 40
0.1666666666666667
 40
0.1666666666666667
 40
0.3333333333333333
 40
0.3333333333333333
 40
0.3333333333333333
 40
0.3333333333333333
 40
0.5
 40
0.5
 40
0.5
 40
0.5
 40
0.6666666666666666
 40
0.6666666666666666
 40
0.6666666666666666
 40
0.6666666666666666
 40
1.0
 40
1.0
 40
1.0
 40
1.0
 10
149.6755
 20
-104.1479
 30
0.0
 10
149.6165
 20
-99.6618
 30
0.0
 10
151.4469
 20
-94.412
 30
0.0
 10
153.6393
 20
-91.3626
 30
0.0
 10
153.6393
 20
-91.3626
 30
0.0
 10
141.0989
 20
-96.1603
 30
0.0
 10
126.6612
 20
-96.3301
 30
0.0
 10
117.0386
 20
-89.7914
 30
0.0
 10
117.0386
 20
-89.7914
 30
0.0
 10
110.8957
 20
-97.2407
 30
0.0
 10
104.2772
 20
-99.6535
 30
0.0
 10
92.775
 20
-99.7148
 30
0.0
 10
92.775
 20
-99.7148
 30
0.0
 10
92.2402
 20
-101.6286
 30
0.0
 10
91.6421
 20
-103.0171
 30
0.0
 10
90.7836
 20
-104.7038
 30
0.0
 10
90.7836
 20
-104.7038
 30
0.0
 10
90.7836
 20
-104.7038
 30
0.0
 10
149.6755
 20
-104.1479
 30
0.0
 10
149.6755
 20
-104.1479
 30
0.0
  0
SPLINE
  5
46
330
1F
100
AcDbEntity
  8
layer 1
 62
     7
100
AcDbSpline
210
0.0
220
0.0
230
1.0
 70
    11
 71
     3
 72
    32
 73
    28
 74
     0
 42
0.0000000001
 43
0.0000000001
 12
1.0
 22
0.0
 32
0.0
 13
1.0
 23
0.0
 33
0.0
 40
0.0
 40
0.0
 40
0.0
 40
0.0
 40
0.125
 40
0.125
 40
0.125
 40
0.125
 40
0.25
 40
0.25
 40
0.25
 40
0.25
 40
0.375
 40
0.375
 40
0.375
 40
0.375
 40
0.5
 40
0.5
 40
0.5
 40
0.5
 40
0.625
 40
0.625
 40
0.625
 40
0.625
 40
0.75
 40
0.75
 40
0.75
 40
0.75
 40
1.0
 40
1.0
 40
1.0
 40
1.0
 10
186.0989
 20
-83.4484
 30
0.0
 10
180.6806
 20
-81.3162
 30
0.0
 10
175.0814
 20
-81.7107
 30
0.0
 10
169.4914
 20
-83.4703
 30
0.0
 10
169.4914
 20
-83.4703
 30
0.0
 10
175.5622
 20
-87.9542
 30
0.0
 10
174.93
 20
-99.1698
 30
0.0
 10
167.2666
 20
-103.3172
 30
0.0
 10
167.2666
 20
-103.3172
 30
0.0
 10
166.4028
 20
-103.7639
 30
0.0
 10
166.2869
 20
-103.7429
 30
0.0
 10
165.249
 20
-102.9512
 30
0.0
 10
165.249
 20
-102.9512
 30
0.0
 10
161.4435
 20
-99.2248
 30
0.0
 10
160.4963
 20
-93.2963
 30
0.0
 10
162.1583
 20
-88.283
 30
0.0
 10
162.1583
 20
-88.283
 30
0.0
 10
157.7257
 20
-90.0408
 30
0.0
 10
154.1548
 20
-97.3586
 30
0.0
 10
153.863
 20
-104.4086
 30
0.0
 10
153.863
 20
-104.4086
 30
0.0
 10
153.863
 20
-104.4086
 30
0.0
 10
185.9315
 20
-104.5451
 30
0.0
 10
185.9315
 20
-104.5451
 30
0.0
 10
185.9315
 20
-104.5451
 30
0.0
 10
185.9315
 20
-104.5451
 30
0.0
 10
186.0989
 20
-83.4484
 30
0.0
 10
186.0989
 20
-83.4484
 30
0.0
  0
SPLINE
  5
47
330
1F
100
AcDbEntity
  8
layer 1
 62
     7
100
AcDbSpline
210
0.0
220
0.0
230
1.0
 70
    11
 71
     3
 72
    92
 73
    88
 74
     0
 42
0.0000000001
 43
0.0000000001
 12
1.0
 22
0.0
 32
0.0
 13
1.0
 23
0.0
 33
0.0
 40
0.0
 40
0.0
 40
0.0
 40
0.0
 40
0.0434782608695652
 40
0.0434782608695652
 40
0.0434782608695652
 40
0.0434782608695652
 40
0.0869565217391304
 40
0.0869565217391304
 40
0.0869565217391304
 40
0.0869565217391304
 40
0.1304347826086956
 40
0.1304347826086956
 40
0.1304347826086956
 40
0.1304347826086956
 40
0.1739130434782609
 40
0.1739130434782609
 40
0.1739130434782609
 40
0.1739130434782609
 40
0.2173913043478261
 40
0.2173913043478261
 40
0.2173913043478261
 40
0.2173913043478261
 40
0.2608695652173913
 40
0.2608695652173913
 40
0.2608695652173913
 40
0.2608695652173913
 40
0.3043478260869565
 40
0.3043478260869565
 40
0.3043478260869565
 40
0.3043478260869565
 40
0.3478260869565217
 40
0.3478260869565217
 40
0.3478260869565217
 40
0.3478260869565217
 40
0.391304347826087
 40
0.391304347826087
 40
0.391304347826087
 40
0.391304347826087
 40
0.4347826086956522
 40
0.4347826086956522
 40
0.4347826086956522
 40
0.4347826086956522
 40
0.4782608695652174
 40
0.4782608695652174
 40
0.4782608695652174
 40
0.4782608695652174
 40
0.5217391304347826
 40
0.5217391304347826
 40
0.5217391304347826
 40
0.5217391304347826
 40
0.5652173913043478
 40
0.5652173913043478
 40
0.5652173913043478
 40
0.5652173913043478
 40
0.6086956521739131
 40
0.6086956521739131
 40
0.6086956521739131
 40
0.6086956521739131
 40
0.6521739130434783
 40
0.6521739130434783
 40
0.6521739130434783
 40
0.6521739130434783
 40
0.6956521739130435
 40
0.6956521739130435
 40
0.6956521739130435
 40
0.6956521739130435
 40
0.7391304347826086
 40
0.7391304347826086
 40
0.7391304347826086
 40
0.7391304347826086
 40
0.782608695652174
 40
0.782608695652174
 40
0.782608695652174
 40
0.782608695652174
 40
0.8260869565217391
 40
0.8260869565217391
 40
0.8260869565217391
 40
0.8260869565217391
 40
0.8695652173913043
 40
0.8695652173913043
 40
0.8695652173913043
 40
0.8695652173913043
 40
0.9130434782608695
 40
0.9130434782608695
 40
0.9130434782608695
 40
0.9130434782608695
 40
1.0
 40
1.0
 40
1.0
 40
1.0
 10
117.1865
 20
-76.0017
 30
0.0
 10
117.466
 20
-64.0468
 30
0.0
 10
104.2145
 20
-56.185
 30
0.0
 10
96.5991
 20
-63.8252
 30
0.0
 10
96.5991
 20
-63.8252
 30
0.0
 10
93.1812
 20
-67.292
 30
0.0
 10
91.8913
 20
-73.3109
 30
0.0
 10
93.5056
 20
-76.4334
 30
0.0
 10
93.5056
 20
-76.4334
 30
0.0
 10
95.3019
 20
-80.2821
 30
0.0
 10
99.3567
 20
-80.0233
 30
0.0
 10
102.6604
 20
-78.6429
 30
0.0
 10
102.6604
 20
-78.6429
 30
0.0
 10
102.6604
 20
-78.6429
 30
0.0
 10
101.702
 20
-77.6175
 30
0.0
 10
101.702
 20
-77.6175
 30
0.0
 10
101.702
 20
-77.6175
 30
0.0
 10
98.882
 20
-74.6006
 30
0.0
 10
99.7456
 20
-70.2648
 30
0.0
 10
103.5433
 20
-68.3724
 30
0.0
 10
103.5433
 20
-68.3724
 30
0.0
 10
108.1199
 20
-66.0918
 30
0.0
 10
113.3606
 20
-68.9941
 30
0.0
 10
113.344
 20
-73.8001
 30
0.0
 10
113.344
 20
-73.8001
 30
0.0
 10
113.3344
 20
-76.6127
 30
0.0
 10
111.3822
 20
-78.8985
 30
0.0
 10
108.3345
 20
-79.6659
 30
0.0
 10
108.3345
 20
-79.6659
 30
0.0
 10
107.5688
 20
-79.8587
 30
0.0
 10
106.8702
 20
-80.2041
 30
0.0
 10
106.7822
 20
-80.4334
 30
0.0
 10
106.7822
 20
-80.4334
 30
0.0
 10
106.4873
 20
-81.2019
 30
0.0
 10
103.66
 20
-82.759
 30
0.0
 10
101.602
 20
-83.2862
 30
0.0
 10
101.602
 20
-83.2862
 30
0.0
 10
96.5503
 20
-84.5804
 30
0.0
 10
91.2797
 20
-81.9567
 30
0.0
 10
89.5661
 20
-77.2949
 30
0.0
 10
89.5661
 20
-77.2949
 30
0.0
 10
87.2603
 20
-71.022
 30
0.0
 10
91.2172
 20
-62.097
 30
0.0
 10
97.7256
 20
-58.8906
 30
0.0
 10
97.7256
 20
-58.8906
 30
0.0
 10
107.8172
 20
-54.6248
 30
0.0
 10
117.2181
 20
-60.3363
 30
0.0
 10
120.5394
 20
-71.7146
 30
0.0
 10
120.5394
 20
-71.7146
 30
0.0
 10
122.6341
 20
-69.6138
 30
0.0
 10
124.1025
 20
-66.7644
 30
0.0
 10
124.5153
 20
-64.4583
 30
0.0
 10
124.5153
 20
-64.4583
 30
0.0
 10
124.0992
 20
-46.4113
 30
0.0
 10
104.4949
 20
-37.8285
 30
0.0
 10
93.2236
 20
-38.8676
 30
0.0
 10
93.2236
 20
-38.8676
 30
0.0
 10
94.9111
 20
-41.5331
 30
0.0
 10
96.5651
 20
-44.7062
 30
0.0
 10
96.7627
 20
-47.3765
 30
0.0
 10
96.7627
 20
-47.3765
 30
0.0
 10
96.2907
 20
-53.2152
 30
0.0
 10
92.3957
 20
-53.7754
 30
0.0
 10
90.2868
 20
-63.5892
 30
0.0
 10
90.2868
 20
-63.5892
 30
0.0
 10
87.495
 20
-53.2381
 30
0.0
 10
78.0683
 20
-57.6199
 30
0.0
 10
88.8903
 20
-40.0703
 30
0.0
 10
88.8903
 20
-40.0703
 30
0.0
 10
82.0059
 20
-42.2448
 30
0.0
 10
69.0841
 20
-52.2177
 30
0.0
 10
66.6339
 20
-56.7092
 30
0.0
 10
66.6339
 20
-56.7092
 30
0.0
 10
66.7937
 20
-63.3905
 30
0.0
 10
70.1579
 20
-74.1514
 30
0.0
 10
73.5294
 20
-80.9896
 30
0.0
 10
73.5294
 20
-80.9896
 30
0.0
 10
79.4092
 20
-90.5209
 30
0.0
 10
85.8929
 20
-95.5679
 30
0.0
 10
95.402
 20
-95.3482
 30
0.0
 10
95.402
 20
-95.3482
 30
0.0
 10
106.4481
 20
-95.5203
 30
0.0
 10
116.6445
 20
-86.921
 30
0.0
 10
117.1862
 20
-76.0017
 30
0.0
 10
117.1862
 20
-76.0017
 30
0.0
 10
117.1862
 20
-76.0017
 30
0.0
 10
117.1865
 20
-76.0017
 30
0.0
 10
117.1865
 20
-76.0017
 30
0.0
  0
SPLINE
  5
48
330
1F
100
AcDbEntity
  8
layer 1
 62
     7
100
AcDbSpline
210
0.0
220
0.0
230
1.0
 70
    11
 71
     3
 72
    52
 73
    48
 74
     0
 42
0.0000000001
 43
0.0000000001
 12
1.0
 22
0.0
 32
0.0
 13
1.0
 23
0.0
 33
0.0
 40
0.0
 40
0.0
 40
0.0
 40
0.0
 40
0.0769230769230769
 40
0.0769230769230769
 40
0.0769230769230769
 40
0.0769230769230769
 40
0.1538461538461539
 40
0.1538461538461539
 40
0.1538461538461539
 40
0.1538461538461539
 40
0.2307692307692308
 40
0.2307692307692308
 40
0.2307692307692308
 40
0.2307692307692308
 40
0.3076923076923077
 40
0.3076923076923077
 40
0.3076923076923077
 40
0.3076923076923077
 40
0.3846153846153846
 40
0.3846153846153846
 40
0.3846153846153846
 40
0.3846153846153846
 40
0.4615384615384616
 40
0.4615384615384616
 40
0.4615384615384616
 40
0.4615384615384616
 40
0.5384615384615384
 40
0.5384615384615384
 40
0.5384615384615384
 40
0.5384615384615384
 40
0.6153846153846154
 40
0.6153846153846154
 40
0.6153846153846154
 40
0.6153846153846154
 40
0.6923076923076923
 40
0.6923076923076923
 40
0.6923076923076923
 40
0.6923076923076923
 40
0.7692307692307693
 40
0.7692307692307693
 40
0.7692307692307693
 40
0.7692307692307693
 40
0.8461538461538461
 40
0.8461538461538461
 40
0.8461538461538461
 40
0.8461538461538461
 40
1.0
 40
1.0
 40
1.0
 40
1.0
 10
142.1282
 20
-90.0867
 30
0.0
 10
157.0898
 20
-87.5289
 30
0.0
 10
168.736
 20
-79.9971
 30
0.0
 10
171.4833
 20
-71.1022
 30
0.0
 10
171.4833
 20
-71.1022
 30
0.0
 10
172.3713
 20
-68.2275
 30
0.0
 10
172.3141
 20
-64.1542
 30
0.0
 10
171.291
 20
-57.3746
 30
0.0
 10
171.291
 20
-57.3746
 30
0.0
 10
170.2604
 20
-50.5461
 30
0.0
 10
170.3642
 20
-50.905
 30
0.0
 10
169.4894
 20
-51.1433
 30
0.0
 10
169.4894
 20
-51.1433
 30
0.0
 10
163.6424
 20
-52.5424
 30
0.0
 10
159.925
 20
-52.2067
 30
0.0
 10
154.648
 20
-51.0217
 30
0.0
 10
154.648
 20
-51.0217
 30
0.0
 10
157.0171
 20
-65.8552
 30
0.0
 10
140.2592
 20
-74.3652
 30
0.0
 10
129.5707
 20
-65.1828
 30
0.0
 10
129.5707
 20
-65.1828
 30
0.0
 10
128.9037
 20
-64.3791
 30
0.0
 10
128.6839
 20
-64.5764
 30
0.0
 10
128.2717
 20
-66.348
 30
0.0
 10
128.2717
 20
-66.348
 30
0.0
 10
126.7757
 20
-71.0423
 30
0.0
 10
125.1984
 20
-73.4851
 30
0.0
 10
121.2904
 20
-76.4458
 30
0.0
 10
121.2904
 20
-76.4458
 30
0.0
 10
121.363
 20
-79.4392
 30
0.0
 10
120.9695
 20
-82.7295
 30
0.0
 10
119.8531
 20
-85.1402
 30
0.0
 10
119.8531
 20
-85.1402
 30
0.0
 10
119.8531
 20
-85.1402
 30
0.0
 10
119.2766
 20
-86.355
 30
0.0
 10
119.2766
 20
-86.355
 30
0.0
 10
119.2766
 20
-86.355
 30
0.0
 10
119.2766
 20
-86.355
 30
0.0
 10
120.0452
 20
-86.9571
 30
0.0
 10
120.0452
 20
-86.9571
 30
0.0
 10
120.0452
 20
-86.9571
 30
0.0
 10
124.3675
 20
-90.343
 30
0.0
 10
133.258
 20
-91.603
 30
0.0
 10
142.128
 20
-90.0866
 30
0.0
 10
142.128
 20
-90.0866
 30
0.0
 10
142.128
 20
-90.0866
 30
0.0
 10
142.1282
 20
-90.0867
 30
0.0
 10
142.1282
 20
-90.0867
 30
0.0
  0
SPLINE
  5
49
330
1F
100
AcDbEntity
  8
layer 1
 62
     7
100
AcDbSpline
210
0.0
220
0.0
230
1.0
 70
    11
 71
     3
 72
    24
 73
    20
 74
     0
 42
0.0000000001
 43
0.0000000001
 12
1.0
 22
0.0
 32
0.0
 13
1.0
 23
0.0
 33
0.0
 40
0.0
 40
0.0
 40
0.0
 40
0.0
 40
0.1666666666666667
 40
0.1666666666666667
 40
0.1666666666666667
 40
0.1666666666666667
 40
0.3333333333333333
 40
0.3333333333333333
 40
0.3333333333333333
 40
0.3333333333333333
 40
0.5
 40
0.5
 40
0.5
 40
0.5
 40
0.6666666666666666
 40
0.6666666666666666
 40
0.6666666666666666
 40
0.6666666666666666
 40
1.0
 40
1.0
 40
1.0
 40
1.0
 10
55.7154
 20
-73.0129
 30
0.0
 10
53.4848
 20
-73.9507
 30
0.0
 10
51.4753
 20
-74.2778
 30
0.0
 10
49.1424
 20
-73.7933
 30
0.0
 10
49.1424
 20
-73.7933
 30
0.0
 10
48.0942
 20
-75.4379
 30
0.0
 10
46.4737
 20
-76.6614
 30
0.0
 10
44.712
 20
-77.7938
 30
0.0
 10
44.712
 20
-77.7938
 30
0.0
 10
48.4922
 20
-79.8631
 30
0.0
 10
50.9275
 20
-82.2989
 30
0.0
 10
53.4729
 20
-86.7567
 30
0.0
 10
53.4729
 20
-86.7567
 30
0.0
 10
53.8198
 20
-81.1392
 30
0.0
 10
54.2006
 20
-77.6497
 30
0.0
 10
55.7153
 20
-73.0128
 30
0.0
 10
55.7153
 20
-73.0128
 30
0.0
 10
55.7153
 20
-73.0128
 30
0.0
 10
55.7154
 20
-73.0129
 30
0.0
 10
55.7154
 20
-73.0129
 30
0.0
  0
SPLINE
  5
4A
330
1F
100
AcDbEntity
  8
layer 1
 62
     7
100
AcDbSpline
210
0.0
220
0.0
230
1.0
 70
    11
 71
     3
 72
    16
 73
    12
 74
     0
 42
0.0000000001
 43
0.0000000001
 12
1.0
 22
0.0
 32
0.0
 13
1.0
 23
0.0
 33
0.0
 40
0.0
 40
0.0
 40
0.0
 40
0.0
 40
0.25
 40
0.25
 40
0.25
 40
0.25
 40
0.5
 40
0.5
 40
0.5
 40
0.5
 40
1.0
 40
1.0
 40
1.0
 40
1.0
 10
31.6586
 20
-77.0391
 30
0.0
 10
29.9654
 20
-75.8216
 30
0.0
 10
28.8049
 20
-74.6268
 30
0.0
 10
27.2671
 20
-73.1602
 30
0.0
 10
27.2671
 20
-73.1602
 30
0.0
 10
27.2671
 20
-73.1602
 30
0.0
 10
27.3945
 20
-79.9275
 30
0.0
 10
27.3945
 20
-79.9275
 30
0.0
 10
27.3945
 20
-79.9275
 30
0.0
 10
28.5038
 20
-78.7122
 30
0.0
 10
29.9792
 20
-77.8755
 30
0.0
 10
31.6586
 20
-77.0391
 30
0.0
  0
SPLINE
  5
4B
330
1F
100
AcDbEntity
  8
layer 1
 62
     7
100
AcDbSpline
210
0.0
220
0.0
230
1.0
 70
    11
 71
     3
 72
    24
 73
    20
 74
     0
 42
0.0000000001
 43
0.0000000001
 12
1.0
 22
0.0
 32
0.0
 13
1.0
 23
0.0
 33
0.0
 40
0.0
 40
0.0
 40
0.0
 40
0.0
 40
0.1666666666666667
 40
0.1666666666666667
 40
0.1666666666666667
 40
0.1666666666666667
 40
0.3333333333333333
 40
0.3333333333333333
 40
0.3333333333333333
 40
0.3333333333333333
 40
0.5
 40
0.5
 40
0.5
 40
0.5
 40
0.6666666666666666
 40
0.6666666666666666
 40
0.6666666666666666
 40
0.6666666666666666
 40
1.0
 40
1.0
 40
1.0
 40
1.0
 10
185.9315
 20
-35.9335
 30
0.0
 10
183.7985
 20
-41.2247
 30
0.0
 10
179.7306
 20
-45.4719
 30
0.0
 10
175.8278
 20
-48.0161
 30
0.0
 10
175.8278
 20
-48.0161
 30
0.0
 10
174.0114
 20
-49.1636
 30
0.0
 10
174.0051
 20
-49.2375
 30
0.0
 10
175.1415
 20
-55.9559
 30
0.0
 10
175.1415
 20
-55.9559
 30
0.0
 10
176.6163
 20
-64.984
 30
0.0
 10
175.965
 20
-71.2702
 30
0.0
 10
172.4994
 20
-78.3777
 30
0.0
 10
172.4994
 20
-78.3777
 30
0.0
 10
176.4979
 20
-77.2099
 30
0.0
 10
181.8598
 20
-77.2668
 30
0.0
 10
185.8543
 20
-78.9921
 30
0.0
 10
185.8543
 20
-78.9921
 30
0.0
 10
185.8543
 20
-78.9921
 30
0.0
 10
185.9315
 20
-35.9335
 30
0.0
 10
185.9315
 20
-35.9335
 30
0.0
  0
SPLINE
  5
4C
330
1F
100
AcDbEntity
  8
layer 1
 62
     7
100
AcDbSpline
210
0.0
220
0.0
230
1.0
 70
    11
 71
     3
 72
    56
 73
    52
 74
     0
 42
0.0000000001
 43
0.0000000001
 12
1.0
 22
0.0
 32
0.0
 13
1.0
 23
0.0
 33
0.0
 40
0.0
 40
0.0
 40
0.0
 40
0.0
 40
0.0714285714285714
 40
0.0714285714285714
 40
0.0714285714285714
 40
0.0714285714285714
 40
0.1428571428571428
 40
0.1428571428571428
 40
0.1428571428571428
 40
0.1428571428571428
 40
0.2142857142857143
 40
0.2142857142857143
 40
0.2142857142857143
 40
0.2142857142857143
 40
0.2857142857142857
 40
0.2857142857142857
 40
0.2857142857142857
 40
0.2857142857142857
 40
0.3571428571428572
 40
0.3571428571428572
 40
0.3571428571428572
 40
0.3571428571428572
 40
0.4285714285714285
 40
0.4285714285714285
 40
0.4285714285714285
 40
0.4285714285714285
 40
0.5
 40
0.5
 40
0.5
 40
0.5
 40
0.5714285714285714
 40
0.5714285714285714
 40
0.5714285714285714
 40
0.5714285714285714
 40
0.6428571428571429
 40
0.6428571428571429
 40
0.6428571428571429
 40
0.6428571428571429
 40
0.7142857142857143
 40
0.7142857142857143
 40
0.7142857142857143
 40
0.7142857142857143
 40
0.7857142857142857
 40
0.7857142857142857
 40
0.7857142857142857
 40
0.7857142857142857
 40
0.8571428571428571
 40
0.8571428571428571
 40
0.8571428571428571
 40
0.8571428571428571
 40
1.0
 40
1.0
 40
1.0
 40
1.0
 10
45.5283
 20
-70.1854
 30
0.0
 10
44.0509
 20
-67.3528
 30
0.0
 10
46.133
 20
-63.0697
 30
0.0
 10
49.4329
 20
-62.1532
 30
0.0
 10
49.4329
 20
-62.1532
 30
0.0
 10
54.7223
 20
-60.7267
 30
0.0
 10
57.7804
 20
-63.2752
 30
0.0
 10
58.5881
 20
-68.1744
 30
0.0
 10
58.5881
 20
-68.1744
 30
0.0
 10
60.1502
 20
-67.2087
 30
0.0
 10
61.2099
 20
-65.6437
 30
0.0
 10
63.0526
 20
-64.9366
 30
0.0
 10
63.0526
 20
-64.9366
 30
0.0
 10
64.1717
 20
-64.5318
 30
0.0
 10
64.1754
 20
-64.5242
 30
0.0
 10
63.9749
 20
-63.013
 30
0.0
 10
63.9749
 20
-63.013
 30
0.0
 10
63.6635
 20
-60.6652
 30
0.0
 10
62.314
 20
-56.3075
 30
0.0
 10
61.1746
 20
-53.9697
 30
0.0
 10
61.1746
 20
-53.9697
 30
0.0
 10
57.1781
 20
-45.6242
 30
0.0
 10
44.6201
 20
-43.6539
 30
0.0
 10
38.7025
 20
-48.7717
 30
0.0
 10
38.7025
 20
-48.7717
 30
0.0
 10
40.7735
 20
-50.1629
 30
0.0
 10
43.203
 20
-51.6144
 30
0.0
 10
44.2366
 20
-53.6326
 30
0.0
 10
44.2366
 20
-53.6326
 30
0.0
 10
46.4142
 20
-58.4157
 30
0.0
 10
43.5718
 20
-60.4242
 30
0.0
 10
43.9353
 20
-65.4975
 30
0.0
 10
43.9353
 20
-65.4975
 30
0.0
 10
44.1829
 20
-68.7389
 30
0.0
 10
44.2432
 20
-70.247
 30
0.0
 10
38.2883
 20
-64.4324
 30
0.0
 10
38.2883
 20
-64.4324
 30
0.0
 10
34.4001
 20
-60.6811
 30
0.0
 10
32.4947
 20
-61.5695
 30
0.0
 10
31.7816
 20
-55.0777
 30
0.0
 10
31.7816
 20
-55.0777
 30
0.0
 10
27.1802
 20
-60.0114
 30
0.0
 10
28.3847
 20
-67.8751
 30
0.0
 10
31.619
 20
-71.6724
 30
0.0
 10
31.619
 20
-71.6724
 30
0.0
 10
35.3042
 20
-75.7765
 30
0.0
 10
42.0309
 20
-75.7675
 30
0.0
 10
45.0384
 20
-72.2773
 30
0.0
 10
45.0384
 20
-72.2773
 30
0.0
 10
46.3122
 20
-70.9636
 30
0.0
 10
45.7318
 20
-70.5757
 30
0.0
 10
45.5283
 20
-70.1854
 30
0.0
  0
SPLINE
  5
4D
330
1F
100
AcDbEntity
  8
layer 1
 62
     7
100
AcDbSpline
210
0.0
220
0.0
230
1.0
 70
    11
 71
     3
 72
    44
 73
    40
 74
     0
 42
0.0000000001
 43
0.0000000001
 12
1.0
 22
0.0
 32
0.0
 13
1.0
 23
0.0
 33
0.0
 40
0.0
 40
0.0
 40
0.0
 40
0.0
 40
0.0909090909090909
 40
0.0909090909090909
 40
0.0909090909090909
 40
0.0909090909090909
 40
0.1818181818181818
 40
0.1818181818181818
 40
0.1818181818181818
 40
0.1818181818181818
 40
0.2727272727272727
 40
0.2727272727272727
 40
0.2727272727272727
 40
0.2727272727272727
 40
0.3636363636363636
 40
0.3636363636363636
 40
0.3636363636363636
 40
0.3636363636363636
 40
0.4545454545454545
 40
0.4545454545454545
 40
0.4545454545454545
 40
0.4545454545454545
 40
0.5454545454545454
 40
0.5454545454545454
 40
0.5454545454545454
 40
0.5454545454545454
 40
0.6363636363636364
 40
0.6363636363636364
 40
0.6363636363636364
 40
0.6363636363636364
 40
0.7272727272727273
 40
0.7272727272727273
 40
0.7272727272727273
 40
0.7272727272727273
 40
0.8181818181818182
 40
0.8181818181818182
 40
0.8181818181818182
 40
0.8181818181818182
 40
1.0
 40
1.0
 40
1.0
 40
1.0
 10
142.109
 20
-63.8735
 30
0.0
 10
146.5059
 20
-62.737
 30
0.0
 10
149.5672
 20
-59.3277
 30
0.0
 10
150.2842
 20
-54.7687
 30
0.0
 10
150.2842
 20
-54.7687
 30
0.0
 10
150.2842
 20
-54.7687
 30
0.0
 10
150.4692
 20
-53.5923
 30
0.0
 10
150.4692
 20
-53.5923
 30
0.0
 10
150.4692
 20
-53.5923
 30
0.0
 10
146.9507
 20
-59.9502
 30
0.0
 10
139.9186
 20
-56.7533
 30
0.0
 10
135.4877
 20
-55.7989
 30
0.0
 10
135.4877
 20
-55.7989
 30
0.0
 10
142.7986
 20
-49.3144
 30
0.0
 10
138.0396
 20
-44.5707
 30
0.0
 10
145.064
 20
-43.0579
 30
0.0
 10
145.064
 20
-43.0579
 30
0.0
 10
146.6865
 20
-42.5718
 30
0.0
 10
146.4609
 20
-42.1783
 30
0.0
 10
143.7852
 20
-40.8275
 30
0.0
 10
143.7852
 20
-40.8275
 30
0.0
 10
137.7574
 20
-38.5537
 30
0.0
 10
134.5911
 20
-37.6854
 30
0.0
 10
130.328
 20
-41.9687
 30
0.0
 10
130.328
 20
-41.9687
 30
0.0
 10
130.328
 20
-41.9687
 30
0.0
 10
129.578
 20
-47.386
 30
0.0
 10
129.578
 20
-47.386
 30
0.0
 10
129.578
 20
-47.386
 30
0.0
 10
128.3373
 20
-56.348
 30
0.0
 10
128.8623
 20
-59.6176
 30
0.0
 10
131.9162
 20
-61.9469
 30
0.0
 10
131.9162
 20
-61.9469
 30
0.0
 10
134.833
 20
-64.1716
 30
0.0
 10
138.3694
 20
-64.84
 30
0.0
 10
142.1092
 20
-63.8733
 30
0.0
 10
142.1092
 20
-63.8733
 30
0.0
 10
142.1092
 20
-63.8733
 30
0.0
 10
142.109
 20
-63.8735
 30
0.0
 10
142.109
 20
-63.8735
 30
0.0
  0
SPLINE
  5
4E
330
1F
100
AcDbEntity
  8
layer 1
 62
     7
100
AcDbSpline
210
0.0
220
0.0
230
1.0
 70
    11
 71
     3
 72
    20
 73
    16
 74
     0
 42
0.0000000001
 43
0.0000000001
 12
1.0
 22
0.0
 32
0.0
 13
1.0
 23
0.0
 33
0.0
 40
0.0
 40
0.0
 40
0.0
 40
0.0
 40
0.2
 40
0.2
 40
0.2
 40
0.2
 40
0.4
 40
0.4
 40
0.4
 40
0.4
 40
0.6
 40
0.6
 40
0.6
 40
0.6
 40
1.0
 40
1.0
 40
1.0
 40
1.0
 10
39.2568
 20
-43.9969
 30
0.0
 10
35.5061
 20
-35.8191
 30
0.0
 10
34.5739
 20
-24.5082
 30
0.0
 10
37.6315
 20
-17.1273
 30
0.0
 10
37.6315
 20
-17.1273
 30
0.0
 10
33.9589
 20
-19.7126
 30
0.0
 10
30.5757
 20
-22.65
 30
0.0
 10
27.2671
 20
-25.6738
 30
0.0
 10
27.2671
 20
-25.6738
 30
0.0
 10
27.2671
 20
-25.6738
 30
0.0
 10
27.3818
 20
-54.5158
 30
0.0
 10
27.3818
 20
-54.5158
 30
0.0
 10
27.3818
 20
-54.5158
 30
0.0
 10
30.3859
 20
-48.9939
 30
0.0
 10
34.0998
 20
-46.1447
 30
0.0
 10
39.2568
 20
-43.9969
 30
0.0
  0
SPLINE
  5
4F
330
1F
100
AcDbEntity
  8
layer 1
 62
     7
100
AcDbSpline
210
0.0
220
0.0
230
1.0
 70
    11
 71
     3
 72
    68
 73
    64
 74
     0
 42
0.0000000001
 43
0.0000000001
 12
1.0
 22
0.0
 32
0.0
 13
1.0
 23
0.0
 33
0.0
 40
0.0
 40
0.0
 40
0.0
 40
0.0
 40
0.0588235294117647
 40
0.0588235294117647
 40
0.0588235294117647
 40
0.0588235294117647
 40
0.1176470588235294
 40
0.1176470588235294
 40
0.1176470588235294
 40
0.1176470588235294
 40
0.1764705882352941
 40
0.1764705882352941
 40
0.1764705882352941
 40
0.1764705882352941
 40
0.2352941176470588
 40
0.2352941176470588
 40
0.2352941176470588
 40
0.2352941176470588
 40
0.2941176470588235
 40
0.2941176470588235
 40
0.2941176470588235
 40
0.2941176470588235
 40
0.3529411764705883
 40
0.3529411764705883
 40
0.3529411764705883
 40
0.3529411764705883
 40
0.4117647058823529
 40
0.4117647058823529
 40
0.4117647058823529
 40
0.4117647058823529
 40
0.4705882352941176
 40
0.4705882352941176
 40
0.4705882352941176
 40
0.4705882352941176
 40
0.5294117647058824
 40
0.5294117647058824
 40
0.5294117647058824
 40
0.5294117647058824
 40
0.5882352941176471
 40
0.5882352941176471
 40
0.5882352941176471
 40
0.5882352941176471
 40
0.6470588235294118
 40
0.6470588235294118
 40
0.6470588235294118
 40
0.6470588235294118
 40
0.7058823529411765
 40
0.7058823529411765
 40
0.7058823529411765
 40
0.7058823529411765
 40
0.7647058823529411
 40
0.7647058823529411
 40
0.7647058823529411
 40
0.7647058823529411
 40
0.8235294117647058
 40
0.8235294117647058
 40
0.8235294117647058
 40
0.8235294117647058
 40
0.8823529411764706
 40
0.8823529411764706
 40
0.8823529411764706
 40
0.8823529411764706
 40
1.0
 40
1.0
 40
1.0
 40
1.0
 10
93.4339
 20
-26.1241
 30
0.0
 10
92.0619
 20
-26.6524
 30
0.0
 10
84.7868
 20
-27.642
 30
0.0
 10
82.9206
 20
-27.2418
 30
0.0
 10
82.9206
 20
-27.2418
 30
0.0
 10
81.3643
 20
-26.9081
 30
0.0
 10
81.1676
 20
-26.9369
 30
0.0
 10
80.067
 20
-27.6606
 30
0.0
 10
80.067
 20
-27.6606
 30
0.0
 10
77.1463
 20
-29.5809
 30
0.0
 10
73.4864
 20
-29.2644
 30
0.0
 10
71.1081
 20
-26.8861
 30
0.0
 10
71.1081
 20
-26.8861
 30
0.0
 10
68.607
 20
-23.8848
 30
0.0
 10
69.2979
 20
-19.1688
 30
0.0
 10
72.8178
 20
-17.4762
 30
0.0
 10
72.8178
 20
-17.4762
 30
0.0
 10
76.932
 20
-15.5605
 30
0.0
 10
81.3582
 20
-17.4023
 30
0.0
 10
82.5506
 20
-21.5262
 30
0.0
 10
82.5506
 20
-21.5262
 30
0.0
 10
83.0341
 20
-23.1988
 30
0.0
 10
83.0662
 20
-23.2309
 30
0.0
 10
84.4576
 20
-23.433
 30
0.0
 10
84.4576
 20
-23.433
 30
0.0
 10
88.2837
 20
-23.6471
 30
0.0
 10
91.3235
 20
-22.7278
 30
0.0
 10
94.6906
 20
-21.3798
 30
0.0
 10
94.6906
 20
-21.3798
 30
0.0
 10
94.3217
 20
-13.5595
 30
0.0
 10
89.7807
 20
-5.215
 30
0.0
 10
84.01
 20
-2.2731
 30
0.0
 10
84.01
 20
-2.2731
 30
0.0
 10
74.2591
 20
1.9815
 30
0.0
 10
59.4684
 20
-0.5945
 30
0.0
 10
51.1814
 20
-6.5599
 30
0.0
 10
51.1814
 20
-6.5599
 30
0.0
 10
50.4827
 20
-7.0974
 30
0.0
 10
50.4935
 20
-7.1084
 30
0.0
 10
52.8504
 20
-8.2733
 30
0.0
 10
52.8504
 20
-8.2733
 30
0.0
 10
65.2206
 20
-13.715
 30
0.0
 10
63.0547
 20
-26.1627
 30
0.0
 10
62.2471
 20
-34.9802
 30
0.0
 10
62.2471
 20
-34.9802
 30
0.0
 10
56.9566
 20
-26.2887
 30
0.0
 10
46.3187
 20
-31.061
 30
0.0
 10
43.3903
 20
-14.768
 30
0.0
 10
43.3903
 20
-14.768
 30
0.0
 10
39.5075
 20
-20.6095
 30
0.0
 10
39.2801
 20
-35.614
 30
0.0
 10
43.9437
 20
-42.5434
 30
0.0
 10
43.9437
 20
-42.5434
 30
0.0
 10
52.7348
 20
-41.7911
 30
0.0
 10
59.2706
 20
-43.3051
 30
0.0
 10
64.7604
 20
-51.65
 30
0.0
 10
64.7604
 20
-51.65
 30
0.0
 10
70.5557
 20
-43.2544
 30
0.0
 10
81.5805
 20
-37.2225
 30
0.0
 10
90.7964
 20
-35.3469
 30
0.0
 10
90.7964
 20
-35.3469
 30
0.0
 10
90.7964
 20
-35.3471
 30
0.0
 10
90.8104
 20
-30.0679
 30
0.0
 10
93.4339
 20
-26.1241
 30
0.0
  0
SPLINE
  5
50
330
1F
100
AcDbEntity
  8
layer 1
 62
     7
100
AcDbSpline
210
0.0
220
0.0
230
1.0
 70
    11
 71
     3
 72
    24
 73
    20
 74
     0
 42
0.0000000001
 43
0.0000000001
 12
1.0
 22
0.0
 32
0.0
 13
1.0
 23
0.0
 33
0.0
 40
0.0
 40
0.0
 40
0.0
 40
0.0
 40
0.1666666666666667
 40
0.1666666666666667
 40
0.1666666666666667
 40
0.1666666666666667
 40
0.3333333333333333
 40
0.3333333333333333
 40
0.3333333333333333
 40
0.3333333333333333
 40
0.5
 40
0.5
 40
0.5
 40
0.5
 40
0.6666666666666666
 40
0.6666666666666666
 40
0.6666666666666666
 40
0.6666666666666666
 40
1.0
 40
1.0
 40
1.0
 40
1.0
 10
120.3632
 20
-26.1611
 30
0.0
 10
112.3392
 20
-19.1251
 30
0.0
 10
96.7902
 20
-21.9667
 30
0.0
 10
94.9322
 20
-31.7649
 30
0.0
 10
94.9322
 20
-31.7649
 30
0.0
 10
94.4689
 20
-34.6117
 30
0.0
 10
94.6251
 20
-34.8218
 30
0.0
 10
97.205
 20
-34.8218
 30
0.0
 10
97.205
 20
-34.8218
 30
0.0
 10
110.0336
 20
-35.2917
 30
0.0
 10
117.9016
 20
-41.8544
 30
0.0
 10
124.9444
 20
-50.7041
 30
0.0
 10
124.9444
 20
-50.7041
 30
0.0
 10
126.4454
 20
-41.5409
 30
0.0
 10
127.327
 20
-32.7878
 30
0.0
 10
120.3632
 20
-26.1612
 30
0.0
 10
120.3632
 20
-26.1612
 30
0.0
 10
120.3632
 20
-26.1612
 30
0.0
 10
120.3632
 20
-26.1611
 30
0.0
 10
120.3632
 20
-26.1611
 30
0.0
  0
SPLINE
  5
51
330
1F
100
AcDbEntity
  8
layer 1
 62
     7
100
AcDbSpline
210
0.0
220
0.0
230
1.0
 70
    11
 71
     3
 72
    56
 73
    52
 74
     0
 42
0.0000000001
 43
0.0000000001
 12
1.0
 22
0.0
 32
0.0
 13
1.0
 23
0.0
 33
0.0
 40
0.0
 40
0.0
 40
0.0
 40
0.0
 40
0.0714285714285714
 40
0.0714285714285714
 40
0.0714285714285714
 40
0.0714285714285714
 40
0.1428571428571428
 40
0.1428571428571428
 40
0.1428571428571428
 40
0.1428571428571428
 40
0.2142857142857143
 40
0.2142857142857143
 40
0.2142857142857143
 40
0.2142857142857143
 40
0.2857142857142857
 40
0.2857142857142857
 40
0.2857142857142857
 40
0.2857142857142857
 40
0.3571428571428572
 40
0.3571428571428572
 40
0.3571428571428572
 40
0.3571428571428572
 40
0.4285714285714285
 40
0.4285714285714285
 40
0.4285714285714285
 40
0.4285714285714285
 40
0.5
 40
0.5
 40
0.5
 40
0.5
 40
0.5714285714285714
 40
0.5714285714285714
 40
0.5714285714285714
 40
0.5714285714285714
 40
0.6428571428571429
 40
0.6428571428571429
 40
0.6428571428571429
 40
0.6428571428571429
 40
0.7142857142857143
 40
0.7142857142857143
 40
0.7142857142857143
 40
0.7142857142857143
 40
0.7857142857142857
 40
0.7857142857142857
 40
0.7857142857142857
 40
0.7857142857142857
 40
0.8571428571428571
 40
0.8571428571428571
 40
0.8571428571428571
 40
0.8571428571428571
 40
1.0
 40
1.0
 40
1.0
 40
1.0
 10
166.827
 20
-47.6654
 30
0.0
 10
180.7988
 20
-44.8657
 30
0.0
 10
187.64
 20
-29.1579
 30
0.0
 10
184.1027
 20
-14.81
 30
0.0
 10
184.1027
 20
-14.81
 30
0.0
 10
182.2406
 20
-7.9046
 30
0.0
 10
177.5013
 20
-2.5447
 30
0.0
 10
171.6993
 20
-0.7824
 30
0.0
 10
171.6993
 20
-0.7824
 30
0.0
 10
158.2375
 20
0.8392
 30
0.0
 10
144.1664
 20
-9.6867
 30
0.0
 10
137.4989
 20
-16.2216
 30
0.0
 10
137.4989
 20
-16.2216
 30
0.0
 10
137.3371
 20
-26.0168
 30
0.0
 10
133.535
 20
-30.9099
 30
0.0
 10
130.1817
 20
-36.3501
 30
0.0
 10
130.1817
 20
-36.3501
 30
0.0
 10
136.4403
 20
-33.7928
 30
0.0
 10
141.7169
 20
-34.258
 30
0.0
 10
147.1882
 20
-37.9982
 30
0.0
 10
147.1882
 20
-37.9982
 30
0.0
 10
143.375
 20
-19.8937
 30
0.0
 10
164.1329
 20
-9.5181
 30
0.0
 10
173.4189
 20
-24.8703
 30
0.0
 10
173.4189
 20
-24.8703
 30
0.0
 10
174.0117
 20
-26.0931
 30
0.0
 10
175.0006
 20
-27.5046
 30
0.0
 10
175.6855
 20
-28.1059
 30
0.0
 10
175.6855
 20
-28.1059
 30
0.0
 10
177.4933
 20
-29.6926
 30
0.0
 10
178.2495
 20
-31.3848
 30
0.0
 10
178.0775
 20
-33.4589
 30
0.0
 10
178.0775
 20
-33.4589
 30
0.0
 10
177.5046
 20
-40.368
 30
0.0
 10
166.5759
 20
-42.009
 30
0.0
 10
163.5802
 20
-35.6357
 30
0.0
 10
163.5802
 20
-35.6357
 30
0.0
 10
161.6438
 20
-30.6444
 30
0.0
 10
165.5151
 20
-27.0646
 30
0.0
 10
169.5728
 20
-26.291
 30
0.0
 10
169.5728
 20
-26.291
 30
0.0
 10
163.9364
 20
-15.8194
 30
0.0
 10
151.4277
 20
-23.7452
 30
0.0
 10
151.254
 20
-33.131
 30
0.0
 10
151.254
 20
-33.131
 30
0.0
 10
150.2877
 20
-42.7246
 30
0.0
 10
156.6895
 20
-48.7185
 30
0.0
 10
166.827
 20
-47.6655
 30
0.0
 10
166.827
 20
-47.6655
 30
0.0
 10
166.827
 20
-47.6655
 30
0.0
 10
166.827
 20
-47.6654
 30
0.0
 10
166.827
 20
-47.6654
 30
0.0
  0
SPLINE
  5
52
330
1F
100
AcDbEntity
  8
layer 1
 62
     7
100
AcDbSpline
210
0.0
220
0.0
230
1.0
 70
    11
 71
     3
 72
    44
 73
    40
 74
     0
 42
0.0000000001
 43
0.0000000001
 12
1.0
 22
0.0
 32
0.0
 13
1.0
 23
0.0
 33
0.0
 40
0.0
 40
0.0
 40
0.0
 40
0.0
 40
0.0909090909090909
 40
0.0909090909090909
 40
0.0909090909090909
 40
0.0909090909090909
 40
0.1818181818181818
 40
0.1818181818181818
 40
0.1818181818181818
 40
0.1818181818181818
 40
0.2727272727272727
 40
0.2727272727272727
 40
0.2727272727272727
 40
0.2727272727272727
 40
0.3636363636363636
 40
0.3636363636363636
 40
0.3636363636363636
 40
0.3636363636363636
 40
0.4545454545454545
 40
0.4545454545454545
 40
0.4545454545454545
 40
0.4545454545454545
 40
0.5454545454545454
 40
0.5454545454545454
 40
0.5454545454545454
 40
0.5454545454545454
 40
0.6363636363636364
 40
0.6363636363636364
 40
0.6363636363636364
 40
0.6363636363636364
 40
0.7272727272727273
 40
0.7272727272727273
 40
0.7272727272727273
 40
0.7272727272727273
 40
0.8181818181818182
 40
0.8181818181818182
 40
0.8181818181818182
 40
0.8181818181818182
 40
1.0
 40
1.0
 40
1.0
 40
1.0
 10
128.2685
 20
1.0724
 30
0.0
 10
131.3205
 20
-15.9955
 30
0.0
 10
114.2324
 20
-8.7501
 30
0.0
 10
103.82
 20
-16.2657
 30
0.0
 10
103.82
 20
-16.2657
 30
0.0
 10
111.3182
 20
-8.2128
 30
0.0
 10
105.6564
 20
2.8564
 30
0.0
 10
117.876
 20
6.2836
 30
0.0
 10
117.876
 20
6.2836
 30
0.0
 10
121.3763
 20
7.2038
 30
0.0
 10
122.1831
 20
7.9831
 30
0.0
 10
122.4651
 20
10.7163
 30
0.0
 10
122.4651
 20
10.7163
 30
0.0
 10
121.69
 20
16.2345
 30
0.0
 10
119.8152
 20
23.0713
 30
0.0
 10
114.7717
 20
24.8421
 30
0.0
 10
114.7717
 20
24.8421
 30
0.0
 10
110.1042
 20
17.1301
 30
0.0
 10
100.3273
 20
11.8333
 30
0.0
 10
90.38
 20
13.3018
 30
0.0
 10
90.38
 20
13.3018
 30
0.0
 10
89.6102
 20
8.708
 30
0.0
 10
86.809
 20
4.4666
 30
0.0
 10
83.3319
 20
2.4547
 30
0.0
 10
83.3319
 20
2.4547
 30
0.0
 10
91.3662
 20
1.7333
 30
0.0
 10
98.568
 20
-6.885
 30
0.0
 10
99.3462
 20
-20.0402
 30
0.0
 10
99.3462
 20
-20.0402
 30
0.0
 10
111.3612
 20
-16.8507
 30
0.0
 10
118.4256
 20
-18.8995
 30
0.0
 10
126.5865
 20
-26.5312
 30
0.0
 10
126.5865
 20
-26.5312
 30
0.0
 10
132.8543
 20
-24.461
 30
0.0
 10
138.5178
 20
-7.647
 30
0.0
 10
128.2686
 20
1.0724
 30
0.0
 10
128.2686
 20
1.0724
 30
0.0
 10
128.2686
 20
1.0724
 30
0.0
 10
128.2685
 20
1.0724
 30
0.0
 10
128.2685
 20
1.0724
 30
0.0
  0
SPLINE
  5
53
330
1F
100
AcDbEntity
  8
layer 1
 62
     7
100
AcDbSpline
210
0.0
220
0.0
230
1.0
 70
    11
 71
     3
 72
    16
 73
    12
 74
     0
 42
0.0000000001
 43
0.0000000001
 12
1.0
 22
0.0
 32
0.0
 13
1.0
 23
0.0
 33
0.0
 40
0.0
 40
0.0
 40
0.0
 40
0.0
 40
0.25
 40
0.25
 40
0.25
 40
0.25
 40
0.5
 40
0.5
 40
0.5
 40
0.5
 40
1.0
 40
1.0
 40
1.0
 40
1.0
 10
45.525
 20
10.6018
 30
0.0
 10
40.5196
 20
4.0425
 30
0.0
 10
33.0249
 20
2.6824
 30
0.0
 10
27.3876
 20
8.3782
 30
0.0
 10
27.3876
 20
8.3782
 30
0.0
 10
27.3876
 20
8.3782
 30
0.0
 10
27.4196
 20
-19.8923
 30
0.0
 10
27.4196
 20
-19.8923
 30
0.0
 10
27.4196
 20
-19.8923
 30
0.0
 10
36.5215
 20
-10.8929
 30
0.0
 10
46.3278
 20
-5.3361
 30
0.0
 10
45.525
 20
10.6018
 30
0.0
  0
SPLINE
  5
54
330
1F
100
AcDbEntity
  8
layer 1
 62
     7
100
AcDbSpline
210
0.0
220
0.0
230
1.0
 70
    11
 71
     3
 72
    48
 73
    44
 74
     0
 42
0.0000000001
 43
0.0000000001
 12
1.0
 22
0.0
 32
0.0
 13
1.0
 23
0.0
 33
0.0
 40
0.0
 40
0.0
 40
0.0
 40
0.0
 40
0.0833333333333333
 40
0.0833333333333333
 40
0.0833333333333333
 40
0.0833333333333333
 40
0.1666666666666667
 40
0.1666666666666667
 40
0.1666666666666667
 40
0.1666666666666667
 40
0.25
 40
0.25
 40
0.25
 40
0.25
 40
0.3333333333333333
 40
0.3333333333333333
 40
0.3333333333333333
 40
0.3333333333333333
 40
0.4166666666666667
 40
0.4166666666666667
 40
0.4166666666666667
 40
0.4166666666666667
 40
0.5
 40
0.5
 40
0.5
 40
0.5
 40
0.5833333333333334
 40
0.5833333333333334
 40
0.5833333333333334
 40
0.5833333333333334
 40
0.6666666666666666
 40
0.6666666666666666
 40
0.6666666666666666
 40
0.6666666666666666
 40
0.75
 40
0.75
 40
0.75
 40
0.75
 40
0.8333333333333334
 40
0.8333333333333334
 40
0.8333333333333334
 40
0.8333333333333334
 40
1.0
 40
1.0
 40
1.0
 40
1.0
 10
180.8984
 20
23.0083
 30
0.0
 10
183.5363
 20
26.5344
 30
0.0
 10
183.8669
 20
29.756
 30
0.0
 10
183.8669
 20
31.8931
 30
0.0
 10
183.8669
 20
31.8931
 30
0.0
 10
183.8669
 20
35.9403
 30
0.0
 10
181.3274
 20
39.0593
 30
0.0
 10
175.907
 20
41.6691
 30
0.0
 10
175.907
 20
41.6691
 30
0.0
 10
169.292
 20
45.3889
 30
0.0
 10
158.5076
 20
45.7344
 30
0.0
 10
152.5697
 20
42.6694
 30
0.0
 10
152.5697
 20
42.6694
 30
0.0
 10
165.938
 20
37.2831
 30
0.0
 10
164.1939
 20
24.5094
 30
0.0
 10
160.0568
 20
15.4889
 30
0.0
 10
160.0568
 20
15.4889
 30
0.0
 10
158.0589
 20
11.3845
 30
0.0
 10
157.5179
 20
10.8762
 30
0.0
 10
155.9679
 20
11.6472
 30
0.0
 10
155.9679
 20
11.6472
 30
0.0
 10
155.4426
 20
11.9084
 30
0.0
 10
154.9736
 20
12.6505
 30
0.0
 10
154.5004
 20
13.9686
 30
0.0
 10
154.5004
 20
13.9686
 30
0.0
 10
152.2634
 20
23.0041
 30
0.0
 10
144.0695
 20
21.7661
 30
0.0
 10
145.4585
 20
37.7604
 30
0.0
 10
145.4585
 20
37.7604
 30
0.0
 10
136.0721
 20
28.4973
 30
0.0
 10
147.6993
 20
15.7476
 30
0.0
 10
132.4753
 20
2.6928
 30
0.0
 10
132.4753
 20
2.6928
 30
0.0
 10
135.7669
 20
-1.8479
 30
0.0
 10
137.6681
 20
-5.4005
 30
0.0
 10
137.7118
 20
-10.3619
 30
0.0
 10
137.7118
 20
-10.3619
 30
0.0
 10
146.6312
 20
-1.5422
 30
0.0
 10
157.9993
 20
3.4196
 30
0.0
 10
170.094
 20
4.008
 30
0.0
 10
170.094
 20
4.008
 30
0.0
 10
172.988
 20
10.7087
 30
0.0
 10
176.9911
 20
17.7853
 30
0.0
 10
180.8984
 20
23.0083
 30
0.0
  0
SPLINE
  5
55
330
1F
100
AcDbEntity
  8
layer 1
 62
     7
100
AcDbSpline
210
0.0
220
0.0
230
1.0
 70
    11
 71
     3
 72
    16
 73
    12
 74
     0
 42
0.0000000001
 43
0.0000000001
 12
1.0
 22
0.0
 32
0.0
 13
1.0
 23
0.0
 33
0.0
 40
0.0
 40
0.0
 40
0.0
 40
0.0
 40
0.25
 40
0.25
 40
0.25
 40
0.25
 40
0.5
 40
0.5
 40
0.5
 40
0.5
 40
1.0
 40
1.0
 40
1.0
 40
1.0
 10
186.0465
 20
22.9663
 30
0.0
 10
180.7526
 20
16.1801
 30
0.0
 10
177.2535
 20
10.0957
 30
0.0
 10
174.0199
 20
2.8659
 30
0.0
 10
174.0199
 20
2.8659
 30
0.0
 10
180.6253
 20
0.4249
 30
0.0
 10
183.4556
 20
-2.5113
 30
0.0
 10
186.0465
 20
-8.0853
 30
0.0
 10
186.0465
 20
-8.0853
 30
0.0
 10
186.0465
 20
-8.0853
 30
0.0
 10
186.0465
 20
22.9663
 30
0.0
 10
186.0465
 20
22.9663
 30
0.0
  0
SPLINE
  5
56
330
1F
100
AcDbEntity
  8
layer 1
 62
     7
100
AcDbSpline
210
0.0
220
0.0
230
1.0
 70
    11
 71
     3
 72
    32
 73
    28
 74
     0
 42
0.0000000001
 43
0.0000000001
 12
1.0
 22
0.0
 32
0.0
 13
1.0
 23
0.0
 33
0.0
 40
0.0
 40
0.0
 40
0.0
 40
0.0
 40
0.125
 40
0.125
 40
0.125
 40
0.125
 40
0.25
 40
0.25
 40
0.25
 40
0.25
 40
0.375
 40
0.375
 40
0.375
 40
0.375
 40
0.5
 40
0.5
 40
0.5
 40
0.5
 40
0.625
 40
0.625
 40
0.625
 40
0.625
 40
0.75
 40
0.75
 40
0.75
 40
0.75
 40
1.0
 40
1.0
 40
1.0
 40
1.0
 10
64.0194
 20
3.413
 30
0.0
 10
51.0836
 20
10.4672
 30
0.0
 10
49.9135
 20
28.9065
 30
0.0
 10
53.9494
 20
40.9848
 30
0.0
 10
53.9494
 20
40.9848
 30
0.0
 10
52.3762
 20
39.6206
 30
0.0
 10
50.3783
 20
39.6686
 30
0.0
 10
48.7904
 20
40.0797
 30
0.0
 10
48.7904
 20
40.0797
 30
0.0
 10
47.6735
 20
40.3881
 30
0.0
 10
47.6132
 20
40.3599
 30
0.0
 10
46.7621
 20
39.1317
 30
0.0
 10
46.7621
 20
39.1317
 30
0.0
 10
45.5738
 20
37.5931
 30
0.0
 10
44.1605
 20
36.6311
 30
0.0
 10
42.6048
 20
35.5171
 30
0.0
 10
42.6048
 20
35.5171
 30
0.0
 10
50.4389
 20
23.5091
 30
0.0
 10
51.3633
 20
7.3018
 30
0.0
 10
48.458
 20
-3.3747
 30
0.0
 10
48.458
 20
-3.3747
 30
0.0
 10
53.7966
 20
0.9362
 30
0.0
 10
57.9182
 20
2.7372
 30
0.0
 10
64.0194
 20
3.4128
 30
0.0
 10
64.0194
 20
3.4128
 30
0.0
 10
64.0194
 20
3.4128
 30
0.0
 10
64.0194
 20
3.413
 30
0.0
 10
64.0194
 20
3.413
 30
0.0
  0
SPLINE
  5
57
330
1F
100
AcDbEntity
  8
layer 1
 62
     7
100
AcDbSpline
210
0.0
220
0.0
230
1.0
 70
    11
 71
     3
 72
    28
 73
    24
 74
     0
 42
0.0000000001
 43
0.0000000001
 12
1.0
 22
0.0
 32
0.0
 13
1.0
 23
0.0
 33
0.0
 40
0.0
 40
0.0
 40
0.0
 40
0.0
 40
0.1428571428571428
 40
0.1428571428571428
 40
0.1428571428571428
 40
0.1428571428571428
 40
0.2857142857142857
 40
0.2857142857142857
 40
0.2857142857142857
 40
0.2857142857142857
 40
0.4285714285714285
 40
0.4285714285714285
 40
0.4285714285714285
 40
0.4285714285714285
 40
0.5714285714285714
 40
0.5714285714285714
 40
0.5714285714285714
 40
0.5714285714285714
 40
0.7142857142857143
 40
0.7142857142857143
 40
0.7142857142857143
 40
0.7142857142857143
 40
1.0
 40
1.0
 40
1.0
 40
1.0
 10
85.8905
 20
12.5573
 30
0.0
 10
86.2896
 20
13.6885
 30
0.0
 10
86.2796
 20
13.823
 30
0.0
 10
85.7843
 20
13.9938
 30
0.0
 10
85.7843
 20
13.9938
 30
0.0
 10
70.9777
 20
19.3145
 30
0.0
 10
66.2606
 20
30.2835
 30
0.0
 10
62.822
 20
45.5429
 30
0.0
 10
62.822
 20
45.5429
 30
0.0
 10
53.124
 20
39.3875
 30
0.0
 10
55.1526
 20
18.5132
 30
0.0
 10
59.4211
 20
12.9841
 30
0.0
 10
59.4211
 20
12.9841
 30
0.0
 10
60.3867
 20
23.9424
 30
0.0
 10
65.1702
 20
23.3758
 30
0.0
 10
66.8142
 20
28.8263
 30
0.0
 10
66.8142
 20
28.8263
 30
0.0
 10
67.5662
 20
12.6336
 30
0.0
 10
74.5322
 20
16.5272
 30
0.0
 10
70.8829
 20
5.0119
 30
0.0
 10
70.8829
 20
5.0119
 30
0.0
 10
78.0239
 20
3.3155
 30
0.0
 10
83.6048
 20
6.3396
 30
0.0
 10
85.8905
 20
12.5573
 30
0.0
  0
SPLINE
  5
58
330
1F
100
AcDbEntity
  8
layer 1
 62
     7
100
AcDbSpline
210
0.0
220
0.0
230
1.0
 70
    11
 71
     3
 72
    44
 73
    40
 74
     0
 42
0.0000000001
 43
0.0000000001
 12
1.0
 22
0.0
 32
0.0
 13
1.0
 23
0.0
 33
0.0
 40
0.0
 40
0.0
 40
0.0
 40
0.0
 40
0.0909090909090909
 40
0.0909090909090909
 40
0.0909090909090909
 40
0.0909090909090909
 40
0.1818181818181818
 40
0.1818181818181818
 40
0.1818181818181818
 40
0.1818181818181818
 40
0.2727272727272727
 40
0.2727272727272727
 40
0.2727272727272727
 40
0.2727272727272727
 40
0.3636363636363636
 40
0.3636363636363636
 40
0.3636363636363636
 40
0.3636363636363636
 40
0.4545454545454545
 40
0.4545454545454545
 40
0.4545454545454545
 40
0.4545454545454545
 40
0.5454545454545454
 40
0.5454545454545454
 40
0.5454545454545454
 40
0.5454545454545454
 40
0.6363636363636364
 40
0.6363636363636364
 40
0.6363636363636364
 40
0.6363636363636364
 40
0.7272727272727273
 40
0.7272727272727273
 40
0.7272727272727273
 40
0.7272727272727273
 40
0.8181818181818182
 40
0.8181818181818182
 40
0.8181818181818182
 40
0.8181818181818182
 40
1.0
 40
1.0
 40
1.0
 40
1.0
 10
136.234
 20
22.239
 30
0.0
 10
136.2341
 20
39.8411
 30
0.0
 10
142.6103
 20
47.587
 30
0.0
 10
160.9123
 20
48.7802
 30
0.0
 10
160.9123
 20
48.7802
 30
0.0
 10
159.2449
 20
51.5933
 30
0.0
 10
156.0673
 20
57.908
 30
0.0
 10
156.9957
 20
60.5126
 30
0.0
 10
156.9957
 20
60.5126
 30
0.0
 10
157.3673
 20
61.4086
 30
0.0
 10
157.1436
 20
62.6958
 30
0.0
 10
155.4806
 20
62.6958
 30
0.0
 10
155.4806
 20
62.6958
 30
0.0
 10
154.5261
 20
62.6958
 30
0.0
 10
151.9067
 20
63.2999
 30
0.0
 10
150.8204
 20
63.7706
 30
0.0
 10
150.8204
 20
63.7706
 30
0.0
 10
151.5564
 20
47.2046
 30
0.0
 10
136.8262
 20
40.2136
 30
0.0
 10
125.1946
 20
49.634
 30
0.0
 10
125.1946
 20
49.634
 30
0.0
 10
124.7148
 20
44.6197
 30
0.0
 10
121.4311
 20
40.3147
 30
0.0
 10
118.1138
 20
37.5797
 30
0.0
 10
118.1138
 20
37.5797
 30
0.0
 10
118.2789
 20
34.4369
 30
0.0
 10
117.4816
 20
31.1204
 30
0.0
 10
116.8176
 20
28.5487
 30
0.0
 10
116.8176
 20
28.5487
 30
0.0
 10
124.9696
 20
25.7009
 30
0.0
 10
128.1069
 20
13.9885
 30
0.0
 10
125.846
 20
7.2502
 30
0.0
 10
125.846
 20
7.2502
 30
0.0
 10
126.4886
 20
6.371
 30
0.0
 10
128.112
 20
6.0818
 30
0.0
 10
128.9947
 20
5.422
 30
0.0
 10
128.9947
 20
5.422
 30
0.0
 10
133.0932
 20
9.7921
 30
0.0
 10
136.1503
 20
16.3552
 30
0.0
 10
136.234
 20
22.239
 30
0.0
  0
SPLINE
  5
59
330
1F
100
AcDbEntity
  8
layer 1
 62
     7
100
AcDbSpline
210
0.0
220
0.0
230
1.0
 70
    11
 71
     3
 72
    28
 73
    24
 74
     0
 42
0.0000000001
 43
0.0000000001
 12
1.0
 22
0.0
 32
0.0
 13
1.0
 23
0.0
 33
0.0
 40
0.0
 40
0.0
 40
0.0
 40
0.0
 40
0.1428571428571428
 40
0.1428571428571428
 40
0.1428571428571428
 40
0.1428571428571428
 40
0.2857142857142857
 40
0.2857142857142857
 40
0.2857142857142857
 40
0.2857142857142857
 40
0.4285714285714285
 40
0.4285714285714285
 40
0.4285714285714285
 40
0.4285714285714285
 40
0.5714285714285714
 40
0.5714285714285714
 40
0.5714285714285714
 40
0.5714285714285714
 40
0.7142857142857143
 40
0.7142857142857143
 40
0.7142857142857143
 40
0.7142857142857143
 40
1.0
 40
1.0
 40
1.0
 40
1.0
 10
44.225
 20
19.3071
 30
0.0
 10
45.3495
 20
21.3107
 30
0.0
 10
40.9884
 20
31.0803
 30
0.0
 10
38.9927
 20
33.3066
 30
0.0
 10
38.9927
 20
33.3066
 30
0.0
 10
38.0383
 20
34.3421
 30
0.0
 10
37.5416
 20
34.6258
 30
0.0
 10
36.5791
 20
34.6855
 30
0.0
 10
36.5791
 20
34.6855
 30
0.0
 10
32.421
 20
35.4515
 30
0.0
 10
30.0865
 20
36.9899
 30
0.0
 10
27.2673
 20
39.5886
 30
0.0
 10
27.2673
 20
39.5886
 30
0.0
 10
27.2673
 20
39.5886
 30
0.0
 10
27.1803
 20
12.2123
 30
0.0
 10
27.1803
 20
12.2123
 30
0.0
 10
27.1803
 20
12.2123
 30
0.0
 10
31.8948
 20
18.821
 30
0.0
 10
38.1632
 20
21.4738
 30
0.0
 10
44.2248
 20
19.3072
 30
0.0
 10
44.2248
 20
19.3072
 30
0.0
 10
44.2248
 20
19.3072
 30
0.0
 10
44.225
 20
19.3071
 30
0.0
 10
44.225
 20
19.3071
 30
0.0
  0
SPLINE
  5
5A
330
1F
100
AcDbEntity
  8
layer 1
 62
     7
100
AcDbSpline
210
0.0
220
0.0
230
1.0
 70
    11
 71
     3
 72
   104
 73
   100
 74
     0
 42
0.0000000001
 43
0.0000000001
 12
1.0
 22
0.0
 32
0.0
 13
1.0
 23
0.0
 33
0.0
 40
0.0
 40
0.0
 40
0.0
 40
0.0
 40
0.0384615384615385
 40
0.0384615384615385
 40
0.0384615384615385
 40
0.0384615384615385
 40
0.0769230769230769
 40
0.0769230769230769
 40
0.0769230769230769
 40
0.0769230769230769
 40
0.1153846153846154
 40
0.1153846153846154
 40
0.1153846153846154
 40
0.1153846153846154
 40
0.1538461538461539
 40
0.1538461538461539
 40
0.1538461538461539
 40
0.1538461538461539
 40
0.1923076923076923
 40
0.1923076923076923
 40
0.1923076923076923
 40
0.1923076923076923
 40
0.2307692307692308
 40
0.2307692307692308
 40
0.2307692307692308
 40
0.2307692307692308
 40
0.2692307692307692
 40
0.2692307692307692
 40
0.2692307692307692
 40
0.2692307692307692
 40
0.3076923076923077
 40
0.3076923076923077
 40
0.3076923076923077
 40
0.3076923076923077
 40
0.3461538461538461
 40
0.3461538461538461
 40
0.3461538461538461
 40
0.3461538461538461
 40
0.3846153846153846
 40
0.3846153846153846
 40
0.3846153846153846
 40
0.3846153846153846
 40
0.4230769230769231
 40
0.4230769230769231
 40
0.4230769230769231
 40
0.4230769230769231
 40
0.4615384615384616
 40
0.4615384615384616
 40
0.4615384615384616
 40
0.4615384615384616
 40
0.5
 40
0.5
 40
0.5
 40
0.5
 40
0.5384615384615384
 40
0.5384615384615384
 40
0.5384615384615384
 40
0.5384615384615384
 40
0.5769230769230769
 40
0.5769230769230769
 40
0.5769230769230769
 40
0.5769230769230769
 40
0.6153846153846154
 40
0.6153846153846154
 40
0.6153846153846154
 40
0.6153846153846154
 40
0.6538461538461539
 40
0.6538461538461539
 40
0.6538461538461539
 40
0.6538461538461539
 40
0.6923076923076923
 40
0.6923076923076923
 40
0.6923076923076923
 40
0.6923076923076923
 40
0.7307692307692307
 40
0.7307692307692307
 40
0.7307692307692307
 40
0.7307692307692307
 40
0.7692307692307693
 40
0.7692307692307693
 40
0.7692307692307693
 40
0.7692307692307693
 40
0.8076923076923077
 40
0.8076923076923077
 40
0.8076923076923077
 40
0.8076923076923077
 40
0.8461538461538461
 40
0.8461538461538461
 40
0.8461538461538461
 40
0.8461538461538461
 40
0.8846153846153846
 40
0.8846153846153846
 40
0.8846153846153846
 40
0.8846153846153846
 40
0.9230769230769231
 40
0.9230769230769231
 40
0.9230769230769231
 40
0.9230769230769231
 40
1.0
 40
1.0
 40
1.0
 40
1.0
 10
104.4553
 20
20.7599
 30
0.0
 10
112.6844
 20
26.6236
 30
0.0
 10
116.2665
 20
35.2738
 30
0.0
 10
112.3286
 20
43.4782
 30
0.0
 10
112.3286
 20
43.4782
 30
0.0
 10
108.5611
 20
51.1963
 30
0.0
 10
101.109
 20
54.8713
 30
0.0
 10
96.0376
 20
51.5122
 30
0.0
 10
96.0376
 20
51.5122
 30
0.0
 10
91.3936
 20
48.4361
 30
0.0
 10
88.8984
 20
40.8307
 30
0.0
 10
91.2286
 20
36.8545
 30
0.0
 10
91.2286
 20
36.8545
 30
0.0
 10
92.7313
 20
34.1123
 30
0.0
 10
96.5352
 20
32.1747
 30
0.0
 10
99.6488
 20
34.9295
 30
0.0
 10
99.6488
 20
34.9295
 30
0.0
 10
95.3591
 20
38.4207
 30
0.0
 10
97.1818
 20
43.7745
 30
0.0
 10
100.6844
 20
45.6626
 30
0.0
 10
100.6844
 20
45.6626
 30
0.0
 10
103.6233
 20
47.1271
 30
0.0
 10
106.7125
 20
46.5588
 30
0.0
 10
108.8122
 20
44.1674
 30
0.0
 10
108.8122
 20
44.1674
 30
0.0
 10
111.8977
 20
40.6532
 30
0.0
 10
110.2039
 20
35.4151
 30
0.0
 10
105.567
 20
34.1321
 30
0.0
 10
105.567
 20
34.1321
 30
0.0
 10
104.8681
 20
33.9387
 30
0.0
 10
103.8072
 20
33.2866
 30
0.0
 10
103.2093
 20
32.6827
 30
0.0
 10
103.2093
 20
32.6827
 30
0.0
 10
99.0792
 20
29.1414
 30
0.0
 10
92.677
 20
29.4422
 30
0.0
 10
89.3063
 20
32.7389
 30
0.0
 10
89.3063
 20
32.7389
 30
0.0
 10
85.2777
 20
37.459
 30
0.0
 10
86.0115
 20
43.7053
 30
0.0
 10
88.295
 20
48.3335
 30
0.0
 10
88.295
 20
48.3335
 30
0.0
 10
92.7886
 20
57.277
 30
0.0
 10
101.4745
 20
59.3687
 30
0.0
 10
109.3694
 20
53.4084
 30
0.0
 10
109.3694
 20
53.4084
 30
0.0
 10
112.8083
 20
50.7102
 30
0.0
 10
115.7313
 20
46.8711
 30
0.0
 10
117.172
 20
42.7575
 30
0.0
 10
117.172
 20
42.7575
 30
0.0
 10
125.9822
 20
52.3237
 30
0.0
 10
118.2542
 20
64.9498
 30
0.0
 10
111.6362
 20
69.684
 30
0.0
 10
111.6362
 20
69.684
 30
0.0
 10
106.0717
 20
73.7187
 30
0.0
 10
97.9343
 20
76.5702
 30
0.0
 10
90.978
 20
76.3241
 30
0.0
 10
90.978
 20
76.3241
 30
0.0
 10
90.8738
 20
76.22
 30
0.0
 10
91.3594
 20
75.1479
 30
0.0
 10
92.057
 20
73.9417
 30
0.0
 10
92.057
 20
73.9417
 30
0.0
 10
95.0289
 20
68.8038
 30
0.0
 10
94.9642
 20
65.0222
 30
0.0
 10
91.7997
 20
58.9056
 30
0.0
 10
91.7997
 20
58.9056
 30
0.0
 10
90.5808
 20
56.5496
 30
0.0
 10
89.624
 20
54.1735
 30
0.0
 10
89.1779
 20
52.395
 30
0.0
 10
89.1779
 20
52.395
 30
0.0
 10
88.4777
 20
49.6034
 30
0.0
 10
88.4737
 20
49.5969
 30
0.0
 10
87.9155
 20
50.3369
 30
0.0
 10
87.9155
 20
50.3369
 30
0.0
 10
86.7352
 20
51.9016
 30
0.0
 10
83.4979
 20
58.5072
 30
0.0
 10
83.029
 20
60.3077
 30
0.0
 10
83.029
 20
60.3077
 30
0.0
 10
80.9034
 20
66.77
 30
0.0
 10
83.339
 20
71.4757
 30
0.0
 10
86.2249
 20
75.3144
 30
0.0
 10
86.2249
 20
75.3144
 30
0.0
 10
78.6932
 20
74.4832
 30
0.0
 10
68.6063
 20
65.3813
 30
0.0
 10
65.6725
 20
59.7774
 30
0.0
 10
65.6725
 20
59.7774
 30
0.0
 10
64.7436
 20
57.9372
 30
0.0
 10
64.7393
 20
57.9035
 30
0.0
 10
65.1983
 20
56.0991
 30
0.0
 10
65.1983
 20
56.0991
 30
0.0
 10
66.8025
 20
45.6817
 30
0.0
 10
69.7197
 20
33.7247
 30
0.0
 10
75.1739
 20
26.1358
 30
0.0
 10
75.1739
 20
26.1358
 30
0.0
 10
82.7561
 20
16.1549
 30
0.0
 10
94.2869
 20
14.8499
 30
0.0
 10
104.4554
 20
20.7598
 30
0.0
 10
104.4554
 20
20.7598
 30
0.0
 10
104.4554
 20
20.7598
 30
0.0
 10
104.4553
 20
20.7599
 30
0.0
 10
104.4553
 20
20.7599
 30
0.0
  0
SPLINE
  5
5B
330
1F
100
AcDbEntity
  8
layer 1
 62
     7
100
AcDbSpline
210
0.0
220
0.0
230
1.0
 70
    11
 71
     3
 72
    48
 73
    44
 74
     0
 42
0.0000000001
 43
0.0000000001
 12
1.0
 22
0.0
 32
0.0
 13
1.0
 23
0.0
 33
0.0
 40
0.0
 40
0.0
 40
0.0
 40
0.0
 40
0.0833333333333333
 40
0.0833333333333333
 40
0.0833333333333333
 40
0.0833333333333333
 40
0.1666666666666667
 40
0.1666666666666667
 40
0.1666666666666667
 40
0.1666666666666667
 40
0.25
 40
0.25
 40
0.25
 40
0.25
 40
0.3333333333333333
 40
0.3333333333333333
 40
0.3333333333333333
 40
0.3333333333333333
 40
0.4166666666666667
 40
0.4166666666666667
 40
0.4166666666666667
 40
0.4166666666666667
 40
0.5
 40
0.5
 40
0.5
 40
0.5
 40
0.5833333333333334
 40
0.5833333333333334
 40
0.5833333333333334
 40
0.5833333333333334
 40
0.6666666666666666
 40
0.6666666666666666
 40
0.6666666666666666
 40
0.6666666666666666
 40
0.75
 40
0.75
 40
0.75
 40
0.75
 40
0.8333333333333334
 40
0.8333333333333334
 40
0.8333333333333334
 40
0.8333333333333334
 40
1.0
 40
1.0
 40
1.0
 40
1.0
 10
45.2556
 20
50.3115
 30
0.0
 10
50.9872
 20
55.118
 30
0.0
 10
56.2138
 20
50.9175
 30
0.0
 10
56.8925
 20
45.8571
 30
0.0
 10
56.8925
 20
45.8571
 30
0.0
 10
58.1431
 20
46.9993
 30
0.0
 10
59.4139
 20
48.2405
 30
0.0
 10
60.9062
 20
49.0208
 30
0.0
 10
60.9062
 20
49.0208
 30
0.0
 10
62.4291
 20
49.7978
 30
0.0
 10
62.4437
 20
49.8984
 30
0.0
 10
61.5867
 20
53.7255
 30
0.0
 10
61.5867
 20
53.7255
 30
0.0
 10
58.5173
 20
67.3129
 30
0.0
 10
47.8823
 20
71.5254
 30
0.0
 10
36.9821
 20
66.1094
 30
0.0
 10
36.9821
 20
66.1094
 30
0.0
 10
39.5753
 20
64.8767
 30
0.0
 10
42.5029
 20
62.5696
 30
0.0
 10
43.2874
 20
60.1263
 30
0.0
 10
43.2874
 20
60.1263
 30
0.0
 10
44.8093
 20
55.6219
 30
0.0
 10
42.9566
 20
51.2561
 30
0.0
 10
41.7266
 20
46.8579
 30
0.0
 10
41.7266
 20
46.8579
 30
0.0
 10
36.4494
 20
52.3048
 30
0.0
 10
31.1614
 20
50.2682
 30
0.0
 10
31.079
 20
58.6846
 30
0.0
 10
31.079
 20
58.6846
 30
0.0
 10
31.079
 20
60.927
 30
0.0
 10
28.7579
 20
55.4998
 30
0.0
 10
28.2119
 20
51.9807
 30
0.0
 10
28.2119
 20
51.9807
 30
0.0
 10
27.6254
 20
48.2006
 30
0.0
 10
28.3668
 20
44.3293
 30
0.0
 10
30.7591
 20
41.941
 30
0.0
 10
30.7591
 20
41.941
 30
0.0
 10
36.0912
 20
37.6898
 30
0.0
 10
40.854
 20
38.1133
 30
0.0
 10
44.5232
 20
42.7466
 30
0.0
 10
44.5232
 20
42.7466
 30
0.0
 10
43.7803
 20
43.8392
 30
0.0
 10
42.511
 20
47.4961
 30
0.0
 10
45.2556
 20
50.3115
 30
0.0
  0
SPLINE
  5
5C
330
1F
100
AcDbEntity
  8
layer 1
 62
     7
100
AcDbSpline
210
0.0
220
0.0
230
1.0
 70
    11
 71
     3
 72
    36
 73
    32
 74
     0
 42
0.0000000001
 43
0.0000000001
 12
1.0
 22
0.0
 32
0.0
 13
1.0
 23
0.0
 33
0.0
 40
0.0
 40
0.0
 40
0.0
 40
0.0
 40
0.1111111111111111
 40
0.1111111111111111
 40
0.1111111111111111
 40
0.1111111111111111
 40
0.2222222222222222
 40
0.2222222222222222
 40
0.2222222222222222
 40
0.2222222222222222
 40
0.3333333333333333
 40
0.3333333333333333
 40
0.3333333333333333
 40
0.3333333333333333
 40
0.4444444444444444
 40
0.4444444444444444
 40
0.4444444444444444
 40
0.4444444444444444
 40
0.5555555555555556
 40
0.5555555555555556
 40
0.5555555555555556
 40
0.5555555555555556
 40
0.6666666666666666
 40
0.6666666666666666
 40
0.6666666666666666
 40
0.6666666666666666
 40
0.7777777777777778
 40
0.7777777777777778
 40
0.7777777777777778
 40
0.7777777777777778
 40
1.0
 40
1.0
 40
1.0
 40
1.0
 10
185.9588
 20
50.545
 30
0.0
 10
183.2413
 20
45.8163
 30
0.0
 10
169.7748
 20
47.3231
 30
0.0
 10
170.6776
 20
54.7329
 30
0.0
 10
170.6776
 20
54.7329
 30
0.0
 10
173.0568
 20
62.3846
 30
0.0
 10
181.8153
 20
59.757
 30
0.0
 10
181.7033
 20
53.0899
 30
0.0
 10
181.7033
 20
53.0899
 30
0.0
 10
182.8194
 20
53.3818
 30
0.0
 10
184.4366
 20
55.1935
 30
0.0
 10
184.6643
 20
56.4074
 30
0.0
 10
184.6643
 20
56.4074
 30
0.0
 10
186.0465
 20
69.2183
 30
0.0
 10
167.5252
 20
68.0636
 30
0.0
 10
162.0967
 20
61.9114
 30
0.0
 10
162.0967
 20
61.9114
 30
0.0
 10
161.1203
 20
60.9904
 30
0.0
 10
160.9964
 20
60.6909
 30
0.0
 10
160.9964
 20
59.25
 30
0.0
 10
160.9964
 20
59.25
 30
0.0
 10
161.821
 20
54.4701
 30
0.0
 10
163.2295
 20
52.8516
 30
0.0
 10
165.6023
 20
48.7607
 30
0.0
 10
165.6023
 20
48.7607
 30
0.0
 10
173.8616
 20
47.6479
 30
0.0
 10
181.1899
 20
44.709
 30
0.0
 10
185.9316
 20
38.8056
 30
0.0
 10
185.9316
 20
38.8056
 30
0.0
 10
185.9316
 20
38.8056
 30
0.0
 10
185.9588
 20
50.545
 30
0.0
 10
185.9588
 20
50.545
 30
0.0
  0
SPLINE
  5
5D
330
1F
100
AcDbEntity
  8
layer 1
 62
     7
100
AcDbSpline
210
0.0
220
0.0
230
1.0
 70
    11
 71
     3
 72
    32
 73
    28
 74
     0
 42
0.0000000001
 43
0.0000000001
 12
1.0
 22
0.0
 32
0.0
 13
1.0
 23
0.0
 33
0.0
 40
0.0
 40
0.0
 40
0.0
 40
0.0
 40
0.125
 40
0.125
 40
0.125
 40
0.125
 40
0.25
 40
0.25
 40
0.25
 40
0.25
 40
0.375
 40
0.375
 40
0.375
 40
0.375
 40
0.5
 40
0.5
 40
0.5
 40
0.5
 40
0.625
 40
0.625
 40
0.625
 40
0.625
 40
0.75
 40
0.75
 40
0.75
 40
0.75
 40
1.0
 40
1.0
 40
1.0
 40
1.0
 10
146.2949
 20
60.9855
 30
0.0
 10
141.143
 20
55.8457
 30
0.0
 10
136.5595
 20
55.2575
 30
0.0
 10
131.4637
 20
58.9586
 30
0.0
 10
131.4637
 20
58.9586
 30
0.0
 10
136.7406
 20
63.3465
 30
0.0
 10
135.0342
 20
71.41
 30
0.0
 10
142.0837
 20
72.2252
 30
0.0
 10
142.0837
 20
72.2252
 30
0.0
 10
142.9728
 20
72.2252
 30
0.0
 10
142.5953
 20
72.71
 30
0.0
 10
140.7695
 20
73.9123
 30
0.0
 10
140.7695
 20
73.9123
 30
0.0
 10
137.6334
 20
75.5229
 30
0.0
 10
132.0207
 20
77.6924
 30
0.0
 10
129.0293
 20
75.5355
 30
0.0
 10
129.0293
 20
75.5355
 30
0.0
 10
127.2261
 20
74.1893
 30
0.0
 10
126.9404
 20
73.4547
 30
0.0
 10
126.1709
 20
68.1883
 30
0.0
 10
126.1709
 20
68.1883
 30
0.0
 10
125.3075
 20
62.28
 30
0.0
 10
124.6853
 20
60.4678
 30
0.0
 10
125.9027
 20
56.0075
 30
0.0
 10
125.9027
 20
56.0075
 30
0.0
 10
130.1956
 20
46.0123
 30
0.0
 10
147.7466
 20
48.6256
 30
0.0
 10
146.2949
 20
60.9855
 30
0.0
  0
SPLINE
  5
5E
330
1F
100
AcDbEntity
  8
layer 1
 62
     7
100
AcDbSpline
210
0.0
220
0.0
230
1.0
 70
    11
 71
     3
 72
    20
 73
    16
 74
     0
 42
0.0000000001
 43
0.0000000001
 12
1.0
 22
0.0
 32
0.0
 13
1.0
 23
0.0
 33
0.0
 40
0.0
 40
0.0
 40
0.0
 40
0.0
 40
0.2
 40
0.2
 40
0.2
 40
0.2
 40
0.4
 40
0.4
 40
0.4
 40
0.4
 40
0.6
 40
0.6
 40
0.6
 40
0.6
 40
1.0
 40
1.0
 40
1.0
 40
1.0
 10
38.0081
 20
71.0897
 30
0.0
 10
34.0701
 20
80.3492
 30
0.0
 10
33.2537
 20
93.278
 30
0.0
 10
38.0283
 20
102.7101
 30
0.0
 10
38.0283
 20
102.7101
 30
0.0
 10
34.0618
 20
100.889
 30
0.0
 10
31.1089
 20
100.2736
 30
0.0
 10
27.2673
 20
100.178
 30
0.0
 10
27.2673
 20
100.178
 30
0.0
 10
27.2673
 20
100.178
 30
0.0
 10
27.1803
 20
61.8038
 30
0.0
 10
27.1803
 20
61.8038
 30
0.0
 10
27.1803
 20
61.8038
 30
0.0
 10
30.5805
 20
66.2199
 30
0.0
 10
33.4601
 20
68.7299
 30
0.0
 10
38.0081
 20
71.0897
 30
0.0
  0
SPLINE
  5
5F
330
1F
100
AcDbEntity
  8
layer 1
 62
     7
100
AcDbSpline
210
0.0
220
0.0
230
1.0
 70
    11
 71
     3
 72
    60
 73
    56
 74
     0
 42
0.0000000001
 43
0.0000000001
 12
1.0
 22
0.0
 32
0.0
 13
1.0
 23
0.0
 33
0.0
 40
0.0
 40
0.0
 40
0.0
 40
0.0
 40
0.0666666666666667
 40
0.0666666666666667
 40
0.0666666666666667
 40
0.0666666666666667
 40
0.1333333333333333
 40
0.1333333333333333
 40
0.1333333333333333
 40
0.1333333333333333
 40
0.2
 40
0.2
 40
0.2
 40
0.2
 40
0.2666666666666667
 40
0.2666666666666667
 40
0.2666666666666667
 40
0.2666666666666667
 40
0.3333333333333333
 40
0.3333333333333333
 40
0.3333333333333333
 40
0.3333333333333333
 40
0.4
 40
0.4
 40
0.4
 40
0.4
 40
0.4666666666666667
 40
0.4666666666666667
 40
0.4666666666666667
 40
0.4666666666666667
 40
0.5333333333333333
 40
0.5333333333333333
 40
0.5333333333333333
 40
0.5333333333333333
 40
0.6
 40
0.6
 40
0.6
 40
0.6
 40
0.6666666666666666
 40
0.6666666666666666
 40
0.6666666666666666
 40
0.6666666666666666
 40
0.7333333333333333
 40
0.7333333333333333
 40
0.7333333333333333
 40
0.7333333333333333
 40
0.8
 40
0.8
 40
0.8
 40
0.8
 40
0.8666666666666667
 40
0.8666666666666667
 40
0.8666666666666667
 40
0.8666666666666667
 40
1.0
 40
1.0
 40
1.0
 40
1.0
 10
89.6515
 20
88.7169
 30
0.0
 10
86.3545
 20
88.3466
 30
0.0
 10
82.535
 20
87.6176
 30
0.0
 10
79.3657
 20
88.8988
 30
0.0
 10
79.3657
 20
88.8988
 30
0.0
 10
77.0467
 20
87.4776
 30
0.0
 10
75.438
 20
86.7215
 30
0.0
 10
73.0594
 20
86.9394
 30
0.0
 10
73.0594
 20
86.9394
 30
0.0
 10
66.9867
 20
87.5662
 30
0.0
 10
65.982
 20
95.4792
 30
0.0
 10
70.276
 20
98.411
 30
0.0
 10
70.276
 20
98.411
 30
0.0
 10
77.9969
 20
102.7512
 30
0.0
 10
81.1319
 20
95.9391
 30
0.0
 10
81.2738
 20
92.5195
 30
0.0
 10
81.2738
 20
92.5195
 30
0.0
 10
85.5444
 20
92.058
 30
0.0
 10
88.6208
 20
92.3986
 30
0.0
 10
92.1429
 20
94.6043
 30
0.0
 10
92.1429
 20
94.6043
 30
0.0
 10
91.9551
 20
98.6965
 30
0.0
 10
90.9664
 20
103.0858
 30
0.0
 10
89.564
 20
106.0544
 30
0.0
 10
89.564
 20
106.0544
 30
0.0
 10
83.2375
 20
118.5656
 30
0.0
 10
60.1462
 20
118.4884
 30
0.0
 10
48.8674
 20
109.3101
 30
0.0
 10
48.8674
 20
109.3101
 30
0.0
 10
61.3818
 20
105.5421
 30
0.0
 10
62.0892
 20
93.24
 30
0.0
 10
60.3025
 20
80.4618
 30
0.0
 10
60.3025
 20
80.4618
 30
0.0
 10
55.5949
 20
89.6885
 30
0.0
 10
44.3683
 20
90.9224
 30
0.0
 10
41.9944
 20
101.4948
 30
0.0
 10
41.9944
 20
101.4948
 30
0.0
 10
38.0857
 20
95.0962
 30
0.0
 10
37.4038
 20
81.2298
 30
0.0
 10
40.6096
 20
74.7641
 30
0.0
 10
40.6096
 20
74.7641
 30
0.0
 10
41.6016
 20
72.8196
 30
0.0
 10
42.3535
 20
72.4755
 30
0.0
 10
45.1038
 20
72.7073
 30
0.0
 10
45.1038
 20
72.7073
 30
0.0
 10
54.2095
 20
73.3616
 30
0.0
 10
59.4734
 20
69.347
 30
0.0
 10
62.8603
 20
63.2616
 30
0.0
 10
62.8603
 20
63.2616
 30
0.0
 10
68.0876
 20
72.525
 30
0.0
 10
78.5344
 20
78.9898
 30
0.0
 10
88.0966
 20
80.0917
 30
0.0
 10
88.0966
 20
80.0917
 30
0.0
 10
87.3576
 20
80.8307
 30
0.0
 10
88.9645
 20
87.7877
 30
0.0
 10
89.6515
 20
88.7169
 30
0.0
  0
SPLINE
  5
60
330
1F
100
AcDbEntity
  8
layer 1
 62
     7
100
AcDbSpline
210
0.0
220
0.0
230
1.0
 70
    11
 71
     3
 72
    20
 73
    16
 74
     0
 42
0.0000000001
 43
0.0000000001
 12
1.0
 22
0.0
 32
0.0
 13
1.0
 23
0.0
 33
0.0
 40
0.0
 40
0.0
 40
0.0
 40
0.0
 40
0.2
 40
0.2
 40
0.2
 40
0.2
 40
0.4
 40
0.4
 40
0.4
 40
0.4
 40
0.6
 40
0.6
 40
0.6
 40
0.6
 40
1.0
 40
1.0
 40
1.0
 40
1.0
 10
103.2858
 20
93.8421
 30
0.0
 10
95.8036
 20
91.3361
 30
0.0
 10
92.4395
 20
87.1453
 30
0.0
 10
92.2258
 20
80.6427
 30
0.0
 10
92.2258
 20
80.6427
 30
0.0
 10
106.5867
 20
80.3286
 30
0.0
 10
114.352
 20
74.4353
 30
0.0
 10
121.4558
 20
64.3434
 30
0.0
 10
121.4558
 20
64.3434
 30
0.0
 10
122.7871
 20
71.0196
 30
0.0
 10
123.2889
 20
79.0502
 30
0.0
 10
120.6816
 20
84.4545
 30
0.0
 10
120.6816
 20
84.4545
 30
0.0
 10
120.6817
 20
84.4545
 30
0.0
 10
116.7627
 20
96.1152
 30
0.0
 10
103.2858
 20
93.8421
 30
0.0
  0
SPLINE
  5
61
330
1F
100
AcDbEntity
  8
layer 1
 62
     7
100
AcDbSpline
210
0.0
220
0.0
230
1.0
 70
    11
 71
     3
 72
    52
 73
    48
 74
     0
 42
0.0000000001
 43
0.0000000001
 12
1.0
 22
0.0
 32
0.0
 13
1.0
 23
0.0
 33
0.0
 40
0.0
 40
0.0
 40
0.0
 40
0.0
 40
0.0769230769230769
 40
0.0769230769230769
 40
0.0769230769230769
 40
0.0769230769230769
 40
0.1538461538461539
 40
0.1538461538461539
 40
0.1538461538461539
 40
0.1538461538461539
 40
0.2307692307692308
 40
0.2307692307692308
 40
0.2307692307692308
 40
0.2307692307692308
 40
0.3076923076923077
 40
0.3076923076923077
 40
0.3076923076923077
 40
0.3076923076923077
 40
0.3846153846153846
 40
0.3846153846153846
 40
0.3846153846153846
 40
0.3846153846153846
 40
0.4615384615384616
 40
0.4615384615384616
 40
0.4615384615384616
 40
0.4615384615384616
 40
0.5384615384615384
 40
0.5384615384615384
 40
0.5384615384615384
 40
0.5384615384615384
 40
0.6153846153846154
 40
0.6153846153846154
 40
0.6153846153846154
 40
0.6153846153846154
 40
0.6923076923076923
 40
0.6923076923076923
 40
0.6923076923076923
 40
0.6923076923076923
 40
0.7692307692307693
 40
0.7692307692307693
 40
0.7692307692307693
 40
0.7692307692307693
 40
0.8461538461538461
 40
0.8461538461538461
 40
0.8461538461538461
 40
0.8461538461538461
 40
1.0
 40
1.0
 40
1.0
 40
1.0
 10
185.9796
 20
82.7869
 30
0.0
 10
185.9796
 20
82.7869
 30
0.0
 10
185.7943
 20
100.3369
 30
0.0
 10
185.7943
 20
100.3369
 30
0.0
 10
185.7943
 20
100.3369
 30
0.0
 10
185.7943
 20
100.3369
 30
0.0
 10
184.6422
 20
101.075
 30
0.0
 10
184.6422
 20
101.075
 30
0.0
 10
184.6422
 20
101.075
 30
0.0
 10
184.0086
 20
101.4809
 30
0.0
 10
183.4394
 20
101.7623
 30
0.0
 10
183.3773
 20
101.7002
 30
0.0
 10
183.3773
 20
101.7002
 30
0.0
 10
183.3153
 20
101.6381
 30
0.0
 10
183.4159
 20
100.5198
 30
0.0
 10
183.6007
 20
99.2151
 30
0.0
 10
183.6007
 20
99.2151
 30
0.0
 10
184.0233
 20
96.2335
 30
0.0
 10
183.7609
 20
89.6338
 30
0.0
 10
183.0978
 20
86.5708
 30
0.0
 10
183.0978
 20
86.5708
 30
0.0
 10
181.9118
 20
81.0914
 30
0.0
 10
179.6635
 20
76.0631
 30
0.0
 10
176.6637
 20
72.1806
 30
0.0
 10
176.6637
 20
72.1806
 30
0.0
 10
175.7336
 20
70.977
 30
0.0
 10
174.9727
 20
69.9395
 30
0.0
 10
174.9727
 20
69.8751
 30
0.0
 10
174.9727
 20
69.8751
 30
0.0
 10
174.9727
 20
69.8108
 30
0.0
 10
175.885
 20
69.6999
 30
0.0
 10
177.0001
 20
69.629
 30
0.0
 10
177.0001
 20
69.629
 30
0.0
 10
179.37
 20
69.4781
 30
0.0
 10
183.1186
 20
67.8014
 30
0.0
 10
184.6409
 20
66.2115
 30
0.0
 10
184.6409
 20
66.2115
 30
0.0
 10
185.154
 20
65.6756
 30
0.0
 10
185.7069
 20
65.237
 30
0.0
 10
185.8694
 20
65.237
 30
0.0
 10
185.8694
 20
65.237
 30
0.0
 10
186.0504
 20
65.237
 30
0.0
 10
186.0931
 20
72.0413
 30
0.0
 10
185.9795
 20
82.7869
 30
0.0
 10
185.9795
 20
82.7869
 30
0.0
 10
185.9795
 20
82.7869
 30
0.0
 10
185.9796
 20
82.7869
 30
0.0
 10
185.9796
 20
82.7869
 30
0.0
  0
SPLINE
  5
62
330
1F
100
AcDbEntity
  8
layer 1
 62
     7
100
AcDbSpline
210
0.0
220
0.0
230
1.0
 70
    11
 71
     3
 72
    68
 73
    64
 74
     0
 42
0.0000000001
 43
0.0000000001
 12
1.0
 22
0.0
 32
0.0
 13
1.0
 23
0.0
 33
0.0
 40
0.0
 40
0.0
 40
0.0
 40
0.0
 40
0.0588235294117647
 40
0.0588235294117647
 40
0.0588235294117647
 40
0.0588235294117647
 40
0.1176470588235294
 40
0.1176470588235294
 40
0.1176470588235294
 40
0.1176470588235294
 40
0.1764705882352941
 40
0.1764705882352941
 40
0.1764705882352941
 40
0.1764705882352941
 40
0.2352941176470588
 40
0.2352941176470588
 40
0.2352941176470588
 40
0.2352941176470588
 40
0.2941176470588235
 40
0.2941176470588235
 40
0.2941176470588235
 40
0.2941176470588235
 40
0.3529411764705883
 40
0.3529411764705883
 40
0.3529411764705883
 40
0.3529411764705883
 40
0.4117647058823529
 40
0.4117647058823529
 40
0.4117647058823529
 40
0.4117647058823529
 40
0.4705882352941176
 40
0.4705882352941176
 40
0.4705882352941176
 40
0.4705882352941176
 40
0.5294117647058824
 40
0.5294117647058824
 40
0.5294117647058824
 40
0.5294117647058824
 40
0.5882352941176471
 40
0.5882352941176471
 40
0.5882352941176471
 40
0.5882352941176471
 40
0.6470588235294118
 40
0.6470588235294118
 40
0.6470588235294118
 40
0.6470588235294118
 40
0.7058823529411765
 40
0.7058823529411765
 40
0.7058823529411765
 40
0.7058823529411765
 40
0.7647058823529411
 40
0.7647058823529411
 40
0.7647058823529411
 40
0.7647058823529411
 40
0.8235294117647058
 40
0.8235294117647058
 40
0.8235294117647058
 40
0.8235294117647058
 40
0.8823529411764706
 40
0.8823529411764706
 40
0.8823529411764706
 40
0.8823529411764706
 40
1.0
 40
1.0
 40
1.0
 40
1.0
 10
179.1119
 20
87.4452
 30
0.0
 10
179.7862
 20
92.9638
 30
0.0
 10
180.3505
 20
97.2614
 30
0.0
 10
178.8122
 20
102.6647
 30
0.0
 10
178.8122
 20
102.6647
 30
0.0
 10
175.9374
 20
110.3912
 30
0.0
 10
170.3883
 20
116.3448
 30
0.0
 10
163.527
 20
116.6404
 30
0.0
 10
163.527
 20
116.6404
 30
0.0
 10
154.1328
 20
117.5325
 30
0.0
 10
143.7729
 20
110.6327
 30
0.0
 10
133.6828
 20
99.7218
 30
0.0
 10
133.6828
 20
99.7218
 30
0.0
 10
132.8641
 20
94.616
 30
0.0
 10
129.8221
 20
87.6949
 30
0.0
 10
124.8717
 20
85.4002
 30
0.0
 10
124.8717
 20
85.4002
 30
0.0
 10
125.5783
 20
83.3205
 30
0.0
 10
126.3022
 20
80.9474
 30
0.0
 10
126.7406
 20
78.9082
 30
0.0
 10
126.7406
 20
78.9082
 30
0.0
 10
131.7226
 20
81.4555
 30
0.0
 10
139.6613
 20
81.1646
 30
0.0
 10
143.129
 20
77.3763
 30
0.0
 10
143.129
 20
77.3763
 30
0.0
 10
142.3333
 20
92.1881
 30
0.0
 10
149.4058
 20
98.0799
 30
0.0
 10
157.5024
 20
98.7089
 30
0.0
 10
157.5024
 20
98.7089
 30
0.0
 10
163.9569
 20
98.7623
 30
0.0
 10
168.1323
 20
94.6768
 30
0.0
 10
169.4043
 20
89.7404
 30
0.0
 10
169.4043
 20
89.7404
 30
0.0
 10
169.5103
 20
89.2579
 30
0.0
 10
170.2478
 20
88.2508
 30
0.0
 10
171.0432
 20
87.5022
 30
0.0
 10
171.0432
 20
87.5022
 30
0.0
 10
174.7826
 20
82.4115
 30
0.0
 10
170.7709
 20
75.8277
 30
0.0
 10
165.9607
 20
75.7261
 30
0.0
 10
165.9607
 20
75.7261
 30
0.0
 10
161.584
 20
75.7418
 30
0.0
 10
158.6272
 20
78.5125
 30
0.0
 10
158.6488
 20
82.5778
 30
0.0
 10
158.6488
 20
82.5778
 30
0.0
 10
159.4719
 20
87.192
 30
0.0
 10
161.0563
 20
89.213
 30
0.0
 10
165.0913
 20
89.5843
 30
0.0
 10
165.0913
 20
89.5843
 30
0.0
 10
163.0921
 20
93.8745
 30
0.0
 10
158.4262
 20
96.4092
 30
0.0
 10
153.5928
 20
93.7187
 30
0.0
 10
153.5928
 20
93.7187
 30
0.0
 10
147.0629
 20
88.7977
 30
0.0
 10
145.8058
 20
80.2187
 30
0.0
 10
148.2533
 20
72.7312
 30
0.0
 10
148.2533
 20
72.7312
 30
0.0
 10
150.1003
 20
67.4764
 30
0.0
 10
154.4654
 20
65.5431
 30
0.0
 10
161.2573
 20
66.9718
 30
0.0
 10
161.2573
 20
66.9718
 30
0.0
 10
172.6878
 20
69.3478
 30
0.0
 10
178.2027
 20
83.1985
 30
0.0
 10
179.1119
 20
87.4452
 30
0.0
  0
SPLINE
  5
63
330
1F
100
AcDbEntity
  8
layer 1
 62
     7
100
AcDbSpline
210
0.0
220
0.0
230
1.0
 70
    11
 71
     3
 72
    36
 73
    32
 74
     0
 42
0.0000000001
 43
0.0000000001
 12
1.0
 22
0.0
 32
0.0
 13
1.0
 23
0.0
 33
0.0
 40
0.0
 40
0.0
 40
0.0
 40
0.0
 40
0.1111111111111111
 40
0.1111111111111111
 40
0.1111111111111111
 40
0.1111111111111111
 40
0.2222222222222222
 40
0.2222222222222222
 40
0.2222222222222222
 40
0.2222222222222222
 40
0.3333333333333333
 40
0.3333333333333333
 40
0.3333333333333333
 40
0.3333333333333333
 40
0.4444444444444444
 40
0.4444444444444444
 40
0.4444444444444444
 40
0.4444444444444444
 40
0.5555555555555556
 40
0.5555555555555556
 40
0.5555555555555556
 40
0.5555555555555556
 40
0.6666666666666666
 40
0.6666666666666666
 40
0.6666666666666666
 40
0.6666666666666666
 40
0.7777777777777778
 40
0.7777777777777778
 40
0.7777777777777778
 40
0.7777777777777778
 40
1.0
 40
1.0
 40
1.0
 40
1.0
 10
123.792
 20
89.5163
 30
0.0
 10
130.7152
 20
97.8737
 30
0.0
 10
130.5286
 20
110.3396
 30
0.0
 10
124.9633
 20
118.1114
 30
0.0
 10
124.9633
 20
118.1114
 30
0.0
 10
124.0016
 20
103.0238
 30
0.0
 10
111.7564
 20
101.6585
 30
0.0
 10
100.9612
 20
100.0074
 30
0.0
 10
100.9612
 20
100.0074
 30
0.0
 10
106.5559
 20
108.1223
 30
0.0
 10
102.1999
 20
115.032
 30
0.0
 10
111.1896
 20
121.778
 30
0.0
 10
111.1896
 20
121.778
 30
0.0
 10
111.1896
 20
121.778
 30
0.0
 10
50.5804
 20
121.778
 30
0.0
 10
50.5804
 20
121.778
 30
0.0
 10
50.5804
 20
121.778
 30
0.0
 10
50.2264
 20
119.12
 30
0.0
 10
48.7479
 20
116.2594
 30
0.0
 10
47.7117
 20
113.9335
 30
0.0
 10
47.7117
 20
113.9335
 30
0.0
 10
68.4366
 20
125.9784
 30
0.0
 10
95.9646
 20
121.8259
 30
0.0
 10
96.4833
 20
95.8446
 30
0.0
 10
96.4833
 20
95.8446
 30
0.0
 10
106.9612
 20
98.9356
 30
0.0
 10
116.7899
 20
98.6045
 30
0.0
 10
122.1639
 20
89.9647
 30
0.0
 10
122.1639
 20
89.9647
 30
0.0
 10
122.7887
 20
88.907
 30
0.0
 10
122.6745
 20
88.9384
 30
0.0
 10
123.792
 20
89.5163
 30
0.0
  0
SPLINE
  5
64
330
1F
100
AcDbEntity
  8
layer 1
 62
     7
100
AcDbSpline
210
0.0
220
0.0
230
1.0
 70
    11
 71
     3
 72
    16
 73
    12
 74
     0
 42
0.0000000001
 43
0.0000000001
 12
1.0
 22
0.0
 32
0.0
 13
1.0
 23
0.0
 33
0.0
 40
0.0
 40
0.0
 40
0.0
 40
0.0
 40
0.25
 40
0.25
 40
0.25
 40
0.25
 40
0.5
 40
0.5
 40
0.5
 40
0.5
 40
1.0
 40
1.0
 40
1.0
 40
1.0
 10
46.326
 20
121.8259
 30
0.0
 10
46.326
 20
121.8259
 30
0.0
 10
27.2673
 20
121.778
 30
0.0
 10
27.2673
 20
121.778
 30
0.0
 10
27.2673
 20
121.778
 30
0.0
 10
27.2673
 20
121.778
 30
0.0
 10
27.2673
 20
104.2278
 30
0.0
 10
27.2673
 20
104.2278
 30
0.0
 10
27.2673
 20
104.2278
 30
0.0
 10
38.1905
 20
105.829
 30
0.0
 10
44.4411
 20
112.997
 30
0.0
 10
46.326
 20
121.8259
 30
0.0
  0
SPLINE
  5
65
330
1F
100
AcDbEntity
  8
layer 1
 62
     7
100
AcDbSpline
210
0.0
220
0.0
230
1.0
 70
    11
 71
     3
 72
    16
 73
    12
 74
     0
 42
0.0000000001
 43
0.0000000001
 12
1.0
 22
0.0
 32
0.0
 13
1.0
 23
0.0
 33
0.0
 40
0.0
 40
0.0
 40
0.0
 40
0.0
 40
0.25
 40
0.25
 40
0.25
 40
0.25
 40
0.5
 40
0.5
 40
0.5
 40
0.5
 40
1.0
 40
1.0
 40
1.0
 40
1.0
 10
185.8262
 20
121.6192
 30
0.0
 10
185.8262
 20
121.6192
 30
0.0
 10
181.8171
 20
121.6192
 30
0.0
 10
181.8171
 20
121.6192
 30
0.0
 10
181.8171
 20
121.6192
 30
0.0
 10
180.8935
 20
117.389
 30
0.0
 10
179.4243
 20
107.1467
 30
0.0
 10
186.0465
 20
105.5242
 30
0.0
 10
186.0465
 20
105.5242
 30
0.0
 10
186.0465
 20
105.5242
 30
0.0
 10
185.8262
 20
121.6192
 30
0.0
 10
185.8262
 20
121.6192
 30
0.0
  0
SPLINE
  5
66
330
1F
100
AcDbEntity
  8
layer 1
 62
     7
100
AcDbSpline
210
0.0
220
0.0
230
1.0
 70
    11
 71
     3
 72
    20
 73
    16
 74
     0
 42
0.0000000001
 43
0.0000000001
 12
1.0
 22
0.0
 32
0.0
 13
1.0
 23
0.0
 33
0.0
 40
0.0
 40
0.0
 40
0.0
 40
0.0
 40
0.2
 40
0.2
 40
0.2
 40
0.2
 40
0.4
 40
0.4
 40
0.4
 40
0.4
 40
0.6
 40
0.6
 40
0.6
 40
0.6
 40
1.0
 40
1.0
 40
1.0
 40
1.0
 10
176.5703
 20
114.7897
 30
0.0
 10
177.1878
 20
117.4062
 30
0.0
 10
177.228
 20
119.3268
 30
0.0
 10
177.5976
 20
121.7779
 30
0.0
 10
177.5976
 20
121.7779
 30
0.0
 10
177.5976
 20
121.7779
 30
0.0
 10
127.0081
 20
121.6742
 30
0.0
 10
127.0081
 20
121.6742
 30
0.0
 10
127.0081
 20
121.6742
 30
0.0
 10
130.7041
 20
117.4145
 30
0.0
 10
132.7469
 20
114.0881
 30
0.0
 10
133.5691
 20
105.6866
 30
0.0
 10
133.5691
 20
105.6866
 30
0.0
 10
144.8707
 20
119.3905
 30
0.0
 10
165.2808
 20
125.4741
 30
0.0
 10
176.5703
 20
114.7897
 30
0.0
  0
ENDSEC
  0
SECTION
  2
OBJECTS
  0
DICTIONARY
  5
C
330
0
100
AcDbDictionary
281
     1
  3
ACAD_GROUP
350
D
  3
ACAD_LAYOUT
350
1A
  3
ACAD_MATERIAL
350
3B
  3
ACAD_MLEADERSTYLE
350
88
  3
ACAD_MLINESTYLE
350
17
  3
ACAD_PLOTSETTINGS
350
19
  3
ACAD_PLOTSTYLENAME
350
E
  3
ACAD_TABLESTYLE
350
87
  3
ACAD_VISUALSTYLE
350
2A
  0
DICTIONARY
  5
D
102
{ACAD_REACTORS
330
C
102
}
330
C
100
AcDbDictionary
281
     1
  0
DICTIONARY
  5
1A
102
{ACAD_REACTORS
330
C
102
}
330
C
100
AcDbDictionary
281
     1
  3
Layout1
350
1E
  3
Layout2
350
26
  3
Model
350
22
  0
DICTIONARY
  5
3B
102
{ACAD_REACTORS
330
C
102
}
330
C
100
AcDbDictionary
281
     1
  3
ByBlock
350
3D
  3
ByLayer
350
3C
  3
Global
350
3E
  0
DICTIONARY
  5
88
102
{ACAD_REACTORS
330
C
102
}
330
C
100
AcDbDictionary
281
     1
  0
DICTIONARY
  5
17
102
{ACAD_REACTORS
330
C
102
}
330
C
100
AcDbDictionary
281
     1
  3
Standard
350
18
  0
DICTIONARY
  5
19
102
{ACAD_REACTORS
330
C
102
}
330
C
100
AcDbDictionary
281
     1
  0
ACDBDICTIONARYWDFLT
  5
E
102
{ACAD_REACTORS
330
C
102
}
330
C
100
AcDbDictionary
281
     1
  3
Normal
350
F
100
AcDbDictionaryWithDefault
340
F
  0
DICTIONARY
  5
87
102
{ACAD_REACTORS
330
C
102
}
330
C
100
AcDbDictionary
281
     1
  0
DICTIONARY
  5
2A
102
{ACAD_REACTORS
330
C
102
}
330
C
100
AcDbDictionary
281
     1
  3
2dWireframe
350
2F
  3
3D Hidden
350
31
  3
3dWireframe
350
30
  3
Basic
350
32
  3
Brighten
350
36
  3
ColorChange
350
3A
  3
Conceptual
350
34
  3
Dim
350
35
  3
Facepattern
350
39
  3
Flat
350
2B
  3
FlatWithEdges
350
2C
  3
Gouraud
350
2D
  3
GouraudWithEdges
350
2E
  3
Linepattern
350
38
  3
Realistic
350
33
  3
Thicken
350
37
  0
LAYOUT
  5
1E
102
{ACAD_REACTORS
330
1A
102
}
330
1A
100
AcDbPlotSettings
  1

  2
none_device
  4

  6

 40
0.0
 41
0.0
 42
0.0
 43
0.0
 44
0.0
 45
0.0
 46
0.0
 47
0.0
 48
0.0
 49
0.0
140
0.0
141
0.0
142
1.0
143
1.0
 70
   688
 72
     0
 73
     0
 74
     5
  7

 75
    16
 76
     0
 77
     2
 78
   300
147
1.0
148
0.0
149
0.0
100
AcDbLayout
  1
Layout1
 70
     1
 71
     1
 10
0.0
 20
0.0
 11
12.0
 21
9.0
 12
0.0
 22
0.0
 32
0.0
 14
1.000000000000000E+20
 24
1.000000000000000E+20
 34
1.000000000000000E+20
 15
-1.000000000000000E+20
 25
-1.000000000000000E+20
 35
-1.000000000000000E+20
146
0.0
 13
0.0
 23
0.0
 33
0.0
 16
1.0
 26
0.0
 36
0.0
 17
0.0
 27
1.0
 37
0.0
 76
     0
330
1B
  0
LAYOUT
  5
26
102
{ACAD_REACTORS
330
1A
102
}
330
1A
100
AcDbPlotSettings
  1

  2
none_device
  4

  6

 40
0.0
 41
0.0
 42
0.0
 43
0.0
 44
0.0
 45
0.0
 46
0.0
 47
0.0
 48
0.0
 49
0.0
140
0.0
141
0.0
142
1.0
143
1.0
 70
   688
 72
     0
 73
     0
 74
     5
  7

 75
    16
 76
     0
 77
     2
 78
   300
147
1.0
148
0.0
149
0.0
100
AcDbLayout
  1
Layout2
 70
     1
 71
     2
 10
0.0
 20
0.0
 11
0.0
 21
0.0
 12
0.0
 22
0.0
 32
0.0
 14
0.0
 24
0.0
 34
0.0
 15
0.0
 25
0.0
 35
0.0
146
0.0
 13
0.0
 23
0.0
 33
0.0
 16
1.0
 26
0.0
 36
0.0
 17
0.0
 27
1.0
 37
0.0
 76
     0
330
23
  0
LAYOUT
  5
22
102
{ACAD_REACTORS
330
1A
102
}
330
1A
100
AcDbPlotSettings
  1

  2
none_device
  4

  6

 40
0.0
 41
0.0
 42
0.0
 43
0.0
 44
0.0
 45
0.0
 46
0.0
 47
0.0
 48
0.0
 49
0.0
140
0.0
141
0.0
142
1.0
143
1.0
 70
  1712
 72
     0
 73
     0
 74
     0
  7

 75
     0
 76
     0
 77
     2
 78
   300
147
1.0
148
0.0
149
0.0
100
AcDbLayout
  1
Model
 70
     1
 71
     0
 10
0.0
 20
0.0
 11
12.0
 21
9.0
 12
0.0
 22
0.0
 32
0.0
 14
17.0634
 24
-114.8446
 34
0.0
 15
196.2159
 25
131.9665
 35
0.0
146
0.0
 13
0.0
 23
0.0
 33
0.0
 16
1.0
 26
0.0
 36
0.0
 17
0.0
 27
1.0
 37
0.0
 76
     0
330
1F
331
29
  0
MATERIAL
  5
3D
102
{ACAD_REACTORS
330
3B
102
}
330
3B
100
AcDbMaterial
  1
ByBlock
 72
     1
 94
      127
  0
MATERIAL
  5
3C
102
{ACAD_REACTORS
330
3B
102
}
330
3B
100
AcDbMaterial
  1
ByLayer
 72
     1
 94
      127
  0
MATERIAL
  5
3E
102
{ACAD_REACTORS
330
3B
102
}
330
3B
100
AcDbMaterial
  1
Global
 72
     1
 94
      127
  0
MLINESTYLE
  5
18
102
{ACAD_REACTORS
330
17
102
}
330
17
100
AcDbMlineStyle
  2
Standard
 70
     0
  3

 62
   256
 51
90.0
 52
90.0
 71
     2
 49
0.5
 62
   256
  6
BYLAYER
 49
-0.5
 62
   256
  6
BYLAYER
  0
ACDBPLACEHOLDER
  5
F
102
{ACAD_REACTORS
330
E
102
}
330
E
  0
VISUALSTYLE
  5
2F
102
{ACAD_REACTORS
330
2A
102
}
102
{ACAD_XDICTIONARY
360
6F
102
}
330
2A
100
AcDbVisualStyle
  2
2dWireframe
 70
     4
 71
     0
 72
     2
 73
     0
 90
        0
 40
-0.6
 41
-30.0
 62
     5
 63
     7
421
 16777215
 74
     1
 91
        4
 64
     7
 65
   257
 75
     1
175
     1
 42
1.0
 92
        0
 66
   257
 43
1.0
 76
     1
 77
     6
 78
     2
 67
     7
 79
     5
170
     0
171
     0
290
     0
174
     0
 93
        1
 44
0.0
173
     0
291
     0
 45
0.0
  0
VISUALSTYLE
  5
31
102
{ACAD_REACTORS
330
2A
102
}
102
{ACAD_XDICTIONARY
360
73
102
}
330
2A
100
AcDbVisualStyle
  2
3D Hidden
 70
     6
 71
     1
 72
     2
 73
     2
 90
        0
 40
-0.6
 41
-30.0
 62
     5
 63
     7
421
 16777215
 74
     2
 91
        2
 64
     7
 65
   257
 75
     2
175
     1
 42
40.0
 92
        0
 66
   257
 43
1.0
 76
     1
 77
     6
 78
     2
 67
     7
 79
     3
170
     0
171
     0
290
     0
174
     0
 93
        1
 44
0.0
173
     0
291
     0
 45
0.0
  0
VISUALSTYLE
  5
30
102
{ACAD_REACTORS
330
2A
102
}
102
{ACAD_XDICTIONARY
360
71
102
}
330
2A
100
AcDbVisualStyle
  2
3dWireframe
 70
     5
 71
     0
 72
     2
 73
     0
 90
        0
 40
-0.6
 41
-30.0
 62
     5
 63
     7
421
 16777215
 74
     1
 91
        4
 64
     7
 65
   257
 75
     1
175
     1
 42
1.0
 92
        0
 66
   257
 43
1.0
 76
     1
 77
     6
 78
     2
 67
     7
 79
     5
170
     0
171
     0
290
     0
174
     0
 93
        1
 44
0.0
173
     0
291
     0
 45
0.0
  0
VISUALSTYLE
  5
32
102
{ACAD_REACTORS
330
2A
102
}
102
{ACAD_XDICTIONARY
360
75
102
}
330
2A
100
AcDbVisualStyle
  2
Basic
 70
     7
 71
     1
 72
     0
 73
     1
 90
        0
 40
-0.6
 41
-30.0
 62
     5
 63
     7
421
 16777215
 74
     0
 91
        4
 64
     7
 65
   257
 75
     1
175
     1
 42
1.0
 92
        8
 66
     7
 43
1.0
 76
     1
 77
     6
 78
     2
 67
     7
 79
     5
170
     0
171
     0
290
     0
174
     0
 93
        1
 44
0.0
173
     0
291
     1
 45
0.0
  0
VISUALSTYLE
  5
36
102
{ACAD_REACTORS
330
2A
102
}
102
{ACAD_XDICTIONARY
360
7D
102
}
330
2A
100
AcDbVisualStyle
  2
Brighten
 70
    12
 71
     2
 72
     2
 73
     0
 90
        0
 40
-0.6
 41
-30.0
 62
     5
 63
     7
421
 16777215
 74
     1
 91
        4
 64
     7
 65
   257
 75
     1
175
     1
 42
1.0
 92
        8
 66
     7
 43
1.0
 76
     1
 77
     6
 78
     2
 67
     7
 79
     5
170
     0
171
     0
290
     0
174
     0
 93
        1
 44
50.0
173
     0
291
     1
 45
0.0
  0
VISUALSTYLE
  5
3A
102
{ACAD_REACTORS
330
2A
102
}
102
{ACAD_XDICTIONARY
360
85
102
}
330
2A
100
AcDbVisualStyle
  2
ColorChange
 70
    16
 71
     2
 72
     2
 73
     3
 90
        0
 40
-0.6
 41
-30.0
 62
     5
 63
     8
421
  8421504
 74
     1
 91
        4
 64
     7
 65
   257
 75
     1
175
     1
 42
1.0
 92
        8
 66
     8
424
  8421504
 43
1.0
 76
     1
 77
     6
 78
     2
 67
     7
 79
     5
170
     0
171
     0
290
     0
174
     0
 93
        1
 44
0.0
173
     0
291
     1
 45
0.0
  0
VISUALSTYLE
  5
34
102
{ACAD_REACTORS
330
2A
102
}
102
{ACAD_XDICTIONARY
360
79
102
}
330
2A
100
AcDbVisualStyle
  2
Conceptual
 70
     9
 71
     3
 72
     2
 73
     0
 90
        0
 40
-0.6
 41
-30.0
 62
     5
 63
     7
421
 16777215
 74
     2
 91
        2
 64
     7
 65
   257
 75
     1
175
     1
 42
40.0
 92
        8
 66
     7
 43
1.0
 76
     1
 77
     6
 78
     2
 67
     7
 79
     3
170
     0
171
     0
290
     0
174
     0
 93
        1
 44
0.0
173
     0
291
     0
 45
0.0
  0
VISUALSTYLE
  5
35
102
{ACAD_REACTORS
330
2A
102
}
102
{ACAD_XDICTIONARY
360
7B
102
}
330
2A
100
AcDbVisualStyle
  2
Dim
 70
    11
 71
     2
 72
     2
 73
     0
 90
        0
 40
-0.6
 41
-30.0
 62
     5
 63
     7
421
 16777215
 74
     1
 91
        4
 64
     7
 65
   257
 75
     1
175
     1
 42
1.0
 92
        8
 66
     7
 43
1.0
 76
     1
 77
     6
 78
     2
 67
     7
 79
     5
170
     0
171
     0
290
     0
174
     0
 93
        1
 44
-50.0
173
     0
291
     1
 45
0.0
  0
VISUALSTYLE
  5
39
102
{ACAD_REACTORS
330
2A
102
}
102
{ACAD_XDICTIONARY
360
83
102
}
330
2A
100
AcDbVisualStyle
  2
Facepattern
 70
    15
 71
     2
 72
     2
 73
     0
 90
        0
 40
-0.6
 41
-30.0
 62
     5
 63
     7
421
 16777215
 74
     1
 91
        4
 64
     7
 65
   257
 75
     1
175
     1
 42
1.0
 92
        8
 66
     7
 43
1.0
 76
     1
 77
     6
 78
     2
 67
     7
 79
     5
170
     0
171
     0
290
     0
174
     0
 93
        1
 44
0.0
173
     0
291
     1
 45
0.0
  0
VISUALSTYLE
  5
2B
102
{ACAD_REACTORS
330
2A
102
}
102
{ACAD_XDICTIONARY
360
67
102
}
330
2A
100
AcDbVisualStyle
  2
Flat
 70
     0
 71
     2
 72
     1
 73
     1
 90
        2
 40
-0.6
 41
30.0
 62
     5
 63
     7
421
 16777215
 74
     0
 91
        4
 64
     7
 65
   257
 75
     1
175
     1
 42
1.0
 92
        8
 66
     7
 43
1.0
 76
     1
 77
     6
 78
     2
 67
     7
 79
     5
170
     0
171
     0
290
     0
174
     0
 93
       13
 44
0.0
173
     0
291
     1
 45
0.0
  0
VISUALSTYLE
  5
2C
102
{ACAD_REACTORS
330
2A
102
}
102
{ACAD_XDICTIONARY
360
69
102
}
330
2A
100
AcDbVisualStyle
  2
FlatWithEdges
 70
     1
 71
     2
 72
     1
 73
     1
 90
        2
 40
-0.6
 41
30.0
 62
     5
 63
     7
421
 16777215
 74
     1
 91
        4
 64
     7
 65
   257
 75
     1
175
     1
 42
1.0
 92
        0
 66
   257
 43
1.0
 76
     1
 77
     6
 78
     2
 67
     7
 79
     5
170
     0
171
     0
290
     0
174
     0
 93
       13
 44
0.0
173
     0
291
     1
 45
0.0
  0
VISUALSTYLE
  5
2D
102
{ACAD_REACTORS
330
2A
102
}
102
{ACAD_XDICTIONARY
360
6B
102
}
330
2A
100
AcDbVisualStyle
  2
Gouraud
 70
     2
 71
     2
 72
     2
 73
     1
 90
        2
 40
-0.6
 41
30.0
 62
     5
 63
     7
421
 16777215
 74
     0
 91
        4
 64
     7
 65
   257
 75
     1
175
     1
 42
1.0
 92
        0
 66
     7
 43
1.0
 76
     1
 77
     6
 78
     2
 67
     7
 79
     5
170
     0
171
     0
290
     0
174
     0
 93
       13
 44
0.0
173
     0
291
     1
 45
0.0
  0
VISUALSTYLE
  5
2E
102
{ACAD_REACTORS
330
2A
102
}
102
{ACAD_XDICTIONARY
360
6D
102
}
330
2A
100
AcDbVisualStyle
  2
GouraudWithEdges
 70
     3
 71
     2
 72
     2
 73
     1
 90
        2
 40
-0.6
 41
30.0
 62
     5
 63
     7
421
 16777215
 74
     1
 91
        4
 64
     7
 65
   257
 75
     1
175
     1
 42
1.0
 92
        0
 66
   257
 43
1.0
 76
     1
 77
     6
 78
     2
 67
     7
 79
     5
170
     0
171
     0
290
     0
174
     0
 93
       13
 44
0.0
173
     0
291
     1
 45
0.0
  0
VISUALSTYLE
  5
38
102
{ACAD_REACTORS
330
2A
102
}
102
{ACAD_XDICTIONARY
360
81
102
}
330
2A
100
AcDbVisualStyle
  2
Linepattern
 70
    14
 71
     2
 72
     2
 73
     0
 90
        0
 40
-0.6
 41
-30.0
 62
     5
 63
     7
421
 16777215
 74
     1
 91
        4
 64
     7
 65
   257
 75
     7
175
     7
 42
1.0
 92
        8
 66
     7
 43
1.0
 76
     1
 77
     6
 78
     2
 67
     7
 79
     5
170
     0
171
     0
290
     0
174
     0
 93
        1
 44
0.0
173
     0
291
     1
 45
0.0
  0
VISUALSTYLE
  5
33
102
{ACAD_REACTORS
330
2A
102
}
102
{ACAD_XDICTIONARY
360
77
102
}
330
2A
100
AcDbVisualStyle
  2
Realistic
 70
     8
 71
     2
 72
     2
 73
     0
 90
        0
 40
-0.6
 41
-30.0
 62
     5
 63
     7
421
 16777215
 74
     1
 91
        0
 64
     7
 65
   257
 75
     1
175
     1
 42
1.0
 92
        8
 66
     8
424
  7895160
 43
1.0
 76
     1
 77
     6
 78
     2
 67
     7
 79
     5
170
     0
171
     0
290
     0
174
     0
 93
       13
 44
0.0
173
     0
291
     0
 45
0.0
  0
VISUALSTYLE
  5
37
102
{ACAD_REACTORS
330
2A
102
}
102
{ACAD_XDICTIONARY
360
7F
102
}
330
2A
100
AcDbVisualStyle
  2
Thicken
 70
    13
 71
     2
 72
     2
 73
     0
 90
        0
 40
-0.6
 41
-30.0
 62
     5
 63
     7
421
 16777215
 74
     1
 91
        4
 64
     7
 65
   257
 75
     1
175
     1
 42
1.0
 92
       12
 66
     7
 43
1.0
 76
     1
 77
     6
 78
     2
 67
     7
 79
     5
170
     0
171
     0
290
     0
174
     0
 93
        1
 44
0.0
173
     0
291
     1
 45
0.0
  0
DICTIONARY
  5
6F
330
2F
100
AcDbDictionary
280
     1
281
     1
  3
ACAD_XREC_ROUNDTRIP
360
70
  0
DICTIONARY
  5
73
330
31
100
AcDbDictionary
280
     1
281
     1
  3
ACAD_XREC_ROUNDTRIP
360
74
  0
DICTIONARY
  5
71
330
30
100
AcDbDictionary
280
     1
281
     1
  3
ACAD_XREC_ROUNDTRIP
360
72
  0
DICTIONARY
  5
75
330
32
100
AcDbDictionary
280
     1
281
     1
  3
ACAD_XREC_ROUNDTRIP
360
76
  0
DICTIONARY
  5
7D
330
36
100
AcDbDictionary
280
     1
281
     1
  3
ACAD_XREC_ROUNDTRIP
360
7E
  0
DICTIONARY
  5
85
330
3A
100
AcDbDictionary
280
     1
281
     1
  3
ACAD_XREC_ROUNDTRIP
360
86
  0
DICTIONARY
  5
79
330
34
100
AcDbDictionary
280
     1
281
     1
  3
ACAD_XREC_ROUNDTRIP
360
7A
  0
DICTIONARY
  5
7B
330
35
100
AcDbDictionary
280
     1
281
     1
  3
ACAD_XREC_ROUNDTRIP
360
7C
  0
DICTIONARY
  5
83
330
39
100
AcDbDictionary
280
     1
281
     1
  3
ACAD_XREC_ROUNDTRIP
360
84
  0
DICTIONARY
  5
67
330
2B
100
AcDbDictionary
280
     1
281
     1
  3
ACAD_XREC_ROUNDTRIP
360
68
  0
DICTIONARY
  5
69
330
2C
100
AcDbDictionary
280
     1
281
     1
  3
ACAD_XREC_ROUNDTRIP
360
6A
  0
DICTIONARY
  5
6B
330
2D
100
AcDbDictionary
280
     1
281
     1
  3
ACAD_XREC_ROUNDTRIP
360
6C
  0
DICTIONARY
  5
6D
330
2E
100
AcDbDictionary
280
     1
281
     1
  3
ACAD_XREC_ROUNDTRIP
360
6E
  0
DICTIONARY
  5
81
330
38
100
AcDbDictionary
280
     1
281
     1
  3
ACAD_XREC_ROUNDTRIP
360
82
  0
DICTIONARY
  5
77
330
33
100
AcDbDictionary
280
     1
281
     1
  3
ACAD_XREC_ROUNDTRIP
360
78
  0
DICTIONARY
  5
7F
330
37
100
AcDbDictionary
280
     1
281
     1
  3
ACAD_XREC_ROUNDTRIP
360
80
  0
XRECORD
  5
70
102
{ACAD_REACTORS
330
6F
102
}
330
6F
100
AcDbXrecord
280
     1
102
RTVSPropertyOp0
 70
     1
102
RTVSPropertyOp1
 70
     1
102
RTVSPropertyOp2
 70
     1
102
RTVSPropertyOp3
 70
     1
102
RTVSPropertyOp4
 70
     1
102
RTVSPropertyOp5
 70
     1
102
RTVSPropertyOp6
 70
     1
102
RTVSPropertyOp7
 70
     1
102
RTVSPropertyOp8
 70
     1
102
RTVSPropertyOp9
 70
     1
102
RTVSPropertyOp10
 70
     1
102
RTVSPropertyOp11
 70
     1
102
RTVSPropertyOp12
 70
     1
102
RTVSPropertyOp13
 70
     1
102
RTVSPropertyOp14
 70
     1
102
RTVSPropertyOp15
 70
     1
102
RTVSPropertyOp16
 70
     1
102
RTVSPropertyOp17
 70
     1
102
RTVSPropertyOp18
 70
     1
102
RTVSPropertyOp19
 70
     1
102
RTVSPropertyOp20
 70
     1
102
RTVSPropertyOp21
 70
     1
102
RTVSPropertyOp22
 70
     1
102
RTVSPropertyOp23
 70
     1
102
RTVSPropertyOp24
 70
     1
102
RTVSPropertyOp25
 70
     1
102
RTVSPropertyOp26
 70
     1
102
RTVSPropertyOp27
 70
     1
102
RTVSPropertyOp28
 70
     1
102
RTVSPropertyOp29
 70
     1
102
RTVSPropertyOp30
 70
     1
102
RTVSPropertyOp31
 70
     1
102
RTVSPropertyOp32
 70
     1
  0
XRECORD
  5
74
102
{ACAD_REACTORS
330
73
102
}
330
73
100
AcDbXrecord
280
     1
102
RTVSPropertyOp0
 70
     1
102
RTVSPropertyOp1
 70
     1
102
RTVSPropertyOp2
 70
     1
102
RTVSPropertyOp3
 70
     1
102
RTVSPropertyOp4
 70
     1
102
RTVSPropertyOp5
 70
     1
102
RTVSPropertyOp6
 70
     1
102
RTVSPropertyOp7
 70
     1
102
RTVSPropertyOp8
 70
     1
102
RTVSPropertyOp9
 70
     1
102
RTVSPropertyOp10
 70
     1
102
RTVSPropertyOp11
 70
     1
102
RTVSPropertyOp12
 70
     1
102
RTVSPropertyOp13
 70
     1
102
RTVSPropertyOp14
 70
     1
102
RTVSPropertyOp15
 70
     1
102
RTVSPropertyOp16
 70
     1
102
RTVSPropertyOp17
 70
     1
102
RTVSPropertyOp18
 70
     1
102
RTVSPropertyOp19
 70
     1
102
RTVSPropertyOp20
 70
     1
102
RTVSPropertyOp21
 70
     1
102
RTVSPropertyOp22
 70
     1
102
RTVSPropertyOp23
 70
     1
102
RTVSPropertyOp24
 70
     1
102
RTVSPropertyOp25
 70
     1
102
RTVSPropertyOp26
 70
     1
102
RTVSPropertyOp27
 70
     1
102
RTVSPropertyOp28
 70
     1
102
RTVSPropertyOp29
 70
     1
102
RTVSPropertyOp30
 70
     1
102
RTVSPropertyOp31
 70
     1
102
RTVSPropertyOp32
 70
     1
  0
XRECORD
  5
72
102
{ACAD_REACTORS
330
71
102
}
330
71
100
AcDbXrecord
280
     1
102
RTVSPropertyOp0
 70
     1
102
RTVSPropertyOp1
 70
     1
102
RTVSPropertyOp2
 70
     1
102
RTVSPropertyOp3
 70
     1
102
RTVSPropertyOp4
 70
     1
102
RTVSPropertyOp5
 70
     1
102
RTVSPropertyOp6
 70
     1
102
RTVSPropertyOp7
 70
     1
102
RTVSPropertyOp8
 70
     1
102
RTVSPropertyOp9
 70
     1
102
RTVSPropertyOp10
 70
     1
102
RTVSPropertyOp11
 70
     1
102
RTVSPropertyOp12
 70
     1
102
RTVSPropertyOp13
 70
     1
102
RTVSPropertyOp14
 70
     1
102
RTVSPropertyOp15
 70
     1
102
RTVSPropertyOp16
 70
     1
102
RTVSPropertyOp17
 70
     1
102
RTVSPropertyOp18
 70
     1
102
RTVSPropertyOp19
 70
     1
102
RTVSPropertyOp20
 70
     1
102
RTVSPropertyOp21
 70
     1
102
RTVSPropertyOp22
 70
     1
102
RTVSPropertyOp23
 70
     1
102
RTVSPropertyOp24
 70
     1
102
RTVSPropertyOp25
 70
     1
102
RTVSPropertyOp26
 70
     1
102
RTVSPropertyOp27
 70
     1
102
RTVSPropertyOp28
 70
     1
102
RTVSPropertyOp29
 70
     1
102
RTVSPropertyOp30
 70
     1
102
RTVSPropertyOp31
 70
     1
102
RTVSPropertyOp32
 70
     1
  0
XRECORD
  5
76
102
{ACAD_REACTORS
330
75
102
}
330
75
100
AcDbXrecord
280
     1
102
RTVSPropertyOp0
 70
     1
102
RTVSPropertyOp1
 70
     1
102
RTVSPropertyOp2
 70
     1
102
RTVSPropertyOp3
 70
     1
102
RTVSPropertyOp4
 70
     1
102
RTVSPropertyOp5
 70
     1
102
RTVSPropertyOp6
 70
     1
102
RTVSPropertyOp7
 70
     1
102
RTVSPropertyOp8
 70
     1
102
RTVSPropertyOp9
 70
     1
102
RTVSPropertyOp10
 70
     1
102
RTVSPropertyOp11
 70
     1
102
RTVSPropertyOp12
 70
     1
102
RTVSPropertyOp13
 70
     1
102
RTVSPropertyOp14
 70
     1
102
RTVSPropertyOp15
 70
     1
102
RTVSPropertyOp16
 70
     1
102
RTVSPropertyOp17
 70
     1
102
RTVSPropertyOp18
 70
     1
102
RTVSPropertyOp19
 70
     1
102
RTVSPropertyOp20
 70
     1
102
RTVSPropertyOp21
 70
     1
102
RTVSPropertyOp22
 70
     1
102
RTVSPropertyOp23
 70
     1
102
RTVSPropertyOp24
 70
     1
102
RTVSPropertyOp25
 70
     1
102
RTVSPropertyOp26
 70
     1
102
RTVSPropertyOp27
 70
     1
102
RTVSPropertyOp28
 70
     1
102
RTVSPropertyOp29
 70
     1
102
RTVSPropertyOp30
 70
     1
102
RTVSPropertyOp31
 70
     1
102
RTVSPropertyOp32
 70
     1
  0
XRECORD
  5
7E
102
{ACAD_REACTORS
330
7D
102
}
330
7D
100
AcDbXrecord
280
     1
102
RTVSPropertyOp0
 70
     1
102
RTVSPropertyOp1
 70
     1
102
RTVSPropertyOp2
 70
     1
102
RTVSPropertyOp3
 70
     1
102
RTVSPropertyOp4
 70
     1
102
RTVSPropertyOp5
 70
     1
102
RTVSPropertyOp6
 70
     1
102
RTVSPropertyOp7
 70
     1
102
RTVSPropertyOp8
 70
     1
102
RTVSPropertyOp9
 70
     1
102
RTVSPropertyOp10
 70
     1
102
RTVSPropertyOp11
 70
     1
102
RTVSPropertyOp12
 70
     1
102
RTVSPropertyOp13
 70
     1
102
RTVSPropertyOp14
 70
     1
102
RTVSPropertyOp15
 70
     1
102
RTVSPropertyOp16
 70
     1
102
RTVSPropertyOp17
 70
     1
102
RTVSPropertyOp18
 70
     1
102
RTVSPropertyOp19
 70
     1
102
RTVSPropertyOp20
 70
     1
102
RTVSPropertyOp21
 70
     1
102
RTVSPropertyOp22
 70
     1
102
RTVSPropertyOp23
 70
     1
102
RTVSPropertyOp24
 70
     1
102
RTVSPropertyOp25
 70
     1
102
RTVSPropertyOp26
 70
     1
102
RTVSPropertyOp27
 70
     1
102
RTVSPropertyOp28
 70
     1
102
RTVSPropertyOp29
 70
     1
102
RTVSPropertyOp30
 70
     1
102
RTVSPropertyOp31
 70
     1
102
RTVSPropertyOp32
 70
     1
  0
XRECORD
  5
86
102
{ACAD_REACTORS
330
85
102
}
330
85
100
AcDbXrecord
280
     1
102
RTVSPropertyOp0
 70
     1
102
RTVSPropertyOp1
 70
     1
102
RTVSPropertyOp2
 70
     1
102
RTVSPropertyOp3
 70
     1
102
RTVSPropertyOp4
 70
     1
102
RTVSPropertyOp5
 70
     1
102
RTVSPropertyOp6
 70
     1
102
RTVSPropertyOp7
 70
     1
102
RTVSPropertyOp8
 70
     1
102
RTVSPropertyOp9
 70
     1
102
RTVSPropertyOp10
 70
     1
102
RTVSPropertyOp11
 70
     1
102
RTVSPropertyOp12
 70
     1
102
RTVSPropertyOp13
 70
     1
102
RTVSPropertyOp14
 70
     1
102
RTVSPropertyOp15
 70
     1
102
RTVSPropertyOp16
 70
     1
102
RTVSPropertyOp17
 70
     1
102
RTVSPropertyOp18
 70
     1
102
RTVSPropertyOp19
 70
     1
102
RTVSPropertyOp20
 70
     1
102
RTVSPropertyOp21
 70
     1
102
RTVSPropertyOp22
 70
     1
102
RTVSPropertyOp23
 70
     1
102
RTVSPropertyOp24
 70
     1
102
RTVSPropertyOp25
 70
     1
102
RTVSPropertyOp26
 70
     1
102
RTVSPropertyOp27
 70
     1
102
RTVSPropertyOp28
 70
     1
102
RTVSPropertyOp29
 70
     1
102
RTVSPropertyOp30
 70
     1
102
RTVSPropertyOp31
 70
     1
102
RTVSPropertyOp32
 70
     1
  0
XRECORD
  5
7A
102
{ACAD_REACTORS
330
79
102
}
330
79
100
AcDbXrecord
280
     1
102
RTVSPropertyOp0
 70
     1
102
RTVSPropertyOp1
 70
     1
102
RTVSPropertyOp2
 70
     1
102
RTVSPropertyOp3
 70
     1
102
RTVSPropertyOp4
 70
     1
102
RTVSPropertyOp5
 70
     1
102
RTVSPropertyOp6
 70
     1
102
RTVSPropertyOp7
 70
     1
102
RTVSPropertyOp8
 70
     1
102
RTVSPropertyOp9
 70
     1
102
RTVSPropertyOp10
 70
     1
102
RTVSPropertyOp11
 70
     1
102
RTVSPropertyOp12
 70
     1
102
RTVSPropertyOp13
 70
     1
102
RTVSPropertyOp14
 70
     1
102
RTVSPropertyOp15
 70
     1
102
RTVSPropertyOp16
 70
     1
102
RTVSPropertyOp17
 70
     1
102
RTVSPropertyOp18
 70
     1
102
RTVSPropertyOp19
 70
     1
102
RTVSPropertyOp20
 70
     1
102
RTVSPropertyOp21
 70
     1
102
RTVSPropertyOp22
 70
     1
102
RTVSPropertyOp23
 70
     1
102
RTVSPropertyOp24
 70
     1
102
RTVSPropertyOp25
 70
     1
102
RTVSPropertyOp26
 70
     1
102
RTVSPropertyOp27
 70
     1
102
RTVSPropertyOp28
 70
     1
102
RTVSPropertyOp29
 70
     1
102
RTVSPropertyOp30
 70
     1
102
RTVSPropertyOp31
 70
     1
102
RTVSPropertyOp32
 70
     1
  0
XRECORD
  5
7C
102
{ACAD_REACTORS
330
7B
102
}
330
7B
100
AcDbXrecord
280
     1
102
RTVSPropertyOp0
 70
     1
102
RTVSPropertyOp1
 70
     1
102
RTVSPropertyOp2
 70
     1
102
RTVSPropertyOp3
 70
     1
102
RTVSPropertyOp4
 70
     1
102
RTVSPropertyOp5
 70
     1
102
RTVSPropertyOp6
 70
     1
102
RTVSPropertyOp7
 70
     1
102
RTVSPropertyOp8
 70
     1
102
RTVSPropertyOp9
 70
     1
102
RTVSPropertyOp10
 70
     1
102
RTVSPropertyOp11
 70
     1
102
RTVSPropertyOp12
 70
     1
102
RTVSPropertyOp13
 70
     1
102
RTVSPropertyOp14
 70
     1
102
RTVSPropertyOp15
 70
     1
102
RTVSPropertyOp16
 70
     1
102
RTVSPropertyOp17
 70
     1
102
RTVSPropertyOp18
 70
     1
102
RTVSPropertyOp19
 70
     1
102
RTVSPropertyOp20
 70
     1
102
RTVSPropertyOp21
 70
     1
102
RTVSPropertyOp22
 70
     1
102
RTVSPropertyOp23
 70
     1
102
RTVSPropertyOp24
 70
     1
102
RTVSPropertyOp25
 70
     1
102
RTVSPropertyOp26
 70
     1
102
RTVSPropertyOp27
 70
     1
102
RTVSPropertyOp28
 70
     1
102
RTVSPropertyOp29
 70
     1
102
RTVSPropertyOp30
 70
     1
102
RTVSPropertyOp31
 70
     1
102
RTVSPropertyOp32
 70
     1
  0
XRECORD
  5
84
102
{ACAD_REACTORS
330
83
102
}
330
83
100
AcDbXrecord
280
     1
102
RTVSPropertyOp0
 70
     1
102
RTVSPropertyOp1
 70
     1
102
RTVSPropertyOp2
 70
     1
102
RTVSPropertyOp3
 70
     1
102
RTVSPropertyOp4
 70
     1
102
RTVSPropertyOp5
 70
     1
102
RTVSPropertyOp6
 70
     1
102
RTVSPropertyOp7
 70
     1
102
RTVSPropertyOp8
 70
     1
102
RTVSPropertyOp9
 70
     1
102
RTVSPropertyOp10
 70
     1
102
RTVSPropertyOp11
 70
     1
102
RTVSPropertyOp12
 70
     1
102
RTVSPropertyOp13
 70
     1
102
RTVSPropertyOp14
 70
     1
102
RTVSPropertyOp15
 70
     1
102
RTVSPropertyOp16
 70
     1
102
RTVSPropertyOp17
 70
     1
102
RTVSPropertyOp18
 70
     1
102
RTVSPropertyOp19
 70
     1
102
RTVSPropertyOp20
 70
     1
102
RTVSPropertyOp21
 70
     1
102
RTVSPropertyOp22
 70
     1
102
RTVSPropertyOp23
 70
     1
102
RTVSPropertyOp24
 70
     1
102
RTVSPropertyOp25
 70
     1
102
RTVSPropertyOp26
 70
     1
102
RTVSPropertyOp27
 70
     1
102
RTVSPropertyOp28
 70
     1
102
RTVSPropertyOp29
 70
     1
102
RTVSPropertyOp30
 70
     1
102
RTVSPropertyOp31
 70
     1
102
RTVSPropertyOp32
 70
     1
  0
XRECORD
  5
68
102
{ACAD_REACTORS
330
67
102
}
330
67
100
AcDbXrecord
280
     1
102
RTVSPropertyOp0
 70
     1
102
RTVSPropertyOp1
 70
     1
102
RTVSPropertyOp2
 70
     1
102
RTVSPropertyOp3
 70
     1
102
RTVSPropertyOp4
 70
     1
102
RTVSPropertyOp5
 70
     1
102
RTVSPropertyOp6
 70
     1
102
RTVSPropertyOp7
 70
     1
102
RTVSPropertyOp8
 70
     1
102
RTVSPropertyOp9
 70
     1
102
RTVSPropertyOp10
 70
     1
102
RTVSPropertyOp11
 70
     1
102
RTVSPropertyOp12
 70
     1
102
RTVSPropertyOp13
 70
     1
102
RTVSPropertyOp14
 70
     1
102
RTVSPropertyOp15
 70
     1
102
RTVSPropertyOp16
 70
     1
102
RTVSPropertyOp17
 70
     1
102
RTVSPropertyOp18
 70
     1
102
RTVSPropertyOp19
 70
     1
102
RTVSPropertyOp20
 70
     1
102
RTVSPropertyOp21
 70
     1
102
RTVSPropertyOp22
 70
     1
102
RTVSPropertyOp23
 70
     1
102
RTVSPropertyOp24
 70
     1
102
RTVSPropertyOp25
 70
     1
102
RTVSPropertyOp26
 70
     1
102
RTVSPropertyOp27
 70
     1
102
RTVSPropertyOp28
 70
     1
102
RTVSPropertyOp29
 70
     1
102
RTVSPropertyOp30
 70
     1
102
RTVSPropertyOp31
 70
     1
102
RTVSPropertyOp32
 70
     1
  0
XRECORD
  5
6A
102
{ACAD_REACTORS
330
69
102
}
330
69
100
AcDbXrecord
280
     1
102
RTVSPropertyOp0
 70
     1
102
RTVSPropertyOp1
 70
     1
102
RTVSPropertyOp2
 70
     1
102
RTVSPropertyOp3
 70
     1
102
RTVSPropertyOp4
 70
     1
102
RTVSPropertyOp5
 70
     1
102
RTVSPropertyOp6
 70
     1
102
RTVSPropertyOp7
 70
     1
102
RTVSPropertyOp8
 70
     1
102
RTVSPropertyOp9
 70
     1
102
RTVSPropertyOp10
 70
     1
102
RTVSPropertyOp11
 70
     1
102
RTVSPropertyOp12
 70
     1
102
RTVSPropertyOp13
 70
     1
102
RTVSPropertyOp14
 70
     1
102
RTVSPropertyOp15
 70
     1
102
RTVSPropertyOp16
 70
     1
102
RTVSPropertyOp17
 70
     1
102
RTVSPropertyOp18
 70
     1
102
RTVSPropertyOp19
 70
     1
102
RTVSPropertyOp20
 70
     1
102
RTVSPropertyOp21
 70
     1
102
RTVSPropertyOp22
 70
     1
102
RTVSPropertyOp23
 70
     1
102
RTVSPropertyOp24
 70
     1
102
RTVSPropertyOp25
 70
     1
102
RTVSPropertyOp26
 70
     1
102
RTVSPropertyOp27
 70
     1
102
RTVSPropertyOp28
 70
     1
102
RTVSPropertyOp29
 70
     1
102
RTVSPropertyOp30
 70
     1
102
RTVSPropertyOp31
 70
     1
102
RTVSPropertyOp32
 70
     1
  0
XRECORD
  5
6C
102
{ACAD_REACTORS
330
6B
102
}
330
6B
100
AcDbXrecord
280
     1
102
RTVSPropertyOp0
 70
     1
102
RTVSPropertyOp1
 70
     1
102
RTVSPropertyOp2
 70
     1
102
RTVSPropertyOp3
 70
     1
102
RTVSPropertyOp4
 70
     1
102
RTVSPropertyOp5
 70
     1
102
RTVSPropertyOp6
 70
     1
102
RTVSPropertyOp7
 70
     1
102
RTVSPropertyOp8
 70
     1
102
RTVSPropertyOp9
 70
     1
102
RTVSPropertyOp10
 70
     1
102
RTVSPropertyOp11
 70
     1
102
RTVSPropertyOp12
 70
     1
102
RTVSPropertyOp13
 70
     1
102
RTVSPropertyOp14
 70
     1
102
RTVSPropertyOp15
 70
     1
102
RTVSPropertyOp16
 70
     1
102
RTVSPropertyOp17
 70
     1
102
RTVSPropertyOp18
 70
     1
102
RTVSPropertyOp19
 70
     1
102
RTVSPropertyOp20
 70
     1
102
RTVSPropertyOp21
 70
     1
102
RTVSPropertyOp22
 70
     1
102
RTVSPropertyOp23
 70
     1
102
RTVSPropertyOp24
 70
     1
102
RTVSPropertyOp25
 70
     1
102
RTVSPropertyOp26
 70
     1
102
RTVSPropertyOp27
 70
     1
102
RTVSPropertyOp28
 70
     1
102
RTVSPropertyOp29
 70
     1
102
RTVSPropertyOp30
 70
     1
102
RTVSPropertyOp31
 70
     1
102
RTVSPropertyOp32
 70
     1
  0
XRECORD
  5
6E
102
{ACAD_REACTORS
330
6D
102
}
330
6D
100
AcDbXrecord
280
     1
102
RTVSPropertyOp0
 70
     1
102
RTVSPropertyOp1
 70
     1
102
RTVSPropertyOp2
 70
     1
102
RTVSPropertyOp3
 70
     1
102
RTVSPropertyOp4
 70
     1
102
RTVSPropertyOp5
 70
     1
102
RTVSPropertyOp6
 70
     1
102
RTVSPropertyOp7
 70
     1
102
RTVSPropertyOp8
 70
     1
102
RTVSPropertyOp9
 70
     1
102
RTVSPropertyOp10
 70
     1
102
RTVSPropertyOp11
 70
     1
102
RTVSPropertyOp12
 70
     1
102
RTVSPropertyOp13
 70
     1
102
RTVSPropertyOp14
 70
     1
102
RTVSPropertyOp15
 70
     1
102
RTVSPropertyOp16
 70
     1
102
RTVSPropertyOp17
 70
     1
102
RTVSPropertyOp18
 70
     1
102
RTVSPropertyOp19
 70
     1
102
RTVSPropertyOp20
 70
     1
102
RTVSPropertyOp21
 70
     1
102
RTVSPropertyOp22
 70
     1
102
RTVSPropertyOp23
 70
     1
102
RTVSPropertyOp24
 70
     1
102
RTVSPropertyOp25
 70
     1
102
RTVSPropertyOp26
 70
     1
102
RTVSPropertyOp27
 70
     1
102
RTVSPropertyOp28
 70
     1
102
RTVSPropertyOp29
 70
     1
102
RTVSPropertyOp30
 70
     1
102
RTVSPropertyOp31
 70
     1
102
RTVSPropertyOp32
 70
     1
  0
XRECORD
  5
82
102
{ACAD_REACTORS
330
81
102
}
330
81
100
AcDbXrecord
280
     1
102
RTVSPropertyOp0
 70
     1
102
RTVSPropertyOp1
 70
     1
102
RTVSPropertyOp2
 70
     1
102
RTVSPropertyOp3
 70
     1
102
RTVSPropertyOp4
 70
     1
102
RTVSPropertyOp5
 70
     1
102
RTVSPropertyOp6
 70
     1
102
RTVSPropertyOp7
 70
     1
102
RTVSPropertyOp8
 70
     1
102
RTVSPropertyOp9
 70
     1
102
RTVSPropertyOp10
 70
     1
102
RTVSPropertyOp11
 70
     1
102
RTVSPropertyOp12
 70
     1
102
RTVSPropertyOp13
 70
     1
102
RTVSPropertyOp14
 70
     1
102
RTVSPropertyOp15
 70
     1
102
RTVSPropertyOp16
 70
     1
102
RTVSPropertyOp17
 70
     1
102
RTVSPropertyOp18
 70
     1
102
RTVSPropertyOp19
 70
     1
102
RTVSPropertyOp20
 70
     1
102
RTVSPropertyOp21
 70
     1
102
RTVSPropertyOp22
 70
     1
102
RTVSPropertyOp23
 70
     1
102
RTVSPropertyOp24
 70
     1
102
RTVSPropertyOp25
 70
     1
102
RTVSPropertyOp26
 70
     1
102
RTVSPropertyOp27
 70
     1
102
RTVSPropertyOp28
 70
     1
102
RTVSPropertyOp29
 70
     1
102
RTVSPropertyOp30
 70
     1
102
RTVSPropertyOp31
 70
     1
102
RTVSPropertyOp32
 70
     1
  0
XRECORD
  5
78
102
{ACAD_REACTORS
330
77
102
}
330
77
100
AcDbXrecord
280
     1
102
RTVSPropertyOp0
 70
     1
102
RTVSPropertyOp1
 70
     1
102
RTVSPropertyOp2
 70
     1
102
RTVSPropertyOp3
 70
     1
102
RTVSPropertyOp4
 70
     1
102
RTVSPropertyOp5
 70
     1
102
RTVSPropertyOp6
 70
     1
102
RTVSPropertyOp7
 70
     1
102
RTVSPropertyOp8
 70
     1
102
RTVSPropertyOp9
 70
     1
102
RTVSPropertyOp10
 70
     1
102
RTVSPropertyOp11
 70
     1
102
RTVSPropertyOp12
 70
     1
102
RTVSPropertyOp13
 70
     1
102
RTVSPropertyOp14
 70
     1
102
RTVSPropertyOp15
 70
     1
102
RTVSPropertyOp16
 70
     1
102
RTVSPropertyOp17
 70
     1
102
RTVSPropertyOp18
 70
     1
102
RTVSPropertyOp19
 70
     1
102
RTVSPropertyOp20
 70
     1
102
RTVSPropertyOp21
 70
     1
102
RTVSPropertyOp22
 70
     1
102
RTVSPropertyOp23
 70
     1
102
RTVSPropertyOp24
 70
     1
102
RTVSPropertyOp25
 70
     1
102
RTVSPropertyOp26
 70
     1
102
RTVSPropertyOp27
 70
     1
102
RTVSPropertyOp28
 70
     1
102
RTVSPropertyOp29
 70
     1
102
RTVSPropertyOp30
 70
     1
102
RTVSPropertyOp31
 70
     1
102
RTVSPropertyOp32
 70
     1
  0
XRECORD
  5
80
102
{ACAD_REACTORS
330
7F
102
}
330
7F
100
AcDbXrecord
280
     1
102
RTVSPropertyOp0
 70
     1
102
RTVSPropertyOp1
 70
     1
102
RTVSPropertyOp2
 70
     1
102
RTVSPropertyOp3
 70
     1
102
RTVSPropertyOp4
 70
     1
102
RTVSPropertyOp5
 70
     1
102
RTVSPropertyOp6
 70
     1
102
RTVSPropertyOp7
 70
     1
102
RTVSPropertyOp8
 70
     1
102
RTVSPropertyOp9
 70
     1
102
RTVSPropertyOp10
 70
     1
102
RTVSPropertyOp11
 70
     1
102
RTVSPropertyOp12
 70
     1
102
RTVSPropertyOp13
 70
     1
102
RTVSPropertyOp14
 70
     1
102
RTVSPropertyOp15
 70
     1
102
RTVSPropertyOp16
 70
     1
102
RTVSPropertyOp17
 70
     1
102
RTVSPropertyOp18
 70
     1
102
RTVSPropertyOp19
 70
     1
102
RTVSPropertyOp20
 70
     1
102
RTVSPropertyOp21
 70
     1
102
RTVSPropertyOp22
 70
     1
102
RTVSPropertyOp23
 70
     1
102
RTVSPropertyOp24
 70
     1
102
RTVSPropertyOp25
 70
     1
102
RTVSPropertyOp26
 70
     1
102
RTVSPropertyOp27
 70
     1
102
RTVSPropertyOp28
 70
     1
102
RTVSPropertyOp29
 70
     1
102
RTVSPropertyOp30
 70
     1
102
RTVSPropertyOp31
 70
     1
102
RTVSPropertyOp32
 70
     1
  0
ENDSEC
  0
EOF
