  0
SECTION
  2
HEADER
  9
$ACADVER
  1
AC1021
  9
$ACADMAINTVER
 70
    25
  9
$DWGCODEPAGE
  3
ANSI_1256
  9
$INSBASE
 10
0.0
 20
0.0
 30
0.0
  9
$EXTMIN
 10
-187.6398
 20
-114.9251
 30
0.0
  9
$EXTMAX
 10
196.114
 20
131.9864
 30
0.0
  9
$LIMMIN
 10
0.0
 20
0.0
  9
$LIMMAX
 10
12.0
 20
9.0
  9
$ORTHOMODE
 70
     0
  9
$REGENMODE
 70
     1
  9
$FILLMODE
 70
     1
  9
$QTEXTMODE
 70
     0
  9
$MIRRTEXT
 70
     1
  9
$LTSCALE
 40
1.0
  9
$ATTMODE
 70
     1
  9
$TEXTSIZE
 40
0.2
  9
$TRACEWID
 40
0.05
  9
$TEXTSTYLE
  7
Standard
  9
$CLAYER
  8
0
  9
$CELTYPE
  6
ByLayer
  9
$CECOLOR
 62
   256
  9
$CELTSCALE
 40
1.0
  9
$DISPSILH
 70
     0
  9
$DIMSCALE
 40
1.0
  9
$DIMASZ
 40
0.18
  9
$DIMEXO
 40
0.0625
  9
$DIMDLI
 40
0.38
  9
$DIMRND
 40
0.0
  9
$DIMDLE
 40
0.0
  9
$DIMEXE
 40
0.18
  9
$DIMTP
 40
0.0
  9
$DIMTM
 40
0.0
  9
$DIMTXT
 40
0.18
  9
$DIMCEN
 40
0.09
  9
$DIMTSZ
 40
0.0
  9
$DIMTOL
 70
     0
  9
$DIMLIM
 70
     0
  9
$DIMTIH
 70
     1
  9
$DIMTOH
 70
     1
  9
$DIMSE1
 70
     0
  9
$DIMSE2
 70
     0
  9
$DIMTAD
 70
     0
  9
$DIMZIN
 70
     0
  9
$DIMBLK
  1

  9
$DIMASO
 70
     1
  9
$DIMSHO
 70
     1
  9
$DIMPOST
  1

  9
$DIMAPOST
  1

  9
$DIMALT
 70
     0
  9
$DIMALTD
 70
     2
  9
$DIMALTF
 40
25.4
  9
$DIMLFAC
 40
1.0
  9
$DIMTOFL
 70
     0
  9
$DIMTVP
 40
0.0
  9
$DIMTIX
 70
     0
  9
$DIMSOXD
 70
     0
  9
$DIMSAH
 70
     0
  9
$DIMBLK1
  1

  9
$DIMBLK2
  1

  9
$DIMSTYLE
  2
Standard
  9
$DIMCLRD
 70
     0
  9
$DIMCLRE
 70
     0
  9
$DIMCLRT
 70
     0
  9
$DIMTFAC
 40
1.0
  9
$DIMGAP
 40
0.09
  9
$DIMJUST
 70
     0
  9
$DIMSD1
 70
     0
  9
$DIMSD2
 70
     0
  9
$DIMTOLJ
 70
     1
  9
$DIMTZIN
 70
     0
  9
$DIMALTZ
 70
     0
  9
$DIMALTTZ
 70
     0
  9
$DIMUPT
 70
     0
  9
$DIMDEC
 70
     4
  9
$DIMTDEC
 70
     4
  9
$DIMALTU
 70
     2
  9
$DIMALTTD
 70
     2
  9
$DIMTXSTY
  7
Standard
  9
$DIMAUNIT
 70
     0
  9
$DIMADEC
 70
     0
  9
$DIMALTRND
 40
0.0
  9
$DIMAZIN
 70
     0
  9
$DIMDSEP
 70
    46
  9
$DIMATFIT
 70
     3
  9
$DIMFRAC
 70
     0
  9
$DIMLDRBLK
  1

  9
$DIMLUNIT
 70
     2
  9
$DIMLWD
 70
    -2
  9
$DIMLWE
 70
    -2
  9
$DIMTMOVE
 70
     0
  9
$DIMFXL
 40
1.0
  9
$DIMFXLON
 70
     0
  9
$DIMJOGANG
 40
0.7853981633974483
  9
$DIMTFILL
 70
     0
  9
$DIMTFILLCLR
 70
     0
  9
$DIMARCSYM
 70
     0
  9
$DIMLTYPE
  6

  9
$DIMLTEX1
  6

  9
$DIMLTEX2
  6

  9
$LUNITS
 70
     2
  9
$LUPREC
 70
     4
  9
$SKETCHINC
 40
0.1
  9
$FILLETRAD
 40
0.5
  9
$AUNITS
 70
     0
  9
$AUPREC
 70
     0
  9
$MENU
  1
.
  9
$ELEVATION
 40
0.0
  9
$PELEVATION
 40
0.0
  9
$THICKNESS
 40
0.0
  9
$LIMCHECK
 70
     0
  9
$CHAMFERA
 40
0.5
  9
$CHAMFERB
 40
0.5
  9
$CHAMFERC
 40
1.0
  9
$CHAMFERD
 40
0.0
  9
$SKPOLY
 70
     0
  9
$TDCREATE
 40
2458492.397193542
  9
$TDUCREATE
 40
2458492.230526875
  9
$TDUPDATE
 40
2458492.397193681
  9
$TDUUPDATE
 40
2458492.230527014
  9
$TDINDWG
 40
0.0000000116
  9
$TDUSRTIMER
 40
0.0000000116
  9
$USRTIMER
 70
     1
  9
$ANGBASE
 50
0.0
  9
$ANGDIR
 70
     0
  9
$PDMODE
 70
     0
  9
$PDSIZE
 40
0.0
  9
$PLINEWID
 40
0.0
  9
$SPLFRAME
 70
     0
  9
$SPLINETYPE
 70
     6
  9
$SPLINESEGS
 70
     8
  9
$HANDSEED
  5
9E
  9
$SURFTAB1
 70
     6
  9
$SURFTAB2
 70
     6
  9
$SURFTYPE
 70
     6
  9
$SURFU
 70
     6
  9
$SURFV
 70
     6
  9
$UCSBASE
  2

  9
$UCSNAME
  2

  9
$UCSORG
 10
0.0
 20
0.0
 30
0.0
  9
$UCSXDIR
 10
1.0
 20
0.0
 30
0.0
  9
$UCSYDIR
 10
0.0
 20
1.0
 30
0.0
  9
$UCSORTHOREF
  2

  9
$UCSORTHOVIEW
 70
     0
  9
$UCSORGTOP
 10
0.0
 20
0.0
 30
0.0
  9
$UCSORGBOTTOM
 10
0.0
 20
0.0
 30
0.0
  9
$UCSORGLEFT
 10
0.0
 20
0.0
 30
0.0
  9
$UCSORGRIGHT
 10
0.0
 20
0.0
 30
0.0
  9
$UCSORGFRONT
 10
0.0
 20
0.0
 30
0.0
  9
$UCSORGBACK
 10
0.0
 20
0.0
 30
0.0
  9
$PUCSBASE
  2

  9
$PUCSNAME
  2

  9
$PUCSORG
 10
0.0
 20
0.0
 30
0.0
  9
$PUCSXDIR
 10
1.0
 20
0.0
 30
0.0
  9
$PUCSYDIR
 10
0.0
 20
1.0
 30
0.0
  9
$PUCSORTHOREF
  2

  9
$PUCSORTHOVIEW
 70
     0
  9
$PUCSORGTOP
 10
0.0
 20
0.0
 30
0.0
  9
$PUCSORGBOTTOM
 10
0.0
 20
0.0
 30
0.0
  9
$PUCSORGLEFT
 10
0.0
 20
0.0
 30
0.0
  9
$PUCSORGRIGHT
 10
0.0
 20
0.0
 30
0.0
  9
$PUCSORGFRONT
 10
0.0
 20
0.0
 30
0.0
  9
$PUCSORGBACK
 10
0.0
 20
0.0
 30
0.0
  9
$USERI1
 70
     0
  9
$USERI2
 70
     0
  9
$USERI3
 70
     0
  9
$USERI4
 70
     0
  9
$USERI5
 70
     0
  9
$USERR1
 40
0.0
  9
$USERR2
 40
0.0
  9
$USERR3
 40
0.0
  9
$USERR4
 40
0.0
  9
$USERR5
 40
0.0
  9
$WORLDVIEW
 70
     1
  9
$SHADEDGE
 70
     3
  9
$SHADEDIF
 70
    70
  9
$TILEMODE
 70
     1
  9
$MAXACTVP
 70
    64
  9
$PINSBASE
 10
0.0
 20
0.0
 30
0.0
  9
$PLIMCHECK
 70
     0
  9
$PEXTMIN
 10
1.000000000000000E+20
 20
1.000000000000000E+20
 30
1.000000000000000E+20
  9
$PEXTMAX
 10
-1.000000000000000E+20
 20
-1.000000000000000E+20
 30
-1.000000000000000E+20
  9
$PLIMMIN
 10
0.0
 20
0.0
  9
$PLIMMAX
 10
12.0
 20
9.0
  9
$UNITMODE
 70
     0
  9
$VISRETAIN
 70
     1
  9
$PLINEGEN
 70
     0
  9
$PSLTSCALE
 70
     1
  9
$TREEDEPTH
 70
  3020
  9
$CMLSTYLE
  2
Standard
  9
$CMLJUST
 70
     0
  9
$CMLSCALE
 40
1.0
  9
$PROXYGRAPHICS
 70
     1
  9
$MEASUREMENT
 70
     0
  9
$CELWEIGHT
370
    -1
  9
$ENDCAPS
280
     0
  9
$JOINSTYLE
280
     0
  9
$LWDISPLAY
290
     0
  9
$INSUNITS
 70
     4
  9
$HYPERLINKBASE
  1

  9
$STYLESHEET
  1

  9
$XEDIT
290
     1
  9
$CEPSNTYPE
380
     0
  9
$PSTYLEMODE
290
     1
  9
$FINGERPRINTGUID
  2
{A30AFE7D-75D3-4486-B765-42BEBE6FF4D4}
  9
$VERSIONGUID
  2
{FAEB1C32-E019-11D5-929B-00C0DF256EC4}
  9
$EXTNAMES
290
     1
  9
$PSVPSCALE
 40
0.0
  9
$OLESTARTUP
290
     0
  9
$SORTENTS
280
   127
  9
$INDEXCTL
280
     0
  9
$HIDETEXT
280
     1
  9
$XCLIPFRAME
290
     0
  9
$HALOGAP
280
     0
  9
$OBSCOLOR
 70
   257
  9
$OBSLTYPE
280
     0
  9
$INTERSECTIONDISPLAY
280
     0
  9
$INTERSECTIONCOLOR
 70
   257
  9
$DIMASSOC
280
     2
  9
$PROJECTNAME
  1

  9
$CAMERADISPLAY
290
     0
  9
$LENSLENGTH
 40
50.0
  9
$CAMERAHEIGHT
 40
0.0
  9
$STEPSPERSEC
 40
2.0
  9
$STEPSIZE
 40
6.0
  9
$3DDWFPREC
 40
2.0
  9
$PSOLWIDTH
 40
0.25
  9
$PSOLHEIGHT
 40
4.0
  9
$LOFTANG1
 40
1.570796326794897
  9
$LOFTANG2
 40
1.570796326794897
  9
$LOFTMAG1
 40
0.0
  9
$LOFTMAG2
 40
0.0
  9
$LOFTPARAM
 70
     7
  9
$LOFTNORMALS
280
     1
  9
$LATITUDE
 40
37.795
  9
$LONGITUDE
 40
-122.394
  9
$NORTHDIRECTION
 40
0.0
  9
$TIMEZONE
 70
 -8000
  9
$LIGHTGLYPHDISPLAY
280
     1
  9
$TILEMODELIGHTSYNCH
280
     1
  9
$SOLIDHIST
280
     1
  9
$SHOWHIST
280
     1
  9
$DWFFRAME
280
     2
  9
$DGNFRAME
280
     2
  9
$REALWORLDSCALE
290
     1
  9
$INTERFERECOLOR
 62
   256
  9
$CSHADOW
280
     0
  9
$SHADOWPLANELOCATION
 40
0.0
  0
ENDSEC
  0
SECTION
  2
CLASSES
  0
CLASS
  1
ACDBDICTIONARYWDFLT
  2
AcDbDictionaryWithDefault
  3
ObjectDBX Classes
 90
        0
 91
        4
280
     0
281
     0
  0
CLASS
  1
VISUALSTYLE
  2
AcDbVisualStyle
  3
ObjectDBX Classes
 90
     4095
 91
        4
280
     0
281
     0
  0
CLASS
  1
MATERIAL
  2
AcDbMaterial
  3
ObjectDBX Classes
 90
     1153
 91
        4
280
     0
281
     0
  0
ENDSEC
  0
SECTION
  2
TABLES
  0
TABLE
  2
VPORT
  5
8
330
0
100
AcDbSymbolTable
 70
     1
  0
VPORT
  5
29
330
8
100
AcDbSymbolTableRecord
100
AcDbViewportTableRecord
  2
*Active
 70
     0
 10
0.0
 20
0.0
 11
1.0
 21
1.0
 12
10.42990654205607
 22
4.5
 13
0.0
 23
0.0
 14
0.5
 24
0.5
 15
0.5
 25
0.5
 16
0.0
 26
0.0
 36
1.0
 17
0.0
 27
0.0
 37
0.0
 40
9.0
 41
1.972972972850329
 42
50.0
 43
0.0
 44
0.0
 50
0.0
 51
0.0
 71
     0
 72
   100
 73
     1
 74
     3
 75
     0
 76
     0
 77
     0
 78
     0
281
     0
 65
     1
110
0.0
120
0.0
130
0.0
111
1.0
121
0.0
131
0.0
112
0.0
122
1.0
132
0.0
 79
     0
146
0.0
 60
     3
 61
     5
292
     1
282
     1
141
0.0
142
0.0
 63
   250
  0
ENDTAB
  0
TABLE
  2
LTYPE
  5
5
330
0
100
AcDbSymbolTable
 70
     1
  0
LTYPE
  5
14
330
5
100
AcDbSymbolTableRecord
100
AcDbLinetypeTableRecord
  2
ByBlock
 70
     0
  3

 72
    65
 73
     0
 40
0.0
  0
LTYPE
  5
15
330
5
100
AcDbSymbolTableRecord
100
AcDbLinetypeTableRecord
  2
ByLayer
 70
     0
  3

 72
    65
 73
     0
 40
0.0
  0
LTYPE
  5
16
330
5
100
AcDbSymbolTableRecord
100
AcDbLinetypeTableRecord
  2
Continuous
 70
     0
  3
Solid line
 72
    65
 73
     0
 40
0.0
  0
ENDTAB
  0
TABLE
  2
LAYER
  5
2
330
0
100
AcDbSymbolTable
 70
     2
  0
LAYER
  5
10
330
2
100
AcDbSymbolTableRecord
100
AcDbLayerTableRecord
  2
0
 70
     0
 62
     7
  6
Continuous
370
    -3
390
F
347
3E
  0
LAYER
  5
40
330
2
100
AcDbSymbolTableRecord
100
AcDbLayerTableRecord
  2
layer 1
 70
     0
 62
     7
  6
Continuous
370
    -3
390
F
347
3E
  0
ENDTAB
  0
TABLE
  2
STYLE
  5
3
330
0
100
AcDbSymbolTable
 70
     1
  0
STYLE
  5
11
330
3
100
AcDbSymbolTableRecord
100
AcDbTextStyleTableRecord
  2
Standard
 70
     0
 40
0.0
 41
1.0
 50
0.0
 71
     0
 42
0.2
  3
txt
  4

  0
ENDTAB
  0
TABLE
  2
VIEW
  5
6
330
0
100
AcDbSymbolTable
 70
     0
  0
ENDTAB
  0
TABLE
  2
UCS
  5
7
330
0
100
AcDbSymbolTable
 70
     0
  0
ENDTAB
  0
TABLE
  2
APPID
  5
9
330
0
100
AcDbSymbolTable
 70
     2
  0
APPID
  5
12
330
9
100
AcDbSymbolTableRecord
100
AcDbRegAppTableRecord
  2
ACAD
 70
     0
  0
APPID
  5
3F
330
9
100
AcDbSymbolTableRecord
100
AcDbRegAppTableRecord
  2
ODA
 70
     0
  0
ENDTAB
  0
TABLE
  2
DIMSTYLE
  5
A
330
0
100
AcDbSymbolTable
 70
     1
100
AcDbDimStyleTable
  0
DIMSTYLE
105
27
330
A
100
AcDbSymbolTableRecord
100
AcDbDimStyleTableRecord
  2
Standard
 70
     0
178
     0
340
11
  0
ENDTAB
  0
TABLE
  2
BLOCK_RECORD
  5
1
330
0
100
AcDbSymbolTable
 70
     1
  0
BLOCK_RECORD
  5
1F
330
1
100
AcDbSymbolTableRecord
100
AcDbBlockTableRecord
  2
*Model_Space
340
22
 70
     0
280
     1
281
     0
  0
BLOCK_RECORD
  5
1B
330
1
100
AcDbSymbolTableRecord
100
AcDbBlockTableRecord
  2
*Paper_Space
340
1E
 70
     0
280
     1
281
     0
  0
BLOCK_RECORD
  5
23
330
1
100
AcDbSymbolTableRecord
100
AcDbBlockTableRecord
  2
*Paper_Space0
340
26
 70
     0
280
     1
281
     0
  0
ENDTAB
  0
ENDSEC
  0
SECTION
  2
BLOCKS
  0
BLOCK
  5
20
330
1F
100
AcDbEntity
  8
0
100
AcDbBlockBegin
  2
*Model_Space
 70
     0
 10
0.0
 20
0.0
 30
0.0
  3
*Model_Space
  1

  0
ENDBLK
  5
21
330
1F
100
AcDbEntity
  8
0
100
AcDbBlockEnd
  0
BLOCK
  5
1C
330
1B
100
AcDbEntity
 67
     1
  8
0
100
AcDbBlockBegin
  2
*Paper_Space
 70
     0
 10
0.0
 20
0.0
 30
0.0
  3
*Paper_Space
  1

  0
ENDBLK
  5
1D
330
1B
100
AcDbEntity
 67
     1
  8
0
100
AcDbBlockEnd
  0
BLOCK
  5
24
330
23
100
AcDbEntity
  8
0
100
AcDbBlockBegin
  2
*Paper_Space0
 70
     0
 10
0.0
 20
0.0
 30
0.0
  3
*Paper_Space0
  1

  0
ENDBLK
  5
25
330
23
100
AcDbEntity
  8
0
100
AcDbBlockEnd
  0
ENDSEC
  0
SECTION
  2
ENTITIES
  0
SPLINE
  5
41
330
1F
100
AcDbEntity
  8
layer 1
 62
   250
100
AcDbSpline
210
0.0
220
0.0
230
1.0
 70
    11
 71
     3
 72
    20
 73
    16
 74
     0
 42
0.0000000001
 43
0.0000000001
 12
1.0
 22
0.0
 32
0.0
 13
1.0
 23
0.0
 33
0.0
 40
0.0
 40
0.0
 40
0.0
 40
0.0
 40
0.2
 40
0.2
 40
0.2
 40
0.2
 40
0.4
 40
0.4
 40
0.4
 40
0.4
 40
0.6
 40
0.6
 40
0.6
 40
0.6
 40
1.0
 40
1.0
 40
1.0
 40
1.0
 10
-187.6398
 20
-114.7229
 30
0.0
 10
-187.6398
 20
-114.7229
 30
0.0
 10
-187.6398
 20
131.9864
 30
0.0
 10
-187.6398
 20
131.9864
 30
0.0
 10
-187.6398
 20
131.9864
 30
0.0
 10
-187.6398
 20
131.9864
 30
0.0
 10
-52.8506
 20
131.9864
 30
0.0
 10
-52.8506
 20
131.9864
 30
0.0
 10
-52.8506
 20
131.9864
 30
0.0
 10
-52.8506
 20
131.9864
 30
0.0
 10
-52.8506
 20
-114.7229
 30
0.0
 10
-52.8506
 20
-114.7229
 30
0.0
 10
-52.8506
 20
-114.7229
 30
0.0
 10
-52.8506
 20
-114.7229
 30
0.0
 10
-187.6398
 20
-114.7229
 30
0.0
 10
-187.6398
 20
-114.7229
 30
0.0
  0
SPLINE
  5
42
330
1F
100
AcDbEntity
  8
layer 1
 62
     7
100
AcDbSpline
210
0.0
220
0.0
230
1.0
 70
    11
 71
     3
 72
    16
 73
    12
 74
     0
 42
0.0000000001
 43
0.0000000001
 12
1.0
 22
0.0
 32
0.0
 13
1.0
 23
0.0
 33
0.0
 40
0.0
 40
0.0
 40
0.0
 40
0.0
 40
0.25
 40
0.25
 40
0.25
 40
0.25
 40
0.5
 40
0.5
 40
0.5
 40
0.5
 40
1.0
 40
1.0
 40
1.0
 40
1.0
 10
-61.0005
 20
79.1515
 30
0.0
 10
-67.6403
 20
70.1178
 30
0.0
 10
-74.9723
 20
64.4204
 30
0.0
 10
-86.066
 20
60.6179
 30
0.0
 10
-86.066
 20
60.6179
 30
0.0
 10
-75.1857
 20
54.1631
 30
0.0
 10
-67.9229
 20
47.6691
 30
0.0
 10
-61.0005
 20
35.2442
 30
0.0
 10
-61.0005
 20
35.2442
 30
0.0
 10
-61.0005
 20
35.2442
 30
0.0
 10
-61.0005
 20
79.1515
 30
0.0
 10
-61.0005
 20
79.1515
 30
0.0
  0
SPLINE
  5
43
330
1F
100
AcDbEntity
  8
layer 1
 62
     7
100
AcDbSpline
210
0.0
220
0.0
230
1.0
 70
    11
 71
     3
 72
    64
 73
    60
 74
     0
 42
0.0000000001
 43
0.0000000001
 12
1.0
 22
0.0
 32
0.0
 13
1.0
 23
0.0
 33
0.0
 40
0.0
 40
0.0
 40
0.0
 40
0.0
 40
0.0625
 40
0.0625
 40
0.0625
 40
0.0625
 40
0.125
 40
0.125
 40
0.125
 40
0.125
 40
0.1875
 40
0.1875
 40
0.1875
 40
0.1875
 40
0.25
 40
0.25
 40
0.25
 40
0.25
 40
0.3125
 40
0.3125
 40
0.3125
 40
0.3125
 40
0.375
 40
0.375
 40
0.375
 40
0.375
 40
0.4375
 40
0.4375
 40
0.4375
 40
0.4375
 40
0.5
 40
0.5
 40
0.5
 40
0.5
 40
0.5625
 40
0.5625
 40
0.5625
 40
0.5625
 40
0.625
 40
0.625
 40
0.625
 40
0.625
 40
0.6875
 40
0.6875
 40
0.6875
 40
0.6875
 40
0.75
 40
0.75
 40
0.75
 40
0.75
 40
0.8125
 40
0.8125
 40
0.8125
 40
0.8125
 40
0.875
 40
0.875
 40
0.875
 40
0.875
 40
1.0
 40
1.0
 40
1.0
 40
1.0
 10
-116.2368
 20
63.1916
 30
0.0
 10
-118.1155
 20
63.2607
 30
0.0
 10
-117.5555
 20
62.1133
 30
0.0
 10
-116.1444
 20
61.6792
 30
0.0
 10
-116.1444
 20
61.6792
 30
0.0
 10
-112.3135
 20
59.9112
 30
0.0
 10
-111.0747
 20
54.6332
 30
0.0
 10
-110.848
 20
49.5407
 30
0.0
 10
-110.848
 20
49.5407
 30
0.0
 10
-110.848
 20
46.1221
 30
0.0
 10
-111.2726
 20
45.297
 30
0.0
 10
-112.7424
 20
45.8613
 30
0.0
 10
-112.7424
 20
45.8613
 30
0.0
 10
-115.9816
 20
47.1043
 30
0.0
 10
-118.3626
 20
43.8519
 30
0.0
 10
-118.3626
 20
38.1848
 30
0.0
 10
-118.3626
 20
38.1848
 30
0.0
 10
-118.3626
 20
31.7801
 30
0.0
 10
-114.109
 20
26.2693
 30
0.0
 10
-107.4043
 20
26.2693
 30
0.0
 10
-107.4043
 20
26.2693
 30
0.0
 10
-107.3773
 20
27.9331
 30
0.0
 10
-107.3356
 20
31.2514
 30
0.0
 10
-104.9049
 20
31.3229
 30
0.0
 10
-104.9049
 20
31.3229
 30
0.0
 10
-104.9049
 20
31.3229
 30
0.0
 10
-103.2898
 20
31.339
 30
0.0
 10
-103.2898
 20
31.339
 30
0.0
 10
-103.2898
 20
31.339
 30
0.0
 10
-100.4387
 20
31.2793
 30
0.0
 10
-100.5343
 20
28.8827
 30
0.0
 10
-100.5329
 20
26.5519
 30
0.0
 10
-100.5329
 20
26.5519
 30
0.0
 10
-94.09
 20
26.9888
 30
0.0
 10
-92.2955
 20
34.0177
 30
0.0
 10
-97.2104
 20
38.9327
 30
0.0
 10
-97.2104
 20
38.9327
 30
0.0
 10
-99.7874
 20
41.5097
 30
0.0
 10
-99.795
 20
41.6346
 30
0.0
 10
-97.5233
 20
43.8471
 30
0.0
 10
-97.5233
 20
43.8471
 30
0.0
 10
-86.3903
 20
53.1037
 30
0.0
 10
-76.8103
 20
37.9864
 30
0.0
 10
-83.8014
 20
26.5197
 30
0.0
 10
-83.8014
 20
26.5197
 30
0.0
 10
-86.9502
 20
21.466
 30
0.0
 10
-96.0568
 20
16.767
 30
0.0
 10
-100.514
 20
15.0775
 30
0.0
 10
-100.514
 20
15.0775
 30
0.0
 10
-100.514
 20
15.0775
 30
0.0
 10
-100.5291
 20
13.5964
 30
0.0
 10
-100.5291
 20
13.5964
 30
0.0
 10
-100.5291
 20
13.5964
 30
0.0
 10
-83.5898
 20
22.9377
 30
0.0
 10
-72.161
 20
19.7823
 30
0.0
 10
-61.088
 20
9.987
 30
0.0
 10
-61.088
 20
9.987
 30
0.0
 10
-60.884
 20
33.5884
 30
0.0
 10
-80.2503
 20
59.9443
 30
0.0
 10
-116.2368
 20
63.1916
 30
0.0
  0
SPLINE
  5
44
330
1F
100
AcDbEntity
  8
layer 1
 62
     7
100
AcDbSpline
210
0.0
220
0.0
230
1.0
 70
    11
 71
     3
 72
    84
 73
    80
 74
     0
 42
0.0000000001
 43
0.0000000001
 12
1.0
 22
0.0
 32
0.0
 13
1.0
 23
0.0
 33
0.0
 40
0.0
 40
0.0
 40
0.0
 40
0.0
 40
0.0476190476190476
 40
0.0476190476190476
 40
0.0476190476190476
 40
0.0476190476190476
 40
0.0952380952380952
 40
0.0952380952380952
 40
0.0952380952380952
 40
0.0952380952380952
 40
0.1428571428571428
 40
0.1428571428571428
 40
0.1428571428571428
 40
0.1428571428571428
 40
0.1904761904761905
 40
0.1904761904761905
 40
0.1904761904761905
 40
0.1904761904761905
 40
0.2380952380952381
 40
0.2380952380952381
 40
0.2380952380952381
 40
0.2380952380952381
 40
0.2857142857142857
 40
0.2857142857142857
 40
0.2857142857142857
 40
0.2857142857142857
 40
0.3333333333333333
 40
0.3333333333333333
 40
0.3333333333333333
 40
0.3333333333333333
 40
0.3809523809523809
 40
0.3809523809523809
 40
0.3809523809523809
 40
0.3809523809523809
 40
0.4285714285714285
 40
0.4285714285714285
 40
0.4285714285714285
 40
0.4285714285714285
 40
0.4761904761904762
 40
0.4761904761904762
 40
0.4761904761904762
 40
0.4761904761904762
 40
0.5238095238095238
 40
0.5238095238095238
 40
0.5238095238095238
 40
0.5238095238095238
 40
0.5714285714285714
 40
0.5714285714285714
 40
0.5714285714285714
 40
0.5714285714285714
 40
0.6190476190476191
 40
0.6190476190476191
 40
0.6190476190476191
 40
0.6190476190476191
 40
0.6666666666666666
 40
0.6666666666666666
 40
0.6666666666666666
 40
0.6666666666666666
 40
0.7142857142857143
 40
0.7142857142857143
 40
0.7142857142857143
 40
0.7142857142857143
 40
0.7619047619047619
 40
0.7619047619047619
 40
0.7619047619047619
 40
0.7619047619047619
 40
0.8095238095238095
 40
0.8095238095238095
 40
0.8095238095238095
 40
0.8095238095238095
 40
0.8571428571428571
 40
0.8571428571428571
 40
0.8571428571428571
 40
0.8571428571428571
 40
0.9047619047619048
 40
0.9047619047619048
 40
0.9047619047619048
 40
0.9047619047619048
 40
1.0
 40
1.0
 40
1.0
 40
1.0
 10
-92.152
 20
124.5262
 30
0.0
 10
-91.8557
 20
121.3163
 30
0.0
 10
-92.9317
 20
117.5976
 30
0.0
 10
-95.4873
 20
115.3789
 30
0.0
 10
-95.4873
 20
115.3789
 30
0.0
 10
-78.7966
 20
114.6817
 30
0.0
 10
-70.846
 20
96.7407
 30
0.0
 10
-77.2368
 20
83.7843
 30
0.0
 10
-77.2368
 20
83.7843
 30
0.0
 10
-88.2648
 20
64.1071
 30
0.0
 10
-112.2733
 20
75.4015
 30
0.0
 10
-107.0748
 20
92.07
 30
0.0
 10
-107.0748
 20
92.07
 30
0.0
 10
-103.5322
 20
102.8036
 30
0.0
 10
-87.8421
 20
100.5144
 30
0.0
 10
-87.0515
 20
90.7295
 30
0.0
 10
-87.0515
 20
90.7295
 30
0.0
 10
-86.7074
 20
84.6605
 30
0.0
 10
-95.3089
 20
81.7043
 30
0.0
 10
-96.836
 20
86.6955
 30
0.0
 10
-96.836
 20
86.6955
 30
0.0
 10
-97.1209
 20
88.1913
 30
0.0
 10
-96.6703
 20
88.6595
 30
0.0
 10
-95.4097
 20
88.1757
 30
0.0
 10
-95.4097
 20
88.1757
 30
0.0
 10
-92.7163
 20
87.1419
 30
0.0
 10
-91.4519
 20
90.072
 30
0.0
 10
-93.6455
 20
92.2651
 30
0.0
 10
-93.6455
 20
92.2651
 30
0.0
 10
-96.5056
 20
95.1251
 30
0.0
 10
-100.8283
 20
92.3574
 30
0.0
 10
-100.8283
 20
87.6659
 30
0.0
 10
-100.8283
 20
87.6659
 30
0.0
 10
-100.8283
 20
81.48
 30
0.0
 10
-92.7707
 20
75.918
 30
0.0
 10
-85.7294
 20
81.4137
 30
0.0
 10
-85.7294
 20
81.4137
 30
0.0
 10
-74.6613
 20
89.9802
 30
0.0
 10
-81.6287
 20
106.8172
 30
0.0
 10
-91.8647
 20
108.0252
 30
0.0
 10
-91.8647
 20
108.0252
 30
0.0
 10
-87.7341
 20
103.9657
 30
0.0
 10
-91.2138
 20
101.1359
 30
0.0
 10
-91.2138
 20
101.1359
 30
0.0
 10
-91.2138
 20
101.1359
 30
0.0
 10
-107.0521
 20
111.1224
 30
0.0
 10
-106.956
 20
93.7893
 30
0.0
 10
-115.8675
 20
95.4347
 30
0.0
 10
-115.8675
 20
95.4347
 30
0.0
 10
-115.8675
 20
95.4347
 30
0.0
 10
-115.2469
 20
89.2095
 30
0.0
 10
-115.2469
 20
89.2095
 30
0.0
 10
-115.2469
 20
89.2095
 30
0.0
 10
-114.1156
 20
77.8597
 30
0.0
 10
-110.101
 20
72.7417
 30
0.0
 10
-101.9573
 20
68.5851
 30
0.0
 10
-101.9573
 20
68.5851
 30
0.0
 10
-87.6328
 20
61.274
 30
0.0
 10
-72.4147
 20
72.3256
 30
0.0
 10
-65.2664
 20
93.1252
 30
0.0
 10
-65.2664
 20
93.1252
 30
0.0
 10
-64.2004
 20
96.2267
 30
0.0
 10
-64.6724
 20
96.6555
 30
0.0
 10
-66.8896
 20
96.0756
 30
0.0
 10
-66.8896
 20
96.0756
 30
0.0
 10
-70.1454
 20
95.5507
 30
0.0
 10
-72.7001
 20
97.9194
 30
0.0
 10
-73.0372
 20
99.4304
 30
0.0
 10
-73.0372
 20
99.4304
 30
0.0
 10
-70.7967
 20
99.4933
 30
0.0
 10
-67.0127
 20
106.9322
 30
0.0
 10
-67.0127
 20
112.4256
 30
0.0
 10
-67.0127
 20
112.4256
 30
0.0
 10
-66.7651
 20
117.305
 30
0.0
 10
-66.4607
 20
121.5634
 30
0.0
 10
-62.4239
 20
124.5267
 30
0.0
 10
-62.4239
 20
124.5267
 30
0.0
 10
-62.4239
 20
124.5267
 30
0.0
 10
-92.152
 20
124.5262
 30
0.0
 10
-92.152
 20
124.5262
 30
0.0
  0
SPLINE
  5
45
330
1F
100
AcDbEntity
  8
layer 1
 62
     7
100
AcDbSpline
210
0.0
220
0.0
230
1.0
 70
    11
 71
     3
 72
    24
 73
    20
 74
     0
 42
0.0000000001
 43
0.0000000001
 12
1.0
 22
0.0
 32
0.0
 13
1.0
 23
0.0
 33
0.0
 40
0.0
 40
0.0
 40
0.0
 40
0.0
 40
0.1666666666666667
 40
0.1666666666666667
 40
0.1666666666666667
 40
0.1666666666666667
 40
0.3333333333333333
 40
0.3333333333333333
 40
0.3333333333333333
 40
0.3333333333333333
 40
0.5
 40
0.5
 40
0.5
 40
0.5
 40
0.6666666666666666
 40
0.6666666666666666
 40
0.6666666666666666
 40
0.6666666666666666
 40
1.0
 40
1.0
 40
1.0
 40
1.0
 10
-142.5737
 20
124.5262
 30
0.0
 10
-142.5733
 20
123.7698
 30
0.0
 10
-140.2618
 20
118.1268
 30
0.0
 10
-134.0139
 20
117.191
 30
0.0
 10
-134.0139
 20
117.191
 30
0.0
 10
-125.2856
 20
116.489
 30
0.0
 10
-121.5512
 20
104.2606
 30
0.0
 10
-120.1751
 20
95.6184
 30
0.0
 10
-120.1751
 20
95.6184
 30
0.0
 10
-119.5039
 20
108.9819
 30
0.0
 10
-116.0763
 20
114.7238
 30
0.0
 10
-105.8592
 20
117.4163
 30
0.0
 10
-105.8592
 20
117.4163
 30
0.0
 10
-95.7827
 20
119.8621
 30
0.0
 10
-95.5375
 20
122.9414
 30
0.0
 10
-96.1434
 20
124.5257
 30
0.0
 10
-96.1434
 20
124.5257
 30
0.0
 10
-96.1434
 20
124.5257
 30
0.0
 10
-142.5737
 20
124.5262
 30
0.0
 10
-142.5737
 20
124.5262
 30
0.0
  0
SPLINE
  5
46
330
1F
100
AcDbEntity
  8
layer 1
 62
     7
100
AcDbSpline
210
0.0
220
0.0
230
1.0
 70
    11
 71
     3
 72
    32
 73
    28
 74
     0
 42
0.0000000001
 43
0.0000000001
 12
1.0
 22
0.0
 32
0.0
 13
1.0
 23
0.0
 33
0.0
 40
0.0
 40
0.0
 40
0.0
 40
0.0
 40
0.125
 40
0.125
 40
0.125
 40
0.125
 40
0.25
 40
0.25
 40
0.25
 40
0.25
 40
0.375
 40
0.375
 40
0.375
 40
0.375
 40
0.5
 40
0.5
 40
0.5
 40
0.5
 40
0.625
 40
0.625
 40
0.625
 40
0.625
 40
0.75
 40
0.75
 40
0.75
 40
0.75
 40
1.0
 40
1.0
 40
1.0
 40
1.0
 10
-133.1221
 20
28.5362
 30
0.0
 10
-142.0933
 20
40.1184
 30
0.0
 10
-142.6765
 20
51.5156
 30
0.0
 10
-132.7406
 20
62.0915
 30
0.0
 10
-132.7406
 20
62.0915
 30
0.0
 10
-156.0049
 20
57.6111
 30
0.0
 10
-178.4684
 20
38.8143
 30
0.0
 10
-179.4629
 20
10.2658
 30
0.0
 10
-179.4629
 20
10.2658
 30
0.0
 10
-177.5269
 20
10.2658
 30
0.0
 10
-169.6903
 20
14.6823
 30
0.0
 10
-164.7025
 20
19.0647
 30
0.0
 10
-164.7025
 20
19.0647
 30
0.0
 10
-152.2469
 20
30.0083
 30
0.0
 10
-146.9575
 20
30.3383
 30
0.0
 10
-128.2753
 20
21.3378
 30
0.0
 10
-128.2753
 20
21.3378
 30
0.0
 10
-119.1735
 20
16.953
 30
0.0
 10
-111.2352
 20
13.9519
 30
0.0
 10
-107.311
 20
13.3445
 30
0.0
 10
-107.311
 20
13.3445
 30
0.0
 10
-107.311
 20
13.3445
 30
0.0
 10
-107.364
 20
15.1476
 30
0.0
 10
-107.364
 20
15.1476
 30
0.0
 10
-107.364
 20
15.1476
 30
0.0
 10
-117.1106
 20
18.1113
 30
0.0
 10
-126.3852
 20
19.8377
 30
0.0
 10
-133.1221
 20
28.5362
 30
0.0
  0
SPLINE
  5
47
330
1F
100
AcDbEntity
  8
layer 1
 62
     7
100
AcDbSpline
210
0.0
220
0.0
230
1.0
 70
    11
 71
     3
 72
    16
 73
    12
 74
     0
 42
0.0000000001
 43
0.0000000001
 12
1.0
 22
0.0
 32
0.0
 13
1.0
 23
0.0
 33
0.0
 40
0.0
 40
0.0
 40
0.0
 40
0.0
 40
0.25
 40
0.25
 40
0.25
 40
0.25
 40
0.5
 40
0.5
 40
0.5
 40
0.5
 40
1.0
 40
1.0
 40
1.0
 40
1.0
 10
-127.232
 20
69.0977
 30
0.0
 10
-121.3107
 20
69.4518
 30
0.0
 10
-117.0372
 20
69.3652
 30
0.0
 10
-111.9301
 20
68.8525
 30
0.0
 10
-111.9301
 20
68.8525
 30
0.0
 10
-116.2036
 20
74.5163
 30
0.0
 10
-118.1321
 20
79.3044
 30
0.0
 10
-119.9351
 20
85.7606
 30
0.0
 10
-119.9351
 20
85.7606
 30
0.0
 10
-121.2833
 20
79.4724
 30
0.0
 10
-123.1318
 20
74.4775
 30
0.0
 10
-127.232
 20
69.0977
 30
0.0
  0
SPLINE
  5
48
330
1F
100
AcDbEntity
  8
layer 1
 62
     7
100
AcDbSpline
210
0.0
220
0.0
230
1.0
 70
    11
 71
     3
 72
    96
 73
    92
 74
     0
 42
0.0000000001
 43
0.0000000001
 12
1.0
 22
0.0
 32
0.0
 13
1.0
 23
0.0
 33
0.0
 40
0.0
 40
0.0
 40
0.0
 40
0.0
 40
0.0416666666666667
 40
0.0416666666666667
 40
0.0416666666666667
 40
0.0416666666666667
 40
0.0833333333333333
 40
0.0833333333333333
 40
0.0833333333333333
 40
0.0833333333333333
 40
0.125
 40
0.125
 40
0.125
 40
0.125
 40
0.1666666666666667
 40
0.1666666666666667
 40
0.1666666666666667
 40
0.1666666666666667
 40
0.2083333333333333
 40
0.2083333333333333
 40
0.2083333333333333
 40
0.2083333333333333
 40
0.25
 40
0.25
 40
0.25
 40
0.25
 40
0.2916666666666667
 40
0.2916666666666667
 40
0.2916666666666667
 40
0.2916666666666667
 40
0.3333333333333333
 40
0.3333333333333333
 40
0.3333333333333333
 40
0.3333333333333333
 40
0.375
 40
0.375
 40
0.375
 40
0.375
 40
0.4166666666666667
 40
0.4166666666666667
 40
0.4166666666666667
 40
0.4166666666666667
 40
0.4583333333333333
 40
0.4583333333333333
 40
0.4583333333333333
 40
0.4583333333333333
 40
0.5
 40
0.5
 40
0.5
 40
0.5
 40
0.5416666666666666
 40
0.5416666666666666
 40
0.5416666666666666
 40
0.5416666666666666
 40
0.5833333333333334
 40
0.5833333333333334
 40
0.5833333333333334
 40
0.5833333333333334
 40
0.625
 40
0.625
 40
0.625
 40
0.625
 40
0.6666666666666666
 40
0.6666666666666666
 40
0.6666666666666666
 40
0.6666666666666666
 40
0.7083333333333334
 40
0.7083333333333334
 40
0.7083333333333334
 40
0.7083333333333334
 40
0.75
 40
0.75
 40
0.75
 40
0.75
 40
0.7916666666666666
 40
0.7916666666666666
 40
0.7916666666666666
 40
0.7916666666666666
 40
0.8333333333333334
 40
0.8333333333333334
 40
0.8333333333333334
 40
0.8333333333333334
 40
0.875
 40
0.875
 40
0.875
 40
0.875
 40
0.9166666666666666
 40
0.9166666666666666
 40
0.9166666666666666
 40
0.9166666666666666
 40
1.0
 40
1.0
 40
1.0
 40
1.0
 10
-146.2735
 20
102.4973
 30
0.0
 10
-148.4846
 20
103.4724
 30
0.0
 10
-149.1516
 20
106.1053
 30
0.0
 10
-147.3793
 20
108.5166
 30
0.0
 10
-147.3793
 20
108.5166
 30
0.0
 10
-172.8197
 20
100.8822
 30
0.0
 10
-156.6279
 20
71.4915
 30
0.0
 10
-140.9056
 20
82.6293
 30
0.0
 10
-140.9056
 20
82.6293
 30
0.0
 10
-137.7435
 20
85.7914
 30
0.0
 10
-138.2704
 20
89.5295
 30
0.0
 10
-140.0138
 20
92.2315
 30
0.0
 10
-140.0138
 20
92.2315
 30
0.0
 10
-142.8028
 20
95.0224
 30
0.0
 10
-146.1784
 20
95.0025
 30
0.0
 10
-147.7026
 20
93.3794
 30
0.0
 10
-147.7026
 20
93.3794
 30
0.0
 10
-149.6623
 20
91.2928
 30
0.0
 10
-149.056
 20
87.0444
 30
0.0
 10
-145.4101
 20
87.8969
 30
0.0
 10
-145.4101
 20
87.8969
 30
0.0
 10
-144.3853
 20
88.0597
 30
0.0
 10
-143.0154
 20
87.7156
 30
0.0
 10
-143.3112
 20
86.1511
 30
0.0
 10
-143.3112
 20
86.1511
 30
0.0
 10
-143.5645
 20
84.8139
 30
0.0
 10
-144.2712
 20
84.3665
 30
0.0
 10
-146.8652
 20
84.1157
 30
0.0
 10
-146.8652
 20
84.1157
 30
0.0
 10
-153.6997
 20
83.4558
 30
0.0
 10
-155.0677
 20
92.2769
 30
0.0
 10
-150.6886
 20
96.3573
 30
0.0
 10
-150.6886
 20
96.3573
 30
0.0
 10
-146.7237
 20
100.051
 30
0.0
 10
-139.1726
 20
99.7972
 30
0.0
 10
-135.2125
 20
95.8366
 30
0.0
 10
-135.2125
 20
95.8366
 30
0.0
 10
-127.0948
 20
87.7189
 30
0.0
 10
-134.8948
 20
75.1061
 30
0.0
 10
-148.0245
 20
75.1189
 30
0.0
 10
-148.0245
 20
75.1189
 30
0.0
 10
-165.1745
 20
75.1355
 30
0.0
 10
-171.1871
 20
97.5838
 30
0.0
 10
-157.195
 20
109.3573
 30
0.0
 10
-157.195
 20
109.3573
 30
0.0
 10
-155.0833
 20
111.1338
 30
0.0
 10
-151.3996
 20
112.9548
 30
0.0
 10
-149.0091
 20
113.4031
 30
0.0
 10
-149.0091
 20
113.4031
 30
0.0
 10
-144.6404
 20
114.2225
 30
0.0
 10
-143.5252
 20
115.5938
 30
0.0
 10
-145.989
 20
117.1166
 30
0.0
 10
-145.989
 20
117.1166
 30
0.0
 10
-148.3753
 20
119.1478
 30
0.0
 10
-148.8131
 20
121.3177
 30
0.0
 10
-148.1594
 20
124.5257
 30
0.0
 10
-148.1594
 20
124.5257
 30
0.0
 10
-148.1594
 20
124.5257
 30
0.0
 10
-177.0895
 20
124.5257
 30
0.0
 10
-177.0895
 20
124.5257
 30
0.0
 10
-177.0895
 20
124.5257
 30
0.0
 10
-177.0895
 20
124.5257
 30
0.0
 10
-177.1046
 20
122.0425
 30
0.0
 10
-177.1046
 20
122.0425
 30
0.0
 10
-177.1046
 20
122.0425
 30
0.0
 10
-168.1945
 20
115.4021
 30
0.0
 10
-178.6113
 20
104.8333
 30
0.0
 10
-167.5342
 20
97.0991
 30
0.0
 10
-167.5342
 20
97.0991
 30
0.0
 10
-168.9386
 20
94.0459
 30
0.0
 10
-171.9241
 20
95.0063
 30
0.0
 10
-175.1283
 20
95.8475
 30
0.0
 10
-175.1283
 20
95.8475
 30
0.0
 10
-174.8325
 20
86.4512
 30
0.0
 10
-170.6172
 20
79.3219
 30
0.0
 10
-166.5084
 20
74.4562
 30
0.0
 10
-166.5084
 20
74.4562
 30
0.0
 10
-162.3295
 20
69.5077
 30
0.0
 10
-153.7778
 20
66.9051
 30
0.0
 10
-147.6397
 20
66.9321
 30
0.0
 10
-147.6397
 20
66.9321
 30
0.0
 10
-136.1303
 20
66.9823
 30
0.0
 10
-124.6238
 20
77.1653
 30
0.0
 10
-124.6238
 20
90.7768
 30
0.0
 10
-124.6238
 20
90.7768
 30
0.0
 10
-124.5159
 20
99.4261
 30
0.0
 10
-126.4732
 20
96.4728
 30
0.0
 10
-129.6869
 20
97.2747
 30
0.0
 10
-129.6869
 20
97.2747
 30
0.0
 10
-133.4629
 20
98.5476
 30
0.0
 10
-139.3487
 20
112.0176
 30
0.0
 10
-146.2735
 20
102.4973
 30
0.0
  0
SPLINE
  5
49
330
1F
100
AcDbEntity
  8
layer 1
 62
     7
100
AcDbSpline
210
0.0
220
0.0
230
1.0
 70
    11
 71
     3
 72
    16
 73
    12
 74
     0
 42
0.0000000001
 43
0.0000000001
 12
1.0
 22
0.0
 32
0.0
 13
1.0
 23
0.0
 33
0.0
 40
0.0
 40
0.0
 40
0.0
 40
0.0
 40
0.25
 40
0.25
 40
0.25
 40
0.25
 40
0.5
 40
0.5
 40
0.5
 40
0.5
 40
1.0
 40
1.0
 40
1.0
 40
1.0
 10
-179.4894
 20
78.7562
 30
0.0
 10
-172.8496
 20
69.7226
 30
0.0
 10
-165.2805
 20
64.5534
 30
0.0
 10
-154.1868
 20
60.7509
 30
0.0
 10
-154.1868
 20
60.7509
 30
0.0
 10
-165.635
 20
54.3596
 30
0.0
 10
-173.3887
 20
46.6594
 30
0.0
 10
-179.4894
 20
35.2442
 30
0.0
 10
-179.4894
 20
35.2442
 30
0.0
 10
-179.4894
 20
35.2442
 30
0.0
 10
-179.4894
 20
78.7562
 30
0.0
 10
-179.4894
 20
78.7562
 30
0.0
  0
SPLINE
  5
4A
330
1F
100
AcDbEntity
  8
layer 1
 62
     7
100
AcDbSpline
210
0.0
220
0.0
230
1.0
 70
    11
 71
     3
 72
    16
 73
    12
 74
     0
 42
0.0000000001
 43
0.0000000001
 12
1.0
 22
0.0
 32
0.0
 13
1.0
 23
0.0
 33
0.0
 40
0.0
 40
0.0
 40
0.0
 40
0.0
 40
0.25
 40
0.25
 40
0.25
 40
0.25
 40
0.5
 40
0.5
 40
0.5
 40
0.5
 40
1.0
 40
1.0
 40
1.0
 40
1.0
 10
-61.0005
 20
-61.888
 30
0.0
 10
-67.6403
 20
-52.8543
 30
0.0
 10
-74.9723
 20
-47.1569
 30
0.0
 10
-86.066
 20
-43.3544
 30
0.0
 10
-86.066
 20
-43.3544
 30
0.0
 10
-75.1857
 20
-36.8996
 30
0.0
 10
-67.9229
 20
-30.4056
 30
0.0
 10
-61.0005
 20
-17.9807
 30
0.0
 10
-61.0005
 20
-17.9807
 30
0.0
 10
-61.0005
 20
-17.9807
 30
0.0
 10
-61.0005
 20
-61.888
 30
0.0
 10
-61.0005
 20
-61.888
 30
0.0
  0
SPLINE
  5
4B
330
1F
100
AcDbEntity
  8
layer 1
 62
     7
100
AcDbSpline
210
0.0
220
0.0
230
1.0
 70
    11
 71
     3
 72
    64
 73
    60
 74
     0
 42
0.0000000001
 43
0.0000000001
 12
1.0
 22
0.0
 32
0.0
 13
1.0
 23
0.0
 33
0.0
 40
0.0
 40
0.0
 40
0.0
 40
0.0
 40
0.0625
 40
0.0625
 40
0.0625
 40
0.0625
 40
0.125
 40
0.125
 40
0.125
 40
0.125
 40
0.1875
 40
0.1875
 40
0.1875
 40
0.1875
 40
0.25
 40
0.25
 40
0.25
 40
0.25
 40
0.3125
 40
0.3125
 40
0.3125
 40
0.3125
 40
0.375
 40
0.375
 40
0.375
 40
0.375
 40
0.4375
 40
0.4375
 40
0.4375
 40
0.4375
 40
0.5
 40
0.5
 40
0.5
 40
0.5
 40
0.5625
 40
0.5625
 40
0.5625
 40
0.5625
 40
0.625
 40
0.625
 40
0.625
 40
0.625
 40
0.6875
 40
0.6875
 40
0.6875
 40
0.6875
 40
0.75
 40
0.75
 40
0.75
 40
0.75
 40
0.8125
 40
0.8125
 40
0.8125
 40
0.8125
 40
0.875
 40
0.875
 40
0.875
 40
0.875
 40
1.0
 40
1.0
 40
1.0
 40
1.0
 10
-116.2368
 20
-45.9281
 30
0.0
 10
-118.1155
 20
-45.9972
 30
0.0
 10
-117.5555
 20
-44.8498
 30
0.0
 10
-116.1444
 20
-44.4157
 30
0.0
 10
-116.1444
 20
-44.4157
 30
0.0
 10
-112.3135
 20
-42.6477
 30
0.0
 10
-111.0747
 20
-37.3697
 30
0.0
 10
-110.848
 20
-32.2773
 30
0.0
 10
-110.848
 20
-32.2773
 30
0.0
 10
-110.848
 20
-28.8586
 30
0.0
 10
-111.2726
 20
-28.0336
 30
0.0
 10
-112.7424
 20
-28.5978
 30
0.0
 10
-112.7424
 20
-28.5978
 30
0.0
 10
-115.9816
 20
-29.8409
 30
0.0
 10
-118.3626
 20
-26.5884
 30
0.0
 10
-118.3626
 20
-20.9213
 30
0.0
 10
-118.3626
 20
-20.9213
 30
0.0
 10
-118.3626
 20
-14.5167
 30
0.0
 10
-114.109
 20
-9.0058
 30
0.0
 10
-107.4043
 20
-9.0058
 30
0.0
 10
-107.4043
 20
-9.0058
 30
0.0
 10
-107.3773
 20
-10.6696
 30
0.0
 10
-107.3356
 20
-13.9879
 30
0.0
 10
-104.9049
 20
-14.0594
 30
0.0
 10
-104.9049
 20
-14.0594
 30
0.0
 10
-104.9049
 20
-14.0594
 30
0.0
 10
-103.2898
 20
-14.0755
 30
0.0
 10
-103.2898
 20
-14.0755
 30
0.0
 10
-103.2898
 20
-14.0755
 30
0.0
 10
-100.4387
 20
-14.0158
 30
0.0
 10
-100.5343
 20
-11.6192
 30
0.0
 10
-100.5329
 20
-9.2884
 30
0.0
 10
-100.5329
 20
-9.2884
 30
0.0
 10
-94.09
 20
-9.7253
 30
0.0
 10
-92.2955
 20
-16.7543
 30
0.0
 10
-97.2104
 20
-21.6692
 30
0.0
 10
-97.2104
 20
-21.6692
 30
0.0
 10
-99.7874
 20
-24.2462
 30
0.0
 10
-99.795
 20
-24.3711
 30
0.0
 10
-97.5233
 20
-26.5836
 30
0.0
 10
-97.5233
 20
-26.5836
 30
0.0
 10
-86.3903
 20
-35.8403
 30
0.0
 10
-76.8103
 20
-20.7229
 30
0.0
 10
-83.8014
 20
-9.2562
 30
0.0
 10
-83.8014
 20
-9.2562
 30
0.0
 10
-86.9502
 20
-4.2026
 30
0.0
 10
-96.0568
 20
0.4965
 30
0.0
 10
-100.514
 20
2.186
 30
0.0
 10
-100.514
 20
2.186
 30
0.0
 10
-100.514
 20
2.186
 30
0.0
 10
-100.5291
 20
3.6671
 30
0.0
 10
-100.5291
 20
3.6671
 30
0.0
 10
-100.5291
 20
3.6671
 30
0.0
 10
-83.5898
 20
-5.6742
 30
0.0
 10
-72.161
 20
-2.5188
 30
0.0
 10
-61.088
 20
7.2765
 30
0.0
 10
-61.088
 20
7.2765
 30
0.0
 10
-60.884
 20
-16.3249
 30
0.0
 10
-80.2503
 20
-42.6808
 30
0.0
 10
-116.2368
 20
-45.9281
 30
0.0
  0
SPLINE
  5
4C
330
1F
100
AcDbEntity
  8
layer 1
 62
     7
100
AcDbSpline
210
0.0
220
0.0
230
1.0
 70
    11
 71
     3
 72
    84
 73
    80
 74
     0
 42
0.0000000001
 43
0.0000000001
 12
1.0
 22
0.0
 32
0.0
 13
1.0
 23
0.0
 33
0.0
 40
0.0
 40
0.0
 40
0.0
 40
0.0
 40
0.0476190476190476
 40
0.0476190476190476
 40
0.0476190476190476
 40
0.0476190476190476
 40
0.0952380952380952
 40
0.0952380952380952
 40
0.0952380952380952
 40
0.0952380952380952
 40
0.1428571428571428
 40
0.1428571428571428
 40
0.1428571428571428
 40
0.1428571428571428
 40
0.1904761904761905
 40
0.1904761904761905
 40
0.1904761904761905
 40
0.1904761904761905
 40
0.2380952380952381
 40
0.2380952380952381
 40
0.2380952380952381
 40
0.2380952380952381
 40
0.2857142857142857
 40
0.2857142857142857
 40
0.2857142857142857
 40
0.2857142857142857
 40
0.3333333333333333
 40
0.3333333333333333
 40
0.3333333333333333
 40
0.3333333333333333
 40
0.3809523809523809
 40
0.3809523809523809
 40
0.3809523809523809
 40
0.3809523809523809
 40
0.4285714285714285
 40
0.4285714285714285
 40
0.4285714285714285
 40
0.4285714285714285
 40
0.4761904761904762
 40
0.4761904761904762
 40
0.4761904761904762
 40
0.4761904761904762
 40
0.5238095238095238
 40
0.5238095238095238
 40
0.5238095238095238
 40
0.5238095238095238
 40
0.5714285714285714
 40
0.5714285714285714
 40
0.5714285714285714
 40
0.5714285714285714
 40
0.6190476190476191
 40
0.6190476190476191
 40
0.6190476190476191
 40
0.6190476190476191
 40
0.6666666666666666
 40
0.6666666666666666
 40
0.6666666666666666
 40
0.6666666666666666
 40
0.7142857142857143
 40
0.7142857142857143
 40
0.7142857142857143
 40
0.7142857142857143
 40
0.7619047619047619
 40
0.7619047619047619
 40
0.7619047619047619
 40
0.7619047619047619
 40
0.8095238095238095
 40
0.8095238095238095
 40
0.8095238095238095
 40
0.8095238095238095
 40
0.8571428571428571
 40
0.8571428571428571
 40
0.8571428571428571
 40
0.8571428571428571
 40
0.9047619047619048
 40
0.9047619047619048
 40
0.9047619047619048
 40
0.9047619047619048
 40
1.0
 40
1.0
 40
1.0
 40
1.0
 10
-92.152
 20
-107.2627
 30
0.0
 10
-91.8557
 20
-104.0528
 30
0.0
 10
-92.9317
 20
-100.3341
 30
0.0
 10
-95.4873
 20
-98.1154
 30
0.0
 10
-95.4873
 20
-98.1154
 30
0.0
 10
-78.7966
 20
-97.4182
 30
0.0
 10
-70.846
 20
-79.4772
 30
0.0
 10
-77.2368
 20
-66.5208
 30
0.0
 10
-77.2368
 20
-66.5208
 30
0.0
 10
-88.2648
 20
-46.8436
 30
0.0
 10
-112.2733
 20
-58.138
 30
0.0
 10
-107.0748
 20
-74.8066
 30
0.0
 10
-107.0748
 20
-74.8066
 30
0.0
 10
-103.5322
 20
-85.5401
 30
0.0
 10
-87.8421
 20
-83.2509
 30
0.0
 10
-87.0515
 20
-73.466
 30
0.0
 10
-87.0515
 20
-73.466
 30
0.0
 10
-86.7074
 20
-67.397
 30
0.0
 10
-95.3089
 20
-64.4409
 30
0.0
 10
-96.836
 20
-69.432
 30
0.0
 10
-96.836
 20
-69.432
 30
0.0
 10
-97.1209
 20
-70.9278
 30
0.0
 10
-96.6703
 20
-71.396
 30
0.0
 10
-95.4097
 20
-70.9122
 30
0.0
 10
-95.4097
 20
-70.9122
 30
0.0
 10
-92.7163
 20
-69.8784
 30
0.0
 10
-91.4519
 20
-72.8085
 30
0.0
 10
-93.6455
 20
-75.0016
 30
0.0
 10
-93.6455
 20
-75.0016
 30
0.0
 10
-96.5056
 20
-77.8617
 30
0.0
 10
-100.8283
 20
-75.0939
 30
0.0
 10
-100.8283
 20
-70.4024
 30
0.0
 10
-100.8283
 20
-70.4024
 30
0.0
 10
-100.8283
 20
-64.2165
 30
0.0
 10
-92.7707
 20
-58.6545
 30
0.0
 10
-85.7294
 20
-64.1502
 30
0.0
 10
-85.7294
 20
-64.1502
 30
0.0
 10
-74.6613
 20
-72.7167
 30
0.0
 10
-81.6287
 20
-89.5537
 30
0.0
 10
-91.8647
 20
-90.7617
 30
0.0
 10
-91.8647
 20
-90.7617
 30
0.0
 10
-87.7341
 20
-86.7022
 30
0.0
 10
-91.2138
 20
-83.8724
 30
0.0
 10
-91.2138
 20
-83.8724
 30
0.0
 10
-91.2138
 20
-83.8724
 30
0.0
 10
-107.0521
 20
-93.859
 30
0.0
 10
-106.956
 20
-76.5258
 30
0.0
 10
-115.8675
 20
-78.1712
 30
0.0
 10
-115.8675
 20
-78.1712
 30
0.0
 10
-115.8675
 20
-78.1712
 30
0.0
 10
-115.2469
 20
-71.946
 30
0.0
 10
-115.2469
 20
-71.946
 30
0.0
 10
-115.2469
 20
-71.946
 30
0.0
 10
-114.1156
 20
-60.5962
 30
0.0
 10
-110.101
 20
-55.4782
 30
0.0
 10
-101.9573
 20
-51.3216
 30
0.0
 10
-101.9573
 20
-51.3216
 30
0.0
 10
-87.6328
 20
-44.0105
 30
0.0
 10
-72.4147
 20
-55.0621
 30
0.0
 10
-65.2664
 20
-75.8617
 30
0.0
 10
-65.2664
 20
-75.8617
 30
0.0
 10
-64.2004
 20
-78.9632
 30
0.0
 10
-64.6724
 20
-79.392
 30
0.0
 10
-66.8896
 20
-78.8122
 30
0.0
 10
-66.8896
 20
-78.8122
 30
0.0
 10
-70.1454
 20
-78.2872
 30
0.0
 10
-72.7001
 20
-80.6559
 30
0.0
 10
-73.0372
 20
-82.1669
 30
0.0
 10
-73.0372
 20
-82.1669
 30
0.0
 10
-70.7967
 20
-82.2298
 30
0.0
 10
-67.0127
 20
-89.6688
 30
0.0
 10
-67.0127
 20
-95.1621
 30
0.0
 10
-67.0127
 20
-95.1621
 30
0.0
 10
-66.7651
 20
-100.0416
 30
0.0
 10
-66.4607
 20
-104.2999
 30
0.0
 10
-62.4239
 20
-107.2632
 30
0.0
 10
-62.4239
 20
-107.2632
 30
0.0
 10
-62.4239
 20
-107.2632
 30
0.0
 10
-92.152
 20
-107.2627
 30
0.0
 10
-92.152
 20
-107.2627
 30
0.0
  0
SPLINE
  5
4D
330
1F
100
AcDbEntity
  8
layer 1
 62
     7
100
AcDbSpline
210
0.0
220
0.0
230
1.0
 70
    11
 71
     3
 72
    24
 73
    20
 74
     0
 42
0.0000000001
 43
0.0000000001
 12
1.0
 22
0.0
 32
0.0
 13
1.0
 23
0.0
 33
0.0
 40
0.0
 40
0.0
 40
0.0
 40
0.0
 40
0.1666666666666667
 40
0.1666666666666667
 40
0.1666666666666667
 40
0.1666666666666667
 40
0.3333333333333333
 40
0.3333333333333333
 40
0.3333333333333333
 40
0.3333333333333333
 40
0.5
 40
0.5
 40
0.5
 40
0.5
 40
0.6666666666666666
 40
0.6666666666666666
 40
0.6666666666666666
 40
0.6666666666666666
 40
1.0
 40
1.0
 40
1.0
 40
1.0
 10
-142.5737
 20
-107.2627
 30
0.0
 10
-142.5733
 20
-106.5063
 30
0.0
 10
-140.2618
 20
-100.8633
 30
0.0
 10
-134.0139
 20
-99.9275
 30
0.0
 10
-134.0139
 20
-99.9275
 30
0.0
 10
-125.2856
 20
-99.2255
 30
0.0
 10
-121.5512
 20
-86.9971
 30
0.0
 10
-120.1751
 20
-78.3549
 30
0.0
 10
-120.1751
 20
-78.3549
 30
0.0
 10
-119.5039
 20
-91.7184
 30
0.0
 10
-116.0763
 20
-97.4603
 30
0.0
 10
-105.8592
 20
-100.1528
 30
0.0
 10
-105.8592
 20
-100.1528
 30
0.0
 10
-95.7827
 20
-102.5987
 30
0.0
 10
-95.5375
 20
-105.6779
 30
0.0
 10
-96.1434
 20
-107.2622
 30
0.0
 10
-96.1434
 20
-107.2622
 30
0.0
 10
-96.1434
 20
-107.2622
 30
0.0
 10
-142.5737
 20
-107.2627
 30
0.0
 10
-142.5737
 20
-107.2627
 30
0.0
  0
SPLINE
  5
4E
330
1F
100
AcDbEntity
  8
layer 1
 62
     7
100
AcDbSpline
210
0.0
220
0.0
230
1.0
 70
    11
 71
     3
 72
    32
 73
    28
 74
     0
 42
0.0000000001
 43
0.0000000001
 12
1.0
 22
0.0
 32
0.0
 13
1.0
 23
0.0
 33
0.0
 40
0.0
 40
0.0
 40
0.0
 40
0.0
 40
0.125
 40
0.125
 40
0.125
 40
0.125
 40
0.25
 40
0.25
 40
0.25
 40
0.25
 40
0.375
 40
0.375
 40
0.375
 40
0.375
 40
0.5
 40
0.5
 40
0.5
 40
0.5
 40
0.625
 40
0.625
 40
0.625
 40
0.625
 40
0.75
 40
0.75
 40
0.75
 40
0.75
 40
1.0
 40
1.0
 40
1.0
 40
1.0
 10
-133.1221
 20
-11.2727
 30
0.0
 10
-142.0933
 20
-22.855
 30
0.0
 10
-142.6765
 20
-34.2521
 30
0.0
 10
-132.7406
 20
-44.828
 30
0.0
 10
-132.7406
 20
-44.828
 30
0.0
 10
-156.0049
 20
-40.3476
 30
0.0
 10
-178.4684
 20
-21.5508
 30
0.0
 10
-179.4629
 20
6.9977
 30
0.0
 10
-179.4629
 20
6.9977
 30
0.0
 10
-177.5269
 20
6.9977
 30
0.0
 10
-169.6903
 20
2.5812
 30
0.0
 10
-164.7025
 20
-1.8012
 30
0.0
 10
-164.7025
 20
-1.8012
 30
0.0
 10
-152.2469
 20
-12.7449
 30
0.0
 10
-146.9575
 20
-13.0748
 30
0.0
 10
-128.2753
 20
-4.0743
 30
0.0
 10
-128.2753
 20
-4.0743
 30
0.0
 10
-119.1735
 20
0.3105
 30
0.0
 10
-111.2352
 20
3.3116
 30
0.0
 10
-107.311
 20
3.9189
 30
0.0
 10
-107.311
 20
3.9189
 30
0.0
 10
-107.311
 20
3.9189
 30
0.0
 10
-107.364
 20
2.1159
 30
0.0
 10
-107.364
 20
2.1159
 30
0.0
 10
-107.364
 20
2.1159
 30
0.0
 10
-117.1106
 20
-0.8478
 30
0.0
 10
-126.3852
 20
-2.5742
 30
0.0
 10
-133.1221
 20
-11.2727
 30
0.0
  0
SPLINE
  5
4F
330
1F
100
AcDbEntity
  8
layer 1
 62
     7
100
AcDbSpline
210
0.0
220
0.0
230
1.0
 70
    11
 71
     3
 72
    16
 73
    12
 74
     0
 42
0.0000000001
 43
0.0000000001
 12
1.0
 22
0.0
 32
0.0
 13
1.0
 23
0.0
 33
0.0
 40
0.0
 40
0.0
 40
0.0
 40
0.0
 40
0.25
 40
0.25
 40
0.25
 40
0.25
 40
0.5
 40
0.5
 40
0.5
 40
0.5
 40
1.0
 40
1.0
 40
1.0
 40
1.0
 10
-127.232
 20
-51.8343
 30
0.0
 10
-121.3107
 20
-52.1883
 30
0.0
 10
-117.0372
 20
-52.1017
 30
0.0
 10
-111.9301
 20
-51.589
 30
0.0
 10
-111.9301
 20
-51.589
 30
0.0
 10
-116.2036
 20
-57.2528
 30
0.0
 10
-118.1321
 20
-62.0409
 30
0.0
 10
-119.9351
 20
-68.4971
 30
0.0
 10
-119.9351
 20
-68.4971
 30
0.0
 10
-121.2833
 20
-62.209
 30
0.0
 10
-123.1318
 20
-57.214
 30
0.0
 10
-127.232
 20
-51.8343
 30
0.0
  0
SPLINE
  5
50
330
1F
100
AcDbEntity
  8
layer 1
 62
     7
100
AcDbSpline
210
0.0
220
0.0
230
1.0
 70
    11
 71
     3
 72
    96
 73
    92
 74
     0
 42
0.0000000001
 43
0.0000000001
 12
1.0
 22
0.0
 32
0.0
 13
1.0
 23
0.0
 33
0.0
 40
0.0
 40
0.0
 40
0.0
 40
0.0
 40
0.0416666666666667
 40
0.0416666666666667
 40
0.0416666666666667
 40
0.0416666666666667
 40
0.0833333333333333
 40
0.0833333333333333
 40
0.0833333333333333
 40
0.0833333333333333
 40
0.125
 40
0.125
 40
0.125
 40
0.125
 40
0.1666666666666667
 40
0.1666666666666667
 40
0.1666666666666667
 40
0.1666666666666667
 40
0.2083333333333333
 40
0.2083333333333333
 40
0.2083333333333333
 40
0.2083333333333333
 40
0.25
 40
0.25
 40
0.25
 40
0.25
 40
0.2916666666666667
 40
0.2916666666666667
 40
0.2916666666666667
 40
0.2916666666666667
 40
0.3333333333333333
 40
0.3333333333333333
 40
0.3333333333333333
 40
0.3333333333333333
 40
0.375
 40
0.375
 40
0.375
 40
0.375
 40
0.4166666666666667
 40
0.4166666666666667
 40
0.4166666666666667
 40
0.4166666666666667
 40
0.4583333333333333
 40
0.4583333333333333
 40
0.4583333333333333
 40
0.4583333333333333
 40
0.5
 40
0.5
 40
0.5
 40
0.5
 40
0.5416666666666666
 40
0.5416666666666666
 40
0.5416666666666666
 40
0.5416666666666666
 40
0.5833333333333334
 40
0.5833333333333334
 40
0.5833333333333334
 40
0.5833333333333334
 40
0.625
 40
0.625
 40
0.625
 40
0.625
 40
0.6666666666666666
 40
0.6666666666666666
 40
0.6666666666666666
 40
0.6666666666666666
 40
0.7083333333333334
 40
0.7083333333333334
 40
0.7083333333333334
 40
0.7083333333333334
 40
0.75
 40
0.75
 40
0.75
 40
0.75
 40
0.7916666666666666
 40
0.7916666666666666
 40
0.7916666666666666
 40
0.7916666666666666
 40
0.8333333333333334
 40
0.8333333333333334
 40
0.8333333333333334
 40
0.8333333333333334
 40
0.875
 40
0.875
 40
0.875
 40
0.875
 40
0.9166666666666666
 40
0.9166666666666666
 40
0.9166666666666666
 40
0.9166666666666666
 40
1.0
 40
1.0
 40
1.0
 40
1.0
 10
-146.2735
 20
-85.2338
 30
0.0
 10
-148.4846
 20
-86.2089
 30
0.0
 10
-149.1516
 20
-88.8418
 30
0.0
 10
-147.3793
 20
-91.2531
 30
0.0
 10
-147.3793
 20
-91.2531
 30
0.0
 10
-172.8197
 20
-83.6187
 30
0.0
 10
-156.6279
 20
-54.228
 30
0.0
 10
-140.9056
 20
-65.3658
 30
0.0
 10
-140.9056
 20
-65.3658
 30
0.0
 10
-137.7435
 20
-68.5279
 30
0.0
 10
-138.2704
 20
-72.266
 30
0.0
 10
-140.0138
 20
-74.968
 30
0.0
 10
-140.0138
 20
-74.968
 30
0.0
 10
-142.8028
 20
-77.7589
 30
0.0
 10
-146.1784
 20
-77.7391
 30
0.0
 10
-147.7026
 20
-76.1159
 30
0.0
 10
-147.7026
 20
-76.1159
 30
0.0
 10
-149.6623
 20
-74.0293
 30
0.0
 10
-149.056
 20
-69.7809
 30
0.0
 10
-145.4101
 20
-70.6334
 30
0.0
 10
-145.4101
 20
-70.6334
 30
0.0
 10
-144.3853
 20
-70.7962
 30
0.0
 10
-143.0154
 20
-70.4521
 30
0.0
 10
-143.3112
 20
-68.8876
 30
0.0
 10
-143.3112
 20
-68.8876
 30
0.0
 10
-143.5645
 20
-67.5504
 30
0.0
 10
-144.2712
 20
-67.1031
 30
0.0
 10
-146.8652
 20
-66.8522
 30
0.0
 10
-146.8652
 20
-66.8522
 30
0.0
 10
-153.6997
 20
-66.1923
 30
0.0
 10
-155.0677
 20
-75.0134
 30
0.0
 10
-150.6886
 20
-79.0938
 30
0.0
 10
-150.6886
 20
-79.0938
 30
0.0
 10
-146.7237
 20
-82.7875
 30
0.0
 10
-139.1726
 20
-82.5337
 30
0.0
 10
-135.2125
 20
-78.5731
 30
0.0
 10
-135.2125
 20
-78.5731
 30
0.0
 10
-127.0948
 20
-70.4554
 30
0.0
 10
-134.8948
 20
-57.8427
 30
0.0
 10
-148.0245
 20
-57.8554
 30
0.0
 10
-148.0245
 20
-57.8554
 30
0.0
 10
-165.1745
 20
-57.872
 30
0.0
 10
-171.1871
 20
-80.3203
 30
0.0
 10
-157.195
 20
-92.0938
 30
0.0
 10
-157.195
 20
-92.0938
 30
0.0
 10
-155.0833
 20
-93.8703
 30
0.0
 10
-151.3996
 20
-95.6914
 30
0.0
 10
-149.0091
 20
-96.1396
 30
0.0
 10
-149.0091
 20
-96.1396
 30
0.0
 10
-144.6404
 20
-96.959
 30
0.0
 10
-143.5252
 20
-98.3303
 30
0.0
 10
-145.989
 20
-99.8532
 30
0.0
 10
-145.989
 20
-99.8532
 30
0.0
 10
-148.3753
 20
-101.8844
 30
0.0
 10
-148.8131
 20
-104.0543
 30
0.0
 10
-148.1594
 20
-107.2622
 30
0.0
 10
-148.1594
 20
-107.2622
 30
0.0
 10
-148.1594
 20
-107.2622
 30
0.0
 10
-177.0895
 20
-107.2622
 30
0.0
 10
-177.0895
 20
-107.2622
 30
0.0
 10
-177.0895
 20
-107.2622
 30
0.0
 10
-177.0895
 20
-107.2622
 30
0.0
 10
-177.1046
 20
-104.779
 30
0.0
 10
-177.1046
 20
-104.779
 30
0.0
 10
-177.1046
 20
-104.779
 30
0.0
 10
-168.1945
 20
-98.1386
 30
0.0
 10
-178.6113
 20
-87.5699
 30
0.0
 10
-167.5342
 20
-79.8356
 30
0.0
 10
-167.5342
 20
-79.8356
 30
0.0
 10
-168.9386
 20
-76.7824
 30
0.0
 10
-171.9241
 20
-77.7428
 30
0.0
 10
-175.1283
 20
-78.584
 30
0.0
 10
-175.1283
 20
-78.584
 30
0.0
 10
-174.8325
 20
-69.1877
 30
0.0
 10
-170.6172
 20
-62.0584
 30
0.0
 10
-166.5084
 20
-57.1927
 30
0.0
 10
-166.5084
 20
-57.1927
 30
0.0
 10
-162.3295
 20
-52.2442
 30
0.0
 10
-153.7778
 20
-49.6416
 30
0.0
 10
-147.6397
 20
-49.6686
 30
0.0
 10
-147.6397
 20
-49.6686
 30
0.0
 10
-136.1303
 20
-49.7188
 30
0.0
 10
-124.6238
 20
-59.9018
 30
0.0
 10
-124.6238
 20
-73.5133
 30
0.0
 10
-124.6238
 20
-73.5133
 30
0.0
 10
-124.5159
 20
-82.1626
 30
0.0
 10
-126.4732
 20
-79.2093
 30
0.0
 10
-129.6869
 20
-80.0112
 30
0.0
 10
-129.6869
 20
-80.0112
 30
0.0
 10
-133.4629
 20
-81.2841
 30
0.0
 10
-139.3487
 20
-94.7541
 30
0.0
 10
-146.2735
 20
-85.2338
 30
0.0
  0
SPLINE
  5
51
330
1F
100
AcDbEntity
  8
layer 1
 62
     7
100
AcDbSpline
210
0.0
220
0.0
230
1.0
 70
    11
 71
     3
 72
    16
 73
    12
 74
     0
 42
0.0000000001
 43
0.0000000001
 12
1.0
 22
0.0
 32
0.0
 13
1.0
 23
0.0
 33
0.0
 40
0.0
 40
0.0
 40
0.0
 40
0.0
 40
0.25
 40
0.25
 40
0.25
 40
0.25
 40
0.5
 40
0.5
 40
0.5
 40
0.5
 40
1.0
 40
1.0
 40
1.0
 40
1.0
 10
-179.4894
 20
-61.4928
 30
0.0
 10
-172.8496
 20
-52.4591
 30
0.0
 10
-165.2805
 20
-47.29
 30
0.0
 10
-154.1868
 20
-43.4874
 30
0.0
 10
-154.1868
 20
-43.4874
 30
0.0
 10
-165.635
 20
-37.0961
 30
0.0
 10
-173.3887
 20
-29.3959
 30
0.0
 10
-179.4894
 20
-17.9807
 30
0.0
 10
-179.4894
 20
-17.9807
 30
0.0
 10
-179.4894
 20
-17.9807
 30
0.0
 10
-179.4894
 20
-61.4928
 30
0.0
 10
-179.4894
 20
-61.4928
 30
0.0
  0
LWPOLYLINE
  5
52
330
1F
100
AcDbEntity
  8
layer 1
 62
   250
100
AcDbPolyline
 90
        5
 70
     1
 43
0.0
 10
-7.5242
 20
-114.9251
 10
196.114
 20
-114.9251
 10
196.114
 20
131.8537
 10
-7.5242
 20
131.8537
 10
-7.5242
 20
-114.9251
  0
SPLINE
  5
53
330
1F
100
AcDbEntity
  8
layer 1
 62
     7
100
AcDbSpline
210
0.0
220
0.0
230
1.0
 70
    11
 71
     3
 72
   108
 73
   104
 74
     0
 42
0.0000000001
 43
0.0000000001
 12
1.0
 22
0.0
 32
0.0
 13
1.0
 23
0.0
 33
0.0
 40
0.0
 40
0.0
 40
0.0
 40
0.0
 40
0.037037037037037
 40
0.037037037037037
 40
0.037037037037037
 40
0.037037037037037
 40
0.0740740740740741
 40
0.0740740740740741
 40
0.0740740740740741
 40
0.0740740740740741
 40
0.1111111111111111
 40
0.1111111111111111
 40
0.1111111111111111
 40
0.1111111111111111
 40
0.1481481481481481
 40
0.1481481481481481
 40
0.1481481481481481
 40
0.1481481481481481
 40
0.1851851851851852
 40
0.1851851851851852
 40
0.1851851851851852
 40
0.1851851851851852
 40
0.2222222222222222
 40
0.2222222222222222
 40
0.2222222222222222
 40
0.2222222222222222
 40
0.2592592592592592
 40
0.2592592592592592
 40
0.2592592592592592
 40
0.2592592592592592
 40
0.2962962962962963
 40
0.2962962962962963
 40
0.2962962962962963
 40
0.2962962962962963
 40
0.3333333333333333
 40
0.3333333333333333
 40
0.3333333333333333
 40
0.3333333333333333
 40
0.3703703703703703
 40
0.3703703703703703
 40
0.3703703703703703
 40
0.3703703703703703
 40
0.4074074074074074
 40
0.4074074074074074
 40
0.4074074074074074
 40
0.4074074074074074
 40
0.4444444444444444
 40
0.4444444444444444
 40
0.4444444444444444
 40
0.4444444444444444
 40
0.4814814814814815
 40
0.4814814814814815
 40
0.4814814814814815
 40
0.4814814814814815
 40
0.5185185185185185
 40
0.5185185185185185
 40
0.5185185185185185
 40
0.5185185185185185
 40
0.5555555555555556
 40
0.5555555555555556
 40
0.5555555555555556
 40
0.5555555555555556
 40
0.5925925925925926
 40
0.5925925925925926
 40
0.5925925925925926
 40
0.5925925925925926
 40
0.6296296296296297
 40
0.6296296296296297
 40
0.6296296296296297
 40
0.6296296296296297
 40
0.6666666666666666
 40
0.6666666666666666
 40
0.6666666666666666
 40
0.6666666666666666
 40
0.7037037037037037
 40
0.7037037037037037
 40
0.7037037037037037
 40
0.7037037037037037
 40
0.7407407407407407
 40
0.7407407407407407
 40
0.7407407407407407
 40
0.7407407407407407
 40
0.7777777777777778
 40
0.7777777777777778
 40
0.7777777777777778
 40
0.7777777777777778
 40
0.8148148148148148
 40
0.8148148148148148
 40
0.8148148148148148
 40
0.8148148148148148
 40
0.8518518518518519
 40
0.8518518518518519
 40
0.8518518518518519
 40
0.8518518518518519
 40
0.8888888888888888
 40
0.8888888888888888
 40
0.8888888888888888
 40
0.8888888888888888
 40
0.9259259259259259
 40
0.9259259259259259
 40
0.9259259259259259
 40
0.9259259259259259
 40
1.0
 40
1.0
 40
1.0
 40
1.0
 10
137.8251
 20
59.7334
 30
0.0
 10
140.0359
 20
62.0759
 30
0.0
 10
142.051
 20
67.4548
 30
0.0
 10
141.687
 20
68.7643
 30
0.0
 10
141.687
 20
68.7643
 30
0.0
 10
141.3087
 20
70.1248
 30
0.0
 10
139.1996
 20
69.0705
 30
0.0
 10
137.1302
 20
68.7962
 30
0.0
 10
137.1302
 20
68.7962
 30
0.0
 10
129.9955
 20
69.827
 30
0.0
 10
138.628
 20
77.4637
 30
0.0
 10
130.5134
 20
79.9354
 30
0.0
 10
130.5134
 20
79.9354
 30
0.0
 10
136.1885
 20
82.6946
 30
0.0
 10
139.1231
 20
80.1888
 30
0.0
 10
139.1149
 20
75.9888
 30
0.0
 10
139.1149
 20
75.9888
 30
0.0
 10
139.306
 20
72.7607
 30
0.0
 10
140.5123
 20
72.0933
 30
0.0
 10
141.3997
 20
73.4943
 30
0.0
 10
141.3997
 20
73.4943
 30
0.0
 10
142.4256
 20
75.1139
 30
0.0
 10
142.0294
 20
76.9803
 30
0.0
 10
140.0174
 20
80.0069
 30
0.0
 10
140.0174
 20
80.0069
 30
0.0
 10
137.9066
 20
83.1822
 30
0.0
 10
137.6116
 20
85.1755
 30
0.0
 10
138.7633
 20
88.4794
 30
0.0
 10
138.7633
 20
88.4794
 30
0.0
 10
139.6207
 20
90.9393
 30
0.0
 10
140.1353
 20
91.0756
 30
0.0
 10
141.0149
 20
89.0762
 30
0.0
 10
141.0149
 20
89.0762
 30
0.0
 10
141.3728
 20
88.2623
 30
0.0
 10
142.1589
 20
87.5038
 30
0.0
 10
142.7617
 20
87.3907
 30
0.0
 10
142.7617
 20
87.3907
 30
0.0
 10
143.6675
 20
87.2205
 30
0.0
 10
143.806
 20
87.6204
 30
0.0
 10
143.5593
 20
89.6944
 30
0.0
 10
143.5593
 20
89.6944
 30
0.0
 10
143.352
 20
91.4382
 30
0.0
 10
143.7216
 20
93.1648
 30
0.0
 10
144.7709
 20
95.3531
 30
0.0
 10
144.7709
 20
95.3531
 30
0.0
 10
144.7709
 20
95.3531
 30
0.0
 10
146.2809
 20
98.502
 30
0.0
 10
146.2809
 20
98.502
 30
0.0
 10
146.2809
 20
98.502
 30
0.0
 10
146.2809
 20
98.502
 30
0.0
 10
148.2263
 20
96.0466
 30
0.0
 10
148.2263
 20
96.0466
 30
0.0
 10
148.2263
 20
96.0466
 30
0.0
 10
149.7488
 20
94.1246
 30
0.0
 10
150.2322
 20
92.7539
 30
0.0
 10
150.4502
 20
89.738
 30
0.0
 10
150.4502
 20
89.738
 30
0.0
 10
150.7597
 20
85.461
 30
0.0
 10
151.5721
 20
85.0863
 30
0.0
 10
153.2762
 20
88.4343
 30
0.0
 10
153.2762
 20
88.4343
 30
0.0
 10
154.5777
 20
90.9911
 30
0.0
 10
155.1815
 20
90.5302
 30
0.0
 10
155.1815
 20
86.98
 30
0.0
 10
155.1815
 20
86.98
 30
0.0
 10
155.1815
 20
83.0337
 30
0.0
 10
154.3079
 20
80.6012
 30
0.0
 10
151.6316
 20
77.0952
 30
0.0
 10
151.6316
 20
77.0952
 30
0.0
 10
147.7057
 20
71.9521
 30
0.0
 10
148.6698
 20
69.3944
 30
0.0
 10
153.2765
 20
72.7318
 30
0.0
 10
153.2765
 20
72.7318
 30
0.0
 10
156.8792
 20
75.3414
 30
0.0
 10
158.7936
 20
75.3315
 30
0.0
 10
160.1569
 20
72.6951
 30
0.0
 10
160.1569
 20
72.6951
 30
0.0
 10
161.4843
 20
70.128
 30
0.0
 10
161.0483
 20
68.8684
 30
0.0
 10
158.9701
 20
69.2656
 30
0.0
 10
158.9701
 20
69.2656
 30
0.0
 10
157.7311
 20
69.5023
 30
0.0
 10
156.7212
 20
68.8816
 30
0.0
 10
154.3936
 20
66.4528
 30
0.0
 10
154.3936
 20
66.4528
 30
0.0
 10
151.8437
 20
63.7921
 30
0.0
 10
151.1495
 20
63.4006
 30
0.0
 10
149.6479
 20
63.7776
 30
0.0
 10
149.6479
 20
63.7776
 30
0.0
 10
148.3775
 20
64.0963
 30
0.0
 10
147.7802
 20
64.7634
 30
0.0
 10
147.4972
 20
66.1792
 30
0.0
 10
147.4972
 20
66.1792
 30
0.0
 10
146.8854
 20
69.2382
 30
0.0
 10
144.9241
 20
68.7448
 30
0.0
 10
143.2115
 20
65.1013
 30
0.0
 10
143.2115
 20
65.1013
 30
0.0
 10
141.7812
 20
62.059
 30
0.0
 10
137.7828
 20
57.5906
 30
0.0
 10
136.4905
 20
57.5906
 30
0.0
 10
136.4905
 20
57.5906
 30
0.0
 10
136.1125
 20
57.5906
 30
0.0
 10
136.713
 20
58.555
 30
0.0
 10
137.8251
 20
59.7334
 30
0.0
  0
SPLINE
  5
54
330
1F
100
AcDbEntity
  8
layer 1
 62
     7
100
AcDbSpline
210
0.0
220
0.0
230
1.0
 70
    11
 71
     3
 72
    20
 73
    16
 74
     0
 42
0.0000000001
 43
0.0000000001
 12
1.0
 22
0.0
 32
0.0
 13
1.0
 23
0.0
 33
0.0
 40
0.0
 40
0.0
 40
0.0
 40
0.0
 40
0.2
 40
0.2
 40
0.2
 40
0.2
 40
0.4
 40
0.4
 40
0.4
 40
0.4
 40
0.6
 40
0.6
 40
0.6
 40
0.6
 40
1.0
 40
1.0
 40
1.0
 40
1.0
 10
171.3323
 20
99.4011
 30
0.0
 10
167.6372
 20
103.5395
 30
0.0
 10
168.6633
 20
101.5181
 30
0.0
 10
173.4122
 20
95.3048
 30
0.0
 10
173.4122
 20
95.3048
 30
0.0
 10
177.9735
 20
89.3366
 30
0.0
 10
181.2246
 20
83.3048
 30
0.0
 10
182.0128
 20
79.3476
 30
0.0
 10
182.0128
 20
79.3476
 30
0.0
 10
182.2998
 20
77.9068
 30
0.0
 10
182.6574
 20
77.6658
 30
0.0
 10
182.7274
 20
79.5701
 30
0.0
 10
182.7274
 20
79.5701
 30
0.0
 10
180.6966
 20
86.4094
 30
0.0
 10
176.1052
 20
93.9666
 30
0.0
 10
171.3323
 20
99.4011
 30
0.0
  0
SPLINE
  5
55
330
1F
100
AcDbEntity
  8
layer 1
 62
     7
100
AcDbSpline
210
0.0
220
0.0
230
1.0
 70
    11
 71
     3
 72
    24
 73
    20
 74
     0
 42
0.0000000001
 43
0.0000000001
 12
1.0
 22
0.0
 32
0.0
 13
1.0
 23
0.0
 33
0.0
 40
0.0
 40
0.0
 40
0.0
 40
0.0
 40
0.1666666666666667
 40
0.1666666666666667
 40
0.1666666666666667
 40
0.1666666666666667
 40
0.3333333333333333
 40
0.3333333333333333
 40
0.3333333333333333
 40
0.3333333333333333
 40
0.5
 40
0.5
 40
0.5
 40
0.5
 40
0.6666666666666666
 40
0.6666666666666666
 40
0.6666666666666666
 40
0.6666666666666666
 40
1.0
 40
1.0
 40
1.0
 40
1.0
 10
179.9448
 20
63.2304
 30
0.0
 10
180.7542
 20
68.6277
 30
0.0
 10
178.3837
 20
78.6882
 30
0.0
 10
176.3025
 20
78.6882
 30
0.0
 10
176.3025
 20
78.6882
 30
0.0
 10
175.912
 20
78.6882
 30
0.0
 10
176.2624
 20
77.4274
 30
0.0
 10
177.0812
 20
75.8862
 30
0.0
 10
177.0812
 20
75.8862
 30
0.0
 10
178.3304
 20
73.5344
 30
0.0
 10
178.5711
 20
72.0512
 30
0.0
 10
178.578
 20
66.6567
 30
0.0
 10
178.578
 20
66.6567
 30
0.0
 10
178.587
 20
59.8208
 30
0.0
 10
179.2022
 20
58.2784
 30
0.0
 10
179.9448
 20
63.2301
 30
0.0
 10
179.9448
 20
63.2301
 30
0.0
 10
179.9448
 20
63.2301
 30
0.0
 10
179.9448
 20
63.2304
 30
0.0
 10
179.9448
 20
63.2304
 30
0.0
  0
SPLINE
  5
56
330
1F
100
AcDbEntity
  8
layer 1
 62
     7
100
AcDbSpline
210
0.0
220
0.0
230
1.0
 70
    11
 71
     3
 72
   124
 73
   120
 74
     0
 42
0.0000000001
 43
0.0000000001
 12
1.0
 22
0.0
 32
0.0
 13
1.0
 23
0.0
 33
0.0
 40
0.0
 40
0.0
 40
0.0
 40
0.0
 40
0.032258064516129
 40
0.032258064516129
 40
0.032258064516129
 40
0.032258064516129
 40
0.0645161290322581
 40
0.0645161290322581
 40
0.0645161290322581
 40
0.0645161290322581
 40
0.0967741935483871
 40
0.0967741935483871
 40
0.0967741935483871
 40
0.0967741935483871
 40
0.1290322580645161
 40
0.1290322580645161
 40
0.1290322580645161
 40
0.1290322580645161
 40
0.1612903225806452
 40
0.1612903225806452
 40
0.1612903225806452
 40
0.1612903225806452
 40
0.1935483870967742
 40
0.1935483870967742
 40
0.1935483870967742
 40
0.1935483870967742
 40
0.2258064516129032
 40
0.2258064516129032
 40
0.2258064516129032
 40
0.2258064516129032
 40
0.2580645161290323
 40
0.2580645161290323
 40
0.2580645161290323
 40
0.2580645161290323
 40
0.2903225806451613
 40
0.2903225806451613
 40
0.2903225806451613
 40
0.2903225806451613
 40
0.3225806451612903
 40
0.3225806451612903
 40
0.3225806451612903
 40
0.3225806451612903
 40
0.3548387096774194
 40
0.3548387096774194
 40
0.3548387096774194
 40
0.3548387096774194
 40
0.3870967741935484
 40
0.3870967741935484
 40
0.3870967741935484
 40
0.3870967741935484
 40
0.4193548387096774
 40
0.4193548387096774
 40
0.4193548387096774
 40
0.4193548387096774
 40
0.4516129032258064
 40
0.4516129032258064
 40
0.4516129032258064
 40
0.4516129032258064
 40
0.4838709677419355
 40
0.4838709677419355
 40
0.4838709677419355
 40
0.4838709677419355
 40
0.5161290322580645
 40
0.5161290322580645
 40
0.5161290322580645
 40
0.5161290322580645
 40
0.5483870967741935
 40
0.5483870967741935
 40
0.5483870967741935
 40
0.5483870967741935
 40
0.5806451612903226
 40
0.5806451612903226
 40
0.5806451612903226
 40
0.5806451612903226
 40
0.6129032258064516
 40
0.6129032258064516
 40
0.6129032258064516
 40
0.6129032258064516
 40
0.6451612903225806
 40
0.6451612903225806
 40
0.6451612903225806
 40
0.6451612903225806
 40
0.6774193548387096
 40
0.6774193548387096
 40
0.6774193548387096
 40
0.6774193548387096
 40
0.7096774193548387
 40
0.7096774193548387
 40
0.7096774193548387
 40
0.7096774193548387
 40
0.7419354838709677
 40
0.7419354838709677
 40
0.7419354838709677
 40
0.7419354838709677
 40
0.7741935483870968
 40
0.7741935483870968
 40
0.7741935483870968
 40
0.7741935483870968
 40
0.8064516129032258
 40
0.8064516129032258
 40
0.8064516129032258
 40
0.8064516129032258
 40
0.8387096774193549
 40
0.8387096774193549
 40
0.8387096774193549
 40
0.8387096774193549
 40
0.8709677419354839
 40
0.8709677419354839
 40
0.8709677419354839
 40
0.8709677419354839
 40
0.9032258064516129
 40
0.9032258064516129
 40
0.9032258064516129
 40
0.9032258064516129
 40
0.9354838709677419
 40
0.9354838709677419
 40
0.9354838709677419
 40
0.9354838709677419
 40
1.0
 40
1.0
 40
1.0
 40
1.0
 10
171.3565
 20
61.5462
 30
0.0
 10
168.8679
 20
61.5462
 30
0.0
 10
168.4206
 20
62.2003
 30
0.0
 10
170.0084
 20
63.518
 30
0.0
 10
170.0084
 20
63.518
 30
0.0
 10
170.6311
 20
64.0348
 30
0.0
 10
171.8364
 20
64.1741
 30
0.0
 10
173.3048
 20
63.8985
 30
0.0
 10
173.3048
 20
63.8985
 30
0.0
 10
176.1034
 20
63.3734
 30
0.0
 10
176.152
 20
63.8272
 30
0.0
 10
173.6148
 20
66.7955
 30
0.0
 10
173.6148
 20
66.7955
 30
0.0
 10
171.6762
 20
69.1338
 30
0.0
 10
171.503
 20
71.2414
 30
0.0
 10
171.7076
 20
73.7429
 30
0.0
 10
171.7076
 20
73.7429
 30
0.0
 10
172.7202
 20
72.5441
 30
0.0
 10
173.7718
 20
71.3251
 30
0.0
 10
174.4962
 20
69.9431
 30
0.0
 10
174.4962
 20
69.9431
 30
0.0
 10
174.7224
 20
69.3264
 30
0.0
 10
174.9923
 20
69.3127
 30
0.0
 10
175.6045
 20
69.8876
 30
0.0
 10
175.6045
 20
69.8876
 30
0.0
 10
176.2387
 20
70.4829
 30
0.0
 10
176.0989
 20
71.0729
 30
0.0
 10
174.9592
 20
72.6146
 30
0.0
 10
174.9592
 20
72.6146
 30
0.0
 10
173.9303
 20
74.0063
 30
0.0
 10
173.4765
 20
75.6165
 30
0.0
 10
173.4082
 20
78.1183
 30
0.0
 10
173.4082
 20
78.1183
 30
0.0
 10
173.3203
 20
81.3443
 30
0.0
 10
172.9096
 20
81.4058
 30
0.0
 10
173.6731
 20
82.8528
 30
0.0
 10
173.6731
 20
82.8528
 30
0.0
 10
176.8584
 20
82.0258
 30
0.0
 10
177.0513
 20
81.3495
 30
0.0
 10
178.7146
 20
79.586
 30
0.0
 10
178.7146
 20
79.586
 30
0.0
 10
180.7581
 20
77.4191
 30
0.0
 10
181.0053
 20
77.3025
 30
0.0
 10
180.5675
 20
78.7109
 30
0.0
 10
180.5675
 20
78.7109
 30
0.0
 10
180.2897
 20
79.6047
 30
0.0
 10
177.7276
 20
82.7768
 30
0.0
 10
174.8742
 20
85.7598
 30
0.0
 10
174.8742
 20
85.7598
 30
0.0
 10
169.4951
 20
91.3831
 30
0.0
 10
168.6025
 20
93.178
 30
0.0
 10
171.1693
 20
93.2121
 30
0.0
 10
171.1693
 20
93.2121
 30
0.0
 10
172.4815
 20
93.2296
 30
0.0
 10
172.3315
 20
93.5149
 30
0.0
 10
169.8708
 20
95.6845
 30
0.0
 10
169.8708
 20
95.6845
 30
0.0
 10
166.3352
 20
98.3029
 30
0.0
 10
163.7409
 20
106.2648
 30
0.0
 10
166.7957
 20
111.9427
 30
0.0
 10
166.7957
 20
111.9427
 30
0.0
 10
169.2142
 20
110.4865
 30
0.0
 10
169.8594
 20
104.3456
 30
0.0
 10
170.9493
 20
102.0564
 30
0.0
 10
170.9493
 20
102.0564
 30
0.0
 10
171.4153
 20
101.0776
 30
0.0
 10
172.1805
 20
101.4249
 30
0.0
 10
172.3298
 20
100.9831
 30
0.0
 10
172.3298
 20
100.9831
 30
0.0
 10
172.7088
 20
102.5777
 30
0.0
 10
174.462
 20
103.1276
 30
0.0
 10
175.2816
 20
101.2647
 30
0.0
 10
175.2816
 20
101.2647
 30
0.0
 10
175.6394
 20
100.4509
 30
0.0
 10
176.1587
 20
99.7851
 30
0.0
 10
176.4353
 20
99.7851
 30
0.0
 10
176.4353
 20
99.7851
 30
0.0
 10
177.605
 20
99.7851
 30
0.0
 10
176.7622
 20
101.4768
 30
0.0
 10
174.2168
 20
104.2382
 30
0.0
 10
174.2168
 20
104.2382
 30
0.0
 10
171.5027
 20
107.1828
 30
0.0
 10
171.0502
 20
108.6296
 30
0.0
 10
172.0051
 20
112.1553
 30
0.0
 10
172.0051
 20
112.1553
 30
0.0
 10
173.3155
 20
116.1895
 30
0.0
 10
172.3385
 20
118.5735
 30
0.0
 10
171.5713
 20
122.1881
 30
0.0
 10
171.5713
 20
122.1881
 30
0.0
 10
174.6295
 20
121.2951
 30
0.0
 10
175.6197
 20
117.8048
 30
0.0
 10
175.6197
 20
116.3804
 30
0.0
 10
175.6197
 20
116.3804
 30
0.0
 10
175.6197
 20
114.297
 30
0.0
 10
177.5023
 20
114.6062
 30
0.0
 10
177.9434
 20
116.7619
 30
0.0
 10
177.9434
 20
116.7619
 30
0.0
 10
178.0799
 20
118.9061
 30
0.0
 10
180.3931
 20
123.3466
 30
0.0
 10
183.8116
 20
124.1186
 30
0.0
 10
183.8116
 20
124.1186
 30
0.0
 10
183.9776
 20
123.9526
 30
0.0
 10
183.2166
 20
122.0077
 30
0.0
 10
182.1207
 20
119.7965
 30
0.0
 10
182.1207
 20
119.7965
 30
0.0
 10
177.9384
 20
111.3586
 30
0.0
 10
178.4679
 20
99.7876
 30
0.0
 10
183.919
 20
80.4866
 30
0.0
 10
183.919
 20
80.4866
 30
0.0
 10
186.3835
 20
73.3764
 30
0.0
 10
185.8684
 20
64.4666
 30
0.0
 10
180.9131
 20
58.9285
 30
0.0
 10
180.9131
 20
58.9285
 30
0.0
 10
178.4365
 20
56.2772
 30
0.0
 10
176.7421
 20
56.3666
 30
0.0
 10
175.0479
 20
59.238
 30
0.0
 10
175.0479
 20
59.238
 30
0.0
 10
174.4797
 20
60.9424
 30
0.0
 10
172.9697
 20
61.5462
 30
0.0
 10
171.3565
 20
61.5462
 30
0.0
  0
SPLINE
  5
57
330
1F
100
AcDbEntity
  8
layer 1
 62
     7
100
AcDbSpline
210
0.0
220
0.0
230
1.0
 70
    11
 71
     3
 72
    36
 73
    32
 74
     0
 42
0.0000000001
 43
0.0000000001
 12
1.0
 22
0.0
 32
0.0
 13
1.0
 23
0.0
 33
0.0
 40
0.0
 40
0.0
 40
0.0
 40
0.0
 40
0.1111111111111111
 40
0.1111111111111111
 40
0.1111111111111111
 40
0.1111111111111111
 40
0.2222222222222222
 40
0.2222222222222222
 40
0.2222222222222222
 40
0.2222222222222222
 40
0.3333333333333333
 40
0.3333333333333333
 40
0.3333333333333333
 40
0.3333333333333333
 40
0.4444444444444444
 40
0.4444444444444444
 40
0.4444444444444444
 40
0.4444444444444444
 40
0.5555555555555556
 40
0.5555555555555556
 40
0.5555555555555556
 40
0.5555555555555556
 40
0.6666666666666666
 40
0.6666666666666666
 40
0.6666666666666666
 40
0.6666666666666666
 40
0.7777777777777778
 40
0.7777777777777778
 40
0.7777777777777778
 40
0.7777777777777778
 40
1.0
 40
1.0
 40
1.0
 40
1.0
 10
121.8869
 20
50.9977
 30
0.0
 10
121.2542
 20
52.0216
 30
0.0
 10
122.146
 20
52.9753
 30
0.0
 10
123.7388
 20
52.978
 30
0.0
 10
123.7388
 20
52.978
 30
0.0
 10
127.5902
 20
52.9845
 30
0.0
 10
131.4465
 20
57.4202
 30
0.0
 10
131.4465
 20
61.8432
 30
0.0
 10
131.4465
 20
61.8432
 30
0.0
 10
131.4465
 20
63.1302
 30
0.0
 10
131.7329
 20
64.1835
 30
0.0
 10
132.0827
 20
64.1835
 30
0.0
 10
132.0827
 20
64.1835
 30
0.0
 10
134.4813
 20
61.965
 30
0.0
 10
134.0839
 20
59.3922
 30
0.0
 10
134.0839
 20
56.3549
 30
0.0
 10
134.0839
 20
56.3549
 30
0.0
 10
136.6408
 20
56.8643
 30
0.0
 10
141.8469
 20
57.7035
 30
0.0
 10
141.9955
 20
52.841
 30
0.0
 10
141.9955
 20
52.841
 30
0.0
 10
141.9955
 20
51.7079
 30
0.0
 10
141.8462
 20
51.7279
 30
0.0
 10
139.9761
 20
53.1106
 30
0.0
 10
139.9761
 20
53.1106
 30
0.0
 10
137.5438
 20
55.0171
 30
0.0
 10
134.901
 20
53.5257
 30
0.0
 10
131.8998
 20
52.4672
 30
0.0
 10
131.8998
 20
52.4672
 30
0.0
 10
125.7051
 20
50.2826
 30
0.0
 10
122.6098
 20
49.8281
 30
0.0
 10
121.8869
 20
50.9977
 30
0.0
  0
SPLINE
  5
58
330
1F
100
AcDbEntity
  8
layer 1
 62
     7
100
AcDbSpline
210
0.0
220
0.0
230
1.0
 70
    11
 71
     3
 72
   156
 73
   152
 74
     0
 42
0.0000000001
 43
0.0000000001
 12
1.0
 22
0.0
 32
0.0
 13
1.0
 23
0.0
 33
0.0
 40
0.0
 40
0.0
 40
0.0
 40
0.0
 40
0.0256410256410256
 40
0.0256410256410256
 40
0.0256410256410256
 40
0.0256410256410256
 40
0.0512820512820513
 40
0.0512820512820513
 40
0.0512820512820513
 40
0.0512820512820513
 40
0.0769230769230769
 40
0.0769230769230769
 40
0.0769230769230769
 40
0.0769230769230769
 40
0.1025641025641026
 40
0.1025641025641026
 40
0.1025641025641026
 40
0.1025641025641026
 40
0.1282051282051282
 40
0.1282051282051282
 40
0.1282051282051282
 40
0.1282051282051282
 40
0.1538461538461539
 40
0.1538461538461539
 40
0.1538461538461539
 40
0.1538461538461539
 40
0.1794871794871795
 40
0.1794871794871795
 40
0.1794871794871795
 40
0.1794871794871795
 40
0.2051282051282051
 40
0.2051282051282051
 40
0.2051282051282051
 40
0.2051282051282051
 40
0.2307692307692308
 40
0.2307692307692308
 40
0.2307692307692308
 40
0.2307692307692308
 40
0.2564102564102564
 40
0.2564102564102564
 40
0.2564102564102564
 40
0.2564102564102564
 40
0.282051282051282
 40
0.282051282051282
 40
0.282051282051282
 40
0.282051282051282
 40
0.3076923076923077
 40
0.3076923076923077
 40
0.3076923076923077
 40
0.3076923076923077
 40
0.3333333333333333
 40
0.3333333333333333
 40
0.3333333333333333
 40
0.3333333333333333
 40
0.358974358974359
 40
0.358974358974359
 40
0.358974358974359
 40
0.358974358974359
 40
0.3846153846153846
 40
0.3846153846153846
 40
0.3846153846153846
 40
0.3846153846153846
 40
0.4102564102564102
 40
0.4102564102564102
 40
0.4102564102564102
 40
0.4102564102564102
 40
0.4358974358974359
 40
0.4358974358974359
 40
0.4358974358974359
 40
0.4358974358974359
 40
0.4615384615384616
 40
0.4615384615384616
 40
0.4615384615384616
 40
0.4615384615384616
 40
0.4871794871794872
 40
0.4871794871794872
 40
0.4871794871794872
 40
0.4871794871794872
 40
0.5128205128205128
 40
0.5128205128205128
 40
0.5128205128205128
 40
0.5128205128205128
 40
0.5384615384615384
 40
0.5384615384615384
 40
0.5384615384615384
 40
0.5384615384615384
 40
0.5641025641025641
 40
0.5641025641025641
 40
0.5641025641025641
 40
0.5641025641025641
 40
0.5897435897435898
 40
0.5897435897435898
 40
0.5897435897435898
 40
0.5897435897435898
 40
0.6153846153846154
 40
0.6153846153846154
 40
0.6153846153846154
 40
0.6153846153846154
 40
0.6410256410256411
 40
0.6410256410256411
 40
0.6410256410256411
 40
0.6410256410256411
 40
0.6666666666666666
 40
0.6666666666666666
 40
0.6666666666666666
 40
0.6666666666666666
 40
0.6923076923076923
 40
0.6923076923076923
 40
0.6923076923076923
 40
0.6923076923076923
 40
0.717948717948718
 40
0.717948717948718
 40
0.717948717948718
 40
0.717948717948718
 40
0.7435897435897436
 40
0.7435897435897436
 40
0.7435897435897436
 40
0.7435897435897436
 40
0.7692307692307693
 40
0.7692307692307693
 40
0.7692307692307693
 40
0.7692307692307693
 40
0.7948717948717948
 40
0.7948717948717948
 40
0.7948717948717948
 40
0.7948717948717948
 40
0.8205128205128205
 40
0.8205128205128205
 40
0.8205128205128205
 40
0.8205128205128205
 40
0.8461538461538461
 40
0.8461538461538461
 40
0.8461538461538461
 40
0.8461538461538461
 40
0.8717948717948718
 40
0.8717948717948718
 40
0.8717948717948718
 40
0.8717948717948718
 40
0.8974358974358975
 40
0.8974358974358975
 40
0.8974358974358975
 40
0.8974358974358975
 40
0.9230769230769231
 40
0.9230769230769231
 40
0.9230769230769231
 40
0.9230769230769231
 40
0.9487179487179487
 40
0.9487179487179487
 40
0.9487179487179487
 40
0.9487179487179487
 40
1.0
 40
1.0
 40
1.0
 40
1.0
 10
94.5061
 20
50.6633
 30
0.0
 10
97.8771
 20
50.7089
 30
0.0
 10
98.4617
 20
56.781
 30
0.0
 10
97.4348
 20
59.2584
 30
0.0
 10
97.4348
 20
59.2584
 30
0.0
 10
96.3346
 20
62.4193
 30
0.0
 10
96.304
 20
62.8648
 30
0.0
 10
97.1866
 20
62.8648
 30
0.0
 10
97.1866
 20
62.8648
 30
0.0
 10
98.4784
 20
63.4866
 30
0.0
 10
99.1519
 20
58.5363
 30
0.0
 10
101.0691
 20
56.931
 30
0.0
 10
101.0691
 20
56.931
 30
0.0
 10
103.7446
 20
58.76
 30
0.0
 10
103.3521
 20
61.8195
 30
0.0
 10
101.4416
 20
64.8528
 30
0.0
 10
101.4416
 20
64.8528
 30
0.0
 10
100.1187
 20
66.7621
 30
0.0
 10
99.7898
 20
67.7329
 30
0.0
 10
100.2954
 20
68.2385
 30
0.0
 10
100.2954
 20
68.2385
 30
0.0
 10
101.3415
 20
69.2846
 30
0.0
 10
102.3963
 20
68.3449
 30
0.0
 10
103.7675
 20
65.1461
 30
0.0
 10
103.7675
 20
65.1461
 30
0.0
 10
105.289
 20
61.6845
 30
0.0
 10
109.2912
 20
58.6484
 30
0.0
 10
113.0633
 20
62.0174
 30
0.0
 10
113.0633
 20
62.0174
 30
0.0
 10
113.2654
 20
62.3445
 30
0.0
 10
111.5149
 20
63.1158
 30
0.0
 10
110.1556
 20
64.4955
 30
0.0
 10
110.1556
 20
64.4955
 30
0.0
 10
108.1736
 20
66.5077
 30
0.0
 10
108.2633
 20
67.1401
 30
0.0
 10
109.1608
 20
67.3285
 30
0.0
 10
109.1608
 20
67.3285
 30
0.0
 10
109.7763
 20
67.4578
 30
0.0
 10
110.8695
 20
67.248
 30
0.0
 10
111.5899
 20
66.8625
 30
0.0
 10
111.5899
 20
66.8625
 30
0.0
 10
116.6134
 20
64.1925
 30
0.0
 10
122.4214
 20
68.1974
 30
0.0
 10
119.6069
 20
74.9662
 30
0.0
 10
119.6069
 20
74.9662
 30
0.0
 10
117.4933
 20
71.889
 30
0.0
 10
113.9741
 20
68.7645
 30
0.0
 10
108.3929
 20
72.4088
 30
0.0
 10
108.3929
 20
72.4088
 30
0.0
 10
105.2018
 20
74.7631
 30
0.0
 10
102.3509
 20
75.5767
 30
0.0
 10
100.182
 20
74.7521
 30
0.0
 10
100.182
 20
74.7521
 30
0.0
 10
97.9974
 20
73.9216
 30
0.0
 10
95.8445
 20
73.8708
 30
0.0
 10
95.8445
 20
74.65
 30
0.0
 10
95.8445
 20
74.65
 30
0.0
 10
95.8445
 20
74.9672
 30
0.0
 10
96.76
 20
75.41
 30
0.0
 10
97.8791
 20
75.6337
 30
0.0
 10
97.8791
 20
75.6337
 30
0.0
 10
100.3266
 20
76.1231
 30
0.0
 10
100.1489
 20
77.6068
 30
0.0
 10
97.6067
 20
77.9078
 30
0.0
 10
97.6067
 20
77.9078
 30
0.0
 10
95.6212
 20
78.1428
 30
0.0
 10
95.3793
 20
78.7996
 30
0.0
 10
96.8335
 20
80.0067
 30
0.0
 10
96.8335
 20
80.0067
 30
0.0
 10
97.3775
 20
80.4582
 30
0.0
 10
97.8225
 20
81.4691
 30
0.0
 10
97.8225
 20
82.253
 30
0.0
 10
97.8225
 20
82.253
 30
0.0
 10
97.8225
 20
83.568
 30
0.0
 10
95.1209
 20
91.4908
 30
0.0
 10
94.5061
 20
92.1185
 30
0.0
 10
94.5061
 20
92.1185
 30
0.0
 10
93.8914
 20
91.4908
 30
0.0
 10
91.2097
 20
83.568
 30
0.0
 10
91.2097
 20
82.253
 30
0.0
 10
91.2097
 20
82.253
 30
0.0
 10
91.2097
 20
81.4691
 30
0.0
 10
91.6547
 20
80.4582
 30
0.0
 10
92.1987
 20
80.0067
 30
0.0
 10
92.1987
 20
80.0067
 30
0.0
 10
93.6529
 20
78.7996
 30
0.0
 10
93.411
 20
78.1428
 30
0.0
 10
91.4255
 20
77.9078
 30
0.0
 10
91.4255
 20
77.9078
 30
0.0
 10
88.8833
 20
77.6068
 30
0.0
 10
88.7056
 20
76.1231
 30
0.0
 10
91.1531
 20
75.6337
 30
0.0
 10
91.1531
 20
75.6337
 30
0.0
 10
92.2722
 20
75.41
 30
0.0
 10
93.1877
 20
74.9672
 30
0.0
 10
93.1877
 20
74.65
 30
0.0
 10
93.1877
 20
74.65
 30
0.0
 10
93.1877
 20
73.8708
 30
0.0
 10
91.0348
 20
73.9216
 30
0.0
 10
88.8502
 20
74.7521
 30
0.0
 10
88.8502
 20
74.7521
 30
0.0
 10
86.6813
 20
75.5767
 30
0.0
 10
83.8304
 20
74.7631
 30
0.0
 10
80.6393
 20
72.4088
 30
0.0
 10
80.6393
 20
72.4088
 30
0.0
 10
75.0581
 20
68.7645
 30
0.0
 10
71.5389
 20
71.889
 30
0.0
 10
69.4253
 20
74.9662
 30
0.0
 10
69.4253
 20
74.9662
 30
0.0
 10
66.6108
 20
68.1974
 30
0.0
 10
72.4188
 20
64.1925
 30
0.0
 10
77.4423
 20
66.8625
 30
0.0
 10
77.4423
 20
66.8625
 30
0.0
 10
78.1627
 20
67.248
 30
0.0
 10
79.2559
 20
67.4578
 30
0.0
 10
79.8714
 20
67.3285
 30
0.0
 10
79.8714
 20
67.3285
 30
0.0
 10
80.7689
 20
67.1401
 30
0.0
 10
80.8586
 20
66.5077
 30
0.0
 10
78.8766
 20
64.4955
 30
0.0
 10
78.8766
 20
64.4955
 30
0.0
 10
77.5173
 20
63.1158
 30
0.0
 10
75.7668
 20
62.3445
 30
0.0
 10
75.9689
 20
62.0174
 30
0.0
 10
75.9689
 20
62.0174
 30
0.0
 10
79.741
 20
58.6484
 30
0.0
 10
83.7432
 20
61.6845
 30
0.0
 10
85.2647
 20
65.1461
 30
0.0
 10
85.2647
 20
65.1461
 30
0.0
 10
86.6359
 20
68.3449
 30
0.0
 10
87.6907
 20
69.2846
 30
0.0
 10
88.7368
 20
68.2385
 30
0.0
 10
88.7368
 20
68.2385
 30
0.0
 10
89.2424
 20
67.7329
 30
0.0
 10
88.9135
 20
66.7621
 30
0.0
 10
87.5905
 20
64.8528
 30
0.0
 10
87.5905
 20
64.8528
 30
0.0
 10
85.6801
 20
61.8195
 30
0.0
 10
85.2876
 20
58.76
 30
0.0
 10
87.9631
 20
56.931
 30
0.0
 10
87.9631
 20
56.931
 30
0.0
 10
89.8803
 20
58.5363
 30
0.0
 10
90.5538
 20
63.4866
 30
0.0
 10
91.8456
 20
62.8648
 30
0.0
 10
91.8456
 20
62.8648
 30
0.0
 10
92.7282
 20
62.8648
 30
0.0
 10
92.6976
 20
62.4193
 30
0.0
 10
91.5974
 20
59.2584
 30
0.0
 10
91.5974
 20
59.2584
 30
0.0
 10
90.5705
 20
56.781
 30
0.0
 10
91.6089
 20
50.6561
 30
0.0
 10
94.5061
 20
50.6633
 30
0.0
  0
SPLINE
  5
59
330
1F
100
AcDbEntity
  8
layer 1
 62
     7
100
AcDbSpline
210
0.0
220
0.0
230
1.0
 70
    11
 71
     3
 72
   120
 73
   116
 74
     0
 42
0.0000000001
 43
0.0000000001
 12
1.0
 22
0.0
 32
0.0
 13
1.0
 23
0.0
 33
0.0
 40
0.0
 40
0.0
 40
0.0
 40
0.0
 40
0.0333333333333333
 40
0.0333333333333333
 40
0.0333333333333333
 40
0.0333333333333333
 40
0.0666666666666667
 40
0.0666666666666667
 40
0.0666666666666667
 40
0.0666666666666667
 40
0.1
 40
0.1
 40
0.1
 40
0.1
 40
0.1333333333333333
 40
0.1333333333333333
 40
0.1333333333333333
 40
0.1333333333333333
 40
0.1666666666666667
 40
0.1666666666666667
 40
0.1666666666666667
 40
0.1666666666666667
 40
0.2
 40
0.2
 40
0.2
 40
0.2
 40
0.2333333333333333
 40
0.2333333333333333
 40
0.2333333333333333
 40
0.2333333333333333
 40
0.2666666666666667
 40
0.2666666666666667
 40
0.2666666666666667
 40
0.2666666666666667
 40
0.3
 40
0.3
 40
0.3
 40
0.3
 40
0.3333333333333333
 40
0.3333333333333333
 40
0.3333333333333333
 40
0.3333333333333333
 40
0.3666666666666666
 40
0.3666666666666666
 40
0.3666666666666666
 40
0.3666666666666666
 40
0.4
 40
0.4
 40
0.4
 40
0.4
 40
0.4333333333333333
 40
0.4333333333333333
 40
0.4333333333333333
 40
0.4333333333333333
 40
0.4666666666666667
 40
0.4666666666666667
 40
0.4666666666666667
 40
0.4666666666666667
 40
0.5
 40
0.5
 40
0.5
 40
0.5
 40
0.5333333333333333
 40
0.5333333333333333
 40
0.5333333333333333
 40
0.5333333333333333
 40
0.5666666666666667
 40
0.5666666666666667
 40
0.5666666666666667
 40
0.5666666666666667
 40
0.6
 40
0.6
 40
0.6
 40
0.6
 40
0.6333333333333333
 40
0.6333333333333333
 40
0.6333333333333333
 40
0.6333333333333333
 40
0.6666666666666666
 40
0.6666666666666666
 40
0.6666666666666666
 40
0.6666666666666666
 40
0.7
 40
0.7
 40
0.7
 40
0.7
 40
0.7333333333333333
 40
0.7333333333333333
 40
0.7333333333333333
 40
0.7333333333333333
 40
0.7666666666666667
 40
0.7666666666666667
 40
0.7666666666666667
 40
0.7666666666666667
 40
0.8
 40
0.8
 40
0.8
 40
0.8
 40
0.8333333333333334
 40
0.8333333333333334
 40
0.8333333333333334
 40
0.8333333333333334
 40
0.8666666666666667
 40
0.8666666666666667
 40
0.8666666666666667
 40
0.8666666666666667
 40
0.9
 40
0.9
 40
0.9
 40
0.9
 40
0.9333333333333333
 40
0.9333333333333333
 40
0.9333333333333333
 40
0.9333333333333333
 40
1.0
 40
1.0
 40
1.0
 40
1.0
 10
155.6714
 20
43.6548
 30
0.0
 10
154.5942
 20
43.0782
 30
0.0
 10
154.4028
 20
43.1143
 30
0.0
 10
154.723
 20
43.8335
 30
0.0
 10
154.723
 20
43.8335
 30
0.0
 10
165.6327
 20
62.975
 30
0.0
 10
168.8656
 20
87.6688
 30
0.0
 10
152.4968
 20
104.5537
 30
0.0
 10
152.4968
 20
104.5537
 30
0.0
 10
140.2031
 20
116.8474
 30
0.0
 10
116.9912
 20
119.4038
 30
0.0
 10
109.3784
 20
105.4826
 30
0.0
 10
109.3784
 20
105.4826
 30
0.0
 10
102.6597
 20
92.4563
 30
0.0
 10
115.9586
 20
84.4307
 30
0.0
 10
123.4747
 20
91.0868
 30
0.0
 10
123.4747
 20
91.0868
 30
0.0
 10
127.8466
 20
95.4754
 30
0.0
 10
125.2685
 20
100.6266
 30
0.0
 10
122.1924
 20
101.705
 30
0.0
 10
122.1924
 20
101.705
 30
0.0
 10
119.5617
 20
102.6275
 30
0.0
 10
116.1417
 20
101.0372
 30
0.0
 10
116.5499
 20
97.4086
 30
0.0
 10
116.5499
 20
97.4086
 30
0.0
 10
117.0016
 20
96.2357
 30
0.0
 10
117.0707
 20
96.23
 30
0.0
 10
117.6787
 20
97.3132
 30
0.0
 10
117.6787
 20
97.3132
 30
0.0
 10
119.0584
 20
99.7711
 30
0.0
 10
122.2165
 20
98.214
 30
0.0
 10
122.2165
 20
95.076
 30
0.0
 10
122.2165
 20
95.076
 30
0.0
 10
122.2165
 20
91.4611
 30
0.0
 10
117.7577
 20
90.3605
 30
0.0
 10
113.7157
 20
92.8249
 30
0.0
 10
113.7157
 20
92.8249
 30
0.0
 10
109.8351
 20
95.1909
 30
0.0
 10
109.5441
 20
100.6849
 30
0.0
 10
112.4655
 20
104.2143
 30
0.0
 10
112.4655
 20
104.2143
 30
0.0
 10
120.6118
 20
113.3376
 30
0.0
 10
136.2844
 20
108.1616
 30
0.0
 10
135.8581
 20
93.3836
 30
0.0
 10
135.8581
 20
93.3836
 30
0.0
 10
134.9506
 20
76.482
 30
0.0
 10
114.2257
 20
74.2979
 30
0.0
 10
103.554
 20
81.7467
 30
0.0
 10
103.554
 20
81.7467
 30
0.0
 10
95.5171
 20
87.29
 30
0.0
 10
94.785
 20
101.1937
 30
0.0
 10
98.7248
 20
108.3233
 30
0.0
 10
98.7248
 20
108.3233
 30
0.0
 10
104.2116
 20
118.7519
 30
0.0
 10
117.727
 20
125.5613
 30
0.0
 10
131.0102
 20
124.5898
 30
0.0
 10
131.0102
 20
124.5898
 30
0.0
 10
143.1781
 20
123.6997
 30
0.0
 10
152.3064
 20
119.8655
 30
0.0
 10
159.5843
 20
112.5879
 30
0.0
 10
159.5843
 20
112.5879
 30
0.0
 10
163.6246
 20
108.5476
 30
0.0
 10
164.4117
 20
107.4066
 30
0.0
 10
164.4147
 20
105.5863
 30
0.0
 10
164.4147
 20
105.5863
 30
0.0
 10
164.4207
 20
102.1797
 30
0.0
 10
165.6898
 20
98.447
 30
0.0
 10
167.4361
 20
96.7004
 30
0.0
 10
167.4361
 20
96.7004
 30
0.0
 10
168.599
 20
95.5375
 30
0.0
 10
168.9252
 20
94.6686
 30
0.0
 10
168.6341
 20
93.5086
 30
0.0
 10
168.6341
 20
93.5086
 30
0.0
 10
168.3663
 20
92.4414
 30
0.0
 10
168.7463
 20
91.0911
 30
0.0
 10
169.7839
 20
89.422
 30
0.0
 10
169.7839
 20
89.422
 30
0.0
 10
171.0577
 20
87.3733
 30
0.0
 10
171.3425
 20
85.99
 30
0.0
 10
171.3834
 20
81.655
 30
0.0
 10
171.3834
 20
81.655
 30
0.0
 10
171.4133
 20
78.4861
 30
0.0
 10
171.0465
 20
75.3706
 30
0.0
 10
170.4646
 20
73.8506
 30
0.0
 10
170.4646
 20
73.8506
 30
0.0
 10
169.596
 20
71.5813
 30
0.0
 10
169.6087
 20
71.0849
 30
0.0
 10
170.587
 20
69.0331
 30
0.0
 10
170.587
 20
69.0331
 30
0.0
 10
170.587
 20
69.0331
 30
0.0
 10
171.6777
 20
66.7456
 30
0.0
 10
171.6777
 20
66.7456
 30
0.0
 10
171.6777
 20
66.7456
 30
0.0
 10
171.6777
 20
66.7456
 30
0.0
 10
169.3079
 20
64.5107
 30
0.0
 10
169.3079
 20
64.5107
 30
0.0
 10
169.3079
 20
64.5107
 30
0.0
 10
166.85
 20
62.1925
 30
0.0
 10
166.4304
 20
59.7274
 30
0.0
 10
168.5556
 20
60.0917
 30
0.0
 10
168.5556
 20
60.0917
 30
0.0
 10
169.1771
 20
60.1983
 30
0.0
 10
169.6854
 20
59.9327
 30
0.0
 10
169.6854
 20
59.5016
 30
0.0
 10
169.6854
 20
59.5016
 30
0.0
 10
169.6854
 20
57.5398
 30
0.0
 10
164.7544
 20
48.7678
 30
0.0
 10
161.9167
 20
45.6817
 30
0.0
 10
161.9167
 20
45.6817
 30
0.0
 10
159.1218
 20
42.6421
 30
0.0
 10
158.677
 20
42.3807
 30
0.0
 10
157.8973
 20
43.3204
 30
0.0
 10
157.8973
 20
43.3204
 30
0.0
 10
157.6402
 20
43.5474
 30
0.0
 10
157.021
 20
44.1801
 30
0.0
 10
155.6714
 20
43.6548
 30
0.0
  0
SPLINE
  5
5A
330
1F
100
AcDbEntity
  8
layer 1
 62
     7
100
AcDbSpline
210
0.0
220
0.0
230
1.0
 70
    11
 71
     3
 72
    72
 73
    68
 74
     0
 42
0.0000000001
 43
0.0000000001
 12
1.0
 22
0.0
 32
0.0
 13
1.0
 23
0.0
 33
0.0
 40
0.0
 40
0.0
 40
0.0
 40
0.0
 40
0.0555555555555556
 40
0.0555555555555556
 40
0.0555555555555556
 40
0.0555555555555556
 40
0.1111111111111111
 40
0.1111111111111111
 40
0.1111111111111111
 40
0.1111111111111111
 40
0.1666666666666667
 40
0.1666666666666667
 40
0.1666666666666667
 40
0.1666666666666667
 40
0.2222222222222222
 40
0.2222222222222222
 40
0.2222222222222222
 40
0.2222222222222222
 40
0.2777777777777778
 40
0.2777777777777778
 40
0.2777777777777778
 40
0.2777777777777778
 40
0.3333333333333333
 40
0.3333333333333333
 40
0.3333333333333333
 40
0.3333333333333333
 40
0.3888888888888889
 40
0.3888888888888889
 40
0.3888888888888889
 40
0.3888888888888889
 40
0.4444444444444444
 40
0.4444444444444444
 40
0.4444444444444444
 40
0.4444444444444444
 40
0.5
 40
0.5
 40
0.5
 40
0.5
 40
0.5555555555555556
 40
0.5555555555555556
 40
0.5555555555555556
 40
0.5555555555555556
 40
0.6111111111111112
 40
0.6111111111111112
 40
0.6111111111111112
 40
0.6111111111111112
 40
0.6666666666666666
 40
0.6666666666666666
 40
0.6666666666666666
 40
0.6666666666666666
 40
0.7222222222222222
 40
0.7222222222222222
 40
0.7222222222222222
 40
0.7222222222222222
 40
0.7777777777777778
 40
0.7777777777777778
 40
0.7777777777777778
 40
0.7777777777777778
 40
0.8333333333333334
 40
0.8333333333333334
 40
0.8333333333333334
 40
0.8333333333333334
 40
0.8888888888888888
 40
0.8888888888888888
 40
0.8888888888888888
 40
0.8888888888888888
 40
1.0
 40
1.0
 40
1.0
 40
1.0
 10
122.9442
 20
43.1176
 30
0.0
 10
121.7962
 20
46.9495
 30
0.0
 10
119.0534
 20
48.5348
 30
0.0
 10
114.2469
 20
48.1446
 30
0.0
 10
114.2469
 20
48.1446
 30
0.0
 10
110.1526
 20
47.8122
 30
0.0
 10
107.1786
 20
46.5119
 30
0.0
 10
103.8203
 20
43.5858
 30
0.0
 10
103.8203
 20
43.5858
 30
0.0
 10
101.9004
 20
41.913
 30
0.0
 10
101.4937
 20
41.78
 30
0.0
 10
100.9993
 20
42.6638
 30
0.0
 10
100.9993
 20
42.6638
 30
0.0
 10
100.1397
 20
44.1998
 30
0.0
 10
101.855
 20
47.7125
 30
0.0
 10
104.6728
 20
50.1864
 30
0.0
 10
104.6728
 20
50.1864
 30
0.0
 10
106.0104
 20
51.3608
 30
0.0
 10
110.2017
 20
54.3993
 30
0.0
 10
113.987
 20
56.939
 30
0.0
 10
113.987
 20
56.939
 30
0.0
 10
121.0147
 20
61.6541
 30
0.0
 10
123.1208
 20
64.0926
 30
0.0
 10
122.4338
 20
66.7195
 30
0.0
 10
122.4338
 20
66.7195
 30
0.0
 10
121.917
 20
68.6957
 30
0.0
 10
123.1585
 20
68.5011
 30
0.0
 10
124.0884
 20
66.4598
 30
0.0
 10
124.0884
 20
66.4598
 30
0.0
 10
125.217
 20
63.9829
 30
0.0
 10
125.0276
 20
62.4191
 30
0.0
 10
123.4181
 20
60.9195
 30
0.0
 10
123.4181
 20
60.9195
 30
0.0
 10
122.6287
 20
60.1839
 30
0.0
 10
122.141
 20
59.4236
 30
0.0
 10
122.3349
 20
59.23
 30
0.0
 10
122.3349
 20
59.23
 30
0.0
 10
123.0005
 20
58.5644
 30
0.0
 10
124.9645
 20
59.753
 30
0.0
 10
125.497
 20
61.1432
 30
0.0
 10
125.497
 20
61.1432
 30
0.0
 10
126.0124
 20
62.4883
 30
0.0
 10
126.0447
 20
62.4789
 30
0.0
 10
126.4674
 20
60.8609
 30
0.0
 10
126.4674
 20
60.8609
 30
0.0
 10
127.579
 20
56.6051
 30
0.0
 10
124.1113
 20
53.6952
 30
0.0
 10
117.3296
 20
53.1925
 30
0.0
 10
117.3296
 20
53.1925
 30
0.0
 10
112.0813
 20
52.8036
 30
0.0
 10
110.3489
 20
52.4271
 30
0.0
 10
110.3489
 20
51.675
 30
0.0
 10
110.3489
 20
51.675
 30
0.0
 10
110.3489
 20
51.3259
 30
0.0
 10
111.7374
 20
51.2238
 30
0.0
 10
113.5547
 20
51.439
 30
0.0
 10
113.5547
 20
51.439
 30
0.0
 10
120.6798
 20
52.283
 30
0.0
 10
126.6091
 20
47.5433
 30
0.0
 10
125.2421
 20
42.0967
 30
0.0
 10
125.2421
 20
42.0967
 30
0.0
 10
124.6446
 20
39.7162
 30
0.0
 10
123.8584
 20
40.0653
 30
0.0
 10
122.9442
 20
43.1171
 30
0.0
 10
122.9442
 20
43.1171
 30
0.0
 10
122.9442
 20
43.1171
 30
0.0
 10
122.9442
 20
43.1176
 30
0.0
 10
122.9442
 20
43.1176
 30
0.0
  0
SPLINE
  5
5B
330
1F
100
AcDbEntity
  8
layer 1
 62
     7
100
AcDbSpline
210
0.0
220
0.0
230
1.0
 70
    11
 71
     3
 72
    32
 73
    28
 74
     0
 42
0.0000000001
 43
0.0000000001
 12
1.0
 22
0.0
 32
0.0
 13
1.0
 23
0.0
 33
0.0
 40
0.0
 40
0.0
 40
0.0
 40
0.0
 40
0.125
 40
0.125
 40
0.125
 40
0.125
 40
0.25
 40
0.25
 40
0.25
 40
0.25
 40
0.375
 40
0.375
 40
0.375
 40
0.375
 40
0.5
 40
0.5
 40
0.5
 40
0.5
 40
0.625
 40
0.625
 40
0.625
 40
0.625
 40
0.75
 40
0.75
 40
0.75
 40
0.75
 40
1.0
 40
1.0
 40
1.0
 40
1.0
 10
168.3673
 20
41.2382
 30
0.0
 10
168.3673
 20
42.1473
 30
0.0
 10
169.1081
 20
43.8993
 30
0.0
 10
170.0136
 20
45.1315
 30
0.0
 10
170.0136
 20
45.1315
 30
0.0
 10
171.5483
 20
47.2196
 30
0.0
 10
174.1553
 20
50.3526
 30
0.0
 10
175.4239
 20
56.7339
 30
0.0
 10
175.4239
 20
56.7339
 30
0.0
 10
176.3055
 20
55.559
 30
0.0
 10
177.6105
 20
55.7968
 30
0.0
 10
179.0051
 20
55.739
 30
0.0
 10
179.0051
 20
55.739
 30
0.0
 10
178.4692
 20
51.1004
 30
0.0
 10
173.8361
 20
44.9727
 30
0.0
 10
172.4544
 20
43.4161
 30
0.0
 10
172.4544
 20
43.4161
 30
0.0
 10
171.8107
 20
42.691
 30
0.0
 10
170.6276
 20
41.5323
 30
0.0
 10
169.8255
 20
40.8415
 30
0.0
 10
169.8255
 20
40.8415
 30
0.0
 10
168.3742
 20
39.5919
 30
0.0
 10
168.367
 20
39.5939
 30
0.0
 10
168.367
 20
41.2385
 30
0.0
 10
168.367
 20
41.2385
 30
0.0
 10
168.367
 20
41.2385
 30
0.0
 10
168.3673
 20
41.2382
 30
0.0
 10
168.3673
 20
41.2382
 30
0.0
  0
SPLINE
  5
5C
330
1F
100
AcDbEntity
  8
layer 1
 62
     7
100
AcDbSpline
210
0.0
220
0.0
230
1.0
 70
    11
 71
     3
 72
   192
 73
   188
 74
     0
 42
0.0000000001
 43
0.0000000001
 12
1.0
 22
0.0
 32
0.0
 13
1.0
 23
0.0
 33
0.0
 40
0.0
 40
0.0
 40
0.0
 40
0.0
 40
0.0208333333333333
 40
0.0208333333333333
 40
0.0208333333333333
 40
0.0208333333333333
 40
0.0416666666666667
 40
0.0416666666666667
 40
0.0416666666666667
 40
0.0416666666666667
 40
0.0625
 40
0.0625
 40
0.0625
 40
0.0625
 40
0.0833333333333333
 40
0.0833333333333333
 40
0.0833333333333333
 40
0.0833333333333333
 40
0.1041666666666667
 40
0.1041666666666667
 40
0.1041666666666667
 40
0.1041666666666667
 40
0.125
 40
0.125
 40
0.125
 40
0.125
 40
0.1458333333333333
 40
0.1458333333333333
 40
0.1458333333333333
 40
0.1458333333333333
 40
0.1666666666666667
 40
0.1666666666666667
 40
0.1666666666666667
 40
0.1666666666666667
 40
0.1875
 40
0.1875
 40
0.1875
 40
0.1875
 40
0.2083333333333333
 40
0.2083333333333333
 40
0.2083333333333333
 40
0.2083333333333333
 40
0.2291666666666667
 40
0.2291666666666667
 40
0.2291666666666667
 40
0.2291666666666667
 40
0.25
 40
0.25
 40
0.25
 40
0.25
 40
0.2708333333333333
 40
0.2708333333333333
 40
0.2708333333333333
 40
0.2708333333333333
 40
0.2916666666666667
 40
0.2916666666666667
 40
0.2916666666666667
 40
0.2916666666666667
 40
0.3125
 40
0.3125
 40
0.3125
 40
0.3125
 40
0.3333333333333333
 40
0.3333333333333333
 40
0.3333333333333333
 40
0.3333333333333333
 40
0.3541666666666667
 40
0.3541666666666667
 40
0.3541666666666667
 40
0.3541666666666667
 40
0.375
 40
0.375
 40
0.375
 40
0.375
 40
0.3958333333333333
 40
0.3958333333333333
 40
0.3958333333333333
 40
0.3958333333333333
 40
0.4166666666666667
 40
0.4166666666666667
 40
0.4166666666666667
 40
0.4166666666666667
 40
0.4375
 40
0.4375
 40
0.4375
 40
0.4375
 40
0.4583333333333333
 40
0.4583333333333333
 40
0.4583333333333333
 40
0.4583333333333333
 40
0.4791666666666667
 40
0.4791666666666667
 40
0.4791666666666667
 40
0.4791666666666667
 40
0.5
 40
0.5
 40
0.5
 40
0.5
 40
0.5208333333333334
 40
0.5208333333333334
 40
0.5208333333333334
 40
0.5208333333333334
 40
0.5416666666666666
 40
0.5416666666666666
 40
0.5416666666666666
 40
0.5416666666666666
 40
0.5625
 40
0.5625
 40
0.5625
 40
0.5625
 40
0.5833333333333334
 40
0.5833333333333334
 40
0.5833333333333334
 40
0.5833333333333334
 40
0.6041666666666666
 40
0.6041666666666666
 40
0.6041666666666666
 40
0.6041666666666666
 40
0.625
 40
0.625
 40
0.625
 40
0.625
 40
0.6458333333333334
 40
0.6458333333333334
 40
0.6458333333333334
 40
0.6458333333333334
 40
0.6666666666666666
 40
0.6666666666666666
 40
0.6666666666666666
 40
0.6666666666666666
 40
0.6875
 40
0.6875
 40
0.6875
 40
0.6875
 40
0.7083333333333334
 40
0.7083333333333334
 40
0.7083333333333334
 40
0.7083333333333334
 40
0.7291666666666666
 40
0.7291666666666666
 40
0.7291666666666666
 40
0.7291666666666666
 40
0.75
 40
0.75
 40
0.75
 40
0.75
 40
0.7708333333333334
 40
0.7708333333333334
 40
0.7708333333333334
 40
0.7708333333333334
 40
0.7916666666666666
 40
0.7916666666666666
 40
0.7916666666666666
 40
0.7916666666666666
 40
0.8125
 40
0.8125
 40
0.8125
 40
0.8125
 40
0.8333333333333334
 40
0.8333333333333334
 40
0.8333333333333334
 40
0.8333333333333334
 40
0.8541666666666666
 40
0.8541666666666666
 40
0.8541666666666666
 40
0.8541666666666666
 40
0.875
 40
0.875
 40
0.875
 40
0.875
 40
0.8958333333333334
 40
0.8958333333333334
 40
0.8958333333333334
 40
0.8958333333333334
 40
0.9166666666666666
 40
0.9166666666666666
 40
0.9166666666666666
 40
0.9166666666666666
 40
0.9375
 40
0.9375
 40
0.9375
 40
0.9375
 40
0.9583333333333334
 40
0.9583333333333334
 40
0.9583333333333334
 40
0.9583333333333334
 40
1.0
 40
1.0
 40
1.0
 40
1.0
 10
173.0031
 20
10.35
 30
0.0
 10
169.6207
 20
11.2229
 30
0.0
 10
167.0488
 20
14.3207
 30
0.0
 10
167.0488
 20
17.5217
 30
0.0
 10
167.0488
 20
17.5217
 30
0.0
 10
167.0488
 20
21.5852
 30
0.0
 10
173.3168
 20
25.0929
 30
0.0
 10
175.6197
 20
22.3183
 30
0.0
 10
175.6197
 20
22.3183
 30
0.0
 10
176.3222
 20
21.4718
 30
0.0
 10
176.1131
 20
21.3292
 30
0.0
 10
174.1673
 20
21.3292
 30
0.0
 10
174.1673
 20
21.3292
 30
0.0
 10
171.7843
 20
21.3292
 30
0.0
 10
169.0269
 20
19.1748
 30
0.0
 10
169.0269
 20
17.3129
 30
0.0
 10
169.0269
 20
17.3129
 30
0.0
 10
169.0269
 20
15.8741
 30
0.0
 10
170.9393
 20
13.4177
 30
0.0
 10
172.0597
 20
13.4177
 30
0.0
 10
172.0597
 20
13.4177
 30
0.0
 10
172.785
 20
13.4177
 30
0.0
 10
172.9894
 20
14.0509
 30
0.0
 10
172.8463
 20
15.8537
 30
0.0
 10
172.8463
 20
15.8537
 30
0.0
 10
172.6602
 20
18.1998
 30
0.0
 10
172.7624
 20
18.3283
 30
0.0
 10
175.6168
 20
19.335
 30
0.0
 10
175.6168
 20
19.335
 30
0.0
 10
178.0495
 20
20.1932
 30
0.0
 10
178.5559
 20
20.3739
 30
0.0
 10
178.8512
 20
21.9811
 30
0.0
 10
178.8512
 20
21.9811
 30
0.0
 10
179.2037
 20
23.8981
 30
0.0
 10
179.3171
 20
24.2661
 30
0.0
 10
180.0973
 20
22.856
 30
0.0
 10
180.0973
 20
22.856
 30
0.0
 10
181.3691
 20
20.5573
 30
0.0
 10
181.0926
 20
16.2534
 30
0.0
 10
179.5755
 20
14.7364
 30
0.0
 10
179.5755
 20
14.7364
 30
0.0
 10
178.8504
 20
14.0112
 30
0.0
 10
177.8295
 20
13.4177
 30
0.0
 10
177.307
 20
13.4177
 30
0.0
 10
177.307
 20
13.4177
 30
0.0
 10
176.7844
 20
13.4177
 30
0.0
 10
176.1737
 20
13.1209
 30
0.0
 10
175.9494
 20
12.7583
 30
0.0
 10
175.9494
 20
12.7583
 30
0.0
 10
175.0524
 20
11.3068
 30
0.0
 10
179.0562
 20
12.1822
 30
0.0
 10
180.5154
 20
13.7566
 30
0.0
 10
180.5154
 20
13.7566
 30
0.0
 10
183.8847
 20
17.3919
 30
0.0
 10
183.1805
 20
22.7581
 30
0.0
 10
178.7672
 20
27.0789
 30
0.0
 10
178.7672
 20
27.0789
 30
0.0
 10
175.309
 20
30.4643
 30
0.0
 10
172.0674
 20
31.8779
 30
0.0
 10
167.7615
 20
31.8779
 30
0.0
 10
167.7615
 20
31.8779
 30
0.0
 10
160.1766
 20
31.8779
 30
0.0
 10
153.1168
 20
29.2692
 30
0.0
 10
139.3952
 20
21.3965
 30
0.0
 10
139.3952
 20
21.3965
 30
0.0
 10
139.3952
 20
21.3965
 30
0.0
 10
130.1573
 20
16.0964
 30
0.0
 10
130.1573
 20
16.0964
 30
0.0
 10
130.1573
 20
16.0964
 30
0.0
 10
130.1573
 20
16.0964
 30
0.0
 10
127.3933
 20
17.2703
 30
0.0
 10
127.3933
 20
17.2703
 30
0.0
 10
127.3933
 20
17.2703
 30
0.0
 10
127.3933
 20
17.2703
 30
0.0
 10
125.6117
 20
18.4442
 30
0.0
 10
125.6117
 20
18.4442
 30
0.0
 10
125.6117
 20
18.4442
 30
0.0
 10
134.752
 20
25.9852
 30
0.0
 10
144.349
 20
31.8286
 30
0.0
 10
145.2685
 20
48.7922
 30
0.0
 10
145.2685
 20
48.7922
 30
0.0
 10
145.1439
 20
51.0566
 30
0.0
 10
145.0823
 20
53.653
 30
0.0
 10
143.5486
 20
56.1608
 30
0.0
 10
143.5486
 20
56.1608
 30
0.0
 10
142.2586
 20
57.8012
 30
0.0
 10
141.9015
 20
58.25
 30
0.0
 10
143.2989
 20
58.25
 30
0.0
 10
143.2989
 20
58.25
 30
0.0
 10
148.3182
 20
57.6156
 30
0.0
 10
148.5562
 20
55.5174
 30
0.0
 10
148.8976
 20
53.125
 30
0.0
 10
148.8976
 20
53.125
 30
0.0
 10
149.5557
 20
48.341
 30
0.0
 10
150.1956
 20
47.7187
 30
0.0
 10
151.7796
 20
50.3235
 30
0.0
 10
151.7796
 20
50.3235
 30
0.0
 10
151.7796
 20
50.3235
 30
0.0
 10
153.108
 20
52.5078
 30
0.0
 10
153.108
 20
52.5078
 30
0.0
 10
153.108
 20
52.5078
 30
0.0
 10
155.0644
 20
47.6863
 30
0.0
 10
152.3949
 20
42.6708
 30
0.0
 10
149.1836
 20
40.4032
 30
0.0
 10
149.1836
 20
40.4032
 30
0.0
 10
148.1226
 20
39.6477
 30
0.0
 10
147.4399
 20
38.7297
 30
0.0
 10
147.6664
 20
38.3634
 30
0.0
 10
147.6664
 20
38.3634
 30
0.0
 10
147.9392
 20
37.9219
 30
0.0
 10
148.32
 20
37.9388
 30
0.0
 10
148.7949
 20
38.4137
 30
0.0
 10
148.7949
 20
38.4137
 30
0.0
 10
149.8662
 20
39.4847
 30
0.0
 10
150.5666
 20
39.2819
 30
0.0
 10
150.5666
 20
37.9002
 30
0.0
 10
150.5666
 20
37.9002
 30
0.0
 10
150.5666
 20
37.2182
 30
0.0
 10
148.2898
 20
34.5315
 30
0.0
 10
145.4571
 20
31.8707
 30
0.0
 10
145.4571
 20
31.8707
 30
0.0
 10
142.2137
 20
28.8242
 30
0.0
 10
140.6733
 20
26.9575
 30
0.0
 10
141.2392
 20
26.7602
 30
0.0
 10
141.2392
 20
26.7602
 30
0.0
 10
142.7136
 20
26.2456
 30
0.0
 10
147.2806
 20
29.3382
 30
0.0
 10
149.5213
 20
32.833
 30
0.0
 10
149.5213
 20
32.833
 30
0.0
 10
154.6104
 20
40.77
 30
0.0
 10
157.8246
 20
44.2065
 30
0.0
 10
157.1373
 20
41.3464
 30
0.0
 10
157.1373
 20
41.3464
 30
0.0
 10
156.2737
 20
37.7519
 30
0.0
 10
157.1426
 20
39.0973
 30
0.0
 10
160.53
 20
41.4274
 30
0.0
 10
160.53
 20
41.4274
 30
0.0
 10
162.3834
 20
42.7019
 30
0.0
 10
164.5899
 20
43.7453
 30
0.0
 10
165.4329
 20
43.7453
 30
0.0
 10
165.4329
 20
43.7453
 30
0.0
 10
166.8313
 20
43.7453
 30
0.0
 10
166.9327
 20
43.5285
 30
0.0
 10
166.5903
 20
41.2729
 30
0.0
 10
166.5903
 20
41.2729
 30
0.0
 10
166.3838
 20
39.9131
 30
0.0
 10
165.6103
 20
38.1342
 30
0.0
 10
164.871
 20
37.3196
 30
0.0
 10
164.871
 20
37.3196
 30
0.0
 10
162.6787
 20
34.9037
 30
0.0
 10
163.9834
 20
34.9421
 30
0.0
 10
168.9424
 20
37.4394
 30
0.0
 10
168.9424
 20
37.4394
 30
0.0
 10
173.1194
 20
39.543
 30
0.0
 10
177.5973
 20
40.5298
 30
0.0
 10
177.5973
 20
39.3467
 30
0.0
 10
177.5973
 20
39.3467
 30
0.0
 10
177.5973
 20
39.1032
 30
0.0
 10
175.9828
 20
37.6886
 30
0.0
 10
175.4286
 20
37.0761
 30
0.0
 10
175.4286
 20
37.0761
 30
0.0
 10
174.4997
 20
36.0497
 30
0.0
 10
175.8196
 20
36.6445
 30
0.0
 10
178.6219
 20
36.2606
 30
0.0
 10
178.6219
 20
36.2606
 30
0.0
 10
181.9552
 20
35.8035
 30
0.0
 10
185.5088
 20
34.0154
 30
0.0
 10
185.5088
 20
32.7952
 30
0.0
 10
185.5088
 20
32.7952
 30
0.0
 10
185.5088
 20
31.78
 30
0.0
 10
183.9634
 20
31.2186
 30
0.0
 10
181.1696
 20
31.2186
 30
0.0
 10
181.1696
 20
31.2186
 30
0.0
 10
178.3899
 20
31.2186
 30
0.0
 10
178.3513
 20
30.6836
 30
0.0
 10
180.9528
 20
28.2102
 30
0.0
 10
180.9528
 20
28.2102
 30
0.0
 10
183.7974
 20
25.5058
 30
0.0
 10
184.8614
 20
23.1812
 30
0.0
 10
184.9447
 20
19.4895
 30
0.0
 10
184.9447
 20
19.4895
 30
0.0
 10
185.1091
 20
12.1944
 30
0.0
 10
180.2541
 20
8.4784
 30
0.0
 10
173.0031
 20
10.3495
 30
0.0
 10
173.0031
 20
10.3495
 30
0.0
 10
173.0031
 20
10.3495
 30
0.0
 10
173.0031
 20
10.35
 30
0.0
 10
173.0031
 20
10.35
 30
0.0
  0
SPLINE
  5
5D
330
1F
100
AcDbEntity
  8
layer 1
 62
     7
100
AcDbSpline
210
0.0
220
0.0
230
1.0
 70
    11
 71
     3
 72
   108
 73
   104
 74
     0
 42
0.0000000001
 43
0.0000000001
 12
1.0
 22
0.0
 32
0.0
 13
1.0
 23
0.0
 33
0.0
 40
0.0
 40
0.0
 40
0.0
 40
0.0
 40
0.037037037037037
 40
0.037037037037037
 40
0.037037037037037
 40
0.037037037037037
 40
0.0740740740740741
 40
0.0740740740740741
 40
0.0740740740740741
 40
0.0740740740740741
 40
0.1111111111111111
 40
0.1111111111111111
 40
0.1111111111111111
 40
0.1111111111111111
 40
0.1481481481481481
 40
0.1481481481481481
 40
0.1481481481481481
 40
0.1481481481481481
 40
0.1851851851851852
 40
0.1851851851851852
 40
0.1851851851851852
 40
0.1851851851851852
 40
0.2222222222222222
 40
0.2222222222222222
 40
0.2222222222222222
 40
0.2222222222222222
 40
0.2592592592592592
 40
0.2592592592592592
 40
0.2592592592592592
 40
0.2592592592592592
 40
0.2962962962962963
 40
0.2962962962962963
 40
0.2962962962962963
 40
0.2962962962962963
 40
0.3333333333333333
 40
0.3333333333333333
 40
0.3333333333333333
 40
0.3333333333333333
 40
0.3703703703703703
 40
0.3703703703703703
 40
0.3703703703703703
 40
0.3703703703703703
 40
0.4074074074074074
 40
0.4074074074074074
 40
0.4074074074074074
 40
0.4074074074074074
 40
0.4444444444444444
 40
0.4444444444444444
 40
0.4444444444444444
 40
0.4444444444444444
 40
0.4814814814814815
 40
0.4814814814814815
 40
0.4814814814814815
 40
0.4814814814814815
 40
0.5185185185185185
 40
0.5185185185185185
 40
0.5185185185185185
 40
0.5185185185185185
 40
0.5555555555555556
 40
0.5555555555555556
 40
0.5555555555555556
 40
0.5555555555555556
 40
0.5925925925925926
 40
0.5925925925925926
 40
0.5925925925925926
 40
0.5925925925925926
 40
0.6296296296296297
 40
0.6296296296296297
 40
0.6296296296296297
 40
0.6296296296296297
 40
0.6666666666666666
 40
0.6666666666666666
 40
0.6666666666666666
 40
0.6666666666666666
 40
0.7037037037037037
 40
0.7037037037037037
 40
0.7037037037037037
 40
0.7037037037037037
 40
0.7407407407407407
 40
0.7407407407407407
 40
0.7407407407407407
 40
0.7407407407407407
 40
0.7777777777777778
 40
0.7777777777777778
 40
0.7777777777777778
 40
0.7777777777777778
 40
0.8148148148148148
 40
0.8148148148148148
 40
0.8148148148148148
 40
0.8148148148148148
 40
0.8518518518518519
 40
0.8518518518518519
 40
0.8518518518518519
 40
0.8518518518518519
 40
0.8888888888888888
 40
0.8888888888888888
 40
0.8888888888888888
 40
0.8888888888888888
 40
0.9259259259259259
 40
0.9259259259259259
 40
0.9259259259259259
 40
0.9259259259259259
 40
1.0
 40
1.0
 40
1.0
 40
1.0
 10
139.2789
 20
8.7303
 30
0.0
 10
139.3018
 20
9.8544
 30
0.0
 10
140.5305
 20
11.4459
 30
0.0
 10
142.8213
 20
12.403
 30
0.0
 10
142.8213
 20
12.403
 30
0.0
 10
145.9732
 20
13.7199
 30
0.0
 10
147.386
 20
13.6741
 30
0.0
 10
152.438
 20
12.0905
 30
0.0
 10
152.438
 20
12.0905
 30
0.0
 10
157.0581
 20
10.6423
 30
0.0
 10
159.137
 20
10.4404
 30
0.0
 10
159.137
 20
11.4397
 30
0.0
 10
159.137
 20
11.4397
 30
0.0
 10
159.137
 20
11.8022
 30
0.0
 10
158.6773
 20
12.099
 30
0.0
 10
158.1154
 20
12.099
 30
0.0
 10
158.1154
 20
12.099
 30
0.0
 10
156.1555
 20
12.099
 30
0.0
 10
153.2194
 20
14.1132
 30
0.0
 10
152.8118
 20
15.7371
 30
0.0
 10
152.8118
 20
15.7371
 30
0.0
 10
152.341
 20
17.6127
 30
0.0
 10
152.9525
 20
20.6699
 30
0.0
 10
153.7983
 20
20.6699
 30
0.0
 10
153.7983
 20
20.6699
 30
0.0
 10
154.1117
 20
20.6699
 30
0.0
 10
154.5234
 20
20.0766
 30
0.0
 10
154.713
 20
19.3512
 30
0.0
 10
154.713
 20
19.3512
 30
0.0
 10
154.9027
 20
18.6261
 30
0.0
 10
155.414
 20
18.0326
 30
0.0
 10
155.8493
 20
18.0326
 30
0.0
 10
155.8493
 20
18.0326
 30
0.0
 10
156.3566
 20
18.0326
 30
0.0
 10
156.4588
 20
18.4467
 30
0.0
 10
156.1339
 20
19.1863
 30
0.0
 10
156.1339
 20
19.1863
 30
0.0
 10
154.0031
 20
24.0361
 30
0.0
 10
155.9196
 20
27.9219
 30
0.0
 10
160.4422
 20
27.9219
 30
0.0
 10
160.4422
 20
27.9219
 30
0.0
 10
163.6408
 20
27.9219
 30
0.0
 10
164.5632
 20
26.7325
 30
0.0
 10
161.7943
 20
26.1788
 30
0.0
 10
161.7943
 20
26.1788
 30
0.0
 10
157.7154
 20
25.363
 30
0.0
 10
157.6055
 20
21.3773
 30
0.0
 10
161.5352
 20
16.7866
 30
0.0
 10
161.5352
 20
16.7866
 30
0.0
 10
163.1314
 20
13.9684
 30
0.0
 10
170.1953
 20
11.726
 30
0.0
 10
169.8494
 20
8.7303
 30
0.0
 10
169.8494
 20
8.7303
 30
0.0
 10
170.1953
 20
5.7346
 30
0.0
 10
163.1314
 20
3.4962
 30
0.0
 10
161.5352
 20
0.6779
 30
0.0
 10
161.5352
 20
0.6779
 30
0.0
 10
157.6055
 20
-3.9128
 30
0.0
 10
157.7154
 20
-7.8984
 30
0.0
 10
161.7943
 20
-8.7143
 30
0.0
 10
161.7943
 20
-8.7143
 30
0.0
 10
164.5632
 20
-9.268
 30
0.0
 10
163.6408
 20
-10.4573
 30
0.0
 10
160.4422
 20
-10.4573
 30
0.0
 10
160.4422
 20
-10.4573
 30
0.0
 10
155.9196
 20
-10.4573
 30
0.0
 10
154.0031
 20
-6.5715
 30
0.0
 10
156.1339
 20
-1.7217
 30
0.0
 10
156.1339
 20
-1.7217
 30
0.0
 10
156.4588
 20
-0.9821
 30
0.0
 10
156.3566
 20
-0.568
 30
0.0
 10
155.8493
 20
-0.568
 30
0.0
 10
155.8493
 20
-0.568
 30
0.0
 10
155.414
 20
-0.568
 30
0.0
 10
154.9027
 20
-1.1615
 30
0.0
 10
154.713
 20
-1.8867
 30
0.0
 10
154.713
 20
-1.8867
 30
0.0
 10
154.5234
 20
-2.612
 30
0.0
 10
154.1117
 20
-3.2053
 30
0.0
 10
153.7983
 20
-3.2053
 30
0.0
 10
153.7983
 20
-3.2053
 30
0.0
 10
152.9525
 20
-3.2053
 30
0.0
 10
152.341
 20
-0.1481
 30
0.0
 10
152.8118
 20
1.7275
 30
0.0
 10
152.8118
 20
1.7275
 30
0.0
 10
153.2194
 20
3.3514
 30
0.0
 10
156.1555
 20
5.3656
 30
0.0
 10
158.1154
 20
5.3656
 30
0.0
 10
158.1154
 20
5.3656
 30
0.0
 10
158.6773
 20
5.3656
 30
0.0
 10
159.137
 20
5.6624
 30
0.0
 10
159.137
 20
6.0249
 30
0.0
 10
159.137
 20
6.0249
 30
0.0
 10
159.137
 20
7.0241
 30
0.0
 10
157.0581
 20
6.8223
 30
0.0
 10
152.438
 20
5.374
 30
0.0
 10
152.438
 20
5.374
 30
0.0
 10
147.386
 20
3.7905
 30
0.0
 10
145.9732
 20
3.7446
 30
0.0
 10
142.8213
 20
5.0616
 30
0.0
 10
142.8213
 20
5.0616
 30
0.0
 10
140.5305
 20
6.0187
 30
0.0
 10
139.3018
 20
7.6062
 30
0.0
 10
139.2789
 20
8.7303
 30
0.0
  0
SPLINE
  5
5E
330
1F
100
AcDbEntity
  8
layer 1
 62
     7
100
AcDbSpline
210
0.0
220
0.0
230
1.0
 70
    11
 71
     3
 72
   108
 73
   104
 74
     0
 42
0.0000000001
 43
0.0000000001
 12
1.0
 22
0.0
 32
0.0
 13
1.0
 23
0.0
 33
0.0
 40
0.0
 40
0.0
 40
0.0
 40
0.0
 40
0.037037037037037
 40
0.037037037037037
 40
0.037037037037037
 40
0.037037037037037
 40
0.0740740740740741
 40
0.0740740740740741
 40
0.0740740740740741
 40
0.0740740740740741
 40
0.1111111111111111
 40
0.1111111111111111
 40
0.1111111111111111
 40
0.1111111111111111
 40
0.1481481481481481
 40
0.1481481481481481
 40
0.1481481481481481
 40
0.1481481481481481
 40
0.1851851851851852
 40
0.1851851851851852
 40
0.1851851851851852
 40
0.1851851851851852
 40
0.2222222222222222
 40
0.2222222222222222
 40
0.2222222222222222
 40
0.2222222222222222
 40
0.2592592592592592
 40
0.2592592592592592
 40
0.2592592592592592
 40
0.2592592592592592
 40
0.2962962962962963
 40
0.2962962962962963
 40
0.2962962962962963
 40
0.2962962962962963
 40
0.3333333333333333
 40
0.3333333333333333
 40
0.3333333333333333
 40
0.3333333333333333
 40
0.3703703703703703
 40
0.3703703703703703
 40
0.3703703703703703
 40
0.3703703703703703
 40
0.4074074074074074
 40
0.4074074074074074
 40
0.4074074074074074
 40
0.4074074074074074
 40
0.4444444444444444
 40
0.4444444444444444
 40
0.4444444444444444
 40
0.4444444444444444
 40
0.4814814814814815
 40
0.4814814814814815
 40
0.4814814814814815
 40
0.4814814814814815
 40
0.5185185185185185
 40
0.5185185185185185
 40
0.5185185185185185
 40
0.5185185185185185
 40
0.5555555555555556
 40
0.5555555555555556
 40
0.5555555555555556
 40
0.5555555555555556
 40
0.5925925925925926
 40
0.5925925925925926
 40
0.5925925925925926
 40
0.5925925925925926
 40
0.6296296296296297
 40
0.6296296296296297
 40
0.6296296296296297
 40
0.6296296296296297
 40
0.6666666666666666
 40
0.6666666666666666
 40
0.6666666666666666
 40
0.6666666666666666
 40
0.7037037037037037
 40
0.7037037037037037
 40
0.7037037037037037
 40
0.7037037037037037
 40
0.7407407407407407
 40
0.7407407407407407
 40
0.7407407407407407
 40
0.7407407407407407
 40
0.7777777777777778
 40
0.7777777777777778
 40
0.7777777777777778
 40
0.7777777777777778
 40
0.8148148148148148
 40
0.8148148148148148
 40
0.8148148148148148
 40
0.8148148148148148
 40
0.8518518518518519
 40
0.8518518518518519
 40
0.8518518518518519
 40
0.8518518518518519
 40
0.8888888888888888
 40
0.8888888888888888
 40
0.8888888888888888
 40
0.8888888888888888
 40
0.9259259259259259
 40
0.9259259259259259
 40
0.9259259259259259
 40
0.9259259259259259
 40
1.0
 40
1.0
 40
1.0
 40
1.0
 10
51.2071
 20
59.7334
 30
0.0
 10
48.9963
 20
62.0759
 30
0.0
 10
46.9812
 20
67.4548
 30
0.0
 10
47.3452
 20
68.7643
 30
0.0
 10
47.3452
 20
68.7643
 30
0.0
 10
47.7235
 20
70.1248
 30
0.0
 10
49.8326
 20
69.0705
 30
0.0
 10
51.902
 20
68.7962
 30
0.0
 10
51.902
 20
68.7962
 30
0.0
 10
59.0366
 20
69.827
 30
0.0
 10
50.4042
 20
77.4637
 30
0.0
 10
58.5188
 20
79.9354
 30
0.0
 10
58.5188
 20
79.9354
 30
0.0
 10
52.8437
 20
82.6946
 30
0.0
 10
49.9091
 20
80.1888
 30
0.0
 10
49.9173
 20
75.9888
 30
0.0
 10
49.9173
 20
75.9888
 30
0.0
 10
49.7262
 20
72.7607
 30
0.0
 10
48.5199
 20
72.0933
 30
0.0
 10
47.6325
 20
73.4943
 30
0.0
 10
47.6325
 20
73.4943
 30
0.0
 10
46.6066
 20
75.1139
 30
0.0
 10
47.0028
 20
76.9803
 30
0.0
 10
49.0148
 20
80.0069
 30
0.0
 10
49.0148
 20
80.0069
 30
0.0
 10
51.1256
 20
83.1822
 30
0.0
 10
51.4206
 20
85.1755
 30
0.0
 10
50.2689
 20
88.4794
 30
0.0
 10
50.2689
 20
88.4794
 30
0.0
 10
49.4114
 20
90.9393
 30
0.0
 10
48.8969
 20
91.0756
 30
0.0
 10
48.0173
 20
89.0762
 30
0.0
 10
48.0173
 20
89.0762
 30
0.0
 10
47.6594
 20
88.2623
 30
0.0
 10
46.8733
 20
87.5038
 30
0.0
 10
46.2705
 20
87.3907
 30
0.0
 10
46.2705
 20
87.3907
 30
0.0
 10
45.3647
 20
87.2205
 30
0.0
 10
45.2262
 20
87.6204
 30
0.0
 10
45.4729
 20
89.6944
 30
0.0
 10
45.4729
 20
89.6944
 30
0.0
 10
45.6802
 20
91.4382
 30
0.0
 10
45.3106
 20
93.1648
 30
0.0
 10
44.2613
 20
95.3531
 30
0.0
 10
44.2613
 20
95.3531
 30
0.0
 10
44.2613
 20
95.3531
 30
0.0
 10
42.7513
 20
98.502
 30
0.0
 10
42.7513
 20
98.502
 30
0.0
 10
42.7513
 20
98.502
 30
0.0
 10
42.7513
 20
98.502
 30
0.0
 10
40.8059
 20
96.0466
 30
0.0
 10
40.8059
 20
96.0466
 30
0.0
 10
40.8059
 20
96.0466
 30
0.0
 10
39.2834
 20
94.1246
 30
0.0
 10
38.8
 20
92.7539
 30
0.0
 10
38.5819
 20
89.738
 30
0.0
 10
38.5819
 20
89.738
 30
0.0
 10
38.2725
 20
85.461
 30
0.0
 10
37.4601
 20
85.0863
 30
0.0
 10
35.756
 20
88.4343
 30
0.0
 10
35.756
 20
88.4343
 30
0.0
 10
34.4545
 20
90.9911
 30
0.0
 10
33.8507
 20
90.5302
 30
0.0
 10
33.8507
 20
86.98
 30
0.0
 10
33.8507
 20
86.98
 30
0.0
 10
33.8507
 20
83.0337
 30
0.0
 10
34.7243
 20
80.6012
 30
0.0
 10
37.4006
 20
77.0952
 30
0.0
 10
37.4006
 20
77.0952
 30
0.0
 10
41.3265
 20
71.9521
 30
0.0
 10
40.3624
 20
69.3944
 30
0.0
 10
35.7557
 20
72.7318
 30
0.0
 10
35.7557
 20
72.7318
 30
0.0
 10
32.153
 20
75.3414
 30
0.0
 10
30.2385
 20
75.3315
 30
0.0
 10
28.8753
 20
72.6951
 30
0.0
 10
28.8753
 20
72.6951
 30
0.0
 10
27.5479
 20
70.128
 30
0.0
 10
27.9839
 20
68.8684
 30
0.0
 10
30.0621
 20
69.2656
 30
0.0
 10
30.0621
 20
69.2656
 30
0.0
 10
31.3011
 20
69.5023
 30
0.0
 10
32.311
 20
68.8816
 30
0.0
 10
34.6386
 20
66.4528
 30
0.0
 10
34.6386
 20
66.4528
 30
0.0
 10
37.1885
 20
63.7921
 30
0.0
 10
37.8827
 20
63.4006
 30
0.0
 10
39.3843
 20
63.7776
 30
0.0
 10
39.3843
 20
63.7776
 30
0.0
 10
40.6547
 20
64.0963
 30
0.0
 10
41.2519
 20
64.7634
 30
0.0
 10
41.535
 20
66.1792
 30
0.0
 10
41.535
 20
66.1792
 30
0.0
 10
42.1468
 20
69.2382
 30
0.0
 10
44.1081
 20
68.7448
 30
0.0
 10
45.8207
 20
65.1013
 30
0.0
 10
45.8207
 20
65.1013
 30
0.0
 10
47.251
 20
62.059
 30
0.0
 10
51.2494
 20
57.5906
 30
0.0
 10
52.5417
 20
57.5906
 30
0.0
 10
52.5417
 20
57.5906
 30
0.0
 10
52.9197
 20
57.5906
 30
0.0
 10
52.3192
 20
58.555
 30
0.0
 10
51.2071
 20
59.7334
 30
0.0
  0
SPLINE
  5
5F
330
1F
100
AcDbEntity
  8
layer 1
 62
     7
100
AcDbSpline
210
0.0
220
0.0
230
1.0
 70
    11
 71
     3
 72
    20
 73
    16
 74
     0
 42
0.0000000001
 43
0.0000000001
 12
1.0
 22
0.0
 32
0.0
 13
1.0
 23
0.0
 33
0.0
 40
0.0
 40
0.0
 40
0.0
 40
0.0
 40
0.2
 40
0.2
 40
0.2
 40
0.2
 40
0.4
 40
0.4
 40
0.4
 40
0.4
 40
0.6
 40
0.6
 40
0.6
 40
0.6
 40
1.0
 40
1.0
 40
1.0
 40
1.0
 10
17.6999
 20
99.4011
 30
0.0
 10
21.395
 20
103.5395
 30
0.0
 10
20.3689
 20
101.5181
 30
0.0
 10
15.62
 20
95.3048
 30
0.0
 10
15.62
 20
95.3048
 30
0.0
 10
11.0587
 20
89.3366
 30
0.0
 10
7.8076
 20
83.3048
 30
0.0
 10
7.0194
 20
79.3476
 30
0.0
 10
7.0194
 20
79.3476
 30
0.0
 10
6.7324
 20
77.9068
 30
0.0
 10
6.3748
 20
77.6658
 30
0.0
 10
6.3048
 20
79.5701
 30
0.0
 10
6.3048
 20
79.5701
 30
0.0
 10
8.3356
 20
86.4094
 30
0.0
 10
12.927
 20
93.9666
 30
0.0
 10
17.6999
 20
99.4011
 30
0.0
  0
SPLINE
  5
60
330
1F
100
AcDbEntity
  8
layer 1
 62
     7
100
AcDbSpline
210
0.0
220
0.0
230
1.0
 70
    11
 71
     3
 72
    24
 73
    20
 74
     0
 42
0.0000000001
 43
0.0000000001
 12
1.0
 22
0.0
 32
0.0
 13
1.0
 23
0.0
 33
0.0
 40
0.0
 40
0.0
 40
0.0
 40
0.0
 40
0.1666666666666667
 40
0.1666666666666667
 40
0.1666666666666667
 40
0.1666666666666667
 40
0.3333333333333333
 40
0.3333333333333333
 40
0.3333333333333333
 40
0.3333333333333333
 40
0.5
 40
0.5
 40
0.5
 40
0.5
 40
0.6666666666666666
 40
0.6666666666666666
 40
0.6666666666666666
 40
0.6666666666666666
 40
1.0
 40
1.0
 40
1.0
 40
1.0
 10
9.0874
 20
63.2304
 30
0.0
 10
8.278
 20
68.6277
 30
0.0
 10
10.6485
 20
78.6882
 30
0.0
 10
12.7297
 20
78.6882
 30
0.0
 10
12.7297
 20
78.6882
 30
0.0
 10
13.1202
 20
78.6882
 30
0.0
 10
12.7698
 20
77.4274
 30
0.0
 10
11.951
 20
75.8862
 30
0.0
 10
11.951
 20
75.8862
 30
0.0
 10
10.7018
 20
73.5344
 30
0.0
 10
10.4611
 20
72.0512
 30
0.0
 10
10.4542
 20
66.6567
 30
0.0
 10
10.4542
 20
66.6567
 30
0.0
 10
10.4452
 20
59.8208
 30
0.0
 10
9.8299
 20
58.2784
 30
0.0
 10
9.0874
 20
63.2301
 30
0.0
 10
9.0874
 20
63.2301
 30
0.0
 10
9.0874
 20
63.2301
 30
0.0
 10
9.0874
 20
63.2304
 30
0.0
 10
9.0874
 20
63.2304
 30
0.0
  0
SPLINE
  5
61
330
1F
100
AcDbEntity
  8
layer 1
 62
     7
100
AcDbSpline
210
0.0
220
0.0
230
1.0
 70
    11
 71
     3
 72
   124
 73
   120
 74
     0
 42
0.0000000001
 43
0.0000000001
 12
1.0
 22
0.0
 32
0.0
 13
1.0
 23
0.0
 33
0.0
 40
0.0
 40
0.0
 40
0.0
 40
0.0
 40
0.032258064516129
 40
0.032258064516129
 40
0.032258064516129
 40
0.032258064516129
 40
0.0645161290322581
 40
0.0645161290322581
 40
0.0645161290322581
 40
0.0645161290322581
 40
0.0967741935483871
 40
0.0967741935483871
 40
0.0967741935483871
 40
0.0967741935483871
 40
0.1290322580645161
 40
0.1290322580645161
 40
0.1290322580645161
 40
0.1290322580645161
 40
0.1612903225806452
 40
0.1612903225806452
 40
0.1612903225806452
 40
0.1612903225806452
 40
0.1935483870967742
 40
0.1935483870967742
 40
0.1935483870967742
 40
0.1935483870967742
 40
0.2258064516129032
 40
0.2258064516129032
 40
0.2258064516129032
 40
0.2258064516129032
 40
0.2580645161290323
 40
0.2580645161290323
 40
0.2580645161290323
 40
0.2580645161290323
 40
0.2903225806451613
 40
0.2903225806451613
 40
0.2903225806451613
 40
0.2903225806451613
 40
0.3225806451612903
 40
0.3225806451612903
 40
0.3225806451612903
 40
0.3225806451612903
 40
0.3548387096774194
 40
0.3548387096774194
 40
0.3548387096774194
 40
0.3548387096774194
 40
0.3870967741935484
 40
0.3870967741935484
 40
0.3870967741935484
 40
0.3870967741935484
 40
0.4193548387096774
 40
0.4193548387096774
 40
0.4193548387096774
 40
0.4193548387096774
 40
0.4516129032258064
 40
0.4516129032258064
 40
0.4516129032258064
 40
0.4516129032258064
 40
0.4838709677419355
 40
0.4838709677419355
 40
0.4838709677419355
 40
0.4838709677419355
 40
0.5161290322580645
 40
0.5161290322580645
 40
0.5161290322580645
 40
0.5161290322580645
 40
0.5483870967741935
 40
0.5483870967741935
 40
0.5483870967741935
 40
0.5483870967741935
 40
0.5806451612903226
 40
0.5806451612903226
 40
0.5806451612903226
 40
0.5806451612903226
 40
0.6129032258064516
 40
0.6129032258064516
 40
0.6129032258064516
 40
0.6129032258064516
 40
0.6451612903225806
 40
0.6451612903225806
 40
0.6451612903225806
 40
0.6451612903225806
 40
0.6774193548387096
 40
0.6774193548387096
 40
0.6774193548387096
 40
0.6774193548387096
 40
0.7096774193548387
 40
0.7096774193548387
 40
0.7096774193548387
 40
0.7096774193548387
 40
0.7419354838709677
 40
0.7419354838709677
 40
0.7419354838709677
 40
0.7419354838709677
 40
0.7741935483870968
 40
0.7741935483870968
 40
0.7741935483870968
 40
0.7741935483870968
 40
0.8064516129032258
 40
0.8064516129032258
 40
0.8064516129032258
 40
0.8064516129032258
 40
0.8387096774193549
 40
0.8387096774193549
 40
0.8387096774193549
 40
0.8387096774193549
 40
0.8709677419354839
 40
0.8709677419354839
 40
0.8709677419354839
 40
0.8709677419354839
 40
0.9032258064516129
 40
0.9032258064516129
 40
0.9032258064516129
 40
0.9032258064516129
 40
0.9354838709677419
 40
0.9354838709677419
 40
0.9354838709677419
 40
0.9354838709677419
 40
1.0
 40
1.0
 40
1.0
 40
1.0
 10
17.6757
 20
61.5462
 30
0.0
 10
20.1643
 20
61.5462
 30
0.0
 10
20.6116
 20
62.2003
 30
0.0
 10
19.0238
 20
63.518
 30
0.0
 10
19.0238
 20
63.518
 30
0.0
 10
18.4011
 20
64.0348
 30
0.0
 10
17.1958
 20
64.1741
 30
0.0
 10
15.7274
 20
63.8985
 30
0.0
 10
15.7274
 20
63.8985
 30
0.0
 10
12.9288
 20
63.3734
 30
0.0
 10
12.8802
 20
63.8272
 30
0.0
 10
15.4174
 20
66.7955
 30
0.0
 10
15.4174
 20
66.7955
 30
0.0
 10
17.356
 20
69.1338
 30
0.0
 10
17.5292
 20
71.2414
 30
0.0
 10
17.3246
 20
73.7429
 30
0.0
 10
17.3246
 20
73.7429
 30
0.0
 10
16.3119
 20
72.5441
 30
0.0
 10
15.2604
 20
71.3251
 30
0.0
 10
14.536
 20
69.9431
 30
0.0
 10
14.536
 20
69.9431
 30
0.0
 10
14.3098
 20
69.3264
 30
0.0
 10
14.0399
 20
69.3127
 30
0.0
 10
13.4277
 20
69.8876
 30
0.0
 10
13.4277
 20
69.8876
 30
0.0
 10
12.7935
 20
70.4829
 30
0.0
 10
12.9333
 20
71.0729
 30
0.0
 10
14.073
 20
72.6146
 30
0.0
 10
14.073
 20
72.6146
 30
0.0
 10
15.1019
 20
74.0063
 30
0.0
 10
15.5557
 20
75.6165
 30
0.0
 10
15.624
 20
78.1183
 30
0.0
 10
15.624
 20
78.1183
 30
0.0
 10
15.7119
 20
81.3443
 30
0.0
 10
16.1226
 20
81.4058
 30
0.0
 10
15.3591
 20
82.8528
 30
0.0
 10
15.3591
 20
82.8528
 30
0.0
 10
12.1738
 20
82.0258
 30
0.0
 10
11.9809
 20
81.3495
 30
0.0
 10
10.3176
 20
79.586
 30
0.0
 10
10.3176
 20
79.586
 30
0.0
 10
8.274
 20
77.4191
 30
0.0
 10
8.0269
 20
77.3025
 30
0.0
 10
8.4647
 20
78.7109
 30
0.0
 10
8.4647
 20
78.7109
 30
0.0
 10
8.7425
 20
79.6047
 30
0.0
 10
11.3046
 20
82.7768
 30
0.0
 10
14.158
 20
85.7598
 30
0.0
 10
14.158
 20
85.7598
 30
0.0
 10
19.5371
 20
91.3831
 30
0.0
 10
20.4297
 20
93.178
 30
0.0
 10
17.8629
 20
93.2121
 30
0.0
 10
17.8629
 20
93.2121
 30
0.0
 10
16.5507
 20
93.2296
 30
0.0
 10
16.7007
 20
93.5149
 30
0.0
 10
19.1614
 20
95.6845
 30
0.0
 10
19.1614
 20
95.6845
 30
0.0
 10
22.697
 20
98.3029
 30
0.0
 10
25.2913
 20
106.2648
 30
0.0
 10
22.2365
 20
111.9427
 30
0.0
 10
22.2365
 20
111.9427
 30
0.0
 10
19.818
 20
110.4865
 30
0.0
 10
19.1728
 20
104.3456
 30
0.0
 10
18.0829
 20
102.0564
 30
0.0
 10
18.0829
 20
102.0564
 30
0.0
 10
17.6169
 20
101.0776
 30
0.0
 10
16.8517
 20
101.4249
 30
0.0
 10
16.7024
 20
100.9831
 30
0.0
 10
16.7024
 20
100.9831
 30
0.0
 10
16.3234
 20
102.5777
 30
0.0
 10
14.5702
 20
103.1276
 30
0.0
 10
13.7506
 20
101.2647
 30
0.0
 10
13.7506
 20
101.2647
 30
0.0
 10
13.3928
 20
100.4509
 30
0.0
 10
12.8735
 20
99.7851
 30
0.0
 10
12.5969
 20
99.7851
 30
0.0
 10
12.5969
 20
99.7851
 30
0.0
 10
11.4272
 20
99.7851
 30
0.0
 10
12.2699
 20
101.4768
 30
0.0
 10
14.8154
 20
104.2382
 30
0.0
 10
14.8154
 20
104.2382
 30
0.0
 10
17.5295
 20
107.1828
 30
0.0
 10
17.982
 20
108.6296
 30
0.0
 10
17.0271
 20
112.1553
 30
0.0
 10
17.0271
 20
112.1553
 30
0.0
 10
15.7167
 20
116.1895
 30
0.0
 10
16.6937
 20
118.5735
 30
0.0
 10
17.4609
 20
122.1881
 30
0.0
 10
17.4609
 20
122.1881
 30
0.0
 10
14.4027
 20
121.2951
 30
0.0
 10
13.4125
 20
117.8048
 30
0.0
 10
13.4125
 20
116.3804
 30
0.0
 10
13.4125
 20
116.3804
 30
0.0
 10
13.4125
 20
114.297
 30
0.0
 10
11.5299
 20
114.6062
 30
0.0
 10
11.0888
 20
116.7619
 30
0.0
 10
11.0888
 20
116.7619
 30
0.0
 10
10.9523
 20
118.9061
 30
0.0
 10
8.6391
 20
123.3466
 30
0.0
 10
5.2206
 20
124.1186
 30
0.0
 10
5.2206
 20
124.1186
 30
0.0
 10
5.0546
 20
123.9526
 30
0.0
 10
5.8156
 20
122.0077
 30
0.0
 10
6.9115
 20
119.7965
 30
0.0
 10
6.9115
 20
119.7965
 30
0.0
 10
11.0938
 20
111.3586
 30
0.0
 10
10.5643
 20
99.7876
 30
0.0
 10
5.1132
 20
80.4866
 30
0.0
 10
5.1132
 20
80.4866
 30
0.0
 10
2.6487
 20
73.3764
 30
0.0
 10
3.1638
 20
64.4666
 30
0.0
 10
8.1191
 20
58.9285
 30
0.0
 10
8.1191
 20
58.9285
 30
0.0
 10
10.5957
 20
56.2772
 30
0.0
 10
12.2901
 20
56.3666
 30
0.0
 10
13.9843
 20
59.238
 30
0.0
 10
13.9843
 20
59.238
 30
0.0
 10
14.5525
 20
60.9424
 30
0.0
 10
16.0625
 20
61.5462
 30
0.0
 10
17.6757
 20
61.5462
 30
0.0
  0
SPLINE
  5
62
330
1F
100
AcDbEntity
  8
layer 1
 62
     7
100
AcDbSpline
210
0.0
220
0.0
230
1.0
 70
    11
 71
     3
 72
    36
 73
    32
 74
     0
 42
0.0000000001
 43
0.0000000001
 12
1.0
 22
0.0
 32
0.0
 13
1.0
 23
0.0
 33
0.0
 40
0.0
 40
0.0
 40
0.0
 40
0.0
 40
0.1111111111111111
 40
0.1111111111111111
 40
0.1111111111111111
 40
0.1111111111111111
 40
0.2222222222222222
 40
0.2222222222222222
 40
0.2222222222222222
 40
0.2222222222222222
 40
0.3333333333333333
 40
0.3333333333333333
 40
0.3333333333333333
 40
0.3333333333333333
 40
0.4444444444444444
 40
0.4444444444444444
 40
0.4444444444444444
 40
0.4444444444444444
 40
0.5555555555555556
 40
0.5555555555555556
 40
0.5555555555555556
 40
0.5555555555555556
 40
0.6666666666666666
 40
0.6666666666666666
 40
0.6666666666666666
 40
0.6666666666666666
 40
0.7777777777777778
 40
0.7777777777777778
 40
0.7777777777777778
 40
0.7777777777777778
 40
1.0
 40
1.0
 40
1.0
 40
1.0
 10
67.1453
 20
50.9977
 30
0.0
 10
67.778
 20
52.0216
 30
0.0
 10
66.8862
 20
52.9753
 30
0.0
 10
65.2934
 20
52.978
 30
0.0
 10
65.2934
 20
52.978
 30
0.0
 10
61.442
 20
52.9845
 30
0.0
 10
57.5857
 20
57.4202
 30
0.0
 10
57.5857
 20
61.8432
 30
0.0
 10
57.5857
 20
61.8432
 30
0.0
 10
57.5857
 20
63.1302
 30
0.0
 10
57.2993
 20
64.1835
 30
0.0
 10
56.9495
 20
64.1835
 30
0.0
 10
56.9495
 20
64.1835
 30
0.0
 10
54.5509
 20
61.965
 30
0.0
 10
54.9483
 20
59.3922
 30
0.0
 10
54.9483
 20
56.3549
 30
0.0
 10
54.9483
 20
56.3549
 30
0.0
 10
52.3914
 20
56.8643
 30
0.0
 10
47.1852
 20
57.7035
 30
0.0
 10
47.0367
 20
52.841
 30
0.0
 10
47.0367
 20
52.841
 30
0.0
 10
47.0367
 20
51.7079
 30
0.0
 10
47.186
 20
51.7279
 30
0.0
 10
49.0561
 20
53.1106
 30
0.0
 10
49.0561
 20
53.1106
 30
0.0
 10
51.4884
 20
55.0171
 30
0.0
 10
54.1312
 20
53.5257
 30
0.0
 10
57.1324
 20
52.4672
 30
0.0
 10
57.1324
 20
52.4672
 30
0.0
 10
63.3271
 20
50.2826
 30
0.0
 10
66.4224
 20
49.8281
 30
0.0
 10
67.1453
 20
50.9977
 30
0.0
  0
SPLINE
  5
63
330
1F
100
AcDbEntity
  8
layer 1
 62
     7
100
AcDbSpline
210
0.0
220
0.0
230
1.0
 70
    11
 71
     3
 72
   120
 73
   116
 74
     0
 42
0.0000000001
 43
0.0000000001
 12
1.0
 22
0.0
 32
0.0
 13
1.0
 23
0.0
 33
0.0
 40
0.0
 40
0.0
 40
0.0
 40
0.0
 40
0.0333333333333333
 40
0.0333333333333333
 40
0.0333333333333333
 40
0.0333333333333333
 40
0.0666666666666667
 40
0.0666666666666667
 40
0.0666666666666667
 40
0.0666666666666667
 40
0.1
 40
0.1
 40
0.1
 40
0.1
 40
0.1333333333333333
 40
0.1333333333333333
 40
0.1333333333333333
 40
0.1333333333333333
 40
0.1666666666666667
 40
0.1666666666666667
 40
0.1666666666666667
 40
0.1666666666666667
 40
0.2
 40
0.2
 40
0.2
 40
0.2
 40
0.2333333333333333
 40
0.2333333333333333
 40
0.2333333333333333
 40
0.2333333333333333
 40
0.2666666666666667
 40
0.2666666666666667
 40
0.2666666666666667
 40
0.2666666666666667
 40
0.3
 40
0.3
 40
0.3
 40
0.3
 40
0.3333333333333333
 40
0.3333333333333333
 40
0.3333333333333333
 40
0.3333333333333333
 40
0.3666666666666666
 40
0.3666666666666666
 40
0.3666666666666666
 40
0.3666666666666666
 40
0.4
 40
0.4
 40
0.4
 40
0.4
 40
0.4333333333333333
 40
0.4333333333333333
 40
0.4333333333333333
 40
0.4333333333333333
 40
0.4666666666666667
 40
0.4666666666666667
 40
0.4666666666666667
 40
0.4666666666666667
 40
0.5
 40
0.5
 40
0.5
 40
0.5
 40
0.5333333333333333
 40
0.5333333333333333
 40
0.5333333333333333
 40
0.5333333333333333
 40
0.5666666666666667
 40
0.5666666666666667
 40
0.5666666666666667
 40
0.5666666666666667
 40
0.6
 40
0.6
 40
0.6
 40
0.6
 40
0.6333333333333333
 40
0.6333333333333333
 40
0.6333333333333333
 40
0.6333333333333333
 40
0.6666666666666666
 40
0.6666666666666666
 40
0.6666666666666666
 40
0.6666666666666666
 40
0.7
 40
0.7
 40
0.7
 40
0.7
 40
0.7333333333333333
 40
0.7333333333333333
 40
0.7333333333333333
 40
0.7333333333333333
 40
0.7666666666666667
 40
0.7666666666666667
 40
0.7666666666666667
 40
0.7666666666666667
 40
0.8
 40
0.8
 40
0.8
 40
0.8
 40
0.8333333333333334
 40
0.8333333333333334
 40
0.8333333333333334
 40
0.8333333333333334
 40
0.8666666666666667
 40
0.8666666666666667
 40
0.8666666666666667
 40
0.8666666666666667
 40
0.9
 40
0.9
 40
0.9
 40
0.9
 40
0.9333333333333333
 40
0.9333333333333333
 40
0.9333333333333333
 40
0.9333333333333333
 40
1.0
 40
1.0
 40
1.0
 40
1.0
 10
33.3608
 20
43.6548
 30
0.0
 10
34.438
 20
43.0782
 30
0.0
 10
34.6294
 20
43.1143
 30
0.0
 10
34.3092
 20
43.8335
 30
0.0
 10
34.3092
 20
43.8335
 30
0.0
 10
23.3995
 20
62.975
 30
0.0
 10
20.1666
 20
87.6688
 30
0.0
 10
36.5354
 20
104.5537
 30
0.0
 10
36.5354
 20
104.5537
 30
0.0
 10
48.8291
 20
116.8474
 30
0.0
 10
72.041
 20
119.4038
 30
0.0
 10
79.6538
 20
105.4826
 30
0.0
 10
79.6538
 20
105.4826
 30
0.0
 10
86.3725
 20
92.4563
 30
0.0
 10
73.0736
 20
84.4307
 30
0.0
 10
65.5575
 20
91.0868
 30
0.0
 10
65.5575
 20
91.0868
 30
0.0
 10
61.1856
 20
95.4754
 30
0.0
 10
63.7637
 20
100.6266
 30
0.0
 10
66.8398
 20
101.705
 30
0.0
 10
66.8398
 20
101.705
 30
0.0
 10
69.4704
 20
102.6275
 30
0.0
 10
72.8905
 20
101.0372
 30
0.0
 10
72.4823
 20
97.4086
 30
0.0
 10
72.4823
 20
97.4086
 30
0.0
 10
72.0306
 20
96.2357
 30
0.0
 10
71.9615
 20
96.23
 30
0.0
 10
71.3535
 20
97.3132
 30
0.0
 10
71.3535
 20
97.3132
 30
0.0
 10
69.9738
 20
99.7711
 30
0.0
 10
66.8156
 20
98.214
 30
0.0
 10
66.8156
 20
95.076
 30
0.0
 10
66.8156
 20
95.076
 30
0.0
 10
66.8156
 20
91.4611
 30
0.0
 10
71.2745
 20
90.3605
 30
0.0
 10
75.3165
 20
92.8249
 30
0.0
 10
75.3165
 20
92.8249
 30
0.0
 10
79.1971
 20
95.1909
 30
0.0
 10
79.4881
 20
100.6849
 30
0.0
 10
76.5667
 20
104.2143
 30
0.0
 10
76.5667
 20
104.2143
 30
0.0
 10
68.4204
 20
113.3376
 30
0.0
 10
52.7478
 20
108.1616
 30
0.0
 10
53.1741
 20
93.3836
 30
0.0
 10
53.1741
 20
93.3836
 30
0.0
 10
54.0816
 20
76.482
 30
0.0
 10
74.8065
 20
74.2979
 30
0.0
 10
85.4782
 20
81.7467
 30
0.0
 10
85.4782
 20
81.7467
 30
0.0
 10
93.5151
 20
87.29
 30
0.0
 10
94.2472
 20
101.1937
 30
0.0
 10
90.3074
 20
108.3233
 30
0.0
 10
90.3074
 20
108.3233
 30
0.0
 10
84.8206
 20
118.7519
 30
0.0
 10
71.3052
 20
125.5613
 30
0.0
 10
58.022
 20
124.5898
 30
0.0
 10
58.022
 20
124.5898
 30
0.0
 10
45.8541
 20
123.6997
 30
0.0
 10
36.7258
 20
119.8655
 30
0.0
 10
29.4479
 20
112.5879
 30
0.0
 10
29.4479
 20
112.5879
 30
0.0
 10
25.4076
 20
108.5476
 30
0.0
 10
24.6205
 20
107.4066
 30
0.0
 10
24.6175
 20
105.5863
 30
0.0
 10
24.6175
 20
105.5863
 30
0.0
 10
24.6115
 20
102.1797
 30
0.0
 10
23.3424
 20
98.447
 30
0.0
 10
21.5961
 20
96.7004
 30
0.0
 10
21.5961
 20
96.7004
 30
0.0
 10
20.4332
 20
95.5375
 30
0.0
 10
20.107
 20
94.6686
 30
0.0
 10
20.3981
 20
93.5086
 30
0.0
 10
20.3981
 20
93.5086
 30
0.0
 10
20.6659
 20
92.4414
 30
0.0
 10
20.2859
 20
91.0911
 30
0.0
 10
19.2483
 20
89.422
 30
0.0
 10
19.2483
 20
89.422
 30
0.0
 10
17.9745
 20
87.3733
 30
0.0
 10
17.6897
 20
85.99
 30
0.0
 10
17.6488
 20
81.655
 30
0.0
 10
17.6488
 20
81.655
 30
0.0
 10
17.6189
 20
78.4861
 30
0.0
 10
17.9857
 20
75.3706
 30
0.0
 10
18.5676
 20
73.8506
 30
0.0
 10
18.5676
 20
73.8506
 30
0.0
 10
19.4362
 20
71.5813
 30
0.0
 10
19.4235
 20
71.0849
 30
0.0
 10
18.4452
 20
69.0331
 30
0.0
 10
18.4452
 20
69.0331
 30
0.0
 10
18.4452
 20
69.0331
 30
0.0
 10
17.3545
 20
66.7456
 30
0.0
 10
17.3545
 20
66.7456
 30
0.0
 10
17.3545
 20
66.7456
 30
0.0
 10
17.3545
 20
66.7456
 30
0.0
 10
19.7243
 20
64.5107
 30
0.0
 10
19.7243
 20
64.5107
 30
0.0
 10
19.7243
 20
64.5107
 30
0.0
 10
22.1822
 20
62.1925
 30
0.0
 10
22.6018
 20
59.7274
 30
0.0
 10
20.4765
 20
60.0917
 30
0.0
 10
20.4765
 20
60.0917
 30
0.0
 10
19.8551
 20
60.1983
 30
0.0
 10
19.3468
 20
59.9327
 30
0.0
 10
19.3468
 20
59.5016
 30
0.0
 10
19.3468
 20
59.5016
 30
0.0
 10
19.3468
 20
57.5398
 30
0.0
 10
24.2778
 20
48.7678
 30
0.0
 10
27.1155
 20
45.6817
 30
0.0
 10
27.1155
 20
45.6817
 30
0.0
 10
29.9104
 20
42.6421
 30
0.0
 10
30.3552
 20
42.3807
 30
0.0
 10
31.1349
 20
43.3204
 30
0.0
 10
31.1349
 20
43.3204
 30
0.0
 10
31.392
 20
43.5474
 30
0.0
 10
32.0112
 20
44.1801
 30
0.0
 10
33.3608
 20
43.6548
 30
0.0
  0
SPLINE
  5
64
330
1F
100
AcDbEntity
  8
layer 1
 62
     7
100
AcDbSpline
210
0.0
220
0.0
230
1.0
 70
    11
 71
     3
 72
    72
 73
    68
 74
     0
 42
0.0000000001
 43
0.0000000001
 12
1.0
 22
0.0
 32
0.0
 13
1.0
 23
0.0
 33
0.0
 40
0.0
 40
0.0
 40
0.0
 40
0.0
 40
0.0555555555555556
 40
0.0555555555555556
 40
0.0555555555555556
 40
0.0555555555555556
 40
0.1111111111111111
 40
0.1111111111111111
 40
0.1111111111111111
 40
0.1111111111111111
 40
0.1666666666666667
 40
0.1666666666666667
 40
0.1666666666666667
 40
0.1666666666666667
 40
0.2222222222222222
 40
0.2222222222222222
 40
0.2222222222222222
 40
0.2222222222222222
 40
0.2777777777777778
 40
0.2777777777777778
 40
0.2777777777777778
 40
0.2777777777777778
 40
0.3333333333333333
 40
0.3333333333333333
 40
0.3333333333333333
 40
0.3333333333333333
 40
0.3888888888888889
 40
0.3888888888888889
 40
0.3888888888888889
 40
0.3888888888888889
 40
0.4444444444444444
 40
0.4444444444444444
 40
0.4444444444444444
 40
0.4444444444444444
 40
0.5
 40
0.5
 40
0.5
 40
0.5
 40
0.5555555555555556
 40
0.5555555555555556
 40
0.5555555555555556
 40
0.5555555555555556
 40
0.6111111111111112
 40
0.6111111111111112
 40
0.6111111111111112
 40
0.6111111111111112
 40
0.6666666666666666
 40
0.6666666666666666
 40
0.6666666666666666
 40
0.6666666666666666
 40
0.7222222222222222
 40
0.7222222222222222
 40
0.7222222222222222
 40
0.7222222222222222
 40
0.7777777777777778
 40
0.7777777777777778
 40
0.7777777777777778
 40
0.7777777777777778
 40
0.8333333333333334
 40
0.8333333333333334
 40
0.8333333333333334
 40
0.8333333333333334
 40
0.8888888888888888
 40
0.8888888888888888
 40
0.8888888888888888
 40
0.8888888888888888
 40
1.0
 40
1.0
 40
1.0
 40
1.0
 10
66.088
 20
43.1176
 30
0.0
 10
67.236
 20
46.9495
 30
0.0
 10
69.9788
 20
48.5348
 30
0.0
 10
74.7853
 20
48.1446
 30
0.0
 10
74.7853
 20
48.1446
 30
0.0
 10
78.8796
 20
47.8122
 30
0.0
 10
81.8536
 20
46.5119
 30
0.0
 10
85.2118
 20
43.5858
 30
0.0
 10
85.2118
 20
43.5858
 30
0.0
 10
87.1318
 20
41.913
 30
0.0
 10
87.5385
 20
41.78
 30
0.0
 10
88.0329
 20
42.6638
 30
0.0
 10
88.0329
 20
42.6638
 30
0.0
 10
88.8925
 20
44.1998
 30
0.0
 10
87.1772
 20
47.7125
 30
0.0
 10
84.3594
 20
50.1864
 30
0.0
 10
84.3594
 20
50.1864
 30
0.0
 10
83.0218
 20
51.3608
 30
0.0
 10
78.8305
 20
54.3993
 30
0.0
 10
75.0452
 20
56.939
 30
0.0
 10
75.0452
 20
56.939
 30
0.0
 10
68.0175
 20
61.6541
 30
0.0
 10
65.9114
 20
64.0926
 30
0.0
 10
66.5984
 20
66.7195
 30
0.0
 10
66.5984
 20
66.7195
 30
0.0
 10
67.1152
 20
68.6957
 30
0.0
 10
65.8737
 20
68.5011
 30
0.0
 10
64.9438
 20
66.4598
 30
0.0
 10
64.9438
 20
66.4598
 30
0.0
 10
63.8152
 20
63.9829
 30
0.0
 10
64.0046
 20
62.4191
 30
0.0
 10
65.6141
 20
60.9195
 30
0.0
 10
65.6141
 20
60.9195
 30
0.0
 10
66.4035
 20
60.1839
 30
0.0
 10
66.8912
 20
59.4236
 30
0.0
 10
66.6973
 20
59.23
 30
0.0
 10
66.6973
 20
59.23
 30
0.0
 10
66.0317
 20
58.5644
 30
0.0
 10
64.0677
 20
59.753
 30
0.0
 10
63.5352
 20
61.1432
 30
0.0
 10
63.5352
 20
61.1432
 30
0.0
 10
63.0198
 20
62.4883
 30
0.0
 10
62.9874
 20
62.4789
 30
0.0
 10
62.5648
 20
60.8609
 30
0.0
 10
62.5648
 20
60.8609
 30
0.0
 10
61.4532
 20
56.6051
 30
0.0
 10
64.9209
 20
53.6952
 30
0.0
 10
71.7026
 20
53.1925
 30
0.0
 10
71.7026
 20
53.1925
 30
0.0
 10
76.9509
 20
52.8036
 30
0.0
 10
78.6832
 20
52.4271
 30
0.0
 10
78.6832
 20
51.675
 30
0.0
 10
78.6832
 20
51.675
 30
0.0
 10
78.6832
 20
51.3259
 30
0.0
 10
77.2948
 20
51.2238
 30
0.0
 10
75.4775
 20
51.439
 30
0.0
 10
75.4775
 20
51.439
 30
0.0
 10
68.3524
 20
52.283
 30
0.0
 10
62.423
 20
47.5433
 30
0.0
 10
63.7901
 20
42.0967
 30
0.0
 10
63.7901
 20
42.0967
 30
0.0
 10
64.3876
 20
39.7162
 30
0.0
 10
65.1738
 20
40.0653
 30
0.0
 10
66.088
 20
43.1171
 30
0.0
 10
66.088
 20
43.1171
 30
0.0
 10
66.088
 20
43.1171
 30
0.0
 10
66.088
 20
43.1176
 30
0.0
 10
66.088
 20
43.1176
 30
0.0
  0
SPLINE
  5
65
330
1F
100
AcDbEntity
  8
layer 1
 62
     7
100
AcDbSpline
210
0.0
220
0.0
230
1.0
 70
    11
 71
     3
 72
    32
 73
    28
 74
     0
 42
0.0000000001
 43
0.0000000001
 12
1.0
 22
0.0
 32
0.0
 13
1.0
 23
0.0
 33
0.0
 40
0.0
 40
0.0
 40
0.0
 40
0.0
 40
0.125
 40
0.125
 40
0.125
 40
0.125
 40
0.25
 40
0.25
 40
0.25
 40
0.25
 40
0.375
 40
0.375
 40
0.375
 40
0.375
 40
0.5
 40
0.5
 40
0.5
 40
0.5
 40
0.625
 40
0.625
 40
0.625
 40
0.625
 40
0.75
 40
0.75
 40
0.75
 40
0.75
 40
1.0
 40
1.0
 40
1.0
 40
1.0
 10
20.6649
 20
41.2382
 30
0.0
 10
20.6649
 20
42.1473
 30
0.0
 10
19.9241
 20
43.8993
 30
0.0
 10
19.0186
 20
45.1315
 30
0.0
 10
19.0186
 20
45.1315
 30
0.0
 10
17.4839
 20
47.2196
 30
0.0
 10
14.8769
 20
50.3526
 30
0.0
 10
13.6083
 20
56.7339
 30
0.0
 10
13.6083
 20
56.7339
 30
0.0
 10
12.7267
 20
55.559
 30
0.0
 10
11.4217
 20
55.7968
 30
0.0
 10
10.0271
 20
55.739
 30
0.0
 10
10.0271
 20
55.739
 30
0.0
 10
10.563
 20
51.1004
 30
0.0
 10
15.1961
 20
44.9727
 30
0.0
 10
16.5778
 20
43.4161
 30
0.0
 10
16.5778
 20
43.4161
 30
0.0
 10
17.2215
 20
42.691
 30
0.0
 10
18.4046
 20
41.5323
 30
0.0
 10
19.2067
 20
40.8415
 30
0.0
 10
19.2067
 20
40.8415
 30
0.0
 10
20.658
 20
39.5919
 30
0.0
 10
20.6652
 20
39.5939
 30
0.0
 10
20.6652
 20
41.2385
 30
0.0
 10
20.6652
 20
41.2385
 30
0.0
 10
20.6652
 20
41.2385
 30
0.0
 10
20.6649
 20
41.2382
 30
0.0
 10
20.6649
 20
41.2382
 30
0.0
  0
SPLINE
  5
66
330
1F
100
AcDbEntity
  8
layer 1
 62
     7
100
AcDbSpline
210
0.0
220
0.0
230
1.0
 70
    11
 71
     3
 72
   192
 73
   188
 74
     0
 42
0.0000000001
 43
0.0000000001
 12
1.0
 22
0.0
 32
0.0
 13
1.0
 23
0.0
 33
0.0
 40
0.0
 40
0.0
 40
0.0
 40
0.0
 40
0.0208333333333333
 40
0.0208333333333333
 40
0.0208333333333333
 40
0.0208333333333333
 40
0.0416666666666667
 40
0.0416666666666667
 40
0.0416666666666667
 40
0.0416666666666667
 40
0.0625
 40
0.0625
 40
0.0625
 40
0.0625
 40
0.0833333333333333
 40
0.0833333333333333
 40
0.0833333333333333
 40
0.0833333333333333
 40
0.1041666666666667
 40
0.1041666666666667
 40
0.1041666666666667
 40
0.1041666666666667
 40
0.125
 40
0.125
 40
0.125
 40
0.125
 40
0.1458333333333333
 40
0.1458333333333333
 40
0.1458333333333333
 40
0.1458333333333333
 40
0.1666666666666667
 40
0.1666666666666667
 40
0.1666666666666667
 40
0.1666666666666667
 40
0.1875
 40
0.1875
 40
0.1875
 40
0.1875
 40
0.2083333333333333
 40
0.2083333333333333
 40
0.2083333333333333
 40
0.2083333333333333
 40
0.2291666666666667
 40
0.2291666666666667
 40
0.2291666666666667
 40
0.2291666666666667
 40
0.25
 40
0.25
 40
0.25
 40
0.25
 40
0.2708333333333333
 40
0.2708333333333333
 40
0.2708333333333333
 40
0.2708333333333333
 40
0.2916666666666667
 40
0.2916666666666667
 40
0.2916666666666667
 40
0.2916666666666667
 40
0.3125
 40
0.3125
 40
0.3125
 40
0.3125
 40
0.3333333333333333
 40
0.3333333333333333
 40
0.3333333333333333
 40
0.3333333333333333
 40
0.3541666666666667
 40
0.3541666666666667
 40
0.3541666666666667
 40
0.3541666666666667
 40
0.375
 40
0.375
 40
0.375
 40
0.375
 40
0.3958333333333333
 40
0.3958333333333333
 40
0.3958333333333333
 40
0.3958333333333333
 40
0.4166666666666667
 40
0.4166666666666667
 40
0.4166666666666667
 40
0.4166666666666667
 40
0.4375
 40
0.4375
 40
0.4375
 40
0.4375
 40
0.4583333333333333
 40
0.4583333333333333
 40
0.4583333333333333
 40
0.4583333333333333
 40
0.4791666666666667
 40
0.4791666666666667
 40
0.4791666666666667
 40
0.4791666666666667
 40
0.5
 40
0.5
 40
0.5
 40
0.5
 40
0.5208333333333334
 40
0.5208333333333334
 40
0.5208333333333334
 40
0.5208333333333334
 40
0.5416666666666666
 40
0.5416666666666666
 40
0.5416666666666666
 40
0.5416666666666666
 40
0.5625
 40
0.5625
 40
0.5625
 40
0.5625
 40
0.5833333333333334
 40
0.5833333333333334
 40
0.5833333333333334
 40
0.5833333333333334
 40
0.6041666666666666
 40
0.6041666666666666
 40
0.6041666666666666
 40
0.6041666666666666
 40
0.625
 40
0.625
 40
0.625
 40
0.625
 40
0.6458333333333334
 40
0.6458333333333334
 40
0.6458333333333334
 40
0.6458333333333334
 40
0.6666666666666666
 40
0.6666666666666666
 40
0.6666666666666666
 40
0.6666666666666666
 40
0.6875
 40
0.6875
 40
0.6875
 40
0.6875
 40
0.7083333333333334
 40
0.7083333333333334
 40
0.7083333333333334
 40
0.7083333333333334
 40
0.7291666666666666
 40
0.7291666666666666
 40
0.7291666666666666
 40
0.7291666666666666
 40
0.75
 40
0.75
 40
0.75
 40
0.75
 40
0.7708333333333334
 40
0.7708333333333334
 40
0.7708333333333334
 40
0.7708333333333334
 40
0.7916666666666666
 40
0.7916666666666666
 40
0.7916666666666666
 40
0.7916666666666666
 40
0.8125
 40
0.8125
 40
0.8125
 40
0.8125
 40
0.8333333333333334
 40
0.8333333333333334
 40
0.8333333333333334
 40
0.8333333333333334
 40
0.8541666666666666
 40
0.8541666666666666
 40
0.8541666666666666
 40
0.8541666666666666
 40
0.875
 40
0.875
 40
0.875
 40
0.875
 40
0.8958333333333334
 40
0.8958333333333334
 40
0.8958333333333334
 40
0.8958333333333334
 40
0.9166666666666666
 40
0.9166666666666666
 40
0.9166666666666666
 40
0.9166666666666666
 40
0.9375
 40
0.9375
 40
0.9375
 40
0.9375
 40
0.9583333333333334
 40
0.9583333333333334
 40
0.9583333333333334
 40
0.9583333333333334
 40
1.0
 40
1.0
 40
1.0
 40
1.0
 10
16.0291
 20
10.35
 30
0.0
 10
19.4115
 20
11.2229
 30
0.0
 10
21.9834
 20
14.3207
 30
0.0
 10
21.9834
 20
17.5217
 30
0.0
 10
21.9834
 20
17.5217
 30
0.0
 10
21.9834
 20
21.5852
 30
0.0
 10
15.7154
 20
25.0929
 30
0.0
 10
13.4125
 20
22.3183
 30
0.0
 10
13.4125
 20
22.3183
 30
0.0
 10
12.71
 20
21.4718
 30
0.0
 10
12.9191
 20
21.3292
 30
0.0
 10
14.8649
 20
21.3292
 30
0.0
 10
14.8649
 20
21.3292
 30
0.0
 10
17.2479
 20
21.3292
 30
0.0
 10
20.0053
 20
19.1748
 30
0.0
 10
20.0053
 20
17.3129
 30
0.0
 10
20.0053
 20
17.3129
 30
0.0
 10
20.0053
 20
15.8741
 30
0.0
 10
18.0929
 20
13.4177
 30
0.0
 10
16.9725
 20
13.4177
 30
0.0
 10
16.9725
 20
13.4177
 30
0.0
 10
16.2472
 20
13.4177
 30
0.0
 10
16.0428
 20
14.0509
 30
0.0
 10
16.1859
 20
15.8537
 30
0.0
 10
16.1859
 20
15.8537
 30
0.0
 10
16.372
 20
18.1998
 30
0.0
 10
16.2698
 20
18.3283
 30
0.0
 10
13.4154
 20
19.335
 30
0.0
 10
13.4154
 20
19.335
 30
0.0
 10
10.9827
 20
20.1932
 30
0.0
 10
10.4763
 20
20.3739
 30
0.0
 10
10.181
 20
21.9811
 30
0.0
 10
10.181
 20
21.9811
 30
0.0
 10
9.8285
 20
23.8981
 30
0.0
 10
9.7151
 20
24.2661
 30
0.0
 10
8.9349
 20
22.856
 30
0.0
 10
8.9349
 20
22.856
 30
0.0
 10
7.6631
 20
20.5573
 30
0.0
 10
7.9396
 20
16.2534
 30
0.0
 10
9.4567
 20
14.7364
 30
0.0
 10
9.4567
 20
14.7364
 30
0.0
 10
10.1818
 20
14.0112
 30
0.0
 10
11.2027
 20
13.4177
 30
0.0
 10
11.7252
 20
13.4177
 30
0.0
 10
11.7252
 20
13.4177
 30
0.0
 10
12.2478
 20
13.4177
 30
0.0
 10
12.8585
 20
13.1209
 30
0.0
 10
13.0828
 20
12.7583
 30
0.0
 10
13.0828
 20
12.7583
 30
0.0
 10
13.9798
 20
11.3068
 30
0.0
 10
9.976
 20
12.1822
 30
0.0
 10
8.5168
 20
13.7566
 30
0.0
 10
8.5168
 20
13.7566
 30
0.0
 10
5.1475
 20
17.3919
 30
0.0
 10
5.8517
 20
22.7581
 30
0.0
 10
10.265
 20
27.0789
 30
0.0
 10
10.265
 20
27.0789
 30
0.0
 10
13.7232
 20
30.4643
 30
0.0
 10
16.9648
 20
31.8779
 30
0.0
 10
21.2707
 20
31.8779
 30
0.0
 10
21.2707
 20
31.8779
 30
0.0
 10
28.8556
 20
31.8779
 30
0.0
 10
35.9154
 20
29.2692
 30
0.0
 10
49.637
 20
21.3965
 30
0.0
 10
49.637
 20
21.3965
 30
0.0
 10
49.637
 20
21.3965
 30
0.0
 10
58.8749
 20
16.0964
 30
0.0
 10
58.8749
 20
16.0964
 30
0.0
 10
58.8749
 20
16.0964
 30
0.0
 10
58.8749
 20
16.0964
 30
0.0
 10
61.6389
 20
17.2703
 30
0.0
 10
61.6389
 20
17.2703
 30
0.0
 10
61.6389
 20
17.2703
 30
0.0
 10
61.6389
 20
17.2703
 30
0.0
 10
63.4205
 20
18.4442
 30
0.0
 10
63.4205
 20
18.4442
 30
0.0
 10
63.4205
 20
18.4442
 30
0.0
 10
54.2802
 20
25.9852
 30
0.0
 10
44.6832
 20
31.8286
 30
0.0
 10
43.7637
 20
48.7922
 30
0.0
 10
43.7637
 20
48.7922
 30
0.0
 10
43.8883
 20
51.0566
 30
0.0
 10
43.9499
 20
53.653
 30
0.0
 10
45.4836
 20
56.1608
 30
0.0
 10
45.4836
 20
56.1608
 30
0.0
 10
46.7736
 20
57.8012
 30
0.0
 10
47.1307
 20
58.25
 30
0.0
 10
45.7333
 20
58.25
 30
0.0
 10
45.7333
 20
58.25
 30
0.0
 10
40.714
 20
57.6156
 30
0.0
 10
40.476
 20
55.5174
 30
0.0
 10
40.1346
 20
53.125
 30
0.0
 10
40.1346
 20
53.125
 30
0.0
 10
39.4765
 20
48.341
 30
0.0
 10
38.8366
 20
47.7187
 30
0.0
 10
37.2526
 20
50.3235
 30
0.0
 10
37.2526
 20
50.3235
 30
0.0
 10
37.2526
 20
50.3235
 30
0.0
 10
35.9242
 20
52.5078
 30
0.0
 10
35.9242
 20
52.5078
 30
0.0
 10
35.9242
 20
52.5078
 30
0.0
 10
33.9678
 20
47.6863
 30
0.0
 10
36.6373
 20
42.6708
 30
0.0
 10
39.8485
 20
40.4032
 30
0.0
 10
39.8485
 20
40.4032
 30
0.0
 10
40.9096
 20
39.6477
 30
0.0
 10
41.5923
 20
38.7297
 30
0.0
 10
41.3658
 20
38.3634
 30
0.0
 10
41.3658
 20
38.3634
 30
0.0
 10
41.093
 20
37.9219
 30
0.0
 10
40.7122
 20
37.9388
 30
0.0
 10
40.2373
 20
38.4137
 30
0.0
 10
40.2373
 20
38.4137
 30
0.0
 10
39.166
 20
39.4847
 30
0.0
 10
38.4656
 20
39.2819
 30
0.0
 10
38.4656
 20
37.9002
 30
0.0
 10
38.4656
 20
37.9002
 30
0.0
 10
38.4656
 20
37.2182
 30
0.0
 10
40.7424
 20
34.5315
 30
0.0
 10
43.5751
 20
31.8707
 30
0.0
 10
43.5751
 20
31.8707
 30
0.0
 10
46.8184
 20
28.8242
 30
0.0
 10
48.3589
 20
26.9575
 30
0.0
 10
47.793
 20
26.7602
 30
0.0
 10
47.793
 20
26.7602
 30
0.0
 10
46.3186
 20
26.2456
 30
0.0
 10
41.7516
 20
29.3382
 30
0.0
 10
39.5109
 20
32.833
 30
0.0
 10
39.5109
 20
32.833
 30
0.0
 10
34.4218
 20
40.77
 30
0.0
 10
31.2076
 20
44.2065
 30
0.0
 10
31.8949
 20
41.3464
 30
0.0
 10
31.8949
 20
41.3464
 30
0.0
 10
32.7585
 20
37.7519
 30
0.0
 10
31.8896
 20
39.0973
 30
0.0
 10
28.5022
 20
41.4274
 30
0.0
 10
28.5022
 20
41.4274
 30
0.0
 10
26.6488
 20
42.7019
 30
0.0
 10
24.4423
 20
43.7453
 30
0.0
 10
23.5993
 20
43.7453
 30
0.0
 10
23.5993
 20
43.7453
 30
0.0
 10
22.2009
 20
43.7453
 30
0.0
 10
22.0995
 20
43.5285
 30
0.0
 10
22.4419
 20
41.2729
 30
0.0
 10
22.4419
 20
41.2729
 30
0.0
 10
22.6484
 20
39.9131
 30
0.0
 10
23.4219
 20
38.1342
 30
0.0
 10
24.1612
 20
37.3196
 30
0.0
 10
24.1612
 20
37.3196
 30
0.0
 10
26.3535
 20
34.9037
 30
0.0
 10
25.0488
 20
34.9421
 30
0.0
 10
20.0898
 20
37.4394
 30
0.0
 10
20.0898
 20
37.4394
 30
0.0
 10
15.9128
 20
39.543
 30
0.0
 10
11.4349
 20
40.5298
 30
0.0
 10
11.4349
 20
39.3467
 30
0.0
 10
11.4349
 20
39.3467
 30
0.0
 10
11.4349
 20
39.1032
 30
0.0
 10
13.0494
 20
37.6886
 30
0.0
 10
13.6036
 20
37.0761
 30
0.0
 10
13.6036
 20
37.0761
 30
0.0
 10
14.5325
 20
36.0497
 30
0.0
 10
13.2126
 20
36.6445
 30
0.0
 10
10.4103
 20
36.2606
 30
0.0
 10
10.4103
 20
36.2606
 30
0.0
 10
7.077
 20
35.8035
 30
0.0
 10
3.5234
 20
34.0154
 30
0.0
 10
3.5234
 20
32.7952
 30
0.0
 10
3.5234
 20
32.7952
 30
0.0
 10
3.5234
 20
31.78
 30
0.0
 10
5.0688
 20
31.2186
 30
0.0
 10
7.8626
 20
31.2186
 30
0.0
 10
7.8626
 20
31.2186
 30
0.0
 10
10.6423
 20
31.2186
 30
0.0
 10
10.6809
 20
30.6836
 30
0.0
 10
8.0794
 20
28.2102
 30
0.0
 10
8.0794
 20
28.2102
 30
0.0
 10
5.2348
 20
25.5058
 30
0.0
 10
4.1707
 20
23.1812
 30
0.0
 10
4.0875
 20
19.4895
 30
0.0
 10
4.0875
 20
19.4895
 30
0.0
 10
3.9231
 20
12.1944
 30
0.0
 10
8.7781
 20
8.4784
 30
0.0
 10
16.0291
 20
10.3495
 30
0.0
 10
16.0291
 20
10.3495
 30
0.0
 10
16.0291
 20
10.3495
 30
0.0
 10
16.0291
 20
10.35
 30
0.0
 10
16.0291
 20
10.35
 30
0.0
  0
SPLINE
  5
67
330
1F
100
AcDbEntity
  8
layer 1
 62
     7
100
AcDbSpline
210
0.0
220
0.0
230
1.0
 70
    11
 71
     3
 72
   108
 73
   104
 74
     0
 42
0.0000000001
 43
0.0000000001
 12
1.0
 22
0.0
 32
0.0
 13
1.0
 23
0.0
 33
0.0
 40
0.0
 40
0.0
 40
0.0
 40
0.0
 40
0.037037037037037
 40
0.037037037037037
 40
0.037037037037037
 40
0.037037037037037
 40
0.0740740740740741
 40
0.0740740740740741
 40
0.0740740740740741
 40
0.0740740740740741
 40
0.1111111111111111
 40
0.1111111111111111
 40
0.1111111111111111
 40
0.1111111111111111
 40
0.1481481481481481
 40
0.1481481481481481
 40
0.1481481481481481
 40
0.1481481481481481
 40
0.1851851851851852
 40
0.1851851851851852
 40
0.1851851851851852
 40
0.1851851851851852
 40
0.2222222222222222
 40
0.2222222222222222
 40
0.2222222222222222
 40
0.2222222222222222
 40
0.2592592592592592
 40
0.2592592592592592
 40
0.2592592592592592
 40
0.2592592592592592
 40
0.2962962962962963
 40
0.2962962962962963
 40
0.2962962962962963
 40
0.2962962962962963
 40
0.3333333333333333
 40
0.3333333333333333
 40
0.3333333333333333
 40
0.3333333333333333
 40
0.3703703703703703
 40
0.3703703703703703
 40
0.3703703703703703
 40
0.3703703703703703
 40
0.4074074074074074
 40
0.4074074074074074
 40
0.4074074074074074
 40
0.4074074074074074
 40
0.4444444444444444
 40
0.4444444444444444
 40
0.4444444444444444
 40
0.4444444444444444
 40
0.4814814814814815
 40
0.4814814814814815
 40
0.4814814814814815
 40
0.4814814814814815
 40
0.5185185185185185
 40
0.5185185185185185
 40
0.5185185185185185
 40
0.5185185185185185
 40
0.5555555555555556
 40
0.5555555555555556
 40
0.5555555555555556
 40
0.5555555555555556
 40
0.5925925925925926
 40
0.5925925925925926
 40
0.5925925925925926
 40
0.5925925925925926
 40
0.6296296296296297
 40
0.6296296296296297
 40
0.6296296296296297
 40
0.6296296296296297
 40
0.6666666666666666
 40
0.6666666666666666
 40
0.6666666666666666
 40
0.6666666666666666
 40
0.7037037037037037
 40
0.7037037037037037
 40
0.7037037037037037
 40
0.7037037037037037
 40
0.7407407407407407
 40
0.7407407407407407
 40
0.7407407407407407
 40
0.7407407407407407
 40
0.7777777777777778
 40
0.7777777777777778
 40
0.7777777777777778
 40
0.7777777777777778
 40
0.8148148148148148
 40
0.8148148148148148
 40
0.8148148148148148
 40
0.8148148148148148
 40
0.8518518518518519
 40
0.8518518518518519
 40
0.8518518518518519
 40
0.8518518518518519
 40
0.8888888888888888
 40
0.8888888888888888
 40
0.8888888888888888
 40
0.8888888888888888
 40
0.9259259259259259
 40
0.9259259259259259
 40
0.9259259259259259
 40
0.9259259259259259
 40
1.0
 40
1.0
 40
1.0
 40
1.0
 10
137.8251
 20
-42.2688
 30
0.0
 10
140.0359
 20
-44.6114
 30
0.0
 10
142.051
 20
-49.9902
 30
0.0
 10
141.687
 20
-51.2997
 30
0.0
 10
141.687
 20
-51.2997
 30
0.0
 10
141.3087
 20
-52.6602
 30
0.0
 10
139.1996
 20
-51.6059
 30
0.0
 10
137.1302
 20
-51.3316
 30
0.0
 10
137.1302
 20
-51.3316
 30
0.0
 10
129.9955
 20
-52.3624
 30
0.0
 10
138.628
 20
-59.9992
 30
0.0
 10
130.5134
 20
-62.4708
 30
0.0
 10
130.5134
 20
-62.4708
 30
0.0
 10
136.1885
 20
-65.23
 30
0.0
 10
139.1231
 20
-62.7242
 30
0.0
 10
139.1149
 20
-58.5242
 30
0.0
 10
139.1149
 20
-58.5242
 30
0.0
 10
139.306
 20
-55.2961
 30
0.0
 10
140.5123
 20
-54.6288
 30
0.0
 10
141.3997
 20
-56.0297
 30
0.0
 10
141.3997
 20
-56.0297
 30
0.0
 10
142.4256
 20
-57.6494
 30
0.0
 10
142.0294
 20
-59.5157
 30
0.0
 10
140.0174
 20
-62.5423
 30
0.0
 10
140.0174
 20
-62.5423
 30
0.0
 10
137.9066
 20
-65.7177
 30
0.0
 10
137.6116
 20
-67.7109
 30
0.0
 10
138.7633
 20
-71.0148
 30
0.0
 10
138.7633
 20
-71.0148
 30
0.0
 10
139.6207
 20
-73.4747
 30
0.0
 10
140.1353
 20
-73.611
 30
0.0
 10
141.0149
 20
-71.6116
 30
0.0
 10
141.0149
 20
-71.6116
 30
0.0
 10
141.3728
 20
-70.7978
 30
0.0
 10
142.1589
 20
-70.0393
 30
0.0
 10
142.7617
 20
-69.9261
 30
0.0
 10
142.7617
 20
-69.9261
 30
0.0
 10
143.6675
 20
-69.7559
 30
0.0
 10
143.806
 20
-70.1559
 30
0.0
 10
143.5593
 20
-72.2298
 30
0.0
 10
143.5593
 20
-72.2298
 30
0.0
 10
143.352
 20
-73.9736
 30
0.0
 10
143.7216
 20
-75.7002
 30
0.0
 10
144.7709
 20
-77.8885
 30
0.0
 10
144.7709
 20
-77.8885
 30
0.0
 10
144.7709
 20
-77.8885
 30
0.0
 10
146.2809
 20
-81.0374
 30
0.0
 10
146.2809
 20
-81.0374
 30
0.0
 10
146.2809
 20
-81.0374
 30
0.0
 10
146.2809
 20
-81.0374
 30
0.0
 10
148.2263
 20
-78.582
 30
0.0
 10
148.2263
 20
-78.582
 30
0.0
 10
148.2263
 20
-78.582
 30
0.0
 10
149.7488
 20
-76.66
 30
0.0
 10
150.2322
 20
-75.2893
 30
0.0
 10
150.4502
 20
-72.2734
 30
0.0
 10
150.4502
 20
-72.2734
 30
0.0
 10
150.7597
 20
-67.9964
 30
0.0
 10
151.5721
 20
-67.6217
 30
0.0
 10
153.2762
 20
-70.9697
 30
0.0
 10
153.2762
 20
-70.9697
 30
0.0
 10
154.5777
 20
-73.5266
 30
0.0
 10
155.1815
 20
-73.0656
 30
0.0
 10
155.1815
 20
-69.5155
 30
0.0
 10
155.1815
 20
-69.5155
 30
0.0
 10
155.1815
 20
-65.5692
 30
0.0
 10
154.3079
 20
-63.1366
 30
0.0
 10
151.6316
 20
-59.6306
 30
0.0
 10
151.6316
 20
-59.6306
 30
0.0
 10
147.7057
 20
-54.4875
 30
0.0
 10
148.6698
 20
-51.9299
 30
0.0
 10
153.2765
 20
-55.2672
 30
0.0
 10
153.2765
 20
-55.2672
 30
0.0
 10
156.8792
 20
-57.8769
 30
0.0
 10
158.7936
 20
-57.8669
 30
0.0
 10
160.1569
 20
-55.2305
 30
0.0
 10
160.1569
 20
-55.2305
 30
0.0
 10
161.4843
 20
-52.6635
 30
0.0
 10
161.0483
 20
-51.4038
 30
0.0
 10
158.9701
 20
-51.801
 30
0.0
 10
158.9701
 20
-51.801
 30
0.0
 10
157.7311
 20
-52.0378
 30
0.0
 10
156.7212
 20
-51.417
 30
0.0
 10
154.3936
 20
-48.9883
 30
0.0
 10
154.3936
 20
-48.9883
 30
0.0
 10
151.8437
 20
-46.3275
 30
0.0
 10
151.1495
 20
-45.936
 30
0.0
 10
149.6479
 20
-46.313
 30
0.0
 10
149.6479
 20
-46.313
 30
0.0
 10
148.3775
 20
-46.6317
 30
0.0
 10
147.7802
 20
-47.2988
 30
0.0
 10
147.4972
 20
-48.7147
 30
0.0
 10
147.4972
 20
-48.7147
 30
0.0
 10
146.8854
 20
-51.7736
 30
0.0
 10
144.9241
 20
-51.2802
 30
0.0
 10
143.2115
 20
-47.6367
 30
0.0
 10
143.2115
 20
-47.6367
 30
0.0
 10
141.7812
 20
-44.5944
 30
0.0
 10
137.7828
 20
-40.1261
 30
0.0
 10
136.4905
 20
-40.1261
 30
0.0
 10
136.4905
 20
-40.1261
 30
0.0
 10
136.1125
 20
-40.1261
 30
0.0
 10
136.713
 20
-41.0904
 30
0.0
 10
137.8251
 20
-42.2688
 30
0.0
  0
SPLINE
  5
68
330
1F
100
AcDbEntity
  8
layer 1
 62
     7
100
AcDbSpline
210
0.0
220
0.0
230
1.0
 70
    11
 71
     3
 72
    20
 73
    16
 74
     0
 42
0.0000000001
 43
0.0000000001
 12
1.0
 22
0.0
 32
0.0
 13
1.0
 23
0.0
 33
0.0
 40
0.0
 40
0.0
 40
0.0
 40
0.0
 40
0.2
 40
0.2
 40
0.2
 40
0.2
 40
0.4
 40
0.4
 40
0.4
 40
0.4
 40
0.6
 40
0.6
 40
0.6
 40
0.6
 40
1.0
 40
1.0
 40
1.0
 40
1.0
 10
171.3323
 20
-81.9365
 30
0.0
 10
167.6372
 20
-86.0749
 30
0.0
 10
168.6633
 20
-84.0536
 30
0.0
 10
173.4122
 20
-77.8402
 30
0.0
 10
173.4122
 20
-77.8402
 30
0.0
 10
177.9735
 20
-71.872
 30
0.0
 10
181.2246
 20
-65.8403
 30
0.0
 10
182.0128
 20
-61.883
 30
0.0
 10
182.0128
 20
-61.883
 30
0.0
 10
182.2998
 20
-60.4422
 30
0.0
 10
182.6574
 20
-60.2012
 30
0.0
 10
182.7274
 20
-62.1055
 30
0.0
 10
182.7274
 20
-62.1055
 30
0.0
 10
180.6966
 20
-68.9448
 30
0.0
 10
176.1052
 20
-76.5021
 30
0.0
 10
171.3323
 20
-81.9365
 30
0.0
  0
SPLINE
  5
69
330
1F
100
AcDbEntity
  8
layer 1
 62
     7
100
AcDbSpline
210
0.0
220
0.0
230
1.0
 70
    11
 71
     3
 72
    24
 73
    20
 74
     0
 42
0.0000000001
 43
0.0000000001
 12
1.0
 22
0.0
 32
0.0
 13
1.0
 23
0.0
 33
0.0
 40
0.0
 40
0.0
 40
0.0
 40
0.0
 40
0.1666666666666667
 40
0.1666666666666667
 40
0.1666666666666667
 40
0.1666666666666667
 40
0.3333333333333333
 40
0.3333333333333333
 40
0.3333333333333333
 40
0.3333333333333333
 40
0.5
 40
0.5
 40
0.5
 40
0.5
 40
0.6666666666666666
 40
0.6666666666666666
 40
0.6666666666666666
 40
0.6666666666666666
 40
1.0
 40
1.0
 40
1.0
 40
1.0
 10
179.9448
 20
-45.7658
 30
0.0
 10
180.7542
 20
-51.1631
 30
0.0
 10
178.3837
 20
-61.2236
 30
0.0
 10
176.3025
 20
-61.2236
 30
0.0
 10
176.3025
 20
-61.2236
 30
0.0
 10
175.912
 20
-61.2236
 30
0.0
 10
176.2624
 20
-59.9628
 30
0.0
 10
177.0812
 20
-58.4216
 30
0.0
 10
177.0812
 20
-58.4216
 30
0.0
 10
178.3304
 20
-56.0698
 30
0.0
 10
178.5711
 20
-54.5867
 30
0.0
 10
178.578
 20
-49.1921
 30
0.0
 10
178.578
 20
-49.1921
 30
0.0
 10
178.587
 20
-42.3562
 30
0.0
 10
179.2022
 20
-40.8138
 30
0.0
 10
179.9448
 20
-45.7656
 30
0.0
 10
179.9448
 20
-45.7656
 30
0.0
 10
179.9448
 20
-45.7656
 30
0.0
 10
179.9448
 20
-45.7658
 30
0.0
 10
179.9448
 20
-45.7658
 30
0.0
  0
SPLINE
  5
6A
330
1F
100
AcDbEntity
  8
layer 1
 62
     7
100
AcDbSpline
210
0.0
220
0.0
230
1.0
 70
    11
 71
     3
 72
   124
 73
   120
 74
     0
 42
0.0000000001
 43
0.0000000001
 12
1.0
 22
0.0
 32
0.0
 13
1.0
 23
0.0
 33
0.0
 40
0.0
 40
0.0
 40
0.0
 40
0.0
 40
0.032258064516129
 40
0.032258064516129
 40
0.032258064516129
 40
0.032258064516129
 40
0.0645161290322581
 40
0.0645161290322581
 40
0.0645161290322581
 40
0.0645161290322581
 40
0.0967741935483871
 40
0.0967741935483871
 40
0.0967741935483871
 40
0.0967741935483871
 40
0.1290322580645161
 40
0.1290322580645161
 40
0.1290322580645161
 40
0.1290322580645161
 40
0.1612903225806452
 40
0.1612903225806452
 40
0.1612903225806452
 40
0.1612903225806452
 40
0.1935483870967742
 40
0.1935483870967742
 40
0.1935483870967742
 40
0.1935483870967742
 40
0.2258064516129032
 40
0.2258064516129032
 40
0.2258064516129032
 40
0.2258064516129032
 40
0.2580645161290323
 40
0.2580645161290323
 40
0.2580645161290323
 40
0.2580645161290323
 40
0.2903225806451613
 40
0.2903225806451613
 40
0.2903225806451613
 40
0.2903225806451613
 40
0.3225806451612903
 40
0.3225806451612903
 40
0.3225806451612903
 40
0.3225806451612903
 40
0.3548387096774194
 40
0.3548387096774194
 40
0.3548387096774194
 40
0.3548387096774194
 40
0.3870967741935484
 40
0.3870967741935484
 40
0.3870967741935484
 40
0.3870967741935484
 40
0.4193548387096774
 40
0.4193548387096774
 40
0.4193548387096774
 40
0.4193548387096774
 40
0.4516129032258064
 40
0.4516129032258064
 40
0.4516129032258064
 40
0.4516129032258064
 40
0.4838709677419355
 40
0.4838709677419355
 40
0.4838709677419355
 40
0.4838709677419355
 40
0.5161290322580645
 40
0.5161290322580645
 40
0.5161290322580645
 40
0.5161290322580645
 40
0.5483870967741935
 40
0.5483870967741935
 40
0.5483870967741935
 40
0.5483870967741935
 40
0.5806451612903226
 40
0.5806451612903226
 40
0.5806451612903226
 40
0.5806451612903226
 40
0.6129032258064516
 40
0.6129032258064516
 40
0.6129032258064516
 40
0.6129032258064516
 40
0.6451612903225806
 40
0.6451612903225806
 40
0.6451612903225806
 40
0.6451612903225806
 40
0.6774193548387096
 40
0.6774193548387096
 40
0.6774193548387096
 40
0.6774193548387096
 40
0.7096774193548387
 40
0.7096774193548387
 40
0.7096774193548387
 40
0.7096774193548387
 40
0.7419354838709677
 40
0.7419354838709677
 40
0.7419354838709677
 40
0.7419354838709677
 40
0.7741935483870968
 40
0.7741935483870968
 40
0.7741935483870968
 40
0.7741935483870968
 40
0.8064516129032258
 40
0.8064516129032258
 40
0.8064516129032258
 40
0.8064516129032258
 40
0.8387096774193549
 40
0.8387096774193549
 40
0.8387096774193549
 40
0.8387096774193549
 40
0.8709677419354839
 40
0.8709677419354839
 40
0.8709677419354839
 40
0.8709677419354839
 40
0.9032258064516129
 40
0.9032258064516129
 40
0.9032258064516129
 40
0.9032258064516129
 40
0.9354838709677419
 40
0.9354838709677419
 40
0.9354838709677419
 40
0.9354838709677419
 40
1.0
 40
1.0
 40
1.0
 40
1.0
 10
171.3565
 20
-44.0816
 30
0.0
 10
168.8679
 20
-44.0816
 30
0.0
 10
168.4206
 20
-44.7357
 30
0.0
 10
170.0084
 20
-46.0534
 30
0.0
 10
170.0084
 20
-46.0534
 30
0.0
 10
170.6311
 20
-46.5702
 30
0.0
 10
171.8364
 20
-46.7095
 30
0.0
 10
173.3048
 20
-46.4339
 30
0.0
 10
173.3048
 20
-46.4339
 30
0.0
 10
176.1034
 20
-45.9088
 30
0.0
 10
176.152
 20
-46.3626
 30
0.0
 10
173.6148
 20
-49.3309
 30
0.0
 10
173.6148
 20
-49.3309
 30
0.0
 10
171.6762
 20
-51.6692
 30
0.0
 10
171.503
 20
-53.7768
 30
0.0
 10
171.7076
 20
-56.2784
 30
0.0
 10
171.7076
 20
-56.2784
 30
0.0
 10
172.7202
 20
-55.0795
 30
0.0
 10
173.7718
 20
-53.8605
 30
0.0
 10
174.4962
 20
-52.4786
 30
0.0
 10
174.4962
 20
-52.4786
 30
0.0
 10
174.7224
 20
-51.8618
 30
0.0
 10
174.9923
 20
-51.8481
 30
0.0
 10
175.6045
 20
-52.423
 30
0.0
 10
175.6045
 20
-52.423
 30
0.0
 10
176.2387
 20
-53.0183
 30
0.0
 10
176.0989
 20
-53.6084
 30
0.0
 10
174.9592
 20
-55.1501
 30
0.0
 10
174.9592
 20
-55.1501
 30
0.0
 10
173.9303
 20
-56.5417
 30
0.0
 10
173.4765
 20
-58.152
 30
0.0
 10
173.4082
 20
-60.6538
 30
0.0
 10
173.4082
 20
-60.6538
 30
0.0
 10
173.3203
 20
-63.8797
 30
0.0
 10
172.9096
 20
-63.9412
 30
0.0
 10
173.6731
 20
-65.3882
 30
0.0
 10
173.6731
 20
-65.3882
 30
0.0
 10
176.8584
 20
-64.5612
 30
0.0
 10
177.0513
 20
-63.8849
 30
0.0
 10
178.7146
 20
-62.1215
 30
0.0
 10
178.7146
 20
-62.1215
 30
0.0
 10
180.7581
 20
-59.9546
 30
0.0
 10
181.0053
 20
-59.8379
 30
0.0
 10
180.5675
 20
-61.2463
 30
0.0
 10
180.5675
 20
-61.2463
 30
0.0
 10
180.2897
 20
-62.1401
 30
0.0
 10
177.7276
 20
-65.3122
 30
0.0
 10
174.8742
 20
-68.2952
 30
0.0
 10
174.8742
 20
-68.2952
 30
0.0
 10
169.4951
 20
-73.9185
 30
0.0
 10
168.6025
 20
-75.7134
 30
0.0
 10
171.1693
 20
-75.7475
 30
0.0
 10
171.1693
 20
-75.7475
 30
0.0
 10
172.4815
 20
-75.765
 30
0.0
 10
172.3315
 20
-76.0503
 30
0.0
 10
169.8708
 20
-78.2199
 30
0.0
 10
169.8708
 20
-78.2199
 30
0.0
 10
166.3352
 20
-80.8384
 30
0.0
 10
163.7409
 20
-88.8003
 30
0.0
 10
166.7957
 20
-94.4781
 30
0.0
 10
166.7957
 20
-94.4781
 30
0.0
 10
169.2142
 20
-93.0219
 30
0.0
 10
169.8594
 20
-86.881
 30
0.0
 10
170.9493
 20
-84.5918
 30
0.0
 10
170.9493
 20
-84.5918
 30
0.0
 10
171.4153
 20
-83.613
 30
0.0
 10
172.1805
 20
-83.9604
 30
0.0
 10
172.3298
 20
-83.5186
 30
0.0
 10
172.3298
 20
-83.5186
 30
0.0
 10
172.7088
 20
-85.1131
 30
0.0
 10
174.462
 20
-85.663
 30
0.0
 10
175.2816
 20
-83.8001
 30
0.0
 10
175.2816
 20
-83.8001
 30
0.0
 10
175.6394
 20
-82.9863
 30
0.0
 10
176.1587
 20
-82.3205
 30
0.0
 10
176.4353
 20
-82.3205
 30
0.0
 10
176.4353
 20
-82.3205
 30
0.0
 10
177.605
 20
-82.3205
 30
0.0
 10
176.7622
 20
-84.0122
 30
0.0
 10
174.2168
 20
-86.7736
 30
0.0
 10
174.2168
 20
-86.7736
 30
0.0
 10
171.5027
 20
-89.7182
 30
0.0
 10
171.0502
 20
-91.165
 30
0.0
 10
172.0051
 20
-94.6907
 30
0.0
 10
172.0051
 20
-94.6907
 30
0.0
 10
173.3155
 20
-98.725
 30
0.0
 10
172.3385
 20
-101.1089
 30
0.0
 10
171.5713
 20
-104.7236
 30
0.0
 10
171.5713
 20
-104.7236
 30
0.0
 10
174.6295
 20
-103.8305
 30
0.0
 10
175.6197
 20
-100.3402
 30
0.0
 10
175.6197
 20
-98.9158
 30
0.0
 10
175.6197
 20
-98.9158
 30
0.0
 10
175.6197
 20
-96.8324
 30
0.0
 10
177.5023
 20
-97.1417
 30
0.0
 10
177.9434
 20
-99.2973
 30
0.0
 10
177.9434
 20
-99.2973
 30
0.0
 10
178.0799
 20
-101.4416
 30
0.0
 10
180.3931
 20
-105.882
 30
0.0
 10
183.8116
 20
-106.654
 30
0.0
 10
183.8116
 20
-106.654
 30
0.0
 10
183.9776
 20
-106.488
 30
0.0
 10
183.2166
 20
-104.5431
 30
0.0
 10
182.1207
 20
-102.3319
 30
0.0
 10
182.1207
 20
-102.3319
 30
0.0
 10
177.9384
 20
-93.8941
 30
0.0
 10
178.4679
 20
-82.323
 30
0.0
 10
183.919
 20
-63.022
 30
0.0
 10
183.919
 20
-63.022
 30
0.0
 10
186.3835
 20
-55.9118
 30
0.0
 10
185.8684
 20
-47.002
 30
0.0
 10
180.9131
 20
-41.4639
 30
0.0
 10
180.9131
 20
-41.4639
 30
0.0
 10
178.4365
 20
-38.8126
 30
0.0
 10
176.7421
 20
-38.9021
 30
0.0
 10
175.0479
 20
-41.7734
 30
0.0
 10
175.0479
 20
-41.7734
 30
0.0
 10
174.4797
 20
-43.4778
 30
0.0
 10
172.9697
 20
-44.0816
 30
0.0
 10
171.3565
 20
-44.0816
 30
0.0
  0
SPLINE
  5
6B
330
1F
100
AcDbEntity
  8
layer 1
 62
     7
100
AcDbSpline
210
0.0
220
0.0
230
1.0
 70
    11
 71
     3
 72
    36
 73
    32
 74
     0
 42
0.0000000001
 43
0.0000000001
 12
1.0
 22
0.0
 32
0.0
 13
1.0
 23
0.0
 33
0.0
 40
0.0
 40
0.0
 40
0.0
 40
0.0
 40
0.1111111111111111
 40
0.1111111111111111
 40
0.1111111111111111
 40
0.1111111111111111
 40
0.2222222222222222
 40
0.2222222222222222
 40
0.2222222222222222
 40
0.2222222222222222
 40
0.3333333333333333
 40
0.3333333333333333
 40
0.3333333333333333
 40
0.3333333333333333
 40
0.4444444444444444
 40
0.4444444444444444
 40
0.4444444444444444
 40
0.4444444444444444
 40
0.5555555555555556
 40
0.5555555555555556
 40
0.5555555555555556
 40
0.5555555555555556
 40
0.6666666666666666
 40
0.6666666666666666
 40
0.6666666666666666
 40
0.6666666666666666
 40
0.7777777777777778
 40
0.7777777777777778
 40
0.7777777777777778
 40
0.7777777777777778
 40
1.0
 40
1.0
 40
1.0
 40
1.0
 10
121.8869
 20
-33.5332
 30
0.0
 10
121.2542
 20
-34.5571
 30
0.0
 10
122.146
 20
-35.5107
 30
0.0
 10
123.7388
 20
-35.5134
 30
0.0
 10
123.7388
 20
-35.5134
 30
0.0
 10
127.5902
 20
-35.5199
 30
0.0
 10
131.4465
 20
-39.9556
 30
0.0
 10
131.4465
 20
-44.3786
 30
0.0
 10
131.4465
 20
-44.3786
 30
0.0
 10
131.4465
 20
-45.6656
 30
0.0
 10
131.7329
 20
-46.7189
 30
0.0
 10
132.0827
 20
-46.7189
 30
0.0
 10
132.0827
 20
-46.7189
 30
0.0
 10
134.4813
 20
-44.5005
 30
0.0
 10
134.0839
 20
-41.9276
 30
0.0
 10
134.0839
 20
-38.8904
 30
0.0
 10
134.0839
 20
-38.8904
 30
0.0
 10
136.6408
 20
-39.3997
 30
0.0
 10
141.8469
 20
-40.2389
 30
0.0
 10
141.9955
 20
-35.3764
 30
0.0
 10
141.9955
 20
-35.3764
 30
0.0
 10
141.9955
 20
-34.2433
 30
0.0
 10
141.8462
 20
-34.2633
 30
0.0
 10
139.9761
 20
-35.646
 30
0.0
 10
139.9761
 20
-35.646
 30
0.0
 10
137.5438
 20
-37.5525
 30
0.0
 10
134.901
 20
-36.0611
 30
0.0
 10
131.8998
 20
-35.0026
 30
0.0
 10
131.8998
 20
-35.0026
 30
0.0
 10
125.7051
 20
-32.818
 30
0.0
 10
122.6098
 20
-32.3635
 30
0.0
 10
121.8869
 20
-33.5332
 30
0.0
  0
SPLINE
  5
6C
330
1F
100
AcDbEntity
  8
layer 1
 62
     7
100
AcDbSpline
210
0.0
220
0.0
230
1.0
 70
    11
 71
     3
 72
   156
 73
   152
 74
     0
 42
0.0000000001
 43
0.0000000001
 12
1.0
 22
0.0
 32
0.0
 13
1.0
 23
0.0
 33
0.0
 40
0.0
 40
0.0
 40
0.0
 40
0.0
 40
0.0256410256410256
 40
0.0256410256410256
 40
0.0256410256410256
 40
0.0256410256410256
 40
0.0512820512820513
 40
0.0512820512820513
 40
0.0512820512820513
 40
0.0512820512820513
 40
0.0769230769230769
 40
0.0769230769230769
 40
0.0769230769230769
 40
0.0769230769230769
 40
0.1025641025641026
 40
0.1025641025641026
 40
0.1025641025641026
 40
0.1025641025641026
 40
0.1282051282051282
 40
0.1282051282051282
 40
0.1282051282051282
 40
0.1282051282051282
 40
0.1538461538461539
 40
0.1538461538461539
 40
0.1538461538461539
 40
0.1538461538461539
 40
0.1794871794871795
 40
0.1794871794871795
 40
0.1794871794871795
 40
0.1794871794871795
 40
0.2051282051282051
 40
0.2051282051282051
 40
0.2051282051282051
 40
0.2051282051282051
 40
0.2307692307692308
 40
0.2307692307692308
 40
0.2307692307692308
 40
0.2307692307692308
 40
0.2564102564102564
 40
0.2564102564102564
 40
0.2564102564102564
 40
0.2564102564102564
 40
0.282051282051282
 40
0.282051282051282
 40
0.282051282051282
 40
0.282051282051282
 40
0.3076923076923077
 40
0.3076923076923077
 40
0.3076923076923077
 40
0.3076923076923077
 40
0.3333333333333333
 40
0.3333333333333333
 40
0.3333333333333333
 40
0.3333333333333333
 40
0.358974358974359
 40
0.358974358974359
 40
0.358974358974359
 40
0.358974358974359
 40
0.3846153846153846
 40
0.3846153846153846
 40
0.3846153846153846
 40
0.3846153846153846
 40
0.4102564102564102
 40
0.4102564102564102
 40
0.4102564102564102
 40
0.4102564102564102
 40
0.4358974358974359
 40
0.4358974358974359
 40
0.4358974358974359
 40
0.4358974358974359
 40
0.4615384615384616
 40
0.4615384615384616
 40
0.4615384615384616
 40
0.4615384615384616
 40
0.4871794871794872
 40
0.4871794871794872
 40
0.4871794871794872
 40
0.4871794871794872
 40
0.5128205128205128
 40
0.5128205128205128
 40
0.5128205128205128
 40
0.5128205128205128
 40
0.5384615384615384
 40
0.5384615384615384
 40
0.5384615384615384
 40
0.5384615384615384
 40
0.5641025641025641
 40
0.5641025641025641
 40
0.5641025641025641
 40
0.5641025641025641
 40
0.5897435897435898
 40
0.5897435897435898
 40
0.5897435897435898
 40
0.5897435897435898
 40
0.6153846153846154
 40
0.6153846153846154
 40
0.6153846153846154
 40
0.6153846153846154
 40
0.6410256410256411
 40
0.6410256410256411
 40
0.6410256410256411
 40
0.6410256410256411
 40
0.6666666666666666
 40
0.6666666666666666
 40
0.6666666666666666
 40
0.6666666666666666
 40
0.6923076923076923
 40
0.6923076923076923
 40
0.6923076923076923
 40
0.6923076923076923
 40
0.717948717948718
 40
0.717948717948718
 40
0.717948717948718
 40
0.717948717948718
 40
0.7435897435897436
 40
0.7435897435897436
 40
0.7435897435897436
 40
0.7435897435897436
 40
0.7692307692307693
 40
0.7692307692307693
 40
0.7692307692307693
 40
0.7692307692307693
 40
0.7948717948717948
 40
0.7948717948717948
 40
0.7948717948717948
 40
0.7948717948717948
 40
0.8205128205128205
 40
0.8205128205128205
 40
0.8205128205128205
 40
0.8205128205128205
 40
0.8461538461538461
 40
0.8461538461538461
 40
0.8461538461538461
 40
0.8461538461538461
 40
0.8717948717948718
 40
0.8717948717948718
 40
0.8717948717948718
 40
0.8717948717948718
 40
0.8974358974358975
 40
0.8974358974358975
 40
0.8974358974358975
 40
0.8974358974358975
 40
0.9230769230769231
 40
0.9230769230769231
 40
0.9230769230769231
 40
0.9230769230769231
 40
0.9487179487179487
 40
0.9487179487179487
 40
0.9487179487179487
 40
0.9487179487179487
 40
1.0
 40
1.0
 40
1.0
 40
1.0
 10
94.5061
 20
-33.1988
 30
0.0
 10
97.8771
 20
-33.2444
 30
0.0
 10
98.4617
 20
-39.3165
 30
0.0
 10
97.4348
 20
-41.7938
 30
0.0
 10
97.4348
 20
-41.7938
 30
0.0
 10
96.3346
 20
-44.9547
 30
0.0
 10
96.304
 20
-45.4003
 30
0.0
 10
97.1866
 20
-45.4003
 30
0.0
 10
97.1866
 20
-45.4003
 30
0.0
 10
98.4784
 20
-46.022
 30
0.0
 10
99.1519
 20
-41.0717
 30
0.0
 10
101.0691
 20
-39.4665
 30
0.0
 10
101.0691
 20
-39.4665
 30
0.0
 10
103.7446
 20
-41.2955
 30
0.0
 10
103.3521
 20
-44.3549
 30
0.0
 10
101.4416
 20
-47.3882
 30
0.0
 10
101.4416
 20
-47.3882
 30
0.0
 10
100.1187
 20
-49.2975
 30
0.0
 10
99.7898
 20
-50.2683
 30
0.0
 10
100.2954
 20
-50.7739
 30
0.0
 10
100.2954
 20
-50.7739
 30
0.0
 10
101.3415
 20
-51.82
 30
0.0
 10
102.3963
 20
-50.8803
 30
0.0
 10
103.7675
 20
-47.6815
 30
0.0
 10
103.7675
 20
-47.6815
 30
0.0
 10
105.289
 20
-44.2199
 30
0.0
 10
109.2912
 20
-41.1838
 30
0.0
 10
113.0633
 20
-44.5528
 30
0.0
 10
113.0633
 20
-44.5528
 30
0.0
 10
113.2654
 20
-44.88
 30
0.0
 10
111.5149
 20
-45.6512
 30
0.0
 10
110.1556
 20
-47.0309
 30
0.0
 10
110.1556
 20
-47.0309
 30
0.0
 10
108.1736
 20
-49.0431
 30
0.0
 10
108.2633
 20
-49.6755
 30
0.0
 10
109.1608
 20
-49.8639
 30
0.0
 10
109.1608
 20
-49.8639
 30
0.0
 10
109.7763
 20
-49.9932
 30
0.0
 10
110.8695
 20
-49.7834
 30
0.0
 10
111.5899
 20
-49.3979
 30
0.0
 10
111.5899
 20
-49.3979
 30
0.0
 10
116.6134
 20
-46.7279
 30
0.0
 10
122.4214
 20
-50.7328
 30
0.0
 10
119.6069
 20
-57.5016
 30
0.0
 10
119.6069
 20
-57.5016
 30
0.0
 10
117.4933
 20
-54.4244
 30
0.0
 10
113.9741
 20
-51.2999
 30
0.0
 10
108.3929
 20
-54.9442
 30
0.0
 10
108.3929
 20
-54.9442
 30
0.0
 10
105.2018
 20
-57.2985
 30
0.0
 10
102.3509
 20
-58.1121
 30
0.0
 10
100.182
 20
-57.2876
 30
0.0
 10
100.182
 20
-57.2876
 30
0.0
 10
97.9974
 20
-56.457
 30
0.0
 10
95.8445
 20
-56.4062
 30
0.0
 10
95.8445
 20
-57.1854
 30
0.0
 10
95.8445
 20
-57.1854
 30
0.0
 10
95.8445
 20
-57.5026
 30
0.0
 10
96.76
 20
-57.9454
 30
0.0
 10
97.8791
 20
-58.1692
 30
0.0
 10
97.8791
 20
-58.1692
 30
0.0
 10
100.3266
 20
-58.6586
 30
0.0
 10
100.1489
 20
-60.1422
 30
0.0
 10
97.6067
 20
-60.4432
 30
0.0
 10
97.6067
 20
-60.4432
 30
0.0
 10
95.6212
 20
-60.6782
 30
0.0
 10
95.3793
 20
-61.335
 30
0.0
 10
96.8335
 20
-62.5421
 30
0.0
 10
96.8335
 20
-62.5421
 30
0.0
 10
97.3775
 20
-62.9936
 30
0.0
 10
97.8225
 20
-64.0045
 30
0.0
 10
97.8225
 20
-64.7885
 30
0.0
 10
97.8225
 20
-64.7885
 30
0.0
 10
97.8225
 20
-66.1034
 30
0.0
 10
95.1209
 20
-74.0262
 30
0.0
 10
94.5061
 20
-74.6539
 30
0.0
 10
94.5061
 20
-74.6539
 30
0.0
 10
93.8914
 20
-74.0262
 30
0.0
 10
91.2097
 20
-66.1034
 30
0.0
 10
91.2097
 20
-64.7885
 30
0.0
 10
91.2097
 20
-64.7885
 30
0.0
 10
91.2097
 20
-64.0045
 30
0.0
 10
91.6547
 20
-62.9936
 30
0.0
 10
92.1987
 20
-62.5421
 30
0.0
 10
92.1987
 20
-62.5421
 30
0.0
 10
93.6529
 20
-61.335
 30
0.0
 10
93.411
 20
-60.6782
 30
0.0
 10
91.4255
 20
-60.4432
 30
0.0
 10
91.4255
 20
-60.4432
 30
0.0
 10
88.8833
 20
-60.1422
 30
0.0
 10
88.7056
 20
-58.6586
 30
0.0
 10
91.1531
 20
-58.1692
 30
0.0
 10
91.1531
 20
-58.1692
 30
0.0
 10
92.2722
 20
-57.9454
 30
0.0
 10
93.1877
 20
-57.5026
 30
0.0
 10
93.1877
 20
-57.1854
 30
0.0
 10
93.1877
 20
-57.1854
 30
0.0
 10
93.1877
 20
-56.4062
 30
0.0
 10
91.0348
 20
-56.457
 30
0.0
 10
88.8502
 20
-57.2876
 30
0.0
 10
88.8502
 20
-57.2876
 30
0.0
 10
86.6813
 20
-58.1121
 30
0.0
 10
83.8304
 20
-57.2985
 30
0.0
 10
80.6393
 20
-54.9442
 30
0.0
 10
80.6393
 20
-54.9442
 30
0.0
 10
75.0581
 20
-51.2999
 30
0.0
 10
71.5389
 20
-54.4244
 30
0.0
 10
69.4253
 20
-57.5016
 30
0.0
 10
69.4253
 20
-57.5016
 30
0.0
 10
66.6108
 20
-50.7328
 30
0.0
 10
72.4188
 20
-46.7279
 30
0.0
 10
77.4423
 20
-49.3979
 30
0.0
 10
77.4423
 20
-49.3979
 30
0.0
 10
78.1627
 20
-49.7834
 30
0.0
 10
79.2559
 20
-49.9932
 30
0.0
 10
79.8714
 20
-49.8639
 30
0.0
 10
79.8714
 20
-49.8639
 30
0.0
 10
80.7689
 20
-49.6755
 30
0.0
 10
80.8586
 20
-49.0431
 30
0.0
 10
78.8766
 20
-47.0309
 30
0.0
 10
78.8766
 20
-47.0309
 30
0.0
 10
77.5173
 20
-45.6512
 30
0.0
 10
75.7668
 20
-44.88
 30
0.0
 10
75.9689
 20
-44.5528
 30
0.0
 10
75.9689
 20
-44.5528
 30
0.0
 10
79.741
 20
-41.1838
 30
0.0
 10
83.7432
 20
-44.2199
 30
0.0
 10
85.2647
 20
-47.6815
 30
0.0
 10
85.2647
 20
-47.6815
 30
0.0
 10
86.6359
 20
-50.8803
 30
0.0
 10
87.6907
 20
-51.82
 30
0.0
 10
88.7368
 20
-50.7739
 30
0.0
 10
88.7368
 20
-50.7739
 30
0.0
 10
89.2424
 20
-50.2683
 30
0.0
 10
88.9135
 20
-49.2975
 30
0.0
 10
87.5905
 20
-47.3882
 30
0.0
 10
87.5905
 20
-47.3882
 30
0.0
 10
85.6801
 20
-44.3549
 30
0.0
 10
85.2876
 20
-41.2955
 30
0.0
 10
87.9631
 20
-39.4665
 30
0.0
 10
87.9631
 20
-39.4665
 30
0.0
 10
89.8803
 20
-41.0717
 30
0.0
 10
90.5538
 20
-46.022
 30
0.0
 10
91.8456
 20
-45.4003
 30
0.0
 10
91.8456
 20
-45.4003
 30
0.0
 10
92.7282
 20
-45.4003
 30
0.0
 10
92.6976
 20
-44.9547
 30
0.0
 10
91.5974
 20
-41.7938
 30
0.0
 10
91.5974
 20
-41.7938
 30
0.0
 10
90.5705
 20
-39.3165
 30
0.0
 10
91.6089
 20
-33.1915
 30
0.0
 10
94.5061
 20
-33.1988
 30
0.0
  0
SPLINE
  5
6D
330
1F
100
AcDbEntity
  8
layer 1
 62
     7
100
AcDbSpline
210
0.0
220
0.0
230
1.0
 70
    11
 71
     3
 72
   120
 73
   116
 74
     0
 42
0.0000000001
 43
0.0000000001
 12
1.0
 22
0.0
 32
0.0
 13
1.0
 23
0.0
 33
0.0
 40
0.0
 40
0.0
 40
0.0
 40
0.0
 40
0.0333333333333333
 40
0.0333333333333333
 40
0.0333333333333333
 40
0.0333333333333333
 40
0.0666666666666667
 40
0.0666666666666667
 40
0.0666666666666667
 40
0.0666666666666667
 40
0.1
 40
0.1
 40
0.1
 40
0.1
 40
0.1333333333333333
 40
0.1333333333333333
 40
0.1333333333333333
 40
0.1333333333333333
 40
0.1666666666666667
 40
0.1666666666666667
 40
0.1666666666666667
 40
0.1666666666666667
 40
0.2
 40
0.2
 40
0.2
 40
0.2
 40
0.2333333333333333
 40
0.2333333333333333
 40
0.2333333333333333
 40
0.2333333333333333
 40
0.2666666666666667
 40
0.2666666666666667
 40
0.2666666666666667
 40
0.2666666666666667
 40
0.3
 40
0.3
 40
0.3
 40
0.3
 40
0.3333333333333333
 40
0.3333333333333333
 40
0.3333333333333333
 40
0.3333333333333333
 40
0.3666666666666666
 40
0.3666666666666666
 40
0.3666666666666666
 40
0.3666666666666666
 40
0.4
 40
0.4
 40
0.4
 40
0.4
 40
0.4333333333333333
 40
0.4333333333333333
 40
0.4333333333333333
 40
0.4333333333333333
 40
0.4666666666666667
 40
0.4666666666666667
 40
0.4666666666666667
 40
0.4666666666666667
 40
0.5
 40
0.5
 40
0.5
 40
0.5
 40
0.5333333333333333
 40
0.5333333333333333
 40
0.5333333333333333
 40
0.5333333333333333
 40
0.5666666666666667
 40
0.5666666666666667
 40
0.5666666666666667
 40
0.5666666666666667
 40
0.6
 40
0.6
 40
0.6
 40
0.6
 40
0.6333333333333333
 40
0.6333333333333333
 40
0.6333333333333333
 40
0.6333333333333333
 40
0.6666666666666666
 40
0.6666666666666666
 40
0.6666666666666666
 40
0.6666666666666666
 40
0.7
 40
0.7
 40
0.7
 40
0.7
 40
0.7333333333333333
 40
0.7333333333333333
 40
0.7333333333333333
 40
0.7333333333333333
 40
0.7666666666666667
 40
0.7666666666666667
 40
0.7666666666666667
 40
0.7666666666666667
 40
0.8
 40
0.8
 40
0.8
 40
0.8
 40
0.8333333333333334
 40
0.8333333333333334
 40
0.8333333333333334
 40
0.8333333333333334
 40
0.8666666666666667
 40
0.8666666666666667
 40
0.8666666666666667
 40
0.8666666666666667
 40
0.9
 40
0.9
 40
0.9
 40
0.9
 40
0.9333333333333333
 40
0.9333333333333333
 40
0.9333333333333333
 40
0.9333333333333333
 40
1.0
 40
1.0
 40
1.0
 40
1.0
 10
155.6714
 20
-26.1902
 30
0.0
 10
154.5942
 20
-25.6136
 30
0.0
 10
154.4028
 20
-25.6498
 30
0.0
 10
154.723
 20
-26.3689
 30
0.0
 10
154.723
 20
-26.3689
 30
0.0
 10
165.6327
 20
-45.5104
 30
0.0
 10
168.8656
 20
-70.2042
 30
0.0
 10
152.4968
 20
-87.0891
 30
0.0
 10
152.4968
 20
-87.0891
 30
0.0
 10
140.2031
 20
-99.3828
 30
0.0
 10
116.9912
 20
-101.9392
 30
0.0
 10
109.3784
 20
-88.0181
 30
0.0
 10
109.3784
 20
-88.0181
 30
0.0
 10
102.6597
 20
-74.9918
 30
0.0
 10
115.9586
 20
-66.9661
 30
0.0
 10
123.4747
 20
-73.6223
 30
0.0
 10
123.4747
 20
-73.6223
 30
0.0
 10
127.8466
 20
-78.0109
 30
0.0
 10
125.2685
 20
-83.162
 30
0.0
 10
122.1924
 20
-84.2404
 30
0.0
 10
122.1924
 20
-84.2404
 30
0.0
 10
119.5617
 20
-85.1629
 30
0.0
 10
116.1417
 20
-83.5726
 30
0.0
 10
116.5499
 20
-79.944
 30
0.0
 10
116.5499
 20
-79.944
 30
0.0
 10
117.0016
 20
-78.7711
 30
0.0
 10
117.0707
 20
-78.7654
 30
0.0
 10
117.6787
 20
-79.8486
 30
0.0
 10
117.6787
 20
-79.8486
 30
0.0
 10
119.0584
 20
-82.3065
 30
0.0
 10
122.2165
 20
-80.7494
 30
0.0
 10
122.2165
 20
-77.6114
 30
0.0
 10
122.2165
 20
-77.6114
 30
0.0
 10
122.2165
 20
-73.9965
 30
0.0
 10
117.7577
 20
-72.8959
 30
0.0
 10
113.7157
 20
-75.3603
 30
0.0
 10
113.7157
 20
-75.3603
 30
0.0
 10
109.8351
 20
-77.7263
 30
0.0
 10
109.5441
 20
-83.2203
 30
0.0
 10
112.4655
 20
-86.7497
 30
0.0
 10
112.4655
 20
-86.7497
 30
0.0
 10
120.6118
 20
-95.8731
 30
0.0
 10
136.2844
 20
-90.697
 30
0.0
 10
135.8581
 20
-75.919
 30
0.0
 10
135.8581
 20
-75.919
 30
0.0
 10
134.9506
 20
-59.0174
 30
0.0
 10
114.2257
 20
-56.8333
 30
0.0
 10
103.554
 20
-64.2821
 30
0.0
 10
103.554
 20
-64.2821
 30
0.0
 10
95.5171
 20
-69.8255
 30
0.0
 10
94.785
 20
-83.7291
 30
0.0
 10
98.7248
 20
-90.8588
 30
0.0
 10
98.7248
 20
-90.8588
 30
0.0
 10
104.2116
 20
-101.2873
 30
0.0
 10
117.727
 20
-108.0967
 30
0.0
 10
131.0102
 20
-107.1252
 30
0.0
 10
131.0102
 20
-107.1252
 30
0.0
 10
143.1781
 20
-106.2351
 30
0.0
 10
152.3064
 20
-102.4009
 30
0.0
 10
159.5843
 20
-95.1233
 30
0.0
 10
159.5843
 20
-95.1233
 30
0.0
 10
163.6246
 20
-91.083
 30
0.0
 10
164.4117
 20
-89.942
 30
0.0
 10
164.4147
 20
-88.1217
 30
0.0
 10
164.4147
 20
-88.1217
 30
0.0
 10
164.4207
 20
-84.7151
 30
0.0
 10
165.6898
 20
-80.9824
 30
0.0
 10
167.4361
 20
-79.2359
 30
0.0
 10
167.4361
 20
-79.2359
 30
0.0
 10
168.599
 20
-78.0729
 30
0.0
 10
168.9252
 20
-77.204
 30
0.0
 10
168.6341
 20
-76.0441
 30
0.0
 10
168.6341
 20
-76.0441
 30
0.0
 10
168.3663
 20
-74.9768
 30
0.0
 10
168.7463
 20
-73.6265
 30
0.0
 10
169.7839
 20
-71.9575
 30
0.0
 10
169.7839
 20
-71.9575
 30
0.0
 10
171.0577
 20
-69.9087
 30
0.0
 10
171.3425
 20
-68.5255
 30
0.0
 10
171.3834
 20
-64.1904
 30
0.0
 10
171.3834
 20
-64.1904
 30
0.0
 10
171.4133
 20
-61.0216
 30
0.0
 10
171.0465
 20
-57.906
 30
0.0
 10
170.4646
 20
-56.386
 30
0.0
 10
170.4646
 20
-56.386
 30
0.0
 10
169.596
 20
-54.1167
 30
0.0
 10
169.6087
 20
-53.6203
 30
0.0
 10
170.587
 20
-51.5685
 30
0.0
 10
170.587
 20
-51.5685
 30
0.0
 10
170.587
 20
-51.5685
 30
0.0
 10
171.6777
 20
-49.281
 30
0.0
 10
171.6777
 20
-49.281
 30
0.0
 10
171.6777
 20
-49.281
 30
0.0
 10
171.6777
 20
-49.281
 30
0.0
 10
169.3079
 20
-47.0461
 30
0.0
 10
169.3079
 20
-47.0461
 30
0.0
 10
169.3079
 20
-47.0461
 30
0.0
 10
166.85
 20
-44.728
 30
0.0
 10
166.4304
 20
-42.2628
 30
0.0
 10
168.5556
 20
-42.6271
 30
0.0
 10
168.5556
 20
-42.6271
 30
0.0
 10
169.1771
 20
-42.7338
 30
0.0
 10
169.6854
 20
-42.4681
 30
0.0
 10
169.6854
 20
-42.037
 30
0.0
 10
169.6854
 20
-42.037
 30
0.0
 10
169.6854
 20
-40.0752
 30
0.0
 10
164.7544
 20
-31.3032
 30
0.0
 10
161.9167
 20
-28.2171
 30
0.0
 10
161.9167
 20
-28.2171
 30
0.0
 10
159.1218
 20
-25.1776
 30
0.0
 10
158.677
 20
-24.9162
 30
0.0
 10
157.8973
 20
-25.8558
 30
0.0
 10
157.8973
 20
-25.8558
 30
0.0
 10
157.6402
 20
-26.0828
 30
0.0
 10
157.021
 20
-26.7155
 30
0.0
 10
155.6714
 20
-26.1902
 30
0.0
  0
SPLINE
  5
6E
330
1F
100
AcDbEntity
  8
layer 1
 62
     7
100
AcDbSpline
210
0.0
220
0.0
230
1.0
 70
    11
 71
     3
 72
    72
 73
    68
 74
     0
 42
0.0000000001
 43
0.0000000001
 12
1.0
 22
0.0
 32
0.0
 13
1.0
 23
0.0
 33
0.0
 40
0.0
 40
0.0
 40
0.0
 40
0.0
 40
0.0555555555555556
 40
0.0555555555555556
 40
0.0555555555555556
 40
0.0555555555555556
 40
0.1111111111111111
 40
0.1111111111111111
 40
0.1111111111111111
 40
0.1111111111111111
 40
0.1666666666666667
 40
0.1666666666666667
 40
0.1666666666666667
 40
0.1666666666666667
 40
0.2222222222222222
 40
0.2222222222222222
 40
0.2222222222222222
 40
0.2222222222222222
 40
0.2777777777777778
 40
0.2777777777777778
 40
0.2777777777777778
 40
0.2777777777777778
 40
0.3333333333333333
 40
0.3333333333333333
 40
0.3333333333333333
 40
0.3333333333333333
 40
0.3888888888888889
 40
0.3888888888888889
 40
0.3888888888888889
 40
0.3888888888888889
 40
0.4444444444444444
 40
0.4444444444444444
 40
0.4444444444444444
 40
0.4444444444444444
 40
0.5
 40
0.5
 40
0.5
 40
0.5
 40
0.5555555555555556
 40
0.5555555555555556
 40
0.5555555555555556
 40
0.5555555555555556
 40
0.6111111111111112
 40
0.6111111111111112
 40
0.6111111111111112
 40
0.6111111111111112
 40
0.6666666666666666
 40
0.6666666666666666
 40
0.6666666666666666
 40
0.6666666666666666
 40
0.7222222222222222
 40
0.7222222222222222
 40
0.7222222222222222
 40
0.7222222222222222
 40
0.7777777777777778
 40
0.7777777777777778
 40
0.7777777777777778
 40
0.7777777777777778
 40
0.8333333333333334
 40
0.8333333333333334
 40
0.8333333333333334
 40
0.8333333333333334
 40
0.8888888888888888
 40
0.8888888888888888
 40
0.8888888888888888
 40
0.8888888888888888
 40
1.0
 40
1.0
 40
1.0
 40
1.0
 10
122.9442
 20
-25.653
 30
0.0
 10
121.7962
 20
-29.4849
 30
0.0
 10
119.0534
 20
-31.0702
 30
0.0
 10
114.2469
 20
-30.68
 30
0.0
 10
114.2469
 20
-30.68
 30
0.0
 10
110.1526
 20
-30.3476
 30
0.0
 10
107.1786
 20
-29.0474
 30
0.0
 10
103.8203
 20
-26.1212
 30
0.0
 10
103.8203
 20
-26.1212
 30
0.0
 10
101.9004
 20
-24.4484
 30
0.0
 10
101.4937
 20
-24.3154
 30
0.0
 10
100.9993
 20
-25.1992
 30
0.0
 10
100.9993
 20
-25.1992
 30
0.0
 10
100.1397
 20
-26.7352
 30
0.0
 10
101.855
 20
-30.2479
 30
0.0
 10
104.6728
 20
-32.7218
 30
0.0
 10
104.6728
 20
-32.7218
 30
0.0
 10
106.0104
 20
-33.8962
 30
0.0
 10
110.2017
 20
-36.9348
 30
0.0
 10
113.987
 20
-39.4744
 30
0.0
 10
113.987
 20
-39.4744
 30
0.0
 10
121.0147
 20
-44.1895
 30
0.0
 10
123.1208
 20
-46.628
 30
0.0
 10
122.4338
 20
-49.2549
 30
0.0
 10
122.4338
 20
-49.2549
 30
0.0
 10
121.917
 20
-51.2312
 30
0.0
 10
123.1585
 20
-51.0365
 30
0.0
 10
124.0884
 20
-48.9952
 30
0.0
 10
124.0884
 20
-48.9952
 30
0.0
 10
125.217
 20
-46.5184
 30
0.0
 10
125.0276
 20
-44.9545
 30
0.0
 10
123.4181
 20
-43.4549
 30
0.0
 10
123.4181
 20
-43.4549
 30
0.0
 10
122.6287
 20
-42.7193
 30
0.0
 10
122.141
 20
-41.959
 30
0.0
 10
122.3349
 20
-41.7654
 30
0.0
 10
122.3349
 20
-41.7654
 30
0.0
 10
123.0005
 20
-41.0999
 30
0.0
 10
124.9645
 20
-42.2885
 30
0.0
 10
125.497
 20
-43.6787
 30
0.0
 10
125.497
 20
-43.6787
 30
0.0
 10
126.0124
 20
-45.0238
 30
0.0
 10
126.0447
 20
-45.0143
 30
0.0
 10
126.4674
 20
-43.3963
 30
0.0
 10
126.4674
 20
-43.3963
 30
0.0
 10
127.579
 20
-39.1405
 30
0.0
 10
124.1113
 20
-36.2306
 30
0.0
 10
117.3296
 20
-35.728
 30
0.0
 10
117.3296
 20
-35.728
 30
0.0
 10
112.0813
 20
-35.339
 30
0.0
 10
110.3489
 20
-34.9625
 30
0.0
 10
110.3489
 20
-34.2104
 30
0.0
 10
110.3489
 20
-34.2104
 30
0.0
 10
110.3489
 20
-33.8613
 30
0.0
 10
111.7374
 20
-33.7592
 30
0.0
 10
113.5547
 20
-33.9745
 30
0.0
 10
113.5547
 20
-33.9745
 30
0.0
 10
120.6798
 20
-34.8185
 30
0.0
 10
126.6091
 20
-30.0787
 30
0.0
 10
125.2421
 20
-24.6321
 30
0.0
 10
125.2421
 20
-24.6321
 30
0.0
 10
124.6446
 20
-22.2516
 30
0.0
 10
123.8584
 20
-22.6008
 30
0.0
 10
122.9442
 20
-25.6525
 30
0.0
 10
122.9442
 20
-25.6525
 30
0.0
 10
122.9442
 20
-25.6525
 30
0.0
 10
122.9442
 20
-25.653
 30
0.0
 10
122.9442
 20
-25.653
 30
0.0
  0
SPLINE
  5
6F
330
1F
100
AcDbEntity
  8
layer 1
 62
     7
100
AcDbSpline
210
0.0
220
0.0
230
1.0
 70
    11
 71
     3
 72
    32
 73
    28
 74
     0
 42
0.0000000001
 43
0.0000000001
 12
1.0
 22
0.0
 32
0.0
 13
1.0
 23
0.0
 33
0.0
 40
0.0
 40
0.0
 40
0.0
 40
0.0
 40
0.125
 40
0.125
 40
0.125
 40
0.125
 40
0.25
 40
0.25
 40
0.25
 40
0.25
 40
0.375
 40
0.375
 40
0.375
 40
0.375
 40
0.5
 40
0.5
 40
0.5
 40
0.5
 40
0.625
 40
0.625
 40
0.625
 40
0.625
 40
0.75
 40
0.75
 40
0.75
 40
0.75
 40
1.0
 40
1.0
 40
1.0
 40
1.0
 10
168.3673
 20
-23.7737
 30
0.0
 10
168.3673
 20
-24.6827
 30
0.0
 10
169.1081
 20
-26.4347
 30
0.0
 10
170.0136
 20
-27.6669
 30
0.0
 10
170.0136
 20
-27.6669
 30
0.0
 10
171.5483
 20
-29.7551
 30
0.0
 10
174.1553
 20
-32.888
 30
0.0
 10
175.4239
 20
-39.2694
 30
0.0
 10
175.4239
 20
-39.2694
 30
0.0
 10
176.3055
 20
-38.0945
 30
0.0
 10
177.6105
 20
-38.3322
 30
0.0
 10
179.0051
 20
-38.2744
 30
0.0
 10
179.0051
 20
-38.2744
 30
0.0
 10
178.4692
 20
-33.6358
 30
0.0
 10
173.8361
 20
-27.5082
 30
0.0
 10
172.4544
 20
-25.9515
 30
0.0
 10
172.4544
 20
-25.9515
 30
0.0
 10
171.8107
 20
-25.2264
 30
0.0
 10
170.6276
 20
-24.0677
 30
0.0
 10
169.8255
 20
-23.377
 30
0.0
 10
169.8255
 20
-23.377
 30
0.0
 10
168.3742
 20
-22.1273
 30
0.0
 10
168.367
 20
-22.1293
 30
0.0
 10
168.367
 20
-23.7739
 30
0.0
 10
168.367
 20
-23.7739
 30
0.0
 10
168.367
 20
-23.7739
 30
0.0
 10
168.3673
 20
-23.7737
 30
0.0
 10
168.3673
 20
-23.7737
 30
0.0
  0
SPLINE
  5
70
330
1F
100
AcDbEntity
  8
layer 1
 62
     7
100
AcDbSpline
210
0.0
220
0.0
230
1.0
 70
    11
 71
     3
 72
   192
 73
   188
 74
     0
 42
0.0000000001
 43
0.0000000001
 12
1.0
 22
0.0
 32
0.0
 13
1.0
 23
0.0
 33
0.0
 40
0.0
 40
0.0
 40
0.0
 40
0.0
 40
0.0208333333333333
 40
0.0208333333333333
 40
0.0208333333333333
 40
0.0208333333333333
 40
0.0416666666666667
 40
0.0416666666666667
 40
0.0416666666666667
 40
0.0416666666666667
 40
0.0625
 40
0.0625
 40
0.0625
 40
0.0625
 40
0.0833333333333333
 40
0.0833333333333333
 40
0.0833333333333333
 40
0.0833333333333333
 40
0.1041666666666667
 40
0.1041666666666667
 40
0.1041666666666667
 40
0.1041666666666667
 40
0.125
 40
0.125
 40
0.125
 40
0.125
 40
0.1458333333333333
 40
0.1458333333333333
 40
0.1458333333333333
 40
0.1458333333333333
 40
0.1666666666666667
 40
0.1666666666666667
 40
0.1666666666666667
 40
0.1666666666666667
 40
0.1875
 40
0.1875
 40
0.1875
 40
0.1875
 40
0.2083333333333333
 40
0.2083333333333333
 40
0.2083333333333333
 40
0.2083333333333333
 40
0.2291666666666667
 40
0.2291666666666667
 40
0.2291666666666667
 40
0.2291666666666667
 40
0.25
 40
0.25
 40
0.25
 40
0.25
 40
0.2708333333333333
 40
0.2708333333333333
 40
0.2708333333333333
 40
0.2708333333333333
 40
0.2916666666666667
 40
0.2916666666666667
 40
0.2916666666666667
 40
0.2916666666666667
 40
0.3125
 40
0.3125
 40
0.3125
 40
0.3125
 40
0.3333333333333333
 40
0.3333333333333333
 40
0.3333333333333333
 40
0.3333333333333333
 40
0.3541666666666667
 40
0.3541666666666667
 40
0.3541666666666667
 40
0.3541666666666667
 40
0.375
 40
0.375
 40
0.375
 40
0.375
 40
0.3958333333333333
 40
0.3958333333333333
 40
0.3958333333333333
 40
0.3958333333333333
 40
0.4166666666666667
 40
0.4166666666666667
 40
0.4166666666666667
 40
0.4166666666666667
 40
0.4375
 40
0.4375
 40
0.4375
 40
0.4375
 40
0.4583333333333333
 40
0.4583333333333333
 40
0.4583333333333333
 40
0.4583333333333333
 40
0.4791666666666667
 40
0.4791666666666667
 40
0.4791666666666667
 40
0.4791666666666667
 40
0.5
 40
0.5
 40
0.5
 40
0.5
 40
0.5208333333333334
 40
0.5208333333333334
 40
0.5208333333333334
 40
0.5208333333333334
 40
0.5416666666666666
 40
0.5416666666666666
 40
0.5416666666666666
 40
0.5416666666666666
 40
0.5625
 40
0.5625
 40
0.5625
 40
0.5625
 40
0.5833333333333334
 40
0.5833333333333334
 40
0.5833333333333334
 40
0.5833333333333334
 40
0.6041666666666666
 40
0.6041666666666666
 40
0.6041666666666666
 40
0.6041666666666666
 40
0.625
 40
0.625
 40
0.625
 40
0.625
 40
0.6458333333333334
 40
0.6458333333333334
 40
0.6458333333333334
 40
0.6458333333333334
 40
0.6666666666666666
 40
0.6666666666666666
 40
0.6666666666666666
 40
0.6666666666666666
 40
0.6875
 40
0.6875
 40
0.6875
 40
0.6875
 40
0.7083333333333334
 40
0.7083333333333334
 40
0.7083333333333334
 40
0.7083333333333334
 40
0.7291666666666666
 40
0.7291666666666666
 40
0.7291666666666666
 40
0.7291666666666666
 40
0.75
 40
0.75
 40
0.75
 40
0.75
 40
0.7708333333333334
 40
0.7708333333333334
 40
0.7708333333333334
 40
0.7708333333333334
 40
0.7916666666666666
 40
0.7916666666666666
 40
0.7916666666666666
 40
0.7916666666666666
 40
0.8125
 40
0.8125
 40
0.8125
 40
0.8125
 40
0.8333333333333334
 40
0.8333333333333334
 40
0.8333333333333334
 40
0.8333333333333334
 40
0.8541666666666666
 40
0.8541666666666666
 40
0.8541666666666666
 40
0.8541666666666666
 40
0.875
 40
0.875
 40
0.875
 40
0.875
 40
0.8958333333333334
 40
0.8958333333333334
 40
0.8958333333333334
 40
0.8958333333333334
 40
0.9166666666666666
 40
0.9166666666666666
 40
0.9166666666666666
 40
0.9166666666666666
 40
0.9375
 40
0.9375
 40
0.9375
 40
0.9375
 40
0.9583333333333334
 40
0.9583333333333334
 40
0.9583333333333334
 40
0.9583333333333334
 40
1.0
 40
1.0
 40
1.0
 40
1.0
 10
173.0031
 20
7.1146
 30
0.0
 10
169.6207
 20
6.2417
 30
0.0
 10
167.0488
 20
3.1439
 30
0.0
 10
167.0488
 20
-0.0571
 30
0.0
 10
167.0488
 20
-0.0571
 30
0.0
 10
167.0488
 20
-4.1206
 30
0.0
 10
173.3168
 20
-7.6283
 30
0.0
 10
175.6197
 20
-4.8537
 30
0.0
 10
175.6197
 20
-4.8537
 30
0.0
 10
176.3222
 20
-4.0072
 30
0.0
 10
176.1131
 20
-3.8647
 30
0.0
 10
174.1673
 20
-3.8647
 30
0.0
 10
174.1673
 20
-3.8647
 30
0.0
 10
171.7843
 20
-3.8647
 30
0.0
 10
169.0269
 20
-1.7102
 30
0.0
 10
169.0269
 20
0.1517
 30
0.0
 10
169.0269
 20
0.1517
 30
0.0
 10
169.0269
 20
1.5904
 30
0.0
 10
170.9393
 20
4.0469
 30
0.0
 10
172.0597
 20
4.0469
 30
0.0
 10
172.0597
 20
4.0469
 30
0.0
 10
172.785
 20
4.0469
 30
0.0
 10
172.9894
 20
3.4137
 30
0.0
 10
172.8463
 20
1.6109
 30
0.0
 10
172.8463
 20
1.6109
 30
0.0
 10
172.6602
 20
-0.7352
 30
0.0
 10
172.7624
 20
-0.8638
 30
0.0
 10
175.6168
 20
-1.8705
 30
0.0
 10
175.6168
 20
-1.8705
 30
0.0
 10
178.0495
 20
-2.7286
 30
0.0
 10
178.5559
 20
-2.9093
 30
0.0
 10
178.8512
 20
-4.5165
 30
0.0
 10
178.8512
 20
-4.5165
 30
0.0
 10
179.2037
 20
-6.4335
 30
0.0
 10
179.3171
 20
-6.8015
 30
0.0
 10
180.0973
 20
-5.3914
 30
0.0
 10
180.0973
 20
-5.3914
 30
0.0
 10
181.3691
 20
-3.0927
 30
0.0
 10
181.0926
 20
1.2112
 30
0.0
 10
179.5755
 20
2.7282
 30
0.0
 10
179.5755
 20
2.7282
 30
0.0
 10
178.8504
 20
3.4533
 30
0.0
 10
177.8295
 20
4.0469
 30
0.0
 10
177.307
 20
4.0469
 30
0.0
 10
177.307
 20
4.0469
 30
0.0
 10
176.7844
 20
4.0469
 30
0.0
 10
176.1737
 20
4.3437
 30
0.0
 10
175.9494
 20
4.7062
 30
0.0
 10
175.9494
 20
4.7062
 30
0.0
 10
175.0524
 20
6.1577
 30
0.0
 10
179.0562
 20
5.2823
 30
0.0
 10
180.5154
 20
3.708
 30
0.0
 10
180.5154
 20
3.708
 30
0.0
 10
183.8847
 20
0.0727
 30
0.0
 10
183.1805
 20
-5.2935
 30
0.0
 10
178.7672
 20
-9.6143
 30
0.0
 10
178.7672
 20
-9.6143
 30
0.0
 10
175.309
 20
-12.9997
 30
0.0
 10
172.0674
 20
-14.4133
 30
0.0
 10
167.7615
 20
-14.4133
 30
0.0
 10
167.7615
 20
-14.4133
 30
0.0
 10
160.1766
 20
-14.4133
 30
0.0
 10
153.1168
 20
-11.8046
 30
0.0
 10
139.3952
 20
-3.9319
 30
0.0
 10
139.3952
 20
-3.9319
 30
0.0
 10
139.3952
 20
-3.9319
 30
0.0
 10
130.1573
 20
1.3682
 30
0.0
 10
130.1573
 20
1.3682
 30
0.0
 10
130.1573
 20
1.3682
 30
0.0
 10
130.1573
 20
1.3682
 30
0.0
 10
127.3933
 20
0.1943
 30
0.0
 10
127.3933
 20
0.1943
 30
0.0
 10
127.3933
 20
0.1943
 30
0.0
 10
127.3933
 20
0.1943
 30
0.0
 10
125.6117
 20
-0.9796
 30
0.0
 10
125.6117
 20
-0.9796
 30
0.0
 10
125.6117
 20
-0.9796
 30
0.0
 10
134.752
 20
-8.5207
 30
0.0
 10
144.349
 20
-14.364
 30
0.0
 10
145.2685
 20
-31.3276
 30
0.0
 10
145.2685
 20
-31.3276
 30
0.0
 10
145.1439
 20
-33.592
 30
0.0
 10
145.0823
 20
-36.1885
 30
0.0
 10
143.5486
 20
-38.6962
 30
0.0
 10
143.5486
 20
-38.6962
 30
0.0
 10
142.2586
 20
-40.3366
 30
0.0
 10
141.9015
 20
-40.7854
 30
0.0
 10
143.2989
 20
-40.7854
 30
0.0
 10
143.2989
 20
-40.7854
 30
0.0
 10
148.3182
 20
-40.151
 30
0.0
 10
148.5562
 20
-38.0529
 30
0.0
 10
148.8976
 20
-35.6604
 30
0.0
 10
148.8976
 20
-35.6604
 30
0.0
 10
149.5557
 20
-30.8764
 30
0.0
 10
150.1956
 20
-30.2542
 30
0.0
 10
151.7796
 20
-32.8589
 30
0.0
 10
151.7796
 20
-32.8589
 30
0.0
 10
151.7796
 20
-32.8589
 30
0.0
 10
153.108
 20
-35.0432
 30
0.0
 10
153.108
 20
-35.0432
 30
0.0
 10
153.108
 20
-35.0432
 30
0.0
 10
155.0644
 20
-30.2218
 30
0.0
 10
152.3949
 20
-25.2062
 30
0.0
 10
149.1836
 20
-22.9386
 30
0.0
 10
149.1836
 20
-22.9386
 30
0.0
 10
148.1226
 20
-22.1831
 30
0.0
 10
147.4399
 20
-21.2651
 30
0.0
 10
147.6664
 20
-20.8988
 30
0.0
 10
147.6664
 20
-20.8988
 30
0.0
 10
147.9392
 20
-20.4573
 30
0.0
 10
148.32
 20
-20.4742
 30
0.0
 10
148.7949
 20
-20.9492
 30
0.0
 10
148.7949
 20
-20.9492
 30
0.0
 10
149.8662
 20
-22.0202
 30
0.0
 10
150.5666
 20
-21.8173
 30
0.0
 10
150.5666
 20
-20.4356
 30
0.0
 10
150.5666
 20
-20.4356
 30
0.0
 10
150.5666
 20
-19.7536
 30
0.0
 10
148.2898
 20
-17.0669
 30
0.0
 10
145.4571
 20
-14.4061
 30
0.0
 10
145.4571
 20
-14.4061
 30
0.0
 10
142.2137
 20
-11.3596
 30
0.0
 10
140.6733
 20
-9.493
 30
0.0
 10
141.2392
 20
-9.2956
 30
0.0
 10
141.2392
 20
-9.2956
 30
0.0
 10
142.7136
 20
-8.7811
 30
0.0
 10
147.2806
 20
-11.8737
 30
0.0
 10
149.5213
 20
-15.3685
 30
0.0
 10
149.5213
 20
-15.3685
 30
0.0
 10
154.6104
 20
-23.3054
 30
0.0
 10
157.8246
 20
-26.7419
 30
0.0
 10
157.1373
 20
-23.8818
 30
0.0
 10
157.1373
 20
-23.8818
 30
0.0
 10
156.2737
 20
-20.2873
 30
0.0
 10
157.1426
 20
-21.6327
 30
0.0
 10
160.53
 20
-23.9628
 30
0.0
 10
160.53
 20
-23.9628
 30
0.0
 10
162.3834
 20
-25.2374
 30
0.0
 10
164.5899
 20
-26.2807
 30
0.0
 10
165.4329
 20
-26.2807
 30
0.0
 10
165.4329
 20
-26.2807
 30
0.0
 10
166.8313
 20
-26.2807
 30
0.0
 10
166.9327
 20
-26.0639
 30
0.0
 10
166.5903
 20
-23.8083
 30
0.0
 10
166.5903
 20
-23.8083
 30
0.0
 10
166.3838
 20
-22.4485
 30
0.0
 10
165.6103
 20
-20.6696
 30
0.0
 10
164.871
 20
-19.855
 30
0.0
 10
164.871
 20
-19.855
 30
0.0
 10
162.6787
 20
-17.4392
 30
0.0
 10
163.9834
 20
-17.4775
 30
0.0
 10
168.9424
 20
-19.9749
 30
0.0
 10
168.9424
 20
-19.9749
 30
0.0
 10
173.1194
 20
-22.0785
 30
0.0
 10
177.5973
 20
-23.0652
 30
0.0
 10
177.5973
 20
-21.8821
 30
0.0
 10
177.5973
 20
-21.8821
 30
0.0
 10
177.5973
 20
-21.6387
 30
0.0
 10
175.9828
 20
-20.224
 30
0.0
 10
175.4286
 20
-19.6116
 30
0.0
 10
175.4286
 20
-19.6116
 30
0.0
 10
174.4997
 20
-18.5852
 30
0.0
 10
175.8196
 20
-19.18
 30
0.0
 10
178.6219
 20
-18.796
 30
0.0
 10
178.6219
 20
-18.796
 30
0.0
 10
181.9552
 20
-18.339
 30
0.0
 10
185.5088
 20
-16.5508
 30
0.0
 10
185.5088
 20
-15.3306
 30
0.0
 10
185.5088
 20
-15.3306
 30
0.0
 10
185.5088
 20
-14.3154
 30
0.0
 10
183.9634
 20
-13.754
 30
0.0
 10
181.1696
 20
-13.754
 30
0.0
 10
181.1696
 20
-13.754
 30
0.0
 10
178.3899
 20
-13.754
 30
0.0
 10
178.3513
 20
-13.219
 30
0.0
 10
180.9528
 20
-10.7456
 30
0.0
 10
180.9528
 20
-10.7456
 30
0.0
 10
183.7974
 20
-8.0412
 30
0.0
 10
184.8614
 20
-5.7166
 30
0.0
 10
184.9447
 20
-2.0249
 30
0.0
 10
184.9447
 20
-2.0249
 30
0.0
 10
185.1091
 20
5.2701
 30
0.0
 10
180.2541
 20
8.9862
 30
0.0
 10
173.0031
 20
7.1151
 30
0.0
 10
173.0031
 20
7.1151
 30
0.0
 10
173.0031
 20
7.1151
 30
0.0
 10
173.0031
 20
7.1146
 30
0.0
 10
173.0031
 20
7.1146
 30
0.0
  0
SPLINE
  5
71
330
1F
100
AcDbEntity
  8
layer 1
 62
     7
100
AcDbSpline
210
0.0
220
0.0
230
1.0
 70
    11
 71
     3
 72
   580
 73
   576
 74
     0
 42
0.0000000001
 43
0.0000000001
 12
1.0
 22
0.0
 32
0.0
 13
1.0
 23
0.0
 33
0.0
 40
0.0
 40
0.0
 40
0.0
 40
0.0
 40
0.0068965517241379
 40
0.0068965517241379
 40
0.0068965517241379
 40
0.0068965517241379
 40
0.0137931034482759
 40
0.0137931034482759
 40
0.0137931034482759
 40
0.0137931034482759
 40
0.0206896551724138
 40
0.0206896551724138
 40
0.0206896551724138
 40
0.0206896551724138
 40
0.0275862068965517
 40
0.0275862068965517
 40
0.0275862068965517
 40
0.0275862068965517
 40
0.0344827586206897
 40
0.0344827586206897
 40
0.0344827586206897
 40
0.0344827586206897
 40
0.0413793103448276
 40
0.0413793103448276
 40
0.0413793103448276
 40
0.0413793103448276
 40
0.0482758620689655
 40
0.0482758620689655
 40
0.0482758620689655
 40
0.0482758620689655
 40
0.0551724137931034
 40
0.0551724137931034
 40
0.0551724137931034
 40
0.0551724137931034
 40
0.0620689655172414
 40
0.0620689655172414
 40
0.0620689655172414
 40
0.0620689655172414
 40
0.0689655172413793
 40
0.0689655172413793
 40
0.0689655172413793
 40
0.0689655172413793
 40
0.0758620689655172
 40
0.0758620689655172
 40
0.0758620689655172
 40
0.0758620689655172
 40
0.0827586206896552
 40
0.0827586206896552
 40
0.0827586206896552
 40
0.0827586206896552
 40
0.0896551724137931
 40
0.0896551724137931
 40
0.0896551724137931
 40
0.0896551724137931
 40
0.096551724137931
 40
0.096551724137931
 40
0.096551724137931
 40
0.096551724137931
 40
0.103448275862069
 40
0.103448275862069
 40
0.103448275862069
 40
0.103448275862069
 40
0.1103448275862069
 40
0.1103448275862069
 40
0.1103448275862069
 40
0.1103448275862069
 40
0.1172413793103448
 40
0.1172413793103448
 40
0.1172413793103448
 40
0.1172413793103448
 40
0.1241379310344828
 40
0.1241379310344828
 40
0.1241379310344828
 40
0.1241379310344828
 40
0.1310344827586207
 40
0.1310344827586207
 40
0.1310344827586207
 40
0.1310344827586207
 40
0.1379310344827586
 40
0.1379310344827586
 40
0.1379310344827586
 40
0.1379310344827586
 40
0.1448275862068966
 40
0.1448275862068966
 40
0.1448275862068966
 40
0.1448275862068966
 40
0.1517241379310345
 40
0.1517241379310345
 40
0.1517241379310345
 40
0.1517241379310345
 40
0.1586206896551724
 40
0.1586206896551724
 40
0.1586206896551724
 40
0.1586206896551724
 40
0.1655172413793103
 40
0.1655172413793103
 40
0.1655172413793103
 40
0.1655172413793103
 40
0.1724137931034483
 40
0.1724137931034483
 40
0.1724137931034483
 40
0.1724137931034483
 40
0.1793103448275862
 40
0.1793103448275862
 40
0.1793103448275862
 40
0.1793103448275862
 40
0.1862068965517241
 40
0.1862068965517241
 40
0.1862068965517241
 40
0.1862068965517241
 40
0.1931034482758621
 40
0.1931034482758621
 40
0.1931034482758621
 40
0.1931034482758621
 40
0.2
 40
0.2
 40
0.2
 40
0.2
 40
0.2068965517241379
 40
0.2068965517241379
 40
0.2068965517241379
 40
0.2068965517241379
 40
0.2137931034482759
 40
0.2137931034482759
 40
0.2137931034482759
 40
0.2137931034482759
 40
0.2206896551724138
 40
0.2206896551724138
 40
0.2206896551724138
 40
0.2206896551724138
 40
0.2275862068965517
 40
0.2275862068965517
 40
0.2275862068965517
 40
0.2275862068965517
 40
0.2344827586206897
 40
0.2344827586206897
 40
0.2344827586206897
 40
0.2344827586206897
 40
0.2413793103448276
 40
0.2413793103448276
 40
0.2413793103448276
 40
0.2413793103448276
 40
0.2482758620689655
 40
0.2482758620689655
 40
0.2482758620689655
 40
0.2482758620689655
 40
0.2551724137931035
 40
0.2551724137931035
 40
0.2551724137931035
 40
0.2551724137931035
 40
0.2620689655172414
 40
0.2620689655172414
 40
0.2620689655172414
 40
0.2620689655172414
 40
0.2689655172413793
 40
0.2689655172413793
 40
0.2689655172413793
 40
0.2689655172413793
 40
0.2758620689655172
 40
0.2758620689655172
 40
0.2758620689655172
 40
0.2758620689655172
 40
0.2827586206896552
 40
0.2827586206896552
 40
0.2827586206896552
 40
0.2827586206896552
 40
0.2896551724137931
 40
0.2896551724137931
 40
0.2896551724137931
 40
0.2896551724137931
 40
0.296551724137931
 40
0.296551724137931
 40
0.296551724137931
 40
0.296551724137931
 40
0.303448275862069
 40
0.303448275862069
 40
0.303448275862069
 40
0.303448275862069
 40
0.3103448275862069
 40
0.3103448275862069
 40
0.3103448275862069
 40
0.3103448275862069
 40
0.3172413793103449
 40
0.3172413793103449
 40
0.3172413793103449
 40
0.3172413793103449
 40
0.3241379310344827
 40
0.3241379310344827
 40
0.3241379310344827
 40
0.3241379310344827
 40
0.3310344827586207
 40
0.3310344827586207
 40
0.3310344827586207
 40
0.3310344827586207
 40
0.3379310344827586
 40
0.3379310344827586
 40
0.3379310344827586
 40
0.3379310344827586
 40
0.3448275862068966
 40
0.3448275862068966
 40
0.3448275862068966
 40
0.3448275862068966
 40
0.3517241379310345
 40
0.3517241379310345
 40
0.3517241379310345
 40
0.3517241379310345
 40
0.3586206896551724
 40
0.3586206896551724
 40
0.3586206896551724
 40
0.3586206896551724
 40
0.3655172413793104
 40
0.3655172413793104
 40
0.3655172413793104
 40
0.3655172413793104
 40
0.3724137931034483
 40
0.3724137931034483
 40
0.3724137931034483
 40
0.3724137931034483
 40
0.3793103448275862
 40
0.3793103448275862
 40
0.3793103448275862
 40
0.3793103448275862
 40
0.3862068965517241
 40
0.3862068965517241
 40
0.3862068965517241
 40
0.3862068965517241
 40
0.3931034482758621
 40
0.3931034482758621
 40
0.3931034482758621
 40
0.3931034482758621
 40
0.4
 40
0.4
 40
0.4
 40
0.4
 40
0.4068965517241379
 40
0.4068965517241379
 40
0.4068965517241379
 40
0.4068965517241379
 40
0.4137931034482759
 40
0.4137931034482759
 40
0.4137931034482759
 40
0.4137931034482759
 40
0.4206896551724138
 40
0.4206896551724138
 40
0.4206896551724138
 40
0.4206896551724138
 40
0.4275862068965517
 40
0.4275862068965517
 40
0.4275862068965517
 40
0.4275862068965517
 40
0.4344827586206896
 40
0.4344827586206896
 40
0.4344827586206896
 40
0.4344827586206896
 40
0.4413793103448276
 40
0.4413793103448276
 40
0.4413793103448276
 40
0.4413793103448276
 40
0.4482758620689655
 40
0.4482758620689655
 40
0.4482758620689655
 40
0.4482758620689655
 40
0.4551724137931035
 40
0.4551724137931035
 40
0.4551724137931035
 40
0.4551724137931035
 40
0.4620689655172414
 40
0.4620689655172414
 40
0.4620689655172414
 40
0.4620689655172414
 40
0.4689655172413793
 40
0.4689655172413793
 40
0.4689655172413793
 40
0.4689655172413793
 40
0.4758620689655172
 40
0.4758620689655172
 40
0.4758620689655172
 40
0.4758620689655172
 40
0.4827586206896552
 40
0.4827586206896552
 40
0.4827586206896552
 40
0.4827586206896552
 40
0.4896551724137931
 40
0.4896551724137931
 40
0.4896551724137931
 40
0.4896551724137931
 40
0.496551724137931
 40
0.496551724137931
 40
0.496551724137931
 40
0.496551724137931
 40
0.503448275862069
 40
0.503448275862069
 40
0.503448275862069
 40
0.503448275862069
 40
0.5103448275862069
 40
0.5103448275862069
 40
0.5103448275862069
 40
0.5103448275862069
 40
0.5172413793103449
 40
0.5172413793103449
 40
0.5172413793103449
 40
0.5172413793103449
 40
0.5241379310344828
 40
0.5241379310344828
 40
0.5241379310344828
 40
0.5241379310344828
 40
0.5310344827586206
 40
0.5310344827586206
 40
0.5310344827586206
 40
0.5310344827586206
 40
0.5379310344827586
 40
0.5379310344827586
 40
0.5379310344827586
 40
0.5379310344827586
 40
0.5448275862068965
 40
0.5448275862068965
 40
0.5448275862068965
 40
0.5448275862068965
 40
0.5517241379310345
 40
0.5517241379310345
 40
0.5517241379310345
 40
0.5517241379310345
 40
0.5586206896551724
 40
0.5586206896551724
 40
0.5586206896551724
 40
0.5586206896551724
 40
0.5655172413793104
 40
0.5655172413793104
 40
0.5655172413793104
 40
0.5655172413793104
 40
0.5724137931034483
 40
0.5724137931034483
 40
0.5724137931034483
 40
0.5724137931034483
 40
0.5793103448275863
 40
0.5793103448275863
 40
0.5793103448275863
 40
0.5793103448275863
 40
0.5862068965517241
 40
0.5862068965517241
 40
0.5862068965517241
 40
0.5862068965517241
 40
0.593103448275862
 40
0.593103448275862
 40
0.593103448275862
 40
0.593103448275862
 40
0.6
 40
0.6
 40
0.6
 40
0.6
 40
0.6068965517241379
 40
0.6068965517241379
 40
0.6068965517241379
 40
0.6068965517241379
 40
0.6137931034482759
 40
0.6137931034482759
 40
0.6137931034482759
 40
0.6137931034482759
 40
0.6206896551724138
 40
0.6206896551724138
 40
0.6206896551724138
 40
0.6206896551724138
 40
0.6275862068965518
 40
0.6275862068965518
 40
0.6275862068965518
 40
0.6275862068965518
 40
0.6344827586206897
 40
0.6344827586206897
 40
0.6344827586206897
 40
0.6344827586206897
 40
0.6413793103448275
 40
0.6413793103448275
 40
0.6413793103448275
 40
0.6413793103448275
 40
0.6482758620689655
 40
0.6482758620689655
 40
0.6482758620689655
 40
0.6482758620689655
 40
0.6551724137931034
 40
0.6551724137931034
 40
0.6551724137931034
 40
0.6551724137931034
 40
0.6620689655172414
 40
0.6620689655172414
 40
0.6620689655172414
 40
0.6620689655172414
 40
0.6689655172413793
 40
0.6689655172413793
 40
0.6689655172413793
 40
0.6689655172413793
 40
0.6758620689655173
 40
0.6758620689655173
 40
0.6758620689655173
 40
0.6758620689655173
 40
0.6827586206896552
 40
0.6827586206896552
 40
0.6827586206896552
 40
0.6827586206896552
 40
0.6896551724137931
 40
0.6896551724137931
 40
0.6896551724137931
 40
0.6896551724137931
 40
0.696551724137931
 40
0.696551724137931
 40
0.696551724137931
 40
0.696551724137931
 40
0.7034482758620689
 40
0.7034482758620689
 40
0.7034482758620689
 40
0.7034482758620689
 40
0.7103448275862069
 40
0.7103448275862069
 40
0.7103448275862069
 40
0.7103448275862069
 40
0.7172413793103448
 40
0.7172413793103448
 40
0.7172413793103448
 40
0.7172413793103448
 40
0.7241379310344828
 40
0.7241379310344828
 40
0.7241379310344828
 40
0.7241379310344828
 40
0.7310344827586207
 40
0.7310344827586207
 40
0.7310344827586207
 40
0.7310344827586207
 40
0.7379310344827587
 40
0.7379310344827587
 40
0.7379310344827587
 40
0.7379310344827587
 40
0.7448275862068966
 40
0.7448275862068966
 40
0.7448275862068966
 40
0.7448275862068966
 40
0.7517241379310344
 40
0.7517241379310344
 40
0.7517241379310344
 40
0.7517241379310344
 40
0.7586206896551724
 40
0.7586206896551724
 40
0.7586206896551724
 40
0.7586206896551724
 40
0.7655172413793103
 40
0.7655172413793103
 40
0.7655172413793103
 40
0.7655172413793103
 40
0.7724137931034483
 40
0.7724137931034483
 40
0.7724137931034483
 40
0.7724137931034483
 40
0.7793103448275862
 40
0.7793103448275862
 40
0.7793103448275862
 40
0.7793103448275862
 40
0.7862068965517242
 40
0.7862068965517242
 40
0.7862068965517242
 40
0.7862068965517242
 40
0.7931034482758621
 40
0.7931034482758621
 40
0.7931034482758621
 40
0.7931034482758621
 40
0.8
 40
0.8
 40
0.8
 40
0.8
 40
0.8068965517241379
 40
0.8068965517241379
 40
0.8068965517241379
 40
0.8068965517241379
 40
0.8137931034482758
 40
0.8137931034482758
 40
0.8137931034482758
 40
0.8137931034482758
 40
0.8206896551724138
 40
0.8206896551724138
 40
0.8206896551724138
 40
0.8206896551724138
 40
0.8275862068965517
 40
0.8275862068965517
 40
0.8275862068965517
 40
0.8275862068965517
 40
0.8344827586206897
 40
0.8344827586206897
 40
0.8344827586206897
 40
0.8344827586206897
 40
0.8413793103448276
 40
0.8413793103448276
 40
0.8413793103448276
 40
0.8413793103448276
 40
0.8482758620689655
 40
0.8482758620689655
 40
0.8482758620689655
 40
0.8482758620689655
 40
0.8551724137931035
 40
0.8551724137931035
 40
0.8551724137931035
 40
0.8551724137931035
 40
0.8620689655172413
 40
0.8620689655172413
 40
0.8620689655172413
 40
0.8620689655172413
 40
0.8689655172413793
 40
0.8689655172413793
 40
0.8689655172413793
 40
0.8689655172413793
 40
0.8758620689655172
 40
0.8758620689655172
 40
0.8758620689655172
 40
0.8758620689655172
 40
0.8827586206896552
 40
0.8827586206896552
 40
0.8827586206896552
 40
0.8827586206896552
 40
0.8896551724137931
 40
0.8896551724137931
 40
0.8896551724137931
 40
0.8896551724137931
 40
0.896551724137931
 40
0.896551724137931
 40
0.896551724137931
 40
0.896551724137931
 40
0.903448275862069
 40
0.903448275862069
 40
0.903448275862069
 40
0.903448275862069
 40
0.9103448275862069
 40
0.9103448275862069
 40
0.9103448275862069
 40
0.9103448275862069
 40
0.9172413793103448
 40
0.9172413793103448
 40
0.9172413793103448
 40
0.9172413793103448
 40
0.9241379310344827
 40
0.9241379310344827
 40
0.9241379310344827
 40
0.9241379310344827
 40
0.9310344827586207
 40
0.9310344827586207
 40
0.9310344827586207
 40
0.9310344827586207
 40
0.9379310344827586
 40
0.9379310344827586
 40
0.9379310344827586
 40
0.9379310344827586
 40
0.9448275862068966
 40
0.9448275862068966
 40
0.9448275862068966
 40
0.9448275862068966
 40
0.9517241379310345
 40
0.9517241379310345
 40
0.9517241379310345
 40
0.9517241379310345
 40
0.9586206896551724
 40
0.9586206896551724
 40
0.9586206896551724
 40
0.9586206896551724
 40
0.9655172413793104
 40
0.9655172413793104
 40
0.9655172413793104
 40
0.9655172413793104
 40
0.9724137931034482
 40
0.9724137931034482
 40
0.9724137931034482
 40
0.9724137931034482
 40
0.9793103448275862
 40
0.9793103448275862
 40
0.9793103448275862
 40
0.9793103448275862
 40
0.9862068965517241
 40
0.9862068965517241
 40
0.9862068965517241
 40
0.9862068965517241
 40
1.0
 40
1.0
 40
1.0
 40
1.0
 10
136.7541
 20
8.7343
 30
0.0
 10
136.871
 20
7.4099
 30
0.0
 10
135.8813
 20
6.8963
 30
0.0
 10
134.06
 20
5.9195
 30
0.0
 10
134.06
 20
5.9195
 30
0.0
 10
131.5201
 20
4.5575
 30
0.0
 10
128.6315
 20
4.9891
 30
0.0
 10
125.7532
 20
5.4
 30
0.0
 10
125.7532
 20
5.4
 30
0.0
 10
125.7532
 20
5.4
 30
0.0
 10
120.9499
 20
8.7303
 30
0.0
 10
118.3913
 20
6.4508
 30
0.0
 10
118.3913
 20
6.4508
 30
0.0
 10
123.0912
 20
6.9098
 30
0.0
 10
125.2157
 20
4.5757
 30
0.0
 10
125.2157
 20
4.5757
 30
0.0
 10
125.2157
 20
4.5757
 30
0.0
 10
125.745
 20
2.6692
 30
0.0
 10
126.9092
 20
2.8007
 30
0.0
 10
127.406
 20
2.4865
 30
0.0
 10
127.406
 20
2.4865
 30
0.0
 10
128.1708
 20
2.0026
 30
0.0
 10
128.1708
 20
1.8272
 30
0.0
 10
127.406
 20
1.3428
 30
0.0
 10
127.406
 20
1.3428
 30
0.0
 10
125.7739
 20
0.3089
 30
0.0
 10
121.307
 20
0.7505
 30
0.0
 10
116.6134
 20
2.4098
 30
0.0
 10
116.6134
 20
2.4098
 30
0.0
 10
111.3086
 20
4.2851
 30
0.0
 10
109.6909
 20
4.4421
 30
0.0
 10
109.6909
 20
3.0813
 30
0.0
 10
109.6909
 20
3.0813
 30
0.0
 10
109.6909
 20
1.6361
 30
0.0
 10
111.5114
 20
0.961
 30
0.0
 10
116.4223
 20
0.5855
 30
0.0
 10
116.4223
 20
0.5855
 30
0.0
 10
121.1832
 20
0.2217
 30
0.0
 10
126.1935
 20
-2.098
 30
0.0
 10
127.5027
 20
-4.5444
 30
0.0
 10
127.5027
 20
-4.5444
 30
0.0
 10
128.0963
 20
-5.6538
 30
0.0
 10
127.9784
 20
-5.8536
 30
0.0
 10
126.6906
 20
-5.9204
 30
0.0
 10
126.6906
 20
-5.9204
 30
0.0
 10
125.8618
 20
-5.9633
 30
0.0
 10
124.9613
 20
-5.9633
 30
0.0
 10
124.6894
 20
-5.9204
 30
0.0
 10
124.6894
 20
-5.9204
 30
0.0
 10
123.8081
 20
-5.7814
 30
0.0
 10
124.1609
 20
-6.6007
 30
0.0
 10
125.8432
 20
-8.5999
 30
0.0
 10
125.8432
 20
-8.5999
 30
0.0
 10
128.4835
 20
-11.9128
 30
0.0
 10
128.8104
 20
-16.9393
 30
0.0
 10
123.4821
 20
-19.6579
 30
0.0
 10
123.4821
 20
-19.6579
 30
0.0
 10
124.1649
 20
-16.0764
 30
0.0
 10
124.5003
 20
-13.6259
 30
0.0
 10
121.7752
 20
-10.079
 30
0.0
 10
121.7752
 20
-10.079
 30
0.0
 10
118.8179
 20
-7.1212
 30
0.0
 10
116.0557
 20
-5.5215
 30
0.0
 10
110.7053
 20
-3.5412
 30
0.0
 10
110.7053
 20
-3.5412
 30
0.0
 10
107.2765
 20
-2.2724
 30
0.0
 10
102.8052
 20
0.2371
 30
0.0
 10
100.2152
 20
6.9232
 30
0.0
 10
100.2152
 20
6.9232
 30
0.0
 10
100.2152
 20
6.9232
 30
0.0
 10
97.6989
 20
6.9409
 30
0.0
 10
97.6989
 20
6.9409
 30
0.0
 10
97.6989
 20
6.9409
 30
0.0
 10
97.3172
 20
6.1176
 30
0.0
 10
96.6095
 20
5.4204
 30
0.0
 10
95.8619
 20
5.2754
 30
0.0
 10
95.8619
 20
5.2754
 30
0.0
 10
95.8619
 20
5.2754
 30
0.0
 10
95.8761
 20
3.6215
 30
0.0
 10
95.8761
 20
3.6215
 30
0.0
 10
95.8761
 20
3.6215
 30
0.0
 10
100.6819
 20
2.7028
 30
0.0
 10
105.7468
 20
-2.5988
 30
0.0
 10
106.4061
 20
-6.8569
 30
0.0
 10
106.4061
 20
-6.8569
 30
0.0
 10
108.8608
 20
-14.0373
 30
0.0
 10
115.4226
 20
-20.0671
 30
0.0
 10
119.7446
 20
-19.2271
 30
0.0
 10
119.7446
 20
-19.2271
 30
0.0
 10
121.9347
 20
-18.8015
 30
0.0
 10
122.0199
 20
-19.2056
 30
0.0
 10
120.1147
 20
-20.9806
 30
0.0
 10
120.1147
 20
-20.9806
 30
0.0
 10
117.9715
 20
-22.9773
 30
0.0
 10
113.6581
 20
-22.8046
 30
0.0
 10
111.0594
 20
-20.618
 30
0.0
 10
111.0594
 20
-20.618
 30
0.0
 10
111.0594
 20
-20.618
 30
0.0
 10
109.0308
 20
-18.9111
 30
0.0
 10
109.0308
 20
-18.9111
 30
0.0
 10
109.0308
 20
-18.9111
 30
0.0
 10
109.0308
 20
-20.0681
 30
0.0
 10
109.2162
 20
-22.0079
 30
0.0
 10
108.8272
 20
-23.7791
 30
0.0
 10
108.8272
 20
-23.7791
 30
0.0
 10
104.8869
 20
-21.6768
 30
0.0
 10
102.4376
 20
-15.597
 30
0.0
 10
102.4376
 20
-11.4625
 30
0.0
 10
102.4376
 20
-11.4625
 30
0.0
 10
102.4376
 20
-8.9557
 30
0.0
 10
101.2303
 20
-5.1833
 30
0.0
 10
100.428
 20
-5.1833
 30
0.0
 10
100.428
 20
-5.1833
 30
0.0
 10
98.7789
 20
-5.1833
 30
0.0
 10
98.7298
 20
-7.5429
 30
0.0
 10
100.2989
 20
-11.3775
 30
0.0
 10
100.2989
 20
-11.3775
 30
0.0
 10
101.8476
 20
-15.1626
 30
0.0
 10
102.6283
 20
-21.695
 30
0.0
 10
101.649
 20
-22.6743
 30
0.0
 10
101.649
 20
-22.6743
 30
0.0
 10
101.4205
 20
-22.9028
 30
0.0
 10
101.4237
 20
-21.623
 30
0.0
 10
100.3602
 20
-20.7623
 30
0.0
 10
100.3602
 20
-20.7623
 30
0.0
 10
96.7124
 20
-18.8431
 30
0.0
 10
98.1933
 20
-15.8755
 30
0.0
 10
97.6625
 20
-12.8567
 30
0.0
 10
97.6625
 20
-12.8567
 30
0.0
 10
97.5546
 20
-12.2425
 30
0.0
 10
96.7513
 20
-12.5781
 30
0.0
 10
96.1993
 20
-12.7244
 30
0.0
 10
96.1993
 20
-12.7244
 30
0.0
 10
95.5153
 20
-17.2732
 30
0.0
 10
97.5711
 20
-20.9855
 30
0.0
 10
97.5711
 20
-20.9855
 30
0.0
 10
97.5711
 20
-20.9855
 30
0.0
 10
98.3089
 20
-24.7111
 30
0.0
 10
98.4597
 20
-27.7382
 30
0.0
 10
96.1657
 20
-30.069
 30
0.0
 10
96.1657
 20
-30.069
 30
0.0
 10
96.1657
 20
-30.069
 30
0.0
 10
94.5061
 20
-31.7351
 30
0.0
 10
94.5061
 20
-31.7351
 30
0.0
 10
94.5061
 20
-31.7351
 30
0.0
 10
94.5061
 20
-31.7351
 30
0.0
 10
92.8665
 20
-30.069
 30
0.0
 10
92.8665
 20
-30.069
 30
0.0
 10
92.8665
 20
-30.069
 30
0.0
 10
90.5725
 20
-27.7382
 30
0.0
 10
90.7233
 20
-24.7111
 30
0.0
 10
91.4611
 20
-20.9855
 30
0.0
 10
91.4611
 20
-20.9855
 30
0.0
 10
91.4611
 20
-20.9855
 30
0.0
 10
93.5169
 20
-17.2732
 30
0.0
 10
92.8329
 20
-12.7244
 30
0.0
 10
92.8329
 20
-12.7244
 30
0.0
 10
92.2809
 20
-12.5781
 30
0.0
 10
91.4776
 20
-12.2425
 30
0.0
 10
91.3697
 20
-12.8567
 30
0.0
 10
91.3697
 20
-12.8567
 30
0.0
 10
90.8389
 20
-15.8755
 30
0.0
 10
92.3198
 20
-18.8431
 30
0.0
 10
88.672
 20
-20.7623
 30
0.0
 10
88.672
 20
-20.7623
 30
0.0
 10
87.6085
 20
-21.623
 30
0.0
 10
87.6117
 20
-22.9028
 30
0.0
 10
87.3832
 20
-22.6743
 30
0.0
 10
87.3832
 20
-22.6743
 30
0.0
 10
86.4039
 20
-21.695
 30
0.0
 10
87.1846
 20
-15.1626
 30
0.0
 10
88.7333
 20
-11.3775
 30
0.0
 10
88.7333
 20
-11.3775
 30
0.0
 10
90.3024
 20
-7.5429
 30
0.0
 10
90.2533
 20
-5.1833
 30
0.0
 10
88.6042
 20
-5.1833
 30
0.0
 10
88.6042
 20
-5.1833
 30
0.0
 10
87.8019
 20
-5.1833
 30
0.0
 10
86.5946
 20
-8.9557
 30
0.0
 10
86.5946
 20
-11.4625
 30
0.0
 10
86.5946
 20
-11.4625
 30
0.0
 10
86.5946
 20
-15.597
 30
0.0
 10
84.1453
 20
-21.6768
 30
0.0
 10
80.205
 20
-23.7791
 30
0.0
 10
80.205
 20
-23.7791
 30
0.0
 10
79.816
 20
-22.0079
 30
0.0
 10
80.0014
 20
-20.0681
 30
0.0
 10
80.0014
 20
-18.9111
 30
0.0
 10
80.0014
 20
-18.9111
 30
0.0
 10
80.0014
 20
-18.9111
 30
0.0
 10
77.9728
 20
-20.618
 30
0.0
 10
77.9728
 20
-20.618
 30
0.0
 10
77.9728
 20
-20.618
 30
0.0
 10
75.3741
 20
-22.8046
 30
0.0
 10
71.0607
 20
-22.9773
 30
0.0
 10
68.9175
 20
-20.9806
 30
0.0
 10
68.9175
 20
-20.9806
 30
0.0
 10
67.0123
 20
-19.2056
 30
0.0
 10
67.0975
 20
-18.8015
 30
0.0
 10
69.2875
 20
-19.2271
 30
0.0
 10
69.2875
 20
-19.2271
 30
0.0
 10
73.6096
 20
-20.0671
 30
0.0
 10
80.1714
 20
-14.0373
 30
0.0
 10
82.6261
 20
-6.8569
 30
0.0
 10
82.6261
 20
-6.8569
 30
0.0
 10
83.2854
 20
-2.5988
 30
0.0
 10
88.3725
 20
2.6938
 30
0.0
 10
93.1782
 20
3.6126
 30
0.0
 10
93.1782
 20
3.6126
 30
0.0
 10
93.1715
 20
4.1974
 30
0.0
 10
93.171
 20
4.7145
 30
0.0
 10
93.164
 20
5.299
 30
0.0
 10
93.164
 20
5.299
 30
0.0
 10
92.1175
 20
5.9123
 30
0.0
 10
91.648
 20
6.2806
 30
0.0
 10
91.2854
 20
6.9504
 30
0.0
 10
91.2854
 20
6.9504
 30
0.0
 10
91.2854
 20
6.9504
 30
0.0
 10
88.895
 20
6.9304
 30
0.0
 10
88.895
 20
6.9304
 30
0.0
 10
88.895
 20
6.9304
 30
0.0
 10
86.305
 20
0.2444
 30
0.0
 10
81.7557
 20
-2.2724
 30
0.0
 10
78.3269
 20
-3.5412
 30
0.0
 10
78.3269
 20
-3.5412
 30
0.0
 10
72.9765
 20
-5.5215
 30
0.0
 10
70.2143
 20
-7.1212
 30
0.0
 10
67.257
 20
-10.079
 30
0.0
 10
67.257
 20
-10.079
 30
0.0
 10
64.5319
 20
-13.6259
 30
0.0
 10
64.8673
 20
-16.0764
 30
0.0
 10
65.55
 20
-19.6579
 30
0.0
 10
65.55
 20
-19.6579
 30
0.0
 10
60.2218
 20
-16.9393
 30
0.0
 10
60.5487
 20
-11.9128
 30
0.0
 10
63.189
 20
-8.5999
 30
0.0
 10
63.189
 20
-8.5999
 30
0.0
 10
64.8713
 20
-6.6007
 30
0.0
 10
65.2241
 20
-5.7814
 30
0.0
 10
64.3428
 20
-5.9204
 30
0.0
 10
64.3428
 20
-5.9204
 30
0.0
 10
64.0709
 20
-5.9633
 30
0.0
 10
63.1703
 20
-5.9633
 30
0.0
 10
62.3416
 20
-5.9204
 30
0.0
 10
62.3416
 20
-5.9204
 30
0.0
 10
61.0538
 20
-5.8536
 30
0.0
 10
60.9359
 20
-5.6538
 30
0.0
 10
61.5295
 20
-4.5444
 30
0.0
 10
61.5295
 20
-4.5444
 30
0.0
 10
62.8387
 20
-2.098
 30
0.0
 10
67.849
 20
0.2217
 30
0.0
 10
72.6099
 20
0.5855
 30
0.0
 10
72.6099
 20
0.5855
 30
0.0
 10
77.5208
 20
0.961
 30
0.0
 10
79.3413
 20
1.6361
 30
0.0
 10
79.3413
 20
3.0813
 30
0.0
 10
79.3413
 20
3.0813
 30
0.0
 10
79.3413
 20
4.4421
 30
0.0
 10
77.7236
 20
4.2851
 30
0.0
 10
72.4188
 20
2.4098
 30
0.0
 10
72.4188
 20
2.4098
 30
0.0
 10
67.7252
 20
0.7505
 30
0.0
 10
63.2583
 20
0.3089
 30
0.0
 10
61.6262
 20
1.3428
 30
0.0
 10
61.6262
 20
1.3428
 30
0.0
 10
60.8614
 20
1.8272
 30
0.0
 10
60.8614
 20
2.0026
 30
0.0
 10
61.6262
 20
2.4865
 30
0.0
 10
61.6262
 20
2.4865
 30
0.0
 10
62.123
 20
2.8007
 30
0.0
 10
63.2872
 20
2.6692
 30
0.0
 10
63.8165
 20
4.5757
 30
0.0
 10
63.8165
 20
4.5757
 30
0.0
 10
63.8165
 20
4.5757
 30
0.0
 10
65.941
 20
6.9098
 30
0.0
 10
70.6409
 20
6.4508
 30
0.0
 10
70.6409
 20
6.4508
 30
0.0
 10
68.0822
 20
8.7303
 30
0.0
 10
63.279
 20
5.4
 30
0.0
 10
63.279
 20
5.4
 30
0.0
 10
63.279
 20
5.4
 30
0.0
 10
60.4007
 20
4.9891
 30
0.0
 10
57.5121
 20
4.5575
 30
0.0
 10
54.9722
 20
5.9195
 30
0.0
 10
54.9722
 20
5.9195
 30
0.0
 10
53.1509
 20
6.8963
 30
0.0
 10
52.3767
 20
7.3558
 30
0.0
 10
52.2781
 20
8.7343
 30
0.0
 10
52.2781
 20
8.7343
 30
0.0
 10
52.3229
 20
10.0587
 30
0.0
 10
53.1509
 20
10.5683
 30
0.0
 10
54.9722
 20
11.5451
 30
0.0
 10
54.9722
 20
11.5451
 30
0.0
 10
57.5121
 20
12.9071
 30
0.0
 10
60.4007
 20
12.4755
 30
0.0
 10
63.279
 20
12.0646
 30
0.0
 10
63.279
 20
12.0646
 30
0.0
 10
63.279
 20
12.0646
 30
0.0
 10
68.0822
 20
8.7343
 30
0.0
 10
70.6409
 20
11.0138
 30
0.0
 10
70.6409
 20
11.0138
 30
0.0
 10
65.941
 20
10.5548
 30
0.0
 10
63.8165
 20
12.8889
 30
0.0
 10
63.8165
 20
12.8889
 30
0.0
 10
63.8165
 20
12.8889
 30
0.0
 10
63.2872
 20
14.7954
 30
0.0
 10
62.123
 20
14.6638
 30
0.0
 10
61.6262
 20
14.9781
 30
0.0
 10
61.6262
 20
14.9781
 30
0.0
 10
60.8614
 20
15.462
 30
0.0
 10
60.8614
 20
15.6374
 30
0.0
 10
61.6262
 20
16.1218
 30
0.0
 10
61.6262
 20
16.1218
 30
0.0
 10
63.2583
 20
17.1557
 30
0.0
 10
67.7252
 20
16.7141
 30
0.0
 10
72.4188
 20
15.0548
 30
0.0
 10
72.4188
 20
15.0548
 30
0.0
 10
77.7236
 20
13.1795
 30
0.0
 10
79.3413
 20
13.0225
 30
0.0
 10
79.3413
 20
14.3833
 30
0.0
 10
79.3413
 20
14.3833
 30
0.0
 10
79.3413
 20
15.8285
 30
0.0
 10
77.5208
 20
16.5036
 30
0.0
 10
72.6099
 20
16.8791
 30
0.0
 10
72.6099
 20
16.8791
 30
0.0
 10
67.849
 20
17.2429
 30
0.0
 10
62.8387
 20
19.5625
 30
0.0
 10
61.5295
 20
22.009
 30
0.0
 10
61.5295
 20
22.009
 30
0.0
 10
60.9359
 20
23.1184
 30
0.0
 10
61.0538
 20
23.3182
 30
0.0
 10
62.3416
 20
23.385
 30
0.0
 10
62.3416
 20
23.385
 30
0.0
 10
63.1703
 20
23.4279
 30
0.0
 10
64.0709
 20
23.4279
 30
0.0
 10
64.3428
 20
23.385
 30
0.0
 10
64.3428
 20
23.385
 30
0.0
 10
65.2241
 20
23.246
 30
0.0
 10
64.8713
 20
24.0653
 30
0.0
 10
63.189
 20
26.0645
 30
0.0
 10
63.189
 20
26.0645
 30
0.0
 10
60.5487
 20
29.3774
 30
0.0
 10
60.2218
 20
34.4039
 30
0.0
 10
65.55
 20
37.1225
 30
0.0
 10
65.55
 20
37.1225
 30
0.0
 10
64.8673
 20
33.541
 30
0.0
 10
64.5319
 20
31.0905
 30
0.0
 10
67.257
 20
27.5436
 30
0.0
 10
67.257
 20
27.5436
 30
0.0
 10
70.2143
 20
24.5858
 30
0.0
 10
72.9765
 20
22.9861
 30
0.0
 10
78.3269
 20
21.0058
 30
0.0
 10
78.3269
 20
21.0058
 30
0.0
 10
81.7557
 20
19.737
 30
0.0
 10
86.3389
 20
16.8033
 30
0.0
 10
88.9289
 20
10.1172
 30
0.0
 10
88.9289
 20
10.1172
 30
0.0
 10
88.9289
 20
10.1172
 30
0.0
 10
91.2638
 20
10.1108
 30
0.0
 10
91.2638
 20
10.1108
 30
0.0
 10
91.2638
 20
10.1108
 30
0.0
 10
91.5872
 20
10.8905
 30
0.0
 10
92.6405
 20
11.8812
 30
0.0
 10
93.173
 20
11.9415
 30
0.0
 10
93.173
 20
11.9415
 30
0.0
 10
93.173
 20
11.9415
 30
0.0
 10
93.1561
 20
13.843
 30
0.0
 10
93.1561
 20
13.843
 30
0.0
 10
93.1561
 20
13.843
 30
0.0
 10
88.3503
 20
14.7618
 30
0.0
 10
83.2854
 20
20.0634
 30
0.0
 10
82.6261
 20
24.3214
 30
0.0
 10
82.6261
 20
24.3214
 30
0.0
 10
80.1714
 20
31.5019
 30
0.0
 10
73.6096
 20
37.5316
 30
0.0
 10
69.2875
 20
36.6916
 30
0.0
 10
69.2875
 20
36.6916
 30
0.0
 10
67.0975
 20
36.266
 30
0.0
 10
67.0123
 20
36.6702
 30
0.0
 10
68.9175
 20
38.4451
 30
0.0
 10
68.9175
 20
38.4451
 30
0.0
 10
71.0607
 20
40.4418
 30
0.0
 10
75.3741
 20
40.2692
 30
0.0
 10
77.9728
 20
38.0826
 30
0.0
 10
77.9728
 20
38.0826
 30
0.0
 10
77.9728
 20
38.0826
 30
0.0
 10
80.0014
 20
36.3757
 30
0.0
 10
80.0014
 20
36.3757
 30
0.0
 10
80.0014
 20
36.3757
 30
0.0
 10
80.0014
 20
37.5326
 30
0.0
 10
79.816
 20
39.4725
 30
0.0
 10
80.205
 20
41.2437
 30
0.0
 10
80.205
 20
41.2437
 30
0.0
 10
84.1453
 20
39.1414
 30
0.0
 10
86.5946
 20
33.0615
 30
0.0
 10
86.5946
 20
28.9271
 30
0.0
 10
86.5946
 20
28.9271
 30
0.0
 10
86.5946
 20
26.4203
 30
0.0
 10
87.8019
 20
22.6479
 30
0.0
 10
88.6042
 20
22.6479
 30
0.0
 10
88.6042
 20
22.6479
 30
0.0
 10
90.2533
 20
22.6479
 30
0.0
 10
90.3024
 20
25.0074
 30
0.0
 10
88.7333
 20
28.8421
 30
0.0
 10
88.7333
 20
28.8421
 30
0.0
 10
87.1846
 20
32.6272
 30
0.0
 10
86.4039
 20
39.1595
 30
0.0
 10
87.3832
 20
40.1388
 30
0.0
 10
87.3832
 20
40.1388
 30
0.0
 10
87.6117
 20
40.3673
 30
0.0
 10
87.6085
 20
39.0875
 30
0.0
 10
88.672
 20
38.2269
 30
0.0
 10
88.672
 20
38.2269
 30
0.0
 10
92.3198
 20
36.3076
 30
0.0
 10
90.8389
 20
33.3401
 30
0.0
 10
91.3697
 20
30.3213
 30
0.0
 10
91.3697
 20
30.3213
 30
0.0
 10
91.4776
 20
29.707
 30
0.0
 10
92.2809
 20
30.0427
 30
0.0
 10
92.8329
 20
30.189
 30
0.0
 10
92.8329
 20
30.189
 30
0.0
 10
93.5169
 20
34.7378
 30
0.0
 10
91.4611
 20
38.4501
 30
0.0
 10
91.4611
 20
38.4501
 30
0.0
 10
91.4611
 20
38.4501
 30
0.0
 10
90.7233
 20
42.1757
 30
0.0
 10
90.5725
 20
45.2027
 30
0.0
 10
92.8665
 20
47.5336
 30
0.0
 10
92.8665
 20
47.5336
 30
0.0
 10
92.8665
 20
47.5336
 30
0.0
 10
94.5061
 20
49.1996
 30
0.0
 10
94.5061
 20
49.1996
 30
0.0
 10
94.5061
 20
49.1996
 30
0.0
 10
94.5061
 20
49.1996
 30
0.0
 10
96.1657
 20
47.5336
 30
0.0
 10
96.1657
 20
47.5336
 30
0.0
 10
96.1657
 20
47.5336
 30
0.0
 10
98.4597
 20
45.2027
 30
0.0
 10
98.3089
 20
42.1757
 30
0.0
 10
97.5711
 20
38.4501
 30
0.0
 10
97.5711
 20
38.4501
 30
0.0
 10
97.5711
 20
38.4501
 30
0.0
 10
95.5153
 20
34.7378
 30
0.0
 10
96.1993
 20
30.189
 30
0.0
 10
96.1993
 20
30.189
 30
0.0
 10
96.7513
 20
30.0427
 30
0.0
 10
97.5546
 20
29.707
 30
0.0
 10
97.6625
 20
30.3213
 30
0.0
 10
97.6625
 20
30.3213
 30
0.0
 10
98.1933
 20
33.3401
 30
0.0
 10
96.7124
 20
36.3076
 30
0.0
 10
100.3602
 20
38.2269
 30
0.0
 10
100.3602
 20
38.2269
 30
0.0
 10
101.4237
 20
39.0875
 30
0.0
 10
101.4205
 20
40.3673
 30
0.0
 10
101.649
 20
40.1388
 30
0.0
 10
101.649
 20
40.1388
 30
0.0
 10
102.6283
 20
39.1595
 30
0.0
 10
101.8476
 20
32.6272
 30
0.0
 10
100.2989
 20
28.8421
 30
0.0
 10
100.2989
 20
28.8421
 30
0.0
 10
98.7298
 20
25.0074
 30
0.0
 10
98.7789
 20
22.6479
 30
0.0
 10
100.428
 20
22.6479
 30
0.0
 10
100.428
 20
22.6479
 30
0.0
 10
101.2303
 20
22.6479
 30
0.0
 10
102.4376
 20
26.4203
 30
0.0
 10
102.4376
 20
28.9271
 30
0.0
 10
102.4376
 20
28.9271
 30
0.0
 10
102.4376
 20
33.0615
 30
0.0
 10
104.8869
 20
39.1414
 30
0.0
 10
108.8272
 20
41.2437
 30
0.0
 10
108.8272
 20
41.2437
 30
0.0
 10
109.2162
 20
39.4725
 30
0.0
 10
109.0308
 20
37.5326
 30
0.0
 10
109.0308
 20
36.3757
 30
0.0
 10
109.0308
 20
36.3757
 30
0.0
 10
109.0308
 20
36.3757
 30
0.0
 10
111.0594
 20
38.0826
 30
0.0
 10
111.0594
 20
38.0826
 30
0.0
 10
111.0594
 20
38.0826
 30
0.0
 10
113.6581
 20
40.2692
 30
0.0
 10
117.9715
 20
40.4418
 30
0.0
 10
120.1147
 20
38.4451
 30
0.0
 10
120.1147
 20
38.4451
 30
0.0
 10
122.0199
 20
36.6702
 30
0.0
 10
121.9347
 20
36.266
 30
0.0
 10
119.7446
 20
36.6916
 30
0.0
 10
119.7446
 20
36.6916
 30
0.0
 10
115.4226
 20
37.5316
 30
0.0
 10
108.8608
 20
31.5019
 30
0.0
 10
106.4061
 20
24.3214
 30
0.0
 10
106.4061
 20
24.3214
 30
0.0
 10
105.7468
 20
20.0634
 30
0.0
 10
100.6819
 20
14.7618
 30
0.0
 10
95.8761
 20
13.843
 30
0.0
 10
95.8761
 20
13.843
 30
0.0
 10
95.8746
 20
13.2425
 30
0.0
 10
95.8731
 20
12.642
 30
0.0
 10
95.8717
 20
12.0417
 30
0.0
 10
95.8717
 20
12.0417
 30
0.0
 10
96.6661
 20
11.6041
 30
0.0
 10
97.4378
 20
11.031
 30
0.0
 10
97.8155
 20
10.0527
 30
0.0
 10
97.8155
 20
10.0527
 30
0.0
 10
97.8155
 20
10.0527
 30
0.0
 10
100.1823
 20
10.0946
 30
0.0
 10
100.1823
 20
10.0946
 30
0.0
 10
100.1823
 20
10.0946
 30
0.0
 10
102.7723
 20
16.7807
 30
0.0
 10
107.2765
 20
19.737
 30
0.0
 10
110.7053
 20
21.0058
 30
0.0
 10
110.7053
 20
21.0058
 30
0.0
 10
116.0557
 20
22.9861
 30
0.0
 10
118.8179
 20
24.5858
 30
0.0
 10
121.7752
 20
27.5436
 30
0.0
 10
121.7752
 20
27.5436
 30
0.0
 10
124.5003
 20
31.0905
 30
0.0
 10
124.1649
 20
33.541
 30
0.0
 10
123.4821
 20
37.1225
 30
0.0
 10
123.4821
 20
37.1225
 30
0.0
 10
128.8104
 20
34.4039
 30
0.0
 10
128.4835
 20
29.3774
 30
0.0
 10
125.8432
 20
26.0645
 30
0.0
 10
125.8432
 20
26.0645
 30
0.0
 10
124.1609
 20
24.0653
 30
0.0
 10
123.8081
 20
23.246
 30
0.0
 10
124.6894
 20
23.385
 30
0.0
 10
124.6894
 20
23.385
 30
0.0
 10
124.9613
 20
23.4279
 30
0.0
 10
125.8618
 20
23.4279
 30
0.0
 10
126.6906
 20
23.385
 30
0.0
 10
126.6906
 20
23.385
 30
0.0
 10
127.9784
 20
23.3182
 30
0.0
 10
128.0963
 20
23.1184
 30
0.0
 10
127.5027
 20
22.009
 30
0.0
 10
127.5027
 20
22.009
 30
0.0
 10
126.1935
 20
19.5625
 30
0.0
 10
121.1832
 20
17.2429
 30
0.0
 10
116.4223
 20
16.8791
 30
0.0
 10
116.4223
 20
16.8791
 30
0.0
 10
111.5114
 20
16.5036
 30
0.0
 10
109.6909
 20
15.8285
 30
0.0
 10
109.6909
 20
14.3833
 30
0.0
 10
109.6909
 20
14.3833
 30
0.0
 10
109.6909
 20
13.0225
 30
0.0
 10
111.3086
 20
13.1795
 30
0.0
 10
116.6134
 20
15.0548
 30
0.0
 10
116.6134
 20
15.0548
 30
0.0
 10
121.307
 20
16.7141
 30
0.0
 10
125.7739
 20
17.1557
 30
0.0
 10
127.406
 20
16.1218
 30
0.0
 10
127.406
 20
16.1218
 30
0.0
 10
128.1708
 20
15.6374
 30
0.0
 10
128.1708
 20
15.462
 30
0.0
 10
127.406
 20
14.9781
 30
0.0
 10
127.406
 20
14.9781
 30
0.0
 10
126.9092
 20
14.6638
 30
0.0
 10
125.745
 20
14.7954
 30
0.0
 10
125.2157
 20
12.8889
 30
0.0
 10
125.2157
 20
12.8889
 30
0.0
 10
125.2157
 20
12.8889
 30
0.0
 10
123.0912
 20
10.5548
 30
0.0
 10
118.3913
 20
11.0138
 30
0.0
 10
118.3913
 20
11.0138
 30
0.0
 10
120.9499
 20
8.7343
 30
0.0
 10
125.7532
 20
12.0646
 30
0.0
 10
125.7532
 20
12.0646
 30
0.0
 10
125.7532
 20
12.0646
 30
0.0
 10
128.6315
 20
12.4755
 30
0.0
 10
131.5201
 20
12.9071
 30
0.0
 10
134.06
 20
11.5451
 30
0.0
 10
134.06
 20
11.5451
 30
0.0
 10
135.8813
 20
10.5683
 30
0.0
 10
136.7631
 20
9.9508
 30
0.0
 10
136.7541
 20
8.7343
 30
0.0
  0
SPLINE
  5
72
330
1F
100
AcDbEntity
  8
layer 1
 62
     7
100
AcDbSpline
210
0.0
220
0.0
230
1.0
 70
    11
 71
     3
 72
   108
 73
   104
 74
     0
 42
0.0000000001
 43
0.0000000001
 12
1.0
 22
0.0
 32
0.0
 13
1.0
 23
0.0
 33
0.0
 40
0.0
 40
0.0
 40
0.0
 40
0.0
 40
0.037037037037037
 40
0.037037037037037
 40
0.037037037037037
 40
0.037037037037037
 40
0.0740740740740741
 40
0.0740740740740741
 40
0.0740740740740741
 40
0.0740740740740741
 40
0.1111111111111111
 40
0.1111111111111111
 40
0.1111111111111111
 40
0.1111111111111111
 40
0.1481481481481481
 40
0.1481481481481481
 40
0.1481481481481481
 40
0.1481481481481481
 40
0.1851851851851852
 40
0.1851851851851852
 40
0.1851851851851852
 40
0.1851851851851852
 40
0.2222222222222222
 40
0.2222222222222222
 40
0.2222222222222222
 40
0.2222222222222222
 40
0.2592592592592592
 40
0.2592592592592592
 40
0.2592592592592592
 40
0.2592592592592592
 40
0.2962962962962963
 40
0.2962962962962963
 40
0.2962962962962963
 40
0.2962962962962963
 40
0.3333333333333333
 40
0.3333333333333333
 40
0.3333333333333333
 40
0.3333333333333333
 40
0.3703703703703703
 40
0.3703703703703703
 40
0.3703703703703703
 40
0.3703703703703703
 40
0.4074074074074074
 40
0.4074074074074074
 40
0.4074074074074074
 40
0.4074074074074074
 40
0.4444444444444444
 40
0.4444444444444444
 40
0.4444444444444444
 40
0.4444444444444444
 40
0.4814814814814815
 40
0.4814814814814815
 40
0.4814814814814815
 40
0.4814814814814815
 40
0.5185185185185185
 40
0.5185185185185185
 40
0.5185185185185185
 40
0.5185185185185185
 40
0.5555555555555556
 40
0.5555555555555556
 40
0.5555555555555556
 40
0.5555555555555556
 40
0.5925925925925926
 40
0.5925925925925926
 40
0.5925925925925926
 40
0.5925925925925926
 40
0.6296296296296297
 40
0.6296296296296297
 40
0.6296296296296297
 40
0.6296296296296297
 40
0.6666666666666666
 40
0.6666666666666666
 40
0.6666666666666666
 40
0.6666666666666666
 40
0.7037037037037037
 40
0.7037037037037037
 40
0.7037037037037037
 40
0.7037037037037037
 40
0.7407407407407407
 40
0.7407407407407407
 40
0.7407407407407407
 40
0.7407407407407407
 40
0.7777777777777778
 40
0.7777777777777778
 40
0.7777777777777778
 40
0.7777777777777778
 40
0.8148148148148148
 40
0.8148148148148148
 40
0.8148148148148148
 40
0.8148148148148148
 40
0.8518518518518519
 40
0.8518518518518519
 40
0.8518518518518519
 40
0.8518518518518519
 40
0.8888888888888888
 40
0.8888888888888888
 40
0.8888888888888888
 40
0.8888888888888888
 40
0.9259259259259259
 40
0.9259259259259259
 40
0.9259259259259259
 40
0.9259259259259259
 40
1.0
 40
1.0
 40
1.0
 40
1.0
 10
51.2071
 20
-42.2688
 30
0.0
 10
48.9963
 20
-44.6114
 30
0.0
 10
46.9812
 20
-49.9902
 30
0.0
 10
47.3452
 20
-51.2997
 30
0.0
 10
47.3452
 20
-51.2997
 30
0.0
 10
47.7235
 20
-52.6602
 30
0.0
 10
49.8326
 20
-51.6059
 30
0.0
 10
51.902
 20
-51.3316
 30
0.0
 10
51.902
 20
-51.3316
 30
0.0
 10
59.0366
 20
-52.3624
 30
0.0
 10
50.4042
 20
-59.9992
 30
0.0
 10
58.5188
 20
-62.4708
 30
0.0
 10
58.5188
 20
-62.4708
 30
0.0
 10
52.8437
 20
-65.23
 30
0.0
 10
49.9091
 20
-62.7242
 30
0.0
 10
49.9173
 20
-58.5242
 30
0.0
 10
49.9173
 20
-58.5242
 30
0.0
 10
49.7262
 20
-55.2961
 30
0.0
 10
48.5199
 20
-54.6288
 30
0.0
 10
47.6325
 20
-56.0297
 30
0.0
 10
47.6325
 20
-56.0297
 30
0.0
 10
46.6066
 20
-57.6494
 30
0.0
 10
47.0028
 20
-59.5157
 30
0.0
 10
49.0148
 20
-62.5423
 30
0.0
 10
49.0148
 20
-62.5423
 30
0.0
 10
51.1256
 20
-65.7177
 30
0.0
 10
51.4206
 20
-67.7109
 30
0.0
 10
50.2689
 20
-71.0148
 30
0.0
 10
50.2689
 20
-71.0148
 30
0.0
 10
49.4114
 20
-73.4747
 30
0.0
 10
48.8969
 20
-73.611
 30
0.0
 10
48.0173
 20
-71.6116
 30
0.0
 10
48.0173
 20
-71.6116
 30
0.0
 10
47.6594
 20
-70.7978
 30
0.0
 10
46.8733
 20
-70.0393
 30
0.0
 10
46.2705
 20
-69.9261
 30
0.0
 10
46.2705
 20
-69.9261
 30
0.0
 10
45.3647
 20
-69.7559
 30
0.0
 10
45.2262
 20
-70.1559
 30
0.0
 10
45.4729
 20
-72.2298
 30
0.0
 10
45.4729
 20
-72.2298
 30
0.0
 10
45.6802
 20
-73.9736
 30
0.0
 10
45.3106
 20
-75.7002
 30
0.0
 10
44.2613
 20
-77.8885
 30
0.0
 10
44.2613
 20
-77.8885
 30
0.0
 10
44.2613
 20
-77.8885
 30
0.0
 10
42.7513
 20
-81.0374
 30
0.0
 10
42.7513
 20
-81.0374
 30
0.0
 10
42.7513
 20
-81.0374
 30
0.0
 10
42.7513
 20
-81.0374
 30
0.0
 10
40.8059
 20
-78.582
 30
0.0
 10
40.8059
 20
-78.582
 30
0.0
 10
40.8059
 20
-78.582
 30
0.0
 10
39.2834
 20
-76.66
 30
0.0
 10
38.8
 20
-75.2893
 30
0.0
 10
38.5819
 20
-72.2734
 30
0.0
 10
38.5819
 20
-72.2734
 30
0.0
 10
38.2725
 20
-67.9964
 30
0.0
 10
37.4601
 20
-67.6217
 30
0.0
 10
35.756
 20
-70.9697
 30
0.0
 10
35.756
 20
-70.9697
 30
0.0
 10
34.4545
 20
-73.5266
 30
0.0
 10
33.8507
 20
-73.0656
 30
0.0
 10
33.8507
 20
-69.5155
 30
0.0
 10
33.8507
 20
-69.5155
 30
0.0
 10
33.8507
 20
-65.5692
 30
0.0
 10
34.7243
 20
-63.1366
 30
0.0
 10
37.4006
 20
-59.6306
 30
0.0
 10
37.4006
 20
-59.6306
 30
0.0
 10
41.3265
 20
-54.4875
 30
0.0
 10
40.3624
 20
-51.9299
 30
0.0
 10
35.7557
 20
-55.2672
 30
0.0
 10
35.7557
 20
-55.2672
 30
0.0
 10
32.153
 20
-57.8769
 30
0.0
 10
30.2385
 20
-57.8669
 30
0.0
 10
28.8753
 20
-55.2305
 30
0.0
 10
28.8753
 20
-55.2305
 30
0.0
 10
27.5479
 20
-52.6635
 30
0.0
 10
27.9839
 20
-51.4038
 30
0.0
 10
30.0621
 20
-51.801
 30
0.0
 10
30.0621
 20
-51.801
 30
0.0
 10
31.3011
 20
-52.0378
 30
0.0
 10
32.311
 20
-51.417
 30
0.0
 10
34.6386
 20
-48.9883
 30
0.0
 10
34.6386
 20
-48.9883
 30
0.0
 10
37.1885
 20
-46.3275
 30
0.0
 10
37.8827
 20
-45.936
 30
0.0
 10
39.3843
 20
-46.313
 30
0.0
 10
39.3843
 20
-46.313
 30
0.0
 10
40.6547
 20
-46.6317
 30
0.0
 10
41.2519
 20
-47.2988
 30
0.0
 10
41.535
 20
-48.7147
 30
0.0
 10
41.535
 20
-48.7147
 30
0.0
 10
42.1468
 20
-51.7736
 30
0.0
 10
44.1081
 20
-51.2802
 30
0.0
 10
45.8207
 20
-47.6367
 30
0.0
 10
45.8207
 20
-47.6367
 30
0.0
 10
47.251
 20
-44.5944
 30
0.0
 10
51.2494
 20
-40.1261
 30
0.0
 10
52.5417
 20
-40.1261
 30
0.0
 10
52.5417
 20
-40.1261
 30
0.0
 10
52.9197
 20
-40.1261
 30
0.0
 10
52.3192
 20
-41.0904
 30
0.0
 10
51.2071
 20
-42.2688
 30
0.0
  0
SPLINE
  5
73
330
1F
100
AcDbEntity
  8
layer 1
 62
     7
100
AcDbSpline
210
0.0
220
0.0
230
1.0
 70
    11
 71
     3
 72
    20
 73
    16
 74
     0
 42
0.0000000001
 43
0.0000000001
 12
1.0
 22
0.0
 32
0.0
 13
1.0
 23
0.0
 33
0.0
 40
0.0
 40
0.0
 40
0.0
 40
0.0
 40
0.2
 40
0.2
 40
0.2
 40
0.2
 40
0.4
 40
0.4
 40
0.4
 40
0.4
 40
0.6
 40
0.6
 40
0.6
 40
0.6
 40
1.0
 40
1.0
 40
1.0
 40
1.0
 10
17.6999
 20
-81.9365
 30
0.0
 10
21.395
 20
-86.0749
 30
0.0
 10
20.3689
 20
-84.0536
 30
0.0
 10
15.62
 20
-77.8402
 30
0.0
 10
15.62
 20
-77.8402
 30
0.0
 10
11.0587
 20
-71.872
 30
0.0
 10
7.8076
 20
-65.8403
 30
0.0
 10
7.0194
 20
-61.883
 30
0.0
 10
7.0194
 20
-61.883
 30
0.0
 10
6.7324
 20
-60.4422
 30
0.0
 10
6.3748
 20
-60.2012
 30
0.0
 10
6.3048
 20
-62.1055
 30
0.0
 10
6.3048
 20
-62.1055
 30
0.0
 10
8.3356
 20
-68.9448
 30
0.0
 10
12.927
 20
-76.5021
 30
0.0
 10
17.6999
 20
-81.9365
 30
0.0
  0
SPLINE
  5
74
330
1F
100
AcDbEntity
  8
layer 1
 62
     7
100
AcDbSpline
210
0.0
220
0.0
230
1.0
 70
    11
 71
     3
 72
    24
 73
    20
 74
     0
 42
0.0000000001
 43
0.0000000001
 12
1.0
 22
0.0
 32
0.0
 13
1.0
 23
0.0
 33
0.0
 40
0.0
 40
0.0
 40
0.0
 40
0.0
 40
0.1666666666666667
 40
0.1666666666666667
 40
0.1666666666666667
 40
0.1666666666666667
 40
0.3333333333333333
 40
0.3333333333333333
 40
0.3333333333333333
 40
0.3333333333333333
 40
0.5
 40
0.5
 40
0.5
 40
0.5
 40
0.6666666666666666
 40
0.6666666666666666
 40
0.6666666666666666
 40
0.6666666666666666
 40
1.0
 40
1.0
 40
1.0
 40
1.0
 10
9.0874
 20
-45.7658
 30
0.0
 10
8.278
 20
-51.1631
 30
0.0
 10
10.6485
 20
-61.2236
 30
0.0
 10
12.7297
 20
-61.2236
 30
0.0
 10
12.7297
 20
-61.2236
 30
0.0
 10
13.1202
 20
-61.2236
 30
0.0
 10
12.7698
 20
-59.9628
 30
0.0
 10
11.951
 20
-58.4216
 30
0.0
 10
11.951
 20
-58.4216
 30
0.0
 10
10.7018
 20
-56.0698
 30
0.0
 10
10.4611
 20
-54.5867
 30
0.0
 10
10.4542
 20
-49.1921
 30
0.0
 10
10.4542
 20
-49.1921
 30
0.0
 10
10.4452
 20
-42.3562
 30
0.0
 10
9.8299
 20
-40.8138
 30
0.0
 10
9.0874
 20
-45.7656
 30
0.0
 10
9.0874
 20
-45.7656
 30
0.0
 10
9.0874
 20
-45.7656
 30
0.0
 10
9.0874
 20
-45.7658
 30
0.0
 10
9.0874
 20
-45.7658
 30
0.0
  0
SPLINE
  5
75
330
1F
100
AcDbEntity
  8
layer 1
 62
     7
100
AcDbSpline
210
0.0
220
0.0
230
1.0
 70
    11
 71
     3
 72
   124
 73
   120
 74
     0
 42
0.0000000001
 43
0.0000000001
 12
1.0
 22
0.0
 32
0.0
 13
1.0
 23
0.0
 33
0.0
 40
0.0
 40
0.0
 40
0.0
 40
0.0
 40
0.032258064516129
 40
0.032258064516129
 40
0.032258064516129
 40
0.032258064516129
 40
0.0645161290322581
 40
0.0645161290322581
 40
0.0645161290322581
 40
0.0645161290322581
 40
0.0967741935483871
 40
0.0967741935483871
 40
0.0967741935483871
 40
0.0967741935483871
 40
0.1290322580645161
 40
0.1290322580645161
 40
0.1290322580645161
 40
0.1290322580645161
 40
0.1612903225806452
 40
0.1612903225806452
 40
0.1612903225806452
 40
0.1612903225806452
 40
0.1935483870967742
 40
0.1935483870967742
 40
0.1935483870967742
 40
0.1935483870967742
 40
0.2258064516129032
 40
0.2258064516129032
 40
0.2258064516129032
 40
0.2258064516129032
 40
0.2580645161290323
 40
0.2580645161290323
 40
0.2580645161290323
 40
0.2580645161290323
 40
0.2903225806451613
 40
0.2903225806451613
 40
0.2903225806451613
 40
0.2903225806451613
 40
0.3225806451612903
 40
0.3225806451612903
 40
0.3225806451612903
 40
0.3225806451612903
 40
0.3548387096774194
 40
0.3548387096774194
 40
0.3548387096774194
 40
0.3548387096774194
 40
0.3870967741935484
 40
0.3870967741935484
 40
0.3870967741935484
 40
0.3870967741935484
 40
0.4193548387096774
 40
0.4193548387096774
 40
0.4193548387096774
 40
0.4193548387096774
 40
0.4516129032258064
 40
0.4516129032258064
 40
0.4516129032258064
 40
0.4516129032258064
 40
0.4838709677419355
 40
0.4838709677419355
 40
0.4838709677419355
 40
0.4838709677419355
 40
0.5161290322580645
 40
0.5161290322580645
 40
0.5161290322580645
 40
0.5161290322580645
 40
0.5483870967741935
 40
0.5483870967741935
 40
0.5483870967741935
 40
0.5483870967741935
 40
0.5806451612903226
 40
0.5806451612903226
 40
0.5806451612903226
 40
0.5806451612903226
 40
0.6129032258064516
 40
0.6129032258064516
 40
0.6129032258064516
 40
0.6129032258064516
 40
0.6451612903225806
 40
0.6451612903225806
 40
0.6451612903225806
 40
0.6451612903225806
 40
0.6774193548387096
 40
0.6774193548387096
 40
0.6774193548387096
 40
0.6774193548387096
 40
0.7096774193548387
 40
0.7096774193548387
 40
0.7096774193548387
 40
0.7096774193548387
 40
0.7419354838709677
 40
0.7419354838709677
 40
0.7419354838709677
 40
0.7419354838709677
 40
0.7741935483870968
 40
0.7741935483870968
 40
0.7741935483870968
 40
0.7741935483870968
 40
0.8064516129032258
 40
0.8064516129032258
 40
0.8064516129032258
 40
0.8064516129032258
 40
0.8387096774193549
 40
0.8387096774193549
 40
0.8387096774193549
 40
0.8387096774193549
 40
0.8709677419354839
 40
0.8709677419354839
 40
0.8709677419354839
 40
0.8709677419354839
 40
0.9032258064516129
 40
0.9032258064516129
 40
0.9032258064516129
 40
0.9032258064516129
 40
0.9354838709677419
 40
0.9354838709677419
 40
0.9354838709677419
 40
0.9354838709677419
 40
1.0
 40
1.0
 40
1.0
 40
1.0
 10
17.6757
 20
-44.0816
 30
0.0
 10
20.1643
 20
-44.0816
 30
0.0
 10
20.6116
 20
-44.7357
 30
0.0
 10
19.0238
 20
-46.0534
 30
0.0
 10
19.0238
 20
-46.0534
 30
0.0
 10
18.4011
 20
-46.5702
 30
0.0
 10
17.1958
 20
-46.7095
 30
0.0
 10
15.7274
 20
-46.4339
 30
0.0
 10
15.7274
 20
-46.4339
 30
0.0
 10
12.9288
 20
-45.9088
 30
0.0
 10
12.8802
 20
-46.3626
 30
0.0
 10
15.4174
 20
-49.3309
 30
0.0
 10
15.4174
 20
-49.3309
 30
0.0
 10
17.356
 20
-51.6692
 30
0.0
 10
17.5292
 20
-53.7768
 30
0.0
 10
17.3246
 20
-56.2784
 30
0.0
 10
17.3246
 20
-56.2784
 30
0.0
 10
16.3119
 20
-55.0795
 30
0.0
 10
15.2604
 20
-53.8605
 30
0.0
 10
14.536
 20
-52.4786
 30
0.0
 10
14.536
 20
-52.4786
 30
0.0
 10
14.3098
 20
-51.8618
 30
0.0
 10
14.0399
 20
-51.8481
 30
0.0
 10
13.4277
 20
-52.423
 30
0.0
 10
13.4277
 20
-52.423
 30
0.0
 10
12.7935
 20
-53.0183
 30
0.0
 10
12.9333
 20
-53.6084
 30
0.0
 10
14.073
 20
-55.1501
 30
0.0
 10
14.073
 20
-55.1501
 30
0.0
 10
15.1019
 20
-56.5417
 30
0.0
 10
15.5557
 20
-58.152
 30
0.0
 10
15.624
 20
-60.6538
 30
0.0
 10
15.624
 20
-60.6538
 30
0.0
 10
15.7119
 20
-63.8797
 30
0.0
 10
16.1226
 20
-63.9412
 30
0.0
 10
15.3591
 20
-65.3882
 30
0.0
 10
15.3591
 20
-65.3882
 30
0.0
 10
12.1738
 20
-64.5612
 30
0.0
 10
11.9809
 20
-63.8849
 30
0.0
 10
10.3176
 20
-62.1215
 30
0.0
 10
10.3176
 20
-62.1215
 30
0.0
 10
8.274
 20
-59.9546
 30
0.0
 10
8.0269
 20
-59.8379
 30
0.0
 10
8.4647
 20
-61.2463
 30
0.0
 10
8.4647
 20
-61.2463
 30
0.0
 10
8.7425
 20
-62.1401
 30
0.0
 10
11.3046
 20
-65.3122
 30
0.0
 10
14.158
 20
-68.2952
 30
0.0
 10
14.158
 20
-68.2952
 30
0.0
 10
19.5371
 20
-73.9185
 30
0.0
 10
20.4297
 20
-75.7134
 30
0.0
 10
17.8629
 20
-75.7475
 30
0.0
 10
17.8629
 20
-75.7475
 30
0.0
 10
16.5507
 20
-75.765
 30
0.0
 10
16.7007
 20
-76.0503
 30
0.0
 10
19.1614
 20
-78.2199
 30
0.0
 10
19.1614
 20
-78.2199
 30
0.0
 10
22.697
 20
-80.8384
 30
0.0
 10
25.2913
 20
-88.8003
 30
0.0
 10
22.2365
 20
-94.4781
 30
0.0
 10
22.2365
 20
-94.4781
 30
0.0
 10
19.818
 20
-93.0219
 30
0.0
 10
19.1728
 20
-86.881
 30
0.0
 10
18.0829
 20
-84.5918
 30
0.0
 10
18.0829
 20
-84.5918
 30
0.0
 10
17.6169
 20
-83.613
 30
0.0
 10
16.8517
 20
-83.9604
 30
0.0
 10
16.7024
 20
-83.5186
 30
0.0
 10
16.7024
 20
-83.5186
 30
0.0
 10
16.3234
 20
-85.1131
 30
0.0
 10
14.5702
 20
-85.663
 30
0.0
 10
13.7506
 20
-83.8001
 30
0.0
 10
13.7506
 20
-83.8001
 30
0.0
 10
13.3928
 20
-82.9863
 30
0.0
 10
12.8735
 20
-82.3205
 30
0.0
 10
12.5969
 20
-82.3205
 30
0.0
 10
12.5969
 20
-82.3205
 30
0.0
 10
11.4272
 20
-82.3205
 30
0.0
 10
12.2699
 20
-84.0122
 30
0.0
 10
14.8154
 20
-86.7736
 30
0.0
 10
14.8154
 20
-86.7736
 30
0.0
 10
17.5295
 20
-89.7182
 30
0.0
 10
17.982
 20
-91.165
 30
0.0
 10
17.0271
 20
-94.6907
 30
0.0
 10
17.0271
 20
-94.6907
 30
0.0
 10
15.7167
 20
-98.725
 30
0.0
 10
16.6937
 20
-101.1089
 30
0.0
 10
17.4609
 20
-104.7236
 30
0.0
 10
17.4609
 20
-104.7236
 30
0.0
 10
14.4027
 20
-103.8305
 30
0.0
 10
13.4125
 20
-100.3402
 30
0.0
 10
13.4125
 20
-98.9158
 30
0.0
 10
13.4125
 20
-98.9158
 30
0.0
 10
13.4125
 20
-96.8324
 30
0.0
 10
11.5299
 20
-97.1417
 30
0.0
 10
11.0888
 20
-99.2973
 30
0.0
 10
11.0888
 20
-99.2973
 30
0.0
 10
10.9523
 20
-101.4416
 30
0.0
 10
8.6391
 20
-105.882
 30
0.0
 10
5.2206
 20
-106.654
 30
0.0
 10
5.2206
 20
-106.654
 30
0.0
 10
5.0546
 20
-106.488
 30
0.0
 10
5.8156
 20
-104.5431
 30
0.0
 10
6.9115
 20
-102.3319
 30
0.0
 10
6.9115
 20
-102.3319
 30
0.0
 10
11.0938
 20
-93.8941
 30
0.0
 10
10.5643
 20
-82.323
 30
0.0
 10
5.1132
 20
-63.022
 30
0.0
 10
5.1132
 20
-63.022
 30
0.0
 10
2.6487
 20
-55.9118
 30
0.0
 10
3.1638
 20
-47.002
 30
0.0
 10
8.1191
 20
-41.4639
 30
0.0
 10
8.1191
 20
-41.4639
 30
0.0
 10
10.5957
 20
-38.8126
 30
0.0
 10
12.2901
 20
-38.9021
 30
0.0
 10
13.9843
 20
-41.7734
 30
0.0
 10
13.9843
 20
-41.7734
 30
0.0
 10
14.5525
 20
-43.4778
 30
0.0
 10
16.0625
 20
-44.0816
 30
0.0
 10
17.6757
 20
-44.0816
 30
0.0
  0
SPLINE
  5
76
330
1F
100
AcDbEntity
  8
layer 1
 62
     7
100
AcDbSpline
210
0.0
220
0.0
230
1.0
 70
    11
 71
     3
 72
    36
 73
    32
 74
     0
 42
0.0000000001
 43
0.0000000001
 12
1.0
 22
0.0
 32
0.0
 13
1.0
 23
0.0
 33
0.0
 40
0.0
 40
0.0
 40
0.0
 40
0.0
 40
0.1111111111111111
 40
0.1111111111111111
 40
0.1111111111111111
 40
0.1111111111111111
 40
0.2222222222222222
 40
0.2222222222222222
 40
0.2222222222222222
 40
0.2222222222222222
 40
0.3333333333333333
 40
0.3333333333333333
 40
0.3333333333333333
 40
0.3333333333333333
 40
0.4444444444444444
 40
0.4444444444444444
 40
0.4444444444444444
 40
0.4444444444444444
 40
0.5555555555555556
 40
0.5555555555555556
 40
0.5555555555555556
 40
0.5555555555555556
 40
0.6666666666666666
 40
0.6666666666666666
 40
0.6666666666666666
 40
0.6666666666666666
 40
0.7777777777777778
 40
0.7777777777777778
 40
0.7777777777777778
 40
0.7777777777777778
 40
1.0
 40
1.0
 40
1.0
 40
1.0
 10
67.1453
 20
-33.5332
 30
0.0
 10
67.778
 20
-34.5571
 30
0.0
 10
66.8862
 20
-35.5107
 30
0.0
 10
65.2934
 20
-35.5134
 30
0.0
 10
65.2934
 20
-35.5134
 30
0.0
 10
61.442
 20
-35.5199
 30
0.0
 10
57.5857
 20
-39.9556
 30
0.0
 10
57.5857
 20
-44.3786
 30
0.0
 10
57.5857
 20
-44.3786
 30
0.0
 10
57.5857
 20
-45.6656
 30
0.0
 10
57.2993
 20
-46.7189
 30
0.0
 10
56.9495
 20
-46.7189
 30
0.0
 10
56.9495
 20
-46.7189
 30
0.0
 10
54.5509
 20
-44.5005
 30
0.0
 10
54.9483
 20
-41.9276
 30
0.0
 10
54.9483
 20
-38.8904
 30
0.0
 10
54.9483
 20
-38.8904
 30
0.0
 10
52.3914
 20
-39.3997
 30
0.0
 10
47.1852
 20
-40.2389
 30
0.0
 10
47.0367
 20
-35.3764
 30
0.0
 10
47.0367
 20
-35.3764
 30
0.0
 10
47.0367
 20
-34.2433
 30
0.0
 10
47.186
 20
-34.2633
 30
0.0
 10
49.0561
 20
-35.646
 30
0.0
 10
49.0561
 20
-35.646
 30
0.0
 10
51.4884
 20
-37.5525
 30
0.0
 10
54.1312
 20
-36.0611
 30
0.0
 10
57.1324
 20
-35.0026
 30
0.0
 10
57.1324
 20
-35.0026
 30
0.0
 10
63.3271
 20
-32.818
 30
0.0
 10
66.4224
 20
-32.3635
 30
0.0
 10
67.1453
 20
-33.5332
 30
0.0
  0
SPLINE
  5
77
330
1F
100
AcDbEntity
  8
layer 1
 62
     7
100
AcDbSpline
210
0.0
220
0.0
230
1.0
 70
    11
 71
     3
 72
   120
 73
   116
 74
     0
 42
0.0000000001
 43
0.0000000001
 12
1.0
 22
0.0
 32
0.0
 13
1.0
 23
0.0
 33
0.0
 40
0.0
 40
0.0
 40
0.0
 40
0.0
 40
0.0333333333333333
 40
0.0333333333333333
 40
0.0333333333333333
 40
0.0333333333333333
 40
0.0666666666666667
 40
0.0666666666666667
 40
0.0666666666666667
 40
0.0666666666666667
 40
0.1
 40
0.1
 40
0.1
 40
0.1
 40
0.1333333333333333
 40
0.1333333333333333
 40
0.1333333333333333
 40
0.1333333333333333
 40
0.1666666666666667
 40
0.1666666666666667
 40
0.1666666666666667
 40
0.1666666666666667
 40
0.2
 40
0.2
 40
0.2
 40
0.2
 40
0.2333333333333333
 40
0.2333333333333333
 40
0.2333333333333333
 40
0.2333333333333333
 40
0.2666666666666667
 40
0.2666666666666667
 40
0.2666666666666667
 40
0.2666666666666667
 40
0.3
 40
0.3
 40
0.3
 40
0.3
 40
0.3333333333333333
 40
0.3333333333333333
 40
0.3333333333333333
 40
0.3333333333333333
 40
0.3666666666666666
 40
0.3666666666666666
 40
0.3666666666666666
 40
0.3666666666666666
 40
0.4
 40
0.4
 40
0.4
 40
0.4
 40
0.4333333333333333
 40
0.4333333333333333
 40
0.4333333333333333
 40
0.4333333333333333
 40
0.4666666666666667
 40
0.4666666666666667
 40
0.4666666666666667
 40
0.4666666666666667
 40
0.5
 40
0.5
 40
0.5
 40
0.5
 40
0.5333333333333333
 40
0.5333333333333333
 40
0.5333333333333333
 40
0.5333333333333333
 40
0.5666666666666667
 40
0.5666666666666667
 40
0.5666666666666667
 40
0.5666666666666667
 40
0.6
 40
0.6
 40
0.6
 40
0.6
 40
0.6333333333333333
 40
0.6333333333333333
 40
0.6333333333333333
 40
0.6333333333333333
 40
0.6666666666666666
 40
0.6666666666666666
 40
0.6666666666666666
 40
0.6666666666666666
 40
0.7
 40
0.7
 40
0.7
 40
0.7
 40
0.7333333333333333
 40
0.7333333333333333
 40
0.7333333333333333
 40
0.7333333333333333
 40
0.7666666666666667
 40
0.7666666666666667
 40
0.7666666666666667
 40
0.7666666666666667
 40
0.8
 40
0.8
 40
0.8
 40
0.8
 40
0.8333333333333334
 40
0.8333333333333334
 40
0.8333333333333334
 40
0.8333333333333334
 40
0.8666666666666667
 40
0.8666666666666667
 40
0.8666666666666667
 40
0.8666666666666667
 40
0.9
 40
0.9
 40
0.9
 40
0.9
 40
0.9333333333333333
 40
0.9333333333333333
 40
0.9333333333333333
 40
0.9333333333333333
 40
1.0
 40
1.0
 40
1.0
 40
1.0
 10
33.3608
 20
-26.1902
 30
0.0
 10
34.438
 20
-25.6136
 30
0.0
 10
34.6294
 20
-25.6498
 30
0.0
 10
34.3092
 20
-26.3689
 30
0.0
 10
34.3092
 20
-26.3689
 30
0.0
 10
23.3995
 20
-45.5104
 30
0.0
 10
20.1666
 20
-70.2042
 30
0.0
 10
36.5354
 20
-87.0891
 30
0.0
 10
36.5354
 20
-87.0891
 30
0.0
 10
48.8291
 20
-99.3828
 30
0.0
 10
72.041
 20
-101.9392
 30
0.0
 10
79.6538
 20
-88.0181
 30
0.0
 10
79.6538
 20
-88.0181
 30
0.0
 10
86.3725
 20
-74.9918
 30
0.0
 10
73.0736
 20
-66.9661
 30
0.0
 10
65.5575
 20
-73.6223
 30
0.0
 10
65.5575
 20
-73.6223
 30
0.0
 10
61.1856
 20
-78.0109
 30
0.0
 10
63.7637
 20
-83.162
 30
0.0
 10
66.8398
 20
-84.2404
 30
0.0
 10
66.8398
 20
-84.2404
 30
0.0
 10
69.4704
 20
-85.1629
 30
0.0
 10
72.8905
 20
-83.5726
 30
0.0
 10
72.4823
 20
-79.944
 30
0.0
 10
72.4823
 20
-79.944
 30
0.0
 10
72.0306
 20
-78.7711
 30
0.0
 10
71.9615
 20
-78.7654
 30
0.0
 10
71.3535
 20
-79.8486
 30
0.0
 10
71.3535
 20
-79.8486
 30
0.0
 10
69.9738
 20
-82.3065
 30
0.0
 10
66.8156
 20
-80.7494
 30
0.0
 10
66.8156
 20
-77.6114
 30
0.0
 10
66.8156
 20
-77.6114
 30
0.0
 10
66.8156
 20
-73.9965
 30
0.0
 10
71.2745
 20
-72.8959
 30
0.0
 10
75.3165
 20
-75.3603
 30
0.0
 10
75.3165
 20
-75.3603
 30
0.0
 10
79.1971
 20
-77.7263
 30
0.0
 10
79.4881
 20
-83.2203
 30
0.0
 10
76.5667
 20
-86.7497
 30
0.0
 10
76.5667
 20
-86.7497
 30
0.0
 10
68.4204
 20
-95.8731
 30
0.0
 10
52.7478
 20
-90.697
 30
0.0
 10
53.1741
 20
-75.919
 30
0.0
 10
53.1741
 20
-75.919
 30
0.0
 10
54.0816
 20
-59.0174
 30
0.0
 10
74.8065
 20
-56.8333
 30
0.0
 10
85.4782
 20
-64.2821
 30
0.0
 10
85.4782
 20
-64.2821
 30
0.0
 10
93.5151
 20
-69.8255
 30
0.0
 10
94.2472
 20
-83.7291
 30
0.0
 10
90.3074
 20
-90.8588
 30
0.0
 10
90.3074
 20
-90.8588
 30
0.0
 10
84.8206
 20
-101.2873
 30
0.0
 10
71.3052
 20
-108.0967
 30
0.0
 10
58.022
 20
-107.1252
 30
0.0
 10
58.022
 20
-107.1252
 30
0.0
 10
45.8541
 20
-106.2351
 30
0.0
 10
36.7258
 20
-102.4009
 30
0.0
 10
29.4479
 20
-95.1233
 30
0.0
 10
29.4479
 20
-95.1233
 30
0.0
 10
25.4076
 20
-91.083
 30
0.0
 10
24.6205
 20
-89.942
 30
0.0
 10
24.6175
 20
-88.1217
 30
0.0
 10
24.6175
 20
-88.1217
 30
0.0
 10
24.6115
 20
-84.7151
 30
0.0
 10
23.3424
 20
-80.9824
 30
0.0
 10
21.5961
 20
-79.2359
 30
0.0
 10
21.5961
 20
-79.2359
 30
0.0
 10
20.4332
 20
-78.0729
 30
0.0
 10
20.107
 20
-77.204
 30
0.0
 10
20.3981
 20
-76.0441
 30
0.0
 10
20.3981
 20
-76.0441
 30
0.0
 10
20.6659
 20
-74.9768
 30
0.0
 10
20.2859
 20
-73.6265
 30
0.0
 10
19.2483
 20
-71.9575
 30
0.0
 10
19.2483
 20
-71.9575
 30
0.0
 10
17.9745
 20
-69.9087
 30
0.0
 10
17.6897
 20
-68.5255
 30
0.0
 10
17.6488
 20
-64.1904
 30
0.0
 10
17.6488
 20
-64.1904
 30
0.0
 10
17.6189
 20
-61.0216
 30
0.0
 10
17.9857
 20
-57.906
 30
0.0
 10
18.5676
 20
-56.386
 30
0.0
 10
18.5676
 20
-56.386
 30
0.0
 10
19.4362
 20
-54.1167
 30
0.0
 10
19.4235
 20
-53.6203
 30
0.0
 10
18.4452
 20
-51.5685
 30
0.0
 10
18.4452
 20
-51.5685
 30
0.0
 10
18.4452
 20
-51.5685
 30
0.0
 10
17.3545
 20
-49.281
 30
0.0
 10
17.3545
 20
-49.281
 30
0.0
 10
17.3545
 20
-49.281
 30
0.0
 10
17.3545
 20
-49.281
 30
0.0
 10
19.7243
 20
-47.0461
 30
0.0
 10
19.7243
 20
-47.0461
 30
0.0
 10
19.7243
 20
-47.0461
 30
0.0
 10
22.1822
 20
-44.728
 30
0.0
 10
22.6018
 20
-42.2628
 30
0.0
 10
20.4765
 20
-42.6271
 30
0.0
 10
20.4765
 20
-42.6271
 30
0.0
 10
19.8551
 20
-42.7338
 30
0.0
 10
19.3468
 20
-42.4681
 30
0.0
 10
19.3468
 20
-42.037
 30
0.0
 10
19.3468
 20
-42.037
 30
0.0
 10
19.3468
 20
-40.0752
 30
0.0
 10
24.2778
 20
-31.3032
 30
0.0
 10
27.1155
 20
-28.2171
 30
0.0
 10
27.1155
 20
-28.2171
 30
0.0
 10
29.9104
 20
-25.1776
 30
0.0
 10
30.3552
 20
-24.9162
 30
0.0
 10
31.1349
 20
-25.8558
 30
0.0
 10
31.1349
 20
-25.8558
 30
0.0
 10
31.392
 20
-26.0828
 30
0.0
 10
32.0112
 20
-26.7155
 30
0.0
 10
33.3608
 20
-26.1902
 30
0.0
  0
SPLINE
  5
78
330
1F
100
AcDbEntity
  8
layer 1
 62
     7
100
AcDbSpline
210
0.0
220
0.0
230
1.0
 70
    11
 71
     3
 72
    72
 73
    68
 74
     0
 42
0.0000000001
 43
0.0000000001
 12
1.0
 22
0.0
 32
0.0
 13
1.0
 23
0.0
 33
0.0
 40
0.0
 40
0.0
 40
0.0
 40
0.0
 40
0.0555555555555556
 40
0.0555555555555556
 40
0.0555555555555556
 40
0.0555555555555556
 40
0.1111111111111111
 40
0.1111111111111111
 40
0.1111111111111111
 40
0.1111111111111111
 40
0.1666666666666667
 40
0.1666666666666667
 40
0.1666666666666667
 40
0.1666666666666667
 40
0.2222222222222222
 40
0.2222222222222222
 40
0.2222222222222222
 40
0.2222222222222222
 40
0.2777777777777778
 40
0.2777777777777778
 40
0.2777777777777778
 40
0.2777777777777778
 40
0.3333333333333333
 40
0.3333333333333333
 40
0.3333333333333333
 40
0.3333333333333333
 40
0.3888888888888889
 40
0.3888888888888889
 40
0.3888888888888889
 40
0.3888888888888889
 40
0.4444444444444444
 40
0.4444444444444444
 40
0.4444444444444444
 40
0.4444444444444444
 40
0.5
 40
0.5
 40
0.5
 40
0.5
 40
0.5555555555555556
 40
0.5555555555555556
 40
0.5555555555555556
 40
0.5555555555555556
 40
0.6111111111111112
 40
0.6111111111111112
 40
0.6111111111111112
 40
0.6111111111111112
 40
0.6666666666666666
 40
0.6666666666666666
 40
0.6666666666666666
 40
0.6666666666666666
 40
0.7222222222222222
 40
0.7222222222222222
 40
0.7222222222222222
 40
0.7222222222222222
 40
0.7777777777777778
 40
0.7777777777777778
 40
0.7777777777777778
 40
0.7777777777777778
 40
0.8333333333333334
 40
0.8333333333333334
 40
0.8333333333333334
 40
0.8333333333333334
 40
0.8888888888888888
 40
0.8888888888888888
 40
0.8888888888888888
 40
0.8888888888888888
 40
1.0
 40
1.0
 40
1.0
 40
1.0
 10
66.088
 20
-25.653
 30
0.0
 10
67.236
 20
-29.4849
 30
0.0
 10
69.9788
 20
-31.0702
 30
0.0
 10
74.7853
 20
-30.68
 30
0.0
 10
74.7853
 20
-30.68
 30
0.0
 10
78.8796
 20
-30.3476
 30
0.0
 10
81.8536
 20
-29.0474
 30
0.0
 10
85.2118
 20
-26.1212
 30
0.0
 10
85.2118
 20
-26.1212
 30
0.0
 10
87.1318
 20
-24.4484
 30
0.0
 10
87.5385
 20
-24.3154
 30
0.0
 10
88.0329
 20
-25.1992
 30
0.0
 10
88.0329
 20
-25.1992
 30
0.0
 10
88.8925
 20
-26.7352
 30
0.0
 10
87.1772
 20
-30.2479
 30
0.0
 10
84.3594
 20
-32.7218
 30
0.0
 10
84.3594
 20
-32.7218
 30
0.0
 10
83.0218
 20
-33.8962
 30
0.0
 10
78.8305
 20
-36.9348
 30
0.0
 10
75.0452
 20
-39.4744
 30
0.0
 10
75.0452
 20
-39.4744
 30
0.0
 10
68.0175
 20
-44.1895
 30
0.0
 10
65.9114
 20
-46.628
 30
0.0
 10
66.5984
 20
-49.2549
 30
0.0
 10
66.5984
 20
-49.2549
 30
0.0
 10
67.1152
 20
-51.2312
 30
0.0
 10
65.8737
 20
-51.0365
 30
0.0
 10
64.9438
 20
-48.9952
 30
0.0
 10
64.9438
 20
-48.9952
 30
0.0
 10
63.8152
 20
-46.5184
 30
0.0
 10
64.0046
 20
-44.9545
 30
0.0
 10
65.6141
 20
-43.4549
 30
0.0
 10
65.6141
 20
-43.4549
 30
0.0
 10
66.4035
 20
-42.7193
 30
0.0
 10
66.8912
 20
-41.959
 30
0.0
 10
66.6973
 20
-41.7654
 30
0.0
 10
66.6973
 20
-41.7654
 30
0.0
 10
66.0317
 20
-41.0999
 30
0.0
 10
64.0677
 20
-42.2885
 30
0.0
 10
63.5352
 20
-43.6787
 30
0.0
 10
63.5352
 20
-43.6787
 30
0.0
 10
63.0198
 20
-45.0238
 30
0.0
 10
62.9874
 20
-45.0143
 30
0.0
 10
62.5648
 20
-43.3963
 30
0.0
 10
62.5648
 20
-43.3963
 30
0.0
 10
61.4532
 20
-39.1405
 30
0.0
 10
64.9209
 20
-36.2306
 30
0.0
 10
71.7026
 20
-35.728
 30
0.0
 10
71.7026
 20
-35.728
 30
0.0
 10
76.9509
 20
-35.339
 30
0.0
 10
78.6832
 20
-34.9625
 30
0.0
 10
78.6832
 20
-34.2104
 30
0.0
 10
78.6832
 20
-34.2104
 30
0.0
 10
78.6832
 20
-33.8613
 30
0.0
 10
77.2948
 20
-33.7592
 30
0.0
 10
75.4775
 20
-33.9745
 30
0.0
 10
75.4775
 20
-33.9745
 30
0.0
 10
68.3524
 20
-34.8185
 30
0.0
 10
62.423
 20
-30.0787
 30
0.0
 10
63.7901
 20
-24.6321
 30
0.0
 10
63.7901
 20
-24.6321
 30
0.0
 10
64.3876
 20
-22.2516
 30
0.0
 10
65.1738
 20
-22.6008
 30
0.0
 10
66.088
 20
-25.6525
 30
0.0
 10
66.088
 20
-25.6525
 30
0.0
 10
66.088
 20
-25.6525
 30
0.0
 10
66.088
 20
-25.653
 30
0.0
 10
66.088
 20
-25.653
 30
0.0
  0
SPLINE
  5
79
330
1F
100
AcDbEntity
  8
layer 1
 62
     7
100
AcDbSpline
210
0.0
220
0.0
230
1.0
 70
    11
 71
     3
 72
    32
 73
    28
 74
     0
 42
0.0000000001
 43
0.0000000001
 12
1.0
 22
0.0
 32
0.0
 13
1.0
 23
0.0
 33
0.0
 40
0.0
 40
0.0
 40
0.0
 40
0.0
 40
0.125
 40
0.125
 40
0.125
 40
0.125
 40
0.25
 40
0.25
 40
0.25
 40
0.25
 40
0.375
 40
0.375
 40
0.375
 40
0.375
 40
0.5
 40
0.5
 40
0.5
 40
0.5
 40
0.625
 40
0.625
 40
0.625
 40
0.625
 40
0.75
 40
0.75
 40
0.75
 40
0.75
 40
1.0
 40
1.0
 40
1.0
 40
1.0
 10
20.6649
 20
-23.7737
 30
0.0
 10
20.6649
 20
-24.6827
 30
0.0
 10
19.9241
 20
-26.4347
 30
0.0
 10
19.0186
 20
-27.6669
 30
0.0
 10
19.0186
 20
-27.6669
 30
0.0
 10
17.4839
 20
-29.7551
 30
0.0
 10
14.8769
 20
-32.888
 30
0.0
 10
13.6083
 20
-39.2694
 30
0.0
 10
13.6083
 20
-39.2694
 30
0.0
 10
12.7267
 20
-38.0945
 30
0.0
 10
11.4217
 20
-38.3322
 30
0.0
 10
10.0271
 20
-38.2744
 30
0.0
 10
10.0271
 20
-38.2744
 30
0.0
 10
10.563
 20
-33.6358
 30
0.0
 10
15.1961
 20
-27.5082
 30
0.0
 10
16.5778
 20
-25.9515
 30
0.0
 10
16.5778
 20
-25.9515
 30
0.0
 10
17.2215
 20
-25.2264
 30
0.0
 10
18.4046
 20
-24.0677
 30
0.0
 10
19.2067
 20
-23.377
 30
0.0
 10
19.2067
 20
-23.377
 30
0.0
 10
20.658
 20
-22.1273
 30
0.0
 10
20.6652
 20
-22.1293
 30
0.0
 10
20.6652
 20
-23.7739
 30
0.0
 10
20.6652
 20
-23.7739
 30
0.0
 10
20.6652
 20
-23.7739
 30
0.0
 10
20.6649
 20
-23.7737
 30
0.0
 10
20.6649
 20
-23.7737
 30
0.0
  0
SPLINE
  5
7A
330
1F
100
AcDbEntity
  8
layer 1
 62
     7
100
AcDbSpline
210
0.0
220
0.0
230
1.0
 70
    11
 71
     3
 72
   192
 73
   188
 74
     0
 42
0.0000000001
 43
0.0000000001
 12
1.0
 22
0.0
 32
0.0
 13
1.0
 23
0.0
 33
0.0
 40
0.0
 40
0.0
 40
0.0
 40
0.0
 40
0.0208333333333333
 40
0.0208333333333333
 40
0.0208333333333333
 40
0.0208333333333333
 40
0.0416666666666667
 40
0.0416666666666667
 40
0.0416666666666667
 40
0.0416666666666667
 40
0.0625
 40
0.0625
 40
0.0625
 40
0.0625
 40
0.0833333333333333
 40
0.0833333333333333
 40
0.0833333333333333
 40
0.0833333333333333
 40
0.1041666666666667
 40
0.1041666666666667
 40
0.1041666666666667
 40
0.1041666666666667
 40
0.125
 40
0.125
 40
0.125
 40
0.125
 40
0.1458333333333333
 40
0.1458333333333333
 40
0.1458333333333333
 40
0.1458333333333333
 40
0.1666666666666667
 40
0.1666666666666667
 40
0.1666666666666667
 40
0.1666666666666667
 40
0.1875
 40
0.1875
 40
0.1875
 40
0.1875
 40
0.2083333333333333
 40
0.2083333333333333
 40
0.2083333333333333
 40
0.2083333333333333
 40
0.2291666666666667
 40
0.2291666666666667
 40
0.2291666666666667
 40
0.2291666666666667
 40
0.25
 40
0.25
 40
0.25
 40
0.25
 40
0.2708333333333333
 40
0.2708333333333333
 40
0.2708333333333333
 40
0.2708333333333333
 40
0.2916666666666667
 40
0.2916666666666667
 40
0.2916666666666667
 40
0.2916666666666667
 40
0.3125
 40
0.3125
 40
0.3125
 40
0.3125
 40
0.3333333333333333
 40
0.3333333333333333
 40
0.3333333333333333
 40
0.3333333333333333
 40
0.3541666666666667
 40
0.3541666666666667
 40
0.3541666666666667
 40
0.3541666666666667
 40
0.375
 40
0.375
 40
0.375
 40
0.375
 40
0.3958333333333333
 40
0.3958333333333333
 40
0.3958333333333333
 40
0.3958333333333333
 40
0.4166666666666667
 40
0.4166666666666667
 40
0.4166666666666667
 40
0.4166666666666667
 40
0.4375
 40
0.4375
 40
0.4375
 40
0.4375
 40
0.4583333333333333
 40
0.4583333333333333
 40
0.4583333333333333
 40
0.4583333333333333
 40
0.4791666666666667
 40
0.4791666666666667
 40
0.4791666666666667
 40
0.4791666666666667
 40
0.5
 40
0.5
 40
0.5
 40
0.5
 40
0.5208333333333334
 40
0.5208333333333334
 40
0.5208333333333334
 40
0.5208333333333334
 40
0.5416666666666666
 40
0.5416666666666666
 40
0.5416666666666666
 40
0.5416666666666666
 40
0.5625
 40
0.5625
 40
0.5625
 40
0.5625
 40
0.5833333333333334
 40
0.5833333333333334
 40
0.5833333333333334
 40
0.5833333333333334
 40
0.6041666666666666
 40
0.6041666666666666
 40
0.6041666666666666
 40
0.6041666666666666
 40
0.625
 40
0.625
 40
0.625
 40
0.625
 40
0.6458333333333334
 40
0.6458333333333334
 40
0.6458333333333334
 40
0.6458333333333334
 40
0.6666666666666666
 40
0.6666666666666666
 40
0.6666666666666666
 40
0.6666666666666666
 40
0.6875
 40
0.6875
 40
0.6875
 40
0.6875
 40
0.7083333333333334
 40
0.7083333333333334
 40
0.7083333333333334
 40
0.7083333333333334
 40
0.7291666666666666
 40
0.7291666666666666
 40
0.7291666666666666
 40
0.7291666666666666
 40
0.75
 40
0.75
 40
0.75
 40
0.75
 40
0.7708333333333334
 40
0.7708333333333334
 40
0.7708333333333334
 40
0.7708333333333334
 40
0.7916666666666666
 40
0.7916666666666666
 40
0.7916666666666666
 40
0.7916666666666666
 40
0.8125
 40
0.8125
 40
0.8125
 40
0.8125
 40
0.8333333333333334
 40
0.8333333333333334
 40
0.8333333333333334
 40
0.8333333333333334
 40
0.8541666666666666
 40
0.8541666666666666
 40
0.8541666666666666
 40
0.8541666666666666
 40
0.875
 40
0.875
 40
0.875
 40
0.875
 40
0.8958333333333334
 40
0.8958333333333334
 40
0.8958333333333334
 40
0.8958333333333334
 40
0.9166666666666666
 40
0.9166666666666666
 40
0.9166666666666666
 40
0.9166666666666666
 40
0.9375
 40
0.9375
 40
0.9375
 40
0.9375
 40
0.9583333333333334
 40
0.9583333333333334
 40
0.9583333333333334
 40
0.9583333333333334
 40
1.0
 40
1.0
 40
1.0
 40
1.0
 10
16.0291
 20
7.1146
 30
0.0
 10
19.4115
 20
6.2417
 30
0.0
 10
21.9834
 20
3.1439
 30
0.0
 10
21.9834
 20
-0.0571
 30
0.0
 10
21.9834
 20
-0.0571
 30
0.0
 10
21.9834
 20
-4.1206
 30
0.0
 10
15.7154
 20
-7.6283
 30
0.0
 10
13.4125
 20
-4.8537
 30
0.0
 10
13.4125
 20
-4.8537
 30
0.0
 10
12.71
 20
-4.0072
 30
0.0
 10
12.9191
 20
-3.8647
 30
0.0
 10
14.8649
 20
-3.8647
 30
0.0
 10
14.8649
 20
-3.8647
 30
0.0
 10
17.2479
 20
-3.8647
 30
0.0
 10
20.0053
 20
-1.7102
 30
0.0
 10
20.0053
 20
0.1517
 30
0.0
 10
20.0053
 20
0.1517
 30
0.0
 10
20.0053
 20
1.5904
 30
0.0
 10
18.0929
 20
4.0469
 30
0.0
 10
16.9725
 20
4.0469
 30
0.0
 10
16.9725
 20
4.0469
 30
0.0
 10
16.2472
 20
4.0469
 30
0.0
 10
16.0428
 20
3.4137
 30
0.0
 10
16.1859
 20
1.6109
 30
0.0
 10
16.1859
 20
1.6109
 30
0.0
 10
16.372
 20
-0.7352
 30
0.0
 10
16.2698
 20
-0.8638
 30
0.0
 10
13.4154
 20
-1.8705
 30
0.0
 10
13.4154
 20
-1.8705
 30
0.0
 10
10.9827
 20
-2.7286
 30
0.0
 10
10.4763
 20
-2.9093
 30
0.0
 10
10.181
 20
-4.5165
 30
0.0
 10
10.181
 20
-4.5165
 30
0.0
 10
9.8285
 20
-6.4335
 30
0.0
 10
9.7151
 20
-6.8015
 30
0.0
 10
8.9349
 20
-5.3914
 30
0.0
 10
8.9349
 20
-5.3914
 30
0.0
 10
7.6631
 20
-3.0927
 30
0.0
 10
7.9396
 20
1.2112
 30
0.0
 10
9.4567
 20
2.7282
 30
0.0
 10
9.4567
 20
2.7282
 30
0.0
 10
10.1818
 20
3.4533
 30
0.0
 10
11.2027
 20
4.0469
 30
0.0
 10
11.7252
 20
4.0469
 30
0.0
 10
11.7252
 20
4.0469
 30
0.0
 10
12.2478
 20
4.0469
 30
0.0
 10
12.8585
 20
4.3437
 30
0.0
 10
13.0828
 20
4.7062
 30
0.0
 10
13.0828
 20
4.7062
 30
0.0
 10
13.9798
 20
6.1577
 30
0.0
 10
9.976
 20
5.2823
 30
0.0
 10
8.5168
 20
3.708
 30
0.0
 10
8.5168
 20
3.708
 30
0.0
 10
5.1475
 20
0.0727
 30
0.0
 10
5.8517
 20
-5.2935
 30
0.0
 10
10.265
 20
-9.6143
 30
0.0
 10
10.265
 20
-9.6143
 30
0.0
 10
13.7232
 20
-12.9997
 30
0.0
 10
16.9648
 20
-14.4133
 30
0.0
 10
21.2707
 20
-14.4133
 30
0.0
 10
21.2707
 20
-14.4133
 30
0.0
 10
28.8556
 20
-14.4133
 30
0.0
 10
35.9154
 20
-11.8046
 30
0.0
 10
49.637
 20
-3.9319
 30
0.0
 10
49.637
 20
-3.9319
 30
0.0
 10
49.637
 20
-3.9319
 30
0.0
 10
58.8749
 20
1.3682
 30
0.0
 10
58.8749
 20
1.3682
 30
0.0
 10
58.8749
 20
1.3682
 30
0.0
 10
58.8749
 20
1.3682
 30
0.0
 10
61.6389
 20
0.1943
 30
0.0
 10
61.6389
 20
0.1943
 30
0.0
 10
61.6389
 20
0.1943
 30
0.0
 10
61.6389
 20
0.1943
 30
0.0
 10
63.4205
 20
-0.9796
 30
0.0
 10
63.4205
 20
-0.9796
 30
0.0
 10
63.4205
 20
-0.9796
 30
0.0
 10
54.2802
 20
-8.5207
 30
0.0
 10
44.6832
 20
-14.364
 30
0.0
 10
43.7637
 20
-31.3276
 30
0.0
 10
43.7637
 20
-31.3276
 30
0.0
 10
43.8883
 20
-33.592
 30
0.0
 10
43.9499
 20
-36.1885
 30
0.0
 10
45.4836
 20
-38.6962
 30
0.0
 10
45.4836
 20
-38.6962
 30
0.0
 10
46.7736
 20
-40.3366
 30
0.0
 10
47.1307
 20
-40.7854
 30
0.0
 10
45.7333
 20
-40.7854
 30
0.0
 10
45.7333
 20
-40.7854
 30
0.0
 10
40.714
 20
-40.151
 30
0.0
 10
40.476
 20
-38.0529
 30
0.0
 10
40.1346
 20
-35.6604
 30
0.0
 10
40.1346
 20
-35.6604
 30
0.0
 10
39.4765
 20
-30.8764
 30
0.0
 10
38.8366
 20
-30.2542
 30
0.0
 10
37.2526
 20
-32.8589
 30
0.0
 10
37.2526
 20
-32.8589
 30
0.0
 10
37.2526
 20
-32.8589
 30
0.0
 10
35.9242
 20
-35.0432
 30
0.0
 10
35.9242
 20
-35.0432
 30
0.0
 10
35.9242
 20
-35.0432
 30
0.0
 10
33.9678
 20
-30.2218
 30
0.0
 10
36.6373
 20
-25.2062
 30
0.0
 10
39.8485
 20
-22.9386
 30
0.0
 10
39.8485
 20
-22.9386
 30
0.0
 10
40.9096
 20
-22.1831
 30
0.0
 10
41.5923
 20
-21.2651
 30
0.0
 10
41.3658
 20
-20.8988
 30
0.0
 10
41.3658
 20
-20.8988
 30
0.0
 10
41.093
 20
-20.4573
 30
0.0
 10
40.7122
 20
-20.4742
 30
0.0
 10
40.2373
 20
-20.9492
 30
0.0
 10
40.2373
 20
-20.9492
 30
0.0
 10
39.166
 20
-22.0202
 30
0.0
 10
38.4656
 20
-21.8173
 30
0.0
 10
38.4656
 20
-20.4356
 30
0.0
 10
38.4656
 20
-20.4356
 30
0.0
 10
38.4656
 20
-19.7536
 30
0.0
 10
40.7424
 20
-17.0669
 30
0.0
 10
43.5751
 20
-14.4061
 30
0.0
 10
43.5751
 20
-14.4061
 30
0.0
 10
46.8184
 20
-11.3596
 30
0.0
 10
48.3589
 20
-9.493
 30
0.0
 10
47.793
 20
-9.2956
 30
0.0
 10
47.793
 20
-9.2956
 30
0.0
 10
46.3186
 20
-8.7811
 30
0.0
 10
41.7516
 20
-11.8737
 30
0.0
 10
39.5109
 20
-15.3685
 30
0.0
 10
39.5109
 20
-15.3685
 30
0.0
 10
34.4218
 20
-23.3054
 30
0.0
 10
31.2076
 20
-26.7419
 30
0.0
 10
31.8949
 20
-23.8818
 30
0.0
 10
31.8949
 20
-23.8818
 30
0.0
 10
32.7585
 20
-20.2873
 30
0.0
 10
31.8896
 20
-21.6327
 30
0.0
 10
28.5022
 20
-23.9628
 30
0.0
 10
28.5022
 20
-23.9628
 30
0.0
 10
26.6488
 20
-25.2374
 30
0.0
 10
24.4423
 20
-26.2807
 30
0.0
 10
23.5993
 20
-26.2807
 30
0.0
 10
23.5993
 20
-26.2807
 30
0.0
 10
22.2009
 20
-26.2807
 30
0.0
 10
22.0995
 20
-26.0639
 30
0.0
 10
22.4419
 20
-23.8083
 30
0.0
 10
22.4419
 20
-23.8083
 30
0.0
 10
22.6484
 20
-22.4485
 30
0.0
 10
23.4219
 20
-20.6696
 30
0.0
 10
24.1612
 20
-19.855
 30
0.0
 10
24.1612
 20
-19.855
 30
0.0
 10
26.3535
 20
-17.4392
 30
0.0
 10
25.0488
 20
-17.4775
 30
0.0
 10
20.0898
 20
-19.9749
 30
0.0
 10
20.0898
 20
-19.9749
 30
0.0
 10
15.9128
 20
-22.0785
 30
0.0
 10
11.4349
 20
-23.0652
 30
0.0
 10
11.4349
 20
-21.8821
 30
0.0
 10
11.4349
 20
-21.8821
 30
0.0
 10
11.4349
 20
-21.6387
 30
0.0
 10
13.0494
 20
-20.224
 30
0.0
 10
13.6036
 20
-19.6116
 30
0.0
 10
13.6036
 20
-19.6116
 30
0.0
 10
14.5325
 20
-18.5852
 30
0.0
 10
13.2126
 20
-19.18
 30
0.0
 10
10.4103
 20
-18.796
 30
0.0
 10
10.4103
 20
-18.796
 30
0.0
 10
7.077
 20
-18.339
 30
0.0
 10
3.5234
 20
-16.5508
 30
0.0
 10
3.5234
 20
-15.3306
 30
0.0
 10
3.5234
 20
-15.3306
 30
0.0
 10
3.5234
 20
-14.3154
 30
0.0
 10
5.0688
 20
-13.754
 30
0.0
 10
7.8626
 20
-13.754
 30
0.0
 10
7.8626
 20
-13.754
 30
0.0
 10
10.6423
 20
-13.754
 30
0.0
 10
10.6809
 20
-13.219
 30
0.0
 10
8.0794
 20
-10.7456
 30
0.0
 10
8.0794
 20
-10.7456
 30
0.0
 10
5.2348
 20
-8.0412
 30
0.0
 10
4.1707
 20
-5.7166
 30
0.0
 10
4.0875
 20
-2.0249
 30
0.0
 10
4.0875
 20
-2.0249
 30
0.0
 10
3.9231
 20
5.2701
 30
0.0
 10
8.7781
 20
8.9862
 30
0.0
 10
16.0291
 20
7.1151
 30
0.0
 10
16.0291
 20
7.1151
 30
0.0
 10
16.0291
 20
7.1151
 30
0.0
 10
16.0291
 20
7.1146
 30
0.0
 10
16.0291
 20
7.1146
 30
0.0
  0
SPLINE
  5
7B
330
1F
100
AcDbEntity
  8
layer 1
 62
     7
100
AcDbSpline
210
0.0
220
0.0
230
1.0
 70
    11
 71
     3
 72
   108
 73
   104
 74
     0
 42
0.0000000001
 43
0.0000000001
 12
1.0
 22
0.0
 32
0.0
 13
1.0
 23
0.0
 33
0.0
 40
0.0
 40
0.0
 40
0.0
 40
0.0
 40
0.037037037037037
 40
0.037037037037037
 40
0.037037037037037
 40
0.037037037037037
 40
0.0740740740740741
 40
0.0740740740740741
 40
0.0740740740740741
 40
0.0740740740740741
 40
0.1111111111111111
 40
0.1111111111111111
 40
0.1111111111111111
 40
0.1111111111111111
 40
0.1481481481481481
 40
0.1481481481481481
 40
0.1481481481481481
 40
0.1481481481481481
 40
0.1851851851851852
 40
0.1851851851851852
 40
0.1851851851851852
 40
0.1851851851851852
 40
0.2222222222222222
 40
0.2222222222222222
 40
0.2222222222222222
 40
0.2222222222222222
 40
0.2592592592592592
 40
0.2592592592592592
 40
0.2592592592592592
 40
0.2592592592592592
 40
0.2962962962962963
 40
0.2962962962962963
 40
0.2962962962962963
 40
0.2962962962962963
 40
0.3333333333333333
 40
0.3333333333333333
 40
0.3333333333333333
 40
0.3333333333333333
 40
0.3703703703703703
 40
0.3703703703703703
 40
0.3703703703703703
 40
0.3703703703703703
 40
0.4074074074074074
 40
0.4074074074074074
 40
0.4074074074074074
 40
0.4074074074074074
 40
0.4444444444444444
 40
0.4444444444444444
 40
0.4444444444444444
 40
0.4444444444444444
 40
0.4814814814814815
 40
0.4814814814814815
 40
0.4814814814814815
 40
0.4814814814814815
 40
0.5185185185185185
 40
0.5185185185185185
 40
0.5185185185185185
 40
0.5185185185185185
 40
0.5555555555555556
 40
0.5555555555555556
 40
0.5555555555555556
 40
0.5555555555555556
 40
0.5925925925925926
 40
0.5925925925925926
 40
0.5925925925925926
 40
0.5925925925925926
 40
0.6296296296296297
 40
0.6296296296296297
 40
0.6296296296296297
 40
0.6296296296296297
 40
0.6666666666666666
 40
0.6666666666666666
 40
0.6666666666666666
 40
0.6666666666666666
 40
0.7037037037037037
 40
0.7037037037037037
 40
0.7037037037037037
 40
0.7037037037037037
 40
0.7407407407407407
 40
0.7407407407407407
 40
0.7407407407407407
 40
0.7407407407407407
 40
0.7777777777777778
 40
0.7777777777777778
 40
0.7777777777777778
 40
0.7777777777777778
 40
0.8148148148148148
 40
0.8148148148148148
 40
0.8148148148148148
 40
0.8148148148148148
 40
0.8518518518518519
 40
0.8518518518518519
 40
0.8518518518518519
 40
0.8518518518518519
 40
0.8888888888888888
 40
0.8888888888888888
 40
0.8888888888888888
 40
0.8888888888888888
 40
0.9259259259259259
 40
0.9259259259259259
 40
0.9259259259259259
 40
0.9259259259259259
 40
1.0
 40
1.0
 40
1.0
 40
1.0
 10
49.7533
 20
8.7343
 30
0.0
 10
49.7304
 20
7.6102
 30
0.0
 10
48.5017
 20
6.0187
 30
0.0
 10
46.2109
 20
5.0616
 30
0.0
 10
46.2109
 20
5.0616
 30
0.0
 10
43.059
 20
3.7446
 30
0.0
 10
41.6462
 20
3.7905
 30
0.0
 10
36.5942
 20
5.374
 30
0.0
 10
36.5942
 20
5.374
 30
0.0
 10
31.9741
 20
6.8223
 30
0.0
 10
29.8952
 20
7.0241
 30
0.0
 10
29.8952
 20
6.0249
 30
0.0
 10
29.8952
 20
6.0249
 30
0.0
 10
29.8952
 20
5.6624
 30
0.0
 10
30.3549
 20
5.3656
 30
0.0
 10
30.9168
 20
5.3656
 30
0.0
 10
30.9168
 20
5.3656
 30
0.0
 10
32.8767
 20
5.3656
 30
0.0
 10
35.8128
 20
3.3514
 30
0.0
 10
36.2204
 20
1.7275
 30
0.0
 10
36.2204
 20
1.7275
 30
0.0
 10
36.6911
 20
-0.1481
 30
0.0
 10
36.0797
 20
-3.2053
 30
0.0
 10
35.2339
 20
-3.2053
 30
0.0
 10
35.2339
 20
-3.2053
 30
0.0
 10
34.9205
 20
-3.2053
 30
0.0
 10
34.5088
 20
-2.612
 30
0.0
 10
34.3192
 20
-1.8867
 30
0.0
 10
34.3192
 20
-1.8867
 30
0.0
 10
34.1295
 20
-1.1615
 30
0.0
 10
33.6182
 20
-0.568
 30
0.0
 10
33.1829
 20
-0.568
 30
0.0
 10
33.1829
 20
-0.568
 30
0.0
 10
32.6756
 20
-0.568
 30
0.0
 10
32.5734
 20
-0.9821
 30
0.0
 10
32.8983
 20
-1.7217
 30
0.0
 10
32.8983
 20
-1.7217
 30
0.0
 10
35.0291
 20
-6.5715
 30
0.0
 10
33.1126
 20
-10.4573
 30
0.0
 10
28.59
 20
-10.4573
 30
0.0
 10
28.59
 20
-10.4573
 30
0.0
 10
25.3914
 20
-10.4573
 30
0.0
 10
24.469
 20
-9.268
 30
0.0
 10
27.2379
 20
-8.7143
 30
0.0
 10
27.2379
 20
-8.7143
 30
0.0
 10
31.3168
 20
-7.8984
 30
0.0
 10
31.4267
 20
-3.9128
 30
0.0
 10
27.497
 20
0.6779
 30
0.0
 10
27.497
 20
0.6779
 30
0.0
 10
25.9008
 20
3.4962
 30
0.0
 10
18.8369
 20
5.7386
 30
0.0
 10
19.1828
 20
8.7343
 30
0.0
 10
19.1828
 20
8.7343
 30
0.0
 10
18.8369
 20
11.73
 30
0.0
 10
25.9008
 20
13.9684
 30
0.0
 10
27.497
 20
16.7866
 30
0.0
 10
27.497
 20
16.7866
 30
0.0
 10
31.4267
 20
21.3773
 30
0.0
 10
31.3168
 20
25.363
 30
0.0
 10
27.2379
 20
26.1788
 30
0.0
 10
27.2379
 20
26.1788
 30
0.0
 10
24.469
 20
26.7325
 30
0.0
 10
25.3914
 20
27.9219
 30
0.0
 10
28.59
 20
27.9219
 30
0.0
 10
28.59
 20
27.9219
 30
0.0
 10
33.1126
 20
27.9219
 30
0.0
 10
35.0291
 20
24.0361
 30
0.0
 10
32.8983
 20
19.1863
 30
0.0
 10
32.8983
 20
19.1863
 30
0.0
 10
32.5734
 20
18.4467
 30
0.0
 10
32.6756
 20
18.0326
 30
0.0
 10
33.1829
 20
18.0326
 30
0.0
 10
33.1829
 20
18.0326
 30
0.0
 10
33.6182
 20
18.0326
 30
0.0
 10
34.1295
 20
18.6261
 30
0.0
 10
34.3192
 20
19.3512
 30
0.0
 10
34.3192
 20
19.3512
 30
0.0
 10
34.5088
 20
20.0766
 30
0.0
 10
34.9205
 20
20.6699
 30
0.0
 10
35.2339
 20
20.6699
 30
0.0
 10
35.2339
 20
20.6699
 30
0.0
 10
36.0797
 20
20.6699
 30
0.0
 10
36.6911
 20
17.6127
 30
0.0
 10
36.2204
 20
15.7371
 30
0.0
 10
36.2204
 20
15.7371
 30
0.0
 10
35.8128
 20
14.1132
 30
0.0
 10
32.8767
 20
12.099
 30
0.0
 10
30.9168
 20
12.099
 30
0.0
 10
30.9168
 20
12.099
 30
0.0
 10
30.3549
 20
12.099
 30
0.0
 10
29.8952
 20
11.8022
 30
0.0
 10
29.8952
 20
11.4397
 30
0.0
 10
29.8952
 20
11.4397
 30
0.0
 10
29.8952
 20
10.4404
 30
0.0
 10
31.9741
 20
10.6423
 30
0.0
 10
36.5942
 20
12.0905
 30
0.0
 10
36.5942
 20
12.0905
 30
0.0
 10
41.6462
 20
13.6741
 30
0.0
 10
43.059
 20
13.7199
 30
0.0
 10
46.2109
 20
12.403
 30
0.0
 10
46.2109
 20
12.403
 30
0.0
 10
48.5017
 20
11.4459
 30
0.0
 10
49.7304
 20
9.8583
 30
0.0
 10
49.7533
 20
8.7343
 30
0.0
  0
ENDSEC
  0
SECTION
  2
OBJECTS
  0
DICTIONARY
  5
C
330
0
100
AcDbDictionary
281
     1
  3
ACAD_GROUP
350
D
  3
ACAD_LAYOUT
350
1A
  3
ACAD_MATERIAL
350
3B
  3
ACAD_MLEADERSTYLE
350
9D
  3
ACAD_MLINESTYLE
350
17
  3
ACAD_PLOTSETTINGS
350
19
  3
ACAD_PLOTSTYLENAME
350
E
  3
ACAD_TABLESTYLE
350
9C
  3
ACAD_VISUALSTYLE
350
2A
  0
DICTIONARY
  5
D
102
{ACAD_REACTORS
330
C
102
}
330
C
100
AcDbDictionary
281
     1
  0
DICTIONARY
  5
1A
102
{ACAD_REACTORS
330
C
102
}
330
C
100
AcDbDictionary
281
     1
  3
Layout1
350
1E
  3
Layout2
350
26
  3
Model
350
22
  0
DICTIONARY
  5
3B
102
{ACAD_REACTORS
330
C
102
}
330
C
100
AcDbDictionary
281
     1
  3
ByBlock
350
3D
  3
ByLayer
350
3C
  3
Global
350
3E
  0
DICTIONARY
  5
9D
102
{ACAD_REACTORS
330
C
102
}
330
C
100
AcDbDictionary
281
     1
  0
DICTIONARY
  5
17
102
{ACAD_REACTORS
330
C
102
}
330
C
100
AcDbDictionary
281
     1
  3
Standard
350
18
  0
DICTIONARY
  5
19
102
{ACAD_REACTORS
330
C
102
}
330
C
100
AcDbDictionary
281
     1
  0
ACDBDICTIONARYWDFLT
  5
E
102
{ACAD_REACTORS
330
C
102
}
330
C
100
AcDbDictionary
281
     1
  3
Normal
350
F
100
AcDbDictionaryWithDefault
340
F
  0
DICTIONARY
  5
9C
102
{ACAD_REACTORS
330
C
102
}
330
C
100
AcDbDictionary
281
     1
  0
DICTIONARY
  5
2A
102
{ACAD_REACTORS
330
C
102
}
330
C
100
AcDbDictionary
281
     1
  3
2dWireframe
350
2F
  3
3D Hidden
350
31
  3
3dWireframe
350
30
  3
Basic
350
32
  3
Brighten
350
36
  3
ColorChange
350
3A
  3
Conceptual
350
34
  3
Dim
350
35
  3
Facepattern
350
39
  3
Flat
350
2B
  3
FlatWithEdges
350
2C
  3
Gouraud
350
2D
  3
GouraudWithEdges
350
2E
  3
Linepattern
350
38
  3
Realistic
350
33
  3
Thicken
350
37
  0
LAYOUT
  5
1E
102
{ACAD_REACTORS
330
1A
102
}
330
1A
100
AcDbPlotSettings
  1

  2
none_device
  4

  6

 40
0.0
 41
0.0
 42
0.0
 43
0.0
 44
0.0
 45
0.0
 46
0.0
 47
0.0
 48
0.0
 49
0.0
140
0.0
141
0.0
142
1.0
143
1.0
 70
   688
 72
     0
 73
     0
 74
     5
  7

 75
    16
 76
     0
 77
     2
 78
   300
147
1.0
148
0.0
149
0.0
100
AcDbLayout
  1
Layout1
 70
     1
 71
     1
 10
0.0
 20
0.0
 11
12.0
 21
9.0
 12
0.0
 22
0.0
 32
0.0
 14
1.000000000000000E+20
 24
1.000000000000000E+20
 34
1.000000000000000E+20
 15
-1.000000000000000E+20
 25
-1.000000000000000E+20
 35
-1.000000000000000E+20
146
0.0
 13
0.0
 23
0.0
 33
0.0
 16
1.0
 26
0.0
 36
0.0
 17
0.0
 27
1.0
 37
0.0
 76
     0
330
1B
  0
LAYOUT
  5
26
102
{ACAD_REACTORS
330
1A
102
}
330
1A
100
AcDbPlotSettings
  1

  2
none_device
  4

  6

 40
0.0
 41
0.0
 42
0.0
 43
0.0
 44
0.0
 45
0.0
 46
0.0
 47
0.0
 48
0.0
 49
0.0
140
0.0
141
0.0
142
1.0
143
1.0
 70
   688
 72
     0
 73
     0
 74
     5
  7

 75
    16
 76
     0
 77
     2
 78
   300
147
1.0
148
0.0
149
0.0
100
AcDbLayout
  1
Layout2
 70
     1
 71
     2
 10
0.0
 20
0.0
 11
0.0
 21
0.0
 12
0.0
 22
0.0
 32
0.0
 14
0.0
 24
0.0
 34
0.0
 15
0.0
 25
0.0
 35
0.0
146
0.0
 13
0.0
 23
0.0
 33
0.0
 16
1.0
 26
0.0
 36
0.0
 17
0.0
 27
1.0
 37
0.0
 76
     0
330
23
  0
LAYOUT
  5
22
102
{ACAD_REACTORS
330
1A
102
}
330
1A
100
AcDbPlotSettings
  1

  2
none_device
  4

  6

 40
0.0
 41
0.0
 42
0.0
 43
0.0
 44
0.0
 45
0.0
 46
0.0
 47
0.0
 48
0.0
 49
0.0
140
0.0
141
0.0
142
1.0
143
1.0
 70
  1712
 72
     0
 73
     0
 74
     0
  7

 75
     0
 76
     0
 77
     2
 78
   300
147
1.0
148
0.0
149
0.0
100
AcDbLayout
  1
Model
 70
     1
 71
     0
 10
0.0
 20
0.0
 11
12.0
 21
9.0
 12
0.0
 22
0.0
 32
0.0
 14
-187.6398
 24
-114.9251
 34
0.0
 15
196.114
 25
131.9864
 35
0.0
146
0.0
 13
0.0
 23
0.0
 33
0.0
 16
1.0
 26
0.0
 36
0.0
 17
0.0
 27
1.0
 37
0.0
 76
     0
330
1F
331
29
  0
MATERIAL
  5
3D
102
{ACAD_REACTORS
330
3B
102
}
330
3B
100
AcDbMaterial
  1
ByBlock
 72
     1
 94
      127
  0
MATERIAL
  5
3C
102
{ACAD_REACTORS
330
3B
102
}
330
3B
100
AcDbMaterial
  1
ByLayer
 72
     1
 94
      127
  0
MATERIAL
  5
3E
102
{ACAD_REACTORS
330
3B
102
}
330
3B
100
AcDbMaterial
  1
Global
 72
     1
 94
      127
  0
MLINESTYLE
  5
18
102
{ACAD_REACTORS
330
17
102
}
330
17
100
AcDbMlineStyle
  2
Standard
 70
     0
  3

 62
   256
 51
90.0
 52
90.0
 71
     2
 49
0.5
 62
   256
  6
BYLAYER
 49
-0.5
 62
   256
  6
BYLAYER
  0
ACDBPLACEHOLDER
  5
F
102
{ACAD_REACTORS
330
E
102
}
330
E
  0
VISUALSTYLE
  5
2F
102
{ACAD_REACTORS
330
2A
102
}
102
{ACAD_XDICTIONARY
360
84
102
}
330
2A
100
AcDbVisualStyle
  2
2dWireframe
 70
     4
 71
     0
 72
     2
 73
     0
 90
        0
 40
-0.6
 41
-30.0
 62
     5
 63
     7
421
 16777215
 74
     1
 91
        4
 64
     7
 65
   257
 75
     1
175
     1
 42
1.0
 92
        0
 66
   257
 43
1.0
 76
     1
 77
     6
 78
     2
 67
     7
 79
     5
170
     0
171
     0
290
     0
174
     0
 93
        1
 44
0.0
173
     0
291
     0
 45
0.0
  0
VISUALSTYLE
  5
31
102
{ACAD_REACTORS
330
2A
102
}
102
{ACAD_XDICTIONARY
360
88
102
}
330
2A
100
AcDbVisualStyle
  2
3D Hidden
 70
     6
 71
     1
 72
     2
 73
     2
 90
        0
 40
-0.6
 41
-30.0
 62
     5
 63
     7
421
 16777215
 74
     2
 91
        2
 64
     7
 65
   257
 75
     2
175
     1
 42
40.0
 92
        0
 66
   257
 43
1.0
 76
     1
 77
     6
 78
     2
 67
     7
 79
     3
170
     0
171
     0
290
     0
174
     0
 93
        1
 44
0.0
173
     0
291
     0
 45
0.0
  0
VISUALSTYLE
  5
30
102
{ACAD_REACTORS
330
2A
102
}
102
{ACAD_XDICTIONARY
360
86
102
}
330
2A
100
AcDbVisualStyle
  2
3dWireframe
 70
     5
 71
     0
 72
     2
 73
     0
 90
        0
 40
-0.6
 41
-30.0
 62
     5
 63
     7
421
 16777215
 74
     1
 91
        4
 64
     7
 65
   257
 75
     1
175
     1
 42
1.0
 92
        0
 66
   257
 43
1.0
 76
     1
 77
     6
 78
     2
 67
     7
 79
     5
170
     0
171
     0
290
     0
174
     0
 93
        1
 44
0.0
173
     0
291
     0
 45
0.0
  0
VISUALSTYLE
  5
32
102
{ACAD_REACTORS
330
2A
102
}
102
{ACAD_XDICTIONARY
360
8A
102
}
330
2A
100
AcDbVisualStyle
  2
Basic
 70
     7
 71
     1
 72
     0
 73
     1
 90
        0
 40
-0.6
 41
-30.0
 62
     5
 63
     7
421
 16777215
 74
     0
 91
        4
 64
     7
 65
   257
 75
     1
175
     1
 42
1.0
 92
        8
 66
     7
 43
1.0
 76
     1
 77
     6
 78
     2
 67
     7
 79
     5
170
     0
171
     0
290
     0
174
     0
 93
        1
 44
0.0
173
     0
291
     1
 45
0.0
  0
VISUALSTYLE
  5
36
102
{ACAD_REACTORS
330
2A
102
}
102
{ACAD_XDICTIONARY
360
92
102
}
330
2A
100
AcDbVisualStyle
  2
Brighten
 70
    12
 71
     2
 72
     2
 73
     0
 90
        0
 40
-0.6
 41
-30.0
 62
     5
 63
     7
421
 16777215
 74
     1
 91
        4
 64
     7
 65
   257
 75
     1
175
     1
 42
1.0
 92
        8
 66
     7
 43
1.0
 76
     1
 77
     6
 78
     2
 67
     7
 79
     5
170
     0
171
     0
290
     0
174
     0
 93
        1
 44
50.0
173
     0
291
     1
 45
0.0
  0
VISUALSTYLE
  5
3A
102
{ACAD_REACTORS
330
2A
102
}
102
{ACAD_XDICTIONARY
360
9A
102
}
330
2A
100
AcDbVisualStyle
  2
ColorChange
 70
    16
 71
     2
 72
     2
 73
     3
 90
        0
 40
-0.6
 41
-30.0
 62
     5
 63
     8
421
  8421504
 74
     1
 91
        4
 64
     7
 65
   257
 75
     1
175
     1
 42
1.0
 92
        8
 66
     8
424
  8421504
 43
1.0
 76
     1
 77
     6
 78
     2
 67
     7
 79
     5
170
     0
171
     0
290
     0
174
     0
 93
        1
 44
0.0
173
     0
291
     1
 45
0.0
  0
VISUALSTYLE
  5
34
102
{ACAD_REACTORS
330
2A
102
}
102
{ACAD_XDICTIONARY
360
8E
102
}
330
2A
100
AcDbVisualStyle
  2
Conceptual
 70
     9
 71
     3
 72
     2
 73
     0
 90
        0
 40
-0.6
 41
-30.0
 62
     5
 63
     7
421
 16777215
 74
     2
 91
        2
 64
     7
 65
   257
 75
     1
175
     1
 42
40.0
 92
        8
 66
     7
 43
1.0
 76
     1
 77
     6
 78
     2
 67
     7
 79
     3
170
     0
171
     0
290
     0
174
     0
 93
        1
 44
0.0
173
     0
291
     0
 45
0.0
  0
VISUALSTYLE
  5
35
102
{ACAD_REACTORS
330
2A
102
}
102
{ACAD_XDICTIONARY
360
90
102
}
330
2A
100
AcDbVisualStyle
  2
Dim
 70
    11
 71
     2
 72
     2
 73
     0
 90
        0
 40
-0.6
 41
-30.0
 62
     5
 63
     7
421
 16777215
 74
     1
 91
        4
 64
     7
 65
   257
 75
     1
175
     1
 42
1.0
 92
        8
 66
     7
 43
1.0
 76
     1
 77
     6
 78
     2
 67
     7
 79
     5
170
     0
171
     0
290
     0
174
     0
 93
        1
 44
-50.0
173
     0
291
     1
 45
0.0
  0
VISUALSTYLE
  5
39
102
{ACAD_REACTORS
330
2A
102
}
102
{ACAD_XDICTIONARY
360
98
102
}
330
2A
100
AcDbVisualStyle
  2
Facepattern
 70
    15
 71
     2
 72
     2
 73
     0
 90
        0
 40
-0.6
 41
-30.0
 62
     5
 63
     7
421
 16777215
 74
     1
 91
        4
 64
     7
 65
   257
 75
     1
175
     1
 42
1.0
 92
        8
 66
     7
 43
1.0
 76
     1
 77
     6
 78
     2
 67
     7
 79
     5
170
     0
171
     0
290
     0
174
     0
 93
        1
 44
0.0
173
     0
291
     1
 45
0.0
  0
VISUALSTYLE
  5
2B
102
{ACAD_REACTORS
330
2A
102
}
102
{ACAD_XDICTIONARY
360
7C
102
}
330
2A
100
AcDbVisualStyle
  2
Flat
 70
     0
 71
     2
 72
     1
 73
     1
 90
        2
 40
-0.6
 41
30.0
 62
     5
 63
     7
421
 16777215
 74
     0
 91
        4
 64
     7
 65
   257
 75
     1
175
     1
 42
1.0
 92
        8
 66
     7
 43
1.0
 76
     1
 77
     6
 78
     2
 67
     7
 79
     5
170
     0
171
     0
290
     0
174
     0
 93
       13
 44
0.0
173
     0
291
     1
 45
0.0
  0
VISUALSTYLE
  5
2C
102
{ACAD_REACTORS
330
2A
102
}
102
{ACAD_XDICTIONARY
360
7E
102
}
330
2A
100
AcDbVisualStyle
  2
FlatWithEdges
 70
     1
 71
     2
 72
     1
 73
     1
 90
        2
 40
-0.6
 41
30.0
 62
     5
 63
     7
421
 16777215
 74
     1
 91
        4
 64
     7
 65
   257
 75
     1
175
     1
 42
1.0
 92
        0
 66
   257
 43
1.0
 76
     1
 77
     6
 78
     2
 67
     7
 79
     5
170
     0
171
     0
290
     0
174
     0
 93
       13
 44
0.0
173
     0
291
     1
 45
0.0
  0
VISUALSTYLE
  5
2D
102
{ACAD_REACTORS
330
2A
102
}
102
{ACAD_XDICTIONARY
360
80
102
}
330
2A
100
AcDbVisualStyle
  2
Gouraud
 70
     2
 71
     2
 72
     2
 73
     1
 90
        2
 40
-0.6
 41
30.0
 62
     5
 63
     7
421
 16777215
 74
     0
 91
        4
 64
     7
 65
   257
 75
     1
175
     1
 42
1.0
 92
        0
 66
     7
 43
1.0
 76
     1
 77
     6
 78
     2
 67
     7
 79
     5
170
     0
171
     0
290
     0
174
     0
 93
       13
 44
0.0
173
     0
291
     1
 45
0.0
  0
VISUALSTYLE
  5
2E
102
{ACAD_REACTORS
330
2A
102
}
102
{ACAD_XDICTIONARY
360
82
102
}
330
2A
100
AcDbVisualStyle
  2
GouraudWithEdges
 70
     3
 71
     2
 72
     2
 73
     1
 90
        2
 40
-0.6
 41
30.0
 62
     5
 63
     7
421
 16777215
 74
     1
 91
        4
 64
     7
 65
   257
 75
     1
175
     1
 42
1.0
 92
        0
 66
   257
 43
1.0
 76
     1
 77
     6
 78
     2
 67
     7
 79
     5
170
     0
171
     0
290
     0
174
     0
 93
       13
 44
0.0
173
     0
291
     1
 45
0.0
  0
VISUALSTYLE
  5
38
102
{ACAD_REACTORS
330
2A
102
}
102
{ACAD_XDICTIONARY
360
96
102
}
330
2A
100
AcDbVisualStyle
  2
Linepattern
 70
    14
 71
     2
 72
     2
 73
     0
 90
        0
 40
-0.6
 41
-30.0
 62
     5
 63
     7
421
 16777215
 74
     1
 91
        4
 64
     7
 65
   257
 75
     7
175
     7
 42
1.0
 92
        8
 66
     7
 43
1.0
 76
     1
 77
     6
 78
     2
 67
     7
 79
     5
170
     0
171
     0
290
     0
174
     0
 93
        1
 44
0.0
173
     0
291
     1
 45
0.0
  0
VISUALSTYLE
  5
33
102
{ACAD_REACTORS
330
2A
102
}
102
{ACAD_XDICTIONARY
360
8C
102
}
330
2A
100
AcDbVisualStyle
  2
Realistic
 70
     8
 71
     2
 72
     2
 73
     0
 90
        0
 40
-0.6
 41
-30.0
 62
     5
 63
     7
421
 16777215
 74
     1
 91
        0
 64
     7
 65
   257
 75
     1
175
     1
 42
1.0
 92
        8
 66
     8
424
  7895160
 43
1.0
 76
     1
 77
     6
 78
     2
 67
     7
 79
     5
170
     0
171
     0
290
     0
174
     0
 93
       13
 44
0.0
173
     0
291
     0
 45
0.0
  0
VISUALSTYLE
  5
37
102
{ACAD_REACTORS
330
2A
102
}
102
{ACAD_XDICTIONARY
360
94
102
}
330
2A
100
AcDbVisualStyle
  2
Thicken
 70
    13
 71
     2
 72
     2
 73
     0
 90
        0
 40
-0.6
 41
-30.0
 62
     5
 63
     7
421
 16777215
 74
     1
 91
        4
 64
     7
 65
   257
 75
     1
175
     1
 42
1.0
 92
       12
 66
     7
 43
1.0
 76
     1
 77
     6
 78
     2
 67
     7
 79
     5
170
     0
171
     0
290
     0
174
     0
 93
        1
 44
0.0
173
     0
291
     1
 45
0.0
  0
DICTIONARY
  5
84
330
2F
100
AcDbDictionary
280
     1
281
     1
  3
ACAD_XREC_ROUNDTRIP
360
85
  0
DICTIONARY
  5
88
330
31
100
AcDbDictionary
280
     1
281
     1
  3
ACAD_XREC_ROUNDTRIP
360
89
  0
DICTIONARY
  5
86
330
30
100
AcDbDictionary
280
     1
281
     1
  3
ACAD_XREC_ROUNDTRIP
360
87
  0
DICTIONARY
  5
8A
330
32
100
AcDbDictionary
280
     1
281
     1
  3
ACAD_XREC_ROUNDTRIP
360
8B
  0
DICTIONARY
  5
92
330
36
100
AcDbDictionary
280
     1
281
     1
  3
ACAD_XREC_ROUNDTRIP
360
93
  0
DICTIONARY
  5
9A
330
3A
100
AcDbDictionary
280
     1
281
     1
  3
ACAD_XREC_ROUNDTRIP
360
9B
  0
DICTIONARY
  5
8E
330
34
100
AcDbDictionary
280
     1
281
     1
  3
ACAD_XREC_ROUNDTRIP
360
8F
  0
DICTIONARY
  5
90
330
35
100
AcDbDictionary
280
     1
281
     1
  3
ACAD_XREC_ROUNDTRIP
360
91
  0
DICTIONARY
  5
98
330
39
100
AcDbDictionary
280
     1
281
     1
  3
ACAD_XREC_ROUNDTRIP
360
99
  0
DICTIONARY
  5
7C
330
2B
100
AcDbDictionary
280
     1
281
     1
  3
ACAD_XREC_ROUNDTRIP
360
7D
  0
DICTIONARY
  5
7E
330
2C
100
AcDbDictionary
280
     1
281
     1
  3
ACAD_XREC_ROUNDTRIP
360
7F
  0
DICTIONARY
  5
80
330
2D
100
AcDbDictionary
280
     1
281
     1
  3
ACAD_XREC_ROUNDTRIP
360
81
  0
DICTIONARY
  5
82
330
2E
100
AcDbDictionary
280
     1
281
     1
  3
ACAD_XREC_ROUNDTRIP
360
83
  0
DICTIONARY
  5
96
330
38
100
AcDbDictionary
280
     1
281
     1
  3
ACAD_XREC_ROUNDTRIP
360
97
  0
DICTIONARY
  5
8C
330
33
100
AcDbDictionary
280
     1
281
     1
  3
ACAD_XREC_ROUNDTRIP
360
8D
  0
DICTIONARY
  5
94
330
37
100
AcDbDictionary
280
     1
281
     1
  3
ACAD_XREC_ROUNDTRIP
360
95
  0
XRECORD
  5
85
102
{ACAD_REACTORS
330
84
102
}
330
84
100
AcDbXrecord
280
     1
102
RTVSPropertyOp0
 70
     1
102
RTVSPropertyOp1
 70
     1
102
RTVSPropertyOp2
 70
     1
102
RTVSPropertyOp3
 70
     1
102
RTVSPropertyOp4
 70
     1
102
RTVSPropertyOp5
 70
     1
102
RTVSPropertyOp6
 70
     1
102
RTVSPropertyOp7
 70
     1
102
RTVSPropertyOp8
 70
     1
102
RTVSPropertyOp9
 70
     1
102
RTVSPropertyOp10
 70
     1
102
RTVSPropertyOp11
 70
     1
102
RTVSPropertyOp12
 70
     1
102
RTVSPropertyOp13
 70
     1
102
RTVSPropertyOp14
 70
     1
102
RTVSPropertyOp15
 70
     1
102
RTVSPropertyOp16
 70
     1
102
RTVSPropertyOp17
 70
     1
102
RTVSPropertyOp18
 70
     1
102
RTVSPropertyOp19
 70
     1
102
RTVSPropertyOp20
 70
     1
102
RTVSPropertyOp21
 70
     1
102
RTVSPropertyOp22
 70
     1
102
RTVSPropertyOp23
 70
     1
102
RTVSPropertyOp24
 70
     1
102
RTVSPropertyOp25
 70
     1
102
RTVSPropertyOp26
 70
     1
102
RTVSPropertyOp27
 70
     1
102
RTVSPropertyOp28
 70
     1
102
RTVSPropertyOp29
 70
     1
102
RTVSPropertyOp30
 70
     1
102
RTVSPropertyOp31
 70
     1
102
RTVSPropertyOp32
 70
     1
  0
XRECORD
  5
89
102
{ACAD_REACTORS
330
88
102
}
330
88
100
AcDbXrecord
280
     1
102
RTVSPropertyOp0
 70
     1
102
RTVSPropertyOp1
 70
     1
102
RTVSPropertyOp2
 70
     1
102
RTVSPropertyOp3
 70
     1
102
RTVSPropertyOp4
 70
     1
102
RTVSPropertyOp5
 70
     1
102
RTVSPropertyOp6
 70
     1
102
RTVSPropertyOp7
 70
     1
102
RTVSPropertyOp8
 70
     1
102
RTVSPropertyOp9
 70
     1
102
RTVSPropertyOp10
 70
     1
102
RTVSPropertyOp11
 70
     1
102
RTVSPropertyOp12
 70
     1
102
RTVSPropertyOp13
 70
     1
102
RTVSPropertyOp14
 70
     1
102
RTVSPropertyOp15
 70
     1
102
RTVSPropertyOp16
 70
     1
102
RTVSPropertyOp17
 70
     1
102
RTVSPropertyOp18
 70
     1
102
RTVSPropertyOp19
 70
     1
102
RTVSPropertyOp20
 70
     1
102
RTVSPropertyOp21
 70
     1
102
RTVSPropertyOp22
 70
     1
102
RTVSPropertyOp23
 70
     1
102
RTVSPropertyOp24
 70
     1
102
RTVSPropertyOp25
 70
     1
102
RTVSPropertyOp26
 70
     1
102
RTVSPropertyOp27
 70
     1
102
RTVSPropertyOp28
 70
     1
102
RTVSPropertyOp29
 70
     1
102
RTVSPropertyOp30
 70
     1
102
RTVSPropertyOp31
 70
     1
102
RTVSPropertyOp32
 70
     1
  0
XRECORD
  5
87
102
{ACAD_REACTORS
330
86
102
}
330
86
100
AcDbXrecord
280
     1
102
RTVSPropertyOp0
 70
     1
102
RTVSPropertyOp1
 70
     1
102
RTVSPropertyOp2
 70
     1
102
RTVSPropertyOp3
 70
     1
102
RTVSPropertyOp4
 70
     1
102
RTVSPropertyOp5
 70
     1
102
RTVSPropertyOp6
 70
     1
102
RTVSPropertyOp7
 70
     1
102
RTVSPropertyOp8
 70
     1
102
RTVSPropertyOp9
 70
     1
102
RTVSPropertyOp10
 70
     1
102
RTVSPropertyOp11
 70
     1
102
RTVSPropertyOp12
 70
     1
102
RTVSPropertyOp13
 70
     1
102
RTVSPropertyOp14
 70
     1
102
RTVSPropertyOp15
 70
     1
102
RTVSPropertyOp16
 70
     1
102
RTVSPropertyOp17
 70
     1
102
RTVSPropertyOp18
 70
     1
102
RTVSPropertyOp19
 70
     1
102
RTVSPropertyOp20
 70
     1
102
RTVSPropertyOp21
 70
     1
102
RTVSPropertyOp22
 70
     1
102
RTVSPropertyOp23
 70
     1
102
RTVSPropertyOp24
 70
     1
102
RTVSPropertyOp25
 70
     1
102
RTVSPropertyOp26
 70
     1
102
RTVSPropertyOp27
 70
     1
102
RTVSPropertyOp28
 70
     1
102
RTVSPropertyOp29
 70
     1
102
RTVSPropertyOp30
 70
     1
102
RTVSPropertyOp31
 70
     1
102
RTVSPropertyOp32
 70
     1
  0
XRECORD
  5
8B
102
{ACAD_REACTORS
330
8A
102
}
330
8A
100
AcDbXrecord
280
     1
102
RTVSPropertyOp0
 70
     1
102
RTVSPropertyOp1
 70
     1
102
RTVSPropertyOp2
 70
     1
102
RTVSPropertyOp3
 70
     1
102
RTVSPropertyOp4
 70
     1
102
RTVSPropertyOp5
 70
     1
102
RTVSPropertyOp6
 70
     1
102
RTVSPropertyOp7
 70
     1
102
RTVSPropertyOp8
 70
     1
102
RTVSPropertyOp9
 70
     1
102
RTVSPropertyOp10
 70
     1
102
RTVSPropertyOp11
 70
     1
102
RTVSPropertyOp12
 70
     1
102
RTVSPropertyOp13
 70
     1
102
RTVSPropertyOp14
 70
     1
102
RTVSPropertyOp15
 70
     1
102
RTVSPropertyOp16
 70
     1
102
RTVSPropertyOp17
 70
     1
102
RTVSPropertyOp18
 70
     1
102
RTVSPropertyOp19
 70
     1
102
RTVSPropertyOp20
 70
     1
102
RTVSPropertyOp21
 70
     1
102
RTVSPropertyOp22
 70
     1
102
RTVSPropertyOp23
 70
     1
102
RTVSPropertyOp24
 70
     1
102
RTVSPropertyOp25
 70
     1
102
RTVSPropertyOp26
 70
     1
102
RTVSPropertyOp27
 70
     1
102
RTVSPropertyOp28
 70
     1
102
RTVSPropertyOp29
 70
     1
102
RTVSPropertyOp30
 70
     1
102
RTVSPropertyOp31
 70
     1
102
RTVSPropertyOp32
 70
     1
  0
XRECORD
  5
93
102
{ACAD_REACTORS
330
92
102
}
330
92
100
AcDbXrecord
280
     1
102
RTVSPropertyOp0
 70
     1
102
RTVSPropertyOp1
 70
     1
102
RTVSPropertyOp2
 70
     1
102
RTVSPropertyOp3
 70
     1
102
RTVSPropertyOp4
 70
     1
102
RTVSPropertyOp5
 70
     1
102
RTVSPropertyOp6
 70
     1
102
RTVSPropertyOp7
 70
     1
102
RTVSPropertyOp8
 70
     1
102
RTVSPropertyOp9
 70
     1
102
RTVSPropertyOp10
 70
     1
102
RTVSPropertyOp11
 70
     1
102
RTVSPropertyOp12
 70
     1
102
RTVSPropertyOp13
 70
     1
102
RTVSPropertyOp14
 70
     1
102
RTVSPropertyOp15
 70
     1
102
RTVSPropertyOp16
 70
     1
102
RTVSPropertyOp17
 70
     1
102
RTVSPropertyOp18
 70
     1
102
RTVSPropertyOp19
 70
     1
102
RTVSPropertyOp20
 70
     1
102
RTVSPropertyOp21
 70
     1
102
RTVSPropertyOp22
 70
     1
102
RTVSPropertyOp23
 70
     1
102
RTVSPropertyOp24
 70
     1
102
RTVSPropertyOp25
 70
     1
102
RTVSPropertyOp26
 70
     1
102
RTVSPropertyOp27
 70
     1
102
RTVSPropertyOp28
 70
     1
102
RTVSPropertyOp29
 70
     1
102
RTVSPropertyOp30
 70
     1
102
RTVSPropertyOp31
 70
     1
102
RTVSPropertyOp32
 70
     1
  0
XRECORD
  5
9B
102
{ACAD_REACTORS
330
9A
102
}
330
9A
100
AcDbXrecord
280
     1
102
RTVSPropertyOp0
 70
     1
102
RTVSPropertyOp1
 70
     1
102
RTVSPropertyOp2
 70
     1
102
RTVSPropertyOp3
 70
     1
102
RTVSPropertyOp4
 70
     1
102
RTVSPropertyOp5
 70
     1
102
RTVSPropertyOp6
 70
     1
102
RTVSPropertyOp7
 70
     1
102
RTVSPropertyOp8
 70
     1
102
RTVSPropertyOp9
 70
     1
102
RTVSPropertyOp10
 70
     1
102
RTVSPropertyOp11
 70
     1
102
RTVSPropertyOp12
 70
     1
102
RTVSPropertyOp13
 70
     1
102
RTVSPropertyOp14
 70
     1
102
RTVSPropertyOp15
 70
     1
102
RTVSPropertyOp16
 70
     1
102
RTVSPropertyOp17
 70
     1
102
RTVSPropertyOp18
 70
     1
102
RTVSPropertyOp19
 70
     1
102
RTVSPropertyOp20
 70
     1
102
RTVSPropertyOp21
 70
     1
102
RTVSPropertyOp22
 70
     1
102
RTVSPropertyOp23
 70
     1
102
RTVSPropertyOp24
 70
     1
102
RTVSPropertyOp25
 70
     1
102
RTVSPropertyOp26
 70
     1
102
RTVSPropertyOp27
 70
     1
102
RTVSPropertyOp28
 70
     1
102
RTVSPropertyOp29
 70
     1
102
RTVSPropertyOp30
 70
     1
102
RTVSPropertyOp31
 70
     1
102
RTVSPropertyOp32
 70
     1
  0
XRECORD
  5
8F
102
{ACAD_REACTORS
330
8E
102
}
330
8E
100
AcDbXrecord
280
     1
102
RTVSPropertyOp0
 70
     1
102
RTVSPropertyOp1
 70
     1
102
RTVSPropertyOp2
 70
     1
102
RTVSPropertyOp3
 70
     1
102
RTVSPropertyOp4
 70
     1
102
RTVSPropertyOp5
 70
     1
102
RTVSPropertyOp6
 70
     1
102
RTVSPropertyOp7
 70
     1
102
RTVSPropertyOp8
 70
     1
102
RTVSPropertyOp9
 70
     1
102
RTVSPropertyOp10
 70
     1
102
RTVSPropertyOp11
 70
     1
102
RTVSPropertyOp12
 70
     1
102
RTVSPropertyOp13
 70
     1
102
RTVSPropertyOp14
 70
     1
102
RTVSPropertyOp15
 70
     1
102
RTVSPropertyOp16
 70
     1
102
RTVSPropertyOp17
 70
     1
102
RTVSPropertyOp18
 70
     1
102
RTVSPropertyOp19
 70
     1
102
RTVSPropertyOp20
 70
     1
102
RTVSPropertyOp21
 70
     1
102
RTVSPropertyOp22
 70
     1
102
RTVSPropertyOp23
 70
     1
102
RTVSPropertyOp24
 70
     1
102
RTVSPropertyOp25
 70
     1
102
RTVSPropertyOp26
 70
     1
102
RTVSPropertyOp27
 70
     1
102
RTVSPropertyOp28
 70
     1
102
RTVSPropertyOp29
 70
     1
102
RTVSPropertyOp30
 70
     1
102
RTVSPropertyOp31
 70
     1
102
RTVSPropertyOp32
 70
     1
  0
XRECORD
  5
91
102
{ACAD_REACTORS
330
90
102
}
330
90
100
AcDbXrecord
280
     1
102
RTVSPropertyOp0
 70
     1
102
RTVSPropertyOp1
 70
     1
102
RTVSPropertyOp2
 70
     1
102
RTVSPropertyOp3
 70
     1
102
RTVSPropertyOp4
 70
     1
102
RTVSPropertyOp5
 70
     1
102
RTVSPropertyOp6
 70
     1
102
RTVSPropertyOp7
 70
     1
102
RTVSPropertyOp8
 70
     1
102
RTVSPropertyOp9
 70
     1
102
RTVSPropertyOp10
 70
     1
102
RTVSPropertyOp11
 70
     1
102
RTVSPropertyOp12
 70
     1
102
RTVSPropertyOp13
 70
     1
102
RTVSPropertyOp14
 70
     1
102
RTVSPropertyOp15
 70
     1
102
RTVSPropertyOp16
 70
     1
102
RTVSPropertyOp17
 70
     1
102
RTVSPropertyOp18
 70
     1
102
RTVSPropertyOp19
 70
     1
102
RTVSPropertyOp20
 70
     1
102
RTVSPropertyOp21
 70
     1
102
RTVSPropertyOp22
 70
     1
102
RTVSPropertyOp23
 70
     1
102
RTVSPropertyOp24
 70
     1
102
RTVSPropertyOp25
 70
     1
102
RTVSPropertyOp26
 70
     1
102
RTVSPropertyOp27
 70
     1
102
RTVSPropertyOp28
 70
     1
102
RTVSPropertyOp29
 70
     1
102
RTVSPropertyOp30
 70
     1
102
RTVSPropertyOp31
 70
     1
102
RTVSPropertyOp32
 70
     1
  0
XRECORD
  5
99
102
{ACAD_REACTORS
330
98
102
}
330
98
100
AcDbXrecord
280
     1
102
RTVSPropertyOp0
 70
     1
102
RTVSPropertyOp1
 70
     1
102
RTVSPropertyOp2
 70
     1
102
RTVSPropertyOp3
 70
     1
102
RTVSPropertyOp4
 70
     1
102
RTVSPropertyOp5
 70
     1
102
RTVSPropertyOp6
 70
     1
102
RTVSPropertyOp7
 70
     1
102
RTVSPropertyOp8
 70
     1
102
RTVSPropertyOp9
 70
     1
102
RTVSPropertyOp10
 70
     1
102
RTVSPropertyOp11
 70
     1
102
RTVSPropertyOp12
 70
     1
102
RTVSPropertyOp13
 70
     1
102
RTVSPropertyOp14
 70
     1
102
RTVSPropertyOp15
 70
     1
102
RTVSPropertyOp16
 70
     1
102
RTVSPropertyOp17
 70
     1
102
RTVSPropertyOp18
 70
     1
102
RTVSPropertyOp19
 70
     1
102
RTVSPropertyOp20
 70
     1
102
RTVSPropertyOp21
 70
     1
102
RTVSPropertyOp22
 70
     1
102
RTVSPropertyOp23
 70
     1
102
RTVSPropertyOp24
 70
     1
102
RTVSPropertyOp25
 70
     1
102
RTVSPropertyOp26
 70
     1
102
RTVSPropertyOp27
 70
     1
102
RTVSPropertyOp28
 70
     1
102
RTVSPropertyOp29
 70
     1
102
RTVSPropertyOp30
 70
     1
102
RTVSPropertyOp31
 70
     1
102
RTVSPropertyOp32
 70
     1
  0
XRECORD
  5
7D
102
{ACAD_REACTORS
330
7C
102
}
330
7C
100
AcDbXrecord
280
     1
102
RTVSPropertyOp0
 70
     1
102
RTVSPropertyOp1
 70
     1
102
RTVSPropertyOp2
 70
     1
102
RTVSPropertyOp3
 70
     1
102
RTVSPropertyOp4
 70
     1
102
RTVSPropertyOp5
 70
     1
102
RTVSPropertyOp6
 70
     1
102
RTVSPropertyOp7
 70
     1
102
RTVSPropertyOp8
 70
     1
102
RTVSPropertyOp9
 70
     1
102
RTVSPropertyOp10
 70
     1
102
RTVSPropertyOp11
 70
     1
102
RTVSPropertyOp12
 70
     1
102
RTVSPropertyOp13
 70
     1
102
RTVSPropertyOp14
 70
     1
102
RTVSPropertyOp15
 70
     1
102
RTVSPropertyOp16
 70
     1
102
RTVSPropertyOp17
 70
     1
102
RTVSPropertyOp18
 70
     1
102
RTVSPropertyOp19
 70
     1
102
RTVSPropertyOp20
 70
     1
102
RTVSPropertyOp21
 70
     1
102
RTVSPropertyOp22
 70
     1
102
RTVSPropertyOp23
 70
     1
102
RTVSPropertyOp24
 70
     1
102
RTVSPropertyOp25
 70
     1
102
RTVSPropertyOp26
 70
     1
102
RTVSPropertyOp27
 70
     1
102
RTVSPropertyOp28
 70
     1
102
RTVSPropertyOp29
 70
     1
102
RTVSPropertyOp30
 70
     1
102
RTVSPropertyOp31
 70
     1
102
RTVSPropertyOp32
 70
     1
  0
XRECORD
  5
7F
102
{ACAD_REACTORS
330
7E
102
}
330
7E
100
AcDbXrecord
280
     1
102
RTVSPropertyOp0
 70
     1
102
RTVSPropertyOp1
 70
     1
102
RTVSPropertyOp2
 70
     1
102
RTVSPropertyOp3
 70
     1
102
RTVSPropertyOp4
 70
     1
102
RTVSPropertyOp5
 70
     1
102
RTVSPropertyOp6
 70
     1
102
RTVSPropertyOp7
 70
     1
102
RTVSPropertyOp8
 70
     1
102
RTVSPropertyOp9
 70
     1
102
RTVSPropertyOp10
 70
     1
102
RTVSPropertyOp11
 70
     1
102
RTVSPropertyOp12
 70
     1
102
RTVSPropertyOp13
 70
     1
102
RTVSPropertyOp14
 70
     1
102
RTVSPropertyOp15
 70
     1
102
RTVSPropertyOp16
 70
     1
102
RTVSPropertyOp17
 70
     1
102
RTVSPropertyOp18
 70
     1
102
RTVSPropertyOp19
 70
     1
102
RTVSPropertyOp20
 70
     1
102
RTVSPropertyOp21
 70
     1
102
RTVSPropertyOp22
 70
     1
102
RTVSPropertyOp23
 70
     1
102
RTVSPropertyOp24
 70
     1
102
RTVSPropertyOp25
 70
     1
102
RTVSPropertyOp26
 70
     1
102
RTVSPropertyOp27
 70
     1
102
RTVSPropertyOp28
 70
     1
102
RTVSPropertyOp29
 70
     1
102
RTVSPropertyOp30
 70
     1
102
RTVSPropertyOp31
 70
     1
102
RTVSPropertyOp32
 70
     1
  0
XRECORD
  5
81
102
{ACAD_REACTORS
330
80
102
}
330
80
100
AcDbXrecord
280
     1
102
RTVSPropertyOp0
 70
     1
102
RTVSPropertyOp1
 70
     1
102
RTVSPropertyOp2
 70
     1
102
RTVSPropertyOp3
 70
     1
102
RTVSPropertyOp4
 70
     1
102
RTVSPropertyOp5
 70
     1
102
RTVSPropertyOp6
 70
     1
102
RTVSPropertyOp7
 70
     1
102
RTVSPropertyOp8
 70
     1
102
RTVSPropertyOp9
 70
     1
102
RTVSPropertyOp10
 70
     1
102
RTVSPropertyOp11
 70
     1
102
RTVSPropertyOp12
 70
     1
102
RTVSPropertyOp13
 70
     1
102
RTVSPropertyOp14
 70
     1
102
RTVSPropertyOp15
 70
     1
102
RTVSPropertyOp16
 70
     1
102
RTVSPropertyOp17
 70
     1
102
RTVSPropertyOp18
 70
     1
102
RTVSPropertyOp19
 70
     1
102
RTVSPropertyOp20
 70
     1
102
RTVSPropertyOp21
 70
     1
102
RTVSPropertyOp22
 70
     1
102
RTVSPropertyOp23
 70
     1
102
RTVSPropertyOp24
 70
     1
102
RTVSPropertyOp25
 70
     1
102
RTVSPropertyOp26
 70
     1
102
RTVSPropertyOp27
 70
     1
102
RTVSPropertyOp28
 70
     1
102
RTVSPropertyOp29
 70
     1
102
RTVSPropertyOp30
 70
     1
102
RTVSPropertyOp31
 70
     1
102
RTVSPropertyOp32
 70
     1
  0
XRECORD
  5
83
102
{ACAD_REACTORS
330
82
102
}
330
82
100
AcDbXrecord
280
     1
102
RTVSPropertyOp0
 70
     1
102
RTVSPropertyOp1
 70
     1
102
RTVSPropertyOp2
 70
     1
102
RTVSPropertyOp3
 70
     1
102
RTVSPropertyOp4
 70
     1
102
RTVSPropertyOp5
 70
     1
102
RTVSPropertyOp6
 70
     1
102
RTVSPropertyOp7
 70
     1
102
RTVSPropertyOp8
 70
     1
102
RTVSPropertyOp9
 70
     1
102
RTVSPropertyOp10
 70
     1
102
RTVSPropertyOp11
 70
     1
102
RTVSPropertyOp12
 70
     1
102
RTVSPropertyOp13
 70
     1
102
RTVSPropertyOp14
 70
     1
102
RTVSPropertyOp15
 70
     1
102
RTVSPropertyOp16
 70
     1
102
RTVSPropertyOp17
 70
     1
102
RTVSPropertyOp18
 70
     1
102
RTVSPropertyOp19
 70
     1
102
RTVSPropertyOp20
 70
     1
102
RTVSPropertyOp21
 70
     1
102
RTVSPropertyOp22
 70
     1
102
RTVSPropertyOp23
 70
     1
102
RTVSPropertyOp24
 70
     1
102
RTVSPropertyOp25
 70
     1
102
RTVSPropertyOp26
 70
     1
102
RTVSPropertyOp27
 70
     1
102
RTVSPropertyOp28
 70
     1
102
RTVSPropertyOp29
 70
     1
102
RTVSPropertyOp30
 70
     1
102
RTVSPropertyOp31
 70
     1
102
RTVSPropertyOp32
 70
     1
  0
XRECORD
  5
97
102
{ACAD_REACTORS
330
96
102
}
330
96
100
AcDbXrecord
280
     1
102
RTVSPropertyOp0
 70
     1
102
RTVSPropertyOp1
 70
     1
102
RTVSPropertyOp2
 70
     1
102
RTVSPropertyOp3
 70
     1
102
RTVSPropertyOp4
 70
     1
102
RTVSPropertyOp5
 70
     1
102
RTVSPropertyOp6
 70
     1
102
RTVSPropertyOp7
 70
     1
102
RTVSPropertyOp8
 70
     1
102
RTVSPropertyOp9
 70
     1
102
RTVSPropertyOp10
 70
     1
102
RTVSPropertyOp11
 70
     1
102
RTVSPropertyOp12
 70
     1
102
RTVSPropertyOp13
 70
     1
102
RTVSPropertyOp14
 70
     1
102
RTVSPropertyOp15
 70
     1
102
RTVSPropertyOp16
 70
     1
102
RTVSPropertyOp17
 70
     1
102
RTVSPropertyOp18
 70
     1
102
RTVSPropertyOp19
 70
     1
102
RTVSPropertyOp20
 70
     1
102
RTVSPropertyOp21
 70
     1
102
RTVSPropertyOp22
 70
     1
102
RTVSPropertyOp23
 70
     1
102
RTVSPropertyOp24
 70
     1
102
RTVSPropertyOp25
 70
     1
102
RTVSPropertyOp26
 70
     1
102
RTVSPropertyOp27
 70
     1
102
RTVSPropertyOp28
 70
     1
102
RTVSPropertyOp29
 70
     1
102
RTVSPropertyOp30
 70
     1
102
RTVSPropertyOp31
 70
     1
102
RTVSPropertyOp32
 70
     1
  0
XRECORD
  5
8D
102
{ACAD_REACTORS
330
8C
102
}
330
8C
100
AcDbXrecord
280
     1
102
RTVSPropertyOp0
 70
     1
102
RTVSPropertyOp1
 70
     1
102
RTVSPropertyOp2
 70
     1
102
RTVSPropertyOp3
 70
     1
102
RTVSPropertyOp4
 70
     1
102
RTVSPropertyOp5
 70
     1
102
RTVSPropertyOp6
 70
     1
102
RTVSPropertyOp7
 70
     1
102
RTVSPropertyOp8
 70
     1
102
RTVSPropertyOp9
 70
     1
102
RTVSPropertyOp10
 70
     1
102
RTVSPropertyOp11
 70
     1
102
RTVSPropertyOp12
 70
     1
102
RTVSPropertyOp13
 70
     1
102
RTVSPropertyOp14
 70
     1
102
RTVSPropertyOp15
 70
     1
102
RTVSPropertyOp16
 70
     1
102
RTVSPropertyOp17
 70
     1
102
RTVSPropertyOp18
 70
     1
102
RTVSPropertyOp19
 70
     1
102
RTVSPropertyOp20
 70
     1
102
RTVSPropertyOp21
 70
     1
102
RTVSPropertyOp22
 70
     1
102
RTVSPropertyOp23
 70
     1
102
RTVSPropertyOp24
 70
     1
102
RTVSPropertyOp25
 70
     1
102
RTVSPropertyOp26
 70
     1
102
RTVSPropertyOp27
 70
     1
102
RTVSPropertyOp28
 70
     1
102
RTVSPropertyOp29
 70
     1
102
RTVSPropertyOp30
 70
     1
102
RTVSPropertyOp31
 70
     1
102
RTVSPropertyOp32
 70
     1
  0
XRECORD
  5
95
102
{ACAD_REACTORS
330
94
102
}
330
94
100
AcDbXrecord
280
     1
102
RTVSPropertyOp0
 70
     1
102
RTVSPropertyOp1
 70
     1
102
RTVSPropertyOp2
 70
     1
102
RTVSPropertyOp3
 70
     1
102
RTVSPropertyOp4
 70
     1
102
RTVSPropertyOp5
 70
     1
102
RTVSPropertyOp6
 70
     1
102
RTVSPropertyOp7
 70
     1
102
RTVSPropertyOp8
 70
     1
102
RTVSPropertyOp9
 70
     1
102
RTVSPropertyOp10
 70
     1
102
RTVSPropertyOp11
 70
     1
102
RTVSPropertyOp12
 70
     1
102
RTVSPropertyOp13
 70
     1
102
RTVSPropertyOp14
 70
     1
102
RTVSPropertyOp15
 70
     1
102
RTVSPropertyOp16
 70
     1
102
RTVSPropertyOp17
 70
     1
102
RTVSPropertyOp18
 70
     1
102
RTVSPropertyOp19
 70
     1
102
RTVSPropertyOp20
 70
     1
102
RTVSPropertyOp21
 70
     1
102
RTVSPropertyOp22
 70
     1
102
RTVSPropertyOp23
 70
     1
102
RTVSPropertyOp24
 70
     1
102
RTVSPropertyOp25
 70
     1
102
RTVSPropertyOp26
 70
     1
102
RTVSPropertyOp27
 70
     1
102
RTVSPropertyOp28
 70
     1
102
RTVSPropertyOp29
 70
     1
102
RTVSPropertyOp30
 70
     1
102
RTVSPropertyOp31
 70
     1
102
RTVSPropertyOp32
 70
     1
  0
ENDSEC
  0
EOF
