  0
SECTION
  2
HEADER
  9
$ACADVER
  1
AC1021
  9
$ACADMAINTVER
 70
    25
  9
$DWGCODEPAGE
  3
ANSI_1256
  9
$INSBASE
 10
0.0
 20
0.0
 30
0.0
  9
$EXTMIN
 10
87.0683
 20
-106.5857
 30
0.0
  9
$EXTMAX
 10
196.3244
 20
131.8576
 30
0.0
  9
$LIMMIN
 10
0.0
 20
0.0
  9
$LIMMAX
 10
12.0
 20
9.0
  9
$ORTHOMODE
 70
     0
  9
$REGENMODE
 70
     1
  9
$FILLMODE
 70
     1
  9
$QTEXTMODE
 70
     0
  9
$MIRRTEXT
 70
     1
  9
$LTSCALE
 40
1.0
  9
$ATTMODE
 70
     1
  9
$TEXTSIZE
 40
0.2
  9
$TRACEWID
 40
0.05
  9
$TEXTSTYLE
  7
Standard
  9
$CLAYER
  8
0
  9
$CELTYPE
  6
ByLayer
  9
$CECOLOR
 62
   256
  9
$CELTSCALE
 40
1.0
  9
$DISPSILH
 70
     0
  9
$DIMSCALE
 40
1.0
  9
$DIMASZ
 40
0.18
  9
$DIMEXO
 40
0.0625
  9
$DIMDLI
 40
0.38
  9
$DIMRND
 40
0.0
  9
$DIMDLE
 40
0.0
  9
$DIMEXE
 40
0.18
  9
$DIMTP
 40
0.0
  9
$DIMTM
 40
0.0
  9
$DIMTXT
 40
0.18
  9
$DIMCEN
 40
0.09
  9
$DIMTSZ
 40
0.0
  9
$DIMTOL
 70
     0
  9
$DIMLIM
 70
     0
  9
$DIMTIH
 70
     1
  9
$DIMTOH
 70
     1
  9
$DIMSE1
 70
     0
  9
$DIMSE2
 70
     0
  9
$DIMTAD
 70
     0
  9
$DIMZIN
 70
     0
  9
$DIMBLK
  1

  9
$DIMASO
 70
     1
  9
$DIMSHO
 70
     1
  9
$DIMPOST
  1

  9
$DIMAPOST
  1

  9
$DIMALT
 70
     0
  9
$DIMALTD
 70
     2
  9
$DIMALTF
 40
25.4
  9
$DIMLFAC
 40
1.0
  9
$DIMTOFL
 70
     0
  9
$DIMTVP
 40
0.0
  9
$DIMTIX
 70
     0
  9
$DIMSOXD
 70
     0
  9
$DIMSAH
 70
     0
  9
$DIMBLK1
  1

  9
$DIMBLK2
  1

  9
$DIMSTYLE
  2
Standard
  9
$DIMCLRD
 70
     0
  9
$DIMCLRE
 70
     0
  9
$DIMCLRT
 70
     0
  9
$DIMTFAC
 40
1.0
  9
$DIMGAP
 40
0.09
  9
$DIMJUST
 70
     0
  9
$DIMSD1
 70
     0
  9
$DIMSD2
 70
     0
  9
$DIMTOLJ
 70
     1
  9
$DIMTZIN
 70
     0
  9
$DIMALTZ
 70
     0
  9
$DIMALTTZ
 70
     0
  9
$DIMUPT
 70
     0
  9
$DIMDEC
 70
     4
  9
$DIMTDEC
 70
     4
  9
$DIMALTU
 70
     2
  9
$DIMALTTD
 70
     2
  9
$DIMTXSTY
  7
Standard
  9
$DIMAUNIT
 70
     0
  9
$DIMADEC
 70
     0
  9
$DIMALTRND
 40
0.0
  9
$DIMAZIN
 70
     0
  9
$DIMDSEP
 70
    46
  9
$DIMATFIT
 70
     3
  9
$DIMFRAC
 70
     0
  9
$DIMLDRBLK
  1

  9
$DIMLUNIT
 70
     2
  9
$DIMLWD
 70
    -2
  9
$DIMLWE
 70
    -2
  9
$DIMTMOVE
 70
     0
  9
$DIMFXL
 40
1.0
  9
$DIMFXLON
 70
     0
  9
$DIMJOGANG
 40
0.7853981633974483
  9
$DIMTFILL
 70
     0
  9
$DIMTFILLCLR
 70
     0
  9
$DIMARCSYM
 70
     0
  9
$DIMLTYPE
  6

  9
$DIMLTEX1
  6

  9
$DIMLTEX2
  6

  9
$LUNITS
 70
     2
  9
$LUPREC
 70
     4
  9
$SKETCHINC
 40
0.1
  9
$FILLETRAD
 40
0.5
  9
$AUNITS
 70
     0
  9
$AUPREC
 70
     0
  9
$MENU
  1
.
  9
$ELEVATION
 40
0.0
  9
$PELEVATION
 40
0.0
  9
$THICKNESS
 40
0.0
  9
$LIMCHECK
 70
     0
  9
$CHAMFERA
 40
0.5
  9
$CHAMFERB
 40
0.5
  9
$CHAMFERC
 40
1.0
  9
$CHAMFERD
 40
0.0
  9
$SKPOLY
 70
     0
  9
$TDCREATE
 40
2458492.394572778
  9
$TDUCREATE
 40
2458492.227906111
  9
$TDUPDATE
 40
2458492.394572905
  9
$TDUUPDATE
 40
2458492.227906238
  9
$TDINDWG
 40
0.0000000116
  9
$TDUSRTIMER
 40
0.0000000116
  9
$USRTIMER
 70
     1
  9
$ANGBASE
 50
0.0
  9
$ANGDIR
 70
     0
  9
$PDMODE
 70
     0
  9
$PDSIZE
 40
0.0
  9
$PLINEWID
 40
0.0
  9
$SPLFRAME
 70
     0
  9
$SPLINETYPE
 70
     6
  9
$SPLINESEGS
 70
     8
  9
$HANDSEED
  5
99
  9
$SURFTAB1
 70
     6
  9
$SURFTAB2
 70
     6
  9
$SURFTYPE
 70
     6
  9
$SURFU
 70
     6
  9
$SURFV
 70
     6
  9
$UCSBASE
  2

  9
$UCSNAME
  2

  9
$UCSORG
 10
0.0
 20
0.0
 30
0.0
  9
$UCSXDIR
 10
1.0
 20
0.0
 30
0.0
  9
$UCSYDIR
 10
0.0
 20
1.0
 30
0.0
  9
$UCSORTHOREF
  2

  9
$UCSORTHOVIEW
 70
     0
  9
$UCSORGTOP
 10
0.0
 20
0.0
 30
0.0
  9
$UCSORGBOTTOM
 10
0.0
 20
0.0
 30
0.0
  9
$UCSORGLEFT
 10
0.0
 20
0.0
 30
0.0
  9
$UCSORGRIGHT
 10
0.0
 20
0.0
 30
0.0
  9
$UCSORGFRONT
 10
0.0
 20
0.0
 30
0.0
  9
$UCSORGBACK
 10
0.0
 20
0.0
 30
0.0
  9
$PUCSBASE
  2

  9
$PUCSNAME
  2

  9
$PUCSORG
 10
0.0
 20
0.0
 30
0.0
  9
$PUCSXDIR
 10
1.0
 20
0.0
 30
0.0
  9
$PUCSYDIR
 10
0.0
 20
1.0
 30
0.0
  9
$PUCSORTHOREF
  2

  9
$PUCSORTHOVIEW
 70
     0
  9
$PUCSORGTOP
 10
0.0
 20
0.0
 30
0.0
  9
$PUCSORGBOTTOM
 10
0.0
 20
0.0
 30
0.0
  9
$PUCSORGLEFT
 10
0.0
 20
0.0
 30
0.0
  9
$PUCSORGRIGHT
 10
0.0
 20
0.0
 30
0.0
  9
$PUCSORGFRONT
 10
0.0
 20
0.0
 30
0.0
  9
$PUCSORGBACK
 10
0.0
 20
0.0
 30
0.0
  9
$USERI1
 70
     0
  9
$USERI2
 70
     0
  9
$USERI3
 70
     0
  9
$USERI4
 70
     0
  9
$USERI5
 70
     0
  9
$USERR1
 40
0.0
  9
$USERR2
 40
0.0
  9
$USERR3
 40
0.0
  9
$USERR4
 40
0.0
  9
$USERR5
 40
0.0
  9
$WORLDVIEW
 70
     1
  9
$SHADEDGE
 70
     3
  9
$SHADEDIF
 70
    70
  9
$TILEMODE
 70
     1
  9
$MAXACTVP
 70
    64
  9
$PINSBASE
 10
0.0
 20
0.0
 30
0.0
  9
$PLIMCHECK
 70
     0
  9
$PEXTMIN
 10
1.000000000000000E+20
 20
1.000000000000000E+20
 30
1.000000000000000E+20
  9
$PEXTMAX
 10
-1.000000000000000E+20
 20
-1.000000000000000E+20
 30
-1.000000000000000E+20
  9
$PLIMMIN
 10
0.0
 20
0.0
  9
$PLIMMAX
 10
12.0
 20
9.0
  9
$UNITMODE
 70
     0
  9
$VISRETAIN
 70
     1
  9
$PLINEGEN
 70
     0
  9
$PSLTSCALE
 70
     1
  9
$TREEDEPTH
 70
  3020
  9
$CMLSTYLE
  2
Standard
  9
$CMLJUST
 70
     0
  9
$CMLSCALE
 40
1.0
  9
$PROXYGRAPHICS
 70
     1
  9
$MEASUREMENT
 70
     0
  9
$CELWEIGHT
370
    -1
  9
$ENDCAPS
280
     0
  9
$JOINSTYLE
280
     0
  9
$LWDISPLAY
290
     0
  9
$INSUNITS
 70
     4
  9
$HYPERLINKBASE
  1

  9
$STYLESHEET
  1

  9
$XEDIT
290
     1
  9
$CEPSNTYPE
380
     0
  9
$PSTYLEMODE
290
     1
  9
$FINGERPRINTGUID
  2
{55D0D6EB-3A3E-4D00-B013-2AC1BE375AB8}
  9
$VERSIONGUID
  2
{FAEB1C32-E019-11D5-929B-00C0DF256EC4}
  9
$EXTNAMES
290
     1
  9
$PSVPSCALE
 40
0.0
  9
$OLESTARTUP
290
     0
  9
$SORTENTS
280
   127
  9
$INDEXCTL
280
     0
  9
$HIDETEXT
280
     1
  9
$XCLIPFRAME
290
     0
  9
$HALOGAP
280
     0
  9
$OBSCOLOR
 70
   257
  9
$OBSLTYPE
280
     0
  9
$INTERSECTIONDISPLAY
280
     0
  9
$INTERSECTIONCOLOR
 70
   257
  9
$DIMASSOC
280
     2
  9
$PROJECTNAME
  1

  9
$CAMERADISPLAY
290
     0
  9
$LENSLENGTH
 40
50.0
  9
$CAMERAHEIGHT
 40
0.0
  9
$STEPSPERSEC
 40
2.0
  9
$STEPSIZE
 40
6.0
  9
$3DDWFPREC
 40
2.0
  9
$PSOLWIDTH
 40
0.25
  9
$PSOLHEIGHT
 40
4.0
  9
$LOFTANG1
 40
1.570796326794897
  9
$LOFTANG2
 40
1.570796326794897
  9
$LOFTMAG1
 40
0.0
  9
$LOFTMAG2
 40
0.0
  9
$LOFTPARAM
 70
     7
  9
$LOFTNORMALS
280
     1
  9
$LATITUDE
 40
37.795
  9
$LONGITUDE
 40
-122.394
  9
$NORTHDIRECTION
 40
0.0
  9
$TIMEZONE
 70
 -8000
  9
$LIGHTGLYPHDISPLAY
280
     1
  9
$TILEMODELIGHTSYNCH
280
     1
  9
$SOLIDHIST
280
     1
  9
$SHOWHIST
280
     1
  9
$DWFFRAME
280
     2
  9
$DGNFRAME
280
     2
  9
$REALWORLDSCALE
290
     1
  9
$INTERFERECOLOR
 62
   256
  9
$CSHADOW
280
     0
  9
$SHADOWPLANELOCATION
 40
0.0
  0
ENDSEC
  0
SECTION
  2
CLASSES
  0
CLASS
  1
ACDBDICTIONARYWDFLT
  2
AcDbDictionaryWithDefault
  3
ObjectDBX Classes
 90
        0
 91
        4
280
     0
281
     0
  0
CLASS
  1
VISUALSTYLE
  2
AcDbVisualStyle
  3
ObjectDBX Classes
 90
     4095
 91
        4
280
     0
281
     0
  0
CLASS
  1
MATERIAL
  2
AcDbMaterial
  3
ObjectDBX Classes
 90
     1153
 91
        4
280
     0
281
     0
  0
ENDSEC
  0
SECTION
  2
TABLES
  0
TABLE
  2
VPORT
  5
8
330
0
100
AcDbSymbolTable
 70
     1
  0
VPORT
  5
29
330
8
100
AcDbSymbolTableRecord
100
AcDbViewportTableRecord
  2
*Active
 70
     0
 10
0.0
 20
0.0
 11
1.0
 21
1.0
 12
10.42990654205607
 22
4.5
 13
0.0
 23
0.0
 14
0.5
 24
0.5
 15
0.5
 25
0.5
 16
0.0
 26
0.0
 36
1.0
 17
0.0
 27
0.0
 37
0.0
 40
9.0
 41
1.972972972850329
 42
50.0
 43
0.0
 44
0.0
 50
0.0
 51
0.0
 71
     0
 72
   100
 73
     1
 74
     3
 75
     0
 76
     0
 77
     0
 78
     0
281
     0
 65
     1
110
0.0
120
0.0
130
0.0
111
1.0
121
0.0
131
0.0
112
0.0
122
1.0
132
0.0
 79
     0
146
0.0
 60
     3
 61
     5
292
     1
282
     1
141
0.0
142
0.0
 63
   250
  0
ENDTAB
  0
TABLE
  2
LTYPE
  5
5
330
0
100
AcDbSymbolTable
 70
     1
  0
LTYPE
  5
14
330
5
100
AcDbSymbolTableRecord
100
AcDbLinetypeTableRecord
  2
ByBlock
 70
     0
  3

 72
    65
 73
     0
 40
0.0
  0
LTYPE
  5
15
330
5
100
AcDbSymbolTableRecord
100
AcDbLinetypeTableRecord
  2
ByLayer
 70
     0
  3

 72
    65
 73
     0
 40
0.0
  0
LTYPE
  5
16
330
5
100
AcDbSymbolTableRecord
100
AcDbLinetypeTableRecord
  2
Continuous
 70
     0
  3
Solid line
 72
    65
 73
     0
 40
0.0
  0
ENDTAB
  0
TABLE
  2
LAYER
  5
2
330
0
100
AcDbSymbolTable
 70
     2
  0
LAYER
  5
10
330
2
100
AcDbSymbolTableRecord
100
AcDbLayerTableRecord
  2
0
 70
     0
 62
     7
  6
Continuous
370
    -3
390
F
347
3E
  0
LAYER
  5
40
330
2
100
AcDbSymbolTableRecord
100
AcDbLayerTableRecord
  2
layer 1
 70
     0
 62
     7
  6
Continuous
370
    -3
390
F
347
3E
  0
ENDTAB
  0
TABLE
  2
STYLE
  5
3
330
0
100
AcDbSymbolTable
 70
     1
  0
STYLE
  5
11
330
3
100
AcDbSymbolTableRecord
100
AcDbTextStyleTableRecord
  2
Standard
 70
     0
 40
0.0
 41
1.0
 50
0.0
 71
     0
 42
0.2
  3
txt
  4

  0
ENDTAB
  0
TABLE
  2
VIEW
  5
6
330
0
100
AcDbSymbolTable
 70
     0
  0
ENDTAB
  0
TABLE
  2
UCS
  5
7
330
0
100
AcDbSymbolTable
 70
     0
  0
ENDTAB
  0
TABLE
  2
APPID
  5
9
330
0
100
AcDbSymbolTable
 70
     2
  0
APPID
  5
12
330
9
100
AcDbSymbolTableRecord
100
AcDbRegAppTableRecord
  2
ACAD
 70
     0
  0
APPID
  5
3F
330
9
100
AcDbSymbolTableRecord
100
AcDbRegAppTableRecord
  2
ODA
 70
     0
  0
ENDTAB
  0
TABLE
  2
DIMSTYLE
  5
A
330
0
100
AcDbSymbolTable
 70
     1
100
AcDbDimStyleTable
  0
DIMSTYLE
105
27
330
A
100
AcDbSymbolTableRecord
100
AcDbDimStyleTableRecord
  2
Standard
 70
     0
178
     0
340
11
  0
ENDTAB
  0
TABLE
  2
BLOCK_RECORD
  5
1
330
0
100
AcDbSymbolTable
 70
     1
  0
BLOCK_RECORD
  5
1F
330
1
100
AcDbSymbolTableRecord
100
AcDbBlockTableRecord
  2
*Model_Space
340
22
 70
     0
280
     1
281
     0
  0
BLOCK_RECORD
  5
1B
330
1
100
AcDbSymbolTableRecord
100
AcDbBlockTableRecord
  2
*Paper_Space
340
1E
 70
     0
280
     1
281
     0
  0
BLOCK_RECORD
  5
23
330
1
100
AcDbSymbolTableRecord
100
AcDbBlockTableRecord
  2
*Paper_Space0
340
26
 70
     0
280
     1
281
     0
  0
ENDTAB
  0
ENDSEC
  0
SECTION
  2
BLOCKS
  0
BLOCK
  5
20
330
1F
100
AcDbEntity
  8
0
100
AcDbBlockBegin
  2
*Model_Space
 70
     0
 10
0.0
 20
0.0
 30
0.0
  3
*Model_Space
  1

  0
ENDBLK
  5
21
330
1F
100
AcDbEntity
  8
0
100
AcDbBlockEnd
  0
BLOCK
  5
1C
330
1B
100
AcDbEntity
 67
     1
  8
0
100
AcDbBlockBegin
  2
*Paper_Space
 70
     0
 10
0.0
 20
0.0
 30
0.0
  3
*Paper_Space
  1

  0
ENDBLK
  5
1D
330
1B
100
AcDbEntity
 67
     1
  8
0
100
AcDbBlockEnd
  0
BLOCK
  5
24
330
23
100
AcDbEntity
  8
0
100
AcDbBlockBegin
  2
*Paper_Space0
 70
     0
 10
0.0
 20
0.0
 30
0.0
  3
*Paper_Space0
  1

  0
ENDBLK
  5
25
330
23
100
AcDbEntity
  8
0
100
AcDbBlockEnd
  0
ENDSEC
  0
SECTION
  2
ENTITIES
  0
SPLINE
  5
41
330
1F
100
AcDbEntity
  8
layer 1
100
AcDbSpline
210
0.0
220
0.0
230
1.0
 70
    11
 71
     3
 72
    20
 73
    16
 74
     0
 42
0.0000000001
 43
0.0000000001
 12
1.0
 22
0.0
 32
0.0
 13
1.0
 23
0.0
 33
0.0
 40
0.0
 40
0.0
 40
0.0
 40
0.0
 40
0.2
 40
0.2
 40
0.2
 40
0.2
 40
0.4
 40
0.4
 40
0.4
 40
0.4
 40
0.6
 40
0.6
 40
0.6
 40
0.6
 40
1.0
 40
1.0
 40
1.0
 40
1.0
 10
87.0683
 20
131.8576
 30
0.0
 10
87.0683
 20
131.8576
 30
0.0
 10
196.3244
 20
131.8576
 30
0.0
 10
196.3244
 20
131.8576
 30
0.0
 10
196.3244
 20
131.8576
 30
0.0
 10
196.3244
 20
131.8576
 30
0.0
 10
196.3244
 20
-106.5857
 30
0.0
 10
196.3244
 20
-106.5857
 30
0.0
 10
196.3244
 20
-106.5857
 30
0.0
 10
196.3244
 20
-106.5857
 30
0.0
 10
87.0683
 20
-106.5857
 30
0.0
 10
87.0683
 20
-106.5857
 30
0.0
 10
87.0683
 20
-106.5857
 30
0.0
 10
87.0683
 20
-106.5857
 30
0.0
 10
87.0683
 20
131.8576
 30
0.0
 10
87.0683
 20
131.8576
 30
0.0
  0
SPLINE
  5
42
330
1F
100
AcDbEntity
  8
layer 1
 62
     7
100
AcDbSpline
210
0.0
220
0.0
230
1.0
 70
    11
 71
     3
 72
    68
 73
    64
 74
     0
 42
0.0000000001
 43
0.0000000001
 12
1.0
 22
0.0
 32
0.0
 13
1.0
 23
0.0
 33
0.0
 40
0.0
 40
0.0
 40
0.0
 40
0.0
 40
0.0588235294117647
 40
0.0588235294117647
 40
0.0588235294117647
 40
0.0588235294117647
 40
0.1176470588235294
 40
0.1176470588235294
 40
0.1176470588235294
 40
0.1176470588235294
 40
0.1764705882352941
 40
0.1764705882352941
 40
0.1764705882352941
 40
0.1764705882352941
 40
0.2352941176470588
 40
0.2352941176470588
 40
0.2352941176470588
 40
0.2352941176470588
 40
0.2941176470588235
 40
0.2941176470588235
 40
0.2941176470588235
 40
0.2941176470588235
 40
0.3529411764705883
 40
0.3529411764705883
 40
0.3529411764705883
 40
0.3529411764705883
 40
0.4117647058823529
 40
0.4117647058823529
 40
0.4117647058823529
 40
0.4117647058823529
 40
0.4705882352941176
 40
0.4705882352941176
 40
0.4705882352941176
 40
0.4705882352941176
 40
0.5294117647058824
 40
0.5294117647058824
 40
0.5294117647058824
 40
0.5294117647058824
 40
0.5882352941176471
 40
0.5882352941176471
 40
0.5882352941176471
 40
0.5882352941176471
 40
0.6470588235294118
 40
0.6470588235294118
 40
0.6470588235294118
 40
0.6470588235294118
 40
0.7058823529411765
 40
0.7058823529411765
 40
0.7058823529411765
 40
0.7058823529411765
 40
0.7647058823529411
 40
0.7647058823529411
 40
0.7647058823529411
 40
0.7647058823529411
 40
0.8235294117647058
 40
0.8235294117647058
 40
0.8235294117647058
 40
0.8235294117647058
 40
0.8823529411764706
 40
0.8823529411764706
 40
0.8823529411764706
 40
0.8823529411764706
 40
1.0
 40
1.0
 40
1.0
 40
1.0
 10
150.0608
 20
-59.994
 30
0.0
 10
150.0608
 20
-59.994
 30
0.0
 10
145.2163
 20
-60.0105
 30
0.0
 10
145.2163
 20
-60.0105
 30
0.0
 10
145.2163
 20
-60.0105
 30
0.0
 10
145.2163
 20
-60.0105
 30
0.0
 10
141.7791
 20
-63.4244
 30
0.0
 10
141.7791
 20
-63.4244
 30
0.0
 10
141.7791
 20
-63.4244
 30
0.0
 10
141.7791
 20
-63.4244
 30
0.0
 10
138.3419
 20
-60.0105
 30
0.0
 10
138.3419
 20
-60.0105
 30
0.0
 10
138.3419
 20
-60.0105
 30
0.0
 10
138.3419
 20
-60.0105
 30
0.0
 10
133.4974
 20
-59.994
 30
0.0
 10
133.4974
 20
-59.994
 30
0.0
 10
133.4974
 20
-59.994
 30
0.0
 10
133.4974
 20
-59.994
 30
0.0
 10
133.4809
 20
-55.1495
 30
0.0
 10
133.4809
 20
-55.1495
 30
0.0
 10
133.4809
 20
-55.1495
 30
0.0
 10
133.4809
 20
-55.1495
 30
0.0
 10
130.067
 20
-51.7123
 30
0.0
 10
130.067
 20
-51.7123
 30
0.0
 10
130.067
 20
-51.7123
 30
0.0
 10
130.067
 20
-51.7123
 30
0.0
 10
133.4809
 20
-48.2751
 30
0.0
 10
133.4809
 20
-48.2751
 30
0.0
 10
133.4809
 20
-48.2751
 30
0.0
 10
133.4809
 20
-48.2751
 30
0.0
 10
133.4974
 20
-43.4307
 30
0.0
 10
133.4974
 20
-43.4307
 30
0.0
 10
133.4974
 20
-43.4307
 30
0.0
 10
133.4974
 20
-43.4307
 30
0.0
 10
138.3419
 20
-43.4142
 30
0.0
 10
138.3419
 20
-43.4142
 30
0.0
 10
138.3419
 20
-43.4142
 30
0.0
 10
138.3419
 20
-43.4142
 30
0.0
 10
141.7791
 20
-40.0002
 30
0.0
 10
141.7791
 20
-40.0002
 30
0.0
 10
141.7791
 20
-40.0002
 30
0.0
 10
141.7791
 20
-40.0002
 30
0.0
 10
145.2163
 20
-43.4142
 30
0.0
 10
145.2163
 20
-43.4142
 30
0.0
 10
145.2163
 20
-43.4142
 30
0.0
 10
145.2163
 20
-43.4142
 30
0.0
 10
150.0608
 20
-43.4307
 30
0.0
 10
150.0608
 20
-43.4307
 30
0.0
 10
150.0608
 20
-43.4307
 30
0.0
 10
150.0608
 20
-43.4307
 30
0.0
 10
150.0773
 20
-48.2751
 30
0.0
 10
150.0773
 20
-48.2751
 30
0.0
 10
150.0773
 20
-48.2751
 30
0.0
 10
150.0773
 20
-48.2751
 30
0.0
 10
153.4912
 20
-51.7123
 30
0.0
 10
153.4912
 20
-51.7123
 30
0.0
 10
153.4912
 20
-51.7123
 30
0.0
 10
153.4912
 20
-51.7123
 30
0.0
 10
150.0773
 20
-55.1495
 30
0.0
 10
150.0773
 20
-55.1495
 30
0.0
 10
150.0773
 20
-55.1495
 30
0.0
 10
150.0773
 20
-55.1495
 30
0.0
 10
150.0608
 20
-59.994
 30
0.0
 10
150.0608
 20
-59.994
 30
0.0
  0
SPLINE
  5
43
330
1F
100
AcDbEntity
  8
layer 1
 62
     7
100
AcDbSpline
210
0.0
220
0.0
230
1.0
 70
    11
 71
     3
 72
    68
 73
    64
 74
     0
 42
0.0000000001
 43
0.0000000001
 12
1.0
 22
0.0
 32
0.0
 13
1.0
 23
0.0
 33
0.0
 40
0.0
 40
0.0
 40
0.0
 40
0.0
 40
0.0588235294117647
 40
0.0588235294117647
 40
0.0588235294117647
 40
0.0588235294117647
 40
0.1176470588235294
 40
0.1176470588235294
 40
0.1176470588235294
 40
0.1176470588235294
 40
0.1764705882352941
 40
0.1764705882352941
 40
0.1764705882352941
 40
0.1764705882352941
 40
0.2352941176470588
 40
0.2352941176470588
 40
0.2352941176470588
 40
0.2352941176470588
 40
0.2941176470588235
 40
0.2941176470588235
 40
0.2941176470588235
 40
0.2941176470588235
 40
0.3529411764705883
 40
0.3529411764705883
 40
0.3529411764705883
 40
0.3529411764705883
 40
0.4117647058823529
 40
0.4117647058823529
 40
0.4117647058823529
 40
0.4117647058823529
 40
0.4705882352941176
 40
0.4705882352941176
 40
0.4705882352941176
 40
0.4705882352941176
 40
0.5294117647058824
 40
0.5294117647058824
 40
0.5294117647058824
 40
0.5294117647058824
 40
0.5882352941176471
 40
0.5882352941176471
 40
0.5882352941176471
 40
0.5882352941176471
 40
0.6470588235294118
 40
0.6470588235294118
 40
0.6470588235294118
 40
0.6470588235294118
 40
0.7058823529411765
 40
0.7058823529411765
 40
0.7058823529411765
 40
0.7058823529411765
 40
0.7647058823529411
 40
0.7647058823529411
 40
0.7647058823529411
 40
0.7647058823529411
 40
0.8235294117647058
 40
0.8235294117647058
 40
0.8235294117647058
 40
0.8235294117647058
 40
0.8823529411764706
 40
0.8823529411764706
 40
0.8823529411764706
 40
0.8823529411764706
 40
1.0
 40
1.0
 40
1.0
 40
1.0
 10
114.0549
 20
-39.162
 30
0.0
 10
114.0549
 20
-39.162
 30
0.0
 10
110.4579
 20
-35.5781
 30
0.0
 10
110.4579
 20
-35.5781
 30
0.0
 10
110.4579
 20
-35.5781
 30
0.0
 10
110.4579
 20
-35.5781
 30
0.0
 10
114.0549
 20
-31.9772
 30
0.0
 10
114.0549
 20
-31.9772
 30
0.0
 10
114.0549
 20
-31.9772
 30
0.0
 10
114.0549
 20
-31.9772
 30
0.0
 10
121.6508
 20
-31.9772
 30
0.0
 10
121.6508
 20
-31.9772
 30
0.0
 10
121.6508
 20
-31.9772
 30
0.0
 10
121.6508
 20
-31.9772
 30
0.0
 10
121.6757
 20
-24.3564
 30
0.0
 10
121.6757
 20
-24.3564
 30
0.0
 10
121.6757
 20
-24.3564
 30
0.0
 10
121.6757
 20
-24.3564
 30
0.0
 10
125.2596
 20
-20.7594
 30
0.0
 10
125.2596
 20
-20.7594
 30
0.0
 10
125.2596
 20
-20.7594
 30
0.0
 10
125.2596
 20
-20.7594
 30
0.0
 10
128.8605
 20
-24.3564
 30
0.0
 10
128.8605
 20
-24.3564
 30
0.0
 10
128.8605
 20
-24.3564
 30
0.0
 10
128.8605
 20
-24.3564
 30
0.0
 10
128.8586
 20
-31.9955
 30
0.0
 10
128.8586
 20
-31.9955
 30
0.0
 10
128.8586
 20
-31.9955
 30
0.0
 10
128.8586
 20
-31.9955
 30
0.0
 10
136.298
 20
-31.9772
 30
0.0
 10
136.298
 20
-31.9772
 30
0.0
 10
136.298
 20
-31.9772
 30
0.0
 10
136.298
 20
-31.9772
 30
0.0
 10
140.0784
 20
-35.5781
 30
0.0
 10
140.0784
 20
-35.5781
 30
0.0
 10
140.0784
 20
-35.5781
 30
0.0
 10
140.0784
 20
-35.5781
 30
0.0
 10
136.298
 20
-39.162
 30
0.0
 10
136.298
 20
-39.162
 30
0.0
 10
136.298
 20
-39.162
 30
0.0
 10
136.298
 20
-39.162
 30
0.0
 10
128.8586
 20
-39.1482
 30
0.0
 10
128.8586
 20
-39.1482
 30
0.0
 10
128.8586
 20
-39.1482
 30
0.0
 10
128.8586
 20
-39.1482
 30
0.0
 10
128.8605
 20
-46.5994
 30
0.0
 10
128.8605
 20
-46.5994
 30
0.0
 10
128.8605
 20
-46.5994
 30
0.0
 10
128.8605
 20
-46.5994
 30
0.0
 10
125.2596
 20
-50.3798
 30
0.0
 10
125.2596
 20
-50.3798
 30
0.0
 10
125.2596
 20
-50.3798
 30
0.0
 10
125.2596
 20
-50.3798
 30
0.0
 10
121.6757
 20
-46.5994
 30
0.0
 10
121.6757
 20
-46.5994
 30
0.0
 10
121.6757
 20
-46.5994
 30
0.0
 10
121.6757
 20
-46.5994
 30
0.0
 10
121.6692
 20
-39.2033
 30
0.0
 10
121.6692
 20
-39.2033
 30
0.0
 10
121.6692
 20
-39.2033
 30
0.0
 10
121.6692
 20
-39.2033
 30
0.0
 10
114.0549
 20
-39.162
 30
0.0
 10
114.0549
 20
-39.162
 30
0.0
  0
SPLINE
  5
44
330
1F
100
AcDbEntity
  8
layer 1
 62
     7
100
AcDbSpline
210
0.0
220
0.0
230
1.0
 70
    11
 71
     3
 72
    40
 73
    36
 74
     0
 42
0.0000000001
 43
0.0000000001
 12
1.0
 22
0.0
 32
0.0
 13
1.0
 23
0.0
 33
0.0
 40
0.0
 40
0.0
 40
0.0
 40
0.0
 40
0.1
 40
0.1
 40
0.1
 40
0.1
 40
0.2
 40
0.2
 40
0.2
 40
0.2
 40
0.3
 40
0.3
 40
0.3
 40
0.3
 40
0.4
 40
0.4
 40
0.4
 40
0.4
 40
0.5
 40
0.5
 40
0.5
 40
0.5
 40
0.6
 40
0.6
 40
0.6
 40
0.6
 40
0.7
 40
0.7
 40
0.7
 40
0.7
 40
0.8
 40
0.8
 40
0.8
 40
0.8
 40
1.0
 40
1.0
 40
1.0
 40
1.0
 10
92.8262
 20
-20.7594
 30
0.0
 10
92.8262
 20
-20.7594
 30
0.0
 10
96.4271
 20
-24.3564
 30
0.0
 10
96.4271
 20
-24.3564
 30
0.0
 10
96.4271
 20
-24.3564
 30
0.0
 10
96.4271
 20
-24.3564
 30
0.0
 10
96.4252
 20
-31.9955
 30
0.0
 10
96.4252
 20
-31.9955
 30
0.0
 10
96.4252
 20
-31.9955
 30
0.0
 10
96.4252
 20
-31.9955
 30
0.0
 10
103.8645
 20
-31.9772
 30
0.0
 10
103.8645
 20
-31.9772
 30
0.0
 10
103.8645
 20
-31.9772
 30
0.0
 10
103.8645
 20
-31.9772
 30
0.0
 10
107.6449
 20
-35.5781
 30
0.0
 10
107.6449
 20
-35.5781
 30
0.0
 10
107.6449
 20
-35.5781
 30
0.0
 10
107.6449
 20
-35.5781
 30
0.0
 10
103.8645
 20
-39.162
 30
0.0
 10
103.8645
 20
-39.162
 30
0.0
 10
103.8645
 20
-39.162
 30
0.0
 10
103.8645
 20
-39.162
 30
0.0
 10
96.4252
 20
-39.1482
 30
0.0
 10
96.4252
 20
-39.1482
 30
0.0
 10
96.4252
 20
-39.1482
 30
0.0
 10
96.4252
 20
-39.1482
 30
0.0
 10
96.4271
 20
-46.5994
 30
0.0
 10
96.4271
 20
-46.5994
 30
0.0
 10
96.4271
 20
-46.5994
 30
0.0
 10
96.4271
 20
-46.5994
 30
0.0
 10
92.8262
 20
-50.3798
 30
0.0
 10
92.8262
 20
-50.3798
 30
0.0
 10
92.8262
 20
-50.3798
 30
0.0
 10
92.8262
 20
-50.3798
 30
0.0
 10
92.8262
 20
-20.7594
 30
0.0
 10
92.8262
 20
-20.7594
 30
0.0
  0
SPLINE
  5
45
330
1F
100
AcDbEntity
  8
layer 1
 62
     7
100
AcDbSpline
210
0.0
220
0.0
230
1.0
 70
    11
 71
     3
 72
    40
 73
    36
 74
     0
 42
0.0000000001
 43
0.0000000001
 12
1.0
 22
0.0
 32
0.0
 13
1.0
 23
0.0
 33
0.0
 40
0.0
 40
0.0
 40
0.0
 40
0.0
 40
0.1
 40
0.1
 40
0.1
 40
0.1
 40
0.2
 40
0.2
 40
0.2
 40
0.2
 40
0.3
 40
0.3
 40
0.3
 40
0.3
 40
0.4
 40
0.4
 40
0.4
 40
0.4
 40
0.5
 40
0.5
 40
0.5
 40
0.5
 40
0.6
 40
0.6
 40
0.6
 40
0.6
 40
0.7
 40
0.7
 40
0.7
 40
0.7
 40
0.8
 40
0.8
 40
0.8
 40
0.8
 40
1.0
 40
1.0
 40
1.0
 40
1.0
 10
190.5666
 20
-20.7594
 30
0.0
 10
190.5666
 20
-20.7594
 30
0.0
 10
186.9658
 20
-24.3564
 30
0.0
 10
186.9658
 20
-24.3564
 30
0.0
 10
186.9658
 20
-24.3564
 30
0.0
 10
186.9658
 20
-24.3564
 30
0.0
 10
186.9676
 20
-31.9955
 30
0.0
 10
186.9676
 20
-31.9955
 30
0.0
 10
186.9676
 20
-31.9955
 30
0.0
 10
186.9676
 20
-31.9955
 30
0.0
 10
179.5283
 20
-31.9772
 30
0.0
 10
179.5283
 20
-31.9772
 30
0.0
 10
179.5283
 20
-31.9772
 30
0.0
 10
179.5283
 20
-31.9772
 30
0.0
 10
175.7479
 20
-35.5781
 30
0.0
 10
175.7479
 20
-35.5781
 30
0.0
 10
175.7479
 20
-35.5781
 30
0.0
 10
175.7479
 20
-35.5781
 30
0.0
 10
179.5283
 20
-39.162
 30
0.0
 10
179.5283
 20
-39.162
 30
0.0
 10
179.5283
 20
-39.162
 30
0.0
 10
179.5283
 20
-39.162
 30
0.0
 10
186.9676
 20
-39.1482
 30
0.0
 10
186.9676
 20
-39.1482
 30
0.0
 10
186.9676
 20
-39.1482
 30
0.0
 10
186.9676
 20
-39.1482
 30
0.0
 10
186.9658
 20
-46.5994
 30
0.0
 10
186.9658
 20
-46.5994
 30
0.0
 10
186.9658
 20
-46.5994
 30
0.0
 10
186.9658
 20
-46.5994
 30
0.0
 10
190.5666
 20
-50.3798
 30
0.0
 10
190.5666
 20
-50.3798
 30
0.0
 10
190.5666
 20
-50.3798
 30
0.0
 10
190.5666
 20
-50.3798
 30
0.0
 10
190.5666
 20
-20.7594
 30
0.0
 10
190.5666
 20
-20.7594
 30
0.0
  0
SPLINE
  5
46
330
1F
100
AcDbEntity
  8
layer 1
 62
     7
100
AcDbSpline
210
0.0
220
0.0
230
1.0
 70
    11
 71
     3
 72
    68
 73
    64
 74
     0
 42
0.0000000001
 43
0.0000000001
 12
1.0
 22
0.0
 32
0.0
 13
1.0
 23
0.0
 33
0.0
 40
0.0
 40
0.0
 40
0.0
 40
0.0
 40
0.0588235294117647
 40
0.0588235294117647
 40
0.0588235294117647
 40
0.0588235294117647
 40
0.1176470588235294
 40
0.1176470588235294
 40
0.1176470588235294
 40
0.1176470588235294
 40
0.1764705882352941
 40
0.1764705882352941
 40
0.1764705882352941
 40
0.1764705882352941
 40
0.2352941176470588
 40
0.2352941176470588
 40
0.2352941176470588
 40
0.2352941176470588
 40
0.2941176470588235
 40
0.2941176470588235
 40
0.2941176470588235
 40
0.2941176470588235
 40
0.3529411764705883
 40
0.3529411764705883
 40
0.3529411764705883
 40
0.3529411764705883
 40
0.4117647058823529
 40
0.4117647058823529
 40
0.4117647058823529
 40
0.4117647058823529
 40
0.4705882352941176
 40
0.4705882352941176
 40
0.4705882352941176
 40
0.4705882352941176
 40
0.5294117647058824
 40
0.5294117647058824
 40
0.5294117647058824
 40
0.5294117647058824
 40
0.5882352941176471
 40
0.5882352941176471
 40
0.5882352941176471
 40
0.5882352941176471
 40
0.6470588235294118
 40
0.6470588235294118
 40
0.6470588235294118
 40
0.6470588235294118
 40
0.7058823529411765
 40
0.7058823529411765
 40
0.7058823529411765
 40
0.7058823529411765
 40
0.7647058823529411
 40
0.7647058823529411
 40
0.7647058823529411
 40
0.7647058823529411
 40
0.8235294117647058
 40
0.8235294117647058
 40
0.8235294117647058
 40
0.8235294117647058
 40
0.8823529411764706
 40
0.8823529411764706
 40
0.8823529411764706
 40
0.8823529411764706
 40
1.0
 40
1.0
 40
1.0
 40
1.0
 10
146.9785
 20
-39.162
 30
0.0
 10
146.9785
 20
-39.162
 30
0.0
 10
143.3815
 20
-35.5781
 30
0.0
 10
143.3815
 20
-35.5781
 30
0.0
 10
143.3815
 20
-35.5781
 30
0.0
 10
143.3815
 20
-35.5781
 30
0.0
 10
146.9785
 20
-31.9772
 30
0.0
 10
146.9785
 20
-31.9772
 30
0.0
 10
146.9785
 20
-31.9772
 30
0.0
 10
146.9785
 20
-31.9772
 30
0.0
 10
154.5744
 20
-31.9772
 30
0.0
 10
154.5744
 20
-31.9772
 30
0.0
 10
154.5744
 20
-31.9772
 30
0.0
 10
154.5744
 20
-31.9772
 30
0.0
 10
154.5993
 20
-24.3564
 30
0.0
 10
154.5993
 20
-24.3564
 30
0.0
 10
154.5993
 20
-24.3564
 30
0.0
 10
154.5993
 20
-24.3564
 30
0.0
 10
158.1832
 20
-20.7594
 30
0.0
 10
158.1832
 20
-20.7594
 30
0.0
 10
158.1832
 20
-20.7594
 30
0.0
 10
158.1832
 20
-20.7594
 30
0.0
 10
161.7841
 20
-24.3564
 30
0.0
 10
161.7841
 20
-24.3564
 30
0.0
 10
161.7841
 20
-24.3564
 30
0.0
 10
161.7841
 20
-24.3564
 30
0.0
 10
161.7822
 20
-31.9955
 30
0.0
 10
161.7822
 20
-31.9955
 30
0.0
 10
161.7822
 20
-31.9955
 30
0.0
 10
161.7822
 20
-31.9955
 30
0.0
 10
169.2215
 20
-31.9772
 30
0.0
 10
169.2215
 20
-31.9772
 30
0.0
 10
169.2215
 20
-31.9772
 30
0.0
 10
169.2215
 20
-31.9772
 30
0.0
 10
173.0019
 20
-35.5781
 30
0.0
 10
173.0019
 20
-35.5781
 30
0.0
 10
173.0019
 20
-35.5781
 30
0.0
 10
173.0019
 20
-35.5781
 30
0.0
 10
169.2215
 20
-39.162
 30
0.0
 10
169.2215
 20
-39.162
 30
0.0
 10
169.2215
 20
-39.162
 30
0.0
 10
169.2215
 20
-39.162
 30
0.0
 10
161.7822
 20
-39.1482
 30
0.0
 10
161.7822
 20
-39.1482
 30
0.0
 10
161.7822
 20
-39.1482
 30
0.0
 10
161.7822
 20
-39.1482
 30
0.0
 10
161.7841
 20
-46.5994
 30
0.0
 10
161.7841
 20
-46.5994
 30
0.0
 10
161.7841
 20
-46.5994
 30
0.0
 10
161.7841
 20
-46.5994
 30
0.0
 10
158.1832
 20
-50.3798
 30
0.0
 10
158.1832
 20
-50.3798
 30
0.0
 10
158.1832
 20
-50.3798
 30
0.0
 10
158.1832
 20
-50.3798
 30
0.0
 10
154.5993
 20
-46.5994
 30
0.0
 10
154.5993
 20
-46.5994
 30
0.0
 10
154.5993
 20
-46.5994
 30
0.0
 10
154.5993
 20
-46.5994
 30
0.0
 10
154.5928
 20
-39.2033
 30
0.0
 10
154.5928
 20
-39.2033
 30
0.0
 10
154.5928
 20
-39.2033
 30
0.0
 10
154.5928
 20
-39.2033
 30
0.0
 10
146.9785
 20
-39.162
 30
0.0
 10
146.9785
 20
-39.162
 30
0.0
  0
SPLINE
  5
47
330
1F
100
AcDbEntity
  8
layer 1
 62
     7
100
AcDbSpline
210
0.0
220
0.0
230
1.0
 70
    11
 71
     3
 72
    68
 73
    64
 74
     0
 42
0.0000000001
 43
0.0000000001
 12
1.0
 22
0.0
 32
0.0
 13
1.0
 23
0.0
 33
0.0
 40
0.0
 40
0.0
 40
0.0
 40
0.0
 40
0.0588235294117647
 40
0.0588235294117647
 40
0.0588235294117647
 40
0.0588235294117647
 40
0.1176470588235294
 40
0.1176470588235294
 40
0.1176470588235294
 40
0.1176470588235294
 40
0.1764705882352941
 40
0.1764705882352941
 40
0.1764705882352941
 40
0.1764705882352941
 40
0.2352941176470588
 40
0.2352941176470588
 40
0.2352941176470588
 40
0.2352941176470588
 40
0.2941176470588235
 40
0.2941176470588235
 40
0.2941176470588235
 40
0.2941176470588235
 40
0.3529411764705883
 40
0.3529411764705883
 40
0.3529411764705883
 40
0.3529411764705883
 40
0.4117647058823529
 40
0.4117647058823529
 40
0.4117647058823529
 40
0.4117647058823529
 40
0.4705882352941176
 40
0.4705882352941176
 40
0.4705882352941176
 40
0.4705882352941176
 40
0.5294117647058824
 40
0.5294117647058824
 40
0.5294117647058824
 40
0.5294117647058824
 40
0.5882352941176471
 40
0.5882352941176471
 40
0.5882352941176471
 40
0.5882352941176471
 40
0.6470588235294118
 40
0.6470588235294118
 40
0.6470588235294118
 40
0.6470588235294118
 40
0.7058823529411765
 40
0.7058823529411765
 40
0.7058823529411765
 40
0.7058823529411765
 40
0.7647058823529411
 40
0.7647058823529411
 40
0.7647058823529411
 40
0.7647058823529411
 40
0.8235294117647058
 40
0.8235294117647058
 40
0.8235294117647058
 40
0.8235294117647058
 40
0.8823529411764706
 40
0.8823529411764706
 40
0.8823529411764706
 40
0.8823529411764706
 40
1.0
 40
1.0
 40
1.0
 40
1.0
 10
117.3823
 20
-59.994
 30
0.0
 10
117.3823
 20
-59.994
 30
0.0
 10
112.5378
 20
-60.0105
 30
0.0
 10
112.5378
 20
-60.0105
 30
0.0
 10
112.5378
 20
-60.0105
 30
0.0
 10
112.5378
 20
-60.0105
 30
0.0
 10
109.1006
 20
-63.4244
 30
0.0
 10
109.1006
 20
-63.4244
 30
0.0
 10
109.1006
 20
-63.4244
 30
0.0
 10
109.1006
 20
-63.4244
 30
0.0
 10
105.6634
 20
-60.0105
 30
0.0
 10
105.6634
 20
-60.0105
 30
0.0
 10
105.6634
 20
-60.0105
 30
0.0
 10
105.6634
 20
-60.0105
 30
0.0
 10
100.8189
 20
-59.994
 30
0.0
 10
100.8189
 20
-59.994
 30
0.0
 10
100.8189
 20
-59.994
 30
0.0
 10
100.8189
 20
-59.994
 30
0.0
 10
100.8024
 20
-55.1495
 30
0.0
 10
100.8024
 20
-55.1495
 30
0.0
 10
100.8024
 20
-55.1495
 30
0.0
 10
100.8024
 20
-55.1495
 30
0.0
 10
97.3885
 20
-51.7123
 30
0.0
 10
97.3885
 20
-51.7123
 30
0.0
 10
97.3885
 20
-51.7123
 30
0.0
 10
97.3885
 20
-51.7123
 30
0.0
 10
100.8024
 20
-48.2751
 30
0.0
 10
100.8024
 20
-48.2751
 30
0.0
 10
100.8024
 20
-48.2751
 30
0.0
 10
100.8024
 20
-48.2751
 30
0.0
 10
100.8189
 20
-43.4307
 30
0.0
 10
100.8189
 20
-43.4307
 30
0.0
 10
100.8189
 20
-43.4307
 30
0.0
 10
100.8189
 20
-43.4307
 30
0.0
 10
105.6634
 20
-43.4142
 30
0.0
 10
105.6634
 20
-43.4142
 30
0.0
 10
105.6634
 20
-43.4142
 30
0.0
 10
105.6634
 20
-43.4142
 30
0.0
 10
109.1006
 20
-40.0002
 30
0.0
 10
109.1006
 20
-40.0002
 30
0.0
 10
109.1006
 20
-40.0002
 30
0.0
 10
109.1006
 20
-40.0002
 30
0.0
 10
112.5378
 20
-43.4142
 30
0.0
 10
112.5378
 20
-43.4142
 30
0.0
 10
112.5378
 20
-43.4142
 30
0.0
 10
112.5378
 20
-43.4142
 30
0.0
 10
117.3823
 20
-43.4307
 30
0.0
 10
117.3823
 20
-43.4307
 30
0.0
 10
117.3823
 20
-43.4307
 30
0.0
 10
117.3823
 20
-43.4307
 30
0.0
 10
117.3987
 20
-48.2751
 30
0.0
 10
117.3987
 20
-48.2751
 30
0.0
 10
117.3987
 20
-48.2751
 30
0.0
 10
117.3987
 20
-48.2751
 30
0.0
 10
120.8127
 20
-51.7123
 30
0.0
 10
120.8127
 20
-51.7123
 30
0.0
 10
120.8127
 20
-51.7123
 30
0.0
 10
120.8127
 20
-51.7123
 30
0.0
 10
117.3987
 20
-55.1495
 30
0.0
 10
117.3987
 20
-55.1495
 30
0.0
 10
117.3987
 20
-55.1495
 30
0.0
 10
117.3987
 20
-55.1495
 30
0.0
 10
117.3823
 20
-59.994
 30
0.0
 10
117.3823
 20
-59.994
 30
0.0
  0
SPLINE
  5
48
330
1F
100
AcDbEntity
  8
layer 1
 62
     7
100
AcDbSpline
210
0.0
220
0.0
230
1.0
 70
    11
 71
     3
 72
    68
 73
    64
 74
     0
 42
0.0000000001
 43
0.0000000001
 12
1.0
 22
0.0
 32
0.0
 13
1.0
 23
0.0
 33
0.0
 40
0.0
 40
0.0
 40
0.0
 40
0.0
 40
0.0588235294117647
 40
0.0588235294117647
 40
0.0588235294117647
 40
0.0588235294117647
 40
0.1176470588235294
 40
0.1176470588235294
 40
0.1176470588235294
 40
0.1176470588235294
 40
0.1764705882352941
 40
0.1764705882352941
 40
0.1764705882352941
 40
0.1764705882352941
 40
0.2352941176470588
 40
0.2352941176470588
 40
0.2352941176470588
 40
0.2352941176470588
 40
0.2941176470588235
 40
0.2941176470588235
 40
0.2941176470588235
 40
0.2941176470588235
 40
0.3529411764705883
 40
0.3529411764705883
 40
0.3529411764705883
 40
0.3529411764705883
 40
0.4117647058823529
 40
0.4117647058823529
 40
0.4117647058823529
 40
0.4117647058823529
 40
0.4705882352941176
 40
0.4705882352941176
 40
0.4705882352941176
 40
0.4705882352941176
 40
0.5294117647058824
 40
0.5294117647058824
 40
0.5294117647058824
 40
0.5294117647058824
 40
0.5882352941176471
 40
0.5882352941176471
 40
0.5882352941176471
 40
0.5882352941176471
 40
0.6470588235294118
 40
0.6470588235294118
 40
0.6470588235294118
 40
0.6470588235294118
 40
0.7058823529411765
 40
0.7058823529411765
 40
0.7058823529411765
 40
0.7058823529411765
 40
0.7647058823529411
 40
0.7647058823529411
 40
0.7647058823529411
 40
0.7647058823529411
 40
0.8235294117647058
 40
0.8235294117647058
 40
0.8235294117647058
 40
0.8235294117647058
 40
0.8823529411764706
 40
0.8823529411764706
 40
0.8823529411764706
 40
0.8823529411764706
 40
1.0
 40
1.0
 40
1.0
 40
1.0
 10
182.4125
 20
-59.994
 30
0.0
 10
182.4125
 20
-59.994
 30
0.0
 10
177.568
 20
-60.0105
 30
0.0
 10
177.568
 20
-60.0105
 30
0.0
 10
177.568
 20
-60.0105
 30
0.0
 10
177.568
 20
-60.0105
 30
0.0
 10
174.1308
 20
-63.4244
 30
0.0
 10
174.1308
 20
-63.4244
 30
0.0
 10
174.1308
 20
-63.4244
 30
0.0
 10
174.1308
 20
-63.4244
 30
0.0
 10
170.6936
 20
-60.0105
 30
0.0
 10
170.6936
 20
-60.0105
 30
0.0
 10
170.6936
 20
-60.0105
 30
0.0
 10
170.6936
 20
-60.0105
 30
0.0
 10
165.8491
 20
-59.994
 30
0.0
 10
165.8491
 20
-59.994
 30
0.0
 10
165.8491
 20
-59.994
 30
0.0
 10
165.8491
 20
-59.994
 30
0.0
 10
165.8326
 20
-55.1495
 30
0.0
 10
165.8326
 20
-55.1495
 30
0.0
 10
165.8326
 20
-55.1495
 30
0.0
 10
165.8326
 20
-55.1495
 30
0.0
 10
162.4187
 20
-51.7123
 30
0.0
 10
162.4187
 20
-51.7123
 30
0.0
 10
162.4187
 20
-51.7123
 30
0.0
 10
162.4187
 20
-51.7123
 30
0.0
 10
165.8326
 20
-48.2751
 30
0.0
 10
165.8326
 20
-48.2751
 30
0.0
 10
165.8326
 20
-48.2751
 30
0.0
 10
165.8326
 20
-48.2751
 30
0.0
 10
165.8491
 20
-43.4307
 30
0.0
 10
165.8491
 20
-43.4307
 30
0.0
 10
165.8491
 20
-43.4307
 30
0.0
 10
165.8491
 20
-43.4307
 30
0.0
 10
170.6936
 20
-43.4142
 30
0.0
 10
170.6936
 20
-43.4142
 30
0.0
 10
170.6936
 20
-43.4142
 30
0.0
 10
170.6936
 20
-43.4142
 30
0.0
 10
174.1308
 20
-40.0002
 30
0.0
 10
174.1308
 20
-40.0002
 30
0.0
 10
174.1308
 20
-40.0002
 30
0.0
 10
174.1308
 20
-40.0002
 30
0.0
 10
177.568
 20
-43.4142
 30
0.0
 10
177.568
 20
-43.4142
 30
0.0
 10
177.568
 20
-43.4142
 30
0.0
 10
177.568
 20
-43.4142
 30
0.0
 10
182.4125
 20
-43.4307
 30
0.0
 10
182.4125
 20
-43.4307
 30
0.0
 10
182.4125
 20
-43.4307
 30
0.0
 10
182.4125
 20
-43.4307
 30
0.0
 10
182.429
 20
-48.2751
 30
0.0
 10
182.429
 20
-48.2751
 30
0.0
 10
182.429
 20
-48.2751
 30
0.0
 10
182.429
 20
-48.2751
 30
0.0
 10
185.8429
 20
-51.7123
 30
0.0
 10
185.8429
 20
-51.7123
 30
0.0
 10
185.8429
 20
-51.7123
 30
0.0
 10
185.8429
 20
-51.7123
 30
0.0
 10
182.429
 20
-55.1495
 30
0.0
 10
182.429
 20
-55.1495
 30
0.0
 10
182.429
 20
-55.1495
 30
0.0
 10
182.429
 20
-55.1495
 30
0.0
 10
182.4125
 20
-59.994
 30
0.0
 10
182.4125
 20
-59.994
 30
0.0
  0
SPLINE
  5
49
330
1F
100
AcDbEntity
  8
layer 1
 62
     7
100
AcDbSpline
210
0.0
220
0.0
230
1.0
 70
    11
 71
     3
 72
    68
 73
    64
 74
     0
 42
0.0000000001
 43
0.0000000001
 12
1.0
 22
0.0
 32
0.0
 13
1.0
 23
0.0
 33
0.0
 40
0.0
 40
0.0
 40
0.0
 40
0.0
 40
0.0588235294117647
 40
0.0588235294117647
 40
0.0588235294117647
 40
0.0588235294117647
 40
0.1176470588235294
 40
0.1176470588235294
 40
0.1176470588235294
 40
0.1176470588235294
 40
0.1764705882352941
 40
0.1764705882352941
 40
0.1764705882352941
 40
0.1764705882352941
 40
0.2352941176470588
 40
0.2352941176470588
 40
0.2352941176470588
 40
0.2352941176470588
 40
0.2941176470588235
 40
0.2941176470588235
 40
0.2941176470588235
 40
0.2941176470588235
 40
0.3529411764705883
 40
0.3529411764705883
 40
0.3529411764705883
 40
0.3529411764705883
 40
0.4117647058823529
 40
0.4117647058823529
 40
0.4117647058823529
 40
0.4117647058823529
 40
0.4705882352941176
 40
0.4705882352941176
 40
0.4705882352941176
 40
0.4705882352941176
 40
0.5294117647058824
 40
0.5294117647058824
 40
0.5294117647058824
 40
0.5294117647058824
 40
0.5882352941176471
 40
0.5882352941176471
 40
0.5882352941176471
 40
0.5882352941176471
 40
0.6470588235294118
 40
0.6470588235294118
 40
0.6470588235294118
 40
0.6470588235294118
 40
0.7058823529411765
 40
0.7058823529411765
 40
0.7058823529411765
 40
0.7058823529411765
 40
0.7647058823529411
 40
0.7647058823529411
 40
0.7647058823529411
 40
0.7647058823529411
 40
0.8235294117647058
 40
0.8235294117647058
 40
0.8235294117647058
 40
0.8235294117647058
 40
0.8823529411764706
 40
0.8823529411764706
 40
0.8823529411764706
 40
0.8823529411764706
 40
1.0
 40
1.0
 40
1.0
 40
1.0
 10
150.0608
 20
-27.8056
 30
0.0
 10
150.0608
 20
-27.8056
 30
0.0
 10
145.2163
 20
-27.8221
 30
0.0
 10
145.2163
 20
-27.8221
 30
0.0
 10
145.2163
 20
-27.8221
 30
0.0
 10
145.2163
 20
-27.8221
 30
0.0
 10
141.7791
 20
-31.236
 30
0.0
 10
141.7791
 20
-31.236
 30
0.0
 10
141.7791
 20
-31.236
 30
0.0
 10
141.7791
 20
-31.236
 30
0.0
 10
138.3419
 20
-27.8221
 30
0.0
 10
138.3419
 20
-27.8221
 30
0.0
 10
138.3419
 20
-27.8221
 30
0.0
 10
138.3419
 20
-27.8221
 30
0.0
 10
133.4974
 20
-27.8056
 30
0.0
 10
133.4974
 20
-27.8056
 30
0.0
 10
133.4974
 20
-27.8056
 30
0.0
 10
133.4974
 20
-27.8056
 30
0.0
 10
133.4809
 20
-22.9611
 30
0.0
 10
133.4809
 20
-22.9611
 30
0.0
 10
133.4809
 20
-22.9611
 30
0.0
 10
133.4809
 20
-22.9611
 30
0.0
 10
130.067
 20
-19.5239
 30
0.0
 10
130.067
 20
-19.5239
 30
0.0
 10
130.067
 20
-19.5239
 30
0.0
 10
130.067
 20
-19.5239
 30
0.0
 10
133.4809
 20
-16.0867
 30
0.0
 10
133.4809
 20
-16.0867
 30
0.0
 10
133.4809
 20
-16.0867
 30
0.0
 10
133.4809
 20
-16.0867
 30
0.0
 10
133.4974
 20
-11.2423
 30
0.0
 10
133.4974
 20
-11.2423
 30
0.0
 10
133.4974
 20
-11.2423
 30
0.0
 10
133.4974
 20
-11.2423
 30
0.0
 10
138.3419
 20
-11.2258
 30
0.0
 10
138.3419
 20
-11.2258
 30
0.0
 10
138.3419
 20
-11.2258
 30
0.0
 10
138.3419
 20
-11.2258
 30
0.0
 10
141.7791
 20
-7.8118
 30
0.0
 10
141.7791
 20
-7.8118
 30
0.0
 10
141.7791
 20
-7.8118
 30
0.0
 10
141.7791
 20
-7.8118
 30
0.0
 10
145.2163
 20
-11.2258
 30
0.0
 10
145.2163
 20
-11.2258
 30
0.0
 10
145.2163
 20
-11.2258
 30
0.0
 10
145.2163
 20
-11.2258
 30
0.0
 10
150.0608
 20
-11.2423
 30
0.0
 10
150.0608
 20
-11.2423
 30
0.0
 10
150.0608
 20
-11.2423
 30
0.0
 10
150.0608
 20
-11.2423
 30
0.0
 10
150.0773
 20
-16.0867
 30
0.0
 10
150.0773
 20
-16.0867
 30
0.0
 10
150.0773
 20
-16.0867
 30
0.0
 10
150.0773
 20
-16.0867
 30
0.0
 10
153.4912
 20
-19.5239
 30
0.0
 10
153.4912
 20
-19.5239
 30
0.0
 10
153.4912
 20
-19.5239
 30
0.0
 10
153.4912
 20
-19.5239
 30
0.0
 10
150.0773
 20
-22.9611
 30
0.0
 10
150.0773
 20
-22.9611
 30
0.0
 10
150.0773
 20
-22.9611
 30
0.0
 10
150.0773
 20
-22.9611
 30
0.0
 10
150.0608
 20
-27.8056
 30
0.0
 10
150.0608
 20
-27.8056
 30
0.0
  0
SPLINE
  5
4A
330
1F
100
AcDbEntity
  8
layer 1
 62
     7
100
AcDbSpline
210
0.0
220
0.0
230
1.0
 70
    11
 71
     3
 72
    68
 73
    64
 74
     0
 42
0.0000000001
 43
0.0000000001
 12
1.0
 22
0.0
 32
0.0
 13
1.0
 23
0.0
 33
0.0
 40
0.0
 40
0.0
 40
0.0
 40
0.0
 40
0.0588235294117647
 40
0.0588235294117647
 40
0.0588235294117647
 40
0.0588235294117647
 40
0.1176470588235294
 40
0.1176470588235294
 40
0.1176470588235294
 40
0.1176470588235294
 40
0.1764705882352941
 40
0.1764705882352941
 40
0.1764705882352941
 40
0.1764705882352941
 40
0.2352941176470588
 40
0.2352941176470588
 40
0.2352941176470588
 40
0.2352941176470588
 40
0.2941176470588235
 40
0.2941176470588235
 40
0.2941176470588235
 40
0.2941176470588235
 40
0.3529411764705883
 40
0.3529411764705883
 40
0.3529411764705883
 40
0.3529411764705883
 40
0.4117647058823529
 40
0.4117647058823529
 40
0.4117647058823529
 40
0.4117647058823529
 40
0.4705882352941176
 40
0.4705882352941176
 40
0.4705882352941176
 40
0.4705882352941176
 40
0.5294117647058824
 40
0.5294117647058824
 40
0.5294117647058824
 40
0.5294117647058824
 40
0.5882352941176471
 40
0.5882352941176471
 40
0.5882352941176471
 40
0.5882352941176471
 40
0.6470588235294118
 40
0.6470588235294118
 40
0.6470588235294118
 40
0.6470588235294118
 40
0.7058823529411765
 40
0.7058823529411765
 40
0.7058823529411765
 40
0.7058823529411765
 40
0.7647058823529411
 40
0.7647058823529411
 40
0.7647058823529411
 40
0.7647058823529411
 40
0.8235294117647058
 40
0.8235294117647058
 40
0.8235294117647058
 40
0.8235294117647058
 40
0.8823529411764706
 40
0.8823529411764706
 40
0.8823529411764706
 40
0.8823529411764706
 40
1.0
 40
1.0
 40
1.0
 40
1.0
 10
114.0549
 20
-6.9736
 30
0.0
 10
114.0549
 20
-6.9736
 30
0.0
 10
110.4579
 20
-3.3897
 30
0.0
 10
110.4579
 20
-3.3897
 30
0.0
 10
110.4579
 20
-3.3897
 30
0.0
 10
110.4579
 20
-3.3897
 30
0.0
 10
114.0549
 20
0.2112
 30
0.0
 10
114.0549
 20
0.2112
 30
0.0
 10
114.0549
 20
0.2112
 30
0.0
 10
114.0549
 20
0.2112
 30
0.0
 10
121.6508
 20
0.2112
 30
0.0
 10
121.6508
 20
0.2112
 30
0.0
 10
121.6508
 20
0.2112
 30
0.0
 10
121.6508
 20
0.2112
 30
0.0
 10
121.6757
 20
7.832
 30
0.0
 10
121.6757
 20
7.832
 30
0.0
 10
121.6757
 20
7.832
 30
0.0
 10
121.6757
 20
7.832
 30
0.0
 10
125.2596
 20
11.429
 30
0.0
 10
125.2596
 20
11.429
 30
0.0
 10
125.2596
 20
11.429
 30
0.0
 10
125.2596
 20
11.429
 30
0.0
 10
128.8605
 20
7.832
 30
0.0
 10
128.8605
 20
7.832
 30
0.0
 10
128.8605
 20
7.832
 30
0.0
 10
128.8605
 20
7.832
 30
0.0
 10
128.8586
 20
0.1928
 30
0.0
 10
128.8586
 20
0.1928
 30
0.0
 10
128.8586
 20
0.1928
 30
0.0
 10
128.8586
 20
0.1928
 30
0.0
 10
136.298
 20
0.2112
 30
0.0
 10
136.298
 20
0.2112
 30
0.0
 10
136.298
 20
0.2112
 30
0.0
 10
136.298
 20
0.2112
 30
0.0
 10
140.0784
 20
-3.3897
 30
0.0
 10
140.0784
 20
-3.3897
 30
0.0
 10
140.0784
 20
-3.3897
 30
0.0
 10
140.0784
 20
-3.3897
 30
0.0
 10
136.298
 20
-6.9736
 30
0.0
 10
136.298
 20
-6.9736
 30
0.0
 10
136.298
 20
-6.9736
 30
0.0
 10
136.298
 20
-6.9736
 30
0.0
 10
128.8586
 20
-6.9598
 30
0.0
 10
128.8586
 20
-6.9598
 30
0.0
 10
128.8586
 20
-6.9598
 30
0.0
 10
128.8586
 20
-6.9598
 30
0.0
 10
128.8605
 20
-14.411
 30
0.0
 10
128.8605
 20
-14.411
 30
0.0
 10
128.8605
 20
-14.411
 30
0.0
 10
128.8605
 20
-14.411
 30
0.0
 10
125.2596
 20
-18.1914
 30
0.0
 10
125.2596
 20
-18.1914
 30
0.0
 10
125.2596
 20
-18.1914
 30
0.0
 10
125.2596
 20
-18.1914
 30
0.0
 10
121.6757
 20
-14.411
 30
0.0
 10
121.6757
 20
-14.411
 30
0.0
 10
121.6757
 20
-14.411
 30
0.0
 10
121.6757
 20
-14.411
 30
0.0
 10
121.6692
 20
-7.0149
 30
0.0
 10
121.6692
 20
-7.0149
 30
0.0
 10
121.6692
 20
-7.0149
 30
0.0
 10
121.6692
 20
-7.0149
 30
0.0
 10
114.0549
 20
-6.9736
 30
0.0
 10
114.0549
 20
-6.9736
 30
0.0
  0
SPLINE
  5
4B
330
1F
100
AcDbEntity
  8
layer 1
 62
     7
100
AcDbSpline
210
0.0
220
0.0
230
1.0
 70
    11
 71
     3
 72
    40
 73
    36
 74
     0
 42
0.0000000001
 43
0.0000000001
 12
1.0
 22
0.0
 32
0.0
 13
1.0
 23
0.0
 33
0.0
 40
0.0
 40
0.0
 40
0.0
 40
0.0
 40
0.1
 40
0.1
 40
0.1
 40
0.1
 40
0.2
 40
0.2
 40
0.2
 40
0.2
 40
0.3
 40
0.3
 40
0.3
 40
0.3
 40
0.4
 40
0.4
 40
0.4
 40
0.4
 40
0.5
 40
0.5
 40
0.5
 40
0.5
 40
0.6
 40
0.6
 40
0.6
 40
0.6
 40
0.7
 40
0.7
 40
0.7
 40
0.7
 40
0.8
 40
0.8
 40
0.8
 40
0.8
 40
1.0
 40
1.0
 40
1.0
 40
1.0
 10
92.8262
 20
11.4289
 30
0.0
 10
92.8262
 20
11.4289
 30
0.0
 10
96.4271
 20
7.8319
 30
0.0
 10
96.4271
 20
7.8319
 30
0.0
 10
96.4271
 20
7.8319
 30
0.0
 10
96.4271
 20
7.8319
 30
0.0
 10
96.4252
 20
0.1927
 30
0.0
 10
96.4252
 20
0.1927
 30
0.0
 10
96.4252
 20
0.1927
 30
0.0
 10
96.4252
 20
0.1927
 30
0.0
 10
103.8645
 20
0.2111
 30
0.0
 10
103.8645
 20
0.2111
 30
0.0
 10
103.8645
 20
0.2111
 30
0.0
 10
103.8645
 20
0.2111
 30
0.0
 10
107.6449
 20
-3.3898
 30
0.0
 10
107.6449
 20
-3.3898
 30
0.0
 10
107.6449
 20
-3.3898
 30
0.0
 10
107.6449
 20
-3.3898
 30
0.0
 10
103.8645
 20
-6.9737
 30
0.0
 10
103.8645
 20
-6.9737
 30
0.0
 10
103.8645
 20
-6.9737
 30
0.0
 10
103.8645
 20
-6.9737
 30
0.0
 10
96.4252
 20
-6.9599
 30
0.0
 10
96.4252
 20
-6.9599
 30
0.0
 10
96.4252
 20
-6.9599
 30
0.0
 10
96.4252
 20
-6.9599
 30
0.0
 10
96.4271
 20
-14.4111
 30
0.0
 10
96.4271
 20
-14.4111
 30
0.0
 10
96.4271
 20
-14.4111
 30
0.0
 10
96.4271
 20
-14.4111
 30
0.0
 10
92.8262
 20
-18.1915
 30
0.0
 10
92.8262
 20
-18.1915
 30
0.0
 10
92.8262
 20
-18.1915
 30
0.0
 10
92.8262
 20
-18.1915
 30
0.0
 10
92.8262
 20
11.4289
 30
0.0
 10
92.8262
 20
11.4289
 30
0.0
  0
SPLINE
  5
4C
330
1F
100
AcDbEntity
  8
layer 1
 62
     7
100
AcDbSpline
210
0.0
220
0.0
230
1.0
 70
    11
 71
     3
 72
    40
 73
    36
 74
     0
 42
0.0000000001
 43
0.0000000001
 12
1.0
 22
0.0
 32
0.0
 13
1.0
 23
0.0
 33
0.0
 40
0.0
 40
0.0
 40
0.0
 40
0.0
 40
0.1
 40
0.1
 40
0.1
 40
0.1
 40
0.2
 40
0.2
 40
0.2
 40
0.2
 40
0.3
 40
0.3
 40
0.3
 40
0.3
 40
0.4
 40
0.4
 40
0.4
 40
0.4
 40
0.5
 40
0.5
 40
0.5
 40
0.5
 40
0.6
 40
0.6
 40
0.6
 40
0.6
 40
0.7
 40
0.7
 40
0.7
 40
0.7
 40
0.8
 40
0.8
 40
0.8
 40
0.8
 40
1.0
 40
1.0
 40
1.0
 40
1.0
 10
190.5666
 20
11.4289
 30
0.0
 10
190.5666
 20
11.4289
 30
0.0
 10
186.9658
 20
7.8319
 30
0.0
 10
186.9658
 20
7.8319
 30
0.0
 10
186.9658
 20
7.8319
 30
0.0
 10
186.9658
 20
7.8319
 30
0.0
 10
186.9676
 20
0.1927
 30
0.0
 10
186.9676
 20
0.1927
 30
0.0
 10
186.9676
 20
0.1927
 30
0.0
 10
186.9676
 20
0.1927
 30
0.0
 10
179.5283
 20
0.2111
 30
0.0
 10
179.5283
 20
0.2111
 30
0.0
 10
179.5283
 20
0.2111
 30
0.0
 10
179.5283
 20
0.2111
 30
0.0
 10
175.7479
 20
-3.3898
 30
0.0
 10
175.7479
 20
-3.3898
 30
0.0
 10
175.7479
 20
-3.3898
 30
0.0
 10
175.7479
 20
-3.3898
 30
0.0
 10
179.5283
 20
-6.9737
 30
0.0
 10
179.5283
 20
-6.9737
 30
0.0
 10
179.5283
 20
-6.9737
 30
0.0
 10
179.5283
 20
-6.9737
 30
0.0
 10
186.9676
 20
-6.9599
 30
0.0
 10
186.9676
 20
-6.9599
 30
0.0
 10
186.9676
 20
-6.9599
 30
0.0
 10
186.9676
 20
-6.9599
 30
0.0
 10
186.9658
 20
-14.4111
 30
0.0
 10
186.9658
 20
-14.4111
 30
0.0
 10
186.9658
 20
-14.4111
 30
0.0
 10
186.9658
 20
-14.4111
 30
0.0
 10
190.5666
 20
-18.1915
 30
0.0
 10
190.5666
 20
-18.1915
 30
0.0
 10
190.5666
 20
-18.1915
 30
0.0
 10
190.5666
 20
-18.1915
 30
0.0
 10
190.5666
 20
11.4289
 30
0.0
 10
190.5666
 20
11.4289
 30
0.0
  0
SPLINE
  5
4D
330
1F
100
AcDbEntity
  8
layer 1
 62
     7
100
AcDbSpline
210
0.0
220
0.0
230
1.0
 70
    11
 71
     3
 72
    68
 73
    64
 74
     0
 42
0.0000000001
 43
0.0000000001
 12
1.0
 22
0.0
 32
0.0
 13
1.0
 23
0.0
 33
0.0
 40
0.0
 40
0.0
 40
0.0
 40
0.0
 40
0.0588235294117647
 40
0.0588235294117647
 40
0.0588235294117647
 40
0.0588235294117647
 40
0.1176470588235294
 40
0.1176470588235294
 40
0.1176470588235294
 40
0.1176470588235294
 40
0.1764705882352941
 40
0.1764705882352941
 40
0.1764705882352941
 40
0.1764705882352941
 40
0.2352941176470588
 40
0.2352941176470588
 40
0.2352941176470588
 40
0.2352941176470588
 40
0.2941176470588235
 40
0.2941176470588235
 40
0.2941176470588235
 40
0.2941176470588235
 40
0.3529411764705883
 40
0.3529411764705883
 40
0.3529411764705883
 40
0.3529411764705883
 40
0.4117647058823529
 40
0.4117647058823529
 40
0.4117647058823529
 40
0.4117647058823529
 40
0.4705882352941176
 40
0.4705882352941176
 40
0.4705882352941176
 40
0.4705882352941176
 40
0.5294117647058824
 40
0.5294117647058824
 40
0.5294117647058824
 40
0.5294117647058824
 40
0.5882352941176471
 40
0.5882352941176471
 40
0.5882352941176471
 40
0.5882352941176471
 40
0.6470588235294118
 40
0.6470588235294118
 40
0.6470588235294118
 40
0.6470588235294118
 40
0.7058823529411765
 40
0.7058823529411765
 40
0.7058823529411765
 40
0.7058823529411765
 40
0.7647058823529411
 40
0.7647058823529411
 40
0.7647058823529411
 40
0.7647058823529411
 40
0.8235294117647058
 40
0.8235294117647058
 40
0.8235294117647058
 40
0.8235294117647058
 40
0.8823529411764706
 40
0.8823529411764706
 40
0.8823529411764706
 40
0.8823529411764706
 40
1.0
 40
1.0
 40
1.0
 40
1.0
 10
146.9785
 20
-6.9736
 30
0.0
 10
146.9785
 20
-6.9736
 30
0.0
 10
143.3815
 20
-3.3897
 30
0.0
 10
143.3815
 20
-3.3897
 30
0.0
 10
143.3815
 20
-3.3897
 30
0.0
 10
143.3815
 20
-3.3897
 30
0.0
 10
146.9785
 20
0.2112
 30
0.0
 10
146.9785
 20
0.2112
 30
0.0
 10
146.9785
 20
0.2112
 30
0.0
 10
146.9785
 20
0.2112
 30
0.0
 10
154.5744
 20
0.2112
 30
0.0
 10
154.5744
 20
0.2112
 30
0.0
 10
154.5744
 20
0.2112
 30
0.0
 10
154.5744
 20
0.2112
 30
0.0
 10
154.5993
 20
7.832
 30
0.0
 10
154.5993
 20
7.832
 30
0.0
 10
154.5993
 20
7.832
 30
0.0
 10
154.5993
 20
7.832
 30
0.0
 10
158.1832
 20
11.429
 30
0.0
 10
158.1832
 20
11.429
 30
0.0
 10
158.1832
 20
11.429
 30
0.0
 10
158.1832
 20
11.429
 30
0.0
 10
161.7841
 20
7.832
 30
0.0
 10
161.7841
 20
7.832
 30
0.0
 10
161.7841
 20
7.832
 30
0.0
 10
161.7841
 20
7.832
 30
0.0
 10
161.7822
 20
0.1928
 30
0.0
 10
161.7822
 20
0.1928
 30
0.0
 10
161.7822
 20
0.1928
 30
0.0
 10
161.7822
 20
0.1928
 30
0.0
 10
169.2215
 20
0.2112
 30
0.0
 10
169.2215
 20
0.2112
 30
0.0
 10
169.2215
 20
0.2112
 30
0.0
 10
169.2215
 20
0.2112
 30
0.0
 10
173.0019
 20
-3.3897
 30
0.0
 10
173.0019
 20
-3.3897
 30
0.0
 10
173.0019
 20
-3.3897
 30
0.0
 10
173.0019
 20
-3.3897
 30
0.0
 10
169.2215
 20
-6.9736
 30
0.0
 10
169.2215
 20
-6.9736
 30
0.0
 10
169.2215
 20
-6.9736
 30
0.0
 10
169.2215
 20
-6.9736
 30
0.0
 10
161.7822
 20
-6.9598
 30
0.0
 10
161.7822
 20
-6.9598
 30
0.0
 10
161.7822
 20
-6.9598
 30
0.0
 10
161.7822
 20
-6.9598
 30
0.0
 10
161.7841
 20
-14.411
 30
0.0
 10
161.7841
 20
-14.411
 30
0.0
 10
161.7841
 20
-14.411
 30
0.0
 10
161.7841
 20
-14.411
 30
0.0
 10
158.1832
 20
-18.1914
 30
0.0
 10
158.1832
 20
-18.1914
 30
0.0
 10
158.1832
 20
-18.1914
 30
0.0
 10
158.1832
 20
-18.1914
 30
0.0
 10
154.5993
 20
-14.411
 30
0.0
 10
154.5993
 20
-14.411
 30
0.0
 10
154.5993
 20
-14.411
 30
0.0
 10
154.5993
 20
-14.411
 30
0.0
 10
154.5928
 20
-7.0149
 30
0.0
 10
154.5928
 20
-7.0149
 30
0.0
 10
154.5928
 20
-7.0149
 30
0.0
 10
154.5928
 20
-7.0149
 30
0.0
 10
146.9785
 20
-6.9736
 30
0.0
 10
146.9785
 20
-6.9736
 30
0.0
  0
SPLINE
  5
4E
330
1F
100
AcDbEntity
  8
layer 1
 62
     7
100
AcDbSpline
210
0.0
220
0.0
230
1.0
 70
    11
 71
     3
 72
    68
 73
    64
 74
     0
 42
0.0000000001
 43
0.0000000001
 12
1.0
 22
0.0
 32
0.0
 13
1.0
 23
0.0
 33
0.0
 40
0.0
 40
0.0
 40
0.0
 40
0.0
 40
0.0588235294117647
 40
0.0588235294117647
 40
0.0588235294117647
 40
0.0588235294117647
 40
0.1176470588235294
 40
0.1176470588235294
 40
0.1176470588235294
 40
0.1176470588235294
 40
0.1764705882352941
 40
0.1764705882352941
 40
0.1764705882352941
 40
0.1764705882352941
 40
0.2352941176470588
 40
0.2352941176470588
 40
0.2352941176470588
 40
0.2352941176470588
 40
0.2941176470588235
 40
0.2941176470588235
 40
0.2941176470588235
 40
0.2941176470588235
 40
0.3529411764705883
 40
0.3529411764705883
 40
0.3529411764705883
 40
0.3529411764705883
 40
0.4117647058823529
 40
0.4117647058823529
 40
0.4117647058823529
 40
0.4117647058823529
 40
0.4705882352941176
 40
0.4705882352941176
 40
0.4705882352941176
 40
0.4705882352941176
 40
0.5294117647058824
 40
0.5294117647058824
 40
0.5294117647058824
 40
0.5294117647058824
 40
0.5882352941176471
 40
0.5882352941176471
 40
0.5882352941176471
 40
0.5882352941176471
 40
0.6470588235294118
 40
0.6470588235294118
 40
0.6470588235294118
 40
0.6470588235294118
 40
0.7058823529411765
 40
0.7058823529411765
 40
0.7058823529411765
 40
0.7058823529411765
 40
0.7647058823529411
 40
0.7647058823529411
 40
0.7647058823529411
 40
0.7647058823529411
 40
0.8235294117647058
 40
0.8235294117647058
 40
0.8235294117647058
 40
0.8235294117647058
 40
0.8823529411764706
 40
0.8823529411764706
 40
0.8823529411764706
 40
0.8823529411764706
 40
1.0
 40
1.0
 40
1.0
 40
1.0
 10
117.3823
 20
-27.8056
 30
0.0
 10
117.3823
 20
-27.8056
 30
0.0
 10
112.5378
 20
-27.8221
 30
0.0
 10
112.5378
 20
-27.8221
 30
0.0
 10
112.5378
 20
-27.8221
 30
0.0
 10
112.5378
 20
-27.8221
 30
0.0
 10
109.1006
 20
-31.236
 30
0.0
 10
109.1006
 20
-31.236
 30
0.0
 10
109.1006
 20
-31.236
 30
0.0
 10
109.1006
 20
-31.236
 30
0.0
 10
105.6634
 20
-27.8221
 30
0.0
 10
105.6634
 20
-27.8221
 30
0.0
 10
105.6634
 20
-27.8221
 30
0.0
 10
105.6634
 20
-27.8221
 30
0.0
 10
100.8189
 20
-27.8056
 30
0.0
 10
100.8189
 20
-27.8056
 30
0.0
 10
100.8189
 20
-27.8056
 30
0.0
 10
100.8189
 20
-27.8056
 30
0.0
 10
100.8024
 20
-22.9611
 30
0.0
 10
100.8024
 20
-22.9611
 30
0.0
 10
100.8024
 20
-22.9611
 30
0.0
 10
100.8024
 20
-22.9611
 30
0.0
 10
97.3885
 20
-19.5239
 30
0.0
 10
97.3885
 20
-19.5239
 30
0.0
 10
97.3885
 20
-19.5239
 30
0.0
 10
97.3885
 20
-19.5239
 30
0.0
 10
100.8024
 20
-16.0867
 30
0.0
 10
100.8024
 20
-16.0867
 30
0.0
 10
100.8024
 20
-16.0867
 30
0.0
 10
100.8024
 20
-16.0867
 30
0.0
 10
100.8189
 20
-11.2423
 30
0.0
 10
100.8189
 20
-11.2423
 30
0.0
 10
100.8189
 20
-11.2423
 30
0.0
 10
100.8189
 20
-11.2423
 30
0.0
 10
105.6634
 20
-11.2258
 30
0.0
 10
105.6634
 20
-11.2258
 30
0.0
 10
105.6634
 20
-11.2258
 30
0.0
 10
105.6634
 20
-11.2258
 30
0.0
 10
109.1006
 20
-7.8118
 30
0.0
 10
109.1006
 20
-7.8118
 30
0.0
 10
109.1006
 20
-7.8118
 30
0.0
 10
109.1006
 20
-7.8118
 30
0.0
 10
112.5378
 20
-11.2258
 30
0.0
 10
112.5378
 20
-11.2258
 30
0.0
 10
112.5378
 20
-11.2258
 30
0.0
 10
112.5378
 20
-11.2258
 30
0.0
 10
117.3823
 20
-11.2423
 30
0.0
 10
117.3823
 20
-11.2423
 30
0.0
 10
117.3823
 20
-11.2423
 30
0.0
 10
117.3823
 20
-11.2423
 30
0.0
 10
117.3987
 20
-16.0867
 30
0.0
 10
117.3987
 20
-16.0867
 30
0.0
 10
117.3987
 20
-16.0867
 30
0.0
 10
117.3987
 20
-16.0867
 30
0.0
 10
120.8127
 20
-19.5239
 30
0.0
 10
120.8127
 20
-19.5239
 30
0.0
 10
120.8127
 20
-19.5239
 30
0.0
 10
120.8127
 20
-19.5239
 30
0.0
 10
117.3987
 20
-22.9611
 30
0.0
 10
117.3987
 20
-22.9611
 30
0.0
 10
117.3987
 20
-22.9611
 30
0.0
 10
117.3987
 20
-22.9611
 30
0.0
 10
117.3823
 20
-27.8056
 30
0.0
 10
117.3823
 20
-27.8056
 30
0.0
  0
SPLINE
  5
4F
330
1F
100
AcDbEntity
  8
layer 1
 62
     7
100
AcDbSpline
210
0.0
220
0.0
230
1.0
 70
    11
 71
     3
 72
    68
 73
    64
 74
     0
 42
0.0000000001
 43
0.0000000001
 12
1.0
 22
0.0
 32
0.0
 13
1.0
 23
0.0
 33
0.0
 40
0.0
 40
0.0
 40
0.0
 40
0.0
 40
0.0588235294117647
 40
0.0588235294117647
 40
0.0588235294117647
 40
0.0588235294117647
 40
0.1176470588235294
 40
0.1176470588235294
 40
0.1176470588235294
 40
0.1176470588235294
 40
0.1764705882352941
 40
0.1764705882352941
 40
0.1764705882352941
 40
0.1764705882352941
 40
0.2352941176470588
 40
0.2352941176470588
 40
0.2352941176470588
 40
0.2352941176470588
 40
0.2941176470588235
 40
0.2941176470588235
 40
0.2941176470588235
 40
0.2941176470588235
 40
0.3529411764705883
 40
0.3529411764705883
 40
0.3529411764705883
 40
0.3529411764705883
 40
0.4117647058823529
 40
0.4117647058823529
 40
0.4117647058823529
 40
0.4117647058823529
 40
0.4705882352941176
 40
0.4705882352941176
 40
0.4705882352941176
 40
0.4705882352941176
 40
0.5294117647058824
 40
0.5294117647058824
 40
0.5294117647058824
 40
0.5294117647058824
 40
0.5882352941176471
 40
0.5882352941176471
 40
0.5882352941176471
 40
0.5882352941176471
 40
0.6470588235294118
 40
0.6470588235294118
 40
0.6470588235294118
 40
0.6470588235294118
 40
0.7058823529411765
 40
0.7058823529411765
 40
0.7058823529411765
 40
0.7058823529411765
 40
0.7647058823529411
 40
0.7647058823529411
 40
0.7647058823529411
 40
0.7647058823529411
 40
0.8235294117647058
 40
0.8235294117647058
 40
0.8235294117647058
 40
0.8235294117647058
 40
0.8823529411764706
 40
0.8823529411764706
 40
0.8823529411764706
 40
0.8823529411764706
 40
1.0
 40
1.0
 40
1.0
 40
1.0
 10
182.4125
 20
-27.8056
 30
0.0
 10
182.4125
 20
-27.8056
 30
0.0
 10
177.568
 20
-27.8221
 30
0.0
 10
177.568
 20
-27.8221
 30
0.0
 10
177.568
 20
-27.8221
 30
0.0
 10
177.568
 20
-27.8221
 30
0.0
 10
174.1308
 20
-31.236
 30
0.0
 10
174.1308
 20
-31.236
 30
0.0
 10
174.1308
 20
-31.236
 30
0.0
 10
174.1308
 20
-31.236
 30
0.0
 10
170.6936
 20
-27.8221
 30
0.0
 10
170.6936
 20
-27.8221
 30
0.0
 10
170.6936
 20
-27.8221
 30
0.0
 10
170.6936
 20
-27.8221
 30
0.0
 10
165.8491
 20
-27.8056
 30
0.0
 10
165.8491
 20
-27.8056
 30
0.0
 10
165.8491
 20
-27.8056
 30
0.0
 10
165.8491
 20
-27.8056
 30
0.0
 10
165.8326
 20
-22.9611
 30
0.0
 10
165.8326
 20
-22.9611
 30
0.0
 10
165.8326
 20
-22.9611
 30
0.0
 10
165.8326
 20
-22.9611
 30
0.0
 10
162.4187
 20
-19.5239
 30
0.0
 10
162.4187
 20
-19.5239
 30
0.0
 10
162.4187
 20
-19.5239
 30
0.0
 10
162.4187
 20
-19.5239
 30
0.0
 10
165.8326
 20
-16.0867
 30
0.0
 10
165.8326
 20
-16.0867
 30
0.0
 10
165.8326
 20
-16.0867
 30
0.0
 10
165.8326
 20
-16.0867
 30
0.0
 10
165.8491
 20
-11.2423
 30
0.0
 10
165.8491
 20
-11.2423
 30
0.0
 10
165.8491
 20
-11.2423
 30
0.0
 10
165.8491
 20
-11.2423
 30
0.0
 10
170.6936
 20
-11.2258
 30
0.0
 10
170.6936
 20
-11.2258
 30
0.0
 10
170.6936
 20
-11.2258
 30
0.0
 10
170.6936
 20
-11.2258
 30
0.0
 10
174.1308
 20
-7.8118
 30
0.0
 10
174.1308
 20
-7.8118
 30
0.0
 10
174.1308
 20
-7.8118
 30
0.0
 10
174.1308
 20
-7.8118
 30
0.0
 10
177.568
 20
-11.2258
 30
0.0
 10
177.568
 20
-11.2258
 30
0.0
 10
177.568
 20
-11.2258
 30
0.0
 10
177.568
 20
-11.2258
 30
0.0
 10
182.4125
 20
-11.2423
 30
0.0
 10
182.4125
 20
-11.2423
 30
0.0
 10
182.4125
 20
-11.2423
 30
0.0
 10
182.4125
 20
-11.2423
 30
0.0
 10
182.429
 20
-16.0867
 30
0.0
 10
182.429
 20
-16.0867
 30
0.0
 10
182.429
 20
-16.0867
 30
0.0
 10
182.429
 20
-16.0867
 30
0.0
 10
185.8429
 20
-19.5239
 30
0.0
 10
185.8429
 20
-19.5239
 30
0.0
 10
185.8429
 20
-19.5239
 30
0.0
 10
185.8429
 20
-19.5239
 30
0.0
 10
182.429
 20
-22.9611
 30
0.0
 10
182.429
 20
-22.9611
 30
0.0
 10
182.429
 20
-22.9611
 30
0.0
 10
182.429
 20
-22.9611
 30
0.0
 10
182.4125
 20
-27.8056
 30
0.0
 10
182.4125
 20
-27.8056
 30
0.0
  0
SPLINE
  5
50
330
1F
100
AcDbEntity
  8
layer 1
 62
     7
100
AcDbSpline
210
0.0
220
0.0
230
1.0
 70
    11
 71
     3
 72
    68
 73
    64
 74
     0
 42
0.0000000001
 43
0.0000000001
 12
1.0
 22
0.0
 32
0.0
 13
1.0
 23
0.0
 33
0.0
 40
0.0
 40
0.0
 40
0.0
 40
0.0
 40
0.0588235294117647
 40
0.0588235294117647
 40
0.0588235294117647
 40
0.0588235294117647
 40
0.1176470588235294
 40
0.1176470588235294
 40
0.1176470588235294
 40
0.1176470588235294
 40
0.1764705882352941
 40
0.1764705882352941
 40
0.1764705882352941
 40
0.1764705882352941
 40
0.2352941176470588
 40
0.2352941176470588
 40
0.2352941176470588
 40
0.2352941176470588
 40
0.2941176470588235
 40
0.2941176470588235
 40
0.2941176470588235
 40
0.2941176470588235
 40
0.3529411764705883
 40
0.3529411764705883
 40
0.3529411764705883
 40
0.3529411764705883
 40
0.4117647058823529
 40
0.4117647058823529
 40
0.4117647058823529
 40
0.4117647058823529
 40
0.4705882352941176
 40
0.4705882352941176
 40
0.4705882352941176
 40
0.4705882352941176
 40
0.5294117647058824
 40
0.5294117647058824
 40
0.5294117647058824
 40
0.5294117647058824
 40
0.5882352941176471
 40
0.5882352941176471
 40
0.5882352941176471
 40
0.5882352941176471
 40
0.6470588235294118
 40
0.6470588235294118
 40
0.6470588235294118
 40
0.6470588235294118
 40
0.7058823529411765
 40
0.7058823529411765
 40
0.7058823529411765
 40
0.7058823529411765
 40
0.7647058823529411
 40
0.7647058823529411
 40
0.7647058823529411
 40
0.7647058823529411
 40
0.8235294117647058
 40
0.8235294117647058
 40
0.8235294117647058
 40
0.8235294117647058
 40
0.8823529411764706
 40
0.8823529411764706
 40
0.8823529411764706
 40
0.8823529411764706
 40
1.0
 40
1.0
 40
1.0
 40
1.0
 10
150.0608
 20
-92.4761
 30
0.0
 10
150.0608
 20
-92.4761
 30
0.0
 10
145.2163
 20
-92.4926
 30
0.0
 10
145.2163
 20
-92.4926
 30
0.0
 10
145.2163
 20
-92.4926
 30
0.0
 10
145.2163
 20
-92.4926
 30
0.0
 10
141.7791
 20
-95.9065
 30
0.0
 10
141.7791
 20
-95.9065
 30
0.0
 10
141.7791
 20
-95.9065
 30
0.0
 10
141.7791
 20
-95.9065
 30
0.0
 10
138.3419
 20
-92.4926
 30
0.0
 10
138.3419
 20
-92.4926
 30
0.0
 10
138.3419
 20
-92.4926
 30
0.0
 10
138.3419
 20
-92.4926
 30
0.0
 10
133.4974
 20
-92.4761
 30
0.0
 10
133.4974
 20
-92.4761
 30
0.0
 10
133.4974
 20
-92.4761
 30
0.0
 10
133.4974
 20
-92.4761
 30
0.0
 10
133.4809
 20
-87.6316
 30
0.0
 10
133.4809
 20
-87.6316
 30
0.0
 10
133.4809
 20
-87.6316
 30
0.0
 10
133.4809
 20
-87.6316
 30
0.0
 10
130.067
 20
-84.1944
 30
0.0
 10
130.067
 20
-84.1944
 30
0.0
 10
130.067
 20
-84.1944
 30
0.0
 10
130.067
 20
-84.1944
 30
0.0
 10
133.4809
 20
-80.7572
 30
0.0
 10
133.4809
 20
-80.7572
 30
0.0
 10
133.4809
 20
-80.7572
 30
0.0
 10
133.4809
 20
-80.7572
 30
0.0
 10
133.4974
 20
-75.9128
 30
0.0
 10
133.4974
 20
-75.9128
 30
0.0
 10
133.4974
 20
-75.9128
 30
0.0
 10
133.4974
 20
-75.9128
 30
0.0
 10
138.3419
 20
-75.8963
 30
0.0
 10
138.3419
 20
-75.8963
 30
0.0
 10
138.3419
 20
-75.8963
 30
0.0
 10
138.3419
 20
-75.8963
 30
0.0
 10
141.7791
 20
-72.4823
 30
0.0
 10
141.7791
 20
-72.4823
 30
0.0
 10
141.7791
 20
-72.4823
 30
0.0
 10
141.7791
 20
-72.4823
 30
0.0
 10
145.2163
 20
-75.8963
 30
0.0
 10
145.2163
 20
-75.8963
 30
0.0
 10
145.2163
 20
-75.8963
 30
0.0
 10
145.2163
 20
-75.8963
 30
0.0
 10
150.0608
 20
-75.9128
 30
0.0
 10
150.0608
 20
-75.9128
 30
0.0
 10
150.0608
 20
-75.9128
 30
0.0
 10
150.0608
 20
-75.9128
 30
0.0
 10
150.0773
 20
-80.7572
 30
0.0
 10
150.0773
 20
-80.7572
 30
0.0
 10
150.0773
 20
-80.7572
 30
0.0
 10
150.0773
 20
-80.7572
 30
0.0
 10
153.4912
 20
-84.1944
 30
0.0
 10
153.4912
 20
-84.1944
 30
0.0
 10
153.4912
 20
-84.1944
 30
0.0
 10
153.4912
 20
-84.1944
 30
0.0
 10
150.0773
 20
-87.6316
 30
0.0
 10
150.0773
 20
-87.6316
 30
0.0
 10
150.0773
 20
-87.6316
 30
0.0
 10
150.0773
 20
-87.6316
 30
0.0
 10
150.0608
 20
-92.4761
 30
0.0
 10
150.0608
 20
-92.4761
 30
0.0
  0
SPLINE
  5
51
330
1F
100
AcDbEntity
  8
layer 1
 62
     7
100
AcDbSpline
210
0.0
220
0.0
230
1.0
 70
    11
 71
     3
 72
    68
 73
    64
 74
     0
 42
0.0000000001
 43
0.0000000001
 12
1.0
 22
0.0
 32
0.0
 13
1.0
 23
0.0
 33
0.0
 40
0.0
 40
0.0
 40
0.0
 40
0.0
 40
0.0588235294117647
 40
0.0588235294117647
 40
0.0588235294117647
 40
0.0588235294117647
 40
0.1176470588235294
 40
0.1176470588235294
 40
0.1176470588235294
 40
0.1176470588235294
 40
0.1764705882352941
 40
0.1764705882352941
 40
0.1764705882352941
 40
0.1764705882352941
 40
0.2352941176470588
 40
0.2352941176470588
 40
0.2352941176470588
 40
0.2352941176470588
 40
0.2941176470588235
 40
0.2941176470588235
 40
0.2941176470588235
 40
0.2941176470588235
 40
0.3529411764705883
 40
0.3529411764705883
 40
0.3529411764705883
 40
0.3529411764705883
 40
0.4117647058823529
 40
0.4117647058823529
 40
0.4117647058823529
 40
0.4117647058823529
 40
0.4705882352941176
 40
0.4705882352941176
 40
0.4705882352941176
 40
0.4705882352941176
 40
0.5294117647058824
 40
0.5294117647058824
 40
0.5294117647058824
 40
0.5294117647058824
 40
0.5882352941176471
 40
0.5882352941176471
 40
0.5882352941176471
 40
0.5882352941176471
 40
0.6470588235294118
 40
0.6470588235294118
 40
0.6470588235294118
 40
0.6470588235294118
 40
0.7058823529411765
 40
0.7058823529411765
 40
0.7058823529411765
 40
0.7058823529411765
 40
0.7647058823529411
 40
0.7647058823529411
 40
0.7647058823529411
 40
0.7647058823529411
 40
0.8235294117647058
 40
0.8235294117647058
 40
0.8235294117647058
 40
0.8235294117647058
 40
0.8823529411764706
 40
0.8823529411764706
 40
0.8823529411764706
 40
0.8823529411764706
 40
1.0
 40
1.0
 40
1.0
 40
1.0
 10
114.0549
 20
-71.6441
 30
0.0
 10
114.0549
 20
-71.6441
 30
0.0
 10
110.4579
 20
-68.0602
 30
0.0
 10
110.4579
 20
-68.0602
 30
0.0
 10
110.4579
 20
-68.0602
 30
0.0
 10
110.4579
 20
-68.0602
 30
0.0
 10
114.0549
 20
-64.4593
 30
0.0
 10
114.0549
 20
-64.4593
 30
0.0
 10
114.0549
 20
-64.4593
 30
0.0
 10
114.0549
 20
-64.4593
 30
0.0
 10
121.6508
 20
-64.4593
 30
0.0
 10
121.6508
 20
-64.4593
 30
0.0
 10
121.6508
 20
-64.4593
 30
0.0
 10
121.6508
 20
-64.4593
 30
0.0
 10
121.6757
 20
-56.8385
 30
0.0
 10
121.6757
 20
-56.8385
 30
0.0
 10
121.6757
 20
-56.8385
 30
0.0
 10
121.6757
 20
-56.8385
 30
0.0
 10
125.2596
 20
-53.2415
 30
0.0
 10
125.2596
 20
-53.2415
 30
0.0
 10
125.2596
 20
-53.2415
 30
0.0
 10
125.2596
 20
-53.2415
 30
0.0
 10
128.8605
 20
-56.8385
 30
0.0
 10
128.8605
 20
-56.8385
 30
0.0
 10
128.8605
 20
-56.8385
 30
0.0
 10
128.8605
 20
-56.8385
 30
0.0
 10
128.8586
 20
-64.4777
 30
0.0
 10
128.8586
 20
-64.4777
 30
0.0
 10
128.8586
 20
-64.4777
 30
0.0
 10
128.8586
 20
-64.4777
 30
0.0
 10
136.298
 20
-64.4593
 30
0.0
 10
136.298
 20
-64.4593
 30
0.0
 10
136.298
 20
-64.4593
 30
0.0
 10
136.298
 20
-64.4593
 30
0.0
 10
140.0784
 20
-68.0602
 30
0.0
 10
140.0784
 20
-68.0602
 30
0.0
 10
140.0784
 20
-68.0602
 30
0.0
 10
140.0784
 20
-68.0602
 30
0.0
 10
136.298
 20
-71.6441
 30
0.0
 10
136.298
 20
-71.6441
 30
0.0
 10
136.298
 20
-71.6441
 30
0.0
 10
136.298
 20
-71.6441
 30
0.0
 10
128.8586
 20
-71.6303
 30
0.0
 10
128.8586
 20
-71.6303
 30
0.0
 10
128.8586
 20
-71.6303
 30
0.0
 10
128.8586
 20
-71.6303
 30
0.0
 10
128.8605
 20
-79.0815
 30
0.0
 10
128.8605
 20
-79.0815
 30
0.0
 10
128.8605
 20
-79.0815
 30
0.0
 10
128.8605
 20
-79.0815
 30
0.0
 10
125.2596
 20
-82.8619
 30
0.0
 10
125.2596
 20
-82.8619
 30
0.0
 10
125.2596
 20
-82.8619
 30
0.0
 10
125.2596
 20
-82.8619
 30
0.0
 10
121.6757
 20
-79.0815
 30
0.0
 10
121.6757
 20
-79.0815
 30
0.0
 10
121.6757
 20
-79.0815
 30
0.0
 10
121.6757
 20
-79.0815
 30
0.0
 10
121.6692
 20
-71.6854
 30
0.0
 10
121.6692
 20
-71.6854
 30
0.0
 10
121.6692
 20
-71.6854
 30
0.0
 10
121.6692
 20
-71.6854
 30
0.0
 10
114.0549
 20
-71.6441
 30
0.0
 10
114.0549
 20
-71.6441
 30
0.0
  0
SPLINE
  5
52
330
1F
100
AcDbEntity
  8
layer 1
 62
     7
100
AcDbSpline
210
0.0
220
0.0
230
1.0
 70
    11
 71
     3
 72
    40
 73
    36
 74
     0
 42
0.0000000001
 43
0.0000000001
 12
1.0
 22
0.0
 32
0.0
 13
1.0
 23
0.0
 33
0.0
 40
0.0
 40
0.0
 40
0.0
 40
0.0
 40
0.1
 40
0.1
 40
0.1
 40
0.1
 40
0.2
 40
0.2
 40
0.2
 40
0.2
 40
0.3
 40
0.3
 40
0.3
 40
0.3
 40
0.4
 40
0.4
 40
0.4
 40
0.4
 40
0.5
 40
0.5
 40
0.5
 40
0.5
 40
0.6
 40
0.6
 40
0.6
 40
0.6
 40
0.7
 40
0.7
 40
0.7
 40
0.7
 40
0.8
 40
0.8
 40
0.8
 40
0.8
 40
1.0
 40
1.0
 40
1.0
 40
1.0
 10
92.8262
 20
-53.2416
 30
0.0
 10
92.8262
 20
-53.2416
 30
0.0
 10
96.4271
 20
-56.8386
 30
0.0
 10
96.4271
 20
-56.8386
 30
0.0
 10
96.4271
 20
-56.8386
 30
0.0
 10
96.4271
 20
-56.8386
 30
0.0
 10
96.4252
 20
-64.4778
 30
0.0
 10
96.4252
 20
-64.4778
 30
0.0
 10
96.4252
 20
-64.4778
 30
0.0
 10
96.4252
 20
-64.4778
 30
0.0
 10
103.8645
 20
-64.4594
 30
0.0
 10
103.8645
 20
-64.4594
 30
0.0
 10
103.8645
 20
-64.4594
 30
0.0
 10
103.8645
 20
-64.4594
 30
0.0
 10
107.6449
 20
-68.0603
 30
0.0
 10
107.6449
 20
-68.0603
 30
0.0
 10
107.6449
 20
-68.0603
 30
0.0
 10
107.6449
 20
-68.0603
 30
0.0
 10
103.8645
 20
-71.6442
 30
0.0
 10
103.8645
 20
-71.6442
 30
0.0
 10
103.8645
 20
-71.6442
 30
0.0
 10
103.8645
 20
-71.6442
 30
0.0
 10
96.4252
 20
-71.6304
 30
0.0
 10
96.4252
 20
-71.6304
 30
0.0
 10
96.4252
 20
-71.6304
 30
0.0
 10
96.4252
 20
-71.6304
 30
0.0
 10
96.4271
 20
-79.0816
 30
0.0
 10
96.4271
 20
-79.0816
 30
0.0
 10
96.4271
 20
-79.0816
 30
0.0
 10
96.4271
 20
-79.0816
 30
0.0
 10
92.8262
 20
-82.862
 30
0.0
 10
92.8262
 20
-82.862
 30
0.0
 10
92.8262
 20
-82.862
 30
0.0
 10
92.8262
 20
-82.862
 30
0.0
 10
92.8262
 20
-53.2416
 30
0.0
 10
92.8262
 20
-53.2416
 30
0.0
  0
SPLINE
  5
53
330
1F
100
AcDbEntity
  8
layer 1
 62
     7
100
AcDbSpline
210
0.0
220
0.0
230
1.0
 70
    11
 71
     3
 72
    40
 73
    36
 74
     0
 42
0.0000000001
 43
0.0000000001
 12
1.0
 22
0.0
 32
0.0
 13
1.0
 23
0.0
 33
0.0
 40
0.0
 40
0.0
 40
0.0
 40
0.0
 40
0.1
 40
0.1
 40
0.1
 40
0.1
 40
0.2
 40
0.2
 40
0.2
 40
0.2
 40
0.3
 40
0.3
 40
0.3
 40
0.3
 40
0.4
 40
0.4
 40
0.4
 40
0.4
 40
0.5
 40
0.5
 40
0.5
 40
0.5
 40
0.6
 40
0.6
 40
0.6
 40
0.6
 40
0.7
 40
0.7
 40
0.7
 40
0.7
 40
0.8
 40
0.8
 40
0.8
 40
0.8
 40
1.0
 40
1.0
 40
1.0
 40
1.0
 10
190.5666
 20
-53.2416
 30
0.0
 10
190.5666
 20
-53.2416
 30
0.0
 10
186.9658
 20
-56.8386
 30
0.0
 10
186.9658
 20
-56.8386
 30
0.0
 10
186.9658
 20
-56.8386
 30
0.0
 10
186.9658
 20
-56.8386
 30
0.0
 10
186.9676
 20
-64.4778
 30
0.0
 10
186.9676
 20
-64.4778
 30
0.0
 10
186.9676
 20
-64.4778
 30
0.0
 10
186.9676
 20
-64.4778
 30
0.0
 10
179.5283
 20
-64.4594
 30
0.0
 10
179.5283
 20
-64.4594
 30
0.0
 10
179.5283
 20
-64.4594
 30
0.0
 10
179.5283
 20
-64.4594
 30
0.0
 10
175.7479
 20
-68.0603
 30
0.0
 10
175.7479
 20
-68.0603
 30
0.0
 10
175.7479
 20
-68.0603
 30
0.0
 10
175.7479
 20
-68.0603
 30
0.0
 10
179.5283
 20
-71.6442
 30
0.0
 10
179.5283
 20
-71.6442
 30
0.0
 10
179.5283
 20
-71.6442
 30
0.0
 10
179.5283
 20
-71.6442
 30
0.0
 10
186.9676
 20
-71.6304
 30
0.0
 10
186.9676
 20
-71.6304
 30
0.0
 10
186.9676
 20
-71.6304
 30
0.0
 10
186.9676
 20
-71.6304
 30
0.0
 10
186.9658
 20
-79.0816
 30
0.0
 10
186.9658
 20
-79.0816
 30
0.0
 10
186.9658
 20
-79.0816
 30
0.0
 10
186.9658
 20
-79.0816
 30
0.0
 10
190.5666
 20
-82.862
 30
0.0
 10
190.5666
 20
-82.862
 30
0.0
 10
190.5666
 20
-82.862
 30
0.0
 10
190.5666
 20
-82.862
 30
0.0
 10
190.5666
 20
-53.2416
 30
0.0
 10
190.5666
 20
-53.2416
 30
0.0
  0
SPLINE
  5
54
330
1F
100
AcDbEntity
  8
layer 1
 62
     7
100
AcDbSpline
210
0.0
220
0.0
230
1.0
 70
    11
 71
     3
 72
    68
 73
    64
 74
     0
 42
0.0000000001
 43
0.0000000001
 12
1.0
 22
0.0
 32
0.0
 13
1.0
 23
0.0
 33
0.0
 40
0.0
 40
0.0
 40
0.0
 40
0.0
 40
0.0588235294117647
 40
0.0588235294117647
 40
0.0588235294117647
 40
0.0588235294117647
 40
0.1176470588235294
 40
0.1176470588235294
 40
0.1176470588235294
 40
0.1176470588235294
 40
0.1764705882352941
 40
0.1764705882352941
 40
0.1764705882352941
 40
0.1764705882352941
 40
0.2352941176470588
 40
0.2352941176470588
 40
0.2352941176470588
 40
0.2352941176470588
 40
0.2941176470588235
 40
0.2941176470588235
 40
0.2941176470588235
 40
0.2941176470588235
 40
0.3529411764705883
 40
0.3529411764705883
 40
0.3529411764705883
 40
0.3529411764705883
 40
0.4117647058823529
 40
0.4117647058823529
 40
0.4117647058823529
 40
0.4117647058823529
 40
0.4705882352941176
 40
0.4705882352941176
 40
0.4705882352941176
 40
0.4705882352941176
 40
0.5294117647058824
 40
0.5294117647058824
 40
0.5294117647058824
 40
0.5294117647058824
 40
0.5882352941176471
 40
0.5882352941176471
 40
0.5882352941176471
 40
0.5882352941176471
 40
0.6470588235294118
 40
0.6470588235294118
 40
0.6470588235294118
 40
0.6470588235294118
 40
0.7058823529411765
 40
0.7058823529411765
 40
0.7058823529411765
 40
0.7058823529411765
 40
0.7647058823529411
 40
0.7647058823529411
 40
0.7647058823529411
 40
0.7647058823529411
 40
0.8235294117647058
 40
0.8235294117647058
 40
0.8235294117647058
 40
0.8235294117647058
 40
0.8823529411764706
 40
0.8823529411764706
 40
0.8823529411764706
 40
0.8823529411764706
 40
1.0
 40
1.0
 40
1.0
 40
1.0
 10
146.9785
 20
-71.6441
 30
0.0
 10
146.9785
 20
-71.6441
 30
0.0
 10
143.3815
 20
-68.0602
 30
0.0
 10
143.3815
 20
-68.0602
 30
0.0
 10
143.3815
 20
-68.0602
 30
0.0
 10
143.3815
 20
-68.0602
 30
0.0
 10
146.9785
 20
-64.4593
 30
0.0
 10
146.9785
 20
-64.4593
 30
0.0
 10
146.9785
 20
-64.4593
 30
0.0
 10
146.9785
 20
-64.4593
 30
0.0
 10
154.5744
 20
-64.4593
 30
0.0
 10
154.5744
 20
-64.4593
 30
0.0
 10
154.5744
 20
-64.4593
 30
0.0
 10
154.5744
 20
-64.4593
 30
0.0
 10
154.5993
 20
-56.8385
 30
0.0
 10
154.5993
 20
-56.8385
 30
0.0
 10
154.5993
 20
-56.8385
 30
0.0
 10
154.5993
 20
-56.8385
 30
0.0
 10
158.1832
 20
-53.2415
 30
0.0
 10
158.1832
 20
-53.2415
 30
0.0
 10
158.1832
 20
-53.2415
 30
0.0
 10
158.1832
 20
-53.2415
 30
0.0
 10
161.7841
 20
-56.8385
 30
0.0
 10
161.7841
 20
-56.8385
 30
0.0
 10
161.7841
 20
-56.8385
 30
0.0
 10
161.7841
 20
-56.8385
 30
0.0
 10
161.7822
 20
-64.4777
 30
0.0
 10
161.7822
 20
-64.4777
 30
0.0
 10
161.7822
 20
-64.4777
 30
0.0
 10
161.7822
 20
-64.4777
 30
0.0
 10
169.2215
 20
-64.4593
 30
0.0
 10
169.2215
 20
-64.4593
 30
0.0
 10
169.2215
 20
-64.4593
 30
0.0
 10
169.2215
 20
-64.4593
 30
0.0
 10
173.0019
 20
-68.0602
 30
0.0
 10
173.0019
 20
-68.0602
 30
0.0
 10
173.0019
 20
-68.0602
 30
0.0
 10
173.0019
 20
-68.0602
 30
0.0
 10
169.2215
 20
-71.6441
 30
0.0
 10
169.2215
 20
-71.6441
 30
0.0
 10
169.2215
 20
-71.6441
 30
0.0
 10
169.2215
 20
-71.6441
 30
0.0
 10
161.7822
 20
-71.6303
 30
0.0
 10
161.7822
 20
-71.6303
 30
0.0
 10
161.7822
 20
-71.6303
 30
0.0
 10
161.7822
 20
-71.6303
 30
0.0
 10
161.7841
 20
-79.0815
 30
0.0
 10
161.7841
 20
-79.0815
 30
0.0
 10
161.7841
 20
-79.0815
 30
0.0
 10
161.7841
 20
-79.0815
 30
0.0
 10
158.1832
 20
-82.8619
 30
0.0
 10
158.1832
 20
-82.8619
 30
0.0
 10
158.1832
 20
-82.8619
 30
0.0
 10
158.1832
 20
-82.8619
 30
0.0
 10
154.5993
 20
-79.0815
 30
0.0
 10
154.5993
 20
-79.0815
 30
0.0
 10
154.5993
 20
-79.0815
 30
0.0
 10
154.5993
 20
-79.0815
 30
0.0
 10
154.5928
 20
-71.6854
 30
0.0
 10
154.5928
 20
-71.6854
 30
0.0
 10
154.5928
 20
-71.6854
 30
0.0
 10
154.5928
 20
-71.6854
 30
0.0
 10
146.9785
 20
-71.6441
 30
0.0
 10
146.9785
 20
-71.6441
 30
0.0
  0
SPLINE
  5
55
330
1F
100
AcDbEntity
  8
layer 1
 62
     7
100
AcDbSpline
210
0.0
220
0.0
230
1.0
 70
    11
 71
     3
 72
    68
 73
    64
 74
     0
 42
0.0000000001
 43
0.0000000001
 12
1.0
 22
0.0
 32
0.0
 13
1.0
 23
0.0
 33
0.0
 40
0.0
 40
0.0
 40
0.0
 40
0.0
 40
0.0588235294117647
 40
0.0588235294117647
 40
0.0588235294117647
 40
0.0588235294117647
 40
0.1176470588235294
 40
0.1176470588235294
 40
0.1176470588235294
 40
0.1176470588235294
 40
0.1764705882352941
 40
0.1764705882352941
 40
0.1764705882352941
 40
0.1764705882352941
 40
0.2352941176470588
 40
0.2352941176470588
 40
0.2352941176470588
 40
0.2352941176470588
 40
0.2941176470588235
 40
0.2941176470588235
 40
0.2941176470588235
 40
0.2941176470588235
 40
0.3529411764705883
 40
0.3529411764705883
 40
0.3529411764705883
 40
0.3529411764705883
 40
0.4117647058823529
 40
0.4117647058823529
 40
0.4117647058823529
 40
0.4117647058823529
 40
0.4705882352941176
 40
0.4705882352941176
 40
0.4705882352941176
 40
0.4705882352941176
 40
0.5294117647058824
 40
0.5294117647058824
 40
0.5294117647058824
 40
0.5294117647058824
 40
0.5882352941176471
 40
0.5882352941176471
 40
0.5882352941176471
 40
0.5882352941176471
 40
0.6470588235294118
 40
0.6470588235294118
 40
0.6470588235294118
 40
0.6470588235294118
 40
0.7058823529411765
 40
0.7058823529411765
 40
0.7058823529411765
 40
0.7058823529411765
 40
0.7647058823529411
 40
0.7647058823529411
 40
0.7647058823529411
 40
0.7647058823529411
 40
0.8235294117647058
 40
0.8235294117647058
 40
0.8235294117647058
 40
0.8235294117647058
 40
0.8823529411764706
 40
0.8823529411764706
 40
0.8823529411764706
 40
0.8823529411764706
 40
1.0
 40
1.0
 40
1.0
 40
1.0
 10
117.3823
 20
-92.4761
 30
0.0
 10
117.3823
 20
-92.4761
 30
0.0
 10
112.5378
 20
-92.4926
 30
0.0
 10
112.5378
 20
-92.4926
 30
0.0
 10
112.5378
 20
-92.4926
 30
0.0
 10
112.5378
 20
-92.4926
 30
0.0
 10
109.1006
 20
-95.9065
 30
0.0
 10
109.1006
 20
-95.9065
 30
0.0
 10
109.1006
 20
-95.9065
 30
0.0
 10
109.1006
 20
-95.9065
 30
0.0
 10
105.6634
 20
-92.4926
 30
0.0
 10
105.6634
 20
-92.4926
 30
0.0
 10
105.6634
 20
-92.4926
 30
0.0
 10
105.6634
 20
-92.4926
 30
0.0
 10
100.8189
 20
-92.4761
 30
0.0
 10
100.8189
 20
-92.4761
 30
0.0
 10
100.8189
 20
-92.4761
 30
0.0
 10
100.8189
 20
-92.4761
 30
0.0
 10
100.8024
 20
-87.6316
 30
0.0
 10
100.8024
 20
-87.6316
 30
0.0
 10
100.8024
 20
-87.6316
 30
0.0
 10
100.8024
 20
-87.6316
 30
0.0
 10
97.3885
 20
-84.1944
 30
0.0
 10
97.3885
 20
-84.1944
 30
0.0
 10
97.3885
 20
-84.1944
 30
0.0
 10
97.3885
 20
-84.1944
 30
0.0
 10
100.8024
 20
-80.7572
 30
0.0
 10
100.8024
 20
-80.7572
 30
0.0
 10
100.8024
 20
-80.7572
 30
0.0
 10
100.8024
 20
-80.7572
 30
0.0
 10
100.8189
 20
-75.9128
 30
0.0
 10
100.8189
 20
-75.9128
 30
0.0
 10
100.8189
 20
-75.9128
 30
0.0
 10
100.8189
 20
-75.9128
 30
0.0
 10
105.6634
 20
-75.8963
 30
0.0
 10
105.6634
 20
-75.8963
 30
0.0
 10
105.6634
 20
-75.8963
 30
0.0
 10
105.6634
 20
-75.8963
 30
0.0
 10
109.1006
 20
-72.4823
 30
0.0
 10
109.1006
 20
-72.4823
 30
0.0
 10
109.1006
 20
-72.4823
 30
0.0
 10
109.1006
 20
-72.4823
 30
0.0
 10
112.5378
 20
-75.8963
 30
0.0
 10
112.5378
 20
-75.8963
 30
0.0
 10
112.5378
 20
-75.8963
 30
0.0
 10
112.5378
 20
-75.8963
 30
0.0
 10
117.3823
 20
-75.9128
 30
0.0
 10
117.3823
 20
-75.9128
 30
0.0
 10
117.3823
 20
-75.9128
 30
0.0
 10
117.3823
 20
-75.9128
 30
0.0
 10
117.3987
 20
-80.7572
 30
0.0
 10
117.3987
 20
-80.7572
 30
0.0
 10
117.3987
 20
-80.7572
 30
0.0
 10
117.3987
 20
-80.7572
 30
0.0
 10
120.8127
 20
-84.1944
 30
0.0
 10
120.8127
 20
-84.1944
 30
0.0
 10
120.8127
 20
-84.1944
 30
0.0
 10
120.8127
 20
-84.1944
 30
0.0
 10
117.3987
 20
-87.6316
 30
0.0
 10
117.3987
 20
-87.6316
 30
0.0
 10
117.3987
 20
-87.6316
 30
0.0
 10
117.3987
 20
-87.6316
 30
0.0
 10
117.3823
 20
-92.4761
 30
0.0
 10
117.3823
 20
-92.4761
 30
0.0
  0
SPLINE
  5
56
330
1F
100
AcDbEntity
  8
layer 1
 62
     7
100
AcDbSpline
210
0.0
220
0.0
230
1.0
 70
    11
 71
     3
 72
    68
 73
    64
 74
     0
 42
0.0000000001
 43
0.0000000001
 12
1.0
 22
0.0
 32
0.0
 13
1.0
 23
0.0
 33
0.0
 40
0.0
 40
0.0
 40
0.0
 40
0.0
 40
0.0588235294117647
 40
0.0588235294117647
 40
0.0588235294117647
 40
0.0588235294117647
 40
0.1176470588235294
 40
0.1176470588235294
 40
0.1176470588235294
 40
0.1176470588235294
 40
0.1764705882352941
 40
0.1764705882352941
 40
0.1764705882352941
 40
0.1764705882352941
 40
0.2352941176470588
 40
0.2352941176470588
 40
0.2352941176470588
 40
0.2352941176470588
 40
0.2941176470588235
 40
0.2941176470588235
 40
0.2941176470588235
 40
0.2941176470588235
 40
0.3529411764705883
 40
0.3529411764705883
 40
0.3529411764705883
 40
0.3529411764705883
 40
0.4117647058823529
 40
0.4117647058823529
 40
0.4117647058823529
 40
0.4117647058823529
 40
0.4705882352941176
 40
0.4705882352941176
 40
0.4705882352941176
 40
0.4705882352941176
 40
0.5294117647058824
 40
0.5294117647058824
 40
0.5294117647058824
 40
0.5294117647058824
 40
0.5882352941176471
 40
0.5882352941176471
 40
0.5882352941176471
 40
0.5882352941176471
 40
0.6470588235294118
 40
0.6470588235294118
 40
0.6470588235294118
 40
0.6470588235294118
 40
0.7058823529411765
 40
0.7058823529411765
 40
0.7058823529411765
 40
0.7058823529411765
 40
0.7647058823529411
 40
0.7647058823529411
 40
0.7647058823529411
 40
0.7647058823529411
 40
0.8235294117647058
 40
0.8235294117647058
 40
0.8235294117647058
 40
0.8235294117647058
 40
0.8823529411764706
 40
0.8823529411764706
 40
0.8823529411764706
 40
0.8823529411764706
 40
1.0
 40
1.0
 40
1.0
 40
1.0
 10
182.4125
 20
-92.4761
 30
0.0
 10
182.4125
 20
-92.4761
 30
0.0
 10
177.568
 20
-92.4926
 30
0.0
 10
177.568
 20
-92.4926
 30
0.0
 10
177.568
 20
-92.4926
 30
0.0
 10
177.568
 20
-92.4926
 30
0.0
 10
174.1308
 20
-95.9065
 30
0.0
 10
174.1308
 20
-95.9065
 30
0.0
 10
174.1308
 20
-95.9065
 30
0.0
 10
174.1308
 20
-95.9065
 30
0.0
 10
170.6936
 20
-92.4926
 30
0.0
 10
170.6936
 20
-92.4926
 30
0.0
 10
170.6936
 20
-92.4926
 30
0.0
 10
170.6936
 20
-92.4926
 30
0.0
 10
165.8491
 20
-92.4761
 30
0.0
 10
165.8491
 20
-92.4761
 30
0.0
 10
165.8491
 20
-92.4761
 30
0.0
 10
165.8491
 20
-92.4761
 30
0.0
 10
165.8326
 20
-87.6316
 30
0.0
 10
165.8326
 20
-87.6316
 30
0.0
 10
165.8326
 20
-87.6316
 30
0.0
 10
165.8326
 20
-87.6316
 30
0.0
 10
162.4187
 20
-84.1944
 30
0.0
 10
162.4187
 20
-84.1944
 30
0.0
 10
162.4187
 20
-84.1944
 30
0.0
 10
162.4187
 20
-84.1944
 30
0.0
 10
165.8326
 20
-80.7572
 30
0.0
 10
165.8326
 20
-80.7572
 30
0.0
 10
165.8326
 20
-80.7572
 30
0.0
 10
165.8326
 20
-80.7572
 30
0.0
 10
165.8491
 20
-75.9128
 30
0.0
 10
165.8491
 20
-75.9128
 30
0.0
 10
165.8491
 20
-75.9128
 30
0.0
 10
165.8491
 20
-75.9128
 30
0.0
 10
170.6936
 20
-75.8963
 30
0.0
 10
170.6936
 20
-75.8963
 30
0.0
 10
170.6936
 20
-75.8963
 30
0.0
 10
170.6936
 20
-75.8963
 30
0.0
 10
174.1308
 20
-72.4823
 30
0.0
 10
174.1308
 20
-72.4823
 30
0.0
 10
174.1308
 20
-72.4823
 30
0.0
 10
174.1308
 20
-72.4823
 30
0.0
 10
177.568
 20
-75.8963
 30
0.0
 10
177.568
 20
-75.8963
 30
0.0
 10
177.568
 20
-75.8963
 30
0.0
 10
177.568
 20
-75.8963
 30
0.0
 10
182.4125
 20
-75.9128
 30
0.0
 10
182.4125
 20
-75.9128
 30
0.0
 10
182.4125
 20
-75.9128
 30
0.0
 10
182.4125
 20
-75.9128
 30
0.0
 10
182.429
 20
-80.7572
 30
0.0
 10
182.429
 20
-80.7572
 30
0.0
 10
182.429
 20
-80.7572
 30
0.0
 10
182.429
 20
-80.7572
 30
0.0
 10
185.8429
 20
-84.1944
 30
0.0
 10
185.8429
 20
-84.1944
 30
0.0
 10
185.8429
 20
-84.1944
 30
0.0
 10
185.8429
 20
-84.1944
 30
0.0
 10
182.429
 20
-87.6316
 30
0.0
 10
182.429
 20
-87.6316
 30
0.0
 10
182.429
 20
-87.6316
 30
0.0
 10
182.429
 20
-87.6316
 30
0.0
 10
182.4125
 20
-92.4761
 30
0.0
 10
182.4125
 20
-92.4761
 30
0.0
  0
SPLINE
  5
57
330
1F
100
AcDbEntity
  8
layer 1
 62
     7
100
AcDbSpline
210
0.0
220
0.0
230
1.0
 70
    11
 71
     3
 72
    68
 73
    64
 74
     0
 42
0.0000000001
 43
0.0000000001
 12
1.0
 22
0.0
 32
0.0
 13
1.0
 23
0.0
 33
0.0
 40
0.0
 40
0.0
 40
0.0
 40
0.0
 40
0.0588235294117647
 40
0.0588235294117647
 40
0.0588235294117647
 40
0.0588235294117647
 40
0.1176470588235294
 40
0.1176470588235294
 40
0.1176470588235294
 40
0.1176470588235294
 40
0.1764705882352941
 40
0.1764705882352941
 40
0.1764705882352941
 40
0.1764705882352941
 40
0.2352941176470588
 40
0.2352941176470588
 40
0.2352941176470588
 40
0.2352941176470588
 40
0.2941176470588235
 40
0.2941176470588235
 40
0.2941176470588235
 40
0.2941176470588235
 40
0.3529411764705883
 40
0.3529411764705883
 40
0.3529411764705883
 40
0.3529411764705883
 40
0.4117647058823529
 40
0.4117647058823529
 40
0.4117647058823529
 40
0.4117647058823529
 40
0.4705882352941176
 40
0.4705882352941176
 40
0.4705882352941176
 40
0.4705882352941176
 40
0.5294117647058824
 40
0.5294117647058824
 40
0.5294117647058824
 40
0.5294117647058824
 40
0.5882352941176471
 40
0.5882352941176471
 40
0.5882352941176471
 40
0.5882352941176471
 40
0.6470588235294118
 40
0.6470588235294118
 40
0.6470588235294118
 40
0.6470588235294118
 40
0.7058823529411765
 40
0.7058823529411765
 40
0.7058823529411765
 40
0.7058823529411765
 40
0.7647058823529411
 40
0.7647058823529411
 40
0.7647058823529411
 40
0.7647058823529411
 40
0.8235294117647058
 40
0.8235294117647058
 40
0.8235294117647058
 40
0.8235294117647058
 40
0.8823529411764706
 40
0.8823529411764706
 40
0.8823529411764706
 40
0.8823529411764706
 40
1.0
 40
1.0
 40
1.0
 40
1.0
 10
150.0608
 20
4.751
 30
0.0
 10
150.0608
 20
4.751
 30
0.0
 10
145.2163
 20
4.7346
 30
0.0
 10
145.2163
 20
4.7346
 30
0.0
 10
145.2163
 20
4.7346
 30
0.0
 10
145.2163
 20
4.7346
 30
0.0
 10
141.7791
 20
1.3206
 30
0.0
 10
141.7791
 20
1.3206
 30
0.0
 10
141.7791
 20
1.3206
 30
0.0
 10
141.7791
 20
1.3206
 30
0.0
 10
138.3419
 20
4.7346
 30
0.0
 10
138.3419
 20
4.7346
 30
0.0
 10
138.3419
 20
4.7346
 30
0.0
 10
138.3419
 20
4.7346
 30
0.0
 10
133.4974
 20
4.751
 30
0.0
 10
133.4974
 20
4.751
 30
0.0
 10
133.4974
 20
4.751
 30
0.0
 10
133.4974
 20
4.751
 30
0.0
 10
133.4809
 20
9.5955
 30
0.0
 10
133.4809
 20
9.5955
 30
0.0
 10
133.4809
 20
9.5955
 30
0.0
 10
133.4809
 20
9.5955
 30
0.0
 10
130.067
 20
13.0327
 30
0.0
 10
130.067
 20
13.0327
 30
0.0
 10
130.067
 20
13.0327
 30
0.0
 10
130.067
 20
13.0327
 30
0.0
 10
133.4809
 20
16.4699
 30
0.0
 10
133.4809
 20
16.4699
 30
0.0
 10
133.4809
 20
16.4699
 30
0.0
 10
133.4809
 20
16.4699
 30
0.0
 10
133.4974
 20
21.3144
 30
0.0
 10
133.4974
 20
21.3144
 30
0.0
 10
133.4974
 20
21.3144
 30
0.0
 10
133.4974
 20
21.3144
 30
0.0
 10
138.3419
 20
21.3309
 30
0.0
 10
138.3419
 20
21.3309
 30
0.0
 10
138.3419
 20
21.3309
 30
0.0
 10
138.3419
 20
21.3309
 30
0.0
 10
141.7791
 20
24.7448
 30
0.0
 10
141.7791
 20
24.7448
 30
0.0
 10
141.7791
 20
24.7448
 30
0.0
 10
141.7791
 20
24.7448
 30
0.0
 10
145.2163
 20
21.3309
 30
0.0
 10
145.2163
 20
21.3309
 30
0.0
 10
145.2163
 20
21.3309
 30
0.0
 10
145.2163
 20
21.3309
 30
0.0
 10
150.0608
 20
21.3144
 30
0.0
 10
150.0608
 20
21.3144
 30
0.0
 10
150.0608
 20
21.3144
 30
0.0
 10
150.0608
 20
21.3144
 30
0.0
 10
150.0773
 20
16.4699
 30
0.0
 10
150.0773
 20
16.4699
 30
0.0
 10
150.0773
 20
16.4699
 30
0.0
 10
150.0773
 20
16.4699
 30
0.0
 10
153.4912
 20
13.0327
 30
0.0
 10
153.4912
 20
13.0327
 30
0.0
 10
153.4912
 20
13.0327
 30
0.0
 10
153.4912
 20
13.0327
 30
0.0
 10
150.0773
 20
9.5955
 30
0.0
 10
150.0773
 20
9.5955
 30
0.0
 10
150.0773
 20
9.5955
 30
0.0
 10
150.0773
 20
9.5955
 30
0.0
 10
150.0608
 20
4.751
 30
0.0
 10
150.0608
 20
4.751
 30
0.0
  0
SPLINE
  5
58
330
1F
100
AcDbEntity
  8
layer 1
 62
     7
100
AcDbSpline
210
0.0
220
0.0
230
1.0
 70
    11
 71
     3
 72
    68
 73
    64
 74
     0
 42
0.0000000001
 43
0.0000000001
 12
1.0
 22
0.0
 32
0.0
 13
1.0
 23
0.0
 33
0.0
 40
0.0
 40
0.0
 40
0.0
 40
0.0
 40
0.0588235294117647
 40
0.0588235294117647
 40
0.0588235294117647
 40
0.0588235294117647
 40
0.1176470588235294
 40
0.1176470588235294
 40
0.1176470588235294
 40
0.1176470588235294
 40
0.1764705882352941
 40
0.1764705882352941
 40
0.1764705882352941
 40
0.1764705882352941
 40
0.2352941176470588
 40
0.2352941176470588
 40
0.2352941176470588
 40
0.2352941176470588
 40
0.2941176470588235
 40
0.2941176470588235
 40
0.2941176470588235
 40
0.2941176470588235
 40
0.3529411764705883
 40
0.3529411764705883
 40
0.3529411764705883
 40
0.3529411764705883
 40
0.4117647058823529
 40
0.4117647058823529
 40
0.4117647058823529
 40
0.4117647058823529
 40
0.4705882352941176
 40
0.4705882352941176
 40
0.4705882352941176
 40
0.4705882352941176
 40
0.5294117647058824
 40
0.5294117647058824
 40
0.5294117647058824
 40
0.5294117647058824
 40
0.5882352941176471
 40
0.5882352941176471
 40
0.5882352941176471
 40
0.5882352941176471
 40
0.6470588235294118
 40
0.6470588235294118
 40
0.6470588235294118
 40
0.6470588235294118
 40
0.7058823529411765
 40
0.7058823529411765
 40
0.7058823529411765
 40
0.7058823529411765
 40
0.7647058823529411
 40
0.7647058823529411
 40
0.7647058823529411
 40
0.7647058823529411
 40
0.8235294117647058
 40
0.8235294117647058
 40
0.8235294117647058
 40
0.8235294117647058
 40
0.8823529411764706
 40
0.8823529411764706
 40
0.8823529411764706
 40
0.8823529411764706
 40
1.0
 40
1.0
 40
1.0
 40
1.0
 10
114.0549
 20
25.583
 30
0.0
 10
114.0549
 20
25.583
 30
0.0
 10
110.4579
 20
29.167
 30
0.0
 10
110.4579
 20
29.167
 30
0.0
 10
110.4579
 20
29.167
 30
0.0
 10
110.4579
 20
29.167
 30
0.0
 10
114.0549
 20
32.7678
 30
0.0
 10
114.0549
 20
32.7678
 30
0.0
 10
114.0549
 20
32.7678
 30
0.0
 10
114.0549
 20
32.7678
 30
0.0
 10
121.6508
 20
32.7678
 30
0.0
 10
121.6508
 20
32.7678
 30
0.0
 10
121.6508
 20
32.7678
 30
0.0
 10
121.6508
 20
32.7678
 30
0.0
 10
121.6757
 20
40.3887
 30
0.0
 10
121.6757
 20
40.3887
 30
0.0
 10
121.6757
 20
40.3887
 30
0.0
 10
121.6757
 20
40.3887
 30
0.0
 10
125.2596
 20
43.9856
 30
0.0
 10
125.2596
 20
43.9856
 30
0.0
 10
125.2596
 20
43.9856
 30
0.0
 10
125.2596
 20
43.9856
 30
0.0
 10
128.8605
 20
40.3887
 30
0.0
 10
128.8605
 20
40.3887
 30
0.0
 10
128.8605
 20
40.3887
 30
0.0
 10
128.8605
 20
40.3887
 30
0.0
 10
128.8586
 20
32.7495
 30
0.0
 10
128.8586
 20
32.7495
 30
0.0
 10
128.8586
 20
32.7495
 30
0.0
 10
128.8586
 20
32.7495
 30
0.0
 10
136.298
 20
32.7678
 30
0.0
 10
136.298
 20
32.7678
 30
0.0
 10
136.298
 20
32.7678
 30
0.0
 10
136.298
 20
32.7678
 30
0.0
 10
140.0784
 20
29.167
 30
0.0
 10
140.0784
 20
29.167
 30
0.0
 10
140.0784
 20
29.167
 30
0.0
 10
140.0784
 20
29.167
 30
0.0
 10
136.298
 20
25.583
 30
0.0
 10
136.298
 20
25.583
 30
0.0
 10
136.298
 20
25.583
 30
0.0
 10
136.298
 20
25.583
 30
0.0
 10
128.8586
 20
25.5969
 30
0.0
 10
128.8586
 20
25.5969
 30
0.0
 10
128.8586
 20
25.5969
 30
0.0
 10
128.8586
 20
25.5969
 30
0.0
 10
128.8605
 20
18.1457
 30
0.0
 10
128.8605
 20
18.1457
 30
0.0
 10
128.8605
 20
18.1457
 30
0.0
 10
128.8605
 20
18.1457
 30
0.0
 10
125.2596
 20
14.3653
 30
0.0
 10
125.2596
 20
14.3653
 30
0.0
 10
125.2596
 20
14.3653
 30
0.0
 10
125.2596
 20
14.3653
 30
0.0
 10
121.6757
 20
18.1457
 30
0.0
 10
121.6757
 20
18.1457
 30
0.0
 10
121.6757
 20
18.1457
 30
0.0
 10
121.6757
 20
18.1457
 30
0.0
 10
121.6692
 20
25.5418
 30
0.0
 10
121.6692
 20
25.5418
 30
0.0
 10
121.6692
 20
25.5418
 30
0.0
 10
121.6692
 20
25.5418
 30
0.0
 10
114.0549
 20
25.583
 30
0.0
 10
114.0549
 20
25.583
 30
0.0
  0
SPLINE
  5
59
330
1F
100
AcDbEntity
  8
layer 1
 62
     7
100
AcDbSpline
210
0.0
220
0.0
230
1.0
 70
    11
 71
     3
 72
    40
 73
    36
 74
     0
 42
0.0000000001
 43
0.0000000001
 12
1.0
 22
0.0
 32
0.0
 13
1.0
 23
0.0
 33
0.0
 40
0.0
 40
0.0
 40
0.0
 40
0.0
 40
0.1
 40
0.1
 40
0.1
 40
0.1
 40
0.2
 40
0.2
 40
0.2
 40
0.2
 40
0.3
 40
0.3
 40
0.3
 40
0.3
 40
0.4
 40
0.4
 40
0.4
 40
0.4
 40
0.5
 40
0.5
 40
0.5
 40
0.5
 40
0.6
 40
0.6
 40
0.6
 40
0.6
 40
0.7
 40
0.7
 40
0.7
 40
0.7
 40
0.8
 40
0.8
 40
0.8
 40
0.8
 40
1.0
 40
1.0
 40
1.0
 40
1.0
 10
92.8262
 20
43.9856
 30
0.0
 10
92.8262
 20
43.9856
 30
0.0
 10
96.4271
 20
40.3887
 30
0.0
 10
96.4271
 20
40.3887
 30
0.0
 10
96.4271
 20
40.3887
 30
0.0
 10
96.4271
 20
40.3887
 30
0.0
 10
96.4252
 20
32.7495
 30
0.0
 10
96.4252
 20
32.7495
 30
0.0
 10
96.4252
 20
32.7495
 30
0.0
 10
96.4252
 20
32.7495
 30
0.0
 10
103.8645
 20
32.7678
 30
0.0
 10
103.8645
 20
32.7678
 30
0.0
 10
103.8645
 20
32.7678
 30
0.0
 10
103.8645
 20
32.7678
 30
0.0
 10
107.6449
 20
29.167
 30
0.0
 10
107.6449
 20
29.167
 30
0.0
 10
107.6449
 20
29.167
 30
0.0
 10
107.6449
 20
29.167
 30
0.0
 10
103.8645
 20
25.583
 30
0.0
 10
103.8645
 20
25.583
 30
0.0
 10
103.8645
 20
25.583
 30
0.0
 10
103.8645
 20
25.583
 30
0.0
 10
96.4252
 20
25.5969
 30
0.0
 10
96.4252
 20
25.5969
 30
0.0
 10
96.4252
 20
25.5969
 30
0.0
 10
96.4252
 20
25.5969
 30
0.0
 10
96.4271
 20
18.1457
 30
0.0
 10
96.4271
 20
18.1457
 30
0.0
 10
96.4271
 20
18.1457
 30
0.0
 10
96.4271
 20
18.1457
 30
0.0
 10
92.8262
 20
14.3653
 30
0.0
 10
92.8262
 20
14.3653
 30
0.0
 10
92.8262
 20
14.3653
 30
0.0
 10
92.8262
 20
14.3653
 30
0.0
 10
92.8262
 20
43.9856
 30
0.0
 10
92.8262
 20
43.9856
 30
0.0
  0
SPLINE
  5
5A
330
1F
100
AcDbEntity
  8
layer 1
 62
     7
100
AcDbSpline
210
0.0
220
0.0
230
1.0
 70
    11
 71
     3
 72
    40
 73
    36
 74
     0
 42
0.0000000001
 43
0.0000000001
 12
1.0
 22
0.0
 32
0.0
 13
1.0
 23
0.0
 33
0.0
 40
0.0
 40
0.0
 40
0.0
 40
0.0
 40
0.1
 40
0.1
 40
0.1
 40
0.1
 40
0.2
 40
0.2
 40
0.2
 40
0.2
 40
0.3
 40
0.3
 40
0.3
 40
0.3
 40
0.4
 40
0.4
 40
0.4
 40
0.4
 40
0.5
 40
0.5
 40
0.5
 40
0.5
 40
0.6
 40
0.6
 40
0.6
 40
0.6
 40
0.7
 40
0.7
 40
0.7
 40
0.7
 40
0.8
 40
0.8
 40
0.8
 40
0.8
 40
1.0
 40
1.0
 40
1.0
 40
1.0
 10
190.5666
 20
43.9856
 30
0.0
 10
190.5666
 20
43.9856
 30
0.0
 10
186.9658
 20
40.3887
 30
0.0
 10
186.9658
 20
40.3887
 30
0.0
 10
186.9658
 20
40.3887
 30
0.0
 10
186.9658
 20
40.3887
 30
0.0
 10
186.9676
 20
32.7495
 30
0.0
 10
186.9676
 20
32.7495
 30
0.0
 10
186.9676
 20
32.7495
 30
0.0
 10
186.9676
 20
32.7495
 30
0.0
 10
179.5283
 20
32.7678
 30
0.0
 10
179.5283
 20
32.7678
 30
0.0
 10
179.5283
 20
32.7678
 30
0.0
 10
179.5283
 20
32.7678
 30
0.0
 10
175.7479
 20
29.167
 30
0.0
 10
175.7479
 20
29.167
 30
0.0
 10
175.7479
 20
29.167
 30
0.0
 10
175.7479
 20
29.167
 30
0.0
 10
179.5283
 20
25.583
 30
0.0
 10
179.5283
 20
25.583
 30
0.0
 10
179.5283
 20
25.583
 30
0.0
 10
179.5283
 20
25.583
 30
0.0
 10
186.9676
 20
25.5969
 30
0.0
 10
186.9676
 20
25.5969
 30
0.0
 10
186.9676
 20
25.5969
 30
0.0
 10
186.9676
 20
25.5969
 30
0.0
 10
186.9658
 20
18.1457
 30
0.0
 10
186.9658
 20
18.1457
 30
0.0
 10
186.9658
 20
18.1457
 30
0.0
 10
186.9658
 20
18.1457
 30
0.0
 10
190.5666
 20
14.3653
 30
0.0
 10
190.5666
 20
14.3653
 30
0.0
 10
190.5666
 20
14.3653
 30
0.0
 10
190.5666
 20
14.3653
 30
0.0
 10
190.5666
 20
43.9856
 30
0.0
 10
190.5666
 20
43.9856
 30
0.0
  0
SPLINE
  5
5B
330
1F
100
AcDbEntity
  8
layer 1
 62
     7
100
AcDbSpline
210
0.0
220
0.0
230
1.0
 70
    11
 71
     3
 72
    68
 73
    64
 74
     0
 42
0.0000000001
 43
0.0000000001
 12
1.0
 22
0.0
 32
0.0
 13
1.0
 23
0.0
 33
0.0
 40
0.0
 40
0.0
 40
0.0
 40
0.0
 40
0.0588235294117647
 40
0.0588235294117647
 40
0.0588235294117647
 40
0.0588235294117647
 40
0.1176470588235294
 40
0.1176470588235294
 40
0.1176470588235294
 40
0.1176470588235294
 40
0.1764705882352941
 40
0.1764705882352941
 40
0.1764705882352941
 40
0.1764705882352941
 40
0.2352941176470588
 40
0.2352941176470588
 40
0.2352941176470588
 40
0.2352941176470588
 40
0.2941176470588235
 40
0.2941176470588235
 40
0.2941176470588235
 40
0.2941176470588235
 40
0.3529411764705883
 40
0.3529411764705883
 40
0.3529411764705883
 40
0.3529411764705883
 40
0.4117647058823529
 40
0.4117647058823529
 40
0.4117647058823529
 40
0.4117647058823529
 40
0.4705882352941176
 40
0.4705882352941176
 40
0.4705882352941176
 40
0.4705882352941176
 40
0.5294117647058824
 40
0.5294117647058824
 40
0.5294117647058824
 40
0.5294117647058824
 40
0.5882352941176471
 40
0.5882352941176471
 40
0.5882352941176471
 40
0.5882352941176471
 40
0.6470588235294118
 40
0.6470588235294118
 40
0.6470588235294118
 40
0.6470588235294118
 40
0.7058823529411765
 40
0.7058823529411765
 40
0.7058823529411765
 40
0.7058823529411765
 40
0.7647058823529411
 40
0.7647058823529411
 40
0.7647058823529411
 40
0.7647058823529411
 40
0.8235294117647058
 40
0.8235294117647058
 40
0.8235294117647058
 40
0.8235294117647058
 40
0.8823529411764706
 40
0.8823529411764706
 40
0.8823529411764706
 40
0.8823529411764706
 40
1.0
 40
1.0
 40
1.0
 40
1.0
 10
146.9785
 20
25.583
 30
0.0
 10
146.9785
 20
25.583
 30
0.0
 10
143.3815
 20
29.167
 30
0.0
 10
143.3815
 20
29.167
 30
0.0
 10
143.3815
 20
29.167
 30
0.0
 10
143.3815
 20
29.167
 30
0.0
 10
146.9785
 20
32.7678
 30
0.0
 10
146.9785
 20
32.7678
 30
0.0
 10
146.9785
 20
32.7678
 30
0.0
 10
146.9785
 20
32.7678
 30
0.0
 10
154.5744
 20
32.7678
 30
0.0
 10
154.5744
 20
32.7678
 30
0.0
 10
154.5744
 20
32.7678
 30
0.0
 10
154.5744
 20
32.7678
 30
0.0
 10
154.5993
 20
40.3887
 30
0.0
 10
154.5993
 20
40.3887
 30
0.0
 10
154.5993
 20
40.3887
 30
0.0
 10
154.5993
 20
40.3887
 30
0.0
 10
158.1832
 20
43.9856
 30
0.0
 10
158.1832
 20
43.9856
 30
0.0
 10
158.1832
 20
43.9856
 30
0.0
 10
158.1832
 20
43.9856
 30
0.0
 10
161.7841
 20
40.3887
 30
0.0
 10
161.7841
 20
40.3887
 30
0.0
 10
161.7841
 20
40.3887
 30
0.0
 10
161.7841
 20
40.3887
 30
0.0
 10
161.7822
 20
32.7495
 30
0.0
 10
161.7822
 20
32.7495
 30
0.0
 10
161.7822
 20
32.7495
 30
0.0
 10
161.7822
 20
32.7495
 30
0.0
 10
169.2215
 20
32.7678
 30
0.0
 10
169.2215
 20
32.7678
 30
0.0
 10
169.2215
 20
32.7678
 30
0.0
 10
169.2215
 20
32.7678
 30
0.0
 10
173.0019
 20
29.167
 30
0.0
 10
173.0019
 20
29.167
 30
0.0
 10
173.0019
 20
29.167
 30
0.0
 10
173.0019
 20
29.167
 30
0.0
 10
169.2215
 20
25.583
 30
0.0
 10
169.2215
 20
25.583
 30
0.0
 10
169.2215
 20
25.583
 30
0.0
 10
169.2215
 20
25.583
 30
0.0
 10
161.7822
 20
25.5969
 30
0.0
 10
161.7822
 20
25.5969
 30
0.0
 10
161.7822
 20
25.5969
 30
0.0
 10
161.7822
 20
25.5969
 30
0.0
 10
161.7841
 20
18.1457
 30
0.0
 10
161.7841
 20
18.1457
 30
0.0
 10
161.7841
 20
18.1457
 30
0.0
 10
161.7841
 20
18.1457
 30
0.0
 10
158.1832
 20
14.3653
 30
0.0
 10
158.1832
 20
14.3653
 30
0.0
 10
158.1832
 20
14.3653
 30
0.0
 10
158.1832
 20
14.3653
 30
0.0
 10
154.5993
 20
18.1457
 30
0.0
 10
154.5993
 20
18.1457
 30
0.0
 10
154.5993
 20
18.1457
 30
0.0
 10
154.5993
 20
18.1457
 30
0.0
 10
154.5928
 20
25.5418
 30
0.0
 10
154.5928
 20
25.5418
 30
0.0
 10
154.5928
 20
25.5418
 30
0.0
 10
154.5928
 20
25.5418
 30
0.0
 10
146.9785
 20
25.583
 30
0.0
 10
146.9785
 20
25.583
 30
0.0
  0
SPLINE
  5
5C
330
1F
100
AcDbEntity
  8
layer 1
 62
     7
100
AcDbSpline
210
0.0
220
0.0
230
1.0
 70
    11
 71
     3
 72
    68
 73
    64
 74
     0
 42
0.0000000001
 43
0.0000000001
 12
1.0
 22
0.0
 32
0.0
 13
1.0
 23
0.0
 33
0.0
 40
0.0
 40
0.0
 40
0.0
 40
0.0
 40
0.0588235294117647
 40
0.0588235294117647
 40
0.0588235294117647
 40
0.0588235294117647
 40
0.1176470588235294
 40
0.1176470588235294
 40
0.1176470588235294
 40
0.1176470588235294
 40
0.1764705882352941
 40
0.1764705882352941
 40
0.1764705882352941
 40
0.1764705882352941
 40
0.2352941176470588
 40
0.2352941176470588
 40
0.2352941176470588
 40
0.2352941176470588
 40
0.2941176470588235
 40
0.2941176470588235
 40
0.2941176470588235
 40
0.2941176470588235
 40
0.3529411764705883
 40
0.3529411764705883
 40
0.3529411764705883
 40
0.3529411764705883
 40
0.4117647058823529
 40
0.4117647058823529
 40
0.4117647058823529
 40
0.4117647058823529
 40
0.4705882352941176
 40
0.4705882352941176
 40
0.4705882352941176
 40
0.4705882352941176
 40
0.5294117647058824
 40
0.5294117647058824
 40
0.5294117647058824
 40
0.5294117647058824
 40
0.5882352941176471
 40
0.5882352941176471
 40
0.5882352941176471
 40
0.5882352941176471
 40
0.6470588235294118
 40
0.6470588235294118
 40
0.6470588235294118
 40
0.6470588235294118
 40
0.7058823529411765
 40
0.7058823529411765
 40
0.7058823529411765
 40
0.7058823529411765
 40
0.7647058823529411
 40
0.7647058823529411
 40
0.7647058823529411
 40
0.7647058823529411
 40
0.8235294117647058
 40
0.8235294117647058
 40
0.8235294117647058
 40
0.8235294117647058
 40
0.8823529411764706
 40
0.8823529411764706
 40
0.8823529411764706
 40
0.8823529411764706
 40
1.0
 40
1.0
 40
1.0
 40
1.0
 10
117.3823
 20
4.751
 30
0.0
 10
117.3823
 20
4.751
 30
0.0
 10
112.5378
 20
4.7346
 30
0.0
 10
112.5378
 20
4.7346
 30
0.0
 10
112.5378
 20
4.7346
 30
0.0
 10
112.5378
 20
4.7346
 30
0.0
 10
109.1006
 20
1.3206
 30
0.0
 10
109.1006
 20
1.3206
 30
0.0
 10
109.1006
 20
1.3206
 30
0.0
 10
109.1006
 20
1.3206
 30
0.0
 10
105.6634
 20
4.7346
 30
0.0
 10
105.6634
 20
4.7346
 30
0.0
 10
105.6634
 20
4.7346
 30
0.0
 10
105.6634
 20
4.7346
 30
0.0
 10
100.8189
 20
4.751
 30
0.0
 10
100.8189
 20
4.751
 30
0.0
 10
100.8189
 20
4.751
 30
0.0
 10
100.8189
 20
4.751
 30
0.0
 10
100.8024
 20
9.5955
 30
0.0
 10
100.8024
 20
9.5955
 30
0.0
 10
100.8024
 20
9.5955
 30
0.0
 10
100.8024
 20
9.5955
 30
0.0
 10
97.3885
 20
13.0327
 30
0.0
 10
97.3885
 20
13.0327
 30
0.0
 10
97.3885
 20
13.0327
 30
0.0
 10
97.3885
 20
13.0327
 30
0.0
 10
100.8024
 20
16.4699
 30
0.0
 10
100.8024
 20
16.4699
 30
0.0
 10
100.8024
 20
16.4699
 30
0.0
 10
100.8024
 20
16.4699
 30
0.0
 10
100.8189
 20
21.3144
 30
0.0
 10
100.8189
 20
21.3144
 30
0.0
 10
100.8189
 20
21.3144
 30
0.0
 10
100.8189
 20
21.3144
 30
0.0
 10
105.6634
 20
21.3309
 30
0.0
 10
105.6634
 20
21.3309
 30
0.0
 10
105.6634
 20
21.3309
 30
0.0
 10
105.6634
 20
21.3309
 30
0.0
 10
109.1006
 20
24.7448
 30
0.0
 10
109.1006
 20
24.7448
 30
0.0
 10
109.1006
 20
24.7448
 30
0.0
 10
109.1006
 20
24.7448
 30
0.0
 10
112.5378
 20
21.3309
 30
0.0
 10
112.5378
 20
21.3309
 30
0.0
 10
112.5378
 20
21.3309
 30
0.0
 10
112.5378
 20
21.3309
 30
0.0
 10
117.3823
 20
21.3144
 30
0.0
 10
117.3823
 20
21.3144
 30
0.0
 10
117.3823
 20
21.3144
 30
0.0
 10
117.3823
 20
21.3144
 30
0.0
 10
117.3987
 20
16.4699
 30
0.0
 10
117.3987
 20
16.4699
 30
0.0
 10
117.3987
 20
16.4699
 30
0.0
 10
117.3987
 20
16.4699
 30
0.0
 10
120.8127
 20
13.0327
 30
0.0
 10
120.8127
 20
13.0327
 30
0.0
 10
120.8127
 20
13.0327
 30
0.0
 10
120.8127
 20
13.0327
 30
0.0
 10
117.3987
 20
9.5955
 30
0.0
 10
117.3987
 20
9.5955
 30
0.0
 10
117.3987
 20
9.5955
 30
0.0
 10
117.3987
 20
9.5955
 30
0.0
 10
117.3823
 20
4.751
 30
0.0
 10
117.3823
 20
4.751
 30
0.0
  0
SPLINE
  5
5D
330
1F
100
AcDbEntity
  8
layer 1
 62
     7
100
AcDbSpline
210
0.0
220
0.0
230
1.0
 70
    11
 71
     3
 72
    68
 73
    64
 74
     0
 42
0.0000000001
 43
0.0000000001
 12
1.0
 22
0.0
 32
0.0
 13
1.0
 23
0.0
 33
0.0
 40
0.0
 40
0.0
 40
0.0
 40
0.0
 40
0.0588235294117647
 40
0.0588235294117647
 40
0.0588235294117647
 40
0.0588235294117647
 40
0.1176470588235294
 40
0.1176470588235294
 40
0.1176470588235294
 40
0.1176470588235294
 40
0.1764705882352941
 40
0.1764705882352941
 40
0.1764705882352941
 40
0.1764705882352941
 40
0.2352941176470588
 40
0.2352941176470588
 40
0.2352941176470588
 40
0.2352941176470588
 40
0.2941176470588235
 40
0.2941176470588235
 40
0.2941176470588235
 40
0.2941176470588235
 40
0.3529411764705883
 40
0.3529411764705883
 40
0.3529411764705883
 40
0.3529411764705883
 40
0.4117647058823529
 40
0.4117647058823529
 40
0.4117647058823529
 40
0.4117647058823529
 40
0.4705882352941176
 40
0.4705882352941176
 40
0.4705882352941176
 40
0.4705882352941176
 40
0.5294117647058824
 40
0.5294117647058824
 40
0.5294117647058824
 40
0.5294117647058824
 40
0.5882352941176471
 40
0.5882352941176471
 40
0.5882352941176471
 40
0.5882352941176471
 40
0.6470588235294118
 40
0.6470588235294118
 40
0.6470588235294118
 40
0.6470588235294118
 40
0.7058823529411765
 40
0.7058823529411765
 40
0.7058823529411765
 40
0.7058823529411765
 40
0.7647058823529411
 40
0.7647058823529411
 40
0.7647058823529411
 40
0.7647058823529411
 40
0.8235294117647058
 40
0.8235294117647058
 40
0.8235294117647058
 40
0.8235294117647058
 40
0.8823529411764706
 40
0.8823529411764706
 40
0.8823529411764706
 40
0.8823529411764706
 40
1.0
 40
1.0
 40
1.0
 40
1.0
 10
182.4125
 20
4.751
 30
0.0
 10
182.4125
 20
4.751
 30
0.0
 10
177.568
 20
4.7346
 30
0.0
 10
177.568
 20
4.7346
 30
0.0
 10
177.568
 20
4.7346
 30
0.0
 10
177.568
 20
4.7346
 30
0.0
 10
174.1308
 20
1.3206
 30
0.0
 10
174.1308
 20
1.3206
 30
0.0
 10
174.1308
 20
1.3206
 30
0.0
 10
174.1308
 20
1.3206
 30
0.0
 10
170.6936
 20
4.7346
 30
0.0
 10
170.6936
 20
4.7346
 30
0.0
 10
170.6936
 20
4.7346
 30
0.0
 10
170.6936
 20
4.7346
 30
0.0
 10
165.8491
 20
4.751
 30
0.0
 10
165.8491
 20
4.751
 30
0.0
 10
165.8491
 20
4.751
 30
0.0
 10
165.8491
 20
4.751
 30
0.0
 10
165.8326
 20
9.5955
 30
0.0
 10
165.8326
 20
9.5955
 30
0.0
 10
165.8326
 20
9.5955
 30
0.0
 10
165.8326
 20
9.5955
 30
0.0
 10
162.4187
 20
13.0327
 30
0.0
 10
162.4187
 20
13.0327
 30
0.0
 10
162.4187
 20
13.0327
 30
0.0
 10
162.4187
 20
13.0327
 30
0.0
 10
165.8326
 20
16.4699
 30
0.0
 10
165.8326
 20
16.4699
 30
0.0
 10
165.8326
 20
16.4699
 30
0.0
 10
165.8326
 20
16.4699
 30
0.0
 10
165.8491
 20
21.3144
 30
0.0
 10
165.8491
 20
21.3144
 30
0.0
 10
165.8491
 20
21.3144
 30
0.0
 10
165.8491
 20
21.3144
 30
0.0
 10
170.6936
 20
21.3309
 30
0.0
 10
170.6936
 20
21.3309
 30
0.0
 10
170.6936
 20
21.3309
 30
0.0
 10
170.6936
 20
21.3309
 30
0.0
 10
174.1308
 20
24.7448
 30
0.0
 10
174.1308
 20
24.7448
 30
0.0
 10
174.1308
 20
24.7448
 30
0.0
 10
174.1308
 20
24.7448
 30
0.0
 10
177.568
 20
21.3309
 30
0.0
 10
177.568
 20
21.3309
 30
0.0
 10
177.568
 20
21.3309
 30
0.0
 10
177.568
 20
21.3309
 30
0.0
 10
182.4125
 20
21.3144
 30
0.0
 10
182.4125
 20
21.3144
 30
0.0
 10
182.4125
 20
21.3144
 30
0.0
 10
182.4125
 20
21.3144
 30
0.0
 10
182.429
 20
16.4699
 30
0.0
 10
182.429
 20
16.4699
 30
0.0
 10
182.429
 20
16.4699
 30
0.0
 10
182.429
 20
16.4699
 30
0.0
 10
185.8429
 20
13.0327
 30
0.0
 10
185.8429
 20
13.0327
 30
0.0
 10
185.8429
 20
13.0327
 30
0.0
 10
185.8429
 20
13.0327
 30
0.0
 10
182.429
 20
9.5955
 30
0.0
 10
182.429
 20
9.5955
 30
0.0
 10
182.429
 20
9.5955
 30
0.0
 10
182.429
 20
9.5955
 30
0.0
 10
182.4125
 20
4.751
 30
0.0
 10
182.4125
 20
4.751
 30
0.0
  0
SPLINE
  5
5E
330
1F
100
AcDbEntity
  8
layer 1
 62
     7
100
AcDbSpline
210
0.0
220
0.0
230
1.0
 70
    11
 71
     3
 72
    68
 73
    64
 74
     0
 42
0.0000000001
 43
0.0000000001
 12
1.0
 22
0.0
 32
0.0
 13
1.0
 23
0.0
 33
0.0
 40
0.0
 40
0.0
 40
0.0
 40
0.0
 40
0.0588235294117647
 40
0.0588235294117647
 40
0.0588235294117647
 40
0.0588235294117647
 40
0.1176470588235294
 40
0.1176470588235294
 40
0.1176470588235294
 40
0.1176470588235294
 40
0.1764705882352941
 40
0.1764705882352941
 40
0.1764705882352941
 40
0.1764705882352941
 40
0.2352941176470588
 40
0.2352941176470588
 40
0.2352941176470588
 40
0.2352941176470588
 40
0.2941176470588235
 40
0.2941176470588235
 40
0.2941176470588235
 40
0.2941176470588235
 40
0.3529411764705883
 40
0.3529411764705883
 40
0.3529411764705883
 40
0.3529411764705883
 40
0.4117647058823529
 40
0.4117647058823529
 40
0.4117647058823529
 40
0.4117647058823529
 40
0.4705882352941176
 40
0.4705882352941176
 40
0.4705882352941176
 40
0.4705882352941176
 40
0.5294117647058824
 40
0.5294117647058824
 40
0.5294117647058824
 40
0.5294117647058824
 40
0.5882352941176471
 40
0.5882352941176471
 40
0.5882352941176471
 40
0.5882352941176471
 40
0.6470588235294118
 40
0.6470588235294118
 40
0.6470588235294118
 40
0.6470588235294118
 40
0.7058823529411765
 40
0.7058823529411765
 40
0.7058823529411765
 40
0.7058823529411765
 40
0.7647058823529411
 40
0.7647058823529411
 40
0.7647058823529411
 40
0.7647058823529411
 40
0.8235294117647058
 40
0.8235294117647058
 40
0.8235294117647058
 40
0.8235294117647058
 40
0.8823529411764706
 40
0.8823529411764706
 40
0.8823529411764706
 40
0.8823529411764706
 40
1.0
 40
1.0
 40
1.0
 40
1.0
 10
150.0608
 20
36.9394
 30
0.0
 10
150.0608
 20
36.9394
 30
0.0
 10
145.2163
 20
36.9229
 30
0.0
 10
145.2163
 20
36.9229
 30
0.0
 10
145.2163
 20
36.9229
 30
0.0
 10
145.2163
 20
36.9229
 30
0.0
 10
141.7791
 20
33.509
 30
0.0
 10
141.7791
 20
33.509
 30
0.0
 10
141.7791
 20
33.509
 30
0.0
 10
141.7791
 20
33.509
 30
0.0
 10
138.3419
 20
36.9229
 30
0.0
 10
138.3419
 20
36.9229
 30
0.0
 10
138.3419
 20
36.9229
 30
0.0
 10
138.3419
 20
36.9229
 30
0.0
 10
133.4974
 20
36.9394
 30
0.0
 10
133.4974
 20
36.9394
 30
0.0
 10
133.4974
 20
36.9394
 30
0.0
 10
133.4974
 20
36.9394
 30
0.0
 10
133.4809
 20
41.7839
 30
0.0
 10
133.4809
 20
41.7839
 30
0.0
 10
133.4809
 20
41.7839
 30
0.0
 10
133.4809
 20
41.7839
 30
0.0
 10
130.067
 20
45.2211
 30
0.0
 10
130.067
 20
45.2211
 30
0.0
 10
130.067
 20
45.2211
 30
0.0
 10
130.067
 20
45.2211
 30
0.0
 10
133.4809
 20
48.6583
 30
0.0
 10
133.4809
 20
48.6583
 30
0.0
 10
133.4809
 20
48.6583
 30
0.0
 10
133.4809
 20
48.6583
 30
0.0
 10
133.4974
 20
53.5027
 30
0.0
 10
133.4974
 20
53.5027
 30
0.0
 10
133.4974
 20
53.5027
 30
0.0
 10
133.4974
 20
53.5027
 30
0.0
 10
138.3419
 20
53.5192
 30
0.0
 10
138.3419
 20
53.5192
 30
0.0
 10
138.3419
 20
53.5192
 30
0.0
 10
138.3419
 20
53.5192
 30
0.0
 10
141.7791
 20
56.9332
 30
0.0
 10
141.7791
 20
56.9332
 30
0.0
 10
141.7791
 20
56.9332
 30
0.0
 10
141.7791
 20
56.9332
 30
0.0
 10
145.2163
 20
53.5192
 30
0.0
 10
145.2163
 20
53.5192
 30
0.0
 10
145.2163
 20
53.5192
 30
0.0
 10
145.2163
 20
53.5192
 30
0.0
 10
150.0608
 20
53.5027
 30
0.0
 10
150.0608
 20
53.5027
 30
0.0
 10
150.0608
 20
53.5027
 30
0.0
 10
150.0608
 20
53.5027
 30
0.0
 10
150.0773
 20
48.6583
 30
0.0
 10
150.0773
 20
48.6583
 30
0.0
 10
150.0773
 20
48.6583
 30
0.0
 10
150.0773
 20
48.6583
 30
0.0
 10
153.4912
 20
45.2211
 30
0.0
 10
153.4912
 20
45.2211
 30
0.0
 10
153.4912
 20
45.2211
 30
0.0
 10
153.4912
 20
45.2211
 30
0.0
 10
150.0773
 20
41.7839
 30
0.0
 10
150.0773
 20
41.7839
 30
0.0
 10
150.0773
 20
41.7839
 30
0.0
 10
150.0773
 20
41.7839
 30
0.0
 10
150.0608
 20
36.9394
 30
0.0
 10
150.0608
 20
36.9394
 30
0.0
  0
SPLINE
  5
5F
330
1F
100
AcDbEntity
  8
layer 1
 62
     7
100
AcDbSpline
210
0.0
220
0.0
230
1.0
 70
    11
 71
     3
 72
    68
 73
    64
 74
     0
 42
0.0000000001
 43
0.0000000001
 12
1.0
 22
0.0
 32
0.0
 13
1.0
 23
0.0
 33
0.0
 40
0.0
 40
0.0
 40
0.0
 40
0.0
 40
0.0588235294117647
 40
0.0588235294117647
 40
0.0588235294117647
 40
0.0588235294117647
 40
0.1176470588235294
 40
0.1176470588235294
 40
0.1176470588235294
 40
0.1176470588235294
 40
0.1764705882352941
 40
0.1764705882352941
 40
0.1764705882352941
 40
0.1764705882352941
 40
0.2352941176470588
 40
0.2352941176470588
 40
0.2352941176470588
 40
0.2352941176470588
 40
0.2941176470588235
 40
0.2941176470588235
 40
0.2941176470588235
 40
0.2941176470588235
 40
0.3529411764705883
 40
0.3529411764705883
 40
0.3529411764705883
 40
0.3529411764705883
 40
0.4117647058823529
 40
0.4117647058823529
 40
0.4117647058823529
 40
0.4117647058823529
 40
0.4705882352941176
 40
0.4705882352941176
 40
0.4705882352941176
 40
0.4705882352941176
 40
0.5294117647058824
 40
0.5294117647058824
 40
0.5294117647058824
 40
0.5294117647058824
 40
0.5882352941176471
 40
0.5882352941176471
 40
0.5882352941176471
 40
0.5882352941176471
 40
0.6470588235294118
 40
0.6470588235294118
 40
0.6470588235294118
 40
0.6470588235294118
 40
0.7058823529411765
 40
0.7058823529411765
 40
0.7058823529411765
 40
0.7058823529411765
 40
0.7647058823529411
 40
0.7647058823529411
 40
0.7647058823529411
 40
0.7647058823529411
 40
0.8235294117647058
 40
0.8235294117647058
 40
0.8235294117647058
 40
0.8235294117647058
 40
0.8823529411764706
 40
0.8823529411764706
 40
0.8823529411764706
 40
0.8823529411764706
 40
1.0
 40
1.0
 40
1.0
 40
1.0
 10
114.0549
 20
57.7714
 30
0.0
 10
114.0549
 20
57.7714
 30
0.0
 10
110.4579
 20
61.3554
 30
0.0
 10
110.4579
 20
61.3554
 30
0.0
 10
110.4579
 20
61.3554
 30
0.0
 10
110.4579
 20
61.3554
 30
0.0
 10
114.0549
 20
64.9562
 30
0.0
 10
114.0549
 20
64.9562
 30
0.0
 10
114.0549
 20
64.9562
 30
0.0
 10
114.0549
 20
64.9562
 30
0.0
 10
121.6508
 20
64.9562
 30
0.0
 10
121.6508
 20
64.9562
 30
0.0
 10
121.6508
 20
64.9562
 30
0.0
 10
121.6508
 20
64.9562
 30
0.0
 10
121.6757
 20
72.577
 30
0.0
 10
121.6757
 20
72.577
 30
0.0
 10
121.6757
 20
72.577
 30
0.0
 10
121.6757
 20
72.577
 30
0.0
 10
125.2596
 20
76.174
 30
0.0
 10
125.2596
 20
76.174
 30
0.0
 10
125.2596
 20
76.174
 30
0.0
 10
125.2596
 20
76.174
 30
0.0
 10
128.8605
 20
72.577
 30
0.0
 10
128.8605
 20
72.577
 30
0.0
 10
128.8605
 20
72.577
 30
0.0
 10
128.8605
 20
72.577
 30
0.0
 10
128.8586
 20
64.9379
 30
0.0
 10
128.8586
 20
64.9379
 30
0.0
 10
128.8586
 20
64.9379
 30
0.0
 10
128.8586
 20
64.9379
 30
0.0
 10
136.298
 20
64.9562
 30
0.0
 10
136.298
 20
64.9562
 30
0.0
 10
136.298
 20
64.9562
 30
0.0
 10
136.298
 20
64.9562
 30
0.0
 10
140.0784
 20
61.3554
 30
0.0
 10
140.0784
 20
61.3554
 30
0.0
 10
140.0784
 20
61.3554
 30
0.0
 10
140.0784
 20
61.3554
 30
0.0
 10
136.298
 20
57.7714
 30
0.0
 10
136.298
 20
57.7714
 30
0.0
 10
136.298
 20
57.7714
 30
0.0
 10
136.298
 20
57.7714
 30
0.0
 10
128.8586
 20
57.7852
 30
0.0
 10
128.8586
 20
57.7852
 30
0.0
 10
128.8586
 20
57.7852
 30
0.0
 10
128.8586
 20
57.7852
 30
0.0
 10
128.8605
 20
50.3341
 30
0.0
 10
128.8605
 20
50.3341
 30
0.0
 10
128.8605
 20
50.3341
 30
0.0
 10
128.8605
 20
50.3341
 30
0.0
 10
125.2596
 20
46.5536
 30
0.0
 10
125.2596
 20
46.5536
 30
0.0
 10
125.2596
 20
46.5536
 30
0.0
 10
125.2596
 20
46.5536
 30
0.0
 10
121.6757
 20
50.3341
 30
0.0
 10
121.6757
 20
50.3341
 30
0.0
 10
121.6757
 20
50.3341
 30
0.0
 10
121.6757
 20
50.3341
 30
0.0
 10
121.6692
 20
57.7301
 30
0.0
 10
121.6692
 20
57.7301
 30
0.0
 10
121.6692
 20
57.7301
 30
0.0
 10
121.6692
 20
57.7301
 30
0.0
 10
114.0549
 20
57.7714
 30
0.0
 10
114.0549
 20
57.7714
 30
0.0
  0
SPLINE
  5
60
330
1F
100
AcDbEntity
  8
layer 1
 62
     7
100
AcDbSpline
210
0.0
220
0.0
230
1.0
 70
    11
 71
     3
 72
    40
 73
    36
 74
     0
 42
0.0000000001
 43
0.0000000001
 12
1.0
 22
0.0
 32
0.0
 13
1.0
 23
0.0
 33
0.0
 40
0.0
 40
0.0
 40
0.0
 40
0.0
 40
0.1
 40
0.1
 40
0.1
 40
0.1
 40
0.2
 40
0.2
 40
0.2
 40
0.2
 40
0.3
 40
0.3
 40
0.3
 40
0.3
 40
0.4
 40
0.4
 40
0.4
 40
0.4
 40
0.5
 40
0.5
 40
0.5
 40
0.5
 40
0.6
 40
0.6
 40
0.6
 40
0.6
 40
0.7
 40
0.7
 40
0.7
 40
0.7
 40
0.8
 40
0.8
 40
0.8
 40
0.8
 40
1.0
 40
1.0
 40
1.0
 40
1.0
 10
92.8262
 20
76.1739
 30
0.0
 10
92.8262
 20
76.1739
 30
0.0
 10
96.4271
 20
72.577
 30
0.0
 10
96.4271
 20
72.577
 30
0.0
 10
96.4271
 20
72.577
 30
0.0
 10
96.4271
 20
72.577
 30
0.0
 10
96.4252
 20
64.9378
 30
0.0
 10
96.4252
 20
64.9378
 30
0.0
 10
96.4252
 20
64.9378
 30
0.0
 10
96.4252
 20
64.9378
 30
0.0
 10
103.8645
 20
64.9561
 30
0.0
 10
103.8645
 20
64.9561
 30
0.0
 10
103.8645
 20
64.9561
 30
0.0
 10
103.8645
 20
64.9561
 30
0.0
 10
107.6449
 20
61.3553
 30
0.0
 10
107.6449
 20
61.3553
 30
0.0
 10
107.6449
 20
61.3553
 30
0.0
 10
107.6449
 20
61.3553
 30
0.0
 10
103.8645
 20
57.7713
 30
0.0
 10
103.8645
 20
57.7713
 30
0.0
 10
103.8645
 20
57.7713
 30
0.0
 10
103.8645
 20
57.7713
 30
0.0
 10
96.4252
 20
57.7851
 30
0.0
 10
96.4252
 20
57.7851
 30
0.0
 10
96.4252
 20
57.7851
 30
0.0
 10
96.4252
 20
57.7851
 30
0.0
 10
96.4271
 20
50.334
 30
0.0
 10
96.4271
 20
50.334
 30
0.0
 10
96.4271
 20
50.334
 30
0.0
 10
96.4271
 20
50.334
 30
0.0
 10
92.8262
 20
46.5536
 30
0.0
 10
92.8262
 20
46.5536
 30
0.0
 10
92.8262
 20
46.5536
 30
0.0
 10
92.8262
 20
46.5536
 30
0.0
 10
92.8262
 20
76.1739
 30
0.0
 10
92.8262
 20
76.1739
 30
0.0
  0
SPLINE
  5
61
330
1F
100
AcDbEntity
  8
layer 1
 62
     7
100
AcDbSpline
210
0.0
220
0.0
230
1.0
 70
    11
 71
     3
 72
    40
 73
    36
 74
     0
 42
0.0000000001
 43
0.0000000001
 12
1.0
 22
0.0
 32
0.0
 13
1.0
 23
0.0
 33
0.0
 40
0.0
 40
0.0
 40
0.0
 40
0.0
 40
0.1
 40
0.1
 40
0.1
 40
0.1
 40
0.2
 40
0.2
 40
0.2
 40
0.2
 40
0.3
 40
0.3
 40
0.3
 40
0.3
 40
0.4
 40
0.4
 40
0.4
 40
0.4
 40
0.5
 40
0.5
 40
0.5
 40
0.5
 40
0.6
 40
0.6
 40
0.6
 40
0.6
 40
0.7
 40
0.7
 40
0.7
 40
0.7
 40
0.8
 40
0.8
 40
0.8
 40
0.8
 40
1.0
 40
1.0
 40
1.0
 40
1.0
 10
190.5666
 20
76.1739
 30
0.0
 10
190.5666
 20
76.1739
 30
0.0
 10
186.9658
 20
72.577
 30
0.0
 10
186.9658
 20
72.577
 30
0.0
 10
186.9658
 20
72.577
 30
0.0
 10
186.9658
 20
72.577
 30
0.0
 10
186.9676
 20
64.9378
 30
0.0
 10
186.9676
 20
64.9378
 30
0.0
 10
186.9676
 20
64.9378
 30
0.0
 10
186.9676
 20
64.9378
 30
0.0
 10
179.5283
 20
64.9561
 30
0.0
 10
179.5283
 20
64.9561
 30
0.0
 10
179.5283
 20
64.9561
 30
0.0
 10
179.5283
 20
64.9561
 30
0.0
 10
175.7479
 20
61.3553
 30
0.0
 10
175.7479
 20
61.3553
 30
0.0
 10
175.7479
 20
61.3553
 30
0.0
 10
175.7479
 20
61.3553
 30
0.0
 10
179.5283
 20
57.7713
 30
0.0
 10
179.5283
 20
57.7713
 30
0.0
 10
179.5283
 20
57.7713
 30
0.0
 10
179.5283
 20
57.7713
 30
0.0
 10
186.9676
 20
57.7851
 30
0.0
 10
186.9676
 20
57.7851
 30
0.0
 10
186.9676
 20
57.7851
 30
0.0
 10
186.9676
 20
57.7851
 30
0.0
 10
186.9658
 20
50.334
 30
0.0
 10
186.9658
 20
50.334
 30
0.0
 10
186.9658
 20
50.334
 30
0.0
 10
186.9658
 20
50.334
 30
0.0
 10
190.5666
 20
46.5536
 30
0.0
 10
190.5666
 20
46.5536
 30
0.0
 10
190.5666
 20
46.5536
 30
0.0
 10
190.5666
 20
46.5536
 30
0.0
 10
190.5666
 20
76.1739
 30
0.0
 10
190.5666
 20
76.1739
 30
0.0
  0
SPLINE
  5
62
330
1F
100
AcDbEntity
  8
layer 1
 62
     7
100
AcDbSpline
210
0.0
220
0.0
230
1.0
 70
    11
 71
     3
 72
    68
 73
    64
 74
     0
 42
0.0000000001
 43
0.0000000001
 12
1.0
 22
0.0
 32
0.0
 13
1.0
 23
0.0
 33
0.0
 40
0.0
 40
0.0
 40
0.0
 40
0.0
 40
0.0588235294117647
 40
0.0588235294117647
 40
0.0588235294117647
 40
0.0588235294117647
 40
0.1176470588235294
 40
0.1176470588235294
 40
0.1176470588235294
 40
0.1176470588235294
 40
0.1764705882352941
 40
0.1764705882352941
 40
0.1764705882352941
 40
0.1764705882352941
 40
0.2352941176470588
 40
0.2352941176470588
 40
0.2352941176470588
 40
0.2352941176470588
 40
0.2941176470588235
 40
0.2941176470588235
 40
0.2941176470588235
 40
0.2941176470588235
 40
0.3529411764705883
 40
0.3529411764705883
 40
0.3529411764705883
 40
0.3529411764705883
 40
0.4117647058823529
 40
0.4117647058823529
 40
0.4117647058823529
 40
0.4117647058823529
 40
0.4705882352941176
 40
0.4705882352941176
 40
0.4705882352941176
 40
0.4705882352941176
 40
0.5294117647058824
 40
0.5294117647058824
 40
0.5294117647058824
 40
0.5294117647058824
 40
0.5882352941176471
 40
0.5882352941176471
 40
0.5882352941176471
 40
0.5882352941176471
 40
0.6470588235294118
 40
0.6470588235294118
 40
0.6470588235294118
 40
0.6470588235294118
 40
0.7058823529411765
 40
0.7058823529411765
 40
0.7058823529411765
 40
0.7058823529411765
 40
0.7647058823529411
 40
0.7647058823529411
 40
0.7647058823529411
 40
0.7647058823529411
 40
0.8235294117647058
 40
0.8235294117647058
 40
0.8235294117647058
 40
0.8235294117647058
 40
0.8823529411764706
 40
0.8823529411764706
 40
0.8823529411764706
 40
0.8823529411764706
 40
1.0
 40
1.0
 40
1.0
 40
1.0
 10
146.9785
 20
57.7714
 30
0.0
 10
146.9785
 20
57.7714
 30
0.0
 10
143.3815
 20
61.3554
 30
0.0
 10
143.3815
 20
61.3554
 30
0.0
 10
143.3815
 20
61.3554
 30
0.0
 10
143.3815
 20
61.3554
 30
0.0
 10
146.9785
 20
64.9562
 30
0.0
 10
146.9785
 20
64.9562
 30
0.0
 10
146.9785
 20
64.9562
 30
0.0
 10
146.9785
 20
64.9562
 30
0.0
 10
154.5744
 20
64.9562
 30
0.0
 10
154.5744
 20
64.9562
 30
0.0
 10
154.5744
 20
64.9562
 30
0.0
 10
154.5744
 20
64.9562
 30
0.0
 10
154.5993
 20
72.577
 30
0.0
 10
154.5993
 20
72.577
 30
0.0
 10
154.5993
 20
72.577
 30
0.0
 10
154.5993
 20
72.577
 30
0.0
 10
158.1832
 20
76.174
 30
0.0
 10
158.1832
 20
76.174
 30
0.0
 10
158.1832
 20
76.174
 30
0.0
 10
158.1832
 20
76.174
 30
0.0
 10
161.7841
 20
72.577
 30
0.0
 10
161.7841
 20
72.577
 30
0.0
 10
161.7841
 20
72.577
 30
0.0
 10
161.7841
 20
72.577
 30
0.0
 10
161.7822
 20
64.9379
 30
0.0
 10
161.7822
 20
64.9379
 30
0.0
 10
161.7822
 20
64.9379
 30
0.0
 10
161.7822
 20
64.9379
 30
0.0
 10
169.2215
 20
64.9562
 30
0.0
 10
169.2215
 20
64.9562
 30
0.0
 10
169.2215
 20
64.9562
 30
0.0
 10
169.2215
 20
64.9562
 30
0.0
 10
173.0019
 20
61.3554
 30
0.0
 10
173.0019
 20
61.3554
 30
0.0
 10
173.0019
 20
61.3554
 30
0.0
 10
173.0019
 20
61.3554
 30
0.0
 10
169.2215
 20
57.7714
 30
0.0
 10
169.2215
 20
57.7714
 30
0.0
 10
169.2215
 20
57.7714
 30
0.0
 10
169.2215
 20
57.7714
 30
0.0
 10
161.7822
 20
57.7852
 30
0.0
 10
161.7822
 20
57.7852
 30
0.0
 10
161.7822
 20
57.7852
 30
0.0
 10
161.7822
 20
57.7852
 30
0.0
 10
161.7841
 20
50.3341
 30
0.0
 10
161.7841
 20
50.3341
 30
0.0
 10
161.7841
 20
50.3341
 30
0.0
 10
161.7841
 20
50.3341
 30
0.0
 10
158.1832
 20
46.5536
 30
0.0
 10
158.1832
 20
46.5536
 30
0.0
 10
158.1832
 20
46.5536
 30
0.0
 10
158.1832
 20
46.5536
 30
0.0
 10
154.5993
 20
50.3341
 30
0.0
 10
154.5993
 20
50.3341
 30
0.0
 10
154.5993
 20
50.3341
 30
0.0
 10
154.5993
 20
50.3341
 30
0.0
 10
154.5928
 20
57.7301
 30
0.0
 10
154.5928
 20
57.7301
 30
0.0
 10
154.5928
 20
57.7301
 30
0.0
 10
154.5928
 20
57.7301
 30
0.0
 10
146.9785
 20
57.7714
 30
0.0
 10
146.9785
 20
57.7714
 30
0.0
  0
SPLINE
  5
63
330
1F
100
AcDbEntity
  8
layer 1
 62
     7
100
AcDbSpline
210
0.0
220
0.0
230
1.0
 70
    11
 71
     3
 72
    68
 73
    64
 74
     0
 42
0.0000000001
 43
0.0000000001
 12
1.0
 22
0.0
 32
0.0
 13
1.0
 23
0.0
 33
0.0
 40
0.0
 40
0.0
 40
0.0
 40
0.0
 40
0.0588235294117647
 40
0.0588235294117647
 40
0.0588235294117647
 40
0.0588235294117647
 40
0.1176470588235294
 40
0.1176470588235294
 40
0.1176470588235294
 40
0.1176470588235294
 40
0.1764705882352941
 40
0.1764705882352941
 40
0.1764705882352941
 40
0.1764705882352941
 40
0.2352941176470588
 40
0.2352941176470588
 40
0.2352941176470588
 40
0.2352941176470588
 40
0.2941176470588235
 40
0.2941176470588235
 40
0.2941176470588235
 40
0.2941176470588235
 40
0.3529411764705883
 40
0.3529411764705883
 40
0.3529411764705883
 40
0.3529411764705883
 40
0.4117647058823529
 40
0.4117647058823529
 40
0.4117647058823529
 40
0.4117647058823529
 40
0.4705882352941176
 40
0.4705882352941176
 40
0.4705882352941176
 40
0.4705882352941176
 40
0.5294117647058824
 40
0.5294117647058824
 40
0.5294117647058824
 40
0.5294117647058824
 40
0.5882352941176471
 40
0.5882352941176471
 40
0.5882352941176471
 40
0.5882352941176471
 40
0.6470588235294118
 40
0.6470588235294118
 40
0.6470588235294118
 40
0.6470588235294118
 40
0.7058823529411765
 40
0.7058823529411765
 40
0.7058823529411765
 40
0.7058823529411765
 40
0.7647058823529411
 40
0.7647058823529411
 40
0.7647058823529411
 40
0.7647058823529411
 40
0.8235294117647058
 40
0.8235294117647058
 40
0.8235294117647058
 40
0.8235294117647058
 40
0.8823529411764706
 40
0.8823529411764706
 40
0.8823529411764706
 40
0.8823529411764706
 40
1.0
 40
1.0
 40
1.0
 40
1.0
 10
117.3823
 20
36.9394
 30
0.0
 10
117.3823
 20
36.9394
 30
0.0
 10
112.5378
 20
36.9229
 30
0.0
 10
112.5378
 20
36.9229
 30
0.0
 10
112.5378
 20
36.9229
 30
0.0
 10
112.5378
 20
36.9229
 30
0.0
 10
109.1006
 20
33.509
 30
0.0
 10
109.1006
 20
33.509
 30
0.0
 10
109.1006
 20
33.509
 30
0.0
 10
109.1006
 20
33.509
 30
0.0
 10
105.6634
 20
36.9229
 30
0.0
 10
105.6634
 20
36.9229
 30
0.0
 10
105.6634
 20
36.9229
 30
0.0
 10
105.6634
 20
36.9229
 30
0.0
 10
100.8189
 20
36.9394
 30
0.0
 10
100.8189
 20
36.9394
 30
0.0
 10
100.8189
 20
36.9394
 30
0.0
 10
100.8189
 20
36.9394
 30
0.0
 10
100.8024
 20
41.7839
 30
0.0
 10
100.8024
 20
41.7839
 30
0.0
 10
100.8024
 20
41.7839
 30
0.0
 10
100.8024
 20
41.7839
 30
0.0
 10
97.3885
 20
45.2211
 30
0.0
 10
97.3885
 20
45.2211
 30
0.0
 10
97.3885
 20
45.2211
 30
0.0
 10
97.3885
 20
45.2211
 30
0.0
 10
100.8024
 20
48.6583
 30
0.0
 10
100.8024
 20
48.6583
 30
0.0
 10
100.8024
 20
48.6583
 30
0.0
 10
100.8024
 20
48.6583
 30
0.0
 10
100.8189
 20
53.5027
 30
0.0
 10
100.8189
 20
53.5027
 30
0.0
 10
100.8189
 20
53.5027
 30
0.0
 10
100.8189
 20
53.5027
 30
0.0
 10
105.6634
 20
53.5192
 30
0.0
 10
105.6634
 20
53.5192
 30
0.0
 10
105.6634
 20
53.5192
 30
0.0
 10
105.6634
 20
53.5192
 30
0.0
 10
109.1006
 20
56.9332
 30
0.0
 10
109.1006
 20
56.9332
 30
0.0
 10
109.1006
 20
56.9332
 30
0.0
 10
109.1006
 20
56.9332
 30
0.0
 10
112.5378
 20
53.5192
 30
0.0
 10
112.5378
 20
53.5192
 30
0.0
 10
112.5378
 20
53.5192
 30
0.0
 10
112.5378
 20
53.5192
 30
0.0
 10
117.3823
 20
53.5027
 30
0.0
 10
117.3823
 20
53.5027
 30
0.0
 10
117.3823
 20
53.5027
 30
0.0
 10
117.3823
 20
53.5027
 30
0.0
 10
117.3987
 20
48.6583
 30
0.0
 10
117.3987
 20
48.6583
 30
0.0
 10
117.3987
 20
48.6583
 30
0.0
 10
117.3987
 20
48.6583
 30
0.0
 10
120.8127
 20
45.2211
 30
0.0
 10
120.8127
 20
45.2211
 30
0.0
 10
120.8127
 20
45.2211
 30
0.0
 10
120.8127
 20
45.2211
 30
0.0
 10
117.3987
 20
41.7839
 30
0.0
 10
117.3987
 20
41.7839
 30
0.0
 10
117.3987
 20
41.7839
 30
0.0
 10
117.3987
 20
41.7839
 30
0.0
 10
117.3823
 20
36.9394
 30
0.0
 10
117.3823
 20
36.9394
 30
0.0
  0
SPLINE
  5
64
330
1F
100
AcDbEntity
  8
layer 1
 62
     7
100
AcDbSpline
210
0.0
220
0.0
230
1.0
 70
    11
 71
     3
 72
    68
 73
    64
 74
     0
 42
0.0000000001
 43
0.0000000001
 12
1.0
 22
0.0
 32
0.0
 13
1.0
 23
0.0
 33
0.0
 40
0.0
 40
0.0
 40
0.0
 40
0.0
 40
0.0588235294117647
 40
0.0588235294117647
 40
0.0588235294117647
 40
0.0588235294117647
 40
0.1176470588235294
 40
0.1176470588235294
 40
0.1176470588235294
 40
0.1176470588235294
 40
0.1764705882352941
 40
0.1764705882352941
 40
0.1764705882352941
 40
0.1764705882352941
 40
0.2352941176470588
 40
0.2352941176470588
 40
0.2352941176470588
 40
0.2352941176470588
 40
0.2941176470588235
 40
0.2941176470588235
 40
0.2941176470588235
 40
0.2941176470588235
 40
0.3529411764705883
 40
0.3529411764705883
 40
0.3529411764705883
 40
0.3529411764705883
 40
0.4117647058823529
 40
0.4117647058823529
 40
0.4117647058823529
 40
0.4117647058823529
 40
0.4705882352941176
 40
0.4705882352941176
 40
0.4705882352941176
 40
0.4705882352941176
 40
0.5294117647058824
 40
0.5294117647058824
 40
0.5294117647058824
 40
0.5294117647058824
 40
0.5882352941176471
 40
0.5882352941176471
 40
0.5882352941176471
 40
0.5882352941176471
 40
0.6470588235294118
 40
0.6470588235294118
 40
0.6470588235294118
 40
0.6470588235294118
 40
0.7058823529411765
 40
0.7058823529411765
 40
0.7058823529411765
 40
0.7058823529411765
 40
0.7647058823529411
 40
0.7647058823529411
 40
0.7647058823529411
 40
0.7647058823529411
 40
0.8235294117647058
 40
0.8235294117647058
 40
0.8235294117647058
 40
0.8235294117647058
 40
0.8823529411764706
 40
0.8823529411764706
 40
0.8823529411764706
 40
0.8823529411764706
 40
1.0
 40
1.0
 40
1.0
 40
1.0
 10
182.4125
 20
36.9394
 30
0.0
 10
182.4125
 20
36.9394
 30
0.0
 10
177.568
 20
36.9229
 30
0.0
 10
177.568
 20
36.9229
 30
0.0
 10
177.568
 20
36.9229
 30
0.0
 10
177.568
 20
36.9229
 30
0.0
 10
174.1308
 20
33.509
 30
0.0
 10
174.1308
 20
33.509
 30
0.0
 10
174.1308
 20
33.509
 30
0.0
 10
174.1308
 20
33.509
 30
0.0
 10
170.6936
 20
36.9229
 30
0.0
 10
170.6936
 20
36.9229
 30
0.0
 10
170.6936
 20
36.9229
 30
0.0
 10
170.6936
 20
36.9229
 30
0.0
 10
165.8491
 20
36.9394
 30
0.0
 10
165.8491
 20
36.9394
 30
0.0
 10
165.8491
 20
36.9394
 30
0.0
 10
165.8491
 20
36.9394
 30
0.0
 10
165.8326
 20
41.7839
 30
0.0
 10
165.8326
 20
41.7839
 30
0.0
 10
165.8326
 20
41.7839
 30
0.0
 10
165.8326
 20
41.7839
 30
0.0
 10
162.4187
 20
45.2211
 30
0.0
 10
162.4187
 20
45.2211
 30
0.0
 10
162.4187
 20
45.2211
 30
0.0
 10
162.4187
 20
45.2211
 30
0.0
 10
165.8326
 20
48.6583
 30
0.0
 10
165.8326
 20
48.6583
 30
0.0
 10
165.8326
 20
48.6583
 30
0.0
 10
165.8326
 20
48.6583
 30
0.0
 10
165.8491
 20
53.5027
 30
0.0
 10
165.8491
 20
53.5027
 30
0.0
 10
165.8491
 20
53.5027
 30
0.0
 10
165.8491
 20
53.5027
 30
0.0
 10
170.6936
 20
53.5192
 30
0.0
 10
170.6936
 20
53.5192
 30
0.0
 10
170.6936
 20
53.5192
 30
0.0
 10
170.6936
 20
53.5192
 30
0.0
 10
174.1308
 20
56.9332
 30
0.0
 10
174.1308
 20
56.9332
 30
0.0
 10
174.1308
 20
56.9332
 30
0.0
 10
174.1308
 20
56.9332
 30
0.0
 10
177.568
 20
53.5192
 30
0.0
 10
177.568
 20
53.5192
 30
0.0
 10
177.568
 20
53.5192
 30
0.0
 10
177.568
 20
53.5192
 30
0.0
 10
182.4125
 20
53.5027
 30
0.0
 10
182.4125
 20
53.5027
 30
0.0
 10
182.4125
 20
53.5027
 30
0.0
 10
182.4125
 20
53.5027
 30
0.0
 10
182.429
 20
48.6583
 30
0.0
 10
182.429
 20
48.6583
 30
0.0
 10
182.429
 20
48.6583
 30
0.0
 10
182.429
 20
48.6583
 30
0.0
 10
185.8429
 20
45.2211
 30
0.0
 10
185.8429
 20
45.2211
 30
0.0
 10
185.8429
 20
45.2211
 30
0.0
 10
185.8429
 20
45.2211
 30
0.0
 10
182.429
 20
41.7839
 30
0.0
 10
182.429
 20
41.7839
 30
0.0
 10
182.429
 20
41.7839
 30
0.0
 10
182.429
 20
41.7839
 30
0.0
 10
182.4125
 20
36.9394
 30
0.0
 10
182.4125
 20
36.9394
 30
0.0
  0
SPLINE
  5
65
330
1F
100
AcDbEntity
  8
layer 1
 62
     7
100
AcDbSpline
210
0.0
220
0.0
230
1.0
 70
    11
 71
     3
 72
    68
 73
    64
 74
     0
 42
0.0000000001
 43
0.0000000001
 12
1.0
 22
0.0
 32
0.0
 13
1.0
 23
0.0
 33
0.0
 40
0.0
 40
0.0
 40
0.0
 40
0.0
 40
0.0588235294117647
 40
0.0588235294117647
 40
0.0588235294117647
 40
0.0588235294117647
 40
0.1176470588235294
 40
0.1176470588235294
 40
0.1176470588235294
 40
0.1176470588235294
 40
0.1764705882352941
 40
0.1764705882352941
 40
0.1764705882352941
 40
0.1764705882352941
 40
0.2352941176470588
 40
0.2352941176470588
 40
0.2352941176470588
 40
0.2352941176470588
 40
0.2941176470588235
 40
0.2941176470588235
 40
0.2941176470588235
 40
0.2941176470588235
 40
0.3529411764705883
 40
0.3529411764705883
 40
0.3529411764705883
 40
0.3529411764705883
 40
0.4117647058823529
 40
0.4117647058823529
 40
0.4117647058823529
 40
0.4117647058823529
 40
0.4705882352941176
 40
0.4705882352941176
 40
0.4705882352941176
 40
0.4705882352941176
 40
0.5294117647058824
 40
0.5294117647058824
 40
0.5294117647058824
 40
0.5294117647058824
 40
0.5882352941176471
 40
0.5882352941176471
 40
0.5882352941176471
 40
0.5882352941176471
 40
0.6470588235294118
 40
0.6470588235294118
 40
0.6470588235294118
 40
0.6470588235294118
 40
0.7058823529411765
 40
0.7058823529411765
 40
0.7058823529411765
 40
0.7058823529411765
 40
0.7647058823529411
 40
0.7647058823529411
 40
0.7647058823529411
 40
0.7647058823529411
 40
0.8235294117647058
 40
0.8235294117647058
 40
0.8235294117647058
 40
0.8235294117647058
 40
0.8823529411764706
 40
0.8823529411764706
 40
0.8823529411764706
 40
0.8823529411764706
 40
1.0
 40
1.0
 40
1.0
 40
1.0
 10
150.0608
 20
69.4227
 30
0.0
 10
150.0608
 20
69.4227
 30
0.0
 10
145.2163
 20
69.4062
 30
0.0
 10
145.2163
 20
69.4062
 30
0.0
 10
145.2163
 20
69.4062
 30
0.0
 10
145.2163
 20
69.4062
 30
0.0
 10
141.7791
 20
65.9923
 30
0.0
 10
141.7791
 20
65.9923
 30
0.0
 10
141.7791
 20
65.9923
 30
0.0
 10
141.7791
 20
65.9923
 30
0.0
 10
138.3419
 20
69.4062
 30
0.0
 10
138.3419
 20
69.4062
 30
0.0
 10
138.3419
 20
69.4062
 30
0.0
 10
138.3419
 20
69.4062
 30
0.0
 10
133.4974
 20
69.4227
 30
0.0
 10
133.4974
 20
69.4227
 30
0.0
 10
133.4974
 20
69.4227
 30
0.0
 10
133.4974
 20
69.4227
 30
0.0
 10
133.4809
 20
74.2672
 30
0.0
 10
133.4809
 20
74.2672
 30
0.0
 10
133.4809
 20
74.2672
 30
0.0
 10
133.4809
 20
74.2672
 30
0.0
 10
130.067
 20
77.7044
 30
0.0
 10
130.067
 20
77.7044
 30
0.0
 10
130.067
 20
77.7044
 30
0.0
 10
130.067
 20
77.7044
 30
0.0
 10
133.4809
 20
81.1416
 30
0.0
 10
133.4809
 20
81.1416
 30
0.0
 10
133.4809
 20
81.1416
 30
0.0
 10
133.4809
 20
81.1416
 30
0.0
 10
133.4974
 20
85.986
 30
0.0
 10
133.4974
 20
85.986
 30
0.0
 10
133.4974
 20
85.986
 30
0.0
 10
133.4974
 20
85.986
 30
0.0
 10
138.3419
 20
86.0025
 30
0.0
 10
138.3419
 20
86.0025
 30
0.0
 10
138.3419
 20
86.0025
 30
0.0
 10
138.3419
 20
86.0025
 30
0.0
 10
141.7791
 20
89.4165
 30
0.0
 10
141.7791
 20
89.4165
 30
0.0
 10
141.7791
 20
89.4165
 30
0.0
 10
141.7791
 20
89.4165
 30
0.0
 10
145.2163
 20
86.0025
 30
0.0
 10
145.2163
 20
86.0025
 30
0.0
 10
145.2163
 20
86.0025
 30
0.0
 10
145.2163
 20
86.0025
 30
0.0
 10
150.0608
 20
85.986
 30
0.0
 10
150.0608
 20
85.986
 30
0.0
 10
150.0608
 20
85.986
 30
0.0
 10
150.0608
 20
85.986
 30
0.0
 10
150.0773
 20
81.1416
 30
0.0
 10
150.0773
 20
81.1416
 30
0.0
 10
150.0773
 20
81.1416
 30
0.0
 10
150.0773
 20
81.1416
 30
0.0
 10
153.4912
 20
77.7044
 30
0.0
 10
153.4912
 20
77.7044
 30
0.0
 10
153.4912
 20
77.7044
 30
0.0
 10
153.4912
 20
77.7044
 30
0.0
 10
150.0773
 20
74.2672
 30
0.0
 10
150.0773
 20
74.2672
 30
0.0
 10
150.0773
 20
74.2672
 30
0.0
 10
150.0773
 20
74.2672
 30
0.0
 10
150.0608
 20
69.4227
 30
0.0
 10
150.0608
 20
69.4227
 30
0.0
  0
SPLINE
  5
66
330
1F
100
AcDbEntity
  8
layer 1
 62
     7
100
AcDbSpline
210
0.0
220
0.0
230
1.0
 70
    11
 71
     3
 72
    68
 73
    64
 74
     0
 42
0.0000000001
 43
0.0000000001
 12
1.0
 22
0.0
 32
0.0
 13
1.0
 23
0.0
 33
0.0
 40
0.0
 40
0.0
 40
0.0
 40
0.0
 40
0.0588235294117647
 40
0.0588235294117647
 40
0.0588235294117647
 40
0.0588235294117647
 40
0.1176470588235294
 40
0.1176470588235294
 40
0.1176470588235294
 40
0.1176470588235294
 40
0.1764705882352941
 40
0.1764705882352941
 40
0.1764705882352941
 40
0.1764705882352941
 40
0.2352941176470588
 40
0.2352941176470588
 40
0.2352941176470588
 40
0.2352941176470588
 40
0.2941176470588235
 40
0.2941176470588235
 40
0.2941176470588235
 40
0.2941176470588235
 40
0.3529411764705883
 40
0.3529411764705883
 40
0.3529411764705883
 40
0.3529411764705883
 40
0.4117647058823529
 40
0.4117647058823529
 40
0.4117647058823529
 40
0.4117647058823529
 40
0.4705882352941176
 40
0.4705882352941176
 40
0.4705882352941176
 40
0.4705882352941176
 40
0.5294117647058824
 40
0.5294117647058824
 40
0.5294117647058824
 40
0.5294117647058824
 40
0.5882352941176471
 40
0.5882352941176471
 40
0.5882352941176471
 40
0.5882352941176471
 40
0.6470588235294118
 40
0.6470588235294118
 40
0.6470588235294118
 40
0.6470588235294118
 40
0.7058823529411765
 40
0.7058823529411765
 40
0.7058823529411765
 40
0.7058823529411765
 40
0.7647058823529411
 40
0.7647058823529411
 40
0.7647058823529411
 40
0.7647058823529411
 40
0.8235294117647058
 40
0.8235294117647058
 40
0.8235294117647058
 40
0.8235294117647058
 40
0.8823529411764706
 40
0.8823529411764706
 40
0.8823529411764706
 40
0.8823529411764706
 40
1.0
 40
1.0
 40
1.0
 40
1.0
 10
114.0549
 20
90.2547
 30
0.0
 10
114.0549
 20
90.2547
 30
0.0
 10
110.4579
 20
93.8386
 30
0.0
 10
110.4579
 20
93.8386
 30
0.0
 10
110.4579
 20
93.8386
 30
0.0
 10
110.4579
 20
93.8386
 30
0.0
 10
114.0549
 20
97.4395
 30
0.0
 10
114.0549
 20
97.4395
 30
0.0
 10
114.0549
 20
97.4395
 30
0.0
 10
114.0549
 20
97.4395
 30
0.0
 10
121.6508
 20
97.4395
 30
0.0
 10
121.6508
 20
97.4395
 30
0.0
 10
121.6508
 20
97.4395
 30
0.0
 10
121.6508
 20
97.4395
 30
0.0
 10
121.6757
 20
105.0603
 30
0.0
 10
121.6757
 20
105.0603
 30
0.0
 10
121.6757
 20
105.0603
 30
0.0
 10
121.6757
 20
105.0603
 30
0.0
 10
125.2596
 20
108.6573
 30
0.0
 10
125.2596
 20
108.6573
 30
0.0
 10
125.2596
 20
108.6573
 30
0.0
 10
125.2596
 20
108.6573
 30
0.0
 10
128.8605
 20
105.0603
 30
0.0
 10
128.8605
 20
105.0603
 30
0.0
 10
128.8605
 20
105.0603
 30
0.0
 10
128.8605
 20
105.0603
 30
0.0
 10
128.8586
 20
97.4211
 30
0.0
 10
128.8586
 20
97.4211
 30
0.0
 10
128.8586
 20
97.4211
 30
0.0
 10
128.8586
 20
97.4211
 30
0.0
 10
136.298
 20
97.4395
 30
0.0
 10
136.298
 20
97.4395
 30
0.0
 10
136.298
 20
97.4395
 30
0.0
 10
136.298
 20
97.4395
 30
0.0
 10
140.0784
 20
93.8386
 30
0.0
 10
140.0784
 20
93.8386
 30
0.0
 10
140.0784
 20
93.8386
 30
0.0
 10
140.0784
 20
93.8386
 30
0.0
 10
136.298
 20
90.2547
 30
0.0
 10
136.298
 20
90.2547
 30
0.0
 10
136.298
 20
90.2547
 30
0.0
 10
136.298
 20
90.2547
 30
0.0
 10
128.8586
 20
90.2685
 30
0.0
 10
128.8586
 20
90.2685
 30
0.0
 10
128.8586
 20
90.2685
 30
0.0
 10
128.8586
 20
90.2685
 30
0.0
 10
128.8605
 20
82.8173
 30
0.0
 10
128.8605
 20
82.8173
 30
0.0
 10
128.8605
 20
82.8173
 30
0.0
 10
128.8605
 20
82.8173
 30
0.0
 10
125.2596
 20
79.0369
 30
0.0
 10
125.2596
 20
79.0369
 30
0.0
 10
125.2596
 20
79.0369
 30
0.0
 10
125.2596
 20
79.0369
 30
0.0
 10
121.6757
 20
82.8173
 30
0.0
 10
121.6757
 20
82.8173
 30
0.0
 10
121.6757
 20
82.8173
 30
0.0
 10
121.6757
 20
82.8173
 30
0.0
 10
121.6692
 20
90.2134
 30
0.0
 10
121.6692
 20
90.2134
 30
0.0
 10
121.6692
 20
90.2134
 30
0.0
 10
121.6692
 20
90.2134
 30
0.0
 10
114.0549
 20
90.2547
 30
0.0
 10
114.0549
 20
90.2547
 30
0.0
  0
SPLINE
  5
67
330
1F
100
AcDbEntity
  8
layer 1
 62
     7
100
AcDbSpline
210
0.0
220
0.0
230
1.0
 70
    11
 71
     3
 72
    40
 73
    36
 74
     0
 42
0.0000000001
 43
0.0000000001
 12
1.0
 22
0.0
 32
0.0
 13
1.0
 23
0.0
 33
0.0
 40
0.0
 40
0.0
 40
0.0
 40
0.0
 40
0.1
 40
0.1
 40
0.1
 40
0.1
 40
0.2
 40
0.2
 40
0.2
 40
0.2
 40
0.3
 40
0.3
 40
0.3
 40
0.3
 40
0.4
 40
0.4
 40
0.4
 40
0.4
 40
0.5
 40
0.5
 40
0.5
 40
0.5
 40
0.6
 40
0.6
 40
0.6
 40
0.6
 40
0.7
 40
0.7
 40
0.7
 40
0.7
 40
0.8
 40
0.8
 40
0.8
 40
0.8
 40
1.0
 40
1.0
 40
1.0
 40
1.0
 10
92.8262
 20
108.6572
 30
0.0
 10
92.8262
 20
108.6572
 30
0.0
 10
96.4271
 20
105.0602
 30
0.0
 10
96.4271
 20
105.0602
 30
0.0
 10
96.4271
 20
105.0602
 30
0.0
 10
96.4271
 20
105.0602
 30
0.0
 10
96.4252
 20
97.421
 30
0.0
 10
96.4252
 20
97.421
 30
0.0
 10
96.4252
 20
97.421
 30
0.0
 10
96.4252
 20
97.421
 30
0.0
 10
103.8645
 20
97.4394
 30
0.0
 10
103.8645
 20
97.4394
 30
0.0
 10
103.8645
 20
97.4394
 30
0.0
 10
103.8645
 20
97.4394
 30
0.0
 10
107.6449
 20
93.8385
 30
0.0
 10
107.6449
 20
93.8385
 30
0.0
 10
107.6449
 20
93.8385
 30
0.0
 10
107.6449
 20
93.8385
 30
0.0
 10
103.8645
 20
90.2546
 30
0.0
 10
103.8645
 20
90.2546
 30
0.0
 10
103.8645
 20
90.2546
 30
0.0
 10
103.8645
 20
90.2546
 30
0.0
 10
96.4252
 20
90.2684
 30
0.0
 10
96.4252
 20
90.2684
 30
0.0
 10
96.4252
 20
90.2684
 30
0.0
 10
96.4252
 20
90.2684
 30
0.0
 10
96.4271
 20
82.8172
 30
0.0
 10
96.4271
 20
82.8172
 30
0.0
 10
96.4271
 20
82.8172
 30
0.0
 10
96.4271
 20
82.8172
 30
0.0
 10
92.8262
 20
79.0368
 30
0.0
 10
92.8262
 20
79.0368
 30
0.0
 10
92.8262
 20
79.0368
 30
0.0
 10
92.8262
 20
79.0368
 30
0.0
 10
92.8262
 20
108.6572
 30
0.0
 10
92.8262
 20
108.6572
 30
0.0
  0
SPLINE
  5
68
330
1F
100
AcDbEntity
  8
layer 1
 62
     7
100
AcDbSpline
210
0.0
220
0.0
230
1.0
 70
    11
 71
     3
 72
    40
 73
    36
 74
     0
 42
0.0000000001
 43
0.0000000001
 12
1.0
 22
0.0
 32
0.0
 13
1.0
 23
0.0
 33
0.0
 40
0.0
 40
0.0
 40
0.0
 40
0.0
 40
0.1
 40
0.1
 40
0.1
 40
0.1
 40
0.2
 40
0.2
 40
0.2
 40
0.2
 40
0.3
 40
0.3
 40
0.3
 40
0.3
 40
0.4
 40
0.4
 40
0.4
 40
0.4
 40
0.5
 40
0.5
 40
0.5
 40
0.5
 40
0.6
 40
0.6
 40
0.6
 40
0.6
 40
0.7
 40
0.7
 40
0.7
 40
0.7
 40
0.8
 40
0.8
 40
0.8
 40
0.8
 40
1.0
 40
1.0
 40
1.0
 40
1.0
 10
190.5666
 20
108.6572
 30
0.0
 10
190.5666
 20
108.6572
 30
0.0
 10
186.9658
 20
105.0602
 30
0.0
 10
186.9658
 20
105.0602
 30
0.0
 10
186.9658
 20
105.0602
 30
0.0
 10
186.9658
 20
105.0602
 30
0.0
 10
186.9676
 20
97.421
 30
0.0
 10
186.9676
 20
97.421
 30
0.0
 10
186.9676
 20
97.421
 30
0.0
 10
186.9676
 20
97.421
 30
0.0
 10
179.5283
 20
97.4394
 30
0.0
 10
179.5283
 20
97.4394
 30
0.0
 10
179.5283
 20
97.4394
 30
0.0
 10
179.5283
 20
97.4394
 30
0.0
 10
175.7479
 20
93.8385
 30
0.0
 10
175.7479
 20
93.8385
 30
0.0
 10
175.7479
 20
93.8385
 30
0.0
 10
175.7479
 20
93.8385
 30
0.0
 10
179.5283
 20
90.2546
 30
0.0
 10
179.5283
 20
90.2546
 30
0.0
 10
179.5283
 20
90.2546
 30
0.0
 10
179.5283
 20
90.2546
 30
0.0
 10
186.9676
 20
90.2684
 30
0.0
 10
186.9676
 20
90.2684
 30
0.0
 10
186.9676
 20
90.2684
 30
0.0
 10
186.9676
 20
90.2684
 30
0.0
 10
186.9658
 20
82.8172
 30
0.0
 10
186.9658
 20
82.8172
 30
0.0
 10
186.9658
 20
82.8172
 30
0.0
 10
186.9658
 20
82.8172
 30
0.0
 10
190.5666
 20
79.0368
 30
0.0
 10
190.5666
 20
79.0368
 30
0.0
 10
190.5666
 20
79.0368
 30
0.0
 10
190.5666
 20
79.0368
 30
0.0
 10
190.5666
 20
108.6572
 30
0.0
 10
190.5666
 20
108.6572
 30
0.0
  0
SPLINE
  5
69
330
1F
100
AcDbEntity
  8
layer 1
 62
     7
100
AcDbSpline
210
0.0
220
0.0
230
1.0
 70
    11
 71
     3
 72
    68
 73
    64
 74
     0
 42
0.0000000001
 43
0.0000000001
 12
1.0
 22
0.0
 32
0.0
 13
1.0
 23
0.0
 33
0.0
 40
0.0
 40
0.0
 40
0.0
 40
0.0
 40
0.0588235294117647
 40
0.0588235294117647
 40
0.0588235294117647
 40
0.0588235294117647
 40
0.1176470588235294
 40
0.1176470588235294
 40
0.1176470588235294
 40
0.1176470588235294
 40
0.1764705882352941
 40
0.1764705882352941
 40
0.1764705882352941
 40
0.1764705882352941
 40
0.2352941176470588
 40
0.2352941176470588
 40
0.2352941176470588
 40
0.2352941176470588
 40
0.2941176470588235
 40
0.2941176470588235
 40
0.2941176470588235
 40
0.2941176470588235
 40
0.3529411764705883
 40
0.3529411764705883
 40
0.3529411764705883
 40
0.3529411764705883
 40
0.4117647058823529
 40
0.4117647058823529
 40
0.4117647058823529
 40
0.4117647058823529
 40
0.4705882352941176
 40
0.4705882352941176
 40
0.4705882352941176
 40
0.4705882352941176
 40
0.5294117647058824
 40
0.5294117647058824
 40
0.5294117647058824
 40
0.5294117647058824
 40
0.5882352941176471
 40
0.5882352941176471
 40
0.5882352941176471
 40
0.5882352941176471
 40
0.6470588235294118
 40
0.6470588235294118
 40
0.6470588235294118
 40
0.6470588235294118
 40
0.7058823529411765
 40
0.7058823529411765
 40
0.7058823529411765
 40
0.7058823529411765
 40
0.7647058823529411
 40
0.7647058823529411
 40
0.7647058823529411
 40
0.7647058823529411
 40
0.8235294117647058
 40
0.8235294117647058
 40
0.8235294117647058
 40
0.8235294117647058
 40
0.8823529411764706
 40
0.8823529411764706
 40
0.8823529411764706
 40
0.8823529411764706
 40
1.0
 40
1.0
 40
1.0
 40
1.0
 10
146.9785
 20
90.2547
 30
0.0
 10
146.9785
 20
90.2547
 30
0.0
 10
143.3815
 20
93.8386
 30
0.0
 10
143.3815
 20
93.8386
 30
0.0
 10
143.3815
 20
93.8386
 30
0.0
 10
143.3815
 20
93.8386
 30
0.0
 10
146.9785
 20
97.4395
 30
0.0
 10
146.9785
 20
97.4395
 30
0.0
 10
146.9785
 20
97.4395
 30
0.0
 10
146.9785
 20
97.4395
 30
0.0
 10
154.5744
 20
97.4395
 30
0.0
 10
154.5744
 20
97.4395
 30
0.0
 10
154.5744
 20
97.4395
 30
0.0
 10
154.5744
 20
97.4395
 30
0.0
 10
154.5993
 20
105.0603
 30
0.0
 10
154.5993
 20
105.0603
 30
0.0
 10
154.5993
 20
105.0603
 30
0.0
 10
154.5993
 20
105.0603
 30
0.0
 10
158.1832
 20
108.6573
 30
0.0
 10
158.1832
 20
108.6573
 30
0.0
 10
158.1832
 20
108.6573
 30
0.0
 10
158.1832
 20
108.6573
 30
0.0
 10
161.7841
 20
105.0603
 30
0.0
 10
161.7841
 20
105.0603
 30
0.0
 10
161.7841
 20
105.0603
 30
0.0
 10
161.7841
 20
105.0603
 30
0.0
 10
161.7822
 20
97.4211
 30
0.0
 10
161.7822
 20
97.4211
 30
0.0
 10
161.7822
 20
97.4211
 30
0.0
 10
161.7822
 20
97.4211
 30
0.0
 10
169.2215
 20
97.4395
 30
0.0
 10
169.2215
 20
97.4395
 30
0.0
 10
169.2215
 20
97.4395
 30
0.0
 10
169.2215
 20
97.4395
 30
0.0
 10
173.0019
 20
93.8386
 30
0.0
 10
173.0019
 20
93.8386
 30
0.0
 10
173.0019
 20
93.8386
 30
0.0
 10
173.0019
 20
93.8386
 30
0.0
 10
169.2215
 20
90.2547
 30
0.0
 10
169.2215
 20
90.2547
 30
0.0
 10
169.2215
 20
90.2547
 30
0.0
 10
169.2215
 20
90.2547
 30
0.0
 10
161.7822
 20
90.2685
 30
0.0
 10
161.7822
 20
90.2685
 30
0.0
 10
161.7822
 20
90.2685
 30
0.0
 10
161.7822
 20
90.2685
 30
0.0
 10
161.7841
 20
82.8173
 30
0.0
 10
161.7841
 20
82.8173
 30
0.0
 10
161.7841
 20
82.8173
 30
0.0
 10
161.7841
 20
82.8173
 30
0.0
 10
158.1832
 20
79.0369
 30
0.0
 10
158.1832
 20
79.0369
 30
0.0
 10
158.1832
 20
79.0369
 30
0.0
 10
158.1832
 20
79.0369
 30
0.0
 10
154.5993
 20
82.8173
 30
0.0
 10
154.5993
 20
82.8173
 30
0.0
 10
154.5993
 20
82.8173
 30
0.0
 10
154.5993
 20
82.8173
 30
0.0
 10
154.5928
 20
90.2134
 30
0.0
 10
154.5928
 20
90.2134
 30
0.0
 10
154.5928
 20
90.2134
 30
0.0
 10
154.5928
 20
90.2134
 30
0.0
 10
146.9785
 20
90.2547
 30
0.0
 10
146.9785
 20
90.2547
 30
0.0
  0
SPLINE
  5
6A
330
1F
100
AcDbEntity
  8
layer 1
 62
     7
100
AcDbSpline
210
0.0
220
0.0
230
1.0
 70
    11
 71
     3
 72
    68
 73
    64
 74
     0
 42
0.0000000001
 43
0.0000000001
 12
1.0
 22
0.0
 32
0.0
 13
1.0
 23
0.0
 33
0.0
 40
0.0
 40
0.0
 40
0.0
 40
0.0
 40
0.0588235294117647
 40
0.0588235294117647
 40
0.0588235294117647
 40
0.0588235294117647
 40
0.1176470588235294
 40
0.1176470588235294
 40
0.1176470588235294
 40
0.1176470588235294
 40
0.1764705882352941
 40
0.1764705882352941
 40
0.1764705882352941
 40
0.1764705882352941
 40
0.2352941176470588
 40
0.2352941176470588
 40
0.2352941176470588
 40
0.2352941176470588
 40
0.2941176470588235
 40
0.2941176470588235
 40
0.2941176470588235
 40
0.2941176470588235
 40
0.3529411764705883
 40
0.3529411764705883
 40
0.3529411764705883
 40
0.3529411764705883
 40
0.4117647058823529
 40
0.4117647058823529
 40
0.4117647058823529
 40
0.4117647058823529
 40
0.4705882352941176
 40
0.4705882352941176
 40
0.4705882352941176
 40
0.4705882352941176
 40
0.5294117647058824
 40
0.5294117647058824
 40
0.5294117647058824
 40
0.5294117647058824
 40
0.5882352941176471
 40
0.5882352941176471
 40
0.5882352941176471
 40
0.5882352941176471
 40
0.6470588235294118
 40
0.6470588235294118
 40
0.6470588235294118
 40
0.6470588235294118
 40
0.7058823529411765
 40
0.7058823529411765
 40
0.7058823529411765
 40
0.7058823529411765
 40
0.7647058823529411
 40
0.7647058823529411
 40
0.7647058823529411
 40
0.7647058823529411
 40
0.8235294117647058
 40
0.8235294117647058
 40
0.8235294117647058
 40
0.8235294117647058
 40
0.8823529411764706
 40
0.8823529411764706
 40
0.8823529411764706
 40
0.8823529411764706
 40
1.0
 40
1.0
 40
1.0
 40
1.0
 10
117.3823
 20
69.4227
 30
0.0
 10
117.3823
 20
69.4227
 30
0.0
 10
112.5378
 20
69.4062
 30
0.0
 10
112.5378
 20
69.4062
 30
0.0
 10
112.5378
 20
69.4062
 30
0.0
 10
112.5378
 20
69.4062
 30
0.0
 10
109.1006
 20
65.9923
 30
0.0
 10
109.1006
 20
65.9923
 30
0.0
 10
109.1006
 20
65.9923
 30
0.0
 10
109.1006
 20
65.9923
 30
0.0
 10
105.6634
 20
69.4062
 30
0.0
 10
105.6634
 20
69.4062
 30
0.0
 10
105.6634
 20
69.4062
 30
0.0
 10
105.6634
 20
69.4062
 30
0.0
 10
100.8189
 20
69.4227
 30
0.0
 10
100.8189
 20
69.4227
 30
0.0
 10
100.8189
 20
69.4227
 30
0.0
 10
100.8189
 20
69.4227
 30
0.0
 10
100.8024
 20
74.2672
 30
0.0
 10
100.8024
 20
74.2672
 30
0.0
 10
100.8024
 20
74.2672
 30
0.0
 10
100.8024
 20
74.2672
 30
0.0
 10
97.3885
 20
77.7044
 30
0.0
 10
97.3885
 20
77.7044
 30
0.0
 10
97.3885
 20
77.7044
 30
0.0
 10
97.3885
 20
77.7044
 30
0.0
 10
100.8024
 20
81.1416
 30
0.0
 10
100.8024
 20
81.1416
 30
0.0
 10
100.8024
 20
81.1416
 30
0.0
 10
100.8024
 20
81.1416
 30
0.0
 10
100.8189
 20
85.986
 30
0.0
 10
100.8189
 20
85.986
 30
0.0
 10
100.8189
 20
85.986
 30
0.0
 10
100.8189
 20
85.986
 30
0.0
 10
105.6634
 20
86.0025
 30
0.0
 10
105.6634
 20
86.0025
 30
0.0
 10
105.6634
 20
86.0025
 30
0.0
 10
105.6634
 20
86.0025
 30
0.0
 10
109.1006
 20
89.4165
 30
0.0
 10
109.1006
 20
89.4165
 30
0.0
 10
109.1006
 20
89.4165
 30
0.0
 10
109.1006
 20
89.4165
 30
0.0
 10
112.5378
 20
86.0025
 30
0.0
 10
112.5378
 20
86.0025
 30
0.0
 10
112.5378
 20
86.0025
 30
0.0
 10
112.5378
 20
86.0025
 30
0.0
 10
117.3823
 20
85.986
 30
0.0
 10
117.3823
 20
85.986
 30
0.0
 10
117.3823
 20
85.986
 30
0.0
 10
117.3823
 20
85.986
 30
0.0
 10
117.3987
 20
81.1416
 30
0.0
 10
117.3987
 20
81.1416
 30
0.0
 10
117.3987
 20
81.1416
 30
0.0
 10
117.3987
 20
81.1416
 30
0.0
 10
120.8127
 20
77.7044
 30
0.0
 10
120.8127
 20
77.7044
 30
0.0
 10
120.8127
 20
77.7044
 30
0.0
 10
120.8127
 20
77.7044
 30
0.0
 10
117.3987
 20
74.2672
 30
0.0
 10
117.3987
 20
74.2672
 30
0.0
 10
117.3987
 20
74.2672
 30
0.0
 10
117.3987
 20
74.2672
 30
0.0
 10
117.3823
 20
69.4227
 30
0.0
 10
117.3823
 20
69.4227
 30
0.0
  0
SPLINE
  5
6B
330
1F
100
AcDbEntity
  8
layer 1
 62
     7
100
AcDbSpline
210
0.0
220
0.0
230
1.0
 70
    11
 71
     3
 72
    68
 73
    64
 74
     0
 42
0.0000000001
 43
0.0000000001
 12
1.0
 22
0.0
 32
0.0
 13
1.0
 23
0.0
 33
0.0
 40
0.0
 40
0.0
 40
0.0
 40
0.0
 40
0.0588235294117647
 40
0.0588235294117647
 40
0.0588235294117647
 40
0.0588235294117647
 40
0.1176470588235294
 40
0.1176470588235294
 40
0.1176470588235294
 40
0.1176470588235294
 40
0.1764705882352941
 40
0.1764705882352941
 40
0.1764705882352941
 40
0.1764705882352941
 40
0.2352941176470588
 40
0.2352941176470588
 40
0.2352941176470588
 40
0.2352941176470588
 40
0.2941176470588235
 40
0.2941176470588235
 40
0.2941176470588235
 40
0.2941176470588235
 40
0.3529411764705883
 40
0.3529411764705883
 40
0.3529411764705883
 40
0.3529411764705883
 40
0.4117647058823529
 40
0.4117647058823529
 40
0.4117647058823529
 40
0.4117647058823529
 40
0.4705882352941176
 40
0.4705882352941176
 40
0.4705882352941176
 40
0.4705882352941176
 40
0.5294117647058824
 40
0.5294117647058824
 40
0.5294117647058824
 40
0.5294117647058824
 40
0.5882352941176471
 40
0.5882352941176471
 40
0.5882352941176471
 40
0.5882352941176471
 40
0.6470588235294118
 40
0.6470588235294118
 40
0.6470588235294118
 40
0.6470588235294118
 40
0.7058823529411765
 40
0.7058823529411765
 40
0.7058823529411765
 40
0.7058823529411765
 40
0.7647058823529411
 40
0.7647058823529411
 40
0.7647058823529411
 40
0.7647058823529411
 40
0.8235294117647058
 40
0.8235294117647058
 40
0.8235294117647058
 40
0.8235294117647058
 40
0.8823529411764706
 40
0.8823529411764706
 40
0.8823529411764706
 40
0.8823529411764706
 40
1.0
 40
1.0
 40
1.0
 40
1.0
 10
182.4125
 20
69.4227
 30
0.0
 10
182.4125
 20
69.4227
 30
0.0
 10
177.568
 20
69.4062
 30
0.0
 10
177.568
 20
69.4062
 30
0.0
 10
177.568
 20
69.4062
 30
0.0
 10
177.568
 20
69.4062
 30
0.0
 10
174.1308
 20
65.9923
 30
0.0
 10
174.1308
 20
65.9923
 30
0.0
 10
174.1308
 20
65.9923
 30
0.0
 10
174.1308
 20
65.9923
 30
0.0
 10
170.6936
 20
69.4062
 30
0.0
 10
170.6936
 20
69.4062
 30
0.0
 10
170.6936
 20
69.4062
 30
0.0
 10
170.6936
 20
69.4062
 30
0.0
 10
165.8491
 20
69.4227
 30
0.0
 10
165.8491
 20
69.4227
 30
0.0
 10
165.8491
 20
69.4227
 30
0.0
 10
165.8491
 20
69.4227
 30
0.0
 10
165.8326
 20
74.2672
 30
0.0
 10
165.8326
 20
74.2672
 30
0.0
 10
165.8326
 20
74.2672
 30
0.0
 10
165.8326
 20
74.2672
 30
0.0
 10
162.4187
 20
77.7044
 30
0.0
 10
162.4187
 20
77.7044
 30
0.0
 10
162.4187
 20
77.7044
 30
0.0
 10
162.4187
 20
77.7044
 30
0.0
 10
165.8326
 20
81.1416
 30
0.0
 10
165.8326
 20
81.1416
 30
0.0
 10
165.8326
 20
81.1416
 30
0.0
 10
165.8326
 20
81.1416
 30
0.0
 10
165.8491
 20
85.986
 30
0.0
 10
165.8491
 20
85.986
 30
0.0
 10
165.8491
 20
85.986
 30
0.0
 10
165.8491
 20
85.986
 30
0.0
 10
170.6936
 20
86.0025
 30
0.0
 10
170.6936
 20
86.0025
 30
0.0
 10
170.6936
 20
86.0025
 30
0.0
 10
170.6936
 20
86.0025
 30
0.0
 10
174.1308
 20
89.4165
 30
0.0
 10
174.1308
 20
89.4165
 30
0.0
 10
174.1308
 20
89.4165
 30
0.0
 10
174.1308
 20
89.4165
 30
0.0
 10
177.568
 20
86.0025
 30
0.0
 10
177.568
 20
86.0025
 30
0.0
 10
177.568
 20
86.0025
 30
0.0
 10
177.568
 20
86.0025
 30
0.0
 10
182.4125
 20
85.986
 30
0.0
 10
182.4125
 20
85.986
 30
0.0
 10
182.4125
 20
85.986
 30
0.0
 10
182.4125
 20
85.986
 30
0.0
 10
182.429
 20
81.1416
 30
0.0
 10
182.429
 20
81.1416
 30
0.0
 10
182.429
 20
81.1416
 30
0.0
 10
182.429
 20
81.1416
 30
0.0
 10
185.8429
 20
77.7044
 30
0.0
 10
185.8429
 20
77.7044
 30
0.0
 10
185.8429
 20
77.7044
 30
0.0
 10
185.8429
 20
77.7044
 30
0.0
 10
182.429
 20
74.2672
 30
0.0
 10
182.429
 20
74.2672
 30
0.0
 10
182.429
 20
74.2672
 30
0.0
 10
182.429
 20
74.2672
 30
0.0
 10
182.4125
 20
69.4227
 30
0.0
 10
182.4125
 20
69.4227
 30
0.0
  0
SPLINE
  5
6C
330
1F
100
AcDbEntity
  8
layer 1
 62
     7
100
AcDbSpline
210
0.0
220
0.0
230
1.0
 70
    11
 71
     3
 72
    68
 73
    64
 74
     0
 42
0.0000000001
 43
0.0000000001
 12
1.0
 22
0.0
 32
0.0
 13
1.0
 23
0.0
 33
0.0
 40
0.0
 40
0.0
 40
0.0
 40
0.0
 40
0.0588235294117647
 40
0.0588235294117647
 40
0.0588235294117647
 40
0.0588235294117647
 40
0.1176470588235294
 40
0.1176470588235294
 40
0.1176470588235294
 40
0.1176470588235294
 40
0.1764705882352941
 40
0.1764705882352941
 40
0.1764705882352941
 40
0.1764705882352941
 40
0.2352941176470588
 40
0.2352941176470588
 40
0.2352941176470588
 40
0.2352941176470588
 40
0.2941176470588235
 40
0.2941176470588235
 40
0.2941176470588235
 40
0.2941176470588235
 40
0.3529411764705883
 40
0.3529411764705883
 40
0.3529411764705883
 40
0.3529411764705883
 40
0.4117647058823529
 40
0.4117647058823529
 40
0.4117647058823529
 40
0.4117647058823529
 40
0.4705882352941176
 40
0.4705882352941176
 40
0.4705882352941176
 40
0.4705882352941176
 40
0.5294117647058824
 40
0.5294117647058824
 40
0.5294117647058824
 40
0.5294117647058824
 40
0.5882352941176471
 40
0.5882352941176471
 40
0.5882352941176471
 40
0.5882352941176471
 40
0.6470588235294118
 40
0.6470588235294118
 40
0.6470588235294118
 40
0.6470588235294118
 40
0.7058823529411765
 40
0.7058823529411765
 40
0.7058823529411765
 40
0.7058823529411765
 40
0.7647058823529411
 40
0.7647058823529411
 40
0.7647058823529411
 40
0.7647058823529411
 40
0.8235294117647058
 40
0.8235294117647058
 40
0.8235294117647058
 40
0.8235294117647058
 40
0.8823529411764706
 40
0.8823529411764706
 40
0.8823529411764706
 40
0.8823529411764706
 40
1.0
 40
1.0
 40
1.0
 40
1.0
 10
150.0608
 20
101.611
 30
0.0
 10
150.0608
 20
101.611
 30
0.0
 10
145.2163
 20
101.5945
 30
0.0
 10
145.2163
 20
101.5945
 30
0.0
 10
145.2163
 20
101.5945
 30
0.0
 10
145.2163
 20
101.5945
 30
0.0
 10
141.7791
 20
98.1806
 30
0.0
 10
141.7791
 20
98.1806
 30
0.0
 10
141.7791
 20
98.1806
 30
0.0
 10
141.7791
 20
98.1806
 30
0.0
 10
138.3419
 20
101.5945
 30
0.0
 10
138.3419
 20
101.5945
 30
0.0
 10
138.3419
 20
101.5945
 30
0.0
 10
138.3419
 20
101.5945
 30
0.0
 10
133.4974
 20
101.611
 30
0.0
 10
133.4974
 20
101.611
 30
0.0
 10
133.4974
 20
101.611
 30
0.0
 10
133.4974
 20
101.611
 30
0.0
 10
133.4809
 20
106.4555
 30
0.0
 10
133.4809
 20
106.4555
 30
0.0
 10
133.4809
 20
106.4555
 30
0.0
 10
133.4809
 20
106.4555
 30
0.0
 10
130.067
 20
109.8927
 30
0.0
 10
130.067
 20
109.8927
 30
0.0
 10
130.067
 20
109.8927
 30
0.0
 10
130.067
 20
109.8927
 30
0.0
 10
133.4809
 20
113.3299
 30
0.0
 10
133.4809
 20
113.3299
 30
0.0
 10
133.4809
 20
113.3299
 30
0.0
 10
133.4809
 20
113.3299
 30
0.0
 10
133.4974
 20
118.1743
 30
0.0
 10
133.4974
 20
118.1743
 30
0.0
 10
133.4974
 20
118.1743
 30
0.0
 10
133.4974
 20
118.1743
 30
0.0
 10
138.3419
 20
118.1908
 30
0.0
 10
138.3419
 20
118.1908
 30
0.0
 10
138.3419
 20
118.1908
 30
0.0
 10
138.3419
 20
118.1908
 30
0.0
 10
141.7791
 20
121.6047
 30
0.0
 10
141.7791
 20
121.6047
 30
0.0
 10
141.7791
 20
121.6047
 30
0.0
 10
141.7791
 20
121.6047
 30
0.0
 10
145.2163
 20
118.1908
 30
0.0
 10
145.2163
 20
118.1908
 30
0.0
 10
145.2163
 20
118.1908
 30
0.0
 10
145.2163
 20
118.1908
 30
0.0
 10
150.0608
 20
118.1743
 30
0.0
 10
150.0608
 20
118.1743
 30
0.0
 10
150.0608
 20
118.1743
 30
0.0
 10
150.0608
 20
118.1743
 30
0.0
 10
150.0773
 20
113.3299
 30
0.0
 10
150.0773
 20
113.3299
 30
0.0
 10
150.0773
 20
113.3299
 30
0.0
 10
150.0773
 20
113.3299
 30
0.0
 10
153.4912
 20
109.8927
 30
0.0
 10
153.4912
 20
109.8927
 30
0.0
 10
153.4912
 20
109.8927
 30
0.0
 10
153.4912
 20
109.8927
 30
0.0
 10
150.0773
 20
106.4555
 30
0.0
 10
150.0773
 20
106.4555
 30
0.0
 10
150.0773
 20
106.4555
 30
0.0
 10
150.0773
 20
106.4555
 30
0.0
 10
150.0608
 20
101.611
 30
0.0
 10
150.0608
 20
101.611
 30
0.0
  0
SPLINE
  5
6D
330
1F
100
AcDbEntity
  8
layer 1
 62
     7
100
AcDbSpline
210
0.0
220
0.0
230
1.0
 70
    11
 71
     3
 72
    40
 73
    36
 74
     0
 42
0.0000000001
 43
0.0000000001
 12
1.0
 22
0.0
 32
0.0
 13
1.0
 23
0.0
 33
0.0
 40
0.0
 40
0.0
 40
0.0
 40
0.0
 40
0.1
 40
0.1
 40
0.1
 40
0.1
 40
0.2
 40
0.2
 40
0.2
 40
0.2
 40
0.3
 40
0.3
 40
0.3
 40
0.3
 40
0.4
 40
0.4
 40
0.4
 40
0.4
 40
0.5
 40
0.5
 40
0.5
 40
0.5
 40
0.6
 40
0.6
 40
0.6
 40
0.6
 40
0.7
 40
0.7
 40
0.7
 40
0.7
 40
0.8
 40
0.8
 40
0.8
 40
0.8
 40
1.0
 40
1.0
 40
1.0
 40
1.0
 10
114.0549
 20
122.443
 30
0.0
 10
114.0549
 20
122.443
 30
0.0
 10
110.4579
 20
126.0269
 30
0.0
 10
110.4579
 20
126.0269
 30
0.0
 10
110.4579
 20
126.0269
 30
0.0
 10
110.4579
 20
126.0269
 30
0.0
 10
140.0784
 20
126.0269
 30
0.0
 10
140.0784
 20
126.0269
 30
0.0
 10
140.0784
 20
126.0269
 30
0.0
 10
140.0784
 20
126.0269
 30
0.0
 10
136.298
 20
122.443
 30
0.0
 10
136.298
 20
122.443
 30
0.0
 10
136.298
 20
122.443
 30
0.0
 10
136.298
 20
122.443
 30
0.0
 10
128.8586
 20
122.4568
 30
0.0
 10
128.8586
 20
122.4568
 30
0.0
 10
128.8586
 20
122.4568
 30
0.0
 10
128.8586
 20
122.4568
 30
0.0
 10
128.8605
 20
115.0056
 30
0.0
 10
128.8605
 20
115.0056
 30
0.0
 10
128.8605
 20
115.0056
 30
0.0
 10
128.8605
 20
115.0056
 30
0.0
 10
125.2596
 20
111.2252
 30
0.0
 10
125.2596
 20
111.2252
 30
0.0
 10
125.2596
 20
111.2252
 30
0.0
 10
125.2596
 20
111.2252
 30
0.0
 10
121.6757
 20
115.0056
 30
0.0
 10
121.6757
 20
115.0056
 30
0.0
 10
121.6757
 20
115.0056
 30
0.0
 10
121.6757
 20
115.0056
 30
0.0
 10
121.6692
 20
122.4017
 30
0.0
 10
121.6692
 20
122.4017
 30
0.0
 10
121.6692
 20
122.4017
 30
0.0
 10
121.6692
 20
122.4017
 30
0.0
 10
114.0549
 20
122.443
 30
0.0
 10
114.0549
 20
122.443
 30
0.0
  0
SPLINE
  5
6E
330
1F
100
AcDbEntity
  8
layer 1
 62
     7
100
AcDbSpline
210
0.0
220
0.0
230
1.0
 70
    11
 71
     3
 72
    28
 73
    24
 74
     0
 42
0.0000000001
 43
0.0000000001
 12
1.0
 22
0.0
 32
0.0
 13
1.0
 23
0.0
 33
0.0
 40
0.0
 40
0.0
 40
0.0
 40
0.0
 40
0.1428571428571428
 40
0.1428571428571428
 40
0.1428571428571428
 40
0.1428571428571428
 40
0.2857142857142857
 40
0.2857142857142857
 40
0.2857142857142857
 40
0.2857142857142857
 40
0.4285714285714285
 40
0.4285714285714285
 40
0.4285714285714285
 40
0.4285714285714285
 40
0.5714285714285714
 40
0.5714285714285714
 40
0.5714285714285714
 40
0.5714285714285714
 40
0.7142857142857143
 40
0.7142857142857143
 40
0.7142857142857143
 40
0.7142857142857143
 40
1.0
 40
1.0
 40
1.0
 40
1.0
 10
92.8262
 20
126.0253
 30
0.0
 10
92.8262
 20
126.0253
 30
0.0
 10
107.6449
 20
126.027
 30
0.0
 10
107.6449
 20
126.027
 30
0.0
 10
107.6449
 20
126.027
 30
0.0
 10
107.6449
 20
126.027
 30
0.0
 10
103.8645
 20
122.4431
 30
0.0
 10
103.8645
 20
122.4431
 30
0.0
 10
103.8645
 20
122.4431
 30
0.0
 10
103.8645
 20
122.4431
 30
0.0
 10
96.4252
 20
122.4569
 30
0.0
 10
96.4252
 20
122.4569
 30
0.0
 10
96.4252
 20
122.4569
 30
0.0
 10
96.4252
 20
122.4569
 30
0.0
 10
96.4271
 20
115.0057
 30
0.0
 10
96.4271
 20
115.0057
 30
0.0
 10
96.4271
 20
115.0057
 30
0.0
 10
96.4271
 20
115.0057
 30
0.0
 10
92.8262
 20
111.2253
 30
0.0
 10
92.8262
 20
111.2253
 30
0.0
 10
92.8262
 20
111.2253
 30
0.0
 10
92.8262
 20
111.2253
 30
0.0
 10
92.8262
 20
126.0253
 30
0.0
 10
92.8262
 20
126.0253
 30
0.0
  0
SPLINE
  5
6F
330
1F
100
AcDbEntity
  8
layer 1
 62
     7
100
AcDbSpline
210
0.0
220
0.0
230
1.0
 70
    11
 71
     3
 72
    28
 73
    24
 74
     0
 42
0.0000000001
 43
0.0000000001
 12
1.0
 22
0.0
 32
0.0
 13
1.0
 23
0.0
 33
0.0
 40
0.0
 40
0.0
 40
0.0
 40
0.0
 40
0.1428571428571428
 40
0.1428571428571428
 40
0.1428571428571428
 40
0.1428571428571428
 40
0.2857142857142857
 40
0.2857142857142857
 40
0.2857142857142857
 40
0.2857142857142857
 40
0.4285714285714285
 40
0.4285714285714285
 40
0.4285714285714285
 40
0.4285714285714285
 40
0.5714285714285714
 40
0.5714285714285714
 40
0.5714285714285714
 40
0.5714285714285714
 40
0.7142857142857143
 40
0.7142857142857143
 40
0.7142857142857143
 40
0.7142857142857143
 40
1.0
 40
1.0
 40
1.0
 40
1.0
 10
190.5666
 20
126.0253
 30
0.0
 10
190.5666
 20
126.0253
 30
0.0
 10
175.7479
 20
126.027
 30
0.0
 10
175.7479
 20
126.027
 30
0.0
 10
175.7479
 20
126.027
 30
0.0
 10
175.7479
 20
126.027
 30
0.0
 10
179.5283
 20
122.4431
 30
0.0
 10
179.5283
 20
122.4431
 30
0.0
 10
179.5283
 20
122.4431
 30
0.0
 10
179.5283
 20
122.4431
 30
0.0
 10
186.9676
 20
122.4569
 30
0.0
 10
186.9676
 20
122.4569
 30
0.0
 10
186.9676
 20
122.4569
 30
0.0
 10
186.9676
 20
122.4569
 30
0.0
 10
186.9658
 20
115.0057
 30
0.0
 10
186.9658
 20
115.0057
 30
0.0
 10
186.9658
 20
115.0057
 30
0.0
 10
186.9658
 20
115.0057
 30
0.0
 10
190.5666
 20
111.2253
 30
0.0
 10
190.5666
 20
111.2253
 30
0.0
 10
190.5666
 20
111.2253
 30
0.0
 10
190.5666
 20
111.2253
 30
0.0
 10
190.5666
 20
126.0253
 30
0.0
 10
190.5666
 20
126.0253
 30
0.0
  0
SPLINE
  5
70
330
1F
100
AcDbEntity
  8
layer 1
 62
     7
100
AcDbSpline
210
0.0
220
0.0
230
1.0
 70
    11
 71
     3
 72
    40
 73
    36
 74
     0
 42
0.0000000001
 43
0.0000000001
 12
1.0
 22
0.0
 32
0.0
 13
1.0
 23
0.0
 33
0.0
 40
0.0
 40
0.0
 40
0.0
 40
0.0
 40
0.1
 40
0.1
 40
0.1
 40
0.1
 40
0.2
 40
0.2
 40
0.2
 40
0.2
 40
0.3
 40
0.3
 40
0.3
 40
0.3
 40
0.4
 40
0.4
 40
0.4
 40
0.4
 40
0.5
 40
0.5
 40
0.5
 40
0.5
 40
0.6
 40
0.6
 40
0.6
 40
0.6
 40
0.7
 40
0.7
 40
0.7
 40
0.7
 40
0.8
 40
0.8
 40
0.8
 40
0.8
 40
1.0
 40
1.0
 40
1.0
 40
1.0
 10
146.9785
 20
122.443
 30
0.0
 10
146.9785
 20
122.443
 30
0.0
 10
143.3815
 20
126.0269
 30
0.0
 10
143.3815
 20
126.0269
 30
0.0
 10
143.3815
 20
126.0269
 30
0.0
 10
143.3815
 20
126.0269
 30
0.0
 10
173.0019
 20
126.0269
 30
0.0
 10
173.0019
 20
126.0269
 30
0.0
 10
173.0019
 20
126.0269
 30
0.0
 10
173.0019
 20
126.0269
 30
0.0
 10
169.2215
 20
122.443
 30
0.0
 10
169.2215
 20
122.443
 30
0.0
 10
169.2215
 20
122.443
 30
0.0
 10
169.2215
 20
122.443
 30
0.0
 10
161.7822
 20
122.4568
 30
0.0
 10
161.7822
 20
122.4568
 30
0.0
 10
161.7822
 20
122.4568
 30
0.0
 10
161.7822
 20
122.4568
 30
0.0
 10
161.7841
 20
115.0056
 30
0.0
 10
161.7841
 20
115.0056
 30
0.0
 10
161.7841
 20
115.0056
 30
0.0
 10
161.7841
 20
115.0056
 30
0.0
 10
158.1832
 20
111.2252
 30
0.0
 10
158.1832
 20
111.2252
 30
0.0
 10
158.1832
 20
111.2252
 30
0.0
 10
158.1832
 20
111.2252
 30
0.0
 10
154.5993
 20
115.0056
 30
0.0
 10
154.5993
 20
115.0056
 30
0.0
 10
154.5993
 20
115.0056
 30
0.0
 10
154.5993
 20
115.0056
 30
0.0
 10
154.5928
 20
122.4017
 30
0.0
 10
154.5928
 20
122.4017
 30
0.0
 10
154.5928
 20
122.4017
 30
0.0
 10
154.5928
 20
122.4017
 30
0.0
 10
146.9785
 20
122.443
 30
0.0
 10
146.9785
 20
122.443
 30
0.0
  0
SPLINE
  5
71
330
1F
100
AcDbEntity
  8
layer 1
 62
     7
100
AcDbSpline
210
0.0
220
0.0
230
1.0
 70
    11
 71
     3
 72
    68
 73
    64
 74
     0
 42
0.0000000001
 43
0.0000000001
 12
1.0
 22
0.0
 32
0.0
 13
1.0
 23
0.0
 33
0.0
 40
0.0
 40
0.0
 40
0.0
 40
0.0
 40
0.0588235294117647
 40
0.0588235294117647
 40
0.0588235294117647
 40
0.0588235294117647
 40
0.1176470588235294
 40
0.1176470588235294
 40
0.1176470588235294
 40
0.1176470588235294
 40
0.1764705882352941
 40
0.1764705882352941
 40
0.1764705882352941
 40
0.1764705882352941
 40
0.2352941176470588
 40
0.2352941176470588
 40
0.2352941176470588
 40
0.2352941176470588
 40
0.2941176470588235
 40
0.2941176470588235
 40
0.2941176470588235
 40
0.2941176470588235
 40
0.3529411764705883
 40
0.3529411764705883
 40
0.3529411764705883
 40
0.3529411764705883
 40
0.4117647058823529
 40
0.4117647058823529
 40
0.4117647058823529
 40
0.4117647058823529
 40
0.4705882352941176
 40
0.4705882352941176
 40
0.4705882352941176
 40
0.4705882352941176
 40
0.5294117647058824
 40
0.5294117647058824
 40
0.5294117647058824
 40
0.5294117647058824
 40
0.5882352941176471
 40
0.5882352941176471
 40
0.5882352941176471
 40
0.5882352941176471
 40
0.6470588235294118
 40
0.6470588235294118
 40
0.6470588235294118
 40
0.6470588235294118
 40
0.7058823529411765
 40
0.7058823529411765
 40
0.7058823529411765
 40
0.7058823529411765
 40
0.7647058823529411
 40
0.7647058823529411
 40
0.7647058823529411
 40
0.7647058823529411
 40
0.8235294117647058
 40
0.8235294117647058
 40
0.8235294117647058
 40
0.8235294117647058
 40
0.8823529411764706
 40
0.8823529411764706
 40
0.8823529411764706
 40
0.8823529411764706
 40
1.0
 40
1.0
 40
1.0
 40
1.0
 10
117.3823
 20
101.611
 30
0.0
 10
117.3823
 20
101.611
 30
0.0
 10
112.5378
 20
101.5945
 30
0.0
 10
112.5378
 20
101.5945
 30
0.0
 10
112.5378
 20
101.5945
 30
0.0
 10
112.5378
 20
101.5945
 30
0.0
 10
109.1006
 20
98.1806
 30
0.0
 10
109.1006
 20
98.1806
 30
0.0
 10
109.1006
 20
98.1806
 30
0.0
 10
109.1006
 20
98.1806
 30
0.0
 10
105.6634
 20
101.5945
 30
0.0
 10
105.6634
 20
101.5945
 30
0.0
 10
105.6634
 20
101.5945
 30
0.0
 10
105.6634
 20
101.5945
 30
0.0
 10
100.8189
 20
101.611
 30
0.0
 10
100.8189
 20
101.611
 30
0.0
 10
100.8189
 20
101.611
 30
0.0
 10
100.8189
 20
101.611
 30
0.0
 10
100.8024
 20
106.4555
 30
0.0
 10
100.8024
 20
106.4555
 30
0.0
 10
100.8024
 20
106.4555
 30
0.0
 10
100.8024
 20
106.4555
 30
0.0
 10
97.3885
 20
109.8927
 30
0.0
 10
97.3885
 20
109.8927
 30
0.0
 10
97.3885
 20
109.8927
 30
0.0
 10
97.3885
 20
109.8927
 30
0.0
 10
100.8024
 20
113.3299
 30
0.0
 10
100.8024
 20
113.3299
 30
0.0
 10
100.8024
 20
113.3299
 30
0.0
 10
100.8024
 20
113.3299
 30
0.0
 10
100.8189
 20
118.1743
 30
0.0
 10
100.8189
 20
118.1743
 30
0.0
 10
100.8189
 20
118.1743
 30
0.0
 10
100.8189
 20
118.1743
 30
0.0
 10
105.6634
 20
118.1908
 30
0.0
 10
105.6634
 20
118.1908
 30
0.0
 10
105.6634
 20
118.1908
 30
0.0
 10
105.6634
 20
118.1908
 30
0.0
 10
109.1006
 20
121.6047
 30
0.0
 10
109.1006
 20
121.6047
 30
0.0
 10
109.1006
 20
121.6047
 30
0.0
 10
109.1006
 20
121.6047
 30
0.0
 10
112.5378
 20
118.1908
 30
0.0
 10
112.5378
 20
118.1908
 30
0.0
 10
112.5378
 20
118.1908
 30
0.0
 10
112.5378
 20
118.1908
 30
0.0
 10
117.3823
 20
118.1743
 30
0.0
 10
117.3823
 20
118.1743
 30
0.0
 10
117.3823
 20
118.1743
 30
0.0
 10
117.3823
 20
118.1743
 30
0.0
 10
117.3987
 20
113.3299
 30
0.0
 10
117.3987
 20
113.3299
 30
0.0
 10
117.3987
 20
113.3299
 30
0.0
 10
117.3987
 20
113.3299
 30
0.0
 10
120.8127
 20
109.8927
 30
0.0
 10
120.8127
 20
109.8927
 30
0.0
 10
120.8127
 20
109.8927
 30
0.0
 10
120.8127
 20
109.8927
 30
0.0
 10
117.3987
 20
106.4555
 30
0.0
 10
117.3987
 20
106.4555
 30
0.0
 10
117.3987
 20
106.4555
 30
0.0
 10
117.3987
 20
106.4555
 30
0.0
 10
117.3823
 20
101.611
 30
0.0
 10
117.3823
 20
101.611
 30
0.0
  0
SPLINE
  5
72
330
1F
100
AcDbEntity
  8
layer 1
 62
     7
100
AcDbSpline
210
0.0
220
0.0
230
1.0
 70
    11
 71
     3
 72
    68
 73
    64
 74
     0
 42
0.0000000001
 43
0.0000000001
 12
1.0
 22
0.0
 32
0.0
 13
1.0
 23
0.0
 33
0.0
 40
0.0
 40
0.0
 40
0.0
 40
0.0
 40
0.0588235294117647
 40
0.0588235294117647
 40
0.0588235294117647
 40
0.0588235294117647
 40
0.1176470588235294
 40
0.1176470588235294
 40
0.1176470588235294
 40
0.1176470588235294
 40
0.1764705882352941
 40
0.1764705882352941
 40
0.1764705882352941
 40
0.1764705882352941
 40
0.2352941176470588
 40
0.2352941176470588
 40
0.2352941176470588
 40
0.2352941176470588
 40
0.2941176470588235
 40
0.2941176470588235
 40
0.2941176470588235
 40
0.2941176470588235
 40
0.3529411764705883
 40
0.3529411764705883
 40
0.3529411764705883
 40
0.3529411764705883
 40
0.4117647058823529
 40
0.4117647058823529
 40
0.4117647058823529
 40
0.4117647058823529
 40
0.4705882352941176
 40
0.4705882352941176
 40
0.4705882352941176
 40
0.4705882352941176
 40
0.5294117647058824
 40
0.5294117647058824
 40
0.5294117647058824
 40
0.5294117647058824
 40
0.5882352941176471
 40
0.5882352941176471
 40
0.5882352941176471
 40
0.5882352941176471
 40
0.6470588235294118
 40
0.6470588235294118
 40
0.6470588235294118
 40
0.6470588235294118
 40
0.7058823529411765
 40
0.7058823529411765
 40
0.7058823529411765
 40
0.7058823529411765
 40
0.7647058823529411
 40
0.7647058823529411
 40
0.7647058823529411
 40
0.7647058823529411
 40
0.8235294117647058
 40
0.8235294117647058
 40
0.8235294117647058
 40
0.8235294117647058
 40
0.8823529411764706
 40
0.8823529411764706
 40
0.8823529411764706
 40
0.8823529411764706
 40
1.0
 40
1.0
 40
1.0
 40
1.0
 10
182.4125
 20
101.611
 30
0.0
 10
182.4125
 20
101.611
 30
0.0
 10
177.568
 20
101.5945
 30
0.0
 10
177.568
 20
101.5945
 30
0.0
 10
177.568
 20
101.5945
 30
0.0
 10
177.568
 20
101.5945
 30
0.0
 10
174.1308
 20
98.1806
 30
0.0
 10
174.1308
 20
98.1806
 30
0.0
 10
174.1308
 20
98.1806
 30
0.0
 10
174.1308
 20
98.1806
 30
0.0
 10
170.6936
 20
101.5945
 30
0.0
 10
170.6936
 20
101.5945
 30
0.0
 10
170.6936
 20
101.5945
 30
0.0
 10
170.6936
 20
101.5945
 30
0.0
 10
165.8491
 20
101.611
 30
0.0
 10
165.8491
 20
101.611
 30
0.0
 10
165.8491
 20
101.611
 30
0.0
 10
165.8491
 20
101.611
 30
0.0
 10
165.8326
 20
106.4555
 30
0.0
 10
165.8326
 20
106.4555
 30
0.0
 10
165.8326
 20
106.4555
 30
0.0
 10
165.8326
 20
106.4555
 30
0.0
 10
162.4187
 20
109.8927
 30
0.0
 10
162.4187
 20
109.8927
 30
0.0
 10
162.4187
 20
109.8927
 30
0.0
 10
162.4187
 20
109.8927
 30
0.0
 10
165.8326
 20
113.3299
 30
0.0
 10
165.8326
 20
113.3299
 30
0.0
 10
165.8326
 20
113.3299
 30
0.0
 10
165.8326
 20
113.3299
 30
0.0
 10
165.8491
 20
118.1743
 30
0.0
 10
165.8491
 20
118.1743
 30
0.0
 10
165.8491
 20
118.1743
 30
0.0
 10
165.8491
 20
118.1743
 30
0.0
 10
170.6936
 20
118.1908
 30
0.0
 10
170.6936
 20
118.1908
 30
0.0
 10
170.6936
 20
118.1908
 30
0.0
 10
170.6936
 20
118.1908
 30
0.0
 10
174.1308
 20
121.6047
 30
0.0
 10
174.1308
 20
121.6047
 30
0.0
 10
174.1308
 20
121.6047
 30
0.0
 10
174.1308
 20
121.6047
 30
0.0
 10
177.568
 20
118.1908
 30
0.0
 10
177.568
 20
118.1908
 30
0.0
 10
177.568
 20
118.1908
 30
0.0
 10
177.568
 20
118.1908
 30
0.0
 10
182.4125
 20
118.1743
 30
0.0
 10
182.4125
 20
118.1743
 30
0.0
 10
182.4125
 20
118.1743
 30
0.0
 10
182.4125
 20
118.1743
 30
0.0
 10
182.429
 20
113.3299
 30
0.0
 10
182.429
 20
113.3299
 30
0.0
 10
182.429
 20
113.3299
 30
0.0
 10
182.429
 20
113.3299
 30
0.0
 10
185.8429
 20
109.8927
 30
0.0
 10
185.8429
 20
109.8927
 30
0.0
 10
185.8429
 20
109.8927
 30
0.0
 10
185.8429
 20
109.8927
 30
0.0
 10
182.429
 20
106.4555
 30
0.0
 10
182.429
 20
106.4555
 30
0.0
 10
182.429
 20
106.4555
 30
0.0
 10
182.429
 20
106.4555
 30
0.0
 10
182.4125
 20
101.611
 30
0.0
 10
182.4125
 20
101.611
 30
0.0
  0
SPLINE
  5
73
330
1F
100
AcDbEntity
  8
layer 1
 62
     7
100
AcDbSpline
210
0.0
220
0.0
230
1.0
 70
    11
 71
     3
 72
    40
 73
    36
 74
     0
 42
0.0000000001
 43
0.0000000001
 12
1.0
 22
0.0
 32
0.0
 13
1.0
 23
0.0
 33
0.0
 40
0.0
 40
0.0
 40
0.0
 40
0.0
 40
0.1
 40
0.1
 40
0.1
 40
0.1
 40
0.2
 40
0.2
 40
0.2
 40
0.2
 40
0.3
 40
0.3
 40
0.3
 40
0.3
 40
0.4
 40
0.4
 40
0.4
 40
0.4
 40
0.5
 40
0.5
 40
0.5
 40
0.5
 40
0.6
 40
0.6
 40
0.6
 40
0.6
 40
0.7
 40
0.7
 40
0.7
 40
0.7
 40
0.8
 40
0.8
 40
0.8
 40
0.8
 40
1.0
 40
1.0
 40
1.0
 40
1.0
 10
114.0549
 20
-97.1713
 30
0.0
 10
114.0549
 20
-97.1713
 30
0.0
 10
110.4579
 20
-100.7553
 30
0.0
 10
110.4579
 20
-100.7553
 30
0.0
 10
110.4579
 20
-100.7553
 30
0.0
 10
110.4579
 20
-100.7553
 30
0.0
 10
140.0784
 20
-100.7553
 30
0.0
 10
140.0784
 20
-100.7553
 30
0.0
 10
140.0784
 20
-100.7553
 30
0.0
 10
140.0784
 20
-100.7553
 30
0.0
 10
136.298
 20
-97.1713
 30
0.0
 10
136.298
 20
-97.1713
 30
0.0
 10
136.298
 20
-97.1713
 30
0.0
 10
136.298
 20
-97.1713
 30
0.0
 10
128.8586
 20
-97.1851
 30
0.0
 10
128.8586
 20
-97.1851
 30
0.0
 10
128.8586
 20
-97.1851
 30
0.0
 10
128.8586
 20
-97.1851
 30
0.0
 10
128.8605
 20
-89.734
 30
0.0
 10
128.8605
 20
-89.734
 30
0.0
 10
128.8605
 20
-89.734
 30
0.0
 10
128.8605
 20
-89.734
 30
0.0
 10
125.2596
 20
-85.9536
 30
0.0
 10
125.2596
 20
-85.9536
 30
0.0
 10
125.2596
 20
-85.9536
 30
0.0
 10
125.2596
 20
-85.9536
 30
0.0
 10
121.6757
 20
-89.734
 30
0.0
 10
121.6757
 20
-89.734
 30
0.0
 10
121.6757
 20
-89.734
 30
0.0
 10
121.6757
 20
-89.734
 30
0.0
 10
121.6692
 20
-97.13
 30
0.0
 10
121.6692
 20
-97.13
 30
0.0
 10
121.6692
 20
-97.13
 30
0.0
 10
121.6692
 20
-97.13
 30
0.0
 10
114.0549
 20
-97.1713
 30
0.0
 10
114.0549
 20
-97.1713
 30
0.0
  0
SPLINE
  5
74
330
1F
100
AcDbEntity
  8
layer 1
 62
     7
100
AcDbSpline
210
0.0
220
0.0
230
1.0
 70
    11
 71
     3
 72
    28
 73
    24
 74
     0
 42
0.0000000001
 43
0.0000000001
 12
1.0
 22
0.0
 32
0.0
 13
1.0
 23
0.0
 33
0.0
 40
0.0
 40
0.0
 40
0.0
 40
0.0
 40
0.1428571428571428
 40
0.1428571428571428
 40
0.1428571428571428
 40
0.1428571428571428
 40
0.2857142857142857
 40
0.2857142857142857
 40
0.2857142857142857
 40
0.2857142857142857
 40
0.4285714285714285
 40
0.4285714285714285
 40
0.4285714285714285
 40
0.4285714285714285
 40
0.5714285714285714
 40
0.5714285714285714
 40
0.5714285714285714
 40
0.5714285714285714
 40
0.7142857142857143
 40
0.7142857142857143
 40
0.7142857142857143
 40
0.7142857142857143
 40
1.0
 40
1.0
 40
1.0
 40
1.0
 10
92.8262
 20
-100.7537
 30
0.0
 10
92.8262
 20
-100.7537
 30
0.0
 10
107.6449
 20
-100.7553
 30
0.0
 10
107.6449
 20
-100.7553
 30
0.0
 10
107.6449
 20
-100.7553
 30
0.0
 10
107.6449
 20
-100.7553
 30
0.0
 10
103.8645
 20
-97.1714
 30
0.0
 10
103.8645
 20
-97.1714
 30
0.0
 10
103.8645
 20
-97.1714
 30
0.0
 10
103.8645
 20
-97.1714
 30
0.0
 10
96.4252
 20
-97.1852
 30
0.0
 10
96.4252
 20
-97.1852
 30
0.0
 10
96.4252
 20
-97.1852
 30
0.0
 10
96.4252
 20
-97.1852
 30
0.0
 10
96.4271
 20
-89.7341
 30
0.0
 10
96.4271
 20
-89.7341
 30
0.0
 10
96.4271
 20
-89.7341
 30
0.0
 10
96.4271
 20
-89.7341
 30
0.0
 10
92.8262
 20
-85.9536
 30
0.0
 10
92.8262
 20
-85.9536
 30
0.0
 10
92.8262
 20
-85.9536
 30
0.0
 10
92.8262
 20
-85.9536
 30
0.0
 10
92.8262
 20
-100.7537
 30
0.0
 10
92.8262
 20
-100.7537
 30
0.0
  0
SPLINE
  5
75
330
1F
100
AcDbEntity
  8
layer 1
 62
     7
100
AcDbSpline
210
0.0
220
0.0
230
1.0
 70
    11
 71
     3
 72
    28
 73
    24
 74
     0
 42
0.0000000001
 43
0.0000000001
 12
1.0
 22
0.0
 32
0.0
 13
1.0
 23
0.0
 33
0.0
 40
0.0
 40
0.0
 40
0.0
 40
0.0
 40
0.1428571428571428
 40
0.1428571428571428
 40
0.1428571428571428
 40
0.1428571428571428
 40
0.2857142857142857
 40
0.2857142857142857
 40
0.2857142857142857
 40
0.2857142857142857
 40
0.4285714285714285
 40
0.4285714285714285
 40
0.4285714285714285
 40
0.4285714285714285
 40
0.5714285714285714
 40
0.5714285714285714
 40
0.5714285714285714
 40
0.5714285714285714
 40
0.7142857142857143
 40
0.7142857142857143
 40
0.7142857142857143
 40
0.7142857142857143
 40
1.0
 40
1.0
 40
1.0
 40
1.0
 10
190.5666
 20
-100.7537
 30
0.0
 10
190.5666
 20
-100.7537
 30
0.0
 10
175.7479
 20
-100.7553
 30
0.0
 10
175.7479
 20
-100.7553
 30
0.0
 10
175.7479
 20
-100.7553
 30
0.0
 10
175.7479
 20
-100.7553
 30
0.0
 10
179.5283
 20
-97.1714
 30
0.0
 10
179.5283
 20
-97.1714
 30
0.0
 10
179.5283
 20
-97.1714
 30
0.0
 10
179.5283
 20
-97.1714
 30
0.0
 10
186.9676
 20
-97.1852
 30
0.0
 10
186.9676
 20
-97.1852
 30
0.0
 10
186.9676
 20
-97.1852
 30
0.0
 10
186.9676
 20
-97.1852
 30
0.0
 10
186.9658
 20
-89.7341
 30
0.0
 10
186.9658
 20
-89.7341
 30
0.0
 10
186.9658
 20
-89.7341
 30
0.0
 10
186.9658
 20
-89.7341
 30
0.0
 10
190.5666
 20
-85.9536
 30
0.0
 10
190.5666
 20
-85.9536
 30
0.0
 10
190.5666
 20
-85.9536
 30
0.0
 10
190.5666
 20
-85.9536
 30
0.0
 10
190.5666
 20
-100.7537
 30
0.0
 10
190.5666
 20
-100.7537
 30
0.0
  0
SPLINE
  5
76
330
1F
100
AcDbEntity
  8
layer 1
 62
     7
100
AcDbSpline
210
0.0
220
0.0
230
1.0
 70
    11
 71
     3
 72
    40
 73
    36
 74
     0
 42
0.0000000001
 43
0.0000000001
 12
1.0
 22
0.0
 32
0.0
 13
1.0
 23
0.0
 33
0.0
 40
0.0
 40
0.0
 40
0.0
 40
0.0
 40
0.1
 40
0.1
 40
0.1
 40
0.1
 40
0.2
 40
0.2
 40
0.2
 40
0.2
 40
0.3
 40
0.3
 40
0.3
 40
0.3
 40
0.4
 40
0.4
 40
0.4
 40
0.4
 40
0.5
 40
0.5
 40
0.5
 40
0.5
 40
0.6
 40
0.6
 40
0.6
 40
0.6
 40
0.7
 40
0.7
 40
0.7
 40
0.7
 40
0.8
 40
0.8
 40
0.8
 40
0.8
 40
1.0
 40
1.0
 40
1.0
 40
1.0
 10
146.9785
 20
-97.1713
 30
0.0
 10
146.9785
 20
-97.1713
 30
0.0
 10
143.3815
 20
-100.7553
 30
0.0
 10
143.3815
 20
-100.7553
 30
0.0
 10
143.3815
 20
-100.7553
 30
0.0
 10
143.3815
 20
-100.7553
 30
0.0
 10
173.0019
 20
-100.7553
 30
0.0
 10
173.0019
 20
-100.7553
 30
0.0
 10
173.0019
 20
-100.7553
 30
0.0
 10
173.0019
 20
-100.7553
 30
0.0
 10
169.2215
 20
-97.1713
 30
0.0
 10
169.2215
 20
-97.1713
 30
0.0
 10
169.2215
 20
-97.1713
 30
0.0
 10
169.2215
 20
-97.1713
 30
0.0
 10
161.7822
 20
-97.1851
 30
0.0
 10
161.7822
 20
-97.1851
 30
0.0
 10
161.7822
 20
-97.1851
 30
0.0
 10
161.7822
 20
-97.1851
 30
0.0
 10
161.7841
 20
-89.734
 30
0.0
 10
161.7841
 20
-89.734
 30
0.0
 10
161.7841
 20
-89.734
 30
0.0
 10
161.7841
 20
-89.734
 30
0.0
 10
158.1832
 20
-85.9536
 30
0.0
 10
158.1832
 20
-85.9536
 30
0.0
 10
158.1832
 20
-85.9536
 30
0.0
 10
158.1832
 20
-85.9536
 30
0.0
 10
154.5993
 20
-89.734
 30
0.0
 10
154.5993
 20
-89.734
 30
0.0
 10
154.5993
 20
-89.734
 30
0.0
 10
154.5993
 20
-89.734
 30
0.0
 10
154.5928
 20
-97.13
 30
0.0
 10
154.5928
 20
-97.13
 30
0.0
 10
154.5928
 20
-97.13
 30
0.0
 10
154.5928
 20
-97.13
 30
0.0
 10
146.9785
 20
-97.1713
 30
0.0
 10
146.9785
 20
-97.1713
 30
0.0
  0
ENDSEC
  0
SECTION
  2
OBJECTS
  0
DICTIONARY
  5
C
330
0
100
AcDbDictionary
281
     1
  3
ACAD_GROUP
350
D
  3
ACAD_LAYOUT
350
1A
  3
ACAD_MATERIAL
350
3B
  3
ACAD_MLEADERSTYLE
350
98
  3
ACAD_MLINESTYLE
350
17
  3
ACAD_PLOTSETTINGS
350
19
  3
ACAD_PLOTSTYLENAME
350
E
  3
ACAD_TABLESTYLE
350
97
  3
ACAD_VISUALSTYLE
350
2A
  0
DICTIONARY
  5
D
102
{ACAD_REACTORS
330
C
102
}
330
C
100
AcDbDictionary
281
     1
  0
DICTIONARY
  5
1A
102
{ACAD_REACTORS
330
C
102
}
330
C
100
AcDbDictionary
281
     1
  3
Layout1
350
1E
  3
Layout2
350
26
  3
Model
350
22
  0
DICTIONARY
  5
3B
102
{ACAD_REACTORS
330
C
102
}
330
C
100
AcDbDictionary
281
     1
  3
ByBlock
350
3D
  3
ByLayer
350
3C
  3
Global
350
3E
  0
DICTIONARY
  5
98
102
{ACAD_REACTORS
330
C
102
}
330
C
100
AcDbDictionary
281
     1
  0
DICTIONARY
  5
17
102
{ACAD_REACTORS
330
C
102
}
330
C
100
AcDbDictionary
281
     1
  3
Standard
350
18
  0
DICTIONARY
  5
19
102
{ACAD_REACTORS
330
C
102
}
330
C
100
AcDbDictionary
281
     1
  0
ACDBDICTIONARYWDFLT
  5
E
102
{ACAD_REACTORS
330
C
102
}
330
C
100
AcDbDictionary
281
     1
  3
Normal
350
F
100
AcDbDictionaryWithDefault
340
F
  0
DICTIONARY
  5
97
102
{ACAD_REACTORS
330
C
102
}
330
C
100
AcDbDictionary
281
     1
  0
DICTIONARY
  5
2A
102
{ACAD_REACTORS
330
C
102
}
330
C
100
AcDbDictionary
281
     1
  3
2dWireframe
350
2F
  3
3D Hidden
350
31
  3
3dWireframe
350
30
  3
Basic
350
32
  3
Brighten
350
36
  3
ColorChange
350
3A
  3
Conceptual
350
34
  3
Dim
350
35
  3
Facepattern
350
39
  3
Flat
350
2B
  3
FlatWithEdges
350
2C
  3
Gouraud
350
2D
  3
GouraudWithEdges
350
2E
  3
Linepattern
350
38
  3
Realistic
350
33
  3
Thicken
350
37
  0
LAYOUT
  5
1E
102
{ACAD_REACTORS
330
1A
102
}
330
1A
100
AcDbPlotSettings
  1

  2
none_device
  4

  6

 40
0.0
 41
0.0
 42
0.0
 43
0.0
 44
0.0
 45
0.0
 46
0.0
 47
0.0
 48
0.0
 49
0.0
140
0.0
141
0.0
142
1.0
143
1.0
 70
   688
 72
     0
 73
     0
 74
     5
  7

 75
    16
 76
     0
 77
     2
 78
   300
147
1.0
148
0.0
149
0.0
100
AcDbLayout
  1
Layout1
 70
     1
 71
     1
 10
0.0
 20
0.0
 11
12.0
 21
9.0
 12
0.0
 22
0.0
 32
0.0
 14
1.000000000000000E+20
 24
1.000000000000000E+20
 34
1.000000000000000E+20
 15
-1.000000000000000E+20
 25
-1.000000000000000E+20
 35
-1.000000000000000E+20
146
0.0
 13
0.0
 23
0.0
 33
0.0
 16
1.0
 26
0.0
 36
0.0
 17
0.0
 27
1.0
 37
0.0
 76
     0
330
1B
  0
LAYOUT
  5
26
102
{ACAD_REACTORS
330
1A
102
}
330
1A
100
AcDbPlotSettings
  1

  2
none_device
  4

  6

 40
0.0
 41
0.0
 42
0.0
 43
0.0
 44
0.0
 45
0.0
 46
0.0
 47
0.0
 48
0.0
 49
0.0
140
0.0
141
0.0
142
1.0
143
1.0
 70
   688
 72
     0
 73
     0
 74
     5
  7

 75
    16
 76
     0
 77
     2
 78
   300
147
1.0
148
0.0
149
0.0
100
AcDbLayout
  1
Layout2
 70
     1
 71
     2
 10
0.0
 20
0.0
 11
0.0
 21
0.0
 12
0.0
 22
0.0
 32
0.0
 14
0.0
 24
0.0
 34
0.0
 15
0.0
 25
0.0
 35
0.0
146
0.0
 13
0.0
 23
0.0
 33
0.0
 16
1.0
 26
0.0
 36
0.0
 17
0.0
 27
1.0
 37
0.0
 76
     0
330
23
  0
LAYOUT
  5
22
102
{ACAD_REACTORS
330
1A
102
}
330
1A
100
AcDbPlotSettings
  1

  2
none_device
  4

  6

 40
0.0
 41
0.0
 42
0.0
 43
0.0
 44
0.0
 45
0.0
 46
0.0
 47
0.0
 48
0.0
 49
0.0
140
0.0
141
0.0
142
1.0
143
1.0
 70
  1712
 72
     0
 73
     0
 74
     0
  7

 75
     0
 76
     0
 77
     2
 78
   300
147
1.0
148
0.0
149
0.0
100
AcDbLayout
  1
Model
 70
     1
 71
     0
 10
0.0
 20
0.0
 11
12.0
 21
9.0
 12
0.0
 22
0.0
 32
0.0
 14
87.0683
 24
-106.5857
 34
0.0
 15
196.3244
 25
131.8576
 35
0.0
146
0.0
 13
0.0
 23
0.0
 33
0.0
 16
1.0
 26
0.0
 36
0.0
 17
0.0
 27
1.0
 37
0.0
 76
     0
330
1F
331
29
  0
MATERIAL
  5
3D
102
{ACAD_REACTORS
330
3B
102
}
330
3B
100
AcDbMaterial
  1
ByBlock
 72
     1
 94
      127
  0
MATERIAL
  5
3C
102
{ACAD_REACTORS
330
3B
102
}
330
3B
100
AcDbMaterial
  1
ByLayer
 72
     1
 94
      127
  0
MATERIAL
  5
3E
102
{ACAD_REACTORS
330
3B
102
}
330
3B
100
AcDbMaterial
  1
Global
 72
     1
 94
      127
  0
MLINESTYLE
  5
18
102
{ACAD_REACTORS
330
17
102
}
330
17
100
AcDbMlineStyle
  2
Standard
 70
     0
  3

 62
   256
 51
90.0
 52
90.0
 71
     2
 49
0.5
 62
   256
  6
BYLAYER
 49
-0.5
 62
   256
  6
BYLAYER
  0
ACDBPLACEHOLDER
  5
F
102
{ACAD_REACTORS
330
E
102
}
330
E
  0
VISUALSTYLE
  5
2F
102
{ACAD_REACTORS
330
2A
102
}
102
{ACAD_XDICTIONARY
360
7F
102
}
330
2A
100
AcDbVisualStyle
  2
2dWireframe
 70
     4
 71
     0
 72
     2
 73
     0
 90
        0
 40
-0.6
 41
-30.0
 62
     5
 63
     7
421
 16777215
 74
     1
 91
        4
 64
     7
 65
   257
 75
     1
175
     1
 42
1.0
 92
        0
 66
   257
 43
1.0
 76
     1
 77
     6
 78
     2
 67
     7
 79
     5
170
     0
171
     0
290
     0
174
     0
 93
        1
 44
0.0
173
     0
291
     0
 45
0.0
  0
VISUALSTYLE
  5
31
102
{ACAD_REACTORS
330
2A
102
}
102
{ACAD_XDICTIONARY
360
83
102
}
330
2A
100
AcDbVisualStyle
  2
3D Hidden
 70
     6
 71
     1
 72
     2
 73
     2
 90
        0
 40
-0.6
 41
-30.0
 62
     5
 63
     7
421
 16777215
 74
     2
 91
        2
 64
     7
 65
   257
 75
     2
175
     1
 42
40.0
 92
        0
 66
   257
 43
1.0
 76
     1
 77
     6
 78
     2
 67
     7
 79
     3
170
     0
171
     0
290
     0
174
     0
 93
        1
 44
0.0
173
     0
291
     0
 45
0.0
  0
VISUALSTYLE
  5
30
102
{ACAD_REACTORS
330
2A
102
}
102
{ACAD_XDICTIONARY
360
81
102
}
330
2A
100
AcDbVisualStyle
  2
3dWireframe
 70
     5
 71
     0
 72
     2
 73
     0
 90
        0
 40
-0.6
 41
-30.0
 62
     5
 63
     7
421
 16777215
 74
     1
 91
        4
 64
     7
 65
   257
 75
     1
175
     1
 42
1.0
 92
        0
 66
   257
 43
1.0
 76
     1
 77
     6
 78
     2
 67
     7
 79
     5
170
     0
171
     0
290
     0
174
     0
 93
        1
 44
0.0
173
     0
291
     0
 45
0.0
  0
VISUALSTYLE
  5
32
102
{ACAD_REACTORS
330
2A
102
}
102
{ACAD_XDICTIONARY
360
85
102
}
330
2A
100
AcDbVisualStyle
  2
Basic
 70
     7
 71
     1
 72
     0
 73
     1
 90
        0
 40
-0.6
 41
-30.0
 62
     5
 63
     7
421
 16777215
 74
     0
 91
        4
 64
     7
 65
   257
 75
     1
175
     1
 42
1.0
 92
        8
 66
     7
 43
1.0
 76
     1
 77
     6
 78
     2
 67
     7
 79
     5
170
     0
171
     0
290
     0
174
     0
 93
        1
 44
0.0
173
     0
291
     1
 45
0.0
  0
VISUALSTYLE
  5
36
102
{ACAD_REACTORS
330
2A
102
}
102
{ACAD_XDICTIONARY
360
8D
102
}
330
2A
100
AcDbVisualStyle
  2
Brighten
 70
    12
 71
     2
 72
     2
 73
     0
 90
        0
 40
-0.6
 41
-30.0
 62
     5
 63
     7
421
 16777215
 74
     1
 91
        4
 64
     7
 65
   257
 75
     1
175
     1
 42
1.0
 92
        8
 66
     7
 43
1.0
 76
     1
 77
     6
 78
     2
 67
     7
 79
     5
170
     0
171
     0
290
     0
174
     0
 93
        1
 44
50.0
173
     0
291
     1
 45
0.0
  0
VISUALSTYLE
  5
3A
102
{ACAD_REACTORS
330
2A
102
}
102
{ACAD_XDICTIONARY
360
95
102
}
330
2A
100
AcDbVisualStyle
  2
ColorChange
 70
    16
 71
     2
 72
     2
 73
     3
 90
        0
 40
-0.6
 41
-30.0
 62
     5
 63
     8
421
  8421504
 74
     1
 91
        4
 64
     7
 65
   257
 75
     1
175
     1
 42
1.0
 92
        8
 66
     8
424
  8421504
 43
1.0
 76
     1
 77
     6
 78
     2
 67
     7
 79
     5
170
     0
171
     0
290
     0
174
     0
 93
        1
 44
0.0
173
     0
291
     1
 45
0.0
  0
VISUALSTYLE
  5
34
102
{ACAD_REACTORS
330
2A
102
}
102
{ACAD_XDICTIONARY
360
89
102
}
330
2A
100
AcDbVisualStyle
  2
Conceptual
 70
     9
 71
     3
 72
     2
 73
     0
 90
        0
 40
-0.6
 41
-30.0
 62
     5
 63
     7
421
 16777215
 74
     2
 91
        2
 64
     7
 65
   257
 75
     1
175
     1
 42
40.0
 92
        8
 66
     7
 43
1.0
 76
     1
 77
     6
 78
     2
 67
     7
 79
     3
170
     0
171
     0
290
     0
174
     0
 93
        1
 44
0.0
173
     0
291
     0
 45
0.0
  0
VISUALSTYLE
  5
35
102
{ACAD_REACTORS
330
2A
102
}
102
{ACAD_XDICTIONARY
360
8B
102
}
330
2A
100
AcDbVisualStyle
  2
Dim
 70
    11
 71
     2
 72
     2
 73
     0
 90
        0
 40
-0.6
 41
-30.0
 62
     5
 63
     7
421
 16777215
 74
     1
 91
        4
 64
     7
 65
   257
 75
     1
175
     1
 42
1.0
 92
        8
 66
     7
 43
1.0
 76
     1
 77
     6
 78
     2
 67
     7
 79
     5
170
     0
171
     0
290
     0
174
     0
 93
        1
 44
-50.0
173
     0
291
     1
 45
0.0
  0
VISUALSTYLE
  5
39
102
{ACAD_REACTORS
330
2A
102
}
102
{ACAD_XDICTIONARY
360
93
102
}
330
2A
100
AcDbVisualStyle
  2
Facepattern
 70
    15
 71
     2
 72
     2
 73
     0
 90
        0
 40
-0.6
 41
-30.0
 62
     5
 63
     7
421
 16777215
 74
     1
 91
        4
 64
     7
 65
   257
 75
     1
175
     1
 42
1.0
 92
        8
 66
     7
 43
1.0
 76
     1
 77
     6
 78
     2
 67
     7
 79
     5
170
     0
171
     0
290
     0
174
     0
 93
        1
 44
0.0
173
     0
291
     1
 45
0.0
  0
VISUALSTYLE
  5
2B
102
{ACAD_REACTORS
330
2A
102
}
102
{ACAD_XDICTIONARY
360
77
102
}
330
2A
100
AcDbVisualStyle
  2
Flat
 70
     0
 71
     2
 72
     1
 73
     1
 90
        2
 40
-0.6
 41
30.0
 62
     5
 63
     7
421
 16777215
 74
     0
 91
        4
 64
     7
 65
   257
 75
     1
175
     1
 42
1.0
 92
        8
 66
     7
 43
1.0
 76
     1
 77
     6
 78
     2
 67
     7
 79
     5
170
     0
171
     0
290
     0
174
     0
 93
       13
 44
0.0
173
     0
291
     1
 45
0.0
  0
VISUALSTYLE
  5
2C
102
{ACAD_REACTORS
330
2A
102
}
102
{ACAD_XDICTIONARY
360
79
102
}
330
2A
100
AcDbVisualStyle
  2
FlatWithEdges
 70
     1
 71
     2
 72
     1
 73
     1
 90
        2
 40
-0.6
 41
30.0
 62
     5
 63
     7
421
 16777215
 74
     1
 91
        4
 64
     7
 65
   257
 75
     1
175
     1
 42
1.0
 92
        0
 66
   257
 43
1.0
 76
     1
 77
     6
 78
     2
 67
     7
 79
     5
170
     0
171
     0
290
     0
174
     0
 93
       13
 44
0.0
173
     0
291
     1
 45
0.0
  0
VISUALSTYLE
  5
2D
102
{ACAD_REACTORS
330
2A
102
}
102
{ACAD_XDICTIONARY
360
7B
102
}
330
2A
100
AcDbVisualStyle
  2
Gouraud
 70
     2
 71
     2
 72
     2
 73
     1
 90
        2
 40
-0.6
 41
30.0
 62
     5
 63
     7
421
 16777215
 74
     0
 91
        4
 64
     7
 65
   257
 75
     1
175
     1
 42
1.0
 92
        0
 66
     7
 43
1.0
 76
     1
 77
     6
 78
     2
 67
     7
 79
     5
170
     0
171
     0
290
     0
174
     0
 93
       13
 44
0.0
173
     0
291
     1
 45
0.0
  0
VISUALSTYLE
  5
2E
102
{ACAD_REACTORS
330
2A
102
}
102
{ACAD_XDICTIONARY
360
7D
102
}
330
2A
100
AcDbVisualStyle
  2
GouraudWithEdges
 70
     3
 71
     2
 72
     2
 73
     1
 90
        2
 40
-0.6
 41
30.0
 62
     5
 63
     7
421
 16777215
 74
     1
 91
        4
 64
     7
 65
   257
 75
     1
175
     1
 42
1.0
 92
        0
 66
   257
 43
1.0
 76
     1
 77
     6
 78
     2
 67
     7
 79
     5
170
     0
171
     0
290
     0
174
     0
 93
       13
 44
0.0
173
     0
291
     1
 45
0.0
  0
VISUALSTYLE
  5
38
102
{ACAD_REACTORS
330
2A
102
}
102
{ACAD_XDICTIONARY
360
91
102
}
330
2A
100
AcDbVisualStyle
  2
Linepattern
 70
    14
 71
     2
 72
     2
 73
     0
 90
        0
 40
-0.6
 41
-30.0
 62
     5
 63
     7
421
 16777215
 74
     1
 91
        4
 64
     7
 65
   257
 75
     7
175
     7
 42
1.0
 92
        8
 66
     7
 43
1.0
 76
     1
 77
     6
 78
     2
 67
     7
 79
     5
170
     0
171
     0
290
     0
174
     0
 93
        1
 44
0.0
173
     0
291
     1
 45
0.0
  0
VISUALSTYLE
  5
33
102
{ACAD_REACTORS
330
2A
102
}
102
{ACAD_XDICTIONARY
360
87
102
}
330
2A
100
AcDbVisualStyle
  2
Realistic
 70
     8
 71
     2
 72
     2
 73
     0
 90
        0
 40
-0.6
 41
-30.0
 62
     5
 63
     7
421
 16777215
 74
     1
 91
        0
 64
     7
 65
   257
 75
     1
175
     1
 42
1.0
 92
        8
 66
     8
424
  7895160
 43
1.0
 76
     1
 77
     6
 78
     2
 67
     7
 79
     5
170
     0
171
     0
290
     0
174
     0
 93
       13
 44
0.0
173
     0
291
     0
 45
0.0
  0
VISUALSTYLE
  5
37
102
{ACAD_REACTORS
330
2A
102
}
102
{ACAD_XDICTIONARY
360
8F
102
}
330
2A
100
AcDbVisualStyle
  2
Thicken
 70
    13
 71
     2
 72
     2
 73
     0
 90
        0
 40
-0.6
 41
-30.0
 62
     5
 63
     7
421
 16777215
 74
     1
 91
        4
 64
     7
 65
   257
 75
     1
175
     1
 42
1.0
 92
       12
 66
     7
 43
1.0
 76
     1
 77
     6
 78
     2
 67
     7
 79
     5
170
     0
171
     0
290
     0
174
     0
 93
        1
 44
0.0
173
     0
291
     1
 45
0.0
  0
DICTIONARY
  5
7F
330
2F
100
AcDbDictionary
280
     1
281
     1
  3
ACAD_XREC_ROUNDTRIP
360
80
  0
DICTIONARY
  5
83
330
31
100
AcDbDictionary
280
     1
281
     1
  3
ACAD_XREC_ROUNDTRIP
360
84
  0
DICTIONARY
  5
81
330
30
100
AcDbDictionary
280
     1
281
     1
  3
ACAD_XREC_ROUNDTRIP
360
82
  0
DICTIONARY
  5
85
330
32
100
AcDbDictionary
280
     1
281
     1
  3
ACAD_XREC_ROUNDTRIP
360
86
  0
DICTIONARY
  5
8D
330
36
100
AcDbDictionary
280
     1
281
     1
  3
ACAD_XREC_ROUNDTRIP
360
8E
  0
DICTIONARY
  5
95
330
3A
100
AcDbDictionary
280
     1
281
     1
  3
ACAD_XREC_ROUNDTRIP
360
96
  0
DICTIONARY
  5
89
330
34
100
AcDbDictionary
280
     1
281
     1
  3
ACAD_XREC_ROUNDTRIP
360
8A
  0
DICTIONARY
  5
8B
330
35
100
AcDbDictionary
280
     1
281
     1
  3
ACAD_XREC_ROUNDTRIP
360
8C
  0
DICTIONARY
  5
93
330
39
100
AcDbDictionary
280
     1
281
     1
  3
ACAD_XREC_ROUNDTRIP
360
94
  0
DICTIONARY
  5
77
330
2B
100
AcDbDictionary
280
     1
281
     1
  3
ACAD_XREC_ROUNDTRIP
360
78
  0
DICTIONARY
  5
79
330
2C
100
AcDbDictionary
280
     1
281
     1
  3
ACAD_XREC_ROUNDTRIP
360
7A
  0
DICTIONARY
  5
7B
330
2D
100
AcDbDictionary
280
     1
281
     1
  3
ACAD_XREC_ROUNDTRIP
360
7C
  0
DICTIONARY
  5
7D
330
2E
100
AcDbDictionary
280
     1
281
     1
  3
ACAD_XREC_ROUNDTRIP
360
7E
  0
DICTIONARY
  5
91
330
38
100
AcDbDictionary
280
     1
281
     1
  3
ACAD_XREC_ROUNDTRIP
360
92
  0
DICTIONARY
  5
87
330
33
100
AcDbDictionary
280
     1
281
     1
  3
ACAD_XREC_ROUNDTRIP
360
88
  0
DICTIONARY
  5
8F
330
37
100
AcDbDictionary
280
     1
281
     1
  3
ACAD_XREC_ROUNDTRIP
360
90
  0
XRECORD
  5
80
102
{ACAD_REACTORS
330
7F
102
}
330
7F
100
AcDbXrecord
280
     1
102
RTVSPropertyOp0
 70
     1
102
RTVSPropertyOp1
 70
     1
102
RTVSPropertyOp2
 70
     1
102
RTVSPropertyOp3
 70
     1
102
RTVSPropertyOp4
 70
     1
102
RTVSPropertyOp5
 70
     1
102
RTVSPropertyOp6
 70
     1
102
RTVSPropertyOp7
 70
     1
102
RTVSPropertyOp8
 70
     1
102
RTVSPropertyOp9
 70
     1
102
RTVSPropertyOp10
 70
     1
102
RTVSPropertyOp11
 70
     1
102
RTVSPropertyOp12
 70
     1
102
RTVSPropertyOp13
 70
     1
102
RTVSPropertyOp14
 70
     1
102
RTVSPropertyOp15
 70
     1
102
RTVSPropertyOp16
 70
     1
102
RTVSPropertyOp17
 70
     1
102
RTVSPropertyOp18
 70
     1
102
RTVSPropertyOp19
 70
     1
102
RTVSPropertyOp20
 70
     1
102
RTVSPropertyOp21
 70
     1
102
RTVSPropertyOp22
 70
     1
102
RTVSPropertyOp23
 70
     1
102
RTVSPropertyOp24
 70
     1
102
RTVSPropertyOp25
 70
     1
102
RTVSPropertyOp26
 70
     1
102
RTVSPropertyOp27
 70
     1
102
RTVSPropertyOp28
 70
     1
102
RTVSPropertyOp29
 70
     1
102
RTVSPropertyOp30
 70
     1
102
RTVSPropertyOp31
 70
     1
102
RTVSPropertyOp32
 70
     1
  0
XRECORD
  5
84
102
{ACAD_REACTORS
330
83
102
}
330
83
100
AcDbXrecord
280
     1
102
RTVSPropertyOp0
 70
     1
102
RTVSPropertyOp1
 70
     1
102
RTVSPropertyOp2
 70
     1
102
RTVSPropertyOp3
 70
     1
102
RTVSPropertyOp4
 70
     1
102
RTVSPropertyOp5
 70
     1
102
RTVSPropertyOp6
 70
     1
102
RTVSPropertyOp7
 70
     1
102
RTVSPropertyOp8
 70
     1
102
RTVSPropertyOp9
 70
     1
102
RTVSPropertyOp10
 70
     1
102
RTVSPropertyOp11
 70
     1
102
RTVSPropertyOp12
 70
     1
102
RTVSPropertyOp13
 70
     1
102
RTVSPropertyOp14
 70
     1
102
RTVSPropertyOp15
 70
     1
102
RTVSPropertyOp16
 70
     1
102
RTVSPropertyOp17
 70
     1
102
RTVSPropertyOp18
 70
     1
102
RTVSPropertyOp19
 70
     1
102
RTVSPropertyOp20
 70
     1
102
RTVSPropertyOp21
 70
     1
102
RTVSPropertyOp22
 70
     1
102
RTVSPropertyOp23
 70
     1
102
RTVSPropertyOp24
 70
     1
102
RTVSPropertyOp25
 70
     1
102
RTVSPropertyOp26
 70
     1
102
RTVSPropertyOp27
 70
     1
102
RTVSPropertyOp28
 70
     1
102
RTVSPropertyOp29
 70
     1
102
RTVSPropertyOp30
 70
     1
102
RTVSPropertyOp31
 70
     1
102
RTVSPropertyOp32
 70
     1
  0
XRECORD
  5
82
102
{ACAD_REACTORS
330
81
102
}
330
81
100
AcDbXrecord
280
     1
102
RTVSPropertyOp0
 70
     1
102
RTVSPropertyOp1
 70
     1
102
RTVSPropertyOp2
 70
     1
102
RTVSPropertyOp3
 70
     1
102
RTVSPropertyOp4
 70
     1
102
RTVSPropertyOp5
 70
     1
102
RTVSPropertyOp6
 70
     1
102
RTVSPropertyOp7
 70
     1
102
RTVSPropertyOp8
 70
     1
102
RTVSPropertyOp9
 70
     1
102
RTVSPropertyOp10
 70
     1
102
RTVSPropertyOp11
 70
     1
102
RTVSPropertyOp12
 70
     1
102
RTVSPropertyOp13
 70
     1
102
RTVSPropertyOp14
 70
     1
102
RTVSPropertyOp15
 70
     1
102
RTVSPropertyOp16
 70
     1
102
RTVSPropertyOp17
 70
     1
102
RTVSPropertyOp18
 70
     1
102
RTVSPropertyOp19
 70
     1
102
RTVSPropertyOp20
 70
     1
102
RTVSPropertyOp21
 70
     1
102
RTVSPropertyOp22
 70
     1
102
RTVSPropertyOp23
 70
     1
102
RTVSPropertyOp24
 70
     1
102
RTVSPropertyOp25
 70
     1
102
RTVSPropertyOp26
 70
     1
102
RTVSPropertyOp27
 70
     1
102
RTVSPropertyOp28
 70
     1
102
RTVSPropertyOp29
 70
     1
102
RTVSPropertyOp30
 70
     1
102
RTVSPropertyOp31
 70
     1
102
RTVSPropertyOp32
 70
     1
  0
XRECORD
  5
86
102
{ACAD_REACTORS
330
85
102
}
330
85
100
AcDbXrecord
280
     1
102
RTVSPropertyOp0
 70
     1
102
RTVSPropertyOp1
 70
     1
102
RTVSPropertyOp2
 70
     1
102
RTVSPropertyOp3
 70
     1
102
RTVSPropertyOp4
 70
     1
102
RTVSPropertyOp5
 70
     1
102
RTVSPropertyOp6
 70
     1
102
RTVSPropertyOp7
 70
     1
102
RTVSPropertyOp8
 70
     1
102
RTVSPropertyOp9
 70
     1
102
RTVSPropertyOp10
 70
     1
102
RTVSPropertyOp11
 70
     1
102
RTVSPropertyOp12
 70
     1
102
RTVSPropertyOp13
 70
     1
102
RTVSPropertyOp14
 70
     1
102
RTVSPropertyOp15
 70
     1
102
RTVSPropertyOp16
 70
     1
102
RTVSPropertyOp17
 70
     1
102
RTVSPropertyOp18
 70
     1
102
RTVSPropertyOp19
 70
     1
102
RTVSPropertyOp20
 70
     1
102
RTVSPropertyOp21
 70
     1
102
RTVSPropertyOp22
 70
     1
102
RTVSPropertyOp23
 70
     1
102
RTVSPropertyOp24
 70
     1
102
RTVSPropertyOp25
 70
     1
102
RTVSPropertyOp26
 70
     1
102
RTVSPropertyOp27
 70
     1
102
RTVSPropertyOp28
 70
     1
102
RTVSPropertyOp29
 70
     1
102
RTVSPropertyOp30
 70
     1
102
RTVSPropertyOp31
 70
     1
102
RTVSPropertyOp32
 70
     1
  0
XRECORD
  5
8E
102
{ACAD_REACTORS
330
8D
102
}
330
8D
100
AcDbXrecord
280
     1
102
RTVSPropertyOp0
 70
     1
102
RTVSPropertyOp1
 70
     1
102
RTVSPropertyOp2
 70
     1
102
RTVSPropertyOp3
 70
     1
102
RTVSPropertyOp4
 70
     1
102
RTVSPropertyOp5
 70
     1
102
RTVSPropertyOp6
 70
     1
102
RTVSPropertyOp7
 70
     1
102
RTVSPropertyOp8
 70
     1
102
RTVSPropertyOp9
 70
     1
102
RTVSPropertyOp10
 70
     1
102
RTVSPropertyOp11
 70
     1
102
RTVSPropertyOp12
 70
     1
102
RTVSPropertyOp13
 70
     1
102
RTVSPropertyOp14
 70
     1
102
RTVSPropertyOp15
 70
     1
102
RTVSPropertyOp16
 70
     1
102
RTVSPropertyOp17
 70
     1
102
RTVSPropertyOp18
 70
     1
102
RTVSPropertyOp19
 70
     1
102
RTVSPropertyOp20
 70
     1
102
RTVSPropertyOp21
 70
     1
102
RTVSPropertyOp22
 70
     1
102
RTVSPropertyOp23
 70
     1
102
RTVSPropertyOp24
 70
     1
102
RTVSPropertyOp25
 70
     1
102
RTVSPropertyOp26
 70
     1
102
RTVSPropertyOp27
 70
     1
102
RTVSPropertyOp28
 70
     1
102
RTVSPropertyOp29
 70
     1
102
RTVSPropertyOp30
 70
     1
102
RTVSPropertyOp31
 70
     1
102
RTVSPropertyOp32
 70
     1
  0
XRECORD
  5
96
102
{ACAD_REACTORS
330
95
102
}
330
95
100
AcDbXrecord
280
     1
102
RTVSPropertyOp0
 70
     1
102
RTVSPropertyOp1
 70
     1
102
RTVSPropertyOp2
 70
     1
102
RTVSPropertyOp3
 70
     1
102
RTVSPropertyOp4
 70
     1
102
RTVSPropertyOp5
 70
     1
102
RTVSPropertyOp6
 70
     1
102
RTVSPropertyOp7
 70
     1
102
RTVSPropertyOp8
 70
     1
102
RTVSPropertyOp9
 70
     1
102
RTVSPropertyOp10
 70
     1
102
RTVSPropertyOp11
 70
     1
102
RTVSPropertyOp12
 70
     1
102
RTVSPropertyOp13
 70
     1
102
RTVSPropertyOp14
 70
     1
102
RTVSPropertyOp15
 70
     1
102
RTVSPropertyOp16
 70
     1
102
RTVSPropertyOp17
 70
     1
102
RTVSPropertyOp18
 70
     1
102
RTVSPropertyOp19
 70
     1
102
RTVSPropertyOp20
 70
     1
102
RTVSPropertyOp21
 70
     1
102
RTVSPropertyOp22
 70
     1
102
RTVSPropertyOp23
 70
     1
102
RTVSPropertyOp24
 70
     1
102
RTVSPropertyOp25
 70
     1
102
RTVSPropertyOp26
 70
     1
102
RTVSPropertyOp27
 70
     1
102
RTVSPropertyOp28
 70
     1
102
RTVSPropertyOp29
 70
     1
102
RTVSPropertyOp30
 70
     1
102
RTVSPropertyOp31
 70
     1
102
RTVSPropertyOp32
 70
     1
  0
XRECORD
  5
8A
102
{ACAD_REACTORS
330
89
102
}
330
89
100
AcDbXrecord
280
     1
102
RTVSPropertyOp0
 70
     1
102
RTVSPropertyOp1
 70
     1
102
RTVSPropertyOp2
 70
     1
102
RTVSPropertyOp3
 70
     1
102
RTVSPropertyOp4
 70
     1
102
RTVSPropertyOp5
 70
     1
102
RTVSPropertyOp6
 70
     1
102
RTVSPropertyOp7
 70
     1
102
RTVSPropertyOp8
 70
     1
102
RTVSPropertyOp9
 70
     1
102
RTVSPropertyOp10
 70
     1
102
RTVSPropertyOp11
 70
     1
102
RTVSPropertyOp12
 70
     1
102
RTVSPropertyOp13
 70
     1
102
RTVSPropertyOp14
 70
     1
102
RTVSPropertyOp15
 70
     1
102
RTVSPropertyOp16
 70
     1
102
RTVSPropertyOp17
 70
     1
102
RTVSPropertyOp18
 70
     1
102
RTVSPropertyOp19
 70
     1
102
RTVSPropertyOp20
 70
     1
102
RTVSPropertyOp21
 70
     1
102
RTVSPropertyOp22
 70
     1
102
RTVSPropertyOp23
 70
     1
102
RTVSPropertyOp24
 70
     1
102
RTVSPropertyOp25
 70
     1
102
RTVSPropertyOp26
 70
     1
102
RTVSPropertyOp27
 70
     1
102
RTVSPropertyOp28
 70
     1
102
RTVSPropertyOp29
 70
     1
102
RTVSPropertyOp30
 70
     1
102
RTVSPropertyOp31
 70
     1
102
RTVSPropertyOp32
 70
     1
  0
XRECORD
  5
8C
102
{ACAD_REACTORS
330
8B
102
}
330
8B
100
AcDbXrecord
280
     1
102
RTVSPropertyOp0
 70
     1
102
RTVSPropertyOp1
 70
     1
102
RTVSPropertyOp2
 70
     1
102
RTVSPropertyOp3
 70
     1
102
RTVSPropertyOp4
 70
     1
102
RTVSPropertyOp5
 70
     1
102
RTVSPropertyOp6
 70
     1
102
RTVSPropertyOp7
 70
     1
102
RTVSPropertyOp8
 70
     1
102
RTVSPropertyOp9
 70
     1
102
RTVSPropertyOp10
 70
     1
102
RTVSPropertyOp11
 70
     1
102
RTVSPropertyOp12
 70
     1
102
RTVSPropertyOp13
 70
     1
102
RTVSPropertyOp14
 70
     1
102
RTVSPropertyOp15
 70
     1
102
RTVSPropertyOp16
 70
     1
102
RTVSPropertyOp17
 70
     1
102
RTVSPropertyOp18
 70
     1
102
RTVSPropertyOp19
 70
     1
102
RTVSPropertyOp20
 70
     1
102
RTVSPropertyOp21
 70
     1
102
RTVSPropertyOp22
 70
     1
102
RTVSPropertyOp23
 70
     1
102
RTVSPropertyOp24
 70
     1
102
RTVSPropertyOp25
 70
     1
102
RTVSPropertyOp26
 70
     1
102
RTVSPropertyOp27
 70
     1
102
RTVSPropertyOp28
 70
     1
102
RTVSPropertyOp29
 70
     1
102
RTVSPropertyOp30
 70
     1
102
RTVSPropertyOp31
 70
     1
102
RTVSPropertyOp32
 70
     1
  0
XRECORD
  5
94
102
{ACAD_REACTORS
330
93
102
}
330
93
100
AcDbXrecord
280
     1
102
RTVSPropertyOp0
 70
     1
102
RTVSPropertyOp1
 70
     1
102
RTVSPropertyOp2
 70
     1
102
RTVSPropertyOp3
 70
     1
102
RTVSPropertyOp4
 70
     1
102
RTVSPropertyOp5
 70
     1
102
RTVSPropertyOp6
 70
     1
102
RTVSPropertyOp7
 70
     1
102
RTVSPropertyOp8
 70
     1
102
RTVSPropertyOp9
 70
     1
102
RTVSPropertyOp10
 70
     1
102
RTVSPropertyOp11
 70
     1
102
RTVSPropertyOp12
 70
     1
102
RTVSPropertyOp13
 70
     1
102
RTVSPropertyOp14
 70
     1
102
RTVSPropertyOp15
 70
     1
102
RTVSPropertyOp16
 70
     1
102
RTVSPropertyOp17
 70
     1
102
RTVSPropertyOp18
 70
     1
102
RTVSPropertyOp19
 70
     1
102
RTVSPropertyOp20
 70
     1
102
RTVSPropertyOp21
 70
     1
102
RTVSPropertyOp22
 70
     1
102
RTVSPropertyOp23
 70
     1
102
RTVSPropertyOp24
 70
     1
102
RTVSPropertyOp25
 70
     1
102
RTVSPropertyOp26
 70
     1
102
RTVSPropertyOp27
 70
     1
102
RTVSPropertyOp28
 70
     1
102
RTVSPropertyOp29
 70
     1
102
RTVSPropertyOp30
 70
     1
102
RTVSPropertyOp31
 70
     1
102
RTVSPropertyOp32
 70
     1
  0
XRECORD
  5
78
102
{ACAD_REACTORS
330
77
102
}
330
77
100
AcDbXrecord
280
     1
102
RTVSPropertyOp0
 70
     1
102
RTVSPropertyOp1
 70
     1
102
RTVSPropertyOp2
 70
     1
102
RTVSPropertyOp3
 70
     1
102
RTVSPropertyOp4
 70
     1
102
RTVSPropertyOp5
 70
     1
102
RTVSPropertyOp6
 70
     1
102
RTVSPropertyOp7
 70
     1
102
RTVSPropertyOp8
 70
     1
102
RTVSPropertyOp9
 70
     1
102
RTVSPropertyOp10
 70
     1
102
RTVSPropertyOp11
 70
     1
102
RTVSPropertyOp12
 70
     1
102
RTVSPropertyOp13
 70
     1
102
RTVSPropertyOp14
 70
     1
102
RTVSPropertyOp15
 70
     1
102
RTVSPropertyOp16
 70
     1
102
RTVSPropertyOp17
 70
     1
102
RTVSPropertyOp18
 70
     1
102
RTVSPropertyOp19
 70
     1
102
RTVSPropertyOp20
 70
     1
102
RTVSPropertyOp21
 70
     1
102
RTVSPropertyOp22
 70
     1
102
RTVSPropertyOp23
 70
     1
102
RTVSPropertyOp24
 70
     1
102
RTVSPropertyOp25
 70
     1
102
RTVSPropertyOp26
 70
     1
102
RTVSPropertyOp27
 70
     1
102
RTVSPropertyOp28
 70
     1
102
RTVSPropertyOp29
 70
     1
102
RTVSPropertyOp30
 70
     1
102
RTVSPropertyOp31
 70
     1
102
RTVSPropertyOp32
 70
     1
  0
XRECORD
  5
7A
102
{ACAD_REACTORS
330
79
102
}
330
79
100
AcDbXrecord
280
     1
102
RTVSPropertyOp0
 70
     1
102
RTVSPropertyOp1
 70
     1
102
RTVSPropertyOp2
 70
     1
102
RTVSPropertyOp3
 70
     1
102
RTVSPropertyOp4
 70
     1
102
RTVSPropertyOp5
 70
     1
102
RTVSPropertyOp6
 70
     1
102
RTVSPropertyOp7
 70
     1
102
RTVSPropertyOp8
 70
     1
102
RTVSPropertyOp9
 70
     1
102
RTVSPropertyOp10
 70
     1
102
RTVSPropertyOp11
 70
     1
102
RTVSPropertyOp12
 70
     1
102
RTVSPropertyOp13
 70
     1
102
RTVSPropertyOp14
 70
     1
102
RTVSPropertyOp15
 70
     1
102
RTVSPropertyOp16
 70
     1
102
RTVSPropertyOp17
 70
     1
102
RTVSPropertyOp18
 70
     1
102
RTVSPropertyOp19
 70
     1
102
RTVSPropertyOp20
 70
     1
102
RTVSPropertyOp21
 70
     1
102
RTVSPropertyOp22
 70
     1
102
RTVSPropertyOp23
 70
     1
102
RTVSPropertyOp24
 70
     1
102
RTVSPropertyOp25
 70
     1
102
RTVSPropertyOp26
 70
     1
102
RTVSPropertyOp27
 70
     1
102
RTVSPropertyOp28
 70
     1
102
RTVSPropertyOp29
 70
     1
102
RTVSPropertyOp30
 70
     1
102
RTVSPropertyOp31
 70
     1
102
RTVSPropertyOp32
 70
     1
  0
XRECORD
  5
7C
102
{ACAD_REACTORS
330
7B
102
}
330
7B
100
AcDbXrecord
280
     1
102
RTVSPropertyOp0
 70
     1
102
RTVSPropertyOp1
 70
     1
102
RTVSPropertyOp2
 70
     1
102
RTVSPropertyOp3
 70
     1
102
RTVSPropertyOp4
 70
     1
102
RTVSPropertyOp5
 70
     1
102
RTVSPropertyOp6
 70
     1
102
RTVSPropertyOp7
 70
     1
102
RTVSPropertyOp8
 70
     1
102
RTVSPropertyOp9
 70
     1
102
RTVSPropertyOp10
 70
     1
102
RTVSPropertyOp11
 70
     1
102
RTVSPropertyOp12
 70
     1
102
RTVSPropertyOp13
 70
     1
102
RTVSPropertyOp14
 70
     1
102
RTVSPropertyOp15
 70
     1
102
RTVSPropertyOp16
 70
     1
102
RTVSPropertyOp17
 70
     1
102
RTVSPropertyOp18
 70
     1
102
RTVSPropertyOp19
 70
     1
102
RTVSPropertyOp20
 70
     1
102
RTVSPropertyOp21
 70
     1
102
RTVSPropertyOp22
 70
     1
102
RTVSPropertyOp23
 70
     1
102
RTVSPropertyOp24
 70
     1
102
RTVSPropertyOp25
 70
     1
102
RTVSPropertyOp26
 70
     1
102
RTVSPropertyOp27
 70
     1
102
RTVSPropertyOp28
 70
     1
102
RTVSPropertyOp29
 70
     1
102
RTVSPropertyOp30
 70
     1
102
RTVSPropertyOp31
 70
     1
102
RTVSPropertyOp32
 70
     1
  0
XRECORD
  5
7E
102
{ACAD_REACTORS
330
7D
102
}
330
7D
100
AcDbXrecord
280
     1
102
RTVSPropertyOp0
 70
     1
102
RTVSPropertyOp1
 70
     1
102
RTVSPropertyOp2
 70
     1
102
RTVSPropertyOp3
 70
     1
102
RTVSPropertyOp4
 70
     1
102
RTVSPropertyOp5
 70
     1
102
RTVSPropertyOp6
 70
     1
102
RTVSPropertyOp7
 70
     1
102
RTVSPropertyOp8
 70
     1
102
RTVSPropertyOp9
 70
     1
102
RTVSPropertyOp10
 70
     1
102
RTVSPropertyOp11
 70
     1
102
RTVSPropertyOp12
 70
     1
102
RTVSPropertyOp13
 70
     1
102
RTVSPropertyOp14
 70
     1
102
RTVSPropertyOp15
 70
     1
102
RTVSPropertyOp16
 70
     1
102
RTVSPropertyOp17
 70
     1
102
RTVSPropertyOp18
 70
     1
102
RTVSPropertyOp19
 70
     1
102
RTVSPropertyOp20
 70
     1
102
RTVSPropertyOp21
 70
     1
102
RTVSPropertyOp22
 70
     1
102
RTVSPropertyOp23
 70
     1
102
RTVSPropertyOp24
 70
     1
102
RTVSPropertyOp25
 70
     1
102
RTVSPropertyOp26
 70
     1
102
RTVSPropertyOp27
 70
     1
102
RTVSPropertyOp28
 70
     1
102
RTVSPropertyOp29
 70
     1
102
RTVSPropertyOp30
 70
     1
102
RTVSPropertyOp31
 70
     1
102
RTVSPropertyOp32
 70
     1
  0
XRECORD
  5
92
102
{ACAD_REACTORS
330
91
102
}
330
91
100
AcDbXrecord
280
     1
102
RTVSPropertyOp0
 70
     1
102
RTVSPropertyOp1
 70
     1
102
RTVSPropertyOp2
 70
     1
102
RTVSPropertyOp3
 70
     1
102
RTVSPropertyOp4
 70
     1
102
RTVSPropertyOp5
 70
     1
102
RTVSPropertyOp6
 70
     1
102
RTVSPropertyOp7
 70
     1
102
RTVSPropertyOp8
 70
     1
102
RTVSPropertyOp9
 70
     1
102
RTVSPropertyOp10
 70
     1
102
RTVSPropertyOp11
 70
     1
102
RTVSPropertyOp12
 70
     1
102
RTVSPropertyOp13
 70
     1
102
RTVSPropertyOp14
 70
     1
102
RTVSPropertyOp15
 70
     1
102
RTVSPropertyOp16
 70
     1
102
RTVSPropertyOp17
 70
     1
102
RTVSPropertyOp18
 70
     1
102
RTVSPropertyOp19
 70
     1
102
RTVSPropertyOp20
 70
     1
102
RTVSPropertyOp21
 70
     1
102
RTVSPropertyOp22
 70
     1
102
RTVSPropertyOp23
 70
     1
102
RTVSPropertyOp24
 70
     1
102
RTVSPropertyOp25
 70
     1
102
RTVSPropertyOp26
 70
     1
102
RTVSPropertyOp27
 70
     1
102
RTVSPropertyOp28
 70
     1
102
RTVSPropertyOp29
 70
     1
102
RTVSPropertyOp30
 70
     1
102
RTVSPropertyOp31
 70
     1
102
RTVSPropertyOp32
 70
     1
  0
XRECORD
  5
88
102
{ACAD_REACTORS
330
87
102
}
330
87
100
AcDbXrecord
280
     1
102
RTVSPropertyOp0
 70
     1
102
RTVSPropertyOp1
 70
     1
102
RTVSPropertyOp2
 70
     1
102
RTVSPropertyOp3
 70
     1
102
RTVSPropertyOp4
 70
     1
102
RTVSPropertyOp5
 70
     1
102
RTVSPropertyOp6
 70
     1
102
RTVSPropertyOp7
 70
     1
102
RTVSPropertyOp8
 70
     1
102
RTVSPropertyOp9
 70
     1
102
RTVSPropertyOp10
 70
     1
102
RTVSPropertyOp11
 70
     1
102
RTVSPropertyOp12
 70
     1
102
RTVSPropertyOp13
 70
     1
102
RTVSPropertyOp14
 70
     1
102
RTVSPropertyOp15
 70
     1
102
RTVSPropertyOp16
 70
     1
102
RTVSPropertyOp17
 70
     1
102
RTVSPropertyOp18
 70
     1
102
RTVSPropertyOp19
 70
     1
102
RTVSPropertyOp20
 70
     1
102
RTVSPropertyOp21
 70
     1
102
RTVSPropertyOp22
 70
     1
102
RTVSPropertyOp23
 70
     1
102
RTVSPropertyOp24
 70
     1
102
RTVSPropertyOp25
 70
     1
102
RTVSPropertyOp26
 70
     1
102
RTVSPropertyOp27
 70
     1
102
RTVSPropertyOp28
 70
     1
102
RTVSPropertyOp29
 70
     1
102
RTVSPropertyOp30
 70
     1
102
RTVSPropertyOp31
 70
     1
102
RTVSPropertyOp32
 70
     1
  0
XRECORD
  5
90
102
{ACAD_REACTORS
330
8F
102
}
330
8F
100
AcDbXrecord
280
     1
102
RTVSPropertyOp0
 70
     1
102
RTVSPropertyOp1
 70
     1
102
RTVSPropertyOp2
 70
     1
102
RTVSPropertyOp3
 70
     1
102
RTVSPropertyOp4
 70
     1
102
RTVSPropertyOp5
 70
     1
102
RTVSPropertyOp6
 70
     1
102
RTVSPropertyOp7
 70
     1
102
RTVSPropertyOp8
 70
     1
102
RTVSPropertyOp9
 70
     1
102
RTVSPropertyOp10
 70
     1
102
RTVSPropertyOp11
 70
     1
102
RTVSPropertyOp12
 70
     1
102
RTVSPropertyOp13
 70
     1
102
RTVSPropertyOp14
 70
     1
102
RTVSPropertyOp15
 70
     1
102
RTVSPropertyOp16
 70
     1
102
RTVSPropertyOp17
 70
     1
102
RTVSPropertyOp18
 70
     1
102
RTVSPropertyOp19
 70
     1
102
RTVSPropertyOp20
 70
     1
102
RTVSPropertyOp21
 70
     1
102
RTVSPropertyOp22
 70
     1
102
RTVSPropertyOp23
 70
     1
102
RTVSPropertyOp24
 70
     1
102
RTVSPropertyOp25
 70
     1
102
RTVSPropertyOp26
 70
     1
102
RTVSPropertyOp27
 70
     1
102
RTVSPropertyOp28
 70
     1
102
RTVSPropertyOp29
 70
     1
102
RTVSPropertyOp30
 70
     1
102
RTVSPropertyOp31
 70
     1
102
RTVSPropertyOp32
 70
     1
  0
ENDSEC
  0
EOF
