  0
SECTION
  2
HEADER
  9
$ACADVER
  1
AC1021
  9
$ACADMAINTVER
 70
    25
  9
$DWGCODEPAGE
  3
ANSI_1256
  9
$INSBASE
 10
0.0
 20
0.0
 30
0.0
  9
$EXTMIN
 10
-73.0852
 20
-106.4823
 30
0.0
  9
$EXTMAX
 10
82.5375
 20
131.8661
 30
0.0
  9
$LIMMIN
 10
0.0
 20
0.0
  9
$LIMMAX
 10
12.0
 20
9.0
  9
$ORTHOMODE
 70
     0
  9
$REGENMODE
 70
     1
  9
$FILLMODE
 70
     1
  9
$QTEXTMODE
 70
     0
  9
$MIRRTEXT
 70
     1
  9
$LTSCALE
 40
1.0
  9
$ATTMODE
 70
     1
  9
$TEXTSIZE
 40
0.2
  9
$TRACEWID
 40
0.05
  9
$TEXTSTYLE
  7
Standard
  9
$CLAYER
  8
0
  9
$CELTYPE
  6
ByLayer
  9
$CECOLOR
 62
   256
  9
$CELTSCALE
 40
1.0
  9
$DISPSILH
 70
     0
  9
$DIMSCALE
 40
1.0
  9
$DIMASZ
 40
0.18
  9
$DIMEXO
 40
0.0625
  9
$DIMDLI
 40
0.38
  9
$DIMRND
 40
0.0
  9
$DIMDLE
 40
0.0
  9
$DIMEXE
 40
0.18
  9
$DIMTP
 40
0.0
  9
$DIMTM
 40
0.0
  9
$DIMTXT
 40
0.18
  9
$DIMCEN
 40
0.09
  9
$DIMTSZ
 40
0.0
  9
$DIMTOL
 70
     0
  9
$DIMLIM
 70
     0
  9
$DIMTIH
 70
     1
  9
$DIMTOH
 70
     1
  9
$DIMSE1
 70
     0
  9
$DIMSE2
 70
     0
  9
$DIMTAD
 70
     0
  9
$DIMZIN
 70
     0
  9
$DIMBLK
  1

  9
$DIMASO
 70
     1
  9
$DIMSHO
 70
     1
  9
$DIMPOST
  1

  9
$DIMAPOST
  1

  9
$DIMALT
 70
     0
  9
$DIMALTD
 70
     2
  9
$DIMALTF
 40
25.4
  9
$DIMLFAC
 40
1.0
  9
$DIMTOFL
 70
     0
  9
$DIMTVP
 40
0.0
  9
$DIMTIX
 70
     0
  9
$DIMSOXD
 70
     0
  9
$DIMSAH
 70
     0
  9
$DIMBLK1
  1

  9
$DIMBLK2
  1

  9
$DIMSTYLE
  2
Standard
  9
$DIMCLRD
 70
     0
  9
$DIMCLRE
 70
     0
  9
$DIMCLRT
 70
     0
  9
$DIMTFAC
 40
1.0
  9
$DIMGAP
 40
0.09
  9
$DIMJUST
 70
     0
  9
$DIMSD1
 70
     0
  9
$DIMSD2
 70
     0
  9
$DIMTOLJ
 70
     1
  9
$DIMTZIN
 70
     0
  9
$DIMALTZ
 70
     0
  9
$DIMALTTZ
 70
     0
  9
$DIMUPT
 70
     0
  9
$DIMDEC
 70
     4
  9
$DIMTDEC
 70
     4
  9
$DIMALTU
 70
     2
  9
$DIMALTTD
 70
     2
  9
$DIMTXSTY
  7
Standard
  9
$DIMAUNIT
 70
     0
  9
$DIMADEC
 70
     0
  9
$DIMALTRND
 40
0.0
  9
$DIMAZIN
 70
     0
  9
$DIMDSEP
 70
    46
  9
$DIMATFIT
 70
     3
  9
$DIMFRAC
 70
     0
  9
$DIMLDRBLK
  1

  9
$DIMLUNIT
 70
     2
  9
$DIMLWD
 70
    -2
  9
$DIMLWE
 70
    -2
  9
$DIMTMOVE
 70
     0
  9
$DIMFXL
 40
1.0
  9
$DIMFXLON
 70
     0
  9
$DIMJOGANG
 40
0.7853981633974483
  9
$DIMTFILL
 70
     0
  9
$DIMTFILLCLR
 70
     0
  9
$DIMARCSYM
 70
     0
  9
$DIMLTYPE
  6

  9
$DIMLTEX1
  6

  9
$DIMLTEX2
  6

  9
$LUNITS
 70
     2
  9
$LUPREC
 70
     4
  9
$SKETCHINC
 40
0.1
  9
$FILLETRAD
 40
0.5
  9
$AUNITS
 70
     0
  9
$AUPREC
 70
     0
  9
$MENU
  1
.
  9
$ELEVATION
 40
0.0
  9
$PELEVATION
 40
0.0
  9
$THICKNESS
 40
0.0
  9
$LIMCHECK
 70
     0
  9
$CHAMFERA
 40
0.5
  9
$CHAMFERB
 40
0.5
  9
$CHAMFERC
 40
1.0
  9
$CHAMFERD
 40
0.0
  9
$SKPOLY
 70
     0
  9
$TDCREATE
 40
2458492.393850208
  9
$TDUCREATE
 40
2458492.227183542
  9
$TDUPDATE
 40
2458492.393850671
  9
$TDUUPDATE
 40
2458492.227184005
  9
$TDINDWG
 40
0.0000000116
  9
$TDUSRTIMER
 40
0.0000000116
  9
$USRTIMER
 70
     1
  9
$ANGBASE
 50
0.0
  9
$ANGDIR
 70
     0
  9
$PDMODE
 70
     0
  9
$PDSIZE
 40
0.0
  9
$PLINEWID
 40
0.0
  9
$SPLFRAME
 70
     0
  9
$SPLINETYPE
 70
     6
  9
$SPLINESEGS
 70
     8
  9
$HANDSEED
  5
161
  9
$SURFTAB1
 70
     6
  9
$SURFTAB2
 70
     6
  9
$SURFTYPE
 70
     6
  9
$SURFU
 70
     6
  9
$SURFV
 70
     6
  9
$UCSBASE
  2

  9
$UCSNAME
  2

  9
$UCSORG
 10
0.0
 20
0.0
 30
0.0
  9
$UCSXDIR
 10
1.0
 20
0.0
 30
0.0
  9
$UCSYDIR
 10
0.0
 20
1.0
 30
0.0
  9
$UCSORTHOREF
  2

  9
$UCSORTHOVIEW
 70
     0
  9
$UCSORGTOP
 10
0.0
 20
0.0
 30
0.0
  9
$UCSORGBOTTOM
 10
0.0
 20
0.0
 30
0.0
  9
$UCSORGLEFT
 10
0.0
 20
0.0
 30
0.0
  9
$UCSORGRIGHT
 10
0.0
 20
0.0
 30
0.0
  9
$UCSORGFRONT
 10
0.0
 20
0.0
 30
0.0
  9
$UCSORGBACK
 10
0.0
 20
0.0
 30
0.0
  9
$PUCSBASE
  2

  9
$PUCSNAME
  2

  9
$PUCSORG
 10
0.0
 20
0.0
 30
0.0
  9
$PUCSXDIR
 10
1.0
 20
0.0
 30
0.0
  9
$PUCSYDIR
 10
0.0
 20
1.0
 30
0.0
  9
$PUCSORTHOREF
  2

  9
$PUCSORTHOVIEW
 70
     0
  9
$PUCSORGTOP
 10
0.0
 20
0.0
 30
0.0
  9
$PUCSORGBOTTOM
 10
0.0
 20
0.0
 30
0.0
  9
$PUCSORGLEFT
 10
0.0
 20
0.0
 30
0.0
  9
$PUCSORGRIGHT
 10
0.0
 20
0.0
 30
0.0
  9
$PUCSORGFRONT
 10
0.0
 20
0.0
 30
0.0
  9
$PUCSORGBACK
 10
0.0
 20
0.0
 30
0.0
  9
$USERI1
 70
     0
  9
$USERI2
 70
     0
  9
$USERI3
 70
     0
  9
$USERI4
 70
     0
  9
$USERI5
 70
     0
  9
$USERR1
 40
0.0
  9
$USERR2
 40
0.0
  9
$USERR3
 40
0.0
  9
$USERR4
 40
0.0
  9
$USERR5
 40
0.0
  9
$WORLDVIEW
 70
     1
  9
$SHADEDGE
 70
     3
  9
$SHADEDIF
 70
    70
  9
$TILEMODE
 70
     1
  9
$MAXACTVP
 70
    64
  9
$PINSBASE
 10
0.0
 20
0.0
 30
0.0
  9
$PLIMCHECK
 70
     0
  9
$PEXTMIN
 10
1.000000000000000E+20
 20
1.000000000000000E+20
 30
1.000000000000000E+20
  9
$PEXTMAX
 10
-1.000000000000000E+20
 20
-1.000000000000000E+20
 30
-1.000000000000000E+20
  9
$PLIMMIN
 10
0.0
 20
0.0
  9
$PLIMMAX
 10
12.0
 20
9.0
  9
$UNITMODE
 70
     0
  9
$VISRETAIN
 70
     1
  9
$PLINEGEN
 70
     0
  9
$PSLTSCALE
 70
     1
  9
$TREEDEPTH
 70
  3020
  9
$CMLSTYLE
  2
Standard
  9
$CMLJUST
 70
     0
  9
$CMLSCALE
 40
1.0
  9
$PROXYGRAPHICS
 70
     1
  9
$MEASUREMENT
 70
     0
  9
$CELWEIGHT
370
    -1
  9
$ENDCAPS
280
     0
  9
$JOINSTYLE
280
     0
  9
$LWDISPLAY
290
     0
  9
$INSUNITS
 70
     4
  9
$HYPERLINKBASE
  1

  9
$STYLESHEET
  1

  9
$XEDIT
290
     1
  9
$CEPSNTYPE
380
     0
  9
$PSTYLEMODE
290
     1
  9
$FINGERPRINTGUID
  2
{4299651E-9AC2-4F2F-86A0-57EED8A1899E}
  9
$VERSIONGUID
  2
{FAEB1C32-E019-11D5-929B-00C0DF256EC4}
  9
$EXTNAMES
290
     1
  9
$PSVPSCALE
 40
0.0
  9
$OLESTARTUP
290
     0
  9
$SORTENTS
280
   127
  9
$INDEXCTL
280
     0
  9
$HIDETEXT
280
     1
  9
$XCLIPFRAME
290
     0
  9
$HALOGAP
280
     0
  9
$OBSCOLOR
 70
   257
  9
$OBSLTYPE
280
     0
  9
$INTERSECTIONDISPLAY
280
     0
  9
$INTERSECTIONCOLOR
 70
   257
  9
$DIMASSOC
280
     2
  9
$PROJECTNAME
  1

  9
$CAMERADISPLAY
290
     0
  9
$LENSLENGTH
 40
50.0
  9
$CAMERAHEIGHT
 40
0.0
  9
$STEPSPERSEC
 40
2.0
  9
$STEPSIZE
 40
6.0
  9
$3DDWFPREC
 40
2.0
  9
$PSOLWIDTH
 40
0.25
  9
$PSOLHEIGHT
 40
4.0
  9
$LOFTANG1
 40
1.570796326794897
  9
$LOFTANG2
 40
1.570796326794897
  9
$LOFTMAG1
 40
0.0
  9
$LOFTMAG2
 40
0.0
  9
$LOFTPARAM
 70
     7
  9
$LOFTNORMALS
280
     1
  9
$LATITUDE
 40
37.795
  9
$LONGITUDE
 40
-122.394
  9
$NORTHDIRECTION
 40
0.0
  9
$TIMEZONE
 70
 -8000
  9
$LIGHTGLYPHDISPLAY
280
     1
  9
$TILEMODELIGHTSYNCH
280
     1
  9
$SOLIDHIST
280
     1
  9
$SHOWHIST
280
     1
  9
$DWFFRAME
280
     2
  9
$DGNFRAME
280
     2
  9
$REALWORLDSCALE
290
     1
  9
$INTERFERECOLOR
 62
   256
  9
$CSHADOW
280
     0
  9
$SHADOWPLANELOCATION
 40
0.0
  0
ENDSEC
  0
SECTION
  2
CLASSES
  0
CLASS
  1
ACDBDICTIONARYWDFLT
  2
AcDbDictionaryWithDefault
  3
ObjectDBX Classes
 90
        0
 91
        4
280
     0
281
     0
  0
CLASS
  1
VISUALSTYLE
  2
AcDbVisualStyle
  3
ObjectDBX Classes
 90
     4095
 91
        4
280
     0
281
     0
  0
CLASS
  1
MATERIAL
  2
AcDbMaterial
  3
ObjectDBX Classes
 90
     1153
 91
        4
280
     0
281
     0
  0
ENDSEC
  0
SECTION
  2
TABLES
  0
TABLE
  2
VPORT
  5
8
330
0
100
AcDbSymbolTable
 70
     1
  0
VPORT
  5
29
330
8
100
AcDbSymbolTableRecord
100
AcDbViewportTableRecord
  2
*Active
 70
     0
 10
0.0
 20
0.0
 11
1.0
 21
1.0
 12
10.42990654205607
 22
4.5
 13
0.0
 23
0.0
 14
0.5
 24
0.5
 15
0.5
 25
0.5
 16
0.0
 26
0.0
 36
1.0
 17
0.0
 27
0.0
 37
0.0
 40
9.0
 41
1.972972972850329
 42
50.0
 43
0.0
 44
0.0
 50
0.0
 51
0.0
 71
     0
 72
   100
 73
     1
 74
     3
 75
     0
 76
     0
 77
     0
 78
     0
281
     0
 65
     1
110
0.0
120
0.0
130
0.0
111
1.0
121
0.0
131
0.0
112
0.0
122
1.0
132
0.0
 79
     0
146
0.0
 60
     3
 61
     5
292
     1
282
     1
141
0.0
142
0.0
 63
   250
  0
ENDTAB
  0
TABLE
  2
LTYPE
  5
5
330
0
100
AcDbSymbolTable
 70
     1
  0
LTYPE
  5
14
330
5
100
AcDbSymbolTableRecord
100
AcDbLinetypeTableRecord
  2
ByBlock
 70
     0
  3

 72
    65
 73
     0
 40
0.0
  0
LTYPE
  5
15
330
5
100
AcDbSymbolTableRecord
100
AcDbLinetypeTableRecord
  2
ByLayer
 70
     0
  3

 72
    65
 73
     0
 40
0.0
  0
LTYPE
  5
16
330
5
100
AcDbSymbolTableRecord
100
AcDbLinetypeTableRecord
  2
Continuous
 70
     0
  3
Solid line
 72
    65
 73
     0
 40
0.0
  0
ENDTAB
  0
TABLE
  2
LAYER
  5
2
330
0
100
AcDbSymbolTable
 70
     2
  0
LAYER
  5
10
330
2
100
AcDbSymbolTableRecord
100
AcDbLayerTableRecord
  2
0
 70
     0
 62
     7
  6
Continuous
370
    -3
390
F
347
3E
  0
LAYER
  5
40
330
2
100
AcDbSymbolTableRecord
100
AcDbLayerTableRecord
  2
layer 1
 70
     0
 62
     7
  6
Continuous
370
    -3
390
F
347
3E
  0
ENDTAB
  0
TABLE
  2
STYLE
  5
3
330
0
100
AcDbSymbolTable
 70
     1
  0
STYLE
  5
11
330
3
100
AcDbSymbolTableRecord
100
AcDbTextStyleTableRecord
  2
Standard
 70
     0
 40
0.0
 41
1.0
 50
0.0
 71
     0
 42
0.2
  3
txt
  4

  0
ENDTAB
  0
TABLE
  2
VIEW
  5
6
330
0
100
AcDbSymbolTable
 70
     0
  0
ENDTAB
  0
TABLE
  2
UCS
  5
7
330
0
100
AcDbSymbolTable
 70
     0
  0
ENDTAB
  0
TABLE
  2
APPID
  5
9
330
0
100
AcDbSymbolTable
 70
     2
  0
APPID
  5
12
330
9
100
AcDbSymbolTableRecord
100
AcDbRegAppTableRecord
  2
ACAD
 70
     0
  0
APPID
  5
3F
330
9
100
AcDbSymbolTableRecord
100
AcDbRegAppTableRecord
  2
ODA
 70
     0
  0
ENDTAB
  0
TABLE
  2
DIMSTYLE
  5
A
330
0
100
AcDbSymbolTable
 70
     1
100
AcDbDimStyleTable
  0
DIMSTYLE
105
27
330
A
100
AcDbSymbolTableRecord
100
AcDbDimStyleTableRecord
  2
Standard
 70
     0
178
     0
340
11
  0
ENDTAB
  0
TABLE
  2
BLOCK_RECORD
  5
1
330
0
100
AcDbSymbolTable
 70
     1
  0
BLOCK_RECORD
  5
1F
330
1
100
AcDbSymbolTableRecord
100
AcDbBlockTableRecord
  2
*Model_Space
340
22
 70
     0
280
     1
281
     0
  0
BLOCK_RECORD
  5
1B
330
1
100
AcDbSymbolTableRecord
100
AcDbBlockTableRecord
  2
*Paper_Space
340
1E
 70
     0
280
     1
281
     0
  0
BLOCK_RECORD
  5
23
330
1
100
AcDbSymbolTableRecord
100
AcDbBlockTableRecord
  2
*Paper_Space0
340
26
 70
     0
280
     1
281
     0
  0
ENDTAB
  0
ENDSEC
  0
SECTION
  2
BLOCKS
  0
BLOCK
  5
20
330
1F
100
AcDbEntity
  8
0
100
AcDbBlockBegin
  2
*Model_Space
 70
     0
 10
0.0
 20
0.0
 30
0.0
  3
*Model_Space
  1

  0
ENDBLK
  5
21
330
1F
100
AcDbEntity
  8
0
100
AcDbBlockEnd
  0
BLOCK
  5
1C
330
1B
100
AcDbEntity
 67
     1
  8
0
100
AcDbBlockBegin
  2
*Paper_Space
 70
     0
 10
0.0
 20
0.0
 30
0.0
  3
*Paper_Space
  1

  0
ENDBLK
  5
1D
330
1B
100
AcDbEntity
 67
     1
  8
0
100
AcDbBlockEnd
  0
BLOCK
  5
24
330
23
100
AcDbEntity
  8
0
100
AcDbBlockBegin
  2
*Paper_Space0
 70
     0
 10
0.0
 20
0.0
 30
0.0
  3
*Paper_Space0
  1

  0
ENDBLK
  5
25
330
23
100
AcDbEntity
  8
0
100
AcDbBlockEnd
  0
ENDSEC
  0
SECTION
  2
ENTITIES
  0
LWPOLYLINE
  5
41
330
1F
100
AcDbEntity
  8
layer 1
 62
   250
100
AcDbPolyline
 90
        5
 70
     1
 43
0.0
 10
-73.0852
 20
-106.4823
 10
82.5374
 20
-106.4823
 10
82.5374
 20
131.8661
 10
-73.0852
 20
131.8661
 10
-73.0852
 20
-106.4823
  0
ELLIPSE
  5
42
330
1F
100
AcDbEntity
  8
layer 1
 62
     7
100
AcDbEllipse
 10
-51.4691
 20
94.816
 30
0.0
 11
0.0
 21
3.9725
 31
0.0
210
0.0
220
0.0
230
1.0
 40
1.0
 41
0.0
 42
6.283185307179586
  0
SPLINE
  5
43
330
1F
100
AcDbEntity
  8
layer 1
 62
     7
100
AcDbSpline
210
0.0
220
0.0
230
1.0
 70
    11
 71
     3
 72
    16
 73
    12
 74
     0
 42
0.0000000001
 43
0.0000000001
 12
1.0
 22
0.0
 32
0.0
 13
1.0
 23
0.0
 33
0.0
 40
0.0
 40
0.0
 40
0.0
 40
0.0
 40
0.25
 40
0.25
 40
0.25
 40
0.25
 40
0.5
 40
0.5
 40
0.5
 40
0.5
 40
1.0
 40
1.0
 40
1.0
 40
1.0
 10
-65.4209
 20
112.6913
 30
0.0
 10
-63.2271
 20
112.6913
 30
0.0
 10
-61.4483
 20
110.9124
 30
0.0
 10
-61.4483
 20
108.7188
 30
0.0
 10
-61.4483
 20
108.7188
 30
0.0
 10
-61.4483
 20
106.5251
 30
0.0
 10
-63.2271
 20
104.7462
 30
0.0
 10
-65.4209
 20
104.7462
 30
0.0
 10
-65.4209
 20
104.7462
 30
0.0
 10
-65.4209
 20
104.7462
 30
0.0
 10
-65.4209
 20
112.6913
 30
0.0
 10
-65.4209
 20
112.6913
 30
0.0
  0
SPLINE
  5
44
330
1F
100
AcDbEntity
  8
layer 1
 62
     7
100
AcDbSpline
210
0.0
220
0.0
230
1.0
 70
    11
 71
     3
 72
    16
 73
    12
 74
     0
 42
0.0000000001
 43
0.0000000001
 12
1.0
 22
0.0
 32
0.0
 13
1.0
 23
0.0
 33
0.0
 40
0.0
 40
0.0
 40
0.0
 40
0.0
 40
0.25
 40
0.25
 40
0.25
 40
0.25
 40
0.5
 40
0.5
 40
0.5
 40
0.5
 40
1.0
 40
1.0
 40
1.0
 40
1.0
 10
-47.5062
 20
122.5982
 30
0.0
 10
-47.5062
 20
120.4044
 30
0.0
 10
-49.2851
 20
118.6256
 30
0.0
 10
-51.4787
 20
118.6256
 30
0.0
 10
-51.4787
 20
118.6256
 30
0.0
 10
-53.6725
 20
118.6256
 30
0.0
 10
-55.4513
 20
120.4044
 30
0.0
 10
-55.4513
 20
122.5982
 30
0.0
 10
-55.4513
 20
122.5982
 30
0.0
 10
-55.4513
 20
122.5982
 30
0.0
 10
-47.5062
 20
122.5982
 30
0.0
 10
-47.5062
 20
122.5982
 30
0.0
  0
SPLINE
  5
45
330
1F
100
AcDbEntity
  8
layer 1
 62
     7
100
AcDbSpline
210
0.0
220
0.0
230
1.0
 70
    11
 71
     3
 72
    20
 73
    16
 74
     0
 42
0.0000000001
 43
0.0000000001
 12
1.0
 22
0.0
 32
0.0
 13
1.0
 23
0.0
 33
0.0
 40
0.0
 40
0.0
 40
0.0
 40
0.0
 40
0.2
 40
0.2
 40
0.2
 40
0.2
 40
0.4
 40
0.4
 40
0.4
 40
0.4
 40
0.6
 40
0.6
 40
0.6
 40
0.6
 40
1.0
 40
1.0
 40
1.0
 40
1.0
 10
-52.3284
 20
109.6599
 30
0.0
 10
-52.6332
 20
113.8602
 30
0.0
 10
-54.678
 20
116.5913
 30
0.0
 10
-56.3095
 20
118.1763
 30
0.0
 10
-56.3095
 20
118.1763
 30
0.0
 10
-58.4319
 20
120.1937
 30
0.0
 10
-61.4149
 20
121.7144
 30
0.0
 10
-64.6215
 20
121.8308
 30
0.0
 10
-64.6215
 20
121.8308
 30
0.0
 10
-64.4776
 20
118.8807
 30
0.0
 10
-63.1133
 20
116.0727
 30
0.0
 10
-61.3493
 20
114.0538
 30
0.0
 10
-61.3493
 20
114.0538
 30
0.0
 10
-59.1299
 20
111.6411
 30
0.0
 10
-55.9256
 20
109.7892
 30
0.0
 10
-52.3284
 20
109.6599
 30
0.0
  0
SPLINE
  5
46
330
1F
100
AcDbEntity
  8
layer 1
 62
     7
100
AcDbSpline
210
0.0
220
0.0
230
1.0
 70
    11
 71
     3
 72
    20
 73
    16
 74
     0
 42
0.0000000001
 43
0.0000000001
 12
1.0
 22
0.0
 32
0.0
 13
1.0
 23
0.0
 33
0.0
 40
0.0
 40
0.0
 40
0.0
 40
0.0
 40
0.2
 40
0.2
 40
0.2
 40
0.2
 40
0.4
 40
0.4
 40
0.4
 40
0.4
 40
0.6
 40
0.6
 40
0.6
 40
0.6
 40
1.0
 40
1.0
 40
1.0
 40
1.0
 10
-52.2999
 20
107.8164
 30
0.0
 10
-52.6047
 20
103.6161
 30
0.0
 10
-54.6495
 20
100.8851
 30
0.0
 10
-56.281
 20
99.3001
 30
0.0
 10
-56.281
 20
99.3001
 30
0.0
 10
-58.4033
 20
97.2827
 30
0.0
 10
-61.3863
 20
95.762
 30
0.0
 10
-64.5929
 20
95.6455
 30
0.0
 10
-64.5929
 20
95.6455
 30
0.0
 10
-64.449
 20
98.5957
 30
0.0
 10
-63.0847
 20
101.4037
 30
0.0
 10
-61.3207
 20
103.4226
 30
0.0
 10
-61.3207
 20
103.4226
 30
0.0
 10
-59.1013
 20
105.8353
 30
0.0
 10
-55.897
 20
107.6872
 30
0.0
 10
-52.2999
 20
107.8164
 30
0.0
  0
SPLINE
  5
47
330
1F
100
AcDbEntity
  8
layer 1
 62
     7
100
AcDbSpline
210
0.0
220
0.0
230
1.0
 70
    11
 71
     3
 72
    20
 73
    16
 74
     0
 42
0.0000000001
 43
0.0000000001
 12
1.0
 22
0.0
 32
0.0
 13
1.0
 23
0.0
 33
0.0
 40
0.0
 40
0.0
 40
0.0
 40
0.0
 40
0.2
 40
0.2
 40
0.2
 40
0.2
 40
0.4
 40
0.4
 40
0.4
 40
0.4
 40
0.6
 40
0.6
 40
0.6
 40
0.6
 40
1.0
 40
1.0
 40
1.0
 40
1.0
 10
-50.8069
 20
109.6483
 30
0.0
 10
-50.5021
 20
113.8486
 30
0.0
 10
-48.4573
 20
116.5796
 30
0.0
 10
-46.8258
 20
118.1647
 30
0.0
 10
-46.8258
 20
118.1647
 30
0.0
 10
-44.7035
 20
120.182
 30
0.0
 10
-41.7205
 20
121.7027
 30
0.0
 10
-38.5138
 20
121.8192
 30
0.0
 10
-38.5138
 20
121.8192
 30
0.0
 10
-38.6578
 20
118.8691
 30
0.0
 10
-40.0221
 20
116.061
 30
0.0
 10
-41.7861
 20
114.0421
 30
0.0
 10
-41.7861
 20
114.0421
 30
0.0
 10
-44.0055
 20
111.6295
 30
0.0
 10
-47.2098
 20
109.7775
 30
0.0
 10
-50.8069
 20
109.6483
 30
0.0
  0
SPLINE
  5
48
330
1F
100
AcDbEntity
  8
layer 1
 62
     7
100
AcDbSpline
210
0.0
220
0.0
230
1.0
 70
    11
 71
     3
 72
    20
 73
    16
 74
     0
 42
0.0000000001
 43
0.0000000001
 12
1.0
 22
0.0
 32
0.0
 13
1.0
 23
0.0
 33
0.0
 40
0.0
 40
0.0
 40
0.0
 40
0.0
 40
0.2
 40
0.2
 40
0.2
 40
0.2
 40
0.4
 40
0.4
 40
0.4
 40
0.4
 40
0.6
 40
0.6
 40
0.6
 40
0.6
 40
1.0
 40
1.0
 40
1.0
 40
1.0
 10
-24.5948
 20
109.6599
 30
0.0
 10
-24.8996
 20
113.8602
 30
0.0
 10
-26.9444
 20
116.5913
 30
0.0
 10
-28.5759
 20
118.1763
 30
0.0
 10
-28.5759
 20
118.1763
 30
0.0
 10
-30.6983
 20
120.1937
 30
0.0
 10
-33.6813
 20
121.7144
 30
0.0
 10
-36.8879
 20
121.8308
 30
0.0
 10
-36.8879
 20
121.8308
 30
0.0
 10
-36.744
 20
118.8807
 30
0.0
 10
-35.3797
 20
116.0727
 30
0.0
 10
-33.6157
 20
114.0538
 30
0.0
 10
-33.6157
 20
114.0538
 30
0.0
 10
-31.3963
 20
111.6411
 30
0.0
 10
-28.192
 20
109.7892
 30
0.0
 10
-24.5948
 20
109.6599
 30
0.0
  0
SPLINE
  5
49
330
1F
100
AcDbEntity
  8
layer 1
 62
     7
100
AcDbSpline
210
0.0
220
0.0
230
1.0
 70
    11
 71
     3
 72
    20
 73
    16
 74
     0
 42
0.0000000001
 43
0.0000000001
 12
1.0
 22
0.0
 32
0.0
 13
1.0
 23
0.0
 33
0.0
 40
0.0
 40
0.0
 40
0.0
 40
0.0
 40
0.2
 40
0.2
 40
0.2
 40
0.2
 40
0.4
 40
0.4
 40
0.4
 40
0.4
 40
0.6
 40
0.6
 40
0.6
 40
0.6
 40
1.0
 40
1.0
 40
1.0
 40
1.0
 10
-50.7922
 20
107.87
 30
0.0
 10
-50.4874
 20
103.6697
 30
0.0
 10
-48.4426
 20
100.9386
 30
0.0
 10
-46.8111
 20
99.3536
 30
0.0
 10
-46.8111
 20
99.3536
 30
0.0
 10
-44.6888
 20
97.3362
 30
0.0
 10
-41.7058
 20
95.8155
 30
0.0
 10
-38.4992
 20
95.699
 30
0.0
 10
-38.4992
 20
95.699
 30
0.0
 10
-38.6431
 20
98.6492
 30
0.0
 10
-40.0074
 20
101.4572
 30
0.0
 10
-41.7714
 20
103.4761
 30
0.0
 10
-41.7714
 20
103.4761
 30
0.0
 10
-43.9908
 20
105.8888
 30
0.0
 10
-47.1951
 20
107.7407
 30
0.0
 10
-50.7922
 20
107.87
 30
0.0
  0
SPLINE
  5
4A
330
1F
100
AcDbEntity
  8
layer 1
 62
     7
100
AcDbSpline
210
0.0
220
0.0
230
1.0
 70
    11
 71
     3
 72
    20
 73
    16
 74
     0
 42
0.0000000001
 43
0.0000000001
 12
1.0
 22
0.0
 32
0.0
 13
1.0
 23
0.0
 33
0.0
 40
0.0
 40
0.0
 40
0.0
 40
0.0
 40
0.2
 40
0.2
 40
0.2
 40
0.2
 40
0.4
 40
0.4
 40
0.4
 40
0.4
 40
0.6
 40
0.6
 40
0.6
 40
0.6
 40
1.0
 40
1.0
 40
1.0
 40
1.0
 10
-24.594
 20
107.8164
 30
0.0
 10
-24.8988
 20
103.6161
 30
0.0
 10
-26.9436
 20
100.8851
 30
0.0
 10
-28.5751
 20
99.3001
 30
0.0
 10
-28.5751
 20
99.3001
 30
0.0
 10
-30.6974
 20
97.2827
 30
0.0
 10
-33.6804
 20
95.762
 30
0.0
 10
-36.8871
 20
95.6455
 30
0.0
 10
-36.8871
 20
95.6455
 30
0.0
 10
-36.7432
 20
98.5957
 30
0.0
 10
-35.3789
 20
101.4037
 30
0.0
 10
-33.6148
 20
103.4226
 30
0.0
 10
-33.6148
 20
103.4226
 30
0.0
 10
-31.3954
 20
105.8353
 30
0.0
 10
-28.1911
 20
107.6872
 30
0.0
 10
-24.594
 20
107.8164
 30
0.0
  0
SPLINE
  5
4B
330
1F
100
AcDbEntity
  8
layer 1
 62
     7
100
AcDbSpline
210
0.0
220
0.0
230
1.0
 70
    11
 71
     3
 72
    16
 73
    12
 74
     0
 42
0.0000000001
 43
0.0000000001
 12
1.0
 22
0.0
 32
0.0
 13
1.0
 23
0.0
 33
0.0
 40
0.0
 40
0.0
 40
0.0
 40
0.0
 40
0.25
 40
0.25
 40
0.25
 40
0.25
 40
0.5
 40
0.5
 40
0.5
 40
0.5
 40
1.0
 40
1.0
 40
1.0
 40
1.0
 10
73.0807
 20
112.6913
 30
0.0
 10
73.0807
 20
112.6913
 30
0.0
 10
73.0807
 20
104.7462
 30
0.0
 10
73.0807
 20
104.7462
 30
0.0
 10
73.0807
 20
104.7462
 30
0.0
 10
70.8871
 20
104.7462
 30
0.0
 10
69.1082
 20
106.5252
 30
0.0
 10
69.1082
 20
108.7188
 30
0.0
 10
69.1082
 20
108.7188
 30
0.0
 10
69.1082
 20
110.9124
 30
0.0
 10
70.8871
 20
112.6913
 30
0.0
 10
73.0807
 20
112.6913
 30
0.0
  0
ELLIPSE
  5
4C
330
1F
100
AcDbEntity
  8
layer 1
 62
     7
100
AcDbEllipse
 10
-10.0566
 20
108.7188
 30
0.0
 11
0.0
 21
3.9725
 31
0.0
210
0.0
220
0.0
230
1.0
 40
1.0
 41
0.0
 42
6.283185307179586
  0
SPLINE
  5
4D
330
1F
100
AcDbEntity
  8
layer 1
 62
     7
100
AcDbSpline
210
0.0
220
0.0
230
1.0
 70
    11
 71
     3
 72
    20
 73
    16
 74
     0
 42
0.0000000001
 43
0.0000000001
 12
1.0
 22
0.0
 32
0.0
 13
1.0
 23
0.0
 33
0.0
 40
0.0
 40
0.0
 40
0.0
 40
0.0
 40
0.2
 40
0.2
 40
0.2
 40
0.2
 40
0.4
 40
0.4
 40
0.4
 40
0.4
 40
0.6
 40
0.6
 40
0.6
 40
0.6
 40
1.0
 40
1.0
 40
1.0
 40
1.0
 10
-23.1485
 20
109.6483
 30
0.0
 10
-22.8437
 20
113.8486
 30
0.0
 10
-20.7989
 20
116.5796
 30
0.0
 10
-19.1674
 20
118.1647
 30
0.0
 10
-19.1674
 20
118.1647
 30
0.0
 10
-17.0451
 20
120.182
 30
0.0
 10
-14.0621
 20
121.7027
 30
0.0
 10
-10.8554
 20
121.8192
 30
0.0
 10
-10.8554
 20
121.8192
 30
0.0
 10
-10.9993
 20
118.8691
 30
0.0
 10
-12.3636
 20
116.061
 30
0.0
 10
-14.1277
 20
114.0421
 30
0.0
 10
-14.1277
 20
114.0421
 30
0.0
 10
-16.3471
 20
111.6295
 30
0.0
 10
-19.5514
 20
109.7775
 30
0.0
 10
-23.1485
 20
109.6483
 30
0.0
  0
SPLINE
  5
4E
330
1F
100
AcDbEntity
  8
layer 1
 62
     7
100
AcDbSpline
210
0.0
220
0.0
230
1.0
 70
    11
 71
     3
 72
    20
 73
    16
 74
     0
 42
0.0000000001
 43
0.0000000001
 12
1.0
 22
0.0
 32
0.0
 13
1.0
 23
0.0
 33
0.0
 40
0.0
 40
0.0
 40
0.0
 40
0.0
 40
0.2
 40
0.2
 40
0.2
 40
0.2
 40
0.4
 40
0.4
 40
0.4
 40
0.4
 40
0.6
 40
0.6
 40
0.6
 40
0.6
 40
1.0
 40
1.0
 40
1.0
 40
1.0
 10
3.0636
 20
109.6599
 30
0.0
 10
2.7588
 20
113.8602
 30
0.0
 10
0.714
 20
116.5913
 30
0.0
 10
-0.9175
 20
118.1763
 30
0.0
 10
-0.9175
 20
118.1763
 30
0.0
 10
-3.0398
 20
120.1937
 30
0.0
 10
-6.0228
 20
121.7144
 30
0.0
 10
-9.2295
 20
121.8308
 30
0.0
 10
-9.2295
 20
121.8308
 30
0.0
 10
-9.0855
 20
118.8807
 30
0.0
 10
-7.7213
 20
116.0727
 30
0.0
 10
-5.9572
 20
114.0538
 30
0.0
 10
-5.9572
 20
114.0538
 30
0.0
 10
-3.7378
 20
111.6411
 30
0.0
 10
-0.5335
 20
109.7892
 30
0.0
 10
3.0636
 20
109.6599
 30
0.0
  0
SPLINE
  5
4F
330
1F
100
AcDbEntity
  8
layer 1
 62
     7
100
AcDbSpline
210
0.0
220
0.0
230
1.0
 70
    11
 71
     3
 72
    20
 73
    16
 74
     0
 42
0.0000000001
 43
0.0000000001
 12
1.0
 22
0.0
 32
0.0
 13
1.0
 23
0.0
 33
0.0
 40
0.0
 40
0.0
 40
0.0
 40
0.0
 40
0.2
 40
0.2
 40
0.2
 40
0.2
 40
0.4
 40
0.4
 40
0.4
 40
0.4
 40
0.6
 40
0.6
 40
0.6
 40
0.6
 40
1.0
 40
1.0
 40
1.0
 40
1.0
 10
-23.1338
 20
107.87
 30
0.0
 10
-22.829
 20
103.6697
 30
0.0
 10
-20.7842
 20
100.9386
 30
0.0
 10
-19.1527
 20
99.3536
 30
0.0
 10
-19.1527
 20
99.3536
 30
0.0
 10
-17.0304
 20
97.3362
 30
0.0
 10
-14.0474
 20
95.8155
 30
0.0
 10
-10.8407
 20
95.699
 30
0.0
 10
-10.8407
 20
95.699
 30
0.0
 10
-10.9846
 20
98.6492
 30
0.0
 10
-12.3489
 20
101.4572
 30
0.0
 10
-14.113
 20
103.4761
 30
0.0
 10
-14.113
 20
103.4761
 30
0.0
 10
-16.3324
 20
105.8888
 30
0.0
 10
-19.5367
 20
107.7407
 30
0.0
 10
-23.1338
 20
107.87
 30
0.0
  0
SPLINE
  5
50
330
1F
100
AcDbEntity
  8
layer 1
 62
     7
100
AcDbSpline
210
0.0
220
0.0
230
1.0
 70
    11
 71
     3
 72
    20
 73
    16
 74
     0
 42
0.0000000001
 43
0.0000000001
 12
1.0
 22
0.0
 32
0.0
 13
1.0
 23
0.0
 33
0.0
 40
0.0
 40
0.0
 40
0.0
 40
0.0
 40
0.2
 40
0.2
 40
0.2
 40
0.2
 40
0.4
 40
0.4
 40
0.4
 40
0.4
 40
0.6
 40
0.6
 40
0.6
 40
0.6
 40
1.0
 40
1.0
 40
1.0
 40
1.0
 10
3.0644
 20
107.8164
 30
0.0
 10
2.7596
 20
103.6161
 30
0.0
 10
0.7148
 20
100.8851
 30
0.0
 10
-0.9167
 20
99.3001
 30
0.0
 10
-0.9167
 20
99.3001
 30
0.0
 10
-3.039
 20
97.2827
 30
0.0
 10
-6.022
 20
95.762
 30
0.0
 10
-9.2286
 20
95.6455
 30
0.0
 10
-9.2286
 20
95.6455
 30
0.0
 10
-9.0847
 20
98.5957
 30
0.0
 10
-7.7204
 20
101.4037
 30
0.0
 10
-5.9564
 20
103.4226
 30
0.0
 10
-5.9564
 20
103.4226
 30
0.0
 10
-3.737
 20
105.8353
 30
0.0
 10
-0.5327
 20
107.6872
 30
0.0
 10
3.0644
 20
107.8164
 30
0.0
  0
ELLIPSE
  5
51
330
1F
100
AcDbEntity
  8
layer 1
 62
     7
100
AcDbEllipse
 10
17.6349
 20
108.7188
 30
0.0
 11
0.0
 21
3.9725
 31
0.0
210
0.0
220
0.0
230
1.0
 40
1.0
 41
0.0
 42
6.283185307179586
  0
SPLINE
  5
52
330
1F
100
AcDbEntity
  8
layer 1
 62
     7
100
AcDbSpline
210
0.0
220
0.0
230
1.0
 70
    11
 71
     3
 72
    20
 73
    16
 74
     0
 42
0.0000000001
 43
0.0000000001
 12
1.0
 22
0.0
 32
0.0
 13
1.0
 23
0.0
 33
0.0
 40
0.0
 40
0.0
 40
0.0
 40
0.0
 40
0.2
 40
0.2
 40
0.2
 40
0.2
 40
0.4
 40
0.4
 40
0.4
 40
0.4
 40
0.6
 40
0.6
 40
0.6
 40
0.6
 40
1.0
 40
1.0
 40
1.0
 40
1.0
 10
4.543
 20
109.6483
 30
0.0
 10
4.8477
 20
113.8486
 30
0.0
 10
6.8926
 20
116.5796
 30
0.0
 10
8.524
 20
118.1647
 30
0.0
 10
8.524
 20
118.1647
 30
0.0
 10
10.6464
 20
120.182
 30
0.0
 10
13.6294
 20
121.7027
 30
0.0
 10
16.836
 20
121.8192
 30
0.0
 10
16.836
 20
121.8192
 30
0.0
 10
16.6921
 20
118.8691
 30
0.0
 10
15.3278
 20
116.061
 30
0.0
 10
13.5638
 20
114.0421
 30
0.0
 10
13.5638
 20
114.0421
 30
0.0
 10
11.3444
 20
111.6295
 30
0.0
 10
8.1401
 20
109.7775
 30
0.0
 10
4.543
 20
109.6483
 30
0.0
  0
SPLINE
  5
53
330
1F
100
AcDbEntity
  8
layer 1
 62
     7
100
AcDbSpline
210
0.0
220
0.0
230
1.0
 70
    11
 71
     3
 72
    20
 73
    16
 74
     0
 42
0.0000000001
 43
0.0000000001
 12
1.0
 22
0.0
 32
0.0
 13
1.0
 23
0.0
 33
0.0
 40
0.0
 40
0.0
 40
0.0
 40
0.0
 40
0.2
 40
0.2
 40
0.2
 40
0.2
 40
0.4
 40
0.4
 40
0.4
 40
0.4
 40
0.6
 40
0.6
 40
0.6
 40
0.6
 40
1.0
 40
1.0
 40
1.0
 40
1.0
 10
30.755
 20
109.6599
 30
0.0
 10
30.4503
 20
113.8602
 30
0.0
 10
28.4054
 20
116.5913
 30
0.0
 10
26.774
 20
118.1763
 30
0.0
 10
26.774
 20
118.1763
 30
0.0
 10
24.6516
 20
120.1937
 30
0.0
 10
21.6686
 20
121.7144
 30
0.0
 10
18.462
 20
121.8308
 30
0.0
 10
18.462
 20
121.8308
 30
0.0
 10
18.6059
 20
118.8807
 30
0.0
 10
19.9702
 20
116.0727
 30
0.0
 10
21.7342
 20
114.0538
 30
0.0
 10
21.7342
 20
114.0538
 30
0.0
 10
23.9536
 20
111.6411
 30
0.0
 10
27.1579
 20
109.7892
 30
0.0
 10
30.755
 20
109.6599
 30
0.0
  0
SPLINE
  5
54
330
1F
100
AcDbEntity
  8
layer 1
 62
     7
100
AcDbSpline
210
0.0
220
0.0
230
1.0
 70
    11
 71
     3
 72
    20
 73
    16
 74
     0
 42
0.0000000001
 43
0.0000000001
 12
1.0
 22
0.0
 32
0.0
 13
1.0
 23
0.0
 33
0.0
 40
0.0
 40
0.0
 40
0.0
 40
0.0
 40
0.2
 40
0.2
 40
0.2
 40
0.2
 40
0.4
 40
0.4
 40
0.4
 40
0.4
 40
0.6
 40
0.6
 40
0.6
 40
0.6
 40
1.0
 40
1.0
 40
1.0
 40
1.0
 10
4.5577
 20
107.87
 30
0.0
 10
4.8624
 20
103.6697
 30
0.0
 10
6.9073
 20
100.9386
 30
0.0
 10
8.5387
 20
99.3536
 30
0.0
 10
8.5387
 20
99.3536
 30
0.0
 10
10.6611
 20
97.3362
 30
0.0
 10
13.6441
 20
95.8155
 30
0.0
 10
16.8507
 20
95.699
 30
0.0
 10
16.8507
 20
95.699
 30
0.0
 10
16.7068
 20
98.6492
 30
0.0
 10
15.3425
 20
101.4572
 30
0.0
 10
13.5785
 20
103.4761
 30
0.0
 10
13.5785
 20
103.4761
 30
0.0
 10
11.3591
 20
105.8888
 30
0.0
 10
8.1548
 20
107.7407
 30
0.0
 10
4.5577
 20
107.87
 30
0.0
  0
SPLINE
  5
55
330
1F
100
AcDbEntity
  8
layer 1
 62
     7
100
AcDbSpline
210
0.0
220
0.0
230
1.0
 70
    11
 71
     3
 72
    20
 73
    16
 74
     0
 42
0.0000000001
 43
0.0000000001
 12
1.0
 22
0.0
 32
0.0
 13
1.0
 23
0.0
 33
0.0
 40
0.0
 40
0.0
 40
0.0
 40
0.0
 40
0.2
 40
0.2
 40
0.2
 40
0.2
 40
0.4
 40
0.4
 40
0.4
 40
0.4
 40
0.6
 40
0.6
 40
0.6
 40
0.6
 40
1.0
 40
1.0
 40
1.0
 40
1.0
 10
30.7559
 20
107.8164
 30
0.0
 10
30.4511
 20
103.6161
 30
0.0
 10
28.4063
 20
100.8851
 30
0.0
 10
26.7748
 20
99.3001
 30
0.0
 10
26.7748
 20
99.3001
 30
0.0
 10
24.6525
 20
97.2827
 30
0.0
 10
21.6695
 20
95.762
 30
0.0
 10
18.4628
 20
95.6455
 30
0.0
 10
18.4628
 20
95.6455
 30
0.0
 10
18.6067
 20
98.5957
 30
0.0
 10
19.971
 20
101.4037
 30
0.0
 10
21.735
 20
103.4226
 30
0.0
 10
21.735
 20
103.4226
 30
0.0
 10
23.9544
 20
105.8353
 30
0.0
 10
27.1587
 20
107.6872
 30
0.0
 10
30.7559
 20
107.8164
 30
0.0
  0
ELLIPSE
  5
56
330
1F
100
AcDbEntity
  8
layer 1
 62
     7
100
AcDbEllipse
 10
45.3425
 20
108.7188
 30
0.0
 11
0.0
 21
3.9725
 31
0.0
210
0.0
220
0.0
230
1.0
 40
1.0
 41
0.0
 42
6.283185307179586
  0
SPLINE
  5
57
330
1F
100
AcDbEntity
  8
layer 1
 62
     7
100
AcDbSpline
210
0.0
220
0.0
230
1.0
 70
    11
 71
     3
 72
    20
 73
    16
 74
     0
 42
0.0000000001
 43
0.0000000001
 12
1.0
 22
0.0
 32
0.0
 13
1.0
 23
0.0
 33
0.0
 40
0.0
 40
0.0
 40
0.0
 40
0.0
 40
0.2
 40
0.2
 40
0.2
 40
0.2
 40
0.4
 40
0.4
 40
0.4
 40
0.4
 40
0.6
 40
0.6
 40
0.6
 40
0.6
 40
1.0
 40
1.0
 40
1.0
 40
1.0
 10
32.2506
 20
109.6483
 30
0.0
 10
32.5554
 20
113.8486
 30
0.0
 10
34.6002
 20
116.5796
 30
0.0
 10
36.2317
 20
118.1647
 30
0.0
 10
36.2317
 20
118.1647
 30
0.0
 10
38.354
 20
120.182
 30
0.0
 10
41.337
 20
121.7027
 30
0.0
 10
44.5437
 20
121.8192
 30
0.0
 10
44.5437
 20
121.8192
 30
0.0
 10
44.3998
 20
118.8691
 30
0.0
 10
43.0355
 20
116.061
 30
0.0
 10
41.2714
 20
114.0421
 30
0.0
 10
41.2714
 20
114.0421
 30
0.0
 10
39.0521
 20
111.6295
 30
0.0
 10
35.8477
 20
109.7775
 30
0.0
 10
32.2506
 20
109.6483
 30
0.0
  0
SPLINE
  5
58
330
1F
100
AcDbEntity
  8
layer 1
 62
     7
100
AcDbSpline
210
0.0
220
0.0
230
1.0
 70
    11
 71
     3
 72
    20
 73
    16
 74
     0
 42
0.0000000001
 43
0.0000000001
 12
1.0
 22
0.0
 32
0.0
 13
1.0
 23
0.0
 33
0.0
 40
0.0
 40
0.0
 40
0.0
 40
0.0
 40
0.2
 40
0.2
 40
0.2
 40
0.2
 40
0.4
 40
0.4
 40
0.4
 40
0.4
 40
0.6
 40
0.6
 40
0.6
 40
0.6
 40
1.0
 40
1.0
 40
1.0
 40
1.0
 10
58.4627
 20
109.6599
 30
0.0
 10
58.1579
 20
113.8602
 30
0.0
 10
56.1131
 20
116.5913
 30
0.0
 10
54.4816
 20
118.1763
 30
0.0
 10
54.4816
 20
118.1763
 30
0.0
 10
52.3593
 20
120.1937
 30
0.0
 10
49.3763
 20
121.7144
 30
0.0
 10
46.1696
 20
121.8308
 30
0.0
 10
46.1696
 20
121.8308
 30
0.0
 10
46.3136
 20
118.8807
 30
0.0
 10
47.6778
 20
116.0727
 30
0.0
 10
49.4419
 20
114.0538
 30
0.0
 10
49.4419
 20
114.0538
 30
0.0
 10
51.6613
 20
111.6411
 30
0.0
 10
54.8656
 20
109.7892
 30
0.0
 10
58.4627
 20
109.6599
 30
0.0
  0
SPLINE
  5
59
330
1F
100
AcDbEntity
  8
layer 1
 62
     7
100
AcDbSpline
210
0.0
220
0.0
230
1.0
 70
    11
 71
     3
 72
    20
 73
    16
 74
     0
 42
0.0000000001
 43
0.0000000001
 12
1.0
 22
0.0
 32
0.0
 13
1.0
 23
0.0
 33
0.0
 40
0.0
 40
0.0
 40
0.0
 40
0.0
 40
0.2
 40
0.2
 40
0.2
 40
0.2
 40
0.4
 40
0.4
 40
0.4
 40
0.4
 40
0.6
 40
0.6
 40
0.6
 40
0.6
 40
1.0
 40
1.0
 40
1.0
 40
1.0
 10
32.2653
 20
107.87
 30
0.0
 10
32.5701
 20
103.6697
 30
0.0
 10
34.6149
 20
100.9386
 30
0.0
 10
36.2464
 20
99.3536
 30
0.0
 10
36.2464
 20
99.3536
 30
0.0
 10
38.3687
 20
97.3362
 30
0.0
 10
41.3517
 20
95.8155
 30
0.0
 10
44.5584
 20
95.699
 30
0.0
 10
44.5584
 20
95.699
 30
0.0
 10
44.4145
 20
98.6492
 30
0.0
 10
43.0502
 20
101.4572
 30
0.0
 10
41.2861
 20
103.4761
 30
0.0
 10
41.2861
 20
103.4761
 30
0.0
 10
39.0667
 20
105.8888
 30
0.0
 10
35.8624
 20
107.7407
 30
0.0
 10
32.2653
 20
107.87
 30
0.0
  0
SPLINE
  5
5A
330
1F
100
AcDbEntity
  8
layer 1
 62
     7
100
AcDbSpline
210
0.0
220
0.0
230
1.0
 70
    11
 71
     3
 72
    20
 73
    16
 74
     0
 42
0.0000000001
 43
0.0000000001
 12
1.0
 22
0.0
 32
0.0
 13
1.0
 23
0.0
 33
0.0
 40
0.0
 40
0.0
 40
0.0
 40
0.0
 40
0.2
 40
0.2
 40
0.2
 40
0.2
 40
0.4
 40
0.4
 40
0.4
 40
0.4
 40
0.6
 40
0.6
 40
0.6
 40
0.6
 40
1.0
 40
1.0
 40
1.0
 40
1.0
 10
59.9888
 20
109.6483
 30
0.0
 10
60.2936
 20
113.8486
 30
0.0
 10
62.3384
 20
116.5796
 30
0.0
 10
63.9699
 20
118.1647
 30
0.0
 10
63.9699
 20
118.1647
 30
0.0
 10
66.0922
 20
120.182
 30
0.0
 10
69.0752
 20
121.7027
 30
0.0
 10
72.2819
 20
121.8192
 30
0.0
 10
72.2819
 20
121.8192
 30
0.0
 10
72.1379
 20
118.8691
 30
0.0
 10
70.7737
 20
116.061
 30
0.0
 10
69.0096
 20
114.0421
 30
0.0
 10
69.0096
 20
114.0421
 30
0.0
 10
66.7902
 20
111.6295
 30
0.0
 10
63.5859
 20
109.7775
 30
0.0
 10
59.9888
 20
109.6483
 30
0.0
  0
SPLINE
  5
5B
330
1F
100
AcDbEntity
  8
layer 1
 62
     7
100
AcDbSpline
210
0.0
220
0.0
230
1.0
 70
    11
 71
     3
 72
    20
 73
    16
 74
     0
 42
0.0000000001
 43
0.0000000001
 12
1.0
 22
0.0
 32
0.0
 13
1.0
 23
0.0
 33
0.0
 40
0.0
 40
0.0
 40
0.0
 40
0.0
 40
0.2
 40
0.2
 40
0.2
 40
0.2
 40
0.4
 40
0.4
 40
0.4
 40
0.4
 40
0.6
 40
0.6
 40
0.6
 40
0.6
 40
1.0
 40
1.0
 40
1.0
 40
1.0
 10
60.0035
 20
107.87
 30
0.0
 10
60.3083
 20
103.6697
 30
0.0
 10
62.3531
 20
100.9386
 30
0.0
 10
63.9846
 20
99.3536
 30
0.0
 10
63.9846
 20
99.3536
 30
0.0
 10
66.1069
 20
97.3362
 30
0.0
 10
69.0899
 20
95.8155
 30
0.0
 10
72.2966
 20
95.699
 30
0.0
 10
72.2966
 20
95.699
 30
0.0
 10
72.1526
 20
98.6492
 30
0.0
 10
70.7884
 20
101.4572
 30
0.0
 10
69.0243
 20
103.4761
 30
0.0
 10
69.0243
 20
103.4761
 30
0.0
 10
66.8049
 20
105.8888
 30
0.0
 10
63.6006
 20
107.7407
 30
0.0
 10
60.0035
 20
107.87
 30
0.0
  0
SPLINE
  5
5C
330
1F
100
AcDbEntity
  8
layer 1
 62
     7
100
AcDbSpline
210
0.0
220
0.0
230
1.0
 70
    11
 71
     3
 72
    20
 73
    16
 74
     0
 42
0.0000000001
 43
0.0000000001
 12
1.0
 22
0.0
 32
0.0
 13
1.0
 23
0.0
 33
0.0
 40
0.0
 40
0.0
 40
0.0
 40
0.0
 40
0.2
 40
0.2
 40
0.2
 40
0.2
 40
0.4
 40
0.4
 40
0.4
 40
0.4
 40
0.6
 40
0.6
 40
0.6
 40
0.6
 40
1.0
 40
1.0
 40
1.0
 40
1.0
 10
-38.4686
 20
93.8558
 30
0.0
 10
-38.7734
 20
89.6555
 30
0.0
 10
-40.8182
 20
86.9245
 30
0.0
 10
-42.4497
 20
85.3395
 30
0.0
 10
-42.4497
 20
85.3395
 30
0.0
 10
-44.5721
 20
83.3221
 30
0.0
 10
-47.5551
 20
81.8014
 30
0.0
 10
-50.7617
 20
81.6849
 30
0.0
 10
-50.7617
 20
81.6849
 30
0.0
 10
-50.6178
 20
84.6351
 30
0.0
 10
-49.2535
 20
87.4431
 30
0.0
 10
-47.4895
 20
89.462
 30
0.0
 10
-47.4895
 20
89.462
 30
0.0
 10
-45.2701
 20
91.8747
 30
0.0
 10
-42.0658
 20
93.7266
 30
0.0
 10
-38.4686
 20
93.8558
 30
0.0
  0
ELLIPSE
  5
5D
330
1F
100
AcDbEntity
  8
layer 1
 62
     7
100
AcDbEllipse
 10
-23.8838
 20
94.7582
 30
0.0
 11
0.0
 21
3.9725
 31
0.0
210
0.0
220
0.0
230
1.0
 40
1.0
 41
0.0
 42
6.283185307179586
  0
SPLINE
  5
5E
330
1F
100
AcDbEntity
  8
layer 1
 62
     7
100
AcDbSpline
210
0.0
220
0.0
230
1.0
 70
    11
 71
     3
 72
    20
 73
    16
 74
     0
 42
0.0000000001
 43
0.0000000001
 12
1.0
 22
0.0
 32
0.0
 13
1.0
 23
0.0
 33
0.0
 40
0.0
 40
0.0
 40
0.0
 40
0.0
 40
0.2
 40
0.2
 40
0.2
 40
0.2
 40
0.4
 40
0.4
 40
0.4
 40
0.4
 40
0.6
 40
0.6
 40
0.6
 40
0.6
 40
1.0
 40
1.0
 40
1.0
 40
1.0
 10
-36.961
 20
93.9094
 30
0.0
 10
-36.6562
 20
89.7091
 30
0.0
 10
-34.6114
 20
86.978
 30
0.0
 10
-32.9799
 20
85.393
 30
0.0
 10
-32.9799
 20
85.393
 30
0.0
 10
-30.8576
 20
83.3756
 30
0.0
 10
-27.8746
 20
81.8549
 30
0.0
 10
-24.6679
 20
81.7384
 30
0.0
 10
-24.6679
 20
81.7384
 30
0.0
 10
-24.8119
 20
84.6886
 30
0.0
 10
-26.1761
 20
87.4966
 30
0.0
 10
-27.9402
 20
89.5155
 30
0.0
 10
-27.9402
 20
89.5155
 30
0.0
 10
-30.1596
 20
91.9282
 30
0.0
 10
-33.3639
 20
93.7801
 30
0.0
 10
-36.961
 20
93.9094
 30
0.0
  0
SPLINE
  5
5F
330
1F
100
AcDbEntity
  8
layer 1
 62
     7
100
AcDbSpline
210
0.0
220
0.0
230
1.0
 70
    11
 71
     3
 72
    20
 73
    16
 74
     0
 42
0.0000000001
 43
0.0000000001
 12
1.0
 22
0.0
 32
0.0
 13
1.0
 23
0.0
 33
0.0
 40
0.0
 40
0.0
 40
0.0
 40
0.0
 40
0.2
 40
0.2
 40
0.2
 40
0.2
 40
0.4
 40
0.4
 40
0.4
 40
0.4
 40
0.6
 40
0.6
 40
0.6
 40
0.6
 40
1.0
 40
1.0
 40
1.0
 40
1.0
 10
-10.7628
 20
93.8558
 30
0.0
 10
-11.0676
 20
89.6555
 30
0.0
 10
-13.1124
 20
86.9245
 30
0.0
 10
-14.7439
 20
85.3395
 30
0.0
 10
-14.7439
 20
85.3395
 30
0.0
 10
-16.8662
 20
83.3221
 30
0.0
 10
-19.8492
 20
81.8014
 30
0.0
 10
-23.0559
 20
81.6849
 30
0.0
 10
-23.0559
 20
81.6849
 30
0.0
 10
-22.9119
 20
84.6351
 30
0.0
 10
-21.5476
 20
87.4431
 30
0.0
 10
-19.7836
 20
89.462
 30
0.0
 10
-19.7836
 20
89.462
 30
0.0
 10
-17.5642
 20
91.8747
 30
0.0
 10
-14.3599
 20
93.7266
 30
0.0
 10
-10.7628
 20
93.8558
 30
0.0
  0
ELLIPSE
  5
60
330
1F
100
AcDbEntity
  8
layer 1
 62
     7
100
AcDbEllipse
 10
3.7747
 20
94.7582
 30
0.0
 11
0.0
 21
3.9725
 31
0.0
210
0.0
220
0.0
230
1.0
 40
1.0
 41
0.0
 42
6.283185307179586
  0
SPLINE
  5
61
330
1F
100
AcDbEntity
  8
layer 1
 62
     7
100
AcDbSpline
210
0.0
220
0.0
230
1.0
 70
    11
 71
     3
 72
    20
 73
    16
 74
     0
 42
0.0000000001
 43
0.0000000001
 12
1.0
 22
0.0
 32
0.0
 13
1.0
 23
0.0
 33
0.0
 40
0.0
 40
0.0
 40
0.0
 40
0.0
 40
0.2
 40
0.2
 40
0.2
 40
0.2
 40
0.4
 40
0.4
 40
0.4
 40
0.4
 40
0.6
 40
0.6
 40
0.6
 40
0.6
 40
1.0
 40
1.0
 40
1.0
 40
1.0
 10
-9.3026
 20
93.9094
 30
0.0
 10
-8.9978
 20
89.7091
 30
0.0
 10
-6.953
 20
86.978
 30
0.0
 10
-5.3215
 20
85.393
 30
0.0
 10
-5.3215
 20
85.393
 30
0.0
 10
-3.1991
 20
83.3756
 30
0.0
 10
-0.2161
 20
81.8549
 30
0.0
 10
2.9905
 20
81.7384
 30
0.0
 10
2.9905
 20
81.7384
 30
0.0
 10
2.8466
 20
84.6886
 30
0.0
 10
1.4823
 20
87.4966
 30
0.0
 10
-0.2817
 20
89.5155
 30
0.0
 10
-0.2817
 20
89.5155
 30
0.0
 10
-2.5011
 20
91.9282
 30
0.0
 10
-5.7054
 20
93.7801
 30
0.0
 10
-9.3026
 20
93.9094
 30
0.0
  0
SPLINE
  5
62
330
1F
100
AcDbEntity
  8
layer 1
 62
     7
100
AcDbSpline
210
0.0
220
0.0
230
1.0
 70
    11
 71
     3
 72
    20
 73
    16
 74
     0
 42
0.0000000001
 43
0.0000000001
 12
1.0
 22
0.0
 32
0.0
 13
1.0
 23
0.0
 33
0.0
 40
0.0
 40
0.0
 40
0.0
 40
0.0
 40
0.2
 40
0.2
 40
0.2
 40
0.2
 40
0.4
 40
0.4
 40
0.4
 40
0.4
 40
0.6
 40
0.6
 40
0.6
 40
0.6
 40
1.0
 40
1.0
 40
1.0
 40
1.0
 10
16.8957
 20
93.8558
 30
0.0
 10
16.5909
 20
89.6555
 30
0.0
 10
14.5461
 20
86.9245
 30
0.0
 10
12.9146
 20
85.3395
 30
0.0
 10
12.9146
 20
85.3395
 30
0.0
 10
10.7922
 20
83.3221
 30
0.0
 10
7.8092
 20
81.8014
 30
0.0
 10
4.6026
 20
81.6849
 30
0.0
 10
4.6026
 20
81.6849
 30
0.0
 10
4.7465
 20
84.6351
 30
0.0
 10
6.1108
 20
87.4431
 30
0.0
 10
7.8748
 20
89.462
 30
0.0
 10
7.8748
 20
89.462
 30
0.0
 10
10.0942
 20
91.8747
 30
0.0
 10
13.2985
 20
93.7266
 30
0.0
 10
16.8957
 20
93.8558
 30
0.0
  0
ELLIPSE
  5
63
330
1F
100
AcDbEntity
  8
layer 1
 62
     7
100
AcDbEllipse
 10
31.4661
 20
94.7582
 30
0.0
 11
0.0
 21
3.9725
 31
0.0
210
0.0
220
0.0
230
1.0
 40
1.0
 41
0.0
 42
6.283185307179586
  0
SPLINE
  5
64
330
1F
100
AcDbEntity
  8
layer 1
 62
     7
100
AcDbSpline
210
0.0
220
0.0
230
1.0
 70
    11
 71
     3
 72
    20
 73
    16
 74
     0
 42
0.0000000001
 43
0.0000000001
 12
1.0
 22
0.0
 32
0.0
 13
1.0
 23
0.0
 33
0.0
 40
0.0
 40
0.0
 40
0.0
 40
0.0
 40
0.2
 40
0.2
 40
0.2
 40
0.2
 40
0.4
 40
0.4
 40
0.4
 40
0.4
 40
0.6
 40
0.6
 40
0.6
 40
0.6
 40
1.0
 40
1.0
 40
1.0
 40
1.0
 10
18.3889
 20
93.9094
 30
0.0
 10
18.6937
 20
89.7091
 30
0.0
 10
20.7385
 20
86.978
 30
0.0
 10
22.37
 20
85.393
 30
0.0
 10
22.37
 20
85.393
 30
0.0
 10
24.4923
 20
83.3756
 30
0.0
 10
27.4753
 20
81.8549
 30
0.0
 10
30.682
 20
81.7384
 30
0.0
 10
30.682
 20
81.7384
 30
0.0
 10
30.538
 20
84.6886
 30
0.0
 10
29.1738
 20
87.4966
 30
0.0
 10
27.4097
 20
89.5155
 30
0.0
 10
27.4097
 20
89.5155
 30
0.0
 10
25.1903
 20
91.9282
 30
0.0
 10
21.986
 20
93.7801
 30
0.0
 10
18.3889
 20
93.9094
 30
0.0
  0
SPLINE
  5
65
330
1F
100
AcDbEntity
  8
layer 1
 62
     7
100
AcDbSpline
210
0.0
220
0.0
230
1.0
 70
    11
 71
     3
 72
    20
 73
    16
 74
     0
 42
0.0000000001
 43
0.0000000001
 12
1.0
 22
0.0
 32
0.0
 13
1.0
 23
0.0
 33
0.0
 40
0.0
 40
0.0
 40
0.0
 40
0.0
 40
0.2
 40
0.2
 40
0.2
 40
0.2
 40
0.4
 40
0.4
 40
0.4
 40
0.4
 40
0.6
 40
0.6
 40
0.6
 40
0.6
 40
1.0
 40
1.0
 40
1.0
 40
1.0
 10
44.5871
 20
93.8558
 30
0.0
 10
44.2823
 20
89.6555
 30
0.0
 10
42.2375
 20
86.9245
 30
0.0
 10
40.606
 20
85.3395
 30
0.0
 10
40.606
 20
85.3395
 30
0.0
 10
38.4837
 20
83.3221
 30
0.0
 10
35.5007
 20
81.8014
 30
0.0
 10
32.294
 20
81.6849
 30
0.0
 10
32.294
 20
81.6849
 30
0.0
 10
32.438
 20
84.6351
 30
0.0
 10
33.8022
 20
87.4431
 30
0.0
 10
35.5663
 20
89.462
 30
0.0
 10
35.5663
 20
89.462
 30
0.0
 10
37.7857
 20
91.8747
 30
0.0
 10
40.99
 20
93.7266
 30
0.0
 10
44.5871
 20
93.8558
 30
0.0
  0
ELLIPSE
  5
66
330
1F
100
AcDbEntity
  8
layer 1
 62
     7
100
AcDbEllipse
 10
59.1738
 20
94.7582
 30
0.0
 11
0.0
 21
3.9725
 31
0.0
210
0.0
220
0.0
230
1.0
 40
1.0
 41
0.0
 42
6.283185307179586
  0
SPLINE
  5
67
330
1F
100
AcDbEntity
  8
layer 1
 62
     7
100
AcDbSpline
210
0.0
220
0.0
230
1.0
 70
    11
 71
     3
 72
    20
 73
    16
 74
     0
 42
0.0000000001
 43
0.0000000001
 12
1.0
 22
0.0
 32
0.0
 13
1.0
 23
0.0
 33
0.0
 40
0.0
 40
0.0
 40
0.0
 40
0.0
 40
0.2
 40
0.2
 40
0.2
 40
0.2
 40
0.4
 40
0.4
 40
0.4
 40
0.4
 40
0.6
 40
0.6
 40
0.6
 40
0.6
 40
1.0
 40
1.0
 40
1.0
 40
1.0
 10
46.0819
 20
95.6877
 30
0.0
 10
46.3866
 20
99.888
 30
0.0
 10
48.4315
 20
102.619
 30
0.0
 10
50.0629
 20
104.2041
 30
0.0
 10
50.0629
 20
104.2041
 30
0.0
 10
52.1853
 20
106.2214
 30
0.0
 10
55.1683
 20
107.7421
 30
0.0
 10
58.3749
 20
107.8586
 30
0.0
 10
58.3749
 20
107.8586
 30
0.0
 10
58.231
 20
104.9085
 30
0.0
 10
56.8667
 20
102.1004
 30
0.0
 10
55.1027
 20
100.0815
 30
0.0
 10
55.1027
 20
100.0815
 30
0.0
 10
52.8833
 20
97.6689
 30
0.0
 10
49.679
 20
95.8169
 30
0.0
 10
46.0819
 20
95.6877
 30
0.0
  0
SPLINE
  5
68
330
1F
100
AcDbEntity
  8
layer 1
 62
     7
100
AcDbSpline
210
0.0
220
0.0
230
1.0
 70
    11
 71
     3
 72
    20
 73
    16
 74
     0
 42
0.0000000001
 43
0.0000000001
 12
1.0
 22
0.0
 32
0.0
 13
1.0
 23
0.0
 33
0.0
 40
0.0
 40
0.0
 40
0.0
 40
0.0
 40
0.2
 40
0.2
 40
0.2
 40
0.2
 40
0.4
 40
0.4
 40
0.4
 40
0.4
 40
0.6
 40
0.6
 40
0.6
 40
0.6
 40
1.0
 40
1.0
 40
1.0
 40
1.0
 10
46.0966
 20
93.9094
 30
0.0
 10
46.4013
 20
89.7091
 30
0.0
 10
48.4462
 20
86.978
 30
0.0
 10
50.0776
 20
85.393
 30
0.0
 10
50.0776
 20
85.393
 30
0.0
 10
52.2
 20
83.3756
 30
0.0
 10
55.183
 20
81.8549
 30
0.0
 10
58.3896
 20
81.7384
 30
0.0
 10
58.3896
 20
81.7384
 30
0.0
 10
58.2457
 20
84.6886
 30
0.0
 10
56.8814
 20
87.4966
 30
0.0
 10
55.1174
 20
89.5155
 30
0.0
 10
55.1174
 20
89.5155
 30
0.0
 10
52.898
 20
91.9282
 30
0.0
 10
49.6937
 20
93.7801
 30
0.0
 10
46.0966
 20
93.9094
 30
0.0
  0
SPLINE
  5
69
330
1F
100
AcDbEntity
  8
layer 1
 62
     7
100
AcDbSpline
210
0.0
220
0.0
230
1.0
 70
    11
 71
     3
 72
    20
 73
    16
 74
     0
 42
0.0000000001
 43
0.0000000001
 12
1.0
 22
0.0
 32
0.0
 13
1.0
 23
0.0
 33
0.0
 40
0.0
 40
0.0
 40
0.0
 40
0.0
 40
0.2
 40
0.2
 40
0.2
 40
0.2
 40
0.4
 40
0.4
 40
0.4
 40
0.4
 40
0.6
 40
0.6
 40
0.6
 40
0.6
 40
1.0
 40
1.0
 40
1.0
 40
1.0
 10
72.2948
 20
93.8558
 30
0.0
 10
71.99
 20
89.6555
 30
0.0
 10
69.9452
 20
86.9245
 30
0.0
 10
68.3137
 20
85.3395
 30
0.0
 10
68.3137
 20
85.3395
 30
0.0
 10
66.1913
 20
83.3221
 30
0.0
 10
63.2083
 20
81.8014
 30
0.0
 10
60.0017
 20
81.6849
 30
0.0
 10
60.0017
 20
81.6849
 30
0.0
 10
60.1456
 20
84.6351
 30
0.0
 10
61.5099
 20
87.4431
 30
0.0
 10
63.2739
 20
89.462
 30
0.0
 10
63.2739
 20
89.462
 30
0.0
 10
65.4933
 20
91.8747
 30
0.0
 10
68.6976
 20
93.7266
 30
0.0
 10
72.2948
 20
93.8558
 30
0.0
  0
SPLINE
  5
6A
330
1F
100
AcDbEntity
  8
layer 1
 62
     7
100
AcDbSpline
210
0.0
220
0.0
230
1.0
 70
    11
 71
     3
 72
    20
 73
    16
 74
     0
 42
0.0000000001
 43
0.0000000001
 12
1.0
 22
0.0
 32
0.0
 13
1.0
 23
0.0
 33
0.0
 40
0.0
 40
0.0
 40
0.0
 40
0.0
 40
0.2
 40
0.2
 40
0.2
 40
0.2
 40
0.4
 40
0.4
 40
0.4
 40
0.4
 40
0.6
 40
0.6
 40
0.6
 40
0.6
 40
1.0
 40
1.0
 40
1.0
 40
1.0
 10
-64.5261
 20
93.9094
 30
0.0
 10
-64.2213
 20
89.7091
 30
0.0
 10
-62.1765
 20
86.978
 30
0.0
 10
-60.545
 20
85.393
 30
0.0
 10
-60.545
 20
85.393
 30
0.0
 10
-58.4227
 20
83.3756
 30
0.0
 10
-55.4397
 20
81.8549
 30
0.0
 10
-52.233
 20
81.7384
 30
0.0
 10
-52.233
 20
81.7384
 30
0.0
 10
-52.377
 20
84.6886
 30
0.0
 10
-53.7413
 20
87.4966
 30
0.0
 10
-55.5053
 20
89.5155
 30
0.0
 10
-55.5053
 20
89.5155
 30
0.0
 10
-57.7247
 20
91.9282
 30
0.0
 10
-60.929
 20
93.7801
 30
0.0
 10
-64.5261
 20
93.9094
 30
0.0
  0
ELLIPSE
  5
6B
330
1F
100
AcDbEntity
  8
layer 1
 62
     7
100
AcDbEllipse
 10
-37.7174
 20
108.7188
 30
0.0
 11
0.0
 21
3.9725
 31
0.0
210
0.0
220
0.0
230
1.0
 40
1.0
 41
0.0
 42
6.283185307179586
  0
ELLIPSE
  5
6C
330
1F
100
AcDbEntity
  8
layer 1
 62
     7
100
AcDbEllipse
 10
-51.4691
 20
66.8172
 30
0.0
 11
0.0
 21
3.9725
 31
0.0
210
0.0
220
0.0
230
1.0
 40
1.0
 41
0.0
 42
6.283185307179586
  0
SPLINE
  5
6D
330
1F
100
AcDbEntity
  8
layer 1
 62
     7
100
AcDbSpline
210
0.0
220
0.0
230
1.0
 70
    11
 71
     3
 72
    16
 73
    12
 74
     0
 42
0.0000000001
 43
0.0000000001
 12
1.0
 22
0.0
 32
0.0
 13
1.0
 23
0.0
 33
0.0
 40
0.0
 40
0.0
 40
0.0
 40
0.0
 40
0.25
 40
0.25
 40
0.25
 40
0.25
 40
0.5
 40
0.5
 40
0.5
 40
0.5
 40
1.0
 40
1.0
 40
1.0
 40
1.0
 10
-65.4209
 20
84.6925
 30
0.0
 10
-63.2271
 20
84.6925
 30
0.0
 10
-61.4483
 20
82.9136
 30
0.0
 10
-61.4483
 20
80.72
 30
0.0
 10
-61.4483
 20
80.72
 30
0.0
 10
-61.4483
 20
78.5262
 30
0.0
 10
-63.2271
 20
76.7474
 30
0.0
 10
-65.4209
 20
76.7474
 30
0.0
 10
-65.4209
 20
76.7474
 30
0.0
 10
-65.4209
 20
76.7474
 30
0.0
 10
-65.4209
 20
84.6925
 30
0.0
 10
-65.4209
 20
84.6925
 30
0.0
  0
SPLINE
  5
6E
330
1F
100
AcDbEntity
  8
layer 1
 62
     7
100
AcDbSpline
210
0.0
220
0.0
230
1.0
 70
    11
 71
     3
 72
    20
 73
    16
 74
     0
 42
0.0000000001
 43
0.0000000001
 12
1.0
 22
0.0
 32
0.0
 13
1.0
 23
0.0
 33
0.0
 40
0.0
 40
0.0
 40
0.0
 40
0.0
 40
0.2
 40
0.2
 40
0.2
 40
0.2
 40
0.4
 40
0.4
 40
0.4
 40
0.4
 40
0.6
 40
0.6
 40
0.6
 40
0.6
 40
1.0
 40
1.0
 40
1.0
 40
1.0
 10
-52.2999
 20
79.8176
 30
0.0
 10
-52.6047
 20
75.6173
 30
0.0
 10
-54.6495
 20
72.8862
 30
0.0
 10
-56.281
 20
71.3012
 30
0.0
 10
-56.281
 20
71.3012
 30
0.0
 10
-58.4033
 20
69.2838
 30
0.0
 10
-61.3863
 20
67.7631
 30
0.0
 10
-64.5929
 20
67.6467
 30
0.0
 10
-64.5929
 20
67.6467
 30
0.0
 10
-64.449
 20
70.5968
 30
0.0
 10
-63.0847
 20
73.4048
 30
0.0
 10
-61.3207
 20
75.4237
 30
0.0
 10
-61.3207
 20
75.4237
 30
0.0
 10
-59.1013
 20
77.8364
 30
0.0
 10
-55.897
 20
79.6884
 30
0.0
 10
-52.2999
 20
79.8176
 30
0.0
  0
SPLINE
  5
6F
330
1F
100
AcDbEntity
  8
layer 1
 62
     7
100
AcDbSpline
210
0.0
220
0.0
230
1.0
 70
    11
 71
     3
 72
    20
 73
    16
 74
     0
 42
0.0000000001
 43
0.0000000001
 12
1.0
 22
0.0
 32
0.0
 13
1.0
 23
0.0
 33
0.0
 40
0.0
 40
0.0
 40
0.0
 40
0.0
 40
0.2
 40
0.2
 40
0.2
 40
0.2
 40
0.4
 40
0.4
 40
0.4
 40
0.4
 40
0.6
 40
0.6
 40
0.6
 40
0.6
 40
1.0
 40
1.0
 40
1.0
 40
1.0
 10
-50.7922
 20
79.8711
 30
0.0
 10
-50.4874
 20
75.6708
 30
0.0
 10
-48.4426
 20
72.9398
 30
0.0
 10
-46.8111
 20
71.3547
 30
0.0
 10
-46.8111
 20
71.3547
 30
0.0
 10
-44.6888
 20
69.3374
 30
0.0
 10
-41.7058
 20
67.8167
 30
0.0
 10
-38.4992
 20
67.7002
 30
0.0
 10
-38.4992
 20
67.7002
 30
0.0
 10
-38.6431
 20
70.6503
 30
0.0
 10
-40.0074
 20
73.4583
 30
0.0
 10
-41.7714
 20
75.4772
 30
0.0
 10
-41.7714
 20
75.4772
 30
0.0
 10
-43.9908
 20
77.8899
 30
0.0
 10
-47.1951
 20
79.7419
 30
0.0
 10
-50.7922
 20
79.8711
 30
0.0
  0
SPLINE
  5
70
330
1F
100
AcDbEntity
  8
layer 1
 62
     7
100
AcDbSpline
210
0.0
220
0.0
230
1.0
 70
    11
 71
     3
 72
    20
 73
    16
 74
     0
 42
0.0000000001
 43
0.0000000001
 12
1.0
 22
0.0
 32
0.0
 13
1.0
 23
0.0
 33
0.0
 40
0.0
 40
0.0
 40
0.0
 40
0.0
 40
0.2
 40
0.2
 40
0.2
 40
0.2
 40
0.4
 40
0.4
 40
0.4
 40
0.4
 40
0.6
 40
0.6
 40
0.6
 40
0.6
 40
1.0
 40
1.0
 40
1.0
 40
1.0
 10
-24.594
 20
79.8176
 30
0.0
 10
-24.8988
 20
75.6173
 30
0.0
 10
-26.9436
 20
72.8862
 30
0.0
 10
-28.5751
 20
71.3012
 30
0.0
 10
-28.5751
 20
71.3012
 30
0.0
 10
-30.6974
 20
69.2838
 30
0.0
 10
-33.6804
 20
67.7631
 30
0.0
 10
-36.8871
 20
67.6467
 30
0.0
 10
-36.8871
 20
67.6467
 30
0.0
 10
-36.7432
 20
70.5968
 30
0.0
 10
-35.3789
 20
73.4048
 30
0.0
 10
-33.6148
 20
75.4237
 30
0.0
 10
-33.6148
 20
75.4237
 30
0.0
 10
-31.3954
 20
77.8364
 30
0.0
 10
-28.1911
 20
79.6884
 30
0.0
 10
-24.594
 20
79.8176
 30
0.0
  0
SPLINE
  5
71
330
1F
100
AcDbEntity
  8
layer 1
 62
     7
100
AcDbSpline
210
0.0
220
0.0
230
1.0
 70
    11
 71
     3
 72
    16
 73
    12
 74
     0
 42
0.0000000001
 43
0.0000000001
 12
1.0
 22
0.0
 32
0.0
 13
1.0
 23
0.0
 33
0.0
 40
0.0
 40
0.0
 40
0.0
 40
0.0
 40
0.25
 40
0.25
 40
0.25
 40
0.25
 40
0.5
 40
0.5
 40
0.5
 40
0.5
 40
1.0
 40
1.0
 40
1.0
 40
1.0
 10
73.0807
 20
84.6925
 30
0.0
 10
73.0807
 20
84.6925
 30
0.0
 10
73.0807
 20
76.7474
 30
0.0
 10
73.0807
 20
76.7474
 30
0.0
 10
73.0807
 20
76.7474
 30
0.0
 10
70.8871
 20
76.7474
 30
0.0
 10
69.1082
 20
78.5264
 30
0.0
 10
69.1082
 20
80.72
 30
0.0
 10
69.1082
 20
80.72
 30
0.0
 10
69.1082
 20
82.9136
 30
0.0
 10
70.8871
 20
84.6925
 30
0.0
 10
73.0807
 20
84.6925
 30
0.0
  0
ELLIPSE
  5
72
330
1F
100
AcDbEntity
  8
layer 1
 62
     7
100
AcDbEllipse
 10
-10.0566
 20
80.72
 30
0.0
 11
0.0
 21
3.9725
 31
0.0
210
0.0
220
0.0
230
1.0
 40
1.0
 41
0.0
 42
6.283185307179586
  0
SPLINE
  5
73
330
1F
100
AcDbEntity
  8
layer 1
 62
     7
100
AcDbSpline
210
0.0
220
0.0
230
1.0
 70
    11
 71
     3
 72
    20
 73
    16
 74
     0
 42
0.0000000001
 43
0.0000000001
 12
1.0
 22
0.0
 32
0.0
 13
1.0
 23
0.0
 33
0.0
 40
0.0
 40
0.0
 40
0.0
 40
0.0
 40
0.2
 40
0.2
 40
0.2
 40
0.2
 40
0.4
 40
0.4
 40
0.4
 40
0.4
 40
0.6
 40
0.6
 40
0.6
 40
0.6
 40
1.0
 40
1.0
 40
1.0
 40
1.0
 10
-23.1338
 20
79.8711
 30
0.0
 10
-22.829
 20
75.6708
 30
0.0
 10
-20.7842
 20
72.9398
 30
0.0
 10
-19.1527
 20
71.3547
 30
0.0
 10
-19.1527
 20
71.3547
 30
0.0
 10
-17.0304
 20
69.3374
 30
0.0
 10
-14.0474
 20
67.8167
 30
0.0
 10
-10.8407
 20
67.7002
 30
0.0
 10
-10.8407
 20
67.7002
 30
0.0
 10
-10.9846
 20
70.6503
 30
0.0
 10
-12.3489
 20
73.4583
 30
0.0
 10
-14.113
 20
75.4772
 30
0.0
 10
-14.113
 20
75.4772
 30
0.0
 10
-16.3324
 20
77.8899
 30
0.0
 10
-19.5367
 20
79.7419
 30
0.0
 10
-23.1338
 20
79.8711
 30
0.0
  0
SPLINE
  5
74
330
1F
100
AcDbEntity
  8
layer 1
 62
     7
100
AcDbSpline
210
0.0
220
0.0
230
1.0
 70
    11
 71
     3
 72
    20
 73
    16
 74
     0
 42
0.0000000001
 43
0.0000000001
 12
1.0
 22
0.0
 32
0.0
 13
1.0
 23
0.0
 33
0.0
 40
0.0
 40
0.0
 40
0.0
 40
0.0
 40
0.2
 40
0.2
 40
0.2
 40
0.2
 40
0.4
 40
0.4
 40
0.4
 40
0.4
 40
0.6
 40
0.6
 40
0.6
 40
0.6
 40
1.0
 40
1.0
 40
1.0
 40
1.0
 10
3.0644
 20
79.8176
 30
0.0
 10
2.7596
 20
75.6173
 30
0.0
 10
0.7148
 20
72.8862
 30
0.0
 10
-0.9167
 20
71.3012
 30
0.0
 10
-0.9167
 20
71.3012
 30
0.0
 10
-3.039
 20
69.2838
 30
0.0
 10
-6.022
 20
67.7631
 30
0.0
 10
-9.2286
 20
67.6467
 30
0.0
 10
-9.2286
 20
67.6467
 30
0.0
 10
-9.0847
 20
70.5968
 30
0.0
 10
-7.7204
 20
73.4048
 30
0.0
 10
-5.9564
 20
75.4237
 30
0.0
 10
-5.9564
 20
75.4237
 30
0.0
 10
-3.737
 20
77.8364
 30
0.0
 10
-0.5327
 20
79.6884
 30
0.0
 10
3.0644
 20
79.8176
 30
0.0
  0
ELLIPSE
  5
75
330
1F
100
AcDbEntity
  8
layer 1
 62
     7
100
AcDbEllipse
 10
17.6349
 20
80.72
 30
0.0
 11
0.0
 21
3.9725
 31
0.0
210
0.0
220
0.0
230
1.0
 40
1.0
 41
0.0
 42
6.283185307179586
  0
SPLINE
  5
76
330
1F
100
AcDbEntity
  8
layer 1
 62
     7
100
AcDbSpline
210
0.0
220
0.0
230
1.0
 70
    11
 71
     3
 72
    20
 73
    16
 74
     0
 42
0.0000000001
 43
0.0000000001
 12
1.0
 22
0.0
 32
0.0
 13
1.0
 23
0.0
 33
0.0
 40
0.0
 40
0.0
 40
0.0
 40
0.0
 40
0.2
 40
0.2
 40
0.2
 40
0.2
 40
0.4
 40
0.4
 40
0.4
 40
0.4
 40
0.6
 40
0.6
 40
0.6
 40
0.6
 40
1.0
 40
1.0
 40
1.0
 40
1.0
 10
4.5577
 20
79.8711
 30
0.0
 10
4.8624
 20
75.6708
 30
0.0
 10
6.9073
 20
72.9398
 30
0.0
 10
8.5387
 20
71.3547
 30
0.0
 10
8.5387
 20
71.3547
 30
0.0
 10
10.6611
 20
69.3374
 30
0.0
 10
13.6441
 20
67.8167
 30
0.0
 10
16.8507
 20
67.7002
 30
0.0
 10
16.8507
 20
67.7002
 30
0.0
 10
16.7068
 20
70.6503
 30
0.0
 10
15.3425
 20
73.4583
 30
0.0
 10
13.5785
 20
75.4772
 30
0.0
 10
13.5785
 20
75.4772
 30
0.0
 10
11.3591
 20
77.8899
 30
0.0
 10
8.1548
 20
79.7419
 30
0.0
 10
4.5577
 20
79.8711
 30
0.0
  0
SPLINE
  5
77
330
1F
100
AcDbEntity
  8
layer 1
 62
     7
100
AcDbSpline
210
0.0
220
0.0
230
1.0
 70
    11
 71
     3
 72
    20
 73
    16
 74
     0
 42
0.0000000001
 43
0.0000000001
 12
1.0
 22
0.0
 32
0.0
 13
1.0
 23
0.0
 33
0.0
 40
0.0
 40
0.0
 40
0.0
 40
0.0
 40
0.2
 40
0.2
 40
0.2
 40
0.2
 40
0.4
 40
0.4
 40
0.4
 40
0.4
 40
0.6
 40
0.6
 40
0.6
 40
0.6
 40
1.0
 40
1.0
 40
1.0
 40
1.0
 10
30.7559
 20
79.8176
 30
0.0
 10
30.4511
 20
75.6173
 30
0.0
 10
28.4063
 20
72.8862
 30
0.0
 10
26.7748
 20
71.3012
 30
0.0
 10
26.7748
 20
71.3012
 30
0.0
 10
24.6525
 20
69.2838
 30
0.0
 10
21.6695
 20
67.7631
 30
0.0
 10
18.4628
 20
67.6467
 30
0.0
 10
18.4628
 20
67.6467
 30
0.0
 10
18.6067
 20
70.5968
 30
0.0
 10
19.971
 20
73.4048
 30
0.0
 10
21.735
 20
75.4237
 30
0.0
 10
21.735
 20
75.4237
 30
0.0
 10
23.9544
 20
77.8364
 30
0.0
 10
27.1587
 20
79.6884
 30
0.0
 10
30.7559
 20
79.8176
 30
0.0
  0
ELLIPSE
  5
78
330
1F
100
AcDbEntity
  8
layer 1
 62
     7
100
AcDbEllipse
 10
45.3425
 20
80.72
 30
0.0
 11
0.0
 21
3.9725
 31
0.0
210
0.0
220
0.0
230
1.0
 40
1.0
 41
0.0
 42
6.283185307179586
  0
SPLINE
  5
79
330
1F
100
AcDbEntity
  8
layer 1
 62
     7
100
AcDbSpline
210
0.0
220
0.0
230
1.0
 70
    11
 71
     3
 72
    20
 73
    16
 74
     0
 42
0.0000000001
 43
0.0000000001
 12
1.0
 22
0.0
 32
0.0
 13
1.0
 23
0.0
 33
0.0
 40
0.0
 40
0.0
 40
0.0
 40
0.0
 40
0.2
 40
0.2
 40
0.2
 40
0.2
 40
0.4
 40
0.4
 40
0.4
 40
0.4
 40
0.6
 40
0.6
 40
0.6
 40
0.6
 40
1.0
 40
1.0
 40
1.0
 40
1.0
 10
32.2653
 20
79.8711
 30
0.0
 10
32.5701
 20
75.6708
 30
0.0
 10
34.6149
 20
72.9398
 30
0.0
 10
36.2464
 20
71.3547
 30
0.0
 10
36.2464
 20
71.3547
 30
0.0
 10
38.3687
 20
69.3374
 30
0.0
 10
41.3517
 20
67.8167
 30
0.0
 10
44.5584
 20
67.7002
 30
0.0
 10
44.5584
 20
67.7002
 30
0.0
 10
44.4145
 20
70.6503
 30
0.0
 10
43.0502
 20
73.4583
 30
0.0
 10
41.2861
 20
75.4772
 30
0.0
 10
41.2861
 20
75.4772
 30
0.0
 10
39.0667
 20
77.8899
 30
0.0
 10
35.8624
 20
79.7419
 30
0.0
 10
32.2653
 20
79.8711
 30
0.0
  0
SPLINE
  5
7A
330
1F
100
AcDbEntity
  8
layer 1
 62
     7
100
AcDbSpline
210
0.0
220
0.0
230
1.0
 70
    11
 71
     3
 72
    20
 73
    16
 74
     0
 42
0.0000000001
 43
0.0000000001
 12
1.0
 22
0.0
 32
0.0
 13
1.0
 23
0.0
 33
0.0
 40
0.0
 40
0.0
 40
0.0
 40
0.0
 40
0.2
 40
0.2
 40
0.2
 40
0.2
 40
0.4
 40
0.4
 40
0.4
 40
0.4
 40
0.6
 40
0.6
 40
0.6
 40
0.6
 40
1.0
 40
1.0
 40
1.0
 40
1.0
 10
60.0035
 20
79.8711
 30
0.0
 10
60.3083
 20
75.6708
 30
0.0
 10
62.3531
 20
72.9398
 30
0.0
 10
63.9846
 20
71.3547
 30
0.0
 10
63.9846
 20
71.3547
 30
0.0
 10
66.1069
 20
69.3374
 30
0.0
 10
69.0899
 20
67.8167
 30
0.0
 10
72.2966
 20
67.7002
 30
0.0
 10
72.2966
 20
67.7002
 30
0.0
 10
72.1526
 20
70.6503
 30
0.0
 10
70.7884
 20
73.4583
 30
0.0
 10
69.0243
 20
75.4772
 30
0.0
 10
69.0243
 20
75.4772
 30
0.0
 10
66.8049
 20
77.8899
 30
0.0
 10
63.6006
 20
79.7419
 30
0.0
 10
60.0035
 20
79.8711
 30
0.0
  0
SPLINE
  5
7B
330
1F
100
AcDbEntity
  8
layer 1
 62
     7
100
AcDbSpline
210
0.0
220
0.0
230
1.0
 70
    11
 71
     3
 72
    20
 73
    16
 74
     0
 42
0.0000000001
 43
0.0000000001
 12
1.0
 22
0.0
 32
0.0
 13
1.0
 23
0.0
 33
0.0
 40
0.0
 40
0.0
 40
0.0
 40
0.0
 40
0.2
 40
0.2
 40
0.2
 40
0.2
 40
0.4
 40
0.4
 40
0.4
 40
0.4
 40
0.6
 40
0.6
 40
0.6
 40
0.6
 40
1.0
 40
1.0
 40
1.0
 40
1.0
 10
-38.4686
 20
65.857
 30
0.0
 10
-38.7734
 20
61.6567
 30
0.0
 10
-40.8182
 20
58.9256
 30
0.0
 10
-42.4497
 20
57.3406
 30
0.0
 10
-42.4497
 20
57.3406
 30
0.0
 10
-44.5721
 20
55.3232
 30
0.0
 10
-47.5551
 20
53.8025
 30
0.0
 10
-50.7617
 20
53.6861
 30
0.0
 10
-50.7617
 20
53.6861
 30
0.0
 10
-50.6178
 20
56.6362
 30
0.0
 10
-49.2535
 20
59.4442
 30
0.0
 10
-47.4895
 20
61.4631
 30
0.0
 10
-47.4895
 20
61.4631
 30
0.0
 10
-45.2701
 20
63.8758
 30
0.0
 10
-42.0658
 20
65.7278
 30
0.0
 10
-38.4686
 20
65.857
 30
0.0
  0
ELLIPSE
  5
7C
330
1F
100
AcDbEntity
  8
layer 1
 62
     7
100
AcDbEllipse
 10
-23.8838
 20
66.7594
 30
0.0
 11
0.0
 21
3.9725
 31
0.0
210
0.0
220
0.0
230
1.0
 40
1.0
 41
0.0
 42
6.283185307179586
  0
SPLINE
  5
7D
330
1F
100
AcDbEntity
  8
layer 1
 62
     7
100
AcDbSpline
210
0.0
220
0.0
230
1.0
 70
    11
 71
     3
 72
    20
 73
    16
 74
     0
 42
0.0000000001
 43
0.0000000001
 12
1.0
 22
0.0
 32
0.0
 13
1.0
 23
0.0
 33
0.0
 40
0.0
 40
0.0
 40
0.0
 40
0.0
 40
0.2
 40
0.2
 40
0.2
 40
0.2
 40
0.4
 40
0.4
 40
0.4
 40
0.4
 40
0.6
 40
0.6
 40
0.6
 40
0.6
 40
1.0
 40
1.0
 40
1.0
 40
1.0
 10
-36.961
 20
65.9105
 30
0.0
 10
-36.6562
 20
61.7102
 30
0.0
 10
-34.6114
 20
58.9792
 30
0.0
 10
-32.9799
 20
57.3941
 30
0.0
 10
-32.9799
 20
57.3941
 30
0.0
 10
-30.8576
 20
55.3768
 30
0.0
 10
-27.8746
 20
53.8561
 30
0.0
 10
-24.6679
 20
53.7396
 30
0.0
 10
-24.6679
 20
53.7396
 30
0.0
 10
-24.8119
 20
56.6897
 30
0.0
 10
-26.1761
 20
59.4977
 30
0.0
 10
-27.9402
 20
61.5166
 30
0.0
 10
-27.9402
 20
61.5166
 30
0.0
 10
-30.1596
 20
63.9293
 30
0.0
 10
-33.3639
 20
65.7813
 30
0.0
 10
-36.961
 20
65.9105
 30
0.0
  0
SPLINE
  5
7E
330
1F
100
AcDbEntity
  8
layer 1
 62
     7
100
AcDbSpline
210
0.0
220
0.0
230
1.0
 70
    11
 71
     3
 72
    20
 73
    16
 74
     0
 42
0.0000000001
 43
0.0000000001
 12
1.0
 22
0.0
 32
0.0
 13
1.0
 23
0.0
 33
0.0
 40
0.0
 40
0.0
 40
0.0
 40
0.0
 40
0.2
 40
0.2
 40
0.2
 40
0.2
 40
0.4
 40
0.4
 40
0.4
 40
0.4
 40
0.6
 40
0.6
 40
0.6
 40
0.6
 40
1.0
 40
1.0
 40
1.0
 40
1.0
 10
-10.7628
 20
65.857
 30
0.0
 10
-11.0676
 20
61.6567
 30
0.0
 10
-13.1124
 20
58.9256
 30
0.0
 10
-14.7439
 20
57.3406
 30
0.0
 10
-14.7439
 20
57.3406
 30
0.0
 10
-16.8662
 20
55.3232
 30
0.0
 10
-19.8492
 20
53.8025
 30
0.0
 10
-23.0559
 20
53.6861
 30
0.0
 10
-23.0559
 20
53.6861
 30
0.0
 10
-22.9119
 20
56.6362
 30
0.0
 10
-21.5476
 20
59.4442
 30
0.0
 10
-19.7836
 20
61.4631
 30
0.0
 10
-19.7836
 20
61.4631
 30
0.0
 10
-17.5642
 20
63.8758
 30
0.0
 10
-14.3599
 20
65.7278
 30
0.0
 10
-10.7628
 20
65.857
 30
0.0
  0
ELLIPSE
  5
7F
330
1F
100
AcDbEntity
  8
layer 1
 62
     7
100
AcDbEllipse
 10
3.7747
 20
66.7594
 30
0.0
 11
0.0
 21
3.9725
 31
0.0
210
0.0
220
0.0
230
1.0
 40
1.0
 41
0.0
 42
6.283185307179586
  0
SPLINE
  5
80
330
1F
100
AcDbEntity
  8
layer 1
 62
     7
100
AcDbSpline
210
0.0
220
0.0
230
1.0
 70
    11
 71
     3
 72
    20
 73
    16
 74
     0
 42
0.0000000001
 43
0.0000000001
 12
1.0
 22
0.0
 32
0.0
 13
1.0
 23
0.0
 33
0.0
 40
0.0
 40
0.0
 40
0.0
 40
0.0
 40
0.2
 40
0.2
 40
0.2
 40
0.2
 40
0.4
 40
0.4
 40
0.4
 40
0.4
 40
0.6
 40
0.6
 40
0.6
 40
0.6
 40
1.0
 40
1.0
 40
1.0
 40
1.0
 10
-9.3026
 20
65.9105
 30
0.0
 10
-8.9978
 20
61.7102
 30
0.0
 10
-6.953
 20
58.9792
 30
0.0
 10
-5.3215
 20
57.3941
 30
0.0
 10
-5.3215
 20
57.3941
 30
0.0
 10
-3.1991
 20
55.3768
 30
0.0
 10
-0.2161
 20
53.8561
 30
0.0
 10
2.9905
 20
53.7396
 30
0.0
 10
2.9905
 20
53.7396
 30
0.0
 10
2.8466
 20
56.6897
 30
0.0
 10
1.4823
 20
59.4977
 30
0.0
 10
-0.2817
 20
61.5166
 30
0.0
 10
-0.2817
 20
61.5166
 30
0.0
 10
-2.5011
 20
63.9293
 30
0.0
 10
-5.7054
 20
65.7813
 30
0.0
 10
-9.3026
 20
65.9105
 30
0.0
  0
SPLINE
  5
81
330
1F
100
AcDbEntity
  8
layer 1
 62
     7
100
AcDbSpline
210
0.0
220
0.0
230
1.0
 70
    11
 71
     3
 72
    20
 73
    16
 74
     0
 42
0.0000000001
 43
0.0000000001
 12
1.0
 22
0.0
 32
0.0
 13
1.0
 23
0.0
 33
0.0
 40
0.0
 40
0.0
 40
0.0
 40
0.0
 40
0.2
 40
0.2
 40
0.2
 40
0.2
 40
0.4
 40
0.4
 40
0.4
 40
0.4
 40
0.6
 40
0.6
 40
0.6
 40
0.6
 40
1.0
 40
1.0
 40
1.0
 40
1.0
 10
16.8957
 20
65.857
 30
0.0
 10
16.5909
 20
61.6567
 30
0.0
 10
14.5461
 20
58.9256
 30
0.0
 10
12.9146
 20
57.3406
 30
0.0
 10
12.9146
 20
57.3406
 30
0.0
 10
10.7922
 20
55.3232
 30
0.0
 10
7.8092
 20
53.8025
 30
0.0
 10
4.6026
 20
53.6861
 30
0.0
 10
4.6026
 20
53.6861
 30
0.0
 10
4.7465
 20
56.6362
 30
0.0
 10
6.1108
 20
59.4442
 30
0.0
 10
7.8748
 20
61.4631
 30
0.0
 10
7.8748
 20
61.4631
 30
0.0
 10
10.0942
 20
63.8758
 30
0.0
 10
13.2985
 20
65.7278
 30
0.0
 10
16.8957
 20
65.857
 30
0.0
  0
ELLIPSE
  5
82
330
1F
100
AcDbEntity
  8
layer 1
 62
     7
100
AcDbEllipse
 10
31.4661
 20
66.7594
 30
0.0
 11
0.0
 21
3.9725
 31
0.0
210
0.0
220
0.0
230
1.0
 40
1.0
 41
0.0
 42
6.283185307179586
  0
SPLINE
  5
83
330
1F
100
AcDbEntity
  8
layer 1
 62
     7
100
AcDbSpline
210
0.0
220
0.0
230
1.0
 70
    11
 71
     3
 72
    20
 73
    16
 74
     0
 42
0.0000000001
 43
0.0000000001
 12
1.0
 22
0.0
 32
0.0
 13
1.0
 23
0.0
 33
0.0
 40
0.0
 40
0.0
 40
0.0
 40
0.0
 40
0.2
 40
0.2
 40
0.2
 40
0.2
 40
0.4
 40
0.4
 40
0.4
 40
0.4
 40
0.6
 40
0.6
 40
0.6
 40
0.6
 40
1.0
 40
1.0
 40
1.0
 40
1.0
 10
18.3889
 20
65.9105
 30
0.0
 10
18.6937
 20
61.7102
 30
0.0
 10
20.7385
 20
58.9792
 30
0.0
 10
22.37
 20
57.3941
 30
0.0
 10
22.37
 20
57.3941
 30
0.0
 10
24.4923
 20
55.3768
 30
0.0
 10
27.4753
 20
53.8561
 30
0.0
 10
30.682
 20
53.7396
 30
0.0
 10
30.682
 20
53.7396
 30
0.0
 10
30.538
 20
56.6897
 30
0.0
 10
29.1738
 20
59.4977
 30
0.0
 10
27.4097
 20
61.5166
 30
0.0
 10
27.4097
 20
61.5166
 30
0.0
 10
25.1903
 20
63.9293
 30
0.0
 10
21.986
 20
65.7813
 30
0.0
 10
18.3889
 20
65.9105
 30
0.0
  0
SPLINE
  5
84
330
1F
100
AcDbEntity
  8
layer 1
 62
     7
100
AcDbSpline
210
0.0
220
0.0
230
1.0
 70
    11
 71
     3
 72
    20
 73
    16
 74
     0
 42
0.0000000001
 43
0.0000000001
 12
1.0
 22
0.0
 32
0.0
 13
1.0
 23
0.0
 33
0.0
 40
0.0
 40
0.0
 40
0.0
 40
0.0
 40
0.2
 40
0.2
 40
0.2
 40
0.2
 40
0.4
 40
0.4
 40
0.4
 40
0.4
 40
0.6
 40
0.6
 40
0.6
 40
0.6
 40
1.0
 40
1.0
 40
1.0
 40
1.0
 10
44.5871
 20
65.857
 30
0.0
 10
44.2823
 20
61.6567
 30
0.0
 10
42.2375
 20
58.9256
 30
0.0
 10
40.606
 20
57.3406
 30
0.0
 10
40.606
 20
57.3406
 30
0.0
 10
38.4837
 20
55.3232
 30
0.0
 10
35.5007
 20
53.8025
 30
0.0
 10
32.294
 20
53.6861
 30
0.0
 10
32.294
 20
53.6861
 30
0.0
 10
32.438
 20
56.6362
 30
0.0
 10
33.8022
 20
59.4442
 30
0.0
 10
35.5663
 20
61.4631
 30
0.0
 10
35.5663
 20
61.4631
 30
0.0
 10
37.7857
 20
63.8758
 30
0.0
 10
40.99
 20
65.7278
 30
0.0
 10
44.5871
 20
65.857
 30
0.0
  0
ELLIPSE
  5
85
330
1F
100
AcDbEntity
  8
layer 1
 62
     7
100
AcDbEllipse
 10
59.1738
 20
66.7594
 30
0.0
 11
0.0
 21
3.9725
 31
0.0
210
0.0
220
0.0
230
1.0
 40
1.0
 41
0.0
 42
6.283185307179586
  0
SPLINE
  5
86
330
1F
100
AcDbEntity
  8
layer 1
 62
     7
100
AcDbSpline
210
0.0
220
0.0
230
1.0
 70
    11
 71
     3
 72
    20
 73
    16
 74
     0
 42
0.0000000001
 43
0.0000000001
 12
1.0
 22
0.0
 32
0.0
 13
1.0
 23
0.0
 33
0.0
 40
0.0
 40
0.0
 40
0.0
 40
0.0
 40
0.2
 40
0.2
 40
0.2
 40
0.2
 40
0.4
 40
0.4
 40
0.4
 40
0.4
 40
0.6
 40
0.6
 40
0.6
 40
0.6
 40
1.0
 40
1.0
 40
1.0
 40
1.0
 10
46.0819
 20
67.6888
 30
0.0
 10
46.3866
 20
71.8891
 30
0.0
 10
48.4315
 20
74.6202
 30
0.0
 10
50.0629
 20
76.2052
 30
0.0
 10
50.0629
 20
76.2052
 30
0.0
 10
52.1853
 20
78.2226
 30
0.0
 10
55.1683
 20
79.7433
 30
0.0
 10
58.3749
 20
79.8597
 30
0.0
 10
58.3749
 20
79.8597
 30
0.0
 10
58.231
 20
76.9096
 30
0.0
 10
56.8667
 20
74.1016
 30
0.0
 10
55.1027
 20
72.0827
 30
0.0
 10
55.1027
 20
72.0827
 30
0.0
 10
52.8833
 20
69.67
 30
0.0
 10
49.679
 20
67.8181
 30
0.0
 10
46.0819
 20
67.6888
 30
0.0
  0
SPLINE
  5
87
330
1F
100
AcDbEntity
  8
layer 1
 62
     7
100
AcDbSpline
210
0.0
220
0.0
230
1.0
 70
    11
 71
     3
 72
    20
 73
    16
 74
     0
 42
0.0000000001
 43
0.0000000001
 12
1.0
 22
0.0
 32
0.0
 13
1.0
 23
0.0
 33
0.0
 40
0.0
 40
0.0
 40
0.0
 40
0.0
 40
0.2
 40
0.2
 40
0.2
 40
0.2
 40
0.4
 40
0.4
 40
0.4
 40
0.4
 40
0.6
 40
0.6
 40
0.6
 40
0.6
 40
1.0
 40
1.0
 40
1.0
 40
1.0
 10
46.0966
 20
65.9105
 30
0.0
 10
46.4013
 20
61.7102
 30
0.0
 10
48.4462
 20
58.9792
 30
0.0
 10
50.0776
 20
57.3941
 30
0.0
 10
50.0776
 20
57.3941
 30
0.0
 10
52.2
 20
55.3768
 30
0.0
 10
55.183
 20
53.8561
 30
0.0
 10
58.3896
 20
53.7396
 30
0.0
 10
58.3896
 20
53.7396
 30
0.0
 10
58.2457
 20
56.6897
 30
0.0
 10
56.8814
 20
59.4977
 30
0.0
 10
55.1174
 20
61.5166
 30
0.0
 10
55.1174
 20
61.5166
 30
0.0
 10
52.898
 20
63.9293
 30
0.0
 10
49.6937
 20
65.7813
 30
0.0
 10
46.0966
 20
65.9105
 30
0.0
  0
SPLINE
  5
88
330
1F
100
AcDbEntity
  8
layer 1
 62
     7
100
AcDbSpline
210
0.0
220
0.0
230
1.0
 70
    11
 71
     3
 72
    20
 73
    16
 74
     0
 42
0.0000000001
 43
0.0000000001
 12
1.0
 22
0.0
 32
0.0
 13
1.0
 23
0.0
 33
0.0
 40
0.0
 40
0.0
 40
0.0
 40
0.0
 40
0.2
 40
0.2
 40
0.2
 40
0.2
 40
0.4
 40
0.4
 40
0.4
 40
0.4
 40
0.6
 40
0.6
 40
0.6
 40
0.6
 40
1.0
 40
1.0
 40
1.0
 40
1.0
 10
72.2948
 20
65.857
 30
0.0
 10
71.99
 20
61.6567
 30
0.0
 10
69.9452
 20
58.9256
 30
0.0
 10
68.3137
 20
57.3406
 30
0.0
 10
68.3137
 20
57.3406
 30
0.0
 10
66.1913
 20
55.3232
 30
0.0
 10
63.2083
 20
53.8025
 30
0.0
 10
60.0017
 20
53.6861
 30
0.0
 10
60.0017
 20
53.6861
 30
0.0
 10
60.1456
 20
56.6362
 30
0.0
 10
61.5099
 20
59.4442
 30
0.0
 10
63.2739
 20
61.4631
 30
0.0
 10
63.2739
 20
61.4631
 30
0.0
 10
65.4933
 20
63.8758
 30
0.0
 10
68.6976
 20
65.7278
 30
0.0
 10
72.2948
 20
65.857
 30
0.0
  0
ELLIPSE
  5
89
330
1F
100
AcDbEntity
  8
layer 1
 62
     7
100
AcDbEllipse
 10
-37.7174
 20
80.72
 30
0.0
 11
0.0
 21
3.9725
 31
0.0
210
0.0
220
0.0
230
1.0
 40
1.0
 41
0.0
 42
6.283185307179586
  0
ELLIPSE
  5
8A
330
1F
100
AcDbEntity
  8
layer 1
 62
     7
100
AcDbEllipse
 10
-51.4691
 20
38.8555
 30
0.0
 11
0.0
 21
3.9725
 31
0.0
210
0.0
220
0.0
230
1.0
 40
1.0
 41
0.0
 42
6.283185307179586
  0
SPLINE
  5
8B
330
1F
100
AcDbEntity
  8
layer 1
 62
     7
100
AcDbSpline
210
0.0
220
0.0
230
1.0
 70
    11
 71
     3
 72
    16
 73
    12
 74
     0
 42
0.0000000001
 43
0.0000000001
 12
1.0
 22
0.0
 32
0.0
 13
1.0
 23
0.0
 33
0.0
 40
0.0
 40
0.0
 40
0.0
 40
0.0
 40
0.25
 40
0.25
 40
0.25
 40
0.25
 40
0.5
 40
0.5
 40
0.5
 40
0.5
 40
1.0
 40
1.0
 40
1.0
 40
1.0
 10
-65.4209
 20
56.7308
 30
0.0
 10
-63.2271
 20
56.7308
 30
0.0
 10
-61.4483
 20
54.9519
 30
0.0
 10
-61.4483
 20
52.7583
 30
0.0
 10
-61.4483
 20
52.7583
 30
0.0
 10
-61.4483
 20
50.5646
 30
0.0
 10
-63.2271
 20
48.7857
 30
0.0
 10
-65.4209
 20
48.7857
 30
0.0
 10
-65.4209
 20
48.7857
 30
0.0
 10
-65.4209
 20
48.7857
 30
0.0
 10
-65.4209
 20
56.7308
 30
0.0
 10
-65.4209
 20
56.7308
 30
0.0
  0
SPLINE
  5
8C
330
1F
100
AcDbEntity
  8
layer 1
 62
     7
100
AcDbSpline
210
0.0
220
0.0
230
1.0
 70
    11
 71
     3
 72
    20
 73
    16
 74
     0
 42
0.0000000001
 43
0.0000000001
 12
1.0
 22
0.0
 32
0.0
 13
1.0
 23
0.0
 33
0.0
 40
0.0
 40
0.0
 40
0.0
 40
0.0
 40
0.2
 40
0.2
 40
0.2
 40
0.2
 40
0.4
 40
0.4
 40
0.4
 40
0.4
 40
0.6
 40
0.6
 40
0.6
 40
0.6
 40
1.0
 40
1.0
 40
1.0
 40
1.0
 10
-52.3284
 20
53.6994
 30
0.0
 10
-52.6332
 20
57.8997
 30
0.0
 10
-54.678
 20
60.6307
 30
0.0
 10
-56.3095
 20
62.2158
 30
0.0
 10
-56.3095
 20
62.2158
 30
0.0
 10
-58.4319
 20
64.2331
 30
0.0
 10
-61.4149
 20
65.7538
 30
0.0
 10
-64.6215
 20
65.8703
 30
0.0
 10
-64.6215
 20
65.8703
 30
0.0
 10
-64.4776
 20
62.9202
 30
0.0
 10
-63.1133
 20
60.1121
 30
0.0
 10
-61.3493
 20
58.0933
 30
0.0
 10
-61.3493
 20
58.0933
 30
0.0
 10
-59.1299
 20
55.6806
 30
0.0
 10
-55.9256
 20
53.8286
 30
0.0
 10
-52.3284
 20
53.6994
 30
0.0
  0
SPLINE
  5
8D
330
1F
100
AcDbEntity
  8
layer 1
 62
     7
100
AcDbSpline
210
0.0
220
0.0
230
1.0
 70
    11
 71
     3
 72
    20
 73
    16
 74
     0
 42
0.0000000001
 43
0.0000000001
 12
1.0
 22
0.0
 32
0.0
 13
1.0
 23
0.0
 33
0.0
 40
0.0
 40
0.0
 40
0.0
 40
0.0
 40
0.2
 40
0.2
 40
0.2
 40
0.2
 40
0.4
 40
0.4
 40
0.4
 40
0.4
 40
0.6
 40
0.6
 40
0.6
 40
0.6
 40
1.0
 40
1.0
 40
1.0
 40
1.0
 10
-52.2999
 20
51.8559
 30
0.0
 10
-52.6047
 20
47.6556
 30
0.0
 10
-54.6495
 20
44.9245
 30
0.0
 10
-56.281
 20
43.3395
 30
0.0
 10
-56.281
 20
43.3395
 30
0.0
 10
-58.4033
 20
41.3221
 30
0.0
 10
-61.3863
 20
39.8015
 30
0.0
 10
-64.5929
 20
39.685
 30
0.0
 10
-64.5929
 20
39.685
 30
0.0
 10
-64.449
 20
42.6351
 30
0.0
 10
-63.0847
 20
45.4431
 30
0.0
 10
-61.3207
 20
47.462
 30
0.0
 10
-61.3207
 20
47.462
 30
0.0
 10
-59.1013
 20
49.8747
 30
0.0
 10
-55.897
 20
51.7267
 30
0.0
 10
-52.2999
 20
51.8559
 30
0.0
  0
SPLINE
  5
8E
330
1F
100
AcDbEntity
  8
layer 1
 62
     7
100
AcDbSpline
210
0.0
220
0.0
230
1.0
 70
    11
 71
     3
 72
    20
 73
    16
 74
     0
 42
0.0000000001
 43
0.0000000001
 12
1.0
 22
0.0
 32
0.0
 13
1.0
 23
0.0
 33
0.0
 40
0.0
 40
0.0
 40
0.0
 40
0.0
 40
0.2
 40
0.2
 40
0.2
 40
0.2
 40
0.4
 40
0.4
 40
0.4
 40
0.4
 40
0.6
 40
0.6
 40
0.6
 40
0.6
 40
1.0
 40
1.0
 40
1.0
 40
1.0
 10
-50.7922
 20
51.9094
 30
0.0
 10
-50.4874
 20
47.7091
 30
0.0
 10
-48.4426
 20
44.9781
 30
0.0
 10
-46.8111
 20
43.393
 30
0.0
 10
-46.8111
 20
43.393
 30
0.0
 10
-44.6888
 20
41.3757
 30
0.0
 10
-41.7058
 20
39.855
 30
0.0
 10
-38.4992
 20
39.7385
 30
0.0
 10
-38.4992
 20
39.7385
 30
0.0
 10
-38.6431
 20
42.6886
 30
0.0
 10
-40.0074
 20
45.4967
 30
0.0
 10
-41.7714
 20
47.5155
 30
0.0
 10
-41.7714
 20
47.5155
 30
0.0
 10
-43.9908
 20
49.9282
 30
0.0
 10
-47.1951
 20
51.7802
 30
0.0
 10
-50.7922
 20
51.9094
 30
0.0
  0
SPLINE
  5
8F
330
1F
100
AcDbEntity
  8
layer 1
 62
     7
100
AcDbSpline
210
0.0
220
0.0
230
1.0
 70
    11
 71
     3
 72
    20
 73
    16
 74
     0
 42
0.0000000001
 43
0.0000000001
 12
1.0
 22
0.0
 32
0.0
 13
1.0
 23
0.0
 33
0.0
 40
0.0
 40
0.0
 40
0.0
 40
0.0
 40
0.2
 40
0.2
 40
0.2
 40
0.2
 40
0.4
 40
0.4
 40
0.4
 40
0.4
 40
0.6
 40
0.6
 40
0.6
 40
0.6
 40
1.0
 40
1.0
 40
1.0
 40
1.0
 10
-24.594
 20
51.8559
 30
0.0
 10
-24.8988
 20
47.6556
 30
0.0
 10
-26.9436
 20
44.9245
 30
0.0
 10
-28.5751
 20
43.3395
 30
0.0
 10
-28.5751
 20
43.3395
 30
0.0
 10
-30.6974
 20
41.3221
 30
0.0
 10
-33.6804
 20
39.8015
 30
0.0
 10
-36.8871
 20
39.685
 30
0.0
 10
-36.8871
 20
39.685
 30
0.0
 10
-36.7432
 20
42.6351
 30
0.0
 10
-35.3789
 20
45.4431
 30
0.0
 10
-33.6148
 20
47.462
 30
0.0
 10
-33.6148
 20
47.462
 30
0.0
 10
-31.3954
 20
49.8747
 30
0.0
 10
-28.1911
 20
51.7267
 30
0.0
 10
-24.594
 20
51.8559
 30
0.0
  0
SPLINE
  5
90
330
1F
100
AcDbEntity
  8
layer 1
 62
     7
100
AcDbSpline
210
0.0
220
0.0
230
1.0
 70
    11
 71
     3
 72
    16
 73
    12
 74
     0
 42
0.0000000001
 43
0.0000000001
 12
1.0
 22
0.0
 32
0.0
 13
1.0
 23
0.0
 33
0.0
 40
0.0
 40
0.0
 40
0.0
 40
0.0
 40
0.25
 40
0.25
 40
0.25
 40
0.25
 40
0.5
 40
0.5
 40
0.5
 40
0.5
 40
1.0
 40
1.0
 40
1.0
 40
1.0
 10
73.0807
 20
56.7308
 30
0.0
 10
73.0807
 20
56.7308
 30
0.0
 10
73.0807
 20
48.7857
 30
0.0
 10
73.0807
 20
48.7857
 30
0.0
 10
73.0807
 20
48.7857
 30
0.0
 10
70.8871
 20
48.7857
 30
0.0
 10
69.1082
 20
50.5647
 30
0.0
 10
69.1082
 20
52.7583
 30
0.0
 10
69.1082
 20
52.7583
 30
0.0
 10
69.1082
 20
54.9519
 30
0.0
 10
70.8871
 20
56.7308
 30
0.0
 10
73.0807
 20
56.7308
 30
0.0
  0
ELLIPSE
  5
91
330
1F
100
AcDbEntity
  8
layer 1
 62
     7
100
AcDbEllipse
 10
-10.0566
 20
52.7583
 30
0.0
 11
0.0
 21
3.9725
 31
0.0
210
0.0
220
0.0
230
1.0
 40
1.0
 41
0.0
 42
6.283185307179586
  0
SPLINE
  5
92
330
1F
100
AcDbEntity
  8
layer 1
 62
     7
100
AcDbSpline
210
0.0
220
0.0
230
1.0
 70
    11
 71
     3
 72
    20
 73
    16
 74
     0
 42
0.0000000001
 43
0.0000000001
 12
1.0
 22
0.0
 32
0.0
 13
1.0
 23
0.0
 33
0.0
 40
0.0
 40
0.0
 40
0.0
 40
0.0
 40
0.2
 40
0.2
 40
0.2
 40
0.2
 40
0.4
 40
0.4
 40
0.4
 40
0.4
 40
0.6
 40
0.6
 40
0.6
 40
0.6
 40
1.0
 40
1.0
 40
1.0
 40
1.0
 10
-23.1338
 20
51.9094
 30
0.0
 10
-22.829
 20
47.7091
 30
0.0
 10
-20.7842
 20
44.9781
 30
0.0
 10
-19.1527
 20
43.393
 30
0.0
 10
-19.1527
 20
43.393
 30
0.0
 10
-17.0304
 20
41.3757
 30
0.0
 10
-14.0474
 20
39.855
 30
0.0
 10
-10.8407
 20
39.7385
 30
0.0
 10
-10.8407
 20
39.7385
 30
0.0
 10
-10.9846
 20
42.6886
 30
0.0
 10
-12.3489
 20
45.4967
 30
0.0
 10
-14.113
 20
47.5155
 30
0.0
 10
-14.113
 20
47.5155
 30
0.0
 10
-16.3324
 20
49.9282
 30
0.0
 10
-19.5367
 20
51.7802
 30
0.0
 10
-23.1338
 20
51.9094
 30
0.0
  0
SPLINE
  5
93
330
1F
100
AcDbEntity
  8
layer 1
 62
     7
100
AcDbSpline
210
0.0
220
0.0
230
1.0
 70
    11
 71
     3
 72
    20
 73
    16
 74
     0
 42
0.0000000001
 43
0.0000000001
 12
1.0
 22
0.0
 32
0.0
 13
1.0
 23
0.0
 33
0.0
 40
0.0
 40
0.0
 40
0.0
 40
0.0
 40
0.2
 40
0.2
 40
0.2
 40
0.2
 40
0.4
 40
0.4
 40
0.4
 40
0.4
 40
0.6
 40
0.6
 40
0.6
 40
0.6
 40
1.0
 40
1.0
 40
1.0
 40
1.0
 10
3.0644
 20
51.8559
 30
0.0
 10
2.7596
 20
47.6556
 30
0.0
 10
0.7148
 20
44.9245
 30
0.0
 10
-0.9167
 20
43.3395
 30
0.0
 10
-0.9167
 20
43.3395
 30
0.0
 10
-3.039
 20
41.3221
 30
0.0
 10
-6.022
 20
39.8015
 30
0.0
 10
-9.2286
 20
39.685
 30
0.0
 10
-9.2286
 20
39.685
 30
0.0
 10
-9.0847
 20
42.6351
 30
0.0
 10
-7.7204
 20
45.4431
 30
0.0
 10
-5.9564
 20
47.462
 30
0.0
 10
-5.9564
 20
47.462
 30
0.0
 10
-3.737
 20
49.8747
 30
0.0
 10
-0.5327
 20
51.7267
 30
0.0
 10
3.0644
 20
51.8559
 30
0.0
  0
ELLIPSE
  5
94
330
1F
100
AcDbEntity
  8
layer 1
 62
     7
100
AcDbEllipse
 10
17.6349
 20
52.7583
 30
0.0
 11
0.0
 21
3.9725
 31
0.0
210
0.0
220
0.0
230
1.0
 40
1.0
 41
0.0
 42
6.283185307179586
  0
SPLINE
  5
95
330
1F
100
AcDbEntity
  8
layer 1
 62
     7
100
AcDbSpline
210
0.0
220
0.0
230
1.0
 70
    11
 71
     3
 72
    20
 73
    16
 74
     0
 42
0.0000000001
 43
0.0000000001
 12
1.0
 22
0.0
 32
0.0
 13
1.0
 23
0.0
 33
0.0
 40
0.0
 40
0.0
 40
0.0
 40
0.0
 40
0.2
 40
0.2
 40
0.2
 40
0.2
 40
0.4
 40
0.4
 40
0.4
 40
0.4
 40
0.6
 40
0.6
 40
0.6
 40
0.6
 40
1.0
 40
1.0
 40
1.0
 40
1.0
 10
4.5577
 20
51.9094
 30
0.0
 10
4.8624
 20
47.7091
 30
0.0
 10
6.9073
 20
44.9781
 30
0.0
 10
8.5387
 20
43.393
 30
0.0
 10
8.5387
 20
43.393
 30
0.0
 10
10.6611
 20
41.3757
 30
0.0
 10
13.6441
 20
39.855
 30
0.0
 10
16.8507
 20
39.7385
 30
0.0
 10
16.8507
 20
39.7385
 30
0.0
 10
16.7068
 20
42.6886
 30
0.0
 10
15.3425
 20
45.4967
 30
0.0
 10
13.5785
 20
47.5155
 30
0.0
 10
13.5785
 20
47.5155
 30
0.0
 10
11.3591
 20
49.9282
 30
0.0
 10
8.1548
 20
51.7802
 30
0.0
 10
4.5577
 20
51.9094
 30
0.0
  0
SPLINE
  5
96
330
1F
100
AcDbEntity
  8
layer 1
 62
     7
100
AcDbSpline
210
0.0
220
0.0
230
1.0
 70
    11
 71
     3
 72
    20
 73
    16
 74
     0
 42
0.0000000001
 43
0.0000000001
 12
1.0
 22
0.0
 32
0.0
 13
1.0
 23
0.0
 33
0.0
 40
0.0
 40
0.0
 40
0.0
 40
0.0
 40
0.2
 40
0.2
 40
0.2
 40
0.2
 40
0.4
 40
0.4
 40
0.4
 40
0.4
 40
0.6
 40
0.6
 40
0.6
 40
0.6
 40
1.0
 40
1.0
 40
1.0
 40
1.0
 10
30.7559
 20
51.8559
 30
0.0
 10
30.4511
 20
47.6556
 30
0.0
 10
28.4063
 20
44.9245
 30
0.0
 10
26.7748
 20
43.3395
 30
0.0
 10
26.7748
 20
43.3395
 30
0.0
 10
24.6525
 20
41.3221
 30
0.0
 10
21.6695
 20
39.8015
 30
0.0
 10
18.4628
 20
39.685
 30
0.0
 10
18.4628
 20
39.685
 30
0.0
 10
18.6067
 20
42.6351
 30
0.0
 10
19.971
 20
45.4431
 30
0.0
 10
21.735
 20
47.462
 30
0.0
 10
21.735
 20
47.462
 30
0.0
 10
23.9544
 20
49.8747
 30
0.0
 10
27.1587
 20
51.7267
 30
0.0
 10
30.7559
 20
51.8559
 30
0.0
  0
ELLIPSE
  5
97
330
1F
100
AcDbEntity
  8
layer 1
 62
     7
100
AcDbEllipse
 10
45.3425
 20
52.7583
 30
0.0
 11
0.0
 21
3.9725
 31
0.0
210
0.0
220
0.0
230
1.0
 40
1.0
 41
0.0
 42
6.283185307179586
  0
SPLINE
  5
98
330
1F
100
AcDbEntity
  8
layer 1
 62
     7
100
AcDbSpline
210
0.0
220
0.0
230
1.0
 70
    11
 71
     3
 72
    20
 73
    16
 74
     0
 42
0.0000000001
 43
0.0000000001
 12
1.0
 22
0.0
 32
0.0
 13
1.0
 23
0.0
 33
0.0
 40
0.0
 40
0.0
 40
0.0
 40
0.0
 40
0.2
 40
0.2
 40
0.2
 40
0.2
 40
0.4
 40
0.4
 40
0.4
 40
0.4
 40
0.6
 40
0.6
 40
0.6
 40
0.6
 40
1.0
 40
1.0
 40
1.0
 40
1.0
 10
32.2653
 20
51.9094
 30
0.0
 10
32.5701
 20
47.7091
 30
0.0
 10
34.6149
 20
44.9781
 30
0.0
 10
36.2464
 20
43.393
 30
0.0
 10
36.2464
 20
43.393
 30
0.0
 10
38.3687
 20
41.3757
 30
0.0
 10
41.3517
 20
39.855
 30
0.0
 10
44.5584
 20
39.7385
 30
0.0
 10
44.5584
 20
39.7385
 30
0.0
 10
44.4145
 20
42.6886
 30
0.0
 10
43.0502
 20
45.4967
 30
0.0
 10
41.2861
 20
47.5155
 30
0.0
 10
41.2861
 20
47.5155
 30
0.0
 10
39.0667
 20
49.9282
 30
0.0
 10
35.8624
 20
51.7802
 30
0.0
 10
32.2653
 20
51.9094
 30
0.0
  0
SPLINE
  5
99
330
1F
100
AcDbEntity
  8
layer 1
 62
     7
100
AcDbSpline
210
0.0
220
0.0
230
1.0
 70
    11
 71
     3
 72
    20
 73
    16
 74
     0
 42
0.0000000001
 43
0.0000000001
 12
1.0
 22
0.0
 32
0.0
 13
1.0
 23
0.0
 33
0.0
 40
0.0
 40
0.0
 40
0.0
 40
0.0
 40
0.2
 40
0.2
 40
0.2
 40
0.2
 40
0.4
 40
0.4
 40
0.4
 40
0.4
 40
0.6
 40
0.6
 40
0.6
 40
0.6
 40
1.0
 40
1.0
 40
1.0
 40
1.0
 10
60.0035
 20
51.9094
 30
0.0
 10
60.3083
 20
47.7091
 30
0.0
 10
62.3531
 20
44.9781
 30
0.0
 10
63.9846
 20
43.393
 30
0.0
 10
63.9846
 20
43.393
 30
0.0
 10
66.1069
 20
41.3757
 30
0.0
 10
69.0899
 20
39.855
 30
0.0
 10
72.2966
 20
39.7385
 30
0.0
 10
72.2966
 20
39.7385
 30
0.0
 10
72.1526
 20
42.6886
 30
0.0
 10
70.7884
 20
45.4967
 30
0.0
 10
69.0243
 20
47.5155
 30
0.0
 10
69.0243
 20
47.5155
 30
0.0
 10
66.8049
 20
49.9282
 30
0.0
 10
63.6006
 20
51.7802
 30
0.0
 10
60.0035
 20
51.9094
 30
0.0
  0
SPLINE
  5
9A
330
1F
100
AcDbEntity
  8
layer 1
 62
     7
100
AcDbSpline
210
0.0
220
0.0
230
1.0
 70
    11
 71
     3
 72
    20
 73
    16
 74
     0
 42
0.0000000001
 43
0.0000000001
 12
1.0
 22
0.0
 32
0.0
 13
1.0
 23
0.0
 33
0.0
 40
0.0
 40
0.0
 40
0.0
 40
0.0
 40
0.2
 40
0.2
 40
0.2
 40
0.2
 40
0.4
 40
0.4
 40
0.4
 40
0.4
 40
0.6
 40
0.6
 40
0.6
 40
0.6
 40
1.0
 40
1.0
 40
1.0
 40
1.0
 10
-38.4686
 20
37.8953
 30
0.0
 10
-38.7734
 20
33.695
 30
0.0
 10
-40.8182
 20
30.9639
 30
0.0
 10
-42.4497
 20
29.3789
 30
0.0
 10
-42.4497
 20
29.3789
 30
0.0
 10
-44.5721
 20
27.3615
 30
0.0
 10
-47.5551
 20
25.8409
 30
0.0
 10
-50.7617
 20
25.7244
 30
0.0
 10
-50.7617
 20
25.7244
 30
0.0
 10
-50.6178
 20
28.6745
 30
0.0
 10
-49.2535
 20
31.4825
 30
0.0
 10
-47.4895
 20
33.5014
 30
0.0
 10
-47.4895
 20
33.5014
 30
0.0
 10
-45.2701
 20
35.9141
 30
0.0
 10
-42.0658
 20
37.7661
 30
0.0
 10
-38.4686
 20
37.8953
 30
0.0
  0
ELLIPSE
  5
9B
330
1F
100
AcDbEntity
  8
layer 1
 62
     7
100
AcDbEllipse
 10
-23.8838
 20
38.7977
 30
0.0
 11
0.0
 21
3.9725
 31
0.0
210
0.0
220
0.0
230
1.0
 40
1.0
 41
0.0
 42
6.283185307179586
  0
SPLINE
  5
9C
330
1F
100
AcDbEntity
  8
layer 1
 62
     7
100
AcDbSpline
210
0.0
220
0.0
230
1.0
 70
    11
 71
     3
 72
    20
 73
    16
 74
     0
 42
0.0000000001
 43
0.0000000001
 12
1.0
 22
0.0
 32
0.0
 13
1.0
 23
0.0
 33
0.0
 40
0.0
 40
0.0
 40
0.0
 40
0.0
 40
0.2
 40
0.2
 40
0.2
 40
0.2
 40
0.4
 40
0.4
 40
0.4
 40
0.4
 40
0.6
 40
0.6
 40
0.6
 40
0.6
 40
1.0
 40
1.0
 40
1.0
 40
1.0
 10
-36.961
 20
37.9488
 30
0.0
 10
-36.6562
 20
33.7485
 30
0.0
 10
-34.6114
 20
31.0175
 30
0.0
 10
-32.9799
 20
29.4324
 30
0.0
 10
-32.9799
 20
29.4324
 30
0.0
 10
-30.8576
 20
27.4151
 30
0.0
 10
-27.8746
 20
25.8944
 30
0.0
 10
-24.6679
 20
25.7779
 30
0.0
 10
-24.6679
 20
25.7779
 30
0.0
 10
-24.8119
 20
28.728
 30
0.0
 10
-26.1761
 20
31.5361
 30
0.0
 10
-27.9402
 20
33.5549
 30
0.0
 10
-27.9402
 20
33.5549
 30
0.0
 10
-30.1596
 20
35.9676
 30
0.0
 10
-33.3639
 20
37.8196
 30
0.0
 10
-36.961
 20
37.9488
 30
0.0
  0
SPLINE
  5
9D
330
1F
100
AcDbEntity
  8
layer 1
 62
     7
100
AcDbSpline
210
0.0
220
0.0
230
1.0
 70
    11
 71
     3
 72
    20
 73
    16
 74
     0
 42
0.0000000001
 43
0.0000000001
 12
1.0
 22
0.0
 32
0.0
 13
1.0
 23
0.0
 33
0.0
 40
0.0
 40
0.0
 40
0.0
 40
0.0
 40
0.2
 40
0.2
 40
0.2
 40
0.2
 40
0.4
 40
0.4
 40
0.4
 40
0.4
 40
0.6
 40
0.6
 40
0.6
 40
0.6
 40
1.0
 40
1.0
 40
1.0
 40
1.0
 10
-10.7628
 20
37.8953
 30
0.0
 10
-11.0676
 20
33.695
 30
0.0
 10
-13.1124
 20
30.9639
 30
0.0
 10
-14.7439
 20
29.3789
 30
0.0
 10
-14.7439
 20
29.3789
 30
0.0
 10
-16.8662
 20
27.3615
 30
0.0
 10
-19.8492
 20
25.8409
 30
0.0
 10
-23.0559
 20
25.7244
 30
0.0
 10
-23.0559
 20
25.7244
 30
0.0
 10
-22.9119
 20
28.6745
 30
0.0
 10
-21.5476
 20
31.4825
 30
0.0
 10
-19.7836
 20
33.5014
 30
0.0
 10
-19.7836
 20
33.5014
 30
0.0
 10
-17.5642
 20
35.9141
 30
0.0
 10
-14.3599
 20
37.7661
 30
0.0
 10
-10.7628
 20
37.8953
 30
0.0
  0
ELLIPSE
  5
9E
330
1F
100
AcDbEntity
  8
layer 1
 62
     7
100
AcDbEllipse
 10
3.7747
 20
38.7977
 30
0.0
 11
0.0
 21
3.9725
 31
0.0
210
0.0
220
0.0
230
1.0
 40
1.0
 41
0.0
 42
6.283185307179586
  0
SPLINE
  5
9F
330
1F
100
AcDbEntity
  8
layer 1
 62
     7
100
AcDbSpline
210
0.0
220
0.0
230
1.0
 70
    11
 71
     3
 72
    20
 73
    16
 74
     0
 42
0.0000000001
 43
0.0000000001
 12
1.0
 22
0.0
 32
0.0
 13
1.0
 23
0.0
 33
0.0
 40
0.0
 40
0.0
 40
0.0
 40
0.0
 40
0.2
 40
0.2
 40
0.2
 40
0.2
 40
0.4
 40
0.4
 40
0.4
 40
0.4
 40
0.6
 40
0.6
 40
0.6
 40
0.6
 40
1.0
 40
1.0
 40
1.0
 40
1.0
 10
-9.3026
 20
37.9488
 30
0.0
 10
-8.9978
 20
33.7485
 30
0.0
 10
-6.953
 20
31.0175
 30
0.0
 10
-5.3215
 20
29.4324
 30
0.0
 10
-5.3215
 20
29.4324
 30
0.0
 10
-3.1991
 20
27.4151
 30
0.0
 10
-0.2161
 20
25.8944
 30
0.0
 10
2.9905
 20
25.7779
 30
0.0
 10
2.9905
 20
25.7779
 30
0.0
 10
2.8466
 20
28.728
 30
0.0
 10
1.4823
 20
31.5361
 30
0.0
 10
-0.2817
 20
33.5549
 30
0.0
 10
-0.2817
 20
33.5549
 30
0.0
 10
-2.5011
 20
35.9676
 30
0.0
 10
-5.7054
 20
37.8196
 30
0.0
 10
-9.3026
 20
37.9488
 30
0.0
  0
SPLINE
  5
A0
330
1F
100
AcDbEntity
  8
layer 1
 62
     7
100
AcDbSpline
210
0.0
220
0.0
230
1.0
 70
    11
 71
     3
 72
    20
 73
    16
 74
     0
 42
0.0000000001
 43
0.0000000001
 12
1.0
 22
0.0
 32
0.0
 13
1.0
 23
0.0
 33
0.0
 40
0.0
 40
0.0
 40
0.0
 40
0.0
 40
0.2
 40
0.2
 40
0.2
 40
0.2
 40
0.4
 40
0.4
 40
0.4
 40
0.4
 40
0.6
 40
0.6
 40
0.6
 40
0.6
 40
1.0
 40
1.0
 40
1.0
 40
1.0
 10
16.8957
 20
37.8953
 30
0.0
 10
16.5909
 20
33.695
 30
0.0
 10
14.5461
 20
30.9639
 30
0.0
 10
12.9146
 20
29.3789
 30
0.0
 10
12.9146
 20
29.3789
 30
0.0
 10
10.7922
 20
27.3615
 30
0.0
 10
7.8092
 20
25.8409
 30
0.0
 10
4.6026
 20
25.7244
 30
0.0
 10
4.6026
 20
25.7244
 30
0.0
 10
4.7465
 20
28.6745
 30
0.0
 10
6.1108
 20
31.4825
 30
0.0
 10
7.8748
 20
33.5014
 30
0.0
 10
7.8748
 20
33.5014
 30
0.0
 10
10.0942
 20
35.9141
 30
0.0
 10
13.2985
 20
37.7661
 30
0.0
 10
16.8957
 20
37.8953
 30
0.0
  0
ELLIPSE
  5
A1
330
1F
100
AcDbEntity
  8
layer 1
 62
     7
100
AcDbEllipse
 10
31.4661
 20
38.7977
 30
0.0
 11
0.0
 21
3.9725
 31
0.0
210
0.0
220
0.0
230
1.0
 40
1.0
 41
0.0
 42
6.283185307179586
  0
SPLINE
  5
A2
330
1F
100
AcDbEntity
  8
layer 1
 62
     7
100
AcDbSpline
210
0.0
220
0.0
230
1.0
 70
    11
 71
     3
 72
    20
 73
    16
 74
     0
 42
0.0000000001
 43
0.0000000001
 12
1.0
 22
0.0
 32
0.0
 13
1.0
 23
0.0
 33
0.0
 40
0.0
 40
0.0
 40
0.0
 40
0.0
 40
0.2
 40
0.2
 40
0.2
 40
0.2
 40
0.4
 40
0.4
 40
0.4
 40
0.4
 40
0.6
 40
0.6
 40
0.6
 40
0.6
 40
1.0
 40
1.0
 40
1.0
 40
1.0
 10
18.3889
 20
37.9488
 30
0.0
 10
18.6937
 20
33.7485
 30
0.0
 10
20.7385
 20
31.0175
 30
0.0
 10
22.37
 20
29.4324
 30
0.0
 10
22.37
 20
29.4324
 30
0.0
 10
24.4923
 20
27.4151
 30
0.0
 10
27.4753
 20
25.8944
 30
0.0
 10
30.682
 20
25.7779
 30
0.0
 10
30.682
 20
25.7779
 30
0.0
 10
30.538
 20
28.728
 30
0.0
 10
29.1738
 20
31.5361
 30
0.0
 10
27.4097
 20
33.5549
 30
0.0
 10
27.4097
 20
33.5549
 30
0.0
 10
25.1903
 20
35.9676
 30
0.0
 10
21.986
 20
37.8196
 30
0.0
 10
18.3889
 20
37.9488
 30
0.0
  0
SPLINE
  5
A3
330
1F
100
AcDbEntity
  8
layer 1
 62
     7
100
AcDbSpline
210
0.0
220
0.0
230
1.0
 70
    11
 71
     3
 72
    20
 73
    16
 74
     0
 42
0.0000000001
 43
0.0000000001
 12
1.0
 22
0.0
 32
0.0
 13
1.0
 23
0.0
 33
0.0
 40
0.0
 40
0.0
 40
0.0
 40
0.0
 40
0.2
 40
0.2
 40
0.2
 40
0.2
 40
0.4
 40
0.4
 40
0.4
 40
0.4
 40
0.6
 40
0.6
 40
0.6
 40
0.6
 40
1.0
 40
1.0
 40
1.0
 40
1.0
 10
44.5871
 20
37.8953
 30
0.0
 10
44.2823
 20
33.695
 30
0.0
 10
42.2375
 20
30.9639
 30
0.0
 10
40.606
 20
29.3789
 30
0.0
 10
40.606
 20
29.3789
 30
0.0
 10
38.4837
 20
27.3615
 30
0.0
 10
35.5007
 20
25.8409
 30
0.0
 10
32.294
 20
25.7244
 30
0.0
 10
32.294
 20
25.7244
 30
0.0
 10
32.438
 20
28.6745
 30
0.0
 10
33.8022
 20
31.4825
 30
0.0
 10
35.5663
 20
33.5014
 30
0.0
 10
35.5663
 20
33.5014
 30
0.0
 10
37.7857
 20
35.9141
 30
0.0
 10
40.99
 20
37.7661
 30
0.0
 10
44.5871
 20
37.8953
 30
0.0
  0
ELLIPSE
  5
A4
330
1F
100
AcDbEntity
  8
layer 1
 62
     7
100
AcDbEllipse
 10
59.1738
 20
38.7977
 30
0.0
 11
0.0
 21
3.9725
 31
0.0
210
0.0
220
0.0
230
1.0
 40
1.0
 41
0.0
 42
6.283185307179586
  0
SPLINE
  5
A5
330
1F
100
AcDbEntity
  8
layer 1
 62
     7
100
AcDbSpline
210
0.0
220
0.0
230
1.0
 70
    11
 71
     3
 72
    20
 73
    16
 74
     0
 42
0.0000000001
 43
0.0000000001
 12
1.0
 22
0.0
 32
0.0
 13
1.0
 23
0.0
 33
0.0
 40
0.0
 40
0.0
 40
0.0
 40
0.0
 40
0.2
 40
0.2
 40
0.2
 40
0.2
 40
0.4
 40
0.4
 40
0.4
 40
0.4
 40
0.6
 40
0.6
 40
0.6
 40
0.6
 40
1.0
 40
1.0
 40
1.0
 40
1.0
 10
46.0819
 20
39.7271
 30
0.0
 10
46.3866
 20
43.9274
 30
0.0
 10
48.4315
 20
46.6585
 30
0.0
 10
50.0629
 20
48.2435
 30
0.0
 10
50.0629
 20
48.2435
 30
0.0
 10
52.1853
 20
50.2609
 30
0.0
 10
55.1683
 20
51.7816
 30
0.0
 10
58.3749
 20
51.898
 30
0.0
 10
58.3749
 20
51.898
 30
0.0
 10
58.231
 20
48.9479
 30
0.0
 10
56.8667
 20
46.1399
 30
0.0
 10
55.1027
 20
44.121
 30
0.0
 10
55.1027
 20
44.121
 30
0.0
 10
52.8833
 20
41.7083
 30
0.0
 10
49.679
 20
39.8564
 30
0.0
 10
46.0819
 20
39.7271
 30
0.0
  0
SPLINE
  5
A6
330
1F
100
AcDbEntity
  8
layer 1
 62
     7
100
AcDbSpline
210
0.0
220
0.0
230
1.0
 70
    11
 71
     3
 72
    20
 73
    16
 74
     0
 42
0.0000000001
 43
0.0000000001
 12
1.0
 22
0.0
 32
0.0
 13
1.0
 23
0.0
 33
0.0
 40
0.0
 40
0.0
 40
0.0
 40
0.0
 40
0.2
 40
0.2
 40
0.2
 40
0.2
 40
0.4
 40
0.4
 40
0.4
 40
0.4
 40
0.6
 40
0.6
 40
0.6
 40
0.6
 40
1.0
 40
1.0
 40
1.0
 40
1.0
 10
46.0966
 20
37.9488
 30
0.0
 10
46.4013
 20
33.7485
 30
0.0
 10
48.4462
 20
31.0175
 30
0.0
 10
50.0776
 20
29.4324
 30
0.0
 10
50.0776
 20
29.4324
 30
0.0
 10
52.2
 20
27.4151
 30
0.0
 10
55.183
 20
25.8944
 30
0.0
 10
58.3896
 20
25.7779
 30
0.0
 10
58.3896
 20
25.7779
 30
0.0
 10
58.2457
 20
28.728
 30
0.0
 10
56.8814
 20
31.5361
 30
0.0
 10
55.1174
 20
33.5549
 30
0.0
 10
55.1174
 20
33.5549
 30
0.0
 10
52.898
 20
35.9676
 30
0.0
 10
49.6937
 20
37.8196
 30
0.0
 10
46.0966
 20
37.9488
 30
0.0
  0
SPLINE
  5
A7
330
1F
100
AcDbEntity
  8
layer 1
 62
     7
100
AcDbSpline
210
0.0
220
0.0
230
1.0
 70
    11
 71
     3
 72
    20
 73
    16
 74
     0
 42
0.0000000001
 43
0.0000000001
 12
1.0
 22
0.0
 32
0.0
 13
1.0
 23
0.0
 33
0.0
 40
0.0
 40
0.0
 40
0.0
 40
0.0
 40
0.2
 40
0.2
 40
0.2
 40
0.2
 40
0.4
 40
0.4
 40
0.4
 40
0.4
 40
0.6
 40
0.6
 40
0.6
 40
0.6
 40
1.0
 40
1.0
 40
1.0
 40
1.0
 10
72.2948
 20
37.8953
 30
0.0
 10
71.99
 20
33.695
 30
0.0
 10
69.9452
 20
30.9639
 30
0.0
 10
68.3137
 20
29.3789
 30
0.0
 10
68.3137
 20
29.3789
 30
0.0
 10
66.1913
 20
27.3615
 30
0.0
 10
63.2083
 20
25.8409
 30
0.0
 10
60.0017
 20
25.7244
 30
0.0
 10
60.0017
 20
25.7244
 30
0.0
 10
60.1456
 20
28.6745
 30
0.0
 10
61.5099
 20
31.4825
 30
0.0
 10
63.2739
 20
33.5014
 30
0.0
 10
63.2739
 20
33.5014
 30
0.0
 10
65.4933
 20
35.9141
 30
0.0
 10
68.6976
 20
37.7661
 30
0.0
 10
72.2948
 20
37.8953
 30
0.0
  0
SPLINE
  5
A8
330
1F
100
AcDbEntity
  8
layer 1
 62
     7
100
AcDbSpline
210
0.0
220
0.0
230
1.0
 70
    11
 71
     3
 72
    20
 73
    16
 74
     0
 42
0.0000000001
 43
0.0000000001
 12
1.0
 22
0.0
 32
0.0
 13
1.0
 23
0.0
 33
0.0
 40
0.0
 40
0.0
 40
0.0
 40
0.0
 40
0.2
 40
0.2
 40
0.2
 40
0.2
 40
0.4
 40
0.4
 40
0.4
 40
0.4
 40
0.6
 40
0.6
 40
0.6
 40
0.6
 40
1.0
 40
1.0
 40
1.0
 40
1.0
 10
-64.5261
 20
37.9488
 30
0.0
 10
-64.2213
 20
33.7485
 30
0.0
 10
-62.1765
 20
31.0175
 30
0.0
 10
-60.545
 20
29.4324
 30
0.0
 10
-60.545
 20
29.4324
 30
0.0
 10
-58.4227
 20
27.4151
 30
0.0
 10
-55.4397
 20
25.8944
 30
0.0
 10
-52.233
 20
25.7779
 30
0.0
 10
-52.233
 20
25.7779
 30
0.0
 10
-52.377
 20
28.728
 30
0.0
 10
-53.7413
 20
31.5361
 30
0.0
 10
-55.5053
 20
33.5549
 30
0.0
 10
-55.5053
 20
33.5549
 30
0.0
 10
-57.7247
 20
35.9676
 30
0.0
 10
-60.929
 20
37.8196
 30
0.0
 10
-64.5261
 20
37.9488
 30
0.0
  0
ELLIPSE
  5
A9
330
1F
100
AcDbEntity
  8
layer 1
 62
     7
100
AcDbEllipse
 10
-37.7174
 20
52.7583
 30
0.0
 11
0.0
 21
3.9725
 31
0.0
210
0.0
220
0.0
230
1.0
 40
1.0
 41
0.0
 42
6.283185307179586
  0
ELLIPSE
  5
AA
330
1F
100
AcDbEntity
  8
layer 1
 62
     7
100
AcDbEllipse
 10
-51.4691
 20
10.8566
 30
0.0
 11
0.0
 21
3.9725
 31
0.0
210
0.0
220
0.0
230
1.0
 40
1.0
 41
0.0
 42
6.283185307179586
  0
SPLINE
  5
AB
330
1F
100
AcDbEntity
  8
layer 1
 62
     7
100
AcDbSpline
210
0.0
220
0.0
230
1.0
 70
    11
 71
     3
 72
    16
 73
    12
 74
     0
 42
0.0000000001
 43
0.0000000001
 12
1.0
 22
0.0
 32
0.0
 13
1.0
 23
0.0
 33
0.0
 40
0.0
 40
0.0
 40
0.0
 40
0.0
 40
0.25
 40
0.25
 40
0.25
 40
0.25
 40
0.5
 40
0.5
 40
0.5
 40
0.5
 40
1.0
 40
1.0
 40
1.0
 40
1.0
 10
-65.4209
 20
28.7319
 30
0.0
 10
-63.2271
 20
28.7319
 30
0.0
 10
-61.4483
 20
26.9531
 30
0.0
 10
-61.4483
 20
24.7594
 30
0.0
 10
-61.4483
 20
24.7594
 30
0.0
 10
-61.4483
 20
22.5657
 30
0.0
 10
-63.2271
 20
20.7868
 30
0.0
 10
-65.4209
 20
20.7868
 30
0.0
 10
-65.4209
 20
20.7868
 30
0.0
 10
-65.4209
 20
20.7868
 30
0.0
 10
-65.4209
 20
28.7319
 30
0.0
 10
-65.4209
 20
28.7319
 30
0.0
  0
SPLINE
  5
AC
330
1F
100
AcDbEntity
  8
layer 1
 62
     7
100
AcDbSpline
210
0.0
220
0.0
230
1.0
 70
    11
 71
     3
 72
    20
 73
    16
 74
     0
 42
0.0000000001
 43
0.0000000001
 12
1.0
 22
0.0
 32
0.0
 13
1.0
 23
0.0
 33
0.0
 40
0.0
 40
0.0
 40
0.0
 40
0.0
 40
0.2
 40
0.2
 40
0.2
 40
0.2
 40
0.4
 40
0.4
 40
0.4
 40
0.4
 40
0.6
 40
0.6
 40
0.6
 40
0.6
 40
1.0
 40
1.0
 40
1.0
 40
1.0
 10
-52.2999
 20
23.857
 30
0.0
 10
-52.6047
 20
19.6567
 30
0.0
 10
-54.6495
 20
16.9257
 30
0.0
 10
-56.281
 20
15.3407
 30
0.0
 10
-56.281
 20
15.3407
 30
0.0
 10
-58.4033
 20
13.3233
 30
0.0
 10
-61.3863
 20
11.8026
 30
0.0
 10
-64.5929
 20
11.6861
 30
0.0
 10
-64.5929
 20
11.6861
 30
0.0
 10
-64.449
 20
14.6363
 30
0.0
 10
-63.0847
 20
17.4443
 30
0.0
 10
-61.3207
 20
19.4632
 30
0.0
 10
-61.3207
 20
19.4632
 30
0.0
 10
-59.1013
 20
21.8759
 30
0.0
 10
-55.897
 20
23.7278
 30
0.0
 10
-52.2999
 20
23.857
 30
0.0
  0
SPLINE
  5
AD
330
1F
100
AcDbEntity
  8
layer 1
 62
     7
100
AcDbSpline
210
0.0
220
0.0
230
1.0
 70
    11
 71
     3
 72
    20
 73
    16
 74
     0
 42
0.0000000001
 43
0.0000000001
 12
1.0
 22
0.0
 32
0.0
 13
1.0
 23
0.0
 33
0.0
 40
0.0
 40
0.0
 40
0.0
 40
0.0
 40
0.2
 40
0.2
 40
0.2
 40
0.2
 40
0.4
 40
0.4
 40
0.4
 40
0.4
 40
0.6
 40
0.6
 40
0.6
 40
0.6
 40
1.0
 40
1.0
 40
1.0
 40
1.0
 10
-50.7922
 20
23.9106
 30
0.0
 10
-50.4874
 20
19.7103
 30
0.0
 10
-48.4426
 20
16.9792
 30
0.0
 10
-46.8111
 20
15.3942
 30
0.0
 10
-46.8111
 20
15.3942
 30
0.0
 10
-44.6888
 20
13.3768
 30
0.0
 10
-41.7058
 20
11.8561
 30
0.0
 10
-38.4992
 20
11.7397
 30
0.0
 10
-38.4992
 20
11.7397
 30
0.0
 10
-38.6431
 20
14.6898
 30
0.0
 10
-40.0074
 20
17.4978
 30
0.0
 10
-41.7714
 20
19.5167
 30
0.0
 10
-41.7714
 20
19.5167
 30
0.0
 10
-43.9908
 20
21.9294
 30
0.0
 10
-47.1951
 20
23.7813
 30
0.0
 10
-50.7922
 20
23.9106
 30
0.0
  0
SPLINE
  5
AE
330
1F
100
AcDbEntity
  8
layer 1
 62
     7
100
AcDbSpline
210
0.0
220
0.0
230
1.0
 70
    11
 71
     3
 72
    20
 73
    16
 74
     0
 42
0.0000000001
 43
0.0000000001
 12
1.0
 22
0.0
 32
0.0
 13
1.0
 23
0.0
 33
0.0
 40
0.0
 40
0.0
 40
0.0
 40
0.0
 40
0.2
 40
0.2
 40
0.2
 40
0.2
 40
0.4
 40
0.4
 40
0.4
 40
0.4
 40
0.6
 40
0.6
 40
0.6
 40
0.6
 40
1.0
 40
1.0
 40
1.0
 40
1.0
 10
-24.594
 20
23.857
 30
0.0
 10
-24.8988
 20
19.6567
 30
0.0
 10
-26.9436
 20
16.9257
 30
0.0
 10
-28.5751
 20
15.3407
 30
0.0
 10
-28.5751
 20
15.3407
 30
0.0
 10
-30.6974
 20
13.3233
 30
0.0
 10
-33.6804
 20
11.8026
 30
0.0
 10
-36.8871
 20
11.6861
 30
0.0
 10
-36.8871
 20
11.6861
 30
0.0
 10
-36.7432
 20
14.6363
 30
0.0
 10
-35.3789
 20
17.4443
 30
0.0
 10
-33.6148
 20
19.4632
 30
0.0
 10
-33.6148
 20
19.4632
 30
0.0
 10
-31.3954
 20
21.8759
 30
0.0
 10
-28.1911
 20
23.7278
 30
0.0
 10
-24.594
 20
23.857
 30
0.0
  0
SPLINE
  5
AF
330
1F
100
AcDbEntity
  8
layer 1
 62
     7
100
AcDbSpline
210
0.0
220
0.0
230
1.0
 70
    11
 71
     3
 72
    16
 73
    12
 74
     0
 42
0.0000000001
 43
0.0000000001
 12
1.0
 22
0.0
 32
0.0
 13
1.0
 23
0.0
 33
0.0
 40
0.0
 40
0.0
 40
0.0
 40
0.0
 40
0.25
 40
0.25
 40
0.25
 40
0.25
 40
0.5
 40
0.5
 40
0.5
 40
0.5
 40
1.0
 40
1.0
 40
1.0
 40
1.0
 10
73.0807
 20
28.7319
 30
0.0
 10
73.0807
 20
28.7319
 30
0.0
 10
73.0807
 20
20.7868
 30
0.0
 10
73.0807
 20
20.7868
 30
0.0
 10
73.0807
 20
20.7868
 30
0.0
 10
70.8871
 20
20.7868
 30
0.0
 10
69.1082
 20
22.5658
 30
0.0
 10
69.1082
 20
24.7594
 30
0.0
 10
69.1082
 20
24.7594
 30
0.0
 10
69.1082
 20
26.9531
 30
0.0
 10
70.8871
 20
28.7319
 30
0.0
 10
73.0807
 20
28.7319
 30
0.0
  0
ELLIPSE
  5
B0
330
1F
100
AcDbEntity
  8
layer 1
 62
     7
100
AcDbEllipse
 10
-10.0566
 20
24.7594
 30
0.0
 11
0.0
 21
3.9725
 31
0.0
210
0.0
220
0.0
230
1.0
 40
1.0
 41
0.0
 42
6.283185307179586
  0
SPLINE
  5
B1
330
1F
100
AcDbEntity
  8
layer 1
 62
     7
100
AcDbSpline
210
0.0
220
0.0
230
1.0
 70
    11
 71
     3
 72
    20
 73
    16
 74
     0
 42
0.0000000001
 43
0.0000000001
 12
1.0
 22
0.0
 32
0.0
 13
1.0
 23
0.0
 33
0.0
 40
0.0
 40
0.0
 40
0.0
 40
0.0
 40
0.2
 40
0.2
 40
0.2
 40
0.2
 40
0.4
 40
0.4
 40
0.4
 40
0.4
 40
0.6
 40
0.6
 40
0.6
 40
0.6
 40
1.0
 40
1.0
 40
1.0
 40
1.0
 10
-23.1338
 20
23.9106
 30
0.0
 10
-22.829
 20
19.7103
 30
0.0
 10
-20.7842
 20
16.9792
 30
0.0
 10
-19.1527
 20
15.3942
 30
0.0
 10
-19.1527
 20
15.3942
 30
0.0
 10
-17.0304
 20
13.3768
 30
0.0
 10
-14.0474
 20
11.8561
 30
0.0
 10
-10.8407
 20
11.7397
 30
0.0
 10
-10.8407
 20
11.7397
 30
0.0
 10
-10.9846
 20
14.6898
 30
0.0
 10
-12.3489
 20
17.4978
 30
0.0
 10
-14.113
 20
19.5167
 30
0.0
 10
-14.113
 20
19.5167
 30
0.0
 10
-16.3324
 20
21.9294
 30
0.0
 10
-19.5367
 20
23.7813
 30
0.0
 10
-23.1338
 20
23.9106
 30
0.0
  0
SPLINE
  5
B2
330
1F
100
AcDbEntity
  8
layer 1
 62
     7
100
AcDbSpline
210
0.0
220
0.0
230
1.0
 70
    11
 71
     3
 72
    20
 73
    16
 74
     0
 42
0.0000000001
 43
0.0000000001
 12
1.0
 22
0.0
 32
0.0
 13
1.0
 23
0.0
 33
0.0
 40
0.0
 40
0.0
 40
0.0
 40
0.0
 40
0.2
 40
0.2
 40
0.2
 40
0.2
 40
0.4
 40
0.4
 40
0.4
 40
0.4
 40
0.6
 40
0.6
 40
0.6
 40
0.6
 40
1.0
 40
1.0
 40
1.0
 40
1.0
 10
3.0644
 20
23.857
 30
0.0
 10
2.7596
 20
19.6567
 30
0.0
 10
0.7148
 20
16.9257
 30
0.0
 10
-0.9167
 20
15.3407
 30
0.0
 10
-0.9167
 20
15.3407
 30
0.0
 10
-3.039
 20
13.3233
 30
0.0
 10
-6.022
 20
11.8026
 30
0.0
 10
-9.2286
 20
11.6861
 30
0.0
 10
-9.2286
 20
11.6861
 30
0.0
 10
-9.0847
 20
14.6363
 30
0.0
 10
-7.7204
 20
17.4443
 30
0.0
 10
-5.9564
 20
19.4632
 30
0.0
 10
-5.9564
 20
19.4632
 30
0.0
 10
-3.737
 20
21.8759
 30
0.0
 10
-0.5327
 20
23.7278
 30
0.0
 10
3.0644
 20
23.857
 30
0.0
  0
ELLIPSE
  5
B3
330
1F
100
AcDbEntity
  8
layer 1
 62
     7
100
AcDbEllipse
 10
17.6349
 20
24.7594
 30
0.0
 11
0.0
 21
3.9725
 31
0.0
210
0.0
220
0.0
230
1.0
 40
1.0
 41
0.0
 42
6.283185307179586
  0
SPLINE
  5
B4
330
1F
100
AcDbEntity
  8
layer 1
 62
     7
100
AcDbSpline
210
0.0
220
0.0
230
1.0
 70
    11
 71
     3
 72
    20
 73
    16
 74
     0
 42
0.0000000001
 43
0.0000000001
 12
1.0
 22
0.0
 32
0.0
 13
1.0
 23
0.0
 33
0.0
 40
0.0
 40
0.0
 40
0.0
 40
0.0
 40
0.2
 40
0.2
 40
0.2
 40
0.2
 40
0.4
 40
0.4
 40
0.4
 40
0.4
 40
0.6
 40
0.6
 40
0.6
 40
0.6
 40
1.0
 40
1.0
 40
1.0
 40
1.0
 10
4.5577
 20
23.9106
 30
0.0
 10
4.8624
 20
19.7103
 30
0.0
 10
6.9073
 20
16.9792
 30
0.0
 10
8.5387
 20
15.3942
 30
0.0
 10
8.5387
 20
15.3942
 30
0.0
 10
10.6611
 20
13.3768
 30
0.0
 10
13.6441
 20
11.8561
 30
0.0
 10
16.8507
 20
11.7397
 30
0.0
 10
16.8507
 20
11.7397
 30
0.0
 10
16.7068
 20
14.6898
 30
0.0
 10
15.3425
 20
17.4978
 30
0.0
 10
13.5785
 20
19.5167
 30
0.0
 10
13.5785
 20
19.5167
 30
0.0
 10
11.3591
 20
21.9294
 30
0.0
 10
8.1548
 20
23.7813
 30
0.0
 10
4.5577
 20
23.9106
 30
0.0
  0
SPLINE
  5
B5
330
1F
100
AcDbEntity
  8
layer 1
 62
     7
100
AcDbSpline
210
0.0
220
0.0
230
1.0
 70
    11
 71
     3
 72
    20
 73
    16
 74
     0
 42
0.0000000001
 43
0.0000000001
 12
1.0
 22
0.0
 32
0.0
 13
1.0
 23
0.0
 33
0.0
 40
0.0
 40
0.0
 40
0.0
 40
0.0
 40
0.2
 40
0.2
 40
0.2
 40
0.2
 40
0.4
 40
0.4
 40
0.4
 40
0.4
 40
0.6
 40
0.6
 40
0.6
 40
0.6
 40
1.0
 40
1.0
 40
1.0
 40
1.0
 10
30.7559
 20
23.857
 30
0.0
 10
30.4511
 20
19.6567
 30
0.0
 10
28.4063
 20
16.9257
 30
0.0
 10
26.7748
 20
15.3407
 30
0.0
 10
26.7748
 20
15.3407
 30
0.0
 10
24.6525
 20
13.3233
 30
0.0
 10
21.6695
 20
11.8026
 30
0.0
 10
18.4628
 20
11.6861
 30
0.0
 10
18.4628
 20
11.6861
 30
0.0
 10
18.6067
 20
14.6363
 30
0.0
 10
19.971
 20
17.4443
 30
0.0
 10
21.735
 20
19.4632
 30
0.0
 10
21.735
 20
19.4632
 30
0.0
 10
23.9544
 20
21.8759
 30
0.0
 10
27.1587
 20
23.7278
 30
0.0
 10
30.7559
 20
23.857
 30
0.0
  0
ELLIPSE
  5
B6
330
1F
100
AcDbEntity
  8
layer 1
 62
     7
100
AcDbEllipse
 10
45.3425
 20
24.7594
 30
0.0
 11
0.0
 21
3.9725
 31
0.0
210
0.0
220
0.0
230
1.0
 40
1.0
 41
0.0
 42
6.283185307179586
  0
SPLINE
  5
B7
330
1F
100
AcDbEntity
  8
layer 1
 62
     7
100
AcDbSpline
210
0.0
220
0.0
230
1.0
 70
    11
 71
     3
 72
    20
 73
    16
 74
     0
 42
0.0000000001
 43
0.0000000001
 12
1.0
 22
0.0
 32
0.0
 13
1.0
 23
0.0
 33
0.0
 40
0.0
 40
0.0
 40
0.0
 40
0.0
 40
0.2
 40
0.2
 40
0.2
 40
0.2
 40
0.4
 40
0.4
 40
0.4
 40
0.4
 40
0.6
 40
0.6
 40
0.6
 40
0.6
 40
1.0
 40
1.0
 40
1.0
 40
1.0
 10
32.2653
 20
23.9106
 30
0.0
 10
32.5701
 20
19.7103
 30
0.0
 10
34.6149
 20
16.9792
 30
0.0
 10
36.2464
 20
15.3942
 30
0.0
 10
36.2464
 20
15.3942
 30
0.0
 10
38.3687
 20
13.3768
 30
0.0
 10
41.3517
 20
11.8561
 30
0.0
 10
44.5584
 20
11.7397
 30
0.0
 10
44.5584
 20
11.7397
 30
0.0
 10
44.4145
 20
14.6898
 30
0.0
 10
43.0502
 20
17.4978
 30
0.0
 10
41.2861
 20
19.5167
 30
0.0
 10
41.2861
 20
19.5167
 30
0.0
 10
39.0667
 20
21.9294
 30
0.0
 10
35.8624
 20
23.7813
 30
0.0
 10
32.2653
 20
23.9106
 30
0.0
  0
SPLINE
  5
B8
330
1F
100
AcDbEntity
  8
layer 1
 62
     7
100
AcDbSpline
210
0.0
220
0.0
230
1.0
 70
    11
 71
     3
 72
    20
 73
    16
 74
     0
 42
0.0000000001
 43
0.0000000001
 12
1.0
 22
0.0
 32
0.0
 13
1.0
 23
0.0
 33
0.0
 40
0.0
 40
0.0
 40
0.0
 40
0.0
 40
0.2
 40
0.2
 40
0.2
 40
0.2
 40
0.4
 40
0.4
 40
0.4
 40
0.4
 40
0.6
 40
0.6
 40
0.6
 40
0.6
 40
1.0
 40
1.0
 40
1.0
 40
1.0
 10
60.0035
 20
23.9106
 30
0.0
 10
60.3083
 20
19.7103
 30
0.0
 10
62.3531
 20
16.9792
 30
0.0
 10
63.9846
 20
15.3942
 30
0.0
 10
63.9846
 20
15.3942
 30
0.0
 10
66.1069
 20
13.3768
 30
0.0
 10
69.0899
 20
11.8561
 30
0.0
 10
72.2966
 20
11.7397
 30
0.0
 10
72.2966
 20
11.7397
 30
0.0
 10
72.1526
 20
14.6898
 30
0.0
 10
70.7884
 20
17.4978
 30
0.0
 10
69.0243
 20
19.5167
 30
0.0
 10
69.0243
 20
19.5167
 30
0.0
 10
66.8049
 20
21.9294
 30
0.0
 10
63.6006
 20
23.7813
 30
0.0
 10
60.0035
 20
23.9106
 30
0.0
  0
SPLINE
  5
B9
330
1F
100
AcDbEntity
  8
layer 1
 62
     7
100
AcDbSpline
210
0.0
220
0.0
230
1.0
 70
    11
 71
     3
 72
    20
 73
    16
 74
     0
 42
0.0000000001
 43
0.0000000001
 12
1.0
 22
0.0
 32
0.0
 13
1.0
 23
0.0
 33
0.0
 40
0.0
 40
0.0
 40
0.0
 40
0.0
 40
0.2
 40
0.2
 40
0.2
 40
0.2
 40
0.4
 40
0.4
 40
0.4
 40
0.4
 40
0.6
 40
0.6
 40
0.6
 40
0.6
 40
1.0
 40
1.0
 40
1.0
 40
1.0
 10
-38.4686
 20
9.8964
 30
0.0
 10
-38.7734
 20
5.6961
 30
0.0
 10
-40.8182
 20
2.9651
 30
0.0
 10
-42.4497
 20
1.3801
 30
0.0
 10
-42.4497
 20
1.3801
 30
0.0
 10
-44.5721
 20
-0.6373
 30
0.0
 10
-47.5551
 20
-2.158
 30
0.0
 10
-50.7617
 20
-2.2745
 30
0.0
 10
-50.7617
 20
-2.2745
 30
0.0
 10
-50.6178
 20
0.6757
 30
0.0
 10
-49.2535
 20
3.4837
 30
0.0
 10
-47.4895
 20
5.5026
 30
0.0
 10
-47.4895
 20
5.5026
 30
0.0
 10
-45.2701
 20
7.9153
 30
0.0
 10
-42.0658
 20
9.7672
 30
0.0
 10
-38.4686
 20
9.8964
 30
0.0
  0
ELLIPSE
  5
BA
330
1F
100
AcDbEntity
  8
layer 1
 62
     7
100
AcDbEllipse
 10
-23.8838
 20
10.7988
 30
0.0
 11
0.0
 21
3.9725
 31
0.0
210
0.0
220
0.0
230
1.0
 40
1.0
 41
0.0
 42
6.283185307179586
  0
SPLINE
  5
BB
330
1F
100
AcDbEntity
  8
layer 1
 62
     7
100
AcDbSpline
210
0.0
220
0.0
230
1.0
 70
    11
 71
     3
 72
    20
 73
    16
 74
     0
 42
0.0000000001
 43
0.0000000001
 12
1.0
 22
0.0
 32
0.0
 13
1.0
 23
0.0
 33
0.0
 40
0.0
 40
0.0
 40
0.0
 40
0.0
 40
0.2
 40
0.2
 40
0.2
 40
0.2
 40
0.4
 40
0.4
 40
0.4
 40
0.4
 40
0.6
 40
0.6
 40
0.6
 40
0.6
 40
1.0
 40
1.0
 40
1.0
 40
1.0
 10
-36.961
 20
9.95
 30
0.0
 10
-36.6562
 20
5.7497
 30
0.0
 10
-34.6114
 20
3.0186
 30
0.0
 10
-32.9799
 20
1.4336
 30
0.0
 10
-32.9799
 20
1.4336
 30
0.0
 10
-30.8576
 20
-0.5838
 30
0.0
 10
-27.8746
 20
-2.1045
 30
0.0
 10
-24.6679
 20
-2.2209
 30
0.0
 10
-24.6679
 20
-2.2209
 30
0.0
 10
-24.8119
 20
0.7292
 30
0.0
 10
-26.1761
 20
3.5372
 30
0.0
 10
-27.9402
 20
5.5561
 30
0.0
 10
-27.9402
 20
5.5561
 30
0.0
 10
-30.1596
 20
7.9688
 30
0.0
 10
-33.3639
 20
9.8207
 30
0.0
 10
-36.961
 20
9.95
 30
0.0
  0
SPLINE
  5
BC
330
1F
100
AcDbEntity
  8
layer 1
 62
     7
100
AcDbSpline
210
0.0
220
0.0
230
1.0
 70
    11
 71
     3
 72
    20
 73
    16
 74
     0
 42
0.0000000001
 43
0.0000000001
 12
1.0
 22
0.0
 32
0.0
 13
1.0
 23
0.0
 33
0.0
 40
0.0
 40
0.0
 40
0.0
 40
0.0
 40
0.2
 40
0.2
 40
0.2
 40
0.2
 40
0.4
 40
0.4
 40
0.4
 40
0.4
 40
0.6
 40
0.6
 40
0.6
 40
0.6
 40
1.0
 40
1.0
 40
1.0
 40
1.0
 10
-10.7628
 20
9.8964
 30
0.0
 10
-11.0676
 20
5.6961
 30
0.0
 10
-13.1124
 20
2.9651
 30
0.0
 10
-14.7439
 20
1.3801
 30
0.0
 10
-14.7439
 20
1.3801
 30
0.0
 10
-16.8662
 20
-0.6373
 30
0.0
 10
-19.8492
 20
-2.158
 30
0.0
 10
-23.0559
 20
-2.2745
 30
0.0
 10
-23.0559
 20
-2.2745
 30
0.0
 10
-22.9119
 20
0.6757
 30
0.0
 10
-21.5476
 20
3.4837
 30
0.0
 10
-19.7836
 20
5.5026
 30
0.0
 10
-19.7836
 20
5.5026
 30
0.0
 10
-17.5642
 20
7.9153
 30
0.0
 10
-14.3599
 20
9.7672
 30
0.0
 10
-10.7628
 20
9.8964
 30
0.0
  0
ELLIPSE
  5
BD
330
1F
100
AcDbEntity
  8
layer 1
 62
     7
100
AcDbEllipse
 10
3.7747
 20
10.7988
 30
0.0
 11
0.0
 21
3.9725
 31
0.0
210
0.0
220
0.0
230
1.0
 40
1.0
 41
0.0
 42
6.283185307179586
  0
SPLINE
  5
BE
330
1F
100
AcDbEntity
  8
layer 1
 62
     7
100
AcDbSpline
210
0.0
220
0.0
230
1.0
 70
    11
 71
     3
 72
    20
 73
    16
 74
     0
 42
0.0000000001
 43
0.0000000001
 12
1.0
 22
0.0
 32
0.0
 13
1.0
 23
0.0
 33
0.0
 40
0.0
 40
0.0
 40
0.0
 40
0.0
 40
0.2
 40
0.2
 40
0.2
 40
0.2
 40
0.4
 40
0.4
 40
0.4
 40
0.4
 40
0.6
 40
0.6
 40
0.6
 40
0.6
 40
1.0
 40
1.0
 40
1.0
 40
1.0
 10
-9.3026
 20
9.95
 30
0.0
 10
-8.9978
 20
5.7497
 30
0.0
 10
-6.953
 20
3.0186
 30
0.0
 10
-5.3215
 20
1.4336
 30
0.0
 10
-5.3215
 20
1.4336
 30
0.0
 10
-3.1991
 20
-0.5838
 30
0.0
 10
-0.2161
 20
-2.1045
 30
0.0
 10
2.9905
 20
-2.2209
 30
0.0
 10
2.9905
 20
-2.2209
 30
0.0
 10
2.8466
 20
0.7292
 30
0.0
 10
1.4823
 20
3.5372
 30
0.0
 10
-0.2817
 20
5.5561
 30
0.0
 10
-0.2817
 20
5.5561
 30
0.0
 10
-2.5011
 20
7.9688
 30
0.0
 10
-5.7054
 20
9.8207
 30
0.0
 10
-9.3026
 20
9.95
 30
0.0
  0
SPLINE
  5
BF
330
1F
100
AcDbEntity
  8
layer 1
 62
     7
100
AcDbSpline
210
0.0
220
0.0
230
1.0
 70
    11
 71
     3
 72
    20
 73
    16
 74
     0
 42
0.0000000001
 43
0.0000000001
 12
1.0
 22
0.0
 32
0.0
 13
1.0
 23
0.0
 33
0.0
 40
0.0
 40
0.0
 40
0.0
 40
0.0
 40
0.2
 40
0.2
 40
0.2
 40
0.2
 40
0.4
 40
0.4
 40
0.4
 40
0.4
 40
0.6
 40
0.6
 40
0.6
 40
0.6
 40
1.0
 40
1.0
 40
1.0
 40
1.0
 10
16.8957
 20
9.8964
 30
0.0
 10
16.5909
 20
5.6961
 30
0.0
 10
14.5461
 20
2.9651
 30
0.0
 10
12.9146
 20
1.3801
 30
0.0
 10
12.9146
 20
1.3801
 30
0.0
 10
10.7922
 20
-0.6373
 30
0.0
 10
7.8092
 20
-2.158
 30
0.0
 10
4.6026
 20
-2.2745
 30
0.0
 10
4.6026
 20
-2.2745
 30
0.0
 10
4.7465
 20
0.6757
 30
0.0
 10
6.1108
 20
3.4837
 30
0.0
 10
7.8748
 20
5.5026
 30
0.0
 10
7.8748
 20
5.5026
 30
0.0
 10
10.0942
 20
7.9153
 30
0.0
 10
13.2985
 20
9.7672
 30
0.0
 10
16.8957
 20
9.8964
 30
0.0
  0
ELLIPSE
  5
C0
330
1F
100
AcDbEntity
  8
layer 1
 62
     7
100
AcDbEllipse
 10
31.4661
 20
10.7988
 30
0.0
 11
0.0
 21
3.9725
 31
0.0
210
0.0
220
0.0
230
1.0
 40
1.0
 41
0.0
 42
6.283185307179586
  0
SPLINE
  5
C1
330
1F
100
AcDbEntity
  8
layer 1
 62
     7
100
AcDbSpline
210
0.0
220
0.0
230
1.0
 70
    11
 71
     3
 72
    20
 73
    16
 74
     0
 42
0.0000000001
 43
0.0000000001
 12
1.0
 22
0.0
 32
0.0
 13
1.0
 23
0.0
 33
0.0
 40
0.0
 40
0.0
 40
0.0
 40
0.0
 40
0.2
 40
0.2
 40
0.2
 40
0.2
 40
0.4
 40
0.4
 40
0.4
 40
0.4
 40
0.6
 40
0.6
 40
0.6
 40
0.6
 40
1.0
 40
1.0
 40
1.0
 40
1.0
 10
18.3889
 20
9.95
 30
0.0
 10
18.6937
 20
5.7497
 30
0.0
 10
20.7385
 20
3.0186
 30
0.0
 10
22.37
 20
1.4336
 30
0.0
 10
22.37
 20
1.4336
 30
0.0
 10
24.4923
 20
-0.5838
 30
0.0
 10
27.4753
 20
-2.1045
 30
0.0
 10
30.682
 20
-2.2209
 30
0.0
 10
30.682
 20
-2.2209
 30
0.0
 10
30.538
 20
0.7292
 30
0.0
 10
29.1738
 20
3.5372
 30
0.0
 10
27.4097
 20
5.5561
 30
0.0
 10
27.4097
 20
5.5561
 30
0.0
 10
25.1903
 20
7.9688
 30
0.0
 10
21.986
 20
9.8207
 30
0.0
 10
18.3889
 20
9.95
 30
0.0
  0
SPLINE
  5
C2
330
1F
100
AcDbEntity
  8
layer 1
 62
     7
100
AcDbSpline
210
0.0
220
0.0
230
1.0
 70
    11
 71
     3
 72
    20
 73
    16
 74
     0
 42
0.0000000001
 43
0.0000000001
 12
1.0
 22
0.0
 32
0.0
 13
1.0
 23
0.0
 33
0.0
 40
0.0
 40
0.0
 40
0.0
 40
0.0
 40
0.2
 40
0.2
 40
0.2
 40
0.2
 40
0.4
 40
0.4
 40
0.4
 40
0.4
 40
0.6
 40
0.6
 40
0.6
 40
0.6
 40
1.0
 40
1.0
 40
1.0
 40
1.0
 10
44.5871
 20
9.8964
 30
0.0
 10
44.2823
 20
5.6961
 30
0.0
 10
42.2375
 20
2.9651
 30
0.0
 10
40.606
 20
1.3801
 30
0.0
 10
40.606
 20
1.3801
 30
0.0
 10
38.4837
 20
-0.6373
 30
0.0
 10
35.5007
 20
-2.158
 30
0.0
 10
32.294
 20
-2.2745
 30
0.0
 10
32.294
 20
-2.2745
 30
0.0
 10
32.438
 20
0.6757
 30
0.0
 10
33.8022
 20
3.4837
 30
0.0
 10
35.5663
 20
5.5026
 30
0.0
 10
35.5663
 20
5.5026
 30
0.0
 10
37.7857
 20
7.9153
 30
0.0
 10
40.99
 20
9.7672
 30
0.0
 10
44.5871
 20
9.8964
 30
0.0
  0
ELLIPSE
  5
C3
330
1F
100
AcDbEntity
  8
layer 1
 62
     7
100
AcDbEllipse
 10
59.1738
 20
10.7988
 30
0.0
 11
0.0
 21
3.9725
 31
0.0
210
0.0
220
0.0
230
1.0
 40
1.0
 41
0.0
 42
6.283185307179586
  0
SPLINE
  5
C4
330
1F
100
AcDbEntity
  8
layer 1
 62
     7
100
AcDbSpline
210
0.0
220
0.0
230
1.0
 70
    11
 71
     3
 72
    20
 73
    16
 74
     0
 42
0.0000000001
 43
0.0000000001
 12
1.0
 22
0.0
 32
0.0
 13
1.0
 23
0.0
 33
0.0
 40
0.0
 40
0.0
 40
0.0
 40
0.0
 40
0.2
 40
0.2
 40
0.2
 40
0.2
 40
0.4
 40
0.4
 40
0.4
 40
0.4
 40
0.6
 40
0.6
 40
0.6
 40
0.6
 40
1.0
 40
1.0
 40
1.0
 40
1.0
 10
46.0819
 20
11.7283
 30
0.0
 10
46.3866
 20
15.9286
 30
0.0
 10
48.4315
 20
18.6596
 30
0.0
 10
50.0629
 20
20.2447
 30
0.0
 10
50.0629
 20
20.2447
 30
0.0
 10
52.1853
 20
22.262
 30
0.0
 10
55.1683
 20
23.7827
 30
0.0
 10
58.3749
 20
23.8992
 30
0.0
 10
58.3749
 20
23.8992
 30
0.0
 10
58.231
 20
20.9491
 30
0.0
 10
56.8667
 20
18.141
 30
0.0
 10
55.1027
 20
16.1222
 30
0.0
 10
55.1027
 20
16.1222
 30
0.0
 10
52.8833
 20
13.7095
 30
0.0
 10
49.679
 20
11.8575
 30
0.0
 10
46.0819
 20
11.7283
 30
0.0
  0
SPLINE
  5
C5
330
1F
100
AcDbEntity
  8
layer 1
 62
     7
100
AcDbSpline
210
0.0
220
0.0
230
1.0
 70
    11
 71
     3
 72
    20
 73
    16
 74
     0
 42
0.0000000001
 43
0.0000000001
 12
1.0
 22
0.0
 32
0.0
 13
1.0
 23
0.0
 33
0.0
 40
0.0
 40
0.0
 40
0.0
 40
0.0
 40
0.2
 40
0.2
 40
0.2
 40
0.2
 40
0.4
 40
0.4
 40
0.4
 40
0.4
 40
0.6
 40
0.6
 40
0.6
 40
0.6
 40
1.0
 40
1.0
 40
1.0
 40
1.0
 10
46.0966
 20
9.95
 30
0.0
 10
46.4013
 20
5.7497
 30
0.0
 10
48.4462
 20
3.0186
 30
0.0
 10
50.0776
 20
1.4336
 30
0.0
 10
50.0776
 20
1.4336
 30
0.0
 10
52.2
 20
-0.5838
 30
0.0
 10
55.183
 20
-2.1045
 30
0.0
 10
58.3896
 20
-2.2209
 30
0.0
 10
58.3896
 20
-2.2209
 30
0.0
 10
58.2457
 20
0.7292
 30
0.0
 10
56.8814
 20
3.5372
 30
0.0
 10
55.1174
 20
5.5561
 30
0.0
 10
55.1174
 20
5.5561
 30
0.0
 10
52.898
 20
7.9688
 30
0.0
 10
49.6937
 20
9.8207
 30
0.0
 10
46.0966
 20
9.95
 30
0.0
  0
SPLINE
  5
C6
330
1F
100
AcDbEntity
  8
layer 1
 62
     7
100
AcDbSpline
210
0.0
220
0.0
230
1.0
 70
    11
 71
     3
 72
    20
 73
    16
 74
     0
 42
0.0000000001
 43
0.0000000001
 12
1.0
 22
0.0
 32
0.0
 13
1.0
 23
0.0
 33
0.0
 40
0.0
 40
0.0
 40
0.0
 40
0.0
 40
0.2
 40
0.2
 40
0.2
 40
0.2
 40
0.4
 40
0.4
 40
0.4
 40
0.4
 40
0.6
 40
0.6
 40
0.6
 40
0.6
 40
1.0
 40
1.0
 40
1.0
 40
1.0
 10
72.2948
 20
9.8964
 30
0.0
 10
71.99
 20
5.6961
 30
0.0
 10
69.9452
 20
2.9651
 30
0.0
 10
68.3137
 20
1.3801
 30
0.0
 10
68.3137
 20
1.3801
 30
0.0
 10
66.1913
 20
-0.6373
 30
0.0
 10
63.2083
 20
-2.158
 30
0.0
 10
60.0017
 20
-2.2745
 30
0.0
 10
60.0017
 20
-2.2745
 30
0.0
 10
60.1456
 20
0.6757
 30
0.0
 10
61.5099
 20
3.4837
 30
0.0
 10
63.2739
 20
5.5026
 30
0.0
 10
63.2739
 20
5.5026
 30
0.0
 10
65.4933
 20
7.9153
 30
0.0
 10
68.6976
 20
9.7672
 30
0.0
 10
72.2948
 20
9.8964
 30
0.0
  0
SPLINE
  5
C7
330
1F
100
AcDbEntity
  8
layer 1
 62
     7
100
AcDbSpline
210
0.0
220
0.0
230
1.0
 70
    11
 71
     3
 72
    20
 73
    16
 74
     0
 42
0.0000000001
 43
0.0000000001
 12
1.0
 22
0.0
 32
0.0
 13
1.0
 23
0.0
 33
0.0
 40
0.0
 40
0.0
 40
0.0
 40
0.0
 40
0.2
 40
0.2
 40
0.2
 40
0.2
 40
0.4
 40
0.4
 40
0.4
 40
0.4
 40
0.6
 40
0.6
 40
0.6
 40
0.6
 40
1.0
 40
1.0
 40
1.0
 40
1.0
 10
-64.5261
 20
9.95
 30
0.0
 10
-64.2213
 20
5.7497
 30
0.0
 10
-62.1765
 20
3.0186
 30
0.0
 10
-60.545
 20
1.4336
 30
0.0
 10
-60.545
 20
1.4336
 30
0.0
 10
-58.4227
 20
-0.5838
 30
0.0
 10
-55.4397
 20
-2.1045
 30
0.0
 10
-52.233
 20
-2.2209
 30
0.0
 10
-52.233
 20
-2.2209
 30
0.0
 10
-52.377
 20
0.7292
 30
0.0
 10
-53.7413
 20
3.5372
 30
0.0
 10
-55.5053
 20
5.5561
 30
0.0
 10
-55.5053
 20
5.5561
 30
0.0
 10
-57.7247
 20
7.9688
 30
0.0
 10
-60.929
 20
9.8207
 30
0.0
 10
-64.5261
 20
9.95
 30
0.0
  0
ELLIPSE
  5
C8
330
1F
100
AcDbEntity
  8
layer 1
 62
     7
100
AcDbEllipse
 10
-37.7174
 20
24.7594
 30
0.0
 11
0.0
 21
3.9725
 31
0.0
210
0.0
220
0.0
230
1.0
 40
1.0
 41
0.0
 42
6.283185307179586
  0
ELLIPSE
  5
C9
330
1F
100
AcDbEntity
  8
layer 1
 62
     7
100
AcDbEllipse
 10
-51.4553
 20
-17.1098
 30
0.0
 11
0.0
 21
3.9725
 31
0.0
210
0.0
220
0.0
230
1.0
 40
1.0
 41
0.0
 42
6.283185307179586
  0
SPLINE
  5
CA
330
1F
100
AcDbEntity
  8
layer 1
 62
     7
100
AcDbSpline
210
0.0
220
0.0
230
1.0
 70
    11
 71
     3
 72
    16
 73
    12
 74
     0
 42
0.0000000001
 43
0.0000000001
 12
1.0
 22
0.0
 32
0.0
 13
1.0
 23
0.0
 33
0.0
 40
0.0
 40
0.0
 40
0.0
 40
0.0
 40
0.25
 40
0.25
 40
0.25
 40
0.25
 40
0.5
 40
0.5
 40
0.5
 40
0.5
 40
1.0
 40
1.0
 40
1.0
 40
1.0
 10
-65.407
 20
0.7655
 30
0.0
 10
-63.2133
 20
0.7655
 30
0.0
 10
-61.4344
 20
-1.0134
 30
0.0
 10
-61.4344
 20
-3.207
 30
0.0
 10
-61.4344
 20
-3.207
 30
0.0
 10
-61.4344
 20
-5.4007
 30
0.0
 10
-63.2133
 20
-7.1796
 30
0.0
 10
-65.407
 20
-7.1796
 30
0.0
 10
-65.407
 20
-7.1796
 30
0.0
 10
-65.407
 20
-7.1796
 30
0.0
 10
-65.407
 20
0.7655
 30
0.0
 10
-65.407
 20
0.7655
 30
0.0
  0
SPLINE
  5
CB
330
1F
100
AcDbEntity
  8
layer 1
 62
     7
100
AcDbSpline
210
0.0
220
0.0
230
1.0
 70
    11
 71
     3
 72
    20
 73
    16
 74
     0
 42
0.0000000001
 43
0.0000000001
 12
1.0
 22
0.0
 32
0.0
 13
1.0
 23
0.0
 33
0.0
 40
0.0
 40
0.0
 40
0.0
 40
0.0
 40
0.2
 40
0.2
 40
0.2
 40
0.2
 40
0.4
 40
0.4
 40
0.4
 40
0.4
 40
0.6
 40
0.6
 40
0.6
 40
0.6
 40
1.0
 40
1.0
 40
1.0
 40
1.0
 10
-52.286
 20
-4.1094
 30
0.0
 10
-52.5908
 20
-8.3097
 30
0.0
 10
-54.6356
 20
-11.0407
 30
0.0
 10
-56.2671
 20
-12.6257
 30
0.0
 10
-56.2671
 20
-12.6257
 30
0.0
 10
-58.3894
 20
-14.6431
 30
0.0
 10
-61.3724
 20
-16.1638
 30
0.0
 10
-64.5791
 20
-16.2803
 30
0.0
 10
-64.5791
 20
-16.2803
 30
0.0
 10
-64.4352
 20
-13.3301
 30
0.0
 10
-63.0709
 20
-10.5221
 30
0.0
 10
-61.3068
 20
-8.5032
 30
0.0
 10
-61.3068
 20
-8.5032
 30
0.0
 10
-59.0874
 20
-6.0905
 30
0.0
 10
-55.8831
 20
-4.2386
 30
0.0
 10
-52.286
 20
-4.1094
 30
0.0
  0
SPLINE
  5
CC
330
1F
100
AcDbEntity
  8
layer 1
 62
     7
100
AcDbSpline
210
0.0
220
0.0
230
1.0
 70
    11
 71
     3
 72
    20
 73
    16
 74
     0
 42
0.0000000001
 43
0.0000000001
 12
1.0
 22
0.0
 32
0.0
 13
1.0
 23
0.0
 33
0.0
 40
0.0
 40
0.0
 40
0.0
 40
0.0
 40
0.2
 40
0.2
 40
0.2
 40
0.2
 40
0.4
 40
0.4
 40
0.4
 40
0.4
 40
0.6
 40
0.6
 40
0.6
 40
0.6
 40
1.0
 40
1.0
 40
1.0
 40
1.0
 10
-50.7784
 20
-4.0558
 30
0.0
 10
-50.4736
 20
-8.2561
 30
0.0
 10
-48.4288
 20
-10.9872
 30
0.0
 10
-46.7973
 20
-12.5722
 30
0.0
 10
-46.7973
 20
-12.5722
 30
0.0
 10
-44.6749
 20
-14.5896
 30
0.0
 10
-41.6919
 20
-16.1103
 30
0.0
 10
-38.4853
 20
-16.2267
 30
0.0
 10
-38.4853
 20
-16.2267
 30
0.0
 10
-38.6292
 20
-13.2766
 30
0.0
 10
-39.9935
 20
-10.4686
 30
0.0
 10
-41.7575
 20
-8.4497
 30
0.0
 10
-41.7575
 20
-8.4497
 30
0.0
 10
-43.9769
 20
-6.037
 30
0.0
 10
-47.1812
 20
-4.1851
 30
0.0
 10
-50.7784
 20
-4.0558
 30
0.0
  0
SPLINE
  5
CD
330
1F
100
AcDbEntity
  8
layer 1
 62
     7
100
AcDbSpline
210
0.0
220
0.0
230
1.0
 70
    11
 71
     3
 72
    20
 73
    16
 74
     0
 42
0.0000000001
 43
0.0000000001
 12
1.0
 22
0.0
 32
0.0
 13
1.0
 23
0.0
 33
0.0
 40
0.0
 40
0.0
 40
0.0
 40
0.0
 40
0.2
 40
0.2
 40
0.2
 40
0.2
 40
0.4
 40
0.4
 40
0.4
 40
0.4
 40
0.6
 40
0.6
 40
0.6
 40
0.6
 40
1.0
 40
1.0
 40
1.0
 40
1.0
 10
-24.5801
 20
-4.1094
 30
0.0
 10
-24.8849
 20
-8.3097
 30
0.0
 10
-26.9297
 20
-11.0407
 30
0.0
 10
-28.5612
 20
-12.6257
 30
0.0
 10
-28.5612
 20
-12.6257
 30
0.0
 10
-30.6836
 20
-14.6431
 30
0.0
 10
-33.6666
 20
-16.1638
 30
0.0
 10
-36.8732
 20
-16.2803
 30
0.0
 10
-36.8732
 20
-16.2803
 30
0.0
 10
-36.7293
 20
-13.3301
 30
0.0
 10
-35.365
 20
-10.5221
 30
0.0
 10
-33.601
 20
-8.5032
 30
0.0
 10
-33.601
 20
-8.5032
 30
0.0
 10
-31.3816
 20
-6.0905
 30
0.0
 10
-28.1773
 20
-4.2386
 30
0.0
 10
-24.5801
 20
-4.1094
 30
0.0
  0
SPLINE
  5
CE
330
1F
100
AcDbEntity
  8
layer 1
 62
     7
100
AcDbSpline
210
0.0
220
0.0
230
1.0
 70
    11
 71
     3
 72
    16
 73
    12
 74
     0
 42
0.0000000001
 43
0.0000000001
 12
1.0
 22
0.0
 32
0.0
 13
1.0
 23
0.0
 33
0.0
 40
0.0
 40
0.0
 40
0.0
 40
0.0
 40
0.25
 40
0.25
 40
0.25
 40
0.25
 40
0.5
 40
0.5
 40
0.5
 40
0.5
 40
1.0
 40
1.0
 40
1.0
 40
1.0
 10
73.0946
 20
0.7655
 30
0.0
 10
73.0946
 20
0.7655
 30
0.0
 10
73.0946
 20
-7.1796
 30
0.0
 10
73.0946
 20
-7.1796
 30
0.0
 10
73.0946
 20
-7.1796
 30
0.0
 10
70.9009
 20
-7.1796
 30
0.0
 10
69.1221
 20
-5.4006
 30
0.0
 10
69.1221
 20
-3.207
 30
0.0
 10
69.1221
 20
-3.207
 30
0.0
 10
69.1221
 20
-1.0134
 30
0.0
 10
70.9009
 20
0.7655
 30
0.0
 10
73.0946
 20
0.7655
 30
0.0
  0
ELLIPSE
  5
CF
330
1F
100
AcDbEntity
  8
layer 1
 62
     7
100
AcDbEllipse
 10
-10.0427
 20
-3.207
 30
0.0
 11
0.0
 21
3.9725
 31
0.0
210
0.0
220
0.0
230
1.0
 40
1.0
 41
0.0
 42
6.283185307179586
  0
SPLINE
  5
D0
330
1F
100
AcDbEntity
  8
layer 1
 62
     7
100
AcDbSpline
210
0.0
220
0.0
230
1.0
 70
    11
 71
     3
 72
    20
 73
    16
 74
     0
 42
0.0000000001
 43
0.0000000001
 12
1.0
 22
0.0
 32
0.0
 13
1.0
 23
0.0
 33
0.0
 40
0.0
 40
0.0
 40
0.0
 40
0.0
 40
0.2
 40
0.2
 40
0.2
 40
0.2
 40
0.4
 40
0.4
 40
0.4
 40
0.4
 40
0.6
 40
0.6
 40
0.6
 40
0.6
 40
1.0
 40
1.0
 40
1.0
 40
1.0
 10
-23.1199
 20
-4.0558
 30
0.0
 10
-22.8151
 20
-8.2561
 30
0.0
 10
-20.7703
 20
-10.9872
 30
0.0
 10
-19.1388
 20
-12.5722
 30
0.0
 10
-19.1388
 20
-12.5722
 30
0.0
 10
-17.0165
 20
-14.5896
 30
0.0
 10
-14.0335
 20
-16.1103
 30
0.0
 10
-10.8268
 20
-16.2267
 30
0.0
 10
-10.8268
 20
-16.2267
 30
0.0
 10
-10.9708
 20
-13.2766
 30
0.0
 10
-12.3351
 20
-10.4686
 30
0.0
 10
-14.0991
 20
-8.4497
 30
0.0
 10
-14.0991
 20
-8.4497
 30
0.0
 10
-16.3185
 20
-6.037
 30
0.0
 10
-19.5228
 20
-4.1851
 30
0.0
 10
-23.1199
 20
-4.0558
 30
0.0
  0
SPLINE
  5
D1
330
1F
100
AcDbEntity
  8
layer 1
 62
     7
100
AcDbSpline
210
0.0
220
0.0
230
1.0
 70
    11
 71
     3
 72
    20
 73
    16
 74
     0
 42
0.0000000001
 43
0.0000000001
 12
1.0
 22
0.0
 32
0.0
 13
1.0
 23
0.0
 33
0.0
 40
0.0
 40
0.0
 40
0.0
 40
0.0
 40
0.2
 40
0.2
 40
0.2
 40
0.2
 40
0.4
 40
0.4
 40
0.4
 40
0.4
 40
0.6
 40
0.6
 40
0.6
 40
0.6
 40
1.0
 40
1.0
 40
1.0
 40
1.0
 10
3.0783
 20
-4.1094
 30
0.0
 10
2.7735
 20
-8.3097
 30
0.0
 10
0.7287
 20
-11.0407
 30
0.0
 10
-0.9028
 20
-12.6257
 30
0.0
 10
-0.9028
 20
-12.6257
 30
0.0
 10
-3.0251
 20
-14.6431
 30
0.0
 10
-6.0081
 20
-16.1638
 30
0.0
 10
-9.2148
 20
-16.2803
 30
0.0
 10
-9.2148
 20
-16.2803
 30
0.0
 10
-9.0709
 20
-13.3301
 30
0.0
 10
-7.7066
 20
-10.5221
 30
0.0
 10
-5.9425
 20
-8.5032
 30
0.0
 10
-5.9425
 20
-8.5032
 30
0.0
 10
-3.7231
 20
-6.0905
 30
0.0
 10
-0.5188
 20
-4.2386
 30
0.0
 10
3.0783
 20
-4.1094
 30
0.0
  0
ELLIPSE
  5
D2
330
1F
100
AcDbEntity
  8
layer 1
 62
     7
100
AcDbEllipse
 10
17.6487
 20
-3.207
 30
0.0
 11
0.0
 21
3.9725
 31
0.0
210
0.0
220
0.0
230
1.0
 40
1.0
 41
0.0
 42
6.283185307179586
  0
SPLINE
  5
D3
330
1F
100
AcDbEntity
  8
layer 1
 62
     7
100
AcDbSpline
210
0.0
220
0.0
230
1.0
 70
    11
 71
     3
 72
    20
 73
    16
 74
     0
 42
0.0000000001
 43
0.0000000001
 12
1.0
 22
0.0
 32
0.0
 13
1.0
 23
0.0
 33
0.0
 40
0.0
 40
0.0
 40
0.0
 40
0.0
 40
0.2
 40
0.2
 40
0.2
 40
0.2
 40
0.4
 40
0.4
 40
0.4
 40
0.4
 40
0.6
 40
0.6
 40
0.6
 40
0.6
 40
1.0
 40
1.0
 40
1.0
 40
1.0
 10
4.5715
 20
-4.0558
 30
0.0
 10
4.8763
 20
-8.2561
 30
0.0
 10
6.9211
 20
-10.9872
 30
0.0
 10
8.5526
 20
-12.5722
 30
0.0
 10
8.5526
 20
-12.5722
 30
0.0
 10
10.6749
 20
-14.5896
 30
0.0
 10
13.6579
 20
-16.1103
 30
0.0
 10
16.8646
 20
-16.2267
 30
0.0
 10
16.8646
 20
-16.2267
 30
0.0
 10
16.7207
 20
-13.2766
 30
0.0
 10
15.3564
 20
-10.4686
 30
0.0
 10
13.5923
 20
-8.4497
 30
0.0
 10
13.5923
 20
-8.4497
 30
0.0
 10
11.373
 20
-6.037
 30
0.0
 10
8.1686
 20
-4.1851
 30
0.0
 10
4.5715
 20
-4.0558
 30
0.0
  0
SPLINE
  5
D4
330
1F
100
AcDbEntity
  8
layer 1
 62
     7
100
AcDbSpline
210
0.0
220
0.0
230
1.0
 70
    11
 71
     3
 72
    20
 73
    16
 74
     0
 42
0.0000000001
 43
0.0000000001
 12
1.0
 22
0.0
 32
0.0
 13
1.0
 23
0.0
 33
0.0
 40
0.0
 40
0.0
 40
0.0
 40
0.0
 40
0.2
 40
0.2
 40
0.2
 40
0.2
 40
0.4
 40
0.4
 40
0.4
 40
0.4
 40
0.6
 40
0.6
 40
0.6
 40
0.6
 40
1.0
 40
1.0
 40
1.0
 40
1.0
 10
30.7697
 20
-4.1094
 30
0.0
 10
30.465
 20
-8.3097
 30
0.0
 10
28.4201
 20
-11.0407
 30
0.0
 10
26.7887
 20
-12.6257
 30
0.0
 10
26.7887
 20
-12.6257
 30
0.0
 10
24.6663
 20
-14.6431
 30
0.0
 10
21.6833
 20
-16.1638
 30
0.0
 10
18.4767
 20
-16.2803
 30
0.0
 10
18.4767
 20
-16.2803
 30
0.0
 10
18.6206
 20
-13.3301
 30
0.0
 10
19.9849
 20
-10.5221
 30
0.0
 10
21.7489
 20
-8.5032
 30
0.0
 10
21.7489
 20
-8.5032
 30
0.0
 10
23.9683
 20
-6.0905
 30
0.0
 10
27.1726
 20
-4.2386
 30
0.0
 10
30.7697
 20
-4.1094
 30
0.0
  0
ELLIPSE
  5
D5
330
1F
100
AcDbEntity
  8
layer 1
 62
     7
100
AcDbEllipse
 10
45.3564
 20
-3.207
 30
0.0
 11
0.0
 21
3.9725
 31
0.0
210
0.0
220
0.0
230
1.0
 40
1.0
 41
0.0
 42
6.283185307179586
  0
SPLINE
  5
D6
330
1F
100
AcDbEntity
  8
layer 1
 62
     7
100
AcDbSpline
210
0.0
220
0.0
230
1.0
 70
    11
 71
     3
 72
    20
 73
    16
 74
     0
 42
0.0000000001
 43
0.0000000001
 12
1.0
 22
0.0
 32
0.0
 13
1.0
 23
0.0
 33
0.0
 40
0.0
 40
0.0
 40
0.0
 40
0.0
 40
0.2
 40
0.2
 40
0.2
 40
0.2
 40
0.4
 40
0.4
 40
0.4
 40
0.4
 40
0.6
 40
0.6
 40
0.6
 40
0.6
 40
1.0
 40
1.0
 40
1.0
 40
1.0
 10
32.2792
 20
-4.0558
 30
0.0
 10
32.584
 20
-8.2561
 30
0.0
 10
34.6288
 20
-10.9872
 30
0.0
 10
36.2603
 20
-12.5722
 30
0.0
 10
36.2603
 20
-12.5722
 30
0.0
 10
38.3826
 20
-14.5896
 30
0.0
 10
41.3656
 20
-16.1103
 30
0.0
 10
44.5723
 20
-16.2267
 30
0.0
 10
44.5723
 20
-16.2267
 30
0.0
 10
44.4283
 20
-13.2766
 30
0.0
 10
43.064
 20
-10.4686
 30
0.0
 10
41.3
 20
-8.4497
 30
0.0
 10
41.3
 20
-8.4497
 30
0.0
 10
39.0806
 20
-6.037
 30
0.0
 10
35.8763
 20
-4.1851
 30
0.0
 10
32.2792
 20
-4.0558
 30
0.0
  0
SPLINE
  5
D7
330
1F
100
AcDbEntity
  8
layer 1
 62
     7
100
AcDbSpline
210
0.0
220
0.0
230
1.0
 70
    11
 71
     3
 72
    20
 73
    16
 74
     0
 42
0.0000000001
 43
0.0000000001
 12
1.0
 22
0.0
 32
0.0
 13
1.0
 23
0.0
 33
0.0
 40
0.0
 40
0.0
 40
0.0
 40
0.0
 40
0.2
 40
0.2
 40
0.2
 40
0.2
 40
0.4
 40
0.4
 40
0.4
 40
0.4
 40
0.6
 40
0.6
 40
0.6
 40
0.6
 40
1.0
 40
1.0
 40
1.0
 40
1.0
 10
60.0174
 20
-4.0558
 30
0.0
 10
60.3221
 20
-8.2561
 30
0.0
 10
62.367
 20
-10.9872
 30
0.0
 10
63.9984
 20
-12.5722
 30
0.0
 10
63.9984
 20
-12.5722
 30
0.0
 10
66.1208
 20
-14.5896
 30
0.0
 10
69.1038
 20
-16.1103
 30
0.0
 10
72.3104
 20
-16.2267
 30
0.0
 10
72.3104
 20
-16.2267
 30
0.0
 10
72.1665
 20
-13.2766
 30
0.0
 10
70.8022
 20
-10.4686
 30
0.0
 10
69.0382
 20
-8.4497
 30
0.0
 10
69.0382
 20
-8.4497
 30
0.0
 10
66.8188
 20
-6.037
 30
0.0
 10
63.6145
 20
-4.1851
 30
0.0
 10
60.0174
 20
-4.0558
 30
0.0
  0
SPLINE
  5
D8
330
1F
100
AcDbEntity
  8
layer 1
 62
     7
100
AcDbSpline
210
0.0
220
0.0
230
1.0
 70
    11
 71
     3
 72
    20
 73
    16
 74
     0
 42
0.0000000001
 43
0.0000000001
 12
1.0
 22
0.0
 32
0.0
 13
1.0
 23
0.0
 33
0.0
 40
0.0
 40
0.0
 40
0.0
 40
0.0
 40
0.2
 40
0.2
 40
0.2
 40
0.2
 40
0.4
 40
0.4
 40
0.4
 40
0.4
 40
0.6
 40
0.6
 40
0.6
 40
0.6
 40
1.0
 40
1.0
 40
1.0
 40
1.0
 10
-38.4548
 20
-18.07
 30
0.0
 10
-38.7596
 20
-22.2703
 30
0.0
 10
-40.8044
 20
-25.0013
 30
0.0
 10
-42.4359
 20
-26.5863
 30
0.0
 10
-42.4359
 20
-26.5863
 30
0.0
 10
-44.5582
 20
-28.6037
 30
0.0
 10
-47.5412
 20
-30.1244
 30
0.0
 10
-50.7479
 20
-30.2409
 30
0.0
 10
-50.7479
 20
-30.2409
 30
0.0
 10
-50.6039
 20
-27.2907
 30
0.0
 10
-49.2396
 20
-24.4827
 30
0.0
 10
-47.4756
 20
-22.4638
 30
0.0
 10
-47.4756
 20
-22.4638
 30
0.0
 10
-45.2562
 20
-20.0511
 30
0.0
 10
-42.0519
 20
-18.1992
 30
0.0
 10
-38.4548
 20
-18.07
 30
0.0
  0
ELLIPSE
  5
D9
330
1F
100
AcDbEntity
  8
layer 1
 62
     7
100
AcDbEllipse
 10
-23.8699
 20
-17.1676
 30
0.0
 11
0.0
 21
3.9725
 31
0.0
210
0.0
220
0.0
230
1.0
 40
1.0
 41
0.0
 42
6.283185307179586
  0
SPLINE
  5
DA
330
1F
100
AcDbEntity
  8
layer 1
 62
     7
100
AcDbSpline
210
0.0
220
0.0
230
1.0
 70
    11
 71
     3
 72
    20
 73
    16
 74
     0
 42
0.0000000001
 43
0.0000000001
 12
1.0
 22
0.0
 32
0.0
 13
1.0
 23
0.0
 33
0.0
 40
0.0
 40
0.0
 40
0.0
 40
0.0
 40
0.2
 40
0.2
 40
0.2
 40
0.2
 40
0.4
 40
0.4
 40
0.4
 40
0.4
 40
0.6
 40
0.6
 40
0.6
 40
0.6
 40
1.0
 40
1.0
 40
1.0
 40
1.0
 10
-36.9471
 20
-18.0164
 30
0.0
 10
-36.6424
 20
-22.2167
 30
0.0
 10
-34.5975
 20
-24.9478
 30
0.0
 10
-32.966
 20
-26.5328
 30
0.0
 10
-32.966
 20
-26.5328
 30
0.0
 10
-30.8437
 20
-28.5502
 30
0.0
 10
-27.8607
 20
-30.0709
 30
0.0
 10
-24.6541
 20
-30.1873
 30
0.0
 10
-24.6541
 20
-30.1873
 30
0.0
 10
-24.798
 20
-27.2372
 30
0.0
 10
-26.1623
 20
-24.4292
 30
0.0
 10
-27.9263
 20
-22.4103
 30
0.0
 10
-27.9263
 20
-22.4103
 30
0.0
 10
-30.1457
 20
-19.9976
 30
0.0
 10
-33.35
 20
-18.1457
 30
0.0
 10
-36.9471
 20
-18.0164
 30
0.0
  0
SPLINE
  5
DB
330
1F
100
AcDbEntity
  8
layer 1
 62
     7
100
AcDbSpline
210
0.0
220
0.0
230
1.0
 70
    11
 71
     3
 72
    20
 73
    16
 74
     0
 42
0.0000000001
 43
0.0000000001
 12
1.0
 22
0.0
 32
0.0
 13
1.0
 23
0.0
 33
0.0
 40
0.0
 40
0.0
 40
0.0
 40
0.0
 40
0.2
 40
0.2
 40
0.2
 40
0.2
 40
0.4
 40
0.4
 40
0.4
 40
0.4
 40
0.6
 40
0.6
 40
0.6
 40
0.6
 40
1.0
 40
1.0
 40
1.0
 40
1.0
 10
-10.7489
 20
-18.07
 30
0.0
 10
-11.0537
 20
-22.2703
 30
0.0
 10
-13.0985
 20
-25.0013
 30
0.0
 10
-14.73
 20
-26.5863
 30
0.0
 10
-14.73
 20
-26.5863
 30
0.0
 10
-16.8523
 20
-28.6037
 30
0.0
 10
-19.8353
 20
-30.1244
 30
0.0
 10
-23.042
 20
-30.2409
 30
0.0
 10
-23.042
 20
-30.2409
 30
0.0
 10
-22.8981
 20
-27.2907
 30
0.0
 10
-21.5338
 20
-24.4827
 30
0.0
 10
-19.7697
 20
-22.4638
 30
0.0
 10
-19.7697
 20
-22.4638
 30
0.0
 10
-17.5503
 20
-20.0511
 30
0.0
 10
-14.346
 20
-18.1992
 30
0.0
 10
-10.7489
 20
-18.07
 30
0.0
  0
ELLIPSE
  5
DC
330
1F
100
AcDbEntity
  8
layer 1
 62
     7
100
AcDbEllipse
 10
3.7885
 20
-17.1676
 30
0.0
 11
0.0
 21
3.9725
 31
0.0
210
0.0
220
0.0
230
1.0
 40
1.0
 41
0.0
 42
6.283185307179586
  0
SPLINE
  5
DD
330
1F
100
AcDbEntity
  8
layer 1
 62
     7
100
AcDbSpline
210
0.0
220
0.0
230
1.0
 70
    11
 71
     3
 72
    20
 73
    16
 74
     0
 42
0.0000000001
 43
0.0000000001
 12
1.0
 22
0.0
 32
0.0
 13
1.0
 23
0.0
 33
0.0
 40
0.0
 40
0.0
 40
0.0
 40
0.0
 40
0.2
 40
0.2
 40
0.2
 40
0.2
 40
0.4
 40
0.4
 40
0.4
 40
0.4
 40
0.6
 40
0.6
 40
0.6
 40
0.6
 40
1.0
 40
1.0
 40
1.0
 40
1.0
 10
-9.2887
 20
-18.0164
 30
0.0
 10
-8.9839
 20
-22.2167
 30
0.0
 10
-6.9391
 20
-24.9478
 30
0.0
 10
-5.3076
 20
-26.5328
 30
0.0
 10
-5.3076
 20
-26.5328
 30
0.0
 10
-3.1853
 20
-28.5502
 30
0.0
 10
-0.2023
 20
-30.0709
 30
0.0
 10
3.0044
 20
-30.1873
 30
0.0
 10
3.0044
 20
-30.1873
 30
0.0
 10
2.8605
 20
-27.2372
 30
0.0
 10
1.4962
 20
-24.4292
 30
0.0
 10
-0.2679
 20
-22.4103
 30
0.0
 10
-0.2679
 20
-22.4103
 30
0.0
 10
-2.4873
 20
-19.9976
 30
0.0
 10
-5.6916
 20
-18.1457
 30
0.0
 10
-9.2887
 20
-18.0164
 30
0.0
  0
SPLINE
  5
DE
330
1F
100
AcDbEntity
  8
layer 1
 62
     7
100
AcDbSpline
210
0.0
220
0.0
230
1.0
 70
    11
 71
     3
 72
    20
 73
    16
 74
     0
 42
0.0000000001
 43
0.0000000001
 12
1.0
 22
0.0
 32
0.0
 13
1.0
 23
0.0
 33
0.0
 40
0.0
 40
0.0
 40
0.0
 40
0.0
 40
0.2
 40
0.2
 40
0.2
 40
0.2
 40
0.4
 40
0.4
 40
0.4
 40
0.4
 40
0.6
 40
0.6
 40
0.6
 40
0.6
 40
1.0
 40
1.0
 40
1.0
 40
1.0
 10
16.9095
 20
-18.07
 30
0.0
 10
16.6047
 20
-22.2703
 30
0.0
 10
14.5599
 20
-25.0013
 30
0.0
 10
12.9284
 20
-26.5863
 30
0.0
 10
12.9284
 20
-26.5863
 30
0.0
 10
10.8061
 20
-28.6037
 30
0.0
 10
7.8231
 20
-30.1244
 30
0.0
 10
4.6164
 20
-30.2409
 30
0.0
 10
4.6164
 20
-30.2409
 30
0.0
 10
4.7604
 20
-27.2907
 30
0.0
 10
6.1247
 20
-24.4827
 30
0.0
 10
7.8887
 20
-22.4638
 30
0.0
 10
7.8887
 20
-22.4638
 30
0.0
 10
10.1081
 20
-20.0511
 30
0.0
 10
13.3124
 20
-18.1992
 30
0.0
 10
16.9095
 20
-18.07
 30
0.0
  0
ELLIPSE
  5
DF
330
1F
100
AcDbEntity
  8
layer 1
 62
     7
100
AcDbEllipse
 10
31.48
 20
-17.1676
 30
0.0
 11
0.0
 21
3.9725
 31
0.0
210
0.0
220
0.0
230
1.0
 40
1.0
 41
0.0
 42
6.283185307179586
  0
SPLINE
  5
E0
330
1F
100
AcDbEntity
  8
layer 1
 62
     7
100
AcDbSpline
210
0.0
220
0.0
230
1.0
 70
    11
 71
     3
 72
    20
 73
    16
 74
     0
 42
0.0000000001
 43
0.0000000001
 12
1.0
 22
0.0
 32
0.0
 13
1.0
 23
0.0
 33
0.0
 40
0.0
 40
0.0
 40
0.0
 40
0.0
 40
0.2
 40
0.2
 40
0.2
 40
0.2
 40
0.4
 40
0.4
 40
0.4
 40
0.4
 40
0.6
 40
0.6
 40
0.6
 40
0.6
 40
1.0
 40
1.0
 40
1.0
 40
1.0
 10
18.4028
 20
-18.0164
 30
0.0
 10
18.7075
 20
-22.2167
 30
0.0
 10
20.7524
 20
-24.9478
 30
0.0
 10
22.3838
 20
-26.5328
 30
0.0
 10
22.3838
 20
-26.5328
 30
0.0
 10
24.5062
 20
-28.5502
 30
0.0
 10
27.4892
 20
-30.0709
 30
0.0
 10
30.6958
 20
-30.1873
 30
0.0
 10
30.6958
 20
-30.1873
 30
0.0
 10
30.5519
 20
-27.2372
 30
0.0
 10
29.1876
 20
-24.4292
 30
0.0
 10
27.4236
 20
-22.4103
 30
0.0
 10
27.4236
 20
-22.4103
 30
0.0
 10
25.2042
 20
-19.9976
 30
0.0
 10
21.9999
 20
-18.1457
 30
0.0
 10
18.4028
 20
-18.0164
 30
0.0
  0
SPLINE
  5
E1
330
1F
100
AcDbEntity
  8
layer 1
 62
     7
100
AcDbSpline
210
0.0
220
0.0
230
1.0
 70
    11
 71
     3
 72
    20
 73
    16
 74
     0
 42
0.0000000001
 43
0.0000000001
 12
1.0
 22
0.0
 32
0.0
 13
1.0
 23
0.0
 33
0.0
 40
0.0
 40
0.0
 40
0.0
 40
0.0
 40
0.2
 40
0.2
 40
0.2
 40
0.2
 40
0.4
 40
0.4
 40
0.4
 40
0.4
 40
0.6
 40
0.6
 40
0.6
 40
0.6
 40
1.0
 40
1.0
 40
1.0
 40
1.0
 10
44.601
 20
-18.07
 30
0.0
 10
44.2962
 20
-22.2703
 30
0.0
 10
42.2514
 20
-25.0013
 30
0.0
 10
40.6199
 20
-26.5863
 30
0.0
 10
40.6199
 20
-26.5863
 30
0.0
 10
38.4975
 20
-28.6037
 30
0.0
 10
35.5145
 20
-30.1244
 30
0.0
 10
32.3079
 20
-30.2409
 30
0.0
 10
32.3079
 20
-30.2409
 30
0.0
 10
32.4518
 20
-27.2907
 30
0.0
 10
33.8161
 20
-24.4827
 30
0.0
 10
35.5801
 20
-22.4638
 30
0.0
 10
35.5801
 20
-22.4638
 30
0.0
 10
37.7995
 20
-20.0511
 30
0.0
 10
41.0038
 20
-18.1992
 30
0.0
 10
44.601
 20
-18.07
 30
0.0
  0
ELLIPSE
  5
E2
330
1F
100
AcDbEntity
  8
layer 1
 62
     7
100
AcDbEllipse
 10
59.1876
 20
-17.1676
 30
0.0
 11
0.0
 21
3.9725
 31
0.0
210
0.0
220
0.0
230
1.0
 40
1.0
 41
0.0
 42
6.283185307179586
  0
SPLINE
  5
E3
330
1F
100
AcDbEntity
  8
layer 1
 62
     7
100
AcDbSpline
210
0.0
220
0.0
230
1.0
 70
    11
 71
     3
 72
    20
 73
    16
 74
     0
 42
0.0000000001
 43
0.0000000001
 12
1.0
 22
0.0
 32
0.0
 13
1.0
 23
0.0
 33
0.0
 40
0.0
 40
0.0
 40
0.0
 40
0.0
 40
0.2
 40
0.2
 40
0.2
 40
0.2
 40
0.4
 40
0.4
 40
0.4
 40
0.4
 40
0.6
 40
0.6
 40
0.6
 40
0.6
 40
1.0
 40
1.0
 40
1.0
 40
1.0
 10
46.0957
 20
-16.2381
 30
0.0
 10
46.4005
 20
-12.0378
 30
0.0
 10
48.4453
 20
-9.3068
 30
0.0
 10
50.0768
 20
-7.7217
 30
0.0
 10
50.0768
 20
-7.7217
 30
0.0
 10
52.1991
 20
-5.7044
 30
0.0
 10
55.1821
 20
-4.1837
 30
0.0
 10
58.3888
 20
-4.0672
 30
0.0
 10
58.3888
 20
-4.0672
 30
0.0
 10
58.2449
 20
-7.0173
 30
0.0
 10
56.8806
 20
-9.8254
 30
0.0
 10
55.1165
 20
-11.8442
 30
0.0
 10
55.1165
 20
-11.8442
 30
0.0
 10
52.8971
 20
-14.2569
 30
0.0
 10
49.6928
 20
-16.1089
 30
0.0
 10
46.0957
 20
-16.2381
 30
0.0
  0
SPLINE
  5
E4
330
1F
100
AcDbEntity
  8
layer 1
 62
     7
100
AcDbSpline
210
0.0
220
0.0
230
1.0
 70
    11
 71
     3
 72
    20
 73
    16
 74
     0
 42
0.0000000001
 43
0.0000000001
 12
1.0
 22
0.0
 32
0.0
 13
1.0
 23
0.0
 33
0.0
 40
0.0
 40
0.0
 40
0.0
 40
0.0
 40
0.2
 40
0.2
 40
0.2
 40
0.2
 40
0.4
 40
0.4
 40
0.4
 40
0.4
 40
0.6
 40
0.6
 40
0.6
 40
0.6
 40
1.0
 40
1.0
 40
1.0
 40
1.0
 10
46.1104
 20
-18.0164
 30
0.0
 10
46.4152
 20
-22.2167
 30
0.0
 10
48.46
 20
-24.9478
 30
0.0
 10
50.0915
 20
-26.5328
 30
0.0
 10
50.0915
 20
-26.5328
 30
0.0
 10
52.2138
 20
-28.5502
 30
0.0
 10
55.1968
 20
-30.0709
 30
0.0
 10
58.4035
 20
-30.1873
 30
0.0
 10
58.4035
 20
-30.1873
 30
0.0
 10
58.2596
 20
-27.2372
 30
0.0
 10
56.8953
 20
-24.4292
 30
0.0
 10
55.1312
 20
-22.4103
 30
0.0
 10
55.1312
 20
-22.4103
 30
0.0
 10
52.9118
 20
-19.9976
 30
0.0
 10
49.7075
 20
-18.1457
 30
0.0
 10
46.1104
 20
-18.0164
 30
0.0
  0
SPLINE
  5
E5
330
1F
100
AcDbEntity
  8
layer 1
 62
     7
100
AcDbSpline
210
0.0
220
0.0
230
1.0
 70
    11
 71
     3
 72
    20
 73
    16
 74
     0
 42
0.0000000001
 43
0.0000000001
 12
1.0
 22
0.0
 32
0.0
 13
1.0
 23
0.0
 33
0.0
 40
0.0
 40
0.0
 40
0.0
 40
0.0
 40
0.2
 40
0.2
 40
0.2
 40
0.2
 40
0.4
 40
0.4
 40
0.4
 40
0.4
 40
0.6
 40
0.6
 40
0.6
 40
0.6
 40
1.0
 40
1.0
 40
1.0
 40
1.0
 10
72.3086
 20
-18.07
 30
0.0
 10
72.0038
 20
-22.2703
 30
0.0
 10
69.959
 20
-25.0013
 30
0.0
 10
68.3275
 20
-26.5863
 30
0.0
 10
68.3275
 20
-26.5863
 30
0.0
 10
66.2052
 20
-28.6037
 30
0.0
 10
63.2222
 20
-30.1244
 30
0.0
 10
60.0156
 20
-30.2409
 30
0.0
 10
60.0156
 20
-30.2409
 30
0.0
 10
60.1595
 20
-27.2907
 30
0.0
 10
61.5238
 20
-24.4827
 30
0.0
 10
63.2878
 20
-22.4638
 30
0.0
 10
63.2878
 20
-22.4638
 30
0.0
 10
65.5072
 20
-20.0511
 30
0.0
 10
68.7115
 20
-18.1992
 30
0.0
 10
72.3086
 20
-18.07
 30
0.0
  0
SPLINE
  5
E6
330
1F
100
AcDbEntity
  8
layer 1
 62
     7
100
AcDbSpline
210
0.0
220
0.0
230
1.0
 70
    11
 71
     3
 72
    20
 73
    16
 74
     0
 42
0.0000000001
 43
0.0000000001
 12
1.0
 22
0.0
 32
0.0
 13
1.0
 23
0.0
 33
0.0
 40
0.0
 40
0.0
 40
0.0
 40
0.0
 40
0.2
 40
0.2
 40
0.2
 40
0.2
 40
0.4
 40
0.4
 40
0.4
 40
0.4
 40
0.6
 40
0.6
 40
0.6
 40
0.6
 40
1.0
 40
1.0
 40
1.0
 40
1.0
 10
-64.5122
 20
-18.0164
 30
0.0
 10
-64.2075
 20
-22.2167
 30
0.0
 10
-62.1626
 20
-24.9478
 30
0.0
 10
-60.5312
 20
-26.5328
 30
0.0
 10
-60.5312
 20
-26.5328
 30
0.0
 10
-58.4088
 20
-28.5502
 30
0.0
 10
-55.4258
 20
-30.0709
 30
0.0
 10
-52.2192
 20
-30.1873
 30
0.0
 10
-52.2192
 20
-30.1873
 30
0.0
 10
-52.3631
 20
-27.2372
 30
0.0
 10
-53.7274
 20
-24.4292
 30
0.0
 10
-55.4914
 20
-22.4103
 30
0.0
 10
-55.4914
 20
-22.4103
 30
0.0
 10
-57.7108
 20
-19.9976
 30
0.0
 10
-60.9151
 20
-18.1457
 30
0.0
 10
-64.5122
 20
-18.0164
 30
0.0
  0
ELLIPSE
  5
E7
330
1F
100
AcDbEntity
  8
layer 1
 62
     7
100
AcDbEllipse
 10
-37.7035
 20
-3.207
 30
0.0
 11
0.0
 21
3.9725
 31
0.0
210
0.0
220
0.0
230
1.0
 40
1.0
 41
0.0
 42
6.283185307179586
  0
ELLIPSE
  5
E8
330
1F
100
AcDbEntity
  8
layer 1
 62
     7
100
AcDbEllipse
 10
-51.4553
 20
-45.1086
 30
0.0
 11
0.0
 21
3.9725
 31
0.0
210
0.0
220
0.0
230
1.0
 40
1.0
 41
0.0
 42
6.283185307179586
  0
SPLINE
  5
E9
330
1F
100
AcDbEntity
  8
layer 1
 62
     7
100
AcDbSpline
210
0.0
220
0.0
230
1.0
 70
    11
 71
     3
 72
    16
 73
    12
 74
     0
 42
0.0000000001
 43
0.0000000001
 12
1.0
 22
0.0
 32
0.0
 13
1.0
 23
0.0
 33
0.0
 40
0.0
 40
0.0
 40
0.0
 40
0.0
 40
0.25
 40
0.25
 40
0.25
 40
0.25
 40
0.5
 40
0.5
 40
0.5
 40
0.5
 40
1.0
 40
1.0
 40
1.0
 40
1.0
 10
-65.407
 20
-27.2333
 30
0.0
 10
-63.2133
 20
-27.2333
 30
0.0
 10
-61.4344
 20
-29.0122
 30
0.0
 10
-61.4344
 20
-31.2058
 30
0.0
 10
-61.4344
 20
-31.2058
 30
0.0
 10
-61.4344
 20
-33.3996
 30
0.0
 10
-63.2133
 20
-35.1784
 30
0.0
 10
-65.407
 20
-35.1784
 30
0.0
 10
-65.407
 20
-35.1784
 30
0.0
 10
-65.407
 20
-35.1784
 30
0.0
 10
-65.407
 20
-27.2333
 30
0.0
 10
-65.407
 20
-27.2333
 30
0.0
  0
SPLINE
  5
EA
330
1F
100
AcDbEntity
  8
layer 1
 62
     7
100
AcDbSpline
210
0.0
220
0.0
230
1.0
 70
    11
 71
     3
 72
    20
 73
    16
 74
     0
 42
0.0000000001
 43
0.0000000001
 12
1.0
 22
0.0
 32
0.0
 13
1.0
 23
0.0
 33
0.0
 40
0.0
 40
0.0
 40
0.0
 40
0.0
 40
0.2
 40
0.2
 40
0.2
 40
0.2
 40
0.4
 40
0.4
 40
0.4
 40
0.4
 40
0.6
 40
0.6
 40
0.6
 40
0.6
 40
1.0
 40
1.0
 40
1.0
 40
1.0
 10
-52.286
 20
-32.1082
 30
0.0
 10
-52.5908
 20
-36.3085
 30
0.0
 10
-54.6356
 20
-39.0396
 30
0.0
 10
-56.2671
 20
-40.6246
 30
0.0
 10
-56.2671
 20
-40.6246
 30
0.0
 10
-58.3894
 20
-42.642
 30
0.0
 10
-61.3724
 20
-44.1626
 30
0.0
 10
-64.5791
 20
-44.2791
 30
0.0
 10
-64.5791
 20
-44.2791
 30
0.0
 10
-64.4352
 20
-41.329
 30
0.0
 10
-63.0709
 20
-38.521
 30
0.0
 10
-61.3068
 20
-36.5021
 30
0.0
 10
-61.3068
 20
-36.5021
 30
0.0
 10
-59.0874
 20
-34.0894
 30
0.0
 10
-55.8831
 20
-32.2374
 30
0.0
 10
-52.286
 20
-32.1082
 30
0.0
  0
SPLINE
  5
EB
330
1F
100
AcDbEntity
  8
layer 1
 62
     7
100
AcDbSpline
210
0.0
220
0.0
230
1.0
 70
    11
 71
     3
 72
    20
 73
    16
 74
     0
 42
0.0000000001
 43
0.0000000001
 12
1.0
 22
0.0
 32
0.0
 13
1.0
 23
0.0
 33
0.0
 40
0.0
 40
0.0
 40
0.0
 40
0.0
 40
0.2
 40
0.2
 40
0.2
 40
0.2
 40
0.4
 40
0.4
 40
0.4
 40
0.4
 40
0.6
 40
0.6
 40
0.6
 40
0.6
 40
1.0
 40
1.0
 40
1.0
 40
1.0
 10
-50.7784
 20
-32.0547
 30
0.0
 10
-50.4736
 20
-36.255
 30
0.0
 10
-48.4288
 20
-38.986
 30
0.0
 10
-46.7973
 20
-40.5711
 30
0.0
 10
-46.7973
 20
-40.5711
 30
0.0
 10
-44.6749
 20
-42.5884
 30
0.0
 10
-41.6919
 20
-44.1091
 30
0.0
 10
-38.4853
 20
-44.2256
 30
0.0
 10
-38.4853
 20
-44.2256
 30
0.0
 10
-38.6292
 20
-41.2755
 30
0.0
 10
-39.9935
 20
-38.4675
 30
0.0
 10
-41.7575
 20
-36.4486
 30
0.0
 10
-41.7575
 20
-36.4486
 30
0.0
 10
-43.9769
 20
-34.0359
 30
0.0
 10
-47.1812
 20
-32.1839
 30
0.0
 10
-50.7784
 20
-32.0547
 30
0.0
  0
SPLINE
  5
EC
330
1F
100
AcDbEntity
  8
layer 1
 62
     7
100
AcDbSpline
210
0.0
220
0.0
230
1.0
 70
    11
 71
     3
 72
    20
 73
    16
 74
     0
 42
0.0000000001
 43
0.0000000001
 12
1.0
 22
0.0
 32
0.0
 13
1.0
 23
0.0
 33
0.0
 40
0.0
 40
0.0
 40
0.0
 40
0.0
 40
0.2
 40
0.2
 40
0.2
 40
0.2
 40
0.4
 40
0.4
 40
0.4
 40
0.4
 40
0.6
 40
0.6
 40
0.6
 40
0.6
 40
1.0
 40
1.0
 40
1.0
 40
1.0
 10
-24.5801
 20
-32.1082
 30
0.0
 10
-24.8849
 20
-36.3085
 30
0.0
 10
-26.9297
 20
-39.0396
 30
0.0
 10
-28.5612
 20
-40.6246
 30
0.0
 10
-28.5612
 20
-40.6246
 30
0.0
 10
-30.6836
 20
-42.642
 30
0.0
 10
-33.6666
 20
-44.1626
 30
0.0
 10
-36.8732
 20
-44.2791
 30
0.0
 10
-36.8732
 20
-44.2791
 30
0.0
 10
-36.7293
 20
-41.329
 30
0.0
 10
-35.365
 20
-38.521
 30
0.0
 10
-33.601
 20
-36.5021
 30
0.0
 10
-33.601
 20
-36.5021
 30
0.0
 10
-31.3816
 20
-34.0894
 30
0.0
 10
-28.1773
 20
-32.2374
 30
0.0
 10
-24.5801
 20
-32.1082
 30
0.0
  0
SPLINE
  5
ED
330
1F
100
AcDbEntity
  8
layer 1
 62
     7
100
AcDbSpline
210
0.0
220
0.0
230
1.0
 70
    11
 71
     3
 72
    16
 73
    12
 74
     0
 42
0.0000000001
 43
0.0000000001
 12
1.0
 22
0.0
 32
0.0
 13
1.0
 23
0.0
 33
0.0
 40
0.0
 40
0.0
 40
0.0
 40
0.0
 40
0.25
 40
0.25
 40
0.25
 40
0.25
 40
0.5
 40
0.5
 40
0.5
 40
0.5
 40
1.0
 40
1.0
 40
1.0
 40
1.0
 10
73.0946
 20
-27.2333
 30
0.0
 10
73.0946
 20
-27.2333
 30
0.0
 10
73.0946
 20
-35.1784
 30
0.0
 10
73.0946
 20
-35.1784
 30
0.0
 10
73.0946
 20
-35.1784
 30
0.0
 10
70.9009
 20
-35.1784
 30
0.0
 10
69.1221
 20
-33.3994
 30
0.0
 10
69.1221
 20
-31.2058
 30
0.0
 10
69.1221
 20
-31.2058
 30
0.0
 10
69.1221
 20
-29.0122
 30
0.0
 10
70.9009
 20
-27.2333
 30
0.0
 10
73.0946
 20
-27.2333
 30
0.0
  0
ELLIPSE
  5
EE
330
1F
100
AcDbEntity
  8
layer 1
 62
     7
100
AcDbEllipse
 10
-10.0427
 20
-31.2058
 30
0.0
 11
0.0
 21
3.9725
 31
0.0
210
0.0
220
0.0
230
1.0
 40
1.0
 41
0.0
 42
6.283185307179586
  0
SPLINE
  5
EF
330
1F
100
AcDbEntity
  8
layer 1
 62
     7
100
AcDbSpline
210
0.0
220
0.0
230
1.0
 70
    11
 71
     3
 72
    20
 73
    16
 74
     0
 42
0.0000000001
 43
0.0000000001
 12
1.0
 22
0.0
 32
0.0
 13
1.0
 23
0.0
 33
0.0
 40
0.0
 40
0.0
 40
0.0
 40
0.0
 40
0.2
 40
0.2
 40
0.2
 40
0.2
 40
0.4
 40
0.4
 40
0.4
 40
0.4
 40
0.6
 40
0.6
 40
0.6
 40
0.6
 40
1.0
 40
1.0
 40
1.0
 40
1.0
 10
-23.1199
 20
-32.0547
 30
0.0
 10
-22.8151
 20
-36.255
 30
0.0
 10
-20.7703
 20
-38.986
 30
0.0
 10
-19.1388
 20
-40.5711
 30
0.0
 10
-19.1388
 20
-40.5711
 30
0.0
 10
-17.0165
 20
-42.5884
 30
0.0
 10
-14.0335
 20
-44.1091
 30
0.0
 10
-10.8268
 20
-44.2256
 30
0.0
 10
-10.8268
 20
-44.2256
 30
0.0
 10
-10.9708
 20
-41.2755
 30
0.0
 10
-12.3351
 20
-38.4675
 30
0.0
 10
-14.0991
 20
-36.4486
 30
0.0
 10
-14.0991
 20
-36.4486
 30
0.0
 10
-16.3185
 20
-34.0359
 30
0.0
 10
-19.5228
 20
-32.1839
 30
0.0
 10
-23.1199
 20
-32.0547
 30
0.0
  0
SPLINE
  5
F0
330
1F
100
AcDbEntity
  8
layer 1
 62
     7
100
AcDbSpline
210
0.0
220
0.0
230
1.0
 70
    11
 71
     3
 72
    20
 73
    16
 74
     0
 42
0.0000000001
 43
0.0000000001
 12
1.0
 22
0.0
 32
0.0
 13
1.0
 23
0.0
 33
0.0
 40
0.0
 40
0.0
 40
0.0
 40
0.0
 40
0.2
 40
0.2
 40
0.2
 40
0.2
 40
0.4
 40
0.4
 40
0.4
 40
0.4
 40
0.6
 40
0.6
 40
0.6
 40
0.6
 40
1.0
 40
1.0
 40
1.0
 40
1.0
 10
3.0783
 20
-32.1082
 30
0.0
 10
2.7735
 20
-36.3085
 30
0.0
 10
0.7287
 20
-39.0396
 30
0.0
 10
-0.9028
 20
-40.6246
 30
0.0
 10
-0.9028
 20
-40.6246
 30
0.0
 10
-3.0251
 20
-42.642
 30
0.0
 10
-6.0081
 20
-44.1626
 30
0.0
 10
-9.2148
 20
-44.2791
 30
0.0
 10
-9.2148
 20
-44.2791
 30
0.0
 10
-9.0709
 20
-41.329
 30
0.0
 10
-7.7066
 20
-38.521
 30
0.0
 10
-5.9425
 20
-36.5021
 30
0.0
 10
-5.9425
 20
-36.5021
 30
0.0
 10
-3.7231
 20
-34.0894
 30
0.0
 10
-0.5188
 20
-32.2374
 30
0.0
 10
3.0783
 20
-32.1082
 30
0.0
  0
ELLIPSE
  5
F1
330
1F
100
AcDbEntity
  8
layer 1
 62
     7
100
AcDbEllipse
 10
17.6487
 20
-31.2058
 30
0.0
 11
0.0
 21
3.9725
 31
0.0
210
0.0
220
0.0
230
1.0
 40
1.0
 41
0.0
 42
6.283185307179586
  0
SPLINE
  5
F2
330
1F
100
AcDbEntity
  8
layer 1
 62
     7
100
AcDbSpline
210
0.0
220
0.0
230
1.0
 70
    11
 71
     3
 72
    20
 73
    16
 74
     0
 42
0.0000000001
 43
0.0000000001
 12
1.0
 22
0.0
 32
0.0
 13
1.0
 23
0.0
 33
0.0
 40
0.0
 40
0.0
 40
0.0
 40
0.0
 40
0.2
 40
0.2
 40
0.2
 40
0.2
 40
0.4
 40
0.4
 40
0.4
 40
0.4
 40
0.6
 40
0.6
 40
0.6
 40
0.6
 40
1.0
 40
1.0
 40
1.0
 40
1.0
 10
4.5715
 20
-32.0547
 30
0.0
 10
4.8763
 20
-36.255
 30
0.0
 10
6.9211
 20
-38.986
 30
0.0
 10
8.5526
 20
-40.5711
 30
0.0
 10
8.5526
 20
-40.5711
 30
0.0
 10
10.6749
 20
-42.5884
 30
0.0
 10
13.6579
 20
-44.1091
 30
0.0
 10
16.8646
 20
-44.2256
 30
0.0
 10
16.8646
 20
-44.2256
 30
0.0
 10
16.7207
 20
-41.2755
 30
0.0
 10
15.3564
 20
-38.4675
 30
0.0
 10
13.5923
 20
-36.4486
 30
0.0
 10
13.5923
 20
-36.4486
 30
0.0
 10
11.373
 20
-34.0359
 30
0.0
 10
8.1686
 20
-32.1839
 30
0.0
 10
4.5715
 20
-32.0547
 30
0.0
  0
SPLINE
  5
F3
330
1F
100
AcDbEntity
  8
layer 1
 62
     7
100
AcDbSpline
210
0.0
220
0.0
230
1.0
 70
    11
 71
     3
 72
    20
 73
    16
 74
     0
 42
0.0000000001
 43
0.0000000001
 12
1.0
 22
0.0
 32
0.0
 13
1.0
 23
0.0
 33
0.0
 40
0.0
 40
0.0
 40
0.0
 40
0.0
 40
0.2
 40
0.2
 40
0.2
 40
0.2
 40
0.4
 40
0.4
 40
0.4
 40
0.4
 40
0.6
 40
0.6
 40
0.6
 40
0.6
 40
1.0
 40
1.0
 40
1.0
 40
1.0
 10
30.7697
 20
-32.1082
 30
0.0
 10
30.465
 20
-36.3085
 30
0.0
 10
28.4201
 20
-39.0396
 30
0.0
 10
26.7887
 20
-40.6246
 30
0.0
 10
26.7887
 20
-40.6246
 30
0.0
 10
24.6663
 20
-42.642
 30
0.0
 10
21.6833
 20
-44.1626
 30
0.0
 10
18.4767
 20
-44.2791
 30
0.0
 10
18.4767
 20
-44.2791
 30
0.0
 10
18.6206
 20
-41.329
 30
0.0
 10
19.9849
 20
-38.521
 30
0.0
 10
21.7489
 20
-36.5021
 30
0.0
 10
21.7489
 20
-36.5021
 30
0.0
 10
23.9683
 20
-34.0894
 30
0.0
 10
27.1726
 20
-32.2374
 30
0.0
 10
30.7697
 20
-32.1082
 30
0.0
  0
ELLIPSE
  5
F4
330
1F
100
AcDbEntity
  8
layer 1
 62
     7
100
AcDbEllipse
 10
45.3564
 20
-31.2058
 30
0.0
 11
0.0
 21
3.9725
 31
0.0
210
0.0
220
0.0
230
1.0
 40
1.0
 41
0.0
 42
6.283185307179586
  0
SPLINE
  5
F5
330
1F
100
AcDbEntity
  8
layer 1
 62
     7
100
AcDbSpline
210
0.0
220
0.0
230
1.0
 70
    11
 71
     3
 72
    20
 73
    16
 74
     0
 42
0.0000000001
 43
0.0000000001
 12
1.0
 22
0.0
 32
0.0
 13
1.0
 23
0.0
 33
0.0
 40
0.0
 40
0.0
 40
0.0
 40
0.0
 40
0.2
 40
0.2
 40
0.2
 40
0.2
 40
0.4
 40
0.4
 40
0.4
 40
0.4
 40
0.6
 40
0.6
 40
0.6
 40
0.6
 40
1.0
 40
1.0
 40
1.0
 40
1.0
 10
32.2792
 20
-32.0547
 30
0.0
 10
32.584
 20
-36.255
 30
0.0
 10
34.6288
 20
-38.986
 30
0.0
 10
36.2603
 20
-40.5711
 30
0.0
 10
36.2603
 20
-40.5711
 30
0.0
 10
38.3826
 20
-42.5884
 30
0.0
 10
41.3656
 20
-44.1091
 30
0.0
 10
44.5723
 20
-44.2256
 30
0.0
 10
44.5723
 20
-44.2256
 30
0.0
 10
44.4283
 20
-41.2755
 30
0.0
 10
43.064
 20
-38.4675
 30
0.0
 10
41.3
 20
-36.4486
 30
0.0
 10
41.3
 20
-36.4486
 30
0.0
 10
39.0806
 20
-34.0359
 30
0.0
 10
35.8763
 20
-32.1839
 30
0.0
 10
32.2792
 20
-32.0547
 30
0.0
  0
SPLINE
  5
F6
330
1F
100
AcDbEntity
  8
layer 1
 62
     7
100
AcDbSpline
210
0.0
220
0.0
230
1.0
 70
    11
 71
     3
 72
    20
 73
    16
 74
     0
 42
0.0000000001
 43
0.0000000001
 12
1.0
 22
0.0
 32
0.0
 13
1.0
 23
0.0
 33
0.0
 40
0.0
 40
0.0
 40
0.0
 40
0.0
 40
0.2
 40
0.2
 40
0.2
 40
0.2
 40
0.4
 40
0.4
 40
0.4
 40
0.4
 40
0.6
 40
0.6
 40
0.6
 40
0.6
 40
1.0
 40
1.0
 40
1.0
 40
1.0
 10
60.0174
 20
-32.0547
 30
0.0
 10
60.3221
 20
-36.255
 30
0.0
 10
62.367
 20
-38.986
 30
0.0
 10
63.9984
 20
-40.5711
 30
0.0
 10
63.9984
 20
-40.5711
 30
0.0
 10
66.1208
 20
-42.5884
 30
0.0
 10
69.1038
 20
-44.1091
 30
0.0
 10
72.3104
 20
-44.2256
 30
0.0
 10
72.3104
 20
-44.2256
 30
0.0
 10
72.1665
 20
-41.2755
 30
0.0
 10
70.8022
 20
-38.4675
 30
0.0
 10
69.0382
 20
-36.4486
 30
0.0
 10
69.0382
 20
-36.4486
 30
0.0
 10
66.8188
 20
-34.0359
 30
0.0
 10
63.6145
 20
-32.1839
 30
0.0
 10
60.0174
 20
-32.0547
 30
0.0
  0
SPLINE
  5
F7
330
1F
100
AcDbEntity
  8
layer 1
 62
     7
100
AcDbSpline
210
0.0
220
0.0
230
1.0
 70
    11
 71
     3
 72
    20
 73
    16
 74
     0
 42
0.0000000001
 43
0.0000000001
 12
1.0
 22
0.0
 32
0.0
 13
1.0
 23
0.0
 33
0.0
 40
0.0
 40
0.0
 40
0.0
 40
0.0
 40
0.2
 40
0.2
 40
0.2
 40
0.2
 40
0.4
 40
0.4
 40
0.4
 40
0.4
 40
0.6
 40
0.6
 40
0.6
 40
0.6
 40
1.0
 40
1.0
 40
1.0
 40
1.0
 10
-38.4548
 20
-46.0688
 30
0.0
 10
-38.7596
 20
-50.2691
 30
0.0
 10
-40.8044
 20
-53.0002
 30
0.0
 10
-42.4359
 20
-54.5852
 30
0.0
 10
-42.4359
 20
-54.5852
 30
0.0
 10
-44.5582
 20
-56.6026
 30
0.0
 10
-47.5412
 20
-58.1232
 30
0.0
 10
-50.7479
 20
-58.2397
 30
0.0
 10
-50.7479
 20
-58.2397
 30
0.0
 10
-50.6039
 20
-55.2896
 30
0.0
 10
-49.2396
 20
-52.4816
 30
0.0
 10
-47.4756
 20
-50.4627
 30
0.0
 10
-47.4756
 20
-50.4627
 30
0.0
 10
-45.2562
 20
-48.05
 30
0.0
 10
-42.0519
 20
-46.198
 30
0.0
 10
-38.4548
 20
-46.0688
 30
0.0
  0
ELLIPSE
  5
F8
330
1F
100
AcDbEntity
  8
layer 1
 62
     7
100
AcDbEllipse
 10
-23.8699
 20
-45.1664
 30
0.0
 11
0.0
 21
3.9725
 31
0.0
210
0.0
220
0.0
230
1.0
 40
1.0
 41
0.0
 42
6.283185307179586
  0
SPLINE
  5
F9
330
1F
100
AcDbEntity
  8
layer 1
 62
     7
100
AcDbSpline
210
0.0
220
0.0
230
1.0
 70
    11
 71
     3
 72
    20
 73
    16
 74
     0
 42
0.0000000001
 43
0.0000000001
 12
1.0
 22
0.0
 32
0.0
 13
1.0
 23
0.0
 33
0.0
 40
0.0
 40
0.0
 40
0.0
 40
0.0
 40
0.2
 40
0.2
 40
0.2
 40
0.2
 40
0.4
 40
0.4
 40
0.4
 40
0.4
 40
0.6
 40
0.6
 40
0.6
 40
0.6
 40
1.0
 40
1.0
 40
1.0
 40
1.0
 10
-36.9471
 20
-46.0153
 30
0.0
 10
-36.6424
 20
-50.2156
 30
0.0
 10
-34.5975
 20
-52.9466
 30
0.0
 10
-32.966
 20
-54.5317
 30
0.0
 10
-32.966
 20
-54.5317
 30
0.0
 10
-30.8437
 20
-56.549
 30
0.0
 10
-27.8607
 20
-58.0697
 30
0.0
 10
-24.6541
 20
-58.1862
 30
0.0
 10
-24.6541
 20
-58.1862
 30
0.0
 10
-24.798
 20
-55.2361
 30
0.0
 10
-26.1623
 20
-52.4281
 30
0.0
 10
-27.9263
 20
-50.4092
 30
0.0
 10
-27.9263
 20
-50.4092
 30
0.0
 10
-30.1457
 20
-47.9965
 30
0.0
 10
-33.35
 20
-46.1445
 30
0.0
 10
-36.9471
 20
-46.0153
 30
0.0
  0
SPLINE
  5
FA
330
1F
100
AcDbEntity
  8
layer 1
 62
     7
100
AcDbSpline
210
0.0
220
0.0
230
1.0
 70
    11
 71
     3
 72
    20
 73
    16
 74
     0
 42
0.0000000001
 43
0.0000000001
 12
1.0
 22
0.0
 32
0.0
 13
1.0
 23
0.0
 33
0.0
 40
0.0
 40
0.0
 40
0.0
 40
0.0
 40
0.2
 40
0.2
 40
0.2
 40
0.2
 40
0.4
 40
0.4
 40
0.4
 40
0.4
 40
0.6
 40
0.6
 40
0.6
 40
0.6
 40
1.0
 40
1.0
 40
1.0
 40
1.0
 10
-10.7489
 20
-46.0688
 30
0.0
 10
-11.0537
 20
-50.2691
 30
0.0
 10
-13.0985
 20
-53.0002
 30
0.0
 10
-14.73
 20
-54.5852
 30
0.0
 10
-14.73
 20
-54.5852
 30
0.0
 10
-16.8523
 20
-56.6026
 30
0.0
 10
-19.8353
 20
-58.1232
 30
0.0
 10
-23.042
 20
-58.2397
 30
0.0
 10
-23.042
 20
-58.2397
 30
0.0
 10
-22.8981
 20
-55.2896
 30
0.0
 10
-21.5338
 20
-52.4816
 30
0.0
 10
-19.7697
 20
-50.4627
 30
0.0
 10
-19.7697
 20
-50.4627
 30
0.0
 10
-17.5503
 20
-48.05
 30
0.0
 10
-14.346
 20
-46.198
 30
0.0
 10
-10.7489
 20
-46.0688
 30
0.0
  0
ELLIPSE
  5
FB
330
1F
100
AcDbEntity
  8
layer 1
 62
     7
100
AcDbEllipse
 10
3.7885
 20
-45.1664
 30
0.0
 11
0.0
 21
3.9725
 31
0.0
210
0.0
220
0.0
230
1.0
 40
1.0
 41
0.0
 42
6.283185307179586
  0
SPLINE
  5
FC
330
1F
100
AcDbEntity
  8
layer 1
 62
     7
100
AcDbSpline
210
0.0
220
0.0
230
1.0
 70
    11
 71
     3
 72
    20
 73
    16
 74
     0
 42
0.0000000001
 43
0.0000000001
 12
1.0
 22
0.0
 32
0.0
 13
1.0
 23
0.0
 33
0.0
 40
0.0
 40
0.0
 40
0.0
 40
0.0
 40
0.2
 40
0.2
 40
0.2
 40
0.2
 40
0.4
 40
0.4
 40
0.4
 40
0.4
 40
0.6
 40
0.6
 40
0.6
 40
0.6
 40
1.0
 40
1.0
 40
1.0
 40
1.0
 10
-9.2887
 20
-46.0153
 30
0.0
 10
-8.9839
 20
-50.2156
 30
0.0
 10
-6.9391
 20
-52.9466
 30
0.0
 10
-5.3076
 20
-54.5317
 30
0.0
 10
-5.3076
 20
-54.5317
 30
0.0
 10
-3.1853
 20
-56.549
 30
0.0
 10
-0.2023
 20
-58.0697
 30
0.0
 10
3.0044
 20
-58.1862
 30
0.0
 10
3.0044
 20
-58.1862
 30
0.0
 10
2.8605
 20
-55.2361
 30
0.0
 10
1.4962
 20
-52.4281
 30
0.0
 10
-0.2679
 20
-50.4092
 30
0.0
 10
-0.2679
 20
-50.4092
 30
0.0
 10
-2.4873
 20
-47.9965
 30
0.0
 10
-5.6916
 20
-46.1445
 30
0.0
 10
-9.2887
 20
-46.0153
 30
0.0
  0
SPLINE
  5
FD
330
1F
100
AcDbEntity
  8
layer 1
 62
     7
100
AcDbSpline
210
0.0
220
0.0
230
1.0
 70
    11
 71
     3
 72
    20
 73
    16
 74
     0
 42
0.0000000001
 43
0.0000000001
 12
1.0
 22
0.0
 32
0.0
 13
1.0
 23
0.0
 33
0.0
 40
0.0
 40
0.0
 40
0.0
 40
0.0
 40
0.2
 40
0.2
 40
0.2
 40
0.2
 40
0.4
 40
0.4
 40
0.4
 40
0.4
 40
0.6
 40
0.6
 40
0.6
 40
0.6
 40
1.0
 40
1.0
 40
1.0
 40
1.0
 10
16.9095
 20
-46.0688
 30
0.0
 10
16.6047
 20
-50.2691
 30
0.0
 10
14.5599
 20
-53.0002
 30
0.0
 10
12.9284
 20
-54.5852
 30
0.0
 10
12.9284
 20
-54.5852
 30
0.0
 10
10.8061
 20
-56.6026
 30
0.0
 10
7.8231
 20
-58.1232
 30
0.0
 10
4.6164
 20
-58.2397
 30
0.0
 10
4.6164
 20
-58.2397
 30
0.0
 10
4.7604
 20
-55.2896
 30
0.0
 10
6.1247
 20
-52.4816
 30
0.0
 10
7.8887
 20
-50.4627
 30
0.0
 10
7.8887
 20
-50.4627
 30
0.0
 10
10.1081
 20
-48.05
 30
0.0
 10
13.3124
 20
-46.198
 30
0.0
 10
16.9095
 20
-46.0688
 30
0.0
  0
ELLIPSE
  5
FE
330
1F
100
AcDbEntity
  8
layer 1
 62
     7
100
AcDbEllipse
 10
31.48
 20
-45.1664
 30
0.0
 11
0.0
 21
3.9725
 31
0.0
210
0.0
220
0.0
230
1.0
 40
1.0
 41
0.0
 42
6.283185307179586
  0
SPLINE
  5
FF
330
1F
100
AcDbEntity
  8
layer 1
 62
     7
100
AcDbSpline
210
0.0
220
0.0
230
1.0
 70
    11
 71
     3
 72
    20
 73
    16
 74
     0
 42
0.0000000001
 43
0.0000000001
 12
1.0
 22
0.0
 32
0.0
 13
1.0
 23
0.0
 33
0.0
 40
0.0
 40
0.0
 40
0.0
 40
0.0
 40
0.2
 40
0.2
 40
0.2
 40
0.2
 40
0.4
 40
0.4
 40
0.4
 40
0.4
 40
0.6
 40
0.6
 40
0.6
 40
0.6
 40
1.0
 40
1.0
 40
1.0
 40
1.0
 10
18.4028
 20
-46.0153
 30
0.0
 10
18.7075
 20
-50.2156
 30
0.0
 10
20.7524
 20
-52.9466
 30
0.0
 10
22.3838
 20
-54.5317
 30
0.0
 10
22.3838
 20
-54.5317
 30
0.0
 10
24.5062
 20
-56.549
 30
0.0
 10
27.4892
 20
-58.0697
 30
0.0
 10
30.6958
 20
-58.1862
 30
0.0
 10
30.6958
 20
-58.1862
 30
0.0
 10
30.5519
 20
-55.2361
 30
0.0
 10
29.1876
 20
-52.4281
 30
0.0
 10
27.4236
 20
-50.4092
 30
0.0
 10
27.4236
 20
-50.4092
 30
0.0
 10
25.2042
 20
-47.9965
 30
0.0
 10
21.9999
 20
-46.1445
 30
0.0
 10
18.4028
 20
-46.0153
 30
0.0
  0
SPLINE
  5
100
330
1F
100
AcDbEntity
  8
layer 1
 62
     7
100
AcDbSpline
210
0.0
220
0.0
230
1.0
 70
    11
 71
     3
 72
    20
 73
    16
 74
     0
 42
0.0000000001
 43
0.0000000001
 12
1.0
 22
0.0
 32
0.0
 13
1.0
 23
0.0
 33
0.0
 40
0.0
 40
0.0
 40
0.0
 40
0.0
 40
0.2
 40
0.2
 40
0.2
 40
0.2
 40
0.4
 40
0.4
 40
0.4
 40
0.4
 40
0.6
 40
0.6
 40
0.6
 40
0.6
 40
1.0
 40
1.0
 40
1.0
 40
1.0
 10
44.601
 20
-46.0688
 30
0.0
 10
44.2962
 20
-50.2691
 30
0.0
 10
42.2514
 20
-53.0002
 30
0.0
 10
40.6199
 20
-54.5852
 30
0.0
 10
40.6199
 20
-54.5852
 30
0.0
 10
38.4975
 20
-56.6026
 30
0.0
 10
35.5145
 20
-58.1232
 30
0.0
 10
32.3079
 20
-58.2397
 30
0.0
 10
32.3079
 20
-58.2397
 30
0.0
 10
32.4518
 20
-55.2896
 30
0.0
 10
33.8161
 20
-52.4816
 30
0.0
 10
35.5801
 20
-50.4627
 30
0.0
 10
35.5801
 20
-50.4627
 30
0.0
 10
37.7995
 20
-48.05
 30
0.0
 10
41.0038
 20
-46.198
 30
0.0
 10
44.601
 20
-46.0688
 30
0.0
  0
ELLIPSE
  5
101
330
1F
100
AcDbEntity
  8
layer 1
 62
     7
100
AcDbEllipse
 10
59.1876
 20
-45.1664
 30
0.0
 11
0.0
 21
3.9725
 31
0.0
210
0.0
220
0.0
230
1.0
 40
1.0
 41
0.0
 42
6.283185307179586
  0
SPLINE
  5
102
330
1F
100
AcDbEntity
  8
layer 1
 62
     7
100
AcDbSpline
210
0.0
220
0.0
230
1.0
 70
    11
 71
     3
 72
    20
 73
    16
 74
     0
 42
0.0000000001
 43
0.0000000001
 12
1.0
 22
0.0
 32
0.0
 13
1.0
 23
0.0
 33
0.0
 40
0.0
 40
0.0
 40
0.0
 40
0.0
 40
0.2
 40
0.2
 40
0.2
 40
0.2
 40
0.4
 40
0.4
 40
0.4
 40
0.4
 40
0.6
 40
0.6
 40
0.6
 40
0.6
 40
1.0
 40
1.0
 40
1.0
 40
1.0
 10
46.0957
 20
-44.237
 30
0.0
 10
46.4005
 20
-40.0367
 30
0.0
 10
48.4453
 20
-37.3056
 30
0.0
 10
50.0768
 20
-35.7206
 30
0.0
 10
50.0768
 20
-35.7206
 30
0.0
 10
52.1991
 20
-33.7032
 30
0.0
 10
55.1821
 20
-32.1825
 30
0.0
 10
58.3888
 20
-32.0661
 30
0.0
 10
58.3888
 20
-32.0661
 30
0.0
 10
58.2449
 20
-35.0162
 30
0.0
 10
56.8806
 20
-37.8242
 30
0.0
 10
55.1165
 20
-39.8431
 30
0.0
 10
55.1165
 20
-39.8431
 30
0.0
 10
52.8971
 20
-42.2558
 30
0.0
 10
49.6928
 20
-44.1077
 30
0.0
 10
46.0957
 20
-44.237
 30
0.0
  0
SPLINE
  5
103
330
1F
100
AcDbEntity
  8
layer 1
 62
     7
100
AcDbSpline
210
0.0
220
0.0
230
1.0
 70
    11
 71
     3
 72
    20
 73
    16
 74
     0
 42
0.0000000001
 43
0.0000000001
 12
1.0
 22
0.0
 32
0.0
 13
1.0
 23
0.0
 33
0.0
 40
0.0
 40
0.0
 40
0.0
 40
0.0
 40
0.2
 40
0.2
 40
0.2
 40
0.2
 40
0.4
 40
0.4
 40
0.4
 40
0.4
 40
0.6
 40
0.6
 40
0.6
 40
0.6
 40
1.0
 40
1.0
 40
1.0
 40
1.0
 10
46.1104
 20
-46.0153
 30
0.0
 10
46.4152
 20
-50.2156
 30
0.0
 10
48.46
 20
-52.9466
 30
0.0
 10
50.0915
 20
-54.5317
 30
0.0
 10
50.0915
 20
-54.5317
 30
0.0
 10
52.2138
 20
-56.549
 30
0.0
 10
55.1968
 20
-58.0697
 30
0.0
 10
58.4035
 20
-58.1862
 30
0.0
 10
58.4035
 20
-58.1862
 30
0.0
 10
58.2596
 20
-55.2361
 30
0.0
 10
56.8953
 20
-52.4281
 30
0.0
 10
55.1312
 20
-50.4092
 30
0.0
 10
55.1312
 20
-50.4092
 30
0.0
 10
52.9118
 20
-47.9965
 30
0.0
 10
49.7075
 20
-46.1445
 30
0.0
 10
46.1104
 20
-46.0153
 30
0.0
  0
SPLINE
  5
104
330
1F
100
AcDbEntity
  8
layer 1
 62
     7
100
AcDbSpline
210
0.0
220
0.0
230
1.0
 70
    11
 71
     3
 72
    20
 73
    16
 74
     0
 42
0.0000000001
 43
0.0000000001
 12
1.0
 22
0.0
 32
0.0
 13
1.0
 23
0.0
 33
0.0
 40
0.0
 40
0.0
 40
0.0
 40
0.0
 40
0.2
 40
0.2
 40
0.2
 40
0.2
 40
0.4
 40
0.4
 40
0.4
 40
0.4
 40
0.6
 40
0.6
 40
0.6
 40
0.6
 40
1.0
 40
1.0
 40
1.0
 40
1.0
 10
72.3086
 20
-46.0688
 30
0.0
 10
72.0038
 20
-50.2691
 30
0.0
 10
69.959
 20
-53.0002
 30
0.0
 10
68.3275
 20
-54.5852
 30
0.0
 10
68.3275
 20
-54.5852
 30
0.0
 10
66.2052
 20
-56.6026
 30
0.0
 10
63.2222
 20
-58.1232
 30
0.0
 10
60.0156
 20
-58.2397
 30
0.0
 10
60.0156
 20
-58.2397
 30
0.0
 10
60.1595
 20
-55.2896
 30
0.0
 10
61.5238
 20
-52.4816
 30
0.0
 10
63.2878
 20
-50.4627
 30
0.0
 10
63.2878
 20
-50.4627
 30
0.0
 10
65.5072
 20
-48.05
 30
0.0
 10
68.7115
 20
-46.198
 30
0.0
 10
72.3086
 20
-46.0688
 30
0.0
  0
ELLIPSE
  5
105
330
1F
100
AcDbEntity
  8
layer 1
 62
     7
100
AcDbEllipse
 10
-37.7035
 20
-31.2058
 30
0.0
 11
0.0
 21
3.9725
 31
0.0
210
0.0
220
0.0
230
1.0
 40
1.0
 41
0.0
 42
6.283185307179586
  0
ELLIPSE
  5
106
330
1F
100
AcDbEntity
  8
layer 1
 62
     7
100
AcDbEllipse
 10
-51.4553
 20
-73.0703
 30
0.0
 11
0.0
 21
3.9725
 31
0.0
210
0.0
220
0.0
230
1.0
 40
1.0
 41
0.0
 42
6.283185307179586
  0
SPLINE
  5
107
330
1F
100
AcDbEntity
  8
layer 1
 62
     7
100
AcDbSpline
210
0.0
220
0.0
230
1.0
 70
    11
 71
     3
 72
    16
 73
    12
 74
     0
 42
0.0000000001
 43
0.0000000001
 12
1.0
 22
0.0
 32
0.0
 13
1.0
 23
0.0
 33
0.0
 40
0.0
 40
0.0
 40
0.0
 40
0.0
 40
0.25
 40
0.25
 40
0.25
 40
0.25
 40
0.5
 40
0.5
 40
0.5
 40
0.5
 40
1.0
 40
1.0
 40
1.0
 40
1.0
 10
-65.407
 20
-55.195
 30
0.0
 10
-63.2133
 20
-55.195
 30
0.0
 10
-61.4344
 20
-56.9739
 30
0.0
 10
-61.4344
 20
-59.1675
 30
0.0
 10
-61.4344
 20
-59.1675
 30
0.0
 10
-61.4344
 20
-61.3612
 30
0.0
 10
-63.2133
 20
-63.1401
 30
0.0
 10
-65.407
 20
-63.1401
 30
0.0
 10
-65.407
 20
-63.1401
 30
0.0
 10
-65.407
 20
-63.1401
 30
0.0
 10
-65.407
 20
-55.195
 30
0.0
 10
-65.407
 20
-55.195
 30
0.0
  0
SPLINE
  5
108
330
1F
100
AcDbEntity
  8
layer 1
 62
     7
100
AcDbSpline
210
0.0
220
0.0
230
1.0
 70
    11
 71
     3
 72
    20
 73
    16
 74
     0
 42
0.0000000001
 43
0.0000000001
 12
1.0
 22
0.0
 32
0.0
 13
1.0
 23
0.0
 33
0.0
 40
0.0
 40
0.0
 40
0.0
 40
0.0
 40
0.2
 40
0.2
 40
0.2
 40
0.2
 40
0.4
 40
0.4
 40
0.4
 40
0.4
 40
0.6
 40
0.6
 40
0.6
 40
0.6
 40
1.0
 40
1.0
 40
1.0
 40
1.0
 10
-52.3146
 20
-58.2264
 30
0.0
 10
-52.6193
 20
-54.0261
 30
0.0
 10
-54.6642
 20
-51.2951
 30
0.0
 10
-56.2957
 20
-49.71
 30
0.0
 10
-56.2957
 20
-49.71
 30
0.0
 10
-58.418
 20
-47.6927
 30
0.0
 10
-61.401
 20
-46.172
 30
0.0
 10
-64.6076
 20
-46.0555
 30
0.0
 10
-64.6076
 20
-46.0555
 30
0.0
 10
-64.4637
 20
-49.0056
 30
0.0
 10
-63.0994
 20
-51.8136
 30
0.0
 10
-61.3354
 20
-53.8325
 30
0.0
 10
-61.3354
 20
-53.8325
 30
0.0
 10
-59.116
 20
-56.2452
 30
0.0
 10
-55.9117
 20
-58.0972
 30
0.0
 10
-52.3146
 20
-58.2264
 30
0.0
  0
SPLINE
  5
109
330
1F
100
AcDbEntity
  8
layer 1
 62
     7
100
AcDbSpline
210
0.0
220
0.0
230
1.0
 70
    11
 71
     3
 72
    20
 73
    16
 74
     0
 42
0.0000000001
 43
0.0000000001
 12
1.0
 22
0.0
 32
0.0
 13
1.0
 23
0.0
 33
0.0
 40
0.0
 40
0.0
 40
0.0
 40
0.0
 40
0.2
 40
0.2
 40
0.2
 40
0.2
 40
0.4
 40
0.4
 40
0.4
 40
0.4
 40
0.6
 40
0.6
 40
0.6
 40
0.6
 40
1.0
 40
1.0
 40
1.0
 40
1.0
 10
-52.286
 20
-60.0699
 30
0.0
 10
-52.5908
 20
-64.2702
 30
0.0
 10
-54.6356
 20
-67.0013
 30
0.0
 10
-56.2671
 20
-68.5863
 30
0.0
 10
-56.2671
 20
-68.5863
 30
0.0
 10
-58.3894
 20
-70.6036
 30
0.0
 10
-61.3724
 20
-72.1243
 30
0.0
 10
-64.5791
 20
-72.2408
 30
0.0
 10
-64.5791
 20
-72.2408
 30
0.0
 10
-64.4352
 20
-69.2907
 30
0.0
 10
-63.0709
 20
-66.4827
 30
0.0
 10
-61.3068
 20
-64.4638
 30
0.0
 10
-61.3068
 20
-64.4638
 30
0.0
 10
-59.0874
 20
-62.0511
 30
0.0
 10
-55.8831
 20
-60.1991
 30
0.0
 10
-52.286
 20
-60.0699
 30
0.0
  0
SPLINE
  5
10A
330
1F
100
AcDbEntity
  8
layer 1
 62
     7
100
AcDbSpline
210
0.0
220
0.0
230
1.0
 70
    11
 71
     3
 72
    20
 73
    16
 74
     0
 42
0.0000000001
 43
0.0000000001
 12
1.0
 22
0.0
 32
0.0
 13
1.0
 23
0.0
 33
0.0
 40
0.0
 40
0.0
 40
0.0
 40
0.0
 40
0.2
 40
0.2
 40
0.2
 40
0.2
 40
0.4
 40
0.4
 40
0.4
 40
0.4
 40
0.6
 40
0.6
 40
0.6
 40
0.6
 40
1.0
 40
1.0
 40
1.0
 40
1.0
 10
-50.7784
 20
-60.0164
 30
0.0
 10
-50.4736
 20
-64.2167
 30
0.0
 10
-48.4288
 20
-66.9477
 30
0.0
 10
-46.7973
 20
-68.5328
 30
0.0
 10
-46.7973
 20
-68.5328
 30
0.0
 10
-44.6749
 20
-70.5501
 30
0.0
 10
-41.6919
 20
-72.0708
 30
0.0
 10
-38.4853
 20
-72.1873
 30
0.0
 10
-38.4853
 20
-72.1873
 30
0.0
 10
-38.6292
 20
-69.2372
 30
0.0
 10
-39.9935
 20
-66.4291
 30
0.0
 10
-41.7575
 20
-64.4102
 30
0.0
 10
-41.7575
 20
-64.4102
 30
0.0
 10
-43.9769
 20
-61.9976
 30
0.0
 10
-47.1812
 20
-60.1456
 30
0.0
 10
-50.7784
 20
-60.0164
 30
0.0
  0
SPLINE
  5
10B
330
1F
100
AcDbEntity
  8
layer 1
 62
     7
100
AcDbSpline
210
0.0
220
0.0
230
1.0
 70
    11
 71
     3
 72
    20
 73
    16
 74
     0
 42
0.0000000001
 43
0.0000000001
 12
1.0
 22
0.0
 32
0.0
 13
1.0
 23
0.0
 33
0.0
 40
0.0
 40
0.0
 40
0.0
 40
0.0
 40
0.2
 40
0.2
 40
0.2
 40
0.2
 40
0.4
 40
0.4
 40
0.4
 40
0.4
 40
0.6
 40
0.6
 40
0.6
 40
0.6
 40
1.0
 40
1.0
 40
1.0
 40
1.0
 10
-24.5801
 20
-60.0699
 30
0.0
 10
-24.8849
 20
-64.2702
 30
0.0
 10
-26.9297
 20
-67.0013
 30
0.0
 10
-28.5612
 20
-68.5863
 30
0.0
 10
-28.5612
 20
-68.5863
 30
0.0
 10
-30.6836
 20
-70.6036
 30
0.0
 10
-33.6666
 20
-72.1243
 30
0.0
 10
-36.8732
 20
-72.2408
 30
0.0
 10
-36.8732
 20
-72.2408
 30
0.0
 10
-36.7293
 20
-69.2907
 30
0.0
 10
-35.365
 20
-66.4827
 30
0.0
 10
-33.601
 20
-64.4638
 30
0.0
 10
-33.601
 20
-64.4638
 30
0.0
 10
-31.3816
 20
-62.0511
 30
0.0
 10
-28.1773
 20
-60.1991
 30
0.0
 10
-24.5801
 20
-60.0699
 30
0.0
  0
SPLINE
  5
10C
330
1F
100
AcDbEntity
  8
layer 1
 62
     7
100
AcDbSpline
210
0.0
220
0.0
230
1.0
 70
    11
 71
     3
 72
    16
 73
    12
 74
     0
 42
0.0000000001
 43
0.0000000001
 12
1.0
 22
0.0
 32
0.0
 13
1.0
 23
0.0
 33
0.0
 40
0.0
 40
0.0
 40
0.0
 40
0.0
 40
0.25
 40
0.25
 40
0.25
 40
0.25
 40
0.5
 40
0.5
 40
0.5
 40
0.5
 40
1.0
 40
1.0
 40
1.0
 40
1.0
 10
73.0946
 20
-55.195
 30
0.0
 10
73.0946
 20
-55.195
 30
0.0
 10
73.0946
 20
-63.1401
 30
0.0
 10
73.0946
 20
-63.1401
 30
0.0
 10
73.0946
 20
-63.1401
 30
0.0
 10
70.9009
 20
-63.1401
 30
0.0
 10
69.1221
 20
-61.3611
 30
0.0
 10
69.1221
 20
-59.1675
 30
0.0
 10
69.1221
 20
-59.1675
 30
0.0
 10
69.1221
 20
-56.9739
 30
0.0
 10
70.9009
 20
-55.195
 30
0.0
 10
73.0946
 20
-55.195
 30
0.0
  0
ELLIPSE
  5
10D
330
1F
100
AcDbEntity
  8
layer 1
 62
     7
100
AcDbEllipse
 10
-10.0427
 20
-59.1675
 30
0.0
 11
0.0
 21
3.9725
 31
0.0
210
0.0
220
0.0
230
1.0
 40
1.0
 41
0.0
 42
6.283185307179586
  0
SPLINE
  5
10E
330
1F
100
AcDbEntity
  8
layer 1
 62
     7
100
AcDbSpline
210
0.0
220
0.0
230
1.0
 70
    11
 71
     3
 72
    20
 73
    16
 74
     0
 42
0.0000000001
 43
0.0000000001
 12
1.0
 22
0.0
 32
0.0
 13
1.0
 23
0.0
 33
0.0
 40
0.0
 40
0.0
 40
0.0
 40
0.0
 40
0.2
 40
0.2
 40
0.2
 40
0.2
 40
0.4
 40
0.4
 40
0.4
 40
0.4
 40
0.6
 40
0.6
 40
0.6
 40
0.6
 40
1.0
 40
1.0
 40
1.0
 40
1.0
 10
-23.1199
 20
-60.0164
 30
0.0
 10
-22.8151
 20
-64.2167
 30
0.0
 10
-20.7703
 20
-66.9477
 30
0.0
 10
-19.1388
 20
-68.5328
 30
0.0
 10
-19.1388
 20
-68.5328
 30
0.0
 10
-17.0165
 20
-70.5501
 30
0.0
 10
-14.0335
 20
-72.0708
 30
0.0
 10
-10.8268
 20
-72.1873
 30
0.0
 10
-10.8268
 20
-72.1873
 30
0.0
 10
-10.9708
 20
-69.2372
 30
0.0
 10
-12.3351
 20
-66.4291
 30
0.0
 10
-14.0991
 20
-64.4102
 30
0.0
 10
-14.0991
 20
-64.4102
 30
0.0
 10
-16.3185
 20
-61.9976
 30
0.0
 10
-19.5228
 20
-60.1456
 30
0.0
 10
-23.1199
 20
-60.0164
 30
0.0
  0
SPLINE
  5
10F
330
1F
100
AcDbEntity
  8
layer 1
 62
     7
100
AcDbSpline
210
0.0
220
0.0
230
1.0
 70
    11
 71
     3
 72
    20
 73
    16
 74
     0
 42
0.0000000001
 43
0.0000000001
 12
1.0
 22
0.0
 32
0.0
 13
1.0
 23
0.0
 33
0.0
 40
0.0
 40
0.0
 40
0.0
 40
0.0
 40
0.2
 40
0.2
 40
0.2
 40
0.2
 40
0.4
 40
0.4
 40
0.4
 40
0.4
 40
0.6
 40
0.6
 40
0.6
 40
0.6
 40
1.0
 40
1.0
 40
1.0
 40
1.0
 10
3.0783
 20
-60.0699
 30
0.0
 10
2.7735
 20
-64.2702
 30
0.0
 10
0.7287
 20
-67.0013
 30
0.0
 10
-0.9028
 20
-68.5863
 30
0.0
 10
-0.9028
 20
-68.5863
 30
0.0
 10
-3.0251
 20
-70.6036
 30
0.0
 10
-6.0081
 20
-72.1243
 30
0.0
 10
-9.2148
 20
-72.2408
 30
0.0
 10
-9.2148
 20
-72.2408
 30
0.0
 10
-9.0709
 20
-69.2907
 30
0.0
 10
-7.7066
 20
-66.4827
 30
0.0
 10
-5.9425
 20
-64.4638
 30
0.0
 10
-5.9425
 20
-64.4638
 30
0.0
 10
-3.7231
 20
-62.0511
 30
0.0
 10
-0.5188
 20
-60.1991
 30
0.0
 10
3.0783
 20
-60.0699
 30
0.0
  0
ELLIPSE
  5
110
330
1F
100
AcDbEntity
  8
layer 1
 62
     7
100
AcDbEllipse
 10
17.6487
 20
-59.1675
 30
0.0
 11
0.0
 21
3.9725
 31
0.0
210
0.0
220
0.0
230
1.0
 40
1.0
 41
0.0
 42
6.283185307179586
  0
SPLINE
  5
111
330
1F
100
AcDbEntity
  8
layer 1
 62
     7
100
AcDbSpline
210
0.0
220
0.0
230
1.0
 70
    11
 71
     3
 72
    20
 73
    16
 74
     0
 42
0.0000000001
 43
0.0000000001
 12
1.0
 22
0.0
 32
0.0
 13
1.0
 23
0.0
 33
0.0
 40
0.0
 40
0.0
 40
0.0
 40
0.0
 40
0.2
 40
0.2
 40
0.2
 40
0.2
 40
0.4
 40
0.4
 40
0.4
 40
0.4
 40
0.6
 40
0.6
 40
0.6
 40
0.6
 40
1.0
 40
1.0
 40
1.0
 40
1.0
 10
4.5715
 20
-60.0164
 30
0.0
 10
4.8763
 20
-64.2167
 30
0.0
 10
6.9211
 20
-66.9477
 30
0.0
 10
8.5526
 20
-68.5328
 30
0.0
 10
8.5526
 20
-68.5328
 30
0.0
 10
10.6749
 20
-70.5501
 30
0.0
 10
13.6579
 20
-72.0708
 30
0.0
 10
16.8646
 20
-72.1873
 30
0.0
 10
16.8646
 20
-72.1873
 30
0.0
 10
16.7207
 20
-69.2372
 30
0.0
 10
15.3564
 20
-66.4291
 30
0.0
 10
13.5923
 20
-64.4102
 30
0.0
 10
13.5923
 20
-64.4102
 30
0.0
 10
11.373
 20
-61.9976
 30
0.0
 10
8.1686
 20
-60.1456
 30
0.0
 10
4.5715
 20
-60.0164
 30
0.0
  0
SPLINE
  5
112
330
1F
100
AcDbEntity
  8
layer 1
 62
     7
100
AcDbSpline
210
0.0
220
0.0
230
1.0
 70
    11
 71
     3
 72
    20
 73
    16
 74
     0
 42
0.0000000001
 43
0.0000000001
 12
1.0
 22
0.0
 32
0.0
 13
1.0
 23
0.0
 33
0.0
 40
0.0
 40
0.0
 40
0.0
 40
0.0
 40
0.2
 40
0.2
 40
0.2
 40
0.2
 40
0.4
 40
0.4
 40
0.4
 40
0.4
 40
0.6
 40
0.6
 40
0.6
 40
0.6
 40
1.0
 40
1.0
 40
1.0
 40
1.0
 10
30.7697
 20
-60.0699
 30
0.0
 10
30.465
 20
-64.2702
 30
0.0
 10
28.4201
 20
-67.0013
 30
0.0
 10
26.7887
 20
-68.5863
 30
0.0
 10
26.7887
 20
-68.5863
 30
0.0
 10
24.6663
 20
-70.6036
 30
0.0
 10
21.6833
 20
-72.1243
 30
0.0
 10
18.4767
 20
-72.2408
 30
0.0
 10
18.4767
 20
-72.2408
 30
0.0
 10
18.6206
 20
-69.2907
 30
0.0
 10
19.9849
 20
-66.4827
 30
0.0
 10
21.7489
 20
-64.4638
 30
0.0
 10
21.7489
 20
-64.4638
 30
0.0
 10
23.9683
 20
-62.0511
 30
0.0
 10
27.1726
 20
-60.1991
 30
0.0
 10
30.7697
 20
-60.0699
 30
0.0
  0
ELLIPSE
  5
113
330
1F
100
AcDbEntity
  8
layer 1
 62
     7
100
AcDbEllipse
 10
45.3564
 20
-59.1675
 30
0.0
 11
0.0
 21
3.9725
 31
0.0
210
0.0
220
0.0
230
1.0
 40
1.0
 41
0.0
 42
6.283185307179586
  0
SPLINE
  5
114
330
1F
100
AcDbEntity
  8
layer 1
 62
     7
100
AcDbSpline
210
0.0
220
0.0
230
1.0
 70
    11
 71
     3
 72
    20
 73
    16
 74
     0
 42
0.0000000001
 43
0.0000000001
 12
1.0
 22
0.0
 32
0.0
 13
1.0
 23
0.0
 33
0.0
 40
0.0
 40
0.0
 40
0.0
 40
0.0
 40
0.2
 40
0.2
 40
0.2
 40
0.2
 40
0.4
 40
0.4
 40
0.4
 40
0.4
 40
0.6
 40
0.6
 40
0.6
 40
0.6
 40
1.0
 40
1.0
 40
1.0
 40
1.0
 10
32.2792
 20
-60.0164
 30
0.0
 10
32.584
 20
-64.2167
 30
0.0
 10
34.6288
 20
-66.9477
 30
0.0
 10
36.2603
 20
-68.5328
 30
0.0
 10
36.2603
 20
-68.5328
 30
0.0
 10
38.3826
 20
-70.5501
 30
0.0
 10
41.3656
 20
-72.0708
 30
0.0
 10
44.5723
 20
-72.1873
 30
0.0
 10
44.5723
 20
-72.1873
 30
0.0
 10
44.4283
 20
-69.2372
 30
0.0
 10
43.064
 20
-66.4291
 30
0.0
 10
41.3
 20
-64.4102
 30
0.0
 10
41.3
 20
-64.4102
 30
0.0
 10
39.0806
 20
-61.9976
 30
0.0
 10
35.8763
 20
-60.1456
 30
0.0
 10
32.2792
 20
-60.0164
 30
0.0
  0
SPLINE
  5
115
330
1F
100
AcDbEntity
  8
layer 1
 62
     7
100
AcDbSpline
210
0.0
220
0.0
230
1.0
 70
    11
 71
     3
 72
    20
 73
    16
 74
     0
 42
0.0000000001
 43
0.0000000001
 12
1.0
 22
0.0
 32
0.0
 13
1.0
 23
0.0
 33
0.0
 40
0.0
 40
0.0
 40
0.0
 40
0.0
 40
0.2
 40
0.2
 40
0.2
 40
0.2
 40
0.4
 40
0.4
 40
0.4
 40
0.4
 40
0.6
 40
0.6
 40
0.6
 40
0.6
 40
1.0
 40
1.0
 40
1.0
 40
1.0
 10
60.0174
 20
-60.0164
 30
0.0
 10
60.3221
 20
-64.2167
 30
0.0
 10
62.367
 20
-66.9477
 30
0.0
 10
63.9984
 20
-68.5328
 30
0.0
 10
63.9984
 20
-68.5328
 30
0.0
 10
66.1208
 20
-70.5501
 30
0.0
 10
69.1038
 20
-72.0708
 30
0.0
 10
72.3104
 20
-72.1873
 30
0.0
 10
72.3104
 20
-72.1873
 30
0.0
 10
72.1665
 20
-69.2372
 30
0.0
 10
70.8022
 20
-66.4291
 30
0.0
 10
69.0382
 20
-64.4102
 30
0.0
 10
69.0382
 20
-64.4102
 30
0.0
 10
66.8188
 20
-61.9976
 30
0.0
 10
63.6145
 20
-60.1456
 30
0.0
 10
60.0174
 20
-60.0164
 30
0.0
  0
SPLINE
  5
116
330
1F
100
AcDbEntity
  8
layer 1
 62
     7
100
AcDbSpline
210
0.0
220
0.0
230
1.0
 70
    11
 71
     3
 72
    20
 73
    16
 74
     0
 42
0.0000000001
 43
0.0000000001
 12
1.0
 22
0.0
 32
0.0
 13
1.0
 23
0.0
 33
0.0
 40
0.0
 40
0.0
 40
0.0
 40
0.0
 40
0.2
 40
0.2
 40
0.2
 40
0.2
 40
0.4
 40
0.4
 40
0.4
 40
0.4
 40
0.6
 40
0.6
 40
0.6
 40
0.6
 40
1.0
 40
1.0
 40
1.0
 40
1.0
 10
-38.4548
 20
-74.0305
 30
0.0
 10
-38.7596
 20
-78.2308
 30
0.0
 10
-40.8044
 20
-80.9619
 30
0.0
 10
-42.4359
 20
-82.5469
 30
0.0
 10
-42.4359
 20
-82.5469
 30
0.0
 10
-44.5582
 20
-84.5642
 30
0.0
 10
-47.5412
 20
-86.0849
 30
0.0
 10
-50.7479
 20
-86.2014
 30
0.0
 10
-50.7479
 20
-86.2014
 30
0.0
 10
-50.6039
 20
-83.2513
 30
0.0
 10
-49.2396
 20
-80.4433
 30
0.0
 10
-47.4756
 20
-78.4244
 30
0.0
 10
-47.4756
 20
-78.4244
 30
0.0
 10
-45.2562
 20
-76.0117
 30
0.0
 10
-42.0519
 20
-74.1597
 30
0.0
 10
-38.4548
 20
-74.0305
 30
0.0
  0
ELLIPSE
  5
117
330
1F
100
AcDbEntity
  8
layer 1
 62
     7
100
AcDbEllipse
 10
-23.8699
 20
-73.1281
 30
0.0
 11
0.0
 21
3.9725
 31
0.0
210
0.0
220
0.0
230
1.0
 40
1.0
 41
0.0
 42
6.283185307179586
  0
SPLINE
  5
118
330
1F
100
AcDbEntity
  8
layer 1
 62
     7
100
AcDbSpline
210
0.0
220
0.0
230
1.0
 70
    11
 71
     3
 72
    20
 73
    16
 74
     0
 42
0.0000000001
 43
0.0000000001
 12
1.0
 22
0.0
 32
0.0
 13
1.0
 23
0.0
 33
0.0
 40
0.0
 40
0.0
 40
0.0
 40
0.0
 40
0.2
 40
0.2
 40
0.2
 40
0.2
 40
0.4
 40
0.4
 40
0.4
 40
0.4
 40
0.6
 40
0.6
 40
0.6
 40
0.6
 40
1.0
 40
1.0
 40
1.0
 40
1.0
 10
-36.9471
 20
-73.977
 30
0.0
 10
-36.6424
 20
-78.1773
 30
0.0
 10
-34.5975
 20
-80.9083
 30
0.0
 10
-32.966
 20
-82.4934
 30
0.0
 10
-32.966
 20
-82.4934
 30
0.0
 10
-30.8437
 20
-84.5107
 30
0.0
 10
-27.8607
 20
-86.0314
 30
0.0
 10
-24.6541
 20
-86.1479
 30
0.0
 10
-24.6541
 20
-86.1479
 30
0.0
 10
-24.798
 20
-83.1978
 30
0.0
 10
-26.1623
 20
-80.3897
 30
0.0
 10
-27.9263
 20
-78.3708
 30
0.0
 10
-27.9263
 20
-78.3708
 30
0.0
 10
-30.1457
 20
-75.9582
 30
0.0
 10
-33.35
 20
-74.1062
 30
0.0
 10
-36.9471
 20
-73.977
 30
0.0
  0
SPLINE
  5
119
330
1F
100
AcDbEntity
  8
layer 1
 62
     7
100
AcDbSpline
210
0.0
220
0.0
230
1.0
 70
    11
 71
     3
 72
    20
 73
    16
 74
     0
 42
0.0000000001
 43
0.0000000001
 12
1.0
 22
0.0
 32
0.0
 13
1.0
 23
0.0
 33
0.0
 40
0.0
 40
0.0
 40
0.0
 40
0.0
 40
0.2
 40
0.2
 40
0.2
 40
0.2
 40
0.4
 40
0.4
 40
0.4
 40
0.4
 40
0.6
 40
0.6
 40
0.6
 40
0.6
 40
1.0
 40
1.0
 40
1.0
 40
1.0
 10
-10.7489
 20
-74.0305
 30
0.0
 10
-11.0537
 20
-78.2308
 30
0.0
 10
-13.0985
 20
-80.9619
 30
0.0
 10
-14.73
 20
-82.5469
 30
0.0
 10
-14.73
 20
-82.5469
 30
0.0
 10
-16.8523
 20
-84.5642
 30
0.0
 10
-19.8353
 20
-86.0849
 30
0.0
 10
-23.042
 20
-86.2014
 30
0.0
 10
-23.042
 20
-86.2014
 30
0.0
 10
-22.8981
 20
-83.2513
 30
0.0
 10
-21.5338
 20
-80.4433
 30
0.0
 10
-19.7697
 20
-78.4244
 30
0.0
 10
-19.7697
 20
-78.4244
 30
0.0
 10
-17.5503
 20
-76.0117
 30
0.0
 10
-14.346
 20
-74.1597
 30
0.0
 10
-10.7489
 20
-74.0305
 30
0.0
  0
ELLIPSE
  5
11A
330
1F
100
AcDbEntity
  8
layer 1
 62
     7
100
AcDbEllipse
 10
3.7885
 20
-73.1281
 30
0.0
 11
0.0
 21
3.9725
 31
0.0
210
0.0
220
0.0
230
1.0
 40
1.0
 41
0.0
 42
6.283185307179586
  0
SPLINE
  5
11B
330
1F
100
AcDbEntity
  8
layer 1
 62
     7
100
AcDbSpline
210
0.0
220
0.0
230
1.0
 70
    11
 71
     3
 72
    20
 73
    16
 74
     0
 42
0.0000000001
 43
0.0000000001
 12
1.0
 22
0.0
 32
0.0
 13
1.0
 23
0.0
 33
0.0
 40
0.0
 40
0.0
 40
0.0
 40
0.0
 40
0.2
 40
0.2
 40
0.2
 40
0.2
 40
0.4
 40
0.4
 40
0.4
 40
0.4
 40
0.6
 40
0.6
 40
0.6
 40
0.6
 40
1.0
 40
1.0
 40
1.0
 40
1.0
 10
-9.2887
 20
-73.977
 30
0.0
 10
-8.9839
 20
-78.1773
 30
0.0
 10
-6.9391
 20
-80.9083
 30
0.0
 10
-5.3076
 20
-82.4934
 30
0.0
 10
-5.3076
 20
-82.4934
 30
0.0
 10
-3.1853
 20
-84.5107
 30
0.0
 10
-0.2023
 20
-86.0314
 30
0.0
 10
3.0044
 20
-86.1479
 30
0.0
 10
3.0044
 20
-86.1479
 30
0.0
 10
2.8605
 20
-83.1978
 30
0.0
 10
1.4962
 20
-80.3897
 30
0.0
 10
-0.2679
 20
-78.3708
 30
0.0
 10
-0.2679
 20
-78.3708
 30
0.0
 10
-2.4873
 20
-75.9582
 30
0.0
 10
-5.6916
 20
-74.1062
 30
0.0
 10
-9.2887
 20
-73.977
 30
0.0
  0
SPLINE
  5
11C
330
1F
100
AcDbEntity
  8
layer 1
 62
     7
100
AcDbSpline
210
0.0
220
0.0
230
1.0
 70
    11
 71
     3
 72
    20
 73
    16
 74
     0
 42
0.0000000001
 43
0.0000000001
 12
1.0
 22
0.0
 32
0.0
 13
1.0
 23
0.0
 33
0.0
 40
0.0
 40
0.0
 40
0.0
 40
0.0
 40
0.2
 40
0.2
 40
0.2
 40
0.2
 40
0.4
 40
0.4
 40
0.4
 40
0.4
 40
0.6
 40
0.6
 40
0.6
 40
0.6
 40
1.0
 40
1.0
 40
1.0
 40
1.0
 10
16.9095
 20
-74.0305
 30
0.0
 10
16.6047
 20
-78.2308
 30
0.0
 10
14.5599
 20
-80.9619
 30
0.0
 10
12.9284
 20
-82.5469
 30
0.0
 10
12.9284
 20
-82.5469
 30
0.0
 10
10.8061
 20
-84.5642
 30
0.0
 10
7.8231
 20
-86.0849
 30
0.0
 10
4.6164
 20
-86.2014
 30
0.0
 10
4.6164
 20
-86.2014
 30
0.0
 10
4.7604
 20
-83.2513
 30
0.0
 10
6.1247
 20
-80.4433
 30
0.0
 10
7.8887
 20
-78.4244
 30
0.0
 10
7.8887
 20
-78.4244
 30
0.0
 10
10.1081
 20
-76.0117
 30
0.0
 10
13.3124
 20
-74.1597
 30
0.0
 10
16.9095
 20
-74.0305
 30
0.0
  0
ELLIPSE
  5
11D
330
1F
100
AcDbEntity
  8
layer 1
 62
     7
100
AcDbEllipse
 10
31.48
 20
-73.1281
 30
0.0
 11
0.0
 21
3.9725
 31
0.0
210
0.0
220
0.0
230
1.0
 40
1.0
 41
0.0
 42
6.283185307179586
  0
SPLINE
  5
11E
330
1F
100
AcDbEntity
  8
layer 1
 62
     7
100
AcDbSpline
210
0.0
220
0.0
230
1.0
 70
    11
 71
     3
 72
    20
 73
    16
 74
     0
 42
0.0000000001
 43
0.0000000001
 12
1.0
 22
0.0
 32
0.0
 13
1.0
 23
0.0
 33
0.0
 40
0.0
 40
0.0
 40
0.0
 40
0.0
 40
0.2
 40
0.2
 40
0.2
 40
0.2
 40
0.4
 40
0.4
 40
0.4
 40
0.4
 40
0.6
 40
0.6
 40
0.6
 40
0.6
 40
1.0
 40
1.0
 40
1.0
 40
1.0
 10
18.4028
 20
-73.977
 30
0.0
 10
18.7075
 20
-78.1773
 30
0.0
 10
20.7524
 20
-80.9083
 30
0.0
 10
22.3838
 20
-82.4934
 30
0.0
 10
22.3838
 20
-82.4934
 30
0.0
 10
24.5062
 20
-84.5107
 30
0.0
 10
27.4892
 20
-86.0314
 30
0.0
 10
30.6958
 20
-86.1479
 30
0.0
 10
30.6958
 20
-86.1479
 30
0.0
 10
30.5519
 20
-83.1978
 30
0.0
 10
29.1876
 20
-80.3897
 30
0.0
 10
27.4236
 20
-78.3708
 30
0.0
 10
27.4236
 20
-78.3708
 30
0.0
 10
25.2042
 20
-75.9582
 30
0.0
 10
21.9999
 20
-74.1062
 30
0.0
 10
18.4028
 20
-73.977
 30
0.0
  0
SPLINE
  5
11F
330
1F
100
AcDbEntity
  8
layer 1
 62
     7
100
AcDbSpline
210
0.0
220
0.0
230
1.0
 70
    11
 71
     3
 72
    20
 73
    16
 74
     0
 42
0.0000000001
 43
0.0000000001
 12
1.0
 22
0.0
 32
0.0
 13
1.0
 23
0.0
 33
0.0
 40
0.0
 40
0.0
 40
0.0
 40
0.0
 40
0.2
 40
0.2
 40
0.2
 40
0.2
 40
0.4
 40
0.4
 40
0.4
 40
0.4
 40
0.6
 40
0.6
 40
0.6
 40
0.6
 40
1.0
 40
1.0
 40
1.0
 40
1.0
 10
44.601
 20
-74.0305
 30
0.0
 10
44.2962
 20
-78.2308
 30
0.0
 10
42.2514
 20
-80.9619
 30
0.0
 10
40.6199
 20
-82.5469
 30
0.0
 10
40.6199
 20
-82.5469
 30
0.0
 10
38.4975
 20
-84.5642
 30
0.0
 10
35.5145
 20
-86.0849
 30
0.0
 10
32.3079
 20
-86.2014
 30
0.0
 10
32.3079
 20
-86.2014
 30
0.0
 10
32.4518
 20
-83.2513
 30
0.0
 10
33.8161
 20
-80.4433
 30
0.0
 10
35.5801
 20
-78.4244
 30
0.0
 10
35.5801
 20
-78.4244
 30
0.0
 10
37.7995
 20
-76.0117
 30
0.0
 10
41.0038
 20
-74.1597
 30
0.0
 10
44.601
 20
-74.0305
 30
0.0
  0
ELLIPSE
  5
120
330
1F
100
AcDbEntity
  8
layer 1
 62
     7
100
AcDbEllipse
 10
59.1876
 20
-73.1281
 30
0.0
 11
0.0
 21
3.9725
 31
0.0
210
0.0
220
0.0
230
1.0
 40
1.0
 41
0.0
 42
6.283185307179586
  0
SPLINE
  5
121
330
1F
100
AcDbEntity
  8
layer 1
 62
     7
100
AcDbSpline
210
0.0
220
0.0
230
1.0
 70
    11
 71
     3
 72
    20
 73
    16
 74
     0
 42
0.0000000001
 43
0.0000000001
 12
1.0
 22
0.0
 32
0.0
 13
1.0
 23
0.0
 33
0.0
 40
0.0
 40
0.0
 40
0.0
 40
0.0
 40
0.2
 40
0.2
 40
0.2
 40
0.2
 40
0.4
 40
0.4
 40
0.4
 40
0.4
 40
0.6
 40
0.6
 40
0.6
 40
0.6
 40
1.0
 40
1.0
 40
1.0
 40
1.0
 10
46.0957
 20
-72.1987
 30
0.0
 10
46.4005
 20
-67.9984
 30
0.0
 10
48.4453
 20
-65.2673
 30
0.0
 10
50.0768
 20
-63.6823
 30
0.0
 10
50.0768
 20
-63.6823
 30
0.0
 10
52.1991
 20
-61.6649
 30
0.0
 10
55.1821
 20
-60.1442
 30
0.0
 10
58.3888
 20
-60.0277
 30
0.0
 10
58.3888
 20
-60.0277
 30
0.0
 10
58.2449
 20
-62.9779
 30
0.0
 10
56.8806
 20
-65.7859
 30
0.0
 10
55.1165
 20
-67.8048
 30
0.0
 10
55.1165
 20
-67.8048
 30
0.0
 10
52.8971
 20
-70.2175
 30
0.0
 10
49.6928
 20
-72.0694
 30
0.0
 10
46.0957
 20
-72.1987
 30
0.0
  0
SPLINE
  5
122
330
1F
100
AcDbEntity
  8
layer 1
 62
     7
100
AcDbSpline
210
0.0
220
0.0
230
1.0
 70
    11
 71
     3
 72
    20
 73
    16
 74
     0
 42
0.0000000001
 43
0.0000000001
 12
1.0
 22
0.0
 32
0.0
 13
1.0
 23
0.0
 33
0.0
 40
0.0
 40
0.0
 40
0.0
 40
0.0
 40
0.2
 40
0.2
 40
0.2
 40
0.2
 40
0.4
 40
0.4
 40
0.4
 40
0.4
 40
0.6
 40
0.6
 40
0.6
 40
0.6
 40
1.0
 40
1.0
 40
1.0
 40
1.0
 10
46.1104
 20
-73.977
 30
0.0
 10
46.4152
 20
-78.1773
 30
0.0
 10
48.46
 20
-80.9083
 30
0.0
 10
50.0915
 20
-82.4934
 30
0.0
 10
50.0915
 20
-82.4934
 30
0.0
 10
52.2138
 20
-84.5107
 30
0.0
 10
55.1968
 20
-86.0314
 30
0.0
 10
58.4035
 20
-86.1479
 30
0.0
 10
58.4035
 20
-86.1479
 30
0.0
 10
58.2596
 20
-83.1978
 30
0.0
 10
56.8953
 20
-80.3897
 30
0.0
 10
55.1312
 20
-78.3708
 30
0.0
 10
55.1312
 20
-78.3708
 30
0.0
 10
52.9118
 20
-75.9582
 30
0.0
 10
49.7075
 20
-74.1062
 30
0.0
 10
46.1104
 20
-73.977
 30
0.0
  0
SPLINE
  5
123
330
1F
100
AcDbEntity
  8
layer 1
 62
     7
100
AcDbSpline
210
0.0
220
0.0
230
1.0
 70
    11
 71
     3
 72
    20
 73
    16
 74
     0
 42
0.0000000001
 43
0.0000000001
 12
1.0
 22
0.0
 32
0.0
 13
1.0
 23
0.0
 33
0.0
 40
0.0
 40
0.0
 40
0.0
 40
0.0
 40
0.2
 40
0.2
 40
0.2
 40
0.2
 40
0.4
 40
0.4
 40
0.4
 40
0.4
 40
0.6
 40
0.6
 40
0.6
 40
0.6
 40
1.0
 40
1.0
 40
1.0
 40
1.0
 10
72.3086
 20
-74.0305
 30
0.0
 10
72.0038
 20
-78.2308
 30
0.0
 10
69.959
 20
-80.9619
 30
0.0
 10
68.3275
 20
-82.5469
 30
0.0
 10
68.3275
 20
-82.5469
 30
0.0
 10
66.2052
 20
-84.5642
 30
0.0
 10
63.2222
 20
-86.0849
 30
0.0
 10
60.0156
 20
-86.2014
 30
0.0
 10
60.0156
 20
-86.2014
 30
0.0
 10
60.1595
 20
-83.2513
 30
0.0
 10
61.5238
 20
-80.4433
 30
0.0
 10
63.2878
 20
-78.4244
 30
0.0
 10
63.2878
 20
-78.4244
 30
0.0
 10
65.5072
 20
-76.0117
 30
0.0
 10
68.7115
 20
-74.1597
 30
0.0
 10
72.3086
 20
-74.0305
 30
0.0
  0
SPLINE
  5
124
330
1F
100
AcDbEntity
  8
layer 1
 62
     7
100
AcDbSpline
210
0.0
220
0.0
230
1.0
 70
    11
 71
     3
 72
    20
 73
    16
 74
     0
 42
0.0000000001
 43
0.0000000001
 12
1.0
 22
0.0
 32
0.0
 13
1.0
 23
0.0
 33
0.0
 40
0.0
 40
0.0
 40
0.0
 40
0.0
 40
0.2
 40
0.2
 40
0.2
 40
0.2
 40
0.4
 40
0.4
 40
0.4
 40
0.4
 40
0.6
 40
0.6
 40
0.6
 40
0.6
 40
1.0
 40
1.0
 40
1.0
 40
1.0
 10
-64.5122
 20
-73.977
 30
0.0
 10
-64.2075
 20
-78.1773
 30
0.0
 10
-62.1626
 20
-80.9083
 30
0.0
 10
-60.5312
 20
-82.4934
 30
0.0
 10
-60.5312
 20
-82.4934
 30
0.0
 10
-58.4088
 20
-84.5107
 30
0.0
 10
-55.4258
 20
-86.0314
 30
0.0
 10
-52.2192
 20
-86.1479
 30
0.0
 10
-52.2192
 20
-86.1479
 30
0.0
 10
-52.3631
 20
-83.1978
 30
0.0
 10
-53.7274
 20
-80.3897
 30
0.0
 10
-55.4914
 20
-78.3708
 30
0.0
 10
-55.4914
 20
-78.3708
 30
0.0
 10
-57.7108
 20
-75.9582
 30
0.0
 10
-60.9151
 20
-74.1062
 30
0.0
 10
-64.5122
 20
-73.977
 30
0.0
  0
ELLIPSE
  5
125
330
1F
100
AcDbEntity
  8
layer 1
 62
     7
100
AcDbEllipse
 10
-37.7035
 20
-59.1675
 30
0.0
 11
0.0
 21
3.9725
 31
0.0
210
0.0
220
0.0
230
1.0
 40
1.0
 41
0.0
 42
6.283185307179586
  0
SPLINE
  5
126
330
1F
100
AcDbEntity
  8
layer 1
 62
     7
100
AcDbSpline
210
0.0
220
0.0
230
1.0
 70
    11
 71
     3
 72
    16
 73
    12
 74
     0
 42
0.0000000001
 43
0.0000000001
 12
1.0
 22
0.0
 32
0.0
 13
1.0
 23
0.0
 33
0.0
 40
0.0
 40
0.0
 40
0.0
 40
0.0
 40
0.25
 40
0.25
 40
0.25
 40
0.25
 40
0.5
 40
0.5
 40
0.5
 40
0.5
 40
1.0
 40
1.0
 40
1.0
 40
1.0
 10
-65.407
 20
-83.1939
 30
0.0
 10
-63.2133
 20
-83.1939
 30
0.0
 10
-61.4344
 20
-84.9727
 30
0.0
 10
-61.4344
 20
-87.1663
 30
0.0
 10
-61.4344
 20
-87.1663
 30
0.0
 10
-61.4344
 20
-89.3601
 30
0.0
 10
-63.2133
 20
-91.139
 30
0.0
 10
-65.407
 20
-91.139
 30
0.0
 10
-65.407
 20
-91.139
 30
0.0
 10
-65.407
 20
-91.139
 30
0.0
 10
-65.407
 20
-83.1939
 30
0.0
 10
-65.407
 20
-83.1939
 30
0.0
  0
SPLINE
  5
127
330
1F
100
AcDbEntity
  8
layer 1
 62
     7
100
AcDbSpline
210
0.0
220
0.0
230
1.0
 70
    11
 71
     3
 72
    20
 73
    16
 74
     0
 42
0.0000000001
 43
0.0000000001
 12
1.0
 22
0.0
 32
0.0
 13
1.0
 23
0.0
 33
0.0
 40
0.0
 40
0.0
 40
0.0
 40
0.0
 40
0.2
 40
0.2
 40
0.2
 40
0.2
 40
0.4
 40
0.4
 40
0.4
 40
0.4
 40
0.6
 40
0.6
 40
0.6
 40
0.6
 40
1.0
 40
1.0
 40
1.0
 40
1.0
 10
-52.286
 20
-88.0688
 30
0.0
 10
-52.5908
 20
-92.269
 30
0.0
 10
-54.6356
 20
-95.0001
 30
0.0
 10
-56.2671
 20
-96.5851
 30
0.0
 10
-56.2671
 20
-96.5851
 30
0.0
 10
-58.3894
 20
-98.6025
 30
0.0
 10
-61.3724
 20
-100.1232
 30
0.0
 10
-64.5791
 20
-100.2397
 30
0.0
 10
-64.5791
 20
-100.2397
 30
0.0
 10
-64.4352
 20
-97.2895
 30
0.0
 10
-63.0709
 20
-94.4815
 30
0.0
 10
-61.3068
 20
-92.4626
 30
0.0
 10
-61.3068
 20
-92.4626
 30
0.0
 10
-59.0874
 20
-90.0499
 30
0.0
 10
-55.8831
 20
-88.198
 30
0.0
 10
-52.286
 20
-88.0688
 30
0.0
  0
SPLINE
  5
128
330
1F
100
AcDbEntity
  8
layer 1
 62
     7
100
AcDbSpline
210
0.0
220
0.0
230
1.0
 70
    11
 71
     3
 72
    20
 73
    16
 74
     0
 42
0.0000000001
 43
0.0000000001
 12
1.0
 22
0.0
 32
0.0
 13
1.0
 23
0.0
 33
0.0
 40
0.0
 40
0.0
 40
0.0
 40
0.0
 40
0.2
 40
0.2
 40
0.2
 40
0.2
 40
0.4
 40
0.4
 40
0.4
 40
0.4
 40
0.6
 40
0.6
 40
0.6
 40
0.6
 40
1.0
 40
1.0
 40
1.0
 40
1.0
 10
-50.7784
 20
-88.0152
 30
0.0
 10
-50.4736
 20
-92.2155
 30
0.0
 10
-48.4288
 20
-94.9466
 30
0.0
 10
-46.7973
 20
-96.5316
 30
0.0
 10
-46.7973
 20
-96.5316
 30
0.0
 10
-44.6749
 20
-98.549
 30
0.0
 10
-41.6919
 20
-100.0697
 30
0.0
 10
-38.4853
 20
-100.1861
 30
0.0
 10
-38.4853
 20
-100.1861
 30
0.0
 10
-38.6292
 20
-97.236
 30
0.0
 10
-39.9935
 20
-94.428
 30
0.0
 10
-41.7575
 20
-92.4091
 30
0.0
 10
-41.7575
 20
-92.4091
 30
0.0
 10
-43.9769
 20
-89.9964
 30
0.0
 10
-47.1812
 20
-88.1445
 30
0.0
 10
-50.7784
 20
-88.0152
 30
0.0
  0
SPLINE
  5
129
330
1F
100
AcDbEntity
  8
layer 1
 62
     7
100
AcDbSpline
210
0.0
220
0.0
230
1.0
 70
    11
 71
     3
 72
    20
 73
    16
 74
     0
 42
0.0000000001
 43
0.0000000001
 12
1.0
 22
0.0
 32
0.0
 13
1.0
 23
0.0
 33
0.0
 40
0.0
 40
0.0
 40
0.0
 40
0.0
 40
0.2
 40
0.2
 40
0.2
 40
0.2
 40
0.4
 40
0.4
 40
0.4
 40
0.4
 40
0.6
 40
0.6
 40
0.6
 40
0.6
 40
1.0
 40
1.0
 40
1.0
 40
1.0
 10
-24.5801
 20
-88.0688
 30
0.0
 10
-24.8849
 20
-92.269
 30
0.0
 10
-26.9297
 20
-95.0001
 30
0.0
 10
-28.5612
 20
-96.5851
 30
0.0
 10
-28.5612
 20
-96.5851
 30
0.0
 10
-30.6836
 20
-98.6025
 30
0.0
 10
-33.6666
 20
-100.1232
 30
0.0
 10
-36.8732
 20
-100.2397
 30
0.0
 10
-36.8732
 20
-100.2397
 30
0.0
 10
-36.7293
 20
-97.2895
 30
0.0
 10
-35.365
 20
-94.4815
 30
0.0
 10
-33.601
 20
-92.4626
 30
0.0
 10
-33.601
 20
-92.4626
 30
0.0
 10
-31.3816
 20
-90.0499
 30
0.0
 10
-28.1773
 20
-88.198
 30
0.0
 10
-24.5801
 20
-88.0688
 30
0.0
  0
SPLINE
  5
12A
330
1F
100
AcDbEntity
  8
layer 1
 62
     7
100
AcDbSpline
210
0.0
220
0.0
230
1.0
 70
    11
 71
     3
 72
    16
 73
    12
 74
     0
 42
0.0000000001
 43
0.0000000001
 12
1.0
 22
0.0
 32
0.0
 13
1.0
 23
0.0
 33
0.0
 40
0.0
 40
0.0
 40
0.0
 40
0.0
 40
0.25
 40
0.25
 40
0.25
 40
0.25
 40
0.5
 40
0.5
 40
0.5
 40
0.5
 40
1.0
 40
1.0
 40
1.0
 40
1.0
 10
73.0946
 20
-83.1939
 30
0.0
 10
73.0946
 20
-83.1939
 30
0.0
 10
73.0946
 20
-91.139
 30
0.0
 10
73.0946
 20
-91.139
 30
0.0
 10
73.0946
 20
-91.139
 30
0.0
 10
70.9009
 20
-91.139
 30
0.0
 10
69.1221
 20
-89.36
 30
0.0
 10
69.1221
 20
-87.1663
 30
0.0
 10
69.1221
 20
-87.1663
 30
0.0
 10
69.1221
 20
-84.9727
 30
0.0
 10
70.9009
 20
-83.1939
 30
0.0
 10
73.0946
 20
-83.1939
 30
0.0
  0
ELLIPSE
  5
12B
330
1F
100
AcDbEntity
  8
layer 1
 62
     7
100
AcDbEllipse
 10
-10.0427
 20
-87.1664
 30
0.0
 11
0.0
 21
3.9725
 31
0.0
210
0.0
220
0.0
230
1.0
 40
1.0
 41
0.0
 42
6.283185307179586
  0
SPLINE
  5
12C
330
1F
100
AcDbEntity
  8
layer 1
 62
     7
100
AcDbSpline
210
0.0
220
0.0
230
1.0
 70
    11
 71
     3
 72
    20
 73
    16
 74
     0
 42
0.0000000001
 43
0.0000000001
 12
1.0
 22
0.0
 32
0.0
 13
1.0
 23
0.0
 33
0.0
 40
0.0
 40
0.0
 40
0.0
 40
0.0
 40
0.2
 40
0.2
 40
0.2
 40
0.2
 40
0.4
 40
0.4
 40
0.4
 40
0.4
 40
0.6
 40
0.6
 40
0.6
 40
0.6
 40
1.0
 40
1.0
 40
1.0
 40
1.0
 10
-23.1199
 20
-88.0152
 30
0.0
 10
-22.8151
 20
-92.2155
 30
0.0
 10
-20.7703
 20
-94.9466
 30
0.0
 10
-19.1388
 20
-96.5316
 30
0.0
 10
-19.1388
 20
-96.5316
 30
0.0
 10
-17.0165
 20
-98.549
 30
0.0
 10
-14.0335
 20
-100.0697
 30
0.0
 10
-10.8268
 20
-100.1861
 30
0.0
 10
-10.8268
 20
-100.1861
 30
0.0
 10
-10.9708
 20
-97.236
 30
0.0
 10
-12.3351
 20
-94.428
 30
0.0
 10
-14.0991
 20
-92.4091
 30
0.0
 10
-14.0991
 20
-92.4091
 30
0.0
 10
-16.3185
 20
-89.9964
 30
0.0
 10
-19.5228
 20
-88.1445
 30
0.0
 10
-23.1199
 20
-88.0152
 30
0.0
  0
SPLINE
  5
12D
330
1F
100
AcDbEntity
  8
layer 1
 62
     7
100
AcDbSpline
210
0.0
220
0.0
230
1.0
 70
    11
 71
     3
 72
    20
 73
    16
 74
     0
 42
0.0000000001
 43
0.0000000001
 12
1.0
 22
0.0
 32
0.0
 13
1.0
 23
0.0
 33
0.0
 40
0.0
 40
0.0
 40
0.0
 40
0.0
 40
0.2
 40
0.2
 40
0.2
 40
0.2
 40
0.4
 40
0.4
 40
0.4
 40
0.4
 40
0.6
 40
0.6
 40
0.6
 40
0.6
 40
1.0
 40
1.0
 40
1.0
 40
1.0
 10
3.0783
 20
-88.0688
 30
0.0
 10
2.7735
 20
-92.269
 30
0.0
 10
0.7287
 20
-95.0001
 30
0.0
 10
-0.9028
 20
-96.5851
 30
0.0
 10
-0.9028
 20
-96.5851
 30
0.0
 10
-3.0251
 20
-98.6025
 30
0.0
 10
-6.0081
 20
-100.1232
 30
0.0
 10
-9.2148
 20
-100.2397
 30
0.0
 10
-9.2148
 20
-100.2397
 30
0.0
 10
-9.0709
 20
-97.2895
 30
0.0
 10
-7.7066
 20
-94.4815
 30
0.0
 10
-5.9425
 20
-92.4626
 30
0.0
 10
-5.9425
 20
-92.4626
 30
0.0
 10
-3.7231
 20
-90.0499
 30
0.0
 10
-0.5188
 20
-88.198
 30
0.0
 10
3.0783
 20
-88.0688
 30
0.0
  0
ELLIPSE
  5
12E
330
1F
100
AcDbEntity
  8
layer 1
 62
     7
100
AcDbEllipse
 10
17.6487
 20
-87.1664
 30
0.0
 11
0.0
 21
3.9725
 31
0.0
210
0.0
220
0.0
230
1.0
 40
1.0
 41
0.0
 42
6.283185307179586
  0
SPLINE
  5
12F
330
1F
100
AcDbEntity
  8
layer 1
 62
     7
100
AcDbSpline
210
0.0
220
0.0
230
1.0
 70
    11
 71
     3
 72
    20
 73
    16
 74
     0
 42
0.0000000001
 43
0.0000000001
 12
1.0
 22
0.0
 32
0.0
 13
1.0
 23
0.0
 33
0.0
 40
0.0
 40
0.0
 40
0.0
 40
0.0
 40
0.2
 40
0.2
 40
0.2
 40
0.2
 40
0.4
 40
0.4
 40
0.4
 40
0.4
 40
0.6
 40
0.6
 40
0.6
 40
0.6
 40
1.0
 40
1.0
 40
1.0
 40
1.0
 10
4.5715
 20
-88.0152
 30
0.0
 10
4.8763
 20
-92.2155
 30
0.0
 10
6.9211
 20
-94.9466
 30
0.0
 10
8.5526
 20
-96.5316
 30
0.0
 10
8.5526
 20
-96.5316
 30
0.0
 10
10.6749
 20
-98.549
 30
0.0
 10
13.6579
 20
-100.0697
 30
0.0
 10
16.8646
 20
-100.1861
 30
0.0
 10
16.8646
 20
-100.1861
 30
0.0
 10
16.7207
 20
-97.236
 30
0.0
 10
15.3564
 20
-94.428
 30
0.0
 10
13.5923
 20
-92.4091
 30
0.0
 10
13.5923
 20
-92.4091
 30
0.0
 10
11.373
 20
-89.9964
 30
0.0
 10
8.1686
 20
-88.1445
 30
0.0
 10
4.5715
 20
-88.0152
 30
0.0
  0
SPLINE
  5
130
330
1F
100
AcDbEntity
  8
layer 1
 62
     7
100
AcDbSpline
210
0.0
220
0.0
230
1.0
 70
    11
 71
     3
 72
    20
 73
    16
 74
     0
 42
0.0000000001
 43
0.0000000001
 12
1.0
 22
0.0
 32
0.0
 13
1.0
 23
0.0
 33
0.0
 40
0.0
 40
0.0
 40
0.0
 40
0.0
 40
0.2
 40
0.2
 40
0.2
 40
0.2
 40
0.4
 40
0.4
 40
0.4
 40
0.4
 40
0.6
 40
0.6
 40
0.6
 40
0.6
 40
1.0
 40
1.0
 40
1.0
 40
1.0
 10
30.7697
 20
-88.0688
 30
0.0
 10
30.465
 20
-92.269
 30
0.0
 10
28.4201
 20
-95.0001
 30
0.0
 10
26.7887
 20
-96.5851
 30
0.0
 10
26.7887
 20
-96.5851
 30
0.0
 10
24.6663
 20
-98.6025
 30
0.0
 10
21.6833
 20
-100.1232
 30
0.0
 10
18.4767
 20
-100.2397
 30
0.0
 10
18.4767
 20
-100.2397
 30
0.0
 10
18.6206
 20
-97.2895
 30
0.0
 10
19.9849
 20
-94.4815
 30
0.0
 10
21.7489
 20
-92.4626
 30
0.0
 10
21.7489
 20
-92.4626
 30
0.0
 10
23.9683
 20
-90.0499
 30
0.0
 10
27.1726
 20
-88.198
 30
0.0
 10
30.7697
 20
-88.0688
 30
0.0
  0
ELLIPSE
  5
131
330
1F
100
AcDbEntity
  8
layer 1
 62
     7
100
AcDbEllipse
 10
45.3564
 20
-87.1664
 30
0.0
 11
0.0
 21
3.9725
 31
0.0
210
0.0
220
0.0
230
1.0
 40
1.0
 41
0.0
 42
6.283185307179586
  0
SPLINE
  5
132
330
1F
100
AcDbEntity
  8
layer 1
 62
     7
100
AcDbSpline
210
0.0
220
0.0
230
1.0
 70
    11
 71
     3
 72
    20
 73
    16
 74
     0
 42
0.0000000001
 43
0.0000000001
 12
1.0
 22
0.0
 32
0.0
 13
1.0
 23
0.0
 33
0.0
 40
0.0
 40
0.0
 40
0.0
 40
0.0
 40
0.2
 40
0.2
 40
0.2
 40
0.2
 40
0.4
 40
0.4
 40
0.4
 40
0.4
 40
0.6
 40
0.6
 40
0.6
 40
0.6
 40
1.0
 40
1.0
 40
1.0
 40
1.0
 10
32.2792
 20
-88.0152
 30
0.0
 10
32.584
 20
-92.2155
 30
0.0
 10
34.6288
 20
-94.9466
 30
0.0
 10
36.2603
 20
-96.5316
 30
0.0
 10
36.2603
 20
-96.5316
 30
0.0
 10
38.3826
 20
-98.549
 30
0.0
 10
41.3656
 20
-100.0697
 30
0.0
 10
44.5723
 20
-100.1861
 30
0.0
 10
44.5723
 20
-100.1861
 30
0.0
 10
44.4283
 20
-97.236
 30
0.0
 10
43.064
 20
-94.428
 30
0.0
 10
41.3
 20
-92.4091
 30
0.0
 10
41.3
 20
-92.4091
 30
0.0
 10
39.0806
 20
-89.9964
 30
0.0
 10
35.8763
 20
-88.1445
 30
0.0
 10
32.2792
 20
-88.0152
 30
0.0
  0
SPLINE
  5
133
330
1F
100
AcDbEntity
  8
layer 1
 62
     7
100
AcDbSpline
210
0.0
220
0.0
230
1.0
 70
    11
 71
     3
 72
    20
 73
    16
 74
     0
 42
0.0000000001
 43
0.0000000001
 12
1.0
 22
0.0
 32
0.0
 13
1.0
 23
0.0
 33
0.0
 40
0.0
 40
0.0
 40
0.0
 40
0.0
 40
0.2
 40
0.2
 40
0.2
 40
0.2
 40
0.4
 40
0.4
 40
0.4
 40
0.4
 40
0.6
 40
0.6
 40
0.6
 40
0.6
 40
1.0
 40
1.0
 40
1.0
 40
1.0
 10
60.0174
 20
-88.0152
 30
0.0
 10
60.3221
 20
-92.2155
 30
0.0
 10
62.367
 20
-94.9466
 30
0.0
 10
63.9984
 20
-96.5316
 30
0.0
 10
63.9984
 20
-96.5316
 30
0.0
 10
66.1208
 20
-98.549
 30
0.0
 10
69.1038
 20
-100.0697
 30
0.0
 10
72.3104
 20
-100.1861
 30
0.0
 10
72.3104
 20
-100.1861
 30
0.0
 10
72.1665
 20
-97.236
 30
0.0
 10
70.8022
 20
-94.428
 30
0.0
 10
69.0382
 20
-92.4091
 30
0.0
 10
69.0382
 20
-92.4091
 30
0.0
 10
66.8188
 20
-89.9964
 30
0.0
 10
63.6145
 20
-88.1445
 30
0.0
 10
60.0174
 20
-88.0152
 30
0.0
  0
SPLINE
  5
134
330
1F
100
AcDbEntity
  8
layer 1
 62
     7
100
AcDbSpline
210
0.0
220
0.0
230
1.0
 70
    11
 71
     3
 72
    20
 73
    16
 74
     0
 42
0.0000000001
 43
0.0000000001
 12
1.0
 22
0.0
 32
0.0
 13
1.0
 23
0.0
 33
0.0
 40
0.0
 40
0.0
 40
0.0
 40
0.0
 40
0.2
 40
0.2
 40
0.2
 40
0.2
 40
0.4
 40
0.4
 40
0.4
 40
0.4
 40
0.6
 40
0.6
 40
0.6
 40
0.6
 40
1.0
 40
1.0
 40
1.0
 40
1.0
 10
46.0957
 20
-100.1975
 30
0.0
 10
46.4005
 20
-95.9972
 30
0.0
 10
48.4453
 20
-93.2662
 30
0.0
 10
50.0768
 20
-91.6811
 30
0.0
 10
50.0768
 20
-91.6811
 30
0.0
 10
52.1991
 20
-89.6638
 30
0.0
 10
55.1821
 20
-88.1431
 30
0.0
 10
58.3888
 20
-88.0266
 30
0.0
 10
58.3888
 20
-88.0266
 30
0.0
 10
58.2449
 20
-90.9767
 30
0.0
 10
56.8806
 20
-93.7847
 30
0.0
 10
55.1165
 20
-95.8036
 30
0.0
 10
55.1165
 20
-95.8036
 30
0.0
 10
52.8971
 20
-98.2163
 30
0.0
 10
49.6928
 20
-100.0683
 30
0.0
 10
46.0957
 20
-100.1975
 30
0.0
  0
ELLIPSE
  5
135
330
1F
100
AcDbEntity
  8
layer 1
 62
     7
100
AcDbEllipse
 10
-37.7035
 20
-87.1664
 30
0.0
 11
0.0
 21
3.9725
 31
0.0
210
0.0
220
0.0
230
1.0
 40
1.0
 41
0.0
 42
6.283185307179586
  0
SPLINE
  5
136
330
1F
100
AcDbEntity
  8
layer 1
 62
     7
100
AcDbSpline
210
0.0
220
0.0
230
1.0
 70
    11
 71
     3
 72
    16
 73
    12
 74
     0
 42
0.0000000001
 43
0.0000000001
 12
1.0
 22
0.0
 32
0.0
 13
1.0
 23
0.0
 33
0.0
 40
0.0
 40
0.0
 40
0.0
 40
0.0
 40
0.25
 40
0.25
 40
0.25
 40
0.25
 40
0.5
 40
0.5
 40
0.5
 40
0.5
 40
1.0
 40
1.0
 40
1.0
 40
1.0
 10
-19.9024
 20
122.5982
 30
0.0
 10
-19.9024
 20
120.4044
 30
0.0
 10
-21.6813
 20
118.6256
 30
0.0
 10
-23.8749
 20
118.6256
 30
0.0
 10
-23.8749
 20
118.6256
 30
0.0
 10
-26.0687
 20
118.6256
 30
0.0
 10
-27.8475
 20
120.4044
 30
0.0
 10
-27.8475
 20
122.5982
 30
0.0
 10
-27.8475
 20
122.5982
 30
0.0
 10
-27.8475
 20
122.5982
 30
0.0
 10
-19.9024
 20
122.5982
 30
0.0
 10
-19.9024
 20
122.5982
 30
0.0
  0
SPLINE
  5
137
330
1F
100
AcDbEntity
  8
layer 1
 62
     7
100
AcDbSpline
210
0.0
220
0.0
230
1.0
 70
    11
 71
     3
 72
    16
 73
    12
 74
     0
 42
0.0000000001
 43
0.0000000001
 12
1.0
 22
0.0
 32
0.0
 13
1.0
 23
0.0
 33
0.0
 40
0.0
 40
0.0
 40
0.0
 40
0.0
 40
0.25
 40
0.25
 40
0.25
 40
0.25
 40
0.5
 40
0.5
 40
0.5
 40
0.5
 40
1.0
 40
1.0
 40
1.0
 40
1.0
 10
7.7471
 20
122.5982
 30
0.0
 10
7.7471
 20
120.4044
 30
0.0
 10
5.9682
 20
118.6256
 30
0.0
 10
3.7746
 20
118.6256
 30
0.0
 10
3.7746
 20
118.6256
 30
0.0
 10
1.5809
 20
118.6256
 30
0.0
 10
-0.198
 20
120.4044
 30
0.0
 10
-0.198
 20
122.5982
 30
0.0
 10
-0.198
 20
122.5982
 30
0.0
 10
-0.198
 20
122.5982
 30
0.0
 10
7.7471
 20
122.5982
 30
0.0
 10
7.7471
 20
122.5982
 30
0.0
  0
SPLINE
  5
138
330
1F
100
AcDbEntity
  8
layer 1
 62
     7
100
AcDbSpline
210
0.0
220
0.0
230
1.0
 70
    11
 71
     3
 72
    16
 73
    12
 74
     0
 42
0.0000000001
 43
0.0000000001
 12
1.0
 22
0.0
 32
0.0
 13
1.0
 23
0.0
 33
0.0
 40
0.0
 40
0.0
 40
0.0
 40
0.0
 40
0.25
 40
0.25
 40
0.25
 40
0.25
 40
0.5
 40
0.5
 40
0.5
 40
0.5
 40
1.0
 40
1.0
 40
1.0
 40
1.0
 10
35.4386
 20
122.5982
 30
0.0
 10
35.4386
 20
120.4044
 30
0.0
 10
33.6597
 20
118.6256
 30
0.0
 10
31.4661
 20
118.6256
 30
0.0
 10
31.4661
 20
118.6256
 30
0.0
 10
29.2723
 20
118.6256
 30
0.0
 10
27.4935
 20
120.4044
 30
0.0
 10
27.4935
 20
122.5982
 30
0.0
 10
27.4935
 20
122.5982
 30
0.0
 10
27.4935
 20
122.5982
 30
0.0
 10
35.4386
 20
122.5982
 30
0.0
 10
35.4386
 20
122.5982
 30
0.0
  0
SPLINE
  5
139
330
1F
100
AcDbEntity
  8
layer 1
 62
     7
100
AcDbSpline
210
0.0
220
0.0
230
1.0
 70
    11
 71
     3
 72
    16
 73
    12
 74
     0
 42
0.0000000001
 43
0.0000000001
 12
1.0
 22
0.0
 32
0.0
 13
1.0
 23
0.0
 33
0.0
 40
0.0
 40
0.0
 40
0.0
 40
0.0
 40
0.25
 40
0.25
 40
0.25
 40
0.25
 40
0.5
 40
0.5
 40
0.5
 40
0.5
 40
1.0
 40
1.0
 40
1.0
 40
1.0
 10
63.1615
 20
122.5982
 30
0.0
 10
63.1615
 20
120.4044
 30
0.0
 10
61.3826
 20
118.6256
 30
0.0
 10
59.189
 20
118.6256
 30
0.0
 10
59.189
 20
118.6256
 30
0.0
 10
56.9953
 20
118.6256
 30
0.0
 10
55.2164
 20
120.4044
 30
0.0
 10
55.2164
 20
122.5982
 30
0.0
 10
55.2164
 20
122.5982
 30
0.0
 10
55.2164
 20
122.5982
 30
0.0
 10
63.1615
 20
122.5982
 30
0.0
 10
63.1615
 20
122.5982
 30
0.0
  0
SPLINE
  5
13A
330
1F
100
AcDbEntity
  8
layer 1
 62
     7
100
AcDbSpline
210
0.0
220
0.0
230
1.0
 70
    11
 71
     3
 72
    16
 73
    12
 74
     0
 42
0.0000000001
 43
0.0000000001
 12
1.0
 22
0.0
 32
0.0
 13
1.0
 23
0.0
 33
0.0
 40
0.0
 40
0.0
 40
0.0
 40
0.0
 40
0.25
 40
0.25
 40
0.25
 40
0.25
 40
0.5
 40
0.5
 40
0.5
 40
0.5
 40
1.0
 40
1.0
 40
1.0
 40
1.0
 10
-47.4924
 20
-101.1269
 30
0.0
 10
-47.4924
 20
-98.9332
 30
0.0
 10
-49.2713
 20
-97.1543
 30
0.0
 10
-51.4649
 20
-97.1543
 30
0.0
 10
-51.4649
 20
-97.1543
 30
0.0
 10
-53.6586
 20
-97.1543
 30
0.0
 10
-55.4375
 20
-98.9332
 30
0.0
 10
-55.4375
 20
-101.1269
 30
0.0
 10
-55.4375
 20
-101.1269
 30
0.0
 10
-55.4375
 20
-101.1269
 30
0.0
 10
-47.4924
 20
-101.1269
 30
0.0
 10
-47.4924
 20
-101.1269
 30
0.0
  0
SPLINE
  5
13B
330
1F
100
AcDbEntity
  8
layer 1
 62
     7
100
AcDbSpline
210
0.0
220
0.0
230
1.0
 70
    11
 71
     3
 72
    16
 73
    12
 74
     0
 42
0.0000000001
 43
0.0000000001
 12
1.0
 22
0.0
 32
0.0
 13
1.0
 23
0.0
 33
0.0
 40
0.0
 40
0.0
 40
0.0
 40
0.0
 40
0.25
 40
0.25
 40
0.25
 40
0.25
 40
0.5
 40
0.5
 40
0.5
 40
0.5
 40
1.0
 40
1.0
 40
1.0
 40
1.0
 10
-19.8886
 20
-101.1269
 30
0.0
 10
-19.8886
 20
-98.9332
 30
0.0
 10
-21.6675
 20
-97.1543
 30
0.0
 10
-23.8611
 20
-97.1543
 30
0.0
 10
-23.8611
 20
-97.1543
 30
0.0
 10
-26.0548
 20
-97.1543
 30
0.0
 10
-27.8337
 20
-98.9332
 30
0.0
 10
-27.8337
 20
-101.1269
 30
0.0
 10
-27.8337
 20
-101.1269
 30
0.0
 10
-27.8337
 20
-101.1269
 30
0.0
 10
-19.8886
 20
-101.1269
 30
0.0
 10
-19.8886
 20
-101.1269
 30
0.0
  0
SPLINE
  5
13C
330
1F
100
AcDbEntity
  8
layer 1
 62
     7
100
AcDbSpline
210
0.0
220
0.0
230
1.0
 70
    11
 71
     3
 72
    16
 73
    12
 74
     0
 42
0.0000000001
 43
0.0000000001
 12
1.0
 22
0.0
 32
0.0
 13
1.0
 23
0.0
 33
0.0
 40
0.0
 40
0.0
 40
0.0
 40
0.0
 40
0.25
 40
0.25
 40
0.25
 40
0.25
 40
0.5
 40
0.5
 40
0.5
 40
0.5
 40
1.0
 40
1.0
 40
1.0
 40
1.0
 10
7.761
 20
-101.1269
 30
0.0
 10
7.761
 20
-98.9332
 30
0.0
 10
5.9821
 20
-97.1543
 30
0.0
 10
3.7885
 20
-97.1543
 30
0.0
 10
3.7885
 20
-97.1543
 30
0.0
 10
1.5948
 20
-97.1543
 30
0.0
 10
-0.1841
 20
-98.9332
 30
0.0
 10
-0.1841
 20
-101.1269
 30
0.0
 10
-0.1841
 20
-101.1269
 30
0.0
 10
-0.1841
 20
-101.1269
 30
0.0
 10
7.761
 20
-101.1269
 30
0.0
 10
7.761
 20
-101.1269
 30
0.0
  0
SPLINE
  5
13D
330
1F
100
AcDbEntity
  8
layer 1
 62
     7
100
AcDbSpline
210
0.0
220
0.0
230
1.0
 70
    11
 71
     3
 72
    16
 73
    12
 74
     0
 42
0.0000000001
 43
0.0000000001
 12
1.0
 22
0.0
 32
0.0
 13
1.0
 23
0.0
 33
0.0
 40
0.0
 40
0.0
 40
0.0
 40
0.0
 40
0.25
 40
0.25
 40
0.25
 40
0.25
 40
0.5
 40
0.5
 40
0.5
 40
0.5
 40
1.0
 40
1.0
 40
1.0
 40
1.0
 10
35.4524
 20
-101.1269
 30
0.0
 10
35.4524
 20
-98.9332
 30
0.0
 10
33.6736
 20
-97.1543
 30
0.0
 10
31.4799
 20
-97.1543
 30
0.0
 10
31.4799
 20
-97.1543
 30
0.0
 10
29.2862
 20
-97.1543
 30
0.0
 10
27.5073
 20
-98.9332
 30
0.0
 10
27.5073
 20
-101.1269
 30
0.0
 10
27.5073
 20
-101.1269
 30
0.0
 10
27.5073
 20
-101.1269
 30
0.0
 10
35.4524
 20
-101.1269
 30
0.0
 10
35.4524
 20
-101.1269
 30
0.0
  0
SPLINE
  5
13E
330
1F
100
AcDbEntity
  8
layer 1
 62
     7
100
AcDbSpline
210
0.0
220
0.0
230
1.0
 70
    11
 71
     3
 72
    16
 73
    12
 74
     0
 42
0.0000000001
 43
0.0000000001
 12
1.0
 22
0.0
 32
0.0
 13
1.0
 23
0.0
 33
0.0
 40
0.0
 40
0.0
 40
0.0
 40
0.0
 40
0.25
 40
0.25
 40
0.25
 40
0.25
 40
0.5
 40
0.5
 40
0.5
 40
0.5
 40
1.0
 40
1.0
 40
1.0
 40
1.0
 10
63.1753
 20
-101.1269
 30
0.0
 10
63.1753
 20
-98.9332
 30
0.0
 10
61.3965
 20
-97.1543
 30
0.0
 10
59.2029
 20
-97.1543
 30
0.0
 10
59.2029
 20
-97.1543
 30
0.0
 10
57.0091
 20
-97.1543
 30
0.0
 10
55.2302
 20
-98.9332
 30
0.0
 10
55.2302
 20
-101.1269
 30
0.0
 10
55.2302
 20
-101.1269
 30
0.0
 10
55.2302
 20
-101.1269
 30
0.0
 10
63.1753
 20
-101.1269
 30
0.0
 10
63.1753
 20
-101.1269
 30
0.0
  0
ENDSEC
  0
SECTION
  2
OBJECTS
  0
DICTIONARY
  5
C
330
0
100
AcDbDictionary
281
     1
  3
ACAD_GROUP
350
D
  3
ACAD_LAYOUT
350
1A
  3
ACAD_MATERIAL
350
3B
  3
ACAD_MLEADERSTYLE
350
160
  3
ACAD_MLINESTYLE
350
17
  3
ACAD_PLOTSETTINGS
350
19
  3
ACAD_PLOTSTYLENAME
350
E
  3
ACAD_TABLESTYLE
350
15F
  3
ACAD_VISUALSTYLE
350
2A
  0
DICTIONARY
  5
D
102
{ACAD_REACTORS
330
C
102
}
330
C
100
AcDbDictionary
281
     1
  0
DICTIONARY
  5
1A
102
{ACAD_REACTORS
330
C
102
}
330
C
100
AcDbDictionary
281
     1
  3
Layout1
350
1E
  3
Layout2
350
26
  3
Model
350
22
  0
DICTIONARY
  5
3B
102
{ACAD_REACTORS
330
C
102
}
330
C
100
AcDbDictionary
281
     1
  3
ByBlock
350
3D
  3
ByLayer
350
3C
  3
Global
350
3E
  0
DICTIONARY
  5
160
102
{ACAD_REACTORS
330
C
102
}
330
C
100
AcDbDictionary
281
     1
  0
DICTIONARY
  5
17
102
{ACAD_REACTORS
330
C
102
}
330
C
100
AcDbDictionary
281
     1
  3
Standard
350
18
  0
DICTIONARY
  5
19
102
{ACAD_REACTORS
330
C
102
}
330
C
100
AcDbDictionary
281
     1
  0
ACDBDICTIONARYWDFLT
  5
E
102
{ACAD_REACTORS
330
C
102
}
330
C
100
AcDbDictionary
281
     1
  3
Normal
350
F
100
AcDbDictionaryWithDefault
340
F
  0
DICTIONARY
  5
15F
102
{ACAD_REACTORS
330
C
102
}
330
C
100
AcDbDictionary
281
     1
  0
DICTIONARY
  5
2A
102
{ACAD_REACTORS
330
C
102
}
330
C
100
AcDbDictionary
281
     1
  3
2dWireframe
350
2F
  3
3D Hidden
350
31
  3
3dWireframe
350
30
  3
Basic
350
32
  3
Brighten
350
36
  3
ColorChange
350
3A
  3
Conceptual
350
34
  3
Dim
350
35
  3
Facepattern
350
39
  3
Flat
350
2B
  3
FlatWithEdges
350
2C
  3
Gouraud
350
2D
  3
GouraudWithEdges
350
2E
  3
Linepattern
350
38
  3
Realistic
350
33
  3
Thicken
350
37
  0
LAYOUT
  5
1E
102
{ACAD_REACTORS
330
1A
102
}
330
1A
100
AcDbPlotSettings
  1

  2
none_device
  4

  6

 40
0.0
 41
0.0
 42
0.0
 43
0.0
 44
0.0
 45
0.0
 46
0.0
 47
0.0
 48
0.0
 49
0.0
140
0.0
141
0.0
142
1.0
143
1.0
 70
   688
 72
     0
 73
     0
 74
     5
  7

 75
    16
 76
     0
 77
     2
 78
   300
147
1.0
148
0.0
149
0.0
100
AcDbLayout
  1
Layout1
 70
     1
 71
     1
 10
0.0
 20
0.0
 11
12.0
 21
9.0
 12
0.0
 22
0.0
 32
0.0
 14
1.000000000000000E+20
 24
1.000000000000000E+20
 34
1.000000000000000E+20
 15
-1.000000000000000E+20
 25
-1.000000000000000E+20
 35
-1.000000000000000E+20
146
0.0
 13
0.0
 23
0.0
 33
0.0
 16
1.0
 26
0.0
 36
0.0
 17
0.0
 27
1.0
 37
0.0
 76
     0
330
1B
  0
LAYOUT
  5
26
102
{ACAD_REACTORS
330
1A
102
}
330
1A
100
AcDbPlotSettings
  1

  2
none_device
  4

  6

 40
0.0
 41
0.0
 42
0.0
 43
0.0
 44
0.0
 45
0.0
 46
0.0
 47
0.0
 48
0.0
 49
0.0
140
0.0
141
0.0
142
1.0
143
1.0
 70
   688
 72
     0
 73
     0
 74
     5
  7

 75
    16
 76
     0
 77
     2
 78
   300
147
1.0
148
0.0
149
0.0
100
AcDbLayout
  1
Layout2
 70
     1
 71
     2
 10
0.0
 20
0.0
 11
0.0
 21
0.0
 12
0.0
 22
0.0
 32
0.0
 14
0.0
 24
0.0
 34
0.0
 15
0.0
 25
0.0
 35
0.0
146
0.0
 13
0.0
 23
0.0
 33
0.0
 16
1.0
 26
0.0
 36
0.0
 17
0.0
 27
1.0
 37
0.0
 76
     0
330
23
  0
LAYOUT
  5
22
102
{ACAD_REACTORS
330
1A
102
}
330
1A
100
AcDbPlotSettings
  1

  2
none_device
  4

  6

 40
0.0
 41
0.0
 42
0.0
 43
0.0
 44
0.0
 45
0.0
 46
0.0
 47
0.0
 48
0.0
 49
0.0
140
0.0
141
0.0
142
1.0
143
1.0
 70
  1712
 72
     0
 73
     0
 74
     0
  7

 75
     0
 76
     0
 77
     2
 78
   300
147
1.0
148
0.0
149
0.0
100
AcDbLayout
  1
Model
 70
     1
 71
     0
 10
0.0
 20
0.0
 11
12.0
 21
9.0
 12
0.0
 22
0.0
 32
0.0
 14
-73.0852
 24
-106.4823
 34
0.0
 15
82.5375
 25
131.8661
 35
0.0
146
0.0
 13
0.0
 23
0.0
 33
0.0
 16
1.0
 26
0.0
 36
0.0
 17
0.0
 27
1.0
 37
0.0
 76
     0
330
1F
331
29
  0
MATERIAL
  5
3D
102
{ACAD_REACTORS
330
3B
102
}
330
3B
100
AcDbMaterial
  1
ByBlock
 72
     1
 94
      127
  0
MATERIAL
  5
3C
102
{ACAD_REACTORS
330
3B
102
}
330
3B
100
AcDbMaterial
  1
ByLayer
 72
     1
 94
      127
  0
MATERIAL
  5
3E
102
{ACAD_REACTORS
330
3B
102
}
330
3B
100
AcDbMaterial
  1
Global
 72
     1
 94
      127
  0
MLINESTYLE
  5
18
102
{ACAD_REACTORS
330
17
102
}
330
17
100
AcDbMlineStyle
  2
Standard
 70
     0
  3

 62
   256
 51
90.0
 52
90.0
 71
     2
 49
0.5
 62
   256
  6
BYLAYER
 49
-0.5
 62
   256
  6
BYLAYER
  0
ACDBPLACEHOLDER
  5
F
102
{ACAD_REACTORS
330
E
102
}
330
E
  0
VISUALSTYLE
  5
2F
102
{ACAD_REACTORS
330
2A
102
}
102
{ACAD_XDICTIONARY
360
147
102
}
330
2A
100
AcDbVisualStyle
  2
2dWireframe
 70
     4
 71
     0
 72
     2
 73
     0
 90
        0
 40
-0.6
 41
-30.0
 62
     5
 63
     7
421
 16777215
 74
     1
 91
        4
 64
     7
 65
   257
 75
     1
175
     1
 42
1.0
 92
        0
 66
   257
 43
1.0
 76
     1
 77
     6
 78
     2
 67
     7
 79
     5
170
     0
171
     0
290
     0
174
     0
 93
        1
 44
0.0
173
     0
291
     0
 45
0.0
  0
VISUALSTYLE
  5
31
102
{ACAD_REACTORS
330
2A
102
}
102
{ACAD_XDICTIONARY
360
14B
102
}
330
2A
100
AcDbVisualStyle
  2
3D Hidden
 70
     6
 71
     1
 72
     2
 73
     2
 90
        0
 40
-0.6
 41
-30.0
 62
     5
 63
     7
421
 16777215
 74
     2
 91
        2
 64
     7
 65
   257
 75
     2
175
     1
 42
40.0
 92
        0
 66
   257
 43
1.0
 76
     1
 77
     6
 78
     2
 67
     7
 79
     3
170
     0
171
     0
290
     0
174
     0
 93
        1
 44
0.0
173
     0
291
     0
 45
0.0
  0
VISUALSTYLE
  5
30
102
{ACAD_REACTORS
330
2A
102
}
102
{ACAD_XDICTIONARY
360
149
102
}
330
2A
100
AcDbVisualStyle
  2
3dWireframe
 70
     5
 71
     0
 72
     2
 73
     0
 90
        0
 40
-0.6
 41
-30.0
 62
     5
 63
     7
421
 16777215
 74
     1
 91
        4
 64
     7
 65
   257
 75
     1
175
     1
 42
1.0
 92
        0
 66
   257
 43
1.0
 76
     1
 77
     6
 78
     2
 67
     7
 79
     5
170
     0
171
     0
290
     0
174
     0
 93
        1
 44
0.0
173
     0
291
     0
 45
0.0
  0
VISUALSTYLE
  5
32
102
{ACAD_REACTORS
330
2A
102
}
102
{ACAD_XDICTIONARY
360
14D
102
}
330
2A
100
AcDbVisualStyle
  2
Basic
 70
     7
 71
     1
 72
     0
 73
     1
 90
        0
 40
-0.6
 41
-30.0
 62
     5
 63
     7
421
 16777215
 74
     0
 91
        4
 64
     7
 65
   257
 75
     1
175
     1
 42
1.0
 92
        8
 66
     7
 43
1.0
 76
     1
 77
     6
 78
     2
 67
     7
 79
     5
170
     0
171
     0
290
     0
174
     0
 93
        1
 44
0.0
173
     0
291
     1
 45
0.0
  0
VISUALSTYLE
  5
36
102
{ACAD_REACTORS
330
2A
102
}
102
{ACAD_XDICTIONARY
360
155
102
}
330
2A
100
AcDbVisualStyle
  2
Brighten
 70
    12
 71
     2
 72
     2
 73
     0
 90
        0
 40
-0.6
 41
-30.0
 62
     5
 63
     7
421
 16777215
 74
     1
 91
        4
 64
     7
 65
   257
 75
     1
175
     1
 42
1.0
 92
        8
 66
     7
 43
1.0
 76
     1
 77
     6
 78
     2
 67
     7
 79
     5
170
     0
171
     0
290
     0
174
     0
 93
        1
 44
50.0
173
     0
291
     1
 45
0.0
  0
VISUALSTYLE
  5
3A
102
{ACAD_REACTORS
330
2A
102
}
102
{ACAD_XDICTIONARY
360
15D
102
}
330
2A
100
AcDbVisualStyle
  2
ColorChange
 70
    16
 71
     2
 72
     2
 73
     3
 90
        0
 40
-0.6
 41
-30.0
 62
     5
 63
     8
421
  8421504
 74
     1
 91
        4
 64
     7
 65
   257
 75
     1
175
     1
 42
1.0
 92
        8
 66
     8
424
  8421504
 43
1.0
 76
     1
 77
     6
 78
     2
 67
     7
 79
     5
170
     0
171
     0
290
     0
174
     0
 93
        1
 44
0.0
173
     0
291
     1
 45
0.0
  0
VISUALSTYLE
  5
34
102
{ACAD_REACTORS
330
2A
102
}
102
{ACAD_XDICTIONARY
360
151
102
}
330
2A
100
AcDbVisualStyle
  2
Conceptual
 70
     9
 71
     3
 72
     2
 73
     0
 90
        0
 40
-0.6
 41
-30.0
 62
     5
 63
     7
421
 16777215
 74
     2
 91
        2
 64
     7
 65
   257
 75
     1
175
     1
 42
40.0
 92
        8
 66
     7
 43
1.0
 76
     1
 77
     6
 78
     2
 67
     7
 79
     3
170
     0
171
     0
290
     0
174
     0
 93
        1
 44
0.0
173
     0
291
     0
 45
0.0
  0
VISUALSTYLE
  5
35
102
{ACAD_REACTORS
330
2A
102
}
102
{ACAD_XDICTIONARY
360
153
102
}
330
2A
100
AcDbVisualStyle
  2
Dim
 70
    11
 71
     2
 72
     2
 73
     0
 90
        0
 40
-0.6
 41
-30.0
 62
     5
 63
     7
421
 16777215
 74
     1
 91
        4
 64
     7
 65
   257
 75
     1
175
     1
 42
1.0
 92
        8
 66
     7
 43
1.0
 76
     1
 77
     6
 78
     2
 67
     7
 79
     5
170
     0
171
     0
290
     0
174
     0
 93
        1
 44
-50.0
173
     0
291
     1
 45
0.0
  0
VISUALSTYLE
  5
39
102
{ACAD_REACTORS
330
2A
102
}
102
{ACAD_XDICTIONARY
360
15B
102
}
330
2A
100
AcDbVisualStyle
  2
Facepattern
 70
    15
 71
     2
 72
     2
 73
     0
 90
        0
 40
-0.6
 41
-30.0
 62
     5
 63
     7
421
 16777215
 74
     1
 91
        4
 64
     7
 65
   257
 75
     1
175
     1
 42
1.0
 92
        8
 66
     7
 43
1.0
 76
     1
 77
     6
 78
     2
 67
     7
 79
     5
170
     0
171
     0
290
     0
174
     0
 93
        1
 44
0.0
173
     0
291
     1
 45
0.0
  0
VISUALSTYLE
  5
2B
102
{ACAD_REACTORS
330
2A
102
}
102
{ACAD_XDICTIONARY
360
13F
102
}
330
2A
100
AcDbVisualStyle
  2
Flat
 70
     0
 71
     2
 72
     1
 73
     1
 90
        2
 40
-0.6
 41
30.0
 62
     5
 63
     7
421
 16777215
 74
     0
 91
        4
 64
     7
 65
   257
 75
     1
175
     1
 42
1.0
 92
        8
 66
     7
 43
1.0
 76
     1
 77
     6
 78
     2
 67
     7
 79
     5
170
     0
171
     0
290
     0
174
     0
 93
       13
 44
0.0
173
     0
291
     1
 45
0.0
  0
VISUALSTYLE
  5
2C
102
{ACAD_REACTORS
330
2A
102
}
102
{ACAD_XDICTIONARY
360
141
102
}
330
2A
100
AcDbVisualStyle
  2
FlatWithEdges
 70
     1
 71
     2
 72
     1
 73
     1
 90
        2
 40
-0.6
 41
30.0
 62
     5
 63
     7
421
 16777215
 74
     1
 91
        4
 64
     7
 65
   257
 75
     1
175
     1
 42
1.0
 92
        0
 66
   257
 43
1.0
 76
     1
 77
     6
 78
     2
 67
     7
 79
     5
170
     0
171
     0
290
     0
174
     0
 93
       13
 44
0.0
173
     0
291
     1
 45
0.0
  0
VISUALSTYLE
  5
2D
102
{ACAD_REACTORS
330
2A
102
}
102
{ACAD_XDICTIONARY
360
143
102
}
330
2A
100
AcDbVisualStyle
  2
Gouraud
 70
     2
 71
     2
 72
     2
 73
     1
 90
        2
 40
-0.6
 41
30.0
 62
     5
 63
     7
421
 16777215
 74
     0
 91
        4
 64
     7
 65
   257
 75
     1
175
     1
 42
1.0
 92
        0
 66
     7
 43
1.0
 76
     1
 77
     6
 78
     2
 67
     7
 79
     5
170
     0
171
     0
290
     0
174
     0
 93
       13
 44
0.0
173
     0
291
     1
 45
0.0
  0
VISUALSTYLE
  5
2E
102
{ACAD_REACTORS
330
2A
102
}
102
{ACAD_XDICTIONARY
360
145
102
}
330
2A
100
AcDbVisualStyle
  2
GouraudWithEdges
 70
     3
 71
     2
 72
     2
 73
     1
 90
        2
 40
-0.6
 41
30.0
 62
     5
 63
     7
421
 16777215
 74
     1
 91
        4
 64
     7
 65
   257
 75
     1
175
     1
 42
1.0
 92
        0
 66
   257
 43
1.0
 76
     1
 77
     6
 78
     2
 67
     7
 79
     5
170
     0
171
     0
290
     0
174
     0
 93
       13
 44
0.0
173
     0
291
     1
 45
0.0
  0
VISUALSTYLE
  5
38
102
{ACAD_REACTORS
330
2A
102
}
102
{ACAD_XDICTIONARY
360
159
102
}
330
2A
100
AcDbVisualStyle
  2
Linepattern
 70
    14
 71
     2
 72
     2
 73
     0
 90
        0
 40
-0.6
 41
-30.0
 62
     5
 63
     7
421
 16777215
 74
     1
 91
        4
 64
     7
 65
   257
 75
     7
175
     7
 42
1.0
 92
        8
 66
     7
 43
1.0
 76
     1
 77
     6
 78
     2
 67
     7
 79
     5
170
     0
171
     0
290
     0
174
     0
 93
        1
 44
0.0
173
     0
291
     1
 45
0.0
  0
VISUALSTYLE
  5
33
102
{ACAD_REACTORS
330
2A
102
}
102
{ACAD_XDICTIONARY
360
14F
102
}
330
2A
100
AcDbVisualStyle
  2
Realistic
 70
     8
 71
     2
 72
     2
 73
     0
 90
        0
 40
-0.6
 41
-30.0
 62
     5
 63
     7
421
 16777215
 74
     1
 91
        0
 64
     7
 65
   257
 75
     1
175
     1
 42
1.0
 92
        8
 66
     8
424
  7895160
 43
1.0
 76
     1
 77
     6
 78
     2
 67
     7
 79
     5
170
     0
171
     0
290
     0
174
     0
 93
       13
 44
0.0
173
     0
291
     0
 45
0.0
  0
VISUALSTYLE
  5
37
102
{ACAD_REACTORS
330
2A
102
}
102
{ACAD_XDICTIONARY
360
157
102
}
330
2A
100
AcDbVisualStyle
  2
Thicken
 70
    13
 71
     2
 72
     2
 73
     0
 90
        0
 40
-0.6
 41
-30.0
 62
     5
 63
     7
421
 16777215
 74
     1
 91
        4
 64
     7
 65
   257
 75
     1
175
     1
 42
1.0
 92
       12
 66
     7
 43
1.0
 76
     1
 77
     6
 78
     2
 67
     7
 79
     5
170
     0
171
     0
290
     0
174
     0
 93
        1
 44
0.0
173
     0
291
     1
 45
0.0
  0
DICTIONARY
  5
147
330
2F
100
AcDbDictionary
280
     1
281
     1
  3
ACAD_XREC_ROUNDTRIP
360
148
  0
DICTIONARY
  5
14B
330
31
100
AcDbDictionary
280
     1
281
     1
  3
ACAD_XREC_ROUNDTRIP
360
14C
  0
DICTIONARY
  5
149
330
30
100
AcDbDictionary
280
     1
281
     1
  3
ACAD_XREC_ROUNDTRIP
360
14A
  0
DICTIONARY
  5
14D
330
32
100
AcDbDictionary
280
     1
281
     1
  3
ACAD_XREC_ROUNDTRIP
360
14E
  0
DICTIONARY
  5
155
330
36
100
AcDbDictionary
280
     1
281
     1
  3
ACAD_XREC_ROUNDTRIP
360
156
  0
DICTIONARY
  5
15D
330
3A
100
AcDbDictionary
280
     1
281
     1
  3
ACAD_XREC_ROUNDTRIP
360
15E
  0
DICTIONARY
  5
151
330
34
100
AcDbDictionary
280
     1
281
     1
  3
ACAD_XREC_ROUNDTRIP
360
152
  0
DICTIONARY
  5
153
330
35
100
AcDbDictionary
280
     1
281
     1
  3
ACAD_XREC_ROUNDTRIP
360
154
  0
DICTIONARY
  5
15B
330
39
100
AcDbDictionary
280
     1
281
     1
  3
ACAD_XREC_ROUNDTRIP
360
15C
  0
DICTIONARY
  5
13F
330
2B
100
AcDbDictionary
280
     1
281
     1
  3
ACAD_XREC_ROUNDTRIP
360
140
  0
DICTIONARY
  5
141
330
2C
100
AcDbDictionary
280
     1
281
     1
  3
ACAD_XREC_ROUNDTRIP
360
142
  0
DICTIONARY
  5
143
330
2D
100
AcDbDictionary
280
     1
281
     1
  3
ACAD_XREC_ROUNDTRIP
360
144
  0
DICTIONARY
  5
145
330
2E
100
AcDbDictionary
280
     1
281
     1
  3
ACAD_XREC_ROUNDTRIP
360
146
  0
DICTIONARY
  5
159
330
38
100
AcDbDictionary
280
     1
281
     1
  3
ACAD_XREC_ROUNDTRIP
360
15A
  0
DICTIONARY
  5
14F
330
33
100
AcDbDictionary
280
     1
281
     1
  3
ACAD_XREC_ROUNDTRIP
360
150
  0
DICTIONARY
  5
157
330
37
100
AcDbDictionary
280
     1
281
     1
  3
ACAD_XREC_ROUNDTRIP
360
158
  0
XRECORD
  5
148
102
{ACAD_REACTORS
330
147
102
}
330
147
100
AcDbXrecord
280
     1
102
RTVSPropertyOp0
 70
     1
102
RTVSPropertyOp1
 70
     1
102
RTVSPropertyOp2
 70
     1
102
RTVSPropertyOp3
 70
     1
102
RTVSPropertyOp4
 70
     1
102
RTVSPropertyOp5
 70
     1
102
RTVSPropertyOp6
 70
     1
102
RTVSPropertyOp7
 70
     1
102
RTVSPropertyOp8
 70
     1
102
RTVSPropertyOp9
 70
     1
102
RTVSPropertyOp10
 70
     1
102
RTVSPropertyOp11
 70
     1
102
RTVSPropertyOp12
 70
     1
102
RTVSPropertyOp13
 70
     1
102
RTVSPropertyOp14
 70
     1
102
RTVSPropertyOp15
 70
     1
102
RTVSPropertyOp16
 70
     1
102
RTVSPropertyOp17
 70
     1
102
RTVSPropertyOp18
 70
     1
102
RTVSPropertyOp19
 70
     1
102
RTVSPropertyOp20
 70
     1
102
RTVSPropertyOp21
 70
     1
102
RTVSPropertyOp22
 70
     1
102
RTVSPropertyOp23
 70
     1
102
RTVSPropertyOp24
 70
     1
102
RTVSPropertyOp25
 70
     1
102
RTVSPropertyOp26
 70
     1
102
RTVSPropertyOp27
 70
     1
102
RTVSPropertyOp28
 70
     1
102
RTVSPropertyOp29
 70
     1
102
RTVSPropertyOp30
 70
     1
102
RTVSPropertyOp31
 70
     1
102
RTVSPropertyOp32
 70
     1
  0
XRECORD
  5
14C
102
{ACAD_REACTORS
330
14B
102
}
330
14B
100
AcDbXrecord
280
     1
102
RTVSPropertyOp0
 70
     1
102
RTVSPropertyOp1
 70
     1
102
RTVSPropertyOp2
 70
     1
102
RTVSPropertyOp3
 70
     1
102
RTVSPropertyOp4
 70
     1
102
RTVSPropertyOp5
 70
     1
102
RTVSPropertyOp6
 70
     1
102
RTVSPropertyOp7
 70
     1
102
RTVSPropertyOp8
 70
     1
102
RTVSPropertyOp9
 70
     1
102
RTVSPropertyOp10
 70
     1
102
RTVSPropertyOp11
 70
     1
102
RTVSPropertyOp12
 70
     1
102
RTVSPropertyOp13
 70
     1
102
RTVSPropertyOp14
 70
     1
102
RTVSPropertyOp15
 70
     1
102
RTVSPropertyOp16
 70
     1
102
RTVSPropertyOp17
 70
     1
102
RTVSPropertyOp18
 70
     1
102
RTVSPropertyOp19
 70
     1
102
RTVSPropertyOp20
 70
     1
102
RTVSPropertyOp21
 70
     1
102
RTVSPropertyOp22
 70
     1
102
RTVSPropertyOp23
 70
     1
102
RTVSPropertyOp24
 70
     1
102
RTVSPropertyOp25
 70
     1
102
RTVSPropertyOp26
 70
     1
102
RTVSPropertyOp27
 70
     1
102
RTVSPropertyOp28
 70
     1
102
RTVSPropertyOp29
 70
     1
102
RTVSPropertyOp30
 70
     1
102
RTVSPropertyOp31
 70
     1
102
RTVSPropertyOp32
 70
     1
  0
XRECORD
  5
14A
102
{ACAD_REACTORS
330
149
102
}
330
149
100
AcDbXrecord
280
     1
102
RTVSPropertyOp0
 70
     1
102
RTVSPropertyOp1
 70
     1
102
RTVSPropertyOp2
 70
     1
102
RTVSPropertyOp3
 70
     1
102
RTVSPropertyOp4
 70
     1
102
RTVSPropertyOp5
 70
     1
102
RTVSPropertyOp6
 70
     1
102
RTVSPropertyOp7
 70
     1
102
RTVSPropertyOp8
 70
     1
102
RTVSPropertyOp9
 70
     1
102
RTVSPropertyOp10
 70
     1
102
RTVSPropertyOp11
 70
     1
102
RTVSPropertyOp12
 70
     1
102
RTVSPropertyOp13
 70
     1
102
RTVSPropertyOp14
 70
     1
102
RTVSPropertyOp15
 70
     1
102
RTVSPropertyOp16
 70
     1
102
RTVSPropertyOp17
 70
     1
102
RTVSPropertyOp18
 70
     1
102
RTVSPropertyOp19
 70
     1
102
RTVSPropertyOp20
 70
     1
102
RTVSPropertyOp21
 70
     1
102
RTVSPropertyOp22
 70
     1
102
RTVSPropertyOp23
 70
     1
102
RTVSPropertyOp24
 70
     1
102
RTVSPropertyOp25
 70
     1
102
RTVSPropertyOp26
 70
     1
102
RTVSPropertyOp27
 70
     1
102
RTVSPropertyOp28
 70
     1
102
RTVSPropertyOp29
 70
     1
102
RTVSPropertyOp30
 70
     1
102
RTVSPropertyOp31
 70
     1
102
RTVSPropertyOp32
 70
     1
  0
XRECORD
  5
14E
102
{ACAD_REACTORS
330
14D
102
}
330
14D
100
AcDbXrecord
280
     1
102
RTVSPropertyOp0
 70
     1
102
RTVSPropertyOp1
 70
     1
102
RTVSPropertyOp2
 70
     1
102
RTVSPropertyOp3
 70
     1
102
RTVSPropertyOp4
 70
     1
102
RTVSPropertyOp5
 70
     1
102
RTVSPropertyOp6
 70
     1
102
RTVSPropertyOp7
 70
     1
102
RTVSPropertyOp8
 70
     1
102
RTVSPropertyOp9
 70
     1
102
RTVSPropertyOp10
 70
     1
102
RTVSPropertyOp11
 70
     1
102
RTVSPropertyOp12
 70
     1
102
RTVSPropertyOp13
 70
     1
102
RTVSPropertyOp14
 70
     1
102
RTVSPropertyOp15
 70
     1
102
RTVSPropertyOp16
 70
     1
102
RTVSPropertyOp17
 70
     1
102
RTVSPropertyOp18
 70
     1
102
RTVSPropertyOp19
 70
     1
102
RTVSPropertyOp20
 70
     1
102
RTVSPropertyOp21
 70
     1
102
RTVSPropertyOp22
 70
     1
102
RTVSPropertyOp23
 70
     1
102
RTVSPropertyOp24
 70
     1
102
RTVSPropertyOp25
 70
     1
102
RTVSPropertyOp26
 70
     1
102
RTVSPropertyOp27
 70
     1
102
RTVSPropertyOp28
 70
     1
102
RTVSPropertyOp29
 70
     1
102
RTVSPropertyOp30
 70
     1
102
RTVSPropertyOp31
 70
     1
102
RTVSPropertyOp32
 70
     1
  0
XRECORD
  5
156
102
{ACAD_REACTORS
330
155
102
}
330
155
100
AcDbXrecord
280
     1
102
RTVSPropertyOp0
 70
     1
102
RTVSPropertyOp1
 70
     1
102
RTVSPropertyOp2
 70
     1
102
RTVSPropertyOp3
 70
     1
102
RTVSPropertyOp4
 70
     1
102
RTVSPropertyOp5
 70
     1
102
RTVSPropertyOp6
 70
     1
102
RTVSPropertyOp7
 70
     1
102
RTVSPropertyOp8
 70
     1
102
RTVSPropertyOp9
 70
     1
102
RTVSPropertyOp10
 70
     1
102
RTVSPropertyOp11
 70
     1
102
RTVSPropertyOp12
 70
     1
102
RTVSPropertyOp13
 70
     1
102
RTVSPropertyOp14
 70
     1
102
RTVSPropertyOp15
 70
     1
102
RTVSPropertyOp16
 70
     1
102
RTVSPropertyOp17
 70
     1
102
RTVSPropertyOp18
 70
     1
102
RTVSPropertyOp19
 70
     1
102
RTVSPropertyOp20
 70
     1
102
RTVSPropertyOp21
 70
     1
102
RTVSPropertyOp22
 70
     1
102
RTVSPropertyOp23
 70
     1
102
RTVSPropertyOp24
 70
     1
102
RTVSPropertyOp25
 70
     1
102
RTVSPropertyOp26
 70
     1
102
RTVSPropertyOp27
 70
     1
102
RTVSPropertyOp28
 70
     1
102
RTVSPropertyOp29
 70
     1
102
RTVSPropertyOp30
 70
     1
102
RTVSPropertyOp31
 70
     1
102
RTVSPropertyOp32
 70
     1
  0
XRECORD
  5
15E
102
{ACAD_REACTORS
330
15D
102
}
330
15D
100
AcDbXrecord
280
     1
102
RTVSPropertyOp0
 70
     1
102
RTVSPropertyOp1
 70
     1
102
RTVSPropertyOp2
 70
     1
102
RTVSPropertyOp3
 70
     1
102
RTVSPropertyOp4
 70
     1
102
RTVSPropertyOp5
 70
     1
102
RTVSPropertyOp6
 70
     1
102
RTVSPropertyOp7
 70
     1
102
RTVSPropertyOp8
 70
     1
102
RTVSPropertyOp9
 70
     1
102
RTVSPropertyOp10
 70
     1
102
RTVSPropertyOp11
 70
     1
102
RTVSPropertyOp12
 70
     1
102
RTVSPropertyOp13
 70
     1
102
RTVSPropertyOp14
 70
     1
102
RTVSPropertyOp15
 70
     1
102
RTVSPropertyOp16
 70
     1
102
RTVSPropertyOp17
 70
     1
102
RTVSPropertyOp18
 70
     1
102
RTVSPropertyOp19
 70
     1
102
RTVSPropertyOp20
 70
     1
102
RTVSPropertyOp21
 70
     1
102
RTVSPropertyOp22
 70
     1
102
RTVSPropertyOp23
 70
     1
102
RTVSPropertyOp24
 70
     1
102
RTVSPropertyOp25
 70
     1
102
RTVSPropertyOp26
 70
     1
102
RTVSPropertyOp27
 70
     1
102
RTVSPropertyOp28
 70
     1
102
RTVSPropertyOp29
 70
     1
102
RTVSPropertyOp30
 70
     1
102
RTVSPropertyOp31
 70
     1
102
RTVSPropertyOp32
 70
     1
  0
XRECORD
  5
152
102
{ACAD_REACTORS
330
151
102
}
330
151
100
AcDbXrecord
280
     1
102
RTVSPropertyOp0
 70
     1
102
RTVSPropertyOp1
 70
     1
102
RTVSPropertyOp2
 70
     1
102
RTVSPropertyOp3
 70
     1
102
RTVSPropertyOp4
 70
     1
102
RTVSPropertyOp5
 70
     1
102
RTVSPropertyOp6
 70
     1
102
RTVSPropertyOp7
 70
     1
102
RTVSPropertyOp8
 70
     1
102
RTVSPropertyOp9
 70
     1
102
RTVSPropertyOp10
 70
     1
102
RTVSPropertyOp11
 70
     1
102
RTVSPropertyOp12
 70
     1
102
RTVSPropertyOp13
 70
     1
102
RTVSPropertyOp14
 70
     1
102
RTVSPropertyOp15
 70
     1
102
RTVSPropertyOp16
 70
     1
102
RTVSPropertyOp17
 70
     1
102
RTVSPropertyOp18
 70
     1
102
RTVSPropertyOp19
 70
     1
102
RTVSPropertyOp20
 70
     1
102
RTVSPropertyOp21
 70
     1
102
RTVSPropertyOp22
 70
     1
102
RTVSPropertyOp23
 70
     1
102
RTVSPropertyOp24
 70
     1
102
RTVSPropertyOp25
 70
     1
102
RTVSPropertyOp26
 70
     1
102
RTVSPropertyOp27
 70
     1
102
RTVSPropertyOp28
 70
     1
102
RTVSPropertyOp29
 70
     1
102
RTVSPropertyOp30
 70
     1
102
RTVSPropertyOp31
 70
     1
102
RTVSPropertyOp32
 70
     1
  0
XRECORD
  5
154
102
{ACAD_REACTORS
330
153
102
}
330
153
100
AcDbXrecord
280
     1
102
RTVSPropertyOp0
 70
     1
102
RTVSPropertyOp1
 70
     1
102
RTVSPropertyOp2
 70
     1
102
RTVSPropertyOp3
 70
     1
102
RTVSPropertyOp4
 70
     1
102
RTVSPropertyOp5
 70
     1
102
RTVSPropertyOp6
 70
     1
102
RTVSPropertyOp7
 70
     1
102
RTVSPropertyOp8
 70
     1
102
RTVSPropertyOp9
 70
     1
102
RTVSPropertyOp10
 70
     1
102
RTVSPropertyOp11
 70
     1
102
RTVSPropertyOp12
 70
     1
102
RTVSPropertyOp13
 70
     1
102
RTVSPropertyOp14
 70
     1
102
RTVSPropertyOp15
 70
     1
102
RTVSPropertyOp16
 70
     1
102
RTVSPropertyOp17
 70
     1
102
RTVSPropertyOp18
 70
     1
102
RTVSPropertyOp19
 70
     1
102
RTVSPropertyOp20
 70
     1
102
RTVSPropertyOp21
 70
     1
102
RTVSPropertyOp22
 70
     1
102
RTVSPropertyOp23
 70
     1
102
RTVSPropertyOp24
 70
     1
102
RTVSPropertyOp25
 70
     1
102
RTVSPropertyOp26
 70
     1
102
RTVSPropertyOp27
 70
     1
102
RTVSPropertyOp28
 70
     1
102
RTVSPropertyOp29
 70
     1
102
RTVSPropertyOp30
 70
     1
102
RTVSPropertyOp31
 70
     1
102
RTVSPropertyOp32
 70
     1
  0
XRECORD
  5
15C
102
{ACAD_REACTORS
330
15B
102
}
330
15B
100
AcDbXrecord
280
     1
102
RTVSPropertyOp0
 70
     1
102
RTVSPropertyOp1
 70
     1
102
RTVSPropertyOp2
 70
     1
102
RTVSPropertyOp3
 70
     1
102
RTVSPropertyOp4
 70
     1
102
RTVSPropertyOp5
 70
     1
102
RTVSPropertyOp6
 70
     1
102
RTVSPropertyOp7
 70
     1
102
RTVSPropertyOp8
 70
     1
102
RTVSPropertyOp9
 70
     1
102
RTVSPropertyOp10
 70
     1
102
RTVSPropertyOp11
 70
     1
102
RTVSPropertyOp12
 70
     1
102
RTVSPropertyOp13
 70
     1
102
RTVSPropertyOp14
 70
     1
102
RTVSPropertyOp15
 70
     1
102
RTVSPropertyOp16
 70
     1
102
RTVSPropertyOp17
 70
     1
102
RTVSPropertyOp18
 70
     1
102
RTVSPropertyOp19
 70
     1
102
RTVSPropertyOp20
 70
     1
102
RTVSPropertyOp21
 70
     1
102
RTVSPropertyOp22
 70
     1
102
RTVSPropertyOp23
 70
     1
102
RTVSPropertyOp24
 70
     1
102
RTVSPropertyOp25
 70
     1
102
RTVSPropertyOp26
 70
     1
102
RTVSPropertyOp27
 70
     1
102
RTVSPropertyOp28
 70
     1
102
RTVSPropertyOp29
 70
     1
102
RTVSPropertyOp30
 70
     1
102
RTVSPropertyOp31
 70
     1
102
RTVSPropertyOp32
 70
     1
  0
XRECORD
  5
140
102
{ACAD_REACTORS
330
13F
102
}
330
13F
100
AcDbXrecord
280
     1
102
RTVSPropertyOp0
 70
     1
102
RTVSPropertyOp1
 70
     1
102
RTVSPropertyOp2
 70
     1
102
RTVSPropertyOp3
 70
     1
102
RTVSPropertyOp4
 70
     1
102
RTVSPropertyOp5
 70
     1
102
RTVSPropertyOp6
 70
     1
102
RTVSPropertyOp7
 70
     1
102
RTVSPropertyOp8
 70
     1
102
RTVSPropertyOp9
 70
     1
102
RTVSPropertyOp10
 70
     1
102
RTVSPropertyOp11
 70
     1
102
RTVSPropertyOp12
 70
     1
102
RTVSPropertyOp13
 70
     1
102
RTVSPropertyOp14
 70
     1
102
RTVSPropertyOp15
 70
     1
102
RTVSPropertyOp16
 70
     1
102
RTVSPropertyOp17
 70
     1
102
RTVSPropertyOp18
 70
     1
102
RTVSPropertyOp19
 70
     1
102
RTVSPropertyOp20
 70
     1
102
RTVSPropertyOp21
 70
     1
102
RTVSPropertyOp22
 70
     1
102
RTVSPropertyOp23
 70
     1
102
RTVSPropertyOp24
 70
     1
102
RTVSPropertyOp25
 70
     1
102
RTVSPropertyOp26
 70
     1
102
RTVSPropertyOp27
 70
     1
102
RTVSPropertyOp28
 70
     1
102
RTVSPropertyOp29
 70
     1
102
RTVSPropertyOp30
 70
     1
102
RTVSPropertyOp31
 70
     1
102
RTVSPropertyOp32
 70
     1
  0
XRECORD
  5
142
102
{ACAD_REACTORS
330
141
102
}
330
141
100
AcDbXrecord
280
     1
102
RTVSPropertyOp0
 70
     1
102
RTVSPropertyOp1
 70
     1
102
RTVSPropertyOp2
 70
     1
102
RTVSPropertyOp3
 70
     1
102
RTVSPropertyOp4
 70
     1
102
RTVSPropertyOp5
 70
     1
102
RTVSPropertyOp6
 70
     1
102
RTVSPropertyOp7
 70
     1
102
RTVSPropertyOp8
 70
     1
102
RTVSPropertyOp9
 70
     1
102
RTVSPropertyOp10
 70
     1
102
RTVSPropertyOp11
 70
     1
102
RTVSPropertyOp12
 70
     1
102
RTVSPropertyOp13
 70
     1
102
RTVSPropertyOp14
 70
     1
102
RTVSPropertyOp15
 70
     1
102
RTVSPropertyOp16
 70
     1
102
RTVSPropertyOp17
 70
     1
102
RTVSPropertyOp18
 70
     1
102
RTVSPropertyOp19
 70
     1
102
RTVSPropertyOp20
 70
     1
102
RTVSPropertyOp21
 70
     1
102
RTVSPropertyOp22
 70
     1
102
RTVSPropertyOp23
 70
     1
102
RTVSPropertyOp24
 70
     1
102
RTVSPropertyOp25
 70
     1
102
RTVSPropertyOp26
 70
     1
102
RTVSPropertyOp27
 70
     1
102
RTVSPropertyOp28
 70
     1
102
RTVSPropertyOp29
 70
     1
102
RTVSPropertyOp30
 70
     1
102
RTVSPropertyOp31
 70
     1
102
RTVSPropertyOp32
 70
     1
  0
XRECORD
  5
144
102
{ACAD_REACTORS
330
143
102
}
330
143
100
AcDbXrecord
280
     1
102
RTVSPropertyOp0
 70
     1
102
RTVSPropertyOp1
 70
     1
102
RTVSPropertyOp2
 70
     1
102
RTVSPropertyOp3
 70
     1
102
RTVSPropertyOp4
 70
     1
102
RTVSPropertyOp5
 70
     1
102
RTVSPropertyOp6
 70
     1
102
RTVSPropertyOp7
 70
     1
102
RTVSPropertyOp8
 70
     1
102
RTVSPropertyOp9
 70
     1
102
RTVSPropertyOp10
 70
     1
102
RTVSPropertyOp11
 70
     1
102
RTVSPropertyOp12
 70
     1
102
RTVSPropertyOp13
 70
     1
102
RTVSPropertyOp14
 70
     1
102
RTVSPropertyOp15
 70
     1
102
RTVSPropertyOp16
 70
     1
102
RTVSPropertyOp17
 70
     1
102
RTVSPropertyOp18
 70
     1
102
RTVSPropertyOp19
 70
     1
102
RTVSPropertyOp20
 70
     1
102
RTVSPropertyOp21
 70
     1
102
RTVSPropertyOp22
 70
     1
102
RTVSPropertyOp23
 70
     1
102
RTVSPropertyOp24
 70
     1
102
RTVSPropertyOp25
 70
     1
102
RTVSPropertyOp26
 70
     1
102
RTVSPropertyOp27
 70
     1
102
RTVSPropertyOp28
 70
     1
102
RTVSPropertyOp29
 70
     1
102
RTVSPropertyOp30
 70
     1
102
RTVSPropertyOp31
 70
     1
102
RTVSPropertyOp32
 70
     1
  0
XRECORD
  5
146
102
{ACAD_REACTORS
330
145
102
}
330
145
100
AcDbXrecord
280
     1
102
RTVSPropertyOp0
 70
     1
102
RTVSPropertyOp1
 70
     1
102
RTVSPropertyOp2
 70
     1
102
RTVSPropertyOp3
 70
     1
102
RTVSPropertyOp4
 70
     1
102
RTVSPropertyOp5
 70
     1
102
RTVSPropertyOp6
 70
     1
102
RTVSPropertyOp7
 70
     1
102
RTVSPropertyOp8
 70
     1
102
RTVSPropertyOp9
 70
     1
102
RTVSPropertyOp10
 70
     1
102
RTVSPropertyOp11
 70
     1
102
RTVSPropertyOp12
 70
     1
102
RTVSPropertyOp13
 70
     1
102
RTVSPropertyOp14
 70
     1
102
RTVSPropertyOp15
 70
     1
102
RTVSPropertyOp16
 70
     1
102
RTVSPropertyOp17
 70
     1
102
RTVSPropertyOp18
 70
     1
102
RTVSPropertyOp19
 70
     1
102
RTVSPropertyOp20
 70
     1
102
RTVSPropertyOp21
 70
     1
102
RTVSPropertyOp22
 70
     1
102
RTVSPropertyOp23
 70
     1
102
RTVSPropertyOp24
 70
     1
102
RTVSPropertyOp25
 70
     1
102
RTVSPropertyOp26
 70
     1
102
RTVSPropertyOp27
 70
     1
102
RTVSPropertyOp28
 70
     1
102
RTVSPropertyOp29
 70
     1
102
RTVSPropertyOp30
 70
     1
102
RTVSPropertyOp31
 70
     1
102
RTVSPropertyOp32
 70
     1
  0
XRECORD
  5
15A
102
{ACAD_REACTORS
330
159
102
}
330
159
100
AcDbXrecord
280
     1
102
RTVSPropertyOp0
 70
     1
102
RTVSPropertyOp1
 70
     1
102
RTVSPropertyOp2
 70
     1
102
RTVSPropertyOp3
 70
     1
102
RTVSPropertyOp4
 70
     1
102
RTVSPropertyOp5
 70
     1
102
RTVSPropertyOp6
 70
     1
102
RTVSPropertyOp7
 70
     1
102
RTVSPropertyOp8
 70
     1
102
RTVSPropertyOp9
 70
     1
102
RTVSPropertyOp10
 70
     1
102
RTVSPropertyOp11
 70
     1
102
RTVSPropertyOp12
 70
     1
102
RTVSPropertyOp13
 70
     1
102
RTVSPropertyOp14
 70
     1
102
RTVSPropertyOp15
 70
     1
102
RTVSPropertyOp16
 70
     1
102
RTVSPropertyOp17
 70
     1
102
RTVSPropertyOp18
 70
     1
102
RTVSPropertyOp19
 70
     1
102
RTVSPropertyOp20
 70
     1
102
RTVSPropertyOp21
 70
     1
102
RTVSPropertyOp22
 70
     1
102
RTVSPropertyOp23
 70
     1
102
RTVSPropertyOp24
 70
     1
102
RTVSPropertyOp25
 70
     1
102
RTVSPropertyOp26
 70
     1
102
RTVSPropertyOp27
 70
     1
102
RTVSPropertyOp28
 70
     1
102
RTVSPropertyOp29
 70
     1
102
RTVSPropertyOp30
 70
     1
102
RTVSPropertyOp31
 70
     1
102
RTVSPropertyOp32
 70
     1
  0
XRECORD
  5
150
102
{ACAD_REACTORS
330
14F
102
}
330
14F
100
AcDbXrecord
280
     1
102
RTVSPropertyOp0
 70
     1
102
RTVSPropertyOp1
 70
     1
102
RTVSPropertyOp2
 70
     1
102
RTVSPropertyOp3
 70
     1
102
RTVSPropertyOp4
 70
     1
102
RTVSPropertyOp5
 70
     1
102
RTVSPropertyOp6
 70
     1
102
RTVSPropertyOp7
 70
     1
102
RTVSPropertyOp8
 70
     1
102
RTVSPropertyOp9
 70
     1
102
RTVSPropertyOp10
 70
     1
102
RTVSPropertyOp11
 70
     1
102
RTVSPropertyOp12
 70
     1
102
RTVSPropertyOp13
 70
     1
102
RTVSPropertyOp14
 70
     1
102
RTVSPropertyOp15
 70
     1
102
RTVSPropertyOp16
 70
     1
102
RTVSPropertyOp17
 70
     1
102
RTVSPropertyOp18
 70
     1
102
RTVSPropertyOp19
 70
     1
102
RTVSPropertyOp20
 70
     1
102
RTVSPropertyOp21
 70
     1
102
RTVSPropertyOp22
 70
     1
102
RTVSPropertyOp23
 70
     1
102
RTVSPropertyOp24
 70
     1
102
RTVSPropertyOp25
 70
     1
102
RTVSPropertyOp26
 70
     1
102
RTVSPropertyOp27
 70
     1
102
RTVSPropertyOp28
 70
     1
102
RTVSPropertyOp29
 70
     1
102
RTVSPropertyOp30
 70
     1
102
RTVSPropertyOp31
 70
     1
102
RTVSPropertyOp32
 70
     1
  0
XRECORD
  5
158
102
{ACAD_REACTORS
330
157
102
}
330
157
100
AcDbXrecord
280
     1
102
RTVSPropertyOp0
 70
     1
102
RTVSPropertyOp1
 70
     1
102
RTVSPropertyOp2
 70
     1
102
RTVSPropertyOp3
 70
     1
102
RTVSPropertyOp4
 70
     1
102
RTVSPropertyOp5
 70
     1
102
RTVSPropertyOp6
 70
     1
102
RTVSPropertyOp7
 70
     1
102
RTVSPropertyOp8
 70
     1
102
RTVSPropertyOp9
 70
     1
102
RTVSPropertyOp10
 70
     1
102
RTVSPropertyOp11
 70
     1
102
RTVSPropertyOp12
 70
     1
102
RTVSPropertyOp13
 70
     1
102
RTVSPropertyOp14
 70
     1
102
RTVSPropertyOp15
 70
     1
102
RTVSPropertyOp16
 70
     1
102
RTVSPropertyOp17
 70
     1
102
RTVSPropertyOp18
 70
     1
102
RTVSPropertyOp19
 70
     1
102
RTVSPropertyOp20
 70
     1
102
RTVSPropertyOp21
 70
     1
102
RTVSPropertyOp22
 70
     1
102
RTVSPropertyOp23
 70
     1
102
RTVSPropertyOp24
 70
     1
102
RTVSPropertyOp25
 70
     1
102
RTVSPropertyOp26
 70
     1
102
RTVSPropertyOp27
 70
     1
102
RTVSPropertyOp28
 70
     1
102
RTVSPropertyOp29
 70
     1
102
RTVSPropertyOp30
 70
     1
102
RTVSPropertyOp31
 70
     1
102
RTVSPropertyOp32
 70
     1
  0
ENDSEC
  0
EOF
