  0
SECTION
  2
HEADER
  9
$ACADVER
  1
AC1021
  9
$ACADMAINTVER
 70
    25
  9
$DWGCODEPAGE
  3
ANSI_1256
  9
$INSBASE
 10
0.0
 20
0.0
 30
0.0
  9
$EXTMIN
 10
-187.421
 20
-106.4678
 30
0.0
  9
$EXTMAX
 10
-77.616
 20
131.8324
 30
0.0
  9
$LIMMIN
 10
0.0
 20
0.0
  9
$LIMMAX
 10
12.0
 20
9.0
  9
$ORTHOMODE
 70
     0
  9
$REGENMODE
 70
     1
  9
$FILLMODE
 70
     1
  9
$QTEXTMODE
 70
     0
  9
$MIRRTEXT
 70
     1
  9
$LTSCALE
 40
1.0
  9
$ATTMODE
 70
     1
  9
$TEXTSIZE
 40
0.2
  9
$TRACEWID
 40
0.05
  9
$TEXTSTYLE
  7
Standard
  9
$CLAYER
  8
0
  9
$CELTYPE
  6
ByLayer
  9
$CECOLOR
 62
   256
  9
$CELTSCALE
 40
1.0
  9
$DISPSILH
 70
     0
  9
$DIMSCALE
 40
1.0
  9
$DIMASZ
 40
0.18
  9
$DIMEXO
 40
0.0625
  9
$DIMDLI
 40
0.38
  9
$DIMRND
 40
0.0
  9
$DIMDLE
 40
0.0
  9
$DIMEXE
 40
0.18
  9
$DIMTP
 40
0.0
  9
$DIMTM
 40
0.0
  9
$DIMTXT
 40
0.18
  9
$DIMCEN
 40
0.09
  9
$DIMTSZ
 40
0.0
  9
$DIMTOL
 70
     0
  9
$DIMLIM
 70
     0
  9
$DIMTIH
 70
     1
  9
$DIMTOH
 70
     1
  9
$DIMSE1
 70
     0
  9
$DIMSE2
 70
     0
  9
$DIMTAD
 70
     0
  9
$DIMZIN
 70
     0
  9
$DIMBLK
  1

  9
$DIMASO
 70
     1
  9
$DIMSHO
 70
     1
  9
$DIMPOST
  1

  9
$DIMAPOST
  1

  9
$DIMALT
 70
     0
  9
$DIMALTD
 70
     2
  9
$DIMALTF
 40
25.4
  9
$DIMLFAC
 40
1.0
  9
$DIMTOFL
 70
     0
  9
$DIMTVP
 40
0.0
  9
$DIMTIX
 70
     0
  9
$DIMSOXD
 70
     0
  9
$DIMSAH
 70
     0
  9
$DIMBLK1
  1

  9
$DIMBLK2
  1

  9
$DIMSTYLE
  2
Standard
  9
$DIMCLRD
 70
     0
  9
$DIMCLRE
 70
     0
  9
$DIMCLRT
 70
     0
  9
$DIMTFAC
 40
1.0
  9
$DIMGAP
 40
0.09
  9
$DIMJUST
 70
     0
  9
$DIMSD1
 70
     0
  9
$DIMSD2
 70
     0
  9
$DIMTOLJ
 70
     1
  9
$DIMTZIN
 70
     0
  9
$DIMALTZ
 70
     0
  9
$DIMALTTZ
 70
     0
  9
$DIMUPT
 70
     0
  9
$DIMDEC
 70
     4
  9
$DIMTDEC
 70
     4
  9
$DIMALTU
 70
     2
  9
$DIMALTTD
 70
     2
  9
$DIMTXSTY
  7
Standard
  9
$DIMAUNIT
 70
     0
  9
$DIMADEC
 70
     0
  9
$DIMALTRND
 40
0.0
  9
$DIMAZIN
 70
     0
  9
$DIMDSEP
 70
    46
  9
$DIMATFIT
 70
     3
  9
$DIMFRAC
 70
     0
  9
$DIMLDRBLK
  1

  9
$DIMLUNIT
 70
     2
  9
$DIMLWD
 70
    -2
  9
$DIMLWE
 70
    -2
  9
$DIMTMOVE
 70
     0
  9
$DIMFXL
 40
1.0
  9
$DIMFXLON
 70
     0
  9
$DIMJOGANG
 40
0.7853981633974483
  9
$DIMTFILL
 70
     0
  9
$DIMTFILLCLR
 70
     0
  9
$DIMARCSYM
 70
     0
  9
$DIMLTYPE
  6

  9
$DIMLTEX1
  6

  9
$DIMLTEX2
  6

  9
$LUNITS
 70
     2
  9
$LUPREC
 70
     4
  9
$SKETCHINC
 40
0.1
  9
$FILLETRAD
 40
0.5
  9
$AUNITS
 70
     0
  9
$AUPREC
 70
     0
  9
$MENU
  1
.
  9
$ELEVATION
 40
0.0
  9
$PELEVATION
 40
0.0
  9
$THICKNESS
 40
0.0
  9
$LIMCHECK
 70
     0
  9
$CHAMFERA
 40
0.5
  9
$CHAMFERB
 40
0.5
  9
$CHAMFERC
 40
1.0
  9
$CHAMFERD
 40
0.0
  9
$SKPOLY
 70
     0
  9
$TDCREATE
 40
2458492.393467361
  9
$TDUCREATE
 40
2458492.226800695
  9
$TDUPDATE
 40
2458492.3934675
  9
$TDUUPDATE
 40
2458492.226800833
  9
$TDINDWG
 40
0.0000000116
  9
$TDUSRTIMER
 40
0.0000000116
  9
$USRTIMER
 70
     1
  9
$ANGBASE
 50
0.0
  9
$ANGDIR
 70
     0
  9
$PDMODE
 70
     0
  9
$PDSIZE
 40
0.0
  9
$PLINEWID
 40
0.0
  9
$SPLFRAME
 70
     0
  9
$SPLINETYPE
 70
     6
  9
$SPLINESEGS
 70
     8
  9
$HANDSEED
  5
99
  9
$SURFTAB1
 70
     6
  9
$SURFTAB2
 70
     6
  9
$SURFTYPE
 70
     6
  9
$SURFU
 70
     6
  9
$SURFV
 70
     6
  9
$UCSBASE
  2

  9
$UCSNAME
  2

  9
$UCSORG
 10
0.0
 20
0.0
 30
0.0
  9
$UCSXDIR
 10
1.0
 20
0.0
 30
0.0
  9
$UCSYDIR
 10
0.0
 20
1.0
 30
0.0
  9
$UCSORTHOREF
  2

  9
$UCSORTHOVIEW
 70
     0
  9
$UCSORGTOP
 10
0.0
 20
0.0
 30
0.0
  9
$UCSORGBOTTOM
 10
0.0
 20
0.0
 30
0.0
  9
$UCSORGLEFT
 10
0.0
 20
0.0
 30
0.0
  9
$UCSORGRIGHT
 10
0.0
 20
0.0
 30
0.0
  9
$UCSORGFRONT
 10
0.0
 20
0.0
 30
0.0
  9
$UCSORGBACK
 10
0.0
 20
0.0
 30
0.0
  9
$PUCSBASE
  2

  9
$PUCSNAME
  2

  9
$PUCSORG
 10
0.0
 20
0.0
 30
0.0
  9
$PUCSXDIR
 10
1.0
 20
0.0
 30
0.0
  9
$PUCSYDIR
 10
0.0
 20
1.0
 30
0.0
  9
$PUCSORTHOREF
  2

  9
$PUCSORTHOVIEW
 70
     0
  9
$PUCSORGTOP
 10
0.0
 20
0.0
 30
0.0
  9
$PUCSORGBOTTOM
 10
0.0
 20
0.0
 30
0.0
  9
$PUCSORGLEFT
 10
0.0
 20
0.0
 30
0.0
  9
$PUCSORGRIGHT
 10
0.0
 20
0.0
 30
0.0
  9
$PUCSORGFRONT
 10
0.0
 20
0.0
 30
0.0
  9
$PUCSORGBACK
 10
0.0
 20
0.0
 30
0.0
  9
$USERI1
 70
     0
  9
$USERI2
 70
     0
  9
$USERI3
 70
     0
  9
$USERI4
 70
     0
  9
$USERI5
 70
     0
  9
$USERR1
 40
0.0
  9
$USERR2
 40
0.0
  9
$USERR3
 40
0.0
  9
$USERR4
 40
0.0
  9
$USERR5
 40
0.0
  9
$WORLDVIEW
 70
     1
  9
$SHADEDGE
 70
     3
  9
$SHADEDIF
 70
    70
  9
$TILEMODE
 70
     1
  9
$MAXACTVP
 70
    64
  9
$PINSBASE
 10
0.0
 20
0.0
 30
0.0
  9
$PLIMCHECK
 70
     0
  9
$PEXTMIN
 10
1.000000000000000E+20
 20
1.000000000000000E+20
 30
1.000000000000000E+20
  9
$PEXTMAX
 10
-1.000000000000000E+20
 20
-1.000000000000000E+20
 30
-1.000000000000000E+20
  9
$PLIMMIN
 10
0.0
 20
0.0
  9
$PLIMMAX
 10
12.0
 20
9.0
  9
$UNITMODE
 70
     0
  9
$VISRETAIN
 70
     1
  9
$PLINEGEN
 70
     0
  9
$PSLTSCALE
 70
     1
  9
$TREEDEPTH
 70
  3020
  9
$CMLSTYLE
  2
Standard
  9
$CMLJUST
 70
     0
  9
$CMLSCALE
 40
1.0
  9
$PROXYGRAPHICS
 70
     1
  9
$MEASUREMENT
 70
     0
  9
$CELWEIGHT
370
    -1
  9
$ENDCAPS
280
     0
  9
$JOINSTYLE
280
     0
  9
$LWDISPLAY
290
     0
  9
$INSUNITS
 70
     4
  9
$HYPERLINKBASE
  1

  9
$STYLESHEET
  1

  9
$XEDIT
290
     1
  9
$CEPSNTYPE
380
     0
  9
$PSTYLEMODE
290
     1
  9
$FINGERPRINTGUID
  2
{872788E1-8A15-4F2A-AA9A-D2DE6C07BF68}
  9
$VERSIONGUID
  2
{FAEB1C32-E019-11D5-929B-00C0DF256EC4}
  9
$EXTNAMES
290
     1
  9
$PSVPSCALE
 40
0.0
  9
$OLESTARTUP
290
     0
  9
$SORTENTS
280
   127
  9
$INDEXCTL
280
     0
  9
$HIDETEXT
280
     1
  9
$XCLIPFRAME
290
     0
  9
$HALOGAP
280
     0
  9
$OBSCOLOR
 70
   257
  9
$OBSLTYPE
280
     0
  9
$INTERSECTIONDISPLAY
280
     0
  9
$INTERSECTIONCOLOR
 70
   257
  9
$DIMASSOC
280
     2
  9
$PROJECTNAME
  1

  9
$CAMERADISPLAY
290
     0
  9
$LENSLENGTH
 40
50.0
  9
$CAMERAHEIGHT
 40
0.0
  9
$STEPSPERSEC
 40
2.0
  9
$STEPSIZE
 40
6.0
  9
$3DDWFPREC
 40
2.0
  9
$PSOLWIDTH
 40
0.25
  9
$PSOLHEIGHT
 40
4.0
  9
$LOFTANG1
 40
1.570796326794897
  9
$LOFTANG2
 40
1.570796326794897
  9
$LOFTMAG1
 40
0.0
  9
$LOFTMAG2
 40
0.0
  9
$LOFTPARAM
 70
     7
  9
$LOFTNORMALS
280
     1
  9
$LATITUDE
 40
37.795
  9
$LONGITUDE
 40
-122.394
  9
$NORTHDIRECTION
 40
0.0
  9
$TIMEZONE
 70
 -8000
  9
$LIGHTGLYPHDISPLAY
280
     1
  9
$TILEMODELIGHTSYNCH
280
     1
  9
$SOLIDHIST
280
     1
  9
$SHOWHIST
280
     1
  9
$DWFFRAME
280
     2
  9
$DGNFRAME
280
     2
  9
$REALWORLDSCALE
290
     1
  9
$INTERFERECOLOR
 62
   256
  9
$CSHADOW
280
     0
  9
$SHADOWPLANELOCATION
 40
0.0
  0
ENDSEC
  0
SECTION
  2
CLASSES
  0
CLASS
  1
ACDBDICTIONARYWDFLT
  2
AcDbDictionaryWithDefault
  3
ObjectDBX Classes
 90
        0
 91
        4
280
     0
281
     0
  0
CLASS
  1
VISUALSTYLE
  2
AcDbVisualStyle
  3
ObjectDBX Classes
 90
     4095
 91
        4
280
     0
281
     0
  0
CLASS
  1
MATERIAL
  2
AcDbMaterial
  3
ObjectDBX Classes
 90
     1153
 91
        4
280
     0
281
     0
  0
ENDSEC
  0
SECTION
  2
TABLES
  0
TABLE
  2
VPORT
  5
8
330
0
100
AcDbSymbolTable
 70
     1
  0
VPORT
  5
29
330
8
100
AcDbSymbolTableRecord
100
AcDbViewportTableRecord
  2
*Active
 70
     0
 10
0.0
 20
0.0
 11
1.0
 21
1.0
 12
10.42990654205607
 22
4.5
 13
0.0
 23
0.0
 14
0.5
 24
0.5
 15
0.5
 25
0.5
 16
0.0
 26
0.0
 36
1.0
 17
0.0
 27
0.0
 37
0.0
 40
9.0
 41
1.972972972850329
 42
50.0
 43
0.0
 44
0.0
 50
0.0
 51
0.0
 71
     0
 72
   100
 73
     1
 74
     3
 75
     0
 76
     0
 77
     0
 78
     0
281
     0
 65
     1
110
0.0
120
0.0
130
0.0
111
1.0
121
0.0
131
0.0
112
0.0
122
1.0
132
0.0
 79
     0
146
0.0
 60
     3
 61
     5
292
     1
282
     1
141
0.0
142
0.0
 63
   250
  0
ENDTAB
  0
TABLE
  2
LTYPE
  5
5
330
0
100
AcDbSymbolTable
 70
     1
  0
LTYPE
  5
14
330
5
100
AcDbSymbolTableRecord
100
AcDbLinetypeTableRecord
  2
ByBlock
 70
     0
  3

 72
    65
 73
     0
 40
0.0
  0
LTYPE
  5
15
330
5
100
AcDbSymbolTableRecord
100
AcDbLinetypeTableRecord
  2
ByLayer
 70
     0
  3

 72
    65
 73
     0
 40
0.0
  0
LTYPE
  5
16
330
5
100
AcDbSymbolTableRecord
100
AcDbLinetypeTableRecord
  2
Continuous
 70
     0
  3
Solid line
 72
    65
 73
     0
 40
0.0
  0
ENDTAB
  0
TABLE
  2
LAYER
  5
2
330
0
100
AcDbSymbolTable
 70
     2
  0
LAYER
  5
10
330
2
100
AcDbSymbolTableRecord
100
AcDbLayerTableRecord
  2
0
 70
     0
 62
     7
  6
Continuous
370
    -3
390
F
347
3E
  0
LAYER
  5
40
330
2
100
AcDbSymbolTableRecord
100
AcDbLayerTableRecord
  2
layer 1
 70
     0
 62
     7
  6
Continuous
370
    -3
390
F
347
3E
  0
ENDTAB
  0
TABLE
  2
STYLE
  5
3
330
0
100
AcDbSymbolTable
 70
     1
  0
STYLE
  5
11
330
3
100
AcDbSymbolTableRecord
100
AcDbTextStyleTableRecord
  2
Standard
 70
     0
 40
0.0
 41
1.0
 50
0.0
 71
     0
 42
0.2
  3
txt
  4

  0
ENDTAB
  0
TABLE
  2
VIEW
  5
6
330
0
100
AcDbSymbolTable
 70
     0
  0
ENDTAB
  0
TABLE
  2
UCS
  5
7
330
0
100
AcDbSymbolTable
 70
     0
  0
ENDTAB
  0
TABLE
  2
APPID
  5
9
330
0
100
AcDbSymbolTable
 70
     2
  0
APPID
  5
12
330
9
100
AcDbSymbolTableRecord
100
AcDbRegAppTableRecord
  2
ACAD
 70
     0
  0
APPID
  5
3F
330
9
100
AcDbSymbolTableRecord
100
AcDbRegAppTableRecord
  2
ODA
 70
     0
  0
ENDTAB
  0
TABLE
  2
DIMSTYLE
  5
A
330
0
100
AcDbSymbolTable
 70
     1
100
AcDbDimStyleTable
  0
DIMSTYLE
105
27
330
A
100
AcDbSymbolTableRecord
100
AcDbDimStyleTableRecord
  2
Standard
 70
     0
178
     0
340
11
  0
ENDTAB
  0
TABLE
  2
BLOCK_RECORD
  5
1
330
0
100
AcDbSymbolTable
 70
     1
  0
BLOCK_RECORD
  5
1F
330
1
100
AcDbSymbolTableRecord
100
AcDbBlockTableRecord
  2
*Model_Space
340
22
 70
     0
280
     1
281
     0
  0
BLOCK_RECORD
  5
1B
330
1
100
AcDbSymbolTableRecord
100
AcDbBlockTableRecord
  2
*Paper_Space
340
1E
 70
     0
280
     1
281
     0
  0
BLOCK_RECORD
  5
23
330
1
100
AcDbSymbolTableRecord
100
AcDbBlockTableRecord
  2
*Paper_Space0
340
26
 70
     0
280
     1
281
     0
  0
ENDTAB
  0
ENDSEC
  0
SECTION
  2
BLOCKS
  0
BLOCK
  5
20
330
1F
100
AcDbEntity
  8
0
100
AcDbBlockBegin
  2
*Model_Space
 70
     0
 10
0.0
 20
0.0
 30
0.0
  3
*Model_Space
  1

  0
ENDBLK
  5
21
330
1F
100
AcDbEntity
  8
0
100
AcDbBlockEnd
  0
BLOCK
  5
1C
330
1B
100
AcDbEntity
 67
     1
  8
0
100
AcDbBlockBegin
  2
*Paper_Space
 70
     0
 10
0.0
 20
0.0
 30
0.0
  3
*Paper_Space
  1

  0
ENDBLK
  5
1D
330
1B
100
AcDbEntity
 67
     1
  8
0
100
AcDbBlockEnd
  0
BLOCK
  5
24
330
23
100
AcDbEntity
  8
0
100
AcDbBlockBegin
  2
*Paper_Space0
 70
     0
 10
0.0
 20
0.0
 30
0.0
  3
*Paper_Space0
  1

  0
ENDBLK
  5
25
330
23
100
AcDbEntity
  8
0
100
AcDbBlockEnd
  0
ENDSEC
  0
SECTION
  2
ENTITIES
  0
LWPOLYLINE
  5
41
330
1F
100
AcDbEntity
  8
layer 1
100
AcDbPolyline
 90
        5
 70
     1
 43
0.0
 10
-187.421
 20
-106.4678
 10
-77.616
 20
-106.4678
 10
-77.616
 20
131.8324
 10
-187.421
 20
131.8324
 10
-187.421
 20
-106.4678
  0
SPLINE
  5
42
330
1F
100
AcDbEntity
  8
layer 1
 62
     7
100
AcDbSpline
210
0.0
220
0.0
230
1.0
 70
    11
 71
     3
 72
    32
 73
    28
 74
     0
 42
0.0000000001
 43
0.0000000001
 12
1.0
 22
0.0
 32
0.0
 13
1.0
 23
0.0
 33
0.0
 40
0.0
 40
0.0
 40
0.0
 40
0.0
 40
0.125
 40
0.125
 40
0.125
 40
0.125
 40
0.25
 40
0.25
 40
0.25
 40
0.25
 40
0.375
 40
0.375
 40
0.375
 40
0.375
 40
0.5
 40
0.5
 40
0.5
 40
0.5
 40
0.625
 40
0.625
 40
0.625
 40
0.625
 40
0.75
 40
0.75
 40
0.75
 40
0.75
 40
1.0
 40
1.0
 40
1.0
 40
1.0
 10
-98.3804
 20
-102.1642
 30
0.0
 10
-98.3804
 20
-102.1642
 30
0.0
 10
-81.907
 20
-102.1476
 30
0.0
 10
-81.907
 20
-102.1476
 30
0.0
 10
-81.907
 20
-102.1476
 30
0.0
 10
-81.907
 20
-102.1476
 30
0.0
 10
-81.8959
 20
-86.3245
 30
0.0
 10
-81.8959
 20
-86.3245
 30
0.0
 10
-81.8959
 20
-86.3245
 30
0.0
 10
-81.8959
 20
-86.3245
 30
0.0
 10
-85.2094
 20
-86.3245
 30
0.0
 10
-85.2094
 20
-86.3245
 30
0.0
 10
-85.2094
 20
-86.3245
 30
0.0
 10
-85.2094
 20
-86.3245
 30
0.0
 10
-85.2094
 20
-94.1914
 30
0.0
 10
-85.2094
 20
-94.1914
 30
0.0
 10
-85.2094
 20
-94.1914
 30
0.0
 10
-85.2094
 20
-97.074
 30
0.0
 10
-87.5302
 20
-99.3948
 30
0.0
 10
-90.4128
 20
-99.3948
 30
0.0
 10
-90.4128
 20
-99.3948
 30
0.0
 10
-90.4128
 20
-99.3948
 30
0.0
 10
-98.3967
 20
-99.3948
 30
0.0
 10
-98.3967
 20
-99.3948
 30
0.0
 10
-98.3967
 20
-99.3948
 30
0.0
 10
-98.3967
 20
-99.3948
 30
0.0
 10
-98.3804
 20
-102.1642
 30
0.0
 10
-98.3804
 20
-102.1642
 30
0.0
  0
SPLINE
  5
43
330
1F
100
AcDbEntity
  8
layer 1
 62
     7
100
AcDbSpline
210
0.0
220
0.0
230
1.0
 70
    11
 71
     3
 72
    48
 73
    44
 74
     0
 42
0.0000000001
 43
0.0000000001
 12
1.0
 22
0.0
 32
0.0
 13
1.0
 23
0.0
 33
0.0
 40
0.0
 40
0.0
 40
0.0
 40
0.0
 40
0.0833333333333333
 40
0.0833333333333333
 40
0.0833333333333333
 40
0.0833333333333333
 40
0.1666666666666667
 40
0.1666666666666667
 40
0.1666666666666667
 40
0.1666666666666667
 40
0.25
 40
0.25
 40
0.25
 40
0.25
 40
0.3333333333333333
 40
0.3333333333333333
 40
0.3333333333333333
 40
0.3333333333333333
 40
0.4166666666666667
 40
0.4166666666666667
 40
0.4166666666666667
 40
0.4166666666666667
 40
0.5
 40
0.5
 40
0.5
 40
0.5
 40
0.5833333333333334
 40
0.5833333333333334
 40
0.5833333333333334
 40
0.5833333333333334
 40
0.6666666666666666
 40
0.6666666666666666
 40
0.6666666666666666
 40
0.6666666666666666
 40
0.75
 40
0.75
 40
0.75
 40
0.75
 40
0.8333333333333334
 40
0.8333333333333334
 40
0.8333333333333334
 40
0.8333333333333334
 40
1.0
 40
1.0
 40
1.0
 40
1.0
 10
-101.4568
 20
-102.1378
 30
0.0
 10
-101.4568
 20
-102.1378
 30
0.0
 10
-130.955
 20
-102.1479
 30
0.0
 10
-130.955
 20
-102.1479
 30
0.0
 10
-130.955
 20
-102.1479
 30
0.0
 10
-130.955
 20
-102.1479
 30
0.0
 10
-130.9432
 20
-99.3948
 30
0.0
 10
-130.9432
 20
-99.3948
 30
0.0
 10
-130.9432
 20
-99.3948
 30
0.0
 10
-130.9432
 20
-99.3948
 30
0.0
 10
-123.0526
 20
-99.3948
 30
0.0
 10
-123.0526
 20
-99.3948
 30
0.0
 10
-123.0526
 20
-99.3948
 30
0.0
 10
-120.1699
 20
-99.3948
 30
0.0
 10
-117.8492
 20
-97.074
 30
0.0
 10
-117.8492
 20
-94.1914
 30
0.0
 10
-117.8492
 20
-94.1914
 30
0.0
 10
-117.8492
 20
-94.1914
 30
0.0
 10
-117.8492
 20
-86.3628
 30
0.0
 10
-117.8492
 20
-86.3628
 30
0.0
 10
-117.8492
 20
-86.3628
 30
0.0
 10
-117.8492
 20
-86.3628
 30
0.0
 10
-114.6352
 20
-86.3693
 30
0.0
 10
-114.6352
 20
-86.3693
 30
0.0
 10
-114.6352
 20
-86.3693
 30
0.0
 10
-114.6352
 20
-86.3693
 30
0.0
 10
-114.6352
 20
-94.1914
 30
0.0
 10
-114.6352
 20
-94.1914
 30
0.0
 10
-114.6352
 20
-94.1914
 30
0.0
 10
-114.6352
 20
-97.074
 30
0.0
 10
-112.3144
 20
-99.3948
 30
0.0
 10
-109.4318
 20
-99.3948
 30
0.0
 10
-109.4318
 20
-99.3948
 30
0.0
 10
-109.4318
 20
-99.3948
 30
0.0
 10
-101.4479
 20
-99.3948
 30
0.0
 10
-101.4479
 20
-99.3948
 30
0.0
 10
-101.4479
 20
-99.3948
 30
0.0
 10
-101.4479
 20
-99.3948
 30
0.0
 10
-101.4568
 20
-102.1377
 30
0.0
 10
-101.4568
 20
-102.1377
 30
0.0
 10
-101.4568
 20
-102.1377
 30
0.0
 10
-101.4568
 20
-102.1377
 30
0.0
 10
-101.4568
 20
-102.1378
 30
0.0
 10
-101.4568
 20
-102.1378
 30
0.0
  0
SPLINE
  5
44
330
1F
100
AcDbEntity
  8
layer 1
 62
     7
100
AcDbSpline
210
0.0
220
0.0
230
1.0
 70
    11
 71
     3
 72
    32
 73
    28
 74
     0
 42
0.0000000001
 43
0.0000000001
 12
1.0
 22
0.0
 32
0.0
 13
1.0
 23
0.0
 33
0.0
 40
0.0
 40
0.0
 40
0.0
 40
0.0
 40
0.125
 40
0.125
 40
0.125
 40
0.125
 40
0.25
 40
0.25
 40
0.25
 40
0.25
 40
0.375
 40
0.375
 40
0.375
 40
0.375
 40
0.5
 40
0.5
 40
0.5
 40
0.5
 40
0.625
 40
0.625
 40
0.625
 40
0.625
 40
0.75
 40
0.75
 40
0.75
 40
0.75
 40
1.0
 40
1.0
 40
1.0
 40
1.0
 10
-166.6124
 20
-102.1642
 30
0.0
 10
-166.6124
 20
-102.1642
 30
0.0
 10
-183.0858
 20
-102.1476
 30
0.0
 10
-183.0858
 20
-102.1476
 30
0.0
 10
-183.0858
 20
-102.1476
 30
0.0
 10
-183.0858
 20
-102.1476
 30
0.0
 10
-183.0969
 20
-86.3245
 30
0.0
 10
-183.0969
 20
-86.3245
 30
0.0
 10
-183.0969
 20
-86.3245
 30
0.0
 10
-183.0969
 20
-86.3245
 30
0.0
 10
-179.7833
 20
-86.3245
 30
0.0
 10
-179.7833
 20
-86.3245
 30
0.0
 10
-179.7833
 20
-86.3245
 30
0.0
 10
-179.7833
 20
-86.3245
 30
0.0
 10
-179.7833
 20
-94.1914
 30
0.0
 10
-179.7833
 20
-94.1914
 30
0.0
 10
-179.7833
 20
-94.1914
 30
0.0
 10
-179.7833
 20
-97.074
 30
0.0
 10
-177.4626
 20
-99.3948
 30
0.0
 10
-174.5799
 20
-99.3948
 30
0.0
 10
-174.5799
 20
-99.3948
 30
0.0
 10
-174.5799
 20
-99.3948
 30
0.0
 10
-166.596
 20
-99.3948
 30
0.0
 10
-166.596
 20
-99.3948
 30
0.0
 10
-166.596
 20
-99.3948
 30
0.0
 10
-166.596
 20
-99.3948
 30
0.0
 10
-166.6124
 20
-102.1642
 30
0.0
 10
-166.6124
 20
-102.1642
 30
0.0
  0
SPLINE
  5
45
330
1F
100
AcDbEntity
  8
layer 1
 62
     7
100
AcDbSpline
210
0.0
220
0.0
230
1.0
 70
    11
 71
     3
 72
    48
 73
    44
 74
     0
 42
0.0000000001
 43
0.0000000001
 12
1.0
 22
0.0
 32
0.0
 13
1.0
 23
0.0
 33
0.0
 40
0.0
 40
0.0
 40
0.0
 40
0.0
 40
0.0833333333333333
 40
0.0833333333333333
 40
0.0833333333333333
 40
0.0833333333333333
 40
0.1666666666666667
 40
0.1666666666666667
 40
0.1666666666666667
 40
0.1666666666666667
 40
0.25
 40
0.25
 40
0.25
 40
0.25
 40
0.3333333333333333
 40
0.3333333333333333
 40
0.3333333333333333
 40
0.3333333333333333
 40
0.4166666666666667
 40
0.4166666666666667
 40
0.4166666666666667
 40
0.4166666666666667
 40
0.5
 40
0.5
 40
0.5
 40
0.5
 40
0.5833333333333334
 40
0.5833333333333334
 40
0.5833333333333334
 40
0.5833333333333334
 40
0.6666666666666666
 40
0.6666666666666666
 40
0.6666666666666666
 40
0.6666666666666666
 40
0.75
 40
0.75
 40
0.75
 40
0.75
 40
0.8333333333333334
 40
0.8333333333333334
 40
0.8333333333333334
 40
0.8333333333333334
 40
1.0
 40
1.0
 40
1.0
 40
1.0
 10
-134.0289
 20
-102.1378
 30
0.0
 10
-134.0289
 20
-102.1378
 30
0.0
 10
-163.5271
 20
-102.1479
 30
0.0
 10
-163.5271
 20
-102.1479
 30
0.0
 10
-163.5271
 20
-102.1479
 30
0.0
 10
-163.5271
 20
-102.1479
 30
0.0
 10
-163.5153
 20
-99.3948
 30
0.0
 10
-163.5153
 20
-99.3948
 30
0.0
 10
-163.5153
 20
-99.3948
 30
0.0
 10
-163.5153
 20
-99.3948
 30
0.0
 10
-155.6247
 20
-99.3948
 30
0.0
 10
-155.6247
 20
-99.3948
 30
0.0
 10
-155.6247
 20
-99.3948
 30
0.0
 10
-152.742
 20
-99.3948
 30
0.0
 10
-150.4213
 20
-97.074
 30
0.0
 10
-150.4213
 20
-94.1914
 30
0.0
 10
-150.4213
 20
-94.1914
 30
0.0
 10
-150.4213
 20
-94.1914
 30
0.0
 10
-150.4213
 20
-86.3628
 30
0.0
 10
-150.4213
 20
-86.3628
 30
0.0
 10
-150.4213
 20
-86.3628
 30
0.0
 10
-150.4213
 20
-86.3628
 30
0.0
 10
-147.2073
 20
-86.3693
 30
0.0
 10
-147.2073
 20
-86.3693
 30
0.0
 10
-147.2073
 20
-86.3693
 30
0.0
 10
-147.2073
 20
-86.3693
 30
0.0
 10
-147.2073
 20
-94.1914
 30
0.0
 10
-147.2073
 20
-94.1914
 30
0.0
 10
-147.2073
 20
-94.1914
 30
0.0
 10
-147.2073
 20
-97.074
 30
0.0
 10
-144.8865
 20
-99.3948
 30
0.0
 10
-142.0039
 20
-99.3948
 30
0.0
 10
-142.0039
 20
-99.3948
 30
0.0
 10
-142.0039
 20
-99.3948
 30
0.0
 10
-134.02
 20
-99.3948
 30
0.0
 10
-134.02
 20
-99.3948
 30
0.0
 10
-134.02
 20
-99.3948
 30
0.0
 10
-134.02
 20
-99.3948
 30
0.0
 10
-134.0289
 20
-102.1377
 30
0.0
 10
-134.0289
 20
-102.1377
 30
0.0
 10
-134.0289
 20
-102.1377
 30
0.0
 10
-134.0289
 20
-102.1377
 30
0.0
 10
-134.0289
 20
-102.1378
 30
0.0
 10
-134.0289
 20
-102.1378
 30
0.0
  0
SPLINE
  5
46
330
1F
100
AcDbEntity
  8
layer 1
 62
     7
100
AcDbSpline
210
0.0
220
0.0
230
1.0
 70
    11
 71
     3
 72
    44
 73
    40
 74
     0
 42
0.0000000001
 43
0.0000000001
 12
1.0
 22
0.0
 32
0.0
 13
1.0
 23
0.0
 33
0.0
 40
0.0
 40
0.0
 40
0.0
 40
0.0
 40
0.0909090909090909
 40
0.0909090909090909
 40
0.0909090909090909
 40
0.0909090909090909
 40
0.1818181818181818
 40
0.1818181818181818
 40
0.1818181818181818
 40
0.1818181818181818
 40
0.2727272727272727
 40
0.2727272727272727
 40
0.2727272727272727
 40
0.2727272727272727
 40
0.3636363636363636
 40
0.3636363636363636
 40
0.3636363636363636
 40
0.3636363636363636
 40
0.4545454545454545
 40
0.4545454545454545
 40
0.4545454545454545
 40
0.4545454545454545
 40
0.5454545454545454
 40
0.5454545454545454
 40
0.5454545454545454
 40
0.5454545454545454
 40
0.6363636363636364
 40
0.6363636363636364
 40
0.6363636363636364
 40
0.6363636363636364
 40
0.7272727272727273
 40
0.7272727272727273
 40
0.7272727272727273
 40
0.7272727272727273
 40
0.8181818181818182
 40
0.8181818181818182
 40
0.8181818181818182
 40
0.8181818181818182
 40
1.0
 40
1.0
 40
1.0
 40
1.0
 10
-81.9541
 20
-54.0414
 30
0.0
 10
-81.9541
 20
-54.0414
 30
0.0
 10
-81.9335
 20
-83.5898
 30
0.0
 10
-81.9335
 20
-83.5898
 30
0.0
 10
-81.9335
 20
-83.5898
 30
0.0
 10
-81.9335
 20
-83.5898
 30
0.0
 10
-85.2548
 20
-83.5898
 30
0.0
 10
-85.2548
 20
-83.5898
 30
0.0
 10
-85.2548
 20
-83.5898
 30
0.0
 10
-85.2548
 20
-83.5898
 30
0.0
 10
-85.2548
 20
-75.7229
 30
0.0
 10
-85.2548
 20
-75.7229
 30
0.0
 10
-85.2548
 20
-75.7229
 30
0.0
 10
-85.2548
 20
-72.8402
 30
0.0
 10
-87.5756
 20
-70.5195
 30
0.0
 10
-90.4583
 20
-70.5195
 30
0.0
 10
-90.4583
 20
-70.5195
 30
0.0
 10
-90.4583
 20
-70.5195
 30
0.0
 10
-98.4421
 20
-70.5195
 30
0.0
 10
-98.4421
 20
-70.5195
 30
0.0
 10
-98.4421
 20
-70.5195
 30
0.0
 10
-98.4421
 20
-70.5195
 30
0.0
 10
-98.4421
 20
-67.4316
 30
0.0
 10
-98.4421
 20
-67.4316
 30
0.0
 10
-98.4421
 20
-67.4316
 30
0.0
 10
-98.4421
 20
-67.4316
 30
0.0
 10
-90.4583
 20
-67.4316
 30
0.0
 10
-90.4583
 20
-67.4316
 30
0.0
 10
-90.4583
 20
-67.4316
 30
0.0
 10
-87.5756
 20
-67.4316
 30
0.0
 10
-85.2548
 20
-65.1109
 30
0.0
 10
-85.2548
 20
-62.2282
 30
0.0
 10
-85.2548
 20
-62.2282
 30
0.0
 10
-85.2548
 20
-62.2282
 30
0.0
 10
-85.2548
 20
-53.9796
 30
0.0
 10
-85.2548
 20
-53.9796
 30
0.0
 10
-85.2548
 20
-53.9796
 30
0.0
 10
-85.2548
 20
-53.9796
 30
0.0
 10
-81.9541
 20
-54.0414
 30
0.0
 10
-81.9541
 20
-54.0414
 30
0.0
  0
SPLINE
  5
47
330
1F
100
AcDbEntity
  8
layer 1
 62
     7
100
AcDbSpline
210
0.0
220
0.0
230
1.0
 70
    11
 71
     3
 72
    68
 73
    64
 74
     0
 42
0.0000000001
 43
0.0000000001
 12
1.0
 22
0.0
 32
0.0
 13
1.0
 23
0.0
 33
0.0
 40
0.0
 40
0.0
 40
0.0
 40
0.0
 40
0.0588235294117647
 40
0.0588235294117647
 40
0.0588235294117647
 40
0.0588235294117647
 40
0.1176470588235294
 40
0.1176470588235294
 40
0.1176470588235294
 40
0.1176470588235294
 40
0.1764705882352941
 40
0.1764705882352941
 40
0.1764705882352941
 40
0.1764705882352941
 40
0.2352941176470588
 40
0.2352941176470588
 40
0.2352941176470588
 40
0.2352941176470588
 40
0.2941176470588235
 40
0.2941176470588235
 40
0.2941176470588235
 40
0.2941176470588235
 40
0.3529411764705883
 40
0.3529411764705883
 40
0.3529411764705883
 40
0.3529411764705883
 40
0.4117647058823529
 40
0.4117647058823529
 40
0.4117647058823529
 40
0.4117647058823529
 40
0.4705882352941176
 40
0.4705882352941176
 40
0.4705882352941176
 40
0.4705882352941176
 40
0.5294117647058824
 40
0.5294117647058824
 40
0.5294117647058824
 40
0.5294117647058824
 40
0.5882352941176471
 40
0.5882352941176471
 40
0.5882352941176471
 40
0.5882352941176471
 40
0.6470588235294118
 40
0.6470588235294118
 40
0.6470588235294118
 40
0.6470588235294118
 40
0.7058823529411765
 40
0.7058823529411765
 40
0.7058823529411765
 40
0.7058823529411765
 40
0.7647058823529411
 40
0.7647058823529411
 40
0.7647058823529411
 40
0.7647058823529411
 40
0.8235294117647058
 40
0.8235294117647058
 40
0.8235294117647058
 40
0.8235294117647058
 40
0.8823529411764706
 40
0.8823529411764706
 40
0.8823529411764706
 40
0.8823529411764706
 40
1.0
 40
1.0
 40
1.0
 40
1.0
 10
-101.4067
 20
-67.4316
 30
0.0
 10
-101.4067
 20
-67.4316
 30
0.0
 10
-109.3906
 20
-67.4316
 30
0.0
 10
-109.3906
 20
-67.4316
 30
0.0
 10
-109.3906
 20
-67.4316
 30
0.0
 10
-112.2733
 20
-67.4316
 30
0.0
 10
-114.5941
 20
-65.1109
 30
0.0
 10
-114.5941
 20
-62.2282
 30
0.0
 10
-114.5941
 20
-62.2282
 30
0.0
 10
-114.5941
 20
-62.2282
 30
0.0
 10
-114.6277
 20
-53.9459
 30
0.0
 10
-114.6277
 20
-53.9459
 30
0.0
 10
-114.6277
 20
-53.9459
 30
0.0
 10
-114.6277
 20
-53.9459
 30
0.0
 10
-117.8081
 20
-53.9518
 30
0.0
 10
-117.8081
 20
-53.9518
 30
0.0
 10
-117.8081
 20
-53.9518
 30
0.0
 10
-117.8081
 20
-53.9518
 30
0.0
 10
-117.8081
 20
-62.2281
 30
0.0
 10
-117.8081
 20
-62.2281
 30
0.0
 10
-117.8081
 20
-62.2281
 30
0.0
 10
-117.8081
 20
-65.1108
 30
0.0
 10
-120.1288
 20
-67.4315
 30
0.0
 10
-123.0115
 20
-67.4315
 30
0.0
 10
-123.0115
 20
-67.4315
 30
0.0
 10
-123.0115
 20
-67.4315
 30
0.0
 10
-130.8843
 20
-67.4315
 30
0.0
 10
-130.8843
 20
-67.4315
 30
0.0
 10
-130.8843
 20
-67.4315
 30
0.0
 10
-130.8843
 20
-67.4315
 30
0.0
 10
-130.8745
 20
-70.5194
 30
0.0
 10
-130.8745
 20
-70.5194
 30
0.0
 10
-130.8745
 20
-70.5194
 30
0.0
 10
-130.8745
 20
-70.5194
 30
0.0
 10
-123.0115
 20
-70.5194
 30
0.0
 10
-123.0115
 20
-70.5194
 30
0.0
 10
-123.0115
 20
-70.5194
 30
0.0
 10
-120.1288
 20
-70.5194
 30
0.0
 10
-117.8081
 20
-72.8402
 30
0.0
 10
-117.8081
 20
-75.7228
 30
0.0
 10
-117.8081
 20
-75.7228
 30
0.0
 10
-117.8081
 20
-75.7228
 30
0.0
 10
-117.8081
 20
-83.5907
 30
0.0
 10
-117.8081
 20
-83.5907
 30
0.0
 10
-117.8081
 20
-83.5907
 30
0.0
 10
-117.8081
 20
-83.5907
 30
0.0
 10
-114.5941
 20
-83.5898
 30
0.0
 10
-114.5941
 20
-83.5898
 30
0.0
 10
-114.5941
 20
-83.5898
 30
0.0
 10
-114.5941
 20
-83.5898
 30
0.0
 10
-114.5941
 20
-75.7229
 30
0.0
 10
-114.5941
 20
-75.7229
 30
0.0
 10
-114.5941
 20
-75.7229
 30
0.0
 10
-114.5941
 20
-72.8402
 30
0.0
 10
-112.2733
 20
-70.5195
 30
0.0
 10
-109.3906
 20
-70.5195
 30
0.0
 10
-109.3906
 20
-70.5195
 30
0.0
 10
-109.3906
 20
-70.5195
 30
0.0
 10
-101.4067
 20
-70.5195
 30
0.0
 10
-101.4067
 20
-70.5195
 30
0.0
 10
-101.4067
 20
-70.5195
 30
0.0
 10
-101.4067
 20
-70.5195
 30
0.0
 10
-101.4067
 20
-67.4316
 30
0.0
 10
-101.4067
 20
-67.4316
 30
0.0
  0
SPLINE
  5
48
330
1F
100
AcDbEntity
  8
layer 1
 62
     7
100
AcDbSpline
210
0.0
220
0.0
230
1.0
 70
    11
 71
     3
 72
    44
 73
    40
 74
     0
 42
0.0000000001
 43
0.0000000001
 12
1.0
 22
0.0
 32
0.0
 13
1.0
 23
0.0
 33
0.0
 40
0.0
 40
0.0
 40
0.0
 40
0.0
 40
0.0909090909090909
 40
0.0909090909090909
 40
0.0909090909090909
 40
0.0909090909090909
 40
0.1818181818181818
 40
0.1818181818181818
 40
0.1818181818181818
 40
0.1818181818181818
 40
0.2727272727272727
 40
0.2727272727272727
 40
0.2727272727272727
 40
0.2727272727272727
 40
0.3636363636363636
 40
0.3636363636363636
 40
0.3636363636363636
 40
0.3636363636363636
 40
0.4545454545454545
 40
0.4545454545454545
 40
0.4545454545454545
 40
0.4545454545454545
 40
0.5454545454545454
 40
0.5454545454545454
 40
0.5454545454545454
 40
0.5454545454545454
 40
0.6363636363636364
 40
0.6363636363636364
 40
0.6363636363636364
 40
0.6363636363636364
 40
0.7272727272727273
 40
0.7272727272727273
 40
0.7272727272727273
 40
0.7272727272727273
 40
0.8181818181818182
 40
0.8181818181818182
 40
0.8181818181818182
 40
0.8181818181818182
 40
1.0
 40
1.0
 40
1.0
 40
1.0
 10
-183.1206
 20
-54.0414
 30
0.0
 10
-183.1206
 20
-54.0414
 30
0.0
 10
-183.1412
 20
-83.5898
 30
0.0
 10
-183.1412
 20
-83.5898
 30
0.0
 10
-183.1412
 20
-83.5898
 30
0.0
 10
-183.1412
 20
-83.5898
 30
0.0
 10
-179.8199
 20
-83.5898
 30
0.0
 10
-179.8199
 20
-83.5898
 30
0.0
 10
-179.8199
 20
-83.5898
 30
0.0
 10
-179.8199
 20
-83.5898
 30
0.0
 10
-179.8199
 20
-75.7229
 30
0.0
 10
-179.8199
 20
-75.7229
 30
0.0
 10
-179.8199
 20
-75.7229
 30
0.0
 10
-179.8199
 20
-72.8402
 30
0.0
 10
-177.4991
 20
-70.5195
 30
0.0
 10
-174.6164
 20
-70.5195
 30
0.0
 10
-174.6164
 20
-70.5195
 30
0.0
 10
-174.6164
 20
-70.5195
 30
0.0
 10
-166.6325
 20
-70.5195
 30
0.0
 10
-166.6325
 20
-70.5195
 30
0.0
 10
-166.6325
 20
-70.5195
 30
0.0
 10
-166.6325
 20
-70.5195
 30
0.0
 10
-166.6325
 20
-67.4316
 30
0.0
 10
-166.6325
 20
-67.4316
 30
0.0
 10
-166.6325
 20
-67.4316
 30
0.0
 10
-166.6325
 20
-67.4316
 30
0.0
 10
-174.6164
 20
-67.4316
 30
0.0
 10
-174.6164
 20
-67.4316
 30
0.0
 10
-174.6164
 20
-67.4316
 30
0.0
 10
-177.4991
 20
-67.4316
 30
0.0
 10
-179.8199
 20
-65.1109
 30
0.0
 10
-179.8199
 20
-62.2282
 30
0.0
 10
-179.8199
 20
-62.2282
 30
0.0
 10
-179.8199
 20
-62.2282
 30
0.0
 10
-179.8199
 20
-53.9796
 30
0.0
 10
-179.8199
 20
-53.9796
 30
0.0
 10
-179.8199
 20
-53.9796
 30
0.0
 10
-179.8199
 20
-53.9796
 30
0.0
 10
-183.1206
 20
-54.0414
 30
0.0
 10
-183.1206
 20
-54.0414
 30
0.0
  0
SPLINE
  5
49
330
1F
100
AcDbEntity
  8
layer 1
 62
     7
100
AcDbSpline
210
0.0
220
0.0
230
1.0
 70
    11
 71
     3
 72
    68
 73
    64
 74
     0
 42
0.0000000001
 43
0.0000000001
 12
1.0
 22
0.0
 32
0.0
 13
1.0
 23
0.0
 33
0.0
 40
0.0
 40
0.0
 40
0.0
 40
0.0
 40
0.0588235294117647
 40
0.0588235294117647
 40
0.0588235294117647
 40
0.0588235294117647
 40
0.1176470588235294
 40
0.1176470588235294
 40
0.1176470588235294
 40
0.1176470588235294
 40
0.1764705882352941
 40
0.1764705882352941
 40
0.1764705882352941
 40
0.1764705882352941
 40
0.2352941176470588
 40
0.2352941176470588
 40
0.2352941176470588
 40
0.2352941176470588
 40
0.2941176470588235
 40
0.2941176470588235
 40
0.2941176470588235
 40
0.2941176470588235
 40
0.3529411764705883
 40
0.3529411764705883
 40
0.3529411764705883
 40
0.3529411764705883
 40
0.4117647058823529
 40
0.4117647058823529
 40
0.4117647058823529
 40
0.4117647058823529
 40
0.4705882352941176
 40
0.4705882352941176
 40
0.4705882352941176
 40
0.4705882352941176
 40
0.5294117647058824
 40
0.5294117647058824
 40
0.5294117647058824
 40
0.5294117647058824
 40
0.5882352941176471
 40
0.5882352941176471
 40
0.5882352941176471
 40
0.5882352941176471
 40
0.6470588235294118
 40
0.6470588235294118
 40
0.6470588235294118
 40
0.6470588235294118
 40
0.7058823529411765
 40
0.7058823529411765
 40
0.7058823529411765
 40
0.7058823529411765
 40
0.7647058823529411
 40
0.7647058823529411
 40
0.7647058823529411
 40
0.7647058823529411
 40
0.8235294117647058
 40
0.8235294117647058
 40
0.8235294117647058
 40
0.8235294117647058
 40
0.8823529411764706
 40
0.8823529411764706
 40
0.8823529411764706
 40
0.8823529411764706
 40
1.0
 40
1.0
 40
1.0
 40
1.0
 10
-134.0564
 20
-67.4316
 30
0.0
 10
-134.0564
 20
-67.4316
 30
0.0
 10
-142.0403
 20
-67.4316
 30
0.0
 10
-142.0403
 20
-67.4316
 30
0.0
 10
-142.0403
 20
-67.4316
 30
0.0
 10
-144.923
 20
-67.4316
 30
0.0
 10
-147.2437
 20
-65.1109
 30
0.0
 10
-147.2437
 20
-62.2282
 30
0.0
 10
-147.2437
 20
-62.2282
 30
0.0
 10
-147.2437
 20
-62.2282
 30
0.0
 10
-147.2773
 20
-53.9459
 30
0.0
 10
-147.2773
 20
-53.9459
 30
0.0
 10
-147.2773
 20
-53.9459
 30
0.0
 10
-147.2773
 20
-53.9459
 30
0.0
 10
-150.4577
 20
-53.9518
 30
0.0
 10
-150.4577
 20
-53.9518
 30
0.0
 10
-150.4577
 20
-53.9518
 30
0.0
 10
-150.4577
 20
-53.9518
 30
0.0
 10
-150.4577
 20
-62.2281
 30
0.0
 10
-150.4577
 20
-62.2281
 30
0.0
 10
-150.4577
 20
-62.2281
 30
0.0
 10
-150.4577
 20
-65.1108
 30
0.0
 10
-152.7785
 20
-67.4315
 30
0.0
 10
-155.6611
 20
-67.4315
 30
0.0
 10
-155.6611
 20
-67.4315
 30
0.0
 10
-155.6611
 20
-67.4315
 30
0.0
 10
-163.5339
 20
-67.4315
 30
0.0
 10
-163.5339
 20
-67.4315
 30
0.0
 10
-163.5339
 20
-67.4315
 30
0.0
 10
-163.5339
 20
-67.4315
 30
0.0
 10
-163.5242
 20
-70.5194
 30
0.0
 10
-163.5242
 20
-70.5194
 30
0.0
 10
-163.5242
 20
-70.5194
 30
0.0
 10
-163.5242
 20
-70.5194
 30
0.0
 10
-155.6611
 20
-70.5194
 30
0.0
 10
-155.6611
 20
-70.5194
 30
0.0
 10
-155.6611
 20
-70.5194
 30
0.0
 10
-152.7785
 20
-70.5194
 30
0.0
 10
-150.4577
 20
-72.8402
 30
0.0
 10
-150.4577
 20
-75.7228
 30
0.0
 10
-150.4577
 20
-75.7228
 30
0.0
 10
-150.4577
 20
-75.7228
 30
0.0
 10
-150.4577
 20
-83.5907
 30
0.0
 10
-150.4577
 20
-83.5907
 30
0.0
 10
-150.4577
 20
-83.5907
 30
0.0
 10
-150.4577
 20
-83.5907
 30
0.0
 10
-147.2437
 20
-83.5898
 30
0.0
 10
-147.2437
 20
-83.5898
 30
0.0
 10
-147.2437
 20
-83.5898
 30
0.0
 10
-147.2437
 20
-83.5898
 30
0.0
 10
-147.2437
 20
-75.7229
 30
0.0
 10
-147.2437
 20
-75.7229
 30
0.0
 10
-147.2437
 20
-75.7229
 30
0.0
 10
-147.2437
 20
-72.8402
 30
0.0
 10
-144.923
 20
-70.5195
 30
0.0
 10
-142.0403
 20
-70.5195
 30
0.0
 10
-142.0403
 20
-70.5195
 30
0.0
 10
-142.0403
 20
-70.5195
 30
0.0
 10
-134.0564
 20
-70.5195
 30
0.0
 10
-134.0564
 20
-70.5195
 30
0.0
 10
-134.0564
 20
-70.5195
 30
0.0
 10
-134.0564
 20
-70.5195
 30
0.0
 10
-134.0564
 20
-67.4316
 30
0.0
 10
-134.0564
 20
-67.4316
 30
0.0
  0
SPLINE
  5
4A
330
1F
100
AcDbEntity
  8
layer 1
 62
     7
100
AcDbSpline
210
0.0
220
0.0
230
1.0
 70
    11
 71
     3
 72
    44
 73
    40
 74
     0
 42
0.0000000001
 43
0.0000000001
 12
1.0
 22
0.0
 32
0.0
 13
1.0
 23
0.0
 33
0.0
 40
0.0
 40
0.0
 40
0.0
 40
0.0
 40
0.0909090909090909
 40
0.0909090909090909
 40
0.0909090909090909
 40
0.0909090909090909
 40
0.1818181818181818
 40
0.1818181818181818
 40
0.1818181818181818
 40
0.1818181818181818
 40
0.2727272727272727
 40
0.2727272727272727
 40
0.2727272727272727
 40
0.2727272727272727
 40
0.3636363636363636
 40
0.3636363636363636
 40
0.3636363636363636
 40
0.3636363636363636
 40
0.4545454545454545
 40
0.4545454545454545
 40
0.4545454545454545
 40
0.4545454545454545
 40
0.5454545454545454
 40
0.5454545454545454
 40
0.5454545454545454
 40
0.5454545454545454
 40
0.6363636363636364
 40
0.6363636363636364
 40
0.6363636363636364
 40
0.6363636363636364
 40
0.7272727272727273
 40
0.7272727272727273
 40
0.7272727272727273
 40
0.7272727272727273
 40
0.8181818181818182
 40
0.8181818181818182
 40
0.8181818181818182
 40
0.8181818181818182
 40
1.0
 40
1.0
 40
1.0
 40
1.0
 10
-81.9541
 20
-21.4747
 30
0.0
 10
-81.9541
 20
-21.4747
 30
0.0
 10
-81.9335
 20
-51.023
 30
0.0
 10
-81.9335
 20
-51.023
 30
0.0
 10
-81.9335
 20
-51.023
 30
0.0
 10
-81.9335
 20
-51.023
 30
0.0
 10
-85.2548
 20
-51.023
 30
0.0
 10
-85.2548
 20
-51.023
 30
0.0
 10
-85.2548
 20
-51.023
 30
0.0
 10
-85.2548
 20
-51.023
 30
0.0
 10
-85.2548
 20
-43.1562
 30
0.0
 10
-85.2548
 20
-43.1562
 30
0.0
 10
-85.2548
 20
-43.1562
 30
0.0
 10
-85.2548
 20
-40.2735
 30
0.0
 10
-87.5756
 20
-37.9528
 30
0.0
 10
-90.4583
 20
-37.9528
 30
0.0
 10
-90.4583
 20
-37.9528
 30
0.0
 10
-90.4583
 20
-37.9528
 30
0.0
 10
-98.4421
 20
-37.9528
 30
0.0
 10
-98.4421
 20
-37.9528
 30
0.0
 10
-98.4421
 20
-37.9528
 30
0.0
 10
-98.4421
 20
-37.9528
 30
0.0
 10
-98.4421
 20
-34.8649
 30
0.0
 10
-98.4421
 20
-34.8649
 30
0.0
 10
-98.4421
 20
-34.8649
 30
0.0
 10
-98.4421
 20
-34.8649
 30
0.0
 10
-90.4583
 20
-34.8649
 30
0.0
 10
-90.4583
 20
-34.8649
 30
0.0
 10
-90.4583
 20
-34.8649
 30
0.0
 10
-87.5756
 20
-34.8649
 30
0.0
 10
-85.2548
 20
-32.5441
 30
0.0
 10
-85.2548
 20
-29.6614
 30
0.0
 10
-85.2548
 20
-29.6614
 30
0.0
 10
-85.2548
 20
-29.6614
 30
0.0
 10
-85.2548
 20
-21.4128
 30
0.0
 10
-85.2548
 20
-21.4128
 30
0.0
 10
-85.2548
 20
-21.4128
 30
0.0
 10
-85.2548
 20
-21.4128
 30
0.0
 10
-81.9541
 20
-21.4747
 30
0.0
 10
-81.9541
 20
-21.4747
 30
0.0
  0
SPLINE
  5
4B
330
1F
100
AcDbEntity
  8
layer 1
 62
     7
100
AcDbSpline
210
0.0
220
0.0
230
1.0
 70
    11
 71
     3
 72
    68
 73
    64
 74
     0
 42
0.0000000001
 43
0.0000000001
 12
1.0
 22
0.0
 32
0.0
 13
1.0
 23
0.0
 33
0.0
 40
0.0
 40
0.0
 40
0.0
 40
0.0
 40
0.0588235294117647
 40
0.0588235294117647
 40
0.0588235294117647
 40
0.0588235294117647
 40
0.1176470588235294
 40
0.1176470588235294
 40
0.1176470588235294
 40
0.1176470588235294
 40
0.1764705882352941
 40
0.1764705882352941
 40
0.1764705882352941
 40
0.1764705882352941
 40
0.2352941176470588
 40
0.2352941176470588
 40
0.2352941176470588
 40
0.2352941176470588
 40
0.2941176470588235
 40
0.2941176470588235
 40
0.2941176470588235
 40
0.2941176470588235
 40
0.3529411764705883
 40
0.3529411764705883
 40
0.3529411764705883
 40
0.3529411764705883
 40
0.4117647058823529
 40
0.4117647058823529
 40
0.4117647058823529
 40
0.4117647058823529
 40
0.4705882352941176
 40
0.4705882352941176
 40
0.4705882352941176
 40
0.4705882352941176
 40
0.5294117647058824
 40
0.5294117647058824
 40
0.5294117647058824
 40
0.5294117647058824
 40
0.5882352941176471
 40
0.5882352941176471
 40
0.5882352941176471
 40
0.5882352941176471
 40
0.6470588235294118
 40
0.6470588235294118
 40
0.6470588235294118
 40
0.6470588235294118
 40
0.7058823529411765
 40
0.7058823529411765
 40
0.7058823529411765
 40
0.7058823529411765
 40
0.7647058823529411
 40
0.7647058823529411
 40
0.7647058823529411
 40
0.7647058823529411
 40
0.8235294117647058
 40
0.8235294117647058
 40
0.8235294117647058
 40
0.8235294117647058
 40
0.8823529411764706
 40
0.8823529411764706
 40
0.8823529411764706
 40
0.8823529411764706
 40
1.0
 40
1.0
 40
1.0
 40
1.0
 10
-101.4067
 20
-34.8649
 30
0.0
 10
-101.4067
 20
-34.8649
 30
0.0
 10
-109.3906
 20
-34.8649
 30
0.0
 10
-109.3906
 20
-34.8649
 30
0.0
 10
-109.3906
 20
-34.8649
 30
0.0
 10
-112.2733
 20
-34.8649
 30
0.0
 10
-114.5941
 20
-32.5441
 30
0.0
 10
-114.5941
 20
-29.6614
 30
0.0
 10
-114.5941
 20
-29.6614
 30
0.0
 10
-114.5941
 20
-29.6614
 30
0.0
 10
-114.6277
 20
-21.3792
 30
0.0
 10
-114.6277
 20
-21.3792
 30
0.0
 10
-114.6277
 20
-21.3792
 30
0.0
 10
-114.6277
 20
-21.3792
 30
0.0
 10
-117.8081
 20
-21.385
 30
0.0
 10
-117.8081
 20
-21.385
 30
0.0
 10
-117.8081
 20
-21.385
 30
0.0
 10
-117.8081
 20
-21.385
 30
0.0
 10
-117.8081
 20
-29.6614
 30
0.0
 10
-117.8081
 20
-29.6614
 30
0.0
 10
-117.8081
 20
-29.6614
 30
0.0
 10
-117.8081
 20
-32.544
 30
0.0
 10
-120.1288
 20
-34.8648
 30
0.0
 10
-123.0115
 20
-34.8648
 30
0.0
 10
-123.0115
 20
-34.8648
 30
0.0
 10
-123.0115
 20
-34.8648
 30
0.0
 10
-130.8843
 20
-34.8648
 30
0.0
 10
-130.8843
 20
-34.8648
 30
0.0
 10
-130.8843
 20
-34.8648
 30
0.0
 10
-130.8843
 20
-34.8648
 30
0.0
 10
-130.8745
 20
-37.9527
 30
0.0
 10
-130.8745
 20
-37.9527
 30
0.0
 10
-130.8745
 20
-37.9527
 30
0.0
 10
-130.8745
 20
-37.9527
 30
0.0
 10
-123.0115
 20
-37.9527
 30
0.0
 10
-123.0115
 20
-37.9527
 30
0.0
 10
-123.0115
 20
-37.9527
 30
0.0
 10
-120.1288
 20
-37.9527
 30
0.0
 10
-117.8081
 20
-40.2734
 30
0.0
 10
-117.8081
 20
-43.1561
 30
0.0
 10
-117.8081
 20
-43.1561
 30
0.0
 10
-117.8081
 20
-43.1561
 30
0.0
 10
-117.8081
 20
-51.0239
 30
0.0
 10
-117.8081
 20
-51.0239
 30
0.0
 10
-117.8081
 20
-51.0239
 30
0.0
 10
-117.8081
 20
-51.0239
 30
0.0
 10
-114.5941
 20
-51.023
 30
0.0
 10
-114.5941
 20
-51.023
 30
0.0
 10
-114.5941
 20
-51.023
 30
0.0
 10
-114.5941
 20
-51.023
 30
0.0
 10
-114.5941
 20
-43.1562
 30
0.0
 10
-114.5941
 20
-43.1562
 30
0.0
 10
-114.5941
 20
-43.1562
 30
0.0
 10
-114.5941
 20
-40.2735
 30
0.0
 10
-112.2733
 20
-37.9528
 30
0.0
 10
-109.3906
 20
-37.9528
 30
0.0
 10
-109.3906
 20
-37.9528
 30
0.0
 10
-109.3906
 20
-37.9528
 30
0.0
 10
-101.4067
 20
-37.9528
 30
0.0
 10
-101.4067
 20
-37.9528
 30
0.0
 10
-101.4067
 20
-37.9528
 30
0.0
 10
-101.4067
 20
-37.9528
 30
0.0
 10
-101.4067
 20
-34.8649
 30
0.0
 10
-101.4067
 20
-34.8649
 30
0.0
  0
SPLINE
  5
4C
330
1F
100
AcDbEntity
  8
layer 1
 62
     7
100
AcDbSpline
210
0.0
220
0.0
230
1.0
 70
    11
 71
     3
 72
    44
 73
    40
 74
     0
 42
0.0000000001
 43
0.0000000001
 12
1.0
 22
0.0
 32
0.0
 13
1.0
 23
0.0
 33
0.0
 40
0.0
 40
0.0
 40
0.0
 40
0.0
 40
0.0909090909090909
 40
0.0909090909090909
 40
0.0909090909090909
 40
0.0909090909090909
 40
0.1818181818181818
 40
0.1818181818181818
 40
0.1818181818181818
 40
0.1818181818181818
 40
0.2727272727272727
 40
0.2727272727272727
 40
0.2727272727272727
 40
0.2727272727272727
 40
0.3636363636363636
 40
0.3636363636363636
 40
0.3636363636363636
 40
0.3636363636363636
 40
0.4545454545454545
 40
0.4545454545454545
 40
0.4545454545454545
 40
0.4545454545454545
 40
0.5454545454545454
 40
0.5454545454545454
 40
0.5454545454545454
 40
0.5454545454545454
 40
0.6363636363636364
 40
0.6363636363636364
 40
0.6363636363636364
 40
0.6363636363636364
 40
0.7272727272727273
 40
0.7272727272727273
 40
0.7272727272727273
 40
0.7272727272727273
 40
0.8181818181818182
 40
0.8181818181818182
 40
0.8181818181818182
 40
0.8181818181818182
 40
1.0
 40
1.0
 40
1.0
 40
1.0
 10
-183.1206
 20
-21.4747
 30
0.0
 10
-183.1206
 20
-21.4747
 30
0.0
 10
-183.1412
 20
-51.023
 30
0.0
 10
-183.1412
 20
-51.023
 30
0.0
 10
-183.1412
 20
-51.023
 30
0.0
 10
-183.1412
 20
-51.023
 30
0.0
 10
-179.8199
 20
-51.023
 30
0.0
 10
-179.8199
 20
-51.023
 30
0.0
 10
-179.8199
 20
-51.023
 30
0.0
 10
-179.8199
 20
-51.023
 30
0.0
 10
-179.8199
 20
-43.1562
 30
0.0
 10
-179.8199
 20
-43.1562
 30
0.0
 10
-179.8199
 20
-43.1562
 30
0.0
 10
-179.8199
 20
-40.2735
 30
0.0
 10
-177.4991
 20
-37.9528
 30
0.0
 10
-174.6164
 20
-37.9528
 30
0.0
 10
-174.6164
 20
-37.9528
 30
0.0
 10
-174.6164
 20
-37.9528
 30
0.0
 10
-166.6325
 20
-37.9528
 30
0.0
 10
-166.6325
 20
-37.9528
 30
0.0
 10
-166.6325
 20
-37.9528
 30
0.0
 10
-166.6325
 20
-37.9528
 30
0.0
 10
-166.6325
 20
-34.8649
 30
0.0
 10
-166.6325
 20
-34.8649
 30
0.0
 10
-166.6325
 20
-34.8649
 30
0.0
 10
-166.6325
 20
-34.8649
 30
0.0
 10
-174.6164
 20
-34.8649
 30
0.0
 10
-174.6164
 20
-34.8649
 30
0.0
 10
-174.6164
 20
-34.8649
 30
0.0
 10
-177.4991
 20
-34.8649
 30
0.0
 10
-179.8199
 20
-32.5441
 30
0.0
 10
-179.8199
 20
-29.6614
 30
0.0
 10
-179.8199
 20
-29.6614
 30
0.0
 10
-179.8199
 20
-29.6614
 30
0.0
 10
-179.8199
 20
-21.4128
 30
0.0
 10
-179.8199
 20
-21.4128
 30
0.0
 10
-179.8199
 20
-21.4128
 30
0.0
 10
-179.8199
 20
-21.4128
 30
0.0
 10
-183.1206
 20
-21.4747
 30
0.0
 10
-183.1206
 20
-21.4747
 30
0.0
  0
SPLINE
  5
4D
330
1F
100
AcDbEntity
  8
layer 1
 62
     7
100
AcDbSpline
210
0.0
220
0.0
230
1.0
 70
    11
 71
     3
 72
    68
 73
    64
 74
     0
 42
0.0000000001
 43
0.0000000001
 12
1.0
 22
0.0
 32
0.0
 13
1.0
 23
0.0
 33
0.0
 40
0.0
 40
0.0
 40
0.0
 40
0.0
 40
0.0588235294117647
 40
0.0588235294117647
 40
0.0588235294117647
 40
0.0588235294117647
 40
0.1176470588235294
 40
0.1176470588235294
 40
0.1176470588235294
 40
0.1176470588235294
 40
0.1764705882352941
 40
0.1764705882352941
 40
0.1764705882352941
 40
0.1764705882352941
 40
0.2352941176470588
 40
0.2352941176470588
 40
0.2352941176470588
 40
0.2352941176470588
 40
0.2941176470588235
 40
0.2941176470588235
 40
0.2941176470588235
 40
0.2941176470588235
 40
0.3529411764705883
 40
0.3529411764705883
 40
0.3529411764705883
 40
0.3529411764705883
 40
0.4117647058823529
 40
0.4117647058823529
 40
0.4117647058823529
 40
0.4117647058823529
 40
0.4705882352941176
 40
0.4705882352941176
 40
0.4705882352941176
 40
0.4705882352941176
 40
0.5294117647058824
 40
0.5294117647058824
 40
0.5294117647058824
 40
0.5294117647058824
 40
0.5882352941176471
 40
0.5882352941176471
 40
0.5882352941176471
 40
0.5882352941176471
 40
0.6470588235294118
 40
0.6470588235294118
 40
0.6470588235294118
 40
0.6470588235294118
 40
0.7058823529411765
 40
0.7058823529411765
 40
0.7058823529411765
 40
0.7058823529411765
 40
0.7647058823529411
 40
0.7647058823529411
 40
0.7647058823529411
 40
0.7647058823529411
 40
0.8235294117647058
 40
0.8235294117647058
 40
0.8235294117647058
 40
0.8235294117647058
 40
0.8823529411764706
 40
0.8823529411764706
 40
0.8823529411764706
 40
0.8823529411764706
 40
1.0
 40
1.0
 40
1.0
 40
1.0
 10
-134.0564
 20
-34.8649
 30
0.0
 10
-134.0564
 20
-34.8649
 30
0.0
 10
-142.0403
 20
-34.8649
 30
0.0
 10
-142.0403
 20
-34.8649
 30
0.0
 10
-142.0403
 20
-34.8649
 30
0.0
 10
-144.923
 20
-34.8649
 30
0.0
 10
-147.2437
 20
-32.5441
 30
0.0
 10
-147.2437
 20
-29.6614
 30
0.0
 10
-147.2437
 20
-29.6614
 30
0.0
 10
-147.2437
 20
-29.6614
 30
0.0
 10
-147.2773
 20
-21.3792
 30
0.0
 10
-147.2773
 20
-21.3792
 30
0.0
 10
-147.2773
 20
-21.3792
 30
0.0
 10
-147.2773
 20
-21.3792
 30
0.0
 10
-150.4577
 20
-21.385
 30
0.0
 10
-150.4577
 20
-21.385
 30
0.0
 10
-150.4577
 20
-21.385
 30
0.0
 10
-150.4577
 20
-21.385
 30
0.0
 10
-150.4577
 20
-29.6614
 30
0.0
 10
-150.4577
 20
-29.6614
 30
0.0
 10
-150.4577
 20
-29.6614
 30
0.0
 10
-150.4577
 20
-32.544
 30
0.0
 10
-152.7785
 20
-34.8648
 30
0.0
 10
-155.6611
 20
-34.8648
 30
0.0
 10
-155.6611
 20
-34.8648
 30
0.0
 10
-155.6611
 20
-34.8648
 30
0.0
 10
-163.5339
 20
-34.8648
 30
0.0
 10
-163.5339
 20
-34.8648
 30
0.0
 10
-163.5339
 20
-34.8648
 30
0.0
 10
-163.5339
 20
-34.8648
 30
0.0
 10
-163.5242
 20
-37.9527
 30
0.0
 10
-163.5242
 20
-37.9527
 30
0.0
 10
-163.5242
 20
-37.9527
 30
0.0
 10
-163.5242
 20
-37.9527
 30
0.0
 10
-155.6611
 20
-37.9527
 30
0.0
 10
-155.6611
 20
-37.9527
 30
0.0
 10
-155.6611
 20
-37.9527
 30
0.0
 10
-152.7785
 20
-37.9527
 30
0.0
 10
-150.4577
 20
-40.2734
 30
0.0
 10
-150.4577
 20
-43.1561
 30
0.0
 10
-150.4577
 20
-43.1561
 30
0.0
 10
-150.4577
 20
-43.1561
 30
0.0
 10
-150.4577
 20
-51.0239
 30
0.0
 10
-150.4577
 20
-51.0239
 30
0.0
 10
-150.4577
 20
-51.0239
 30
0.0
 10
-150.4577
 20
-51.0239
 30
0.0
 10
-147.2437
 20
-51.023
 30
0.0
 10
-147.2437
 20
-51.023
 30
0.0
 10
-147.2437
 20
-51.023
 30
0.0
 10
-147.2437
 20
-51.023
 30
0.0
 10
-147.2437
 20
-43.1562
 30
0.0
 10
-147.2437
 20
-43.1562
 30
0.0
 10
-147.2437
 20
-43.1562
 30
0.0
 10
-147.2437
 20
-40.2735
 30
0.0
 10
-144.923
 20
-37.9528
 30
0.0
 10
-142.0403
 20
-37.9528
 30
0.0
 10
-142.0403
 20
-37.9528
 30
0.0
 10
-142.0403
 20
-37.9528
 30
0.0
 10
-134.0564
 20
-37.9528
 30
0.0
 10
-134.0564
 20
-37.9528
 30
0.0
 10
-134.0564
 20
-37.9528
 30
0.0
 10
-134.0564
 20
-37.9528
 30
0.0
 10
-134.0564
 20
-34.8649
 30
0.0
 10
-134.0564
 20
-34.8649
 30
0.0
  0
SPLINE
  5
4E
330
1F
100
AcDbEntity
  8
layer 1
 62
     7
100
AcDbSpline
210
0.0
220
0.0
230
1.0
 70
    11
 71
     3
 72
    44
 73
    40
 74
     0
 42
0.0000000001
 43
0.0000000001
 12
1.0
 22
0.0
 32
0.0
 13
1.0
 23
0.0
 33
0.0
 40
0.0
 40
0.0
 40
0.0
 40
0.0
 40
0.0909090909090909
 40
0.0909090909090909
 40
0.0909090909090909
 40
0.0909090909090909
 40
0.1818181818181818
 40
0.1818181818181818
 40
0.1818181818181818
 40
0.1818181818181818
 40
0.2727272727272727
 40
0.2727272727272727
 40
0.2727272727272727
 40
0.2727272727272727
 40
0.3636363636363636
 40
0.3636363636363636
 40
0.3636363636363636
 40
0.3636363636363636
 40
0.4545454545454545
 40
0.4545454545454545
 40
0.4545454545454545
 40
0.4545454545454545
 40
0.5454545454545454
 40
0.5454545454545454
 40
0.5454545454545454
 40
0.5454545454545454
 40
0.6363636363636364
 40
0.6363636363636364
 40
0.6363636363636364
 40
0.6363636363636364
 40
0.7272727272727273
 40
0.7272727272727273
 40
0.7272727272727273
 40
0.7272727272727273
 40
0.8181818181818182
 40
0.8181818181818182
 40
0.8181818181818182
 40
0.8181818181818182
 40
1.0
 40
1.0
 40
1.0
 40
1.0
 10
-81.9541
 20
11.2143
 30
0.0
 10
-81.9541
 20
11.2143
 30
0.0
 10
-81.9335
 20
-18.3341
 30
0.0
 10
-81.9335
 20
-18.3341
 30
0.0
 10
-81.9335
 20
-18.3341
 30
0.0
 10
-81.9335
 20
-18.3341
 30
0.0
 10
-85.2548
 20
-18.3341
 30
0.0
 10
-85.2548
 20
-18.3341
 30
0.0
 10
-85.2548
 20
-18.3341
 30
0.0
 10
-85.2548
 20
-18.3341
 30
0.0
 10
-85.2548
 20
-10.4672
 30
0.0
 10
-85.2548
 20
-10.4672
 30
0.0
 10
-85.2548
 20
-10.4672
 30
0.0
 10
-85.2548
 20
-7.5845
 30
0.0
 10
-87.5756
 20
-5.2638
 30
0.0
 10
-90.4583
 20
-5.2638
 30
0.0
 10
-90.4583
 20
-5.2638
 30
0.0
 10
-90.4583
 20
-5.2638
 30
0.0
 10
-98.4421
 20
-5.2638
 30
0.0
 10
-98.4421
 20
-5.2638
 30
0.0
 10
-98.4421
 20
-5.2638
 30
0.0
 10
-98.4421
 20
-5.2638
 30
0.0
 10
-98.4421
 20
-2.1759
 30
0.0
 10
-98.4421
 20
-2.1759
 30
0.0
 10
-98.4421
 20
-2.1759
 30
0.0
 10
-98.4421
 20
-2.1759
 30
0.0
 10
-90.4583
 20
-2.1759
 30
0.0
 10
-90.4583
 20
-2.1759
 30
0.0
 10
-90.4583
 20
-2.1759
 30
0.0
 10
-87.5756
 20
-2.1759
 30
0.0
 10
-85.2548
 20
0.1449
 30
0.0
 10
-85.2548
 20
3.0275
 30
0.0
 10
-85.2548
 20
3.0275
 30
0.0
 10
-85.2548
 20
3.0275
 30
0.0
 10
-85.2548
 20
11.2762
 30
0.0
 10
-85.2548
 20
11.2762
 30
0.0
 10
-85.2548
 20
11.2762
 30
0.0
 10
-85.2548
 20
11.2762
 30
0.0
 10
-81.9541
 20
11.2143
 30
0.0
 10
-81.9541
 20
11.2143
 30
0.0
  0
SPLINE
  5
4F
330
1F
100
AcDbEntity
  8
layer 1
 62
     7
100
AcDbSpline
210
0.0
220
0.0
230
1.0
 70
    11
 71
     3
 72
    68
 73
    64
 74
     0
 42
0.0000000001
 43
0.0000000001
 12
1.0
 22
0.0
 32
0.0
 13
1.0
 23
0.0
 33
0.0
 40
0.0
 40
0.0
 40
0.0
 40
0.0
 40
0.0588235294117647
 40
0.0588235294117647
 40
0.0588235294117647
 40
0.0588235294117647
 40
0.1176470588235294
 40
0.1176470588235294
 40
0.1176470588235294
 40
0.1176470588235294
 40
0.1764705882352941
 40
0.1764705882352941
 40
0.1764705882352941
 40
0.1764705882352941
 40
0.2352941176470588
 40
0.2352941176470588
 40
0.2352941176470588
 40
0.2352941176470588
 40
0.2941176470588235
 40
0.2941176470588235
 40
0.2941176470588235
 40
0.2941176470588235
 40
0.3529411764705883
 40
0.3529411764705883
 40
0.3529411764705883
 40
0.3529411764705883
 40
0.4117647058823529
 40
0.4117647058823529
 40
0.4117647058823529
 40
0.4117647058823529
 40
0.4705882352941176
 40
0.4705882352941176
 40
0.4705882352941176
 40
0.4705882352941176
 40
0.5294117647058824
 40
0.5294117647058824
 40
0.5294117647058824
 40
0.5294117647058824
 40
0.5882352941176471
 40
0.5882352941176471
 40
0.5882352941176471
 40
0.5882352941176471
 40
0.6470588235294118
 40
0.6470588235294118
 40
0.6470588235294118
 40
0.6470588235294118
 40
0.7058823529411765
 40
0.7058823529411765
 40
0.7058823529411765
 40
0.7058823529411765
 40
0.7647058823529411
 40
0.7647058823529411
 40
0.7647058823529411
 40
0.7647058823529411
 40
0.8235294117647058
 40
0.8235294117647058
 40
0.8235294117647058
 40
0.8235294117647058
 40
0.8823529411764706
 40
0.8823529411764706
 40
0.8823529411764706
 40
0.8823529411764706
 40
1.0
 40
1.0
 40
1.0
 40
1.0
 10
-101.4067
 20
-2.176
 30
0.0
 10
-101.4067
 20
-2.176
 30
0.0
 10
-109.3906
 20
-2.176
 30
0.0
 10
-109.3906
 20
-2.176
 30
0.0
 10
-109.3906
 20
-2.176
 30
0.0
 10
-112.2733
 20
-2.176
 30
0.0
 10
-114.5941
 20
0.1448
 30
0.0
 10
-114.5941
 20
3.0275
 30
0.0
 10
-114.5941
 20
3.0275
 30
0.0
 10
-114.5941
 20
3.0275
 30
0.0
 10
-114.6277
 20
11.3097
 30
0.0
 10
-114.6277
 20
11.3097
 30
0.0
 10
-114.6277
 20
11.3097
 30
0.0
 10
-114.6277
 20
11.3097
 30
0.0
 10
-117.8081
 20
11.3039
 30
0.0
 10
-117.8081
 20
11.3039
 30
0.0
 10
-117.8081
 20
11.3039
 30
0.0
 10
-117.8081
 20
11.3039
 30
0.0
 10
-117.8081
 20
3.0275
 30
0.0
 10
-117.8081
 20
3.0275
 30
0.0
 10
-117.8081
 20
3.0275
 30
0.0
 10
-117.8081
 20
0.1449
 30
0.0
 10
-120.1288
 20
-2.1759
 30
0.0
 10
-123.0115
 20
-2.1759
 30
0.0
 10
-123.0115
 20
-2.1759
 30
0.0
 10
-123.0115
 20
-2.1759
 30
0.0
 10
-130.8843
 20
-2.1759
 30
0.0
 10
-130.8843
 20
-2.1759
 30
0.0
 10
-130.8843
 20
-2.1759
 30
0.0
 10
-130.8843
 20
-2.1759
 30
0.0
 10
-130.8745
 20
-5.2638
 30
0.0
 10
-130.8745
 20
-5.2638
 30
0.0
 10
-130.8745
 20
-5.2638
 30
0.0
 10
-130.8745
 20
-5.2638
 30
0.0
 10
-123.0115
 20
-5.2638
 30
0.0
 10
-123.0115
 20
-5.2638
 30
0.0
 10
-123.0115
 20
-5.2638
 30
0.0
 10
-120.1288
 20
-5.2638
 30
0.0
 10
-117.8081
 20
-7.5845
 30
0.0
 10
-117.8081
 20
-10.4672
 30
0.0
 10
-117.8081
 20
-10.4672
 30
0.0
 10
-117.8081
 20
-10.4672
 30
0.0
 10
-117.8081
 20
-18.3351
 30
0.0
 10
-117.8081
 20
-18.3351
 30
0.0
 10
-117.8081
 20
-18.3351
 30
0.0
 10
-117.8081
 20
-18.3351
 30
0.0
 10
-114.5941
 20
-18.3341
 30
0.0
 10
-114.5941
 20
-18.3341
 30
0.0
 10
-114.5941
 20
-18.3341
 30
0.0
 10
-114.5941
 20
-18.3341
 30
0.0
 10
-114.5941
 20
-10.4673
 30
0.0
 10
-114.5941
 20
-10.4673
 30
0.0
 10
-114.5941
 20
-10.4673
 30
0.0
 10
-114.5941
 20
-7.5846
 30
0.0
 10
-112.2733
 20
-5.2639
 30
0.0
 10
-109.3906
 20
-5.2639
 30
0.0
 10
-109.3906
 20
-5.2639
 30
0.0
 10
-109.3906
 20
-5.2639
 30
0.0
 10
-101.4067
 20
-5.2639
 30
0.0
 10
-101.4067
 20
-5.2639
 30
0.0
 10
-101.4067
 20
-5.2639
 30
0.0
 10
-101.4067
 20
-5.2639
 30
0.0
 10
-101.4067
 20
-2.176
 30
0.0
 10
-101.4067
 20
-2.176
 30
0.0
  0
SPLINE
  5
50
330
1F
100
AcDbEntity
  8
layer 1
 62
     7
100
AcDbSpline
210
0.0
220
0.0
230
1.0
 70
    11
 71
     3
 72
    44
 73
    40
 74
     0
 42
0.0000000001
 43
0.0000000001
 12
1.0
 22
0.0
 32
0.0
 13
1.0
 23
0.0
 33
0.0
 40
0.0
 40
0.0
 40
0.0
 40
0.0
 40
0.0909090909090909
 40
0.0909090909090909
 40
0.0909090909090909
 40
0.0909090909090909
 40
0.1818181818181818
 40
0.1818181818181818
 40
0.1818181818181818
 40
0.1818181818181818
 40
0.2727272727272727
 40
0.2727272727272727
 40
0.2727272727272727
 40
0.2727272727272727
 40
0.3636363636363636
 40
0.3636363636363636
 40
0.3636363636363636
 40
0.3636363636363636
 40
0.4545454545454545
 40
0.4545454545454545
 40
0.4545454545454545
 40
0.4545454545454545
 40
0.5454545454545454
 40
0.5454545454545454
 40
0.5454545454545454
 40
0.5454545454545454
 40
0.6363636363636364
 40
0.6363636363636364
 40
0.6363636363636364
 40
0.6363636363636364
 40
0.7272727272727273
 40
0.7272727272727273
 40
0.7272727272727273
 40
0.7272727272727273
 40
0.8181818181818182
 40
0.8181818181818182
 40
0.8181818181818182
 40
0.8181818181818182
 40
1.0
 40
1.0
 40
1.0
 40
1.0
 10
-183.1206
 20
11.2143
 30
0.0
 10
-183.1206
 20
11.2143
 30
0.0
 10
-183.1412
 20
-18.3341
 30
0.0
 10
-183.1412
 20
-18.3341
 30
0.0
 10
-183.1412
 20
-18.3341
 30
0.0
 10
-183.1412
 20
-18.3341
 30
0.0
 10
-179.8199
 20
-18.3341
 30
0.0
 10
-179.8199
 20
-18.3341
 30
0.0
 10
-179.8199
 20
-18.3341
 30
0.0
 10
-179.8199
 20
-18.3341
 30
0.0
 10
-179.8199
 20
-10.4672
 30
0.0
 10
-179.8199
 20
-10.4672
 30
0.0
 10
-179.8199
 20
-10.4672
 30
0.0
 10
-179.8199
 20
-7.5845
 30
0.0
 10
-177.4991
 20
-5.2638
 30
0.0
 10
-174.6164
 20
-5.2638
 30
0.0
 10
-174.6164
 20
-5.2638
 30
0.0
 10
-174.6164
 20
-5.2638
 30
0.0
 10
-166.6325
 20
-5.2638
 30
0.0
 10
-166.6325
 20
-5.2638
 30
0.0
 10
-166.6325
 20
-5.2638
 30
0.0
 10
-166.6325
 20
-5.2638
 30
0.0
 10
-166.6325
 20
-2.1759
 30
0.0
 10
-166.6325
 20
-2.1759
 30
0.0
 10
-166.6325
 20
-2.1759
 30
0.0
 10
-166.6325
 20
-2.1759
 30
0.0
 10
-174.6164
 20
-2.1759
 30
0.0
 10
-174.6164
 20
-2.1759
 30
0.0
 10
-174.6164
 20
-2.1759
 30
0.0
 10
-177.4991
 20
-2.1759
 30
0.0
 10
-179.8199
 20
0.1449
 30
0.0
 10
-179.8199
 20
3.0275
 30
0.0
 10
-179.8199
 20
3.0275
 30
0.0
 10
-179.8199
 20
3.0275
 30
0.0
 10
-179.8199
 20
11.2762
 30
0.0
 10
-179.8199
 20
11.2762
 30
0.0
 10
-179.8199
 20
11.2762
 30
0.0
 10
-179.8199
 20
11.2762
 30
0.0
 10
-183.1206
 20
11.2143
 30
0.0
 10
-183.1206
 20
11.2143
 30
0.0
  0
SPLINE
  5
51
330
1F
100
AcDbEntity
  8
layer 1
 62
     7
100
AcDbSpline
210
0.0
220
0.0
230
1.0
 70
    11
 71
     3
 72
    68
 73
    64
 74
     0
 42
0.0000000001
 43
0.0000000001
 12
1.0
 22
0.0
 32
0.0
 13
1.0
 23
0.0
 33
0.0
 40
0.0
 40
0.0
 40
0.0
 40
0.0
 40
0.0588235294117647
 40
0.0588235294117647
 40
0.0588235294117647
 40
0.0588235294117647
 40
0.1176470588235294
 40
0.1176470588235294
 40
0.1176470588235294
 40
0.1176470588235294
 40
0.1764705882352941
 40
0.1764705882352941
 40
0.1764705882352941
 40
0.1764705882352941
 40
0.2352941176470588
 40
0.2352941176470588
 40
0.2352941176470588
 40
0.2352941176470588
 40
0.2941176470588235
 40
0.2941176470588235
 40
0.2941176470588235
 40
0.2941176470588235
 40
0.3529411764705883
 40
0.3529411764705883
 40
0.3529411764705883
 40
0.3529411764705883
 40
0.4117647058823529
 40
0.4117647058823529
 40
0.4117647058823529
 40
0.4117647058823529
 40
0.4705882352941176
 40
0.4705882352941176
 40
0.4705882352941176
 40
0.4705882352941176
 40
0.5294117647058824
 40
0.5294117647058824
 40
0.5294117647058824
 40
0.5294117647058824
 40
0.5882352941176471
 40
0.5882352941176471
 40
0.5882352941176471
 40
0.5882352941176471
 40
0.6470588235294118
 40
0.6470588235294118
 40
0.6470588235294118
 40
0.6470588235294118
 40
0.7058823529411765
 40
0.7058823529411765
 40
0.7058823529411765
 40
0.7058823529411765
 40
0.7647058823529411
 40
0.7647058823529411
 40
0.7647058823529411
 40
0.7647058823529411
 40
0.8235294117647058
 40
0.8235294117647058
 40
0.8235294117647058
 40
0.8235294117647058
 40
0.8823529411764706
 40
0.8823529411764706
 40
0.8823529411764706
 40
0.8823529411764706
 40
1.0
 40
1.0
 40
1.0
 40
1.0
 10
-134.0564
 20
-2.176
 30
0.0
 10
-134.0564
 20
-2.176
 30
0.0
 10
-142.0403
 20
-2.176
 30
0.0
 10
-142.0403
 20
-2.176
 30
0.0
 10
-142.0403
 20
-2.176
 30
0.0
 10
-144.923
 20
-2.176
 30
0.0
 10
-147.2437
 20
0.1448
 30
0.0
 10
-147.2437
 20
3.0275
 30
0.0
 10
-147.2437
 20
3.0275
 30
0.0
 10
-147.2437
 20
3.0275
 30
0.0
 10
-147.2773
 20
11.3097
 30
0.0
 10
-147.2773
 20
11.3097
 30
0.0
 10
-147.2773
 20
11.3097
 30
0.0
 10
-147.2773
 20
11.3097
 30
0.0
 10
-150.4577
 20
11.3039
 30
0.0
 10
-150.4577
 20
11.3039
 30
0.0
 10
-150.4577
 20
11.3039
 30
0.0
 10
-150.4577
 20
11.3039
 30
0.0
 10
-150.4577
 20
3.0275
 30
0.0
 10
-150.4577
 20
3.0275
 30
0.0
 10
-150.4577
 20
3.0275
 30
0.0
 10
-150.4577
 20
0.1449
 30
0.0
 10
-152.7785
 20
-2.1759
 30
0.0
 10
-155.6611
 20
-2.1759
 30
0.0
 10
-155.6611
 20
-2.1759
 30
0.0
 10
-155.6611
 20
-2.1759
 30
0.0
 10
-163.5339
 20
-2.1759
 30
0.0
 10
-163.5339
 20
-2.1759
 30
0.0
 10
-163.5339
 20
-2.1759
 30
0.0
 10
-163.5339
 20
-2.1759
 30
0.0
 10
-163.5242
 20
-5.2638
 30
0.0
 10
-163.5242
 20
-5.2638
 30
0.0
 10
-163.5242
 20
-5.2638
 30
0.0
 10
-163.5242
 20
-5.2638
 30
0.0
 10
-155.6611
 20
-5.2638
 30
0.0
 10
-155.6611
 20
-5.2638
 30
0.0
 10
-155.6611
 20
-5.2638
 30
0.0
 10
-152.7785
 20
-5.2638
 30
0.0
 10
-150.4577
 20
-7.5845
 30
0.0
 10
-150.4577
 20
-10.4672
 30
0.0
 10
-150.4577
 20
-10.4672
 30
0.0
 10
-150.4577
 20
-10.4672
 30
0.0
 10
-150.4577
 20
-18.3351
 30
0.0
 10
-150.4577
 20
-18.3351
 30
0.0
 10
-150.4577
 20
-18.3351
 30
0.0
 10
-150.4577
 20
-18.3351
 30
0.0
 10
-147.2437
 20
-18.3341
 30
0.0
 10
-147.2437
 20
-18.3341
 30
0.0
 10
-147.2437
 20
-18.3341
 30
0.0
 10
-147.2437
 20
-18.3341
 30
0.0
 10
-147.2437
 20
-10.4673
 30
0.0
 10
-147.2437
 20
-10.4673
 30
0.0
 10
-147.2437
 20
-10.4673
 30
0.0
 10
-147.2437
 20
-7.5846
 30
0.0
 10
-144.923
 20
-5.2639
 30
0.0
 10
-142.0403
 20
-5.2639
 30
0.0
 10
-142.0403
 20
-5.2639
 30
0.0
 10
-142.0403
 20
-5.2639
 30
0.0
 10
-134.0564
 20
-5.2639
 30
0.0
 10
-134.0564
 20
-5.2639
 30
0.0
 10
-134.0564
 20
-5.2639
 30
0.0
 10
-134.0564
 20
-5.2639
 30
0.0
 10
-134.0564
 20
-2.176
 30
0.0
 10
-134.0564
 20
-2.176
 30
0.0
  0
SPLINE
  5
52
330
1F
100
AcDbEntity
  8
layer 1
 62
     7
100
AcDbSpline
210
0.0
220
0.0
230
1.0
 70
    11
 71
     3
 72
    44
 73
    40
 74
     0
 42
0.0000000001
 43
0.0000000001
 12
1.0
 22
0.0
 32
0.0
 13
1.0
 23
0.0
 33
0.0
 40
0.0
 40
0.0
 40
0.0
 40
0.0
 40
0.0909090909090909
 40
0.0909090909090909
 40
0.0909090909090909
 40
0.0909090909090909
 40
0.1818181818181818
 40
0.1818181818181818
 40
0.1818181818181818
 40
0.1818181818181818
 40
0.2727272727272727
 40
0.2727272727272727
 40
0.2727272727272727
 40
0.2727272727272727
 40
0.3636363636363636
 40
0.3636363636363636
 40
0.3636363636363636
 40
0.3636363636363636
 40
0.4545454545454545
 40
0.4545454545454545
 40
0.4545454545454545
 40
0.4545454545454545
 40
0.5454545454545454
 40
0.5454545454545454
 40
0.5454545454545454
 40
0.5454545454545454
 40
0.6363636363636364
 40
0.6363636363636364
 40
0.6363636363636364
 40
0.6363636363636364
 40
0.7272727272727273
 40
0.7272727272727273
 40
0.7272727272727273
 40
0.7272727272727273
 40
0.8181818181818182
 40
0.8181818181818182
 40
0.8181818181818182
 40
0.8181818181818182
 40
1.0
 40
1.0
 40
1.0
 40
1.0
 10
-81.9541
 20
43.6389
 30
0.0
 10
-81.9541
 20
43.6389
 30
0.0
 10
-81.9335
 20
14.0906
 30
0.0
 10
-81.9335
 20
14.0906
 30
0.0
 10
-81.9335
 20
14.0906
 30
0.0
 10
-81.9335
 20
14.0906
 30
0.0
 10
-85.2548
 20
14.0906
 30
0.0
 10
-85.2548
 20
14.0906
 30
0.0
 10
-85.2548
 20
14.0906
 30
0.0
 10
-85.2548
 20
14.0906
 30
0.0
 10
-85.2548
 20
21.9575
 30
0.0
 10
-85.2548
 20
21.9575
 30
0.0
 10
-85.2548
 20
21.9575
 30
0.0
 10
-85.2548
 20
24.8401
 30
0.0
 10
-87.5756
 20
27.1609
 30
0.0
 10
-90.4583
 20
27.1609
 30
0.0
 10
-90.4583
 20
27.1609
 30
0.0
 10
-90.4583
 20
27.1609
 30
0.0
 10
-98.4421
 20
27.1609
 30
0.0
 10
-98.4421
 20
27.1609
 30
0.0
 10
-98.4421
 20
27.1609
 30
0.0
 10
-98.4421
 20
27.1609
 30
0.0
 10
-98.4421
 20
30.2488
 30
0.0
 10
-98.4421
 20
30.2488
 30
0.0
 10
-98.4421
 20
30.2488
 30
0.0
 10
-98.4421
 20
30.2488
 30
0.0
 10
-90.4583
 20
30.2488
 30
0.0
 10
-90.4583
 20
30.2488
 30
0.0
 10
-90.4583
 20
30.2488
 30
0.0
 10
-87.5756
 20
30.2488
 30
0.0
 10
-85.2548
 20
32.5695
 30
0.0
 10
-85.2548
 20
35.4522
 30
0.0
 10
-85.2548
 20
35.4522
 30
0.0
 10
-85.2548
 20
35.4522
 30
0.0
 10
-85.2548
 20
43.7008
 30
0.0
 10
-85.2548
 20
43.7008
 30
0.0
 10
-85.2548
 20
43.7008
 30
0.0
 10
-85.2548
 20
43.7008
 30
0.0
 10
-81.9541
 20
43.6389
 30
0.0
 10
-81.9541
 20
43.6389
 30
0.0
  0
SPLINE
  5
53
330
1F
100
AcDbEntity
  8
layer 1
 62
     7
100
AcDbSpline
210
0.0
220
0.0
230
1.0
 70
    11
 71
     3
 72
    68
 73
    64
 74
     0
 42
0.0000000001
 43
0.0000000001
 12
1.0
 22
0.0
 32
0.0
 13
1.0
 23
0.0
 33
0.0
 40
0.0
 40
0.0
 40
0.0
 40
0.0
 40
0.0588235294117647
 40
0.0588235294117647
 40
0.0588235294117647
 40
0.0588235294117647
 40
0.1176470588235294
 40
0.1176470588235294
 40
0.1176470588235294
 40
0.1176470588235294
 40
0.1764705882352941
 40
0.1764705882352941
 40
0.1764705882352941
 40
0.1764705882352941
 40
0.2352941176470588
 40
0.2352941176470588
 40
0.2352941176470588
 40
0.2352941176470588
 40
0.2941176470588235
 40
0.2941176470588235
 40
0.2941176470588235
 40
0.2941176470588235
 40
0.3529411764705883
 40
0.3529411764705883
 40
0.3529411764705883
 40
0.3529411764705883
 40
0.4117647058823529
 40
0.4117647058823529
 40
0.4117647058823529
 40
0.4117647058823529
 40
0.4705882352941176
 40
0.4705882352941176
 40
0.4705882352941176
 40
0.4705882352941176
 40
0.5294117647058824
 40
0.5294117647058824
 40
0.5294117647058824
 40
0.5294117647058824
 40
0.5882352941176471
 40
0.5882352941176471
 40
0.5882352941176471
 40
0.5882352941176471
 40
0.6470588235294118
 40
0.6470588235294118
 40
0.6470588235294118
 40
0.6470588235294118
 40
0.7058823529411765
 40
0.7058823529411765
 40
0.7058823529411765
 40
0.7058823529411765
 40
0.7647058823529411
 40
0.7647058823529411
 40
0.7647058823529411
 40
0.7647058823529411
 40
0.8235294117647058
 40
0.8235294117647058
 40
0.8235294117647058
 40
0.8235294117647058
 40
0.8823529411764706
 40
0.8823529411764706
 40
0.8823529411764706
 40
0.8823529411764706
 40
1.0
 40
1.0
 40
1.0
 40
1.0
 10
-101.4067
 20
30.2488
 30
0.0
 10
-101.4067
 20
30.2488
 30
0.0
 10
-109.3906
 20
30.2488
 30
0.0
 10
-109.3906
 20
30.2488
 30
0.0
 10
-109.3906
 20
30.2488
 30
0.0
 10
-112.2733
 20
30.2488
 30
0.0
 10
-114.5941
 20
32.5695
 30
0.0
 10
-114.5941
 20
35.4522
 30
0.0
 10
-114.5941
 20
35.4522
 30
0.0
 10
-114.5941
 20
35.4522
 30
0.0
 10
-114.6277
 20
43.7344
 30
0.0
 10
-114.6277
 20
43.7344
 30
0.0
 10
-114.6277
 20
43.7344
 30
0.0
 10
-114.6277
 20
43.7344
 30
0.0
 10
-117.8081
 20
43.7286
 30
0.0
 10
-117.8081
 20
43.7286
 30
0.0
 10
-117.8081
 20
43.7286
 30
0.0
 10
-117.8081
 20
43.7286
 30
0.0
 10
-117.8081
 20
35.4523
 30
0.0
 10
-117.8081
 20
35.4523
 30
0.0
 10
-117.8081
 20
35.4523
 30
0.0
 10
-117.8081
 20
32.5696
 30
0.0
 10
-120.1288
 20
30.2489
 30
0.0
 10
-123.0115
 20
30.2489
 30
0.0
 10
-123.0115
 20
30.2489
 30
0.0
 10
-123.0115
 20
30.2489
 30
0.0
 10
-130.8843
 20
30.2489
 30
0.0
 10
-130.8843
 20
30.2489
 30
0.0
 10
-130.8843
 20
30.2489
 30
0.0
 10
-130.8843
 20
30.2489
 30
0.0
 10
-130.8745
 20
27.161
 30
0.0
 10
-130.8745
 20
27.161
 30
0.0
 10
-130.8745
 20
27.161
 30
0.0
 10
-130.8745
 20
27.161
 30
0.0
 10
-123.0115
 20
27.161
 30
0.0
 10
-123.0115
 20
27.161
 30
0.0
 10
-123.0115
 20
27.161
 30
0.0
 10
-120.1288
 20
27.161
 30
0.0
 10
-117.8081
 20
24.8402
 30
0.0
 10
-117.8081
 20
21.9575
 30
0.0
 10
-117.8081
 20
21.9575
 30
0.0
 10
-117.8081
 20
21.9575
 30
0.0
 10
-117.8081
 20
14.0897
 30
0.0
 10
-117.8081
 20
14.0897
 30
0.0
 10
-117.8081
 20
14.0897
 30
0.0
 10
-117.8081
 20
14.0897
 30
0.0
 10
-114.5941
 20
14.0906
 30
0.0
 10
-114.5941
 20
14.0906
 30
0.0
 10
-114.5941
 20
14.0906
 30
0.0
 10
-114.5941
 20
14.0906
 30
0.0
 10
-114.5941
 20
21.9575
 30
0.0
 10
-114.5941
 20
21.9575
 30
0.0
 10
-114.5941
 20
21.9575
 30
0.0
 10
-114.5941
 20
24.8401
 30
0.0
 10
-112.2733
 20
27.1609
 30
0.0
 10
-109.3906
 20
27.1609
 30
0.0
 10
-109.3906
 20
27.1609
 30
0.0
 10
-109.3906
 20
27.1609
 30
0.0
 10
-101.4067
 20
27.1609
 30
0.0
 10
-101.4067
 20
27.1609
 30
0.0
 10
-101.4067
 20
27.1609
 30
0.0
 10
-101.4067
 20
27.1609
 30
0.0
 10
-101.4067
 20
30.2488
 30
0.0
 10
-101.4067
 20
30.2488
 30
0.0
  0
SPLINE
  5
54
330
1F
100
AcDbEntity
  8
layer 1
 62
     7
100
AcDbSpline
210
0.0
220
0.0
230
1.0
 70
    11
 71
     3
 72
    44
 73
    40
 74
     0
 42
0.0000000001
 43
0.0000000001
 12
1.0
 22
0.0
 32
0.0
 13
1.0
 23
0.0
 33
0.0
 40
0.0
 40
0.0
 40
0.0
 40
0.0
 40
0.0909090909090909
 40
0.0909090909090909
 40
0.0909090909090909
 40
0.0909090909090909
 40
0.1818181818181818
 40
0.1818181818181818
 40
0.1818181818181818
 40
0.1818181818181818
 40
0.2727272727272727
 40
0.2727272727272727
 40
0.2727272727272727
 40
0.2727272727272727
 40
0.3636363636363636
 40
0.3636363636363636
 40
0.3636363636363636
 40
0.3636363636363636
 40
0.4545454545454545
 40
0.4545454545454545
 40
0.4545454545454545
 40
0.4545454545454545
 40
0.5454545454545454
 40
0.5454545454545454
 40
0.5454545454545454
 40
0.5454545454545454
 40
0.6363636363636364
 40
0.6363636363636364
 40
0.6363636363636364
 40
0.6363636363636364
 40
0.7272727272727273
 40
0.7272727272727273
 40
0.7272727272727273
 40
0.7272727272727273
 40
0.8181818181818182
 40
0.8181818181818182
 40
0.8181818181818182
 40
0.8181818181818182
 40
1.0
 40
1.0
 40
1.0
 40
1.0
 10
-183.1206
 20
43.6389
 30
0.0
 10
-183.1206
 20
43.6389
 30
0.0
 10
-183.1412
 20
14.0906
 30
0.0
 10
-183.1412
 20
14.0906
 30
0.0
 10
-183.1412
 20
14.0906
 30
0.0
 10
-183.1412
 20
14.0906
 30
0.0
 10
-179.8199
 20
14.0906
 30
0.0
 10
-179.8199
 20
14.0906
 30
0.0
 10
-179.8199
 20
14.0906
 30
0.0
 10
-179.8199
 20
14.0906
 30
0.0
 10
-179.8199
 20
21.9575
 30
0.0
 10
-179.8199
 20
21.9575
 30
0.0
 10
-179.8199
 20
21.9575
 30
0.0
 10
-179.8199
 20
24.8401
 30
0.0
 10
-177.4991
 20
27.1609
 30
0.0
 10
-174.6164
 20
27.1609
 30
0.0
 10
-174.6164
 20
27.1609
 30
0.0
 10
-174.6164
 20
27.1609
 30
0.0
 10
-166.6325
 20
27.1609
 30
0.0
 10
-166.6325
 20
27.1609
 30
0.0
 10
-166.6325
 20
27.1609
 30
0.0
 10
-166.6325
 20
27.1609
 30
0.0
 10
-166.6325
 20
30.2488
 30
0.0
 10
-166.6325
 20
30.2488
 30
0.0
 10
-166.6325
 20
30.2488
 30
0.0
 10
-166.6325
 20
30.2488
 30
0.0
 10
-174.6164
 20
30.2488
 30
0.0
 10
-174.6164
 20
30.2488
 30
0.0
 10
-174.6164
 20
30.2488
 30
0.0
 10
-177.4991
 20
30.2488
 30
0.0
 10
-179.8199
 20
32.5695
 30
0.0
 10
-179.8199
 20
35.4522
 30
0.0
 10
-179.8199
 20
35.4522
 30
0.0
 10
-179.8199
 20
35.4522
 30
0.0
 10
-179.8199
 20
43.7008
 30
0.0
 10
-179.8199
 20
43.7008
 30
0.0
 10
-179.8199
 20
43.7008
 30
0.0
 10
-179.8199
 20
43.7008
 30
0.0
 10
-183.1206
 20
43.6389
 30
0.0
 10
-183.1206
 20
43.6389
 30
0.0
  0
SPLINE
  5
55
330
1F
100
AcDbEntity
  8
layer 1
 62
     7
100
AcDbSpline
210
0.0
220
0.0
230
1.0
 70
    11
 71
     3
 72
    68
 73
    64
 74
     0
 42
0.0000000001
 43
0.0000000001
 12
1.0
 22
0.0
 32
0.0
 13
1.0
 23
0.0
 33
0.0
 40
0.0
 40
0.0
 40
0.0
 40
0.0
 40
0.0588235294117647
 40
0.0588235294117647
 40
0.0588235294117647
 40
0.0588235294117647
 40
0.1176470588235294
 40
0.1176470588235294
 40
0.1176470588235294
 40
0.1176470588235294
 40
0.1764705882352941
 40
0.1764705882352941
 40
0.1764705882352941
 40
0.1764705882352941
 40
0.2352941176470588
 40
0.2352941176470588
 40
0.2352941176470588
 40
0.2352941176470588
 40
0.2941176470588235
 40
0.2941176470588235
 40
0.2941176470588235
 40
0.2941176470588235
 40
0.3529411764705883
 40
0.3529411764705883
 40
0.3529411764705883
 40
0.3529411764705883
 40
0.4117647058823529
 40
0.4117647058823529
 40
0.4117647058823529
 40
0.4117647058823529
 40
0.4705882352941176
 40
0.4705882352941176
 40
0.4705882352941176
 40
0.4705882352941176
 40
0.5294117647058824
 40
0.5294117647058824
 40
0.5294117647058824
 40
0.5294117647058824
 40
0.5882352941176471
 40
0.5882352941176471
 40
0.5882352941176471
 40
0.5882352941176471
 40
0.6470588235294118
 40
0.6470588235294118
 40
0.6470588235294118
 40
0.6470588235294118
 40
0.7058823529411765
 40
0.7058823529411765
 40
0.7058823529411765
 40
0.7058823529411765
 40
0.7647058823529411
 40
0.7647058823529411
 40
0.7647058823529411
 40
0.7647058823529411
 40
0.8235294117647058
 40
0.8235294117647058
 40
0.8235294117647058
 40
0.8235294117647058
 40
0.8823529411764706
 40
0.8823529411764706
 40
0.8823529411764706
 40
0.8823529411764706
 40
1.0
 40
1.0
 40
1.0
 40
1.0
 10
-134.0564
 20
30.2488
 30
0.0
 10
-134.0564
 20
30.2488
 30
0.0
 10
-142.0403
 20
30.2488
 30
0.0
 10
-142.0403
 20
30.2488
 30
0.0
 10
-142.0403
 20
30.2488
 30
0.0
 10
-144.923
 20
30.2488
 30
0.0
 10
-147.2437
 20
32.5695
 30
0.0
 10
-147.2437
 20
35.4522
 30
0.0
 10
-147.2437
 20
35.4522
 30
0.0
 10
-147.2437
 20
35.4522
 30
0.0
 10
-147.2773
 20
43.7344
 30
0.0
 10
-147.2773
 20
43.7344
 30
0.0
 10
-147.2773
 20
43.7344
 30
0.0
 10
-147.2773
 20
43.7344
 30
0.0
 10
-150.4577
 20
43.7286
 30
0.0
 10
-150.4577
 20
43.7286
 30
0.0
 10
-150.4577
 20
43.7286
 30
0.0
 10
-150.4577
 20
43.7286
 30
0.0
 10
-150.4577
 20
35.4523
 30
0.0
 10
-150.4577
 20
35.4523
 30
0.0
 10
-150.4577
 20
35.4523
 30
0.0
 10
-150.4577
 20
32.5696
 30
0.0
 10
-152.7785
 20
30.2489
 30
0.0
 10
-155.6611
 20
30.2489
 30
0.0
 10
-155.6611
 20
30.2489
 30
0.0
 10
-155.6611
 20
30.2489
 30
0.0
 10
-163.5339
 20
30.2489
 30
0.0
 10
-163.5339
 20
30.2489
 30
0.0
 10
-163.5339
 20
30.2489
 30
0.0
 10
-163.5339
 20
30.2489
 30
0.0
 10
-163.5242
 20
27.161
 30
0.0
 10
-163.5242
 20
27.161
 30
0.0
 10
-163.5242
 20
27.161
 30
0.0
 10
-163.5242
 20
27.161
 30
0.0
 10
-155.6611
 20
27.161
 30
0.0
 10
-155.6611
 20
27.161
 30
0.0
 10
-155.6611
 20
27.161
 30
0.0
 10
-152.7785
 20
27.161
 30
0.0
 10
-150.4577
 20
24.8402
 30
0.0
 10
-150.4577
 20
21.9575
 30
0.0
 10
-150.4577
 20
21.9575
 30
0.0
 10
-150.4577
 20
21.9575
 30
0.0
 10
-150.4577
 20
14.0897
 30
0.0
 10
-150.4577
 20
14.0897
 30
0.0
 10
-150.4577
 20
14.0897
 30
0.0
 10
-150.4577
 20
14.0897
 30
0.0
 10
-147.2437
 20
14.0906
 30
0.0
 10
-147.2437
 20
14.0906
 30
0.0
 10
-147.2437
 20
14.0906
 30
0.0
 10
-147.2437
 20
14.0906
 30
0.0
 10
-147.2437
 20
21.9575
 30
0.0
 10
-147.2437
 20
21.9575
 30
0.0
 10
-147.2437
 20
21.9575
 30
0.0
 10
-147.2437
 20
24.8401
 30
0.0
 10
-144.923
 20
27.1609
 30
0.0
 10
-142.0403
 20
27.1609
 30
0.0
 10
-142.0403
 20
27.1609
 30
0.0
 10
-142.0403
 20
27.1609
 30
0.0
 10
-134.0564
 20
27.1609
 30
0.0
 10
-134.0564
 20
27.1609
 30
0.0
 10
-134.0564
 20
27.1609
 30
0.0
 10
-134.0564
 20
27.1609
 30
0.0
 10
-134.0564
 20
30.2488
 30
0.0
 10
-134.0564
 20
30.2488
 30
0.0
  0
SPLINE
  5
56
330
1F
100
AcDbEntity
  8
layer 1
 62
     7
100
AcDbSpline
210
0.0
220
0.0
230
1.0
 70
    11
 71
     3
 72
    44
 73
    40
 74
     0
 42
0.0000000001
 43
0.0000000001
 12
1.0
 22
0.0
 32
0.0
 13
1.0
 23
0.0
 33
0.0
 40
0.0
 40
0.0
 40
0.0
 40
0.0
 40
0.0909090909090909
 40
0.0909090909090909
 40
0.0909090909090909
 40
0.0909090909090909
 40
0.1818181818181818
 40
0.1818181818181818
 40
0.1818181818181818
 40
0.1818181818181818
 40
0.2727272727272727
 40
0.2727272727272727
 40
0.2727272727272727
 40
0.2727272727272727
 40
0.3636363636363636
 40
0.3636363636363636
 40
0.3636363636363636
 40
0.3636363636363636
 40
0.4545454545454545
 40
0.4545454545454545
 40
0.4545454545454545
 40
0.4545454545454545
 40
0.5454545454545454
 40
0.5454545454545454
 40
0.5454545454545454
 40
0.5454545454545454
 40
0.6363636363636364
 40
0.6363636363636364
 40
0.6363636363636364
 40
0.6363636363636364
 40
0.7272727272727273
 40
0.7272727272727273
 40
0.7272727272727273
 40
0.7272727272727273
 40
0.8181818181818182
 40
0.8181818181818182
 40
0.8181818181818182
 40
0.8181818181818182
 40
1.0
 40
1.0
 40
1.0
 40
1.0
 10
-81.9541
 20
76.3189
 30
0.0
 10
-81.9541
 20
76.3189
 30
0.0
 10
-81.9335
 20
46.7706
 30
0.0
 10
-81.9335
 20
46.7706
 30
0.0
 10
-81.9335
 20
46.7706
 30
0.0
 10
-81.9335
 20
46.7706
 30
0.0
 10
-85.2548
 20
46.7706
 30
0.0
 10
-85.2548
 20
46.7706
 30
0.0
 10
-85.2548
 20
46.7706
 30
0.0
 10
-85.2548
 20
46.7706
 30
0.0
 10
-85.2548
 20
54.6374
 30
0.0
 10
-85.2548
 20
54.6374
 30
0.0
 10
-85.2548
 20
54.6374
 30
0.0
 10
-85.2548
 20
57.5201
 30
0.0
 10
-87.5756
 20
59.8409
 30
0.0
 10
-90.4583
 20
59.8409
 30
0.0
 10
-90.4583
 20
59.8409
 30
0.0
 10
-90.4583
 20
59.8409
 30
0.0
 10
-98.4421
 20
59.8409
 30
0.0
 10
-98.4421
 20
59.8409
 30
0.0
 10
-98.4421
 20
59.8409
 30
0.0
 10
-98.4421
 20
59.8409
 30
0.0
 10
-98.4421
 20
62.9288
 30
0.0
 10
-98.4421
 20
62.9288
 30
0.0
 10
-98.4421
 20
62.9288
 30
0.0
 10
-98.4421
 20
62.9288
 30
0.0
 10
-90.4583
 20
62.9288
 30
0.0
 10
-90.4583
 20
62.9288
 30
0.0
 10
-90.4583
 20
62.9288
 30
0.0
 10
-87.5756
 20
62.9288
 30
0.0
 10
-85.2548
 20
65.2495
 30
0.0
 10
-85.2548
 20
68.1322
 30
0.0
 10
-85.2548
 20
68.1322
 30
0.0
 10
-85.2548
 20
68.1322
 30
0.0
 10
-85.2548
 20
76.3808
 30
0.0
 10
-85.2548
 20
76.3808
 30
0.0
 10
-85.2548
 20
76.3808
 30
0.0
 10
-85.2548
 20
76.3808
 30
0.0
 10
-81.9541
 20
76.3189
 30
0.0
 10
-81.9541
 20
76.3189
 30
0.0
  0
SPLINE
  5
57
330
1F
100
AcDbEntity
  8
layer 1
 62
     7
100
AcDbSpline
210
0.0
220
0.0
230
1.0
 70
    11
 71
     3
 72
    68
 73
    64
 74
     0
 42
0.0000000001
 43
0.0000000001
 12
1.0
 22
0.0
 32
0.0
 13
1.0
 23
0.0
 33
0.0
 40
0.0
 40
0.0
 40
0.0
 40
0.0
 40
0.0588235294117647
 40
0.0588235294117647
 40
0.0588235294117647
 40
0.0588235294117647
 40
0.1176470588235294
 40
0.1176470588235294
 40
0.1176470588235294
 40
0.1176470588235294
 40
0.1764705882352941
 40
0.1764705882352941
 40
0.1764705882352941
 40
0.1764705882352941
 40
0.2352941176470588
 40
0.2352941176470588
 40
0.2352941176470588
 40
0.2352941176470588
 40
0.2941176470588235
 40
0.2941176470588235
 40
0.2941176470588235
 40
0.2941176470588235
 40
0.3529411764705883
 40
0.3529411764705883
 40
0.3529411764705883
 40
0.3529411764705883
 40
0.4117647058823529
 40
0.4117647058823529
 40
0.4117647058823529
 40
0.4117647058823529
 40
0.4705882352941176
 40
0.4705882352941176
 40
0.4705882352941176
 40
0.4705882352941176
 40
0.5294117647058824
 40
0.5294117647058824
 40
0.5294117647058824
 40
0.5294117647058824
 40
0.5882352941176471
 40
0.5882352941176471
 40
0.5882352941176471
 40
0.5882352941176471
 40
0.6470588235294118
 40
0.6470588235294118
 40
0.6470588235294118
 40
0.6470588235294118
 40
0.7058823529411765
 40
0.7058823529411765
 40
0.7058823529411765
 40
0.7058823529411765
 40
0.7647058823529411
 40
0.7647058823529411
 40
0.7647058823529411
 40
0.7647058823529411
 40
0.8235294117647058
 40
0.8235294117647058
 40
0.8235294117647058
 40
0.8235294117647058
 40
0.8823529411764706
 40
0.8823529411764706
 40
0.8823529411764706
 40
0.8823529411764706
 40
1.0
 40
1.0
 40
1.0
 40
1.0
 10
-101.4067
 20
62.9288
 30
0.0
 10
-101.4067
 20
62.9288
 30
0.0
 10
-109.3906
 20
62.9288
 30
0.0
 10
-109.3906
 20
62.9288
 30
0.0
 10
-109.3906
 20
62.9288
 30
0.0
 10
-112.2733
 20
62.9288
 30
0.0
 10
-114.5941
 20
65.2495
 30
0.0
 10
-114.5941
 20
68.1322
 30
0.0
 10
-114.5941
 20
68.1322
 30
0.0
 10
-114.5941
 20
68.1322
 30
0.0
 10
-114.6277
 20
76.4144
 30
0.0
 10
-114.6277
 20
76.4144
 30
0.0
 10
-114.6277
 20
76.4144
 30
0.0
 10
-114.6277
 20
76.4144
 30
0.0
 10
-117.8081
 20
76.4086
 30
0.0
 10
-117.8081
 20
76.4086
 30
0.0
 10
-117.8081
 20
76.4086
 30
0.0
 10
-117.8081
 20
76.4086
 30
0.0
 10
-117.8081
 20
68.1323
 30
0.0
 10
-117.8081
 20
68.1323
 30
0.0
 10
-117.8081
 20
68.1323
 30
0.0
 10
-117.8081
 20
65.2496
 30
0.0
 10
-120.1288
 20
62.9288
 30
0.0
 10
-123.0115
 20
62.9288
 30
0.0
 10
-123.0115
 20
62.9288
 30
0.0
 10
-123.0115
 20
62.9288
 30
0.0
 10
-130.8843
 20
62.9288
 30
0.0
 10
-130.8843
 20
62.9288
 30
0.0
 10
-130.8843
 20
62.9288
 30
0.0
 10
-130.8843
 20
62.9288
 30
0.0
 10
-130.8745
 20
59.8409
 30
0.0
 10
-130.8745
 20
59.8409
 30
0.0
 10
-130.8745
 20
59.8409
 30
0.0
 10
-130.8745
 20
59.8409
 30
0.0
 10
-123.0115
 20
59.8409
 30
0.0
 10
-123.0115
 20
59.8409
 30
0.0
 10
-123.0115
 20
59.8409
 30
0.0
 10
-120.1288
 20
59.8409
 30
0.0
 10
-117.8081
 20
57.5202
 30
0.0
 10
-117.8081
 20
54.6375
 30
0.0
 10
-117.8081
 20
54.6375
 30
0.0
 10
-117.8081
 20
54.6375
 30
0.0
 10
-117.8081
 20
46.7697
 30
0.0
 10
-117.8081
 20
46.7697
 30
0.0
 10
-117.8081
 20
46.7697
 30
0.0
 10
-117.8081
 20
46.7697
 30
0.0
 10
-114.5941
 20
46.7706
 30
0.0
 10
-114.5941
 20
46.7706
 30
0.0
 10
-114.5941
 20
46.7706
 30
0.0
 10
-114.5941
 20
46.7706
 30
0.0
 10
-114.5941
 20
54.6374
 30
0.0
 10
-114.5941
 20
54.6374
 30
0.0
 10
-114.5941
 20
54.6374
 30
0.0
 10
-114.5941
 20
57.5201
 30
0.0
 10
-112.2733
 20
59.8409
 30
0.0
 10
-109.3906
 20
59.8409
 30
0.0
 10
-109.3906
 20
59.8409
 30
0.0
 10
-109.3906
 20
59.8409
 30
0.0
 10
-101.4067
 20
59.8409
 30
0.0
 10
-101.4067
 20
59.8409
 30
0.0
 10
-101.4067
 20
59.8409
 30
0.0
 10
-101.4067
 20
59.8409
 30
0.0
 10
-101.4067
 20
62.9288
 30
0.0
 10
-101.4067
 20
62.9288
 30
0.0
  0
SPLINE
  5
58
330
1F
100
AcDbEntity
  8
layer 1
 62
     7
100
AcDbSpline
210
0.0
220
0.0
230
1.0
 70
    11
 71
     3
 72
    44
 73
    40
 74
     0
 42
0.0000000001
 43
0.0000000001
 12
1.0
 22
0.0
 32
0.0
 13
1.0
 23
0.0
 33
0.0
 40
0.0
 40
0.0
 40
0.0
 40
0.0
 40
0.0909090909090909
 40
0.0909090909090909
 40
0.0909090909090909
 40
0.0909090909090909
 40
0.1818181818181818
 40
0.1818181818181818
 40
0.1818181818181818
 40
0.1818181818181818
 40
0.2727272727272727
 40
0.2727272727272727
 40
0.2727272727272727
 40
0.2727272727272727
 40
0.3636363636363636
 40
0.3636363636363636
 40
0.3636363636363636
 40
0.3636363636363636
 40
0.4545454545454545
 40
0.4545454545454545
 40
0.4545454545454545
 40
0.4545454545454545
 40
0.5454545454545454
 40
0.5454545454545454
 40
0.5454545454545454
 40
0.5454545454545454
 40
0.6363636363636364
 40
0.6363636363636364
 40
0.6363636363636364
 40
0.6363636363636364
 40
0.7272727272727273
 40
0.7272727272727273
 40
0.7272727272727273
 40
0.7272727272727273
 40
0.8181818181818182
 40
0.8181818181818182
 40
0.8181818181818182
 40
0.8181818181818182
 40
1.0
 40
1.0
 40
1.0
 40
1.0
 10
-183.1206
 20
76.3189
 30
0.0
 10
-183.1206
 20
76.3189
 30
0.0
 10
-183.1412
 20
46.7706
 30
0.0
 10
-183.1412
 20
46.7706
 30
0.0
 10
-183.1412
 20
46.7706
 30
0.0
 10
-183.1412
 20
46.7706
 30
0.0
 10
-179.8199
 20
46.7706
 30
0.0
 10
-179.8199
 20
46.7706
 30
0.0
 10
-179.8199
 20
46.7706
 30
0.0
 10
-179.8199
 20
46.7706
 30
0.0
 10
-179.8199
 20
54.6374
 30
0.0
 10
-179.8199
 20
54.6374
 30
0.0
 10
-179.8199
 20
54.6374
 30
0.0
 10
-179.8199
 20
57.5201
 30
0.0
 10
-177.4991
 20
59.8409
 30
0.0
 10
-174.6164
 20
59.8409
 30
0.0
 10
-174.6164
 20
59.8409
 30
0.0
 10
-174.6164
 20
59.8409
 30
0.0
 10
-166.6325
 20
59.8409
 30
0.0
 10
-166.6325
 20
59.8409
 30
0.0
 10
-166.6325
 20
59.8409
 30
0.0
 10
-166.6325
 20
59.8409
 30
0.0
 10
-166.6325
 20
62.9288
 30
0.0
 10
-166.6325
 20
62.9288
 30
0.0
 10
-166.6325
 20
62.9288
 30
0.0
 10
-166.6325
 20
62.9288
 30
0.0
 10
-174.6164
 20
62.9288
 30
0.0
 10
-174.6164
 20
62.9288
 30
0.0
 10
-174.6164
 20
62.9288
 30
0.0
 10
-177.4991
 20
62.9288
 30
0.0
 10
-179.8199
 20
65.2495
 30
0.0
 10
-179.8199
 20
68.1322
 30
0.0
 10
-179.8199
 20
68.1322
 30
0.0
 10
-179.8199
 20
68.1322
 30
0.0
 10
-179.8199
 20
76.3808
 30
0.0
 10
-179.8199
 20
76.3808
 30
0.0
 10
-179.8199
 20
76.3808
 30
0.0
 10
-179.8199
 20
76.3808
 30
0.0
 10
-183.1206
 20
76.3189
 30
0.0
 10
-183.1206
 20
76.3189
 30
0.0
  0
SPLINE
  5
59
330
1F
100
AcDbEntity
  8
layer 1
 62
     7
100
AcDbSpline
210
0.0
220
0.0
230
1.0
 70
    11
 71
     3
 72
    68
 73
    64
 74
     0
 42
0.0000000001
 43
0.0000000001
 12
1.0
 22
0.0
 32
0.0
 13
1.0
 23
0.0
 33
0.0
 40
0.0
 40
0.0
 40
0.0
 40
0.0
 40
0.0588235294117647
 40
0.0588235294117647
 40
0.0588235294117647
 40
0.0588235294117647
 40
0.1176470588235294
 40
0.1176470588235294
 40
0.1176470588235294
 40
0.1176470588235294
 40
0.1764705882352941
 40
0.1764705882352941
 40
0.1764705882352941
 40
0.1764705882352941
 40
0.2352941176470588
 40
0.2352941176470588
 40
0.2352941176470588
 40
0.2352941176470588
 40
0.2941176470588235
 40
0.2941176470588235
 40
0.2941176470588235
 40
0.2941176470588235
 40
0.3529411764705883
 40
0.3529411764705883
 40
0.3529411764705883
 40
0.3529411764705883
 40
0.4117647058823529
 40
0.4117647058823529
 40
0.4117647058823529
 40
0.4117647058823529
 40
0.4705882352941176
 40
0.4705882352941176
 40
0.4705882352941176
 40
0.4705882352941176
 40
0.5294117647058824
 40
0.5294117647058824
 40
0.5294117647058824
 40
0.5294117647058824
 40
0.5882352941176471
 40
0.5882352941176471
 40
0.5882352941176471
 40
0.5882352941176471
 40
0.6470588235294118
 40
0.6470588235294118
 40
0.6470588235294118
 40
0.6470588235294118
 40
0.7058823529411765
 40
0.7058823529411765
 40
0.7058823529411765
 40
0.7058823529411765
 40
0.7647058823529411
 40
0.7647058823529411
 40
0.7647058823529411
 40
0.7647058823529411
 40
0.8235294117647058
 40
0.8235294117647058
 40
0.8235294117647058
 40
0.8235294117647058
 40
0.8823529411764706
 40
0.8823529411764706
 40
0.8823529411764706
 40
0.8823529411764706
 40
1.0
 40
1.0
 40
1.0
 40
1.0
 10
-134.0564
 20
62.9288
 30
0.0
 10
-134.0564
 20
62.9288
 30
0.0
 10
-142.0403
 20
62.9288
 30
0.0
 10
-142.0403
 20
62.9288
 30
0.0
 10
-142.0403
 20
62.9288
 30
0.0
 10
-144.923
 20
62.9288
 30
0.0
 10
-147.2437
 20
65.2495
 30
0.0
 10
-147.2437
 20
68.1322
 30
0.0
 10
-147.2437
 20
68.1322
 30
0.0
 10
-147.2437
 20
68.1322
 30
0.0
 10
-147.2773
 20
76.4144
 30
0.0
 10
-147.2773
 20
76.4144
 30
0.0
 10
-147.2773
 20
76.4144
 30
0.0
 10
-147.2773
 20
76.4144
 30
0.0
 10
-150.4577
 20
76.4086
 30
0.0
 10
-150.4577
 20
76.4086
 30
0.0
 10
-150.4577
 20
76.4086
 30
0.0
 10
-150.4577
 20
76.4086
 30
0.0
 10
-150.4577
 20
68.1323
 30
0.0
 10
-150.4577
 20
68.1323
 30
0.0
 10
-150.4577
 20
68.1323
 30
0.0
 10
-150.4577
 20
65.2496
 30
0.0
 10
-152.7785
 20
62.9288
 30
0.0
 10
-155.6611
 20
62.9288
 30
0.0
 10
-155.6611
 20
62.9288
 30
0.0
 10
-155.6611
 20
62.9288
 30
0.0
 10
-163.5339
 20
62.9288
 30
0.0
 10
-163.5339
 20
62.9288
 30
0.0
 10
-163.5339
 20
62.9288
 30
0.0
 10
-163.5339
 20
62.9288
 30
0.0
 10
-163.5242
 20
59.8409
 30
0.0
 10
-163.5242
 20
59.8409
 30
0.0
 10
-163.5242
 20
59.8409
 30
0.0
 10
-163.5242
 20
59.8409
 30
0.0
 10
-155.6611
 20
59.8409
 30
0.0
 10
-155.6611
 20
59.8409
 30
0.0
 10
-155.6611
 20
59.8409
 30
0.0
 10
-152.7785
 20
59.8409
 30
0.0
 10
-150.4577
 20
57.5202
 30
0.0
 10
-150.4577
 20
54.6375
 30
0.0
 10
-150.4577
 20
54.6375
 30
0.0
 10
-150.4577
 20
54.6375
 30
0.0
 10
-150.4577
 20
46.7697
 30
0.0
 10
-150.4577
 20
46.7697
 30
0.0
 10
-150.4577
 20
46.7697
 30
0.0
 10
-150.4577
 20
46.7697
 30
0.0
 10
-147.2437
 20
46.7706
 30
0.0
 10
-147.2437
 20
46.7706
 30
0.0
 10
-147.2437
 20
46.7706
 30
0.0
 10
-147.2437
 20
46.7706
 30
0.0
 10
-147.2437
 20
54.6374
 30
0.0
 10
-147.2437
 20
54.6374
 30
0.0
 10
-147.2437
 20
54.6374
 30
0.0
 10
-147.2437
 20
57.5201
 30
0.0
 10
-144.923
 20
59.8409
 30
0.0
 10
-142.0403
 20
59.8409
 30
0.0
 10
-142.0403
 20
59.8409
 30
0.0
 10
-142.0403
 20
59.8409
 30
0.0
 10
-134.0564
 20
59.8409
 30
0.0
 10
-134.0564
 20
59.8409
 30
0.0
 10
-134.0564
 20
59.8409
 30
0.0
 10
-134.0564
 20
59.8409
 30
0.0
 10
-134.0564
 20
62.9288
 30
0.0
 10
-134.0564
 20
62.9288
 30
0.0
  0
SPLINE
  5
5A
330
1F
100
AcDbEntity
  8
layer 1
 62
     7
100
AcDbSpline
210
0.0
220
0.0
230
1.0
 70
    11
 71
     3
 72
    44
 73
    40
 74
     0
 42
0.0000000001
 43
0.0000000001
 12
1.0
 22
0.0
 32
0.0
 13
1.0
 23
0.0
 33
0.0
 40
0.0
 40
0.0
 40
0.0
 40
0.0
 40
0.0909090909090909
 40
0.0909090909090909
 40
0.0909090909090909
 40
0.0909090909090909
 40
0.1818181818181818
 40
0.1818181818181818
 40
0.1818181818181818
 40
0.1818181818181818
 40
0.2727272727272727
 40
0.2727272727272727
 40
0.2727272727272727
 40
0.2727272727272727
 40
0.3636363636363636
 40
0.3636363636363636
 40
0.3636363636363636
 40
0.3636363636363636
 40
0.4545454545454545
 40
0.4545454545454545
 40
0.4545454545454545
 40
0.4545454545454545
 40
0.5454545454545454
 40
0.5454545454545454
 40
0.5454545454545454
 40
0.5454545454545454
 40
0.6363636363636364
 40
0.6363636363636364
 40
0.6363636363636364
 40
0.6363636363636364
 40
0.7272727272727273
 40
0.7272727272727273
 40
0.7272727272727273
 40
0.7272727272727273
 40
0.8181818181818182
 40
0.8181818181818182
 40
0.8181818181818182
 40
0.8181818181818182
 40
1.0
 40
1.0
 40
1.0
 40
1.0
 10
-81.9541
 20
108.7875
 30
0.0
 10
-81.9541
 20
108.7875
 30
0.0
 10
-81.9335
 20
79.2392
 30
0.0
 10
-81.9335
 20
79.2392
 30
0.0
 10
-81.9335
 20
79.2392
 30
0.0
 10
-81.9335
 20
79.2392
 30
0.0
 10
-85.2548
 20
79.2392
 30
0.0
 10
-85.2548
 20
79.2392
 30
0.0
 10
-85.2548
 20
79.2392
 30
0.0
 10
-85.2548
 20
79.2392
 30
0.0
 10
-85.2548
 20
87.106
 30
0.0
 10
-85.2548
 20
87.106
 30
0.0
 10
-85.2548
 20
87.106
 30
0.0
 10
-85.2548
 20
89.9887
 30
0.0
 10
-87.5756
 20
92.3094
 30
0.0
 10
-90.4583
 20
92.3094
 30
0.0
 10
-90.4583
 20
92.3094
 30
0.0
 10
-90.4583
 20
92.3094
 30
0.0
 10
-98.4421
 20
92.3094
 30
0.0
 10
-98.4421
 20
92.3094
 30
0.0
 10
-98.4421
 20
92.3094
 30
0.0
 10
-98.4421
 20
92.3094
 30
0.0
 10
-98.4421
 20
95.3973
 30
0.0
 10
-98.4421
 20
95.3973
 30
0.0
 10
-98.4421
 20
95.3973
 30
0.0
 10
-98.4421
 20
95.3973
 30
0.0
 10
-90.4583
 20
95.3973
 30
0.0
 10
-90.4583
 20
95.3973
 30
0.0
 10
-90.4583
 20
95.3973
 30
0.0
 10
-87.5756
 20
95.3973
 30
0.0
 10
-85.2548
 20
97.7181
 30
0.0
 10
-85.2548
 20
100.6008
 30
0.0
 10
-85.2548
 20
100.6008
 30
0.0
 10
-85.2548
 20
100.6008
 30
0.0
 10
-85.2548
 20
108.8494
 30
0.0
 10
-85.2548
 20
108.8494
 30
0.0
 10
-85.2548
 20
108.8494
 30
0.0
 10
-85.2548
 20
108.8494
 30
0.0
 10
-81.9541
 20
108.7875
 30
0.0
 10
-81.9541
 20
108.7875
 30
0.0
  0
SPLINE
  5
5B
330
1F
100
AcDbEntity
  8
layer 1
 62
     7
100
AcDbSpline
210
0.0
220
0.0
230
1.0
 70
    11
 71
     3
 72
    68
 73
    64
 74
     0
 42
0.0000000001
 43
0.0000000001
 12
1.0
 22
0.0
 32
0.0
 13
1.0
 23
0.0
 33
0.0
 40
0.0
 40
0.0
 40
0.0
 40
0.0
 40
0.0588235294117647
 40
0.0588235294117647
 40
0.0588235294117647
 40
0.0588235294117647
 40
0.1176470588235294
 40
0.1176470588235294
 40
0.1176470588235294
 40
0.1176470588235294
 40
0.1764705882352941
 40
0.1764705882352941
 40
0.1764705882352941
 40
0.1764705882352941
 40
0.2352941176470588
 40
0.2352941176470588
 40
0.2352941176470588
 40
0.2352941176470588
 40
0.2941176470588235
 40
0.2941176470588235
 40
0.2941176470588235
 40
0.2941176470588235
 40
0.3529411764705883
 40
0.3529411764705883
 40
0.3529411764705883
 40
0.3529411764705883
 40
0.4117647058823529
 40
0.4117647058823529
 40
0.4117647058823529
 40
0.4117647058823529
 40
0.4705882352941176
 40
0.4705882352941176
 40
0.4705882352941176
 40
0.4705882352941176
 40
0.5294117647058824
 40
0.5294117647058824
 40
0.5294117647058824
 40
0.5294117647058824
 40
0.5882352941176471
 40
0.5882352941176471
 40
0.5882352941176471
 40
0.5882352941176471
 40
0.6470588235294118
 40
0.6470588235294118
 40
0.6470588235294118
 40
0.6470588235294118
 40
0.7058823529411765
 40
0.7058823529411765
 40
0.7058823529411765
 40
0.7058823529411765
 40
0.7647058823529411
 40
0.7647058823529411
 40
0.7647058823529411
 40
0.7647058823529411
 40
0.8235294117647058
 40
0.8235294117647058
 40
0.8235294117647058
 40
0.8235294117647058
 40
0.8823529411764706
 40
0.8823529411764706
 40
0.8823529411764706
 40
0.8823529411764706
 40
1.0
 40
1.0
 40
1.0
 40
1.0
 10
-101.4067
 20
95.3973
 30
0.0
 10
-101.4067
 20
95.3973
 30
0.0
 10
-109.3906
 20
95.3973
 30
0.0
 10
-109.3906
 20
95.3973
 30
0.0
 10
-109.3906
 20
95.3973
 30
0.0
 10
-112.2733
 20
95.3973
 30
0.0
 10
-114.5941
 20
97.7181
 30
0.0
 10
-114.5941
 20
100.6008
 30
0.0
 10
-114.5941
 20
100.6008
 30
0.0
 10
-114.5941
 20
100.6008
 30
0.0
 10
-114.6277
 20
108.883
 30
0.0
 10
-114.6277
 20
108.883
 30
0.0
 10
-114.6277
 20
108.883
 30
0.0
 10
-114.6277
 20
108.883
 30
0.0
 10
-117.8081
 20
108.8772
 30
0.0
 10
-117.8081
 20
108.8772
 30
0.0
 10
-117.8081
 20
108.8772
 30
0.0
 10
-117.8081
 20
108.8772
 30
0.0
 10
-117.8081
 20
100.6008
 30
0.0
 10
-117.8081
 20
100.6008
 30
0.0
 10
-117.8081
 20
100.6008
 30
0.0
 10
-117.8081
 20
97.7182
 30
0.0
 10
-120.1288
 20
95.3974
 30
0.0
 10
-123.0115
 20
95.3974
 30
0.0
 10
-123.0115
 20
95.3974
 30
0.0
 10
-123.0115
 20
95.3974
 30
0.0
 10
-130.8843
 20
95.3974
 30
0.0
 10
-130.8843
 20
95.3974
 30
0.0
 10
-130.8843
 20
95.3974
 30
0.0
 10
-130.8843
 20
95.3974
 30
0.0
 10
-130.8745
 20
92.3095
 30
0.0
 10
-130.8745
 20
92.3095
 30
0.0
 10
-130.8745
 20
92.3095
 30
0.0
 10
-130.8745
 20
92.3095
 30
0.0
 10
-123.0115
 20
92.3095
 30
0.0
 10
-123.0115
 20
92.3095
 30
0.0
 10
-123.0115
 20
92.3095
 30
0.0
 10
-120.1288
 20
92.3095
 30
0.0
 10
-117.8081
 20
89.9888
 30
0.0
 10
-117.8081
 20
87.1061
 30
0.0
 10
-117.8081
 20
87.1061
 30
0.0
 10
-117.8081
 20
87.1061
 30
0.0
 10
-117.8081
 20
79.2383
 30
0.0
 10
-117.8081
 20
79.2383
 30
0.0
 10
-117.8081
 20
79.2383
 30
0.0
 10
-117.8081
 20
79.2383
 30
0.0
 10
-114.5941
 20
79.2392
 30
0.0
 10
-114.5941
 20
79.2392
 30
0.0
 10
-114.5941
 20
79.2392
 30
0.0
 10
-114.5941
 20
79.2392
 30
0.0
 10
-114.5941
 20
87.106
 30
0.0
 10
-114.5941
 20
87.106
 30
0.0
 10
-114.5941
 20
87.106
 30
0.0
 10
-114.5941
 20
89.9887
 30
0.0
 10
-112.2733
 20
92.3094
 30
0.0
 10
-109.3906
 20
92.3094
 30
0.0
 10
-109.3906
 20
92.3094
 30
0.0
 10
-109.3906
 20
92.3094
 30
0.0
 10
-101.4067
 20
92.3094
 30
0.0
 10
-101.4067
 20
92.3094
 30
0.0
 10
-101.4067
 20
92.3094
 30
0.0
 10
-101.4067
 20
92.3094
 30
0.0
 10
-101.4067
 20
95.3973
 30
0.0
 10
-101.4067
 20
95.3973
 30
0.0
  0
SPLINE
  5
5C
330
1F
100
AcDbEntity
  8
layer 1
 62
     7
100
AcDbSpline
210
0.0
220
0.0
230
1.0
 70
    11
 71
     3
 72
    32
 73
    28
 74
     0
 42
0.0000000001
 43
0.0000000001
 12
1.0
 22
0.0
 32
0.0
 13
1.0
 23
0.0
 33
0.0
 40
0.0
 40
0.0
 40
0.0
 40
0.0
 40
0.125
 40
0.125
 40
0.125
 40
0.125
 40
0.25
 40
0.25
 40
0.25
 40
0.25
 40
0.375
 40
0.375
 40
0.375
 40
0.375
 40
0.5
 40
0.5
 40
0.5
 40
0.5
 40
0.625
 40
0.625
 40
0.625
 40
0.625
 40
0.75
 40
0.75
 40
0.75
 40
0.75
 40
1.0
 40
1.0
 40
1.0
 40
1.0
 10
-98.4168
 20
127.5288
 30
0.0
 10
-98.4168
 20
127.5288
 30
0.0
 10
-81.9434
 20
127.5122
 30
0.0
 10
-81.9434
 20
127.5122
 30
0.0
 10
-81.9434
 20
127.5122
 30
0.0
 10
-81.9434
 20
127.5122
 30
0.0
 10
-81.9323
 20
111.6891
 30
0.0
 10
-81.9323
 20
111.6891
 30
0.0
 10
-81.9323
 20
111.6891
 30
0.0
 10
-81.9323
 20
111.6891
 30
0.0
 10
-85.2459
 20
111.6891
 30
0.0
 10
-85.2459
 20
111.6891
 30
0.0
 10
-85.2459
 20
111.6891
 30
0.0
 10
-85.2459
 20
111.6891
 30
0.0
 10
-85.2459
 20
119.556
 30
0.0
 10
-85.2459
 20
119.556
 30
0.0
 10
-85.2459
 20
119.556
 30
0.0
 10
-85.2459
 20
122.4387
 30
0.0
 10
-87.5666
 20
124.7594
 30
0.0
 10
-90.4493
 20
124.7594
 30
0.0
 10
-90.4493
 20
124.7594
 30
0.0
 10
-90.4493
 20
124.7594
 30
0.0
 10
-98.4332
 20
124.7594
 30
0.0
 10
-98.4332
 20
124.7594
 30
0.0
 10
-98.4332
 20
124.7594
 30
0.0
 10
-98.4332
 20
124.7594
 30
0.0
 10
-98.4168
 20
127.5288
 30
0.0
 10
-98.4168
 20
127.5288
 30
0.0
  0
SPLINE
  5
5D
330
1F
100
AcDbEntity
  8
layer 1
 62
     7
100
AcDbSpline
210
0.0
220
0.0
230
1.0
 70
    11
 71
     3
 72
    48
 73
    44
 74
     0
 42
0.0000000001
 43
0.0000000001
 12
1.0
 22
0.0
 32
0.0
 13
1.0
 23
0.0
 33
0.0
 40
0.0
 40
0.0
 40
0.0
 40
0.0
 40
0.0833333333333333
 40
0.0833333333333333
 40
0.0833333333333333
 40
0.0833333333333333
 40
0.1666666666666667
 40
0.1666666666666667
 40
0.1666666666666667
 40
0.1666666666666667
 40
0.25
 40
0.25
 40
0.25
 40
0.25
 40
0.3333333333333333
 40
0.3333333333333333
 40
0.3333333333333333
 40
0.3333333333333333
 40
0.4166666666666667
 40
0.4166666666666667
 40
0.4166666666666667
 40
0.4166666666666667
 40
0.5
 40
0.5
 40
0.5
 40
0.5
 40
0.5833333333333334
 40
0.5833333333333334
 40
0.5833333333333334
 40
0.5833333333333334
 40
0.6666666666666666
 40
0.6666666666666666
 40
0.6666666666666666
 40
0.6666666666666666
 40
0.75
 40
0.75
 40
0.75
 40
0.75
 40
0.8333333333333334
 40
0.8333333333333334
 40
0.8333333333333334
 40
0.8333333333333334
 40
1.0
 40
1.0
 40
1.0
 40
1.0
 10
-101.4933
 20
127.5024
 30
0.0
 10
-101.4933
 20
127.5024
 30
0.0
 10
-130.9915
 20
127.5125
 30
0.0
 10
-130.9915
 20
127.5125
 30
0.0
 10
-130.9915
 20
127.5125
 30
0.0
 10
-130.9915
 20
127.5125
 30
0.0
 10
-130.9797
 20
124.7594
 30
0.0
 10
-130.9797
 20
124.7594
 30
0.0
 10
-130.9797
 20
124.7594
 30
0.0
 10
-130.9797
 20
124.7594
 30
0.0
 10
-123.0891
 20
124.7594
 30
0.0
 10
-123.0891
 20
124.7594
 30
0.0
 10
-123.0891
 20
124.7594
 30
0.0
 10
-120.2064
 20
124.7594
 30
0.0
 10
-117.8857
 20
122.4387
 30
0.0
 10
-117.8857
 20
119.556
 30
0.0
 10
-117.8857
 20
119.556
 30
0.0
 10
-117.8857
 20
119.556
 30
0.0
 10
-117.8857
 20
111.7274
 30
0.0
 10
-117.8857
 20
111.7274
 30
0.0
 10
-117.8857
 20
111.7274
 30
0.0
 10
-117.8857
 20
111.7274
 30
0.0
 10
-114.6717
 20
111.734
 30
0.0
 10
-114.6717
 20
111.734
 30
0.0
 10
-114.6717
 20
111.734
 30
0.0
 10
-114.6717
 20
111.734
 30
0.0
 10
-114.6717
 20
119.556
 30
0.0
 10
-114.6717
 20
119.556
 30
0.0
 10
-114.6717
 20
119.556
 30
0.0
 10
-114.6717
 20
122.4387
 30
0.0
 10
-112.351
 20
124.7594
 30
0.0
 10
-109.4683
 20
124.7594
 30
0.0
 10
-109.4683
 20
124.7594
 30
0.0
 10
-109.4683
 20
124.7594
 30
0.0
 10
-101.4844
 20
124.7594
 30
0.0
 10
-101.4844
 20
124.7594
 30
0.0
 10
-101.4844
 20
124.7594
 30
0.0
 10
-101.4844
 20
124.7594
 30
0.0
 10
-101.4933
 20
127.5023
 30
0.0
 10
-101.4933
 20
127.5023
 30
0.0
 10
-101.4933
 20
127.5023
 30
0.0
 10
-101.4933
 20
127.5023
 30
0.0
 10
-101.4933
 20
127.5024
 30
0.0
 10
-101.4933
 20
127.5024
 30
0.0
  0
SPLINE
  5
5E
330
1F
100
AcDbEntity
  8
layer 1
 62
     7
100
AcDbSpline
210
0.0
220
0.0
230
1.0
 70
    11
 71
     3
 72
    36
 73
    32
 74
     0
 42
0.0000000001
 43
0.0000000001
 12
1.0
 22
0.0
 32
0.0
 13
1.0
 23
0.0
 33
0.0
 40
0.0
 40
0.0
 40
0.0
 40
0.0
 40
0.1111111111111111
 40
0.1111111111111111
 40
0.1111111111111111
 40
0.1111111111111111
 40
0.2222222222222222
 40
0.2222222222222222
 40
0.2222222222222222
 40
0.2222222222222222
 40
0.3333333333333333
 40
0.3333333333333333
 40
0.3333333333333333
 40
0.3333333333333333
 40
0.4444444444444444
 40
0.4444444444444444
 40
0.4444444444444444
 40
0.4444444444444444
 40
0.5555555555555556
 40
0.5555555555555556
 40
0.5555555555555556
 40
0.5555555555555556
 40
0.6666666666666666
 40
0.6666666666666666
 40
0.6666666666666666
 40
0.6666666666666666
 40
0.7777777777777778
 40
0.7777777777777778
 40
0.7777777777777778
 40
0.7777777777777778
 40
1.0
 40
1.0
 40
1.0
 40
1.0
 10
-175.2566
 20
56.6886
 30
0.0
 10
-175.2566
 20
56.6886
 30
0.0
 10
-155.0624
 20
56.6886
 30
0.0
 10
-155.0624
 20
56.6886
 30
0.0
 10
-155.0624
 20
56.6886
 30
0.0
 10
-154.2388
 20
56.6886
 30
0.0
 10
-153.5757
 20
56.0255
 30
0.0
 10
-153.5757
 20
55.2019
 30
0.0
 10
-153.5757
 20
55.2019
 30
0.0
 10
-153.5757
 20
55.2019
 30
0.0
 10
-153.5757
 20
35.0077
 30
0.0
 10
-153.5757
 20
35.0077
 30
0.0
 10
-153.5757
 20
35.0077
 30
0.0
 10
-153.5757
 20
34.1841
 30
0.0
 10
-154.2388
 20
33.521
 30
0.0
 10
-155.0624
 20
33.521
 30
0.0
 10
-155.0624
 20
33.521
 30
0.0
 10
-155.0624
 20
33.521
 30
0.0
 10
-175.2566
 20
33.521
 30
0.0
 10
-175.2566
 20
33.521
 30
0.0
 10
-175.2566
 20
33.521
 30
0.0
 10
-176.0802
 20
33.521
 30
0.0
 10
-176.7433
 20
34.1841
 30
0.0
 10
-176.7433
 20
35.0077
 30
0.0
 10
-176.7433
 20
35.0077
 30
0.0
 10
-176.7433
 20
35.0077
 30
0.0
 10
-176.7433
 20
55.2019
 30
0.0
 10
-176.7433
 20
55.2019
 30
0.0
 10
-176.7433
 20
55.2019
 30
0.0
 10
-176.7433
 20
56.0255
 30
0.0
 10
-176.0802
 20
56.6886
 30
0.0
 10
-175.2566
 20
56.6886
 30
0.0
  0
SPLINE
  5
5F
330
1F
100
AcDbEntity
  8
layer 1
 62
     7
100
AcDbSpline
210
0.0
220
0.0
230
1.0
 70
    11
 71
     3
 72
    36
 73
    32
 74
     0
 42
0.0000000001
 43
0.0000000001
 12
1.0
 22
0.0
 32
0.0
 13
1.0
 23
0.0
 33
0.0
 40
0.0
 40
0.0
 40
0.0
 40
0.0
 40
0.1111111111111111
 40
0.1111111111111111
 40
0.1111111111111111
 40
0.1111111111111111
 40
0.2222222222222222
 40
0.2222222222222222
 40
0.2222222222222222
 40
0.2222222222222222
 40
0.3333333333333333
 40
0.3333333333333333
 40
0.3333333333333333
 40
0.3333333333333333
 40
0.4444444444444444
 40
0.4444444444444444
 40
0.4444444444444444
 40
0.4444444444444444
 40
0.5555555555555556
 40
0.5555555555555556
 40
0.5555555555555556
 40
0.5555555555555556
 40
0.6666666666666666
 40
0.6666666666666666
 40
0.6666666666666666
 40
0.6666666666666666
 40
0.7777777777777778
 40
0.7777777777777778
 40
0.7777777777777778
 40
0.7777777777777778
 40
1.0
 40
1.0
 40
1.0
 40
1.0
 10
-142.6805
 20
56.6886
 30
0.0
 10
-142.6805
 20
56.6886
 30
0.0
 10
-122.4863
 20
56.6886
 30
0.0
 10
-122.4863
 20
56.6886
 30
0.0
 10
-122.4863
 20
56.6886
 30
0.0
 10
-121.6627
 20
56.6886
 30
0.0
 10
-120.9996
 20
56.0255
 30
0.0
 10
-120.9996
 20
55.2019
 30
0.0
 10
-120.9996
 20
55.2019
 30
0.0
 10
-120.9996
 20
55.2019
 30
0.0
 10
-120.9996
 20
35.0077
 30
0.0
 10
-120.9996
 20
35.0077
 30
0.0
 10
-120.9996
 20
35.0077
 30
0.0
 10
-120.9996
 20
34.1841
 30
0.0
 10
-121.6627
 20
33.521
 30
0.0
 10
-122.4863
 20
33.521
 30
0.0
 10
-122.4863
 20
33.521
 30
0.0
 10
-122.4863
 20
33.521
 30
0.0
 10
-142.6805
 20
33.521
 30
0.0
 10
-142.6805
 20
33.521
 30
0.0
 10
-142.6805
 20
33.521
 30
0.0
 10
-143.5041
 20
33.521
 30
0.0
 10
-144.1672
 20
34.1841
 30
0.0
 10
-144.1672
 20
35.0077
 30
0.0
 10
-144.1672
 20
35.0077
 30
0.0
 10
-144.1672
 20
35.0077
 30
0.0
 10
-144.1672
 20
55.2019
 30
0.0
 10
-144.1672
 20
55.2019
 30
0.0
 10
-144.1672
 20
55.2019
 30
0.0
 10
-144.1672
 20
56.0255
 30
0.0
 10
-143.5041
 20
56.6886
 30
0.0
 10
-142.6805
 20
56.6886
 30
0.0
  0
SPLINE
  5
60
330
1F
100
AcDbEntity
  8
layer 1
 62
     7
100
AcDbSpline
210
0.0
220
0.0
230
1.0
 70
    11
 71
     3
 72
    36
 73
    32
 74
     0
 42
0.0000000001
 43
0.0000000001
 12
1.0
 22
0.0
 32
0.0
 13
1.0
 23
0.0
 33
0.0
 40
0.0
 40
0.0
 40
0.0
 40
0.0
 40
0.1111111111111111
 40
0.1111111111111111
 40
0.1111111111111111
 40
0.1111111111111111
 40
0.2222222222222222
 40
0.2222222222222222
 40
0.2222222222222222
 40
0.2222222222222222
 40
0.3333333333333333
 40
0.3333333333333333
 40
0.3333333333333333
 40
0.3333333333333333
 40
0.4444444444444444
 40
0.4444444444444444
 40
0.4444444444444444
 40
0.4444444444444444
 40
0.5555555555555556
 40
0.5555555555555556
 40
0.5555555555555556
 40
0.5555555555555556
 40
0.6666666666666666
 40
0.6666666666666666
 40
0.6666666666666666
 40
0.6666666666666666
 40
0.7777777777777778
 40
0.7777777777777778
 40
0.7777777777777778
 40
0.7777777777777778
 40
1.0
 40
1.0
 40
1.0
 40
1.0
 10
-110.1044
 20
56.6886
 30
0.0
 10
-110.1044
 20
56.6886
 30
0.0
 10
-89.9102
 20
56.6886
 30
0.0
 10
-89.9102
 20
56.6886
 30
0.0
 10
-89.9102
 20
56.6886
 30
0.0
 10
-89.0866
 20
56.6886
 30
0.0
 10
-88.4235
 20
56.0255
 30
0.0
 10
-88.4235
 20
55.2019
 30
0.0
 10
-88.4235
 20
55.2019
 30
0.0
 10
-88.4235
 20
55.2019
 30
0.0
 10
-88.4235
 20
35.0077
 30
0.0
 10
-88.4235
 20
35.0077
 30
0.0
 10
-88.4235
 20
35.0077
 30
0.0
 10
-88.4235
 20
34.1841
 30
0.0
 10
-89.0866
 20
33.521
 30
0.0
 10
-89.9102
 20
33.521
 30
0.0
 10
-89.9102
 20
33.521
 30
0.0
 10
-89.9102
 20
33.521
 30
0.0
 10
-110.1044
 20
33.521
 30
0.0
 10
-110.1044
 20
33.521
 30
0.0
 10
-110.1044
 20
33.521
 30
0.0
 10
-110.928
 20
33.521
 30
0.0
 10
-111.5911
 20
34.1841
 30
0.0
 10
-111.5911
 20
35.0077
 30
0.0
 10
-111.5911
 20
35.0077
 30
0.0
 10
-111.5911
 20
35.0077
 30
0.0
 10
-111.5911
 20
55.2019
 30
0.0
 10
-111.5911
 20
55.2019
 30
0.0
 10
-111.5911
 20
55.2019
 30
0.0
 10
-111.5911
 20
56.0255
 30
0.0
 10
-110.928
 20
56.6886
 30
0.0
 10
-110.1044
 20
56.6886
 30
0.0
  0
SPLINE
  5
61
330
1F
100
AcDbEntity
  8
layer 1
 62
     7
100
AcDbSpline
210
0.0
220
0.0
230
1.0
 70
    11
 71
     3
 72
    36
 73
    32
 74
     0
 42
0.0000000001
 43
0.0000000001
 12
1.0
 22
0.0
 32
0.0
 13
1.0
 23
0.0
 33
0.0
 40
0.0
 40
0.0
 40
0.0
 40
0.0
 40
0.1111111111111111
 40
0.1111111111111111
 40
0.1111111111111111
 40
0.1111111111111111
 40
0.2222222222222222
 40
0.2222222222222222
 40
0.2222222222222222
 40
0.2222222222222222
 40
0.3333333333333333
 40
0.3333333333333333
 40
0.3333333333333333
 40
0.3333333333333333
 40
0.4444444444444444
 40
0.4444444444444444
 40
0.4444444444444444
 40
0.4444444444444444
 40
0.5555555555555556
 40
0.5555555555555556
 40
0.5555555555555556
 40
0.5555555555555556
 40
0.6666666666666666
 40
0.6666666666666666
 40
0.6666666666666666
 40
0.6666666666666666
 40
0.7777777777777778
 40
0.7777777777777778
 40
0.7777777777777778
 40
0.7777777777777778
 40
1.0
 40
1.0
 40
1.0
 40
1.0
 10
-175.2566
 20
24.2386
 30
0.0
 10
-175.2566
 20
24.2386
 30
0.0
 10
-155.0624
 20
24.2386
 30
0.0
 10
-155.0624
 20
24.2386
 30
0.0
 10
-155.0624
 20
24.2386
 30
0.0
 10
-154.2388
 20
24.2386
 30
0.0
 10
-153.5757
 20
23.5756
 30
0.0
 10
-153.5757
 20
22.752
 30
0.0
 10
-153.5757
 20
22.752
 30
0.0
 10
-153.5757
 20
22.752
 30
0.0
 10
-153.5757
 20
2.5577
 30
0.0
 10
-153.5757
 20
2.5577
 30
0.0
 10
-153.5757
 20
2.5577
 30
0.0
 10
-153.5757
 20
1.7341
 30
0.0
 10
-154.2388
 20
1.0711
 30
0.0
 10
-155.0624
 20
1.0711
 30
0.0
 10
-155.0624
 20
1.0711
 30
0.0
 10
-155.0624
 20
1.0711
 30
0.0
 10
-175.2566
 20
1.0711
 30
0.0
 10
-175.2566
 20
1.0711
 30
0.0
 10
-175.2566
 20
1.0711
 30
0.0
 10
-176.0802
 20
1.0711
 30
0.0
 10
-176.7433
 20
1.7341
 30
0.0
 10
-176.7433
 20
2.5577
 30
0.0
 10
-176.7433
 20
2.5577
 30
0.0
 10
-176.7433
 20
2.5577
 30
0.0
 10
-176.7433
 20
22.752
 30
0.0
 10
-176.7433
 20
22.752
 30
0.0
 10
-176.7433
 20
22.752
 30
0.0
 10
-176.7433
 20
23.5756
 30
0.0
 10
-176.0802
 20
24.2386
 30
0.0
 10
-175.2566
 20
24.2386
 30
0.0
  0
SPLINE
  5
62
330
1F
100
AcDbEntity
  8
layer 1
 62
     7
100
AcDbSpline
210
0.0
220
0.0
230
1.0
 70
    11
 71
     3
 72
    36
 73
    32
 74
     0
 42
0.0000000001
 43
0.0000000001
 12
1.0
 22
0.0
 32
0.0
 13
1.0
 23
0.0
 33
0.0
 40
0.0
 40
0.0
 40
0.0
 40
0.0
 40
0.1111111111111111
 40
0.1111111111111111
 40
0.1111111111111111
 40
0.1111111111111111
 40
0.2222222222222222
 40
0.2222222222222222
 40
0.2222222222222222
 40
0.2222222222222222
 40
0.3333333333333333
 40
0.3333333333333333
 40
0.3333333333333333
 40
0.3333333333333333
 40
0.4444444444444444
 40
0.4444444444444444
 40
0.4444444444444444
 40
0.4444444444444444
 40
0.5555555555555556
 40
0.5555555555555556
 40
0.5555555555555556
 40
0.5555555555555556
 40
0.6666666666666666
 40
0.6666666666666666
 40
0.6666666666666666
 40
0.6666666666666666
 40
0.7777777777777778
 40
0.7777777777777778
 40
0.7777777777777778
 40
0.7777777777777778
 40
1.0
 40
1.0
 40
1.0
 40
1.0
 10
-142.6805
 20
24.2386
 30
0.0
 10
-142.6805
 20
24.2386
 30
0.0
 10
-122.4863
 20
24.2386
 30
0.0
 10
-122.4863
 20
24.2386
 30
0.0
 10
-122.4863
 20
24.2386
 30
0.0
 10
-121.6627
 20
24.2386
 30
0.0
 10
-120.9996
 20
23.5756
 30
0.0
 10
-120.9996
 20
22.752
 30
0.0
 10
-120.9996
 20
22.752
 30
0.0
 10
-120.9996
 20
22.752
 30
0.0
 10
-120.9996
 20
2.5577
 30
0.0
 10
-120.9996
 20
2.5577
 30
0.0
 10
-120.9996
 20
2.5577
 30
0.0
 10
-120.9996
 20
1.7341
 30
0.0
 10
-121.6627
 20
1.0711
 30
0.0
 10
-122.4863
 20
1.0711
 30
0.0
 10
-122.4863
 20
1.0711
 30
0.0
 10
-122.4863
 20
1.0711
 30
0.0
 10
-142.6805
 20
1.0711
 30
0.0
 10
-142.6805
 20
1.0711
 30
0.0
 10
-142.6805
 20
1.0711
 30
0.0
 10
-143.5041
 20
1.0711
 30
0.0
 10
-144.1672
 20
1.7341
 30
0.0
 10
-144.1672
 20
2.5577
 30
0.0
 10
-144.1672
 20
2.5577
 30
0.0
 10
-144.1672
 20
2.5577
 30
0.0
 10
-144.1672
 20
22.752
 30
0.0
 10
-144.1672
 20
22.752
 30
0.0
 10
-144.1672
 20
22.752
 30
0.0
 10
-144.1672
 20
23.5756
 30
0.0
 10
-143.5041
 20
24.2386
 30
0.0
 10
-142.6805
 20
24.2386
 30
0.0
  0
SPLINE
  5
63
330
1F
100
AcDbEntity
  8
layer 1
 62
     7
100
AcDbSpline
210
0.0
220
0.0
230
1.0
 70
    11
 71
     3
 72
    36
 73
    32
 74
     0
 42
0.0000000001
 43
0.0000000001
 12
1.0
 22
0.0
 32
0.0
 13
1.0
 23
0.0
 33
0.0
 40
0.0
 40
0.0
 40
0.0
 40
0.0
 40
0.1111111111111111
 40
0.1111111111111111
 40
0.1111111111111111
 40
0.1111111111111111
 40
0.2222222222222222
 40
0.2222222222222222
 40
0.2222222222222222
 40
0.2222222222222222
 40
0.3333333333333333
 40
0.3333333333333333
 40
0.3333333333333333
 40
0.3333333333333333
 40
0.4444444444444444
 40
0.4444444444444444
 40
0.4444444444444444
 40
0.4444444444444444
 40
0.5555555555555556
 40
0.5555555555555556
 40
0.5555555555555556
 40
0.5555555555555556
 40
0.6666666666666666
 40
0.6666666666666666
 40
0.6666666666666666
 40
0.6666666666666666
 40
0.7777777777777778
 40
0.7777777777777778
 40
0.7777777777777778
 40
0.7777777777777778
 40
1.0
 40
1.0
 40
1.0
 40
1.0
 10
-110.1044
 20
24.2386
 30
0.0
 10
-110.1044
 20
24.2386
 30
0.0
 10
-89.9102
 20
24.2386
 30
0.0
 10
-89.9102
 20
24.2386
 30
0.0
 10
-89.9102
 20
24.2386
 30
0.0
 10
-89.0866
 20
24.2386
 30
0.0
 10
-88.4235
 20
23.5756
 30
0.0
 10
-88.4235
 20
22.752
 30
0.0
 10
-88.4235
 20
22.752
 30
0.0
 10
-88.4235
 20
22.752
 30
0.0
 10
-88.4235
 20
2.5577
 30
0.0
 10
-88.4235
 20
2.5577
 30
0.0
 10
-88.4235
 20
2.5577
 30
0.0
 10
-88.4235
 20
1.7341
 30
0.0
 10
-89.0866
 20
1.0711
 30
0.0
 10
-89.9102
 20
1.0711
 30
0.0
 10
-89.9102
 20
1.0711
 30
0.0
 10
-89.9102
 20
1.0711
 30
0.0
 10
-110.1044
 20
1.0711
 30
0.0
 10
-110.1044
 20
1.0711
 30
0.0
 10
-110.1044
 20
1.0711
 30
0.0
 10
-110.928
 20
1.0711
 30
0.0
 10
-111.5911
 20
1.7341
 30
0.0
 10
-111.5911
 20
2.5577
 30
0.0
 10
-111.5911
 20
2.5577
 30
0.0
 10
-111.5911
 20
2.5577
 30
0.0
 10
-111.5911
 20
22.752
 30
0.0
 10
-111.5911
 20
22.752
 30
0.0
 10
-111.5911
 20
22.752
 30
0.0
 10
-111.5911
 20
23.5756
 30
0.0
 10
-110.928
 20
24.2386
 30
0.0
 10
-110.1044
 20
24.2386
 30
0.0
  0
SPLINE
  5
64
330
1F
100
AcDbEntity
  8
layer 1
 62
     7
100
AcDbSpline
210
0.0
220
0.0
230
1.0
 70
    11
 71
     3
 72
    36
 73
    32
 74
     0
 42
0.0000000001
 43
0.0000000001
 12
1.0
 22
0.0
 32
0.0
 13
1.0
 23
0.0
 33
0.0
 40
0.0
 40
0.0
 40
0.0
 40
0.0
 40
0.1111111111111111
 40
0.1111111111111111
 40
0.1111111111111111
 40
0.1111111111111111
 40
0.2222222222222222
 40
0.2222222222222222
 40
0.2222222222222222
 40
0.2222222222222222
 40
0.3333333333333333
 40
0.3333333333333333
 40
0.3333333333333333
 40
0.3333333333333333
 40
0.4444444444444444
 40
0.4444444444444444
 40
0.4444444444444444
 40
0.4444444444444444
 40
0.5555555555555556
 40
0.5555555555555556
 40
0.5555555555555556
 40
0.5555555555555556
 40
0.6666666666666666
 40
0.6666666666666666
 40
0.6666666666666666
 40
0.6666666666666666
 40
0.7777777777777778
 40
0.7777777777777778
 40
0.7777777777777778
 40
0.7777777777777778
 40
1.0
 40
1.0
 40
1.0
 40
1.0
 10
-175.2566
 20
-8.4339
 30
0.0
 10
-175.2566
 20
-8.4339
 30
0.0
 10
-155.0624
 20
-8.4339
 30
0.0
 10
-155.0624
 20
-8.4339
 30
0.0
 10
-155.0624
 20
-8.4339
 30
0.0
 10
-154.2388
 20
-8.4339
 30
0.0
 10
-153.5757
 20
-9.097
 30
0.0
 10
-153.5757
 20
-9.9206
 30
0.0
 10
-153.5757
 20
-9.9206
 30
0.0
 10
-153.5757
 20
-9.9206
 30
0.0
 10
-153.5757
 20
-30.1148
 30
0.0
 10
-153.5757
 20
-30.1148
 30
0.0
 10
-153.5757
 20
-30.1148
 30
0.0
 10
-153.5757
 20
-30.9384
 30
0.0
 10
-154.2388
 20
-31.6015
 30
0.0
 10
-155.0624
 20
-31.6015
 30
0.0
 10
-155.0624
 20
-31.6015
 30
0.0
 10
-155.0624
 20
-31.6015
 30
0.0
 10
-175.2566
 20
-31.6015
 30
0.0
 10
-175.2566
 20
-31.6015
 30
0.0
 10
-175.2566
 20
-31.6015
 30
0.0
 10
-176.0802
 20
-31.6015
 30
0.0
 10
-176.7433
 20
-30.9384
 30
0.0
 10
-176.7433
 20
-30.1148
 30
0.0
 10
-176.7433
 20
-30.1148
 30
0.0
 10
-176.7433
 20
-30.1148
 30
0.0
 10
-176.7433
 20
-9.9206
 30
0.0
 10
-176.7433
 20
-9.9206
 30
0.0
 10
-176.7433
 20
-9.9206
 30
0.0
 10
-176.7433
 20
-9.097
 30
0.0
 10
-176.0802
 20
-8.4339
 30
0.0
 10
-175.2566
 20
-8.4339
 30
0.0
  0
SPLINE
  5
65
330
1F
100
AcDbEntity
  8
layer 1
 62
     7
100
AcDbSpline
210
0.0
220
0.0
230
1.0
 70
    11
 71
     3
 72
    36
 73
    32
 74
     0
 42
0.0000000001
 43
0.0000000001
 12
1.0
 22
0.0
 32
0.0
 13
1.0
 23
0.0
 33
0.0
 40
0.0
 40
0.0
 40
0.0
 40
0.0
 40
0.1111111111111111
 40
0.1111111111111111
 40
0.1111111111111111
 40
0.1111111111111111
 40
0.2222222222222222
 40
0.2222222222222222
 40
0.2222222222222222
 40
0.2222222222222222
 40
0.3333333333333333
 40
0.3333333333333333
 40
0.3333333333333333
 40
0.3333333333333333
 40
0.4444444444444444
 40
0.4444444444444444
 40
0.4444444444444444
 40
0.4444444444444444
 40
0.5555555555555556
 40
0.5555555555555556
 40
0.5555555555555556
 40
0.5555555555555556
 40
0.6666666666666666
 40
0.6666666666666666
 40
0.6666666666666666
 40
0.6666666666666666
 40
0.7777777777777778
 40
0.7777777777777778
 40
0.7777777777777778
 40
0.7777777777777778
 40
1.0
 40
1.0
 40
1.0
 40
1.0
 10
-142.6805
 20
-8.4339
 30
0.0
 10
-142.6805
 20
-8.4339
 30
0.0
 10
-122.4863
 20
-8.4339
 30
0.0
 10
-122.4863
 20
-8.4339
 30
0.0
 10
-122.4863
 20
-8.4339
 30
0.0
 10
-121.6627
 20
-8.4339
 30
0.0
 10
-120.9996
 20
-9.097
 30
0.0
 10
-120.9996
 20
-9.9206
 30
0.0
 10
-120.9996
 20
-9.9206
 30
0.0
 10
-120.9996
 20
-9.9206
 30
0.0
 10
-120.9996
 20
-30.1148
 30
0.0
 10
-120.9996
 20
-30.1148
 30
0.0
 10
-120.9996
 20
-30.1148
 30
0.0
 10
-120.9996
 20
-30.9384
 30
0.0
 10
-121.6627
 20
-31.6015
 30
0.0
 10
-122.4863
 20
-31.6015
 30
0.0
 10
-122.4863
 20
-31.6015
 30
0.0
 10
-122.4863
 20
-31.6015
 30
0.0
 10
-142.6805
 20
-31.6015
 30
0.0
 10
-142.6805
 20
-31.6015
 30
0.0
 10
-142.6805
 20
-31.6015
 30
0.0
 10
-143.5041
 20
-31.6015
 30
0.0
 10
-144.1672
 20
-30.9384
 30
0.0
 10
-144.1672
 20
-30.1148
 30
0.0
 10
-144.1672
 20
-30.1148
 30
0.0
 10
-144.1672
 20
-30.1148
 30
0.0
 10
-144.1672
 20
-9.9206
 30
0.0
 10
-144.1672
 20
-9.9206
 30
0.0
 10
-144.1672
 20
-9.9206
 30
0.0
 10
-144.1672
 20
-9.097
 30
0.0
 10
-143.5041
 20
-8.4339
 30
0.0
 10
-142.6805
 20
-8.4339
 30
0.0
  0
SPLINE
  5
66
330
1F
100
AcDbEntity
  8
layer 1
 62
     7
100
AcDbSpline
210
0.0
220
0.0
230
1.0
 70
    11
 71
     3
 72
    36
 73
    32
 74
     0
 42
0.0000000001
 43
0.0000000001
 12
1.0
 22
0.0
 32
0.0
 13
1.0
 23
0.0
 33
0.0
 40
0.0
 40
0.0
 40
0.0
 40
0.0
 40
0.1111111111111111
 40
0.1111111111111111
 40
0.1111111111111111
 40
0.1111111111111111
 40
0.2222222222222222
 40
0.2222222222222222
 40
0.2222222222222222
 40
0.2222222222222222
 40
0.3333333333333333
 40
0.3333333333333333
 40
0.3333333333333333
 40
0.3333333333333333
 40
0.4444444444444444
 40
0.4444444444444444
 40
0.4444444444444444
 40
0.4444444444444444
 40
0.5555555555555556
 40
0.5555555555555556
 40
0.5555555555555556
 40
0.5555555555555556
 40
0.6666666666666666
 40
0.6666666666666666
 40
0.6666666666666666
 40
0.6666666666666666
 40
0.7777777777777778
 40
0.7777777777777778
 40
0.7777777777777778
 40
0.7777777777777778
 40
1.0
 40
1.0
 40
1.0
 40
1.0
 10
-110.1044
 20
-8.4339
 30
0.0
 10
-110.1044
 20
-8.4339
 30
0.0
 10
-89.9102
 20
-8.4339
 30
0.0
 10
-89.9102
 20
-8.4339
 30
0.0
 10
-89.9102
 20
-8.4339
 30
0.0
 10
-89.0866
 20
-8.4339
 30
0.0
 10
-88.4235
 20
-9.097
 30
0.0
 10
-88.4235
 20
-9.9206
 30
0.0
 10
-88.4235
 20
-9.9206
 30
0.0
 10
-88.4235
 20
-9.9206
 30
0.0
 10
-88.4235
 20
-30.1148
 30
0.0
 10
-88.4235
 20
-30.1148
 30
0.0
 10
-88.4235
 20
-30.1148
 30
0.0
 10
-88.4235
 20
-30.9384
 30
0.0
 10
-89.0866
 20
-31.6015
 30
0.0
 10
-89.9102
 20
-31.6015
 30
0.0
 10
-89.9102
 20
-31.6015
 30
0.0
 10
-89.9102
 20
-31.6015
 30
0.0
 10
-110.1044
 20
-31.6015
 30
0.0
 10
-110.1044
 20
-31.6015
 30
0.0
 10
-110.1044
 20
-31.6015
 30
0.0
 10
-110.928
 20
-31.6015
 30
0.0
 10
-111.5911
 20
-30.9384
 30
0.0
 10
-111.5911
 20
-30.1148
 30
0.0
 10
-111.5911
 20
-30.1148
 30
0.0
 10
-111.5911
 20
-30.1148
 30
0.0
 10
-111.5911
 20
-9.9206
 30
0.0
 10
-111.5911
 20
-9.9206
 30
0.0
 10
-111.5911
 20
-9.9206
 30
0.0
 10
-111.5911
 20
-9.097
 30
0.0
 10
-110.928
 20
-8.4339
 30
0.0
 10
-110.1044
 20
-8.4339
 30
0.0
  0
SPLINE
  5
67
330
1F
100
AcDbEntity
  8
layer 1
 62
     7
100
AcDbSpline
210
0.0
220
0.0
230
1.0
 70
    11
 71
     3
 72
    32
 73
    28
 74
     0
 42
0.0000000001
 43
0.0000000001
 12
1.0
 22
0.0
 32
0.0
 13
1.0
 23
0.0
 33
0.0
 40
0.0
 40
0.0
 40
0.0
 40
0.0
 40
0.125
 40
0.125
 40
0.125
 40
0.125
 40
0.25
 40
0.25
 40
0.25
 40
0.25
 40
0.375
 40
0.375
 40
0.375
 40
0.375
 40
0.5
 40
0.5
 40
0.5
 40
0.5
 40
0.625
 40
0.625
 40
0.625
 40
0.625
 40
0.75
 40
0.75
 40
0.75
 40
0.75
 40
1.0
 40
1.0
 40
1.0
 40
1.0
 10
-166.6489
 20
127.5288
 30
0.0
 10
-166.6489
 20
127.5288
 30
0.0
 10
-183.1223
 20
127.5122
 30
0.0
 10
-183.1223
 20
127.5122
 30
0.0
 10
-183.1223
 20
127.5122
 30
0.0
 10
-183.1223
 20
127.5122
 30
0.0
 10
-183.1334
 20
111.6891
 30
0.0
 10
-183.1334
 20
111.6891
 30
0.0
 10
-183.1334
 20
111.6891
 30
0.0
 10
-183.1334
 20
111.6891
 30
0.0
 10
-179.8199
 20
111.6891
 30
0.0
 10
-179.8199
 20
111.6891
 30
0.0
 10
-179.8199
 20
111.6891
 30
0.0
 10
-179.8199
 20
111.6891
 30
0.0
 10
-179.8199
 20
119.556
 30
0.0
 10
-179.8199
 20
119.556
 30
0.0
 10
-179.8199
 20
119.556
 30
0.0
 10
-179.8199
 20
122.4387
 30
0.0
 10
-177.4991
 20
124.7594
 30
0.0
 10
-174.6164
 20
124.7594
 30
0.0
 10
-174.6164
 20
124.7594
 30
0.0
 10
-174.6164
 20
124.7594
 30
0.0
 10
-166.6325
 20
124.7594
 30
0.0
 10
-166.6325
 20
124.7594
 30
0.0
 10
-166.6325
 20
124.7594
 30
0.0
 10
-166.6325
 20
124.7594
 30
0.0
 10
-166.6489
 20
127.5288
 30
0.0
 10
-166.6489
 20
127.5288
 30
0.0
  0
SPLINE
  5
68
330
1F
100
AcDbEntity
  8
layer 1
 62
     7
100
AcDbSpline
210
0.0
220
0.0
230
1.0
 70
    11
 71
     3
 72
    48
 73
    44
 74
     0
 42
0.0000000001
 43
0.0000000001
 12
1.0
 22
0.0
 32
0.0
 13
1.0
 23
0.0
 33
0.0
 40
0.0
 40
0.0
 40
0.0
 40
0.0
 40
0.0833333333333333
 40
0.0833333333333333
 40
0.0833333333333333
 40
0.0833333333333333
 40
0.1666666666666667
 40
0.1666666666666667
 40
0.1666666666666667
 40
0.1666666666666667
 40
0.25
 40
0.25
 40
0.25
 40
0.25
 40
0.3333333333333333
 40
0.3333333333333333
 40
0.3333333333333333
 40
0.3333333333333333
 40
0.4166666666666667
 40
0.4166666666666667
 40
0.4166666666666667
 40
0.4166666666666667
 40
0.5
 40
0.5
 40
0.5
 40
0.5
 40
0.5833333333333334
 40
0.5833333333333334
 40
0.5833333333333334
 40
0.5833333333333334
 40
0.6666666666666666
 40
0.6666666666666666
 40
0.6666666666666666
 40
0.6666666666666666
 40
0.75
 40
0.75
 40
0.75
 40
0.75
 40
0.8333333333333334
 40
0.8333333333333334
 40
0.8333333333333334
 40
0.8333333333333334
 40
1.0
 40
1.0
 40
1.0
 40
1.0
 10
-134.0654
 20
127.5024
 30
0.0
 10
-134.0654
 20
127.5024
 30
0.0
 10
-163.5636
 20
127.5125
 30
0.0
 10
-163.5636
 20
127.5125
 30
0.0
 10
-163.5636
 20
127.5125
 30
0.0
 10
-163.5636
 20
127.5125
 30
0.0
 10
-163.5518
 20
124.7594
 30
0.0
 10
-163.5518
 20
124.7594
 30
0.0
 10
-163.5518
 20
124.7594
 30
0.0
 10
-163.5518
 20
124.7594
 30
0.0
 10
-155.6612
 20
124.7594
 30
0.0
 10
-155.6612
 20
124.7594
 30
0.0
 10
-155.6612
 20
124.7594
 30
0.0
 10
-152.7785
 20
124.7594
 30
0.0
 10
-150.4578
 20
122.4387
 30
0.0
 10
-150.4578
 20
119.556
 30
0.0
 10
-150.4578
 20
119.556
 30
0.0
 10
-150.4578
 20
119.556
 30
0.0
 10
-150.4578
 20
111.7274
 30
0.0
 10
-150.4578
 20
111.7274
 30
0.0
 10
-150.4578
 20
111.7274
 30
0.0
 10
-150.4578
 20
111.7274
 30
0.0
 10
-147.2438
 20
111.734
 30
0.0
 10
-147.2438
 20
111.734
 30
0.0
 10
-147.2438
 20
111.734
 30
0.0
 10
-147.2438
 20
111.734
 30
0.0
 10
-147.2438
 20
119.556
 30
0.0
 10
-147.2438
 20
119.556
 30
0.0
 10
-147.2438
 20
119.556
 30
0.0
 10
-147.2438
 20
122.4387
 30
0.0
 10
-144.9231
 20
124.7594
 30
0.0
 10
-142.0404
 20
124.7594
 30
0.0
 10
-142.0404
 20
124.7594
 30
0.0
 10
-142.0404
 20
124.7594
 30
0.0
 10
-134.0565
 20
124.7594
 30
0.0
 10
-134.0565
 20
124.7594
 30
0.0
 10
-134.0565
 20
124.7594
 30
0.0
 10
-134.0565
 20
124.7594
 30
0.0
 10
-134.0654
 20
127.5023
 30
0.0
 10
-134.0654
 20
127.5023
 30
0.0
 10
-134.0654
 20
127.5023
 30
0.0
 10
-134.0654
 20
127.5023
 30
0.0
 10
-134.0654
 20
127.5024
 30
0.0
 10
-134.0654
 20
127.5024
 30
0.0
  0
SPLINE
  5
69
330
1F
100
AcDbEntity
  8
layer 1
 62
     7
100
AcDbSpline
210
0.0
220
0.0
230
1.0
 70
    11
 71
     3
 72
    36
 73
    32
 74
     0
 42
0.0000000001
 43
0.0000000001
 12
1.0
 22
0.0
 32
0.0
 13
1.0
 23
0.0
 33
0.0
 40
0.0
 40
0.0
 40
0.0
 40
0.0
 40
0.1111111111111111
 40
0.1111111111111111
 40
0.1111111111111111
 40
0.1111111111111111
 40
0.2222222222222222
 40
0.2222222222222222
 40
0.2222222222222222
 40
0.2222222222222222
 40
0.3333333333333333
 40
0.3333333333333333
 40
0.3333333333333333
 40
0.3333333333333333
 40
0.4444444444444444
 40
0.4444444444444444
 40
0.4444444444444444
 40
0.4444444444444444
 40
0.5555555555555556
 40
0.5555555555555556
 40
0.5555555555555556
 40
0.5555555555555556
 40
0.6666666666666666
 40
0.6666666666666666
 40
0.6666666666666666
 40
0.6666666666666666
 40
0.7777777777777778
 40
0.7777777777777778
 40
0.7777777777777778
 40
0.7777777777777778
 40
1.0
 40
1.0
 40
1.0
 40
1.0
 10
-175.2359
 20
121.7861
 30
0.0
 10
-175.2359
 20
121.7861
 30
0.0
 10
-155.0417
 20
121.7861
 30
0.0
 10
-155.0417
 20
121.7861
 30
0.0
 10
-155.0417
 20
121.7861
 30
0.0
 10
-154.2181
 20
121.7861
 30
0.0
 10
-153.555
 20
121.123
 30
0.0
 10
-153.555
 20
120.2994
 30
0.0
 10
-153.555
 20
120.2994
 30
0.0
 10
-153.555
 20
120.2994
 30
0.0
 10
-153.555
 20
100.1052
 30
0.0
 10
-153.555
 20
100.1052
 30
0.0
 10
-153.555
 20
100.1052
 30
0.0
 10
-153.555
 20
99.2816
 30
0.0
 10
-154.2181
 20
98.6185
 30
0.0
 10
-155.0417
 20
98.6185
 30
0.0
 10
-155.0417
 20
98.6185
 30
0.0
 10
-155.0417
 20
98.6185
 30
0.0
 10
-175.2359
 20
98.6185
 30
0.0
 10
-175.2359
 20
98.6185
 30
0.0
 10
-175.2359
 20
98.6185
 30
0.0
 10
-176.0595
 20
98.6185
 30
0.0
 10
-176.7226
 20
99.2816
 30
0.0
 10
-176.7226
 20
100.1052
 30
0.0
 10
-176.7226
 20
100.1052
 30
0.0
 10
-176.7226
 20
100.1052
 30
0.0
 10
-176.7226
 20
120.2994
 30
0.0
 10
-176.7226
 20
120.2994
 30
0.0
 10
-176.7226
 20
120.2994
 30
0.0
 10
-176.7226
 20
121.123
 30
0.0
 10
-176.0595
 20
121.7861
 30
0.0
 10
-175.2359
 20
121.7861
 30
0.0
  0
SPLINE
  5
6A
330
1F
100
AcDbEntity
  8
layer 1
 62
     7
100
AcDbSpline
210
0.0
220
0.0
230
1.0
 70
    11
 71
     3
 72
    68
 73
    64
 74
     0
 42
0.0000000001
 43
0.0000000001
 12
1.0
 22
0.0
 32
0.0
 13
1.0
 23
0.0
 33
0.0
 40
0.0
 40
0.0
 40
0.0
 40
0.0
 40
0.0588235294117647
 40
0.0588235294117647
 40
0.0588235294117647
 40
0.0588235294117647
 40
0.1176470588235294
 40
0.1176470588235294
 40
0.1176470588235294
 40
0.1176470588235294
 40
0.1764705882352941
 40
0.1764705882352941
 40
0.1764705882352941
 40
0.1764705882352941
 40
0.2352941176470588
 40
0.2352941176470588
 40
0.2352941176470588
 40
0.2352941176470588
 40
0.2941176470588235
 40
0.2941176470588235
 40
0.2941176470588235
 40
0.2941176470588235
 40
0.3529411764705883
 40
0.3529411764705883
 40
0.3529411764705883
 40
0.3529411764705883
 40
0.4117647058823529
 40
0.4117647058823529
 40
0.4117647058823529
 40
0.4117647058823529
 40
0.4705882352941176
 40
0.4705882352941176
 40
0.4705882352941176
 40
0.4705882352941176
 40
0.5294117647058824
 40
0.5294117647058824
 40
0.5294117647058824
 40
0.5294117647058824
 40
0.5882352941176471
 40
0.5882352941176471
 40
0.5882352941176471
 40
0.5882352941176471
 40
0.6470588235294118
 40
0.6470588235294118
 40
0.6470588235294118
 40
0.6470588235294118
 40
0.7058823529411765
 40
0.7058823529411765
 40
0.7058823529411765
 40
0.7058823529411765
 40
0.7647058823529411
 40
0.7647058823529411
 40
0.7647058823529411
 40
0.7647058823529411
 40
0.8235294117647058
 40
0.8235294117647058
 40
0.8235294117647058
 40
0.8235294117647058
 40
0.8823529411764706
 40
0.8823529411764706
 40
0.8823529411764706
 40
0.8823529411764706
 40
1.0
 40
1.0
 40
1.0
 40
1.0
 10
-134.0564
 20
95.3973
 30
0.0
 10
-134.0564
 20
95.3973
 30
0.0
 10
-142.0403
 20
95.3973
 30
0.0
 10
-142.0403
 20
95.3973
 30
0.0
 10
-142.0403
 20
95.3973
 30
0.0
 10
-144.923
 20
95.3973
 30
0.0
 10
-147.2437
 20
97.7181
 30
0.0
 10
-147.2437
 20
100.6008
 30
0.0
 10
-147.2437
 20
100.6008
 30
0.0
 10
-147.2437
 20
100.6008
 30
0.0
 10
-147.2773
 20
108.883
 30
0.0
 10
-147.2773
 20
108.883
 30
0.0
 10
-147.2773
 20
108.883
 30
0.0
 10
-147.2773
 20
108.883
 30
0.0
 10
-150.4577
 20
108.8772
 30
0.0
 10
-150.4577
 20
108.8772
 30
0.0
 10
-150.4577
 20
108.8772
 30
0.0
 10
-150.4577
 20
108.8772
 30
0.0
 10
-150.4577
 20
100.6008
 30
0.0
 10
-150.4577
 20
100.6008
 30
0.0
 10
-150.4577
 20
100.6008
 30
0.0
 10
-150.4577
 20
97.7182
 30
0.0
 10
-152.7785
 20
95.3974
 30
0.0
 10
-155.6611
 20
95.3974
 30
0.0
 10
-155.6611
 20
95.3974
 30
0.0
 10
-155.6611
 20
95.3974
 30
0.0
 10
-163.5339
 20
95.3974
 30
0.0
 10
-163.5339
 20
95.3974
 30
0.0
 10
-163.5339
 20
95.3974
 30
0.0
 10
-163.5339
 20
95.3974
 30
0.0
 10
-163.5242
 20
92.3095
 30
0.0
 10
-163.5242
 20
92.3095
 30
0.0
 10
-163.5242
 20
92.3095
 30
0.0
 10
-163.5242
 20
92.3095
 30
0.0
 10
-155.6611
 20
92.3095
 30
0.0
 10
-155.6611
 20
92.3095
 30
0.0
 10
-155.6611
 20
92.3095
 30
0.0
 10
-152.7785
 20
92.3095
 30
0.0
 10
-150.4577
 20
89.9888
 30
0.0
 10
-150.4577
 20
87.1061
 30
0.0
 10
-150.4577
 20
87.1061
 30
0.0
 10
-150.4577
 20
87.1061
 30
0.0
 10
-150.4577
 20
79.2383
 30
0.0
 10
-150.4577
 20
79.2383
 30
0.0
 10
-150.4577
 20
79.2383
 30
0.0
 10
-150.4577
 20
79.2383
 30
0.0
 10
-147.2437
 20
79.2392
 30
0.0
 10
-147.2437
 20
79.2392
 30
0.0
 10
-147.2437
 20
79.2392
 30
0.0
 10
-147.2437
 20
79.2392
 30
0.0
 10
-147.2437
 20
87.106
 30
0.0
 10
-147.2437
 20
87.106
 30
0.0
 10
-147.2437
 20
87.106
 30
0.0
 10
-147.2437
 20
89.9887
 30
0.0
 10
-144.923
 20
92.3094
 30
0.0
 10
-142.0403
 20
92.3094
 30
0.0
 10
-142.0403
 20
92.3094
 30
0.0
 10
-142.0403
 20
92.3094
 30
0.0
 10
-134.0564
 20
92.3094
 30
0.0
 10
-134.0564
 20
92.3094
 30
0.0
 10
-134.0564
 20
92.3094
 30
0.0
 10
-134.0564
 20
92.3094
 30
0.0
 10
-134.0564
 20
95.3973
 30
0.0
 10
-134.0564
 20
95.3973
 30
0.0
  0
SPLINE
  5
6B
330
1F
100
AcDbEntity
  8
layer 1
 62
     7
100
AcDbSpline
210
0.0
220
0.0
230
1.0
 70
    11
 71
     3
 72
    36
 73
    32
 74
     0
 42
0.0000000001
 43
0.0000000001
 12
1.0
 22
0.0
 32
0.0
 13
1.0
 23
0.0
 33
0.0
 40
0.0
 40
0.0
 40
0.0
 40
0.0
 40
0.1111111111111111
 40
0.1111111111111111
 40
0.1111111111111111
 40
0.1111111111111111
 40
0.2222222222222222
 40
0.2222222222222222
 40
0.2222222222222222
 40
0.2222222222222222
 40
0.3333333333333333
 40
0.3333333333333333
 40
0.3333333333333333
 40
0.3333333333333333
 40
0.4444444444444444
 40
0.4444444444444444
 40
0.4444444444444444
 40
0.4444444444444444
 40
0.5555555555555556
 40
0.5555555555555556
 40
0.5555555555555556
 40
0.5555555555555556
 40
0.6666666666666666
 40
0.6666666666666666
 40
0.6666666666666666
 40
0.6666666666666666
 40
0.7777777777777778
 40
0.7777777777777778
 40
0.7777777777777778
 40
0.7777777777777778
 40
1.0
 40
1.0
 40
1.0
 40
1.0
 10
-142.6598
 20
121.7861
 30
0.0
 10
-142.6598
 20
121.7861
 30
0.0
 10
-122.4656
 20
121.7861
 30
0.0
 10
-122.4656
 20
121.7861
 30
0.0
 10
-122.4656
 20
121.7861
 30
0.0
 10
-121.642
 20
121.7861
 30
0.0
 10
-120.979
 20
121.123
 30
0.0
 10
-120.979
 20
120.2994
 30
0.0
 10
-120.979
 20
120.2994
 30
0.0
 10
-120.979
 20
120.2994
 30
0.0
 10
-120.979
 20
100.1052
 30
0.0
 10
-120.979
 20
100.1052
 30
0.0
 10
-120.979
 20
100.1052
 30
0.0
 10
-120.979
 20
99.2816
 30
0.0
 10
-121.642
 20
98.6185
 30
0.0
 10
-122.4656
 20
98.6185
 30
0.0
 10
-122.4656
 20
98.6185
 30
0.0
 10
-122.4656
 20
98.6185
 30
0.0
 10
-142.6598
 20
98.6185
 30
0.0
 10
-142.6598
 20
98.6185
 30
0.0
 10
-142.6598
 20
98.6185
 30
0.0
 10
-143.4835
 20
98.6185
 30
0.0
 10
-144.1465
 20
99.2816
 30
0.0
 10
-144.1465
 20
100.1052
 30
0.0
 10
-144.1465
 20
100.1052
 30
0.0
 10
-144.1465
 20
100.1052
 30
0.0
 10
-144.1465
 20
120.2994
 30
0.0
 10
-144.1465
 20
120.2994
 30
0.0
 10
-144.1465
 20
120.2994
 30
0.0
 10
-144.1465
 20
121.123
 30
0.0
 10
-143.4835
 20
121.7861
 30
0.0
 10
-142.6598
 20
121.7861
 30
0.0
  0
SPLINE
  5
6C
330
1F
100
AcDbEntity
  8
layer 1
 62
     7
100
AcDbSpline
210
0.0
220
0.0
230
1.0
 70
    11
 71
     3
 72
    36
 73
    32
 74
     0
 42
0.0000000001
 43
0.0000000001
 12
1.0
 22
0.0
 32
0.0
 13
1.0
 23
0.0
 33
0.0
 40
0.0
 40
0.0
 40
0.0
 40
0.0
 40
0.1111111111111111
 40
0.1111111111111111
 40
0.1111111111111111
 40
0.1111111111111111
 40
0.2222222222222222
 40
0.2222222222222222
 40
0.2222222222222222
 40
0.2222222222222222
 40
0.3333333333333333
 40
0.3333333333333333
 40
0.3333333333333333
 40
0.3333333333333333
 40
0.4444444444444444
 40
0.4444444444444444
 40
0.4444444444444444
 40
0.4444444444444444
 40
0.5555555555555556
 40
0.5555555555555556
 40
0.5555555555555556
 40
0.5555555555555556
 40
0.6666666666666666
 40
0.6666666666666666
 40
0.6666666666666666
 40
0.6666666666666666
 40
0.7777777777777778
 40
0.7777777777777778
 40
0.7777777777777778
 40
0.7777777777777778
 40
1.0
 40
1.0
 40
1.0
 40
1.0
 10
-110.0837
 20
121.7861
 30
0.0
 10
-110.0837
 20
121.7861
 30
0.0
 10
-89.8895
 20
121.7861
 30
0.0
 10
-89.8895
 20
121.7861
 30
0.0
 10
-89.8895
 20
121.7861
 30
0.0
 10
-89.0659
 20
121.7861
 30
0.0
 10
-88.4028
 20
121.123
 30
0.0
 10
-88.4028
 20
120.2994
 30
0.0
 10
-88.4028
 20
120.2994
 30
0.0
 10
-88.4028
 20
120.2994
 30
0.0
 10
-88.4028
 20
100.1052
 30
0.0
 10
-88.4028
 20
100.1052
 30
0.0
 10
-88.4028
 20
100.1052
 30
0.0
 10
-88.4028
 20
99.2816
 30
0.0
 10
-89.0659
 20
98.6185
 30
0.0
 10
-89.8895
 20
98.6185
 30
0.0
 10
-89.8895
 20
98.6185
 30
0.0
 10
-89.8895
 20
98.6185
 30
0.0
 10
-110.0837
 20
98.6185
 30
0.0
 10
-110.0837
 20
98.6185
 30
0.0
 10
-110.0837
 20
98.6185
 30
0.0
 10
-110.9073
 20
98.6185
 30
0.0
 10
-111.5704
 20
99.2816
 30
0.0
 10
-111.5704
 20
100.1052
 30
0.0
 10
-111.5704
 20
100.1052
 30
0.0
 10
-111.5704
 20
100.1052
 30
0.0
 10
-111.5704
 20
120.2994
 30
0.0
 10
-111.5704
 20
120.2994
 30
0.0
 10
-111.5704
 20
120.2994
 30
0.0
 10
-111.5704
 20
121.123
 30
0.0
 10
-110.9073
 20
121.7861
 30
0.0
 10
-110.0837
 20
121.7861
 30
0.0
  0
SPLINE
  5
6D
330
1F
100
AcDbEntity
  8
layer 1
 62
     7
100
AcDbSpline
210
0.0
220
0.0
230
1.0
 70
    11
 71
     3
 72
    44
 73
    40
 74
     0
 42
0.0000000001
 43
0.0000000001
 12
1.0
 22
0.0
 32
0.0
 13
1.0
 23
0.0
 33
0.0
 40
0.0
 40
0.0
 40
0.0
 40
0.0
 40
0.0909090909090909
 40
0.0909090909090909
 40
0.0909090909090909
 40
0.0909090909090909
 40
0.1818181818181818
 40
0.1818181818181818
 40
0.1818181818181818
 40
0.1818181818181818
 40
0.2727272727272727
 40
0.2727272727272727
 40
0.2727272727272727
 40
0.2727272727272727
 40
0.3636363636363636
 40
0.3636363636363636
 40
0.3636363636363636
 40
0.3636363636363636
 40
0.4545454545454545
 40
0.4545454545454545
 40
0.4545454545454545
 40
0.4545454545454545
 40
0.5454545454545454
 40
0.5454545454545454
 40
0.5454545454545454
 40
0.5454545454545454
 40
0.6363636363636364
 40
0.6363636363636364
 40
0.6363636363636364
 40
0.6363636363636364
 40
0.7272727272727273
 40
0.7272727272727273
 40
0.7272727272727273
 40
0.7272727272727273
 40
0.8181818181818182
 40
0.8181818181818182
 40
0.8181818181818182
 40
0.8181818181818182
 40
1.0
 40
1.0
 40
1.0
 40
1.0
 10
-183.1206
 20
108.7875
 30
0.0
 10
-183.1206
 20
108.7875
 30
0.0
 10
-183.1412
 20
79.2392
 30
0.0
 10
-183.1412
 20
79.2392
 30
0.0
 10
-183.1412
 20
79.2392
 30
0.0
 10
-183.1412
 20
79.2392
 30
0.0
 10
-179.8199
 20
79.2392
 30
0.0
 10
-179.8199
 20
79.2392
 30
0.0
 10
-179.8199
 20
79.2392
 30
0.0
 10
-179.8199
 20
79.2392
 30
0.0
 10
-179.8199
 20
87.106
 30
0.0
 10
-179.8199
 20
87.106
 30
0.0
 10
-179.8199
 20
87.106
 30
0.0
 10
-179.8199
 20
89.9887
 30
0.0
 10
-177.4991
 20
92.3094
 30
0.0
 10
-174.6164
 20
92.3094
 30
0.0
 10
-174.6164
 20
92.3094
 30
0.0
 10
-174.6164
 20
92.3094
 30
0.0
 10
-166.6325
 20
92.3094
 30
0.0
 10
-166.6325
 20
92.3094
 30
0.0
 10
-166.6325
 20
92.3094
 30
0.0
 10
-166.6325
 20
92.3094
 30
0.0
 10
-166.6325
 20
95.3973
 30
0.0
 10
-166.6325
 20
95.3973
 30
0.0
 10
-166.6325
 20
95.3973
 30
0.0
 10
-166.6325
 20
95.3973
 30
0.0
 10
-174.6164
 20
95.3973
 30
0.0
 10
-174.6164
 20
95.3973
 30
0.0
 10
-174.6164
 20
95.3973
 30
0.0
 10
-177.4991
 20
95.3973
 30
0.0
 10
-179.8199
 20
97.7181
 30
0.0
 10
-179.8199
 20
100.6008
 30
0.0
 10
-179.8199
 20
100.6008
 30
0.0
 10
-179.8199
 20
100.6008
 30
0.0
 10
-179.8199
 20
108.8494
 30
0.0
 10
-179.8199
 20
108.8494
 30
0.0
 10
-179.8199
 20
108.8494
 30
0.0
 10
-179.8199
 20
108.8494
 30
0.0
 10
-183.1206
 20
108.7875
 30
0.0
 10
-183.1206
 20
108.7875
 30
0.0
  0
SPLINE
  5
6E
330
1F
100
AcDbEntity
  8
layer 1
 62
     7
100
AcDbSpline
210
0.0
220
0.0
230
1.0
 70
    11
 71
     3
 72
    36
 73
    32
 74
     0
 42
0.0000000001
 43
0.0000000001
 12
1.0
 22
0.0
 32
0.0
 13
1.0
 23
0.0
 33
0.0
 40
0.0
 40
0.0
 40
0.0
 40
0.0
 40
0.1111111111111111
 40
0.1111111111111111
 40
0.1111111111111111
 40
0.1111111111111111
 40
0.2222222222222222
 40
0.2222222222222222
 40
0.2222222222222222
 40
0.2222222222222222
 40
0.3333333333333333
 40
0.3333333333333333
 40
0.3333333333333333
 40
0.3333333333333333
 40
0.4444444444444444
 40
0.4444444444444444
 40
0.4444444444444444
 40
0.4444444444444444
 40
0.5555555555555556
 40
0.5555555555555556
 40
0.5555555555555556
 40
0.5555555555555556
 40
0.6666666666666666
 40
0.6666666666666666
 40
0.6666666666666666
 40
0.6666666666666666
 40
0.7777777777777778
 40
0.7777777777777778
 40
0.7777777777777778
 40
0.7777777777777778
 40
1.0
 40
1.0
 40
1.0
 40
1.0
 10
-175.2359
 20
89.3361
 30
0.0
 10
-175.2359
 20
89.3361
 30
0.0
 10
-155.0417
 20
89.3361
 30
0.0
 10
-155.0417
 20
89.3361
 30
0.0
 10
-155.0417
 20
89.3361
 30
0.0
 10
-154.2181
 20
89.3361
 30
0.0
 10
-153.555
 20
88.673
 30
0.0
 10
-153.555
 20
87.8494
 30
0.0
 10
-153.555
 20
87.8494
 30
0.0
 10
-153.555
 20
87.8494
 30
0.0
 10
-153.555
 20
67.6552
 30
0.0
 10
-153.555
 20
67.6552
 30
0.0
 10
-153.555
 20
67.6552
 30
0.0
 10
-153.555
 20
66.8316
 30
0.0
 10
-154.2181
 20
66.1685
 30
0.0
 10
-155.0417
 20
66.1685
 30
0.0
 10
-155.0417
 20
66.1685
 30
0.0
 10
-155.0417
 20
66.1685
 30
0.0
 10
-175.2359
 20
66.1685
 30
0.0
 10
-175.2359
 20
66.1685
 30
0.0
 10
-175.2359
 20
66.1685
 30
0.0
 10
-176.0595
 20
66.1685
 30
0.0
 10
-176.7226
 20
66.8316
 30
0.0
 10
-176.7226
 20
67.6552
 30
0.0
 10
-176.7226
 20
67.6552
 30
0.0
 10
-176.7226
 20
67.6552
 30
0.0
 10
-176.7226
 20
87.8494
 30
0.0
 10
-176.7226
 20
87.8494
 30
0.0
 10
-176.7226
 20
87.8494
 30
0.0
 10
-176.7226
 20
88.673
 30
0.0
 10
-176.0595
 20
89.3361
 30
0.0
 10
-175.2359
 20
89.3361
 30
0.0
  0
SPLINE
  5
6F
330
1F
100
AcDbEntity
  8
layer 1
 62
     7
100
AcDbSpline
210
0.0
220
0.0
230
1.0
 70
    11
 71
     3
 72
    36
 73
    32
 74
     0
 42
0.0000000001
 43
0.0000000001
 12
1.0
 22
0.0
 32
0.0
 13
1.0
 23
0.0
 33
0.0
 40
0.0
 40
0.0
 40
0.0
 40
0.0
 40
0.1111111111111111
 40
0.1111111111111111
 40
0.1111111111111111
 40
0.1111111111111111
 40
0.2222222222222222
 40
0.2222222222222222
 40
0.2222222222222222
 40
0.2222222222222222
 40
0.3333333333333333
 40
0.3333333333333333
 40
0.3333333333333333
 40
0.3333333333333333
 40
0.4444444444444444
 40
0.4444444444444444
 40
0.4444444444444444
 40
0.4444444444444444
 40
0.5555555555555556
 40
0.5555555555555556
 40
0.5555555555555556
 40
0.5555555555555556
 40
0.6666666666666666
 40
0.6666666666666666
 40
0.6666666666666666
 40
0.6666666666666666
 40
0.7777777777777778
 40
0.7777777777777778
 40
0.7777777777777778
 40
0.7777777777777778
 40
1.0
 40
1.0
 40
1.0
 40
1.0
 10
-142.6598
 20
89.3361
 30
0.0
 10
-142.6598
 20
89.3361
 30
0.0
 10
-122.4656
 20
89.3361
 30
0.0
 10
-122.4656
 20
89.3361
 30
0.0
 10
-122.4656
 20
89.3361
 30
0.0
 10
-121.642
 20
89.3361
 30
0.0
 10
-120.979
 20
88.673
 30
0.0
 10
-120.979
 20
87.8494
 30
0.0
 10
-120.979
 20
87.8494
 30
0.0
 10
-120.979
 20
87.8494
 30
0.0
 10
-120.979
 20
67.6552
 30
0.0
 10
-120.979
 20
67.6552
 30
0.0
 10
-120.979
 20
67.6552
 30
0.0
 10
-120.979
 20
66.8316
 30
0.0
 10
-121.642
 20
66.1685
 30
0.0
 10
-122.4656
 20
66.1685
 30
0.0
 10
-122.4656
 20
66.1685
 30
0.0
 10
-122.4656
 20
66.1685
 30
0.0
 10
-142.6598
 20
66.1685
 30
0.0
 10
-142.6598
 20
66.1685
 30
0.0
 10
-142.6598
 20
66.1685
 30
0.0
 10
-143.4835
 20
66.1685
 30
0.0
 10
-144.1465
 20
66.8316
 30
0.0
 10
-144.1465
 20
67.6552
 30
0.0
 10
-144.1465
 20
67.6552
 30
0.0
 10
-144.1465
 20
67.6552
 30
0.0
 10
-144.1465
 20
87.8494
 30
0.0
 10
-144.1465
 20
87.8494
 30
0.0
 10
-144.1465
 20
87.8494
 30
0.0
 10
-144.1465
 20
88.673
 30
0.0
 10
-143.4835
 20
89.3361
 30
0.0
 10
-142.6598
 20
89.3361
 30
0.0
  0
SPLINE
  5
70
330
1F
100
AcDbEntity
  8
layer 1
 62
     7
100
AcDbSpline
210
0.0
220
0.0
230
1.0
 70
    11
 71
     3
 72
    36
 73
    32
 74
     0
 42
0.0000000001
 43
0.0000000001
 12
1.0
 22
0.0
 32
0.0
 13
1.0
 23
0.0
 33
0.0
 40
0.0
 40
0.0
 40
0.0
 40
0.0
 40
0.1111111111111111
 40
0.1111111111111111
 40
0.1111111111111111
 40
0.1111111111111111
 40
0.2222222222222222
 40
0.2222222222222222
 40
0.2222222222222222
 40
0.2222222222222222
 40
0.3333333333333333
 40
0.3333333333333333
 40
0.3333333333333333
 40
0.3333333333333333
 40
0.4444444444444444
 40
0.4444444444444444
 40
0.4444444444444444
 40
0.4444444444444444
 40
0.5555555555555556
 40
0.5555555555555556
 40
0.5555555555555556
 40
0.5555555555555556
 40
0.6666666666666666
 40
0.6666666666666666
 40
0.6666666666666666
 40
0.6666666666666666
 40
0.7777777777777778
 40
0.7777777777777778
 40
0.7777777777777778
 40
0.7777777777777778
 40
1.0
 40
1.0
 40
1.0
 40
1.0
 10
-110.0837
 20
89.3361
 30
0.0
 10
-110.0837
 20
89.3361
 30
0.0
 10
-89.8895
 20
89.3361
 30
0.0
 10
-89.8895
 20
89.3361
 30
0.0
 10
-89.8895
 20
89.3361
 30
0.0
 10
-89.0659
 20
89.3361
 30
0.0
 10
-88.4028
 20
88.673
 30
0.0
 10
-88.4028
 20
87.8494
 30
0.0
 10
-88.4028
 20
87.8494
 30
0.0
 10
-88.4028
 20
87.8494
 30
0.0
 10
-88.4028
 20
67.6552
 30
0.0
 10
-88.4028
 20
67.6552
 30
0.0
 10
-88.4028
 20
67.6552
 30
0.0
 10
-88.4028
 20
66.8316
 30
0.0
 10
-89.0659
 20
66.1685
 30
0.0
 10
-89.8895
 20
66.1685
 30
0.0
 10
-89.8895
 20
66.1685
 30
0.0
 10
-89.8895
 20
66.1685
 30
0.0
 10
-110.0837
 20
66.1685
 30
0.0
 10
-110.0837
 20
66.1685
 30
0.0
 10
-110.0837
 20
66.1685
 30
0.0
 10
-110.9073
 20
66.1685
 30
0.0
 10
-111.5704
 20
66.8316
 30
0.0
 10
-111.5704
 20
67.6552
 30
0.0
 10
-111.5704
 20
67.6552
 30
0.0
 10
-111.5704
 20
67.6552
 30
0.0
 10
-111.5704
 20
87.8494
 30
0.0
 10
-111.5704
 20
87.8494
 30
0.0
 10
-111.5704
 20
87.8494
 30
0.0
 10
-111.5704
 20
88.673
 30
0.0
 10
-110.9073
 20
89.3361
 30
0.0
 10
-110.0837
 20
89.3361
 30
0.0
  0
SPLINE
  5
71
330
1F
100
AcDbEntity
  8
layer 1
 62
     7
100
AcDbSpline
210
0.0
220
0.0
230
1.0
 70
    11
 71
     3
 72
    36
 73
    32
 74
     0
 42
0.0000000001
 43
0.0000000001
 12
1.0
 22
0.0
 32
0.0
 13
1.0
 23
0.0
 33
0.0
 40
0.0
 40
0.0
 40
0.0
 40
0.0
 40
0.1111111111111111
 40
0.1111111111111111
 40
0.1111111111111111
 40
0.1111111111111111
 40
0.2222222222222222
 40
0.2222222222222222
 40
0.2222222222222222
 40
0.2222222222222222
 40
0.3333333333333333
 40
0.3333333333333333
 40
0.3333333333333333
 40
0.3333333333333333
 40
0.4444444444444444
 40
0.4444444444444444
 40
0.4444444444444444
 40
0.4444444444444444
 40
0.5555555555555556
 40
0.5555555555555556
 40
0.5555555555555556
 40
0.5555555555555556
 40
0.6666666666666666
 40
0.6666666666666666
 40
0.6666666666666666
 40
0.6666666666666666
 40
0.7777777777777778
 40
0.7777777777777778
 40
0.7777777777777778
 40
0.7777777777777778
 40
1.0
 40
1.0
 40
1.0
 40
1.0
 10
-175.2359
 20
-40.8881
 30
0.0
 10
-175.2359
 20
-40.8881
 30
0.0
 10
-155.0417
 20
-40.8881
 30
0.0
 10
-155.0417
 20
-40.8881
 30
0.0
 10
-155.0417
 20
-40.8881
 30
0.0
 10
-154.2181
 20
-40.8881
 30
0.0
 10
-153.555
 20
-41.5511
 30
0.0
 10
-153.555
 20
-42.3748
 30
0.0
 10
-153.555
 20
-42.3748
 30
0.0
 10
-153.555
 20
-42.3748
 30
0.0
 10
-153.555
 20
-62.569
 30
0.0
 10
-153.555
 20
-62.569
 30
0.0
 10
-153.555
 20
-62.569
 30
0.0
 10
-153.555
 20
-63.3926
 30
0.0
 10
-154.2181
 20
-64.0556
 30
0.0
 10
-155.0417
 20
-64.0556
 30
0.0
 10
-155.0417
 20
-64.0556
 30
0.0
 10
-155.0417
 20
-64.0556
 30
0.0
 10
-175.2359
 20
-64.0556
 30
0.0
 10
-175.2359
 20
-64.0556
 30
0.0
 10
-175.2359
 20
-64.0556
 30
0.0
 10
-176.0595
 20
-64.0556
 30
0.0
 10
-176.7226
 20
-63.3926
 30
0.0
 10
-176.7226
 20
-62.569
 30
0.0
 10
-176.7226
 20
-62.569
 30
0.0
 10
-176.7226
 20
-62.569
 30
0.0
 10
-176.7226
 20
-42.3748
 30
0.0
 10
-176.7226
 20
-42.3748
 30
0.0
 10
-176.7226
 20
-42.3748
 30
0.0
 10
-176.7226
 20
-41.5511
 30
0.0
 10
-176.0595
 20
-40.8881
 30
0.0
 10
-175.2359
 20
-40.8881
 30
0.0
  0
SPLINE
  5
72
330
1F
100
AcDbEntity
  8
layer 1
 62
     7
100
AcDbSpline
210
0.0
220
0.0
230
1.0
 70
    11
 71
     3
 72
    36
 73
    32
 74
     0
 42
0.0000000001
 43
0.0000000001
 12
1.0
 22
0.0
 32
0.0
 13
1.0
 23
0.0
 33
0.0
 40
0.0
 40
0.0
 40
0.0
 40
0.0
 40
0.1111111111111111
 40
0.1111111111111111
 40
0.1111111111111111
 40
0.1111111111111111
 40
0.2222222222222222
 40
0.2222222222222222
 40
0.2222222222222222
 40
0.2222222222222222
 40
0.3333333333333333
 40
0.3333333333333333
 40
0.3333333333333333
 40
0.3333333333333333
 40
0.4444444444444444
 40
0.4444444444444444
 40
0.4444444444444444
 40
0.4444444444444444
 40
0.5555555555555556
 40
0.5555555555555556
 40
0.5555555555555556
 40
0.5555555555555556
 40
0.6666666666666666
 40
0.6666666666666666
 40
0.6666666666666666
 40
0.6666666666666666
 40
0.7777777777777778
 40
0.7777777777777778
 40
0.7777777777777778
 40
0.7777777777777778
 40
1.0
 40
1.0
 40
1.0
 40
1.0
 10
-142.6598
 20
-40.8881
 30
0.0
 10
-142.6598
 20
-40.8881
 30
0.0
 10
-122.4656
 20
-40.8881
 30
0.0
 10
-122.4656
 20
-40.8881
 30
0.0
 10
-122.4656
 20
-40.8881
 30
0.0
 10
-121.642
 20
-40.8881
 30
0.0
 10
-120.979
 20
-41.5511
 30
0.0
 10
-120.979
 20
-42.3748
 30
0.0
 10
-120.979
 20
-42.3748
 30
0.0
 10
-120.979
 20
-42.3748
 30
0.0
 10
-120.979
 20
-62.569
 30
0.0
 10
-120.979
 20
-62.569
 30
0.0
 10
-120.979
 20
-62.569
 30
0.0
 10
-120.979
 20
-63.3926
 30
0.0
 10
-121.642
 20
-64.0556
 30
0.0
 10
-122.4656
 20
-64.0556
 30
0.0
 10
-122.4656
 20
-64.0556
 30
0.0
 10
-122.4656
 20
-64.0556
 30
0.0
 10
-142.6598
 20
-64.0556
 30
0.0
 10
-142.6598
 20
-64.0556
 30
0.0
 10
-142.6598
 20
-64.0556
 30
0.0
 10
-143.4835
 20
-64.0556
 30
0.0
 10
-144.1465
 20
-63.3926
 30
0.0
 10
-144.1465
 20
-62.569
 30
0.0
 10
-144.1465
 20
-62.569
 30
0.0
 10
-144.1465
 20
-62.569
 30
0.0
 10
-144.1465
 20
-42.3748
 30
0.0
 10
-144.1465
 20
-42.3748
 30
0.0
 10
-144.1465
 20
-42.3748
 30
0.0
 10
-144.1465
 20
-41.5511
 30
0.0
 10
-143.4835
 20
-40.8881
 30
0.0
 10
-142.6598
 20
-40.8881
 30
0.0
  0
SPLINE
  5
73
330
1F
100
AcDbEntity
  8
layer 1
 62
     7
100
AcDbSpline
210
0.0
220
0.0
230
1.0
 70
    11
 71
     3
 72
    36
 73
    32
 74
     0
 42
0.0000000001
 43
0.0000000001
 12
1.0
 22
0.0
 32
0.0
 13
1.0
 23
0.0
 33
0.0
 40
0.0
 40
0.0
 40
0.0
 40
0.0
 40
0.1111111111111111
 40
0.1111111111111111
 40
0.1111111111111111
 40
0.1111111111111111
 40
0.2222222222222222
 40
0.2222222222222222
 40
0.2222222222222222
 40
0.2222222222222222
 40
0.3333333333333333
 40
0.3333333333333333
 40
0.3333333333333333
 40
0.3333333333333333
 40
0.4444444444444444
 40
0.4444444444444444
 40
0.4444444444444444
 40
0.4444444444444444
 40
0.5555555555555556
 40
0.5555555555555556
 40
0.5555555555555556
 40
0.5555555555555556
 40
0.6666666666666666
 40
0.6666666666666666
 40
0.6666666666666666
 40
0.6666666666666666
 40
0.7777777777777778
 40
0.7777777777777778
 40
0.7777777777777778
 40
0.7777777777777778
 40
1.0
 40
1.0
 40
1.0
 40
1.0
 10
-110.0837
 20
-40.8881
 30
0.0
 10
-110.0837
 20
-40.8881
 30
0.0
 10
-89.8895
 20
-40.8881
 30
0.0
 10
-89.8895
 20
-40.8881
 30
0.0
 10
-89.8895
 20
-40.8881
 30
0.0
 10
-89.0659
 20
-40.8881
 30
0.0
 10
-88.4028
 20
-41.5511
 30
0.0
 10
-88.4028
 20
-42.3748
 30
0.0
 10
-88.4028
 20
-42.3748
 30
0.0
 10
-88.4028
 20
-42.3748
 30
0.0
 10
-88.4028
 20
-62.569
 30
0.0
 10
-88.4028
 20
-62.569
 30
0.0
 10
-88.4028
 20
-62.569
 30
0.0
 10
-88.4028
 20
-63.3926
 30
0.0
 10
-89.0659
 20
-64.0556
 30
0.0
 10
-89.8895
 20
-64.0556
 30
0.0
 10
-89.8895
 20
-64.0556
 30
0.0
 10
-89.8895
 20
-64.0556
 30
0.0
 10
-110.0837
 20
-64.0556
 30
0.0
 10
-110.0837
 20
-64.0556
 30
0.0
 10
-110.0837
 20
-64.0556
 30
0.0
 10
-110.9073
 20
-64.0556
 30
0.0
 10
-111.5704
 20
-63.3926
 30
0.0
 10
-111.5704
 20
-62.569
 30
0.0
 10
-111.5704
 20
-62.569
 30
0.0
 10
-111.5704
 20
-62.569
 30
0.0
 10
-111.5704
 20
-42.3748
 30
0.0
 10
-111.5704
 20
-42.3748
 30
0.0
 10
-111.5704
 20
-42.3748
 30
0.0
 10
-111.5704
 20
-41.5511
 30
0.0
 10
-110.9073
 20
-40.8881
 30
0.0
 10
-110.0837
 20
-40.8881
 30
0.0
  0
SPLINE
  5
74
330
1F
100
AcDbEntity
  8
layer 1
 62
     7
100
AcDbSpline
210
0.0
220
0.0
230
1.0
 70
    11
 71
     3
 72
    36
 73
    32
 74
     0
 42
0.0000000001
 43
0.0000000001
 12
1.0
 22
0.0
 32
0.0
 13
1.0
 23
0.0
 33
0.0
 40
0.0
 40
0.0
 40
0.0
 40
0.0
 40
0.1111111111111111
 40
0.1111111111111111
 40
0.1111111111111111
 40
0.1111111111111111
 40
0.2222222222222222
 40
0.2222222222222222
 40
0.2222222222222222
 40
0.2222222222222222
 40
0.3333333333333333
 40
0.3333333333333333
 40
0.3333333333333333
 40
0.3333333333333333
 40
0.4444444444444444
 40
0.4444444444444444
 40
0.4444444444444444
 40
0.4444444444444444
 40
0.5555555555555556
 40
0.5555555555555556
 40
0.5555555555555556
 40
0.5555555555555556
 40
0.6666666666666666
 40
0.6666666666666666
 40
0.6666666666666666
 40
0.6666666666666666
 40
0.7777777777777778
 40
0.7777777777777778
 40
0.7777777777777778
 40
0.7777777777777778
 40
1.0
 40
1.0
 40
1.0
 40
1.0
 10
-175.2359
 20
-73.5607
 30
0.0
 10
-175.2359
 20
-73.5607
 30
0.0
 10
-155.0417
 20
-73.5607
 30
0.0
 10
-155.0417
 20
-73.5607
 30
0.0
 10
-155.0417
 20
-73.5607
 30
0.0
 10
-154.2181
 20
-73.5607
 30
0.0
 10
-153.555
 20
-74.2237
 30
0.0
 10
-153.555
 20
-75.0473
 30
0.0
 10
-153.555
 20
-75.0473
 30
0.0
 10
-153.555
 20
-75.0473
 30
0.0
 10
-153.555
 20
-95.2415
 30
0.0
 10
-153.555
 20
-95.2415
 30
0.0
 10
-153.555
 20
-95.2415
 30
0.0
 10
-153.555
 20
-96.0652
 30
0.0
 10
-154.2181
 20
-96.7282
 30
0.0
 10
-155.0417
 20
-96.7282
 30
0.0
 10
-155.0417
 20
-96.7282
 30
0.0
 10
-155.0417
 20
-96.7282
 30
0.0
 10
-175.2359
 20
-96.7282
 30
0.0
 10
-175.2359
 20
-96.7282
 30
0.0
 10
-175.2359
 20
-96.7282
 30
0.0
 10
-176.0595
 20
-96.7282
 30
0.0
 10
-176.7226
 20
-96.0652
 30
0.0
 10
-176.7226
 20
-95.2415
 30
0.0
 10
-176.7226
 20
-95.2415
 30
0.0
 10
-176.7226
 20
-95.2415
 30
0.0
 10
-176.7226
 20
-75.0473
 30
0.0
 10
-176.7226
 20
-75.0473
 30
0.0
 10
-176.7226
 20
-75.0473
 30
0.0
 10
-176.7226
 20
-74.2237
 30
0.0
 10
-176.0595
 20
-73.5607
 30
0.0
 10
-175.2359
 20
-73.5607
 30
0.0
  0
SPLINE
  5
75
330
1F
100
AcDbEntity
  8
layer 1
 62
     7
100
AcDbSpline
210
0.0
220
0.0
230
1.0
 70
    11
 71
     3
 72
    36
 73
    32
 74
     0
 42
0.0000000001
 43
0.0000000001
 12
1.0
 22
0.0
 32
0.0
 13
1.0
 23
0.0
 33
0.0
 40
0.0
 40
0.0
 40
0.0
 40
0.0
 40
0.1111111111111111
 40
0.1111111111111111
 40
0.1111111111111111
 40
0.1111111111111111
 40
0.2222222222222222
 40
0.2222222222222222
 40
0.2222222222222222
 40
0.2222222222222222
 40
0.3333333333333333
 40
0.3333333333333333
 40
0.3333333333333333
 40
0.3333333333333333
 40
0.4444444444444444
 40
0.4444444444444444
 40
0.4444444444444444
 40
0.4444444444444444
 40
0.5555555555555556
 40
0.5555555555555556
 40
0.5555555555555556
 40
0.5555555555555556
 40
0.6666666666666666
 40
0.6666666666666666
 40
0.6666666666666666
 40
0.6666666666666666
 40
0.7777777777777778
 40
0.7777777777777778
 40
0.7777777777777778
 40
0.7777777777777778
 40
1.0
 40
1.0
 40
1.0
 40
1.0
 10
-142.6598
 20
-73.5607
 30
0.0
 10
-142.6598
 20
-73.5607
 30
0.0
 10
-122.4656
 20
-73.5607
 30
0.0
 10
-122.4656
 20
-73.5607
 30
0.0
 10
-122.4656
 20
-73.5607
 30
0.0
 10
-121.642
 20
-73.5607
 30
0.0
 10
-120.979
 20
-74.2237
 30
0.0
 10
-120.979
 20
-75.0473
 30
0.0
 10
-120.979
 20
-75.0473
 30
0.0
 10
-120.979
 20
-75.0473
 30
0.0
 10
-120.979
 20
-95.2415
 30
0.0
 10
-120.979
 20
-95.2415
 30
0.0
 10
-120.979
 20
-95.2415
 30
0.0
 10
-120.979
 20
-96.0652
 30
0.0
 10
-121.642
 20
-96.7282
 30
0.0
 10
-122.4656
 20
-96.7282
 30
0.0
 10
-122.4656
 20
-96.7282
 30
0.0
 10
-122.4656
 20
-96.7282
 30
0.0
 10
-142.6598
 20
-96.7282
 30
0.0
 10
-142.6598
 20
-96.7282
 30
0.0
 10
-142.6598
 20
-96.7282
 30
0.0
 10
-143.4835
 20
-96.7282
 30
0.0
 10
-144.1465
 20
-96.0652
 30
0.0
 10
-144.1465
 20
-95.2415
 30
0.0
 10
-144.1465
 20
-95.2415
 30
0.0
 10
-144.1465
 20
-95.2415
 30
0.0
 10
-144.1465
 20
-75.0473
 30
0.0
 10
-144.1465
 20
-75.0473
 30
0.0
 10
-144.1465
 20
-75.0473
 30
0.0
 10
-144.1465
 20
-74.2237
 30
0.0
 10
-143.4835
 20
-73.5607
 30
0.0
 10
-142.6598
 20
-73.5607
 30
0.0
  0
SPLINE
  5
76
330
1F
100
AcDbEntity
  8
layer 1
 62
     7
100
AcDbSpline
210
0.0
220
0.0
230
1.0
 70
    11
 71
     3
 72
    36
 73
    32
 74
     0
 42
0.0000000001
 43
0.0000000001
 12
1.0
 22
0.0
 32
0.0
 13
1.0
 23
0.0
 33
0.0
 40
0.0
 40
0.0
 40
0.0
 40
0.0
 40
0.1111111111111111
 40
0.1111111111111111
 40
0.1111111111111111
 40
0.1111111111111111
 40
0.2222222222222222
 40
0.2222222222222222
 40
0.2222222222222222
 40
0.2222222222222222
 40
0.3333333333333333
 40
0.3333333333333333
 40
0.3333333333333333
 40
0.3333333333333333
 40
0.4444444444444444
 40
0.4444444444444444
 40
0.4444444444444444
 40
0.4444444444444444
 40
0.5555555555555556
 40
0.5555555555555556
 40
0.5555555555555556
 40
0.5555555555555556
 40
0.6666666666666666
 40
0.6666666666666666
 40
0.6666666666666666
 40
0.6666666666666666
 40
0.7777777777777778
 40
0.7777777777777778
 40
0.7777777777777778
 40
0.7777777777777778
 40
1.0
 40
1.0
 40
1.0
 40
1.0
 10
-110.0837
 20
-73.5607
 30
0.0
 10
-110.0837
 20
-73.5607
 30
0.0
 10
-89.8895
 20
-73.5607
 30
0.0
 10
-89.8895
 20
-73.5607
 30
0.0
 10
-89.8895
 20
-73.5607
 30
0.0
 10
-89.0659
 20
-73.5607
 30
0.0
 10
-88.4028
 20
-74.2237
 30
0.0
 10
-88.4028
 20
-75.0473
 30
0.0
 10
-88.4028
 20
-75.0473
 30
0.0
 10
-88.4028
 20
-75.0473
 30
0.0
 10
-88.4028
 20
-95.2415
 30
0.0
 10
-88.4028
 20
-95.2415
 30
0.0
 10
-88.4028
 20
-95.2415
 30
0.0
 10
-88.4028
 20
-96.0652
 30
0.0
 10
-89.0659
 20
-96.7282
 30
0.0
 10
-89.8895
 20
-96.7282
 30
0.0
 10
-89.8895
 20
-96.7282
 30
0.0
 10
-89.8895
 20
-96.7282
 30
0.0
 10
-110.0837
 20
-96.7282
 30
0.0
 10
-110.0837
 20
-96.7282
 30
0.0
 10
-110.0837
 20
-96.7282
 30
0.0
 10
-110.9073
 20
-96.7282
 30
0.0
 10
-111.5704
 20
-96.0652
 30
0.0
 10
-111.5704
 20
-95.2415
 30
0.0
 10
-111.5704
 20
-95.2415
 30
0.0
 10
-111.5704
 20
-95.2415
 30
0.0
 10
-111.5704
 20
-75.0473
 30
0.0
 10
-111.5704
 20
-75.0473
 30
0.0
 10
-111.5704
 20
-75.0473
 30
0.0
 10
-111.5704
 20
-74.2237
 30
0.0
 10
-110.9073
 20
-73.5607
 30
0.0
 10
-110.0837
 20
-73.5607
 30
0.0
  0
ENDSEC
  0
SECTION
  2
OBJECTS
  0
DICTIONARY
  5
C
330
0
100
AcDbDictionary
281
     1
  3
ACAD_GROUP
350
D
  3
ACAD_LAYOUT
350
1A
  3
ACAD_MATERIAL
350
3B
  3
ACAD_MLEADERSTYLE
350
98
  3
ACAD_MLINESTYLE
350
17
  3
ACAD_PLOTSETTINGS
350
19
  3
ACAD_PLOTSTYLENAME
350
E
  3
ACAD_TABLESTYLE
350
97
  3
ACAD_VISUALSTYLE
350
2A
  0
DICTIONARY
  5
D
102
{ACAD_REACTORS
330
C
102
}
330
C
100
AcDbDictionary
281
     1
  0
DICTIONARY
  5
1A
102
{ACAD_REACTORS
330
C
102
}
330
C
100
AcDbDictionary
281
     1
  3
Layout1
350
1E
  3
Layout2
350
26
  3
Model
350
22
  0
DICTIONARY
  5
3B
102
{ACAD_REACTORS
330
C
102
}
330
C
100
AcDbDictionary
281
     1
  3
ByBlock
350
3D
  3
ByLayer
350
3C
  3
Global
350
3E
  0
DICTIONARY
  5
98
102
{ACAD_REACTORS
330
C
102
}
330
C
100
AcDbDictionary
281
     1
  0
DICTIONARY
  5
17
102
{ACAD_REACTORS
330
C
102
}
330
C
100
AcDbDictionary
281
     1
  3
Standard
350
18
  0
DICTIONARY
  5
19
102
{ACAD_REACTORS
330
C
102
}
330
C
100
AcDbDictionary
281
     1
  0
ACDBDICTIONARYWDFLT
  5
E
102
{ACAD_REACTORS
330
C
102
}
330
C
100
AcDbDictionary
281
     1
  3
Normal
350
F
100
AcDbDictionaryWithDefault
340
F
  0
DICTIONARY
  5
97
102
{ACAD_REACTORS
330
C
102
}
330
C
100
AcDbDictionary
281
     1
  0
DICTIONARY
  5
2A
102
{ACAD_REACTORS
330
C
102
}
330
C
100
AcDbDictionary
281
     1
  3
2dWireframe
350
2F
  3
3D Hidden
350
31
  3
3dWireframe
350
30
  3
Basic
350
32
  3
Brighten
350
36
  3
ColorChange
350
3A
  3
Conceptual
350
34
  3
Dim
350
35
  3
Facepattern
350
39
  3
Flat
350
2B
  3
FlatWithEdges
350
2C
  3
Gouraud
350
2D
  3
GouraudWithEdges
350
2E
  3
Linepattern
350
38
  3
Realistic
350
33
  3
Thicken
350
37
  0
LAYOUT
  5
1E
102
{ACAD_REACTORS
330
1A
102
}
330
1A
100
AcDbPlotSettings
  1

  2
none_device
  4

  6

 40
0.0
 41
0.0
 42
0.0
 43
0.0
 44
0.0
 45
0.0
 46
0.0
 47
0.0
 48
0.0
 49
0.0
140
0.0
141
0.0
142
1.0
143
1.0
 70
   688
 72
     0
 73
     0
 74
     5
  7

 75
    16
 76
     0
 77
     2
 78
   300
147
1.0
148
0.0
149
0.0
100
AcDbLayout
  1
Layout1
 70
     1
 71
     1
 10
0.0
 20
0.0
 11
12.0
 21
9.0
 12
0.0
 22
0.0
 32
0.0
 14
1.000000000000000E+20
 24
1.000000000000000E+20
 34
1.000000000000000E+20
 15
-1.000000000000000E+20
 25
-1.000000000000000E+20
 35
-1.000000000000000E+20
146
0.0
 13
0.0
 23
0.0
 33
0.0
 16
1.0
 26
0.0
 36
0.0
 17
0.0
 27
1.0
 37
0.0
 76
     0
330
1B
  0
LAYOUT
  5
26
102
{ACAD_REACTORS
330
1A
102
}
330
1A
100
AcDbPlotSettings
  1

  2
none_device
  4

  6

 40
0.0
 41
0.0
 42
0.0
 43
0.0
 44
0.0
 45
0.0
 46
0.0
 47
0.0
 48
0.0
 49
0.0
140
0.0
141
0.0
142
1.0
143
1.0
 70
   688
 72
     0
 73
     0
 74
     5
  7

 75
    16
 76
     0
 77
     2
 78
   300
147
1.0
148
0.0
149
0.0
100
AcDbLayout
  1
Layout2
 70
     1
 71
     2
 10
0.0
 20
0.0
 11
0.0
 21
0.0
 12
0.0
 22
0.0
 32
0.0
 14
0.0
 24
0.0
 34
0.0
 15
0.0
 25
0.0
 35
0.0
146
0.0
 13
0.0
 23
0.0
 33
0.0
 16
1.0
 26
0.0
 36
0.0
 17
0.0
 27
1.0
 37
0.0
 76
     0
330
23
  0
LAYOUT
  5
22
102
{ACAD_REACTORS
330
1A
102
}
330
1A
100
AcDbPlotSettings
  1

  2
none_device
  4

  6

 40
0.0
 41
0.0
 42
0.0
 43
0.0
 44
0.0
 45
0.0
 46
0.0
 47
0.0
 48
0.0
 49
0.0
140
0.0
141
0.0
142
1.0
143
1.0
 70
  1712
 72
     0
 73
     0
 74
     0
  7

 75
     0
 76
     0
 77
     2
 78
   300
147
1.0
148
0.0
149
0.0
100
AcDbLayout
  1
Model
 70
     1
 71
     0
 10
0.0
 20
0.0
 11
12.0
 21
9.0
 12
0.0
 22
0.0
 32
0.0
 14
-187.421
 24
-106.4678
 34
0.0
 15
-77.616
 25
131.8324
 35
0.0
146
0.0
 13
0.0
 23
0.0
 33
0.0
 16
1.0
 26
0.0
 36
0.0
 17
0.0
 27
1.0
 37
0.0
 76
     0
330
1F
331
29
  0
MATERIAL
  5
3D
102
{ACAD_REACTORS
330
3B
102
}
330
3B
100
AcDbMaterial
  1
ByBlock
 72
     1
 94
      127
  0
MATERIAL
  5
3C
102
{ACAD_REACTORS
330
3B
102
}
330
3B
100
AcDbMaterial
  1
ByLayer
 72
     1
 94
      127
  0
MATERIAL
  5
3E
102
{ACAD_REACTORS
330
3B
102
}
330
3B
100
AcDbMaterial
  1
Global
 72
     1
 94
      127
  0
MLINESTYLE
  5
18
102
{ACAD_REACTORS
330
17
102
}
330
17
100
AcDbMlineStyle
  2
Standard
 70
     0
  3

 62
   256
 51
90.0
 52
90.0
 71
     2
 49
0.5
 62
   256
  6
BYLAYER
 49
-0.5
 62
   256
  6
BYLAYER
  0
ACDBPLACEHOLDER
  5
F
102
{ACAD_REACTORS
330
E
102
}
330
E
  0
VISUALSTYLE
  5
2F
102
{ACAD_REACTORS
330
2A
102
}
102
{ACAD_XDICTIONARY
360
7F
102
}
330
2A
100
AcDbVisualStyle
  2
2dWireframe
 70
     4
 71
     0
 72
     2
 73
     0
 90
        0
 40
-0.6
 41
-30.0
 62
     5
 63
     7
421
 16777215
 74
     1
 91
        4
 64
     7
 65
   257
 75
     1
175
     1
 42
1.0
 92
        0
 66
   257
 43
1.0
 76
     1
 77
     6
 78
     2
 67
     7
 79
     5
170
     0
171
     0
290
     0
174
     0
 93
        1
 44
0.0
173
     0
291
     0
 45
0.0
  0
VISUALSTYLE
  5
31
102
{ACAD_REACTORS
330
2A
102
}
102
{ACAD_XDICTIONARY
360
83
102
}
330
2A
100
AcDbVisualStyle
  2
3D Hidden
 70
     6
 71
     1
 72
     2
 73
     2
 90
        0
 40
-0.6
 41
-30.0
 62
     5
 63
     7
421
 16777215
 74
     2
 91
        2
 64
     7
 65
   257
 75
     2
175
     1
 42
40.0
 92
        0
 66
   257
 43
1.0
 76
     1
 77
     6
 78
     2
 67
     7
 79
     3
170
     0
171
     0
290
     0
174
     0
 93
        1
 44
0.0
173
     0
291
     0
 45
0.0
  0
VISUALSTYLE
  5
30
102
{ACAD_REACTORS
330
2A
102
}
102
{ACAD_XDICTIONARY
360
81
102
}
330
2A
100
AcDbVisualStyle
  2
3dWireframe
 70
     5
 71
     0
 72
     2
 73
     0
 90
        0
 40
-0.6
 41
-30.0
 62
     5
 63
     7
421
 16777215
 74
     1
 91
        4
 64
     7
 65
   257
 75
     1
175
     1
 42
1.0
 92
        0
 66
   257
 43
1.0
 76
     1
 77
     6
 78
     2
 67
     7
 79
     5
170
     0
171
     0
290
     0
174
     0
 93
        1
 44
0.0
173
     0
291
     0
 45
0.0
  0
VISUALSTYLE
  5
32
102
{ACAD_REACTORS
330
2A
102
}
102
{ACAD_XDICTIONARY
360
85
102
}
330
2A
100
AcDbVisualStyle
  2
Basic
 70
     7
 71
     1
 72
     0
 73
     1
 90
        0
 40
-0.6
 41
-30.0
 62
     5
 63
     7
421
 16777215
 74
     0
 91
        4
 64
     7
 65
   257
 75
     1
175
     1
 42
1.0
 92
        8
 66
     7
 43
1.0
 76
     1
 77
     6
 78
     2
 67
     7
 79
     5
170
     0
171
     0
290
     0
174
     0
 93
        1
 44
0.0
173
     0
291
     1
 45
0.0
  0
VISUALSTYLE
  5
36
102
{ACAD_REACTORS
330
2A
102
}
102
{ACAD_XDICTIONARY
360
8D
102
}
330
2A
100
AcDbVisualStyle
  2
Brighten
 70
    12
 71
     2
 72
     2
 73
     0
 90
        0
 40
-0.6
 41
-30.0
 62
     5
 63
     7
421
 16777215
 74
     1
 91
        4
 64
     7
 65
   257
 75
     1
175
     1
 42
1.0
 92
        8
 66
     7
 43
1.0
 76
     1
 77
     6
 78
     2
 67
     7
 79
     5
170
     0
171
     0
290
     0
174
     0
 93
        1
 44
50.0
173
     0
291
     1
 45
0.0
  0
VISUALSTYLE
  5
3A
102
{ACAD_REACTORS
330
2A
102
}
102
{ACAD_XDICTIONARY
360
95
102
}
330
2A
100
AcDbVisualStyle
  2
ColorChange
 70
    16
 71
     2
 72
     2
 73
     3
 90
        0
 40
-0.6
 41
-30.0
 62
     5
 63
     8
421
  8421504
 74
     1
 91
        4
 64
     7
 65
   257
 75
     1
175
     1
 42
1.0
 92
        8
 66
     8
424
  8421504
 43
1.0
 76
     1
 77
     6
 78
     2
 67
     7
 79
     5
170
     0
171
     0
290
     0
174
     0
 93
        1
 44
0.0
173
     0
291
     1
 45
0.0
  0
VISUALSTYLE
  5
34
102
{ACAD_REACTORS
330
2A
102
}
102
{ACAD_XDICTIONARY
360
89
102
}
330
2A
100
AcDbVisualStyle
  2
Conceptual
 70
     9
 71
     3
 72
     2
 73
     0
 90
        0
 40
-0.6
 41
-30.0
 62
     5
 63
     7
421
 16777215
 74
     2
 91
        2
 64
     7
 65
   257
 75
     1
175
     1
 42
40.0
 92
        8
 66
     7
 43
1.0
 76
     1
 77
     6
 78
     2
 67
     7
 79
     3
170
     0
171
     0
290
     0
174
     0
 93
        1
 44
0.0
173
     0
291
     0
 45
0.0
  0
VISUALSTYLE
  5
35
102
{ACAD_REACTORS
330
2A
102
}
102
{ACAD_XDICTIONARY
360
8B
102
}
330
2A
100
AcDbVisualStyle
  2
Dim
 70
    11
 71
     2
 72
     2
 73
     0
 90
        0
 40
-0.6
 41
-30.0
 62
     5
 63
     7
421
 16777215
 74
     1
 91
        4
 64
     7
 65
   257
 75
     1
175
     1
 42
1.0
 92
        8
 66
     7
 43
1.0
 76
     1
 77
     6
 78
     2
 67
     7
 79
     5
170
     0
171
     0
290
     0
174
     0
 93
        1
 44
-50.0
173
     0
291
     1
 45
0.0
  0
VISUALSTYLE
  5
39
102
{ACAD_REACTORS
330
2A
102
}
102
{ACAD_XDICTIONARY
360
93
102
}
330
2A
100
AcDbVisualStyle
  2
Facepattern
 70
    15
 71
     2
 72
     2
 73
     0
 90
        0
 40
-0.6
 41
-30.0
 62
     5
 63
     7
421
 16777215
 74
     1
 91
        4
 64
     7
 65
   257
 75
     1
175
     1
 42
1.0
 92
        8
 66
     7
 43
1.0
 76
     1
 77
     6
 78
     2
 67
     7
 79
     5
170
     0
171
     0
290
     0
174
     0
 93
        1
 44
0.0
173
     0
291
     1
 45
0.0
  0
VISUALSTYLE
  5
2B
102
{ACAD_REACTORS
330
2A
102
}
102
{ACAD_XDICTIONARY
360
77
102
}
330
2A
100
AcDbVisualStyle
  2
Flat
 70
     0
 71
     2
 72
     1
 73
     1
 90
        2
 40
-0.6
 41
30.0
 62
     5
 63
     7
421
 16777215
 74
     0
 91
        4
 64
     7
 65
   257
 75
     1
175
     1
 42
1.0
 92
        8
 66
     7
 43
1.0
 76
     1
 77
     6
 78
     2
 67
     7
 79
     5
170
     0
171
     0
290
     0
174
     0
 93
       13
 44
0.0
173
     0
291
     1
 45
0.0
  0
VISUALSTYLE
  5
2C
102
{ACAD_REACTORS
330
2A
102
}
102
{ACAD_XDICTIONARY
360
79
102
}
330
2A
100
AcDbVisualStyle
  2
FlatWithEdges
 70
     1
 71
     2
 72
     1
 73
     1
 90
        2
 40
-0.6
 41
30.0
 62
     5
 63
     7
421
 16777215
 74
     1
 91
        4
 64
     7
 65
   257
 75
     1
175
     1
 42
1.0
 92
        0
 66
   257
 43
1.0
 76
     1
 77
     6
 78
     2
 67
     7
 79
     5
170
     0
171
     0
290
     0
174
     0
 93
       13
 44
0.0
173
     0
291
     1
 45
0.0
  0
VISUALSTYLE
  5
2D
102
{ACAD_REACTORS
330
2A
102
}
102
{ACAD_XDICTIONARY
360
7B
102
}
330
2A
100
AcDbVisualStyle
  2
Gouraud
 70
     2
 71
     2
 72
     2
 73
     1
 90
        2
 40
-0.6
 41
30.0
 62
     5
 63
     7
421
 16777215
 74
     0
 91
        4
 64
     7
 65
   257
 75
     1
175
     1
 42
1.0
 92
        0
 66
     7
 43
1.0
 76
     1
 77
     6
 78
     2
 67
     7
 79
     5
170
     0
171
     0
290
     0
174
     0
 93
       13
 44
0.0
173
     0
291
     1
 45
0.0
  0
VISUALSTYLE
  5
2E
102
{ACAD_REACTORS
330
2A
102
}
102
{ACAD_XDICTIONARY
360
7D
102
}
330
2A
100
AcDbVisualStyle
  2
GouraudWithEdges
 70
     3
 71
     2
 72
     2
 73
     1
 90
        2
 40
-0.6
 41
30.0
 62
     5
 63
     7
421
 16777215
 74
     1
 91
        4
 64
     7
 65
   257
 75
     1
175
     1
 42
1.0
 92
        0
 66
   257
 43
1.0
 76
     1
 77
     6
 78
     2
 67
     7
 79
     5
170
     0
171
     0
290
     0
174
     0
 93
       13
 44
0.0
173
     0
291
     1
 45
0.0
  0
VISUALSTYLE
  5
38
102
{ACAD_REACTORS
330
2A
102
}
102
{ACAD_XDICTIONARY
360
91
102
}
330
2A
100
AcDbVisualStyle
  2
Linepattern
 70
    14
 71
     2
 72
     2
 73
     0
 90
        0
 40
-0.6
 41
-30.0
 62
     5
 63
     7
421
 16777215
 74
     1
 91
        4
 64
     7
 65
   257
 75
     7
175
     7
 42
1.0
 92
        8
 66
     7
 43
1.0
 76
     1
 77
     6
 78
     2
 67
     7
 79
     5
170
     0
171
     0
290
     0
174
     0
 93
        1
 44
0.0
173
     0
291
     1
 45
0.0
  0
VISUALSTYLE
  5
33
102
{ACAD_REACTORS
330
2A
102
}
102
{ACAD_XDICTIONARY
360
87
102
}
330
2A
100
AcDbVisualStyle
  2
Realistic
 70
     8
 71
     2
 72
     2
 73
     0
 90
        0
 40
-0.6
 41
-30.0
 62
     5
 63
     7
421
 16777215
 74
     1
 91
        0
 64
     7
 65
   257
 75
     1
175
     1
 42
1.0
 92
        8
 66
     8
424
  7895160
 43
1.0
 76
     1
 77
     6
 78
     2
 67
     7
 79
     5
170
     0
171
     0
290
     0
174
     0
 93
       13
 44
0.0
173
     0
291
     0
 45
0.0
  0
VISUALSTYLE
  5
37
102
{ACAD_REACTORS
330
2A
102
}
102
{ACAD_XDICTIONARY
360
8F
102
}
330
2A
100
AcDbVisualStyle
  2
Thicken
 70
    13
 71
     2
 72
     2
 73
     0
 90
        0
 40
-0.6
 41
-30.0
 62
     5
 63
     7
421
 16777215
 74
     1
 91
        4
 64
     7
 65
   257
 75
     1
175
     1
 42
1.0
 92
       12
 66
     7
 43
1.0
 76
     1
 77
     6
 78
     2
 67
     7
 79
     5
170
     0
171
     0
290
     0
174
     0
 93
        1
 44
0.0
173
     0
291
     1
 45
0.0
  0
DICTIONARY
  5
7F
330
2F
100
AcDbDictionary
280
     1
281
     1
  3
ACAD_XREC_ROUNDTRIP
360
80
  0
DICTIONARY
  5
83
330
31
100
AcDbDictionary
280
     1
281
     1
  3
ACAD_XREC_ROUNDTRIP
360
84
  0
DICTIONARY
  5
81
330
30
100
AcDbDictionary
280
     1
281
     1
  3
ACAD_XREC_ROUNDTRIP
360
82
  0
DICTIONARY
  5
85
330
32
100
AcDbDictionary
280
     1
281
     1
  3
ACAD_XREC_ROUNDTRIP
360
86
  0
DICTIONARY
  5
8D
330
36
100
AcDbDictionary
280
     1
281
     1
  3
ACAD_XREC_ROUNDTRIP
360
8E
  0
DICTIONARY
  5
95
330
3A
100
AcDbDictionary
280
     1
281
     1
  3
ACAD_XREC_ROUNDTRIP
360
96
  0
DICTIONARY
  5
89
330
34
100
AcDbDictionary
280
     1
281
     1
  3
ACAD_XREC_ROUNDTRIP
360
8A
  0
DICTIONARY
  5
8B
330
35
100
AcDbDictionary
280
     1
281
     1
  3
ACAD_XREC_ROUNDTRIP
360
8C
  0
DICTIONARY
  5
93
330
39
100
AcDbDictionary
280
     1
281
     1
  3
ACAD_XREC_ROUNDTRIP
360
94
  0
DICTIONARY
  5
77
330
2B
100
AcDbDictionary
280
     1
281
     1
  3
ACAD_XREC_ROUNDTRIP
360
78
  0
DICTIONARY
  5
79
330
2C
100
AcDbDictionary
280
     1
281
     1
  3
ACAD_XREC_ROUNDTRIP
360
7A
  0
DICTIONARY
  5
7B
330
2D
100
AcDbDictionary
280
     1
281
     1
  3
ACAD_XREC_ROUNDTRIP
360
7C
  0
DICTIONARY
  5
7D
330
2E
100
AcDbDictionary
280
     1
281
     1
  3
ACAD_XREC_ROUNDTRIP
360
7E
  0
DICTIONARY
  5
91
330
38
100
AcDbDictionary
280
     1
281
     1
  3
ACAD_XREC_ROUNDTRIP
360
92
  0
DICTIONARY
  5
87
330
33
100
AcDbDictionary
280
     1
281
     1
  3
ACAD_XREC_ROUNDTRIP
360
88
  0
DICTIONARY
  5
8F
330
37
100
AcDbDictionary
280
     1
281
     1
  3
ACAD_XREC_ROUNDTRIP
360
90
  0
XRECORD
  5
80
102
{ACAD_REACTORS
330
7F
102
}
330
7F
100
AcDbXrecord
280
     1
102
RTVSPropertyOp0
 70
     1
102
RTVSPropertyOp1
 70
     1
102
RTVSPropertyOp2
 70
     1
102
RTVSPropertyOp3
 70
     1
102
RTVSPropertyOp4
 70
     1
102
RTVSPropertyOp5
 70
     1
102
RTVSPropertyOp6
 70
     1
102
RTVSPropertyOp7
 70
     1
102
RTVSPropertyOp8
 70
     1
102
RTVSPropertyOp9
 70
     1
102
RTVSPropertyOp10
 70
     1
102
RTVSPropertyOp11
 70
     1
102
RTVSPropertyOp12
 70
     1
102
RTVSPropertyOp13
 70
     1
102
RTVSPropertyOp14
 70
     1
102
RTVSPropertyOp15
 70
     1
102
RTVSPropertyOp16
 70
     1
102
RTVSPropertyOp17
 70
     1
102
RTVSPropertyOp18
 70
     1
102
RTVSPropertyOp19
 70
     1
102
RTVSPropertyOp20
 70
     1
102
RTVSPropertyOp21
 70
     1
102
RTVSPropertyOp22
 70
     1
102
RTVSPropertyOp23
 70
     1
102
RTVSPropertyOp24
 70
     1
102
RTVSPropertyOp25
 70
     1
102
RTVSPropertyOp26
 70
     1
102
RTVSPropertyOp27
 70
     1
102
RTVSPropertyOp28
 70
     1
102
RTVSPropertyOp29
 70
     1
102
RTVSPropertyOp30
 70
     1
102
RTVSPropertyOp31
 70
     1
102
RTVSPropertyOp32
 70
     1
  0
XRECORD
  5
84
102
{ACAD_REACTORS
330
83
102
}
330
83
100
AcDbXrecord
280
     1
102
RTVSPropertyOp0
 70
     1
102
RTVSPropertyOp1
 70
     1
102
RTVSPropertyOp2
 70
     1
102
RTVSPropertyOp3
 70
     1
102
RTVSPropertyOp4
 70
     1
102
RTVSPropertyOp5
 70
     1
102
RTVSPropertyOp6
 70
     1
102
RTVSPropertyOp7
 70
     1
102
RTVSPropertyOp8
 70
     1
102
RTVSPropertyOp9
 70
     1
102
RTVSPropertyOp10
 70
     1
102
RTVSPropertyOp11
 70
     1
102
RTVSPropertyOp12
 70
     1
102
RTVSPropertyOp13
 70
     1
102
RTVSPropertyOp14
 70
     1
102
RTVSPropertyOp15
 70
     1
102
RTVSPropertyOp16
 70
     1
102
RTVSPropertyOp17
 70
     1
102
RTVSPropertyOp18
 70
     1
102
RTVSPropertyOp19
 70
     1
102
RTVSPropertyOp20
 70
     1
102
RTVSPropertyOp21
 70
     1
102
RTVSPropertyOp22
 70
     1
102
RTVSPropertyOp23
 70
     1
102
RTVSPropertyOp24
 70
     1
102
RTVSPropertyOp25
 70
     1
102
RTVSPropertyOp26
 70
     1
102
RTVSPropertyOp27
 70
     1
102
RTVSPropertyOp28
 70
     1
102
RTVSPropertyOp29
 70
     1
102
RTVSPropertyOp30
 70
     1
102
RTVSPropertyOp31
 70
     1
102
RTVSPropertyOp32
 70
     1
  0
XRECORD
  5
82
102
{ACAD_REACTORS
330
81
102
}
330
81
100
AcDbXrecord
280
     1
102
RTVSPropertyOp0
 70
     1
102
RTVSPropertyOp1
 70
     1
102
RTVSPropertyOp2
 70
     1
102
RTVSPropertyOp3
 70
     1
102
RTVSPropertyOp4
 70
     1
102
RTVSPropertyOp5
 70
     1
102
RTVSPropertyOp6
 70
     1
102
RTVSPropertyOp7
 70
     1
102
RTVSPropertyOp8
 70
     1
102
RTVSPropertyOp9
 70
     1
102
RTVSPropertyOp10
 70
     1
102
RTVSPropertyOp11
 70
     1
102
RTVSPropertyOp12
 70
     1
102
RTVSPropertyOp13
 70
     1
102
RTVSPropertyOp14
 70
     1
102
RTVSPropertyOp15
 70
     1
102
RTVSPropertyOp16
 70
     1
102
RTVSPropertyOp17
 70
     1
102
RTVSPropertyOp18
 70
     1
102
RTVSPropertyOp19
 70
     1
102
RTVSPropertyOp20
 70
     1
102
RTVSPropertyOp21
 70
     1
102
RTVSPropertyOp22
 70
     1
102
RTVSPropertyOp23
 70
     1
102
RTVSPropertyOp24
 70
     1
102
RTVSPropertyOp25
 70
     1
102
RTVSPropertyOp26
 70
     1
102
RTVSPropertyOp27
 70
     1
102
RTVSPropertyOp28
 70
     1
102
RTVSPropertyOp29
 70
     1
102
RTVSPropertyOp30
 70
     1
102
RTVSPropertyOp31
 70
     1
102
RTVSPropertyOp32
 70
     1
  0
XRECORD
  5
86
102
{ACAD_REACTORS
330
85
102
}
330
85
100
AcDbXrecord
280
     1
102
RTVSPropertyOp0
 70
     1
102
RTVSPropertyOp1
 70
     1
102
RTVSPropertyOp2
 70
     1
102
RTVSPropertyOp3
 70
     1
102
RTVSPropertyOp4
 70
     1
102
RTVSPropertyOp5
 70
     1
102
RTVSPropertyOp6
 70
     1
102
RTVSPropertyOp7
 70
     1
102
RTVSPropertyOp8
 70
     1
102
RTVSPropertyOp9
 70
     1
102
RTVSPropertyOp10
 70
     1
102
RTVSPropertyOp11
 70
     1
102
RTVSPropertyOp12
 70
     1
102
RTVSPropertyOp13
 70
     1
102
RTVSPropertyOp14
 70
     1
102
RTVSPropertyOp15
 70
     1
102
RTVSPropertyOp16
 70
     1
102
RTVSPropertyOp17
 70
     1
102
RTVSPropertyOp18
 70
     1
102
RTVSPropertyOp19
 70
     1
102
RTVSPropertyOp20
 70
     1
102
RTVSPropertyOp21
 70
     1
102
RTVSPropertyOp22
 70
     1
102
RTVSPropertyOp23
 70
     1
102
RTVSPropertyOp24
 70
     1
102
RTVSPropertyOp25
 70
     1
102
RTVSPropertyOp26
 70
     1
102
RTVSPropertyOp27
 70
     1
102
RTVSPropertyOp28
 70
     1
102
RTVSPropertyOp29
 70
     1
102
RTVSPropertyOp30
 70
     1
102
RTVSPropertyOp31
 70
     1
102
RTVSPropertyOp32
 70
     1
  0
XRECORD
  5
8E
102
{ACAD_REACTORS
330
8D
102
}
330
8D
100
AcDbXrecord
280
     1
102
RTVSPropertyOp0
 70
     1
102
RTVSPropertyOp1
 70
     1
102
RTVSPropertyOp2
 70
     1
102
RTVSPropertyOp3
 70
     1
102
RTVSPropertyOp4
 70
     1
102
RTVSPropertyOp5
 70
     1
102
RTVSPropertyOp6
 70
     1
102
RTVSPropertyOp7
 70
     1
102
RTVSPropertyOp8
 70
     1
102
RTVSPropertyOp9
 70
     1
102
RTVSPropertyOp10
 70
     1
102
RTVSPropertyOp11
 70
     1
102
RTVSPropertyOp12
 70
     1
102
RTVSPropertyOp13
 70
     1
102
RTVSPropertyOp14
 70
     1
102
RTVSPropertyOp15
 70
     1
102
RTVSPropertyOp16
 70
     1
102
RTVSPropertyOp17
 70
     1
102
RTVSPropertyOp18
 70
     1
102
RTVSPropertyOp19
 70
     1
102
RTVSPropertyOp20
 70
     1
102
RTVSPropertyOp21
 70
     1
102
RTVSPropertyOp22
 70
     1
102
RTVSPropertyOp23
 70
     1
102
RTVSPropertyOp24
 70
     1
102
RTVSPropertyOp25
 70
     1
102
RTVSPropertyOp26
 70
     1
102
RTVSPropertyOp27
 70
     1
102
RTVSPropertyOp28
 70
     1
102
RTVSPropertyOp29
 70
     1
102
RTVSPropertyOp30
 70
     1
102
RTVSPropertyOp31
 70
     1
102
RTVSPropertyOp32
 70
     1
  0
XRECORD
  5
96
102
{ACAD_REACTORS
330
95
102
}
330
95
100
AcDbXrecord
280
     1
102
RTVSPropertyOp0
 70
     1
102
RTVSPropertyOp1
 70
     1
102
RTVSPropertyOp2
 70
     1
102
RTVSPropertyOp3
 70
     1
102
RTVSPropertyOp4
 70
     1
102
RTVSPropertyOp5
 70
     1
102
RTVSPropertyOp6
 70
     1
102
RTVSPropertyOp7
 70
     1
102
RTVSPropertyOp8
 70
     1
102
RTVSPropertyOp9
 70
     1
102
RTVSPropertyOp10
 70
     1
102
RTVSPropertyOp11
 70
     1
102
RTVSPropertyOp12
 70
     1
102
RTVSPropertyOp13
 70
     1
102
RTVSPropertyOp14
 70
     1
102
RTVSPropertyOp15
 70
     1
102
RTVSPropertyOp16
 70
     1
102
RTVSPropertyOp17
 70
     1
102
RTVSPropertyOp18
 70
     1
102
RTVSPropertyOp19
 70
     1
102
RTVSPropertyOp20
 70
     1
102
RTVSPropertyOp21
 70
     1
102
RTVSPropertyOp22
 70
     1
102
RTVSPropertyOp23
 70
     1
102
RTVSPropertyOp24
 70
     1
102
RTVSPropertyOp25
 70
     1
102
RTVSPropertyOp26
 70
     1
102
RTVSPropertyOp27
 70
     1
102
RTVSPropertyOp28
 70
     1
102
RTVSPropertyOp29
 70
     1
102
RTVSPropertyOp30
 70
     1
102
RTVSPropertyOp31
 70
     1
102
RTVSPropertyOp32
 70
     1
  0
XRECORD
  5
8A
102
{ACAD_REACTORS
330
89
102
}
330
89
100
AcDbXrecord
280
     1
102
RTVSPropertyOp0
 70
     1
102
RTVSPropertyOp1
 70
     1
102
RTVSPropertyOp2
 70
     1
102
RTVSPropertyOp3
 70
     1
102
RTVSPropertyOp4
 70
     1
102
RTVSPropertyOp5
 70
     1
102
RTVSPropertyOp6
 70
     1
102
RTVSPropertyOp7
 70
     1
102
RTVSPropertyOp8
 70
     1
102
RTVSPropertyOp9
 70
     1
102
RTVSPropertyOp10
 70
     1
102
RTVSPropertyOp11
 70
     1
102
RTVSPropertyOp12
 70
     1
102
RTVSPropertyOp13
 70
     1
102
RTVSPropertyOp14
 70
     1
102
RTVSPropertyOp15
 70
     1
102
RTVSPropertyOp16
 70
     1
102
RTVSPropertyOp17
 70
     1
102
RTVSPropertyOp18
 70
     1
102
RTVSPropertyOp19
 70
     1
102
RTVSPropertyOp20
 70
     1
102
RTVSPropertyOp21
 70
     1
102
RTVSPropertyOp22
 70
     1
102
RTVSPropertyOp23
 70
     1
102
RTVSPropertyOp24
 70
     1
102
RTVSPropertyOp25
 70
     1
102
RTVSPropertyOp26
 70
     1
102
RTVSPropertyOp27
 70
     1
102
RTVSPropertyOp28
 70
     1
102
RTVSPropertyOp29
 70
     1
102
RTVSPropertyOp30
 70
     1
102
RTVSPropertyOp31
 70
     1
102
RTVSPropertyOp32
 70
     1
  0
XRECORD
  5
8C
102
{ACAD_REACTORS
330
8B
102
}
330
8B
100
AcDbXrecord
280
     1
102
RTVSPropertyOp0
 70
     1
102
RTVSPropertyOp1
 70
     1
102
RTVSPropertyOp2
 70
     1
102
RTVSPropertyOp3
 70
     1
102
RTVSPropertyOp4
 70
     1
102
RTVSPropertyOp5
 70
     1
102
RTVSPropertyOp6
 70
     1
102
RTVSPropertyOp7
 70
     1
102
RTVSPropertyOp8
 70
     1
102
RTVSPropertyOp9
 70
     1
102
RTVSPropertyOp10
 70
     1
102
RTVSPropertyOp11
 70
     1
102
RTVSPropertyOp12
 70
     1
102
RTVSPropertyOp13
 70
     1
102
RTVSPropertyOp14
 70
     1
102
RTVSPropertyOp15
 70
     1
102
RTVSPropertyOp16
 70
     1
102
RTVSPropertyOp17
 70
     1
102
RTVSPropertyOp18
 70
     1
102
RTVSPropertyOp19
 70
     1
102
RTVSPropertyOp20
 70
     1
102
RTVSPropertyOp21
 70
     1
102
RTVSPropertyOp22
 70
     1
102
RTVSPropertyOp23
 70
     1
102
RTVSPropertyOp24
 70
     1
102
RTVSPropertyOp25
 70
     1
102
RTVSPropertyOp26
 70
     1
102
RTVSPropertyOp27
 70
     1
102
RTVSPropertyOp28
 70
     1
102
RTVSPropertyOp29
 70
     1
102
RTVSPropertyOp30
 70
     1
102
RTVSPropertyOp31
 70
     1
102
RTVSPropertyOp32
 70
     1
  0
XRECORD
  5
94
102
{ACAD_REACTORS
330
93
102
}
330
93
100
AcDbXrecord
280
     1
102
RTVSPropertyOp0
 70
     1
102
RTVSPropertyOp1
 70
     1
102
RTVSPropertyOp2
 70
     1
102
RTVSPropertyOp3
 70
     1
102
RTVSPropertyOp4
 70
     1
102
RTVSPropertyOp5
 70
     1
102
RTVSPropertyOp6
 70
     1
102
RTVSPropertyOp7
 70
     1
102
RTVSPropertyOp8
 70
     1
102
RTVSPropertyOp9
 70
     1
102
RTVSPropertyOp10
 70
     1
102
RTVSPropertyOp11
 70
     1
102
RTVSPropertyOp12
 70
     1
102
RTVSPropertyOp13
 70
     1
102
RTVSPropertyOp14
 70
     1
102
RTVSPropertyOp15
 70
     1
102
RTVSPropertyOp16
 70
     1
102
RTVSPropertyOp17
 70
     1
102
RTVSPropertyOp18
 70
     1
102
RTVSPropertyOp19
 70
     1
102
RTVSPropertyOp20
 70
     1
102
RTVSPropertyOp21
 70
     1
102
RTVSPropertyOp22
 70
     1
102
RTVSPropertyOp23
 70
     1
102
RTVSPropertyOp24
 70
     1
102
RTVSPropertyOp25
 70
     1
102
RTVSPropertyOp26
 70
     1
102
RTVSPropertyOp27
 70
     1
102
RTVSPropertyOp28
 70
     1
102
RTVSPropertyOp29
 70
     1
102
RTVSPropertyOp30
 70
     1
102
RTVSPropertyOp31
 70
     1
102
RTVSPropertyOp32
 70
     1
  0
XRECORD
  5
78
102
{ACAD_REACTORS
330
77
102
}
330
77
100
AcDbXrecord
280
     1
102
RTVSPropertyOp0
 70
     1
102
RTVSPropertyOp1
 70
     1
102
RTVSPropertyOp2
 70
     1
102
RTVSPropertyOp3
 70
     1
102
RTVSPropertyOp4
 70
     1
102
RTVSPropertyOp5
 70
     1
102
RTVSPropertyOp6
 70
     1
102
RTVSPropertyOp7
 70
     1
102
RTVSPropertyOp8
 70
     1
102
RTVSPropertyOp9
 70
     1
102
RTVSPropertyOp10
 70
     1
102
RTVSPropertyOp11
 70
     1
102
RTVSPropertyOp12
 70
     1
102
RTVSPropertyOp13
 70
     1
102
RTVSPropertyOp14
 70
     1
102
RTVSPropertyOp15
 70
     1
102
RTVSPropertyOp16
 70
     1
102
RTVSPropertyOp17
 70
     1
102
RTVSPropertyOp18
 70
     1
102
RTVSPropertyOp19
 70
     1
102
RTVSPropertyOp20
 70
     1
102
RTVSPropertyOp21
 70
     1
102
RTVSPropertyOp22
 70
     1
102
RTVSPropertyOp23
 70
     1
102
RTVSPropertyOp24
 70
     1
102
RTVSPropertyOp25
 70
     1
102
RTVSPropertyOp26
 70
     1
102
RTVSPropertyOp27
 70
     1
102
RTVSPropertyOp28
 70
     1
102
RTVSPropertyOp29
 70
     1
102
RTVSPropertyOp30
 70
     1
102
RTVSPropertyOp31
 70
     1
102
RTVSPropertyOp32
 70
     1
  0
XRECORD
  5
7A
102
{ACAD_REACTORS
330
79
102
}
330
79
100
AcDbXrecord
280
     1
102
RTVSPropertyOp0
 70
     1
102
RTVSPropertyOp1
 70
     1
102
RTVSPropertyOp2
 70
     1
102
RTVSPropertyOp3
 70
     1
102
RTVSPropertyOp4
 70
     1
102
RTVSPropertyOp5
 70
     1
102
RTVSPropertyOp6
 70
     1
102
RTVSPropertyOp7
 70
     1
102
RTVSPropertyOp8
 70
     1
102
RTVSPropertyOp9
 70
     1
102
RTVSPropertyOp10
 70
     1
102
RTVSPropertyOp11
 70
     1
102
RTVSPropertyOp12
 70
     1
102
RTVSPropertyOp13
 70
     1
102
RTVSPropertyOp14
 70
     1
102
RTVSPropertyOp15
 70
     1
102
RTVSPropertyOp16
 70
     1
102
RTVSPropertyOp17
 70
     1
102
RTVSPropertyOp18
 70
     1
102
RTVSPropertyOp19
 70
     1
102
RTVSPropertyOp20
 70
     1
102
RTVSPropertyOp21
 70
     1
102
RTVSPropertyOp22
 70
     1
102
RTVSPropertyOp23
 70
     1
102
RTVSPropertyOp24
 70
     1
102
RTVSPropertyOp25
 70
     1
102
RTVSPropertyOp26
 70
     1
102
RTVSPropertyOp27
 70
     1
102
RTVSPropertyOp28
 70
     1
102
RTVSPropertyOp29
 70
     1
102
RTVSPropertyOp30
 70
     1
102
RTVSPropertyOp31
 70
     1
102
RTVSPropertyOp32
 70
     1
  0
XRECORD
  5
7C
102
{ACAD_REACTORS
330
7B
102
}
330
7B
100
AcDbXrecord
280
     1
102
RTVSPropertyOp0
 70
     1
102
RTVSPropertyOp1
 70
     1
102
RTVSPropertyOp2
 70
     1
102
RTVSPropertyOp3
 70
     1
102
RTVSPropertyOp4
 70
     1
102
RTVSPropertyOp5
 70
     1
102
RTVSPropertyOp6
 70
     1
102
RTVSPropertyOp7
 70
     1
102
RTVSPropertyOp8
 70
     1
102
RTVSPropertyOp9
 70
     1
102
RTVSPropertyOp10
 70
     1
102
RTVSPropertyOp11
 70
     1
102
RTVSPropertyOp12
 70
     1
102
RTVSPropertyOp13
 70
     1
102
RTVSPropertyOp14
 70
     1
102
RTVSPropertyOp15
 70
     1
102
RTVSPropertyOp16
 70
     1
102
RTVSPropertyOp17
 70
     1
102
RTVSPropertyOp18
 70
     1
102
RTVSPropertyOp19
 70
     1
102
RTVSPropertyOp20
 70
     1
102
RTVSPropertyOp21
 70
     1
102
RTVSPropertyOp22
 70
     1
102
RTVSPropertyOp23
 70
     1
102
RTVSPropertyOp24
 70
     1
102
RTVSPropertyOp25
 70
     1
102
RTVSPropertyOp26
 70
     1
102
RTVSPropertyOp27
 70
     1
102
RTVSPropertyOp28
 70
     1
102
RTVSPropertyOp29
 70
     1
102
RTVSPropertyOp30
 70
     1
102
RTVSPropertyOp31
 70
     1
102
RTVSPropertyOp32
 70
     1
  0
XRECORD
  5
7E
102
{ACAD_REACTORS
330
7D
102
}
330
7D
100
AcDbXrecord
280
     1
102
RTVSPropertyOp0
 70
     1
102
RTVSPropertyOp1
 70
     1
102
RTVSPropertyOp2
 70
     1
102
RTVSPropertyOp3
 70
     1
102
RTVSPropertyOp4
 70
     1
102
RTVSPropertyOp5
 70
     1
102
RTVSPropertyOp6
 70
     1
102
RTVSPropertyOp7
 70
     1
102
RTVSPropertyOp8
 70
     1
102
RTVSPropertyOp9
 70
     1
102
RTVSPropertyOp10
 70
     1
102
RTVSPropertyOp11
 70
     1
102
RTVSPropertyOp12
 70
     1
102
RTVSPropertyOp13
 70
     1
102
RTVSPropertyOp14
 70
     1
102
RTVSPropertyOp15
 70
     1
102
RTVSPropertyOp16
 70
     1
102
RTVSPropertyOp17
 70
     1
102
RTVSPropertyOp18
 70
     1
102
RTVSPropertyOp19
 70
     1
102
RTVSPropertyOp20
 70
     1
102
RTVSPropertyOp21
 70
     1
102
RTVSPropertyOp22
 70
     1
102
RTVSPropertyOp23
 70
     1
102
RTVSPropertyOp24
 70
     1
102
RTVSPropertyOp25
 70
     1
102
RTVSPropertyOp26
 70
     1
102
RTVSPropertyOp27
 70
     1
102
RTVSPropertyOp28
 70
     1
102
RTVSPropertyOp29
 70
     1
102
RTVSPropertyOp30
 70
     1
102
RTVSPropertyOp31
 70
     1
102
RTVSPropertyOp32
 70
     1
  0
XRECORD
  5
92
102
{ACAD_REACTORS
330
91
102
}
330
91
100
AcDbXrecord
280
     1
102
RTVSPropertyOp0
 70
     1
102
RTVSPropertyOp1
 70
     1
102
RTVSPropertyOp2
 70
     1
102
RTVSPropertyOp3
 70
     1
102
RTVSPropertyOp4
 70
     1
102
RTVSPropertyOp5
 70
     1
102
RTVSPropertyOp6
 70
     1
102
RTVSPropertyOp7
 70
     1
102
RTVSPropertyOp8
 70
     1
102
RTVSPropertyOp9
 70
     1
102
RTVSPropertyOp10
 70
     1
102
RTVSPropertyOp11
 70
     1
102
RTVSPropertyOp12
 70
     1
102
RTVSPropertyOp13
 70
     1
102
RTVSPropertyOp14
 70
     1
102
RTVSPropertyOp15
 70
     1
102
RTVSPropertyOp16
 70
     1
102
RTVSPropertyOp17
 70
     1
102
RTVSPropertyOp18
 70
     1
102
RTVSPropertyOp19
 70
     1
102
RTVSPropertyOp20
 70
     1
102
RTVSPropertyOp21
 70
     1
102
RTVSPropertyOp22
 70
     1
102
RTVSPropertyOp23
 70
     1
102
RTVSPropertyOp24
 70
     1
102
RTVSPropertyOp25
 70
     1
102
RTVSPropertyOp26
 70
     1
102
RTVSPropertyOp27
 70
     1
102
RTVSPropertyOp28
 70
     1
102
RTVSPropertyOp29
 70
     1
102
RTVSPropertyOp30
 70
     1
102
RTVSPropertyOp31
 70
     1
102
RTVSPropertyOp32
 70
     1
  0
XRECORD
  5
88
102
{ACAD_REACTORS
330
87
102
}
330
87
100
AcDbXrecord
280
     1
102
RTVSPropertyOp0
 70
     1
102
RTVSPropertyOp1
 70
     1
102
RTVSPropertyOp2
 70
     1
102
RTVSPropertyOp3
 70
     1
102
RTVSPropertyOp4
 70
     1
102
RTVSPropertyOp5
 70
     1
102
RTVSPropertyOp6
 70
     1
102
RTVSPropertyOp7
 70
     1
102
RTVSPropertyOp8
 70
     1
102
RTVSPropertyOp9
 70
     1
102
RTVSPropertyOp10
 70
     1
102
RTVSPropertyOp11
 70
     1
102
RTVSPropertyOp12
 70
     1
102
RTVSPropertyOp13
 70
     1
102
RTVSPropertyOp14
 70
     1
102
RTVSPropertyOp15
 70
     1
102
RTVSPropertyOp16
 70
     1
102
RTVSPropertyOp17
 70
     1
102
RTVSPropertyOp18
 70
     1
102
RTVSPropertyOp19
 70
     1
102
RTVSPropertyOp20
 70
     1
102
RTVSPropertyOp21
 70
     1
102
RTVSPropertyOp22
 70
     1
102
RTVSPropertyOp23
 70
     1
102
RTVSPropertyOp24
 70
     1
102
RTVSPropertyOp25
 70
     1
102
RTVSPropertyOp26
 70
     1
102
RTVSPropertyOp27
 70
     1
102
RTVSPropertyOp28
 70
     1
102
RTVSPropertyOp29
 70
     1
102
RTVSPropertyOp30
 70
     1
102
RTVSPropertyOp31
 70
     1
102
RTVSPropertyOp32
 70
     1
  0
XRECORD
  5
90
102
{ACAD_REACTORS
330
8F
102
}
330
8F
100
AcDbXrecord
280
     1
102
RTVSPropertyOp0
 70
     1
102
RTVSPropertyOp1
 70
     1
102
RTVSPropertyOp2
 70
     1
102
RTVSPropertyOp3
 70
     1
102
RTVSPropertyOp4
 70
     1
102
RTVSPropertyOp5
 70
     1
102
RTVSPropertyOp6
 70
     1
102
RTVSPropertyOp7
 70
     1
102
RTVSPropertyOp8
 70
     1
102
RTVSPropertyOp9
 70
     1
102
RTVSPropertyOp10
 70
     1
102
RTVSPropertyOp11
 70
     1
102
RTVSPropertyOp12
 70
     1
102
RTVSPropertyOp13
 70
     1
102
RTVSPropertyOp14
 70
     1
102
RTVSPropertyOp15
 70
     1
102
RTVSPropertyOp16
 70
     1
102
RTVSPropertyOp17
 70
     1
102
RTVSPropertyOp18
 70
     1
102
RTVSPropertyOp19
 70
     1
102
RTVSPropertyOp20
 70
     1
102
RTVSPropertyOp21
 70
     1
102
RTVSPropertyOp22
 70
     1
102
RTVSPropertyOp23
 70
     1
102
RTVSPropertyOp24
 70
     1
102
RTVSPropertyOp25
 70
     1
102
RTVSPropertyOp26
 70
     1
102
RTVSPropertyOp27
 70
     1
102
RTVSPropertyOp28
 70
     1
102
RTVSPropertyOp29
 70
     1
102
RTVSPropertyOp30
 70
     1
102
RTVSPropertyOp31
 70
     1
102
RTVSPropertyOp32
 70
     1
  0
ENDSEC
  0
EOF
