  0
SECTION
  2
HEADER
  9
$ACADVER
  1
AC1021
  9
$ACADMAINTVER
 70
    25
  9
$DWGCODEPAGE
  3
ANSI_1256
  9
$INSBASE
 10
0.0
 20
0.0
 30
0.0
  9
$EXTMIN
 10
-187.4284
 20
-114.8266
 30
0.0
  9
$EXTMAX
 10
-69.4777
 20
131.8622
 30
0.0
  9
$LIMMIN
 10
0.0
 20
0.0
  9
$LIMMAX
 10
12.0
 20
9.0
  9
$ORTHOMODE
 70
     0
  9
$REGENMODE
 70
     1
  9
$FILLMODE
 70
     1
  9
$QTEXTMODE
 70
     0
  9
$MIRRTEXT
 70
     1
  9
$LTSCALE
 40
1.0
  9
$ATTMODE
 70
     1
  9
$TEXTSIZE
 40
0.2
  9
$TRACEWID
 40
0.05
  9
$TEXTSTYLE
  7
Standard
  9
$CLAYER
  8
0
  9
$CELTYPE
  6
ByLayer
  9
$CECOLOR
 62
   256
  9
$CELTSCALE
 40
1.0
  9
$DISPSILH
 70
     0
  9
$DIMSCALE
 40
1.0
  9
$DIMASZ
 40
0.18
  9
$DIMEXO
 40
0.0625
  9
$DIMDLI
 40
0.38
  9
$DIMRND
 40
0.0
  9
$DIMDLE
 40
0.0
  9
$DIMEXE
 40
0.18
  9
$DIMTP
 40
0.0
  9
$DIMTM
 40
0.0
  9
$DIMTXT
 40
0.18
  9
$DIMCEN
 40
0.09
  9
$DIMTSZ
 40
0.0
  9
$DIMTOL
 70
     0
  9
$DIMLIM
 70
     0
  9
$DIMTIH
 70
     1
  9
$DIMTOH
 70
     1
  9
$DIMSE1
 70
     0
  9
$DIMSE2
 70
     0
  9
$DIMTAD
 70
     0
  9
$DIMZIN
 70
     0
  9
$DIMBLK
  1

  9
$DIMASO
 70
     1
  9
$DIMSHO
 70
     1
  9
$DIMPOST
  1

  9
$DIMAPOST
  1

  9
$DIMALT
 70
     0
  9
$DIMALTD
 70
     2
  9
$DIMALTF
 40
25.4
  9
$DIMLFAC
 40
1.0
  9
$DIMTOFL
 70
     0
  9
$DIMTVP
 40
0.0
  9
$DIMTIX
 70
     0
  9
$DIMSOXD
 70
     0
  9
$DIMSAH
 70
     0
  9
$DIMBLK1
  1

  9
$DIMBLK2
  1

  9
$DIMSTYLE
  2
Standard
  9
$DIMCLRD
 70
     0
  9
$DIMCLRE
 70
     0
  9
$DIMCLRT
 70
     0
  9
$DIMTFAC
 40
1.0
  9
$DIMGAP
 40
0.09
  9
$DIMJUST
 70
     0
  9
$DIMSD1
 70
     0
  9
$DIMSD2
 70
     0
  9
$DIMTOLJ
 70
     1
  9
$DIMTZIN
 70
     0
  9
$DIMALTZ
 70
     0
  9
$DIMALTTZ
 70
     0
  9
$DIMUPT
 70
     0
  9
$DIMDEC
 70
     4
  9
$DIMTDEC
 70
     4
  9
$DIMALTU
 70
     2
  9
$DIMALTTD
 70
     2
  9
$DIMTXSTY
  7
Standard
  9
$DIMAUNIT
 70
     0
  9
$DIMADEC
 70
     0
  9
$DIMALTRND
 40
0.0
  9
$DIMAZIN
 70
     0
  9
$DIMDSEP
 70
    46
  9
$DIMATFIT
 70
     3
  9
$DIMFRAC
 70
     0
  9
$DIMLDRBLK
  1

  9
$DIMLUNIT
 70
     2
  9
$DIMLWD
 70
    -2
  9
$DIMLWE
 70
    -2
  9
$DIMTMOVE
 70
     0
  9
$DIMFXL
 40
1.0
  9
$DIMFXLON
 70
     0
  9
$DIMJOGANG
 40
0.7853981633974483
  9
$DIMTFILL
 70
     0
  9
$DIMTFILLCLR
 70
     0
  9
$DIMARCSYM
 70
     0
  9
$DIMLTYPE
  6

  9
$DIMLTEX1
  6

  9
$DIMLTEX2
  6

  9
$LUNITS
 70
     2
  9
$LUPREC
 70
     4
  9
$SKETCHINC
 40
0.1
  9
$FILLETRAD
 40
0.5
  9
$AUNITS
 70
     0
  9
$AUPREC
 70
     0
  9
$MENU
  1
.
  9
$ELEVATION
 40
0.0
  9
$PELEVATION
 40
0.0
  9
$THICKNESS
 40
0.0
  9
$LIMCHECK
 70
     0
  9
$CHAMFERA
 40
0.5
  9
$CHAMFERB
 40
0.5
  9
$CHAMFERC
 40
1.0
  9
$CHAMFERD
 40
0.0
  9
$SKPOLY
 70
     0
  9
$TDCREATE
 40
2458492.391257778
  9
$TDUCREATE
 40
2458492.224591111
  9
$TDUPDATE
 40
2458492.391258079
  9
$TDUUPDATE
 40
2458492.224591412
  9
$TDINDWG
 40
0.0000000116
  9
$TDUSRTIMER
 40
0.0000000116
  9
$USRTIMER
 70
     1
  9
$ANGBASE
 50
0.0
  9
$ANGDIR
 70
     0
  9
$PDMODE
 70
     0
  9
$PDSIZE
 40
0.0
  9
$PLINEWID
 40
0.0
  9
$SPLFRAME
 70
     0
  9
$SPLINETYPE
 70
     6
  9
$SPLINESEGS
 70
     8
  9
$HANDSEED
  5
15A
  9
$SURFTAB1
 70
     6
  9
$SURFTAB2
 70
     6
  9
$SURFTYPE
 70
     6
  9
$SURFU
 70
     6
  9
$SURFV
 70
     6
  9
$UCSBASE
  2

  9
$UCSNAME
  2

  9
$UCSORG
 10
0.0
 20
0.0
 30
0.0
  9
$UCSXDIR
 10
1.0
 20
0.0
 30
0.0
  9
$UCSYDIR
 10
0.0
 20
1.0
 30
0.0
  9
$UCSORTHOREF
  2

  9
$UCSORTHOVIEW
 70
     0
  9
$UCSORGTOP
 10
0.0
 20
0.0
 30
0.0
  9
$UCSORGBOTTOM
 10
0.0
 20
0.0
 30
0.0
  9
$UCSORGLEFT
 10
0.0
 20
0.0
 30
0.0
  9
$UCSORGRIGHT
 10
0.0
 20
0.0
 30
0.0
  9
$UCSORGFRONT
 10
0.0
 20
0.0
 30
0.0
  9
$UCSORGBACK
 10
0.0
 20
0.0
 30
0.0
  9
$PUCSBASE
  2

  9
$PUCSNAME
  2

  9
$PUCSORG
 10
0.0
 20
0.0
 30
0.0
  9
$PUCSXDIR
 10
1.0
 20
0.0
 30
0.0
  9
$PUCSYDIR
 10
0.0
 20
1.0
 30
0.0
  9
$PUCSORTHOREF
  2

  9
$PUCSORTHOVIEW
 70
     0
  9
$PUCSORGTOP
 10
0.0
 20
0.0
 30
0.0
  9
$PUCSORGBOTTOM
 10
0.0
 20
0.0
 30
0.0
  9
$PUCSORGLEFT
 10
0.0
 20
0.0
 30
0.0
  9
$PUCSORGRIGHT
 10
0.0
 20
0.0
 30
0.0
  9
$PUCSORGFRONT
 10
0.0
 20
0.0
 30
0.0
  9
$PUCSORGBACK
 10
0.0
 20
0.0
 30
0.0
  9
$USERI1
 70
     0
  9
$USERI2
 70
     0
  9
$USERI3
 70
     0
  9
$USERI4
 70
     0
  9
$USERI5
 70
     0
  9
$USERR1
 40
0.0
  9
$USERR2
 40
0.0
  9
$USERR3
 40
0.0
  9
$USERR4
 40
0.0
  9
$USERR5
 40
0.0
  9
$WORLDVIEW
 70
     1
  9
$SHADEDGE
 70
     3
  9
$SHADEDIF
 70
    70
  9
$TILEMODE
 70
     1
  9
$MAXACTVP
 70
    64
  9
$PINSBASE
 10
0.0
 20
0.0
 30
0.0
  9
$PLIMCHECK
 70
     0
  9
$PEXTMIN
 10
1.000000000000000E+20
 20
1.000000000000000E+20
 30
1.000000000000000E+20
  9
$PEXTMAX
 10
-1.000000000000000E+20
 20
-1.000000000000000E+20
 30
-1.000000000000000E+20
  9
$PLIMMIN
 10
0.0
 20
0.0
  9
$PLIMMAX
 10
12.0
 20
9.0
  9
$UNITMODE
 70
     0
  9
$VISRETAIN
 70
     1
  9
$PLINEGEN
 70
     0
  9
$PSLTSCALE
 70
     1
  9
$TREEDEPTH
 70
  3020
  9
$CMLSTYLE
  2
Standard
  9
$CMLJUST
 70
     0
  9
$CMLSCALE
 40
1.0
  9
$PROXYGRAPHICS
 70
     1
  9
$MEASUREMENT
 70
     0
  9
$CELWEIGHT
370
    -1
  9
$ENDCAPS
280
     0
  9
$JOINSTYLE
280
     0
  9
$LWDISPLAY
290
     0
  9
$INSUNITS
 70
     4
  9
$HYPERLINKBASE
  1

  9
$STYLESHEET
  1

  9
$XEDIT
290
     1
  9
$CEPSNTYPE
380
     0
  9
$PSTYLEMODE
290
     1
  9
$FINGERPRINTGUID
  2
{FD1A8CEA-A36D-4926-8576-3A5117EC5ADE}
  9
$VERSIONGUID
  2
{FAEB1C32-E019-11D5-929B-00C0DF256EC4}
  9
$EXTNAMES
290
     1
  9
$PSVPSCALE
 40
0.0
  9
$OLESTARTUP
290
     0
  9
$SORTENTS
280
   127
  9
$INDEXCTL
280
     0
  9
$HIDETEXT
280
     1
  9
$XCLIPFRAME
290
     0
  9
$HALOGAP
280
     0
  9
$OBSCOLOR
 70
   257
  9
$OBSLTYPE
280
     0
  9
$INTERSECTIONDISPLAY
280
     0
  9
$INTERSECTIONCOLOR
 70
   257
  9
$DIMASSOC
280
     2
  9
$PROJECTNAME
  1

  9
$CAMERADISPLAY
290
     0
  9
$LENSLENGTH
 40
50.0
  9
$CAMERAHEIGHT
 40
0.0
  9
$STEPSPERSEC
 40
2.0
  9
$STEPSIZE
 40
6.0
  9
$3DDWFPREC
 40
2.0
  9
$PSOLWIDTH
 40
0.25
  9
$PSOLHEIGHT
 40
4.0
  9
$LOFTANG1
 40
1.570796326794897
  9
$LOFTANG2
 40
1.570796326794897
  9
$LOFTMAG1
 40
0.0
  9
$LOFTMAG2
 40
0.0
  9
$LOFTPARAM
 70
     7
  9
$LOFTNORMALS
280
     1
  9
$LATITUDE
 40
37.795
  9
$LONGITUDE
 40
-122.394
  9
$NORTHDIRECTION
 40
0.0
  9
$TIMEZONE
 70
 -8000
  9
$LIGHTGLYPHDISPLAY
280
     1
  9
$TILEMODELIGHTSYNCH
280
     1
  9
$SOLIDHIST
280
     1
  9
$SHOWHIST
280
     1
  9
$DWFFRAME
280
     2
  9
$DGNFRAME
280
     2
  9
$REALWORLDSCALE
290
     1
  9
$INTERFERECOLOR
 62
   256
  9
$CSHADOW
280
     0
  9
$SHADOWPLANELOCATION
 40
0.0
  0
ENDSEC
  0
SECTION
  2
CLASSES
  0
CLASS
  1
ACDBDICTIONARYWDFLT
  2
AcDbDictionaryWithDefault
  3
ObjectDBX Classes
 90
        0
 91
        4
280
     0
281
     0
  0
CLASS
  1
VISUALSTYLE
  2
AcDbVisualStyle
  3
ObjectDBX Classes
 90
     4095
 91
        4
280
     0
281
     0
  0
CLASS
  1
MATERIAL
  2
AcDbMaterial
  3
ObjectDBX Classes
 90
     1153
 91
        4
280
     0
281
     0
  0
ENDSEC
  0
SECTION
  2
TABLES
  0
TABLE
  2
VPORT
  5
8
330
0
100
AcDbSymbolTable
 70
     1
  0
VPORT
  5
29
330
8
100
AcDbSymbolTableRecord
100
AcDbViewportTableRecord
  2
*Active
 70
     0
 10
0.0
 20
0.0
 11
1.0
 21
1.0
 12
10.42990654205607
 22
4.5
 13
0.0
 23
0.0
 14
0.5
 24
0.5
 15
0.5
 25
0.5
 16
0.0
 26
0.0
 36
1.0
 17
0.0
 27
0.0
 37
0.0
 40
9.0
 41
1.972972972850329
 42
50.0
 43
0.0
 44
0.0
 50
0.0
 51
0.0
 71
     0
 72
   100
 73
     1
 74
     3
 75
     0
 76
     0
 77
     0
 78
     0
281
     0
 65
     1
110
0.0
120
0.0
130
0.0
111
1.0
121
0.0
131
0.0
112
0.0
122
1.0
132
0.0
 79
     0
146
0.0
 60
     3
 61
     5
292
     1
282
     1
141
0.0
142
0.0
 63
   250
  0
ENDTAB
  0
TABLE
  2
LTYPE
  5
5
330
0
100
AcDbSymbolTable
 70
     1
  0
LTYPE
  5
14
330
5
100
AcDbSymbolTableRecord
100
AcDbLinetypeTableRecord
  2
ByBlock
 70
     0
  3

 72
    65
 73
     0
 40
0.0
  0
LTYPE
  5
15
330
5
100
AcDbSymbolTableRecord
100
AcDbLinetypeTableRecord
  2
ByLayer
 70
     0
  3

 72
    65
 73
     0
 40
0.0
  0
LTYPE
  5
16
330
5
100
AcDbSymbolTableRecord
100
AcDbLinetypeTableRecord
  2
Continuous
 70
     0
  3
Solid line
 72
    65
 73
     0
 40
0.0
  0
ENDTAB
  0
TABLE
  2
LAYER
  5
2
330
0
100
AcDbSymbolTable
 70
     2
  0
LAYER
  5
10
330
2
100
AcDbSymbolTableRecord
100
AcDbLayerTableRecord
  2
0
 70
     0
 62
     7
  6
Continuous
370
    -3
390
F
347
3E
  0
LAYER
  5
40
330
2
100
AcDbSymbolTableRecord
100
AcDbLayerTableRecord
  2
layer 1
 70
     0
 62
     7
  6
Continuous
370
    -3
390
F
347
3E
  0
ENDTAB
  0
TABLE
  2
STYLE
  5
3
330
0
100
AcDbSymbolTable
 70
     1
  0
STYLE
  5
11
330
3
100
AcDbSymbolTableRecord
100
AcDbTextStyleTableRecord
  2
Standard
 70
     0
 40
0.0
 41
1.0
 50
0.0
 71
     0
 42
0.2
  3
txt
  4

  0
ENDTAB
  0
TABLE
  2
VIEW
  5
6
330
0
100
AcDbSymbolTable
 70
     0
  0
ENDTAB
  0
TABLE
  2
UCS
  5
7
330
0
100
AcDbSymbolTable
 70
     0
  0
ENDTAB
  0
TABLE
  2
APPID
  5
9
330
0
100
AcDbSymbolTable
 70
     2
  0
APPID
  5
12
330
9
100
AcDbSymbolTableRecord
100
AcDbRegAppTableRecord
  2
ACAD
 70
     0
  0
APPID
  5
3F
330
9
100
AcDbSymbolTableRecord
100
AcDbRegAppTableRecord
  2
ODA
 70
     0
  0
ENDTAB
  0
TABLE
  2
DIMSTYLE
  5
A
330
0
100
AcDbSymbolTable
 70
     1
100
AcDbDimStyleTable
  0
DIMSTYLE
105
27
330
A
100
AcDbSymbolTableRecord
100
AcDbDimStyleTableRecord
  2
Standard
 70
     0
178
     0
340
11
  0
ENDTAB
  0
TABLE
  2
BLOCK_RECORD
  5
1
330
0
100
AcDbSymbolTable
 70
     1
  0
BLOCK_RECORD
  5
1F
330
1
100
AcDbSymbolTableRecord
100
AcDbBlockTableRecord
  2
*Model_Space
340
22
 70
     0
280
     1
281
     0
  0
BLOCK_RECORD
  5
1B
330
1
100
AcDbSymbolTableRecord
100
AcDbBlockTableRecord
  2
*Paper_Space
340
1E
 70
     0
280
     1
281
     0
  0
BLOCK_RECORD
  5
23
330
1
100
AcDbSymbolTableRecord
100
AcDbBlockTableRecord
  2
*Paper_Space0
340
26
 70
     0
280
     1
281
     0
  0
ENDTAB
  0
ENDSEC
  0
SECTION
  2
BLOCKS
  0
BLOCK
  5
20
330
1F
100
AcDbEntity
  8
0
100
AcDbBlockBegin
  2
*Model_Space
 70
     0
 10
0.0
 20
0.0
 30
0.0
  3
*Model_Space
  1

  0
ENDBLK
  5
21
330
1F
100
AcDbEntity
  8
0
100
AcDbBlockEnd
  0
BLOCK
  5
1C
330
1B
100
AcDbEntity
 67
     1
  8
0
100
AcDbBlockBegin
  2
*Paper_Space
 70
     0
 10
0.0
 20
0.0
 30
0.0
  3
*Paper_Space
  1

  0
ENDBLK
  5
1D
330
1B
100
AcDbEntity
 67
     1
  8
0
100
AcDbBlockEnd
  0
BLOCK
  5
24
330
23
100
AcDbEntity
  8
0
100
AcDbBlockBegin
  2
*Paper_Space0
 70
     0
 10
0.0
 20
0.0
 30
0.0
  3
*Paper_Space0
  1

  0
ENDBLK
  5
25
330
23
100
AcDbEntity
  8
0
100
AcDbBlockEnd
  0
ENDSEC
  0
SECTION
  2
ENTITIES
  0
SPLINE
  5
41
330
1F
100
AcDbEntity
  8
layer 1
100
AcDbSpline
210
0.0
220
0.0
230
1.0
 70
    11
 71
     3
 72
    36
 73
    32
 74
     0
 42
0.0000000001
 43
0.0000000001
 12
1.0
 22
0.0
 32
0.0
 13
1.0
 23
0.0
 33
0.0
 40
0.0
 40
0.0
 40
0.0
 40
0.0
 40
0.1111111111111111
 40
0.1111111111111111
 40
0.1111111111111111
 40
0.1111111111111111
 40
0.2222222222222222
 40
0.2222222222222222
 40
0.2222222222222222
 40
0.2222222222222222
 40
0.3333333333333333
 40
0.3333333333333333
 40
0.3333333333333333
 40
0.3333333333333333
 40
0.4444444444444444
 40
0.4444444444444444
 40
0.4444444444444444
 40
0.4444444444444444
 40
0.5555555555555556
 40
0.5555555555555556
 40
0.5555555555555556
 40
0.5555555555555556
 40
0.6666666666666666
 40
0.6666666666666666
 40
0.6666666666666666
 40
0.6666666666666666
 40
0.7777777777777778
 40
0.7777777777777778
 40
0.7777777777777778
 40
0.7777777777777778
 40
1.0
 40
1.0
 40
1.0
 40
1.0
 10
-187.3738
 20
131.8622
 30
0.0
 10
-187.3738
 20
131.8622
 30
0.0
 10
-69.5323
 20
131.8622
 30
0.0
 10
-69.5323
 20
131.8622
 30
0.0
 10
-69.5323
 20
131.8622
 30
0.0
 10
-69.5022
 20
131.8622
 30
0.0
 10
-69.4777
 20
131.8411
 30
0.0
 10
-69.4777
 20
131.8152
 30
0.0
 10
-69.4777
 20
131.8152
 30
0.0
 10
-69.4777
 20
131.8152
 30
0.0
 10
-69.4777
 20
-114.7795
 30
0.0
 10
-69.4777
 20
-114.7795
 30
0.0
 10
-69.4777
 20
-114.7795
 30
0.0
 10
-69.4777
 20
-114.8054
 30
0.0
 10
-69.5022
 20
-114.8264
 30
0.0
 10
-69.5323
 20
-114.8264
 30
0.0
 10
-69.5323
 20
-114.8264
 30
0.0
 10
-69.5323
 20
-114.8264
 30
0.0
 10
-187.3738
 20
-114.8266
 30
0.0
 10
-187.3738
 20
-114.8266
 30
0.0
 10
-187.3738
 20
-114.8266
 30
0.0
 10
-187.4039
 20
-114.8264
 30
0.0
 10
-187.4283
 20
-114.8054
 30
0.0
 10
-187.4283
 20
-114.7795
 30
0.0
 10
-187.4283
 20
-114.7795
 30
0.0
 10
-187.4283
 20
-114.7795
 30
0.0
 10
-187.4284
 20
131.8152
 30
0.0
 10
-187.4284
 20
131.8152
 30
0.0
 10
-187.4284
 20
131.8152
 30
0.0
 10
-187.4283
 20
131.8411
 30
0.0
 10
-187.4039
 20
131.8622
 30
0.0
 10
-187.3738
 20
131.8622
 30
0.0
  0
SPLINE
  5
42
330
1F
100
AcDbEntity
  8
layer 1
 62
     7
100
AcDbSpline
210
0.0
220
0.0
230
1.0
 70
     8
 71
     3
 72
    36
 73
    32
 74
     0
 42
0.0000000001
 43
0.0000000001
 12
1.0
 22
0.0
 32
0.0
 13
1.0
 23
0.0
 33
0.0
 40
0.0
 40
0.0
 40
0.0
 40
0.0
 40
0.1111111111111111
 40
0.1111111111111111
 40
0.1111111111111111
 40
0.1111111111111111
 40
0.2222222222222222
 40
0.2222222222222222
 40
0.2222222222222222
 40
0.2222222222222222
 40
0.3333333333333333
 40
0.3333333333333333
 40
0.3333333333333333
 40
0.3333333333333333
 40
0.4444444444444444
 40
0.4444444444444444
 40
0.4444444444444444
 40
0.4444444444444444
 40
0.5555555555555556
 40
0.5555555555555556
 40
0.5555555555555556
 40
0.5555555555555556
 40
0.6666666666666666
 40
0.6666666666666666
 40
0.6666666666666666
 40
0.6666666666666666
 40
0.7777777777777778
 40
0.7777777777777778
 40
0.7777777777777778
 40
0.7777777777777778
 40
1.0
 40
1.0
 40
1.0
 40
1.0
 10
-154.5911
 20
-59.2217
 30
0.0
 10
-154.5911
 20
-59.2217
 30
0.0
 10
-148.602
 20
-55.8579
 30
0.0
 10
-148.602
 20
-55.8579
 30
0.0
 10
-148.602
 20
-55.8579
 30
0.0
 10
-148.5757
 20
-55.843
 30
0.0
 10
-148.554
 20
-55.8521
 30
0.0
 10
-148.5536
 20
-55.878
 30
0.0
 10
-148.5536
 20
-55.878
 30
0.0
 10
-148.5536
 20
-55.878
 30
0.0
 10
-148.4516
 20
-62.7814
 30
0.0
 10
-148.4516
 20
-62.7814
 30
0.0
 10
-148.4516
 20
-62.7814
 30
0.0
 10
-148.4511
 20
-62.8072
 30
0.0
 10
-148.4721
 20
-62.8402
 30
0.0
 10
-148.4984
 20
-62.855
 30
0.0
 10
-148.4984
 20
-62.855
 30
0.0
 10
-148.4984
 20
-62.855
 30
0.0
 10
-154.4875
 20
-66.219
 30
0.0
 10
-154.4875
 20
-66.219
 30
0.0
 10
-154.4875
 20
-66.219
 30
0.0
 10
-154.5137
 20
-66.2335
 30
0.0
 10
-154.5353
 20
-66.2244
 30
0.0
 10
-154.5357
 20
-66.1985
 30
0.0
 10
-154.5357
 20
-66.1985
 30
0.0
 10
-154.5357
 20
-66.1985
 30
0.0
 10
-154.638
 20
-59.2954
 30
0.0
 10
-154.638
 20
-59.2954
 30
0.0
 10
-154.638
 20
-59.2954
 30
0.0
 10
-154.6383
 20
-59.2693
 30
0.0
 10
-154.6172
 20
-59.2363
 30
0.0
 10
-154.591
 20
-59.2215
 30
0.0
  0
SPLINE
  5
43
330
1F
100
AcDbEntity
  8
layer 1
 62
     7
100
AcDbSpline
210
0.0
220
0.0
230
1.0
 70
    11
 71
     3
 72
    20
 73
    16
 74
     0
 42
0.0000000001
 43
0.0000000001
 12
1.0
 22
0.0
 32
0.0
 13
1.0
 23
0.0
 33
0.0
 40
0.0
 40
0.0
 40
0.0
 40
0.0
 40
0.2
 40
0.2
 40
0.2
 40
0.2
 40
0.4
 40
0.4
 40
0.4
 40
0.4
 40
0.6
 40
0.6
 40
0.6
 40
0.6
 40
1.0
 40
1.0
 40
1.0
 40
1.0
 10
-128.4421
 20
-33.4687
 30
0.0
 10
-128.4421
 20
-33.4687
 30
0.0
 10
-122.3055
 20
-37.0325
 30
0.0
 10
-122.3055
 20
-37.0325
 30
0.0
 10
-122.3055
 20
-37.0325
 30
0.0
 10
-122.3055
 20
-37.0325
 30
0.0
 10
-128.4989
 20
-40.6083
 30
0.0
 10
-128.4989
 20
-40.6083
 30
0.0
 10
-128.4989
 20
-40.6083
 30
0.0
 10
-128.4989
 20
-40.6083
 30
0.0
 10
-134.6536
 20
-37.0549
 30
0.0
 10
-134.6536
 20
-37.0549
 30
0.0
 10
-134.6536
 20
-37.0549
 30
0.0
 10
-134.6536
 20
-37.0549
 30
0.0
 10
-128.4421
 20
-33.4687
 30
0.0
 10
-128.4421
 20
-33.4687
 30
0.0
  0
SPLINE
  5
44
330
1F
100
AcDbEntity
  8
layer 1
 62
     7
100
AcDbSpline
210
0.0
220
0.0
230
1.0
 70
    11
 71
     3
 72
    20
 73
    16
 74
     0
 42
0.0000000001
 43
0.0000000001
 12
1.0
 22
0.0
 32
0.0
 13
1.0
 23
0.0
 33
0.0
 40
0.0
 40
0.0
 40
0.0
 40
0.0
 40
0.2
 40
0.2
 40
0.2
 40
0.2
 40
0.4
 40
0.4
 40
0.4
 40
0.4
 40
0.6
 40
0.6
 40
0.6
 40
0.6
 40
1.0
 40
1.0
 40
1.0
 40
1.0
 10
-146.9502
 20
-33.4687
 30
0.0
 10
-146.9502
 20
-33.4687
 30
0.0
 10
-140.8135
 20
-37.0325
 30
0.0
 10
-140.8135
 20
-37.0325
 30
0.0
 10
-140.8135
 20
-37.0325
 30
0.0
 10
-140.8135
 20
-37.0325
 30
0.0
 10
-147.0069
 20
-40.6083
 30
0.0
 10
-147.0069
 20
-40.6083
 30
0.0
 10
-147.0069
 20
-40.6083
 30
0.0
 10
-147.0069
 20
-40.6083
 30
0.0
 10
-153.1617
 20
-37.0549
 30
0.0
 10
-153.1617
 20
-37.0549
 30
0.0
 10
-153.1617
 20
-37.0549
 30
0.0
 10
-153.1617
 20
-37.0549
 30
0.0
 10
-146.9502
 20
-33.4687
 30
0.0
 10
-146.9502
 20
-33.4687
 30
0.0
  0
SPLINE
  5
45
330
1F
100
AcDbEntity
  8
layer 1
 62
     7
100
AcDbSpline
210
0.0
220
0.0
230
1.0
 70
    11
 71
     3
 72
    20
 73
    16
 74
     0
 42
0.0000000001
 43
0.0000000001
 12
1.0
 22
0.0
 32
0.0
 13
1.0
 23
0.0
 33
0.0
 40
0.0
 40
0.0
 40
0.0
 40
0.0
 40
0.2
 40
0.2
 40
0.2
 40
0.2
 40
0.4
 40
0.4
 40
0.4
 40
0.4
 40
0.6
 40
0.6
 40
0.6
 40
0.6
 40
1.0
 40
1.0
 40
1.0
 40
1.0
 10
-91.4532
 20
-33.3984
 30
0.0
 10
-91.4532
 20
-33.3984
 30
0.0
 10
-85.3165
 20
-36.9623
 30
0.0
 10
-85.3165
 20
-36.9623
 30
0.0
 10
-85.3165
 20
-36.9623
 30
0.0
 10
-85.3165
 20
-36.9623
 30
0.0
 10
-91.51
 20
-40.5381
 30
0.0
 10
-91.51
 20
-40.5381
 30
0.0
 10
-91.51
 20
-40.5381
 30
0.0
 10
-91.51
 20
-40.5381
 30
0.0
 10
-97.6647
 20
-36.9846
 30
0.0
 10
-97.6647
 20
-36.9846
 30
0.0
 10
-97.6647
 20
-36.9846
 30
0.0
 10
-97.6647
 20
-36.9846
 30
0.0
 10
-91.4532
 20
-33.3984
 30
0.0
 10
-91.4532
 20
-33.3984
 30
0.0
  0
SPLINE
  5
46
330
1F
100
AcDbEntity
  8
layer 1
 62
     7
100
AcDbSpline
210
0.0
220
0.0
230
1.0
 70
    11
 71
     3
 72
    20
 73
    16
 74
     0
 42
0.0000000001
 43
0.0000000001
 12
1.0
 22
0.0
 32
0.0
 13
1.0
 23
0.0
 33
0.0
 40
0.0
 40
0.0
 40
0.0
 40
0.0
 40
0.2
 40
0.2
 40
0.2
 40
0.2
 40
0.4
 40
0.4
 40
0.4
 40
0.4
 40
0.6
 40
0.6
 40
0.6
 40
0.6
 40
1.0
 40
1.0
 40
1.0
 40
1.0
 10
-111.5743
 20
-52.3177
 30
0.0
 10
-111.5743
 20
-52.3177
 30
0.0
 10
-111.5924
 20
-45.2212
 30
0.0
 10
-111.5924
 20
-45.2212
 30
0.0
 10
-111.5924
 20
-45.2212
 30
0.0
 10
-111.5924
 20
-45.2212
 30
0.0
 10
-117.7858
 20
-48.797
 30
0.0
 10
-117.7858
 20
-48.797
 30
0.0
 10
-117.7858
 20
-48.797
 30
0.0
 10
-117.7858
 20
-48.797
 30
0.0
 10
-117.7858
 20
-55.9038
 30
0.0
 10
-117.7858
 20
-55.9038
 30
0.0
 10
-117.7858
 20
-55.9038
 30
0.0
 10
-117.7858
 20
-55.9038
 30
0.0
 10
-111.5743
 20
-52.3177
 30
0.0
 10
-111.5743
 20
-52.3177
 30
0.0
  0
SPLINE
  5
47
330
1F
100
AcDbEntity
  8
layer 1
 62
     7
100
AcDbSpline
210
0.0
220
0.0
230
1.0
 70
    11
 71
     3
 72
    20
 73
    16
 74
     0
 42
0.0000000001
 43
0.0000000001
 12
1.0
 22
0.0
 32
0.0
 13
1.0
 23
0.0
 33
0.0
 40
0.0
 40
0.0
 40
0.0
 40
0.0
 40
0.2
 40
0.2
 40
0.2
 40
0.2
 40
0.4
 40
0.4
 40
0.4
 40
0.4
 40
0.6
 40
0.6
 40
0.6
 40
0.6
 40
1.0
 40
1.0
 40
1.0
 40
1.0
 10
-126.9012
 20
-52.1508
 30
0.0
 10
-126.9012
 20
-52.1508
 30
0.0
 10
-126.8831
 20
-45.0544
 30
0.0
 10
-126.8831
 20
-45.0544
 30
0.0
 10
-126.8831
 20
-45.0544
 30
0.0
 10
-126.8831
 20
-45.0544
 30
0.0
 10
-120.6897
 20
-48.6302
 30
0.0
 10
-120.6897
 20
-48.6302
 30
0.0
 10
-120.6897
 20
-48.6302
 30
0.0
 10
-120.6897
 20
-48.6302
 30
0.0
 10
-120.6897
 20
-55.737
 30
0.0
 10
-120.6897
 20
-55.737
 30
0.0
 10
-120.6897
 20
-55.737
 30
0.0
 10
-120.6897
 20
-55.737
 30
0.0
 10
-126.9012
 20
-52.1508
 30
0.0
 10
-126.9012
 20
-52.1508
 30
0.0
  0
SPLINE
  5
48
330
1F
100
AcDbEntity
  8
layer 1
 62
     7
100
AcDbSpline
210
0.0
220
0.0
230
1.0
 70
    11
 71
     3
 72
    20
 73
    16
 74
     0
 42
0.0000000001
 43
0.0000000001
 12
1.0
 22
0.0
 32
0.0
 13
1.0
 23
0.0
 33
0.0
 40
0.0
 40
0.0
 40
0.0
 40
0.0
 40
0.2
 40
0.2
 40
0.2
 40
0.2
 40
0.4
 40
0.4
 40
0.4
 40
0.4
 40
0.6
 40
0.6
 40
0.6
 40
0.6
 40
1.0
 40
1.0
 40
1.0
 40
1.0
 10
-102.2915
 20
-46.8667
 30
0.0
 10
-102.2915
 20
-46.8667
 30
0.0
 10
-102.3096
 20
-39.7702
 30
0.0
 10
-102.3096
 20
-39.7702
 30
0.0
 10
-102.3096
 20
-39.7702
 30
0.0
 10
-102.3096
 20
-39.7702
 30
0.0
 10
-108.503
 20
-43.346
 30
0.0
 10
-108.503
 20
-43.346
 30
0.0
 10
-108.503
 20
-43.346
 30
0.0
 10
-108.503
 20
-43.346
 30
0.0
 10
-108.503
 20
-50.4529
 30
0.0
 10
-108.503
 20
-50.4529
 30
0.0
 10
-108.503
 20
-50.4529
 30
0.0
 10
-108.503
 20
-50.4529
 30
0.0
 10
-102.2915
 20
-46.8667
 30
0.0
 10
-102.2915
 20
-46.8667
 30
0.0
  0
SPLINE
  5
49
330
1F
100
AcDbEntity
  8
layer 1
 62
     7
100
AcDbSpline
210
0.0
220
0.0
230
1.0
 70
    11
 71
     3
 72
    20
 73
    16
 74
     0
 42
0.0000000001
 43
0.0000000001
 12
1.0
 22
0.0
 32
0.0
 13
1.0
 23
0.0
 33
0.0
 40
0.0
 40
0.0
 40
0.0
 40
0.0
 40
0.2
 40
0.2
 40
0.2
 40
0.2
 40
0.4
 40
0.4
 40
0.4
 40
0.4
 40
0.6
 40
0.6
 40
0.6
 40
0.6
 40
1.0
 40
1.0
 40
1.0
 40
1.0
 10
-165.4695
 20
-33.4687
 30
0.0
 10
-165.4695
 20
-33.4687
 30
0.0
 10
-159.3328
 20
-37.0325
 30
0.0
 10
-159.3328
 20
-37.0325
 30
0.0
 10
-159.3328
 20
-37.0325
 30
0.0
 10
-159.3328
 20
-37.0325
 30
0.0
 10
-165.5262
 20
-40.6083
 30
0.0
 10
-165.5262
 20
-40.6083
 30
0.0
 10
-165.5262
 20
-40.6083
 30
0.0
 10
-165.5262
 20
-40.6083
 30
0.0
 10
-171.681
 20
-37.0549
 30
0.0
 10
-171.681
 20
-37.0549
 30
0.0
 10
-171.681
 20
-37.0549
 30
0.0
 10
-171.681
 20
-37.0549
 30
0.0
 10
-165.4695
 20
-33.4687
 30
0.0
 10
-165.4695
 20
-33.4687
 30
0.0
  0
SPLINE
  5
4A
330
1F
100
AcDbEntity
  8
layer 1
 62
     7
100
AcDbSpline
210
0.0
220
0.0
230
1.0
 70
    11
 71
     3
 72
    16
 73
    12
 74
     0
 42
0.0000000001
 43
0.0000000001
 12
1.0
 22
0.0
 32
0.0
 13
1.0
 23
0.0
 33
0.0
 40
0.0
 40
0.0
 40
0.0
 40
0.0
 40
0.25
 40
0.25
 40
0.25
 40
0.25
 40
0.5
 40
0.5
 40
0.5
 40
0.5
 40
1.0
 40
1.0
 40
1.0
 40
1.0
 10
-181.1328
 20
-35.2147
 30
0.0
 10
-181.1328
 20
-35.2147
 30
0.0
 10
-178.0028
 20
-37.0325
 30
0.0
 10
-178.0028
 20
-37.0325
 30
0.0
 10
-178.0028
 20
-37.0325
 30
0.0
 10
-178.0028
 20
-37.0325
 30
0.0
 10
-181.1429
 20
-38.8455
 30
0.0
 10
-181.1429
 20
-38.8455
 30
0.0
 10
-181.1429
 20
-38.8455
 30
0.0
 10
-181.1429
 20
-38.8455
 30
0.0
 10
-181.1328
 20
-35.2147
 30
0.0
 10
-181.1328
 20
-35.2147
 30
0.0
  0
SPLINE
  5
4B
330
1F
100
AcDbEntity
  8
layer 1
 62
     7
100
AcDbSpline
210
0.0
220
0.0
230
1.0
 70
    11
 71
     3
 72
    20
 73
    16
 74
     0
 42
0.0000000001
 43
0.0000000001
 12
1.0
 22
0.0
 32
0.0
 13
1.0
 23
0.0
 33
0.0
 40
0.0
 40
0.0
 40
0.0
 40
0.0
 40
0.2
 40
0.2
 40
0.2
 40
0.2
 40
0.4
 40
0.4
 40
0.4
 40
0.4
 40
0.6
 40
0.6
 40
0.6
 40
0.6
 40
1.0
 40
1.0
 40
1.0
 40
1.0
 10
-181.1313
 20
-49.5994
 30
0.0
 10
-181.1313
 20
-49.5994
 30
0.0
 10
-176.353
 20
-46.8406
 30
0.0
 10
-176.353
 20
-46.8406
 30
0.0
 10
-176.353
 20
-46.8406
 30
0.0
 10
-176.353
 20
-46.8406
 30
0.0
 10
-176.353
 20
-39.7338
 30
0.0
 10
-176.353
 20
-39.7338
 30
0.0
 10
-176.353
 20
-39.7338
 30
0.0
 10
-176.353
 20
-39.7338
 30
0.0
 10
-181.1281
 20
-42.4907
 30
0.0
 10
-181.1281
 20
-42.4907
 30
0.0
 10
-181.1281
 20
-42.4907
 30
0.0
 10
-181.1281
 20
-42.4907
 30
0.0
 10
-181.1313
 20
-49.5994
 30
0.0
 10
-181.1313
 20
-49.5994
 30
0.0
  0
SPLINE
  5
4C
330
1F
100
AcDbEntity
  8
layer 1
 62
     7
100
AcDbSpline
210
0.0
220
0.0
230
1.0
 70
    11
 71
     3
 72
    20
 73
    16
 74
     0
 42
0.0000000001
 43
0.0000000001
 12
1.0
 22
0.0
 32
0.0
 13
1.0
 23
0.0
 33
0.0
 40
0.0
 40
0.0
 40
0.0
 40
0.0
 40
0.2
 40
0.2
 40
0.2
 40
0.2
 40
0.4
 40
0.4
 40
0.4
 40
0.4
 40
0.6
 40
0.6
 40
0.6
 40
0.6
 40
1.0
 40
1.0
 40
1.0
 40
1.0
 10
-166.8865
 20
-43.2709
 30
0.0
 10
-166.8865
 20
-43.2709
 30
0.0
 10
-166.9046
 20
-50.3673
 30
0.0
 10
-166.9046
 20
-50.3673
 30
0.0
 10
-166.9046
 20
-50.3673
 30
0.0
 10
-166.9046
 20
-50.3673
 30
0.0
 10
-173.098
 20
-46.7915
 30
0.0
 10
-173.098
 20
-46.7915
 30
0.0
 10
-173.098
 20
-46.7915
 30
0.0
 10
-173.098
 20
-46.7915
 30
0.0
 10
-173.098
 20
-39.6847
 30
0.0
 10
-173.098
 20
-39.6847
 30
0.0
 10
-173.098
 20
-39.6847
 30
0.0
 10
-173.098
 20
-39.6847
 30
0.0
 10
-166.8865
 20
-43.2709
 30
0.0
 10
-166.8865
 20
-43.2709
 30
0.0
  0
SPLINE
  5
4D
330
1F
100
AcDbEntity
  8
layer 1
 62
     7
100
AcDbSpline
210
0.0
220
0.0
230
1.0
 70
    11
 71
     3
 72
    20
 73
    16
 74
     0
 42
0.0000000001
 43
0.0000000001
 12
1.0
 22
0.0
 32
0.0
 13
1.0
 23
0.0
 33
0.0
 40
0.0
 40
0.0
 40
0.0
 40
0.0
 40
0.2
 40
0.2
 40
0.2
 40
0.2
 40
0.4
 40
0.4
 40
0.4
 40
0.4
 40
0.6
 40
0.6
 40
0.6
 40
0.6
 40
1.0
 40
1.0
 40
1.0
 40
1.0
 10
-156.144
 20
-38.8214
 30
0.0
 10
-156.144
 20
-38.8214
 30
0.0
 10
-150.0073
 20
-42.3853
 30
0.0
 10
-150.0073
 20
-42.3853
 30
0.0
 10
-150.0073
 20
-42.3853
 30
0.0
 10
-150.0073
 20
-42.3853
 30
0.0
 10
-156.2007
 20
-45.9611
 30
0.0
 10
-156.2007
 20
-45.9611
 30
0.0
 10
-156.2007
 20
-45.9611
 30
0.0
 10
-156.2007
 20
-45.9611
 30
0.0
 10
-162.3555
 20
-42.4076
 30
0.0
 10
-162.3555
 20
-42.4076
 30
0.0
 10
-162.3555
 20
-42.4076
 30
0.0
 10
-162.3555
 20
-42.4076
 30
0.0
 10
-156.144
 20
-38.8214
 30
0.0
 10
-156.144
 20
-38.8214
 30
0.0
  0
SPLINE
  5
4E
330
1F
100
AcDbEntity
  8
layer 1
 62
     7
100
AcDbSpline
210
0.0
220
0.0
230
1.0
 70
    11
 71
     3
 72
    20
 73
    16
 74
     0
 42
0.0000000001
 43
0.0000000001
 12
1.0
 22
0.0
 32
0.0
 13
1.0
 23
0.0
 33
0.0
 40
0.0
 40
0.0
 40
0.0
 40
0.0
 40
0.2
 40
0.2
 40
0.2
 40
0.2
 40
0.4
 40
0.4
 40
0.4
 40
0.4
 40
0.6
 40
0.6
 40
0.6
 40
0.6
 40
1.0
 40
1.0
 40
1.0
 40
1.0
 10
-110.0422
 20
-33.4687
 30
0.0
 10
-110.0422
 20
-33.4687
 30
0.0
 10
-103.9056
 20
-37.0325
 30
0.0
 10
-103.9056
 20
-37.0325
 30
0.0
 10
-103.9056
 20
-37.0325
 30
0.0
 10
-103.9056
 20
-37.0325
 30
0.0
 10
-110.099
 20
-40.6083
 30
0.0
 10
-110.099
 20
-40.6083
 30
0.0
 10
-110.099
 20
-40.6083
 30
0.0
 10
-110.099
 20
-40.6083
 30
0.0
 10
-116.2537
 20
-37.0549
 30
0.0
 10
-116.2537
 20
-37.0549
 30
0.0
 10
-116.2537
 20
-37.0549
 30
0.0
 10
-116.2537
 20
-37.0549
 30
0.0
 10
-110.0422
 20
-33.4687
 30
0.0
 10
-110.0422
 20
-33.4687
 30
0.0
  0
SPLINE
  5
4F
330
1F
100
AcDbEntity
  8
layer 1
 62
     7
100
AcDbSpline
210
0.0
220
0.0
230
1.0
 70
    11
 71
     3
 72
    20
 73
    16
 74
     0
 42
0.0000000001
 43
0.0000000001
 12
1.0
 22
0.0
 32
0.0
 13
1.0
 23
0.0
 33
0.0
 40
0.0
 40
0.0
 40
0.0
 40
0.0
 40
0.2
 40
0.2
 40
0.2
 40
0.2
 40
0.4
 40
0.4
 40
0.4
 40
0.4
 40
0.6
 40
0.6
 40
0.6
 40
0.6
 40
1.0
 40
1.0
 40
1.0
 40
1.0
 10
-119.2361
 20
-38.8214
 30
0.0
 10
-119.2361
 20
-38.8214
 30
0.0
 10
-113.0995
 20
-42.3853
 30
0.0
 10
-113.0995
 20
-42.3853
 30
0.0
 10
-113.0995
 20
-42.3853
 30
0.0
 10
-113.0995
 20
-42.3853
 30
0.0
 10
-119.2929
 20
-45.9611
 30
0.0
 10
-119.2929
 20
-45.9611
 30
0.0
 10
-119.2929
 20
-45.9611
 30
0.0
 10
-119.2929
 20
-45.9611
 30
0.0
 10
-125.4476
 20
-42.4076
 30
0.0
 10
-125.4476
 20
-42.4076
 30
0.0
 10
-125.4476
 20
-42.4076
 30
0.0
 10
-125.4476
 20
-42.4076
 30
0.0
 10
-119.2361
 20
-38.8214
 30
0.0
 10
-119.2361
 20
-38.8214
 30
0.0
  0
SPLINE
  5
50
330
1F
100
AcDbEntity
  8
layer 1
 62
     7
100
AcDbSpline
210
0.0
220
0.0
230
1.0
 70
    11
 71
     3
 72
    16
 73
    12
 74
     0
 42
0.0000000001
 43
0.0000000001
 12
1.0
 22
0.0
 32
0.0
 13
1.0
 23
0.0
 33
0.0
 40
0.0
 40
0.0
 40
0.0
 40
0.0
 40
0.25
 40
0.25
 40
0.25
 40
0.25
 40
0.5
 40
0.5
 40
0.5
 40
0.5
 40
1.0
 40
1.0
 40
1.0
 40
1.0
 10
-75.7481
 20
-39.0901
 30
0.0
 10
-75.7481
 20
-39.0901
 30
0.0
 10
-79.2732
 20
-37.0549
 30
0.0
 10
-79.2732
 20
-37.0549
 30
0.0
 10
-79.2732
 20
-37.0549
 30
0.0
 10
-79.2732
 20
-37.0549
 30
0.0
 10
-75.7194
 20
-35.0031
 30
0.0
 10
-75.7194
 20
-35.0031
 30
0.0
 10
-75.7194
 20
-35.0031
 30
0.0
 10
-75.7194
 20
-35.0031
 30
0.0
 10
-75.7481
 20
-39.0901
 30
0.0
 10
-75.7481
 20
-39.0901
 30
0.0
  0
SPLINE
  5
51
330
1F
100
AcDbEntity
  8
layer 1
 62
     7
100
AcDbSpline
210
0.0
220
0.0
230
1.0
 70
    11
 71
     3
 72
    20
 73
    16
 74
     0
 42
0.0000000001
 43
0.0000000001
 12
1.0
 22
0.0
 32
0.0
 13
1.0
 23
0.0
 33
0.0
 40
0.0
 40
0.0
 40
0.0
 40
0.0
 40
0.2
 40
0.2
 40
0.2
 40
0.2
 40
0.4
 40
0.4
 40
0.4
 40
0.4
 40
0.6
 40
0.6
 40
0.6
 40
0.6
 40
1.0
 40
1.0
 40
1.0
 40
1.0
 10
-82.2555
 20
-38.8214
 30
0.0
 10
-82.2555
 20
-38.8214
 30
0.0
 10
-76.1189
 20
-42.3853
 30
0.0
 10
-76.1189
 20
-42.3853
 30
0.0
 10
-76.1189
 20
-42.3853
 30
0.0
 10
-76.1189
 20
-42.3853
 30
0.0
 10
-82.3123
 20
-45.9611
 30
0.0
 10
-82.3123
 20
-45.9611
 30
0.0
 10
-82.3123
 20
-45.9611
 30
0.0
 10
-82.3123
 20
-45.9611
 30
0.0
 10
-88.467
 20
-42.4076
 30
0.0
 10
-88.467
 20
-42.4076
 30
0.0
 10
-88.467
 20
-42.4076
 30
0.0
 10
-88.467
 20
-42.4076
 30
0.0
 10
-82.2555
 20
-38.8214
 30
0.0
 10
-82.2555
 20
-38.8214
 30
0.0
  0
SPLINE
  5
52
330
1F
100
AcDbEntity
  8
layer 1
 62
     7
100
AcDbSpline
210
0.0
220
0.0
230
1.0
 70
    11
 71
     3
 72
    20
 73
    16
 74
     0
 42
0.0000000001
 43
0.0000000001
 12
1.0
 22
0.0
 32
0.0
 13
1.0
 23
0.0
 33
0.0
 40
0.0
 40
0.0
 40
0.0
 40
0.0
 40
0.2
 40
0.2
 40
0.2
 40
0.2
 40
0.4
 40
0.4
 40
0.4
 40
0.4
 40
0.6
 40
0.6
 40
0.6
 40
0.6
 40
1.0
 40
1.0
 40
1.0
 40
1.0
 10
-148.5632
 20
-52.1717
 30
0.0
 10
-148.5632
 20
-52.1717
 30
0.0
 10
-148.5813
 20
-45.0753
 30
0.0
 10
-148.5813
 20
-45.0753
 30
0.0
 10
-148.5813
 20
-45.0753
 30
0.0
 10
-148.5813
 20
-45.0753
 30
0.0
 10
-154.7747
 20
-48.6511
 30
0.0
 10
-154.7747
 20
-48.6511
 30
0.0
 10
-154.7747
 20
-48.6511
 30
0.0
 10
-154.7747
 20
-48.6511
 30
0.0
 10
-154.7747
 20
-55.7579
 30
0.0
 10
-154.7747
 20
-55.7579
 30
0.0
 10
-154.7747
 20
-55.7579
 30
0.0
 10
-154.7747
 20
-55.7579
 30
0.0
 10
-148.5632
 20
-52.1717
 30
0.0
 10
-148.5632
 20
-52.1717
 30
0.0
  0
SPLINE
  5
53
330
1F
100
AcDbEntity
  8
layer 1
 62
     7
100
AcDbSpline
210
0.0
220
0.0
230
1.0
 70
    11
 71
     3
 72
    20
 73
    16
 74
     0
 42
0.0000000001
 43
0.0000000001
 12
1.0
 22
0.0
 32
0.0
 13
1.0
 23
0.0
 33
0.0
 40
0.0
 40
0.0
 40
0.0
 40
0.0
 40
0.2
 40
0.2
 40
0.2
 40
0.2
 40
0.4
 40
0.4
 40
0.4
 40
0.4
 40
0.6
 40
0.6
 40
0.6
 40
0.6
 40
1.0
 40
1.0
 40
1.0
 40
1.0
 10
-163.9893
 20
-52.1717
 30
0.0
 10
-163.9893
 20
-52.1717
 30
0.0
 10
-163.9712
 20
-45.0753
 30
0.0
 10
-163.9712
 20
-45.0753
 30
0.0
 10
-163.9712
 20
-45.0753
 30
0.0
 10
-163.9712
 20
-45.0753
 30
0.0
 10
-157.7777
 20
-48.6511
 30
0.0
 10
-157.7777
 20
-48.6511
 30
0.0
 10
-157.7777
 20
-48.6511
 30
0.0
 10
-157.7777
 20
-48.6511
 30
0.0
 10
-157.7777
 20
-55.7579
 30
0.0
 10
-157.7777
 20
-55.7579
 30
0.0
 10
-157.7777
 20
-55.7579
 30
0.0
 10
-157.7777
 20
-55.7579
 30
0.0
 10
-163.9893
 20
-52.1717
 30
0.0
 10
-163.9893
 20
-52.1717
 30
0.0
  0
SPLINE
  5
54
330
1F
100
AcDbEntity
  8
layer 1
 62
     7
100
AcDbSpline
210
0.0
220
0.0
230
1.0
 70
    11
 71
     3
 72
    20
 73
    16
 74
     0
 42
0.0000000001
 43
0.0000000001
 12
1.0
 22
0.0
 32
0.0
 13
1.0
 23
0.0
 33
0.0
 40
0.0
 40
0.0
 40
0.0
 40
0.0
 40
0.2
 40
0.2
 40
0.2
 40
0.2
 40
0.4
 40
0.4
 40
0.4
 40
0.4
 40
0.6
 40
0.6
 40
0.6
 40
0.6
 40
1.0
 40
1.0
 40
1.0
 40
1.0
 10
-139.3075
 20
-46.8289
 30
0.0
 10
-139.3075
 20
-46.8289
 30
0.0
 10
-139.3256
 20
-39.7325
 30
0.0
 10
-139.3256
 20
-39.7325
 30
0.0
 10
-139.3256
 20
-39.7325
 30
0.0
 10
-139.3256
 20
-39.7325
 30
0.0
 10
-145.519
 20
-43.3082
 30
0.0
 10
-145.519
 20
-43.3082
 30
0.0
 10
-145.519
 20
-43.3082
 30
0.0
 10
-145.519
 20
-43.3082
 30
0.0
 10
-145.519
 20
-50.4151
 30
0.0
 10
-145.519
 20
-50.4151
 30
0.0
 10
-145.519
 20
-50.4151
 30
0.0
 10
-145.519
 20
-50.4151
 30
0.0
 10
-139.3075
 20
-46.8289
 30
0.0
 10
-139.3075
 20
-46.8289
 30
0.0
  0
SPLINE
  5
55
330
1F
100
AcDbEntity
  8
layer 1
 62
     7
100
AcDbSpline
210
0.0
220
0.0
230
1.0
 70
    11
 71
     3
 72
    20
 73
    16
 74
     0
 42
0.0000000001
 43
0.0000000001
 12
1.0
 22
0.0
 32
0.0
 13
1.0
 23
0.0
 33
0.0
 40
0.0
 40
0.0
 40
0.0
 40
0.0
 40
0.2
 40
0.2
 40
0.2
 40
0.2
 40
0.4
 40
0.4
 40
0.4
 40
0.4
 40
0.6
 40
0.6
 40
0.6
 40
0.6
 40
1.0
 40
1.0
 40
1.0
 40
1.0
 10
-136.0706
 20
-46.8568
 30
0.0
 10
-136.0706
 20
-46.8568
 30
0.0
 10
-136.0525
 20
-39.7604
 30
0.0
 10
-136.0525
 20
-39.7604
 30
0.0
 10
-136.0525
 20
-39.7604
 30
0.0
 10
-136.0525
 20
-39.7604
 30
0.0
 10
-129.8591
 20
-43.3361
 30
0.0
 10
-129.8591
 20
-43.3361
 30
0.0
 10
-129.8591
 20
-43.3361
 30
0.0
 10
-129.8591
 20
-43.3361
 30
0.0
 10
-129.8591
 20
-50.443
 30
0.0
 10
-129.8591
 20
-50.443
 30
0.0
 10
-129.8591
 20
-50.443
 30
0.0
 10
-129.8591
 20
-50.443
 30
0.0
 10
-136.0706
 20
-46.8568
 30
0.0
 10
-136.0706
 20
-46.8568
 30
0.0
  0
SPLINE
  5
56
330
1F
100
AcDbEntity
  8
layer 1
 62
     7
100
AcDbSpline
210
0.0
220
0.0
230
1.0
 70
    11
 71
     3
 72
    20
 73
    16
 74
     0
 42
0.0000000001
 43
0.0000000001
 12
1.0
 22
0.0
 32
0.0
 13
1.0
 23
0.0
 33
0.0
 40
0.0
 40
0.0
 40
0.0
 40
0.0
 40
0.2
 40
0.2
 40
0.2
 40
0.2
 40
0.4
 40
0.4
 40
0.4
 40
0.4
 40
0.6
 40
0.6
 40
0.6
 40
0.6
 40
1.0
 40
1.0
 40
1.0
 40
1.0
 10
-89.9555
 20
-52.0545
 30
0.0
 10
-89.9555
 20
-52.0545
 30
0.0
 10
-89.9374
 20
-44.9581
 30
0.0
 10
-89.9374
 20
-44.9581
 30
0.0
 10
-89.9374
 20
-44.9581
 30
0.0
 10
-89.9374
 20
-44.9581
 30
0.0
 10
-83.744
 20
-48.5339
 30
0.0
 10
-83.744
 20
-48.5339
 30
0.0
 10
-83.744
 20
-48.5339
 30
0.0
 10
-83.744
 20
-48.5339
 30
0.0
 10
-83.744
 20
-55.6407
 30
0.0
 10
-83.744
 20
-55.6407
 30
0.0
 10
-83.744
 20
-55.6407
 30
0.0
 10
-83.744
 20
-55.6407
 30
0.0
 10
-89.9555
 20
-52.0545
 30
0.0
 10
-89.9555
 20
-52.0545
 30
0.0
  0
SPLINE
  5
57
330
1F
100
AcDbEntity
  8
layer 1
 62
     7
100
AcDbSpline
210
0.0
220
0.0
230
1.0
 70
    11
 71
     3
 72
    20
 73
    16
 74
     0
 42
0.0000000001
 43
0.0000000001
 12
1.0
 22
0.0
 32
0.0
 13
1.0
 23
0.0
 33
0.0
 40
0.0
 40
0.0
 40
0.0
 40
0.0
 40
0.2
 40
0.2
 40
0.2
 40
0.2
 40
0.4
 40
0.4
 40
0.4
 40
0.4
 40
0.6
 40
0.6
 40
0.6
 40
0.6
 40
1.0
 40
1.0
 40
1.0
 40
1.0
 10
-99.125
 20
-46.7605
 30
0.0
 10
-99.125
 20
-46.7605
 30
0.0
 10
-99.1069
 20
-39.6641
 30
0.0
 10
-99.1069
 20
-39.6641
 30
0.0
 10
-99.1069
 20
-39.6641
 30
0.0
 10
-99.1069
 20
-39.6641
 30
0.0
 10
-92.9135
 20
-43.2398
 30
0.0
 10
-92.9135
 20
-43.2398
 30
0.0
 10
-92.9135
 20
-43.2398
 30
0.0
 10
-92.9135
 20
-43.2398
 30
0.0
 10
-92.9135
 20
-50.3467
 30
0.0
 10
-92.9135
 20
-50.3467
 30
0.0
 10
-92.9135
 20
-50.3467
 30
0.0
 10
-92.9135
 20
-50.3467
 30
0.0
 10
-99.125
 20
-46.7605
 30
0.0
 10
-99.125
 20
-46.7605
 30
0.0
  0
SPLINE
  5
58
330
1F
100
AcDbEntity
  8
layer 1
 62
     7
100
AcDbSpline
210
0.0
220
0.0
230
1.0
 70
    11
 71
     3
 72
    20
 73
    16
 74
     0
 42
0.0000000001
 43
0.0000000001
 12
1.0
 22
0.0
 32
0.0
 13
1.0
 23
0.0
 33
0.0
 40
0.0
 40
0.0
 40
0.0
 40
0.0
 40
0.2
 40
0.2
 40
0.2
 40
0.2
 40
0.4
 40
0.4
 40
0.4
 40
0.4
 40
0.6
 40
0.6
 40
0.6
 40
0.6
 40
1.0
 40
1.0
 40
1.0
 40
1.0
 10
-75.6718
 20
-45.8877
 30
0.0
 10
-75.6718
 20
-45.8877
 30
0.0
 10
-80.7109
 20
-48.797
 30
0.0
 10
-80.7109
 20
-48.797
 30
0.0
 10
-80.7109
 20
-48.797
 30
0.0
 10
-80.7109
 20
-48.797
 30
0.0
 10
-80.7109
 20
-55.9039
 30
0.0
 10
-80.7109
 20
-55.9039
 30
0.0
 10
-80.7109
 20
-55.9039
 30
0.0
 10
-80.7109
 20
-55.9039
 30
0.0
 10
-75.6954
 20
-53.0083
 30
0.0
 10
-75.6954
 20
-53.0083
 30
0.0
 10
-75.6954
 20
-53.0083
 30
0.0
 10
-75.6954
 20
-53.0083
 30
0.0
 10
-75.6718
 20
-45.8877
 30
0.0
 10
-75.6718
 20
-45.8877
 30
0.0
  0
SPLINE
  5
59
330
1F
100
AcDbEntity
  8
layer 1
 62
     7
100
AcDbSpline
210
0.0
220
0.0
230
1.0
 70
    11
 71
     3
 72
    28
 73
    24
 74
     0
 42
0.0000000001
 43
0.0000000001
 12
1.0
 22
0.0
 32
0.0
 13
1.0
 23
0.0
 33
0.0
 40
0.0
 40
0.0
 40
0.0
 40
0.0
 40
0.1428571428571428
 40
0.1428571428571428
 40
0.1428571428571428
 40
0.1428571428571428
 40
0.2857142857142857
 40
0.2857142857142857
 40
0.2857142857142857
 40
0.2857142857142857
 40
0.4285714285714285
 40
0.4285714285714285
 40
0.4285714285714285
 40
0.4285714285714285
 40
0.5714285714285714
 40
0.5714285714285714
 40
0.5714285714285714
 40
0.5714285714285714
 40
0.7142857142857143
 40
0.7142857142857143
 40
0.7142857142857143
 40
0.7142857142857143
 40
1.0
 40
1.0
 40
1.0
 40
1.0
 10
-111.4692
 20
-85.9886
 30
0.0
 10
-111.4692
 20
-85.9886
 30
0.0
 10
-111.4692
 20
-94.8675
 30
0.0
 10
-111.4692
 20
-94.8675
 30
0.0
 10
-111.4692
 20
-94.8675
 30
0.0
 10
-111.4692
 20
-94.8675
 30
0.0
 10
-119.1547
 20
-99.307
 30
0.0
 10
-119.1547
 20
-99.307
 30
0.0
 10
-119.1547
 20
-99.307
 30
0.0
 10
-119.1547
 20
-99.307
 30
0.0
 10
-126.8402
 20
-94.8675
 30
0.0
 10
-126.8402
 20
-94.8675
 30
0.0
 10
-126.8402
 20
-94.8675
 30
0.0
 10
-126.8402
 20
-94.8675
 30
0.0
 10
-126.8402
 20
-85.9886
 30
0.0
 10
-126.8402
 20
-85.9886
 30
0.0
 10
-126.8402
 20
-85.9886
 30
0.0
 10
-126.8402
 20
-85.9886
 30
0.0
 10
-119.1547
 20
-81.5492
 30
0.0
 10
-119.1547
 20
-81.5492
 30
0.0
 10
-119.1547
 20
-81.5492
 30
0.0
 10
-119.1547
 20
-81.5492
 30
0.0
 10
-111.4692
 20
-85.9886
 30
0.0
 10
-111.4692
 20
-85.9886
 30
0.0
  0
SPLINE
  5
5A
330
1F
100
AcDbEntity
  8
layer 1
 62
     7
100
AcDbSpline
210
0.0
220
0.0
230
1.0
 70
    11
 71
     3
 72
    20
 73
    16
 74
     0
 42
0.0000000001
 43
0.0000000001
 12
1.0
 22
0.0
 32
0.0
 13
1.0
 23
0.0
 33
0.0
 40
0.0
 40
0.0
 40
0.0
 40
0.0
 40
0.2
 40
0.2
 40
0.2
 40
0.2
 40
0.4
 40
0.4
 40
0.4
 40
0.4
 40
0.6
 40
0.6
 40
0.6
 40
0.6
 40
1.0
 40
1.0
 40
1.0
 40
1.0
 10
-137.5863
 20
-70.8565
 30
0.0
 10
-137.5863
 20
-70.8565
 30
0.0
 10
-131.4496
 20
-74.4204
 30
0.0
 10
-131.4496
 20
-74.4204
 30
0.0
 10
-131.4496
 20
-74.4204
 30
0.0
 10
-131.4496
 20
-74.4204
 30
0.0
 10
-137.6431
 20
-77.9962
 30
0.0
 10
-137.6431
 20
-77.9962
 30
0.0
 10
-137.6431
 20
-77.9962
 30
0.0
 10
-137.6431
 20
-77.9962
 30
0.0
 10
-143.7978
 20
-74.4427
 30
0.0
 10
-143.7978
 20
-74.4427
 30
0.0
 10
-143.7978
 20
-74.4427
 30
0.0
 10
-143.7978
 20
-74.4427
 30
0.0
 10
-137.5863
 20
-70.8565
 30
0.0
 10
-137.5863
 20
-70.8565
 30
0.0
  0
SPLINE
  5
5B
330
1F
100
AcDbEntity
  8
layer 1
 62
     7
100
AcDbSpline
210
0.0
220
0.0
230
1.0
 70
    11
 71
     3
 72
    20
 73
    16
 74
     0
 42
0.0000000001
 43
0.0000000001
 12
1.0
 22
0.0
 32
0.0
 13
1.0
 23
0.0
 33
0.0
 40
0.0
 40
0.0
 40
0.0
 40
0.0
 40
0.2
 40
0.2
 40
0.2
 40
0.2
 40
0.4
 40
0.4
 40
0.4
 40
0.4
 40
0.6
 40
0.6
 40
0.6
 40
0.6
 40
1.0
 40
1.0
 40
1.0
 40
1.0
 10
-129.8591
 20
-84.0821
 30
0.0
 10
-129.8591
 20
-84.0821
 30
0.0
 10
-129.8772
 20
-76.9857
 30
0.0
 10
-129.8772
 20
-76.9857
 30
0.0
 10
-129.8772
 20
-76.9857
 30
0.0
 10
-129.8772
 20
-76.9857
 30
0.0
 10
-136.0706
 20
-80.5614
 30
0.0
 10
-136.0706
 20
-80.5614
 30
0.0
 10
-136.0706
 20
-80.5614
 30
0.0
 10
-136.0706
 20
-80.5614
 30
0.0
 10
-136.0706
 20
-87.6683
 30
0.0
 10
-136.0706
 20
-87.6683
 30
0.0
 10
-136.0706
 20
-87.6683
 30
0.0
 10
-136.0706
 20
-87.6683
 30
0.0
 10
-129.8591
 20
-84.0821
 30
0.0
 10
-129.8591
 20
-84.0821
 30
0.0
  0
SPLINE
  5
5C
330
1F
100
AcDbEntity
  8
layer 1
 62
     7
100
AcDbSpline
210
0.0
220
0.0
230
1.0
 70
    11
 71
     3
 72
    20
 73
    16
 74
     0
 42
0.0000000001
 43
0.0000000001
 12
1.0
 22
0.0
 32
0.0
 13
1.0
 23
0.0
 33
0.0
 40
0.0
 40
0.0
 40
0.0
 40
0.0
 40
0.2
 40
0.2
 40
0.2
 40
0.2
 40
0.4
 40
0.4
 40
0.4
 40
0.4
 40
0.6
 40
0.6
 40
0.6
 40
0.6
 40
1.0
 40
1.0
 40
1.0
 40
1.0
 10
-129.8591
 20
-94.8505
 30
0.0
 10
-129.8591
 20
-94.8505
 30
0.0
 10
-129.8772
 20
-87.754
 30
0.0
 10
-129.8772
 20
-87.754
 30
0.0
 10
-129.8772
 20
-87.754
 30
0.0
 10
-129.8772
 20
-87.754
 30
0.0
 10
-136.0706
 20
-91.3298
 30
0.0
 10
-136.0706
 20
-91.3298
 30
0.0
 10
-136.0706
 20
-91.3298
 30
0.0
 10
-136.0706
 20
-91.3298
 30
0.0
 10
-136.0706
 20
-98.4367
 30
0.0
 10
-136.0706
 20
-98.4367
 30
0.0
 10
-136.0706
 20
-98.4367
 30
0.0
 10
-136.0706
 20
-98.4367
 30
0.0
 10
-129.8591
 20
-94.8505
 30
0.0
 10
-129.8591
 20
-94.8505
 30
0.0
  0
SPLINE
  5
5D
330
1F
100
AcDbEntity
  8
layer 1
 62
     7
100
AcDbSpline
210
0.0
220
0.0
230
1.0
 70
    11
 71
     3
 72
    20
 73
    16
 74
     0
 42
0.0000000001
 43
0.0000000001
 12
1.0
 22
0.0
 32
0.0
 13
1.0
 23
0.0
 33
0.0
 40
0.0
 40
0.0
 40
0.0
 40
0.0
 40
0.2
 40
0.2
 40
0.2
 40
0.2
 40
0.4
 40
0.4
 40
0.4
 40
0.4
 40
0.6
 40
0.6
 40
0.6
 40
0.6
 40
1.0
 40
1.0
 40
1.0
 40
1.0
 10
-145.5371
 20
-84.0821
 30
0.0
 10
-145.5371
 20
-84.0821
 30
0.0
 10
-145.5191
 20
-76.9857
 30
0.0
 10
-145.5191
 20
-76.9857
 30
0.0
 10
-145.5191
 20
-76.9857
 30
0.0
 10
-145.5191
 20
-76.9857
 30
0.0
 10
-139.3256
 20
-80.5614
 30
0.0
 10
-139.3256
 20
-80.5614
 30
0.0
 10
-139.3256
 20
-80.5614
 30
0.0
 10
-139.3256
 20
-80.5614
 30
0.0
 10
-139.3256
 20
-87.6683
 30
0.0
 10
-139.3256
 20
-87.6683
 30
0.0
 10
-139.3256
 20
-87.6683
 30
0.0
 10
-139.3256
 20
-87.6683
 30
0.0
 10
-145.5371
 20
-84.0821
 30
0.0
 10
-145.5371
 20
-84.0821
 30
0.0
  0
SPLINE
  5
5E
330
1F
100
AcDbEntity
  8
layer 1
 62
     7
100
AcDbSpline
210
0.0
220
0.0
230
1.0
 70
    11
 71
     3
 72
    20
 73
    16
 74
     0
 42
0.0000000001
 43
0.0000000001
 12
1.0
 22
0.0
 32
0.0
 13
1.0
 23
0.0
 33
0.0
 40
0.0
 40
0.0
 40
0.0
 40
0.0
 40
0.2
 40
0.2
 40
0.2
 40
0.2
 40
0.4
 40
0.4
 40
0.4
 40
0.4
 40
0.6
 40
0.6
 40
0.6
 40
0.6
 40
1.0
 40
1.0
 40
1.0
 40
1.0
 10
-145.5371
 20
-94.8505
 30
0.0
 10
-145.5371
 20
-94.8505
 30
0.0
 10
-145.5191
 20
-87.754
 30
0.0
 10
-145.5191
 20
-87.754
 30
0.0
 10
-145.5191
 20
-87.754
 30
0.0
 10
-145.5191
 20
-87.754
 30
0.0
 10
-139.3256
 20
-91.3298
 30
0.0
 10
-139.3256
 20
-91.3298
 30
0.0
 10
-139.3256
 20
-91.3298
 30
0.0
 10
-139.3256
 20
-91.3298
 30
0.0
 10
-139.3256
 20
-98.4367
 30
0.0
 10
-139.3256
 20
-98.4367
 30
0.0
 10
-139.3256
 20
-98.4367
 30
0.0
 10
-139.3256
 20
-98.4367
 30
0.0
 10
-145.5371
 20
-94.8505
 30
0.0
 10
-145.5371
 20
-94.8505
 30
0.0
  0
SPLINE
  5
5F
330
1F
100
AcDbEntity
  8
layer 1
 62
     7
100
AcDbSpline
210
0.0
220
0.0
230
1.0
 70
    11
 71
     3
 72
    20
 73
    16
 74
     0
 42
0.0000000001
 43
0.0000000001
 12
1.0
 22
0.0
 32
0.0
 13
1.0
 23
0.0
 33
0.0
 40
0.0
 40
0.0
 40
0.0
 40
0.0
 40
0.2
 40
0.2
 40
0.2
 40
0.2
 40
0.4
 40
0.4
 40
0.4
 40
0.4
 40
0.6
 40
0.6
 40
0.6
 40
0.6
 40
1.0
 40
1.0
 40
1.0
 40
1.0
 10
-120.6034
 20
-78.7393
 30
0.0
 10
-120.6034
 20
-78.7393
 30
0.0
 10
-120.6214
 20
-71.6429
 30
0.0
 10
-120.6214
 20
-71.6429
 30
0.0
 10
-120.6214
 20
-71.6429
 30
0.0
 10
-120.6214
 20
-71.6429
 30
0.0
 10
-126.8149
 20
-75.2187
 30
0.0
 10
-126.8149
 20
-75.2187
 30
0.0
 10
-126.8149
 20
-75.2187
 30
0.0
 10
-126.8149
 20
-75.2187
 30
0.0
 10
-126.8149
 20
-82.3256
 30
0.0
 10
-126.8149
 20
-82.3256
 30
0.0
 10
-126.8149
 20
-82.3256
 30
0.0
 10
-126.8149
 20
-82.3256
 30
0.0
 10
-120.6034
 20
-78.7393
 30
0.0
 10
-120.6034
 20
-78.7393
 30
0.0
  0
SPLINE
  5
60
330
1F
100
AcDbEntity
  8
layer 1
 62
     7
100
AcDbSpline
210
0.0
220
0.0
230
1.0
 70
    11
 71
     3
 72
    20
 73
    16
 74
     0
 42
0.0000000001
 43
0.0000000001
 12
1.0
 22
0.0
 32
0.0
 13
1.0
 23
0.0
 33
0.0
 40
0.0
 40
0.0
 40
0.0
 40
0.0
 40
0.2
 40
0.2
 40
0.2
 40
0.2
 40
0.4
 40
0.4
 40
0.4
 40
0.4
 40
0.6
 40
0.6
 40
0.6
 40
0.6
 40
1.0
 40
1.0
 40
1.0
 40
1.0
 10
-128.4421
 20
-97.5545
 30
0.0
 10
-128.4421
 20
-97.5545
 30
0.0
 10
-122.3055
 20
-101.1183
 30
0.0
 10
-122.3055
 20
-101.1183
 30
0.0
 10
-122.3055
 20
-101.1183
 30
0.0
 10
-122.3055
 20
-101.1183
 30
0.0
 10
-128.4989
 20
-104.6941
 30
0.0
 10
-128.4989
 20
-104.6941
 30
0.0
 10
-128.4989
 20
-104.6941
 30
0.0
 10
-128.4989
 20
-104.6941
 30
0.0
 10
-134.6536
 20
-101.1407
 30
0.0
 10
-134.6536
 20
-101.1407
 30
0.0
 10
-134.6536
 20
-101.1407
 30
0.0
 10
-134.6536
 20
-101.1407
 30
0.0
 10
-128.4421
 20
-97.5545
 30
0.0
 10
-128.4421
 20
-97.5545
 30
0.0
  0
SPLINE
  5
61
330
1F
100
AcDbEntity
  8
layer 1
 62
     7
100
AcDbSpline
210
0.0
220
0.0
230
1.0
 70
    11
 71
     3
 72
    20
 73
    16
 74
     0
 42
0.0000000001
 43
0.0000000001
 12
1.0
 22
0.0
 32
0.0
 13
1.0
 23
0.0
 33
0.0
 40
0.0
 40
0.0
 40
0.0
 40
0.0
 40
0.2
 40
0.2
 40
0.2
 40
0.2
 40
0.4
 40
0.4
 40
0.4
 40
0.4
 40
0.6
 40
0.6
 40
0.6
 40
0.6
 40
1.0
 40
1.0
 40
1.0
 40
1.0
 10
-146.9502
 20
-97.5545
 30
0.0
 10
-146.9502
 20
-97.5545
 30
0.0
 10
-140.8135
 20
-101.1183
 30
0.0
 10
-140.8135
 20
-101.1183
 30
0.0
 10
-140.8135
 20
-101.1183
 30
0.0
 10
-140.8135
 20
-101.1183
 30
0.0
 10
-147.0069
 20
-104.6941
 30
0.0
 10
-147.0069
 20
-104.6941
 30
0.0
 10
-147.0069
 20
-104.6941
 30
0.0
 10
-147.0069
 20
-104.6941
 30
0.0
 10
-153.1617
 20
-101.1407
 30
0.0
 10
-153.1617
 20
-101.1407
 30
0.0
 10
-153.1617
 20
-101.1407
 30
0.0
 10
-153.1617
 20
-101.1407
 30
0.0
 10
-146.9502
 20
-97.5545
 30
0.0
 10
-146.9502
 20
-97.5545
 30
0.0
  0
SPLINE
  5
62
330
1F
100
AcDbEntity
  8
layer 1
 62
     7
100
AcDbSpline
210
0.0
220
0.0
230
1.0
 70
    11
 71
     3
 72
    20
 73
    16
 74
     0
 42
0.0000000001
 43
0.0000000001
 12
1.0
 22
0.0
 32
0.0
 13
1.0
 23
0.0
 33
0.0
 40
0.0
 40
0.0
 40
0.0
 40
0.0
 40
0.2
 40
0.2
 40
0.2
 40
0.2
 40
0.4
 40
0.4
 40
0.4
 40
0.4
 40
0.6
 40
0.6
 40
0.6
 40
0.6
 40
1.0
 40
1.0
 40
1.0
 40
1.0
 10
-146.9502
 20
-97.5545
 30
0.0
 10
-146.9502
 20
-97.5545
 30
0.0
 10
-140.8135
 20
-101.1183
 30
0.0
 10
-140.8135
 20
-101.1183
 30
0.0
 10
-140.8135
 20
-101.1183
 30
0.0
 10
-140.8135
 20
-101.1183
 30
0.0
 10
-147.0069
 20
-104.6941
 30
0.0
 10
-147.0069
 20
-104.6941
 30
0.0
 10
-147.0069
 20
-104.6941
 30
0.0
 10
-147.0069
 20
-104.6941
 30
0.0
 10
-153.1617
 20
-101.1407
 30
0.0
 10
-153.1617
 20
-101.1407
 30
0.0
 10
-153.1617
 20
-101.1407
 30
0.0
 10
-153.1617
 20
-101.1407
 30
0.0
 10
-146.9502
 20
-97.5545
 30
0.0
 10
-146.9502
 20
-97.5545
 30
0.0
  0
SPLINE
  5
63
330
1F
100
AcDbEntity
  8
layer 1
 62
     7
100
AcDbSpline
210
0.0
220
0.0
230
1.0
 70
    11
 71
     3
 72
    20
 73
    16
 74
     0
 42
0.0000000001
 43
0.0000000001
 12
1.0
 22
0.0
 32
0.0
 13
1.0
 23
0.0
 33
0.0
 40
0.0
 40
0.0
 40
0.0
 40
0.0
 40
0.2
 40
0.2
 40
0.2
 40
0.2
 40
0.4
 40
0.4
 40
0.4
 40
0.4
 40
0.6
 40
0.6
 40
0.6
 40
0.6
 40
1.0
 40
1.0
 40
1.0
 40
1.0
 10
-117.6963
 20
-78.801
 30
0.0
 10
-117.6963
 20
-78.801
 30
0.0
 10
-117.6782
 20
-71.7046
 30
0.0
 10
-117.6782
 20
-71.7046
 30
0.0
 10
-117.6782
 20
-71.7046
 30
0.0
 10
-117.6782
 20
-71.7046
 30
0.0
 10
-111.4848
 20
-75.2804
 30
0.0
 10
-111.4848
 20
-75.2804
 30
0.0
 10
-111.4848
 20
-75.2804
 30
0.0
 10
-111.4848
 20
-75.2804
 30
0.0
 10
-111.4848
 20
-82.3872
 30
0.0
 10
-111.4848
 20
-82.3872
 30
0.0
 10
-111.4848
 20
-82.3872
 30
0.0
 10
-111.4848
 20
-82.3872
 30
0.0
 10
-117.6963
 20
-78.801
 30
0.0
 10
-117.6963
 20
-78.801
 30
0.0
  0
SPLINE
  5
64
330
1F
100
AcDbEntity
  8
layer 1
 62
     7
100
AcDbSpline
210
0.0
220
0.0
230
1.0
 70
    11
 71
     3
 72
    28
 73
    24
 74
     0
 42
0.0000000001
 43
0.0000000001
 12
1.0
 22
0.0
 32
0.0
 13
1.0
 23
0.0
 33
0.0
 40
0.0
 40
0.0
 40
0.0
 40
0.0
 40
0.1428571428571428
 40
0.1428571428571428
 40
0.1428571428571428
 40
0.1428571428571428
 40
0.2857142857142857
 40
0.2857142857142857
 40
0.2857142857142857
 40
0.2857142857142857
 40
0.4285714285714285
 40
0.4285714285714285
 40
0.4285714285714285
 40
0.4285714285714285
 40
0.5714285714285714
 40
0.5714285714285714
 40
0.5714285714285714
 40
0.5714285714285714
 40
0.7142857142857143
 40
0.7142857142857143
 40
0.7142857142857143
 40
0.7142857142857143
 40
1.0
 40
1.0
 40
1.0
 40
1.0
 10
-75.7283
 20
-95.5183
 30
0.0
 10
-75.7283
 20
-95.5183
 30
0.0
 10
-82.1658
 20
-99.2368
 30
0.0
 10
-82.1658
 20
-99.2368
 30
0.0
 10
-82.1658
 20
-99.2368
 30
0.0
 10
-82.1658
 20
-99.2368
 30
0.0
 10
-89.8512
 20
-94.7974
 30
0.0
 10
-89.8512
 20
-94.7974
 30
0.0
 10
-89.8512
 20
-94.7974
 30
0.0
 10
-89.8512
 20
-94.7974
 30
0.0
 10
-89.8512
 20
-85.9185
 30
0.0
 10
-89.8512
 20
-85.9185
 30
0.0
 10
-89.8512
 20
-85.9185
 30
0.0
 10
-89.8512
 20
-85.9185
 30
0.0
 10
-82.1658
 20
-81.479
 30
0.0
 10
-82.1658
 20
-81.479
 30
0.0
 10
-82.1658
 20
-81.479
 30
0.0
 10
-82.1658
 20
-81.479
 30
0.0
 10
-75.7393
 20
-85.1912
 30
0.0
 10
-75.7393
 20
-85.1912
 30
0.0
 10
-75.7393
 20
-85.1912
 30
0.0
 10
-75.7393
 20
-85.1912
 30
0.0
 10
-75.7283
 20
-95.5183
 30
0.0
 10
-75.7283
 20
-95.5183
 30
0.0
  0
SPLINE
  5
65
330
1F
100
AcDbEntity
  8
layer 1
 62
     7
100
AcDbSpline
210
0.0
220
0.0
230
1.0
 70
    11
 71
     3
 72
    20
 73
    16
 74
     0
 42
0.0000000001
 43
0.0000000001
 12
1.0
 22
0.0
 32
0.0
 13
1.0
 23
0.0
 33
0.0
 40
0.0
 40
0.0
 40
0.0
 40
0.0
 40
0.2
 40
0.2
 40
0.2
 40
0.2
 40
0.4
 40
0.4
 40
0.4
 40
0.4
 40
0.6
 40
0.6
 40
0.6
 40
0.6
 40
1.0
 40
1.0
 40
1.0
 40
1.0
 10
-100.5973
 20
-70.7862
 30
0.0
 10
-100.5973
 20
-70.7862
 30
0.0
 10
-94.4606
 20
-74.3501
 30
0.0
 10
-94.4606
 20
-74.3501
 30
0.0
 10
-94.4606
 20
-74.3501
 30
0.0
 10
-94.4606
 20
-74.3501
 30
0.0
 10
-100.654
 20
-77.9259
 30
0.0
 10
-100.654
 20
-77.9259
 30
0.0
 10
-100.654
 20
-77.9259
 30
0.0
 10
-100.654
 20
-77.9259
 30
0.0
 10
-106.8088
 20
-74.3724
 30
0.0
 10
-106.8088
 20
-74.3724
 30
0.0
 10
-106.8088
 20
-74.3724
 30
0.0
 10
-106.8088
 20
-74.3724
 30
0.0
 10
-100.5973
 20
-70.7862
 30
0.0
 10
-100.5973
 20
-70.7862
 30
0.0
  0
SPLINE
  5
66
330
1F
100
AcDbEntity
  8
layer 1
 62
     7
100
AcDbSpline
210
0.0
220
0.0
230
1.0
 70
    11
 71
     3
 72
    20
 73
    16
 74
     0
 42
0.0000000001
 43
0.0000000001
 12
1.0
 22
0.0
 32
0.0
 13
1.0
 23
0.0
 33
0.0
 40
0.0
 40
0.0
 40
0.0
 40
0.0
 40
0.2
 40
0.2
 40
0.2
 40
0.2
 40
0.4
 40
0.4
 40
0.4
 40
0.4
 40
0.6
 40
0.6
 40
0.6
 40
0.6
 40
1.0
 40
1.0
 40
1.0
 40
1.0
 10
-92.8701
 20
-84.0119
 30
0.0
 10
-92.8701
 20
-84.0119
 30
0.0
 10
-92.8882
 20
-76.9154
 30
0.0
 10
-92.8882
 20
-76.9154
 30
0.0
 10
-92.8882
 20
-76.9154
 30
0.0
 10
-92.8882
 20
-76.9154
 30
0.0
 10
-99.0816
 20
-80.4912
 30
0.0
 10
-99.0816
 20
-80.4912
 30
0.0
 10
-99.0816
 20
-80.4912
 30
0.0
 10
-99.0816
 20
-80.4912
 30
0.0
 10
-99.0816
 20
-87.5981
 30
0.0
 10
-99.0816
 20
-87.5981
 30
0.0
 10
-99.0816
 20
-87.5981
 30
0.0
 10
-99.0816
 20
-87.5981
 30
0.0
 10
-92.8701
 20
-84.0119
 30
0.0
 10
-92.8701
 20
-84.0119
 30
0.0
  0
SPLINE
  5
67
330
1F
100
AcDbEntity
  8
layer 1
 62
     7
100
AcDbSpline
210
0.0
220
0.0
230
1.0
 70
    11
 71
     3
 72
    20
 73
    16
 74
     0
 42
0.0000000001
 43
0.0000000001
 12
1.0
 22
0.0
 32
0.0
 13
1.0
 23
0.0
 33
0.0
 40
0.0
 40
0.0
 40
0.0
 40
0.0
 40
0.2
 40
0.2
 40
0.2
 40
0.2
 40
0.4
 40
0.4
 40
0.4
 40
0.4
 40
0.6
 40
0.6
 40
0.6
 40
0.6
 40
1.0
 40
1.0
 40
1.0
 40
1.0
 10
-92.8701
 20
-94.7803
 30
0.0
 10
-92.8701
 20
-94.7803
 30
0.0
 10
-92.8882
 20
-87.6838
 30
0.0
 10
-92.8882
 20
-87.6838
 30
0.0
 10
-92.8882
 20
-87.6838
 30
0.0
 10
-92.8882
 20
-87.6838
 30
0.0
 10
-99.0816
 20
-91.2596
 30
0.0
 10
-99.0816
 20
-91.2596
 30
0.0
 10
-99.0816
 20
-91.2596
 30
0.0
 10
-99.0816
 20
-91.2596
 30
0.0
 10
-99.0816
 20
-98.3665
 30
0.0
 10
-99.0816
 20
-98.3665
 30
0.0
 10
-99.0816
 20
-98.3665
 30
0.0
 10
-99.0816
 20
-98.3665
 30
0.0
 10
-92.8701
 20
-94.7803
 30
0.0
 10
-92.8701
 20
-94.7803
 30
0.0
  0
SPLINE
  5
68
330
1F
100
AcDbEntity
  8
layer 1
 62
     7
100
AcDbSpline
210
0.0
220
0.0
230
1.0
 70
    11
 71
     3
 72
    20
 73
    16
 74
     0
 42
0.0000000001
 43
0.0000000001
 12
1.0
 22
0.0
 32
0.0
 13
1.0
 23
0.0
 33
0.0
 40
0.0
 40
0.0
 40
0.0
 40
0.0
 40
0.2
 40
0.2
 40
0.2
 40
0.2
 40
0.4
 40
0.4
 40
0.4
 40
0.4
 40
0.6
 40
0.6
 40
0.6
 40
0.6
 40
1.0
 40
1.0
 40
1.0
 40
1.0
 10
-108.5481
 20
-84.0119
 30
0.0
 10
-108.5481
 20
-84.0119
 30
0.0
 10
-108.53
 20
-76.9154
 30
0.0
 10
-108.53
 20
-76.9154
 30
0.0
 10
-108.53
 20
-76.9154
 30
0.0
 10
-108.53
 20
-76.9154
 30
0.0
 10
-102.3366
 20
-80.4912
 30
0.0
 10
-102.3366
 20
-80.4912
 30
0.0
 10
-102.3366
 20
-80.4912
 30
0.0
 10
-102.3366
 20
-80.4912
 30
0.0
 10
-102.3366
 20
-87.5981
 30
0.0
 10
-102.3366
 20
-87.5981
 30
0.0
 10
-102.3366
 20
-87.5981
 30
0.0
 10
-102.3366
 20
-87.5981
 30
0.0
 10
-108.5481
 20
-84.0119
 30
0.0
 10
-108.5481
 20
-84.0119
 30
0.0
  0
SPLINE
  5
69
330
1F
100
AcDbEntity
  8
layer 1
 62
     7
100
AcDbSpline
210
0.0
220
0.0
230
1.0
 70
    11
 71
     3
 72
    20
 73
    16
 74
     0
 42
0.0000000001
 43
0.0000000001
 12
1.0
 22
0.0
 32
0.0
 13
1.0
 23
0.0
 33
0.0
 40
0.0
 40
0.0
 40
0.0
 40
0.0
 40
0.2
 40
0.2
 40
0.2
 40
0.2
 40
0.4
 40
0.4
 40
0.4
 40
0.4
 40
0.6
 40
0.6
 40
0.6
 40
0.6
 40
1.0
 40
1.0
 40
1.0
 40
1.0
 10
-108.5481
 20
-94.7803
 30
0.0
 10
-108.5481
 20
-94.7803
 30
0.0
 10
-108.53
 20
-87.6838
 30
0.0
 10
-108.53
 20
-87.6838
 30
0.0
 10
-108.53
 20
-87.6838
 30
0.0
 10
-108.53
 20
-87.6838
 30
0.0
 10
-102.3366
 20
-91.2596
 30
0.0
 10
-102.3366
 20
-91.2596
 30
0.0
 10
-102.3366
 20
-91.2596
 30
0.0
 10
-102.3366
 20
-91.2596
 30
0.0
 10
-102.3366
 20
-98.3665
 30
0.0
 10
-102.3366
 20
-98.3665
 30
0.0
 10
-102.3366
 20
-98.3665
 30
0.0
 10
-102.3366
 20
-98.3665
 30
0.0
 10
-108.5481
 20
-94.7803
 30
0.0
 10
-108.5481
 20
-94.7803
 30
0.0
  0
SPLINE
  5
6A
330
1F
100
AcDbEntity
  8
layer 1
 62
     7
100
AcDbSpline
210
0.0
220
0.0
230
1.0
 70
    11
 71
     3
 72
    20
 73
    16
 74
     0
 42
0.0000000001
 43
0.0000000001
 12
1.0
 22
0.0
 32
0.0
 13
1.0
 23
0.0
 33
0.0
 40
0.0
 40
0.0
 40
0.0
 40
0.0
 40
0.2
 40
0.2
 40
0.2
 40
0.2
 40
0.4
 40
0.4
 40
0.4
 40
0.4
 40
0.6
 40
0.6
 40
0.6
 40
0.6
 40
1.0
 40
1.0
 40
1.0
 40
1.0
 10
-83.6144
 20
-78.6691
 30
0.0
 10
-83.6144
 20
-78.6691
 30
0.0
 10
-83.6325
 20
-71.5726
 30
0.0
 10
-83.6325
 20
-71.5726
 30
0.0
 10
-83.6325
 20
-71.5726
 30
0.0
 10
-83.6325
 20
-71.5726
 30
0.0
 10
-89.8259
 20
-75.1484
 30
0.0
 10
-89.8259
 20
-75.1484
 30
0.0
 10
-89.8259
 20
-75.1484
 30
0.0
 10
-89.8259
 20
-75.1484
 30
0.0
 10
-89.8259
 20
-82.2553
 30
0.0
 10
-89.8259
 20
-82.2553
 30
0.0
 10
-89.8259
 20
-82.2553
 30
0.0
 10
-89.8259
 20
-82.2553
 30
0.0
 10
-83.6144
 20
-78.6691
 30
0.0
 10
-83.6144
 20
-78.6691
 30
0.0
  0
SPLINE
  5
6B
330
1F
100
AcDbEntity
  8
layer 1
 62
     7
100
AcDbSpline
210
0.0
220
0.0
230
1.0
 70
    11
 71
     3
 72
    20
 73
    16
 74
     0
 42
0.0000000001
 43
0.0000000001
 12
1.0
 22
0.0
 32
0.0
 13
1.0
 23
0.0
 33
0.0
 40
0.0
 40
0.0
 40
0.0
 40
0.0
 40
0.2
 40
0.2
 40
0.2
 40
0.2
 40
0.4
 40
0.4
 40
0.4
 40
0.4
 40
0.6
 40
0.6
 40
0.6
 40
0.6
 40
1.0
 40
1.0
 40
1.0
 40
1.0
 10
-91.4532
 20
-97.4842
 30
0.0
 10
-91.4532
 20
-97.4842
 30
0.0
 10
-85.3165
 20
-101.048
 30
0.0
 10
-85.3165
 20
-101.048
 30
0.0
 10
-85.3165
 20
-101.048
 30
0.0
 10
-85.3165
 20
-101.048
 30
0.0
 10
-91.51
 20
-104.6238
 30
0.0
 10
-91.51
 20
-104.6238
 30
0.0
 10
-91.51
 20
-104.6238
 30
0.0
 10
-91.51
 20
-104.6238
 30
0.0
 10
-97.6647
 20
-101.0704
 30
0.0
 10
-97.6647
 20
-101.0704
 30
0.0
 10
-97.6647
 20
-101.0704
 30
0.0
 10
-97.6647
 20
-101.0704
 30
0.0
 10
-91.4532
 20
-97.4842
 30
0.0
 10
-91.4532
 20
-97.4842
 30
0.0
  0
SPLINE
  5
6C
330
1F
100
AcDbEntity
  8
layer 1
 62
     7
100
AcDbSpline
210
0.0
220
0.0
230
1.0
 70
    11
 71
     3
 72
    20
 73
    16
 74
     0
 42
0.0000000001
 43
0.0000000001
 12
1.0
 22
0.0
 32
0.0
 13
1.0
 23
0.0
 33
0.0
 40
0.0
 40
0.0
 40
0.0
 40
0.0
 40
0.2
 40
0.2
 40
0.2
 40
0.2
 40
0.4
 40
0.4
 40
0.4
 40
0.4
 40
0.6
 40
0.6
 40
0.6
 40
0.6
 40
1.0
 40
1.0
 40
1.0
 40
1.0
 10
-80.7074
 20
-78.7307
 30
0.0
 10
-80.7074
 20
-78.7307
 30
0.0
 10
-80.6893
 20
-71.6343
 30
0.0
 10
-80.6893
 20
-71.6343
 30
0.0
 10
-80.6893
 20
-71.6343
 30
0.0
 10
-80.6893
 20
-71.6343
 30
0.0
 10
-75.7089
 20
-74.5096
 30
0.0
 10
-75.7089
 20
-74.5096
 30
0.0
 10
-75.7089
 20
-74.5096
 30
0.0
 10
-75.7089
 20
-74.5096
 30
0.0
 10
-75.6755
 20
-81.6358
 30
0.0
 10
-75.6755
 20
-81.6358
 30
0.0
 10
-75.6755
 20
-81.6358
 30
0.0
 10
-75.6755
 20
-81.6358
 30
0.0
 10
-80.7074
 20
-78.7307
 30
0.0
 10
-80.7074
 20
-78.7307
 30
0.0
  0
SPLINE
  5
6D
330
1F
100
AcDbEntity
  8
layer 1
 62
     7
100
AcDbSpline
210
0.0
220
0.0
230
1.0
 70
    11
 71
     3
 72
    28
 73
    24
 74
     0
 42
0.0000000001
 43
0.0000000001
 12
1.0
 22
0.0
 32
0.0
 13
1.0
 23
0.0
 33
0.0
 40
0.0
 40
0.0
 40
0.0
 40
0.0
 40
0.1428571428571428
 40
0.1428571428571428
 40
0.1428571428571428
 40
0.1428571428571428
 40
0.2857142857142857
 40
0.2857142857142857
 40
0.2857142857142857
 40
0.2857142857142857
 40
0.4285714285714285
 40
0.4285714285714285
 40
0.4285714285714285
 40
0.4285714285714285
 40
0.5714285714285714
 40
0.5714285714285714
 40
0.5714285714285714
 40
0.5714285714285714
 40
0.7142857142857143
 40
0.7142857142857143
 40
0.7142857142857143
 40
0.7142857142857143
 40
1.0
 40
1.0
 40
1.0
 40
1.0
 10
-148.4966
 20
-85.9886
 30
0.0
 10
-148.4966
 20
-85.9886
 30
0.0
 10
-148.4966
 20
-94.8675
 30
0.0
 10
-148.4966
 20
-94.8675
 30
0.0
 10
-148.4966
 20
-94.8675
 30
0.0
 10
-148.4966
 20
-94.8675
 30
0.0
 10
-156.182
 20
-99.307
 30
0.0
 10
-156.182
 20
-99.307
 30
0.0
 10
-156.182
 20
-99.307
 30
0.0
 10
-156.182
 20
-99.307
 30
0.0
 10
-163.8675
 20
-94.8675
 30
0.0
 10
-163.8675
 20
-94.8675
 30
0.0
 10
-163.8675
 20
-94.8675
 30
0.0
 10
-163.8675
 20
-94.8675
 30
0.0
 10
-163.8675
 20
-85.9886
 30
0.0
 10
-163.8675
 20
-85.9886
 30
0.0
 10
-163.8675
 20
-85.9886
 30
0.0
 10
-163.8675
 20
-85.9886
 30
0.0
 10
-156.182
 20
-81.5492
 30
0.0
 10
-156.182
 20
-81.5492
 30
0.0
 10
-156.182
 20
-81.5492
 30
0.0
 10
-156.182
 20
-81.5492
 30
0.0
 10
-148.4966
 20
-85.9886
 30
0.0
 10
-148.4966
 20
-85.9886
 30
0.0
  0
SPLINE
  5
6E
330
1F
100
AcDbEntity
  8
layer 1
 62
     7
100
AcDbSpline
210
0.0
220
0.0
230
1.0
 70
    11
 71
     3
 72
    20
 73
    16
 74
     0
 42
0.0000000001
 43
0.0000000001
 12
1.0
 22
0.0
 32
0.0
 13
1.0
 23
0.0
 33
0.0
 40
0.0
 40
0.0
 40
0.0
 40
0.0
 40
0.2
 40
0.2
 40
0.2
 40
0.2
 40
0.4
 40
0.4
 40
0.4
 40
0.4
 40
0.6
 40
0.6
 40
0.6
 40
0.6
 40
1.0
 40
1.0
 40
1.0
 40
1.0
 10
-174.6136
 20
-70.8565
 30
0.0
 10
-174.6136
 20
-70.8565
 30
0.0
 10
-168.477
 20
-74.4204
 30
0.0
 10
-168.477
 20
-74.4204
 30
0.0
 10
-168.477
 20
-74.4204
 30
0.0
 10
-168.477
 20
-74.4204
 30
0.0
 10
-174.6704
 20
-77.9962
 30
0.0
 10
-174.6704
 20
-77.9962
 30
0.0
 10
-174.6704
 20
-77.9962
 30
0.0
 10
-174.6704
 20
-77.9962
 30
0.0
 10
-180.8251
 20
-74.4427
 30
0.0
 10
-180.8251
 20
-74.4427
 30
0.0
 10
-180.8251
 20
-74.4427
 30
0.0
 10
-180.8251
 20
-74.4427
 30
0.0
 10
-174.6136
 20
-70.8565
 30
0.0
 10
-174.6136
 20
-70.8565
 30
0.0
  0
SPLINE
  5
6F
330
1F
100
AcDbEntity
  8
layer 1
 62
     7
100
AcDbSpline
210
0.0
220
0.0
230
1.0
 70
    11
 71
     3
 72
    20
 73
    16
 74
     0
 42
0.0000000001
 43
0.0000000001
 12
1.0
 22
0.0
 32
0.0
 13
1.0
 23
0.0
 33
0.0
 40
0.0
 40
0.0
 40
0.0
 40
0.0
 40
0.2
 40
0.2
 40
0.2
 40
0.2
 40
0.4
 40
0.4
 40
0.4
 40
0.4
 40
0.6
 40
0.6
 40
0.6
 40
0.6
 40
1.0
 40
1.0
 40
1.0
 40
1.0
 10
-166.8865
 20
-84.0821
 30
0.0
 10
-166.8865
 20
-84.0821
 30
0.0
 10
-166.9046
 20
-76.9857
 30
0.0
 10
-166.9046
 20
-76.9857
 30
0.0
 10
-166.9046
 20
-76.9857
 30
0.0
 10
-166.9046
 20
-76.9857
 30
0.0
 10
-173.098
 20
-80.5614
 30
0.0
 10
-173.098
 20
-80.5614
 30
0.0
 10
-173.098
 20
-80.5614
 30
0.0
 10
-173.098
 20
-80.5614
 30
0.0
 10
-173.098
 20
-87.6683
 30
0.0
 10
-173.098
 20
-87.6683
 30
0.0
 10
-173.098
 20
-87.6683
 30
0.0
 10
-173.098
 20
-87.6683
 30
0.0
 10
-166.8865
 20
-84.0821
 30
0.0
 10
-166.8865
 20
-84.0821
 30
0.0
  0
SPLINE
  5
70
330
1F
100
AcDbEntity
  8
layer 1
 62
     7
100
AcDbSpline
210
0.0
220
0.0
230
1.0
 70
    11
 71
     3
 72
    20
 73
    16
 74
     0
 42
0.0000000001
 43
0.0000000001
 12
1.0
 22
0.0
 32
0.0
 13
1.0
 23
0.0
 33
0.0
 40
0.0
 40
0.0
 40
0.0
 40
0.0
 40
0.2
 40
0.2
 40
0.2
 40
0.2
 40
0.4
 40
0.4
 40
0.4
 40
0.4
 40
0.6
 40
0.6
 40
0.6
 40
0.6
 40
1.0
 40
1.0
 40
1.0
 40
1.0
 10
-166.8865
 20
-94.8505
 30
0.0
 10
-166.8865
 20
-94.8505
 30
0.0
 10
-166.9046
 20
-87.754
 30
0.0
 10
-166.9046
 20
-87.754
 30
0.0
 10
-166.9046
 20
-87.754
 30
0.0
 10
-166.9046
 20
-87.754
 30
0.0
 10
-173.098
 20
-91.3298
 30
0.0
 10
-173.098
 20
-91.3298
 30
0.0
 10
-173.098
 20
-91.3298
 30
0.0
 10
-173.098
 20
-91.3298
 30
0.0
 10
-173.098
 20
-98.4367
 30
0.0
 10
-173.098
 20
-98.4367
 30
0.0
 10
-173.098
 20
-98.4367
 30
0.0
 10
-173.098
 20
-98.4367
 30
0.0
 10
-166.8865
 20
-94.8505
 30
0.0
 10
-166.8865
 20
-94.8505
 30
0.0
  0
SPLINE
  5
71
330
1F
100
AcDbEntity
  8
layer 1
 62
     7
100
AcDbSpline
210
0.0
220
0.0
230
1.0
 70
    11
 71
     3
 72
    20
 73
    16
 74
     0
 42
0.0000000001
 43
0.0000000001
 12
1.0
 22
0.0
 32
0.0
 13
1.0
 23
0.0
 33
0.0
 40
0.0
 40
0.0
 40
0.0
 40
0.0
 40
0.2
 40
0.2
 40
0.2
 40
0.2
 40
0.4
 40
0.4
 40
0.4
 40
0.4
 40
0.6
 40
0.6
 40
0.6
 40
0.6
 40
1.0
 40
1.0
 40
1.0
 40
1.0
 10
-181.1727
 20
-77.7788
 30
0.0
 10
-181.1727
 20
-77.7788
 30
0.0
 10
-176.353
 20
-80.5615
 30
0.0
 10
-176.353
 20
-80.5615
 30
0.0
 10
-176.353
 20
-80.5615
 30
0.0
 10
-176.353
 20
-80.5615
 30
0.0
 10
-176.353
 20
-87.6684
 30
0.0
 10
-176.353
 20
-87.6684
 30
0.0
 10
-176.353
 20
-87.6684
 30
0.0
 10
-176.353
 20
-87.6684
 30
0.0
 10
-181.1357
 20
-84.907
 30
0.0
 10
-181.1357
 20
-84.907
 30
0.0
 10
-181.1357
 20
-84.907
 30
0.0
 10
-181.1357
 20
-84.907
 30
0.0
 10
-181.1727
 20
-77.7788
 30
0.0
 10
-181.1727
 20
-77.7788
 30
0.0
  0
SPLINE
  5
72
330
1F
100
AcDbEntity
  8
layer 1
 62
     7
100
AcDbSpline
210
0.0
220
0.0
230
1.0
 70
    11
 71
     3
 72
    20
 73
    16
 74
     0
 42
0.0000000001
 43
0.0000000001
 12
1.0
 22
0.0
 32
0.0
 13
1.0
 23
0.0
 33
0.0
 40
0.0
 40
0.0
 40
0.0
 40
0.0
 40
0.2
 40
0.2
 40
0.2
 40
0.2
 40
0.4
 40
0.4
 40
0.4
 40
0.4
 40
0.6
 40
0.6
 40
0.6
 40
0.6
 40
1.0
 40
1.0
 40
1.0
 40
1.0
 10
-181.1037
 20
-88.587
 30
0.0
 10
-181.1037
 20
-88.587
 30
0.0
 10
-176.353
 20
-91.3298
 30
0.0
 10
-176.353
 20
-91.3298
 30
0.0
 10
-176.353
 20
-91.3298
 30
0.0
 10
-176.353
 20
-91.3298
 30
0.0
 10
-176.353
 20
-98.4367
 30
0.0
 10
-176.353
 20
-98.4367
 30
0.0
 10
-176.353
 20
-98.4367
 30
0.0
 10
-176.353
 20
-98.4367
 30
0.0
 10
-181.1282
 20
-95.6798
 30
0.0
 10
-181.1282
 20
-95.6798
 30
0.0
 10
-181.1282
 20
-95.6798
 30
0.0
 10
-181.1282
 20
-95.6798
 30
0.0
 10
-181.1037
 20
-88.587
 30
0.0
 10
-181.1037
 20
-88.587
 30
0.0
  0
SPLINE
  5
73
330
1F
100
AcDbEntity
  8
layer 1
 62
     7
100
AcDbSpline
210
0.0
220
0.0
230
1.0
 70
    11
 71
     3
 72
    20
 73
    16
 74
     0
 42
0.0000000001
 43
0.0000000001
 12
1.0
 22
0.0
 32
0.0
 13
1.0
 23
0.0
 33
0.0
 40
0.0
 40
0.0
 40
0.0
 40
0.0
 40
0.2
 40
0.2
 40
0.2
 40
0.2
 40
0.4
 40
0.4
 40
0.4
 40
0.4
 40
0.6
 40
0.6
 40
0.6
 40
0.6
 40
1.0
 40
1.0
 40
1.0
 40
1.0
 10
-157.6308
 20
-78.7393
 30
0.0
 10
-157.6308
 20
-78.7393
 30
0.0
 10
-157.6489
 20
-71.6429
 30
0.0
 10
-157.6489
 20
-71.6429
 30
0.0
 10
-157.6489
 20
-71.6429
 30
0.0
 10
-157.6489
 20
-71.6429
 30
0.0
 10
-163.8423
 20
-75.2187
 30
0.0
 10
-163.8423
 20
-75.2187
 30
0.0
 10
-163.8423
 20
-75.2187
 30
0.0
 10
-163.8423
 20
-75.2187
 30
0.0
 10
-163.8423
 20
-82.3256
 30
0.0
 10
-163.8423
 20
-82.3256
 30
0.0
 10
-163.8423
 20
-82.3256
 30
0.0
 10
-163.8423
 20
-82.3256
 30
0.0
 10
-157.6308
 20
-78.7393
 30
0.0
 10
-157.6308
 20
-78.7393
 30
0.0
  0
SPLINE
  5
74
330
1F
100
AcDbEntity
  8
layer 1
 62
     7
100
AcDbSpline
210
0.0
220
0.0
230
1.0
 70
    11
 71
     3
 72
    20
 73
    16
 74
     0
 42
0.0000000001
 43
0.0000000001
 12
1.0
 22
0.0
 32
0.0
 13
1.0
 23
0.0
 33
0.0
 40
0.0
 40
0.0
 40
0.0
 40
0.0
 40
0.2
 40
0.2
 40
0.2
 40
0.2
 40
0.4
 40
0.4
 40
0.4
 40
0.4
 40
0.6
 40
0.6
 40
0.6
 40
0.6
 40
1.0
 40
1.0
 40
1.0
 40
1.0
 10
-165.4695
 20
-97.5545
 30
0.0
 10
-165.4695
 20
-97.5545
 30
0.0
 10
-159.3328
 20
-101.1183
 30
0.0
 10
-159.3328
 20
-101.1183
 30
0.0
 10
-159.3328
 20
-101.1183
 30
0.0
 10
-159.3328
 20
-101.1183
 30
0.0
 10
-165.5262
 20
-104.6941
 30
0.0
 10
-165.5262
 20
-104.6941
 30
0.0
 10
-165.5262
 20
-104.6941
 30
0.0
 10
-165.5262
 20
-104.6941
 30
0.0
 10
-171.681
 20
-101.1407
 30
0.0
 10
-171.681
 20
-101.1407
 30
0.0
 10
-171.681
 20
-101.1407
 30
0.0
 10
-171.681
 20
-101.1407
 30
0.0
 10
-165.4695
 20
-97.5545
 30
0.0
 10
-165.4695
 20
-97.5545
 30
0.0
  0
SPLINE
  5
75
330
1F
100
AcDbEntity
  8
layer 1
 62
     7
100
AcDbSpline
210
0.0
220
0.0
230
1.0
 70
    11
 71
     3
 72
    20
 73
    16
 74
     0
 42
0.0000000001
 43
0.0000000001
 12
1.0
 22
0.0
 32
0.0
 13
1.0
 23
0.0
 33
0.0
 40
0.0
 40
0.0
 40
0.0
 40
0.0
 40
0.2
 40
0.2
 40
0.2
 40
0.2
 40
0.4
 40
0.4
 40
0.4
 40
0.4
 40
0.6
 40
0.6
 40
0.6
 40
0.6
 40
1.0
 40
1.0
 40
1.0
 40
1.0
 10
-154.7236
 20
-78.801
 30
0.0
 10
-154.7236
 20
-78.801
 30
0.0
 10
-154.7056
 20
-71.7046
 30
0.0
 10
-154.7056
 20
-71.7046
 30
0.0
 10
-154.7056
 20
-71.7046
 30
0.0
 10
-154.7056
 20
-71.7046
 30
0.0
 10
-148.5121
 20
-75.2804
 30
0.0
 10
-148.5121
 20
-75.2804
 30
0.0
 10
-148.5121
 20
-75.2804
 30
0.0
 10
-148.5121
 20
-75.2804
 30
0.0
 10
-148.5121
 20
-82.3872
 30
0.0
 10
-148.5121
 20
-82.3872
 30
0.0
 10
-148.5121
 20
-82.3872
 30
0.0
 10
-148.5121
 20
-82.3872
 30
0.0
 10
-154.7236
 20
-78.801
 30
0.0
 10
-154.7236
 20
-78.801
 30
0.0
  0
SPLINE
  5
76
330
1F
100
AcDbEntity
  8
layer 1
 62
     7
100
AcDbSpline
210
0.0
220
0.0
230
1.0
 70
    11
 71
     3
 72
    16
 73
    12
 74
     0
 42
0.0000000001
 43
0.0000000001
 12
1.0
 22
0.0
 32
0.0
 13
1.0
 23
0.0
 33
0.0
 40
0.0
 40
0.0
 40
0.0
 40
0.0
 40
0.25
 40
0.25
 40
0.25
 40
0.25
 40
0.5
 40
0.5
 40
0.5
 40
0.5
 40
1.0
 40
1.0
 40
1.0
 40
1.0
 10
-181.1328
 20
-99.3005
 30
0.0
 10
-181.1328
 20
-99.3005
 30
0.0
 10
-178.0028
 20
-101.1183
 30
0.0
 10
-178.0028
 20
-101.1183
 30
0.0
 10
-178.0028
 20
-101.1183
 30
0.0
 10
-178.0028
 20
-101.1183
 30
0.0
 10
-181.1429
 20
-102.9313
 30
0.0
 10
-181.1429
 20
-102.9313
 30
0.0
 10
-181.1429
 20
-102.9313
 30
0.0
 10
-181.1429
 20
-102.9313
 30
0.0
 10
-181.1328
 20
-99.3005
 30
0.0
 10
-181.1328
 20
-99.3005
 30
0.0
  0
SPLINE
  5
77
330
1F
100
AcDbEntity
  8
layer 1
 62
     7
100
AcDbSpline
210
0.0
220
0.0
230
1.0
 70
    11
 71
     3
 72
    20
 73
    16
 74
     0
 42
0.0000000001
 43
0.0000000001
 12
1.0
 22
0.0
 32
0.0
 13
1.0
 23
0.0
 33
0.0
 40
0.0
 40
0.0
 40
0.0
 40
0.0
 40
0.2
 40
0.2
 40
0.2
 40
0.2
 40
0.4
 40
0.4
 40
0.4
 40
0.4
 40
0.6
 40
0.6
 40
0.6
 40
0.6
 40
1.0
 40
1.0
 40
1.0
 40
1.0
 10
-176.3578
 20
-108.4636
 30
0.0
 10
-176.3578
 20
-108.4636
 30
0.0
 10
-176.353
 20
-103.8195
 30
0.0
 10
-176.353
 20
-103.8195
 30
0.0
 10
-176.353
 20
-103.8195
 30
0.0
 10
-176.353
 20
-103.8195
 30
0.0
 10
-181.1281
 20
-106.5764
 30
0.0
 10
-181.1281
 20
-106.5764
 30
0.0
 10
-181.1281
 20
-106.5764
 30
0.0
 10
-181.1281
 20
-106.5764
 30
0.0
 10
-181.1338
 20
-108.4636
 30
0.0
 10
-181.1338
 20
-108.4636
 30
0.0
 10
-181.1338
 20
-108.4636
 30
0.0
 10
-181.1338
 20
-108.4636
 30
0.0
 10
-176.3578
 20
-108.4636
 30
0.0
 10
-176.3578
 20
-108.4636
 30
0.0
  0
SPLINE
  5
78
330
1F
100
AcDbEntity
  8
layer 1
 62
     7
100
AcDbSpline
210
0.0
220
0.0
230
1.0
 70
    11
 71
     3
 72
    20
 73
    16
 74
     0
 42
0.0000000001
 43
0.0000000001
 12
1.0
 22
0.0
 32
0.0
 13
1.0
 23
0.0
 33
0.0
 40
0.0
 40
0.0
 40
0.0
 40
0.0
 40
0.2
 40
0.2
 40
0.2
 40
0.2
 40
0.4
 40
0.4
 40
0.4
 40
0.4
 40
0.6
 40
0.6
 40
0.6
 40
0.6
 40
1.0
 40
1.0
 40
1.0
 40
1.0
 10
-110.0422
 20
-97.5545
 30
0.0
 10
-110.0422
 20
-97.5545
 30
0.0
 10
-103.9056
 20
-101.1183
 30
0.0
 10
-103.9056
 20
-101.1183
 30
0.0
 10
-103.9056
 20
-101.1183
 30
0.0
 10
-103.9056
 20
-101.1183
 30
0.0
 10
-110.099
 20
-104.6941
 30
0.0
 10
-110.099
 20
-104.6941
 30
0.0
 10
-110.099
 20
-104.6941
 30
0.0
 10
-110.099
 20
-104.6941
 30
0.0
 10
-116.2537
 20
-101.1407
 30
0.0
 10
-116.2537
 20
-101.1407
 30
0.0
 10
-116.2537
 20
-101.1407
 30
0.0
 10
-116.2537
 20
-101.1407
 30
0.0
 10
-110.0422
 20
-97.5545
 30
0.0
 10
-110.0422
 20
-97.5545
 30
0.0
  0
SPLINE
  5
79
330
1F
100
AcDbEntity
  8
layer 1
 62
     7
100
AcDbSpline
210
0.0
220
0.0
230
1.0
 70
    11
 71
     3
 72
    24
 73
    20
 74
     0
 42
0.0000000001
 43
0.0000000001
 12
1.0
 22
0.0
 32
0.0
 13
1.0
 23
0.0
 33
0.0
 40
0.0
 40
0.0
 40
0.0
 40
0.0
 40
0.1666666666666667
 40
0.1666666666666667
 40
0.1666666666666667
 40
0.1666666666666667
 40
0.3333333333333333
 40
0.3333333333333333
 40
0.3333333333333333
 40
0.3333333333333333
 40
0.5
 40
0.5
 40
0.5
 40
0.5
 40
0.6666666666666666
 40
0.6666666666666666
 40
0.6666666666666666
 40
0.6666666666666666
 40
1.0
 40
1.0
 40
1.0
 40
1.0
 10
-119.2361
 20
-102.9072
 30
0.0
 10
-119.2361
 20
-102.9072
 30
0.0
 10
-113.0995
 20
-106.471
 30
0.0
 10
-113.0995
 20
-106.471
 30
0.0
 10
-113.0995
 20
-106.471
 30
0.0
 10
-113.0995
 20
-106.471
 30
0.0
 10
-116.6059
 20
-108.4955
 30
0.0
 10
-116.6059
 20
-108.4955
 30
0.0
 10
-116.6059
 20
-108.4955
 30
0.0
 10
-116.6059
 20
-108.4955
 30
0.0
 10
-121.9869
 20
-108.4914
 30
0.0
 10
-121.9869
 20
-108.4914
 30
0.0
 10
-121.9869
 20
-108.4914
 30
0.0
 10
-121.9869
 20
-108.4914
 30
0.0
 10
-125.4477
 20
-106.4934
 30
0.0
 10
-125.4477
 20
-106.4934
 30
0.0
 10
-125.4477
 20
-106.4934
 30
0.0
 10
-125.4477
 20
-106.4934
 30
0.0
 10
-119.2361
 20
-102.9072
 30
0.0
 10
-119.2361
 20
-102.9072
 30
0.0
  0
SPLINE
  5
7A
330
1F
100
AcDbEntity
  8
layer 1
 62
     7
100
AcDbSpline
210
0.0
220
0.0
230
1.0
 70
    11
 71
     3
 72
    16
 73
    12
 74
     0
 42
0.0000000001
 43
0.0000000001
 12
1.0
 22
0.0
 32
0.0
 13
1.0
 23
0.0
 33
0.0
 40
0.0
 40
0.0
 40
0.0
 40
0.0
 40
0.25
 40
0.25
 40
0.25
 40
0.25
 40
0.5
 40
0.5
 40
0.5
 40
0.5
 40
1.0
 40
1.0
 40
1.0
 40
1.0
 10
-75.7481
 20
-103.1759
 30
0.0
 10
-75.7481
 20
-103.1759
 30
0.0
 10
-79.2732
 20
-101.1407
 30
0.0
 10
-79.2732
 20
-101.1407
 30
0.0
 10
-79.2732
 20
-101.1407
 30
0.0
 10
-79.2732
 20
-101.1407
 30
0.0
 10
-75.7194
 20
-99.0889
 30
0.0
 10
-75.7194
 20
-99.0889
 30
0.0
 10
-75.7194
 20
-99.0889
 30
0.0
 10
-75.7194
 20
-99.0889
 30
0.0
 10
-75.7481
 20
-103.1759
 30
0.0
 10
-75.7481
 20
-103.1759
 30
0.0
  0
SPLINE
  5
7B
330
1F
100
AcDbEntity
  8
layer 1
 62
     7
100
AcDbSpline
210
0.0
220
0.0
230
1.0
 70
    11
 71
     3
 72
    20
 73
    16
 74
     0
 42
0.0000000001
 43
0.0000000001
 12
1.0
 22
0.0
 32
0.0
 13
1.0
 23
0.0
 33
0.0
 40
0.0
 40
0.0
 40
0.0
 40
0.0
 40
0.2
 40
0.2
 40
0.2
 40
0.2
 40
0.4
 40
0.4
 40
0.4
 40
0.4
 40
0.6
 40
0.6
 40
0.6
 40
0.6
 40
1.0
 40
1.0
 40
1.0
 40
1.0
 10
-139.3139
 20
-108.4223
 30
0.0
 10
-139.3139
 20
-108.4223
 30
0.0
 10
-139.3256
 20
-103.8183
 30
0.0
 10
-139.3256
 20
-103.8183
 30
0.0
 10
-139.3256
 20
-103.8183
 30
0.0
 10
-139.3256
 20
-103.8183
 30
0.0
 10
-145.5191
 20
-107.394
 30
0.0
 10
-145.5191
 20
-107.394
 30
0.0
 10
-145.5191
 20
-107.394
 30
0.0
 10
-145.5191
 20
-107.394
 30
0.0
 10
-145.5191
 20
-108.4602
 30
0.0
 10
-145.5191
 20
-108.4602
 30
0.0
 10
-145.5191
 20
-108.4602
 30
0.0
 10
-145.5191
 20
-108.4602
 30
0.0
 10
-139.3139
 20
-108.4223
 30
0.0
 10
-139.3139
 20
-108.4223
 30
0.0
  0
SPLINE
  5
7C
330
1F
100
AcDbEntity
  8
layer 1
 62
     7
100
AcDbSpline
210
0.0
220
0.0
230
1.0
 70
    11
 71
     3
 72
    20
 73
    16
 74
     0
 42
0.0000000001
 43
0.0000000001
 12
1.0
 22
0.0
 32
0.0
 13
1.0
 23
0.0
 33
0.0
 40
0.0
 40
0.0
 40
0.0
 40
0.0
 40
0.2
 40
0.2
 40
0.2
 40
0.2
 40
0.4
 40
0.4
 40
0.4
 40
0.4
 40
0.6
 40
0.6
 40
0.6
 40
0.6
 40
1.0
 40
1.0
 40
1.0
 40
1.0
 10
-136.0525
 20
-108.4636
 30
0.0
 10
-136.0525
 20
-108.4636
 30
0.0
 10
-136.0525
 20
-103.8462
 30
0.0
 10
-136.0525
 20
-103.8462
 30
0.0
 10
-136.0525
 20
-103.8462
 30
0.0
 10
-136.0525
 20
-103.8462
 30
0.0
 10
-129.8591
 20
-107.4219
 30
0.0
 10
-129.8591
 20
-107.4219
 30
0.0
 10
-129.8591
 20
-107.4219
 30
0.0
 10
-129.8591
 20
-107.4219
 30
0.0
 10
-129.8591
 20
-108.4636
 30
0.0
 10
-129.8591
 20
-108.4636
 30
0.0
 10
-129.8591
 20
-108.4636
 30
0.0
 10
-129.8591
 20
-108.4636
 30
0.0
 10
-136.0525
 20
-108.4636
 30
0.0
 10
-136.0525
 20
-108.4636
 30
0.0
  0
SPLINE
  5
7D
330
1F
100
AcDbEntity
  8
layer 1
 62
     7
100
AcDbSpline
210
0.0
220
0.0
230
1.0
 70
    11
 71
     3
 72
    20
 73
    16
 74
     0
 42
0.0000000001
 43
0.0000000001
 12
1.0
 22
0.0
 32
0.0
 13
1.0
 23
0.0
 33
0.0
 40
0.0
 40
0.0
 40
0.0
 40
0.0
 40
0.2
 40
0.2
 40
0.2
 40
0.2
 40
0.4
 40
0.4
 40
0.4
 40
0.4
 40
0.6
 40
0.6
 40
0.6
 40
0.6
 40
1.0
 40
1.0
 40
1.0
 40
1.0
 10
-128.4421
 20
-65.4858
 30
0.0
 10
-128.4421
 20
-65.4858
 30
0.0
 10
-122.3055
 20
-69.0497
 30
0.0
 10
-122.3055
 20
-69.0497
 30
0.0
 10
-122.3055
 20
-69.0497
 30
0.0
 10
-122.3055
 20
-69.0497
 30
0.0
 10
-128.4989
 20
-72.6255
 30
0.0
 10
-128.4989
 20
-72.6255
 30
0.0
 10
-128.4989
 20
-72.6255
 30
0.0
 10
-128.4989
 20
-72.6255
 30
0.0
 10
-134.6536
 20
-69.072
 30
0.0
 10
-134.6536
 20
-69.072
 30
0.0
 10
-134.6536
 20
-69.072
 30
0.0
 10
-134.6536
 20
-69.072
 30
0.0
 10
-128.4421
 20
-65.4858
 30
0.0
 10
-128.4421
 20
-65.4858
 30
0.0
  0
SPLINE
  5
7E
330
1F
100
AcDbEntity
  8
layer 1
 62
     7
100
AcDbSpline
210
0.0
220
0.0
230
1.0
 70
    11
 71
     3
 72
    20
 73
    16
 74
     0
 42
0.0000000001
 43
0.0000000001
 12
1.0
 22
0.0
 32
0.0
 13
1.0
 23
0.0
 33
0.0
 40
0.0
 40
0.0
 40
0.0
 40
0.0
 40
0.2
 40
0.2
 40
0.2
 40
0.2
 40
0.4
 40
0.4
 40
0.4
 40
0.4
 40
0.6
 40
0.6
 40
0.6
 40
0.6
 40
1.0
 40
1.0
 40
1.0
 40
1.0
 10
-146.9502
 20
-65.4858
 30
0.0
 10
-146.9502
 20
-65.4858
 30
0.0
 10
-140.8135
 20
-69.0497
 30
0.0
 10
-140.8135
 20
-69.0497
 30
0.0
 10
-140.8135
 20
-69.0497
 30
0.0
 10
-140.8135
 20
-69.0497
 30
0.0
 10
-147.0069
 20
-72.6255
 30
0.0
 10
-147.0069
 20
-72.6255
 30
0.0
 10
-147.0069
 20
-72.6255
 30
0.0
 10
-147.0069
 20
-72.6255
 30
0.0
 10
-153.1617
 20
-69.072
 30
0.0
 10
-153.1617
 20
-69.072
 30
0.0
 10
-153.1617
 20
-69.072
 30
0.0
 10
-153.1617
 20
-69.072
 30
0.0
 10
-146.9502
 20
-65.4858
 30
0.0
 10
-146.9502
 20
-65.4858
 30
0.0
  0
SPLINE
  5
7F
330
1F
100
AcDbEntity
  8
layer 1
 62
     7
100
AcDbSpline
210
0.0
220
0.0
230
1.0
 70
    11
 71
     3
 72
    20
 73
    16
 74
     0
 42
0.0000000001
 43
0.0000000001
 12
1.0
 22
0.0
 32
0.0
 13
1.0
 23
0.0
 33
0.0
 40
0.0
 40
0.0
 40
0.0
 40
0.0
 40
0.2
 40
0.2
 40
0.2
 40
0.2
 40
0.4
 40
0.4
 40
0.4
 40
0.4
 40
0.6
 40
0.6
 40
0.6
 40
0.6
 40
1.0
 40
1.0
 40
1.0
 40
1.0
 10
-91.4532
 20
-65.4156
 30
0.0
 10
-91.4532
 20
-65.4156
 30
0.0
 10
-85.3165
 20
-68.9795
 30
0.0
 10
-85.3165
 20
-68.9795
 30
0.0
 10
-85.3165
 20
-68.9795
 30
0.0
 10
-85.3165
 20
-68.9795
 30
0.0
 10
-91.51
 20
-72.5553
 30
0.0
 10
-91.51
 20
-72.5553
 30
0.0
 10
-91.51
 20
-72.5553
 30
0.0
 10
-91.51
 20
-72.5553
 30
0.0
 10
-97.6647
 20
-69.0018
 30
0.0
 10
-97.6647
 20
-69.0018
 30
0.0
 10
-97.6647
 20
-69.0018
 30
0.0
 10
-97.6647
 20
-69.0018
 30
0.0
 10
-91.4532
 20
-65.4156
 30
0.0
 10
-91.4532
 20
-65.4156
 30
0.0
  0
SPLINE
  5
80
330
1F
100
AcDbEntity
  8
layer 1
 62
     7
100
AcDbSpline
210
0.0
220
0.0
230
1.0
 70
    11
 71
     3
 72
    20
 73
    16
 74
     0
 42
0.0000000001
 43
0.0000000001
 12
1.0
 22
0.0
 32
0.0
 13
1.0
 23
0.0
 33
0.0
 40
0.0
 40
0.0
 40
0.0
 40
0.0
 40
0.2
 40
0.2
 40
0.2
 40
0.2
 40
0.4
 40
0.4
 40
0.4
 40
0.4
 40
0.6
 40
0.6
 40
0.6
 40
0.6
 40
1.0
 40
1.0
 40
1.0
 40
1.0
 10
-165.4695
 20
-65.4858
 30
0.0
 10
-165.4695
 20
-65.4858
 30
0.0
 10
-159.3328
 20
-69.0497
 30
0.0
 10
-159.3328
 20
-69.0497
 30
0.0
 10
-159.3328
 20
-69.0497
 30
0.0
 10
-159.3328
 20
-69.0497
 30
0.0
 10
-165.5262
 20
-72.6255
 30
0.0
 10
-165.5262
 20
-72.6255
 30
0.0
 10
-165.5262
 20
-72.6255
 30
0.0
 10
-165.5262
 20
-72.6255
 30
0.0
 10
-171.681
 20
-69.072
 30
0.0
 10
-171.681
 20
-69.072
 30
0.0
 10
-171.681
 20
-69.072
 30
0.0
 10
-171.681
 20
-69.072
 30
0.0
 10
-165.4695
 20
-65.4858
 30
0.0
 10
-165.4695
 20
-65.4858
 30
0.0
  0
SPLINE
  5
81
330
1F
100
AcDbEntity
  8
layer 1
 62
     7
100
AcDbSpline
210
0.0
220
0.0
230
1.0
 70
    11
 71
     3
 72
    16
 73
    12
 74
     0
 42
0.0000000001
 43
0.0000000001
 12
1.0
 22
0.0
 32
0.0
 13
1.0
 23
0.0
 33
0.0
 40
0.0
 40
0.0
 40
0.0
 40
0.0
 40
0.25
 40
0.25
 40
0.25
 40
0.25
 40
0.5
 40
0.5
 40
0.5
 40
0.5
 40
1.0
 40
1.0
 40
1.0
 40
1.0
 10
-181.1328
 20
-67.232
 30
0.0
 10
-181.1328
 20
-67.232
 30
0.0
 10
-178.0028
 20
-69.0498
 30
0.0
 10
-178.0028
 20
-69.0498
 30
0.0
 10
-178.0028
 20
-69.0498
 30
0.0
 10
-178.0028
 20
-69.0498
 30
0.0
 10
-181.1429
 20
-70.8627
 30
0.0
 10
-181.1429
 20
-70.8627
 30
0.0
 10
-181.1429
 20
-70.8627
 30
0.0
 10
-181.1429
 20
-70.8627
 30
0.0
 10
-181.1328
 20
-67.232
 30
0.0
 10
-181.1328
 20
-67.232
 30
0.0
  0
SPLINE
  5
82
330
1F
100
AcDbEntity
  8
layer 1
 62
     7
100
AcDbSpline
210
0.0
220
0.0
230
1.0
 70
    11
 71
     3
 72
    20
 73
    16
 74
     0
 42
0.0000000001
 43
0.0000000001
 12
1.0
 22
0.0
 32
0.0
 13
1.0
 23
0.0
 33
0.0
 40
0.0
 40
0.0
 40
0.0
 40
0.0
 40
0.2
 40
0.2
 40
0.2
 40
0.2
 40
0.4
 40
0.4
 40
0.4
 40
0.4
 40
0.6
 40
0.6
 40
0.6
 40
0.6
 40
1.0
 40
1.0
 40
1.0
 40
1.0
 10
-110.0422
 20
-65.4858
 30
0.0
 10
-110.0422
 20
-65.4858
 30
0.0
 10
-103.9056
 20
-69.0497
 30
0.0
 10
-103.9056
 20
-69.0497
 30
0.0
 10
-103.9056
 20
-69.0497
 30
0.0
 10
-103.9056
 20
-69.0497
 30
0.0
 10
-110.099
 20
-72.6255
 30
0.0
 10
-110.099
 20
-72.6255
 30
0.0
 10
-110.099
 20
-72.6255
 30
0.0
 10
-110.099
 20
-72.6255
 30
0.0
 10
-116.2537
 20
-69.072
 30
0.0
 10
-116.2537
 20
-69.072
 30
0.0
 10
-116.2537
 20
-69.072
 30
0.0
 10
-116.2537
 20
-69.072
 30
0.0
 10
-110.0422
 20
-65.4858
 30
0.0
 10
-110.0422
 20
-65.4858
 30
0.0
  0
SPLINE
  5
83
330
1F
100
AcDbEntity
  8
layer 1
 62
     7
100
AcDbSpline
210
0.0
220
0.0
230
1.0
 70
    11
 71
     3
 72
    16
 73
    12
 74
     0
 42
0.0000000001
 43
0.0000000001
 12
1.0
 22
0.0
 32
0.0
 13
1.0
 23
0.0
 33
0.0
 40
0.0
 40
0.0
 40
0.0
 40
0.0
 40
0.25
 40
0.25
 40
0.25
 40
0.25
 40
0.5
 40
0.5
 40
0.5
 40
0.5
 40
1.0
 40
1.0
 40
1.0
 40
1.0
 10
-75.7481
 20
-71.1074
 30
0.0
 10
-75.7481
 20
-71.1074
 30
0.0
 10
-79.2732
 20
-69.0721
 30
0.0
 10
-79.2732
 20
-69.0721
 30
0.0
 10
-79.2732
 20
-69.0721
 30
0.0
 10
-79.2732
 20
-69.0721
 30
0.0
 10
-75.7194
 20
-67.0203
 30
0.0
 10
-75.7194
 20
-67.0203
 30
0.0
 10
-75.7194
 20
-67.0203
 30
0.0
 10
-75.7194
 20
-67.0203
 30
0.0
 10
-75.7481
 20
-71.1074
 30
0.0
 10
-75.7481
 20
-71.1074
 30
0.0
  0
SPLINE
  5
84
330
1F
100
AcDbEntity
  8
layer 1
 62
     7
100
AcDbSpline
210
0.0
220
0.0
230
1.0
 70
    11
 71
     3
 72
    28
 73
    24
 74
     0
 42
0.0000000001
 43
0.0000000001
 12
1.0
 22
0.0
 32
0.0
 13
1.0
 23
0.0
 33
0.0
 40
0.0
 40
0.0
 40
0.0
 40
0.0
 40
0.1428571428571428
 40
0.1428571428571428
 40
0.1428571428571428
 40
0.1428571428571428
 40
0.2857142857142857
 40
0.2857142857142857
 40
0.2857142857142857
 40
0.2857142857142857
 40
0.4285714285714285
 40
0.4285714285714285
 40
0.4285714285714285
 40
0.4285714285714285
 40
0.5714285714285714
 40
0.5714285714285714
 40
0.5714285714285714
 40
0.5714285714285714
 40
0.7142857142857143
 40
0.7142857142857143
 40
0.7142857142857143
 40
0.7142857142857143
 40
1.0
 40
1.0
 40
1.0
 40
1.0
 10
-129.9854
 20
-53.9201
 30
0.0
 10
-129.9854
 20
-53.9201
 30
0.0
 10
-129.9854
 20
-62.799
 30
0.0
 10
-129.9854
 20
-62.799
 30
0.0
 10
-129.9854
 20
-62.799
 30
0.0
 10
-129.9854
 20
-62.799
 30
0.0
 10
-137.6709
 20
-67.2384
 30
0.0
 10
-137.6709
 20
-67.2384
 30
0.0
 10
-137.6709
 20
-67.2384
 30
0.0
 10
-137.6709
 20
-67.2384
 30
0.0
 10
-145.3563
 20
-62.799
 30
0.0
 10
-145.3563
 20
-62.799
 30
0.0
 10
-145.3563
 20
-62.799
 30
0.0
 10
-145.3563
 20
-62.799
 30
0.0
 10
-145.3563
 20
-53.9201
 30
0.0
 10
-145.3563
 20
-53.9201
 30
0.0
 10
-145.3563
 20
-53.9201
 30
0.0
 10
-145.3563
 20
-53.9201
 30
0.0
 10
-137.6709
 20
-49.4806
 30
0.0
 10
-137.6709
 20
-49.4806
 30
0.0
 10
-137.6709
 20
-49.4806
 30
0.0
 10
-137.6709
 20
-49.4806
 30
0.0
 10
-129.9854
 20
-53.9201
 30
0.0
 10
-129.9854
 20
-53.9201
 30
0.0
  0
SPLINE
  5
85
330
1F
100
AcDbEntity
  8
layer 1
 62
     7
100
AcDbSpline
210
0.0
220
0.0
230
1.0
 70
    11
 71
     3
 72
    20
 73
    16
 74
     0
 42
0.0000000001
 43
0.0000000001
 12
1.0
 22
0.0
 32
0.0
 13
1.0
 23
0.0
 33
0.0
 40
0.0
 40
0.0
 40
0.0
 40
0.0
 40
0.2
 40
0.2
 40
0.2
 40
0.2
 40
0.4
 40
0.4
 40
0.4
 40
0.4
 40
0.6
 40
0.6
 40
0.6
 40
0.6
 40
1.0
 40
1.0
 40
1.0
 40
1.0
 10
-111.5743
 20
-63.0588
 30
0.0
 10
-111.5743
 20
-63.0588
 30
0.0
 10
-111.5924
 20
-55.9623
 30
0.0
 10
-111.5924
 20
-55.9623
 30
0.0
 10
-111.5924
 20
-55.9623
 30
0.0
 10
-111.5924
 20
-55.9623
 30
0.0
 10
-117.7858
 20
-59.5381
 30
0.0
 10
-117.7858
 20
-59.5381
 30
0.0
 10
-117.7858
 20
-59.5381
 30
0.0
 10
-117.7858
 20
-59.5381
 30
0.0
 10
-117.7858
 20
-66.6449
 30
0.0
 10
-117.7858
 20
-66.6449
 30
0.0
 10
-117.7858
 20
-66.6449
 30
0.0
 10
-117.7858
 20
-66.6449
 30
0.0
 10
-111.5743
 20
-63.0588
 30
0.0
 10
-111.5743
 20
-63.0588
 30
0.0
  0
SPLINE
  5
86
330
1F
100
AcDbEntity
  8
layer 1
 62
     7
100
AcDbSpline
210
0.0
220
0.0
230
1.0
 70
    11
 71
     3
 72
    20
 73
    16
 74
     0
 42
0.0000000001
 43
0.0000000001
 12
1.0
 22
0.0
 32
0.0
 13
1.0
 23
0.0
 33
0.0
 40
0.0
 40
0.0
 40
0.0
 40
0.0
 40
0.2
 40
0.2
 40
0.2
 40
0.2
 40
0.4
 40
0.4
 40
0.4
 40
0.4
 40
0.6
 40
0.6
 40
0.6
 40
0.6
 40
1.0
 40
1.0
 40
1.0
 40
1.0
 10
-126.9012
 20
-62.8919
 30
0.0
 10
-126.9012
 20
-62.8919
 30
0.0
 10
-126.8831
 20
-55.7955
 30
0.0
 10
-126.8831
 20
-55.7955
 30
0.0
 10
-126.8831
 20
-55.7955
 30
0.0
 10
-126.8831
 20
-55.7955
 30
0.0
 10
-120.6897
 20
-59.3712
 30
0.0
 10
-120.6897
 20
-59.3712
 30
0.0
 10
-120.6897
 20
-59.3712
 30
0.0
 10
-120.6897
 20
-59.3712
 30
0.0
 10
-120.6897
 20
-66.4781
 30
0.0
 10
-120.6897
 20
-66.4781
 30
0.0
 10
-120.6897
 20
-66.4781
 30
0.0
 10
-120.6897
 20
-66.4781
 30
0.0
 10
-126.9012
 20
-62.8919
 30
0.0
 10
-126.9012
 20
-62.8919
 30
0.0
  0
SPLINE
  5
87
330
1F
100
AcDbEntity
  8
layer 1
 62
     7
100
AcDbSpline
210
0.0
220
0.0
230
1.0
 70
    11
 71
     3
 72
    28
 73
    24
 74
     0
 42
0.0000000001
 43
0.0000000001
 12
1.0
 22
0.0
 32
0.0
 13
1.0
 23
0.0
 33
0.0
 40
0.0
 40
0.0
 40
0.0
 40
0.0
 40
0.1428571428571428
 40
0.1428571428571428
 40
0.1428571428571428
 40
0.1428571428571428
 40
0.2857142857142857
 40
0.2857142857142857
 40
0.2857142857142857
 40
0.2857142857142857
 40
0.4285714285714285
 40
0.4285714285714285
 40
0.4285714285714285
 40
0.4285714285714285
 40
0.5714285714285714
 40
0.5714285714285714
 40
0.5714285714285714
 40
0.5714285714285714
 40
0.7142857142857143
 40
0.7142857142857143
 40
0.7142857142857143
 40
0.7142857142857143
 40
1.0
 40
1.0
 40
1.0
 40
1.0
 10
-93.1466
 20
-53.9201
 30
0.0
 10
-93.1466
 20
-53.9201
 30
0.0
 10
-93.1466
 20
-62.799
 30
0.0
 10
-93.1466
 20
-62.799
 30
0.0
 10
-93.1466
 20
-62.799
 30
0.0
 10
-93.1466
 20
-62.799
 30
0.0
 10
-100.8321
 20
-67.2384
 30
0.0
 10
-100.8321
 20
-67.2384
 30
0.0
 10
-100.8321
 20
-67.2384
 30
0.0
 10
-100.8321
 20
-67.2384
 30
0.0
 10
-108.5176
 20
-62.799
 30
0.0
 10
-108.5176
 20
-62.799
 30
0.0
 10
-108.5176
 20
-62.799
 30
0.0
 10
-108.5176
 20
-62.799
 30
0.0
 10
-108.5176
 20
-53.9201
 30
0.0
 10
-108.5176
 20
-53.9201
 30
0.0
 10
-108.5176
 20
-53.9201
 30
0.0
 10
-108.5176
 20
-53.9201
 30
0.0
 10
-100.8321
 20
-49.4806
 30
0.0
 10
-100.8321
 20
-49.4806
 30
0.0
 10
-100.8321
 20
-49.4806
 30
0.0
 10
-100.8321
 20
-49.4806
 30
0.0
 10
-93.1466
 20
-53.9201
 30
0.0
 10
-93.1466
 20
-53.9201
 30
0.0
  0
SPLINE
  5
88
330
1F
100
AcDbEntity
  8
layer 1
 62
     7
100
AcDbSpline
210
0.0
220
0.0
230
1.0
 70
    11
 71
     3
 72
    20
 73
    16
 74
     0
 42
0.0000000001
 43
0.0000000001
 12
1.0
 22
0.0
 32
0.0
 13
1.0
 23
0.0
 33
0.0
 40
0.0
 40
0.0
 40
0.0
 40
0.0
 40
0.2
 40
0.2
 40
0.2
 40
0.2
 40
0.4
 40
0.4
 40
0.4
 40
0.4
 40
0.6
 40
0.6
 40
0.6
 40
0.6
 40
1.0
 40
1.0
 40
1.0
 40
1.0
 10
-89.9555
 20
-62.8529
 30
0.0
 10
-89.9555
 20
-62.8529
 30
0.0
 10
-89.9374
 20
-55.7564
 30
0.0
 10
-89.9374
 20
-55.7564
 30
0.0
 10
-89.9374
 20
-55.7564
 30
0.0
 10
-89.9374
 20
-55.7564
 30
0.0
 10
-83.744
 20
-59.3322
 30
0.0
 10
-83.744
 20
-59.3322
 30
0.0
 10
-83.744
 20
-59.3322
 30
0.0
 10
-83.744
 20
-59.3322
 30
0.0
 10
-83.744
 20
-66.4391
 30
0.0
 10
-83.744
 20
-66.4391
 30
0.0
 10
-83.744
 20
-66.4391
 30
0.0
 10
-83.744
 20
-66.4391
 30
0.0
 10
-89.9555
 20
-62.8529
 30
0.0
 10
-89.9555
 20
-62.8529
 30
0.0
  0
SPLINE
  5
89
330
1F
100
AcDbEntity
  8
layer 1
 62
     7
100
AcDbSpline
210
0.0
220
0.0
230
1.0
 70
    11
 71
     3
 72
    20
 73
    16
 74
     0
 42
0.0000000001
 43
0.0000000001
 12
1.0
 22
0.0
 32
0.0
 13
1.0
 23
0.0
 33
0.0
 40
0.0
 40
0.0
 40
0.0
 40
0.0
 40
0.2
 40
0.2
 40
0.2
 40
0.2
 40
0.4
 40
0.4
 40
0.4
 40
0.4
 40
0.6
 40
0.6
 40
0.6
 40
0.6
 40
1.0
 40
1.0
 40
1.0
 40
1.0
 10
-163.9893
 20
-62.7283
 30
0.0
 10
-163.9893
 20
-62.7283
 30
0.0
 10
-163.9712
 20
-55.6318
 30
0.0
 10
-163.9712
 20
-55.6318
 30
0.0
 10
-163.9712
 20
-55.6318
 30
0.0
 10
-163.9712
 20
-55.6318
 30
0.0
 10
-157.7777
 20
-59.2076
 30
0.0
 10
-157.7777
 20
-59.2076
 30
0.0
 10
-157.7777
 20
-59.2076
 30
0.0
 10
-157.7777
 20
-59.2076
 30
0.0
 10
-157.7777
 20
-66.3145
 30
0.0
 10
-157.7777
 20
-66.3145
 30
0.0
 10
-157.7777
 20
-66.3145
 30
0.0
 10
-157.7777
 20
-66.3145
 30
0.0
 10
-163.9893
 20
-62.7283
 30
0.0
 10
-163.9893
 20
-62.7283
 30
0.0
  0
SPLINE
  5
8A
330
1F
100
AcDbEntity
  8
layer 1
 62
     7
100
AcDbSpline
210
0.0
220
0.0
230
1.0
 70
    11
 71
     3
 72
    20
 73
    16
 74
     0
 42
0.0000000001
 43
0.0000000001
 12
1.0
 22
0.0
 32
0.0
 13
1.0
 23
0.0
 33
0.0
 40
0.0
 40
0.0
 40
0.0
 40
0.0
 40
0.2
 40
0.2
 40
0.2
 40
0.2
 40
0.4
 40
0.4
 40
0.4
 40
0.4
 40
0.6
 40
0.6
 40
0.6
 40
0.6
 40
1.0
 40
1.0
 40
1.0
 40
1.0
 10
-75.6718
 20
-56.3637
 30
0.0
 10
-75.6718
 20
-56.3637
 30
0.0
 10
-80.7109
 20
-59.273
 30
0.0
 10
-80.7109
 20
-59.273
 30
0.0
 10
-80.7109
 20
-59.273
 30
0.0
 10
-80.7109
 20
-59.273
 30
0.0
 10
-80.7109
 20
-66.3799
 30
0.0
 10
-80.7109
 20
-66.3799
 30
0.0
 10
-80.7109
 20
-66.3799
 30
0.0
 10
-80.7109
 20
-66.3799
 30
0.0
 10
-75.6954
 20
-63.4842
 30
0.0
 10
-75.6954
 20
-63.4842
 30
0.0
 10
-75.6954
 20
-63.4842
 30
0.0
 10
-75.6954
 20
-63.4842
 30
0.0
 10
-75.6718
 20
-56.3637
 30
0.0
 10
-75.6718
 20
-56.3637
 30
0.0
  0
SPLINE
  5
8B
330
1F
100
AcDbEntity
  8
layer 1
 62
     7
100
AcDbSpline
210
0.0
220
0.0
230
1.0
 70
    11
 71
     3
 72
    28
 73
    24
 74
     0
 42
0.0000000001
 43
0.0000000001
 12
1.0
 22
0.0
 32
0.0
 13
1.0
 23
0.0
 33
0.0
 40
0.0
 40
0.0
 40
0.0
 40
0.0
 40
0.1428571428571428
 40
0.1428571428571428
 40
0.1428571428571428
 40
0.1428571428571428
 40
0.2857142857142857
 40
0.2857142857142857
 40
0.2857142857142857
 40
0.2857142857142857
 40
0.4285714285714285
 40
0.4285714285714285
 40
0.4285714285714285
 40
0.4285714285714285
 40
0.5714285714285714
 40
0.5714285714285714
 40
0.5714285714285714
 40
0.5714285714285714
 40
0.7142857142857143
 40
0.7142857142857143
 40
0.7142857142857143
 40
0.7142857142857143
 40
1.0
 40
1.0
 40
1.0
 40
1.0
 10
-111.4692
 20
-21.8955
 30
0.0
 10
-111.4692
 20
-21.8955
 30
0.0
 10
-111.4692
 20
-30.7744
 30
0.0
 10
-111.4692
 20
-30.7744
 30
0.0
 10
-111.4692
 20
-30.7744
 30
0.0
 10
-111.4692
 20
-30.7744
 30
0.0
 10
-119.1547
 20
-35.2139
 30
0.0
 10
-119.1547
 20
-35.2139
 30
0.0
 10
-119.1547
 20
-35.2139
 30
0.0
 10
-119.1547
 20
-35.2139
 30
0.0
 10
-126.8402
 20
-30.7744
 30
0.0
 10
-126.8402
 20
-30.7744
 30
0.0
 10
-126.8402
 20
-30.7744
 30
0.0
 10
-126.8402
 20
-30.7744
 30
0.0
 10
-126.8402
 20
-21.8955
 30
0.0
 10
-126.8402
 20
-21.8955
 30
0.0
 10
-126.8402
 20
-21.8955
 30
0.0
 10
-126.8402
 20
-21.8955
 30
0.0
 10
-119.1547
 20
-17.4561
 30
0.0
 10
-119.1547
 20
-17.4561
 30
0.0
 10
-119.1547
 20
-17.4561
 30
0.0
 10
-119.1547
 20
-17.4561
 30
0.0
 10
-111.4692
 20
-21.8955
 30
0.0
 10
-111.4692
 20
-21.8955
 30
0.0
  0
SPLINE
  5
8C
330
1F
100
AcDbEntity
  8
layer 1
 62
     7
100
AcDbSpline
210
0.0
220
0.0
230
1.0
 70
    11
 71
     3
 72
    20
 73
    16
 74
     0
 42
0.0000000001
 43
0.0000000001
 12
1.0
 22
0.0
 32
0.0
 13
1.0
 23
0.0
 33
0.0
 40
0.0
 40
0.0
 40
0.0
 40
0.0
 40
0.2
 40
0.2
 40
0.2
 40
0.2
 40
0.4
 40
0.4
 40
0.4
 40
0.4
 40
0.6
 40
0.6
 40
0.6
 40
0.6
 40
1.0
 40
1.0
 40
1.0
 40
1.0
 10
-137.5863
 20
-6.7634
 30
0.0
 10
-137.5863
 20
-6.7634
 30
0.0
 10
-131.4496
 20
-10.3272
 30
0.0
 10
-131.4496
 20
-10.3272
 30
0.0
 10
-131.4496
 20
-10.3272
 30
0.0
 10
-131.4496
 20
-10.3272
 30
0.0
 10
-137.6431
 20
-13.903
 30
0.0
 10
-137.6431
 20
-13.903
 30
0.0
 10
-137.6431
 20
-13.903
 30
0.0
 10
-137.6431
 20
-13.903
 30
0.0
 10
-143.7978
 20
-10.3496
 30
0.0
 10
-143.7978
 20
-10.3496
 30
0.0
 10
-143.7978
 20
-10.3496
 30
0.0
 10
-143.7978
 20
-10.3496
 30
0.0
 10
-137.5863
 20
-6.7634
 30
0.0
 10
-137.5863
 20
-6.7634
 30
0.0
  0
SPLINE
  5
8D
330
1F
100
AcDbEntity
  8
layer 1
 62
     7
100
AcDbSpline
210
0.0
220
0.0
230
1.0
 70
    11
 71
     3
 72
    20
 73
    16
 74
     0
 42
0.0000000001
 43
0.0000000001
 12
1.0
 22
0.0
 32
0.0
 13
1.0
 23
0.0
 33
0.0
 40
0.0
 40
0.0
 40
0.0
 40
0.0
 40
0.2
 40
0.2
 40
0.2
 40
0.2
 40
0.4
 40
0.4
 40
0.4
 40
0.4
 40
0.6
 40
0.6
 40
0.6
 40
0.6
 40
1.0
 40
1.0
 40
1.0
 40
1.0
 10
-129.8591
 20
-19.989
 30
0.0
 10
-129.8591
 20
-19.989
 30
0.0
 10
-129.8772
 20
-12.8926
 30
0.0
 10
-129.8772
 20
-12.8926
 30
0.0
 10
-129.8772
 20
-12.8926
 30
0.0
 10
-129.8772
 20
-12.8926
 30
0.0
 10
-136.0706
 20
-16.4683
 30
0.0
 10
-136.0706
 20
-16.4683
 30
0.0
 10
-136.0706
 20
-16.4683
 30
0.0
 10
-136.0706
 20
-16.4683
 30
0.0
 10
-136.0706
 20
-23.5752
 30
0.0
 10
-136.0706
 20
-23.5752
 30
0.0
 10
-136.0706
 20
-23.5752
 30
0.0
 10
-136.0706
 20
-23.5752
 30
0.0
 10
-129.8591
 20
-19.989
 30
0.0
 10
-129.8591
 20
-19.989
 30
0.0
  0
SPLINE
  5
8E
330
1F
100
AcDbEntity
  8
layer 1
 62
     7
100
AcDbSpline
210
0.0
220
0.0
230
1.0
 70
    11
 71
     3
 72
    20
 73
    16
 74
     0
 42
0.0000000001
 43
0.0000000001
 12
1.0
 22
0.0
 32
0.0
 13
1.0
 23
0.0
 33
0.0
 40
0.0
 40
0.0
 40
0.0
 40
0.0
 40
0.2
 40
0.2
 40
0.2
 40
0.2
 40
0.4
 40
0.4
 40
0.4
 40
0.4
 40
0.6
 40
0.6
 40
0.6
 40
0.6
 40
1.0
 40
1.0
 40
1.0
 40
1.0
 10
-129.8591
 20
-30.7574
 30
0.0
 10
-129.8591
 20
-30.7574
 30
0.0
 10
-129.8772
 20
-23.6609
 30
0.0
 10
-129.8772
 20
-23.6609
 30
0.0
 10
-129.8772
 20
-23.6609
 30
0.0
 10
-129.8772
 20
-23.6609
 30
0.0
 10
-136.0706
 20
-27.2367
 30
0.0
 10
-136.0706
 20
-27.2367
 30
0.0
 10
-136.0706
 20
-27.2367
 30
0.0
 10
-136.0706
 20
-27.2367
 30
0.0
 10
-136.0706
 20
-34.3436
 30
0.0
 10
-136.0706
 20
-34.3436
 30
0.0
 10
-136.0706
 20
-34.3436
 30
0.0
 10
-136.0706
 20
-34.3436
 30
0.0
 10
-129.8591
 20
-30.7574
 30
0.0
 10
-129.8591
 20
-30.7574
 30
0.0
  0
SPLINE
  5
8F
330
1F
100
AcDbEntity
  8
layer 1
 62
     7
100
AcDbSpline
210
0.0
220
0.0
230
1.0
 70
    11
 71
     3
 72
    20
 73
    16
 74
     0
 42
0.0000000001
 43
0.0000000001
 12
1.0
 22
0.0
 32
0.0
 13
1.0
 23
0.0
 33
0.0
 40
0.0
 40
0.0
 40
0.0
 40
0.0
 40
0.2
 40
0.2
 40
0.2
 40
0.2
 40
0.4
 40
0.4
 40
0.4
 40
0.4
 40
0.6
 40
0.6
 40
0.6
 40
0.6
 40
1.0
 40
1.0
 40
1.0
 40
1.0
 10
-145.5371
 20
-19.989
 30
0.0
 10
-145.5371
 20
-19.989
 30
0.0
 10
-145.5191
 20
-12.8926
 30
0.0
 10
-145.5191
 20
-12.8926
 30
0.0
 10
-145.5191
 20
-12.8926
 30
0.0
 10
-145.5191
 20
-12.8926
 30
0.0
 10
-139.3256
 20
-16.4683
 30
0.0
 10
-139.3256
 20
-16.4683
 30
0.0
 10
-139.3256
 20
-16.4683
 30
0.0
 10
-139.3256
 20
-16.4683
 30
0.0
 10
-139.3256
 20
-23.5752
 30
0.0
 10
-139.3256
 20
-23.5752
 30
0.0
 10
-139.3256
 20
-23.5752
 30
0.0
 10
-139.3256
 20
-23.5752
 30
0.0
 10
-145.5371
 20
-19.989
 30
0.0
 10
-145.5371
 20
-19.989
 30
0.0
  0
SPLINE
  5
90
330
1F
100
AcDbEntity
  8
layer 1
 62
     7
100
AcDbSpline
210
0.0
220
0.0
230
1.0
 70
    11
 71
     3
 72
    20
 73
    16
 74
     0
 42
0.0000000001
 43
0.0000000001
 12
1.0
 22
0.0
 32
0.0
 13
1.0
 23
0.0
 33
0.0
 40
0.0
 40
0.0
 40
0.0
 40
0.0
 40
0.2
 40
0.2
 40
0.2
 40
0.2
 40
0.4
 40
0.4
 40
0.4
 40
0.4
 40
0.6
 40
0.6
 40
0.6
 40
0.6
 40
1.0
 40
1.0
 40
1.0
 40
1.0
 10
-145.5371
 20
-30.7574
 30
0.0
 10
-145.5371
 20
-30.7574
 30
0.0
 10
-145.5191
 20
-23.6609
 30
0.0
 10
-145.5191
 20
-23.6609
 30
0.0
 10
-145.5191
 20
-23.6609
 30
0.0
 10
-145.5191
 20
-23.6609
 30
0.0
 10
-139.3256
 20
-27.2367
 30
0.0
 10
-139.3256
 20
-27.2367
 30
0.0
 10
-139.3256
 20
-27.2367
 30
0.0
 10
-139.3256
 20
-27.2367
 30
0.0
 10
-139.3256
 20
-34.3436
 30
0.0
 10
-139.3256
 20
-34.3436
 30
0.0
 10
-139.3256
 20
-34.3436
 30
0.0
 10
-139.3256
 20
-34.3436
 30
0.0
 10
-145.5371
 20
-30.7574
 30
0.0
 10
-145.5371
 20
-30.7574
 30
0.0
  0
SPLINE
  5
91
330
1F
100
AcDbEntity
  8
layer 1
 62
     7
100
AcDbSpline
210
0.0
220
0.0
230
1.0
 70
    11
 71
     3
 72
    20
 73
    16
 74
     0
 42
0.0000000001
 43
0.0000000001
 12
1.0
 22
0.0
 32
0.0
 13
1.0
 23
0.0
 33
0.0
 40
0.0
 40
0.0
 40
0.0
 40
0.0
 40
0.2
 40
0.2
 40
0.2
 40
0.2
 40
0.4
 40
0.4
 40
0.4
 40
0.4
 40
0.6
 40
0.6
 40
0.6
 40
0.6
 40
1.0
 40
1.0
 40
1.0
 40
1.0
 10
-120.6034
 20
-14.6462
 30
0.0
 10
-120.6034
 20
-14.6462
 30
0.0
 10
-120.6214
 20
-7.5498
 30
0.0
 10
-120.6214
 20
-7.5498
 30
0.0
 10
-120.6214
 20
-7.5498
 30
0.0
 10
-120.6214
 20
-7.5498
 30
0.0
 10
-126.8149
 20
-11.1255
 30
0.0
 10
-126.8149
 20
-11.1255
 30
0.0
 10
-126.8149
 20
-11.1255
 30
0.0
 10
-126.8149
 20
-11.1255
 30
0.0
 10
-126.8149
 20
-18.2324
 30
0.0
 10
-126.8149
 20
-18.2324
 30
0.0
 10
-126.8149
 20
-18.2324
 30
0.0
 10
-126.8149
 20
-18.2324
 30
0.0
 10
-120.6034
 20
-14.6462
 30
0.0
 10
-120.6034
 20
-14.6462
 30
0.0
  0
SPLINE
  5
92
330
1F
100
AcDbEntity
  8
layer 1
 62
     7
100
AcDbSpline
210
0.0
220
0.0
230
1.0
 70
    11
 71
     3
 72
    20
 73
    16
 74
     0
 42
0.0000000001
 43
0.0000000001
 12
1.0
 22
0.0
 32
0.0
 13
1.0
 23
0.0
 33
0.0
 40
0.0
 40
0.0
 40
0.0
 40
0.0
 40
0.2
 40
0.2
 40
0.2
 40
0.2
 40
0.4
 40
0.4
 40
0.4
 40
0.4
 40
0.6
 40
0.6
 40
0.6
 40
0.6
 40
1.0
 40
1.0
 40
1.0
 40
1.0
 10
-146.9502
 20
-33.4613
 30
0.0
 10
-146.9502
 20
-33.4613
 30
0.0
 10
-140.8135
 20
-37.0251
 30
0.0
 10
-140.8135
 20
-37.0251
 30
0.0
 10
-140.8135
 20
-37.0251
 30
0.0
 10
-140.8135
 20
-37.0251
 30
0.0
 10
-147.0069
 20
-40.6009
 30
0.0
 10
-147.0069
 20
-40.6009
 30
0.0
 10
-147.0069
 20
-40.6009
 30
0.0
 10
-147.0069
 20
-40.6009
 30
0.0
 10
-153.1617
 20
-37.0475
 30
0.0
 10
-153.1617
 20
-37.0475
 30
0.0
 10
-153.1617
 20
-37.0475
 30
0.0
 10
-153.1617
 20
-37.0475
 30
0.0
 10
-146.9502
 20
-33.4613
 30
0.0
 10
-146.9502
 20
-33.4613
 30
0.0
  0
SPLINE
  5
93
330
1F
100
AcDbEntity
  8
layer 1
 62
     7
100
AcDbSpline
210
0.0
220
0.0
230
1.0
 70
    11
 71
     3
 72
    20
 73
    16
 74
     0
 42
0.0000000001
 43
0.0000000001
 12
1.0
 22
0.0
 32
0.0
 13
1.0
 23
0.0
 33
0.0
 40
0.0
 40
0.0
 40
0.0
 40
0.0
 40
0.2
 40
0.2
 40
0.2
 40
0.2
 40
0.4
 40
0.4
 40
0.4
 40
0.4
 40
0.6
 40
0.6
 40
0.6
 40
0.6
 40
1.0
 40
1.0
 40
1.0
 40
1.0
 10
-117.6963
 20
-14.7079
 30
0.0
 10
-117.6963
 20
-14.7079
 30
0.0
 10
-117.6782
 20
-7.6114
 30
0.0
 10
-117.6782
 20
-7.6114
 30
0.0
 10
-117.6782
 20
-7.6114
 30
0.0
 10
-117.6782
 20
-7.6114
 30
0.0
 10
-111.4848
 20
-11.1872
 30
0.0
 10
-111.4848
 20
-11.1872
 30
0.0
 10
-111.4848
 20
-11.1872
 30
0.0
 10
-111.4848
 20
-11.1872
 30
0.0
 10
-111.4848
 20
-18.294
 30
0.0
 10
-111.4848
 20
-18.294
 30
0.0
 10
-111.4848
 20
-18.294
 30
0.0
 10
-111.4848
 20
-18.294
 30
0.0
 10
-117.6963
 20
-14.7079
 30
0.0
 10
-117.6963
 20
-14.7079
 30
0.0
  0
SPLINE
  5
94
330
1F
100
AcDbEntity
  8
layer 1
 62
     7
100
AcDbSpline
210
0.0
220
0.0
230
1.0
 70
    11
 71
     3
 72
    28
 73
    24
 74
     0
 42
0.0000000001
 43
0.0000000001
 12
1.0
 22
0.0
 32
0.0
 13
1.0
 23
0.0
 33
0.0
 40
0.0
 40
0.0
 40
0.0
 40
0.0
 40
0.1428571428571428
 40
0.1428571428571428
 40
0.1428571428571428
 40
0.1428571428571428
 40
0.2857142857142857
 40
0.2857142857142857
 40
0.2857142857142857
 40
0.2857142857142857
 40
0.4285714285714285
 40
0.4285714285714285
 40
0.4285714285714285
 40
0.4285714285714285
 40
0.5714285714285714
 40
0.5714285714285714
 40
0.5714285714285714
 40
0.5714285714285714
 40
0.7142857142857143
 40
0.7142857142857143
 40
0.7142857142857143
 40
0.7142857142857143
 40
1.0
 40
1.0
 40
1.0
 40
1.0
 10
-75.7283
 20
-31.4252
 30
0.0
 10
-75.7283
 20
-31.4252
 30
0.0
 10
-82.1658
 20
-35.1437
 30
0.0
 10
-82.1658
 20
-35.1437
 30
0.0
 10
-82.1658
 20
-35.1437
 30
0.0
 10
-82.1658
 20
-35.1437
 30
0.0
 10
-89.8512
 20
-30.7042
 30
0.0
 10
-89.8512
 20
-30.7042
 30
0.0
 10
-89.8512
 20
-30.7042
 30
0.0
 10
-89.8512
 20
-30.7042
 30
0.0
 10
-89.8512
 20
-21.8253
 30
0.0
 10
-89.8512
 20
-21.8253
 30
0.0
 10
-89.8512
 20
-21.8253
 30
0.0
 10
-89.8512
 20
-21.8253
 30
0.0
 10
-82.1658
 20
-17.3858
 30
0.0
 10
-82.1658
 20
-17.3858
 30
0.0
 10
-82.1658
 20
-17.3858
 30
0.0
 10
-82.1658
 20
-17.3858
 30
0.0
 10
-75.7393
 20
-21.098
 30
0.0
 10
-75.7393
 20
-21.098
 30
0.0
 10
-75.7393
 20
-21.098
 30
0.0
 10
-75.7393
 20
-21.098
 30
0.0
 10
-75.7283
 20
-31.4252
 30
0.0
 10
-75.7283
 20
-31.4252
 30
0.0
  0
SPLINE
  5
95
330
1F
100
AcDbEntity
  8
layer 1
 62
     7
100
AcDbSpline
210
0.0
220
0.0
230
1.0
 70
    11
 71
     3
 72
    20
 73
    16
 74
     0
 42
0.0000000001
 43
0.0000000001
 12
1.0
 22
0.0
 32
0.0
 13
1.0
 23
0.0
 33
0.0
 40
0.0
 40
0.0
 40
0.0
 40
0.0
 40
0.2
 40
0.2
 40
0.2
 40
0.2
 40
0.4
 40
0.4
 40
0.4
 40
0.4
 40
0.6
 40
0.6
 40
0.6
 40
0.6
 40
1.0
 40
1.0
 40
1.0
 40
1.0
 10
-100.5973
 20
-6.6931
 30
0.0
 10
-100.5973
 20
-6.6931
 30
0.0
 10
-94.4606
 20
-10.257
 30
0.0
 10
-94.4606
 20
-10.257
 30
0.0
 10
-94.4606
 20
-10.257
 30
0.0
 10
-94.4606
 20
-10.257
 30
0.0
 10
-100.654
 20
-13.8328
 30
0.0
 10
-100.654
 20
-13.8328
 30
0.0
 10
-100.654
 20
-13.8328
 30
0.0
 10
-100.654
 20
-13.8328
 30
0.0
 10
-106.8088
 20
-10.2793
 30
0.0
 10
-106.8088
 20
-10.2793
 30
0.0
 10
-106.8088
 20
-10.2793
 30
0.0
 10
-106.8088
 20
-10.2793
 30
0.0
 10
-100.5973
 20
-6.6931
 30
0.0
 10
-100.5973
 20
-6.6931
 30
0.0
  0
SPLINE
  5
96
330
1F
100
AcDbEntity
  8
layer 1
 62
     7
100
AcDbSpline
210
0.0
220
0.0
230
1.0
 70
    11
 71
     3
 72
    20
 73
    16
 74
     0
 42
0.0000000001
 43
0.0000000001
 12
1.0
 22
0.0
 32
0.0
 13
1.0
 23
0.0
 33
0.0
 40
0.0
 40
0.0
 40
0.0
 40
0.0
 40
0.2
 40
0.2
 40
0.2
 40
0.2
 40
0.4
 40
0.4
 40
0.4
 40
0.4
 40
0.6
 40
0.6
 40
0.6
 40
0.6
 40
1.0
 40
1.0
 40
1.0
 40
1.0
 10
-92.8701
 20
-19.9188
 30
0.0
 10
-92.8701
 20
-19.9188
 30
0.0
 10
-92.8882
 20
-12.8223
 30
0.0
 10
-92.8882
 20
-12.8223
 30
0.0
 10
-92.8882
 20
-12.8223
 30
0.0
 10
-92.8882
 20
-12.8223
 30
0.0
 10
-99.0816
 20
-16.3981
 30
0.0
 10
-99.0816
 20
-16.3981
 30
0.0
 10
-99.0816
 20
-16.3981
 30
0.0
 10
-99.0816
 20
-16.3981
 30
0.0
 10
-99.0816
 20
-23.505
 30
0.0
 10
-99.0816
 20
-23.505
 30
0.0
 10
-99.0816
 20
-23.505
 30
0.0
 10
-99.0816
 20
-23.505
 30
0.0
 10
-92.8701
 20
-19.9188
 30
0.0
 10
-92.8701
 20
-19.9188
 30
0.0
  0
SPLINE
  5
97
330
1F
100
AcDbEntity
  8
layer 1
 62
     7
100
AcDbSpline
210
0.0
220
0.0
230
1.0
 70
    11
 71
     3
 72
    20
 73
    16
 74
     0
 42
0.0000000001
 43
0.0000000001
 12
1.0
 22
0.0
 32
0.0
 13
1.0
 23
0.0
 33
0.0
 40
0.0
 40
0.0
 40
0.0
 40
0.0
 40
0.2
 40
0.2
 40
0.2
 40
0.2
 40
0.4
 40
0.4
 40
0.4
 40
0.4
 40
0.6
 40
0.6
 40
0.6
 40
0.6
 40
1.0
 40
1.0
 40
1.0
 40
1.0
 10
-92.8701
 20
-30.6871
 30
0.0
 10
-92.8701
 20
-30.6871
 30
0.0
 10
-92.8882
 20
-23.5906
 30
0.0
 10
-92.8882
 20
-23.5906
 30
0.0
 10
-92.8882
 20
-23.5906
 30
0.0
 10
-92.8882
 20
-23.5906
 30
0.0
 10
-99.0816
 20
-27.1664
 30
0.0
 10
-99.0816
 20
-27.1664
 30
0.0
 10
-99.0816
 20
-27.1664
 30
0.0
 10
-99.0816
 20
-27.1664
 30
0.0
 10
-99.0816
 20
-34.2733
 30
0.0
 10
-99.0816
 20
-34.2733
 30
0.0
 10
-99.0816
 20
-34.2733
 30
0.0
 10
-99.0816
 20
-34.2733
 30
0.0
 10
-92.8701
 20
-30.6871
 30
0.0
 10
-92.8701
 20
-30.6871
 30
0.0
  0
SPLINE
  5
98
330
1F
100
AcDbEntity
  8
layer 1
 62
     7
100
AcDbSpline
210
0.0
220
0.0
230
1.0
 70
    11
 71
     3
 72
    20
 73
    16
 74
     0
 42
0.0000000001
 43
0.0000000001
 12
1.0
 22
0.0
 32
0.0
 13
1.0
 23
0.0
 33
0.0
 40
0.0
 40
0.0
 40
0.0
 40
0.0
 40
0.2
 40
0.2
 40
0.2
 40
0.2
 40
0.4
 40
0.4
 40
0.4
 40
0.4
 40
0.6
 40
0.6
 40
0.6
 40
0.6
 40
1.0
 40
1.0
 40
1.0
 40
1.0
 10
-108.5481
 20
-19.9188
 30
0.0
 10
-108.5481
 20
-19.9188
 30
0.0
 10
-108.53
 20
-12.8223
 30
0.0
 10
-108.53
 20
-12.8223
 30
0.0
 10
-108.53
 20
-12.8223
 30
0.0
 10
-108.53
 20
-12.8223
 30
0.0
 10
-102.3366
 20
-16.3981
 30
0.0
 10
-102.3366
 20
-16.3981
 30
0.0
 10
-102.3366
 20
-16.3981
 30
0.0
 10
-102.3366
 20
-16.3981
 30
0.0
 10
-102.3366
 20
-23.505
 30
0.0
 10
-102.3366
 20
-23.505
 30
0.0
 10
-102.3366
 20
-23.505
 30
0.0
 10
-102.3366
 20
-23.505
 30
0.0
 10
-108.5481
 20
-19.9188
 30
0.0
 10
-108.5481
 20
-19.9188
 30
0.0
  0
SPLINE
  5
99
330
1F
100
AcDbEntity
  8
layer 1
 62
     7
100
AcDbSpline
210
0.0
220
0.0
230
1.0
 70
    11
 71
     3
 72
    20
 73
    16
 74
     0
 42
0.0000000001
 43
0.0000000001
 12
1.0
 22
0.0
 32
0.0
 13
1.0
 23
0.0
 33
0.0
 40
0.0
 40
0.0
 40
0.0
 40
0.0
 40
0.2
 40
0.2
 40
0.2
 40
0.2
 40
0.4
 40
0.4
 40
0.4
 40
0.4
 40
0.6
 40
0.6
 40
0.6
 40
0.6
 40
1.0
 40
1.0
 40
1.0
 40
1.0
 10
-108.5481
 20
-30.6871
 30
0.0
 10
-108.5481
 20
-30.6871
 30
0.0
 10
-108.53
 20
-23.5906
 30
0.0
 10
-108.53
 20
-23.5906
 30
0.0
 10
-108.53
 20
-23.5906
 30
0.0
 10
-108.53
 20
-23.5906
 30
0.0
 10
-102.3366
 20
-27.1664
 30
0.0
 10
-102.3366
 20
-27.1664
 30
0.0
 10
-102.3366
 20
-27.1664
 30
0.0
 10
-102.3366
 20
-27.1664
 30
0.0
 10
-102.3366
 20
-34.2733
 30
0.0
 10
-102.3366
 20
-34.2733
 30
0.0
 10
-102.3366
 20
-34.2733
 30
0.0
 10
-102.3366
 20
-34.2733
 30
0.0
 10
-108.5481
 20
-30.6871
 30
0.0
 10
-108.5481
 20
-30.6871
 30
0.0
  0
SPLINE
  5
9A
330
1F
100
AcDbEntity
  8
layer 1
 62
     7
100
AcDbSpline
210
0.0
220
0.0
230
1.0
 70
    11
 71
     3
 72
    20
 73
    16
 74
     0
 42
0.0000000001
 43
0.0000000001
 12
1.0
 22
0.0
 32
0.0
 13
1.0
 23
0.0
 33
0.0
 40
0.0
 40
0.0
 40
0.0
 40
0.0
 40
0.2
 40
0.2
 40
0.2
 40
0.2
 40
0.4
 40
0.4
 40
0.4
 40
0.4
 40
0.6
 40
0.6
 40
0.6
 40
0.6
 40
1.0
 40
1.0
 40
1.0
 40
1.0
 10
-83.6144
 20
-14.5759
 30
0.0
 10
-83.6144
 20
-14.5759
 30
0.0
 10
-83.6325
 20
-7.4795
 30
0.0
 10
-83.6325
 20
-7.4795
 30
0.0
 10
-83.6325
 20
-7.4795
 30
0.0
 10
-83.6325
 20
-7.4795
 30
0.0
 10
-89.8259
 20
-11.0552
 30
0.0
 10
-89.8259
 20
-11.0552
 30
0.0
 10
-89.8259
 20
-11.0552
 30
0.0
 10
-89.8259
 20
-11.0552
 30
0.0
 10
-89.8259
 20
-18.1621
 30
0.0
 10
-89.8259
 20
-18.1621
 30
0.0
 10
-89.8259
 20
-18.1621
 30
0.0
 10
-89.8259
 20
-18.1621
 30
0.0
 10
-83.6144
 20
-14.5759
 30
0.0
 10
-83.6144
 20
-14.5759
 30
0.0
  0
SPLINE
  5
9B
330
1F
100
AcDbEntity
  8
layer 1
 62
     7
100
AcDbSpline
210
0.0
220
0.0
230
1.0
 70
    11
 71
     3
 72
    20
 73
    16
 74
     0
 42
0.0000000001
 43
0.0000000001
 12
1.0
 22
0.0
 32
0.0
 13
1.0
 23
0.0
 33
0.0
 40
0.0
 40
0.0
 40
0.0
 40
0.0
 40
0.2
 40
0.2
 40
0.2
 40
0.2
 40
0.4
 40
0.4
 40
0.4
 40
0.4
 40
0.6
 40
0.6
 40
0.6
 40
0.6
 40
1.0
 40
1.0
 40
1.0
 40
1.0
 10
-80.7074
 20
-14.6376
 30
0.0
 10
-80.7074
 20
-14.6376
 30
0.0
 10
-80.6893
 20
-7.5411
 30
0.0
 10
-80.6893
 20
-7.5411
 30
0.0
 10
-80.6893
 20
-7.5411
 30
0.0
 10
-80.6893
 20
-7.5411
 30
0.0
 10
-75.7089
 20
-10.4165
 30
0.0
 10
-75.7089
 20
-10.4165
 30
0.0
 10
-75.7089
 20
-10.4165
 30
0.0
 10
-75.7089
 20
-10.4165
 30
0.0
 10
-75.6755
 20
-17.5427
 30
0.0
 10
-75.6755
 20
-17.5427
 30
0.0
 10
-75.6755
 20
-17.5427
 30
0.0
 10
-75.6755
 20
-17.5427
 30
0.0
 10
-80.7074
 20
-14.6376
 30
0.0
 10
-80.7074
 20
-14.6376
 30
0.0
  0
SPLINE
  5
9C
330
1F
100
AcDbEntity
  8
layer 1
 62
     7
100
AcDbSpline
210
0.0
220
0.0
230
1.0
 70
    11
 71
     3
 72
    28
 73
    24
 74
     0
 42
0.0000000001
 43
0.0000000001
 12
1.0
 22
0.0
 32
0.0
 13
1.0
 23
0.0
 33
0.0
 40
0.0
 40
0.0
 40
0.0
 40
0.0
 40
0.1428571428571428
 40
0.1428571428571428
 40
0.1428571428571428
 40
0.1428571428571428
 40
0.2857142857142857
 40
0.2857142857142857
 40
0.2857142857142857
 40
0.2857142857142857
 40
0.4285714285714285
 40
0.4285714285714285
 40
0.4285714285714285
 40
0.4285714285714285
 40
0.5714285714285714
 40
0.5714285714285714
 40
0.5714285714285714
 40
0.5714285714285714
 40
0.7142857142857143
 40
0.7142857142857143
 40
0.7142857142857143
 40
0.7142857142857143
 40
1.0
 40
1.0
 40
1.0
 40
1.0
 10
-148.4966
 20
-21.8955
 30
0.0
 10
-148.4966
 20
-21.8955
 30
0.0
 10
-148.4966
 20
-30.7744
 30
0.0
 10
-148.4966
 20
-30.7744
 30
0.0
 10
-148.4966
 20
-30.7744
 30
0.0
 10
-148.4966
 20
-30.7744
 30
0.0
 10
-156.182
 20
-35.2139
 30
0.0
 10
-156.182
 20
-35.2139
 30
0.0
 10
-156.182
 20
-35.2139
 30
0.0
 10
-156.182
 20
-35.2139
 30
0.0
 10
-163.8675
 20
-30.7744
 30
0.0
 10
-163.8675
 20
-30.7744
 30
0.0
 10
-163.8675
 20
-30.7744
 30
0.0
 10
-163.8675
 20
-30.7744
 30
0.0
 10
-163.8675
 20
-21.8955
 30
0.0
 10
-163.8675
 20
-21.8955
 30
0.0
 10
-163.8675
 20
-21.8955
 30
0.0
 10
-163.8675
 20
-21.8955
 30
0.0
 10
-156.182
 20
-17.4561
 30
0.0
 10
-156.182
 20
-17.4561
 30
0.0
 10
-156.182
 20
-17.4561
 30
0.0
 10
-156.182
 20
-17.4561
 30
0.0
 10
-148.4966
 20
-21.8955
 30
0.0
 10
-148.4966
 20
-21.8955
 30
0.0
  0
SPLINE
  5
9D
330
1F
100
AcDbEntity
  8
layer 1
 62
     7
100
AcDbSpline
210
0.0
220
0.0
230
1.0
 70
    11
 71
     3
 72
    20
 73
    16
 74
     0
 42
0.0000000001
 43
0.0000000001
 12
1.0
 22
0.0
 32
0.0
 13
1.0
 23
0.0
 33
0.0
 40
0.0
 40
0.0
 40
0.0
 40
0.0
 40
0.2
 40
0.2
 40
0.2
 40
0.2
 40
0.4
 40
0.4
 40
0.4
 40
0.4
 40
0.6
 40
0.6
 40
0.6
 40
0.6
 40
1.0
 40
1.0
 40
1.0
 40
1.0
 10
-174.6136
 20
-6.7634
 30
0.0
 10
-174.6136
 20
-6.7634
 30
0.0
 10
-168.477
 20
-10.3272
 30
0.0
 10
-168.477
 20
-10.3272
 30
0.0
 10
-168.477
 20
-10.3272
 30
0.0
 10
-168.477
 20
-10.3272
 30
0.0
 10
-174.6704
 20
-13.903
 30
0.0
 10
-174.6704
 20
-13.903
 30
0.0
 10
-174.6704
 20
-13.903
 30
0.0
 10
-174.6704
 20
-13.903
 30
0.0
 10
-180.8251
 20
-10.3496
 30
0.0
 10
-180.8251
 20
-10.3496
 30
0.0
 10
-180.8251
 20
-10.3496
 30
0.0
 10
-180.8251
 20
-10.3496
 30
0.0
 10
-174.6136
 20
-6.7634
 30
0.0
 10
-174.6136
 20
-6.7634
 30
0.0
  0
SPLINE
  5
9E
330
1F
100
AcDbEntity
  8
layer 1
 62
     7
100
AcDbSpline
210
0.0
220
0.0
230
1.0
 70
    11
 71
     3
 72
    20
 73
    16
 74
     0
 42
0.0000000001
 43
0.0000000001
 12
1.0
 22
0.0
 32
0.0
 13
1.0
 23
0.0
 33
0.0
 40
0.0
 40
0.0
 40
0.0
 40
0.0
 40
0.2
 40
0.2
 40
0.2
 40
0.2
 40
0.4
 40
0.4
 40
0.4
 40
0.4
 40
0.6
 40
0.6
 40
0.6
 40
0.6
 40
1.0
 40
1.0
 40
1.0
 40
1.0
 10
-166.8865
 20
-19.989
 30
0.0
 10
-166.8865
 20
-19.989
 30
0.0
 10
-166.9046
 20
-12.8926
 30
0.0
 10
-166.9046
 20
-12.8926
 30
0.0
 10
-166.9046
 20
-12.8926
 30
0.0
 10
-166.9046
 20
-12.8926
 30
0.0
 10
-173.098
 20
-16.4683
 30
0.0
 10
-173.098
 20
-16.4683
 30
0.0
 10
-173.098
 20
-16.4683
 30
0.0
 10
-173.098
 20
-16.4683
 30
0.0
 10
-173.098
 20
-23.5752
 30
0.0
 10
-173.098
 20
-23.5752
 30
0.0
 10
-173.098
 20
-23.5752
 30
0.0
 10
-173.098
 20
-23.5752
 30
0.0
 10
-166.8865
 20
-19.989
 30
0.0
 10
-166.8865
 20
-19.989
 30
0.0
  0
SPLINE
  5
9F
330
1F
100
AcDbEntity
  8
layer 1
 62
     7
100
AcDbSpline
210
0.0
220
0.0
230
1.0
 70
    11
 71
     3
 72
    20
 73
    16
 74
     0
 42
0.0000000001
 43
0.0000000001
 12
1.0
 22
0.0
 32
0.0
 13
1.0
 23
0.0
 33
0.0
 40
0.0
 40
0.0
 40
0.0
 40
0.0
 40
0.2
 40
0.2
 40
0.2
 40
0.2
 40
0.4
 40
0.4
 40
0.4
 40
0.4
 40
0.6
 40
0.6
 40
0.6
 40
0.6
 40
1.0
 40
1.0
 40
1.0
 40
1.0
 10
-166.8865
 20
-30.7574
 30
0.0
 10
-166.8865
 20
-30.7574
 30
0.0
 10
-166.9046
 20
-23.6609
 30
0.0
 10
-166.9046
 20
-23.6609
 30
0.0
 10
-166.9046
 20
-23.6609
 30
0.0
 10
-166.9046
 20
-23.6609
 30
0.0
 10
-173.098
 20
-27.2367
 30
0.0
 10
-173.098
 20
-27.2367
 30
0.0
 10
-173.098
 20
-27.2367
 30
0.0
 10
-173.098
 20
-27.2367
 30
0.0
 10
-173.098
 20
-34.3436
 30
0.0
 10
-173.098
 20
-34.3436
 30
0.0
 10
-173.098
 20
-34.3436
 30
0.0
 10
-173.098
 20
-34.3436
 30
0.0
 10
-166.8865
 20
-30.7574
 30
0.0
 10
-166.8865
 20
-30.7574
 30
0.0
  0
SPLINE
  5
A0
330
1F
100
AcDbEntity
  8
layer 1
 62
     7
100
AcDbSpline
210
0.0
220
0.0
230
1.0
 70
    11
 71
     3
 72
    20
 73
    16
 74
     0
 42
0.0000000001
 43
0.0000000001
 12
1.0
 22
0.0
 32
0.0
 13
1.0
 23
0.0
 33
0.0
 40
0.0
 40
0.0
 40
0.0
 40
0.0
 40
0.2
 40
0.2
 40
0.2
 40
0.2
 40
0.4
 40
0.4
 40
0.4
 40
0.4
 40
0.6
 40
0.6
 40
0.6
 40
0.6
 40
1.0
 40
1.0
 40
1.0
 40
1.0
 10
-181.1727
 20
-13.6857
 30
0.0
 10
-181.1727
 20
-13.6857
 30
0.0
 10
-176.353
 20
-16.4684
 30
0.0
 10
-176.353
 20
-16.4684
 30
0.0
 10
-176.353
 20
-16.4684
 30
0.0
 10
-176.353
 20
-16.4684
 30
0.0
 10
-176.353
 20
-23.5753
 30
0.0
 10
-176.353
 20
-23.5753
 30
0.0
 10
-176.353
 20
-23.5753
 30
0.0
 10
-176.353
 20
-23.5753
 30
0.0
 10
-181.1357
 20
-20.8139
 30
0.0
 10
-181.1357
 20
-20.8139
 30
0.0
 10
-181.1357
 20
-20.8139
 30
0.0
 10
-181.1357
 20
-20.8139
 30
0.0
 10
-181.1727
 20
-13.6857
 30
0.0
 10
-181.1727
 20
-13.6857
 30
0.0
  0
SPLINE
  5
A1
330
1F
100
AcDbEntity
  8
layer 1
 62
     7
100
AcDbSpline
210
0.0
220
0.0
230
1.0
 70
    11
 71
     3
 72
    20
 73
    16
 74
     0
 42
0.0000000001
 43
0.0000000001
 12
1.0
 22
0.0
 32
0.0
 13
1.0
 23
0.0
 33
0.0
 40
0.0
 40
0.0
 40
0.0
 40
0.0
 40
0.2
 40
0.2
 40
0.2
 40
0.2
 40
0.4
 40
0.4
 40
0.4
 40
0.4
 40
0.6
 40
0.6
 40
0.6
 40
0.6
 40
1.0
 40
1.0
 40
1.0
 40
1.0
 10
-181.1037
 20
-24.4939
 30
0.0
 10
-181.1037
 20
-24.4939
 30
0.0
 10
-176.353
 20
-27.2367
 30
0.0
 10
-176.353
 20
-27.2367
 30
0.0
 10
-176.353
 20
-27.2367
 30
0.0
 10
-176.353
 20
-27.2367
 30
0.0
 10
-176.353
 20
-34.3436
 30
0.0
 10
-176.353
 20
-34.3436
 30
0.0
 10
-176.353
 20
-34.3436
 30
0.0
 10
-176.353
 20
-34.3436
 30
0.0
 10
-181.1282
 20
-31.5867
 30
0.0
 10
-181.1282
 20
-31.5867
 30
0.0
 10
-181.1282
 20
-31.5867
 30
0.0
 10
-181.1282
 20
-31.5867
 30
0.0
 10
-181.1037
 20
-24.4939
 30
0.0
 10
-181.1037
 20
-24.4939
 30
0.0
  0
SPLINE
  5
A2
330
1F
100
AcDbEntity
  8
layer 1
 62
     7
100
AcDbSpline
210
0.0
220
0.0
230
1.0
 70
    11
 71
     3
 72
    20
 73
    16
 74
     0
 42
0.0000000001
 43
0.0000000001
 12
1.0
 22
0.0
 32
0.0
 13
1.0
 23
0.0
 33
0.0
 40
0.0
 40
0.0
 40
0.0
 40
0.0
 40
0.2
 40
0.2
 40
0.2
 40
0.2
 40
0.4
 40
0.4
 40
0.4
 40
0.4
 40
0.6
 40
0.6
 40
0.6
 40
0.6
 40
1.0
 40
1.0
 40
1.0
 40
1.0
 10
-157.6308
 20
-14.6462
 30
0.0
 10
-157.6308
 20
-14.6462
 30
0.0
 10
-157.6489
 20
-7.5498
 30
0.0
 10
-157.6489
 20
-7.5498
 30
0.0
 10
-157.6489
 20
-7.5498
 30
0.0
 10
-157.6489
 20
-7.5498
 30
0.0
 10
-163.8423
 20
-11.1255
 30
0.0
 10
-163.8423
 20
-11.1255
 30
0.0
 10
-163.8423
 20
-11.1255
 30
0.0
 10
-163.8423
 20
-11.1255
 30
0.0
 10
-163.8423
 20
-18.2324
 30
0.0
 10
-163.8423
 20
-18.2324
 30
0.0
 10
-163.8423
 20
-18.2324
 30
0.0
 10
-163.8423
 20
-18.2324
 30
0.0
 10
-157.6308
 20
-14.6462
 30
0.0
 10
-157.6308
 20
-14.6462
 30
0.0
  0
SPLINE
  5
A3
330
1F
100
AcDbEntity
  8
layer 1
 62
     7
100
AcDbSpline
210
0.0
220
0.0
230
1.0
 70
    11
 71
     3
 72
    20
 73
    16
 74
     0
 42
0.0000000001
 43
0.0000000001
 12
1.0
 22
0.0
 32
0.0
 13
1.0
 23
0.0
 33
0.0
 40
0.0
 40
0.0
 40
0.0
 40
0.0
 40
0.2
 40
0.2
 40
0.2
 40
0.2
 40
0.4
 40
0.4
 40
0.4
 40
0.4
 40
0.6
 40
0.6
 40
0.6
 40
0.6
 40
1.0
 40
1.0
 40
1.0
 40
1.0
 10
-154.7236
 20
-14.7079
 30
0.0
 10
-154.7236
 20
-14.7079
 30
0.0
 10
-154.7056
 20
-7.6114
 30
0.0
 10
-154.7056
 20
-7.6114
 30
0.0
 10
-154.7056
 20
-7.6114
 30
0.0
 10
-154.7056
 20
-7.6114
 30
0.0
 10
-148.5121
 20
-11.1872
 30
0.0
 10
-148.5121
 20
-11.1872
 30
0.0
 10
-148.5121
 20
-11.1872
 30
0.0
 10
-148.5121
 20
-11.1872
 30
0.0
 10
-148.5121
 20
-18.294
 30
0.0
 10
-148.5121
 20
-18.294
 30
0.0
 10
-148.5121
 20
-18.294
 30
0.0
 10
-148.5121
 20
-18.294
 30
0.0
 10
-154.7236
 20
-14.7079
 30
0.0
 10
-154.7236
 20
-14.7079
 30
0.0
  0
SPLINE
  5
A4
330
1F
100
AcDbEntity
  8
layer 1
 62
     7
100
AcDbSpline
210
0.0
220
0.0
230
1.0
 70
    11
 71
     3
 72
    20
 73
    16
 74
     0
 42
0.0000000001
 43
0.0000000001
 12
1.0
 22
0.0
 32
0.0
 13
1.0
 23
0.0
 33
0.0
 40
0.0
 40
0.0
 40
0.0
 40
0.0
 40
0.2
 40
0.2
 40
0.2
 40
0.2
 40
0.4
 40
0.4
 40
0.4
 40
0.4
 40
0.6
 40
0.6
 40
0.6
 40
0.6
 40
1.0
 40
1.0
 40
1.0
 40
1.0
 10
-156.144
 20
-38.8141
 30
0.0
 10
-156.144
 20
-38.8141
 30
0.0
 10
-150.0073
 20
-42.3779
 30
0.0
 10
-150.0073
 20
-42.3779
 30
0.0
 10
-150.0073
 20
-42.3779
 30
0.0
 10
-150.0073
 20
-42.3779
 30
0.0
 10
-156.2007
 20
-45.9537
 30
0.0
 10
-156.2007
 20
-45.9537
 30
0.0
 10
-156.2007
 20
-45.9537
 30
0.0
 10
-156.2007
 20
-45.9537
 30
0.0
 10
-162.3555
 20
-42.4003
 30
0.0
 10
-162.3555
 20
-42.4003
 30
0.0
 10
-162.3555
 20
-42.4003
 30
0.0
 10
-162.3555
 20
-42.4003
 30
0.0
 10
-156.144
 20
-38.8141
 30
0.0
 10
-156.144
 20
-38.8141
 30
0.0
  0
SPLINE
  5
A5
330
1F
100
AcDbEntity
  8
layer 1
 62
     7
100
AcDbSpline
210
0.0
220
0.0
230
1.0
 70
    11
 71
     3
 72
    20
 73
    16
 74
     0
 42
0.0000000001
 43
0.0000000001
 12
1.0
 22
0.0
 32
0.0
 13
1.0
 23
0.0
 33
0.0
 40
0.0
 40
0.0
 40
0.0
 40
0.0
 40
0.2
 40
0.2
 40
0.2
 40
0.2
 40
0.4
 40
0.4
 40
0.4
 40
0.4
 40
0.6
 40
0.6
 40
0.6
 40
0.6
 40
1.0
 40
1.0
 40
1.0
 40
1.0
 10
-119.2361
 20
-38.8141
 30
0.0
 10
-119.2361
 20
-38.8141
 30
0.0
 10
-113.0995
 20
-42.3779
 30
0.0
 10
-113.0995
 20
-42.3779
 30
0.0
 10
-113.0995
 20
-42.3779
 30
0.0
 10
-113.0995
 20
-42.3779
 30
0.0
 10
-119.2929
 20
-45.9537
 30
0.0
 10
-119.2929
 20
-45.9537
 30
0.0
 10
-119.2929
 20
-45.9537
 30
0.0
 10
-119.2929
 20
-45.9537
 30
0.0
 10
-125.4476
 20
-42.4003
 30
0.0
 10
-125.4476
 20
-42.4003
 30
0.0
 10
-125.4476
 20
-42.4003
 30
0.0
 10
-125.4476
 20
-42.4003
 30
0.0
 10
-119.2361
 20
-38.8141
 30
0.0
 10
-119.2361
 20
-38.8141
 30
0.0
  0
SPLINE
  5
A6
330
1F
100
AcDbEntity
  8
layer 1
 62
     7
100
AcDbSpline
210
0.0
220
0.0
230
1.0
 70
    11
 71
     3
 72
    20
 73
    16
 74
     0
 42
0.0000000001
 43
0.0000000001
 12
1.0
 22
0.0
 32
0.0
 13
1.0
 23
0.0
 33
0.0
 40
0.0
 40
0.0
 40
0.0
 40
0.0
 40
0.2
 40
0.2
 40
0.2
 40
0.2
 40
0.4
 40
0.4
 40
0.4
 40
0.4
 40
0.6
 40
0.6
 40
0.6
 40
0.6
 40
1.0
 40
1.0
 40
1.0
 40
1.0
 10
-82.2555
 20
-38.8141
 30
0.0
 10
-82.2555
 20
-38.8141
 30
0.0
 10
-76.1189
 20
-42.3779
 30
0.0
 10
-76.1189
 20
-42.3779
 30
0.0
 10
-76.1189
 20
-42.3779
 30
0.0
 10
-76.1189
 20
-42.3779
 30
0.0
 10
-82.3123
 20
-45.9537
 30
0.0
 10
-82.3123
 20
-45.9537
 30
0.0
 10
-82.3123
 20
-45.9537
 30
0.0
 10
-82.3123
 20
-45.9537
 30
0.0
 10
-88.467
 20
-42.4003
 30
0.0
 10
-88.467
 20
-42.4003
 30
0.0
 10
-88.467
 20
-42.4003
 30
0.0
 10
-88.467
 20
-42.4003
 30
0.0
 10
-82.2555
 20
-38.8141
 30
0.0
 10
-82.2555
 20
-38.8141
 30
0.0
  0
SPLINE
  5
A7
330
1F
100
AcDbEntity
  8
layer 1
 62
     7
100
AcDbSpline
210
0.0
220
0.0
230
1.0
 70
    11
 71
     3
 72
    20
 73
    16
 74
     0
 42
0.0000000001
 43
0.0000000001
 12
1.0
 22
0.0
 32
0.0
 13
1.0
 23
0.0
 33
0.0
 40
0.0
 40
0.0
 40
0.0
 40
0.0
 40
0.2
 40
0.2
 40
0.2
 40
0.2
 40
0.4
 40
0.4
 40
0.4
 40
0.4
 40
0.6
 40
0.6
 40
0.6
 40
0.6
 40
1.0
 40
1.0
 40
1.0
 40
1.0
 10
-128.4421
 20
-1.3927
 30
0.0
 10
-128.4421
 20
-1.3927
 30
0.0
 10
-122.3055
 20
-4.9566
 30
0.0
 10
-122.3055
 20
-4.9566
 30
0.0
 10
-122.3055
 20
-4.9566
 30
0.0
 10
-122.3055
 20
-4.9566
 30
0.0
 10
-128.4989
 20
-8.5324
 30
0.0
 10
-128.4989
 20
-8.5324
 30
0.0
 10
-128.4989
 20
-8.5324
 30
0.0
 10
-128.4989
 20
-8.5324
 30
0.0
 10
-134.6536
 20
-4.9789
 30
0.0
 10
-134.6536
 20
-4.9789
 30
0.0
 10
-134.6536
 20
-4.9789
 30
0.0
 10
-134.6536
 20
-4.9789
 30
0.0
 10
-128.4421
 20
-1.3927
 30
0.0
 10
-128.4421
 20
-1.3927
 30
0.0
  0
SPLINE
  5
A8
330
1F
100
AcDbEntity
  8
layer 1
 62
     7
100
AcDbSpline
210
0.0
220
0.0
230
1.0
 70
    11
 71
     3
 72
    20
 73
    16
 74
     0
 42
0.0000000001
 43
0.0000000001
 12
1.0
 22
0.0
 32
0.0
 13
1.0
 23
0.0
 33
0.0
 40
0.0
 40
0.0
 40
0.0
 40
0.0
 40
0.2
 40
0.2
 40
0.2
 40
0.2
 40
0.4
 40
0.4
 40
0.4
 40
0.4
 40
0.6
 40
0.6
 40
0.6
 40
0.6
 40
1.0
 40
1.0
 40
1.0
 40
1.0
 10
-146.9502
 20
-1.3927
 30
0.0
 10
-146.9502
 20
-1.3927
 30
0.0
 10
-140.8135
 20
-4.9566
 30
0.0
 10
-140.8135
 20
-4.9566
 30
0.0
 10
-140.8135
 20
-4.9566
 30
0.0
 10
-140.8135
 20
-4.9566
 30
0.0
 10
-147.0069
 20
-8.5324
 30
0.0
 10
-147.0069
 20
-8.5324
 30
0.0
 10
-147.0069
 20
-8.5324
 30
0.0
 10
-147.0069
 20
-8.5324
 30
0.0
 10
-153.1617
 20
-4.9789
 30
0.0
 10
-153.1617
 20
-4.9789
 30
0.0
 10
-153.1617
 20
-4.9789
 30
0.0
 10
-153.1617
 20
-4.9789
 30
0.0
 10
-146.9502
 20
-1.3927
 30
0.0
 10
-146.9502
 20
-1.3927
 30
0.0
  0
SPLINE
  5
A9
330
1F
100
AcDbEntity
  8
layer 1
 62
     7
100
AcDbSpline
210
0.0
220
0.0
230
1.0
 70
    11
 71
     3
 72
    20
 73
    16
 74
     0
 42
0.0000000001
 43
0.0000000001
 12
1.0
 22
0.0
 32
0.0
 13
1.0
 23
0.0
 33
0.0
 40
0.0
 40
0.0
 40
0.0
 40
0.0
 40
0.2
 40
0.2
 40
0.2
 40
0.2
 40
0.4
 40
0.4
 40
0.4
 40
0.4
 40
0.6
 40
0.6
 40
0.6
 40
0.6
 40
1.0
 40
1.0
 40
1.0
 40
1.0
 10
-91.4532
 20
-1.3225
 30
0.0
 10
-91.4532
 20
-1.3225
 30
0.0
 10
-85.3165
 20
-4.8864
 30
0.0
 10
-85.3165
 20
-4.8864
 30
0.0
 10
-85.3165
 20
-4.8864
 30
0.0
 10
-85.3165
 20
-4.8864
 30
0.0
 10
-91.51
 20
-8.4622
 30
0.0
 10
-91.51
 20
-8.4622
 30
0.0
 10
-91.51
 20
-8.4622
 30
0.0
 10
-91.51
 20
-8.4622
 30
0.0
 10
-97.6647
 20
-4.9087
 30
0.0
 10
-97.6647
 20
-4.9087
 30
0.0
 10
-97.6647
 20
-4.9087
 30
0.0
 10
-97.6647
 20
-4.9087
 30
0.0
 10
-91.4532
 20
-1.3225
 30
0.0
 10
-91.4532
 20
-1.3225
 30
0.0
  0
SPLINE
  5
AA
330
1F
100
AcDbEntity
  8
layer 1
 62
     7
100
AcDbSpline
210
0.0
220
0.0
230
1.0
 70
    11
 71
     3
 72
    20
 73
    16
 74
     0
 42
0.0000000001
 43
0.0000000001
 12
1.0
 22
0.0
 32
0.0
 13
1.0
 23
0.0
 33
0.0
 40
0.0
 40
0.0
 40
0.0
 40
0.0
 40
0.2
 40
0.2
 40
0.2
 40
0.2
 40
0.4
 40
0.4
 40
0.4
 40
0.4
 40
0.6
 40
0.6
 40
0.6
 40
0.6
 40
1.0
 40
1.0
 40
1.0
 40
1.0
 10
-165.4695
 20
-1.3927
 30
0.0
 10
-165.4695
 20
-1.3927
 30
0.0
 10
-159.3328
 20
-4.9566
 30
0.0
 10
-159.3328
 20
-4.9566
 30
0.0
 10
-159.3328
 20
-4.9566
 30
0.0
 10
-159.3328
 20
-4.9566
 30
0.0
 10
-165.5262
 20
-8.5324
 30
0.0
 10
-165.5262
 20
-8.5324
 30
0.0
 10
-165.5262
 20
-8.5324
 30
0.0
 10
-165.5262
 20
-8.5324
 30
0.0
 10
-171.681
 20
-4.9789
 30
0.0
 10
-171.681
 20
-4.9789
 30
0.0
 10
-171.681
 20
-4.9789
 30
0.0
 10
-171.681
 20
-4.9789
 30
0.0
 10
-165.4695
 20
-1.3927
 30
0.0
 10
-165.4695
 20
-1.3927
 30
0.0
  0
SPLINE
  5
AB
330
1F
100
AcDbEntity
  8
layer 1
 62
     7
100
AcDbSpline
210
0.0
220
0.0
230
1.0
 70
    11
 71
     3
 72
    16
 73
    12
 74
     0
 42
0.0000000001
 43
0.0000000001
 12
1.0
 22
0.0
 32
0.0
 13
1.0
 23
0.0
 33
0.0
 40
0.0
 40
0.0
 40
0.0
 40
0.0
 40
0.25
 40
0.25
 40
0.25
 40
0.25
 40
0.5
 40
0.5
 40
0.5
 40
0.5
 40
1.0
 40
1.0
 40
1.0
 40
1.0
 10
-181.1328
 20
-3.1389
 30
0.0
 10
-181.1328
 20
-3.1389
 30
0.0
 10
-178.0028
 20
-4.9567
 30
0.0
 10
-178.0028
 20
-4.9567
 30
0.0
 10
-178.0028
 20
-4.9567
 30
0.0
 10
-178.0028
 20
-4.9567
 30
0.0
 10
-181.1429
 20
-6.7696
 30
0.0
 10
-181.1429
 20
-6.7696
 30
0.0
 10
-181.1429
 20
-6.7696
 30
0.0
 10
-181.1429
 20
-6.7696
 30
0.0
 10
-181.1328
 20
-3.1389
 30
0.0
 10
-181.1328
 20
-3.1389
 30
0.0
  0
SPLINE
  5
AC
330
1F
100
AcDbEntity
  8
layer 1
 62
     7
100
AcDbSpline
210
0.0
220
0.0
230
1.0
 70
    11
 71
     3
 72
    20
 73
    16
 74
     0
 42
0.0000000001
 43
0.0000000001
 12
1.0
 22
0.0
 32
0.0
 13
1.0
 23
0.0
 33
0.0
 40
0.0
 40
0.0
 40
0.0
 40
0.0
 40
0.2
 40
0.2
 40
0.2
 40
0.2
 40
0.4
 40
0.4
 40
0.4
 40
0.4
 40
0.6
 40
0.6
 40
0.6
 40
0.6
 40
1.0
 40
1.0
 40
1.0
 40
1.0
 10
-110.0422
 20
-1.3927
 30
0.0
 10
-110.0422
 20
-1.3927
 30
0.0
 10
-103.9056
 20
-4.9566
 30
0.0
 10
-103.9056
 20
-4.9566
 30
0.0
 10
-103.9056
 20
-4.9566
 30
0.0
 10
-103.9056
 20
-4.9566
 30
0.0
 10
-110.099
 20
-8.5324
 30
0.0
 10
-110.099
 20
-8.5324
 30
0.0
 10
-110.099
 20
-8.5324
 30
0.0
 10
-110.099
 20
-8.5324
 30
0.0
 10
-116.2537
 20
-4.9789
 30
0.0
 10
-116.2537
 20
-4.9789
 30
0.0
 10
-116.2537
 20
-4.9789
 30
0.0
 10
-116.2537
 20
-4.9789
 30
0.0
 10
-110.0422
 20
-1.3927
 30
0.0
 10
-110.0422
 20
-1.3927
 30
0.0
  0
SPLINE
  5
AD
330
1F
100
AcDbEntity
  8
layer 1
 62
     7
100
AcDbSpline
210
0.0
220
0.0
230
1.0
 70
    11
 71
     3
 72
    16
 73
    12
 74
     0
 42
0.0000000001
 43
0.0000000001
 12
1.0
 22
0.0
 32
0.0
 13
1.0
 23
0.0
 33
0.0
 40
0.0
 40
0.0
 40
0.0
 40
0.0
 40
0.25
 40
0.25
 40
0.25
 40
0.25
 40
0.5
 40
0.5
 40
0.5
 40
0.5
 40
1.0
 40
1.0
 40
1.0
 40
1.0
 10
-75.7481
 20
-7.0142
 30
0.0
 10
-75.7481
 20
-7.0142
 30
0.0
 10
-79.2732
 20
-4.979
 30
0.0
 10
-79.2732
 20
-4.979
 30
0.0
 10
-79.2732
 20
-4.979
 30
0.0
 10
-79.2732
 20
-4.979
 30
0.0
 10
-75.7194
 20
-2.9272
 30
0.0
 10
-75.7194
 20
-2.9272
 30
0.0
 10
-75.7194
 20
-2.9272
 30
0.0
 10
-75.7194
 20
-2.9272
 30
0.0
 10
-75.7481
 20
-7.0142
 30
0.0
 10
-75.7481
 20
-7.0142
 30
0.0
  0
SPLINE
  5
AE
330
1F
100
AcDbEntity
  8
layer 1
 62
     7
100
AcDbSpline
210
0.0
220
0.0
230
1.0
 70
    11
 71
     3
 72
    28
 73
    24
 74
     0
 42
0.0000000001
 43
0.0000000001
 12
1.0
 22
0.0
 32
0.0
 13
1.0
 23
0.0
 33
0.0
 40
0.0
 40
0.0
 40
0.0
 40
0.0
 40
0.1428571428571428
 40
0.1428571428571428
 40
0.1428571428571428
 40
0.1428571428571428
 40
0.2857142857142857
 40
0.2857142857142857
 40
0.2857142857142857
 40
0.2857142857142857
 40
0.4285714285714285
 40
0.4285714285714285
 40
0.4285714285714285
 40
0.4285714285714285
 40
0.5714285714285714
 40
0.5714285714285714
 40
0.5714285714285714
 40
0.5714285714285714
 40
0.7142857142857143
 40
0.7142857142857143
 40
0.7142857142857143
 40
0.7142857142857143
 40
1.0
 40
1.0
 40
1.0
 40
1.0
 10
-181.1448
 20
-63.5182
 30
0.0
 10
-181.1448
 20
-63.5182
 30
0.0
 10
-174.7073
 20
-67.2368
 30
0.0
 10
-174.7073
 20
-67.2368
 30
0.0
 10
-174.7073
 20
-67.2368
 30
0.0
 10
-174.7073
 20
-67.2368
 30
0.0
 10
-167.0219
 20
-62.7973
 30
0.0
 10
-167.0219
 20
-62.7973
 30
0.0
 10
-167.0219
 20
-62.7973
 30
0.0
 10
-167.0219
 20
-62.7973
 30
0.0
 10
-167.0219
 20
-53.9184
 30
0.0
 10
-167.0219
 20
-53.9184
 30
0.0
 10
-167.0219
 20
-53.9184
 30
0.0
 10
-167.0219
 20
-53.9184
 30
0.0
 10
-174.7073
 20
-49.4789
 30
0.0
 10
-174.7073
 20
-49.4789
 30
0.0
 10
-174.7073
 20
-49.4789
 30
0.0
 10
-174.7073
 20
-49.4789
 30
0.0
 10
-181.1338
 20
-53.1911
 30
0.0
 10
-181.1338
 20
-53.1911
 30
0.0
 10
-181.1338
 20
-53.1911
 30
0.0
 10
-181.1338
 20
-53.1911
 30
0.0
 10
-181.1448
 20
-63.5182
 30
0.0
 10
-181.1448
 20
-63.5182
 30
0.0
  0
SPLINE
  5
AF
330
1F
100
AcDbEntity
  8
layer 1
 62
     7
100
AcDbSpline
210
0.0
220
0.0
230
1.0
 70
     8
 71
     3
 72
    36
 73
    32
 74
     0
 42
0.0000000001
 43
0.0000000001
 12
1.0
 22
0.0
 32
0.0
 13
1.0
 23
0.0
 33
0.0
 40
0.0
 40
0.0
 40
0.0
 40
0.0
 40
0.1111111111111111
 40
0.1111111111111111
 40
0.1111111111111111
 40
0.1111111111111111
 40
0.2222222222222222
 40
0.2222222222222222
 40
0.2222222222222222
 40
0.2222222222222222
 40
0.3333333333333333
 40
0.3333333333333333
 40
0.3333333333333333
 40
0.3333333333333333
 40
0.4444444444444444
 40
0.4444444444444444
 40
0.4444444444444444
 40
0.4444444444444444
 40
0.5555555555555556
 40
0.5555555555555556
 40
0.5555555555555556
 40
0.5555555555555556
 40
0.6666666666666666
 40
0.6666666666666666
 40
0.6666666666666666
 40
0.6666666666666666
 40
0.7777777777777778
 40
0.7777777777777778
 40
0.7777777777777778
 40
0.7777777777777778
 40
1.0
 40
1.0
 40
1.0
 40
1.0
 10
-154.5911
 20
4.9234
 30
0.0
 10
-154.5911
 20
4.9234
 30
0.0
 10
-148.602
 20
8.2872
 30
0.0
 10
-148.602
 20
8.2872
 30
0.0
 10
-148.602
 20
8.2872
 30
0.0
 10
-148.5757
 20
8.302
 30
0.0
 10
-148.554
 20
8.2929
 30
0.0
 10
-148.5536
 20
8.2671
 30
0.0
 10
-148.5536
 20
8.2671
 30
0.0
 10
-148.5536
 20
8.2671
 30
0.0
 10
-148.4516
 20
1.3637
 30
0.0
 10
-148.4516
 20
1.3637
 30
0.0
 10
-148.4516
 20
1.3637
 30
0.0
 10
-148.451
 20
1.3379
 30
0.0
 10
-148.4721
 20
1.3048
 30
0.0
 10
-148.4983
 20
1.2901
 30
0.0
 10
-148.4983
 20
1.2901
 30
0.0
 10
-148.4983
 20
1.2901
 30
0.0
 10
-154.4875
 20
-2.0739
 30
0.0
 10
-154.4875
 20
-2.0739
 30
0.0
 10
-154.4875
 20
-2.0739
 30
0.0
 10
-154.5137
 20
-2.0884
 30
0.0
 10
-154.5353
 20
-2.0793
 30
0.0
 10
-154.5357
 20
-2.0534
 30
0.0
 10
-154.5357
 20
-2.0534
 30
0.0
 10
-154.5357
 20
-2.0534
 30
0.0
 10
-154.638
 20
4.8497
 30
0.0
 10
-154.638
 20
4.8497
 30
0.0
 10
-154.638
 20
4.8497
 30
0.0
 10
-154.6382
 20
4.8758
 30
0.0
 10
-154.6172
 20
4.9087
 30
0.0
 10
-154.5909
 20
4.9235
 30
0.0
  0
SPLINE
  5
B0
330
1F
100
AcDbEntity
  8
layer 1
 62
     7
100
AcDbSpline
210
0.0
220
0.0
230
1.0
 70
    11
 71
     3
 72
    20
 73
    16
 74
     0
 42
0.0000000001
 43
0.0000000001
 12
1.0
 22
0.0
 32
0.0
 13
1.0
 23
0.0
 33
0.0
 40
0.0
 40
0.0
 40
0.0
 40
0.0
 40
0.2
 40
0.2
 40
0.2
 40
0.2
 40
0.4
 40
0.4
 40
0.4
 40
0.4
 40
0.6
 40
0.6
 40
0.6
 40
0.6
 40
1.0
 40
1.0
 40
1.0
 40
1.0
 10
-128.4421
 20
30.6764
 30
0.0
 10
-128.4421
 20
30.6764
 30
0.0
 10
-122.3055
 20
27.1126
 30
0.0
 10
-122.3055
 20
27.1126
 30
0.0
 10
-122.3055
 20
27.1126
 30
0.0
 10
-122.3055
 20
27.1126
 30
0.0
 10
-128.4989
 20
23.5368
 30
0.0
 10
-128.4989
 20
23.5368
 30
0.0
 10
-128.4989
 20
23.5368
 30
0.0
 10
-128.4989
 20
23.5368
 30
0.0
 10
-134.6536
 20
27.0902
 30
0.0
 10
-134.6536
 20
27.0902
 30
0.0
 10
-134.6536
 20
27.0902
 30
0.0
 10
-134.6536
 20
27.0902
 30
0.0
 10
-128.4421
 20
30.6764
 30
0.0
 10
-128.4421
 20
30.6764
 30
0.0
  0
SPLINE
  5
B1
330
1F
100
AcDbEntity
  8
layer 1
 62
     7
100
AcDbSpline
210
0.0
220
0.0
230
1.0
 70
    11
 71
     3
 72
    20
 73
    16
 74
     0
 42
0.0000000001
 43
0.0000000001
 12
1.0
 22
0.0
 32
0.0
 13
1.0
 23
0.0
 33
0.0
 40
0.0
 40
0.0
 40
0.0
 40
0.0
 40
0.2
 40
0.2
 40
0.2
 40
0.2
 40
0.4
 40
0.4
 40
0.4
 40
0.4
 40
0.6
 40
0.6
 40
0.6
 40
0.6
 40
1.0
 40
1.0
 40
1.0
 40
1.0
 10
-146.9502
 20
30.6764
 30
0.0
 10
-146.9502
 20
30.6764
 30
0.0
 10
-140.8135
 20
27.1126
 30
0.0
 10
-140.8135
 20
27.1126
 30
0.0
 10
-140.8135
 20
27.1126
 30
0.0
 10
-140.8135
 20
27.1126
 30
0.0
 10
-147.0069
 20
23.5368
 30
0.0
 10
-147.0069
 20
23.5368
 30
0.0
 10
-147.0069
 20
23.5368
 30
0.0
 10
-147.0069
 20
23.5368
 30
0.0
 10
-153.1617
 20
27.0902
 30
0.0
 10
-153.1617
 20
27.0902
 30
0.0
 10
-153.1617
 20
27.0902
 30
0.0
 10
-153.1617
 20
27.0902
 30
0.0
 10
-146.9502
 20
30.6764
 30
0.0
 10
-146.9502
 20
30.6764
 30
0.0
  0
SPLINE
  5
B2
330
1F
100
AcDbEntity
  8
layer 1
 62
     7
100
AcDbSpline
210
0.0
220
0.0
230
1.0
 70
    11
 71
     3
 72
    20
 73
    16
 74
     0
 42
0.0000000001
 43
0.0000000001
 12
1.0
 22
0.0
 32
0.0
 13
1.0
 23
0.0
 33
0.0
 40
0.0
 40
0.0
 40
0.0
 40
0.0
 40
0.2
 40
0.2
 40
0.2
 40
0.2
 40
0.4
 40
0.4
 40
0.4
 40
0.4
 40
0.6
 40
0.6
 40
0.6
 40
0.6
 40
1.0
 40
1.0
 40
1.0
 40
1.0
 10
-91.4532
 20
30.7466
 30
0.0
 10
-91.4532
 20
30.7466
 30
0.0
 10
-85.3165
 20
27.1828
 30
0.0
 10
-85.3165
 20
27.1828
 30
0.0
 10
-85.3165
 20
27.1828
 30
0.0
 10
-85.3165
 20
27.1828
 30
0.0
 10
-91.51
 20
23.607
 30
0.0
 10
-91.51
 20
23.607
 30
0.0
 10
-91.51
 20
23.607
 30
0.0
 10
-91.51
 20
23.607
 30
0.0
 10
-97.6647
 20
27.1604
 30
0.0
 10
-97.6647
 20
27.1604
 30
0.0
 10
-97.6647
 20
27.1604
 30
0.0
 10
-97.6647
 20
27.1604
 30
0.0
 10
-91.4532
 20
30.7466
 30
0.0
 10
-91.4532
 20
30.7466
 30
0.0
  0
SPLINE
  5
B3
330
1F
100
AcDbEntity
  8
layer 1
 62
     7
100
AcDbSpline
210
0.0
220
0.0
230
1.0
 70
    11
 71
     3
 72
    20
 73
    16
 74
     0
 42
0.0000000001
 43
0.0000000001
 12
1.0
 22
0.0
 32
0.0
 13
1.0
 23
0.0
 33
0.0
 40
0.0
 40
0.0
 40
0.0
 40
0.0
 40
0.2
 40
0.2
 40
0.2
 40
0.2
 40
0.4
 40
0.4
 40
0.4
 40
0.4
 40
0.6
 40
0.6
 40
0.6
 40
0.6
 40
1.0
 40
1.0
 40
1.0
 40
1.0
 10
-111.5743
 20
11.8274
 30
0.0
 10
-111.5743
 20
11.8274
 30
0.0
 10
-111.5924
 20
18.9239
 30
0.0
 10
-111.5924
 20
18.9239
 30
0.0
 10
-111.5924
 20
18.9239
 30
0.0
 10
-111.5924
 20
18.9239
 30
0.0
 10
-117.7858
 20
15.3481
 30
0.0
 10
-117.7858
 20
15.3481
 30
0.0
 10
-117.7858
 20
15.3481
 30
0.0
 10
-117.7858
 20
15.3481
 30
0.0
 10
-117.7858
 20
8.2412
 30
0.0
 10
-117.7858
 20
8.2412
 30
0.0
 10
-117.7858
 20
8.2412
 30
0.0
 10
-117.7858
 20
8.2412
 30
0.0
 10
-111.5743
 20
11.8274
 30
0.0
 10
-111.5743
 20
11.8274
 30
0.0
  0
SPLINE
  5
B4
330
1F
100
AcDbEntity
  8
layer 1
 62
     7
100
AcDbSpline
210
0.0
220
0.0
230
1.0
 70
    11
 71
     3
 72
    20
 73
    16
 74
     0
 42
0.0000000001
 43
0.0000000001
 12
1.0
 22
0.0
 32
0.0
 13
1.0
 23
0.0
 33
0.0
 40
0.0
 40
0.0
 40
0.0
 40
0.0
 40
0.2
 40
0.2
 40
0.2
 40
0.2
 40
0.4
 40
0.4
 40
0.4
 40
0.4
 40
0.6
 40
0.6
 40
0.6
 40
0.6
 40
1.0
 40
1.0
 40
1.0
 40
1.0
 10
-126.9012
 20
11.9943
 30
0.0
 10
-126.9012
 20
11.9943
 30
0.0
 10
-126.8831
 20
19.0907
 30
0.0
 10
-126.8831
 20
19.0907
 30
0.0
 10
-126.8831
 20
19.0907
 30
0.0
 10
-126.8831
 20
19.0907
 30
0.0
 10
-120.6897
 20
15.5149
 30
0.0
 10
-120.6897
 20
15.5149
 30
0.0
 10
-120.6897
 20
15.5149
 30
0.0
 10
-120.6897
 20
15.5149
 30
0.0
 10
-120.6897
 20
8.4081
 30
0.0
 10
-120.6897
 20
8.4081
 30
0.0
 10
-120.6897
 20
8.4081
 30
0.0
 10
-120.6897
 20
8.4081
 30
0.0
 10
-126.9012
 20
11.9943
 30
0.0
 10
-126.9012
 20
11.9943
 30
0.0
  0
SPLINE
  5
B5
330
1F
100
AcDbEntity
  8
layer 1
 62
     7
100
AcDbSpline
210
0.0
220
0.0
230
1.0
 70
    11
 71
     3
 72
    20
 73
    16
 74
     0
 42
0.0000000001
 43
0.0000000001
 12
1.0
 22
0.0
 32
0.0
 13
1.0
 23
0.0
 33
0.0
 40
0.0
 40
0.0
 40
0.0
 40
0.0
 40
0.2
 40
0.2
 40
0.2
 40
0.2
 40
0.4
 40
0.4
 40
0.4
 40
0.4
 40
0.6
 40
0.6
 40
0.6
 40
0.6
 40
1.0
 40
1.0
 40
1.0
 40
1.0
 10
-102.2915
 20
17.2783
 30
0.0
 10
-102.2915
 20
17.2783
 30
0.0
 10
-102.3096
 20
24.3748
 30
0.0
 10
-102.3096
 20
24.3748
 30
0.0
 10
-102.3096
 20
24.3748
 30
0.0
 10
-102.3096
 20
24.3748
 30
0.0
 10
-108.503
 20
20.799
 30
0.0
 10
-108.503
 20
20.799
 30
0.0
 10
-108.503
 20
20.799
 30
0.0
 10
-108.503
 20
20.799
 30
0.0
 10
-108.503
 20
13.6921
 30
0.0
 10
-108.503
 20
13.6921
 30
0.0
 10
-108.503
 20
13.6921
 30
0.0
 10
-108.503
 20
13.6921
 30
0.0
 10
-102.2915
 20
17.2783
 30
0.0
 10
-102.2915
 20
17.2783
 30
0.0
  0
SPLINE
  5
B6
330
1F
100
AcDbEntity
  8
layer 1
 62
     7
100
AcDbSpline
210
0.0
220
0.0
230
1.0
 70
    11
 71
     3
 72
    20
 73
    16
 74
     0
 42
0.0000000001
 43
0.0000000001
 12
1.0
 22
0.0
 32
0.0
 13
1.0
 23
0.0
 33
0.0
 40
0.0
 40
0.0
 40
0.0
 40
0.0
 40
0.2
 40
0.2
 40
0.2
 40
0.2
 40
0.4
 40
0.4
 40
0.4
 40
0.4
 40
0.6
 40
0.6
 40
0.6
 40
0.6
 40
1.0
 40
1.0
 40
1.0
 40
1.0
 10
-165.4695
 20
30.6764
 30
0.0
 10
-165.4695
 20
30.6764
 30
0.0
 10
-159.3328
 20
27.1126
 30
0.0
 10
-159.3328
 20
27.1126
 30
0.0
 10
-159.3328
 20
27.1126
 30
0.0
 10
-159.3328
 20
27.1126
 30
0.0
 10
-165.5262
 20
23.5368
 30
0.0
 10
-165.5262
 20
23.5368
 30
0.0
 10
-165.5262
 20
23.5368
 30
0.0
 10
-165.5262
 20
23.5368
 30
0.0
 10
-171.681
 20
27.0902
 30
0.0
 10
-171.681
 20
27.0902
 30
0.0
 10
-171.681
 20
27.0902
 30
0.0
 10
-171.681
 20
27.0902
 30
0.0
 10
-165.4695
 20
30.6764
 30
0.0
 10
-165.4695
 20
30.6764
 30
0.0
  0
SPLINE
  5
B7
330
1F
100
AcDbEntity
  8
layer 1
 62
     7
100
AcDbSpline
210
0.0
220
0.0
230
1.0
 70
    11
 71
     3
 72
    16
 73
    12
 74
     0
 42
0.0000000001
 43
0.0000000001
 12
1.0
 22
0.0
 32
0.0
 13
1.0
 23
0.0
 33
0.0
 40
0.0
 40
0.0
 40
0.0
 40
0.0
 40
0.25
 40
0.25
 40
0.25
 40
0.25
 40
0.5
 40
0.5
 40
0.5
 40
0.5
 40
1.0
 40
1.0
 40
1.0
 40
1.0
 10
-181.1328
 20
28.9303
 30
0.0
 10
-181.1328
 20
28.9303
 30
0.0
 10
-178.0028
 20
27.1125
 30
0.0
 10
-178.0028
 20
27.1125
 30
0.0
 10
-178.0028
 20
27.1125
 30
0.0
 10
-178.0028
 20
27.1125
 30
0.0
 10
-181.1429
 20
25.2996
 30
0.0
 10
-181.1429
 20
25.2996
 30
0.0
 10
-181.1429
 20
25.2996
 30
0.0
 10
-181.1429
 20
25.2996
 30
0.0
 10
-181.1328
 20
28.9303
 30
0.0
 10
-181.1328
 20
28.9303
 30
0.0
  0
SPLINE
  5
B8
330
1F
100
AcDbEntity
  8
layer 1
 62
     7
100
AcDbSpline
210
0.0
220
0.0
230
1.0
 70
    11
 71
     3
 72
    20
 73
    16
 74
     0
 42
0.0000000001
 43
0.0000000001
 12
1.0
 22
0.0
 32
0.0
 13
1.0
 23
0.0
 33
0.0
 40
0.0
 40
0.0
 40
0.0
 40
0.0
 40
0.2
 40
0.2
 40
0.2
 40
0.2
 40
0.4
 40
0.4
 40
0.4
 40
0.4
 40
0.6
 40
0.6
 40
0.6
 40
0.6
 40
1.0
 40
1.0
 40
1.0
 40
1.0
 10
-181.1313
 20
14.5457
 30
0.0
 10
-181.1313
 20
14.5457
 30
0.0
 10
-176.353
 20
17.3045
 30
0.0
 10
-176.353
 20
17.3045
 30
0.0
 10
-176.353
 20
17.3045
 30
0.0
 10
-176.353
 20
17.3045
 30
0.0
 10
-176.353
 20
24.4113
 30
0.0
 10
-176.353
 20
24.4113
 30
0.0
 10
-176.353
 20
24.4113
 30
0.0
 10
-176.353
 20
24.4113
 30
0.0
 10
-181.1281
 20
21.6544
 30
0.0
 10
-181.1281
 20
21.6544
 30
0.0
 10
-181.1281
 20
21.6544
 30
0.0
 10
-181.1281
 20
21.6544
 30
0.0
 10
-181.1313
 20
14.5457
 30
0.0
 10
-181.1313
 20
14.5457
 30
0.0
  0
SPLINE
  5
B9
330
1F
100
AcDbEntity
  8
layer 1
 62
     7
100
AcDbSpline
210
0.0
220
0.0
230
1.0
 70
    11
 71
     3
 72
    20
 73
    16
 74
     0
 42
0.0000000001
 43
0.0000000001
 12
1.0
 22
0.0
 32
0.0
 13
1.0
 23
0.0
 33
0.0
 40
0.0
 40
0.0
 40
0.0
 40
0.0
 40
0.2
 40
0.2
 40
0.2
 40
0.2
 40
0.4
 40
0.4
 40
0.4
 40
0.4
 40
0.6
 40
0.6
 40
0.6
 40
0.6
 40
1.0
 40
1.0
 40
1.0
 40
1.0
 10
-166.8865
 20
20.8742
 30
0.0
 10
-166.8865
 20
20.8742
 30
0.0
 10
-166.9046
 20
13.7778
 30
0.0
 10
-166.9046
 20
13.7778
 30
0.0
 10
-166.9046
 20
13.7778
 30
0.0
 10
-166.9046
 20
13.7778
 30
0.0
 10
-173.098
 20
17.3536
 30
0.0
 10
-173.098
 20
17.3536
 30
0.0
 10
-173.098
 20
17.3536
 30
0.0
 10
-173.098
 20
17.3536
 30
0.0
 10
-173.098
 20
24.4604
 30
0.0
 10
-173.098
 20
24.4604
 30
0.0
 10
-173.098
 20
24.4604
 30
0.0
 10
-173.098
 20
24.4604
 30
0.0
 10
-166.8865
 20
20.8742
 30
0.0
 10
-166.8865
 20
20.8742
 30
0.0
  0
SPLINE
  5
BA
330
1F
100
AcDbEntity
  8
layer 1
 62
     7
100
AcDbSpline
210
0.0
220
0.0
230
1.0
 70
    11
 71
     3
 72
    20
 73
    16
 74
     0
 42
0.0000000001
 43
0.0000000001
 12
1.0
 22
0.0
 32
0.0
 13
1.0
 23
0.0
 33
0.0
 40
0.0
 40
0.0
 40
0.0
 40
0.0
 40
0.2
 40
0.2
 40
0.2
 40
0.2
 40
0.4
 40
0.4
 40
0.4
 40
0.4
 40
0.6
 40
0.6
 40
0.6
 40
0.6
 40
1.0
 40
1.0
 40
1.0
 40
1.0
 10
-156.144
 20
25.3236
 30
0.0
 10
-156.144
 20
25.3236
 30
0.0
 10
-150.0073
 20
21.7598
 30
0.0
 10
-150.0073
 20
21.7598
 30
0.0
 10
-150.0073
 20
21.7598
 30
0.0
 10
-150.0073
 20
21.7598
 30
0.0
 10
-156.2007
 20
18.184
 30
0.0
 10
-156.2007
 20
18.184
 30
0.0
 10
-156.2007
 20
18.184
 30
0.0
 10
-156.2007
 20
18.184
 30
0.0
 10
-162.3555
 20
21.7375
 30
0.0
 10
-162.3555
 20
21.7375
 30
0.0
 10
-162.3555
 20
21.7375
 30
0.0
 10
-162.3555
 20
21.7375
 30
0.0
 10
-156.144
 20
25.3236
 30
0.0
 10
-156.144
 20
25.3236
 30
0.0
  0
SPLINE
  5
BB
330
1F
100
AcDbEntity
  8
layer 1
 62
     7
100
AcDbSpline
210
0.0
220
0.0
230
1.0
 70
    11
 71
     3
 72
    20
 73
    16
 74
     0
 42
0.0000000001
 43
0.0000000001
 12
1.0
 22
0.0
 32
0.0
 13
1.0
 23
0.0
 33
0.0
 40
0.0
 40
0.0
 40
0.0
 40
0.0
 40
0.2
 40
0.2
 40
0.2
 40
0.2
 40
0.4
 40
0.4
 40
0.4
 40
0.4
 40
0.6
 40
0.6
 40
0.6
 40
0.6
 40
1.0
 40
1.0
 40
1.0
 40
1.0
 10
-110.0422
 20
30.6764
 30
0.0
 10
-110.0422
 20
30.6764
 30
0.0
 10
-103.9056
 20
27.1126
 30
0.0
 10
-103.9056
 20
27.1126
 30
0.0
 10
-103.9056
 20
27.1126
 30
0.0
 10
-103.9056
 20
27.1126
 30
0.0
 10
-110.099
 20
23.5368
 30
0.0
 10
-110.099
 20
23.5368
 30
0.0
 10
-110.099
 20
23.5368
 30
0.0
 10
-110.099
 20
23.5368
 30
0.0
 10
-116.2537
 20
27.0902
 30
0.0
 10
-116.2537
 20
27.0902
 30
0.0
 10
-116.2537
 20
27.0902
 30
0.0
 10
-116.2537
 20
27.0902
 30
0.0
 10
-110.0422
 20
30.6764
 30
0.0
 10
-110.0422
 20
30.6764
 30
0.0
  0
SPLINE
  5
BC
330
1F
100
AcDbEntity
  8
layer 1
 62
     7
100
AcDbSpline
210
0.0
220
0.0
230
1.0
 70
    11
 71
     3
 72
    20
 73
    16
 74
     0
 42
0.0000000001
 43
0.0000000001
 12
1.0
 22
0.0
 32
0.0
 13
1.0
 23
0.0
 33
0.0
 40
0.0
 40
0.0
 40
0.0
 40
0.0
 40
0.2
 40
0.2
 40
0.2
 40
0.2
 40
0.4
 40
0.4
 40
0.4
 40
0.4
 40
0.6
 40
0.6
 40
0.6
 40
0.6
 40
1.0
 40
1.0
 40
1.0
 40
1.0
 10
-119.2361
 20
25.3236
 30
0.0
 10
-119.2361
 20
25.3236
 30
0.0
 10
-113.0995
 20
21.7598
 30
0.0
 10
-113.0995
 20
21.7598
 30
0.0
 10
-113.0995
 20
21.7598
 30
0.0
 10
-113.0995
 20
21.7598
 30
0.0
 10
-119.2929
 20
18.184
 30
0.0
 10
-119.2929
 20
18.184
 30
0.0
 10
-119.2929
 20
18.184
 30
0.0
 10
-119.2929
 20
18.184
 30
0.0
 10
-125.4476
 20
21.7375
 30
0.0
 10
-125.4476
 20
21.7375
 30
0.0
 10
-125.4476
 20
21.7375
 30
0.0
 10
-125.4476
 20
21.7375
 30
0.0
 10
-119.2361
 20
25.3236
 30
0.0
 10
-119.2361
 20
25.3236
 30
0.0
  0
SPLINE
  5
BD
330
1F
100
AcDbEntity
  8
layer 1
 62
     7
100
AcDbSpline
210
0.0
220
0.0
230
1.0
 70
    11
 71
     3
 72
    16
 73
    12
 74
     0
 42
0.0000000001
 43
0.0000000001
 12
1.0
 22
0.0
 32
0.0
 13
1.0
 23
0.0
 33
0.0
 40
0.0
 40
0.0
 40
0.0
 40
0.0
 40
0.25
 40
0.25
 40
0.25
 40
0.25
 40
0.5
 40
0.5
 40
0.5
 40
0.5
 40
1.0
 40
1.0
 40
1.0
 40
1.0
 10
-75.7481
 20
25.055
 30
0.0
 10
-75.7481
 20
25.055
 30
0.0
 10
-79.2732
 20
27.0902
 30
0.0
 10
-79.2732
 20
27.0902
 30
0.0
 10
-79.2732
 20
27.0902
 30
0.0
 10
-79.2732
 20
27.0902
 30
0.0
 10
-75.7194
 20
29.142
 30
0.0
 10
-75.7194
 20
29.142
 30
0.0
 10
-75.7194
 20
29.142
 30
0.0
 10
-75.7194
 20
29.142
 30
0.0
 10
-75.7481
 20
25.055
 30
0.0
 10
-75.7481
 20
25.055
 30
0.0
  0
SPLINE
  5
BE
330
1F
100
AcDbEntity
  8
layer 1
 62
     7
100
AcDbSpline
210
0.0
220
0.0
230
1.0
 70
    11
 71
     3
 72
    20
 73
    16
 74
     0
 42
0.0000000001
 43
0.0000000001
 12
1.0
 22
0.0
 32
0.0
 13
1.0
 23
0.0
 33
0.0
 40
0.0
 40
0.0
 40
0.0
 40
0.0
 40
0.2
 40
0.2
 40
0.2
 40
0.2
 40
0.4
 40
0.4
 40
0.4
 40
0.4
 40
0.6
 40
0.6
 40
0.6
 40
0.6
 40
1.0
 40
1.0
 40
1.0
 40
1.0
 10
-82.2555
 20
25.3236
 30
0.0
 10
-82.2555
 20
25.3236
 30
0.0
 10
-76.1189
 20
21.7598
 30
0.0
 10
-76.1189
 20
21.7598
 30
0.0
 10
-76.1189
 20
21.7598
 30
0.0
 10
-76.1189
 20
21.7598
 30
0.0
 10
-82.3123
 20
18.184
 30
0.0
 10
-82.3123
 20
18.184
 30
0.0
 10
-82.3123
 20
18.184
 30
0.0
 10
-82.3123
 20
18.184
 30
0.0
 10
-88.467
 20
21.7375
 30
0.0
 10
-88.467
 20
21.7375
 30
0.0
 10
-88.467
 20
21.7375
 30
0.0
 10
-88.467
 20
21.7375
 30
0.0
 10
-82.2555
 20
25.3236
 30
0.0
 10
-82.2555
 20
25.3236
 30
0.0
  0
SPLINE
  5
BF
330
1F
100
AcDbEntity
  8
layer 1
 62
     7
100
AcDbSpline
210
0.0
220
0.0
230
1.0
 70
    11
 71
     3
 72
    20
 73
    16
 74
     0
 42
0.0000000001
 43
0.0000000001
 12
1.0
 22
0.0
 32
0.0
 13
1.0
 23
0.0
 33
0.0
 40
0.0
 40
0.0
 40
0.0
 40
0.0
 40
0.2
 40
0.2
 40
0.2
 40
0.2
 40
0.4
 40
0.4
 40
0.4
 40
0.4
 40
0.6
 40
0.6
 40
0.6
 40
0.6
 40
1.0
 40
1.0
 40
1.0
 40
1.0
 10
-148.5632
 20
11.9734
 30
0.0
 10
-148.5632
 20
11.9734
 30
0.0
 10
-148.5813
 20
19.0698
 30
0.0
 10
-148.5813
 20
19.0698
 30
0.0
 10
-148.5813
 20
19.0698
 30
0.0
 10
-148.5813
 20
19.0698
 30
0.0
 10
-154.7747
 20
15.494
 30
0.0
 10
-154.7747
 20
15.494
 30
0.0
 10
-154.7747
 20
15.494
 30
0.0
 10
-154.7747
 20
15.494
 30
0.0
 10
-154.7747
 20
8.3872
 30
0.0
 10
-154.7747
 20
8.3872
 30
0.0
 10
-154.7747
 20
8.3872
 30
0.0
 10
-154.7747
 20
8.3872
 30
0.0
 10
-148.5632
 20
11.9734
 30
0.0
 10
-148.5632
 20
11.9734
 30
0.0
  0
SPLINE
  5
C0
330
1F
100
AcDbEntity
  8
layer 1
 62
     7
100
AcDbSpline
210
0.0
220
0.0
230
1.0
 70
    11
 71
     3
 72
    20
 73
    16
 74
     0
 42
0.0000000001
 43
0.0000000001
 12
1.0
 22
0.0
 32
0.0
 13
1.0
 23
0.0
 33
0.0
 40
0.0
 40
0.0
 40
0.0
 40
0.0
 40
0.2
 40
0.2
 40
0.2
 40
0.2
 40
0.4
 40
0.4
 40
0.4
 40
0.4
 40
0.6
 40
0.6
 40
0.6
 40
0.6
 40
1.0
 40
1.0
 40
1.0
 40
1.0
 10
-163.9893
 20
11.9734
 30
0.0
 10
-163.9893
 20
11.9734
 30
0.0
 10
-163.9712
 20
19.0698
 30
0.0
 10
-163.9712
 20
19.0698
 30
0.0
 10
-163.9712
 20
19.0698
 30
0.0
 10
-163.9712
 20
19.0698
 30
0.0
 10
-157.7777
 20
15.494
 30
0.0
 10
-157.7777
 20
15.494
 30
0.0
 10
-157.7777
 20
15.494
 30
0.0
 10
-157.7777
 20
15.494
 30
0.0
 10
-157.7777
 20
8.3872
 30
0.0
 10
-157.7777
 20
8.3872
 30
0.0
 10
-157.7777
 20
8.3872
 30
0.0
 10
-157.7777
 20
8.3872
 30
0.0
 10
-163.9893
 20
11.9734
 30
0.0
 10
-163.9893
 20
11.9734
 30
0.0
  0
SPLINE
  5
C1
330
1F
100
AcDbEntity
  8
layer 1
 62
     7
100
AcDbSpline
210
0.0
220
0.0
230
1.0
 70
    11
 71
     3
 72
    20
 73
    16
 74
     0
 42
0.0000000001
 43
0.0000000001
 12
1.0
 22
0.0
 32
0.0
 13
1.0
 23
0.0
 33
0.0
 40
0.0
 40
0.0
 40
0.0
 40
0.0
 40
0.2
 40
0.2
 40
0.2
 40
0.2
 40
0.4
 40
0.4
 40
0.4
 40
0.4
 40
0.6
 40
0.6
 40
0.6
 40
0.6
 40
1.0
 40
1.0
 40
1.0
 40
1.0
 10
-139.3075
 20
17.3162
 30
0.0
 10
-139.3075
 20
17.3162
 30
0.0
 10
-139.3256
 20
24.4126
 30
0.0
 10
-139.3256
 20
24.4126
 30
0.0
 10
-139.3256
 20
24.4126
 30
0.0
 10
-139.3256
 20
24.4126
 30
0.0
 10
-145.519
 20
20.8368
 30
0.0
 10
-145.519
 20
20.8368
 30
0.0
 10
-145.519
 20
20.8368
 30
0.0
 10
-145.519
 20
20.8368
 30
0.0
 10
-145.519
 20
13.73
 30
0.0
 10
-145.519
 20
13.73
 30
0.0
 10
-145.519
 20
13.73
 30
0.0
 10
-145.519
 20
13.73
 30
0.0
 10
-139.3075
 20
17.3162
 30
0.0
 10
-139.3075
 20
17.3162
 30
0.0
  0
SPLINE
  5
C2
330
1F
100
AcDbEntity
  8
layer 1
 62
     7
100
AcDbSpline
210
0.0
220
0.0
230
1.0
 70
    11
 71
     3
 72
    20
 73
    16
 74
     0
 42
0.0000000001
 43
0.0000000001
 12
1.0
 22
0.0
 32
0.0
 13
1.0
 23
0.0
 33
0.0
 40
0.0
 40
0.0
 40
0.0
 40
0.0
 40
0.2
 40
0.2
 40
0.2
 40
0.2
 40
0.4
 40
0.4
 40
0.4
 40
0.4
 40
0.6
 40
0.6
 40
0.6
 40
0.6
 40
1.0
 40
1.0
 40
1.0
 40
1.0
 10
-136.0706
 20
17.2882
 30
0.0
 10
-136.0706
 20
17.2882
 30
0.0
 10
-136.0525
 20
24.3847
 30
0.0
 10
-136.0525
 20
24.3847
 30
0.0
 10
-136.0525
 20
24.3847
 30
0.0
 10
-136.0525
 20
24.3847
 30
0.0
 10
-129.8591
 20
20.8089
 30
0.0
 10
-129.8591
 20
20.8089
 30
0.0
 10
-129.8591
 20
20.8089
 30
0.0
 10
-129.8591
 20
20.8089
 30
0.0
 10
-129.8591
 20
13.702
 30
0.0
 10
-129.8591
 20
13.702
 30
0.0
 10
-129.8591
 20
13.702
 30
0.0
 10
-129.8591
 20
13.702
 30
0.0
 10
-136.0706
 20
17.2882
 30
0.0
 10
-136.0706
 20
17.2882
 30
0.0
  0
SPLINE
  5
C3
330
1F
100
AcDbEntity
  8
layer 1
 62
     7
100
AcDbSpline
210
0.0
220
0.0
230
1.0
 70
    11
 71
     3
 72
    20
 73
    16
 74
     0
 42
0.0000000001
 43
0.0000000001
 12
1.0
 22
0.0
 32
0.0
 13
1.0
 23
0.0
 33
0.0
 40
0.0
 40
0.0
 40
0.0
 40
0.0
 40
0.2
 40
0.2
 40
0.2
 40
0.2
 40
0.4
 40
0.4
 40
0.4
 40
0.4
 40
0.6
 40
0.6
 40
0.6
 40
0.6
 40
1.0
 40
1.0
 40
1.0
 40
1.0
 10
-89.9555
 20
12.0905
 30
0.0
 10
-89.9555
 20
12.0905
 30
0.0
 10
-89.9374
 20
19.187
 30
0.0
 10
-89.9374
 20
19.187
 30
0.0
 10
-89.9374
 20
19.187
 30
0.0
 10
-89.9374
 20
19.187
 30
0.0
 10
-83.744
 20
15.6112
 30
0.0
 10
-83.744
 20
15.6112
 30
0.0
 10
-83.744
 20
15.6112
 30
0.0
 10
-83.744
 20
15.6112
 30
0.0
 10
-83.744
 20
8.5044
 30
0.0
 10
-83.744
 20
8.5044
 30
0.0
 10
-83.744
 20
8.5044
 30
0.0
 10
-83.744
 20
8.5044
 30
0.0
 10
-89.9555
 20
12.0905
 30
0.0
 10
-89.9555
 20
12.0905
 30
0.0
  0
SPLINE
  5
C4
330
1F
100
AcDbEntity
  8
layer 1
 62
     7
100
AcDbSpline
210
0.0
220
0.0
230
1.0
 70
    11
 71
     3
 72
    20
 73
    16
 74
     0
 42
0.0000000001
 43
0.0000000001
 12
1.0
 22
0.0
 32
0.0
 13
1.0
 23
0.0
 33
0.0
 40
0.0
 40
0.0
 40
0.0
 40
0.0
 40
0.2
 40
0.2
 40
0.2
 40
0.2
 40
0.4
 40
0.4
 40
0.4
 40
0.4
 40
0.6
 40
0.6
 40
0.6
 40
0.6
 40
1.0
 40
1.0
 40
1.0
 40
1.0
 10
-99.125
 20
17.3846
 30
0.0
 10
-99.125
 20
17.3846
 30
0.0
 10
-99.1069
 20
24.481
 30
0.0
 10
-99.1069
 20
24.481
 30
0.0
 10
-99.1069
 20
24.481
 30
0.0
 10
-99.1069
 20
24.481
 30
0.0
 10
-92.9135
 20
20.9052
 30
0.0
 10
-92.9135
 20
20.9052
 30
0.0
 10
-92.9135
 20
20.9052
 30
0.0
 10
-92.9135
 20
20.9052
 30
0.0
 10
-92.9135
 20
13.7984
 30
0.0
 10
-92.9135
 20
13.7984
 30
0.0
 10
-92.9135
 20
13.7984
 30
0.0
 10
-92.9135
 20
13.7984
 30
0.0
 10
-99.125
 20
17.3846
 30
0.0
 10
-99.125
 20
17.3846
 30
0.0
  0
SPLINE
  5
C5
330
1F
100
AcDbEntity
  8
layer 1
 62
     7
100
AcDbSpline
210
0.0
220
0.0
230
1.0
 70
    11
 71
     3
 72
    20
 73
    16
 74
     0
 42
0.0000000001
 43
0.0000000001
 12
1.0
 22
0.0
 32
0.0
 13
1.0
 23
0.0
 33
0.0
 40
0.0
 40
0.0
 40
0.0
 40
0.0
 40
0.2
 40
0.2
 40
0.2
 40
0.2
 40
0.4
 40
0.4
 40
0.4
 40
0.4
 40
0.6
 40
0.6
 40
0.6
 40
0.6
 40
1.0
 40
1.0
 40
1.0
 40
1.0
 10
-75.6718
 20
18.2574
 30
0.0
 10
-75.6718
 20
18.2574
 30
0.0
 10
-80.7109
 20
15.348
 30
0.0
 10
-80.7109
 20
15.348
 30
0.0
 10
-80.7109
 20
15.348
 30
0.0
 10
-80.7109
 20
15.348
 30
0.0
 10
-80.7109
 20
8.2412
 30
0.0
 10
-80.7109
 20
8.2412
 30
0.0
 10
-80.7109
 20
8.2412
 30
0.0
 10
-80.7109
 20
8.2412
 30
0.0
 10
-75.6954
 20
11.1368
 30
0.0
 10
-75.6954
 20
11.1368
 30
0.0
 10
-75.6954
 20
11.1368
 30
0.0
 10
-75.6954
 20
11.1368
 30
0.0
 10
-75.6718
 20
18.2574
 30
0.0
 10
-75.6718
 20
18.2574
 30
0.0
  0
SPLINE
  5
C6
330
1F
100
AcDbEntity
  8
layer 1
 62
     7
100
AcDbSpline
210
0.0
220
0.0
230
1.0
 70
    11
 71
     3
 72
    28
 73
    24
 74
     0
 42
0.0000000001
 43
0.0000000001
 12
1.0
 22
0.0
 32
0.0
 13
1.0
 23
0.0
 33
0.0
 40
0.0
 40
0.0
 40
0.0
 40
0.0
 40
0.1428571428571428
 40
0.1428571428571428
 40
0.1428571428571428
 40
0.1428571428571428
 40
0.2857142857142857
 40
0.2857142857142857
 40
0.2857142857142857
 40
0.2857142857142857
 40
0.4285714285714285
 40
0.4285714285714285
 40
0.4285714285714285
 40
0.4285714285714285
 40
0.5714285714285714
 40
0.5714285714285714
 40
0.5714285714285714
 40
0.5714285714285714
 40
0.7142857142857143
 40
0.7142857142857143
 40
0.7142857142857143
 40
0.7142857142857143
 40
1.0
 40
1.0
 40
1.0
 40
1.0
 10
-129.9854
 20
10.2249
 30
0.0
 10
-129.9854
 20
10.2249
 30
0.0
 10
-129.9854
 20
1.346
 30
0.0
 10
-129.9854
 20
1.346
 30
0.0
 10
-129.9854
 20
1.346
 30
0.0
 10
-129.9854
 20
1.346
 30
0.0
 10
-137.6709
 20
-3.0934
 30
0.0
 10
-137.6709
 20
-3.0934
 30
0.0
 10
-137.6709
 20
-3.0934
 30
0.0
 10
-137.6709
 20
-3.0934
 30
0.0
 10
-145.3563
 20
1.346
 30
0.0
 10
-145.3563
 20
1.346
 30
0.0
 10
-145.3563
 20
1.346
 30
0.0
 10
-145.3563
 20
1.346
 30
0.0
 10
-145.3563
 20
10.2249
 30
0.0
 10
-145.3563
 20
10.2249
 30
0.0
 10
-145.3563
 20
10.2249
 30
0.0
 10
-145.3563
 20
10.2249
 30
0.0
 10
-137.6709
 20
14.6644
 30
0.0
 10
-137.6709
 20
14.6644
 30
0.0
 10
-137.6709
 20
14.6644
 30
0.0
 10
-137.6709
 20
14.6644
 30
0.0
 10
-129.9854
 20
10.2249
 30
0.0
 10
-129.9854
 20
10.2249
 30
0.0
  0
SPLINE
  5
C7
330
1F
100
AcDbEntity
  8
layer 1
 62
     7
100
AcDbSpline
210
0.0
220
0.0
230
1.0
 70
    11
 71
     3
 72
    20
 73
    16
 74
     0
 42
0.0000000001
 43
0.0000000001
 12
1.0
 22
0.0
 32
0.0
 13
1.0
 23
0.0
 33
0.0
 40
0.0
 40
0.0
 40
0.0
 40
0.0
 40
0.2
 40
0.2
 40
0.2
 40
0.2
 40
0.4
 40
0.4
 40
0.4
 40
0.4
 40
0.6
 40
0.6
 40
0.6
 40
0.6
 40
1.0
 40
1.0
 40
1.0
 40
1.0
 10
-111.5743
 20
1.0863
 30
0.0
 10
-111.5743
 20
1.0863
 30
0.0
 10
-111.5924
 20
8.1828
 30
0.0
 10
-111.5924
 20
8.1828
 30
0.0
 10
-111.5924
 20
8.1828
 30
0.0
 10
-111.5924
 20
8.1828
 30
0.0
 10
-117.7858
 20
4.607
 30
0.0
 10
-117.7858
 20
4.607
 30
0.0
 10
-117.7858
 20
4.607
 30
0.0
 10
-117.7858
 20
4.607
 30
0.0
 10
-117.7858
 20
-2.4999
 30
0.0
 10
-117.7858
 20
-2.4999
 30
0.0
 10
-117.7858
 20
-2.4999
 30
0.0
 10
-117.7858
 20
-2.4999
 30
0.0
 10
-111.5743
 20
1.0863
 30
0.0
 10
-111.5743
 20
1.0863
 30
0.0
  0
SPLINE
  5
C8
330
1F
100
AcDbEntity
  8
layer 1
 62
     7
100
AcDbSpline
210
0.0
220
0.0
230
1.0
 70
    11
 71
     3
 72
    20
 73
    16
 74
     0
 42
0.0000000001
 43
0.0000000001
 12
1.0
 22
0.0
 32
0.0
 13
1.0
 23
0.0
 33
0.0
 40
0.0
 40
0.0
 40
0.0
 40
0.0
 40
0.2
 40
0.2
 40
0.2
 40
0.2
 40
0.4
 40
0.4
 40
0.4
 40
0.4
 40
0.6
 40
0.6
 40
0.6
 40
0.6
 40
1.0
 40
1.0
 40
1.0
 40
1.0
 10
-126.9012
 20
1.2532
 30
0.0
 10
-126.9012
 20
1.2532
 30
0.0
 10
-126.8831
 20
8.3496
 30
0.0
 10
-126.8831
 20
8.3496
 30
0.0
 10
-126.8831
 20
8.3496
 30
0.0
 10
-126.8831
 20
8.3496
 30
0.0
 10
-120.6897
 20
4.7738
 30
0.0
 10
-120.6897
 20
4.7738
 30
0.0
 10
-120.6897
 20
4.7738
 30
0.0
 10
-120.6897
 20
4.7738
 30
0.0
 10
-120.6897
 20
-2.333
 30
0.0
 10
-120.6897
 20
-2.333
 30
0.0
 10
-120.6897
 20
-2.333
 30
0.0
 10
-120.6897
 20
-2.333
 30
0.0
 10
-126.9012
 20
1.2532
 30
0.0
 10
-126.9012
 20
1.2532
 30
0.0
  0
SPLINE
  5
C9
330
1F
100
AcDbEntity
  8
layer 1
 62
     7
100
AcDbSpline
210
0.0
220
0.0
230
1.0
 70
    11
 71
     3
 72
    28
 73
    24
 74
     0
 42
0.0000000001
 43
0.0000000001
 12
1.0
 22
0.0
 32
0.0
 13
1.0
 23
0.0
 33
0.0
 40
0.0
 40
0.0
 40
0.0
 40
0.0
 40
0.1428571428571428
 40
0.1428571428571428
 40
0.1428571428571428
 40
0.1428571428571428
 40
0.2857142857142857
 40
0.2857142857142857
 40
0.2857142857142857
 40
0.2857142857142857
 40
0.4285714285714285
 40
0.4285714285714285
 40
0.4285714285714285
 40
0.4285714285714285
 40
0.5714285714285714
 40
0.5714285714285714
 40
0.5714285714285714
 40
0.5714285714285714
 40
0.7142857142857143
 40
0.7142857142857143
 40
0.7142857142857143
 40
0.7142857142857143
 40
1.0
 40
1.0
 40
1.0
 40
1.0
 10
-93.1466
 20
10.2249
 30
0.0
 10
-93.1466
 20
10.2249
 30
0.0
 10
-93.1466
 20
1.346
 30
0.0
 10
-93.1466
 20
1.346
 30
0.0
 10
-93.1466
 20
1.346
 30
0.0
 10
-93.1466
 20
1.346
 30
0.0
 10
-100.8321
 20
-3.0934
 30
0.0
 10
-100.8321
 20
-3.0934
 30
0.0
 10
-100.8321
 20
-3.0934
 30
0.0
 10
-100.8321
 20
-3.0934
 30
0.0
 10
-108.5176
 20
1.346
 30
0.0
 10
-108.5176
 20
1.346
 30
0.0
 10
-108.5176
 20
1.346
 30
0.0
 10
-108.5176
 20
1.346
 30
0.0
 10
-108.5176
 20
10.2249
 30
0.0
 10
-108.5176
 20
10.2249
 30
0.0
 10
-108.5176
 20
10.2249
 30
0.0
 10
-108.5176
 20
10.2249
 30
0.0
 10
-100.8321
 20
14.6644
 30
0.0
 10
-100.8321
 20
14.6644
 30
0.0
 10
-100.8321
 20
14.6644
 30
0.0
 10
-100.8321
 20
14.6644
 30
0.0
 10
-93.1466
 20
10.2249
 30
0.0
 10
-93.1466
 20
10.2249
 30
0.0
  0
SPLINE
  5
CA
330
1F
100
AcDbEntity
  8
layer 1
 62
     7
100
AcDbSpline
210
0.0
220
0.0
230
1.0
 70
    11
 71
     3
 72
    20
 73
    16
 74
     0
 42
0.0000000001
 43
0.0000000001
 12
1.0
 22
0.0
 32
0.0
 13
1.0
 23
0.0
 33
0.0
 40
0.0
 40
0.0
 40
0.0
 40
0.0
 40
0.2
 40
0.2
 40
0.2
 40
0.2
 40
0.4
 40
0.4
 40
0.4
 40
0.4
 40
0.6
 40
0.6
 40
0.6
 40
0.6
 40
1.0
 40
1.0
 40
1.0
 40
1.0
 10
-89.9555
 20
1.2922
 30
0.0
 10
-89.9555
 20
1.2922
 30
0.0
 10
-89.9374
 20
8.3887
 30
0.0
 10
-89.9374
 20
8.3887
 30
0.0
 10
-89.9374
 20
8.3887
 30
0.0
 10
-89.9374
 20
8.3887
 30
0.0
 10
-83.744
 20
4.8129
 30
0.0
 10
-83.744
 20
4.8129
 30
0.0
 10
-83.744
 20
4.8129
 30
0.0
 10
-83.744
 20
4.8129
 30
0.0
 10
-83.744
 20
-2.294
 30
0.0
 10
-83.744
 20
-2.294
 30
0.0
 10
-83.744
 20
-2.294
 30
0.0
 10
-83.744
 20
-2.294
 30
0.0
 10
-89.9555
 20
1.2922
 30
0.0
 10
-89.9555
 20
1.2922
 30
0.0
  0
SPLINE
  5
CB
330
1F
100
AcDbEntity
  8
layer 1
 62
     7
100
AcDbSpline
210
0.0
220
0.0
230
1.0
 70
    11
 71
     3
 72
    20
 73
    16
 74
     0
 42
0.0000000001
 43
0.0000000001
 12
1.0
 22
0.0
 32
0.0
 13
1.0
 23
0.0
 33
0.0
 40
0.0
 40
0.0
 40
0.0
 40
0.0
 40
0.2
 40
0.2
 40
0.2
 40
0.2
 40
0.4
 40
0.4
 40
0.4
 40
0.4
 40
0.6
 40
0.6
 40
0.6
 40
0.6
 40
1.0
 40
1.0
 40
1.0
 40
1.0
 10
-163.9893
 20
1.4168
 30
0.0
 10
-163.9893
 20
1.4168
 30
0.0
 10
-163.9712
 20
8.5132
 30
0.0
 10
-163.9712
 20
8.5132
 30
0.0
 10
-163.9712
 20
8.5132
 30
0.0
 10
-163.9712
 20
8.5132
 30
0.0
 10
-157.7777
 20
4.9375
 30
0.0
 10
-157.7777
 20
4.9375
 30
0.0
 10
-157.7777
 20
4.9375
 30
0.0
 10
-157.7777
 20
4.9375
 30
0.0
 10
-157.7777
 20
-2.1694
 30
0.0
 10
-157.7777
 20
-2.1694
 30
0.0
 10
-157.7777
 20
-2.1694
 30
0.0
 10
-157.7777
 20
-2.1694
 30
0.0
 10
-163.9893
 20
1.4168
 30
0.0
 10
-163.9893
 20
1.4168
 30
0.0
  0
SPLINE
  5
CC
330
1F
100
AcDbEntity
  8
layer 1
 62
     7
100
AcDbSpline
210
0.0
220
0.0
230
1.0
 70
    11
 71
     3
 72
    20
 73
    16
 74
     0
 42
0.0000000001
 43
0.0000000001
 12
1.0
 22
0.0
 32
0.0
 13
1.0
 23
0.0
 33
0.0
 40
0.0
 40
0.0
 40
0.0
 40
0.0
 40
0.2
 40
0.2
 40
0.2
 40
0.2
 40
0.4
 40
0.4
 40
0.4
 40
0.4
 40
0.6
 40
0.6
 40
0.6
 40
0.6
 40
1.0
 40
1.0
 40
1.0
 40
1.0
 10
-75.6718
 20
7.7814
 30
0.0
 10
-75.6718
 20
7.7814
 30
0.0
 10
-80.7109
 20
4.872
 30
0.0
 10
-80.7109
 20
4.872
 30
0.0
 10
-80.7109
 20
4.872
 30
0.0
 10
-80.7109
 20
4.872
 30
0.0
 10
-80.7109
 20
-2.2348
 30
0.0
 10
-80.7109
 20
-2.2348
 30
0.0
 10
-80.7109
 20
-2.2348
 30
0.0
 10
-80.7109
 20
-2.2348
 30
0.0
 10
-75.6954
 20
0.6608
 30
0.0
 10
-75.6954
 20
0.6608
 30
0.0
 10
-75.6954
 20
0.6608
 30
0.0
 10
-75.6954
 20
0.6608
 30
0.0
 10
-75.6718
 20
7.7814
 30
0.0
 10
-75.6718
 20
7.7814
 30
0.0
  0
SPLINE
  5
CD
330
1F
100
AcDbEntity
  8
layer 1
 62
     7
100
AcDbSpline
210
0.0
220
0.0
230
1.0
 70
    11
 71
     3
 72
    28
 73
    24
 74
     0
 42
0.0000000001
 43
0.0000000001
 12
1.0
 22
0.0
 32
0.0
 13
1.0
 23
0.0
 33
0.0
 40
0.0
 40
0.0
 40
0.0
 40
0.0
 40
0.1428571428571428
 40
0.1428571428571428
 40
0.1428571428571428
 40
0.1428571428571428
 40
0.2857142857142857
 40
0.2857142857142857
 40
0.2857142857142857
 40
0.2857142857142857
 40
0.4285714285714285
 40
0.4285714285714285
 40
0.4285714285714285
 40
0.4285714285714285
 40
0.5714285714285714
 40
0.5714285714285714
 40
0.5714285714285714
 40
0.5714285714285714
 40
0.7142857142857143
 40
0.7142857142857143
 40
0.7142857142857143
 40
0.7142857142857143
 40
1.0
 40
1.0
 40
1.0
 40
1.0
 10
-111.4692
 20
106.3353
 30
0.0
 10
-111.4692
 20
106.3353
 30
0.0
 10
-111.4692
 20
97.4564
 30
0.0
 10
-111.4692
 20
97.4564
 30
0.0
 10
-111.4692
 20
97.4564
 30
0.0
 10
-111.4692
 20
97.4564
 30
0.0
 10
-119.1547
 20
93.0169
 30
0.0
 10
-119.1547
 20
93.0169
 30
0.0
 10
-119.1547
 20
93.0169
 30
0.0
 10
-119.1547
 20
93.0169
 30
0.0
 10
-126.8402
 20
97.4564
 30
0.0
 10
-126.8402
 20
97.4564
 30
0.0
 10
-126.8402
 20
97.4564
 30
0.0
 10
-126.8402
 20
97.4564
 30
0.0
 10
-126.8402
 20
106.3353
 30
0.0
 10
-126.8402
 20
106.3353
 30
0.0
 10
-126.8402
 20
106.3353
 30
0.0
 10
-126.8402
 20
106.3353
 30
0.0
 10
-119.1547
 20
110.7748
 30
0.0
 10
-119.1547
 20
110.7748
 30
0.0
 10
-119.1547
 20
110.7748
 30
0.0
 10
-119.1547
 20
110.7748
 30
0.0
 10
-111.4692
 20
106.3353
 30
0.0
 10
-111.4692
 20
106.3353
 30
0.0
  0
SPLINE
  5
CE
330
1F
100
AcDbEntity
  8
layer 1
 62
     7
100
AcDbSpline
210
0.0
220
0.0
230
1.0
 70
    11
 71
     3
 72
    20
 73
    16
 74
     0
 42
0.0000000001
 43
0.0000000001
 12
1.0
 22
0.0
 32
0.0
 13
1.0
 23
0.0
 33
0.0
 40
0.0
 40
0.0
 40
0.0
 40
0.0
 40
0.2
 40
0.2
 40
0.2
 40
0.2
 40
0.4
 40
0.4
 40
0.4
 40
0.4
 40
0.6
 40
0.6
 40
0.6
 40
0.6
 40
1.0
 40
1.0
 40
1.0
 40
1.0
 10
-137.5863
 20
121.4674
 30
0.0
 10
-137.5863
 20
121.4674
 30
0.0
 10
-131.4496
 20
117.9036
 30
0.0
 10
-131.4496
 20
117.9036
 30
0.0
 10
-131.4496
 20
117.9036
 30
0.0
 10
-131.4496
 20
117.9036
 30
0.0
 10
-137.6431
 20
114.3278
 30
0.0
 10
-137.6431
 20
114.3278
 30
0.0
 10
-137.6431
 20
114.3278
 30
0.0
 10
-137.6431
 20
114.3278
 30
0.0
 10
-143.7978
 20
117.8812
 30
0.0
 10
-143.7978
 20
117.8812
 30
0.0
 10
-143.7978
 20
117.8812
 30
0.0
 10
-143.7978
 20
117.8812
 30
0.0
 10
-137.5863
 20
121.4674
 30
0.0
 10
-137.5863
 20
121.4674
 30
0.0
  0
SPLINE
  5
CF
330
1F
100
AcDbEntity
  8
layer 1
 62
     7
100
AcDbSpline
210
0.0
220
0.0
230
1.0
 70
     8
 71
     3
 72
    36
 73
    32
 74
     0
 42
0.0000000001
 43
0.0000000001
 12
1.0
 22
0.0
 32
0.0
 13
1.0
 23
0.0
 33
0.0
 40
0.0
 40
0.0
 40
0.0
 40
0.0
 40
0.1111111111111111
 40
0.1111111111111111
 40
0.1111111111111111
 40
0.1111111111111111
 40
0.2222222222222222
 40
0.2222222222222222
 40
0.2222222222222222
 40
0.2222222222222222
 40
0.3333333333333333
 40
0.3333333333333333
 40
0.3333333333333333
 40
0.3333333333333333
 40
0.4444444444444444
 40
0.4444444444444444
 40
0.4444444444444444
 40
0.4444444444444444
 40
0.5555555555555556
 40
0.5555555555555556
 40
0.5555555555555556
 40
0.5555555555555556
 40
0.6666666666666666
 40
0.6666666666666666
 40
0.6666666666666666
 40
0.6666666666666666
 40
0.7777777777777778
 40
0.7777777777777778
 40
0.7777777777777778
 40
0.7777777777777778
 40
1.0
 40
1.0
 40
1.0
 40
1.0
 10
-154.5911
 20
69.0165
 30
0.0
 10
-154.5911
 20
69.0165
 30
0.0
 10
-148.602
 20
72.3803
 30
0.0
 10
-148.602
 20
72.3803
 30
0.0
 10
-148.602
 20
72.3803
 30
0.0
 10
-148.5757
 20
72.3951
 30
0.0
 10
-148.554
 20
72.3861
 30
0.0
 10
-148.5536
 20
72.3602
 30
0.0
 10
-148.5536
 20
72.3602
 30
0.0
 10
-148.5536
 20
72.3602
 30
0.0
 10
-148.4516
 20
65.4568
 30
0.0
 10
-148.4516
 20
65.4568
 30
0.0
 10
-148.4516
 20
65.4568
 30
0.0
 10
-148.451
 20
65.431
 30
0.0
 10
-148.4721
 20
65.398
 30
0.0
 10
-148.4983
 20
65.3833
 30
0.0
 10
-148.4983
 20
65.3833
 30
0.0
 10
-148.4983
 20
65.3833
 30
0.0
 10
-154.4875
 20
62.0192
 30
0.0
 10
-154.4875
 20
62.0192
 30
0.0
 10
-154.4875
 20
62.0192
 30
0.0
 10
-154.5137
 20
62.0047
 30
0.0
 10
-154.5353
 20
62.0138
 30
0.0
 10
-154.5357
 20
62.0397
 30
0.0
 10
-154.5357
 20
62.0397
 30
0.0
 10
-154.5357
 20
62.0397
 30
0.0
 10
-154.638
 20
68.9428
 30
0.0
 10
-154.638
 20
68.9428
 30
0.0
 10
-154.638
 20
68.9428
 30
0.0
 10
-154.6382
 20
68.9689
 30
0.0
 10
-154.6172
 20
69.0019
 30
0.0
 10
-154.5909
 20
69.0167
 30
0.0
  0
SPLINE
  5
D0
330
1F
100
AcDbEntity
  8
layer 1
 62
     7
100
AcDbSpline
210
0.0
220
0.0
230
1.0
 70
    11
 71
     3
 72
    20
 73
    16
 74
     0
 42
0.0000000001
 43
0.0000000001
 12
1.0
 22
0.0
 32
0.0
 13
1.0
 23
0.0
 33
0.0
 40
0.0
 40
0.0
 40
0.0
 40
0.0
 40
0.2
 40
0.2
 40
0.2
 40
0.2
 40
0.4
 40
0.4
 40
0.4
 40
0.4
 40
0.6
 40
0.6
 40
0.6
 40
0.6
 40
1.0
 40
1.0
 40
1.0
 40
1.0
 10
-129.8591
 20
108.2418
 30
0.0
 10
-129.8591
 20
108.2418
 30
0.0
 10
-129.8772
 20
115.3382
 30
0.0
 10
-129.8772
 20
115.3382
 30
0.0
 10
-129.8772
 20
115.3382
 30
0.0
 10
-129.8772
 20
115.3382
 30
0.0
 10
-136.0706
 20
111.7625
 30
0.0
 10
-136.0706
 20
111.7625
 30
0.0
 10
-136.0706
 20
111.7625
 30
0.0
 10
-136.0706
 20
111.7625
 30
0.0
 10
-136.0706
 20
104.6556
 30
0.0
 10
-136.0706
 20
104.6556
 30
0.0
 10
-136.0706
 20
104.6556
 30
0.0
 10
-136.0706
 20
104.6556
 30
0.0
 10
-129.8591
 20
108.2418
 30
0.0
 10
-129.8591
 20
108.2418
 30
0.0
  0
SPLINE
  5
D1
330
1F
100
AcDbEntity
  8
layer 1
 62
     7
100
AcDbSpline
210
0.0
220
0.0
230
1.0
 70
    11
 71
     3
 72
    20
 73
    16
 74
     0
 42
0.0000000001
 43
0.0000000001
 12
1.0
 22
0.0
 32
0.0
 13
1.0
 23
0.0
 33
0.0
 40
0.0
 40
0.0
 40
0.0
 40
0.0
 40
0.2
 40
0.2
 40
0.2
 40
0.2
 40
0.4
 40
0.4
 40
0.4
 40
0.4
 40
0.6
 40
0.6
 40
0.6
 40
0.6
 40
1.0
 40
1.0
 40
1.0
 40
1.0
 10
-129.8591
 20
97.4735
 30
0.0
 10
-129.8591
 20
97.4735
 30
0.0
 10
-129.8772
 20
104.5699
 30
0.0
 10
-129.8772
 20
104.5699
 30
0.0
 10
-129.8772
 20
104.5699
 30
0.0
 10
-129.8772
 20
104.5699
 30
0.0
 10
-136.0706
 20
100.9942
 30
0.0
 10
-136.0706
 20
100.9942
 30
0.0
 10
-136.0706
 20
100.9942
 30
0.0
 10
-136.0706
 20
100.9942
 30
0.0
 10
-136.0706
 20
93.8873
 30
0.0
 10
-136.0706
 20
93.8873
 30
0.0
 10
-136.0706
 20
93.8873
 30
0.0
 10
-136.0706
 20
93.8873
 30
0.0
 10
-129.8591
 20
97.4735
 30
0.0
 10
-129.8591
 20
97.4735
 30
0.0
  0
SPLINE
  5
D2
330
1F
100
AcDbEntity
  8
layer 1
 62
     7
100
AcDbSpline
210
0.0
220
0.0
230
1.0
 70
    11
 71
     3
 72
    20
 73
    16
 74
     0
 42
0.0000000001
 43
0.0000000001
 12
1.0
 22
0.0
 32
0.0
 13
1.0
 23
0.0
 33
0.0
 40
0.0
 40
0.0
 40
0.0
 40
0.0
 40
0.2
 40
0.2
 40
0.2
 40
0.2
 40
0.4
 40
0.4
 40
0.4
 40
0.4
 40
0.6
 40
0.6
 40
0.6
 40
0.6
 40
1.0
 40
1.0
 40
1.0
 40
1.0
 10
-145.5371
 20
108.2418
 30
0.0
 10
-145.5371
 20
108.2418
 30
0.0
 10
-145.5191
 20
115.3382
 30
0.0
 10
-145.5191
 20
115.3382
 30
0.0
 10
-145.5191
 20
115.3382
 30
0.0
 10
-145.5191
 20
115.3382
 30
0.0
 10
-139.3256
 20
111.7625
 30
0.0
 10
-139.3256
 20
111.7625
 30
0.0
 10
-139.3256
 20
111.7625
 30
0.0
 10
-139.3256
 20
111.7625
 30
0.0
 10
-139.3256
 20
104.6556
 30
0.0
 10
-139.3256
 20
104.6556
 30
0.0
 10
-139.3256
 20
104.6556
 30
0.0
 10
-139.3256
 20
104.6556
 30
0.0
 10
-145.5371
 20
108.2418
 30
0.0
 10
-145.5371
 20
108.2418
 30
0.0
  0
SPLINE
  5
D3
330
1F
100
AcDbEntity
  8
layer 1
 62
     7
100
AcDbSpline
210
0.0
220
0.0
230
1.0
 70
    11
 71
     3
 72
    20
 73
    16
 74
     0
 42
0.0000000001
 43
0.0000000001
 12
1.0
 22
0.0
 32
0.0
 13
1.0
 23
0.0
 33
0.0
 40
0.0
 40
0.0
 40
0.0
 40
0.0
 40
0.2
 40
0.2
 40
0.2
 40
0.2
 40
0.4
 40
0.4
 40
0.4
 40
0.4
 40
0.6
 40
0.6
 40
0.6
 40
0.6
 40
1.0
 40
1.0
 40
1.0
 40
1.0
 10
-145.5371
 20
97.4735
 30
0.0
 10
-145.5371
 20
97.4735
 30
0.0
 10
-145.5191
 20
104.5699
 30
0.0
 10
-145.5191
 20
104.5699
 30
0.0
 10
-145.5191
 20
104.5699
 30
0.0
 10
-145.5191
 20
104.5699
 30
0.0
 10
-139.3256
 20
100.9942
 30
0.0
 10
-139.3256
 20
100.9942
 30
0.0
 10
-139.3256
 20
100.9942
 30
0.0
 10
-139.3256
 20
100.9942
 30
0.0
 10
-139.3256
 20
93.8873
 30
0.0
 10
-139.3256
 20
93.8873
 30
0.0
 10
-139.3256
 20
93.8873
 30
0.0
 10
-139.3256
 20
93.8873
 30
0.0
 10
-145.5371
 20
97.4735
 30
0.0
 10
-145.5371
 20
97.4735
 30
0.0
  0
SPLINE
  5
D4
330
1F
100
AcDbEntity
  8
layer 1
 62
     7
100
AcDbSpline
210
0.0
220
0.0
230
1.0
 70
    11
 71
     3
 72
    20
 73
    16
 74
     0
 42
0.0000000001
 43
0.0000000001
 12
1.0
 22
0.0
 32
0.0
 13
1.0
 23
0.0
 33
0.0
 40
0.0
 40
0.0
 40
0.0
 40
0.0
 40
0.2
 40
0.2
 40
0.2
 40
0.2
 40
0.4
 40
0.4
 40
0.4
 40
0.4
 40
0.6
 40
0.6
 40
0.6
 40
0.6
 40
1.0
 40
1.0
 40
1.0
 40
1.0
 10
-120.6034
 20
113.5847
 30
0.0
 10
-120.6034
 20
113.5847
 30
0.0
 10
-120.6214
 20
120.6811
 30
0.0
 10
-120.6214
 20
120.6811
 30
0.0
 10
-120.6214
 20
120.6811
 30
0.0
 10
-120.6214
 20
120.6811
 30
0.0
 10
-126.8149
 20
117.1054
 30
0.0
 10
-126.8149
 20
117.1054
 30
0.0
 10
-126.8149
 20
117.1054
 30
0.0
 10
-126.8149
 20
117.1054
 30
0.0
 10
-126.8149
 20
109.9985
 30
0.0
 10
-126.8149
 20
109.9985
 30
0.0
 10
-126.8149
 20
109.9985
 30
0.0
 10
-126.8149
 20
109.9985
 30
0.0
 10
-120.6034
 20
113.5847
 30
0.0
 10
-120.6034
 20
113.5847
 30
0.0
  0
SPLINE
  5
D5
330
1F
100
AcDbEntity
  8
layer 1
 62
     7
100
AcDbSpline
210
0.0
220
0.0
230
1.0
 70
    11
 71
     3
 72
    20
 73
    16
 74
     0
 42
0.0000000001
 43
0.0000000001
 12
1.0
 22
0.0
 32
0.0
 13
1.0
 23
0.0
 33
0.0
 40
0.0
 40
0.0
 40
0.0
 40
0.0
 40
0.2
 40
0.2
 40
0.2
 40
0.2
 40
0.4
 40
0.4
 40
0.4
 40
0.4
 40
0.6
 40
0.6
 40
0.6
 40
0.6
 40
1.0
 40
1.0
 40
1.0
 40
1.0
 10
-128.4421
 20
94.7695
 30
0.0
 10
-128.4421
 20
94.7695
 30
0.0
 10
-122.3055
 20
91.2057
 30
0.0
 10
-122.3055
 20
91.2057
 30
0.0
 10
-122.3055
 20
91.2057
 30
0.0
 10
-122.3055
 20
91.2057
 30
0.0
 10
-128.4989
 20
87.6299
 30
0.0
 10
-128.4989
 20
87.6299
 30
0.0
 10
-128.4989
 20
87.6299
 30
0.0
 10
-128.4989
 20
87.6299
 30
0.0
 10
-134.6536
 20
91.1833
 30
0.0
 10
-134.6536
 20
91.1833
 30
0.0
 10
-134.6536
 20
91.1833
 30
0.0
 10
-134.6536
 20
91.1833
 30
0.0
 10
-128.4421
 20
94.7695
 30
0.0
 10
-128.4421
 20
94.7695
 30
0.0
  0
SPLINE
  5
D6
330
1F
100
AcDbEntity
  8
layer 1
 62
     7
100
AcDbSpline
210
0.0
220
0.0
230
1.0
 70
    11
 71
     3
 72
    20
 73
    16
 74
     0
 42
0.0000000001
 43
0.0000000001
 12
1.0
 22
0.0
 32
0.0
 13
1.0
 23
0.0
 33
0.0
 40
0.0
 40
0.0
 40
0.0
 40
0.0
 40
0.2
 40
0.2
 40
0.2
 40
0.2
 40
0.4
 40
0.4
 40
0.4
 40
0.4
 40
0.6
 40
0.6
 40
0.6
 40
0.6
 40
1.0
 40
1.0
 40
1.0
 40
1.0
 10
-146.9502
 20
94.7695
 30
0.0
 10
-146.9502
 20
94.7695
 30
0.0
 10
-140.8135
 20
91.2057
 30
0.0
 10
-140.8135
 20
91.2057
 30
0.0
 10
-140.8135
 20
91.2057
 30
0.0
 10
-140.8135
 20
91.2057
 30
0.0
 10
-147.0069
 20
87.6299
 30
0.0
 10
-147.0069
 20
87.6299
 30
0.0
 10
-147.0069
 20
87.6299
 30
0.0
 10
-147.0069
 20
87.6299
 30
0.0
 10
-153.1617
 20
91.1833
 30
0.0
 10
-153.1617
 20
91.1833
 30
0.0
 10
-153.1617
 20
91.1833
 30
0.0
 10
-153.1617
 20
91.1833
 30
0.0
 10
-146.9502
 20
94.7695
 30
0.0
 10
-146.9502
 20
94.7695
 30
0.0
  0
SPLINE
  5
D7
330
1F
100
AcDbEntity
  8
layer 1
 62
     7
100
AcDbSpline
210
0.0
220
0.0
230
1.0
 70
    11
 71
     3
 72
    20
 73
    16
 74
     0
 42
0.0000000001
 43
0.0000000001
 12
1.0
 22
0.0
 32
0.0
 13
1.0
 23
0.0
 33
0.0
 40
0.0
 40
0.0
 40
0.0
 40
0.0
 40
0.2
 40
0.2
 40
0.2
 40
0.2
 40
0.4
 40
0.4
 40
0.4
 40
0.4
 40
0.6
 40
0.6
 40
0.6
 40
0.6
 40
1.0
 40
1.0
 40
1.0
 40
1.0
 10
-117.6963
 20
113.523
 30
0.0
 10
-117.6963
 20
113.523
 30
0.0
 10
-117.6782
 20
120.6195
 30
0.0
 10
-117.6782
 20
120.6195
 30
0.0
 10
-117.6782
 20
120.6195
 30
0.0
 10
-117.6782
 20
120.6195
 30
0.0
 10
-111.4848
 20
117.0437
 30
0.0
 10
-111.4848
 20
117.0437
 30
0.0
 10
-111.4848
 20
117.0437
 30
0.0
 10
-111.4848
 20
117.0437
 30
0.0
 10
-111.4848
 20
109.9368
 30
0.0
 10
-111.4848
 20
109.9368
 30
0.0
 10
-111.4848
 20
109.9368
 30
0.0
 10
-111.4848
 20
109.9368
 30
0.0
 10
-117.6963
 20
113.523
 30
0.0
 10
-117.6963
 20
113.523
 30
0.0
  0
SPLINE
  5
D8
330
1F
100
AcDbEntity
  8
layer 1
 62
     7
100
AcDbSpline
210
0.0
220
0.0
230
1.0
 70
    11
 71
     3
 72
    28
 73
    24
 74
     0
 42
0.0000000001
 43
0.0000000001
 12
1.0
 22
0.0
 32
0.0
 13
1.0
 23
0.0
 33
0.0
 40
0.0
 40
0.0
 40
0.0
 40
0.0
 40
0.1428571428571428
 40
0.1428571428571428
 40
0.1428571428571428
 40
0.1428571428571428
 40
0.2857142857142857
 40
0.2857142857142857
 40
0.2857142857142857
 40
0.2857142857142857
 40
0.4285714285714285
 40
0.4285714285714285
 40
0.4285714285714285
 40
0.4285714285714285
 40
0.5714285714285714
 40
0.5714285714285714
 40
0.5714285714285714
 40
0.5714285714285714
 40
0.7142857142857143
 40
0.7142857142857143
 40
0.7142857142857143
 40
0.7142857142857143
 40
1.0
 40
1.0
 40
1.0
 40
1.0
 10
-75.7283
 20
96.8057
 30
0.0
 10
-75.7283
 20
96.8057
 30
0.0
 10
-82.1658
 20
93.0872
 30
0.0
 10
-82.1658
 20
93.0872
 30
0.0
 10
-82.1658
 20
93.0872
 30
0.0
 10
-82.1658
 20
93.0872
 30
0.0
 10
-89.8512
 20
97.5267
 30
0.0
 10
-89.8512
 20
97.5267
 30
0.0
 10
-89.8512
 20
97.5267
 30
0.0
 10
-89.8512
 20
97.5267
 30
0.0
 10
-89.8512
 20
106.4056
 30
0.0
 10
-89.8512
 20
106.4056
 30
0.0
 10
-89.8512
 20
106.4056
 30
0.0
 10
-89.8512
 20
106.4056
 30
0.0
 10
-82.1658
 20
110.8451
 30
0.0
 10
-82.1658
 20
110.8451
 30
0.0
 10
-82.1658
 20
110.8451
 30
0.0
 10
-82.1658
 20
110.8451
 30
0.0
 10
-75.7393
 20
107.1329
 30
0.0
 10
-75.7393
 20
107.1329
 30
0.0
 10
-75.7393
 20
107.1329
 30
0.0
 10
-75.7393
 20
107.1329
 30
0.0
 10
-75.7283
 20
96.8057
 30
0.0
 10
-75.7283
 20
96.8057
 30
0.0
  0
SPLINE
  5
D9
330
1F
100
AcDbEntity
  8
layer 1
 62
     7
100
AcDbSpline
210
0.0
220
0.0
230
1.0
 70
    11
 71
     3
 72
    20
 73
    16
 74
     0
 42
0.0000000001
 43
0.0000000001
 12
1.0
 22
0.0
 32
0.0
 13
1.0
 23
0.0
 33
0.0
 40
0.0
 40
0.0
 40
0.0
 40
0.0
 40
0.2
 40
0.2
 40
0.2
 40
0.2
 40
0.4
 40
0.4
 40
0.4
 40
0.4
 40
0.6
 40
0.6
 40
0.6
 40
0.6
 40
1.0
 40
1.0
 40
1.0
 40
1.0
 10
-100.5973
 20
121.5377
 30
0.0
 10
-100.5973
 20
121.5377
 30
0.0
 10
-94.4606
 20
117.9738
 30
0.0
 10
-94.4606
 20
117.9738
 30
0.0
 10
-94.4606
 20
117.9738
 30
0.0
 10
-94.4606
 20
117.9738
 30
0.0
 10
-100.6541
 20
114.398
 30
0.0
 10
-100.6541
 20
114.398
 30
0.0
 10
-100.6541
 20
114.398
 30
0.0
 10
-100.6541
 20
114.398
 30
0.0
 10
-106.8088
 20
117.9515
 30
0.0
 10
-106.8088
 20
117.9515
 30
0.0
 10
-106.8088
 20
117.9515
 30
0.0
 10
-106.8088
 20
117.9515
 30
0.0
 10
-100.5973
 20
121.5377
 30
0.0
 10
-100.5973
 20
121.5377
 30
0.0
  0
SPLINE
  5
DA
330
1F
100
AcDbEntity
  8
layer 1
 62
     7
100
AcDbSpline
210
0.0
220
0.0
230
1.0
 70
    11
 71
     3
 72
    20
 73
    16
 74
     0
 42
0.0000000001
 43
0.0000000001
 12
1.0
 22
0.0
 32
0.0
 13
1.0
 23
0.0
 33
0.0
 40
0.0
 40
0.0
 40
0.0
 40
0.0
 40
0.2
 40
0.2
 40
0.2
 40
0.2
 40
0.4
 40
0.4
 40
0.4
 40
0.4
 40
0.6
 40
0.6
 40
0.6
 40
0.6
 40
1.0
 40
1.0
 40
1.0
 40
1.0
 10
-92.8701
 20
108.3121
 30
0.0
 10
-92.8701
 20
108.3121
 30
0.0
 10
-92.8882
 20
115.4085
 30
0.0
 10
-92.8882
 20
115.4085
 30
0.0
 10
-92.8882
 20
115.4085
 30
0.0
 10
-92.8882
 20
115.4085
 30
0.0
 10
-99.0816
 20
111.8328
 30
0.0
 10
-99.0816
 20
111.8328
 30
0.0
 10
-99.0816
 20
111.8328
 30
0.0
 10
-99.0816
 20
111.8328
 30
0.0
 10
-99.0816
 20
104.7259
 30
0.0
 10
-99.0816
 20
104.7259
 30
0.0
 10
-99.0816
 20
104.7259
 30
0.0
 10
-99.0816
 20
104.7259
 30
0.0
 10
-92.8701
 20
108.3121
 30
0.0
 10
-92.8701
 20
108.3121
 30
0.0
  0
SPLINE
  5
DB
330
1F
100
AcDbEntity
  8
layer 1
 62
     7
100
AcDbSpline
210
0.0
220
0.0
230
1.0
 70
    11
 71
     3
 72
    20
 73
    16
 74
     0
 42
0.0000000001
 43
0.0000000001
 12
1.0
 22
0.0
 32
0.0
 13
1.0
 23
0.0
 33
0.0
 40
0.0
 40
0.0
 40
0.0
 40
0.0
 40
0.2
 40
0.2
 40
0.2
 40
0.2
 40
0.4
 40
0.4
 40
0.4
 40
0.4
 40
0.6
 40
0.6
 40
0.6
 40
0.6
 40
1.0
 40
1.0
 40
1.0
 40
1.0
 10
-92.8701
 20
97.5437
 30
0.0
 10
-92.8701
 20
97.5437
 30
0.0
 10
-92.8882
 20
104.6402
 30
0.0
 10
-92.8882
 20
104.6402
 30
0.0
 10
-92.8882
 20
104.6402
 30
0.0
 10
-92.8882
 20
104.6402
 30
0.0
 10
-99.0816
 20
101.0644
 30
0.0
 10
-99.0816
 20
101.0644
 30
0.0
 10
-99.0816
 20
101.0644
 30
0.0
 10
-99.0816
 20
101.0644
 30
0.0
 10
-99.0816
 20
93.9575
 30
0.0
 10
-99.0816
 20
93.9575
 30
0.0
 10
-99.0816
 20
93.9575
 30
0.0
 10
-99.0816
 20
93.9575
 30
0.0
 10
-92.8701
 20
97.5437
 30
0.0
 10
-92.8701
 20
97.5437
 30
0.0
  0
SPLINE
  5
DC
330
1F
100
AcDbEntity
  8
layer 1
 62
     7
100
AcDbSpline
210
0.0
220
0.0
230
1.0
 70
    11
 71
     3
 72
    20
 73
    16
 74
     0
 42
0.0000000001
 43
0.0000000001
 12
1.0
 22
0.0
 32
0.0
 13
1.0
 23
0.0
 33
0.0
 40
0.0
 40
0.0
 40
0.0
 40
0.0
 40
0.2
 40
0.2
 40
0.2
 40
0.2
 40
0.4
 40
0.4
 40
0.4
 40
0.4
 40
0.6
 40
0.6
 40
0.6
 40
0.6
 40
1.0
 40
1.0
 40
1.0
 40
1.0
 10
-108.5481
 20
108.3121
 30
0.0
 10
-108.5481
 20
108.3121
 30
0.0
 10
-108.53
 20
115.4085
 30
0.0
 10
-108.53
 20
115.4085
 30
0.0
 10
-108.53
 20
115.4085
 30
0.0
 10
-108.53
 20
115.4085
 30
0.0
 10
-102.3366
 20
111.8328
 30
0.0
 10
-102.3366
 20
111.8328
 30
0.0
 10
-102.3366
 20
111.8328
 30
0.0
 10
-102.3366
 20
111.8328
 30
0.0
 10
-102.3366
 20
104.7259
 30
0.0
 10
-102.3366
 20
104.7259
 30
0.0
 10
-102.3366
 20
104.7259
 30
0.0
 10
-102.3366
 20
104.7259
 30
0.0
 10
-108.5481
 20
108.3121
 30
0.0
 10
-108.5481
 20
108.3121
 30
0.0
  0
SPLINE
  5
DD
330
1F
100
AcDbEntity
  8
layer 1
 62
     7
100
AcDbSpline
210
0.0
220
0.0
230
1.0
 70
    11
 71
     3
 72
    20
 73
    16
 74
     0
 42
0.0000000001
 43
0.0000000001
 12
1.0
 22
0.0
 32
0.0
 13
1.0
 23
0.0
 33
0.0
 40
0.0
 40
0.0
 40
0.0
 40
0.0
 40
0.2
 40
0.2
 40
0.2
 40
0.2
 40
0.4
 40
0.4
 40
0.4
 40
0.4
 40
0.6
 40
0.6
 40
0.6
 40
0.6
 40
1.0
 40
1.0
 40
1.0
 40
1.0
 10
-108.5481
 20
97.5437
 30
0.0
 10
-108.5481
 20
97.5437
 30
0.0
 10
-108.53
 20
104.6402
 30
0.0
 10
-108.53
 20
104.6402
 30
0.0
 10
-108.53
 20
104.6402
 30
0.0
 10
-108.53
 20
104.6402
 30
0.0
 10
-102.3366
 20
101.0644
 30
0.0
 10
-102.3366
 20
101.0644
 30
0.0
 10
-102.3366
 20
101.0644
 30
0.0
 10
-102.3366
 20
101.0644
 30
0.0
 10
-102.3366
 20
93.9575
 30
0.0
 10
-102.3366
 20
93.9575
 30
0.0
 10
-102.3366
 20
93.9575
 30
0.0
 10
-102.3366
 20
93.9575
 30
0.0
 10
-108.5481
 20
97.5437
 30
0.0
 10
-108.5481
 20
97.5437
 30
0.0
  0
SPLINE
  5
DE
330
1F
100
AcDbEntity
  8
layer 1
 62
     7
100
AcDbSpline
210
0.0
220
0.0
230
1.0
 70
    11
 71
     3
 72
    20
 73
    16
 74
     0
 42
0.0000000001
 43
0.0000000001
 12
1.0
 22
0.0
 32
0.0
 13
1.0
 23
0.0
 33
0.0
 40
0.0
 40
0.0
 40
0.0
 40
0.0
 40
0.2
 40
0.2
 40
0.2
 40
0.2
 40
0.4
 40
0.4
 40
0.4
 40
0.4
 40
0.6
 40
0.6
 40
0.6
 40
0.6
 40
1.0
 40
1.0
 40
1.0
 40
1.0
 10
-83.6144
 20
113.6549
 30
0.0
 10
-83.6144
 20
113.6549
 30
0.0
 10
-83.6325
 20
120.7514
 30
0.0
 10
-83.6325
 20
120.7514
 30
0.0
 10
-83.6325
 20
120.7514
 30
0.0
 10
-83.6325
 20
120.7514
 30
0.0
 10
-89.8259
 20
117.1756
 30
0.0
 10
-89.8259
 20
117.1756
 30
0.0
 10
-89.8259
 20
117.1756
 30
0.0
 10
-89.8259
 20
117.1756
 30
0.0
 10
-89.8259
 20
110.0687
 30
0.0
 10
-89.8259
 20
110.0687
 30
0.0
 10
-89.8259
 20
110.0687
 30
0.0
 10
-89.8259
 20
110.0687
 30
0.0
 10
-83.6144
 20
113.6549
 30
0.0
 10
-83.6144
 20
113.6549
 30
0.0
  0
SPLINE
  5
DF
330
1F
100
AcDbEntity
  8
layer 1
 62
     7
100
AcDbSpline
210
0.0
220
0.0
230
1.0
 70
    11
 71
     3
 72
    20
 73
    16
 74
     0
 42
0.0000000001
 43
0.0000000001
 12
1.0
 22
0.0
 32
0.0
 13
1.0
 23
0.0
 33
0.0
 40
0.0
 40
0.0
 40
0.0
 40
0.0
 40
0.2
 40
0.2
 40
0.2
 40
0.2
 40
0.4
 40
0.4
 40
0.4
 40
0.4
 40
0.6
 40
0.6
 40
0.6
 40
0.6
 40
1.0
 40
1.0
 40
1.0
 40
1.0
 10
-91.4532
 20
94.8398
 30
0.0
 10
-91.4532
 20
94.8398
 30
0.0
 10
-85.3165
 20
91.276
 30
0.0
 10
-85.3165
 20
91.276
 30
0.0
 10
-85.3165
 20
91.276
 30
0.0
 10
-85.3165
 20
91.276
 30
0.0
 10
-91.51
 20
87.7002
 30
0.0
 10
-91.51
 20
87.7002
 30
0.0
 10
-91.51
 20
87.7002
 30
0.0
 10
-91.51
 20
87.7002
 30
0.0
 10
-97.6647
 20
91.2536
 30
0.0
 10
-97.6647
 20
91.2536
 30
0.0
 10
-97.6647
 20
91.2536
 30
0.0
 10
-97.6647
 20
91.2536
 30
0.0
 10
-91.4532
 20
94.8398
 30
0.0
 10
-91.4532
 20
94.8398
 30
0.0
  0
SPLINE
  5
E0
330
1F
100
AcDbEntity
  8
layer 1
 62
     7
100
AcDbSpline
210
0.0
220
0.0
230
1.0
 70
    11
 71
     3
 72
    20
 73
    16
 74
     0
 42
0.0000000001
 43
0.0000000001
 12
1.0
 22
0.0
 32
0.0
 13
1.0
 23
0.0
 33
0.0
 40
0.0
 40
0.0
 40
0.0
 40
0.0
 40
0.2
 40
0.2
 40
0.2
 40
0.2
 40
0.4
 40
0.4
 40
0.4
 40
0.4
 40
0.6
 40
0.6
 40
0.6
 40
0.6
 40
1.0
 40
1.0
 40
1.0
 40
1.0
 10
-80.7074
 20
113.5933
 30
0.0
 10
-80.7074
 20
113.5933
 30
0.0
 10
-80.6893
 20
120.6897
 30
0.0
 10
-80.6893
 20
120.6897
 30
0.0
 10
-80.6893
 20
120.6897
 30
0.0
 10
-80.6893
 20
120.6897
 30
0.0
 10
-75.7089
 20
117.8144
 30
0.0
 10
-75.7089
 20
117.8144
 30
0.0
 10
-75.7089
 20
117.8144
 30
0.0
 10
-75.7089
 20
117.8144
 30
0.0
 10
-75.6755
 20
110.6882
 30
0.0
 10
-75.6755
 20
110.6882
 30
0.0
 10
-75.6755
 20
110.6882
 30
0.0
 10
-75.6755
 20
110.6882
 30
0.0
 10
-80.7074
 20
113.5933
 30
0.0
 10
-80.7074
 20
113.5933
 30
0.0
  0
SPLINE
  5
E1
330
1F
100
AcDbEntity
  8
layer 1
 62
     7
100
AcDbSpline
210
0.0
220
0.0
230
1.0
 70
    11
 71
     3
 72
    20
 73
    16
 74
     0
 42
0.0000000001
 43
0.0000000001
 12
1.0
 22
0.0
 32
0.0
 13
1.0
 23
0.0
 33
0.0
 40
0.0
 40
0.0
 40
0.0
 40
0.0
 40
0.2
 40
0.2
 40
0.2
 40
0.2
 40
0.4
 40
0.4
 40
0.4
 40
0.4
 40
0.6
 40
0.6
 40
0.6
 40
0.6
 40
1.0
 40
1.0
 40
1.0
 40
1.0
 10
-111.5743
 20
75.9205
 30
0.0
 10
-111.5743
 20
75.9205
 30
0.0
 10
-111.5924
 20
83.017
 30
0.0
 10
-111.5924
 20
83.017
 30
0.0
 10
-111.5924
 20
83.017
 30
0.0
 10
-111.5924
 20
83.017
 30
0.0
 10
-117.7858
 20
79.4412
 30
0.0
 10
-117.7858
 20
79.4412
 30
0.0
 10
-117.7858
 20
79.4412
 30
0.0
 10
-117.7858
 20
79.4412
 30
0.0
 10
-117.7858
 20
72.3343
 30
0.0
 10
-117.7858
 20
72.3343
 30
0.0
 10
-117.7858
 20
72.3343
 30
0.0
 10
-117.7858
 20
72.3343
 30
0.0
 10
-111.5743
 20
75.9205
 30
0.0
 10
-111.5743
 20
75.9205
 30
0.0
  0
SPLINE
  5
E2
330
1F
100
AcDbEntity
  8
layer 1
 62
     7
100
AcDbSpline
210
0.0
220
0.0
230
1.0
 70
    11
 71
     3
 72
    20
 73
    16
 74
     0
 42
0.0000000001
 43
0.0000000001
 12
1.0
 22
0.0
 32
0.0
 13
1.0
 23
0.0
 33
0.0
 40
0.0
 40
0.0
 40
0.0
 40
0.0
 40
0.2
 40
0.2
 40
0.2
 40
0.2
 40
0.4
 40
0.4
 40
0.4
 40
0.4
 40
0.6
 40
0.6
 40
0.6
 40
0.6
 40
1.0
 40
1.0
 40
1.0
 40
1.0
 10
-126.9012
 20
76.0874
 30
0.0
 10
-126.9012
 20
76.0874
 30
0.0
 10
-126.8831
 20
83.1838
 30
0.0
 10
-126.8831
 20
83.1838
 30
0.0
 10
-126.8831
 20
83.1838
 30
0.0
 10
-126.8831
 20
83.1838
 30
0.0
 10
-120.6897
 20
79.608
 30
0.0
 10
-120.6897
 20
79.608
 30
0.0
 10
-120.6897
 20
79.608
 30
0.0
 10
-120.6897
 20
79.608
 30
0.0
 10
-120.6897
 20
72.5012
 30
0.0
 10
-120.6897
 20
72.5012
 30
0.0
 10
-120.6897
 20
72.5012
 30
0.0
 10
-120.6897
 20
72.5012
 30
0.0
 10
-126.9012
 20
76.0874
 30
0.0
 10
-126.9012
 20
76.0874
 30
0.0
  0
SPLINE
  5
E3
330
1F
100
AcDbEntity
  8
layer 1
 62
     7
100
AcDbSpline
210
0.0
220
0.0
230
1.0
 70
    11
 71
     3
 72
    20
 73
    16
 74
     0
 42
0.0000000001
 43
0.0000000001
 12
1.0
 22
0.0
 32
0.0
 13
1.0
 23
0.0
 33
0.0
 40
0.0
 40
0.0
 40
0.0
 40
0.0
 40
0.2
 40
0.2
 40
0.2
 40
0.2
 40
0.4
 40
0.4
 40
0.4
 40
0.4
 40
0.6
 40
0.6
 40
0.6
 40
0.6
 40
1.0
 40
1.0
 40
1.0
 40
1.0
 10
-102.2915
 20
81.3715
 30
0.0
 10
-102.2915
 20
81.3715
 30
0.0
 10
-102.3096
 20
88.4679
 30
0.0
 10
-102.3096
 20
88.4679
 30
0.0
 10
-102.3096
 20
88.4679
 30
0.0
 10
-102.3096
 20
88.4679
 30
0.0
 10
-108.503
 20
84.8922
 30
0.0
 10
-108.503
 20
84.8922
 30
0.0
 10
-108.503
 20
84.8922
 30
0.0
 10
-108.503
 20
84.8922
 30
0.0
 10
-108.503
 20
77.7853
 30
0.0
 10
-108.503
 20
77.7853
 30
0.0
 10
-108.503
 20
77.7853
 30
0.0
 10
-108.503
 20
77.7853
 30
0.0
 10
-102.2915
 20
81.3715
 30
0.0
 10
-102.2915
 20
81.3715
 30
0.0
  0
SPLINE
  5
E4
330
1F
100
AcDbEntity
  8
layer 1
 62
     7
100
AcDbSpline
210
0.0
220
0.0
230
1.0
 70
    11
 71
     3
 72
    28
 73
    24
 74
     0
 42
0.0000000001
 43
0.0000000001
 12
1.0
 22
0.0
 32
0.0
 13
1.0
 23
0.0
 33
0.0
 40
0.0
 40
0.0
 40
0.0
 40
0.0
 40
0.1428571428571428
 40
0.1428571428571428
 40
0.1428571428571428
 40
0.1428571428571428
 40
0.2857142857142857
 40
0.2857142857142857
 40
0.2857142857142857
 40
0.2857142857142857
 40
0.4285714285714285
 40
0.4285714285714285
 40
0.4285714285714285
 40
0.4285714285714285
 40
0.5714285714285714
 40
0.5714285714285714
 40
0.5714285714285714
 40
0.5714285714285714
 40
0.7142857142857143
 40
0.7142857142857143
 40
0.7142857142857143
 40
0.7142857142857143
 40
1.0
 40
1.0
 40
1.0
 40
1.0
 10
-148.4966
 20
106.3353
 30
0.0
 10
-148.4966
 20
106.3353
 30
0.0
 10
-148.4966
 20
97.4564
 30
0.0
 10
-148.4966
 20
97.4564
 30
0.0
 10
-148.4966
 20
97.4564
 30
0.0
 10
-148.4966
 20
97.4564
 30
0.0
 10
-156.182
 20
93.0169
 30
0.0
 10
-156.182
 20
93.0169
 30
0.0
 10
-156.182
 20
93.0169
 30
0.0
 10
-156.182
 20
93.0169
 30
0.0
 10
-163.8675
 20
97.4564
 30
0.0
 10
-163.8675
 20
97.4564
 30
0.0
 10
-163.8675
 20
97.4564
 30
0.0
 10
-163.8675
 20
97.4564
 30
0.0
 10
-163.8675
 20
106.3353
 30
0.0
 10
-163.8675
 20
106.3353
 30
0.0
 10
-163.8675
 20
106.3353
 30
0.0
 10
-163.8675
 20
106.3353
 30
0.0
 10
-156.182
 20
110.7748
 30
0.0
 10
-156.182
 20
110.7748
 30
0.0
 10
-156.182
 20
110.7748
 30
0.0
 10
-156.182
 20
110.7748
 30
0.0
 10
-148.4966
 20
106.3353
 30
0.0
 10
-148.4966
 20
106.3353
 30
0.0
  0
SPLINE
  5
E5
330
1F
100
AcDbEntity
  8
layer 1
 62
     7
100
AcDbSpline
210
0.0
220
0.0
230
1.0
 70
    11
 71
     3
 72
    20
 73
    16
 74
     0
 42
0.0000000001
 43
0.0000000001
 12
1.0
 22
0.0
 32
0.0
 13
1.0
 23
0.0
 33
0.0
 40
0.0
 40
0.0
 40
0.0
 40
0.0
 40
0.2
 40
0.2
 40
0.2
 40
0.2
 40
0.4
 40
0.4
 40
0.4
 40
0.4
 40
0.6
 40
0.6
 40
0.6
 40
0.6
 40
1.0
 40
1.0
 40
1.0
 40
1.0
 10
-174.6136
 20
121.4674
 30
0.0
 10
-174.6136
 20
121.4674
 30
0.0
 10
-168.477
 20
117.9036
 30
0.0
 10
-168.477
 20
117.9036
 30
0.0
 10
-168.477
 20
117.9036
 30
0.0
 10
-168.477
 20
117.9036
 30
0.0
 10
-174.6705
 20
114.3278
 30
0.0
 10
-174.6705
 20
114.3278
 30
0.0
 10
-174.6705
 20
114.3278
 30
0.0
 10
-174.6705
 20
114.3278
 30
0.0
 10
-180.8252
 20
117.8812
 30
0.0
 10
-180.8252
 20
117.8812
 30
0.0
 10
-180.8252
 20
117.8812
 30
0.0
 10
-180.8252
 20
117.8812
 30
0.0
 10
-174.6136
 20
121.4674
 30
0.0
 10
-174.6136
 20
121.4674
 30
0.0
  0
SPLINE
  5
E6
330
1F
100
AcDbEntity
  8
layer 1
 62
     7
100
AcDbSpline
210
0.0
220
0.0
230
1.0
 70
    11
 71
     3
 72
    20
 73
    16
 74
     0
 42
0.0000000001
 43
0.0000000001
 12
1.0
 22
0.0
 32
0.0
 13
1.0
 23
0.0
 33
0.0
 40
0.0
 40
0.0
 40
0.0
 40
0.0
 40
0.2
 40
0.2
 40
0.2
 40
0.2
 40
0.4
 40
0.4
 40
0.4
 40
0.4
 40
0.6
 40
0.6
 40
0.6
 40
0.6
 40
1.0
 40
1.0
 40
1.0
 40
1.0
 10
-166.8865
 20
108.2418
 30
0.0
 10
-166.8865
 20
108.2418
 30
0.0
 10
-166.9046
 20
115.3382
 30
0.0
 10
-166.9046
 20
115.3382
 30
0.0
 10
-166.9046
 20
115.3382
 30
0.0
 10
-166.9046
 20
115.3382
 30
0.0
 10
-173.098
 20
111.7625
 30
0.0
 10
-173.098
 20
111.7625
 30
0.0
 10
-173.098
 20
111.7625
 30
0.0
 10
-173.098
 20
111.7625
 30
0.0
 10
-173.098
 20
104.6556
 30
0.0
 10
-173.098
 20
104.6556
 30
0.0
 10
-173.098
 20
104.6556
 30
0.0
 10
-173.098
 20
104.6556
 30
0.0
 10
-166.8865
 20
108.2418
 30
0.0
 10
-166.8865
 20
108.2418
 30
0.0
  0
SPLINE
  5
E7
330
1F
100
AcDbEntity
  8
layer 1
 62
     7
100
AcDbSpline
210
0.0
220
0.0
230
1.0
 70
    11
 71
     3
 72
    20
 73
    16
 74
     0
 42
0.0000000001
 43
0.0000000001
 12
1.0
 22
0.0
 32
0.0
 13
1.0
 23
0.0
 33
0.0
 40
0.0
 40
0.0
 40
0.0
 40
0.0
 40
0.2
 40
0.2
 40
0.2
 40
0.2
 40
0.4
 40
0.4
 40
0.4
 40
0.4
 40
0.6
 40
0.6
 40
0.6
 40
0.6
 40
1.0
 40
1.0
 40
1.0
 40
1.0
 10
-166.8865
 20
97.4735
 30
0.0
 10
-166.8865
 20
97.4735
 30
0.0
 10
-166.9046
 20
104.5699
 30
0.0
 10
-166.9046
 20
104.5699
 30
0.0
 10
-166.9046
 20
104.5699
 30
0.0
 10
-166.9046
 20
104.5699
 30
0.0
 10
-173.098
 20
100.9942
 30
0.0
 10
-173.098
 20
100.9942
 30
0.0
 10
-173.098
 20
100.9942
 30
0.0
 10
-173.098
 20
100.9942
 30
0.0
 10
-173.098
 20
93.8873
 30
0.0
 10
-173.098
 20
93.8873
 30
0.0
 10
-173.098
 20
93.8873
 30
0.0
 10
-173.098
 20
93.8873
 30
0.0
 10
-166.8865
 20
97.4735
 30
0.0
 10
-166.8865
 20
97.4735
 30
0.0
  0
SPLINE
  5
E8
330
1F
100
AcDbEntity
  8
layer 1
 62
     7
100
AcDbSpline
210
0.0
220
0.0
230
1.0
 70
    11
 71
     3
 72
    20
 73
    16
 74
     0
 42
0.0000000001
 43
0.0000000001
 12
1.0
 22
0.0
 32
0.0
 13
1.0
 23
0.0
 33
0.0
 40
0.0
 40
0.0
 40
0.0
 40
0.0
 40
0.2
 40
0.2
 40
0.2
 40
0.2
 40
0.4
 40
0.4
 40
0.4
 40
0.4
 40
0.6
 40
0.6
 40
0.6
 40
0.6
 40
1.0
 40
1.0
 40
1.0
 40
1.0
 10
-181.1727
 20
114.5452
 30
0.0
 10
-181.1727
 20
114.5452
 30
0.0
 10
-176.353
 20
111.7625
 30
0.0
 10
-176.353
 20
111.7625
 30
0.0
 10
-176.353
 20
111.7625
 30
0.0
 10
-176.353
 20
111.7625
 30
0.0
 10
-176.353
 20
104.6556
 30
0.0
 10
-176.353
 20
104.6556
 30
0.0
 10
-176.353
 20
104.6556
 30
0.0
 10
-176.353
 20
104.6556
 30
0.0
 10
-181.1357
 20
107.4169
 30
0.0
 10
-181.1357
 20
107.4169
 30
0.0
 10
-181.1357
 20
107.4169
 30
0.0
 10
-181.1357
 20
107.4169
 30
0.0
 10
-181.1727
 20
114.5452
 30
0.0
 10
-181.1727
 20
114.5452
 30
0.0
  0
SPLINE
  5
E9
330
1F
100
AcDbEntity
  8
layer 1
 62
     7
100
AcDbSpline
210
0.0
220
0.0
230
1.0
 70
    11
 71
     3
 72
    20
 73
    16
 74
     0
 42
0.0000000001
 43
0.0000000001
 12
1.0
 22
0.0
 32
0.0
 13
1.0
 23
0.0
 33
0.0
 40
0.0
 40
0.0
 40
0.0
 40
0.0
 40
0.2
 40
0.2
 40
0.2
 40
0.2
 40
0.4
 40
0.4
 40
0.4
 40
0.4
 40
0.6
 40
0.6
 40
0.6
 40
0.6
 40
1.0
 40
1.0
 40
1.0
 40
1.0
 10
-181.1037
 20
103.7369
 30
0.0
 10
-181.1037
 20
103.7369
 30
0.0
 10
-176.353
 20
100.9941
 30
0.0
 10
-176.353
 20
100.9941
 30
0.0
 10
-176.353
 20
100.9941
 30
0.0
 10
-176.353
 20
100.9941
 30
0.0
 10
-176.353
 20
93.8872
 30
0.0
 10
-176.353
 20
93.8872
 30
0.0
 10
-176.353
 20
93.8872
 30
0.0
 10
-176.353
 20
93.8872
 30
0.0
 10
-181.1282
 20
96.6442
 30
0.0
 10
-181.1282
 20
96.6442
 30
0.0
 10
-181.1282
 20
96.6442
 30
0.0
 10
-181.1282
 20
96.6442
 30
0.0
 10
-181.1037
 20
103.7369
 30
0.0
 10
-181.1037
 20
103.7369
 30
0.0
  0
SPLINE
  5
EA
330
1F
100
AcDbEntity
  8
layer 1
 62
     7
100
AcDbSpline
210
0.0
220
0.0
230
1.0
 70
    11
 71
     3
 72
    20
 73
    16
 74
     0
 42
0.0000000001
 43
0.0000000001
 12
1.0
 22
0.0
 32
0.0
 13
1.0
 23
0.0
 33
0.0
 40
0.0
 40
0.0
 40
0.0
 40
0.0
 40
0.2
 40
0.2
 40
0.2
 40
0.2
 40
0.4
 40
0.4
 40
0.4
 40
0.4
 40
0.6
 40
0.6
 40
0.6
 40
0.6
 40
1.0
 40
1.0
 40
1.0
 40
1.0
 10
-157.6308
 20
113.5847
 30
0.0
 10
-157.6308
 20
113.5847
 30
0.0
 10
-157.6489
 20
120.6811
 30
0.0
 10
-157.6489
 20
120.6811
 30
0.0
 10
-157.6489
 20
120.6811
 30
0.0
 10
-157.6489
 20
120.6811
 30
0.0
 10
-163.8423
 20
117.1054
 30
0.0
 10
-163.8423
 20
117.1054
 30
0.0
 10
-163.8423
 20
117.1054
 30
0.0
 10
-163.8423
 20
117.1054
 30
0.0
 10
-163.8423
 20
109.9985
 30
0.0
 10
-163.8423
 20
109.9985
 30
0.0
 10
-163.8423
 20
109.9985
 30
0.0
 10
-163.8423
 20
109.9985
 30
0.0
 10
-157.6308
 20
113.5847
 30
0.0
 10
-157.6308
 20
113.5847
 30
0.0
  0
SPLINE
  5
EB
330
1F
100
AcDbEntity
  8
layer 1
 62
     7
100
AcDbSpline
210
0.0
220
0.0
230
1.0
 70
    11
 71
     3
 72
    20
 73
    16
 74
     0
 42
0.0000000001
 43
0.0000000001
 12
1.0
 22
0.0
 32
0.0
 13
1.0
 23
0.0
 33
0.0
 40
0.0
 40
0.0
 40
0.0
 40
0.0
 40
0.2
 40
0.2
 40
0.2
 40
0.2
 40
0.4
 40
0.4
 40
0.4
 40
0.4
 40
0.6
 40
0.6
 40
0.6
 40
0.6
 40
1.0
 40
1.0
 40
1.0
 40
1.0
 10
-165.4695
 20
94.7695
 30
0.0
 10
-165.4695
 20
94.7695
 30
0.0
 10
-159.3328
 20
91.2057
 30
0.0
 10
-159.3328
 20
91.2057
 30
0.0
 10
-159.3328
 20
91.2057
 30
0.0
 10
-159.3328
 20
91.2057
 30
0.0
 10
-165.5262
 20
87.6299
 30
0.0
 10
-165.5262
 20
87.6299
 30
0.0
 10
-165.5262
 20
87.6299
 30
0.0
 10
-165.5262
 20
87.6299
 30
0.0
 10
-171.681
 20
91.1833
 30
0.0
 10
-171.681
 20
91.1833
 30
0.0
 10
-171.681
 20
91.1833
 30
0.0
 10
-171.681
 20
91.1833
 30
0.0
 10
-165.4695
 20
94.7695
 30
0.0
 10
-165.4695
 20
94.7695
 30
0.0
  0
SPLINE
  5
EC
330
1F
100
AcDbEntity
  8
layer 1
 62
     7
100
AcDbSpline
210
0.0
220
0.0
230
1.0
 70
    11
 71
     3
 72
    20
 73
    16
 74
     0
 42
0.0000000001
 43
0.0000000001
 12
1.0
 22
0.0
 32
0.0
 13
1.0
 23
0.0
 33
0.0
 40
0.0
 40
0.0
 40
0.0
 40
0.0
 40
0.2
 40
0.2
 40
0.2
 40
0.2
 40
0.4
 40
0.4
 40
0.4
 40
0.4
 40
0.6
 40
0.6
 40
0.6
 40
0.6
 40
1.0
 40
1.0
 40
1.0
 40
1.0
 10
-154.7236
 20
113.523
 30
0.0
 10
-154.7236
 20
113.523
 30
0.0
 10
-154.7056
 20
120.6195
 30
0.0
 10
-154.7056
 20
120.6195
 30
0.0
 10
-154.7056
 20
120.6195
 30
0.0
 10
-154.7056
 20
120.6195
 30
0.0
 10
-148.5121
 20
117.0437
 30
0.0
 10
-148.5121
 20
117.0437
 30
0.0
 10
-148.5121
 20
117.0437
 30
0.0
 10
-148.5121
 20
117.0437
 30
0.0
 10
-148.5121
 20
109.9368
 30
0.0
 10
-148.5121
 20
109.9368
 30
0.0
 10
-148.5121
 20
109.9368
 30
0.0
 10
-148.5121
 20
109.9368
 30
0.0
 10
-154.7236
 20
113.523
 30
0.0
 10
-154.7236
 20
113.523
 30
0.0
  0
SPLINE
  5
ED
330
1F
100
AcDbEntity
  8
layer 1
 62
     7
100
AcDbSpline
210
0.0
220
0.0
230
1.0
 70
    11
 71
     3
 72
    16
 73
    12
 74
     0
 42
0.0000000001
 43
0.0000000001
 12
1.0
 22
0.0
 32
0.0
 13
1.0
 23
0.0
 33
0.0
 40
0.0
 40
0.0
 40
0.0
 40
0.0
 40
0.25
 40
0.25
 40
0.25
 40
0.25
 40
0.5
 40
0.5
 40
0.5
 40
0.5
 40
1.0
 40
1.0
 40
1.0
 40
1.0
 10
-181.1328
 20
93.0235
 30
0.0
 10
-181.1328
 20
93.0235
 30
0.0
 10
-178.0028
 20
91.2057
 30
0.0
 10
-178.0028
 20
91.2057
 30
0.0
 10
-178.0028
 20
91.2057
 30
0.0
 10
-178.0028
 20
91.2057
 30
0.0
 10
-181.1429
 20
89.3927
 30
0.0
 10
-181.1429
 20
89.3927
 30
0.0
 10
-181.1429
 20
89.3927
 30
0.0
 10
-181.1429
 20
89.3927
 30
0.0
 10
-181.1328
 20
93.0235
 30
0.0
 10
-181.1328
 20
93.0235
 30
0.0
  0
SPLINE
  5
EE
330
1F
100
AcDbEntity
  8
layer 1
 62
     7
100
AcDbSpline
210
0.0
220
0.0
230
1.0
 70
    11
 71
     3
 72
    20
 73
    16
 74
     0
 42
0.0000000001
 43
0.0000000001
 12
1.0
 22
0.0
 32
0.0
 13
1.0
 23
0.0
 33
0.0
 40
0.0
 40
0.0
 40
0.0
 40
0.0
 40
0.2
 40
0.2
 40
0.2
 40
0.2
 40
0.4
 40
0.4
 40
0.4
 40
0.4
 40
0.6
 40
0.6
 40
0.6
 40
0.6
 40
1.0
 40
1.0
 40
1.0
 40
1.0
 10
-181.1313
 20
78.6388
 30
0.0
 10
-181.1313
 20
78.6388
 30
0.0
 10
-176.353
 20
81.3976
 30
0.0
 10
-176.353
 20
81.3976
 30
0.0
 10
-176.353
 20
81.3976
 30
0.0
 10
-176.353
 20
81.3976
 30
0.0
 10
-176.353
 20
88.5044
 30
0.0
 10
-176.353
 20
88.5044
 30
0.0
 10
-176.353
 20
88.5044
 30
0.0
 10
-176.353
 20
88.5044
 30
0.0
 10
-181.1281
 20
85.7475
 30
0.0
 10
-181.1281
 20
85.7475
 30
0.0
 10
-181.1281
 20
85.7475
 30
0.0
 10
-181.1281
 20
85.7475
 30
0.0
 10
-181.1313
 20
78.6388
 30
0.0
 10
-181.1313
 20
78.6388
 30
0.0
  0
SPLINE
  5
EF
330
1F
100
AcDbEntity
  8
layer 1
 62
     7
100
AcDbSpline
210
0.0
220
0.0
230
1.0
 70
    11
 71
     3
 72
    20
 73
    16
 74
     0
 42
0.0000000001
 43
0.0000000001
 12
1.0
 22
0.0
 32
0.0
 13
1.0
 23
0.0
 33
0.0
 40
0.0
 40
0.0
 40
0.0
 40
0.0
 40
0.2
 40
0.2
 40
0.2
 40
0.2
 40
0.4
 40
0.4
 40
0.4
 40
0.4
 40
0.6
 40
0.6
 40
0.6
 40
0.6
 40
1.0
 40
1.0
 40
1.0
 40
1.0
 10
-166.8865
 20
84.9673
 30
0.0
 10
-166.8865
 20
84.9673
 30
0.0
 10
-166.9046
 20
77.8709
 30
0.0
 10
-166.9046
 20
77.8709
 30
0.0
 10
-166.9046
 20
77.8709
 30
0.0
 10
-166.9046
 20
77.8709
 30
0.0
 10
-173.098
 20
81.4467
 30
0.0
 10
-173.098
 20
81.4467
 30
0.0
 10
-173.098
 20
81.4467
 30
0.0
 10
-173.098
 20
81.4467
 30
0.0
 10
-173.098
 20
88.5535
 30
0.0
 10
-173.098
 20
88.5535
 30
0.0
 10
-173.098
 20
88.5535
 30
0.0
 10
-173.098
 20
88.5535
 30
0.0
 10
-166.8865
 20
84.9673
 30
0.0
 10
-166.8865
 20
84.9673
 30
0.0
  0
SPLINE
  5
F0
330
1F
100
AcDbEntity
  8
layer 1
 62
     7
100
AcDbSpline
210
0.0
220
0.0
230
1.0
 70
    11
 71
     3
 72
    20
 73
    16
 74
     0
 42
0.0000000001
 43
0.0000000001
 12
1.0
 22
0.0
 32
0.0
 13
1.0
 23
0.0
 33
0.0
 40
0.0
 40
0.0
 40
0.0
 40
0.0
 40
0.2
 40
0.2
 40
0.2
 40
0.2
 40
0.4
 40
0.4
 40
0.4
 40
0.4
 40
0.6
 40
0.6
 40
0.6
 40
0.6
 40
1.0
 40
1.0
 40
1.0
 40
1.0
 10
-156.144
 20
89.4167
 30
0.0
 10
-156.144
 20
89.4167
 30
0.0
 10
-150.0073
 20
85.8529
 30
0.0
 10
-150.0073
 20
85.8529
 30
0.0
 10
-150.0073
 20
85.8529
 30
0.0
 10
-150.0073
 20
85.8529
 30
0.0
 10
-156.2007
 20
82.2771
 30
0.0
 10
-156.2007
 20
82.2771
 30
0.0
 10
-156.2007
 20
82.2771
 30
0.0
 10
-156.2007
 20
82.2771
 30
0.0
 10
-162.3555
 20
85.8306
 30
0.0
 10
-162.3555
 20
85.8306
 30
0.0
 10
-162.3555
 20
85.8306
 30
0.0
 10
-162.3555
 20
85.8306
 30
0.0
 10
-156.144
 20
89.4167
 30
0.0
 10
-156.144
 20
89.4167
 30
0.0
  0
SPLINE
  5
F1
330
1F
100
AcDbEntity
  8
layer 1
 62
     7
100
AcDbSpline
210
0.0
220
0.0
230
1.0
 70
    11
 71
     3
 72
    20
 73
    16
 74
     0
 42
0.0000000001
 43
0.0000000001
 12
1.0
 22
0.0
 32
0.0
 13
1.0
 23
0.0
 33
0.0
 40
0.0
 40
0.0
 40
0.0
 40
0.0
 40
0.2
 40
0.2
 40
0.2
 40
0.2
 40
0.4
 40
0.4
 40
0.4
 40
0.4
 40
0.6
 40
0.6
 40
0.6
 40
0.6
 40
1.0
 40
1.0
 40
1.0
 40
1.0
 10
-110.0422
 20
94.7695
 30
0.0
 10
-110.0422
 20
94.7695
 30
0.0
 10
-103.9056
 20
91.2057
 30
0.0
 10
-103.9056
 20
91.2057
 30
0.0
 10
-103.9056
 20
91.2057
 30
0.0
 10
-103.9056
 20
91.2057
 30
0.0
 10
-110.099
 20
87.6299
 30
0.0
 10
-110.099
 20
87.6299
 30
0.0
 10
-110.099
 20
87.6299
 30
0.0
 10
-110.099
 20
87.6299
 30
0.0
 10
-116.2537
 20
91.1833
 30
0.0
 10
-116.2537
 20
91.1833
 30
0.0
 10
-116.2537
 20
91.1833
 30
0.0
 10
-116.2537
 20
91.1833
 30
0.0
 10
-110.0422
 20
94.7695
 30
0.0
 10
-110.0422
 20
94.7695
 30
0.0
  0
SPLINE
  5
F2
330
1F
100
AcDbEntity
  8
layer 1
 62
     7
100
AcDbSpline
210
0.0
220
0.0
230
1.0
 70
    11
 71
     3
 72
    20
 73
    16
 74
     0
 42
0.0000000001
 43
0.0000000001
 12
1.0
 22
0.0
 32
0.0
 13
1.0
 23
0.0
 33
0.0
 40
0.0
 40
0.0
 40
0.0
 40
0.0
 40
0.2
 40
0.2
 40
0.2
 40
0.2
 40
0.4
 40
0.4
 40
0.4
 40
0.4
 40
0.6
 40
0.6
 40
0.6
 40
0.6
 40
1.0
 40
1.0
 40
1.0
 40
1.0
 10
-119.2361
 20
89.4167
 30
0.0
 10
-119.2361
 20
89.4167
 30
0.0
 10
-113.0995
 20
85.8529
 30
0.0
 10
-113.0995
 20
85.8529
 30
0.0
 10
-113.0995
 20
85.8529
 30
0.0
 10
-113.0995
 20
85.8529
 30
0.0
 10
-119.2929
 20
82.2771
 30
0.0
 10
-119.2929
 20
82.2771
 30
0.0
 10
-119.2929
 20
82.2771
 30
0.0
 10
-119.2929
 20
82.2771
 30
0.0
 10
-125.4476
 20
85.8306
 30
0.0
 10
-125.4476
 20
85.8306
 30
0.0
 10
-125.4476
 20
85.8306
 30
0.0
 10
-125.4476
 20
85.8306
 30
0.0
 10
-119.2361
 20
89.4167
 30
0.0
 10
-119.2361
 20
89.4167
 30
0.0
  0
SPLINE
  5
F3
330
1F
100
AcDbEntity
  8
layer 1
 62
     7
100
AcDbSpline
210
0.0
220
0.0
230
1.0
 70
    11
 71
     3
 72
    16
 73
    12
 74
     0
 42
0.0000000001
 43
0.0000000001
 12
1.0
 22
0.0
 32
0.0
 13
1.0
 23
0.0
 33
0.0
 40
0.0
 40
0.0
 40
0.0
 40
0.0
 40
0.25
 40
0.25
 40
0.25
 40
0.25
 40
0.5
 40
0.5
 40
0.5
 40
0.5
 40
1.0
 40
1.0
 40
1.0
 40
1.0
 10
-75.7481
 20
89.1481
 30
0.0
 10
-75.7481
 20
89.1481
 30
0.0
 10
-79.2732
 20
91.1833
 30
0.0
 10
-79.2732
 20
91.1833
 30
0.0
 10
-79.2732
 20
91.1833
 30
0.0
 10
-79.2732
 20
91.1833
 30
0.0
 10
-75.7194
 20
93.2351
 30
0.0
 10
-75.7194
 20
93.2351
 30
0.0
 10
-75.7194
 20
93.2351
 30
0.0
 10
-75.7194
 20
93.2351
 30
0.0
 10
-75.7481
 20
89.1481
 30
0.0
 10
-75.7481
 20
89.1481
 30
0.0
  0
SPLINE
  5
F4
330
1F
100
AcDbEntity
  8
layer 1
 62
     7
100
AcDbSpline
210
0.0
220
0.0
230
1.0
 70
    11
 71
     3
 72
    20
 73
    16
 74
     0
 42
0.0000000001
 43
0.0000000001
 12
1.0
 22
0.0
 32
0.0
 13
1.0
 23
0.0
 33
0.0
 40
0.0
 40
0.0
 40
0.0
 40
0.0
 40
0.2
 40
0.2
 40
0.2
 40
0.2
 40
0.4
 40
0.4
 40
0.4
 40
0.4
 40
0.6
 40
0.6
 40
0.6
 40
0.6
 40
1.0
 40
1.0
 40
1.0
 40
1.0
 10
-82.2555
 20
89.4167
 30
0.0
 10
-82.2555
 20
89.4167
 30
0.0
 10
-76.1189
 20
85.8529
 30
0.0
 10
-76.1189
 20
85.8529
 30
0.0
 10
-76.1189
 20
85.8529
 30
0.0
 10
-76.1189
 20
85.8529
 30
0.0
 10
-82.3123
 20
82.2771
 30
0.0
 10
-82.3123
 20
82.2771
 30
0.0
 10
-82.3123
 20
82.2771
 30
0.0
 10
-82.3123
 20
82.2771
 30
0.0
 10
-88.467
 20
85.8306
 30
0.0
 10
-88.467
 20
85.8306
 30
0.0
 10
-88.467
 20
85.8306
 30
0.0
 10
-88.467
 20
85.8306
 30
0.0
 10
-82.2555
 20
89.4167
 30
0.0
 10
-82.2555
 20
89.4167
 30
0.0
  0
SPLINE
  5
F5
330
1F
100
AcDbEntity
  8
layer 1
 62
     7
100
AcDbSpline
210
0.0
220
0.0
230
1.0
 70
    11
 71
     3
 72
    20
 73
    16
 74
     0
 42
0.0000000001
 43
0.0000000001
 12
1.0
 22
0.0
 32
0.0
 13
1.0
 23
0.0
 33
0.0
 40
0.0
 40
0.0
 40
0.0
 40
0.0
 40
0.2
 40
0.2
 40
0.2
 40
0.2
 40
0.4
 40
0.4
 40
0.4
 40
0.4
 40
0.6
 40
0.6
 40
0.6
 40
0.6
 40
1.0
 40
1.0
 40
1.0
 40
1.0
 10
-148.5632
 20
76.0665
 30
0.0
 10
-148.5632
 20
76.0665
 30
0.0
 10
-148.5813
 20
83.1629
 30
0.0
 10
-148.5813
 20
83.1629
 30
0.0
 10
-148.5813
 20
83.1629
 30
0.0
 10
-148.5813
 20
83.1629
 30
0.0
 10
-154.7747
 20
79.5871
 30
0.0
 10
-154.7747
 20
79.5871
 30
0.0
 10
-154.7747
 20
79.5871
 30
0.0
 10
-154.7747
 20
79.5871
 30
0.0
 10
-154.7747
 20
72.4803
 30
0.0
 10
-154.7747
 20
72.4803
 30
0.0
 10
-154.7747
 20
72.4803
 30
0.0
 10
-154.7747
 20
72.4803
 30
0.0
 10
-148.5632
 20
76.0665
 30
0.0
 10
-148.5632
 20
76.0665
 30
0.0
  0
SPLINE
  5
F6
330
1F
100
AcDbEntity
  8
layer 1
 62
     7
100
AcDbSpline
210
0.0
220
0.0
230
1.0
 70
    11
 71
     3
 72
    20
 73
    16
 74
     0
 42
0.0000000001
 43
0.0000000001
 12
1.0
 22
0.0
 32
0.0
 13
1.0
 23
0.0
 33
0.0
 40
0.0
 40
0.0
 40
0.0
 40
0.0
 40
0.2
 40
0.2
 40
0.2
 40
0.2
 40
0.4
 40
0.4
 40
0.4
 40
0.4
 40
0.6
 40
0.6
 40
0.6
 40
0.6
 40
1.0
 40
1.0
 40
1.0
 40
1.0
 10
-163.9893
 20
76.0665
 30
0.0
 10
-163.9893
 20
76.0665
 30
0.0
 10
-163.9712
 20
83.1629
 30
0.0
 10
-163.9712
 20
83.1629
 30
0.0
 10
-163.9712
 20
83.1629
 30
0.0
 10
-163.9712
 20
83.1629
 30
0.0
 10
-157.7777
 20
79.5871
 30
0.0
 10
-157.7777
 20
79.5871
 30
0.0
 10
-157.7777
 20
79.5871
 30
0.0
 10
-157.7777
 20
79.5871
 30
0.0
 10
-157.7777
 20
72.4803
 30
0.0
 10
-157.7777
 20
72.4803
 30
0.0
 10
-157.7777
 20
72.4803
 30
0.0
 10
-157.7777
 20
72.4803
 30
0.0
 10
-163.9893
 20
76.0665
 30
0.0
 10
-163.9893
 20
76.0665
 30
0.0
  0
SPLINE
  5
F7
330
1F
100
AcDbEntity
  8
layer 1
 62
     7
100
AcDbSpline
210
0.0
220
0.0
230
1.0
 70
    11
 71
     3
 72
    20
 73
    16
 74
     0
 42
0.0000000001
 43
0.0000000001
 12
1.0
 22
0.0
 32
0.0
 13
1.0
 23
0.0
 33
0.0
 40
0.0
 40
0.0
 40
0.0
 40
0.0
 40
0.2
 40
0.2
 40
0.2
 40
0.2
 40
0.4
 40
0.4
 40
0.4
 40
0.4
 40
0.6
 40
0.6
 40
0.6
 40
0.6
 40
1.0
 40
1.0
 40
1.0
 40
1.0
 10
-139.3075
 20
81.4093
 30
0.0
 10
-139.3075
 20
81.4093
 30
0.0
 10
-139.3256
 20
88.5057
 30
0.0
 10
-139.3256
 20
88.5057
 30
0.0
 10
-139.3256
 20
88.5057
 30
0.0
 10
-139.3256
 20
88.5057
 30
0.0
 10
-145.519
 20
84.9299
 30
0.0
 10
-145.519
 20
84.9299
 30
0.0
 10
-145.519
 20
84.9299
 30
0.0
 10
-145.519
 20
84.9299
 30
0.0
 10
-145.519
 20
77.8231
 30
0.0
 10
-145.519
 20
77.8231
 30
0.0
 10
-145.519
 20
77.8231
 30
0.0
 10
-145.519
 20
77.8231
 30
0.0
 10
-139.3075
 20
81.4093
 30
0.0
 10
-139.3075
 20
81.4093
 30
0.0
  0
SPLINE
  5
F8
330
1F
100
AcDbEntity
  8
layer 1
 62
     7
100
AcDbSpline
210
0.0
220
0.0
230
1.0
 70
    11
 71
     3
 72
    20
 73
    16
 74
     0
 42
0.0000000001
 43
0.0000000001
 12
1.0
 22
0.0
 32
0.0
 13
1.0
 23
0.0
 33
0.0
 40
0.0
 40
0.0
 40
0.0
 40
0.0
 40
0.2
 40
0.2
 40
0.2
 40
0.2
 40
0.4
 40
0.4
 40
0.4
 40
0.4
 40
0.6
 40
0.6
 40
0.6
 40
0.6
 40
1.0
 40
1.0
 40
1.0
 40
1.0
 10
-136.0706
 20
81.3814
 30
0.0
 10
-136.0706
 20
81.3814
 30
0.0
 10
-136.0525
 20
88.4778
 30
0.0
 10
-136.0525
 20
88.4778
 30
0.0
 10
-136.0525
 20
88.4778
 30
0.0
 10
-136.0525
 20
88.4778
 30
0.0
 10
-129.8591
 20
84.902
 30
0.0
 10
-129.8591
 20
84.902
 30
0.0
 10
-129.8591
 20
84.902
 30
0.0
 10
-129.8591
 20
84.902
 30
0.0
 10
-129.8591
 20
77.7952
 30
0.0
 10
-129.8591
 20
77.7952
 30
0.0
 10
-129.8591
 20
77.7952
 30
0.0
 10
-129.8591
 20
77.7952
 30
0.0
 10
-136.0706
 20
81.3814
 30
0.0
 10
-136.0706
 20
81.3814
 30
0.0
  0
SPLINE
  5
F9
330
1F
100
AcDbEntity
  8
layer 1
 62
     7
100
AcDbSpline
210
0.0
220
0.0
230
1.0
 70
    11
 71
     3
 72
    28
 73
    24
 74
     0
 42
0.0000000001
 43
0.0000000001
 12
1.0
 22
0.0
 32
0.0
 13
1.0
 23
0.0
 33
0.0
 40
0.0
 40
0.0
 40
0.0
 40
0.0
 40
0.1428571428571428
 40
0.1428571428571428
 40
0.1428571428571428
 40
0.1428571428571428
 40
0.2857142857142857
 40
0.2857142857142857
 40
0.2857142857142857
 40
0.2857142857142857
 40
0.4285714285714285
 40
0.4285714285714285
 40
0.4285714285714285
 40
0.4285714285714285
 40
0.5714285714285714
 40
0.5714285714285714
 40
0.5714285714285714
 40
0.5714285714285714
 40
0.7142857142857143
 40
0.7142857142857143
 40
0.7142857142857143
 40
0.7142857142857143
 40
1.0
 40
1.0
 40
1.0
 40
1.0
 10
-181.1382
 20
64.6179
 30
0.0
 10
-181.1382
 20
64.6179
 30
0.0
 10
-174.7007
 20
60.8994
 30
0.0
 10
-174.7007
 20
60.8994
 30
0.0
 10
-174.7007
 20
60.8994
 30
0.0
 10
-174.7007
 20
60.8994
 30
0.0
 10
-167.0152
 20
65.3388
 30
0.0
 10
-167.0152
 20
65.3388
 30
0.0
 10
-167.0152
 20
65.3388
 30
0.0
 10
-167.0152
 20
65.3388
 30
0.0
 10
-167.0152
 20
74.2177
 30
0.0
 10
-167.0152
 20
74.2177
 30
0.0
 10
-167.0152
 20
74.2177
 30
0.0
 10
-167.0152
 20
74.2177
 30
0.0
 10
-174.7007
 20
78.6572
 30
0.0
 10
-174.7007
 20
78.6572
 30
0.0
 10
-174.7007
 20
78.6572
 30
0.0
 10
-174.7007
 20
78.6572
 30
0.0
 10
-181.1271
 20
74.945
 30
0.0
 10
-181.1271
 20
74.945
 30
0.0
 10
-181.1271
 20
74.945
 30
0.0
 10
-181.1271
 20
74.945
 30
0.0
 10
-181.1382
 20
64.6179
 30
0.0
 10
-181.1382
 20
64.6179
 30
0.0
  0
SPLINE
  5
FA
330
1F
100
AcDbEntity
  8
layer 1
 62
     7
100
AcDbSpline
210
0.0
220
0.0
230
1.0
 70
    11
 71
     3
 72
    20
 73
    16
 74
     0
 42
0.0000000001
 43
0.0000000001
 12
1.0
 22
0.0
 32
0.0
 13
1.0
 23
0.0
 33
0.0
 40
0.0
 40
0.0
 40
0.0
 40
0.0
 40
0.2
 40
0.2
 40
0.2
 40
0.2
 40
0.4
 40
0.4
 40
0.4
 40
0.4
 40
0.6
 40
0.6
 40
0.6
 40
0.6
 40
1.0
 40
1.0
 40
1.0
 40
1.0
 10
-89.9555
 20
76.1836
 30
0.0
 10
-89.9555
 20
76.1836
 30
0.0
 10
-89.9374
 20
83.2801
 30
0.0
 10
-89.9374
 20
83.2801
 30
0.0
 10
-89.9374
 20
83.2801
 30
0.0
 10
-89.9374
 20
83.2801
 30
0.0
 10
-83.744
 20
79.7043
 30
0.0
 10
-83.744
 20
79.7043
 30
0.0
 10
-83.744
 20
79.7043
 30
0.0
 10
-83.744
 20
79.7043
 30
0.0
 10
-83.744
 20
72.5975
 30
0.0
 10
-83.744
 20
72.5975
 30
0.0
 10
-83.744
 20
72.5975
 30
0.0
 10
-83.744
 20
72.5975
 30
0.0
 10
-89.9555
 20
76.1836
 30
0.0
 10
-89.9555
 20
76.1836
 30
0.0
  0
SPLINE
  5
FB
330
1F
100
AcDbEntity
  8
layer 1
 62
     7
100
AcDbSpline
210
0.0
220
0.0
230
1.0
 70
    11
 71
     3
 72
    20
 73
    16
 74
     0
 42
0.0000000001
 43
0.0000000001
 12
1.0
 22
0.0
 32
0.0
 13
1.0
 23
0.0
 33
0.0
 40
0.0
 40
0.0
 40
0.0
 40
0.0
 40
0.2
 40
0.2
 40
0.2
 40
0.2
 40
0.4
 40
0.4
 40
0.4
 40
0.4
 40
0.6
 40
0.6
 40
0.6
 40
0.6
 40
1.0
 40
1.0
 40
1.0
 40
1.0
 10
-99.125
 20
81.4777
 30
0.0
 10
-99.125
 20
81.4777
 30
0.0
 10
-99.1069
 20
88.5741
 30
0.0
 10
-99.1069
 20
88.5741
 30
0.0
 10
-99.1069
 20
88.5741
 30
0.0
 10
-99.1069
 20
88.5741
 30
0.0
 10
-92.9135
 20
84.9983
 30
0.0
 10
-92.9135
 20
84.9983
 30
0.0
 10
-92.9135
 20
84.9983
 30
0.0
 10
-92.9135
 20
84.9983
 30
0.0
 10
-92.9135
 20
77.8915
 30
0.0
 10
-92.9135
 20
77.8915
 30
0.0
 10
-92.9135
 20
77.8915
 30
0.0
 10
-92.9135
 20
77.8915
 30
0.0
 10
-99.125
 20
81.4777
 30
0.0
 10
-99.125
 20
81.4777
 30
0.0
  0
SPLINE
  5
FC
330
1F
100
AcDbEntity
  8
layer 1
 62
     7
100
AcDbSpline
210
0.0
220
0.0
230
1.0
 70
    11
 71
     3
 72
    20
 73
    16
 74
     0
 42
0.0000000001
 43
0.0000000001
 12
1.0
 22
0.0
 32
0.0
 13
1.0
 23
0.0
 33
0.0
 40
0.0
 40
0.0
 40
0.0
 40
0.0
 40
0.2
 40
0.2
 40
0.2
 40
0.2
 40
0.4
 40
0.4
 40
0.4
 40
0.4
 40
0.6
 40
0.6
 40
0.6
 40
0.6
 40
1.0
 40
1.0
 40
1.0
 40
1.0
 10
-75.6718
 20
82.3505
 30
0.0
 10
-75.6718
 20
82.3505
 30
0.0
 10
-80.7109
 20
79.4411
 30
0.0
 10
-80.7109
 20
79.4411
 30
0.0
 10
-80.7109
 20
79.4411
 30
0.0
 10
-80.7109
 20
79.4411
 30
0.0
 10
-80.7109
 20
72.3343
 30
0.0
 10
-80.7109
 20
72.3343
 30
0.0
 10
-80.7109
 20
72.3343
 30
0.0
 10
-80.7109
 20
72.3343
 30
0.0
 10
-75.6954
 20
75.2299
 30
0.0
 10
-75.6954
 20
75.2299
 30
0.0
 10
-75.6954
 20
75.2299
 30
0.0
 10
-75.6954
 20
75.2299
 30
0.0
 10
-75.6718
 20
82.3505
 30
0.0
 10
-75.6718
 20
82.3505
 30
0.0
  0
SPLINE
  5
FD
330
1F
100
AcDbEntity
  8
layer 1
 62
     7
100
AcDbSpline
210
0.0
220
0.0
230
1.0
 70
    11
 71
     3
 72
    28
 73
    24
 74
     0
 42
0.0000000001
 43
0.0000000001
 12
1.0
 22
0.0
 32
0.0
 13
1.0
 23
0.0
 33
0.0
 40
0.0
 40
0.0
 40
0.0
 40
0.0
 40
0.1428571428571428
 40
0.1428571428571428
 40
0.1428571428571428
 40
0.1428571428571428
 40
0.2857142857142857
 40
0.2857142857142857
 40
0.2857142857142857
 40
0.2857142857142857
 40
0.4285714285714285
 40
0.4285714285714285
 40
0.4285714285714285
 40
0.4285714285714285
 40
0.5714285714285714
 40
0.5714285714285714
 40
0.5714285714285714
 40
0.5714285714285714
 40
0.7142857142857143
 40
0.7142857142857143
 40
0.7142857142857143
 40
0.7142857142857143
 40
1.0
 40
1.0
 40
1.0
 40
1.0
 10
-111.4692
 20
42.2495
 30
0.0
 10
-111.4692
 20
42.2495
 30
0.0
 10
-111.4692
 20
33.3706
 30
0.0
 10
-111.4692
 20
33.3706
 30
0.0
 10
-111.4692
 20
33.3706
 30
0.0
 10
-111.4692
 20
33.3706
 30
0.0
 10
-119.1547
 20
28.9311
 30
0.0
 10
-119.1547
 20
28.9311
 30
0.0
 10
-119.1547
 20
28.9311
 30
0.0
 10
-119.1547
 20
28.9311
 30
0.0
 10
-126.8402
 20
33.3706
 30
0.0
 10
-126.8402
 20
33.3706
 30
0.0
 10
-126.8402
 20
33.3706
 30
0.0
 10
-126.8402
 20
33.3706
 30
0.0
 10
-126.8402
 20
42.2495
 30
0.0
 10
-126.8402
 20
42.2495
 30
0.0
 10
-126.8402
 20
42.2495
 30
0.0
 10
-126.8402
 20
42.2495
 30
0.0
 10
-119.1547
 20
46.689
 30
0.0
 10
-119.1547
 20
46.689
 30
0.0
 10
-119.1547
 20
46.689
 30
0.0
 10
-119.1547
 20
46.689
 30
0.0
 10
-111.4692
 20
42.2495
 30
0.0
 10
-111.4692
 20
42.2495
 30
0.0
  0
SPLINE
  5
FE
330
1F
100
AcDbEntity
  8
layer 1
 62
     7
100
AcDbSpline
210
0.0
220
0.0
230
1.0
 70
    11
 71
     3
 72
    20
 73
    16
 74
     0
 42
0.0000000001
 43
0.0000000001
 12
1.0
 22
0.0
 32
0.0
 13
1.0
 23
0.0
 33
0.0
 40
0.0
 40
0.0
 40
0.0
 40
0.0
 40
0.2
 40
0.2
 40
0.2
 40
0.2
 40
0.4
 40
0.4
 40
0.4
 40
0.4
 40
0.6
 40
0.6
 40
0.6
 40
0.6
 40
1.0
 40
1.0
 40
1.0
 40
1.0
 10
-137.5863
 20
57.3816
 30
0.0
 10
-137.5863
 20
57.3816
 30
0.0
 10
-131.4496
 20
53.8178
 30
0.0
 10
-131.4496
 20
53.8178
 30
0.0
 10
-131.4496
 20
53.8178
 30
0.0
 10
-131.4496
 20
53.8178
 30
0.0
 10
-137.6431
 20
50.242
 30
0.0
 10
-137.6431
 20
50.242
 30
0.0
 10
-137.6431
 20
50.242
 30
0.0
 10
-137.6431
 20
50.242
 30
0.0
 10
-143.7978
 20
53.7954
 30
0.0
 10
-143.7978
 20
53.7954
 30
0.0
 10
-143.7978
 20
53.7954
 30
0.0
 10
-143.7978
 20
53.7954
 30
0.0
 10
-137.5863
 20
57.3816
 30
0.0
 10
-137.5863
 20
57.3816
 30
0.0
  0
SPLINE
  5
FF
330
1F
100
AcDbEntity
  8
layer 1
 62
     7
100
AcDbSpline
210
0.0
220
0.0
230
1.0
 70
    11
 71
     3
 72
    20
 73
    16
 74
     0
 42
0.0000000001
 43
0.0000000001
 12
1.0
 22
0.0
 32
0.0
 13
1.0
 23
0.0
 33
0.0
 40
0.0
 40
0.0
 40
0.0
 40
0.0
 40
0.2
 40
0.2
 40
0.2
 40
0.2
 40
0.4
 40
0.4
 40
0.4
 40
0.4
 40
0.6
 40
0.6
 40
0.6
 40
0.6
 40
1.0
 40
1.0
 40
1.0
 40
1.0
 10
-129.8591
 20
44.1561
 30
0.0
 10
-129.8591
 20
44.1561
 30
0.0
 10
-129.8772
 20
51.2525
 30
0.0
 10
-129.8772
 20
51.2525
 30
0.0
 10
-129.8772
 20
51.2525
 30
0.0
 10
-129.8772
 20
51.2525
 30
0.0
 10
-136.0706
 20
47.6767
 30
0.0
 10
-136.0706
 20
47.6767
 30
0.0
 10
-136.0706
 20
47.6767
 30
0.0
 10
-136.0706
 20
47.6767
 30
0.0
 10
-136.0706
 20
40.5699
 30
0.0
 10
-136.0706
 20
40.5699
 30
0.0
 10
-136.0706
 20
40.5699
 30
0.0
 10
-136.0706
 20
40.5699
 30
0.0
 10
-129.8591
 20
44.1561
 30
0.0
 10
-129.8591
 20
44.1561
 30
0.0
  0
SPLINE
  5
100
330
1F
100
AcDbEntity
  8
layer 1
 62
     7
100
AcDbSpline
210
0.0
220
0.0
230
1.0
 70
    11
 71
     3
 72
    20
 73
    16
 74
     0
 42
0.0000000001
 43
0.0000000001
 12
1.0
 22
0.0
 32
0.0
 13
1.0
 23
0.0
 33
0.0
 40
0.0
 40
0.0
 40
0.0
 40
0.0
 40
0.2
 40
0.2
 40
0.2
 40
0.2
 40
0.4
 40
0.4
 40
0.4
 40
0.4
 40
0.6
 40
0.6
 40
0.6
 40
0.6
 40
1.0
 40
1.0
 40
1.0
 40
1.0
 10
-129.8591
 20
33.3877
 30
0.0
 10
-129.8591
 20
33.3877
 30
0.0
 10
-129.8772
 20
40.4841
 30
0.0
 10
-129.8772
 20
40.4841
 30
0.0
 10
-129.8772
 20
40.4841
 30
0.0
 10
-129.8772
 20
40.4841
 30
0.0
 10
-136.0706
 20
36.9084
 30
0.0
 10
-136.0706
 20
36.9084
 30
0.0
 10
-136.0706
 20
36.9084
 30
0.0
 10
-136.0706
 20
36.9084
 30
0.0
 10
-136.0706
 20
29.8015
 30
0.0
 10
-136.0706
 20
29.8015
 30
0.0
 10
-136.0706
 20
29.8015
 30
0.0
 10
-136.0706
 20
29.8015
 30
0.0
 10
-129.8591
 20
33.3877
 30
0.0
 10
-129.8591
 20
33.3877
 30
0.0
  0
SPLINE
  5
101
330
1F
100
AcDbEntity
  8
layer 1
 62
     7
100
AcDbSpline
210
0.0
220
0.0
230
1.0
 70
    11
 71
     3
 72
    20
 73
    16
 74
     0
 42
0.0000000001
 43
0.0000000001
 12
1.0
 22
0.0
 32
0.0
 13
1.0
 23
0.0
 33
0.0
 40
0.0
 40
0.0
 40
0.0
 40
0.0
 40
0.2
 40
0.2
 40
0.2
 40
0.2
 40
0.4
 40
0.4
 40
0.4
 40
0.4
 40
0.6
 40
0.6
 40
0.6
 40
0.6
 40
1.0
 40
1.0
 40
1.0
 40
1.0
 10
-145.5371
 20
44.1561
 30
0.0
 10
-145.5371
 20
44.1561
 30
0.0
 10
-145.5191
 20
51.2525
 30
0.0
 10
-145.5191
 20
51.2525
 30
0.0
 10
-145.5191
 20
51.2525
 30
0.0
 10
-145.5191
 20
51.2525
 30
0.0
 10
-139.3256
 20
47.6767
 30
0.0
 10
-139.3256
 20
47.6767
 30
0.0
 10
-139.3256
 20
47.6767
 30
0.0
 10
-139.3256
 20
47.6767
 30
0.0
 10
-139.3256
 20
40.5699
 30
0.0
 10
-139.3256
 20
40.5699
 30
0.0
 10
-139.3256
 20
40.5699
 30
0.0
 10
-139.3256
 20
40.5699
 30
0.0
 10
-145.5371
 20
44.1561
 30
0.0
 10
-145.5371
 20
44.1561
 30
0.0
  0
SPLINE
  5
102
330
1F
100
AcDbEntity
  8
layer 1
 62
     7
100
AcDbSpline
210
0.0
220
0.0
230
1.0
 70
    11
 71
     3
 72
    20
 73
    16
 74
     0
 42
0.0000000001
 43
0.0000000001
 12
1.0
 22
0.0
 32
0.0
 13
1.0
 23
0.0
 33
0.0
 40
0.0
 40
0.0
 40
0.0
 40
0.0
 40
0.2
 40
0.2
 40
0.2
 40
0.2
 40
0.4
 40
0.4
 40
0.4
 40
0.4
 40
0.6
 40
0.6
 40
0.6
 40
0.6
 40
1.0
 40
1.0
 40
1.0
 40
1.0
 10
-145.5371
 20
33.3877
 30
0.0
 10
-145.5371
 20
33.3877
 30
0.0
 10
-145.5191
 20
40.4841
 30
0.0
 10
-145.5191
 20
40.4841
 30
0.0
 10
-145.5191
 20
40.4841
 30
0.0
 10
-145.5191
 20
40.4841
 30
0.0
 10
-139.3256
 20
36.9084
 30
0.0
 10
-139.3256
 20
36.9084
 30
0.0
 10
-139.3256
 20
36.9084
 30
0.0
 10
-139.3256
 20
36.9084
 30
0.0
 10
-139.3256
 20
29.8015
 30
0.0
 10
-139.3256
 20
29.8015
 30
0.0
 10
-139.3256
 20
29.8015
 30
0.0
 10
-139.3256
 20
29.8015
 30
0.0
 10
-145.5371
 20
33.3877
 30
0.0
 10
-145.5371
 20
33.3877
 30
0.0
  0
SPLINE
  5
103
330
1F
100
AcDbEntity
  8
layer 1
 62
     7
100
AcDbSpline
210
0.0
220
0.0
230
1.0
 70
    11
 71
     3
 72
    20
 73
    16
 74
     0
 42
0.0000000001
 43
0.0000000001
 12
1.0
 22
0.0
 32
0.0
 13
1.0
 23
0.0
 33
0.0
 40
0.0
 40
0.0
 40
0.0
 40
0.0
 40
0.2
 40
0.2
 40
0.2
 40
0.2
 40
0.4
 40
0.4
 40
0.4
 40
0.4
 40
0.6
 40
0.6
 40
0.6
 40
0.6
 40
1.0
 40
1.0
 40
1.0
 40
1.0
 10
-120.6034
 20
49.4989
 30
0.0
 10
-120.6034
 20
49.4989
 30
0.0
 10
-120.6214
 20
56.5953
 30
0.0
 10
-120.6214
 20
56.5953
 30
0.0
 10
-120.6214
 20
56.5953
 30
0.0
 10
-120.6214
 20
56.5953
 30
0.0
 10
-126.8149
 20
53.0195
 30
0.0
 10
-126.8149
 20
53.0195
 30
0.0
 10
-126.8149
 20
53.0195
 30
0.0
 10
-126.8149
 20
53.0195
 30
0.0
 10
-126.8149
 20
45.9127
 30
0.0
 10
-126.8149
 20
45.9127
 30
0.0
 10
-126.8149
 20
45.9127
 30
0.0
 10
-126.8149
 20
45.9127
 30
0.0
 10
-120.6034
 20
49.4989
 30
0.0
 10
-120.6034
 20
49.4989
 30
0.0
  0
SPLINE
  5
104
330
1F
100
AcDbEntity
  8
layer 1
 62
     7
100
AcDbSpline
210
0.0
220
0.0
230
1.0
 70
    11
 71
     3
 72
    20
 73
    16
 74
     0
 42
0.0000000001
 43
0.0000000001
 12
1.0
 22
0.0
 32
0.0
 13
1.0
 23
0.0
 33
0.0
 40
0.0
 40
0.0
 40
0.0
 40
0.0
 40
0.2
 40
0.2
 40
0.2
 40
0.2
 40
0.4
 40
0.4
 40
0.4
 40
0.4
 40
0.6
 40
0.6
 40
0.6
 40
0.6
 40
1.0
 40
1.0
 40
1.0
 40
1.0
 10
-146.9502
 20
30.6837
 30
0.0
 10
-146.9502
 20
30.6837
 30
0.0
 10
-140.8135
 20
27.1199
 30
0.0
 10
-140.8135
 20
27.1199
 30
0.0
 10
-140.8135
 20
27.1199
 30
0.0
 10
-140.8135
 20
27.1199
 30
0.0
 10
-147.0069
 20
23.5441
 30
0.0
 10
-147.0069
 20
23.5441
 30
0.0
 10
-147.0069
 20
23.5441
 30
0.0
 10
-147.0069
 20
23.5441
 30
0.0
 10
-153.1617
 20
27.0975
 30
0.0
 10
-153.1617
 20
27.0975
 30
0.0
 10
-153.1617
 20
27.0975
 30
0.0
 10
-153.1617
 20
27.0975
 30
0.0
 10
-146.9502
 20
30.6837
 30
0.0
 10
-146.9502
 20
30.6837
 30
0.0
  0
SPLINE
  5
105
330
1F
100
AcDbEntity
  8
layer 1
 62
     7
100
AcDbSpline
210
0.0
220
0.0
230
1.0
 70
    11
 71
     3
 72
    20
 73
    16
 74
     0
 42
0.0000000001
 43
0.0000000001
 12
1.0
 22
0.0
 32
0.0
 13
1.0
 23
0.0
 33
0.0
 40
0.0
 40
0.0
 40
0.0
 40
0.0
 40
0.2
 40
0.2
 40
0.2
 40
0.2
 40
0.4
 40
0.4
 40
0.4
 40
0.4
 40
0.6
 40
0.6
 40
0.6
 40
0.6
 40
1.0
 40
1.0
 40
1.0
 40
1.0
 10
-117.6963
 20
49.4372
 30
0.0
 10
-117.6963
 20
49.4372
 30
0.0
 10
-117.6782
 20
56.5337
 30
0.0
 10
-117.6782
 20
56.5337
 30
0.0
 10
-117.6782
 20
56.5337
 30
0.0
 10
-117.6782
 20
56.5337
 30
0.0
 10
-111.4848
 20
52.9579
 30
0.0
 10
-111.4848
 20
52.9579
 30
0.0
 10
-111.4848
 20
52.9579
 30
0.0
 10
-111.4848
 20
52.9579
 30
0.0
 10
-111.4848
 20
45.851
 30
0.0
 10
-111.4848
 20
45.851
 30
0.0
 10
-111.4848
 20
45.851
 30
0.0
 10
-111.4848
 20
45.851
 30
0.0
 10
-117.6963
 20
49.4372
 30
0.0
 10
-117.6963
 20
49.4372
 30
0.0
  0
SPLINE
  5
106
330
1F
100
AcDbEntity
  8
layer 1
 62
     7
100
AcDbSpline
210
0.0
220
0.0
230
1.0
 70
    11
 71
     3
 72
    28
 73
    24
 74
     0
 42
0.0000000001
 43
0.0000000001
 12
1.0
 22
0.0
 32
0.0
 13
1.0
 23
0.0
 33
0.0
 40
0.0
 40
0.0
 40
0.0
 40
0.0
 40
0.1428571428571428
 40
0.1428571428571428
 40
0.1428571428571428
 40
0.1428571428571428
 40
0.2857142857142857
 40
0.2857142857142857
 40
0.2857142857142857
 40
0.2857142857142857
 40
0.4285714285714285
 40
0.4285714285714285
 40
0.4285714285714285
 40
0.4285714285714285
 40
0.5714285714285714
 40
0.5714285714285714
 40
0.5714285714285714
 40
0.5714285714285714
 40
0.7142857142857143
 40
0.7142857142857143
 40
0.7142857142857143
 40
0.7142857142857143
 40
1.0
 40
1.0
 40
1.0
 40
1.0
 10
-75.7283
 20
32.7199
 30
0.0
 10
-75.7283
 20
32.7199
 30
0.0
 10
-82.1658
 20
29.0014
 30
0.0
 10
-82.1658
 20
29.0014
 30
0.0
 10
-82.1658
 20
29.0014
 30
0.0
 10
-82.1658
 20
29.0014
 30
0.0
 10
-89.8512
 20
33.4409
 30
0.0
 10
-89.8512
 20
33.4409
 30
0.0
 10
-89.8512
 20
33.4409
 30
0.0
 10
-89.8512
 20
33.4409
 30
0.0
 10
-89.8512
 20
42.3198
 30
0.0
 10
-89.8512
 20
42.3198
 30
0.0
 10
-89.8512
 20
42.3198
 30
0.0
 10
-89.8512
 20
42.3198
 30
0.0
 10
-82.1658
 20
46.7593
 30
0.0
 10
-82.1658
 20
46.7593
 30
0.0
 10
-82.1658
 20
46.7593
 30
0.0
 10
-82.1658
 20
46.7593
 30
0.0
 10
-75.7393
 20
43.0471
 30
0.0
 10
-75.7393
 20
43.0471
 30
0.0
 10
-75.7393
 20
43.0471
 30
0.0
 10
-75.7393
 20
43.0471
 30
0.0
 10
-75.7283
 20
32.7199
 30
0.0
 10
-75.7283
 20
32.7199
 30
0.0
  0
SPLINE
  5
107
330
1F
100
AcDbEntity
  8
layer 1
 62
     7
100
AcDbSpline
210
0.0
220
0.0
230
1.0
 70
    11
 71
     3
 72
    20
 73
    16
 74
     0
 42
0.0000000001
 43
0.0000000001
 12
1.0
 22
0.0
 32
0.0
 13
1.0
 23
0.0
 33
0.0
 40
0.0
 40
0.0
 40
0.0
 40
0.0
 40
0.2
 40
0.2
 40
0.2
 40
0.2
 40
0.4
 40
0.4
 40
0.4
 40
0.4
 40
0.6
 40
0.6
 40
0.6
 40
0.6
 40
1.0
 40
1.0
 40
1.0
 40
1.0
 10
-100.5973
 20
57.4519
 30
0.0
 10
-100.5973
 20
57.4519
 30
0.0
 10
-94.4606
 20
53.8881
 30
0.0
 10
-94.4606
 20
53.8881
 30
0.0
 10
-94.4606
 20
53.8881
 30
0.0
 10
-94.4606
 20
53.8881
 30
0.0
 10
-100.654
 20
50.3123
 30
0.0
 10
-100.654
 20
50.3123
 30
0.0
 10
-100.654
 20
50.3123
 30
0.0
 10
-100.654
 20
50.3123
 30
0.0
 10
-106.8088
 20
53.8657
 30
0.0
 10
-106.8088
 20
53.8657
 30
0.0
 10
-106.8088
 20
53.8657
 30
0.0
 10
-106.8088
 20
53.8657
 30
0.0
 10
-100.5973
 20
57.4519
 30
0.0
 10
-100.5973
 20
57.4519
 30
0.0
  0
SPLINE
  5
108
330
1F
100
AcDbEntity
  8
layer 1
 62
     7
100
AcDbSpline
210
0.0
220
0.0
230
1.0
 70
    11
 71
     3
 72
    20
 73
    16
 74
     0
 42
0.0000000001
 43
0.0000000001
 12
1.0
 22
0.0
 32
0.0
 13
1.0
 23
0.0
 33
0.0
 40
0.0
 40
0.0
 40
0.0
 40
0.0
 40
0.2
 40
0.2
 40
0.2
 40
0.2
 40
0.4
 40
0.4
 40
0.4
 40
0.4
 40
0.6
 40
0.6
 40
0.6
 40
0.6
 40
1.0
 40
1.0
 40
1.0
 40
1.0
 10
-92.8701
 20
44.2263
 30
0.0
 10
-92.8701
 20
44.2263
 30
0.0
 10
-92.8882
 20
51.3227
 30
0.0
 10
-92.8882
 20
51.3227
 30
0.0
 10
-92.8882
 20
51.3227
 30
0.0
 10
-92.8882
 20
51.3227
 30
0.0
 10
-99.0816
 20
47.747
 30
0.0
 10
-99.0816
 20
47.747
 30
0.0
 10
-99.0816
 20
47.747
 30
0.0
 10
-99.0816
 20
47.747
 30
0.0
 10
-99.0816
 20
40.6401
 30
0.0
 10
-99.0816
 20
40.6401
 30
0.0
 10
-99.0816
 20
40.6401
 30
0.0
 10
-99.0816
 20
40.6401
 30
0.0
 10
-92.8701
 20
44.2263
 30
0.0
 10
-92.8701
 20
44.2263
 30
0.0
  0
SPLINE
  5
109
330
1F
100
AcDbEntity
  8
layer 1
 62
     7
100
AcDbSpline
210
0.0
220
0.0
230
1.0
 70
    11
 71
     3
 72
    20
 73
    16
 74
     0
 42
0.0000000001
 43
0.0000000001
 12
1.0
 22
0.0
 32
0.0
 13
1.0
 23
0.0
 33
0.0
 40
0.0
 40
0.0
 40
0.0
 40
0.0
 40
0.2
 40
0.2
 40
0.2
 40
0.2
 40
0.4
 40
0.4
 40
0.4
 40
0.4
 40
0.6
 40
0.6
 40
0.6
 40
0.6
 40
1.0
 40
1.0
 40
1.0
 40
1.0
 10
-92.8701
 20
33.4579
 30
0.0
 10
-92.8701
 20
33.4579
 30
0.0
 10
-92.8882
 20
40.5544
 30
0.0
 10
-92.8882
 20
40.5544
 30
0.0
 10
-92.8882
 20
40.5544
 30
0.0
 10
-92.8882
 20
40.5544
 30
0.0
 10
-99.0816
 20
36.9786
 30
0.0
 10
-99.0816
 20
36.9786
 30
0.0
 10
-99.0816
 20
36.9786
 30
0.0
 10
-99.0816
 20
36.9786
 30
0.0
 10
-99.0816
 20
29.8717
 30
0.0
 10
-99.0816
 20
29.8717
 30
0.0
 10
-99.0816
 20
29.8717
 30
0.0
 10
-99.0816
 20
29.8717
 30
0.0
 10
-92.8701
 20
33.4579
 30
0.0
 10
-92.8701
 20
33.4579
 30
0.0
  0
SPLINE
  5
10A
330
1F
100
AcDbEntity
  8
layer 1
 62
     7
100
AcDbSpline
210
0.0
220
0.0
230
1.0
 70
    11
 71
     3
 72
    20
 73
    16
 74
     0
 42
0.0000000001
 43
0.0000000001
 12
1.0
 22
0.0
 32
0.0
 13
1.0
 23
0.0
 33
0.0
 40
0.0
 40
0.0
 40
0.0
 40
0.0
 40
0.2
 40
0.2
 40
0.2
 40
0.2
 40
0.4
 40
0.4
 40
0.4
 40
0.4
 40
0.6
 40
0.6
 40
0.6
 40
0.6
 40
1.0
 40
1.0
 40
1.0
 40
1.0
 10
-108.5481
 20
44.2263
 30
0.0
 10
-108.5481
 20
44.2263
 30
0.0
 10
-108.53
 20
51.3227
 30
0.0
 10
-108.53
 20
51.3227
 30
0.0
 10
-108.53
 20
51.3227
 30
0.0
 10
-108.53
 20
51.3227
 30
0.0
 10
-102.3366
 20
47.747
 30
0.0
 10
-102.3366
 20
47.747
 30
0.0
 10
-102.3366
 20
47.747
 30
0.0
 10
-102.3366
 20
47.747
 30
0.0
 10
-102.3366
 20
40.6401
 30
0.0
 10
-102.3366
 20
40.6401
 30
0.0
 10
-102.3366
 20
40.6401
 30
0.0
 10
-102.3366
 20
40.6401
 30
0.0
 10
-108.5481
 20
44.2263
 30
0.0
 10
-108.5481
 20
44.2263
 30
0.0
  0
SPLINE
  5
10B
330
1F
100
AcDbEntity
  8
layer 1
 62
     7
100
AcDbSpline
210
0.0
220
0.0
230
1.0
 70
    11
 71
     3
 72
    20
 73
    16
 74
     0
 42
0.0000000001
 43
0.0000000001
 12
1.0
 22
0.0
 32
0.0
 13
1.0
 23
0.0
 33
0.0
 40
0.0
 40
0.0
 40
0.0
 40
0.0
 40
0.2
 40
0.2
 40
0.2
 40
0.2
 40
0.4
 40
0.4
 40
0.4
 40
0.4
 40
0.6
 40
0.6
 40
0.6
 40
0.6
 40
1.0
 40
1.0
 40
1.0
 40
1.0
 10
-108.5481
 20
33.4579
 30
0.0
 10
-108.5481
 20
33.4579
 30
0.0
 10
-108.53
 20
40.5544
 30
0.0
 10
-108.53
 20
40.5544
 30
0.0
 10
-108.53
 20
40.5544
 30
0.0
 10
-108.53
 20
40.5544
 30
0.0
 10
-102.3366
 20
36.9786
 30
0.0
 10
-102.3366
 20
36.9786
 30
0.0
 10
-102.3366
 20
36.9786
 30
0.0
 10
-102.3366
 20
36.9786
 30
0.0
 10
-102.3366
 20
29.8717
 30
0.0
 10
-102.3366
 20
29.8717
 30
0.0
 10
-102.3366
 20
29.8717
 30
0.0
 10
-102.3366
 20
29.8717
 30
0.0
 10
-108.5481
 20
33.4579
 30
0.0
 10
-108.5481
 20
33.4579
 30
0.0
  0
SPLINE
  5
10C
330
1F
100
AcDbEntity
  8
layer 1
 62
     7
100
AcDbSpline
210
0.0
220
0.0
230
1.0
 70
    11
 71
     3
 72
    20
 73
    16
 74
     0
 42
0.0000000001
 43
0.0000000001
 12
1.0
 22
0.0
 32
0.0
 13
1.0
 23
0.0
 33
0.0
 40
0.0
 40
0.0
 40
0.0
 40
0.0
 40
0.2
 40
0.2
 40
0.2
 40
0.2
 40
0.4
 40
0.4
 40
0.4
 40
0.4
 40
0.6
 40
0.6
 40
0.6
 40
0.6
 40
1.0
 40
1.0
 40
1.0
 40
1.0
 10
-83.6144
 20
49.5691
 30
0.0
 10
-83.6144
 20
49.5691
 30
0.0
 10
-83.6325
 20
56.6656
 30
0.0
 10
-83.6325
 20
56.6656
 30
0.0
 10
-83.6325
 20
56.6656
 30
0.0
 10
-83.6325
 20
56.6656
 30
0.0
 10
-89.8259
 20
53.0898
 30
0.0
 10
-89.8259
 20
53.0898
 30
0.0
 10
-89.8259
 20
53.0898
 30
0.0
 10
-89.8259
 20
53.0898
 30
0.0
 10
-89.8259
 20
45.9829
 30
0.0
 10
-89.8259
 20
45.9829
 30
0.0
 10
-89.8259
 20
45.9829
 30
0.0
 10
-89.8259
 20
45.9829
 30
0.0
 10
-83.6144
 20
49.5691
 30
0.0
 10
-83.6144
 20
49.5691
 30
0.0
  0
SPLINE
  5
10D
330
1F
100
AcDbEntity
  8
layer 1
 62
     7
100
AcDbSpline
210
0.0
220
0.0
230
1.0
 70
    11
 71
     3
 72
    20
 73
    16
 74
     0
 42
0.0000000001
 43
0.0000000001
 12
1.0
 22
0.0
 32
0.0
 13
1.0
 23
0.0
 33
0.0
 40
0.0
 40
0.0
 40
0.0
 40
0.0
 40
0.2
 40
0.2
 40
0.2
 40
0.2
 40
0.4
 40
0.4
 40
0.4
 40
0.4
 40
0.6
 40
0.6
 40
0.6
 40
0.6
 40
1.0
 40
1.0
 40
1.0
 40
1.0
 10
-80.7074
 20
49.5075
 30
0.0
 10
-80.7074
 20
49.5075
 30
0.0
 10
-80.6893
 20
56.6039
 30
0.0
 10
-80.6893
 20
56.6039
 30
0.0
 10
-80.6893
 20
56.6039
 30
0.0
 10
-80.6893
 20
56.6039
 30
0.0
 10
-75.7089
 20
53.7285
 30
0.0
 10
-75.7089
 20
53.7285
 30
0.0
 10
-75.7089
 20
53.7285
 30
0.0
 10
-75.7089
 20
53.7285
 30
0.0
 10
-75.6755
 20
46.6023
 30
0.0
 10
-75.6755
 20
46.6023
 30
0.0
 10
-75.6755
 20
46.6023
 30
0.0
 10
-75.6755
 20
46.6023
 30
0.0
 10
-80.7074
 20
49.5075
 30
0.0
 10
-80.7074
 20
49.5075
 30
0.0
  0
SPLINE
  5
10E
330
1F
100
AcDbEntity
  8
layer 1
 62
     7
100
AcDbSpline
210
0.0
220
0.0
230
1.0
 70
    11
 71
     3
 72
    28
 73
    24
 74
     0
 42
0.0000000001
 43
0.0000000001
 12
1.0
 22
0.0
 32
0.0
 13
1.0
 23
0.0
 33
0.0
 40
0.0
 40
0.0
 40
0.0
 40
0.0
 40
0.1428571428571428
 40
0.1428571428571428
 40
0.1428571428571428
 40
0.1428571428571428
 40
0.2857142857142857
 40
0.2857142857142857
 40
0.2857142857142857
 40
0.2857142857142857
 40
0.4285714285714285
 40
0.4285714285714285
 40
0.4285714285714285
 40
0.4285714285714285
 40
0.5714285714285714
 40
0.5714285714285714
 40
0.5714285714285714
 40
0.5714285714285714
 40
0.7142857142857143
 40
0.7142857142857143
 40
0.7142857142857143
 40
0.7142857142857143
 40
1.0
 40
1.0
 40
1.0
 40
1.0
 10
-148.4966
 20
42.2495
 30
0.0
 10
-148.4966
 20
42.2495
 30
0.0
 10
-148.4966
 20
33.3706
 30
0.0
 10
-148.4966
 20
33.3706
 30
0.0
 10
-148.4966
 20
33.3706
 30
0.0
 10
-148.4966
 20
33.3706
 30
0.0
 10
-156.182
 20
28.9311
 30
0.0
 10
-156.182
 20
28.9311
 30
0.0
 10
-156.182
 20
28.9311
 30
0.0
 10
-156.182
 20
28.9311
 30
0.0
 10
-163.8675
 20
33.3706
 30
0.0
 10
-163.8675
 20
33.3706
 30
0.0
 10
-163.8675
 20
33.3706
 30
0.0
 10
-163.8675
 20
33.3706
 30
0.0
 10
-163.8675
 20
42.2495
 30
0.0
 10
-163.8675
 20
42.2495
 30
0.0
 10
-163.8675
 20
42.2495
 30
0.0
 10
-163.8675
 20
42.2495
 30
0.0
 10
-156.182
 20
46.689
 30
0.0
 10
-156.182
 20
46.689
 30
0.0
 10
-156.182
 20
46.689
 30
0.0
 10
-156.182
 20
46.689
 30
0.0
 10
-148.4966
 20
42.2495
 30
0.0
 10
-148.4966
 20
42.2495
 30
0.0
  0
SPLINE
  5
10F
330
1F
100
AcDbEntity
  8
layer 1
 62
     7
100
AcDbSpline
210
0.0
220
0.0
230
1.0
 70
    11
 71
     3
 72
    20
 73
    16
 74
     0
 42
0.0000000001
 43
0.0000000001
 12
1.0
 22
0.0
 32
0.0
 13
1.0
 23
0.0
 33
0.0
 40
0.0
 40
0.0
 40
0.0
 40
0.0
 40
0.2
 40
0.2
 40
0.2
 40
0.2
 40
0.4
 40
0.4
 40
0.4
 40
0.4
 40
0.6
 40
0.6
 40
0.6
 40
0.6
 40
1.0
 40
1.0
 40
1.0
 40
1.0
 10
-174.6136
 20
57.3816
 30
0.0
 10
-174.6136
 20
57.3816
 30
0.0
 10
-168.477
 20
53.8178
 30
0.0
 10
-168.477
 20
53.8178
 30
0.0
 10
-168.477
 20
53.8178
 30
0.0
 10
-168.477
 20
53.8178
 30
0.0
 10
-174.6705
 20
50.242
 30
0.0
 10
-174.6705
 20
50.242
 30
0.0
 10
-174.6705
 20
50.242
 30
0.0
 10
-174.6705
 20
50.242
 30
0.0
 10
-180.8252
 20
53.7954
 30
0.0
 10
-180.8252
 20
53.7954
 30
0.0
 10
-180.8252
 20
53.7954
 30
0.0
 10
-180.8252
 20
53.7954
 30
0.0
 10
-174.6136
 20
57.3816
 30
0.0
 10
-174.6136
 20
57.3816
 30
0.0
  0
SPLINE
  5
110
330
1F
100
AcDbEntity
  8
layer 1
 62
     7
100
AcDbSpline
210
0.0
220
0.0
230
1.0
 70
    11
 71
     3
 72
    20
 73
    16
 74
     0
 42
0.0000000001
 43
0.0000000001
 12
1.0
 22
0.0
 32
0.0
 13
1.0
 23
0.0
 33
0.0
 40
0.0
 40
0.0
 40
0.0
 40
0.0
 40
0.2
 40
0.2
 40
0.2
 40
0.2
 40
0.4
 40
0.4
 40
0.4
 40
0.4
 40
0.6
 40
0.6
 40
0.6
 40
0.6
 40
1.0
 40
1.0
 40
1.0
 40
1.0
 10
-166.8865
 20
44.1561
 30
0.0
 10
-166.8865
 20
44.1561
 30
0.0
 10
-166.9046
 20
51.2525
 30
0.0
 10
-166.9046
 20
51.2525
 30
0.0
 10
-166.9046
 20
51.2525
 30
0.0
 10
-166.9046
 20
51.2525
 30
0.0
 10
-173.098
 20
47.6767
 30
0.0
 10
-173.098
 20
47.6767
 30
0.0
 10
-173.098
 20
47.6767
 30
0.0
 10
-173.098
 20
47.6767
 30
0.0
 10
-173.098
 20
40.5699
 30
0.0
 10
-173.098
 20
40.5699
 30
0.0
 10
-173.098
 20
40.5699
 30
0.0
 10
-173.098
 20
40.5699
 30
0.0
 10
-166.8865
 20
44.1561
 30
0.0
 10
-166.8865
 20
44.1561
 30
0.0
  0
SPLINE
  5
111
330
1F
100
AcDbEntity
  8
layer 1
 62
     7
100
AcDbSpline
210
0.0
220
0.0
230
1.0
 70
    11
 71
     3
 72
    20
 73
    16
 74
     0
 42
0.0000000001
 43
0.0000000001
 12
1.0
 22
0.0
 32
0.0
 13
1.0
 23
0.0
 33
0.0
 40
0.0
 40
0.0
 40
0.0
 40
0.0
 40
0.2
 40
0.2
 40
0.2
 40
0.2
 40
0.4
 40
0.4
 40
0.4
 40
0.4
 40
0.6
 40
0.6
 40
0.6
 40
0.6
 40
1.0
 40
1.0
 40
1.0
 40
1.0
 10
-166.8865
 20
33.3877
 30
0.0
 10
-166.8865
 20
33.3877
 30
0.0
 10
-166.9046
 20
40.4841
 30
0.0
 10
-166.9046
 20
40.4841
 30
0.0
 10
-166.9046
 20
40.4841
 30
0.0
 10
-166.9046
 20
40.4841
 30
0.0
 10
-173.098
 20
36.9084
 30
0.0
 10
-173.098
 20
36.9084
 30
0.0
 10
-173.098
 20
36.9084
 30
0.0
 10
-173.098
 20
36.9084
 30
0.0
 10
-173.098
 20
29.8015
 30
0.0
 10
-173.098
 20
29.8015
 30
0.0
 10
-173.098
 20
29.8015
 30
0.0
 10
-173.098
 20
29.8015
 30
0.0
 10
-166.8865
 20
33.3877
 30
0.0
 10
-166.8865
 20
33.3877
 30
0.0
  0
SPLINE
  5
112
330
1F
100
AcDbEntity
  8
layer 1
 62
     7
100
AcDbSpline
210
0.0
220
0.0
230
1.0
 70
    11
 71
     3
 72
    20
 73
    16
 74
     0
 42
0.0000000001
 43
0.0000000001
 12
1.0
 22
0.0
 32
0.0
 13
1.0
 23
0.0
 33
0.0
 40
0.0
 40
0.0
 40
0.0
 40
0.0
 40
0.2
 40
0.2
 40
0.2
 40
0.2
 40
0.4
 40
0.4
 40
0.4
 40
0.4
 40
0.6
 40
0.6
 40
0.6
 40
0.6
 40
1.0
 40
1.0
 40
1.0
 40
1.0
 10
-181.1727
 20
50.4594
 30
0.0
 10
-181.1727
 20
50.4594
 30
0.0
 10
-176.353
 20
47.6767
 30
0.0
 10
-176.353
 20
47.6767
 30
0.0
 10
-176.353
 20
47.6767
 30
0.0
 10
-176.353
 20
47.6767
 30
0.0
 10
-176.353
 20
40.5698
 30
0.0
 10
-176.353
 20
40.5698
 30
0.0
 10
-176.353
 20
40.5698
 30
0.0
 10
-176.353
 20
40.5698
 30
0.0
 10
-181.1357
 20
43.3311
 30
0.0
 10
-181.1357
 20
43.3311
 30
0.0
 10
-181.1357
 20
43.3311
 30
0.0
 10
-181.1357
 20
43.3311
 30
0.0
 10
-181.1727
 20
50.4594
 30
0.0
 10
-181.1727
 20
50.4594
 30
0.0
  0
SPLINE
  5
113
330
1F
100
AcDbEntity
  8
layer 1
 62
     7
100
AcDbSpline
210
0.0
220
0.0
230
1.0
 70
    11
 71
     3
 72
    20
 73
    16
 74
     0
 42
0.0000000001
 43
0.0000000001
 12
1.0
 22
0.0
 32
0.0
 13
1.0
 23
0.0
 33
0.0
 40
0.0
 40
0.0
 40
0.0
 40
0.0
 40
0.2
 40
0.2
 40
0.2
 40
0.2
 40
0.4
 40
0.4
 40
0.4
 40
0.4
 40
0.6
 40
0.6
 40
0.6
 40
0.6
 40
1.0
 40
1.0
 40
1.0
 40
1.0
 10
-181.1037
 20
39.6511
 30
0.0
 10
-181.1037
 20
39.6511
 30
0.0
 10
-176.353
 20
36.9083
 30
0.0
 10
-176.353
 20
36.9083
 30
0.0
 10
-176.353
 20
36.9083
 30
0.0
 10
-176.353
 20
36.9083
 30
0.0
 10
-176.353
 20
29.8014
 30
0.0
 10
-176.353
 20
29.8014
 30
0.0
 10
-176.353
 20
29.8014
 30
0.0
 10
-176.353
 20
29.8014
 30
0.0
 10
-181.1282
 20
32.5584
 30
0.0
 10
-181.1282
 20
32.5584
 30
0.0
 10
-181.1282
 20
32.5584
 30
0.0
 10
-181.1282
 20
32.5584
 30
0.0
 10
-181.1037
 20
39.6511
 30
0.0
 10
-181.1037
 20
39.6511
 30
0.0
  0
SPLINE
  5
114
330
1F
100
AcDbEntity
  8
layer 1
 62
     7
100
AcDbSpline
210
0.0
220
0.0
230
1.0
 70
    11
 71
     3
 72
    20
 73
    16
 74
     0
 42
0.0000000001
 43
0.0000000001
 12
1.0
 22
0.0
 32
0.0
 13
1.0
 23
0.0
 33
0.0
 40
0.0
 40
0.0
 40
0.0
 40
0.0
 40
0.2
 40
0.2
 40
0.2
 40
0.2
 40
0.4
 40
0.4
 40
0.4
 40
0.4
 40
0.6
 40
0.6
 40
0.6
 40
0.6
 40
1.0
 40
1.0
 40
1.0
 40
1.0
 10
-157.6308
 20
49.4989
 30
0.0
 10
-157.6308
 20
49.4989
 30
0.0
 10
-157.6489
 20
56.5953
 30
0.0
 10
-157.6489
 20
56.5953
 30
0.0
 10
-157.6489
 20
56.5953
 30
0.0
 10
-157.6489
 20
56.5953
 30
0.0
 10
-163.8423
 20
53.0195
 30
0.0
 10
-163.8423
 20
53.0195
 30
0.0
 10
-163.8423
 20
53.0195
 30
0.0
 10
-163.8423
 20
53.0195
 30
0.0
 10
-163.8423
 20
45.9127
 30
0.0
 10
-163.8423
 20
45.9127
 30
0.0
 10
-163.8423
 20
45.9127
 30
0.0
 10
-163.8423
 20
45.9127
 30
0.0
 10
-157.6308
 20
49.4989
 30
0.0
 10
-157.6308
 20
49.4989
 30
0.0
  0
SPLINE
  5
115
330
1F
100
AcDbEntity
  8
layer 1
 62
     7
100
AcDbSpline
210
0.0
220
0.0
230
1.0
 70
    11
 71
     3
 72
    20
 73
    16
 74
     0
 42
0.0000000001
 43
0.0000000001
 12
1.0
 22
0.0
 32
0.0
 13
1.0
 23
0.0
 33
0.0
 40
0.0
 40
0.0
 40
0.0
 40
0.0
 40
0.2
 40
0.2
 40
0.2
 40
0.2
 40
0.4
 40
0.4
 40
0.4
 40
0.4
 40
0.6
 40
0.6
 40
0.6
 40
0.6
 40
1.0
 40
1.0
 40
1.0
 40
1.0
 10
-154.7236
 20
49.4372
 30
0.0
 10
-154.7236
 20
49.4372
 30
0.0
 10
-154.7056
 20
56.5337
 30
0.0
 10
-154.7056
 20
56.5337
 30
0.0
 10
-154.7056
 20
56.5337
 30
0.0
 10
-154.7056
 20
56.5337
 30
0.0
 10
-148.5121
 20
52.9579
 30
0.0
 10
-148.5121
 20
52.9579
 30
0.0
 10
-148.5121
 20
52.9579
 30
0.0
 10
-148.5121
 20
52.9579
 30
0.0
 10
-148.5121
 20
45.851
 30
0.0
 10
-148.5121
 20
45.851
 30
0.0
 10
-148.5121
 20
45.851
 30
0.0
 10
-148.5121
 20
45.851
 30
0.0
 10
-154.7236
 20
49.4372
 30
0.0
 10
-154.7236
 20
49.4372
 30
0.0
  0
SPLINE
  5
116
330
1F
100
AcDbEntity
  8
layer 1
 62
     7
100
AcDbSpline
210
0.0
220
0.0
230
1.0
 70
    11
 71
     3
 72
    20
 73
    16
 74
     0
 42
0.0000000001
 43
0.0000000001
 12
1.0
 22
0.0
 32
0.0
 13
1.0
 23
0.0
 33
0.0
 40
0.0
 40
0.0
 40
0.0
 40
0.0
 40
0.2
 40
0.2
 40
0.2
 40
0.2
 40
0.4
 40
0.4
 40
0.4
 40
0.4
 40
0.6
 40
0.6
 40
0.6
 40
0.6
 40
1.0
 40
1.0
 40
1.0
 40
1.0
 10
-156.144
 20
25.331
 30
0.0
 10
-156.144
 20
25.331
 30
0.0
 10
-150.0073
 20
21.7672
 30
0.0
 10
-150.0073
 20
21.7672
 30
0.0
 10
-150.0073
 20
21.7672
 30
0.0
 10
-150.0073
 20
21.7672
 30
0.0
 10
-156.2007
 20
18.1914
 30
0.0
 10
-156.2007
 20
18.1914
 30
0.0
 10
-156.2007
 20
18.1914
 30
0.0
 10
-156.2007
 20
18.1914
 30
0.0
 10
-162.3555
 20
21.7448
 30
0.0
 10
-162.3555
 20
21.7448
 30
0.0
 10
-162.3555
 20
21.7448
 30
0.0
 10
-162.3555
 20
21.7448
 30
0.0
 10
-156.144
 20
25.331
 30
0.0
 10
-156.144
 20
25.331
 30
0.0
  0
SPLINE
  5
117
330
1F
100
AcDbEntity
  8
layer 1
 62
     7
100
AcDbSpline
210
0.0
220
0.0
230
1.0
 70
    11
 71
     3
 72
    20
 73
    16
 74
     0
 42
0.0000000001
 43
0.0000000001
 12
1.0
 22
0.0
 32
0.0
 13
1.0
 23
0.0
 33
0.0
 40
0.0
 40
0.0
 40
0.0
 40
0.0
 40
0.2
 40
0.2
 40
0.2
 40
0.2
 40
0.4
 40
0.4
 40
0.4
 40
0.4
 40
0.6
 40
0.6
 40
0.6
 40
0.6
 40
1.0
 40
1.0
 40
1.0
 40
1.0
 10
-119.2361
 20
25.331
 30
0.0
 10
-119.2361
 20
25.331
 30
0.0
 10
-113.0995
 20
21.7672
 30
0.0
 10
-113.0995
 20
21.7672
 30
0.0
 10
-113.0995
 20
21.7672
 30
0.0
 10
-113.0995
 20
21.7672
 30
0.0
 10
-119.2929
 20
18.1914
 30
0.0
 10
-119.2929
 20
18.1914
 30
0.0
 10
-119.2929
 20
18.1914
 30
0.0
 10
-119.2929
 20
18.1914
 30
0.0
 10
-125.4476
 20
21.7448
 30
0.0
 10
-125.4476
 20
21.7448
 30
0.0
 10
-125.4476
 20
21.7448
 30
0.0
 10
-125.4476
 20
21.7448
 30
0.0
 10
-119.2361
 20
25.331
 30
0.0
 10
-119.2361
 20
25.331
 30
0.0
  0
SPLINE
  5
118
330
1F
100
AcDbEntity
  8
layer 1
 62
     7
100
AcDbSpline
210
0.0
220
0.0
230
1.0
 70
    11
 71
     3
 72
    20
 73
    16
 74
     0
 42
0.0000000001
 43
0.0000000001
 12
1.0
 22
0.0
 32
0.0
 13
1.0
 23
0.0
 33
0.0
 40
0.0
 40
0.0
 40
0.0
 40
0.0
 40
0.2
 40
0.2
 40
0.2
 40
0.2
 40
0.4
 40
0.4
 40
0.4
 40
0.4
 40
0.6
 40
0.6
 40
0.6
 40
0.6
 40
1.0
 40
1.0
 40
1.0
 40
1.0
 10
-82.2555
 20
25.331
 30
0.0
 10
-82.2555
 20
25.331
 30
0.0
 10
-76.1189
 20
21.7672
 30
0.0
 10
-76.1189
 20
21.7672
 30
0.0
 10
-76.1189
 20
21.7672
 30
0.0
 10
-76.1189
 20
21.7672
 30
0.0
 10
-82.3123
 20
18.1914
 30
0.0
 10
-82.3123
 20
18.1914
 30
0.0
 10
-82.3123
 20
18.1914
 30
0.0
 10
-82.3123
 20
18.1914
 30
0.0
 10
-88.467
 20
21.7448
 30
0.0
 10
-88.467
 20
21.7448
 30
0.0
 10
-88.467
 20
21.7448
 30
0.0
 10
-88.467
 20
21.7448
 30
0.0
 10
-82.2555
 20
25.331
 30
0.0
 10
-82.2555
 20
25.331
 30
0.0
  0
SPLINE
  5
119
330
1F
100
AcDbEntity
  8
layer 1
 62
     7
100
AcDbSpline
210
0.0
220
0.0
230
1.0
 70
    11
 71
     3
 72
    20
 73
    16
 74
     0
 42
0.0000000001
 43
0.0000000001
 12
1.0
 22
0.0
 32
0.0
 13
1.0
 23
0.0
 33
0.0
 40
0.0
 40
0.0
 40
0.0
 40
0.0
 40
0.2
 40
0.2
 40
0.2
 40
0.2
 40
0.4
 40
0.4
 40
0.4
 40
0.4
 40
0.6
 40
0.6
 40
0.6
 40
0.6
 40
1.0
 40
1.0
 40
1.0
 40
1.0
 10
-128.4421
 20
62.7523
 30
0.0
 10
-128.4421
 20
62.7523
 30
0.0
 10
-122.3055
 20
59.1885
 30
0.0
 10
-122.3055
 20
59.1885
 30
0.0
 10
-122.3055
 20
59.1885
 30
0.0
 10
-122.3055
 20
59.1885
 30
0.0
 10
-128.4989
 20
55.6127
 30
0.0
 10
-128.4989
 20
55.6127
 30
0.0
 10
-128.4989
 20
55.6127
 30
0.0
 10
-128.4989
 20
55.6127
 30
0.0
 10
-134.6536
 20
59.1661
 30
0.0
 10
-134.6536
 20
59.1661
 30
0.0
 10
-134.6536
 20
59.1661
 30
0.0
 10
-134.6536
 20
59.1661
 30
0.0
 10
-128.4421
 20
62.7523
 30
0.0
 10
-128.4421
 20
62.7523
 30
0.0
  0
SPLINE
  5
11A
330
1F
100
AcDbEntity
  8
layer 1
 62
     7
100
AcDbSpline
210
0.0
220
0.0
230
1.0
 70
    11
 71
     3
 72
    20
 73
    16
 74
     0
 42
0.0000000001
 43
0.0000000001
 12
1.0
 22
0.0
 32
0.0
 13
1.0
 23
0.0
 33
0.0
 40
0.0
 40
0.0
 40
0.0
 40
0.0
 40
0.2
 40
0.2
 40
0.2
 40
0.2
 40
0.4
 40
0.4
 40
0.4
 40
0.4
 40
0.6
 40
0.6
 40
0.6
 40
0.6
 40
1.0
 40
1.0
 40
1.0
 40
1.0
 10
-146.9502
 20
62.7523
 30
0.0
 10
-146.9502
 20
62.7523
 30
0.0
 10
-140.8135
 20
59.1885
 30
0.0
 10
-140.8135
 20
59.1885
 30
0.0
 10
-140.8135
 20
59.1885
 30
0.0
 10
-140.8135
 20
59.1885
 30
0.0
 10
-147.0069
 20
55.6127
 30
0.0
 10
-147.0069
 20
55.6127
 30
0.0
 10
-147.0069
 20
55.6127
 30
0.0
 10
-147.0069
 20
55.6127
 30
0.0
 10
-153.1617
 20
59.1661
 30
0.0
 10
-153.1617
 20
59.1661
 30
0.0
 10
-153.1617
 20
59.1661
 30
0.0
 10
-153.1617
 20
59.1661
 30
0.0
 10
-146.9502
 20
62.7523
 30
0.0
 10
-146.9502
 20
62.7523
 30
0.0
  0
SPLINE
  5
11B
330
1F
100
AcDbEntity
  8
layer 1
 62
     7
100
AcDbSpline
210
0.0
220
0.0
230
1.0
 70
    11
 71
     3
 72
    20
 73
    16
 74
     0
 42
0.0000000001
 43
0.0000000001
 12
1.0
 22
0.0
 32
0.0
 13
1.0
 23
0.0
 33
0.0
 40
0.0
 40
0.0
 40
0.0
 40
0.0
 40
0.2
 40
0.2
 40
0.2
 40
0.2
 40
0.4
 40
0.4
 40
0.4
 40
0.4
 40
0.6
 40
0.6
 40
0.6
 40
0.6
 40
1.0
 40
1.0
 40
1.0
 40
1.0
 10
-91.4532
 20
62.8226
 30
0.0
 10
-91.4532
 20
62.8226
 30
0.0
 10
-85.3165
 20
59.2587
 30
0.0
 10
-85.3165
 20
59.2587
 30
0.0
 10
-85.3165
 20
59.2587
 30
0.0
 10
-85.3165
 20
59.2587
 30
0.0
 10
-91.51
 20
55.6829
 30
0.0
 10
-91.51
 20
55.6829
 30
0.0
 10
-91.51
 20
55.6829
 30
0.0
 10
-91.51
 20
55.6829
 30
0.0
 10
-97.6647
 20
59.2364
 30
0.0
 10
-97.6647
 20
59.2364
 30
0.0
 10
-97.6647
 20
59.2364
 30
0.0
 10
-97.6647
 20
59.2364
 30
0.0
 10
-91.4532
 20
62.8226
 30
0.0
 10
-91.4532
 20
62.8226
 30
0.0
  0
SPLINE
  5
11C
330
1F
100
AcDbEntity
  8
layer 1
 62
     7
100
AcDbSpline
210
0.0
220
0.0
230
1.0
 70
    11
 71
     3
 72
    20
 73
    16
 74
     0
 42
0.0000000001
 43
0.0000000001
 12
1.0
 22
0.0
 32
0.0
 13
1.0
 23
0.0
 33
0.0
 40
0.0
 40
0.0
 40
0.0
 40
0.0
 40
0.2
 40
0.2
 40
0.2
 40
0.2
 40
0.4
 40
0.4
 40
0.4
 40
0.4
 40
0.6
 40
0.6
 40
0.6
 40
0.6
 40
1.0
 40
1.0
 40
1.0
 40
1.0
 10
-165.4695
 20
62.7523
 30
0.0
 10
-165.4695
 20
62.7523
 30
0.0
 10
-159.3328
 20
59.1885
 30
0.0
 10
-159.3328
 20
59.1885
 30
0.0
 10
-159.3328
 20
59.1885
 30
0.0
 10
-159.3328
 20
59.1885
 30
0.0
 10
-165.5262
 20
55.6127
 30
0.0
 10
-165.5262
 20
55.6127
 30
0.0
 10
-165.5262
 20
55.6127
 30
0.0
 10
-165.5262
 20
55.6127
 30
0.0
 10
-171.681
 20
59.1661
 30
0.0
 10
-171.681
 20
59.1661
 30
0.0
 10
-171.681
 20
59.1661
 30
0.0
 10
-171.681
 20
59.1661
 30
0.0
 10
-165.4695
 20
62.7523
 30
0.0
 10
-165.4695
 20
62.7523
 30
0.0
  0
SPLINE
  5
11D
330
1F
100
AcDbEntity
  8
layer 1
 62
     7
100
AcDbSpline
210
0.0
220
0.0
230
1.0
 70
    11
 71
     3
 72
    16
 73
    12
 74
     0
 42
0.0000000001
 43
0.0000000001
 12
1.0
 22
0.0
 32
0.0
 13
1.0
 23
0.0
 33
0.0
 40
0.0
 40
0.0
 40
0.0
 40
0.0
 40
0.25
 40
0.25
 40
0.25
 40
0.25
 40
0.5
 40
0.5
 40
0.5
 40
0.5
 40
1.0
 40
1.0
 40
1.0
 40
1.0
 10
-181.1328
 20
61.0062
 30
0.0
 10
-181.1328
 20
61.0062
 30
0.0
 10
-178.0028
 20
59.1884
 30
0.0
 10
-178.0028
 20
59.1884
 30
0.0
 10
-178.0028
 20
59.1884
 30
0.0
 10
-178.0028
 20
59.1884
 30
0.0
 10
-181.1429
 20
57.3755
 30
0.0
 10
-181.1429
 20
57.3755
 30
0.0
 10
-181.1429
 20
57.3755
 30
0.0
 10
-181.1429
 20
57.3755
 30
0.0
 10
-181.1328
 20
61.0062
 30
0.0
 10
-181.1328
 20
61.0062
 30
0.0
  0
SPLINE
  5
11E
330
1F
100
AcDbEntity
  8
layer 1
 62
     7
100
AcDbSpline
210
0.0
220
0.0
230
1.0
 70
    11
 71
     3
 72
    20
 73
    16
 74
     0
 42
0.0000000001
 43
0.0000000001
 12
1.0
 22
0.0
 32
0.0
 13
1.0
 23
0.0
 33
0.0
 40
0.0
 40
0.0
 40
0.0
 40
0.0
 40
0.2
 40
0.2
 40
0.2
 40
0.2
 40
0.4
 40
0.4
 40
0.4
 40
0.4
 40
0.6
 40
0.6
 40
0.6
 40
0.6
 40
1.0
 40
1.0
 40
1.0
 40
1.0
 10
-110.0422
 20
62.7523
 30
0.0
 10
-110.0422
 20
62.7523
 30
0.0
 10
-103.9056
 20
59.1885
 30
0.0
 10
-103.9056
 20
59.1885
 30
0.0
 10
-103.9056
 20
59.1885
 30
0.0
 10
-103.9056
 20
59.1885
 30
0.0
 10
-110.099
 20
55.6127
 30
0.0
 10
-110.099
 20
55.6127
 30
0.0
 10
-110.099
 20
55.6127
 30
0.0
 10
-110.099
 20
55.6127
 30
0.0
 10
-116.2537
 20
59.1661
 30
0.0
 10
-116.2537
 20
59.1661
 30
0.0
 10
-116.2537
 20
59.1661
 30
0.0
 10
-116.2537
 20
59.1661
 30
0.0
 10
-110.0422
 20
62.7523
 30
0.0
 10
-110.0422
 20
62.7523
 30
0.0
  0
SPLINE
  5
11F
330
1F
100
AcDbEntity
  8
layer 1
 62
     7
100
AcDbSpline
210
0.0
220
0.0
230
1.0
 70
    11
 71
     3
 72
    16
 73
    12
 74
     0
 42
0.0000000001
 43
0.0000000001
 12
1.0
 22
0.0
 32
0.0
 13
1.0
 23
0.0
 33
0.0
 40
0.0
 40
0.0
 40
0.0
 40
0.0
 40
0.25
 40
0.25
 40
0.25
 40
0.25
 40
0.5
 40
0.5
 40
0.5
 40
0.5
 40
1.0
 40
1.0
 40
1.0
 40
1.0
 10
-75.7481
 20
57.1308
 30
0.0
 10
-75.7481
 20
57.1308
 30
0.0
 10
-79.2732
 20
59.1661
 30
0.0
 10
-79.2732
 20
59.1661
 30
0.0
 10
-79.2732
 20
59.1661
 30
0.0
 10
-79.2732
 20
59.1661
 30
0.0
 10
-75.7194
 20
61.2179
 30
0.0
 10
-75.7194
 20
61.2179
 30
0.0
 10
-75.7194
 20
61.2179
 30
0.0
 10
-75.7194
 20
61.2179
 30
0.0
 10
-75.7481
 20
57.1308
 30
0.0
 10
-75.7481
 20
57.1308
 30
0.0
  0
SPLINE
  5
120
330
1F
100
AcDbEntity
  8
layer 1
 62
     7
100
AcDbSpline
210
0.0
220
0.0
230
1.0
 70
    11
 71
     3
 72
    28
 73
    24
 74
     0
 42
0.0000000001
 43
0.0000000001
 12
1.0
 22
0.0
 32
0.0
 13
1.0
 23
0.0
 33
0.0
 40
0.0
 40
0.0
 40
0.0
 40
0.0
 40
0.1428571428571428
 40
0.1428571428571428
 40
0.1428571428571428
 40
0.1428571428571428
 40
0.2857142857142857
 40
0.2857142857142857
 40
0.2857142857142857
 40
0.2857142857142857
 40
0.4285714285714285
 40
0.4285714285714285
 40
0.4285714285714285
 40
0.4285714285714285
 40
0.5714285714285714
 40
0.5714285714285714
 40
0.5714285714285714
 40
0.5714285714285714
 40
0.7142857142857143
 40
0.7142857142857143
 40
0.7142857142857143
 40
0.7142857142857143
 40
1.0
 40
1.0
 40
1.0
 40
1.0
 10
-129.9854
 20
74.3181
 30
0.0
 10
-129.9854
 20
74.3181
 30
0.0
 10
-129.9854
 20
65.4392
 30
0.0
 10
-129.9854
 20
65.4392
 30
0.0
 10
-129.9854
 20
65.4392
 30
0.0
 10
-129.9854
 20
65.4392
 30
0.0
 10
-137.6709
 20
60.9997
 30
0.0
 10
-137.6709
 20
60.9997
 30
0.0
 10
-137.6709
 20
60.9997
 30
0.0
 10
-137.6709
 20
60.9997
 30
0.0
 10
-145.3563
 20
65.4392
 30
0.0
 10
-145.3563
 20
65.4392
 30
0.0
 10
-145.3563
 20
65.4392
 30
0.0
 10
-145.3563
 20
65.4392
 30
0.0
 10
-145.3563
 20
74.3181
 30
0.0
 10
-145.3563
 20
74.3181
 30
0.0
 10
-145.3563
 20
74.3181
 30
0.0
 10
-145.3563
 20
74.3181
 30
0.0
 10
-137.6709
 20
78.7576
 30
0.0
 10
-137.6709
 20
78.7576
 30
0.0
 10
-137.6709
 20
78.7576
 30
0.0
 10
-137.6709
 20
78.7576
 30
0.0
 10
-129.9854
 20
74.3181
 30
0.0
 10
-129.9854
 20
74.3181
 30
0.0
  0
SPLINE
  5
121
330
1F
100
AcDbEntity
  8
layer 1
 62
     7
100
AcDbSpline
210
0.0
220
0.0
230
1.0
 70
    11
 71
     3
 72
    20
 73
    16
 74
     0
 42
0.0000000001
 43
0.0000000001
 12
1.0
 22
0.0
 32
0.0
 13
1.0
 23
0.0
 33
0.0
 40
0.0
 40
0.0
 40
0.0
 40
0.0
 40
0.2
 40
0.2
 40
0.2
 40
0.2
 40
0.4
 40
0.4
 40
0.4
 40
0.4
 40
0.6
 40
0.6
 40
0.6
 40
0.6
 40
1.0
 40
1.0
 40
1.0
 40
1.0
 10
-111.5743
 20
65.1794
 30
0.0
 10
-111.5743
 20
65.1794
 30
0.0
 10
-111.5924
 20
72.2759
 30
0.0
 10
-111.5924
 20
72.2759
 30
0.0
 10
-111.5924
 20
72.2759
 30
0.0
 10
-111.5924
 20
72.2759
 30
0.0
 10
-117.7858
 20
68.7001
 30
0.0
 10
-117.7858
 20
68.7001
 30
0.0
 10
-117.7858
 20
68.7001
 30
0.0
 10
-117.7858
 20
68.7001
 30
0.0
 10
-117.7858
 20
61.5932
 30
0.0
 10
-117.7858
 20
61.5932
 30
0.0
 10
-117.7858
 20
61.5932
 30
0.0
 10
-117.7858
 20
61.5932
 30
0.0
 10
-111.5743
 20
65.1794
 30
0.0
 10
-111.5743
 20
65.1794
 30
0.0
  0
SPLINE
  5
122
330
1F
100
AcDbEntity
  8
layer 1
 62
     7
100
AcDbSpline
210
0.0
220
0.0
230
1.0
 70
    11
 71
     3
 72
    20
 73
    16
 74
     0
 42
0.0000000001
 43
0.0000000001
 12
1.0
 22
0.0
 32
0.0
 13
1.0
 23
0.0
 33
0.0
 40
0.0
 40
0.0
 40
0.0
 40
0.0
 40
0.2
 40
0.2
 40
0.2
 40
0.2
 40
0.4
 40
0.4
 40
0.4
 40
0.4
 40
0.6
 40
0.6
 40
0.6
 40
0.6
 40
1.0
 40
1.0
 40
1.0
 40
1.0
 10
-126.9012
 20
65.3463
 30
0.0
 10
-126.9012
 20
65.3463
 30
0.0
 10
-126.8831
 20
72.4427
 30
0.0
 10
-126.8831
 20
72.4427
 30
0.0
 10
-126.8831
 20
72.4427
 30
0.0
 10
-126.8831
 20
72.4427
 30
0.0
 10
-120.6897
 20
68.8669
 30
0.0
 10
-120.6897
 20
68.8669
 30
0.0
 10
-120.6897
 20
68.8669
 30
0.0
 10
-120.6897
 20
68.8669
 30
0.0
 10
-120.6897
 20
61.7601
 30
0.0
 10
-120.6897
 20
61.7601
 30
0.0
 10
-120.6897
 20
61.7601
 30
0.0
 10
-120.6897
 20
61.7601
 30
0.0
 10
-126.9012
 20
65.3463
 30
0.0
 10
-126.9012
 20
65.3463
 30
0.0
  0
SPLINE
  5
123
330
1F
100
AcDbEntity
  8
layer 1
 62
     7
100
AcDbSpline
210
0.0
220
0.0
230
1.0
 70
    11
 71
     3
 72
    28
 73
    24
 74
     0
 42
0.0000000001
 43
0.0000000001
 12
1.0
 22
0.0
 32
0.0
 13
1.0
 23
0.0
 33
0.0
 40
0.0
 40
0.0
 40
0.0
 40
0.0
 40
0.1428571428571428
 40
0.1428571428571428
 40
0.1428571428571428
 40
0.1428571428571428
 40
0.2857142857142857
 40
0.2857142857142857
 40
0.2857142857142857
 40
0.2857142857142857
 40
0.4285714285714285
 40
0.4285714285714285
 40
0.4285714285714285
 40
0.4285714285714285
 40
0.5714285714285714
 40
0.5714285714285714
 40
0.5714285714285714
 40
0.5714285714285714
 40
0.7142857142857143
 40
0.7142857142857143
 40
0.7142857142857143
 40
0.7142857142857143
 40
1.0
 40
1.0
 40
1.0
 40
1.0
 10
-93.1466
 20
74.3181
 30
0.0
 10
-93.1466
 20
74.3181
 30
0.0
 10
-93.1466
 20
65.4392
 30
0.0
 10
-93.1466
 20
65.4392
 30
0.0
 10
-93.1466
 20
65.4392
 30
0.0
 10
-93.1466
 20
65.4392
 30
0.0
 10
-100.8321
 20
60.9997
 30
0.0
 10
-100.8321
 20
60.9997
 30
0.0
 10
-100.8321
 20
60.9997
 30
0.0
 10
-100.8321
 20
60.9997
 30
0.0
 10
-108.5176
 20
65.4392
 30
0.0
 10
-108.5176
 20
65.4392
 30
0.0
 10
-108.5176
 20
65.4392
 30
0.0
 10
-108.5176
 20
65.4392
 30
0.0
 10
-108.5176
 20
74.3181
 30
0.0
 10
-108.5176
 20
74.3181
 30
0.0
 10
-108.5176
 20
74.3181
 30
0.0
 10
-108.5176
 20
74.3181
 30
0.0
 10
-100.8321
 20
78.7576
 30
0.0
 10
-100.8321
 20
78.7576
 30
0.0
 10
-100.8321
 20
78.7576
 30
0.0
 10
-100.8321
 20
78.7576
 30
0.0
 10
-93.1466
 20
74.3181
 30
0.0
 10
-93.1466
 20
74.3181
 30
0.0
  0
SPLINE
  5
124
330
1F
100
AcDbEntity
  8
layer 1
 62
     7
100
AcDbSpline
210
0.0
220
0.0
230
1.0
 70
    11
 71
     3
 72
    20
 73
    16
 74
     0
 42
0.0000000001
 43
0.0000000001
 12
1.0
 22
0.0
 32
0.0
 13
1.0
 23
0.0
 33
0.0
 40
0.0
 40
0.0
 40
0.0
 40
0.0
 40
0.2
 40
0.2
 40
0.2
 40
0.2
 40
0.4
 40
0.4
 40
0.4
 40
0.4
 40
0.6
 40
0.6
 40
0.6
 40
0.6
 40
1.0
 40
1.0
 40
1.0
 40
1.0
 10
-89.9555
 20
65.3853
 30
0.0
 10
-89.9555
 20
65.3853
 30
0.0
 10
-89.9374
 20
72.4818
 30
0.0
 10
-89.9374
 20
72.4818
 30
0.0
 10
-89.9374
 20
72.4818
 30
0.0
 10
-89.9374
 20
72.4818
 30
0.0
 10
-83.744
 20
68.906
 30
0.0
 10
-83.744
 20
68.906
 30
0.0
 10
-83.744
 20
68.906
 30
0.0
 10
-83.744
 20
68.906
 30
0.0
 10
-83.744
 20
61.7991
 30
0.0
 10
-83.744
 20
61.7991
 30
0.0
 10
-83.744
 20
61.7991
 30
0.0
 10
-83.744
 20
61.7991
 30
0.0
 10
-89.9555
 20
65.3853
 30
0.0
 10
-89.9555
 20
65.3853
 30
0.0
  0
SPLINE
  5
125
330
1F
100
AcDbEntity
  8
layer 1
 62
     7
100
AcDbSpline
210
0.0
220
0.0
230
1.0
 70
    11
 71
     3
 72
    20
 73
    16
 74
     0
 42
0.0000000001
 43
0.0000000001
 12
1.0
 22
0.0
 32
0.0
 13
1.0
 23
0.0
 33
0.0
 40
0.0
 40
0.0
 40
0.0
 40
0.0
 40
0.2
 40
0.2
 40
0.2
 40
0.2
 40
0.4
 40
0.4
 40
0.4
 40
0.4
 40
0.6
 40
0.6
 40
0.6
 40
0.6
 40
1.0
 40
1.0
 40
1.0
 40
1.0
 10
-163.9893
 20
65.5099
 30
0.0
 10
-163.9893
 20
65.5099
 30
0.0
 10
-163.9712
 20
72.6063
 30
0.0
 10
-163.9712
 20
72.6063
 30
0.0
 10
-163.9712
 20
72.6063
 30
0.0
 10
-163.9712
 20
72.6063
 30
0.0
 10
-157.7777
 20
69.0306
 30
0.0
 10
-157.7777
 20
69.0306
 30
0.0
 10
-157.7777
 20
69.0306
 30
0.0
 10
-157.7777
 20
69.0306
 30
0.0
 10
-157.7777
 20
61.9237
 30
0.0
 10
-157.7777
 20
61.9237
 30
0.0
 10
-157.7777
 20
61.9237
 30
0.0
 10
-157.7777
 20
61.9237
 30
0.0
 10
-163.9893
 20
65.5099
 30
0.0
 10
-163.9893
 20
65.5099
 30
0.0
  0
SPLINE
  5
126
330
1F
100
AcDbEntity
  8
layer 1
 62
     7
100
AcDbSpline
210
0.0
220
0.0
230
1.0
 70
    11
 71
     3
 72
    20
 73
    16
 74
     0
 42
0.0000000001
 43
0.0000000001
 12
1.0
 22
0.0
 32
0.0
 13
1.0
 23
0.0
 33
0.0
 40
0.0
 40
0.0
 40
0.0
 40
0.0
 40
0.2
 40
0.2
 40
0.2
 40
0.2
 40
0.4
 40
0.4
 40
0.4
 40
0.4
 40
0.6
 40
0.6
 40
0.6
 40
0.6
 40
1.0
 40
1.0
 40
1.0
 40
1.0
 10
-75.6718
 20
71.8745
 30
0.0
 10
-75.6718
 20
71.8745
 30
0.0
 10
-80.7109
 20
68.9652
 30
0.0
 10
-80.7109
 20
68.9652
 30
0.0
 10
-80.7109
 20
68.9652
 30
0.0
 10
-80.7109
 20
68.9652
 30
0.0
 10
-80.7109
 20
61.8583
 30
0.0
 10
-80.7109
 20
61.8583
 30
0.0
 10
-80.7109
 20
61.8583
 30
0.0
 10
-80.7109
 20
61.8583
 30
0.0
 10
-75.6954
 20
64.754
 30
0.0
 10
-75.6954
 20
64.754
 30
0.0
 10
-75.6954
 20
64.754
 30
0.0
 10
-75.6954
 20
64.754
 30
0.0
 10
-75.6718
 20
71.8745
 30
0.0
 10
-75.6718
 20
71.8745
 30
0.0
  0
SPLINE
  5
127
330
1F
100
AcDbEntity
  8
layer 1
 62
     7
100
AcDbSpline
210
0.0
220
0.0
230
1.0
 70
    11
 71
     3
 72
    28
 73
    24
 74
     0
 42
0.0000000001
 43
0.0000000001
 12
1.0
 22
0.0
 32
0.0
 13
1.0
 23
0.0
 33
0.0
 40
0.0
 40
0.0
 40
0.0
 40
0.0
 40
0.1428571428571428
 40
0.1428571428571428
 40
0.1428571428571428
 40
0.1428571428571428
 40
0.2857142857142857
 40
0.2857142857142857
 40
0.2857142857142857
 40
0.2857142857142857
 40
0.4285714285714285
 40
0.4285714285714285
 40
0.4285714285714285
 40
0.4285714285714285
 40
0.5714285714285714
 40
0.5714285714285714
 40
0.5714285714285714
 40
0.5714285714285714
 40
0.7142857142857143
 40
0.7142857142857143
 40
0.7142857142857143
 40
0.7142857142857143
 40
1.0
 40
1.0
 40
1.0
 40
1.0
 10
-181.1448
 20
0.6268
 30
0.0
 10
-181.1448
 20
0.6268
 30
0.0
 10
-174.7073
 20
-3.0917
 30
0.0
 10
-174.7073
 20
-3.0917
 30
0.0
 10
-174.7073
 20
-3.0917
 30
0.0
 10
-174.7073
 20
-3.0917
 30
0.0
 10
-167.0219
 20
1.3478
 30
0.0
 10
-167.0219
 20
1.3478
 30
0.0
 10
-167.0219
 20
1.3478
 30
0.0
 10
-167.0219
 20
1.3478
 30
0.0
 10
-167.0219
 20
10.2267
 30
0.0
 10
-167.0219
 20
10.2267
 30
0.0
 10
-167.0219
 20
10.2267
 30
0.0
 10
-167.0219
 20
10.2267
 30
0.0
 10
-174.7073
 20
14.6662
 30
0.0
 10
-174.7073
 20
14.6662
 30
0.0
 10
-174.7073
 20
14.6662
 30
0.0
 10
-174.7073
 20
14.6662
 30
0.0
 10
-181.1338
 20
10.954
 30
0.0
 10
-181.1338
 20
10.954
 30
0.0
 10
-181.1338
 20
10.954
 30
0.0
 10
-181.1338
 20
10.954
 30
0.0
 10
-181.1448
 20
0.6268
 30
0.0
 10
-181.1448
 20
0.6268
 30
0.0
  0
SPLINE
  5
128
330
1F
100
AcDbEntity
  8
layer 1
 62
     7
100
AcDbSpline
210
0.0
220
0.0
230
1.0
 70
    11
 71
     3
 72
    20
 73
    16
 74
     0
 42
0.0000000001
 43
0.0000000001
 12
1.0
 22
0.0
 32
0.0
 13
1.0
 23
0.0
 33
0.0
 40
0.0
 40
0.0
 40
0.0
 40
0.0
 40
0.2
 40
0.2
 40
0.2
 40
0.2
 40
0.4
 40
0.4
 40
0.4
 40
0.4
 40
0.6
 40
0.6
 40
0.6
 40
0.6
 40
1.0
 40
1.0
 40
1.0
 40
1.0
 10
-102.3223
 20
-108.4223
 30
0.0
 10
-102.3223
 20
-108.4223
 30
0.0
 10
-102.3341
 20
-103.8183
 30
0.0
 10
-102.3341
 20
-103.8183
 30
0.0
 10
-102.3341
 20
-103.8183
 30
0.0
 10
-102.3341
 20
-103.8183
 30
0.0
 10
-108.5275
 20
-107.394
 30
0.0
 10
-108.5275
 20
-107.394
 30
0.0
 10
-108.5275
 20
-107.394
 30
0.0
 10
-108.5275
 20
-107.394
 30
0.0
 10
-108.5275
 20
-108.4602
 30
0.0
 10
-108.5275
 20
-108.4602
 30
0.0
 10
-108.5275
 20
-108.4602
 30
0.0
 10
-108.5275
 20
-108.4602
 30
0.0
 10
-102.3223
 20
-108.4223
 30
0.0
 10
-102.3223
 20
-108.4223
 30
0.0
  0
SPLINE
  5
129
330
1F
100
AcDbEntity
  8
layer 1
 62
     7
100
AcDbSpline
210
0.0
220
0.0
230
1.0
 70
    11
 71
     3
 72
    20
 73
    16
 74
     0
 42
0.0000000001
 43
0.0000000001
 12
1.0
 22
0.0
 32
0.0
 13
1.0
 23
0.0
 33
0.0
 40
0.0
 40
0.0
 40
0.0
 40
0.0
 40
0.2
 40
0.2
 40
0.2
 40
0.2
 40
0.4
 40
0.4
 40
0.4
 40
0.4
 40
0.6
 40
0.6
 40
0.6
 40
0.6
 40
1.0
 40
1.0
 40
1.0
 40
1.0
 10
-99.061
 20
-108.4636
 30
0.0
 10
-99.061
 20
-108.4636
 30
0.0
 10
-99.061
 20
-103.8462
 30
0.0
 10
-99.061
 20
-103.8462
 30
0.0
 10
-99.061
 20
-103.8462
 30
0.0
 10
-99.061
 20
-103.8462
 30
0.0
 10
-92.8676
 20
-107.4219
 30
0.0
 10
-92.8676
 20
-107.4219
 30
0.0
 10
-92.8676
 20
-107.4219
 30
0.0
 10
-92.8676
 20
-107.4219
 30
0.0
 10
-92.8676
 20
-108.4636
 30
0.0
 10
-92.8676
 20
-108.4636
 30
0.0
 10
-92.8676
 20
-108.4636
 30
0.0
 10
-92.8676
 20
-108.4636
 30
0.0
 10
-99.061
 20
-108.4636
 30
0.0
 10
-99.061
 20
-108.4636
 30
0.0
  0
SPLINE
  5
12A
330
1F
100
AcDbEntity
  8
layer 1
 62
     7
100
AcDbSpline
210
0.0
220
0.0
230
1.0
 70
    11
 71
     3
 72
    24
 73
    20
 74
     0
 42
0.0000000001
 43
0.0000000001
 12
1.0
 22
0.0
 32
0.0
 13
1.0
 23
0.0
 33
0.0
 40
0.0
 40
0.0
 40
0.0
 40
0.0
 40
0.1666666666666667
 40
0.1666666666666667
 40
0.1666666666666667
 40
0.1666666666666667
 40
0.3333333333333333
 40
0.3333333333333333
 40
0.3333333333333333
 40
0.3333333333333333
 40
0.5
 40
0.5
 40
0.5
 40
0.5
 40
0.6666666666666666
 40
0.6666666666666666
 40
0.6666666666666666
 40
0.6666666666666666
 40
1.0
 40
1.0
 40
1.0
 40
1.0
 10
-156.2206
 20
-102.9072
 30
0.0
 10
-156.2206
 20
-102.9072
 30
0.0
 10
-150.084
 20
-106.471
 30
0.0
 10
-150.084
 20
-106.471
 30
0.0
 10
-150.084
 20
-106.471
 30
0.0
 10
-150.084
 20
-106.471
 30
0.0
 10
-153.5905
 20
-108.4955
 30
0.0
 10
-153.5905
 20
-108.4955
 30
0.0
 10
-153.5905
 20
-108.4955
 30
0.0
 10
-153.5905
 20
-108.4955
 30
0.0
 10
-158.9714
 20
-108.4914
 30
0.0
 10
-158.9714
 20
-108.4914
 30
0.0
 10
-158.9714
 20
-108.4914
 30
0.0
 10
-158.9714
 20
-108.4914
 30
0.0
 10
-162.4322
 20
-106.4934
 30
0.0
 10
-162.4322
 20
-106.4934
 30
0.0
 10
-162.4322
 20
-106.4934
 30
0.0
 10
-162.4322
 20
-106.4934
 30
0.0
 10
-156.2206
 20
-102.9072
 30
0.0
 10
-156.2206
 20
-102.9072
 30
0.0
  0
SPLINE
  5
12B
330
1F
100
AcDbEntity
  8
layer 1
 62
     7
100
AcDbSpline
210
0.0
220
0.0
230
1.0
 70
    11
 71
     3
 72
    24
 73
    20
 74
     0
 42
0.0000000001
 43
0.0000000001
 12
1.0
 22
0.0
 32
0.0
 13
1.0
 23
0.0
 33
0.0
 40
0.0
 40
0.0
 40
0.0
 40
0.0
 40
0.1666666666666667
 40
0.1666666666666667
 40
0.1666666666666667
 40
0.1666666666666667
 40
0.3333333333333333
 40
0.3333333333333333
 40
0.3333333333333333
 40
0.3333333333333333
 40
0.5
 40
0.5
 40
0.5
 40
0.5
 40
0.6666666666666666
 40
0.6666666666666666
 40
0.6666666666666666
 40
0.6666666666666666
 40
1.0
 40
1.0
 40
1.0
 40
1.0
 10
-82.1684
 20
-102.9072
 30
0.0
 10
-82.1684
 20
-102.9072
 30
0.0
 10
-76.0318
 20
-106.471
 30
0.0
 10
-76.0318
 20
-106.471
 30
0.0
 10
-76.0318
 20
-106.471
 30
0.0
 10
-76.0318
 20
-106.471
 30
0.0
 10
-79.5382
 20
-108.4955
 30
0.0
 10
-79.5382
 20
-108.4955
 30
0.0
 10
-79.5382
 20
-108.4955
 30
0.0
 10
-79.5382
 20
-108.4955
 30
0.0
 10
-84.9192
 20
-108.4914
 30
0.0
 10
-84.9192
 20
-108.4914
 30
0.0
 10
-84.9192
 20
-108.4914
 30
0.0
 10
-84.9192
 20
-108.4914
 30
0.0
 10
-88.38
 20
-106.4934
 30
0.0
 10
-88.38
 20
-106.4934
 30
0.0
 10
-88.38
 20
-106.4934
 30
0.0
 10
-88.38
 20
-106.4934
 30
0.0
 10
-82.1684
 20
-102.9072
 30
0.0
 10
-82.1684
 20
-102.9072
 30
0.0
  0
SPLINE
  5
12C
330
1F
100
AcDbEntity
  8
layer 1
 62
     7
100
AcDbSpline
210
0.0
220
0.0
230
1.0
 70
    11
 71
     3
 72
    20
 73
    16
 74
     0
 42
0.0000000001
 43
0.0000000001
 12
1.0
 22
0.0
 32
0.0
 13
1.0
 23
0.0
 33
0.0
 40
0.0
 40
0.0
 40
0.0
 40
0.0
 40
0.2
 40
0.2
 40
0.2
 40
0.2
 40
0.4
 40
0.4
 40
0.4
 40
0.4
 40
0.6
 40
0.6
 40
0.6
 40
0.6
 40
1.0
 40
1.0
 40
1.0
 40
1.0
 10
-173.0768
 20
-108.4636
 30
0.0
 10
-173.0768
 20
-108.4636
 30
0.0
 10
-173.0768
 20
-103.8462
 30
0.0
 10
-173.0768
 20
-103.8462
 30
0.0
 10
-173.0768
 20
-103.8462
 30
0.0
 10
-173.0768
 20
-103.8462
 30
0.0
 10
-166.8834
 20
-107.4219
 30
0.0
 10
-166.8834
 20
-107.4219
 30
0.0
 10
-166.8834
 20
-107.4219
 30
0.0
 10
-166.8834
 20
-107.4219
 30
0.0
 10
-166.8834
 20
-108.4636
 30
0.0
 10
-166.8834
 20
-108.4636
 30
0.0
 10
-166.8834
 20
-108.4636
 30
0.0
 10
-166.8834
 20
-108.4636
 30
0.0
 10
-173.0768
 20
-108.4636
 30
0.0
 10
-173.0768
 20
-108.4636
 30
0.0
  0
SPLINE
  5
12D
330
1F
100
AcDbEntity
  8
layer 1
 62
     7
100
AcDbSpline
210
0.0
220
0.0
230
1.0
 70
    11
 71
     3
 72
    20
 73
    16
 74
     0
 42
0.0000000001
 43
0.0000000001
 12
1.0
 22
0.0
 32
0.0
 13
1.0
 23
0.0
 33
0.0
 40
0.0
 40
0.0
 40
0.0
 40
0.0
 40
0.2
 40
0.2
 40
0.2
 40
0.2
 40
0.4
 40
0.4
 40
0.4
 40
0.4
 40
0.6
 40
0.6
 40
0.6
 40
0.6
 40
1.0
 40
1.0
 40
1.0
 40
1.0
 10
-167.1561
 20
125.5999
 30
0.0
 10
-167.1561
 20
125.5999
 30
0.0
 10
-167.1514
 20
120.9557
 30
0.0
 10
-167.1514
 20
120.9557
 30
0.0
 10
-167.1514
 20
120.9557
 30
0.0
 10
-167.1514
 20
120.9557
 30
0.0
 10
-171.9265
 20
123.7127
 30
0.0
 10
-171.9265
 20
123.7127
 30
0.0
 10
-171.9265
 20
123.7127
 30
0.0
 10
-171.9265
 20
123.7127
 30
0.0
 10
-171.9321
 20
125.5999
 30
0.0
 10
-171.9321
 20
125.5999
 30
0.0
 10
-171.9321
 20
125.5999
 30
0.0
 10
-171.9321
 20
125.5999
 30
0.0
 10
-167.1561
 20
125.5999
 30
0.0
 10
-167.1561
 20
125.5999
 30
0.0
  0
SPLINE
  5
12E
330
1F
100
AcDbEntity
  8
layer 1
 62
     7
100
AcDbSpline
210
0.0
220
0.0
230
1.0
 70
    11
 71
     3
 72
    24
 73
    20
 74
     0
 42
0.0000000001
 43
0.0000000001
 12
1.0
 22
0.0
 32
0.0
 13
1.0
 23
0.0
 33
0.0
 40
0.0
 40
0.0
 40
0.0
 40
0.0
 40
0.1666666666666667
 40
0.1666666666666667
 40
0.1666666666666667
 40
0.1666666666666667
 40
0.3333333333333333
 40
0.3333333333333333
 40
0.3333333333333333
 40
0.3333333333333333
 40
0.5
 40
0.5
 40
0.5
 40
0.5
 40
0.6666666666666666
 40
0.6666666666666666
 40
0.6666666666666666
 40
0.6666666666666666
 40
1.0
 40
1.0
 40
1.0
 40
1.0
 10
-110.0345
 20
120.0434
 30
0.0
 10
-110.0345
 20
120.0434
 30
0.0
 10
-103.8978
 20
123.6073
 30
0.0
 10
-103.8978
 20
123.6073
 30
0.0
 10
-103.8978
 20
123.6073
 30
0.0
 10
-103.8978
 20
123.6073
 30
0.0
 10
-107.4043
 20
125.6317
 30
0.0
 10
-107.4043
 20
125.6317
 30
0.0
 10
-107.4043
 20
125.6317
 30
0.0
 10
-107.4043
 20
125.6317
 30
0.0
 10
-112.7853
 20
125.6277
 30
0.0
 10
-112.7853
 20
125.6277
 30
0.0
 10
-112.7853
 20
125.6277
 30
0.0
 10
-112.7853
 20
125.6277
 30
0.0
 10
-116.2461
 20
123.6296
 30
0.0
 10
-116.2461
 20
123.6296
 30
0.0
 10
-116.2461
 20
123.6296
 30
0.0
 10
-116.2461
 20
123.6296
 30
0.0
 10
-110.0345
 20
120.0434
 30
0.0
 10
-110.0345
 20
120.0434
 30
0.0
  0
SPLINE
  5
12F
330
1F
100
AcDbEntity
  8
layer 1
 62
     7
100
AcDbSpline
210
0.0
220
0.0
230
1.0
 70
    11
 71
     3
 72
    20
 73
    16
 74
     0
 42
0.0000000001
 43
0.0000000001
 12
1.0
 22
0.0
 32
0.0
 13
1.0
 23
0.0
 33
0.0
 40
0.0
 40
0.0
 40
0.0
 40
0.0
 40
0.2
 40
0.2
 40
0.2
 40
0.2
 40
0.4
 40
0.4
 40
0.4
 40
0.4
 40
0.6
 40
0.6
 40
0.6
 40
0.6
 40
1.0
 40
1.0
 40
1.0
 40
1.0
 10
-130.1123
 20
125.5585
 30
0.0
 10
-130.1123
 20
125.5585
 30
0.0
 10
-130.124
 20
120.9544
 30
0.0
 10
-130.124
 20
120.9544
 30
0.0
 10
-130.124
 20
120.9544
 30
0.0
 10
-130.124
 20
120.9544
 30
0.0
 10
-136.3174
 20
124.5302
 30
0.0
 10
-136.3174
 20
124.5302
 30
0.0
 10
-136.3174
 20
124.5302
 30
0.0
 10
-136.3174
 20
124.5302
 30
0.0
 10
-136.3174
 20
125.5964
 30
0.0
 10
-136.3174
 20
125.5964
 30
0.0
 10
-136.3174
 20
125.5964
 30
0.0
 10
-136.3174
 20
125.5964
 30
0.0
 10
-130.1123
 20
125.5585
 30
0.0
 10
-130.1123
 20
125.5585
 30
0.0
  0
SPLINE
  5
130
330
1F
100
AcDbEntity
  8
layer 1
 62
     7
100
AcDbSpline
210
0.0
220
0.0
230
1.0
 70
    11
 71
     3
 72
    20
 73
    16
 74
     0
 42
0.0000000001
 43
0.0000000001
 12
1.0
 22
0.0
 32
0.0
 13
1.0
 23
0.0
 33
0.0
 40
0.0
 40
0.0
 40
0.0
 40
0.0
 40
0.2
 40
0.2
 40
0.2
 40
0.2
 40
0.4
 40
0.4
 40
0.4
 40
0.4
 40
0.6
 40
0.6
 40
0.6
 40
0.6
 40
1.0
 40
1.0
 40
1.0
 40
1.0
 10
-126.8509
 20
125.5999
 30
0.0
 10
-126.8509
 20
125.5999
 30
0.0
 10
-126.8509
 20
120.9824
 30
0.0
 10
-126.8509
 20
120.9824
 30
0.0
 10
-126.8509
 20
120.9824
 30
0.0
 10
-126.8509
 20
120.9824
 30
0.0
 10
-120.6575
 20
124.5582
 30
0.0
 10
-120.6575
 20
124.5582
 30
0.0
 10
-120.6575
 20
124.5582
 30
0.0
 10
-120.6575
 20
124.5582
 30
0.0
 10
-120.6575
 20
125.5999
 30
0.0
 10
-120.6575
 20
125.5999
 30
0.0
 10
-120.6575
 20
125.5999
 30
0.0
 10
-120.6575
 20
125.5999
 30
0.0
 10
-126.8509
 20
125.5999
 30
0.0
 10
-126.8509
 20
125.5999
 30
0.0
  0
SPLINE
  5
131
330
1F
100
AcDbEntity
  8
layer 1
 62
     7
100
AcDbSpline
210
0.0
220
0.0
230
1.0
 70
    11
 71
     3
 72
    20
 73
    16
 74
     0
 42
0.0000000001
 43
0.0000000001
 12
1.0
 22
0.0
 32
0.0
 13
1.0
 23
0.0
 33
0.0
 40
0.0
 40
0.0
 40
0.0
 40
0.0
 40
0.2
 40
0.2
 40
0.2
 40
0.2
 40
0.4
 40
0.4
 40
0.4
 40
0.4
 40
0.6
 40
0.6
 40
0.6
 40
0.6
 40
1.0
 40
1.0
 40
1.0
 40
1.0
 10
-93.1207
 20
125.5585
 30
0.0
 10
-93.1207
 20
125.5585
 30
0.0
 10
-93.1325
 20
120.9544
 30
0.0
 10
-93.1325
 20
120.9544
 30
0.0
 10
-93.1325
 20
120.9544
 30
0.0
 10
-93.1325
 20
120.9544
 30
0.0
 10
-99.3259
 20
124.5302
 30
0.0
 10
-99.3259
 20
124.5302
 30
0.0
 10
-99.3259
 20
124.5302
 30
0.0
 10
-99.3259
 20
124.5302
 30
0.0
 10
-99.3259
 20
125.5964
 30
0.0
 10
-99.3259
 20
125.5964
 30
0.0
 10
-99.3259
 20
125.5964
 30
0.0
 10
-99.3259
 20
125.5964
 30
0.0
 10
-93.1207
 20
125.5585
 30
0.0
 10
-93.1207
 20
125.5585
 30
0.0
  0
SPLINE
  5
132
330
1F
100
AcDbEntity
  8
layer 1
 62
     7
100
AcDbSpline
210
0.0
220
0.0
230
1.0
 70
    11
 71
     3
 72
    20
 73
    16
 74
     0
 42
0.0000000001
 43
0.0000000001
 12
1.0
 22
0.0
 32
0.0
 13
1.0
 23
0.0
 33
0.0
 40
0.0
 40
0.0
 40
0.0
 40
0.0
 40
0.2
 40
0.2
 40
0.2
 40
0.2
 40
0.4
 40
0.4
 40
0.4
 40
0.4
 40
0.6
 40
0.6
 40
0.6
 40
0.6
 40
1.0
 40
1.0
 40
1.0
 40
1.0
 10
-89.8594
 20
125.5999
 30
0.0
 10
-89.8594
 20
125.5999
 30
0.0
 10
-89.8594
 20
120.9824
 30
0.0
 10
-89.8594
 20
120.9824
 30
0.0
 10
-89.8594
 20
120.9824
 30
0.0
 10
-89.8594
 20
120.9824
 30
0.0
 10
-83.666
 20
124.5582
 30
0.0
 10
-83.666
 20
124.5582
 30
0.0
 10
-83.666
 20
124.5582
 30
0.0
 10
-83.666
 20
124.5582
 30
0.0
 10
-83.666
 20
125.5999
 30
0.0
 10
-83.666
 20
125.5999
 30
0.0
 10
-83.666
 20
125.5999
 30
0.0
 10
-83.666
 20
125.5999
 30
0.0
 10
-89.8594
 20
125.5999
 30
0.0
 10
-89.8594
 20
125.5999
 30
0.0
  0
SPLINE
  5
133
330
1F
100
AcDbEntity
  8
layer 1
 62
     7
100
AcDbSpline
210
0.0
220
0.0
230
1.0
 70
    11
 71
     3
 72
    24
 73
    20
 74
     0
 42
0.0000000001
 43
0.0000000001
 12
1.0
 22
0.0
 32
0.0
 13
1.0
 23
0.0
 33
0.0
 40
0.0
 40
0.0
 40
0.0
 40
0.0
 40
0.1666666666666667
 40
0.1666666666666667
 40
0.1666666666666667
 40
0.1666666666666667
 40
0.3333333333333333
 40
0.3333333333333333
 40
0.3333333333333333
 40
0.3333333333333333
 40
0.5
 40
0.5
 40
0.5
 40
0.5
 40
0.6666666666666666
 40
0.6666666666666666
 40
0.6666666666666666
 40
0.6666666666666666
 40
1.0
 40
1.0
 40
1.0
 40
1.0
 10
-147.019
 20
120.0434
 30
0.0
 10
-147.019
 20
120.0434
 30
0.0
 10
-140.8824
 20
123.6073
 30
0.0
 10
-140.8824
 20
123.6073
 30
0.0
 10
-140.8824
 20
123.6073
 30
0.0
 10
-140.8824
 20
123.6073
 30
0.0
 10
-144.3888
 20
125.6317
 30
0.0
 10
-144.3888
 20
125.6317
 30
0.0
 10
-144.3888
 20
125.6317
 30
0.0
 10
-144.3888
 20
125.6317
 30
0.0
 10
-149.7698
 20
125.6277
 30
0.0
 10
-149.7698
 20
125.6277
 30
0.0
 10
-149.7698
 20
125.6277
 30
0.0
 10
-149.7698
 20
125.6277
 30
0.0
 10
-153.2306
 20
123.6296
 30
0.0
 10
-153.2306
 20
123.6296
 30
0.0
 10
-153.2306
 20
123.6296
 30
0.0
 10
-153.2306
 20
123.6296
 30
0.0
 10
-147.019
 20
120.0434
 30
0.0
 10
-147.019
 20
120.0434
 30
0.0
  0
SPLINE
  5
134
330
1F
100
AcDbEntity
  8
layer 1
 62
     7
100
AcDbSpline
210
0.0
220
0.0
230
1.0
 70
    11
 71
     3
 72
    16
 73
    12
 74
     0
 42
0.0000000001
 43
0.0000000001
 12
1.0
 22
0.0
 32
0.0
 13
1.0
 23
0.0
 33
0.0
 40
0.0
 40
0.0
 40
0.0
 40
0.0
 40
0.25
 40
0.25
 40
0.25
 40
0.25
 40
0.5
 40
0.5
 40
0.5
 40
0.5
 40
1.0
 40
1.0
 40
1.0
 40
1.0
 10
-75.7176
 20
125.6277
 30
0.0
 10
-75.7176
 20
125.6277
 30
0.0
 10
-79.1783
 20
123.6296
 30
0.0
 10
-79.1783
 20
123.6296
 30
0.0
 10
-79.1783
 20
123.6296
 30
0.0
 10
-79.1783
 20
123.6296
 30
0.0
 10
-75.714
 20
121.6587
 30
0.0
 10
-75.714
 20
121.6587
 30
0.0
 10
-75.714
 20
121.6587
 30
0.0
 10
-75.714
 20
121.6587
 30
0.0
 10
-75.7176
 20
125.6277
 30
0.0
 10
-75.7176
 20
125.6277
 30
0.0
  0
SPLINE
  5
135
330
1F
100
AcDbEntity
  8
layer 1
 62
     7
100
AcDbSpline
210
0.0
220
0.0
230
1.0
 70
    11
 71
     3
 72
    20
 73
    16
 74
     0
 42
0.0000000001
 43
0.0000000001
 12
1.0
 22
0.0
 32
0.0
 13
1.0
 23
0.0
 33
0.0
 40
0.0
 40
0.0
 40
0.0
 40
0.0
 40
0.2
 40
0.2
 40
0.2
 40
0.2
 40
0.4
 40
0.4
 40
0.4
 40
0.4
 40
0.6
 40
0.6
 40
0.6
 40
0.6
 40
1.0
 40
1.0
 40
1.0
 40
1.0
 10
-163.8752
 20
125.5999
 30
0.0
 10
-163.8752
 20
125.5999
 30
0.0
 10
-163.8752
 20
120.9824
 30
0.0
 10
-163.8752
 20
120.9824
 30
0.0
 10
-163.8752
 20
120.9824
 30
0.0
 10
-163.8752
 20
120.9824
 30
0.0
 10
-157.6818
 20
124.5582
 30
0.0
 10
-157.6818
 20
124.5582
 30
0.0
 10
-157.6818
 20
124.5582
 30
0.0
 10
-157.6818
 20
124.5582
 30
0.0
 10
-157.6818
 20
125.5999
 30
0.0
 10
-157.6818
 20
125.5999
 30
0.0
 10
-157.6818
 20
125.5999
 30
0.0
 10
-157.6818
 20
125.5999
 30
0.0
 10
-163.8752
 20
125.5999
 30
0.0
 10
-163.8752
 20
125.5999
 30
0.0
  0
SPLINE
  5
136
330
1F
100
AcDbEntity
  8
layer 1
 62
     7
100
AcDbSpline
210
0.0
220
0.0
230
1.0
 70
    11
 71
     3
 72
    16
 73
    12
 74
     0
 42
0.0000000001
 43
0.0000000001
 12
1.0
 22
0.0
 32
0.0
 13
1.0
 23
0.0
 33
0.0
 40
0.0
 40
0.0
 40
0.0
 40
0.0
 40
0.25
 40
0.25
 40
0.25
 40
0.25
 40
0.5
 40
0.5
 40
0.5
 40
0.5
 40
1.0
 40
1.0
 40
1.0
 40
1.0
 10
-75.7176
 20
125.6277
 30
0.0
 10
-75.7176
 20
125.6277
 30
0.0
 10
-79.1783
 20
123.6296
 30
0.0
 10
-79.1783
 20
123.6296
 30
0.0
 10
-79.1783
 20
123.6296
 30
0.0
 10
-79.1783
 20
123.6296
 30
0.0
 10
-75.714
 20
121.6587
 30
0.0
 10
-75.714
 20
121.6587
 30
0.0
 10
-75.714
 20
121.6587
 30
0.0
 10
-75.714
 20
121.6587
 30
0.0
 10
-75.7176
 20
125.6277
 30
0.0
 10
-75.7176
 20
125.6277
 30
0.0
  0
SPLINE
  5
137
330
1F
100
AcDbEntity
  8
layer 1
 62
     7
100
AcDbSpline
210
0.0
220
0.0
230
1.0
 70
    11
 71
     3
 72
    16
 73
    12
 74
     0
 42
0.0000000001
 43
0.0000000001
 12
1.0
 22
0.0
 32
0.0
 13
1.0
 23
0.0
 33
0.0
 40
0.0
 40
0.0
 40
0.0
 40
0.0
 40
0.25
 40
0.25
 40
0.25
 40
0.25
 40
0.5
 40
0.5
 40
0.5
 40
0.5
 40
1.0
 40
1.0
 40
1.0
 40
1.0
 10
-181.2218
 20
125.6277
 30
0.0
 10
-181.2218
 20
125.6277
 30
0.0
 10
-177.7611
 20
123.6296
 30
0.0
 10
-177.7611
 20
123.6296
 30
0.0
 10
-177.7611
 20
123.6296
 30
0.0
 10
-177.7611
 20
123.6296
 30
0.0
 10
-181.2254
 20
121.6587
 30
0.0
 10
-181.2254
 20
121.6587
 30
0.0
 10
-181.2254
 20
121.6587
 30
0.0
 10
-181.2254
 20
121.6587
 30
0.0
 10
-181.2218
 20
125.6277
 30
0.0
 10
-181.2218
 20
125.6277
 30
0.0
  0
ENDSEC
  0
SECTION
  2
OBJECTS
  0
DICTIONARY
  5
C
330
0
100
AcDbDictionary
281
     1
  3
ACAD_GROUP
350
D
  3
ACAD_LAYOUT
350
1A
  3
ACAD_MATERIAL
350
3B
  3
ACAD_MLEADERSTYLE
350
159
  3
ACAD_MLINESTYLE
350
17
  3
ACAD_PLOTSETTINGS
350
19
  3
ACAD_PLOTSTYLENAME
350
E
  3
ACAD_TABLESTYLE
350
158
  3
ACAD_VISUALSTYLE
350
2A
  0
DICTIONARY
  5
D
102
{ACAD_REACTORS
330
C
102
}
330
C
100
AcDbDictionary
281
     1
  0
DICTIONARY
  5
1A
102
{ACAD_REACTORS
330
C
102
}
330
C
100
AcDbDictionary
281
     1
  3
Layout1
350
1E
  3
Layout2
350
26
  3
Model
350
22
  0
DICTIONARY
  5
3B
102
{ACAD_REACTORS
330
C
102
}
330
C
100
AcDbDictionary
281
     1
  3
ByBlock
350
3D
  3
ByLayer
350
3C
  3
Global
350
3E
  0
DICTIONARY
  5
159
102
{ACAD_REACTORS
330
C
102
}
330
C
100
AcDbDictionary
281
     1
  0
DICTIONARY
  5
17
102
{ACAD_REACTORS
330
C
102
}
330
C
100
AcDbDictionary
281
     1
  3
Standard
350
18
  0
DICTIONARY
  5
19
102
{ACAD_REACTORS
330
C
102
}
330
C
100
AcDbDictionary
281
     1
  0
ACDBDICTIONARYWDFLT
  5
E
102
{ACAD_REACTORS
330
C
102
}
330
C
100
AcDbDictionary
281
     1
  3
Normal
350
F
100
AcDbDictionaryWithDefault
340
F
  0
DICTIONARY
  5
158
102
{ACAD_REACTORS
330
C
102
}
330
C
100
AcDbDictionary
281
     1
  0
DICTIONARY
  5
2A
102
{ACAD_REACTORS
330
C
102
}
330
C
100
AcDbDictionary
281
     1
  3
2dWireframe
350
2F
  3
3D Hidden
350
31
  3
3dWireframe
350
30
  3
Basic
350
32
  3
Brighten
350
36
  3
ColorChange
350
3A
  3
Conceptual
350
34
  3
Dim
350
35
  3
Facepattern
350
39
  3
Flat
350
2B
  3
FlatWithEdges
350
2C
  3
Gouraud
350
2D
  3
GouraudWithEdges
350
2E
  3
Linepattern
350
38
  3
Realistic
350
33
  3
Thicken
350
37
  0
LAYOUT
  5
1E
102
{ACAD_REACTORS
330
1A
102
}
330
1A
100
AcDbPlotSettings
  1

  2
none_device
  4

  6

 40
0.0
 41
0.0
 42
0.0
 43
0.0
 44
0.0
 45
0.0
 46
0.0
 47
0.0
 48
0.0
 49
0.0
140
0.0
141
0.0
142
1.0
143
1.0
 70
   688
 72
     0
 73
     0
 74
     5
  7

 75
    16
 76
     0
 77
     2
 78
   300
147
1.0
148
0.0
149
0.0
100
AcDbLayout
  1
Layout1
 70
     1
 71
     1
 10
0.0
 20
0.0
 11
12.0
 21
9.0
 12
0.0
 22
0.0
 32
0.0
 14
1.000000000000000E+20
 24
1.000000000000000E+20
 34
1.000000000000000E+20
 15
-1.000000000000000E+20
 25
-1.000000000000000E+20
 35
-1.000000000000000E+20
146
0.0
 13
0.0
 23
0.0
 33
0.0
 16
1.0
 26
0.0
 36
0.0
 17
0.0
 27
1.0
 37
0.0
 76
     0
330
1B
  0
LAYOUT
  5
26
102
{ACAD_REACTORS
330
1A
102
}
330
1A
100
AcDbPlotSettings
  1

  2
none_device
  4

  6

 40
0.0
 41
0.0
 42
0.0
 43
0.0
 44
0.0
 45
0.0
 46
0.0
 47
0.0
 48
0.0
 49
0.0
140
0.0
141
0.0
142
1.0
143
1.0
 70
   688
 72
     0
 73
     0
 74
     5
  7

 75
    16
 76
     0
 77
     2
 78
   300
147
1.0
148
0.0
149
0.0
100
AcDbLayout
  1
Layout2
 70
     1
 71
     2
 10
0.0
 20
0.0
 11
0.0
 21
0.0
 12
0.0
 22
0.0
 32
0.0
 14
0.0
 24
0.0
 34
0.0
 15
0.0
 25
0.0
 35
0.0
146
0.0
 13
0.0
 23
0.0
 33
0.0
 16
1.0
 26
0.0
 36
0.0
 17
0.0
 27
1.0
 37
0.0
 76
     0
330
23
  0
LAYOUT
  5
22
102
{ACAD_REACTORS
330
1A
102
}
330
1A
100
AcDbPlotSettings
  1

  2
none_device
  4

  6

 40
0.0
 41
0.0
 42
0.0
 43
0.0
 44
0.0
 45
0.0
 46
0.0
 47
0.0
 48
0.0
 49
0.0
140
0.0
141
0.0
142
1.0
143
1.0
 70
  1712
 72
     0
 73
     0
 74
     0
  7

 75
     0
 76
     0
 77
     2
 78
   300
147
1.0
148
0.0
149
0.0
100
AcDbLayout
  1
Model
 70
     1
 71
     0
 10
0.0
 20
0.0
 11
12.0
 21
9.0
 12
0.0
 22
0.0
 32
0.0
 14
-187.4284
 24
-114.8266
 34
0.0
 15
-69.4777
 25
131.8622
 35
0.0
146
0.0
 13
0.0
 23
0.0
 33
0.0
 16
1.0
 26
0.0
 36
0.0
 17
0.0
 27
1.0
 37
0.0
 76
     0
330
1F
331
29
  0
MATERIAL
  5
3D
102
{ACAD_REACTORS
330
3B
102
}
330
3B
100
AcDbMaterial
  1
ByBlock
 72
     1
 94
      127
  0
MATERIAL
  5
3C
102
{ACAD_REACTORS
330
3B
102
}
330
3B
100
AcDbMaterial
  1
ByLayer
 72
     1
 94
      127
  0
MATERIAL
  5
3E
102
{ACAD_REACTORS
330
3B
102
}
330
3B
100
AcDbMaterial
  1
Global
 72
     1
 94
      127
  0
MLINESTYLE
  5
18
102
{ACAD_REACTORS
330
17
102
}
330
17
100
AcDbMlineStyle
  2
Standard
 70
     0
  3

 62
   256
 51
90.0
 52
90.0
 71
     2
 49
0.5
 62
   256
  6
BYLAYER
 49
-0.5
 62
   256
  6
BYLAYER
  0
ACDBPLACEHOLDER
  5
F
102
{ACAD_REACTORS
330
E
102
}
330
E
  0
VISUALSTYLE
  5
2F
102
{ACAD_REACTORS
330
2A
102
}
102
{ACAD_XDICTIONARY
360
140
102
}
330
2A
100
AcDbVisualStyle
  2
2dWireframe
 70
     4
 71
     0
 72
     2
 73
     0
 90
        0
 40
-0.6
 41
-30.0
 62
     5
 63
     7
421
 16777215
 74
     1
 91
        4
 64
     7
 65
   257
 75
     1
175
     1
 42
1.0
 92
        0
 66
   257
 43
1.0
 76
     1
 77
     6
 78
     2
 67
     7
 79
     5
170
     0
171
     0
290
     0
174
     0
 93
        1
 44
0.0
173
     0
291
     0
 45
0.0
  0
VISUALSTYLE
  5
31
102
{ACAD_REACTORS
330
2A
102
}
102
{ACAD_XDICTIONARY
360
144
102
}
330
2A
100
AcDbVisualStyle
  2
3D Hidden
 70
     6
 71
     1
 72
     2
 73
     2
 90
        0
 40
-0.6
 41
-30.0
 62
     5
 63
     7
421
 16777215
 74
     2
 91
        2
 64
     7
 65
   257
 75
     2
175
     1
 42
40.0
 92
        0
 66
   257
 43
1.0
 76
     1
 77
     6
 78
     2
 67
     7
 79
     3
170
     0
171
     0
290
     0
174
     0
 93
        1
 44
0.0
173
     0
291
     0
 45
0.0
  0
VISUALSTYLE
  5
30
102
{ACAD_REACTORS
330
2A
102
}
102
{ACAD_XDICTIONARY
360
142
102
}
330
2A
100
AcDbVisualStyle
  2
3dWireframe
 70
     5
 71
     0
 72
     2
 73
     0
 90
        0
 40
-0.6
 41
-30.0
 62
     5
 63
     7
421
 16777215
 74
     1
 91
        4
 64
     7
 65
   257
 75
     1
175
     1
 42
1.0
 92
        0
 66
   257
 43
1.0
 76
     1
 77
     6
 78
     2
 67
     7
 79
     5
170
     0
171
     0
290
     0
174
     0
 93
        1
 44
0.0
173
     0
291
     0
 45
0.0
  0
VISUALSTYLE
  5
32
102
{ACAD_REACTORS
330
2A
102
}
102
{ACAD_XDICTIONARY
360
146
102
}
330
2A
100
AcDbVisualStyle
  2
Basic
 70
     7
 71
     1
 72
     0
 73
     1
 90
        0
 40
-0.6
 41
-30.0
 62
     5
 63
     7
421
 16777215
 74
     0
 91
        4
 64
     7
 65
   257
 75
     1
175
     1
 42
1.0
 92
        8
 66
     7
 43
1.0
 76
     1
 77
     6
 78
     2
 67
     7
 79
     5
170
     0
171
     0
290
     0
174
     0
 93
        1
 44
0.0
173
     0
291
     1
 45
0.0
  0
VISUALSTYLE
  5
36
102
{ACAD_REACTORS
330
2A
102
}
102
{ACAD_XDICTIONARY
360
14E
102
}
330
2A
100
AcDbVisualStyle
  2
Brighten
 70
    12
 71
     2
 72
     2
 73
     0
 90
        0
 40
-0.6
 41
-30.0
 62
     5
 63
     7
421
 16777215
 74
     1
 91
        4
 64
     7
 65
   257
 75
     1
175
     1
 42
1.0
 92
        8
 66
     7
 43
1.0
 76
     1
 77
     6
 78
     2
 67
     7
 79
     5
170
     0
171
     0
290
     0
174
     0
 93
        1
 44
50.0
173
     0
291
     1
 45
0.0
  0
VISUALSTYLE
  5
3A
102
{ACAD_REACTORS
330
2A
102
}
102
{ACAD_XDICTIONARY
360
156
102
}
330
2A
100
AcDbVisualStyle
  2
ColorChange
 70
    16
 71
     2
 72
     2
 73
     3
 90
        0
 40
-0.6
 41
-30.0
 62
     5
 63
     8
421
  8421504
 74
     1
 91
        4
 64
     7
 65
   257
 75
     1
175
     1
 42
1.0
 92
        8
 66
     8
424
  8421504
 43
1.0
 76
     1
 77
     6
 78
     2
 67
     7
 79
     5
170
     0
171
     0
290
     0
174
     0
 93
        1
 44
0.0
173
     0
291
     1
 45
0.0
  0
VISUALSTYLE
  5
34
102
{ACAD_REACTORS
330
2A
102
}
102
{ACAD_XDICTIONARY
360
14A
102
}
330
2A
100
AcDbVisualStyle
  2
Conceptual
 70
     9
 71
     3
 72
     2
 73
     0
 90
        0
 40
-0.6
 41
-30.0
 62
     5
 63
     7
421
 16777215
 74
     2
 91
        2
 64
     7
 65
   257
 75
     1
175
     1
 42
40.0
 92
        8
 66
     7
 43
1.0
 76
     1
 77
     6
 78
     2
 67
     7
 79
     3
170
     0
171
     0
290
     0
174
     0
 93
        1
 44
0.0
173
     0
291
     0
 45
0.0
  0
VISUALSTYLE
  5
35
102
{ACAD_REACTORS
330
2A
102
}
102
{ACAD_XDICTIONARY
360
14C
102
}
330
2A
100
AcDbVisualStyle
  2
Dim
 70
    11
 71
     2
 72
     2
 73
     0
 90
        0
 40
-0.6
 41
-30.0
 62
     5
 63
     7
421
 16777215
 74
     1
 91
        4
 64
     7
 65
   257
 75
     1
175
     1
 42
1.0
 92
        8
 66
     7
 43
1.0
 76
     1
 77
     6
 78
     2
 67
     7
 79
     5
170
     0
171
     0
290
     0
174
     0
 93
        1
 44
-50.0
173
     0
291
     1
 45
0.0
  0
VISUALSTYLE
  5
39
102
{ACAD_REACTORS
330
2A
102
}
102
{ACAD_XDICTIONARY
360
154
102
}
330
2A
100
AcDbVisualStyle
  2
Facepattern
 70
    15
 71
     2
 72
     2
 73
     0
 90
        0
 40
-0.6
 41
-30.0
 62
     5
 63
     7
421
 16777215
 74
     1
 91
        4
 64
     7
 65
   257
 75
     1
175
     1
 42
1.0
 92
        8
 66
     7
 43
1.0
 76
     1
 77
     6
 78
     2
 67
     7
 79
     5
170
     0
171
     0
290
     0
174
     0
 93
        1
 44
0.0
173
     0
291
     1
 45
0.0
  0
VISUALSTYLE
  5
2B
102
{ACAD_REACTORS
330
2A
102
}
102
{ACAD_XDICTIONARY
360
138
102
}
330
2A
100
AcDbVisualStyle
  2
Flat
 70
     0
 71
     2
 72
     1
 73
     1
 90
        2
 40
-0.6
 41
30.0
 62
     5
 63
     7
421
 16777215
 74
     0
 91
        4
 64
     7
 65
   257
 75
     1
175
     1
 42
1.0
 92
        8
 66
     7
 43
1.0
 76
     1
 77
     6
 78
     2
 67
     7
 79
     5
170
     0
171
     0
290
     0
174
     0
 93
       13
 44
0.0
173
     0
291
     1
 45
0.0
  0
VISUALSTYLE
  5
2C
102
{ACAD_REACTORS
330
2A
102
}
102
{ACAD_XDICTIONARY
360
13A
102
}
330
2A
100
AcDbVisualStyle
  2
FlatWithEdges
 70
     1
 71
     2
 72
     1
 73
     1
 90
        2
 40
-0.6
 41
30.0
 62
     5
 63
     7
421
 16777215
 74
     1
 91
        4
 64
     7
 65
   257
 75
     1
175
     1
 42
1.0
 92
        0
 66
   257
 43
1.0
 76
     1
 77
     6
 78
     2
 67
     7
 79
     5
170
     0
171
     0
290
     0
174
     0
 93
       13
 44
0.0
173
     0
291
     1
 45
0.0
  0
VISUALSTYLE
  5
2D
102
{ACAD_REACTORS
330
2A
102
}
102
{ACAD_XDICTIONARY
360
13C
102
}
330
2A
100
AcDbVisualStyle
  2
Gouraud
 70
     2
 71
     2
 72
     2
 73
     1
 90
        2
 40
-0.6
 41
30.0
 62
     5
 63
     7
421
 16777215
 74
     0
 91
        4
 64
     7
 65
   257
 75
     1
175
     1
 42
1.0
 92
        0
 66
     7
 43
1.0
 76
     1
 77
     6
 78
     2
 67
     7
 79
     5
170
     0
171
     0
290
     0
174
     0
 93
       13
 44
0.0
173
     0
291
     1
 45
0.0
  0
VISUALSTYLE
  5
2E
102
{ACAD_REACTORS
330
2A
102
}
102
{ACAD_XDICTIONARY
360
13E
102
}
330
2A
100
AcDbVisualStyle
  2
GouraudWithEdges
 70
     3
 71
     2
 72
     2
 73
     1
 90
        2
 40
-0.6
 41
30.0
 62
     5
 63
     7
421
 16777215
 74
     1
 91
        4
 64
     7
 65
   257
 75
     1
175
     1
 42
1.0
 92
        0
 66
   257
 43
1.0
 76
     1
 77
     6
 78
     2
 67
     7
 79
     5
170
     0
171
     0
290
     0
174
     0
 93
       13
 44
0.0
173
     0
291
     1
 45
0.0
  0
VISUALSTYLE
  5
38
102
{ACAD_REACTORS
330
2A
102
}
102
{ACAD_XDICTIONARY
360
152
102
}
330
2A
100
AcDbVisualStyle
  2
Linepattern
 70
    14
 71
     2
 72
     2
 73
     0
 90
        0
 40
-0.6
 41
-30.0
 62
     5
 63
     7
421
 16777215
 74
     1
 91
        4
 64
     7
 65
   257
 75
     7
175
     7
 42
1.0
 92
        8
 66
     7
 43
1.0
 76
     1
 77
     6
 78
     2
 67
     7
 79
     5
170
     0
171
     0
290
     0
174
     0
 93
        1
 44
0.0
173
     0
291
     1
 45
0.0
  0
VISUALSTYLE
  5
33
102
{ACAD_REACTORS
330
2A
102
}
102
{ACAD_XDICTIONARY
360
148
102
}
330
2A
100
AcDbVisualStyle
  2
Realistic
 70
     8
 71
     2
 72
     2
 73
     0
 90
        0
 40
-0.6
 41
-30.0
 62
     5
 63
     7
421
 16777215
 74
     1
 91
        0
 64
     7
 65
   257
 75
     1
175
     1
 42
1.0
 92
        8
 66
     8
424
  7895160
 43
1.0
 76
     1
 77
     6
 78
     2
 67
     7
 79
     5
170
     0
171
     0
290
     0
174
     0
 93
       13
 44
0.0
173
     0
291
     0
 45
0.0
  0
VISUALSTYLE
  5
37
102
{ACAD_REACTORS
330
2A
102
}
102
{ACAD_XDICTIONARY
360
150
102
}
330
2A
100
AcDbVisualStyle
  2
Thicken
 70
    13
 71
     2
 72
     2
 73
     0
 90
        0
 40
-0.6
 41
-30.0
 62
     5
 63
     7
421
 16777215
 74
     1
 91
        4
 64
     7
 65
   257
 75
     1
175
     1
 42
1.0
 92
       12
 66
     7
 43
1.0
 76
     1
 77
     6
 78
     2
 67
     7
 79
     5
170
     0
171
     0
290
     0
174
     0
 93
        1
 44
0.0
173
     0
291
     1
 45
0.0
  0
DICTIONARY
  5
140
330
2F
100
AcDbDictionary
280
     1
281
     1
  3
ACAD_XREC_ROUNDTRIP
360
141
  0
DICTIONARY
  5
144
330
31
100
AcDbDictionary
280
     1
281
     1
  3
ACAD_XREC_ROUNDTRIP
360
145
  0
DICTIONARY
  5
142
330
30
100
AcDbDictionary
280
     1
281
     1
  3
ACAD_XREC_ROUNDTRIP
360
143
  0
DICTIONARY
  5
146
330
32
100
AcDbDictionary
280
     1
281
     1
  3
ACAD_XREC_ROUNDTRIP
360
147
  0
DICTIONARY
  5
14E
330
36
100
AcDbDictionary
280
     1
281
     1
  3
ACAD_XREC_ROUNDTRIP
360
14F
  0
DICTIONARY
  5
156
330
3A
100
AcDbDictionary
280
     1
281
     1
  3
ACAD_XREC_ROUNDTRIP
360
157
  0
DICTIONARY
  5
14A
330
34
100
AcDbDictionary
280
     1
281
     1
  3
ACAD_XREC_ROUNDTRIP
360
14B
  0
DICTIONARY
  5
14C
330
35
100
AcDbDictionary
280
     1
281
     1
  3
ACAD_XREC_ROUNDTRIP
360
14D
  0
DICTIONARY
  5
154
330
39
100
AcDbDictionary
280
     1
281
     1
  3
ACAD_XREC_ROUNDTRIP
360
155
  0
DICTIONARY
  5
138
330
2B
100
AcDbDictionary
280
     1
281
     1
  3
ACAD_XREC_ROUNDTRIP
360
139
  0
DICTIONARY
  5
13A
330
2C
100
AcDbDictionary
280
     1
281
     1
  3
ACAD_XREC_ROUNDTRIP
360
13B
  0
DICTIONARY
  5
13C
330
2D
100
AcDbDictionary
280
     1
281
     1
  3
ACAD_XREC_ROUNDTRIP
360
13D
  0
DICTIONARY
  5
13E
330
2E
100
AcDbDictionary
280
     1
281
     1
  3
ACAD_XREC_ROUNDTRIP
360
13F
  0
DICTIONARY
  5
152
330
38
100
AcDbDictionary
280
     1
281
     1
  3
ACAD_XREC_ROUNDTRIP
360
153
  0
DICTIONARY
  5
148
330
33
100
AcDbDictionary
280
     1
281
     1
  3
ACAD_XREC_ROUNDTRIP
360
149
  0
DICTIONARY
  5
150
330
37
100
AcDbDictionary
280
     1
281
     1
  3
ACAD_XREC_ROUNDTRIP
360
151
  0
XRECORD
  5
141
102
{ACAD_REACTORS
330
140
102
}
330
140
100
AcDbXrecord
280
     1
102
RTVSPropertyOp0
 70
     1
102
RTVSPropertyOp1
 70
     1
102
RTVSPropertyOp2
 70
     1
102
RTVSPropertyOp3
 70
     1
102
RTVSPropertyOp4
 70
     1
102
RTVSPropertyOp5
 70
     1
102
RTVSPropertyOp6
 70
     1
102
RTVSPropertyOp7
 70
     1
102
RTVSPropertyOp8
 70
     1
102
RTVSPropertyOp9
 70
     1
102
RTVSPropertyOp10
 70
     1
102
RTVSPropertyOp11
 70
     1
102
RTVSPropertyOp12
 70
     1
102
RTVSPropertyOp13
 70
     1
102
RTVSPropertyOp14
 70
     1
102
RTVSPropertyOp15
 70
     1
102
RTVSPropertyOp16
 70
     1
102
RTVSPropertyOp17
 70
     1
102
RTVSPropertyOp18
 70
     1
102
RTVSPropertyOp19
 70
     1
102
RTVSPropertyOp20
 70
     1
102
RTVSPropertyOp21
 70
     1
102
RTVSPropertyOp22
 70
     1
102
RTVSPropertyOp23
 70
     1
102
RTVSPropertyOp24
 70
     1
102
RTVSPropertyOp25
 70
     1
102
RTVSPropertyOp26
 70
     1
102
RTVSPropertyOp27
 70
     1
102
RTVSPropertyOp28
 70
     1
102
RTVSPropertyOp29
 70
     1
102
RTVSPropertyOp30
 70
     1
102
RTVSPropertyOp31
 70
     1
102
RTVSPropertyOp32
 70
     1
  0
XRECORD
  5
145
102
{ACAD_REACTORS
330
144
102
}
330
144
100
AcDbXrecord
280
     1
102
RTVSPropertyOp0
 70
     1
102
RTVSPropertyOp1
 70
     1
102
RTVSPropertyOp2
 70
     1
102
RTVSPropertyOp3
 70
     1
102
RTVSPropertyOp4
 70
     1
102
RTVSPropertyOp5
 70
     1
102
RTVSPropertyOp6
 70
     1
102
RTVSPropertyOp7
 70
     1
102
RTVSPropertyOp8
 70
     1
102
RTVSPropertyOp9
 70
     1
102
RTVSPropertyOp10
 70
     1
102
RTVSPropertyOp11
 70
     1
102
RTVSPropertyOp12
 70
     1
102
RTVSPropertyOp13
 70
     1
102
RTVSPropertyOp14
 70
     1
102
RTVSPropertyOp15
 70
     1
102
RTVSPropertyOp16
 70
     1
102
RTVSPropertyOp17
 70
     1
102
RTVSPropertyOp18
 70
     1
102
RTVSPropertyOp19
 70
     1
102
RTVSPropertyOp20
 70
     1
102
RTVSPropertyOp21
 70
     1
102
RTVSPropertyOp22
 70
     1
102
RTVSPropertyOp23
 70
     1
102
RTVSPropertyOp24
 70
     1
102
RTVSPropertyOp25
 70
     1
102
RTVSPropertyOp26
 70
     1
102
RTVSPropertyOp27
 70
     1
102
RTVSPropertyOp28
 70
     1
102
RTVSPropertyOp29
 70
     1
102
RTVSPropertyOp30
 70
     1
102
RTVSPropertyOp31
 70
     1
102
RTVSPropertyOp32
 70
     1
  0
XRECORD
  5
143
102
{ACAD_REACTORS
330
142
102
}
330
142
100
AcDbXrecord
280
     1
102
RTVSPropertyOp0
 70
     1
102
RTVSPropertyOp1
 70
     1
102
RTVSPropertyOp2
 70
     1
102
RTVSPropertyOp3
 70
     1
102
RTVSPropertyOp4
 70
     1
102
RTVSPropertyOp5
 70
     1
102
RTVSPropertyOp6
 70
     1
102
RTVSPropertyOp7
 70
     1
102
RTVSPropertyOp8
 70
     1
102
RTVSPropertyOp9
 70
     1
102
RTVSPropertyOp10
 70
     1
102
RTVSPropertyOp11
 70
     1
102
RTVSPropertyOp12
 70
     1
102
RTVSPropertyOp13
 70
     1
102
RTVSPropertyOp14
 70
     1
102
RTVSPropertyOp15
 70
     1
102
RTVSPropertyOp16
 70
     1
102
RTVSPropertyOp17
 70
     1
102
RTVSPropertyOp18
 70
     1
102
RTVSPropertyOp19
 70
     1
102
RTVSPropertyOp20
 70
     1
102
RTVSPropertyOp21
 70
     1
102
RTVSPropertyOp22
 70
     1
102
RTVSPropertyOp23
 70
     1
102
RTVSPropertyOp24
 70
     1
102
RTVSPropertyOp25
 70
     1
102
RTVSPropertyOp26
 70
     1
102
RTVSPropertyOp27
 70
     1
102
RTVSPropertyOp28
 70
     1
102
RTVSPropertyOp29
 70
     1
102
RTVSPropertyOp30
 70
     1
102
RTVSPropertyOp31
 70
     1
102
RTVSPropertyOp32
 70
     1
  0
XRECORD
  5
147
102
{ACAD_REACTORS
330
146
102
}
330
146
100
AcDbXrecord
280
     1
102
RTVSPropertyOp0
 70
     1
102
RTVSPropertyOp1
 70
     1
102
RTVSPropertyOp2
 70
     1
102
RTVSPropertyOp3
 70
     1
102
RTVSPropertyOp4
 70
     1
102
RTVSPropertyOp5
 70
     1
102
RTVSPropertyOp6
 70
     1
102
RTVSPropertyOp7
 70
     1
102
RTVSPropertyOp8
 70
     1
102
RTVSPropertyOp9
 70
     1
102
RTVSPropertyOp10
 70
     1
102
RTVSPropertyOp11
 70
     1
102
RTVSPropertyOp12
 70
     1
102
RTVSPropertyOp13
 70
     1
102
RTVSPropertyOp14
 70
     1
102
RTVSPropertyOp15
 70
     1
102
RTVSPropertyOp16
 70
     1
102
RTVSPropertyOp17
 70
     1
102
RTVSPropertyOp18
 70
     1
102
RTVSPropertyOp19
 70
     1
102
RTVSPropertyOp20
 70
     1
102
RTVSPropertyOp21
 70
     1
102
RTVSPropertyOp22
 70
     1
102
RTVSPropertyOp23
 70
     1
102
RTVSPropertyOp24
 70
     1
102
RTVSPropertyOp25
 70
     1
102
RTVSPropertyOp26
 70
     1
102
RTVSPropertyOp27
 70
     1
102
RTVSPropertyOp28
 70
     1
102
RTVSPropertyOp29
 70
     1
102
RTVSPropertyOp30
 70
     1
102
RTVSPropertyOp31
 70
     1
102
RTVSPropertyOp32
 70
     1
  0
XRECORD
  5
14F
102
{ACAD_REACTORS
330
14E
102
}
330
14E
100
AcDbXrecord
280
     1
102
RTVSPropertyOp0
 70
     1
102
RTVSPropertyOp1
 70
     1
102
RTVSPropertyOp2
 70
     1
102
RTVSPropertyOp3
 70
     1
102
RTVSPropertyOp4
 70
     1
102
RTVSPropertyOp5
 70
     1
102
RTVSPropertyOp6
 70
     1
102
RTVSPropertyOp7
 70
     1
102
RTVSPropertyOp8
 70
     1
102
RTVSPropertyOp9
 70
     1
102
RTVSPropertyOp10
 70
     1
102
RTVSPropertyOp11
 70
     1
102
RTVSPropertyOp12
 70
     1
102
RTVSPropertyOp13
 70
     1
102
RTVSPropertyOp14
 70
     1
102
RTVSPropertyOp15
 70
     1
102
RTVSPropertyOp16
 70
     1
102
RTVSPropertyOp17
 70
     1
102
RTVSPropertyOp18
 70
     1
102
RTVSPropertyOp19
 70
     1
102
RTVSPropertyOp20
 70
     1
102
RTVSPropertyOp21
 70
     1
102
RTVSPropertyOp22
 70
     1
102
RTVSPropertyOp23
 70
     1
102
RTVSPropertyOp24
 70
     1
102
RTVSPropertyOp25
 70
     1
102
RTVSPropertyOp26
 70
     1
102
RTVSPropertyOp27
 70
     1
102
RTVSPropertyOp28
 70
     1
102
RTVSPropertyOp29
 70
     1
102
RTVSPropertyOp30
 70
     1
102
RTVSPropertyOp31
 70
     1
102
RTVSPropertyOp32
 70
     1
  0
XRECORD
  5
157
102
{ACAD_REACTORS
330
156
102
}
330
156
100
AcDbXrecord
280
     1
102
RTVSPropertyOp0
 70
     1
102
RTVSPropertyOp1
 70
     1
102
RTVSPropertyOp2
 70
     1
102
RTVSPropertyOp3
 70
     1
102
RTVSPropertyOp4
 70
     1
102
RTVSPropertyOp5
 70
     1
102
RTVSPropertyOp6
 70
     1
102
RTVSPropertyOp7
 70
     1
102
RTVSPropertyOp8
 70
     1
102
RTVSPropertyOp9
 70
     1
102
RTVSPropertyOp10
 70
     1
102
RTVSPropertyOp11
 70
     1
102
RTVSPropertyOp12
 70
     1
102
RTVSPropertyOp13
 70
     1
102
RTVSPropertyOp14
 70
     1
102
RTVSPropertyOp15
 70
     1
102
RTVSPropertyOp16
 70
     1
102
RTVSPropertyOp17
 70
     1
102
RTVSPropertyOp18
 70
     1
102
RTVSPropertyOp19
 70
     1
102
RTVSPropertyOp20
 70
     1
102
RTVSPropertyOp21
 70
     1
102
RTVSPropertyOp22
 70
     1
102
RTVSPropertyOp23
 70
     1
102
RTVSPropertyOp24
 70
     1
102
RTVSPropertyOp25
 70
     1
102
RTVSPropertyOp26
 70
     1
102
RTVSPropertyOp27
 70
     1
102
RTVSPropertyOp28
 70
     1
102
RTVSPropertyOp29
 70
     1
102
RTVSPropertyOp30
 70
     1
102
RTVSPropertyOp31
 70
     1
102
RTVSPropertyOp32
 70
     1
  0
XRECORD
  5
14B
102
{ACAD_REACTORS
330
14A
102
}
330
14A
100
AcDbXrecord
280
     1
102
RTVSPropertyOp0
 70
     1
102
RTVSPropertyOp1
 70
     1
102
RTVSPropertyOp2
 70
     1
102
RTVSPropertyOp3
 70
     1
102
RTVSPropertyOp4
 70
     1
102
RTVSPropertyOp5
 70
     1
102
RTVSPropertyOp6
 70
     1
102
RTVSPropertyOp7
 70
     1
102
RTVSPropertyOp8
 70
     1
102
RTVSPropertyOp9
 70
     1
102
RTVSPropertyOp10
 70
     1
102
RTVSPropertyOp11
 70
     1
102
RTVSPropertyOp12
 70
     1
102
RTVSPropertyOp13
 70
     1
102
RTVSPropertyOp14
 70
     1
102
RTVSPropertyOp15
 70
     1
102
RTVSPropertyOp16
 70
     1
102
RTVSPropertyOp17
 70
     1
102
RTVSPropertyOp18
 70
     1
102
RTVSPropertyOp19
 70
     1
102
RTVSPropertyOp20
 70
     1
102
RTVSPropertyOp21
 70
     1
102
RTVSPropertyOp22
 70
     1
102
RTVSPropertyOp23
 70
     1
102
RTVSPropertyOp24
 70
     1
102
RTVSPropertyOp25
 70
     1
102
RTVSPropertyOp26
 70
     1
102
RTVSPropertyOp27
 70
     1
102
RTVSPropertyOp28
 70
     1
102
RTVSPropertyOp29
 70
     1
102
RTVSPropertyOp30
 70
     1
102
RTVSPropertyOp31
 70
     1
102
RTVSPropertyOp32
 70
     1
  0
XRECORD
  5
14D
102
{ACAD_REACTORS
330
14C
102
}
330
14C
100
AcDbXrecord
280
     1
102
RTVSPropertyOp0
 70
     1
102
RTVSPropertyOp1
 70
     1
102
RTVSPropertyOp2
 70
     1
102
RTVSPropertyOp3
 70
     1
102
RTVSPropertyOp4
 70
     1
102
RTVSPropertyOp5
 70
     1
102
RTVSPropertyOp6
 70
     1
102
RTVSPropertyOp7
 70
     1
102
RTVSPropertyOp8
 70
     1
102
RTVSPropertyOp9
 70
     1
102
RTVSPropertyOp10
 70
     1
102
RTVSPropertyOp11
 70
     1
102
RTVSPropertyOp12
 70
     1
102
RTVSPropertyOp13
 70
     1
102
RTVSPropertyOp14
 70
     1
102
RTVSPropertyOp15
 70
     1
102
RTVSPropertyOp16
 70
     1
102
RTVSPropertyOp17
 70
     1
102
RTVSPropertyOp18
 70
     1
102
RTVSPropertyOp19
 70
     1
102
RTVSPropertyOp20
 70
     1
102
RTVSPropertyOp21
 70
     1
102
RTVSPropertyOp22
 70
     1
102
RTVSPropertyOp23
 70
     1
102
RTVSPropertyOp24
 70
     1
102
RTVSPropertyOp25
 70
     1
102
RTVSPropertyOp26
 70
     1
102
RTVSPropertyOp27
 70
     1
102
RTVSPropertyOp28
 70
     1
102
RTVSPropertyOp29
 70
     1
102
RTVSPropertyOp30
 70
     1
102
RTVSPropertyOp31
 70
     1
102
RTVSPropertyOp32
 70
     1
  0
XRECORD
  5
155
102
{ACAD_REACTORS
330
154
102
}
330
154
100
AcDbXrecord
280
     1
102
RTVSPropertyOp0
 70
     1
102
RTVSPropertyOp1
 70
     1
102
RTVSPropertyOp2
 70
     1
102
RTVSPropertyOp3
 70
     1
102
RTVSPropertyOp4
 70
     1
102
RTVSPropertyOp5
 70
     1
102
RTVSPropertyOp6
 70
     1
102
RTVSPropertyOp7
 70
     1
102
RTVSPropertyOp8
 70
     1
102
RTVSPropertyOp9
 70
     1
102
RTVSPropertyOp10
 70
     1
102
RTVSPropertyOp11
 70
     1
102
RTVSPropertyOp12
 70
     1
102
RTVSPropertyOp13
 70
     1
102
RTVSPropertyOp14
 70
     1
102
RTVSPropertyOp15
 70
     1
102
RTVSPropertyOp16
 70
     1
102
RTVSPropertyOp17
 70
     1
102
RTVSPropertyOp18
 70
     1
102
RTVSPropertyOp19
 70
     1
102
RTVSPropertyOp20
 70
     1
102
RTVSPropertyOp21
 70
     1
102
RTVSPropertyOp22
 70
     1
102
RTVSPropertyOp23
 70
     1
102
RTVSPropertyOp24
 70
     1
102
RTVSPropertyOp25
 70
     1
102
RTVSPropertyOp26
 70
     1
102
RTVSPropertyOp27
 70
     1
102
RTVSPropertyOp28
 70
     1
102
RTVSPropertyOp29
 70
     1
102
RTVSPropertyOp30
 70
     1
102
RTVSPropertyOp31
 70
     1
102
RTVSPropertyOp32
 70
     1
  0
XRECORD
  5
139
102
{ACAD_REACTORS
330
138
102
}
330
138
100
AcDbXrecord
280
     1
102
RTVSPropertyOp0
 70
     1
102
RTVSPropertyOp1
 70
     1
102
RTVSPropertyOp2
 70
     1
102
RTVSPropertyOp3
 70
     1
102
RTVSPropertyOp4
 70
     1
102
RTVSPropertyOp5
 70
     1
102
RTVSPropertyOp6
 70
     1
102
RTVSPropertyOp7
 70
     1
102
RTVSPropertyOp8
 70
     1
102
RTVSPropertyOp9
 70
     1
102
RTVSPropertyOp10
 70
     1
102
RTVSPropertyOp11
 70
     1
102
RTVSPropertyOp12
 70
     1
102
RTVSPropertyOp13
 70
     1
102
RTVSPropertyOp14
 70
     1
102
RTVSPropertyOp15
 70
     1
102
RTVSPropertyOp16
 70
     1
102
RTVSPropertyOp17
 70
     1
102
RTVSPropertyOp18
 70
     1
102
RTVSPropertyOp19
 70
     1
102
RTVSPropertyOp20
 70
     1
102
RTVSPropertyOp21
 70
     1
102
RTVSPropertyOp22
 70
     1
102
RTVSPropertyOp23
 70
     1
102
RTVSPropertyOp24
 70
     1
102
RTVSPropertyOp25
 70
     1
102
RTVSPropertyOp26
 70
     1
102
RTVSPropertyOp27
 70
     1
102
RTVSPropertyOp28
 70
     1
102
RTVSPropertyOp29
 70
     1
102
RTVSPropertyOp30
 70
     1
102
RTVSPropertyOp31
 70
     1
102
RTVSPropertyOp32
 70
     1
  0
XRECORD
  5
13B
102
{ACAD_REACTORS
330
13A
102
}
330
13A
100
AcDbXrecord
280
     1
102
RTVSPropertyOp0
 70
     1
102
RTVSPropertyOp1
 70
     1
102
RTVSPropertyOp2
 70
     1
102
RTVSPropertyOp3
 70
     1
102
RTVSPropertyOp4
 70
     1
102
RTVSPropertyOp5
 70
     1
102
RTVSPropertyOp6
 70
     1
102
RTVSPropertyOp7
 70
     1
102
RTVSPropertyOp8
 70
     1
102
RTVSPropertyOp9
 70
     1
102
RTVSPropertyOp10
 70
     1
102
RTVSPropertyOp11
 70
     1
102
RTVSPropertyOp12
 70
     1
102
RTVSPropertyOp13
 70
     1
102
RTVSPropertyOp14
 70
     1
102
RTVSPropertyOp15
 70
     1
102
RTVSPropertyOp16
 70
     1
102
RTVSPropertyOp17
 70
     1
102
RTVSPropertyOp18
 70
     1
102
RTVSPropertyOp19
 70
     1
102
RTVSPropertyOp20
 70
     1
102
RTVSPropertyOp21
 70
     1
102
RTVSPropertyOp22
 70
     1
102
RTVSPropertyOp23
 70
     1
102
RTVSPropertyOp24
 70
     1
102
RTVSPropertyOp25
 70
     1
102
RTVSPropertyOp26
 70
     1
102
RTVSPropertyOp27
 70
     1
102
RTVSPropertyOp28
 70
     1
102
RTVSPropertyOp29
 70
     1
102
RTVSPropertyOp30
 70
     1
102
RTVSPropertyOp31
 70
     1
102
RTVSPropertyOp32
 70
     1
  0
XRECORD
  5
13D
102
{ACAD_REACTORS
330
13C
102
}
330
13C
100
AcDbXrecord
280
     1
102
RTVSPropertyOp0
 70
     1
102
RTVSPropertyOp1
 70
     1
102
RTVSPropertyOp2
 70
     1
102
RTVSPropertyOp3
 70
     1
102
RTVSPropertyOp4
 70
     1
102
RTVSPropertyOp5
 70
     1
102
RTVSPropertyOp6
 70
     1
102
RTVSPropertyOp7
 70
     1
102
RTVSPropertyOp8
 70
     1
102
RTVSPropertyOp9
 70
     1
102
RTVSPropertyOp10
 70
     1
102
RTVSPropertyOp11
 70
     1
102
RTVSPropertyOp12
 70
     1
102
RTVSPropertyOp13
 70
     1
102
RTVSPropertyOp14
 70
     1
102
RTVSPropertyOp15
 70
     1
102
RTVSPropertyOp16
 70
     1
102
RTVSPropertyOp17
 70
     1
102
RTVSPropertyOp18
 70
     1
102
RTVSPropertyOp19
 70
     1
102
RTVSPropertyOp20
 70
     1
102
RTVSPropertyOp21
 70
     1
102
RTVSPropertyOp22
 70
     1
102
RTVSPropertyOp23
 70
     1
102
RTVSPropertyOp24
 70
     1
102
RTVSPropertyOp25
 70
     1
102
RTVSPropertyOp26
 70
     1
102
RTVSPropertyOp27
 70
     1
102
RTVSPropertyOp28
 70
     1
102
RTVSPropertyOp29
 70
     1
102
RTVSPropertyOp30
 70
     1
102
RTVSPropertyOp31
 70
     1
102
RTVSPropertyOp32
 70
     1
  0
XRECORD
  5
13F
102
{ACAD_REACTORS
330
13E
102
}
330
13E
100
AcDbXrecord
280
     1
102
RTVSPropertyOp0
 70
     1
102
RTVSPropertyOp1
 70
     1
102
RTVSPropertyOp2
 70
     1
102
RTVSPropertyOp3
 70
     1
102
RTVSPropertyOp4
 70
     1
102
RTVSPropertyOp5
 70
     1
102
RTVSPropertyOp6
 70
     1
102
RTVSPropertyOp7
 70
     1
102
RTVSPropertyOp8
 70
     1
102
RTVSPropertyOp9
 70
     1
102
RTVSPropertyOp10
 70
     1
102
RTVSPropertyOp11
 70
     1
102
RTVSPropertyOp12
 70
     1
102
RTVSPropertyOp13
 70
     1
102
RTVSPropertyOp14
 70
     1
102
RTVSPropertyOp15
 70
     1
102
RTVSPropertyOp16
 70
     1
102
RTVSPropertyOp17
 70
     1
102
RTVSPropertyOp18
 70
     1
102
RTVSPropertyOp19
 70
     1
102
RTVSPropertyOp20
 70
     1
102
RTVSPropertyOp21
 70
     1
102
RTVSPropertyOp22
 70
     1
102
RTVSPropertyOp23
 70
     1
102
RTVSPropertyOp24
 70
     1
102
RTVSPropertyOp25
 70
     1
102
RTVSPropertyOp26
 70
     1
102
RTVSPropertyOp27
 70
     1
102
RTVSPropertyOp28
 70
     1
102
RTVSPropertyOp29
 70
     1
102
RTVSPropertyOp30
 70
     1
102
RTVSPropertyOp31
 70
     1
102
RTVSPropertyOp32
 70
     1
  0
XRECORD
  5
153
102
{ACAD_REACTORS
330
152
102
}
330
152
100
AcDbXrecord
280
     1
102
RTVSPropertyOp0
 70
     1
102
RTVSPropertyOp1
 70
     1
102
RTVSPropertyOp2
 70
     1
102
RTVSPropertyOp3
 70
     1
102
RTVSPropertyOp4
 70
     1
102
RTVSPropertyOp5
 70
     1
102
RTVSPropertyOp6
 70
     1
102
RTVSPropertyOp7
 70
     1
102
RTVSPropertyOp8
 70
     1
102
RTVSPropertyOp9
 70
     1
102
RTVSPropertyOp10
 70
     1
102
RTVSPropertyOp11
 70
     1
102
RTVSPropertyOp12
 70
     1
102
RTVSPropertyOp13
 70
     1
102
RTVSPropertyOp14
 70
     1
102
RTVSPropertyOp15
 70
     1
102
RTVSPropertyOp16
 70
     1
102
RTVSPropertyOp17
 70
     1
102
RTVSPropertyOp18
 70
     1
102
RTVSPropertyOp19
 70
     1
102
RTVSPropertyOp20
 70
     1
102
RTVSPropertyOp21
 70
     1
102
RTVSPropertyOp22
 70
     1
102
RTVSPropertyOp23
 70
     1
102
RTVSPropertyOp24
 70
     1
102
RTVSPropertyOp25
 70
     1
102
RTVSPropertyOp26
 70
     1
102
RTVSPropertyOp27
 70
     1
102
RTVSPropertyOp28
 70
     1
102
RTVSPropertyOp29
 70
     1
102
RTVSPropertyOp30
 70
     1
102
RTVSPropertyOp31
 70
     1
102
RTVSPropertyOp32
 70
     1
  0
XRECORD
  5
149
102
{ACAD_REACTORS
330
148
102
}
330
148
100
AcDbXrecord
280
     1
102
RTVSPropertyOp0
 70
     1
102
RTVSPropertyOp1
 70
     1
102
RTVSPropertyOp2
 70
     1
102
RTVSPropertyOp3
 70
     1
102
RTVSPropertyOp4
 70
     1
102
RTVSPropertyOp5
 70
     1
102
RTVSPropertyOp6
 70
     1
102
RTVSPropertyOp7
 70
     1
102
RTVSPropertyOp8
 70
     1
102
RTVSPropertyOp9
 70
     1
102
RTVSPropertyOp10
 70
     1
102
RTVSPropertyOp11
 70
     1
102
RTVSPropertyOp12
 70
     1
102
RTVSPropertyOp13
 70
     1
102
RTVSPropertyOp14
 70
     1
102
RTVSPropertyOp15
 70
     1
102
RTVSPropertyOp16
 70
     1
102
RTVSPropertyOp17
 70
     1
102
RTVSPropertyOp18
 70
     1
102
RTVSPropertyOp19
 70
     1
102
RTVSPropertyOp20
 70
     1
102
RTVSPropertyOp21
 70
     1
102
RTVSPropertyOp22
 70
     1
102
RTVSPropertyOp23
 70
     1
102
RTVSPropertyOp24
 70
     1
102
RTVSPropertyOp25
 70
     1
102
RTVSPropertyOp26
 70
     1
102
RTVSPropertyOp27
 70
     1
102
RTVSPropertyOp28
 70
     1
102
RTVSPropertyOp29
 70
     1
102
RTVSPropertyOp30
 70
     1
102
RTVSPropertyOp31
 70
     1
102
RTVSPropertyOp32
 70
     1
  0
XRECORD
  5
151
102
{ACAD_REACTORS
330
150
102
}
330
150
100
AcDbXrecord
280
     1
102
RTVSPropertyOp0
 70
     1
102
RTVSPropertyOp1
 70
     1
102
RTVSPropertyOp2
 70
     1
102
RTVSPropertyOp3
 70
     1
102
RTVSPropertyOp4
 70
     1
102
RTVSPropertyOp5
 70
     1
102
RTVSPropertyOp6
 70
     1
102
RTVSPropertyOp7
 70
     1
102
RTVSPropertyOp8
 70
     1
102
RTVSPropertyOp9
 70
     1
102
RTVSPropertyOp10
 70
     1
102
RTVSPropertyOp11
 70
     1
102
RTVSPropertyOp12
 70
     1
102
RTVSPropertyOp13
 70
     1
102
RTVSPropertyOp14
 70
     1
102
RTVSPropertyOp15
 70
     1
102
RTVSPropertyOp16
 70
     1
102
RTVSPropertyOp17
 70
     1
102
RTVSPropertyOp18
 70
     1
102
RTVSPropertyOp19
 70
     1
102
RTVSPropertyOp20
 70
     1
102
RTVSPropertyOp21
 70
     1
102
RTVSPropertyOp22
 70
     1
102
RTVSPropertyOp23
 70
     1
102
RTVSPropertyOp24
 70
     1
102
RTVSPropertyOp25
 70
     1
102
RTVSPropertyOp26
 70
     1
102
RTVSPropertyOp27
 70
     1
102
RTVSPropertyOp28
 70
     1
102
RTVSPropertyOp29
 70
     1
102
RTVSPropertyOp30
 70
     1
102
RTVSPropertyOp31
 70
     1
102
RTVSPropertyOp32
 70
     1
  0
ENDSEC
  0
EOF
