  0
SECTION
  2
HEADER
  9
$ACADVER
  1
AC1021
  9
$ACADMAINTVER
 70
    25
  9
$DWGCODEPAGE
  3
ANSI_1256
  9
$INSBASE
 10
0.0
 20
0.0
 30
0.0
  9
$EXTMIN
 10
15.4488
 20
-114.8715
 30
0.0
  9
$EXTMAX
 10
98.1311
 20
131.8335
 30
0.0
  9
$LIMMIN
 10
0.0
 20
0.0
  9
$LIMMAX
 10
12.0
 20
9.0
  9
$ORTHOMODE
 70
     0
  9
$REGENMODE
 70
     1
  9
$FILLMODE
 70
     1
  9
$QTEXTMODE
 70
     0
  9
$MIRRTEXT
 70
     1
  9
$LTSCALE
 40
1.0
  9
$ATTMODE
 70
     1
  9
$TEXTSIZE
 40
0.2
  9
$TRACEWID
 40
0.05
  9
$TEXTSTYLE
  7
Standard
  9
$CLAYER
  8
0
  9
$CELTYPE
  6
ByLayer
  9
$CECOLOR
 62
   256
  9
$CELTSCALE
 40
1.0
  9
$DISPSILH
 70
     0
  9
$DIMSCALE
 40
1.0
  9
$DIMASZ
 40
0.18
  9
$DIMEXO
 40
0.0625
  9
$DIMDLI
 40
0.38
  9
$DIMRND
 40
0.0
  9
$DIMDLE
 40
0.0
  9
$DIMEXE
 40
0.18
  9
$DIMTP
 40
0.0
  9
$DIMTM
 40
0.0
  9
$DIMTXT
 40
0.18
  9
$DIMCEN
 40
0.09
  9
$DIMTSZ
 40
0.0
  9
$DIMTOL
 70
     0
  9
$DIMLIM
 70
     0
  9
$DIMTIH
 70
     1
  9
$DIMTOH
 70
     1
  9
$DIMSE1
 70
     0
  9
$DIMSE2
 70
     0
  9
$DIMTAD
 70
     0
  9
$DIMZIN
 70
     0
  9
$DIMBLK
  1

  9
$DIMASO
 70
     1
  9
$DIMSHO
 70
     1
  9
$DIMPOST
  1

  9
$DIMAPOST
  1

  9
$DIMALT
 70
     0
  9
$DIMALTD
 70
     2
  9
$DIMALTF
 40
25.4
  9
$DIMLFAC
 40
1.0
  9
$DIMTOFL
 70
     0
  9
$DIMTVP
 40
0.0
  9
$DIMTIX
 70
     0
  9
$DIMSOXD
 70
     0
  9
$DIMSAH
 70
     0
  9
$DIMBLK1
  1

  9
$DIMBLK2
  1

  9
$DIMSTYLE
  2
Standard
  9
$DIMCLRD
 70
     0
  9
$DIMCLRE
 70
     0
  9
$DIMCLRT
 70
     0
  9
$DIMTFAC
 40
1.0
  9
$DIMGAP
 40
0.09
  9
$DIMJUST
 70
     0
  9
$DIMSD1
 70
     0
  9
$DIMSD2
 70
     0
  9
$DIMTOLJ
 70
     1
  9
$DIMTZIN
 70
     0
  9
$DIMALTZ
 70
     0
  9
$DIMALTTZ
 70
     0
  9
$DIMUPT
 70
     0
  9
$DIMDEC
 70
     4
  9
$DIMTDEC
 70
     4
  9
$DIMALTU
 70
     2
  9
$DIMALTTD
 70
     2
  9
$DIMTXSTY
  7
Standard
  9
$DIMAUNIT
 70
     0
  9
$DIMADEC
 70
     0
  9
$DIMALTRND
 40
0.0
  9
$DIMAZIN
 70
     0
  9
$DIMDSEP
 70
    46
  9
$DIMATFIT
 70
     3
  9
$DIMFRAC
 70
     0
  9
$DIMLDRBLK
  1

  9
$DIMLUNIT
 70
     2
  9
$DIMLWD
 70
    -2
  9
$DIMLWE
 70
    -2
  9
$DIMTMOVE
 70
     0
  9
$DIMFXL
 40
1.0
  9
$DIMFXLON
 70
     0
  9
$DIMJOGANG
 40
0.7853981633974483
  9
$DIMTFILL
 70
     0
  9
$DIMTFILLCLR
 70
     0
  9
$DIMARCSYM
 70
     0
  9
$DIMLTYPE
  6

  9
$DIMLTEX1
  6

  9
$DIMLTEX2
  6

  9
$LUNITS
 70
     2
  9
$LUPREC
 70
     4
  9
$SKETCHINC
 40
0.1
  9
$FILLETRAD
 40
0.5
  9
$AUNITS
 70
     0
  9
$AUPREC
 70
     0
  9
$MENU
  1
.
  9
$ELEVATION
 40
0.0
  9
$PELEVATION
 40
0.0
  9
$THICKNESS
 40
0.0
  9
$LIMCHECK
 70
     0
  9
$CHAMFERA
 40
0.5
  9
$CHAMFERB
 40
0.5
  9
$CHAMFERC
 40
1.0
  9
$CHAMFERD
 40
0.0
  9
$SKPOLY
 70
     0
  9
$TDCREATE
 40
2458492.388477164
  9
$TDUCREATE
 40
2458492.221810498
  9
$TDUPDATE
 40
2458492.388477396
  9
$TDUUPDATE
 40
2458492.221810729
  9
$TDINDWG
 40
0.0000000116
  9
$TDUSRTIMER
 40
0.0000000116
  9
$USRTIMER
 70
     1
  9
$ANGBASE
 50
0.0
  9
$ANGDIR
 70
     0
  9
$PDMODE
 70
     0
  9
$PDSIZE
 40
0.0
  9
$PLINEWID
 40
0.0
  9
$SPLFRAME
 70
     0
  9
$SPLINETYPE
 70
     6
  9
$SPLINESEGS
 70
     8
  9
$HANDSEED
  5
10F
  9
$SURFTAB1
 70
     6
  9
$SURFTAB2
 70
     6
  9
$SURFTYPE
 70
     6
  9
$SURFU
 70
     6
  9
$SURFV
 70
     6
  9
$UCSBASE
  2

  9
$UCSNAME
  2

  9
$UCSORG
 10
0.0
 20
0.0
 30
0.0
  9
$UCSXDIR
 10
1.0
 20
0.0
 30
0.0
  9
$UCSYDIR
 10
0.0
 20
1.0
 30
0.0
  9
$UCSORTHOREF
  2

  9
$UCSORTHOVIEW
 70
     0
  9
$UCSORGTOP
 10
0.0
 20
0.0
 30
0.0
  9
$UCSORGBOTTOM
 10
0.0
 20
0.0
 30
0.0
  9
$UCSORGLEFT
 10
0.0
 20
0.0
 30
0.0
  9
$UCSORGRIGHT
 10
0.0
 20
0.0
 30
0.0
  9
$UCSORGFRONT
 10
0.0
 20
0.0
 30
0.0
  9
$UCSORGBACK
 10
0.0
 20
0.0
 30
0.0
  9
$PUCSBASE
  2

  9
$PUCSNAME
  2

  9
$PUCSORG
 10
0.0
 20
0.0
 30
0.0
  9
$PUCSXDIR
 10
1.0
 20
0.0
 30
0.0
  9
$PUCSYDIR
 10
0.0
 20
1.0
 30
0.0
  9
$PUCSORTHOREF
  2

  9
$PUCSORTHOVIEW
 70
     0
  9
$PUCSORGTOP
 10
0.0
 20
0.0
 30
0.0
  9
$PUCSORGBOTTOM
 10
0.0
 20
0.0
 30
0.0
  9
$PUCSORGLEFT
 10
0.0
 20
0.0
 30
0.0
  9
$PUCSORGRIGHT
 10
0.0
 20
0.0
 30
0.0
  9
$PUCSORGFRONT
 10
0.0
 20
0.0
 30
0.0
  9
$PUCSORGBACK
 10
0.0
 20
0.0
 30
0.0
  9
$USERI1
 70
     0
  9
$USERI2
 70
     0
  9
$USERI3
 70
     0
  9
$USERI4
 70
     0
  9
$USERI5
 70
     0
  9
$USERR1
 40
0.0
  9
$USERR2
 40
0.0
  9
$USERR3
 40
0.0
  9
$USERR4
 40
0.0
  9
$USERR5
 40
0.0
  9
$WORLDVIEW
 70
     1
  9
$SHADEDGE
 70
     3
  9
$SHADEDIF
 70
    70
  9
$TILEMODE
 70
     1
  9
$MAXACTVP
 70
    64
  9
$PINSBASE
 10
0.0
 20
0.0
 30
0.0
  9
$PLIMCHECK
 70
     0
  9
$PEXTMIN
 10
1.000000000000000E+20
 20
1.000000000000000E+20
 30
1.000000000000000E+20
  9
$PEXTMAX
 10
-1.000000000000000E+20
 20
-1.000000000000000E+20
 30
-1.000000000000000E+20
  9
$PLIMMIN
 10
0.0
 20
0.0
  9
$PLIMMAX
 10
12.0
 20
9.0
  9
$UNITMODE
 70
     0
  9
$VISRETAIN
 70
     1
  9
$PLINEGEN
 70
     0
  9
$PSLTSCALE
 70
     1
  9
$TREEDEPTH
 70
  3020
  9
$CMLSTYLE
  2
Standard
  9
$CMLJUST
 70
     0
  9
$CMLSCALE
 40
1.0
  9
$PROXYGRAPHICS
 70
     1
  9
$MEASUREMENT
 70
     0
  9
$CELWEIGHT
370
    -1
  9
$ENDCAPS
280
     0
  9
$JOINSTYLE
280
     0
  9
$LWDISPLAY
290
     0
  9
$INSUNITS
 70
     4
  9
$HYPERLINKBASE
  1

  9
$STYLESHEET
  1

  9
$XEDIT
290
     1
  9
$CEPSNTYPE
380
     0
  9
$PSTYLEMODE
290
     1
  9
$FINGERPRINTGUID
  2
{7C604CB9-99B4-482D-90F9-7305E248550F}
  9
$VERSIONGUID
  2
{FAEB1C32-E019-11D5-929B-00C0DF256EC4}
  9
$EXTNAMES
290
     1
  9
$PSVPSCALE
 40
0.0
  9
$OLESTARTUP
290
     0
  9
$SORTENTS
280
   127
  9
$INDEXCTL
280
     0
  9
$HIDETEXT
280
     1
  9
$XCLIPFRAME
290
     0
  9
$HALOGAP
280
     0
  9
$OBSCOLOR
 70
   257
  9
$OBSLTYPE
280
     0
  9
$INTERSECTIONDISPLAY
280
     0
  9
$INTERSECTIONCOLOR
 70
   257
  9
$DIMASSOC
280
     2
  9
$PROJECTNAME
  1

  9
$CAMERADISPLAY
290
     0
  9
$LENSLENGTH
 40
50.0
  9
$CAMERAHEIGHT
 40
0.0
  9
$STEPSPERSEC
 40
2.0
  9
$STEPSIZE
 40
6.0
  9
$3DDWFPREC
 40
2.0
  9
$PSOLWIDTH
 40
0.25
  9
$PSOLHEIGHT
 40
4.0
  9
$LOFTANG1
 40
1.570796326794897
  9
$LOFTANG2
 40
1.570796326794897
  9
$LOFTMAG1
 40
0.0
  9
$LOFTMAG2
 40
0.0
  9
$LOFTPARAM
 70
     7
  9
$LOFTNORMALS
280
     1
  9
$LATITUDE
 40
37.795
  9
$LONGITUDE
 40
-122.394
  9
$NORTHDIRECTION
 40
0.0
  9
$TIMEZONE
 70
 -8000
  9
$LIGHTGLYPHDISPLAY
280
     1
  9
$TILEMODELIGHTSYNCH
280
     1
  9
$SOLIDHIST
280
     1
  9
$SHOWHIST
280
     1
  9
$DWFFRAME
280
     2
  9
$DGNFRAME
280
     2
  9
$REALWORLDSCALE
290
     1
  9
$INTERFERECOLOR
 62
   256
  9
$CSHADOW
280
     0
  9
$SHADOWPLANELOCATION
 40
0.0
  0
ENDSEC
  0
SECTION
  2
CLASSES
  0
CLASS
  1
ACDBDICTIONARYWDFLT
  2
AcDbDictionaryWithDefault
  3
ObjectDBX Classes
 90
        0
 91
        4
280
     0
281
     0
  0
CLASS
  1
VISUALSTYLE
  2
AcDbVisualStyle
  3
ObjectDBX Classes
 90
     4095
 91
        4
280
     0
281
     0
  0
CLASS
  1
MATERIAL
  2
AcDbMaterial
  3
ObjectDBX Classes
 90
     1153
 91
        4
280
     0
281
     0
  0
ENDSEC
  0
SECTION
  2
TABLES
  0
TABLE
  2
VPORT
  5
8
330
0
100
AcDbSymbolTable
 70
     1
  0
VPORT
  5
29
330
8
100
AcDbSymbolTableRecord
100
AcDbViewportTableRecord
  2
*Active
 70
     0
 10
0.0
 20
0.0
 11
1.0
 21
1.0
 12
10.42990654205607
 22
4.5
 13
0.0
 23
0.0
 14
0.5
 24
0.5
 15
0.5
 25
0.5
 16
0.0
 26
0.0
 36
1.0
 17
0.0
 27
0.0
 37
0.0
 40
9.0
 41
1.972972972850329
 42
50.0
 43
0.0
 44
0.0
 50
0.0
 51
0.0
 71
     0
 72
   100
 73
     1
 74
     3
 75
     0
 76
     0
 77
     0
 78
     0
281
     0
 65
     1
110
0.0
120
0.0
130
0.0
111
1.0
121
0.0
131
0.0
112
0.0
122
1.0
132
0.0
 79
     0
146
0.0
 60
     3
 61
     5
292
     1
282
     1
141
0.0
142
0.0
 63
   250
  0
ENDTAB
  0
TABLE
  2
LTYPE
  5
5
330
0
100
AcDbSymbolTable
 70
     1
  0
LTYPE
  5
14
330
5
100
AcDbSymbolTableRecord
100
AcDbLinetypeTableRecord
  2
ByBlock
 70
     0
  3

 72
    65
 73
     0
 40
0.0
  0
LTYPE
  5
15
330
5
100
AcDbSymbolTableRecord
100
AcDbLinetypeTableRecord
  2
ByLayer
 70
     0
  3

 72
    65
 73
     0
 40
0.0
  0
LTYPE
  5
16
330
5
100
AcDbSymbolTableRecord
100
AcDbLinetypeTableRecord
  2
Continuous
 70
     0
  3
Solid line
 72
    65
 73
     0
 40
0.0
  0
ENDTAB
  0
TABLE
  2
LAYER
  5
2
330
0
100
AcDbSymbolTable
 70
     2
  0
LAYER
  5
10
330
2
100
AcDbSymbolTableRecord
100
AcDbLayerTableRecord
  2
0
 70
     0
 62
     7
  6
Continuous
370
    -3
390
F
347
3E
  0
LAYER
  5
40
330
2
100
AcDbSymbolTableRecord
100
AcDbLayerTableRecord
  2
layer 1
 70
     0
 62
     7
  6
Continuous
370
    -3
390
F
347
3E
  0
ENDTAB
  0
TABLE
  2
STYLE
  5
3
330
0
100
AcDbSymbolTable
 70
     1
  0
STYLE
  5
11
330
3
100
AcDbSymbolTableRecord
100
AcDbTextStyleTableRecord
  2
Standard
 70
     0
 40
0.0
 41
1.0
 50
0.0
 71
     0
 42
0.2
  3
txt
  4

  0
ENDTAB
  0
TABLE
  2
VIEW
  5
6
330
0
100
AcDbSymbolTable
 70
     0
  0
ENDTAB
  0
TABLE
  2
UCS
  5
7
330
0
100
AcDbSymbolTable
 70
     0
  0
ENDTAB
  0
TABLE
  2
APPID
  5
9
330
0
100
AcDbSymbolTable
 70
     2
  0
APPID
  5
12
330
9
100
AcDbSymbolTableRecord
100
AcDbRegAppTableRecord
  2
ACAD
 70
     0
  0
APPID
  5
3F
330
9
100
AcDbSymbolTableRecord
100
AcDbRegAppTableRecord
  2
ODA
 70
     0
  0
ENDTAB
  0
TABLE
  2
DIMSTYLE
  5
A
330
0
100
AcDbSymbolTable
 70
     1
100
AcDbDimStyleTable
  0
DIMSTYLE
105
27
330
A
100
AcDbSymbolTableRecord
100
AcDbDimStyleTableRecord
  2
Standard
 70
     0
178
     0
340
11
  0
ENDTAB
  0
TABLE
  2
BLOCK_RECORD
  5
1
330
0
100
AcDbSymbolTable
 70
     1
  0
BLOCK_RECORD
  5
1F
330
1
100
AcDbSymbolTableRecord
100
AcDbBlockTableRecord
  2
*Model_Space
340
22
 70
     0
280
     1
281
     0
  0
BLOCK_RECORD
  5
1B
330
1
100
AcDbSymbolTableRecord
100
AcDbBlockTableRecord
  2
*Paper_Space
340
1E
 70
     0
280
     1
281
     0
  0
BLOCK_RECORD
  5
23
330
1
100
AcDbSymbolTableRecord
100
AcDbBlockTableRecord
  2
*Paper_Space0
340
26
 70
     0
280
     1
281
     0
  0
ENDTAB
  0
ENDSEC
  0
SECTION
  2
BLOCKS
  0
BLOCK
  5
20
330
1F
100
AcDbEntity
  8
0
100
AcDbBlockBegin
  2
*Model_Space
 70
     0
 10
0.0
 20
0.0
 30
0.0
  3
*Model_Space
  1

  0
ENDBLK
  5
21
330
1F
100
AcDbEntity
  8
0
100
AcDbBlockEnd
  0
BLOCK
  5
1C
330
1B
100
AcDbEntity
 67
     1
  8
0
100
AcDbBlockBegin
  2
*Paper_Space
 70
     0
 10
0.0
 20
0.0
 30
0.0
  3
*Paper_Space
  1

  0
ENDBLK
  5
1D
330
1B
100
AcDbEntity
 67
     1
  8
0
100
AcDbBlockEnd
  0
BLOCK
  5
24
330
23
100
AcDbEntity
  8
0
100
AcDbBlockBegin
  2
*Paper_Space0
 70
     0
 10
0.0
 20
0.0
 30
0.0
  3
*Paper_Space0
  1

  0
ENDBLK
  5
25
330
23
100
AcDbEntity
  8
0
100
AcDbBlockEnd
  0
ENDSEC
  0
SECTION
  2
ENTITIES
  0
SPLINE
  5
41
330
1F
100
AcDbEntity
  8
layer 1
100
AcDbSpline
210
0.0
220
0.0
230
1.0
 70
    11
 71
     3
 72
    20
 73
    16
 74
     0
 42
0.0000000001
 43
0.0000000001
 12
1.0
 22
0.0
 32
0.0
 13
1.0
 23
0.0
 33
0.0
 40
0.0
 40
0.0
 40
0.0
 40
0.0
 40
0.2
 40
0.2
 40
0.2
 40
0.2
 40
0.4
 40
0.4
 40
0.4
 40
0.4
 40
0.6
 40
0.6
 40
0.6
 40
0.6
 40
1.0
 40
1.0
 40
1.0
 40
1.0
 10
15.4488
 20
131.8335
 30
0.0
 10
15.4488
 20
131.8335
 30
0.0
 10
98.1311
 20
131.8335
 30
0.0
 10
98.1311
 20
131.8335
 30
0.0
 10
98.1311
 20
131.8335
 30
0.0
 10
98.1311
 20
131.8335
 30
0.0
 10
98.1311
 20
-114.8715
 30
0.0
 10
98.1311
 20
-114.8715
 30
0.0
 10
98.1311
 20
-114.8715
 30
0.0
 10
98.1311
 20
-114.8715
 30
0.0
 10
15.4495
 20
-114.8715
 30
0.0
 10
15.4495
 20
-114.8715
 30
0.0
 10
15.4495
 20
-114.8715
 30
0.0
 10
15.4495
 20
-114.8715
 30
0.0
 10
15.4488
 20
131.8335
 30
0.0
 10
15.4488
 20
131.8335
 30
0.0
  0
SPLINE
  5
42
330
1F
100
AcDbEntity
  8
layer 1
 62
     7
100
AcDbSpline
210
0.0
220
0.0
230
1.0
 70
    11
 71
     3
 72
    16
 73
    12
 74
     0
 42
0.0000000001
 43
0.0000000001
 12
1.0
 22
0.0
 32
0.0
 13
1.0
 23
0.0
 33
0.0
 40
0.0
 40
0.0
 40
0.0
 40
0.0
 40
0.25
 40
0.25
 40
0.25
 40
0.25
 40
0.5
 40
0.5
 40
0.5
 40
0.5
 40
1.0
 40
1.0
 40
1.0
 40
1.0
 10
42.5496
 20
18.9392
 30
0.0
 10
42.0566
 20
23.9877
 30
0.0
 10
38.6903
 20
25.5279
 30
0.0
 10
36.2212
 20
24.7132
 30
0.0
 10
36.2212
 20
24.7132
 30
0.0
 10
37.6503
 20
27.9487
 30
0.0
 10
41.1381
 20
35.1027
 30
0.0
 10
43.4272
 20
36.5939
 30
0.0
 10
43.4272
 20
36.5939
 30
0.0
 10
45.7953
 20
32.7449
 30
0.0
 10
44.4745
 20
21.537
 30
0.0
 10
42.5496
 20
18.9392
 30
0.0
  0
SPLINE
  5
43
330
1F
100
AcDbEntity
  8
layer 1
 62
     7
100
AcDbSpline
210
0.0
220
0.0
230
1.0
 70
    11
 71
     3
 72
    16
 73
    12
 74
     0
 42
0.0000000001
 43
0.0000000001
 12
1.0
 22
0.0
 32
0.0
 13
1.0
 23
0.0
 33
0.0
 40
0.0
 40
0.0
 40
0.0
 40
0.0
 40
0.25
 40
0.25
 40
0.25
 40
0.25
 40
0.5
 40
0.5
 40
0.5
 40
0.5
 40
1.0
 40
1.0
 40
1.0
 40
1.0
 10
36.2519
 20
7.7211
 30
0.0
 10
34.779
 20
8.2345
 30
0.0
 10
32.4409
 20
9.6248
 30
0.0
 10
31.4733
 20
10.6933
 30
0.0
 10
31.4733
 20
10.6933
 30
0.0
 10
30.7588
 20
8.0436
 30
0.0
 10
30.5372
 20
3.7192
 30
0.0
 10
30.87
 20
0.9584
 30
0.0
 10
30.87
 20
0.9584
 30
0.0
 10
33.1349
 20
3.7294
 30
0.0
 10
34.2056
 20
5.3216
 30
0.0
 10
36.2519
 20
7.7211
 30
0.0
  0
SPLINE
  5
44
330
1F
100
AcDbEntity
  8
layer 1
 62
     7
100
AcDbSpline
210
0.0
220
0.0
230
1.0
 70
    11
 71
     3
 72
    20
 73
    16
 74
     0
 42
0.0000000001
 43
0.0000000001
 12
1.0
 22
0.0
 32
0.0
 13
1.0
 23
0.0
 33
0.0
 40
0.0
 40
0.0
 40
0.0
 40
0.0
 40
0.2
 40
0.2
 40
0.2
 40
0.2
 40
0.4
 40
0.4
 40
0.4
 40
0.4
 40
0.6
 40
0.6
 40
0.6
 40
0.6
 40
1.0
 40
1.0
 40
1.0
 40
1.0
 10
37.2093
 20
10.1382
 30
0.0
 10
35.9367
 20
10.7935
 30
0.0
 10
33.8422
 20
11.8437
 30
0.0
 10
32.1988
 20
13.5156
 30
0.0
 10
32.1988
 20
13.5156
 30
0.0
 10
32.5418
 20
15.8742
 30
0.0
 10
33.1064
 20
17.3961
 30
0.0
 10
34.2546
 20
19.6947
 30
0.0
 10
34.2546
 20
19.6947
 30
0.0
 10
35.0906
 20
17.0143
 30
0.0
 10
38.669
 20
17.6075
 30
0.0
 10
39.3039
 20
19.6845
 30
0.0
 10
39.3039
 20
19.6845
 30
0.0
 10
40.7256
 20
16.2069
 30
0.0
 10
39.4048
 20
12.8501
 30
0.0
 10
37.2093
 20
10.1382
 30
0.0
  0
SPLINE
  5
45
330
1F
100
AcDbEntity
  8
layer 1
 62
     7
100
AcDbSpline
210
0.0
220
0.0
230
1.0
 70
    11
 71
     3
 72
    16
 73
    12
 74
     0
 42
0.0000000001
 43
0.0000000001
 12
1.0
 22
0.0
 32
0.0
 13
1.0
 23
0.0
 33
0.0
 40
0.0
 40
0.0
 40
0.0
 40
0.0
 40
0.25
 40
0.25
 40
0.25
 40
0.25
 40
0.5
 40
0.5
 40
0.5
 40
0.5
 40
1.0
 40
1.0
 40
1.0
 40
1.0
 10
29.1645
 20
-5.5433
 30
0.0
 10
29.7086
 20
-13.1208
 30
0.0
 10
29.9719
 20
-15.7317
 30
0.0
 10
28.6613
 20
-20.3472
 30
0.0
 10
28.6613
 20
-20.3472
 30
0.0
 10
27.1189
 20
-26.1526
 30
0.0
 10
21.8576
 20
-27.1999
 30
0.0
 10
22.3322
 20
-19.3489
 30
0.0
 10
22.3322
 20
-19.3489
 30
0.0
 10
23.1192
 20
-12.6176
 30
0.0
 10
27.7354
 20
-8.2829
 30
0.0
 10
29.1645
 20
-5.5433
 30
0.0
  0
SPLINE
  5
46
330
1F
100
AcDbEntity
  8
layer 1
 62
     7
100
AcDbSpline
210
0.0
220
0.0
230
1.0
 70
    11
 71
     3
 72
    24
 73
    20
 74
     0
 42
0.0000000001
 43
0.0000000001
 12
1.0
 22
0.0
 32
0.0
 13
1.0
 23
0.0
 33
0.0
 40
0.0
 40
0.0
 40
0.0
 40
0.0
 40
0.1666666666666667
 40
0.1666666666666667
 40
0.1666666666666667
 40
0.1666666666666667
 40
0.3333333333333333
 40
0.3333333333333333
 40
0.3333333333333333
 40
0.3333333333333333
 40
0.5
 40
0.5
 40
0.5
 40
0.5
 40
0.6666666666666666
 40
0.6666666666666666
 40
0.6666666666666666
 40
0.6666666666666666
 40
1.0
 40
1.0
 40
1.0
 40
1.0
 10
31.4528
 20
-2.7693
 30
0.0
 10
32.5418
 20
-1.4097
 30
0.0
 10
32.7949
 20
-0.927
 30
0.0
 10
33.9014
 20
0.3133
 30
0.0
 10
33.9014
 20
0.3133
 30
0.0
 10
32.8951
 20
-3.9307
 30
0.0
 10
34.8894
 20
-7.1837
 30
0.0
 10
37.7432
 20
-7.145
 30
0.0
 10
37.7432
 20
-7.145
 30
0.0
 10
33.5401
 20
-10.0762
 30
0.0
 10
31.6152
 20
-17.171
 30
0.0
 10
33.7624
 20
-21.8282
 30
0.0
 10
33.7624
 20
-21.8282
 30
0.0
 10
33.7624
 20
-21.8282
 30
0.0
 10
30.9087
 20
-21.8691
 30
0.0
 10
30.9087
 20
-21.8691
 30
0.0
 10
30.9087
 20
-21.8691
 30
0.0
 10
32.7225
 20
-17.4547
 30
0.0
 10
32.653
 20
-9.614
 30
0.0
 10
31.4528
 20
-2.7693
 30
0.0
  0
SPLINE
  5
47
330
1F
100
AcDbEntity
  8
layer 1
 62
     7
100
AcDbSpline
210
0.0
220
0.0
230
1.0
 70
    11
 71
     3
 72
    16
 73
    12
 74
     0
 42
0.0000000001
 43
0.0000000001
 12
1.0
 22
0.0
 32
0.0
 13
1.0
 23
0.0
 33
0.0
 40
0.0
 40
0.0
 40
0.0
 40
0.0
 40
0.25
 40
0.25
 40
0.25
 40
0.25
 40
0.5
 40
0.5
 40
0.5
 40
0.5
 40
1.0
 40
1.0
 40
1.0
 40
1.0
 10
21.0012
 20
-5.0577
 30
0.0
 10
22.3118
 20
-6.3375
 30
0.0
 10
23.1791
 20
-6.3478
 30
0.0
 10
25.9604
 20
-5.1893
 30
0.0
 10
25.9604
 20
-5.1893
 30
0.0
 10
23.9661
 20
-7.5582
 30
0.0
 10
22.1004
 20
-9.573
 30
0.0
 10
21.0217
 20
-12.6666
 30
0.0
 10
21.0217
 20
-12.6666
 30
0.0
 10
21.0217
 20
-12.6666
 30
0.0
 10
21.0012
 20
-5.0577
 30
0.0
 10
21.0012
 20
-5.0577
 30
0.0
  0
SPLINE
  5
48
330
1F
100
AcDbEntity
  8
layer 1
 62
     7
100
AcDbSpline
210
0.0
220
0.0
230
1.0
 70
    11
 71
     3
 72
    32
 73
    28
 74
     0
 42
0.0000000001
 43
0.0000000001
 12
1.0
 22
0.0
 32
0.0
 13
1.0
 23
0.0
 33
0.0
 40
0.0
 40
0.0
 40
0.0
 40
0.0
 40
0.125
 40
0.125
 40
0.125
 40
0.125
 40
0.25
 40
0.25
 40
0.25
 40
0.25
 40
0.375
 40
0.375
 40
0.375
 40
0.375
 40
0.5
 40
0.5
 40
0.5
 40
0.5
 40
0.625
 40
0.625
 40
0.625
 40
0.625
 40
0.75
 40
0.75
 40
0.75
 40
0.75
 40
1.0
 40
1.0
 40
1.0
 40
1.0
 10
20.9419
 20
4.8491
 30
0.0
 10
25.3563
 20
3.2753
 30
0.0
 10
27.1189
 20
9.4237
 30
0.0
 10
22.7557
 20
10.6546
 30
0.0
 10
22.7557
 20
10.6546
 30
0.0
 10
24.2674
 20
12.4683
 30
0.0
 10
27.8671
 20
12.8113
 30
0.0
 10
28.7132
 20
12.7806
 30
0.0
 10
28.7132
 20
12.7806
 30
0.0
 10
29.6391
 20
12.7389
 30
0.0
 10
27.7354
 20
4.8286
 30
0.0
 10
27.7947
 20
4.2326
 30
0.0
 10
27.7947
 20
4.2326
 30
0.0
 10
25.488
 20
3.7711
 30
0.0
 10
24.3683
 20
0.4735
 30
0.0
 10
24.7318
 20
-3.2959
 30
0.0
 10
24.7318
 20
-3.2959
 30
0.0
 10
24.1255
 20
-3.5979
 30
0.0
 10
23.6018
 20
-3.7786
 30
0.0
 10
22.9985
 20
-3.7471
 30
0.0
 10
22.9985
 20
-3.7471
 30
0.0
 10
25.3052
 20
-1.763
 30
0.0
 10
21.3961
 20
1.0183
 30
0.0
 10
20.9909
 20
-2.6406
 30
0.0
 10
20.9909
 20
-2.6406
 30
0.0
 10
20.9909
 20
-2.6406
 30
0.0
 10
20.9419
 20
4.8491
 30
0.0
 10
20.9419
 20
4.8491
 30
0.0
  0
SPLINE
  5
49
330
1F
100
AcDbEntity
  8
layer 1
 62
     7
100
AcDbSpline
210
0.0
220
0.0
230
1.0
 70
    11
 71
     3
 72
    16
 73
    12
 74
     0
 42
0.0000000001
 43
0.0000000001
 12
1.0
 22
0.0
 32
0.0
 13
1.0
 23
0.0
 33
0.0
 40
0.0
 40
0.0
 40
0.0
 40
0.0
 40
0.25
 40
0.25
 40
0.25
 40
0.25
 40
0.5
 40
0.5
 40
0.5
 40
0.5
 40
1.0
 40
1.0
 40
1.0
 40
1.0
 10
21.0429
 20
13.5851
 30
0.0
 10
22.3432
 20
14.8752
 30
0.0
 10
23.5017
 20
15.2598
 30
0.0
 10
26.182
 20
15.2986
 30
0.0
 10
26.182
 20
15.2986
 30
0.0
 10
23.7335
 20
17.4166
 30
0.0
 10
22.1004
 20
19.9061
 30
0.0
 10
21.0217
 20
22.9894
 30
0.0
 10
21.0217
 20
22.9894
 30
0.0
 10
21.0217
 20
22.9894
 30
0.0
 10
21.0429
 20
13.5851
 30
0.0
 10
21.0429
 20
13.5851
 30
0.0
  0
SPLINE
  5
4A
330
1F
100
AcDbEntity
  8
layer 1
 62
     7
100
AcDbSpline
210
0.0
220
0.0
230
1.0
 70
    11
 71
     3
 72
    16
 73
    12
 74
     0
 42
0.0000000001
 43
0.0000000001
 12
1.0
 22
0.0
 32
0.0
 13
1.0
 23
0.0
 33
0.0
 40
0.0
 40
0.0
 40
0.0
 40
0.0
 40
0.25
 40
0.25
 40
0.25
 40
0.25
 40
0.5
 40
0.5
 40
0.5
 40
0.5
 40
1.0
 40
1.0
 40
1.0
 40
1.0
 10
72.5428
 20
-3.0735
 30
0.0
 10
73.035
 20
-8.1228
 30
0.0
 10
76.4021
 20
-9.663
 30
0.0
 10
78.8711
 20
-8.8483
 30
0.0
 10
78.8711
 20
-8.8483
 30
0.0
 10
77.4392
 20
-12.083
 30
0.0
 10
73.9536
 20
-19.2275
 30
0.0
 10
71.6652
 20
-20.729
 30
0.0
 10
71.6652
 20
-20.729
 30
0.0
 10
69.2971
 20
-16.8799
 30
0.0
 10
70.6179
 20
-5.672
 30
0.0
 10
72.5428
 20
-3.0735
 30
0.0
  0
SPLINE
  5
4B
330
1F
100
AcDbEntity
  8
layer 1
 62
     7
100
AcDbSpline
210
0.0
220
0.0
230
1.0
 70
    11
 71
     3
 72
    16
 73
    12
 74
     0
 42
0.0000000001
 43
0.0000000001
 12
1.0
 22
0.0
 32
0.0
 13
1.0
 23
0.0
 33
0.0
 40
0.0
 40
0.0
 40
0.0
 40
0.0
 40
0.25
 40
0.25
 40
0.25
 40
0.25
 40
0.5
 40
0.5
 40
0.5
 40
0.5
 40
1.0
 40
1.0
 40
1.0
 40
1.0
 10
78.8404
 20
8.1438
 30
0.0
 10
80.3134
 20
7.6304
 30
0.0
 10
82.6507
 20
6.2401
 30
0.0
 10
83.6183
 20
5.1717
 30
0.0
 10
83.6183
 20
5.1717
 30
0.0
 10
84.3336
 20
7.8213
 30
0.0
 10
84.5552
 20
12.1458
 30
0.0
 10
84.2224
 20
14.9066
 30
0.0
 10
84.2224
 20
14.9066
 30
0.0
 10
81.9545
 20
12.1355
 30
0.0
 10
80.886
 20
10.5536
 30
0.0
 10
78.8404
 20
8.1438
 30
0.0
  0
SPLINE
  5
4C
330
1F
100
AcDbEntity
  8
layer 1
 62
     7
100
AcDbSpline
210
0.0
220
0.0
230
1.0
 70
    11
 71
     3
 72
    20
 73
    16
 74
     0
 42
0.0000000001
 43
0.0000000001
 12
1.0
 22
0.0
 32
0.0
 13
1.0
 23
0.0
 33
0.0
 40
0.0
 40
0.0
 40
0.0
 40
0.0
 40
0.2
 40
0.2
 40
0.2
 40
0.2
 40
0.4
 40
0.4
 40
0.4
 40
0.4
 40
0.6
 40
0.6
 40
0.6
 40
0.6
 40
1.0
 40
1.0
 40
1.0
 40
1.0
 10
77.8831
 20
5.7267
 30
0.0
 10
79.1527
 20
5.0715
 30
0.0
 10
81.2502
 20
4.0212
 30
0.0
 10
82.9038
 20
2.3494
 30
0.0
 10
82.9038
 20
2.3494
 30
0.0
 10
82.5505
 20
-0.0085
 30
0.0
 10
81.9852
 20
-1.5209
 30
0.0
 10
80.837
 20
-3.8298
 30
0.0
 10
80.837
 20
-3.8298
 30
0.0
 10
80.0011
 20
-1.1494
 30
0.0
 10
76.4226
 20
-1.7425
 30
0.0
 10
75.7885
 20
-3.8195
 30
0.0
 10
75.7885
 20
-3.8195
 30
0.0
 10
74.3668
 20
-0.342
 30
0.0
 10
75.6876
 20
3.0149
 30
0.0
 10
77.8831
 20
5.7267
 30
0.0
  0
SPLINE
  5
4D
330
1F
100
AcDbEntity
  8
layer 1
 62
     7
100
AcDbSpline
210
0.0
220
0.0
230
1.0
 70
    11
 71
     3
 72
    20
 73
    16
 74
     0
 42
0.0000000001
 43
0.0000000001
 12
1.0
 22
0.0
 32
0.0
 13
1.0
 23
0.0
 33
0.0
 40
0.0
 40
0.0
 40
0.0
 40
0.0
 40
0.2
 40
0.2
 40
0.2
 40
0.2
 40
0.4
 40
0.4
 40
0.4
 40
0.4
 40
0.6
 40
0.6
 40
0.6
 40
0.6
 40
1.0
 40
1.0
 40
1.0
 40
1.0
 10
65.8495
 20
-14.3202
 30
0.0
 10
65.8495
 20
-13.4945
 30
0.0
 10
65.1738
 20
-12.829
 30
0.0
 10
64.3583
 20
-12.829
 30
0.0
 10
64.3583
 20
-12.829
 30
0.0
 10
63.5334
 20
-12.829
 30
0.0
 10
62.8671
 20
-13.4945
 30
0.0
 10
62.8671
 20
-14.3202
 30
0.0
 10
62.8671
 20
-14.3202
 30
0.0
 10
62.8671
 20
-15.1356
 30
0.0
 10
63.5334
 20
-15.8012
 30
0.0
 10
64.3583
 20
-15.8012
 30
0.0
 10
64.3583
 20
-15.8012
 30
0.0
 10
65.1738
 20
-15.8012
 30
0.0
 10
65.8495
 20
-15.1356
 30
0.0
 10
65.8495
 20
-14.3202
 30
0.0
  0
SPLINE
  5
4E
330
1F
100
AcDbEntity
  8
layer 1
 62
     7
100
AcDbSpline
210
0.0
220
0.0
230
1.0
 70
    11
 71
     3
 72
    16
 73
    12
 74
     0
 42
0.0000000001
 43
0.0000000001
 12
1.0
 22
0.0
 32
0.0
 13
1.0
 23
0.0
 33
0.0
 40
0.0
 40
0.0
 40
0.0
 40
0.0
 40
0.25
 40
0.25
 40
0.25
 40
0.25
 40
0.5
 40
0.5
 40
0.5
 40
0.5
 40
1.0
 40
1.0
 40
1.0
 40
1.0
 10
64.9829
 20
-10.1171
 30
0.0
 10
66.0024
 20
-10.1874
 30
0.0
 10
67.3619
 20
-11.1856
 30
0.0
 10
67.5938
 20
-11.6296
 30
0.0
 10
67.5938
 20
-11.6296
 30
0.0
 10
67.5038
 20
-10.7417
 30
0.0
 10
67.7254
 20
-8.4453
 30
0.0
 10
68.097
 20
-6.8824
 30
0.0
 10
68.097
 20
-6.8824
 30
0.0
 10
67.6742
 20
-7.4572
 30
0.0
 10
65.5168
 20
-9.663
 30
0.0
 10
64.9829
 20
-10.1171
 30
0.0
  0
SPLINE
  5
4F
330
1F
100
AcDbEntity
  8
layer 1
 62
     7
100
AcDbSpline
210
0.0
220
0.0
230
1.0
 70
    11
 71
     3
 72
    16
 73
    12
 74
     0
 42
0.0000000001
 43
0.0000000001
 12
1.0
 22
0.0
 32
0.0
 13
1.0
 23
0.0
 33
0.0
 40
0.0
 40
0.0
 40
0.0
 40
0.0
 40
0.25
 40
0.25
 40
0.25
 40
0.25
 40
0.5
 40
0.5
 40
0.5
 40
0.5
 40
1.0
 40
1.0
 40
1.0
 40
1.0
 10
60.156
 20
-14.2193
 30
0.0
 10
60.0346
 20
-12.9709
 30
0.0
 10
60.8522
 20
-11.6808
 30
0.0
 10
61.4768
 20
-11.1754
 30
0.0
 10
61.4768
 20
-11.1754
 30
0.0
 10
60.1245
 20
-11.2061
 30
0.0
 10
59.067
 20
-11.1264
 30
0.0
 10
57.4544
 20
-11.1754
 30
0.0
 10
57.4544
 20
-11.1754
 30
0.0
 10
58.3423
 20
-12.1144
 30
0.0
 10
59.5621
 20
-13.5128
 30
0.0
 10
60.156
 20
-14.2193
 30
0.0
  0
SPLINE
  5
50
330
1F
100
AcDbEntity
  8
layer 1
 62
     7
100
AcDbSpline
210
0.0
220
0.0
230
1.0
 70
    11
 71
     3
 72
    24
 73
    20
 74
     0
 42
0.0000000001
 43
0.0000000001
 12
1.0
 22
0.0
 32
0.0
 13
1.0
 23
0.0
 33
0.0
 40
0.0
 40
0.0
 40
0.0
 40
0.0
 40
0.1666666666666667
 40
0.1666666666666667
 40
0.1666666666666667
 40
0.1666666666666667
 40
0.3333333333333333
 40
0.3333333333333333
 40
0.3333333333333333
 40
0.3333333333333333
 40
0.5
 40
0.5
 40
0.5
 40
0.5
 40
0.6666666666666666
 40
0.6666666666666666
 40
0.6666666666666666
 40
0.6666666666666666
 40
1.0
 40
1.0
 40
1.0
 40
1.0
 10
62.7874
 20
-18.26
 30
0.0
 10
65.1664
 20
-19.0878
 30
0.0
 10
67.0599
 20
-17.8782
 30
0.0
 10
67.4519
 20
-17.0605
 30
0.0
 10
67.4519
 20
-17.0605
 30
0.0
 10
67.9061
 20
-19.8133
 30
0.0
 10
68.5511
 20
-22.4732
 30
0.0
 10
69.5882
 20
-24.4186
 30
0.0
 10
69.5882
 20
-24.4186
 30
0.0
 10
69.1654
 20
-24.8106
 30
0.0
 10
68.6828
 20
-25.4864
 30
0.0
 10
68.1591
 20
-26.0415
 30
0.0
 10
68.1591
 20
-26.0415
 30
0.0
 10
68.007
 20
-26.2009
 30
0.0
 10
67.6355
 20
-25.9998
 30
0.0
 10
67.4621
 20
-26.1212
 30
0.0
 10
67.4621
 20
-26.1212
 30
0.0
 10
67.0497
 20
-25.5485
 30
0.0
 10
63.3213
 20
-18.7141
 30
0.0
 10
62.7874
 20
-18.26
 30
0.0
  0
SPLINE
  5
51
330
1F
100
AcDbEntity
  8
layer 1
 62
     7
100
AcDbSpline
210
0.0
220
0.0
230
1.0
 70
    11
 71
     3
 72
    48
 73
    44
 74
     0
 42
0.0000000001
 43
0.0000000001
 12
1.0
 22
0.0
 32
0.0
 13
1.0
 23
0.0
 33
0.0
 40
0.0
 40
0.0
 40
0.0
 40
0.0
 40
0.0833333333333333
 40
0.0833333333333333
 40
0.0833333333333333
 40
0.0833333333333333
 40
0.1666666666666667
 40
0.1666666666666667
 40
0.1666666666666667
 40
0.1666666666666667
 40
0.25
 40
0.25
 40
0.25
 40
0.25
 40
0.3333333333333333
 40
0.3333333333333333
 40
0.3333333333333333
 40
0.3333333333333333
 40
0.4166666666666667
 40
0.4166666666666667
 40
0.4166666666666667
 40
0.4166666666666667
 40
0.5
 40
0.5
 40
0.5
 40
0.5
 40
0.5833333333333334
 40
0.5833333333333334
 40
0.5833333333333334
 40
0.5833333333333334
 40
0.6666666666666666
 40
0.6666666666666666
 40
0.6666666666666666
 40
0.6666666666666666
 40
0.75
 40
0.75
 40
0.75
 40
0.75
 40
0.8333333333333334
 40
0.8333333333333334
 40
0.8333333333333334
 40
0.8333333333333334
 40
1.0
 40
1.0
 40
1.0
 40
1.0
 10
47.8306
 20
-22.7468
 30
0.0
 10
44.7378
 20
-21.3353
 30
0.0
 10
40.3511
 20
-20.8913
 30
0.0
 10
36.3009
 20
-21.1239
 30
0.0
 10
36.3009
 20
-21.1239
 30
0.0
 10
34.6986
 20
-19.2685
 30
0.0
 10
34.8507
 20
-12.3258
 30
0.0
 10
40.9165
 20
-8.6676
 30
0.0
 10
40.9165
 20
-8.6676
 30
0.0
 10
51.3579
 20
-3.5072
 30
0.0
 10
59.0283
 20
-17.1534
 30
0.0
 10
64.5806
 20
-27.1195
 30
0.0
 10
64.5806
 20
-27.1195
 30
0.0
 10
61.4563
 20
-27.9452
 30
0.0
 10
58.0504
 20
-25.9998
 30
0.0
 10
57.8881
 20
-26.1212
 30
0.0
 10
57.8881
 20
-26.1212
 30
0.0
 10
60.6102
 20
-24.8523
 30
0.0
 10
60.2979
 20
-21.2453
 30
0.0
 10
58.765
 20
-20.0247
 30
0.0
 10
58.765
 20
-20.0247
 30
0.0
 10
57.0931
 20
-18.6936
 30
0.0
 10
52.0337
 20
-19.9625
 30
0.0
 10
53.7158
 20
-25.6283
 30
0.0
 10
53.7158
 20
-25.6283
 30
0.0
 10
52.5961
 20
-25.2853
 30
0.0
 10
51.4691
 20
-24.7923
 30
0.0
 10
50.5015
 20
-24.3075
 30
0.0
 10
50.5015
 20
-24.3075
 30
0.0
 10
53.7677
 20
-15.6
 30
0.0
 10
48.5971
 20
-12.4267
 30
0.0
 10
45.0186
 20
-12.6279
 30
0.0
 10
45.0186
 20
-12.6279
 30
0.0
 10
40.3723
 20
-13.1413
 30
0.0
 10
41.3706
 20
-17.6149
 30
0.0
 10
42.1473
 20
-18.6344
 30
0.0
 10
42.1473
 20
-18.6344
 30
0.0
 10
43.6875
 20
-20.6595
 30
0.0
 10
47.6193
 20
-20.0042
 30
0.0
 10
47.8621
 20
-17.3545
 30
0.0
 10
47.8621
 20
-17.3545
 30
0.0
 10
49.2319
 20
-18.9774
 30
0.0
 10
49.482
 20
-21.1239
 30
0.0
 10
47.8306
 20
-22.7468
 30
0.0
  0
SPLINE
  5
52
330
1F
100
AcDbEntity
  8
layer 1
 62
     7
100
AcDbSpline
210
0.0
220
0.0
230
1.0
 70
    11
 71
     3
 72
    12
 73
     8
 74
     0
 42
0.0000000001
 43
0.0000000001
 12
1.0
 22
0.0
 32
0.0
 13
1.0
 23
0.0
 33
0.0
 40
0.0
 40
0.0
 40
0.0
 40
0.0
 40
0.3333333333333333
 40
0.3333333333333333
 40
0.3333333333333333
 40
0.3333333333333333
 40
1.0
 40
1.0
 40
1.0
 40
1.0
 10
45.1605
 20
-25.0739
 30
0.0
 10
44.0613
 20
-23.541
 30
0.0
 10
39.6959
 20
-23.198
 30
0.0
 10
37.9136
 20
-23.4715
 30
0.0
 10
37.9136
 20
-23.4715
 30
0.0
 10
39.5159
 20
-25.4557
 30
0.0
 10
43.2436
 20
-25.6773
 30
0.0
 10
45.1605
 20
-25.0739
 30
0.0
  0
SPLINE
  5
53
330
1F
100
AcDbEntity
  8
layer 1
 62
     7
100
AcDbSpline
210
0.0
220
0.0
230
1.0
 70
    11
 71
     3
 72
    20
 73
    16
 74
     0
 42
0.0000000001
 43
0.0000000001
 12
1.0
 22
0.0
 32
0.0
 13
1.0
 23
0.0
 33
0.0
 40
0.0
 40
0.0
 40
0.0
 40
0.0
 40
0.2
 40
0.2
 40
0.2
 40
0.2
 40
0.4
 40
0.4
 40
0.4
 40
0.4
 40
0.6
 40
0.6
 40
0.6
 40
0.6
 40
1.0
 40
1.0
 40
1.0
 40
1.0
 10
40.5632
 20
8.5673
 30
0.0
 10
42.0647
 20
10.7138
 30
0.0
 10
44.9286
 20
17.2052
 30
0.0
 10
45.3309
 20
18.0309
 30
0.0
 10
45.3309
 20
18.0309
 30
0.0
 10
45.0676
 20
13.4256
 30
0.0
 10
48.0734
 20
9.1217
 30
0.0
 10
52.901
 20
9.1217
 30
0.0
 10
52.901
 20
9.1217
 30
0.0
 10
52.4776
 20
8.7296
 30
0.0
 10
50.9242
 20
7.1865
 30
0.0
 10
50.7648
 20
6.0178
 30
0.0
 10
50.7648
 20
6.0178
 30
0.0
 10
46.7833
 20
6.0566
 30
0.0
 10
42.0954
 20
7.6304
 30
0.0
 10
40.5632
 20
8.5673
 30
0.0
  0
SPLINE
  5
54
330
1F
100
AcDbEntity
  8
layer 1
 62
     7
100
AcDbSpline
210
0.0
220
0.0
230
1.0
 70
    11
 71
     3
 72
    28
 73
    24
 74
     0
 42
0.0000000001
 43
0.0000000001
 12
1.0
 22
0.0
 32
0.0
 13
1.0
 23
0.0
 33
0.0
 40
0.0
 40
0.0
 40
0.0
 40
0.0
 40
0.1428571428571428
 40
0.1428571428571428
 40
0.1428571428571428
 40
0.1428571428571428
 40
0.2857142857142857
 40
0.2857142857142857
 40
0.2857142857142857
 40
0.2857142857142857
 40
0.4285714285714285
 40
0.4285714285714285
 40
0.4285714285714285
 40
0.4285714285714285
 40
0.5714285714285714
 40
0.5714285714285714
 40
0.5714285714285714
 40
0.5714285714285714
 40
0.7142857142857143
 40
0.7142857142857143
 40
0.7142857142857143
 40
0.7142857142857143
 40
1.0
 40
1.0
 40
1.0
 40
1.0
 10
52.5164
 20
3.1466
 30
0.0
 10
54.5934
 20
2.8833
 30
0.0
 10
56.9929
 20
3.317
 30
0.0
 10
58.4117
 20
4.5478
 30
0.0
 10
58.4117
 20
4.5478
 30
0.0
 10
57.4339
 20
2.5198
 30
0.0
 10
58.3423
 20
-0.29
 30
0.0
 10
60.9817
 20
-0.7961
 30
0.0
 10
60.9817
 20
-0.7961
 30
0.0
 10
62.6045
 20
-1.0974
 30
0.0
 10
64.9441
 20
-0.1818
 30
0.0
 10
64.9624
 20
2.3187
 30
0.0
 10
64.9624
 20
2.3187
 30
0.0
 10
66.7966
 20
2.1278
 30
0.0
 10
68.4919
 20
-3.7888
 30
0.0
 10
64.6114
 20
-6.7917
 30
0.0
 10
64.6114
 20
-6.7917
 30
0.0
 10
61.0848
 20
-9.524
 30
0.0
 10
57.1034
 20
-8.4943
 30
0.0
 10
54.0076
 20
-5.5923
 30
0.0
 10
54.0076
 20
-5.5923
 30
0.0
 10
51.2365
 20
-2.3978
 30
0.0
 10
52.0234
 20
1.9157
 30
0.0
 10
52.5164
 20
3.1466
 30
0.0
  0
SPLINE
  5
55
330
1F
100
AcDbEntity
  8
layer 1
 62
     7
100
AcDbSpline
210
0.0
220
0.0
230
1.0
 70
    11
 71
     3
 72
    20
 73
    16
 74
     0
 42
0.0000000001
 43
0.0000000001
 12
1.0
 22
0.0
 32
0.0
 13
1.0
 23
0.0
 33
0.0
 40
0.0
 40
0.0
 40
0.0
 40
0.0
 40
0.2
 40
0.2
 40
0.2
 40
0.2
 40
0.4
 40
0.4
 40
0.4
 40
0.4
 40
0.6
 40
0.6
 40
0.6
 40
0.6
 40
1.0
 40
1.0
 40
1.0
 40
1.0
 10
62.4649
 20
6.8047
 30
0.0
 10
63.7133
 20
8.2857
 30
0.0
 10
63.8559
 20
8.6082
 30
0.0
 10
64.4592
 20
9.9993
 30
0.0
 10
64.4592
 20
9.9993
 30
0.0
 10
67.8958
 20
9.7565
 30
0.0
 10
72.6949
 20
8.8481
 30
0.0
 10
74.3975
 20
7.2077
 30
0.0
 10
74.3975
 20
7.2077
 30
0.0
 10
73.046
 20
4.0417
 30
0.0
 10
71.4845
 20
1.5727
 30
0.0
 10
69.4777
 20
-1.9539
 30
0.0
 10
69.4777
 20
-1.9539
 30
0.0
 10
70.4373
 20
3.7397
 30
0.0
 10
67.1191
 20
6.7433
 30
0.0
 10
62.4649
 20
6.8047
 30
0.0
  0
SPLINE
  5
56
330
1F
100
AcDbEntity
  8
layer 1
 62
     7
100
AcDbSpline
210
0.0
220
0.0
230
1.0
 70
    11
 71
     3
 72
    12
 73
     8
 74
     0
 42
0.0000000001
 43
0.0000000001
 12
1.0
 22
0.0
 32
0.0
 13
1.0
 23
0.0
 33
0.0
 40
0.0
 40
0.0
 40
0.0
 40
0.0
 40
0.3333333333333333
 40
0.3333333333333333
 40
0.3333333333333333
 40
0.3333333333333333
 40
1.0
 40
1.0
 40
1.0
 40
1.0
 10
60.7411
 20
10.2209
 30
0.0
 10
58.8761
 20
10.5639
 30
0.0
 10
55.509
 20
7.7723
 30
0.0
 10
54.4127
 20
6.3403
 30
0.0
 10
54.4127
 20
6.3403
 30
0.0
 10
56.9512
 20
6.0288
 30
0.0
 10
59.7845
 20
8.4561
 30
0.0
 10
60.7411
 20
10.2209
 30
0.0
  0
SPLINE
  5
57
330
1F
100
AcDbEntity
  8
layer 1
 62
     7
100
AcDbSpline
210
0.0
220
0.0
230
1.0
 70
    11
 71
     3
 72
    28
 73
    24
 74
     0
 42
0.0000000001
 43
0.0000000001
 12
1.0
 22
0.0
 32
0.0
 13
1.0
 23
0.0
 33
0.0
 40
0.0
 40
0.0
 40
0.0
 40
0.0
 40
0.1428571428571428
 40
0.1428571428571428
 40
0.1428571428571428
 40
0.1428571428571428
 40
0.2857142857142857
 40
0.2857142857142857
 40
0.2857142857142857
 40
0.2857142857142857
 40
0.4285714285714285
 40
0.4285714285714285
 40
0.4285714285714285
 40
0.4285714285714285
 40
0.5714285714285714
 40
0.5714285714285714
 40
0.5714285714285714
 40
0.5714285714285714
 40
0.7142857142857143
 40
0.7142857142857143
 40
0.7142857142857143
 40
0.7142857142857143
 40
1.0
 40
1.0
 40
1.0
 40
1.0
 10
62.5139
 20
12.7491
 30
0.0
 10
60.4398
 20
13.0124
 30
0.0
 10
58.0402
 20
12.5795
 30
0.0
 10
56.6185
 20
11.3384
 30
0.0
 10
56.6185
 20
11.3384
 30
0.0
 10
57.5963
 20
13.3737
 30
0.0
 10
56.6879
 20
16.1857
 30
0.0
 10
54.0485
 20
16.6816
 30
0.0
 10
54.0485
 20
16.6816
 30
0.0
 10
52.4264
 20
16.9939
 30
0.0
 10
50.0883
 20
16.0753
 30
0.0
 10
50.0678
 20
13.5777
 30
0.0
 10
50.0678
 20
13.5777
 30
0.0
 10
48.2336
 20
13.7686
 30
0.0
 10
46.5413
 20
19.6845
 30
0.0
 10
50.421
 20
22.6874
 30
0.0
 10
50.421
 20
22.6874
 30
0.0
 10
53.9483
 20
25.4175
 30
0.0
 10
57.929
 20
24.3907
 30
0.0
 10
61.0124
 20
21.488
 30
0.0
 10
61.0124
 20
21.488
 30
0.0
 10
63.7937
 20
18.2942
 30
0.0
 10
63.009
 20
13.98
 30
0.0
 10
62.5139
 20
12.7491
 30
0.0
  0
SPLINE
  5
58
330
1F
100
AcDbEntity
  8
layer 1
 62
     7
100
AcDbSpline
210
0.0
220
0.0
230
1.0
 70
    11
 71
     3
 72
    16
 73
    12
 74
     0
 42
0.0000000001
 43
0.0000000001
 12
1.0
 22
0.0
 32
0.0
 13
1.0
 23
0.0
 33
0.0
 40
0.0
 40
0.0
 40
0.0
 40
0.0
 40
0.25
 40
0.25
 40
0.25
 40
0.25
 40
0.5
 40
0.5
 40
0.5
 40
0.5
 40
1.0
 40
1.0
 40
1.0
 40
1.0
 10
47.2763
 20
-4.8361
 30
0.0
 10
48.2928
 20
-4.9085
 30
0.0
 10
50.0166
 20
-5.3415
 30
0.0
 10
50.2587
 20
-5.7729
 30
0.0
 10
50.2587
 20
-5.7729
 30
0.0
 10
49.6553
 20
-4.534
 30
0.0
 10
49.3635
 20
-3.6776
 30
0.0
 10
49.3116
 20
-1.8537
 30
0.0
 10
49.3116
 20
-1.8537
 30
0.0
 10
49.049
 20
-3.3039
 30
0.0
 10
48.3755
 20
-4.3819
 30
0.0
 10
47.2763
 20
-4.8361
 30
0.0
  0
SPLINE
  5
59
330
1F
100
AcDbEntity
  8
layer 1
 62
     7
100
AcDbSpline
210
0.0
220
0.0
230
1.0
 70
    11
 71
     3
 72
    16
 73
    12
 74
     0
 42
0.0000000001
 43
0.0000000001
 12
1.0
 22
0.0
 32
0.0
 13
1.0
 23
0.0
 33
0.0
 40
0.0
 40
0.0
 40
0.0
 40
0.0
 40
0.25
 40
0.25
 40
0.25
 40
0.25
 40
0.5
 40
0.5
 40
0.5
 40
0.5
 40
1.0
 40
1.0
 40
1.0
 40
1.0
 10
46.5617
 20
3.5283
 30
0.0
 10
47.9418
 20
2.6405
 30
0.0
 10
49.2012
 20
0.6154
 30
0.0
 10
49.433
 20
0.1714
 30
0.0
 10
49.433
 20
0.1714
 30
0.0
 10
49.392
 20
1.5237
 30
0.0
 10
49.4125
 20
2.2689
 30
0.0
 10
49.6758
 20
3.1751
 30
0.0
 10
49.6758
 20
3.1751
 30
0.0
 10
48.8472
 20
3.1158
 30
0.0
 10
48.1743
 20
3.0537
 30
0.0
 10
46.5617
 20
3.5283
 30
0.0
  0
SPLINE
  5
5A
330
1F
100
AcDbEntity
  8
layer 1
 62
     7
100
AcDbSpline
210
0.0
220
0.0
230
1.0
 70
    11
 71
     3
 72
    32
 73
    28
 74
     0
 42
0.0000000001
 43
0.0000000001
 12
1.0
 22
0.0
 32
0.0
 13
1.0
 23
0.0
 33
0.0
 40
0.0
 40
0.0
 40
0.0
 40
0.0
 40
0.125
 40
0.125
 40
0.125
 40
0.125
 40
0.25
 40
0.25
 40
0.25
 40
0.25
 40
0.375
 40
0.375
 40
0.375
 40
0.375
 40
0.5
 40
0.5
 40
0.5
 40
0.5
 40
0.625
 40
0.625
 40
0.625
 40
0.625
 40
0.75
 40
0.75
 40
0.75
 40
0.75
 40
1.0
 40
1.0
 40
1.0
 40
1.0
 10
35.9887
 20
-1.9129
 30
0.0
 10
37.4696
 20
1.4615
 30
0.0
 10
44.1212
 20
1.8952
 30
0.0
 10
42.8721
 20
-5.321
 30
0.0
 10
42.8721
 20
-5.321
 30
0.0
 10
43.7497
 20
-5.0474
 30
0.0
 10
44.3326
 20
-4.9085
 30
0.0
 10
45.1605
 20
-5.0789
 30
0.0
 10
45.1605
 20
-5.0789
 30
0.0
 10
42.3177
 20
-3.6082
 30
0.0
 10
44.5542
 20
0.0815
 30
0.0
 10
47.2068
 20
-1.1179
 30
0.0
 10
47.2068
 20
-1.1179
 30
0.0
 10
46.0352
 20
0.5664
 30
0.0
 10
44.6368
 20
0.1612
 30
0.0
 10
43.7285
 20
0.6571
 30
0.0
 10
43.7285
 20
0.6571
 30
0.0
 10
41.0174
 20
2.138
 30
0.0
 10
40.3233
 20
3.0047
 30
0.0
 10
40.2817
 20
4.9501
 30
0.0
 10
40.2817
 20
4.9501
 30
0.0
 10
40.0396
 20
6.3718
 30
0.0
 10
39.3141
 20
6.7638
 30
0.0
 10
38.427
 20
5.6748
 30
0.0
 10
38.427
 20
5.6748
 30
0.0
 10
36.7032
 20
2.2901
 30
0.0
 10
35.9367
 20
0.0815
 30
0.0
 10
35.9887
 20
-1.9129
 30
0.0
  0
SPLINE
  5
5B
330
1F
100
AcDbEntity
  8
layer 1
 62
     7
100
AcDbSpline
210
0.0
220
0.0
230
1.0
 70
    11
 71
     3
 72
    20
 73
    16
 74
     0
 42
0.0000000001
 43
0.0000000001
 12
1.0
 22
0.0
 32
0.0
 13
1.0
 23
0.0
 33
0.0
 40
0.0
 40
0.0
 40
0.0
 40
0.0
 40
0.2
 40
0.2
 40
0.2
 40
0.2
 40
0.4
 40
0.4
 40
0.4
 40
0.4
 40
0.6
 40
0.6
 40
0.6
 40
0.6
 40
1.0
 40
1.0
 40
1.0
 40
1.0
 10
49.1317
 20
30.1157
 30
0.0
 10
49.1105
 20
29.2871
 30
0.0
 10
49.7555
 20
28.604
 30
0.0
 10
50.571
 20
28.5725
 30
0.0
 10
50.571
 20
28.5725
 30
0.0
 10
51.3886
 20
28.5521
 30
0.0
 10
52.0827
 20
29.1971
 30
0.0
 10
52.1039
 20
30.0147
 30
0.0
 10
52.1039
 20
30.0147
 30
0.0
 10
52.1346
 20
30.8404
 30
0.0
 10
51.4895
 20
31.5264
 30
0.0
 10
50.6609
 20
31.555
 30
0.0
 10
50.6609
 20
31.555
 30
0.0
 10
49.8462
 20
31.5762
 30
0.0
 10
49.1595
 20
30.9311
 30
0.0
 10
49.1317
 20
30.1157
 30
0.0
  0
SPLINE
  5
5C
330
1F
100
AcDbEntity
  8
layer 1
 62
     7
100
AcDbSpline
210
0.0
220
0.0
230
1.0
 70
    11
 71
     3
 72
    16
 73
    12
 74
     0
 42
0.0000000001
 43
0.0000000001
 12
1.0
 22
0.0
 32
0.0
 13
1.0
 23
0.0
 33
0.0
 40
0.0
 40
0.0
 40
0.0
 40
0.0
 40
0.25
 40
0.25
 40
0.25
 40
0.25
 40
0.5
 40
0.5
 40
0.5
 40
0.5
 40
1.0
 40
1.0
 40
1.0
 40
1.0
 10
49.8667
 20
25.8922
 30
0.0
 10
48.8472
 20
25.9923
 30
0.0
 10
47.5191
 20
27.0301
 30
0.0
 10
47.2967
 20
27.4733
 30
0.0
 10
47.2967
 20
27.4733
 30
0.0
 10
47.356
 20
26.5862
 30
0.0
 10
47.0649
 20
24.3102
 30
0.0
 10
46.6517
 20
22.7466
 30
0.0
 10
46.6517
 20
22.7466
 30
0.0
 10
47.0854
 20
23.312
 30
0.0
 10
49.3226
 20
25.4482
 30
0.0
 10
49.8667
 20
25.8922
 30
0.0
  0
SPLINE
  5
5D
330
1F
100
AcDbEntity
  8
layer 1
 62
     7
100
AcDbSpline
210
0.0
220
0.0
230
1.0
 70
    11
 71
     3
 72
    16
 73
    12
 74
     0
 42
0.0000000001
 43
0.0000000001
 12
1.0
 22
0.0
 32
0.0
 13
1.0
 23
0.0
 33
0.0
 40
0.0
 40
0.0
 40
0.0
 40
0.0
 40
0.25
 40
0.25
 40
0.25
 40
0.25
 40
0.5
 40
0.5
 40
0.5
 40
0.5
 40
1.0
 40
1.0
 40
1.0
 40
1.0
 10
54.815
 20
29.8319
 30
0.0
 10
54.8954
 20
28.5828
 30
0.0
 10
54.0383
 20
27.3241
 30
0.0
 10
53.3932
 20
26.8392
 30
0.0
 10
53.3932
 20
26.8392
 30
0.0
 10
54.7535
 20
26.8283
 30
0.0
 10
55.803
 20
26.7076
 30
0.0
 10
57.4156
 20
26.7076
 30
0.0
 10
57.4156
 20
26.7076
 30
0.0
 10
56.5592
 20
27.6752
 30
0.0
 10
55.3876
 20
29.1174
 30
0.0
 10
54.815
 20
29.8319
 30
0.0
  0
SPLINE
  5
5E
330
1F
100
AcDbEntity
  8
layer 1
 62
     7
100
AcDbSpline
210
0.0
220
0.0
230
1.0
 70
    11
 71
     3
 72
    20
 73
    16
 74
     0
 42
0.0000000001
 43
0.0000000001
 12
1.0
 22
0.0
 32
0.0
 13
1.0
 23
0.0
 33
0.0
 40
0.0
 40
0.0
 40
0.0
 40
0.0
 40
0.2
 40
0.2
 40
0.2
 40
0.2
 40
0.4
 40
0.4
 40
0.4
 40
0.4
 40
0.6
 40
0.6
 40
0.6
 40
0.6
 40
1.0
 40
1.0
 40
1.0
 40
1.0
 10
52.305
 20
33.9545
 30
0.0
 10
49.9566
 20
34.8628
 30
0.0
 10
48.0734
 20
33.9033
 30
0.0
 10
47.6478
 20
33.0981
 30
0.0
 10
47.6478
 20
33.0981
 30
0.0
 10
47.2763
 20
35.8692
 30
0.0
 10
46.6729
 20
38.3484
 30
0.0
 10
45.7053
 20
40.3245
 30
0.0
 10
45.7053
 20
40.3245
 30
0.0
 10
46.4198
 20
41.1707
 30
0.0
 10
46.9844
 20
41.8962
 30
0.0
 10
47.4569
 20
42.3884
 30
0.0
 10
47.4569
 20
42.3884
 30
0.0
 10
47.8518
 20
41.7953
 30
0.0
 10
51.7916
 20
34.4292
 30
0.0
 10
52.305
 20
33.9545
 30
0.0
  0
SPLINE
  5
5F
330
1F
100
AcDbEntity
  8
layer 1
 62
     7
100
AcDbSpline
210
0.0
220
0.0
230
1.0
 70
    11
 71
     3
 72
    16
 73
    12
 74
     0
 42
0.0000000001
 43
0.0000000001
 12
1.0
 22
0.0
 32
0.0
 13
1.0
 23
0.0
 33
0.0
 40
0.0
 40
0.0
 40
0.0
 40
0.0
 40
0.25
 40
0.25
 40
0.25
 40
0.25
 40
0.5
 40
0.5
 40
0.5
 40
0.5
 40
1.0
 40
1.0
 40
1.0
 40
1.0
 10
86.0566
 20
21.447
 30
0.0
 10
85.5125
 20
29.0165
 30
0.0
 10
85.2514
 20
31.6376
 30
0.0
 10
86.562
 20
36.2531
 30
0.0
 10
86.562
 20
36.2531
 30
0.0
 10
88.1029
 20
42.0483
 30
0.0
 10
93.3635
 20
43.0956
 30
0.0
 10
92.891
 20
35.2548
 30
0.0
 10
92.891
 20
35.2548
 30
0.0
 10
92.1041
 20
28.5213
 30
0.0
 10
87.4784
 20
24.1786
 30
0.0
 10
86.0566
 20
21.447
 30
0.0
  0
SPLINE
  5
60
330
1F
100
AcDbEntity
  8
layer 1
 62
     7
100
AcDbSpline
210
0.0
220
0.0
230
1.0
 70
    11
 71
     3
 72
    24
 73
    20
 74
     0
 42
0.0000000001
 43
0.0000000001
 12
1.0
 22
0.0
 32
0.0
 13
1.0
 23
0.0
 33
0.0
 40
0.0
 40
0.0
 40
0.0
 40
0.0
 40
0.1666666666666667
 40
0.1666666666666667
 40
0.1666666666666667
 40
0.1666666666666667
 40
0.3333333333333333
 40
0.3333333333333333
 40
0.3333333333333333
 40
0.3333333333333333
 40
0.5
 40
0.5
 40
0.5
 40
0.5
 40
0.6666666666666666
 40
0.6666666666666666
 40
0.6666666666666666
 40
0.6666666666666666
 40
1.0
 40
1.0
 40
1.0
 40
1.0
 10
83.7682
 20
18.676
 30
0.0
 10
82.6822
 20
17.3157
 30
0.0
 10
82.4291
 20
16.8308
 30
0.0
 10
81.3197
 20
15.5926
 30
0.0
 10
81.3197
 20
15.5926
 30
0.0
 10
82.3282
 20
19.8344
 30
0.0
 10
80.3316
 20
23.0904
 30
0.0
 10
77.4809
 20
23.0384
 30
0.0
 10
77.4809
 20
23.0384
 30
0.0
 10
81.6839
 20
25.9821
 30
0.0
 10
83.7887
 20
32.6959
 30
0.0
 10
81.6525
 20
37.3604
 30
0.0
 10
81.6525
 20
37.3604
 30
0.0
 10
82.5505
 20
37.492
 30
0.0
 10
83.1751
 20
37.7239
 30
0.0
 10
83.9408
 20
38.0464
 30
0.0
 10
83.9408
 20
38.0464
 30
0.0
 10
82.3077
 20
33.0776
 30
0.0
 10
82.571
 20
25.5104
 30
0.0
 10
83.7682
 20
18.676
 30
0.0
  0
SPLINE
  5
61
330
1F
100
AcDbEntity
  8
layer 1
 62
     7
100
AcDbSpline
210
0.0
220
0.0
230
1.0
 70
    11
 71
     3
 72
    16
 73
    12
 74
     0
 42
0.0000000001
 43
0.0000000001
 12
1.0
 22
0.0
 32
0.0
 13
1.0
 23
0.0
 33
0.0
 40
0.0
 40
0.0
 40
0.0
 40
0.0
 40
0.25
 40
0.25
 40
0.25
 40
0.25
 40
0.5
 40
0.5
 40
0.5
 40
0.5
 40
1.0
 40
1.0
 40
1.0
 40
1.0
 10
68.0275
 20
20.9643
 30
0.0
 10
67.0087
 20
21.0338
 30
0.0
 10
65.2849
 20
21.4675
 30
0.0
 10
65.045
 20
21.9005
 30
0.0
 10
65.045
 20
21.9005
 30
0.0
 10
65.6484
 20
20.6623
 30
0.0
 10
65.9402
 20
19.8059
 30
0.0
 10
65.9921
 20
17.9819
 30
0.0
 10
65.9921
 20
17.9819
 30
0.0
 10
66.2525
 20
19.4314
 30
0.0
 10
66.9283
 20
20.5102
 30
0.0
 10
68.0275
 20
20.9643
 30
0.0
  0
SPLINE
  5
62
330
1F
100
AcDbEntity
  8
layer 1
 62
     7
100
AcDbSpline
210
0.0
220
0.0
230
1.0
 70
    11
 71
     3
 72
    16
 73
    12
 74
     0
 42
0.0000000001
 43
0.0000000001
 12
1.0
 22
0.0
 32
0.0
 13
1.0
 23
0.0
 33
0.0
 40
0.0
 40
0.0
 40
0.0
 40
0.0
 40
0.25
 40
0.25
 40
0.25
 40
0.25
 40
0.5
 40
0.5
 40
0.5
 40
0.5
 40
1.0
 40
1.0
 40
1.0
 40
1.0
 10
68.742
 20
12.6102
 30
0.0
 10
67.3619
 20
13.4849
 30
0.0
 10
66.1026
 20
15.5129
 30
0.0
 10
65.8707
 20
15.9539
 30
0.0
 10
65.8707
 20
15.9539
 30
0.0
 10
65.9117
 20
14.6148
 30
0.0
 10
65.8912
 20
13.8586
 30
0.0
 10
65.6279
 20
12.9502
 30
0.0
 10
65.6279
 20
12.9502
 30
0.0
 10
66.4565
 20
13.0124
 30
0.0
 10
67.1294
 20
13.0717
 30
0.0
 10
68.742
 20
12.6102
 30
0.0
  0
SPLINE
  5
63
330
1F
100
AcDbEntity
  8
layer 1
 62
     7
100
AcDbSpline
210
0.0
220
0.0
230
1.0
 70
    11
 71
     3
 72
    32
 73
    28
 74
     0
 42
0.0000000001
 43
0.0000000001
 12
1.0
 22
0.0
 32
0.0
 13
1.0
 23
0.0
 33
0.0
 40
0.0
 40
0.0
 40
0.0
 40
0.0
 40
0.125
 40
0.125
 40
0.125
 40
0.125
 40
0.25
 40
0.25
 40
0.25
 40
0.25
 40
0.375
 40
0.375
 40
0.375
 40
0.375
 40
0.5
 40
0.5
 40
0.5
 40
0.5
 40
0.625
 40
0.625
 40
0.625
 40
0.625
 40
0.75
 40
0.75
 40
0.75
 40
0.75
 40
1.0
 40
1.0
 40
1.0
 40
1.0
 10
79.3151
 20
18.0411
 30
0.0
 10
77.8341
 20
14.6638
 30
0.0
 10
71.1825
 20
14.2301
 30
0.0
 10
72.4316
 20
21.4463
 30
0.0
 10
72.4316
 20
21.4463
 30
0.0
 10
71.554
 20
21.1757
 30
0.0
 10
70.9711
 20
21.0338
 30
0.0
 10
70.1433
 20
21.2145
 30
0.0
 10
70.1433
 20
21.2145
 30
0.0
 10
72.986
 20
19.7335
 30
0.0
 10
70.7495
 20
16.0468
 30
0.0
 10
68.097
 20
17.244
 30
0.0
 10
68.097
 20
17.244
 30
0.0
 10
69.2656
 20
15.5619
 30
0.0
 10
70.6669
 20
15.9744
 30
0.0
 10
71.5752
 20
15.4712
 30
0.0
 10
71.5752
 20
15.4712
 30
0.0
 10
74.2863
 20
13.9902
 30
0.0
 10
74.9804
 20
13.1338
 30
0.0
 10
75.0221
 20
11.1782
 30
0.0
 10
75.0221
 20
11.1782
 30
0.0
 10
75.2641
 20
9.7565
 30
0.0
 10
75.9896
 20
9.3645
 30
0.0
 10
76.8768
 20
10.4534
 30
0.0
 10
76.8768
 20
10.4534
 30
0.0
 10
78.6005
 20
13.8381
 30
0.0
 10
79.3641
 20
16.0468
 30
0.0
 10
79.3151
 20
18.0411
 30
0.0
  0
SPLINE
  5
64
330
1F
100
AcDbEntity
  8
layer 1
 62
     7
100
AcDbSpline
210
0.0
220
0.0
230
1.0
 70
    11
 71
     3
 72
    16
 73
    12
 74
     0
 42
0.0000000001
 43
0.0000000001
 12
1.0
 22
0.0
 32
0.0
 13
1.0
 23
0.0
 33
0.0
 40
0.0
 40
0.0
 40
0.0
 40
0.0
 40
0.25
 40
0.25
 40
0.25
 40
0.25
 40
0.5
 40
0.5
 40
0.5
 40
0.5
 40
1.0
 40
1.0
 40
1.0
 40
1.0
 10
93.4535
 20
-5.4219
 30
0.0
 10
93.5156
 20
-2.5294
 30
0.0
 10
93.5156
 20
0.9693
 30
0.0
 10
93.5851
 20
2.0759
 30
0.0
 10
93.5851
 20
2.0759
 30
0.0
 10
92.3162
 20
1.3123
 30
0.0
 10
90.7935
 20
0.2621
 30
0.0
 10
87.912
 20
1.1288
 30
0.0
 10
87.912
 20
1.1288
 30
0.0
 10
90.5405
 20
-0.8554
 30
0.0
 10
92.7492
 20
-3.6184
 30
0.0
 10
93.4535
 20
-5.4219
 30
0.0
  0
SPLINE
  5
65
330
1F
100
AcDbEntity
  8
layer 1
 62
     7
100
AcDbSpline
210
0.0
220
0.0
230
1.0
 70
    11
 71
     3
 72
    16
 73
    12
 74
     0
 42
0.0000000001
 43
0.0000000001
 12
1.0
 22
0.0
 32
0.0
 13
1.0
 23
0.0
 33
0.0
 40
0.0
 40
0.0
 40
0.0
 40
0.0
 40
0.25
 40
0.25
 40
0.25
 40
0.25
 40
0.5
 40
0.5
 40
0.5
 40
0.5
 40
1.0
 40
1.0
 40
1.0
 40
1.0
 10
93.4739
 20
21.3461
 30
0.0
 10
93.5156
 20
24.2488
 30
0.0
 10
93.5156
 20
26.2147
 30
0.0
 10
93.4637
 20
27.8375
 30
0.0
 10
93.4637
 20
27.8375
 30
0.0
 10
91.8825
 20
24.6328
 30
0.0
 10
90.915
 20
23.1598
 30
0.0
 10
88.598
 20
20.9227
 30
0.0
 10
88.598
 20
20.9227
 30
0.0
 10
90.2392
 20
21.8515
 30
0.0
 10
92.295
 20
22.1923
 30
0.0
 10
93.4739
 20
21.3461
 30
0.0
  0
SPLINE
  5
66
330
1F
100
AcDbEntity
  8
layer 1
 62
     7
100
AcDbSpline
210
0.0
220
0.0
230
1.0
 70
    11
 71
     3
 72
    32
 73
    28
 74
     0
 42
0.0000000001
 43
0.0000000001
 12
1.0
 22
0.0
 32
0.0
 13
1.0
 23
0.0
 33
0.0
 40
0.0
 40
0.0
 40
0.0
 40
0.0
 40
0.125
 40
0.125
 40
0.125
 40
0.125
 40
0.25
 40
0.25
 40
0.25
 40
0.25
 40
0.375
 40
0.375
 40
0.375
 40
0.375
 40
0.5
 40
0.5
 40
0.5
 40
0.5
 40
0.625
 40
0.625
 40
0.625
 40
0.625
 40
0.75
 40
0.75
 40
0.75
 40
0.75
 40
1.0
 40
1.0
 40
1.0
 40
1.0
 10
93.4739
 20
10.9976
 30
0.0
 10
93.5156
 20
13.8381
 30
0.0
 10
93.5156
 20
15.118
 30
0.0
 10
93.5054
 20
16.5887
 30
0.0
 10
93.5054
 20
16.5887
 30
0.0
 10
92.3857
 20
16.4592
 30
0.0
 10
91.4693
 20
17.195
 30
0.0
 10
91.601
 20
18.8178
 30
0.0
 10
91.601
 20
18.8178
 30
0.0
 10
91.6192
 20
19.1689
 30
0.0
 10
90.6334
 20
19.2508
 30
0.0
 10
90.6721
 20
18.8873
 30
0.0
 10
90.6721
 20
18.8873
 30
0.0
 10
91.1161
 20
14.4342
 30
0.0
 10
89.2716
 20
11.4802
 30
0.0
 10
87.2458
 20
11.8028
 30
0.0
 10
87.2458
 20
11.8028
 30
0.0
 10
87.2772
 20
8.5571
 30
0.0
 10
86.7814
 20
6.1677
 30
0.0
 10
86.0076
 20
3.3864
 30
0.0
 10
86.0076
 20
3.3864
 30
0.0
 10
88.9001
 20
2.1278
 30
0.0
 10
92.4369
 20
4.2531
 30
0.0
 10
92.1736
 20
5.5227
 30
0.0
 10
92.1736
 20
5.5227
 30
0.0
 10
87.9918
 20
6.5912
 30
0.0
 10
90.863
 20
12.3674
 30
0.0
 10
93.4739
 20
10.9976
 30
0.0
  0
SPLINE
  5
67
330
1F
100
AcDbEntity
  8
layer 1
 62
     7
100
AcDbSpline
210
0.0
220
0.0
230
1.0
 70
    11
 71
     3
 72
    40
 73
    36
 74
     0
 42
0.0000000001
 43
0.0000000001
 12
1.0
 22
0.0
 32
0.0
 13
1.0
 23
0.0
 33
0.0
 40
0.0
 40
0.0
 40
0.0
 40
0.0
 40
0.1
 40
0.1
 40
0.1
 40
0.1
 40
0.2
 40
0.2
 40
0.2
 40
0.2
 40
0.3
 40
0.3
 40
0.3
 40
0.3
 40
0.4
 40
0.4
 40
0.4
 40
0.4
 40
0.5
 40
0.5
 40
0.5
 40
0.5
 40
0.6
 40
0.6
 40
0.6
 40
0.6
 40
0.7
 40
0.7
 40
0.7
 40
0.7
 40
0.8
 40
0.8
 40
0.8
 40
0.8
 40
1.0
 40
1.0
 40
1.0
 40
1.0
 10
83.7785
 20
-18.1905
 30
0.0
 10
83.3865
 20
-20.0144
 30
0.0
 10
82.9038
 20
-21.374
 30
0.0
 10
81.8331
 20
-23.6726
 30
0.0
 10
81.8331
 20
-23.6726
 30
0.0
 10
83.5284
 20
-23.1878
 30
0.0
 10
88.4766
 20
-21.3148
 30
0.0
 10
91.4284
 20
-18.8867
 30
0.0
 10
91.4284
 20
-18.8867
 30
0.0
 10
91.8021
 20
-18.5825
 30
0.0
 10
91.8408
 20
-18.0895
 30
0.0
 10
91.4386
 20
-18.159
 30
0.0
 10
91.4386
 20
-18.159
 30
0.0
 10
88.5776
 20
-19.8726
 30
0.0
 10
86.3791
 20
-17.6456
 30
0.0
 10
86.4099
 20
-15.0347
 30
0.0
 10
86.4099
 20
-15.0347
 30
0.0
 10
86.4413
 20
-12.5452
 30
0.0
 10
89.039
 20
-9.9753
 30
0.0
 10
92.6278
 20
-11.8716
 30
0.0
 10
92.6278
 20
-11.8716
 30
0.0
 10
92.9605
 20
-7.0031
 30
0.0
 10
85.2799
 20
-0.7442
 30
0.0
 10
85.3421
 20
0.2029
 30
0.0
 10
85.3421
 20
0.2029
 30
0.0
 10
83.3558
 20
-7.0835
 30
0.0
 10
79.4855
 20
-15.5306
 30
0.0
 10
72.8236
 20
-24.6505
 30
0.0
 10
72.8236
 20
-24.6505
 30
0.0
 10
73.3473
 20
-25.0425
 30
0.0
 10
74.1137
 20
-25.6385
 30
0.0
 10
74.7383
 20
-26.3742
 30
0.0
 10
74.7383
 20
-26.3742
 30
0.0
 10
75.6671
 20
-18.0998
 30
0.0
 10
82.3392
 20
-17.9791
 30
0.0
 10
83.7785
 20
-18.1905
 30
0.0
  0
SPLINE
  5
68
330
1F
100
AcDbEntity
  8
layer 1
 62
     7
100
AcDbSpline
210
0.0
220
0.0
230
1.0
 70
    11
 71
     3
 72
    16
 73
    12
 74
     0
 42
0.0000000001
 43
0.0000000001
 12
1.0
 22
0.0
 32
0.0
 13
1.0
 23
0.0
 33
0.0
 40
0.0
 40
0.0
 40
0.0
 40
0.0
 40
0.25
 40
0.25
 40
0.25
 40
0.25
 40
0.5
 40
0.5
 40
0.5
 40
0.5
 40
1.0
 40
1.0
 40
1.0
 40
1.0
 10
89.7565
 20
-26.454
 30
0.0
 10
90.8455
 20
-24.7616
 30
0.0
 10
91.3589
 20
-23.2806
 30
0.0
 10
91.6704
 20
-21.4669
 30
0.0
 10
91.6704
 20
-21.4669
 30
0.0
 10
88.737
 20
-23.4715
 30
0.0
 10
87.0549
 20
-24.1063
 30
0.0
 10
82.7414
 20
-25.1149
 30
0.0
 10
82.7414
 20
-25.1149
 30
0.0
 10
86.57
 20
-26.2733
 30
0.0
 10
87.8214
 20
-26.405
 30
0.0
 10
89.7565
 20
-26.454
 30
0.0
  0
SPLINE
  5
69
330
1F
100
AcDbEntity
  8
layer 1
 62
     7
100
AcDbSpline
210
0.0
220
0.0
230
1.0
 70
    11
 71
     3
 72
    40
 73
    36
 74
     0
 42
0.0000000001
 43
0.0000000001
 12
1.0
 22
0.0
 32
0.0
 13
1.0
 23
0.0
 33
0.0
 40
0.0
 40
0.0
 40
0.0
 40
0.0
 40
0.1
 40
0.1
 40
0.1
 40
0.1
 40
0.2
 40
0.2
 40
0.2
 40
0.2
 40
0.3
 40
0.3
 40
0.3
 40
0.3
 40
0.4
 40
0.4
 40
0.4
 40
0.4
 40
0.5
 40
0.5
 40
0.5
 40
0.5
 40
0.6
 40
0.6
 40
0.6
 40
0.6
 40
0.7
 40
0.7
 40
0.7
 40
0.7
 40
0.8
 40
0.8
 40
0.8
 40
0.8
 40
1.0
 40
1.0
 40
1.0
 40
1.0
 10
31.5333
 20
34.1066
 30
0.0
 10
31.9377
 20
35.9306
 30
0.0
 10
32.4102
 20
37.2909
 30
0.0
 10
33.4889
 20
39.5895
 30
0.0
 10
33.4889
 20
39.5895
 30
0.0
 10
31.7856
 20
39.1149
 30
0.0
 10
26.8373
 20
37.239
 30
0.0
 10
23.8856
 20
34.8007
 30
0.0
 10
23.8856
 20
34.8007
 30
0.0
 10
23.5221
 20
34.4986
 30
0.0
 10
23.4804
 20
34.0138
 30
0.0
 10
23.8754
 20
34.0759
 30
0.0
 10
23.8754
 20
34.0759
 30
0.0
 10
26.7364
 20
35.7887
 30
0.0
 10
28.9429
 20
33.5625
 30
0.0
 10
28.9143
 20
30.9618
 30
0.0
 10
28.9143
 20
30.9618
 30
0.0
 10
28.8836
 20
28.4614
 30
0.0
 10
26.272
 20
25.9024
 30
0.0
 10
22.6862
 20
27.7856
 30
0.0
 10
22.6862
 20
27.7856
 30
0.0
 10
22.3534
 20
22.92
 30
0.0
 10
30.0414
 20
16.6604
 30
0.0
 10
29.9719
 20
15.714
 30
0.0
 10
29.9719
 20
15.714
 30
0.0
 10
31.956
 20
23.0099
 30
0.0
 10
35.8263
 20
31.4445
 30
0.0
 10
42.4874
 20
40.5644
 30
0.0
 10
42.4874
 20
40.5644
 30
0.0
 10
41.9638
 20
40.9593
 30
0.0
 10
41.2083
 20
41.5525
 30
0.0
 10
40.5735
 20
42.2882
 30
0.0
 10
40.5735
 20
42.2882
 30
0.0
 10
39.6571
 20
34.0138
 30
0.0
 10
32.9755
 20
33.8953
 30
0.0
 10
31.5333
 20
34.1066
 30
0.0
  0
SPLINE
  5
6A
330
1F
100
AcDbEntity
  8
layer 1
 62
     7
100
AcDbSpline
210
0.0
220
0.0
230
1.0
 70
    11
 71
     3
 72
    16
 73
    12
 74
     0
 42
0.0000000001
 43
0.0000000001
 12
1.0
 22
0.0
 32
0.0
 13
1.0
 23
0.0
 33
0.0
 40
0.0
 40
0.0
 40
0.0
 40
0.0
 40
0.25
 40
0.25
 40
0.25
 40
0.25
 40
0.5
 40
0.5
 40
0.5
 40
0.5
 40
1.0
 40
1.0
 40
1.0
 40
1.0
 10
26.1023
 20
42.8221
 30
0.0
 10
25.2452
 20
41.1297
 30
0.0
 10
23.7744
 20
39.1149
 30
0.0
 10
22.9568
 20
37.2002
 30
0.0
 10
22.9568
 20
37.2002
 30
0.0
 10
25.9005
 20
39.2048
 30
0.0
 10
28.0784
 20
40.345
 30
0.0
 10
32.3999
 20
41.3513
 30
0.0
 10
32.3999
 20
41.3513
 30
0.0
 10
29.3371
 20
41.2819
 30
0.0
 10
27.6835
 20
41.7748
 30
0.0
 10
26.1023
 20
42.8221
 30
0.0
  0
SPLINE
  5
6B
330
1F
100
AcDbEntity
  8
layer 1
 62
     7
100
AcDbSpline
210
0.0
220
0.0
230
1.0
 70
    11
 71
     3
 72
    16
 73
    12
 74
     0
 42
0.0000000001
 43
0.0000000001
 12
1.0
 22
0.0
 32
0.0
 13
1.0
 23
0.0
 33
0.0
 40
0.0
 40
0.0
 40
0.0
 40
0.0
 40
0.25
 40
0.25
 40
0.25
 40
0.25
 40
0.5
 40
0.5
 40
0.5
 40
0.5
 40
1.0
 40
1.0
 40
1.0
 40
1.0
 10
21.0633
 20
47.3681
 30
0.0
 10
21.0217
 20
45.7248
 30
0.0
 10
21.0217
 20
42.9252
 30
0.0
 10
21.0531
 20
40.748
 30
0.0
 10
21.0531
 20
40.748
 30
0.0
 10
22.2628
 20
42.4301
 30
0.0
 10
22.676
 20
43.1651
 30
0.0
 10
23.8937
 20
44.5766
 30
0.0
 10
23.8937
 20
44.5766
 30
0.0
 10
22.6548
 20
45.5544
 30
0.0
 10
21.7289
 20
46.5015
 30
0.0
 10
21.0633
 20
47.3681
 30
0.0
  0
SPLINE
  5
6C
330
1F
100
AcDbEntity
  8
layer 1
 62
     7
100
AcDbSpline
210
0.0
220
0.0
230
1.0
 70
    11
 71
     3
 72
    24
 73
    20
 74
     0
 42
0.0000000001
 43
0.0000000001
 12
1.0
 22
0.0
 32
0.0
 13
1.0
 23
0.0
 33
0.0
 40
0.0
 40
0.0
 40
0.0
 40
0.0
 40
0.1666666666666667
 40
0.1666666666666667
 40
0.1666666666666667
 40
0.1666666666666667
 40
0.3333333333333333
 40
0.3333333333333333
 40
0.3333333333333333
 40
0.3333333333333333
 40
0.5
 40
0.5
 40
0.5
 40
0.5
 40
0.6666666666666666
 40
0.6666666666666666
 40
0.6666666666666666
 40
0.6666666666666666
 40
1.0
 40
1.0
 40
1.0
 40
1.0
 10
22.7864
 20
50.1911
 30
0.0
 10
23.8856
 20
48.4081
 30
0.0
 10
24.6111
 20
47.5203
 30
0.0
 10
25.9107
 20
46.1504
 30
0.0
 10
25.9107
 20
46.1504
 30
0.0
 10
27.312
 20
47.7426
 30
0.0
 10
29.1462
 20
48.2245
 30
0.0
 10
30.8985
 20
48.7482
 30
0.0
 10
30.8985
 20
48.7482
 30
0.0
 10
30.8985
 20
48.7482
 30
0.0
 10
31.0301
 20
51.3489
 30
0.0
 10
31.0301
 20
51.3489
 30
0.0
 10
31.0301
 20
51.3489
 30
0.0
 10
29.0848
 20
51.4915
 30
0.0
 10
27.0589
 20
52.8196
 30
0.0
 10
26.0811
 20
53.4361
 30
0.0
 10
26.0811
 20
53.4361
 30
0.0
 10
24.3193
 20
52.0561
 30
0.0
 10
23.7437
 20
51.3489
 30
0.0
 10
22.7864
 20
50.1911
 30
0.0
  0
SPLINE
  5
6D
330
1F
100
AcDbEntity
  8
layer 1
 62
     7
100
AcDbSpline
210
0.0
220
0.0
230
1.0
 70
    11
 71
     3
 72
    24
 73
    20
 74
     0
 42
0.0000000001
 43
0.0000000001
 12
1.0
 22
0.0
 32
0.0
 13
1.0
 23
0.0
 33
0.0
 40
0.0
 40
0.0
 40
0.0
 40
0.0
 40
0.1666666666666667
 40
0.1666666666666667
 40
0.1666666666666667
 40
0.1666666666666667
 40
0.3333333333333333
 40
0.3333333333333333
 40
0.3333333333333333
 40
0.3333333333333333
 40
0.5
 40
0.5
 40
0.5
 40
0.5
 40
0.6666666666666666
 40
0.6666666666666666
 40
0.6666666666666666
 40
0.6666666666666666
 40
1.0
 40
1.0
 40
1.0
 40
1.0
 10
42.2965
 20
49.9893
 30
0.0
 10
41.2807
 20
48.2867
 30
0.0
 10
40.6459
 20
47.6314
 30
0.0
 10
39.162
 20
46.5015
 30
0.0
 10
39.162
 20
46.5015
 30
0.0
 10
37.8646
 20
48.0234
 30
0.0
 10
36.1591
 20
48.4776
 30
0.0
 10
34.5282
 20
48.9808
 30
0.0
 10
34.5282
 20
48.9808
 30
0.0
 10
34.5282
 20
48.9808
 30
0.0
 10
34.3965
 20
51.46
 30
0.0
 10
34.3965
 20
51.46
 30
0.0
 10
34.3965
 20
51.46
 30
0.0
 10
36.2103
 20
51.5917
 30
0.0
 10
38.4577
 20
52.3581
 30
0.0
 10
39.3733
 20
53.3462
 30
0.0
 10
39.3733
 20
53.3462
 30
0.0
 10
40.7153
 20
52.0458
 30
0.0
 10
41.3706
 20
51.2282
 30
0.0
 10
42.2965
 20
49.9893
 30
0.0
  0
SPLINE
  5
6E
330
1F
100
AcDbEntity
  8
layer 1
 62
     7
100
AcDbSpline
210
0.0
220
0.0
230
1.0
 70
    11
 71
     3
 72
    20
 73
    16
 74
     0
 42
0.0000000001
 43
0.0000000001
 12
1.0
 22
0.0
 32
0.0
 13
1.0
 23
0.0
 33
0.0
 40
0.0
 40
0.0
 40
0.0
 40
0.0
 40
0.2
 40
0.2
 40
0.2
 40
0.2
 40
0.4
 40
0.4
 40
0.4
 40
0.4
 40
0.6
 40
0.6
 40
0.6
 40
0.6
 40
1.0
 40
1.0
 40
1.0
 40
1.0
 10
41.835
 20
45.1909
 30
0.0
 10
42.6914
 20
44.4969
 30
0.0
 10
43.2641
 20
43.7509
 30
0.0
 10
43.9091
 20
42.8323
 30
0.0
 10
43.9091
 20
42.8323
 30
0.0
 10
44.6756
 20
43.9111
 30
0.0
 10
45.1992
 20
44.3652
 30
0.0
 10
45.9452
 20
45.1419
 30
0.0
 10
45.9452
 20
45.1419
 30
0.0
 10
45.3309
 20
45.9362
 30
0.0
 10
44.5959
 20
46.7026
 30
0.0
 10
44.0825
 20
47.4895
 30
0.0
 10
44.0825
 20
47.4895
 30
0.0
 10
43.5171
 20
46.7333
 30
0.0
 10
42.8618
 20
46.0883
 30
0.0
 10
41.835
 20
45.1909
 30
0.0
  0
SPLINE
  5
6F
330
1F
100
AcDbEntity
  8
layer 1
 62
     7
100
AcDbSpline
210
0.0
220
0.0
230
1.0
 70
    11
 71
     3
 72
    20
 73
    16
 74
     0
 42
0.0000000001
 43
0.0000000001
 12
1.0
 22
0.0
 32
0.0
 13
1.0
 23
0.0
 33
0.0
 40
0.0
 40
0.0
 40
0.0
 40
0.0
 40
0.2
 40
0.2
 40
0.2
 40
0.2
 40
0.4
 40
0.4
 40
0.4
 40
0.4
 40
0.6
 40
0.6
 40
0.6
 40
0.6
 40
1.0
 40
1.0
 40
1.0
 40
1.0
 10
46.0176
 20
50.0105
 30
0.0
 10
46.874
 20
49.3135
 30
0.0
 10
47.4467
 20
48.5675
 30
0.0
 10
48.0917
 20
47.6519
 30
0.0
 10
48.0917
 20
47.6519
 30
0.0
 10
48.8582
 20
48.7306
 30
0.0
 10
49.3818
 20
49.1819
 30
0.0
 10
50.127
 20
49.9586
 30
0.0
 10
50.127
 20
49.9586
 30
0.0
 10
49.5134
 20
50.7557
 30
0.0
 10
48.7777
 20
51.5222
 30
0.0
 10
48.2541
 20
52.3062
 30
0.0
 10
48.2541
 20
52.3062
 30
0.0
 10
47.6997
 20
51.5507
 30
0.0
 10
47.0444
 20
50.9057
 30
0.0
 10
46.0176
 20
50.0105
 30
0.0
  0
SPLINE
  5
70
330
1F
100
AcDbEntity
  8
layer 1
 62
     7
100
AcDbSpline
210
0.0
220
0.0
230
1.0
 70
    11
 71
     3
 72
    16
 73
    12
 74
     0
 42
0.0000000001
 43
0.0000000001
 12
1.0
 22
0.0
 32
0.0
 13
1.0
 23
0.0
 33
0.0
 40
0.0
 40
0.0
 40
0.0
 40
0.0
 40
0.25
 40
0.25
 40
0.25
 40
0.25
 40
0.5
 40
0.5
 40
0.5
 40
0.5
 40
1.0
 40
1.0
 40
1.0
 40
1.0
 10
90.0995
 20
45.8769
 30
0.0
 10
88.0225
 20
45.4432
 30
0.0
 10
85.1615
 20
45.735
 30
0.0
 10
83.4274
 20
46.8445
 30
0.0
 10
83.4274
 20
46.8445
 30
0.0
 10
84.0315
 20
45.6063
 30
0.0
 10
84.847
 20
43.2273
 30
0.0
 10
84.1939
 20
41.0083
 30
0.0
 10
84.1939
 20
41.0083
 30
0.0
 10
86.3587
 20
41.7053
 30
0.0
 10
89.4647
 20
44.5071
 30
0.0
 10
90.0995
 20
45.8769
 30
0.0
  0
SPLINE
  5
71
330
1F
100
AcDbEntity
  8
layer 1
 62
     7
100
AcDbSpline
210
0.0
220
0.0
230
1.0
 70
    11
 71
     3
 72
    20
 73
    16
 74
     0
 42
0.0000000001
 43
0.0000000001
 12
1.0
 22
0.0
 32
0.0
 13
1.0
 23
0.0
 33
0.0
 40
0.0
 40
0.0
 40
0.0
 40
0.0
 40
0.2
 40
0.2
 40
0.2
 40
0.2
 40
0.4
 40
0.4
 40
0.4
 40
0.4
 40
0.6
 40
0.6
 40
0.6
 40
0.6
 40
1.0
 40
1.0
 40
1.0
 40
1.0
 10
81.8331
 20
42.8842
 30
0.0
 10
81.9647
 20
44.6775
 30
0.0
 10
80.8582
 20
47.2782
 30
0.0
 10
76.4928
 20
47.9825
 30
0.0
 10
76.4928
 20
47.9825
 30
0.0
 10
78.2363
 20
47.0661
 30
0.0
 10
77.7332
 20
44.1846
 30
0.0
 10
76.2602
 20
43.4488
 30
0.0
 10
76.2602
 20
43.4488
 30
0.0
 10
77.3105
 20
43.1446
 30
0.0
 10
77.8239
 20
42.7424
 30
0.0
 10
78.6181
 20
41.7953
 30
0.0
 10
78.6181
 20
41.7953
 30
0.0
 10
78.4587
 20
43.2763
 30
0.0
 10
80.1122
 20
44.3235
 30
0.0
 10
81.8331
 20
42.8842
 30
0.0
  0
SPLINE
  5
72
330
1F
100
AcDbEntity
  8
layer 1
 62
     7
100
AcDbSpline
210
0.0
220
0.0
230
1.0
 70
    11
 71
     3
 72
    12
 73
     8
 74
     0
 42
0.0000000001
 43
0.0000000001
 12
1.0
 22
0.0
 32
0.0
 13
1.0
 23
0.0
 33
0.0
 40
0.0
 40
0.0
 40
0.0
 40
0.0
 40
0.3333333333333333
 40
0.3333333333333333
 40
0.3333333333333333
 40
0.3333333333333333
 40
1.0
 40
1.0
 40
1.0
 40
1.0
 10
76.846
 20
39.4864
 30
0.0
 10
76.0898
 20
41.6951
 30
0.0
 10
71.6345
 20
42.4608
 30
0.0
 10
70.2332
 20
40.6368
 30
0.0
 10
70.2332
 20
40.6368
 30
0.0
 10
71.4845
 20
39.9018
 30
0.0
 10
74.2454
 20
39.4477
 30
0.0
 10
76.846
 20
39.4864
 30
0.0
  0
SPLINE
  5
73
330
1F
100
AcDbEntity
  8
layer 1
 62
     7
100
AcDbSpline
210
0.0
220
0.0
230
1.0
 70
    11
 71
     3
 72
    12
 73
     8
 74
     0
 42
0.0000000001
 43
0.0000000001
 12
1.0
 22
0.0
 32
0.0
 13
1.0
 23
0.0
 33
0.0
 40
0.0
 40
0.0
 40
0.0
 40
0.0
 40
0.3333333333333333
 40
0.3333333333333333
 40
0.3333333333333333
 40
0.3333333333333333
 40
1.0
 40
1.0
 40
1.0
 40
1.0
 10
36.0296
 20
44.7287
 30
0.0
 10
34.8404
 20
46.7333
 30
0.0
 10
30.3149
 20
46.5527
 30
0.0
 10
29.3268
 20
44.4866
 30
0.0
 10
29.3268
 20
44.4866
 30
0.0
 10
30.6974
 20
44.0222
 30
0.0
 10
33.4992
 20
44.1531
 30
0.0
 10
36.0296
 20
44.7287
 30
0.0
  0
SPLINE
  5
74
330
1F
100
AcDbEntity
  8
layer 1
 62
     7
100
AcDbSpline
210
0.0
220
0.0
230
1.0
 70
    11
 71
     3
 72
    20
 73
    16
 74
     0
 42
0.0000000001
 43
0.0000000001
 12
1.0
 22
0.0
 32
0.0
 13
1.0
 23
0.0
 33
0.0
 40
0.0
 40
0.0
 40
0.0
 40
0.0
 40
0.2
 40
0.2
 40
0.2
 40
0.2
 40
0.4
 40
0.4
 40
0.4
 40
0.4
 40
0.6
 40
0.6
 40
0.6
 40
0.6
 40
1.0
 40
1.0
 40
1.0
 40
1.0
 10
60.3286
 20
45.7248
 30
0.0
 10
64.7123
 20
44.8991
 30
0.0
 10
67.1191
 20
45.1726
 30
0.0
 10
72.2093
 20
47.4091
 30
0.0
 10
72.2093
 20
47.4091
 30
0.0
 10
71.3324
 20
46.0473
 30
0.0
 10
71.5438
 20
44.9891
 30
0.0
 10
72.0082
 20
43.952
 30
0.0
 10
72.0082
 20
43.952
 30
0.0
 10
69.6503
 20
44.3857
 30
0.0
 10
68.3398
 20
43.9725
 30
0.0
 10
66.6679
 20
42.0768
 30
0.0
 10
66.6679
 20
42.0768
 30
0.0
 10
65.1664
 20
42.5515
 30
0.0
 10
62.7047
 20
44.3959
 30
0.0
 10
60.3286
 20
45.7248
 30
0.0
  0
SPLINE
  5
75
330
1F
100
AcDbEntity
  8
layer 1
 62
     7
100
AcDbSpline
210
0.0
220
0.0
230
1.0
 70
    11
 71
     3
 72
    16
 73
    12
 74
     0
 42
0.0000000001
 43
0.0000000001
 12
1.0
 22
0.0
 32
0.0
 13
1.0
 23
0.0
 33
0.0
 40
0.0
 40
0.0
 40
0.0
 40
0.0
 40
0.25
 40
0.25
 40
0.25
 40
0.25
 40
0.5
 40
0.5
 40
0.5
 40
0.5
 40
1.0
 40
1.0
 40
1.0
 40
1.0
 10
50.5914
 20
45.8872
 30
0.0
 10
52.0622
 20
46.1197
 30
0.0
 10
53.2828
 20
46.1504
 30
0.0
 10
54.9649
 20
45.7972
 30
0.0
 10
54.9649
 20
45.7972
 30
0.0
 10
54.1187
 20
46.6017
 30
0.0
 10
53.3033
 20
47.6702
 30
0.0
 10
52.7796
 20
48.4571
 30
0.0
 10
52.7796
 20
48.4571
 30
0.0
 10
52.2245
 20
47.8223
 30
0.0
 10
51.306
 20
46.6843
 30
0.0
 10
50.5914
 20
45.8872
 30
0.0
  0
SPLINE
  5
76
330
1F
100
AcDbEntity
  8
layer 1
 62
     7
100
AcDbSpline
210
0.0
220
0.0
230
1.0
 70
    11
 71
     3
 72
    52
 73
    48
 74
     0
 42
0.0000000001
 43
0.0000000001
 12
1.0
 22
0.0
 32
0.0
 13
1.0
 23
0.0
 33
0.0
 40
0.0
 40
0.0
 40
0.0
 40
0.0
 40
0.0769230769230769
 40
0.0769230769230769
 40
0.0769230769230769
 40
0.0769230769230769
 40
0.1538461538461539
 40
0.1538461538461539
 40
0.1538461538461539
 40
0.1538461538461539
 40
0.2307692307692308
 40
0.2307692307692308
 40
0.2307692307692308
 40
0.2307692307692308
 40
0.3076923076923077
 40
0.3076923076923077
 40
0.3076923076923077
 40
0.3076923076923077
 40
0.3846153846153846
 40
0.3846153846153846
 40
0.3846153846153846
 40
0.3846153846153846
 40
0.4615384615384616
 40
0.4615384615384616
 40
0.4615384615384616
 40
0.4615384615384616
 40
0.5384615384615384
 40
0.5384615384615384
 40
0.5384615384615384
 40
0.5384615384615384
 40
0.6153846153846154
 40
0.6153846153846154
 40
0.6153846153846154
 40
0.6153846153846154
 40
0.6923076923076923
 40
0.6923076923076923
 40
0.6923076923076923
 40
0.6923076923076923
 40
0.7692307692307693
 40
0.7692307692307693
 40
0.7692307692307693
 40
0.7692307692307693
 40
0.8461538461538461
 40
0.8461538461538461
 40
0.8461538461538461
 40
0.8461538461538461
 40
1.0
 40
1.0
 40
1.0
 40
1.0
 10
50.8028
 20
42.1697
 30
0.0
 10
49.8257
 20
43.4671
 30
0.0
 10
50.6536
 20
43.7714
 30
0.0
 10
51.6497
 20
43.7999
 30
0.0
 10
51.6497
 20
43.7999
 30
0.0
 10
53.1226
 20
43.7611
 30
0.0
 10
56.0539
 20
43.4284
 30
0.0
 10
57.4544
 20
42.0278
 30
0.0
 10
57.4544
 20
42.0278
 30
0.0
 10
56.3376
 20
42.2494
 30
0.0
 10
52.901
 20
39.2048
 30
0.0
 10
56.4071
 20
36.2817
 30
0.0
 10
56.4071
 20
36.2817
 30
0.0
 10
58.6231
 20
34.4474
 30
0.0
 10
63.2108
 20
36.9165
 30
0.0
 10
61.3042
 20
41.393
 30
0.0
 10
61.3042
 20
41.393
 30
0.0
 10
62.233
 20
41.14
 30
0.0
 10
63.5926
 20
40.4642
 30
0.0
 10
64.3898
 20
39.8601
 30
0.0
 10
64.3898
 20
39.8601
 30
0.0
 10
61.2757
 20
31.8182
 30
0.0
 10
67.1813
 20
28.7144
 30
0.0
 10
68.9534
 20
28.4409
 30
0.0
 10
68.9534
 20
28.4409
 30
0.0
 10
72.4909
 20
28.3817
 30
0.0
 10
73.9024
 20
30.2546
 30
0.0
 10
74.0026
 20
31.9887
 30
0.0
 10
74.0026
 20
31.9887
 30
0.0
 10
74.1759
 20
34.9016
 30
0.0
 10
70.4373
 20
37.9045
 30
0.0
 10
67.1506
 20
33.8024
 30
0.0
 10
67.1506
 20
33.8024
 30
0.0
 10
66.3139
 20
34.9221
 30
0.0
 10
66.1128
 20
38.1883
 30
0.0
 10
67.4519
 20
38.5912
 30
0.0
 10
67.4519
 20
38.5912
 30
0.0
 10
69.3768
 20
37.6134
 30
0.0
 10
73.5513
 20
36.7563
 30
0.0
 10
78.8609
 20
37.0583
 30
0.0
 10
78.8609
 20
37.0583
 30
0.0
 10
82.3077
 20
24.9941
 30
0.0
 10
69.5084
 20
20.3683
 30
0.0
 10
62.0699
 20
26.7076
 30
0.0
 10
62.0699
 20
26.7076
 30
0.0
 10
56.2652
 20
31.5967
 30
0.0
 10
52.8901
 20
39.5478
 30
0.0
 10
50.8028
 20
42.1697
 30
0.0
  0
SPLINE
  5
77
330
1F
100
AcDbEntity
  8
layer 1
 62
     7
100
AcDbSpline
210
0.0
220
0.0
230
1.0
 70
    11
 71
     3
 72
    16
 73
    12
 74
     0
 42
0.0000000001
 43
0.0000000001
 12
1.0
 22
0.0
 32
0.0
 13
1.0
 23
0.0
 33
0.0
 40
0.0
 40
0.0
 40
0.0
 40
0.0
 40
0.25
 40
0.25
 40
0.25
 40
0.25
 40
0.5
 40
0.5
 40
0.5
 40
0.5
 40
1.0
 40
1.0
 40
1.0
 40
1.0
 10
93.4849
 20
42.482
 30
0.0
 10
93.4849
 20
42.482
 30
0.0
 10
93.4951
 20
45.2626
 30
0.0
 10
93.4951
 20
45.2626
 30
0.0
 10
93.4951
 20
45.2626
 30
0.0
 10
92.94
 20
44.4267
 30
0.0
 10
92.3367
 20
43.9111
 30
0.0
 10
91.6602
 20
43.5293
 30
0.0
 10
91.6602
 20
43.5293
 30
0.0
 10
92.6175
 20
43.307
 30
0.0
 10
93.1412
 20
42.9252
 30
0.0
 10
93.4849
 20
42.482
 30
0.0
  0
SPLINE
  5
78
330
1F
100
AcDbEntity
  8
layer 1
 62
     7
100
AcDbSpline
210
0.0
220
0.0
230
1.0
 70
    11
 71
     3
 72
    16
 73
    12
 74
     0
 42
0.0000000001
 43
0.0000000001
 12
1.0
 22
0.0
 32
0.0
 13
1.0
 23
0.0
 33
0.0
 40
0.0
 40
0.0
 40
0.0
 40
0.0
 40
0.25
 40
0.25
 40
0.25
 40
0.25
 40
0.5
 40
0.5
 40
0.5
 40
0.5
 40
1.0
 40
1.0
 40
1.0
 40
1.0
 10
63.2313
 20
52.0458
 30
0.0
 10
64.9339
 20
52.2367
 30
0.0
 10
68.0377
 20
51.0578
 30
0.0
 10
69.2269
 20
50.08
 30
0.0
 10
69.2269
 20
50.08
 30
0.0
 10
67.8958
 20
49.0532
 30
0.0
 10
64.5806
 20
48.1448
 30
0.0
 10
63.3915
 20
48.2041
 30
0.0
 10
63.3915
 20
48.2041
 30
0.0
 10
60.7696
 20
48.3357
 30
0.0
 10
60.2459
 20
51.6611
 30
0.0
 10
63.2313
 20
52.0458
 30
0.0
  0
SPLINE
  5
79
330
1F
100
AcDbEntity
  8
layer 1
 62
     7
100
AcDbSpline
210
0.0
220
0.0
230
1.0
 70
    11
 71
     3
 72
    16
 73
    12
 74
     0
 42
0.0000000001
 43
0.0000000001
 12
1.0
 22
0.0
 32
0.0
 13
1.0
 23
0.0
 33
0.0
 40
0.0
 40
0.0
 40
0.0
 40
0.0
 40
0.25
 40
0.25
 40
0.25
 40
0.25
 40
0.5
 40
0.5
 40
0.5
 40
0.5
 40
1.0
 40
1.0
 40
1.0
 40
1.0
 10
90.0688
 20
52.0458
 30
0.0
 10
88.3552
 20
52.2367
 30
0.0
 10
83.4662
 20
50.8567
 30
0.0
 10
81.975
 20
50.1392
 30
0.0
 10
81.975
 20
50.1392
 30
0.0
 10
83.4764
 20
49.4656
 30
0.0
 10
88.7165
 20
48.1448
 30
0.0
 10
89.8955
 20
48.2041
 30
0.0
 10
89.8955
 20
48.2041
 30
0.0
 10
92.5173
 20
48.3357
 30
0.0
 10
93.0512
 20
51.6611
 30
0.0
 10
90.0688
 20
52.0458
 30
0.0
  0
SPLINE
  5
7A
330
1F
100
AcDbEntity
  8
layer 1
 62
     7
100
AcDbSpline
210
0.0
220
0.0
230
1.0
 70
    11
 71
     3
 72
    16
 73
    12
 74
     0
 42
0.0000000001
 43
0.0000000001
 12
1.0
 22
0.0
 32
0.0
 13
1.0
 23
0.0
 33
0.0
 40
0.0
 40
0.0
 40
0.0
 40
0.0
 40
0.25
 40
0.25
 40
0.25
 40
0.25
 40
0.5
 40
0.5
 40
0.5
 40
0.5
 40
1.0
 40
1.0
 40
1.0
 40
1.0
 10
42.5393
 20
81.1819
 30
0.0
 10
42.0464
 20
76.1327
 30
0.0
 10
38.6793
 20
74.5903
 30
0.0
 10
36.2
 20
75.405
 30
0.0
 10
36.2
 20
75.405
 30
0.0
 10
37.632
 20
72.1805
 30
0.0
 10
41.1278
 20
65.0258
 30
0.0
 10
43.4162
 20
63.5345
 30
0.0
 10
43.4162
 20
63.5345
 30
0.0
 10
45.785
 20
67.3741
 30
0.0
 10
44.454
 20
78.5915
 30
0.0
 10
42.5393
 20
81.1819
 30
0.0
  0
SPLINE
  5
7B
330
1F
100
AcDbEntity
  8
layer 1
 62
     7
100
AcDbSpline
210
0.0
220
0.0
230
1.0
 70
    11
 71
     3
 72
    16
 73
    12
 74
     0
 42
0.0000000001
 43
0.0000000001
 12
1.0
 22
0.0
 32
0.0
 13
1.0
 23
0.0
 33
0.0
 40
0.0
 40
0.0
 40
0.0
 40
0.0
 40
0.25
 40
0.25
 40
0.25
 40
0.25
 40
0.5
 40
0.5
 40
0.5
 40
0.5
 40
1.0
 40
1.0
 40
1.0
 40
1.0
 10
36.2315
 20
92.3971
 30
0.0
 10
34.7578
 20
91.8837
 30
0.0
 10
32.4204
 20
90.4934
 30
0.0
 10
31.4631
 20
89.4352
 30
0.0
 10
31.4631
 20
89.4352
 30
0.0
 10
30.7486
 20
92.0753
 30
0.0
 10
30.5167
 20
96.399
 30
0.0
 10
30.8495
 20
99.1599
 30
0.0
 10
30.8495
 20
99.1599
 30
0.0
 10
33.1276
 20
96.3888
 30
0.0
 10
34.1954
 20
94.8069
 30
0.0
 10
36.2315
 20
92.3971
 30
0.0
  0
SPLINE
  5
7C
330
1F
100
AcDbEntity
  8
layer 1
 62
     7
100
AcDbSpline
210
0.0
220
0.0
230
1.0
 70
    11
 71
     3
 72
    20
 73
    16
 74
     0
 42
0.0000000001
 43
0.0000000001
 12
1.0
 22
0.0
 32
0.0
 13
1.0
 23
0.0
 33
0.0
 40
0.0
 40
0.0
 40
0.0
 40
0.0
 40
0.2
 40
0.2
 40
0.2
 40
0.2
 40
0.4
 40
0.4
 40
0.4
 40
0.4
 40
0.6
 40
0.6
 40
0.6
 40
0.6
 40
1.0
 40
1.0
 40
1.0
 40
1.0
 10
37.199
 20
89.9903
 30
0.0
 10
35.9192
 20
89.3247
 30
0.0
 10
33.8319
 20
88.2774
 30
0.0
 10
32.1776
 20
86.6027
 30
0.0
 10
32.1776
 20
86.6027
 30
0.0
 10
32.5316
 20
84.2448
 30
0.0
 10
33.0962
 20
82.7324
 30
0.0
 10
34.2342
 20
80.4257
 30
0.0
 10
34.2342
 20
80.4257
 30
0.0
 10
35.0701
 20
83.1068
 30
0.0
 10
38.6588
 20
82.521
 30
0.0
 10
39.2936
 20
80.444
 30
0.0
 10
39.2936
 20
80.444
 30
0.0
 10
40.7153
 20
83.9113
 30
0.0
 10
39.3945
 20
87.2682
 30
0.0
 10
37.199
 20
89.9903
 30
0.0
  0
SPLINE
  5
7D
330
1F
100
AcDbEntity
  8
layer 1
 62
     7
100
AcDbSpline
210
0.0
220
0.0
230
1.0
 70
    11
 71
     3
 72
    16
 73
    12
 74
     0
 42
0.0000000001
 43
0.0000000001
 12
1.0
 22
0.0
 32
0.0
 13
1.0
 23
0.0
 33
0.0
 40
0.0
 40
0.0
 40
0.0
 40
0.0
 40
0.25
 40
0.25
 40
0.25
 40
0.25
 40
0.5
 40
0.5
 40
0.5
 40
0.5
 40
1.0
 40
1.0
 40
1.0
 40
1.0
 10
29.1564
 20
105.6718
 30
0.0
 10
29.691
 20
113.239
 30
0.0
 10
29.9616
 20
115.8602
 30
0.0
 10
28.6408
 20
120.4757
 30
0.0
 10
28.6408
 20
120.4757
 30
0.0
 10
27.1108
 20
126.2709
 30
0.0
 10
21.8473
 20
127.3182
 30
0.0
 10
22.322
 20
119.4774
 30
0.0
 10
22.322
 20
119.4774
 30
0.0
 10
23.0987
 20
112.7359
 30
0.0
 10
27.7252
 20
108.4012
 30
0.0
 10
29.1564
 20
105.6718
 30
0.0
  0
SPLINE
  5
7E
330
1F
100
AcDbEntity
  8
layer 1
 62
     7
100
AcDbSpline
210
0.0
220
0.0
230
1.0
 70
    11
 71
     3
 72
    24
 73
    20
 74
     0
 42
0.0000000001
 43
0.0000000001
 12
1.0
 22
0.0
 32
0.0
 13
1.0
 23
0.0
 33
0.0
 40
0.0
 40
0.0
 40
0.0
 40
0.0
 40
0.1666666666666667
 40
0.1666666666666667
 40
0.1666666666666667
 40
0.1666666666666667
 40
0.3333333333333333
 40
0.3333333333333333
 40
0.3333333333333333
 40
0.3333333333333333
 40
0.5
 40
0.5
 40
0.5
 40
0.5
 40
0.6666666666666666
 40
0.6666666666666666
 40
0.6666666666666666
 40
0.6666666666666666
 40
1.0
 40
1.0
 40
1.0
 40
1.0
 10
31.4426
 20
102.9007
 30
0.0
 10
32.5213
 20
101.528
 30
0.0
 10
32.7737
 20
101.0563
 30
0.0
 10
33.8912
 20
99.8152
 30
0.0
 10
33.8912
 20
99.8152
 30
0.0
 10
32.8848
 20
104.0489
 30
0.0
 10
34.8792
 20
107.3049
 30
0.0
 10
37.7227
 20
107.2632
 30
0.0
 10
37.7227
 20
107.2632
 30
0.0
 10
33.5299
 20
110.2076
 30
0.0
 10
31.605
 20
117.2921
 30
0.0
 10
33.7412
 20
121.9464
 30
0.0
 10
33.7412
 20
121.9464
 30
0.0
 10
33.7412
 20
121.9464
 30
0.0
 10
30.8985
 20
121.9881
 30
0.0
 10
30.8985
 20
121.9881
 30
0.0
 10
30.8985
 20
121.9881
 30
0.0
 10
32.7122
 20
117.584
 30
0.0
 10
32.642
 20
109.7329
 30
0.0
 10
31.4426
 20
102.9007
 30
0.0
  0
SPLINE
  5
7F
330
1F
100
AcDbEntity
  8
layer 1
 62
     7
100
AcDbSpline
210
0.0
220
0.0
230
1.0
 70
    11
 71
     3
 72
    16
 73
    12
 74
     0
 42
0.0000000001
 43
0.0000000001
 12
1.0
 22
0.0
 32
0.0
 13
1.0
 23
0.0
 33
0.0
 40
0.0
 40
0.0
 40
0.0
 40
0.0
 40
0.25
 40
0.25
 40
0.25
 40
0.25
 40
0.5
 40
0.5
 40
0.5
 40
0.5
 40
1.0
 40
1.0
 40
1.0
 40
1.0
 10
20.9909
 20
105.1869
 30
0.0
 10
22.3015
 20
106.466
 30
0.0
 10
23.1682
 20
106.466
 30
0.0
 10
25.9495
 20
105.3076
 30
0.0
 10
25.9495
 20
105.3076
 30
0.0
 10
23.9448
 20
107.6866
 30
0.0
 10
22.0799
 20
109.7015
 30
0.0
 10
21.0114
 20
112.7973
 30
0.0
 10
21.0114
 20
112.7973
 30
0.0
 10
21.0114
 20
112.7973
 30
0.0
 10
20.9909
 20
105.1869
 30
0.0
 10
20.9909
 20
105.1869
 30
0.0
  0
SPLINE
  5
80
330
1F
100
AcDbEntity
  8
layer 1
 62
     7
100
AcDbSpline
210
0.0
220
0.0
230
1.0
 70
    11
 71
     3
 72
    32
 73
    28
 74
     0
 42
0.0000000001
 43
0.0000000001
 12
1.0
 22
0.0
 32
0.0
 13
1.0
 23
0.0
 33
0.0
 40
0.0
 40
0.0
 40
0.0
 40
0.0
 40
0.125
 40
0.125
 40
0.125
 40
0.125
 40
0.25
 40
0.25
 40
0.25
 40
0.25
 40
0.375
 40
0.375
 40
0.375
 40
0.375
 40
0.5
 40
0.5
 40
0.5
 40
0.5
 40
0.625
 40
0.625
 40
0.625
 40
0.625
 40
0.75
 40
0.75
 40
0.75
 40
0.75
 40
1.0
 40
1.0
 40
1.0
 40
1.0
 10
20.9317
 20
95.2794
 30
0.0
 10
25.3359
 20
96.843
 30
0.0
 10
27.1006
 20
90.6945
 30
0.0
 10
22.7454
 20
89.4739
 30
0.0
 10
22.7454
 20
89.4739
 30
0.0
 10
24.2571
 20
87.6602
 30
0.0
 10
27.8458
 20
87.3099
 30
0.0
 10
28.703
 20
87.3479
 30
0.0
 10
28.703
 20
87.3479
 30
0.0
 10
29.6186
 20
87.3794
 30
0.0
 10
27.7252
 20
95.2896
 30
0.0
 10
27.7742
 20
95.8856
 30
0.0
 10
27.7742
 20
95.8856
 30
0.0
 10
25.4778
 20
96.3574
 30
0.0
 10
24.3581
 20
99.6448
 30
0.0
 10
24.7113
 20
103.4141
 30
0.0
 10
24.7113
 20
103.4141
 30
0.0
 10
24.1153
 20
103.7162
 30
0.0
 10
23.5916
 20
103.8968
 30
0.0
 10
22.9882
 20
103.8683
 30
0.0
 10
22.9882
 20
103.8683
 30
0.0
 10
25.2942
 20
101.8819
 30
0.0
 10
21.3859
 20
99.1006
 30
0.0
 10
20.9829
 20
102.7588
 30
0.0
 10
20.9829
 20
102.7588
 30
0.0
 10
20.9829
 20
102.7588
 30
0.0
 10
20.9317
 20
95.2794
 30
0.0
 10
20.9317
 20
95.2794
 30
0.0
  0
SPLINE
  5
81
330
1F
100
AcDbEntity
  8
layer 1
 62
     7
100
AcDbSpline
210
0.0
220
0.0
230
1.0
 70
    11
 71
     3
 72
    16
 73
    12
 74
     0
 42
0.0000000001
 43
0.0000000001
 12
1.0
 22
0.0
 32
0.0
 13
1.0
 23
0.0
 33
0.0
 40
0.0
 40
0.0
 40
0.0
 40
0.0
 40
0.25
 40
0.25
 40
0.25
 40
0.25
 40
0.5
 40
0.5
 40
0.5
 40
0.5
 40
1.0
 40
1.0
 40
1.0
 40
1.0
 10
21.0217
 20
86.5332
 30
0.0
 10
22.333
 20
85.2533
 30
0.0
 10
23.4907
 20
84.8584
 30
0.0
 10
26.1718
 20
84.8196
 30
0.0
 10
26.1718
 20
84.8196
 30
0.0
 10
23.7233
 20
82.7017
 30
0.0
 10
22.0799
 20
80.2246
 30
0.0
 10
21.0114
 20
77.1288
 30
0.0
 10
21.0114
 20
77.1288
 30
0.0
 10
21.0114
 20
77.1288
 30
0.0
 10
21.0217
 20
86.5332
 30
0.0
 10
21.0217
 20
86.5332
 30
0.0
  0
SPLINE
  5
82
330
1F
100
AcDbEntity
  8
layer 1
 62
     7
100
AcDbSpline
210
0.0
220
0.0
230
1.0
 70
    11
 71
     3
 72
    16
 73
    12
 74
     0
 42
0.0000000001
 43
0.0000000001
 12
1.0
 22
0.0
 32
0.0
 13
1.0
 23
0.0
 33
0.0
 40
0.0
 40
0.0
 40
0.0
 40
0.0
 40
0.25
 40
0.25
 40
0.25
 40
0.25
 40
0.5
 40
0.5
 40
0.5
 40
0.5
 40
1.0
 40
1.0
 40
1.0
 40
1.0
 10
72.5326
 20
103.1925
 30
0.0
 10
73.0248
 20
108.252
 30
0.0
 10
76.3816
 20
109.7922
 30
0.0
 10
78.8609
 20
108.9665
 30
0.0
 10
78.8609
 20
108.9665
 30
0.0
 10
77.4289
 20
112.202
 30
0.0
 10
73.9433
 20
119.3589
 30
0.0
 10
71.6549
 20
120.8501
 30
0.0
 10
71.6549
 20
120.8501
 30
0.0
 10
69.2861
 20
116.9981
 30
0.0
 10
70.6077
 20
105.7932
 30
0.0
 10
72.5326
 20
103.1925
 30
0.0
  0
SPLINE
  5
83
330
1F
100
AcDbEntity
  8
layer 1
 62
     7
100
AcDbSpline
210
0.0
220
0.0
230
1.0
 70
    11
 71
     3
 72
    16
 73
    12
 74
     0
 42
0.0000000001
 43
0.0000000001
 12
1.0
 22
0.0
 32
0.0
 13
1.0
 23
0.0
 33
0.0
 40
0.0
 40
0.0
 40
0.0
 40
0.0
 40
0.25
 40
0.25
 40
0.25
 40
0.25
 40
0.5
 40
0.5
 40
0.5
 40
0.5
 40
1.0
 40
1.0
 40
1.0
 40
1.0
 10
78.8302
 20
91.9744
 30
0.0
 10
80.3031
 20
92.4878
 30
0.0
 10
82.6405
 20
93.881
 30
0.0
 10
83.6081
 20
94.9488
 30
0.0
 10
83.6081
 20
94.9488
 30
0.0
 10
84.3226
 20
92.2969
 30
0.0
 10
84.5449
 20
87.9827
 30
0.0
 10
84.2122
 20
85.2226
 30
0.0
 10
84.2122
 20
85.2226
 30
0.0
 10
81.9443
 20
87.9827
 30
0.0
 10
80.8655
 20
89.577
 30
0.0
 10
78.8302
 20
91.9744
 30
0.0
  0
SPLINE
  5
84
330
1F
100
AcDbEntity
  8
layer 1
 62
     7
100
AcDbSpline
210
0.0
220
0.0
230
1.0
 70
    11
 71
     3
 72
    20
 73
    16
 74
     0
 42
0.0000000001
 43
0.0000000001
 12
1.0
 22
0.0
 32
0.0
 13
1.0
 23
0.0
 33
0.0
 40
0.0
 40
0.0
 40
0.0
 40
0.0
 40
0.2
 40
0.2
 40
0.2
 40
0.2
 40
0.4
 40
0.4
 40
0.4
 40
0.4
 40
0.6
 40
0.6
 40
0.6
 40
0.6
 40
1.0
 40
1.0
 40
1.0
 40
1.0
 10
77.8626
 20
94.3944
 30
0.0
 10
79.1447
 20
95.0497
 30
0.0
 10
81.24
 20
96.1072
 30
0.0
 10
82.8833
 20
97.7689
 30
0.0
 10
82.8833
 20
97.7689
 30
0.0
 10
82.5301
 20
100.1274
 30
0.0
 10
81.975
 20
101.6494
 30
0.0
 10
80.8268
 20
103.9582
 30
0.0
 10
80.8268
 20
103.9582
 30
0.0
 10
79.9908
 20
101.2779
 30
0.0
 10
76.4124
 20
101.8607
 30
0.0
 10
75.7775
 20
103.9378
 30
0.0
 10
75.7775
 20
103.9378
 30
0.0
 10
74.3565
 20
100.4602
 30
0.0
 10
75.6774
 20
97.1063
 30
0.0
 10
77.8626
 20
94.3944
 30
0.0
  0
SPLINE
  5
85
330
1F
100
AcDbEntity
  8
layer 1
 62
     7
100
AcDbSpline
210
0.0
220
0.0
230
1.0
 70
    11
 71
     3
 72
    20
 73
    16
 74
     0
 42
0.0000000001
 43
0.0000000001
 12
1.0
 22
0.0
 32
0.0
 13
1.0
 23
0.0
 33
0.0
 40
0.0
 40
0.0
 40
0.0
 40
0.0
 40
0.2
 40
0.2
 40
0.2
 40
0.2
 40
0.4
 40
0.4
 40
0.4
 40
0.4
 40
0.6
 40
0.6
 40
0.6
 40
0.6
 40
1.0
 40
1.0
 40
1.0
 40
1.0
 10
65.829
 20
114.4384
 30
0.0
 10
65.829
 20
113.6127
 30
0.0
 10
65.1664
 20
112.9472
 30
0.0
 10
64.3481
 20
112.9472
 30
0.0
 10
64.3481
 20
112.9472
 30
0.0
 10
63.5231
 20
112.9472
 30
0.0
 10
62.8569
 20
113.6127
 30
0.0
 10
62.8569
 20
114.4384
 30
0.0
 10
62.8569
 20
114.4384
 30
0.0
 10
62.8569
 20
115.2568
 30
0.0
 10
63.5224
 20
115.9296
 30
0.0
 10
64.3481
 20
115.9296
 30
0.0
 10
64.3481
 20
115.9296
 30
0.0
 10
65.1664
 20
115.9296
 30
0.0
 10
65.829
 20
115.2561
 30
0.0
 10
65.829
 20
114.4384
 30
0.0
  0
SPLINE
  5
86
330
1F
100
AcDbEntity
  8
layer 1
 62
     7
100
AcDbSpline
210
0.0
220
0.0
230
1.0
 70
    11
 71
     3
 72
    16
 73
    12
 74
     0
 42
0.0000000001
 43
0.0000000001
 12
1.0
 22
0.0
 32
0.0
 13
1.0
 23
0.0
 33
0.0
 40
0.0
 40
0.0
 40
0.0
 40
0.0
 40
0.25
 40
0.25
 40
0.25
 40
0.25
 40
0.5
 40
0.5
 40
0.5
 40
0.5
 40
1.0
 40
1.0
 40
1.0
 40
1.0
 10
64.9624
 20
110.2464
 30
0.0
 10
65.9812
 20
110.3078
 30
0.0
 10
67.3415
 20
111.3039
 30
0.0
 10
67.5835
 20
111.7478
 30
0.0
 10
67.5835
 20
111.7478
 30
0.0
 10
67.4936
 20
110.8702
 30
0.0
 10
67.7152
 20
108.5745
 30
0.0
 10
68.0765
 20
107.0006
 30
0.0
 10
68.0765
 20
107.0006
 30
0.0
 10
67.664
 20
107.5755
 30
0.0
 10
65.4963
 20
109.7922
 30
0.0
 10
64.9624
 20
110.2464
 30
0.0
  0
SPLINE
  5
87
330
1F
100
AcDbEntity
  8
layer 1
 62
     7
100
AcDbSpline
210
0.0
220
0.0
230
1.0
 70
    11
 71
     3
 72
    16
 73
    12
 74
     0
 42
0.0000000001
 43
0.0000000001
 12
1.0
 22
0.0
 32
0.0
 13
1.0
 23
0.0
 33
0.0
 40
0.0
 40
0.0
 40
0.0
 40
0.0
 40
0.25
 40
0.25
 40
0.25
 40
0.25
 40
0.5
 40
0.5
 40
0.5
 40
0.5
 40
1.0
 40
1.0
 40
1.0
 40
1.0
 10
60.1458
 20
114.3382
 30
0.0
 10
60.0244
 20
113.0891
 30
0.0
 10
60.842
 20
111.8092
 30
0.0
 10
61.4666
 20
111.2958
 30
0.0
 10
61.4666
 20
111.2958
 30
0.0
 10
60.107
 20
111.3346
 30
0.0
 10
59.0568
 20
111.2446
 30
0.0
 10
57.4442
 20
111.2958
 30
0.0
 10
57.4442
 20
111.2958
 30
0.0
 10
58.332
 20
112.2429
 30
0.0
 10
59.5417
 20
113.6332
 30
0.0
 10
60.1458
 20
114.3382
 30
0.0
  0
SPLINE
  5
88
330
1F
100
AcDbEntity
  8
layer 1
 62
     7
100
AcDbSpline
210
0.0
220
0.0
230
1.0
 70
    11
 71
     3
 72
    24
 73
    20
 74
     0
 42
0.0000000001
 43
0.0000000001
 12
1.0
 22
0.0
 32
0.0
 13
1.0
 23
0.0
 33
0.0
 40
0.0
 40
0.0
 40
0.0
 40
0.0
 40
0.1666666666666667
 40
0.1666666666666667
 40
0.1666666666666667
 40
0.1666666666666667
 40
0.3333333333333333
 40
0.3333333333333333
 40
0.3333333333333333
 40
0.3333333333333333
 40
0.5
 40
0.5
 40
0.5
 40
0.5
 40
0.6666666666666666
 40
0.6666666666666666
 40
0.6666666666666666
 40
0.6666666666666666
 40
1.0
 40
1.0
 40
1.0
 40
1.0
 10
62.7771
 20
118.3811
 30
0.0
 10
65.1562
 20
119.2061
 30
0.0
 10
67.0394
 20
118.0067
 30
0.0
 10
67.4417
 20
117.181
 30
0.0
 10
67.4417
 20
117.181
 30
0.0
 10
67.8958
 20
119.9418
 30
0.0
 10
68.5409
 20
122.5915
 30
0.0
 10
69.5706
 20
124.5471
 30
0.0
 10
69.5706
 20
124.5471
 30
0.0
 10
69.1472
 20
124.942
 30
0.0
 10
68.6725
 20
125.6156
 30
0.0
 10
68.1489
 20
126.1597
 30
0.0
 10
68.1489
 20
126.1597
 30
0.0
 10
67.9968
 20
126.3221
 30
0.0
 10
67.615
 20
126.121
 30
0.0
 10
67.4519
 20
126.2497
 30
0.0
 10
67.4519
 20
126.2497
 30
0.0
 10
67.0394
 20
125.677
 30
0.0
 10
63.311
 20
118.8324
 30
0.0
 10
62.7771
 20
118.3811
 30
0.0
  0
SPLINE
  5
89
330
1F
100
AcDbEntity
  8
layer 1
 62
     7
100
AcDbSpline
210
0.0
220
0.0
230
1.0
 70
    11
 71
     3
 72
    48
 73
    44
 74
     0
 42
0.0000000001
 43
0.0000000001
 12
1.0
 22
0.0
 32
0.0
 13
1.0
 23
0.0
 33
0.0
 40
0.0
 40
0.0
 40
0.0
 40
0.0
 40
0.0833333333333333
 40
0.0833333333333333
 40
0.0833333333333333
 40
0.0833333333333333
 40
0.1666666666666667
 40
0.1666666666666667
 40
0.1666666666666667
 40
0.1666666666666667
 40
0.25
 40
0.25
 40
0.25
 40
0.25
 40
0.3333333333333333
 40
0.3333333333333333
 40
0.3333333333333333
 40
0.3333333333333333
 40
0.4166666666666667
 40
0.4166666666666667
 40
0.4166666666666667
 40
0.4166666666666667
 40
0.5
 40
0.5
 40
0.5
 40
0.5
 40
0.5833333333333334
 40
0.5833333333333334
 40
0.5833333333333334
 40
0.5833333333333334
 40
0.6666666666666666
 40
0.6666666666666666
 40
0.6666666666666666
 40
0.6666666666666666
 40
0.75
 40
0.75
 40
0.75
 40
0.75
 40
0.8333333333333334
 40
0.8333333333333334
 40
0.8333333333333334
 40
0.8333333333333334
 40
1.0
 40
1.0
 40
1.0
 40
1.0
 10
47.8101
 20
122.8752
 30
0.0
 10
44.7275
 20
121.4535
 30
0.0
 10
40.3409
 20
121.0096
 30
0.0
 10
36.2907
 20
121.2524
 30
0.0
 10
36.2907
 20
121.2524
 30
0.0
 10
34.6883
 20
119.3875
 30
0.0
 10
34.8404
 20
112.4543
 30
0.0
 10
40.896
 20
108.7961
 30
0.0
 10
40.896
 20
108.7961
 30
0.0
 10
51.3477
 20
103.6255
 30
0.0
 10
58.7343
 20
116.1929
 30
0.0
 10
64.2888
 20
126.1597
 30
0.0
 10
64.2888
 20
126.1597
 30
0.0
 10
61.5565
 20
126.2219
 30
0.0
 10
58.0402
 20
126.121
 30
0.0
 10
57.8676
 20
126.2497
 30
0.0
 10
57.8676
 20
126.2497
 30
0.0
 10
61.4563
 20
124.9808
 30
0.0
 10
60.2876
 20
121.3635
 30
0.0
 10
58.7445
 20
120.1429
 30
0.0
 10
58.7445
 20
120.1429
 30
0.0
 10
57.0829
 20
118.8141
 30
0.0
 10
52.0132
 20
120.0939
 30
0.0
 10
53.7055
 20
125.7465
 30
0.0
 10
53.7055
 20
125.7465
 30
0.0
 10
52.5888
 20
125.4035
 30
0.0
 10
51.4588
 20
124.9106
 30
0.0
 10
50.4913
 20
124.4257
 30
0.0
 10
50.4913
 20
124.4257
 30
0.0
 10
53.7472
 20
115.7183
 30
0.0
 10
48.5868
 20
112.545
 30
0.0
 10
45.0084
 20
112.7461
 30
0.0
 10
45.0084
 20
112.7461
 30
0.0
 10
40.3621
 20
113.2595
 30
0.0
 10
41.3604
 20
117.7463
 30
0.0
 10
42.1268
 20
118.7629
 30
0.0
 10
42.1268
 20
118.7629
 30
0.0
 10
43.6773
 20
120.7777
 30
0.0
 10
47.609
 20
120.1225
 30
0.0
 10
47.8416
 20
117.4728
 30
0.0
 10
47.8416
 20
117.4728
 30
0.0
 10
49.2216
 20
119.1059
 30
0.0
 10
49.4747
 20
121.2524
 30
0.0
 10
47.8101
 20
122.8752
 30
0.0
  0
SPLINE
  5
8A
330
1F
100
AcDbEntity
  8
layer 1
 62
     7
100
AcDbSpline
210
0.0
220
0.0
230
1.0
 70
    11
 71
     3
 72
    12
 73
     8
 74
     0
 42
0.0000000001
 43
0.0000000001
 12
1.0
 22
0.0
 32
0.0
 13
1.0
 23
0.0
 33
0.0
 40
0.0
 40
0.0
 40
0.0
 40
0.0
 40
0.3333333333333333
 40
0.3333333333333333
 40
0.3333333333333333
 40
0.3333333333333333
 40
1.0
 40
1.0
 40
1.0
 40
1.0
 10
45.1502
 20
125.2024
 30
0.0
 10
44.051
 20
123.6702
 30
0.0
 10
39.6885
 20
123.3294
 30
0.0
 10
37.9033
 20
123.5898
 30
0.0
 10
37.9033
 20
123.5898
 30
0.0
 10
39.505
 20
125.5768
 30
0.0
 10
43.2363
 20
125.7984
 30
0.0
 10
45.1502
 20
125.2024
 30
0.0
  0
SPLINE
  5
8B
330
1F
100
AcDbEntity
  8
layer 1
 62
     7
100
AcDbSpline
210
0.0
220
0.0
230
1.0
 70
    11
 71
     3
 72
    20
 73
    16
 74
     0
 42
0.0000000001
 43
0.0000000001
 12
1.0
 22
0.0
 32
0.0
 13
1.0
 23
0.0
 33
0.0
 40
0.0
 40
0.0
 40
0.0
 40
0.0
 40
0.2
 40
0.2
 40
0.2
 40
0.2
 40
0.4
 40
0.4
 40
0.4
 40
0.4
 40
0.6
 40
0.6
 40
0.6
 40
0.6
 40
1.0
 40
1.0
 40
1.0
 40
1.0
 10
40.5449
 20
91.551
 30
0.0
 10
42.0566
 20
89.4044
 30
0.0
 10
44.9184
 20
82.9233
 30
0.0
 10
45.3206
 20
82.0976
 30
0.0
 10
45.3206
 20
82.0976
 30
0.0
 10
45.0603
 20
86.7036
 30
0.0
 10
48.0632
 20
90.9966
 30
0.0
 10
52.8901
 20
90.9966
 30
0.0
 10
52.8901
 20
90.9966
 30
0.0
 10
52.4674
 20
91.3915
 30
0.0
 10
50.9037
 20
92.942
 30
0.0
 10
50.7436
 20
94.1004
 30
0.0
 10
50.7436
 20
94.1004
 30
0.0
 10
46.7731
 20
94.0719
 30
0.0
 10
42.0852
 20
92.4878
 30
0.0
 10
40.5449
 20
91.551
 30
0.0
  0
SPLINE
  5
8C
330
1F
100
AcDbEntity
  8
layer 1
 62
     7
100
AcDbSpline
210
0.0
220
0.0
230
1.0
 70
    11
 71
     3
 72
    28
 73
    24
 74
     0
 42
0.0000000001
 43
0.0000000001
 12
1.0
 22
0.0
 32
0.0
 13
1.0
 23
0.0
 33
0.0
 40
0.0
 40
0.0
 40
0.0
 40
0.0
 40
0.1428571428571428
 40
0.1428571428571428
 40
0.1428571428571428
 40
0.1428571428571428
 40
0.2857142857142857
 40
0.2857142857142857
 40
0.2857142857142857
 40
0.2857142857142857
 40
0.4285714285714285
 40
0.4285714285714285
 40
0.4285714285714285
 40
0.4285714285714285
 40
0.5714285714285714
 40
0.5714285714285714
 40
0.5714285714285714
 40
0.5714285714285714
 40
0.7142857142857143
 40
0.7142857142857143
 40
0.7142857142857143
 40
0.7142857142857143
 40
1.0
 40
1.0
 40
1.0
 40
1.0
 10
52.5061
 20
96.9746
 30
0.0
 10
54.5729
 20
97.235
 30
0.0
 10
56.9827
 20
96.8013
 30
0.0
 10
58.4015
 20
95.5734
 30
0.0
 10
58.4015
 20
95.5734
 30
0.0
 10
57.4259
 20
97.6094
 30
0.0
 10
58.321
 20
100.4112
 30
0.0
 10
60.9736
 20
100.9144
 30
0.0
 10
60.9736
 20
100.9144
 30
0.0
 10
62.5943
 20
101.2267
 30
0.0
 10
64.9339
 20
100.3
 30
0.0
 10
64.9441
 20
97.8105
 30
0.0
 10
64.9441
 20
97.8105
 30
0.0
 10
66.7783
 20
97.9912
 30
0.0
 10
68.4816
 20
103.9173
 30
0.0
 10
64.6011
 20
106.91
 30
0.0
 10
64.6011
 20
106.91
 30
0.0
 10
61.0643
 20
109.6423
 30
0.0
 10
57.0931
 20
108.6125
 30
0.0
 10
53.9973
 20
105.7208
 30
0.0
 10
53.9973
 20
105.7208
 30
0.0
 10
51.2263
 20
102.527
 30
0.0
 10
52.0132
 20
98.2025
 30
0.0
 10
52.5061
 20
96.9746
 30
0.0
  0
SPLINE
  5
8D
330
1F
100
AcDbEntity
  8
layer 1
 62
     7
100
AcDbSpline
210
0.0
220
0.0
230
1.0
 70
    11
 71
     3
 72
    20
 73
    16
 74
     0
 42
0.0000000001
 43
0.0000000001
 12
1.0
 22
0.0
 32
0.0
 13
1.0
 23
0.0
 33
0.0
 40
0.0
 40
0.0
 40
0.0
 40
0.0
 40
0.2
 40
0.2
 40
0.2
 40
0.2
 40
0.4
 40
0.4
 40
0.4
 40
0.4
 40
0.6
 40
0.6
 40
0.6
 40
0.6
 40
1.0
 40
1.0
 40
1.0
 40
1.0
 10
62.4546
 20
93.3259
 30
0.0
 10
63.703
 20
91.8428
 30
0.0
 10
63.8449
 20
91.5122
 30
0.0
 10
64.449
 20
90.119
 30
0.0
 10
64.449
 20
90.119
 30
0.0
 10
67.8754
 20
90.3618
 30
0.0
 10
72.6847
 20
91.2804
 30
0.0
 10
74.377
 20
92.9208
 30
0.0
 10
74.377
 20
92.9208
 30
0.0
 10
73.035
 20
96.0868
 30
0.0
 10
71.4743
 20
98.5558
 30
0.0
 10
69.4697
 20
102.0728
 30
0.0
 10
69.4697
 20
102.0728
 30
0.0
 10
70.4168
 20
96.3888
 30
0.0
 10
67.1089
 20
93.3749
 30
0.0
 10
62.4546
 20
93.3259
 30
0.0
  0
SPLINE
  5
8E
330
1F
100
AcDbEntity
  8
layer 1
 62
     7
100
AcDbSpline
210
0.0
220
0.0
230
1.0
 70
    11
 71
     3
 72
    12
 73
     8
 74
     0
 42
0.0000000001
 43
0.0000000001
 12
1.0
 22
0.0
 32
0.0
 13
1.0
 23
0.0
 33
0.0
 40
0.0
 40
0.0
 40
0.0
 40
0.0
 40
0.3333333333333333
 40
0.3333333333333333
 40
0.3333333333333333
 40
0.3333333333333333
 40
1.0
 40
1.0
 40
1.0
 40
1.0
 10
60.7308
 20
89.9003
 30
0.0
 10
58.8659
 20
89.5675
 30
0.0
 10
55.4988
 20
92.3584
 30
0.0
 10
54.4025
 20
93.7881
 30
0.0
 10
54.4025
 20
93.7881
 30
0.0
 10
56.941
 20
94.1004
 30
0.0
 10
59.7742
 20
91.6621
 30
0.0
 10
60.7308
 20
89.9003
 30
0.0
  0
SPLINE
  5
8F
330
1F
100
AcDbEntity
  8
layer 1
 62
     7
100
AcDbSpline
210
0.0
220
0.0
230
1.0
 70
    11
 71
     3
 72
    28
 73
    24
 74
     0
 42
0.0000000001
 43
0.0000000001
 12
1.0
 22
0.0
 32
0.0
 13
1.0
 23
0.0
 33
0.0
 40
0.0
 40
0.0
 40
0.0
 40
0.0
 40
0.1428571428571428
 40
0.1428571428571428
 40
0.1428571428571428
 40
0.1428571428571428
 40
0.2857142857142857
 40
0.2857142857142857
 40
0.2857142857142857
 40
0.2857142857142857
 40
0.4285714285714285
 40
0.4285714285714285
 40
0.4285714285714285
 40
0.4285714285714285
 40
0.5714285714285714
 40
0.5714285714285714
 40
0.5714285714285714
 40
0.5714285714285714
 40
0.7142857142857143
 40
0.7142857142857143
 40
0.7142857142857143
 40
0.7142857142857143
 40
1.0
 40
1.0
 40
1.0
 40
1.0
 10
62.5036
 20
87.3794
 30
0.0
 10
60.4295
 20
87.1088
 30
0.0
 10
58.03
 20
87.5395
 30
0.0
 10
56.598
 20
88.7799
 30
0.0
 10
56.598
 20
88.7799
 30
0.0
 10
57.586
 20
86.7445
 30
0.0
 10
56.6777
 20
83.9428
 30
0.0
 10
54.0383
 20
83.4396
 30
0.0
 10
54.0383
 20
83.4396
 30
0.0
 10
52.4052
 20
83.1273
 30
0.0
 10
50.0678
 20
84.043
 30
0.0
 10
50.0576
 20
86.5434
 30
0.0
 10
50.0576
 20
86.5434
 30
0.0
 10
48.2233
 20
86.3599
 30
0.0
 10
46.531
 20
80.4367
 30
0.0
 10
50.4006
 20
77.4411
 30
0.0
 10
50.4006
 20
77.4411
 30
0.0
 10
53.9381
 20
74.7117
 30
0.0
 10
57.9086
 20
75.7275
 30
0.0
 10
61.0022
 20
78.6303
 30
0.0
 10
61.0022
 20
78.6303
 30
0.0
 10
63.7835
 20
81.827
 30
0.0
 10
62.9885
 20
86.1485
 30
0.0
 10
62.5036
 20
87.3794
 30
0.0
  0
SPLINE
  5
90
330
1F
100
AcDbEntity
  8
layer 1
 62
     7
100
AcDbSpline
210
0.0
220
0.0
230
1.0
 70
    11
 71
     3
 72
    16
 73
    12
 74
     0
 42
0.0000000001
 43
0.0000000001
 12
1.0
 22
0.0
 32
0.0
 13
1.0
 23
0.0
 33
0.0
 40
0.0
 40
0.0
 40
0.0
 40
0.0
 40
0.25
 40
0.25
 40
0.25
 40
0.25
 40
0.5
 40
0.5
 40
0.5
 40
0.5
 40
1.0
 40
1.0
 40
1.0
 40
1.0
 10
47.266
 20
104.9646
 30
0.0
 10
48.2848
 20
105.0267
 30
0.0
 10
50.0086
 20
105.4597
 30
0.0
 10
50.2382
 20
105.9036
 30
0.0
 10
50.2382
 20
105.9036
 30
0.0
 10
49.6341
 20
104.6633
 30
0.0
 10
49.3533
 20
103.7959
 30
0.0
 10
49.3014
 20
101.9719
 30
0.0
 10
49.3014
 20
101.9719
 30
0.0
 10
49.041
 20
103.4244
 30
0.0
 10
48.3652
 20
104.5031
 30
0.0
 10
47.266
 20
104.9646
 30
0.0
  0
SPLINE
  5
91
330
1F
100
AcDbEntity
  8
layer 1
 62
     7
100
AcDbSpline
210
0.0
220
0.0
230
1.0
 70
    11
 71
     3
 72
    16
 73
    12
 74
     0
 42
0.0000000001
 43
0.0000000001
 12
1.0
 22
0.0
 32
0.0
 13
1.0
 23
0.0
 33
0.0
 40
0.0
 40
0.0
 40
0.0
 40
0.0
 40
0.25
 40
0.25
 40
0.25
 40
0.25
 40
0.5
 40
0.5
 40
0.5
 40
0.5
 40
1.0
 40
1.0
 40
1.0
 40
1.0
 10
46.5515
 20
96.6002
 30
0.0
 10
47.9315
 20
97.488
 30
0.0
 10
49.1807
 20
99.5131
 30
0.0
 10
49.4228
 20
99.9468
 30
0.0
 10
49.4228
 20
99.9468
 30
0.0
 10
49.3818
 20
98.6077
 30
0.0
 10
49.4023
 20
97.8515
 30
0.0
 10
49.6656
 20
96.9432
 30
0.0
 10
49.6656
 20
96.9432
 30
0.0
 10
48.8369
 20
97.0134
 30
0.0
 10
48.1641
 20
97.0646
 30
0.0
 10
46.5515
 20
96.6002
 30
0.0
  0
SPLINE
  5
92
330
1F
100
AcDbEntity
  8
layer 1
 62
     7
100
AcDbSpline
210
0.0
220
0.0
230
1.0
 70
    11
 71
     3
 72
    32
 73
    28
 74
     0
 42
0.0000000001
 43
0.0000000001
 12
1.0
 22
0.0
 32
0.0
 13
1.0
 23
0.0
 33
0.0
 40
0.0
 40
0.0
 40
0.0
 40
0.0
 40
0.125
 40
0.125
 40
0.125
 40
0.125
 40
0.25
 40
0.25
 40
0.25
 40
0.25
 40
0.375
 40
0.375
 40
0.375
 40
0.375
 40
0.5
 40
0.5
 40
0.5
 40
0.5
 40
0.625
 40
0.625
 40
0.625
 40
0.625
 40
0.75
 40
0.75
 40
0.75
 40
0.75
 40
1.0
 40
1.0
 40
1.0
 40
1.0
 10
35.9784
 20
102.0341
 30
0.0
 10
37.4594
 20
98.6669
 30
0.0
 10
44.1
 20
98.223
 30
0.0
 10
42.8516
 20
105.4392
 30
0.0
 10
42.8516
 20
105.4392
 30
0.0
 10
43.7387
 20
105.1686
 30
0.0
 10
44.3223
 20
105.037
 30
0.0
 10
45.1502
 20
105.2074
 30
0.0
 10
45.1502
 20
105.2074
 30
0.0
 10
42.3075
 20
103.7366
 30
0.0
 10
44.5439
 20
100.0368
 30
0.0
 10
47.1965
 20
101.2369
 30
0.0
 10
47.1965
 20
101.2369
 30
0.0
 10
46.0278
 20
99.5548
 30
0.0
 10
44.6266
 20
99.9673
 30
0.0
 10
43.708
 20
99.4641
 30
0.0
 10
43.708
 20
99.4641
 30
0.0
 10
40.9962
 20
97.9912
 30
0.0
 10
40.3131
 20
97.1238
 30
0.0
 10
40.2714
 20
95.1784
 30
0.0
 10
40.2714
 20
95.1784
 30
0.0
 10
40.0293
 20
93.7494
 30
0.0
 10
39.3039
 20
93.3545
 30
0.0
 10
38.4167
 20
94.4434
 30
0.0
 10
38.4167
 20
94.4434
 30
0.0
 10
36.6827
 20
97.831
 30
0.0
 10
35.9294
 20
100.0368
 30
0.0
 10
35.9784
 20
102.0341
 30
0.0
  0
SPLINE
  5
93
330
1F
100
AcDbEntity
  8
layer 1
 62
     7
100
AcDbSpline
210
0.0
220
0.0
230
1.0
 70
    11
 71
     3
 72
    20
 73
    16
 74
     0
 42
0.0000000001
 43
0.0000000001
 12
1.0
 22
0.0
 32
0.0
 13
1.0
 23
0.0
 33
0.0
 40
0.0
 40
0.0
 40
0.0
 40
0.0
 40
0.2
 40
0.2
 40
0.2
 40
0.2
 40
0.4
 40
0.4
 40
0.4
 40
0.4
 40
0.6
 40
0.6
 40
0.6
 40
0.6
 40
1.0
 40
1.0
 40
1.0
 40
1.0
 10
49.1207
 20
70.0157
 30
0.0
 10
49.09
 20
70.8312
 30
0.0
 10
49.735
 20
71.5172
 30
0.0
 10
50.5607
 20
71.5457
 30
0.0
 10
50.5607
 20
71.5457
 30
0.0
 10
51.3784
 20
71.5662
 30
0.0
 10
52.0622
 20
70.9211
 30
0.0
 10
52.0929
 20
70.1057
 30
0.0
 10
52.0929
 20
70.1057
 30
0.0
 10
52.1141
 20
69.2778
 30
0.0
 10
51.4691
 20
68.594
 30
0.0
 10
50.6536
 20
68.5735
 30
0.0
 10
50.6536
 20
68.5735
 30
0.0
 10
49.8257
 20
68.5428
 30
0.0
 10
49.1419
 20
69.1871
 30
0.0
 10
49.1207
 20
70.0157
 30
0.0
  0
SPLINE
  5
94
330
1F
100
AcDbEntity
  8
layer 1
 62
     7
100
AcDbSpline
210
0.0
220
0.0
230
1.0
 70
    11
 71
     3
 72
    16
 73
    12
 74
     0
 42
0.0000000001
 43
0.0000000001
 12
1.0
 22
0.0
 32
0.0
 13
1.0
 23
0.0
 33
0.0
 40
0.0
 40
0.0
 40
0.0
 40
0.0
 40
0.25
 40
0.25
 40
0.25
 40
0.25
 40
0.5
 40
0.5
 40
0.5
 40
0.5
 40
1.0
 40
1.0
 40
1.0
 40
1.0
 10
49.8564
 20
74.2261
 30
0.0
 10
48.8369
 20
74.1361
 30
0.0
 10
47.5088
 20
73.0881
 30
0.0
 10
47.2865
 20
72.6449
 30
0.0
 10
47.2865
 20
72.6449
 30
0.0
 10
47.3457
 20
73.532
 30
0.0
 10
47.0547
 20
75.8204
 30
0.0
 10
46.6414
 20
77.3716
 30
0.0
 10
46.6414
 20
77.3716
 30
0.0
 10
47.0751
 20
76.8063
 30
0.0
 10
49.3014
 20
74.67
 30
0.0
 10
49.8564
 20
74.2261
 30
0.0
  0
SPLINE
  5
95
330
1F
100
AcDbEntity
  8
layer 1
 62
     7
100
AcDbSpline
210
0.0
220
0.0
230
1.0
 70
    11
 71
     3
 72
    16
 73
    12
 74
     0
 42
0.0000000001
 43
0.0000000001
 12
1.0
 22
0.0
 32
0.0
 13
1.0
 23
0.0
 33
0.0
 40
0.0
 40
0.0
 40
0.0
 40
0.0
 40
0.25
 40
0.25
 40
0.25
 40
0.25
 40
0.5
 40
0.5
 40
0.5
 40
0.5
 40
1.0
 40
1.0
 40
1.0
 40
1.0
 10
54.8047
 20
70.2863
 30
0.0
 10
54.8845
 20
71.5355
 30
0.0
 10
54.028
 20
72.797
 30
0.0
 10
53.383
 20
73.29
 30
0.0
 10
53.383
 20
73.29
 30
0.0
 10
54.7426
 20
73.3002
 30
0.0
 10
55.7928
 20
73.4216
 30
0.0
 10
57.4054
 20
73.4106
 30
0.0
 10
57.4054
 20
73.4106
 30
0.0
 10
56.549
 20
72.4438
 30
0.0
 10
55.3803
 20
71.0118
 30
0.0
 10
54.8047
 20
70.2863
 30
0.0
  0
SPLINE
  5
96
330
1F
100
AcDbEntity
  8
layer 1
 62
     7
100
AcDbSpline
210
0.0
220
0.0
230
1.0
 70
    11
 71
     3
 72
    20
 73
    16
 74
     0
 42
0.0000000001
 43
0.0000000001
 12
1.0
 22
0.0
 32
0.0
 13
1.0
 23
0.0
 33
0.0
 40
0.0
 40
0.0
 40
0.0
 40
0.0
 40
0.2
 40
0.2
 40
0.2
 40
0.2
 40
0.4
 40
0.4
 40
0.4
 40
0.4
 40
0.6
 40
0.6
 40
0.6
 40
0.6
 40
1.0
 40
1.0
 40
1.0
 40
1.0
 10
52.2948
 20
66.1637
 30
0.0
 10
49.9464
 20
65.2686
 30
0.0
 10
48.0632
 20
66.2149
 30
0.0
 10
47.6295
 20
67.0304
 30
0.0
 10
47.6295
 20
67.0304
 30
0.0
 10
47.266
 20
64.26
 30
0.0
 10
46.6619
 20
61.78
 30
0.0
 10
45.6944
 20
59.7959
 30
0.0
 10
45.6944
 20
59.7959
 30
0.0
 10
46.4096
 20
58.9475
 30
0.0
 10
46.9742
 20
58.233
 30
0.0
 10
47.4467
 20
57.7298
 30
0.0
 10
47.4467
 20
57.7298
 30
0.0
 10
47.8416
 20
58.323
 30
0.0
 10
51.7704
 20
65.6913
 30
0.0
 10
52.2948
 20
66.1637
 30
0.0
  0
SPLINE
  5
97
330
1F
100
AcDbEntity
  8
layer 1
 62
     7
100
AcDbSpline
210
0.0
220
0.0
230
1.0
 70
    11
 71
     3
 72
    16
 73
    12
 74
     0
 42
0.0000000001
 43
0.0000000001
 12
1.0
 22
0.0
 32
0.0
 13
1.0
 23
0.0
 33
0.0
 40
0.0
 40
0.0
 40
0.0
 40
0.0
 40
0.25
 40
0.25
 40
0.25
 40
0.25
 40
0.5
 40
0.5
 40
0.5
 40
0.5
 40
1.0
 40
1.0
 40
1.0
 40
1.0
 10
86.0464
 20
78.6822
 30
0.0
 10
85.5023
 20
71.1018
 30
0.0
 10
85.2309
 20
68.4938
 30
0.0
 10
86.5517
 20
63.8673
 30
0.0
 10
86.5517
 20
63.8673
 30
0.0
 10
88.0817
 20
58.0728
 30
0.0
 10
93.343
 20
57.0226
 30
0.0
 10
92.8706
 20
64.8634
 30
0.0
 10
92.8706
 20
64.8634
 30
0.0
 10
92.0939
 20
71.6079
 30
0.0
 10
87.4681
 20
75.9396
 30
0.0
 10
86.0464
 20
78.6822
 30
0.0
  0
SPLINE
  5
98
330
1F
100
AcDbEntity
  8
layer 1
 62
     7
100
AcDbSpline
210
0.0
220
0.0
230
1.0
 70
    11
 71
     3
 72
    24
 73
    20
 74
     0
 42
0.0000000001
 43
0.0000000001
 12
1.0
 22
0.0
 32
0.0
 13
1.0
 23
0.0
 33
0.0
 40
0.0
 40
0.0
 40
0.0
 40
0.0
 40
0.1666666666666667
 40
0.1666666666666667
 40
0.1666666666666667
 40
0.1666666666666667
 40
0.3333333333333333
 40
0.3333333333333333
 40
0.3333333333333333
 40
0.3333333333333333
 40
0.5
 40
0.5
 40
0.5
 40
0.5
 40
0.6666666666666666
 40
0.6666666666666666
 40
0.6666666666666666
 40
0.6666666666666666
 40
1.0
 40
1.0
 40
1.0
 40
1.0
 10
83.75
 20
81.4533
 30
0.0
 10
82.6719
 20
82.8128
 30
0.0
 10
82.4189
 20
83.2875
 30
0.0
 10
81.3095
 20
84.5286
 30
0.0
 10
81.3095
 20
84.5286
 30
0.0
 10
82.318
 20
80.2948
 30
0.0
 10
80.3134
 20
77.0381
 30
0.0
 10
77.4706
 20
77.0798
 30
0.0
 10
77.4706
 20
77.0798
 30
0.0
 10
81.6627
 20
74.1361
 30
0.0
 10
83.7785
 20
67.4253
 30
0.0
 10
81.632
 20
62.7681
 30
0.0
 10
81.632
 20
62.7681
 30
0.0
 10
82.5403
 20
62.6262
 30
0.0
 10
83.1641
 20
62.3944
 30
0.0
 10
83.9306
 20
62.0718
 30
0.0
 10
83.9306
 20
62.0718
 30
0.0
 10
82.2975
 20
67.0406
 30
0.0
 10
82.5608
 20
74.6108
 30
0.0
 10
83.75
 20
81.4533
 30
0.0
  0
SPLINE
  5
99
330
1F
100
AcDbEntity
  8
layer 1
 62
     7
100
AcDbSpline
210
0.0
220
0.0
230
1.0
 70
    11
 71
     3
 72
    16
 73
    12
 74
     0
 42
0.0000000001
 43
0.0000000001
 12
1.0
 22
0.0
 32
0.0
 13
1.0
 23
0.0
 33
0.0
 40
0.0
 40
0.0
 40
0.0
 40
0.0
 40
0.25
 40
0.25
 40
0.25
 40
0.25
 40
0.5
 40
0.5
 40
0.5
 40
0.5
 40
1.0
 40
1.0
 40
1.0
 40
1.0
 10
68.007
 20
79.1539
 30
0.0
 10
66.9904
 20
79.0947
 30
0.0
 10
65.2769
 20
78.6507
 30
0.0
 10
65.0348
 20
78.2178
 30
0.0
 10
65.0348
 20
78.2178
 30
0.0
 10
65.6382
 20
79.4589
 30
0.0
 10
65.93
 20
80.3153
 30
0.0
 10
65.9709
 20
82.1495
 30
0.0
 10
65.9709
 20
82.1495
 30
0.0
 10
66.2342
 20
80.697
 30
0.0
 10
66.9078
 20
79.6081
 30
0.0
 10
68.007
 20
79.1539
 30
0.0
  0
SPLINE
  5
9A
330
1F
100
AcDbEntity
  8
layer 1
 62
     7
100
AcDbSpline
210
0.0
220
0.0
230
1.0
 70
    11
 71
     3
 72
    16
 73
    12
 74
     0
 42
0.0000000001
 43
0.0000000001
 12
1.0
 22
0.0
 32
0.0
 13
1.0
 23
0.0
 33
0.0
 40
0.0
 40
0.0
 40
0.0
 40
0.0
 40
0.25
 40
0.25
 40
0.25
 40
0.25
 40
0.5
 40
0.5
 40
0.5
 40
0.5
 40
1.0
 40
1.0
 40
1.0
 40
1.0
 10
68.7318
 20
87.5212
 30
0.0
 10
67.3517
 20
86.6334
 30
0.0
 10
66.0923
 20
84.6083
 30
0.0
 10
65.8495
 20
84.1644
 30
0.0
 10
65.8495
 20
84.1644
 30
0.0
 10
65.9014
 20
85.5137
 30
0.0
 10
65.881
 20
86.2699
 30
0.0
 10
65.6177
 20
87.168
 30
0.0
 10
65.6177
 20
87.168
 30
0.0
 10
66.4456
 20
87.1088
 30
0.0
 10
67.1191
 20
87.0568
 30
0.0
 10
68.7318
 20
87.5212
 30
0.0
  0
SPLINE
  5
9B
330
1F
100
AcDbEntity
  8
layer 1
 62
     7
100
AcDbSpline
210
0.0
220
0.0
230
1.0
 70
    11
 71
     3
 72
    32
 73
    28
 74
     0
 42
0.0000000001
 43
0.0000000001
 12
1.0
 22
0.0
 32
0.0
 13
1.0
 23
0.0
 33
0.0
 40
0.0
 40
0.0
 40
0.0
 40
0.0
 40
0.125
 40
0.125
 40
0.125
 40
0.125
 40
0.25
 40
0.25
 40
0.25
 40
0.25
 40
0.375
 40
0.375
 40
0.375
 40
0.375
 40
0.5
 40
0.5
 40
0.5
 40
0.5
 40
0.625
 40
0.625
 40
0.625
 40
0.625
 40
0.75
 40
0.75
 40
0.75
 40
0.75
 40
1.0
 40
1.0
 40
1.0
 40
1.0
 10
79.2946
 20
82.0771
 30
0.0
 10
77.8136
 20
85.4544
 30
0.0
 10
71.1723
 20
85.8881
 30
0.0
 10
72.4214
 20
78.6822
 30
0.0
 10
72.4214
 20
78.6822
 30
0.0
 10
71.5335
 20
78.9425
 30
0.0
 10
70.9609
 20
79.0844
 30
0.0
 10
70.133
 20
78.914
 30
0.0
 10
70.133
 20
78.914
 30
0.0
 10
72.9758
 20
80.3848
 30
0.0
 10
70.7291
 20
84.0846
 30
0.0
 10
68.0867
 20
82.8845
 30
0.0
 10
68.0867
 20
82.8845
 30
0.0
 10
69.2554
 20
84.5571
 30
0.0
 10
70.6486
 20
84.1541
 30
0.0
 10
71.565
 20
84.647
 30
0.0
 10
71.565
 20
84.647
 30
0.0
 10
74.2761
 20
86.1309
 30
0.0
 10
74.9701
 20
86.9976
 30
0.0
 10
75.0016
 20
88.94
 30
0.0
 10
75.0016
 20
88.94
 30
0.0
 10
75.2437
 20
90.372
 30
0.0
 10
75.9794
 20
90.764
 30
0.0
 10
76.8665
 20
89.678
 30
0.0
 10
76.8665
 20
89.678
 30
0.0
 10
78.5903
 20
86.2904
 30
0.0
 10
79.3458
 20
84.0846
 30
0.0
 10
79.2946
 20
82.0771
 30
0.0
  0
SPLINE
  5
9C
330
1F
100
AcDbEntity
  8
layer 1
 62
     7
100
AcDbSpline
210
0.0
220
0.0
230
1.0
 70
    11
 71
     3
 72
    16
 73
    12
 74
     0
 42
0.0000000001
 43
0.0000000001
 12
1.0
 22
0.0
 32
0.0
 13
1.0
 23
0.0
 33
0.0
 40
0.0
 40
0.0
 40
0.0
 40
0.0
 40
0.25
 40
0.25
 40
0.25
 40
0.25
 40
0.5
 40
0.5
 40
0.5
 40
0.5
 40
1.0
 40
1.0
 40
1.0
 40
1.0
 10
93.4432
 20
105.5401
 30
0.0
 10
93.4951
 20
102.6579
 30
0.0
 10
93.4951
 20
99.1496
 30
0.0
 10
93.5646
 20
98.0424
 30
0.0
 10
93.5646
 20
98.0424
 30
0.0
 10
92.3052
 20
98.8191
 30
0.0
 10
90.7833
 20
99.8561
 30
0.0
 10
87.8908
 20
98.9997
 30
0.0
 10
87.8908
 20
98.9997
 30
0.0
 10
90.5332
 20
100.9839
 30
0.0
 10
92.7287
 20
103.7366
 30
0.0
 10
93.4432
 20
105.5401
 30
0.0
  0
SPLINE
  5
9D
330
1F
100
AcDbEntity
  8
layer 1
 62
     7
100
AcDbSpline
210
0.0
220
0.0
230
1.0
 70
    11
 71
     3
 72
    16
 73
    12
 74
     0
 42
0.0000000001
 43
0.0000000001
 12
1.0
 22
0.0
 32
0.0
 13
1.0
 23
0.0
 33
0.0
 40
0.0
 40
0.0
 40
0.0
 40
0.0
 40
0.25
 40
0.25
 40
0.25
 40
0.25
 40
0.5
 40
0.5
 40
0.5
 40
0.5
 40
1.0
 40
1.0
 40
1.0
 40
1.0
 10
93.4637
 20
78.7824
 30
0.0
 10
93.4951
 20
75.8702
 30
0.0
 10
93.4951
 20
73.9036
 30
0.0
 10
93.4535
 20
72.2807
 30
0.0
 10
93.4535
 20
72.2807
 30
0.0
 10
91.8723
 20
75.4877
 30
0.0
 10
90.8945
 20
76.9584
 30
0.0
 10
88.5878
 20
79.1956
 30
0.0
 10
88.5878
 20
79.1956
 30
0.0
 10
90.218
 20
78.269
 30
0.0
 10
92.2848
 20
77.9362
 30
0.0
 10
93.4637
 20
78.7824
 30
0.0
  0
SPLINE
  5
9E
330
1F
100
AcDbEntity
  8
layer 1
 62
     7
100
AcDbSpline
210
0.0
220
0.0
230
1.0
 70
    11
 71
     3
 72
    32
 73
    28
 74
     0
 42
0.0000000001
 43
0.0000000001
 12
1.0
 22
0.0
 32
0.0
 13
1.0
 23
0.0
 33
0.0
 40
0.0
 40
0.0
 40
0.0
 40
0.0
 40
0.125
 40
0.125
 40
0.125
 40
0.125
 40
0.25
 40
0.25
 40
0.25
 40
0.25
 40
0.375
 40
0.375
 40
0.375
 40
0.375
 40
0.5
 40
0.5
 40
0.5
 40
0.5
 40
0.625
 40
0.625
 40
0.625
 40
0.625
 40
0.75
 40
0.75
 40
0.75
 40
0.75
 40
1.0
 40
1.0
 40
1.0
 40
1.0
 10
93.4637
 20
89.1339
 30
0.0
 10
93.4951
 20
86.2904
 30
0.0
 10
93.4951
 20
85.0003
 30
0.0
 10
93.4951
 20
83.5405
 30
0.0
 10
93.4951
 20
83.5405
 30
0.0
 10
92.3755
 20
83.6612
 30
0.0
 10
91.4591
 20
82.9233
 30
0.0
 10
91.5805
 20
81.3033
 30
0.0
 10
91.5805
 20
81.3033
 30
0.0
 10
91.6112
 20
80.9603
 30
0.0
 10
90.6231
 20
80.8696
 30
0.0
 10
90.6517
 20
81.2309
 30
0.0
 10
90.6517
 20
81.2309
 30
0.0
 10
91.1058
 20
85.687
 30
0.0
 10
89.2504
 20
88.638
 30
0.0
 10
87.2253
 20
88.3155
 30
0.0
 10
87.2253
 20
88.3155
 30
0.0
 10
87.267
 20
91.5722
 30
0.0
 10
86.7638
 20
93.9505
 30
0.0
 10
85.9974
 20
96.742
 30
0.0
 10
85.9974
 20
96.742
 30
0.0
 10
88.8796
 20
97.9912
 30
0.0
 10
92.4164
 20
95.8652
 30
0.0
 10
92.1634
 20
94.5955
 30
0.0
 10
92.1634
 20
94.5955
 30
0.0
 10
87.9815
 20
93.538
 30
0.0
 10
90.8557
 20
87.7531
 30
0.0
 10
93.4637
 20
89.1339
 30
0.0
  0
SPLINE
  5
9F
330
1F
100
AcDbEntity
  8
layer 1
 62
     7
100
AcDbSpline
210
0.0
220
0.0
230
1.0
 70
    11
 71
     3
 72
    40
 73
    36
 74
     0
 42
0.0000000001
 43
0.0000000001
 12
1.0
 22
0.0
 32
0.0
 13
1.0
 23
0.0
 33
0.0
 40
0.0
 40
0.0
 40
0.0
 40
0.0
 40
0.1
 40
0.1
 40
0.1
 40
0.1
 40
0.2
 40
0.2
 40
0.2
 40
0.2
 40
0.3
 40
0.3
 40
0.3
 40
0.3
 40
0.4
 40
0.4
 40
0.4
 40
0.4
 40
0.5
 40
0.5
 40
0.5
 40
0.5
 40
0.6
 40
0.6
 40
0.6
 40
0.6
 40
0.7
 40
0.7
 40
0.7
 40
0.7
 40
0.8
 40
0.8
 40
0.8
 40
0.8
 40
1.0
 40
1.0
 40
1.0
 40
1.0
 10
83.7682
 20
118.3087
 30
0.0
 10
83.366
 20
120.1429
 30
0.0
 10
82.8935
 20
121.5054
 30
0.0
 10
81.8148
 20
123.7909
 30
0.0
 10
81.8148
 20
123.7909
 30
0.0
 10
83.5181
 20
123.3192
 30
0.0
 10
88.4664
 20
121.4433
 30
0.0
 10
91.4181
 20
119.005
 30
0.0
 10
91.4181
 20
119.005
 30
0.0
 10
91.7816
 20
118.7036
 30
0.0
 10
91.8233
 20
118.218
 30
0.0
 10
91.4284
 20
118.2882
 30
0.0
 10
91.4284
 20
118.2882
 30
0.0
 10
88.5673
 20
120.004
 30
0.0
 10
86.3587
 20
117.7639
 30
0.0
 10
86.3894
 20
115.1661
 30
0.0
 10
86.3894
 20
115.1661
 30
0.0
 10
86.4208
 20
112.6664
 30
0.0
 10
89.0317
 20
110.1067
 30
0.0
 10
92.6175
 20
111.9899
 30
0.0
 10
92.6175
 20
111.9899
 30
0.0
 10
92.9503
 20
107.1316
 30
0.0
 10
85.2616
 20
100.8654
 30
0.0
 10
85.3319
 20
99.9154
 30
0.0
 10
85.3319
 20
99.9154
 30
0.0
 10
83.3448
 20
107.212
 30
0.0
 10
79.4752
 20
115.6488
 30
0.0
 10
72.8134
 20
124.7687
 30
0.0
 10
72.8134
 20
124.7687
 30
0.0
 10
73.34
 20
125.1636
 30
0.0
 10
74.0933
 20
125.7575
 30
0.0
 10
74.7303
 20
126.5027
 30
0.0
 10
74.7303
 20
126.5027
 30
0.0
 10
75.6466
 20
118.229
 30
0.0
 10
82.3282
 20
118.1076
 30
0.0
 10
83.7682
 20
118.3087
 30
0.0
  0
SPLINE
  5
A0
330
1F
100
AcDbEntity
  8
layer 1
 62
     7
100
AcDbSpline
210
0.0
220
0.0
230
1.0
 70
    11
 71
     3
 72
    16
 73
    12
 74
     0
 42
0.0000000001
 43
0.0000000001
 12
1.0
 22
0.0
 32
0.0
 13
1.0
 23
0.0
 33
0.0
 40
0.0
 40
0.0
 40
0.0
 40
0.0
 40
0.25
 40
0.25
 40
0.25
 40
0.25
 40
0.5
 40
0.5
 40
0.5
 40
0.5
 40
1.0
 40
1.0
 40
1.0
 40
1.0
 10
89.7463
 20
126.5832
 30
0.0
 10
90.8352
 20
124.8799
 30
0.0
 10
91.3486
 20
123.4091
 30
0.0
 10
91.6602
 20
121.5851
 30
0.0
 10
91.6602
 20
121.5851
 30
0.0
 10
88.7268
 20
123.5898
 30
0.0
 10
87.0447
 20
124.2348
 30
0.0
 10
82.7209
 20
125.2433
 30
0.0
 10
82.7209
 20
125.2433
 30
0.0
 10
86.5517
 20
126.3916
 30
0.0
 10
87.8009
 20
126.5232
 30
0.0
 10
89.7463
 20
126.5832
 30
0.0
  0
SPLINE
  5
A1
330
1F
100
AcDbEntity
  8
layer 1
 62
     7
100
AcDbSpline
210
0.0
220
0.0
230
1.0
 70
    11
 71
     3
 72
    40
 73
    36
 74
     0
 42
0.0000000001
 43
0.0000000001
 12
1.0
 22
0.0
 32
0.0
 13
1.0
 23
0.0
 33
0.0
 40
0.0
 40
0.0
 40
0.0
 40
0.0
 40
0.1
 40
0.1
 40
0.1
 40
0.1
 40
0.2
 40
0.2
 40
0.2
 40
0.2
 40
0.3
 40
0.3
 40
0.3
 40
0.3
 40
0.4
 40
0.4
 40
0.4
 40
0.4
 40
0.5
 40
0.5
 40
0.5
 40
0.5
 40
0.6
 40
0.6
 40
0.6
 40
0.6
 40
0.7
 40
0.7
 40
0.7
 40
0.7
 40
0.8
 40
0.8
 40
0.8
 40
0.8
 40
1.0
 40
1.0
 40
1.0
 40
1.0
 10
31.5223
 20
66.0138
 30
0.0
 10
31.9173
 20
64.1898
 30
0.0
 10
32.3999
 20
62.8281
 30
0.0
 10
33.4677
 20
60.5316
 30
0.0
 10
33.4677
 20
60.5316
 30
0.0
 10
31.7754
 20
61.0143
 30
0.0
 10
26.8271
 20
62.8895
 30
0.0
 10
23.8754
 20
65.3176
 30
0.0
 10
23.8754
 20
65.3176
 30
0.0
 10
23.5017
 20
65.6298
 30
0.0
 10
23.46
 20
66.1147
 30
0.0
 10
23.8651
 20
66.0423
 30
0.0
 10
23.8651
 20
66.0423
 30
0.0
 10
26.7262
 20
64.3295
 30
0.0
 10
28.9246
 20
66.5689
 30
0.0
 10
28.8939
 20
69.1666
 30
0.0
 10
28.8939
 20
69.1666
 30
0.0
 10
28.8624
 20
71.6569
 30
0.0
 10
26.2618
 20
74.2261
 30
0.0
 10
22.676
 20
72.3429
 30
0.0
 10
22.676
 20
72.3429
 30
0.0
 10
22.3432
 20
77.2012
 30
0.0
 10
30.0209
 20
83.4579
 30
0.0
 10
29.9616
 20
84.4072
 30
0.0
 10
29.9616
 20
84.4072
 30
0.0
 10
31.9487
 20
77.1186
 30
0.0
 10
35.8183
 20
68.6737
 30
0.0
 10
42.4801
 20
59.5538
 30
0.0
 10
42.4801
 20
59.5538
 30
0.0
 10
41.9535
 20
59.1589
 30
0.0
 10
41.19
 20
58.5658
 30
0.0
 10
40.5632
 20
57.83
 30
0.0
 10
40.5632
 20
57.83
 30
0.0
 10
39.6366
 20
66.1045
 30
0.0
 10
32.9645
 20
66.2259
 30
0.0
 10
31.5223
 20
66.0138
 30
0.0
  0
SPLINE
  5
A2
330
1F
100
AcDbEntity
  8
layer 1
 62
     7
100
AcDbSpline
210
0.0
220
0.0
230
1.0
 70
    11
 71
     3
 72
    16
 73
    12
 74
     0
 42
0.0000000001
 43
0.0000000001
 12
1.0
 22
0.0
 32
0.0
 13
1.0
 23
0.0
 33
0.0
 40
0.0
 40
0.0
 40
0.0
 40
0.0
 40
0.25
 40
0.25
 40
0.25
 40
0.25
 40
0.5
 40
0.5
 40
0.5
 40
0.5
 40
1.0
 40
1.0
 40
1.0
 40
1.0
 10
26.0913
 20
57.2962
 30
0.0
 10
25.2247
 20
58.9885
 30
0.0
 10
23.7642
 20
61.0136
 30
0.0
 10
22.9466
 20
62.9283
 30
0.0
 10
22.9466
 20
62.9283
 30
0.0
 10
25.88
 20
60.9236
 30
0.0
 10
28.0682
 20
59.7754
 30
0.0
 10
32.3817
 20
58.7669
 30
0.0
 10
32.3817
 20
58.7669
 30
0.0
 10
29.3268
 20
58.8466
 30
0.0
 10
27.663
 20
58.3434
 30
0.0
 10
26.0913
 20
57.2962
 30
0.0
  0
SPLINE
  5
A3
330
1F
100
AcDbEntity
  8
layer 1
 62
     7
100
AcDbSpline
210
0.0
220
0.0
230
1.0
 70
    11
 71
     3
 72
    16
 73
    12
 74
     0
 42
0.0000000001
 43
0.0000000001
 12
1.0
 22
0.0
 32
0.0
 13
1.0
 23
0.0
 33
0.0
 40
0.0
 40
0.0
 40
0.0
 40
0.0
 40
0.25
 40
0.25
 40
0.25
 40
0.25
 40
0.5
 40
0.5
 40
0.5
 40
0.5
 40
1.0
 40
1.0
 40
1.0
 40
1.0
 10
21.0531
 20
52.7501
 30
0.0
 10
21.0114
 20
54.4037
 30
0.0
 10
21.0114
 20
57.1952
 30
0.0
 10
21.0429
 20
59.3805
 30
0.0
 10
21.0429
 20
59.3805
 30
0.0
 10
22.2423
 20
57.6984
 30
0.0
 10
22.6548
 20
56.9634
 30
0.0
 10
23.8856
 20
55.5417
 30
0.0
 10
23.8856
 20
55.5417
 30
0.0
 10
22.6445
 20
54.5741
 30
0.0
 10
21.7186
 20
53.6168
 30
0.0
 10
21.0531
 20
52.7501
 30
0.0
  0
SPLINE
  5
A4
330
1F
100
AcDbEntity
  8
layer 1
 62
     7
100
AcDbSpline
210
0.0
220
0.0
230
1.0
 70
    11
 71
     3
 72
    20
 73
    16
 74
     0
 42
0.0000000001
 43
0.0000000001
 12
1.0
 22
0.0
 32
0.0
 13
1.0
 23
0.0
 33
0.0
 40
0.0
 40
0.0
 40
0.0
 40
0.0
 40
0.2
 40
0.2
 40
0.2
 40
0.2
 40
0.4
 40
0.4
 40
0.4
 40
0.4
 40
0.6
 40
0.6
 40
0.6
 40
0.6
 40
1.0
 40
1.0
 40
1.0
 40
1.0
 10
41.8146
 20
54.9281
 30
0.0
 10
42.6812
 20
55.6221
 30
0.0
 10
43.2539
 20
56.3776
 30
0.0
 10
43.8989
 20
57.2859
 30
0.0
 10
43.8989
 20
57.2859
 30
0.0
 10
44.6653
 20
56.2174
 30
0.0
 10
45.1788
 20
55.753
 30
0.0
 10
45.935
 20
54.9763
 30
0.0
 10
45.935
 20
54.9763
 30
0.0
 10
45.3104
 20
54.1821
 30
0.0
 10
44.5856
 20
53.4156
 30
0.0
 10
44.0613
 20
52.6287
 30
0.0
 10
44.0613
 20
52.6287
 30
0.0
 10
43.5069
 20
53.3952
 30
0.0
 10
42.8516
 20
54.03
 30
0.0
 10
41.8146
 20
54.9281
 30
0.0
  0
SPLINE
  5
A5
330
1F
100
AcDbEntity
  8
layer 1
 62
     7
100
AcDbSpline
210
0.0
220
0.0
230
1.0
 70
    11
 71
     3
 72
    16
 73
    12
 74
     0
 42
0.0000000001
 43
0.0000000001
 12
1.0
 22
0.0
 32
0.0
 13
1.0
 23
0.0
 33
0.0
 40
0.0
 40
0.0
 40
0.0
 40
0.0
 40
0.25
 40
0.25
 40
0.25
 40
0.25
 40
0.5
 40
0.5
 40
0.5
 40
0.5
 40
1.0
 40
1.0
 40
1.0
 40
1.0
 10
90.079
 20
54.2516
 30
0.0
 10
88.0122
 20
54.6853
 30
0.0
 10
85.1512
 20
54.3934
 30
0.0
 10
83.4172
 20
53.2738
 30
0.0
 10
83.4172
 20
53.2738
 30
0.0
 10
84.0213
 20
54.5251
 30
0.0
 10
84.8389
 20
56.9012
 30
0.0
 10
84.1836
 20
59.1099
 30
0.0
 10
84.1836
 20
59.1099
 30
0.0
 10
86.3484
 20
58.4239
 30
0.0
 10
89.4545
 20
55.6111
 30
0.0
 10
90.079
 20
54.2516
 30
0.0
  0
SPLINE
  5
A6
330
1F
100
AcDbEntity
  8
layer 1
 62
     7
100
AcDbSpline
210
0.0
220
0.0
230
1.0
 70
    11
 71
     3
 72
    20
 73
    16
 74
     0
 42
0.0000000001
 43
0.0000000001
 12
1.0
 22
0.0
 32
0.0
 13
1.0
 23
0.0
 33
0.0
 40
0.0
 40
0.0
 40
0.0
 40
0.0
 40
0.2
 40
0.2
 40
0.2
 40
0.2
 40
0.4
 40
0.4
 40
0.4
 40
0.4
 40
0.6
 40
0.6
 40
0.6
 40
0.6
 40
1.0
 40
1.0
 40
1.0
 40
1.0
 10
81.8258
 20
57.234
 30
0.0
 10
81.9443
 20
55.4415
 30
0.0
 10
80.8472
 20
52.8401
 30
0.0
 10
76.4716
 20
52.1358
 30
0.0
 10
76.4716
 20
52.1358
 30
0.0
 10
78.2261
 20
53.0522
 30
0.0
 10
77.7229
 20
55.9337
 30
0.0
 10
76.25
 20
56.6818
 30
0.0
 10
76.25
 20
56.6818
 30
0.0
 10
77.3002
 20
56.9736
 30
0.0
 10
77.8034
 20
57.3861
 30
0.0
 10
78.6079
 20
58.3332
 30
0.0
 10
78.6079
 20
58.3332
 30
0.0
 10
78.4484
 20
56.8522
 30
0.0
 10
80.102
 20
55.8049
 30
0.0
 10
81.8258
 20
57.234
 30
0.0
  0
SPLINE
  5
A7
330
1F
100
AcDbEntity
  8
layer 1
 62
     7
100
AcDbSpline
210
0.0
220
0.0
230
1.0
 70
    11
 71
     3
 72
    12
 73
     8
 74
     0
 42
0.0000000001
 43
0.0000000001
 12
1.0
 22
0.0
 32
0.0
 13
1.0
 23
0.0
 33
0.0
 40
0.0
 40
0.0
 40
0.0
 40
0.0
 40
0.3333333333333333
 40
0.3333333333333333
 40
0.3333333333333333
 40
0.3333333333333333
 40
1.0
 40
1.0
 40
1.0
 40
1.0
 10
76.8358
 20
60.6318
 30
0.0
 10
76.0796
 20
58.4239
 30
0.0
 10
71.6162
 20
57.6677
 30
0.0
 10
70.223
 20
59.4814
 30
0.0
 10
70.223
 20
59.4814
 30
0.0
 10
71.4743
 20
60.2193
 30
0.0
 10
74.2351
 20
60.6706
 30
0.0
 10
76.8358
 20
60.6318
 30
0.0
  0
SPLINE
  5
A8
330
1F
100
AcDbEntity
  8
layer 1
 62
     7
100
AcDbSpline
210
0.0
220
0.0
230
1.0
 70
    11
 71
     3
 72
    12
 73
     8
 74
     0
 42
0.0000000001
 43
0.0000000001
 12
1.0
 22
0.0
 32
0.0
 13
1.0
 23
0.0
 33
0.0
 40
0.0
 40
0.0
 40
0.0
 40
0.0
 40
0.3333333333333333
 40
0.3333333333333333
 40
0.3333333333333333
 40
0.3333333333333333
 40
1.0
 40
1.0
 40
1.0
 40
1.0
 10
36.0194
 20
55.3998
 30
0.0
 10
34.82
 20
53.3952
 30
0.0
 10
30.3046
 20
53.5678
 30
0.0
 10
29.3166
 20
55.6323
 30
0.0
 10
29.3166
 20
55.6323
 30
0.0
 10
30.6864
 20
56.0967
 30
0.0
 10
33.4779
 20
55.9753
 30
0.0
 10
36.0194
 20
55.3998
 30
0.0
  0
SPLINE
  5
A9
330
1F
100
AcDbEntity
  8
layer 1
 62
     7
100
AcDbSpline
210
0.0
220
0.0
230
1.0
 70
    11
 71
     3
 72
    20
 73
    16
 74
     0
 42
0.0000000001
 43
0.0000000001
 12
1.0
 22
0.0
 32
0.0
 13
1.0
 23
0.0
 33
0.0
 40
0.0
 40
0.0
 40
0.0
 40
0.0
 40
0.2
 40
0.2
 40
0.2
 40
0.2
 40
0.4
 40
0.4
 40
0.4
 40
0.4
 40
0.6
 40
0.6
 40
0.6
 40
0.6
 40
1.0
 40
1.0
 40
1.0
 40
1.0
 10
60.3184
 20
54.4037
 30
0.0
 10
64.6918
 20
55.2191
 30
0.0
 10
67.1089
 20
54.9485
 30
0.0
 10
72.1991
 20
52.7194
 30
0.0
 10
72.1991
 20
52.7194
 30
0.0
 10
71.3222
 20
54.0709
 30
0.0
 10
71.5335
 20
55.1394
 30
0.0
 10
71.998
 20
56.1662
 30
0.0
 10
71.998
 20
56.1662
 30
0.0
 10
69.6401
 20
55.7428
 30
0.0
 10
68.3295
 20
56.1479
 30
0.0
 10
66.6577
 20
58.0414
 30
0.0
 10
66.6577
 20
58.0414
 30
0.0
 10
65.1452
 20
57.5777
 30
0.0
 10
62.6974
 20
55.7325
 30
0.0
 10
60.3184
 20
54.4037
 30
0.0
  0
SPLINE
  5
AA
330
1F
100
AcDbEntity
  8
layer 1
 62
     7
100
AcDbSpline
210
0.0
220
0.0
230
1.0
 70
    11
 71
     3
 72
    16
 73
    12
 74
     0
 42
0.0000000001
 43
0.0000000001
 12
1.0
 22
0.0
 32
0.0
 13
1.0
 23
0.0
 33
0.0
 40
0.0
 40
0.0
 40
0.0
 40
0.0
 40
0.25
 40
0.25
 40
0.25
 40
0.25
 40
0.5
 40
0.5
 40
0.5
 40
0.5
 40
1.0
 40
1.0
 40
1.0
 40
1.0
 10
50.5812
 20
54.2413
 30
0.0
 10
52.0549
 20
53.9992
 30
0.0
 10
53.2726
 20
53.9707
 30
0.0
 10
54.9569
 20
54.321
 30
0.0
 10
54.9569
 20
54.321
 30
0.0
 10
54.1085
 20
53.5268
 30
0.0
 10
53.293
 20
52.4481
 30
0.0
 10
52.7694
 20
51.6611
 30
0.0
 10
52.7694
 20
51.6611
 30
0.0
 10
52.2143
 20
52.2959
 30
0.0
 10
51.2987
 20
53.4361
 30
0.0
 10
50.5812
 20
54.2413
 30
0.0
  0
SPLINE
  5
AB
330
1F
100
AcDbEntity
  8
layer 1
 62
     7
100
AcDbSpline
210
0.0
220
0.0
230
1.0
 70
    11
 71
     3
 72
    52
 73
    48
 74
     0
 42
0.0000000001
 43
0.0000000001
 12
1.0
 22
0.0
 32
0.0
 13
1.0
 23
0.0
 33
0.0
 40
0.0
 40
0.0
 40
0.0
 40
0.0
 40
0.0769230769230769
 40
0.0769230769230769
 40
0.0769230769230769
 40
0.0769230769230769
 40
0.1538461538461539
 40
0.1538461538461539
 40
0.1538461538461539
 40
0.1538461538461539
 40
0.2307692307692308
 40
0.2307692307692308
 40
0.2307692307692308
 40
0.2307692307692308
 40
0.3076923076923077
 40
0.3076923076923077
 40
0.3076923076923077
 40
0.3076923076923077
 40
0.3846153846153846
 40
0.3846153846153846
 40
0.3846153846153846
 40
0.3846153846153846
 40
0.4615384615384616
 40
0.4615384615384616
 40
0.4615384615384616
 40
0.4615384615384616
 40
0.5384615384615384
 40
0.5384615384615384
 40
0.5384615384615384
 40
0.5384615384615384
 40
0.6153846153846154
 40
0.6153846153846154
 40
0.6153846153846154
 40
0.6153846153846154
 40
0.6923076923076923
 40
0.6923076923076923
 40
0.6923076923076923
 40
0.6923076923076923
 40
0.7692307692307693
 40
0.7692307692307693
 40
0.7692307692307693
 40
0.7692307692307693
 40
0.8461538461538461
 40
0.8461538461538461
 40
0.8461538461538461
 40
0.8461538461538461
 40
1.0
 40
1.0
 40
1.0
 40
1.0
 10
50.7823
 20
57.9514
 30
0.0
 10
49.8148
 20
56.6511
 30
0.0
 10
50.6434
 20
56.3491
 30
0.0
 10
51.6285
 20
56.3286
 30
0.0
 10
51.6285
 20
56.3286
 30
0.0
 10
53.1022
 20
56.3593
 30
0.0
 10
56.0327
 20
56.7001
 30
0.0
 10
57.4442
 20
58.1014
 30
0.0
 10
57.4442
 20
58.1014
 30
0.0
 10
56.3274
 20
57.879
 30
0.0
 10
52.8798
 20
60.9134
 30
0.0
 10
56.3969
 20
63.8366
 30
0.0
 10
56.3969
 20
63.8366
 30
0.0
 10
58.6129
 20
65.6708
 30
0.0
 10
63.1999
 20
63.2018
 30
0.0
 10
61.2859
 20
58.7354
 30
0.0
 10
61.2859
 20
58.7354
 30
0.0
 10
62.2118
 20
58.9783
 30
0.0
 10
63.5714
 20
59.6643
 30
0.0
 10
64.3693
 20
60.2581
 30
0.0
 10
64.3693
 20
60.2581
 30
0.0
 10
61.2654
 20
68.3
 30
0.0
 10
67.1711
 20
71.406
 30
0.0
 10
68.9431
 20
71.6773
 30
0.0
 10
68.9431
 20
71.6773
 30
0.0
 10
72.4726
 20
71.7366
 30
0.0
 10
73.8921
 20
69.8636
 30
0.0
 10
73.9923
 20
68.1296
 30
0.0
 10
73.9923
 20
68.1296
 30
0.0
 10
74.1657
 20
65.2166
 30
0.0
 10
70.427
 20
62.224
 30
0.0
 10
67.1396
 20
66.3159
 30
0.0
 10
67.1396
 20
66.3159
 30
0.0
 10
66.3037
 20
65.2064
 30
0.0
 10
66.1026
 20
61.9424
 30
0.0
 10
67.4314
 20
61.538
 30
0.0
 10
67.4314
 20
61.538
 30
0.0
 10
69.3585
 20
62.5158
 30
0.0
 10
73.5411
 20
63.3619
 30
0.0
 10
78.8507
 20
63.0599
 30
0.0
 10
78.8507
 20
63.0599
 30
0.0
 10
82.2975
 20
75.1242
 30
0.0
 10
69.4982
 20
79.7602
 30
0.0
 10
62.0597
 20
73.4216
 30
0.0
 10
62.0597
 20
73.4216
 30
0.0
 10
56.2469
 20
68.5216
 30
0.0
 10
52.8696
 20
60.5806
 30
0.0
 10
50.7823
 20
57.9514
 30
0.0
  0
SPLINE
  5
AC
330
1F
100
AcDbEntity
  8
layer 1
 62
     7
100
AcDbSpline
210
0.0
220
0.0
230
1.0
 70
    11
 71
     3
 72
    16
 73
    12
 74
     0
 42
0.0000000001
 43
0.0000000001
 12
1.0
 22
0.0
 32
0.0
 13
1.0
 23
0.0
 33
0.0
 40
0.0
 40
0.0
 40
0.0
 40
0.0
 40
0.25
 40
0.25
 40
0.25
 40
0.25
 40
0.5
 40
0.5
 40
0.5
 40
0.5
 40
1.0
 40
1.0
 40
1.0
 40
1.0
 10
93.4739
 20
57.6494
 30
0.0
 10
93.4739
 20
57.6494
 30
0.0
 10
93.4739
 20
54.8578
 30
0.0
 10
93.4739
 20
54.8578
 30
0.0
 10
93.4739
 20
54.8578
 30
0.0
 10
92.9298
 20
55.6938
 30
0.0
 10
92.3155
 20
56.2072
 30
0.0
 10
91.65
 20
56.5992
 30
0.0
 10
91.65
 20
56.5992
 30
0.0
 10
92.6073
 20
56.8215
 30
0.0
 10
93.1309
 20
57.2055
 30
0.0
 10
93.4739
 20
57.6494
 30
0.0
  0
SPLINE
  5
AD
330
1F
100
AcDbEntity
  8
layer 1
 62
     7
100
AcDbSpline
210
0.0
220
0.0
230
1.0
 70
    11
 71
     3
 72
    16
 73
    12
 74
     0
 42
0.0000000001
 43
0.0000000001
 12
1.0
 22
0.0
 32
0.0
 13
1.0
 23
0.0
 33
0.0
 40
0.0
 40
0.0
 40
0.0
 40
0.0
 40
0.25
 40
0.25
 40
0.25
 40
0.25
 40
0.5
 40
0.5
 40
0.5
 40
0.5
 40
1.0
 40
1.0
 40
1.0
 40
1.0
 10
42.6088
 20
-86.8631
 30
0.0
 10
42.1166
 20
-91.9124
 30
0.0
 10
38.7495
 20
-93.4548
 30
0.0
 10
36.2702
 20
-92.6291
 30
0.0
 10
36.2702
 20
-92.6291
 30
0.0
 10
37.7015
 20
-95.8624
 30
0.0
 10
41.198
 20
-103.0193
 30
0.0
 10
43.4864
 20
-104.5105
 30
0.0
 10
43.4864
 20
-104.5105
 30
0.0
 10
45.8545
 20
-100.671
 30
0.0
 10
44.5257
 20
-89.4536
 30
0.0
 10
42.6088
 20
-86.8631
 30
0.0
  0
SPLINE
  5
AE
330
1F
100
AcDbEntity
  8
layer 1
 62
     7
100
AcDbSpline
210
0.0
220
0.0
230
1.0
 70
    11
 71
     3
 72
    16
 73
    12
 74
     0
 42
0.0000000001
 43
0.0000000001
 12
1.0
 22
0.0
 32
0.0
 13
1.0
 23
0.0
 33
0.0
 40
0.0
 40
0.0
 40
0.0
 40
0.0
 40
0.25
 40
0.25
 40
0.25
 40
0.25
 40
0.5
 40
0.5
 40
0.5
 40
0.5
 40
1.0
 40
1.0
 40
1.0
 40
1.0
 10
36.3009
 20
-75.637
 30
0.0
 10
34.8302
 20
-76.1606
 30
0.0
 10
32.4899
 20
-77.5414
 30
0.0
 10
31.5333
 20
-78.6092
 30
0.0
 10
31.5333
 20
-78.6092
 30
0.0
 10
30.818
 20
-75.9697
 30
0.0
 10
30.5862
 20
-71.646
 30
0.0
 10
30.919
 20
-68.883
 30
0.0
 10
30.919
 20
-68.883
 30
0.0
 10
33.1971
 20
-71.6563
 30
0.0
 10
34.2649
 20
-73.2374
 30
0.0
 10
36.3009
 20
-75.637
 30
0.0
  0
SPLINE
  5
AF
330
1F
100
AcDbEntity
  8
layer 1
 62
     7
100
AcDbSpline
210
0.0
220
0.0
230
1.0
 70
    11
 71
     3
 72
    20
 73
    16
 74
     0
 42
0.0000000001
 43
0.0000000001
 12
1.0
 22
0.0
 32
0.0
 13
1.0
 23
0.0
 33
0.0
 40
0.0
 40
0.0
 40
0.0
 40
0.0
 40
0.2
 40
0.2
 40
0.2
 40
0.2
 40
0.4
 40
0.4
 40
0.4
 40
0.4
 40
0.6
 40
0.6
 40
0.6
 40
0.6
 40
1.0
 40
1.0
 40
1.0
 40
1.0
 10
37.2685
 20
-78.0548
 30
0.0
 10
35.9887
 20
-78.7101
 30
0.0
 10
33.9014
 20
-79.7676
 30
0.0
 10
32.25
 20
-81.4424
 30
0.0
 10
32.25
 20
-81.4424
 30
0.0
 10
32.6011
 20
-83.8003
 30
0.0
 10
33.1664
 20
-85.312
 30
0.0
 10
34.3066
 20
-87.6186
 30
0.0
 10
34.3066
 20
-87.6186
 30
0.0
 10
35.1425
 20
-84.9382
 30
0.0
 10
38.729
 20
-85.5241
 30
0.0
 10
39.366
 20
-87.5982
 30
0.0
 10
39.366
 20
-87.5982
 30
0.0
 10
40.7746
 20
-84.1228
 30
0.0
 10
39.4662
 20
-80.7666
 30
0.0
 10
37.2685
 20
-78.0548
 30
0.0
  0
SPLINE
  5
B0
330
1F
100
AcDbEntity
  8
layer 1
 62
     7
100
AcDbSpline
210
0.0
220
0.0
230
1.0
 70
    11
 71
     3
 72
    16
 73
    12
 74
     0
 42
0.0000000001
 43
0.0000000001
 12
1.0
 22
0.0
 32
0.0
 13
1.0
 23
0.0
 33
0.0
 40
0.0
 40
0.0
 40
0.0
 40
0.0
 40
0.25
 40
0.25
 40
0.25
 40
0.25
 40
0.5
 40
0.5
 40
0.5
 40
0.5
 40
1.0
 40
1.0
 40
1.0
 40
1.0
 10
29.2266
 20
-62.3733
 30
0.0
 10
29.7605
 20
-54.8031
 30
0.0
 10
30.0311
 20
-52.1849
 30
0.0
 10
28.7132
 20
-47.5694
 30
0.0
 10
28.7132
 20
-47.5694
 30
0.0
 10
27.1803
 20
-41.7742
 30
0.0
 10
21.9198
 20
-40.724
 30
0.0
 10
22.3922
 20
-48.5647
 30
0.0
 10
22.3922
 20
-48.5647
 30
0.0
 10
23.1689
 20
-55.3092
 30
0.0
 10
27.7947
 20
-59.641
 30
0.0
 10
29.2266
 20
-62.3733
 30
0.0
  0
SPLINE
  5
B1
330
1F
100
AcDbEntity
  8
layer 1
 62
     7
100
AcDbSpline
210
0.0
220
0.0
230
1.0
 70
    11
 71
     3
 72
    16
 73
    12
 74
     0
 42
0.0000000001
 43
0.0000000001
 12
1.0
 22
0.0
 32
0.0
 13
1.0
 23
0.0
 33
0.0
 40
0.0
 40
0.0
 40
0.0
 40
0.0
 40
0.25
 40
0.25
 40
0.25
 40
0.25
 40
0.5
 40
0.5
 40
0.5
 40
0.5
 40
1.0
 40
1.0
 40
1.0
 40
1.0
 10
21.0012
 20
-62.9489
 30
0.0
 10
22.3118
 20
-61.6588
 30
0.0
 10
23.1791
 20
-61.6588
 30
0.0
 10
25.9604
 20
-62.8172
 30
0.0
 10
25.9604
 20
-62.8172
 30
0.0
 10
23.9661
 20
-60.4484
 30
0.0
 10
22.1004
 20
-58.4233
 30
0.0
 10
21.0217
 20
-55.3377
 30
0.0
 10
21.0217
 20
-55.3377
 30
0.0
 10
21.0217
 20
-55.3377
 30
0.0
 10
21.0012
 20
-62.9489
 30
0.0
 10
21.0012
 20
-62.9489
 30
0.0
  0
SPLINE
  5
B2
330
1F
100
AcDbEntity
  8
layer 1
 62
     7
100
AcDbSpline
210
0.0
220
0.0
230
1.0
 70
    11
 71
     3
 72
    32
 73
    28
 74
     0
 42
0.0000000001
 43
0.0000000001
 12
1.0
 22
0.0
 32
0.0
 13
1.0
 23
0.0
 33
0.0
 40
0.0
 40
0.0
 40
0.0
 40
0.0
 40
0.125
 40
0.125
 40
0.125
 40
0.125
 40
0.25
 40
0.25
 40
0.25
 40
0.25
 40
0.375
 40
0.375
 40
0.375
 40
0.375
 40
0.5
 40
0.5
 40
0.5
 40
0.5
 40
0.625
 40
0.625
 40
0.625
 40
0.625
 40
0.75
 40
0.75
 40
0.75
 40
0.75
 40
1.0
 40
1.0
 40
1.0
 40
1.0
 10
20.9419
 20
-72.8535
 30
0.0
 10
25.3563
 20
-71.2818
 30
0.0
 10
27.1189
 20
-77.4302
 30
0.0
 10
22.7557
 20
-78.6509
 30
0.0
 10
22.7557
 20
-78.6509
 30
0.0
 10
24.2674
 20
-80.4748
 30
0.0
 10
27.8671
 20
-80.8156
 30
0.0
 10
28.7132
 20
-80.7871
 30
0.0
 10
28.7132
 20
-80.7871
 30
0.0
 10
29.6391
 20
-80.7454
 30
0.0
 10
27.7354
 20
-72.8352
 30
0.0
 10
27.7947
 20
-72.2392
 30
0.0
 10
27.7947
 20
-72.2392
 30
0.0
 10
25.488
 20
-71.7674
 30
0.0
 10
24.3683
 20
-68.48
 30
0.0
 10
24.7318
 20
-64.7107
 30
0.0
 10
24.7318
 20
-64.7107
 30
0.0
 10
24.1255
 20
-64.4086
 30
0.0
 10
23.6018
 20
-64.228
 30
0.0
 10
22.9985
 20
-64.2565
 30
0.0
 10
22.9985
 20
-64.2565
 30
0.0
 10
25.3052
 20
-66.2436
 30
0.0
 10
21.3961
 20
-69.0249
 30
0.0
 10
20.9909
 20
-65.366
 30
0.0
 10
20.9909
 20
-65.366
 30
0.0
 10
20.9909
 20
-65.366
 30
0.0
 10
20.9419
 20
-72.8535
 30
0.0
 10
20.9419
 20
-72.8535
 30
0.0
  0
SPLINE
  5
B3
330
1F
100
AcDbEntity
  8
layer 1
 62
     7
100
AcDbSpline
210
0.0
220
0.0
230
1.0
 70
    11
 71
     3
 72
    16
 73
    12
 74
     0
 42
0.0000000001
 43
0.0000000001
 12
1.0
 22
0.0
 32
0.0
 13
1.0
 23
0.0
 33
0.0
 40
0.0
 40
0.0
 40
0.0
 40
0.0
 40
0.25
 40
0.25
 40
0.25
 40
0.25
 40
0.5
 40
0.5
 40
0.5
 40
0.5
 40
1.0
 40
1.0
 40
1.0
 40
1.0
 10
21.0429
 20
-81.5916
 30
0.0
 10
22.3432
 20
-82.8817
 30
0.0
 10
23.5017
 20
-83.2664
 30
0.0
 10
26.182
 20
-83.3052
 30
0.0
 10
26.182
 20
-83.3052
 30
0.0
 10
23.7335
 20
-85.4231
 30
0.0
 10
22.1004
 20
-87.9024
 30
0.0
 10
21.0217
 20
-90.996
 30
0.0
 10
21.0217
 20
-90.996
 30
0.0
 10
21.0217
 20
-90.996
 30
0.0
 10
21.0429
 20
-81.5916
 30
0.0
 10
21.0429
 20
-81.5916
 30
0.0
  0
SPLINE
  5
B4
330
1F
100
AcDbEntity
  8
layer 1
 62
     7
100
AcDbSpline
210
0.0
220
0.0
230
1.0
 70
    11
 71
     3
 72
    40
 73
    36
 74
     0
 42
0.0000000001
 43
0.0000000001
 12
1.0
 22
0.0
 32
0.0
 13
1.0
 23
0.0
 33
0.0
 40
0.0
 40
0.0
 40
0.0
 40
0.0
 40
0.1
 40
0.1
 40
0.1
 40
0.1
 40
0.2
 40
0.2
 40
0.2
 40
0.2
 40
0.3
 40
0.3
 40
0.3
 40
0.3
 40
0.4
 40
0.4
 40
0.4
 40
0.4
 40
0.5
 40
0.5
 40
0.5
 40
0.5
 40
0.6
 40
0.6
 40
0.6
 40
0.6
 40
0.7
 40
0.7
 40
0.7
 40
0.7
 40
0.8
 40
0.8
 40
0.8
 40
0.8
 40
1.0
 40
1.0
 40
1.0
 40
1.0
 10
31.2108
 20
-102.0101
 30
0.0
 10
31.605
 20
-103.834
 30
0.0
 10
32.0877
 20
-105.1965
 30
0.0
 10
33.1562
 20
-107.493
 30
0.0
 10
33.1562
 20
-107.493
 30
0.0
 10
31.4631
 20
-107.0205
 30
0.0
 10
26.5148
 20
-105.1446
 30
0.0
 10
23.5631
 20
-102.707
 30
0.0
 10
23.5631
 20
-102.707
 30
0.0
 10
23.1894
 20
-102.405
 30
0.0
 10
23.1579
 20
-101.9201
 30
0.0
 10
23.5528
 20
-101.9815
 30
0.0
 10
23.5528
 20
-101.9815
 30
0.0
 10
26.4139
 20
-103.6951
 30
0.0
 10
28.6203
 20
-101.4659
 30
0.0
 10
28.5816
 20
-98.8675
 30
0.0
 10
28.5816
 20
-98.8675
 30
0.0
 10
28.5501
 20
-96.3677
 30
0.0
 10
25.9495
 20
-93.808
 30
0.0
 10
22.3637
 20
-95.692
 30
0.0
 10
22.3637
 20
-95.692
 30
0.0
 10
22.0309
 20
-90.8234
 30
0.0
 10
29.7086
 20
-84.5667
 30
0.0
 10
29.6493
 20
-83.6174
 30
0.0
 10
29.6493
 20
-83.6174
 30
0.0
 10
31.6335
 20
-90.9133
 30
0.0
 10
35.5038
 20
-99.3502
 30
0.0
 10
42.1649
 20
-108.4708
 30
0.0
 10
42.1649
 20
-108.4708
 30
0.0
 10
41.6412
 20
-108.8657
 30
0.0
 10
40.8755
 20
-109.4588
 30
0.0
 10
40.2509
 20
-110.1938
 30
0.0
 10
40.2509
 20
-110.1938
 30
0.0
 10
39.3243
 20
-101.9201
 30
0.0
 10
32.653
 20
-101.7987
 30
0.0
 10
31.2108
 20
-102.0101
 30
0.0
  0
SPLINE
  5
B5
330
1F
100
AcDbEntity
  8
layer 1
 62
     7
100
AcDbSpline
210
0.0
220
0.0
230
1.0
 70
    11
 71
     3
 72
    16
 73
    12
 74
     0
 42
0.0000000001
 43
0.0000000001
 12
1.0
 22
0.0
 32
0.0
 13
1.0
 23
0.0
 33
0.0
 40
0.0
 40
0.0
 40
0.0
 40
0.0
 40
0.25
 40
0.25
 40
0.25
 40
0.25
 40
0.5
 40
0.5
 40
0.5
 40
0.5
 40
1.0
 40
1.0
 40
1.0
 40
1.0
 10
25.9392
 20
-110.5683
 30
0.0
 10
25.0828
 20
-108.873
 30
0.0
 10
23.6121
 20
-106.8479
 30
0.0
 10
22.7966
 20
-104.9435
 30
0.0
 10
22.7966
 20
-104.9435
 30
0.0
 10
25.7279
 20
-106.9481
 30
0.0
 10
27.9161
 20
-108.089
 30
0.0
 10
32.2398
 20
-109.0953
 30
0.0
 10
32.2398
 20
-109.0953
 30
0.0
 10
29.1747
 20
-109.0149
 30
0.0
 10
27.5233
 20
-109.5181
 30
0.0
 10
25.9392
 20
-110.5683
 30
0.0
  0
SPLINE
  5
B6
330
1F
100
AcDbEntity
  8
layer 1
 62
     7
100
AcDbSpline
210
0.0
220
0.0
230
1.0
 70
    11
 71
     3
 72
    16
 73
    12
 74
     0
 42
0.0000000001
 43
0.0000000001
 12
1.0
 22
0.0
 32
0.0
 13
1.0
 23
0.0
 33
0.0
 40
0.0
 40
0.0
 40
0.0
 40
0.0
 40
0.25
 40
0.25
 40
0.25
 40
0.25
 40
0.5
 40
0.5
 40
0.5
 40
0.5
 40
1.0
 40
1.0
 40
1.0
 40
1.0
 10
72.6225
 20
-64.9016
 30
0.0
 10
73.1176
 20
-59.8523
 30
0.0
 10
76.4818
 20
-58.3121
 30
0.0
 10
78.9618
 20
-59.1378
 30
0.0
 10
78.9618
 20
-59.1378
 30
0.0
 10
77.532
 20
-55.9023
 30
0.0
 10
74.034
 20
-48.7483
 30
0.0
 10
71.7449
 20
-47.2571
 30
0.0
 10
71.7449
 20
-47.2571
 30
0.0
 10
69.3768
 20
-51.0959
 30
0.0
 10
70.7079
 20
-62.3141
 30
0.0
 10
72.6225
 20
-64.9016
 30
0.0
  0
SPLINE
  5
B7
330
1F
100
AcDbEntity
  8
layer 1
 62
     7
100
AcDbSpline
210
0.0
220
0.0
230
1.0
 70
    11
 71
     3
 72
    16
 73
    12
 74
     0
 42
0.0000000001
 43
0.0000000001
 12
1.0
 22
0.0
 32
0.0
 13
1.0
 23
0.0
 33
0.0
 40
0.0
 40
0.0
 40
0.0
 40
0.0
 40
0.25
 40
0.25
 40
0.25
 40
0.25
 40
0.5
 40
0.5
 40
0.5
 40
0.5
 40
1.0
 40
1.0
 40
1.0
 40
1.0
 10
78.9304
 20
-76.1299
 30
0.0
 10
80.404
 20
-75.6063
 30
0.0
 10
82.7414
 20
-74.2152
 30
0.0
 10
83.6988
 20
-73.1577
 30
0.0
 10
83.6988
 20
-73.1577
 30
0.0
 10
84.4133
 20
-75.7972
 30
0.0
 10
84.6451
 20
-80.1216
 30
0.0
 10
84.3124
 20
-82.8817
 30
0.0
 10
84.3124
 20
-82.8817
 30
0.0
 10
82.0371
 20
-80.1106
 30
0.0
 10
80.9686
 20
-78.5295
 30
0.0
 10
78.9304
 20
-76.1299
 30
0.0
  0
SPLINE
  5
B8
330
1F
100
AcDbEntity
  8
layer 1
 62
     7
100
AcDbSpline
210
0.0
220
0.0
230
1.0
 70
    11
 71
     3
 72
    20
 73
    16
 74
     0
 42
0.0000000001
 43
0.0000000001
 12
1.0
 22
0.0
 32
0.0
 13
1.0
 23
0.0
 33
0.0
 40
0.0
 40
0.0
 40
0.0
 40
0.0
 40
0.2
 40
0.2
 40
0.2
 40
0.2
 40
0.4
 40
0.4
 40
0.4
 40
0.4
 40
0.6
 40
0.6
 40
0.6
 40
0.6
 40
1.0
 40
1.0
 40
1.0
 40
1.0
 10
77.9628
 20
-73.7128
 30
0.0
 10
79.2456
 20
-73.0568
 30
0.0
 10
81.3299
 20
-71.9971
 30
0.0
 10
82.9835
 20
-70.3252
 30
0.0
 10
82.9835
 20
-70.3252
 30
0.0
 10
82.6303
 20
-67.9666
 30
0.0
 10
82.0657
 20
-66.4549
 30
0.0
 10
80.9277
 20
-64.1461
 30
0.0
 10
80.9277
 20
-64.1461
 30
0.0
 10
80.0918
 20
-66.8287
 30
0.0
 10
76.503
 20
-66.2436
 30
0.0
 10
75.8682
 20
-64.1666
 30
0.0
 10
75.8682
 20
-64.1666
 30
0.0
 10
74.4465
 20
-67.6441
 30
0.0
 10
75.7673
 20
-71.001
 30
0.0
 10
77.9628
 20
-73.7128
 30
0.0
  0
SPLINE
  5
B9
330
1F
100
AcDbEntity
  8
layer 1
 62
     7
100
AcDbSpline
210
0.0
220
0.0
230
1.0
 70
    11
 71
     3
 72
    16
 73
    12
 74
     0
 42
0.0000000001
 43
0.0000000001
 12
1.0
 22
0.0
 32
0.0
 13
1.0
 23
0.0
 33
0.0
 40
0.0
 40
0.0
 40
0.0
 40
0.0
 40
0.25
 40
0.25
 40
0.25
 40
0.25
 40
0.5
 40
0.5
 40
0.5
 40
0.5
 40
1.0
 40
1.0
 40
1.0
 40
1.0
 10
93.5646
 20
-89.3219
 30
0.0
 10
93.5953
 20
-92.2342
 30
0.0
 10
93.5953
 20
-94.1905
 30
0.0
 10
93.5463
 20
-95.8236
 30
0.0
 10
93.5463
 20
-95.8236
 30
0.0
 10
91.9622
 20
-92.6188
 30
0.0
 10
90.9947
 20
-91.1459
 30
0.0
 10
88.6778
 20
-88.9087
 30
0.0
 10
88.6778
 20
-88.9087
 30
0.0
 10
90.3218
 20
-89.8273
 30
0.0
 10
92.3755
 20
-90.1681
 30
0.0
 10
93.5646
 20
-89.3219
 30
0.0
  0
SPLINE
  5
BA
330
1F
100
AcDbEntity
  8
layer 1
 62
     7
100
AcDbSpline
210
0.0
220
0.0
230
1.0
 70
    11
 71
     3
 72
    40
 73
    36
 74
     0
 42
0.0000000001
 43
0.0000000001
 12
1.0
 22
0.0
 32
0.0
 13
1.0
 23
0.0
 33
0.0
 40
0.0
 40
0.0
 40
0.0
 40
0.0
 40
0.1
 40
0.1
 40
0.1
 40
0.1
 40
0.2
 40
0.2
 40
0.2
 40
0.2
 40
0.3
 40
0.3
 40
0.3
 40
0.3
 40
0.4
 40
0.4
 40
0.4
 40
0.4
 40
0.5
 40
0.5
 40
0.5
 40
0.5
 40
0.6
 40
0.6
 40
0.6
 40
0.6
 40
0.7
 40
0.7
 40
0.7
 40
0.7
 40
0.8
 40
0.8
 40
0.8
 40
0.8
 40
1.0
 40
1.0
 40
1.0
 40
1.0
 10
83.8611
 20
-49.7854
 30
0.0
 10
83.4662
 20
-47.9614
 30
0.0
 10
82.9945
 20
-46.6018
 30
0.0
 10
81.9157
 20
-44.3025
 30
0.0
 10
81.9157
 20
-44.3025
 30
0.0
 10
83.6183
 20
-44.7881
 30
0.0
 10
88.5673
 20
-46.661
 30
0.0
 10
91.5081
 20
-49.0994
 30
0.0
 10
91.5081
 20
-49.0994
 30
0.0
 10
91.8825
 20
-49.4036
 30
0.0
 10
91.9235
 20
-49.8863
 30
0.0
 10
91.5183
 20
-49.8161
 30
0.0
 10
91.5183
 20
-49.8161
 30
0.0
 10
88.6573
 20
-48.1033
 30
0.0
 10
86.4589
 20
-50.3397
 30
0.0
 10
86.4903
 20
-52.9404
 30
0.0
 10
86.4903
 20
-52.9404
 30
0.0
 10
86.521
 20
-55.4306
 30
0.0
 10
89.1217
 20
-57.9998
 30
0.0
 10
92.7082
 20
-56.1144
 30
0.0
 10
92.7082
 20
-56.1144
 30
0.0
 10
93.0512
 20
-60.972
 30
0.0
 10
85.3626
 20
-67.2316
 30
0.0
 10
85.4218
 20
-68.189
 30
0.0
 10
85.4218
 20
-68.189
 30
0.0
 10
83.4457
 20
-60.8923
 30
0.0
 10
79.5681
 20
-52.4555
 30
0.0
 10
72.9063
 20
-43.3349
 30
0.0
 10
72.9063
 20
-43.3349
 30
0.0
 10
73.4299
 20
-42.9326
 30
0.0
 10
74.1964
 20
-42.3468
 30
0.0
 10
74.8209
 20
-41.6016
 30
0.0
 10
74.8209
 20
-41.6016
 30
0.0
 10
75.7468
 20
-49.8753
 30
0.0
 10
82.4189
 20
-49.9967
 30
0.0
 10
83.8611
 20
-49.7854
 30
0.0
  0
SPLINE
  5
BB
330
1F
100
AcDbEntity
  8
layer 1
 62
     7
100
AcDbSpline
210
0.0
220
0.0
230
1.0
 70
    11
 71
     3
 72
    16
 73
    12
 74
     0
 42
0.0000000001
 43
0.0000000001
 12
1.0
 22
0.0
 32
0.0
 13
1.0
 23
0.0
 33
0.0
 40
0.0
 40
0.0
 40
0.0
 40
0.0
 40
0.25
 40
0.25
 40
0.25
 40
0.25
 40
0.5
 40
0.5
 40
0.5
 40
0.5
 40
1.0
 40
1.0
 40
1.0
 40
1.0
 10
89.091
 20
-41.5914
 30
0.0
 10
90.1799
 20
-43.2859
 30
0.0
 10
91.4488
 20
-44.6952
 30
0.0
 10
91.7611
 20
-46.5192
 30
0.0
 10
91.7611
 20
-46.5192
 30
0.0
 10
88.8196
 20
-44.5145
 30
0.0
 10
87.1354
 20
-43.8695
 30
0.0
 10
82.8211
 20
-42.8602
 30
0.0
 10
82.8211
 20
-42.8602
 30
0.0
 10
86.6527
 20
-41.712
 30
0.0
 10
87.9011
 20
-41.6426
 30
0.0
 10
89.091
 20
-41.5914
 30
0.0
  0
SPLINE
  5
BC
330
1F
100
AcDbEntity
  8
layer 1
 62
     7
100
AcDbSpline
210
0.0
220
0.0
230
1.0
 70
    11
 71
     3
 72
    16
 73
    12
 74
     0
 42
0.0000000001
 43
0.0000000001
 12
1.0
 22
0.0
 32
0.0
 13
1.0
 23
0.0
 33
0.0
 40
0.0
 40
0.0
 40
0.0
 40
0.0
 40
0.25
 40
0.25
 40
0.25
 40
0.25
 40
0.5
 40
0.5
 40
0.5
 40
0.5
 40
1.0
 40
1.0
 40
1.0
 40
1.0
 10
93.4535
 20
-62.8275
 30
0.0
 10
93.5156
 20
-65.7199
 30
0.0
 10
93.5156
 20
-69.226
 30
0.0
 10
93.5851
 20
-70.3355
 30
0.0
 10
93.5851
 20
-70.3355
 30
0.0
 10
92.3162
 20
-69.5588
 30
0.0
 10
90.7935
 20
-68.5217
 30
0.0
 10
87.912
 20
-69.3781
 30
0.0
 10
87.912
 20
-69.3781
 30
0.0
 10
90.5405
 20
-67.3918
 30
0.0
 10
92.7492
 20
-64.631
 30
0.0
 10
93.4535
 20
-62.8275
 30
0.0
  0
SPLINE
  5
BD
330
1F
100
AcDbEntity
  8
layer 1
 62
     7
100
AcDbSpline
210
0.0
220
0.0
230
1.0
 70
    11
 71
     3
 72
    32
 73
    28
 74
     0
 42
0.0000000001
 43
0.0000000001
 12
1.0
 22
0.0
 32
0.0
 13
1.0
 23
0.0
 33
0.0
 40
0.0
 40
0.0
 40
0.0
 40
0.0
 40
0.125
 40
0.125
 40
0.125
 40
0.125
 40
0.25
 40
0.25
 40
0.25
 40
0.25
 40
0.375
 40
0.375
 40
0.375
 40
0.375
 40
0.5
 40
0.5
 40
0.5
 40
0.5
 40
0.625
 40
0.625
 40
0.625
 40
0.625
 40
0.75
 40
0.75
 40
0.75
 40
0.75
 40
1.0
 40
1.0
 40
1.0
 40
1.0
 10
93.4739
 20
-79.244
 30
0.0
 10
93.5156
 20
-82.0875
 30
0.0
 10
93.5156
 20
-83.3776
 30
0.0
 10
93.5054
 20
-84.8373
 30
0.0
 10
93.5054
 20
-84.8373
 30
0.0
 10
92.3857
 20
-84.7159
 30
0.0
 10
91.4693
 20
-85.4414
 30
0.0
 10
91.601
 20
-87.0745
 30
0.0
 10
91.601
 20
-87.0745
 30
0.0
 10
91.6192
 20
-87.4175
 30
0.0
 10
90.6334
 20
-87.4972
 30
0.0
 10
90.6721
 20
-87.1367
 30
0.0
 10
90.6721
 20
-87.1367
 30
0.0
 10
91.1161
 20
-82.6908
 30
0.0
 10
89.2716
 20
-79.7369
 30
0.0
 10
87.2458
 20
-80.0514
 30
0.0
 10
87.2458
 20
-80.0514
 30
0.0
 10
87.2772
 20
-76.8057
 30
0.0
 10
86.7814
 20
-74.4171
 30
0.0
 10
86.0076
 20
-71.6358
 30
0.0
 10
86.0076
 20
-71.6358
 30
0.0
 10
88.9001
 20
-70.3845
 30
0.0
 10
92.4369
 20
-72.5127
 30
0.0
 10
92.1736
 20
-73.7721
 30
0.0
 10
92.1736
 20
-73.7721
 30
0.0
 10
87.9918
 20
-74.8398
 30
0.0
 10
90.863
 20
-80.6138
 30
0.0
 10
93.4739
 20
-79.244
 30
0.0
  0
SPLINE
  5
BE
330
1F
100
AcDbEntity
  8
layer 1
 62
     7
100
AcDbSpline
210
0.0
220
0.0
230
1.0
 70
    11
 71
     3
 72
    16
 73
    12
 74
     0
 42
0.0000000001
 43
0.0000000001
 12
1.0
 22
0.0
 32
0.0
 13
1.0
 23
0.0
 33
0.0
 40
0.0
 40
0.0
 40
0.0
 40
0.0
 40
0.25
 40
0.25
 40
0.25
 40
0.25
 40
0.5
 40
0.5
 40
0.5
 40
0.5
 40
1.0
 40
1.0
 40
1.0
 40
1.0
 10
85.876
 20
-89.4324
 30
0.0
 10
85.3319
 20
-97.0025
 30
0.0
 10
85.0686
 20
-99.6215
 30
0.0
 10
86.3791
 20
-104.2392
 30
0.0
 10
86.3791
 20
-104.2392
 30
0.0
 10
87.9223
 20
-110.0446
 30
0.0
 10
93.1726
 20
-111.0919
 30
0.0
 10
92.7082
 20
-103.2409
 30
0.0
 10
92.7082
 20
-103.2409
 30
0.0
 10
91.9235
 20
-96.5067
 30
0.0
 10
87.2977
 20
-92.1647
 30
0.0
 10
85.876
 20
-89.4324
 30
0.0
  0
SPLINE
  5
BF
330
1F
100
AcDbEntity
  8
layer 1
 62
     7
100
AcDbSpline
210
0.0
220
0.0
230
1.0
 70
    11
 71
     3
 72
    20
 73
    16
 74
     0
 42
0.0000000001
 43
0.0000000001
 12
1.0
 22
0.0
 32
0.0
 13
1.0
 23
0.0
 33
0.0
 40
0.0
 40
0.0
 40
0.0
 40
0.0
 40
0.2
 40
0.2
 40
0.2
 40
0.2
 40
0.4
 40
0.4
 40
0.4
 40
0.4
 40
0.6
 40
0.6
 40
0.6
 40
0.6
 40
1.0
 40
1.0
 40
1.0
 40
1.0
 10
49.392
 20
-98.0805
 30
0.0
 10
49.392
 20
-97.2556
 30
0.0
 10
50.0576
 20
-96.5893
 30
0.0
 10
50.8833
 20
-96.5893
 30
0.0
 10
50.8833
 20
-96.5893
 30
0.0
 10
51.7009
 20
-96.5893
 30
0.0
 10
52.3664
 20
-97.2629
 30
0.0
 10
52.3664
 20
-98.0805
 30
0.0
 10
52.3664
 20
-98.0805
 30
0.0
 10
52.3664
 20
-98.9062
 30
0.0
 10
51.7009
 20
-99.5718
 30
0.0
 10
50.873
 20
-99.5615
 30
0.0
 10
50.873
 20
-99.5615
 30
0.0
 10
50.0576
 20
-99.5615
 30
0.0
 10
49.392
 20
-98.896
 30
0.0
 10
49.392
 20
-98.0805
 30
0.0
  0
SPLINE
  5
C0
330
1F
100
AcDbEntity
  8
layer 1
 62
     7
100
AcDbSpline
210
0.0
220
0.0
230
1.0
 70
    11
 71
     3
 72
    16
 73
    12
 74
     0
 42
0.0000000001
 43
0.0000000001
 12
1.0
 22
0.0
 32
0.0
 13
1.0
 23
0.0
 33
0.0
 40
0.0
 40
0.0
 40
0.0
 40
0.0
 40
0.25
 40
0.25
 40
0.25
 40
0.25
 40
0.5
 40
0.5
 40
0.5
 40
0.5
 40
1.0
 40
1.0
 40
1.0
 40
1.0
 10
50.2587
 20
-93.8885
 30
0.0
 10
49.2421
 20
-93.9477
 30
0.0
 10
47.8803
 20
-94.946
 30
0.0
 10
47.6478
 20
-95.3899
 30
0.0
 10
47.6478
 20
-95.3899
 30
0.0
 10
47.7407
 20
-94.5021
 30
0.0
 10
47.5191
 20
-92.2034
 30
0.0
 10
47.1549
 20
-90.6325
 30
0.0
 10
47.1549
 20
-90.6325
 30
0.0
 10
47.5681
 20
-91.2183
 30
0.0
 10
49.7248
 20
-93.4241
 30
0.0
 10
50.2587
 20
-93.8885
 30
0.0
  0
SPLINE
  5
C1
330
1F
100
AcDbEntity
  8
layer 1
 62
     7
100
AcDbSpline
210
0.0
220
0.0
230
1.0
 70
    11
 71
     3
 72
    16
 73
    12
 74
     0
 42
0.0000000001
 43
0.0000000001
 12
1.0
 22
0.0
 32
0.0
 13
1.0
 23
0.0
 33
0.0
 40
0.0
 40
0.0
 40
0.0
 40
0.0
 40
0.25
 40
0.25
 40
0.25
 40
0.25
 40
0.5
 40
0.5
 40
0.5
 40
0.5
 40
1.0
 40
1.0
 40
1.0
 40
1.0
 10
55.0761
 20
-97.9803
 30
0.0
 10
55.1967
 20
-96.7392
 30
0.0
 10
54.3923
 20
-95.4492
 30
0.0
 10
53.7574
 20
-94.946
 30
0.0
 10
53.7574
 20
-94.946
 30
0.0
 10
55.117
 20
-94.9767
 30
0.0
 10
56.1745
 20
-94.8948
 30
0.0
 10
57.7872
 20
-94.946
 30
0.0
 10
57.7872
 20
-94.946
 30
0.0
 10
56.892
 20
-95.8828
 30
0.0
 10
55.6823
 20
-97.2834
 30
0.0
 10
55.0761
 20
-97.9803
 30
0.0
  0
SPLINE
  5
C2
330
1F
100
AcDbEntity
  8
layer 1
 62
     7
100
AcDbSpline
210
0.0
220
0.0
230
1.0
 70
    11
 71
     3
 72
    24
 73
    20
 74
     0
 42
0.0000000001
 43
0.0000000001
 12
1.0
 22
0.0
 32
0.0
 13
1.0
 23
0.0
 33
0.0
 40
0.0
 40
0.0
 40
0.0
 40
0.0
 40
0.1666666666666667
 40
0.1666666666666667
 40
0.1666666666666667
 40
0.1666666666666667
 40
0.3333333333333333
 40
0.3333333333333333
 40
0.3333333333333333
 40
0.3333333333333333
 40
0.5
 40
0.5
 40
0.5
 40
0.5
 40
0.6666666666666666
 40
0.6666666666666666
 40
0.6666666666666666
 40
0.6666666666666666
 40
1.0
 40
1.0
 40
1.0
 40
1.0
 10
52.4469
 20
-102.0203
 30
0.0
 10
50.0678
 20
-102.846
 30
0.0
 10
48.1743
 20
-101.6385
 30
0.0
 10
47.7794
 20
-100.8209
 30
0.0
 10
47.7794
 20
-100.8209
 30
0.0
 10
47.3179
 20
-103.5737
 30
0.0
 10
46.6729
 20
-106.2336
 30
0.0
 10
45.6432
 20
-108.179
 30
0.0
 10
45.6432
 20
-108.179
 30
0.0
 10
46.0666
 20
-108.571
 30
0.0
 10
46.5413
 20
-109.2475
 30
0.0
 10
47.0649
 20
-109.7916
 30
0.0
 10
47.0649
 20
-109.7916
 30
0.0
 10
47.217
 20
-109.9517
 30
0.0
 10
47.5885
 20
-109.7609
 30
0.0
 10
47.7589
 20
-109.8815
 30
0.0
 10
47.7589
 20
-109.8815
 30
0.0
 10
48.1743
 20
-109.3067
 30
0.0
 10
51.9123
 20
-102.4745
 30
0.0
 10
52.4469
 20
-102.0203
 30
0.0
  0
SPLINE
  5
C3
330
1F
100
AcDbEntity
  8
layer 1
 62
     7
100
AcDbSpline
210
0.0
220
0.0
230
1.0
 70
    11
 71
     3
 72
    20
 73
    16
 74
     0
 42
0.0000000001
 43
0.0000000001
 12
1.0
 22
0.0
 32
0.0
 13
1.0
 23
0.0
 33
0.0
 40
0.0
 40
0.0
 40
0.0
 40
0.0
 40
0.2
 40
0.2
 40
0.2
 40
0.2
 40
0.4
 40
0.4
 40
0.4
 40
0.4
 40
0.6
 40
0.6
 40
0.6
 40
0.6
 40
1.0
 40
1.0
 40
1.0
 40
1.0
 10
65.6484
 20
-53.7068
 30
0.0
 10
65.6382
 20
-54.5325
 30
0.0
 10
64.9726
 20
-55.1981
 30
0.0
 10
64.1572
 20
-55.1981
 30
0.0
 10
64.1572
 20
-55.1981
 30
0.0
 10
63.3315
 20
-55.1981
 30
0.0
 10
62.666
 20
-54.5325
 30
0.0
 10
62.666
 20
-53.7068
 30
0.0
 10
62.666
 20
-53.7068
 30
0.0
 10
62.666
 20
-52.8892
 30
0.0
 10
63.3417
 20
-52.2237
 30
0.0
 10
64.1572
 20
-52.2237
 30
0.0
 10
64.1572
 20
-52.2237
 30
0.0
 10
64.9829
 20
-52.2237
 30
0.0
 10
65.6484
 20
-52.8892
 30
0.0
 10
65.6484
 20
-53.7068
 30
0.0
  0
SPLINE
  5
C4
330
1F
100
AcDbEntity
  8
layer 1
 62
     7
100
AcDbSpline
210
0.0
220
0.0
230
1.0
 70
    11
 71
     3
 72
    16
 73
    12
 74
     0
 42
0.0000000001
 43
0.0000000001
 12
1.0
 22
0.0
 32
0.0
 13
1.0
 23
0.0
 33
0.0
 40
0.0
 40
0.0
 40
0.0
 40
0.0
 40
0.25
 40
0.25
 40
0.25
 40
0.25
 40
0.5
 40
0.5
 40
0.5
 40
0.5
 40
1.0
 40
1.0
 40
1.0
 40
1.0
 10
64.7715
 20
-57.8996
 30
0.0
 10
65.7903
 20
-57.8375
 30
0.0
 10
67.1506
 20
-56.8392
 30
0.0
 10
67.3927
 20
-56.4055
 30
0.0
 10
67.3927
 20
-56.4055
 30
0.0
 10
67.3027
 20
-57.2831
 30
0.0
 10
67.5243
 20
-59.5817
 30
0.0
 10
67.8856
 20
-61.1527
 30
0.0
 10
67.8856
 20
-61.1527
 30
0.0
 10
67.4731
 20
-60.5698
 30
0.0
 10
65.3054
 20
-58.3611
 30
0.0
 10
64.7715
 20
-57.8996
 30
0.0
  0
SPLINE
  5
C5
330
1F
100
AcDbEntity
  8
layer 1
 62
     7
100
AcDbSpline
210
0.0
220
0.0
230
1.0
 70
    11
 71
     3
 72
    16
 73
    12
 74
     0
 42
0.0000000001
 43
0.0000000001
 12
1.0
 22
0.0
 32
0.0
 13
1.0
 23
0.0
 33
0.0
 40
0.0
 40
0.0
 40
0.0
 40
0.0
 40
0.25
 40
0.25
 40
0.25
 40
0.25
 40
0.5
 40
0.5
 40
0.5
 40
0.5
 40
1.0
 40
1.0
 40
1.0
 40
1.0
 10
59.9549
 20
-53.8078
 30
0.0
 10
59.8335
 20
-55.0459
 30
0.0
 10
60.6511
 20
-56.336
 30
0.0
 10
61.2757
 20
-56.8392
 30
0.0
 10
61.2757
 20
-56.8392
 30
0.0
 10
59.9234
 20
-56.8107
 30
0.0
 10
58.8659
 20
-56.9014
 30
0.0
 10
57.2533
 20
-56.8392
 30
0.0
 10
57.2533
 20
-56.8392
 30
0.0
 10
58.1404
 20
-55.9023
 30
0.0
 10
59.361
 20
-54.5018
 30
0.0
 10
59.9549
 20
-53.8078
 30
0.0
  0
SPLINE
  5
C6
330
1F
100
AcDbEntity
  8
layer 1
 62
     7
100
AcDbSpline
210
0.0
220
0.0
230
1.0
 70
    11
 71
     3
 72
    24
 73
    20
 74
     0
 42
0.0000000001
 43
0.0000000001
 12
1.0
 22
0.0
 32
0.0
 13
1.0
 23
0.0
 33
0.0
 40
0.0
 40
0.0
 40
0.0
 40
0.0
 40
0.1666666666666667
 40
0.1666666666666667
 40
0.1666666666666667
 40
0.1666666666666667
 40
0.3333333333333333
 40
0.3333333333333333
 40
0.3333333333333333
 40
0.3333333333333333
 40
0.5
 40
0.5
 40
0.5
 40
0.5
 40
0.6666666666666666
 40
0.6666666666666666
 40
0.6666666666666666
 40
0.6666666666666666
 40
1.0
 40
1.0
 40
1.0
 40
1.0
 10
62.5943
 20
-49.7649
 30
0.0
 10
64.9726
 20
-48.9392
 30
0.0
 10
66.8588
 20
-50.1488
 30
0.0
 10
67.261
 20
-50.9745
 30
0.0
 10
67.261
 20
-50.9745
 30
0.0
 10
67.7152
 20
-48.2137
 30
0.0
 10
68.3705
 20
-45.5618
 30
0.0
 10
69.3973
 20
-43.6084
 30
0.0
 10
69.3973
 20
-43.6084
 30
0.0
 10
68.9746
 20
-43.2142
 30
0.0
 10
68.4919
 20
-42.5377
 30
0.0
 10
67.9755
 20
-41.9965
 30
0.0
 10
67.9755
 20
-41.9965
 30
0.0
 10
67.8264
 20
-41.8334
 30
0.0
 10
67.4417
 20
-42.0243
 30
0.0
 10
67.2815
 20
-41.9036
 30
0.0
 10
67.2815
 20
-41.9036
 30
0.0
 10
66.8588
 20
-42.4785
 30
0.0
 10
63.1282
 20
-49.3107
 30
0.0
 10
62.5943
 20
-49.7649
 30
0.0
  0
SPLINE
  5
C7
330
1F
100
AcDbEntity
  8
layer 1
 62
     7
100
AcDbSpline
210
0.0
220
0.0
230
1.0
 70
    11
 71
     3
 72
    48
 73
    44
 74
     0
 42
0.0000000001
 43
0.0000000001
 12
1.0
 22
0.0
 32
0.0
 13
1.0
 23
0.0
 33
0.0
 40
0.0
 40
0.0
 40
0.0
 40
0.0
 40
0.0833333333333333
 40
0.0833333333333333
 40
0.0833333333333333
 40
0.0833333333333333
 40
0.1666666666666667
 40
0.1666666666666667
 40
0.1666666666666667
 40
0.1666666666666667
 40
0.25
 40
0.25
 40
0.25
 40
0.25
 40
0.3333333333333333
 40
0.3333333333333333
 40
0.3333333333333333
 40
0.3333333333333333
 40
0.4166666666666667
 40
0.4166666666666667
 40
0.4166666666666667
 40
0.4166666666666667
 40
0.5
 40
0.5
 40
0.5
 40
0.5
 40
0.5833333333333334
 40
0.5833333333333334
 40
0.5833333333333334
 40
0.5833333333333334
 40
0.6666666666666666
 40
0.6666666666666666
 40
0.6666666666666666
 40
0.6666666666666666
 40
0.75
 40
0.75
 40
0.75
 40
0.75
 40
0.8333333333333334
 40
0.8333333333333334
 40
0.8333333333333334
 40
0.8333333333333334
 40
1.0
 40
1.0
 40
1.0
 40
1.0
 10
48.001
 20
-45.0097
 30
0.0
 10
44.9082
 20
-46.4285
 30
0.0
 10
40.5245
 20
-46.8724
 30
0.0
 10
36.4713
 20
-46.6406
 30
0.0
 10
36.4713
 20
-46.6406
 30
0.0
 10
34.869
 20
-48.4953
 30
0.0
 10
35.0313
 20
-55.4379
 30
0.0
 10
41.0891
 20
-59.0969
 30
0.0
 10
41.0891
 20
-59.0969
 30
0.0
 10
51.5283
 20
-64.2565
 30
0.0
 10
59.4203
 20
-50.2885
 30
0.0
 10
64.9624
 20
-40.3115
 30
0.0
 10
64.9624
 20
-40.3115
 30
0.0
 10
62.666
 20
-39.597
 30
0.0
 10
58.8761
 20
-40.675
 30
0.0
 10
57.8983
 20
-41.7435
 30
0.0
 10
57.8983
 20
-41.7435
 30
0.0
 10
61.487
 20
-43.0124
 30
0.0
 10
60.4683
 20
-46.5192
 30
0.0
 10
58.9354
 20
-47.7391
 30
0.0
 10
58.9354
 20
-47.7391
 30
0.0
 10
57.2738
 20
-49.0708
 30
0.0
 10
52.2041
 20
-47.8012
 30
0.0
 10
53.8964
 20
-42.1355
 30
0.0
 10
53.8964
 20
-42.1355
 30
0.0
 10
52.7796
 20
-42.4785
 30
0.0
 10
51.6497
 20
-42.9714
 30
0.0
 10
50.6821
 20
-43.4563
 30
0.0
 10
50.6821
 20
-43.4563
 30
0.0
 10
53.9381
 20
-52.1644
 30
0.0
 10
48.7777
 20
-55.3377
 30
0.0
 10
45.1992
 20
-55.1366
 30
0.0
 10
45.1992
 20
-55.1366
 30
0.0
 10
40.5449
 20
-54.6225
 30
0.0
 10
41.541
 20
-50.1488
 30
0.0
 10
42.3177
 20
-49.1301
 30
0.0
 10
42.3177
 20
-49.1301
 30
0.0
 10
43.8601
 20
-47.105
 30
0.0
 10
47.7897
 20
-47.7603
 30
0.0
 10
48.0325
 20
-50.4099
 30
0.0
 10
48.0325
 20
-50.4099
 30
0.0
 10
49.4023
 20
-48.7871
 30
0.0
 10
49.6656
 20
-46.6406
 30
0.0
 10
48.001
 20
-45.0097
 30
0.0
  0
SPLINE
  5
C8
330
1F
100
AcDbEntity
  8
layer 1
 62
     7
100
AcDbSpline
210
0.0
220
0.0
230
1.0
 70
    11
 71
     3
 72
    28
 73
    24
 74
     0
 42
0.0000000001
 43
0.0000000001
 12
1.0
 22
0.0
 32
0.0
 13
1.0
 23
0.0
 33
0.0
 40
0.0
 40
0.0
 40
0.0
 40
0.0
 40
0.1428571428571428
 40
0.1428571428571428
 40
0.1428571428571428
 40
0.1428571428571428
 40
0.2857142857142857
 40
0.2857142857142857
 40
0.2857142857142857
 40
0.2857142857142857
 40
0.4285714285714285
 40
0.4285714285714285
 40
0.4285714285714285
 40
0.4285714285714285
 40
0.5714285714285714
 40
0.5714285714285714
 40
0.5714285714285714
 40
0.5714285714285714
 40
0.7142857142857143
 40
0.7142857142857143
 40
0.7142857142857143
 40
0.7142857142857143
 40
1.0
 40
1.0
 40
1.0
 40
1.0
 10
52.5164
 20
-70.9593
 30
0.0
 10
54.5934
 20
-70.6989
 30
0.0
 10
56.9929
 20
-71.1326
 30
0.0
 10
58.4117
 20
-72.3606
 30
0.0
 10
58.4117
 20
-72.3606
 30
0.0
 10
57.4339
 20
-70.3355
 30
0.0
 10
58.3423
 20
-67.5227
 30
0.0
 10
60.9817
 20
-67.0195
 30
0.0
 10
60.9817
 20
-67.0195
 30
0.0
 10
62.6045
 20
-66.7182
 30
0.0
 10
64.9441
 20
-67.6339
 30
0.0
 10
64.9624
 20
-70.1343
 30
0.0
 10
64.9624
 20
-70.1343
 30
0.0
 10
66.7966
 20
-69.9427
 30
0.0
 10
68.4919
 20
-64.0269
 30
0.0
 10
64.6114
 20
-61.024
 30
0.0
 10
64.6114
 20
-61.024
 30
0.0
 10
61.0848
 20
-58.2916
 30
0.0
 10
57.1034
 20
-59.3185
 30
0.0
 10
54.0076
 20
-62.2212
 30
0.0
 10
54.0076
 20
-62.2212
 30
0.0
 10
51.2365
 20
-65.4179
 30
0.0
 10
52.0234
 20
-69.7314
 30
0.0
 10
52.5164
 20
-70.9593
 30
0.0
  0
SPLINE
  5
C9
330
1F
100
AcDbEntity
  8
layer 1
 62
     7
100
AcDbSpline
210
0.0
220
0.0
230
1.0
 70
    11
 71
     3
 72
    12
 73
     8
 74
     0
 42
0.0000000001
 43
0.0000000001
 12
1.0
 22
0.0
 32
0.0
 13
1.0
 23
0.0
 33
0.0
 40
0.0
 40
0.0
 40
0.0
 40
0.0
 40
0.3333333333333333
 40
0.3333333333333333
 40
0.3333333333333333
 40
0.3333333333333333
 40
1.0
 40
1.0
 40
1.0
 40
1.0
 10
60.7411
 20
-78.0343
 30
0.0
 10
58.8761
 20
-78.3773
 30
0.0
 10
55.509
 20
-75.5858
 30
0.0
 10
54.4127
 20
-74.1538
 30
0.0
 10
54.4127
 20
-74.1538
 30
0.0
 10
56.9512
 20
-73.8415
 30
0.0
 10
59.7845
 20
-76.2718
 30
0.0
 10
60.7411
 20
-78.0343
 30
0.0
  0
SPLINE
  5
CA
330
1F
100
AcDbEntity
  8
layer 1
 62
     7
100
AcDbSpline
210
0.0
220
0.0
230
1.0
 70
    11
 71
     3
 72
    28
 73
    24
 74
     0
 42
0.0000000001
 43
0.0000000001
 12
1.0
 22
0.0
 32
0.0
 13
1.0
 23
0.0
 33
0.0
 40
0.0
 40
0.0
 40
0.0
 40
0.0
 40
0.1428571428571428
 40
0.1428571428571428
 40
0.1428571428571428
 40
0.1428571428571428
 40
0.2857142857142857
 40
0.2857142857142857
 40
0.2857142857142857
 40
0.2857142857142857
 40
0.4285714285714285
 40
0.4285714285714285
 40
0.4285714285714285
 40
0.4285714285714285
 40
0.5714285714285714
 40
0.5714285714285714
 40
0.5714285714285714
 40
0.5714285714285714
 40
0.7142857142857143
 40
0.7142857142857143
 40
0.7142857142857143
 40
0.7142857142857143
 40
1.0
 40
1.0
 40
1.0
 40
1.0
 10
62.5139
 20
-80.5648
 30
0.0
 10
60.4398
 20
-80.8259
 30
0.0
 10
58.0402
 20
-80.3922
 30
0.0
 10
56.6185
 20
-79.154
 30
0.0
 10
56.6185
 20
-79.154
 30
0.0
 10
57.5963
 20
-81.1894
 30
0.0
 10
56.6879
 20
-84.0014
 30
0.0
 10
54.0485
 20
-84.5046
 30
0.0
 10
54.0485
 20
-84.5046
 30
0.0
 10
52.4264
 20
-84.8066
 30
0.0
 10
50.0883
 20
-83.891
 30
0.0
 10
50.0678
 20
-81.3905
 30
0.0
 10
50.0678
 20
-81.3905
 30
0.0
 10
48.2336
 20
-81.5814
 30
0.0
 10
46.5413
 20
-87.4972
 30
0.0
 10
50.421
 20
-90.5009
 30
0.0
 10
50.421
 20
-90.5009
 30
0.0
 10
53.9483
 20
-93.2332
 30
0.0
 10
57.929
 20
-92.2034
 30
0.0
 10
61.0124
 20
-89.3007
 30
0.0
 10
61.0124
 20
-89.3007
 30
0.0
 10
63.7937
 20
-86.1069
 30
0.0
 10
63.009
 20
-81.7935
 30
0.0
 10
62.5139
 20
-80.5648
 30
0.0
  0
SPLINE
  5
CB
330
1F
100
AcDbEntity
  8
layer 1
 62
     7
100
AcDbSpline
210
0.0
220
0.0
230
1.0
 70
    11
 71
     3
 72
    16
 73
    12
 74
     0
 42
0.0000000001
 43
0.0000000001
 12
1.0
 22
0.0
 32
0.0
 13
1.0
 23
0.0
 33
0.0
 40
0.0
 40
0.0
 40
0.0
 40
0.0
 40
0.25
 40
0.25
 40
0.25
 40
0.25
 40
0.5
 40
0.5
 40
0.5
 40
0.5
 40
1.0
 40
1.0
 40
1.0
 40
1.0
 10
47.4364
 20
-62.7755
 30
0.0
 10
48.4552
 20
-62.7163
 30
0.0
 10
50.1687
 20
-62.2833
 30
0.0
 10
50.4108
 20
-61.8394
 30
0.0
 10
50.4108
 20
-61.8394
 30
0.0
 10
49.8045
 20
-63.0776
 30
0.0
 10
49.5134
 20
-63.934
 30
0.0
 10
49.4747
 20
-65.7689
 30
0.0
 10
49.4747
 20
-65.7689
 30
0.0
 10
49.2114
 20
-64.3187
 30
0.0
 10
48.5356
 20
-63.2399
 30
0.0
 10
47.4364
 20
-62.7755
 30
0.0
  0
SPLINE
  5
CC
330
1F
100
AcDbEntity
  8
layer 1
 62
     7
100
AcDbSpline
210
0.0
220
0.0
230
1.0
 70
    11
 71
     3
 72
    16
 73
    12
 74
     0
 42
0.0000000001
 43
0.0000000001
 12
1.0
 22
0.0
 32
0.0
 13
1.0
 23
0.0
 33
0.0
 40
0.0
 40
0.0
 40
0.0
 40
0.0
 40
0.25
 40
0.25
 40
0.25
 40
0.25
 40
0.5
 40
0.5
 40
0.5
 40
0.5
 40
1.0
 40
1.0
 40
1.0
 40
1.0
 10
46.7109
 20
-71.1399
 30
0.0
 10
48.0917
 20
-70.255
 30
0.0
 10
49.3533
 20
-68.2299
 30
0.0
 10
49.5829
 20
-67.7962
 30
0.0
 10
49.5829
 20
-67.7962
 30
0.0
 10
49.5442
 20
-69.1353
 30
0.0
 10
49.5646
 20
-69.8915
 30
0.0
 10
49.825
 20
-70.7999
 30
0.0
 10
49.825
 20
-70.7999
 30
0.0
 10
49.0
 20
-70.7275
 30
0.0
 10
48.3235
 20
-70.6785
 30
0.0
 10
46.7109
 20
-71.1399
 30
0.0
  0
SPLINE
  5
CD
330
1F
100
AcDbEntity
  8
layer 1
 62
     7
100
AcDbSpline
210
0.0
220
0.0
230
1.0
 70
    11
 71
     3
 72
    32
 73
    28
 74
     0
 42
0.0000000001
 43
0.0000000001
 12
1.0
 22
0.0
 32
0.0
 13
1.0
 23
0.0
 33
0.0
 40
0.0
 40
0.0
 40
0.0
 40
0.0
 40
0.125
 40
0.125
 40
0.125
 40
0.125
 40
0.25
 40
0.25
 40
0.25
 40
0.25
 40
0.375
 40
0.375
 40
0.375
 40
0.375
 40
0.5
 40
0.5
 40
0.5
 40
0.5
 40
0.625
 40
0.625
 40
0.625
 40
0.625
 40
0.75
 40
0.75
 40
0.75
 40
0.75
 40
1.0
 40
1.0
 40
1.0
 40
1.0
 10
36.1488
 20
-65.6987
 30
0.0
 10
37.632
 20
-69.0761
 30
0.0
 10
44.2733
 20
-69.5098
 30
0.0
 10
43.0242
 20
-62.3038
 30
0.0
 10
43.0242
 20
-62.3038
 30
0.0
 10
43.8989
 20
-62.5642
 30
0.0
 10
44.4847
 20
-62.7061
 30
0.0
 10
45.3104
 20
-62.5335
 30
0.0
 10
45.3104
 20
-62.5335
 30
0.0
 10
42.4698
 20
-64.0064
 30
0.0
 10
44.7063
 20
-67.7033
 30
0.0
 10
47.356
 20
-66.5061
 30
0.0
 10
47.356
 20
-66.5061
 30
0.0
 10
46.1873
 20
-68.178
 30
0.0
 10
44.797
 20
-67.7757
 30
0.0
 10
43.8806
 20
-68.2687
 30
0.0
 10
43.8806
 20
-68.2687
 30
0.0
 10
41.1695
 20
-69.7496
 30
0.0
 10
40.4725
 20
-70.6163
 30
0.0
 10
40.4338
 20
-72.5617
 30
0.0
 10
40.4338
 20
-72.5617
 30
0.0
 10
40.2019
 20
-73.9937
 30
0.0
 10
39.4662
 20
-74.3857
 30
0.0
 10
38.5791
 20
-73.2974
 30
0.0
 10
38.5791
 20
-73.2974
 30
0.0
 10
36.8553
 20
-69.912
 30
0.0
 10
36.0998
 20
-67.7033
 30
0.0
 10
36.1488
 20
-65.6987
 30
0.0
  0
SPLINE
  5
CE
330
1F
100
AcDbEntity
  8
layer 1
 62
     7
100
AcDbSpline
210
0.0
220
0.0
230
1.0
 70
    11
 71
     3
 72
    24
 73
    20
 74
     0
 42
0.0000000001
 43
0.0000000001
 12
1.0
 22
0.0
 32
0.0
 13
1.0
 23
0.0
 33
0.0
 40
0.0
 40
0.0
 40
0.0
 40
0.0
 40
0.1666666666666667
 40
0.1666666666666667
 40
0.1666666666666667
 40
0.1666666666666667
 40
0.3333333333333333
 40
0.3333333333333333
 40
0.3333333333333333
 40
0.3333333333333333
 40
0.5
 40
0.5
 40
0.5
 40
0.5
 40
0.6666666666666666
 40
0.6666666666666666
 40
0.6666666666666666
 40
0.6666666666666666
 40
1.0
 40
1.0
 40
1.0
 40
1.0
 10
31.6152
 20
-64.8942
 30
0.0
 10
32.6939
 20
-66.2538
 30
0.0
 10
32.9441
 20
-66.7358
 30
0.0
 10
34.0535
 20
-67.9769
 30
0.0
 10
34.0535
 20
-67.9769
 30
0.0
 10
33.045
 20
-63.7329
 30
0.0
 10
35.0416
 20
-60.4798
 30
0.0
 10
37.8924
 20
-60.5288
 30
0.0
 10
37.8924
 20
-60.5288
 30
0.0
 10
33.69
 20
-57.5874
 30
0.0
 10
31.7651
 20
-50.4999
 30
0.0
 10
33.9116
 20
-45.8456
 30
0.0
 10
33.9116
 20
-45.8456
 30
0.0
 10
33.9116
 20
-45.8456
 30
0.0
 10
31.0608
 20
-45.8046
 30
0.0
 10
31.0608
 20
-45.8046
 30
0.0
 10
31.0608
 20
-45.8046
 30
0.0
 10
32.8746
 20
-50.2088
 30
0.0
 10
32.8051
 20
-58.0598
 30
0.0
 10
31.6152
 20
-64.8942
 30
0.0
  0
SPLINE
  5
CF
330
1F
100
AcDbEntity
  8
layer 1
 62
     7
100
AcDbSpline
210
0.0
220
0.0
230
1.0
 70
    11
 71
     3
 72
    20
 73
    16
 74
     0
 42
0.0000000001
 43
0.0000000001
 12
1.0
 22
0.0
 32
0.0
 13
1.0
 23
0.0
 33
0.0
 40
0.0
 40
0.0
 40
0.0
 40
0.0
 40
0.2
 40
0.2
 40
0.2
 40
0.2
 40
0.4
 40
0.4
 40
0.4
 40
0.4
 40
0.6
 40
0.6
 40
0.6
 40
0.6
 40
1.0
 40
1.0
 40
1.0
 40
1.0
 10
62.4649
 20
-74.4171
 30
0.0
 10
63.7133
 20
-75.8981
 30
0.0
 10
63.8559
 20
-76.2308
 30
0.0
 10
64.4592
 20
-77.6211
 30
0.0
 10
64.4592
 20
-77.6211
 30
0.0
 10
67.8958
 20
-77.3783
 30
0.0
 10
72.6949
 20
-76.4627
 30
0.0
 10
74.3975
 20
-74.8193
 30
0.0
 10
74.3975
 20
-74.8193
 30
0.0
 10
73.046
 20
-71.6563
 30
0.0
 10
71.4845
 20
-69.1872
 30
0.0
 10
69.4777
 20
-65.668
 30
0.0
 10
69.4777
 20
-65.668
 30
0.0
 10
70.4373
 20
-71.352
 30
0.0
 10
67.1191
 20
-74.3652
 30
0.0
 10
62.4649
 20
-74.4171
 30
0.0
  0
SPLINE
  5
D0
330
1F
100
AcDbEntity
  8
layer 1
 62
     7
100
AcDbSpline
210
0.0
220
0.0
230
1.0
 70
    11
 71
     3
 72
    16
 73
    12
 74
     0
 42
0.0000000001
 43
0.0000000001
 12
1.0
 22
0.0
 32
0.0
 13
1.0
 23
0.0
 33
0.0
 40
0.0
 40
0.0
 40
0.0
 40
0.0
 40
0.25
 40
0.25
 40
0.25
 40
0.25
 40
0.5
 40
0.5
 40
0.5
 40
0.5
 40
1.0
 40
1.0
 40
1.0
 40
1.0
 10
67.9163
 20
-88.8882
 30
0.0
 10
66.8975
 20
-88.9504
 30
0.0
 10
65.184
 20
-89.3936
 30
0.0
 10
64.9441
 20
-89.8273
 30
0.0
 10
64.9441
 20
-89.8273
 30
0.0
 10
65.5482
 20
-88.5862
 30
0.0
 10
65.8393
 20
-87.7298
 30
0.0
 10
65.881
 20
-85.9058
 30
0.0
 10
65.881
 20
-85.9058
 30
0.0
 10
66.1413
 20
-87.3583
 30
0.0
 10
66.8171
 20
-88.437
 30
0.0
 10
67.9163
 20
-88.8882
 30
0.0
  0
SPLINE
  5
D1
330
1F
100
AcDbEntity
  8
layer 1
 62
     7
100
AcDbSpline
210
0.0
220
0.0
230
1.0
 70
    11
 71
     3
 72
    16
 73
    12
 74
     0
 42
0.0000000001
 43
0.0000000001
 12
1.0
 22
0.0
 32
0.0
 13
1.0
 23
0.0
 33
0.0
 40
0.0
 40
0.0
 40
0.0
 40
0.0
 40
0.25
 40
0.25
 40
0.25
 40
0.25
 40
0.5
 40
0.5
 40
0.5
 40
0.5
 40
1.0
 40
1.0
 40
1.0
 40
1.0
 10
68.6418
 20
-80.5238
 30
0.0
 10
67.261
 20
-81.411
 30
0.0
 10
66.0024
 20
-83.4368
 30
0.0
 10
65.7596
 20
-83.8807
 30
0.0
 10
65.7596
 20
-83.8807
 30
0.0
 10
65.8115
 20
-82.5285
 30
0.0
 10
65.7903
 20
-81.7752
 30
0.0
 10
65.5277
 20
-80.8771
 30
0.0
 10
65.5277
 20
-80.8771
 30
0.0
 10
66.3527
 20
-80.9363
 30
0.0
 10
67.0292
 20
-80.9985
 30
0.0
 10
68.6418
 20
-80.5238
 30
0.0
  0
SPLINE
  5
D2
330
1F
100
AcDbEntity
  8
layer 1
 62
     7
100
AcDbSpline
210
0.0
220
0.0
230
1.0
 70
    11
 71
     3
 72
    32
 73
    28
 74
     0
 42
0.0000000001
 43
0.0000000001
 12
1.0
 22
0.0
 32
0.0
 13
1.0
 23
0.0
 33
0.0
 40
0.0
 40
0.0
 40
0.0
 40
0.0
 40
0.125
 40
0.125
 40
0.125
 40
0.125
 40
0.25
 40
0.25
 40
0.25
 40
0.25
 40
0.375
 40
0.375
 40
0.375
 40
0.375
 40
0.5
 40
0.5
 40
0.5
 40
0.5
 40
0.625
 40
0.625
 40
0.625
 40
0.625
 40
0.75
 40
0.75
 40
0.75
 40
0.75
 40
1.0
 40
1.0
 40
1.0
 40
1.0
 10
79.2039
 20
-85.9673
 30
0.0
 10
77.7229
 20
-82.5906
 30
0.0
 10
71.0823
 20
-82.1569
 30
0.0
 10
72.3307
 20
-89.3629
 30
0.0
 10
72.3307
 20
-89.3629
 30
0.0
 10
71.4436
 20
-89.0996
 30
0.0
 10
70.868
 20
-88.9607
 30
0.0
 10
70.0423
 20
-89.1311
 30
0.0
 10
70.0423
 20
-89.1311
 30
0.0
 10
72.8858
 20
-87.6603
 30
0.0
 10
70.6486
 20
-83.9707
 30
0.0
 10
67.9968
 20
-85.1598
 30
0.0
 10
67.9968
 20
-85.1598
 30
0.0
 10
69.1654
 20
-83.488
 30
0.0
 10
70.5557
 20
-83.891
 30
0.0
 10
71.4743
 20
-83.3951
 30
0.0
 10
71.4743
 20
-83.3951
 30
0.0
 10
74.1861
 20
-81.9141
 30
0.0
 10
74.8802
 20
-81.0475
 30
0.0
 10
74.9109
 20
-79.1021
 30
0.0
 10
74.9109
 20
-79.1021
 30
0.0
 10
75.1537
 20
-77.6731
 30
0.0
 10
75.8887
 20
-77.2781
 30
0.0
 10
76.7766
 20
-78.3773
 30
0.0
 10
76.7766
 20
-78.3773
 30
0.0
 10
78.4996
 20
-81.7649
 30
0.0
 10
79.2529
 20
-83.9707
 30
0.0
 10
79.2039
 20
-85.9673
 30
0.0
  0
SPLINE
  5
D3
330
1F
100
AcDbEntity
  8
layer 1
 62
     7
100
AcDbSpline
210
0.0
220
0.0
230
1.0
 70
    11
 71
     3
 72
    24
 73
    20
 74
     0
 42
0.0000000001
 43
0.0000000001
 12
1.0
 22
0.0
 32
0.0
 13
1.0
 23
0.0
 33
0.0
 40
0.0
 40
0.0
 40
0.0
 40
0.0
 40
0.1666666666666667
 40
0.1666666666666667
 40
0.1666666666666667
 40
0.1666666666666667
 40
0.3333333333333333
 40
0.3333333333333333
 40
0.3333333333333333
 40
0.3333333333333333
 40
0.5
 40
0.5
 40
0.5
 40
0.5
 40
0.6666666666666666
 40
0.6666666666666666
 40
0.6666666666666666
 40
0.6666666666666666
 40
1.0
 40
1.0
 40
1.0
 40
1.0
 10
83.7397
 20
-86.7725
 30
0.0
 10
82.661
 20
-85.4129
 30
0.0
 10
82.4087
 20
-84.928
 30
0.0
 10
81.2992
 20
-83.6891
 30
0.0
 10
81.2992
 20
-83.6891
 30
0.0
 10
82.3077
 20
-87.9309
 30
0.0
 10
80.3134
 20
-91.1869
 30
0.0
 10
77.4596
 20
-91.1357
 30
0.0
 10
77.4596
 20
-91.1357
 30
0.0
 10
81.6627
 20
-94.0793
 30
0.0
 10
83.5876
 20
-101.1639
 30
0.0
 10
81.4411
 20
-105.8313
 30
0.0
 10
81.4411
 20
-105.8313
 30
0.0
 10
81.4411
 20
-105.8313
 30
0.0
 10
84.2948
 20
-105.8599
 30
0.0
 10
84.2948
 20
-105.8599
 30
0.0
 10
84.2948
 20
-105.8599
 30
0.0
 10
82.4781
 20
-101.4557
 30
0.0
 10
82.5505
 20
-93.6047
 30
0.0
 10
83.7397
 20
-86.7725
 30
0.0
  0
SPLINE
  5
D4
330
1F
100
AcDbEntity
  8
layer 1
 62
     7
100
AcDbSpline
210
0.0
220
0.0
230
1.0
 70
    11
 71
     3
 72
    20
 73
    16
 74
     0
 42
0.0000000001
 43
0.0000000001
 12
1.0
 22
0.0
 32
0.0
 13
1.0
 23
0.0
 33
0.0
 40
0.0
 40
0.0
 40
0.0
 40
0.0
 40
0.2
 40
0.2
 40
0.2
 40
0.2
 40
0.4
 40
0.4
 40
0.4
 40
0.4
 40
0.6
 40
0.6
 40
0.6
 40
0.6
 40
1.0
 40
1.0
 40
1.0
 40
1.0
 10
52.95
 20
-76.9066
 30
0.0
 10
51.7009
 20
-75.4256
 30
0.0
 10
51.5488
 20
-75.1031
 30
0.0
 10
50.9454
 20
-73.7128
 30
0.0
 10
50.9454
 20
-73.7128
 30
0.0
 10
47.5191
 20
-73.9527
 30
0.0
 10
42.7097
 20
-74.8603
 30
0.0
 10
41.0174
 20
-76.5044
 30
0.0
 10
41.0174
 20
-76.5044
 30
0.0
 10
42.3689
 20
-79.6674
 30
0.0
 10
43.9194
 20
-82.1365
 30
0.0
 10
45.9269
 20
-85.663
 30
0.0
 10
45.9269
 20
-85.663
 30
0.0
 10
44.9776
 20
-79.9687
 30
0.0
 10
48.2928
 20
-76.9658
 30
0.0
 10
52.95
 20
-76.9066
 30
0.0
  0
SPLINE
  5
D5
330
1F
100
AcDbEntity
  8
layer 1
 62
     7
100
AcDbSpline
210
0.0
220
0.0
230
1.0
 70
    11
 71
     3
 72
    48
 73
    44
 74
     0
 42
0.0000000001
 43
0.0000000001
 12
1.0
 22
0.0
 32
0.0
 13
1.0
 23
0.0
 33
0.0
 40
0.0
 40
0.0
 40
0.0
 40
0.0
 40
0.0833333333333333
 40
0.0833333333333333
 40
0.0833333333333333
 40
0.0833333333333333
 40
0.1666666666666667
 40
0.1666666666666667
 40
0.1666666666666667
 40
0.1666666666666667
 40
0.25
 40
0.25
 40
0.25
 40
0.25
 40
0.3333333333333333
 40
0.3333333333333333
 40
0.3333333333333333
 40
0.3333333333333333
 40
0.4166666666666667
 40
0.4166666666666667
 40
0.4166666666666667
 40
0.4166666666666667
 40
0.5
 40
0.5
 40
0.5
 40
0.5
 40
0.5833333333333334
 40
0.5833333333333334
 40
0.5833333333333334
 40
0.5833333333333334
 40
0.6666666666666666
 40
0.6666666666666666
 40
0.6666666666666666
 40
0.6666666666666666
 40
0.75
 40
0.75
 40
0.75
 40
0.75
 40
0.8333333333333334
 40
0.8333333333333334
 40
0.8333333333333334
 40
0.8333333333333334
 40
1.0
 40
1.0
 40
1.0
 40
1.0
 10
67.2925
 20
-106.6153
 30
0.0
 10
70.3751
 20
-105.1965
 30
0.0
 10
74.7588
 20
-104.7526
 30
0.0
 10
78.8119
 20
-104.9954
 30
0.0
 10
78.8119
 20
-104.9954
 30
0.0
 10
80.4143
 20
-103.1298
 30
0.0
 10
80.2622
 20
-96.1849
 30
0.0
 10
74.2037
 20
-92.526
 30
0.0
 10
74.2037
 20
-92.526
 30
0.0
 10
63.7549
 20
-87.3663
 30
0.0
 10
56.6777
 20
-99.884
 30
0.0
 10
51.1253
 20
-109.8611
 30
0.0
 10
51.1253
 20
-109.8611
 30
0.0
 10
54.5414
 20
-109.7294
 30
0.0
 10
57.0624
 20
-109.8611
 30
0.0
 10
57.2328
 20
-109.9927
 30
0.0
 10
57.2328
 20
-109.9927
 30
0.0
 10
54.5129
 20
-108.7128
 30
0.0
 10
54.815
 20
-105.1037
 30
0.0
 10
56.3552
 20
-103.886
 30
0.0
 10
56.3552
 20
-103.886
 30
0.0
 10
58.0197
 20
-102.5549
 30
0.0
 10
63.0894
 20
-103.8238
 30
0.0
 10
61.3971
 20
-109.4895
 30
0.0
 10
61.3971
 20
-109.4895
 30
0.0
 10
62.5139
 20
-109.1465
 30
0.0
 10
63.6438
 20
-108.6514
 30
0.0
 10
64.6114
 20
-108.1687
 30
0.0
 10
64.6114
 20
-108.1687
 30
0.0
 10
61.3554
 20
-99.4613
 30
0.0
 10
66.5158
 20
-96.288
 30
0.0
 10
70.0943
 20
-96.4891
 30
0.0
 10
70.0943
 20
-96.4891
 30
0.0
 10
74.7383
 20
-97.0025
 30
0.0
 10
73.7422
 20
-101.4864
 30
0.0
 10
72.9758
 20
-102.4949
 30
0.0
 10
72.9758
 20
-102.4949
 30
0.0
 10
71.4224
 20
-104.5208
 30
0.0
 10
67.4936
 20
-103.8655
 30
0.0
 10
67.261
 20
-101.2158
 30
0.0
 10
67.261
 20
-101.2158
 30
0.0
 10
65.881
 20
-102.846
 30
0.0
 10
65.6279
 20
-104.9852
 30
0.0
 10
67.2925
 20
-106.6153
 30
0.0
  0
SPLINE
  5
D6
330
1F
100
AcDbEntity
  8
layer 1
 62
     7
100
AcDbSpline
210
0.0
220
0.0
230
1.0
 70
    11
 71
     3
 72
    12
 73
     8
 74
     0
 42
0.0000000001
 43
0.0000000001
 12
1.0
 22
0.0
 32
0.0
 13
1.0
 23
0.0
 33
0.0
 40
0.0
 40
0.0
 40
0.0
 40
0.0
 40
0.3333333333333333
 40
0.3333333333333333
 40
0.3333333333333333
 40
0.3333333333333333
 40
1.0
 40
1.0
 40
1.0
 40
1.0
 10
69.3768
 20
-109.0953
 30
0.0
 10
70.476
 20
-107.5654
 30
0.0
 10
74.8414
 20
-107.2216
 30
0.0
 10
76.6237
 20
-107.4827
 30
0.0
 10
76.6237
 20
-107.4827
 30
0.0
 10
75.0221
 20
-109.4691
 30
0.0
 10
71.2937
 20
-109.6907
 30
0.0
 10
69.3768
 20
-109.0953
 30
0.0
  0
SPLINE
  5
D7
330
1F
100
AcDbEntity
  8
layer 1
 62
     7
100
AcDbSpline
210
0.0
220
0.0
230
1.0
 70
    11
 71
     3
 72
    16
 73
    12
 74
     0
 42
0.0000000001
 43
0.0000000001
 12
1.0
 22
0.0
 32
0.0
 13
1.0
 23
0.0
 33
0.0
 40
0.0
 40
0.0
 40
0.0
 40
0.0
 40
0.25
 40
0.25
 40
0.25
 40
0.25
 40
0.5
 40
0.5
 40
0.5
 40
0.5
 40
1.0
 40
1.0
 40
1.0
 40
1.0
 10
93.4147
 20
-36.382
 30
0.0
 10
93.4535
 20
-38.0334
 30
0.0
 10
93.4535
 20
-40.8249
 30
0.0
 10
93.4249
 20
-43.0131
 30
0.0
 10
93.4249
 20
-43.0131
 30
0.0
 10
92.2153
 20
-41.3303
 30
0.0
 10
91.8021
 20
-40.5953
 30
0.0
 10
90.572
 20
-39.1735
 30
0.0
 10
90.572
 20
-39.1735
 30
0.0
 10
91.8233
 20
-38.206
 30
0.0
 10
92.7492
 20
-37.2596
 30
0.0
 10
93.4147
 20
-36.382
 30
0.0
  0
SPLINE
  5
D8
330
1F
100
AcDbEntity
  8
layer 1
 62
     7
100
AcDbSpline
210
0.0
220
0.0
230
1.0
 70
    11
 71
     3
 72
    24
 73
    20
 74
     0
 42
0.0000000001
 43
0.0000000001
 12
1.0
 22
0.0
 32
0.0
 13
1.0
 23
0.0
 33
0.0
 40
0.0
 40
0.0
 40
0.0
 40
0.0
 40
0.1666666666666667
 40
0.1666666666666667
 40
0.1666666666666667
 40
0.1666666666666667
 40
0.3333333333333333
 40
0.3333333333333333
 40
0.3333333333333333
 40
0.3333333333333333
 40
0.5
 40
0.5
 40
0.5
 40
0.5
 40
0.6666666666666666
 40
0.6666666666666666
 40
0.6666666666666666
 40
0.6666666666666666
 40
1.0
 40
1.0
 40
1.0
 40
1.0
 10
92.295
 20
-34.1141
 30
0.0
 10
91.1958
 20
-35.8971
 30
0.0
 10
90.471
 20
-36.7842
 30
0.0
 10
89.1707
 20
-38.1548
 30
0.0
 10
89.1707
 20
-38.1548
 30
0.0
 10
87.7804
 20
-36.5524
 30
0.0
 10
85.9455
 20
-36.0799
 30
0.0
 10
84.1939
 20
-35.5541
 30
0.0
 10
84.1939
 20
-35.5541
 30
0.0
 10
84.1939
 20
-35.5541
 30
0.0
 10
84.052
 20
-32.9556
 30
0.0
 10
84.052
 20
-32.9556
 30
0.0
 10
84.052
 20
-32.9556
 30
0.0
 10
86.0076
 20
-32.8137
 30
0.0
 10
88.0327
 20
-31.4827
 30
0.0
 10
89.0105
 20
-30.8684
 30
0.0
 10
89.0105
 20
-30.8684
 30
0.0
 10
90.7628
 20
-32.2491
 30
0.0
 10
91.3377
 20
-32.9556
 30
0.0
 10
92.295
 20
-34.1141
 30
0.0
  0
SPLINE
  5
D9
330
1F
100
AcDbEntity
  8
layer 1
 62
     7
100
AcDbSpline
210
0.0
220
0.0
230
1.0
 70
    11
 71
     3
 72
    24
 73
    20
 74
     0
 42
0.0000000001
 43
0.0000000001
 12
1.0
 22
0.0
 32
0.0
 13
1.0
 23
0.0
 33
0.0
 40
0.0
 40
0.0
 40
0.0
 40
0.0
 40
0.1666666666666667
 40
0.1666666666666667
 40
0.1666666666666667
 40
0.1666666666666667
 40
0.3333333333333333
 40
0.3333333333333333
 40
0.3333333333333333
 40
0.3333333333333333
 40
0.5
 40
0.5
 40
0.5
 40
0.5
 40
0.6666666666666666
 40
0.6666666666666666
 40
0.6666666666666666
 40
0.6666666666666666
 40
1.0
 40
1.0
 40
1.0
 40
1.0
 10
72.7849
 20
-34.3152
 30
0.0
 10
73.8117
 20
-36.0185
 30
0.0
 10
74.4363
 20
-36.6738
 30
0.0
 10
75.9275
 20
-37.8037
 30
0.0
 10
75.9275
 20
-37.8037
 30
0.0
 10
77.2176
 20
-36.2811
 30
0.0
 10
78.9304
 20
-35.8174
 30
0.0
 10
80.5635
 20
-35.3245
 30
0.0
 10
80.5635
 20
-35.3245
 30
0.0
 10
80.5635
 20
-35.3245
 30
0.0
 10
80.6849
 20
-32.8445
 30
0.0
 10
80.6849
 20
-32.8445
 30
0.0
 10
80.6849
 20
-32.8445
 30
0.0
 10
78.8711
 20
-32.7135
 30
0.0
 10
76.6237
 20
-31.9471
 30
0.0
 10
75.7161
 20
-30.9488
 30
0.0
 10
75.7161
 20
-30.9488
 30
0.0
 10
74.377
 20
-32.2594
 30
0.0
 10
73.7217
 20
-33.077
 30
0.0
 10
72.7849
 20
-34.3152
 30
0.0
  0
SPLINE
  5
DA
330
1F
100
AcDbEntity
  8
layer 1
 62
     7
100
AcDbSpline
210
0.0
220
0.0
230
1.0
 70
    11
 71
     3
 72
    20
 73
    16
 74
     0
 42
0.0000000001
 43
0.0000000001
 12
1.0
 22
0.0
 32
0.0
 13
1.0
 23
0.0
 33
0.0
 40
0.0
 40
0.0
 40
0.0
 40
0.0
 40
0.2
 40
0.2
 40
0.2
 40
0.2
 40
0.4
 40
0.4
 40
0.4
 40
0.4
 40
0.6
 40
0.6
 40
0.6
 40
0.6
 40
1.0
 40
1.0
 40
1.0
 40
1.0
 10
73.2573
 20
-39.1114
 30
0.0
 10
72.39
 20
-39.8083
 30
0.0
 10
71.8173
 20
-40.5543
 30
0.0
 10
71.1723
 20
-41.47
 30
0.0
 10
71.1723
 20
-41.47
 30
0.0
 10
70.4065
 20
-40.3912
 30
0.0
 10
69.8931
 20
-39.9297
 30
0.0
 10
69.1369
 20
-39.1633
 30
0.0
 10
69.1369
 20
-39.1633
 30
0.0
 10
69.7615
 20
-38.3661
 30
0.0
 10
70.4863
 20
-37.5997
 30
0.0
 10
71.0099
 20
-36.8157
 30
0.0
 10
71.0099
 20
-36.8157
 30
0.0
 10
71.565
 20
-37.5711
 30
0.0
 10
72.2305
 20
-38.206
 30
0.0
 10
73.2573
 20
-39.1114
 30
0.0
  0
SPLINE
  5
DB
330
1F
100
AcDbEntity
  8
layer 1
 62
     7
100
AcDbSpline
210
0.0
220
0.0
230
1.0
 70
    11
 71
     3
 72
    20
 73
    16
 74
     0
 42
0.0000000001
 43
0.0000000001
 12
1.0
 22
0.0
 32
0.0
 13
1.0
 23
0.0
 33
0.0
 40
0.0
 40
0.0
 40
0.0
 40
0.0
 40
0.2
 40
0.2
 40
0.2
 40
0.2
 40
0.4
 40
0.4
 40
0.4
 40
0.4
 40
0.6
 40
0.6
 40
0.6
 40
0.6
 40
1.0
 40
1.0
 40
1.0
 40
1.0
 10
69.0748
 20
-34.2947
 30
0.0
 10
68.2081
 20
-34.9917
 30
0.0
 10
67.6355
 20
-35.7369
 30
0.0
 10
66.9977
 20
-36.6533
 30
0.0
 10
66.9977
 20
-36.6533
 30
0.0
 10
66.2342
 20
-35.5746
 30
0.0
 10
65.7076
 20
-35.1124
 30
0.0
 10
64.9544
 20
-34.3466
 30
0.0
 10
64.9544
 20
-34.3466
 30
0.0
 10
65.5789
 20
-33.5495
 30
0.0
 10
66.3139
 20
-32.783
 30
0.0
 10
66.8281
 20
-31.9983
 30
0.0
 10
66.8281
 20
-31.9983
 30
0.0
 10
67.3927
 20
-32.7545
 30
0.0
 10
68.048
 20
-33.3893
 30
0.0
 10
69.0748
 20
-34.2947
 30
0.0
  0
SPLINE
  5
DC
330
1F
100
AcDbEntity
  8
layer 1
 62
     7
100
AcDbSpline
210
0.0
220
0.0
230
1.0
 70
    11
 71
     3
 72
    16
 73
    12
 74
     0
 42
0.0000000001
 43
0.0000000001
 12
1.0
 22
0.0
 32
0.0
 13
1.0
 23
0.0
 33
0.0
 40
0.0
 40
0.0
 40
0.0
 40
0.0
 40
0.25
 40
0.25
 40
0.25
 40
0.25
 40
0.5
 40
0.5
 40
0.5
 40
0.5
 40
1.0
 40
1.0
 40
1.0
 40
1.0
 10
24.3091
 20
-38.4283
 30
0.0
 10
26.3832
 20
-38.8612
 30
0.0
 10
29.2471
 20
-38.5672
 30
0.0
 10
30.9811
 20
-37.4607
 30
0.0
 10
30.9811
 20
-37.4607
 30
0.0
 10
30.3748
 20
-38.6989
 30
0.0
 10
29.5594
 20
-41.078
 30
0.0
 10
30.2147
 20
-43.2859
 30
0.0
 10
30.2147
 20
-43.2859
 30
0.0
 10
28.047
 20
-42.5999
 30
0.0
 10
24.9439
 20
-39.7879
 30
0.0
 10
24.3091
 20
-38.4283
 30
0.0
  0
SPLINE
  5
DD
330
1F
100
AcDbEntity
  8
layer 1
 62
     7
100
AcDbSpline
210
0.0
220
0.0
230
1.0
 70
    11
 71
     3
 72
    20
 73
    16
 74
     0
 42
0.0000000001
 43
0.0000000001
 12
1.0
 22
0.0
 32
0.0
 13
1.0
 23
0.0
 33
0.0
 40
0.0
 40
0.0
 40
0.0
 40
0.0
 40
0.2
 40
0.2
 40
0.2
 40
0.2
 40
0.4
 40
0.4
 40
0.4
 40
0.4
 40
0.6
 40
0.6
 40
0.6
 40
0.6
 40
1.0
 40
1.0
 40
1.0
 40
1.0
 10
32.5725
 20
-41.4107
 30
0.0
 10
32.4409
 20
-39.6277
 30
0.0
 10
33.5503
 20
-37.0168
 30
0.0
 10
37.9136
 20
-36.3198
 30
0.0
 10
37.9136
 20
-36.3198
 30
0.0
 10
36.1693
 20
-37.2384
 30
0.0
 10
36.6747
 20
-40.1104
 30
0.0
 10
38.1454
 20
-40.8556
 30
0.0
 10
38.1454
 20
-40.8556
 30
0.0
 10
37.0981
 20
-41.1577
 30
0.0
 10
36.5818
 20
-41.5628
 30
0.0
 10
35.7875
 20
-42.5099
 30
0.0
 10
35.7875
 20
-42.5099
 30
0.0
 10
35.9477
 20
-41.029
 30
0.0
 10
34.2963
 20
-39.9787
 30
0.0
 10
32.5725
 20
-41.4107
 30
0.0
  0
SPLINE
  5
DE
330
1F
100
AcDbEntity
  8
layer 1
 62
     7
100
AcDbSpline
210
0.0
220
0.0
230
1.0
 70
    11
 71
     3
 72
    12
 73
     8
 74
     0
 42
0.0000000001
 43
0.0000000001
 12
1.0
 22
0.0
 32
0.0
 13
1.0
 23
0.0
 33
0.0
 40
0.0
 40
0.0
 40
0.0
 40
0.0
 40
0.3333333333333333
 40
0.3333333333333333
 40
0.3333333333333333
 40
0.3333333333333333
 40
1.0
 40
1.0
 40
1.0
 40
1.0
 10
38.2463
 20
-44.8159
 30
0.0
 10
38.9916
 20
-42.5999
 30
0.0
 10
43.455
 20
-41.8437
 30
0.0
 10
44.8482
 20
-43.6574
 30
0.0
 10
44.8482
 20
-43.6574
 30
0.0
 10
43.5969
 20
-44.4034
 30
0.0
 10
40.8368
 20
-44.8575
 30
0.0
 10
38.2463
 20
-44.8159
 30
0.0
  0
SPLINE
  5
DF
330
1F
100
AcDbEntity
  8
layer 1
 62
     7
100
AcDbSpline
210
0.0
220
0.0
230
1.0
 70
    11
 71
     3
 72
    12
 73
     8
 74
     0
 42
0.0000000001
 43
0.0000000001
 12
1.0
 22
0.0
 32
0.0
 13
1.0
 23
0.0
 33
0.0
 40
0.0
 40
0.0
 40
0.0
 40
0.0
 40
0.3333333333333333
 40
0.3333333333333333
 40
0.3333333333333333
 40
0.3333333333333333
 40
1.0
 40
1.0
 40
1.0
 40
1.0
 10
79.0518
 20
-39.5758
 30
0.0
 10
80.2519
 20
-37.5711
 30
0.0
 10
84.7665
 20
-37.7518
 30
0.0
 10
85.7546
 20
-39.8186
 30
0.0
 10
85.7546
 20
-39.8186
 30
0.0
 10
84.3848
 20
-40.2808
 30
0.0
 10
81.5932
 20
-40.1513
 30
0.0
 10
79.0518
 20
-39.5758
 30
0.0
  0
SPLINE
  5
E0
330
1F
100
AcDbEntity
  8
layer 1
 62
     7
100
AcDbSpline
210
0.0
220
0.0
230
1.0
 70
    11
 71
     3
 72
    20
 73
    16
 74
     0
 42
0.0000000001
 43
0.0000000001
 12
1.0
 22
0.0
 32
0.0
 13
1.0
 23
0.0
 33
0.0
 40
0.0
 40
0.0
 40
0.0
 40
0.0
 40
0.2
 40
0.2
 40
0.2
 40
0.2
 40
0.4
 40
0.4
 40
0.4
 40
0.4
 40
0.6
 40
0.6
 40
0.6
 40
0.6
 40
1.0
 40
1.0
 40
1.0
 40
1.0
 10
54.08
 20
-38.5775
 30
0.0
 10
49.6941
 20
-39.4061
 30
0.0
 10
47.2865
 20
-39.1223
 30
0.0
 10
42.1963
 20
-36.8954
 30
0.0
 10
42.1963
 20
-36.8954
 30
0.0
 10
43.0732
 20
-38.255
 30
0.0
 10
42.8618
 20
-39.3132
 30
0.0
 10
42.3974
 20
-40.3525
 30
0.0
 10
42.3974
 20
-40.3525
 30
0.0
 10
44.7553
 20
-39.9195
 30
0.0
 10
46.0666
 20
-40.332
 30
0.0
 10
47.7407
 20
-42.2152
 30
0.0
 10
47.7407
 20
-42.2152
 30
0.0
 10
49.2421
 20
-41.7537
 30
0.0
 10
51.7009
 20
-39.9093
 30
0.0
 10
54.08
 20
-38.5775
 30
0.0
  0
SPLINE
  5
E1
330
1F
100
AcDbEntity
  8
layer 1
 62
     7
100
AcDbSpline
210
0.0
220
0.0
230
1.0
 70
    11
 71
     3
 72
    16
 73
    12
 74
     0
 42
0.0000000001
 43
0.0000000001
 12
1.0
 22
0.0
 32
0.0
 13
1.0
 23
0.0
 33
0.0
 40
0.0
 40
0.0
 40
0.0
 40
0.0
 40
0.25
 40
0.25
 40
0.25
 40
0.25
 40
0.5
 40
0.5
 40
0.5
 40
0.5
 40
1.0
 40
1.0
 40
1.0
 40
1.0
 10
64.49
 20
-38.4173
 30
0.0
 10
63.0199
 20
-38.1855
 30
0.0
 10
61.7993
 20
-38.1548
 30
0.0
 10
60.1172
 20
-38.508
 30
0.0
 10
60.1172
 20
-38.508
 30
0.0
 10
60.9634
 20
-37.7006
 30
0.0
 10
61.7891
 20
-36.6321
 30
0.0
 10
62.3025
 20
-35.8481
 30
0.0
 10
62.3025
 20
-35.8481
 30
0.0
 10
62.8569
 20
-36.4727
 30
0.0
 10
63.7732
 20
-37.6201
 30
0.0
 10
64.49
 20
-38.4173
 30
0.0
  0
SPLINE
  5
E2
330
1F
100
AcDbEntity
  8
layer 1
 62
     7
100
AcDbSpline
210
0.0
220
0.0
230
1.0
 70
    11
 71
     3
 72
    16
 73
    12
 74
     0
 42
0.0000000001
 43
0.0000000001
 12
1.0
 22
0.0
 32
0.0
 13
1.0
 23
0.0
 33
0.0
 40
0.0
 40
0.0
 40
0.0
 40
0.0
 40
0.25
 40
0.25
 40
0.25
 40
0.25
 40
0.5
 40
0.5
 40
0.5
 40
0.5
 40
1.0
 40
1.0
 40
1.0
 40
1.0
 10
21.1328
 20
-41.8232
 30
0.0
 10
21.1328
 20
-41.8232
 30
0.0
 10
21.1226
 20
-39.0419
 30
0.0
 10
21.1226
 20
-39.0419
 30
0.0
 10
21.1226
 20
-39.0419
 30
0.0
 10
21.6769
 20
-39.8778
 30
0.0
 10
22.281
 20
-40.3912
 30
0.0
 10
22.9568
 20
-40.7759
 30
0.0
 10
22.9568
 20
-40.7759
 30
0.0
 10
21.9995
 20
-40.9975
 30
0.0
 10
21.4758
 20
-41.3793
 30
0.0
 10
21.1328
 20
-41.8232
 30
0.0
  0
SPLINE
  5
E3
330
1F
100
AcDbEntity
  8
layer 1
 62
     7
100
AcDbSpline
210
0.0
220
0.0
230
1.0
 70
    11
 71
     3
 72
    16
 73
    12
 74
     0
 42
0.0000000001
 43
0.0000000001
 12
1.0
 22
0.0
 32
0.0
 13
1.0
 23
0.0
 33
0.0
 40
0.0
 40
0.0
 40
0.0
 40
0.0
 40
0.25
 40
0.25
 40
0.25
 40
0.25
 40
0.5
 40
0.5
 40
0.5
 40
0.5
 40
1.0
 40
1.0
 40
1.0
 40
1.0
 10
51.1773
 20
-32.2594
 30
0.0
 10
49.4747
 20
-32.0583
 30
0.0
 10
46.3679
 20
-33.2372
 30
0.0
 10
45.1788
 20
-34.2252
 30
0.0
 10
45.1788
 20
-34.2252
 30
0.0
 10
46.5098
 20
-35.2418
 30
0.0
 10
49.825
 20
-36.1604
 30
0.0
 10
51.0149
 20
-36.0982
 30
0.0
 10
51.0149
 20
-36.0982
 30
0.0
 10
53.636
 20
-35.9695
 30
0.0
 10
54.1597
 20
-32.6433
 30
0.0
 10
51.1773
 20
-32.2594
 30
0.0
  0
SPLINE
  5
E4
330
1F
100
AcDbEntity
  8
layer 1
 62
     7
100
AcDbSpline
210
0.0
220
0.0
230
1.0
 70
    11
 71
     3
 72
    16
 73
    12
 74
     0
 42
0.0000000001
 43
0.0000000001
 12
1.0
 22
0.0
 32
0.0
 13
1.0
 23
0.0
 33
0.0
 40
0.0
 40
0.0
 40
0.0
 40
0.0
 40
0.25
 40
0.25
 40
0.25
 40
0.25
 40
0.5
 40
0.5
 40
0.5
 40
0.5
 40
1.0
 40
1.0
 40
1.0
 40
1.0
 10
24.3376
 20
-32.2594
 30
0.0
 10
26.0504
 20
-32.0583
 30
0.0
 10
30.9394
 20
-33.4485
 30
0.0
 10
32.4307
 20
-34.1631
 30
0.0
 10
32.4307
 20
-34.1631
 30
0.0
 10
30.9292
 20
-34.8388
 30
0.0
 10
25.6891
 20
-36.1604
 30
0.0
 10
24.5102
 20
-36.0982
 30
0.0
 10
24.5102
 20
-36.0982
 30
0.0
 10
21.889
 20
-35.9695
 30
0.0
 10
21.3544
 20
-32.6433
 30
0.0
 10
24.3376
 20
-32.2594
 30
0.0
  0
SPLINE
  5
E5
330
1F
100
AcDbEntity
  8
layer 1
 62
     7
100
AcDbSpline
210
0.0
220
0.0
230
1.0
 70
    11
 71
     3
 72
    16
 73
    12
 74
     0
 42
0.0000000001
 43
0.0000000001
 12
1.0
 22
0.0
 32
0.0
 13
1.0
 23
0.0
 33
0.0
 40
0.0
 40
0.0
 40
0.0
 40
0.0
 40
0.25
 40
0.25
 40
0.25
 40
0.25
 40
0.5
 40
0.5
 40
0.5
 40
0.5
 40
1.0
 40
1.0
 40
1.0
 40
1.0
 10
93.4249
 20
-31.8257
 30
0.0
 10
93.4637
 20
-30.1743
 30
0.0
 10
93.4637
 20
-27.3806
 30
0.0
 10
93.4359
 20
-25.1953
 30
0.0
 10
93.4359
 20
-25.1953
 30
0.0
 10
92.2255
 20
-26.8774
 30
0.0
 10
91.813
 20
-27.6124
 30
0.0
 10
90.5924
 20
-29.0341
 30
0.0
 10
90.5924
 20
-29.0341
 30
0.0
 10
91.8306
 20
-30.0017
 30
0.0
 10
92.7594
 20
-30.959
 30
0.0
 10
93.4249
 20
-31.8257
 30
0.0
  0
SPLINE
  5
E6
330
1F
100
AcDbEntity
  8
layer 1
 62
     7
100
AcDbSpline
210
0.0
220
0.0
230
1.0
 70
    11
 71
     3
 72
    20
 73
    16
 74
     0
 42
0.0000000001
 43
0.0000000001
 12
1.0
 22
0.0
 32
0.0
 13
1.0
 23
0.0
 33
0.0
 40
0.0
 40
0.0
 40
0.0
 40
0.0
 40
0.2
 40
0.2
 40
0.2
 40
0.2
 40
0.4
 40
0.4
 40
0.4
 40
0.4
 40
0.6
 40
0.6
 40
0.6
 40
0.6
 40
1.0
 40
1.0
 40
1.0
 40
1.0
 10
73.2676
 20
-29.3669
 30
0.0
 10
72.4009
 20
-28.6707
 30
0.0
 10
71.8275
 20
-27.9247
 30
0.0
 10
71.1905
 20
-27.009
 30
0.0
 10
71.1905
 20
-27.009
 30
0.0
 10
70.427
 20
-28.087
 30
0.0
 10
69.9005
 20
-28.5515
 30
0.0
 10
69.1472
 20
-29.3157
 30
0.0
 10
69.1472
 20
-29.3157
 30
0.0
 10
69.7717
 20
-30.1231
 30
0.0
 10
70.5067
 20
-30.8896
 30
0.0
 10
71.0201
 20
-31.6655
 30
0.0
 10
71.0201
 20
-31.6655
 30
0.0
 10
71.5855
 20
-30.91
 30
0.0
 10
72.2408
 20
-30.2752
 30
0.0
 10
73.2676
 20
-29.3669
 30
0.0
  0
SPLINE
  5
E7
330
1F
100
AcDbEntity
  8
layer 1
 62
     7
100
AcDbSpline
210
0.0
220
0.0
230
1.0
 70
    11
 71
     3
 72
    16
 73
    12
 74
     0
 42
0.0000000001
 43
0.0000000001
 12
1.0
 22
0.0
 32
0.0
 13
1.0
 23
0.0
 33
0.0
 40
0.0
 40
0.0
 40
0.0
 40
0.0
 40
0.25
 40
0.25
 40
0.25
 40
0.25
 40
0.5
 40
0.5
 40
0.5
 40
0.5
 40
1.0
 40
1.0
 40
1.0
 40
1.0
 10
24.3266
 20
-30.0536
 30
0.0
 10
26.3934
 20
-29.62
 30
0.0
 10
29.2573
 20
-29.911
 30
0.0
 10
30.9884
 20
-31.0205
 30
0.0
 10
30.9884
 20
-31.0205
 30
0.0
 10
30.3851
 20
-29.7794
 30
0.0
 10
29.5696
 20
-27.401
 30
0.0
 10
30.2249
 20
-25.1953
 30
0.0
 10
30.2249
 20
-25.1953
 30
0.0
 10
28.0579
 20
-25.8784
 30
0.0
 10
24.9541
 20
-28.6911
 30
0.0
 10
24.3266
 20
-30.0536
 30
0.0
  0
SPLINE
  5
E8
330
1F
100
AcDbEntity
  8
layer 1
 62
     7
100
AcDbSpline
210
0.0
220
0.0
230
1.0
 70
    11
 71
     3
 72
    20
 73
    16
 74
     0
 42
0.0000000001
 43
0.0000000001
 12
1.0
 22
0.0
 32
0.0
 13
1.0
 23
0.0
 33
0.0
 40
0.0
 40
0.0
 40
0.0
 40
0.0
 40
0.2
 40
0.2
 40
0.2
 40
0.2
 40
0.4
 40
0.4
 40
0.4
 40
0.4
 40
0.6
 40
0.6
 40
0.6
 40
0.6
 40
1.0
 40
1.0
 40
1.0
 40
1.0
 10
32.5828
 20
-27.0683
 30
0.0
 10
32.4621
 20
-28.8637
 30
0.0
 10
33.5606
 20
-31.4644
 30
0.0
 10
37.934
 20
-32.1687
 30
0.0
 10
37.934
 20
-32.1687
 30
0.0
 10
36.1795
 20
-31.2428
 30
0.0
 10
36.6827
 20
-28.3686
 30
0.0
 10
38.1556
 20
-27.6226
 30
0.0
 10
38.1556
 20
-27.6226
 30
0.0
 10
37.1083
 20
-27.3316
 30
0.0
 10
36.603
 20
-26.9184
 30
0.0
 10
35.7978
 20
-25.972
 30
0.0
 10
35.7978
 20
-25.972
 30
0.0
 10
35.9579
 20
-27.453
 30
0.0
 10
34.3066
 20
-28.5003
 30
0.0
 10
32.5828
 20
-27.0683
 30
0.0
  0
SPLINE
  5
E9
330
1F
100
AcDbEntity
  8
layer 1
 62
     7
100
AcDbSpline
210
0.0
220
0.0
230
1.0
 70
    11
 71
     3
 72
    12
 73
     8
 74
     0
 42
0.0000000001
 43
0.0000000001
 12
1.0
 22
0.0
 32
0.0
 13
1.0
 23
0.0
 33
0.0
 40
0.0
 40
0.0
 40
0.0
 40
0.0
 40
0.3333333333333333
 40
0.3333333333333333
 40
0.3333333333333333
 40
0.3333333333333333
 40
1.0
 40
1.0
 40
1.0
 40
1.0
 10
79.0723
 20
-28.9025
 30
0.0
 10
80.2622
 20
-30.91
 30
0.0
 10
84.787
 20
-30.7265
 30
0.0
 10
85.7758
 20
-28.6707
 30
0.0
 10
85.7758
 20
-28.6707
 30
0.0
 10
84.395
 20
-28.1982
 30
0.0
 10
81.6035
 20
-28.3299
 30
0.0
 10
79.0723
 20
-28.9025
 30
0.0
  0
SPLINE
  5
EA
330
1F
100
AcDbEntity
  8
layer 1
 62
     7
100
AcDbSpline
210
0.0
220
0.0
230
1.0
 70
    11
 71
     3
 72
    20
 73
    16
 74
     0
 42
0.0000000001
 43
0.0000000001
 12
1.0
 22
0.0
 32
0.0
 13
1.0
 23
0.0
 33
0.0
 40
0.0
 40
0.0
 40
0.0
 40
0.0
 40
0.2
 40
0.2
 40
0.2
 40
0.2
 40
0.4
 40
0.4
 40
0.4
 40
0.4
 40
0.6
 40
0.6
 40
0.6
 40
0.6
 40
1.0
 40
1.0
 40
1.0
 40
1.0
 10
54.0902
 20
-29.9008
 30
0.0
 10
49.7146
 20
-29.0751
 30
0.0
 10
47.2967
 20
-29.3567
 30
0.0
 10
42.2066
 20
-31.5829
 30
0.0
 10
42.2066
 20
-31.5829
 30
0.0
 10
43.0834
 20
-30.2336
 30
0.0
 10
42.8721
 20
-29.1658
 30
0.0
 10
42.4077
 20
-28.1287
 30
0.0
 10
42.4077
 20
-28.1287
 30
0.0
 10
44.7655
 20
-28.5617
 30
0.0
 10
46.0768
 20
-28.1573
 30
0.0
 10
47.7509
 20
-26.2631
 30
0.0
 10
47.7509
 20
-26.2631
 30
0.0
 10
49.2604
 20
-26.7275
 30
0.0
 10
51.7111
 20
-28.5697
 30
0.0
 10
54.0902
 20
-29.9008
 30
0.0
  0
SPLINE
  5
EB
330
1F
100
AcDbEntity
  8
layer 1
 62
     7
100
AcDbSpline
210
0.0
220
0.0
230
1.0
 70
    11
 71
     3
 72
    16
 73
    12
 74
     0
 42
0.0000000001
 43
0.0000000001
 12
1.0
 22
0.0
 32
0.0
 13
1.0
 23
0.0
 33
0.0
 40
0.0
 40
0.0
 40
0.0
 40
0.0
 40
0.25
 40
0.25
 40
0.25
 40
0.25
 40
0.5
 40
0.5
 40
0.5
 40
0.5
 40
1.0
 40
1.0
 40
1.0
 40
1.0
 10
64.5112
 20
-30.0639
 30
0.0
 10
63.0273
 20
-30.2935
 30
0.0
 10
61.8198
 20
-30.3242
 30
0.0
 10
60.1348
 20
-29.9812
 30
0.0
 10
60.1348
 20
-29.9812
 30
0.0
 10
60.9817
 20
-30.7784
 30
0.0
 10
61.7993
 20
-31.8564
 30
0.0
 10
62.3127
 20
-32.6331
 30
0.0
 10
62.3127
 20
-32.6331
 30
0.0
 10
62.8671
 20
-32.0063
 30
0.0
 10
63.7937
 20
-30.8581
 30
0.0
 10
64.5112
 20
-30.0639
 30
0.0
  0
SPLINE
  5
EC
330
1F
100
AcDbEntity
  8
layer 1
 62
     7
100
AcDbSpline
210
0.0
220
0.0
230
1.0
 70
    11
 71
     3
 72
    16
 73
    12
 74
     0
 42
0.0000000001
 43
0.0000000001
 12
1.0
 22
0.0
 32
0.0
 13
1.0
 23
0.0
 33
0.0
 40
0.0
 40
0.0
 40
0.0
 40
0.0
 40
0.25
 40
0.25
 40
0.25
 40
0.25
 40
0.5
 40
0.5
 40
0.5
 40
0.5
 40
1.0
 40
1.0
 40
1.0
 40
1.0
 10
21.0114
 20
-26.6551
 30
0.0
 10
21.0114
 20
-26.6551
 30
0.0
 10
21.0012
 20
-29.4466
 30
0.0
 10
21.0012
 20
-29.4466
 30
0.0
 10
21.0012
 20
-29.4466
 30
0.0
 10
21.5563
 20
-28.6107
 30
0.0
 10
22.1626
 20
-28.0973
 30
0.0
 10
22.8354
 20
-27.7031
 30
0.0
 10
22.8354
 20
-27.7031
 30
0.0
 10
21.8788
 20
-27.4837
 30
0.0
 10
21.3544
 20
-27.099
 30
0.0
 10
21.0114
 20
-26.6551
 30
0.0
  0
ENDSEC
  0
SECTION
  2
OBJECTS
  0
DICTIONARY
  5
C
330
0
100
AcDbDictionary
281
     1
  3
ACAD_GROUP
350
D
  3
ACAD_LAYOUT
350
1A
  3
ACAD_MATERIAL
350
3B
  3
ACAD_MLEADERSTYLE
350
10E
  3
ACAD_MLINESTYLE
350
17
  3
ACAD_PLOTSETTINGS
350
19
  3
ACAD_PLOTSTYLENAME
350
E
  3
ACAD_TABLESTYLE
350
10D
  3
ACAD_VISUALSTYLE
350
2A
  0
DICTIONARY
  5
D
102
{ACAD_REACTORS
330
C
102
}
330
C
100
AcDbDictionary
281
     1
  0
DICTIONARY
  5
1A
102
{ACAD_REACTORS
330
C
102
}
330
C
100
AcDbDictionary
281
     1
  3
Layout1
350
1E
  3
Layout2
350
26
  3
Model
350
22
  0
DICTIONARY
  5
3B
102
{ACAD_REACTORS
330
C
102
}
330
C
100
AcDbDictionary
281
     1
  3
ByBlock
350
3D
  3
ByLayer
350
3C
  3
Global
350
3E
  0
DICTIONARY
  5
10E
102
{ACAD_REACTORS
330
C
102
}
330
C
100
AcDbDictionary
281
     1
  0
DICTIONARY
  5
17
102
{ACAD_REACTORS
330
C
102
}
330
C
100
AcDbDictionary
281
     1
  3
Standard
350
18
  0
DICTIONARY
  5
19
102
{ACAD_REACTORS
330
C
102
}
330
C
100
AcDbDictionary
281
     1
  0
ACDBDICTIONARYWDFLT
  5
E
102
{ACAD_REACTORS
330
C
102
}
330
C
100
AcDbDictionary
281
     1
  3
Normal
350
F
100
AcDbDictionaryWithDefault
340
F
  0
DICTIONARY
  5
10D
102
{ACAD_REACTORS
330
C
102
}
330
C
100
AcDbDictionary
281
     1
  0
DICTIONARY
  5
2A
102
{ACAD_REACTORS
330
C
102
}
330
C
100
AcDbDictionary
281
     1
  3
2dWireframe
350
2F
  3
3D Hidden
350
31
  3
3dWireframe
350
30
  3
Basic
350
32
  3
Brighten
350
36
  3
ColorChange
350
3A
  3
Conceptual
350
34
  3
Dim
350
35
  3
Facepattern
350
39
  3
Flat
350
2B
  3
FlatWithEdges
350
2C
  3
Gouraud
350
2D
  3
GouraudWithEdges
350
2E
  3
Linepattern
350
38
  3
Realistic
350
33
  3
Thicken
350
37
  0
LAYOUT
  5
1E
102
{ACAD_REACTORS
330
1A
102
}
330
1A
100
AcDbPlotSettings
  1

  2
none_device
  4

  6

 40
0.0
 41
0.0
 42
0.0
 43
0.0
 44
0.0
 45
0.0
 46
0.0
 47
0.0
 48
0.0
 49
0.0
140
0.0
141
0.0
142
1.0
143
1.0
 70
   688
 72
     0
 73
     0
 74
     5
  7

 75
    16
 76
     0
 77
     2
 78
   300
147
1.0
148
0.0
149
0.0
100
AcDbLayout
  1
Layout1
 70
     1
 71
     1
 10
0.0
 20
0.0
 11
12.0
 21
9.0
 12
0.0
 22
0.0
 32
0.0
 14
1.000000000000000E+20
 24
1.000000000000000E+20
 34
1.000000000000000E+20
 15
-1.000000000000000E+20
 25
-1.000000000000000E+20
 35
-1.000000000000000E+20
146
0.0
 13
0.0
 23
0.0
 33
0.0
 16
1.0
 26
0.0
 36
0.0
 17
0.0
 27
1.0
 37
0.0
 76
     0
330
1B
  0
LAYOUT
  5
26
102
{ACAD_REACTORS
330
1A
102
}
330
1A
100
AcDbPlotSettings
  1

  2
none_device
  4

  6

 40
0.0
 41
0.0
 42
0.0
 43
0.0
 44
0.0
 45
0.0
 46
0.0
 47
0.0
 48
0.0
 49
0.0
140
0.0
141
0.0
142
1.0
143
1.0
 70
   688
 72
     0
 73
     0
 74
     5
  7

 75
    16
 76
     0
 77
     2
 78
   300
147
1.0
148
0.0
149
0.0
100
AcDbLayout
  1
Layout2
 70
     1
 71
     2
 10
0.0
 20
0.0
 11
0.0
 21
0.0
 12
0.0
 22
0.0
 32
0.0
 14
0.0
 24
0.0
 34
0.0
 15
0.0
 25
0.0
 35
0.0
146
0.0
 13
0.0
 23
0.0
 33
0.0
 16
1.0
 26
0.0
 36
0.0
 17
0.0
 27
1.0
 37
0.0
 76
     0
330
23
  0
LAYOUT
  5
22
102
{ACAD_REACTORS
330
1A
102
}
330
1A
100
AcDbPlotSettings
  1

  2
none_device
  4

  6

 40
0.0
 41
0.0
 42
0.0
 43
0.0
 44
0.0
 45
0.0
 46
0.0
 47
0.0
 48
0.0
 49
0.0
140
0.0
141
0.0
142
1.0
143
1.0
 70
  1712
 72
     0
 73
     0
 74
     0
  7

 75
     0
 76
     0
 77
     2
 78
   300
147
1.0
148
0.0
149
0.0
100
AcDbLayout
  1
Model
 70
     1
 71
     0
 10
0.0
 20
0.0
 11
12.0
 21
9.0
 12
0.0
 22
0.0
 32
0.0
 14
15.4488
 24
-114.8715
 34
0.0
 15
98.1311
 25
131.8335
 35
0.0
146
0.0
 13
0.0
 23
0.0
 33
0.0
 16
1.0
 26
0.0
 36
0.0
 17
0.0
 27
1.0
 37
0.0
 76
     0
330
1F
331
29
  0
MATERIAL
  5
3D
102
{ACAD_REACTORS
330
3B
102
}
330
3B
100
AcDbMaterial
  1
ByBlock
 72
     1
 94
      127
  0
MATERIAL
  5
3C
102
{ACAD_REACTORS
330
3B
102
}
330
3B
100
AcDbMaterial
  1
ByLayer
 72
     1
 94
      127
  0
MATERIAL
  5
3E
102
{ACAD_REACTORS
330
3B
102
}
330
3B
100
AcDbMaterial
  1
Global
 72
     1
 94
      127
  0
MLINESTYLE
  5
18
102
{ACAD_REACTORS
330
17
102
}
330
17
100
AcDbMlineStyle
  2
Standard
 70
     0
  3

 62
   256
 51
90.0
 52
90.0
 71
     2
 49
0.5
 62
   256
  6
BYLAYER
 49
-0.5
 62
   256
  6
BYLAYER
  0
ACDBPLACEHOLDER
  5
F
102
{ACAD_REACTORS
330
E
102
}
330
E
  0
VISUALSTYLE
  5
2F
102
{ACAD_REACTORS
330
2A
102
}
102
{ACAD_XDICTIONARY
360
F5
102
}
330
2A
100
AcDbVisualStyle
  2
2dWireframe
 70
     4
 71
     0
 72
     2
 73
     0
 90
        0
 40
-0.6
 41
-30.0
 62
     5
 63
     7
421
 16777215
 74
     1
 91
        4
 64
     7
 65
   257
 75
     1
175
     1
 42
1.0
 92
        0
 66
   257
 43
1.0
 76
     1
 77
     6
 78
     2
 67
     7
 79
     5
170
     0
171
     0
290
     0
174
     0
 93
        1
 44
0.0
173
     0
291
     0
 45
0.0
  0
VISUALSTYLE
  5
31
102
{ACAD_REACTORS
330
2A
102
}
102
{ACAD_XDICTIONARY
360
F9
102
}
330
2A
100
AcDbVisualStyle
  2
3D Hidden
 70
     6
 71
     1
 72
     2
 73
     2
 90
        0
 40
-0.6
 41
-30.0
 62
     5
 63
     7
421
 16777215
 74
     2
 91
        2
 64
     7
 65
   257
 75
     2
175
     1
 42
40.0
 92
        0
 66
   257
 43
1.0
 76
     1
 77
     6
 78
     2
 67
     7
 79
     3
170
     0
171
     0
290
     0
174
     0
 93
        1
 44
0.0
173
     0
291
     0
 45
0.0
  0
VISUALSTYLE
  5
30
102
{ACAD_REACTORS
330
2A
102
}
102
{ACAD_XDICTIONARY
360
F7
102
}
330
2A
100
AcDbVisualStyle
  2
3dWireframe
 70
     5
 71
     0
 72
     2
 73
     0
 90
        0
 40
-0.6
 41
-30.0
 62
     5
 63
     7
421
 16777215
 74
     1
 91
        4
 64
     7
 65
   257
 75
     1
175
     1
 42
1.0
 92
        0
 66
   257
 43
1.0
 76
     1
 77
     6
 78
     2
 67
     7
 79
     5
170
     0
171
     0
290
     0
174
     0
 93
        1
 44
0.0
173
     0
291
     0
 45
0.0
  0
VISUALSTYLE
  5
32
102
{ACAD_REACTORS
330
2A
102
}
102
{ACAD_XDICTIONARY
360
FB
102
}
330
2A
100
AcDbVisualStyle
  2
Basic
 70
     7
 71
     1
 72
     0
 73
     1
 90
        0
 40
-0.6
 41
-30.0
 62
     5
 63
     7
421
 16777215
 74
     0
 91
        4
 64
     7
 65
   257
 75
     1
175
     1
 42
1.0
 92
        8
 66
     7
 43
1.0
 76
     1
 77
     6
 78
     2
 67
     7
 79
     5
170
     0
171
     0
290
     0
174
     0
 93
        1
 44
0.0
173
     0
291
     1
 45
0.0
  0
VISUALSTYLE
  5
36
102
{ACAD_REACTORS
330
2A
102
}
102
{ACAD_XDICTIONARY
360
103
102
}
330
2A
100
AcDbVisualStyle
  2
Brighten
 70
    12
 71
     2
 72
     2
 73
     0
 90
        0
 40
-0.6
 41
-30.0
 62
     5
 63
     7
421
 16777215
 74
     1
 91
        4
 64
     7
 65
   257
 75
     1
175
     1
 42
1.0
 92
        8
 66
     7
 43
1.0
 76
     1
 77
     6
 78
     2
 67
     7
 79
     5
170
     0
171
     0
290
     0
174
     0
 93
        1
 44
50.0
173
     0
291
     1
 45
0.0
  0
VISUALSTYLE
  5
3A
102
{ACAD_REACTORS
330
2A
102
}
102
{ACAD_XDICTIONARY
360
10B
102
}
330
2A
100
AcDbVisualStyle
  2
ColorChange
 70
    16
 71
     2
 72
     2
 73
     3
 90
        0
 40
-0.6
 41
-30.0
 62
     5
 63
     8
421
  8421504
 74
     1
 91
        4
 64
     7
 65
   257
 75
     1
175
     1
 42
1.0
 92
        8
 66
     8
424
  8421504
 43
1.0
 76
     1
 77
     6
 78
     2
 67
     7
 79
     5
170
     0
171
     0
290
     0
174
     0
 93
        1
 44
0.0
173
     0
291
     1
 45
0.0
  0
VISUALSTYLE
  5
34
102
{ACAD_REACTORS
330
2A
102
}
102
{ACAD_XDICTIONARY
360
FF
102
}
330
2A
100
AcDbVisualStyle
  2
Conceptual
 70
     9
 71
     3
 72
     2
 73
     0
 90
        0
 40
-0.6
 41
-30.0
 62
     5
 63
     7
421
 16777215
 74
     2
 91
        2
 64
     7
 65
   257
 75
     1
175
     1
 42
40.0
 92
        8
 66
     7
 43
1.0
 76
     1
 77
     6
 78
     2
 67
     7
 79
     3
170
     0
171
     0
290
     0
174
     0
 93
        1
 44
0.0
173
     0
291
     0
 45
0.0
  0
VISUALSTYLE
  5
35
102
{ACAD_REACTORS
330
2A
102
}
102
{ACAD_XDICTIONARY
360
101
102
}
330
2A
100
AcDbVisualStyle
  2
Dim
 70
    11
 71
     2
 72
     2
 73
     0
 90
        0
 40
-0.6
 41
-30.0
 62
     5
 63
     7
421
 16777215
 74
     1
 91
        4
 64
     7
 65
   257
 75
     1
175
     1
 42
1.0
 92
        8
 66
     7
 43
1.0
 76
     1
 77
     6
 78
     2
 67
     7
 79
     5
170
     0
171
     0
290
     0
174
     0
 93
        1
 44
-50.0
173
     0
291
     1
 45
0.0
  0
VISUALSTYLE
  5
39
102
{ACAD_REACTORS
330
2A
102
}
102
{ACAD_XDICTIONARY
360
109
102
}
330
2A
100
AcDbVisualStyle
  2
Facepattern
 70
    15
 71
     2
 72
     2
 73
     0
 90
        0
 40
-0.6
 41
-30.0
 62
     5
 63
     7
421
 16777215
 74
     1
 91
        4
 64
     7
 65
   257
 75
     1
175
     1
 42
1.0
 92
        8
 66
     7
 43
1.0
 76
     1
 77
     6
 78
     2
 67
     7
 79
     5
170
     0
171
     0
290
     0
174
     0
 93
        1
 44
0.0
173
     0
291
     1
 45
0.0
  0
VISUALSTYLE
  5
2B
102
{ACAD_REACTORS
330
2A
102
}
102
{ACAD_XDICTIONARY
360
ED
102
}
330
2A
100
AcDbVisualStyle
  2
Flat
 70
     0
 71
     2
 72
     1
 73
     1
 90
        2
 40
-0.6
 41
30.0
 62
     5
 63
     7
421
 16777215
 74
     0
 91
        4
 64
     7
 65
   257
 75
     1
175
     1
 42
1.0
 92
        8
 66
     7
 43
1.0
 76
     1
 77
     6
 78
     2
 67
     7
 79
     5
170
     0
171
     0
290
     0
174
     0
 93
       13
 44
0.0
173
     0
291
     1
 45
0.0
  0
VISUALSTYLE
  5
2C
102
{ACAD_REACTORS
330
2A
102
}
102
{ACAD_XDICTIONARY
360
EF
102
}
330
2A
100
AcDbVisualStyle
  2
FlatWithEdges
 70
     1
 71
     2
 72
     1
 73
     1
 90
        2
 40
-0.6
 41
30.0
 62
     5
 63
     7
421
 16777215
 74
     1
 91
        4
 64
     7
 65
   257
 75
     1
175
     1
 42
1.0
 92
        0
 66
   257
 43
1.0
 76
     1
 77
     6
 78
     2
 67
     7
 79
     5
170
     0
171
     0
290
     0
174
     0
 93
       13
 44
0.0
173
     0
291
     1
 45
0.0
  0
VISUALSTYLE
  5
2D
102
{ACAD_REACTORS
330
2A
102
}
102
{ACAD_XDICTIONARY
360
F1
102
}
330
2A
100
AcDbVisualStyle
  2
Gouraud
 70
     2
 71
     2
 72
     2
 73
     1
 90
        2
 40
-0.6
 41
30.0
 62
     5
 63
     7
421
 16777215
 74
     0
 91
        4
 64
     7
 65
   257
 75
     1
175
     1
 42
1.0
 92
        0
 66
     7
 43
1.0
 76
     1
 77
     6
 78
     2
 67
     7
 79
     5
170
     0
171
     0
290
     0
174
     0
 93
       13
 44
0.0
173
     0
291
     1
 45
0.0
  0
VISUALSTYLE
  5
2E
102
{ACAD_REACTORS
330
2A
102
}
102
{ACAD_XDICTIONARY
360
F3
102
}
330
2A
100
AcDbVisualStyle
  2
GouraudWithEdges
 70
     3
 71
     2
 72
     2
 73
     1
 90
        2
 40
-0.6
 41
30.0
 62
     5
 63
     7
421
 16777215
 74
     1
 91
        4
 64
     7
 65
   257
 75
     1
175
     1
 42
1.0
 92
        0
 66
   257
 43
1.0
 76
     1
 77
     6
 78
     2
 67
     7
 79
     5
170
     0
171
     0
290
     0
174
     0
 93
       13
 44
0.0
173
     0
291
     1
 45
0.0
  0
VISUALSTYLE
  5
38
102
{ACAD_REACTORS
330
2A
102
}
102
{ACAD_XDICTIONARY
360
107
102
}
330
2A
100
AcDbVisualStyle
  2
Linepattern
 70
    14
 71
     2
 72
     2
 73
     0
 90
        0
 40
-0.6
 41
-30.0
 62
     5
 63
     7
421
 16777215
 74
     1
 91
        4
 64
     7
 65
   257
 75
     7
175
     7
 42
1.0
 92
        8
 66
     7
 43
1.0
 76
     1
 77
     6
 78
     2
 67
     7
 79
     5
170
     0
171
     0
290
     0
174
     0
 93
        1
 44
0.0
173
     0
291
     1
 45
0.0
  0
VISUALSTYLE
  5
33
102
{ACAD_REACTORS
330
2A
102
}
102
{ACAD_XDICTIONARY
360
FD
102
}
330
2A
100
AcDbVisualStyle
  2
Realistic
 70
     8
 71
     2
 72
     2
 73
     0
 90
        0
 40
-0.6
 41
-30.0
 62
     5
 63
     7
421
 16777215
 74
     1
 91
        0
 64
     7
 65
   257
 75
     1
175
     1
 42
1.0
 92
        8
 66
     8
424
  7895160
 43
1.0
 76
     1
 77
     6
 78
     2
 67
     7
 79
     5
170
     0
171
     0
290
     0
174
     0
 93
       13
 44
0.0
173
     0
291
     0
 45
0.0
  0
VISUALSTYLE
  5
37
102
{ACAD_REACTORS
330
2A
102
}
102
{ACAD_XDICTIONARY
360
105
102
}
330
2A
100
AcDbVisualStyle
  2
Thicken
 70
    13
 71
     2
 72
     2
 73
     0
 90
        0
 40
-0.6
 41
-30.0
 62
     5
 63
     7
421
 16777215
 74
     1
 91
        4
 64
     7
 65
   257
 75
     1
175
     1
 42
1.0
 92
       12
 66
     7
 43
1.0
 76
     1
 77
     6
 78
     2
 67
     7
 79
     5
170
     0
171
     0
290
     0
174
     0
 93
        1
 44
0.0
173
     0
291
     1
 45
0.0
  0
DICTIONARY
  5
F5
330
2F
100
AcDbDictionary
280
     1
281
     1
  3
ACAD_XREC_ROUNDTRIP
360
F6
  0
DICTIONARY
  5
F9
330
31
100
AcDbDictionary
280
     1
281
     1
  3
ACAD_XREC_ROUNDTRIP
360
FA
  0
DICTIONARY
  5
F7
330
30
100
AcDbDictionary
280
     1
281
     1
  3
ACAD_XREC_ROUNDTRIP
360
F8
  0
DICTIONARY
  5
FB
330
32
100
AcDbDictionary
280
     1
281
     1
  3
ACAD_XREC_ROUNDTRIP
360
FC
  0
DICTIONARY
  5
103
330
36
100
AcDbDictionary
280
     1
281
     1
  3
ACAD_XREC_ROUNDTRIP
360
104
  0
DICTIONARY
  5
10B
330
3A
100
AcDbDictionary
280
     1
281
     1
  3
ACAD_XREC_ROUNDTRIP
360
10C
  0
DICTIONARY
  5
FF
330
34
100
AcDbDictionary
280
     1
281
     1
  3
ACAD_XREC_ROUNDTRIP
360
100
  0
DICTIONARY
  5
101
330
35
100
AcDbDictionary
280
     1
281
     1
  3
ACAD_XREC_ROUNDTRIP
360
102
  0
DICTIONARY
  5
109
330
39
100
AcDbDictionary
280
     1
281
     1
  3
ACAD_XREC_ROUNDTRIP
360
10A
  0
DICTIONARY
  5
ED
330
2B
100
AcDbDictionary
280
     1
281
     1
  3
ACAD_XREC_ROUNDTRIP
360
EE
  0
DICTIONARY
  5
EF
330
2C
100
AcDbDictionary
280
     1
281
     1
  3
ACAD_XREC_ROUNDTRIP
360
F0
  0
DICTIONARY
  5
F1
330
2D
100
AcDbDictionary
280
     1
281
     1
  3
ACAD_XREC_ROUNDTRIP
360
F2
  0
DICTIONARY
  5
F3
330
2E
100
AcDbDictionary
280
     1
281
     1
  3
ACAD_XREC_ROUNDTRIP
360
F4
  0
DICTIONARY
  5
107
330
38
100
AcDbDictionary
280
     1
281
     1
  3
ACAD_XREC_ROUNDTRIP
360
108
  0
DICTIONARY
  5
FD
330
33
100
AcDbDictionary
280
     1
281
     1
  3
ACAD_XREC_ROUNDTRIP
360
FE
  0
DICTIONARY
  5
105
330
37
100
AcDbDictionary
280
     1
281
     1
  3
ACAD_XREC_ROUNDTRIP
360
106
  0
XRECORD
  5
F6
102
{ACAD_REACTORS
330
F5
102
}
330
F5
100
AcDbXrecord
280
     1
102
RTVSPropertyOp0
 70
     1
102
RTVSPropertyOp1
 70
     1
102
RTVSPropertyOp2
 70
     1
102
RTVSPropertyOp3
 70
     1
102
RTVSPropertyOp4
 70
     1
102
RTVSPropertyOp5
 70
     1
102
RTVSPropertyOp6
 70
     1
102
RTVSPropertyOp7
 70
     1
102
RTVSPropertyOp8
 70
     1
102
RTVSPropertyOp9
 70
     1
102
RTVSPropertyOp10
 70
     1
102
RTVSPropertyOp11
 70
     1
102
RTVSPropertyOp12
 70
     1
102
RTVSPropertyOp13
 70
     1
102
RTVSPropertyOp14
 70
     1
102
RTVSPropertyOp15
 70
     1
102
RTVSPropertyOp16
 70
     1
102
RTVSPropertyOp17
 70
     1
102
RTVSPropertyOp18
 70
     1
102
RTVSPropertyOp19
 70
     1
102
RTVSPropertyOp20
 70
     1
102
RTVSPropertyOp21
 70
     1
102
RTVSPropertyOp22
 70
     1
102
RTVSPropertyOp23
 70
     1
102
RTVSPropertyOp24
 70
     1
102
RTVSPropertyOp25
 70
     1
102
RTVSPropertyOp26
 70
     1
102
RTVSPropertyOp27
 70
     1
102
RTVSPropertyOp28
 70
     1
102
RTVSPropertyOp29
 70
     1
102
RTVSPropertyOp30
 70
     1
102
RTVSPropertyOp31
 70
     1
102
RTVSPropertyOp32
 70
     1
  0
XRECORD
  5
FA
102
{ACAD_REACTORS
330
F9
102
}
330
F9
100
AcDbXrecord
280
     1
102
RTVSPropertyOp0
 70
     1
102
RTVSPropertyOp1
 70
     1
102
RTVSPropertyOp2
 70
     1
102
RTVSPropertyOp3
 70
     1
102
RTVSPropertyOp4
 70
     1
102
RTVSPropertyOp5
 70
     1
102
RTVSPropertyOp6
 70
     1
102
RTVSPropertyOp7
 70
     1
102
RTVSPropertyOp8
 70
     1
102
RTVSPropertyOp9
 70
     1
102
RTVSPropertyOp10
 70
     1
102
RTVSPropertyOp11
 70
     1
102
RTVSPropertyOp12
 70
     1
102
RTVSPropertyOp13
 70
     1
102
RTVSPropertyOp14
 70
     1
102
RTVSPropertyOp15
 70
     1
102
RTVSPropertyOp16
 70
     1
102
RTVSPropertyOp17
 70
     1
102
RTVSPropertyOp18
 70
     1
102
RTVSPropertyOp19
 70
     1
102
RTVSPropertyOp20
 70
     1
102
RTVSPropertyOp21
 70
     1
102
RTVSPropertyOp22
 70
     1
102
RTVSPropertyOp23
 70
     1
102
RTVSPropertyOp24
 70
     1
102
RTVSPropertyOp25
 70
     1
102
RTVSPropertyOp26
 70
     1
102
RTVSPropertyOp27
 70
     1
102
RTVSPropertyOp28
 70
     1
102
RTVSPropertyOp29
 70
     1
102
RTVSPropertyOp30
 70
     1
102
RTVSPropertyOp31
 70
     1
102
RTVSPropertyOp32
 70
     1
  0
XRECORD
  5
F8
102
{ACAD_REACTORS
330
F7
102
}
330
F7
100
AcDbXrecord
280
     1
102
RTVSPropertyOp0
 70
     1
102
RTVSPropertyOp1
 70
     1
102
RTVSPropertyOp2
 70
     1
102
RTVSPropertyOp3
 70
     1
102
RTVSPropertyOp4
 70
     1
102
RTVSPropertyOp5
 70
     1
102
RTVSPropertyOp6
 70
     1
102
RTVSPropertyOp7
 70
     1
102
RTVSPropertyOp8
 70
     1
102
RTVSPropertyOp9
 70
     1
102
RTVSPropertyOp10
 70
     1
102
RTVSPropertyOp11
 70
     1
102
RTVSPropertyOp12
 70
     1
102
RTVSPropertyOp13
 70
     1
102
RTVSPropertyOp14
 70
     1
102
RTVSPropertyOp15
 70
     1
102
RTVSPropertyOp16
 70
     1
102
RTVSPropertyOp17
 70
     1
102
RTVSPropertyOp18
 70
     1
102
RTVSPropertyOp19
 70
     1
102
RTVSPropertyOp20
 70
     1
102
RTVSPropertyOp21
 70
     1
102
RTVSPropertyOp22
 70
     1
102
RTVSPropertyOp23
 70
     1
102
RTVSPropertyOp24
 70
     1
102
RTVSPropertyOp25
 70
     1
102
RTVSPropertyOp26
 70
     1
102
RTVSPropertyOp27
 70
     1
102
RTVSPropertyOp28
 70
     1
102
RTVSPropertyOp29
 70
     1
102
RTVSPropertyOp30
 70
     1
102
RTVSPropertyOp31
 70
     1
102
RTVSPropertyOp32
 70
     1
  0
XRECORD
  5
FC
102
{ACAD_REACTORS
330
FB
102
}
330
FB
100
AcDbXrecord
280
     1
102
RTVSPropertyOp0
 70
     1
102
RTVSPropertyOp1
 70
     1
102
RTVSPropertyOp2
 70
     1
102
RTVSPropertyOp3
 70
     1
102
RTVSPropertyOp4
 70
     1
102
RTVSPropertyOp5
 70
     1
102
RTVSPropertyOp6
 70
     1
102
RTVSPropertyOp7
 70
     1
102
RTVSPropertyOp8
 70
     1
102
RTVSPropertyOp9
 70
     1
102
RTVSPropertyOp10
 70
     1
102
RTVSPropertyOp11
 70
     1
102
RTVSPropertyOp12
 70
     1
102
RTVSPropertyOp13
 70
     1
102
RTVSPropertyOp14
 70
     1
102
RTVSPropertyOp15
 70
     1
102
RTVSPropertyOp16
 70
     1
102
RTVSPropertyOp17
 70
     1
102
RTVSPropertyOp18
 70
     1
102
RTVSPropertyOp19
 70
     1
102
RTVSPropertyOp20
 70
     1
102
RTVSPropertyOp21
 70
     1
102
RTVSPropertyOp22
 70
     1
102
RTVSPropertyOp23
 70
     1
102
RTVSPropertyOp24
 70
     1
102
RTVSPropertyOp25
 70
     1
102
RTVSPropertyOp26
 70
     1
102
RTVSPropertyOp27
 70
     1
102
RTVSPropertyOp28
 70
     1
102
RTVSPropertyOp29
 70
     1
102
RTVSPropertyOp30
 70
     1
102
RTVSPropertyOp31
 70
     1
102
RTVSPropertyOp32
 70
     1
  0
XRECORD
  5
104
102
{ACAD_REACTORS
330
103
102
}
330
103
100
AcDbXrecord
280
     1
102
RTVSPropertyOp0
 70
     1
102
RTVSPropertyOp1
 70
     1
102
RTVSPropertyOp2
 70
     1
102
RTVSPropertyOp3
 70
     1
102
RTVSPropertyOp4
 70
     1
102
RTVSPropertyOp5
 70
     1
102
RTVSPropertyOp6
 70
     1
102
RTVSPropertyOp7
 70
     1
102
RTVSPropertyOp8
 70
     1
102
RTVSPropertyOp9
 70
     1
102
RTVSPropertyOp10
 70
     1
102
RTVSPropertyOp11
 70
     1
102
RTVSPropertyOp12
 70
     1
102
RTVSPropertyOp13
 70
     1
102
RTVSPropertyOp14
 70
     1
102
RTVSPropertyOp15
 70
     1
102
RTVSPropertyOp16
 70
     1
102
RTVSPropertyOp17
 70
     1
102
RTVSPropertyOp18
 70
     1
102
RTVSPropertyOp19
 70
     1
102
RTVSPropertyOp20
 70
     1
102
RTVSPropertyOp21
 70
     1
102
RTVSPropertyOp22
 70
     1
102
RTVSPropertyOp23
 70
     1
102
RTVSPropertyOp24
 70
     1
102
RTVSPropertyOp25
 70
     1
102
RTVSPropertyOp26
 70
     1
102
RTVSPropertyOp27
 70
     1
102
RTVSPropertyOp28
 70
     1
102
RTVSPropertyOp29
 70
     1
102
RTVSPropertyOp30
 70
     1
102
RTVSPropertyOp31
 70
     1
102
RTVSPropertyOp32
 70
     1
  0
XRECORD
  5
10C
102
{ACAD_REACTORS
330
10B
102
}
330
10B
100
AcDbXrecord
280
     1
102
RTVSPropertyOp0
 70
     1
102
RTVSPropertyOp1
 70
     1
102
RTVSPropertyOp2
 70
     1
102
RTVSPropertyOp3
 70
     1
102
RTVSPropertyOp4
 70
     1
102
RTVSPropertyOp5
 70
     1
102
RTVSPropertyOp6
 70
     1
102
RTVSPropertyOp7
 70
     1
102
RTVSPropertyOp8
 70
     1
102
RTVSPropertyOp9
 70
     1
102
RTVSPropertyOp10
 70
     1
102
RTVSPropertyOp11
 70
     1
102
RTVSPropertyOp12
 70
     1
102
RTVSPropertyOp13
 70
     1
102
RTVSPropertyOp14
 70
     1
102
RTVSPropertyOp15
 70
     1
102
RTVSPropertyOp16
 70
     1
102
RTVSPropertyOp17
 70
     1
102
RTVSPropertyOp18
 70
     1
102
RTVSPropertyOp19
 70
     1
102
RTVSPropertyOp20
 70
     1
102
RTVSPropertyOp21
 70
     1
102
RTVSPropertyOp22
 70
     1
102
RTVSPropertyOp23
 70
     1
102
RTVSPropertyOp24
 70
     1
102
RTVSPropertyOp25
 70
     1
102
RTVSPropertyOp26
 70
     1
102
RTVSPropertyOp27
 70
     1
102
RTVSPropertyOp28
 70
     1
102
RTVSPropertyOp29
 70
     1
102
RTVSPropertyOp30
 70
     1
102
RTVSPropertyOp31
 70
     1
102
RTVSPropertyOp32
 70
     1
  0
XRECORD
  5
100
102
{ACAD_REACTORS
330
FF
102
}
330
FF
100
AcDbXrecord
280
     1
102
RTVSPropertyOp0
 70
     1
102
RTVSPropertyOp1
 70
     1
102
RTVSPropertyOp2
 70
     1
102
RTVSPropertyOp3
 70
     1
102
RTVSPropertyOp4
 70
     1
102
RTVSPropertyOp5
 70
     1
102
RTVSPropertyOp6
 70
     1
102
RTVSPropertyOp7
 70
     1
102
RTVSPropertyOp8
 70
     1
102
RTVSPropertyOp9
 70
     1
102
RTVSPropertyOp10
 70
     1
102
RTVSPropertyOp11
 70
     1
102
RTVSPropertyOp12
 70
     1
102
RTVSPropertyOp13
 70
     1
102
RTVSPropertyOp14
 70
     1
102
RTVSPropertyOp15
 70
     1
102
RTVSPropertyOp16
 70
     1
102
RTVSPropertyOp17
 70
     1
102
RTVSPropertyOp18
 70
     1
102
RTVSPropertyOp19
 70
     1
102
RTVSPropertyOp20
 70
     1
102
RTVSPropertyOp21
 70
     1
102
RTVSPropertyOp22
 70
     1
102
RTVSPropertyOp23
 70
     1
102
RTVSPropertyOp24
 70
     1
102
RTVSPropertyOp25
 70
     1
102
RTVSPropertyOp26
 70
     1
102
RTVSPropertyOp27
 70
     1
102
RTVSPropertyOp28
 70
     1
102
RTVSPropertyOp29
 70
     1
102
RTVSPropertyOp30
 70
     1
102
RTVSPropertyOp31
 70
     1
102
RTVSPropertyOp32
 70
     1
  0
XRECORD
  5
102
102
{ACAD_REACTORS
330
101
102
}
330
101
100
AcDbXrecord
280
     1
102
RTVSPropertyOp0
 70
     1
102
RTVSPropertyOp1
 70
     1
102
RTVSPropertyOp2
 70
     1
102
RTVSPropertyOp3
 70
     1
102
RTVSPropertyOp4
 70
     1
102
RTVSPropertyOp5
 70
     1
102
RTVSPropertyOp6
 70
     1
102
RTVSPropertyOp7
 70
     1
102
RTVSPropertyOp8
 70
     1
102
RTVSPropertyOp9
 70
     1
102
RTVSPropertyOp10
 70
     1
102
RTVSPropertyOp11
 70
     1
102
RTVSPropertyOp12
 70
     1
102
RTVSPropertyOp13
 70
     1
102
RTVSPropertyOp14
 70
     1
102
RTVSPropertyOp15
 70
     1
102
RTVSPropertyOp16
 70
     1
102
RTVSPropertyOp17
 70
     1
102
RTVSPropertyOp18
 70
     1
102
RTVSPropertyOp19
 70
     1
102
RTVSPropertyOp20
 70
     1
102
RTVSPropertyOp21
 70
     1
102
RTVSPropertyOp22
 70
     1
102
RTVSPropertyOp23
 70
     1
102
RTVSPropertyOp24
 70
     1
102
RTVSPropertyOp25
 70
     1
102
RTVSPropertyOp26
 70
     1
102
RTVSPropertyOp27
 70
     1
102
RTVSPropertyOp28
 70
     1
102
RTVSPropertyOp29
 70
     1
102
RTVSPropertyOp30
 70
     1
102
RTVSPropertyOp31
 70
     1
102
RTVSPropertyOp32
 70
     1
  0
XRECORD
  5
10A
102
{ACAD_REACTORS
330
109
102
}
330
109
100
AcDbXrecord
280
     1
102
RTVSPropertyOp0
 70
     1
102
RTVSPropertyOp1
 70
     1
102
RTVSPropertyOp2
 70
     1
102
RTVSPropertyOp3
 70
     1
102
RTVSPropertyOp4
 70
     1
102
RTVSPropertyOp5
 70
     1
102
RTVSPropertyOp6
 70
     1
102
RTVSPropertyOp7
 70
     1
102
RTVSPropertyOp8
 70
     1
102
RTVSPropertyOp9
 70
     1
102
RTVSPropertyOp10
 70
     1
102
RTVSPropertyOp11
 70
     1
102
RTVSPropertyOp12
 70
     1
102
RTVSPropertyOp13
 70
     1
102
RTVSPropertyOp14
 70
     1
102
RTVSPropertyOp15
 70
     1
102
RTVSPropertyOp16
 70
     1
102
RTVSPropertyOp17
 70
     1
102
RTVSPropertyOp18
 70
     1
102
RTVSPropertyOp19
 70
     1
102
RTVSPropertyOp20
 70
     1
102
RTVSPropertyOp21
 70
     1
102
RTVSPropertyOp22
 70
     1
102
RTVSPropertyOp23
 70
     1
102
RTVSPropertyOp24
 70
     1
102
RTVSPropertyOp25
 70
     1
102
RTVSPropertyOp26
 70
     1
102
RTVSPropertyOp27
 70
     1
102
RTVSPropertyOp28
 70
     1
102
RTVSPropertyOp29
 70
     1
102
RTVSPropertyOp30
 70
     1
102
RTVSPropertyOp31
 70
     1
102
RTVSPropertyOp32
 70
     1
  0
XRECORD
  5
EE
102
{ACAD_REACTORS
330
ED
102
}
330
ED
100
AcDbXrecord
280
     1
102
RTVSPropertyOp0
 70
     1
102
RTVSPropertyOp1
 70
     1
102
RTVSPropertyOp2
 70
     1
102
RTVSPropertyOp3
 70
     1
102
RTVSPropertyOp4
 70
     1
102
RTVSPropertyOp5
 70
     1
102
RTVSPropertyOp6
 70
     1
102
RTVSPropertyOp7
 70
     1
102
RTVSPropertyOp8
 70
     1
102
RTVSPropertyOp9
 70
     1
102
RTVSPropertyOp10
 70
     1
102
RTVSPropertyOp11
 70
     1
102
RTVSPropertyOp12
 70
     1
102
RTVSPropertyOp13
 70
     1
102
RTVSPropertyOp14
 70
     1
102
RTVSPropertyOp15
 70
     1
102
RTVSPropertyOp16
 70
     1
102
RTVSPropertyOp17
 70
     1
102
RTVSPropertyOp18
 70
     1
102
RTVSPropertyOp19
 70
     1
102
RTVSPropertyOp20
 70
     1
102
RTVSPropertyOp21
 70
     1
102
RTVSPropertyOp22
 70
     1
102
RTVSPropertyOp23
 70
     1
102
RTVSPropertyOp24
 70
     1
102
RTVSPropertyOp25
 70
     1
102
RTVSPropertyOp26
 70
     1
102
RTVSPropertyOp27
 70
     1
102
RTVSPropertyOp28
 70
     1
102
RTVSPropertyOp29
 70
     1
102
RTVSPropertyOp30
 70
     1
102
RTVSPropertyOp31
 70
     1
102
RTVSPropertyOp32
 70
     1
  0
XRECORD
  5
F0
102
{ACAD_REACTORS
330
EF
102
}
330
EF
100
AcDbXrecord
280
     1
102
RTVSPropertyOp0
 70
     1
102
RTVSPropertyOp1
 70
     1
102
RTVSPropertyOp2
 70
     1
102
RTVSPropertyOp3
 70
     1
102
RTVSPropertyOp4
 70
     1
102
RTVSPropertyOp5
 70
     1
102
RTVSPropertyOp6
 70
     1
102
RTVSPropertyOp7
 70
     1
102
RTVSPropertyOp8
 70
     1
102
RTVSPropertyOp9
 70
     1
102
RTVSPropertyOp10
 70
     1
102
RTVSPropertyOp11
 70
     1
102
RTVSPropertyOp12
 70
     1
102
RTVSPropertyOp13
 70
     1
102
RTVSPropertyOp14
 70
     1
102
RTVSPropertyOp15
 70
     1
102
RTVSPropertyOp16
 70
     1
102
RTVSPropertyOp17
 70
     1
102
RTVSPropertyOp18
 70
     1
102
RTVSPropertyOp19
 70
     1
102
RTVSPropertyOp20
 70
     1
102
RTVSPropertyOp21
 70
     1
102
RTVSPropertyOp22
 70
     1
102
RTVSPropertyOp23
 70
     1
102
RTVSPropertyOp24
 70
     1
102
RTVSPropertyOp25
 70
     1
102
RTVSPropertyOp26
 70
     1
102
RTVSPropertyOp27
 70
     1
102
RTVSPropertyOp28
 70
     1
102
RTVSPropertyOp29
 70
     1
102
RTVSPropertyOp30
 70
     1
102
RTVSPropertyOp31
 70
     1
102
RTVSPropertyOp32
 70
     1
  0
XRECORD
  5
F2
102
{ACAD_REACTORS
330
F1
102
}
330
F1
100
AcDbXrecord
280
     1
102
RTVSPropertyOp0
 70
     1
102
RTVSPropertyOp1
 70
     1
102
RTVSPropertyOp2
 70
     1
102
RTVSPropertyOp3
 70
     1
102
RTVSPropertyOp4
 70
     1
102
RTVSPropertyOp5
 70
     1
102
RTVSPropertyOp6
 70
     1
102
RTVSPropertyOp7
 70
     1
102
RTVSPropertyOp8
 70
     1
102
RTVSPropertyOp9
 70
     1
102
RTVSPropertyOp10
 70
     1
102
RTVSPropertyOp11
 70
     1
102
RTVSPropertyOp12
 70
     1
102
RTVSPropertyOp13
 70
     1
102
RTVSPropertyOp14
 70
     1
102
RTVSPropertyOp15
 70
     1
102
RTVSPropertyOp16
 70
     1
102
RTVSPropertyOp17
 70
     1
102
RTVSPropertyOp18
 70
     1
102
RTVSPropertyOp19
 70
     1
102
RTVSPropertyOp20
 70
     1
102
RTVSPropertyOp21
 70
     1
102
RTVSPropertyOp22
 70
     1
102
RTVSPropertyOp23
 70
     1
102
RTVSPropertyOp24
 70
     1
102
RTVSPropertyOp25
 70
     1
102
RTVSPropertyOp26
 70
     1
102
RTVSPropertyOp27
 70
     1
102
RTVSPropertyOp28
 70
     1
102
RTVSPropertyOp29
 70
     1
102
RTVSPropertyOp30
 70
     1
102
RTVSPropertyOp31
 70
     1
102
RTVSPropertyOp32
 70
     1
  0
XRECORD
  5
F4
102
{ACAD_REACTORS
330
F3
102
}
330
F3
100
AcDbXrecord
280
     1
102
RTVSPropertyOp0
 70
     1
102
RTVSPropertyOp1
 70
     1
102
RTVSPropertyOp2
 70
     1
102
RTVSPropertyOp3
 70
     1
102
RTVSPropertyOp4
 70
     1
102
RTVSPropertyOp5
 70
     1
102
RTVSPropertyOp6
 70
     1
102
RTVSPropertyOp7
 70
     1
102
RTVSPropertyOp8
 70
     1
102
RTVSPropertyOp9
 70
     1
102
RTVSPropertyOp10
 70
     1
102
RTVSPropertyOp11
 70
     1
102
RTVSPropertyOp12
 70
     1
102
RTVSPropertyOp13
 70
     1
102
RTVSPropertyOp14
 70
     1
102
RTVSPropertyOp15
 70
     1
102
RTVSPropertyOp16
 70
     1
102
RTVSPropertyOp17
 70
     1
102
RTVSPropertyOp18
 70
     1
102
RTVSPropertyOp19
 70
     1
102
RTVSPropertyOp20
 70
     1
102
RTVSPropertyOp21
 70
     1
102
RTVSPropertyOp22
 70
     1
102
RTVSPropertyOp23
 70
     1
102
RTVSPropertyOp24
 70
     1
102
RTVSPropertyOp25
 70
     1
102
RTVSPropertyOp26
 70
     1
102
RTVSPropertyOp27
 70
     1
102
RTVSPropertyOp28
 70
     1
102
RTVSPropertyOp29
 70
     1
102
RTVSPropertyOp30
 70
     1
102
RTVSPropertyOp31
 70
     1
102
RTVSPropertyOp32
 70
     1
  0
XRECORD
  5
108
102
{ACAD_REACTORS
330
107
102
}
330
107
100
AcDbXrecord
280
     1
102
RTVSPropertyOp0
 70
     1
102
RTVSPropertyOp1
 70
     1
102
RTVSPropertyOp2
 70
     1
102
RTVSPropertyOp3
 70
     1
102
RTVSPropertyOp4
 70
     1
102
RTVSPropertyOp5
 70
     1
102
RTVSPropertyOp6
 70
     1
102
RTVSPropertyOp7
 70
     1
102
RTVSPropertyOp8
 70
     1
102
RTVSPropertyOp9
 70
     1
102
RTVSPropertyOp10
 70
     1
102
RTVSPropertyOp11
 70
     1
102
RTVSPropertyOp12
 70
     1
102
RTVSPropertyOp13
 70
     1
102
RTVSPropertyOp14
 70
     1
102
RTVSPropertyOp15
 70
     1
102
RTVSPropertyOp16
 70
     1
102
RTVSPropertyOp17
 70
     1
102
RTVSPropertyOp18
 70
     1
102
RTVSPropertyOp19
 70
     1
102
RTVSPropertyOp20
 70
     1
102
RTVSPropertyOp21
 70
     1
102
RTVSPropertyOp22
 70
     1
102
RTVSPropertyOp23
 70
     1
102
RTVSPropertyOp24
 70
     1
102
RTVSPropertyOp25
 70
     1
102
RTVSPropertyOp26
 70
     1
102
RTVSPropertyOp27
 70
     1
102
RTVSPropertyOp28
 70
     1
102
RTVSPropertyOp29
 70
     1
102
RTVSPropertyOp30
 70
     1
102
RTVSPropertyOp31
 70
     1
102
RTVSPropertyOp32
 70
     1
  0
XRECORD
  5
FE
102
{ACAD_REACTORS
330
FD
102
}
330
FD
100
AcDbXrecord
280
     1
102
RTVSPropertyOp0
 70
     1
102
RTVSPropertyOp1
 70
     1
102
RTVSPropertyOp2
 70
     1
102
RTVSPropertyOp3
 70
     1
102
RTVSPropertyOp4
 70
     1
102
RTVSPropertyOp5
 70
     1
102
RTVSPropertyOp6
 70
     1
102
RTVSPropertyOp7
 70
     1
102
RTVSPropertyOp8
 70
     1
102
RTVSPropertyOp9
 70
     1
102
RTVSPropertyOp10
 70
     1
102
RTVSPropertyOp11
 70
     1
102
RTVSPropertyOp12
 70
     1
102
RTVSPropertyOp13
 70
     1
102
RTVSPropertyOp14
 70
     1
102
RTVSPropertyOp15
 70
     1
102
RTVSPropertyOp16
 70
     1
102
RTVSPropertyOp17
 70
     1
102
RTVSPropertyOp18
 70
     1
102
RTVSPropertyOp19
 70
     1
102
RTVSPropertyOp20
 70
     1
102
RTVSPropertyOp21
 70
     1
102
RTVSPropertyOp22
 70
     1
102
RTVSPropertyOp23
 70
     1
102
RTVSPropertyOp24
 70
     1
102
RTVSPropertyOp25
 70
     1
102
RTVSPropertyOp26
 70
     1
102
RTVSPropertyOp27
 70
     1
102
RTVSPropertyOp28
 70
     1
102
RTVSPropertyOp29
 70
     1
102
RTVSPropertyOp30
 70
     1
102
RTVSPropertyOp31
 70
     1
102
RTVSPropertyOp32
 70
     1
  0
XRECORD
  5
106
102
{ACAD_REACTORS
330
105
102
}
330
105
100
AcDbXrecord
280
     1
102
RTVSPropertyOp0
 70
     1
102
RTVSPropertyOp1
 70
     1
102
RTVSPropertyOp2
 70
     1
102
RTVSPropertyOp3
 70
     1
102
RTVSPropertyOp4
 70
     1
102
RTVSPropertyOp5
 70
     1
102
RTVSPropertyOp6
 70
     1
102
RTVSPropertyOp7
 70
     1
102
RTVSPropertyOp8
 70
     1
102
RTVSPropertyOp9
 70
     1
102
RTVSPropertyOp10
 70
     1
102
RTVSPropertyOp11
 70
     1
102
RTVSPropertyOp12
 70
     1
102
RTVSPropertyOp13
 70
     1
102
RTVSPropertyOp14
 70
     1
102
RTVSPropertyOp15
 70
     1
102
RTVSPropertyOp16
 70
     1
102
RTVSPropertyOp17
 70
     1
102
RTVSPropertyOp18
 70
     1
102
RTVSPropertyOp19
 70
     1
102
RTVSPropertyOp20
 70
     1
102
RTVSPropertyOp21
 70
     1
102
RTVSPropertyOp22
 70
     1
102
RTVSPropertyOp23
 70
     1
102
RTVSPropertyOp24
 70
     1
102
RTVSPropertyOp25
 70
     1
102
RTVSPropertyOp26
 70
     1
102
RTVSPropertyOp27
 70
     1
102
RTVSPropertyOp28
 70
     1
102
RTVSPropertyOp29
 70
     1
102
RTVSPropertyOp30
 70
     1
102
RTVSPropertyOp31
 70
     1
102
RTVSPropertyOp32
 70
     1
  0
ENDSEC
  0
EOF
