  0
SECTION
  2
HEADER
  9
$ACADVER
  1
AC1021
  9
$ACADMAINTVER
 70
    25
  9
$DWGCODEPAGE
  3
ANSI_1256
  9
$INSBASE
 10
0.0
 20
0.0
 30
0.0
  9
$EXTMIN
 10
-82.1838
 20
-114.5885
 30
0.0
  9
$EXTMAX
 10
-2.3097
 20
131.8437
 30
0.0
  9
$LIMMIN
 10
0.0
 20
0.0
  9
$LIMMAX
 10
12.0
 20
9.0
  9
$ORTHOMODE
 70
     0
  9
$REGENMODE
 70
     1
  9
$FILLMODE
 70
     1
  9
$QTEXTMODE
 70
     0
  9
$MIRRTEXT
 70
     1
  9
$LTSCALE
 40
1.0
  9
$ATTMODE
 70
     1
  9
$TEXTSIZE
 40
0.2
  9
$TRACEWID
 40
0.05
  9
$TEXTSTYLE
  7
Standard
  9
$CLAYER
  8
0
  9
$CELTYPE
  6
ByLayer
  9
$CECOLOR
 62
   256
  9
$CELTSCALE
 40
1.0
  9
$DISPSILH
 70
     0
  9
$DIMSCALE
 40
1.0
  9
$DIMASZ
 40
0.18
  9
$DIMEXO
 40
0.0625
  9
$DIMDLI
 40
0.38
  9
$DIMRND
 40
0.0
  9
$DIMDLE
 40
0.0
  9
$DIMEXE
 40
0.18
  9
$DIMTP
 40
0.0
  9
$DIMTM
 40
0.0
  9
$DIMTXT
 40
0.18
  9
$DIMCEN
 40
0.09
  9
$DIMTSZ
 40
0.0
  9
$DIMTOL
 70
     0
  9
$DIMLIM
 70
     0
  9
$DIMTIH
 70
     1
  9
$DIMTOH
 70
     1
  9
$DIMSE1
 70
     0
  9
$DIMSE2
 70
     0
  9
$DIMTAD
 70
     0
  9
$DIMZIN
 70
     0
  9
$DIMBLK
  1

  9
$DIMASO
 70
     1
  9
$DIMSHO
 70
     1
  9
$DIMPOST
  1

  9
$DIMAPOST
  1

  9
$DIMALT
 70
     0
  9
$DIMALTD
 70
     2
  9
$DIMALTF
 40
25.4
  9
$DIMLFAC
 40
1.0
  9
$DIMTOFL
 70
     0
  9
$DIMTVP
 40
0.0
  9
$DIMTIX
 70
     0
  9
$DIMSOXD
 70
     0
  9
$DIMSAH
 70
     0
  9
$DIMBLK1
  1

  9
$DIMBLK2
  1

  9
$DIMSTYLE
  2
Standard
  9
$DIMCLRD
 70
     0
  9
$DIMCLRE
 70
     0
  9
$DIMCLRT
 70
     0
  9
$DIMTFAC
 40
1.0
  9
$DIMGAP
 40
0.09
  9
$DIMJUST
 70
     0
  9
$DIMSD1
 70
     0
  9
$DIMSD2
 70
     0
  9
$DIMTOLJ
 70
     1
  9
$DIMTZIN
 70
     0
  9
$DIMALTZ
 70
     0
  9
$DIMALTTZ
 70
     0
  9
$DIMUPT
 70
     0
  9
$DIMDEC
 70
     4
  9
$DIMTDEC
 70
     4
  9
$DIMALTU
 70
     2
  9
$DIMALTTD
 70
     2
  9
$DIMTXSTY
  7
Standard
  9
$DIMAUNIT
 70
     0
  9
$DIMADEC
 70
     0
  9
$DIMALTRND
 40
0.0
  9
$DIMAZIN
 70
     0
  9
$DIMDSEP
 70
    46
  9
$DIMATFIT
 70
     3
  9
$DIMFRAC
 70
     0
  9
$DIMLDRBLK
  1

  9
$DIMLUNIT
 70
     2
  9
$DIMLWD
 70
    -2
  9
$DIMLWE
 70
    -2
  9
$DIMTMOVE
 70
     0
  9
$DIMFXL
 40
1.0
  9
$DIMFXLON
 70
     0
  9
$DIMJOGANG
 40
0.7853981633974483
  9
$DIMTFILL
 70
     0
  9
$DIMTFILLCLR
 70
     0
  9
$DIMARCSYM
 70
     0
  9
$DIMLTYPE
  6

  9
$DIMLTEX1
  6

  9
$DIMLTEX2
  6

  9
$LUNITS
 70
     2
  9
$LUPREC
 70
     4
  9
$SKETCHINC
 40
0.1
  9
$FILLETRAD
 40
0.5
  9
$AUNITS
 70
     0
  9
$AUPREC
 70
     0
  9
$MENU
  1
.
  9
$ELEVATION
 40
0.0
  9
$PELEVATION
 40
0.0
  9
$THICKNESS
 40
0.0
  9
$LIMCHECK
 70
     0
  9
$CHAMFERA
 40
0.5
  9
$CHAMFERB
 40
0.5
  9
$CHAMFERC
 40
1.0
  9
$CHAMFERD
 40
0.0
  9
$SKPOLY
 70
     0
  9
$TDCREATE
 40
2458492.387662234
  9
$TDUCREATE
 40
2458492.220995567
  9
$TDUPDATE
 40
2458492.387662489
  9
$TDUUPDATE
 40
2458492.220995822
  9
$TDINDWG
 40
0.0000000116
  9
$TDUSRTIMER
 40
0.0000000116
  9
$USRTIMER
 70
     1
  9
$ANGBASE
 50
0.0
  9
$ANGDIR
 70
     0
  9
$PDMODE
 70
     0
  9
$PDSIZE
 40
0.0
  9
$PLINEWID
 40
0.0
  9
$SPLFRAME
 70
     0
  9
$SPLINETYPE
 70
     6
  9
$SPLINESEGS
 70
     8
  9
$HANDSEED
  5
FE
  9
$SURFTAB1
 70
     6
  9
$SURFTAB2
 70
     6
  9
$SURFTYPE
 70
     6
  9
$SURFU
 70
     6
  9
$SURFV
 70
     6
  9
$UCSBASE
  2

  9
$UCSNAME
  2

  9
$UCSORG
 10
0.0
 20
0.0
 30
0.0
  9
$UCSXDIR
 10
1.0
 20
0.0
 30
0.0
  9
$UCSYDIR
 10
0.0
 20
1.0
 30
0.0
  9
$UCSORTHOREF
  2

  9
$UCSORTHOVIEW
 70
     0
  9
$UCSORGTOP
 10
0.0
 20
0.0
 30
0.0
  9
$UCSORGBOTTOM
 10
0.0
 20
0.0
 30
0.0
  9
$UCSORGLEFT
 10
0.0
 20
0.0
 30
0.0
  9
$UCSORGRIGHT
 10
0.0
 20
0.0
 30
0.0
  9
$UCSORGFRONT
 10
0.0
 20
0.0
 30
0.0
  9
$UCSORGBACK
 10
0.0
 20
0.0
 30
0.0
  9
$PUCSBASE
  2

  9
$PUCSNAME
  2

  9
$PUCSORG
 10
0.0
 20
0.0
 30
0.0
  9
$PUCSXDIR
 10
1.0
 20
0.0
 30
0.0
  9
$PUCSYDIR
 10
0.0
 20
1.0
 30
0.0
  9
$PUCSORTHOREF
  2

  9
$PUCSORTHOVIEW
 70
     0
  9
$PUCSORGTOP
 10
0.0
 20
0.0
 30
0.0
  9
$PUCSORGBOTTOM
 10
0.0
 20
0.0
 30
0.0
  9
$PUCSORGLEFT
 10
0.0
 20
0.0
 30
0.0
  9
$PUCSORGRIGHT
 10
0.0
 20
0.0
 30
0.0
  9
$PUCSORGFRONT
 10
0.0
 20
0.0
 30
0.0
  9
$PUCSORGBACK
 10
0.0
 20
0.0
 30
0.0
  9
$USERI1
 70
     0
  9
$USERI2
 70
     0
  9
$USERI3
 70
     0
  9
$USERI4
 70
     0
  9
$USERI5
 70
     0
  9
$USERR1
 40
0.0
  9
$USERR2
 40
0.0
  9
$USERR3
 40
0.0
  9
$USERR4
 40
0.0
  9
$USERR5
 40
0.0
  9
$WORLDVIEW
 70
     1
  9
$SHADEDGE
 70
     3
  9
$SHADEDIF
 70
    70
  9
$TILEMODE
 70
     1
  9
$MAXACTVP
 70
    64
  9
$PINSBASE
 10
0.0
 20
0.0
 30
0.0
  9
$PLIMCHECK
 70
     0
  9
$PEXTMIN
 10
1.000000000000000E+20
 20
1.000000000000000E+20
 30
1.000000000000000E+20
  9
$PEXTMAX
 10
-1.000000000000000E+20
 20
-1.000000000000000E+20
 30
-1.000000000000000E+20
  9
$PLIMMIN
 10
0.0
 20
0.0
  9
$PLIMMAX
 10
12.0
 20
9.0
  9
$UNITMODE
 70
     0
  9
$VISRETAIN
 70
     1
  9
$PLINEGEN
 70
     0
  9
$PSLTSCALE
 70
     1
  9
$TREEDEPTH
 70
  3020
  9
$CMLSTYLE
  2
Standard
  9
$CMLJUST
 70
     0
  9
$CMLSCALE
 40
1.0
  9
$PROXYGRAPHICS
 70
     1
  9
$MEASUREMENT
 70
     0
  9
$CELWEIGHT
370
    -1
  9
$ENDCAPS
280
     0
  9
$JOINSTYLE
280
     0
  9
$LWDISPLAY
290
     0
  9
$INSUNITS
 70
     4
  9
$HYPERLINKBASE
  1

  9
$STYLESHEET
  1

  9
$XEDIT
290
     1
  9
$CEPSNTYPE
380
     0
  9
$PSTYLEMODE
290
     1
  9
$FINGERPRINTGUID
  2
{468C60FA-5FBF-4815-A146-A01B4502F10F}
  9
$VERSIONGUID
  2
{FAEB1C32-E019-11D5-929B-00C0DF256EC4}
  9
$EXTNAMES
290
     1
  9
$PSVPSCALE
 40
0.0
  9
$OLESTARTUP
290
     0
  9
$SORTENTS
280
   127
  9
$INDEXCTL
280
     0
  9
$HIDETEXT
280
     1
  9
$XCLIPFRAME
290
     0
  9
$HALOGAP
280
     0
  9
$OBSCOLOR
 70
   257
  9
$OBSLTYPE
280
     0
  9
$INTERSECTIONDISPLAY
280
     0
  9
$INTERSECTIONCOLOR
 70
   257
  9
$DIMASSOC
280
     2
  9
$PROJECTNAME
  1

  9
$CAMERADISPLAY
290
     0
  9
$LENSLENGTH
 40
50.0
  9
$CAMERAHEIGHT
 40
0.0
  9
$STEPSPERSEC
 40
2.0
  9
$STEPSIZE
 40
6.0
  9
$3DDWFPREC
 40
2.0
  9
$PSOLWIDTH
 40
0.25
  9
$PSOLHEIGHT
 40
4.0
  9
$LOFTANG1
 40
1.570796326794897
  9
$LOFTANG2
 40
1.570796326794897
  9
$LOFTMAG1
 40
0.0
  9
$LOFTMAG2
 40
0.0
  9
$LOFTPARAM
 70
     7
  9
$LOFTNORMALS
280
     1
  9
$LATITUDE
 40
37.795
  9
$LONGITUDE
 40
-122.394
  9
$NORTHDIRECTION
 40
0.0
  9
$TIMEZONE
 70
 -8000
  9
$LIGHTGLYPHDISPLAY
280
     1
  9
$TILEMODELIGHTSYNCH
280
     1
  9
$SOLIDHIST
280
     1
  9
$SHOWHIST
280
     1
  9
$DWFFRAME
280
     2
  9
$DGNFRAME
280
     2
  9
$REALWORLDSCALE
290
     1
  9
$INTERFERECOLOR
 62
   256
  9
$CSHADOW
280
     0
  9
$SHADOWPLANELOCATION
 40
0.0
  0
ENDSEC
  0
SECTION
  2
CLASSES
  0
CLASS
  1
ACDBDICTIONARYWDFLT
  2
AcDbDictionaryWithDefault
  3
ObjectDBX Classes
 90
        0
 91
        4
280
     0
281
     0
  0
CLASS
  1
VISUALSTYLE
  2
AcDbVisualStyle
  3
ObjectDBX Classes
 90
     4095
 91
        4
280
     0
281
     0
  0
CLASS
  1
MATERIAL
  2
AcDbMaterial
  3
ObjectDBX Classes
 90
     1153
 91
        4
280
     0
281
     0
  0
ENDSEC
  0
SECTION
  2
TABLES
  0
TABLE
  2
VPORT
  5
8
330
0
100
AcDbSymbolTable
 70
     1
  0
VPORT
  5
29
330
8
100
AcDbSymbolTableRecord
100
AcDbViewportTableRecord
  2
*Active
 70
     0
 10
0.0
 20
0.0
 11
1.0
 21
1.0
 12
10.42990654205607
 22
4.5
 13
0.0
 23
0.0
 14
0.5
 24
0.5
 15
0.5
 25
0.5
 16
0.0
 26
0.0
 36
1.0
 17
0.0
 27
0.0
 37
0.0
 40
9.0
 41
1.972972972850329
 42
50.0
 43
0.0
 44
0.0
 50
0.0
 51
0.0
 71
     0
 72
   100
 73
     1
 74
     3
 75
     0
 76
     0
 77
     0
 78
     0
281
     0
 65
     1
110
0.0
120
0.0
130
0.0
111
1.0
121
0.0
131
0.0
112
0.0
122
1.0
132
0.0
 79
     0
146
0.0
 60
     3
 61
     5
292
     1
282
     1
141
0.0
142
0.0
 63
   250
  0
ENDTAB
  0
TABLE
  2
LTYPE
  5
5
330
0
100
AcDbSymbolTable
 70
     1
  0
LTYPE
  5
14
330
5
100
AcDbSymbolTableRecord
100
AcDbLinetypeTableRecord
  2
ByBlock
 70
     0
  3

 72
    65
 73
     0
 40
0.0
  0
LTYPE
  5
15
330
5
100
AcDbSymbolTableRecord
100
AcDbLinetypeTableRecord
  2
ByLayer
 70
     0
  3

 72
    65
 73
     0
 40
0.0
  0
LTYPE
  5
16
330
5
100
AcDbSymbolTableRecord
100
AcDbLinetypeTableRecord
  2
Continuous
 70
     0
  3
Solid line
 72
    65
 73
     0
 40
0.0
  0
ENDTAB
  0
TABLE
  2
LAYER
  5
2
330
0
100
AcDbSymbolTable
 70
     2
  0
LAYER
  5
10
330
2
100
AcDbSymbolTableRecord
100
AcDbLayerTableRecord
  2
0
 70
     0
 62
     7
  6
Continuous
370
    -3
390
F
347
3E
  0
LAYER
  5
40
330
2
100
AcDbSymbolTableRecord
100
AcDbLayerTableRecord
  2
layer 1
 70
     0
 62
     7
  6
Continuous
370
    -3
390
F
347
3E
  0
ENDTAB
  0
TABLE
  2
STYLE
  5
3
330
0
100
AcDbSymbolTable
 70
     1
  0
STYLE
  5
11
330
3
100
AcDbSymbolTableRecord
100
AcDbTextStyleTableRecord
  2
Standard
 70
     0
 40
0.0
 41
1.0
 50
0.0
 71
     0
 42
0.2
  3
txt
  4

  0
ENDTAB
  0
TABLE
  2
VIEW
  5
6
330
0
100
AcDbSymbolTable
 70
     0
  0
ENDTAB
  0
TABLE
  2
UCS
  5
7
330
0
100
AcDbSymbolTable
 70
     0
  0
ENDTAB
  0
TABLE
  2
APPID
  5
9
330
0
100
AcDbSymbolTable
 70
     2
  0
APPID
  5
12
330
9
100
AcDbSymbolTableRecord
100
AcDbRegAppTableRecord
  2
ACAD
 70
     0
  0
APPID
  5
3F
330
9
100
AcDbSymbolTableRecord
100
AcDbRegAppTableRecord
  2
ODA
 70
     0
  0
ENDTAB
  0
TABLE
  2
DIMSTYLE
  5
A
330
0
100
AcDbSymbolTable
 70
     1
100
AcDbDimStyleTable
  0
DIMSTYLE
105
27
330
A
100
AcDbSymbolTableRecord
100
AcDbDimStyleTableRecord
  2
Standard
 70
     0
178
     0
340
11
  0
ENDTAB
  0
TABLE
  2
BLOCK_RECORD
  5
1
330
0
100
AcDbSymbolTable
 70
     1
  0
BLOCK_RECORD
  5
1F
330
1
100
AcDbSymbolTableRecord
100
AcDbBlockTableRecord
  2
*Model_Space
340
22
 70
     0
280
     1
281
     0
  0
BLOCK_RECORD
  5
1B
330
1
100
AcDbSymbolTableRecord
100
AcDbBlockTableRecord
  2
*Paper_Space
340
1E
 70
     0
280
     1
281
     0
  0
BLOCK_RECORD
  5
23
330
1
100
AcDbSymbolTableRecord
100
AcDbBlockTableRecord
  2
*Paper_Space0
340
26
 70
     0
280
     1
281
     0
  0
ENDTAB
  0
ENDSEC
  0
SECTION
  2
BLOCKS
  0
BLOCK
  5
20
330
1F
100
AcDbEntity
  8
0
100
AcDbBlockBegin
  2
*Model_Space
 70
     0
 10
0.0
 20
0.0
 30
0.0
  3
*Model_Space
  1

  0
ENDBLK
  5
21
330
1F
100
AcDbEntity
  8
0
100
AcDbBlockEnd
  0
BLOCK
  5
1C
330
1B
100
AcDbEntity
 67
     1
  8
0
100
AcDbBlockBegin
  2
*Paper_Space
 70
     0
 10
0.0
 20
0.0
 30
0.0
  3
*Paper_Space
  1

  0
ENDBLK
  5
1D
330
1B
100
AcDbEntity
 67
     1
  8
0
100
AcDbBlockEnd
  0
BLOCK
  5
24
330
23
100
AcDbEntity
  8
0
100
AcDbBlockBegin
  2
*Paper_Space0
 70
     0
 10
0.0
 20
0.0
 30
0.0
  3
*Paper_Space0
  1

  0
ENDBLK
  5
25
330
23
100
AcDbEntity
  8
0
100
AcDbBlockEnd
  0
ENDSEC
  0
SECTION
  2
ENTITIES
  0
SPLINE
  5
41
330
1F
100
AcDbEntity
  8
layer 1
 62
   250
100
AcDbSpline
210
0.0
220
0.0
230
1.0
 70
    11
 71
     3
 72
    20
 73
    16
 74
     0
 42
0.0000000001
 43
0.0000000001
 12
1.0
 22
0.0
 32
0.0
 13
1.0
 23
0.0
 33
0.0
 40
0.0
 40
0.0
 40
0.0
 40
0.0
 40
0.2
 40
0.2
 40
0.2
 40
0.2
 40
0.4
 40
0.4
 40
0.4
 40
0.4
 40
0.6
 40
0.6
 40
0.6
 40
0.6
 40
1.0
 40
1.0
 40
1.0
 40
1.0
 10
-82.1838
 20
131.8437
 30
0.0
 10
-82.1838
 20
131.8437
 30
0.0
 10
-2.3097
 20
131.8437
 30
0.0
 10
-2.3097
 20
131.8437
 30
0.0
 10
-2.3097
 20
131.8437
 30
0.0
 10
-2.3097
 20
131.8437
 30
0.0
 10
-2.3097
 20
-114.5885
 30
0.0
 10
-2.3097
 20
-114.5885
 30
0.0
 10
-2.3097
 20
-114.5885
 30
0.0
 10
-2.3097
 20
-114.5885
 30
0.0
 10
-82.1838
 20
-114.5885
 30
0.0
 10
-82.1838
 20
-114.5885
 30
0.0
 10
-82.1838
 20
-114.5885
 30
0.0
 10
-82.1838
 20
-114.5885
 30
0.0
 10
-82.1838
 20
131.8437
 30
0.0
 10
-82.1838
 20
131.8437
 30
0.0
  0
SPLINE
  5
42
330
1F
100
AcDbEntity
  8
layer 1
 62
     7
100
AcDbSpline
210
0.0
220
0.0
230
1.0
 70
    11
 71
     3
 72
    16
 73
    12
 74
     0
 42
0.0000000001
 43
0.0000000001
 12
1.0
 22
0.0
 32
0.0
 13
1.0
 23
0.0
 33
0.0
 40
0.0
 40
0.0
 40
0.0
 40
0.0
 40
0.25
 40
0.25
 40
0.25
 40
0.25
 40
0.5
 40
0.5
 40
0.5
 40
0.5
 40
1.0
 40
1.0
 40
1.0
 40
1.0
 10
-52.0872
 20
51.8159
 30
0.0
 10
-48.8286
 20
55.5303
 30
0.0
 10
-48.024
 20
56.3511
 30
0.0
 10
-45.1305
 20
59.3243
 30
0.0
 10
-45.1305
 20
59.3243
 30
0.0
 10
-48.8169
 20
62.3937
 30
0.0
 10
-50.6261
 20
67.082
 30
0.0
 10
-51.2154
 20
71.1532
 30
0.0
 10
-51.2154
 20
71.1532
 30
0.0
 10
-53.9334
 20
67.3946
 30
0.0
 10
-58.9274
 20
58.6444
 30
0.0
 10
-52.0872
 20
51.8159
 30
0.0
  0
SPLINE
  5
43
330
1F
100
AcDbEntity
  8
layer 1
370
     9
100
AcDbSpline
210
0.0
220
0.0
230
1.0
 70
    11
 71
     3
 72
    16
 73
    12
 74
     0
 42
0.0000000001
 43
0.0000000001
 12
1.0
 22
0.0
 32
0.0
 13
1.0
 23
0.0
 33
0.0
 40
0.0
 40
0.0
 40
0.0
 40
0.0
 40
0.25
 40
0.25
 40
0.25
 40
0.25
 40
0.5
 40
0.5
 40
0.5
 40
0.5
 40
1.0
 40
1.0
 40
1.0
 40
1.0
 10
-52.0872
 20
51.8159
 30
0.0
 10
-48.8286
 20
55.5303
 30
0.0
 10
-48.024
 20
56.3511
 30
0.0
 10
-45.1305
 20
59.3243
 30
0.0
 10
-45.1305
 20
59.3243
 30
0.0
 10
-48.8169
 20
62.3937
 30
0.0
 10
-50.6261
 20
67.082
 30
0.0
 10
-51.2154
 20
71.1534
 30
0.0
 10
-51.2154
 20
71.1534
 30
0.0
 10
-53.9334
 20
67.3937
 30
0.0
 10
-58.9274
 20
58.6444
 30
0.0
 10
-52.0872
 20
51.8159
 30
0.0
  0
SPLINE
  5
44
330
1F
100
AcDbEntity
  8
layer 1
 62
     7
100
AcDbSpline
210
0.0
220
0.0
230
1.0
 70
    11
 71
     3
 72
    28
 73
    24
 74
     0
 42
0.0000000001
 43
0.0000000001
 12
1.0
 22
0.0
 32
0.0
 13
1.0
 23
0.0
 33
0.0
 40
0.0
 40
0.0
 40
0.0
 40
0.0
 40
0.1428571428571428
 40
0.1428571428571428
 40
0.1428571428571428
 40
0.1428571428571428
 40
0.2857142857142857
 40
0.2857142857142857
 40
0.2857142857142857
 40
0.2857142857142857
 40
0.4285714285714285
 40
0.4285714285714285
 40
0.4285714285714285
 40
0.4285714285714285
 40
0.5714285714285714
 40
0.5714285714285714
 40
0.5714285714285714
 40
0.5714285714285714
 40
0.7142857142857143
 40
0.7142857142857143
 40
0.7142857142857143
 40
0.7142857142857143
 40
1.0
 40
1.0
 40
1.0
 40
1.0
 10
-75.8815
 20
74.2538
 30
0.0
 10
-74.2029
 20
76.833
 30
0.0
 10
-69.4576
 20
77.5209
 30
0.0
 10
-66.4756
 20
75.8199
 30
0.0
 10
-66.4756
 20
75.8199
 30
0.0
 10
-67.8034
 20
81.7907
 30
0.0
 10
-64.8027
 20
85.3583
 30
0.0
 10
-63.0248
 20
86.6942
 30
0.0
 10
-63.0248
 20
86.6942
 30
0.0
 10
-63.166
 20
87.0567
 30
0.0
 10
-63.5909
 20
87.0546
 30
0.0
 10
-64.0867
 20
86.581
 30
0.0
 10
-64.0867
 20
86.581
 30
0.0
 10
-64.8506
 20
85.8508
 30
0.0
 10
-65.1144
 20
85.3976
 30
0.0
 10
-66.0878
 20
85.3526
 30
0.0
 10
-66.0878
 20
85.3526
 30
0.0
 10
-69.9388
 20
85.1771
 30
0.0
 10
-71.8835
 20
85.1909
 30
0.0
 10
-75.7823
 20
85.1771
 30
0.0
 10
-75.7823
 20
85.1771
 30
0.0
 10
-75.7823
 20
85.1771
 30
0.0
 10
-75.8815
 20
74.2538
 30
0.0
 10
-75.8815
 20
74.2538
 30
0.0
  0
SPLINE
  5
45
330
1F
100
AcDbEntity
  8
layer 1
370
    13
100
AcDbSpline
210
0.0
220
0.0
230
1.0
 70
    11
 71
     3
 72
    28
 73
    24
 74
     0
 42
0.0000000001
 43
0.0000000001
 12
1.0
 22
0.0
 32
0.0
 13
1.0
 23
0.0
 33
0.0
 40
0.0
 40
0.0
 40
0.0
 40
0.0
 40
0.1428571428571428
 40
0.1428571428571428
 40
0.1428571428571428
 40
0.1428571428571428
 40
0.2857142857142857
 40
0.2857142857142857
 40
0.2857142857142857
 40
0.2857142857142857
 40
0.4285714285714285
 40
0.4285714285714285
 40
0.4285714285714285
 40
0.4285714285714285
 40
0.5714285714285714
 40
0.5714285714285714
 40
0.5714285714285714
 40
0.5714285714285714
 40
0.7142857142857143
 40
0.7142857142857143
 40
0.7142857142857143
 40
0.7142857142857143
 40
1.0
 40
1.0
 40
1.0
 40
1.0
 10
-75.8815
 20
74.2538
 30
0.0
 10
-74.2029
 20
76.833
 30
0.0
 10
-69.4576
 20
77.5209
 30
0.0
 10
-66.4756
 20
75.8199
 30
0.0
 10
-66.4756
 20
75.8199
 30
0.0
 10
-67.8034
 20
81.7907
 30
0.0
 10
-64.8027
 20
85.3583
 30
0.0
 10
-63.0248
 20
86.6942
 30
0.0
 10
-63.0248
 20
86.6942
 30
0.0
 10
-63.166
 20
87.0567
 30
0.0
 10
-63.5909
 20
87.0544
 30
0.0
 10
-64.0867
 20
86.581
 30
0.0
 10
-64.0867
 20
86.581
 30
0.0
 10
-64.8506
 20
85.8508
 30
0.0
 10
-65.1144
 20
85.3976
 30
0.0
 10
-66.0878
 20
85.3526
 30
0.0
 10
-66.0878
 20
85.3526
 30
0.0
 10
-69.9388
 20
85.1771
 30
0.0
 10
-71.8835
 20
85.1909
 30
0.0
 10
-75.7823
 20
85.1771
 30
0.0
 10
-75.7823
 20
85.1771
 30
0.0
 10
-75.7823
 20
85.1771
 30
0.0
 10
-75.8815
 20
74.2538
 30
0.0
 10
-75.8815
 20
74.2538
 30
0.0
  0
SPLINE
  5
46
330
1F
100
AcDbEntity
  8
layer 1
 62
     7
370
     5
100
AcDbSpline
210
0.0
220
0.0
230
1.0
 70
    11
 71
     3
 72
    16
 73
    12
 74
     0
 42
0.0000000001
 43
0.0000000001
 12
1.0
 22
0.0
 32
0.0
 13
1.0
 23
0.0
 33
0.0
 40
0.0
 40
0.0
 40
0.0
 40
0.0
 40
0.25
 40
0.25
 40
0.25
 40
0.25
 40
0.5
 40
0.5
 40
0.5
 40
0.5
 40
1.0
 40
1.0
 40
1.0
 40
1.0
 10
-75.8815
 20
95.8029
 30
0.0
 10
-74.9046
 20
92.5299
 30
0.0
 10
-70.955
 20
90.3473
 30
0.0
 10
-67.1643
 20
89.7073
 30
0.0
 10
-67.1643
 20
89.7073
 30
0.0
 10
-71.142
 20
89.7583
 30
0.0
 10
-71.8835
 20
89.679
 30
0.0
 10
-75.7823
 20
89.6274
 30
0.0
 10
-75.7823
 20
89.6274
 30
0.0
 10
-75.7823
 20
89.6274
 30
0.0
 10
-75.8815
 20
95.8029
 30
0.0
 10
-75.8815
 20
95.8029
 30
0.0
  0
SPLINE
  5
47
330
1F
100
AcDbEntity
  8
layer 1
 62
     7
100
AcDbSpline
210
0.0
220
0.0
230
1.0
 70
    11
 71
     3
 72
    16
 73
    12
 74
     0
 42
0.0000000001
 43
0.0000000001
 12
1.0
 22
0.0
 32
0.0
 13
1.0
 23
0.0
 33
0.0
 40
0.0
 40
0.0
 40
0.0
 40
0.0
 40
0.25
 40
0.25
 40
0.25
 40
0.25
 40
0.5
 40
0.5
 40
0.5
 40
0.5
 40
1.0
 40
1.0
 40
1.0
 40
1.0
 10
-51.6255
 20
92.1564
 30
0.0
 10
-47.9732
 20
93.7676
 30
0.0
 10
-45.7255
 20
99.2994
 30
0.0
 10
-44.5166
 20
103.4078
 30
0.0
 10
-44.5166
 20
103.4078
 30
0.0
 10
-44.5673
 20
99.4307
 30
0.0
 10
-44.6775
 20
95.0158
 30
0.0
 10
-44.6267
 20
91.117
 30
0.0
 10
-44.6267
 20
91.117
 30
0.0
 10
-46.2858
 20
91.8425
 30
0.0
 10
-48.7661
 20
92.1254
 30
0.0
 10
-51.6255
 20
92.1564
 30
0.0
  0
SPLINE
  5
48
330
1F
100
AcDbEntity
  8
layer 1
370
    13
100
AcDbSpline
210
0.0
220
0.0
230
1.0
 70
    11
 71
     3
 72
    16
 73
    12
 74
     0
 42
0.0000000001
 43
0.0000000001
 12
1.0
 22
0.0
 32
0.0
 13
1.0
 23
0.0
 33
0.0
 40
0.0
 40
0.0
 40
0.0
 40
0.0
 40
0.25
 40
0.25
 40
0.25
 40
0.25
 40
0.5
 40
0.5
 40
0.5
 40
0.5
 40
1.0
 40
1.0
 40
1.0
 40
1.0
 10
-51.6255
 20
92.1564
 30
0.0
 10
-47.9732
 20
93.7676
 30
0.0
 10
-45.7255
 20
99.2994
 30
0.0
 10
-44.5166
 20
103.4078
 30
0.0
 10
-44.5166
 20
103.4078
 30
0.0
 10
-44.5673
 20
99.4299
 30
0.0
 10
-44.6775
 20
95.0158
 30
0.0
 10
-44.6267
 20
91.117
 30
0.0
 10
-44.6267
 20
91.117
 30
0.0
 10
-46.2858
 20
91.8425
 30
0.0
 10
-48.7661
 20
92.1254
 30
0.0
 10
-51.6255
 20
92.1564
 30
0.0
  0
SPLINE
  5
49
330
1F
100
AcDbEntity
  8
layer 1
 62
     7
100
AcDbSpline
210
0.0
220
0.0
230
1.0
 70
    11
 71
     3
 72
    32
 73
    28
 74
     0
 42
0.0000000001
 43
0.0000000001
 12
1.0
 22
0.0
 32
0.0
 13
1.0
 23
0.0
 33
0.0
 40
0.0
 40
0.0
 40
0.0
 40
0.0
 40
0.125
 40
0.125
 40
0.125
 40
0.125
 40
0.25
 40
0.25
 40
0.25
 40
0.25
 40
0.375
 40
0.375
 40
0.375
 40
0.375
 40
0.5
 40
0.5
 40
0.5
 40
0.5
 40
0.625
 40
0.625
 40
0.625
 40
0.625
 40
0.75
 40
0.75
 40
0.75
 40
0.75
 40
1.0
 40
1.0
 40
1.0
 40
1.0
 10
-62.9197
 20
79.4522
 30
0.0
 10
-60.4821
 20
87.4988
 30
0.0
 10
-53.4181
 20
89.1861
 30
0.0
 10
-46.3366
 20
88.2323
 30
0.0
 10
-46.3366
 20
88.2323
 30
0.0
 10
-50.0318
 20
84.8233
 30
0.0
 10
-50.9545
 20
83.4441
 30
0.0
 10
-51.7531
 20
79.8687
 30
0.0
 10
-51.7531
 20
79.8687
 30
0.0
 10
-52.2772
 20
83.3173
 30
0.0
 10
-56.2406
 20
83.8435
 30
0.0
 10
-58.3301
 20
82.4106
 30
0.0
 10
-58.3301
 20
82.4106
 30
0.0
 10
-62.5798
 20
79.4978
 30
0.0
 10
-59.9668
 20
73.4721
 30
0.0
 10
-57.087
 20
76.9178
 30
0.0
 10
-57.087
 20
76.9178
 30
0.0
 10
-58.8571
 20
77.0711
 30
0.0
 10
-58.0106
 20
79.9591
 30
0.0
 10
-55.7961
 20
79.438
 30
0.0
 10
-55.7961
 20
79.438
 30
0.0
 10
-52.8883
 20
78.7559
 30
0.0
 10
-53.2651
 20
75.2137
 30
0.0
 10
-54.7119
 20
73.8033
 30
0.0
 10
-54.7119
 20
73.8033
 30
0.0
 10
-56.8863
 20
71.4994
 30
0.0
 10
-64.6441
 20
71.5839
 30
0.0
 10
-62.9197
 20
79.4522
 30
0.0
  0
SPLINE
  5
4A
330
1F
100
AcDbEntity
  8
layer 1
370
    13
100
AcDbSpline
210
0.0
220
0.0
230
1.0
 70
    11
 71
     3
 72
    32
 73
    28
 74
     0
 42
0.0000000001
 43
0.0000000001
 12
1.0
 22
0.0
 32
0.0
 13
1.0
 23
0.0
 33
0.0
 40
0.0
 40
0.0
 40
0.0
 40
0.0
 40
0.125
 40
0.125
 40
0.125
 40
0.125
 40
0.25
 40
0.25
 40
0.25
 40
0.25
 40
0.375
 40
0.375
 40
0.375
 40
0.375
 40
0.5
 40
0.5
 40
0.5
 40
0.5
 40
0.625
 40
0.625
 40
0.625
 40
0.625
 40
0.75
 40
0.75
 40
0.75
 40
0.75
 40
1.0
 40
1.0
 40
1.0
 40
1.0
 10
-62.9197
 20
79.4522
 30
0.0
 10
-60.4821
 20
87.4988
 30
0.0
 10
-53.4181
 20
89.1861
 30
0.0
 10
-46.3366
 20
88.2323
 30
0.0
 10
-46.3366
 20
88.2323
 30
0.0
 10
-50.0318
 20
84.8233
 30
0.0
 10
-50.9545
 20
83.4441
 30
0.0
 10
-51.7531
 20
79.8678
 30
0.0
 10
-51.7531
 20
79.8678
 30
0.0
 10
-52.2772
 20
83.3173
 30
0.0
 10
-56.2406
 20
83.8435
 30
0.0
 10
-58.3301
 20
82.4106
 30
0.0
 10
-58.3301
 20
82.4106
 30
0.0
 10
-62.5798
 20
79.4978
 30
0.0
 10
-59.9668
 20
73.4721
 30
0.0
 10
-57.087
 20
76.9178
 30
0.0
 10
-57.087
 20
76.9178
 30
0.0
 10
-58.8571
 20
77.0711
 30
0.0
 10
-58.0106
 20
79.9584
 30
0.0
 10
-55.7961
 20
79.438
 30
0.0
 10
-55.7961
 20
79.438
 30
0.0
 10
-52.8883
 20
78.7559
 30
0.0
 10
-53.2651
 20
75.2137
 30
0.0
 10
-54.7119
 20
73.8033
 30
0.0
 10
-54.7119
 20
73.8033
 30
0.0
 10
-56.8863
 20
71.4994
 30
0.0
 10
-64.6441
 20
71.5839
 30
0.0
 10
-62.9197
 20
79.4522
 30
0.0
  0
SPLINE
  5
4B
330
1F
100
AcDbEntity
  8
layer 1
 62
     7
100
AcDbSpline
210
0.0
220
0.0
230
1.0
 70
    11
 71
     3
 72
    36
 73
    32
 74
     0
 42
0.0000000001
 43
0.0000000001
 12
1.0
 22
0.0
 32
0.0
 13
1.0
 23
0.0
 33
0.0
 40
0.0
 40
0.0
 40
0.0
 40
0.0
 40
0.1111111111111111
 40
0.1111111111111111
 40
0.1111111111111111
 40
0.1111111111111111
 40
0.2222222222222222
 40
0.2222222222222222
 40
0.2222222222222222
 40
0.2222222222222222
 40
0.3333333333333333
 40
0.3333333333333333
 40
0.3333333333333333
 40
0.3333333333333333
 40
0.4444444444444444
 40
0.4444444444444444
 40
0.4444444444444444
 40
0.4444444444444444
 40
0.5555555555555556
 40
0.5555555555555556
 40
0.5555555555555556
 40
0.5555555555555556
 40
0.6666666666666666
 40
0.6666666666666666
 40
0.6666666666666666
 40
0.6666666666666666
 40
0.7777777777777778
 40
0.7777777777777778
 40
0.7777777777777778
 40
0.7777777777777778
 40
1.0
 40
1.0
 40
1.0
 40
1.0
 10
-67.0141
 20
93.1872
 30
0.0
 10
-58.8542
 20
91.1599
 30
0.0
 10
-50.2245
 20
93.7641
 30
0.0
 10
-46.2829
 20
107.7399
 30
0.0
 10
-46.2829
 20
107.7399
 30
0.0
 10
-50.1135
 20
102.5416
 30
0.0
 10
-57.9054
 20
104.2204
 30
0.0
 10
-60.9156
 20
106.9247
 30
0.0
 10
-60.9156
 20
106.9247
 30
0.0
 10
-58.1293
 20
103.7614
 30
0.0
 10
-59.4231
 20
100.036
 30
0.0
 10
-62.1216
 20
98.592
 30
0.0
 10
-62.1216
 20
98.592
 30
0.0
 10
-65.8986
 20
96.5703
 30
0.0
 10
-70.8644
 20
98.442
 30
0.0
 10
-70.0947
 20
103.5042
 30
0.0
 10
-70.0947
 20
103.5042
 30
0.0
 10
-68.2281
 20
100.5854
 30
0.0
 10
-64.9332
 20
101.6696
 30
0.0
 10
-64.1569
 20
104.0957
 30
0.0
 10
-64.1569
 20
104.0957
 30
0.0
 10
-63.4234
 20
106.3977
 30
0.0
 10
-64.6186
 20
109.2599
 30
0.0
 10
-67.8891
 20
109.5435
 30
0.0
 10
-67.8891
 20
109.5435
 30
0.0
 10
-71.1703
 20
109.8013
 30
0.0
 10
-75.8135
 20
106.1034
 30
0.0
 10
-74.0862
 20
99.4496
 30
0.0
 10
-74.0862
 20
99.4496
 30
0.0
 10
-72.4836
 20
95.7125
 30
0.0
 10
-70.7397
 20
94.3787
 30
0.0
 10
-67.0141
 20
93.1872
 30
0.0
  0
SPLINE
  5
4C
330
1F
100
AcDbEntity
  8
layer 1
370
    13
100
AcDbSpline
210
0.0
220
0.0
230
1.0
 70
    11
 71
     3
 72
    36
 73
    32
 74
     0
 42
0.0000000001
 43
0.0000000001
 12
1.0
 22
0.0
 32
0.0
 13
1.0
 23
0.0
 33
0.0
 40
0.0
 40
0.0
 40
0.0
 40
0.0
 40
0.1111111111111111
 40
0.1111111111111111
 40
0.1111111111111111
 40
0.1111111111111111
 40
0.2222222222222222
 40
0.2222222222222222
 40
0.2222222222222222
 40
0.2222222222222222
 40
0.3333333333333333
 40
0.3333333333333333
 40
0.3333333333333333
 40
0.3333333333333333
 40
0.4444444444444444
 40
0.4444444444444444
 40
0.4444444444444444
 40
0.4444444444444444
 40
0.5555555555555556
 40
0.5555555555555556
 40
0.5555555555555556
 40
0.5555555555555556
 40
0.6666666666666666
 40
0.6666666666666666
 40
0.6666666666666666
 40
0.6666666666666666
 40
0.7777777777777778
 40
0.7777777777777778
 40
0.7777777777777778
 40
0.7777777777777778
 40
1.0
 40
1.0
 40
1.0
 40
1.0
 10
-67.0141
 20
93.1872
 30
0.0
 10
-58.8542
 20
91.1599
 30
0.0
 10
-50.2245
 20
93.7641
 30
0.0
 10
-46.2829
 20
107.7399
 30
0.0
 10
-46.2829
 20
107.7399
 30
0.0
 10
-50.1135
 20
102.5416
 30
0.0
 10
-57.9054
 20
104.2204
 30
0.0
 10
-60.9156
 20
106.9247
 30
0.0
 10
-60.9156
 20
106.9247
 30
0.0
 10
-58.1293
 20
103.7614
 30
0.0
 10
-59.4231
 20
100.036
 30
0.0
 10
-62.1216
 20
98.592
 30
0.0
 10
-62.1216
 20
98.592
 30
0.0
 10
-65.8986
 20
96.5703
 30
0.0
 10
-70.8644
 20
98.4414
 30
0.0
 10
-70.0947
 20
103.5042
 30
0.0
 10
-70.0947
 20
103.5042
 30
0.0
 10
-68.2281
 20
100.5854
 30
0.0
 10
-64.9332
 20
101.6696
 30
0.0
 10
-64.1569
 20
104.0955
 30
0.0
 10
-64.1569
 20
104.0955
 30
0.0
 10
-63.4234
 20
106.3977
 30
0.0
 10
-64.6186
 20
109.2599
 30
0.0
 10
-67.8891
 20
109.5435
 30
0.0
 10
-67.8891
 20
109.5435
 30
0.0
 10
-71.1703
 20
109.8013
 30
0.0
 10
-75.8135
 20
106.1034
 30
0.0
 10
-74.0862
 20
99.4496
 30
0.0
 10
-74.0862
 20
99.4496
 30
0.0
 10
-72.4836
 20
95.7125
 30
0.0
 10
-70.7397
 20
94.3787
 30
0.0
 10
-67.0141
 20
93.1872
 30
0.0
  0
SPLINE
  5
4D
330
1F
100
AcDbEntity
  8
layer 1
 62
     7
100
AcDbSpline
210
0.0
220
0.0
230
1.0
 70
    11
 71
     3
 72
    56
 73
    52
 74
     0
 42
0.0000000001
 43
0.0000000001
 12
1.0
 22
0.0
 32
0.0
 13
1.0
 23
0.0
 33
0.0
 40
0.0
 40
0.0
 40
0.0
 40
0.0
 40
0.0714285714285714
 40
0.0714285714285714
 40
0.0714285714285714
 40
0.0714285714285714
 40
0.1428571428571428
 40
0.1428571428571428
 40
0.1428571428571428
 40
0.1428571428571428
 40
0.2142857142857143
 40
0.2142857142857143
 40
0.2142857142857143
 40
0.2142857142857143
 40
0.2857142857142857
 40
0.2857142857142857
 40
0.2857142857142857
 40
0.2857142857142857
 40
0.3571428571428572
 40
0.3571428571428572
 40
0.3571428571428572
 40
0.3571428571428572
 40
0.4285714285714285
 40
0.4285714285714285
 40
0.4285714285714285
 40
0.4285714285714285
 40
0.5
 40
0.5
 40
0.5
 40
0.5
 40
0.5714285714285714
 40
0.5714285714285714
 40
0.5714285714285714
 40
0.5714285714285714
 40
0.6428571428571429
 40
0.6428571428571429
 40
0.6428571428571429
 40
0.6428571428571429
 40
0.7142857142857143
 40
0.7142857142857143
 40
0.7142857142857143
 40
0.7142857142857143
 40
0.7857142857142857
 40
0.7857142857142857
 40
0.7857142857142857
 40
0.7857142857142857
 40
0.8571428571428571
 40
0.8571428571428571
 40
0.8571428571428571
 40
0.8571428571428571
 40
1.0
 40
1.0
 40
1.0
 40
1.0
 10
-56.4927
 20
47.2806
 30
0.0
 10
-55.3657
 20
48.4581
 30
0.0
 10
-54.8278
 20
48.8797
 30
0.0
 10
-53.8059
 20
50.117
 30
0.0
 10
-53.8059
 20
50.117
 30
0.0
 10
-61.0939
 20
54.7857
 30
0.0
 10
-60.6351
 20
65.6151
 30
0.0
 10
-57.7554
 20
69.1514
 30
0.0
 10
-57.7554
 20
69.1514
 30
0.0
 10
-58.8824
 20
67.7305
 30
0.0
 10
-61.6542
 20
68.908
 30
0.0
 10
-62.5776
 20
70.1344
 30
0.0
 10
-62.5776
 20
70.1344
 30
0.0
 10
-60.3407
 20
60.0378
 30
0.0
 10
-69.6497
 20
60.6719
 30
0.0
 10
-71.2268
 20
61.7423
 30
0.0
 10
-71.2268
 20
61.7423
 30
0.0
 10
-73.2062
 20
63.1528
 30
0.0
 10
-73.636
 20
65.8302
 30
0.0
 10
-73.3106
 20
68.3331
 30
0.0
 10
-73.3106
 20
68.3331
 30
0.0
 10
-73.1353
 20
69.1412
 30
0.0
 10
-72.7164
 20
69.9073
 30
0.0
 10
-72.0197
 20
70.1198
 30
0.0
 10
-72.0197
 20
70.1198
 30
0.0
 10
-71.1276
 20
70.3887
 30
0.0
 10
-70.1395
 20
69.7181
 30
0.0
 10
-70.4933
 20
68.7159
 30
0.0
 10
-70.4933
 20
68.7159
 30
0.0
 10
-70.7912
 20
67.8725
 30
0.0
 10
-70.3889
 20
65.7085
 30
0.0
 10
-69.8677
 20
65.3461
 30
0.0
 10
-69.8677
 20
65.3461
 30
0.0
 10
-66.7961
 20
63.2001
 30
0.0
 10
-63.7096
 20
67.4582
 30
0.0
 10
-66.3003
 20
71.5099
 30
0.0
 10
-66.3003
 20
71.5099
 30
0.0
 10
-68.2456
 20
74.2173
 30
0.0
 10
-72.0168
 20
73.1583
 30
0.0
 10
-73.3593
 20
71.5615
 30
0.0
 10
-73.3593
 20
71.5615
 30
0.0
 10
-77.524
 20
66.8271
 30
0.0
 10
-75.8135
 20
57.1072
 30
0.0
 10
-70.5389
 20
53.6193
 30
0.0
 10
-70.5389
 20
53.6193
 30
0.0
 10
-72.3879
 20
59.7264
 30
0.0
 10
-66.003
 20
61.4424
 30
0.0
 10
-64.8282
 20
58.4525
 30
0.0
 10
-64.8282
 20
58.4525
 30
0.0
 10
-69.0126
 20
52.4471
 30
0.0
 10
-57.5547
 20
50.6062
 30
0.0
 10
-56.4927
 20
47.2806
 30
0.0
  0
SPLINE
  5
4E
330
1F
100
AcDbEntity
  8
layer 1
370
     9
100
AcDbSpline
210
0.0
220
0.0
230
1.0
 70
    11
 71
     3
 72
    56
 73
    52
 74
     0
 42
0.0000000001
 43
0.0000000001
 12
1.0
 22
0.0
 32
0.0
 13
1.0
 23
0.0
 33
0.0
 40
0.0
 40
0.0
 40
0.0
 40
0.0
 40
0.0714285714285714
 40
0.0714285714285714
 40
0.0714285714285714
 40
0.0714285714285714
 40
0.1428571428571428
 40
0.1428571428571428
 40
0.1428571428571428
 40
0.1428571428571428
 40
0.2142857142857143
 40
0.2142857142857143
 40
0.2142857142857143
 40
0.2142857142857143
 40
0.2857142857142857
 40
0.2857142857142857
 40
0.2857142857142857
 40
0.2857142857142857
 40
0.3571428571428572
 40
0.3571428571428572
 40
0.3571428571428572
 40
0.3571428571428572
 40
0.4285714285714285
 40
0.4285714285714285
 40
0.4285714285714285
 40
0.4285714285714285
 40
0.5
 40
0.5
 40
0.5
 40
0.5
 40
0.5714285714285714
 40
0.5714285714285714
 40
0.5714285714285714
 40
0.5714285714285714
 40
0.6428571428571429
 40
0.6428571428571429
 40
0.6428571428571429
 40
0.6428571428571429
 40
0.7142857142857143
 40
0.7142857142857143
 40
0.7142857142857143
 40
0.7142857142857143
 40
0.7857142857142857
 40
0.7857142857142857
 40
0.7857142857142857
 40
0.7857142857142857
 40
0.8571428571428571
 40
0.8571428571428571
 40
0.8571428571428571
 40
0.8571428571428571
 40
1.0
 40
1.0
 40
1.0
 40
1.0
 10
-56.4927
 20
47.2806
 30
0.0
 10
-55.3657
 20
48.4581
 30
0.0
 10
-54.8278
 20
48.8797
 30
0.0
 10
-53.8059
 20
50.117
 30
0.0
 10
-53.8059
 20
50.117
 30
0.0
 10
-61.0939
 20
54.7857
 30
0.0
 10
-60.6351
 20
65.6151
 30
0.0
 10
-57.7554
 20
69.1514
 30
0.0
 10
-57.7554
 20
69.1514
 30
0.0
 10
-58.8824
 20
67.7305
 30
0.0
 10
-61.6542
 20
68.9078
 30
0.0
 10
-62.5776
 20
70.1342
 30
0.0
 10
-62.5776
 20
70.1342
 30
0.0
 10
-60.3407
 20
60.0378
 30
0.0
 10
-69.6497
 20
60.6719
 30
0.0
 10
-71.2268
 20
61.7423
 30
0.0
 10
-71.2268
 20
61.7423
 30
0.0
 10
-73.2062
 20
63.1528
 30
0.0
 10
-73.636
 20
65.8304
 30
0.0
 10
-73.3106
 20
68.3331
 30
0.0
 10
-73.3106
 20
68.3331
 30
0.0
 10
-73.1353
 20
69.1412
 30
0.0
 10
-72.7164
 20
69.9075
 30
0.0
 10
-72.0197
 20
70.1198
 30
0.0
 10
-72.0197
 20
70.1198
 30
0.0
 10
-71.1276
 20
70.3887
 30
0.0
 10
-70.1395
 20
69.7183
 30
0.0
 10
-70.4933
 20
68.7159
 30
0.0
 10
-70.4933
 20
68.7159
 30
0.0
 10
-70.7912
 20
67.8725
 30
0.0
 10
-70.3889
 20
65.7085
 30
0.0
 10
-69.8677
 20
65.3461
 30
0.0
 10
-69.8677
 20
65.3461
 30
0.0
 10
-66.7961
 20
63.2001
 30
0.0
 10
-63.7096
 20
67.4582
 30
0.0
 10
-66.3003
 20
71.5099
 30
0.0
 10
-66.3003
 20
71.5099
 30
0.0
 10
-68.2456
 20
74.2173
 30
0.0
 10
-72.0168
 20
73.1583
 30
0.0
 10
-73.3593
 20
71.5615
 30
0.0
 10
-73.3593
 20
71.5615
 30
0.0
 10
-77.524
 20
66.8271
 30
0.0
 10
-75.8135
 20
57.1072
 30
0.0
 10
-70.5389
 20
53.6193
 30
0.0
 10
-70.5389
 20
53.6193
 30
0.0
 10
-72.3879
 20
59.7264
 30
0.0
 10
-66.003
 20
61.4424
 30
0.0
 10
-64.8282
 20
58.4523
 30
0.0
 10
-64.8282
 20
58.4523
 30
0.0
 10
-69.0126
 20
52.4471
 30
0.0
 10
-57.5547
 20
50.6062
 30
0.0
 10
-56.4927
 20
47.2806
 30
0.0
  0
SPLINE
  5
4F
330
1F
100
AcDbEntity
  8
layer 1
 62
     7
100
AcDbSpline
210
0.0
220
0.0
230
1.0
 70
    11
 71
     3
 72
    16
 73
    12
 74
     0
 42
0.0000000001
 43
0.0000000001
 12
1.0
 22
0.0
 32
0.0
 13
1.0
 23
0.0
 33
0.0
 40
0.0
 40
0.0
 40
0.0
 40
0.0
 40
0.25
 40
0.25
 40
0.25
 40
0.25
 40
0.5
 40
0.5
 40
0.5
 40
0.5
 40
1.0
 40
1.0
 40
1.0
 40
1.0
 10
-75.751
 20
49.1234
 30
0.0
 10
-74.0071
 20
49.4879
 30
0.0
 10
-71.9973
 20
49.5929
 30
0.0
 10
-68.69
 20
49.3213
 30
0.0
 10
-68.69
 20
49.3213
 30
0.0
 10
-72.1582
 20
51.2811
 30
0.0
 10
-74.3471
 20
51.7644
 30
0.0
 10
-75.7823
 20
55.0349
 30
0.0
 10
-75.7823
 20
55.0349
 30
0.0
 10
-75.7823
 20
55.0349
 30
0.0
 10
-75.751
 20
49.1234
 30
0.0
 10
-75.751
 20
49.1234
 30
0.0
  0
SPLINE
  5
50
330
1F
100
AcDbEntity
  8
layer 1
370
    13
100
AcDbSpline
210
0.0
220
0.0
230
1.0
 70
    11
 71
     3
 72
    16
 73
    12
 74
     0
 42
0.0000000001
 43
0.0000000001
 12
1.0
 22
0.0
 32
0.0
 13
1.0
 23
0.0
 33
0.0
 40
0.0
 40
0.0
 40
0.0
 40
0.0
 40
0.25
 40
0.25
 40
0.25
 40
0.25
 40
0.5
 40
0.5
 40
0.5
 40
0.5
 40
1.0
 40
1.0
 40
1.0
 40
1.0
 10
-75.751
 20
49.1234
 30
0.0
 10
-74.0071
 20
49.4879
 30
0.0
 10
-71.9973
 20
49.5931
 30
0.0
 10
-68.69
 20
49.3213
 30
0.0
 10
-68.69
 20
49.3213
 30
0.0
 10
-72.1582
 20
51.2811
 30
0.0
 10
-74.3471
 20
51.7644
 30
0.0
 10
-75.7823
 20
55.0349
 30
0.0
 10
-75.7823
 20
55.0349
 30
0.0
 10
-75.7823
 20
55.0349
 30
0.0
 10
-75.751
 20
49.1234
 30
0.0
 10
-75.751
 20
49.1234
 30
0.0
  0
SPLINE
  5
51
330
1F
100
AcDbEntity
  8
layer 1
 62
     7
100
AcDbSpline
210
0.0
220
0.0
230
1.0
 70
    11
 71
     3
 72
    28
 73
    24
 74
     0
 42
0.0000000001
 43
0.0000000001
 12
1.0
 22
0.0
 32
0.0
 13
1.0
 23
0.0
 33
0.0
 40
0.0
 40
0.0
 40
0.0
 40
0.0
 40
0.1428571428571428
 40
0.1428571428571428
 40
0.1428571428571428
 40
0.1428571428571428
 40
0.2857142857142857
 40
0.2857142857142857
 40
0.2857142857142857
 40
0.2857142857142857
 40
0.4285714285714285
 40
0.4285714285714285
 40
0.4285714285714285
 40
0.4285714285714285
 40
0.5714285714285714
 40
0.5714285714285714
 40
0.5714285714285714
 40
0.5714285714285714
 40
0.7142857142857143
 40
0.7142857142857143
 40
0.7142857142857143
 40
0.7142857142857143
 40
1.0
 40
1.0
 40
1.0
 40
1.0
 10
-75.751
 20
40.9212
 30
0.0
 10
-74.2674
 20
41.8043
 30
0.0
 10
-71.9973
 20
41.8439
 30
0.0
 10
-69.0154
 20
40.5327
 30
0.0
 10
-69.0154
 20
40.5327
 30
0.0
 10
-69.3183
 20
45.8537
 30
0.0
 10
-62.6986
 20
45.7399
 30
0.0
 10
-60.5532
 20
41.5888
 30
0.0
 10
-60.5532
 20
41.5888
 30
0.0
 10
-59.1369
 20
38.8516
 30
0.0
 10
-58.5368
 20
37.7125
 30
0.0
 10
-57.5684
 20
35.1646
 30
0.0
 10
-57.5684
 20
35.1646
 30
0.0
 10
-57.7864
 20
39.596
 30
0.0
 10
-57.7328
 20
40.8162
 30
0.0
 10
-57.7213
 20
43.0841
 30
0.0
 10
-57.7213
 20
43.0841
 30
0.0
 10
-62.3651
 20
47.212
 30
0.0
 10
-70.7543
 20
47.4838
 30
0.0
 10
-75.7823
 20
46.1159
 30
0.0
 10
-75.7823
 20
46.1159
 30
0.0
 10
-75.7823
 20
46.1159
 30
0.0
 10
-75.751
 20
40.9212
 30
0.0
 10
-75.751
 20
40.9212
 30
0.0
  0
SPLINE
  5
52
330
1F
100
AcDbEntity
  8
layer 1
370
    13
100
AcDbSpline
210
0.0
220
0.0
230
1.0
 70
    11
 71
     3
 72
    28
 73
    24
 74
     0
 42
0.0000000001
 43
0.0000000001
 12
1.0
 22
0.0
 32
0.0
 13
1.0
 23
0.0
 33
0.0
 40
0.0
 40
0.0
 40
0.0
 40
0.0
 40
0.1428571428571428
 40
0.1428571428571428
 40
0.1428571428571428
 40
0.1428571428571428
 40
0.2857142857142857
 40
0.2857142857142857
 40
0.2857142857142857
 40
0.2857142857142857
 40
0.4285714285714285
 40
0.4285714285714285
 40
0.4285714285714285
 40
0.4285714285714285
 40
0.5714285714285714
 40
0.5714285714285714
 40
0.5714285714285714
 40
0.5714285714285714
 40
0.7142857142857143
 40
0.7142857142857143
 40
0.7142857142857143
 40
0.7142857142857143
 40
1.0
 40
1.0
 40
1.0
 40
1.0
 10
-75.751
 20
40.9212
 30
0.0
 10
-74.2674
 20
41.8043
 30
0.0
 10
-71.9973
 20
41.8439
 30
0.0
 10
-69.0154
 20
40.5327
 30
0.0
 10
-69.0154
 20
40.5327
 30
0.0
 10
-69.3183
 20
45.8537
 30
0.0
 10
-62.6986
 20
45.7399
 30
0.0
 10
-60.5532
 20
41.5888
 30
0.0
 10
-60.5532
 20
41.5888
 30
0.0
 10
-59.1369
 20
38.8516
 30
0.0
 10
-58.5368
 20
37.7125
 30
0.0
 10
-57.5684
 20
35.1648
 30
0.0
 10
-57.5684
 20
35.1648
 30
0.0
 10
-57.7864
 20
39.596
 30
0.0
 10
-57.7213
 20
40.8162
 30
0.0
 10
-57.7213
 20
43.0835
 30
0.0
 10
-57.7213
 20
43.0835
 30
0.0
 10
-62.3651
 20
47.212
 30
0.0
 10
-70.7543
 20
47.4838
 30
0.0
 10
-75.7823
 20
46.1159
 30
0.0
 10
-75.7823
 20
46.1159
 30
0.0
 10
-75.7823
 20
46.1159
 30
0.0
 10
-75.751
 20
40.9212
 30
0.0
 10
-75.751
 20
40.9212
 30
0.0
  0
SPLINE
  5
53
330
1F
100
AcDbEntity
  8
layer 1
 62
     7
100
AcDbSpline
210
0.0
220
0.0
230
1.0
 70
    11
 71
     3
 72
    32
 73
    28
 74
     0
 42
0.0000000001
 43
0.0000000001
 12
1.0
 22
0.0
 32
0.0
 13
1.0
 23
0.0
 33
0.0
 40
0.0
 40
0.0
 40
0.0
 40
0.0
 40
0.125
 40
0.125
 40
0.125
 40
0.125
 40
0.25
 40
0.25
 40
0.25
 40
0.25
 40
0.375
 40
0.375
 40
0.375
 40
0.375
 40
0.5
 40
0.5
 40
0.5
 40
0.5
 40
0.625
 40
0.625
 40
0.625
 40
0.625
 40
0.75
 40
0.75
 40
0.75
 40
0.75
 40
1.0
 40
1.0
 40
1.0
 40
1.0
 10
-75.751
 20
31.1557
 30
0.0
 10
-74.8994
 20
31.1818
 30
0.0
 10
-73.8201
 20
31.5436
 30
0.0
 10
-74.4349
 20
33.228
 30
0.0
 10
-74.4349
 20
33.228
 30
0.0
 10
-74.9046
 20
34.5193
 30
0.0
 10
-70.8673
 20
35.3685
 30
0.0
 10
-71.6856
 20
31.0906
 30
0.0
 10
-71.6856
 20
31.0906
 30
0.0
 10
-72.4162
 20
28.1997
 30
0.0
 10
-74.5197
 20
27.9955
 30
0.0
 10
-75.8758
 20
28.3775
 30
0.0
 10
-75.8758
 20
28.3775
 30
0.0
 10
-75.8135
 20
26.193
 30
0.0
 10
-75.8135
 20
24.2438
 30
0.0
 10
-75.8649
 20
22.2739
 30
0.0
 10
-75.8649
 20
22.2739
 30
0.0
 10
-73.0875
 20
22.084
 30
0.0
 10
-68.6051
 20
23.6952
 30
0.0
 10
-67.0989
 20
29.346
 30
0.0
 10
-67.0989
 20
29.346
 30
0.0
 10
-66.077
 20
36.4705
 30
0.0
 10
-69.8453
 20
39.9299
 30
0.0
 10
-75.7823
 20
37.911
 30
0.0
 10
-75.7823
 20
37.911
 30
0.0
 10
-75.7823
 20
37.911
 30
0.0
 10
-75.751
 20
31.1557
 30
0.0
 10
-75.751
 20
31.1557
 30
0.0
  0
SPLINE
  5
54
330
1F
100
AcDbEntity
  8
layer 1
370
    13
100
AcDbSpline
210
0.0
220
0.0
230
1.0
 70
    11
 71
     3
 72
    32
 73
    28
 74
     0
 42
0.0000000001
 43
0.0000000001
 12
1.0
 22
0.0
 32
0.0
 13
1.0
 23
0.0
 33
0.0
 40
0.0
 40
0.0
 40
0.0
 40
0.0
 40
0.125
 40
0.125
 40
0.125
 40
0.125
 40
0.25
 40
0.25
 40
0.25
 40
0.25
 40
0.375
 40
0.375
 40
0.375
 40
0.375
 40
0.5
 40
0.5
 40
0.5
 40
0.5
 40
0.625
 40
0.625
 40
0.625
 40
0.625
 40
0.75
 40
0.75
 40
0.75
 40
0.75
 40
1.0
 40
1.0
 40
1.0
 40
1.0
 10
-75.751
 20
31.1557
 30
0.0
 10
-74.8994
 20
31.1818
 30
0.0
 10
-73.8201
 20
31.5434
 30
0.0
 10
-74.4349
 20
33.228
 30
0.0
 10
-74.4349
 20
33.228
 30
0.0
 10
-74.9046
 20
34.5193
 30
0.0
 10
-70.8673
 20
35.3685
 30
0.0
 10
-71.6856
 20
31.0906
 30
0.0
 10
-71.6856
 20
31.0906
 30
0.0
 10
-72.4162
 20
28.1997
 30
0.0
 10
-74.5197
 20
27.9955
 30
0.0
 10
-75.8758
 20
28.3775
 30
0.0
 10
-75.8758
 20
28.3775
 30
0.0
 10
-75.8135
 20
26.1922
 30
0.0
 10
-75.8135
 20
24.244
 30
0.0
 10
-75.8649
 20
22.2739
 30
0.0
 10
-75.8649
 20
22.2739
 30
0.0
 10
-73.0875
 20
22.084
 30
0.0
 10
-68.6051
 20
23.6944
 30
0.0
 10
-67.0989
 20
29.346
 30
0.0
 10
-67.0989
 20
29.346
 30
0.0
 10
-66.077
 20
36.4697
 30
0.0
 10
-69.8453
 20
39.9297
 30
0.0
 10
-75.7823
 20
37.911
 30
0.0
 10
-75.7823
 20
37.911
 30
0.0
 10
-75.7823
 20
37.911
 30
0.0
 10
-75.751
 20
31.1557
 30
0.0
 10
-75.751
 20
31.1557
 30
0.0
  0
SPLINE
  5
55
330
1F
100
AcDbEntity
  8
layer 1
 62
     7
370
    13
100
AcDbSpline
210
0.0
220
0.0
230
1.0
 70
    11
 71
     3
 72
    16
 73
    12
 74
     0
 42
0.0000000001
 43
0.0000000001
 12
1.0
 22
0.0
 32
0.0
 13
1.0
 23
0.0
 33
0.0
 40
0.0
 40
0.0
 40
0.0
 40
0.0
 40
0.25
 40
0.25
 40
0.25
 40
0.25
 40
0.5
 40
0.5
 40
0.5
 40
0.5
 40
1.0
 40
1.0
 40
1.0
 40
1.0
 10
-47.4947
 20
19.3719
 30
0.0
 10
-47.7694
 20
22.5995
 30
0.0
 10
-47.5825
 20
25.2434
 30
0.0
 10
-45.7083
 20
27.707
 30
0.0
 10
-45.7083
 20
27.707
 30
0.0
 10
-47.7949
 20
32.603
 30
0.0
 10
-50.0854
 20
38.4432
 30
0.0
 10
-54.2334
 20
41.1669
 30
0.0
 10
-54.2334
 20
41.1669
 30
0.0
 10
-54.4459
 20
33.4657
 30
0.0
 10
-51.8632
 20
26.201
 30
0.0
 10
-47.4947
 20
19.3719
 30
0.0
  0
SPLINE
  5
56
330
1F
100
AcDbEntity
  8
layer 1
 62
     7
100
AcDbSpline
210
0.0
220
0.0
230
1.0
 70
    11
 71
     3
 72
    16
 73
    12
 74
     0
 42
0.0000000001
 43
0.0000000001
 12
1.0
 22
0.0
 32
0.0
 13
1.0
 23
0.0
 33
0.0
 40
0.0
 40
0.0
 40
0.0
 40
0.0
 40
0.25
 40
0.25
 40
0.25
 40
0.25
 40
0.5
 40
0.5
 40
0.5
 40
0.5
 40
1.0
 40
1.0
 40
1.0
 40
1.0
 10
-54.1371
 20
45.414
 30
0.0
 10
-50.9602
 20
42.6506
 30
0.0
 10
-46.9316
 20
36.7674
 30
0.0
 10
-45.1219
 20
31.4811
 30
0.0
 10
-45.1219
 20
31.4811
 30
0.0
 10
-45.4508
 20
36.6403
 30
0.0
 10
-50.02
 20
45.0173
 30
0.0
 10
-52.1496
 20
47.8064
 30
0.0
 10
-52.1496
 20
47.8064
 30
0.0
 10
-52.8178
 20
46.8134
 30
0.0
 10
-53.6869
 20
46.19
 30
0.0
 10
-54.1371
 20
45.414
 30
0.0
  0
SPLINE
  5
57
330
1F
100
AcDbEntity
  8
layer 1
370
    13
100
AcDbSpline
210
0.0
220
0.0
230
1.0
 70
    11
 71
     3
 72
    16
 73
    12
 74
     0
 42
0.0000000001
 43
0.0000000001
 12
1.0
 22
0.0
 32
0.0
 13
1.0
 23
0.0
 33
0.0
 40
0.0
 40
0.0
 40
0.0
 40
0.0
 40
0.25
 40
0.25
 40
0.25
 40
0.25
 40
0.5
 40
0.5
 40
0.5
 40
0.5
 40
1.0
 40
1.0
 40
1.0
 40
1.0
 10
-54.1371
 20
45.414
 30
0.0
 10
-50.9602
 20
42.6506
 30
0.0
 10
-46.9316
 20
36.7672
 30
0.0
 10
-45.1219
 20
31.4811
 30
0.0
 10
-45.1219
 20
31.4811
 30
0.0
 10
-45.4508
 20
36.6403
 30
0.0
 10
-50.02
 20
45.0173
 30
0.0
 10
-52.1496
 20
47.8064
 30
0.0
 10
-52.1496
 20
47.8064
 30
0.0
 10
-52.8178
 20
46.8126
 30
0.0
 10
-53.6869
 20
46.19
 30
0.0
 10
-54.1371
 20
45.414
 30
0.0
  0
SPLINE
  5
58
330
1F
100
AcDbEntity
  8
layer 1
 62
     7
370
    13
100
AcDbSpline
210
0.0
220
0.0
230
1.0
 70
    11
 71
     3
 72
    20
 73
    16
 74
     0
 42
0.0000000001
 43
0.0000000001
 12
1.0
 22
0.0
 32
0.0
 13
1.0
 23
0.0
 33
0.0
 40
0.0
 40
0.0
 40
0.0
 40
0.0
 40
0.2
 40
0.2
 40
0.2
 40
0.2
 40
0.4
 40
0.4
 40
0.4
 40
0.4
 40
0.6
 40
0.6
 40
0.6
 40
0.6
 40
1.0
 40
1.0
 40
1.0
 40
1.0
 10
-47.5601
 20
13.1202
 30
0.0
 10
-47.8348
 20
14.5929
 30
0.0
 10
-48.2334
 20
15.6708
 30
0.0
 10
-47.792
 20
17.2878
 30
0.0
 10
-47.792
 20
17.2878
 30
0.0
 10
-49.944
 20
20.0374
 30
0.0
 10
-53.9277
 20
20.5379
 30
0.0
 10
-56.3796
 20
20.464
 30
0.0
 10
-56.3796
 20
20.464
 30
0.0
 10
-55.2243
 20
17.0301
 30
0.0
 10
-53.7348
 20
14.3088
 30
0.0
 10
-51.8749
 20
13.2079
 30
0.0
 10
-51.8749
 20
13.2079
 30
0.0
 10
-50.4369
 20
13.4798
 30
0.0
 10
-48.9843
 20
13.392
 30
0.0
 10
-47.5601
 20
13.1202
 30
0.0
  0
SPLINE
  5
59
330
1F
100
AcDbEntity
  8
layer 1
 62
     7
100
AcDbSpline
210
0.0
220
0.0
230
1.0
 70
    11
 71
     3
 72
    20
 73
    16
 74
     0
 42
0.0000000001
 43
0.0000000001
 12
1.0
 22
0.0
 32
0.0
 13
1.0
 23
0.0
 33
0.0
 40
0.0
 40
0.0
 40
0.0
 40
0.0
 40
0.2
 40
0.2
 40
0.2
 40
0.2
 40
0.4
 40
0.4
 40
0.4
 40
0.4
 40
0.6
 40
0.6
 40
0.6
 40
0.6
 40
1.0
 40
1.0
 40
1.0
 40
1.0
 10
-53.1093
 20
10.841
 30
0.0
 10
-56.4984
 20
11.6785
 30
0.0
 10
-60.7286
 20
10.0738
 30
0.0
 10
-62.6137
 20
8.6262
 30
0.0
 10
-62.6137
 20
8.6262
 30
0.0
 10
-60.7286
 20
7.1767
 30
0.0
 10
-56.4986
 20
5.5718
 30
0.0
 10
-53.1093
 20
6.4097
 30
0.0
 10
-53.1093
 20
6.4097
 30
0.0
 10
-52.7352
 20
7.4489
 30
0.0
 10
-51.1248
 20
8.2132
 30
0.0
 10
-50.1651
 20
8.6262
 30
0.0
 10
-50.1651
 20
8.6262
 30
0.0
 10
-51.1248
 20
9.0373
 30
0.0
 10
-52.7352
 20
9.802
 30
0.0
 10
-53.1093
 20
10.841
 30
0.0
  0
SPLINE
  5
5A
330
1F
100
AcDbEntity
  8
layer 1
370
    13
100
AcDbSpline
210
0.0
220
0.0
230
1.0
 70
    11
 71
     3
 72
    20
 73
    16
 74
     0
 42
0.0000000001
 43
0.0000000001
 12
1.0
 22
0.0
 32
0.0
 13
1.0
 23
0.0
 33
0.0
 40
0.0
 40
0.0
 40
0.0
 40
0.0
 40
0.2
 40
0.2
 40
0.2
 40
0.2
 40
0.4
 40
0.4
 40
0.4
 40
0.4
 40
0.6
 40
0.6
 40
0.6
 40
0.6
 40
1.0
 40
1.0
 40
1.0
 40
1.0
 10
-53.1093
 20
10.841
 30
0.0
 10
-56.4984
 20
11.6785
 30
0.0
 10
-60.7286
 20
10.0736
 30
0.0
 10
-62.6137
 20
8.6262
 30
0.0
 10
-62.6137
 20
8.6262
 30
0.0
 10
-60.7286
 20
7.1767
 30
0.0
 10
-56.4986
 20
5.5718
 30
0.0
 10
-53.1093
 20
6.4099
 30
0.0
 10
-53.1093
 20
6.4099
 30
0.0
 10
-52.7352
 20
7.4489
 30
0.0
 10
-51.1248
 20
8.2132
 30
0.0
 10
-50.1651
 20
8.6262
 30
0.0
 10
-50.1651
 20
8.6262
 30
0.0
 10
-51.1248
 20
9.0373
 30
0.0
 10
-52.7352
 20
9.802
 30
0.0
 10
-53.1093
 20
10.841
 30
0.0
  0
SPLINE
  5
5B
330
1F
100
AcDbEntity
  8
layer 1
 62
     7
100
AcDbSpline
210
0.0
220
0.0
230
1.0
 70
    11
 71
     3
 72
    44
 73
    40
 74
     0
 42
0.0000000001
 43
0.0000000001
 12
1.0
 22
0.0
 32
0.0
 13
1.0
 23
0.0
 33
0.0
 40
0.0
 40
0.0
 40
0.0
 40
0.0
 40
0.0909090909090909
 40
0.0909090909090909
 40
0.0909090909090909
 40
0.0909090909090909
 40
0.1818181818181818
 40
0.1818181818181818
 40
0.1818181818181818
 40
0.1818181818181818
 40
0.2727272727272727
 40
0.2727272727272727
 40
0.2727272727272727
 40
0.2727272727272727
 40
0.3636363636363636
 40
0.3636363636363636
 40
0.3636363636363636
 40
0.3636363636363636
 40
0.4545454545454545
 40
0.4545454545454545
 40
0.4545454545454545
 40
0.4545454545454545
 40
0.5454545454545454
 40
0.5454545454545454
 40
0.5454545454545454
 40
0.5454545454545454
 40
0.6363636363636364
 40
0.6363636363636364
 40
0.6363636363636364
 40
0.6363636363636364
 40
0.7272727272727273
 40
0.7272727272727273
 40
0.7272727272727273
 40
0.7272727272727273
 40
0.8181818181818182
 40
0.8181818181818182
 40
0.8181818181818182
 40
0.8181818181818182
 40
1.0
 40
1.0
 40
1.0
 40
1.0
 10
-44.9805
 20
48.568
 30
0.0
 10
-45.4225
 20
49.4236
 30
0.0
 10
-46.1444
 20
50.0888
 30
0.0
 10
-47.0477
 20
50.1055
 30
0.0
 10
-47.0477
 20
50.1055
 30
0.0
 10
-43.2931
 20
42.6253
 30
0.0
 10
-43.1546
 20
38.3156
 30
0.0
 10
-43.6867
 20
35.609
 30
0.0
 10
-43.6867
 20
35.609
 30
0.0
 10
-45.8554
 20
42.0114
 30
0.0
 10
-47.6478
 20
45.7253
 30
0.0
 10
-50.4536
 20
49.3806
 30
0.0
 10
-50.4536
 20
49.3806
 30
0.0
 10
-48.9104
 20
51.0486
 30
0.0
 10
-44.6978
 20
55.5531
 30
0.0
 10
-42.2485
 20
57.8094
 30
0.0
 10
-42.2485
 20
57.8094
 30
0.0
 10
-39.7966
 20
55.5539
 30
0.0
 10
-35.5832
 20
51.0483
 30
0.0
 10
-34.04
 20
49.3806
 30
0.0
 10
-34.04
 20
49.3806
 30
0.0
 10
-36.8466
 20
45.7255
 30
0.0
 10
-38.6412
 20
42.0106
 30
0.0
 10
-40.807
 20
35.609
 30
0.0
 10
-40.807
 20
35.609
 30
0.0
 10
-41.3398
 20
38.3158
 30
0.0
 10
-41.2005
 20
42.6253
 30
0.0
 10
-37.4467
 20
50.1055
 30
0.0
 10
-37.4467
 20
50.1055
 30
0.0
 10
-38.3497
 20
50.0888
 30
0.0
 10
-39.0717
 20
49.4234
 30
0.0
 10
-39.5161
 20
48.568
 30
0.0
 10
-39.5161
 20
48.568
 30
0.0
 10
-39.2529
 20
52.9454
 30
0.0
 10
-40.5381
 20
54.9159
 30
0.0
 10
-42.2485
 20
55.4538
 30
0.0
 10
-42.2485
 20
55.4538
 30
0.0
 10
-43.9586
 20
54.9161
 30
0.0
 10
-45.2435
 20
52.9452
 30
0.0
 10
-44.9805
 20
48.568
 30
0.0
  0
SPLINE
  5
5C
330
1F
100
AcDbEntity
  8
layer 1
370
    13
100
AcDbSpline
210
0.0
220
0.0
230
1.0
 70
    11
 71
     3
 72
    44
 73
    40
 74
     0
 42
0.0000000001
 43
0.0000000001
 12
1.0
 22
0.0
 32
0.0
 13
1.0
 23
0.0
 33
0.0
 40
0.0
 40
0.0
 40
0.0
 40
0.0
 40
0.0909090909090909
 40
0.0909090909090909
 40
0.0909090909090909
 40
0.0909090909090909
 40
0.1818181818181818
 40
0.1818181818181818
 40
0.1818181818181818
 40
0.1818181818181818
 40
0.2727272727272727
 40
0.2727272727272727
 40
0.2727272727272727
 40
0.2727272727272727
 40
0.3636363636363636
 40
0.3636363636363636
 40
0.3636363636363636
 40
0.3636363636363636
 40
0.4545454545454545
 40
0.4545454545454545
 40
0.4545454545454545
 40
0.4545454545454545
 40
0.5454545454545454
 40
0.5454545454545454
 40
0.5454545454545454
 40
0.5454545454545454
 40
0.6363636363636364
 40
0.6363636363636364
 40
0.6363636363636364
 40
0.6363636363636364
 40
0.7272727272727273
 40
0.7272727272727273
 40
0.7272727272727273
 40
0.7272727272727273
 40
0.8181818181818182
 40
0.8181818181818182
 40
0.8181818181818182
 40
0.8181818181818182
 40
1.0
 40
1.0
 40
1.0
 40
1.0
 10
-44.9805
 20
48.568
 30
0.0
 10
-45.4225
 20
49.4236
 30
0.0
 10
-46.1444
 20
50.0886
 30
0.0
 10
-47.0477
 20
50.1055
 30
0.0
 10
-47.0477
 20
50.1055
 30
0.0
 10
-43.2931
 20
42.6253
 30
0.0
 10
-43.1546
 20
38.3156
 30
0.0
 10
-43.6867
 20
35.609
 30
0.0
 10
-43.6867
 20
35.609
 30
0.0
 10
-45.8554
 20
42.0114
 30
0.0
 10
-47.6478
 20
45.7253
 30
0.0
 10
-50.4536
 20
49.3806
 30
0.0
 10
-50.4536
 20
49.3806
 30
0.0
 10
-48.9104
 20
51.0486
 30
0.0
 10
-44.6978
 20
55.5531
 30
0.0
 10
-42.2485
 20
57.8094
 30
0.0
 10
-42.2485
 20
57.8094
 30
0.0
 10
-39.7966
 20
55.5539
 30
0.0
 10
-35.5832
 20
51.0483
 30
0.0
 10
-34.04
 20
49.3806
 30
0.0
 10
-34.04
 20
49.3806
 30
0.0
 10
-36.8466
 20
45.7255
 30
0.0
 10
-38.6412
 20
42.0106
 30
0.0
 10
-40.807
 20
35.609
 30
0.0
 10
-40.807
 20
35.609
 30
0.0
 10
-41.3398
 20
38.3158
 30
0.0
 10
-41.2005
 20
42.6253
 30
0.0
 10
-37.4467
 20
50.1055
 30
0.0
 10
-37.4467
 20
50.1055
 30
0.0
 10
-38.3497
 20
50.0888
 30
0.0
 10
-39.0717
 20
49.4234
 30
0.0
 10
-39.5161
 20
48.568
 30
0.0
 10
-39.5161
 20
48.568
 30
0.0
 10
-39.2529
 20
52.9454
 30
0.0
 10
-40.5381
 20
54.9161
 30
0.0
 10
-42.2485
 20
55.4538
 30
0.0
 10
-42.2485
 20
55.4538
 30
0.0
 10
-43.9586
 20
54.9161
 30
0.0
 10
-45.2435
 20
52.9454
 30
0.0
 10
-44.9805
 20
48.568
 30
0.0
  0
SPLINE
  5
5D
330
1F
100
AcDbEntity
  8
layer 1
 62
     7
100
AcDbSpline
210
0.0
220
0.0
230
1.0
 70
    11
 71
     3
 72
    20
 73
    16
 74
     0
 42
0.0000000001
 43
0.0000000001
 12
1.0
 22
0.0
 32
0.0
 13
1.0
 23
0.0
 33
0.0
 40
0.0
 40
0.0
 40
0.0
 40
0.0
 40
0.2
 40
0.2
 40
0.2
 40
0.2
 40
0.4
 40
0.4
 40
0.4
 40
0.4
 40
0.6
 40
0.6
 40
0.6
 40
0.6
 40
1.0
 40
1.0
 40
1.0
 40
1.0
 10
-47.7803
 20
69.076
 30
0.0
 10
-45.6234
 20
68.9879
 30
0.0
 10
-43.1373
 20
69.3871
 30
0.0
 10
-42.2485
 20
73.2401
 30
0.0
 10
-42.2485
 20
73.2401
 30
0.0
 10
-41.3564
 20
69.3875
 30
0.0
 10
-38.8732
 20
68.9877
 30
0.0
 10
-36.7161
 20
69.0754
 30
0.0
 10
-36.7161
 20
69.0754
 30
0.0
 10
-36.6479
 20
67.5267
 30
0.0
 10
-40.2126
 20
61.7504
 30
0.0
 10
-42.2485
 20
61.3119
 30
0.0
 10
-42.2485
 20
61.3119
 30
0.0
 10
-44.2838
 20
61.751
 30
0.0
 10
-47.8457
 20
67.5265
 30
0.0
 10
-47.7803
 20
69.076
 30
0.0
  0
SPLINE
  5
5E
330
1F
100
AcDbEntity
  8
layer 1
370
    13
100
AcDbSpline
210
0.0
220
0.0
230
1.0
 70
    11
 71
     3
 72
    20
 73
    16
 74
     0
 42
0.0000000001
 43
0.0000000001
 12
1.0
 22
0.0
 32
0.0
 13
1.0
 23
0.0
 33
0.0
 40
0.0
 40
0.0
 40
0.0
 40
0.0
 40
0.2
 40
0.2
 40
0.2
 40
0.2
 40
0.4
 40
0.4
 40
0.4
 40
0.4
 40
0.6
 40
0.6
 40
0.6
 40
0.6
 40
1.0
 40
1.0
 40
1.0
 40
1.0
 10
-47.7803
 20
69.076
 30
0.0
 10
-45.6234
 20
68.9879
 30
0.0
 10
-43.1373
 20
69.3871
 30
0.0
 10
-42.2485
 20
73.2401
 30
0.0
 10
-42.2485
 20
73.2401
 30
0.0
 10
-41.3564
 20
69.3875
 30
0.0
 10
-38.8732
 20
68.9877
 30
0.0
 10
-36.7161
 20
69.0754
 30
0.0
 10
-36.7161
 20
69.0754
 30
0.0
 10
-36.6479
 20
67.5267
 30
0.0
 10
-40.2126
 20
61.7504
 30
0.0
 10
-42.2485
 20
61.3119
 30
0.0
 10
-42.2485
 20
61.3119
 30
0.0
 10
-44.2838
 20
61.751
 30
0.0
 10
-47.8457
 20
67.5263
 30
0.0
 10
-47.7803
 20
69.076
 30
0.0
  0
SPLINE
  5
5F
330
1F
100
AcDbEntity
  8
layer 1
 62
     7
100
AcDbSpline
210
0.0
220
0.0
230
1.0
 70
    11
 71
     3
 72
    44
 73
    40
 74
     0
 42
0.0000000001
 43
0.0000000001
 12
1.0
 22
0.0
 32
0.0
 13
1.0
 23
0.0
 33
0.0
 40
0.0
 40
0.0
 40
0.0
 40
0.0
 40
0.0909090909090909
 40
0.0909090909090909
 40
0.0909090909090909
 40
0.0909090909090909
 40
0.1818181818181818
 40
0.1818181818181818
 40
0.1818181818181818
 40
0.1818181818181818
 40
0.2727272727272727
 40
0.2727272727272727
 40
0.2727272727272727
 40
0.2727272727272727
 40
0.3636363636363636
 40
0.3636363636363636
 40
0.3636363636363636
 40
0.3636363636363636
 40
0.4545454545454545
 40
0.4545454545454545
 40
0.4545454545454545
 40
0.4545454545454545
 40
0.5454545454545454
 40
0.5454545454545454
 40
0.5454545454545454
 40
0.5454545454545454
 40
0.6363636363636364
 40
0.6363636363636364
 40
0.6363636363636364
 40
0.6363636363636364
 40
0.7272727272727273
 40
0.7272727272727273
 40
0.7272727272727273
 40
0.7272727272727273
 40
0.8181818181818182
 40
0.8181818181818182
 40
0.8181818181818182
 40
0.8181818181818182
 40
1.0
 40
1.0
 40
1.0
 40
1.0
 10
-48.7546
 20
71.2899
 30
0.0
 10
-45.8981
 20
70.9498
 30
0.0
 10
-44.689
 20
72.6849
 30
0.0
 10
-44.6861
 20
74.2621
 30
0.0
 10
-44.6861
 20
74.2621
 30
0.0
 10
-47.7442
 20
76.2556
 30
0.0
 10
-46.849
 20
81.0942
 30
0.0
 10
-43.7802
 20
81.1906
 30
0.0
 10
-43.7802
 20
81.1906
 30
0.0
 10
-43.48
 20
80.3981
 30
0.0
 10
-43.4003
 20
79.3864
 30
0.0
 10
-43.6105
 20
78.5204
 30
0.0
 10
-43.6105
 20
78.5204
 30
0.0
 10
-44.9326
 20
77.7023
 30
0.0
 10
-43.9078
 20
75.1457
 30
0.0
 10
-42.2485
 20
75.245
 30
0.0
 10
-42.2485
 20
75.245
 30
0.0
 10
-40.5126
 20
75.0465
 30
0.0
 10
-39.5617
 20
77.7021
 30
0.0
 10
-40.8838
 20
78.5204
 30
0.0
 10
-40.8838
 20
78.5204
 30
0.0
 10
-41.0932
 20
79.3868
 30
0.0
 10
-41.0143
 20
80.3977
 30
0.0
 10
-40.7164
 20
81.1906
 30
0.0
 10
-40.7164
 20
81.1906
 30
0.0
 10
-37.6446
 20
81.0944
 30
0.0
 10
-36.7502
 20
76.2554
 30
0.0
 10
-39.8074
 20
74.2621
 30
0.0
 10
-39.8074
 20
74.2621
 30
0.0
 10
-39.8074
 20
72.6849
 30
0.0
 10
-38.5963
 20
70.9498
 30
0.0
 10
-35.7391
 20
71.2897
 30
0.0
 10
-35.7391
 20
71.2897
 30
0.0
 10
-34.7055
 20
73.6089
 30
0.0
 10
-35.6259
 20
85.4033
 30
0.0
 10
-42.2485
 20
86.8471
 30
0.0
 10
-42.2485
 20
86.8471
 30
0.0
 10
-48.8676
 20
85.404
 30
0.0
 10
-49.7881
 20
73.6083
 30
0.0
 10
-48.7546
 20
71.2899
 30
0.0
  0
SPLINE
  5
60
330
1F
100
AcDbEntity
  8
layer 1
370
    13
100
AcDbSpline
210
0.0
220
0.0
230
1.0
 70
    11
 71
     3
 72
    44
 73
    40
 74
     0
 42
0.0000000001
 43
0.0000000001
 12
1.0
 22
0.0
 32
0.0
 13
1.0
 23
0.0
 33
0.0
 40
0.0
 40
0.0
 40
0.0
 40
0.0
 40
0.0909090909090909
 40
0.0909090909090909
 40
0.0909090909090909
 40
0.0909090909090909
 40
0.1818181818181818
 40
0.1818181818181818
 40
0.1818181818181818
 40
0.1818181818181818
 40
0.2727272727272727
 40
0.2727272727272727
 40
0.2727272727272727
 40
0.2727272727272727
 40
0.3636363636363636
 40
0.3636363636363636
 40
0.3636363636363636
 40
0.3636363636363636
 40
0.4545454545454545
 40
0.4545454545454545
 40
0.4545454545454545
 40
0.4545454545454545
 40
0.5454545454545454
 40
0.5454545454545454
 40
0.5454545454545454
 40
0.5454545454545454
 40
0.6363636363636364
 40
0.6363636363636364
 40
0.6363636363636364
 40
0.6363636363636364
 40
0.7272727272727273
 40
0.7272727272727273
 40
0.7272727272727273
 40
0.7272727272727273
 40
0.8181818181818182
 40
0.8181818181818182
 40
0.8181818181818182
 40
0.8181818181818182
 40
1.0
 40
1.0
 40
1.0
 40
1.0
 10
-48.7546
 20
71.2899
 30
0.0
 10
-45.8981
 20
70.9498
 30
0.0
 10
-44.6861
 20
72.6849
 30
0.0
 10
-44.6861
 20
74.2621
 30
0.0
 10
-44.6861
 20
74.2621
 30
0.0
 10
-47.7442
 20
76.2556
 30
0.0
 10
-46.849
 20
81.0942
 30
0.0
 10
-43.7802
 20
81.1906
 30
0.0
 10
-43.7802
 20
81.1906
 30
0.0
 10
-43.48
 20
80.3981
 30
0.0
 10
-43.4003
 20
79.3866
 30
0.0
 10
-43.6105
 20
78.5204
 30
0.0
 10
-43.6105
 20
78.5204
 30
0.0
 10
-44.9326
 20
77.7023
 30
0.0
 10
-43.9078
 20
75.1457
 30
0.0
 10
-42.2485
 20
75.245
 30
0.0
 10
-42.2485
 20
75.245
 30
0.0
 10
-40.5126
 20
75.0465
 30
0.0
 10
-39.5617
 20
77.7021
 30
0.0
 10
-40.8838
 20
78.5204
 30
0.0
 10
-40.8838
 20
78.5204
 30
0.0
 10
-41.0932
 20
79.3868
 30
0.0
 10
-41.0143
 20
80.3977
 30
0.0
 10
-40.7164
 20
81.1906
 30
0.0
 10
-40.7164
 20
81.1906
 30
0.0
 10
-37.6446
 20
81.0944
 30
0.0
 10
-36.7502
 20
76.2554
 30
0.0
 10
-39.8074
 20
74.2621
 30
0.0
 10
-39.8074
 20
74.2621
 30
0.0
 10
-39.8074
 20
72.6849
 30
0.0
 10
-38.5963
 20
70.9496
 30
0.0
 10
-35.7391
 20
71.2897
 30
0.0
 10
-35.7391
 20
71.2897
 30
0.0
 10
-34.7055
 20
73.6089
 30
0.0
 10
-35.6259
 20
85.4033
 30
0.0
 10
-42.2485
 20
86.8471
 30
0.0
 10
-42.2485
 20
86.8471
 30
0.0
 10
-48.8676
 20
85.404
 30
0.0
 10
-49.7881
 20
73.6083
 30
0.0
 10
-48.7546
 20
71.2899
 30
0.0
  0
SPLINE
  5
61
330
1F
100
AcDbEntity
  8
layer 1
 62
     7
100
AcDbSpline
210
0.0
220
0.0
230
1.0
 70
    11
 71
     3
 72
    16
 73
    12
 74
     0
 42
0.0000000001
 43
0.0000000001
 12
1.0
 22
0.0
 32
0.0
 13
1.0
 23
0.0
 33
0.0
 40
0.0
 40
0.0
 40
0.0
 40
0.0
 40
0.25
 40
0.25
 40
0.25
 40
0.25
 40
0.5
 40
0.5
 40
0.5
 40
0.5
 40
1.0
 40
1.0
 40
1.0
 40
1.0
 10
-75.8815
 20
120.5436
 30
0.0
 10
-74.1232
 20
117.4011
 30
0.0
 10
-72.1923
 20
115.4131
 30
0.0
 10
-69.1829
 20
112.884
 30
0.0
 10
-69.1829
 20
112.884
 30
0.0
 10
-72.3792
 20
113.0655
 30
0.0
 10
-75.1371
 20
111.8171
 30
0.0
 10
-75.7823
 20
109.1613
 30
0.0
 10
-75.7823
 20
109.1613
 30
0.0
 10
-75.7823
 20
109.1613
 30
0.0
 10
-75.8815
 20
120.5436
 30
0.0
 10
-75.8815
 20
120.5436
 30
0.0
  0
SPLINE
  5
62
330
1F
100
AcDbEntity
  8
layer 1
370
     5
100
AcDbSpline
210
0.0
220
0.0
230
1.0
 70
    11
 71
     3
 72
    16
 73
    12
 74
     0
 42
0.0000000001
 43
0.0000000001
 12
1.0
 22
0.0
 32
0.0
 13
1.0
 23
0.0
 33
0.0
 40
0.0
 40
0.0
 40
0.0
 40
0.0
 40
0.25
 40
0.25
 40
0.25
 40
0.25
 40
0.5
 40
0.5
 40
0.5
 40
0.5
 40
1.0
 40
1.0
 40
1.0
 40
1.0
 10
-75.8815
 20
120.5436
 30
0.0
 10
-74.1232
 20
117.4011
 30
0.0
 10
-72.1923
 20
115.4128
 30
0.0
 10
-69.1829
 20
112.884
 30
0.0
 10
-69.1829
 20
112.884
 30
0.0
 10
-72.3792
 20
113.0655
 30
0.0
 10
-75.1371
 20
111.8171
 30
0.0
 10
-75.7823
 20
109.1613
 30
0.0
 10
-75.7823
 20
109.1613
 30
0.0
 10
-75.7823
 20
109.1613
 30
0.0
 10
-75.8815
 20
120.5436
 30
0.0
 10
-75.8815
 20
120.5436
 30
0.0
  0
SPLINE
  5
63
330
1F
100
AcDbEntity
  8
layer 1
 62
     7
100
AcDbSpline
210
0.0
220
0.0
230
1.0
 70
    11
 71
     3
 72
    16
 73
    12
 74
     0
 42
0.0000000001
 43
0.0000000001
 12
1.0
 22
0.0
 32
0.0
 13
1.0
 23
0.0
 33
0.0
 40
0.0
 40
0.0
 40
0.0
 40
0.0
 40
0.25
 40
0.25
 40
0.25
 40
0.25
 40
0.5
 40
0.5
 40
0.5
 40
0.5
 40
1.0
 40
1.0
 40
1.0
 40
1.0
 10
-61.697
 20
126.9903
 30
0.0
 10
-61.1278
 20
122.6948
 30
0.0
 10
-64.9383
 20
120.37
 30
0.0
 10
-69.5511
 20
121.2027
 30
0.0
 10
-69.5511
 20
121.2027
 30
0.0
 10
-73.7949
 20
121.4071
 30
0.0
 10
-75.8135
 20
124.0991
 30
0.0
 10
-75.8135
 20
126.8911
 30
0.0
 10
-75.8135
 20
126.8911
 30
0.0
 10
-75.8135
 20
126.8911
 30
0.0
 10
-61.697
 20
126.9903
 30
0.0
 10
-61.697
 20
126.9903
 30
0.0
  0
SPLINE
  5
64
330
1F
100
AcDbEntity
  8
layer 1
370
     5
100
AcDbSpline
210
0.0
220
0.0
230
1.0
 70
    11
 71
     3
 72
    16
 73
    12
 74
     0
 42
0.0000000001
 43
0.0000000001
 12
1.0
 22
0.0
 32
0.0
 13
1.0
 23
0.0
 33
0.0
 40
0.0
 40
0.0
 40
0.0
 40
0.0
 40
0.25
 40
0.25
 40
0.25
 40
0.25
 40
0.5
 40
0.5
 40
0.5
 40
0.5
 40
1.0
 40
1.0
 40
1.0
 40
1.0
 10
-61.697
 20
126.9903
 30
0.0
 10
-61.1278
 20
122.6948
 30
0.0
 10
-64.9383
 20
120.37
 30
0.0
 10
-69.5511
 20
121.2027
 30
0.0
 10
-69.5511
 20
121.2027
 30
0.0
 10
-73.7949
 20
121.4071
 30
0.0
 10
-75.8135
 20
124.0991
 30
0.0
 10
-75.8135
 20
126.8905
 30
0.0
 10
-75.8135
 20
126.8905
 30
0.0
 10
-75.8135
 20
126.8905
 30
0.0
 10
-61.697
 20
126.9903
 30
0.0
 10
-61.697
 20
126.9903
 30
0.0
  0
SPLINE
  5
65
330
1F
100
AcDbEntity
  8
layer 1
 62
     7
100
AcDbSpline
210
0.0
220
0.0
230
1.0
 70
    11
 71
     3
 72
    60
 73
    56
 74
     0
 42
0.0000000001
 43
0.0000000001
 12
1.0
 22
0.0
 32
0.0
 13
1.0
 23
0.0
 33
0.0
 40
0.0
 40
0.0
 40
0.0
 40
0.0
 40
0.0666666666666667
 40
0.0666666666666667
 40
0.0666666666666667
 40
0.0666666666666667
 40
0.1333333333333333
 40
0.1333333333333333
 40
0.1333333333333333
 40
0.1333333333333333
 40
0.2
 40
0.2
 40
0.2
 40
0.2
 40
0.2666666666666667
 40
0.2666666666666667
 40
0.2666666666666667
 40
0.2666666666666667
 40
0.3333333333333333
 40
0.3333333333333333
 40
0.3333333333333333
 40
0.3333333333333333
 40
0.4
 40
0.4
 40
0.4
 40
0.4
 40
0.4666666666666667
 40
0.4666666666666667
 40
0.4666666666666667
 40
0.4666666666666667
 40
0.5333333333333333
 40
0.5333333333333333
 40
0.5333333333333333
 40
0.5333333333333333
 40
0.6
 40
0.6
 40
0.6
 40
0.6
 40
0.6666666666666666
 40
0.6666666666666666
 40
0.6666666666666666
 40
0.6666666666666666
 40
0.7333333333333333
 40
0.7333333333333333
 40
0.7333333333333333
 40
0.7333333333333333
 40
0.8
 40
0.8
 40
0.8
 40
0.8
 40
0.8666666666666667
 40
0.8666666666666667
 40
0.8666666666666667
 40
0.8666666666666667
 40
1.0
 40
1.0
 40
1.0
 40
1.0
 10
-44.5447
 20
119.9264
 30
0.0
 10
-44.6608
 20
123.131
 30
0.0
 10
-46.7222
 20
120.1294
 30
0.0
 10
-48.8988
 20
121.2818
 30
0.0
 10
-48.8988
 20
121.2818
 30
0.0
 10
-50.17
 20
122.2732
 30
0.0
 10
-50.8326
 20
122.8561
 30
0.0
 10
-50.8131
 20
124.8211
 30
0.0
 10
-50.8131
 20
124.8211
 30
0.0
 10
-48.2907
 20
121.8378
 30
0.0
 10
-47.8007
 20
123.689
 30
0.0
 10
-46.6425
 20
122.961
 30
0.0
 10
-46.6425
 20
122.961
 30
0.0
 10
-47.6478
 20
123.9945
 30
0.0
 10
-48.8851
 20
125.9024
 30
0.0
 10
-47.8261
 20
126.4179
 30
0.0
 10
-47.8261
 20
126.4179
 30
0.0
 10
-47.1861
 20
125.3904
 30
0.0
 10
-46.5714
 20
125.203
 30
0.0
 10
-45.595
 20
124.9174
 30
0.0
 10
-45.595
 20
124.9174
 30
0.0
 10
-45.0623
 20
126.0249
 30
0.0
 10
-44.726
 20
127.0353
 30
0.0
 10
-44.0122
 20
127.0413
 30
0.0
 10
-44.0122
 20
127.0413
 30
0.0
 10
-47.8204
 20
127.0433
 30
0.0
 10
-55.1083
 20
127.0353
 30
0.0
 10
-58.7011
 20
127.0413
 30
0.0
 10
-58.7011
 20
127.0413
 30
0.0
 10
-57.9335
 20
122.9695
 30
0.0
 10
-59.6181
 20
120.7382
 30
0.0
 10
-62.3166
 20
119.2944
 30
0.0
 10
-62.3166
 20
119.2944
 30
0.0
 10
-60.8359
 20
119.2521
 30
0.0
 10
-61.0598
 20
117.9382
 30
0.0
 10
-61.0598
 20
117.9382
 30
0.0
 10
-61.0598
 20
117.9382
 30
0.0
 10
-66.1335
 20
116.6329
 30
0.0
 10
-67.0309
 20
116.9388
 30
0.0
 10
-71.4617
 20
118.4107
 30
0.0
 10
-71.4617
 20
118.4107
 30
0.0
 10
-61.1952
 20
109.5689
 30
0.0
 10
-53.834
 20
107.8842
 30
0.0
 10
-50.2919
 20
110.5399
 30
0.0
 10
-50.2919
 20
110.5399
 30
0.0
 10
-46.4417
 20
113.4283
 30
0.0
 10
-49.4482
 20
115.3136
 30
0.0
 10
-52.7214
 20
115.5963
 30
0.0
 10
-52.7214
 20
115.5963
 30
0.0
 10
-54.0464
 20
117.8079
 30
0.0
 10
-47.6877
 20
120.9477
 30
0.0
 10
-44.5108
 20
115.8008
 30
0.0
 10
-44.5108
 20
115.8008
 30
0.0
 10
-44.5811
 20
117.7378
 30
0.0
 10
-44.4282
 20
118.0571
 30
0.0
 10
-44.5447
 20
119.9264
 30
0.0
  0
SPLINE
  5
66
330
1F
100
AcDbEntity
  8
layer 1
370
    13
100
AcDbSpline
210
0.0
220
0.0
230
1.0
 70
    11
 71
     3
 72
    60
 73
    56
 74
     0
 42
0.0000000001
 43
0.0000000001
 12
1.0
 22
0.0
 32
0.0
 13
1.0
 23
0.0
 33
0.0
 40
0.0
 40
0.0
 40
0.0
 40
0.0
 40
0.0666666666666667
 40
0.0666666666666667
 40
0.0666666666666667
 40
0.0666666666666667
 40
0.1333333333333333
 40
0.1333333333333333
 40
0.1333333333333333
 40
0.1333333333333333
 40
0.2
 40
0.2
 40
0.2
 40
0.2
 40
0.2666666666666667
 40
0.2666666666666667
 40
0.2666666666666667
 40
0.2666666666666667
 40
0.3333333333333333
 40
0.3333333333333333
 40
0.3333333333333333
 40
0.3333333333333333
 40
0.4
 40
0.4
 40
0.4
 40
0.4
 40
0.4666666666666667
 40
0.4666666666666667
 40
0.4666666666666667
 40
0.4666666666666667
 40
0.5333333333333333
 40
0.5333333333333333
 40
0.5333333333333333
 40
0.5333333333333333
 40
0.6
 40
0.6
 40
0.6
 40
0.6
 40
0.6666666666666666
 40
0.6666666666666666
 40
0.6666666666666666
 40
0.6666666666666666
 40
0.7333333333333333
 40
0.7333333333333333
 40
0.7333333333333333
 40
0.7333333333333333
 40
0.8
 40
0.8
 40
0.8
 40
0.8
 40
0.8666666666666667
 40
0.8666666666666667
 40
0.8666666666666667
 40
0.8666666666666667
 40
1.0
 40
1.0
 40
1.0
 40
1.0
 10
-44.5447
 20
119.9264
 30
0.0
 10
-44.6608
 20
123.131
 30
0.0
 10
-46.7222
 20
120.1292
 30
0.0
 10
-48.8988
 20
121.2818
 30
0.0
 10
-48.8988
 20
121.2818
 30
0.0
 10
-50.17
 20
122.2732
 30
0.0
 10
-50.8326
 20
122.8561
 30
0.0
 10
-50.8131
 20
124.8211
 30
0.0
 10
-50.8131
 20
124.8211
 30
0.0
 10
-48.2907
 20
121.8378
 30
0.0
 10
-47.8007
 20
123.689
 30
0.0
 10
-46.6425
 20
122.961
 30
0.0
 10
-46.6425
 20
122.961
 30
0.0
 10
-47.6478
 20
123.9945
 30
0.0
 10
-48.8851
 20
125.9024
 30
0.0
 10
-47.8261
 20
126.4177
 30
0.0
 10
-47.8261
 20
126.4177
 30
0.0
 10
-47.1861
 20
125.3904
 30
0.0
 10
-46.5714
 20
125.203
 30
0.0
 10
-45.595
 20
124.9174
 30
0.0
 10
-45.595
 20
124.9174
 30
0.0
 10
-45.0623
 20
126.0249
 30
0.0
 10
-44.726
 20
127.0353
 30
0.0
 10
-44.0122
 20
127.0413
 30
0.0
 10
-44.0122
 20
127.0413
 30
0.0
 10
-47.8204
 20
127.0433
 30
0.0
 10
-55.1083
 20
127.0353
 30
0.0
 10
-58.7011
 20
127.0413
 30
0.0
 10
-58.7011
 20
127.0413
 30
0.0
 10
-57.9335
 20
122.9695
 30
0.0
 10
-59.6181
 20
120.7382
 30
0.0
 10
-62.3166
 20
119.2942
 30
0.0
 10
-62.3166
 20
119.2942
 30
0.0
 10
-60.8359
 20
119.2521
 30
0.0
 10
-61.0598
 20
117.9382
 30
0.0
 10
-61.0598
 20
117.9382
 30
0.0
 10
-61.0598
 20
117.9382
 30
0.0
 10
-66.1335
 20
116.6329
 30
0.0
 10
-67.0309
 20
116.9386
 30
0.0
 10
-71.4617
 20
118.4107
 30
0.0
 10
-71.4617
 20
118.4107
 30
0.0
 10
-61.1952
 20
109.5689
 30
0.0
 10
-53.834
 20
107.8842
 30
0.0
 10
-50.2919
 20
110.5399
 30
0.0
 10
-50.2919
 20
110.5399
 30
0.0
 10
-46.4417
 20
113.4283
 30
0.0
 10
-49.4482
 20
115.3136
 30
0.0
 10
-52.7214
 20
115.5963
 30
0.0
 10
-52.7214
 20
115.5963
 30
0.0
 10
-54.0464
 20
117.8079
 30
0.0
 10
-47.6877
 20
120.9477
 30
0.0
 10
-44.5108
 20
115.8008
 30
0.0
 10
-44.5108
 20
115.8008
 30
0.0
 10
-44.5811
 20
117.7378
 30
0.0
 10
-44.4282
 20
118.0571
 30
0.0
 10
-44.5447
 20
119.9264
 30
0.0
  0
SPLINE
  5
67
330
1F
100
AcDbEntity
  8
layer 1
 62
     7
370
    13
100
AcDbSpline
210
0.0
220
0.0
230
1.0
 70
    11
 71
     3
 72
    12
 73
     8
 74
     0
 42
0.0000000001
 43
0.0000000001
 12
1.0
 22
0.0
 32
0.0
 13
1.0
 23
0.0
 33
0.0
 40
0.0
 40
0.0
 40
0.0
 40
0.0
 40
0.3333333333333333
 40
0.3333333333333333
 40
0.3333333333333333
 40
0.3333333333333333
 40
1.0
 40
1.0
 40
1.0
 40
1.0
 10
-46.2459
 20
16.965
 30
0.0
 10
-44.6043
 20
16.2294
 30
0.0
 10
-42.9676
 20
13.5245
 30
0.0
 10
-43.1431
 20
11.2624
 30
0.0
 10
-43.1431
 20
11.2624
 30
0.0
 10
-45.2016
 20
12.1685
 30
0.0
 10
-46.2801
 20
14.9118
 30
0.0
 10
-46.2459
 20
16.965
 30
0.0
  0
SPLINE
  5
68
330
1F
100
AcDbEntity
  8
layer 1
 62
     7
100
AcDbSpline
210
0.0
220
0.0
230
1.0
 70
    11
 71
     3
 72
    12
 73
     8
 74
     0
 42
0.0000000001
 43
0.0000000001
 12
1.0
 22
0.0
 32
0.0
 13
1.0
 23
0.0
 33
0.0
 40
0.0
 40
0.0
 40
0.0
 40
0.0
 40
0.3333333333333333
 40
0.3333333333333333
 40
0.3333333333333333
 40
0.3333333333333333
 40
1.0
 40
1.0
 40
1.0
 40
1.0
 10
-49.8875
 20
11.3393
 30
0.0
 10
-48.2052
 20
11.9787
 30
0.0
 10
-44.9717
 20
11.2567
 30
0.0
 10
-43.6613
 20
9.501
 30
0.0
 10
-43.6613
 20
9.501
 30
0.0
 10
-45.7559
 20
8.686
 30
0.0
 10
-48.4604
 20
9.8635
 30
0.0
 10
-49.8875
 20
11.3393
 30
0.0
  0
SPLINE
  5
69
330
1F
100
AcDbEntity
  8
layer 1
370
    13
100
AcDbSpline
210
0.0
220
0.0
230
1.0
 70
    11
 71
     3
 72
    12
 73
     8
 74
     0
 42
0.0000000001
 43
0.0000000001
 12
1.0
 22
0.0
 32
0.0
 13
1.0
 23
0.0
 33
0.0
 40
0.0
 40
0.0
 40
0.0
 40
0.0
 40
0.3333333333333333
 40
0.3333333333333333
 40
0.3333333333333333
 40
0.3333333333333333
 40
1.0
 40
1.0
 40
1.0
 40
1.0
 10
-49.8875
 20
11.3393
 30
0.0
 10
-48.2052
 20
11.9787
 30
0.0
 10
-44.9717
 20
11.2565
 30
0.0
 10
-43.6613
 20
9.501
 30
0.0
 10
-43.6613
 20
9.501
 30
0.0
 10
-45.7559
 20
8.686
 30
0.0
 10
-48.4604
 20
9.8635
 30
0.0
 10
-49.8875
 20
11.3393
 30
0.0
  0
SPLINE
  5
6A
330
1F
100
AcDbEntity
  8
layer 1
 62
     7
100
AcDbSpline
210
0.0
220
0.0
230
1.0
 70
    11
 71
     3
 72
    16
 73
    12
 74
     0
 42
0.0000000001
 43
0.0000000001
 12
1.0
 22
0.0
 32
0.0
 13
1.0
 23
0.0
 33
0.0
 40
0.0
 40
0.0
 40
0.0
 40
0.0
 40
0.25
 40
0.25
 40
0.25
 40
0.25
 40
0.5
 40
0.5
 40
0.5
 40
0.5
 40
1.0
 40
1.0
 40
1.0
 40
1.0
 10
-32.407
 20
51.8159
 30
0.0
 10
-35.6658
 20
55.5303
 30
0.0
 10
-36.4726
 20
56.3511
 30
0.0
 10
-39.363
 20
59.3243
 30
0.0
 10
-39.363
 20
59.3243
 30
0.0
 10
-35.6767
 20
62.3937
 30
0.0
 10
-33.8676
 20
67.082
 30
0.0
 10
-33.2789
 20
71.1532
 30
0.0
 10
-33.2789
 20
71.1532
 30
0.0
 10
-30.5609
 20
67.3946
 30
0.0
 10
-25.5691
 20
58.6444
 30
0.0
 10
-32.407
 20
51.8159
 30
0.0
  0
SPLINE
  5
6B
330
1F
100
AcDbEntity
  8
layer 1
370
     9
100
AcDbSpline
210
0.0
220
0.0
230
1.0
 70
    11
 71
     3
 72
    16
 73
    12
 74
     0
 42
0.0000000001
 43
0.0000000001
 12
1.0
 22
0.0
 32
0.0
 13
1.0
 23
0.0
 33
0.0
 40
0.0
 40
0.0
 40
0.0
 40
0.0
 40
0.25
 40
0.25
 40
0.25
 40
0.25
 40
0.5
 40
0.5
 40
0.5
 40
0.5
 40
1.0
 40
1.0
 40
1.0
 40
1.0
 10
-32.407
 20
51.8159
 30
0.0
 10
-35.6658
 20
55.5303
 30
0.0
 10
-36.4726
 20
56.3511
 30
0.0
 10
-39.363
 20
59.3243
 30
0.0
 10
-39.363
 20
59.3243
 30
0.0
 10
-35.6767
 20
62.3937
 30
0.0
 10
-33.8676
 20
67.082
 30
0.0
 10
-33.2789
 20
71.1534
 30
0.0
 10
-33.2789
 20
71.1534
 30
0.0
 10
-30.5609
 20
67.3937
 30
0.0
 10
-25.5691
 20
58.6444
 30
0.0
 10
-32.407
 20
51.8159
 30
0.0
  0
SPLINE
  5
6C
330
1F
100
AcDbEntity
  8
layer 1
 62
     7
100
AcDbSpline
210
0.0
220
0.0
230
1.0
 70
    11
 71
     3
 72
    28
 73
    24
 74
     0
 42
0.0000000001
 43
0.0000000001
 12
1.0
 22
0.0
 32
0.0
 13
1.0
 23
0.0
 33
0.0
 40
0.0
 40
0.0
 40
0.0
 40
0.0
 40
0.1428571428571428
 40
0.1428571428571428
 40
0.1428571428571428
 40
0.1428571428571428
 40
0.2857142857142857
 40
0.2857142857142857
 40
0.2857142857142857
 40
0.2857142857142857
 40
0.4285714285714285
 40
0.4285714285714285
 40
0.4285714285714285
 40
0.4285714285714285
 40
0.5714285714285714
 40
0.5714285714285714
 40
0.5714285714285714
 40
0.5714285714285714
 40
0.7142857142857143
 40
0.7142857142857143
 40
0.7142857142857143
 40
0.7142857142857143
 40
1.0
 40
1.0
 40
1.0
 40
1.0
 10
-8.6149
 20
74.2538
 30
0.0
 10
-10.2943
 20
76.833
 30
0.0
 10
-15.0368
 20
77.5209
 30
0.0
 10
-18.018
 20
75.8199
 30
0.0
 10
-18.018
 20
75.8199
 30
0.0
 10
-16.6901
 20
81.7907
 30
0.0
 10
-19.6917
 20
85.3583
 30
0.0
 10
-21.4695
 20
86.6942
 30
0.0
 10
-21.4695
 20
86.6942
 30
0.0
 10
-21.3273
 20
87.0567
 30
0.0
 10
-20.9026
 20
87.0546
 30
0.0
 10
-20.4077
 20
86.581
 30
0.0
 10
-20.4077
 20
86.581
 30
0.0
 10
-19.643
 20
85.8508
 30
0.0
 10
-19.38
 20
85.3976
 30
0.0
 10
-18.4057
 20
85.3526
 30
0.0
 10
-18.4057
 20
85.3526
 30
0.0
 10
-14.5554
 20
85.1771
 30
0.0
 10
-12.6129
 20
85.1909
 30
0.0
 10
-8.7113
 20
85.1771
 30
0.0
 10
-8.7113
 20
85.1771
 30
0.0
 10
-8.7113
 20
85.1771
 30
0.0
 10
-8.6149
 20
74.2538
 30
0.0
 10
-8.6149
 20
74.2538
 30
0.0
  0
SPLINE
  5
6D
330
1F
100
AcDbEntity
  8
layer 1
370
    13
100
AcDbSpline
210
0.0
220
0.0
230
1.0
 70
    11
 71
     3
 72
    28
 73
    24
 74
     0
 42
0.0000000001
 43
0.0000000001
 12
1.0
 22
0.0
 32
0.0
 13
1.0
 23
0.0
 33
0.0
 40
0.0
 40
0.0
 40
0.0
 40
0.0
 40
0.1428571428571428
 40
0.1428571428571428
 40
0.1428571428571428
 40
0.1428571428571428
 40
0.2857142857142857
 40
0.2857142857142857
 40
0.2857142857142857
 40
0.2857142857142857
 40
0.4285714285714285
 40
0.4285714285714285
 40
0.4285714285714285
 40
0.4285714285714285
 40
0.5714285714285714
 40
0.5714285714285714
 40
0.5714285714285714
 40
0.5714285714285714
 40
0.7142857142857143
 40
0.7142857142857143
 40
0.7142857142857143
 40
0.7142857142857143
 40
1.0
 40
1.0
 40
1.0
 40
1.0
 10
-8.6149
 20
74.2538
 30
0.0
 10
-10.2943
 20
76.833
 30
0.0
 10
-15.0368
 20
77.5209
 30
0.0
 10
-18.018
 20
75.8199
 30
0.0
 10
-18.018
 20
75.8199
 30
0.0
 10
-16.6901
 20
81.7907
 30
0.0
 10
-19.6917
 20
85.3583
 30
0.0
 10
-21.4695
 20
86.6942
 30
0.0
 10
-21.4695
 20
86.6942
 30
0.0
 10
-21.3273
 20
87.0567
 30
0.0
 10
-20.9026
 20
87.0544
 30
0.0
 10
-20.4077
 20
86.581
 30
0.0
 10
-20.4077
 20
86.581
 30
0.0
 10
-19.643
 20
85.8508
 30
0.0
 10
-19.38
 20
85.3976
 30
0.0
 10
-18.4057
 20
85.3526
 30
0.0
 10
-18.4057
 20
85.3526
 30
0.0
 10
-14.5554
 20
85.1771
 30
0.0
 10
-12.6129
 20
85.1909
 30
0.0
 10
-8.7113
 20
85.1771
 30
0.0
 10
-8.7113
 20
85.1771
 30
0.0
 10
-8.7113
 20
85.1771
 30
0.0
 10
-8.6149
 20
74.2538
 30
0.0
 10
-8.6149
 20
74.2538
 30
0.0
  0
SPLINE
  5
6E
330
1F
100
AcDbEntity
  8
layer 1
 62
     7
370
     5
100
AcDbSpline
210
0.0
220
0.0
230
1.0
 70
    11
 71
     3
 72
    16
 73
    12
 74
     0
 42
0.0000000001
 43
0.0000000001
 12
1.0
 22
0.0
 32
0.0
 13
1.0
 23
0.0
 33
0.0
 40
0.0
 40
0.0
 40
0.0
 40
0.0
 40
0.25
 40
0.25
 40
0.25
 40
0.25
 40
0.5
 40
0.5
 40
0.5
 40
0.5
 40
1.0
 40
1.0
 40
1.0
 40
1.0
 10
-8.6149
 20
95.8029
 30
0.0
 10
-9.589
 20
92.5299
 30
0.0
 10
-13.5385
 20
90.3473
 30
0.0
 10
-17.3301
 20
89.7073
 30
0.0
 10
-17.3301
 20
89.7073
 30
0.0
 10
-13.3516
 20
89.7583
 30
0.0
 10
-12.6129
 20
89.679
 30
0.0
 10
-8.7113
 20
89.6274
 30
0.0
 10
-8.7113
 20
89.6274
 30
0.0
 10
-8.7113
 20
89.6274
 30
0.0
 10
-8.6149
 20
95.8029
 30
0.0
 10
-8.6149
 20
95.8029
 30
0.0
  0
SPLINE
  5
6F
330
1F
100
AcDbEntity
  8
layer 1
 62
     7
100
AcDbSpline
210
0.0
220
0.0
230
1.0
 70
    11
 71
     3
 72
    16
 73
    12
 74
     0
 42
0.0000000001
 43
0.0000000001
 12
1.0
 22
0.0
 32
0.0
 13
1.0
 23
0.0
 33
0.0
 40
0.0
 40
0.0
 40
0.0
 40
0.0
 40
0.25
 40
0.25
 40
0.25
 40
0.25
 40
0.5
 40
0.5
 40
0.5
 40
0.5
 40
1.0
 40
1.0
 40
1.0
 40
1.0
 10
-32.868
 20
92.1564
 30
0.0
 10
-36.5203
 20
93.7676
 30
0.0
 10
-38.7688
 20
99.2994
 30
0.0
 10
-39.9778
 20
103.4078
 30
0.0
 10
-39.9778
 20
103.4078
 30
0.0
 10
-39.9291
 20
99.4307
 30
0.0
 10
-39.8161
 20
95.0158
 30
0.0
 10
-39.8668
 20
91.117
 30
0.0
 10
-39.8668
 20
91.117
 30
0.0
 10
-38.2106
 20
91.8425
 30
0.0
 10
-35.7303
 20
92.1254
 30
0.0
 10
-32.868
 20
92.1564
 30
0.0
  0
SPLINE
  5
70
330
1F
100
AcDbEntity
  8
layer 1
370
    13
100
AcDbSpline
210
0.0
220
0.0
230
1.0
 70
    11
 71
     3
 72
    16
 73
    12
 74
     0
 42
0.0000000001
 43
0.0000000001
 12
1.0
 22
0.0
 32
0.0
 13
1.0
 23
0.0
 33
0.0
 40
0.0
 40
0.0
 40
0.0
 40
0.0
 40
0.25
 40
0.25
 40
0.25
 40
0.25
 40
0.5
 40
0.5
 40
0.5
 40
0.5
 40
1.0
 40
1.0
 40
1.0
 40
1.0
 10
-32.868
 20
92.1564
 30
0.0
 10
-36.5203
 20
93.7676
 30
0.0
 10
-38.7688
 20
99.2994
 30
0.0
 10
-39.9778
 20
103.4078
 30
0.0
 10
-39.9778
 20
103.4078
 30
0.0
 10
-39.9291
 20
99.4299
 30
0.0
 10
-39.8161
 20
95.0158
 30
0.0
 10
-39.8668
 20
91.117
 30
0.0
 10
-39.8668
 20
91.117
 30
0.0
 10
-38.2106
 20
91.8425
 30
0.0
 10
-35.7303
 20
92.1254
 30
0.0
 10
-32.868
 20
92.1564
 30
0.0
  0
SPLINE
  5
71
330
1F
100
AcDbEntity
  8
layer 1
 62
     7
100
AcDbSpline
210
0.0
220
0.0
230
1.0
 70
    11
 71
     3
 72
    32
 73
    28
 74
     0
 42
0.0000000001
 43
0.0000000001
 12
1.0
 22
0.0
 32
0.0
 13
1.0
 23
0.0
 33
0.0
 40
0.0
 40
0.0
 40
0.0
 40
0.0
 40
0.125
 40
0.125
 40
0.125
 40
0.125
 40
0.25
 40
0.25
 40
0.25
 40
0.25
 40
0.375
 40
0.375
 40
0.375
 40
0.375
 40
0.5
 40
0.5
 40
0.5
 40
0.5
 40
0.625
 40
0.625
 40
0.625
 40
0.625
 40
0.75
 40
0.75
 40
0.75
 40
0.75
 40
1.0
 40
1.0
 40
1.0
 40
1.0
 10
-21.5739
 20
79.4522
 30
0.0
 10
-24.0115
 20
87.4988
 30
0.0
 10
-31.0762
 20
89.1861
 30
0.0
 10
-38.157
 20
88.2323
 30
0.0
 10
-38.157
 20
88.2323
 30
0.0
 10
-34.4618
 20
84.8233
 30
0.0
 10
-33.5421
 20
83.4441
 30
0.0
 10
-32.7433
 20
79.8687
 30
0.0
 10
-32.7433
 20
79.8687
 30
0.0
 10
-32.2171
 20
83.3173
 30
0.0
 10
-28.2532
 20
83.8435
 30
0.0
 10
-26.1634
 20
82.4106
 30
0.0
 10
-26.1634
 20
82.4106
 30
0.0
 10
-21.9137
 20
79.4978
 30
0.0
 10
-24.5268
 20
73.4721
 30
0.0
 10
-27.4065
 20
76.9178
 30
0.0
 10
-27.4065
 20
76.9178
 30
0.0
 10
-25.6401
 20
77.0711
 30
0.0
 10
-26.4838
 20
79.9591
 30
0.0
 10
-28.6974
 20
79.438
 30
0.0
 10
-28.6974
 20
79.438
 30
0.0
 10
-31.6053
 20
78.7559
 30
0.0
 10
-31.2293
 20
75.2137
 30
0.0
 10
-29.7818
 20
73.8033
 30
0.0
 10
-29.7818
 20
73.8033
 30
0.0
 10
-27.6101
 20
71.4994
 30
0.0
 10
-19.8497
 20
71.5839
 30
0.0
 10
-21.5739
 20
79.4522
 30
0.0
  0
SPLINE
  5
72
330
1F
100
AcDbEntity
  8
layer 1
370
    13
100
AcDbSpline
210
0.0
220
0.0
230
1.0
 70
    11
 71
     3
 72
    32
 73
    28
 74
     0
 42
0.0000000001
 43
0.0000000001
 12
1.0
 22
0.0
 32
0.0
 13
1.0
 23
0.0
 33
0.0
 40
0.0
 40
0.0
 40
0.0
 40
0.0
 40
0.125
 40
0.125
 40
0.125
 40
0.125
 40
0.25
 40
0.25
 40
0.25
 40
0.25
 40
0.375
 40
0.375
 40
0.375
 40
0.375
 40
0.5
 40
0.5
 40
0.5
 40
0.5
 40
0.625
 40
0.625
 40
0.625
 40
0.625
 40
0.75
 40
0.75
 40
0.75
 40
0.75
 40
1.0
 40
1.0
 40
1.0
 40
1.0
 10
-21.5739
 20
79.4522
 30
0.0
 10
-24.0115
 20
87.4988
 30
0.0
 10
-31.0762
 20
89.1861
 30
0.0
 10
-38.157
 20
88.2323
 30
0.0
 10
-38.157
 20
88.2323
 30
0.0
 10
-34.4618
 20
84.8233
 30
0.0
 10
-33.5421
 20
83.4441
 30
0.0
 10
-32.7433
 20
79.8678
 30
0.0
 10
-32.7433
 20
79.8678
 30
0.0
 10
-32.2171
 20
83.3173
 30
0.0
 10
-28.2532
 20
83.8435
 30
0.0
 10
-26.1634
 20
82.4106
 30
0.0
 10
-26.1634
 20
82.4106
 30
0.0
 10
-21.9137
 20
79.4978
 30
0.0
 10
-24.5268
 20
73.4721
 30
0.0
 10
-27.4065
 20
76.9178
 30
0.0
 10
-27.4065
 20
76.9178
 30
0.0
 10
-25.6401
 20
77.0711
 30
0.0
 10
-26.4838
 20
79.9584
 30
0.0
 10
-28.6974
 20
79.438
 30
0.0
 10
-28.6974
 20
79.438
 30
0.0
 10
-31.6053
 20
78.7559
 30
0.0
 10
-31.2293
 20
75.2137
 30
0.0
 10
-29.7818
 20
73.8033
 30
0.0
 10
-29.7818
 20
73.8033
 30
0.0
 10
-27.6101
 20
71.4994
 30
0.0
 10
-19.8497
 20
71.5839
 30
0.0
 10
-21.5739
 20
79.4522
 30
0.0
  0
SPLINE
  5
73
330
1F
100
AcDbEntity
  8
layer 1
 62
     7
100
AcDbSpline
210
0.0
220
0.0
230
1.0
 70
    11
 71
     3
 72
    36
 73
    32
 74
     0
 42
0.0000000001
 43
0.0000000001
 12
1.0
 22
0.0
 32
0.0
 13
1.0
 23
0.0
 33
0.0
 40
0.0
 40
0.0
 40
0.0
 40
0.0
 40
0.1111111111111111
 40
0.1111111111111111
 40
0.1111111111111111
 40
0.1111111111111111
 40
0.2222222222222222
 40
0.2222222222222222
 40
0.2222222222222222
 40
0.2222222222222222
 40
0.3333333333333333
 40
0.3333333333333333
 40
0.3333333333333333
 40
0.3333333333333333
 40
0.4444444444444444
 40
0.4444444444444444
 40
0.4444444444444444
 40
0.4444444444444444
 40
0.5555555555555556
 40
0.5555555555555556
 40
0.5555555555555556
 40
0.5555555555555556
 40
0.6666666666666666
 40
0.6666666666666666
 40
0.6666666666666666
 40
0.6666666666666666
 40
0.7777777777777778
 40
0.7777777777777778
 40
0.7777777777777778
 40
0.7777777777777778
 40
1.0
 40
1.0
 40
1.0
 40
1.0
 10
-17.4801
 20
93.1872
 30
0.0
 10
-25.6401
 20
91.1599
 30
0.0
 10
-34.2699
 20
93.7641
 30
0.0
 10
-38.2106
 20
107.7399
 30
0.0
 10
-38.2106
 20
107.7399
 30
0.0
 10
-34.38
 20
102.5416
 30
0.0
 10
-26.5881
 20
104.2204
 30
0.0
 10
-23.5788
 20
106.9247
 30
0.0
 10
-23.5788
 20
106.9247
 30
0.0
 10
-26.3671
 20
103.7614
 30
0.0
 10
-25.0733
 20
100.036
 30
0.0
 10
-22.3727
 20
98.592
 30
0.0
 10
-22.3727
 20
98.592
 30
0.0
 10
-18.5984
 20
96.5703
 30
0.0
 10
-13.6291
 20
98.442
 30
0.0
 10
-14.3996
 20
103.5042
 30
0.0
 10
-14.3996
 20
103.5042
 30
0.0
 10
-16.2683
 20
100.5854
 30
0.0
 10
-19.5612
 20
101.6696
 30
0.0
 10
-20.3366
 20
104.0957
 30
0.0
 10
-20.3366
 20
104.0957
 30
0.0
 10
-21.0701
 20
106.3977
 30
0.0
 10
-19.8778
 20
109.2599
 30
0.0
 10
-16.6052
 20
109.5435
 30
0.0
 10
-16.6052
 20
109.5435
 30
0.0
 10
-13.3232
 20
109.8013
 30
0.0
 10
-8.6802
 20
106.1034
 30
0.0
 10
-10.4102
 20
99.4496
 30
0.0
 10
-10.4102
 20
99.4496
 30
0.0
 10
-12.0128
 20
95.7125
 30
0.0
 10
-13.7567
 20
94.3787
 30
0.0
 10
-17.4801
 20
93.1872
 30
0.0
  0
SPLINE
  5
74
330
1F
100
AcDbEntity
  8
layer 1
370
    13
100
AcDbSpline
210
0.0
220
0.0
230
1.0
 70
    11
 71
     3
 72
    36
 73
    32
 74
     0
 42
0.0000000001
 43
0.0000000001
 12
1.0
 22
0.0
 32
0.0
 13
1.0
 23
0.0
 33
0.0
 40
0.0
 40
0.0
 40
0.0
 40
0.0
 40
0.1111111111111111
 40
0.1111111111111111
 40
0.1111111111111111
 40
0.1111111111111111
 40
0.2222222222222222
 40
0.2222222222222222
 40
0.2222222222222222
 40
0.2222222222222222
 40
0.3333333333333333
 40
0.3333333333333333
 40
0.3333333333333333
 40
0.3333333333333333
 40
0.4444444444444444
 40
0.4444444444444444
 40
0.4444444444444444
 40
0.4444444444444444
 40
0.5555555555555556
 40
0.5555555555555556
 40
0.5555555555555556
 40
0.5555555555555556
 40
0.6666666666666666
 40
0.6666666666666666
 40
0.6666666666666666
 40
0.6666666666666666
 40
0.7777777777777778
 40
0.7777777777777778
 40
0.7777777777777778
 40
0.7777777777777778
 40
1.0
 40
1.0
 40
1.0
 40
1.0
 10
-17.4801
 20
93.1872
 30
0.0
 10
-25.6401
 20
91.1599
 30
0.0
 10
-34.2699
 20
93.7641
 30
0.0
 10
-38.2106
 20
107.7399
 30
0.0
 10
-38.2106
 20
107.7399
 30
0.0
 10
-34.38
 20
102.5416
 30
0.0
 10
-26.5881
 20
104.2204
 30
0.0
 10
-23.5788
 20
106.9247
 30
0.0
 10
-23.5788
 20
106.9247
 30
0.0
 10
-26.3671
 20
103.7614
 30
0.0
 10
-25.0733
 20
100.036
 30
0.0
 10
-22.3727
 20
98.592
 30
0.0
 10
-22.3727
 20
98.592
 30
0.0
 10
-18.5984
 20
96.5703
 30
0.0
 10
-13.6291
 20
98.4414
 30
0.0
 10
-14.3996
 20
103.5042
 30
0.0
 10
-14.3996
 20
103.5042
 30
0.0
 10
-16.2683
 20
100.5854
 30
0.0
 10
-19.5612
 20
101.6696
 30
0.0
 10
-20.3366
 20
104.0955
 30
0.0
 10
-20.3366
 20
104.0955
 30
0.0
 10
-21.0701
 20
106.3977
 30
0.0
 10
-19.8778
 20
109.2599
 30
0.0
 10
-16.6052
 20
109.5435
 30
0.0
 10
-16.6052
 20
109.5435
 30
0.0
 10
-13.3232
 20
109.8013
 30
0.0
 10
-8.6802
 20
106.1034
 30
0.0
 10
-10.4102
 20
99.4496
 30
0.0
 10
-10.4102
 20
99.4496
 30
0.0
 10
-12.0128
 20
95.7125
 30
0.0
 10
-13.7567
 20
94.3787
 30
0.0
 10
-17.4801
 20
93.1872
 30
0.0
  0
SPLINE
  5
75
330
1F
100
AcDbEntity
  8
layer 1
 62
     7
100
AcDbSpline
210
0.0
220
0.0
230
1.0
 70
    11
 71
     3
 72
    56
 73
    52
 74
     0
 42
0.0000000001
 43
0.0000000001
 12
1.0
 22
0.0
 32
0.0
 13
1.0
 23
0.0
 33
0.0
 40
0.0
 40
0.0
 40
0.0
 40
0.0
 40
0.0714285714285714
 40
0.0714285714285714
 40
0.0714285714285714
 40
0.0714285714285714
 40
0.1428571428571428
 40
0.1428571428571428
 40
0.1428571428571428
 40
0.1428571428571428
 40
0.2142857142857143
 40
0.2142857142857143
 40
0.2142857142857143
 40
0.2142857142857143
 40
0.2857142857142857
 40
0.2857142857142857
 40
0.2857142857142857
 40
0.2857142857142857
 40
0.3571428571428572
 40
0.3571428571428572
 40
0.3571428571428572
 40
0.3571428571428572
 40
0.4285714285714285
 40
0.4285714285714285
 40
0.4285714285714285
 40
0.4285714285714285
 40
0.5
 40
0.5
 40
0.5
 40
0.5
 40
0.5714285714285714
 40
0.5714285714285714
 40
0.5714285714285714
 40
0.5714285714285714
 40
0.6428571428571429
 40
0.6428571428571429
 40
0.6428571428571429
 40
0.6428571428571429
 40
0.7142857142857143
 40
0.7142857142857143
 40
0.7142857142857143
 40
0.7142857142857143
 40
0.7857142857142857
 40
0.7857142857142857
 40
0.7857142857142857
 40
0.7857142857142857
 40
0.8571428571428571
 40
0.8571428571428571
 40
0.8571428571428571
 40
0.8571428571428571
 40
1.0
 40
1.0
 40
1.0
 40
1.0
 10
-28.0038
 20
47.2806
 30
0.0
 10
-29.128
 20
48.4581
 30
0.0
 10
-29.6657
 20
48.8797
 30
0.0
 10
-30.6877
 20
50.117
 30
0.0
 10
-30.6877
 20
50.117
 30
0.0
 10
-23.4004
 20
54.7857
 30
0.0
 10
-23.8615
 20
65.6151
 30
0.0
 10
-26.7412
 20
69.1514
 30
0.0
 10
-26.7412
 20
69.1514
 30
0.0
 10
-25.6118
 20
67.7305
 30
0.0
 10
-22.8395
 20
68.908
 30
0.0
 10
-21.9168
 20
70.1344
 30
0.0
 10
-21.9168
 20
70.1344
 30
0.0
 10
-24.1534
 20
60.0378
 30
0.0
 10
-14.844
 20
60.6719
 30
0.0
 10
-13.2667
 20
61.7423
 30
0.0
 10
-13.2667
 20
61.7423
 30
0.0
 10
-11.2879
 20
63.1528
 30
0.0
 10
-10.8575
 20
65.8302
 30
0.0
 10
-11.1829
 20
68.3331
 30
0.0
 10
-11.1829
 20
68.3331
 30
0.0
 10
-11.3582
 20
69.1412
 30
0.0
 10
-11.778
 20
69.9073
 30
0.0
 10
-12.4767
 20
70.1198
 30
0.0
 10
-12.4767
 20
70.1198
 30
0.0
 10
-13.3688
 20
70.3887
 30
0.0
 10
-14.354
 20
69.7181
 30
0.0
 10
-14.0002
 20
68.7159
 30
0.0
 10
-14.0002
 20
68.7159
 30
0.0
 10
-13.7031
 20
67.8725
 30
0.0
 10
-14.1054
 20
65.7085
 30
0.0
 10
-14.6258
 20
65.3461
 30
0.0
 10
-14.6258
 20
65.3461
 30
0.0
 10
-17.6983
 20
63.2001
 30
0.0
 10
-20.7839
 20
67.4582
 30
0.0
 10
-18.1934
 20
71.5099
 30
0.0
 10
-18.1934
 20
71.5099
 30
0.0
 10
-16.2486
 20
74.2173
 30
0.0
 10
-12.4767
 20
73.1583
 30
0.0
 10
-11.1351
 20
71.5615
 30
0.0
 10
-11.1351
 20
71.5615
 30
0.0
 10
-6.9731
 20
66.8271
 30
0.0
 10
-8.6802
 20
57.1072
 30
0.0
 10
-13.9546
 20
53.6193
 30
0.0
 10
-13.9546
 20
53.6193
 30
0.0
 10
-12.1063
 20
59.7264
 30
0.0
 10
-18.4905
 20
61.4424
 30
0.0
 10
-19.6654
 20
58.4525
 30
0.0
 10
-19.6654
 20
58.4525
 30
0.0
 10
-15.484
 20
52.4471
 30
0.0
 10
-26.9419
 20
50.6062
 30
0.0
 10
-28.0038
 20
47.2806
 30
0.0
  0
SPLINE
  5
76
330
1F
100
AcDbEntity
  8
layer 1
370
     9
100
AcDbSpline
210
0.0
220
0.0
230
1.0
 70
    11
 71
     3
 72
    56
 73
    52
 74
     0
 42
0.0000000001
 43
0.0000000001
 12
1.0
 22
0.0
 32
0.0
 13
1.0
 23
0.0
 33
0.0
 40
0.0
 40
0.0
 40
0.0
 40
0.0
 40
0.0714285714285714
 40
0.0714285714285714
 40
0.0714285714285714
 40
0.0714285714285714
 40
0.1428571428571428
 40
0.1428571428571428
 40
0.1428571428571428
 40
0.1428571428571428
 40
0.2142857142857143
 40
0.2142857142857143
 40
0.2142857142857143
 40
0.2142857142857143
 40
0.2857142857142857
 40
0.2857142857142857
 40
0.2857142857142857
 40
0.2857142857142857
 40
0.3571428571428572
 40
0.3571428571428572
 40
0.3571428571428572
 40
0.3571428571428572
 40
0.4285714285714285
 40
0.4285714285714285
 40
0.4285714285714285
 40
0.4285714285714285
 40
0.5
 40
0.5
 40
0.5
 40
0.5
 40
0.5714285714285714
 40
0.5714285714285714
 40
0.5714285714285714
 40
0.5714285714285714
 40
0.6428571428571429
 40
0.6428571428571429
 40
0.6428571428571429
 40
0.6428571428571429
 40
0.7142857142857143
 40
0.7142857142857143
 40
0.7142857142857143
 40
0.7142857142857143
 40
0.7857142857142857
 40
0.7857142857142857
 40
0.7857142857142857
 40
0.7857142857142857
 40
0.8571428571428571
 40
0.8571428571428571
 40
0.8571428571428571
 40
0.8571428571428571
 40
1.0
 40
1.0
 40
1.0
 40
1.0
 10
-28.0038
 20
47.2806
 30
0.0
 10
-29.128
 20
48.4581
 30
0.0
 10
-29.6657
 20
48.8797
 30
0.0
 10
-30.6877
 20
50.117
 30
0.0
 10
-30.6877
 20
50.117
 30
0.0
 10
-23.4004
 20
54.7857
 30
0.0
 10
-23.8615
 20
65.6151
 30
0.0
 10
-26.7412
 20
69.1514
 30
0.0
 10
-26.7412
 20
69.1514
 30
0.0
 10
-25.6118
 20
67.7305
 30
0.0
 10
-22.8395
 20
68.9078
 30
0.0
 10
-21.9168
 20
70.1342
 30
0.0
 10
-21.9168
 20
70.1342
 30
0.0
 10
-24.1534
 20
60.0378
 30
0.0
 10
-14.844
 20
60.6719
 30
0.0
 10
-13.2667
 20
61.7423
 30
0.0
 10
-13.2667
 20
61.7423
 30
0.0
 10
-11.2879
 20
63.1528
 30
0.0
 10
-10.8575
 20
65.8304
 30
0.0
 10
-11.1829
 20
68.3331
 30
0.0
 10
-11.1829
 20
68.3331
 30
0.0
 10
-11.3582
 20
69.1412
 30
0.0
 10
-11.778
 20
69.9075
 30
0.0
 10
-12.4767
 20
70.1198
 30
0.0
 10
-12.4767
 20
70.1198
 30
0.0
 10
-13.3688
 20
70.3887
 30
0.0
 10
-14.354
 20
69.7183
 30
0.0
 10
-14.0002
 20
68.7159
 30
0.0
 10
-14.0002
 20
68.7159
 30
0.0
 10
-13.7031
 20
67.8725
 30
0.0
 10
-14.1054
 20
65.7085
 30
0.0
 10
-14.6258
 20
65.3461
 30
0.0
 10
-14.6258
 20
65.3461
 30
0.0
 10
-17.6983
 20
63.2001
 30
0.0
 10
-20.7839
 20
67.4582
 30
0.0
 10
-18.1934
 20
71.5099
 30
0.0
 10
-18.1934
 20
71.5099
 30
0.0
 10
-16.2486
 20
74.2173
 30
0.0
 10
-12.4767
 20
73.1583
 30
0.0
 10
-11.1351
 20
71.5615
 30
0.0
 10
-11.1351
 20
71.5615
 30
0.0
 10
-6.9731
 20
66.8271
 30
0.0
 10
-8.6802
 20
57.1072
 30
0.0
 10
-13.9546
 20
53.6193
 30
0.0
 10
-13.9546
 20
53.6193
 30
0.0
 10
-12.1063
 20
59.7264
 30
0.0
 10
-18.4905
 20
61.4424
 30
0.0
 10
-19.6654
 20
58.4523
 30
0.0
 10
-19.6654
 20
58.4523
 30
0.0
 10
-15.484
 20
52.4471
 30
0.0
 10
-26.9419
 20
50.6062
 30
0.0
 10
-28.0038
 20
47.2806
 30
0.0
  0
SPLINE
  5
77
330
1F
100
AcDbEntity
  8
layer 1
 62
     7
100
AcDbSpline
210
0.0
220
0.0
230
1.0
 70
    11
 71
     3
 72
    16
 73
    12
 74
     0
 42
0.0000000001
 43
0.0000000001
 12
1.0
 22
0.0
 32
0.0
 13
1.0
 23
0.0
 33
0.0
 40
0.0
 40
0.0
 40
0.0
 40
0.0
 40
0.25
 40
0.25
 40
0.25
 40
0.25
 40
0.5
 40
0.5
 40
0.5
 40
0.5
 40
1.0
 40
1.0
 40
1.0
 40
1.0
 10
-8.7454
 20
49.1234
 30
0.0
 10
-10.4893
 20
49.4879
 30
0.0
 10
-12.4971
 20
49.5929
 30
0.0
 10
-15.8037
 20
49.3213
 30
0.0
 10
-15.8037
 20
49.3213
 30
0.0
 10
-12.3354
 20
51.2811
 30
0.0
 10
-10.1472
 20
51.7644
 30
0.0
 10
-8.7113
 20
55.0349
 30
0.0
 10
-8.7113
 20
55.0349
 30
0.0
 10
-8.7113
 20
55.0349
 30
0.0
 10
-8.7454
 20
49.1234
 30
0.0
 10
-8.7454
 20
49.1234
 30
0.0
  0
SPLINE
  5
78
330
1F
100
AcDbEntity
  8
layer 1
370
    13
100
AcDbSpline
210
0.0
220
0.0
230
1.0
 70
    11
 71
     3
 72
    16
 73
    12
 74
     0
 42
0.0000000001
 43
0.0000000001
 12
1.0
 22
0.0
 32
0.0
 13
1.0
 23
0.0
 33
0.0
 40
0.0
 40
0.0
 40
0.0
 40
0.0
 40
0.25
 40
0.25
 40
0.25
 40
0.25
 40
0.5
 40
0.5
 40
0.5
 40
0.5
 40
1.0
 40
1.0
 40
1.0
 40
1.0
 10
-8.7454
 20
49.1234
 30
0.0
 10
-10.4893
 20
49.4879
 30
0.0
 10
-12.4971
 20
49.5931
 30
0.0
 10
-15.8037
 20
49.3213
 30
0.0
 10
-15.8037
 20
49.3213
 30
0.0
 10
-12.3354
 20
51.2811
 30
0.0
 10
-10.1472
 20
51.7644
 30
0.0
 10
-8.7113
 20
55.0349
 30
0.0
 10
-8.7113
 20
55.0349
 30
0.0
 10
-8.7113
 20
55.0349
 30
0.0
 10
-8.7454
 20
49.1234
 30
0.0
 10
-8.7454
 20
49.1234
 30
0.0
  0
SPLINE
  5
79
330
1F
100
AcDbEntity
  8
layer 1
 62
     7
100
AcDbSpline
210
0.0
220
0.0
230
1.0
 70
    11
 71
     3
 72
    28
 73
    24
 74
     0
 42
0.0000000001
 43
0.0000000001
 12
1.0
 22
0.0
 32
0.0
 13
1.0
 23
0.0
 33
0.0
 40
0.0
 40
0.0
 40
0.0
 40
0.0
 40
0.1428571428571428
 40
0.1428571428571428
 40
0.1428571428571428
 40
0.1428571428571428
 40
0.2857142857142857
 40
0.2857142857142857
 40
0.2857142857142857
 40
0.2857142857142857
 40
0.4285714285714285
 40
0.4285714285714285
 40
0.4285714285714285
 40
0.4285714285714285
 40
0.5714285714285714
 40
0.5714285714285714
 40
0.5714285714285714
 40
0.5714285714285714
 40
0.7142857142857143
 40
0.7142857142857143
 40
0.7142857142857143
 40
0.7142857142857143
 40
1.0
 40
1.0
 40
1.0
 40
1.0
 10
-8.7454
 20
40.9212
 30
0.0
 10
-10.229
 20
41.8043
 30
0.0
 10
-12.4971
 20
41.8439
 30
0.0
 10
-15.4783
 20
40.5327
 30
0.0
 10
-15.4783
 20
40.5327
 30
0.0
 10
-15.1752
 20
45.8537
 30
0.0
 10
-21.7978
 20
45.7399
 30
0.0
 10
-23.9412
 20
41.5888
 30
0.0
 10
-23.9412
 20
41.5888
 30
0.0
 10
-25.3566
 20
38.8516
 30
0.0
 10
-25.9598
 20
37.7125
 30
0.0
 10
-26.9253
 20
35.1646
 30
0.0
 10
-26.9253
 20
35.1646
 30
0.0
 10
-26.7071
 20
39.596
 30
0.0
 10
-26.7607
 20
40.8162
 30
0.0
 10
-26.7722
 20
43.0841
 30
0.0
 10
-26.7722
 20
43.0841
 30
0.0
 10
-22.129
 20
47.212
 30
0.0
 10
-13.7401
 20
47.4838
 30
0.0
 10
-8.7113
 20
46.1159
 30
0.0
 10
-8.7113
 20
46.1159
 30
0.0
 10
-8.7113
 20
46.1159
 30
0.0
 10
-8.7454
 20
40.9212
 30
0.0
 10
-8.7454
 20
40.9212
 30
0.0
  0
SPLINE
  5
7A
330
1F
100
AcDbEntity
  8
layer 1
370
    13
100
AcDbSpline
210
0.0
220
0.0
230
1.0
 70
    11
 71
     3
 72
    28
 73
    24
 74
     0
 42
0.0000000001
 43
0.0000000001
 12
1.0
 22
0.0
 32
0.0
 13
1.0
 23
0.0
 33
0.0
 40
0.0
 40
0.0
 40
0.0
 40
0.0
 40
0.1428571428571428
 40
0.1428571428571428
 40
0.1428571428571428
 40
0.1428571428571428
 40
0.2857142857142857
 40
0.2857142857142857
 40
0.2857142857142857
 40
0.2857142857142857
 40
0.4285714285714285
 40
0.4285714285714285
 40
0.4285714285714285
 40
0.4285714285714285
 40
0.5714285714285714
 40
0.5714285714285714
 40
0.5714285714285714
 40
0.5714285714285714
 40
0.7142857142857143
 40
0.7142857142857143
 40
0.7142857142857143
 40
0.7142857142857143
 40
1.0
 40
1.0
 40
1.0
 40
1.0
 10
-8.7454
 20
40.9212
 30
0.0
 10
-10.229
 20
41.8043
 30
0.0
 10
-12.4971
 20
41.8439
 30
0.0
 10
-15.4783
 20
40.5327
 30
0.0
 10
-15.4783
 20
40.5327
 30
0.0
 10
-15.1752
 20
45.8537
 30
0.0
 10
-21.7978
 20
45.7399
 30
0.0
 10
-23.9412
 20
41.5888
 30
0.0
 10
-23.9412
 20
41.5888
 30
0.0
 10
-25.3566
 20
38.8516
 30
0.0
 10
-25.9598
 20
37.7125
 30
0.0
 10
-26.9253
 20
35.1648
 30
0.0
 10
-26.9253
 20
35.1648
 30
0.0
 10
-26.7071
 20
39.596
 30
0.0
 10
-26.7722
 20
40.8162
 30
0.0
 10
-26.7722
 20
43.0835
 30
0.0
 10
-26.7722
 20
43.0835
 30
0.0
 10
-22.129
 20
47.212
 30
0.0
 10
-13.7401
 20
47.4838
 30
0.0
 10
-8.7113
 20
46.1159
 30
0.0
 10
-8.7113
 20
46.1159
 30
0.0
 10
-8.7113
 20
46.1159
 30
0.0
 10
-8.7454
 20
40.9212
 30
0.0
 10
-8.7454
 20
40.9212
 30
0.0
  0
SPLINE
  5
7B
330
1F
100
AcDbEntity
  8
layer 1
 62
     7
100
AcDbSpline
210
0.0
220
0.0
230
1.0
 70
    11
 71
     3
 72
    32
 73
    28
 74
     0
 42
0.0000000001
 43
0.0000000001
 12
1.0
 22
0.0
 32
0.0
 13
1.0
 23
0.0
 33
0.0
 40
0.0
 40
0.0
 40
0.0
 40
0.0
 40
0.125
 40
0.125
 40
0.125
 40
0.125
 40
0.25
 40
0.25
 40
0.25
 40
0.25
 40
0.375
 40
0.375
 40
0.375
 40
0.375
 40
0.5
 40
0.5
 40
0.5
 40
0.5
 40
0.625
 40
0.625
 40
0.625
 40
0.625
 40
0.75
 40
0.75
 40
0.75
 40
0.75
 40
1.0
 40
1.0
 40
1.0
 40
1.0
 10
-8.7454
 20
31.1557
 30
0.0
 10
-9.5976
 20
31.1818
 30
0.0
 10
-10.6763
 20
31.5436
 30
0.0
 10
-10.0615
 20
33.228
 30
0.0
 10
-10.0615
 20
33.228
 30
0.0
 10
-9.589
 20
34.5193
 30
0.0
 10
-13.6263
 20
35.3685
 30
0.0
 10
-12.8108
 20
31.0906
 30
0.0
 10
-12.8108
 20
31.0906
 30
0.0
 10
-12.081
 20
28.1997
 30
0.0
 10
-9.974
 20
27.9955
 30
0.0
 10
-8.6178
 20
28.3775
 30
0.0
 10
-8.6178
 20
28.3775
 30
0.0
 10
-8.6802
 20
26.193
 30
0.0
 10
-8.6802
 20
24.2438
 30
0.0
 10
-8.6295
 20
22.2739
 30
0.0
 10
-8.6295
 20
22.2739
 30
0.0
 10
-11.4069
 20
22.084
 30
0.0
 10
-15.8884
 20
23.6952
 30
0.0
 10
-17.3975
 20
29.346
 30
0.0
 10
-17.3975
 20
29.346
 30
0.0
 10
-18.4203
 20
36.4705
 30
0.0
 10
-14.6511
 20
39.9299
 30
0.0
 10
-8.7113
 20
37.911
 30
0.0
 10
-8.7113
 20
37.911
 30
0.0
 10
-8.7113
 20
37.911
 30
0.0
 10
-8.7454
 20
31.1557
 30
0.0
 10
-8.7454
 20
31.1557
 30
0.0
  0
SPLINE
  5
7C
330
1F
100
AcDbEntity
  8
layer 1
370
    13
100
AcDbSpline
210
0.0
220
0.0
230
1.0
 70
    11
 71
     3
 72
    32
 73
    28
 74
     0
 42
0.0000000001
 43
0.0000000001
 12
1.0
 22
0.0
 32
0.0
 13
1.0
 23
0.0
 33
0.0
 40
0.0
 40
0.0
 40
0.0
 40
0.0
 40
0.125
 40
0.125
 40
0.125
 40
0.125
 40
0.25
 40
0.25
 40
0.25
 40
0.25
 40
0.375
 40
0.375
 40
0.375
 40
0.375
 40
0.5
 40
0.5
 40
0.5
 40
0.5
 40
0.625
 40
0.625
 40
0.625
 40
0.625
 40
0.75
 40
0.75
 40
0.75
 40
0.75
 40
1.0
 40
1.0
 40
1.0
 40
1.0
 10
-8.7454
 20
31.1557
 30
0.0
 10
-9.5976
 20
31.1818
 30
0.0
 10
-10.6763
 20
31.5434
 30
0.0
 10
-10.0615
 20
33.228
 30
0.0
 10
-10.0615
 20
33.228
 30
0.0
 10
-9.589
 20
34.5193
 30
0.0
 10
-13.6263
 20
35.3685
 30
0.0
 10
-12.8108
 20
31.0906
 30
0.0
 10
-12.8108
 20
31.0906
 30
0.0
 10
-12.081
 20
28.1997
 30
0.0
 10
-9.974
 20
27.9955
 30
0.0
 10
-8.6178
 20
28.3775
 30
0.0
 10
-8.6178
 20
28.3775
 30
0.0
 10
-8.6802
 20
26.1922
 30
0.0
 10
-8.6802
 20
24.244
 30
0.0
 10
-8.6295
 20
22.2739
 30
0.0
 10
-8.6295
 20
22.2739
 30
0.0
 10
-11.4069
 20
22.084
 30
0.0
 10
-15.8884
 20
23.6944
 30
0.0
 10
-17.3975
 20
29.346
 30
0.0
 10
-17.3975
 20
29.346
 30
0.0
 10
-18.4203
 20
36.4697
 30
0.0
 10
-14.6511
 20
39.9297
 30
0.0
 10
-8.7113
 20
37.911
 30
0.0
 10
-8.7113
 20
37.911
 30
0.0
 10
-8.7113
 20
37.911
 30
0.0
 10
-8.7454
 20
31.1557
 30
0.0
 10
-8.7454
 20
31.1557
 30
0.0
  0
SPLINE
  5
7D
330
1F
100
AcDbEntity
  8
layer 1
 62
     7
370
    13
100
AcDbSpline
210
0.0
220
0.0
230
1.0
 70
    11
 71
     3
 72
    16
 73
    12
 74
     0
 42
0.0000000001
 43
0.0000000001
 12
1.0
 22
0.0
 32
0.0
 13
1.0
 23
0.0
 33
0.0
 40
0.0
 40
0.0
 40
0.0
 40
0.0
 40
0.25
 40
0.25
 40
0.25
 40
0.25
 40
0.5
 40
0.5
 40
0.5
 40
0.5
 40
1.0
 40
1.0
 40
1.0
 40
1.0
 10
-36.9988
 20
19.3719
 30
0.0
 10
-36.7247
 20
22.5995
 30
0.0
 10
-36.9111
 20
25.2434
 30
0.0
 10
-38.7884
 20
27.707
 30
0.0
 10
-38.7884
 20
27.707
 30
0.0
 10
-36.6986
 20
32.603
 30
0.0
 10
-34.4084
 20
38.4432
 30
0.0
 10
-30.263
 20
41.1669
 30
0.0
 10
-30.263
 20
41.1669
 30
0.0
 10
-30.0485
 20
33.4657
 30
0.0
 10
-32.6303
 20
26.201
 30
0.0
 10
-36.9988
 20
19.3719
 30
0.0
  0
SPLINE
  5
7E
330
1F
100
AcDbEntity
  8
layer 1
 62
     7
100
AcDbSpline
210
0.0
220
0.0
230
1.0
 70
    11
 71
     3
 72
    16
 73
    12
 74
     0
 42
0.0000000001
 43
0.0000000001
 12
1.0
 22
0.0
 32
0.0
 13
1.0
 23
0.0
 33
0.0
 40
0.0
 40
0.0
 40
0.0
 40
0.0
 40
0.25
 40
0.25
 40
0.25
 40
0.25
 40
0.5
 40
0.5
 40
0.5
 40
0.5
 40
1.0
 40
1.0
 40
1.0
 40
1.0
 10
-30.3594
 20
45.414
 30
0.0
 10
-33.5362
 20
42.6506
 30
0.0
 10
-37.5626
 20
36.7674
 30
0.0
 10
-39.3719
 20
31.4811
 30
0.0
 10
-39.3719
 20
31.4811
 30
0.0
 10
-39.0435
 20
36.6403
 30
0.0
 10
-34.4735
 20
45.0173
 30
0.0
 10
-32.3447
 20
47.8064
 30
0.0
 10
-32.3447
 20
47.8064
 30
0.0
 10
-31.6764
 20
46.8134
 30
0.0
 10
-30.8095
 20
46.19
 30
0.0
 10
-30.3594
 20
45.414
 30
0.0
  0
SPLINE
  5
7F
330
1F
100
AcDbEntity
  8
layer 1
370
    13
100
AcDbSpline
210
0.0
220
0.0
230
1.0
 70
    11
 71
     3
 72
    16
 73
    12
 74
     0
 42
0.0000000001
 43
0.0000000001
 12
1.0
 22
0.0
 32
0.0
 13
1.0
 23
0.0
 33
0.0
 40
0.0
 40
0.0
 40
0.0
 40
0.0
 40
0.25
 40
0.25
 40
0.25
 40
0.25
 40
0.5
 40
0.5
 40
0.5
 40
0.5
 40
1.0
 40
1.0
 40
1.0
 40
1.0
 10
-30.3594
 20
45.414
 30
0.0
 10
-33.5362
 20
42.6506
 30
0.0
 10
-37.5626
 20
36.7672
 30
0.0
 10
-39.3719
 20
31.4811
 30
0.0
 10
-39.3719
 20
31.4811
 30
0.0
 10
-39.0435
 20
36.6403
 30
0.0
 10
-34.4735
 20
45.0173
 30
0.0
 10
-32.3447
 20
47.8064
 30
0.0
 10
-32.3447
 20
47.8064
 30
0.0
 10
-31.6764
 20
46.8126
 30
0.0
 10
-30.8095
 20
46.19
 30
0.0
 10
-30.3594
 20
45.414
 30
0.0
  0
SPLINE
  5
80
330
1F
100
AcDbEntity
  8
layer 1
 62
     7
100
AcDbSpline
210
0.0
220
0.0
230
1.0
 70
    11
 71
     3
 72
    68
 73
    64
 74
     0
 42
0.0000000001
 43
0.0000000001
 12
1.0
 22
0.0
 32
0.0
 13
1.0
 23
0.0
 33
0.0
 40
0.0
 40
0.0
 40
0.0
 40
0.0
 40
0.0588235294117647
 40
0.0588235294117647
 40
0.0588235294117647
 40
0.0588235294117647
 40
0.1176470588235294
 40
0.1176470588235294
 40
0.1176470588235294
 40
0.1176470588235294
 40
0.1764705882352941
 40
0.1764705882352941
 40
0.1764705882352941
 40
0.1764705882352941
 40
0.2352941176470588
 40
0.2352941176470588
 40
0.2352941176470588
 40
0.2352941176470588
 40
0.2941176470588235
 40
0.2941176470588235
 40
0.2941176470588235
 40
0.2941176470588235
 40
0.3529411764705883
 40
0.3529411764705883
 40
0.3529411764705883
 40
0.3529411764705883
 40
0.4117647058823529
 40
0.4117647058823529
 40
0.4117647058823529
 40
0.4117647058823529
 40
0.4705882352941176
 40
0.4705882352941176
 40
0.4705882352941176
 40
0.4705882352941176
 40
0.5294117647058824
 40
0.5294117647058824
 40
0.5294117647058824
 40
0.5294117647058824
 40
0.5882352941176471
 40
0.5882352941176471
 40
0.5882352941176471
 40
0.5882352941176471
 40
0.6470588235294118
 40
0.6470588235294118
 40
0.6470588235294118
 40
0.6470588235294118
 40
0.7058823529411765
 40
0.7058823529411765
 40
0.7058823529411765
 40
0.7058823529411765
 40
0.7647058823529411
 40
0.7647058823529411
 40
0.7647058823529411
 40
0.7647058823529411
 40
0.8235294117647058
 40
0.8235294117647058
 40
0.8235294117647058
 40
0.8235294117647058
 40
0.8823529411764706
 40
0.8823529411764706
 40
0.8823529411764706
 40
0.8823529411764706
 40
1.0
 40
1.0
 40
1.0
 40
1.0
 10
-28.519
 20
12.9873
 30
0.0
 10
-24.3716
 20
17.5879
 30
0.0
 10
-23.9157
 20
22.4746
 30
0.0
 10
-24.0427
 20
23.9923
 30
0.0
 10
-24.0427
 20
23.9923
 30
0.0
 10
-26.0474
 20
24.6184
 30
0.0
 10
-27.6668
 20
24.7875
 30
0.0
 10
-29.9969
 20
24.1251
 30
0.0
 10
-29.9969
 20
24.1251
 30
0.0
 10
-26.823
 20
28.2992
 30
0.0
 10
-24.5385
 20
34.3551
 30
0.0
 10
-21.8884
 20
40.0601
 30
0.0
 10
-21.8884
 20
40.0601
 30
0.0
 10
-20.9396
 20
42.1018
 30
0.0
 10
-18.3833
 20
41.7135
 30
0.0
 10
-19.8466
 20
38.5619
 30
0.0
 10
-19.8466
 20
38.5619
 30
0.0
 10
-19.8466
 20
38.5621
 30
0.0
 10
-19.2834
 20
37.4298
 30
0.0
 10
-18.3463
 20
37.3335
 30
0.0
 10
-18.3463
 20
37.3335
 30
0.0
 10
-22.6756
 20
34.7036
 30
0.0
 10
-22.9895
 20
20.9431
 30
0.0
 10
-11.5598
 20
19.7029
 30
0.0
 10
-11.5598
 20
19.7029
 30
0.0
 10
-18.958
 20
18.7915
 30
0.0
 10
-22.7575
 20
13.1085
 30
0.0
 10
-15.866
 20
8.6262
 30
0.0
 10
-15.866
 20
8.6262
 30
0.0
 10
-22.7575
 20
4.1449
 30
0.0
 10
-18.958
 20
-1.5408
 30
0.0
 10
-11.5598
 20
-2.4527
 30
0.0
 10
-11.5598
 20
-2.4527
 30
0.0
 10
-22.9895
 20
-3.6922
 30
0.0
 10
-22.6756
 20
-17.4498
 30
0.0
 10
-18.3463
 20
-20.0801
 30
0.0
 10
-18.3463
 20
-20.0801
 30
0.0
 10
-19.2834
 20
-20.1758
 30
0.0
 10
-19.8466
 20
-21.3116
 30
0.0
 10
-19.8466
 20
-21.3116
 30
0.0
 10
-19.8466
 20
-21.3116
 30
0.0
 10
-18.3833
 20
-24.4601
 30
0.0
 10
-20.9396
 20
-24.8509
 30
0.0
 10
-21.8884
 20
-22.807
 30
0.0
 10
-21.8884
 20
-22.807
 30
0.0
 10
-24.5385
 20
-17.1042
 30
0.0
 10
-26.823
 20
-11.0481
 30
0.0
 10
-29.9969
 20
-6.8717
 30
0.0
 10
-29.9969
 20
-6.8717
 30
0.0
 10
-27.6668
 20
-7.5335
 30
0.0
 10
-26.0476
 20
-7.3646
 30
0.0
 10
-24.0427
 20
-6.742
 30
0.0
 10
-24.0427
 20
-6.742
 30
0.0
 10
-23.9157
 20
-5.221
 30
0.0
 10
-24.3716
 20
-0.3376
 30
0.0
 10
-28.519
 20
4.2665
 30
0.0
 10
-28.519
 20
4.2665
 30
0.0
 10
-25.7755
 20
4.1278
 30
0.0
 10
-20.0648
 20
3.9236
 30
0.0
 10
-18.7311
 20
8.6262
 30
0.0
 10
-18.7311
 20
8.6262
 30
0.0
 10
-20.0648
 20
13.3273
 30
0.0
 10
-25.7757
 20
13.1251
 30
0.0
 10
-28.519
 20
12.9873
 30
0.0
  0
SPLINE
  5
81
330
1F
100
AcDbEntity
  8
layer 1
370
    13
100
AcDbSpline
210
0.0
220
0.0
230
1.0
 70
    11
 71
     3
 72
    68
 73
    64
 74
     0
 42
0.0000000001
 43
0.0000000001
 12
1.0
 22
0.0
 32
0.0
 13
1.0
 23
0.0
 33
0.0
 40
0.0
 40
0.0
 40
0.0
 40
0.0
 40
0.0588235294117647
 40
0.0588235294117647
 40
0.0588235294117647
 40
0.0588235294117647
 40
0.1176470588235294
 40
0.1176470588235294
 40
0.1176470588235294
 40
0.1176470588235294
 40
0.1764705882352941
 40
0.1764705882352941
 40
0.1764705882352941
 40
0.1764705882352941
 40
0.2352941176470588
 40
0.2352941176470588
 40
0.2352941176470588
 40
0.2352941176470588
 40
0.2941176470588235
 40
0.2941176470588235
 40
0.2941176470588235
 40
0.2941176470588235
 40
0.3529411764705883
 40
0.3529411764705883
 40
0.3529411764705883
 40
0.3529411764705883
 40
0.4117647058823529
 40
0.4117647058823529
 40
0.4117647058823529
 40
0.4117647058823529
 40
0.4705882352941176
 40
0.4705882352941176
 40
0.4705882352941176
 40
0.4705882352941176
 40
0.5294117647058824
 40
0.5294117647058824
 40
0.5294117647058824
 40
0.5294117647058824
 40
0.5882352941176471
 40
0.5882352941176471
 40
0.5882352941176471
 40
0.5882352941176471
 40
0.6470588235294118
 40
0.6470588235294118
 40
0.6470588235294118
 40
0.6470588235294118
 40
0.7058823529411765
 40
0.7058823529411765
 40
0.7058823529411765
 40
0.7058823529411765
 40
0.7647058823529411
 40
0.7647058823529411
 40
0.7647058823529411
 40
0.7647058823529411
 40
0.8235294117647058
 40
0.8235294117647058
 40
0.8235294117647058
 40
0.8235294117647058
 40
0.8823529411764706
 40
0.8823529411764706
 40
0.8823529411764706
 40
0.8823529411764706
 40
1.0
 40
1.0
 40
1.0
 40
1.0
 10
-28.519
 20
12.9873
 30
0.0
 10
-24.3716
 20
17.5879
 30
0.0
 10
-23.9157
 20
22.4746
 30
0.0
 10
-24.0427
 20
23.9923
 30
0.0
 10
-24.0427
 20
23.9923
 30
0.0
 10
-26.0474
 20
24.6184
 30
0.0
 10
-27.6668
 20
24.7875
 30
0.0
 10
-29.9969
 20
24.1251
 30
0.0
 10
-29.9969
 20
24.1251
 30
0.0
 10
-26.823
 20
28.2992
 30
0.0
 10
-24.5385
 20
34.3551
 30
0.0
 10
-21.8884
 20
40.0601
 30
0.0
 10
-21.8884
 20
40.0601
 30
0.0
 10
-20.9396
 20
42.1018
 30
0.0
 10
-18.3833
 20
41.7135
 30
0.0
 10
-19.8466
 20
38.5619
 30
0.0
 10
-19.8466
 20
38.5619
 30
0.0
 10
-19.8466
 20
38.5619
 30
0.0
 10
-19.2834
 20
37.4298
 30
0.0
 10
-18.3463
 20
37.3335
 30
0.0
 10
-18.3463
 20
37.3335
 30
0.0
 10
-22.6756
 20
34.7036
 30
0.0
 10
-22.9895
 20
20.9431
 30
0.0
 10
-11.5598
 20
19.7029
 30
0.0
 10
-11.5598
 20
19.7029
 30
0.0
 10
-18.958
 20
18.7915
 30
0.0
 10
-22.7575
 20
13.1085
 30
0.0
 10
-15.866
 20
8.6262
 30
0.0
 10
-15.866
 20
8.6262
 30
0.0
 10
-22.7575
 20
4.1449
 30
0.0
 10
-18.958
 20
-1.5408
 30
0.0
 10
-11.5598
 20
-2.4527
 30
0.0
 10
-11.5598
 20
-2.4527
 30
0.0
 10
-22.9895
 20
-3.6922
 30
0.0
 10
-22.6756
 20
-17.4498
 30
0.0
 10
-18.3463
 20
-20.0801
 30
0.0
 10
-18.3463
 20
-20.0801
 30
0.0
 10
-19.2834
 20
-20.1758
 30
0.0
 10
-19.8466
 20
-21.3116
 30
0.0
 10
-19.8466
 20
-21.3116
 30
0.0
 10
-19.8466
 20
-21.3116
 30
0.0
 10
-18.3833
 20
-24.4601
 30
0.0
 10
-20.9396
 20
-24.8509
 30
0.0
 10
-21.8884
 20
-22.807
 30
0.0
 10
-21.8884
 20
-22.807
 30
0.0
 10
-24.5385
 20
-17.1042
 30
0.0
 10
-26.823
 20
-11.0481
 30
0.0
 10
-29.9969
 20
-6.8717
 30
0.0
 10
-29.9969
 20
-6.8717
 30
0.0
 10
-27.6668
 20
-7.5335
 30
0.0
 10
-26.0476
 20
-7.3646
 30
0.0
 10
-24.0427
 20
-6.742
 30
0.0
 10
-24.0427
 20
-6.742
 30
0.0
 10
-23.9157
 20
-5.221
 30
0.0
 10
-24.3716
 20
-0.3376
 30
0.0
 10
-28.519
 20
4.2665
 30
0.0
 10
-28.519
 20
4.2665
 30
0.0
 10
-25.7755
 20
4.1278
 30
0.0
 10
-20.0648
 20
3.9236
 30
0.0
 10
-18.7311
 20
8.6262
 30
0.0
 10
-18.7311
 20
8.6262
 30
0.0
 10
-20.0648
 20
13.3273
 30
0.0
 10
-25.7757
 20
13.1251
 30
0.0
 10
-28.519
 20
12.9873
 30
0.0
  0
SPLINE
  5
82
330
1F
100
AcDbEntity
  8
layer 1
 62
     7
370
    13
100
AcDbSpline
210
0.0
220
0.0
230
1.0
 70
    11
 71
     3
 72
    20
 73
    16
 74
     0
 42
0.0000000001
 43
0.0000000001
 12
1.0
 22
0.0
 32
0.0
 13
1.0
 23
0.0
 33
0.0
 40
0.0
 40
0.0
 40
0.0
 40
0.0
 40
0.2
 40
0.2
 40
0.2
 40
0.2
 40
0.4
 40
0.4
 40
0.4
 40
0.4
 40
0.6
 40
0.6
 40
0.6
 40
0.6
 40
1.0
 40
1.0
 40
1.0
 40
1.0
 10
-36.9343
 20
13.1202
 30
0.0
 10
-36.6596
 20
14.5929
 30
0.0
 10
-36.2602
 20
15.6708
 30
0.0
 10
-36.7046
 20
17.2878
 30
0.0
 10
-36.7046
 20
17.2878
 30
0.0
 10
-34.5524
 20
20.0374
 30
0.0
 10
-30.566
 20
20.5379
 30
0.0
 10
-28.1147
 20
20.464
 30
0.0
 10
-28.1147
 20
20.464
 30
0.0
 10
-29.2723
 20
17.0301
 30
0.0
 10
-30.7588
 20
14.3088
 30
0.0
 10
-32.6186
 20
13.2079
 30
0.0
 10
-32.6186
 20
13.2079
 30
0.0
 10
-34.0574
 20
13.4798
 30
0.0
 10
-35.5129
 20
13.392
 30
0.0
 10
-36.9343
 20
13.1202
 30
0.0
  0
SPLINE
  5
83
330
1F
100
AcDbEntity
  8
layer 1
 62
     7
100
AcDbSpline
210
0.0
220
0.0
230
1.0
 70
    11
 71
     3
 72
    20
 73
    16
 74
     0
 42
0.0000000001
 43
0.0000000001
 12
1.0
 22
0.0
 32
0.0
 13
1.0
 23
0.0
 33
0.0
 40
0.0
 40
0.0
 40
0.0
 40
0.0
 40
0.2
 40
0.2
 40
0.2
 40
0.2
 40
0.4
 40
0.4
 40
0.4
 40
0.4
 40
0.6
 40
0.6
 40
0.6
 40
0.6
 40
1.0
 40
1.0
 40
1.0
 40
1.0
 10
-39.2558
 20
17.9019
 30
0.0
 10
-40.2915
 20
17.5259
 30
0.0
 10
-41.7753
 20
15.7221
 30
0.0
 10
-42.2485
 20
14.7618
 30
0.0
 10
-42.2485
 20
14.7618
 30
0.0
 10
-42.7211
 20
15.7221
 30
0.0
 10
-44.202
 20
17.5257
 30
0.0
 10
-45.2415
 20
17.9017
 30
0.0
 10
-45.2415
 20
17.9017
 30
0.0
 10
-46.014
 20
20.901
 30
0.0
 10
-44.0831
 20
27.0808
 30
0.0
 10
-42.2485
 20
27.2084
 30
0.0
 10
-42.2485
 20
27.2084
 30
0.0
 10
-40.4105
 20
27.081
 30
0.0
 10
-38.4796
 20
20.9004
 30
0.0
 10
-39.2558
 20
17.9019
 30
0.0
  0
SPLINE
  5
84
330
1F
100
AcDbEntity
  8
layer 1
370
    13
100
AcDbSpline
210
0.0
220
0.0
230
1.0
 70
    11
 71
     3
 72
    20
 73
    16
 74
     0
 42
0.0000000001
 43
0.0000000001
 12
1.0
 22
0.0
 32
0.0
 13
1.0
 23
0.0
 33
0.0
 40
0.0
 40
0.0
 40
0.0
 40
0.0
 40
0.2
 40
0.2
 40
0.2
 40
0.2
 40
0.4
 40
0.4
 40
0.4
 40
0.4
 40
0.6
 40
0.6
 40
0.6
 40
0.6
 40
1.0
 40
1.0
 40
1.0
 40
1.0
 10
-39.2558
 20
17.9019
 30
0.0
 10
-40.2915
 20
17.5259
 30
0.0
 10
-41.7753
 20
15.7215
 30
0.0
 10
-42.2485
 20
14.7618
 30
0.0
 10
-42.2485
 20
14.7618
 30
0.0
 10
-42.7211
 20
15.7221
 30
0.0
 10
-44.202
 20
17.5257
 30
0.0
 10
-45.2415
 20
17.9017
 30
0.0
 10
-45.2415
 20
17.9017
 30
0.0
 10
-46.014
 20
20.901
 30
0.0
 10
-44.0831
 20
27.0808
 30
0.0
 10
-42.2485
 20
27.2084
 30
0.0
 10
-42.2485
 20
27.2084
 30
0.0
 10
-40.4105
 20
27.081
 30
0.0
 10
-38.4796
 20
20.9004
 30
0.0
 10
-39.2558
 20
17.9019
 30
0.0
  0
SPLINE
  5
85
330
1F
100
AcDbEntity
  8
layer 1
 62
     7
100
AcDbSpline
210
0.0
220
0.0
230
1.0
 70
    11
 71
     3
 72
    16
 73
    12
 74
     0
 42
0.0000000001
 43
0.0000000001
 12
1.0
 22
0.0
 32
0.0
 13
1.0
 23
0.0
 33
0.0
 40
0.0
 40
0.0
 40
0.0
 40
0.0
 40
0.25
 40
0.25
 40
0.25
 40
0.25
 40
0.5
 40
0.5
 40
0.5
 40
0.5
 40
1.0
 40
1.0
 40
1.0
 40
1.0
 10
-8.6149
 20
120.5436
 30
0.0
 10
-10.3703
 20
117.4011
 30
0.0
 10
-12.3041
 20
115.4131
 30
0.0
 10
-15.3115
 20
112.884
 30
0.0
 10
-15.3115
 20
112.884
 30
0.0
 10
-12.1143
 20
113.0655
 30
0.0
 10
-9.357
 20
111.8171
 30
0.0
 10
-8.7113
 20
109.1613
 30
0.0
 10
-8.7113
 20
109.1613
 30
0.0
 10
-8.7113
 20
109.1613
 30
0.0
 10
-8.6149
 20
120.5436
 30
0.0
 10
-8.6149
 20
120.5436
 30
0.0
  0
SPLINE
  5
86
330
1F
100
AcDbEntity
  8
layer 1
370
     5
100
AcDbSpline
210
0.0
220
0.0
230
1.0
 70
    11
 71
     3
 72
    16
 73
    12
 74
     0
 42
0.0000000001
 43
0.0000000001
 12
1.0
 22
0.0
 32
0.0
 13
1.0
 23
0.0
 33
0.0
 40
0.0
 40
0.0
 40
0.0
 40
0.0
 40
0.25
 40
0.25
 40
0.25
 40
0.25
 40
0.5
 40
0.5
 40
0.5
 40
0.5
 40
1.0
 40
1.0
 40
1.0
 40
1.0
 10
-8.6149
 20
120.5436
 30
0.0
 10
-10.3703
 20
117.4011
 30
0.0
 10
-12.3041
 20
115.4128
 30
0.0
 10
-15.3115
 20
112.884
 30
0.0
 10
-15.3115
 20
112.884
 30
0.0
 10
-12.1143
 20
113.0655
 30
0.0
 10
-9.357
 20
111.8171
 30
0.0
 10
-8.7113
 20
109.1613
 30
0.0
 10
-8.7113
 20
109.1613
 30
0.0
 10
-8.7113
 20
109.1613
 30
0.0
 10
-8.6149
 20
120.5436
 30
0.0
 10
-8.6149
 20
120.5436
 30
0.0
  0
SPLINE
  5
87
330
1F
100
AcDbEntity
  8
layer 1
 62
     7
100
AcDbSpline
210
0.0
220
0.0
230
1.0
 70
    11
 71
     3
 72
    16
 73
    12
 74
     0
 42
0.0000000001
 43
0.0000000001
 12
1.0
 22
0.0
 32
0.0
 13
1.0
 23
0.0
 33
0.0
 40
0.0
 40
0.0
 40
0.0
 40
0.0
 40
0.25
 40
0.25
 40
0.25
 40
0.25
 40
0.5
 40
0.5
 40
0.5
 40
0.5
 40
1.0
 40
1.0
 40
1.0
 40
1.0
 10
-22.7974
 20
126.9903
 30
0.0
 10
-23.3663
 20
122.6948
 30
0.0
 10
-19.5552
 20
120.37
 30
0.0
 10
-14.9433
 20
121.2027
 30
0.0
 10
-14.9433
 20
121.2027
 30
0.0
 10
-10.6987
 20
121.4071
 30
0.0
 10
-8.6802
 20
124.0991
 30
0.0
 10
-8.6802
 20
126.8911
 30
0.0
 10
-8.6802
 20
126.8911
 30
0.0
 10
-8.6802
 20
126.8911
 30
0.0
 10
-22.7974
 20
126.9903
 30
0.0
 10
-22.7974
 20
126.9903
 30
0.0
  0
SPLINE
  5
88
330
1F
100
AcDbEntity
  8
layer 1
370
     5
100
AcDbSpline
210
0.0
220
0.0
230
1.0
 70
    11
 71
     3
 72
    16
 73
    12
 74
     0
 42
0.0000000001
 43
0.0000000001
 12
1.0
 22
0.0
 32
0.0
 13
1.0
 23
0.0
 33
0.0
 40
0.0
 40
0.0
 40
0.0
 40
0.0
 40
0.25
 40
0.25
 40
0.25
 40
0.25
 40
0.5
 40
0.5
 40
0.5
 40
0.5
 40
1.0
 40
1.0
 40
1.0
 40
1.0
 10
-22.7974
 20
126.9903
 30
0.0
 10
-23.3663
 20
122.6948
 30
0.0
 10
-19.5552
 20
120.37
 30
0.0
 10
-14.9433
 20
121.2027
 30
0.0
 10
-14.9433
 20
121.2027
 30
0.0
 10
-10.6987
 20
121.4071
 30
0.0
 10
-8.6802
 20
124.0991
 30
0.0
 10
-8.6802
 20
126.8905
 30
0.0
 10
-8.6802
 20
126.8905
 30
0.0
 10
-8.6802
 20
126.8905
 30
0.0
 10
-22.7974
 20
126.9903
 30
0.0
 10
-22.7974
 20
126.9903
 30
0.0
  0
SPLINE
  5
89
330
1F
100
AcDbEntity
  8
layer 1
 62
     7
100
AcDbSpline
210
0.0
220
0.0
230
1.0
 70
    11
 71
     3
 72
    60
 73
    56
 74
     0
 42
0.0000000001
 43
0.0000000001
 12
1.0
 22
0.0
 32
0.0
 13
1.0
 23
0.0
 33
0.0
 40
0.0
 40
0.0
 40
0.0
 40
0.0
 40
0.0666666666666667
 40
0.0666666666666667
 40
0.0666666666666667
 40
0.0666666666666667
 40
0.1333333333333333
 40
0.1333333333333333
 40
0.1333333333333333
 40
0.1333333333333333
 40
0.2
 40
0.2
 40
0.2
 40
0.2
 40
0.2666666666666667
 40
0.2666666666666667
 40
0.2666666666666667
 40
0.2666666666666667
 40
0.3333333333333333
 40
0.3333333333333333
 40
0.3333333333333333
 40
0.3333333333333333
 40
0.4
 40
0.4
 40
0.4
 40
0.4
 40
0.4666666666666667
 40
0.4666666666666667
 40
0.4666666666666667
 40
0.4666666666666667
 40
0.5333333333333333
 40
0.5333333333333333
 40
0.5333333333333333
 40
0.5333333333333333
 40
0.6
 40
0.6
 40
0.6
 40
0.6
 40
0.6666666666666666
 40
0.6666666666666666
 40
0.6666666666666666
 40
0.6666666666666666
 40
0.7333333333333333
 40
0.7333333333333333
 40
0.7333333333333333
 40
0.7333333333333333
 40
0.8
 40
0.8
 40
0.8
 40
0.8
 40
0.8666666666666667
 40
0.8666666666666667
 40
0.8666666666666667
 40
0.8666666666666667
 40
1.0
 40
1.0
 40
1.0
 40
1.0
 10
-39.9494
 20
119.9264
 30
0.0
 10
-39.8335
 20
123.131
 30
0.0
 10
-37.7722
 20
120.1294
 30
0.0
 10
-35.5947
 20
121.2818
 30
0.0
 10
-35.5947
 20
121.2818
 30
0.0
 10
-34.3235
 20
122.2732
 30
0.0
 10
-33.6609
 20
122.8561
 30
0.0
 10
-33.6806
 20
124.8211
 30
0.0
 10
-33.6806
 20
124.8211
 30
0.0
 10
-36.2037
 20
121.8378
 30
0.0
 10
-36.6937
 20
123.689
 30
0.0
 10
-37.851
 20
122.961
 30
0.0
 10
-37.851
 20
122.961
 30
0.0
 10
-36.8466
 20
123.9945
 30
0.0
 10
-35.6115
 20
125.9024
 30
0.0
 10
-36.6705
 20
126.4179
 30
0.0
 10
-36.6705
 20
126.4179
 30
0.0
 10
-37.3074
 20
125.3904
 30
0.0
 10
-37.925
 20
125.203
 30
0.0
 10
-38.9014
 20
124.9174
 30
0.0
 10
-38.9014
 20
124.9174
 30
0.0
 10
-39.4312
 20
126.0249
 30
0.0
 10
-39.7682
 20
127.0353
 30
0.0
 10
-40.4816
 20
127.0413
 30
0.0
 10
-40.4816
 20
127.0413
 30
0.0
 10
-36.6734
 20
127.0433
 30
0.0
 10
-29.3881
 20
127.0353
 30
0.0
 10
-25.793
 20
127.0413
 30
0.0
 10
-25.793
 20
127.0413
 30
0.0
 10
-26.5629
 20
122.9695
 30
0.0
 10
-24.8783
 20
120.7382
 30
0.0
 10
-22.1769
 20
119.2944
 30
0.0
 10
-22.1769
 20
119.2944
 30
0.0
 10
-23.6579
 20
119.2521
 30
0.0
 10
-23.4345
 20
117.9382
 30
0.0
 10
-23.4345
 20
117.9382
 30
0.0
 10
-23.4345
 20
117.9382
 30
0.0
 10
-18.3609
 20
116.6329
 30
0.0
 10
-17.4657
 20
116.9388
 30
0.0
 10
-13.0319
 20
118.4107
 30
0.0
 10
-13.0319
 20
118.4107
 30
0.0
 10
-23.2981
 20
109.5689
 30
0.0
 10
-30.6595
 20
107.8842
 30
0.0
 10
-34.2045
 20
110.5399
 30
0.0
 10
-34.2045
 20
110.5399
 30
0.0
 10
-38.0549
 20
113.4283
 30
0.0
 10
-35.0484
 20
115.3136
 30
0.0
 10
-31.775
 20
115.5963
 30
0.0
 10
-31.775
 20
115.5963
 30
0.0
 10
-30.4471
 20
117.8079
 30
0.0
 10
-36.8067
 20
120.9477
 30
0.0
 10
-39.9864
 20
115.8008
 30
0.0
 10
-39.9864
 20
115.8008
 30
0.0
 10
-39.9124
 20
117.7378
 30
0.0
 10
-40.0655
 20
118.0571
 30
0.0
 10
-39.9494
 20
119.9264
 30
0.0
  0
SPLINE
  5
8A
330
1F
100
AcDbEntity
  8
layer 1
370
    13
100
AcDbSpline
210
0.0
220
0.0
230
1.0
 70
    11
 71
     3
 72
    60
 73
    56
 74
     0
 42
0.0000000001
 43
0.0000000001
 12
1.0
 22
0.0
 32
0.0
 13
1.0
 23
0.0
 33
0.0
 40
0.0
 40
0.0
 40
0.0
 40
0.0
 40
0.0666666666666667
 40
0.0666666666666667
 40
0.0666666666666667
 40
0.0666666666666667
 40
0.1333333333333333
 40
0.1333333333333333
 40
0.1333333333333333
 40
0.1333333333333333
 40
0.2
 40
0.2
 40
0.2
 40
0.2
 40
0.2666666666666667
 40
0.2666666666666667
 40
0.2666666666666667
 40
0.2666666666666667
 40
0.3333333333333333
 40
0.3333333333333333
 40
0.3333333333333333
 40
0.3333333333333333
 40
0.4
 40
0.4
 40
0.4
 40
0.4
 40
0.4666666666666667
 40
0.4666666666666667
 40
0.4666666666666667
 40
0.4666666666666667
 40
0.5333333333333333
 40
0.5333333333333333
 40
0.5333333333333333
 40
0.5333333333333333
 40
0.6
 40
0.6
 40
0.6
 40
0.6
 40
0.6666666666666666
 40
0.6666666666666666
 40
0.6666666666666666
 40
0.6666666666666666
 40
0.7333333333333333
 40
0.7333333333333333
 40
0.7333333333333333
 40
0.7333333333333333
 40
0.8
 40
0.8
 40
0.8
 40
0.8
 40
0.8666666666666667
 40
0.8666666666666667
 40
0.8666666666666667
 40
0.8666666666666667
 40
1.0
 40
1.0
 40
1.0
 40
1.0
 10
-39.9494
 20
119.9264
 30
0.0
 10
-39.8335
 20
123.131
 30
0.0
 10
-37.7722
 20
120.1292
 30
0.0
 10
-35.5947
 20
121.2818
 30
0.0
 10
-35.5947
 20
121.2818
 30
0.0
 10
-34.3235
 20
122.2732
 30
0.0
 10
-33.6609
 20
122.8561
 30
0.0
 10
-33.6806
 20
124.8211
 30
0.0
 10
-33.6806
 20
124.8211
 30
0.0
 10
-36.2037
 20
121.8378
 30
0.0
 10
-36.6937
 20
123.689
 30
0.0
 10
-37.851
 20
122.961
 30
0.0
 10
-37.851
 20
122.961
 30
0.0
 10
-36.8466
 20
123.9945
 30
0.0
 10
-35.6115
 20
125.9024
 30
0.0
 10
-36.6705
 20
126.4177
 30
0.0
 10
-36.6705
 20
126.4177
 30
0.0
 10
-37.3074
 20
125.3904
 30
0.0
 10
-37.925
 20
125.203
 30
0.0
 10
-38.9014
 20
124.9174
 30
0.0
 10
-38.9014
 20
124.9174
 30
0.0
 10
-39.4312
 20
126.0249
 30
0.0
 10
-39.7682
 20
127.0353
 30
0.0
 10
-40.4816
 20
127.0413
 30
0.0
 10
-40.4816
 20
127.0413
 30
0.0
 10
-36.6734
 20
127.0433
 30
0.0
 10
-29.3881
 20
127.0353
 30
0.0
 10
-25.793
 20
127.0413
 30
0.0
 10
-25.793
 20
127.0413
 30
0.0
 10
-26.5629
 20
122.9695
 30
0.0
 10
-24.8783
 20
120.7382
 30
0.0
 10
-22.1769
 20
119.2942
 30
0.0
 10
-22.1769
 20
119.2942
 30
0.0
 10
-23.6579
 20
119.2521
 30
0.0
 10
-23.4345
 20
117.9382
 30
0.0
 10
-23.4345
 20
117.9382
 30
0.0
 10
-23.4345
 20
117.9382
 30
0.0
 10
-18.3609
 20
116.6329
 30
0.0
 10
-17.4657
 20
116.9386
 30
0.0
 10
-13.0319
 20
118.4107
 30
0.0
 10
-13.0319
 20
118.4107
 30
0.0
 10
-23.2981
 20
109.5689
 30
0.0
 10
-30.6595
 20
107.8842
 30
0.0
 10
-34.2045
 20
110.5399
 30
0.0
 10
-34.2045
 20
110.5399
 30
0.0
 10
-38.0549
 20
113.4283
 30
0.0
 10
-35.0484
 20
115.3136
 30
0.0
 10
-31.775
 20
115.5963
 30
0.0
 10
-31.775
 20
115.5963
 30
0.0
 10
-30.4471
 20
117.8079
 30
0.0
 10
-36.8067
 20
120.9477
 30
0.0
 10
-39.9864
 20
115.8008
 30
0.0
 10
-39.9864
 20
115.8008
 30
0.0
 10
-39.9124
 20
117.7378
 30
0.0
 10
-40.0655
 20
118.0571
 30
0.0
 10
-39.9494
 20
119.9264
 30
0.0
  0
SPLINE
  5
8B
330
1F
100
AcDbEntity
  8
layer 1
 62
     7
100
AcDbSpline
210
0.0
220
0.0
230
1.0
 70
    11
 71
     3
 72
    16
 73
    12
 74
     0
 42
0.0000000001
 43
0.0000000001
 12
1.0
 22
0.0
 32
0.0
 13
1.0
 23
0.0
 33
0.0
 40
0.0
 40
0.0
 40
0.0
 40
0.0
 40
0.25
 40
0.25
 40
0.25
 40
0.25
 40
0.5
 40
0.5
 40
0.5
 40
0.5
 40
1.0
 40
1.0
 40
1.0
 40
1.0
 10
-40.3938
 20
29.7033
 30
0.0
 10
-40.4931
 20
31.1132
 30
0.0
 10
-41.3252
 20
32.9025
 30
0.0
 10
-42.2485
 20
33.8476
 30
0.0
 10
-42.2485
 20
33.8476
 30
0.0
 10
-43.1684
 20
32.9031
 30
0.0
 10
-44.0013
 20
31.113
 30
0.0
 10
-44.0997
 20
29.7033
 30
0.0
 10
-44.0997
 20
29.7033
 30
0.0
 10
-42.4269
 20
31.2689
 30
0.0
 10
-41.9847
 20
31.2971
 30
0.0
 10
-40.3938
 20
29.7033
 30
0.0
  0
SPLINE
  5
8C
330
1F
100
AcDbEntity
  8
layer 1
370
    13
100
AcDbSpline
210
0.0
220
0.0
230
1.0
 70
    11
 71
     3
 72
    16
 73
    12
 74
     0
 42
0.0000000001
 43
0.0000000001
 12
1.0
 22
0.0
 32
0.0
 13
1.0
 23
0.0
 33
0.0
 40
0.0
 40
0.0
 40
0.0
 40
0.0
 40
0.25
 40
0.25
 40
0.25
 40
0.25
 40
0.5
 40
0.5
 40
0.5
 40
0.5
 40
1.0
 40
1.0
 40
1.0
 40
1.0
 10
-40.3938
 20
29.7033
 30
0.0
 10
-40.4931
 20
31.1132
 30
0.0
 10
-41.3252
 20
32.9025
 30
0.0
 10
-42.2485
 20
33.8478
 30
0.0
 10
-42.2485
 20
33.8478
 30
0.0
 10
-43.1684
 20
32.9031
 30
0.0
 10
-44.0013
 20
31.113
 30
0.0
 10
-44.0997
 20
29.7031
 30
0.0
 10
-44.0997
 20
29.7031
 30
0.0
 10
-42.4269
 20
31.2689
 30
0.0
 10
-41.9847
 20
31.2971
 30
0.0
 10
-40.3938
 20
29.7033
 30
0.0
  0
SPLINE
  5
8D
330
1F
100
AcDbEntity
  8
layer 1
 62
     7
370
    13
100
AcDbSpline
210
0.0
220
0.0
230
1.0
 70
    11
 71
     3
 72
    12
 73
     8
 74
     0
 42
0.0000000001
 43
0.0000000001
 12
1.0
 22
0.0
 32
0.0
 13
1.0
 23
0.0
 33
0.0
 40
0.0
 40
0.0
 40
0.0
 40
0.0
 40
0.3333333333333333
 40
0.3333333333333333
 40
0.3333333333333333
 40
0.3333333333333333
 40
1.0
 40
1.0
 40
1.0
 40
1.0
 10
-38.2476
 20
16.965
 30
0.0
 10
-39.89
 20
16.2294
 30
0.0
 10
-41.5267
 20
13.5245
 30
0.0
 10
-41.3507
 20
11.2624
 30
0.0
 10
-41.3507
 20
11.2624
 30
0.0
 10
-39.2928
 20
12.1685
 30
0.0
 10
-38.2135
 20
14.9118
 30
0.0
 10
-38.2476
 20
16.965
 30
0.0
  0
SPLINE
  5
8E
330
1F
100
AcDbEntity
  8
layer 1
 62
     7
100
AcDbSpline
210
0.0
220
0.0
230
1.0
 70
    11
 71
     3
 72
    12
 73
     8
 74
     0
 42
0.0000000001
 43
0.0000000001
 12
1.0
 22
0.0
 32
0.0
 13
1.0
 23
0.0
 33
0.0
 40
0.0
 40
0.0
 40
0.0
 40
0.0
 40
0.3333333333333333
 40
0.3333333333333333
 40
0.3333333333333333
 40
0.3333333333333333
 40
1.0
 40
1.0
 40
1.0
 40
1.0
 10
-34.6097
 20
11.3393
 30
0.0
 10
-36.2883
 20
11.9787
 30
0.0
 10
-39.5247
 20
11.2567
 30
0.0
 10
-40.8331
 20
9.501
 30
0.0
 10
-40.8331
 20
9.501
 30
0.0
 10
-38.7376
 20
8.686
 30
0.0
 10
-36.0362
 20
9.8635
 30
0.0
 10
-34.6097
 20
11.3393
 30
0.0
  0
SPLINE
  5
8F
330
1F
100
AcDbEntity
  8
layer 1
370
    13
100
AcDbSpline
210
0.0
220
0.0
230
1.0
 70
    11
 71
     3
 72
    12
 73
     8
 74
     0
 42
0.0000000001
 43
0.0000000001
 12
1.0
 22
0.0
 32
0.0
 13
1.0
 23
0.0
 33
0.0
 40
0.0
 40
0.0
 40
0.0
 40
0.0
 40
0.3333333333333333
 40
0.3333333333333333
 40
0.3333333333333333
 40
0.3333333333333333
 40
1.0
 40
1.0
 40
1.0
 40
1.0
 10
-34.6097
 20
11.3393
 30
0.0
 10
-36.2883
 20
11.9787
 30
0.0
 10
-39.5247
 20
11.2565
 30
0.0
 10
-40.8331
 20
9.501
 30
0.0
 10
-40.8331
 20
9.501
 30
0.0
 10
-38.7376
 20
8.686
 30
0.0
 10
-36.0362
 20
9.8635
 30
0.0
 10
-34.6097
 20
11.3393
 30
0.0
  0
SPLINE
  5
90
330
1F
100
AcDbEntity
  8
layer 1
 62
     7
370
     9
100
AcDbSpline
210
0.0
220
0.0
230
1.0
 70
    11
 71
     3
 72
    16
 73
    12
 74
     0
 42
0.0000000001
 43
0.0000000001
 12
1.0
 22
0.0
 32
0.0
 13
1.0
 23
0.0
 33
0.0
 40
0.0
 40
0.0
 40
0.0
 40
0.0
 40
0.25
 40
0.25
 40
0.25
 40
0.25
 40
0.5
 40
0.5
 40
0.5
 40
0.5
 40
1.0
 40
1.0
 40
1.0
 40
1.0
 10
-52.0872
 20
-34.5648
 30
0.0
 10
-48.8286
 20
-38.2789
 30
0.0
 10
-48.024
 20
-39.1008
 30
0.0
 10
-45.1305
 20
-42.0711
 30
0.0
 10
-45.1305
 20
-42.0711
 30
0.0
 10
-48.8169
 20
-45.1399
 30
0.0
 10
-50.6261
 20
-49.8318
 30
0.0
 10
-51.2154
 20
-53.903
 30
0.0
 10
-51.2154
 20
-53.903
 30
0.0
 10
-53.9334
 20
-50.1402
 30
0.0
 10
-58.9274
 20
-41.3913
 30
0.0
 10
-52.0872
 20
-34.5648
 30
0.0
  0
SPLINE
  5
91
330
1F
100
AcDbEntity
  8
layer 1
 62
     7
100
AcDbSpline
210
0.0
220
0.0
230
1.0
 70
    11
 71
     3
 72
    28
 73
    24
 74
     0
 42
0.0000000001
 43
0.0000000001
 12
1.0
 22
0.0
 32
0.0
 13
1.0
 23
0.0
 33
0.0
 40
0.0
 40
0.0
 40
0.0
 40
0.0
 40
0.1428571428571428
 40
0.1428571428571428
 40
0.1428571428571428
 40
0.1428571428571428
 40
0.2857142857142857
 40
0.2857142857142857
 40
0.2857142857142857
 40
0.2857142857142857
 40
0.4285714285714285
 40
0.4285714285714285
 40
0.4285714285714285
 40
0.4285714285714285
 40
0.5714285714285714
 40
0.5714285714285714
 40
0.5714285714285714
 40
0.5714285714285714
 40
0.7142857142857143
 40
0.7142857142857143
 40
0.7142857142857143
 40
0.7142857142857143
 40
1.0
 40
1.0
 40
1.0
 40
1.0
 10
-75.8815
 20
-57.0027
 30
0.0
 10
-74.2029
 20
-59.5794
 30
0.0
 10
-69.4576
 20
-60.2706
 30
0.0
 10
-66.4756
 20
-58.5665
 30
0.0
 10
-66.4756
 20
-58.5665
 30
0.0
 10
-67.8034
 20
-64.5372
 30
0.0
 10
-64.8027
 20
-68.1081
 30
0.0
 10
-63.0248
 20
-69.4438
 30
0.0
 10
-63.0248
 20
-69.4438
 30
0.0
 10
-63.166
 20
-69.8056
 30
0.0
 10
-63.5909
 20
-69.8013
 30
0.0
 10
-64.0867
 20
-69.3279
 30
0.0
 10
-64.0867
 20
-69.3279
 30
0.0
 10
-64.8506
 20
-68.5995
 30
0.0
 10
-65.1144
 20
-68.1471
 30
0.0
 10
-66.0878
 20
-68.1023
 30
0.0
 10
-66.0878
 20
-68.1023
 30
0.0
 10
-69.9388
 20
-67.9236
 30
0.0
 10
-71.8835
 20
-67.9377
 30
0.0
 10
-75.7823
 20
-67.9268
 30
0.0
 10
-75.7823
 20
-67.9268
 30
0.0
 10
-75.7823
 20
-67.9268
 30
0.0
 10
-75.8815
 20
-57.0027
 30
0.0
 10
-75.8815
 20
-57.0027
 30
0.0
  0
SPLINE
  5
92
330
1F
100
AcDbEntity
  8
layer 1
370
    13
100
AcDbSpline
210
0.0
220
0.0
230
1.0
 70
    11
 71
     3
 72
    28
 73
    24
 74
     0
 42
0.0000000001
 43
0.0000000001
 12
1.0
 22
0.0
 32
0.0
 13
1.0
 23
0.0
 33
0.0
 40
0.0
 40
0.0
 40
0.0
 40
0.0
 40
0.1428571428571428
 40
0.1428571428571428
 40
0.1428571428571428
 40
0.1428571428571428
 40
0.2857142857142857
 40
0.2857142857142857
 40
0.2857142857142857
 40
0.2857142857142857
 40
0.4285714285714285
 40
0.4285714285714285
 40
0.4285714285714285
 40
0.4285714285714285
 40
0.5714285714285714
 40
0.5714285714285714
 40
0.5714285714285714
 40
0.5714285714285714
 40
0.7142857142857143
 40
0.7142857142857143
 40
0.7142857142857143
 40
0.7142857142857143
 40
1.0
 40
1.0
 40
1.0
 40
1.0
 10
-75.8815
 20
-57.0027
 30
0.0
 10
-74.2029
 20
-59.5794
 30
0.0
 10
-69.4576
 20
-60.2706
 30
0.0
 10
-66.4756
 20
-58.5665
 30
0.0
 10
-66.4756
 20
-58.5665
 30
0.0
 10
-67.8034
 20
-64.5372
 30
0.0
 10
-64.8027
 20
-68.1081
 30
0.0
 10
-63.0248
 20
-69.4446
 30
0.0
 10
-63.0248
 20
-69.4446
 30
0.0
 10
-63.166
 20
-69.8064
 30
0.0
 10
-63.5909
 20
-69.8013
 30
0.0
 10
-64.0867
 20
-69.3279
 30
0.0
 10
-64.0867
 20
-69.3279
 30
0.0
 10
-64.8506
 20
-68.5995
 30
0.0
 10
-65.1144
 20
-68.1473
 30
0.0
 10
-66.0878
 20
-68.1023
 30
0.0
 10
-66.0878
 20
-68.1023
 30
0.0
 10
-69.9388
 20
-67.9236
 30
0.0
 10
-71.8835
 20
-67.9377
 30
0.0
 10
-75.7823
 20
-67.9268
 30
0.0
 10
-75.7823
 20
-67.9268
 30
0.0
 10
-75.7823
 20
-67.9268
 30
0.0
 10
-75.8815
 20
-57.0027
 30
0.0
 10
-75.8815
 20
-57.0027
 30
0.0
  0
SPLINE
  5
93
330
1F
100
AcDbEntity
  8
layer 1
 62
     7
100
AcDbSpline
210
0.0
220
0.0
230
1.0
 70
    11
 71
     3
 72
    16
 73
    12
 74
     0
 42
0.0000000001
 43
0.0000000001
 12
1.0
 22
0.0
 32
0.0
 13
1.0
 23
0.0
 33
0.0
 40
0.0
 40
0.0
 40
0.0
 40
0.0
 40
0.25
 40
0.25
 40
0.25
 40
0.25
 40
0.5
 40
0.5
 40
0.5
 40
0.5
 40
1.0
 40
1.0
 40
1.0
 40
1.0
 10
-75.8815
 20
-78.5526
 30
0.0
 10
-74.9046
 20
-75.2786
 30
0.0
 10
-70.955
 20
-73.097
 30
0.0
 10
-67.1643
 20
-72.4568
 30
0.0
 10
-67.1643
 20
-72.4568
 30
0.0
 10
-71.142
 20
-72.5047
 30
0.0
 10
-71.8835
 20
-72.4287
 30
0.0
 10
-75.7823
 20
-72.3771
 30
0.0
 10
-75.7823
 20
-72.3771
 30
0.0
 10
-75.7823
 20
-72.3771
 30
0.0
 10
-75.8815
 20
-78.5526
 30
0.0
 10
-75.8815
 20
-78.5526
 30
0.0
  0
SPLINE
  5
94
330
1F
100
AcDbEntity
  8
layer 1
370
     5
100
AcDbSpline
210
0.0
220
0.0
230
1.0
 70
    11
 71
     3
 72
    16
 73
    12
 74
     0
 42
0.0000000001
 43
0.0000000001
 12
1.0
 22
0.0
 32
0.0
 13
1.0
 23
0.0
 33
0.0
 40
0.0
 40
0.0
 40
0.0
 40
0.0
 40
0.25
 40
0.25
 40
0.25
 40
0.25
 40
0.5
 40
0.5
 40
0.5
 40
0.5
 40
1.0
 40
1.0
 40
1.0
 40
1.0
 10
-75.8815
 20
-78.5526
 30
0.0
 10
-74.9046
 20
-75.2786
 30
0.0
 10
-70.955
 20
-73.0968
 30
0.0
 10
-67.1643
 20
-72.4568
 30
0.0
 10
-67.1643
 20
-72.4568
 30
0.0
 10
-71.142
 20
-72.5047
 30
0.0
 10
-71.8835
 20
-72.4287
 30
0.0
 10
-75.7823
 20
-72.3771
 30
0.0
 10
-75.7823
 20
-72.3771
 30
0.0
 10
-75.7823
 20
-72.3771
 30
0.0
 10
-75.8815
 20
-78.5526
 30
0.0
 10
-75.8815
 20
-78.5526
 30
0.0
  0
SPLINE
  5
95
330
1F
100
AcDbEntity
  8
layer 1
 62
     7
370
    13
100
AcDbSpline
210
0.0
220
0.0
230
1.0
 70
    11
 71
     3
 72
    16
 73
    12
 74
     0
 42
0.0000000001
 43
0.0000000001
 12
1.0
 22
0.0
 32
0.0
 13
1.0
 23
0.0
 33
0.0
 40
0.0
 40
0.0
 40
0.0
 40
0.0
 40
0.25
 40
0.25
 40
0.25
 40
0.25
 40
0.5
 40
0.5
 40
0.5
 40
0.5
 40
1.0
 40
1.0
 40
1.0
 40
1.0
 10
-51.6255
 20
-74.9061
 30
0.0
 10
-47.9732
 20
-76.5132
 30
0.0
 10
-45.7255
 20
-82.0463
 30
0.0
 10
-44.5166
 20
-86.1544
 30
0.0
 10
-44.5166
 20
-86.1544
 30
0.0
 10
-44.5673
 20
-82.1763
 30
0.0
 10
-44.6775
 20
-77.7626
 30
0.0
 10
-44.6267
 20
-73.8638
 30
0.0
 10
-44.6267
 20
-73.8638
 30
0.0
 10
-46.2858
 20
-74.5913
 30
0.0
 10
-48.7661
 20
-74.8749
 30
0.0
 10
-51.6255
 20
-74.9061
 30
0.0
  0
SPLINE
  5
96
330
1F
100
AcDbEntity
  8
layer 1
 62
     7
100
AcDbSpline
210
0.0
220
0.0
230
1.0
 70
    11
 71
     3
 72
    32
 73
    28
 74
     0
 42
0.0000000001
 43
0.0000000001
 12
1.0
 22
0.0
 32
0.0
 13
1.0
 23
0.0
 33
0.0
 40
0.0
 40
0.0
 40
0.0
 40
0.0
 40
0.125
 40
0.125
 40
0.125
 40
0.125
 40
0.25
 40
0.25
 40
0.25
 40
0.25
 40
0.375
 40
0.375
 40
0.375
 40
0.375
 40
0.5
 40
0.5
 40
0.5
 40
0.5
 40
0.625
 40
0.625
 40
0.625
 40
0.625
 40
0.75
 40
0.75
 40
0.75
 40
0.75
 40
1.0
 40
1.0
 40
1.0
 40
1.0
 10
-62.9197
 20
-62.2009
 30
0.0
 10
-60.4821
 20
-70.2483
 30
0.0
 10
-53.4181
 20
-71.9358
 30
0.0
 10
-46.3366
 20
-70.9818
 30
0.0
 10
-46.3366
 20
-70.9818
 30
0.0
 10
-50.0318
 20
-67.5697
 30
0.0
 10
-50.9545
 20
-66.1938
 30
0.0
 10
-51.7531
 20
-62.6182
 30
0.0
 10
-51.7531
 20
-62.6182
 30
0.0
 10
-52.2772
 20
-66.066
 30
0.0
 10
-56.2406
 20
-66.5932
 30
0.0
 10
-58.3301
 20
-65.1601
 30
0.0
 10
-58.3301
 20
-65.1601
 30
0.0
 10
-62.5798
 20
-62.2442
 30
0.0
 10
-59.9668
 20
-56.2218
 30
0.0
 10
-57.087
 20
-59.6675
 30
0.0
 10
-57.087
 20
-59.6675
 30
0.0
 10
-58.8571
 20
-59.82
 30
0.0
 10
-58.0106
 20
-62.7088
 30
0.0
 10
-55.7961
 20
-62.1877
 30
0.0
 10
-55.7961
 20
-62.1877
 30
0.0
 10
-52.8883
 20
-61.5013
 30
0.0
 10
-53.2651
 20
-57.9606
 30
0.0
 10
-54.7119
 20
-56.5501
 30
0.0
 10
-54.7119
 20
-56.5501
 30
0.0
 10
-56.8863
 20
-54.2481
 30
0.0
 10
-64.6441
 20
-54.3307
 30
0.0
 10
-62.9197
 20
-62.2009
 30
0.0
  0
SPLINE
  5
97
330
1F
100
AcDbEntity
  8
layer 1
370
    13
100
AcDbSpline
210
0.0
220
0.0
230
1.0
 70
    11
 71
     3
 72
    32
 73
    28
 74
     0
 42
0.0000000001
 43
0.0000000001
 12
1.0
 22
0.0
 32
0.0
 13
1.0
 23
0.0
 33
0.0
 40
0.0
 40
0.0
 40
0.0
 40
0.0
 40
0.125
 40
0.125
 40
0.125
 40
0.125
 40
0.25
 40
0.25
 40
0.25
 40
0.25
 40
0.375
 40
0.375
 40
0.375
 40
0.375
 40
0.5
 40
0.5
 40
0.5
 40
0.5
 40
0.625
 40
0.625
 40
0.625
 40
0.625
 40
0.75
 40
0.75
 40
0.75
 40
0.75
 40
1.0
 40
1.0
 40
1.0
 40
1.0
 10
-62.9197
 20
-62.2009
 30
0.0
 10
-60.4821
 20
-70.2483
 30
0.0
 10
-53.4181
 20
-71.9358
 30
0.0
 10
-46.3366
 20
-70.9818
 30
0.0
 10
-46.3366
 20
-70.9818
 30
0.0
 10
-50.0318
 20
-67.5697
 30
0.0
 10
-50.9545
 20
-66.1938
 30
0.0
 10
-51.7531
 20
-62.6182
 30
0.0
 10
-51.7531
 20
-62.6182
 30
0.0
 10
-52.2772
 20
-66.066
 30
0.0
 10
-56.2406
 20
-66.5932
 30
0.0
 10
-58.3301
 20
-65.1603
 30
0.0
 10
-58.3301
 20
-65.1603
 30
0.0
 10
-62.5798
 20
-62.2442
 30
0.0
 10
-59.9668
 20
-56.2218
 30
0.0
 10
-57.087
 20
-59.6675
 30
0.0
 10
-57.087
 20
-59.6675
 30
0.0
 10
-58.8571
 20
-59.82
 30
0.0
 10
-58.0106
 20
-62.7088
 30
0.0
 10
-55.7961
 20
-62.1877
 30
0.0
 10
-55.7961
 20
-62.1877
 30
0.0
 10
-52.8883
 20
-61.5013
 30
0.0
 10
-53.2651
 20
-57.9606
 30
0.0
 10
-54.7119
 20
-56.5501
 30
0.0
 10
-54.7119
 20
-56.5501
 30
0.0
 10
-56.8863
 20
-54.2481
 30
0.0
 10
-64.6441
 20
-54.3307
 30
0.0
 10
-62.9197
 20
-62.2009
 30
0.0
  0
SPLINE
  5
98
330
1F
100
AcDbEntity
  8
layer 1
 62
     7
100
AcDbSpline
210
0.0
220
0.0
230
1.0
 70
    11
 71
     3
 72
    36
 73
    32
 74
     0
 42
0.0000000001
 43
0.0000000001
 12
1.0
 22
0.0
 32
0.0
 13
1.0
 23
0.0
 33
0.0
 40
0.0
 40
0.0
 40
0.0
 40
0.0
 40
0.1111111111111111
 40
0.1111111111111111
 40
0.1111111111111111
 40
0.1111111111111111
 40
0.2222222222222222
 40
0.2222222222222222
 40
0.2222222222222222
 40
0.2222222222222222
 40
0.3333333333333333
 40
0.3333333333333333
 40
0.3333333333333333
 40
0.3333333333333333
 40
0.4444444444444444
 40
0.4444444444444444
 40
0.4444444444444444
 40
0.4444444444444444
 40
0.5555555555555556
 40
0.5555555555555556
 40
0.5555555555555556
 40
0.5555555555555556
 40
0.6666666666666666
 40
0.6666666666666666
 40
0.6666666666666666
 40
0.6666666666666666
 40
0.7777777777777778
 40
0.7777777777777778
 40
0.7777777777777778
 40
0.7777777777777778
 40
1.0
 40
1.0
 40
1.0
 40
1.0
 10
-67.0141
 20
-75.9367
 30
0.0
 10
-58.8542
 20
-73.9063
 30
0.0
 10
-50.2245
 20
-76.511
 30
0.0
 10
-46.2829
 20
-90.4896
 30
0.0
 10
-46.2829
 20
-90.4896
 30
0.0
 10
-50.1135
 20
-85.288
 30
0.0
 10
-57.9054
 20
-86.9699
 30
0.0
 10
-60.9156
 20
-89.6713
 30
0.0
 10
-60.9156
 20
-89.6713
 30
0.0
 10
-58.1293
 20
-86.5111
 30
0.0
 10
-59.4231
 20
-82.7826
 30
0.0
 10
-62.1216
 20
-81.3389
 30
0.0
 10
-62.1216
 20
-81.3389
 30
0.0
 10
-65.8986
 20
-79.3165
 30
0.0
 10
-70.8644
 20
-81.1918
 30
0.0
 10
-70.0947
 20
-86.251
 30
0.0
 10
-70.0947
 20
-86.251
 30
0.0
 10
-68.2281
 20
-83.3318
 30
0.0
 10
-64.9332
 20
-84.4165
 30
0.0
 10
-64.1569
 20
-86.8425
 30
0.0
 10
-64.1569
 20
-86.8425
 30
0.0
 10
-63.4234
 20
-89.1441
 30
0.0
 10
-64.6186
 20
-92.0068
 30
0.0
 10
-67.8891
 20
-92.2901
 30
0.0
 10
-67.8891
 20
-92.2901
 30
0.0
 10
-71.1703
 20
-92.5467
 30
0.0
 10
-75.8135
 20
-88.853
 30
0.0
 10
-74.0862
 20
-82.1993
 30
0.0
 10
-74.0862
 20
-82.1993
 30
0.0
 10
-72.4836
 20
-78.4587
 30
0.0
 10
-70.7397
 20
-77.1255
 30
0.0
 10
-67.0141
 20
-75.9367
 30
0.0
  0
SPLINE
  5
99
330
1F
100
AcDbEntity
  8
layer 1
370
    13
100
AcDbSpline
210
0.0
220
0.0
230
1.0
 70
    11
 71
     3
 72
    36
 73
    32
 74
     0
 42
0.0000000001
 43
0.0000000001
 12
1.0
 22
0.0
 32
0.0
 13
1.0
 23
0.0
 33
0.0
 40
0.0
 40
0.0
 40
0.0
 40
0.0
 40
0.1111111111111111
 40
0.1111111111111111
 40
0.1111111111111111
 40
0.1111111111111111
 40
0.2222222222222222
 40
0.2222222222222222
 40
0.2222222222222222
 40
0.2222222222222222
 40
0.3333333333333333
 40
0.3333333333333333
 40
0.3333333333333333
 40
0.3333333333333333
 40
0.4444444444444444
 40
0.4444444444444444
 40
0.4444444444444444
 40
0.4444444444444444
 40
0.5555555555555556
 40
0.5555555555555556
 40
0.5555555555555556
 40
0.5555555555555556
 40
0.6666666666666666
 40
0.6666666666666666
 40
0.6666666666666666
 40
0.6666666666666666
 40
0.7777777777777778
 40
0.7777777777777778
 40
0.7777777777777778
 40
0.7777777777777778
 40
1.0
 40
1.0
 40
1.0
 40
1.0
 10
-67.0141
 20
-75.9367
 30
0.0
 10
-58.8542
 20
-73.9063
 30
0.0
 10
-50.2245
 20
-76.5116
 30
0.0
 10
-46.2829
 20
-90.4896
 30
0.0
 10
-46.2829
 20
-90.4896
 30
0.0
 10
-50.1135
 20
-85.288
 30
0.0
 10
-57.9054
 20
-86.9699
 30
0.0
 10
-60.9156
 20
-89.6713
 30
0.0
 10
-60.9156
 20
-89.6713
 30
0.0
 10
-58.1293
 20
-86.5111
 30
0.0
 10
-59.4231
 20
-82.7826
 30
0.0
 10
-62.1216
 20
-81.3389
 30
0.0
 10
-62.1216
 20
-81.3389
 30
0.0
 10
-65.8986
 20
-79.3165
 30
0.0
 10
-70.8644
 20
-81.1918
 30
0.0
 10
-70.0947
 20
-86.251
 30
0.0
 10
-70.0947
 20
-86.251
 30
0.0
 10
-68.2281
 20
-83.3318
 30
0.0
 10
-64.9332
 20
-84.4165
 30
0.0
 10
-64.1569
 20
-86.8423
 30
0.0
 10
-64.1569
 20
-86.8423
 30
0.0
 10
-63.4234
 20
-89.1441
 30
0.0
 10
-64.6186
 20
-92.0068
 30
0.0
 10
-67.8891
 20
-92.2901
 30
0.0
 10
-67.8891
 20
-92.2901
 30
0.0
 10
-71.1703
 20
-92.5475
 30
0.0
 10
-75.8135
 20
-88.8532
 30
0.0
 10
-74.0862
 20
-82.1993
 30
0.0
 10
-74.0862
 20
-82.1993
 30
0.0
 10
-72.4836
 20
-78.4587
 30
0.0
 10
-70.7397
 20
-77.1255
 30
0.0
 10
-67.0141
 20
-75.9367
 30
0.0
  0
SPLINE
  5
9A
330
1F
100
AcDbEntity
  8
layer 1
 62
     7
100
AcDbSpline
210
0.0
220
0.0
230
1.0
 70
    11
 71
     3
 72
    56
 73
    52
 74
     0
 42
0.0000000001
 43
0.0000000001
 12
1.0
 22
0.0
 32
0.0
 13
1.0
 23
0.0
 33
0.0
 40
0.0
 40
0.0
 40
0.0
 40
0.0
 40
0.0714285714285714
 40
0.0714285714285714
 40
0.0714285714285714
 40
0.0714285714285714
 40
0.1428571428571428
 40
0.1428571428571428
 40
0.1428571428571428
 40
0.1428571428571428
 40
0.2142857142857143
 40
0.2142857142857143
 40
0.2142857142857143
 40
0.2142857142857143
 40
0.2857142857142857
 40
0.2857142857142857
 40
0.2857142857142857
 40
0.2857142857142857
 40
0.3571428571428572
 40
0.3571428571428572
 40
0.3571428571428572
 40
0.3571428571428572
 40
0.4285714285714285
 40
0.4285714285714285
 40
0.4285714285714285
 40
0.4285714285714285
 40
0.5
 40
0.5
 40
0.5
 40
0.5
 40
0.5714285714285714
 40
0.5714285714285714
 40
0.5714285714285714
 40
0.5714285714285714
 40
0.6428571428571429
 40
0.6428571428571429
 40
0.6428571428571429
 40
0.6428571428571429
 40
0.7142857142857143
 40
0.7142857142857143
 40
0.7142857142857143
 40
0.7142857142857143
 40
0.7857142857142857
 40
0.7857142857142857
 40
0.7857142857142857
 40
0.7857142857142857
 40
0.8571428571428571
 40
0.8571428571428571
 40
0.8571428571428571
 40
0.8571428571428571
 40
1.0
 40
1.0
 40
1.0
 40
1.0
 10
-56.4927
 20
-30.026
 30
0.0
 10
-55.3657
 20
-31.2068
 30
0.0
 10
-54.8278
 20
-31.6266
 30
0.0
 10
-53.8059
 20
-32.8638
 30
0.0
 10
-53.8059
 20
-32.8638
 30
0.0
 10
-61.0939
 20
-37.5346
 30
0.0
 10
-60.6351
 20
-48.3625
 30
0.0
 10
-57.7554
 20
-51.9012
 30
0.0
 10
-57.7554
 20
-51.9012
 30
0.0
 10
-58.8824
 20
-50.4794
 30
0.0
 10
-61.6542
 20
-51.6554
 30
0.0
 10
-62.5776
 20
-52.8812
 30
0.0
 10
-62.5776
 20
-52.8812
 30
0.0
 10
-60.3407
 20
-42.7843
 30
0.0
 10
-69.6497
 20
-43.4214
 30
0.0
 10
-71.2268
 20
-44.4892
 30
0.0
 10
-71.2268
 20
-44.4892
 30
0.0
 10
-73.2062
 20
-45.9015
 30
0.0
 10
-73.636
 20
-48.577
 30
0.0
 10
-73.3106
 20
-51.0828
 30
0.0
 10
-73.3106
 20
-51.0828
 30
0.0
 10
-73.1353
 20
-51.8868
 30
0.0
 10
-72.7164
 20
-52.6542
 30
0.0
 10
-72.0197
 20
-52.8666
 30
0.0
 10
-72.0197
 20
-52.8666
 30
0.0
 10
-71.1276
 20
-53.1351
 30
0.0
 10
-70.1395
 20
-52.4678
 30
0.0
 10
-70.4933
 20
-51.4625
 30
0.0
 10
-70.4933
 20
-51.4625
 30
0.0
 10
-70.7912
 20
-50.6187
 30
0.0
 10
-70.3889
 20
-48.4554
 30
0.0
 10
-69.8677
 20
-48.0929
 30
0.0
 10
-69.8677
 20
-48.0929
 30
0.0
 10
-66.7961
 20
-45.9471
 30
0.0
 10
-63.7096
 20
-50.208
 30
0.0
 10
-66.3003
 20
-54.2568
 30
0.0
 10
-66.3003
 20
-54.2568
 30
0.0
 10
-68.2456
 20
-56.9668
 30
0.0
 10
-72.0168
 20
-55.905
 30
0.0
 10
-73.3593
 20
-54.311
 30
0.0
 10
-73.3593
 20
-54.311
 30
0.0
 10
-77.524
 20
-49.5733
 30
0.0
 10
-75.8135
 20
-39.8567
 30
0.0
 10
-70.5389
 20
-36.369
 30
0.0
 10
-70.5389
 20
-36.369
 30
0.0
 10
-72.3879
 20
-42.4751
 30
0.0
 10
-66.003
 20
-44.189
 30
0.0
 10
-64.8282
 20
-41.202
 30
0.0
 10
-64.8282
 20
-41.202
 30
0.0
 10
-69.0126
 20
-35.1958
 30
0.0
 10
-57.5547
 20
-33.3536
 30
0.0
 10
-56.4927
 20
-30.026
 30
0.0
  0
SPLINE
  5
9B
330
1F
100
AcDbEntity
  8
layer 1
370
     9
100
AcDbSpline
210
0.0
220
0.0
230
1.0
 70
    11
 71
     3
 72
    56
 73
    52
 74
     0
 42
0.0000000001
 43
0.0000000001
 12
1.0
 22
0.0
 32
0.0
 13
1.0
 23
0.0
 33
0.0
 40
0.0
 40
0.0
 40
0.0
 40
0.0
 40
0.0714285714285714
 40
0.0714285714285714
 40
0.0714285714285714
 40
0.0714285714285714
 40
0.1428571428571428
 40
0.1428571428571428
 40
0.1428571428571428
 40
0.1428571428571428
 40
0.2142857142857143
 40
0.2142857142857143
 40
0.2142857142857143
 40
0.2142857142857143
 40
0.2857142857142857
 40
0.2857142857142857
 40
0.2857142857142857
 40
0.2857142857142857
 40
0.3571428571428572
 40
0.3571428571428572
 40
0.3571428571428572
 40
0.3571428571428572
 40
0.4285714285714285
 40
0.4285714285714285
 40
0.4285714285714285
 40
0.4285714285714285
 40
0.5
 40
0.5
 40
0.5
 40
0.5
 40
0.5714285714285714
 40
0.5714285714285714
 40
0.5714285714285714
 40
0.5714285714285714
 40
0.6428571428571429
 40
0.6428571428571429
 40
0.6428571428571429
 40
0.6428571428571429
 40
0.7142857142857143
 40
0.7142857142857143
 40
0.7142857142857143
 40
0.7142857142857143
 40
0.7857142857142857
 40
0.7857142857142857
 40
0.7857142857142857
 40
0.7857142857142857
 40
0.8571428571428571
 40
0.8571428571428571
 40
0.8571428571428571
 40
0.8571428571428571
 40
1.0
 40
1.0
 40
1.0
 40
1.0
 10
-56.4927
 20
-30.026
 30
0.0
 10
-55.3657
 20
-31.2068
 30
0.0
 10
-54.8278
 20
-31.6266
 30
0.0
 10
-53.8059
 20
-32.8638
 30
0.0
 10
-53.8059
 20
-32.8638
 30
0.0
 10
-61.0939
 20
-37.5346
 30
0.0
 10
-60.6351
 20
-48.3625
 30
0.0
 10
-57.7554
 20
-51.9012
 30
0.0
 10
-57.7554
 20
-51.9012
 30
0.0
 10
-58.8824
 20
-50.4794
 30
0.0
 10
-61.6542
 20
-51.6554
 30
0.0
 10
-62.5776
 20
-52.881
 30
0.0
 10
-62.5776
 20
-52.881
 30
0.0
 10
-60.3407
 20
-42.7843
 30
0.0
 10
-69.6497
 20
-43.4214
 30
0.0
 10
-71.2268
 20
-44.4892
 30
0.0
 10
-71.2268
 20
-44.4892
 30
0.0
 10
-73.2062
 20
-45.9015
 30
0.0
 10
-73.636
 20
-48.5772
 30
0.0
 10
-73.3106
 20
-51.0828
 30
0.0
 10
-73.3106
 20
-51.0828
 30
0.0
 10
-73.1353
 20
-51.8868
 30
0.0
 10
-72.7164
 20
-52.6542
 30
0.0
 10
-72.0197
 20
-52.8666
 30
0.0
 10
-72.0197
 20
-52.8666
 30
0.0
 10
-71.1276
 20
-53.136
 30
0.0
 10
-70.1395
 20
-52.4678
 30
0.0
 10
-70.4933
 20
-51.4625
 30
0.0
 10
-70.4933
 20
-51.4625
 30
0.0
 10
-70.7912
 20
-50.6187
 30
0.0
 10
-70.3889
 20
-48.4554
 30
0.0
 10
-69.8677
 20
-48.0929
 30
0.0
 10
-69.8677
 20
-48.0929
 30
0.0
 10
-66.7961
 20
-45.9471
 30
0.0
 10
-63.7096
 20
-50.208
 30
0.0
 10
-66.3003
 20
-54.2568
 30
0.0
 10
-66.3003
 20
-54.2568
 30
0.0
 10
-68.2456
 20
-56.9668
 30
0.0
 10
-72.0168
 20
-55.905
 30
0.0
 10
-73.3593
 20
-54.3112
 30
0.0
 10
-73.3593
 20
-54.3112
 30
0.0
 10
-77.524
 20
-49.5733
 30
0.0
 10
-75.8135
 20
-39.8569
 30
0.0
 10
-70.5389
 20
-36.369
 30
0.0
 10
-70.5389
 20
-36.369
 30
0.0
 10
-72.3879
 20
-42.4751
 30
0.0
 10
-66.003
 20
-44.189
 30
0.0
 10
-64.8282
 20
-41.202
 30
0.0
 10
-64.8282
 20
-41.202
 30
0.0
 10
-69.0126
 20
-35.1966
 30
0.0
 10
-57.5547
 20
-33.3536
 30
0.0
 10
-56.4927
 20
-30.026
 30
0.0
  0
SPLINE
  5
9C
330
1F
100
AcDbEntity
  8
layer 1
 62
     7
370
    13
100
AcDbSpline
210
0.0
220
0.0
230
1.0
 70
    11
 71
     3
 72
    16
 73
    12
 74
     0
 42
0.0000000001
 43
0.0000000001
 12
1.0
 22
0.0
 32
0.0
 13
1.0
 23
0.0
 33
0.0
 40
0.0
 40
0.0
 40
0.0
 40
0.0
 40
0.25
 40
0.25
 40
0.25
 40
0.25
 40
0.5
 40
0.5
 40
0.5
 40
0.5
 40
1.0
 40
1.0
 40
1.0
 40
1.0
 10
-75.751
 20
-31.8723
 30
0.0
 10
-74.0071
 20
-32.2351
 30
0.0
 10
-71.9973
 20
-32.3397
 30
0.0
 10
-68.69
 20
-32.0679
 30
0.0
 10
-68.69
 20
-32.0679
 30
0.0
 10
-72.1582
 20
-34.0265
 30
0.0
 10
-74.3471
 20
-34.5112
 30
0.0
 10
-75.7823
 20
-37.7817
 30
0.0
 10
-75.7823
 20
-37.7817
 30
0.0
 10
-75.7823
 20
-37.7817
 30
0.0
 10
-75.751
 20
-31.8723
 30
0.0
 10
-75.751
 20
-31.8723
 30
0.0
  0
SPLINE
  5
9D
330
1F
100
AcDbEntity
  8
layer 1
 62
     7
100
AcDbSpline
210
0.0
220
0.0
230
1.0
 70
    11
 71
     3
 72
    28
 73
    24
 74
     0
 42
0.0000000001
 43
0.0000000001
 12
1.0
 22
0.0
 32
0.0
 13
1.0
 23
0.0
 33
0.0
 40
0.0
 40
0.0
 40
0.0
 40
0.0
 40
0.1428571428571428
 40
0.1428571428571428
 40
0.1428571428571428
 40
0.1428571428571428
 40
0.2857142857142857
 40
0.2857142857142857
 40
0.2857142857142857
 40
0.2857142857142857
 40
0.4285714285714285
 40
0.4285714285714285
 40
0.4285714285714285
 40
0.4285714285714285
 40
0.5714285714285714
 40
0.5714285714285714
 40
0.5714285714285714
 40
0.5714285714285714
 40
0.7142857142857143
 40
0.7142857142857143
 40
0.7142857142857143
 40
0.7142857142857143
 40
1.0
 40
1.0
 40
1.0
 40
1.0
 10
-75.751
 20
-23.6699
 30
0.0
 10
-74.2674
 20
-24.553
 30
0.0
 10
-71.9973
 20
-24.5937
 30
0.0
 10
-69.0154
 20
-23.2795
 30
0.0
 10
-69.0154
 20
-23.2795
 30
0.0
 10
-69.3183
 20
-28.5991
 30
0.0
 10
-62.6986
 20
-28.4865
 30
0.0
 10
-60.5532
 20
-24.3356
 30
0.0
 10
-60.5532
 20
-24.3356
 30
0.0
 10
-59.1369
 20
-21.5978
 30
0.0
 10
-58.5368
 20
-20.4592
 30
0.0
 10
-57.5684
 20
-17.9143
 30
0.0
 10
-57.5684
 20
-17.9143
 30
0.0
 10
-57.7864
 20
-22.3449
 30
0.0
 10
-57.7328
 20
-23.5657
 30
0.0
 10
-57.7213
 20
-25.8309
 30
0.0
 10
-57.7213
 20
-25.8309
 30
0.0
 10
-62.3651
 20
-29.9609
 30
0.0
 10
-70.7543
 20
-30.2305
 30
0.0
 10
-75.7823
 20
-28.8627
 30
0.0
 10
-75.7823
 20
-28.8627
 30
0.0
 10
-75.7823
 20
-28.8627
 30
0.0
 10
-75.751
 20
-23.6699
 30
0.0
 10
-75.751
 20
-23.6699
 30
0.0
  0
SPLINE
  5
9E
330
1F
100
AcDbEntity
  8
layer 1
370
    13
100
AcDbSpline
210
0.0
220
0.0
230
1.0
 70
    11
 71
     3
 72
    28
 73
    24
 74
     0
 42
0.0000000001
 43
0.0000000001
 12
1.0
 22
0.0
 32
0.0
 13
1.0
 23
0.0
 33
0.0
 40
0.0
 40
0.0
 40
0.0
 40
0.0
 40
0.1428571428571428
 40
0.1428571428571428
 40
0.1428571428571428
 40
0.1428571428571428
 40
0.2857142857142857
 40
0.2857142857142857
 40
0.2857142857142857
 40
0.2857142857142857
 40
0.4285714285714285
 40
0.4285714285714285
 40
0.4285714285714285
 40
0.4285714285714285
 40
0.5714285714285714
 40
0.5714285714285714
 40
0.5714285714285714
 40
0.5714285714285714
 40
0.7142857142857143
 40
0.7142857142857143
 40
0.7142857142857143
 40
0.7142857142857143
 40
1.0
 40
1.0
 40
1.0
 40
1.0
 10
-75.751
 20
-23.6699
 30
0.0
 10
-74.2674
 20
-24.553
 30
0.0
 10
-71.9973
 20
-24.5937
 30
0.0
 10
-69.0154
 20
-23.2795
 30
0.0
 10
-69.0154
 20
-23.2795
 30
0.0
 10
-69.3183
 20
-28.5991
 30
0.0
 10
-62.6986
 20
-28.4865
 30
0.0
 10
-60.5532
 20
-24.3356
 30
0.0
 10
-60.5532
 20
-24.3356
 30
0.0
 10
-59.1369
 20
-21.5978
 30
0.0
 10
-58.5368
 20
-20.4592
 30
0.0
 10
-57.5684
 20
-17.9143
 30
0.0
 10
-57.5684
 20
-17.9143
 30
0.0
 10
-57.7864
 20
-22.3449
 30
0.0
 10
-57.7213
 20
-23.5657
 30
0.0
 10
-57.7213
 20
-25.8309
 30
0.0
 10
-57.7213
 20
-25.8309
 30
0.0
 10
-62.3651
 20
-29.9609
 30
0.0
 10
-70.7543
 20
-30.2305
 30
0.0
 10
-75.7823
 20
-28.8627
 30
0.0
 10
-75.7823
 20
-28.8627
 30
0.0
 10
-75.7823
 20
-28.8627
 30
0.0
 10
-75.751
 20
-23.6699
 30
0.0
 10
-75.751
 20
-23.6699
 30
0.0
  0
SPLINE
  5
9F
330
1F
100
AcDbEntity
  8
layer 1
 62
     7
100
AcDbSpline
210
0.0
220
0.0
230
1.0
 70
    11
 71
     3
 72
    32
 73
    28
 74
     0
 42
0.0000000001
 43
0.0000000001
 12
1.0
 22
0.0
 32
0.0
 13
1.0
 23
0.0
 33
0.0
 40
0.0
 40
0.0
 40
0.0
 40
0.0
 40
0.125
 40
0.125
 40
0.125
 40
0.125
 40
0.25
 40
0.25
 40
0.25
 40
0.25
 40
0.375
 40
0.375
 40
0.375
 40
0.375
 40
0.5
 40
0.5
 40
0.5
 40
0.5
 40
0.625
 40
0.625
 40
0.625
 40
0.625
 40
0.75
 40
0.75
 40
0.75
 40
0.75
 40
1.0
 40
1.0
 40
1.0
 40
1.0
 10
-75.751
 20
-13.9019
 30
0.0
 10
-74.8994
 20
-13.9305
 30
0.0
 10
-73.8201
 20
-14.2931
 30
0.0
 10
-74.4349
 20
-15.9748
 30
0.0
 10
-74.4349
 20
-15.9748
 30
0.0
 10
-74.9046
 20
-17.2657
 30
0.0
 10
-70.8673
 20
-18.1151
 30
0.0
 10
-71.6856
 20
-13.8403
 30
0.0
 10
-71.6856
 20
-13.8403
 30
0.0
 10
-72.4162
 20
-10.9486
 30
0.0
 10
-74.5197
 20
-10.7424
 30
0.0
 10
-75.8758
 20
-11.1251
 30
0.0
 10
-75.8758
 20
-11.1251
 30
0.0
 10
-75.8135
 20
-8.9386
 30
0.0
 10
-75.8135
 20
-6.9935
 30
0.0
 10
-75.8649
 20
-5.0236
 30
0.0
 10
-75.8649
 20
-5.0236
 30
0.0
 10
-73.0875
 20
-4.8304
 30
0.0
 10
-68.6051
 20
-6.4419
 30
0.0
 10
-67.0989
 20
-12.0926
 30
0.0
 10
-67.0989
 20
-12.0926
 30
0.0
 10
-66.077
 20
-19.2194
 30
0.0
 10
-69.8453
 20
-22.6794
 30
0.0
 10
-75.7823
 20
-20.6607
 30
0.0
 10
-75.7823
 20
-20.6607
 30
0.0
 10
-75.7823
 20
-20.6607
 30
0.0
 10
-75.751
 20
-13.9019
 30
0.0
 10
-75.751
 20
-13.9019
 30
0.0
  0
SPLINE
  5
A0
330
1F
100
AcDbEntity
  8
layer 1
370
    13
100
AcDbSpline
210
0.0
220
0.0
230
1.0
 70
    11
 71
     3
 72
    32
 73
    28
 74
     0
 42
0.0000000001
 43
0.0000000001
 12
1.0
 22
0.0
 32
0.0
 13
1.0
 23
0.0
 33
0.0
 40
0.0
 40
0.0
 40
0.0
 40
0.0
 40
0.125
 40
0.125
 40
0.125
 40
0.125
 40
0.25
 40
0.25
 40
0.25
 40
0.25
 40
0.375
 40
0.375
 40
0.375
 40
0.375
 40
0.5
 40
0.5
 40
0.5
 40
0.5
 40
0.625
 40
0.625
 40
0.625
 40
0.625
 40
0.75
 40
0.75
 40
0.75
 40
0.75
 40
1.0
 40
1.0
 40
1.0
 40
1.0
 10
-75.751
 20
-13.9019
 30
0.0
 10
-74.8994
 20
-13.9305
 30
0.0
 10
-73.8201
 20
-14.2931
 30
0.0
 10
-74.4349
 20
-15.9748
 30
0.0
 10
-74.4349
 20
-15.9748
 30
0.0
 10
-74.9046
 20
-17.2657
 30
0.0
 10
-70.8673
 20
-18.1151
 30
0.0
 10
-71.6856
 20
-13.8403
 30
0.0
 10
-71.6856
 20
-13.8403
 30
0.0
 10
-72.4162
 20
-10.9486
 30
0.0
 10
-74.5197
 20
-10.7424
 30
0.0
 10
-75.8758
 20
-11.1249
 30
0.0
 10
-75.8758
 20
-11.1249
 30
0.0
 10
-75.8135
 20
-8.9386
 30
0.0
 10
-75.8135
 20
-6.9935
 30
0.0
 10
-75.8649
 20
-5.0236
 30
0.0
 10
-75.8649
 20
-5.0236
 30
0.0
 10
-73.0875
 20
-4.8304
 30
0.0
 10
-68.6051
 20
-6.4419
 30
0.0
 10
-67.0989
 20
-12.0935
 30
0.0
 10
-67.0989
 20
-12.0935
 30
0.0
 10
-66.077
 20
-19.2194
 30
0.0
 10
-69.8453
 20
-22.6794
 30
0.0
 10
-75.7823
 20
-20.6607
 30
0.0
 10
-75.7823
 20
-20.6607
 30
0.0
 10
-75.7823
 20
-20.6607
 30
0.0
 10
-75.751
 20
-13.9019
 30
0.0
 10
-75.751
 20
-13.9019
 30
0.0
  0
SPLINE
  5
A1
330
1F
100
AcDbEntity
  8
layer 1
 62
     7
370
    13
100
AcDbSpline
210
0.0
220
0.0
230
1.0
 70
    11
 71
     3
 72
    16
 73
    12
 74
     0
 42
0.0000000001
 43
0.0000000001
 12
1.0
 22
0.0
 32
0.0
 13
1.0
 23
0.0
 33
0.0
 40
0.0
 40
0.0
 40
0.0
 40
0.0
 40
0.25
 40
0.25
 40
0.25
 40
0.25
 40
0.5
 40
0.5
 40
0.5
 40
0.5
 40
1.0
 40
1.0
 40
1.0
 40
1.0
 10
-47.4947
 20
-2.1184
 30
0.0
 10
-47.7694
 20
-5.3457
 30
0.0
 10
-47.5825
 20
-7.9902
 30
0.0
 10
-45.7083
 20
-10.4539
 30
0.0
 10
-45.7083
 20
-10.4539
 30
0.0
 10
-47.7949
 20
-15.3518
 30
0.0
 10
-50.0854
 20
-21.1898
 30
0.0
 10
-54.2334
 20
-23.9167
 30
0.0
 10
-54.2334
 20
-23.9167
 30
0.0
 10
-54.4459
 20
-16.2154
 30
0.0
 10
-51.8632
 20
-8.9505
 30
0.0
 10
-47.4947
 20
-2.1184
 30
0.0
  0
SPLINE
  5
A2
330
1F
100
AcDbEntity
  8
layer 1
 62
     7
100
AcDbSpline
210
0.0
220
0.0
230
1.0
 70
    11
 71
     3
 72
    16
 73
    12
 74
     0
 42
0.0000000001
 43
0.0000000001
 12
1.0
 22
0.0
 32
0.0
 13
1.0
 23
0.0
 33
0.0
 40
0.0
 40
0.0
 40
0.0
 40
0.0
 40
0.25
 40
0.25
 40
0.25
 40
0.25
 40
0.5
 40
0.5
 40
0.5
 40
0.5
 40
1.0
 40
1.0
 40
1.0
 40
1.0
 10
-54.1371
 20
-28.1604
 30
0.0
 10
-50.9602
 20
-25.4003
 30
0.0
 10
-46.9316
 20
-19.5141
 30
0.0
 10
-45.1219
 20
-14.2309
 30
0.0
 10
-45.1219
 20
-14.2309
 30
0.0
 10
-45.4508
 20
-19.3865
 30
0.0
 10
-50.02
 20
-27.7668
 30
0.0
 10
-52.1496
 20
-30.5559
 30
0.0
 10
-52.1496
 20
-30.5559
 30
0.0
 10
-52.8178
 20
-29.5621
 30
0.0
 10
-53.6869
 20
-28.9367
 30
0.0
 10
-54.1371
 20
-28.1604
 30
0.0
  0
SPLINE
  5
A3
330
1F
100
AcDbEntity
  8
layer 1
370
    13
100
AcDbSpline
210
0.0
220
0.0
230
1.0
 70
    11
 71
     3
 72
    16
 73
    12
 74
     0
 42
0.0000000001
 43
0.0000000001
 12
1.0
 22
0.0
 32
0.0
 13
1.0
 23
0.0
 33
0.0
 40
0.0
 40
0.0
 40
0.0
 40
0.0
 40
0.25
 40
0.25
 40
0.25
 40
0.25
 40
0.5
 40
0.5
 40
0.5
 40
0.5
 40
1.0
 40
1.0
 40
1.0
 40
1.0
 10
-54.1371
 20
-28.1604
 30
0.0
 10
-50.9602
 20
-25.4003
 30
0.0
 10
-46.9316
 20
-19.5141
 30
0.0
 10
-45.1219
 20
-14.2309
 30
0.0
 10
-45.1219
 20
-14.2309
 30
0.0
 10
-45.4508
 20
-19.3865
 30
0.0
 10
-50.02
 20
-27.7676
 30
0.0
 10
-52.1496
 20
-30.5559
 30
0.0
 10
-52.1496
 20
-30.5559
 30
0.0
 10
-52.8178
 20
-29.5621
 30
0.0
 10
-53.6869
 20
-28.9367
 30
0.0
 10
-54.1371
 20
-28.1604
 30
0.0
  0
SPLINE
  5
A4
330
1F
100
AcDbEntity
  8
layer 1
 62
     7
100
AcDbSpline
210
0.0
220
0.0
230
1.0
 70
    11
 71
     3
 72
    68
 73
    64
 74
     0
 42
0.0000000001
 43
0.0000000001
 12
1.0
 22
0.0
 32
0.0
 13
1.0
 23
0.0
 33
0.0
 40
0.0
 40
0.0
 40
0.0
 40
0.0
 40
0.0588235294117647
 40
0.0588235294117647
 40
0.0588235294117647
 40
0.0588235294117647
 40
0.1176470588235294
 40
0.1176470588235294
 40
0.1176470588235294
 40
0.1176470588235294
 40
0.1764705882352941
 40
0.1764705882352941
 40
0.1764705882352941
 40
0.1764705882352941
 40
0.2352941176470588
 40
0.2352941176470588
 40
0.2352941176470588
 40
0.2352941176470588
 40
0.2941176470588235
 40
0.2941176470588235
 40
0.2941176470588235
 40
0.2941176470588235
 40
0.3529411764705883
 40
0.3529411764705883
 40
0.3529411764705883
 40
0.3529411764705883
 40
0.4117647058823529
 40
0.4117647058823529
 40
0.4117647058823529
 40
0.4117647058823529
 40
0.4705882352941176
 40
0.4705882352941176
 40
0.4705882352941176
 40
0.4705882352941176
 40
0.5294117647058824
 40
0.5294117647058824
 40
0.5294117647058824
 40
0.5294117647058824
 40
0.5882352941176471
 40
0.5882352941176471
 40
0.5882352941176471
 40
0.5882352941176471
 40
0.6470588235294118
 40
0.6470588235294118
 40
0.6470588235294118
 40
0.6470588235294118
 40
0.7058823529411765
 40
0.7058823529411765
 40
0.7058823529411765
 40
0.7058823529411765
 40
0.7647058823529411
 40
0.7647058823529411
 40
0.7647058823529411
 40
0.7647058823529411
 40
0.8235294117647058
 40
0.8235294117647058
 40
0.8235294117647058
 40
0.8235294117647058
 40
0.8823529411764706
 40
0.8823529411764706
 40
0.8823529411764706
 40
0.8823529411764706
 40
1.0
 40
1.0
 40
1.0
 40
1.0
 10
-55.9774
 20
4.2671
 30
0.0
 10
-60.1225
 20
-0.3374
 30
0.0
 10
-60.5815
 20
-5.2214
 30
0.0
 10
-60.451
 20
-6.742
 30
0.0
 10
-60.451
 20
-6.742
 30
0.0
 10
-58.4462
 20
-7.364
 30
0.0
 10
-56.8269
 20
-7.5341
 30
0.0
 10
-54.4966
 20
-6.8717
 30
0.0
 10
-54.4966
 20
-6.8717
 30
0.0
 10
-57.6706
 20
-11.0481
 30
0.0
 10
-59.9581
 20
-17.1048
 30
0.0
 10
-62.6059
 20
-22.807
 30
0.0
 10
-62.6059
 20
-22.807
 30
0.0
 10
-63.5539
 20
-24.8507
 30
0.0
 10
-66.1111
 20
-24.4601
 30
0.0
 10
-64.6498
 20
-21.3116
 30
0.0
 10
-64.6498
 20
-21.3116
 30
0.0
 10
-64.6498
 20
-21.3108
 30
0.0
 10
-65.213
 20
-20.1765
 30
0.0
 10
-66.1472
 20
-20.0801
 30
0.0
 10
-66.1472
 20
-20.0801
 30
0.0
 10
-61.8186
 20
-17.449
 30
0.0
 10
-61.5071
 20
-3.6928
 30
0.0
 10
-72.9367
 20
-2.4527
 30
0.0
 10
-72.9367
 20
-2.4527
 30
0.0
 10
-65.5384
 20
-1.5402
 30
0.0
 10
-61.736
 20
4.1447
 30
0.0
 10
-68.6275
 20
8.6262
 30
0.0
 10
-68.6275
 20
8.6262
 30
0.0
 10
-61.736
 20
13.1087
 30
0.0
 10
-65.5384
 20
18.7911
 30
0.0
 10
-72.9367
 20
19.7029
 30
0.0
 10
-72.9367
 20
19.7029
 30
0.0
 10
-61.5069
 20
20.9433
 30
0.0
 10
-61.8186
 20
34.703
 30
0.0
 10
-66.1472
 20
37.3335
 30
0.0
 10
-66.1472
 20
37.3335
 30
0.0
 10
-65.213
 20
37.4302
 30
0.0
 10
-64.6498
 20
38.5619
 30
0.0
 10
-64.6498
 20
38.5619
 30
0.0
 10
-64.6498
 20
38.5619
 30
0.0
 10
-66.1111
 20
41.7137
 30
0.0
 10
-63.5539
 20
42.1012
 30
0.0
 10
-62.6059
 20
40.0601
 30
0.0
 10
-62.6059
 20
40.0601
 30
0.0
 10
-59.9581
 20
34.3553
 30
0.0
 10
-57.6706
 20
28.2986
 30
0.0
 10
-54.4966
 20
24.1251
 30
0.0
 10
-54.4966
 20
24.1251
 30
0.0
 10
-56.8269
 20
24.7881
 30
0.0
 10
-58.4462
 20
24.618
 30
0.0
 10
-60.451
 20
23.9923
 30
0.0
 10
-60.451
 20
23.9923
 30
0.0
 10
-60.5813
 20
22.4746
 30
0.0
 10
-60.1225
 20
17.5879
 30
0.0
 10
-55.9774
 20
12.9869
 30
0.0
 10
-55.9774
 20
12.9869
 30
0.0
 10
-58.7209
 20
13.126
 30
0.0
 10
-64.4288
 20
13.3267
 30
0.0
 10
-65.7624
 20
8.6262
 30
0.0
 10
-65.7624
 20
8.6262
 30
0.0
 10
-64.4288
 20
3.9238
 30
0.0
 10
-58.7209
 20
4.1274
 30
0.0
 10
-55.9774
 20
4.2671
 30
0.0
  0
SPLINE
  5
A5
330
1F
100
AcDbEntity
  8
layer 1
370
    13
100
AcDbSpline
210
0.0
220
0.0
230
1.0
 70
    11
 71
     3
 72
    68
 73
    64
 74
     0
 42
0.0000000001
 43
0.0000000001
 12
1.0
 22
0.0
 32
0.0
 13
1.0
 23
0.0
 33
0.0
 40
0.0
 40
0.0
 40
0.0
 40
0.0
 40
0.0588235294117647
 40
0.0588235294117647
 40
0.0588235294117647
 40
0.0588235294117647
 40
0.1176470588235294
 40
0.1176470588235294
 40
0.1176470588235294
 40
0.1176470588235294
 40
0.1764705882352941
 40
0.1764705882352941
 40
0.1764705882352941
 40
0.1764705882352941
 40
0.2352941176470588
 40
0.2352941176470588
 40
0.2352941176470588
 40
0.2352941176470588
 40
0.2941176470588235
 40
0.2941176470588235
 40
0.2941176470588235
 40
0.2941176470588235
 40
0.3529411764705883
 40
0.3529411764705883
 40
0.3529411764705883
 40
0.3529411764705883
 40
0.4117647058823529
 40
0.4117647058823529
 40
0.4117647058823529
 40
0.4117647058823529
 40
0.4705882352941176
 40
0.4705882352941176
 40
0.4705882352941176
 40
0.4705882352941176
 40
0.5294117647058824
 40
0.5294117647058824
 40
0.5294117647058824
 40
0.5294117647058824
 40
0.5882352941176471
 40
0.5882352941176471
 40
0.5882352941176471
 40
0.5882352941176471
 40
0.6470588235294118
 40
0.6470588235294118
 40
0.6470588235294118
 40
0.6470588235294118
 40
0.7058823529411765
 40
0.7058823529411765
 40
0.7058823529411765
 40
0.7058823529411765
 40
0.7647058823529411
 40
0.7647058823529411
 40
0.7647058823529411
 40
0.7647058823529411
 40
0.8235294117647058
 40
0.8235294117647058
 40
0.8235294117647058
 40
0.8235294117647058
 40
0.8823529411764706
 40
0.8823529411764706
 40
0.8823529411764706
 40
0.8823529411764706
 40
1.0
 40
1.0
 40
1.0
 40
1.0
 10
-55.9774
 20
4.2671
 30
0.0
 10
-60.1225
 20
-0.3374
 30
0.0
 10
-60.5815
 20
-5.2214
 30
0.0
 10
-60.451
 20
-6.742
 30
0.0
 10
-60.451
 20
-6.742
 30
0.0
 10
-58.4462
 20
-7.364
 30
0.0
 10
-56.8269
 20
-7.5343
 30
0.0
 10
-54.4966
 20
-6.8717
 30
0.0
 10
-54.4966
 20
-6.8717
 30
0.0
 10
-57.6706
 20
-11.0481
 30
0.0
 10
-59.9581
 20
-17.1048
 30
0.0
 10
-62.6059
 20
-22.807
 30
0.0
 10
-62.6059
 20
-22.807
 30
0.0
 10
-63.5539
 20
-24.8507
 30
0.0
 10
-66.1111
 20
-24.4603
 30
0.0
 10
-64.6498
 20
-21.3116
 30
0.0
 10
-64.6498
 20
-21.3116
 30
0.0
 10
-64.6498
 20
-21.3116
 30
0.0
 10
-65.213
 20
-20.1765
 30
0.0
 10
-66.1472
 20
-20.0801
 30
0.0
 10
-66.1472
 20
-20.0801
 30
0.0
 10
-61.8186
 20
-17.449
 30
0.0
 10
-61.5071
 20
-3.6928
 30
0.0
 10
-72.9367
 20
-2.4527
 30
0.0
 10
-72.9367
 20
-2.4527
 30
0.0
 10
-65.5384
 20
-1.5402
 30
0.0
 10
-61.736
 20
4.1447
 30
0.0
 10
-68.6275
 20
8.6262
 30
0.0
 10
-68.6275
 20
8.6262
 30
0.0
 10
-61.736
 20
13.1087
 30
0.0
 10
-65.5384
 20
18.7911
 30
0.0
 10
-72.9367
 20
19.7029
 30
0.0
 10
-72.9367
 20
19.7029
 30
0.0
 10
-61.5069
 20
20.9433
 30
0.0
 10
-61.8186
 20
34.703
 30
0.0
 10
-66.1472
 20
37.3335
 30
0.0
 10
-66.1472
 20
37.3335
 30
0.0
 10
-65.213
 20
37.4302
 30
0.0
 10
-64.6498
 20
38.5619
 30
0.0
 10
-64.6498
 20
38.5619
 30
0.0
 10
-64.6498
 20
38.5619
 30
0.0
 10
-66.1111
 20
41.7137
 30
0.0
 10
-63.5539
 20
42.1012
 30
0.0
 10
-62.6059
 20
40.0601
 30
0.0
 10
-62.6059
 20
40.0601
 30
0.0
 10
-59.9581
 20
34.3553
 30
0.0
 10
-57.6706
 20
28.2986
 30
0.0
 10
-54.4966
 20
24.1251
 30
0.0
 10
-54.4966
 20
24.1251
 30
0.0
 10
-56.8269
 20
24.7881
 30
0.0
 10
-58.4462
 20
24.618
 30
0.0
 10
-60.451
 20
23.9923
 30
0.0
 10
-60.451
 20
23.9923
 30
0.0
 10
-60.5813
 20
22.4746
 30
0.0
 10
-60.1225
 20
17.5879
 30
0.0
 10
-55.9774
 20
12.9869
 30
0.0
 10
-55.9774
 20
12.9869
 30
0.0
 10
-58.7209
 20
13.126
 30
0.0
 10
-64.4288
 20
13.3267
 30
0.0
 10
-65.7624
 20
8.6262
 30
0.0
 10
-65.7624
 20
8.6262
 30
0.0
 10
-64.4288
 20
3.9238
 30
0.0
 10
-58.7209
 20
4.1274
 30
0.0
 10
-55.9774
 20
4.2671
 30
0.0
  0
SPLINE
  5
A6
330
1F
100
AcDbEntity
  8
layer 1
 62
     7
100
AcDbSpline
210
0.0
220
0.0
230
1.0
 70
    11
 71
     3
 72
    24
 73
    20
 74
     0
 42
0.0000000001
 43
0.0000000001
 12
1.0
 22
0.0
 32
0.0
 13
1.0
 23
0.0
 33
0.0
 40
0.0
 40
0.0
 40
0.0
 40
0.0
 40
0.1666666666666667
 40
0.1666666666666667
 40
0.1666666666666667
 40
0.1666666666666667
 40
0.3333333333333333
 40
0.3333333333333333
 40
0.3333333333333333
 40
0.3333333333333333
 40
0.5
 40
0.5
 40
0.5
 40
0.5
 40
0.6666666666666666
 40
0.6666666666666666
 40
0.6666666666666666
 40
0.6666666666666666
 40
1.0
 40
1.0
 40
1.0
 40
1.0
 10
-72.8576
 20
6.7982
 30
0.0
 10
-68.0586
 20
5.8181
 30
0.0
 10
-71.8074
 20
0.4497
 30
0.0
 10
-75.7823
 20
-0.2158
 30
0.0
 10
-75.7823
 20
-0.2158
 30
0.0
 10
-75.7823
 20
-0.2158
 30
0.0
 10
-75.7823
 20
17.4696
 30
0.0
 10
-75.7823
 20
17.4696
 30
0.0
 10
-75.7823
 20
17.4696
 30
0.0
 10
-71.8074
 20
16.8043
 30
0.0
 10
-68.0586
 20
11.435
 30
0.0
 10
-72.8578
 20
10.4527
 30
0.0
 10
-72.8578
 20
10.4527
 30
0.0
 10
-72.6482
 20
9.4932
 30
0.0
 10
-71.1276
 20
8.6262
 30
0.0
 10
-71.1276
 20
8.6262
 30
0.0
 10
-71.1276
 20
8.6262
 30
0.0
 10
-71.1276
 20
8.6264
 30
0.0
 10
-72.6482
 20
7.7602
 30
0.0
 10
-72.8576
 20
6.7982
 30
0.0
  0
SPLINE
  5
A7
330
1F
100
AcDbEntity
  8
layer 1
370
    13
100
AcDbSpline
210
0.0
220
0.0
230
1.0
 70
    11
 71
     3
 72
    24
 73
    20
 74
     0
 42
0.0000000001
 43
0.0000000001
 12
1.0
 22
0.0
 32
0.0
 13
1.0
 23
0.0
 33
0.0
 40
0.0
 40
0.0
 40
0.0
 40
0.0
 40
0.1666666666666667
 40
0.1666666666666667
 40
0.1666666666666667
 40
0.1666666666666667
 40
0.3333333333333333
 40
0.3333333333333333
 40
0.3333333333333333
 40
0.3333333333333333
 40
0.5
 40
0.5
 40
0.5
 40
0.5
 40
0.6666666666666666
 40
0.6666666666666666
 40
0.6666666666666666
 40
0.6666666666666666
 40
1.0
 40
1.0
 40
1.0
 40
1.0
 10
-72.8576
 20
6.7982
 30
0.0
 10
-68.0586
 20
5.8181
 30
0.0
 10
-71.8074
 20
0.4497
 30
0.0
 10
-75.7823
 20
-0.2158
 30
0.0
 10
-75.7823
 20
-0.2158
 30
0.0
 10
-75.7823
 20
-0.2158
 30
0.0
 10
-75.7823
 20
17.4696
 30
0.0
 10
-75.7823
 20
17.4696
 30
0.0
 10
-75.7823
 20
17.4696
 30
0.0
 10
-71.8074
 20
16.8043
 30
0.0
 10
-68.0586
 20
11.435
 30
0.0
 10
-72.8578
 20
10.4529
 30
0.0
 10
-72.8578
 20
10.4529
 30
0.0
 10
-72.6482
 20
9.4932
 30
0.0
 10
-71.1276
 20
8.6262
 30
0.0
 10
-71.1276
 20
8.6262
 30
0.0
 10
-71.1276
 20
8.6262
 30
0.0
 10
-71.1276
 20
8.6262
 30
0.0
 10
-72.6482
 20
7.7602
 30
0.0
 10
-72.8576
 20
6.7982
 30
0.0
  0
SPLINE
  5
A8
330
1F
100
AcDbEntity
  8
layer 1
 62
     7
100
AcDbSpline
210
0.0
220
0.0
230
1.0
 70
    11
 71
     3
 72
    20
 73
    16
 74
     0
 42
0.0000000001
 43
0.0000000001
 12
1.0
 22
0.0
 32
0.0
 13
1.0
 23
0.0
 33
0.0
 40
0.0
 40
0.0
 40
0.0
 40
0.0
 40
0.2
 40
0.2
 40
0.2
 40
0.2
 40
0.4
 40
0.4
 40
0.4
 40
0.4
 40
0.6
 40
0.6
 40
0.6
 40
0.6
 40
1.0
 40
1.0
 40
1.0
 40
1.0
 10
-47.5601
 20
4.1303
 30
0.0
 10
-47.8348
 20
2.6617
 30
0.0
 10
-48.2334
 20
1.5795
 30
0.0
 10
-47.792
 20
-0.0375
 30
0.0
 10
-47.792
 20
-0.0375
 30
0.0
 10
-49.944
 20
-2.7861
 30
0.0
 10
-53.9277
 20
-3.2874
 30
0.0
 10
-56.3796
 20
-3.2114
 30
0.0
 10
-56.3796
 20
-3.2114
 30
0.0
 10
-55.2243
 20
0.2235
 30
0.0
 10
-53.7348
 20
2.9444
 30
0.0
 10
-51.8749
 20
4.0454
 30
0.0
 10
-51.8749
 20
4.0454
 30
0.0
 10
-50.4369
 20
3.7738
 30
0.0
 10
-48.9843
 20
3.8583
 30
0.0
 10
-47.5601
 20
4.1303
 30
0.0
  0
SPLINE
  5
A9
330
1F
100
AcDbEntity
  8
layer 1
370
    13
100
AcDbSpline
210
0.0
220
0.0
230
1.0
 70
    11
 71
     3
 72
    20
 73
    16
 74
     0
 42
0.0000000001
 43
0.0000000001
 12
1.0
 22
0.0
 32
0.0
 13
1.0
 23
0.0
 33
0.0
 40
0.0
 40
0.0
 40
0.0
 40
0.0
 40
0.2
 40
0.2
 40
0.2
 40
0.2
 40
0.4
 40
0.4
 40
0.4
 40
0.4
 40
0.6
 40
0.6
 40
0.6
 40
0.6
 40
1.0
 40
1.0
 40
1.0
 40
1.0
 10
-47.5601
 20
4.1303
 30
0.0
 10
-47.8348
 20
2.6617
 30
0.0
 10
-48.2334
 20
1.5795
 30
0.0
 10
-47.792
 20
-0.0375
 30
0.0
 10
-47.792
 20
-0.0375
 30
0.0
 10
-49.944
 20
-2.7861
 30
0.0
 10
-53.9277
 20
-3.2876
 30
0.0
 10
-56.3796
 20
-3.2114
 30
0.0
 10
-56.3796
 20
-3.2114
 30
0.0
 10
-55.2243
 20
0.2235
 30
0.0
 10
-53.7348
 20
2.9444
 30
0.0
 10
-51.8749
 20
4.0454
 30
0.0
 10
-51.8749
 20
4.0454
 30
0.0
 10
-50.4369
 20
3.7738
 30
0.0
 10
-48.9843
 20
3.8585
 30
0.0
 10
-47.5601
 20
4.1303
 30
0.0
  0
SPLINE
  5
AA
330
1F
100
AcDbEntity
  8
layer 1
 62
     7
100
AcDbSpline
210
0.0
220
0.0
230
1.0
 70
    11
 71
     3
 72
    44
 73
    40
 74
     0
 42
0.0000000001
 43
0.0000000001
 12
1.0
 22
0.0
 32
0.0
 13
1.0
 23
0.0
 33
0.0
 40
0.0
 40
0.0
 40
0.0
 40
0.0
 40
0.0909090909090909
 40
0.0909090909090909
 40
0.0909090909090909
 40
0.0909090909090909
 40
0.1818181818181818
 40
0.1818181818181818
 40
0.1818181818181818
 40
0.1818181818181818
 40
0.2727272727272727
 40
0.2727272727272727
 40
0.2727272727272727
 40
0.2727272727272727
 40
0.3636363636363636
 40
0.3636363636363636
 40
0.3636363636363636
 40
0.3636363636363636
 40
0.4545454545454545
 40
0.4545454545454545
 40
0.4545454545454545
 40
0.4545454545454545
 40
0.5454545454545454
 40
0.5454545454545454
 40
0.5454545454545454
 40
0.5454545454545454
 40
0.6363636363636364
 40
0.6363636363636364
 40
0.6363636363636364
 40
0.6363636363636364
 40
0.7272727272727273
 40
0.7272727272727273
 40
0.7272727272727273
 40
0.7272727272727273
 40
0.8181818181818182
 40
0.8181818181818182
 40
0.8181818181818182
 40
0.8181818181818182
 40
1.0
 40
1.0
 40
1.0
 40
1.0
 10
-44.9805
 20
-31.3145
 30
0.0
 10
-45.4225
 20
-32.1723
 30
0.0
 10
-46.1444
 20
-32.8384
 30
0.0
 10
-47.0477
 20
-32.8552
 30
0.0
 10
-47.0477
 20
-32.8552
 30
0.0
 10
-43.2931
 20
-25.3717
 30
0.0
 10
-43.1546
 20
-21.0651
 30
0.0
 10
-43.6867
 20
-18.3559
 30
0.0
 10
-43.6867
 20
-18.3559
 30
0.0
 10
-45.8554
 20
-24.7568
 30
0.0
 10
-47.6478
 20
-28.475
 30
0.0
 10
-50.4536
 20
-32.1301
 30
0.0
 10
-50.4536
 20
-32.1301
 30
0.0
 10
-48.9104
 20
-33.7974
 30
0.0
 10
-44.6978
 20
-38.3028
 30
0.0
 10
-42.2485
 20
-40.5563
 30
0.0
 10
-42.2485
 20
-40.5563
 30
0.0
 10
-39.7966
 20
-38.3026
 30
0.0
 10
-35.5832
 20
-33.7981
 30
0.0
 10
-34.04
 20
-32.1301
 30
0.0
 10
-34.04
 20
-32.1301
 30
0.0
 10
-36.8466
 20
-28.4744
 30
0.0
 10
-38.6412
 20
-24.7574
 30
0.0
 10
-40.807
 20
-18.3559
 30
0.0
 10
-40.807
 20
-18.3559
 30
0.0
 10
-41.3398
 20
-21.0647
 30
0.0
 10
-41.2005
 20
-25.3721
 30
0.0
 10
-37.4467
 20
-32.8552
 30
0.0
 10
-37.4467
 20
-32.8552
 30
0.0
 10
-38.3497
 20
-32.8377
 30
0.0
 10
-39.0717
 20
-32.1731
 30
0.0
 10
-39.5161
 20
-31.3149
 30
0.0
 10
-39.5161
 20
-31.3149
 30
0.0
 10
-39.2529
 20
-35.6916
 30
0.0
 10
-40.5381
 20
-37.6628
 30
0.0
 10
-42.2485
 20
-38.2007
 30
0.0
 10
-42.2485
 20
-38.2007
 30
0.0
 10
-43.9586
 20
-37.6626
 30
0.0
 10
-45.2435
 20
-35.692
 30
0.0
 10
-44.9805
 20
-31.3145
 30
0.0
  0
SPLINE
  5
AB
330
1F
100
AcDbEntity
  8
layer 1
370
    13
100
AcDbSpline
210
0.0
220
0.0
230
1.0
 70
    11
 71
     3
 72
    44
 73
    40
 74
     0
 42
0.0000000001
 43
0.0000000001
 12
1.0
 22
0.0
 32
0.0
 13
1.0
 23
0.0
 33
0.0
 40
0.0
 40
0.0
 40
0.0
 40
0.0
 40
0.0909090909090909
 40
0.0909090909090909
 40
0.0909090909090909
 40
0.0909090909090909
 40
0.1818181818181818
 40
0.1818181818181818
 40
0.1818181818181818
 40
0.1818181818181818
 40
0.2727272727272727
 40
0.2727272727272727
 40
0.2727272727272727
 40
0.2727272727272727
 40
0.3636363636363636
 40
0.3636363636363636
 40
0.3636363636363636
 40
0.3636363636363636
 40
0.4545454545454545
 40
0.4545454545454545
 40
0.4545454545454545
 40
0.4545454545454545
 40
0.5454545454545454
 40
0.5454545454545454
 40
0.5454545454545454
 40
0.5454545454545454
 40
0.6363636363636364
 40
0.6363636363636364
 40
0.6363636363636364
 40
0.6363636363636364
 40
0.7272727272727273
 40
0.7272727272727273
 40
0.7272727272727273
 40
0.7272727272727273
 40
0.8181818181818182
 40
0.8181818181818182
 40
0.8181818181818182
 40
0.8181818181818182
 40
1.0
 40
1.0
 40
1.0
 40
1.0
 10
-44.9805
 20
-31.3145
 30
0.0
 10
-45.4225
 20
-32.1723
 30
0.0
 10
-46.1444
 20
-32.8384
 30
0.0
 10
-47.0477
 20
-32.855
 30
0.0
 10
-47.0477
 20
-32.855
 30
0.0
 10
-43.2931
 20
-25.3717
 30
0.0
 10
-43.1546
 20
-21.0651
 30
0.0
 10
-43.6867
 20
-18.3559
 30
0.0
 10
-43.6867
 20
-18.3559
 30
0.0
 10
-45.8554
 20
-24.7568
 30
0.0
 10
-47.6478
 20
-28.475
 30
0.0
 10
-50.4536
 20
-32.1301
 30
0.0
 10
-50.4536
 20
-32.1301
 30
0.0
 10
-48.9104
 20
-33.7974
 30
0.0
 10
-44.6978
 20
-38.3028
 30
0.0
 10
-42.2485
 20
-40.5563
 30
0.0
 10
-42.2485
 20
-40.5563
 30
0.0
 10
-39.7966
 20
-38.3026
 30
0.0
 10
-35.5832
 20
-33.7981
 30
0.0
 10
-34.04
 20
-32.1301
 30
0.0
 10
-34.04
 20
-32.1301
 30
0.0
 10
-36.8466
 20
-28.4744
 30
0.0
 10
-38.6412
 20
-24.7574
 30
0.0
 10
-40.807
 20
-18.3559
 30
0.0
 10
-40.807
 20
-18.3559
 30
0.0
 10
-41.3398
 20
-21.0647
 30
0.0
 10
-41.2005
 20
-25.3719
 30
0.0
 10
-37.4467
 20
-32.855
 30
0.0
 10
-37.4467
 20
-32.855
 30
0.0
 10
-38.3497
 20
-32.8377
 30
0.0
 10
-39.0717
 20
-32.1731
 30
0.0
 10
-39.5161
 20
-31.3149
 30
0.0
 10
-39.5161
 20
-31.3149
 30
0.0
 10
-39.2529
 20
-35.6916
 30
0.0
 10
-40.5381
 20
-37.6628
 30
0.0
 10
-42.2485
 20
-38.2007
 30
0.0
 10
-42.2485
 20
-38.2007
 30
0.0
 10
-43.9586
 20
-37.6626
 30
0.0
 10
-45.2435
 20
-35.692
 30
0.0
 10
-44.9805
 20
-31.3145
 30
0.0
  0
SPLINE
  5
AC
330
1F
100
AcDbEntity
  8
layer 1
 62
     7
100
AcDbSpline
210
0.0
220
0.0
230
1.0
 70
    11
 71
     3
 72
    20
 73
    16
 74
     0
 42
0.0000000001
 43
0.0000000001
 12
1.0
 22
0.0
 32
0.0
 13
1.0
 23
0.0
 33
0.0
 40
0.0
 40
0.0
 40
0.0
 40
0.0
 40
0.2
 40
0.2
 40
0.2
 40
0.2
 40
0.4
 40
0.4
 40
0.4
 40
0.4
 40
0.6
 40
0.6
 40
0.6
 40
0.6
 40
1.0
 40
1.0
 40
1.0
 40
1.0
 10
-47.7803
 20
-51.8214
 30
0.0
 10
-45.6234
 20
-51.7343
 30
0.0
 10
-43.1373
 20
-52.1366
 30
0.0
 10
-42.2485
 20
-55.9869
 30
0.0
 10
-42.2485
 20
-55.9869
 30
0.0
 10
-41.3564
 20
-52.1362
 30
0.0
 10
-38.8732
 20
-51.7345
 30
0.0
 10
-36.7161
 20
-51.8221
 30
0.0
 10
-36.7161
 20
-51.8221
 30
0.0
 10
-36.6479
 20
-50.2753
 30
0.0
 10
-40.2126
 20
-44.4999
 30
0.0
 10
-42.2485
 20
-44.0614
 30
0.0
 10
-42.2485
 20
-44.0614
 30
0.0
 10
-44.2838
 20
-44.4999
 30
0.0
 10
-47.8457
 20
-50.276
 30
0.0
 10
-47.7803
 20
-51.8214
 30
0.0
  0
SPLINE
  5
AD
330
1F
100
AcDbEntity
  8
layer 1
370
    13
100
AcDbSpline
210
0.0
220
0.0
230
1.0
 70
    11
 71
     3
 72
    20
 73
    16
 74
     0
 42
0.0000000001
 43
0.0000000001
 12
1.0
 22
0.0
 32
0.0
 13
1.0
 23
0.0
 33
0.0
 40
0.0
 40
0.0
 40
0.0
 40
0.0
 40
0.2
 40
0.2
 40
0.2
 40
0.2
 40
0.4
 40
0.4
 40
0.4
 40
0.4
 40
0.6
 40
0.6
 40
0.6
 40
0.6
 40
1.0
 40
1.0
 40
1.0
 40
1.0
 10
-47.7803
 20
-51.8214
 30
0.0
 10
-45.6234
 20
-51.7343
 30
0.0
 10
-43.1373
 20
-52.1366
 30
0.0
 10
-42.2485
 20
-55.9869
 30
0.0
 10
-42.2485
 20
-55.9869
 30
0.0
 10
-41.3564
 20
-52.1362
 30
0.0
 10
-38.8732
 20
-51.7345
 30
0.0
 10
-36.7161
 20
-51.8221
 30
0.0
 10
-36.7161
 20
-51.8221
 30
0.0
 10
-36.6479
 20
-50.2753
 30
0.0
 10
-40.2126
 20
-44.5001
 30
0.0
 10
-42.2485
 20
-44.0616
 30
0.0
 10
-42.2485
 20
-44.0616
 30
0.0
 10
-44.2838
 20
-44.4999
 30
0.0
 10
-47.8457
 20
-50.276
 30
0.0
 10
-47.7803
 20
-51.8214
 30
0.0
  0
SPLINE
  5
AE
330
1F
100
AcDbEntity
  8
layer 1
 62
     7
100
AcDbSpline
210
0.0
220
0.0
230
1.0
 70
    11
 71
     3
 72
    44
 73
    40
 74
     0
 42
0.0000000001
 43
0.0000000001
 12
1.0
 22
0.0
 32
0.0
 13
1.0
 23
0.0
 33
0.0
 40
0.0
 40
0.0
 40
0.0
 40
0.0
 40
0.0909090909090909
 40
0.0909090909090909
 40
0.0909090909090909
 40
0.0909090909090909
 40
0.1818181818181818
 40
0.1818181818181818
 40
0.1818181818181818
 40
0.1818181818181818
 40
0.2727272727272727
 40
0.2727272727272727
 40
0.2727272727272727
 40
0.2727272727272727
 40
0.3636363636363636
 40
0.3636363636363636
 40
0.3636363636363636
 40
0.3636363636363636
 40
0.4545454545454545
 40
0.4545454545454545
 40
0.4545454545454545
 40
0.4545454545454545
 40
0.5454545454545454
 40
0.5454545454545454
 40
0.5454545454545454
 40
0.5454545454545454
 40
0.6363636363636364
 40
0.6363636363636364
 40
0.6363636363636364
 40
0.6363636363636364
 40
0.7272727272727273
 40
0.7272727272727273
 40
0.7272727272727273
 40
0.7272727272727273
 40
0.8181818181818182
 40
0.8181818181818182
 40
0.8181818181818182
 40
0.8181818181818182
 40
1.0
 40
1.0
 40
1.0
 40
1.0
 10
-48.7546
 20
-54.0361
 30
0.0
 10
-45.8981
 20
-53.6985
 30
0.0
 10
-44.689
 20
-55.4316
 30
0.0
 10
-44.6861
 20
-57.0089
 30
0.0
 10
-44.6861
 20
-57.0089
 30
0.0
 10
-47.7442
 20
-59.0045
 30
0.0
 10
-46.849
 20
-63.8439
 30
0.0
 10
-43.7802
 20
-63.9374
 30
0.0
 10
-43.7802
 20
-63.9374
 30
0.0
 10
-43.48
 20
-63.1468
 30
0.0
 10
-43.4003
 20
-62.1362
 30
0.0
 10
-43.6105
 20
-61.2701
 30
0.0
 10
-43.6105
 20
-61.2701
 30
0.0
 10
-44.9326
 20
-60.451
 30
0.0
 10
-43.9078
 20
-57.8924
 30
0.0
 10
-42.2485
 20
-57.9916
 30
0.0
 10
-42.2485
 20
-57.9916
 30
0.0
 10
-40.5126
 20
-57.7952
 30
0.0
 10
-39.5617
 20
-60.4518
 30
0.0
 10
-40.8838
 20
-61.2701
 30
0.0
 10
-40.8838
 20
-61.2701
 30
0.0
 10
-41.0932
 20
-62.1357
 30
0.0
 10
-41.0143
 20
-63.1474
 30
0.0
 10
-40.7164
 20
-63.9374
 30
0.0
 10
-40.7164
 20
-63.9374
 30
0.0
 10
-37.6446
 20
-63.8431
 30
0.0
 10
-36.7502
 20
-59.0049
 30
0.0
 10
-39.8074
 20
-57.0089
 30
0.0
 10
-39.8074
 20
-57.0089
 30
0.0
 10
-39.8074
 20
-55.4314
 30
0.0
 10
-38.5963
 20
-53.6993
 30
0.0
 10
-35.7391
 20
-54.0365
 30
0.0
 10
-35.7391
 20
-54.0365
 30
0.0
 10
-34.7055
 20
-56.3576
 30
0.0
 10
-35.6259
 20
-68.15
 30
0.0
 10
-42.2485
 20
-69.5948
 30
0.0
 10
-42.2485
 20
-69.5948
 30
0.0
 10
-48.8676
 20
-68.1494
 30
0.0
 10
-49.7881
 20
-56.358
 30
0.0
 10
-48.7546
 20
-54.0361
 30
0.0
  0
SPLINE
  5
AF
330
1F
100
AcDbEntity
  8
layer 1
370
    13
100
AcDbSpline
210
0.0
220
0.0
230
1.0
 70
    11
 71
     3
 72
    44
 73
    40
 74
     0
 42
0.0000000001
 43
0.0000000001
 12
1.0
 22
0.0
 32
0.0
 13
1.0
 23
0.0
 33
0.0
 40
0.0
 40
0.0
 40
0.0
 40
0.0
 40
0.0909090909090909
 40
0.0909090909090909
 40
0.0909090909090909
 40
0.0909090909090909
 40
0.1818181818181818
 40
0.1818181818181818
 40
0.1818181818181818
 40
0.1818181818181818
 40
0.2727272727272727
 40
0.2727272727272727
 40
0.2727272727272727
 40
0.2727272727272727
 40
0.3636363636363636
 40
0.3636363636363636
 40
0.3636363636363636
 40
0.3636363636363636
 40
0.4545454545454545
 40
0.4545454545454545
 40
0.4545454545454545
 40
0.4545454545454545
 40
0.5454545454545454
 40
0.5454545454545454
 40
0.5454545454545454
 40
0.5454545454545454
 40
0.6363636363636364
 40
0.6363636363636364
 40
0.6363636363636364
 40
0.6363636363636364
 40
0.7272727272727273
 40
0.7272727272727273
 40
0.7272727272727273
 40
0.7272727272727273
 40
0.8181818181818182
 40
0.8181818181818182
 40
0.8181818181818182
 40
0.8181818181818182
 40
1.0
 40
1.0
 40
1.0
 40
1.0
 10
-48.7546
 20
-54.0361
 30
0.0
 10
-45.8981
 20
-53.6993
 30
0.0
 10
-44.6861
 20
-55.4316
 30
0.0
 10
-44.6861
 20
-57.0089
 30
0.0
 10
-44.6861
 20
-57.0089
 30
0.0
 10
-47.7442
 20
-59.0045
 30
0.0
 10
-46.849
 20
-63.8439
 30
0.0
 10
-43.7802
 20
-63.9374
 30
0.0
 10
-43.7802
 20
-63.9374
 30
0.0
 10
-43.48
 20
-63.1468
 30
0.0
 10
-43.4003
 20
-62.1362
 30
0.0
 10
-43.6105
 20
-61.2701
 30
0.0
 10
-43.6105
 20
-61.2701
 30
0.0
 10
-44.9326
 20
-60.451
 30
0.0
 10
-43.9078
 20
-57.8926
 30
0.0
 10
-42.2485
 20
-57.9918
 30
0.0
 10
-42.2485
 20
-57.9918
 30
0.0
 10
-40.5126
 20
-57.796
 30
0.0
 10
-39.5617
 20
-60.4518
 30
0.0
 10
-40.8838
 20
-61.2701
 30
0.0
 10
-40.8838
 20
-61.2701
 30
0.0
 10
-41.0932
 20
-62.1357
 30
0.0
 10
-41.0143
 20
-63.1474
 30
0.0
 10
-40.7164
 20
-63.9374
 30
0.0
 10
-40.7164
 20
-63.9374
 30
0.0
 10
-37.6446
 20
-63.8431
 30
0.0
 10
-36.7502
 20
-59.0049
 30
0.0
 10
-39.8074
 20
-57.0089
 30
0.0
 10
-39.8074
 20
-57.0089
 30
0.0
 10
-39.8074
 20
-55.4314
 30
0.0
 10
-38.5963
 20
-53.6993
 30
0.0
 10
-35.7391
 20
-54.0363
 30
0.0
 10
-35.7391
 20
-54.0363
 30
0.0
 10
-34.7055
 20
-56.3576
 30
0.0
 10
-35.6259
 20
-68.15
 30
0.0
 10
-42.2485
 20
-69.5948
 30
0.0
 10
-42.2485
 20
-69.5948
 30
0.0
 10
-48.8676
 20
-68.1494
 30
0.0
 10
-49.7881
 20
-56.358
 30
0.0
 10
-48.7546
 20
-54.0361
 30
0.0
  0
SPLINE
  5
B0
330
1F
100
AcDbEntity
  8
layer 1
 62
     7
370
     5
100
AcDbSpline
210
0.0
220
0.0
230
1.0
 70
    11
 71
     3
 72
    16
 73
    12
 74
     0
 42
0.0000000001
 43
0.0000000001
 12
1.0
 22
0.0
 32
0.0
 13
1.0
 23
0.0
 33
0.0
 40
0.0
 40
0.0
 40
0.0
 40
0.0
 40
0.25
 40
0.25
 40
0.25
 40
0.25
 40
0.5
 40
0.5
 40
0.5
 40
0.5
 40
1.0
 40
1.0
 40
1.0
 40
1.0
 10
-75.8815
 20
-103.2925
 30
0.0
 10
-74.1232
 20
-100.1498
 30
0.0
 10
-72.1923
 20
-98.1626
 30
0.0
 10
-69.1829
 20
-95.6338
 30
0.0
 10
-69.1829
 20
-95.6338
 30
0.0
 10
-72.3792
 20
-95.8117
 30
0.0
 10
-75.1371
 20
-94.5639
 30
0.0
 10
-75.7823
 20
-91.9081
 30
0.0
 10
-75.7823
 20
-91.9081
 30
0.0
 10
-75.7823
 20
-91.9081
 30
0.0
 10
-75.8815
 20
-103.2925
 30
0.0
 10
-75.8815
 20
-103.2925
 30
0.0
  0
SPLINE
  5
B1
330
1F
100
AcDbEntity
  8
layer 1
 62
     7
100
AcDbSpline
210
0.0
220
0.0
230
1.0
 70
    11
 71
     3
 72
    16
 73
    12
 74
     0
 42
0.0000000001
 43
0.0000000001
 12
1.0
 22
0.0
 32
0.0
 13
1.0
 23
0.0
 33
0.0
 40
0.0
 40
0.0
 40
0.0
 40
0.0
 40
0.25
 40
0.25
 40
0.25
 40
0.25
 40
0.5
 40
0.5
 40
0.5
 40
0.5
 40
1.0
 40
1.0
 40
1.0
 40
1.0
 10
-61.697
 20
-109.7392
 30
0.0
 10
-61.1278
 20
-105.4418
 30
0.0
 10
-64.9383
 20
-103.1195
 30
0.0
 10
-69.5511
 20
-103.9524
 30
0.0
 10
-69.5511
 20
-103.9524
 30
0.0
 10
-73.7949
 20
-104.1527
 30
0.0
 10
-75.8135
 20
-106.8488
 30
0.0
 10
-75.8135
 20
-109.6408
 30
0.0
 10
-75.8135
 20
-109.6408
 30
0.0
 10
-75.8135
 20
-109.6408
 30
0.0
 10
-61.697
 20
-109.7392
 30
0.0
 10
-61.697
 20
-109.7392
 30
0.0
  0
SPLINE
  5
B2
330
1F
100
AcDbEntity
  8
layer 1
370
     5
100
AcDbSpline
210
0.0
220
0.0
230
1.0
 70
    11
 71
     3
 72
    16
 73
    12
 74
     0
 42
0.0000000001
 43
0.0000000001
 12
1.0
 22
0.0
 32
0.0
 13
1.0
 23
0.0
 33
0.0
 40
0.0
 40
0.0
 40
0.0
 40
0.0
 40
0.25
 40
0.25
 40
0.25
 40
0.25
 40
0.5
 40
0.5
 40
0.5
 40
0.5
 40
1.0
 40
1.0
 40
1.0
 40
1.0
 10
-61.697
 20
-109.7392
 30
0.0
 10
-61.1278
 20
-105.4418
 30
0.0
 10
-64.9383
 20
-103.1197
 30
0.0
 10
-69.5511
 20
-103.9524
 30
0.0
 10
-69.5511
 20
-103.9524
 30
0.0
 10
-73.7949
 20
-104.1527
 30
0.0
 10
-75.8135
 20
-106.8488
 30
0.0
 10
-75.8135
 20
-109.6408
 30
0.0
 10
-75.8135
 20
-109.6408
 30
0.0
 10
-75.8135
 20
-109.6408
 30
0.0
 10
-61.697
 20
-109.7392
 30
0.0
 10
-61.697
 20
-109.7392
 30
0.0
  0
SPLINE
  5
B3
330
1F
100
AcDbEntity
  8
layer 1
 62
     7
100
AcDbSpline
210
0.0
220
0.0
230
1.0
 70
    11
 71
     3
 72
    60
 73
    56
 74
     0
 42
0.0000000001
 43
0.0000000001
 12
1.0
 22
0.0
 32
0.0
 13
1.0
 23
0.0
 33
0.0
 40
0.0
 40
0.0
 40
0.0
 40
0.0
 40
0.0666666666666667
 40
0.0666666666666667
 40
0.0666666666666667
 40
0.0666666666666667
 40
0.1333333333333333
 40
0.1333333333333333
 40
0.1333333333333333
 40
0.1333333333333333
 40
0.2
 40
0.2
 40
0.2
 40
0.2
 40
0.2666666666666667
 40
0.2666666666666667
 40
0.2666666666666667
 40
0.2666666666666667
 40
0.3333333333333333
 40
0.3333333333333333
 40
0.3333333333333333
 40
0.3333333333333333
 40
0.4
 40
0.4
 40
0.4
 40
0.4
 40
0.4666666666666667
 40
0.4666666666666667
 40
0.4666666666666667
 40
0.4666666666666667
 40
0.5333333333333333
 40
0.5333333333333333
 40
0.5333333333333333
 40
0.5333333333333333
 40
0.6
 40
0.6
 40
0.6
 40
0.6
 40
0.6666666666666666
 40
0.6666666666666666
 40
0.6666666666666666
 40
0.6666666666666666
 40
0.7333333333333333
 40
0.7333333333333333
 40
0.7333333333333333
 40
0.7333333333333333
 40
0.8
 40
0.8
 40
0.8
 40
0.8
 40
0.8666666666666667
 40
0.8666666666666667
 40
0.8666666666666667
 40
0.8666666666666667
 40
1.0
 40
1.0
 40
1.0
 40
1.0
 10
-44.5447
 20
-102.6718
 30
0.0
 10
-44.6608
 20
-105.8774
 30
0.0
 10
-46.7222
 20
-102.8789
 30
0.0
 10
-48.8988
 20
-104.0313
 30
0.0
 10
-48.8988
 20
-104.0313
 30
0.0
 10
-50.17
 20
-105.0218
 30
0.0
 10
-50.8326
 20
-105.6029
 30
0.0
 10
-50.8131
 20
-107.5708
 30
0.0
 10
-50.8131
 20
-107.5708
 30
0.0
 10
-48.2907
 20
-104.5865
 30
0.0
 10
-47.8007
 20
-106.4356
 30
0.0
 10
-46.6425
 20
-105.7108
 30
0.0
 10
-46.6425
 20
-105.7108
 30
0.0
 10
-47.6478
 20
-106.7432
 30
0.0
 10
-48.8851
 20
-108.6492
 30
0.0
 10
-47.8261
 20
-109.1647
 30
0.0
 10
-47.8261
 20
-109.1647
 30
0.0
 10
-47.1861
 20
-108.1393
 30
0.0
 10
-46.5714
 20
-107.9527
 30
0.0
 10
-45.595
 20
-107.6671
 30
0.0
 10
-45.595
 20
-107.6671
 30
0.0
 10
-45.0623
 20
-108.7738
 30
0.0
 10
-44.726
 20
-109.7822
 30
0.0
 10
-44.0122
 20
-109.7879
 30
0.0
 10
-44.0122
 20
-109.7879
 30
0.0
 10
-47.8204
 20
-109.793
 30
0.0
 10
-55.1083
 20
-109.7822
 30
0.0
 10
-58.7011
 20
-109.7879
 30
0.0
 10
-58.7011
 20
-109.7879
 30
0.0
 10
-57.9335
 20
-105.7159
 30
0.0
 10
-59.6181
 20
-103.4879
 30
0.0
 10
-62.3166
 20
-102.0412
 30
0.0
 10
-62.3166
 20
-102.0412
 30
0.0
 10
-60.8359
 20
-102.0008
 30
0.0
 10
-61.0598
 20
-100.685
 30
0.0
 10
-61.0598
 20
-100.685
 30
0.0
 10
-61.0598
 20
-100.685
 30
0.0
 10
-66.1335
 20
-99.3793
 30
0.0
 10
-67.0309
 20
-99.6883
 30
0.0
 10
-71.4617
 20
-101.1604
 30
0.0
 10
-71.4617
 20
-101.1604
 30
0.0
 10
-61.1952
 20
-92.3152
 30
0.0
 10
-53.834
 20
-90.6339
 30
0.0
 10
-50.2919
 20
-93.2897
 30
0.0
 10
-50.2919
 20
-93.2897
 30
0.0
 10
-46.4417
 20
-96.1737
 30
0.0
 10
-49.4482
 20
-98.0633
 30
0.0
 10
-52.7214
 20
-98.346
 30
0.0
 10
-52.7214
 20
-98.346
 30
0.0
 10
-54.0464
 20
-100.5543
 30
0.0
 10
-47.6877
 20
-103.6972
 30
0.0
 10
-44.5108
 20
-98.5503
 30
0.0
 10
-44.5108
 20
-98.5503
 30
0.0
 10
-44.5811
 20
-100.4841
 30
0.0
 10
-44.4282
 20
-100.804
 30
0.0
 10
-44.5447
 20
-102.6718
 30
0.0
  0
SPLINE
  5
B4
330
1F
100
AcDbEntity
  8
layer 1
370
    13
100
AcDbSpline
210
0.0
220
0.0
230
1.0
 70
    11
 71
     3
 72
    60
 73
    56
 74
     0
 42
0.0000000001
 43
0.0000000001
 12
1.0
 22
0.0
 32
0.0
 13
1.0
 23
0.0
 33
0.0
 40
0.0
 40
0.0
 40
0.0
 40
0.0
 40
0.0666666666666667
 40
0.0666666666666667
 40
0.0666666666666667
 40
0.0666666666666667
 40
0.1333333333333333
 40
0.1333333333333333
 40
0.1333333333333333
 40
0.1333333333333333
 40
0.2
 40
0.2
 40
0.2
 40
0.2
 40
0.2666666666666667
 40
0.2666666666666667
 40
0.2666666666666667
 40
0.2666666666666667
 40
0.3333333333333333
 40
0.3333333333333333
 40
0.3333333333333333
 40
0.3333333333333333
 40
0.4
 40
0.4
 40
0.4
 40
0.4
 40
0.4666666666666667
 40
0.4666666666666667
 40
0.4666666666666667
 40
0.4666666666666667
 40
0.5333333333333333
 40
0.5333333333333333
 40
0.5333333333333333
 40
0.5333333333333333
 40
0.6
 40
0.6
 40
0.6
 40
0.6
 40
0.6666666666666666
 40
0.6666666666666666
 40
0.6666666666666666
 40
0.6666666666666666
 40
0.7333333333333333
 40
0.7333333333333333
 40
0.7333333333333333
 40
0.7333333333333333
 40
0.8
 40
0.8
 40
0.8
 40
0.8
 40
0.8666666666666667
 40
0.8666666666666667
 40
0.8666666666666667
 40
0.8666666666666667
 40
1.0
 40
1.0
 40
1.0
 40
1.0
 10
-44.5447
 20
-102.6718
 30
0.0
 10
-44.6608
 20
-105.8774
 30
0.0
 10
-46.7222
 20
-102.8789
 30
0.0
 10
-48.8988
 20
-104.0315
 30
0.0
 10
-48.8988
 20
-104.0315
 30
0.0
 10
-50.17
 20
-105.0218
 30
0.0
 10
-50.8326
 20
-105.6029
 30
0.0
 10
-50.8131
 20
-107.5708
 30
0.0
 10
-50.8131
 20
-107.5708
 30
0.0
 10
-48.2907
 20
-104.5865
 30
0.0
 10
-47.8007
 20
-106.4356
 30
0.0
 10
-46.6425
 20
-105.7108
 30
0.0
 10
-46.6425
 20
-105.7108
 30
0.0
 10
-47.6478
 20
-106.7432
 30
0.0
 10
-48.8851
 20
-108.6492
 30
0.0
 10
-47.8261
 20
-109.1645
 30
0.0
 10
-47.8261
 20
-109.1645
 30
0.0
 10
-47.1861
 20
-108.1393
 30
0.0
 10
-46.5714
 20
-107.9527
 30
0.0
 10
-45.595
 20
-107.6671
 30
0.0
 10
-45.595
 20
-107.6671
 30
0.0
 10
-45.0623
 20
-108.7738
 30
0.0
 10
-44.726
 20
-109.7822
 30
0.0
 10
-44.0122
 20
-109.7879
 30
0.0
 10
-44.0122
 20
-109.7879
 30
0.0
 10
-47.8204
 20
-109.793
 30
0.0
 10
-55.1083
 20
-109.7822
 30
0.0
 10
-58.7011
 20
-109.7879
 30
0.0
 10
-58.7011
 20
-109.7879
 30
0.0
 10
-57.9335
 20
-105.7159
 30
0.0
 10
-59.6181
 20
-103.4879
 30
0.0
 10
-62.3166
 20
-102.041
 30
0.0
 10
-62.3166
 20
-102.041
 30
0.0
 10
-60.8359
 20
-102.0008
 30
0.0
 10
-61.0598
 20
-100.685
 30
0.0
 10
-61.0598
 20
-100.685
 30
0.0
 10
-61.0598
 20
-100.685
 30
0.0
 10
-66.1335
 20
-99.3793
 30
0.0
 10
-67.0309
 20
-99.6883
 30
0.0
 10
-71.4617
 20
-101.1604
 30
0.0
 10
-71.4617
 20
-101.1604
 30
0.0
 10
-61.1952
 20
-92.3152
 30
0.0
 10
-53.834
 20
-90.6339
 30
0.0
 10
-50.2919
 20
-93.2897
 30
0.0
 10
-50.2919
 20
-93.2897
 30
0.0
 10
-46.4417
 20
-96.1737
 30
0.0
 10
-49.4482
 20
-98.0633
 30
0.0
 10
-52.7214
 20
-98.3467
 30
0.0
 10
-52.7214
 20
-98.3467
 30
0.0
 10
-54.0464
 20
-100.5543
 30
0.0
 10
-47.6877
 20
-103.6972
 30
0.0
 10
-44.5108
 20
-98.5503
 30
0.0
 10
-44.5108
 20
-98.5503
 30
0.0
 10
-44.5811
 20
-100.4841
 30
0.0
 10
-44.4282
 20
-100.804
 30
0.0
 10
-44.5447
 20
-102.6718
 30
0.0
  0
SPLINE
  5
B5
330
1F
100
AcDbEntity
  8
layer 1
 62
     7
370
    13
100
AcDbSpline
210
0.0
220
0.0
230
1.0
 70
    11
 71
     3
 72
    12
 73
     8
 74
     0
 42
0.0000000001
 43
0.0000000001
 12
1.0
 22
0.0
 32
0.0
 13
1.0
 23
0.0
 33
0.0
 40
0.0
 40
0.0
 40
0.0
 40
0.0
 40
0.3333333333333333
 40
0.3333333333333333
 40
0.3333333333333333
 40
0.3333333333333333
 40
1.0
 40
1.0
 40
1.0
 40
1.0
 10
-46.2459
 20
0.2888
 30
0.0
 10
-44.6043
 20
1.0252
 30
0.0
 10
-42.9676
 20
3.7257
 30
0.0
 10
-43.1431
 20
5.9879
 30
0.0
 10
-43.1431
 20
5.9879
 30
0.0
 10
-45.2016
 20
5.0851
 30
0.0
 10
-46.2801
 20
2.3414
 30
0.0
 10
-46.2459
 20
0.2888
 30
0.0
  0
SPLINE
  5
B6
330
1F
100
AcDbEntity
  8
layer 1
 62
     7
100
AcDbSpline
210
0.0
220
0.0
230
1.0
 70
    11
 71
     3
 72
    12
 73
     8
 74
     0
 42
0.0000000001
 43
0.0000000001
 12
1.0
 22
0.0
 32
0.0
 13
1.0
 23
0.0
 33
0.0
 40
0.0
 40
0.0
 40
0.0
 40
0.0
 40
0.3333333333333333
 40
0.3333333333333333
 40
0.3333333333333333
 40
0.3333333333333333
 40
1.0
 40
1.0
 40
1.0
 40
1.0
 10
-49.8875
 20
5.911
 30
0.0
 10
-48.2052
 20
5.2743
 30
0.0
 10
-44.9717
 20
5.9938
 30
0.0
 10
-43.6613
 20
7.7493
 30
0.0
 10
-43.6613
 20
7.7493
 30
0.0
 10
-45.7559
 20
8.5654
 30
0.0
 10
-48.4604
 20
7.3868
 30
0.0
 10
-49.8875
 20
5.911
 30
0.0
  0
SPLINE
  5
B7
330
1F
100
AcDbEntity
  8
layer 1
370
    13
100
AcDbSpline
210
0.0
220
0.0
230
1.0
 70
    11
 71
     3
 72
    12
 73
     8
 74
     0
 42
0.0000000001
 43
0.0000000001
 12
1.0
 22
0.0
 32
0.0
 13
1.0
 23
0.0
 33
0.0
 40
0.0
 40
0.0
 40
0.0
 40
0.0
 40
0.3333333333333333
 40
0.3333333333333333
 40
0.3333333333333333
 40
0.3333333333333333
 40
1.0
 40
1.0
 40
1.0
 40
1.0
 10
-49.8875
 20
5.911
 30
0.0
 10
-48.2052
 20
5.2743
 30
0.0
 10
-44.9717
 20
5.9938
 30
0.0
 10
-43.6613
 20
7.7484
 30
0.0
 10
-43.6613
 20
7.7484
 30
0.0
 10
-45.7559
 20
8.5645
 30
0.0
 10
-48.4604
 20
7.386
 30
0.0
 10
-49.8875
 20
5.911
 30
0.0
  0
SPLINE
  5
B8
330
1F
100
AcDbEntity
  8
layer 1
 62
     7
370
     9
100
AcDbSpline
210
0.0
220
0.0
230
1.0
 70
    11
 71
     3
 72
    16
 73
    12
 74
     0
 42
0.0000000001
 43
0.0000000001
 12
1.0
 22
0.0
 32
0.0
 13
1.0
 23
0.0
 33
0.0
 40
0.0
 40
0.0
 40
0.0
 40
0.0
 40
0.25
 40
0.25
 40
0.25
 40
0.25
 40
0.5
 40
0.5
 40
0.5
 40
0.5
 40
1.0
 40
1.0
 40
1.0
 40
1.0
 10
-32.407
 20
-34.5648
 30
0.0
 10
-35.6658
 20
-38.2789
 30
0.0
 10
-36.4726
 20
-39.1008
 30
0.0
 10
-39.363
 20
-42.0711
 30
0.0
 10
-39.363
 20
-42.0711
 30
0.0
 10
-35.6767
 20
-45.1399
 30
0.0
 10
-33.8676
 20
-49.8318
 30
0.0
 10
-33.2789
 20
-53.903
 30
0.0
 10
-33.2789
 20
-53.903
 30
0.0
 10
-30.5609
 20
-50.1402
 30
0.0
 10
-25.5691
 20
-41.3913
 30
0.0
 10
-32.407
 20
-34.5648
 30
0.0
  0
SPLINE
  5
B9
330
1F
100
AcDbEntity
  8
layer 1
 62
     7
100
AcDbSpline
210
0.0
220
0.0
230
1.0
 70
    11
 71
     3
 72
    28
 73
    24
 74
     0
 42
0.0000000001
 43
0.0000000001
 12
1.0
 22
0.0
 32
0.0
 13
1.0
 23
0.0
 33
0.0
 40
0.0
 40
0.0
 40
0.0
 40
0.0
 40
0.1428571428571428
 40
0.1428571428571428
 40
0.1428571428571428
 40
0.1428571428571428
 40
0.2857142857142857
 40
0.2857142857142857
 40
0.2857142857142857
 40
0.2857142857142857
 40
0.4285714285714285
 40
0.4285714285714285
 40
0.4285714285714285
 40
0.4285714285714285
 40
0.5714285714285714
 40
0.5714285714285714
 40
0.5714285714285714
 40
0.5714285714285714
 40
0.7142857142857143
 40
0.7142857142857143
 40
0.7142857142857143
 40
0.7142857142857143
 40
1.0
 40
1.0
 40
1.0
 40
1.0
 10
-8.6149
 20
-57.0027
 30
0.0
 10
-10.2943
 20
-59.5794
 30
0.0
 10
-15.0368
 20
-60.2706
 30
0.0
 10
-18.018
 20
-58.5665
 30
0.0
 10
-18.018
 20
-58.5665
 30
0.0
 10
-16.6901
 20
-64.5372
 30
0.0
 10
-19.6917
 20
-68.1081
 30
0.0
 10
-21.4695
 20
-69.4438
 30
0.0
 10
-21.4695
 20
-69.4438
 30
0.0
 10
-21.3273
 20
-69.8056
 30
0.0
 10
-20.9026
 20
-69.8013
 30
0.0
 10
-20.4077
 20
-69.3279
 30
0.0
 10
-20.4077
 20
-69.3279
 30
0.0
 10
-19.643
 20
-68.5995
 30
0.0
 10
-19.38
 20
-68.1471
 30
0.0
 10
-18.4057
 20
-68.1023
 30
0.0
 10
-18.4057
 20
-68.1023
 30
0.0
 10
-14.5554
 20
-67.9236
 30
0.0
 10
-12.6129
 20
-67.9377
 30
0.0
 10
-8.7113
 20
-67.9268
 30
0.0
 10
-8.7113
 20
-67.9268
 30
0.0
 10
-8.7113
 20
-67.9268
 30
0.0
 10
-8.6149
 20
-57.0027
 30
0.0
 10
-8.6149
 20
-57.0027
 30
0.0
  0
SPLINE
  5
BA
330
1F
100
AcDbEntity
  8
layer 1
370
    13
100
AcDbSpline
210
0.0
220
0.0
230
1.0
 70
    11
 71
     3
 72
    28
 73
    24
 74
     0
 42
0.0000000001
 43
0.0000000001
 12
1.0
 22
0.0
 32
0.0
 13
1.0
 23
0.0
 33
0.0
 40
0.0
 40
0.0
 40
0.0
 40
0.0
 40
0.1428571428571428
 40
0.1428571428571428
 40
0.1428571428571428
 40
0.1428571428571428
 40
0.2857142857142857
 40
0.2857142857142857
 40
0.2857142857142857
 40
0.2857142857142857
 40
0.4285714285714285
 40
0.4285714285714285
 40
0.4285714285714285
 40
0.4285714285714285
 40
0.5714285714285714
 40
0.5714285714285714
 40
0.5714285714285714
 40
0.5714285714285714
 40
0.7142857142857143
 40
0.7142857142857143
 40
0.7142857142857143
 40
0.7142857142857143
 40
1.0
 40
1.0
 40
1.0
 40
1.0
 10
-8.6149
 20
-57.0027
 30
0.0
 10
-10.2943
 20
-59.5794
 30
0.0
 10
-15.0368
 20
-60.2706
 30
0.0
 10
-18.018
 20
-58.5665
 30
0.0
 10
-18.018
 20
-58.5665
 30
0.0
 10
-16.6901
 20
-64.5372
 30
0.0
 10
-19.6917
 20
-68.1081
 30
0.0
 10
-21.4695
 20
-69.4446
 30
0.0
 10
-21.4695
 20
-69.4446
 30
0.0
 10
-21.3273
 20
-69.8064
 30
0.0
 10
-20.9026
 20
-69.8013
 30
0.0
 10
-20.4077
 20
-69.3279
 30
0.0
 10
-20.4077
 20
-69.3279
 30
0.0
 10
-19.643
 20
-68.5995
 30
0.0
 10
-19.38
 20
-68.1473
 30
0.0
 10
-18.4057
 20
-68.1023
 30
0.0
 10
-18.4057
 20
-68.1023
 30
0.0
 10
-14.5554
 20
-67.9236
 30
0.0
 10
-12.6129
 20
-67.9377
 30
0.0
 10
-8.7113
 20
-67.9268
 30
0.0
 10
-8.7113
 20
-67.9268
 30
0.0
 10
-8.7113
 20
-67.9268
 30
0.0
 10
-8.6149
 20
-57.0027
 30
0.0
 10
-8.6149
 20
-57.0027
 30
0.0
  0
SPLINE
  5
BB
330
1F
100
AcDbEntity
  8
layer 1
 62
     7
100
AcDbSpline
210
0.0
220
0.0
230
1.0
 70
    11
 71
     3
 72
    16
 73
    12
 74
     0
 42
0.0000000001
 43
0.0000000001
 12
1.0
 22
0.0
 32
0.0
 13
1.0
 23
0.0
 33
0.0
 40
0.0
 40
0.0
 40
0.0
 40
0.0
 40
0.25
 40
0.25
 40
0.25
 40
0.25
 40
0.5
 40
0.5
 40
0.5
 40
0.5
 40
1.0
 40
1.0
 40
1.0
 40
1.0
 10
-8.6149
 20
-78.5526
 30
0.0
 10
-9.589
 20
-75.2786
 30
0.0
 10
-13.5385
 20
-73.097
 30
0.0
 10
-17.3301
 20
-72.4568
 30
0.0
 10
-17.3301
 20
-72.4568
 30
0.0
 10
-13.3516
 20
-72.5047
 30
0.0
 10
-12.6129
 20
-72.4287
 30
0.0
 10
-8.7113
 20
-72.3771
 30
0.0
 10
-8.7113
 20
-72.3771
 30
0.0
 10
-8.7113
 20
-72.3771
 30
0.0
 10
-8.6149
 20
-78.5526
 30
0.0
 10
-8.6149
 20
-78.5526
 30
0.0
  0
SPLINE
  5
BC
330
1F
100
AcDbEntity
  8
layer 1
370
     5
100
AcDbSpline
210
0.0
220
0.0
230
1.0
 70
    11
 71
     3
 72
    16
 73
    12
 74
     0
 42
0.0000000001
 43
0.0000000001
 12
1.0
 22
0.0
 32
0.0
 13
1.0
 23
0.0
 33
0.0
 40
0.0
 40
0.0
 40
0.0
 40
0.0
 40
0.25
 40
0.25
 40
0.25
 40
0.25
 40
0.5
 40
0.5
 40
0.5
 40
0.5
 40
1.0
 40
1.0
 40
1.0
 40
1.0
 10
-8.6149
 20
-78.5526
 30
0.0
 10
-9.589
 20
-75.2786
 30
0.0
 10
-13.5385
 20
-73.0968
 30
0.0
 10
-17.3301
 20
-72.4568
 30
0.0
 10
-17.3301
 20
-72.4568
 30
0.0
 10
-13.3516
 20
-72.5047
 30
0.0
 10
-12.6129
 20
-72.4287
 30
0.0
 10
-8.7113
 20
-72.3771
 30
0.0
 10
-8.7113
 20
-72.3771
 30
0.0
 10
-8.7113
 20
-72.3771
 30
0.0
 10
-8.6149
 20
-78.5526
 30
0.0
 10
-8.6149
 20
-78.5526
 30
0.0
  0
SPLINE
  5
BD
330
1F
100
AcDbEntity
  8
layer 1
 62
     7
370
    13
100
AcDbSpline
210
0.0
220
0.0
230
1.0
 70
    11
 71
     3
 72
    16
 73
    12
 74
     0
 42
0.0000000001
 43
0.0000000001
 12
1.0
 22
0.0
 32
0.0
 13
1.0
 23
0.0
 33
0.0
 40
0.0
 40
0.0
 40
0.0
 40
0.0
 40
0.25
 40
0.25
 40
0.25
 40
0.25
 40
0.5
 40
0.5
 40
0.5
 40
0.5
 40
1.0
 40
1.0
 40
1.0
 40
1.0
 10
-32.868
 20
-74.9061
 30
0.0
 10
-36.5203
 20
-76.5132
 30
0.0
 10
-38.7688
 20
-82.0463
 30
0.0
 10
-39.9778
 20
-86.1544
 30
0.0
 10
-39.9778
 20
-86.1544
 30
0.0
 10
-39.9291
 20
-82.1763
 30
0.0
 10
-39.8161
 20
-77.7626
 30
0.0
 10
-39.8668
 20
-73.8638
 30
0.0
 10
-39.8668
 20
-73.8638
 30
0.0
 10
-38.2106
 20
-74.5913
 30
0.0
 10
-35.7303
 20
-74.8749
 30
0.0
 10
-32.868
 20
-74.9061
 30
0.0
  0
SPLINE
  5
BE
330
1F
100
AcDbEntity
  8
layer 1
 62
     7
100
AcDbSpline
210
0.0
220
0.0
230
1.0
 70
    11
 71
     3
 72
    32
 73
    28
 74
     0
 42
0.0000000001
 43
0.0000000001
 12
1.0
 22
0.0
 32
0.0
 13
1.0
 23
0.0
 33
0.0
 40
0.0
 40
0.0
 40
0.0
 40
0.0
 40
0.125
 40
0.125
 40
0.125
 40
0.125
 40
0.25
 40
0.25
 40
0.25
 40
0.25
 40
0.375
 40
0.375
 40
0.375
 40
0.375
 40
0.5
 40
0.5
 40
0.5
 40
0.5
 40
0.625
 40
0.625
 40
0.625
 40
0.625
 40
0.75
 40
0.75
 40
0.75
 40
0.75
 40
1.0
 40
1.0
 40
1.0
 40
1.0
 10
-21.5739
 20
-62.2009
 30
0.0
 10
-24.0115
 20
-70.2483
 30
0.0
 10
-31.0762
 20
-71.9358
 30
0.0
 10
-38.157
 20
-70.9818
 30
0.0
 10
-38.157
 20
-70.9818
 30
0.0
 10
-34.4618
 20
-67.5697
 30
0.0
 10
-33.5421
 20
-66.1938
 30
0.0
 10
-32.7433
 20
-62.6182
 30
0.0
 10
-32.7433
 20
-62.6182
 30
0.0
 10
-32.2171
 20
-66.066
 30
0.0
 10
-28.2532
 20
-66.5932
 30
0.0
 10
-26.1634
 20
-65.1601
 30
0.0
 10
-26.1634
 20
-65.1601
 30
0.0
 10
-21.9137
 20
-62.2442
 30
0.0
 10
-24.5268
 20
-56.2218
 30
0.0
 10
-27.4065
 20
-59.6675
 30
0.0
 10
-27.4065
 20
-59.6675
 30
0.0
 10
-25.6401
 20
-59.82
 30
0.0
 10
-26.4838
 20
-62.7088
 30
0.0
 10
-28.6974
 20
-62.1877
 30
0.0
 10
-28.6974
 20
-62.1877
 30
0.0
 10
-31.6053
 20
-61.5013
 30
0.0
 10
-31.2293
 20
-57.9606
 30
0.0
 10
-29.7818
 20
-56.5501
 30
0.0
 10
-29.7818
 20
-56.5501
 30
0.0
 10
-27.6101
 20
-54.2481
 30
0.0
 10
-19.8497
 20
-54.3307
 30
0.0
 10
-21.5739
 20
-62.2009
 30
0.0
  0
SPLINE
  5
BF
330
1F
100
AcDbEntity
  8
layer 1
370
    13
100
AcDbSpline
210
0.0
220
0.0
230
1.0
 70
    11
 71
     3
 72
    32
 73
    28
 74
     0
 42
0.0000000001
 43
0.0000000001
 12
1.0
 22
0.0
 32
0.0
 13
1.0
 23
0.0
 33
0.0
 40
0.0
 40
0.0
 40
0.0
 40
0.0
 40
0.125
 40
0.125
 40
0.125
 40
0.125
 40
0.25
 40
0.25
 40
0.25
 40
0.25
 40
0.375
 40
0.375
 40
0.375
 40
0.375
 40
0.5
 40
0.5
 40
0.5
 40
0.5
 40
0.625
 40
0.625
 40
0.625
 40
0.625
 40
0.75
 40
0.75
 40
0.75
 40
0.75
 40
1.0
 40
1.0
 40
1.0
 40
1.0
 10
-21.5739
 20
-62.2009
 30
0.0
 10
-24.0115
 20
-70.2483
 30
0.0
 10
-31.0762
 20
-71.9358
 30
0.0
 10
-38.157
 20
-70.9818
 30
0.0
 10
-38.157
 20
-70.9818
 30
0.0
 10
-34.4618
 20
-67.5697
 30
0.0
 10
-33.5421
 20
-66.1938
 30
0.0
 10
-32.7433
 20
-62.6182
 30
0.0
 10
-32.7433
 20
-62.6182
 30
0.0
 10
-32.2171
 20
-66.066
 30
0.0
 10
-28.2532
 20
-66.5932
 30
0.0
 10
-26.1634
 20
-65.1603
 30
0.0
 10
-26.1634
 20
-65.1603
 30
0.0
 10
-21.9137
 20
-62.2442
 30
0.0
 10
-24.5268
 20
-56.2218
 30
0.0
 10
-27.4065
 20
-59.6675
 30
0.0
 10
-27.4065
 20
-59.6675
 30
0.0
 10
-25.6401
 20
-59.82
 30
0.0
 10
-26.4838
 20
-62.7088
 30
0.0
 10
-28.6974
 20
-62.1877
 30
0.0
 10
-28.6974
 20
-62.1877
 30
0.0
 10
-31.6053
 20
-61.5013
 30
0.0
 10
-31.2293
 20
-57.9606
 30
0.0
 10
-29.7818
 20
-56.5501
 30
0.0
 10
-29.7818
 20
-56.5501
 30
0.0
 10
-27.6101
 20
-54.2481
 30
0.0
 10
-19.8497
 20
-54.3307
 30
0.0
 10
-21.5739
 20
-62.2009
 30
0.0
  0
SPLINE
  5
C0
330
1F
100
AcDbEntity
  8
layer 1
 62
     7
100
AcDbSpline
210
0.0
220
0.0
230
1.0
 70
    11
 71
     3
 72
    36
 73
    32
 74
     0
 42
0.0000000001
 43
0.0000000001
 12
1.0
 22
0.0
 32
0.0
 13
1.0
 23
0.0
 33
0.0
 40
0.0
 40
0.0
 40
0.0
 40
0.0
 40
0.1111111111111111
 40
0.1111111111111111
 40
0.1111111111111111
 40
0.1111111111111111
 40
0.2222222222222222
 40
0.2222222222222222
 40
0.2222222222222222
 40
0.2222222222222222
 40
0.3333333333333333
 40
0.3333333333333333
 40
0.3333333333333333
 40
0.3333333333333333
 40
0.4444444444444444
 40
0.4444444444444444
 40
0.4444444444444444
 40
0.4444444444444444
 40
0.5555555555555556
 40
0.5555555555555556
 40
0.5555555555555556
 40
0.5555555555555556
 40
0.6666666666666666
 40
0.6666666666666666
 40
0.6666666666666666
 40
0.6666666666666666
 40
0.7777777777777778
 40
0.7777777777777778
 40
0.7777777777777778
 40
0.7777777777777778
 40
1.0
 40
1.0
 40
1.0
 40
1.0
 10
-17.4801
 20
-75.9367
 30
0.0
 10
-25.6401
 20
-73.9063
 30
0.0
 10
-34.2699
 20
-76.511
 30
0.0
 10
-38.2106
 20
-90.4896
 30
0.0
 10
-38.2106
 20
-90.4896
 30
0.0
 10
-34.38
 20
-85.288
 30
0.0
 10
-26.5881
 20
-86.9699
 30
0.0
 10
-23.5788
 20
-89.6713
 30
0.0
 10
-23.5788
 20
-89.6713
 30
0.0
 10
-26.3671
 20
-86.5111
 30
0.0
 10
-25.0733
 20
-82.7826
 30
0.0
 10
-22.3727
 20
-81.3389
 30
0.0
 10
-22.3727
 20
-81.3389
 30
0.0
 10
-18.5984
 20
-79.3165
 30
0.0
 10
-13.6291
 20
-81.1918
 30
0.0
 10
-14.3996
 20
-86.251
 30
0.0
 10
-14.3996
 20
-86.251
 30
0.0
 10
-16.2683
 20
-83.3318
 30
0.0
 10
-19.5612
 20
-84.4165
 30
0.0
 10
-20.3366
 20
-86.8425
 30
0.0
 10
-20.3366
 20
-86.8425
 30
0.0
 10
-21.0701
 20
-89.1441
 30
0.0
 10
-19.8778
 20
-92.0068
 30
0.0
 10
-16.6052
 20
-92.2901
 30
0.0
 10
-16.6052
 20
-92.2901
 30
0.0
 10
-13.3232
 20
-92.5467
 30
0.0
 10
-8.6802
 20
-88.853
 30
0.0
 10
-10.4102
 20
-82.1993
 30
0.0
 10
-10.4102
 20
-82.1993
 30
0.0
 10
-12.0128
 20
-78.4587
 30
0.0
 10
-13.7567
 20
-77.1255
 30
0.0
 10
-17.4801
 20
-75.9367
 30
0.0
  0
SPLINE
  5
C1
330
1F
100
AcDbEntity
  8
layer 1
370
    13
100
AcDbSpline
210
0.0
220
0.0
230
1.0
 70
    11
 71
     3
 72
    36
 73
    32
 74
     0
 42
0.0000000001
 43
0.0000000001
 12
1.0
 22
0.0
 32
0.0
 13
1.0
 23
0.0
 33
0.0
 40
0.0
 40
0.0
 40
0.0
 40
0.0
 40
0.1111111111111111
 40
0.1111111111111111
 40
0.1111111111111111
 40
0.1111111111111111
 40
0.2222222222222222
 40
0.2222222222222222
 40
0.2222222222222222
 40
0.2222222222222222
 40
0.3333333333333333
 40
0.3333333333333333
 40
0.3333333333333333
 40
0.3333333333333333
 40
0.4444444444444444
 40
0.4444444444444444
 40
0.4444444444444444
 40
0.4444444444444444
 40
0.5555555555555556
 40
0.5555555555555556
 40
0.5555555555555556
 40
0.5555555555555556
 40
0.6666666666666666
 40
0.6666666666666666
 40
0.6666666666666666
 40
0.6666666666666666
 40
0.7777777777777778
 40
0.7777777777777778
 40
0.7777777777777778
 40
0.7777777777777778
 40
1.0
 40
1.0
 40
1.0
 40
1.0
 10
-17.4801
 20
-75.9367
 30
0.0
 10
-25.6401
 20
-73.9063
 30
0.0
 10
-34.2699
 20
-76.5116
 30
0.0
 10
-38.2106
 20
-90.4896
 30
0.0
 10
-38.2106
 20
-90.4896
 30
0.0
 10
-34.38
 20
-85.288
 30
0.0
 10
-26.5881
 20
-86.9699
 30
0.0
 10
-23.5788
 20
-89.6713
 30
0.0
 10
-23.5788
 20
-89.6713
 30
0.0
 10
-26.3671
 20
-86.5111
 30
0.0
 10
-25.0733
 20
-82.7826
 30
0.0
 10
-22.3727
 20
-81.3389
 30
0.0
 10
-22.3727
 20
-81.3389
 30
0.0
 10
-18.5984
 20
-79.3165
 30
0.0
 10
-13.6291
 20
-81.1918
 30
0.0
 10
-14.3996
 20
-86.251
 30
0.0
 10
-14.3996
 20
-86.251
 30
0.0
 10
-16.2683
 20
-83.3318
 30
0.0
 10
-19.5612
 20
-84.4165
 30
0.0
 10
-20.3366
 20
-86.8423
 30
0.0
 10
-20.3366
 20
-86.8423
 30
0.0
 10
-21.0701
 20
-89.1441
 30
0.0
 10
-19.8778
 20
-92.0068
 30
0.0
 10
-16.6052
 20
-92.2901
 30
0.0
 10
-16.6052
 20
-92.2901
 30
0.0
 10
-13.3232
 20
-92.5475
 30
0.0
 10
-8.6802
 20
-88.8532
 30
0.0
 10
-10.4102
 20
-82.1993
 30
0.0
 10
-10.4102
 20
-82.1993
 30
0.0
 10
-12.0128
 20
-78.4587
 30
0.0
 10
-13.7567
 20
-77.1255
 30
0.0
 10
-17.4801
 20
-75.9367
 30
0.0
  0
SPLINE
  5
C2
330
1F
100
AcDbEntity
  8
layer 1
 62
     7
100
AcDbSpline
210
0.0
220
0.0
230
1.0
 70
    11
 71
     3
 72
    56
 73
    52
 74
     0
 42
0.0000000001
 43
0.0000000001
 12
1.0
 22
0.0
 32
0.0
 13
1.0
 23
0.0
 33
0.0
 40
0.0
 40
0.0
 40
0.0
 40
0.0
 40
0.0714285714285714
 40
0.0714285714285714
 40
0.0714285714285714
 40
0.0714285714285714
 40
0.1428571428571428
 40
0.1428571428571428
 40
0.1428571428571428
 40
0.1428571428571428
 40
0.2142857142857143
 40
0.2142857142857143
 40
0.2142857142857143
 40
0.2142857142857143
 40
0.2857142857142857
 40
0.2857142857142857
 40
0.2857142857142857
 40
0.2857142857142857
 40
0.3571428571428572
 40
0.3571428571428572
 40
0.3571428571428572
 40
0.3571428571428572
 40
0.4285714285714285
 40
0.4285714285714285
 40
0.4285714285714285
 40
0.4285714285714285
 40
0.5
 40
0.5
 40
0.5
 40
0.5
 40
0.5714285714285714
 40
0.5714285714285714
 40
0.5714285714285714
 40
0.5714285714285714
 40
0.6428571428571429
 40
0.6428571428571429
 40
0.6428571428571429
 40
0.6428571428571429
 40
0.7142857142857143
 40
0.7142857142857143
 40
0.7142857142857143
 40
0.7142857142857143
 40
0.7857142857142857
 40
0.7857142857142857
 40
0.7857142857142857
 40
0.7857142857142857
 40
0.8571428571428571
 40
0.8571428571428571
 40
0.8571428571428571
 40
0.8571428571428571
 40
1.0
 40
1.0
 40
1.0
 40
1.0
 10
-28.0038
 20
-30.026
 30
0.0
 10
-29.128
 20
-31.2068
 30
0.0
 10
-29.6657
 20
-31.6266
 30
0.0
 10
-30.6877
 20
-32.8638
 30
0.0
 10
-30.6877
 20
-32.8638
 30
0.0
 10
-23.4004
 20
-37.5346
 30
0.0
 10
-23.8615
 20
-48.3625
 30
0.0
 10
-26.7412
 20
-51.9012
 30
0.0
 10
-26.7412
 20
-51.9012
 30
0.0
 10
-25.6118
 20
-50.4794
 30
0.0
 10
-22.8395
 20
-51.6554
 30
0.0
 10
-21.9168
 20
-52.8812
 30
0.0
 10
-21.9168
 20
-52.8812
 30
0.0
 10
-24.1534
 20
-42.7843
 30
0.0
 10
-14.844
 20
-43.4214
 30
0.0
 10
-13.2667
 20
-44.4892
 30
0.0
 10
-13.2667
 20
-44.4892
 30
0.0
 10
-11.2879
 20
-45.9015
 30
0.0
 10
-10.8575
 20
-48.577
 30
0.0
 10
-11.1829
 20
-51.0828
 30
0.0
 10
-11.1829
 20
-51.0828
 30
0.0
 10
-11.3582
 20
-51.8868
 30
0.0
 10
-11.778
 20
-52.6542
 30
0.0
 10
-12.4767
 20
-52.8666
 30
0.0
 10
-12.4767
 20
-52.8666
 30
0.0
 10
-13.3688
 20
-53.1351
 30
0.0
 10
-14.354
 20
-52.4678
 30
0.0
 10
-14.0002
 20
-51.4625
 30
0.0
 10
-14.0002
 20
-51.4625
 30
0.0
 10
-13.7031
 20
-50.6187
 30
0.0
 10
-14.1054
 20
-48.4554
 30
0.0
 10
-14.6258
 20
-48.0929
 30
0.0
 10
-14.6258
 20
-48.0929
 30
0.0
 10
-17.6983
 20
-45.9471
 30
0.0
 10
-20.7839
 20
-50.208
 30
0.0
 10
-18.1934
 20
-54.2568
 30
0.0
 10
-18.1934
 20
-54.2568
 30
0.0
 10
-16.2486
 20
-56.9668
 30
0.0
 10
-12.4767
 20
-55.905
 30
0.0
 10
-11.1351
 20
-54.311
 30
0.0
 10
-11.1351
 20
-54.311
 30
0.0
 10
-6.9731
 20
-49.5733
 30
0.0
 10
-8.6802
 20
-39.8567
 30
0.0
 10
-13.9546
 20
-36.369
 30
0.0
 10
-13.9546
 20
-36.369
 30
0.0
 10
-12.1063
 20
-42.4751
 30
0.0
 10
-18.4905
 20
-44.189
 30
0.0
 10
-19.6654
 20
-41.202
 30
0.0
 10
-19.6654
 20
-41.202
 30
0.0
 10
-15.484
 20
-35.1958
 30
0.0
 10
-26.9419
 20
-33.3536
 30
0.0
 10
-28.0038
 20
-30.026
 30
0.0
  0
SPLINE
  5
C3
330
1F
100
AcDbEntity
  8
layer 1
370
     9
100
AcDbSpline
210
0.0
220
0.0
230
1.0
 70
    11
 71
     3
 72
    56
 73
    52
 74
     0
 42
0.0000000001
 43
0.0000000001
 12
1.0
 22
0.0
 32
0.0
 13
1.0
 23
0.0
 33
0.0
 40
0.0
 40
0.0
 40
0.0
 40
0.0
 40
0.0714285714285714
 40
0.0714285714285714
 40
0.0714285714285714
 40
0.0714285714285714
 40
0.1428571428571428
 40
0.1428571428571428
 40
0.1428571428571428
 40
0.1428571428571428
 40
0.2142857142857143
 40
0.2142857142857143
 40
0.2142857142857143
 40
0.2142857142857143
 40
0.2857142857142857
 40
0.2857142857142857
 40
0.2857142857142857
 40
0.2857142857142857
 40
0.3571428571428572
 40
0.3571428571428572
 40
0.3571428571428572
 40
0.3571428571428572
 40
0.4285714285714285
 40
0.4285714285714285
 40
0.4285714285714285
 40
0.4285714285714285
 40
0.5
 40
0.5
 40
0.5
 40
0.5
 40
0.5714285714285714
 40
0.5714285714285714
 40
0.5714285714285714
 40
0.5714285714285714
 40
0.6428571428571429
 40
0.6428571428571429
 40
0.6428571428571429
 40
0.6428571428571429
 40
0.7142857142857143
 40
0.7142857142857143
 40
0.7142857142857143
 40
0.7142857142857143
 40
0.7857142857142857
 40
0.7857142857142857
 40
0.7857142857142857
 40
0.7857142857142857
 40
0.8571428571428571
 40
0.8571428571428571
 40
0.8571428571428571
 40
0.8571428571428571
 40
1.0
 40
1.0
 40
1.0
 40
1.0
 10
-28.0038
 20
-30.026
 30
0.0
 10
-29.128
 20
-31.2068
 30
0.0
 10
-29.6657
 20
-31.6266
 30
0.0
 10
-30.6877
 20
-32.8638
 30
0.0
 10
-30.6877
 20
-32.8638
 30
0.0
 10
-23.4004
 20
-37.5346
 30
0.0
 10
-23.8615
 20
-48.3625
 30
0.0
 10
-26.7412
 20
-51.9012
 30
0.0
 10
-26.7412
 20
-51.9012
 30
0.0
 10
-25.6118
 20
-50.4794
 30
0.0
 10
-22.8395
 20
-51.6554
 30
0.0
 10
-21.9168
 20
-52.881
 30
0.0
 10
-21.9168
 20
-52.881
 30
0.0
 10
-24.1534
 20
-42.7843
 30
0.0
 10
-14.844
 20
-43.4214
 30
0.0
 10
-13.2667
 20
-44.4892
 30
0.0
 10
-13.2667
 20
-44.4892
 30
0.0
 10
-11.2879
 20
-45.9015
 30
0.0
 10
-10.8575
 20
-48.5772
 30
0.0
 10
-11.1829
 20
-51.0828
 30
0.0
 10
-11.1829
 20
-51.0828
 30
0.0
 10
-11.3582
 20
-51.8868
 30
0.0
 10
-11.778
 20
-52.6542
 30
0.0
 10
-12.4767
 20
-52.8666
 30
0.0
 10
-12.4767
 20
-52.8666
 30
0.0
 10
-13.3688
 20
-53.136
 30
0.0
 10
-14.354
 20
-52.4678
 30
0.0
 10
-14.0002
 20
-51.4625
 30
0.0
 10
-14.0002
 20
-51.4625
 30
0.0
 10
-13.7031
 20
-50.6187
 30
0.0
 10
-14.1054
 20
-48.4554
 30
0.0
 10
-14.6258
 20
-48.0929
 30
0.0
 10
-14.6258
 20
-48.0929
 30
0.0
 10
-17.6983
 20
-45.9471
 30
0.0
 10
-20.7839
 20
-50.208
 30
0.0
 10
-18.1934
 20
-54.2568
 30
0.0
 10
-18.1934
 20
-54.2568
 30
0.0
 10
-16.2486
 20
-56.9668
 30
0.0
 10
-12.4767
 20
-55.905
 30
0.0
 10
-11.1351
 20
-54.3112
 30
0.0
 10
-11.1351
 20
-54.3112
 30
0.0
 10
-6.9731
 20
-49.5733
 30
0.0
 10
-8.6802
 20
-39.8569
 30
0.0
 10
-13.9546
 20
-36.369
 30
0.0
 10
-13.9546
 20
-36.369
 30
0.0
 10
-12.1063
 20
-42.4751
 30
0.0
 10
-18.4905
 20
-44.189
 30
0.0
 10
-19.6654
 20
-41.202
 30
0.0
 10
-19.6654
 20
-41.202
 30
0.0
 10
-15.484
 20
-35.1966
 30
0.0
 10
-26.9419
 20
-33.3536
 30
0.0
 10
-28.0038
 20
-30.026
 30
0.0
  0
SPLINE
  5
C4
330
1F
100
AcDbEntity
  8
layer 1
 62
     7
370
    13
100
AcDbSpline
210
0.0
220
0.0
230
1.0
 70
    11
 71
     3
 72
    16
 73
    12
 74
     0
 42
0.0000000001
 43
0.0000000001
 12
1.0
 22
0.0
 32
0.0
 13
1.0
 23
0.0
 33
0.0
 40
0.0
 40
0.0
 40
0.0
 40
0.0
 40
0.25
 40
0.25
 40
0.25
 40
0.25
 40
0.5
 40
0.5
 40
0.5
 40
0.5
 40
1.0
 40
1.0
 40
1.0
 40
1.0
 10
-8.7454
 20
-31.8723
 30
0.0
 10
-10.4893
 20
-32.2351
 30
0.0
 10
-12.4971
 20
-32.3397
 30
0.0
 10
-15.8037
 20
-32.0679
 30
0.0
 10
-15.8037
 20
-32.0679
 30
0.0
 10
-12.3354
 20
-34.0265
 30
0.0
 10
-10.1472
 20
-34.5112
 30
0.0
 10
-8.7113
 20
-37.7817
 30
0.0
 10
-8.7113
 20
-37.7817
 30
0.0
 10
-8.7113
 20
-37.7817
 30
0.0
 10
-8.7454
 20
-31.8723
 30
0.0
 10
-8.7454
 20
-31.8723
 30
0.0
  0
SPLINE
  5
C5
330
1F
100
AcDbEntity
  8
layer 1
 62
     7
100
AcDbSpline
210
0.0
220
0.0
230
1.0
 70
    11
 71
     3
 72
    28
 73
    24
 74
     0
 42
0.0000000001
 43
0.0000000001
 12
1.0
 22
0.0
 32
0.0
 13
1.0
 23
0.0
 33
0.0
 40
0.0
 40
0.0
 40
0.0
 40
0.0
 40
0.1428571428571428
 40
0.1428571428571428
 40
0.1428571428571428
 40
0.1428571428571428
 40
0.2857142857142857
 40
0.2857142857142857
 40
0.2857142857142857
 40
0.2857142857142857
 40
0.4285714285714285
 40
0.4285714285714285
 40
0.4285714285714285
 40
0.4285714285714285
 40
0.5714285714285714
 40
0.5714285714285714
 40
0.5714285714285714
 40
0.5714285714285714
 40
0.7142857142857143
 40
0.7142857142857143
 40
0.7142857142857143
 40
0.7142857142857143
 40
1.0
 40
1.0
 40
1.0
 40
1.0
 10
-8.7454
 20
-23.6699
 30
0.0
 10
-10.229
 20
-24.553
 30
0.0
 10
-12.4971
 20
-24.5937
 30
0.0
 10
-15.4783
 20
-23.2795
 30
0.0
 10
-15.4783
 20
-23.2795
 30
0.0
 10
-15.1752
 20
-28.5991
 30
0.0
 10
-21.7978
 20
-28.4865
 30
0.0
 10
-23.9412
 20
-24.3356
 30
0.0
 10
-23.9412
 20
-24.3356
 30
0.0
 10
-25.3566
 20
-21.5978
 30
0.0
 10
-25.9598
 20
-20.4592
 30
0.0
 10
-26.9253
 20
-17.9143
 30
0.0
 10
-26.9253
 20
-17.9143
 30
0.0
 10
-26.7071
 20
-22.3449
 30
0.0
 10
-26.7607
 20
-23.5657
 30
0.0
 10
-26.7722
 20
-25.8309
 30
0.0
 10
-26.7722
 20
-25.8309
 30
0.0
 10
-22.129
 20
-29.9609
 30
0.0
 10
-13.7401
 20
-30.2305
 30
0.0
 10
-8.7113
 20
-28.8627
 30
0.0
 10
-8.7113
 20
-28.8627
 30
0.0
 10
-8.7113
 20
-28.8627
 30
0.0
 10
-8.7454
 20
-23.6699
 30
0.0
 10
-8.7454
 20
-23.6699
 30
0.0
  0
SPLINE
  5
C6
330
1F
100
AcDbEntity
  8
layer 1
370
    13
100
AcDbSpline
210
0.0
220
0.0
230
1.0
 70
    11
 71
     3
 72
    28
 73
    24
 74
     0
 42
0.0000000001
 43
0.0000000001
 12
1.0
 22
0.0
 32
0.0
 13
1.0
 23
0.0
 33
0.0
 40
0.0
 40
0.0
 40
0.0
 40
0.0
 40
0.1428571428571428
 40
0.1428571428571428
 40
0.1428571428571428
 40
0.1428571428571428
 40
0.2857142857142857
 40
0.2857142857142857
 40
0.2857142857142857
 40
0.2857142857142857
 40
0.4285714285714285
 40
0.4285714285714285
 40
0.4285714285714285
 40
0.4285714285714285
 40
0.5714285714285714
 40
0.5714285714285714
 40
0.5714285714285714
 40
0.5714285714285714
 40
0.7142857142857143
 40
0.7142857142857143
 40
0.7142857142857143
 40
0.7142857142857143
 40
1.0
 40
1.0
 40
1.0
 40
1.0
 10
-8.7454
 20
-23.6699
 30
0.0
 10
-10.229
 20
-24.553
 30
0.0
 10
-12.4971
 20
-24.5937
 30
0.0
 10
-15.4783
 20
-23.2795
 30
0.0
 10
-15.4783
 20
-23.2795
 30
0.0
 10
-15.1752
 20
-28.5991
 30
0.0
 10
-21.7978
 20
-28.4865
 30
0.0
 10
-23.9412
 20
-24.3356
 30
0.0
 10
-23.9412
 20
-24.3356
 30
0.0
 10
-25.3566
 20
-21.5978
 30
0.0
 10
-25.9598
 20
-20.4592
 30
0.0
 10
-26.9253
 20
-17.9143
 30
0.0
 10
-26.9253
 20
-17.9143
 30
0.0
 10
-26.7071
 20
-22.3449
 30
0.0
 10
-26.7722
 20
-23.5657
 30
0.0
 10
-26.7722
 20
-25.8309
 30
0.0
 10
-26.7722
 20
-25.8309
 30
0.0
 10
-22.129
 20
-29.9609
 30
0.0
 10
-13.7401
 20
-30.2305
 30
0.0
 10
-8.7113
 20
-28.8627
 30
0.0
 10
-8.7113
 20
-28.8627
 30
0.0
 10
-8.7113
 20
-28.8627
 30
0.0
 10
-8.7454
 20
-23.6699
 30
0.0
 10
-8.7454
 20
-23.6699
 30
0.0
  0
SPLINE
  5
C7
330
1F
100
AcDbEntity
  8
layer 1
 62
     7
100
AcDbSpline
210
0.0
220
0.0
230
1.0
 70
    11
 71
     3
 72
    32
 73
    28
 74
     0
 42
0.0000000001
 43
0.0000000001
 12
1.0
 22
0.0
 32
0.0
 13
1.0
 23
0.0
 33
0.0
 40
0.0
 40
0.0
 40
0.0
 40
0.0
 40
0.125
 40
0.125
 40
0.125
 40
0.125
 40
0.25
 40
0.25
 40
0.25
 40
0.25
 40
0.375
 40
0.375
 40
0.375
 40
0.375
 40
0.5
 40
0.5
 40
0.5
 40
0.5
 40
0.625
 40
0.625
 40
0.625
 40
0.625
 40
0.75
 40
0.75
 40
0.75
 40
0.75
 40
1.0
 40
1.0
 40
1.0
 40
1.0
 10
-8.7454
 20
-13.9019
 30
0.0
 10
-9.5976
 20
-13.9305
 30
0.0
 10
-10.6763
 20
-14.2931
 30
0.0
 10
-10.0615
 20
-15.9748
 30
0.0
 10
-10.0615
 20
-15.9748
 30
0.0
 10
-9.589
 20
-17.2657
 30
0.0
 10
-13.6263
 20
-18.1151
 30
0.0
 10
-12.8108
 20
-13.8403
 30
0.0
 10
-12.8108
 20
-13.8403
 30
0.0
 10
-12.081
 20
-10.9486
 30
0.0
 10
-9.974
 20
-10.7424
 30
0.0
 10
-8.6178
 20
-11.1251
 30
0.0
 10
-8.6178
 20
-11.1251
 30
0.0
 10
-8.6802
 20
-8.9386
 30
0.0
 10
-8.6802
 20
-6.9935
 30
0.0
 10
-8.6295
 20
-5.0236
 30
0.0
 10
-8.6295
 20
-5.0236
 30
0.0
 10
-11.4069
 20
-4.8304
 30
0.0
 10
-15.8884
 20
-6.4419
 30
0.0
 10
-17.3975
 20
-12.0926
 30
0.0
 10
-17.3975
 20
-12.0926
 30
0.0
 10
-18.4203
 20
-19.2194
 30
0.0
 10
-14.6511
 20
-22.6794
 30
0.0
 10
-8.7113
 20
-20.6607
 30
0.0
 10
-8.7113
 20
-20.6607
 30
0.0
 10
-8.7113
 20
-20.6607
 30
0.0
 10
-8.7454
 20
-13.9019
 30
0.0
 10
-8.7454
 20
-13.9019
 30
0.0
  0
SPLINE
  5
C8
330
1F
100
AcDbEntity
  8
layer 1
370
    13
100
AcDbSpline
210
0.0
220
0.0
230
1.0
 70
    11
 71
     3
 72
    32
 73
    28
 74
     0
 42
0.0000000001
 43
0.0000000001
 12
1.0
 22
0.0
 32
0.0
 13
1.0
 23
0.0
 33
0.0
 40
0.0
 40
0.0
 40
0.0
 40
0.0
 40
0.125
 40
0.125
 40
0.125
 40
0.125
 40
0.25
 40
0.25
 40
0.25
 40
0.25
 40
0.375
 40
0.375
 40
0.375
 40
0.375
 40
0.5
 40
0.5
 40
0.5
 40
0.5
 40
0.625
 40
0.625
 40
0.625
 40
0.625
 40
0.75
 40
0.75
 40
0.75
 40
0.75
 40
1.0
 40
1.0
 40
1.0
 40
1.0
 10
-8.7454
 20
-13.9019
 30
0.0
 10
-9.5976
 20
-13.9305
 30
0.0
 10
-10.6763
 20
-14.2931
 30
0.0
 10
-10.0615
 20
-15.9748
 30
0.0
 10
-10.0615
 20
-15.9748
 30
0.0
 10
-9.589
 20
-17.2657
 30
0.0
 10
-13.6263
 20
-18.1151
 30
0.0
 10
-12.8108
 20
-13.8403
 30
0.0
 10
-12.8108
 20
-13.8403
 30
0.0
 10
-12.081
 20
-10.9486
 30
0.0
 10
-9.974
 20
-10.7424
 30
0.0
 10
-8.6178
 20
-11.1249
 30
0.0
 10
-8.6178
 20
-11.1249
 30
0.0
 10
-8.6802
 20
-8.9386
 30
0.0
 10
-8.6802
 20
-6.9935
 30
0.0
 10
-8.6295
 20
-5.0236
 30
0.0
 10
-8.6295
 20
-5.0236
 30
0.0
 10
-11.4069
 20
-4.8304
 30
0.0
 10
-15.8884
 20
-6.4419
 30
0.0
 10
-17.3975
 20
-12.0935
 30
0.0
 10
-17.3975
 20
-12.0935
 30
0.0
 10
-18.4203
 20
-19.2194
 30
0.0
 10
-14.6511
 20
-22.6794
 30
0.0
 10
-8.7113
 20
-20.6607
 30
0.0
 10
-8.7113
 20
-20.6607
 30
0.0
 10
-8.7113
 20
-20.6607
 30
0.0
 10
-8.7454
 20
-13.9019
 30
0.0
 10
-8.7454
 20
-13.9019
 30
0.0
  0
SPLINE
  5
C9
330
1F
100
AcDbEntity
  8
layer 1
 62
     7
370
    13
100
AcDbSpline
210
0.0
220
0.0
230
1.0
 70
    11
 71
     3
 72
    16
 73
    12
 74
     0
 42
0.0000000001
 43
0.0000000001
 12
1.0
 22
0.0
 32
0.0
 13
1.0
 23
0.0
 33
0.0
 40
0.0
 40
0.0
 40
0.0
 40
0.0
 40
0.25
 40
0.25
 40
0.25
 40
0.25
 40
0.5
 40
0.5
 40
0.5
 40
0.5
 40
1.0
 40
1.0
 40
1.0
 40
1.0
 10
-36.9988
 20
-2.1184
 30
0.0
 10
-36.7247
 20
-5.3457
 30
0.0
 10
-36.9111
 20
-7.9902
 30
0.0
 10
-38.7884
 20
-10.4539
 30
0.0
 10
-38.7884
 20
-10.4539
 30
0.0
 10
-36.6986
 20
-15.3518
 30
0.0
 10
-34.4084
 20
-21.1898
 30
0.0
 10
-30.263
 20
-23.9167
 30
0.0
 10
-30.263
 20
-23.9167
 30
0.0
 10
-30.0485
 20
-16.2154
 30
0.0
 10
-32.6303
 20
-8.9505
 30
0.0
 10
-36.9988
 20
-2.1184
 30
0.0
  0
SPLINE
  5
CA
330
1F
100
AcDbEntity
  8
layer 1
 62
     7
100
AcDbSpline
210
0.0
220
0.0
230
1.0
 70
    11
 71
     3
 72
    16
 73
    12
 74
     0
 42
0.0000000001
 43
0.0000000001
 12
1.0
 22
0.0
 32
0.0
 13
1.0
 23
0.0
 33
0.0
 40
0.0
 40
0.0
 40
0.0
 40
0.0
 40
0.25
 40
0.25
 40
0.25
 40
0.25
 40
0.5
 40
0.5
 40
0.5
 40
0.5
 40
1.0
 40
1.0
 40
1.0
 40
1.0
 10
-30.3594
 20
-28.1604
 30
0.0
 10
-33.5362
 20
-25.4003
 30
0.0
 10
-37.5626
 20
-19.5141
 30
0.0
 10
-39.3719
 20
-14.2309
 30
0.0
 10
-39.3719
 20
-14.2309
 30
0.0
 10
-39.0435
 20
-19.3865
 30
0.0
 10
-34.4735
 20
-27.7668
 30
0.0
 10
-32.3447
 20
-30.5559
 30
0.0
 10
-32.3447
 20
-30.5559
 30
0.0
 10
-31.6764
 20
-29.5621
 30
0.0
 10
-30.8095
 20
-28.9367
 30
0.0
 10
-30.3594
 20
-28.1604
 30
0.0
  0
SPLINE
  5
CB
330
1F
100
AcDbEntity
  8
layer 1
370
    13
100
AcDbSpline
210
0.0
220
0.0
230
1.0
 70
    11
 71
     3
 72
    16
 73
    12
 74
     0
 42
0.0000000001
 43
0.0000000001
 12
1.0
 22
0.0
 32
0.0
 13
1.0
 23
0.0
 33
0.0
 40
0.0
 40
0.0
 40
0.0
 40
0.0
 40
0.25
 40
0.25
 40
0.25
 40
0.25
 40
0.5
 40
0.5
 40
0.5
 40
0.5
 40
1.0
 40
1.0
 40
1.0
 40
1.0
 10
-30.3594
 20
-28.1604
 30
0.0
 10
-33.5362
 20
-25.4003
 30
0.0
 10
-37.5626
 20
-19.5141
 30
0.0
 10
-39.3719
 20
-14.2309
 30
0.0
 10
-39.3719
 20
-14.2309
 30
0.0
 10
-39.0435
 20
-19.3865
 30
0.0
 10
-34.4735
 20
-27.7676
 30
0.0
 10
-32.3447
 20
-30.5559
 30
0.0
 10
-32.3447
 20
-30.5559
 30
0.0
 10
-31.6764
 20
-29.5621
 30
0.0
 10
-30.8095
 20
-28.9367
 30
0.0
 10
-30.3594
 20
-28.1604
 30
0.0
  0
SPLINE
  5
CC
330
1F
100
AcDbEntity
  8
layer 1
 62
     7
100
AcDbSpline
210
0.0
220
0.0
230
1.0
 70
    11
 71
     3
 72
    24
 73
    20
 74
     0
 42
0.0000000001
 43
0.0000000001
 12
1.0
 22
0.0
 32
0.0
 13
1.0
 23
0.0
 33
0.0
 40
0.0
 40
0.0
 40
0.0
 40
0.0
 40
0.1666666666666667
 40
0.1666666666666667
 40
0.1666666666666667
 40
0.1666666666666667
 40
0.3333333333333333
 40
0.3333333333333333
 40
0.3333333333333333
 40
0.3333333333333333
 40
0.5
 40
0.5
 40
0.5
 40
0.5
 40
0.6666666666666666
 40
0.6666666666666666
 40
0.6666666666666666
 40
0.6666666666666666
 40
1.0
 40
1.0
 40
1.0
 40
1.0
 10
-8.7113
 20
-0.2152
 30
0.0
 10
-12.6861
 20
0.4503
 30
0.0
 10
-16.4378
 20
5.8175
 30
0.0
 10
-11.6389
 20
6.7976
 30
0.0
 10
-11.6389
 20
6.7976
 30
0.0
 10
-11.8453
 20
7.7604
 30
0.0
 10
-13.3662
 20
8.6262
 30
0.0
 10
-13.3662
 20
8.6262
 30
0.0
 10
-13.3662
 20
8.6262
 30
0.0
 10
-13.366
 20
8.6264
 30
0.0
 10
-11.8453
 20
9.493
 30
0.0
 10
-11.6389
 20
10.4527
 30
0.0
 10
-11.6389
 20
10.4527
 30
0.0
 10
-16.4378
 20
11.4356
 30
0.0
 10
-12.6861
 20
16.8037
 30
0.0
 10
-8.7113
 20
17.469
 30
0.0
 10
-8.7113
 20
17.469
 30
0.0
 10
-8.7113
 20
17.469
 30
0.0
 10
-8.7113
 20
-0.2152
 30
0.0
 10
-8.7113
 20
-0.2152
 30
0.0
  0
SPLINE
  5
CD
330
1F
100
AcDbEntity
  8
layer 1
370
    13
100
AcDbSpline
210
0.0
220
0.0
230
1.0
 70
    11
 71
     3
 72
    24
 73
    20
 74
     0
 42
0.0000000001
 43
0.0000000001
 12
1.0
 22
0.0
 32
0.0
 13
1.0
 23
0.0
 33
0.0
 40
0.0
 40
0.0
 40
0.0
 40
0.0
 40
0.1666666666666667
 40
0.1666666666666667
 40
0.1666666666666667
 40
0.1666666666666667
 40
0.3333333333333333
 40
0.3333333333333333
 40
0.3333333333333333
 40
0.3333333333333333
 40
0.5
 40
0.5
 40
0.5
 40
0.5
 40
0.6666666666666666
 40
0.6666666666666666
 40
0.6666666666666666
 40
0.6666666666666666
 40
1.0
 40
1.0
 40
1.0
 40
1.0
 10
-8.7113
 20
-0.2152
 30
0.0
 10
-12.6861
 20
0.4503
 30
0.0
 10
-16.4378
 20
5.8175
 30
0.0
 10
-11.6389
 20
6.7976
 30
0.0
 10
-11.6389
 20
6.7976
 30
0.0
 10
-11.8453
 20
7.7604
 30
0.0
 10
-13.3662
 20
8.6262
 30
0.0
 10
-13.3662
 20
8.6262
 30
0.0
 10
-13.3662
 20
8.6262
 30
0.0
 10
-13.3662
 20
8.6262
 30
0.0
 10
-11.8453
 20
9.493
 30
0.0
 10
-11.6389
 20
10.4529
 30
0.0
 10
-11.6389
 20
10.4529
 30
0.0
 10
-16.4378
 20
11.4356
 30
0.0
 10
-12.6861
 20
16.8037
 30
0.0
 10
-8.7113
 20
17.469
 30
0.0
 10
-8.7113
 20
17.469
 30
0.0
 10
-8.7113
 20
17.469
 30
0.0
 10
-8.7113
 20
-0.2152
 30
0.0
 10
-8.7113
 20
-0.2152
 30
0.0
  0
SPLINE
  5
CE
330
1F
100
AcDbEntity
  8
layer 1
 62
     7
100
AcDbSpline
210
0.0
220
0.0
230
1.0
 70
    11
 71
     3
 72
    20
 73
    16
 74
     0
 42
0.0000000001
 43
0.0000000001
 12
1.0
 22
0.0
 32
0.0
 13
1.0
 23
0.0
 33
0.0
 40
0.0
 40
0.0
 40
0.0
 40
0.0
 40
0.2
 40
0.2
 40
0.2
 40
0.2
 40
0.4
 40
0.4
 40
0.4
 40
0.4
 40
0.6
 40
0.6
 40
0.6
 40
0.6
 40
1.0
 40
1.0
 40
1.0
 40
1.0
 10
-36.9343
 20
4.1303
 30
0.0
 10
-36.6596
 20
2.6617
 30
0.0
 10
-36.2602
 20
1.5795
 30
0.0
 10
-36.7046
 20
-0.0375
 30
0.0
 10
-36.7046
 20
-0.0375
 30
0.0
 10
-34.5524
 20
-2.7861
 30
0.0
 10
-30.566
 20
-3.2874
 30
0.0
 10
-28.1147
 20
-3.2114
 30
0.0
 10
-28.1147
 20
-3.2114
 30
0.0
 10
-29.2723
 20
0.2235
 30
0.0
 10
-30.7588
 20
2.9444
 30
0.0
 10
-32.6186
 20
4.0454
 30
0.0
 10
-32.6186
 20
4.0454
 30
0.0
 10
-34.0574
 20
3.7738
 30
0.0
 10
-35.5129
 20
3.8583
 30
0.0
 10
-36.9343
 20
4.1303
 30
0.0
  0
SPLINE
  5
CF
330
1F
100
AcDbEntity
  8
layer 1
370
    13
100
AcDbSpline
210
0.0
220
0.0
230
1.0
 70
    11
 71
     3
 72
    20
 73
    16
 74
     0
 42
0.0000000001
 43
0.0000000001
 12
1.0
 22
0.0
 32
0.0
 13
1.0
 23
0.0
 33
0.0
 40
0.0
 40
0.0
 40
0.0
 40
0.0
 40
0.2
 40
0.2
 40
0.2
 40
0.2
 40
0.4
 40
0.4
 40
0.4
 40
0.4
 40
0.6
 40
0.6
 40
0.6
 40
0.6
 40
1.0
 40
1.0
 40
1.0
 40
1.0
 10
-36.9343
 20
4.1303
 30
0.0
 10
-36.6596
 20
2.6617
 30
0.0
 10
-36.2602
 20
1.5795
 30
0.0
 10
-36.7046
 20
-0.0375
 30
0.0
 10
-36.7046
 20
-0.0375
 30
0.0
 10
-34.5524
 20
-2.7861
 30
0.0
 10
-30.566
 20
-3.2876
 30
0.0
 10
-28.1147
 20
-3.2114
 30
0.0
 10
-28.1147
 20
-3.2114
 30
0.0
 10
-29.2723
 20
0.2235
 30
0.0
 10
-30.7588
 20
2.9444
 30
0.0
 10
-32.6186
 20
4.0454
 30
0.0
 10
-32.6186
 20
4.0454
 30
0.0
 10
-34.0574
 20
3.7738
 30
0.0
 10
-35.5129
 20
3.8585
 30
0.0
 10
-36.9343
 20
4.1303
 30
0.0
  0
SPLINE
  5
D0
330
1F
100
AcDbEntity
  8
layer 1
 62
     7
100
AcDbSpline
210
0.0
220
0.0
230
1.0
 70
    11
 71
     3
 72
    20
 73
    16
 74
     0
 42
0.0000000001
 43
0.0000000001
 12
1.0
 22
0.0
 32
0.0
 13
1.0
 23
0.0
 33
0.0
 40
0.0
 40
0.0
 40
0.0
 40
0.0
 40
0.2
 40
0.2
 40
0.2
 40
0.2
 40
0.4
 40
0.4
 40
0.4
 40
0.4
 40
0.6
 40
0.6
 40
0.6
 40
0.6
 40
1.0
 40
1.0
 40
1.0
 40
1.0
 10
-31.3842
 20
6.4101
 30
0.0
 10
-31.7612
 20
7.4489
 30
0.0
 10
-33.3696
 20
8.2132
 30
0.0
 10
-34.3293
 20
8.6262
 30
0.0
 10
-34.3293
 20
8.6262
 30
0.0
 10
-33.3696
 20
9.0373
 30
0.0
 10
-31.7612
 20
9.802
 30
0.0
 10
-31.3844
 20
10.8406
 30
0.0
 10
-31.3844
 20
10.8406
 30
0.0
 10
-27.9957
 20
11.6785
 30
0.0
 10
-23.7686
 20
10.0738
 30
0.0
 10
-21.8827
 20
8.6262
 30
0.0
 10
-21.8827
 20
8.6262
 30
0.0
 10
-23.7686
 20
7.1767
 30
0.0
 10
-27.9957
 20
5.5718
 30
0.0
 10
-31.3842
 20
6.4101
 30
0.0
  0
SPLINE
  5
D1
330
1F
100
AcDbEntity
  8
layer 1
370
    13
100
AcDbSpline
210
0.0
220
0.0
230
1.0
 70
    11
 71
     3
 72
    20
 73
    16
 74
     0
 42
0.0000000001
 43
0.0000000001
 12
1.0
 22
0.0
 32
0.0
 13
1.0
 23
0.0
 33
0.0
 40
0.0
 40
0.0
 40
0.0
 40
0.0
 40
0.2
 40
0.2
 40
0.2
 40
0.2
 40
0.4
 40
0.4
 40
0.4
 40
0.4
 40
0.6
 40
0.6
 40
0.6
 40
0.6
 40
1.0
 40
1.0
 40
1.0
 40
1.0
 10
-31.3842
 20
6.4101
 30
0.0
 10
-31.7612
 20
7.4489
 30
0.0
 10
-33.3696
 20
8.2132
 30
0.0
 10
-34.3293
 20
8.6262
 30
0.0
 10
-34.3293
 20
8.6262
 30
0.0
 10
-33.3696
 20
9.0373
 30
0.0
 10
-31.7612
 20
9.802
 30
0.0
 10
-31.3844
 20
10.8406
 30
0.0
 10
-31.3844
 20
10.8406
 30
0.0
 10
-27.9957
 20
11.6785
 30
0.0
 10
-23.7686
 20
10.0736
 30
0.0
 10
-21.8827
 20
8.6262
 30
0.0
 10
-21.8827
 20
8.6262
 30
0.0
 10
-23.7686
 20
7.1767
 30
0.0
 10
-27.9957
 20
5.5718
 30
0.0
 10
-31.3842
 20
6.4101
 30
0.0
  0
SPLINE
  5
D2
330
1F
100
AcDbEntity
  8
layer 1
 62
     7
370
    13
100
AcDbSpline
210
0.0
220
0.0
230
1.0
 70
    11
 71
     3
 72
    20
 73
    16
 74
     0
 42
0.0000000001
 43
0.0000000001
 12
1.0
 22
0.0
 32
0.0
 13
1.0
 23
0.0
 33
0.0
 40
0.0
 40
0.0
 40
0.0
 40
0.0
 40
0.2
 40
0.2
 40
0.2
 40
0.2
 40
0.4
 40
0.4
 40
0.4
 40
0.4
 40
0.6
 40
0.6
 40
0.6
 40
0.6
 40
1.0
 40
1.0
 40
1.0
 40
1.0
 10
-39.2558
 20
-0.6514
 30
0.0
 10
-40.2915
 20
-0.2748
 30
0.0
 10
-41.7753
 20
1.531
 30
0.0
 10
-42.2485
 20
2.4913
 30
0.0
 10
-42.2485
 20
2.4913
 30
0.0
 10
-42.7211
 20
1.5314
 30
0.0
 10
-44.202
 20
-0.2752
 30
0.0
 10
-45.2415
 20
-0.6514
 30
0.0
 10
-45.2415
 20
-0.6514
 30
0.0
 10
-46.014
 20
-3.6497
 30
0.0
 10
-44.0831
 20
-9.8305
 30
0.0
 10
-42.2485
 20
-9.9581
 30
0.0
 10
-42.2485
 20
-9.9581
 30
0.0
 10
-40.4105
 20
-9.8297
 30
0.0
 10
-38.4796
 20
-3.6499
 30
0.0
 10
-39.2558
 20
-0.6514
 30
0.0
  0
SPLINE
  5
D3
330
1F
100
AcDbEntity
  8
layer 1
 62
     7
370
     5
100
AcDbSpline
210
0.0
220
0.0
230
1.0
 70
    11
 71
     3
 72
    16
 73
    12
 74
     0
 42
0.0000000001
 43
0.0000000001
 12
1.0
 22
0.0
 32
0.0
 13
1.0
 23
0.0
 33
0.0
 40
0.0
 40
0.0
 40
0.0
 40
0.0
 40
0.25
 40
0.25
 40
0.25
 40
0.25
 40
0.5
 40
0.5
 40
0.5
 40
0.5
 40
1.0
 40
1.0
 40
1.0
 40
1.0
 10
-8.6149
 20
-103.2925
 30
0.0
 10
-10.3703
 20
-100.1498
 30
0.0
 10
-12.3041
 20
-98.1626
 30
0.0
 10
-15.3115
 20
-95.6338
 30
0.0
 10
-15.3115
 20
-95.6338
 30
0.0
 10
-12.1143
 20
-95.8117
 30
0.0
 10
-9.357
 20
-94.5639
 30
0.0
 10
-8.7113
 20
-91.9081
 30
0.0
 10
-8.7113
 20
-91.9081
 30
0.0
 10
-8.7113
 20
-91.9081
 30
0.0
 10
-8.6149
 20
-103.2925
 30
0.0
 10
-8.6149
 20
-103.2925
 30
0.0
  0
SPLINE
  5
D4
330
1F
100
AcDbEntity
  8
layer 1
 62
     7
100
AcDbSpline
210
0.0
220
0.0
230
1.0
 70
    11
 71
     3
 72
    16
 73
    12
 74
     0
 42
0.0000000001
 43
0.0000000001
 12
1.0
 22
0.0
 32
0.0
 13
1.0
 23
0.0
 33
0.0
 40
0.0
 40
0.0
 40
0.0
 40
0.0
 40
0.25
 40
0.25
 40
0.25
 40
0.25
 40
0.5
 40
0.5
 40
0.5
 40
0.5
 40
1.0
 40
1.0
 40
1.0
 40
1.0
 10
-22.7974
 20
-109.7392
 30
0.0
 10
-23.3663
 20
-105.4418
 30
0.0
 10
-19.5552
 20
-103.1195
 30
0.0
 10
-14.9433
 20
-103.9524
 30
0.0
 10
-14.9433
 20
-103.9524
 30
0.0
 10
-10.6987
 20
-104.1527
 30
0.0
 10
-8.6802
 20
-106.8488
 30
0.0
 10
-8.6802
 20
-109.6408
 30
0.0
 10
-8.6802
 20
-109.6408
 30
0.0
 10
-8.6802
 20
-109.6408
 30
0.0
 10
-22.7974
 20
-109.7392
 30
0.0
 10
-22.7974
 20
-109.7392
 30
0.0
  0
SPLINE
  5
D5
330
1F
100
AcDbEntity
  8
layer 1
370
     5
100
AcDbSpline
210
0.0
220
0.0
230
1.0
 70
    11
 71
     3
 72
    16
 73
    12
 74
     0
 42
0.0000000001
 43
0.0000000001
 12
1.0
 22
0.0
 32
0.0
 13
1.0
 23
0.0
 33
0.0
 40
0.0
 40
0.0
 40
0.0
 40
0.0
 40
0.25
 40
0.25
 40
0.25
 40
0.25
 40
0.5
 40
0.5
 40
0.5
 40
0.5
 40
1.0
 40
1.0
 40
1.0
 40
1.0
 10
-22.7974
 20
-109.7392
 30
0.0
 10
-23.3663
 20
-105.4418
 30
0.0
 10
-19.5552
 20
-103.1197
 30
0.0
 10
-14.9433
 20
-103.9524
 30
0.0
 10
-14.9433
 20
-103.9524
 30
0.0
 10
-10.6987
 20
-104.1527
 30
0.0
 10
-8.6802
 20
-106.8488
 30
0.0
 10
-8.6802
 20
-109.6408
 30
0.0
 10
-8.6802
 20
-109.6408
 30
0.0
 10
-8.6802
 20
-109.6408
 30
0.0
 10
-22.7974
 20
-109.7392
 30
0.0
 10
-22.7974
 20
-109.7392
 30
0.0
  0
SPLINE
  5
D6
330
1F
100
AcDbEntity
  8
layer 1
 62
     7
100
AcDbSpline
210
0.0
220
0.0
230
1.0
 70
    11
 71
     3
 72
    60
 73
    56
 74
     0
 42
0.0000000001
 43
0.0000000001
 12
1.0
 22
0.0
 32
0.0
 13
1.0
 23
0.0
 33
0.0
 40
0.0
 40
0.0
 40
0.0
 40
0.0
 40
0.0666666666666667
 40
0.0666666666666667
 40
0.0666666666666667
 40
0.0666666666666667
 40
0.1333333333333333
 40
0.1333333333333333
 40
0.1333333333333333
 40
0.1333333333333333
 40
0.2
 40
0.2
 40
0.2
 40
0.2
 40
0.2666666666666667
 40
0.2666666666666667
 40
0.2666666666666667
 40
0.2666666666666667
 40
0.3333333333333333
 40
0.3333333333333333
 40
0.3333333333333333
 40
0.3333333333333333
 40
0.4
 40
0.4
 40
0.4
 40
0.4
 40
0.4666666666666667
 40
0.4666666666666667
 40
0.4666666666666667
 40
0.4666666666666667
 40
0.5333333333333333
 40
0.5333333333333333
 40
0.5333333333333333
 40
0.5333333333333333
 40
0.6
 40
0.6
 40
0.6
 40
0.6
 40
0.6666666666666666
 40
0.6666666666666666
 40
0.6666666666666666
 40
0.6666666666666666
 40
0.7333333333333333
 40
0.7333333333333333
 40
0.7333333333333333
 40
0.7333333333333333
 40
0.8
 40
0.8
 40
0.8
 40
0.8
 40
0.8666666666666667
 40
0.8666666666666667
 40
0.8666666666666667
 40
0.8666666666666667
 40
1.0
 40
1.0
 40
1.0
 40
1.0
 10
-39.9494
 20
-102.6718
 30
0.0
 10
-39.8335
 20
-105.8774
 30
0.0
 10
-37.7722
 20
-102.8789
 30
0.0
 10
-35.5947
 20
-104.0313
 30
0.0
 10
-35.5947
 20
-104.0313
 30
0.0
 10
-34.3235
 20
-105.0218
 30
0.0
 10
-33.6609
 20
-105.6029
 30
0.0
 10
-33.6806
 20
-107.5708
 30
0.0
 10
-33.6806
 20
-107.5708
 30
0.0
 10
-36.2037
 20
-104.5865
 30
0.0
 10
-36.6937
 20
-106.4356
 30
0.0
 10
-37.851
 20
-105.7108
 30
0.0
 10
-37.851
 20
-105.7108
 30
0.0
 10
-36.8466
 20
-106.7432
 30
0.0
 10
-35.6115
 20
-108.6492
 30
0.0
 10
-36.6705
 20
-109.1647
 30
0.0
 10
-36.6705
 20
-109.1647
 30
0.0
 10
-37.3074
 20
-108.1393
 30
0.0
 10
-37.925
 20
-107.9527
 30
0.0
 10
-38.9014
 20
-107.6671
 30
0.0
 10
-38.9014
 20
-107.6671
 30
0.0
 10
-39.4312
 20
-108.7738
 30
0.0
 10
-39.7682
 20
-109.7822
 30
0.0
 10
-40.4816
 20
-109.7879
 30
0.0
 10
-40.4816
 20
-109.7879
 30
0.0
 10
-36.6734
 20
-109.793
 30
0.0
 10
-29.3881
 20
-109.7822
 30
0.0
 10
-25.793
 20
-109.7879
 30
0.0
 10
-25.793
 20
-109.7879
 30
0.0
 10
-26.5629
 20
-105.7159
 30
0.0
 10
-24.8783
 20
-103.4879
 30
0.0
 10
-22.1769
 20
-102.0412
 30
0.0
 10
-22.1769
 20
-102.0412
 30
0.0
 10
-23.6579
 20
-102.0008
 30
0.0
 10
-23.4345
 20
-100.685
 30
0.0
 10
-23.4345
 20
-100.685
 30
0.0
 10
-23.4345
 20
-100.685
 30
0.0
 10
-18.3609
 20
-99.3793
 30
0.0
 10
-17.4657
 20
-99.6883
 30
0.0
 10
-13.0319
 20
-101.1604
 30
0.0
 10
-13.0319
 20
-101.1604
 30
0.0
 10
-23.2981
 20
-92.3152
 30
0.0
 10
-30.6595
 20
-90.6339
 30
0.0
 10
-34.2045
 20
-93.2897
 30
0.0
 10
-34.2045
 20
-93.2897
 30
0.0
 10
-38.0549
 20
-96.1737
 30
0.0
 10
-35.0484
 20
-98.0633
 30
0.0
 10
-31.775
 20
-98.346
 30
0.0
 10
-31.775
 20
-98.346
 30
0.0
 10
-30.4471
 20
-100.5543
 30
0.0
 10
-36.8067
 20
-103.6972
 30
0.0
 10
-39.9864
 20
-98.5503
 30
0.0
 10
-39.9864
 20
-98.5503
 30
0.0
 10
-39.9124
 20
-100.4841
 30
0.0
 10
-40.0655
 20
-100.804
 30
0.0
 10
-39.9494
 20
-102.6718
 30
0.0
  0
SPLINE
  5
D7
330
1F
100
AcDbEntity
  8
layer 1
370
    13
100
AcDbSpline
210
0.0
220
0.0
230
1.0
 70
    11
 71
     3
 72
    60
 73
    56
 74
     0
 42
0.0000000001
 43
0.0000000001
 12
1.0
 22
0.0
 32
0.0
 13
1.0
 23
0.0
 33
0.0
 40
0.0
 40
0.0
 40
0.0
 40
0.0
 40
0.0666666666666667
 40
0.0666666666666667
 40
0.0666666666666667
 40
0.0666666666666667
 40
0.1333333333333333
 40
0.1333333333333333
 40
0.1333333333333333
 40
0.1333333333333333
 40
0.2
 40
0.2
 40
0.2
 40
0.2
 40
0.2666666666666667
 40
0.2666666666666667
 40
0.2666666666666667
 40
0.2666666666666667
 40
0.3333333333333333
 40
0.3333333333333333
 40
0.3333333333333333
 40
0.3333333333333333
 40
0.4
 40
0.4
 40
0.4
 40
0.4
 40
0.4666666666666667
 40
0.4666666666666667
 40
0.4666666666666667
 40
0.4666666666666667
 40
0.5333333333333333
 40
0.5333333333333333
 40
0.5333333333333333
 40
0.5333333333333333
 40
0.6
 40
0.6
 40
0.6
 40
0.6
 40
0.6666666666666666
 40
0.6666666666666666
 40
0.6666666666666666
 40
0.6666666666666666
 40
0.7333333333333333
 40
0.7333333333333333
 40
0.7333333333333333
 40
0.7333333333333333
 40
0.8
 40
0.8
 40
0.8
 40
0.8
 40
0.8666666666666667
 40
0.8666666666666667
 40
0.8666666666666667
 40
0.8666666666666667
 40
1.0
 40
1.0
 40
1.0
 40
1.0
 10
-39.9494
 20
-102.6718
 30
0.0
 10
-39.8335
 20
-105.8774
 30
0.0
 10
-37.7722
 20
-102.8789
 30
0.0
 10
-35.5947
 20
-104.0315
 30
0.0
 10
-35.5947
 20
-104.0315
 30
0.0
 10
-34.3235
 20
-105.0218
 30
0.0
 10
-33.6609
 20
-105.6029
 30
0.0
 10
-33.6806
 20
-107.5708
 30
0.0
 10
-33.6806
 20
-107.5708
 30
0.0
 10
-36.2037
 20
-104.5865
 30
0.0
 10
-36.6937
 20
-106.4356
 30
0.0
 10
-37.851
 20
-105.7108
 30
0.0
 10
-37.851
 20
-105.7108
 30
0.0
 10
-36.8466
 20
-106.7432
 30
0.0
 10
-35.6115
 20
-108.6492
 30
0.0
 10
-36.6705
 20
-109.1645
 30
0.0
 10
-36.6705
 20
-109.1645
 30
0.0
 10
-37.3074
 20
-108.1393
 30
0.0
 10
-37.925
 20
-107.9527
 30
0.0
 10
-38.9014
 20
-107.6671
 30
0.0
 10
-38.9014
 20
-107.6671
 30
0.0
 10
-39.4312
 20
-108.7738
 30
0.0
 10
-39.7682
 20
-109.7822
 30
0.0
 10
-40.4816
 20
-109.7879
 30
0.0
 10
-40.4816
 20
-109.7879
 30
0.0
 10
-36.6734
 20
-109.793
 30
0.0
 10
-29.3881
 20
-109.7822
 30
0.0
 10
-25.793
 20
-109.7879
 30
0.0
 10
-25.793
 20
-109.7879
 30
0.0
 10
-26.5629
 20
-105.7159
 30
0.0
 10
-24.8783
 20
-103.4879
 30
0.0
 10
-22.1769
 20
-102.041
 30
0.0
 10
-22.1769
 20
-102.041
 30
0.0
 10
-23.6579
 20
-102.0008
 30
0.0
 10
-23.4345
 20
-100.685
 30
0.0
 10
-23.4345
 20
-100.685
 30
0.0
 10
-23.4345
 20
-100.685
 30
0.0
 10
-18.3609
 20
-99.3793
 30
0.0
 10
-17.4657
 20
-99.6883
 30
0.0
 10
-13.0319
 20
-101.1604
 30
0.0
 10
-13.0319
 20
-101.1604
 30
0.0
 10
-23.2981
 20
-92.3152
 30
0.0
 10
-30.6595
 20
-90.6339
 30
0.0
 10
-34.2045
 20
-93.2897
 30
0.0
 10
-34.2045
 20
-93.2897
 30
0.0
 10
-38.0549
 20
-96.1737
 30
0.0
 10
-35.0484
 20
-98.0633
 30
0.0
 10
-31.775
 20
-98.3467
 30
0.0
 10
-31.775
 20
-98.3467
 30
0.0
 10
-30.4471
 20
-100.5543
 30
0.0
 10
-36.8067
 20
-103.6972
 30
0.0
 10
-39.9864
 20
-98.5503
 30
0.0
 10
-39.9864
 20
-98.5503
 30
0.0
 10
-39.9124
 20
-100.4841
 30
0.0
 10
-40.0655
 20
-100.804
 30
0.0
 10
-39.9494
 20
-102.6718
 30
0.0
  0
SPLINE
  5
D8
330
1F
100
AcDbEntity
  8
layer 1
 62
     7
370
    13
100
AcDbSpline
210
0.0
220
0.0
230
1.0
 70
    11
 71
     3
 72
    16
 73
    12
 74
     0
 42
0.0000000001
 43
0.0000000001
 12
1.0
 22
0.0
 32
0.0
 13
1.0
 23
0.0
 33
0.0
 40
0.0
 40
0.0
 40
0.0
 40
0.0
 40
0.25
 40
0.25
 40
0.25
 40
0.25
 40
0.5
 40
0.5
 40
0.5
 40
0.5
 40
1.0
 40
1.0
 40
1.0
 40
1.0
 10
-40.3938
 20
-12.4522
 30
0.0
 10
-40.4931
 20
-13.8596
 30
0.0
 10
-41.3252
 20
-15.6522
 30
0.0
 10
-42.2485
 20
-16.5945
 30
0.0
 10
-42.2485
 20
-16.5945
 30
0.0
 10
-43.1684
 20
-15.6518
 30
0.0
 10
-44.0013
 20
-13.8598
 30
0.0
 10
-44.0997
 20
-12.4528
 30
0.0
 10
-44.0997
 20
-12.4528
 30
0.0
 10
-42.4269
 20
-14.0178
 30
0.0
 10
-41.9847
 20
-14.0468
 30
0.0
 10
-40.3938
 20
-12.4522
 30
0.0
  0
SPLINE
  5
D9
330
1F
100
AcDbEntity
  8
layer 1
 62
     7
370
    13
100
AcDbSpline
210
0.0
220
0.0
230
1.0
 70
    11
 71
     3
 72
    12
 73
     8
 74
     0
 42
0.0000000001
 43
0.0000000001
 12
1.0
 22
0.0
 32
0.0
 13
1.0
 23
0.0
 33
0.0
 40
0.0
 40
0.0
 40
0.0
 40
0.0
 40
0.3333333333333333
 40
0.3333333333333333
 40
0.3333333333333333
 40
0.3333333333333333
 40
1.0
 40
1.0
 40
1.0
 40
1.0
 10
-38.2476
 20
0.2888
 30
0.0
 10
-39.89
 20
1.0252
 30
0.0
 10
-41.5267
 20
3.7257
 30
0.0
 10
-41.3507
 20
5.9879
 30
0.0
 10
-41.3507
 20
5.9879
 30
0.0
 10
-39.2928
 20
5.0851
 30
0.0
 10
-38.2135
 20
2.3414
 30
0.0
 10
-38.2476
 20
0.2888
 30
0.0
  0
SPLINE
  5
DA
330
1F
100
AcDbEntity
  8
layer 1
 62
     7
100
AcDbSpline
210
0.0
220
0.0
230
1.0
 70
    11
 71
     3
 72
    12
 73
     8
 74
     0
 42
0.0000000001
 43
0.0000000001
 12
1.0
 22
0.0
 32
0.0
 13
1.0
 23
0.0
 33
0.0
 40
0.0
 40
0.0
 40
0.0
 40
0.0
 40
0.3333333333333333
 40
0.3333333333333333
 40
0.3333333333333333
 40
0.3333333333333333
 40
1.0
 40
1.0
 40
1.0
 40
1.0
 10
-34.6097
 20
5.911
 30
0.0
 10
-36.2883
 20
5.2743
 30
0.0
 10
-39.5247
 20
5.9938
 30
0.0
 10
-40.8331
 20
7.7493
 30
0.0
 10
-40.8331
 20
7.7493
 30
0.0
 10
-38.7376
 20
8.5654
 30
0.0
 10
-36.0362
 20
7.3868
 30
0.0
 10
-34.6097
 20
5.911
 30
0.0
  0
SPLINE
  5
DB
330
1F
100
AcDbEntity
  8
layer 1
370
    13
100
AcDbSpline
210
0.0
220
0.0
230
1.0
 70
    11
 71
     3
 72
    12
 73
     8
 74
     0
 42
0.0000000001
 43
0.0000000001
 12
1.0
 22
0.0
 32
0.0
 13
1.0
 23
0.0
 33
0.0
 40
0.0
 40
0.0
 40
0.0
 40
0.0
 40
0.3333333333333333
 40
0.3333333333333333
 40
0.3333333333333333
 40
0.3333333333333333
 40
1.0
 40
1.0
 40
1.0
 40
1.0
 10
-34.6097
 20
5.911
 30
0.0
 10
-36.2883
 20
5.2743
 30
0.0
 10
-39.5247
 20
5.9938
 30
0.0
 10
-40.8331
 20
7.7484
 30
0.0
 10
-40.8331
 20
7.7484
 30
0.0
 10
-38.7376
 20
8.5645
 30
0.0
 10
-36.0362
 20
7.386
 30
0.0
 10
-34.6097
 20
5.911
 30
0.0
  0
ENDSEC
  0
SECTION
  2
OBJECTS
  0
DICTIONARY
  5
C
330
0
100
AcDbDictionary
281
     1
  3
ACAD_GROUP
350
D
  3
ACAD_LAYOUT
350
1A
  3
ACAD_MATERIAL
350
3B
  3
ACAD_MLEADERSTYLE
350
FD
  3
ACAD_MLINESTYLE
350
17
  3
ACAD_PLOTSETTINGS
350
19
  3
ACAD_PLOTSTYLENAME
350
E
  3
ACAD_TABLESTYLE
350
FC
  3
ACAD_VISUALSTYLE
350
2A
  0
DICTIONARY
  5
D
102
{ACAD_REACTORS
330
C
102
}
330
C
100
AcDbDictionary
281
     1
  0
DICTIONARY
  5
1A
102
{ACAD_REACTORS
330
C
102
}
330
C
100
AcDbDictionary
281
     1
  3
Layout1
350
1E
  3
Layout2
350
26
  3
Model
350
22
  0
DICTIONARY
  5
3B
102
{ACAD_REACTORS
330
C
102
}
330
C
100
AcDbDictionary
281
     1
  3
ByBlock
350
3D
  3
ByLayer
350
3C
  3
Global
350
3E
  0
DICTIONARY
  5
FD
102
{ACAD_REACTORS
330
C
102
}
330
C
100
AcDbDictionary
281
     1
  0
DICTIONARY
  5
17
102
{ACAD_REACTORS
330
C
102
}
330
C
100
AcDbDictionary
281
     1
  3
Standard
350
18
  0
DICTIONARY
  5
19
102
{ACAD_REACTORS
330
C
102
}
330
C
100
AcDbDictionary
281
     1
  0
ACDBDICTIONARYWDFLT
  5
E
102
{ACAD_REACTORS
330
C
102
}
330
C
100
AcDbDictionary
281
     1
  3
Normal
350
F
100
AcDbDictionaryWithDefault
340
F
  0
DICTIONARY
  5
FC
102
{ACAD_REACTORS
330
C
102
}
330
C
100
AcDbDictionary
281
     1
  0
DICTIONARY
  5
2A
102
{ACAD_REACTORS
330
C
102
}
330
C
100
AcDbDictionary
281
     1
  3
2dWireframe
350
2F
  3
3D Hidden
350
31
  3
3dWireframe
350
30
  3
Basic
350
32
  3
Brighten
350
36
  3
ColorChange
350
3A
  3
Conceptual
350
34
  3
Dim
350
35
  3
Facepattern
350
39
  3
Flat
350
2B
  3
FlatWithEdges
350
2C
  3
Gouraud
350
2D
  3
GouraudWithEdges
350
2E
  3
Linepattern
350
38
  3
Realistic
350
33
  3
Thicken
350
37
  0
LAYOUT
  5
1E
102
{ACAD_REACTORS
330
1A
102
}
330
1A
100
AcDbPlotSettings
  1

  2
none_device
  4

  6

 40
0.0
 41
0.0
 42
0.0
 43
0.0
 44
0.0
 45
0.0
 46
0.0
 47
0.0
 48
0.0
 49
0.0
140
0.0
141
0.0
142
1.0
143
1.0
 70
   688
 72
     0
 73
     0
 74
     5
  7

 75
    16
 76
     0
 77
     2
 78
   300
147
1.0
148
0.0
149
0.0
100
AcDbLayout
  1
Layout1
 70
     1
 71
     1
 10
0.0
 20
0.0
 11
12.0
 21
9.0
 12
0.0
 22
0.0
 32
0.0
 14
1.000000000000000E+20
 24
1.000000000000000E+20
 34
1.000000000000000E+20
 15
-1.000000000000000E+20
 25
-1.000000000000000E+20
 35
-1.000000000000000E+20
146
0.0
 13
0.0
 23
0.0
 33
0.0
 16
1.0
 26
0.0
 36
0.0
 17
0.0
 27
1.0
 37
0.0
 76
     0
330
1B
  0
LAYOUT
  5
26
102
{ACAD_REACTORS
330
1A
102
}
330
1A
100
AcDbPlotSettings
  1

  2
none_device
  4

  6

 40
0.0
 41
0.0
 42
0.0
 43
0.0
 44
0.0
 45
0.0
 46
0.0
 47
0.0
 48
0.0
 49
0.0
140
0.0
141
0.0
142
1.0
143
1.0
 70
   688
 72
     0
 73
     0
 74
     5
  7

 75
    16
 76
     0
 77
     2
 78
   300
147
1.0
148
0.0
149
0.0
100
AcDbLayout
  1
Layout2
 70
     1
 71
     2
 10
0.0
 20
0.0
 11
0.0
 21
0.0
 12
0.0
 22
0.0
 32
0.0
 14
0.0
 24
0.0
 34
0.0
 15
0.0
 25
0.0
 35
0.0
146
0.0
 13
0.0
 23
0.0
 33
0.0
 16
1.0
 26
0.0
 36
0.0
 17
0.0
 27
1.0
 37
0.0
 76
     0
330
23
  0
LAYOUT
  5
22
102
{ACAD_REACTORS
330
1A
102
}
330
1A
100
AcDbPlotSettings
  1

  2
none_device
  4

  6

 40
0.0
 41
0.0
 42
0.0
 43
0.0
 44
0.0
 45
0.0
 46
0.0
 47
0.0
 48
0.0
 49
0.0
140
0.0
141
0.0
142
1.0
143
1.0
 70
  1712
 72
     0
 73
     0
 74
     0
  7

 75
     0
 76
     0
 77
     2
 78
   300
147
1.0
148
0.0
149
0.0
100
AcDbLayout
  1
Model
 70
     1
 71
     0
 10
0.0
 20
0.0
 11
12.0
 21
9.0
 12
0.0
 22
0.0
 32
0.0
 14
-82.1838
 24
-114.5885
 34
0.0
 15
-2.3097
 25
131.8437
 35
0.0
146
0.0
 13
0.0
 23
0.0
 33
0.0
 16
1.0
 26
0.0
 36
0.0
 17
0.0
 27
1.0
 37
0.0
 76
     0
330
1F
331
29
  0
MATERIAL
  5
3D
102
{ACAD_REACTORS
330
3B
102
}
330
3B
100
AcDbMaterial
  1
ByBlock
 72
     1
 94
      127
  0
MATERIAL
  5
3C
102
{ACAD_REACTORS
330
3B
102
}
330
3B
100
AcDbMaterial
  1
ByLayer
 72
     1
 94
      127
  0
MATERIAL
  5
3E
102
{ACAD_REACTORS
330
3B
102
}
330
3B
100
AcDbMaterial
  1
Global
 72
     1
 94
      127
  0
MLINESTYLE
  5
18
102
{ACAD_REACTORS
330
17
102
}
330
17
100
AcDbMlineStyle
  2
Standard
 70
     0
  3

 62
   256
 51
90.0
 52
90.0
 71
     2
 49
0.5
 62
   256
  6
BYLAYER
 49
-0.5
 62
   256
  6
BYLAYER
  0
ACDBPLACEHOLDER
  5
F
102
{ACAD_REACTORS
330
E
102
}
330
E
  0
VISUALSTYLE
  5
2F
102
{ACAD_REACTORS
330
2A
102
}
102
{ACAD_XDICTIONARY
360
E4
102
}
330
2A
100
AcDbVisualStyle
  2
2dWireframe
 70
     4
 71
     0
 72
     2
 73
     0
 90
        0
 40
-0.6
 41
-30.0
 62
     5
 63
     7
421
 16777215
 74
     1
 91
        4
 64
     7
 65
   257
 75
     1
175
     1
 42
1.0
 92
        0
 66
   257
 43
1.0
 76
     1
 77
     6
 78
     2
 67
     7
 79
     5
170
     0
171
     0
290
     0
174
     0
 93
        1
 44
0.0
173
     0
291
     0
 45
0.0
  0
VISUALSTYLE
  5
31
102
{ACAD_REACTORS
330
2A
102
}
102
{ACAD_XDICTIONARY
360
E8
102
}
330
2A
100
AcDbVisualStyle
  2
3D Hidden
 70
     6
 71
     1
 72
     2
 73
     2
 90
        0
 40
-0.6
 41
-30.0
 62
     5
 63
     7
421
 16777215
 74
     2
 91
        2
 64
     7
 65
   257
 75
     2
175
     1
 42
40.0
 92
        0
 66
   257
 43
1.0
 76
     1
 77
     6
 78
     2
 67
     7
 79
     3
170
     0
171
     0
290
     0
174
     0
 93
        1
 44
0.0
173
     0
291
     0
 45
0.0
  0
VISUALSTYLE
  5
30
102
{ACAD_REACTORS
330
2A
102
}
102
{ACAD_XDICTIONARY
360
E6
102
}
330
2A
100
AcDbVisualStyle
  2
3dWireframe
 70
     5
 71
     0
 72
     2
 73
     0
 90
        0
 40
-0.6
 41
-30.0
 62
     5
 63
     7
421
 16777215
 74
     1
 91
        4
 64
     7
 65
   257
 75
     1
175
     1
 42
1.0
 92
        0
 66
   257
 43
1.0
 76
     1
 77
     6
 78
     2
 67
     7
 79
     5
170
     0
171
     0
290
     0
174
     0
 93
        1
 44
0.0
173
     0
291
     0
 45
0.0
  0
VISUALSTYLE
  5
32
102
{ACAD_REACTORS
330
2A
102
}
102
{ACAD_XDICTIONARY
360
EA
102
}
330
2A
100
AcDbVisualStyle
  2
Basic
 70
     7
 71
     1
 72
     0
 73
     1
 90
        0
 40
-0.6
 41
-30.0
 62
     5
 63
     7
421
 16777215
 74
     0
 91
        4
 64
     7
 65
   257
 75
     1
175
     1
 42
1.0
 92
        8
 66
     7
 43
1.0
 76
     1
 77
     6
 78
     2
 67
     7
 79
     5
170
     0
171
     0
290
     0
174
     0
 93
        1
 44
0.0
173
     0
291
     1
 45
0.0
  0
VISUALSTYLE
  5
36
102
{ACAD_REACTORS
330
2A
102
}
102
{ACAD_XDICTIONARY
360
F2
102
}
330
2A
100
AcDbVisualStyle
  2
Brighten
 70
    12
 71
     2
 72
     2
 73
     0
 90
        0
 40
-0.6
 41
-30.0
 62
     5
 63
     7
421
 16777215
 74
     1
 91
        4
 64
     7
 65
   257
 75
     1
175
     1
 42
1.0
 92
        8
 66
     7
 43
1.0
 76
     1
 77
     6
 78
     2
 67
     7
 79
     5
170
     0
171
     0
290
     0
174
     0
 93
        1
 44
50.0
173
     0
291
     1
 45
0.0
  0
VISUALSTYLE
  5
3A
102
{ACAD_REACTORS
330
2A
102
}
102
{ACAD_XDICTIONARY
360
FA
102
}
330
2A
100
AcDbVisualStyle
  2
ColorChange
 70
    16
 71
     2
 72
     2
 73
     3
 90
        0
 40
-0.6
 41
-30.0
 62
     5
 63
     8
421
  8421504
 74
     1
 91
        4
 64
     7
 65
   257
 75
     1
175
     1
 42
1.0
 92
        8
 66
     8
424
  8421504
 43
1.0
 76
     1
 77
     6
 78
     2
 67
     7
 79
     5
170
     0
171
     0
290
     0
174
     0
 93
        1
 44
0.0
173
     0
291
     1
 45
0.0
  0
VISUALSTYLE
  5
34
102
{ACAD_REACTORS
330
2A
102
}
102
{ACAD_XDICTIONARY
360
EE
102
}
330
2A
100
AcDbVisualStyle
  2
Conceptual
 70
     9
 71
     3
 72
     2
 73
     0
 90
        0
 40
-0.6
 41
-30.0
 62
     5
 63
     7
421
 16777215
 74
     2
 91
        2
 64
     7
 65
   257
 75
     1
175
     1
 42
40.0
 92
        8
 66
     7
 43
1.0
 76
     1
 77
     6
 78
     2
 67
     7
 79
     3
170
     0
171
     0
290
     0
174
     0
 93
        1
 44
0.0
173
     0
291
     0
 45
0.0
  0
VISUALSTYLE
  5
35
102
{ACAD_REACTORS
330
2A
102
}
102
{ACAD_XDICTIONARY
360
F0
102
}
330
2A
100
AcDbVisualStyle
  2
Dim
 70
    11
 71
     2
 72
     2
 73
     0
 90
        0
 40
-0.6
 41
-30.0
 62
     5
 63
     7
421
 16777215
 74
     1
 91
        4
 64
     7
 65
   257
 75
     1
175
     1
 42
1.0
 92
        8
 66
     7
 43
1.0
 76
     1
 77
     6
 78
     2
 67
     7
 79
     5
170
     0
171
     0
290
     0
174
     0
 93
        1
 44
-50.0
173
     0
291
     1
 45
0.0
  0
VISUALSTYLE
  5
39
102
{ACAD_REACTORS
330
2A
102
}
102
{ACAD_XDICTIONARY
360
F8
102
}
330
2A
100
AcDbVisualStyle
  2
Facepattern
 70
    15
 71
     2
 72
     2
 73
     0
 90
        0
 40
-0.6
 41
-30.0
 62
     5
 63
     7
421
 16777215
 74
     1
 91
        4
 64
     7
 65
   257
 75
     1
175
     1
 42
1.0
 92
        8
 66
     7
 43
1.0
 76
     1
 77
     6
 78
     2
 67
     7
 79
     5
170
     0
171
     0
290
     0
174
     0
 93
        1
 44
0.0
173
     0
291
     1
 45
0.0
  0
VISUALSTYLE
  5
2B
102
{ACAD_REACTORS
330
2A
102
}
102
{ACAD_XDICTIONARY
360
DC
102
}
330
2A
100
AcDbVisualStyle
  2
Flat
 70
     0
 71
     2
 72
     1
 73
     1
 90
        2
 40
-0.6
 41
30.0
 62
     5
 63
     7
421
 16777215
 74
     0
 91
        4
 64
     7
 65
   257
 75
     1
175
     1
 42
1.0
 92
        8
 66
     7
 43
1.0
 76
     1
 77
     6
 78
     2
 67
     7
 79
     5
170
     0
171
     0
290
     0
174
     0
 93
       13
 44
0.0
173
     0
291
     1
 45
0.0
  0
VISUALSTYLE
  5
2C
102
{ACAD_REACTORS
330
2A
102
}
102
{ACAD_XDICTIONARY
360
DE
102
}
330
2A
100
AcDbVisualStyle
  2
FlatWithEdges
 70
     1
 71
     2
 72
     1
 73
     1
 90
        2
 40
-0.6
 41
30.0
 62
     5
 63
     7
421
 16777215
 74
     1
 91
        4
 64
     7
 65
   257
 75
     1
175
     1
 42
1.0
 92
        0
 66
   257
 43
1.0
 76
     1
 77
     6
 78
     2
 67
     7
 79
     5
170
     0
171
     0
290
     0
174
     0
 93
       13
 44
0.0
173
     0
291
     1
 45
0.0
  0
VISUALSTYLE
  5
2D
102
{ACAD_REACTORS
330
2A
102
}
102
{ACAD_XDICTIONARY
360
E0
102
}
330
2A
100
AcDbVisualStyle
  2
Gouraud
 70
     2
 71
     2
 72
     2
 73
     1
 90
        2
 40
-0.6
 41
30.0
 62
     5
 63
     7
421
 16777215
 74
     0
 91
        4
 64
     7
 65
   257
 75
     1
175
     1
 42
1.0
 92
        0
 66
     7
 43
1.0
 76
     1
 77
     6
 78
     2
 67
     7
 79
     5
170
     0
171
     0
290
     0
174
     0
 93
       13
 44
0.0
173
     0
291
     1
 45
0.0
  0
VISUALSTYLE
  5
2E
102
{ACAD_REACTORS
330
2A
102
}
102
{ACAD_XDICTIONARY
360
E2
102
}
330
2A
100
AcDbVisualStyle
  2
GouraudWithEdges
 70
     3
 71
     2
 72
     2
 73
     1
 90
        2
 40
-0.6
 41
30.0
 62
     5
 63
     7
421
 16777215
 74
     1
 91
        4
 64
     7
 65
   257
 75
     1
175
     1
 42
1.0
 92
        0
 66
   257
 43
1.0
 76
     1
 77
     6
 78
     2
 67
     7
 79
     5
170
     0
171
     0
290
     0
174
     0
 93
       13
 44
0.0
173
     0
291
     1
 45
0.0
  0
VISUALSTYLE
  5
38
102
{ACAD_REACTORS
330
2A
102
}
102
{ACAD_XDICTIONARY
360
F6
102
}
330
2A
100
AcDbVisualStyle
  2
Linepattern
 70
    14
 71
     2
 72
     2
 73
     0
 90
        0
 40
-0.6
 41
-30.0
 62
     5
 63
     7
421
 16777215
 74
     1
 91
        4
 64
     7
 65
   257
 75
     7
175
     7
 42
1.0
 92
        8
 66
     7
 43
1.0
 76
     1
 77
     6
 78
     2
 67
     7
 79
     5
170
     0
171
     0
290
     0
174
     0
 93
        1
 44
0.0
173
     0
291
     1
 45
0.0
  0
VISUALSTYLE
  5
33
102
{ACAD_REACTORS
330
2A
102
}
102
{ACAD_XDICTIONARY
360
EC
102
}
330
2A
100
AcDbVisualStyle
  2
Realistic
 70
     8
 71
     2
 72
     2
 73
     0
 90
        0
 40
-0.6
 41
-30.0
 62
     5
 63
     7
421
 16777215
 74
     1
 91
        0
 64
     7
 65
   257
 75
     1
175
     1
 42
1.0
 92
        8
 66
     8
424
  7895160
 43
1.0
 76
     1
 77
     6
 78
     2
 67
     7
 79
     5
170
     0
171
     0
290
     0
174
     0
 93
       13
 44
0.0
173
     0
291
     0
 45
0.0
  0
VISUALSTYLE
  5
37
102
{ACAD_REACTORS
330
2A
102
}
102
{ACAD_XDICTIONARY
360
F4
102
}
330
2A
100
AcDbVisualStyle
  2
Thicken
 70
    13
 71
     2
 72
     2
 73
     0
 90
        0
 40
-0.6
 41
-30.0
 62
     5
 63
     7
421
 16777215
 74
     1
 91
        4
 64
     7
 65
   257
 75
     1
175
     1
 42
1.0
 92
       12
 66
     7
 43
1.0
 76
     1
 77
     6
 78
     2
 67
     7
 79
     5
170
     0
171
     0
290
     0
174
     0
 93
        1
 44
0.0
173
     0
291
     1
 45
0.0
  0
DICTIONARY
  5
E4
330
2F
100
AcDbDictionary
280
     1
281
     1
  3
ACAD_XREC_ROUNDTRIP
360
E5
  0
DICTIONARY
  5
E8
330
31
100
AcDbDictionary
280
     1
281
     1
  3
ACAD_XREC_ROUNDTRIP
360
E9
  0
DICTIONARY
  5
E6
330
30
100
AcDbDictionary
280
     1
281
     1
  3
ACAD_XREC_ROUNDTRIP
360
E7
  0
DICTIONARY
  5
EA
330
32
100
AcDbDictionary
280
     1
281
     1
  3
ACAD_XREC_ROUNDTRIP
360
EB
  0
DICTIONARY
  5
F2
330
36
100
AcDbDictionary
280
     1
281
     1
  3
ACAD_XREC_ROUNDTRIP
360
F3
  0
DICTIONARY
  5
FA
330
3A
100
AcDbDictionary
280
     1
281
     1
  3
ACAD_XREC_ROUNDTRIP
360
FB
  0
DICTIONARY
  5
EE
330
34
100
AcDbDictionary
280
     1
281
     1
  3
ACAD_XREC_ROUNDTRIP
360
EF
  0
DICTIONARY
  5
F0
330
35
100
AcDbDictionary
280
     1
281
     1
  3
ACAD_XREC_ROUNDTRIP
360
F1
  0
DICTIONARY
  5
F8
330
39
100
AcDbDictionary
280
     1
281
     1
  3
ACAD_XREC_ROUNDTRIP
360
F9
  0
DICTIONARY
  5
DC
330
2B
100
AcDbDictionary
280
     1
281
     1
  3
ACAD_XREC_ROUNDTRIP
360
DD
  0
DICTIONARY
  5
DE
330
2C
100
AcDbDictionary
280
     1
281
     1
  3
ACAD_XREC_ROUNDTRIP
360
DF
  0
DICTIONARY
  5
E0
330
2D
100
AcDbDictionary
280
     1
281
     1
  3
ACAD_XREC_ROUNDTRIP
360
E1
  0
DICTIONARY
  5
E2
330
2E
100
AcDbDictionary
280
     1
281
     1
  3
ACAD_XREC_ROUNDTRIP
360
E3
  0
DICTIONARY
  5
F6
330
38
100
AcDbDictionary
280
     1
281
     1
  3
ACAD_XREC_ROUNDTRIP
360
F7
  0
DICTIONARY
  5
EC
330
33
100
AcDbDictionary
280
     1
281
     1
  3
ACAD_XREC_ROUNDTRIP
360
ED
  0
DICTIONARY
  5
F4
330
37
100
AcDbDictionary
280
     1
281
     1
  3
ACAD_XREC_ROUNDTRIP
360
F5
  0
XRECORD
  5
E5
102
{ACAD_REACTORS
330
E4
102
}
330
E4
100
AcDbXrecord
280
     1
102
RTVSPropertyOp0
 70
     1
102
RTVSPropertyOp1
 70
     1
102
RTVSPropertyOp2
 70
     1
102
RTVSPropertyOp3
 70
     1
102
RTVSPropertyOp4
 70
     1
102
RTVSPropertyOp5
 70
     1
102
RTVSPropertyOp6
 70
     1
102
RTVSPropertyOp7
 70
     1
102
RTVSPropertyOp8
 70
     1
102
RTVSPropertyOp9
 70
     1
102
RTVSPropertyOp10
 70
     1
102
RTVSPropertyOp11
 70
     1
102
RTVSPropertyOp12
 70
     1
102
RTVSPropertyOp13
 70
     1
102
RTVSPropertyOp14
 70
     1
102
RTVSPropertyOp15
 70
     1
102
RTVSPropertyOp16
 70
     1
102
RTVSPropertyOp17
 70
     1
102
RTVSPropertyOp18
 70
     1
102
RTVSPropertyOp19
 70
     1
102
RTVSPropertyOp20
 70
     1
102
RTVSPropertyOp21
 70
     1
102
RTVSPropertyOp22
 70
     1
102
RTVSPropertyOp23
 70
     1
102
RTVSPropertyOp24
 70
     1
102
RTVSPropertyOp25
 70
     1
102
RTVSPropertyOp26
 70
     1
102
RTVSPropertyOp27
 70
     1
102
RTVSPropertyOp28
 70
     1
102
RTVSPropertyOp29
 70
     1
102
RTVSPropertyOp30
 70
     1
102
RTVSPropertyOp31
 70
     1
102
RTVSPropertyOp32
 70
     1
  0
XRECORD
  5
E9
102
{ACAD_REACTORS
330
E8
102
}
330
E8
100
AcDbXrecord
280
     1
102
RTVSPropertyOp0
 70
     1
102
RTVSPropertyOp1
 70
     1
102
RTVSPropertyOp2
 70
     1
102
RTVSPropertyOp3
 70
     1
102
RTVSPropertyOp4
 70
     1
102
RTVSPropertyOp5
 70
     1
102
RTVSPropertyOp6
 70
     1
102
RTVSPropertyOp7
 70
     1
102
RTVSPropertyOp8
 70
     1
102
RTVSPropertyOp9
 70
     1
102
RTVSPropertyOp10
 70
     1
102
RTVSPropertyOp11
 70
     1
102
RTVSPropertyOp12
 70
     1
102
RTVSPropertyOp13
 70
     1
102
RTVSPropertyOp14
 70
     1
102
RTVSPropertyOp15
 70
     1
102
RTVSPropertyOp16
 70
     1
102
RTVSPropertyOp17
 70
     1
102
RTVSPropertyOp18
 70
     1
102
RTVSPropertyOp19
 70
     1
102
RTVSPropertyOp20
 70
     1
102
RTVSPropertyOp21
 70
     1
102
RTVSPropertyOp22
 70
     1
102
RTVSPropertyOp23
 70
     1
102
RTVSPropertyOp24
 70
     1
102
RTVSPropertyOp25
 70
     1
102
RTVSPropertyOp26
 70
     1
102
RTVSPropertyOp27
 70
     1
102
RTVSPropertyOp28
 70
     1
102
RTVSPropertyOp29
 70
     1
102
RTVSPropertyOp30
 70
     1
102
RTVSPropertyOp31
 70
     1
102
RTVSPropertyOp32
 70
     1
  0
XRECORD
  5
E7
102
{ACAD_REACTORS
330
E6
102
}
330
E6
100
AcDbXrecord
280
     1
102
RTVSPropertyOp0
 70
     1
102
RTVSPropertyOp1
 70
     1
102
RTVSPropertyOp2
 70
     1
102
RTVSPropertyOp3
 70
     1
102
RTVSPropertyOp4
 70
     1
102
RTVSPropertyOp5
 70
     1
102
RTVSPropertyOp6
 70
     1
102
RTVSPropertyOp7
 70
     1
102
RTVSPropertyOp8
 70
     1
102
RTVSPropertyOp9
 70
     1
102
RTVSPropertyOp10
 70
     1
102
RTVSPropertyOp11
 70
     1
102
RTVSPropertyOp12
 70
     1
102
RTVSPropertyOp13
 70
     1
102
RTVSPropertyOp14
 70
     1
102
RTVSPropertyOp15
 70
     1
102
RTVSPropertyOp16
 70
     1
102
RTVSPropertyOp17
 70
     1
102
RTVSPropertyOp18
 70
     1
102
RTVSPropertyOp19
 70
     1
102
RTVSPropertyOp20
 70
     1
102
RTVSPropertyOp21
 70
     1
102
RTVSPropertyOp22
 70
     1
102
RTVSPropertyOp23
 70
     1
102
RTVSPropertyOp24
 70
     1
102
RTVSPropertyOp25
 70
     1
102
RTVSPropertyOp26
 70
     1
102
RTVSPropertyOp27
 70
     1
102
RTVSPropertyOp28
 70
     1
102
RTVSPropertyOp29
 70
     1
102
RTVSPropertyOp30
 70
     1
102
RTVSPropertyOp31
 70
     1
102
RTVSPropertyOp32
 70
     1
  0
XRECORD
  5
EB
102
{ACAD_REACTORS
330
EA
102
}
330
EA
100
AcDbXrecord
280
     1
102
RTVSPropertyOp0
 70
     1
102
RTVSPropertyOp1
 70
     1
102
RTVSPropertyOp2
 70
     1
102
RTVSPropertyOp3
 70
     1
102
RTVSPropertyOp4
 70
     1
102
RTVSPropertyOp5
 70
     1
102
RTVSPropertyOp6
 70
     1
102
RTVSPropertyOp7
 70
     1
102
RTVSPropertyOp8
 70
     1
102
RTVSPropertyOp9
 70
     1
102
RTVSPropertyOp10
 70
     1
102
RTVSPropertyOp11
 70
     1
102
RTVSPropertyOp12
 70
     1
102
RTVSPropertyOp13
 70
     1
102
RTVSPropertyOp14
 70
     1
102
RTVSPropertyOp15
 70
     1
102
RTVSPropertyOp16
 70
     1
102
RTVSPropertyOp17
 70
     1
102
RTVSPropertyOp18
 70
     1
102
RTVSPropertyOp19
 70
     1
102
RTVSPropertyOp20
 70
     1
102
RTVSPropertyOp21
 70
     1
102
RTVSPropertyOp22
 70
     1
102
RTVSPropertyOp23
 70
     1
102
RTVSPropertyOp24
 70
     1
102
RTVSPropertyOp25
 70
     1
102
RTVSPropertyOp26
 70
     1
102
RTVSPropertyOp27
 70
     1
102
RTVSPropertyOp28
 70
     1
102
RTVSPropertyOp29
 70
     1
102
RTVSPropertyOp30
 70
     1
102
RTVSPropertyOp31
 70
     1
102
RTVSPropertyOp32
 70
     1
  0
XRECORD
  5
F3
102
{ACAD_REACTORS
330
F2
102
}
330
F2
100
AcDbXrecord
280
     1
102
RTVSPropertyOp0
 70
     1
102
RTVSPropertyOp1
 70
     1
102
RTVSPropertyOp2
 70
     1
102
RTVSPropertyOp3
 70
     1
102
RTVSPropertyOp4
 70
     1
102
RTVSPropertyOp5
 70
     1
102
RTVSPropertyOp6
 70
     1
102
RTVSPropertyOp7
 70
     1
102
RTVSPropertyOp8
 70
     1
102
RTVSPropertyOp9
 70
     1
102
RTVSPropertyOp10
 70
     1
102
RTVSPropertyOp11
 70
     1
102
RTVSPropertyOp12
 70
     1
102
RTVSPropertyOp13
 70
     1
102
RTVSPropertyOp14
 70
     1
102
RTVSPropertyOp15
 70
     1
102
RTVSPropertyOp16
 70
     1
102
RTVSPropertyOp17
 70
     1
102
RTVSPropertyOp18
 70
     1
102
RTVSPropertyOp19
 70
     1
102
RTVSPropertyOp20
 70
     1
102
RTVSPropertyOp21
 70
     1
102
RTVSPropertyOp22
 70
     1
102
RTVSPropertyOp23
 70
     1
102
RTVSPropertyOp24
 70
     1
102
RTVSPropertyOp25
 70
     1
102
RTVSPropertyOp26
 70
     1
102
RTVSPropertyOp27
 70
     1
102
RTVSPropertyOp28
 70
     1
102
RTVSPropertyOp29
 70
     1
102
RTVSPropertyOp30
 70
     1
102
RTVSPropertyOp31
 70
     1
102
RTVSPropertyOp32
 70
     1
  0
XRECORD
  5
FB
102
{ACAD_REACTORS
330
FA
102
}
330
FA
100
AcDbXrecord
280
     1
102
RTVSPropertyOp0
 70
     1
102
RTVSPropertyOp1
 70
     1
102
RTVSPropertyOp2
 70
     1
102
RTVSPropertyOp3
 70
     1
102
RTVSPropertyOp4
 70
     1
102
RTVSPropertyOp5
 70
     1
102
RTVSPropertyOp6
 70
     1
102
RTVSPropertyOp7
 70
     1
102
RTVSPropertyOp8
 70
     1
102
RTVSPropertyOp9
 70
     1
102
RTVSPropertyOp10
 70
     1
102
RTVSPropertyOp11
 70
     1
102
RTVSPropertyOp12
 70
     1
102
RTVSPropertyOp13
 70
     1
102
RTVSPropertyOp14
 70
     1
102
RTVSPropertyOp15
 70
     1
102
RTVSPropertyOp16
 70
     1
102
RTVSPropertyOp17
 70
     1
102
RTVSPropertyOp18
 70
     1
102
RTVSPropertyOp19
 70
     1
102
RTVSPropertyOp20
 70
     1
102
RTVSPropertyOp21
 70
     1
102
RTVSPropertyOp22
 70
     1
102
RTVSPropertyOp23
 70
     1
102
RTVSPropertyOp24
 70
     1
102
RTVSPropertyOp25
 70
     1
102
RTVSPropertyOp26
 70
     1
102
RTVSPropertyOp27
 70
     1
102
RTVSPropertyOp28
 70
     1
102
RTVSPropertyOp29
 70
     1
102
RTVSPropertyOp30
 70
     1
102
RTVSPropertyOp31
 70
     1
102
RTVSPropertyOp32
 70
     1
  0
XRECORD
  5
EF
102
{ACAD_REACTORS
330
EE
102
}
330
EE
100
AcDbXrecord
280
     1
102
RTVSPropertyOp0
 70
     1
102
RTVSPropertyOp1
 70
     1
102
RTVSPropertyOp2
 70
     1
102
RTVSPropertyOp3
 70
     1
102
RTVSPropertyOp4
 70
     1
102
RTVSPropertyOp5
 70
     1
102
RTVSPropertyOp6
 70
     1
102
RTVSPropertyOp7
 70
     1
102
RTVSPropertyOp8
 70
     1
102
RTVSPropertyOp9
 70
     1
102
RTVSPropertyOp10
 70
     1
102
RTVSPropertyOp11
 70
     1
102
RTVSPropertyOp12
 70
     1
102
RTVSPropertyOp13
 70
     1
102
RTVSPropertyOp14
 70
     1
102
RTVSPropertyOp15
 70
     1
102
RTVSPropertyOp16
 70
     1
102
RTVSPropertyOp17
 70
     1
102
RTVSPropertyOp18
 70
     1
102
RTVSPropertyOp19
 70
     1
102
RTVSPropertyOp20
 70
     1
102
RTVSPropertyOp21
 70
     1
102
RTVSPropertyOp22
 70
     1
102
RTVSPropertyOp23
 70
     1
102
RTVSPropertyOp24
 70
     1
102
RTVSPropertyOp25
 70
     1
102
RTVSPropertyOp26
 70
     1
102
RTVSPropertyOp27
 70
     1
102
RTVSPropertyOp28
 70
     1
102
RTVSPropertyOp29
 70
     1
102
RTVSPropertyOp30
 70
     1
102
RTVSPropertyOp31
 70
     1
102
RTVSPropertyOp32
 70
     1
  0
XRECORD
  5
F1
102
{ACAD_REACTORS
330
F0
102
}
330
F0
100
AcDbXrecord
280
     1
102
RTVSPropertyOp0
 70
     1
102
RTVSPropertyOp1
 70
     1
102
RTVSPropertyOp2
 70
     1
102
RTVSPropertyOp3
 70
     1
102
RTVSPropertyOp4
 70
     1
102
RTVSPropertyOp5
 70
     1
102
RTVSPropertyOp6
 70
     1
102
RTVSPropertyOp7
 70
     1
102
RTVSPropertyOp8
 70
     1
102
RTVSPropertyOp9
 70
     1
102
RTVSPropertyOp10
 70
     1
102
RTVSPropertyOp11
 70
     1
102
RTVSPropertyOp12
 70
     1
102
RTVSPropertyOp13
 70
     1
102
RTVSPropertyOp14
 70
     1
102
RTVSPropertyOp15
 70
     1
102
RTVSPropertyOp16
 70
     1
102
RTVSPropertyOp17
 70
     1
102
RTVSPropertyOp18
 70
     1
102
RTVSPropertyOp19
 70
     1
102
RTVSPropertyOp20
 70
     1
102
RTVSPropertyOp21
 70
     1
102
RTVSPropertyOp22
 70
     1
102
RTVSPropertyOp23
 70
     1
102
RTVSPropertyOp24
 70
     1
102
RTVSPropertyOp25
 70
     1
102
RTVSPropertyOp26
 70
     1
102
RTVSPropertyOp27
 70
     1
102
RTVSPropertyOp28
 70
     1
102
RTVSPropertyOp29
 70
     1
102
RTVSPropertyOp30
 70
     1
102
RTVSPropertyOp31
 70
     1
102
RTVSPropertyOp32
 70
     1
  0
XRECORD
  5
F9
102
{ACAD_REACTORS
330
F8
102
}
330
F8
100
AcDbXrecord
280
     1
102
RTVSPropertyOp0
 70
     1
102
RTVSPropertyOp1
 70
     1
102
RTVSPropertyOp2
 70
     1
102
RTVSPropertyOp3
 70
     1
102
RTVSPropertyOp4
 70
     1
102
RTVSPropertyOp5
 70
     1
102
RTVSPropertyOp6
 70
     1
102
RTVSPropertyOp7
 70
     1
102
RTVSPropertyOp8
 70
     1
102
RTVSPropertyOp9
 70
     1
102
RTVSPropertyOp10
 70
     1
102
RTVSPropertyOp11
 70
     1
102
RTVSPropertyOp12
 70
     1
102
RTVSPropertyOp13
 70
     1
102
RTVSPropertyOp14
 70
     1
102
RTVSPropertyOp15
 70
     1
102
RTVSPropertyOp16
 70
     1
102
RTVSPropertyOp17
 70
     1
102
RTVSPropertyOp18
 70
     1
102
RTVSPropertyOp19
 70
     1
102
RTVSPropertyOp20
 70
     1
102
RTVSPropertyOp21
 70
     1
102
RTVSPropertyOp22
 70
     1
102
RTVSPropertyOp23
 70
     1
102
RTVSPropertyOp24
 70
     1
102
RTVSPropertyOp25
 70
     1
102
RTVSPropertyOp26
 70
     1
102
RTVSPropertyOp27
 70
     1
102
RTVSPropertyOp28
 70
     1
102
RTVSPropertyOp29
 70
     1
102
RTVSPropertyOp30
 70
     1
102
RTVSPropertyOp31
 70
     1
102
RTVSPropertyOp32
 70
     1
  0
XRECORD
  5
DD
102
{ACAD_REACTORS
330
DC
102
}
330
DC
100
AcDbXrecord
280
     1
102
RTVSPropertyOp0
 70
     1
102
RTVSPropertyOp1
 70
     1
102
RTVSPropertyOp2
 70
     1
102
RTVSPropertyOp3
 70
     1
102
RTVSPropertyOp4
 70
     1
102
RTVSPropertyOp5
 70
     1
102
RTVSPropertyOp6
 70
     1
102
RTVSPropertyOp7
 70
     1
102
RTVSPropertyOp8
 70
     1
102
RTVSPropertyOp9
 70
     1
102
RTVSPropertyOp10
 70
     1
102
RTVSPropertyOp11
 70
     1
102
RTVSPropertyOp12
 70
     1
102
RTVSPropertyOp13
 70
     1
102
RTVSPropertyOp14
 70
     1
102
RTVSPropertyOp15
 70
     1
102
RTVSPropertyOp16
 70
     1
102
RTVSPropertyOp17
 70
     1
102
RTVSPropertyOp18
 70
     1
102
RTVSPropertyOp19
 70
     1
102
RTVSPropertyOp20
 70
     1
102
RTVSPropertyOp21
 70
     1
102
RTVSPropertyOp22
 70
     1
102
RTVSPropertyOp23
 70
     1
102
RTVSPropertyOp24
 70
     1
102
RTVSPropertyOp25
 70
     1
102
RTVSPropertyOp26
 70
     1
102
RTVSPropertyOp27
 70
     1
102
RTVSPropertyOp28
 70
     1
102
RTVSPropertyOp29
 70
     1
102
RTVSPropertyOp30
 70
     1
102
RTVSPropertyOp31
 70
     1
102
RTVSPropertyOp32
 70
     1
  0
XRECORD
  5
DF
102
{ACAD_REACTORS
330
DE
102
}
330
DE
100
AcDbXrecord
280
     1
102
RTVSPropertyOp0
 70
     1
102
RTVSPropertyOp1
 70
     1
102
RTVSPropertyOp2
 70
     1
102
RTVSPropertyOp3
 70
     1
102
RTVSPropertyOp4
 70
     1
102
RTVSPropertyOp5
 70
     1
102
RTVSPropertyOp6
 70
     1
102
RTVSPropertyOp7
 70
     1
102
RTVSPropertyOp8
 70
     1
102
RTVSPropertyOp9
 70
     1
102
RTVSPropertyOp10
 70
     1
102
RTVSPropertyOp11
 70
     1
102
RTVSPropertyOp12
 70
     1
102
RTVSPropertyOp13
 70
     1
102
RTVSPropertyOp14
 70
     1
102
RTVSPropertyOp15
 70
     1
102
RTVSPropertyOp16
 70
     1
102
RTVSPropertyOp17
 70
     1
102
RTVSPropertyOp18
 70
     1
102
RTVSPropertyOp19
 70
     1
102
RTVSPropertyOp20
 70
     1
102
RTVSPropertyOp21
 70
     1
102
RTVSPropertyOp22
 70
     1
102
RTVSPropertyOp23
 70
     1
102
RTVSPropertyOp24
 70
     1
102
RTVSPropertyOp25
 70
     1
102
RTVSPropertyOp26
 70
     1
102
RTVSPropertyOp27
 70
     1
102
RTVSPropertyOp28
 70
     1
102
RTVSPropertyOp29
 70
     1
102
RTVSPropertyOp30
 70
     1
102
RTVSPropertyOp31
 70
     1
102
RTVSPropertyOp32
 70
     1
  0
XRECORD
  5
E1
102
{ACAD_REACTORS
330
E0
102
}
330
E0
100
AcDbXrecord
280
     1
102
RTVSPropertyOp0
 70
     1
102
RTVSPropertyOp1
 70
     1
102
RTVSPropertyOp2
 70
     1
102
RTVSPropertyOp3
 70
     1
102
RTVSPropertyOp4
 70
     1
102
RTVSPropertyOp5
 70
     1
102
RTVSPropertyOp6
 70
     1
102
RTVSPropertyOp7
 70
     1
102
RTVSPropertyOp8
 70
     1
102
RTVSPropertyOp9
 70
     1
102
RTVSPropertyOp10
 70
     1
102
RTVSPropertyOp11
 70
     1
102
RTVSPropertyOp12
 70
     1
102
RTVSPropertyOp13
 70
     1
102
RTVSPropertyOp14
 70
     1
102
RTVSPropertyOp15
 70
     1
102
RTVSPropertyOp16
 70
     1
102
RTVSPropertyOp17
 70
     1
102
RTVSPropertyOp18
 70
     1
102
RTVSPropertyOp19
 70
     1
102
RTVSPropertyOp20
 70
     1
102
RTVSPropertyOp21
 70
     1
102
RTVSPropertyOp22
 70
     1
102
RTVSPropertyOp23
 70
     1
102
RTVSPropertyOp24
 70
     1
102
RTVSPropertyOp25
 70
     1
102
RTVSPropertyOp26
 70
     1
102
RTVSPropertyOp27
 70
     1
102
RTVSPropertyOp28
 70
     1
102
RTVSPropertyOp29
 70
     1
102
RTVSPropertyOp30
 70
     1
102
RTVSPropertyOp31
 70
     1
102
RTVSPropertyOp32
 70
     1
  0
XRECORD
  5
E3
102
{ACAD_REACTORS
330
E2
102
}
330
E2
100
AcDbXrecord
280
     1
102
RTVSPropertyOp0
 70
     1
102
RTVSPropertyOp1
 70
     1
102
RTVSPropertyOp2
 70
     1
102
RTVSPropertyOp3
 70
     1
102
RTVSPropertyOp4
 70
     1
102
RTVSPropertyOp5
 70
     1
102
RTVSPropertyOp6
 70
     1
102
RTVSPropertyOp7
 70
     1
102
RTVSPropertyOp8
 70
     1
102
RTVSPropertyOp9
 70
     1
102
RTVSPropertyOp10
 70
     1
102
RTVSPropertyOp11
 70
     1
102
RTVSPropertyOp12
 70
     1
102
RTVSPropertyOp13
 70
     1
102
RTVSPropertyOp14
 70
     1
102
RTVSPropertyOp15
 70
     1
102
RTVSPropertyOp16
 70
     1
102
RTVSPropertyOp17
 70
     1
102
RTVSPropertyOp18
 70
     1
102
RTVSPropertyOp19
 70
     1
102
RTVSPropertyOp20
 70
     1
102
RTVSPropertyOp21
 70
     1
102
RTVSPropertyOp22
 70
     1
102
RTVSPropertyOp23
 70
     1
102
RTVSPropertyOp24
 70
     1
102
RTVSPropertyOp25
 70
     1
102
RTVSPropertyOp26
 70
     1
102
RTVSPropertyOp27
 70
     1
102
RTVSPropertyOp28
 70
     1
102
RTVSPropertyOp29
 70
     1
102
RTVSPropertyOp30
 70
     1
102
RTVSPropertyOp31
 70
     1
102
RTVSPropertyOp32
 70
     1
  0
XRECORD
  5
F7
102
{ACAD_REACTORS
330
F6
102
}
330
F6
100
AcDbXrecord
280
     1
102
RTVSPropertyOp0
 70
     1
102
RTVSPropertyOp1
 70
     1
102
RTVSPropertyOp2
 70
     1
102
RTVSPropertyOp3
 70
     1
102
RTVSPropertyOp4
 70
     1
102
RTVSPropertyOp5
 70
     1
102
RTVSPropertyOp6
 70
     1
102
RTVSPropertyOp7
 70
     1
102
RTVSPropertyOp8
 70
     1
102
RTVSPropertyOp9
 70
     1
102
RTVSPropertyOp10
 70
     1
102
RTVSPropertyOp11
 70
     1
102
RTVSPropertyOp12
 70
     1
102
RTVSPropertyOp13
 70
     1
102
RTVSPropertyOp14
 70
     1
102
RTVSPropertyOp15
 70
     1
102
RTVSPropertyOp16
 70
     1
102
RTVSPropertyOp17
 70
     1
102
RTVSPropertyOp18
 70
     1
102
RTVSPropertyOp19
 70
     1
102
RTVSPropertyOp20
 70
     1
102
RTVSPropertyOp21
 70
     1
102
RTVSPropertyOp22
 70
     1
102
RTVSPropertyOp23
 70
     1
102
RTVSPropertyOp24
 70
     1
102
RTVSPropertyOp25
 70
     1
102
RTVSPropertyOp26
 70
     1
102
RTVSPropertyOp27
 70
     1
102
RTVSPropertyOp28
 70
     1
102
RTVSPropertyOp29
 70
     1
102
RTVSPropertyOp30
 70
     1
102
RTVSPropertyOp31
 70
     1
102
RTVSPropertyOp32
 70
     1
  0
XRECORD
  5
ED
102
{ACAD_REACTORS
330
EC
102
}
330
EC
100
AcDbXrecord
280
     1
102
RTVSPropertyOp0
 70
     1
102
RTVSPropertyOp1
 70
     1
102
RTVSPropertyOp2
 70
     1
102
RTVSPropertyOp3
 70
     1
102
RTVSPropertyOp4
 70
     1
102
RTVSPropertyOp5
 70
     1
102
RTVSPropertyOp6
 70
     1
102
RTVSPropertyOp7
 70
     1
102
RTVSPropertyOp8
 70
     1
102
RTVSPropertyOp9
 70
     1
102
RTVSPropertyOp10
 70
     1
102
RTVSPropertyOp11
 70
     1
102
RTVSPropertyOp12
 70
     1
102
RTVSPropertyOp13
 70
     1
102
RTVSPropertyOp14
 70
     1
102
RTVSPropertyOp15
 70
     1
102
RTVSPropertyOp16
 70
     1
102
RTVSPropertyOp17
 70
     1
102
RTVSPropertyOp18
 70
     1
102
RTVSPropertyOp19
 70
     1
102
RTVSPropertyOp20
 70
     1
102
RTVSPropertyOp21
 70
     1
102
RTVSPropertyOp22
 70
     1
102
RTVSPropertyOp23
 70
     1
102
RTVSPropertyOp24
 70
     1
102
RTVSPropertyOp25
 70
     1
102
RTVSPropertyOp26
 70
     1
102
RTVSPropertyOp27
 70
     1
102
RTVSPropertyOp28
 70
     1
102
RTVSPropertyOp29
 70
     1
102
RTVSPropertyOp30
 70
     1
102
RTVSPropertyOp31
 70
     1
102
RTVSPropertyOp32
 70
     1
  0
XRECORD
  5
F5
102
{ACAD_REACTORS
330
F4
102
}
330
F4
100
AcDbXrecord
280
     1
102
RTVSPropertyOp0
 70
     1
102
RTVSPropertyOp1
 70
     1
102
RTVSPropertyOp2
 70
     1
102
RTVSPropertyOp3
 70
     1
102
RTVSPropertyOp4
 70
     1
102
RTVSPropertyOp5
 70
     1
102
RTVSPropertyOp6
 70
     1
102
RTVSPropertyOp7
 70
     1
102
RTVSPropertyOp8
 70
     1
102
RTVSPropertyOp9
 70
     1
102
RTVSPropertyOp10
 70
     1
102
RTVSPropertyOp11
 70
     1
102
RTVSPropertyOp12
 70
     1
102
RTVSPropertyOp13
 70
     1
102
RTVSPropertyOp14
 70
     1
102
RTVSPropertyOp15
 70
     1
102
RTVSPropertyOp16
 70
     1
102
RTVSPropertyOp17
 70
     1
102
RTVSPropertyOp18
 70
     1
102
RTVSPropertyOp19
 70
     1
102
RTVSPropertyOp20
 70
     1
102
RTVSPropertyOp21
 70
     1
102
RTVSPropertyOp22
 70
     1
102
RTVSPropertyOp23
 70
     1
102
RTVSPropertyOp24
 70
     1
102
RTVSPropertyOp25
 70
     1
102
RTVSPropertyOp26
 70
     1
102
RTVSPropertyOp27
 70
     1
102
RTVSPropertyOp28
 70
     1
102
RTVSPropertyOp29
 70
     1
102
RTVSPropertyOp30
 70
     1
102
RTVSPropertyOp31
 70
     1
102
RTVSPropertyOp32
 70
     1
  0
ENDSEC
  0
EOF
