  0
SECTION
  2
HEADER
  9
$ACADVER
  1
AC1021
  9
$ACADMAINTVER
 70
    25
  9
$DWGCODEPAGE
  3
ANSI_1256
  9
$INSBASE
 10
0.0
 20
0.0
 30
0.0
  9
$EXTMIN
 10
-187.3627
 20
-115.1577
 30
0.0
  9
$EXTMAX
 10
-132.1049
 20
131.8528
 30
0.0
  9
$LIMMIN
 10
0.0
 20
0.0
  9
$LIMMAX
 10
12.0
 20
9.0
  9
$ORTHOMODE
 70
     0
  9
$REGENMODE
 70
     1
  9
$FILLMODE
 70
     1
  9
$QTEXTMODE
 70
     0
  9
$MIRRTEXT
 70
     1
  9
$LTSCALE
 40
1.0
  9
$ATTMODE
 70
     1
  9
$TEXTSIZE
 40
0.2
  9
$TRACEWID
 40
0.05
  9
$TEXTSTYLE
  7
Standard
  9
$CLAYER
  8
0
  9
$CELTYPE
  6
ByLayer
  9
$CECOLOR
 62
   256
  9
$CELTSCALE
 40
1.0
  9
$DISPSILH
 70
     0
  9
$DIMSCALE
 40
1.0
  9
$DIMASZ
 40
0.18
  9
$DIMEXO
 40
0.0625
  9
$DIMDLI
 40
0.38
  9
$DIMRND
 40
0.0
  9
$DIMDLE
 40
0.0
  9
$DIMEXE
 40
0.18
  9
$DIMTP
 40
0.0
  9
$DIMTM
 40
0.0
  9
$DIMTXT
 40
0.18
  9
$DIMCEN
 40
0.09
  9
$DIMTSZ
 40
0.0
  9
$DIMTOL
 70
     0
  9
$DIMLIM
 70
     0
  9
$DIMTIH
 70
     1
  9
$DIMTOH
 70
     1
  9
$DIMSE1
 70
     0
  9
$DIMSE2
 70
     0
  9
$DIMTAD
 70
     0
  9
$DIMZIN
 70
     0
  9
$DIMBLK
  1

  9
$DIMASO
 70
     1
  9
$DIMSHO
 70
     1
  9
$DIMPOST
  1

  9
$DIMAPOST
  1

  9
$DIMALT
 70
     0
  9
$DIMALTD
 70
     2
  9
$DIMALTF
 40
25.4
  9
$DIMLFAC
 40
1.0
  9
$DIMTOFL
 70
     0
  9
$DIMTVP
 40
0.0
  9
$DIMTIX
 70
     0
  9
$DIMSOXD
 70
     0
  9
$DIMSAH
 70
     0
  9
$DIMBLK1
  1

  9
$DIMBLK2
  1

  9
$DIMSTYLE
  2
Standard
  9
$DIMCLRD
 70
     0
  9
$DIMCLRE
 70
     0
  9
$DIMCLRT
 70
     0
  9
$DIMTFAC
 40
1.0
  9
$DIMGAP
 40
0.09
  9
$DIMJUST
 70
     0
  9
$DIMSD1
 70
     0
  9
$DIMSD2
 70
     0
  9
$DIMTOLJ
 70
     1
  9
$DIMTZIN
 70
     0
  9
$DIMALTZ
 70
     0
  9
$DIMALTTZ
 70
     0
  9
$DIMUPT
 70
     0
  9
$DIMDEC
 70
     4
  9
$DIMTDEC
 70
     4
  9
$DIMALTU
 70
     2
  9
$DIMALTTD
 70
     2
  9
$DIMTXSTY
  7
Standard
  9
$DIMAUNIT
 70
     0
  9
$DIMADEC
 70
     0
  9
$DIMALTRND
 40
0.0
  9
$DIMAZIN
 70
     0
  9
$DIMDSEP
 70
    46
  9
$DIMATFIT
 70
     3
  9
$DIMFRAC
 70
     0
  9
$DIMLDRBLK
  1

  9
$DIMLUNIT
 70
     2
  9
$DIMLWD
 70
    -2
  9
$DIMLWE
 70
    -2
  9
$DIMTMOVE
 70
     0
  9
$DIMFXL
 40
1.0
  9
$DIMFXLON
 70
     0
  9
$DIMJOGANG
 40
0.7853981633974483
  9
$DIMTFILL
 70
     0
  9
$DIMTFILLCLR
 70
     0
  9
$DIMARCSYM
 70
     0
  9
$DIMLTYPE
  6

  9
$DIMLTEX1
  6

  9
$DIMLTEX2
  6

  9
$LUNITS
 70
     2
  9
$LUPREC
 70
     4
  9
$SKETCHINC
 40
0.1
  9
$FILLETRAD
 40
0.5
  9
$AUNITS
 70
     0
  9
$AUPREC
 70
     0
  9
$MENU
  1
.
  9
$ELEVATION
 40
0.0
  9
$PELEVATION
 40
0.0
  9
$THICKNESS
 40
0.0
  9
$LIMCHECK
 70
     0
  9
$CHAMFERA
 40
0.5
  9
$CHAMFERB
 40
0.5
  9
$CHAMFERC
 40
1.0
  9
$CHAMFERD
 40
0.0
  9
$SKPOLY
 70
     0
  9
$TDCREATE
 40
2458492.382241609
  9
$TDUCREATE
 40
2458492.215574942
  9
$TDUPDATE
 40
2458492.38224213
  9
$TDUUPDATE
 40
2458492.215575463
  9
$TDINDWG
 40
0.0000000116
  9
$TDUSRTIMER
 40
0.0000000116
  9
$USRTIMER
 70
     1
  9
$ANGBASE
 50
0.0
  9
$ANGDIR
 70
     0
  9
$PDMODE
 70
     0
  9
$PDSIZE
 40
0.0
  9
$PLINEWID
 40
0.0
  9
$SPLFRAME
 70
     0
  9
$SPLINETYPE
 70
     6
  9
$SPLINESEGS
 70
     8
  9
$HANDSEED
  5
B1
  9
$SURFTAB1
 70
     6
  9
$SURFTAB2
 70
     6
  9
$SURFTYPE
 70
     6
  9
$SURFU
 70
     6
  9
$SURFV
 70
     6
  9
$UCSBASE
  2

  9
$UCSNAME
  2

  9
$UCSORG
 10
0.0
 20
0.0
 30
0.0
  9
$UCSXDIR
 10
1.0
 20
0.0
 30
0.0
  9
$UCSYDIR
 10
0.0
 20
1.0
 30
0.0
  9
$UCSORTHOREF
  2

  9
$UCSORTHOVIEW
 70
     0
  9
$UCSORGTOP
 10
0.0
 20
0.0
 30
0.0
  9
$UCSORGBOTTOM
 10
0.0
 20
0.0
 30
0.0
  9
$UCSORGLEFT
 10
0.0
 20
0.0
 30
0.0
  9
$UCSORGRIGHT
 10
0.0
 20
0.0
 30
0.0
  9
$UCSORGFRONT
 10
0.0
 20
0.0
 30
0.0
  9
$UCSORGBACK
 10
0.0
 20
0.0
 30
0.0
  9
$PUCSBASE
  2

  9
$PUCSNAME
  2

  9
$PUCSORG
 10
0.0
 20
0.0
 30
0.0
  9
$PUCSXDIR
 10
1.0
 20
0.0
 30
0.0
  9
$PUCSYDIR
 10
0.0
 20
1.0
 30
0.0
  9
$PUCSORTHOREF
  2

  9
$PUCSORTHOVIEW
 70
     0
  9
$PUCSORGTOP
 10
0.0
 20
0.0
 30
0.0
  9
$PUCSORGBOTTOM
 10
0.0
 20
0.0
 30
0.0
  9
$PUCSORGLEFT
 10
0.0
 20
0.0
 30
0.0
  9
$PUCSORGRIGHT
 10
0.0
 20
0.0
 30
0.0
  9
$PUCSORGFRONT
 10
0.0
 20
0.0
 30
0.0
  9
$PUCSORGBACK
 10
0.0
 20
0.0
 30
0.0
  9
$USERI1
 70
     0
  9
$USERI2
 70
     0
  9
$USERI3
 70
     0
  9
$USERI4
 70
     0
  9
$USERI5
 70
     0
  9
$USERR1
 40
0.0
  9
$USERR2
 40
0.0
  9
$USERR3
 40
0.0
  9
$USERR4
 40
0.0
  9
$USERR5
 40
0.0
  9
$WORLDVIEW
 70
     1
  9
$SHADEDGE
 70
     3
  9
$SHADEDIF
 70
    70
  9
$TILEMODE
 70
     1
  9
$MAXACTVP
 70
    64
  9
$PINSBASE
 10
0.0
 20
0.0
 30
0.0
  9
$PLIMCHECK
 70
     0
  9
$PEXTMIN
 10
1.000000000000000E+20
 20
1.000000000000000E+20
 30
1.000000000000000E+20
  9
$PEXTMAX
 10
-1.000000000000000E+20
 20
-1.000000000000000E+20
 30
-1.000000000000000E+20
  9
$PLIMMIN
 10
0.0
 20
0.0
  9
$PLIMMAX
 10
12.0
 20
9.0
  9
$UNITMODE
 70
     0
  9
$VISRETAIN
 70
     1
  9
$PLINEGEN
 70
     0
  9
$PSLTSCALE
 70
     1
  9
$TREEDEPTH
 70
  3020
  9
$CMLSTYLE
  2
Standard
  9
$CMLJUST
 70
     0
  9
$CMLSCALE
 40
1.0
  9
$PROXYGRAPHICS
 70
     1
  9
$MEASUREMENT
 70
     0
  9
$CELWEIGHT
370
    -1
  9
$ENDCAPS
280
     0
  9
$JOINSTYLE
280
     0
  9
$LWDISPLAY
290
     0
  9
$INSUNITS
 70
     4
  9
$HYPERLINKBASE
  1

  9
$STYLESHEET
  1

  9
$XEDIT
290
     1
  9
$CEPSNTYPE
380
     0
  9
$PSTYLEMODE
290
     1
  9
$FINGERPRINTGUID
  2
{C9FE0C59-39C6-4CB8-84D8-0EF0A87FC262}
  9
$VERSIONGUID
  2
{FAEB1C32-E019-11D5-929B-00C0DF256EC4}
  9
$EXTNAMES
290
     1
  9
$PSVPSCALE
 40
0.0
  9
$OLESTARTUP
290
     0
  9
$SORTENTS
280
   127
  9
$INDEXCTL
280
     0
  9
$HIDETEXT
280
     1
  9
$XCLIPFRAME
290
     0
  9
$HALOGAP
280
     0
  9
$OBSCOLOR
 70
   257
  9
$OBSLTYPE
280
     0
  9
$INTERSECTIONDISPLAY
280
     0
  9
$INTERSECTIONCOLOR
 70
   257
  9
$DIMASSOC
280
     2
  9
$PROJECTNAME
  1

  9
$CAMERADISPLAY
290
     0
  9
$LENSLENGTH
 40
50.0
  9
$CAMERAHEIGHT
 40
0.0
  9
$STEPSPERSEC
 40
2.0
  9
$STEPSIZE
 40
6.0
  9
$3DDWFPREC
 40
2.0
  9
$PSOLWIDTH
 40
0.25
  9
$PSOLHEIGHT
 40
4.0
  9
$LOFTANG1
 40
1.570796326794897
  9
$LOFTANG2
 40
1.570796326794897
  9
$LOFTMAG1
 40
0.0
  9
$LOFTMAG2
 40
0.0
  9
$LOFTPARAM
 70
     7
  9
$LOFTNORMALS
280
     1
  9
$LATITUDE
 40
37.795
  9
$LONGITUDE
 40
-122.394
  9
$NORTHDIRECTION
 40
0.0
  9
$TIMEZONE
 70
 -8000
  9
$LIGHTGLYPHDISPLAY
280
     1
  9
$TILEMODELIGHTSYNCH
280
     1
  9
$SOLIDHIST
280
     1
  9
$SHOWHIST
280
     1
  9
$DWFFRAME
280
     2
  9
$DGNFRAME
280
     2
  9
$REALWORLDSCALE
290
     1
  9
$INTERFERECOLOR
 62
   256
  9
$CSHADOW
280
     0
  9
$SHADOWPLANELOCATION
 40
0.0
  0
ENDSEC
  0
SECTION
  2
CLASSES
  0
CLASS
  1
ACDBDICTIONARYWDFLT
  2
AcDbDictionaryWithDefault
  3
ObjectDBX Classes
 90
        0
 91
        4
280
     0
281
     0
  0
CLASS
  1
VISUALSTYLE
  2
AcDbVisualStyle
  3
ObjectDBX Classes
 90
     4095
 91
        4
280
     0
281
     0
  0
CLASS
  1
MATERIAL
  2
AcDbMaterial
  3
ObjectDBX Classes
 90
     1153
 91
        4
280
     0
281
     0
  0
ENDSEC
  0
SECTION
  2
TABLES
  0
TABLE
  2
VPORT
  5
8
330
0
100
AcDbSymbolTable
 70
     1
  0
VPORT
  5
29
330
8
100
AcDbSymbolTableRecord
100
AcDbViewportTableRecord
  2
*Active
 70
     0
 10
0.0
 20
0.0
 11
1.0
 21
1.0
 12
10.42990654205607
 22
4.5
 13
0.0
 23
0.0
 14
0.5
 24
0.5
 15
0.5
 25
0.5
 16
0.0
 26
0.0
 36
1.0
 17
0.0
 27
0.0
 37
0.0
 40
9.0
 41
1.972972972850329
 42
50.0
 43
0.0
 44
0.0
 50
0.0
 51
0.0
 71
     0
 72
   100
 73
     1
 74
     3
 75
     0
 76
     0
 77
     0
 78
     0
281
     0
 65
     1
110
0.0
120
0.0
130
0.0
111
1.0
121
0.0
131
0.0
112
0.0
122
1.0
132
0.0
 79
     0
146
0.0
 60
     3
 61
     5
292
     1
282
     1
141
0.0
142
0.0
 63
   250
  0
ENDTAB
  0
TABLE
  2
LTYPE
  5
5
330
0
100
AcDbSymbolTable
 70
     1
  0
LTYPE
  5
14
330
5
100
AcDbSymbolTableRecord
100
AcDbLinetypeTableRecord
  2
ByBlock
 70
     0
  3

 72
    65
 73
     0
 40
0.0
  0
LTYPE
  5
15
330
5
100
AcDbSymbolTableRecord
100
AcDbLinetypeTableRecord
  2
ByLayer
 70
     0
  3

 72
    65
 73
     0
 40
0.0
  0
LTYPE
  5
16
330
5
100
AcDbSymbolTableRecord
100
AcDbLinetypeTableRecord
  2
Continuous
 70
     0
  3
Solid line
 72
    65
 73
     0
 40
0.0
  0
ENDTAB
  0
TABLE
  2
LAYER
  5
2
330
0
100
AcDbSymbolTable
 70
     2
  0
LAYER
  5
10
330
2
100
AcDbSymbolTableRecord
100
AcDbLayerTableRecord
  2
0
 70
     0
 62
     7
  6
Continuous
370
    -3
390
F
347
3E
  0
LAYER
  5
40
330
2
100
AcDbSymbolTableRecord
100
AcDbLayerTableRecord
  2
layer 1
 70
     0
 62
     7
  6
Continuous
370
    -3
390
F
347
3E
  0
ENDTAB
  0
TABLE
  2
STYLE
  5
3
330
0
100
AcDbSymbolTable
 70
     1
  0
STYLE
  5
11
330
3
100
AcDbSymbolTableRecord
100
AcDbTextStyleTableRecord
  2
Standard
 70
     0
 40
0.0
 41
1.0
 50
0.0
 71
     0
 42
0.2
  3
txt
  4

  0
ENDTAB
  0
TABLE
  2
VIEW
  5
6
330
0
100
AcDbSymbolTable
 70
     0
  0
ENDTAB
  0
TABLE
  2
UCS
  5
7
330
0
100
AcDbSymbolTable
 70
     0
  0
ENDTAB
  0
TABLE
  2
APPID
  5
9
330
0
100
AcDbSymbolTable
 70
     2
  0
APPID
  5
12
330
9
100
AcDbSymbolTableRecord
100
AcDbRegAppTableRecord
  2
ACAD
 70
     0
  0
APPID
  5
3F
330
9
100
AcDbSymbolTableRecord
100
AcDbRegAppTableRecord
  2
ODA
 70
     0
  0
ENDTAB
  0
TABLE
  2
DIMSTYLE
  5
A
330
0
100
AcDbSymbolTable
 70
     1
100
AcDbDimStyleTable
  0
DIMSTYLE
105
27
330
A
100
AcDbSymbolTableRecord
100
AcDbDimStyleTableRecord
  2
Standard
 70
     0
178
     0
340
11
  0
ENDTAB
  0
TABLE
  2
BLOCK_RECORD
  5
1
330
0
100
AcDbSymbolTable
 70
     1
  0
BLOCK_RECORD
  5
1F
330
1
100
AcDbSymbolTableRecord
100
AcDbBlockTableRecord
  2
*Model_Space
340
22
 70
     0
280
     1
281
     0
  0
BLOCK_RECORD
  5
1B
330
1
100
AcDbSymbolTableRecord
100
AcDbBlockTableRecord
  2
*Paper_Space
340
1E
 70
     0
280
     1
281
     0
  0
BLOCK_RECORD
  5
23
330
1
100
AcDbSymbolTableRecord
100
AcDbBlockTableRecord
  2
*Paper_Space0
340
26
 70
     0
280
     1
281
     0
  0
ENDTAB
  0
ENDSEC
  0
SECTION
  2
BLOCKS
  0
BLOCK
  5
20
330
1F
100
AcDbEntity
  8
0
100
AcDbBlockBegin
  2
*Model_Space
 70
     0
 10
0.0
 20
0.0
 30
0.0
  3
*Model_Space
  1

  0
ENDBLK
  5
21
330
1F
100
AcDbEntity
  8
0
100
AcDbBlockEnd
  0
BLOCK
  5
1C
330
1B
100
AcDbEntity
 67
     1
  8
0
100
AcDbBlockBegin
  2
*Paper_Space
 70
     0
 10
0.0
 20
0.0
 30
0.0
  3
*Paper_Space
  1

  0
ENDBLK
  5
1D
330
1B
100
AcDbEntity
 67
     1
  8
0
100
AcDbBlockEnd
  0
BLOCK
  5
24
330
23
100
AcDbEntity
  8
0
100
AcDbBlockBegin
  2
*Paper_Space0
 70
     0
 10
0.0
 20
0.0
 30
0.0
  3
*Paper_Space0
  1

  0
ENDBLK
  5
25
330
23
100
AcDbEntity
  8
0
100
AcDbBlockEnd
  0
ENDSEC
  0
SECTION
  2
ENTITIES
  0
LWPOLYLINE
  5
41
330
1F
100
AcDbEntity
  8
layer 1
 62
   250
100
AcDbPolyline
 90
        5
 70
     1
 43
0.0
 10
-187.3627
 20
-115.1576
 10
-132.1049
 20
-115.1576
 10
-132.1049
 20
131.8528
 10
-187.3627
 20
131.8528
 10
-187.3627
 20
-115.1576
  0
SPLINE
  5
42
330
1F
100
AcDbEntity
  8
layer 1
 62
     7
100
AcDbSpline
210
0.0
220
0.0
230
1.0
 70
    11
 71
     3
 72
    36
 73
    32
 74
     0
 42
0.0000000001
 43
0.0000000001
 12
1.0
 22
0.0
 32
0.0
 13
1.0
 23
0.0
 33
0.0
 40
0.0
 40
0.0
 40
0.0
 40
0.0
 40
0.1111111111111111
 40
0.1111111111111111
 40
0.1111111111111111
 40
0.1111111111111111
 40
0.2222222222222222
 40
0.2222222222222222
 40
0.2222222222222222
 40
0.2222222222222222
 40
0.3333333333333333
 40
0.3333333333333333
 40
0.3333333333333333
 40
0.3333333333333333
 40
0.4444444444444444
 40
0.4444444444444444
 40
0.4444444444444444
 40
0.4444444444444444
 40
0.5555555555555556
 40
0.5555555555555556
 40
0.5555555555555556
 40
0.5555555555555556
 40
0.6666666666666666
 40
0.6666666666666666
 40
0.6666666666666666
 40
0.6666666666666666
 40
0.7777777777777778
 40
0.7777777777777778
 40
0.7777777777777778
 40
0.7777777777777778
 40
1.0
 40
1.0
 40
1.0
 40
1.0
 10
-183.7017
 20
116.7832
 30
0.0
 10
-183.7017
 20
116.7832
 30
0.0
 10
-180.4079
 20
116.7832
 30
0.0
 10
-180.4079
 20
116.7832
 30
0.0
 10
-180.4079
 20
116.7832
 30
0.0
 10
-180.4079
 20
116.7832
 30
0.0
 10
-180.4079
 20
110.3925
 30
0.0
 10
-180.4079
 20
110.3925
 30
0.0
 10
-180.4079
 20
110.3925
 30
0.0
 10
-180.4079
 20
110.3925
 30
0.0
 10
-173.1512
 20
110.39
 30
0.0
 10
-173.1512
 20
110.39
 30
0.0
 10
-173.1512
 20
110.39
 30
0.0
 10
-173.1512
 20
110.39
 30
0.0
 10
-173.1267
 20
99.402
 30
0.0
 10
-173.1267
 20
99.402
 30
0.0
 10
-173.1267
 20
99.402
 30
0.0
 10
-173.1267
 20
99.402
 30
0.0
 10
-180.4079
 20
99.4019
 30
0.0
 10
-180.4079
 20
99.4019
 30
0.0
 10
-180.4079
 20
99.4019
 30
0.0
 10
-180.4079
 20
99.4019
 30
0.0
 10
-180.4079
 20
92.9215
 30
0.0
 10
-180.4079
 20
92.9215
 30
0.0
 10
-180.4079
 20
92.9215
 30
0.0
 10
-180.4079
 20
92.9215
 30
0.0
 10
-183.7017
 20
92.9215
 30
0.0
 10
-183.7017
 20
92.9215
 30
0.0
 10
-183.7017
 20
92.9215
 30
0.0
 10
-183.7017
 20
92.9215
 30
0.0
 10
-183.7017
 20
116.7832
 30
0.0
 10
-183.7017
 20
116.7832
 30
0.0
  0
SPLINE
  5
43
330
1F
100
AcDbEntity
  8
layer 1
 62
     7
100
AcDbSpline
210
0.0
220
0.0
230
1.0
 70
    11
 71
     3
 72
    20
 73
    16
 74
     0
 42
0.0000000001
 43
0.0000000001
 12
1.0
 22
0.0
 32
0.0
 13
1.0
 23
0.0
 33
0.0
 40
0.0
 40
0.0
 40
0.0
 40
0.0
 40
0.2
 40
0.2
 40
0.2
 40
0.2
 40
0.4
 40
0.4
 40
0.4
 40
0.4
 40
0.6
 40
0.6
 40
0.6
 40
0.6
 40
1.0
 40
1.0
 40
1.0
 40
1.0
 10
-159.7212
 20
115.7024
 30
0.0
 10
-160.8535
 20
117.9117
 30
0.0
 10
-162.1111
 20
119.3534
 30
0.0
 10
-163.3866
 20
120.764
 30
0.0
 10
-163.3866
 20
120.764
 30
0.0
 10
-163.3866
 20
120.764
 30
0.0
 10
-159.7212
 20
125.9279
 30
0.0
 10
-159.7212
 20
125.9279
 30
0.0
 10
-159.7212
 20
125.9279
 30
0.0
 10
-159.7212
 20
125.9279
 30
0.0
 10
-156.0557
 20
120.764
 30
0.0
 10
-156.0557
 20
120.764
 30
0.0
 10
-156.0557
 20
120.764
 30
0.0
 10
-157.3312
 20
119.3534
 30
0.0
 10
-158.5888
 20
117.9117
 30
0.0
 10
-159.7212
 20
115.7024
 30
0.0
  0
SPLINE
  5
44
330
1F
100
AcDbEntity
  8
layer 1
 62
     7
100
AcDbSpline
210
0.0
220
0.0
230
1.0
 70
    11
 71
     3
 72
    28
 73
    24
 74
     0
 42
0.0000000001
 43
0.0000000001
 12
1.0
 22
0.0
 32
0.0
 13
1.0
 23
0.0
 33
0.0
 40
0.0
 40
0.0
 40
0.0
 40
0.0
 40
0.1428571428571428
 40
0.1428571428571428
 40
0.1428571428571428
 40
0.1428571428571428
 40
0.2857142857142857
 40
0.2857142857142857
 40
0.2857142857142857
 40
0.2857142857142857
 40
0.4285714285714285
 40
0.4285714285714285
 40
0.4285714285714285
 40
0.4285714285714285
 40
0.5714285714285714
 40
0.5714285714285714
 40
0.5714285714285714
 40
0.5714285714285714
 40
0.7142857142857143
 40
0.7142857142857143
 40
0.7142857142857143
 40
0.7142857142857143
 40
1.0
 40
1.0
 40
1.0
 40
1.0
 10
-165.3765
 20
118.0483
 30
0.0
 10
-163.5614
 20
115.8345
 30
0.0
 10
-162.5047
 20
113.7115
 30
0.0
 10
-161.1132
 20
110.8265
 30
0.0
 10
-161.1132
 20
110.8265
 30
0.0
 10
-161.1132
 20
110.8265
 30
0.0
 10
-165.6577
 20
110.771
 30
0.0
 10
-165.6577
 20
110.771
 30
0.0
 10
-165.6577
 20
110.771
 30
0.0
 10
-165.6577
 20
110.771
 30
0.0
 10
-165.6043
 20
107.1636
 30
0.0
 10
-165.6043
 20
107.1636
 30
0.0
 10
-165.6043
 20
107.1636
 30
0.0
 10
-165.6043
 20
107.1636
 30
0.0
 10
-169.3509
 20
107.1641
 30
0.0
 10
-169.3509
 20
107.1641
 30
0.0
 10
-169.3509
 20
107.1641
 30
0.0
 10
-169.3509
 20
107.1641
 30
0.0
 10
-169.3465
 20
112.4388
 30
0.0
 10
-169.3465
 20
112.4388
 30
0.0
 10
-169.3465
 20
112.4388
 30
0.0
 10
-169.3465
 20
112.4388
 30
0.0
 10
-165.3765
 20
118.0483
 30
0.0
 10
-165.3765
 20
118.0483
 30
0.0
  0
SPLINE
  5
45
330
1F
100
AcDbEntity
  8
layer 1
 62
     7
100
AcDbSpline
210
0.0
220
0.0
230
1.0
 70
    11
 71
     3
 72
    28
 73
    24
 74
     0
 42
0.0000000001
 43
0.0000000001
 12
1.0
 22
0.0
 32
0.0
 13
1.0
 23
0.0
 33
0.0
 40
0.0
 40
0.0
 40
0.0
 40
0.0
 40
0.1428571428571428
 40
0.1428571428571428
 40
0.1428571428571428
 40
0.1428571428571428
 40
0.2857142857142857
 40
0.2857142857142857
 40
0.2857142857142857
 40
0.2857142857142857
 40
0.4285714285714285
 40
0.4285714285714285
 40
0.4285714285714285
 40
0.4285714285714285
 40
0.5714285714285714
 40
0.5714285714285714
 40
0.5714285714285714
 40
0.5714285714285714
 40
0.7142857142857143
 40
0.7142857142857143
 40
0.7142857142857143
 40
0.7142857142857143
 40
1.0
 40
1.0
 40
1.0
 40
1.0
 10
-172.8241
 20
113.9785
 30
0.0
 10
-172.8241
 20
113.9785
 30
0.0
 10
-177.2747
 20
114.0064
 30
0.0
 10
-177.2747
 20
114.0064
 30
0.0
 10
-177.2747
 20
114.0064
 30
0.0
 10
-177.2747
 20
114.0064
 30
0.0
 10
-177.2951
 20
120.2478
 30
0.0
 10
-177.2951
 20
120.2478
 30
0.0
 10
-177.2951
 20
120.2478
 30
0.0
 10
-177.2951
 20
120.2478
 30
0.0
 10
-183.7348
 20
120.1945
 30
0.0
 10
-183.7348
 20
120.1945
 30
0.0
 10
-183.7348
 20
120.1945
 30
0.0
 10
-183.7348
 20
120.1945
 30
0.0
 10
-183.7342
 20
127.472
 30
0.0
 10
-183.7342
 20
127.472
 30
0.0
 10
-183.7342
 20
127.472
 30
0.0
 10
-176.9022
 20
127.0146
 30
0.0
 10
-171.8322
 20
124.5444
 30
0.0
 10
-167.9299
 20
120.7188
 30
0.0
 10
-167.9299
 20
120.7188
 30
0.0
 10
-167.9299
 20
120.7188
 30
0.0
 10
-172.8241
 20
113.9785
 30
0.0
 10
-172.8241
 20
113.9785
 30
0.0
  0
SPLINE
  5
46
330
1F
100
AcDbEntity
  8
layer 1
 62
     7
100
AcDbSpline
210
0.0
220
0.0
230
1.0
 70
    11
 71
     3
 72
    20
 73
    16
 74
     0
 42
0.0000000001
 43
0.0000000001
 12
1.0
 22
0.0
 32
0.0
 13
1.0
 23
0.0
 33
0.0
 40
0.0
 40
0.0
 40
0.0
 40
0.0
 40
0.2
 40
0.2
 40
0.2
 40
0.2
 40
0.4
 40
0.4
 40
0.4
 40
0.4
 40
0.6
 40
0.6
 40
0.6
 40
0.6
 40
1.0
 40
1.0
 40
1.0
 40
1.0
 10
-162.2938
 20
106.9132
 30
0.0
 10
-162.2938
 20
106.9132
 30
0.0
 10
-157.1386
 20
106.9132
 30
0.0
 10
-157.1386
 20
106.9132
 30
0.0
 10
-157.1386
 20
106.9132
 30
0.0
 10
-157.1386
 20
106.9132
 30
0.0
 10
-157.1386
 20
102.8441
 30
0.0
 10
-157.1386
 20
102.8441
 30
0.0
 10
-157.1386
 20
102.8441
 30
0.0
 10
-157.1386
 20
102.8441
 30
0.0
 10
-162.2938
 20
102.8441
 30
0.0
 10
-162.2938
 20
102.8441
 30
0.0
 10
-162.2938
 20
102.8441
 30
0.0
 10
-162.2938
 20
102.8441
 30
0.0
 10
-162.2938
 20
106.9132
 30
0.0
 10
-162.2938
 20
106.9132
 30
0.0
  0
SPLINE
  5
47
330
1F
100
AcDbEntity
  8
layer 1
 62
     7
100
AcDbSpline
210
0.0
220
0.0
230
1.0
 70
    11
 71
     3
 72
    28
 73
    24
 74
     0
 42
0.0000000001
 43
0.0000000001
 12
1.0
 22
0.0
 32
0.0
 13
1.0
 23
0.0
 33
0.0
 40
0.0
 40
0.0
 40
0.0
 40
0.0
 40
0.1428571428571428
 40
0.1428571428571428
 40
0.1428571428571428
 40
0.1428571428571428
 40
0.2857142857142857
 40
0.2857142857142857
 40
0.2857142857142857
 40
0.2857142857142857
 40
0.4285714285714285
 40
0.4285714285714285
 40
0.4285714285714285
 40
0.4285714285714285
 40
0.5714285714285714
 40
0.5714285714285714
 40
0.5714285714285714
 40
0.5714285714285714
 40
0.7142857142857143
 40
0.7142857142857143
 40
0.7142857142857143
 40
0.7142857142857143
 40
1.0
 40
1.0
 40
1.0
 40
1.0
 10
-165.3376
 20
91.8103
 30
0.0
 10
-163.375
 20
94.5978
 30
0.0
 10
-162.2739
 20
96.2167
 30
0.0
 10
-161.0715
 20
99.1014
 30
0.0
 10
-161.0715
 20
99.1014
 30
0.0
 10
-161.0715
 20
99.1014
 30
0.0
 10
-165.6577
 20
99.1217
 30
0.0
 10
-165.6577
 20
99.1217
 30
0.0
 10
-165.6577
 20
99.1217
 30
0.0
 10
-165.6577
 20
99.1217
 30
0.0
 10
-165.6043
 20
102.7291
 30
0.0
 10
-165.6043
 20
102.7291
 30
0.0
 10
-165.6043
 20
102.7291
 30
0.0
 10
-165.6043
 20
102.7291
 30
0.0
 10
-169.3509
 20
102.7286
 30
0.0
 10
-169.3509
 20
102.7286
 30
0.0
 10
-169.3509
 20
102.7286
 30
0.0
 10
-169.3509
 20
102.7286
 30
0.0
 10
-169.3465
 20
97.4539
 30
0.0
 10
-169.3465
 20
97.4539
 30
0.0
 10
-169.3465
 20
97.4539
 30
0.0
 10
-169.3465
 20
97.4539
 30
0.0
 10
-165.3376
 20
91.8103
 30
0.0
 10
-165.3376
 20
91.8103
 30
0.0
  0
SPLINE
  5
48
330
1F
100
AcDbEntity
  8
layer 1
 62
     7
100
AcDbSpline
210
0.0
220
0.0
230
1.0
 70
    11
 71
     3
 72
    28
 73
    24
 74
     0
 42
0.0000000001
 43
0.0000000001
 12
1.0
 22
0.0
 32
0.0
 13
1.0
 23
0.0
 33
0.0
 40
0.0
 40
0.0
 40
0.0
 40
0.0
 40
0.1428571428571428
 40
0.1428571428571428
 40
0.1428571428571428
 40
0.1428571428571428
 40
0.2857142857142857
 40
0.2857142857142857
 40
0.2857142857142857
 40
0.2857142857142857
 40
0.4285714285714285
 40
0.4285714285714285
 40
0.4285714285714285
 40
0.4285714285714285
 40
0.5714285714285714
 40
0.5714285714285714
 40
0.5714285714285714
 40
0.5714285714285714
 40
0.7142857142857143
 40
0.7142857142857143
 40
0.7142857142857143
 40
0.7142857142857143
 40
1.0
 40
1.0
 40
1.0
 40
1.0
 10
-172.8241
 20
95.8137
 30
0.0
 10
-172.8241
 20
95.8137
 30
0.0
 10
-177.2747
 20
95.7857
 30
0.0
 10
-177.2747
 20
95.7857
 30
0.0
 10
-177.2747
 20
95.7857
 30
0.0
 10
-177.2747
 20
95.7857
 30
0.0
 10
-177.2951
 20
89.5443
 30
0.0
 10
-177.2951
 20
89.5443
 30
0.0
 10
-177.2951
 20
89.5443
 30
0.0
 10
-177.2951
 20
89.5443
 30
0.0
 10
-183.7348
 20
89.5977
 30
0.0
 10
-183.7348
 20
89.5977
 30
0.0
 10
-183.7348
 20
89.5977
 30
0.0
 10
-183.7348
 20
89.5977
 30
0.0
 10
-183.7342
 20
82.3201
 30
0.0
 10
-183.7342
 20
82.3201
 30
0.0
 10
-183.7342
 20
82.3201
 30
0.0
 10
-177.53
 20
82.9424
 30
0.0
 10
-172.7415
 20
84.7818
 30
0.0
 10
-167.9299
 20
89.0734
 30
0.0
 10
-167.9299
 20
89.0734
 30
0.0
 10
-167.9299
 20
89.0734
 30
0.0
 10
-172.8241
 20
95.8137
 30
0.0
 10
-172.8241
 20
95.8137
 30
0.0
  0
SPLINE
  5
49
330
1F
100
AcDbEntity
  8
layer 1
 62
     7
100
AcDbSpline
210
0.0
220
0.0
230
1.0
 70
    11
 71
     3
 72
    16
 73
    12
 74
     0
 42
0.0000000001
 43
0.0000000001
 12
1.0
 22
0.0
 32
0.0
 13
1.0
 23
0.0
 33
0.0
 40
0.0
 40
0.0
 40
0.0
 40
0.0
 40
0.25
 40
0.25
 40
0.25
 40
0.25
 40
0.5
 40
0.5
 40
0.5
 40
0.5
 40
1.0
 40
1.0
 40
1.0
 40
1.0
 10
-162.3151
 20
128.5044
 30
0.0
 10
-162.3151
 20
128.5044
 30
0.0
 10
-174.362
 20
128.5044
 30
0.0
 10
-174.362
 20
128.5044
 30
0.0
 10
-174.362
 20
128.5044
 30
0.0
 10
-171.956
 20
127.4693
 30
0.0
 10
-167.7416
 20
124.9613
 30
0.0
 10
-165.9849
 20
123.386
 30
0.0
 10
-165.9849
 20
123.386
 30
0.0
 10
-165.9849
 20
123.386
 30
0.0
 10
-162.3151
 20
128.5044
 30
0.0
 10
-162.3151
 20
128.5044
 30
0.0
  0
SPLINE
  5
4A
330
1F
100
AcDbEntity
  8
layer 1
 62
     7
100
AcDbSpline
210
0.0
220
0.0
230
1.0
 70
    11
 71
     3
 72
    20
 73
    16
 74
     0
 42
0.0000000001
 43
0.0000000001
 12
1.0
 22
0.0
 32
0.0
 13
1.0
 23
0.0
 33
0.0
 40
0.0
 40
0.0
 40
0.0
 40
0.0
 40
0.2
 40
0.2
 40
0.2
 40
0.2
 40
0.4
 40
0.4
 40
0.4
 40
0.4
 40
0.6
 40
0.6
 40
0.6
 40
0.6
 40
1.0
 40
1.0
 40
1.0
 40
1.0
 10
-162.3151
 20
80.663
 30
0.0
 10
-162.3151
 20
80.663
 30
0.0
 10
-165.9849
 20
85.7814
 30
0.0
 10
-165.9849
 20
85.7814
 30
0.0
 10
-165.9849
 20
85.7814
 30
0.0
 10
-167.7416
 20
84.2061
 30
0.0
 10
-171.956
 20
81.6981
 30
0.0
 10
-174.362
 20
80.663
 30
0.0
 10
-174.362
 20
80.663
 30
0.0
 10
-171.956
 20
79.6279
 30
0.0
 10
-167.7416
 20
77.1199
 30
0.0
 10
-165.9849
 20
75.5446
 30
0.0
 10
-165.9849
 20
75.5446
 30
0.0
 10
-165.9849
 20
75.5446
 30
0.0
 10
-162.3151
 20
80.663
 30
0.0
 10
-162.3151
 20
80.663
 30
0.0
  0
SPLINE
  5
4B
330
1F
100
AcDbEntity
  8
layer 1
 62
     7
100
AcDbSpline
210
0.0
220
0.0
230
1.0
 70
    11
 71
     3
 72
    20
 73
    16
 74
     0
 42
0.0000000001
 43
0.0000000001
 12
1.0
 22
0.0
 32
0.0
 13
1.0
 23
0.0
 33
0.0
 40
0.0
 40
0.0
 40
0.0
 40
0.0
 40
0.2
 40
0.2
 40
0.2
 40
0.2
 40
0.4
 40
0.4
 40
0.4
 40
0.4
 40
0.6
 40
0.6
 40
0.6
 40
0.6
 40
1.0
 40
1.0
 40
1.0
 40
1.0
 10
-159.7212
 20
83.7245
 30
0.0
 10
-160.8535
 20
85.9337
 30
0.0
 10
-162.1111
 20
87.3755
 30
0.0
 10
-163.3866
 20
88.7861
 30
0.0
 10
-163.3866
 20
88.7861
 30
0.0
 10
-163.3866
 20
88.7861
 30
0.0
 10
-159.7212
 20
93.95
 30
0.0
 10
-159.7212
 20
93.95
 30
0.0
 10
-159.7212
 20
93.95
 30
0.0
 10
-159.7212
 20
93.95
 30
0.0
 10
-156.0557
 20
88.7861
 30
0.0
 10
-156.0557
 20
88.7861
 30
0.0
 10
-156.0557
 20
88.7861
 30
0.0
 10
-157.3312
 20
87.3755
 30
0.0
 10
-158.5888
 20
85.9337
 30
0.0
 10
-159.7212
 20
83.7245
 30
0.0
  0
SPLINE
  5
4C
330
1F
100
AcDbEntity
  8
layer 1
 62
     7
100
AcDbSpline
210
0.0
220
0.0
230
1.0
 70
    11
 71
     3
 72
    20
 73
    16
 74
     0
 42
0.0000000001
 43
0.0000000001
 12
1.0
 22
0.0
 32
0.0
 13
1.0
 23
0.0
 33
0.0
 40
0.0
 40
0.0
 40
0.0
 40
0.0
 40
0.2
 40
0.2
 40
0.2
 40
0.2
 40
0.4
 40
0.4
 40
0.4
 40
0.4
 40
0.6
 40
0.6
 40
0.6
 40
0.6
 40
1.0
 40
1.0
 40
1.0
 40
1.0
 10
-159.7212
 20
67.5134
 30
0.0
 10
-160.8535
 20
69.7227
 30
0.0
 10
-162.1111
 20
71.1644
 30
0.0
 10
-163.3866
 20
72.575
 30
0.0
 10
-163.3866
 20
72.575
 30
0.0
 10
-163.3866
 20
72.575
 30
0.0
 10
-159.7212
 20
77.7389
 30
0.0
 10
-159.7212
 20
77.7389
 30
0.0
 10
-159.7212
 20
77.7389
 30
0.0
 10
-159.7212
 20
77.7389
 30
0.0
 10
-156.0557
 20
72.575
 30
0.0
 10
-156.0557
 20
72.575
 30
0.0
 10
-156.0557
 20
72.575
 30
0.0
 10
-157.3312
 20
71.1644
 30
0.0
 10
-158.5888
 20
69.7227
 30
0.0
 10
-159.7212
 20
67.5134
 30
0.0
  0
SPLINE
  5
4D
330
1F
100
AcDbEntity
  8
layer 1
 62
     7
100
AcDbSpline
210
0.0
220
0.0
230
1.0
 70
    11
 71
     3
 72
    36
 73
    32
 74
     0
 42
0.0000000001
 43
0.0000000001
 12
1.0
 22
0.0
 32
0.0
 13
1.0
 23
0.0
 33
0.0
 40
0.0
 40
0.0
 40
0.0
 40
0.0
 40
0.1111111111111111
 40
0.1111111111111111
 40
0.1111111111111111
 40
0.1111111111111111
 40
0.2222222222222222
 40
0.2222222222222222
 40
0.2222222222222222
 40
0.2222222222222222
 40
0.3333333333333333
 40
0.3333333333333333
 40
0.3333333333333333
 40
0.3333333333333333
 40
0.4444444444444444
 40
0.4444444444444444
 40
0.4444444444444444
 40
0.4444444444444444
 40
0.5555555555555556
 40
0.5555555555555556
 40
0.5555555555555556
 40
0.5555555555555556
 40
0.6666666666666666
 40
0.6666666666666666
 40
0.6666666666666666
 40
0.6666666666666666
 40
0.7777777777777778
 40
0.7777777777777778
 40
0.7777777777777778
 40
0.7777777777777778
 40
1.0
 40
1.0
 40
1.0
 40
1.0
 10
-135.7658
 20
116.7832
 30
0.0
 10
-135.7658
 20
116.7832
 30
0.0
 10
-139.0596
 20
116.7832
 30
0.0
 10
-139.0596
 20
116.7832
 30
0.0
 10
-139.0596
 20
116.7832
 30
0.0
 10
-139.0596
 20
116.7832
 30
0.0
 10
-139.0596
 20
110.3925
 30
0.0
 10
-139.0596
 20
110.3925
 30
0.0
 10
-139.0596
 20
110.3925
 30
0.0
 10
-139.0596
 20
110.3925
 30
0.0
 10
-146.3163
 20
110.39
 30
0.0
 10
-146.3163
 20
110.39
 30
0.0
 10
-146.3163
 20
110.39
 30
0.0
 10
-146.3163
 20
110.39
 30
0.0
 10
-146.3409
 20
99.402
 30
0.0
 10
-146.3409
 20
99.402
 30
0.0
 10
-146.3409
 20
99.402
 30
0.0
 10
-146.3409
 20
99.402
 30
0.0
 10
-139.0596
 20
99.4019
 30
0.0
 10
-139.0596
 20
99.4019
 30
0.0
 10
-139.0596
 20
99.4019
 30
0.0
 10
-139.0596
 20
99.4019
 30
0.0
 10
-139.0596
 20
92.9215
 30
0.0
 10
-139.0596
 20
92.9215
 30
0.0
 10
-139.0596
 20
92.9215
 30
0.0
 10
-139.0596
 20
92.9215
 30
0.0
 10
-135.7658
 20
92.9215
 30
0.0
 10
-135.7658
 20
92.9215
 30
0.0
 10
-135.7658
 20
92.9215
 30
0.0
 10
-135.7658
 20
92.9215
 30
0.0
 10
-135.7658
 20
116.7832
 30
0.0
 10
-135.7658
 20
116.7832
 30
0.0
  0
SPLINE
  5
4E
330
1F
100
AcDbEntity
  8
layer 1
 62
     7
100
AcDbSpline
210
0.0
220
0.0
230
1.0
 70
    11
 71
     3
 72
    28
 73
    24
 74
     0
 42
0.0000000001
 43
0.0000000001
 12
1.0
 22
0.0
 32
0.0
 13
1.0
 23
0.0
 33
0.0
 40
0.0
 40
0.0
 40
0.0
 40
0.0
 40
0.1428571428571428
 40
0.1428571428571428
 40
0.1428571428571428
 40
0.1428571428571428
 40
0.2857142857142857
 40
0.2857142857142857
 40
0.2857142857142857
 40
0.2857142857142857
 40
0.4285714285714285
 40
0.4285714285714285
 40
0.4285714285714285
 40
0.4285714285714285
 40
0.5714285714285714
 40
0.5714285714285714
 40
0.5714285714285714
 40
0.5714285714285714
 40
0.7142857142857143
 40
0.7142857142857143
 40
0.7142857142857143
 40
0.7142857142857143
 40
1.0
 40
1.0
 40
1.0
 40
1.0
 10
-154.091
 20
118.0483
 30
0.0
 10
-155.9061
 20
115.8345
 30
0.0
 10
-156.9629
 20
113.7115
 30
0.0
 10
-158.3544
 20
110.8265
 30
0.0
 10
-158.3544
 20
110.8265
 30
0.0
 10
-158.3544
 20
110.8265
 30
0.0
 10
-153.8098
 20
110.771
 30
0.0
 10
-153.8098
 20
110.771
 30
0.0
 10
-153.8098
 20
110.771
 30
0.0
 10
-153.8098
 20
110.771
 30
0.0
 10
-153.8632
 20
107.1636
 30
0.0
 10
-153.8632
 20
107.1636
 30
0.0
 10
-153.8632
 20
107.1636
 30
0.0
 10
-153.8632
 20
107.1636
 30
0.0
 10
-150.1166
 20
107.1641
 30
0.0
 10
-150.1166
 20
107.1641
 30
0.0
 10
-150.1166
 20
107.1641
 30
0.0
 10
-150.1166
 20
107.1641
 30
0.0
 10
-150.121
 20
112.4388
 30
0.0
 10
-150.121
 20
112.4388
 30
0.0
 10
-150.121
 20
112.4388
 30
0.0
 10
-150.121
 20
112.4388
 30
0.0
 10
-154.091
 20
118.0483
 30
0.0
 10
-154.091
 20
118.0483
 30
0.0
  0
SPLINE
  5
4F
330
1F
100
AcDbEntity
  8
layer 1
 62
     7
100
AcDbSpline
210
0.0
220
0.0
230
1.0
 70
    11
 71
     3
 72
    28
 73
    24
 74
     0
 42
0.0000000001
 43
0.0000000001
 12
1.0
 22
0.0
 32
0.0
 13
1.0
 23
0.0
 33
0.0
 40
0.0
 40
0.0
 40
0.0
 40
0.0
 40
0.1428571428571428
 40
0.1428571428571428
 40
0.1428571428571428
 40
0.1428571428571428
 40
0.2857142857142857
 40
0.2857142857142857
 40
0.2857142857142857
 40
0.2857142857142857
 40
0.4285714285714285
 40
0.4285714285714285
 40
0.4285714285714285
 40
0.4285714285714285
 40
0.5714285714285714
 40
0.5714285714285714
 40
0.5714285714285714
 40
0.5714285714285714
 40
0.7142857142857143
 40
0.7142857142857143
 40
0.7142857142857143
 40
0.7142857142857143
 40
1.0
 40
1.0
 40
1.0
 40
1.0
 10
-146.6434
 20
113.9785
 30
0.0
 10
-146.6434
 20
113.9785
 30
0.0
 10
-142.1928
 20
114.0064
 30
0.0
 10
-142.1928
 20
114.0064
 30
0.0
 10
-142.1928
 20
114.0064
 30
0.0
 10
-142.1928
 20
114.0064
 30
0.0
 10
-142.1724
 20
120.2478
 30
0.0
 10
-142.1724
 20
120.2478
 30
0.0
 10
-142.1724
 20
120.2478
 30
0.0
 10
-142.1724
 20
120.2478
 30
0.0
 10
-135.7327
 20
120.1945
 30
0.0
 10
-135.7327
 20
120.1945
 30
0.0
 10
-135.7327
 20
120.1945
 30
0.0
 10
-135.7327
 20
120.1945
 30
0.0
 10
-135.7333
 20
127.472
 30
0.0
 10
-135.7333
 20
127.472
 30
0.0
 10
-135.7333
 20
127.472
 30
0.0
 10
-142.5653
 20
127.0146
 30
0.0
 10
-147.6353
 20
124.5444
 30
0.0
 10
-151.5376
 20
120.7188
 30
0.0
 10
-151.5376
 20
120.7188
 30
0.0
 10
-151.5376
 20
120.7188
 30
0.0
 10
-146.6434
 20
113.9785
 30
0.0
 10
-146.6434
 20
113.9785
 30
0.0
  0
SPLINE
  5
50
330
1F
100
AcDbEntity
  8
layer 1
 62
     7
100
AcDbSpline
210
0.0
220
0.0
230
1.0
 70
    11
 71
     3
 72
    28
 73
    24
 74
     0
 42
0.0000000001
 43
0.0000000001
 12
1.0
 22
0.0
 32
0.0
 13
1.0
 23
0.0
 33
0.0
 40
0.0
 40
0.0
 40
0.0
 40
0.0
 40
0.1428571428571428
 40
0.1428571428571428
 40
0.1428571428571428
 40
0.1428571428571428
 40
0.2857142857142857
 40
0.2857142857142857
 40
0.2857142857142857
 40
0.2857142857142857
 40
0.4285714285714285
 40
0.4285714285714285
 40
0.4285714285714285
 40
0.4285714285714285
 40
0.5714285714285714
 40
0.5714285714285714
 40
0.5714285714285714
 40
0.5714285714285714
 40
0.7142857142857143
 40
0.7142857142857143
 40
0.7142857142857143
 40
0.7142857142857143
 40
1.0
 40
1.0
 40
1.0
 40
1.0
 10
-154.1299
 20
91.8103
 30
0.0
 10
-156.0925
 20
94.5978
 30
0.0
 10
-157.1936
 20
96.2167
 30
0.0
 10
-158.396
 20
99.1014
 30
0.0
 10
-158.396
 20
99.1014
 30
0.0
 10
-158.396
 20
99.1014
 30
0.0
 10
-153.8098
 20
99.1217
 30
0.0
 10
-153.8098
 20
99.1217
 30
0.0
 10
-153.8098
 20
99.1217
 30
0.0
 10
-153.8098
 20
99.1217
 30
0.0
 10
-153.8632
 20
102.7291
 30
0.0
 10
-153.8632
 20
102.7291
 30
0.0
 10
-153.8632
 20
102.7291
 30
0.0
 10
-153.8632
 20
102.7291
 30
0.0
 10
-150.1166
 20
102.7286
 30
0.0
 10
-150.1166
 20
102.7286
 30
0.0
 10
-150.1166
 20
102.7286
 30
0.0
 10
-150.1166
 20
102.7286
 30
0.0
 10
-150.121
 20
97.4539
 30
0.0
 10
-150.121
 20
97.4539
 30
0.0
 10
-150.121
 20
97.4539
 30
0.0
 10
-150.121
 20
97.4539
 30
0.0
 10
-154.1299
 20
91.8103
 30
0.0
 10
-154.1299
 20
91.8103
 30
0.0
  0
SPLINE
  5
51
330
1F
100
AcDbEntity
  8
layer 1
 62
     7
100
AcDbSpline
210
0.0
220
0.0
230
1.0
 70
    11
 71
     3
 72
    28
 73
    24
 74
     0
 42
0.0000000001
 43
0.0000000001
 12
1.0
 22
0.0
 32
0.0
 13
1.0
 23
0.0
 33
0.0
 40
0.0
 40
0.0
 40
0.0
 40
0.0
 40
0.1428571428571428
 40
0.1428571428571428
 40
0.1428571428571428
 40
0.1428571428571428
 40
0.2857142857142857
 40
0.2857142857142857
 40
0.2857142857142857
 40
0.2857142857142857
 40
0.4285714285714285
 40
0.4285714285714285
 40
0.4285714285714285
 40
0.4285714285714285
 40
0.5714285714285714
 40
0.5714285714285714
 40
0.5714285714285714
 40
0.5714285714285714
 40
0.7142857142857143
 40
0.7142857142857143
 40
0.7142857142857143
 40
0.7142857142857143
 40
1.0
 40
1.0
 40
1.0
 40
1.0
 10
-146.6434
 20
95.8137
 30
0.0
 10
-146.6434
 20
95.8137
 30
0.0
 10
-142.1928
 20
95.7857
 30
0.0
 10
-142.1928
 20
95.7857
 30
0.0
 10
-142.1928
 20
95.7857
 30
0.0
 10
-142.1928
 20
95.7857
 30
0.0
 10
-142.1724
 20
89.5443
 30
0.0
 10
-142.1724
 20
89.5443
 30
0.0
 10
-142.1724
 20
89.5443
 30
0.0
 10
-142.1724
 20
89.5443
 30
0.0
 10
-135.7327
 20
89.5977
 30
0.0
 10
-135.7327
 20
89.5977
 30
0.0
 10
-135.7327
 20
89.5977
 30
0.0
 10
-135.7327
 20
89.5977
 30
0.0
 10
-135.7333
 20
82.3201
 30
0.0
 10
-135.7333
 20
82.3201
 30
0.0
 10
-135.7333
 20
82.3201
 30
0.0
 10
-141.9375
 20
82.9424
 30
0.0
 10
-146.726
 20
84.7818
 30
0.0
 10
-151.5376
 20
89.0734
 30
0.0
 10
-151.5376
 20
89.0734
 30
0.0
 10
-151.5376
 20
89.0734
 30
0.0
 10
-146.6434
 20
95.8137
 30
0.0
 10
-146.6434
 20
95.8137
 30
0.0
  0
SPLINE
  5
52
330
1F
100
AcDbEntity
  8
layer 1
 62
     7
100
AcDbSpline
210
0.0
220
0.0
230
1.0
 70
    11
 71
     3
 72
    16
 73
    12
 74
     0
 42
0.0000000001
 43
0.0000000001
 12
1.0
 22
0.0
 32
0.0
 13
1.0
 23
0.0
 33
0.0
 40
0.0
 40
0.0
 40
0.0
 40
0.0
 40
0.25
 40
0.25
 40
0.25
 40
0.25
 40
0.5
 40
0.5
 40
0.5
 40
0.5
 40
1.0
 40
1.0
 40
1.0
 40
1.0
 10
-157.1524
 20
128.5044
 30
0.0
 10
-157.1524
 20
128.5044
 30
0.0
 10
-145.1055
 20
128.5044
 30
0.0
 10
-145.1055
 20
128.5044
 30
0.0
 10
-145.1055
 20
128.5044
 30
0.0
 10
-147.5115
 20
127.4693
 30
0.0
 10
-151.7259
 20
124.9613
 30
0.0
 10
-153.4826
 20
123.386
 30
0.0
 10
-153.4826
 20
123.386
 30
0.0
 10
-153.4826
 20
123.386
 30
0.0
 10
-157.1524
 20
128.5044
 30
0.0
 10
-157.1524
 20
128.5044
 30
0.0
  0
SPLINE
  5
53
330
1F
100
AcDbEntity
  8
layer 1
 62
     7
100
AcDbSpline
210
0.0
220
0.0
230
1.0
 70
    11
 71
     3
 72
    20
 73
    16
 74
     0
 42
0.0000000001
 43
0.0000000001
 12
1.0
 22
0.0
 32
0.0
 13
1.0
 23
0.0
 33
0.0
 40
0.0
 40
0.0
 40
0.0
 40
0.0
 40
0.2
 40
0.2
 40
0.2
 40
0.2
 40
0.4
 40
0.4
 40
0.4
 40
0.4
 40
0.6
 40
0.6
 40
0.6
 40
0.6
 40
1.0
 40
1.0
 40
1.0
 40
1.0
 10
-157.1524
 20
80.663
 30
0.0
 10
-157.1524
 20
80.663
 30
0.0
 10
-153.4826
 20
85.7814
 30
0.0
 10
-153.4826
 20
85.7814
 30
0.0
 10
-153.4826
 20
85.7814
 30
0.0
 10
-151.7259
 20
84.2061
 30
0.0
 10
-147.5115
 20
81.6981
 30
0.0
 10
-145.1055
 20
80.663
 30
0.0
 10
-145.1055
 20
80.663
 30
0.0
 10
-147.5115
 20
79.6279
 30
0.0
 10
-151.7259
 20
77.1199
 30
0.0
 10
-153.4826
 20
75.5446
 30
0.0
 10
-153.4826
 20
75.5446
 30
0.0
 10
-153.4826
 20
75.5446
 30
0.0
 10
-157.1524
 20
80.663
 30
0.0
 10
-157.1524
 20
80.663
 30
0.0
  0
SPLINE
  5
54
330
1F
100
AcDbEntity
  8
layer 1
 62
     7
100
AcDbSpline
210
0.0
220
0.0
230
1.0
 70
    11
 71
     3
 72
    36
 73
    32
 74
     0
 42
0.0000000001
 43
0.0000000001
 12
1.0
 22
0.0
 32
0.0
 13
1.0
 23
0.0
 33
0.0
 40
0.0
 40
0.0
 40
0.0
 40
0.0
 40
0.1111111111111111
 40
0.1111111111111111
 40
0.1111111111111111
 40
0.1111111111111111
 40
0.2222222222222222
 40
0.2222222222222222
 40
0.2222222222222222
 40
0.2222222222222222
 40
0.3333333333333333
 40
0.3333333333333333
 40
0.3333333333333333
 40
0.3333333333333333
 40
0.4444444444444444
 40
0.4444444444444444
 40
0.4444444444444444
 40
0.4444444444444444
 40
0.5555555555555556
 40
0.5555555555555556
 40
0.5555555555555556
 40
0.5555555555555556
 40
0.6666666666666666
 40
0.6666666666666666
 40
0.6666666666666666
 40
0.6666666666666666
 40
0.7777777777777778
 40
0.7777777777777778
 40
0.7777777777777778
 40
0.7777777777777778
 40
1.0
 40
1.0
 40
1.0
 40
1.0
 10
-183.7017
 20
68.4591
 30
0.0
 10
-183.7017
 20
68.4591
 30
0.0
 10
-180.4079
 20
68.4591
 30
0.0
 10
-180.4079
 20
68.4591
 30
0.0
 10
-180.4079
 20
68.4591
 30
0.0
 10
-180.4079
 20
68.4591
 30
0.0
 10
-180.4079
 20
62.0683
 30
0.0
 10
-180.4079
 20
62.0683
 30
0.0
 10
-180.4079
 20
62.0683
 30
0.0
 10
-180.4079
 20
62.0683
 30
0.0
 10
-173.1512
 20
62.0659
 30
0.0
 10
-173.1512
 20
62.0659
 30
0.0
 10
-173.1512
 20
62.0659
 30
0.0
 10
-173.1512
 20
62.0659
 30
0.0
 10
-173.1267
 20
51.0779
 30
0.0
 10
-173.1267
 20
51.0779
 30
0.0
 10
-173.1267
 20
51.0779
 30
0.0
 10
-173.1267
 20
51.0779
 30
0.0
 10
-180.4079
 20
51.0778
 30
0.0
 10
-180.4079
 20
51.0778
 30
0.0
 10
-180.4079
 20
51.0778
 30
0.0
 10
-180.4079
 20
51.0778
 30
0.0
 10
-180.4079
 20
44.5974
 30
0.0
 10
-180.4079
 20
44.5974
 30
0.0
 10
-180.4079
 20
44.5974
 30
0.0
 10
-180.4079
 20
44.5974
 30
0.0
 10
-183.7017
 20
44.5974
 30
0.0
 10
-183.7017
 20
44.5974
 30
0.0
 10
-183.7017
 20
44.5974
 30
0.0
 10
-183.7017
 20
44.5974
 30
0.0
 10
-183.7017
 20
68.4591
 30
0.0
 10
-183.7017
 20
68.4591
 30
0.0
  0
SPLINE
  5
55
330
1F
100
AcDbEntity
  8
layer 1
 62
     7
100
AcDbSpline
210
0.0
220
0.0
230
1.0
 70
    11
 71
     3
 72
    28
 73
    24
 74
     0
 42
0.0000000001
 43
0.0000000001
 12
1.0
 22
0.0
 32
0.0
 13
1.0
 23
0.0
 33
0.0
 40
0.0
 40
0.0
 40
0.0
 40
0.0
 40
0.1428571428571428
 40
0.1428571428571428
 40
0.1428571428571428
 40
0.1428571428571428
 40
0.2857142857142857
 40
0.2857142857142857
 40
0.2857142857142857
 40
0.2857142857142857
 40
0.4285714285714285
 40
0.4285714285714285
 40
0.4285714285714285
 40
0.4285714285714285
 40
0.5714285714285714
 40
0.5714285714285714
 40
0.5714285714285714
 40
0.5714285714285714
 40
0.7142857142857143
 40
0.7142857142857143
 40
0.7142857142857143
 40
0.7142857142857143
 40
1.0
 40
1.0
 40
1.0
 40
1.0
 10
-165.3765
 20
69.7241
 30
0.0
 10
-163.5614
 20
67.5104
 30
0.0
 10
-162.5047
 20
65.3873
 30
0.0
 10
-161.1132
 20
62.5023
 30
0.0
 10
-161.1132
 20
62.5023
 30
0.0
 10
-161.1132
 20
62.5023
 30
0.0
 10
-165.6577
 20
62.4468
 30
0.0
 10
-165.6577
 20
62.4468
 30
0.0
 10
-165.6577
 20
62.4468
 30
0.0
 10
-165.6577
 20
62.4468
 30
0.0
 10
-165.6043
 20
58.8394
 30
0.0
 10
-165.6043
 20
58.8394
 30
0.0
 10
-165.6043
 20
58.8394
 30
0.0
 10
-165.6043
 20
58.8394
 30
0.0
 10
-169.3509
 20
58.84
 30
0.0
 10
-169.3509
 20
58.84
 30
0.0
 10
-169.3509
 20
58.84
 30
0.0
 10
-169.3509
 20
58.84
 30
0.0
 10
-169.3465
 20
64.1147
 30
0.0
 10
-169.3465
 20
64.1147
 30
0.0
 10
-169.3465
 20
64.1147
 30
0.0
 10
-169.3465
 20
64.1147
 30
0.0
 10
-165.3765
 20
69.7241
 30
0.0
 10
-165.3765
 20
69.7241
 30
0.0
  0
SPLINE
  5
56
330
1F
100
AcDbEntity
  8
layer 1
 62
     7
100
AcDbSpline
210
0.0
220
0.0
230
1.0
 70
    11
 71
     3
 72
    28
 73
    24
 74
     0
 42
0.0000000001
 43
0.0000000001
 12
1.0
 22
0.0
 32
0.0
 13
1.0
 23
0.0
 33
0.0
 40
0.0
 40
0.0
 40
0.0
 40
0.0
 40
0.1428571428571428
 40
0.1428571428571428
 40
0.1428571428571428
 40
0.1428571428571428
 40
0.2857142857142857
 40
0.2857142857142857
 40
0.2857142857142857
 40
0.2857142857142857
 40
0.4285714285714285
 40
0.4285714285714285
 40
0.4285714285714285
 40
0.4285714285714285
 40
0.5714285714285714
 40
0.5714285714285714
 40
0.5714285714285714
 40
0.5714285714285714
 40
0.7142857142857143
 40
0.7142857142857143
 40
0.7142857142857143
 40
0.7142857142857143
 40
1.0
 40
1.0
 40
1.0
 40
1.0
 10
-172.8241
 20
65.6543
 30
0.0
 10
-172.8241
 20
65.6543
 30
0.0
 10
-177.2747
 20
65.6823
 30
0.0
 10
-177.2747
 20
65.6823
 30
0.0
 10
-177.2747
 20
65.6823
 30
0.0
 10
-177.2747
 20
65.6823
 30
0.0
 10
-177.2951
 20
71.9237
 30
0.0
 10
-177.2951
 20
71.9237
 30
0.0
 10
-177.2951
 20
71.9237
 30
0.0
 10
-177.2951
 20
71.9237
 30
0.0
 10
-183.7348
 20
71.8703
 30
0.0
 10
-183.7348
 20
71.8703
 30
0.0
 10
-183.7348
 20
71.8703
 30
0.0
 10
-183.7348
 20
71.8703
 30
0.0
 10
-183.7342
 20
79.1479
 30
0.0
 10
-183.7342
 20
79.1479
 30
0.0
 10
-183.7342
 20
79.1479
 30
0.0
 10
-176.9022
 20
78.6904
 30
0.0
 10
-171.8322
 20
76.2203
 30
0.0
 10
-167.9299
 20
72.3946
 30
0.0
 10
-167.9299
 20
72.3946
 30
0.0
 10
-167.9299
 20
72.3946
 30
0.0
 10
-172.8241
 20
65.6543
 30
0.0
 10
-172.8241
 20
65.6543
 30
0.0
  0
SPLINE
  5
57
330
1F
100
AcDbEntity
  8
layer 1
 62
     7
100
AcDbSpline
210
0.0
220
0.0
230
1.0
 70
    11
 71
     3
 72
    20
 73
    16
 74
     0
 42
0.0000000001
 43
0.0000000001
 12
1.0
 22
0.0
 32
0.0
 13
1.0
 23
0.0
 33
0.0
 40
0.0
 40
0.0
 40
0.0
 40
0.0
 40
0.2
 40
0.2
 40
0.2
 40
0.2
 40
0.4
 40
0.4
 40
0.4
 40
0.4
 40
0.6
 40
0.6
 40
0.6
 40
0.6
 40
1.0
 40
1.0
 40
1.0
 40
1.0
 10
-162.2938
 20
58.5891
 30
0.0
 10
-162.2938
 20
58.5891
 30
0.0
 10
-157.1386
 20
58.5891
 30
0.0
 10
-157.1386
 20
58.5891
 30
0.0
 10
-157.1386
 20
58.5891
 30
0.0
 10
-157.1386
 20
58.5891
 30
0.0
 10
-157.1386
 20
54.52
 30
0.0
 10
-157.1386
 20
54.52
 30
0.0
 10
-157.1386
 20
54.52
 30
0.0
 10
-157.1386
 20
54.52
 30
0.0
 10
-162.2938
 20
54.52
 30
0.0
 10
-162.2938
 20
54.52
 30
0.0
 10
-162.2938
 20
54.52
 30
0.0
 10
-162.2938
 20
54.52
 30
0.0
 10
-162.2938
 20
58.5891
 30
0.0
 10
-162.2938
 20
58.5891
 30
0.0
  0
SPLINE
  5
58
330
1F
100
AcDbEntity
  8
layer 1
 62
     7
100
AcDbSpline
210
0.0
220
0.0
230
1.0
 70
    11
 71
     3
 72
    28
 73
    24
 74
     0
 42
0.0000000001
 43
0.0000000001
 12
1.0
 22
0.0
 32
0.0
 13
1.0
 23
0.0
 33
0.0
 40
0.0
 40
0.0
 40
0.0
 40
0.0
 40
0.1428571428571428
 40
0.1428571428571428
 40
0.1428571428571428
 40
0.1428571428571428
 40
0.2857142857142857
 40
0.2857142857142857
 40
0.2857142857142857
 40
0.2857142857142857
 40
0.4285714285714285
 40
0.4285714285714285
 40
0.4285714285714285
 40
0.4285714285714285
 40
0.5714285714285714
 40
0.5714285714285714
 40
0.5714285714285714
 40
0.5714285714285714
 40
0.7142857142857143
 40
0.7142857142857143
 40
0.7142857142857143
 40
0.7142857142857143
 40
1.0
 40
1.0
 40
1.0
 40
1.0
 10
-165.3376
 20
43.4862
 30
0.0
 10
-163.375
 20
46.2737
 30
0.0
 10
-162.2739
 20
47.8925
 30
0.0
 10
-161.0715
 20
50.7772
 30
0.0
 10
-161.0715
 20
50.7772
 30
0.0
 10
-161.0715
 20
50.7772
 30
0.0
 10
-165.6577
 20
50.7976
 30
0.0
 10
-165.6577
 20
50.7976
 30
0.0
 10
-165.6577
 20
50.7976
 30
0.0
 10
-165.6577
 20
50.7976
 30
0.0
 10
-165.6043
 20
54.405
 30
0.0
 10
-165.6043
 20
54.405
 30
0.0
 10
-165.6043
 20
54.405
 30
0.0
 10
-165.6043
 20
54.405
 30
0.0
 10
-169.3509
 20
54.4044
 30
0.0
 10
-169.3509
 20
54.4044
 30
0.0
 10
-169.3509
 20
54.4044
 30
0.0
 10
-169.3509
 20
54.4044
 30
0.0
 10
-169.3465
 20
49.1298
 30
0.0
 10
-169.3465
 20
49.1298
 30
0.0
 10
-169.3465
 20
49.1298
 30
0.0
 10
-169.3465
 20
49.1298
 30
0.0
 10
-165.3376
 20
43.4862
 30
0.0
 10
-165.3376
 20
43.4862
 30
0.0
  0
SPLINE
  5
59
330
1F
100
AcDbEntity
  8
layer 1
 62
     7
100
AcDbSpline
210
0.0
220
0.0
230
1.0
 70
    11
 71
     3
 72
    28
 73
    24
 74
     0
 42
0.0000000001
 43
0.0000000001
 12
1.0
 22
0.0
 32
0.0
 13
1.0
 23
0.0
 33
0.0
 40
0.0
 40
0.0
 40
0.0
 40
0.0
 40
0.1428571428571428
 40
0.1428571428571428
 40
0.1428571428571428
 40
0.1428571428571428
 40
0.2857142857142857
 40
0.2857142857142857
 40
0.2857142857142857
 40
0.2857142857142857
 40
0.4285714285714285
 40
0.4285714285714285
 40
0.4285714285714285
 40
0.4285714285714285
 40
0.5714285714285714
 40
0.5714285714285714
 40
0.5714285714285714
 40
0.5714285714285714
 40
0.7142857142857143
 40
0.7142857142857143
 40
0.7142857142857143
 40
0.7142857142857143
 40
1.0
 40
1.0
 40
1.0
 40
1.0
 10
-172.8241
 20
47.4895
 30
0.0
 10
-172.8241
 20
47.4895
 30
0.0
 10
-177.2747
 20
47.4616
 30
0.0
 10
-177.2747
 20
47.4616
 30
0.0
 10
-177.2747
 20
47.4616
 30
0.0
 10
-177.2747
 20
47.4616
 30
0.0
 10
-177.2951
 20
41.2202
 30
0.0
 10
-177.2951
 20
41.2202
 30
0.0
 10
-177.2951
 20
41.2202
 30
0.0
 10
-177.2951
 20
41.2202
 30
0.0
 10
-183.7348
 20
41.2735
 30
0.0
 10
-183.7348
 20
41.2735
 30
0.0
 10
-183.7348
 20
41.2735
 30
0.0
 10
-183.7348
 20
41.2735
 30
0.0
 10
-183.7342
 20
33.996
 30
0.0
 10
-183.7342
 20
33.996
 30
0.0
 10
-183.7342
 20
33.996
 30
0.0
 10
-177.53
 20
34.6183
 30
0.0
 10
-172.7415
 20
36.4576
 30
0.0
 10
-167.9299
 20
40.7492
 30
0.0
 10
-167.9299
 20
40.7492
 30
0.0
 10
-167.9299
 20
40.7492
 30
0.0
 10
-172.8241
 20
47.4895
 30
0.0
 10
-172.8241
 20
47.4895
 30
0.0
  0
SPLINE
  5
5A
330
1F
100
AcDbEntity
  8
layer 1
 62
     7
100
AcDbSpline
210
0.0
220
0.0
230
1.0
 70
    11
 71
     3
 72
    20
 73
    16
 74
     0
 42
0.0000000001
 43
0.0000000001
 12
1.0
 22
0.0
 32
0.0
 13
1.0
 23
0.0
 33
0.0
 40
0.0
 40
0.0
 40
0.0
 40
0.0
 40
0.2
 40
0.2
 40
0.2
 40
0.2
 40
0.4
 40
0.4
 40
0.4
 40
0.4
 40
0.6
 40
0.6
 40
0.6
 40
0.6
 40
1.0
 40
1.0
 40
1.0
 40
1.0
 10
-162.3151
 20
32.3389
 30
0.0
 10
-162.3151
 20
32.3389
 30
0.0
 10
-165.9849
 20
37.4572
 30
0.0
 10
-165.9849
 20
37.4572
 30
0.0
 10
-165.9849
 20
37.4572
 30
0.0
 10
-167.7416
 20
35.882
 30
0.0
 10
-171.956
 20
33.3739
 30
0.0
 10
-174.362
 20
32.3389
 30
0.0
 10
-174.362
 20
32.3389
 30
0.0
 10
-171.956
 20
31.3038
 30
0.0
 10
-167.7416
 20
28.7957
 30
0.0
 10
-165.9849
 20
27.2205
 30
0.0
 10
-165.9849
 20
27.2205
 30
0.0
 10
-165.9849
 20
27.2205
 30
0.0
 10
-162.3151
 20
32.3389
 30
0.0
 10
-162.3151
 20
32.3389
 30
0.0
  0
SPLINE
  5
5B
330
1F
100
AcDbEntity
  8
layer 1
 62
     7
100
AcDbSpline
210
0.0
220
0.0
230
1.0
 70
    11
 71
     3
 72
    20
 73
    16
 74
     0
 42
0.0000000001
 43
0.0000000001
 12
1.0
 22
0.0
 32
0.0
 13
1.0
 23
0.0
 33
0.0
 40
0.0
 40
0.0
 40
0.0
 40
0.0
 40
0.2
 40
0.2
 40
0.2
 40
0.2
 40
0.4
 40
0.4
 40
0.4
 40
0.4
 40
0.6
 40
0.6
 40
0.6
 40
0.6
 40
1.0
 40
1.0
 40
1.0
 40
1.0
 10
-159.7212
 20
35.4003
 30
0.0
 10
-160.8535
 20
37.6096
 30
0.0
 10
-162.1111
 20
39.0513
 30
0.0
 10
-163.3866
 20
40.462
 30
0.0
 10
-163.3866
 20
40.462
 30
0.0
 10
-163.3866
 20
40.462
 30
0.0
 10
-159.7212
 20
45.6258
 30
0.0
 10
-159.7212
 20
45.6258
 30
0.0
 10
-159.7212
 20
45.6258
 30
0.0
 10
-159.7212
 20
45.6258
 30
0.0
 10
-156.0557
 20
40.462
 30
0.0
 10
-156.0557
 20
40.462
 30
0.0
 10
-156.0557
 20
40.462
 30
0.0
 10
-157.3312
 20
39.0513
 30
0.0
 10
-158.5888
 20
37.6096
 30
0.0
 10
-159.7212
 20
35.4003
 30
0.0
  0
SPLINE
  5
5C
330
1F
100
AcDbEntity
  8
layer 1
 62
     7
100
AcDbSpline
210
0.0
220
0.0
230
1.0
 70
    11
 71
     3
 72
    20
 73
    16
 74
     0
 42
0.0000000001
 43
0.0000000001
 12
1.0
 22
0.0
 32
0.0
 13
1.0
 23
0.0
 33
0.0
 40
0.0
 40
0.0
 40
0.0
 40
0.0
 40
0.2
 40
0.2
 40
0.2
 40
0.2
 40
0.4
 40
0.4
 40
0.4
 40
0.4
 40
0.6
 40
0.6
 40
0.6
 40
0.6
 40
1.0
 40
1.0
 40
1.0
 40
1.0
 10
-159.7212
 20
19.1892
 30
0.0
 10
-160.8535
 20
21.3985
 30
0.0
 10
-162.1111
 20
22.8402
 30
0.0
 10
-163.3866
 20
24.2509
 30
0.0
 10
-163.3866
 20
24.2509
 30
0.0
 10
-163.3866
 20
24.2509
 30
0.0
 10
-159.7212
 20
29.4148
 30
0.0
 10
-159.7212
 20
29.4148
 30
0.0
 10
-159.7212
 20
29.4148
 30
0.0
 10
-159.7212
 20
29.4148
 30
0.0
 10
-156.0557
 20
24.2509
 30
0.0
 10
-156.0557
 20
24.2509
 30
0.0
 10
-156.0557
 20
24.2509
 30
0.0
 10
-157.3312
 20
22.8402
 30
0.0
 10
-158.5888
 20
21.3985
 30
0.0
 10
-159.7212
 20
19.1892
 30
0.0
  0
SPLINE
  5
5D
330
1F
100
AcDbEntity
  8
layer 1
 62
     7
100
AcDbSpline
210
0.0
220
0.0
230
1.0
 70
    11
 71
     3
 72
    36
 73
    32
 74
     0
 42
0.0000000001
 43
0.0000000001
 12
1.0
 22
0.0
 32
0.0
 13
1.0
 23
0.0
 33
0.0
 40
0.0
 40
0.0
 40
0.0
 40
0.0
 40
0.1111111111111111
 40
0.1111111111111111
 40
0.1111111111111111
 40
0.1111111111111111
 40
0.2222222222222222
 40
0.2222222222222222
 40
0.2222222222222222
 40
0.2222222222222222
 40
0.3333333333333333
 40
0.3333333333333333
 40
0.3333333333333333
 40
0.3333333333333333
 40
0.4444444444444444
 40
0.4444444444444444
 40
0.4444444444444444
 40
0.4444444444444444
 40
0.5555555555555556
 40
0.5555555555555556
 40
0.5555555555555556
 40
0.5555555555555556
 40
0.6666666666666666
 40
0.6666666666666666
 40
0.6666666666666666
 40
0.6666666666666666
 40
0.7777777777777778
 40
0.7777777777777778
 40
0.7777777777777778
 40
0.7777777777777778
 40
1.0
 40
1.0
 40
1.0
 40
1.0
 10
-135.7658
 20
68.4591
 30
0.0
 10
-135.7658
 20
68.4591
 30
0.0
 10
-139.0596
 20
68.4591
 30
0.0
 10
-139.0596
 20
68.4591
 30
0.0
 10
-139.0596
 20
68.4591
 30
0.0
 10
-139.0596
 20
68.4591
 30
0.0
 10
-139.0596
 20
62.0683
 30
0.0
 10
-139.0596
 20
62.0683
 30
0.0
 10
-139.0596
 20
62.0683
 30
0.0
 10
-139.0596
 20
62.0683
 30
0.0
 10
-146.3163
 20
62.0659
 30
0.0
 10
-146.3163
 20
62.0659
 30
0.0
 10
-146.3163
 20
62.0659
 30
0.0
 10
-146.3163
 20
62.0659
 30
0.0
 10
-146.3409
 20
51.0779
 30
0.0
 10
-146.3409
 20
51.0779
 30
0.0
 10
-146.3409
 20
51.0779
 30
0.0
 10
-146.3409
 20
51.0779
 30
0.0
 10
-139.0596
 20
51.0778
 30
0.0
 10
-139.0596
 20
51.0778
 30
0.0
 10
-139.0596
 20
51.0778
 30
0.0
 10
-139.0596
 20
51.0778
 30
0.0
 10
-139.0596
 20
44.5974
 30
0.0
 10
-139.0596
 20
44.5974
 30
0.0
 10
-139.0596
 20
44.5974
 30
0.0
 10
-139.0596
 20
44.5974
 30
0.0
 10
-135.7658
 20
44.5974
 30
0.0
 10
-135.7658
 20
44.5974
 30
0.0
 10
-135.7658
 20
44.5974
 30
0.0
 10
-135.7658
 20
44.5974
 30
0.0
 10
-135.7658
 20
68.4591
 30
0.0
 10
-135.7658
 20
68.4591
 30
0.0
  0
SPLINE
  5
5E
330
1F
100
AcDbEntity
  8
layer 1
 62
     7
100
AcDbSpline
210
0.0
220
0.0
230
1.0
 70
    11
 71
     3
 72
    28
 73
    24
 74
     0
 42
0.0000000001
 43
0.0000000001
 12
1.0
 22
0.0
 32
0.0
 13
1.0
 23
0.0
 33
0.0
 40
0.0
 40
0.0
 40
0.0
 40
0.0
 40
0.1428571428571428
 40
0.1428571428571428
 40
0.1428571428571428
 40
0.1428571428571428
 40
0.2857142857142857
 40
0.2857142857142857
 40
0.2857142857142857
 40
0.2857142857142857
 40
0.4285714285714285
 40
0.4285714285714285
 40
0.4285714285714285
 40
0.4285714285714285
 40
0.5714285714285714
 40
0.5714285714285714
 40
0.5714285714285714
 40
0.5714285714285714
 40
0.7142857142857143
 40
0.7142857142857143
 40
0.7142857142857143
 40
0.7142857142857143
 40
1.0
 40
1.0
 40
1.0
 40
1.0
 10
-154.091
 20
69.7241
 30
0.0
 10
-155.9061
 20
67.5104
 30
0.0
 10
-156.9629
 20
65.3873
 30
0.0
 10
-158.3544
 20
62.5023
 30
0.0
 10
-158.3544
 20
62.5023
 30
0.0
 10
-158.3544
 20
62.5023
 30
0.0
 10
-153.8098
 20
62.4468
 30
0.0
 10
-153.8098
 20
62.4468
 30
0.0
 10
-153.8098
 20
62.4468
 30
0.0
 10
-153.8098
 20
62.4468
 30
0.0
 10
-153.8632
 20
58.8394
 30
0.0
 10
-153.8632
 20
58.8394
 30
0.0
 10
-153.8632
 20
58.8394
 30
0.0
 10
-153.8632
 20
58.8394
 30
0.0
 10
-150.1166
 20
58.84
 30
0.0
 10
-150.1166
 20
58.84
 30
0.0
 10
-150.1166
 20
58.84
 30
0.0
 10
-150.1166
 20
58.84
 30
0.0
 10
-150.121
 20
64.1147
 30
0.0
 10
-150.121
 20
64.1147
 30
0.0
 10
-150.121
 20
64.1147
 30
0.0
 10
-150.121
 20
64.1147
 30
0.0
 10
-154.091
 20
69.7241
 30
0.0
 10
-154.091
 20
69.7241
 30
0.0
  0
SPLINE
  5
5F
330
1F
100
AcDbEntity
  8
layer 1
 62
     7
100
AcDbSpline
210
0.0
220
0.0
230
1.0
 70
    11
 71
     3
 72
    28
 73
    24
 74
     0
 42
0.0000000001
 43
0.0000000001
 12
1.0
 22
0.0
 32
0.0
 13
1.0
 23
0.0
 33
0.0
 40
0.0
 40
0.0
 40
0.0
 40
0.0
 40
0.1428571428571428
 40
0.1428571428571428
 40
0.1428571428571428
 40
0.1428571428571428
 40
0.2857142857142857
 40
0.2857142857142857
 40
0.2857142857142857
 40
0.2857142857142857
 40
0.4285714285714285
 40
0.4285714285714285
 40
0.4285714285714285
 40
0.4285714285714285
 40
0.5714285714285714
 40
0.5714285714285714
 40
0.5714285714285714
 40
0.5714285714285714
 40
0.7142857142857143
 40
0.7142857142857143
 40
0.7142857142857143
 40
0.7142857142857143
 40
1.0
 40
1.0
 40
1.0
 40
1.0
 10
-146.6434
 20
65.6543
 30
0.0
 10
-146.6434
 20
65.6543
 30
0.0
 10
-142.1928
 20
65.6823
 30
0.0
 10
-142.1928
 20
65.6823
 30
0.0
 10
-142.1928
 20
65.6823
 30
0.0
 10
-142.1928
 20
65.6823
 30
0.0
 10
-142.1724
 20
71.9237
 30
0.0
 10
-142.1724
 20
71.9237
 30
0.0
 10
-142.1724
 20
71.9237
 30
0.0
 10
-142.1724
 20
71.9237
 30
0.0
 10
-135.7327
 20
71.8703
 30
0.0
 10
-135.7327
 20
71.8703
 30
0.0
 10
-135.7327
 20
71.8703
 30
0.0
 10
-135.7327
 20
71.8703
 30
0.0
 10
-135.7333
 20
79.1479
 30
0.0
 10
-135.7333
 20
79.1479
 30
0.0
 10
-135.7333
 20
79.1479
 30
0.0
 10
-142.5653
 20
78.6904
 30
0.0
 10
-147.6353
 20
76.2203
 30
0.0
 10
-151.5376
 20
72.3946
 30
0.0
 10
-151.5376
 20
72.3946
 30
0.0
 10
-151.5376
 20
72.3946
 30
0.0
 10
-146.6434
 20
65.6543
 30
0.0
 10
-146.6434
 20
65.6543
 30
0.0
  0
SPLINE
  5
60
330
1F
100
AcDbEntity
  8
layer 1
 62
     7
100
AcDbSpline
210
0.0
220
0.0
230
1.0
 70
    11
 71
     3
 72
    28
 73
    24
 74
     0
 42
0.0000000001
 43
0.0000000001
 12
1.0
 22
0.0
 32
0.0
 13
1.0
 23
0.0
 33
0.0
 40
0.0
 40
0.0
 40
0.0
 40
0.0
 40
0.1428571428571428
 40
0.1428571428571428
 40
0.1428571428571428
 40
0.1428571428571428
 40
0.2857142857142857
 40
0.2857142857142857
 40
0.2857142857142857
 40
0.2857142857142857
 40
0.4285714285714285
 40
0.4285714285714285
 40
0.4285714285714285
 40
0.4285714285714285
 40
0.5714285714285714
 40
0.5714285714285714
 40
0.5714285714285714
 40
0.5714285714285714
 40
0.7142857142857143
 40
0.7142857142857143
 40
0.7142857142857143
 40
0.7142857142857143
 40
1.0
 40
1.0
 40
1.0
 40
1.0
 10
-154.1299
 20
43.4862
 30
0.0
 10
-156.0925
 20
46.2737
 30
0.0
 10
-157.1936
 20
47.8925
 30
0.0
 10
-158.396
 20
50.7772
 30
0.0
 10
-158.396
 20
50.7772
 30
0.0
 10
-158.396
 20
50.7772
 30
0.0
 10
-153.8098
 20
50.7976
 30
0.0
 10
-153.8098
 20
50.7976
 30
0.0
 10
-153.8098
 20
50.7976
 30
0.0
 10
-153.8098
 20
50.7976
 30
0.0
 10
-153.8632
 20
54.405
 30
0.0
 10
-153.8632
 20
54.405
 30
0.0
 10
-153.8632
 20
54.405
 30
0.0
 10
-153.8632
 20
54.405
 30
0.0
 10
-150.1166
 20
54.4044
 30
0.0
 10
-150.1166
 20
54.4044
 30
0.0
 10
-150.1166
 20
54.4044
 30
0.0
 10
-150.1166
 20
54.4044
 30
0.0
 10
-150.121
 20
49.1298
 30
0.0
 10
-150.121
 20
49.1298
 30
0.0
 10
-150.121
 20
49.1298
 30
0.0
 10
-150.121
 20
49.1298
 30
0.0
 10
-154.1299
 20
43.4862
 30
0.0
 10
-154.1299
 20
43.4862
 30
0.0
  0
SPLINE
  5
61
330
1F
100
AcDbEntity
  8
layer 1
 62
     7
100
AcDbSpline
210
0.0
220
0.0
230
1.0
 70
    11
 71
     3
 72
    28
 73
    24
 74
     0
 42
0.0000000001
 43
0.0000000001
 12
1.0
 22
0.0
 32
0.0
 13
1.0
 23
0.0
 33
0.0
 40
0.0
 40
0.0
 40
0.0
 40
0.0
 40
0.1428571428571428
 40
0.1428571428571428
 40
0.1428571428571428
 40
0.1428571428571428
 40
0.2857142857142857
 40
0.2857142857142857
 40
0.2857142857142857
 40
0.2857142857142857
 40
0.4285714285714285
 40
0.4285714285714285
 40
0.4285714285714285
 40
0.4285714285714285
 40
0.5714285714285714
 40
0.5714285714285714
 40
0.5714285714285714
 40
0.5714285714285714
 40
0.7142857142857143
 40
0.7142857142857143
 40
0.7142857142857143
 40
0.7142857142857143
 40
1.0
 40
1.0
 40
1.0
 40
1.0
 10
-146.6434
 20
47.4895
 30
0.0
 10
-146.6434
 20
47.4895
 30
0.0
 10
-142.1928
 20
47.4616
 30
0.0
 10
-142.1928
 20
47.4616
 30
0.0
 10
-142.1928
 20
47.4616
 30
0.0
 10
-142.1928
 20
47.4616
 30
0.0
 10
-142.1724
 20
41.2202
 30
0.0
 10
-142.1724
 20
41.2202
 30
0.0
 10
-142.1724
 20
41.2202
 30
0.0
 10
-142.1724
 20
41.2202
 30
0.0
 10
-135.7327
 20
41.2735
 30
0.0
 10
-135.7327
 20
41.2735
 30
0.0
 10
-135.7327
 20
41.2735
 30
0.0
 10
-135.7327
 20
41.2735
 30
0.0
 10
-135.7333
 20
33.996
 30
0.0
 10
-135.7333
 20
33.996
 30
0.0
 10
-135.7333
 20
33.996
 30
0.0
 10
-141.9375
 20
34.6183
 30
0.0
 10
-146.726
 20
36.4576
 30
0.0
 10
-151.5376
 20
40.7492
 30
0.0
 10
-151.5376
 20
40.7492
 30
0.0
 10
-151.5376
 20
40.7492
 30
0.0
 10
-146.6434
 20
47.4895
 30
0.0
 10
-146.6434
 20
47.4895
 30
0.0
  0
SPLINE
  5
62
330
1F
100
AcDbEntity
  8
layer 1
 62
     7
100
AcDbSpline
210
0.0
220
0.0
230
1.0
 70
    11
 71
     3
 72
    20
 73
    16
 74
     0
 42
0.0000000001
 43
0.0000000001
 12
1.0
 22
0.0
 32
0.0
 13
1.0
 23
0.0
 33
0.0
 40
0.0
 40
0.0
 40
0.0
 40
0.0
 40
0.2
 40
0.2
 40
0.2
 40
0.2
 40
0.4
 40
0.4
 40
0.4
 40
0.4
 40
0.6
 40
0.6
 40
0.6
 40
0.6
 40
1.0
 40
1.0
 40
1.0
 40
1.0
 10
-157.1524
 20
32.3389
 30
0.0
 10
-157.1524
 20
32.3389
 30
0.0
 10
-153.4826
 20
37.4572
 30
0.0
 10
-153.4826
 20
37.4572
 30
0.0
 10
-153.4826
 20
37.4572
 30
0.0
 10
-151.7259
 20
35.882
 30
0.0
 10
-147.5115
 20
33.3739
 30
0.0
 10
-145.1055
 20
32.3389
 30
0.0
 10
-145.1055
 20
32.3389
 30
0.0
 10
-147.5115
 20
31.3038
 30
0.0
 10
-151.7259
 20
28.7957
 30
0.0
 10
-153.4826
 20
27.2205
 30
0.0
 10
-153.4826
 20
27.2205
 30
0.0
 10
-153.4826
 20
27.2205
 30
0.0
 10
-157.1524
 20
32.3389
 30
0.0
 10
-157.1524
 20
32.3389
 30
0.0
  0
SPLINE
  5
63
330
1F
100
AcDbEntity
  8
layer 1
 62
     7
100
AcDbSpline
210
0.0
220
0.0
230
1.0
 70
    11
 71
     3
 72
    36
 73
    32
 74
     0
 42
0.0000000001
 43
0.0000000001
 12
1.0
 22
0.0
 32
0.0
 13
1.0
 23
0.0
 33
0.0
 40
0.0
 40
0.0
 40
0.0
 40
0.0
 40
0.1111111111111111
 40
0.1111111111111111
 40
0.1111111111111111
 40
0.1111111111111111
 40
0.2222222222222222
 40
0.2222222222222222
 40
0.2222222222222222
 40
0.2222222222222222
 40
0.3333333333333333
 40
0.3333333333333333
 40
0.3333333333333333
 40
0.3333333333333333
 40
0.4444444444444444
 40
0.4444444444444444
 40
0.4444444444444444
 40
0.4444444444444444
 40
0.5555555555555556
 40
0.5555555555555556
 40
0.5555555555555556
 40
0.5555555555555556
 40
0.6666666666666666
 40
0.6666666666666666
 40
0.6666666666666666
 40
0.6666666666666666
 40
0.7777777777777778
 40
0.7777777777777778
 40
0.7777777777777778
 40
0.7777777777777778
 40
1.0
 40
1.0
 40
1.0
 40
1.0
 10
-183.7017
 20
20.444
 30
0.0
 10
-183.7017
 20
20.444
 30
0.0
 10
-180.4079
 20
20.444
 30
0.0
 10
-180.4079
 20
20.444
 30
0.0
 10
-180.4079
 20
20.444
 30
0.0
 10
-180.4079
 20
20.444
 30
0.0
 10
-180.4079
 20
14.0533
 30
0.0
 10
-180.4079
 20
14.0533
 30
0.0
 10
-180.4079
 20
14.0533
 30
0.0
 10
-180.4079
 20
14.0533
 30
0.0
 10
-173.1512
 20
14.0508
 30
0.0
 10
-173.1512
 20
14.0508
 30
0.0
 10
-173.1512
 20
14.0508
 30
0.0
 10
-173.1512
 20
14.0508
 30
0.0
 10
-173.1267
 20
3.0628
 30
0.0
 10
-173.1267
 20
3.0628
 30
0.0
 10
-173.1267
 20
3.0628
 30
0.0
 10
-173.1267
 20
3.0628
 30
0.0
 10
-180.4079
 20
3.0627
 30
0.0
 10
-180.4079
 20
3.0627
 30
0.0
 10
-180.4079
 20
3.0627
 30
0.0
 10
-180.4079
 20
3.0627
 30
0.0
 10
-180.4079
 20
-3.4177
 30
0.0
 10
-180.4079
 20
-3.4177
 30
0.0
 10
-180.4079
 20
-3.4177
 30
0.0
 10
-180.4079
 20
-3.4177
 30
0.0
 10
-183.7017
 20
-3.4177
 30
0.0
 10
-183.7017
 20
-3.4177
 30
0.0
 10
-183.7017
 20
-3.4177
 30
0.0
 10
-183.7017
 20
-3.4177
 30
0.0
 10
-183.7017
 20
20.444
 30
0.0
 10
-183.7017
 20
20.444
 30
0.0
  0
SPLINE
  5
64
330
1F
100
AcDbEntity
  8
layer 1
 62
     7
100
AcDbSpline
210
0.0
220
0.0
230
1.0
 70
    11
 71
     3
 72
    28
 73
    24
 74
     0
 42
0.0000000001
 43
0.0000000001
 12
1.0
 22
0.0
 32
0.0
 13
1.0
 23
0.0
 33
0.0
 40
0.0
 40
0.0
 40
0.0
 40
0.0
 40
0.1428571428571428
 40
0.1428571428571428
 40
0.1428571428571428
 40
0.1428571428571428
 40
0.2857142857142857
 40
0.2857142857142857
 40
0.2857142857142857
 40
0.2857142857142857
 40
0.4285714285714285
 40
0.4285714285714285
 40
0.4285714285714285
 40
0.4285714285714285
 40
0.5714285714285714
 40
0.5714285714285714
 40
0.5714285714285714
 40
0.5714285714285714
 40
0.7142857142857143
 40
0.7142857142857143
 40
0.7142857142857143
 40
0.7142857142857143
 40
1.0
 40
1.0
 40
1.0
 40
1.0
 10
-165.3765
 20
21.7091
 30
0.0
 10
-163.5614
 20
19.4953
 30
0.0
 10
-162.5047
 20
17.3723
 30
0.0
 10
-161.1132
 20
14.4873
 30
0.0
 10
-161.1132
 20
14.4873
 30
0.0
 10
-161.1132
 20
14.4873
 30
0.0
 10
-165.6577
 20
14.4318
 30
0.0
 10
-165.6577
 20
14.4318
 30
0.0
 10
-165.6577
 20
14.4318
 30
0.0
 10
-165.6577
 20
14.4318
 30
0.0
 10
-165.6043
 20
10.8244
 30
0.0
 10
-165.6043
 20
10.8244
 30
0.0
 10
-165.6043
 20
10.8244
 30
0.0
 10
-165.6043
 20
10.8244
 30
0.0
 10
-169.3509
 20
10.8249
 30
0.0
 10
-169.3509
 20
10.8249
 30
0.0
 10
-169.3509
 20
10.8249
 30
0.0
 10
-169.3509
 20
10.8249
 30
0.0
 10
-169.3465
 20
16.0996
 30
0.0
 10
-169.3465
 20
16.0996
 30
0.0
 10
-169.3465
 20
16.0996
 30
0.0
 10
-169.3465
 20
16.0996
 30
0.0
 10
-165.3765
 20
21.7091
 30
0.0
 10
-165.3765
 20
21.7091
 30
0.0
  0
SPLINE
  5
65
330
1F
100
AcDbEntity
  8
layer 1
 62
     7
100
AcDbSpline
210
0.0
220
0.0
230
1.0
 70
    11
 71
     3
 72
    28
 73
    24
 74
     0
 42
0.0000000001
 43
0.0000000001
 12
1.0
 22
0.0
 32
0.0
 13
1.0
 23
0.0
 33
0.0
 40
0.0
 40
0.0
 40
0.0
 40
0.0
 40
0.1428571428571428
 40
0.1428571428571428
 40
0.1428571428571428
 40
0.1428571428571428
 40
0.2857142857142857
 40
0.2857142857142857
 40
0.2857142857142857
 40
0.2857142857142857
 40
0.4285714285714285
 40
0.4285714285714285
 40
0.4285714285714285
 40
0.4285714285714285
 40
0.5714285714285714
 40
0.5714285714285714
 40
0.5714285714285714
 40
0.5714285714285714
 40
0.7142857142857143
 40
0.7142857142857143
 40
0.7142857142857143
 40
0.7142857142857143
 40
1.0
 40
1.0
 40
1.0
 40
1.0
 10
-172.8241
 20
17.6393
 30
0.0
 10
-172.8241
 20
17.6393
 30
0.0
 10
-177.2747
 20
17.6672
 30
0.0
 10
-177.2747
 20
17.6672
 30
0.0
 10
-177.2747
 20
17.6672
 30
0.0
 10
-177.2747
 20
17.6672
 30
0.0
 10
-177.2951
 20
23.9087
 30
0.0
 10
-177.2951
 20
23.9087
 30
0.0
 10
-177.2951
 20
23.9087
 30
0.0
 10
-177.2951
 20
23.9087
 30
0.0
 10
-183.7348
 20
23.8553
 30
0.0
 10
-183.7348
 20
23.8553
 30
0.0
 10
-183.7348
 20
23.8553
 30
0.0
 10
-183.7348
 20
23.8553
 30
0.0
 10
-183.7342
 20
31.1328
 30
0.0
 10
-183.7342
 20
31.1328
 30
0.0
 10
-183.7342
 20
31.1328
 30
0.0
 10
-176.9022
 20
30.6754
 30
0.0
 10
-171.8322
 20
28.2052
 30
0.0
 10
-167.9299
 20
24.3796
 30
0.0
 10
-167.9299
 20
24.3796
 30
0.0
 10
-167.9299
 20
24.3796
 30
0.0
 10
-172.8241
 20
17.6393
 30
0.0
 10
-172.8241
 20
17.6393
 30
0.0
  0
SPLINE
  5
66
330
1F
100
AcDbEntity
  8
layer 1
 62
     7
100
AcDbSpline
210
0.0
220
0.0
230
1.0
 70
    11
 71
     3
 72
    20
 73
    16
 74
     0
 42
0.0000000001
 43
0.0000000001
 12
1.0
 22
0.0
 32
0.0
 13
1.0
 23
0.0
 33
0.0
 40
0.0
 40
0.0
 40
0.0
 40
0.0
 40
0.2
 40
0.2
 40
0.2
 40
0.2
 40
0.4
 40
0.4
 40
0.4
 40
0.4
 40
0.6
 40
0.6
 40
0.6
 40
0.6
 40
1.0
 40
1.0
 40
1.0
 40
1.0
 10
-162.2938
 20
10.574
 30
0.0
 10
-162.2938
 20
10.574
 30
0.0
 10
-157.1386
 20
10.574
 30
0.0
 10
-157.1386
 20
10.574
 30
0.0
 10
-157.1386
 20
10.574
 30
0.0
 10
-157.1386
 20
10.574
 30
0.0
 10
-157.1386
 20
6.5049
 30
0.0
 10
-157.1386
 20
6.5049
 30
0.0
 10
-157.1386
 20
6.5049
 30
0.0
 10
-157.1386
 20
6.5049
 30
0.0
 10
-162.2938
 20
6.5049
 30
0.0
 10
-162.2938
 20
6.5049
 30
0.0
 10
-162.2938
 20
6.5049
 30
0.0
 10
-162.2938
 20
6.5049
 30
0.0
 10
-162.2938
 20
10.574
 30
0.0
 10
-162.2938
 20
10.574
 30
0.0
  0
SPLINE
  5
67
330
1F
100
AcDbEntity
  8
layer 1
 62
     7
100
AcDbSpline
210
0.0
220
0.0
230
1.0
 70
    11
 71
     3
 72
    28
 73
    24
 74
     0
 42
0.0000000001
 43
0.0000000001
 12
1.0
 22
0.0
 32
0.0
 13
1.0
 23
0.0
 33
0.0
 40
0.0
 40
0.0
 40
0.0
 40
0.0
 40
0.1428571428571428
 40
0.1428571428571428
 40
0.1428571428571428
 40
0.1428571428571428
 40
0.2857142857142857
 40
0.2857142857142857
 40
0.2857142857142857
 40
0.2857142857142857
 40
0.4285714285714285
 40
0.4285714285714285
 40
0.4285714285714285
 40
0.4285714285714285
 40
0.5714285714285714
 40
0.5714285714285714
 40
0.5714285714285714
 40
0.5714285714285714
 40
0.7142857142857143
 40
0.7142857142857143
 40
0.7142857142857143
 40
0.7142857142857143
 40
1.0
 40
1.0
 40
1.0
 40
1.0
 10
-165.3376
 20
-4.5289
 30
0.0
 10
-163.375
 20
-1.7414
 30
0.0
 10
-162.2739
 20
-0.1225
 30
0.0
 10
-161.0715
 20
2.7622
 30
0.0
 10
-161.0715
 20
2.7622
 30
0.0
 10
-161.0715
 20
2.7622
 30
0.0
 10
-165.6577
 20
2.7826
 30
0.0
 10
-165.6577
 20
2.7826
 30
0.0
 10
-165.6577
 20
2.7826
 30
0.0
 10
-165.6577
 20
2.7826
 30
0.0
 10
-165.6043
 20
6.39
 30
0.0
 10
-165.6043
 20
6.39
 30
0.0
 10
-165.6043
 20
6.39
 30
0.0
 10
-165.6043
 20
6.39
 30
0.0
 10
-169.3509
 20
6.3894
 30
0.0
 10
-169.3509
 20
6.3894
 30
0.0
 10
-169.3509
 20
6.3894
 30
0.0
 10
-169.3509
 20
6.3894
 30
0.0
 10
-169.3465
 20
1.1147
 30
0.0
 10
-169.3465
 20
1.1147
 30
0.0
 10
-169.3465
 20
1.1147
 30
0.0
 10
-169.3465
 20
1.1147
 30
0.0
 10
-165.3376
 20
-4.5289
 30
0.0
 10
-165.3376
 20
-4.5289
 30
0.0
  0
SPLINE
  5
68
330
1F
100
AcDbEntity
  8
layer 1
 62
     7
100
AcDbSpline
210
0.0
220
0.0
230
1.0
 70
    11
 71
     3
 72
    28
 73
    24
 74
     0
 42
0.0000000001
 43
0.0000000001
 12
1.0
 22
0.0
 32
0.0
 13
1.0
 23
0.0
 33
0.0
 40
0.0
 40
0.0
 40
0.0
 40
0.0
 40
0.1428571428571428
 40
0.1428571428571428
 40
0.1428571428571428
 40
0.1428571428571428
 40
0.2857142857142857
 40
0.2857142857142857
 40
0.2857142857142857
 40
0.2857142857142857
 40
0.4285714285714285
 40
0.4285714285714285
 40
0.4285714285714285
 40
0.4285714285714285
 40
0.5714285714285714
 40
0.5714285714285714
 40
0.5714285714285714
 40
0.5714285714285714
 40
0.7142857142857143
 40
0.7142857142857143
 40
0.7142857142857143
 40
0.7142857142857143
 40
1.0
 40
1.0
 40
1.0
 40
1.0
 10
-172.8241
 20
-0.5255
 30
0.0
 10
-172.8241
 20
-0.5255
 30
0.0
 10
-177.2747
 20
-0.5535
 30
0.0
 10
-177.2747
 20
-0.5535
 30
0.0
 10
-177.2747
 20
-0.5535
 30
0.0
 10
-177.2747
 20
-0.5535
 30
0.0
 10
-177.2951
 20
-6.7949
 30
0.0
 10
-177.2951
 20
-6.7949
 30
0.0
 10
-177.2951
 20
-6.7949
 30
0.0
 10
-177.2951
 20
-6.7949
 30
0.0
 10
-183.7348
 20
-6.7415
 30
0.0
 10
-183.7348
 20
-6.7415
 30
0.0
 10
-183.7348
 20
-6.7415
 30
0.0
 10
-183.7348
 20
-6.7415
 30
0.0
 10
-183.7342
 20
-14.019
 30
0.0
 10
-183.7342
 20
-14.019
 30
0.0
 10
-183.7342
 20
-14.019
 30
0.0
 10
-177.53
 20
-13.3968
 30
0.0
 10
-172.7415
 20
-11.5574
 30
0.0
 10
-167.9299
 20
-7.2658
 30
0.0
 10
-167.9299
 20
-7.2658
 30
0.0
 10
-167.9299
 20
-7.2658
 30
0.0
 10
-172.8241
 20
-0.5255
 30
0.0
 10
-172.8241
 20
-0.5255
 30
0.0
  0
SPLINE
  5
69
330
1F
100
AcDbEntity
  8
layer 1
 62
     7
100
AcDbSpline
210
0.0
220
0.0
230
1.0
 70
    11
 71
     3
 72
    20
 73
    16
 74
     0
 42
0.0000000001
 43
0.0000000001
 12
1.0
 22
0.0
 32
0.0
 13
1.0
 23
0.0
 33
0.0
 40
0.0
 40
0.0
 40
0.0
 40
0.0
 40
0.2
 40
0.2
 40
0.2
 40
0.2
 40
0.4
 40
0.4
 40
0.4
 40
0.4
 40
0.6
 40
0.6
 40
0.6
 40
0.6
 40
1.0
 40
1.0
 40
1.0
 40
1.0
 10
-162.3151
 20
-15.6762
 30
0.0
 10
-162.3151
 20
-15.6762
 30
0.0
 10
-165.9849
 20
-10.5578
 30
0.0
 10
-165.9849
 20
-10.5578
 30
0.0
 10
-165.9849
 20
-10.5578
 30
0.0
 10
-167.7416
 20
-12.1331
 30
0.0
 10
-171.956
 20
-14.6411
 30
0.0
 10
-174.362
 20
-15.6762
 30
0.0
 10
-174.362
 20
-15.6762
 30
0.0
 10
-171.956
 20
-16.7113
 30
0.0
 10
-167.7416
 20
-19.2193
 30
0.0
 10
-165.9849
 20
-20.7946
 30
0.0
 10
-165.9849
 20
-20.7946
 30
0.0
 10
-165.9849
 20
-20.7946
 30
0.0
 10
-162.3151
 20
-15.6762
 30
0.0
 10
-162.3151
 20
-15.6762
 30
0.0
  0
SPLINE
  5
6A
330
1F
100
AcDbEntity
  8
layer 1
 62
     7
100
AcDbSpline
210
0.0
220
0.0
230
1.0
 70
    11
 71
     3
 72
    20
 73
    16
 74
     0
 42
0.0000000001
 43
0.0000000001
 12
1.0
 22
0.0
 32
0.0
 13
1.0
 23
0.0
 33
0.0
 40
0.0
 40
0.0
 40
0.0
 40
0.0
 40
0.2
 40
0.2
 40
0.2
 40
0.2
 40
0.4
 40
0.4
 40
0.4
 40
0.4
 40
0.6
 40
0.6
 40
0.6
 40
0.6
 40
1.0
 40
1.0
 40
1.0
 40
1.0
 10
-159.7212
 20
-12.6147
 30
0.0
 10
-160.8535
 20
-10.4054
 30
0.0
 10
-162.1111
 20
-8.9637
 30
0.0
 10
-163.3866
 20
-7.5531
 30
0.0
 10
-163.3866
 20
-7.5531
 30
0.0
 10
-163.3866
 20
-7.5531
 30
0.0
 10
-159.7212
 20
-2.3892
 30
0.0
 10
-159.7212
 20
-2.3892
 30
0.0
 10
-159.7212
 20
-2.3892
 30
0.0
 10
-159.7212
 20
-2.3892
 30
0.0
 10
-156.0557
 20
-7.5531
 30
0.0
 10
-156.0557
 20
-7.5531
 30
0.0
 10
-156.0557
 20
-7.5531
 30
0.0
 10
-157.3312
 20
-8.9637
 30
0.0
 10
-158.5888
 20
-10.4054
 30
0.0
 10
-159.7212
 20
-12.6147
 30
0.0
  0
SPLINE
  5
6B
330
1F
100
AcDbEntity
  8
layer 1
 62
     7
100
AcDbSpline
210
0.0
220
0.0
230
1.0
 70
    11
 71
     3
 72
    20
 73
    16
 74
     0
 42
0.0000000001
 43
0.0000000001
 12
1.0
 22
0.0
 32
0.0
 13
1.0
 23
0.0
 33
0.0
 40
0.0
 40
0.0
 40
0.0
 40
0.0
 40
0.2
 40
0.2
 40
0.2
 40
0.2
 40
0.4
 40
0.4
 40
0.4
 40
0.4
 40
0.6
 40
0.6
 40
0.6
 40
0.6
 40
1.0
 40
1.0
 40
1.0
 40
1.0
 10
-159.7212
 20
-28.8258
 30
0.0
 10
-160.8535
 20
-26.6165
 30
0.0
 10
-162.1111
 20
-25.1748
 30
0.0
 10
-163.3866
 20
-23.7642
 30
0.0
 10
-163.3866
 20
-23.7642
 30
0.0
 10
-163.3866
 20
-23.7642
 30
0.0
 10
-159.7212
 20
-18.6003
 30
0.0
 10
-159.7212
 20
-18.6003
 30
0.0
 10
-159.7212
 20
-18.6003
 30
0.0
 10
-159.7212
 20
-18.6003
 30
0.0
 10
-156.0557
 20
-23.7642
 30
0.0
 10
-156.0557
 20
-23.7642
 30
0.0
 10
-156.0557
 20
-23.7642
 30
0.0
 10
-157.3312
 20
-25.1748
 30
0.0
 10
-158.5888
 20
-26.6165
 30
0.0
 10
-159.7212
 20
-28.8258
 30
0.0
  0
SPLINE
  5
6C
330
1F
100
AcDbEntity
  8
layer 1
 62
     7
100
AcDbSpline
210
0.0
220
0.0
230
1.0
 70
    11
 71
     3
 72
    36
 73
    32
 74
     0
 42
0.0000000001
 43
0.0000000001
 12
1.0
 22
0.0
 32
0.0
 13
1.0
 23
0.0
 33
0.0
 40
0.0
 40
0.0
 40
0.0
 40
0.0
 40
0.1111111111111111
 40
0.1111111111111111
 40
0.1111111111111111
 40
0.1111111111111111
 40
0.2222222222222222
 40
0.2222222222222222
 40
0.2222222222222222
 40
0.2222222222222222
 40
0.3333333333333333
 40
0.3333333333333333
 40
0.3333333333333333
 40
0.3333333333333333
 40
0.4444444444444444
 40
0.4444444444444444
 40
0.4444444444444444
 40
0.4444444444444444
 40
0.5555555555555556
 40
0.5555555555555556
 40
0.5555555555555556
 40
0.5555555555555556
 40
0.6666666666666666
 40
0.6666666666666666
 40
0.6666666666666666
 40
0.6666666666666666
 40
0.7777777777777778
 40
0.7777777777777778
 40
0.7777777777777778
 40
0.7777777777777778
 40
1.0
 40
1.0
 40
1.0
 40
1.0
 10
-135.7658
 20
20.444
 30
0.0
 10
-135.7658
 20
20.444
 30
0.0
 10
-139.0596
 20
20.444
 30
0.0
 10
-139.0596
 20
20.444
 30
0.0
 10
-139.0596
 20
20.444
 30
0.0
 10
-139.0596
 20
20.444
 30
0.0
 10
-139.0596
 20
14.0533
 30
0.0
 10
-139.0596
 20
14.0533
 30
0.0
 10
-139.0596
 20
14.0533
 30
0.0
 10
-139.0596
 20
14.0533
 30
0.0
 10
-146.3163
 20
14.0508
 30
0.0
 10
-146.3163
 20
14.0508
 30
0.0
 10
-146.3163
 20
14.0508
 30
0.0
 10
-146.3163
 20
14.0508
 30
0.0
 10
-146.3409
 20
3.0628
 30
0.0
 10
-146.3409
 20
3.0628
 30
0.0
 10
-146.3409
 20
3.0628
 30
0.0
 10
-146.3409
 20
3.0628
 30
0.0
 10
-139.0596
 20
3.0627
 30
0.0
 10
-139.0596
 20
3.0627
 30
0.0
 10
-139.0596
 20
3.0627
 30
0.0
 10
-139.0596
 20
3.0627
 30
0.0
 10
-139.0596
 20
-3.4177
 30
0.0
 10
-139.0596
 20
-3.4177
 30
0.0
 10
-139.0596
 20
-3.4177
 30
0.0
 10
-139.0596
 20
-3.4177
 30
0.0
 10
-135.7658
 20
-3.4177
 30
0.0
 10
-135.7658
 20
-3.4177
 30
0.0
 10
-135.7658
 20
-3.4177
 30
0.0
 10
-135.7658
 20
-3.4177
 30
0.0
 10
-135.7658
 20
20.444
 30
0.0
 10
-135.7658
 20
20.444
 30
0.0
  0
SPLINE
  5
6D
330
1F
100
AcDbEntity
  8
layer 1
 62
     7
100
AcDbSpline
210
0.0
220
0.0
230
1.0
 70
    11
 71
     3
 72
    28
 73
    24
 74
     0
 42
0.0000000001
 43
0.0000000001
 12
1.0
 22
0.0
 32
0.0
 13
1.0
 23
0.0
 33
0.0
 40
0.0
 40
0.0
 40
0.0
 40
0.0
 40
0.1428571428571428
 40
0.1428571428571428
 40
0.1428571428571428
 40
0.1428571428571428
 40
0.2857142857142857
 40
0.2857142857142857
 40
0.2857142857142857
 40
0.2857142857142857
 40
0.4285714285714285
 40
0.4285714285714285
 40
0.4285714285714285
 40
0.4285714285714285
 40
0.5714285714285714
 40
0.5714285714285714
 40
0.5714285714285714
 40
0.5714285714285714
 40
0.7142857142857143
 40
0.7142857142857143
 40
0.7142857142857143
 40
0.7142857142857143
 40
1.0
 40
1.0
 40
1.0
 40
1.0
 10
-154.091
 20
21.7091
 30
0.0
 10
-155.9061
 20
19.4953
 30
0.0
 10
-156.9629
 20
17.3723
 30
0.0
 10
-158.3544
 20
14.4873
 30
0.0
 10
-158.3544
 20
14.4873
 30
0.0
 10
-158.3544
 20
14.4873
 30
0.0
 10
-153.8098
 20
14.4318
 30
0.0
 10
-153.8098
 20
14.4318
 30
0.0
 10
-153.8098
 20
14.4318
 30
0.0
 10
-153.8098
 20
14.4318
 30
0.0
 10
-153.8632
 20
10.8244
 30
0.0
 10
-153.8632
 20
10.8244
 30
0.0
 10
-153.8632
 20
10.8244
 30
0.0
 10
-153.8632
 20
10.8244
 30
0.0
 10
-150.1166
 20
10.8249
 30
0.0
 10
-150.1166
 20
10.8249
 30
0.0
 10
-150.1166
 20
10.8249
 30
0.0
 10
-150.1166
 20
10.8249
 30
0.0
 10
-150.121
 20
16.0996
 30
0.0
 10
-150.121
 20
16.0996
 30
0.0
 10
-150.121
 20
16.0996
 30
0.0
 10
-150.121
 20
16.0996
 30
0.0
 10
-154.091
 20
21.7091
 30
0.0
 10
-154.091
 20
21.7091
 30
0.0
  0
SPLINE
  5
6E
330
1F
100
AcDbEntity
  8
layer 1
 62
     7
100
AcDbSpline
210
0.0
220
0.0
230
1.0
 70
    11
 71
     3
 72
    28
 73
    24
 74
     0
 42
0.0000000001
 43
0.0000000001
 12
1.0
 22
0.0
 32
0.0
 13
1.0
 23
0.0
 33
0.0
 40
0.0
 40
0.0
 40
0.0
 40
0.0
 40
0.1428571428571428
 40
0.1428571428571428
 40
0.1428571428571428
 40
0.1428571428571428
 40
0.2857142857142857
 40
0.2857142857142857
 40
0.2857142857142857
 40
0.2857142857142857
 40
0.4285714285714285
 40
0.4285714285714285
 40
0.4285714285714285
 40
0.4285714285714285
 40
0.5714285714285714
 40
0.5714285714285714
 40
0.5714285714285714
 40
0.5714285714285714
 40
0.7142857142857143
 40
0.7142857142857143
 40
0.7142857142857143
 40
0.7142857142857143
 40
1.0
 40
1.0
 40
1.0
 40
1.0
 10
-146.6434
 20
17.6393
 30
0.0
 10
-146.6434
 20
17.6393
 30
0.0
 10
-142.1928
 20
17.6672
 30
0.0
 10
-142.1928
 20
17.6672
 30
0.0
 10
-142.1928
 20
17.6672
 30
0.0
 10
-142.1928
 20
17.6672
 30
0.0
 10
-142.1724
 20
23.9087
 30
0.0
 10
-142.1724
 20
23.9087
 30
0.0
 10
-142.1724
 20
23.9087
 30
0.0
 10
-142.1724
 20
23.9087
 30
0.0
 10
-135.7327
 20
23.8553
 30
0.0
 10
-135.7327
 20
23.8553
 30
0.0
 10
-135.7327
 20
23.8553
 30
0.0
 10
-135.7327
 20
23.8553
 30
0.0
 10
-135.7333
 20
31.1328
 30
0.0
 10
-135.7333
 20
31.1328
 30
0.0
 10
-135.7333
 20
31.1328
 30
0.0
 10
-142.5653
 20
30.6754
 30
0.0
 10
-147.6353
 20
28.2052
 30
0.0
 10
-151.5376
 20
24.3796
 30
0.0
 10
-151.5376
 20
24.3796
 30
0.0
 10
-151.5376
 20
24.3796
 30
0.0
 10
-146.6434
 20
17.6393
 30
0.0
 10
-146.6434
 20
17.6393
 30
0.0
  0
SPLINE
  5
6F
330
1F
100
AcDbEntity
  8
layer 1
 62
     7
100
AcDbSpline
210
0.0
220
0.0
230
1.0
 70
    11
 71
     3
 72
    28
 73
    24
 74
     0
 42
0.0000000001
 43
0.0000000001
 12
1.0
 22
0.0
 32
0.0
 13
1.0
 23
0.0
 33
0.0
 40
0.0
 40
0.0
 40
0.0
 40
0.0
 40
0.1428571428571428
 40
0.1428571428571428
 40
0.1428571428571428
 40
0.1428571428571428
 40
0.2857142857142857
 40
0.2857142857142857
 40
0.2857142857142857
 40
0.2857142857142857
 40
0.4285714285714285
 40
0.4285714285714285
 40
0.4285714285714285
 40
0.4285714285714285
 40
0.5714285714285714
 40
0.5714285714285714
 40
0.5714285714285714
 40
0.5714285714285714
 40
0.7142857142857143
 40
0.7142857142857143
 40
0.7142857142857143
 40
0.7142857142857143
 40
1.0
 40
1.0
 40
1.0
 40
1.0
 10
-154.1299
 20
-4.5289
 30
0.0
 10
-156.0925
 20
-1.7414
 30
0.0
 10
-157.1936
 20
-0.1225
 30
0.0
 10
-158.396
 20
2.7622
 30
0.0
 10
-158.396
 20
2.7622
 30
0.0
 10
-158.396
 20
2.7622
 30
0.0
 10
-153.8098
 20
2.7826
 30
0.0
 10
-153.8098
 20
2.7826
 30
0.0
 10
-153.8098
 20
2.7826
 30
0.0
 10
-153.8098
 20
2.7826
 30
0.0
 10
-153.8632
 20
6.39
 30
0.0
 10
-153.8632
 20
6.39
 30
0.0
 10
-153.8632
 20
6.39
 30
0.0
 10
-153.8632
 20
6.39
 30
0.0
 10
-150.1166
 20
6.3894
 30
0.0
 10
-150.1166
 20
6.3894
 30
0.0
 10
-150.1166
 20
6.3894
 30
0.0
 10
-150.1166
 20
6.3894
 30
0.0
 10
-150.121
 20
1.1147
 30
0.0
 10
-150.121
 20
1.1147
 30
0.0
 10
-150.121
 20
1.1147
 30
0.0
 10
-150.121
 20
1.1147
 30
0.0
 10
-154.1299
 20
-4.5289
 30
0.0
 10
-154.1299
 20
-4.5289
 30
0.0
  0
SPLINE
  5
70
330
1F
100
AcDbEntity
  8
layer 1
 62
     7
100
AcDbSpline
210
0.0
220
0.0
230
1.0
 70
    11
 71
     3
 72
    28
 73
    24
 74
     0
 42
0.0000000001
 43
0.0000000001
 12
1.0
 22
0.0
 32
0.0
 13
1.0
 23
0.0
 33
0.0
 40
0.0
 40
0.0
 40
0.0
 40
0.0
 40
0.1428571428571428
 40
0.1428571428571428
 40
0.1428571428571428
 40
0.1428571428571428
 40
0.2857142857142857
 40
0.2857142857142857
 40
0.2857142857142857
 40
0.2857142857142857
 40
0.4285714285714285
 40
0.4285714285714285
 40
0.4285714285714285
 40
0.4285714285714285
 40
0.5714285714285714
 40
0.5714285714285714
 40
0.5714285714285714
 40
0.5714285714285714
 40
0.7142857142857143
 40
0.7142857142857143
 40
0.7142857142857143
 40
0.7142857142857143
 40
1.0
 40
1.0
 40
1.0
 40
1.0
 10
-146.6434
 20
-0.5255
 30
0.0
 10
-146.6434
 20
-0.5255
 30
0.0
 10
-142.1928
 20
-0.5535
 30
0.0
 10
-142.1928
 20
-0.5535
 30
0.0
 10
-142.1928
 20
-0.5535
 30
0.0
 10
-142.1928
 20
-0.5535
 30
0.0
 10
-142.1724
 20
-6.7949
 30
0.0
 10
-142.1724
 20
-6.7949
 30
0.0
 10
-142.1724
 20
-6.7949
 30
0.0
 10
-142.1724
 20
-6.7949
 30
0.0
 10
-135.7327
 20
-6.7415
 30
0.0
 10
-135.7327
 20
-6.7415
 30
0.0
 10
-135.7327
 20
-6.7415
 30
0.0
 10
-135.7327
 20
-6.7415
 30
0.0
 10
-135.7333
 20
-14.019
 30
0.0
 10
-135.7333
 20
-14.019
 30
0.0
 10
-135.7333
 20
-14.019
 30
0.0
 10
-141.9375
 20
-13.3968
 30
0.0
 10
-146.726
 20
-11.5574
 30
0.0
 10
-151.5376
 20
-7.2658
 30
0.0
 10
-151.5376
 20
-7.2658
 30
0.0
 10
-151.5376
 20
-7.2658
 30
0.0
 10
-146.6434
 20
-0.5255
 30
0.0
 10
-146.6434
 20
-0.5255
 30
0.0
  0
SPLINE
  5
71
330
1F
100
AcDbEntity
  8
layer 1
 62
     7
100
AcDbSpline
210
0.0
220
0.0
230
1.0
 70
    11
 71
     3
 72
    20
 73
    16
 74
     0
 42
0.0000000001
 43
0.0000000001
 12
1.0
 22
0.0
 32
0.0
 13
1.0
 23
0.0
 33
0.0
 40
0.0
 40
0.0
 40
0.0
 40
0.0
 40
0.2
 40
0.2
 40
0.2
 40
0.2
 40
0.4
 40
0.4
 40
0.4
 40
0.4
 40
0.6
 40
0.6
 40
0.6
 40
0.6
 40
1.0
 40
1.0
 40
1.0
 40
1.0
 10
-157.1524
 20
-15.6762
 30
0.0
 10
-157.1524
 20
-15.6762
 30
0.0
 10
-153.4826
 20
-10.5578
 30
0.0
 10
-153.4826
 20
-10.5578
 30
0.0
 10
-153.4826
 20
-10.5578
 30
0.0
 10
-151.7259
 20
-12.1331
 30
0.0
 10
-147.5115
 20
-14.6411
 30
0.0
 10
-145.1055
 20
-15.6762
 30
0.0
 10
-145.1055
 20
-15.6762
 30
0.0
 10
-147.5115
 20
-16.7113
 30
0.0
 10
-151.7259
 20
-19.2193
 30
0.0
 10
-153.4826
 20
-20.7946
 30
0.0
 10
-153.4826
 20
-20.7946
 30
0.0
 10
-153.4826
 20
-20.7946
 30
0.0
 10
-157.1524
 20
-15.6762
 30
0.0
 10
-157.1524
 20
-15.6762
 30
0.0
  0
SPLINE
  5
72
330
1F
100
AcDbEntity
  8
layer 1
 62
     7
100
AcDbSpline
210
0.0
220
0.0
230
1.0
 70
    11
 71
     3
 72
    36
 73
    32
 74
     0
 42
0.0000000001
 43
0.0000000001
 12
1.0
 22
0.0
 32
0.0
 13
1.0
 23
0.0
 33
0.0
 40
0.0
 40
0.0
 40
0.0
 40
0.0
 40
0.1111111111111111
 40
0.1111111111111111
 40
0.1111111111111111
 40
0.1111111111111111
 40
0.2222222222222222
 40
0.2222222222222222
 40
0.2222222222222222
 40
0.2222222222222222
 40
0.3333333333333333
 40
0.3333333333333333
 40
0.3333333333333333
 40
0.3333333333333333
 40
0.4444444444444444
 40
0.4444444444444444
 40
0.4444444444444444
 40
0.4444444444444444
 40
0.5555555555555556
 40
0.5555555555555556
 40
0.5555555555555556
 40
0.5555555555555556
 40
0.6666666666666666
 40
0.6666666666666666
 40
0.6666666666666666
 40
0.6666666666666666
 40
0.7777777777777778
 40
0.7777777777777778
 40
0.7777777777777778
 40
0.7777777777777778
 40
1.0
 40
1.0
 40
1.0
 40
1.0
 10
-183.7017
 20
-28.1892
 30
0.0
 10
-183.7017
 20
-28.1892
 30
0.0
 10
-180.4079
 20
-28.1892
 30
0.0
 10
-180.4079
 20
-28.1892
 30
0.0
 10
-180.4079
 20
-28.1892
 30
0.0
 10
-180.4079
 20
-28.1892
 30
0.0
 10
-180.4079
 20
-34.58
 30
0.0
 10
-180.4079
 20
-34.58
 30
0.0
 10
-180.4079
 20
-34.58
 30
0.0
 10
-180.4079
 20
-34.58
 30
0.0
 10
-173.1512
 20
-34.5824
 30
0.0
 10
-173.1512
 20
-34.5824
 30
0.0
 10
-173.1512
 20
-34.5824
 30
0.0
 10
-173.1512
 20
-34.5824
 30
0.0
 10
-173.1267
 20
-45.5704
 30
0.0
 10
-173.1267
 20
-45.5704
 30
0.0
 10
-173.1267
 20
-45.5704
 30
0.0
 10
-173.1267
 20
-45.5704
 30
0.0
 10
-180.4079
 20
-45.5705
 30
0.0
 10
-180.4079
 20
-45.5705
 30
0.0
 10
-180.4079
 20
-45.5705
 30
0.0
 10
-180.4079
 20
-45.5705
 30
0.0
 10
-180.4079
 20
-52.0509
 30
0.0
 10
-180.4079
 20
-52.0509
 30
0.0
 10
-180.4079
 20
-52.0509
 30
0.0
 10
-180.4079
 20
-52.0509
 30
0.0
 10
-183.7017
 20
-52.0509
 30
0.0
 10
-183.7017
 20
-52.0509
 30
0.0
 10
-183.7017
 20
-52.0509
 30
0.0
 10
-183.7017
 20
-52.0509
 30
0.0
 10
-183.7017
 20
-28.1892
 30
0.0
 10
-183.7017
 20
-28.1892
 30
0.0
  0
SPLINE
  5
73
330
1F
100
AcDbEntity
  8
layer 1
 62
     7
100
AcDbSpline
210
0.0
220
0.0
230
1.0
 70
    11
 71
     3
 72
    28
 73
    24
 74
     0
 42
0.0000000001
 43
0.0000000001
 12
1.0
 22
0.0
 32
0.0
 13
1.0
 23
0.0
 33
0.0
 40
0.0
 40
0.0
 40
0.0
 40
0.0
 40
0.1428571428571428
 40
0.1428571428571428
 40
0.1428571428571428
 40
0.1428571428571428
 40
0.2857142857142857
 40
0.2857142857142857
 40
0.2857142857142857
 40
0.2857142857142857
 40
0.4285714285714285
 40
0.4285714285714285
 40
0.4285714285714285
 40
0.4285714285714285
 40
0.5714285714285714
 40
0.5714285714285714
 40
0.5714285714285714
 40
0.5714285714285714
 40
0.7142857142857143
 40
0.7142857142857143
 40
0.7142857142857143
 40
0.7142857142857143
 40
1.0
 40
1.0
 40
1.0
 40
1.0
 10
-165.3765
 20
-26.9242
 30
0.0
 10
-163.5614
 20
-29.1379
 30
0.0
 10
-162.5047
 20
-31.2609
 30
0.0
 10
-161.1132
 20
-34.146
 30
0.0
 10
-161.1132
 20
-34.146
 30
0.0
 10
-161.1132
 20
-34.146
 30
0.0
 10
-165.6577
 20
-34.2015
 30
0.0
 10
-165.6577
 20
-34.2015
 30
0.0
 10
-165.6577
 20
-34.2015
 30
0.0
 10
-165.6577
 20
-34.2015
 30
0.0
 10
-165.6043
 20
-37.8089
 30
0.0
 10
-165.6043
 20
-37.8089
 30
0.0
 10
-165.6043
 20
-37.8089
 30
0.0
 10
-165.6043
 20
-37.8089
 30
0.0
 10
-169.3509
 20
-37.8083
 30
0.0
 10
-169.3509
 20
-37.8083
 30
0.0
 10
-169.3509
 20
-37.8083
 30
0.0
 10
-169.3509
 20
-37.8083
 30
0.0
 10
-169.3465
 20
-32.5336
 30
0.0
 10
-169.3465
 20
-32.5336
 30
0.0
 10
-169.3465
 20
-32.5336
 30
0.0
 10
-169.3465
 20
-32.5336
 30
0.0
 10
-165.3765
 20
-26.9242
 30
0.0
 10
-165.3765
 20
-26.9242
 30
0.0
  0
SPLINE
  5
74
330
1F
100
AcDbEntity
  8
layer 1
 62
     7
100
AcDbSpline
210
0.0
220
0.0
230
1.0
 70
    11
 71
     3
 72
    28
 73
    24
 74
     0
 42
0.0000000001
 43
0.0000000001
 12
1.0
 22
0.0
 32
0.0
 13
1.0
 23
0.0
 33
0.0
 40
0.0
 40
0.0
 40
0.0
 40
0.0
 40
0.1428571428571428
 40
0.1428571428571428
 40
0.1428571428571428
 40
0.1428571428571428
 40
0.2857142857142857
 40
0.2857142857142857
 40
0.2857142857142857
 40
0.2857142857142857
 40
0.4285714285714285
 40
0.4285714285714285
 40
0.4285714285714285
 40
0.4285714285714285
 40
0.5714285714285714
 40
0.5714285714285714
 40
0.5714285714285714
 40
0.5714285714285714
 40
0.7142857142857143
 40
0.7142857142857143
 40
0.7142857142857143
 40
0.7142857142857143
 40
1.0
 40
1.0
 40
1.0
 40
1.0
 10
-172.8241
 20
-30.994
 30
0.0
 10
-172.8241
 20
-30.994
 30
0.0
 10
-177.2747
 20
-30.966
 30
0.0
 10
-177.2747
 20
-30.966
 30
0.0
 10
-177.2747
 20
-30.966
 30
0.0
 10
-177.2747
 20
-30.966
 30
0.0
 10
-177.2951
 20
-24.7246
 30
0.0
 10
-177.2951
 20
-24.7246
 30
0.0
 10
-177.2951
 20
-24.7246
 30
0.0
 10
-177.2951
 20
-24.7246
 30
0.0
 10
-183.7348
 20
-24.778
 30
0.0
 10
-183.7348
 20
-24.778
 30
0.0
 10
-183.7348
 20
-24.778
 30
0.0
 10
-183.7348
 20
-24.778
 30
0.0
 10
-183.7342
 20
-17.5004
 30
0.0
 10
-183.7342
 20
-17.5004
 30
0.0
 10
-183.7342
 20
-17.5004
 30
0.0
 10
-176.9022
 20
-17.9579
 30
0.0
 10
-171.8322
 20
-20.428
 30
0.0
 10
-167.9299
 20
-24.2537
 30
0.0
 10
-167.9299
 20
-24.2537
 30
0.0
 10
-167.9299
 20
-24.2537
 30
0.0
 10
-172.8241
 20
-30.994
 30
0.0
 10
-172.8241
 20
-30.994
 30
0.0
  0
SPLINE
  5
75
330
1F
100
AcDbEntity
  8
layer 1
 62
     7
100
AcDbSpline
210
0.0
220
0.0
230
1.0
 70
    11
 71
     3
 72
    20
 73
    16
 74
     0
 42
0.0000000001
 43
0.0000000001
 12
1.0
 22
0.0
 32
0.0
 13
1.0
 23
0.0
 33
0.0
 40
0.0
 40
0.0
 40
0.0
 40
0.0
 40
0.2
 40
0.2
 40
0.2
 40
0.2
 40
0.4
 40
0.4
 40
0.4
 40
0.4
 40
0.6
 40
0.6
 40
0.6
 40
0.6
 40
1.0
 40
1.0
 40
1.0
 40
1.0
 10
-162.2938
 20
-38.0592
 30
0.0
 10
-162.2938
 20
-38.0592
 30
0.0
 10
-157.1386
 20
-38.0592
 30
0.0
 10
-157.1386
 20
-38.0592
 30
0.0
 10
-157.1386
 20
-38.0592
 30
0.0
 10
-157.1386
 20
-38.0592
 30
0.0
 10
-157.1386
 20
-42.1283
 30
0.0
 10
-157.1386
 20
-42.1283
 30
0.0
 10
-157.1386
 20
-42.1283
 30
0.0
 10
-157.1386
 20
-42.1283
 30
0.0
 10
-162.2938
 20
-42.1283
 30
0.0
 10
-162.2938
 20
-42.1283
 30
0.0
 10
-162.2938
 20
-42.1283
 30
0.0
 10
-162.2938
 20
-42.1283
 30
0.0
 10
-162.2938
 20
-38.0592
 30
0.0
 10
-162.2938
 20
-38.0592
 30
0.0
  0
SPLINE
  5
76
330
1F
100
AcDbEntity
  8
layer 1
 62
     7
100
AcDbSpline
210
0.0
220
0.0
230
1.0
 70
    11
 71
     3
 72
    28
 73
    24
 74
     0
 42
0.0000000001
 43
0.0000000001
 12
1.0
 22
0.0
 32
0.0
 13
1.0
 23
0.0
 33
0.0
 40
0.0
 40
0.0
 40
0.0
 40
0.0
 40
0.1428571428571428
 40
0.1428571428571428
 40
0.1428571428571428
 40
0.1428571428571428
 40
0.2857142857142857
 40
0.2857142857142857
 40
0.2857142857142857
 40
0.2857142857142857
 40
0.4285714285714285
 40
0.4285714285714285
 40
0.4285714285714285
 40
0.4285714285714285
 40
0.5714285714285714
 40
0.5714285714285714
 40
0.5714285714285714
 40
0.5714285714285714
 40
0.7142857142857143
 40
0.7142857142857143
 40
0.7142857142857143
 40
0.7142857142857143
 40
1.0
 40
1.0
 40
1.0
 40
1.0
 10
-165.3376
 20
-53.1621
 30
0.0
 10
-163.375
 20
-50.3746
 30
0.0
 10
-162.2739
 20
-48.7558
 30
0.0
 10
-161.0715
 20
-45.8711
 30
0.0
 10
-161.0715
 20
-45.8711
 30
0.0
 10
-161.0715
 20
-45.8711
 30
0.0
 10
-165.6577
 20
-45.8507
 30
0.0
 10
-165.6577
 20
-45.8507
 30
0.0
 10
-165.6577
 20
-45.8507
 30
0.0
 10
-165.6577
 20
-45.8507
 30
0.0
 10
-165.6043
 20
-42.2433
 30
0.0
 10
-165.6043
 20
-42.2433
 30
0.0
 10
-165.6043
 20
-42.2433
 30
0.0
 10
-165.6043
 20
-42.2433
 30
0.0
 10
-169.3509
 20
-42.2439
 30
0.0
 10
-169.3509
 20
-42.2439
 30
0.0
 10
-169.3509
 20
-42.2439
 30
0.0
 10
-169.3509
 20
-42.2439
 30
0.0
 10
-169.3465
 20
-47.5185
 30
0.0
 10
-169.3465
 20
-47.5185
 30
0.0
 10
-169.3465
 20
-47.5185
 30
0.0
 10
-169.3465
 20
-47.5185
 30
0.0
 10
-165.3376
 20
-53.1621
 30
0.0
 10
-165.3376
 20
-53.1621
 30
0.0
  0
SPLINE
  5
77
330
1F
100
AcDbEntity
  8
layer 1
 62
     7
100
AcDbSpline
210
0.0
220
0.0
230
1.0
 70
    11
 71
     3
 72
    28
 73
    24
 74
     0
 42
0.0000000001
 43
0.0000000001
 12
1.0
 22
0.0
 32
0.0
 13
1.0
 23
0.0
 33
0.0
 40
0.0
 40
0.0
 40
0.0
 40
0.0
 40
0.1428571428571428
 40
0.1428571428571428
 40
0.1428571428571428
 40
0.1428571428571428
 40
0.2857142857142857
 40
0.2857142857142857
 40
0.2857142857142857
 40
0.2857142857142857
 40
0.4285714285714285
 40
0.4285714285714285
 40
0.4285714285714285
 40
0.4285714285714285
 40
0.5714285714285714
 40
0.5714285714285714
 40
0.5714285714285714
 40
0.5714285714285714
 40
0.7142857142857143
 40
0.7142857142857143
 40
0.7142857142857143
 40
0.7142857142857143
 40
1.0
 40
1.0
 40
1.0
 40
1.0
 10
-172.8241
 20
-49.1588
 30
0.0
 10
-172.8241
 20
-49.1588
 30
0.0
 10
-177.2747
 20
-49.1867
 30
0.0
 10
-177.2747
 20
-49.1867
 30
0.0
 10
-177.2747
 20
-49.1867
 30
0.0
 10
-177.2747
 20
-49.1867
 30
0.0
 10
-177.2951
 20
-55.4281
 30
0.0
 10
-177.2951
 20
-55.4281
 30
0.0
 10
-177.2951
 20
-55.4281
 30
0.0
 10
-177.2951
 20
-55.4281
 30
0.0
 10
-183.7348
 20
-55.3748
 30
0.0
 10
-183.7348
 20
-55.3748
 30
0.0
 10
-183.7348
 20
-55.3748
 30
0.0
 10
-183.7348
 20
-55.3748
 30
0.0
 10
-183.7342
 20
-62.6523
 30
0.0
 10
-183.7342
 20
-62.6523
 30
0.0
 10
-183.7342
 20
-62.6523
 30
0.0
 10
-177.53
 20
-62.03
 30
0.0
 10
-172.7415
 20
-60.1907
 30
0.0
 10
-167.9299
 20
-55.8991
 30
0.0
 10
-167.9299
 20
-55.8991
 30
0.0
 10
-167.9299
 20
-55.8991
 30
0.0
 10
-172.8241
 20
-49.1588
 30
0.0
 10
-172.8241
 20
-49.1588
 30
0.0
  0
SPLINE
  5
78
330
1F
100
AcDbEntity
  8
layer 1
 62
     7
100
AcDbSpline
210
0.0
220
0.0
230
1.0
 70
    11
 71
     3
 72
    20
 73
    16
 74
     0
 42
0.0000000001
 43
0.0000000001
 12
1.0
 22
0.0
 32
0.0
 13
1.0
 23
0.0
 33
0.0
 40
0.0
 40
0.0
 40
0.0
 40
0.0
 40
0.2
 40
0.2
 40
0.2
 40
0.2
 40
0.4
 40
0.4
 40
0.4
 40
0.4
 40
0.6
 40
0.6
 40
0.6
 40
0.6
 40
1.0
 40
1.0
 40
1.0
 40
1.0
 10
-162.3151
 20
-64.3094
 30
0.0
 10
-162.3151
 20
-64.3094
 30
0.0
 10
-165.9849
 20
-59.1911
 30
0.0
 10
-165.9849
 20
-59.1911
 30
0.0
 10
-165.9849
 20
-59.1911
 30
0.0
 10
-167.7416
 20
-60.7663
 30
0.0
 10
-171.956
 20
-63.2743
 30
0.0
 10
-174.362
 20
-64.3094
 30
0.0
 10
-174.362
 20
-64.3094
 30
0.0
 10
-171.956
 20
-65.3445
 30
0.0
 10
-167.7416
 20
-67.8526
 30
0.0
 10
-165.9849
 20
-69.4278
 30
0.0
 10
-165.9849
 20
-69.4278
 30
0.0
 10
-165.9849
 20
-69.4278
 30
0.0
 10
-162.3151
 20
-64.3094
 30
0.0
 10
-162.3151
 20
-64.3094
 30
0.0
  0
SPLINE
  5
79
330
1F
100
AcDbEntity
  8
layer 1
 62
     7
100
AcDbSpline
210
0.0
220
0.0
230
1.0
 70
    11
 71
     3
 72
    20
 73
    16
 74
     0
 42
0.0000000001
 43
0.0000000001
 12
1.0
 22
0.0
 32
0.0
 13
1.0
 23
0.0
 33
0.0
 40
0.0
 40
0.0
 40
0.0
 40
0.0
 40
0.2
 40
0.2
 40
0.2
 40
0.2
 40
0.4
 40
0.4
 40
0.4
 40
0.4
 40
0.6
 40
0.6
 40
0.6
 40
0.6
 40
1.0
 40
1.0
 40
1.0
 40
1.0
 10
-159.7212
 20
-61.248
 30
0.0
 10
-160.8535
 20
-59.0387
 30
0.0
 10
-162.1111
 20
-57.597
 30
0.0
 10
-163.3866
 20
-56.1863
 30
0.0
 10
-163.3866
 20
-56.1863
 30
0.0
 10
-163.3866
 20
-56.1863
 30
0.0
 10
-159.7212
 20
-51.0225
 30
0.0
 10
-159.7212
 20
-51.0225
 30
0.0
 10
-159.7212
 20
-51.0225
 30
0.0
 10
-159.7212
 20
-51.0225
 30
0.0
 10
-156.0557
 20
-56.1863
 30
0.0
 10
-156.0557
 20
-56.1863
 30
0.0
 10
-156.0557
 20
-56.1863
 30
0.0
 10
-157.3312
 20
-57.597
 30
0.0
 10
-158.5888
 20
-59.0387
 30
0.0
 10
-159.7212
 20
-61.248
 30
0.0
  0
SPLINE
  5
7A
330
1F
100
AcDbEntity
  8
layer 1
 62
     7
100
AcDbSpline
210
0.0
220
0.0
230
1.0
 70
    11
 71
     3
 72
    20
 73
    16
 74
     0
 42
0.0000000001
 43
0.0000000001
 12
1.0
 22
0.0
 32
0.0
 13
1.0
 23
0.0
 33
0.0
 40
0.0
 40
0.0
 40
0.0
 40
0.0
 40
0.2
 40
0.2
 40
0.2
 40
0.2
 40
0.4
 40
0.4
 40
0.4
 40
0.4
 40
0.6
 40
0.6
 40
0.6
 40
0.6
 40
1.0
 40
1.0
 40
1.0
 40
1.0
 10
-159.7212
 20
-77.459
 30
0.0
 10
-160.8535
 20
-75.2498
 30
0.0
 10
-162.1111
 20
-73.8081
 30
0.0
 10
-163.3866
 20
-72.3974
 30
0.0
 10
-163.3866
 20
-72.3974
 30
0.0
 10
-163.3866
 20
-72.3974
 30
0.0
 10
-159.7212
 20
-67.2335
 30
0.0
 10
-159.7212
 20
-67.2335
 30
0.0
 10
-159.7212
 20
-67.2335
 30
0.0
 10
-159.7212
 20
-67.2335
 30
0.0
 10
-156.0557
 20
-72.3974
 30
0.0
 10
-156.0557
 20
-72.3974
 30
0.0
 10
-156.0557
 20
-72.3974
 30
0.0
 10
-157.3312
 20
-73.8081
 30
0.0
 10
-158.5888
 20
-75.2498
 30
0.0
 10
-159.7212
 20
-77.459
 30
0.0
  0
SPLINE
  5
7B
330
1F
100
AcDbEntity
  8
layer 1
 62
     7
100
AcDbSpline
210
0.0
220
0.0
230
1.0
 70
    11
 71
     3
 72
    36
 73
    32
 74
     0
 42
0.0000000001
 43
0.0000000001
 12
1.0
 22
0.0
 32
0.0
 13
1.0
 23
0.0
 33
0.0
 40
0.0
 40
0.0
 40
0.0
 40
0.0
 40
0.1111111111111111
 40
0.1111111111111111
 40
0.1111111111111111
 40
0.1111111111111111
 40
0.2222222222222222
 40
0.2222222222222222
 40
0.2222222222222222
 40
0.2222222222222222
 40
0.3333333333333333
 40
0.3333333333333333
 40
0.3333333333333333
 40
0.3333333333333333
 40
0.4444444444444444
 40
0.4444444444444444
 40
0.4444444444444444
 40
0.4444444444444444
 40
0.5555555555555556
 40
0.5555555555555556
 40
0.5555555555555556
 40
0.5555555555555556
 40
0.6666666666666666
 40
0.6666666666666666
 40
0.6666666666666666
 40
0.6666666666666666
 40
0.7777777777777778
 40
0.7777777777777778
 40
0.7777777777777778
 40
0.7777777777777778
 40
1.0
 40
1.0
 40
1.0
 40
1.0
 10
-135.7658
 20
-28.1892
 30
0.0
 10
-135.7658
 20
-28.1892
 30
0.0
 10
-139.0596
 20
-28.1892
 30
0.0
 10
-139.0596
 20
-28.1892
 30
0.0
 10
-139.0596
 20
-28.1892
 30
0.0
 10
-139.0596
 20
-28.1892
 30
0.0
 10
-139.0596
 20
-34.58
 30
0.0
 10
-139.0596
 20
-34.58
 30
0.0
 10
-139.0596
 20
-34.58
 30
0.0
 10
-139.0596
 20
-34.58
 30
0.0
 10
-146.3163
 20
-34.5824
 30
0.0
 10
-146.3163
 20
-34.5824
 30
0.0
 10
-146.3163
 20
-34.5824
 30
0.0
 10
-146.3163
 20
-34.5824
 30
0.0
 10
-146.3409
 20
-45.5704
 30
0.0
 10
-146.3409
 20
-45.5704
 30
0.0
 10
-146.3409
 20
-45.5704
 30
0.0
 10
-146.3409
 20
-45.5704
 30
0.0
 10
-139.0596
 20
-45.5705
 30
0.0
 10
-139.0596
 20
-45.5705
 30
0.0
 10
-139.0596
 20
-45.5705
 30
0.0
 10
-139.0596
 20
-45.5705
 30
0.0
 10
-139.0596
 20
-52.0509
 30
0.0
 10
-139.0596
 20
-52.0509
 30
0.0
 10
-139.0596
 20
-52.0509
 30
0.0
 10
-139.0596
 20
-52.0509
 30
0.0
 10
-135.7658
 20
-52.0509
 30
0.0
 10
-135.7658
 20
-52.0509
 30
0.0
 10
-135.7658
 20
-52.0509
 30
0.0
 10
-135.7658
 20
-52.0509
 30
0.0
 10
-135.7658
 20
-28.1892
 30
0.0
 10
-135.7658
 20
-28.1892
 30
0.0
  0
SPLINE
  5
7C
330
1F
100
AcDbEntity
  8
layer 1
 62
     7
100
AcDbSpline
210
0.0
220
0.0
230
1.0
 70
    11
 71
     3
 72
    28
 73
    24
 74
     0
 42
0.0000000001
 43
0.0000000001
 12
1.0
 22
0.0
 32
0.0
 13
1.0
 23
0.0
 33
0.0
 40
0.0
 40
0.0
 40
0.0
 40
0.0
 40
0.1428571428571428
 40
0.1428571428571428
 40
0.1428571428571428
 40
0.1428571428571428
 40
0.2857142857142857
 40
0.2857142857142857
 40
0.2857142857142857
 40
0.2857142857142857
 40
0.4285714285714285
 40
0.4285714285714285
 40
0.4285714285714285
 40
0.4285714285714285
 40
0.5714285714285714
 40
0.5714285714285714
 40
0.5714285714285714
 40
0.5714285714285714
 40
0.7142857142857143
 40
0.7142857142857143
 40
0.7142857142857143
 40
0.7142857142857143
 40
1.0
 40
1.0
 40
1.0
 40
1.0
 10
-154.091
 20
-26.9242
 30
0.0
 10
-155.9061
 20
-29.1379
 30
0.0
 10
-156.9629
 20
-31.2609
 30
0.0
 10
-158.3544
 20
-34.146
 30
0.0
 10
-158.3544
 20
-34.146
 30
0.0
 10
-158.3544
 20
-34.146
 30
0.0
 10
-153.8098
 20
-34.2015
 30
0.0
 10
-153.8098
 20
-34.2015
 30
0.0
 10
-153.8098
 20
-34.2015
 30
0.0
 10
-153.8098
 20
-34.2015
 30
0.0
 10
-153.8632
 20
-37.8089
 30
0.0
 10
-153.8632
 20
-37.8089
 30
0.0
 10
-153.8632
 20
-37.8089
 30
0.0
 10
-153.8632
 20
-37.8089
 30
0.0
 10
-150.1166
 20
-37.8083
 30
0.0
 10
-150.1166
 20
-37.8083
 30
0.0
 10
-150.1166
 20
-37.8083
 30
0.0
 10
-150.1166
 20
-37.8083
 30
0.0
 10
-150.121
 20
-32.5336
 30
0.0
 10
-150.121
 20
-32.5336
 30
0.0
 10
-150.121
 20
-32.5336
 30
0.0
 10
-150.121
 20
-32.5336
 30
0.0
 10
-154.091
 20
-26.9242
 30
0.0
 10
-154.091
 20
-26.9242
 30
0.0
  0
SPLINE
  5
7D
330
1F
100
AcDbEntity
  8
layer 1
 62
     7
100
AcDbSpline
210
0.0
220
0.0
230
1.0
 70
    11
 71
     3
 72
    28
 73
    24
 74
     0
 42
0.0000000001
 43
0.0000000001
 12
1.0
 22
0.0
 32
0.0
 13
1.0
 23
0.0
 33
0.0
 40
0.0
 40
0.0
 40
0.0
 40
0.0
 40
0.1428571428571428
 40
0.1428571428571428
 40
0.1428571428571428
 40
0.1428571428571428
 40
0.2857142857142857
 40
0.2857142857142857
 40
0.2857142857142857
 40
0.2857142857142857
 40
0.4285714285714285
 40
0.4285714285714285
 40
0.4285714285714285
 40
0.4285714285714285
 40
0.5714285714285714
 40
0.5714285714285714
 40
0.5714285714285714
 40
0.5714285714285714
 40
0.7142857142857143
 40
0.7142857142857143
 40
0.7142857142857143
 40
0.7142857142857143
 40
1.0
 40
1.0
 40
1.0
 40
1.0
 10
-146.6434
 20
-30.994
 30
0.0
 10
-146.6434
 20
-30.994
 30
0.0
 10
-142.1928
 20
-30.966
 30
0.0
 10
-142.1928
 20
-30.966
 30
0.0
 10
-142.1928
 20
-30.966
 30
0.0
 10
-142.1928
 20
-30.966
 30
0.0
 10
-142.1724
 20
-24.7246
 30
0.0
 10
-142.1724
 20
-24.7246
 30
0.0
 10
-142.1724
 20
-24.7246
 30
0.0
 10
-142.1724
 20
-24.7246
 30
0.0
 10
-135.7327
 20
-24.778
 30
0.0
 10
-135.7327
 20
-24.778
 30
0.0
 10
-135.7327
 20
-24.778
 30
0.0
 10
-135.7327
 20
-24.778
 30
0.0
 10
-135.7333
 20
-17.5004
 30
0.0
 10
-135.7333
 20
-17.5004
 30
0.0
 10
-135.7333
 20
-17.5004
 30
0.0
 10
-142.5653
 20
-17.9579
 30
0.0
 10
-147.6353
 20
-20.428
 30
0.0
 10
-151.5376
 20
-24.2537
 30
0.0
 10
-151.5376
 20
-24.2537
 30
0.0
 10
-151.5376
 20
-24.2537
 30
0.0
 10
-146.6434
 20
-30.994
 30
0.0
 10
-146.6434
 20
-30.994
 30
0.0
  0
SPLINE
  5
7E
330
1F
100
AcDbEntity
  8
layer 1
 62
     7
100
AcDbSpline
210
0.0
220
0.0
230
1.0
 70
    11
 71
     3
 72
    28
 73
    24
 74
     0
 42
0.0000000001
 43
0.0000000001
 12
1.0
 22
0.0
 32
0.0
 13
1.0
 23
0.0
 33
0.0
 40
0.0
 40
0.0
 40
0.0
 40
0.0
 40
0.1428571428571428
 40
0.1428571428571428
 40
0.1428571428571428
 40
0.1428571428571428
 40
0.2857142857142857
 40
0.2857142857142857
 40
0.2857142857142857
 40
0.2857142857142857
 40
0.4285714285714285
 40
0.4285714285714285
 40
0.4285714285714285
 40
0.4285714285714285
 40
0.5714285714285714
 40
0.5714285714285714
 40
0.5714285714285714
 40
0.5714285714285714
 40
0.7142857142857143
 40
0.7142857142857143
 40
0.7142857142857143
 40
0.7142857142857143
 40
1.0
 40
1.0
 40
1.0
 40
1.0
 10
-154.1299
 20
-53.1621
 30
0.0
 10
-156.0925
 20
-50.3746
 30
0.0
 10
-157.1936
 20
-48.7558
 30
0.0
 10
-158.396
 20
-45.8711
 30
0.0
 10
-158.396
 20
-45.8711
 30
0.0
 10
-158.396
 20
-45.8711
 30
0.0
 10
-153.8098
 20
-45.8507
 30
0.0
 10
-153.8098
 20
-45.8507
 30
0.0
 10
-153.8098
 20
-45.8507
 30
0.0
 10
-153.8098
 20
-45.8507
 30
0.0
 10
-153.8632
 20
-42.2433
 30
0.0
 10
-153.8632
 20
-42.2433
 30
0.0
 10
-153.8632
 20
-42.2433
 30
0.0
 10
-153.8632
 20
-42.2433
 30
0.0
 10
-150.1166
 20
-42.2439
 30
0.0
 10
-150.1166
 20
-42.2439
 30
0.0
 10
-150.1166
 20
-42.2439
 30
0.0
 10
-150.1166
 20
-42.2439
 30
0.0
 10
-150.121
 20
-47.5185
 30
0.0
 10
-150.121
 20
-47.5185
 30
0.0
 10
-150.121
 20
-47.5185
 30
0.0
 10
-150.121
 20
-47.5185
 30
0.0
 10
-154.1299
 20
-53.1621
 30
0.0
 10
-154.1299
 20
-53.1621
 30
0.0
  0
SPLINE
  5
7F
330
1F
100
AcDbEntity
  8
layer 1
 62
     7
100
AcDbSpline
210
0.0
220
0.0
230
1.0
 70
    11
 71
     3
 72
    28
 73
    24
 74
     0
 42
0.0000000001
 43
0.0000000001
 12
1.0
 22
0.0
 32
0.0
 13
1.0
 23
0.0
 33
0.0
 40
0.0
 40
0.0
 40
0.0
 40
0.0
 40
0.1428571428571428
 40
0.1428571428571428
 40
0.1428571428571428
 40
0.1428571428571428
 40
0.2857142857142857
 40
0.2857142857142857
 40
0.2857142857142857
 40
0.2857142857142857
 40
0.4285714285714285
 40
0.4285714285714285
 40
0.4285714285714285
 40
0.4285714285714285
 40
0.5714285714285714
 40
0.5714285714285714
 40
0.5714285714285714
 40
0.5714285714285714
 40
0.7142857142857143
 40
0.7142857142857143
 40
0.7142857142857143
 40
0.7142857142857143
 40
1.0
 40
1.0
 40
1.0
 40
1.0
 10
-146.6434
 20
-49.1588
 30
0.0
 10
-146.6434
 20
-49.1588
 30
0.0
 10
-142.1928
 20
-49.1867
 30
0.0
 10
-142.1928
 20
-49.1867
 30
0.0
 10
-142.1928
 20
-49.1867
 30
0.0
 10
-142.1928
 20
-49.1867
 30
0.0
 10
-142.1724
 20
-55.4281
 30
0.0
 10
-142.1724
 20
-55.4281
 30
0.0
 10
-142.1724
 20
-55.4281
 30
0.0
 10
-142.1724
 20
-55.4281
 30
0.0
 10
-135.7327
 20
-55.3748
 30
0.0
 10
-135.7327
 20
-55.3748
 30
0.0
 10
-135.7327
 20
-55.3748
 30
0.0
 10
-135.7327
 20
-55.3748
 30
0.0
 10
-135.7333
 20
-62.6523
 30
0.0
 10
-135.7333
 20
-62.6523
 30
0.0
 10
-135.7333
 20
-62.6523
 30
0.0
 10
-141.9375
 20
-62.03
 30
0.0
 10
-146.726
 20
-60.1907
 30
0.0
 10
-151.5376
 20
-55.8991
 30
0.0
 10
-151.5376
 20
-55.8991
 30
0.0
 10
-151.5376
 20
-55.8991
 30
0.0
 10
-146.6434
 20
-49.1588
 30
0.0
 10
-146.6434
 20
-49.1588
 30
0.0
  0
SPLINE
  5
80
330
1F
100
AcDbEntity
  8
layer 1
 62
     7
100
AcDbSpline
210
0.0
220
0.0
230
1.0
 70
    11
 71
     3
 72
    20
 73
    16
 74
     0
 42
0.0000000001
 43
0.0000000001
 12
1.0
 22
0.0
 32
0.0
 13
1.0
 23
0.0
 33
0.0
 40
0.0
 40
0.0
 40
0.0
 40
0.0
 40
0.2
 40
0.2
 40
0.2
 40
0.2
 40
0.4
 40
0.4
 40
0.4
 40
0.4
 40
0.6
 40
0.6
 40
0.6
 40
0.6
 40
1.0
 40
1.0
 40
1.0
 40
1.0
 10
-157.1524
 20
-64.3094
 30
0.0
 10
-157.1524
 20
-64.3094
 30
0.0
 10
-153.4826
 20
-59.1911
 30
0.0
 10
-153.4826
 20
-59.1911
 30
0.0
 10
-153.4826
 20
-59.1911
 30
0.0
 10
-151.7259
 20
-60.7663
 30
0.0
 10
-147.5115
 20
-63.2743
 30
0.0
 10
-145.1055
 20
-64.3094
 30
0.0
 10
-145.1055
 20
-64.3094
 30
0.0
 10
-147.5115
 20
-65.3445
 30
0.0
 10
-151.7259
 20
-67.8526
 30
0.0
 10
-153.4826
 20
-69.4278
 30
0.0
 10
-153.4826
 20
-69.4278
 30
0.0
 10
-153.4826
 20
-69.4278
 30
0.0
 10
-157.1524
 20
-64.3094
 30
0.0
 10
-157.1524
 20
-64.3094
 30
0.0
  0
SPLINE
  5
81
330
1F
100
AcDbEntity
  8
layer 1
 62
     7
100
AcDbSpline
210
0.0
220
0.0
230
1.0
 70
    11
 71
     3
 72
    36
 73
    32
 74
     0
 42
0.0000000001
 43
0.0000000001
 12
1.0
 22
0.0
 32
0.0
 13
1.0
 23
0.0
 33
0.0
 40
0.0
 40
0.0
 40
0.0
 40
0.0
 40
0.1111111111111111
 40
0.1111111111111111
 40
0.1111111111111111
 40
0.1111111111111111
 40
0.2222222222222222
 40
0.2222222222222222
 40
0.2222222222222222
 40
0.2222222222222222
 40
0.3333333333333333
 40
0.3333333333333333
 40
0.3333333333333333
 40
0.3333333333333333
 40
0.4444444444444444
 40
0.4444444444444444
 40
0.4444444444444444
 40
0.4444444444444444
 40
0.5555555555555556
 40
0.5555555555555556
 40
0.5555555555555556
 40
0.5555555555555556
 40
0.6666666666666666
 40
0.6666666666666666
 40
0.6666666666666666
 40
0.6666666666666666
 40
0.7777777777777778
 40
0.7777777777777778
 40
0.7777777777777778
 40
0.7777777777777778
 40
1.0
 40
1.0
 40
1.0
 40
1.0
 10
-183.7017
 20
-75.6891
 30
0.0
 10
-183.7017
 20
-75.6891
 30
0.0
 10
-180.4079
 20
-75.6891
 30
0.0
 10
-180.4079
 20
-75.6891
 30
0.0
 10
-180.4079
 20
-75.6891
 30
0.0
 10
-180.4079
 20
-75.6891
 30
0.0
 10
-180.4079
 20
-82.0798
 30
0.0
 10
-180.4079
 20
-82.0798
 30
0.0
 10
-180.4079
 20
-82.0798
 30
0.0
 10
-180.4079
 20
-82.0798
 30
0.0
 10
-173.1512
 20
-82.0823
 30
0.0
 10
-173.1512
 20
-82.0823
 30
0.0
 10
-173.1512
 20
-82.0823
 30
0.0
 10
-173.1512
 20
-82.0823
 30
0.0
 10
-173.1267
 20
-93.0703
 30
0.0
 10
-173.1267
 20
-93.0703
 30
0.0
 10
-173.1267
 20
-93.0703
 30
0.0
 10
-173.1267
 20
-93.0703
 30
0.0
 10
-180.4079
 20
-93.0704
 30
0.0
 10
-180.4079
 20
-93.0704
 30
0.0
 10
-180.4079
 20
-93.0704
 30
0.0
 10
-180.4079
 20
-93.0704
 30
0.0
 10
-180.4079
 20
-99.5508
 30
0.0
 10
-180.4079
 20
-99.5508
 30
0.0
 10
-180.4079
 20
-99.5508
 30
0.0
 10
-180.4079
 20
-99.5508
 30
0.0
 10
-183.7017
 20
-99.5508
 30
0.0
 10
-183.7017
 20
-99.5508
 30
0.0
 10
-183.7017
 20
-99.5508
 30
0.0
 10
-183.7017
 20
-99.5508
 30
0.0
 10
-183.7017
 20
-75.6891
 30
0.0
 10
-183.7017
 20
-75.6891
 30
0.0
  0
SPLINE
  5
82
330
1F
100
AcDbEntity
  8
layer 1
 62
     7
100
AcDbSpline
210
0.0
220
0.0
230
1.0
 70
    11
 71
     3
 72
    28
 73
    24
 74
     0
 42
0.0000000001
 43
0.0000000001
 12
1.0
 22
0.0
 32
0.0
 13
1.0
 23
0.0
 33
0.0
 40
0.0
 40
0.0
 40
0.0
 40
0.0
 40
0.1428571428571428
 40
0.1428571428571428
 40
0.1428571428571428
 40
0.1428571428571428
 40
0.2857142857142857
 40
0.2857142857142857
 40
0.2857142857142857
 40
0.2857142857142857
 40
0.4285714285714285
 40
0.4285714285714285
 40
0.4285714285714285
 40
0.4285714285714285
 40
0.5714285714285714
 40
0.5714285714285714
 40
0.5714285714285714
 40
0.5714285714285714
 40
0.7142857142857143
 40
0.7142857142857143
 40
0.7142857142857143
 40
0.7142857142857143
 40
1.0
 40
1.0
 40
1.0
 40
1.0
 10
-165.3765
 20
-74.424
 30
0.0
 10
-163.5614
 20
-76.6378
 30
0.0
 10
-162.5047
 20
-78.7608
 30
0.0
 10
-161.1132
 20
-81.6458
 30
0.0
 10
-161.1132
 20
-81.6458
 30
0.0
 10
-161.1132
 20
-81.6458
 30
0.0
 10
-165.6577
 20
-81.7013
 30
0.0
 10
-165.6577
 20
-81.7013
 30
0.0
 10
-165.6577
 20
-81.7013
 30
0.0
 10
-165.6577
 20
-81.7013
 30
0.0
 10
-165.6043
 20
-85.3087
 30
0.0
 10
-165.6043
 20
-85.3087
 30
0.0
 10
-165.6043
 20
-85.3087
 30
0.0
 10
-165.6043
 20
-85.3087
 30
0.0
 10
-169.3509
 20
-85.3082
 30
0.0
 10
-169.3509
 20
-85.3082
 30
0.0
 10
-169.3509
 20
-85.3082
 30
0.0
 10
-169.3509
 20
-85.3082
 30
0.0
 10
-169.3465
 20
-80.0335
 30
0.0
 10
-169.3465
 20
-80.0335
 30
0.0
 10
-169.3465
 20
-80.0335
 30
0.0
 10
-169.3465
 20
-80.0335
 30
0.0
 10
-165.3765
 20
-74.424
 30
0.0
 10
-165.3765
 20
-74.424
 30
0.0
  0
SPLINE
  5
83
330
1F
100
AcDbEntity
  8
layer 1
 62
     7
100
AcDbSpline
210
0.0
220
0.0
230
1.0
 70
    11
 71
     3
 72
    28
 73
    24
 74
     0
 42
0.0000000001
 43
0.0000000001
 12
1.0
 22
0.0
 32
0.0
 13
1.0
 23
0.0
 33
0.0
 40
0.0
 40
0.0
 40
0.0
 40
0.0
 40
0.1428571428571428
 40
0.1428571428571428
 40
0.1428571428571428
 40
0.1428571428571428
 40
0.2857142857142857
 40
0.2857142857142857
 40
0.2857142857142857
 40
0.2857142857142857
 40
0.4285714285714285
 40
0.4285714285714285
 40
0.4285714285714285
 40
0.4285714285714285
 40
0.5714285714285714
 40
0.5714285714285714
 40
0.5714285714285714
 40
0.5714285714285714
 40
0.7142857142857143
 40
0.7142857142857143
 40
0.7142857142857143
 40
0.7142857142857143
 40
1.0
 40
1.0
 40
1.0
 40
1.0
 10
-172.8241
 20
-78.4938
 30
0.0
 10
-172.8241
 20
-78.4938
 30
0.0
 10
-177.2747
 20
-78.4659
 30
0.0
 10
-177.2747
 20
-78.4659
 30
0.0
 10
-177.2747
 20
-78.4659
 30
0.0
 10
-177.2747
 20
-78.4659
 30
0.0
 10
-177.2951
 20
-72.2245
 30
0.0
 10
-177.2951
 20
-72.2245
 30
0.0
 10
-177.2951
 20
-72.2245
 30
0.0
 10
-177.2951
 20
-72.2245
 30
0.0
 10
-183.7348
 20
-72.2778
 30
0.0
 10
-183.7348
 20
-72.2778
 30
0.0
 10
-183.7348
 20
-72.2778
 30
0.0
 10
-183.7348
 20
-72.2778
 30
0.0
 10
-183.7342
 20
-65.0003
 30
0.0
 10
-183.7342
 20
-65.0003
 30
0.0
 10
-183.7342
 20
-65.0003
 30
0.0
 10
-176.9022
 20
-65.4577
 30
0.0
 10
-171.8322
 20
-67.9279
 30
0.0
 10
-167.9299
 20
-71.7535
 30
0.0
 10
-167.9299
 20
-71.7535
 30
0.0
 10
-167.9299
 20
-71.7535
 30
0.0
 10
-172.8241
 20
-78.4938
 30
0.0
 10
-172.8241
 20
-78.4938
 30
0.0
  0
SPLINE
  5
84
330
1F
100
AcDbEntity
  8
layer 1
 62
     7
100
AcDbSpline
210
0.0
220
0.0
230
1.0
 70
    11
 71
     3
 72
    20
 73
    16
 74
     0
 42
0.0000000001
 43
0.0000000001
 12
1.0
 22
0.0
 32
0.0
 13
1.0
 23
0.0
 33
0.0
 40
0.0
 40
0.0
 40
0.0
 40
0.0
 40
0.2
 40
0.2
 40
0.2
 40
0.2
 40
0.4
 40
0.4
 40
0.4
 40
0.4
 40
0.6
 40
0.6
 40
0.6
 40
0.6
 40
1.0
 40
1.0
 40
1.0
 40
1.0
 10
-162.2938
 20
-85.5591
 30
0.0
 10
-162.2938
 20
-85.5591
 30
0.0
 10
-157.1386
 20
-85.5591
 30
0.0
 10
-157.1386
 20
-85.5591
 30
0.0
 10
-157.1386
 20
-85.5591
 30
0.0
 10
-157.1386
 20
-85.5591
 30
0.0
 10
-157.1386
 20
-89.6282
 30
0.0
 10
-157.1386
 20
-89.6282
 30
0.0
 10
-157.1386
 20
-89.6282
 30
0.0
 10
-157.1386
 20
-89.6282
 30
0.0
 10
-162.2938
 20
-89.6282
 30
0.0
 10
-162.2938
 20
-89.6282
 30
0.0
 10
-162.2938
 20
-89.6282
 30
0.0
 10
-162.2938
 20
-89.6282
 30
0.0
 10
-162.2938
 20
-85.5591
 30
0.0
 10
-162.2938
 20
-85.5591
 30
0.0
  0
SPLINE
  5
85
330
1F
100
AcDbEntity
  8
layer 1
 62
     7
100
AcDbSpline
210
0.0
220
0.0
230
1.0
 70
    11
 71
     3
 72
    28
 73
    24
 74
     0
 42
0.0000000001
 43
0.0000000001
 12
1.0
 22
0.0
 32
0.0
 13
1.0
 23
0.0
 33
0.0
 40
0.0
 40
0.0
 40
0.0
 40
0.0
 40
0.1428571428571428
 40
0.1428571428571428
 40
0.1428571428571428
 40
0.1428571428571428
 40
0.2857142857142857
 40
0.2857142857142857
 40
0.2857142857142857
 40
0.2857142857142857
 40
0.4285714285714285
 40
0.4285714285714285
 40
0.4285714285714285
 40
0.4285714285714285
 40
0.5714285714285714
 40
0.5714285714285714
 40
0.5714285714285714
 40
0.5714285714285714
 40
0.7142857142857143
 40
0.7142857142857143
 40
0.7142857142857143
 40
0.7142857142857143
 40
1.0
 40
1.0
 40
1.0
 40
1.0
 10
-165.3376
 20
-100.662
 30
0.0
 10
-163.375
 20
-97.8745
 30
0.0
 10
-162.2739
 20
-96.2556
 30
0.0
 10
-161.0715
 20
-93.3709
 30
0.0
 10
-161.0715
 20
-93.3709
 30
0.0
 10
-161.0715
 20
-93.3709
 30
0.0
 10
-165.6577
 20
-93.3506
 30
0.0
 10
-165.6577
 20
-93.3506
 30
0.0
 10
-165.6577
 20
-93.3506
 30
0.0
 10
-165.6577
 20
-93.3506
 30
0.0
 10
-165.6043
 20
-89.7431
 30
0.0
 10
-165.6043
 20
-89.7431
 30
0.0
 10
-165.6043
 20
-89.7431
 30
0.0
 10
-165.6043
 20
-89.7431
 30
0.0
 10
-169.3509
 20
-89.7437
 30
0.0
 10
-169.3509
 20
-89.7437
 30
0.0
 10
-169.3509
 20
-89.7437
 30
0.0
 10
-169.3509
 20
-89.7437
 30
0.0
 10
-169.3465
 20
-95.0184
 30
0.0
 10
-169.3465
 20
-95.0184
 30
0.0
 10
-169.3465
 20
-95.0184
 30
0.0
 10
-169.3465
 20
-95.0184
 30
0.0
 10
-165.3376
 20
-100.662
 30
0.0
 10
-165.3376
 20
-100.662
 30
0.0
  0
SPLINE
  5
86
330
1F
100
AcDbEntity
  8
layer 1
 62
     7
100
AcDbSpline
210
0.0
220
0.0
230
1.0
 70
    11
 71
     3
 72
    28
 73
    24
 74
     0
 42
0.0000000001
 43
0.0000000001
 12
1.0
 22
0.0
 32
0.0
 13
1.0
 23
0.0
 33
0.0
 40
0.0
 40
0.0
 40
0.0
 40
0.0
 40
0.1428571428571428
 40
0.1428571428571428
 40
0.1428571428571428
 40
0.1428571428571428
 40
0.2857142857142857
 40
0.2857142857142857
 40
0.2857142857142857
 40
0.2857142857142857
 40
0.4285714285714285
 40
0.4285714285714285
 40
0.4285714285714285
 40
0.4285714285714285
 40
0.5714285714285714
 40
0.5714285714285714
 40
0.5714285714285714
 40
0.5714285714285714
 40
0.7142857142857143
 40
0.7142857142857143
 40
0.7142857142857143
 40
0.7142857142857143
 40
1.0
 40
1.0
 40
1.0
 40
1.0
 10
-172.8241
 20
-96.6586
 30
0.0
 10
-172.8241
 20
-96.6586
 30
0.0
 10
-177.2747
 20
-96.6866
 30
0.0
 10
-177.2747
 20
-96.6866
 30
0.0
 10
-177.2747
 20
-96.6866
 30
0.0
 10
-177.2747
 20
-96.6866
 30
0.0
 10
-177.2951
 20
-102.928
 30
0.0
 10
-177.2951
 20
-102.928
 30
0.0
 10
-177.2951
 20
-102.928
 30
0.0
 10
-177.2951
 20
-102.928
 30
0.0
 10
-183.7348
 20
-102.8746
 30
0.0
 10
-183.7348
 20
-102.8746
 30
0.0
 10
-183.7348
 20
-102.8746
 30
0.0
 10
-183.7348
 20
-102.8746
 30
0.0
 10
-183.7342
 20
-110.1522
 30
0.0
 10
-183.7342
 20
-110.1522
 30
0.0
 10
-183.7342
 20
-110.1522
 30
0.0
 10
-177.53
 20
-109.5299
 30
0.0
 10
-172.7415
 20
-107.6905
 30
0.0
 10
-167.9299
 20
-103.3989
 30
0.0
 10
-167.9299
 20
-103.3989
 30
0.0
 10
-167.9299
 20
-103.3989
 30
0.0
 10
-172.8241
 20
-96.6586
 30
0.0
 10
-172.8241
 20
-96.6586
 30
0.0
  0
SPLINE
  5
87
330
1F
100
AcDbEntity
  8
layer 1
 62
     7
100
AcDbSpline
210
0.0
220
0.0
230
1.0
 70
    11
 71
     3
 72
    16
 73
    12
 74
     0
 42
0.0000000001
 43
0.0000000001
 12
1.0
 22
0.0
 32
0.0
 13
1.0
 23
0.0
 33
0.0
 40
0.0
 40
0.0
 40
0.0
 40
0.0
 40
0.25
 40
0.25
 40
0.25
 40
0.25
 40
0.5
 40
0.5
 40
0.5
 40
0.5
 40
1.0
 40
1.0
 40
1.0
 40
1.0
 10
-162.3151
 20
-111.8093
 30
0.0
 10
-162.3151
 20
-111.8093
 30
0.0
 10
-165.9849
 20
-106.6909
 30
0.0
 10
-165.9849
 20
-106.6909
 30
0.0
 10
-165.9849
 20
-106.6909
 30
0.0
 10
-167.7416
 20
-108.2662
 30
0.0
 10
-171.956
 20
-110.7742
 30
0.0
 10
-174.362
 20
-111.8093
 30
0.0
 10
-174.362
 20
-111.8093
 30
0.0
 10
-174.362
 20
-111.8093
 30
0.0
 10
-162.3151
 20
-111.8093
 30
0.0
 10
-162.3151
 20
-111.8093
 30
0.0
  0
SPLINE
  5
88
330
1F
100
AcDbEntity
  8
layer 1
 62
     7
100
AcDbSpline
210
0.0
220
0.0
230
1.0
 70
    11
 71
     3
 72
    20
 73
    16
 74
     0
 42
0.0000000001
 43
0.0000000001
 12
1.0
 22
0.0
 32
0.0
 13
1.0
 23
0.0
 33
0.0
 40
0.0
 40
0.0
 40
0.0
 40
0.0
 40
0.2
 40
0.2
 40
0.2
 40
0.2
 40
0.4
 40
0.4
 40
0.4
 40
0.4
 40
0.6
 40
0.6
 40
0.6
 40
0.6
 40
1.0
 40
1.0
 40
1.0
 40
1.0
 10
-159.7212
 20
-108.7478
 30
0.0
 10
-160.8535
 20
-106.5386
 30
0.0
 10
-162.1111
 20
-105.0968
 30
0.0
 10
-163.3866
 20
-103.6862
 30
0.0
 10
-163.3866
 20
-103.6862
 30
0.0
 10
-163.3866
 20
-103.6862
 30
0.0
 10
-159.7212
 20
-98.5223
 30
0.0
 10
-159.7212
 20
-98.5223
 30
0.0
 10
-159.7212
 20
-98.5223
 30
0.0
 10
-159.7212
 20
-98.5223
 30
0.0
 10
-156.0557
 20
-103.6862
 30
0.0
 10
-156.0557
 20
-103.6862
 30
0.0
 10
-156.0557
 20
-103.6862
 30
0.0
 10
-157.3312
 20
-105.0968
 30
0.0
 10
-158.5888
 20
-106.5386
 30
0.0
 10
-159.7212
 20
-108.7478
 30
0.0
  0
SPLINE
  5
89
330
1F
100
AcDbEntity
  8
layer 1
 62
     7
100
AcDbSpline
210
0.0
220
0.0
230
1.0
 70
    11
 71
     3
 72
    36
 73
    32
 74
     0
 42
0.0000000001
 43
0.0000000001
 12
1.0
 22
0.0
 32
0.0
 13
1.0
 23
0.0
 33
0.0
 40
0.0
 40
0.0
 40
0.0
 40
0.0
 40
0.1111111111111111
 40
0.1111111111111111
 40
0.1111111111111111
 40
0.1111111111111111
 40
0.2222222222222222
 40
0.2222222222222222
 40
0.2222222222222222
 40
0.2222222222222222
 40
0.3333333333333333
 40
0.3333333333333333
 40
0.3333333333333333
 40
0.3333333333333333
 40
0.4444444444444444
 40
0.4444444444444444
 40
0.4444444444444444
 40
0.4444444444444444
 40
0.5555555555555556
 40
0.5555555555555556
 40
0.5555555555555556
 40
0.5555555555555556
 40
0.6666666666666666
 40
0.6666666666666666
 40
0.6666666666666666
 40
0.6666666666666666
 40
0.7777777777777778
 40
0.7777777777777778
 40
0.7777777777777778
 40
0.7777777777777778
 40
1.0
 40
1.0
 40
1.0
 40
1.0
 10
-135.7658
 20
-75.6891
 30
0.0
 10
-135.7658
 20
-75.6891
 30
0.0
 10
-139.0596
 20
-75.6891
 30
0.0
 10
-139.0596
 20
-75.6891
 30
0.0
 10
-139.0596
 20
-75.6891
 30
0.0
 10
-139.0596
 20
-75.6891
 30
0.0
 10
-139.0596
 20
-82.0798
 30
0.0
 10
-139.0596
 20
-82.0798
 30
0.0
 10
-139.0596
 20
-82.0798
 30
0.0
 10
-139.0596
 20
-82.0798
 30
0.0
 10
-146.3163
 20
-82.0823
 30
0.0
 10
-146.3163
 20
-82.0823
 30
0.0
 10
-146.3163
 20
-82.0823
 30
0.0
 10
-146.3163
 20
-82.0823
 30
0.0
 10
-146.3409
 20
-93.0703
 30
0.0
 10
-146.3409
 20
-93.0703
 30
0.0
 10
-146.3409
 20
-93.0703
 30
0.0
 10
-146.3409
 20
-93.0703
 30
0.0
 10
-139.0596
 20
-93.0704
 30
0.0
 10
-139.0596
 20
-93.0704
 30
0.0
 10
-139.0596
 20
-93.0704
 30
0.0
 10
-139.0596
 20
-93.0704
 30
0.0
 10
-139.0596
 20
-99.5508
 30
0.0
 10
-139.0596
 20
-99.5508
 30
0.0
 10
-139.0596
 20
-99.5508
 30
0.0
 10
-139.0596
 20
-99.5508
 30
0.0
 10
-135.7658
 20
-99.5508
 30
0.0
 10
-135.7658
 20
-99.5508
 30
0.0
 10
-135.7658
 20
-99.5508
 30
0.0
 10
-135.7658
 20
-99.5508
 30
0.0
 10
-135.7658
 20
-75.6891
 30
0.0
 10
-135.7658
 20
-75.6891
 30
0.0
  0
SPLINE
  5
8A
330
1F
100
AcDbEntity
  8
layer 1
 62
     7
100
AcDbSpline
210
0.0
220
0.0
230
1.0
 70
    11
 71
     3
 72
    28
 73
    24
 74
     0
 42
0.0000000001
 43
0.0000000001
 12
1.0
 22
0.0
 32
0.0
 13
1.0
 23
0.0
 33
0.0
 40
0.0
 40
0.0
 40
0.0
 40
0.0
 40
0.1428571428571428
 40
0.1428571428571428
 40
0.1428571428571428
 40
0.1428571428571428
 40
0.2857142857142857
 40
0.2857142857142857
 40
0.2857142857142857
 40
0.2857142857142857
 40
0.4285714285714285
 40
0.4285714285714285
 40
0.4285714285714285
 40
0.4285714285714285
 40
0.5714285714285714
 40
0.5714285714285714
 40
0.5714285714285714
 40
0.5714285714285714
 40
0.7142857142857143
 40
0.7142857142857143
 40
0.7142857142857143
 40
0.7142857142857143
 40
1.0
 40
1.0
 40
1.0
 40
1.0
 10
-154.091
 20
-74.424
 30
0.0
 10
-155.9061
 20
-76.6378
 30
0.0
 10
-156.9629
 20
-78.7608
 30
0.0
 10
-158.3544
 20
-81.6458
 30
0.0
 10
-158.3544
 20
-81.6458
 30
0.0
 10
-158.3544
 20
-81.6458
 30
0.0
 10
-153.8098
 20
-81.7013
 30
0.0
 10
-153.8098
 20
-81.7013
 30
0.0
 10
-153.8098
 20
-81.7013
 30
0.0
 10
-153.8098
 20
-81.7013
 30
0.0
 10
-153.8632
 20
-85.3087
 30
0.0
 10
-153.8632
 20
-85.3087
 30
0.0
 10
-153.8632
 20
-85.3087
 30
0.0
 10
-153.8632
 20
-85.3087
 30
0.0
 10
-150.1166
 20
-85.3082
 30
0.0
 10
-150.1166
 20
-85.3082
 30
0.0
 10
-150.1166
 20
-85.3082
 30
0.0
 10
-150.1166
 20
-85.3082
 30
0.0
 10
-150.121
 20
-80.0335
 30
0.0
 10
-150.121
 20
-80.0335
 30
0.0
 10
-150.121
 20
-80.0335
 30
0.0
 10
-150.121
 20
-80.0335
 30
0.0
 10
-154.091
 20
-74.424
 30
0.0
 10
-154.091
 20
-74.424
 30
0.0
  0
SPLINE
  5
8B
330
1F
100
AcDbEntity
  8
layer 1
 62
     7
100
AcDbSpline
210
0.0
220
0.0
230
1.0
 70
    11
 71
     3
 72
    28
 73
    24
 74
     0
 42
0.0000000001
 43
0.0000000001
 12
1.0
 22
0.0
 32
0.0
 13
1.0
 23
0.0
 33
0.0
 40
0.0
 40
0.0
 40
0.0
 40
0.0
 40
0.1428571428571428
 40
0.1428571428571428
 40
0.1428571428571428
 40
0.1428571428571428
 40
0.2857142857142857
 40
0.2857142857142857
 40
0.2857142857142857
 40
0.2857142857142857
 40
0.4285714285714285
 40
0.4285714285714285
 40
0.4285714285714285
 40
0.4285714285714285
 40
0.5714285714285714
 40
0.5714285714285714
 40
0.5714285714285714
 40
0.5714285714285714
 40
0.7142857142857143
 40
0.7142857142857143
 40
0.7142857142857143
 40
0.7142857142857143
 40
1.0
 40
1.0
 40
1.0
 40
1.0
 10
-146.6434
 20
-78.4938
 30
0.0
 10
-146.6434
 20
-78.4938
 30
0.0
 10
-142.1928
 20
-78.4659
 30
0.0
 10
-142.1928
 20
-78.4659
 30
0.0
 10
-142.1928
 20
-78.4659
 30
0.0
 10
-142.1928
 20
-78.4659
 30
0.0
 10
-142.1724
 20
-72.2245
 30
0.0
 10
-142.1724
 20
-72.2245
 30
0.0
 10
-142.1724
 20
-72.2245
 30
0.0
 10
-142.1724
 20
-72.2245
 30
0.0
 10
-135.7327
 20
-72.2778
 30
0.0
 10
-135.7327
 20
-72.2778
 30
0.0
 10
-135.7327
 20
-72.2778
 30
0.0
 10
-135.7327
 20
-72.2778
 30
0.0
 10
-135.7333
 20
-65.0003
 30
0.0
 10
-135.7333
 20
-65.0003
 30
0.0
 10
-135.7333
 20
-65.0003
 30
0.0
 10
-142.5653
 20
-65.4577
 30
0.0
 10
-147.6353
 20
-67.9279
 30
0.0
 10
-151.5376
 20
-71.7535
 30
0.0
 10
-151.5376
 20
-71.7535
 30
0.0
 10
-151.5376
 20
-71.7535
 30
0.0
 10
-146.6434
 20
-78.4938
 30
0.0
 10
-146.6434
 20
-78.4938
 30
0.0
  0
SPLINE
  5
8C
330
1F
100
AcDbEntity
  8
layer 1
 62
     7
100
AcDbSpline
210
0.0
220
0.0
230
1.0
 70
    11
 71
     3
 72
    28
 73
    24
 74
     0
 42
0.0000000001
 43
0.0000000001
 12
1.0
 22
0.0
 32
0.0
 13
1.0
 23
0.0
 33
0.0
 40
0.0
 40
0.0
 40
0.0
 40
0.0
 40
0.1428571428571428
 40
0.1428571428571428
 40
0.1428571428571428
 40
0.1428571428571428
 40
0.2857142857142857
 40
0.2857142857142857
 40
0.2857142857142857
 40
0.2857142857142857
 40
0.4285714285714285
 40
0.4285714285714285
 40
0.4285714285714285
 40
0.4285714285714285
 40
0.5714285714285714
 40
0.5714285714285714
 40
0.5714285714285714
 40
0.5714285714285714
 40
0.7142857142857143
 40
0.7142857142857143
 40
0.7142857142857143
 40
0.7142857142857143
 40
1.0
 40
1.0
 40
1.0
 40
1.0
 10
-154.1299
 20
-100.662
 30
0.0
 10
-156.0925
 20
-97.8745
 30
0.0
 10
-157.1936
 20
-96.2556
 30
0.0
 10
-158.396
 20
-93.3709
 30
0.0
 10
-158.396
 20
-93.3709
 30
0.0
 10
-158.396
 20
-93.3709
 30
0.0
 10
-153.8098
 20
-93.3506
 30
0.0
 10
-153.8098
 20
-93.3506
 30
0.0
 10
-153.8098
 20
-93.3506
 30
0.0
 10
-153.8098
 20
-93.3506
 30
0.0
 10
-153.8632
 20
-89.7431
 30
0.0
 10
-153.8632
 20
-89.7431
 30
0.0
 10
-153.8632
 20
-89.7431
 30
0.0
 10
-153.8632
 20
-89.7431
 30
0.0
 10
-150.1166
 20
-89.7437
 30
0.0
 10
-150.1166
 20
-89.7437
 30
0.0
 10
-150.1166
 20
-89.7437
 30
0.0
 10
-150.1166
 20
-89.7437
 30
0.0
 10
-150.121
 20
-95.0184
 30
0.0
 10
-150.121
 20
-95.0184
 30
0.0
 10
-150.121
 20
-95.0184
 30
0.0
 10
-150.121
 20
-95.0184
 30
0.0
 10
-154.1299
 20
-100.662
 30
0.0
 10
-154.1299
 20
-100.662
 30
0.0
  0
SPLINE
  5
8D
330
1F
100
AcDbEntity
  8
layer 1
 62
     7
100
AcDbSpline
210
0.0
220
0.0
230
1.0
 70
    11
 71
     3
 72
    28
 73
    24
 74
     0
 42
0.0000000001
 43
0.0000000001
 12
1.0
 22
0.0
 32
0.0
 13
1.0
 23
0.0
 33
0.0
 40
0.0
 40
0.0
 40
0.0
 40
0.0
 40
0.1428571428571428
 40
0.1428571428571428
 40
0.1428571428571428
 40
0.1428571428571428
 40
0.2857142857142857
 40
0.2857142857142857
 40
0.2857142857142857
 40
0.2857142857142857
 40
0.4285714285714285
 40
0.4285714285714285
 40
0.4285714285714285
 40
0.4285714285714285
 40
0.5714285714285714
 40
0.5714285714285714
 40
0.5714285714285714
 40
0.5714285714285714
 40
0.7142857142857143
 40
0.7142857142857143
 40
0.7142857142857143
 40
0.7142857142857143
 40
1.0
 40
1.0
 40
1.0
 40
1.0
 10
-146.6434
 20
-96.6586
 30
0.0
 10
-146.6434
 20
-96.6586
 30
0.0
 10
-142.1928
 20
-96.6866
 30
0.0
 10
-142.1928
 20
-96.6866
 30
0.0
 10
-142.1928
 20
-96.6866
 30
0.0
 10
-142.1928
 20
-96.6866
 30
0.0
 10
-142.1724
 20
-102.928
 30
0.0
 10
-142.1724
 20
-102.928
 30
0.0
 10
-142.1724
 20
-102.928
 30
0.0
 10
-142.1724
 20
-102.928
 30
0.0
 10
-135.7327
 20
-102.8746
 30
0.0
 10
-135.7327
 20
-102.8746
 30
0.0
 10
-135.7327
 20
-102.8746
 30
0.0
 10
-135.7327
 20
-102.8746
 30
0.0
 10
-135.7333
 20
-110.1522
 30
0.0
 10
-135.7333
 20
-110.1522
 30
0.0
 10
-135.7333
 20
-110.1522
 30
0.0
 10
-141.9375
 20
-109.5299
 30
0.0
 10
-146.726
 20
-107.6905
 30
0.0
 10
-151.5376
 20
-103.3989
 30
0.0
 10
-151.5376
 20
-103.3989
 30
0.0
 10
-151.5376
 20
-103.3989
 30
0.0
 10
-146.6434
 20
-96.6586
 30
0.0
 10
-146.6434
 20
-96.6586
 30
0.0
  0
SPLINE
  5
8E
330
1F
100
AcDbEntity
  8
layer 1
 62
     7
100
AcDbSpline
210
0.0
220
0.0
230
1.0
 70
    11
 71
     3
 72
    16
 73
    12
 74
     0
 42
0.0000000001
 43
0.0000000001
 12
1.0
 22
0.0
 32
0.0
 13
1.0
 23
0.0
 33
0.0
 40
0.0
 40
0.0
 40
0.0
 40
0.0
 40
0.25
 40
0.25
 40
0.25
 40
0.25
 40
0.5
 40
0.5
 40
0.5
 40
0.5
 40
1.0
 40
1.0
 40
1.0
 40
1.0
 10
-157.1524
 20
-111.8093
 30
0.0
 10
-157.1524
 20
-111.8093
 30
0.0
 10
-153.4826
 20
-106.6909
 30
0.0
 10
-153.4826
 20
-106.6909
 30
0.0
 10
-153.4826
 20
-106.6909
 30
0.0
 10
-151.7259
 20
-108.2662
 30
0.0
 10
-147.5115
 20
-110.7742
 30
0.0
 10
-145.1055
 20
-111.8093
 30
0.0
 10
-145.1055
 20
-111.8093
 30
0.0
 10
-145.1055
 20
-111.8093
 30
0.0
 10
-157.1524
 20
-111.8093
 30
0.0
 10
-157.1524
 20
-111.8093
 30
0.0
  0
ENDSEC
  0
SECTION
  2
OBJECTS
  0
DICTIONARY
  5
C
330
0
100
AcDbDictionary
281
     1
  3
ACAD_GROUP
350
D
  3
ACAD_LAYOUT
350
1A
  3
ACAD_MATERIAL
350
3B
  3
ACAD_MLEADERSTYLE
350
B0
  3
ACAD_MLINESTYLE
350
17
  3
ACAD_PLOTSETTINGS
350
19
  3
ACAD_PLOTSTYLENAME
350
E
  3
ACAD_TABLESTYLE
350
AF
  3
ACAD_VISUALSTYLE
350
2A
  0
DICTIONARY
  5
D
102
{ACAD_REACTORS
330
C
102
}
330
C
100
AcDbDictionary
281
     1
  0
DICTIONARY
  5
1A
102
{ACAD_REACTORS
330
C
102
}
330
C
100
AcDbDictionary
281
     1
  3
Layout1
350
1E
  3
Layout2
350
26
  3
Model
350
22
  0
DICTIONARY
  5
3B
102
{ACAD_REACTORS
330
C
102
}
330
C
100
AcDbDictionary
281
     1
  3
ByBlock
350
3D
  3
ByLayer
350
3C
  3
Global
350
3E
  0
DICTIONARY
  5
B0
102
{ACAD_REACTORS
330
C
102
}
330
C
100
AcDbDictionary
281
     1
  0
DICTIONARY
  5
17
102
{ACAD_REACTORS
330
C
102
}
330
C
100
AcDbDictionary
281
     1
  3
Standard
350
18
  0
DICTIONARY
  5
19
102
{ACAD_REACTORS
330
C
102
}
330
C
100
AcDbDictionary
281
     1
  0
ACDBDICTIONARYWDFLT
  5
E
102
{ACAD_REACTORS
330
C
102
}
330
C
100
AcDbDictionary
281
     1
  3
Normal
350
F
100
AcDbDictionaryWithDefault
340
F
  0
DICTIONARY
  5
AF
102
{ACAD_REACTORS
330
C
102
}
330
C
100
AcDbDictionary
281
     1
  0
DICTIONARY
  5
2A
102
{ACAD_REACTORS
330
C
102
}
330
C
100
AcDbDictionary
281
     1
  3
2dWireframe
350
2F
  3
3D Hidden
350
31
  3
3dWireframe
350
30
  3
Basic
350
32
  3
Brighten
350
36
  3
ColorChange
350
3A
  3
Conceptual
350
34
  3
Dim
350
35
  3
Facepattern
350
39
  3
Flat
350
2B
  3
FlatWithEdges
350
2C
  3
Gouraud
350
2D
  3
GouraudWithEdges
350
2E
  3
Linepattern
350
38
  3
Realistic
350
33
  3
Thicken
350
37
  0
LAYOUT
  5
1E
102
{ACAD_REACTORS
330
1A
102
}
330
1A
100
AcDbPlotSettings
  1

  2
none_device
  4

  6

 40
0.0
 41
0.0
 42
0.0
 43
0.0
 44
0.0
 45
0.0
 46
0.0
 47
0.0
 48
0.0
 49
0.0
140
0.0
141
0.0
142
1.0
143
1.0
 70
   688
 72
     0
 73
     0
 74
     5
  7

 75
    16
 76
     0
 77
     2
 78
   300
147
1.0
148
0.0
149
0.0
100
AcDbLayout
  1
Layout1
 70
     1
 71
     1
 10
0.0
 20
0.0
 11
12.0
 21
9.0
 12
0.0
 22
0.0
 32
0.0
 14
1.000000000000000E+20
 24
1.000000000000000E+20
 34
1.000000000000000E+20
 15
-1.000000000000000E+20
 25
-1.000000000000000E+20
 35
-1.000000000000000E+20
146
0.0
 13
0.0
 23
0.0
 33
0.0
 16
1.0
 26
0.0
 36
0.0
 17
0.0
 27
1.0
 37
0.0
 76
     0
330
1B
  0
LAYOUT
  5
26
102
{ACAD_REACTORS
330
1A
102
}
330
1A
100
AcDbPlotSettings
  1

  2
none_device
  4

  6

 40
0.0
 41
0.0
 42
0.0
 43
0.0
 44
0.0
 45
0.0
 46
0.0
 47
0.0
 48
0.0
 49
0.0
140
0.0
141
0.0
142
1.0
143
1.0
 70
   688
 72
     0
 73
     0
 74
     5
  7

 75
    16
 76
     0
 77
     2
 78
   300
147
1.0
148
0.0
149
0.0
100
AcDbLayout
  1
Layout2
 70
     1
 71
     2
 10
0.0
 20
0.0
 11
0.0
 21
0.0
 12
0.0
 22
0.0
 32
0.0
 14
0.0
 24
0.0
 34
0.0
 15
0.0
 25
0.0
 35
0.0
146
0.0
 13
0.0
 23
0.0
 33
0.0
 16
1.0
 26
0.0
 36
0.0
 17
0.0
 27
1.0
 37
0.0
 76
     0
330
23
  0
LAYOUT
  5
22
102
{ACAD_REACTORS
330
1A
102
}
330
1A
100
AcDbPlotSettings
  1

  2
none_device
  4

  6

 40
0.0
 41
0.0
 42
0.0
 43
0.0
 44
0.0
 45
0.0
 46
0.0
 47
0.0
 48
0.0
 49
0.0
140
0.0
141
0.0
142
1.0
143
1.0
 70
  1712
 72
     0
 73
     0
 74
     0
  7

 75
     0
 76
     0
 77
     2
 78
   300
147
1.0
148
0.0
149
0.0
100
AcDbLayout
  1
Model
 70
     1
 71
     0
 10
0.0
 20
0.0
 11
12.0
 21
9.0
 12
0.0
 22
0.0
 32
0.0
 14
-187.3627
 24
-115.1577
 34
0.0
 15
-132.1049
 25
131.8528
 35
0.0
146
0.0
 13
0.0
 23
0.0
 33
0.0
 16
1.0
 26
0.0
 36
0.0
 17
0.0
 27
1.0
 37
0.0
 76
     0
330
1F
331
29
  0
MATERIAL
  5
3D
102
{ACAD_REACTORS
330
3B
102
}
330
3B
100
AcDbMaterial
  1
ByBlock
 72
     1
 94
      127
  0
MATERIAL
  5
3C
102
{ACAD_REACTORS
330
3B
102
}
330
3B
100
AcDbMaterial
  1
ByLayer
 72
     1
 94
      127
  0
MATERIAL
  5
3E
102
{ACAD_REACTORS
330
3B
102
}
330
3B
100
AcDbMaterial
  1
Global
 72
     1
 94
      127
  0
MLINESTYLE
  5
18
102
{ACAD_REACTORS
330
17
102
}
330
17
100
AcDbMlineStyle
  2
Standard
 70
     0
  3

 62
   256
 51
90.0
 52
90.0
 71
     2
 49
0.5
 62
   256
  6
BYLAYER
 49
-0.5
 62
   256
  6
BYLAYER
  0
ACDBPLACEHOLDER
  5
F
102
{ACAD_REACTORS
330
E
102
}
330
E
  0
VISUALSTYLE
  5
2F
102
{ACAD_REACTORS
330
2A
102
}
102
{ACAD_XDICTIONARY
360
97
102
}
330
2A
100
AcDbVisualStyle
  2
2dWireframe
 70
     4
 71
     0
 72
     2
 73
     0
 90
        0
 40
-0.6
 41
-30.0
 62
     5
 63
     7
421
 16777215
 74
     1
 91
        4
 64
     7
 65
   257
 75
     1
175
     1
 42
1.0
 92
        0
 66
   257
 43
1.0
 76
     1
 77
     6
 78
     2
 67
     7
 79
     5
170
     0
171
     0
290
     0
174
     0
 93
        1
 44
0.0
173
     0
291
     0
 45
0.0
  0
VISUALSTYLE
  5
31
102
{ACAD_REACTORS
330
2A
102
}
102
{ACAD_XDICTIONARY
360
9B
102
}
330
2A
100
AcDbVisualStyle
  2
3D Hidden
 70
     6
 71
     1
 72
     2
 73
     2
 90
        0
 40
-0.6
 41
-30.0
 62
     5
 63
     7
421
 16777215
 74
     2
 91
        2
 64
     7
 65
   257
 75
     2
175
     1
 42
40.0
 92
        0
 66
   257
 43
1.0
 76
     1
 77
     6
 78
     2
 67
     7
 79
     3
170
     0
171
     0
290
     0
174
     0
 93
        1
 44
0.0
173
     0
291
     0
 45
0.0
  0
VISUALSTYLE
  5
30
102
{ACAD_REACTORS
330
2A
102
}
102
{ACAD_XDICTIONARY
360
99
102
}
330
2A
100
AcDbVisualStyle
  2
3dWireframe
 70
     5
 71
     0
 72
     2
 73
     0
 90
        0
 40
-0.6
 41
-30.0
 62
     5
 63
     7
421
 16777215
 74
     1
 91
        4
 64
     7
 65
   257
 75
     1
175
     1
 42
1.0
 92
        0
 66
   257
 43
1.0
 76
     1
 77
     6
 78
     2
 67
     7
 79
     5
170
     0
171
     0
290
     0
174
     0
 93
        1
 44
0.0
173
     0
291
     0
 45
0.0
  0
VISUALSTYLE
  5
32
102
{ACAD_REACTORS
330
2A
102
}
102
{ACAD_XDICTIONARY
360
9D
102
}
330
2A
100
AcDbVisualStyle
  2
Basic
 70
     7
 71
     1
 72
     0
 73
     1
 90
        0
 40
-0.6
 41
-30.0
 62
     5
 63
     7
421
 16777215
 74
     0
 91
        4
 64
     7
 65
   257
 75
     1
175
     1
 42
1.0
 92
        8
 66
     7
 43
1.0
 76
     1
 77
     6
 78
     2
 67
     7
 79
     5
170
     0
171
     0
290
     0
174
     0
 93
        1
 44
0.0
173
     0
291
     1
 45
0.0
  0
VISUALSTYLE
  5
36
102
{ACAD_REACTORS
330
2A
102
}
102
{ACAD_XDICTIONARY
360
A5
102
}
330
2A
100
AcDbVisualStyle
  2
Brighten
 70
    12
 71
     2
 72
     2
 73
     0
 90
        0
 40
-0.6
 41
-30.0
 62
     5
 63
     7
421
 16777215
 74
     1
 91
        4
 64
     7
 65
   257
 75
     1
175
     1
 42
1.0
 92
        8
 66
     7
 43
1.0
 76
     1
 77
     6
 78
     2
 67
     7
 79
     5
170
     0
171
     0
290
     0
174
     0
 93
        1
 44
50.0
173
     0
291
     1
 45
0.0
  0
VISUALSTYLE
  5
3A
102
{ACAD_REACTORS
330
2A
102
}
102
{ACAD_XDICTIONARY
360
AD
102
}
330
2A
100
AcDbVisualStyle
  2
ColorChange
 70
    16
 71
     2
 72
     2
 73
     3
 90
        0
 40
-0.6
 41
-30.0
 62
     5
 63
     8
421
  8421504
 74
     1
 91
        4
 64
     7
 65
   257
 75
     1
175
     1
 42
1.0
 92
        8
 66
     8
424
  8421504
 43
1.0
 76
     1
 77
     6
 78
     2
 67
     7
 79
     5
170
     0
171
     0
290
     0
174
     0
 93
        1
 44
0.0
173
     0
291
     1
 45
0.0
  0
VISUALSTYLE
  5
34
102
{ACAD_REACTORS
330
2A
102
}
102
{ACAD_XDICTIONARY
360
A1
102
}
330
2A
100
AcDbVisualStyle
  2
Conceptual
 70
     9
 71
     3
 72
     2
 73
     0
 90
        0
 40
-0.6
 41
-30.0
 62
     5
 63
     7
421
 16777215
 74
     2
 91
        2
 64
     7
 65
   257
 75
     1
175
     1
 42
40.0
 92
        8
 66
     7
 43
1.0
 76
     1
 77
     6
 78
     2
 67
     7
 79
     3
170
     0
171
     0
290
     0
174
     0
 93
        1
 44
0.0
173
     0
291
     0
 45
0.0
  0
VISUALSTYLE
  5
35
102
{ACAD_REACTORS
330
2A
102
}
102
{ACAD_XDICTIONARY
360
A3
102
}
330
2A
100
AcDbVisualStyle
  2
Dim
 70
    11
 71
     2
 72
     2
 73
     0
 90
        0
 40
-0.6
 41
-30.0
 62
     5
 63
     7
421
 16777215
 74
     1
 91
        4
 64
     7
 65
   257
 75
     1
175
     1
 42
1.0
 92
        8
 66
     7
 43
1.0
 76
     1
 77
     6
 78
     2
 67
     7
 79
     5
170
     0
171
     0
290
     0
174
     0
 93
        1
 44
-50.0
173
     0
291
     1
 45
0.0
  0
VISUALSTYLE
  5
39
102
{ACAD_REACTORS
330
2A
102
}
102
{ACAD_XDICTIONARY
360
AB
102
}
330
2A
100
AcDbVisualStyle
  2
Facepattern
 70
    15
 71
     2
 72
     2
 73
     0
 90
        0
 40
-0.6
 41
-30.0
 62
     5
 63
     7
421
 16777215
 74
     1
 91
        4
 64
     7
 65
   257
 75
     1
175
     1
 42
1.0
 92
        8
 66
     7
 43
1.0
 76
     1
 77
     6
 78
     2
 67
     7
 79
     5
170
     0
171
     0
290
     0
174
     0
 93
        1
 44
0.0
173
     0
291
     1
 45
0.0
  0
VISUALSTYLE
  5
2B
102
{ACAD_REACTORS
330
2A
102
}
102
{ACAD_XDICTIONARY
360
8F
102
}
330
2A
100
AcDbVisualStyle
  2
Flat
 70
     0
 71
     2
 72
     1
 73
     1
 90
        2
 40
-0.6
 41
30.0
 62
     5
 63
     7
421
 16777215
 74
     0
 91
        4
 64
     7
 65
   257
 75
     1
175
     1
 42
1.0
 92
        8
 66
     7
 43
1.0
 76
     1
 77
     6
 78
     2
 67
     7
 79
     5
170
     0
171
     0
290
     0
174
     0
 93
       13
 44
0.0
173
     0
291
     1
 45
0.0
  0
VISUALSTYLE
  5
2C
102
{ACAD_REACTORS
330
2A
102
}
102
{ACAD_XDICTIONARY
360
91
102
}
330
2A
100
AcDbVisualStyle
  2
FlatWithEdges
 70
     1
 71
     2
 72
     1
 73
     1
 90
        2
 40
-0.6
 41
30.0
 62
     5
 63
     7
421
 16777215
 74
     1
 91
        4
 64
     7
 65
   257
 75
     1
175
     1
 42
1.0
 92
        0
 66
   257
 43
1.0
 76
     1
 77
     6
 78
     2
 67
     7
 79
     5
170
     0
171
     0
290
     0
174
     0
 93
       13
 44
0.0
173
     0
291
     1
 45
0.0
  0
VISUALSTYLE
  5
2D
102
{ACAD_REACTORS
330
2A
102
}
102
{ACAD_XDICTIONARY
360
93
102
}
330
2A
100
AcDbVisualStyle
  2
Gouraud
 70
     2
 71
     2
 72
     2
 73
     1
 90
        2
 40
-0.6
 41
30.0
 62
     5
 63
     7
421
 16777215
 74
     0
 91
        4
 64
     7
 65
   257
 75
     1
175
     1
 42
1.0
 92
        0
 66
     7
 43
1.0
 76
     1
 77
     6
 78
     2
 67
     7
 79
     5
170
     0
171
     0
290
     0
174
     0
 93
       13
 44
0.0
173
     0
291
     1
 45
0.0
  0
VISUALSTYLE
  5
2E
102
{ACAD_REACTORS
330
2A
102
}
102
{ACAD_XDICTIONARY
360
95
102
}
330
2A
100
AcDbVisualStyle
  2
GouraudWithEdges
 70
     3
 71
     2
 72
     2
 73
     1
 90
        2
 40
-0.6
 41
30.0
 62
     5
 63
     7
421
 16777215
 74
     1
 91
        4
 64
     7
 65
   257
 75
     1
175
     1
 42
1.0
 92
        0
 66
   257
 43
1.0
 76
     1
 77
     6
 78
     2
 67
     7
 79
     5
170
     0
171
     0
290
     0
174
     0
 93
       13
 44
0.0
173
     0
291
     1
 45
0.0
  0
VISUALSTYLE
  5
38
102
{ACAD_REACTORS
330
2A
102
}
102
{ACAD_XDICTIONARY
360
A9
102
}
330
2A
100
AcDbVisualStyle
  2
Linepattern
 70
    14
 71
     2
 72
     2
 73
     0
 90
        0
 40
-0.6
 41
-30.0
 62
     5
 63
     7
421
 16777215
 74
     1
 91
        4
 64
     7
 65
   257
 75
     7
175
     7
 42
1.0
 92
        8
 66
     7
 43
1.0
 76
     1
 77
     6
 78
     2
 67
     7
 79
     5
170
     0
171
     0
290
     0
174
     0
 93
        1
 44
0.0
173
     0
291
     1
 45
0.0
  0
VISUALSTYLE
  5
33
102
{ACAD_REACTORS
330
2A
102
}
102
{ACAD_XDICTIONARY
360
9F
102
}
330
2A
100
AcDbVisualStyle
  2
Realistic
 70
     8
 71
     2
 72
     2
 73
     0
 90
        0
 40
-0.6
 41
-30.0
 62
     5
 63
     7
421
 16777215
 74
     1
 91
        0
 64
     7
 65
   257
 75
     1
175
     1
 42
1.0
 92
        8
 66
     8
424
  7895160
 43
1.0
 76
     1
 77
     6
 78
     2
 67
     7
 79
     5
170
     0
171
     0
290
     0
174
     0
 93
       13
 44
0.0
173
     0
291
     0
 45
0.0
  0
VISUALSTYLE
  5
37
102
{ACAD_REACTORS
330
2A
102
}
102
{ACAD_XDICTIONARY
360
A7
102
}
330
2A
100
AcDbVisualStyle
  2
Thicken
 70
    13
 71
     2
 72
     2
 73
     0
 90
        0
 40
-0.6
 41
-30.0
 62
     5
 63
     7
421
 16777215
 74
     1
 91
        4
 64
     7
 65
   257
 75
     1
175
     1
 42
1.0
 92
       12
 66
     7
 43
1.0
 76
     1
 77
     6
 78
     2
 67
     7
 79
     5
170
     0
171
     0
290
     0
174
     0
 93
        1
 44
0.0
173
     0
291
     1
 45
0.0
  0
DICTIONARY
  5
97
330
2F
100
AcDbDictionary
280
     1
281
     1
  3
ACAD_XREC_ROUNDTRIP
360
98
  0
DICTIONARY
  5
9B
330
31
100
AcDbDictionary
280
     1
281
     1
  3
ACAD_XREC_ROUNDTRIP
360
9C
  0
DICTIONARY
  5
99
330
30
100
AcDbDictionary
280
     1
281
     1
  3
ACAD_XREC_ROUNDTRIP
360
9A
  0
DICTIONARY
  5
9D
330
32
100
AcDbDictionary
280
     1
281
     1
  3
ACAD_XREC_ROUNDTRIP
360
9E
  0
DICTIONARY
  5
A5
330
36
100
AcDbDictionary
280
     1
281
     1
  3
ACAD_XREC_ROUNDTRIP
360
A6
  0
DICTIONARY
  5
AD
330
3A
100
AcDbDictionary
280
     1
281
     1
  3
ACAD_XREC_ROUNDTRIP
360
AE
  0
DICTIONARY
  5
A1
330
34
100
AcDbDictionary
280
     1
281
     1
  3
ACAD_XREC_ROUNDTRIP
360
A2
  0
DICTIONARY
  5
A3
330
35
100
AcDbDictionary
280
     1
281
     1
  3
ACAD_XREC_ROUNDTRIP
360
A4
  0
DICTIONARY
  5
AB
330
39
100
AcDbDictionary
280
     1
281
     1
  3
ACAD_XREC_ROUNDTRIP
360
AC
  0
DICTIONARY
  5
8F
330
2B
100
AcDbDictionary
280
     1
281
     1
  3
ACAD_XREC_ROUNDTRIP
360
90
  0
DICTIONARY
  5
91
330
2C
100
AcDbDictionary
280
     1
281
     1
  3
ACAD_XREC_ROUNDTRIP
360
92
  0
DICTIONARY
  5
93
330
2D
100
AcDbDictionary
280
     1
281
     1
  3
ACAD_XREC_ROUNDTRIP
360
94
  0
DICTIONARY
  5
95
330
2E
100
AcDbDictionary
280
     1
281
     1
  3
ACAD_XREC_ROUNDTRIP
360
96
  0
DICTIONARY
  5
A9
330
38
100
AcDbDictionary
280
     1
281
     1
  3
ACAD_XREC_ROUNDTRIP
360
AA
  0
DICTIONARY
  5
9F
330
33
100
AcDbDictionary
280
     1
281
     1
  3
ACAD_XREC_ROUNDTRIP
360
A0
  0
DICTIONARY
  5
A7
330
37
100
AcDbDictionary
280
     1
281
     1
  3
ACAD_XREC_ROUNDTRIP
360
A8
  0
XRECORD
  5
98
102
{ACAD_REACTORS
330
97
102
}
330
97
100
AcDbXrecord
280
     1
102
RTVSPropertyOp0
 70
     1
102
RTVSPropertyOp1
 70
     1
102
RTVSPropertyOp2
 70
     1
102
RTVSPropertyOp3
 70
     1
102
RTVSPropertyOp4
 70
     1
102
RTVSPropertyOp5
 70
     1
102
RTVSPropertyOp6
 70
     1
102
RTVSPropertyOp7
 70
     1
102
RTVSPropertyOp8
 70
     1
102
RTVSPropertyOp9
 70
     1
102
RTVSPropertyOp10
 70
     1
102
RTVSPropertyOp11
 70
     1
102
RTVSPropertyOp12
 70
     1
102
RTVSPropertyOp13
 70
     1
102
RTVSPropertyOp14
 70
     1
102
RTVSPropertyOp15
 70
     1
102
RTVSPropertyOp16
 70
     1
102
RTVSPropertyOp17
 70
     1
102
RTVSPropertyOp18
 70
     1
102
RTVSPropertyOp19
 70
     1
102
RTVSPropertyOp20
 70
     1
102
RTVSPropertyOp21
 70
     1
102
RTVSPropertyOp22
 70
     1
102
RTVSPropertyOp23
 70
     1
102
RTVSPropertyOp24
 70
     1
102
RTVSPropertyOp25
 70
     1
102
RTVSPropertyOp26
 70
     1
102
RTVSPropertyOp27
 70
     1
102
RTVSPropertyOp28
 70
     1
102
RTVSPropertyOp29
 70
     1
102
RTVSPropertyOp30
 70
     1
102
RTVSPropertyOp31
 70
     1
102
RTVSPropertyOp32
 70
     1
  0
XRECORD
  5
9C
102
{ACAD_REACTORS
330
9B
102
}
330
9B
100
AcDbXrecord
280
     1
102
RTVSPropertyOp0
 70
     1
102
RTVSPropertyOp1
 70
     1
102
RTVSPropertyOp2
 70
     1
102
RTVSPropertyOp3
 70
     1
102
RTVSPropertyOp4
 70
     1
102
RTVSPropertyOp5
 70
     1
102
RTVSPropertyOp6
 70
     1
102
RTVSPropertyOp7
 70
     1
102
RTVSPropertyOp8
 70
     1
102
RTVSPropertyOp9
 70
     1
102
RTVSPropertyOp10
 70
     1
102
RTVSPropertyOp11
 70
     1
102
RTVSPropertyOp12
 70
     1
102
RTVSPropertyOp13
 70
     1
102
RTVSPropertyOp14
 70
     1
102
RTVSPropertyOp15
 70
     1
102
RTVSPropertyOp16
 70
     1
102
RTVSPropertyOp17
 70
     1
102
RTVSPropertyOp18
 70
     1
102
RTVSPropertyOp19
 70
     1
102
RTVSPropertyOp20
 70
     1
102
RTVSPropertyOp21
 70
     1
102
RTVSPropertyOp22
 70
     1
102
RTVSPropertyOp23
 70
     1
102
RTVSPropertyOp24
 70
     1
102
RTVSPropertyOp25
 70
     1
102
RTVSPropertyOp26
 70
     1
102
RTVSPropertyOp27
 70
     1
102
RTVSPropertyOp28
 70
     1
102
RTVSPropertyOp29
 70
     1
102
RTVSPropertyOp30
 70
     1
102
RTVSPropertyOp31
 70
     1
102
RTVSPropertyOp32
 70
     1
  0
XRECORD
  5
9A
102
{ACAD_REACTORS
330
99
102
}
330
99
100
AcDbXrecord
280
     1
102
RTVSPropertyOp0
 70
     1
102
RTVSPropertyOp1
 70
     1
102
RTVSPropertyOp2
 70
     1
102
RTVSPropertyOp3
 70
     1
102
RTVSPropertyOp4
 70
     1
102
RTVSPropertyOp5
 70
     1
102
RTVSPropertyOp6
 70
     1
102
RTVSPropertyOp7
 70
     1
102
RTVSPropertyOp8
 70
     1
102
RTVSPropertyOp9
 70
     1
102
RTVSPropertyOp10
 70
     1
102
RTVSPropertyOp11
 70
     1
102
RTVSPropertyOp12
 70
     1
102
RTVSPropertyOp13
 70
     1
102
RTVSPropertyOp14
 70
     1
102
RTVSPropertyOp15
 70
     1
102
RTVSPropertyOp16
 70
     1
102
RTVSPropertyOp17
 70
     1
102
RTVSPropertyOp18
 70
     1
102
RTVSPropertyOp19
 70
     1
102
RTVSPropertyOp20
 70
     1
102
RTVSPropertyOp21
 70
     1
102
RTVSPropertyOp22
 70
     1
102
RTVSPropertyOp23
 70
     1
102
RTVSPropertyOp24
 70
     1
102
RTVSPropertyOp25
 70
     1
102
RTVSPropertyOp26
 70
     1
102
RTVSPropertyOp27
 70
     1
102
RTVSPropertyOp28
 70
     1
102
RTVSPropertyOp29
 70
     1
102
RTVSPropertyOp30
 70
     1
102
RTVSPropertyOp31
 70
     1
102
RTVSPropertyOp32
 70
     1
  0
XRECORD
  5
9E
102
{ACAD_REACTORS
330
9D
102
}
330
9D
100
AcDbXrecord
280
     1
102
RTVSPropertyOp0
 70
     1
102
RTVSPropertyOp1
 70
     1
102
RTVSPropertyOp2
 70
     1
102
RTVSPropertyOp3
 70
     1
102
RTVSPropertyOp4
 70
     1
102
RTVSPropertyOp5
 70
     1
102
RTVSPropertyOp6
 70
     1
102
RTVSPropertyOp7
 70
     1
102
RTVSPropertyOp8
 70
     1
102
RTVSPropertyOp9
 70
     1
102
RTVSPropertyOp10
 70
     1
102
RTVSPropertyOp11
 70
     1
102
RTVSPropertyOp12
 70
     1
102
RTVSPropertyOp13
 70
     1
102
RTVSPropertyOp14
 70
     1
102
RTVSPropertyOp15
 70
     1
102
RTVSPropertyOp16
 70
     1
102
RTVSPropertyOp17
 70
     1
102
RTVSPropertyOp18
 70
     1
102
RTVSPropertyOp19
 70
     1
102
RTVSPropertyOp20
 70
     1
102
RTVSPropertyOp21
 70
     1
102
RTVSPropertyOp22
 70
     1
102
RTVSPropertyOp23
 70
     1
102
RTVSPropertyOp24
 70
     1
102
RTVSPropertyOp25
 70
     1
102
RTVSPropertyOp26
 70
     1
102
RTVSPropertyOp27
 70
     1
102
RTVSPropertyOp28
 70
     1
102
RTVSPropertyOp29
 70
     1
102
RTVSPropertyOp30
 70
     1
102
RTVSPropertyOp31
 70
     1
102
RTVSPropertyOp32
 70
     1
  0
XRECORD
  5
A6
102
{ACAD_REACTORS
330
A5
102
}
330
A5
100
AcDbXrecord
280
     1
102
RTVSPropertyOp0
 70
     1
102
RTVSPropertyOp1
 70
     1
102
RTVSPropertyOp2
 70
     1
102
RTVSPropertyOp3
 70
     1
102
RTVSPropertyOp4
 70
     1
102
RTVSPropertyOp5
 70
     1
102
RTVSPropertyOp6
 70
     1
102
RTVSPropertyOp7
 70
     1
102
RTVSPropertyOp8
 70
     1
102
RTVSPropertyOp9
 70
     1
102
RTVSPropertyOp10
 70
     1
102
RTVSPropertyOp11
 70
     1
102
RTVSPropertyOp12
 70
     1
102
RTVSPropertyOp13
 70
     1
102
RTVSPropertyOp14
 70
     1
102
RTVSPropertyOp15
 70
     1
102
RTVSPropertyOp16
 70
     1
102
RTVSPropertyOp17
 70
     1
102
RTVSPropertyOp18
 70
     1
102
RTVSPropertyOp19
 70
     1
102
RTVSPropertyOp20
 70
     1
102
RTVSPropertyOp21
 70
     1
102
RTVSPropertyOp22
 70
     1
102
RTVSPropertyOp23
 70
     1
102
RTVSPropertyOp24
 70
     1
102
RTVSPropertyOp25
 70
     1
102
RTVSPropertyOp26
 70
     1
102
RTVSPropertyOp27
 70
     1
102
RTVSPropertyOp28
 70
     1
102
RTVSPropertyOp29
 70
     1
102
RTVSPropertyOp30
 70
     1
102
RTVSPropertyOp31
 70
     1
102
RTVSPropertyOp32
 70
     1
  0
XRECORD
  5
AE
102
{ACAD_REACTORS
330
AD
102
}
330
AD
100
AcDbXrecord
280
     1
102
RTVSPropertyOp0
 70
     1
102
RTVSPropertyOp1
 70
     1
102
RTVSPropertyOp2
 70
     1
102
RTVSPropertyOp3
 70
     1
102
RTVSPropertyOp4
 70
     1
102
RTVSPropertyOp5
 70
     1
102
RTVSPropertyOp6
 70
     1
102
RTVSPropertyOp7
 70
     1
102
RTVSPropertyOp8
 70
     1
102
RTVSPropertyOp9
 70
     1
102
RTVSPropertyOp10
 70
     1
102
RTVSPropertyOp11
 70
     1
102
RTVSPropertyOp12
 70
     1
102
RTVSPropertyOp13
 70
     1
102
RTVSPropertyOp14
 70
     1
102
RTVSPropertyOp15
 70
     1
102
RTVSPropertyOp16
 70
     1
102
RTVSPropertyOp17
 70
     1
102
RTVSPropertyOp18
 70
     1
102
RTVSPropertyOp19
 70
     1
102
RTVSPropertyOp20
 70
     1
102
RTVSPropertyOp21
 70
     1
102
RTVSPropertyOp22
 70
     1
102
RTVSPropertyOp23
 70
     1
102
RTVSPropertyOp24
 70
     1
102
RTVSPropertyOp25
 70
     1
102
RTVSPropertyOp26
 70
     1
102
RTVSPropertyOp27
 70
     1
102
RTVSPropertyOp28
 70
     1
102
RTVSPropertyOp29
 70
     1
102
RTVSPropertyOp30
 70
     1
102
RTVSPropertyOp31
 70
     1
102
RTVSPropertyOp32
 70
     1
  0
XRECORD
  5
A2
102
{ACAD_REACTORS
330
A1
102
}
330
A1
100
AcDbXrecord
280
     1
102
RTVSPropertyOp0
 70
     1
102
RTVSPropertyOp1
 70
     1
102
RTVSPropertyOp2
 70
     1
102
RTVSPropertyOp3
 70
     1
102
RTVSPropertyOp4
 70
     1
102
RTVSPropertyOp5
 70
     1
102
RTVSPropertyOp6
 70
     1
102
RTVSPropertyOp7
 70
     1
102
RTVSPropertyOp8
 70
     1
102
RTVSPropertyOp9
 70
     1
102
RTVSPropertyOp10
 70
     1
102
RTVSPropertyOp11
 70
     1
102
RTVSPropertyOp12
 70
     1
102
RTVSPropertyOp13
 70
     1
102
RTVSPropertyOp14
 70
     1
102
RTVSPropertyOp15
 70
     1
102
RTVSPropertyOp16
 70
     1
102
RTVSPropertyOp17
 70
     1
102
RTVSPropertyOp18
 70
     1
102
RTVSPropertyOp19
 70
     1
102
RTVSPropertyOp20
 70
     1
102
RTVSPropertyOp21
 70
     1
102
RTVSPropertyOp22
 70
     1
102
RTVSPropertyOp23
 70
     1
102
RTVSPropertyOp24
 70
     1
102
RTVSPropertyOp25
 70
     1
102
RTVSPropertyOp26
 70
     1
102
RTVSPropertyOp27
 70
     1
102
RTVSPropertyOp28
 70
     1
102
RTVSPropertyOp29
 70
     1
102
RTVSPropertyOp30
 70
     1
102
RTVSPropertyOp31
 70
     1
102
RTVSPropertyOp32
 70
     1
  0
XRECORD
  5
A4
102
{ACAD_REACTORS
330
A3
102
}
330
A3
100
AcDbXrecord
280
     1
102
RTVSPropertyOp0
 70
     1
102
RTVSPropertyOp1
 70
     1
102
RTVSPropertyOp2
 70
     1
102
RTVSPropertyOp3
 70
     1
102
RTVSPropertyOp4
 70
     1
102
RTVSPropertyOp5
 70
     1
102
RTVSPropertyOp6
 70
     1
102
RTVSPropertyOp7
 70
     1
102
RTVSPropertyOp8
 70
     1
102
RTVSPropertyOp9
 70
     1
102
RTVSPropertyOp10
 70
     1
102
RTVSPropertyOp11
 70
     1
102
RTVSPropertyOp12
 70
     1
102
RTVSPropertyOp13
 70
     1
102
RTVSPropertyOp14
 70
     1
102
RTVSPropertyOp15
 70
     1
102
RTVSPropertyOp16
 70
     1
102
RTVSPropertyOp17
 70
     1
102
RTVSPropertyOp18
 70
     1
102
RTVSPropertyOp19
 70
     1
102
RTVSPropertyOp20
 70
     1
102
RTVSPropertyOp21
 70
     1
102
RTVSPropertyOp22
 70
     1
102
RTVSPropertyOp23
 70
     1
102
RTVSPropertyOp24
 70
     1
102
RTVSPropertyOp25
 70
     1
102
RTVSPropertyOp26
 70
     1
102
RTVSPropertyOp27
 70
     1
102
RTVSPropertyOp28
 70
     1
102
RTVSPropertyOp29
 70
     1
102
RTVSPropertyOp30
 70
     1
102
RTVSPropertyOp31
 70
     1
102
RTVSPropertyOp32
 70
     1
  0
XRECORD
  5
AC
102
{ACAD_REACTORS
330
AB
102
}
330
AB
100
AcDbXrecord
280
     1
102
RTVSPropertyOp0
 70
     1
102
RTVSPropertyOp1
 70
     1
102
RTVSPropertyOp2
 70
     1
102
RTVSPropertyOp3
 70
     1
102
RTVSPropertyOp4
 70
     1
102
RTVSPropertyOp5
 70
     1
102
RTVSPropertyOp6
 70
     1
102
RTVSPropertyOp7
 70
     1
102
RTVSPropertyOp8
 70
     1
102
RTVSPropertyOp9
 70
     1
102
RTVSPropertyOp10
 70
     1
102
RTVSPropertyOp11
 70
     1
102
RTVSPropertyOp12
 70
     1
102
RTVSPropertyOp13
 70
     1
102
RTVSPropertyOp14
 70
     1
102
RTVSPropertyOp15
 70
     1
102
RTVSPropertyOp16
 70
     1
102
RTVSPropertyOp17
 70
     1
102
RTVSPropertyOp18
 70
     1
102
RTVSPropertyOp19
 70
     1
102
RTVSPropertyOp20
 70
     1
102
RTVSPropertyOp21
 70
     1
102
RTVSPropertyOp22
 70
     1
102
RTVSPropertyOp23
 70
     1
102
RTVSPropertyOp24
 70
     1
102
RTVSPropertyOp25
 70
     1
102
RTVSPropertyOp26
 70
     1
102
RTVSPropertyOp27
 70
     1
102
RTVSPropertyOp28
 70
     1
102
RTVSPropertyOp29
 70
     1
102
RTVSPropertyOp30
 70
     1
102
RTVSPropertyOp31
 70
     1
102
RTVSPropertyOp32
 70
     1
  0
XRECORD
  5
90
102
{ACAD_REACTORS
330
8F
102
}
330
8F
100
AcDbXrecord
280
     1
102
RTVSPropertyOp0
 70
     1
102
RTVSPropertyOp1
 70
     1
102
RTVSPropertyOp2
 70
     1
102
RTVSPropertyOp3
 70
     1
102
RTVSPropertyOp4
 70
     1
102
RTVSPropertyOp5
 70
     1
102
RTVSPropertyOp6
 70
     1
102
RTVSPropertyOp7
 70
     1
102
RTVSPropertyOp8
 70
     1
102
RTVSPropertyOp9
 70
     1
102
RTVSPropertyOp10
 70
     1
102
RTVSPropertyOp11
 70
     1
102
RTVSPropertyOp12
 70
     1
102
RTVSPropertyOp13
 70
     1
102
RTVSPropertyOp14
 70
     1
102
RTVSPropertyOp15
 70
     1
102
RTVSPropertyOp16
 70
     1
102
RTVSPropertyOp17
 70
     1
102
RTVSPropertyOp18
 70
     1
102
RTVSPropertyOp19
 70
     1
102
RTVSPropertyOp20
 70
     1
102
RTVSPropertyOp21
 70
     1
102
RTVSPropertyOp22
 70
     1
102
RTVSPropertyOp23
 70
     1
102
RTVSPropertyOp24
 70
     1
102
RTVSPropertyOp25
 70
     1
102
RTVSPropertyOp26
 70
     1
102
RTVSPropertyOp27
 70
     1
102
RTVSPropertyOp28
 70
     1
102
RTVSPropertyOp29
 70
     1
102
RTVSPropertyOp30
 70
     1
102
RTVSPropertyOp31
 70
     1
102
RTVSPropertyOp32
 70
     1
  0
XRECORD
  5
92
102
{ACAD_REACTORS
330
91
102
}
330
91
100
AcDbXrecord
280
     1
102
RTVSPropertyOp0
 70
     1
102
RTVSPropertyOp1
 70
     1
102
RTVSPropertyOp2
 70
     1
102
RTVSPropertyOp3
 70
     1
102
RTVSPropertyOp4
 70
     1
102
RTVSPropertyOp5
 70
     1
102
RTVSPropertyOp6
 70
     1
102
RTVSPropertyOp7
 70
     1
102
RTVSPropertyOp8
 70
     1
102
RTVSPropertyOp9
 70
     1
102
RTVSPropertyOp10
 70
     1
102
RTVSPropertyOp11
 70
     1
102
RTVSPropertyOp12
 70
     1
102
RTVSPropertyOp13
 70
     1
102
RTVSPropertyOp14
 70
     1
102
RTVSPropertyOp15
 70
     1
102
RTVSPropertyOp16
 70
     1
102
RTVSPropertyOp17
 70
     1
102
RTVSPropertyOp18
 70
     1
102
RTVSPropertyOp19
 70
     1
102
RTVSPropertyOp20
 70
     1
102
RTVSPropertyOp21
 70
     1
102
RTVSPropertyOp22
 70
     1
102
RTVSPropertyOp23
 70
     1
102
RTVSPropertyOp24
 70
     1
102
RTVSPropertyOp25
 70
     1
102
RTVSPropertyOp26
 70
     1
102
RTVSPropertyOp27
 70
     1
102
RTVSPropertyOp28
 70
     1
102
RTVSPropertyOp29
 70
     1
102
RTVSPropertyOp30
 70
     1
102
RTVSPropertyOp31
 70
     1
102
RTVSPropertyOp32
 70
     1
  0
XRECORD
  5
94
102
{ACAD_REACTORS
330
93
102
}
330
93
100
AcDbXrecord
280
     1
102
RTVSPropertyOp0
 70
     1
102
RTVSPropertyOp1
 70
     1
102
RTVSPropertyOp2
 70
     1
102
RTVSPropertyOp3
 70
     1
102
RTVSPropertyOp4
 70
     1
102
RTVSPropertyOp5
 70
     1
102
RTVSPropertyOp6
 70
     1
102
RTVSPropertyOp7
 70
     1
102
RTVSPropertyOp8
 70
     1
102
RTVSPropertyOp9
 70
     1
102
RTVSPropertyOp10
 70
     1
102
RTVSPropertyOp11
 70
     1
102
RTVSPropertyOp12
 70
     1
102
RTVSPropertyOp13
 70
     1
102
RTVSPropertyOp14
 70
     1
102
RTVSPropertyOp15
 70
     1
102
RTVSPropertyOp16
 70
     1
102
RTVSPropertyOp17
 70
     1
102
RTVSPropertyOp18
 70
     1
102
RTVSPropertyOp19
 70
     1
102
RTVSPropertyOp20
 70
     1
102
RTVSPropertyOp21
 70
     1
102
RTVSPropertyOp22
 70
     1
102
RTVSPropertyOp23
 70
     1
102
RTVSPropertyOp24
 70
     1
102
RTVSPropertyOp25
 70
     1
102
RTVSPropertyOp26
 70
     1
102
RTVSPropertyOp27
 70
     1
102
RTVSPropertyOp28
 70
     1
102
RTVSPropertyOp29
 70
     1
102
RTVSPropertyOp30
 70
     1
102
RTVSPropertyOp31
 70
     1
102
RTVSPropertyOp32
 70
     1
  0
XRECORD
  5
96
102
{ACAD_REACTORS
330
95
102
}
330
95
100
AcDbXrecord
280
     1
102
RTVSPropertyOp0
 70
     1
102
RTVSPropertyOp1
 70
     1
102
RTVSPropertyOp2
 70
     1
102
RTVSPropertyOp3
 70
     1
102
RTVSPropertyOp4
 70
     1
102
RTVSPropertyOp5
 70
     1
102
RTVSPropertyOp6
 70
     1
102
RTVSPropertyOp7
 70
     1
102
RTVSPropertyOp8
 70
     1
102
RTVSPropertyOp9
 70
     1
102
RTVSPropertyOp10
 70
     1
102
RTVSPropertyOp11
 70
     1
102
RTVSPropertyOp12
 70
     1
102
RTVSPropertyOp13
 70
     1
102
RTVSPropertyOp14
 70
     1
102
RTVSPropertyOp15
 70
     1
102
RTVSPropertyOp16
 70
     1
102
RTVSPropertyOp17
 70
     1
102
RTVSPropertyOp18
 70
     1
102
RTVSPropertyOp19
 70
     1
102
RTVSPropertyOp20
 70
     1
102
RTVSPropertyOp21
 70
     1
102
RTVSPropertyOp22
 70
     1
102
RTVSPropertyOp23
 70
     1
102
RTVSPropertyOp24
 70
     1
102
RTVSPropertyOp25
 70
     1
102
RTVSPropertyOp26
 70
     1
102
RTVSPropertyOp27
 70
     1
102
RTVSPropertyOp28
 70
     1
102
RTVSPropertyOp29
 70
     1
102
RTVSPropertyOp30
 70
     1
102
RTVSPropertyOp31
 70
     1
102
RTVSPropertyOp32
 70
     1
  0
XRECORD
  5
AA
102
{ACAD_REACTORS
330
A9
102
}
330
A9
100
AcDbXrecord
280
     1
102
RTVSPropertyOp0
 70
     1
102
RTVSPropertyOp1
 70
     1
102
RTVSPropertyOp2
 70
     1
102
RTVSPropertyOp3
 70
     1
102
RTVSPropertyOp4
 70
     1
102
RTVSPropertyOp5
 70
     1
102
RTVSPropertyOp6
 70
     1
102
RTVSPropertyOp7
 70
     1
102
RTVSPropertyOp8
 70
     1
102
RTVSPropertyOp9
 70
     1
102
RTVSPropertyOp10
 70
     1
102
RTVSPropertyOp11
 70
     1
102
RTVSPropertyOp12
 70
     1
102
RTVSPropertyOp13
 70
     1
102
RTVSPropertyOp14
 70
     1
102
RTVSPropertyOp15
 70
     1
102
RTVSPropertyOp16
 70
     1
102
RTVSPropertyOp17
 70
     1
102
RTVSPropertyOp18
 70
     1
102
RTVSPropertyOp19
 70
     1
102
RTVSPropertyOp20
 70
     1
102
RTVSPropertyOp21
 70
     1
102
RTVSPropertyOp22
 70
     1
102
RTVSPropertyOp23
 70
     1
102
RTVSPropertyOp24
 70
     1
102
RTVSPropertyOp25
 70
     1
102
RTVSPropertyOp26
 70
     1
102
RTVSPropertyOp27
 70
     1
102
RTVSPropertyOp28
 70
     1
102
RTVSPropertyOp29
 70
     1
102
RTVSPropertyOp30
 70
     1
102
RTVSPropertyOp31
 70
     1
102
RTVSPropertyOp32
 70
     1
  0
XRECORD
  5
A0
102
{ACAD_REACTORS
330
9F
102
}
330
9F
100
AcDbXrecord
280
     1
102
RTVSPropertyOp0
 70
     1
102
RTVSPropertyOp1
 70
     1
102
RTVSPropertyOp2
 70
     1
102
RTVSPropertyOp3
 70
     1
102
RTVSPropertyOp4
 70
     1
102
RTVSPropertyOp5
 70
     1
102
RTVSPropertyOp6
 70
     1
102
RTVSPropertyOp7
 70
     1
102
RTVSPropertyOp8
 70
     1
102
RTVSPropertyOp9
 70
     1
102
RTVSPropertyOp10
 70
     1
102
RTVSPropertyOp11
 70
     1
102
RTVSPropertyOp12
 70
     1
102
RTVSPropertyOp13
 70
     1
102
RTVSPropertyOp14
 70
     1
102
RTVSPropertyOp15
 70
     1
102
RTVSPropertyOp16
 70
     1
102
RTVSPropertyOp17
 70
     1
102
RTVSPropertyOp18
 70
     1
102
RTVSPropertyOp19
 70
     1
102
RTVSPropertyOp20
 70
     1
102
RTVSPropertyOp21
 70
     1
102
RTVSPropertyOp22
 70
     1
102
RTVSPropertyOp23
 70
     1
102
RTVSPropertyOp24
 70
     1
102
RTVSPropertyOp25
 70
     1
102
RTVSPropertyOp26
 70
     1
102
RTVSPropertyOp27
 70
     1
102
RTVSPropertyOp28
 70
     1
102
RTVSPropertyOp29
 70
     1
102
RTVSPropertyOp30
 70
     1
102
RTVSPropertyOp31
 70
     1
102
RTVSPropertyOp32
 70
     1
  0
XRECORD
  5
A8
102
{ACAD_REACTORS
330
A7
102
}
330
A7
100
AcDbXrecord
280
     1
102
RTVSPropertyOp0
 70
     1
102
RTVSPropertyOp1
 70
     1
102
RTVSPropertyOp2
 70
     1
102
RTVSPropertyOp3
 70
     1
102
RTVSPropertyOp4
 70
     1
102
RTVSPropertyOp5
 70
     1
102
RTVSPropertyOp6
 70
     1
102
RTVSPropertyOp7
 70
     1
102
RTVSPropertyOp8
 70
     1
102
RTVSPropertyOp9
 70
     1
102
RTVSPropertyOp10
 70
     1
102
RTVSPropertyOp11
 70
     1
102
RTVSPropertyOp12
 70
     1
102
RTVSPropertyOp13
 70
     1
102
RTVSPropertyOp14
 70
     1
102
RTVSPropertyOp15
 70
     1
102
RTVSPropertyOp16
 70
     1
102
RTVSPropertyOp17
 70
     1
102
RTVSPropertyOp18
 70
     1
102
RTVSPropertyOp19
 70
     1
102
RTVSPropertyOp20
 70
     1
102
RTVSPropertyOp21
 70
     1
102
RTVSPropertyOp22
 70
     1
102
RTVSPropertyOp23
 70
     1
102
RTVSPropertyOp24
 70
     1
102
RTVSPropertyOp25
 70
     1
102
RTVSPropertyOp26
 70
     1
102
RTVSPropertyOp27
 70
     1
102
RTVSPropertyOp28
 70
     1
102
RTVSPropertyOp29
 70
     1
102
RTVSPropertyOp30
 70
     1
102
RTVSPropertyOp31
 70
     1
102
RTVSPropertyOp32
 70
     1
  0
ENDSEC
  0
EOF
