  0
SECTION
  2
HEADER
  9
$ACADVER
  1
AC1021
  9
$ACADMAINTVER
 70
    25
  9
$DWGCODEPAGE
  3
ANSI_1256
  9
$INSBASE
 10
0.0
 20
0.0
 30
0.0
  9
$EXTMIN
 10
44.839
 20
-115.1518
 30
0.0
  9
$EXTMAX
 10
196.3092
 20
131.8392
 30
0.0
  9
$LIMMIN
 10
0.0
 20
0.0
  9
$LIMMAX
 10
12.0
 20
9.0
  9
$ORTHOMODE
 70
     0
  9
$REGENMODE
 70
     1
  9
$FILLMODE
 70
     1
  9
$QTEXTMODE
 70
     0
  9
$MIRRTEXT
 70
     1
  9
$LTSCALE
 40
1.0
  9
$ATTMODE
 70
     1
  9
$TEXTSIZE
 40
0.2
  9
$TRACEWID
 40
0.05
  9
$TEXTSTYLE
  7
Standard
  9
$CLAYER
  8
0
  9
$CELTYPE
  6
ByLayer
  9
$CECOLOR
 62
   256
  9
$CELTSCALE
 40
1.0
  9
$DISPSILH
 70
     0
  9
$DIMSCALE
 40
1.0
  9
$DIMASZ
 40
0.18
  9
$DIMEXO
 40
0.0625
  9
$DIMDLI
 40
0.38
  9
$DIMRND
 40
0.0
  9
$DIMDLE
 40
0.0
  9
$DIMEXE
 40
0.18
  9
$DIMTP
 40
0.0
  9
$DIMTM
 40
0.0
  9
$DIMTXT
 40
0.18
  9
$DIMCEN
 40
0.09
  9
$DIMTSZ
 40
0.0
  9
$DIMTOL
 70
     0
  9
$DIMLIM
 70
     0
  9
$DIMTIH
 70
     1
  9
$DIMTOH
 70
     1
  9
$DIMSE1
 70
     0
  9
$DIMSE2
 70
     0
  9
$DIMTAD
 70
     0
  9
$DIMZIN
 70
     0
  9
$DIMBLK
  1

  9
$DIMASO
 70
     1
  9
$DIMSHO
 70
     1
  9
$DIMPOST
  1

  9
$DIMAPOST
  1

  9
$DIMALT
 70
     0
  9
$DIMALTD
 70
     2
  9
$DIMALTF
 40
25.4
  9
$DIMLFAC
 40
1.0
  9
$DIMTOFL
 70
     0
  9
$DIMTVP
 40
0.0
  9
$DIMTIX
 70
     0
  9
$DIMSOXD
 70
     0
  9
$DIMSAH
 70
     0
  9
$DIMBLK1
  1

  9
$DIMBLK2
  1

  9
$DIMSTYLE
  2
Standard
  9
$DIMCLRD
 70
     0
  9
$DIMCLRE
 70
     0
  9
$DIMCLRT
 70
     0
  9
$DIMTFAC
 40
1.0
  9
$DIMGAP
 40
0.09
  9
$DIMJUST
 70
     0
  9
$DIMSD1
 70
     0
  9
$DIMSD2
 70
     0
  9
$DIMTOLJ
 70
     1
  9
$DIMTZIN
 70
     0
  9
$DIMALTZ
 70
     0
  9
$DIMALTTZ
 70
     0
  9
$DIMUPT
 70
     0
  9
$DIMDEC
 70
     4
  9
$DIMTDEC
 70
     4
  9
$DIMALTU
 70
     2
  9
$DIMALTTD
 70
     2
  9
$DIMTXSTY
  7
Standard
  9
$DIMAUNIT
 70
     0
  9
$DIMADEC
 70
     0
  9
$DIMALTRND
 40
0.0
  9
$DIMAZIN
 70
     0
  9
$DIMDSEP
 70
    46
  9
$DIMATFIT
 70
     3
  9
$DIMFRAC
 70
     0
  9
$DIMLDRBLK
  1

  9
$DIMLUNIT
 70
     2
  9
$DIMLWD
 70
    -2
  9
$DIMLWE
 70
    -2
  9
$DIMTMOVE
 70
     0
  9
$DIMFXL
 40
1.0
  9
$DIMFXLON
 70
     0
  9
$DIMJOGANG
 40
0.7853981633974483
  9
$DIMTFILL
 70
     0
  9
$DIMTFILLCLR
 70
     0
  9
$DIMARCSYM
 70
     0
  9
$DIMLTYPE
  6

  9
$DIMLTEX1
  6

  9
$DIMLTEX2
  6

  9
$LUNITS
 70
     2
  9
$LUPREC
 70
     4
  9
$SKETCHINC
 40
0.1
  9
$FILLETRAD
 40
0.5
  9
$AUNITS
 70
     0
  9
$AUPREC
 70
     0
  9
$MENU
  1
.
  9
$ELEVATION
 40
0.0
  9
$PELEVATION
 40
0.0
  9
$THICKNESS
 40
0.0
  9
$LIMCHECK
 70
     0
  9
$CHAMFERA
 40
0.5
  9
$CHAMFERB
 40
0.5
  9
$CHAMFERC
 40
1.0
  9
$CHAMFERD
 40
0.0
  9
$SKPOLY
 70
     0
  9
$TDCREATE
 40
2458493.251643542
  9
$TDUCREATE
 40
2458493.084976875
  9
$TDUPDATE
 40
2458493.251643773
  9
$TDUUPDATE
 40
2458493.084977107
  9
$TDINDWG
 40
0.0000000116
  9
$TDUSRTIMER
 40
0.0000000116
  9
$USRTIMER
 70
     1
  9
$ANGBASE
 50
0.0
  9
$ANGDIR
 70
     0
  9
$PDMODE
 70
     0
  9
$PDSIZE
 40
0.0
  9
$PLINEWID
 40
0.0
  9
$SPLFRAME
 70
     0
  9
$SPLINETYPE
 70
     6
  9
$SPLINESEGS
 70
     8
  9
$HANDSEED
  5
10E
  9
$SURFTAB1
 70
     6
  9
$SURFTAB2
 70
     6
  9
$SURFTYPE
 70
     6
  9
$SURFU
 70
     6
  9
$SURFV
 70
     6
  9
$UCSBASE
  2

  9
$UCSNAME
  2

  9
$UCSORG
 10
0.0
 20
0.0
 30
0.0
  9
$UCSXDIR
 10
1.0
 20
0.0
 30
0.0
  9
$UCSYDIR
 10
0.0
 20
1.0
 30
0.0
  9
$UCSORTHOREF
  2

  9
$UCSORTHOVIEW
 70
     0
  9
$UCSORGTOP
 10
0.0
 20
0.0
 30
0.0
  9
$UCSORGBOTTOM
 10
0.0
 20
0.0
 30
0.0
  9
$UCSORGLEFT
 10
0.0
 20
0.0
 30
0.0
  9
$UCSORGRIGHT
 10
0.0
 20
0.0
 30
0.0
  9
$UCSORGFRONT
 10
0.0
 20
0.0
 30
0.0
  9
$UCSORGBACK
 10
0.0
 20
0.0
 30
0.0
  9
$PUCSBASE
  2

  9
$PUCSNAME
  2

  9
$PUCSORG
 10
0.0
 20
0.0
 30
0.0
  9
$PUCSXDIR
 10
1.0
 20
0.0
 30
0.0
  9
$PUCSYDIR
 10
0.0
 20
1.0
 30
0.0
  9
$PUCSORTHOREF
  2

  9
$PUCSORTHOVIEW
 70
     0
  9
$PUCSORGTOP
 10
0.0
 20
0.0
 30
0.0
  9
$PUCSORGBOTTOM
 10
0.0
 20
0.0
 30
0.0
  9
$PUCSORGLEFT
 10
0.0
 20
0.0
 30
0.0
  9
$PUCSORGRIGHT
 10
0.0
 20
0.0
 30
0.0
  9
$PUCSORGFRONT
 10
0.0
 20
0.0
 30
0.0
  9
$PUCSORGBACK
 10
0.0
 20
0.0
 30
0.0
  9
$USERI1
 70
     0
  9
$USERI2
 70
     0
  9
$USERI3
 70
     0
  9
$USERI4
 70
     0
  9
$USERI5
 70
     0
  9
$USERR1
 40
0.0
  9
$USERR2
 40
0.0
  9
$USERR3
 40
0.0
  9
$USERR4
 40
0.0
  9
$USERR5
 40
0.0
  9
$WORLDVIEW
 70
     1
  9
$SHADEDGE
 70
     3
  9
$SHADEDIF
 70
    70
  9
$TILEMODE
 70
     1
  9
$MAXACTVP
 70
    64
  9
$PINSBASE
 10
0.0
 20
0.0
 30
0.0
  9
$PLIMCHECK
 70
     0
  9
$PEXTMIN
 10
1.000000000000000E+20
 20
1.000000000000000E+20
 30
1.000000000000000E+20
  9
$PEXTMAX
 10
-1.000000000000000E+20
 20
-1.000000000000000E+20
 30
-1.000000000000000E+20
  9
$PLIMMIN
 10
0.0
 20
0.0
  9
$PLIMMAX
 10
12.0
 20
9.0
  9
$UNITMODE
 70
     0
  9
$VISRETAIN
 70
     1
  9
$PLINEGEN
 70
     0
  9
$PSLTSCALE
 70
     1
  9
$TREEDEPTH
 70
  3020
  9
$CMLSTYLE
  2
Standard
  9
$CMLJUST
 70
     0
  9
$CMLSCALE
 40
1.0
  9
$PROXYGRAPHICS
 70
     1
  9
$MEASUREMENT
 70
     0
  9
$CELWEIGHT
370
    -1
  9
$ENDCAPS
280
     0
  9
$JOINSTYLE
280
     0
  9
$LWDISPLAY
290
     0
  9
$INSUNITS
 70
     4
  9
$HYPERLINKBASE
  1

  9
$STYLESHEET
  1

  9
$XEDIT
290
     1
  9
$CEPSNTYPE
380
     0
  9
$PSTYLEMODE
290
     1
  9
$FINGERPRINTGUID
  2
{85020E0C-1524-44D8-BA2A-2A67D5237FA4}
  9
$VERSIONGUID
  2
{FAEB1C32-E019-11D5-929B-00C0DF256EC4}
  9
$EXTNAMES
290
     1
  9
$PSVPSCALE
 40
0.0
  9
$OLESTARTUP
290
     0
  9
$SORTENTS
280
   127
  9
$INDEXCTL
280
     0
  9
$HIDETEXT
280
     1
  9
$XCLIPFRAME
290
     0
  9
$HALOGAP
280
     0
  9
$OBSCOLOR
 70
   257
  9
$OBSLTYPE
280
     0
  9
$INTERSECTIONDISPLAY
280
     0
  9
$INTERSECTIONCOLOR
 70
   257
  9
$DIMASSOC
280
     2
  9
$PROJECTNAME
  1

  9
$CAMERADISPLAY
290
     0
  9
$LENSLENGTH
 40
50.0
  9
$CAMERAHEIGHT
 40
0.0
  9
$STEPSPERSEC
 40
2.0
  9
$STEPSIZE
 40
6.0
  9
$3DDWFPREC
 40
2.0
  9
$PSOLWIDTH
 40
0.25
  9
$PSOLHEIGHT
 40
4.0
  9
$LOFTANG1
 40
1.570796326794897
  9
$LOFTANG2
 40
1.570796326794897
  9
$LOFTMAG1
 40
0.0
  9
$LOFTMAG2
 40
0.0
  9
$LOFTPARAM
 70
     7
  9
$LOFTNORMALS
280
     1
  9
$LATITUDE
 40
37.795
  9
$LONGITUDE
 40
-122.394
  9
$NORTHDIRECTION
 40
0.0
  9
$TIMEZONE
 70
 -8000
  9
$LIGHTGLYPHDISPLAY
280
     1
  9
$TILEMODELIGHTSYNCH
280
     1
  9
$SOLIDHIST
280
     1
  9
$SHOWHIST
280
     1
  9
$DWFFRAME
280
     2
  9
$DGNFRAME
280
     2
  9
$REALWORLDSCALE
290
     1
  9
$INTERFERECOLOR
 62
   256
  9
$CSHADOW
280
     0
  9
$SHADOWPLANELOCATION
 40
0.0
  0
ENDSEC
  0
SECTION
  2
CLASSES
  0
CLASS
  1
ACDBDICTIONARYWDFLT
  2
AcDbDictionaryWithDefault
  3
ObjectDBX Classes
 90
        0
 91
        4
280
     0
281
     0
  0
CLASS
  1
VISUALSTYLE
  2
AcDbVisualStyle
  3
ObjectDBX Classes
 90
     4095
 91
        4
280
     0
281
     0
  0
CLASS
  1
MATERIAL
  2
AcDbMaterial
  3
ObjectDBX Classes
 90
     1153
 91
        4
280
     0
281
     0
  0
ENDSEC
  0
SECTION
  2
TABLES
  0
TABLE
  2
VPORT
  5
8
330
0
100
AcDbSymbolTable
 70
     1
  0
VPORT
  5
29
330
8
100
AcDbSymbolTableRecord
100
AcDbViewportTableRecord
  2
*Active
 70
     0
 10
0.0
 20
0.0
 11
1.0
 21
1.0
 12
10.42990654205607
 22
4.5
 13
0.0
 23
0.0
 14
0.5
 24
0.5
 15
0.5
 25
0.5
 16
0.0
 26
0.0
 36
1.0
 17
0.0
 27
0.0
 37
0.0
 40
9.0
 41
1.972972972850329
 42
50.0
 43
0.0
 44
0.0
 50
0.0
 51
0.0
 71
     0
 72
   100
 73
     1
 74
     3
 75
     0
 76
     0
 77
     0
 78
     0
281
     0
 65
     1
110
0.0
120
0.0
130
0.0
111
1.0
121
0.0
131
0.0
112
0.0
122
1.0
132
0.0
 79
     0
146
0.0
 60
     3
 61
     5
292
     1
282
     1
141
0.0
142
0.0
 63
   250
  0
ENDTAB
  0
TABLE
  2
LTYPE
  5
5
330
0
100
AcDbSymbolTable
 70
     1
  0
LTYPE
  5
14
330
5
100
AcDbSymbolTableRecord
100
AcDbLinetypeTableRecord
  2
ByBlock
 70
     0
  3

 72
    65
 73
     0
 40
0.0
  0
LTYPE
  5
15
330
5
100
AcDbSymbolTableRecord
100
AcDbLinetypeTableRecord
  2
ByLayer
 70
     0
  3

 72
    65
 73
     0
 40
0.0
  0
LTYPE
  5
16
330
5
100
AcDbSymbolTableRecord
100
AcDbLinetypeTableRecord
  2
Continuous
 70
     0
  3
Solid line
 72
    65
 73
     0
 40
0.0
  0
ENDTAB
  0
TABLE
  2
LAYER
  5
2
330
0
100
AcDbSymbolTable
 70
     3
  0
LAYER
  5
10
330
2
100
AcDbSymbolTableRecord
100
AcDbLayerTableRecord
  2
0
 70
     0
 62
     7
  6
Continuous
370
    -3
390
F
347
3E
  0
LAYER
  5
40
330
2
100
AcDbSymbolTableRecord
100
AcDbLayerTableRecord
  2
layer 1
 70
     0
 62
     7
  6
Continuous
370
    -3
390
F
347
3E
  0
LAYER
  5
EB
330
2
100
AcDbSymbolTableRecord
100
AcDbLayerTableRecord
  2
Master Guides
 70
     0
 62
     7
  6
Continuous
370
    -3
390
F
347
3E
  0
ENDTAB
  0
TABLE
  2
STYLE
  5
3
330
0
100
AcDbSymbolTable
 70
     1
  0
STYLE
  5
11
330
3
100
AcDbSymbolTableRecord
100
AcDbTextStyleTableRecord
  2
Standard
 70
     0
 40
0.0
 41
1.0
 50
0.0
 71
     0
 42
0.2
  3
txt
  4

  0
ENDTAB
  0
TABLE
  2
VIEW
  5
6
330
0
100
AcDbSymbolTable
 70
     0
  0
ENDTAB
  0
TABLE
  2
UCS
  5
7
330
0
100
AcDbSymbolTable
 70
     0
  0
ENDTAB
  0
TABLE
  2
APPID
  5
9
330
0
100
AcDbSymbolTable
 70
     2
  0
APPID
  5
12
330
9
100
AcDbSymbolTableRecord
100
AcDbRegAppTableRecord
  2
ACAD
 70
     0
  0
APPID
  5
3F
330
9
100
AcDbSymbolTableRecord
100
AcDbRegAppTableRecord
  2
ODA
 70
     0
  0
ENDTAB
  0
TABLE
  2
DIMSTYLE
  5
A
330
0
100
AcDbSymbolTable
 70
     1
100
AcDbDimStyleTable
  0
DIMSTYLE
105
27
330
A
100
AcDbSymbolTableRecord
100
AcDbDimStyleTableRecord
  2
Standard
 70
     0
178
     0
340
11
  0
ENDTAB
  0
TABLE
  2
BLOCK_RECORD
  5
1
330
0
100
AcDbSymbolTable
 70
     1
  0
BLOCK_RECORD
  5
1F
330
1
100
AcDbSymbolTableRecord
100
AcDbBlockTableRecord
  2
*Model_Space
340
22
 70
     0
280
     1
281
     0
  0
BLOCK_RECORD
  5
1B
330
1
100
AcDbSymbolTableRecord
100
AcDbBlockTableRecord
  2
*Paper_Space
340
1E
 70
     0
280
     1
281
     0
  0
BLOCK_RECORD
  5
23
330
1
100
AcDbSymbolTableRecord
100
AcDbBlockTableRecord
  2
*Paper_Space0
340
26
 70
     0
280
     1
281
     0
  0
ENDTAB
  0
ENDSEC
  0
SECTION
  2
BLOCKS
  0
BLOCK
  5
20
330
1F
100
AcDbEntity
  8
0
100
AcDbBlockBegin
  2
*Model_Space
 70
     0
 10
0.0
 20
0.0
 30
0.0
  3
*Model_Space
  1

  0
ENDBLK
  5
21
330
1F
100
AcDbEntity
  8
0
100
AcDbBlockEnd
  0
BLOCK
  5
1C
330
1B
100
AcDbEntity
 67
     1
  8
0
100
AcDbBlockBegin
  2
*Paper_Space
 70
     0
 10
0.0
 20
0.0
 30
0.0
  3
*Paper_Space
  1

  0
ENDBLK
  5
1D
330
1B
100
AcDbEntity
 67
     1
  8
0
100
AcDbBlockEnd
  0
BLOCK
  5
24
330
23
100
AcDbEntity
  8
0
100
AcDbBlockBegin
  2
*Paper_Space0
 70
     0
 10
0.0
 20
0.0
 30
0.0
  3
*Paper_Space0
  1

  0
ENDBLK
  5
25
330
23
100
AcDbEntity
  8
0
100
AcDbBlockEnd
  0
ENDSEC
  0
SECTION
  2
ENTITIES
  0
SPLINE
  5
41
330
1F
100
AcDbEntity
  8
layer 1
100
AcDbSpline
210
0.0
220
0.0
230
1.0
 70
    11
 71
     3
 72
    64
 73
    60
 74
     0
 42
0.0000000001
 43
0.0000000001
 12
1.0
 22
0.0
 32
0.0
 13
1.0
 23
0.0
 33
0.0
 40
0.0
 40
0.0
 40
0.0
 40
0.0
 40
0.0625
 40
0.0625
 40
0.0625
 40
0.0625
 40
0.125
 40
0.125
 40
0.125
 40
0.125
 40
0.1875
 40
0.1875
 40
0.1875
 40
0.1875
 40
0.25
 40
0.25
 40
0.25
 40
0.25
 40
0.3125
 40
0.3125
 40
0.3125
 40
0.3125
 40
0.375
 40
0.375
 40
0.375
 40
0.375
 40
0.4375
 40
0.4375
 40
0.4375
 40
0.4375
 40
0.5
 40
0.5
 40
0.5
 40
0.5
 40
0.5625
 40
0.5625
 40
0.5625
 40
0.5625
 40
0.625
 40
0.625
 40
0.625
 40
0.625
 40
0.6875
 40
0.6875
 40
0.6875
 40
0.6875
 40
0.75
 40
0.75
 40
0.75
 40
0.75
 40
0.8125
 40
0.8125
 40
0.8125
 40
0.8125
 40
0.875
 40
0.875
 40
0.875
 40
0.875
 40
1.0
 40
1.0
 40
1.0
 40
1.0
 10
77.2902
 20
58.9604
 30
0.0
 10
70.8357
 20
59.7947
 30
0.0
 10
64.3496
 20
62.3455
 30
0.0
 10
59.718
 20
65.8734
 30
0.0
 10
59.718
 20
65.8734
 30
0.0
 10
57.4549
 20
67.5977
 30
0.0
 10
53.8694
 20
71.216
 30
0.0
 10
52.0664
 20
73.5959
 30
0.0
 10
52.0664
 20
73.5959
 30
0.0
 10
48.8812
 20
77.8001
 30
0.0
 10
46.6289
 20
82.8411
 30
0.0
 10
45.4094
 20
88.4967
 30
0.0
 10
45.4094
 20
88.4967
 30
0.0
 10
44.6474
 20
92.0295
 30
0.0
 10
44.6487
 20
98.919
 30
0.0
 10
45.4145
 20
102.4953
 30
0.0
 10
45.4145
 20
102.4953
 30
0.0
 10
47.0143
 20
109.9807
 30
0.0
 10
50.2255
 20
115.9165
 30
0.0
 10
55.5291
 20
121.1936
 30
0.0
 10
55.5291
 20
121.1936
 30
0.0
 10
60.8517
 20
126.4891
 30
0.0
 10
66.7528
 20
129.6532
 30
0.0
 10
74.3148
 20
131.2669
 30
0.0
 10
74.3148
 20
131.2669
 30
0.0
 10
77.8939
 20
132.0315
 30
0.0
 10
84.8049
 20
132.029
 30
0.0
 10
88.3929
 20
131.2644
 30
0.0
 10
88.3929
 20
131.2644
 30
0.0
 10
96.1471
 20
129.6097
 30
0.0
 10
102.3887
 20
126.2345
 30
0.0
 10
107.54
 20
120.9104
 30
0.0
 10
107.54
 20
120.9104
 30
0.0
 10
112.6466
 20
115.6311
 30
0.0
 10
115.6497
 20
110.0512
 30
0.0
 10
117.2782
 20
102.8067
 30
0.0
 10
117.2782
 20
102.8067
 30
0.0
 10
117.7759
 20
100.5972
 30
0.0
 10
117.848
 20
99.6314
 30
0.0
 10
117.8382
 20
95.3738
 30
0.0
 10
117.8382
 20
95.3738
 30
0.0
 10
117.827
 20
90.9881
 30
0.0
 10
117.7596
 20
90.2
 30
0.0
 10
117.1898
 20
87.7881
 30
0.0
 10
117.1898
 20
87.7881
 30
0.0
 10
115.4228
 20
80.3224
 30
0.0
 10
112.3012
 20
74.7886
 30
0.0
 10
106.6285
 20
69.0685
 30
0.0
 10
106.6285
 20
69.0685
 30
0.0
 10
103.1117
 20
65.5233
 30
0.0
 10
99.7111
 20
63.2779
 30
0.0
 10
94.9873
 20
61.381
 30
0.0
 10
94.9873
 20
61.381
 30
0.0
 10
92.4831
 20
60.3769
 30
0.0
 10
88.6735
 20
59.3837
 30
0.0
 10
86.0158
 20
59.0437
 30
0.0
 10
86.0158
 20
59.0437
 30
0.0
 10
84.2402
 20
58.8152
 30
0.0
 10
78.8092
 20
58.7644
 30
0.0
 10
77.2902
 20
58.9604
 30
0.0
  0
SPLINE
  5
42
330
1F
100
AcDbEntity
  8
layer 1
 62
     7
100
AcDbSpline
210
0.0
220
0.0
230
1.0
 70
    11
 71
     3
 72
    16
 73
    12
 74
     0
 42
0.0000000001
 43
0.0000000001
 12
1.0
 22
0.0
 32
0.0
 13
1.0
 23
0.0
 33
0.0
 40
0.0
 40
0.0
 40
0.0
 40
0.0
 40
0.25
 40
0.25
 40
0.25
 40
0.25
 40
0.5
 40
0.5
 40
0.5
 40
0.5
 40
1.0
 40
1.0
 40
1.0
 40
1.0
 10
69.8493
 20
124.8592
 30
0.0
 10
69.4253
 20
124.8592
 30
0.0
 10
64.205
 20
122.2324
 30
0.0
 10
64.205
 20
122.0103
 30
0.0
 10
64.205
 20
122.0103
 30
0.0
 10
74.5581
 20
115.9425
 30
0.0
 10
79.3305
 20
106.2515
 30
0.0
 10
81.0104
 20
98.7652
 30
0.0
 10
81.0104
 20
98.7652
 30
0.0
 10
81.1936
 20
108.5293
 30
0.0
 10
77.7193
 20
118.7828
 30
0.0
 10
69.8493
 20
124.8592
 30
0.0
  0
SPLINE
  5
43
330
1F
100
AcDbEntity
  8
layer 1
 62
     7
100
AcDbSpline
210
0.0
220
0.0
230
1.0
 70
    11
 71
     3
 72
    16
 73
    12
 74
     0
 42
0.0000000001
 43
0.0000000001
 12
1.0
 22
0.0
 32
0.0
 13
1.0
 23
0.0
 33
0.0
 40
0.0
 40
0.0
 40
0.0
 40
0.0
 40
0.25
 40
0.25
 40
0.25
 40
0.25
 40
0.5
 40
0.5
 40
0.5
 40
0.5
 40
1.0
 40
1.0
 40
1.0
 40
1.0
 10
82.9457
 20
126.8961
 30
0.0
 10
82.559
 20
127.07
 30
0.0
 10
76.7156
 20
126.8167
 30
0.0
 10
76.6233
 20
126.6143
 30
0.0
 10
76.6233
 20
126.6143
 30
0.0
 10
83.5455
 20
116.8403
 30
0.0
 10
83.8823
 20
106.0528
 30
0.0
 10
82.3148
 20
98.5418
 30
0.0
 10
82.3148
 20
98.5418
 30
0.0
 10
86.5234
 20
107.3637
 30
0.0
 10
87.6009
 20
118.1324
 30
0.0
 10
82.9457
 20
126.8961
 30
0.0
  0
SPLINE
  5
44
330
1F
100
AcDbEntity
  8
layer 1
 62
     7
100
AcDbSpline
210
0.0
220
0.0
230
1.0
 70
    11
 71
     3
 72
    16
 73
    12
 74
     0
 42
0.0000000001
 43
0.0000000001
 12
1.0
 22
0.0
 32
0.0
 13
1.0
 23
0.0
 33
0.0
 40
0.0
 40
0.0
 40
0.0
 40
0.0
 40
0.25
 40
0.25
 40
0.25
 40
0.25
 40
0.5
 40
0.5
 40
0.5
 40
0.5
 40
1.0
 40
1.0
 40
1.0
 40
1.0
 10
95.7318
 20
123.4651
 30
0.0
 10
95.4511
 20
123.7816
 30
0.0
 10
90.0214
 20
125.9454
 30
0.0
 10
89.8544
 20
125.7989
 30
0.0
 10
89.8544
 20
125.7989
 30
0.0
 10
92.1227
 20
114.0546
 30
0.0
 10
87.9702
 20
104.0842
 30
0.0
 10
83.437
 20
97.8811
 30
0.0
 10
83.437
 20
97.8811
 30
0.0
 10
90.9194
 20
104.197
 30
0.0
 10
96.3527
 20
113.5703
 30
0.0
 10
95.7318
 20
123.4651
 30
0.0
  0
SPLINE
  5
45
330
1F
100
AcDbEntity
  8
layer 1
 62
     7
100
AcDbSpline
210
0.0
220
0.0
230
1.0
 70
    11
 71
     3
 72
    16
 73
    12
 74
     0
 42
0.0000000001
 43
0.0000000001
 12
1.0
 22
0.0
 32
0.0
 13
1.0
 23
0.0
 33
0.0
 40
0.0
 40
0.0
 40
0.0
 40
0.0
 40
0.25
 40
0.25
 40
0.25
 40
0.25
 40
0.5
 40
0.5
 40
0.5
 40
0.5
 40
1.0
 40
1.0
 40
1.0
 40
1.0
 10
105.8378
 20
115.0414
 30
0.0
 10
105.7132
 20
115.4449
 30
0.0
 10
101.664
 20
119.6456
 30
0.0
 10
101.4507
 20
119.5811
 30
0.0
 10
101.4507
 20
119.5811
 30
0.0
 10
98.65
 20
107.951
 30
0.0
 10
90.7349
 20
100.5736
 30
0.0
 10
84.0342
 20
96.7851
 30
0.0
 10
84.0342
 20
96.7851
 30
0.0
 10
93.4683
 20
99.4666
 30
0.0
 10
102.3024
 20
105.7735
 30
0.0
 10
105.8378
 20
115.0414
 30
0.0
  0
SPLINE
  5
46
330
1F
100
AcDbEntity
  8
layer 1
 62
     7
100
AcDbSpline
210
0.0
220
0.0
230
1.0
 70
    11
 71
     3
 72
    16
 73
    12
 74
     0
 42
0.0000000001
 43
0.0000000001
 12
1.0
 22
0.0
 32
0.0
 13
1.0
 23
0.0
 33
0.0
 40
0.0
 40
0.0
 40
0.0
 40
0.0
 40
0.25
 40
0.25
 40
0.25
 40
0.25
 40
0.5
 40
0.5
 40
0.5
 40
0.5
 40
1.0
 40
1.0
 40
1.0
 40
1.0
 10
111.8124
 20
103.651
 30
0.0
 10
111.861
 20
104.0705
 30
0.0
 10
109.8394
 20
109.5335
 30
0.0
 10
109.6176
 20
109.5596
 30
0.0
 10
109.6176
 20
109.5596
 30
0.0
 10
102.3724
 20
100.0188
 30
0.0
 10
92.154
 20
96.4139
 30
0.0
 10
84.4883
 20
95.6121
 30
0.0
 10
84.4883
 20
95.6121
 30
0.0
 10
94.2115
 20
94.3098
 30
0.0
 10
104.844
 20
96.5681
 30
0.0
 10
111.8124
 20
103.651
 30
0.0
  0
SPLINE
  5
47
330
1F
100
AcDbEntity
  8
layer 1
 62
     7
100
AcDbSpline
210
0.0
220
0.0
230
1.0
 70
    11
 71
     3
 72
    16
 73
    12
 74
     0
 42
0.0000000001
 43
0.0000000001
 12
1.0
 22
0.0
 32
0.0
 13
1.0
 23
0.0
 33
0.0
 40
0.0
 40
0.0
 40
0.0
 40
0.0
 40
0.25
 40
0.25
 40
0.25
 40
0.25
 40
0.5
 40
0.5
 40
0.5
 40
0.5
 40
1.0
 40
1.0
 40
1.0
 40
1.0
 10
112.5521
 20
90.7336
 30
0.0
 10
112.7641
 20
91.0999
 30
0.0
 10
113.0894
 20
96.9132
 30
0.0
 10
112.8963
 20
97.0234
 30
0.0
 10
112.8963
 20
97.0234
 30
0.0
 10
102.4397
 20
91.1346
 30
0.0
 10
91.6227
 20
91.8683
 30
0.0
 10
84.2702
 20
94.1646
 30
0.0
 10
84.2702
 20
94.1646
 30
0.0
 10
92.6714
 20
89.1224
 30
0.0
 10
103.3301
 20
86.9898
 30
0.0
 10
112.5521
 20
90.7336
 30
0.0
  0
SPLINE
  5
48
330
1F
100
AcDbEntity
  8
layer 1
 62
     7
100
AcDbSpline
210
0.0
220
0.0
230
1.0
 70
    11
 71
     3
 72
    16
 73
    12
 74
     0
 42
0.0000000001
 43
0.0000000001
 12
1.0
 22
0.0
 32
0.0
 13
1.0
 23
0.0
 33
0.0
 40
0.0
 40
0.0
 40
0.0
 40
0.0
 40
0.25
 40
0.25
 40
0.25
 40
0.25
 40
0.5
 40
0.5
 40
0.5
 40
0.5
 40
1.0
 40
1.0
 40
1.0
 40
1.0
 10
107.9828
 20
78.4617
 30
0.0
 10
108.3256
 20
78.71
 30
0.0
 10
111.0018
 20
83.8876
 30
0.0
 10
110.871
 20
84.0678
 30
0.0
 10
110.871
 20
84.0678
 30
0.0
 10
98.9105
 20
82.9244
 30
0.0
 10
89.3305
 20
87.9778
 30
0.0
 10
83.5532
 20
93.0549
 30
0.0
 10
83.5532
 20
93.0549
 30
0.0
 10
89.1661
 20
85.0459
 30
0.0
 10
98.0287
 20
78.7783
 30
0.0
 10
107.9828
 20
78.4617
 30
0.0
  0
SPLINE
  5
49
330
1F
100
AcDbEntity
  8
layer 1
 62
     7
100
AcDbSpline
210
0.0
220
0.0
230
1.0
 70
    11
 71
     3
 72
    16
 73
    12
 74
     0
 42
0.0000000001
 43
0.0000000001
 12
1.0
 22
0.0
 32
0.0
 13
1.0
 23
0.0
 33
0.0
 40
0.0
 40
0.0
 40
0.0
 40
0.0
 40
0.25
 40
0.25
 40
0.25
 40
0.25
 40
0.5
 40
0.5
 40
0.5
 40
0.5
 40
1.0
 40
1.0
 40
1.0
 40
1.0
 10
98.6512
 20
69.2089
 30
0.0
 10
99.065
 20
69.2957
 30
0.0
 10
103.6292
 20
72.9378
 30
0.0
 10
103.5833
 20
73.1551
 30
0.0
 10
103.5833
 20
73.1551
 30
0.0
 10
92.1964
 20
76.9672
 30
0.0
 10
85.5184
 20
85.4704
 30
0.0
 10
82.3234
 20
92.4515
 30
0.0
 10
82.3234
 20
92.4515
 30
0.0
 10
84.1677
 20
82.8599
 30
0.0
 10
89.691
 20
73.5387
 30
0.0
 10
98.6512
 20
69.2089
 30
0.0
  0
SPLINE
  5
4A
330
1F
100
AcDbEntity
  8
layer 1
 62
     7
100
AcDbSpline
210
0.0
220
0.0
230
1.0
 70
    11
 71
     3
 72
    16
 73
    12
 74
     0
 42
0.0000000001
 43
0.0000000001
 12
1.0
 22
0.0
 32
0.0
 13
1.0
 23
0.0
 33
0.0
 40
0.0
 40
0.0
 40
0.0
 40
0.0
 40
0.25
 40
0.25
 40
0.25
 40
0.25
 40
0.5
 40
0.5
 40
0.5
 40
0.5
 40
1.0
 40
1.0
 40
1.0
 40
1.0
 10
86.4736
 20
64.1838
 30
0.0
 10
86.889
 20
64.0971
 30
0.0
 10
92.5418
 20
65.5903
 30
0.0
 10
92.5878
 20
65.8077
 30
0.0
 10
92.5878
 20
65.8077
 30
0.0
 10
83.7214
 20
73.8775
 30
0.0
 10
81.0701
 20
84.3432
 30
0.0
 10
80.9842
 20
92.0135
 30
0.0
 10
80.9842
 20
92.0135
 30
0.0
 10
78.7732
 20
82.4986
 30
0.0
 10
80.0389
 20
71.7511
 30
0.0
 10
86.4736
 20
64.1838
 30
0.0
  0
SPLINE
  5
4B
330
1F
100
AcDbEntity
  8
layer 1
 62
     7
100
AcDbSpline
210
0.0
220
0.0
230
1.0
 70
    11
 71
     3
 72
    16
 73
    12
 74
     0
 42
0.0000000001
 43
0.0000000001
 12
1.0
 22
0.0
 32
0.0
 13
1.0
 23
0.0
 33
0.0
 40
0.0
 40
0.0
 40
0.0
 40
0.0
 40
0.25
 40
0.25
 40
0.25
 40
0.25
 40
0.5
 40
0.5
 40
0.5
 40
0.5
 40
1.0
 40
1.0
 40
1.0
 40
1.0
 10
73.2859
 20
64.7797
 30
0.0
 10
73.6304
 20
64.5328
 30
0.0
 10
79.4078
 20
63.6242
 30
0.0
 10
79.5374
 20
63.8041
 30
0.0
 10
79.5374
 20
63.8041
 30
0.0
 10
74.704
 20
74.7526
 30
0.0
 10
76.5272
 20
85.3923
 30
0.0
 10
79.5626
 20
92.4429
 30
0.0
 10
79.5626
 20
92.4429
 30
0.0
 10
73.6777
 20
84.63
 30
0.0
 10
70.4714
 20
74.2883
 30
0.0
 10
73.2859
 20
64.7797
 30
0.0
  0
SPLINE
  5
4C
330
1F
100
AcDbEntity
  8
layer 1
 62
     7
100
AcDbSpline
210
0.0
220
0.0
230
1.0
 70
    11
 71
     3
 72
    16
 73
    12
 74
     0
 42
0.0000000001
 43
0.0000000001
 12
1.0
 22
0.0
 32
0.0
 13
1.0
 23
0.0
 33
0.0
 40
0.0
 40
0.0
 40
0.0
 40
0.0
 40
0.25
 40
0.25
 40
0.25
 40
0.25
 40
0.5
 40
0.5
 40
0.5
 40
0.5
 40
1.0
 40
1.0
 40
1.0
 40
1.0
 10
61.3305
 20
70.9293
 30
0.0
 10
61.5377
 20
70.5607
 30
0.0
 10
66.3861
 20
67.3035
 30
0.0
 10
66.5808
 20
67.4116
 30
0.0
 10
66.5808
 20
67.4116
 30
0.0
 10
66.8564
 20
79.3681
 30
0.0
 10
73.0305
 20
88.2399
 30
0.0
 10
78.7782
 20
93.3505
 30
0.0
 10
78.7782
 20
93.3505
 30
0.0
 10
70.1248
 20
88.7487
 30
0.0
 10
62.8233
 20
80.731
 30
0.0
 10
61.3305
 20
70.9293
 30
0.0
  0
SPLINE
  5
4D
330
1F
100
AcDbEntity
  8
layer 1
 62
     7
100
AcDbSpline
210
0.0
220
0.0
230
1.0
 70
    11
 71
     3
 72
    16
 73
    12
 74
     0
 42
0.0000000001
 43
0.0000000001
 12
1.0
 22
0.0
 32
0.0
 13
1.0
 23
0.0
 33
0.0
 40
0.0
 40
0.0
 40
0.0
 40
0.0
 40
0.25
 40
0.25
 40
0.25
 40
0.25
 40
0.5
 40
0.5
 40
0.5
 40
0.5
 40
1.0
 40
1.0
 40
1.0
 40
1.0
 10
53.0726
 20
80.9592
 30
0.0
 10
53.1189
 20
80.5411
 30
0.0
 10
56.3075
 20
75.6589
 30
0.0
 10
56.5294
 20
75.6824
 30
0.0
 10
56.5294
 20
75.6824
 30
0.0
 10
61.469
 20
86.5852
 30
0.0
 10
70.6298
 20
92.3561
 30
0.0
 10
77.9265
 20
94.8288
 30
0.0
 10
77.9265
 20
94.8288
 30
0.0
 10
68.1544
 20
93.9536
 30
0.0
 10
58.289
 20
89.4055
 30
0.0
 10
53.0726
 20
80.9592
 30
0.0
  0
SPLINE
  5
4E
330
1F
100
AcDbEntity
  8
layer 1
 62
     7
100
AcDbSpline
210
0.0
220
0.0
230
1.0
 70
    11
 71
     3
 72
    16
 73
    12
 74
     0
 42
0.0000000001
 43
0.0000000001
 12
1.0
 22
0.0
 32
0.0
 13
1.0
 23
0.0
 33
0.0
 40
0.0
 40
0.0
 40
0.0
 40
0.0
 40
0.25
 40
0.25
 40
0.25
 40
0.25
 40
0.5
 40
0.5
 40
0.5
 40
0.5
 40
1.0
 40
1.0
 40
1.0
 40
1.0
 10
49.4849
 20
93.5427
 30
0.0
 10
49.355
 20
93.1404
 30
0.0
 10
50.2654
 20
87.3896
 30
0.0
 10
50.4775
 20
87.3212
 30
0.0
 10
50.4775
 20
87.3212
 30
0.0
 10
59.4549
 20
95.2696
 30
0.0
 10
70.1848
 20
96.8188
 30
0.0
 10
77.8591
 20
96.1149
 30
0.0
 10
77.8591
 20
96.1149
 30
0.0
 10
68.5783
 20
99.2828
 30
0.0
 10
57.708
 20
99.1351
 30
0.0
 10
49.4849
 20
93.5427
 30
0.0
  0
SPLINE
  5
4F
330
1F
100
AcDbEntity
  8
layer 1
 62
     7
100
AcDbSpline
210
0.0
220
0.0
230
1.0
 70
    11
 71
     3
 72
    16
 73
    12
 74
     0
 42
0.0000000001
 43
0.0000000001
 12
1.0
 22
0.0
 32
0.0
 13
1.0
 23
0.0
 33
0.0
 40
0.0
 40
0.0
 40
0.0
 40
0.0
 40
0.25
 40
0.25
 40
0.25
 40
0.25
 40
0.5
 40
0.5
 40
0.5
 40
0.5
 40
1.0
 40
1.0
 40
1.0
 40
1.0
 10
51.5986
 20
106.5594
 30
0.0
 10
51.3167
 20
106.2442
 30
0.0
 10
49.8128
 20
100.6171
 30
0.0
 10
49.9801
 20
100.4694
 30
0.0
 10
49.9801
 20
100.4694
 30
0.0
 10
61.4193
 20
104.1252
 30
0.0
 10
71.8618
 20
101.2228
 30
0.0
 10
78.5946
 20
97.4902
 30
0.0
 10
78.5946
 20
97.4902
 30
0.0
 10
71.3944
 20
104.1239
 30
0.0
 10
61.3918
 20
108.3644
 30
0.0
 10
51.5986
 20
106.5594
 30
0.0
  0
SPLINE
  5
50
330
1F
100
AcDbEntity
  8
layer 1
 62
     7
100
AcDbSpline
210
0.0
220
0.0
230
1.0
 70
    11
 71
     3
 72
    16
 73
    12
 74
     0
 42
0.0000000001
 43
0.0000000001
 12
1.0
 22
0.0
 32
0.0
 13
1.0
 23
0.0
 33
0.0
 40
0.0
 40
0.0
 40
0.0
 40
0.0
 40
0.25
 40
0.25
 40
0.25
 40
0.25
 40
0.5
 40
0.5
 40
0.5
 40
0.5
 40
1.0
 40
1.0
 40
1.0
 40
1.0
 10
58.6632
 20
117.6595
 30
0.0
 10
58.2779
 20
117.4857
 30
0.0
 10
54.6178
 20
112.9436
 30
0.0
 10
54.71
 20
112.7412
 30
0.0
 10
54.71
 20
112.7412
 30
0.0
 10
66.6581
 20
111.4838
 30
0.0
 10
75.0306
 20
104.628
 30
0.0
 10
79.6747
 20
98.5042
 30
0.0
 10
79.6747
 20
98.5042
 30
0.0
 10
75.7802
 20
107.4693
 30
0.0
 10
68.3539
 20
115.3715
 30
0.0
 10
58.6632
 20
117.6595
 30
0.0
  0
SPLINE
  5
51
330
1F
100
AcDbEntity
  8
layer 1
100
AcDbSpline
210
0.0
220
0.0
230
1.0
 70
    11
 71
     3
 72
    44
 73
    40
 74
     0
 42
0.0000000001
 43
0.0000000001
 12
1.0
 22
0.0
 32
0.0
 13
1.0
 23
0.0
 33
0.0
 40
0.0
 40
0.0
 40
0.0
 40
0.0
 40
0.0909090909090909
 40
0.0909090909090909
 40
0.0909090909090909
 40
0.0909090909090909
 40
0.1818181818181818
 40
0.1818181818181818
 40
0.1818181818181818
 40
0.1818181818181818
 40
0.2727272727272727
 40
0.2727272727272727
 40
0.2727272727272727
 40
0.2727272727272727
 40
0.3636363636363636
 40
0.3636363636363636
 40
0.3636363636363636
 40
0.3636363636363636
 40
0.4545454545454545
 40
0.4545454545454545
 40
0.4545454545454545
 40
0.4545454545454545
 40
0.5454545454545454
 40
0.5454545454545454
 40
0.5454545454545454
 40
0.5454545454545454
 40
0.6363636363636364
 40
0.6363636363636364
 40
0.6363636363636364
 40
0.6363636363636364
 40
0.7272727272727273
 40
0.7272727272727273
 40
0.7272727272727273
 40
0.7272727272727273
 40
0.8181818181818182
 40
0.8181818181818182
 40
0.8181818181818182
 40
0.8181818181818182
 40
1.0
 40
1.0
 40
1.0
 40
1.0
 10
160.9883
 20
131.8122
 30
0.0
 10
160.9883
 20
131.8122
 30
0.0
 10
160.9621
 20
125.8479
 30
0.0
 10
160.9621
 20
125.8479
 30
0.0
 10
160.9621
 20
125.8479
 30
0.0
 10
160.9621
 20
125.8479
 30
0.0
 10
157.3614
 20
125.8479
 30
0.0
 10
157.3614
 20
125.8479
 30
0.0
 10
157.3614
 20
125.8479
 30
0.0
 10
157.3614
 20
125.8479
 30
0.0
 10
157.3351
 20
131.8122
 30
0.0
 10
157.3351
 20
131.8122
 30
0.0
 10
157.3351
 20
131.8122
 30
0.0
 10
138.0812
 20
130.8416
 30
0.0
 10
122.6617
 20
114.8362
 30
0.0
 10
122.6617
 20
95.3111
 30
0.0
 10
122.6617
 20
95.3111
 30
0.0
 10
122.6617
 20
75.7886
 30
0.0
 10
138.0812
 20
59.7828
 30
0.0
 10
157.3351
 20
58.8122
 30
0.0
 10
157.3351
 20
58.8122
 30
0.0
 10
157.3351
 20
58.8122
 30
0.0
 10
157.3614
 20
64.7771
 30
0.0
 10
157.3614
 20
64.7771
 30
0.0
 10
157.3614
 20
64.7771
 30
0.0
 10
157.3614
 20
64.7771
 30
0.0
 10
160.9621
 20
64.7771
 30
0.0
 10
160.9621
 20
64.7771
 30
0.0
 10
160.9621
 20
64.7771
 30
0.0
 10
160.9621
 20
64.7771
 30
0.0
 10
160.9883
 20
58.8122
 30
0.0
 10
160.9883
 20
58.8122
 30
0.0
 10
160.9883
 20
58.8122
 30
0.0
 10
180.2403
 20
59.7828
 30
0.0
 10
195.6617
 20
75.7886
 30
0.0
 10
195.6617
 20
95.3111
 30
0.0
 10
195.6617
 20
95.3111
 30
0.0
 10
195.6617
 20
114.8362
 30
0.0
 10
180.2402
 20
130.8416
 30
0.0
 10
160.9883
 20
131.8122
 30
0.0
  0
SPLINE
  5
52
330
1F
100
AcDbEntity
  8
layer 1
 62
     7
100
AcDbSpline
210
0.0
220
0.0
230
1.0
 70
    11
 71
     3
 72
    20
 73
    16
 74
     0
 42
0.0000000001
 43
0.0000000001
 12
1.0
 22
0.0
 32
0.0
 13
1.0
 23
0.0
 33
0.0
 40
0.0
 40
0.0
 40
0.0
 40
0.0
 40
0.2
 40
0.2
 40
0.2
 40
0.2
 40
0.4
 40
0.4
 40
0.4
 40
0.4
 40
0.6
 40
0.6
 40
0.6
 40
0.6
 40
1.0
 40
1.0
 40
1.0
 40
1.0
 10
126.1298
 20
102.527
 30
0.0
 10
126.1298
 20
102.527
 30
0.0
 10
147.0236
 20
102.527
 30
0.0
 10
147.0236
 20
102.527
 30
0.0
 10
147.0236
 20
102.527
 30
0.0
 10
147.0236
 20
102.527
 30
0.0
 10
147.0236
 20
98.1302
 30
0.0
 10
147.0236
 20
98.1302
 30
0.0
 10
147.0236
 20
98.1302
 30
0.0
 10
147.0236
 20
98.1302
 30
0.0
 10
125.4567
 20
98.1811
 30
0.0
 10
125.4567
 20
98.1811
 30
0.0
 10
125.4567
 20
98.1811
 30
0.0
 10
125.6599
 20
99.629
 30
0.0
 10
125.7992
 20
100.9246
 30
0.0
 10
126.1298
 20
102.527
 30
0.0
  0
SPLINE
  5
53
330
1F
100
AcDbEntity
  8
layer 1
 62
     7
100
AcDbSpline
210
0.0
220
0.0
230
1.0
 70
    11
 71
     3
 72
    20
 73
    16
 74
     0
 42
0.0000000001
 43
0.0000000001
 12
1.0
 22
0.0
 32
0.0
 13
1.0
 23
0.0
 33
0.0
 40
0.0
 40
0.0
 40
0.0
 40
0.0
 40
0.2
 40
0.2
 40
0.2
 40
0.2
 40
0.4
 40
0.4
 40
0.4
 40
0.4
 40
0.6
 40
0.6
 40
0.6
 40
0.6
 40
1.0
 40
1.0
 40
1.0
 40
1.0
 10
150.6449
 20
107.6875
 30
0.0
 10
150.6449
 20
107.6875
 30
0.0
 10
150.6449
 20
104.1069
 30
0.0
 10
150.6449
 20
104.1069
 30
0.0
 10
150.6449
 20
104.1069
 30
0.0
 10
150.6449
 20
104.1069
 30
0.0
 10
141.7381
 20
104.1496
 30
0.0
 10
141.7381
 20
104.1496
 30
0.0
 10
141.7381
 20
104.1496
 30
0.0
 10
141.7381
 20
104.1496
 30
0.0
 10
141.7727
 20
107.6875
 30
0.0
 10
141.7727
 20
107.6875
 30
0.0
 10
141.7727
 20
107.6875
 30
0.0
 10
141.7727
 20
107.6875
 30
0.0
 10
150.6449
 20
107.6875
 30
0.0
 10
150.6449
 20
107.6875
 30
0.0
  0
SPLINE
  5
54
330
1F
100
AcDbEntity
  8
layer 1
 62
     7
100
AcDbSpline
210
0.0
220
0.0
230
1.0
 70
    11
 71
     3
 72
    28
 73
    24
 74
     0
 42
0.0000000001
 43
0.0000000001
 12
1.0
 22
0.0
 32
0.0
 13
1.0
 23
0.0
 33
0.0
 40
0.0
 40
0.0
 40
0.0
 40
0.0
 40
0.1428571428571428
 40
0.1428571428571428
 40
0.1428571428571428
 40
0.1428571428571428
 40
0.2857142857142857
 40
0.2857142857142857
 40
0.2857142857142857
 40
0.2857142857142857
 40
0.4285714285714285
 40
0.4285714285714285
 40
0.4285714285714285
 40
0.4285714285714285
 40
0.5714285714285714
 40
0.5714285714285714
 40
0.5714285714285714
 40
0.5714285714285714
 40
0.7142857142857143
 40
0.7142857142857143
 40
0.7142857142857143
 40
0.7142857142857143
 40
1.0
 40
1.0
 40
1.0
 40
1.0
 10
131.6712
 20
114.9929
 30
0.0
 10
131.6712
 20
114.9929
 30
0.0
 10
135.1532
 20
112.4561
 30
0.0
 10
135.1532
 20
112.4561
 30
0.0
 10
135.1532
 20
112.4561
 30
0.0
 10
134.073
 20
110.8434
 30
0.0
 10
133.3394
 20
109.6048
 30
0.0
 10
132.3804
 20
107.7406
 30
0.0
 10
132.3804
 20
107.7406
 30
0.0
 10
132.3804
 20
107.7406
 30
0.0
 10
140.2251
 20
107.7161
 30
0.0
 10
140.2251
 20
107.7161
 30
0.0
 10
140.2251
 20
107.7161
 30
0.0
 10
140.2251
 20
107.7161
 30
0.0
 10
140.2251
 20
104.0789
 30
0.0
 10
140.2251
 20
104.0789
 30
0.0
 10
140.2251
 20
104.0789
 30
0.0
 10
140.2251
 20
104.0789
 30
0.0
 10
126.5307
 20
104.1216
 30
0.0
 10
126.5307
 20
104.1216
 30
0.0
 10
126.5307
 20
104.1216
 30
0.0
 10
127.9291
 20
108.8532
 30
0.0
 10
129.0454
 20
111.0892
 30
0.0
 10
131.6712
 20
114.9929
 30
0.0
  0
SPLINE
  5
55
330
1F
100
AcDbEntity
  8
layer 1
 62
     7
100
AcDbSpline
210
0.0
220
0.0
230
1.0
 70
    11
 71
     3
 72
    28
 73
    24
 74
     0
 42
0.0000000001
 43
0.0000000001
 12
1.0
 22
0.0
 32
0.0
 13
1.0
 23
0.0
 33
0.0
 40
0.0
 40
0.0
 40
0.0
 40
0.0
 40
0.1428571428571428
 40
0.1428571428571428
 40
0.1428571428571428
 40
0.1428571428571428
 40
0.2857142857142857
 40
0.2857142857142857
 40
0.2857142857142857
 40
0.2857142857142857
 40
0.4285714285714285
 40
0.4285714285714285
 40
0.4285714285714285
 40
0.4285714285714285
 40
0.5714285714285714
 40
0.5714285714285714
 40
0.5714285714285714
 40
0.5714285714285714
 40
0.7142857142857143
 40
0.7142857142857143
 40
0.7142857142857143
 40
0.7142857142857143
 40
1.0
 40
1.0
 40
1.0
 40
1.0
 10
145.6034
 20
126.3679
 30
0.0
 10
145.6034
 20
126.3679
 30
0.0
 10
147.1913
 20
122.4502
 30
0.0
 10
147.1913
 20
122.4502
 30
0.0
 10
147.1913
 20
122.4502
 30
0.0
 10
148.9421
 20
123.1933
 30
0.0
 10
150.5339
 20
123.7781
 30
0.0
 10
152.3014
 20
124.168
 30
0.0
 10
152.3014
 20
124.168
 30
0.0
 10
152.3014
 20
124.168
 30
0.0
 10
152.253
 20
119.6781
 30
0.0
 10
152.253
 20
119.6781
 30
0.0
 10
152.253
 20
119.6781
 30
0.0
 10
152.253
 20
119.6781
 30
0.0
 10
155.7252
 20
119.6781
 30
0.0
 10
155.7252
 20
119.6781
 30
0.0
 10
155.7252
 20
119.6781
 30
0.0
 10
155.7252
 20
119.6781
 30
0.0
 10
155.6829
 20
129.089
 30
0.0
 10
155.6829
 20
129.089
 30
0.0
 10
155.6829
 20
129.089
 30
0.0
 10
151.8784
 20
128.5753
 30
0.0
 10
148.5412
 20
127.6795
 30
0.0
 10
145.6034
 20
126.3679
 30
0.0
  0
SPLINE
  5
56
330
1F
100
AcDbEntity
  8
layer 1
 62
     7
100
AcDbSpline
210
0.0
220
0.0
230
1.0
 70
    11
 71
     3
 72
    20
 73
    16
 74
     0
 42
0.0000000001
 43
0.0000000001
 12
1.0
 22
0.0
 32
0.0
 13
1.0
 23
0.0
 33
0.0
 40
0.0
 40
0.0
 40
0.0
 40
0.0
 40
0.2
 40
0.2
 40
0.2
 40
0.2
 40
0.4
 40
0.4
 40
0.4
 40
0.4
 40
0.6
 40
0.6
 40
0.6
 40
0.6
 40
1.0
 40
1.0
 40
1.0
 40
1.0
 10
144.0151
 20
125.6347
 30
0.0
 10
144.0151
 20
125.6347
 30
0.0
 10
145.7139
 20
121.7208
 30
0.0
 10
145.7139
 20
121.7208
 30
0.0
 10
145.7139
 20
121.7208
 30
0.0
 10
141.9739
 20
119.6069
 30
0.0
 10
139.8181
 20
118.0534
 30
0.0
 10
136.1184
 20
113.7865
 30
0.0
 10
136.1184
 20
113.7865
 30
0.0
 10
136.1184
 20
113.7865
 30
0.0
 10
132.6906
 20
116.3652
 30
0.0
 10
132.6906
 20
116.3652
 30
0.0
 10
132.6906
 20
116.3652
 30
0.0
 10
136.3562
 20
120.5797
 30
0.0
 10
138.0486
 20
122.2813
 30
0.0
 10
144.0151
 20
125.6347
 30
0.0
  0
SPLINE
  5
57
330
1F
100
AcDbEntity
  8
layer 1
 62
     7
100
AcDbSpline
210
0.0
220
0.0
230
1.0
 70
    11
 71
     3
 72
    56
 73
    52
 74
     0
 42
0.0000000001
 43
0.0000000001
 12
1.0
 22
0.0
 32
0.0
 13
1.0
 23
0.0
 33
0.0
 40
0.0
 40
0.0
 40
0.0
 40
0.0
 40
0.0714285714285714
 40
0.0714285714285714
 40
0.0714285714285714
 40
0.0714285714285714
 40
0.1428571428571428
 40
0.1428571428571428
 40
0.1428571428571428
 40
0.1428571428571428
 40
0.2142857142857143
 40
0.2142857142857143
 40
0.2142857142857143
 40
0.2142857142857143
 40
0.2857142857142857
 40
0.2857142857142857
 40
0.2857142857142857
 40
0.2857142857142857
 40
0.3571428571428572
 40
0.3571428571428572
 40
0.3571428571428572
 40
0.3571428571428572
 40
0.4285714285714285
 40
0.4285714285714285
 40
0.4285714285714285
 40
0.4285714285714285
 40
0.5
 40
0.5
 40
0.5
 40
0.5
 40
0.5714285714285714
 40
0.5714285714285714
 40
0.5714285714285714
 40
0.5714285714285714
 40
0.6428571428571429
 40
0.6428571428571429
 40
0.6428571428571429
 40
0.6428571428571429
 40
0.7142857142857143
 40
0.7142857142857143
 40
0.7142857142857143
 40
0.7142857142857143
 40
0.7857142857142857
 40
0.7857142857142857
 40
0.7857142857142857
 40
0.7857142857142857
 40
0.8571428571428571
 40
0.8571428571428571
 40
0.8571428571428571
 40
0.8571428571428571
 40
1.0
 40
1.0
 40
1.0
 40
1.0
 10
150.55
 20
114.4931
 30
0.0
 10
150.55
 20
114.4931
 30
0.0
 10
146.9736
 20
114.5295
 30
0.0
 10
146.9736
 20
114.5295
 30
0.0
 10
146.9736
 20
114.5295
 30
0.0
 10
146.9736
 20
114.5295
 30
0.0
 10
146.9612
 20
116.0647
 30
0.0
 10
146.9612
 20
116.0647
 30
0.0
 10
146.9612
 20
116.0647
 30
0.0
 10
146.9612
 20
116.0647
 30
0.0
 10
147.9671
 20
116.0404
 30
0.0
 10
147.9671
 20
116.0404
 30
0.0
 10
147.9671
 20
116.0404
 30
0.0
 10
147.9671
 20
116.0404
 30
0.0
 10
147.9124
 20
117.7467
 30
0.0
 10
147.9124
 20
117.7467
 30
0.0
 10
147.9124
 20
117.7467
 30
0.0
 10
147.9124
 20
117.7467
 30
0.0
 10
145.4502
 20
117.6895
 30
0.0
 10
145.4502
 20
117.6895
 30
0.0
 10
145.4502
 20
117.6895
 30
0.0
 10
145.4502
 20
117.6895
 30
0.0
 10
145.4157
 20
112.5394
 30
0.0
 10
145.4157
 20
112.5394
 30
0.0
 10
145.4157
 20
112.5394
 30
0.0
 10
145.4157
 20
112.5394
 30
0.0
 10
152.2912
 20
112.5778
 30
0.0
 10
152.2912
 20
112.5778
 30
0.0
 10
152.2912
 20
112.5778
 30
0.0
 10
152.2912
 20
112.5778
 30
0.0
 10
152.2569
 20
118.3436
 30
0.0
 10
152.2569
 20
118.3436
 30
0.0
 10
152.2569
 20
118.3436
 30
0.0
 10
152.2569
 20
118.3436
 30
0.0
 10
155.4124
 20
118.3498
 30
0.0
 10
155.4124
 20
118.3498
 30
0.0
 10
155.4124
 20
118.3498
 30
0.0
 10
155.4124
 20
118.3498
 30
0.0
 10
155.4124
 20
109.0887
 30
0.0
 10
155.4124
 20
109.0887
 30
0.0
 10
155.4124
 20
109.0887
 30
0.0
 10
155.4124
 20
109.0887
 30
0.0
 10
135.3466
 20
109.1299
 30
0.0
 10
135.3466
 20
109.1299
 30
0.0
 10
135.3466
 20
109.1299
 30
0.0
 10
138.3428
 20
115.1856
 30
0.0
 10
145.021
 20
120.4091
 30
0.0
 10
150.5139
 20
122.0094
 30
0.0
 10
150.5139
 20
122.0094
 30
0.0
 10
150.5139
 20
122.0094
 30
0.0
 10
150.55
 20
114.4931
 30
0.0
 10
150.55
 20
114.4931
 30
0.0
  0
SPLINE
  5
58
330
1F
100
AcDbEntity
  8
layer 1
 62
     7
100
AcDbSpline
210
0.0
220
0.0
230
1.0
 70
    11
 71
     3
 72
    36
 73
    32
 74
     0
 42
0.0000000001
 43
0.0000000001
 12
1.0
 22
0.0
 32
0.0
 13
1.0
 23
0.0
 33
0.0
 40
0.0
 40
0.0
 40
0.0
 40
0.0
 40
0.1111111111111111
 40
0.1111111111111111
 40
0.1111111111111111
 40
0.1111111111111111
 40
0.2222222222222222
 40
0.2222222222222222
 40
0.2222222222222222
 40
0.2222222222222222
 40
0.3333333333333333
 40
0.3333333333333333
 40
0.3333333333333333
 40
0.3333333333333333
 40
0.4444444444444444
 40
0.4444444444444444
 40
0.4444444444444444
 40
0.4444444444444444
 40
0.5555555555555556
 40
0.5555555555555556
 40
0.5555555555555556
 40
0.5555555555555556
 40
0.6666666666666666
 40
0.6666666666666666
 40
0.6666666666666666
 40
0.6666666666666666
 40
0.7777777777777778
 40
0.7777777777777778
 40
0.7777777777777778
 40
0.7777777777777778
 40
1.0
 40
1.0
 40
1.0
 40
1.0
 10
165.9314
 20
107.6652
 30
0.0
 10
165.9314
 20
107.6652
 30
0.0
 10
165.9314
 20
104.1293
 30
0.0
 10
165.9314
 20
104.1293
 30
0.0
 10
165.9314
 20
104.1293
 30
0.0
 10
165.9314
 20
104.1293
 30
0.0
 10
152.3437
 20
104.17
 30
0.0
 10
152.3437
 20
104.17
 30
0.0
 10
152.3437
 20
104.17
 30
0.0
 10
152.3437
 20
104.17
 30
0.0
 10
152.3979
 20
107.6652
 30
0.0
 10
152.3979
 20
107.6652
 30
0.0
 10
152.3979
 20
107.6652
 30
0.0
 10
152.3979
 20
107.6652
 30
0.0
 10
157.4177
 20
107.6854
 30
0.0
 10
157.4177
 20
107.6854
 30
0.0
 10
157.4177
 20
107.6854
 30
0.0
 10
157.4177
 20
107.6854
 30
0.0
 10
157.4558
 20
113.6078
 30
0.0
 10
157.4558
 20
113.6078
 30
0.0
 10
157.4558
 20
113.6078
 30
0.0
 10
157.4558
 20
113.6078
 30
0.0
 10
160.9662
 20
113.5729
 30
0.0
 10
160.9662
 20
113.5729
 30
0.0
 10
160.9662
 20
113.5729
 30
0.0
 10
160.9662
 20
113.5729
 30
0.0
 10
160.9803
 20
107.6673
 30
0.0
 10
160.9803
 20
107.6673
 30
0.0
 10
160.9803
 20
107.6673
 30
0.0
 10
160.9803
 20
107.6673
 30
0.0
 10
165.9314
 20
107.6652
 30
0.0
 10
165.9314
 20
107.6652
 30
0.0
  0
SPLINE
  5
59
330
1F
100
AcDbEntity
  8
layer 1
 62
     7
100
AcDbSpline
210
0.0
220
0.0
230
1.0
 70
    11
 71
     3
 72
    20
 73
    16
 74
     0
 42
0.0000000001
 43
0.0000000001
 12
1.0
 22
0.0
 32
0.0
 13
1.0
 23
0.0
 33
0.0
 40
0.0
 40
0.0
 40
0.0
 40
0.0
 40
0.2
 40
0.2
 40
0.2
 40
0.2
 40
0.4
 40
0.4
 40
0.4
 40
0.4
 40
0.6
 40
0.6
 40
0.6
 40
0.6
 40
1.0
 40
1.0
 40
1.0
 40
1.0
 10
160.9662
 20
114.9767
 30
0.0
 10
160.9662
 20
114.9767
 30
0.0
 10
157.4135
 20
114.9767
 30
0.0
 10
157.4135
 20
114.9767
 30
0.0
 10
157.4135
 20
114.9767
 30
0.0
 10
157.4135
 20
114.9767
 30
0.0
 10
157.4558
 20
123.9528
 30
0.0
 10
157.4558
 20
123.9528
 30
0.0
 10
157.4558
 20
123.9528
 30
0.0
 10
157.4558
 20
123.9528
 30
0.0
 10
160.9662
 20
123.9164
 30
0.0
 10
160.9662
 20
123.9164
 30
0.0
 10
160.9662
 20
123.9164
 30
0.0
 10
160.9662
 20
123.9164
 30
0.0
 10
160.9662
 20
114.9767
 30
0.0
 10
160.9662
 20
114.9767
 30
0.0
  0
SPLINE
  5
5A
330
1F
100
AcDbEntity
  8
layer 1
 62
     7
100
AcDbSpline
210
0.0
220
0.0
230
1.0
 70
    11
 71
     3
 72
    20
 73
    16
 74
     0
 42
0.0000000001
 43
0.0000000001
 12
1.0
 22
0.0
 32
0.0
 13
1.0
 23
0.0
 33
0.0
 40
0.0
 40
0.0
 40
0.0
 40
0.0
 40
0.2
 40
0.2
 40
0.2
 40
0.2
 40
0.4
 40
0.4
 40
0.4
 40
0.4
 40
0.6
 40
0.6
 40
0.6
 40
0.6
 40
1.0
 40
1.0
 40
1.0
 40
1.0
 10
192.1916
 20
102.527
 30
0.0
 10
192.1916
 20
102.527
 30
0.0
 10
171.2973
 20
102.527
 30
0.0
 10
171.2973
 20
102.527
 30
0.0
 10
171.2973
 20
102.527
 30
0.0
 10
171.2973
 20
102.527
 30
0.0
 10
171.2973
 20
98.1302
 30
0.0
 10
171.2973
 20
98.1302
 30
0.0
 10
171.2973
 20
98.1302
 30
0.0
 10
171.2973
 20
98.1302
 30
0.0
 10
192.8648
 20
98.1811
 30
0.0
 10
192.8648
 20
98.1811
 30
0.0
 10
192.8648
 20
98.1811
 30
0.0
 10
192.6632
 20
99.629
 30
0.0
 10
192.5243
 20
100.9246
 30
0.0
 10
192.1916
 20
102.527
 30
0.0
  0
SPLINE
  5
5B
330
1F
100
AcDbEntity
  8
layer 1
 62
     7
100
AcDbSpline
210
0.0
220
0.0
230
1.0
 70
    11
 71
     3
 72
    20
 73
    16
 74
     0
 42
0.0000000001
 43
0.0000000001
 12
1.0
 22
0.0
 32
0.0
 13
1.0
 23
0.0
 33
0.0
 40
0.0
 40
0.0
 40
0.0
 40
0.0
 40
0.2
 40
0.2
 40
0.2
 40
0.2
 40
0.4
 40
0.4
 40
0.4
 40
0.4
 40
0.6
 40
0.6
 40
0.6
 40
0.6
 40
1.0
 40
1.0
 40
1.0
 40
1.0
 10
167.6785
 20
107.6875
 30
0.0
 10
167.6785
 20
107.6875
 30
0.0
 10
167.6785
 20
104.1069
 30
0.0
 10
167.6785
 20
104.1069
 30
0.0
 10
167.6785
 20
104.1069
 30
0.0
 10
167.6785
 20
104.1069
 30
0.0
 10
176.5848
 20
104.1496
 30
0.0
 10
176.5848
 20
104.1496
 30
0.0
 10
176.5848
 20
104.1496
 30
0.0
 10
176.5848
 20
104.1496
 30
0.0
 10
176.5507
 20
107.6875
 30
0.0
 10
176.5507
 20
107.6875
 30
0.0
 10
176.5507
 20
107.6875
 30
0.0
 10
176.5507
 20
107.6875
 30
0.0
 10
167.6785
 20
107.6875
 30
0.0
 10
167.6785
 20
107.6875
 30
0.0
  0
SPLINE
  5
5C
330
1F
100
AcDbEntity
  8
layer 1
 62
     7
100
AcDbSpline
210
0.0
220
0.0
230
1.0
 70
    11
 71
     3
 72
    28
 73
    24
 74
     0
 42
0.0000000001
 43
0.0000000001
 12
1.0
 22
0.0
 32
0.0
 13
1.0
 23
0.0
 33
0.0
 40
0.0
 40
0.0
 40
0.0
 40
0.0
 40
0.1428571428571428
 40
0.1428571428571428
 40
0.1428571428571428
 40
0.1428571428571428
 40
0.2857142857142857
 40
0.2857142857142857
 40
0.2857142857142857
 40
0.2857142857142857
 40
0.4285714285714285
 40
0.4285714285714285
 40
0.4285714285714285
 40
0.4285714285714285
 40
0.5714285714285714
 40
0.5714285714285714
 40
0.5714285714285714
 40
0.5714285714285714
 40
0.7142857142857143
 40
0.7142857142857143
 40
0.7142857142857143
 40
0.7142857142857143
 40
1.0
 40
1.0
 40
1.0
 40
1.0
 10
186.6522
 20
114.9929
 30
0.0
 10
186.6522
 20
114.9929
 30
0.0
 10
183.1703
 20
112.4561
 30
0.0
 10
183.1703
 20
112.4561
 30
0.0
 10
183.1703
 20
112.4561
 30
0.0
 10
184.2506
 20
110.8434
 30
0.0
 10
184.9814
 20
109.6048
 30
0.0
 10
185.9408
 20
107.7406
 30
0.0
 10
185.9408
 20
107.7406
 30
0.0
 10
185.9408
 20
107.7406
 30
0.0
 10
178.0984
 20
107.7161
 30
0.0
 10
178.0984
 20
107.7161
 30
0.0
 10
178.0984
 20
107.7161
 30
0.0
 10
178.0984
 20
107.7161
 30
0.0
 10
178.0984
 20
104.0789
 30
0.0
 10
178.0984
 20
104.0789
 30
0.0
 10
178.0984
 20
104.0789
 30
0.0
 10
178.0984
 20
104.0789
 30
0.0
 10
191.7927
 20
104.1216
 30
0.0
 10
191.7927
 20
104.1216
 30
0.0
 10
191.7927
 20
104.1216
 30
0.0
 10
190.3943
 20
108.8532
 30
0.0
 10
189.276
 20
111.0892
 30
0.0
 10
186.6522
 20
114.9929
 30
0.0
  0
SPLINE
  5
5D
330
1F
100
AcDbEntity
  8
layer 1
 62
     7
100
AcDbSpline
210
0.0
220
0.0
230
1.0
 70
    11
 71
     3
 72
    28
 73
    24
 74
     0
 42
0.0000000001
 43
0.0000000001
 12
1.0
 22
0.0
 32
0.0
 13
1.0
 23
0.0
 33
0.0
 40
0.0
 40
0.0
 40
0.0
 40
0.0
 40
0.1428571428571428
 40
0.1428571428571428
 40
0.1428571428571428
 40
0.1428571428571428
 40
0.2857142857142857
 40
0.2857142857142857
 40
0.2857142857142857
 40
0.2857142857142857
 40
0.4285714285714285
 40
0.4285714285714285
 40
0.4285714285714285
 40
0.4285714285714285
 40
0.5714285714285714
 40
0.5714285714285714
 40
0.5714285714285714
 40
0.5714285714285714
 40
0.7142857142857143
 40
0.7142857142857143
 40
0.7142857142857143
 40
0.7142857142857143
 40
1.0
 40
1.0
 40
1.0
 40
1.0
 10
172.7201
 20
126.3679
 30
0.0
 10
172.7201
 20
126.3679
 30
0.0
 10
171.1323
 20
122.4502
 30
0.0
 10
171.1323
 20
122.4502
 30
0.0
 10
171.1323
 20
122.4502
 30
0.0
 10
169.3788
 20
123.1933
 30
0.0
 10
167.7889
 20
123.7781
 30
0.0
 10
166.022
 20
124.168
 30
0.0
 10
166.022
 20
124.168
 30
0.0
 10
166.022
 20
124.168
 30
0.0
 10
166.0702
 20
119.6781
 30
0.0
 10
166.0702
 20
119.6781
 30
0.0
 10
166.0702
 20
119.6781
 30
0.0
 10
166.0702
 20
119.6781
 30
0.0
 10
162.5984
 20
119.6781
 30
0.0
 10
162.5984
 20
119.6781
 30
0.0
 10
162.5984
 20
119.6781
 30
0.0
 10
162.5984
 20
119.6781
 30
0.0
 10
162.6386
 20
129.089
 30
0.0
 10
162.6386
 20
129.089
 30
0.0
 10
162.6386
 20
129.089
 30
0.0
 10
166.4451
 20
128.5753
 30
0.0
 10
169.7821
 20
127.6795
 30
0.0
 10
172.7201
 20
126.3679
 30
0.0
  0
SPLINE
  5
5E
330
1F
100
AcDbEntity
  8
layer 1
 62
     7
100
AcDbSpline
210
0.0
220
0.0
230
1.0
 70
    11
 71
     3
 72
    20
 73
    16
 74
     0
 42
0.0000000001
 43
0.0000000001
 12
1.0
 22
0.0
 32
0.0
 13
1.0
 23
0.0
 33
0.0
 40
0.0
 40
0.0
 40
0.0
 40
0.0
 40
0.2
 40
0.2
 40
0.2
 40
0.2
 40
0.4
 40
0.4
 40
0.4
 40
0.4
 40
0.6
 40
0.6
 40
0.6
 40
0.6
 40
1.0
 40
1.0
 40
1.0
 40
1.0
 10
174.3079
 20
125.6347
 30
0.0
 10
174.3079
 20
125.6347
 30
0.0
 10
172.609
 20
121.7208
 30
0.0
 10
172.609
 20
121.7208
 30
0.0
 10
172.609
 20
121.7208
 30
0.0
 10
176.3491
 20
119.6069
 30
0.0
 10
178.5053
 20
118.0534
 30
0.0
 10
182.205
 20
113.7865
 30
0.0
 10
182.205
 20
113.7865
 30
0.0
 10
182.205
 20
113.7865
 30
0.0
 10
185.6324
 20
116.3652
 30
0.0
 10
185.6324
 20
116.3652
 30
0.0
 10
185.6324
 20
116.3652
 30
0.0
 10
181.9674
 20
120.5797
 30
0.0
 10
180.2726
 20
122.2813
 30
0.0
 10
174.3079
 20
125.6347
 30
0.0
  0
SPLINE
  5
5F
330
1F
100
AcDbEntity
  8
layer 1
 62
     7
100
AcDbSpline
210
0.0
220
0.0
230
1.0
 70
    11
 71
     3
 72
    56
 73
    52
 74
     0
 42
0.0000000001
 43
0.0000000001
 12
1.0
 22
0.0
 32
0.0
 13
1.0
 23
0.0
 33
0.0
 40
0.0
 40
0.0
 40
0.0
 40
0.0
 40
0.0714285714285714
 40
0.0714285714285714
 40
0.0714285714285714
 40
0.0714285714285714
 40
0.1428571428571428
 40
0.1428571428571428
 40
0.1428571428571428
 40
0.1428571428571428
 40
0.2142857142857143
 40
0.2142857142857143
 40
0.2142857142857143
 40
0.2142857142857143
 40
0.2857142857142857
 40
0.2857142857142857
 40
0.2857142857142857
 40
0.2857142857142857
 40
0.3571428571428572
 40
0.3571428571428572
 40
0.3571428571428572
 40
0.3571428571428572
 40
0.4285714285714285
 40
0.4285714285714285
 40
0.4285714285714285
 40
0.4285714285714285
 40
0.5
 40
0.5
 40
0.5
 40
0.5
 40
0.5714285714285714
 40
0.5714285714285714
 40
0.5714285714285714
 40
0.5714285714285714
 40
0.6428571428571429
 40
0.6428571428571429
 40
0.6428571428571429
 40
0.6428571428571429
 40
0.7142857142857143
 40
0.7142857142857143
 40
0.7142857142857143
 40
0.7142857142857143
 40
0.7857142857142857
 40
0.7857142857142857
 40
0.7857142857142857
 40
0.7857142857142857
 40
0.8571428571428571
 40
0.8571428571428571
 40
0.8571428571428571
 40
0.8571428571428571
 40
1.0
 40
1.0
 40
1.0
 40
1.0
 10
167.773
 20
114.4931
 30
0.0
 10
167.773
 20
114.4931
 30
0.0
 10
171.3498
 20
114.5295
 30
0.0
 10
171.3498
 20
114.5295
 30
0.0
 10
171.3498
 20
114.5295
 30
0.0
 10
171.3498
 20
114.5295
 30
0.0
 10
171.3618
 20
116.0647
 30
0.0
 10
171.3618
 20
116.0647
 30
0.0
 10
171.3618
 20
116.0647
 30
0.0
 10
171.3618
 20
116.0647
 30
0.0
 10
170.3564
 20
116.0404
 30
0.0
 10
170.3564
 20
116.0404
 30
0.0
 10
170.3564
 20
116.0404
 30
0.0
 10
170.3564
 20
116.0404
 30
0.0
 10
170.4106
 20
117.7467
 30
0.0
 10
170.4106
 20
117.7467
 30
0.0
 10
170.4106
 20
117.7467
 30
0.0
 10
170.4106
 20
117.7467
 30
0.0
 10
172.8712
 20
117.6895
 30
0.0
 10
172.8712
 20
117.6895
 30
0.0
 10
172.8712
 20
117.6895
 30
0.0
 10
172.8712
 20
117.6895
 30
0.0
 10
172.9053
 20
112.5394
 30
0.0
 10
172.9053
 20
112.5394
 30
0.0
 10
172.9053
 20
112.5394
 30
0.0
 10
172.9053
 20
112.5394
 30
0.0
 10
166.0299
 20
112.5778
 30
0.0
 10
166.0299
 20
112.5778
 30
0.0
 10
166.0299
 20
112.5778
 30
0.0
 10
166.0299
 20
112.5778
 30
0.0
 10
166.0665
 20
118.3436
 30
0.0
 10
166.0665
 20
118.3436
 30
0.0
 10
166.0665
 20
118.3436
 30
0.0
 10
166.0665
 20
118.3436
 30
0.0
 10
162.9105
 20
118.3498
 30
0.0
 10
162.9105
 20
118.3498
 30
0.0
 10
162.9105
 20
118.3498
 30
0.0
 10
162.9105
 20
118.3498
 30
0.0
 10
162.9105
 20
109.0887
 30
0.0
 10
162.9105
 20
109.0887
 30
0.0
 10
162.9105
 20
109.0887
 30
0.0
 10
162.9105
 20
109.0887
 30
0.0
 10
182.9748
 20
109.1299
 30
0.0
 10
182.9748
 20
109.1299
 30
0.0
 10
182.9748
 20
109.1299
 30
0.0
 10
179.9803
 20
115.1856
 30
0.0
 10
173.3004
 20
120.4091
 30
0.0
 10
167.8075
 20
122.0094
 30
0.0
 10
167.8075
 20
122.0094
 30
0.0
 10
167.8075
 20
122.0094
 30
0.0
 10
167.773
 20
114.4931
 30
0.0
 10
167.773
 20
114.4931
 30
0.0
  0
SPLINE
  5
60
330
1F
100
AcDbEntity
  8
layer 1
 62
     7
100
AcDbSpline
210
0.0
220
0.0
230
1.0
 70
    11
 71
     3
 72
    52
 73
    48
 74
     0
 42
0.0000000001
 43
0.0000000001
 12
1.0
 22
0.0
 32
0.0
 13
1.0
 23
0.0
 33
0.0
 40
0.0
 40
0.0
 40
0.0
 40
0.0
 40
0.0769230769230769
 40
0.0769230769230769
 40
0.0769230769230769
 40
0.0769230769230769
 40
0.1538461538461539
 40
0.1538461538461539
 40
0.1538461538461539
 40
0.1538461538461539
 40
0.2307692307692308
 40
0.2307692307692308
 40
0.2307692307692308
 40
0.2307692307692308
 40
0.3076923076923077
 40
0.3076923076923077
 40
0.3076923076923077
 40
0.3076923076923077
 40
0.3846153846153846
 40
0.3846153846153846
 40
0.3846153846153846
 40
0.3846153846153846
 40
0.4615384615384616
 40
0.4615384615384616
 40
0.4615384615384616
 40
0.4615384615384616
 40
0.5384615384615384
 40
0.5384615384615384
 40
0.5384615384615384
 40
0.5384615384615384
 40
0.6153846153846154
 40
0.6153846153846154
 40
0.6153846153846154
 40
0.6153846153846154
 40
0.6923076923076923
 40
0.6923076923076923
 40
0.6923076923076923
 40
0.6923076923076923
 40
0.7692307692307693
 40
0.7692307692307693
 40
0.7692307692307693
 40
0.7692307692307693
 40
0.8461538461538461
 40
0.8461538461538461
 40
0.8461538461538461
 40
0.8461538461538461
 40
1.0
 40
1.0
 40
1.0
 40
1.0
 10
169.8911
 20
88.2197
 30
0.0
 10
169.8911
 20
88.2197
 30
0.0
 10
169.9113
 20
93.9059
 30
0.0
 10
169.9113
 20
93.9059
 30
0.0
 10
169.9113
 20
93.9059
 30
0.0
 10
169.9113
 20
93.9059
 30
0.0
 10
192.921
 20
93.924
 30
0.0
 10
192.921
 20
93.924
 30
0.0
 10
192.921
 20
93.924
 30
0.0
 10
192.9571
 20
94.7409
 30
0.0
 10
192.9555
 20
95.5571
 30
0.0
 10
192.8849
 20
96.3754
 30
0.0
 10
192.8849
 20
96.3754
 30
0.0
 10
192.8849
 20
96.3754
 30
0.0
 10
169.8927
 20
96.4083
 30
0.0
 10
169.8927
 20
96.4083
 30
0.0
 10
169.8927
 20
96.4083
 30
0.0
 10
169.8927
 20
96.4083
 30
0.0
 10
169.8911
 20
102.4522
 30
0.0
 10
169.8911
 20
102.4522
 30
0.0
 10
169.8911
 20
102.4522
 30
0.0
 10
169.8911
 20
102.4522
 30
0.0
 10
148.4324
 20
102.4522
 30
0.0
 10
148.4324
 20
102.4522
 30
0.0
 10
148.4324
 20
102.4522
 30
0.0
 10
148.4324
 20
102.4522
 30
0.0
 10
148.4303
 20
96.4083
 30
0.0
 10
148.4303
 20
96.4083
 30
0.0
 10
148.4303
 20
96.4083
 30
0.0
 10
148.4303
 20
96.4083
 30
0.0
 10
125.4365
 20
96.3754
 30
0.0
 10
125.4365
 20
96.3754
 30
0.0
 10
125.4365
 20
96.3754
 30
0.0
 10
125.3679
 20
95.5571
 30
0.0
 10
125.3659
 20
94.7408
 30
0.0
 10
125.4019
 20
93.924
 30
0.0
 10
125.4019
 20
93.924
 30
0.0
 10
125.4019
 20
93.924
 30
0.0
 10
148.4123
 20
93.9059
 30
0.0
 10
148.4123
 20
93.9059
 30
0.0
 10
148.4123
 20
93.9059
 30
0.0
 10
148.4123
 20
93.9059
 30
0.0
 10
148.4324
 20
88.2197
 30
0.0
 10
148.4324
 20
88.2197
 30
0.0
 10
148.4324
 20
88.2197
 30
0.0
 10
148.4324
 20
88.2197
 30
0.0
 10
169.8911
 20
88.2197
 30
0.0
 10
169.8911
 20
88.2197
 30
0.0
  0
SPLINE
  5
61
330
1F
100
AcDbEntity
  8
layer 1
 62
     7
100
AcDbSpline
210
0.0
220
0.0
230
1.0
 70
    11
 71
     3
 72
    20
 73
    16
 74
     0
 42
0.0000000001
 43
0.0000000001
 12
1.0
 22
0.0
 32
0.0
 13
1.0
 23
0.0
 33
0.0
 40
0.0
 40
0.0
 40
0.0
 40
0.0
 40
0.2
 40
0.2
 40
0.2
 40
0.2
 40
0.4
 40
0.4
 40
0.4
 40
0.4
 40
0.6
 40
0.6
 40
0.6
 40
0.6
 40
1.0
 40
1.0
 40
1.0
 40
1.0
 10
126.1298
 20
88.0975
 30
0.0
 10
126.1298
 20
88.0975
 30
0.0
 10
147.0236
 20
88.0975
 30
0.0
 10
147.0236
 20
88.0975
 30
0.0
 10
147.0236
 20
88.0975
 30
0.0
 10
147.0236
 20
88.0975
 30
0.0
 10
147.0236
 20
92.4945
 30
0.0
 10
147.0236
 20
92.4945
 30
0.0
 10
147.0236
 20
92.4945
 30
0.0
 10
147.0236
 20
92.4945
 30
0.0
 10
125.4567
 20
92.4439
 30
0.0
 10
125.4567
 20
92.4439
 30
0.0
 10
125.4567
 20
92.4439
 30
0.0
 10
125.6599
 20
90.996
 30
0.0
 10
125.7992
 20
89.6998
 30
0.0
 10
126.1298
 20
88.0975
 30
0.0
  0
SPLINE
  5
62
330
1F
100
AcDbEntity
  8
layer 1
 62
     7
100
AcDbSpline
210
0.0
220
0.0
230
1.0
 70
    11
 71
     3
 72
    20
 73
    16
 74
     0
 42
0.0000000001
 43
0.0000000001
 12
1.0
 22
0.0
 32
0.0
 13
1.0
 23
0.0
 33
0.0
 40
0.0
 40
0.0
 40
0.0
 40
0.0
 40
0.2
 40
0.2
 40
0.2
 40
0.2
 40
0.4
 40
0.4
 40
0.4
 40
0.4
 40
0.6
 40
0.6
 40
0.6
 40
0.6
 40
1.0
 40
1.0
 40
1.0
 40
1.0
 10
150.6449
 20
82.9373
 30
0.0
 10
150.6449
 20
82.9373
 30
0.0
 10
150.6449
 20
86.5175
 30
0.0
 10
150.6449
 20
86.5175
 30
0.0
 10
150.6449
 20
86.5175
 30
0.0
 10
150.6449
 20
86.5175
 30
0.0
 10
141.7381
 20
86.4748
 30
0.0
 10
141.7381
 20
86.4748
 30
0.0
 10
141.7381
 20
86.4748
 30
0.0
 10
141.7381
 20
86.4748
 30
0.0
 10
141.7727
 20
82.9373
 30
0.0
 10
141.7727
 20
82.9373
 30
0.0
 10
141.7727
 20
82.9373
 30
0.0
 10
141.7727
 20
82.9373
 30
0.0
 10
150.6449
 20
82.9373
 30
0.0
 10
150.6449
 20
82.9373
 30
0.0
  0
SPLINE
  5
63
330
1F
100
AcDbEntity
  8
layer 1
 62
     7
100
AcDbSpline
210
0.0
220
0.0
230
1.0
 70
    11
 71
     3
 72
    28
 73
    24
 74
     0
 42
0.0000000001
 43
0.0000000001
 12
1.0
 22
0.0
 32
0.0
 13
1.0
 23
0.0
 33
0.0
 40
0.0
 40
0.0
 40
0.0
 40
0.0
 40
0.1428571428571428
 40
0.1428571428571428
 40
0.1428571428571428
 40
0.1428571428571428
 40
0.2857142857142857
 40
0.2857142857142857
 40
0.2857142857142857
 40
0.2857142857142857
 40
0.4285714285714285
 40
0.4285714285714285
 40
0.4285714285714285
 40
0.4285714285714285
 40
0.5714285714285714
 40
0.5714285714285714
 40
0.5714285714285714
 40
0.5714285714285714
 40
0.7142857142857143
 40
0.7142857142857143
 40
0.7142857142857143
 40
0.7142857142857143
 40
1.0
 40
1.0
 40
1.0
 40
1.0
 10
131.6712
 20
75.6323
 30
0.0
 10
131.6712
 20
75.6323
 30
0.0
 10
135.1532
 20
78.1689
 30
0.0
 10
135.1532
 20
78.1689
 30
0.0
 10
135.1532
 20
78.1689
 30
0.0
 10
134.073
 20
79.781
 30
0.0
 10
133.3394
 20
81.02
 30
0.0
 10
132.3804
 20
82.8843
 30
0.0
 10
132.3804
 20
82.8843
 30
0.0
 10
132.3804
 20
82.8843
 30
0.0
 10
140.2251
 20
82.9089
 30
0.0
 10
140.2251
 20
82.9089
 30
0.0
 10
140.2251
 20
82.9089
 30
0.0
 10
140.2251
 20
82.9089
 30
0.0
 10
140.2251
 20
86.5461
 30
0.0
 10
140.2251
 20
86.5461
 30
0.0
 10
140.2251
 20
86.5461
 30
0.0
 10
140.2251
 20
86.5461
 30
0.0
 10
126.5307
 20
86.5035
 30
0.0
 10
126.5307
 20
86.5035
 30
0.0
 10
126.5307
 20
86.5035
 30
0.0
 10
127.9291
 20
81.7713
 30
0.0
 10
129.0454
 20
79.5356
 30
0.0
 10
131.6712
 20
75.6323
 30
0.0
  0
SPLINE
  5
64
330
1F
100
AcDbEntity
  8
layer 1
 62
     7
100
AcDbSpline
210
0.0
220
0.0
230
1.0
 70
    11
 71
     3
 72
    28
 73
    24
 74
     0
 42
0.0000000001
 43
0.0000000001
 12
1.0
 22
0.0
 32
0.0
 13
1.0
 23
0.0
 33
0.0
 40
0.0
 40
0.0
 40
0.0
 40
0.0
 40
0.1428571428571428
 40
0.1428571428571428
 40
0.1428571428571428
 40
0.1428571428571428
 40
0.2857142857142857
 40
0.2857142857142857
 40
0.2857142857142857
 40
0.2857142857142857
 40
0.4285714285714285
 40
0.4285714285714285
 40
0.4285714285714285
 40
0.4285714285714285
 40
0.5714285714285714
 40
0.5714285714285714
 40
0.5714285714285714
 40
0.5714285714285714
 40
0.7142857142857143
 40
0.7142857142857143
 40
0.7142857142857143
 40
0.7142857142857143
 40
1.0
 40
1.0
 40
1.0
 40
1.0
 10
145.6034
 20
64.2571
 30
0.0
 10
145.6034
 20
64.2571
 30
0.0
 10
147.1913
 20
68.1726
 30
0.0
 10
147.1913
 20
68.1726
 30
0.0
 10
147.1913
 20
68.1726
 30
0.0
 10
148.9421
 20
67.4311
 30
0.0
 10
150.5339
 20
66.8462
 30
0.0
 10
152.3014
 20
66.4564
 30
0.0
 10
152.3014
 20
66.4564
 30
0.0
 10
152.3014
 20
66.4564
 30
0.0
 10
152.253
 20
70.9468
 30
0.0
 10
152.253
 20
70.9468
 30
0.0
 10
152.253
 20
70.9468
 30
0.0
 10
152.253
 20
70.9468
 30
0.0
 10
155.7252
 20
70.9468
 30
0.0
 10
155.7252
 20
70.9468
 30
0.0
 10
155.7252
 20
70.9468
 30
0.0
 10
155.7252
 20
70.9468
 30
0.0
 10
155.6829
 20
61.536
 30
0.0
 10
155.6829
 20
61.536
 30
0.0
 10
155.6829
 20
61.536
 30
0.0
 10
151.8784
 20
62.0496
 30
0.0
 10
148.5412
 20
62.9449
 30
0.0
 10
145.6034
 20
64.2571
 30
0.0
  0
SPLINE
  5
65
330
1F
100
AcDbEntity
  8
layer 1
 62
     7
100
AcDbSpline
210
0.0
220
0.0
230
1.0
 70
    11
 71
     3
 72
    20
 73
    16
 74
     0
 42
0.0000000001
 43
0.0000000001
 12
1.0
 22
0.0
 32
0.0
 13
1.0
 23
0.0
 33
0.0
 40
0.0
 40
0.0
 40
0.0
 40
0.0
 40
0.2
 40
0.2
 40
0.2
 40
0.2
 40
0.4
 40
0.4
 40
0.4
 40
0.4
 40
0.6
 40
0.6
 40
0.6
 40
0.6
 40
1.0
 40
1.0
 40
1.0
 40
1.0
 10
144.0151
 20
64.9903
 30
0.0
 10
144.0151
 20
64.9903
 30
0.0
 10
145.7139
 20
68.9036
 30
0.0
 10
145.7139
 20
68.9036
 30
0.0
 10
145.7139
 20
68.9036
 30
0.0
 10
141.9739
 20
71.0181
 30
0.0
 10
139.8181
 20
72.5714
 30
0.0
 10
136.1184
 20
76.8384
 30
0.0
 10
136.1184
 20
76.8384
 30
0.0
 10
136.1184
 20
76.8384
 30
0.0
 10
132.6906
 20
74.2592
 30
0.0
 10
132.6906
 20
74.2592
 30
0.0
 10
132.6906
 20
74.2592
 30
0.0
 10
136.3562
 20
70.0453
 30
0.0
 10
138.0486
 20
68.3431
 30
0.0
 10
144.0151
 20
64.9903
 30
0.0
  0
SPLINE
  5
66
330
1F
100
AcDbEntity
  8
layer 1
 62
     7
100
AcDbSpline
210
0.0
220
0.0
230
1.0
 70
    11
 71
     3
 72
    56
 73
    52
 74
     0
 42
0.0000000001
 43
0.0000000001
 12
1.0
 22
0.0
 32
0.0
 13
1.0
 23
0.0
 33
0.0
 40
0.0
 40
0.0
 40
0.0
 40
0.0
 40
0.0714285714285714
 40
0.0714285714285714
 40
0.0714285714285714
 40
0.0714285714285714
 40
0.1428571428571428
 40
0.1428571428571428
 40
0.1428571428571428
 40
0.1428571428571428
 40
0.2142857142857143
 40
0.2142857142857143
 40
0.2142857142857143
 40
0.2142857142857143
 40
0.2857142857142857
 40
0.2857142857142857
 40
0.2857142857142857
 40
0.2857142857142857
 40
0.3571428571428572
 40
0.3571428571428572
 40
0.3571428571428572
 40
0.3571428571428572
 40
0.4285714285714285
 40
0.4285714285714285
 40
0.4285714285714285
 40
0.4285714285714285
 40
0.5
 40
0.5
 40
0.5
 40
0.5
 40
0.5714285714285714
 40
0.5714285714285714
 40
0.5714285714285714
 40
0.5714285714285714
 40
0.6428571428571429
 40
0.6428571428571429
 40
0.6428571428571429
 40
0.6428571428571429
 40
0.7142857142857143
 40
0.7142857142857143
 40
0.7142857142857143
 40
0.7142857142857143
 40
0.7857142857142857
 40
0.7857142857142857
 40
0.7857142857142857
 40
0.7857142857142857
 40
0.8571428571428571
 40
0.8571428571428571
 40
0.8571428571428571
 40
0.8571428571428571
 40
1.0
 40
1.0
 40
1.0
 40
1.0
 10
150.55
 20
76.1319
 30
0.0
 10
150.55
 20
76.1319
 30
0.0
 10
146.9736
 20
76.0949
 30
0.0
 10
146.9736
 20
76.0949
 30
0.0
 10
146.9736
 20
76.0949
 30
0.0
 10
146.9736
 20
76.0949
 30
0.0
 10
146.9612
 20
74.5597
 30
0.0
 10
146.9612
 20
74.5597
 30
0.0
 10
146.9612
 20
74.5597
 30
0.0
 10
146.9612
 20
74.5597
 30
0.0
 10
147.9671
 20
74.5841
 30
0.0
 10
147.9671
 20
74.5841
 30
0.0
 10
147.9671
 20
74.5841
 30
0.0
 10
147.9671
 20
74.5841
 30
0.0
 10
147.9124
 20
72.8783
 30
0.0
 10
147.9124
 20
72.8783
 30
0.0
 10
147.9124
 20
72.8783
 30
0.0
 10
147.9124
 20
72.8783
 30
0.0
 10
145.4502
 20
72.9349
 30
0.0
 10
145.4502
 20
72.9349
 30
0.0
 10
145.4502
 20
72.9349
 30
0.0
 10
145.4502
 20
72.9349
 30
0.0
 10
145.4157
 20
78.0856
 30
0.0
 10
145.4157
 20
78.0856
 30
0.0
 10
145.4157
 20
78.0856
 30
0.0
 10
145.4157
 20
78.0856
 30
0.0
 10
152.2912
 20
78.0467
 30
0.0
 10
152.2912
 20
78.0467
 30
0.0
 10
152.2912
 20
78.0467
 30
0.0
 10
152.2912
 20
78.0467
 30
0.0
 10
152.2569
 20
72.2814
 30
0.0
 10
152.2569
 20
72.2814
 30
0.0
 10
152.2569
 20
72.2814
 30
0.0
 10
152.2569
 20
72.2814
 30
0.0
 10
155.4124
 20
72.2752
 30
0.0
 10
155.4124
 20
72.2752
 30
0.0
 10
155.4124
 20
72.2752
 30
0.0
 10
155.4124
 20
72.2752
 30
0.0
 10
155.4124
 20
81.5357
 30
0.0
 10
155.4124
 20
81.5357
 30
0.0
 10
155.4124
 20
81.5357
 30
0.0
 10
155.4124
 20
81.5357
 30
0.0
 10
135.3466
 20
81.4951
 30
0.0
 10
135.3466
 20
81.4951
 30
0.0
 10
135.3466
 20
81.4951
 30
0.0
 10
138.3428
 20
75.4393
 30
0.0
 10
145.021
 20
70.2158
 30
0.0
 10
150.5139
 20
68.6154
 30
0.0
 10
150.5139
 20
68.6154
 30
0.0
 10
150.5139
 20
68.6154
 30
0.0
 10
150.55
 20
76.1319
 30
0.0
 10
150.55
 20
76.1319
 30
0.0
  0
SPLINE
  5
67
330
1F
100
AcDbEntity
  8
layer 1
 62
     7
100
AcDbSpline
210
0.0
220
0.0
230
1.0
 70
    11
 71
     3
 72
    36
 73
    32
 74
     0
 42
0.0000000001
 43
0.0000000001
 12
1.0
 22
0.0
 32
0.0
 13
1.0
 23
0.0
 33
0.0
 40
0.0
 40
0.0
 40
0.0
 40
0.0
 40
0.1111111111111111
 40
0.1111111111111111
 40
0.1111111111111111
 40
0.1111111111111111
 40
0.2222222222222222
 40
0.2222222222222222
 40
0.2222222222222222
 40
0.2222222222222222
 40
0.3333333333333333
 40
0.3333333333333333
 40
0.3333333333333333
 40
0.3333333333333333
 40
0.4444444444444444
 40
0.4444444444444444
 40
0.4444444444444444
 40
0.4444444444444444
 40
0.5555555555555556
 40
0.5555555555555556
 40
0.5555555555555556
 40
0.5555555555555556
 40
0.6666666666666666
 40
0.6666666666666666
 40
0.6666666666666666
 40
0.6666666666666666
 40
0.7777777777777778
 40
0.7777777777777778
 40
0.7777777777777778
 40
0.7777777777777778
 40
1.0
 40
1.0
 40
1.0
 40
1.0
 10
165.9314
 20
82.9597
 30
0.0
 10
165.9314
 20
82.9597
 30
0.0
 10
165.9314
 20
86.4951
 30
0.0
 10
165.9314
 20
86.4951
 30
0.0
 10
165.9314
 20
86.4951
 30
0.0
 10
165.9314
 20
86.4951
 30
0.0
 10
152.3437
 20
86.4546
 30
0.0
 10
152.3437
 20
86.4546
 30
0.0
 10
152.3437
 20
86.4546
 30
0.0
 10
152.3437
 20
86.4546
 30
0.0
 10
152.3979
 20
82.9597
 30
0.0
 10
152.3979
 20
82.9597
 30
0.0
 10
152.3979
 20
82.9597
 30
0.0
 10
152.3979
 20
82.9597
 30
0.0
 10
157.4177
 20
82.9394
 30
0.0
 10
157.4177
 20
82.9394
 30
0.0
 10
157.4177
 20
82.9394
 30
0.0
 10
157.4177
 20
82.9394
 30
0.0
 10
157.4558
 20
77.0173
 30
0.0
 10
157.4558
 20
77.0173
 30
0.0
 10
157.4558
 20
77.0173
 30
0.0
 10
157.4558
 20
77.0173
 30
0.0
 10
160.9662
 20
77.0515
 30
0.0
 10
160.9662
 20
77.0515
 30
0.0
 10
160.9662
 20
77.0515
 30
0.0
 10
160.9662
 20
77.0515
 30
0.0
 10
160.9803
 20
82.9577
 30
0.0
 10
160.9803
 20
82.9577
 30
0.0
 10
160.9803
 20
82.9577
 30
0.0
 10
160.9803
 20
82.9577
 30
0.0
 10
165.9314
 20
82.9597
 30
0.0
 10
165.9314
 20
82.9597
 30
0.0
  0
SPLINE
  5
68
330
1F
100
AcDbEntity
  8
layer 1
 62
     7
100
AcDbSpline
210
0.0
220
0.0
230
1.0
 70
    11
 71
     3
 72
    20
 73
    16
 74
     0
 42
0.0000000001
 43
0.0000000001
 12
1.0
 22
0.0
 32
0.0
 13
1.0
 23
0.0
 33
0.0
 40
0.0
 40
0.0
 40
0.0
 40
0.0
 40
0.2
 40
0.2
 40
0.2
 40
0.2
 40
0.4
 40
0.4
 40
0.4
 40
0.4
 40
0.6
 40
0.6
 40
0.6
 40
0.6
 40
1.0
 40
1.0
 40
1.0
 40
1.0
 10
160.9662
 20
75.6483
 30
0.0
 10
160.9662
 20
75.6483
 30
0.0
 10
157.4135
 20
75.6483
 30
0.0
 10
157.4135
 20
75.6483
 30
0.0
 10
157.4135
 20
75.6483
 30
0.0
 10
157.4135
 20
75.6483
 30
0.0
 10
157.4558
 20
66.6716
 30
0.0
 10
157.4558
 20
66.6716
 30
0.0
 10
157.4558
 20
66.6716
 30
0.0
 10
157.4558
 20
66.6716
 30
0.0
 10
160.9662
 20
66.7065
 30
0.0
 10
160.9662
 20
66.7065
 30
0.0
 10
160.9662
 20
66.7065
 30
0.0
 10
160.9662
 20
66.7065
 30
0.0
 10
160.9662
 20
75.6483
 30
0.0
 10
160.9662
 20
75.6483
 30
0.0
  0
SPLINE
  5
69
330
1F
100
AcDbEntity
  8
layer 1
 62
     7
100
AcDbSpline
210
0.0
220
0.0
230
1.0
 70
    11
 71
     3
 72
    20
 73
    16
 74
     0
 42
0.0000000001
 43
0.0000000001
 12
1.0
 22
0.0
 32
0.0
 13
1.0
 23
0.0
 33
0.0
 40
0.0
 40
0.0
 40
0.0
 40
0.0
 40
0.2
 40
0.2
 40
0.2
 40
0.2
 40
0.4
 40
0.4
 40
0.4
 40
0.4
 40
0.6
 40
0.6
 40
0.6
 40
0.6
 40
1.0
 40
1.0
 40
1.0
 40
1.0
 10
192.1916
 20
88.0975
 30
0.0
 10
192.1916
 20
88.0975
 30
0.0
 10
171.2973
 20
88.0975
 30
0.0
 10
171.2973
 20
88.0975
 30
0.0
 10
171.2973
 20
88.0975
 30
0.0
 10
171.2973
 20
88.0975
 30
0.0
 10
171.2973
 20
92.4945
 30
0.0
 10
171.2973
 20
92.4945
 30
0.0
 10
171.2973
 20
92.4945
 30
0.0
 10
171.2973
 20
92.4945
 30
0.0
 10
192.8648
 20
92.4439
 30
0.0
 10
192.8648
 20
92.4439
 30
0.0
 10
192.8648
 20
92.4439
 30
0.0
 10
192.6632
 20
90.996
 30
0.0
 10
192.5243
 20
89.6998
 30
0.0
 10
192.1916
 20
88.0975
 30
0.0
  0
SPLINE
  5
6A
330
1F
100
AcDbEntity
  8
layer 1
 62
     7
100
AcDbSpline
210
0.0
220
0.0
230
1.0
 70
    11
 71
     3
 72
    20
 73
    16
 74
     0
 42
0.0000000001
 43
0.0000000001
 12
1.0
 22
0.0
 32
0.0
 13
1.0
 23
0.0
 33
0.0
 40
0.0
 40
0.0
 40
0.0
 40
0.0
 40
0.2
 40
0.2
 40
0.2
 40
0.2
 40
0.4
 40
0.4
 40
0.4
 40
0.4
 40
0.6
 40
0.6
 40
0.6
 40
0.6
 40
1.0
 40
1.0
 40
1.0
 40
1.0
 10
167.6785
 20
82.9373
 30
0.0
 10
167.6785
 20
82.9373
 30
0.0
 10
167.6785
 20
86.5175
 30
0.0
 10
167.6785
 20
86.5175
 30
0.0
 10
167.6785
 20
86.5175
 30
0.0
 10
167.6785
 20
86.5175
 30
0.0
 10
176.5848
 20
86.4748
 30
0.0
 10
176.5848
 20
86.4748
 30
0.0
 10
176.5848
 20
86.4748
 30
0.0
 10
176.5848
 20
86.4748
 30
0.0
 10
176.5507
 20
82.9373
 30
0.0
 10
176.5507
 20
82.9373
 30
0.0
 10
176.5507
 20
82.9373
 30
0.0
 10
176.5507
 20
82.9373
 30
0.0
 10
167.6785
 20
82.9373
 30
0.0
 10
167.6785
 20
82.9373
 30
0.0
  0
SPLINE
  5
6B
330
1F
100
AcDbEntity
  8
layer 1
 62
     7
100
AcDbSpline
210
0.0
220
0.0
230
1.0
 70
    11
 71
     3
 72
    28
 73
    24
 74
     0
 42
0.0000000001
 43
0.0000000001
 12
1.0
 22
0.0
 32
0.0
 13
1.0
 23
0.0
 33
0.0
 40
0.0
 40
0.0
 40
0.0
 40
0.0
 40
0.1428571428571428
 40
0.1428571428571428
 40
0.1428571428571428
 40
0.1428571428571428
 40
0.2857142857142857
 40
0.2857142857142857
 40
0.2857142857142857
 40
0.2857142857142857
 40
0.4285714285714285
 40
0.4285714285714285
 40
0.4285714285714285
 40
0.4285714285714285
 40
0.5714285714285714
 40
0.5714285714285714
 40
0.5714285714285714
 40
0.5714285714285714
 40
0.7142857142857143
 40
0.7142857142857143
 40
0.7142857142857143
 40
0.7142857142857143
 40
1.0
 40
1.0
 40
1.0
 40
1.0
 10
186.6522
 20
75.6323
 30
0.0
 10
186.6522
 20
75.6323
 30
0.0
 10
183.1703
 20
78.1689
 30
0.0
 10
183.1703
 20
78.1689
 30
0.0
 10
183.1703
 20
78.1689
 30
0.0
 10
184.2506
 20
79.781
 30
0.0
 10
184.9814
 20
81.02
 30
0.0
 10
185.9408
 20
82.8843
 30
0.0
 10
185.9408
 20
82.8843
 30
0.0
 10
185.9408
 20
82.8843
 30
0.0
 10
178.0984
 20
82.9089
 30
0.0
 10
178.0984
 20
82.9089
 30
0.0
 10
178.0984
 20
82.9089
 30
0.0
 10
178.0984
 20
82.9089
 30
0.0
 10
178.0984
 20
86.5461
 30
0.0
 10
178.0984
 20
86.5461
 30
0.0
 10
178.0984
 20
86.5461
 30
0.0
 10
178.0984
 20
86.5461
 30
0.0
 10
191.7927
 20
86.5035
 30
0.0
 10
191.7927
 20
86.5035
 30
0.0
 10
191.7927
 20
86.5035
 30
0.0
 10
190.3943
 20
81.7713
 30
0.0
 10
189.276
 20
79.5356
 30
0.0
 10
186.6522
 20
75.6323
 30
0.0
  0
SPLINE
  5
6C
330
1F
100
AcDbEntity
  8
layer 1
 62
     7
100
AcDbSpline
210
0.0
220
0.0
230
1.0
 70
    11
 71
     3
 72
    28
 73
    24
 74
     0
 42
0.0000000001
 43
0.0000000001
 12
1.0
 22
0.0
 32
0.0
 13
1.0
 23
0.0
 33
0.0
 40
0.0
 40
0.0
 40
0.0
 40
0.0
 40
0.1428571428571428
 40
0.1428571428571428
 40
0.1428571428571428
 40
0.1428571428571428
 40
0.2857142857142857
 40
0.2857142857142857
 40
0.2857142857142857
 40
0.2857142857142857
 40
0.4285714285714285
 40
0.4285714285714285
 40
0.4285714285714285
 40
0.4285714285714285
 40
0.5714285714285714
 40
0.5714285714285714
 40
0.5714285714285714
 40
0.5714285714285714
 40
0.7142857142857143
 40
0.7142857142857143
 40
0.7142857142857143
 40
0.7142857142857143
 40
1.0
 40
1.0
 40
1.0
 40
1.0
 10
172.7201
 20
64.2571
 30
0.0
 10
172.7201
 20
64.2571
 30
0.0
 10
171.1323
 20
68.1726
 30
0.0
 10
171.1323
 20
68.1726
 30
0.0
 10
171.1323
 20
68.1726
 30
0.0
 10
169.3788
 20
67.4311
 30
0.0
 10
167.7889
 20
66.8462
 30
0.0
 10
166.022
 20
66.4564
 30
0.0
 10
166.022
 20
66.4564
 30
0.0
 10
166.022
 20
66.4564
 30
0.0
 10
166.0702
 20
70.9468
 30
0.0
 10
166.0702
 20
70.9468
 30
0.0
 10
166.0702
 20
70.9468
 30
0.0
 10
166.0702
 20
70.9468
 30
0.0
 10
162.5984
 20
70.9468
 30
0.0
 10
162.5984
 20
70.9468
 30
0.0
 10
162.5984
 20
70.9468
 30
0.0
 10
162.5984
 20
70.9468
 30
0.0
 10
162.6386
 20
61.536
 30
0.0
 10
162.6386
 20
61.536
 30
0.0
 10
162.6386
 20
61.536
 30
0.0
 10
166.4451
 20
62.0496
 30
0.0
 10
169.7821
 20
62.9449
 30
0.0
 10
172.7201
 20
64.2571
 30
0.0
  0
SPLINE
  5
6D
330
1F
100
AcDbEntity
  8
layer 1
 62
     7
100
AcDbSpline
210
0.0
220
0.0
230
1.0
 70
    11
 71
     3
 72
    20
 73
    16
 74
     0
 42
0.0000000001
 43
0.0000000001
 12
1.0
 22
0.0
 32
0.0
 13
1.0
 23
0.0
 33
0.0
 40
0.0
 40
0.0
 40
0.0
 40
0.0
 40
0.2
 40
0.2
 40
0.2
 40
0.2
 40
0.4
 40
0.4
 40
0.4
 40
0.4
 40
0.6
 40
0.6
 40
0.6
 40
0.6
 40
1.0
 40
1.0
 40
1.0
 40
1.0
 10
174.3079
 20
64.9903
 30
0.0
 10
174.3079
 20
64.9903
 30
0.0
 10
172.609
 20
68.9036
 30
0.0
 10
172.609
 20
68.9036
 30
0.0
 10
172.609
 20
68.9036
 30
0.0
 10
176.3491
 20
71.0181
 30
0.0
 10
178.5053
 20
72.5714
 30
0.0
 10
182.205
 20
76.8384
 30
0.0
 10
182.205
 20
76.8384
 30
0.0
 10
182.205
 20
76.8384
 30
0.0
 10
185.6324
 20
74.2592
 30
0.0
 10
185.6324
 20
74.2592
 30
0.0
 10
185.6324
 20
74.2592
 30
0.0
 10
181.9674
 20
70.0453
 30
0.0
 10
180.2726
 20
68.3431
 30
0.0
 10
174.3079
 20
64.9903
 30
0.0
  0
SPLINE
  5
6E
330
1F
100
AcDbEntity
  8
layer 1
 62
     7
100
AcDbSpline
210
0.0
220
0.0
230
1.0
 70
    11
 71
     3
 72
    56
 73
    52
 74
     0
 42
0.0000000001
 43
0.0000000001
 12
1.0
 22
0.0
 32
0.0
 13
1.0
 23
0.0
 33
0.0
 40
0.0
 40
0.0
 40
0.0
 40
0.0
 40
0.0714285714285714
 40
0.0714285714285714
 40
0.0714285714285714
 40
0.0714285714285714
 40
0.1428571428571428
 40
0.1428571428571428
 40
0.1428571428571428
 40
0.1428571428571428
 40
0.2142857142857143
 40
0.2142857142857143
 40
0.2142857142857143
 40
0.2142857142857143
 40
0.2857142857142857
 40
0.2857142857142857
 40
0.2857142857142857
 40
0.2857142857142857
 40
0.3571428571428572
 40
0.3571428571428572
 40
0.3571428571428572
 40
0.3571428571428572
 40
0.4285714285714285
 40
0.4285714285714285
 40
0.4285714285714285
 40
0.4285714285714285
 40
0.5
 40
0.5
 40
0.5
 40
0.5
 40
0.5714285714285714
 40
0.5714285714285714
 40
0.5714285714285714
 40
0.5714285714285714
 40
0.6428571428571429
 40
0.6428571428571429
 40
0.6428571428571429
 40
0.6428571428571429
 40
0.7142857142857143
 40
0.7142857142857143
 40
0.7142857142857143
 40
0.7142857142857143
 40
0.7857142857142857
 40
0.7857142857142857
 40
0.7857142857142857
 40
0.7857142857142857
 40
0.8571428571428571
 40
0.8571428571428571
 40
0.8571428571428571
 40
0.8571428571428571
 40
1.0
 40
1.0
 40
1.0
 40
1.0
 10
167.773
 20
76.1319
 30
0.0
 10
167.773
 20
76.1319
 30
0.0
 10
171.3498
 20
76.0949
 30
0.0
 10
171.3498
 20
76.0949
 30
0.0
 10
171.3498
 20
76.0949
 30
0.0
 10
171.3498
 20
76.0949
 30
0.0
 10
171.3618
 20
74.5597
 30
0.0
 10
171.3618
 20
74.5597
 30
0.0
 10
171.3618
 20
74.5597
 30
0.0
 10
171.3618
 20
74.5597
 30
0.0
 10
170.3564
 20
74.5841
 30
0.0
 10
170.3564
 20
74.5841
 30
0.0
 10
170.3564
 20
74.5841
 30
0.0
 10
170.3564
 20
74.5841
 30
0.0
 10
170.4106
 20
72.8783
 30
0.0
 10
170.4106
 20
72.8783
 30
0.0
 10
170.4106
 20
72.8783
 30
0.0
 10
170.4106
 20
72.8783
 30
0.0
 10
172.8712
 20
72.9349
 30
0.0
 10
172.8712
 20
72.9349
 30
0.0
 10
172.8712
 20
72.9349
 30
0.0
 10
172.8712
 20
72.9349
 30
0.0
 10
172.9053
 20
78.0856
 30
0.0
 10
172.9053
 20
78.0856
 30
0.0
 10
172.9053
 20
78.0856
 30
0.0
 10
172.9053
 20
78.0856
 30
0.0
 10
166.0299
 20
78.0467
 30
0.0
 10
166.0299
 20
78.0467
 30
0.0
 10
166.0299
 20
78.0467
 30
0.0
 10
166.0299
 20
78.0467
 30
0.0
 10
166.0665
 20
72.2814
 30
0.0
 10
166.0665
 20
72.2814
 30
0.0
 10
166.0665
 20
72.2814
 30
0.0
 10
166.0665
 20
72.2814
 30
0.0
 10
162.9105
 20
72.2752
 30
0.0
 10
162.9105
 20
72.2752
 30
0.0
 10
162.9105
 20
72.2752
 30
0.0
 10
162.9105
 20
72.2752
 30
0.0
 10
162.9105
 20
81.5357
 30
0.0
 10
162.9105
 20
81.5357
 30
0.0
 10
162.9105
 20
81.5357
 30
0.0
 10
162.9105
 20
81.5357
 30
0.0
 10
182.9748
 20
81.4951
 30
0.0
 10
182.9748
 20
81.4951
 30
0.0
 10
182.9748
 20
81.4951
 30
0.0
 10
179.9803
 20
75.4393
 30
0.0
 10
173.3004
 20
70.2158
 30
0.0
 10
167.8075
 20
68.6154
 30
0.0
 10
167.8075
 20
68.6154
 30
0.0
 10
167.8075
 20
68.6154
 30
0.0
 10
167.773
 20
76.1319
 30
0.0
 10
167.773
 20
76.1319
 30
0.0
  0
SPLINE
  5
6F
330
1F
100
AcDbEntity
  8
layer 1
100
AcDbSpline
210
0.0
220
0.0
230
1.0
 70
    11
 71
     3
 72
    20
 73
    16
 74
     0
 42
0.0000000001
 43
0.0000000001
 12
1.0
 22
0.0
 32
0.0
 13
1.0
 23
0.0
 33
0.0
 40
0.0
 40
0.0
 40
0.0
 40
0.0
 40
0.2
 40
0.2
 40
0.2
 40
0.2
 40
0.4
 40
0.4
 40
0.4
 40
0.4
 40
0.6
 40
0.6
 40
0.6
 40
0.6
 40
1.0
 40
1.0
 40
1.0
 40
1.0
 10
118.366
 20
8.7745
 30
0.0
 10
118.366
 20
-11.3842
 30
0.0
 10
102.0248
 20
-27.7254
 30
0.0
 10
81.8659
 20
-27.7254
 30
0.0
 10
81.8659
 20
-27.7254
 30
0.0
 10
61.7081
 20
-27.7254
 30
0.0
 10
45.366
 20
-11.3842
 30
0.0
 10
45.366
 20
8.7745
 30
0.0
 10
45.366
 20
8.7745
 30
0.0
 10
45.366
 20
28.9325
 30
0.0
 10
61.7081
 20
45.2746
 30
0.0
 10
81.8659
 20
45.2746
 30
0.0
 10
81.8659
 20
45.2746
 30
0.0
 10
102.0248
 20
45.2746
 30
0.0
 10
118.366
 20
28.9324
 30
0.0
 10
118.366
 20
8.7745
 30
0.0
  0
SPLINE
  5
70
330
1F
100
AcDbEntity
  8
layer 1
 62
     7
100
AcDbSpline
210
0.0
220
0.0
230
1.0
 70
    11
 71
     3
 72
    48
 73
    44
 74
     0
 42
0.0000000001
 43
0.0000000001
 12
1.0
 22
0.0
 32
0.0
 13
1.0
 23
0.0
 33
0.0
 40
0.0
 40
0.0
 40
0.0
 40
0.0
 40
0.0833333333333333
 40
0.0833333333333333
 40
0.0833333333333333
 40
0.0833333333333333
 40
0.1666666666666667
 40
0.1666666666666667
 40
0.1666666666666667
 40
0.1666666666666667
 40
0.25
 40
0.25
 40
0.25
 40
0.25
 40
0.3333333333333333
 40
0.3333333333333333
 40
0.3333333333333333
 40
0.3333333333333333
 40
0.4166666666666667
 40
0.4166666666666667
 40
0.4166666666666667
 40
0.4166666666666667
 40
0.5
 40
0.5
 40
0.5
 40
0.5
 40
0.5833333333333334
 40
0.5833333333333334
 40
0.5833333333333334
 40
0.5833333333333334
 40
0.6666666666666666
 40
0.6666666666666666
 40
0.6666666666666666
 40
0.6666666666666666
 40
0.75
 40
0.75
 40
0.75
 40
0.75
 40
0.8333333333333334
 40
0.8333333333333334
 40
0.8333333333333334
 40
0.8333333333333334
 40
1.0
 40
1.0
 40
1.0
 40
1.0
 10
100.327
 20
-4.6804
 30
0.0
 10
97.8352
 20
-4.6804
 30
0.0
 10
95.5012
 20
-4.0036
 30
0.0
 10
93.4088
 20
-2.8069
 30
0.0
 10
93.4088
 20
-2.8069
 30
0.0
 10
94.5575
 20
-4.8258
 30
0.0
 10
95.271
 20
-7.2173
 30
0.0
 10
95.271
 20
-9.7751
 30
0.0
 10
95.271
 20
-9.7751
 30
0.0
 10
95.271
 20
-15.9382
 30
0.0
 10
91.1294
 20
-21.1339
 30
0.0
 10
85.5148
 20
-22.6817
 30
0.0
 10
85.5148
 20
-22.6817
 30
0.0
 10
91.7808
 20
-21.9078
 30
0.0
 10
97.4578
 20
-19.3747
 30
0.0
 10
102.0079
 20
-15.5125
 30
0.0
 10
102.0079
 20
-15.5125
 30
0.0
 10
101.7267
 20
-15.4927
 30
0.0
 10
101.4747
 20
-15.5125
 30
0.0
 10
101.2178
 20
-15.5125
 30
0.0
 10
101.2178
 20
-15.5125
 30
0.0
 10
98.5072
 20
-15.5125
 30
0.0
 10
96.3092
 20
-13.3145
 30
0.0
 10
96.3092
 20
-10.6039
 30
0.0
 10
96.3092
 20
-10.6039
 30
0.0
 10
96.3092
 20
-7.8931
 30
0.0
 10
98.5072
 20
-5.695
 30
0.0
 10
101.2178
 20
-5.695
 30
0.0
 10
101.2178
 20
-5.695
 30
0.0
 10
103.9285
 20
-5.695
 30
0.0
 10
106.1267
 20
-7.8931
 30
0.0
 10
106.1267
 20
-10.6039
 30
0.0
 10
106.1267
 20
-10.6039
 30
0.0
 10
106.1267
 20
-10.8841
 30
0.0
 10
106.103
 20
-11.1598
 30
0.0
 10
106.0738
 20
-11.4872
 30
0.0
 10
106.0738
 20
-11.4872
 30
0.0
 10
109.9615
 20
-6.9361
 30
0.0
 10
112.5406
 20
-1.2053
 30
0.0
 10
113.2694
 20
5.071
 30
0.0
 10
113.2694
 20
5.071
 30
0.0
 10
111.6489
 20
-0.5683
 30
0.0
 10
106.4684
 20
-4.6804
 30
0.0
 10
100.327
 20
-4.6804
 30
0.0
  0
SPLINE
  5
71
330
1F
100
AcDbEntity
  8
layer 1
 62
     7
100
AcDbSpline
210
0.0
220
0.0
230
1.0
 70
    11
 71
     3
 72
    68
 73
    64
 74
     0
 42
0.0000000001
 43
0.0000000001
 12
1.0
 22
0.0
 32
0.0
 13
1.0
 23
0.0
 33
0.0
 40
0.0
 40
0.0
 40
0.0
 40
0.0
 40
0.0588235294117647
 40
0.0588235294117647
 40
0.0588235294117647
 40
0.0588235294117647
 40
0.1176470588235294
 40
0.1176470588235294
 40
0.1176470588235294
 40
0.1176470588235294
 40
0.1764705882352941
 40
0.1764705882352941
 40
0.1764705882352941
 40
0.1764705882352941
 40
0.2352941176470588
 40
0.2352941176470588
 40
0.2352941176470588
 40
0.2352941176470588
 40
0.2941176470588235
 40
0.2941176470588235
 40
0.2941176470588235
 40
0.2941176470588235
 40
0.3529411764705883
 40
0.3529411764705883
 40
0.3529411764705883
 40
0.3529411764705883
 40
0.4117647058823529
 40
0.4117647058823529
 40
0.4117647058823529
 40
0.4117647058823529
 40
0.4705882352941176
 40
0.4705882352941176
 40
0.4705882352941176
 40
0.4705882352941176
 40
0.5294117647058824
 40
0.5294117647058824
 40
0.5294117647058824
 40
0.5294117647058824
 40
0.5882352941176471
 40
0.5882352941176471
 40
0.5882352941176471
 40
0.5882352941176471
 40
0.6470588235294118
 40
0.6470588235294118
 40
0.6470588235294118
 40
0.6470588235294118
 40
0.7058823529411765
 40
0.7058823529411765
 40
0.7058823529411765
 40
0.7058823529411765
 40
0.7647058823529411
 40
0.7647058823529411
 40
0.7647058823529411
 40
0.7647058823529411
 40
0.8235294117647058
 40
0.8235294117647058
 40
0.8235294117647058
 40
0.8235294117647058
 40
0.8823529411764706
 40
0.8823529411764706
 40
0.8823529411764706
 40
0.8823529411764706
 40
1.0
 40
1.0
 40
1.0
 40
1.0
 10
100.4118
 20
19.3386
 30
0.0
 10
96.343
 20
19.3386
 30
0.0
 10
92.8152
 20
17.0176
 30
0.0
 10
91.0794
 20
13.6369
 30
0.0
 10
91.0794
 20
13.6369
 30
0.0
 10
91.5429
 20
13.7928
 30
0.0
 10
92.0384
 20
13.8721
 30
0.0
 10
92.5538
 20
13.8721
 30
0.0
 10
92.5538
 20
13.8721
 30
0.0
 10
95.286
 20
13.8721
 30
0.0
 10
97.501
 20
11.6559
 30
0.0
 10
97.501
 20
8.9235
 30
0.0
 10
97.501
 20
8.9235
 30
0.0
 10
97.5011
 20
6.1904
 30
0.0
 10
95.286
 20
3.9753
 30
0.0
 10
92.5538
 20
3.9753
 30
0.0
 10
92.5538
 20
3.9753
 30
0.0
 10
92.0261
 20
3.9753
 30
0.0
 10
91.5184
 20
4.0583
 30
0.0
 10
91.0304
 20
4.2207
 30
0.0
 10
91.0304
 20
4.2207
 30
0.0
 10
92.7292
 20
0.7729
 30
0.0
 10
96.293
 20
-1.6056
 30
0.0
 10
100.4118
 20
-1.6056
 30
0.0
 10
100.4118
 20
-1.6056
 30
0.0
 10
100.5931
 20
-1.6056
 30
0.0
 10
100.7723
 20
-1.6008
 30
0.0
 10
100.9347
 20
-1.5885
 30
0.0
 10
100.9347
 20
-1.5885
 30
0.0
 10
99.936
 20
-0.6807
 30
0.0
 10
99.3209
 20
0.6163
 30
0.0
 10
99.3209
 20
2.0556
 30
0.0
 10
99.3209
 20
2.0556
 30
0.0
 10
99.3209
 20
4.7888
 30
0.0
 10
101.536
 20
7.0039
 30
0.0
 10
104.2692
 20
7.0039
 30
0.0
 10
104.2692
 20
7.0039
 30
0.0
 10
106.6571
 20
7.0039
 30
0.0
 10
108.6504
 20
5.3126
 30
0.0
 10
109.1175
 20
3.0542
 30
0.0
 10
109.1175
 20
3.0542
 30
0.0
 10
110.2342
 20
4.7115
 30
0.0
 10
110.8844
 20
6.7132
 30
0.0
 10
110.8844
 20
8.867
 30
0.0
 10
110.8844
 20
8.867
 30
0.0
 10
110.8844
 20
11.0227
 30
0.0
 10
110.2332
 20
13.0255
 30
0.0
 10
109.1252
 20
14.6687
 30
0.0
 10
109.1252
 20
14.6687
 30
0.0
 10
108.6419
 20
12.4318
 30
0.0
 10
106.6655
 20
10.7762
 30
0.0
 10
104.3023
 20
10.7762
 30
0.0
 10
104.3023
 20
10.7762
 30
0.0
 10
101.5699
 20
10.7763
 30
0.0
 10
99.3547
 20
12.9914
 30
0.0
 10
99.3547
 20
15.7238
 30
0.0
 10
99.3547
 20
15.7238
 30
0.0
 10
99.3548
 20
17.1254
 30
0.0
 10
99.937
 20
18.391
 30
0.0
 10
100.8583
 20
19.3113
 30
0.0
 10
100.8583
 20
19.3113
 30
0.0
 10
100.6998
 20
19.3357
 30
0.0
 10
100.5563
 20
19.3386
 30
0.0
 10
100.4118
 20
19.3386
 30
0.0
  0
SPLINE
  5
72
330
1F
100
AcDbEntity
  8
layer 1
 62
     7
100
AcDbSpline
210
0.0
220
0.0
230
1.0
 70
    11
 71
     3
 72
    20
 73
    16
 74
     0
 42
0.0000000001
 43
0.0000000001
 12
1.0
 22
0.0
 32
0.0
 13
1.0
 23
0.0
 33
0.0
 40
0.0
 40
0.0
 40
0.0
 40
0.0
 40
0.2
 40
0.2
 40
0.2
 40
0.2
 40
0.4
 40
0.4
 40
0.4
 40
0.4
 40
0.6
 40
0.6
 40
0.6
 40
0.6
 40
1.0
 40
1.0
 40
1.0
 40
1.0
 10
106.8977
 20
2.1472
 30
0.0
 10
106.8977
 20
0.6719
 30
0.0
 10
105.7029
 20
-0.5239
 30
0.0
 10
104.2277
 20
-0.5239
 30
0.0
 10
104.2277
 20
-0.5239
 30
0.0
 10
102.7536
 20
-0.5239
 30
0.0
 10
101.5575
 20
0.6719
 30
0.0
 10
101.5575
 20
2.1472
 30
0.0
 10
101.5575
 20
2.1472
 30
0.0
 10
101.5575
 20
3.6212
 30
0.0
 10
102.7536
 20
4.817
 30
0.0
 10
104.2277
 20
4.817
 30
0.0
 10
104.2277
 20
4.817
 30
0.0
 10
105.703
 20
4.817
 30
0.0
 10
106.8977
 20
3.6212
 30
0.0
 10
106.8977
 20
2.1472
 30
0.0
  0
SPLINE
  5
73
330
1F
100
AcDbEntity
  8
layer 1
 62
     7
100
AcDbSpline
210
0.0
220
0.0
230
1.0
 70
    11
 71
     3
 72
    20
 73
    16
 74
     0
 42
0.0000000001
 43
0.0000000001
 12
1.0
 22
0.0
 32
0.0
 13
1.0
 23
0.0
 33
0.0
 40
0.0
 40
0.0
 40
0.0
 40
0.0
 40
0.2
 40
0.2
 40
0.2
 40
0.2
 40
0.4
 40
0.4
 40
0.4
 40
0.4
 40
0.6
 40
0.6
 40
0.6
 40
0.6
 40
1.0
 40
1.0
 40
1.0
 40
1.0
 10
106.8977
 20
15.8144
 30
0.0
 10
106.8977
 20
14.3394
 30
0.0
 10
105.7029
 20
13.1443
 30
0.0
 10
104.2277
 20
13.1443
 30
0.0
 10
104.2277
 20
13.1443
 30
0.0
 10
102.7536
 20
13.1443
 30
0.0
 10
101.5575
 20
14.3394
 30
0.0
 10
101.5575
 20
15.8144
 30
0.0
 10
101.5575
 20
15.8144
 30
0.0
 10
101.5575
 20
17.2887
 30
0.0
 10
102.7536
 20
18.4845
 30
0.0
 10
104.2277
 20
18.4845
 30
0.0
 10
104.2277
 20
18.4845
 30
0.0
 10
105.703
 20
18.4845
 30
0.0
 10
106.8977
 20
17.2887
 30
0.0
 10
106.8977
 20
15.8144
 30
0.0
  0
SPLINE
  5
74
330
1F
100
AcDbEntity
  8
layer 1
 62
     7
100
AcDbSpline
210
0.0
220
0.0
230
1.0
 70
    11
 71
     3
 72
    20
 73
    16
 74
     0
 42
0.0000000001
 43
0.0000000001
 12
1.0
 22
0.0
 32
0.0
 13
1.0
 23
0.0
 33
0.0
 40
0.0
 40
0.0
 40
0.0
 40
0.0
 40
0.2
 40
0.2
 40
0.2
 40
0.2
 40
0.4
 40
0.4
 40
0.4
 40
0.4
 40
0.6
 40
0.6
 40
0.6
 40
0.6
 40
1.0
 40
1.0
 40
1.0
 40
1.0
 10
95.1096
 20
8.9236
 30
0.0
 10
95.1096
 20
7.4484
 30
0.0
 10
93.9138
 20
6.2537
 30
0.0
 10
92.4395
 20
6.2537
 30
0.0
 10
92.4395
 20
6.2537
 30
0.0
 10
90.9644
 20
6.2537
 30
0.0
 10
89.7693
 20
7.4484
 30
0.0
 10
89.7693
 20
8.9235
 30
0.0
 10
89.7693
 20
8.9235
 30
0.0
 10
89.7694
 20
10.3979
 30
0.0
 10
90.9644
 20
11.5936
 30
0.0
 10
92.4395
 20
11.5936
 30
0.0
 10
92.4395
 20
11.5936
 30
0.0
 10
93.9138
 20
11.5936
 30
0.0
 10
95.1095
 20
10.3979
 30
0.0
 10
95.1096
 20
8.9236
 30
0.0
  0
SPLINE
  5
75
330
1F
100
AcDbEntity
  8
layer 1
 62
     7
100
AcDbSpline
210
0.0
220
0.0
230
1.0
 70
    11
 71
     3
 72
    20
 73
    16
 74
     0
 42
0.0000000001
 43
0.0000000001
 12
1.0
 22
0.0
 32
0.0
 13
1.0
 23
0.0
 33
0.0
 40
0.0
 40
0.0
 40
0.0
 40
0.0
 40
0.2
 40
0.2
 40
0.2
 40
0.2
 40
0.4
 40
0.4
 40
0.4
 40
0.4
 40
0.6
 40
0.6
 40
0.6
 40
0.6
 40
1.0
 40
1.0
 40
1.0
 40
1.0
 10
91.3512
 20
23.2178
 30
0.0
 10
91.3512
 20
21.7434
 30
0.0
 10
90.1555
 20
20.5477
 30
0.0
 10
88.6811
 20
20.5477
 30
0.0
 10
88.6811
 20
20.5477
 30
0.0
 10
87.2061
 20
20.5477
 30
0.0
 10
86.0103
 20
21.7434
 30
0.0
 10
86.0103
 20
23.2177
 30
0.0
 10
86.0103
 20
23.2177
 30
0.0
 10
86.0103
 20
24.6928
 30
0.0
 10
87.2061
 20
25.8876
 30
0.0
 10
88.6811
 20
25.8876
 30
0.0
 10
88.6811
 20
25.8876
 30
0.0
 10
90.1555
 20
25.8876
 30
0.0
 10
91.3512
 20
24.6928
 30
0.0
 10
91.3512
 20
23.2178
 30
0.0
  0
SPLINE
  5
76
330
1F
100
AcDbEntity
  8
layer 1
 62
     7
100
AcDbSpline
210
0.0
220
0.0
230
1.0
 70
    11
 71
     3
 72
    20
 73
    16
 74
     0
 42
0.0000000001
 43
0.0000000001
 12
1.0
 22
0.0
 32
0.0
 13
1.0
 23
0.0
 33
0.0
 40
0.0
 40
0.0
 40
0.0
 40
0.0
 40
0.2
 40
0.2
 40
0.2
 40
0.2
 40
0.4
 40
0.4
 40
0.4
 40
0.4
 40
0.6
 40
0.6
 40
0.6
 40
0.6
 40
1.0
 40
1.0
 40
1.0
 40
1.0
 10
84.6314
 20
34.9491
 30
0.0
 10
84.6314
 20
33.475
 30
0.0
 10
83.4356
 20
32.2793
 30
0.0
 10
81.9613
 20
32.2793
 30
0.0
 10
81.9613
 20
32.2793
 30
0.0
 10
80.486
 20
32.2793
 30
0.0
 10
79.2903
 20
33.475
 30
0.0
 10
79.2903
 20
34.9491
 30
0.0
 10
79.2903
 20
34.9491
 30
0.0
 10
79.2903
 20
36.4235
 30
0.0
 10
80.486
 20
37.6193
 30
0.0
 10
81.9613
 20
37.6193
 30
0.0
 10
81.9613
 20
37.6193
 30
0.0
 10
83.4356
 20
37.6193
 30
0.0
 10
84.6314
 20
36.4235
 30
0.0
 10
84.6314
 20
34.9491
 30
0.0
  0
SPLINE
  5
77
330
1F
100
AcDbEntity
  8
layer 1
 62
     7
100
AcDbSpline
210
0.0
220
0.0
230
1.0
 70
    11
 71
     3
 72
    20
 73
    16
 74
     0
 42
0.0000000001
 43
0.0000000001
 12
1.0
 22
0.0
 32
0.0
 13
1.0
 23
0.0
 33
0.0
 40
0.0
 40
0.0
 40
0.0
 40
0.0
 40
0.2
 40
0.2
 40
0.2
 40
0.2
 40
0.4
 40
0.4
 40
0.4
 40
0.4
 40
0.6
 40
0.6
 40
0.6
 40
0.6
 40
1.0
 40
1.0
 40
1.0
 40
1.0
 10
77.6831
 20
23.1035
 30
0.0
 10
77.6831
 20
21.6291
 30
0.0
 10
76.4883
 20
20.4333
 30
0.0
 10
75.0129
 20
20.4333
 30
0.0
 10
75.0129
 20
20.4333
 30
0.0
 10
73.5389
 20
20.4333
 30
0.0
 10
72.3428
 20
21.6291
 30
0.0
 10
72.3428
 20
23.1035
 30
0.0
 10
72.3428
 20
23.1035
 30
0.0
 10
72.3429
 20
24.5785
 30
0.0
 10
73.5389
 20
25.7745
 30
0.0
 10
75.0129
 20
25.7745
 30
0.0
 10
75.0129
 20
25.7745
 30
0.0
 10
76.4883
 20
25.7745
 30
0.0
 10
77.683
 20
24.5785
 30
0.0
 10
77.6831
 20
23.1035
 30
0.0
  0
SPLINE
  5
78
330
1F
100
AcDbEntity
  8
layer 1
 62
     7
100
AcDbSpline
210
0.0
220
0.0
230
1.0
 70
    11
 71
     3
 72
    68
 73
    64
 74
     0
 42
0.0000000001
 43
0.0000000001
 12
1.0
 22
0.0
 32
0.0
 13
1.0
 23
0.0
 33
0.0
 40
0.0
 40
0.0
 40
0.0
 40
0.0
 40
0.0588235294117647
 40
0.0588235294117647
 40
0.0588235294117647
 40
0.0588235294117647
 40
0.1176470588235294
 40
0.1176470588235294
 40
0.1176470588235294
 40
0.1176470588235294
 40
0.1764705882352941
 40
0.1764705882352941
 40
0.1764705882352941
 40
0.1764705882352941
 40
0.2352941176470588
 40
0.2352941176470588
 40
0.2352941176470588
 40
0.2352941176470588
 40
0.2941176470588235
 40
0.2941176470588235
 40
0.2941176470588235
 40
0.2941176470588235
 40
0.3529411764705883
 40
0.3529411764705883
 40
0.3529411764705883
 40
0.3529411764705883
 40
0.4117647058823529
 40
0.4117647058823529
 40
0.4117647058823529
 40
0.4117647058823529
 40
0.4705882352941176
 40
0.4705882352941176
 40
0.4705882352941176
 40
0.4705882352941176
 40
0.5294117647058824
 40
0.5294117647058824
 40
0.5294117647058824
 40
0.5294117647058824
 40
0.5882352941176471
 40
0.5882352941176471
 40
0.5882352941176471
 40
0.5882352941176471
 40
0.6470588235294118
 40
0.6470588235294118
 40
0.6470588235294118
 40
0.6470588235294118
 40
0.7058823529411765
 40
0.7058823529411765
 40
0.7058823529411765
 40
0.7058823529411765
 40
0.7647058823529411
 40
0.7647058823529411
 40
0.7647058823529411
 40
0.7647058823529411
 40
0.8235294117647058
 40
0.8235294117647058
 40
0.8235294117647058
 40
0.8235294117647058
 40
0.8823529411764706
 40
0.8823529411764706
 40
0.8823529411764706
 40
0.8823529411764706
 40
1.0
 40
1.0
 40
1.0
 40
1.0
 10
76.726
 20
36.1865
 30
0.0
 10
73.2018
 20
34.1518
 30
0.0
 10
71.3075
 20
30.3783
 30
0.0
 10
71.4936
 20
26.5823
 30
0.0
 10
71.4936
 20
26.5823
 30
0.0
 10
71.8174
 20
26.9495
 30
0.0
 10
72.2071
 20
27.2658
 30
0.0
 10
72.6536
 20
27.5223
 30
0.0
 10
72.6536
 20
27.5223
 30
0.0
 10
75.0195
 20
28.889
 30
0.0
 10
78.0464
 20
28.0783
 30
0.0
 10
79.412
 20
25.7112
 30
0.0
 10
79.412
 20
25.7112
 30
0.0
 10
80.7786
 20
23.3451
 30
0.0
 10
79.968
 20
20.3193
 30
0.0
 10
77.6009
 20
18.9525
 30
0.0
 10
77.6009
 20
18.9525
 30
0.0
 10
77.144
 20
18.6884
 30
0.0
 10
76.6637
 20
18.5063
 30
0.0
 10
76.1597
 20
18.4033
 30
0.0
 10
76.1597
 20
18.4033
 30
0.0
 10
79.3546
 20
16.2665
 30
0.0
 10
83.6299
 20
15.9891
 30
0.0
 10
87.1976
 20
18.0483
 30
0.0
 10
87.1976
 20
18.0483
 30
0.0
 10
87.3542
 20
18.139
 30
0.0
 10
87.5071
 20
18.2325
 30
0.0
 10
87.6412
 20
18.325
 30
0.0
 10
87.6412
 20
18.325
 30
0.0
 10
86.3227
 20
18.6119
 30
0.0
 10
85.1419
 20
19.4263
 30
0.0
 10
84.422
 20
20.674
 30
0.0
 10
84.422
 20
20.674
 30
0.0
 10
83.0551
 20
23.0402
 30
0.0
 10
83.8669
 20
26.0661
 30
0.0
 10
86.2331
 20
27.4327
 30
0.0
 10
86.2331
 20
27.4327
 30
0.0
 10
88.3009
 20
28.6265
 30
0.0
 10
90.8728
 20
28.1585
 30
0.0
 10
92.4064
 20
26.437
 30
0.0
 10
92.4064
 20
26.437
 30
0.0
 10
92.5453
 20
28.4304
 30
0.0
 10
92.1072
 20
30.4887
 30
0.0
 10
91.0304
 20
32.3537
 30
0.0
 10
91.0304
 20
32.3537
 30
0.0
 10
89.9525
 20
34.2207
 30
0.0
 10
88.3868
 20
35.6298
 30
0.0
 10
86.6059
 20
36.4988
 30
0.0
 10
86.6059
 20
36.4988
 30
0.0
 10
87.3052
 20
34.3197
 30
0.0
 10
86.4227
 20
31.8978
 30
0.0
 10
84.3765
 20
30.7163
 30
0.0
 10
84.3765
 20
30.7163
 30
0.0
 10
82.0094
 20
29.3497
 30
0.0
 10
78.9836
 20
30.1613
 30
0.0
 10
77.6168
 20
32.5274
 30
0.0
 10
77.6168
 20
32.5274
 30
0.0
 10
76.9157
 20
33.741
 30
0.0
 10
76.7883
 20
35.1286
 30
0.0
 10
77.1261
 20
36.3858
 30
0.0
 10
77.1261
 20
36.3858
 30
0.0
 10
76.9761
 20
36.328
 30
0.0
 10
76.8507
 20
36.2592
 30
0.0
 10
76.726
 20
36.1865
 30
0.0
  0
SPLINE
  5
79
330
1F
100
AcDbEntity
  8
layer 1
 62
     7
100
AcDbSpline
210
0.0
220
0.0
230
1.0
 70
    11
 71
     3
 72
    20
 73
    16
 74
     0
 42
0.0000000001
 43
0.0000000001
 12
1.0
 22
0.0
 32
0.0
 13
1.0
 23
0.0
 33
0.0
 40
0.0
 40
0.0
 40
0.0
 40
0.0
 40
0.2
 40
0.2
 40
0.2
 40
0.2
 40
0.4
 40
0.4
 40
0.4
 40
0.4
 40
0.6
 40
0.6
 40
0.6
 40
0.6
 40
1.0
 40
1.0
 40
1.0
 40
1.0
 10
91.3512
 20
23.2178
 30
0.0
 10
91.3512
 20
21.7434
 30
0.0
 10
90.1555
 20
20.5477
 30
0.0
 10
88.6811
 20
20.5477
 30
0.0
 10
88.6811
 20
20.5477
 30
0.0
 10
87.2061
 20
20.5477
 30
0.0
 10
86.0103
 20
21.7434
 30
0.0
 10
86.0103
 20
23.2177
 30
0.0
 10
86.0103
 20
23.2177
 30
0.0
 10
86.0103
 20
24.6928
 30
0.0
 10
87.2061
 20
25.8876
 30
0.0
 10
88.6811
 20
25.8876
 30
0.0
 10
88.6811
 20
25.8876
 30
0.0
 10
90.1555
 20
25.8876
 30
0.0
 10
91.3512
 20
24.6928
 30
0.0
 10
91.3512
 20
23.2178
 30
0.0
  0
SPLINE
  5
7A
330
1F
100
AcDbEntity
  8
layer 1
 62
     7
100
AcDbSpline
210
0.0
220
0.0
230
1.0
 70
    11
 71
     3
 72
    20
 73
    16
 74
     0
 42
0.0000000001
 43
0.0000000001
 12
1.0
 22
0.0
 32
0.0
 13
1.0
 23
0.0
 33
0.0
 40
0.0
 40
0.0
 40
0.0
 40
0.0
 40
0.2
 40
0.2
 40
0.2
 40
0.2
 40
0.4
 40
0.4
 40
0.4
 40
0.4
 40
0.6
 40
0.6
 40
0.6
 40
0.6
 40
1.0
 40
1.0
 40
1.0
 40
1.0
 10
84.6314
 20
34.9491
 30
0.0
 10
84.6314
 20
33.475
 30
0.0
 10
83.4356
 20
32.2793
 30
0.0
 10
81.9613
 20
32.2793
 30
0.0
 10
81.9613
 20
32.2793
 30
0.0
 10
80.486
 20
32.2793
 30
0.0
 10
79.2903
 20
33.475
 30
0.0
 10
79.2903
 20
34.9491
 30
0.0
 10
79.2903
 20
34.9491
 30
0.0
 10
79.2903
 20
36.4235
 30
0.0
 10
80.486
 20
37.6193
 30
0.0
 10
81.9613
 20
37.6193
 30
0.0
 10
81.9613
 20
37.6193
 30
0.0
 10
83.4356
 20
37.6193
 30
0.0
 10
84.6314
 20
36.4235
 30
0.0
 10
84.6314
 20
34.9491
 30
0.0
  0
SPLINE
  5
7B
330
1F
100
AcDbEntity
  8
layer 1
 62
     7
100
AcDbSpline
210
0.0
220
0.0
230
1.0
 70
    11
 71
     3
 72
    20
 73
    16
 74
     0
 42
0.0000000001
 43
0.0000000001
 12
1.0
 22
0.0
 32
0.0
 13
1.0
 23
0.0
 33
0.0
 40
0.0
 40
0.0
 40
0.0
 40
0.0
 40
0.2
 40
0.2
 40
0.2
 40
0.2
 40
0.4
 40
0.4
 40
0.4
 40
0.4
 40
0.6
 40
0.6
 40
0.6
 40
0.6
 40
1.0
 40
1.0
 40
1.0
 40
1.0
 10
77.6831
 20
23.1035
 30
0.0
 10
77.6831
 20
21.6291
 30
0.0
 10
76.4883
 20
20.4333
 30
0.0
 10
75.0129
 20
20.4333
 30
0.0
 10
75.0129
 20
20.4333
 30
0.0
 10
73.5389
 20
20.4333
 30
0.0
 10
72.3428
 20
21.6291
 30
0.0
 10
72.3428
 20
23.1035
 30
0.0
 10
72.3428
 20
23.1035
 30
0.0
 10
72.3429
 20
24.5785
 30
0.0
 10
73.5389
 20
25.7745
 30
0.0
 10
75.0129
 20
25.7745
 30
0.0
 10
75.0129
 20
25.7745
 30
0.0
 10
76.4883
 20
25.7745
 30
0.0
 10
77.683
 20
24.5785
 30
0.0
 10
77.6831
 20
23.1035
 30
0.0
  0
SPLINE
  5
7C
330
1F
100
AcDbEntity
  8
layer 1
 62
     7
100
AcDbSpline
210
0.0
220
0.0
230
1.0
 70
    11
 71
     3
 72
    68
 73
    64
 74
     0
 42
0.0000000001
 43
0.0000000001
 12
1.0
 22
0.0
 32
0.0
 13
1.0
 23
0.0
 33
0.0
 40
0.0
 40
0.0
 40
0.0
 40
0.0
 40
0.0588235294117647
 40
0.0588235294117647
 40
0.0588235294117647
 40
0.0588235294117647
 40
0.1176470588235294
 40
0.1176470588235294
 40
0.1176470588235294
 40
0.1176470588235294
 40
0.1764705882352941
 40
0.1764705882352941
 40
0.1764705882352941
 40
0.1764705882352941
 40
0.2352941176470588
 40
0.2352941176470588
 40
0.2352941176470588
 40
0.2352941176470588
 40
0.2941176470588235
 40
0.2941176470588235
 40
0.2941176470588235
 40
0.2941176470588235
 40
0.3529411764705883
 40
0.3529411764705883
 40
0.3529411764705883
 40
0.3529411764705883
 40
0.4117647058823529
 40
0.4117647058823529
 40
0.4117647058823529
 40
0.4117647058823529
 40
0.4705882352941176
 40
0.4705882352941176
 40
0.4705882352941176
 40
0.4705882352941176
 40
0.5294117647058824
 40
0.5294117647058824
 40
0.5294117647058824
 40
0.5294117647058824
 40
0.5882352941176471
 40
0.5882352941176471
 40
0.5882352941176471
 40
0.5882352941176471
 40
0.6470588235294118
 40
0.6470588235294118
 40
0.6470588235294118
 40
0.6470588235294118
 40
0.7058823529411765
 40
0.7058823529411765
 40
0.7058823529411765
 40
0.7058823529411765
 40
0.7647058823529411
 40
0.7647058823529411
 40
0.7647058823529411
 40
0.7647058823529411
 40
0.8235294117647058
 40
0.8235294117647058
 40
0.8235294117647058
 40
0.8235294117647058
 40
0.8823529411764706
 40
0.8823529411764706
 40
0.8823529411764706
 40
0.8823529411764706
 40
1.0
 40
1.0
 40
1.0
 40
1.0
 10
76.726
 20
36.1865
 30
0.0
 10
73.2018
 20
34.1518
 30
0.0
 10
71.3075
 20
30.3783
 30
0.0
 10
71.4936
 20
26.5823
 30
0.0
 10
71.4936
 20
26.5823
 30
0.0
 10
71.8174
 20
26.9495
 30
0.0
 10
72.2071
 20
27.2658
 30
0.0
 10
72.6536
 20
27.5223
 30
0.0
 10
72.6536
 20
27.5223
 30
0.0
 10
75.0195
 20
28.889
 30
0.0
 10
78.0464
 20
28.0783
 30
0.0
 10
79.412
 20
25.7112
 30
0.0
 10
79.412
 20
25.7112
 30
0.0
 10
80.7786
 20
23.3451
 30
0.0
 10
79.968
 20
20.3193
 30
0.0
 10
77.6009
 20
18.9525
 30
0.0
 10
77.6009
 20
18.9525
 30
0.0
 10
77.144
 20
18.6884
 30
0.0
 10
76.6637
 20
18.5063
 30
0.0
 10
76.1597
 20
18.4033
 30
0.0
 10
76.1597
 20
18.4033
 30
0.0
 10
79.3546
 20
16.2665
 30
0.0
 10
83.6299
 20
15.9891
 30
0.0
 10
87.1976
 20
18.0483
 30
0.0
 10
87.1976
 20
18.0483
 30
0.0
 10
87.3542
 20
18.139
 30
0.0
 10
87.5071
 20
18.2325
 30
0.0
 10
87.6412
 20
18.325
 30
0.0
 10
87.6412
 20
18.325
 30
0.0
 10
86.3227
 20
18.6119
 30
0.0
 10
85.1419
 20
19.4263
 30
0.0
 10
84.422
 20
20.674
 30
0.0
 10
84.422
 20
20.674
 30
0.0
 10
83.0551
 20
23.0402
 30
0.0
 10
83.8669
 20
26.0661
 30
0.0
 10
86.2331
 20
27.4327
 30
0.0
 10
86.2331
 20
27.4327
 30
0.0
 10
88.3009
 20
28.6265
 30
0.0
 10
90.8728
 20
28.1585
 30
0.0
 10
92.4064
 20
26.437
 30
0.0
 10
92.4064
 20
26.437
 30
0.0
 10
92.5453
 20
28.4304
 30
0.0
 10
92.1072
 20
30.4887
 30
0.0
 10
91.0304
 20
32.3537
 30
0.0
 10
91.0304
 20
32.3537
 30
0.0
 10
89.9525
 20
34.2207
 30
0.0
 10
88.3868
 20
35.6298
 30
0.0
 10
86.6059
 20
36.4988
 30
0.0
 10
86.6059
 20
36.4988
 30
0.0
 10
87.3052
 20
34.3197
 30
0.0
 10
86.4227
 20
31.8978
 30
0.0
 10
84.3765
 20
30.7163
 30
0.0
 10
84.3765
 20
30.7163
 30
0.0
 10
82.0094
 20
29.3497
 30
0.0
 10
78.9836
 20
30.1613
 30
0.0
 10
77.6168
 20
32.5274
 30
0.0
 10
77.6168
 20
32.5274
 30
0.0
 10
76.9157
 20
33.741
 30
0.0
 10
76.7883
 20
35.1286
 30
0.0
 10
77.1261
 20
36.3858
 30
0.0
 10
77.1261
 20
36.3858
 30
0.0
 10
76.9761
 20
36.328
 30
0.0
 10
76.8507
 20
36.2592
 30
0.0
 10
76.726
 20
36.1865
 30
0.0
  0
SPLINE
  5
7D
330
1F
100
AcDbEntity
  8
layer 1
 62
     7
100
AcDbSpline
210
0.0
220
0.0
230
1.0
 70
    11
 71
     3
 72
    56
 73
    52
 74
     0
 42
0.0000000001
 43
0.0000000001
 12
1.0
 22
0.0
 32
0.0
 13
1.0
 23
0.0
 33
0.0
 40
0.0
 40
0.0
 40
0.0
 40
0.0
 40
0.0714285714285714
 40
0.0714285714285714
 40
0.0714285714285714
 40
0.0714285714285714
 40
0.1428571428571428
 40
0.1428571428571428
 40
0.1428571428571428
 40
0.1428571428571428
 40
0.2142857142857143
 40
0.2142857142857143
 40
0.2142857142857143
 40
0.2142857142857143
 40
0.2857142857142857
 40
0.2857142857142857
 40
0.2857142857142857
 40
0.2857142857142857
 40
0.3571428571428572
 40
0.3571428571428572
 40
0.3571428571428572
 40
0.3571428571428572
 40
0.4285714285714285
 40
0.4285714285714285
 40
0.4285714285714285
 40
0.4285714285714285
 40
0.5
 40
0.5
 40
0.5
 40
0.5
 40
0.5714285714285714
 40
0.5714285714285714
 40
0.5714285714285714
 40
0.5714285714285714
 40
0.6428571428571429
 40
0.6428571428571429
 40
0.6428571428571429
 40
0.6428571428571429
 40
0.7142857142857143
 40
0.7142857142857143
 40
0.7142857142857143
 40
0.7142857142857143
 40
0.7857142857142857
 40
0.7857142857142857
 40
0.7857142857142857
 40
0.7857142857142857
 40
0.8571428571428571
 40
0.8571428571428571
 40
0.8571428571428571
 40
0.8571428571428571
 40
1.0
 40
1.0
 40
1.0
 40
1.0
 10
70.294
 20
20.3694
 30
0.0
 10
69.1028
 20
22.3776
 30
0.0
 10
68.4185
 20
24.722
 30
0.0
 10
68.4185
 20
27.2269
 30
0.0
 10
68.4185
 20
27.2269
 30
0.0
 10
68.4185
 20
33.39
 30
0.0
 10
72.5601
 20
38.5857
 30
0.0
 10
78.3267
 20
40.1958
 30
0.0
 10
78.3267
 20
40.1958
 30
0.0
 10
72.0758
 20
39.5239
 30
0.0
 10
66.2771
 20
36.9492
 30
0.0
 10
61.641
 20
33.0824
 30
0.0
 10
61.641
 20
33.0824
 30
0.0
 10
61.9128
 20
33.1448
 30
0.0
 10
62.1648
 20
33.1646
 30
0.0
 10
62.4216
 20
33.1646
 30
0.0
 10
62.4216
 20
33.1646
 30
0.0
 10
65.1323
 20
33.1646
 30
0.0
 10
67.3293
 20
30.9673
 30
0.0
 10
67.3293
 20
28.2557
 30
0.0
 10
67.3293
 20
28.2557
 30
0.0
 10
67.3293
 20
25.545
 30
0.0
 10
65.1323
 20
23.348
 30
0.0
 10
62.4216
 20
23.348
 30
0.0
 10
62.4216
 20
23.348
 30
0.0
 10
59.71
 20
23.348
 30
0.0
 10
57.5127
 20
25.545
 30
0.0
 10
57.5127
 20
28.2557
 30
0.0
 10
57.5127
 20
28.2557
 30
0.0
 10
57.5127
 20
28.5369
 30
0.0
 10
57.5364
 20
28.8116
 30
0.0
 10
57.5666
 20
29.0334
 30
0.0
 10
57.5666
 20
29.0334
 30
0.0
 10
53.7518
 20
24.421
 30
0.0
 10
51.2138
 20
18.7686
 30
0.0
 10
50.4731
 20
12.564
 30
0.0
 10
50.4731
 20
12.564
 30
0.0
 10
50.4731
 20
12.564
 30
0.0
 10
50.523
 20
12.6347
 30
0.0
 10
50.523
 20
12.6347
 30
0.0
 10
50.523
 20
12.6347
 30
0.0
 10
52.1397
 20
18.2559
 30
0.0
 10
57.1297
 20
22.3682
 30
0.0
 10
63.2709
 20
22.3682
 30
0.0
 10
63.2709
 20
22.3682
 30
0.0
 10
65.8315
 20
22.3682
 30
0.0
 10
68.226
 20
21.6538
 30
0.0
 10
70.2638
 20
20.4116
 30
0.0
 10
70.2638
 20
20.4116
 30
0.0
 10
70.2638
 20
20.4116
 30
0.0
 10
70.294
 20
20.3694
 30
0.0
 10
70.294
 20
20.3694
 30
0.0
  0
SPLINE
  5
7E
330
1F
100
AcDbEntity
  8
layer 1
 62
     7
100
AcDbSpline
210
0.0
220
0.0
230
1.0
 70
    11
 71
     3
 72
    48
 73
    44
 74
     0
 42
0.0000000001
 43
0.0000000001
 12
1.0
 22
0.0
 32
0.0
 13
1.0
 23
0.0
 33
0.0
 40
0.0
 40
0.0
 40
0.0
 40
0.0
 40
0.0833333333333333
 40
0.0833333333333333
 40
0.0833333333333333
 40
0.0833333333333333
 40
0.1666666666666667
 40
0.1666666666666667
 40
0.1666666666666667
 40
0.1666666666666667
 40
0.25
 40
0.25
 40
0.25
 40
0.25
 40
0.3333333333333333
 40
0.3333333333333333
 40
0.3333333333333333
 40
0.3333333333333333
 40
0.4166666666666667
 40
0.4166666666666667
 40
0.4166666666666667
 40
0.4166666666666667
 40
0.5
 40
0.5
 40
0.5
 40
0.5
 40
0.5833333333333334
 40
0.5833333333333334
 40
0.5833333333333334
 40
0.5833333333333334
 40
0.6666666666666666
 40
0.6666666666666666
 40
0.6666666666666666
 40
0.6666666666666666
 40
0.75
 40
0.75
 40
0.75
 40
0.75
 40
0.8333333333333334
 40
0.8333333333333334
 40
0.8333333333333334
 40
0.8333333333333334
 40
1.0
 40
1.0
 40
1.0
 40
1.0
 10
106.0576
 20
29.1071
 30
0.0
 10
106.103
 20
28.8117
 30
0.0
 10
106.1267
 20
28.5369
 30
0.0
 10
106.1267
 20
28.2557
 30
0.0
 10
106.1267
 20
28.2557
 30
0.0
 10
106.1267
 20
25.545
 30
0.0
 10
103.9285
 20
23.348
 30
0.0
 10
101.2178
 20
23.348
 30
0.0
 10
101.2178
 20
23.348
 30
0.0
 10
98.5072
 20
23.348
 30
0.0
 10
96.3092
 20
25.545
 30
0.0
 10
96.3092
 20
28.2557
 30
0.0
 10
96.3092
 20
28.2557
 30
0.0
 10
96.3092
 20
30.9674
 30
0.0
 10
98.5072
 20
33.1646
 30
0.0
 10
101.2178
 20
33.1646
 30
0.0
 10
101.2178
 20
33.1646
 30
0.0
 10
101.4747
 20
33.1646
 30
0.0
 10
101.7267
 20
33.1448
 30
0.0
 10
101.9975
 20
33.122
 30
0.0
 10
101.9975
 20
33.122
 30
0.0
 10
97.4218
 20
36.9464
 30
0.0
 10
91.725
 20
39.4785
 30
0.0
 10
85.542
 20
40.178
 30
0.0
 10
85.542
 20
40.178
 30
0.0
 10
91.2304
 20
38.549
 30
0.0
 10
95.3427
 20
33.3683
 30
0.0
 10
95.3427
 20
27.2269
 30
0.0
 10
95.3427
 20
27.2269
 30
0.0
 10
95.3427
 20
24.7493
 30
0.0
 10
94.6735
 20
22.4287
 30
0.0
 10
93.5014
 20
20.409
 30
0.0
 10
93.5014
 20
20.409
 30
0.0
 10
95.4993
 20
21.5651
 30
0.0
 10
97.8333
 20
22.2426
 30
0.0
 10
100.327
 20
22.2426
 30
0.0
 10
100.327
 20
22.2426
 30
0.0
 10
106.4899
 20
22.2426
 30
0.0
 10
111.6856
 20
18.1013
 30
0.0
 10
113.2769
 20
12.4545
 30
0.0
 10
113.2769
 20
12.4545
 30
0.0
 10
112.539
 20
18.7723
 30
0.0
 10
109.9471
 20
24.5181
 30
0.0
 10
106.0576
 20
29.1071
 30
0.0
  0
SPLINE
  5
7F
330
1F
100
AcDbEntity
  8
layer 1
 62
     7
100
AcDbSpline
210
0.0
220
0.0
230
1.0
 70
    11
 71
     3
 72
    20
 73
    16
 74
     0
 42
0.0000000001
 43
0.0000000001
 12
1.0
 22
0.0
 32
0.0
 13
1.0
 23
0.0
 33
0.0
 40
0.0
 40
0.0
 40
0.0
 40
0.0
 40
0.2
 40
0.2
 40
0.2
 40
0.2
 40
0.4
 40
0.4
 40
0.4
 40
0.4
 40
0.6
 40
0.6
 40
0.6
 40
0.6
 40
1.0
 40
1.0
 40
1.0
 40
1.0
 10
67.369
 20
18.242
 30
0.0
 10
68.8433
 20
18.242
 30
0.0
 10
70.039
 20
17.0461
 30
0.0
 10
70.039
 20
15.5718
 30
0.0
 10
70.039
 20
15.5718
 30
0.0
 10
70.039
 20
14.0968
 30
0.0
 10
68.8433
 20
12.9017
 30
0.0
 10
67.369
 20
12.9017
 30
0.0
 10
67.369
 20
12.9017
 30
0.0
 10
65.8939
 20
12.9018
 30
0.0
 10
64.6982
 20
14.0968
 30
0.0
 10
64.6982
 20
15.5718
 30
0.0
 10
64.6982
 20
15.5718
 30
0.0
 10
64.6982
 20
17.0462
 30
0.0
 10
65.8939
 20
18.2419
 30
0.0
 10
67.369
 20
18.242
 30
0.0
  0
SPLINE
  5
80
330
1F
100
AcDbEntity
  8
layer 1
 62
     7
100
AcDbSpline
210
0.0
220
0.0
230
1.0
 70
    11
 71
     3
 72
    20
 73
    16
 74
     0
 42
0.0000000001
 43
0.0000000001
 12
1.0
 22
0.0
 32
0.0
 13
1.0
 23
0.0
 33
0.0
 40
0.0
 40
0.0
 40
0.0
 40
0.0
 40
0.2
 40
0.2
 40
0.2
 40
0.2
 40
0.4
 40
0.4
 40
0.4
 40
0.4
 40
0.6
 40
0.6
 40
0.6
 40
0.6
 40
1.0
 40
1.0
 40
1.0
 40
1.0
 10
55.6376
 20
11.5218
 30
0.0
 10
57.1117
 20
11.5218
 30
0.0
 10
58.3076
 20
10.3261
 30
0.0
 10
58.3076
 20
8.852
 30
0.0
 10
58.3076
 20
8.852
 30
0.0
 10
58.3076
 20
7.3767
 30
0.0
 10
57.1117
 20
6.1819
 30
0.0
 10
55.6376
 20
6.1819
 30
0.0
 10
55.6376
 20
6.1819
 30
0.0
 10
54.1622
 20
6.1819
 30
0.0
 10
52.9674
 20
7.3767
 30
0.0
 10
52.9674
 20
8.852
 30
0.0
 10
52.9674
 20
8.852
 30
0.0
 10
52.9674
 20
10.3261
 30
0.0
 10
54.1622
 20
11.5218
 30
0.0
 10
55.6376
 20
11.5218
 30
0.0
  0
SPLINE
  5
81
330
1F
100
AcDbEntity
  8
layer 1
 62
     7
100
AcDbSpline
210
0.0
220
0.0
230
1.0
 70
    11
 71
     3
 72
    20
 73
    16
 74
     0
 42
0.0000000001
 43
0.0000000001
 12
1.0
 22
0.0
 32
0.0
 13
1.0
 23
0.0
 33
0.0
 40
0.0
 40
0.0
 40
0.0
 40
0.0
 40
0.2
 40
0.2
 40
0.2
 40
0.2
 40
0.4
 40
0.4
 40
0.4
 40
0.4
 40
0.6
 40
0.6
 40
0.6
 40
0.6
 40
1.0
 40
1.0
 40
1.0
 40
1.0
 10
67.4823
 20
4.5737
 30
0.0
 10
68.9576
 20
4.5737
 30
0.0
 10
70.1524
 20
3.3787
 30
0.0
 10
70.1524
 20
1.9036
 30
0.0
 10
70.1524
 20
1.9036
 30
0.0
 10
70.1524
 20
0.4293
 30
0.0
 10
68.9576
 20
-0.7665
 30
0.0
 10
67.4823
 20
-0.7665
 30
0.0
 10
67.4823
 20
-0.7665
 30
0.0
 10
66.0082
 20
-0.7665
 30
0.0
 10
64.8122
 20
0.4293
 30
0.0
 10
64.8122
 20
1.9036
 30
0.0
 10
64.8122
 20
1.9036
 30
0.0
 10
64.8122
 20
3.3787
 30
0.0
 10
66.0082
 20
4.5737
 30
0.0
 10
67.4823
 20
4.5737
 30
0.0
  0
SPLINE
  5
82
330
1F
100
AcDbEntity
  8
layer 1
 62
     7
100
AcDbSpline
210
0.0
220
0.0
230
1.0
 70
    11
 71
     3
 72
    68
 73
    64
 74
     0
 42
0.0000000001
 43
0.0000000001
 12
1.0
 22
0.0
 32
0.0
 13
1.0
 23
0.0
 33
0.0
 40
0.0
 40
0.0
 40
0.0
 40
0.0
 40
0.0588235294117647
 40
0.0588235294117647
 40
0.0588235294117647
 40
0.0588235294117647
 40
0.1176470588235294
 40
0.1176470588235294
 40
0.1176470588235294
 40
0.1176470588235294
 40
0.1764705882352941
 40
0.1764705882352941
 40
0.1764705882352941
 40
0.1764705882352941
 40
0.2352941176470588
 40
0.2352941176470588
 40
0.2352941176470588
 40
0.2352941176470588
 40
0.2941176470588235
 40
0.2941176470588235
 40
0.2941176470588235
 40
0.2941176470588235
 40
0.3529411764705883
 40
0.3529411764705883
 40
0.3529411764705883
 40
0.3529411764705883
 40
0.4117647058823529
 40
0.4117647058823529
 40
0.4117647058823529
 40
0.4117647058823529
 40
0.4705882352941176
 40
0.4705882352941176
 40
0.4705882352941176
 40
0.4705882352941176
 40
0.5294117647058824
 40
0.5294117647058824
 40
0.5294117647058824
 40
0.5294117647058824
 40
0.5882352941176471
 40
0.5882352941176471
 40
0.5882352941176471
 40
0.5882352941176471
 40
0.6470588235294118
 40
0.6470588235294118
 40
0.6470588235294118
 40
0.6470588235294118
 40
0.7058823529411765
 40
0.7058823529411765
 40
0.7058823529411765
 40
0.7058823529411765
 40
0.7647058823529411
 40
0.7647058823529411
 40
0.7647058823529411
 40
0.7647058823529411
 40
0.8235294117647058
 40
0.8235294117647058
 40
0.8235294117647058
 40
0.8235294117647058
 40
0.8823529411764706
 40
0.8823529411764706
 40
0.8823529411764706
 40
0.8823529411764706
 40
1.0
 40
1.0
 40
1.0
 40
1.0
 10
54.3993
 20
3.6167
 30
0.0
 10
56.4342
 20
0.0925
 30
0.0
 10
60.2084
 20
-1.8018
 30
0.0
 10
64.0035
 20
-1.616
 30
0.0
 10
64.0035
 20
-1.616
 30
0.0
 10
63.6372
 20
-1.2922
 30
0.0
 10
63.3212
 20
-0.9015
 30
0.0
 10
63.0634
 20
-0.456
 30
0.0
 10
63.0634
 20
-0.456
 30
0.0
 10
61.6978
 20
1.9102
 30
0.0
 10
62.5084
 20
4.9369
 30
0.0
 10
64.8745
 20
6.3027
 30
0.0
 10
64.8745
 20
6.3027
 30
0.0
 10
67.2417
 20
7.6693
 30
0.0
 10
70.2676
 20
6.8587
 30
0.0
 10
71.6342
 20
4.4915
 30
0.0
 10
71.6342
 20
4.4915
 30
0.0
 10
71.8976
 20
4.0356
 30
0.0
 10
72.0804
 20
3.5543
 30
0.0
 10
72.1824
 20
3.0503
 30
0.0
 10
72.1824
 20
3.0503
 30
0.0
 10
74.3193
 20
6.2452
 30
0.0
 10
74.5976
 20
10.5206
 30
0.0
 10
72.5373
 20
14.0881
 30
0.0
 10
72.5373
 20
14.0881
 30
0.0
 10
72.4477
 20
14.2448
 30
0.0
 10
72.3532
 20
14.3978
 30
0.0
 10
72.2617
 20
14.5317
 30
0.0
 10
72.2617
 20
14.5317
 30
0.0
 10
71.9749
 20
13.2132
 30
0.0
 10
71.1594
 20
12.0326
 30
0.0
 10
69.9127
 20
11.3124
 30
0.0
 10
69.9127
 20
11.3124
 30
0.0
 10
67.5466
 20
9.9458
 30
0.0
 10
64.5196
 20
10.7574
 30
0.0
 10
63.154
 20
13.1235
 30
0.0
 10
63.154
 20
13.1235
 30
0.0
 10
61.9592
 20
15.1915
 30
0.0
 10
62.4282
 20
17.7633
 30
0.0
 10
64.1496
 20
19.297
 30
0.0
 10
64.1496
 20
19.297
 30
0.0
 10
62.1563
 20
19.4357
 30
0.0
 10
60.098
 20
18.9989
 30
0.0
 10
58.233
 20
17.922
 30
0.0
 10
58.233
 20
17.922
 30
0.0
 10
56.366
 20
16.8442
 30
0.0
 10
54.956
 20
15.2773
 30
0.0
 10
54.0879
 20
13.4963
 30
0.0
 10
54.0879
 20
13.4963
 30
0.0
 10
56.266
 20
14.1968
 30
0.0
 10
58.6889
 20
13.3132
 30
0.0
 10
59.8695
 20
11.2672
 30
0.0
 10
59.8695
 20
11.2672
 30
0.0
 10
61.2363
 20
8.9001
 30
0.0
 10
60.4254
 20
5.8741
 30
0.0
 10
58.0593
 20
4.5075
 30
0.0
 10
58.0593
 20
4.5075
 30
0.0
 10
56.8447
 20
3.8073
 30
0.0
 10
55.4573
 20
3.6788
 30
0.0
 10
54.2009
 20
4.0168
 30
0.0
 10
54.2009
 20
4.0168
 30
0.0
 10
54.2587
 20
3.8668
 30
0.0
 10
54.3275
 20
3.7411
 30
0.0
 10
54.3993
 20
3.6167
 30
0.0
  0
SPLINE
  5
83
330
1F
100
AcDbEntity
  8
layer 1
 62
     7
100
AcDbSpline
210
0.0
220
0.0
230
1.0
 70
    11
 71
     3
 72
    48
 73
    44
 74
     0
 42
0.0000000001
 43
0.0000000001
 12
1.0
 22
0.0
 32
0.0
 13
1.0
 23
0.0
 33
0.0
 40
0.0
 40
0.0
 40
0.0
 40
0.0
 40
0.0833333333333333
 40
0.0833333333333333
 40
0.0833333333333333
 40
0.0833333333333333
 40
0.1666666666666667
 40
0.1666666666666667
 40
0.1666666666666667
 40
0.1666666666666667
 40
0.25
 40
0.25
 40
0.25
 40
0.25
 40
0.3333333333333333
 40
0.3333333333333333
 40
0.3333333333333333
 40
0.3333333333333333
 40
0.4166666666666667
 40
0.4166666666666667
 40
0.4166666666666667
 40
0.4166666666666667
 40
0.5
 40
0.5
 40
0.5
 40
0.5
 40
0.5833333333333334
 40
0.5833333333333334
 40
0.5833333333333334
 40
0.5833333333333334
 40
0.6666666666666666
 40
0.6666666666666666
 40
0.6666666666666666
 40
0.6666666666666666
 40
0.75
 40
0.75
 40
0.75
 40
0.75
 40
0.8333333333333334
 40
0.8333333333333334
 40
0.8333333333333334
 40
0.8333333333333334
 40
1.0
 40
1.0
 40
1.0
 40
1.0
 10
68.3468
 20
-9.7751
 30
0.0
 10
68.3468
 20
-7.1193
 30
0.0
 10
69.1161
 20
-4.6427
 30
0.0
 10
70.4355
 20
-2.5276
 30
0.0
 10
70.4355
 20
-2.5276
 30
0.0
 10
68.3535
 20
-3.8016
 30
0.0
 10
65.9004
 20
-4.556
 30
0.0
 10
63.2709
 20
-4.556
 30
0.0
 10
63.2709
 20
-4.556
 30
0.0
 10
57.108
 20
-4.556
 30
0.0
 10
52.0273
 20
-0.4144
 30
0.0
 10
50.4438
 20
5.1739
 30
0.0
 10
50.4438
 20
5.1739
 30
0.0
 10
51.1771
 20
-1.1175
 30
0.0
 10
53.7047
 20
-6.7946
 30
0.0
 10
57.5422
 20
-11.4041
 30
0.0
 10
57.5422
 20
-11.4041
 30
0.0
 10
57.5364
 20
-11.1598
 30
0.0
 10
57.5127
 20
-10.8841
 30
0.0
 10
57.5127
 20
-10.6039
 30
0.0
 10
57.5127
 20
-10.6039
 30
0.0
 10
57.5127
 20
-7.8931
 30
0.0
 10
59.71
 20
-5.695
 30
0.0
 10
62.4216
 20
-5.695
 30
0.0
 10
62.4216
 20
-5.695
 30
0.0
 10
65.1323
 20
-5.695
 30
0.0
 10
67.3293
 20
-7.8931
 30
0.0
 10
67.3293
 20
-10.6039
 30
0.0
 10
67.3293
 20
-10.6039
 30
0.0
 10
67.3293
 20
-13.3145
 30
0.0
 10
65.1323
 20
-15.5125
 30
0.0
 10
62.4216
 20
-15.5125
 30
0.0
 10
62.4216
 20
-15.5125
 30
0.0
 10
62.1648
 20
-15.5125
 30
0.0
 10
61.9128
 20
-15.4927
 30
0.0
 10
61.6325
 20
-15.4748
 30
0.0
 10
61.6325
 20
-15.4748
 30
0.0
 10
66.194
 20
-19.3368
 30
0.0
 10
71.8976
 20
-21.8974
 30
0.0
 10
78.1201
 20
-22.6713
 30
0.0
 10
78.1201
 20
-22.6713
 30
0.0
 10
72.459
 20
-21.0979
 30
0.0
 10
68.3468
 20
-15.9174
 30
0.0
 10
68.3468
 20
-9.7751
 30
0.0
  0
SPLINE
  5
84
330
1F
100
AcDbEntity
  8
layer 1
 62
     7
100
AcDbSpline
210
0.0
220
0.0
230
1.0
 70
    11
 71
     3
 72
    20
 73
    16
 74
     0
 42
0.0000000001
 43
0.0000000001
 12
1.0
 22
0.0
 32
0.0
 13
1.0
 23
0.0
 33
0.0
 40
0.0
 40
0.0
 40
0.0
 40
0.0
 40
0.2
 40
0.2
 40
0.2
 40
0.2
 40
0.4
 40
0.4
 40
0.4
 40
0.4
 40
0.6
 40
0.6
 40
0.6
 40
0.6
 40
1.0
 40
1.0
 40
1.0
 40
1.0
 10
91.2785
 20
-13.64
 30
0.0
 10
91.2785
 20
-15.1153
 30
0.0
 10
90.0827
 20
-16.3101
 30
0.0
 10
88.6086
 20
-16.3101
 30
0.0
 10
88.6086
 20
-16.3101
 30
0.0
 10
87.1343
 20
-16.3101
 30
0.0
 10
85.9385
 20
-15.1153
 30
0.0
 10
85.9385
 20
-13.64
 30
0.0
 10
85.9385
 20
-13.64
 30
0.0
 10
85.9385
 20
-12.1659
 30
0.0
 10
87.1343
 20
-10.9699
 30
0.0
 10
88.6086
 20
-10.9699
 30
0.0
 10
88.6086
 20
-10.9699
 30
0.0
 10
90.0827
 20
-10.9699
 30
0.0
 10
91.2785
 20
-12.1659
 30
0.0
 10
91.2785
 20
-13.64
 30
0.0
  0
SPLINE
  5
85
330
1F
100
AcDbEntity
  8
layer 1
 62
     7
100
AcDbSpline
210
0.0
220
0.0
230
1.0
 70
    11
 71
     3
 72
    20
 73
    16
 74
     0
 42
0.0000000001
 43
0.0000000001
 12
1.0
 22
0.0
 32
0.0
 13
1.0
 23
0.0
 33
0.0
 40
0.0
 40
0.0
 40
0.0
 40
0.0
 40
0.2
 40
0.2
 40
0.2
 40
0.2
 40
0.4
 40
0.4
 40
0.4
 40
0.4
 40
0.6
 40
0.6
 40
0.6
 40
0.6
 40
1.0
 40
1.0
 40
1.0
 40
1.0
 10
84.5587
 20
-1.9086
 30
0.0
 10
84.5587
 20
-3.3836
 30
0.0
 10
83.3629
 20
-4.5784
 30
0.0
 10
81.8886
 20
-4.5784
 30
0.0
 10
81.8886
 20
-4.5784
 30
0.0
 10
80.4135
 20
-4.5784
 30
0.0
 10
79.2185
 20
-3.3836
 30
0.0
 10
79.2185
 20
-1.9086
 30
0.0
 10
79.2185
 20
-1.9086
 30
0.0
 10
79.2185
 20
-0.4342
 30
0.0
 10
80.4135
 20
0.7615
 30
0.0
 10
81.8886
 20
0.7615
 30
0.0
 10
81.8886
 20
0.7615
 30
0.0
 10
83.363
 20
0.7615
 30
0.0
 10
84.5587
 20
-0.4342
 30
0.0
 10
84.5587
 20
-1.9086
 30
0.0
  0
SPLINE
  5
86
330
1F
100
AcDbEntity
  8
layer 1
 62
     7
100
AcDbSpline
210
0.0
220
0.0
230
1.0
 70
    11
 71
     3
 72
    20
 73
    16
 74
     0
 42
0.0000000001
 43
0.0000000001
 12
1.0
 22
0.0
 32
0.0
 13
1.0
 23
0.0
 33
0.0
 40
0.0
 40
0.0
 40
0.0
 40
0.0
 40
0.2
 40
0.2
 40
0.2
 40
0.2
 40
0.4
 40
0.4
 40
0.4
 40
0.4
 40
0.6
 40
0.6
 40
0.6
 40
0.6
 40
1.0
 40
1.0
 40
1.0
 40
1.0
 10
77.6113
 20
-13.7542
 30
0.0
 10
77.6113
 20
-15.2283
 30
0.0
 10
76.4155
 20
-16.4244
 30
0.0
 10
74.9412
 20
-16.4244
 30
0.0
 10
74.9412
 20
-16.4244
 30
0.0
 10
73.4661
 20
-16.4244
 30
0.0
 10
72.2704
 20
-15.2283
 30
0.0
 10
72.2704
 20
-13.7542
 30
0.0
 10
72.2704
 20
-13.7542
 30
0.0
 10
72.2704
 20
-12.279
 30
0.0
 10
73.4661
 20
-11.0842
 30
0.0
 10
74.9412
 20
-11.0842
 30
0.0
 10
74.9412
 20
-11.0842
 30
0.0
 10
76.4155
 20
-11.0842
 30
0.0
 10
77.6113
 20
-12.279
 30
0.0
 10
77.6113
 20
-13.7542
 30
0.0
  0
SPLINE
  5
87
330
1F
100
AcDbEntity
  8
layer 1
 62
     7
100
AcDbSpline
210
0.0
220
0.0
230
1.0
 70
    11
 71
     3
 72
    68
 73
    64
 74
     0
 42
0.0000000001
 43
0.0000000001
 12
1.0
 22
0.0
 32
0.0
 13
1.0
 23
0.0
 33
0.0
 40
0.0
 40
0.0
 40
0.0
 40
0.0
 40
0.0588235294117647
 40
0.0588235294117647
 40
0.0588235294117647
 40
0.0588235294117647
 40
0.1176470588235294
 40
0.1176470588235294
 40
0.1176470588235294
 40
0.1176470588235294
 40
0.1764705882352941
 40
0.1764705882352941
 40
0.1764705882352941
 40
0.1764705882352941
 40
0.2352941176470588
 40
0.2352941176470588
 40
0.2352941176470588
 40
0.2352941176470588
 40
0.2941176470588235
 40
0.2941176470588235
 40
0.2941176470588235
 40
0.2941176470588235
 40
0.3529411764705883
 40
0.3529411764705883
 40
0.3529411764705883
 40
0.3529411764705883
 40
0.4117647058823529
 40
0.4117647058823529
 40
0.4117647058823529
 40
0.4117647058823529
 40
0.4705882352941176
 40
0.4705882352941176
 40
0.4705882352941176
 40
0.4705882352941176
 40
0.5294117647058824
 40
0.5294117647058824
 40
0.5294117647058824
 40
0.5294117647058824
 40
0.5882352941176471
 40
0.5882352941176471
 40
0.5882352941176471
 40
0.5882352941176471
 40
0.6470588235294118
 40
0.6470588235294118
 40
0.6470588235294118
 40
0.6470588235294118
 40
0.7058823529411765
 40
0.7058823529411765
 40
0.7058823529411765
 40
0.7058823529411765
 40
0.7647058823529411
 40
0.7647058823529411
 40
0.7647058823529411
 40
0.7647058823529411
 40
0.8235294117647058
 40
0.8235294117647058
 40
0.8235294117647058
 40
0.8235294117647058
 40
0.8823529411764706
 40
0.8823529411764706
 40
0.8823529411764706
 40
0.8823529411764706
 40
1.0
 40
1.0
 40
1.0
 40
1.0
 10
76.6533
 20
-0.671
 30
0.0
 10
73.1291
 20
-2.7059
 30
0.0
 10
71.2348
 20
-6.4794
 30
0.0
 10
71.4218
 20
-10.2753
 30
0.0
 10
71.4218
 20
-10.2753
 30
0.0
 10
71.7446
 20
-9.9092
 30
0.0
 10
72.1353
 20
-9.5929
 30
0.0
 10
72.5808
 20
-9.3354
 30
0.0
 10
72.5808
 20
-9.3354
 30
0.0
 10
74.948
 20
-7.9687
 30
0.0
 10
77.9737
 20
-8.7794
 30
0.0
 10
79.3402
 20
-11.1465
 30
0.0
 10
79.3402
 20
-11.1465
 30
0.0
 10
80.7061
 20
-13.5126
 30
0.0
 10
79.8953
 20
-16.5394
 30
0.0
 10
77.5291
 20
-17.9059
 30
0.0
 10
77.5291
 20
-17.9059
 30
0.0
 10
77.0725
 20
-18.1693
 30
0.0
 10
76.5909
 20
-18.3515
 30
0.0
 10
76.0869
 20
-18.4544
 30
0.0
 10
76.0869
 20
-18.4544
 30
0.0
 10
79.2828
 20
-20.5913
 30
0.0
 10
83.5582
 20
-20.8687
 30
0.0
 10
87.1259
 20
-18.8093
 30
0.0
 10
87.1259
 20
-18.8093
 30
0.0
 10
87.2815
 20
-18.7188
 30
0.0
 10
87.4354
 20
-18.6252
 30
0.0
 10
87.5685
 20
-18.5336
 30
0.0
 10
87.5685
 20
-18.5336
 30
0.0
 10
86.25
 20
-18.2469
 30
0.0
 10
85.0693
 20
-17.4314
 30
0.0
 10
84.3502
 20
-16.1845
 30
0.0
 10
84.3502
 20
-16.1845
 30
0.0
 10
82.9833
 20
-13.8175
 30
0.0
 10
83.7942
 20
-10.7916
 30
0.0
 10
86.1604
 20
-9.425
 30
0.0
 10
86.1604
 20
-9.425
 30
0.0
 10
88.2291
 20
-8.2312
 30
0.0
 10
90.8001
 20
-8.7001
 30
0.0
 10
92.3339
 20
-10.4217
 30
0.0
 10
92.3339
 20
-10.4217
 30
0.0
 10
92.4736
 20
-8.4283
 30
0.0
 10
92.0354
 20
-6.3688
 30
0.0
 10
90.9586
 20
-4.504
 30
0.0
 10
90.9586
 20
-4.504
 30
0.0
 10
89.8808
 20
-2.637
 30
0.0
 10
88.3151
 20
-1.2279
 30
0.0
 10
86.5331
 20
-0.3586
 30
0.0
 10
86.5331
 20
-0.3586
 30
0.0
 10
87.2334
 20
-2.538
 30
0.0
 10
86.35
 20
-4.9597
 30
0.0
 10
84.3038
 20
-6.1414
 30
0.0
 10
84.3038
 20
-6.1414
 30
0.0
 10
81.9376
 20
-7.508
 30
0.0
 10
78.911
 20
-6.6974
 30
0.0
 10
77.5443
 20
-4.3303
 30
0.0
 10
77.5443
 20
-4.3303
 30
0.0
 10
76.8439
 20
-3.1167
 30
0.0
 10
76.7156
 20
-1.7291
 30
0.0
 10
77.0534
 20
-0.472
 30
0.0
 10
77.0534
 20
-0.472
 30
0.0
 10
76.9043
 20
-0.5297
 30
0.0
 10
76.7779
 20
-0.5995
 30
0.0
 10
76.6533
 20
-0.671
 30
0.0
  0
SPLINE
  5
88
330
1F
100
AcDbEntity
  8
layer 1
 62
     7
100
AcDbSpline
210
0.0
220
0.0
230
1.0
 70
    11
 71
     3
 72
    20
 73
    16
 74
     0
 42
0.0000000001
 43
0.0000000001
 12
1.0
 22
0.0
 32
0.0
 13
1.0
 23
0.0
 33
0.0
 40
0.0
 40
0.0
 40
0.0
 40
0.0
 40
0.2
 40
0.2
 40
0.2
 40
0.2
 40
0.4
 40
0.4
 40
0.4
 40
0.4
 40
0.6
 40
0.6
 40
0.6
 40
0.6
 40
1.0
 40
1.0
 40
1.0
 40
1.0
 10
65.1125
 20
28.2586
 30
0.0
 10
65.1125
 20
26.7833
 30
0.0
 10
63.9165
 20
25.5885
 30
0.0
 10
62.4424
 20
25.5885
 30
0.0
 10
62.4424
 20
25.5885
 30
0.0
 10
60.9671
 20
25.5885
 30
0.0
 10
59.7723
 20
26.7833
 30
0.0
 10
59.7723
 20
28.2585
 30
0.0
 10
59.7723
 20
28.2585
 30
0.0
 10
59.7723
 20
29.7327
 30
0.0
 10
60.9671
 20
30.9287
 30
0.0
 10
62.4424
 20
30.9287
 30
0.0
 10
62.4424
 20
30.9287
 30
0.0
 10
63.9165
 20
30.9287
 30
0.0
 10
65.1125
 20
29.7326
 30
0.0
 10
65.1125
 20
28.2586
 30
0.0
  0
SPLINE
  5
89
330
1F
100
AcDbEntity
  8
layer 1
 62
     7
100
AcDbSpline
210
0.0
220
0.0
230
1.0
 70
    11
 71
     3
 72
    20
 73
    16
 74
     0
 42
0.0000000001
 43
0.0000000001
 12
1.0
 22
0.0
 32
0.0
 13
1.0
 23
0.0
 33
0.0
 40
0.0
 40
0.0
 40
0.0
 40
0.0
 40
0.2
 40
0.2
 40
0.2
 40
0.2
 40
0.4
 40
0.4
 40
0.4
 40
0.4
 40
0.6
 40
0.6
 40
0.6
 40
0.6
 40
1.0
 40
1.0
 40
1.0
 40
1.0
 10
103.9824
 20
28.2586
 30
0.0
 10
103.9824
 20
26.7833
 30
0.0
 10
102.7864
 20
25.5885
 30
0.0
 10
101.3123
 20
25.5885
 30
0.0
 10
101.3123
 20
25.5885
 30
0.0
 10
99.837
 20
25.5885
 30
0.0
 10
98.6413
 20
26.7833
 30
0.0
 10
98.6413
 20
28.2585
 30
0.0
 10
98.6413
 20
28.2585
 30
0.0
 10
98.6413
 20
29.7327
 30
0.0
 10
99.837
 20
30.9287
 30
0.0
 10
101.3123
 20
30.9287
 30
0.0
 10
101.3123
 20
30.9287
 30
0.0
 10
102.7864
 20
30.9287
 30
0.0
 10
103.9824
 20
29.7326
 30
0.0
 10
103.9824
 20
28.2586
 30
0.0
  0
SPLINE
  5
8A
330
1F
100
AcDbEntity
  8
layer 1
 62
     7
100
AcDbSpline
210
0.0
220
0.0
230
1.0
 70
    11
 71
     3
 72
    20
 73
    16
 74
     0
 42
0.0000000001
 43
0.0000000001
 12
1.0
 22
0.0
 32
0.0
 13
1.0
 23
0.0
 33
0.0
 40
0.0
 40
0.0
 40
0.0
 40
0.0
 40
0.2
 40
0.2
 40
0.2
 40
0.2
 40
0.4
 40
0.4
 40
0.4
 40
0.4
 40
0.6
 40
0.6
 40
0.6
 40
0.6
 40
1.0
 40
1.0
 40
1.0
 40
1.0
 10
103.9824
 20
-10.6643
 30
0.0
 10
103.9824
 20
-12.1383
 30
0.0
 10
102.7864
 20
-13.3343
 30
0.0
 10
101.3123
 20
-13.3343
 30
0.0
 10
101.3123
 20
-13.3343
 30
0.0
 10
99.837
 20
-13.3343
 30
0.0
 10
98.6413
 20
-12.1383
 30
0.0
 10
98.6413
 20
-10.6643
 30
0.0
 10
98.6413
 20
-10.6643
 30
0.0
 10
98.6413
 20
-9.1889
 30
0.0
 10
99.837
 20
-7.9941
 30
0.0
 10
101.3123
 20
-7.9941
 30
0.0
 10
101.3123
 20
-7.9941
 30
0.0
 10
102.7864
 20
-7.9941
 30
0.0
 10
103.9824
 20
-9.1889
 30
0.0
 10
103.9824
 20
-10.6643
 30
0.0
  0
SPLINE
  5
8B
330
1F
100
AcDbEntity
  8
layer 1
 62
     7
100
AcDbSpline
210
0.0
220
0.0
230
1.0
 70
    11
 71
     3
 72
    20
 73
    16
 74
     0
 42
0.0000000001
 43
0.0000000001
 12
1.0
 22
0.0
 32
0.0
 13
1.0
 23
0.0
 33
0.0
 40
0.0
 40
0.0
 40
0.0
 40
0.0
 40
0.2
 40
0.2
 40
0.2
 40
0.2
 40
0.4
 40
0.4
 40
0.4
 40
0.4
 40
0.6
 40
0.6
 40
0.6
 40
0.6
 40
1.0
 40
1.0
 40
1.0
 40
1.0
 10
64.9547
 20
-10.6643
 30
0.0
 10
64.9547
 20
-12.1383
 30
0.0
 10
63.759
 20
-13.3343
 30
0.0
 10
62.2847
 20
-13.3343
 30
0.0
 10
62.2847
 20
-13.3343
 30
0.0
 10
60.8095
 20
-13.3343
 30
0.0
 10
59.6148
 20
-12.1383
 30
0.0
 10
59.6148
 20
-10.6643
 30
0.0
 10
59.6148
 20
-10.6643
 30
0.0
 10
59.6148
 20
-9.1889
 30
0.0
 10
60.8095
 20
-7.9941
 30
0.0
 10
62.2847
 20
-7.9941
 30
0.0
 10
62.2847
 20
-7.9941
 30
0.0
 10
63.759
 20
-7.9941
 30
0.0
 10
64.9547
 20
-9.1889
 30
0.0
 10
64.9547
 20
-10.6643
 30
0.0
  0
SPLINE
  5
8C
330
1F
100
AcDbEntity
  8
layer 1
 62
     7
100
AcDbSpline
210
0.0
220
0.0
230
1.0
 70
    11
 71
     3
 72
    20
 73
    16
 74
     0
 42
0.0000000001
 43
0.0000000001
 12
1.0
 22
0.0
 32
0.0
 13
1.0
 23
0.0
 33
0.0
 40
0.0
 40
0.0
 40
0.0
 40
0.0
 40
0.2
 40
0.2
 40
0.2
 40
0.2
 40
0.4
 40
0.4
 40
0.4
 40
0.4
 40
0.6
 40
0.6
 40
0.6
 40
0.6
 40
1.0
 40
1.0
 40
1.0
 40
1.0
 10
85.544
 20
8.6208
 30
0.0
 10
85.544
 20
6.5963
 30
0.0
 10
83.9037
 20
4.956
 30
0.0
 10
81.8792
 20
4.956
 30
0.0
 10
81.8792
 20
4.956
 30
0.0
 10
79.8556
 20
4.956
 30
0.0
 10
78.2153
 20
6.5963
 30
0.0
 10
78.2153
 20
8.6208
 30
0.0
 10
78.2153
 20
8.6208
 30
0.0
 10
78.2153
 20
10.6444
 30
0.0
 10
79.8556
 20
12.2846
 30
0.0
 10
81.8792
 20
12.2846
 30
0.0
 10
81.8792
 20
12.2846
 30
0.0
 10
83.9037
 20
12.2847
 30
0.0
 10
85.544
 20
10.6443
 30
0.0
 10
85.544
 20
8.6208
 30
0.0
  0
SPLINE
  5
8D
330
1F
100
AcDbEntity
  8
layer 1
100
AcDbSpline
210
0.0
220
0.0
230
1.0
 70
    11
 71
     3
 72
    20
 73
    16
 74
     0
 42
0.0000000001
 43
0.0000000001
 12
1.0
 22
0.0
 32
0.0
 13
1.0
 23
0.0
 33
0.0
 40
0.0
 40
0.0
 40
0.0
 40
0.0
 40
0.2
 40
0.2
 40
0.2
 40
0.2
 40
0.4
 40
0.4
 40
0.4
 40
0.4
 40
0.6
 40
0.6
 40
0.6
 40
0.6
 40
1.0
 40
1.0
 40
1.0
 40
1.0
 10
195.9206
 20
8.7746
 30
0.0
 10
195.9206
 20
28.932
 30
0.0
 10
179.5781
 20
45.2746
 30
0.0
 10
159.4206
 20
45.2746
 30
0.0
 10
159.4206
 20
45.2746
 30
0.0
 10
139.2632
 20
45.2746
 30
0.0
 10
122.9206
 20
28.932
 30
0.0
 10
122.9206
 20
8.7746
 30
0.0
 10
122.9206
 20
8.7746
 30
0.0
 10
122.9206
 20
-11.3828
 30
0.0
 10
139.2632
 20
-27.7254
 30
0.0
 10
159.4206
 20
-27.7254
 30
0.0
 10
159.4206
 20
-27.7254
 30
0.0
 10
179.5781
 20
-27.7254
 30
0.0
 10
195.9206
 20
-11.3828
 30
0.0
 10
195.9206
 20
8.7746
 30
0.0
  0
SPLINE
  5
8E
330
1F
100
AcDbEntity
  8
layer 1
370
    25
100
AcDbSpline
210
0.0
220
0.0
230
1.0
 70
    11
 71
     3
 72
    20
 73
    16
 74
     0
 42
0.0000000001
 43
0.0000000001
 12
1.0
 22
0.0
 32
0.0
 13
1.0
 23
0.0
 33
0.0
 40
0.0
 40
0.0
 40
0.0
 40
0.0
 40
0.2
 40
0.2
 40
0.2
 40
0.2
 40
0.4
 40
0.4
 40
0.4
 40
0.4
 40
0.6
 40
0.6
 40
0.6
 40
0.6
 40
1.0
 40
1.0
 40
1.0
 40
1.0
 10
195.9206
 20
8.7746
 30
0.0
 10
195.9206
 20
28.932
 30
0.0
 10
179.5781
 20
45.2745
 30
0.0
 10
159.4206
 20
45.2745
 30
0.0
 10
159.4206
 20
45.2745
 30
0.0
 10
139.2632
 20
45.2745
 30
0.0
 10
122.9206
 20
28.932
 30
0.0
 10
122.9206
 20
8.7746
 30
0.0
 10
122.9206
 20
8.7746
 30
0.0
 10
122.9206
 20
-11.3829
 30
0.0
 10
139.2632
 20
-27.7254
 30
0.0
 10
159.4206
 20
-27.7254
 30
0.0
 10
159.4206
 20
-27.7254
 30
0.0
 10
179.5781
 20
-27.7254
 30
0.0
 10
195.9206
 20
-11.3829
 30
0.0
 10
195.9206
 20
8.7746
 30
0.0
  0
SPLINE
  5
8F
330
1F
100
AcDbEntity
  8
layer 1
 62
     7
100
AcDbSpline
210
0.0
220
0.0
230
1.0
 70
    11
 71
     3
 72
    72
 73
    68
 74
     0
 42
0.0000000001
 43
0.0000000001
 12
1.0
 22
0.0
 32
0.0
 13
1.0
 23
0.0
 33
0.0
 40
0.0
 40
0.0
 40
0.0
 40
0.0
 40
0.0555555555555556
 40
0.0555555555555556
 40
0.0555555555555556
 40
0.0555555555555556
 40
0.1111111111111111
 40
0.1111111111111111
 40
0.1111111111111111
 40
0.1111111111111111
 40
0.1666666666666667
 40
0.1666666666666667
 40
0.1666666666666667
 40
0.1666666666666667
 40
0.2222222222222222
 40
0.2222222222222222
 40
0.2222222222222222
 40
0.2222222222222222
 40
0.2777777777777778
 40
0.2777777777777778
 40
0.2777777777777778
 40
0.2777777777777778
 40
0.3333333333333333
 40
0.3333333333333333
 40
0.3333333333333333
 40
0.3333333333333333
 40
0.3888888888888889
 40
0.3888888888888889
 40
0.3888888888888889
 40
0.3888888888888889
 40
0.4444444444444444
 40
0.4444444444444444
 40
0.4444444444444444
 40
0.4444444444444444
 40
0.5
 40
0.5
 40
0.5
 40
0.5
 40
0.5555555555555556
 40
0.5555555555555556
 40
0.5555555555555556
 40
0.5555555555555556
 40
0.6111111111111112
 40
0.6111111111111112
 40
0.6111111111111112
 40
0.6111111111111112
 40
0.6666666666666666
 40
0.6666666666666666
 40
0.6666666666666666
 40
0.6666666666666666
 40
0.7222222222222222
 40
0.7222222222222222
 40
0.7222222222222222
 40
0.7222222222222222
 40
0.7777777777777778
 40
0.7777777777777778
 40
0.7777777777777778
 40
0.7777777777777778
 40
0.8333333333333334
 40
0.8333333333333334
 40
0.8333333333333334
 40
0.8333333333333334
 40
0.8888888888888888
 40
0.8888888888888888
 40
0.8888888888888888
 40
0.8888888888888888
 40
1.0
 40
1.0
 40
1.0
 40
1.0
 10
142.3192
 20
16.5109
 30
0.0
 10
138.5519
 20
23.0338
 30
0.0
 10
138.8165
 20
31.1375
 30
0.0
 10
143.0036
 20
37.3995
 30
0.0
 10
143.0036
 20
37.3995
 30
0.0
 10
139.9371
 20
35.6322
 30
0.0
 10
137.3161
 20
33.5158
 30
0.0
 10
134.9466
 20
30.8854
 30
0.0
 10
134.9466
 20
30.8854
 30
0.0
 10
132.8706
 20
28.5825
 30
0.0
 10
130.4419
 20
25.1784
 30
0.0
 10
129.5043
 20
22.1135
 30
0.0
 10
129.5043
 20
22.1135
 30
0.0
 10
128.4802
 20
18.7681
 30
0.0
 10
128.6254
 20
15.1729
 30
0.0
 10
129.9194
 20
11.9207
 30
0.0
 10
129.9194
 20
11.9207
 30
0.0
 10
130.5741
 20
10.2714
 30
0.0
 10
131.4487
 20
8.8401
 30
0.0
 10
132.6139
 20
7.5016
 30
0.0
 10
132.6139
 20
7.5016
 30
0.0
 10
133.3543
 20
6.6483
 30
0.0
 10
134.2663
 20
6.1646
 30
0.0
 10
135.4393
 20
6.4607
 30
0.0
 10
135.4393
 20
6.4607
 30
0.0
 10
136.16
 20
6.6452
 30
0.0
 10
136.631
 20
6.9779
 30
0.0
 10
137.0052
 20
7.6242
 30
0.0
 10
137.0052
 20
7.6242
 30
0.0
 10
137.0052
 20
7.6242
 30
0.0
 10
138.9377
 20
6.4858
 30
0.0
 10
138.9377
 20
6.4858
 30
0.0
 10
138.9377
 20
6.4858
 30
0.0
 10
138.2867
 20
5.4173
 30
0.0
 10
138.5692
 20
4.0157
 30
0.0
 10
139.5
 20
3.2134
 30
0.0
 10
139.5
 20
3.2134
 30
0.0
 10
139.9916
 20
2.7878
 30
0.0
 10
140.5373
 20
2.6525
 30
0.0
 10
141.1405
 20
2.5263
 30
0.0
 10
141.1405
 20
2.5263
 30
0.0
 10
141.7327
 20
2.4068
 30
0.0
 10
142.3217
 20
2.3218
 30
0.0
 10
142.9213
 20
2.2709
 30
0.0
 10
142.9213
 20
2.2709
 30
0.0
 10
143.1808
 20
2.8181
 30
0.0
 10
143.4008
 20
3.3716
 30
0.0
 10
143.5891
 20
3.9434
 30
0.0
 10
143.5891
 20
3.9434
 30
0.0
 10
143.7835
 20
4.5262
 30
0.0
 10
143.9355
 20
5.0671
 30
0.0
 10
143.816
 20
5.7033
 30
0.0
 10
143.816
 20
5.7033
 30
0.0
 10
143.5853
 20
6.9088
 30
0.0
 10
142.5215
 20
7.8491
 30
0.0
 10
141.262
 20
7.8469
 30
0.0
 10
141.262
 20
7.8469
 30
0.0
 10
141.262
 20
7.8469
 30
0.0
 10
141.2442
 20
10.0461
 30
0.0
 10
141.2442
 20
10.0461
 30
0.0
 10
141.2442
 20
10.0461
 30
0.0
 10
142.686
 20
10.0654
 30
0.0
 10
143.8096
 20
11.3164
 30
0.0
 10
143.7824
 20
12.7263
 30
0.0
 10
143.7824
 20
12.7263
 30
0.0
 10
143.7631
 20
13.7158
 30
0.0
 10
142.7725
 20
15.7247
 30
0.0
 10
142.3192
 20
16.5109
 30
0.0
  0
SPLINE
  5
90
330
1F
100
AcDbEntity
  8
layer 1
370
    25
100
AcDbSpline
210
0.0
220
0.0
230
1.0
 70
    11
 71
     3
 72
    72
 73
    68
 74
     0
 42
0.0000000001
 43
0.0000000001
 12
1.0
 22
0.0
 32
0.0
 13
1.0
 23
0.0
 33
0.0
 40
0.0
 40
0.0
 40
0.0
 40
0.0
 40
0.0555555555555556
 40
0.0555555555555556
 40
0.0555555555555556
 40
0.0555555555555556
 40
0.1111111111111111
 40
0.1111111111111111
 40
0.1111111111111111
 40
0.1111111111111111
 40
0.1666666666666667
 40
0.1666666666666667
 40
0.1666666666666667
 40
0.1666666666666667
 40
0.2222222222222222
 40
0.2222222222222222
 40
0.2222222222222222
 40
0.2222222222222222
 40
0.2777777777777778
 40
0.2777777777777778
 40
0.2777777777777778
 40
0.2777777777777778
 40
0.3333333333333333
 40
0.3333333333333333
 40
0.3333333333333333
 40
0.3333333333333333
 40
0.3888888888888889
 40
0.3888888888888889
 40
0.3888888888888889
 40
0.3888888888888889
 40
0.4444444444444444
 40
0.4444444444444444
 40
0.4444444444444444
 40
0.4444444444444444
 40
0.5
 40
0.5
 40
0.5
 40
0.5
 40
0.5555555555555556
 40
0.5555555555555556
 40
0.5555555555555556
 40
0.5555555555555556
 40
0.6111111111111112
 40
0.6111111111111112
 40
0.6111111111111112
 40
0.6111111111111112
 40
0.6666666666666666
 40
0.6666666666666666
 40
0.6666666666666666
 40
0.6666666666666666
 40
0.7222222222222222
 40
0.7222222222222222
 40
0.7222222222222222
 40
0.7222222222222222
 40
0.7777777777777778
 40
0.7777777777777778
 40
0.7777777777777778
 40
0.7777777777777778
 40
0.8333333333333334
 40
0.8333333333333334
 40
0.8333333333333334
 40
0.8333333333333334
 40
0.8888888888888888
 40
0.8888888888888888
 40
0.8888888888888888
 40
0.8888888888888888
 40
1.0
 40
1.0
 40
1.0
 40
1.0
 10
142.3192
 20
16.5108
 30
0.0
 10
138.5519
 20
23.0339
 30
0.0
 10
138.8165
 20
31.1375
 30
0.0
 10
143.0036
 20
37.3994
 30
0.0
 10
143.0036
 20
37.3994
 30
0.0
 10
139.9371
 20
35.6321
 30
0.0
 10
137.3161
 20
33.5159
 30
0.0
 10
134.9466
 20
30.8854
 30
0.0
 10
134.9466
 20
30.8854
 30
0.0
 10
132.8706
 20
28.5825
 30
0.0
 10
130.4419
 20
25.1784
 30
0.0
 10
129.5043
 20
22.1134
 30
0.0
 10
129.5043
 20
22.1134
 30
0.0
 10
128.4802
 20
18.7682
 30
0.0
 10
128.6254
 20
15.1728
 30
0.0
 10
129.9194
 20
11.9207
 30
0.0
 10
129.9194
 20
11.9207
 30
0.0
 10
130.5741
 20
10.2714
 30
0.0
 10
131.4487
 20
8.84
 30
0.0
 10
132.6139
 20
7.5015
 30
0.0
 10
132.6139
 20
7.5015
 30
0.0
 10
133.3543
 20
6.6484
 30
0.0
 10
134.2663
 20
6.1646
 30
0.0
 10
135.4393
 20
6.4607
 30
0.0
 10
135.4393
 20
6.4607
 30
0.0
 10
136.16
 20
6.6452
 30
0.0
 10
136.631
 20
6.978
 30
0.0
 10
137.0052
 20
7.6242
 30
0.0
 10
137.0052
 20
7.6242
 30
0.0
 10
137.0052
 20
7.6242
 30
0.0
 10
138.9377
 20
6.4859
 30
0.0
 10
138.9377
 20
6.4859
 30
0.0
 10
138.9377
 20
6.4859
 30
0.0
 10
138.2867
 20
5.4172
 30
0.0
 10
138.5692
 20
4.0157
 30
0.0
 10
139.5
 20
3.2134
 30
0.0
 10
139.5
 20
3.2134
 30
0.0
 10
139.9916
 20
2.7878
 30
0.0
 10
140.5373
 20
2.6525
 30
0.0
 10
141.1405
 20
2.5263
 30
0.0
 10
141.1405
 20
2.5263
 30
0.0
 10
141.7327
 20
2.4067
 30
0.0
 10
142.3217
 20
2.3218
 30
0.0
 10
142.9213
 20
2.2711
 30
0.0
 10
142.9213
 20
2.2711
 30
0.0
 10
143.1808
 20
2.8182
 30
0.0
 10
143.4008
 20
3.3717
 30
0.0
 10
143.5891
 20
3.9433
 30
0.0
 10
143.5891
 20
3.9433
 30
0.0
 10
143.7835
 20
4.5262
 30
0.0
 10
143.9355
 20
5.0671
 30
0.0
 10
143.816
 20
5.7034
 30
0.0
 10
143.816
 20
5.7034
 30
0.0
 10
143.5853
 20
6.9088
 30
0.0
 10
142.5215
 20
7.849
 30
0.0
 10
141.262
 20
7.8469
 30
0.0
 10
141.262
 20
7.8469
 30
0.0
 10
141.262
 20
7.8469
 30
0.0
 10
141.2442
 20
10.0461
 30
0.0
 10
141.2442
 20
10.0461
 30
0.0
 10
141.2442
 20
10.0461
 30
0.0
 10
142.686
 20
10.0654
 30
0.0
 10
143.8096
 20
11.3165
 30
0.0
 10
143.7824
 20
12.7262
 30
0.0
 10
143.7824
 20
12.7262
 30
0.0
 10
143.7631
 20
13.7158
 30
0.0
 10
142.7725
 20
15.7247
 30
0.0
 10
142.3192
 20
16.5108
 30
0.0
  0
SPLINE
  5
91
330
1F
100
AcDbEntity
  8
layer 1
 62
     7
100
AcDbSpline
210
0.0
220
0.0
230
1.0
 70
    11
 71
     3
 72
    72
 73
    68
 74
     0
 42
0.0000000001
 43
0.0000000001
 12
1.0
 22
0.0
 32
0.0
 13
1.0
 23
0.0
 33
0.0
 40
0.0
 40
0.0
 40
0.0
 40
0.0
 40
0.0555555555555556
 40
0.0555555555555556
 40
0.0555555555555556
 40
0.0555555555555556
 40
0.1111111111111111
 40
0.1111111111111111
 40
0.1111111111111111
 40
0.1111111111111111
 40
0.1666666666666667
 40
0.1666666666666667
 40
0.1666666666666667
 40
0.1666666666666667
 40
0.2222222222222222
 40
0.2222222222222222
 40
0.2222222222222222
 40
0.2222222222222222
 40
0.2777777777777778
 40
0.2777777777777778
 40
0.2777777777777778
 40
0.2777777777777778
 40
0.3333333333333333
 40
0.3333333333333333
 40
0.3333333333333333
 40
0.3333333333333333
 40
0.3888888888888889
 40
0.3888888888888889
 40
0.3888888888888889
 40
0.3888888888888889
 40
0.4444444444444444
 40
0.4444444444444444
 40
0.4444444444444444
 40
0.4444444444444444
 40
0.5
 40
0.5
 40
0.5
 40
0.5
 40
0.5555555555555556
 40
0.5555555555555556
 40
0.5555555555555556
 40
0.5555555555555556
 40
0.6111111111111112
 40
0.6111111111111112
 40
0.6111111111111112
 40
0.6111111111111112
 40
0.6666666666666666
 40
0.6666666666666666
 40
0.6666666666666666
 40
0.6666666666666666
 40
0.7222222222222222
 40
0.7222222222222222
 40
0.7222222222222222
 40
0.7222222222222222
 40
0.7777777777777778
 40
0.7777777777777778
 40
0.7777777777777778
 40
0.7777777777777778
 40
0.8333333333333334
 40
0.8333333333333334
 40
0.8333333333333334
 40
0.8333333333333334
 40
0.8888888888888888
 40
0.8888888888888888
 40
0.8888888888888888
 40
0.8888888888888888
 40
1.0
 40
1.0
 40
1.0
 40
1.0
 10
144.133
 20
-2.1666
 30
0.0
 10
136.6007
 20
-2.1676
 30
0.0
 10
129.715
 20
2.1133
 30
0.0
 10
126.3854
 20
8.8705
 30
0.0
 10
126.3854
 20
8.8705
 30
0.0
 10
126.3823
 20
5.3313
 30
0.0
 10
126.9048
 20
2.0032
 30
0.0
 10
127.9981
 20
-1.3636
 30
0.0
 10
127.9981
 20
-1.3636
 30
0.0
 10
128.9545
 20
-4.3133
 30
0.0
 10
130.6882
 20
-8.1187
 30
0.0
 10
132.8737
 20
-10.4631
 30
0.0
 10
132.8737
 20
-10.4631
 30
0.0
 10
135.259
 20
-13.0228
 30
0.0
 10
138.4456
 20
-14.6947
 30
0.0
 10
141.9082
 20
-15.1998
 30
0.0
 10
141.9082
 20
-15.1998
 30
0.0
 10
143.6639
 20
-15.4577
 30
0.0
 10
145.3411
 20
-15.4158
 30
0.0
 10
147.0828
 20
-15.0763
 30
0.0
 10
147.0828
 20
-15.0763
 30
0.0
 10
148.1922
 20
-14.8613
 30
0.0
 10
149.067
 20
-14.3137
 30
0.0
 10
149.3967
 20
-13.1496
 30
0.0
 10
149.3967
 20
-13.1496
 30
0.0
 10
149.5979
 20
-12.4337
 30
0.0
 10
149.5449
 20
-11.8593
 30
0.0
 10
149.1723
 20
-11.2115
 30
0.0
 10
149.1723
 20
-11.2115
 30
0.0
 10
149.1723
 20
-11.2115
 30
0.0
 10
151.1241
 20
-10.1072
 30
0.0
 10
151.1241
 20
-10.1072
 30
0.0
 10
151.1241
 20
-10.1072
 30
0.0
 10
151.7246
 20
-11.2057
 30
0.0
 10
153.0795
 20
-11.6617
 30
0.0
 10
154.2399
 20
-11.2566
 30
0.0
 10
154.2399
 20
-11.2566
 30
0.0
 10
154.8542
 20
-11.0432
 30
0.0
 10
155.244
 20
-10.6386
 30
0.0
 10
155.6549
 20
-10.1796
 30
0.0
 10
155.6549
 20
-10.1796
 30
0.0
 10
156.0548
 20
-9.7262
 30
0.0
 10
156.4227
 20
-9.2586
 30
0.0
 10
156.7666
 20
-8.765
 30
0.0
 10
156.7666
 20
-8.765
 30
0.0
 10
156.4222
 20
-8.2666
 30
0.0
 10
156.0527
 20
-7.799
 30
0.0
 10
155.6518
 20
-7.3505
 30
0.0
 10
155.6518
 20
-7.3505
 30
0.0
 10
155.2446
 20
-6.8908
 30
0.0
 10
154.852
 20
-6.4889
 30
0.0
 10
154.2414
 20
-6.2739
 30
0.0
 10
154.2414
 20
-6.2739
 30
0.0
 10
153.0821
 20
-5.8709
 30
0.0
 10
151.7356
 20
-6.3222
 30
0.0
 10
151.1078
 20
-7.4138
 30
0.0
 10
151.1078
 20
-7.4138
 30
0.0
 10
151.1078
 20
-7.4138
 30
0.0
 10
149.1943
 20
-6.3294
 30
0.0
 10
149.1943
 20
-6.3294
 30
0.0
 10
149.1943
 20
-6.3294
 30
0.0
 10
149.8987
 20
-5.0716
 30
0.0
 10
149.3772
 20
-3.4726
 30
0.0
 10
148.1424
 20
-2.7913
 30
0.0
 10
148.1424
 20
-2.7913
 30
0.0
 10
147.2755
 20
-2.3133
 30
0.0
 10
145.0408
 20
-2.1671
 30
0.0
 10
144.133
 20
-2.1666
 30
0.0
  0
SPLINE
  5
92
330
1F
100
AcDbEntity
  8
layer 1
370
    25
100
AcDbSpline
210
0.0
220
0.0
230
1.0
 70
    11
 71
     3
 72
    72
 73
    68
 74
     0
 42
0.0000000001
 43
0.0000000001
 12
1.0
 22
0.0
 32
0.0
 13
1.0
 23
0.0
 33
0.0
 40
0.0
 40
0.0
 40
0.0
 40
0.0
 40
0.0555555555555556
 40
0.0555555555555556
 40
0.0555555555555556
 40
0.0555555555555556
 40
0.1111111111111111
 40
0.1111111111111111
 40
0.1111111111111111
 40
0.1111111111111111
 40
0.1666666666666667
 40
0.1666666666666667
 40
0.1666666666666667
 40
0.1666666666666667
 40
0.2222222222222222
 40
0.2222222222222222
 40
0.2222222222222222
 40
0.2222222222222222
 40
0.2777777777777778
 40
0.2777777777777778
 40
0.2777777777777778
 40
0.2777777777777778
 40
0.3333333333333333
 40
0.3333333333333333
 40
0.3333333333333333
 40
0.3333333333333333
 40
0.3888888888888889
 40
0.3888888888888889
 40
0.3888888888888889
 40
0.3888888888888889
 40
0.4444444444444444
 40
0.4444444444444444
 40
0.4444444444444444
 40
0.4444444444444444
 40
0.5
 40
0.5
 40
0.5
 40
0.5
 40
0.5555555555555556
 40
0.5555555555555556
 40
0.5555555555555556
 40
0.5555555555555556
 40
0.6111111111111112
 40
0.6111111111111112
 40
0.6111111111111112
 40
0.6111111111111112
 40
0.6666666666666666
 40
0.6666666666666666
 40
0.6666666666666666
 40
0.6666666666666666
 40
0.7222222222222222
 40
0.7222222222222222
 40
0.7222222222222222
 40
0.7222222222222222
 40
0.7777777777777778
 40
0.7777777777777778
 40
0.7777777777777778
 40
0.7777777777777778
 40
0.8333333333333334
 40
0.8333333333333334
 40
0.8333333333333334
 40
0.8333333333333334
 40
0.8888888888888888
 40
0.8888888888888888
 40
0.8888888888888888
 40
0.8888888888888888
 40
1.0
 40
1.0
 40
1.0
 40
1.0
 10
144.133
 20
-2.1666
 30
0.0
 10
136.6007
 20
-2.1675
 30
0.0
 10
129.715
 20
2.1133
 30
0.0
 10
126.3854
 20
8.8705
 30
0.0
 10
126.3854
 20
8.8705
 30
0.0
 10
126.3823
 20
5.3312
 30
0.0
 10
126.9048
 20
2.0031
 30
0.0
 10
127.9981
 20
-1.3636
 30
0.0
 10
127.9981
 20
-1.3636
 30
0.0
 10
128.9545
 20
-4.3133
 30
0.0
 10
130.6882
 20
-8.1188
 30
0.0
 10
132.8737
 20
-10.4631
 30
0.0
 10
132.8737
 20
-10.4631
 30
0.0
 10
135.259
 20
-13.0228
 30
0.0
 10
138.4456
 20
-14.6947
 30
0.0
 10
141.9082
 20
-15.1998
 30
0.0
 10
141.9082
 20
-15.1998
 30
0.0
 10
143.6639
 20
-15.4577
 30
0.0
 10
145.3411
 20
-15.4159
 30
0.0
 10
147.0828
 20
-15.0762
 30
0.0
 10
147.0828
 20
-15.0762
 30
0.0
 10
148.1922
 20
-14.8614
 30
0.0
 10
149.067
 20
-14.3137
 30
0.0
 10
149.3967
 20
-13.1496
 30
0.0
 10
149.3967
 20
-13.1496
 30
0.0
 10
149.5979
 20
-12.4337
 30
0.0
 10
149.5449
 20
-11.8593
 30
0.0
 10
149.1723
 20
-11.2115
 30
0.0
 10
149.1723
 20
-11.2115
 30
0.0
 10
149.1723
 20
-11.2115
 30
0.0
 10
151.1241
 20
-10.1072
 30
0.0
 10
151.1241
 20
-10.1072
 30
0.0
 10
151.1241
 20
-10.1072
 30
0.0
 10
151.7246
 20
-11.2058
 30
0.0
 10
153.0795
 20
-11.6617
 30
0.0
 10
154.2399
 20
-11.2566
 30
0.0
 10
154.2399
 20
-11.2566
 30
0.0
 10
154.8542
 20
-11.0433
 30
0.0
 10
155.244
 20
-10.6386
 30
0.0
 10
155.6549
 20
-10.1795
 30
0.0
 10
155.6549
 20
-10.1795
 30
0.0
 10
156.0548
 20
-9.7261
 30
0.0
 10
156.4227
 20
-9.2587
 30
0.0
 10
156.7666
 20
-8.765
 30
0.0
 10
156.7666
 20
-8.765
 30
0.0
 10
156.4222
 20
-8.2666
 30
0.0
 10
156.0527
 20
-7.799
 30
0.0
 10
155.6518
 20
-7.3504
 30
0.0
 10
155.6518
 20
-7.3504
 30
0.0
 10
155.2446
 20
-6.8909
 30
0.0
 10
154.852
 20
-6.4889
 30
0.0
 10
154.2414
 20
-6.2739
 30
0.0
 10
154.2414
 20
-6.2739
 30
0.0
 10
153.0821
 20
-5.8709
 30
0.0
 10
151.7356
 20
-6.3221
 30
0.0
 10
151.1078
 20
-7.4138
 30
0.0
 10
151.1078
 20
-7.4138
 30
0.0
 10
151.1078
 20
-7.4138
 30
0.0
 10
149.1943
 20
-6.3295
 30
0.0
 10
149.1943
 20
-6.3295
 30
0.0
 10
149.1943
 20
-6.3295
 30
0.0
 10
149.8987
 20
-5.0716
 30
0.0
 10
149.3772
 20
-3.4726
 30
0.0
 10
148.1424
 20
-2.7913
 30
0.0
 10
148.1424
 20
-2.7913
 30
0.0
 10
147.2755
 20
-2.3132
 30
0.0
 10
145.0408
 20
-2.1671
 30
0.0
 10
144.133
 20
-2.1666
 30
0.0
  0
SPLINE
  5
93
330
1F
100
AcDbEntity
  8
layer 1
 62
     7
100
AcDbSpline
210
0.0
220
0.0
230
1.0
 70
    11
 71
     3
 72
    72
 73
    68
 74
     0
 42
0.0000000001
 43
0.0000000001
 12
1.0
 22
0.0
 32
0.0
 13
1.0
 23
0.0
 33
0.0
 40
0.0
 40
0.0
 40
0.0
 40
0.0
 40
0.0555555555555556
 40
0.0555555555555556
 40
0.0555555555555556
 40
0.0555555555555556
 40
0.1111111111111111
 40
0.1111111111111111
 40
0.1111111111111111
 40
0.1111111111111111
 40
0.1666666666666667
 40
0.1666666666666667
 40
0.1666666666666667
 40
0.1666666666666667
 40
0.2222222222222222
 40
0.2222222222222222
 40
0.2222222222222222
 40
0.2222222222222222
 40
0.2777777777777778
 40
0.2777777777777778
 40
0.2777777777777778
 40
0.2777777777777778
 40
0.3333333333333333
 40
0.3333333333333333
 40
0.3333333333333333
 40
0.3333333333333333
 40
0.3888888888888889
 40
0.3888888888888889
 40
0.3888888888888889
 40
0.3888888888888889
 40
0.4444444444444444
 40
0.4444444444444444
 40
0.4444444444444444
 40
0.4444444444444444
 40
0.5
 40
0.5
 40
0.5
 40
0.5
 40
0.5555555555555556
 40
0.5555555555555556
 40
0.5555555555555556
 40
0.5555555555555556
 40
0.6111111111111112
 40
0.6111111111111112
 40
0.6111111111111112
 40
0.6111111111111112
 40
0.6666666666666666
 40
0.6666666666666666
 40
0.6666666666666666
 40
0.6666666666666666
 40
0.7222222222222222
 40
0.7222222222222222
 40
0.7222222222222222
 40
0.7222222222222222
 40
0.7777777777777778
 40
0.7777777777777778
 40
0.7777777777777778
 40
0.7777777777777778
 40
0.8333333333333334
 40
0.8333333333333334
 40
0.8333333333333334
 40
0.8333333333333334
 40
0.8888888888888888
 40
0.8888888888888888
 40
0.8888888888888888
 40
0.8888888888888888
 40
1.0
 40
1.0
 40
1.0
 40
1.0
 10
161.4065
 20
-9.9169
 30
0.0
 10
157.6407
 20
-16.4409
 30
0.0
 10
150.4904
 20
-20.2632
 30
0.0
 10
142.9743
 20
-19.7684
 30
0.0
 10
142.9743
 20
-19.7684
 30
0.0
 10
146.0377
 20
-21.5404
 30
0.0
 10
149.1806
 20
-22.7517
 30
0.0
 10
152.6434
 20
-23.4886
 30
0.0
 10
152.6434
 20
-23.4886
 30
0.0
 10
155.6765
 20
-24.1353
 30
0.0
 10
159.8388
 20
-24.5362
 30
0.0
 10
162.9614
 20
-23.8161
 30
0.0
 10
162.9614
 20
-23.8161
 30
0.0
 10
166.3708
 20
-23.0305
 30
0.0
 10
169.4121
 20
-21.1065
 30
0.0
 10
171.5814
 20
-18.3602
 30
0.0
 10
171.5814
 20
-18.3602
 30
0.0
 10
172.682
 20
-16.9687
 30
0.0
 10
173.4843
 20
-15.4955
 30
0.0
 10
174.0614
 20
-13.8173
 30
0.0
 10
174.0614
 20
-13.8173
 30
0.0
 10
174.4298
 20
-12.7492
 30
0.0
 10
174.3932
 20
-11.7177
 30
0.0
 10
173.5498
 20
-10.8499
 30
0.0
 10
173.5498
 20
-10.8499
 30
0.0
 10
173.0299
 20
-10.3179
 30
0.0
 10
172.5063
 20
-10.0763
 30
0.0
 10
171.759
 20
-10.0752
 30
0.0
 10
171.759
 20
-10.0752
 30
0.0
 10
171.759
 20
-10.0752
 30
0.0
 10
171.7789
 20
-7.8325
 30
0.0
 10
171.7789
 20
-7.8325
 30
0.0
 10
171.7789
 20
-7.8325
 30
0.0
 10
173.0299
 20
-7.8619
 30
0.0
 10
174.1023
 20
-6.9165
 30
0.0
 10
174.3319
 20
-5.7095
 30
0.0
 10
174.3319
 20
-5.7095
 30
0.0
 10
174.4545
 20
-5.0705
 30
0.0
 10
174.2987
 20
-4.5308
 30
0.0
 10
174.1064
 20
-3.9454
 30
0.0
 10
174.1064
 20
-3.9454
 30
0.0
 10
173.9141
 20
-3.3725
 30
0.0
 10
173.693
 20
-2.8196
 30
0.0
 10
173.4372
 20
-2.2755
 30
0.0
 10
173.4372
 20
-2.2755
 30
0.0
 10
172.8335
 20
-2.3244
 30
0.0
 10
172.2443
 20
-2.4102
 30
0.0
 10
171.6546
 20
-2.5334
 30
0.0
 10
171.6546
 20
-2.5334
 30
0.0
 10
171.053
 20
-2.656
 30
0.0
 10
170.509
 20
-2.7949
 30
0.0
 10
170.0179
 20
-3.2169
 30
0.0
 10
170.0179
 20
-3.2169
 30
0.0
 10
169.0887
 20
-4.0188
 30
0.0
 10
168.8062
 20
-5.4108
 30
0.0
 10
169.4377
 20
-6.5004
 30
0.0
 10
169.4377
 20
-6.5004
 30
0.0
 10
169.4377
 20
-6.5004
 30
0.0
 10
167.5421
 20
-7.6151
 30
0.0
 10
167.5421
 20
-7.6151
 30
0.0
 10
167.5421
 20
-7.6151
 30
0.0
 10
166.8047
 20
-6.3767
 30
0.0
 10
165.1595
 20
-6.0286
 30
0.0
 10
163.9519
 20
-6.7572
 30
0.0
 10
163.9519
 20
-6.7572
 30
0.0
 10
163.1051
 20
-7.2686
 30
0.0
 10
161.8608
 20
-9.1308
 30
0.0
 10
161.4065
 20
-9.9169
 30
0.0
  0
SPLINE
  5
94
330
1F
100
AcDbEntity
  8
layer 1
370
    25
100
AcDbSpline
210
0.0
220
0.0
230
1.0
 70
    11
 71
     3
 72
    72
 73
    68
 74
     0
 42
0.0000000001
 43
0.0000000001
 12
1.0
 22
0.0
 32
0.0
 13
1.0
 23
0.0
 33
0.0
 40
0.0
 40
0.0
 40
0.0
 40
0.0
 40
0.0555555555555556
 40
0.0555555555555556
 40
0.0555555555555556
 40
0.0555555555555556
 40
0.1111111111111111
 40
0.1111111111111111
 40
0.1111111111111111
 40
0.1111111111111111
 40
0.1666666666666667
 40
0.1666666666666667
 40
0.1666666666666667
 40
0.1666666666666667
 40
0.2222222222222222
 40
0.2222222222222222
 40
0.2222222222222222
 40
0.2222222222222222
 40
0.2777777777777778
 40
0.2777777777777778
 40
0.2777777777777778
 40
0.2777777777777778
 40
0.3333333333333333
 40
0.3333333333333333
 40
0.3333333333333333
 40
0.3333333333333333
 40
0.3888888888888889
 40
0.3888888888888889
 40
0.3888888888888889
 40
0.3888888888888889
 40
0.4444444444444444
 40
0.4444444444444444
 40
0.4444444444444444
 40
0.4444444444444444
 40
0.5
 40
0.5
 40
0.5
 40
0.5
 40
0.5555555555555556
 40
0.5555555555555556
 40
0.5555555555555556
 40
0.5555555555555556
 40
0.6111111111111112
 40
0.6111111111111112
 40
0.6111111111111112
 40
0.6111111111111112
 40
0.6666666666666666
 40
0.6666666666666666
 40
0.6666666666666666
 40
0.6666666666666666
 40
0.7222222222222222
 40
0.7222222222222222
 40
0.7222222222222222
 40
0.7222222222222222
 40
0.7777777777777778
 40
0.7777777777777778
 40
0.7777777777777778
 40
0.7777777777777778
 40
0.8333333333333334
 40
0.8333333333333334
 40
0.8333333333333334
 40
0.8333333333333334
 40
0.8888888888888888
 40
0.8888888888888888
 40
0.8888888888888888
 40
0.8888888888888888
 40
1.0
 40
1.0
 40
1.0
 40
1.0
 10
161.4065
 20
-9.9169
 30
0.0
 10
157.6407
 20
-16.4409
 30
0.0
 10
150.4904
 20
-20.2633
 30
0.0
 10
142.9743
 20
-19.7685
 30
0.0
 10
142.9743
 20
-19.7685
 30
0.0
 10
146.0377
 20
-21.5405
 30
0.0
 10
149.1806
 20
-22.7516
 30
0.0
 10
152.6434
 20
-23.4886
 30
0.0
 10
152.6434
 20
-23.4886
 30
0.0
 10
155.6765
 20
-24.1353
 30
0.0
 10
159.8388
 20
-24.5362
 30
0.0
 10
162.9614
 20
-23.8161
 30
0.0
 10
162.9614
 20
-23.8161
 30
0.0
 10
166.3708
 20
-23.0306
 30
0.0
 10
169.4121
 20
-21.1065
 30
0.0
 10
171.5814
 20
-18.3602
 30
0.0
 10
171.5814
 20
-18.3602
 30
0.0
 10
172.682
 20
-16.9688
 30
0.0
 10
173.4843
 20
-15.4954
 30
0.0
 10
174.0614
 20
-13.8174
 30
0.0
 10
174.0614
 20
-13.8174
 30
0.0
 10
174.4298
 20
-12.7492
 30
0.0
 10
174.3932
 20
-11.7177
 30
0.0
 10
173.5498
 20
-10.8498
 30
0.0
 10
173.5498
 20
-10.8498
 30
0.0
 10
173.0299
 20
-10.318
 30
0.0
 10
172.5063
 20
-10.0763
 30
0.0
 10
171.759
 20
-10.0752
 30
0.0
 10
171.759
 20
-10.0752
 30
0.0
 10
171.759
 20
-10.0752
 30
0.0
 10
171.7789
 20
-7.8326
 30
0.0
 10
171.7789
 20
-7.8326
 30
0.0
 10
171.7789
 20
-7.8326
 30
0.0
 10
173.0299
 20
-7.8619
 30
0.0
 10
174.1023
 20
-6.9165
 30
0.0
 10
174.3319
 20
-5.7095
 30
0.0
 10
174.3319
 20
-5.7095
 30
0.0
 10
174.4545
 20
-5.0706
 30
0.0
 10
174.2987
 20
-4.5308
 30
0.0
 10
174.1064
 20
-3.9453
 30
0.0
 10
174.1064
 20
-3.9453
 30
0.0
 10
173.9141
 20
-3.3725
 30
0.0
 10
173.693
 20
-2.8196
 30
0.0
 10
173.4372
 20
-2.2756
 30
0.0
 10
173.4372
 20
-2.2756
 30
0.0
 10
172.8335
 20
-2.3242
 30
0.0
 10
172.2443
 20
-2.4103
 30
0.0
 10
171.6546
 20
-2.5334
 30
0.0
 10
171.6546
 20
-2.5334
 30
0.0
 10
171.053
 20
-2.656
 30
0.0
 10
170.509
 20
-2.7949
 30
0.0
 10
170.0179
 20
-3.2169
 30
0.0
 10
170.0179
 20
-3.2169
 30
0.0
 10
169.0887
 20
-4.0187
 30
0.0
 10
168.8062
 20
-5.4107
 30
0.0
 10
169.4377
 20
-6.5003
 30
0.0
 10
169.4377
 20
-6.5003
 30
0.0
 10
169.4377
 20
-6.5003
 30
0.0
 10
167.5421
 20
-7.6151
 30
0.0
 10
167.5421
 20
-7.6151
 30
0.0
 10
167.5421
 20
-7.6151
 30
0.0
 10
166.8047
 20
-6.3767
 30
0.0
 10
165.1595
 20
-6.0287
 30
0.0
 10
163.9519
 20
-6.7572
 30
0.0
 10
163.9519
 20
-6.7572
 30
0.0
 10
163.1051
 20
-7.2687
 30
0.0
 10
161.8608
 20
-9.1308
 30
0.0
 10
161.4065
 20
-9.9169
 30
0.0
  0
SPLINE
  5
95
330
1F
100
AcDbEntity
  8
layer 1
 62
     7
100
AcDbSpline
210
0.0
220
0.0
230
1.0
 70
    11
 71
     3
 72
    72
 73
    68
 74
     0
 42
0.0000000001
 43
0.0000000001
 12
1.0
 22
0.0
 32
0.0
 13
1.0
 23
0.0
 33
0.0
 40
0.0
 40
0.0
 40
0.0
 40
0.0
 40
0.0555555555555556
 40
0.0555555555555556
 40
0.0555555555555556
 40
0.0555555555555556
 40
0.1111111111111111
 40
0.1111111111111111
 40
0.1111111111111111
 40
0.1111111111111111
 40
0.1666666666666667
 40
0.1666666666666667
 40
0.1666666666666667
 40
0.1666666666666667
 40
0.2222222222222222
 40
0.2222222222222222
 40
0.2222222222222222
 40
0.2222222222222222
 40
0.2777777777777778
 40
0.2777777777777778
 40
0.2777777777777778
 40
0.2777777777777778
 40
0.3333333333333333
 40
0.3333333333333333
 40
0.3333333333333333
 40
0.3333333333333333
 40
0.3888888888888889
 40
0.3888888888888889
 40
0.3888888888888889
 40
0.3888888888888889
 40
0.4444444444444444
 40
0.4444444444444444
 40
0.4444444444444444
 40
0.4444444444444444
 40
0.5
 40
0.5
 40
0.5
 40
0.5
 40
0.5555555555555556
 40
0.5555555555555556
 40
0.5555555555555556
 40
0.5555555555555556
 40
0.6111111111111112
 40
0.6111111111111112
 40
0.6111111111111112
 40
0.6111111111111112
 40
0.6666666666666666
 40
0.6666666666666666
 40
0.6666666666666666
 40
0.6666666666666666
 40
0.7222222222222222
 40
0.7222222222222222
 40
0.7222222222222222
 40
0.7222222222222222
 40
0.7777777777777778
 40
0.7777777777777778
 40
0.7777777777777778
 40
0.7777777777777778
 40
0.8333333333333334
 40
0.8333333333333334
 40
0.8333333333333334
 40
0.8333333333333334
 40
0.8888888888888888
 40
0.8888888888888888
 40
0.8888888888888888
 40
0.8888888888888888
 40
1.0
 40
1.0
 40
1.0
 40
1.0
 10
176.5603
 20
1.0557
 30
0.0
 10
180.3275
 20
-5.4673
 30
0.0
 10
180.0628
 20
-13.571
 30
0.0
 10
175.8758
 20
-19.833
 30
0.0
 10
175.8758
 20
-19.833
 30
0.0
 10
178.9424
 20
-18.0657
 30
0.0
 10
181.5633
 20
-15.9493
 30
0.0
 10
183.9328
 20
-13.3189
 30
0.0
 10
183.9328
 20
-13.3189
 30
0.0
 10
186.0094
 20
-11.016
 30
0.0
 10
188.4374
 20
-7.612
 30
0.0
 10
189.3751
 20
-4.547
 30
0.0
 10
189.3751
 20
-4.547
 30
0.0
 10
190.3992
 20
-1.2016
 30
0.0
 10
190.254
 20
2.3936
 30
0.0
 10
188.96
 20
5.6458
 30
0.0
 10
188.96
 20
5.6458
 30
0.0
 10
188.3054
 20
7.2951
 30
0.0
 10
187.4306
 20
8.7264
 30
0.0
 10
186.2661
 20
10.0649
 30
0.0
 10
186.2661
 20
10.0649
 30
0.0
 10
185.525
 20
10.9182
 30
0.0
 10
184.6131
 20
11.4019
 30
0.0
 10
183.4401
 20
11.1058
 30
0.0
 10
183.4401
 20
11.1058
 30
0.0
 10
182.7195
 20
10.9213
 30
0.0
 10
182.2483
 20
10.5886
 30
0.0
 10
181.8741
 20
9.9423
 30
0.0
 10
181.8741
 20
9.9423
 30
0.0
 10
181.8741
 20
9.9423
 30
0.0
 10
179.9418
 20
11.0807
 30
0.0
 10
179.9418
 20
11.0807
 30
0.0
 10
179.9418
 20
11.0807
 30
0.0
 10
180.5928
 20
12.1492
 30
0.0
 10
180.3102
 20
13.5508
 30
0.0
 10
179.3795
 20
14.3531
 30
0.0
 10
179.3795
 20
14.3531
 30
0.0
 10
178.8879
 20
14.7787
 30
0.0
 10
178.3422
 20
14.9139
 30
0.0
 10
177.739
 20
15.0402
 30
0.0
 10
177.739
 20
15.0402
 30
0.0
 10
177.1468
 20
15.1598
 30
0.0
 10
176.5576
 20
15.2446
 30
0.0
 10
175.9581
 20
15.2955
 30
0.0
 10
175.9581
 20
15.2955
 30
0.0
 10
175.6992
 20
14.7482
 30
0.0
 10
175.4785
 20
14.1948
 30
0.0
 10
175.2904
 20
13.6231
 30
0.0
 10
175.2904
 20
13.6231
 30
0.0
 10
175.096
 20
13.0403
 30
0.0
 10
174.944
 20
12.4994
 30
0.0
 10
175.0635
 20
11.8632
 30
0.0
 10
175.0635
 20
11.8632
 30
0.0
 10
175.294
 20
10.6577
 30
0.0
 10
176.358
 20
9.7174
 30
0.0
 10
177.6174
 20
9.7196
 30
0.0
 10
177.6174
 20
9.7196
 30
0.0
 10
177.6174
 20
9.7196
 30
0.0
 10
177.6353
 20
7.5204
 30
0.0
 10
177.6353
 20
7.5204
 30
0.0
 10
177.6353
 20
7.5204
 30
0.0
 10
176.1935
 20
7.5011
 30
0.0
 10
175.0698
 20
6.2501
 30
0.0
 10
175.097
 20
4.8402
 30
0.0
 10
175.097
 20
4.8402
 30
0.0
 10
175.1164
 20
3.8507
 30
0.0
 10
176.1069
 20
1.8418
 30
0.0
 10
176.5603
 20
1.0557
 30
0.0
  0
SPLINE
  5
96
330
1F
100
AcDbEntity
  8
layer 1
370
    25
100
AcDbSpline
210
0.0
220
0.0
230
1.0
 70
    11
 71
     3
 72
    72
 73
    68
 74
     0
 42
0.0000000001
 43
0.0000000001
 12
1.0
 22
0.0
 32
0.0
 13
1.0
 23
0.0
 33
0.0
 40
0.0
 40
0.0
 40
0.0
 40
0.0
 40
0.0555555555555556
 40
0.0555555555555556
 40
0.0555555555555556
 40
0.0555555555555556
 40
0.1111111111111111
 40
0.1111111111111111
 40
0.1111111111111111
 40
0.1111111111111111
 40
0.1666666666666667
 40
0.1666666666666667
 40
0.1666666666666667
 40
0.1666666666666667
 40
0.2222222222222222
 40
0.2222222222222222
 40
0.2222222222222222
 40
0.2222222222222222
 40
0.2777777777777778
 40
0.2777777777777778
 40
0.2777777777777778
 40
0.2777777777777778
 40
0.3333333333333333
 40
0.3333333333333333
 40
0.3333333333333333
 40
0.3333333333333333
 40
0.3888888888888889
 40
0.3888888888888889
 40
0.3888888888888889
 40
0.3888888888888889
 40
0.4444444444444444
 40
0.4444444444444444
 40
0.4444444444444444
 40
0.4444444444444444
 40
0.5
 40
0.5
 40
0.5
 40
0.5
 40
0.5555555555555556
 40
0.5555555555555556
 40
0.5555555555555556
 40
0.5555555555555556
 40
0.6111111111111112
 40
0.6111111111111112
 40
0.6111111111111112
 40
0.6111111111111112
 40
0.6666666666666666
 40
0.6666666666666666
 40
0.6666666666666666
 40
0.6666666666666666
 40
0.7222222222222222
 40
0.7222222222222222
 40
0.7222222222222222
 40
0.7222222222222222
 40
0.7777777777777778
 40
0.7777777777777778
 40
0.7777777777777778
 40
0.7777777777777778
 40
0.8333333333333334
 40
0.8333333333333334
 40
0.8333333333333334
 40
0.8333333333333334
 40
0.8888888888888888
 40
0.8888888888888888
 40
0.8888888888888888
 40
0.8888888888888888
 40
1.0
 40
1.0
 40
1.0
 40
1.0
 10
176.5603
 20
1.0556
 30
0.0
 10
180.3275
 20
-5.4673
 30
0.0
 10
180.0628
 20
-13.571
 30
0.0
 10
175.8758
 20
-19.833
 30
0.0
 10
175.8758
 20
-19.833
 30
0.0
 10
178.9424
 20
-18.0657
 30
0.0
 10
181.5633
 20
-15.9493
 30
0.0
 10
183.9328
 20
-13.3189
 30
0.0
 10
183.9328
 20
-13.3189
 30
0.0
 10
186.0094
 20
-11.016
 30
0.0
 10
188.4374
 20
-7.612
 30
0.0
 10
189.3751
 20
-4.547
 30
0.0
 10
189.3751
 20
-4.547
 30
0.0
 10
190.3992
 20
-1.2016
 30
0.0
 10
190.254
 20
2.3937
 30
0.0
 10
188.96
 20
5.6457
 30
0.0
 10
188.96
 20
5.6457
 30
0.0
 10
188.3054
 20
7.2951
 30
0.0
 10
187.4306
 20
8.7264
 30
0.0
 10
186.2661
 20
10.0649
 30
0.0
 10
186.2661
 20
10.0649
 30
0.0
 10
185.525
 20
10.9182
 30
0.0
 10
184.6131
 20
11.4019
 30
0.0
 10
183.4401
 20
11.1058
 30
0.0
 10
183.4401
 20
11.1058
 30
0.0
 10
182.7195
 20
10.9213
 30
0.0
 10
182.2483
 20
10.5885
 30
0.0
 10
181.8741
 20
9.9422
 30
0.0
 10
181.8741
 20
9.9422
 30
0.0
 10
181.8741
 20
9.9422
 30
0.0
 10
179.9418
 20
11.0807
 30
0.0
 10
179.9418
 20
11.0807
 30
0.0
 10
179.9418
 20
11.0807
 30
0.0
 10
180.5928
 20
12.1493
 30
0.0
 10
180.3102
 20
13.5507
 30
0.0
 10
179.3795
 20
14.353
 30
0.0
 10
179.3795
 20
14.353
 30
0.0
 10
178.8879
 20
14.7787
 30
0.0
 10
178.3422
 20
14.9139
 30
0.0
 10
177.739
 20
15.0401
 30
0.0
 10
177.739
 20
15.0401
 30
0.0
 10
177.1468
 20
15.1597
 30
0.0
 10
176.5576
 20
15.2446
 30
0.0
 10
175.9581
 20
15.2955
 30
0.0
 10
175.9581
 20
15.2955
 30
0.0
 10
175.6992
 20
14.7484
 30
0.0
 10
175.4785
 20
14.1949
 30
0.0
 10
175.2904
 20
13.6231
 30
0.0
 10
175.2904
 20
13.6231
 30
0.0
 10
175.096
 20
13.0402
 30
0.0
 10
174.944
 20
12.4994
 30
0.0
 10
175.0635
 20
11.8631
 30
0.0
 10
175.0635
 20
11.8631
 30
0.0
 10
175.294
 20
10.6576
 30
0.0
 10
176.358
 20
9.7175
 30
0.0
 10
177.6174
 20
9.7195
 30
0.0
 10
177.6174
 20
9.7195
 30
0.0
 10
177.6174
 20
9.7195
 30
0.0
 10
177.6353
 20
7.5205
 30
0.0
 10
177.6353
 20
7.5205
 30
0.0
 10
177.6353
 20
7.5205
 30
0.0
 10
176.1935
 20
7.501
 30
0.0
 10
175.0698
 20
6.25
 30
0.0
 10
175.097
 20
4.8402
 30
0.0
 10
175.097
 20
4.8402
 30
0.0
 10
175.1164
 20
3.8507
 30
0.0
 10
176.1069
 20
1.8417
 30
0.0
 10
176.5603
 20
1.0556
 30
0.0
  0
SPLINE
  5
97
330
1F
100
AcDbEntity
  8
layer 1
 62
     7
100
AcDbSpline
210
0.0
220
0.0
230
1.0
 70
    11
 71
     3
 72
    72
 73
    68
 74
     0
 42
0.0000000001
 43
0.0000000001
 12
1.0
 22
0.0
 32
0.0
 13
1.0
 23
0.0
 33
0.0
 40
0.0
 40
0.0
 40
0.0
 40
0.0
 40
0.0555555555555556
 40
0.0555555555555556
 40
0.0555555555555556
 40
0.0555555555555556
 40
0.1111111111111111
 40
0.1111111111111111
 40
0.1111111111111111
 40
0.1111111111111111
 40
0.1666666666666667
 40
0.1666666666666667
 40
0.1666666666666667
 40
0.1666666666666667
 40
0.2222222222222222
 40
0.2222222222222222
 40
0.2222222222222222
 40
0.2222222222222222
 40
0.2777777777777778
 40
0.2777777777777778
 40
0.2777777777777778
 40
0.2777777777777778
 40
0.3333333333333333
 40
0.3333333333333333
 40
0.3333333333333333
 40
0.3333333333333333
 40
0.3888888888888889
 40
0.3888888888888889
 40
0.3888888888888889
 40
0.3888888888888889
 40
0.4444444444444444
 40
0.4444444444444444
 40
0.4444444444444444
 40
0.4444444444444444
 40
0.5
 40
0.5
 40
0.5
 40
0.5
 40
0.5555555555555556
 40
0.5555555555555556
 40
0.5555555555555556
 40
0.5555555555555556
 40
0.6111111111111112
 40
0.6111111111111112
 40
0.6111111111111112
 40
0.6111111111111112
 40
0.6666666666666666
 40
0.6666666666666666
 40
0.6666666666666666
 40
0.6666666666666666
 40
0.7222222222222222
 40
0.7222222222222222
 40
0.7222222222222222
 40
0.7222222222222222
 40
0.7777777777777778
 40
0.7777777777777778
 40
0.7777777777777778
 40
0.7777777777777778
 40
0.8333333333333334
 40
0.8333333333333334
 40
0.8333333333333334
 40
0.8333333333333334
 40
0.8888888888888888
 40
0.8888888888888888
 40
0.8888888888888888
 40
0.8888888888888888
 40
1.0
 40
1.0
 40
1.0
 40
1.0
 10
174.6306
 20
19.796
 30
0.0
 10
182.1635
 20
19.7969
 30
0.0
 10
189.0491
 20
15.5161
 30
0.0
 10
192.3781
 20
8.7589
 30
0.0
 10
192.3781
 20
8.7589
 30
0.0
 10
192.3814
 20
12.2982
 30
0.0
 10
191.8588
 20
15.6257
 30
0.0
 10
190.7655
 20
18.993
 30
0.0
 10
190.7655
 20
18.993
 30
0.0
 10
189.809
 20
21.9427
 30
0.0
 10
188.0753
 20
25.7482
 30
0.0
 10
185.8903
 20
28.0924
 30
0.0
 10
185.8903
 20
28.0924
 30
0.0
 10
183.5052
 20
30.6522
 30
0.0
 10
180.3187
 20
32.3235
 30
0.0
 10
176.8554
 20
32.8292
 30
0.0
 10
176.8554
 20
32.8292
 30
0.0
 10
175.1001
 20
33.0871
 30
0.0
 10
173.423
 20
33.0447
 30
0.0
 10
171.6809
 20
32.7055
 30
0.0
 10
171.6809
 20
32.7055
 30
0.0
 10
170.5719
 20
32.4907
 30
0.0
 10
169.6967
 20
31.943
 30
0.0
 10
169.367
 20
30.779
 30
0.0
 10
169.367
 20
30.779
 30
0.0
 10
169.1663
 20
30.0625
 30
0.0
 10
169.2186
 20
29.4881
 30
0.0
 10
169.5912
 20
28.8409
 30
0.0
 10
169.5912
 20
28.8409
 30
0.0
 10
169.5912
 20
28.8409
 30
0.0
 10
167.6396
 20
27.7366
 30
0.0
 10
167.6396
 20
27.7366
 30
0.0
 10
167.6396
 20
27.7366
 30
0.0
 10
167.0394
 20
28.8351
 30
0.0
 10
165.6846
 20
29.2905
 30
0.0
 10
164.5243
 20
28.8855
 30
0.0
 10
164.5243
 20
28.8855
 30
0.0
 10
163.9101
 20
28.6727
 30
0.0
 10
163.5196
 20
28.268
 30
0.0
 10
163.1092
 20
27.8083
 30
0.0
 10
163.1092
 20
27.8083
 30
0.0
 10
162.7089
 20
27.3555
 30
0.0
 10
162.3408
 20
26.8881
 30
0.0
 10
161.9976
 20
26.3943
 30
0.0
 10
161.9976
 20
26.3943
 30
0.0
 10
162.3419
 20
25.8959
 30
0.0
 10
162.7109
 20
25.4284
 30
0.0
 10
163.1119
 20
24.9792
 30
0.0
 10
163.1119
 20
24.9792
 30
0.0
 10
163.5191
 20
24.5197
 30
0.0
 10
163.9115
 20
24.1181
 30
0.0
 10
164.5227
 20
23.9033
 30
0.0
 10
164.5227
 20
23.9033
 30
0.0
 10
165.6821
 20
23.4997
 30
0.0
 10
167.0279
 20
23.9509
 30
0.0
 10
167.6558
 20
25.0432
 30
0.0
 10
167.6558
 20
25.0432
 30
0.0
 10
167.6558
 20
25.0432
 30
0.0
 10
169.5692
 20
23.9589
 30
0.0
 10
169.5692
 20
23.9589
 30
0.0
 10
169.5692
 20
23.9589
 30
0.0
 10
168.8654
 20
22.701
 30
0.0
 10
169.3869
 20
21.102
 30
0.0
 10
170.6211
 20
20.4207
 30
0.0
 10
170.6211
 20
20.4207
 30
0.0
 10
171.488
 20
19.9426
 30
0.0
 10
173.7227
 20
19.7964
 30
0.0
 10
174.6306
 20
19.796
 30
0.0
  0
SPLINE
  5
98
330
1F
100
AcDbEntity
  8
layer 1
370
    25
100
AcDbSpline
210
0.0
220
0.0
230
1.0
 70
     8
 71
     3
 72
    72
 73
    68
 74
     0
 42
0.0000000001
 43
0.0000000001
 12
1.0
 22
0.0
 32
0.0
 13
1.0
 23
0.0
 33
0.0
 40
0.0
 40
0.0
 40
0.0
 40
0.0
 40
0.0555555555555556
 40
0.0555555555555556
 40
0.0555555555555556
 40
0.0555555555555556
 40
0.1111111111111111
 40
0.1111111111111111
 40
0.1111111111111111
 40
0.1111111111111111
 40
0.1666666666666667
 40
0.1666666666666667
 40
0.1666666666666667
 40
0.1666666666666667
 40
0.2222222222222222
 40
0.2222222222222222
 40
0.2222222222222222
 40
0.2222222222222222
 40
0.2777777777777778
 40
0.2777777777777778
 40
0.2777777777777778
 40
0.2777777777777778
 40
0.3333333333333333
 40
0.3333333333333333
 40
0.3333333333333333
 40
0.3333333333333333
 40
0.3888888888888889
 40
0.3888888888888889
 40
0.3888888888888889
 40
0.3888888888888889
 40
0.4444444444444444
 40
0.4444444444444444
 40
0.4444444444444444
 40
0.4444444444444444
 40
0.5
 40
0.5
 40
0.5
 40
0.5
 40
0.5555555555555556
 40
0.5555555555555556
 40
0.5555555555555556
 40
0.5555555555555556
 40
0.6111111111111112
 40
0.6111111111111112
 40
0.6111111111111112
 40
0.6111111111111112
 40
0.6666666666666666
 40
0.6666666666666666
 40
0.6666666666666666
 40
0.6666666666666666
 40
0.7222222222222222
 40
0.7222222222222222
 40
0.7222222222222222
 40
0.7222222222222222
 40
0.7777777777777778
 40
0.7777777777777778
 40
0.7777777777777778
 40
0.7777777777777778
 40
0.8333333333333334
 40
0.8333333333333334
 40
0.8333333333333334
 40
0.8333333333333334
 40
0.8888888888888888
 40
0.8888888888888888
 40
0.8888888888888888
 40
0.8888888888888888
 40
1.0
 40
1.0
 40
1.0
 40
1.0
 10
174.6306
 20
19.7959
 30
0.0
 10
182.1635
 20
19.797
 30
0.0
 10
189.0491
 20
15.516
 30
0.0
 10
192.3781
 20
8.7589
 30
0.0
 10
192.3781
 20
8.7589
 30
0.0
 10
192.3814
 20
12.2981
 30
0.0
 10
191.8588
 20
15.6257
 30
0.0
 10
190.7655
 20
18.9929
 30
0.0
 10
190.7655
 20
18.9929
 30
0.0
 10
189.809
 20
21.9426
 30
0.0
 10
188.0753
 20
25.7481
 30
0.0
 10
185.8903
 20
28.0925
 30
0.0
 10
185.8903
 20
28.0925
 30
0.0
 10
183.5052
 20
30.6522
 30
0.0
 10
180.3187
 20
32.3235
 30
0.0
 10
176.8554
 20
32.8292
 30
0.0
 10
176.8554
 20
32.8292
 30
0.0
 10
175.1001
 20
33.0871
 30
0.0
 10
173.423
 20
33.0447
 30
0.0
 10
171.6809
 20
32.7055
 30
0.0
 10
171.6809
 20
32.7055
 30
0.0
 10
170.5719
 20
32.4907
 30
0.0
 10
169.6967
 20
31.943
 30
0.0
 10
169.367
 20
30.7789
 30
0.0
 10
169.367
 20
30.7789
 30
0.0
 10
169.1663
 20
30.0625
 30
0.0
 10
169.2186
 20
29.4881
 30
0.0
 10
169.5912
 20
28.8409
 30
0.0
 10
169.5912
 20
28.8409
 30
0.0
 10
169.5912
 20
28.8409
 30
0.0
 10
167.6396
 20
27.7365
 30
0.0
 10
167.6396
 20
27.7365
 30
0.0
 10
167.6396
 20
27.7365
 30
0.0
 10
167.0394
 20
28.8351
 30
0.0
 10
165.6846
 20
29.2905
 30
0.0
 10
164.5243
 20
28.8854
 30
0.0
 10
164.5243
 20
28.8854
 30
0.0
 10
163.9101
 20
28.6726
 30
0.0
 10
163.5196
 20
28.268
 30
0.0
 10
163.1092
 20
27.8083
 30
0.0
 10
163.1092
 20
27.8083
 30
0.0
 10
162.7089
 20
27.3555
 30
0.0
 10
162.3408
 20
26.888
 30
0.0
 10
161.9976
 20
26.3943
 30
0.0
 10
161.9976
 20
26.3943
 30
0.0
 10
162.3419
 20
25.896
 30
0.0
 10
162.7109
 20
25.4284
 30
0.0
 10
163.1119
 20
24.9793
 30
0.0
 10
163.1119
 20
24.9793
 30
0.0
 10
163.5191
 20
24.5197
 30
0.0
 10
163.9115
 20
24.1182
 30
0.0
 10
164.5227
 20
23.9033
 30
0.0
 10
164.5227
 20
23.9033
 30
0.0
 10
165.6821
 20
23.4997
 30
0.0
 10
167.0279
 20
23.9509
 30
0.0
 10
167.6558
 20
25.0432
 30
0.0
 10
167.6558
 20
25.0432
 30
0.0
 10
167.6558
 20
25.0432
 30
0.0
 10
169.5692
 20
23.9589
 30
0.0
 10
169.5692
 20
23.9589
 30
0.0
 10
169.5692
 20
23.9589
 30
0.0
 10
168.8654
 20
22.701
 30
0.0
 10
169.3869
 20
21.1019
 30
0.0
 10
170.6211
 20
20.4206
 30
0.0
 10
170.6211
 20
20.4206
 30
0.0
 10
171.488
 20
19.9426
 30
0.0
 10
173.7227
 20
19.7965
 30
0.0
 10
174.6305
 20
19.7959
 30
0.0
  0
SPLINE
  5
99
330
1F
100
AcDbEntity
  8
layer 1
 62
     7
100
AcDbSpline
210
0.0
220
0.0
230
1.0
 70
    11
 71
     3
 72
   124
 73
   120
 74
     0
 42
0.0000000001
 43
0.0000000001
 12
1.0
 22
0.0
 32
0.0
 13
1.0
 23
0.0
 33
0.0
 40
0.0
 40
0.0
 40
0.0
 40
0.0
 40
0.032258064516129
 40
0.032258064516129
 40
0.032258064516129
 40
0.032258064516129
 40
0.0645161290322581
 40
0.0645161290322581
 40
0.0645161290322581
 40
0.0645161290322581
 40
0.0967741935483871
 40
0.0967741935483871
 40
0.0967741935483871
 40
0.0967741935483871
 40
0.1290322580645161
 40
0.1290322580645161
 40
0.1290322580645161
 40
0.1290322580645161
 40
0.1612903225806452
 40
0.1612903225806452
 40
0.1612903225806452
 40
0.1612903225806452
 40
0.1935483870967742
 40
0.1935483870967742
 40
0.1935483870967742
 40
0.1935483870967742
 40
0.2258064516129032
 40
0.2258064516129032
 40
0.2258064516129032
 40
0.2258064516129032
 40
0.2580645161290323
 40
0.2580645161290323
 40
0.2580645161290323
 40
0.2580645161290323
 40
0.2903225806451613
 40
0.2903225806451613
 40
0.2903225806451613
 40
0.2903225806451613
 40
0.3225806451612903
 40
0.3225806451612903
 40
0.3225806451612903
 40
0.3225806451612903
 40
0.3548387096774194
 40
0.3548387096774194
 40
0.3548387096774194
 40
0.3548387096774194
 40
0.3870967741935484
 40
0.3870967741935484
 40
0.3870967741935484
 40
0.3870967741935484
 40
0.4193548387096774
 40
0.4193548387096774
 40
0.4193548387096774
 40
0.4193548387096774
 40
0.4516129032258064
 40
0.4516129032258064
 40
0.4516129032258064
 40
0.4516129032258064
 40
0.4838709677419355
 40
0.4838709677419355
 40
0.4838709677419355
 40
0.4838709677419355
 40
0.5161290322580645
 40
0.5161290322580645
 40
0.5161290322580645
 40
0.5161290322580645
 40
0.5483870967741935
 40
0.5483870967741935
 40
0.5483870967741935
 40
0.5483870967741935
 40
0.5806451612903226
 40
0.5806451612903226
 40
0.5806451612903226
 40
0.5806451612903226
 40
0.6129032258064516
 40
0.6129032258064516
 40
0.6129032258064516
 40
0.6129032258064516
 40
0.6451612903225806
 40
0.6451612903225806
 40
0.6451612903225806
 40
0.6451612903225806
 40
0.6774193548387096
 40
0.6774193548387096
 40
0.6774193548387096
 40
0.6774193548387096
 40
0.7096774193548387
 40
0.7096774193548387
 40
0.7096774193548387
 40
0.7096774193548387
 40
0.7419354838709677
 40
0.7419354838709677
 40
0.7419354838709677
 40
0.7419354838709677
 40
0.7741935483870968
 40
0.7741935483870968
 40
0.7741935483870968
 40
0.7741935483870968
 40
0.8064516129032258
 40
0.8064516129032258
 40
0.8064516129032258
 40
0.8064516129032258
 40
0.8387096774193549
 40
0.8387096774193549
 40
0.8387096774193549
 40
0.8387096774193549
 40
0.8709677419354839
 40
0.8709677419354839
 40
0.8709677419354839
 40
0.8709677419354839
 40
0.9032258064516129
 40
0.9032258064516129
 40
0.9032258064516129
 40
0.9032258064516129
 40
0.9354838709677419
 40
0.9354838709677419
 40
0.9354838709677419
 40
0.9354838709677419
 40
1.0
 40
1.0
 40
1.0
 40
1.0
 10
148.3249
 20
12.8101
 30
0.0
 10
148.1199
 20
13.7803
 30
0.0
 10
147.8501
 20
14.7215
 30
0.0
 10
147.5062
 20
15.6508
 30
0.0
 10
147.5062
 20
15.6508
 30
0.0
 10
148.4841
 20
15.8185
 30
0.0
 10
149.4338
 20
16.0517
 30
0.0
 10
150.3752
 20
16.3631
 30
0.0
 10
150.3752
 20
16.3631
 30
0.0
 10
151.9223
 20
16.8704
 30
0.0
 10
153.6744
 20
16.0722
 30
0.0
 10
154.199
 20
14.5067
 30
0.0
 10
154.199
 20
14.5067
 30
0.0
 10
154.199
 20
14.5067
 30
0.0
 10
157.0469
 20
16.1435
 30
0.0
 10
157.0469
 20
16.1435
 30
0.0
 10
157.0469
 20
16.1435
 30
0.0
 10
155.9704
 20
17.3981
 30
0.0
 10
156.1586
 20
19.3138
 30
0.0
 10
157.3698
 20
20.3986
 30
0.0
 10
157.3698
 20
20.3986
 30
0.0
 10
158.1067
 20
21.0575
 30
0.0
 10
158.7901
 20
21.7654
 30
0.0
 10
159.4206
 20
22.5265
 30
0.0
 10
159.4206
 20
22.5265
 30
0.0
 10
160.0506
 20
21.7654
 30
0.0
 10
160.7304
 20
21.0574
 30
0.0
 10
161.4708
 20
20.3986
 30
0.0
 10
161.4708
 20
20.3986
 30
0.0
 10
162.6826
 20
19.3179
 30
0.0
 10
162.8708
 20
17.3981
 30
0.0
 10
161.7691
 20
16.1638
 30
0.0
 10
161.7691
 20
16.1638
 30
0.0
 10
161.7691
 20
16.1638
 30
0.0
 10
164.6156
 20
14.5272
 30
0.0
 10
164.6156
 20
14.5272
 30
0.0
 10
164.6156
 20
14.5272
 30
0.0
 10
165.1627
 20
16.0722
 30
0.0
 10
166.9184
 20
16.8704
 30
0.0
 10
168.4619
 20
16.3631
 30
0.0
 10
168.4619
 20
16.3631
 30
0.0
 10
169.4032
 20
16.0517
 30
0.0
 10
170.3523
 20
15.8185
 30
0.0
 10
171.3329
 20
15.6508
 30
0.0
 10
171.3329
 20
15.6508
 30
0.0
 10
170.9912
 20
14.7215
 30
0.0
 10
170.7165
 20
13.7803
 30
0.0
 10
170.5163
 20
12.8101
 30
0.0
 10
170.5163
 20
12.8101
 30
0.0
 10
170.1845
 20
11.218
 30
0.0
 10
168.617
 20
10.1006
 30
0.0
 10
167.0122
 20
10.4014
 30
0.0
 10
167.0122
 20
10.4014
 30
0.0
 10
167.0122
 20
10.4014
 30
0.0
 10
167.0065
 20
7.1148
 30
0.0
 10
167.0065
 20
7.1148
 30
0.0
 10
167.0065
 20
7.1148
 30
0.0
 10
168.6171
 20
7.4444
 30
0.0
 10
170.1845
 20
6.3271
 30
0.0
 10
170.5142
 20
4.7349
 30
0.0
 10
170.5142
 20
4.7349
 30
0.0
 10
170.7165
 20
3.7652
 30
0.0
 10
170.987
 20
2.8235
 30
0.0
 10
171.3308
 20
1.8948
 30
0.0
 10
171.3308
 20
1.8948
 30
0.0
 10
170.3523
 20
1.727
 30
0.0
 10
169.4031
 20
1.4932
 30
0.0
 10
168.4619
 20
1.1824
 30
0.0
 10
168.4619
 20
1.1824
 30
0.0
 10
166.9147
 20
0.6751
 30
0.0
 10
165.1627
 20
1.4728
 30
0.0
 10
164.6464
 20
3.0205
 30
0.0
 10
164.6464
 20
3.0205
 30
0.0
 10
164.6464
 20
3.0205
 30
0.0
 10
161.8
 20
1.3832
 30
0.0
 10
161.8
 20
1.3832
 30
0.0
 10
161.8
 20
1.3832
 30
0.0
 10
162.8708
 20
0.1468
 30
0.0
 10
162.6826
 20
-1.7688
 30
0.0
 10
161.4708
 20
-2.8531
 30
0.0
 10
161.4708
 20
-2.8531
 30
0.0
 10
160.7345
 20
-3.5119
 30
0.0
 10
160.0505
 20
-4.22
 30
0.0
 10
159.4206
 20
-4.9814
 30
0.0
 10
159.4206
 20
-4.9814
 30
0.0
 10
158.7902
 20
-4.22
 30
0.0
 10
158.1108
 20
-3.5119
 30
0.0
 10
157.3698
 20
-2.8531
 30
0.0
 10
157.3698
 20
-2.8531
 30
0.0
 10
156.1586
 20
-1.7724
 30
0.0
 10
155.9704
 20
0.1468
 30
0.0
 10
157.0575
 20
1.4246
 30
0.0
 10
157.0575
 20
1.4246
 30
0.0
 10
157.0575
 20
1.4246
 30
0.0
 10
154.2089
 20
3.0619
 30
0.0
 10
154.2089
 20
3.0619
 30
0.0
 10
154.2089
 20
3.0619
 30
0.0
 10
153.6744
 20
1.4728
 30
0.0
 10
151.9223
 20
0.6751
 30
0.0
 10
150.3752
 20
1.1824
 30
0.0
 10
150.3752
 20
1.1824
 30
0.0
 10
149.4338
 20
1.4932
 30
0.0
 10
148.4841
 20
1.727
 30
0.0
 10
147.5062
 20
1.8948
 30
0.0
 10
147.5062
 20
1.8948
 30
0.0
 10
147.8501
 20
2.8235
 30
0.0
 10
148.124
 20
3.7652
 30
0.0
 10
148.3249
 20
4.7349
 30
0.0
 10
148.3249
 20
4.7349
 30
0.0
 10
148.656
 20
6.3271
 30
0.0
 10
150.2237
 20
7.4444
 30
0.0
 10
151.8557
 20
7.1462
 30
0.0
 10
151.8557
 20
7.1462
 30
0.0
 10
151.8557
 20
7.1462
 30
0.0
 10
151.8615
 20
10.4322
 30
0.0
 10
151.8615
 20
10.4322
 30
0.0
 10
151.8615
 20
10.4322
 30
0.0
 10
150.2237
 20
10.1006
 30
0.0
 10
148.656
 20
11.218
 30
0.0
 10
148.3249
 20
12.8101
 30
0.0
  0
SPLINE
  5
9A
330
1F
100
AcDbEntity
  8
layer 1
370
    25
100
AcDbSpline
210
0.0
220
0.0
230
1.0
 70
    11
 71
     3
 72
   124
 73
   120
 74
     0
 42
0.0000000001
 43
0.0000000001
 12
1.0
 22
0.0
 32
0.0
 13
1.0
 23
0.0
 33
0.0
 40
0.0
 40
0.0
 40
0.0
 40
0.0
 40
0.032258064516129
 40
0.032258064516129
 40
0.032258064516129
 40
0.032258064516129
 40
0.0645161290322581
 40
0.0645161290322581
 40
0.0645161290322581
 40
0.0645161290322581
 40
0.0967741935483871
 40
0.0967741935483871
 40
0.0967741935483871
 40
0.0967741935483871
 40
0.1290322580645161
 40
0.1290322580645161
 40
0.1290322580645161
 40
0.1290322580645161
 40
0.1612903225806452
 40
0.1612903225806452
 40
0.1612903225806452
 40
0.1612903225806452
 40
0.1935483870967742
 40
0.1935483870967742
 40
0.1935483870967742
 40
0.1935483870967742
 40
0.2258064516129032
 40
0.2258064516129032
 40
0.2258064516129032
 40
0.2258064516129032
 40
0.2580645161290323
 40
0.2580645161290323
 40
0.2580645161290323
 40
0.2580645161290323
 40
0.2903225806451613
 40
0.2903225806451613
 40
0.2903225806451613
 40
0.2903225806451613
 40
0.3225806451612903
 40
0.3225806451612903
 40
0.3225806451612903
 40
0.3225806451612903
 40
0.3548387096774194
 40
0.3548387096774194
 40
0.3548387096774194
 40
0.3548387096774194
 40
0.3870967741935484
 40
0.3870967741935484
 40
0.3870967741935484
 40
0.3870967741935484
 40
0.4193548387096774
 40
0.4193548387096774
 40
0.4193548387096774
 40
0.4193548387096774
 40
0.4516129032258064
 40
0.4516129032258064
 40
0.4516129032258064
 40
0.4516129032258064
 40
0.4838709677419355
 40
0.4838709677419355
 40
0.4838709677419355
 40
0.4838709677419355
 40
0.5161290322580645
 40
0.5161290322580645
 40
0.5161290322580645
 40
0.5161290322580645
 40
0.5483870967741935
 40
0.5483870967741935
 40
0.5483870967741935
 40
0.5483870967741935
 40
0.5806451612903226
 40
0.5806451612903226
 40
0.5806451612903226
 40
0.5806451612903226
 40
0.6129032258064516
 40
0.6129032258064516
 40
0.6129032258064516
 40
0.6129032258064516
 40
0.6451612903225806
 40
0.6451612903225806
 40
0.6451612903225806
 40
0.6451612903225806
 40
0.6774193548387096
 40
0.6774193548387096
 40
0.6774193548387096
 40
0.6774193548387096
 40
0.7096774193548387
 40
0.7096774193548387
 40
0.7096774193548387
 40
0.7096774193548387
 40
0.7419354838709677
 40
0.7419354838709677
 40
0.7419354838709677
 40
0.7419354838709677
 40
0.7741935483870968
 40
0.7741935483870968
 40
0.7741935483870968
 40
0.7741935483870968
 40
0.8064516129032258
 40
0.8064516129032258
 40
0.8064516129032258
 40
0.8064516129032258
 40
0.8387096774193549
 40
0.8387096774193549
 40
0.8387096774193549
 40
0.8387096774193549
 40
0.8709677419354839
 40
0.8709677419354839
 40
0.8709677419354839
 40
0.8709677419354839
 40
0.9032258064516129
 40
0.9032258064516129
 40
0.9032258064516129
 40
0.9032258064516129
 40
0.9354838709677419
 40
0.9354838709677419
 40
0.9354838709677419
 40
0.9354838709677419
 40
1.0
 40
1.0
 40
1.0
 40
1.0
 10
148.3249
 20
12.8101
 30
0.0
 10
148.1199
 20
13.7803
 30
0.0
 10
147.8501
 20
14.7215
 30
0.0
 10
147.5062
 20
15.6507
 30
0.0
 10
147.5062
 20
15.6507
 30
0.0
 10
148.4841
 20
15.8185
 30
0.0
 10
149.4338
 20
16.0516
 30
0.0
 10
150.3752
 20
16.3631
 30
0.0
 10
150.3752
 20
16.3631
 30
0.0
 10
151.9223
 20
16.8704
 30
0.0
 10
153.6744
 20
16.0722
 30
0.0
 10
154.199
 20
14.5067
 30
0.0
 10
154.199
 20
14.5067
 30
0.0
 10
154.199
 20
14.5067
 30
0.0
 10
157.0469
 20
16.1435
 30
0.0
 10
157.0469
 20
16.1435
 30
0.0
 10
157.0469
 20
16.1435
 30
0.0
 10
155.9704
 20
17.3982
 30
0.0
 10
156.1586
 20
19.3137
 30
0.0
 10
157.3698
 20
20.3986
 30
0.0
 10
157.3698
 20
20.3986
 30
0.0
 10
158.1067
 20
21.0574
 30
0.0
 10
158.7901
 20
21.7654
 30
0.0
 10
159.4206
 20
22.5264
 30
0.0
 10
159.4206
 20
22.5264
 30
0.0
 10
160.0506
 20
21.7654
 30
0.0
 10
160.7304
 20
21.0574
 30
0.0
 10
161.4708
 20
20.3986
 30
0.0
 10
161.4708
 20
20.3986
 30
0.0
 10
162.6826
 20
19.3179
 30
0.0
 10
162.8708
 20
17.3982
 30
0.0
 10
161.7691
 20
16.1638
 30
0.0
 10
161.7691
 20
16.1638
 30
0.0
 10
161.7691
 20
16.1638
 30
0.0
 10
164.6156
 20
14.5271
 30
0.0
 10
164.6156
 20
14.5271
 30
0.0
 10
164.6156
 20
14.5271
 30
0.0
 10
165.1627
 20
16.0722
 30
0.0
 10
166.9184
 20
16.8704
 30
0.0
 10
168.4619
 20
16.3631
 30
0.0
 10
168.4619
 20
16.3631
 30
0.0
 10
169.4032
 20
16.0517
 30
0.0
 10
170.3523
 20
15.8185
 30
0.0
 10
171.3329
 20
15.6507
 30
0.0
 10
171.3329
 20
15.6507
 30
0.0
 10
170.9912
 20
14.7215
 30
0.0
 10
170.7165
 20
13.7803
 30
0.0
 10
170.5163
 20
12.8101
 30
0.0
 10
170.5163
 20
12.8101
 30
0.0
 10
170.1845
 20
11.2179
 30
0.0
 10
168.617
 20
10.1006
 30
0.0
 10
167.0122
 20
10.4014
 30
0.0
 10
167.0122
 20
10.4014
 30
0.0
 10
167.0122
 20
10.4014
 30
0.0
 10
167.0065
 20
7.1148
 30
0.0
 10
167.0065
 20
7.1148
 30
0.0
 10
167.0065
 20
7.1148
 30
0.0
 10
168.6171
 20
7.4444
 30
0.0
 10
170.1845
 20
6.327
 30
0.0
 10
170.5142
 20
4.7348
 30
0.0
 10
170.5142
 20
4.7348
 30
0.0
 10
170.7165
 20
3.7652
 30
0.0
 10
170.987
 20
2.8234
 30
0.0
 10
171.3308
 20
1.8947
 30
0.0
 10
171.3308
 20
1.8947
 30
0.0
 10
170.3523
 20
1.727
 30
0.0
 10
169.4031
 20
1.4933
 30
0.0
 10
168.4619
 20
1.1824
 30
0.0
 10
168.4619
 20
1.1824
 30
0.0
 10
166.9147
 20
0.6751
 30
0.0
 10
165.1627
 20
1.4728
 30
0.0
 10
164.6464
 20
3.0204
 30
0.0
 10
164.6464
 20
3.0204
 30
0.0
 10
164.6464
 20
3.0204
 30
0.0
 10
161.8
 20
1.3831
 30
0.0
 10
161.8
 20
1.3831
 30
0.0
 10
161.8
 20
1.3831
 30
0.0
 10
162.8708
 20
0.1469
 30
0.0
 10
162.6826
 20
-1.7688
 30
0.0
 10
161.4708
 20
-2.8532
 30
0.0
 10
161.4708
 20
-2.8532
 30
0.0
 10
160.7345
 20
-3.5119
 30
0.0
 10
160.0505
 20
-4.2199
 30
0.0
 10
159.4206
 20
-4.9815
 30
0.0
 10
159.4206
 20
-4.9815
 30
0.0
 10
158.7902
 20
-4.2199
 30
0.0
 10
158.1108
 20
-3.5119
 30
0.0
 10
157.3698
 20
-2.8532
 30
0.0
 10
157.3698
 20
-2.8532
 30
0.0
 10
156.1586
 20
-1.7724
 30
0.0
 10
155.9704
 20
0.1469
 30
0.0
 10
157.0575
 20
1.4246
 30
0.0
 10
157.0575
 20
1.4246
 30
0.0
 10
157.0575
 20
1.4246
 30
0.0
 10
154.2089
 20
3.0619
 30
0.0
 10
154.2089
 20
3.0619
 30
0.0
 10
154.2089
 20
3.0619
 30
0.0
 10
153.6744
 20
1.4728
 30
0.0
 10
151.9223
 20
0.6751
 30
0.0
 10
150.3752
 20
1.1824
 30
0.0
 10
150.3752
 20
1.1824
 30
0.0
 10
149.4338
 20
1.4933
 30
0.0
 10
148.4841
 20
1.727
 30
0.0
 10
147.5062
 20
1.8947
 30
0.0
 10
147.5062
 20
1.8947
 30
0.0
 10
147.8501
 20
2.8234
 30
0.0
 10
148.124
 20
3.7652
 30
0.0
 10
148.3249
 20
4.7348
 30
0.0
 10
148.3249
 20
4.7348
 30
0.0
 10
148.656
 20
6.327
 30
0.0
 10
150.2237
 20
7.4444
 30
0.0
 10
151.8557
 20
7.1461
 30
0.0
 10
151.8557
 20
7.1461
 30
0.0
 10
151.8557
 20
7.1461
 30
0.0
 10
151.8615
 20
10.4324
 30
0.0
 10
151.8615
 20
10.4324
 30
0.0
 10
151.8615
 20
10.4324
 30
0.0
 10
150.2237
 20
10.1006
 30
0.0
 10
148.656
 20
11.2179
 30
0.0
 10
148.3249
 20
12.8101
 30
0.0
  0
SPLINE
  5
9B
330
1F
100
AcDbEntity
  8
layer 1
 62
     7
100
AcDbSpline
210
0.0
220
0.0
230
1.0
 70
    11
 71
     3
 72
    72
 73
    68
 74
     0
 42
0.0000000001
 43
0.0000000001
 12
1.0
 22
0.0
 32
0.0
 13
1.0
 23
0.0
 33
0.0
 40
0.0
 40
0.0
 40
0.0
 40
0.0
 40
0.0555555555555556
 40
0.0555555555555556
 40
0.0555555555555556
 40
0.0555555555555556
 40
0.1111111111111111
 40
0.1111111111111111
 40
0.1111111111111111
 40
0.1111111111111111
 40
0.1666666666666667
 40
0.1666666666666667
 40
0.1666666666666667
 40
0.1666666666666667
 40
0.2222222222222222
 40
0.2222222222222222
 40
0.2222222222222222
 40
0.2222222222222222
 40
0.2777777777777778
 40
0.2777777777777778
 40
0.2777777777777778
 40
0.2777777777777778
 40
0.3333333333333333
 40
0.3333333333333333
 40
0.3333333333333333
 40
0.3333333333333333
 40
0.3888888888888889
 40
0.3888888888888889
 40
0.3888888888888889
 40
0.3888888888888889
 40
0.4444444444444444
 40
0.4444444444444444
 40
0.4444444444444444
 40
0.4444444444444444
 40
0.5
 40
0.5
 40
0.5
 40
0.5
 40
0.5555555555555556
 40
0.5555555555555556
 40
0.5555555555555556
 40
0.5555555555555556
 40
0.6111111111111112
 40
0.6111111111111112
 40
0.6111111111111112
 40
0.6111111111111112
 40
0.6666666666666666
 40
0.6666666666666666
 40
0.6666666666666666
 40
0.6666666666666666
 40
0.7222222222222222
 40
0.7222222222222222
 40
0.7222222222222222
 40
0.7222222222222222
 40
0.7777777777777778
 40
0.7777777777777778
 40
0.7777777777777778
 40
0.7777777777777778
 40
0.8333333333333334
 40
0.8333333333333334
 40
0.8333333333333334
 40
0.8333333333333334
 40
0.8888888888888888
 40
0.8888888888888888
 40
0.8888888888888888
 40
0.8888888888888888
 40
1.0
 40
1.0
 40
1.0
 40
1.0
 10
157.517
 20
27.4625
 30
0.0
 10
161.2828
 20
33.9865
 30
0.0
 10
168.4331
 20
37.8092
 30
0.0
 10
175.9497
 20
37.314
 30
0.0
 10
175.9497
 20
37.314
 30
0.0
 10
172.8858
 20
39.0865
 30
0.0
 10
169.7427
 20
40.2976
 30
0.0
 10
166.2801
 20
41.0345
 30
0.0
 10
166.2801
 20
41.0345
 30
0.0
 10
163.247
 20
41.6814
 30
0.0
 10
159.0847
 20
42.0822
 30
0.0
 10
155.962
 20
41.3622
 30
0.0
 10
155.962
 20
41.3622
 30
0.0
 10
152.5527
 20
40.576
 30
0.0
 10
149.5119
 20
38.6526
 30
0.0
 10
147.3426
 20
35.9063
 30
0.0
 10
147.3426
 20
35.9063
 30
0.0
 10
146.2415
 20
34.5148
 30
0.0
 10
145.4391
 20
33.041
 30
0.0
 10
144.8621
 20
31.3633
 30
0.0
 10
144.8621
 20
31.3633
 30
0.0
 10
144.4937
 20
30.2947
 30
0.0
 10
144.5308
 20
29.2633
 30
0.0
 10
145.3735
 20
28.3959
 30
0.0
 10
145.3735
 20
28.3959
 30
0.0
 10
145.8935
 20
27.8639
 30
0.0
 10
146.4176
 20
27.6224
 30
0.0
 10
147.1645
 20
27.6213
 30
0.0
 10
147.1645
 20
27.6213
 30
0.0
 10
147.1645
 20
27.6213
 30
0.0
 10
147.1451
 20
25.3786
 30
0.0
 10
147.1451
 20
25.3786
 30
0.0
 10
147.1451
 20
25.3786
 30
0.0
 10
145.8935
 20
25.408
 30
0.0
 10
144.8212
 20
24.4625
 30
0.0
 10
144.5921
 20
23.255
 30
0.0
 10
144.5921
 20
23.255
 30
0.0
 10
144.469
 20
22.6166
 30
0.0
 10
144.6246
 20
22.0763
 30
0.0
 10
144.817
 20
21.4913
 30
0.0
 10
144.817
 20
21.4913
 30
0.0
 10
145.0094
 20
20.918
 30
0.0
 10
145.2305
 20
20.3657
 30
0.0
 10
145.4863
 20
19.821
 30
0.0
 10
145.4863
 20
19.821
 30
0.0
 10
146.09
 20
19.8703
 30
0.0
 10
146.6792
 20
19.9563
 30
0.0
 10
147.2687
 20
20.0789
 30
0.0
 10
147.2687
 20
20.0789
 30
0.0
 10
147.8704
 20
20.2021
 30
0.0
 10
148.4149
 20
20.341
 30
0.0
 10
148.9061
 20
20.7629
 30
0.0
 10
148.9061
 20
20.7629
 30
0.0
 10
149.8347
 20
21.5647
 30
0.0
 10
150.1173
 20
22.9562
 30
0.0
 10
149.4857
 20
24.0463
 30
0.0
 10
149.4857
 20
24.0463
 30
0.0
 10
149.4857
 20
24.0463
 30
0.0
 10
151.3814
 20
25.1612
 30
0.0
 10
151.3814
 20
25.1612
 30
0.0
 10
151.3814
 20
25.1612
 30
0.0
 10
152.1188
 20
23.9221
 30
0.0
 10
153.764
 20
23.5747
 30
0.0
 10
154.9715
 20
24.3031
 30
0.0
 10
154.9715
 20
24.3031
 30
0.0
 10
155.819
 20
24.8147
 30
0.0
 10
157.0631
 20
26.6769
 30
0.0
 10
157.517
 20
27.4625
 30
0.0
  0
SPLINE
  5
9C
330
1F
100
AcDbEntity
  8
layer 1
370
    25
100
AcDbSpline
210
0.0
220
0.0
230
1.0
 70
    11
 71
     3
 72
    72
 73
    68
 74
     0
 42
0.0000000001
 43
0.0000000001
 12
1.0
 22
0.0
 32
0.0
 13
1.0
 23
0.0
 33
0.0
 40
0.0
 40
0.0
 40
0.0
 40
0.0
 40
0.0555555555555556
 40
0.0555555555555556
 40
0.0555555555555556
 40
0.0555555555555556
 40
0.1111111111111111
 40
0.1111111111111111
 40
0.1111111111111111
 40
0.1111111111111111
 40
0.1666666666666667
 40
0.1666666666666667
 40
0.1666666666666667
 40
0.1666666666666667
 40
0.2222222222222222
 40
0.2222222222222222
 40
0.2222222222222222
 40
0.2222222222222222
 40
0.2777777777777778
 40
0.2777777777777778
 40
0.2777777777777778
 40
0.2777777777777778
 40
0.3333333333333333
 40
0.3333333333333333
 40
0.3333333333333333
 40
0.3333333333333333
 40
0.3888888888888889
 40
0.3888888888888889
 40
0.3888888888888889
 40
0.3888888888888889
 40
0.4444444444444444
 40
0.4444444444444444
 40
0.4444444444444444
 40
0.4444444444444444
 40
0.5
 40
0.5
 40
0.5
 40
0.5
 40
0.5555555555555556
 40
0.5555555555555556
 40
0.5555555555555556
 40
0.5555555555555556
 40
0.6111111111111112
 40
0.6111111111111112
 40
0.6111111111111112
 40
0.6111111111111112
 40
0.6666666666666666
 40
0.6666666666666666
 40
0.6666666666666666
 40
0.6666666666666666
 40
0.7222222222222222
 40
0.7222222222222222
 40
0.7222222222222222
 40
0.7222222222222222
 40
0.7777777777777778
 40
0.7777777777777778
 40
0.7777777777777778
 40
0.7777777777777778
 40
0.8333333333333334
 40
0.8333333333333334
 40
0.8333333333333334
 40
0.8333333333333334
 40
0.8888888888888888
 40
0.8888888888888888
 40
0.8888888888888888
 40
0.8888888888888888
 40
1.0
 40
1.0
 40
1.0
 40
1.0
 10
157.517
 20
27.4624
 30
0.0
 10
161.2828
 20
33.9864
 30
0.0
 10
168.4331
 20
37.8093
 30
0.0
 10
175.9497
 20
37.314
 30
0.0
 10
175.9497
 20
37.314
 30
0.0
 10
172.8858
 20
39.0865
 30
0.0
 10
169.7427
 20
40.2976
 30
0.0
 10
166.2801
 20
41.0346
 30
0.0
 10
166.2801
 20
41.0346
 30
0.0
 10
163.247
 20
41.6813
 30
0.0
 10
159.0847
 20
42.0822
 30
0.0
 10
155.962
 20
41.3621
 30
0.0
 10
155.962
 20
41.3621
 30
0.0
 10
152.5527
 20
40.576
 30
0.0
 10
149.5119
 20
38.6526
 30
0.0
 10
147.3426
 20
35.9062
 30
0.0
 10
147.3426
 20
35.9062
 30
0.0
 10
146.2415
 20
34.5148
 30
0.0
 10
145.4391
 20
33.0409
 30
0.0
 10
144.8621
 20
31.3634
 30
0.0
 10
144.8621
 20
31.3634
 30
0.0
 10
144.4937
 20
30.2947
 30
0.0
 10
144.5308
 20
29.2632
 30
0.0
 10
145.3735
 20
28.3958
 30
0.0
 10
145.3735
 20
28.3958
 30
0.0
 10
145.8935
 20
27.864
 30
0.0
 10
146.4176
 20
27.6223
 30
0.0
 10
147.1645
 20
27.6213
 30
0.0
 10
147.1645
 20
27.6213
 30
0.0
 10
147.1645
 20
27.6213
 30
0.0
 10
147.1451
 20
25.3786
 30
0.0
 10
147.1451
 20
25.3786
 30
0.0
 10
147.1451
 20
25.3786
 30
0.0
 10
145.8935
 20
25.408
 30
0.0
 10
144.8212
 20
24.4625
 30
0.0
 10
144.5921
 20
23.255
 30
0.0
 10
144.5921
 20
23.255
 30
0.0
 10
144.469
 20
22.6166
 30
0.0
 10
144.6246
 20
22.0763
 30
0.0
 10
144.817
 20
21.4913
 30
0.0
 10
144.817
 20
21.4913
 30
0.0
 10
145.0094
 20
20.918
 30
0.0
 10
145.2305
 20
20.3656
 30
0.0
 10
145.4863
 20
19.821
 30
0.0
 10
145.4863
 20
19.821
 30
0.0
 10
146.09
 20
19.8703
 30
0.0
 10
146.6792
 20
19.9563
 30
0.0
 10
147.2687
 20
20.0789
 30
0.0
 10
147.2687
 20
20.0789
 30
0.0
 10
147.8704
 20
20.2021
 30
0.0
 10
148.4149
 20
20.3409
 30
0.0
 10
148.9061
 20
20.7629
 30
0.0
 10
148.9061
 20
20.7629
 30
0.0
 10
149.8347
 20
21.5647
 30
0.0
 10
150.1173
 20
22.9562
 30
0.0
 10
149.4857
 20
24.0463
 30
0.0
 10
149.4857
 20
24.0463
 30
0.0
 10
149.4857
 20
24.0463
 30
0.0
 10
151.3814
 20
25.1611
 30
0.0
 10
151.3814
 20
25.1611
 30
0.0
 10
151.3814
 20
25.1611
 30
0.0
 10
152.1188
 20
23.9222
 30
0.0
 10
153.764
 20
23.5747
 30
0.0
 10
154.9715
 20
24.3031
 30
0.0
 10
154.9715
 20
24.3031
 30
0.0
 10
155.819
 20
24.8147
 30
0.0
 10
157.0631
 20
26.6768
 30
0.0
 10
157.517
 20
27.4624
 30
0.0
  0
SPLINE
  5
9D
330
1F
100
AcDbEntity
  8
layer 1
100
AcDbSpline
210
0.0
220
0.0
230
1.0
 70
    11
 71
     3
 72
    20
 73
    16
 74
     0
 42
0.0000000001
 43
0.0000000001
 12
1.0
 22
0.0
 32
0.0
 13
1.0
 23
0.0
 33
0.0
 40
0.0
 40
0.0
 40
0.0
 40
0.0
 40
0.2
 40
0.2
 40
0.2
 40
0.2
 40
0.4
 40
0.4
 40
0.4
 40
0.4
 40
0.6
 40
0.6
 40
0.6
 40
0.6
 40
1.0
 40
1.0
 40
1.0
 40
1.0
 10
118.6195
 20
-78.5109
 30
0.0
 10
118.6195
 20
-98.6692
 30
0.0
 10
102.2778
 20
-115.0109
 30
0.0
 10
82.1195
 20
-115.0109
 30
0.0
 10
82.1195
 20
-115.0109
 30
0.0
 10
61.9611
 20
-115.0109
 30
0.0
 10
45.6195
 20
-98.6692
 30
0.0
 10
45.6195
 20
-78.5109
 30
0.0
 10
45.6195
 20
-78.5109
 30
0.0
 10
45.6195
 20
-58.3525
 30
0.0
 10
61.9611
 20
-42.0108
 30
0.0
 10
82.1195
 20
-42.0108
 30
0.0
 10
82.1195
 20
-42.0108
 30
0.0
 10
102.2778
 20
-42.0108
 30
0.0
 10
118.6195
 20
-58.3525
 30
0.0
 10
118.6195
 20
-78.5109
 30
0.0
  0
SPLINE
  5
9E
330
1F
100
AcDbEntity
  8
layer 1
 62
     7
100
AcDbSpline
210
0.0
220
0.0
230
1.0
 70
    11
 71
     3
 72
    16
 73
    12
 74
     0
 42
0.0000000001
 43
0.0000000001
 12
1.0
 22
0.0
 32
0.0
 13
1.0
 23
0.0
 33
0.0
 40
0.0
 40
0.0
 40
0.0
 40
0.0
 40
0.25
 40
0.25
 40
0.25
 40
0.25
 40
0.5
 40
0.5
 40
0.5
 40
0.5
 40
1.0
 40
1.0
 40
1.0
 40
1.0
 10
97.7503
 20
-74.0761
 30
0.0
 10
93.428
 20
-71.3688
 30
0.0
 10
90.3555
 20
-68.3795
 30
0.0
 10
87.18
 20
-63.7435
 30
0.0
 10
87.18
 20
-63.7435
 30
0.0
 10
85.3834
 20
-67.9672
 30
0.0
 10
83.8447
 20
-72.6156
 30
0.0
 10
83.7687
 20
-77.2071
 30
0.0
 10
83.7687
 20
-77.2071
 30
0.0
 10
87.8839
 20
-77.8263
 30
0.0
 10
96.1886
 20
-75.1957
 30
0.0
 10
97.7503
 20
-74.0761
 30
0.0
  0
SPLINE
  5
9F
330
1F
100
AcDbEntity
  8
layer 1
 62
     7
100
AcDbSpline
210
0.0
220
0.0
230
1.0
 70
    11
 71
     3
 72
    16
 73
    12
 74
     0
 42
0.0000000001
 43
0.0000000001
 12
1.0
 22
0.0
 32
0.0
 13
1.0
 23
0.0
 33
0.0
 40
0.0
 40
0.0
 40
0.0
 40
0.0
 40
0.25
 40
0.25
 40
0.25
 40
0.25
 40
0.5
 40
0.5
 40
0.5
 40
0.5
 40
1.0
 40
1.0
 40
1.0
 40
1.0
 10
115.9244
 20
-76.6428
 30
0.0
 10
115.9122
 20
-72.6569
 30
0.0
 10
114.8879
 20
-68.3303
 30
0.0
 10
112.8553
 20
-64.1339
 30
0.0
 10
112.8553
 20
-64.1339
 30
0.0
 10
111.0843
 20
-68.0502
 30
0.0
 10
106.347
 20
-72.3625
 30
0.0
 10
103.641
 20
-74.0373
 30
0.0
 10
103.641
 20
-74.0373
 30
0.0
 10
105.9947
 20
-75.2199
 30
0.0
 10
110.3419
 20
-76.8898
 30
0.0
 10
115.9244
 20
-76.6428
 30
0.0
  0
SPLINE
  5
A0
330
1F
100
AcDbEntity
  8
layer 1
 62
     7
100
AcDbSpline
210
0.0
220
0.0
230
1.0
 70
    11
 71
     3
 72
    24
 73
    20
 74
     0
 42
0.0000000001
 43
0.0000000001
 12
1.0
 22
0.0
 32
0.0
 13
1.0
 23
0.0
 33
0.0
 40
0.0
 40
0.0
 40
0.0
 40
0.0
 40
0.1666666666666667
 40
0.1666666666666667
 40
0.1666666666666667
 40
0.1666666666666667
 40
0.3333333333333333
 40
0.3333333333333333
 40
0.3333333333333333
 40
0.3333333333333333
 40
0.5
 40
0.5
 40
0.5
 40
0.5
 40
0.6666666666666666
 40
0.6666666666666666
 40
0.6666666666666666
 40
0.6666666666666666
 40
1.0
 40
1.0
 40
1.0
 40
1.0
 10
111.2667
 20
-61.3907
 30
0.0
 10
108.8363
 20
-56.9362
 30
0.0
 10
103.4512
 20
-52.0016
 30
0.0
 10
99.9851
 20
-50.3753
 30
0.0
 10
99.9851
 20
-50.3753
 30
0.0
 10
95.3086
 20
-53.0937
 30
0.0
 10
91.699
 20
-57.0059
 30
0.0
 10
88.7152
 20
-61.1415
 30
0.0
 10
88.7152
 20
-61.1415
 30
0.0
 10
91.5996
 20
-65.1884
 30
0.0
 10
95.4952
 20
-69.4648
 30
0.0
 10
100.9278
 20
-72.455
 30
0.0
 10
100.9278
 20
-72.455
 30
0.0
 10
104.9543
 20
-69.1344
 30
0.0
 10
108.494
 20
-65.8534
 30
0.0
 10
111.2665
 20
-61.3905
 30
0.0
 10
111.2665
 20
-61.3905
 30
0.0
 10
111.2665
 20
-61.3905
 30
0.0
 10
111.2667
 20
-61.3907
 30
0.0
 10
111.2667
 20
-61.3907
 30
0.0
  0
SPLINE
  5
A1
330
1F
100
AcDbEntity
  8
layer 1
 62
     7
100
AcDbSpline
210
0.0
220
0.0
230
1.0
 70
    11
 71
     3
 72
    16
 73
    12
 74
     0
 42
0.0000000001
 43
0.0000000001
 12
1.0
 22
0.0
 32
0.0
 13
1.0
 23
0.0
 33
0.0
 40
0.0
 40
0.0
 40
0.0
 40
0.0
 40
0.25
 40
0.25
 40
0.25
 40
0.25
 40
0.5
 40
0.5
 40
0.5
 40
0.5
 40
1.0
 40
1.0
 40
1.0
 40
1.0
 10
97.3046
 20
-48.7853
 30
0.0
 10
92.8258
 20
-46.6055
 30
0.0
 10
88.6505
 20
-45.6887
 30
0.0
 10
84.0125
 20
-45.3684
 30
0.0
 10
84.0125
 20
-45.3684
 30
0.0
 10
84.1647
 20
-50.1271
 30
0.0
 10
85.5349
 20
-54.8193
 30
0.0
 10
87.2195
 20
-58.4162
 30
0.0
 10
87.2195
 20
-58.4162
 30
0.0
 10
90.7454
 20
-53.947
 30
0.0
 10
92.968
 20
-51.7566
 30
0.0
 10
97.3046
 20
-48.7853
 30
0.0
  0
SPLINE
  5
A2
330
1F
100
AcDbEntity
  8
layer 1
 62
     7
100
AcDbSpline
210
0.0
220
0.0
230
1.0
 70
    11
 71
     3
 72
    20
 73
    16
 74
     0
 42
0.0000000001
 43
0.0000000001
 12
1.0
 22
0.0
 32
0.0
 13
1.0
 23
0.0
 33
0.0
 40
0.0
 40
0.0
 40
0.0
 40
0.0
 40
0.2
 40
0.2
 40
0.2
 40
0.2
 40
0.4
 40
0.4
 40
0.4
 40
0.4
 40
0.6
 40
0.6
 40
0.6
 40
0.6
 40
1.0
 40
1.0
 40
1.0
 40
1.0
 10
101.29
 20
-75.4293
 30
0.0
 10
98.6263
 20
-76.9755
 30
0.0
 10
96.312
 20
-78.0697
 30
0.0
 10
93.0785
 20
-78.4809
 30
0.0
 10
93.0785
 20
-78.4809
 30
0.0
 10
96.312
 20
-78.8921
 30
0.0
 10
98.6263
 20
-79.9865
 30
0.0
 10
101.29
 20
-81.5325
 30
0.0
 10
101.29
 20
-81.5325
 30
0.0
 10
103.4097
 20
-79.9296
 30
0.0
 10
106.08
 20
-79.4619
 30
0.0
 10
109.3147
 20
-78.4809
 30
0.0
 10
109.3147
 20
-78.4809
 30
0.0
 10
106.08
 20
-77.4997
 30
0.0
 10
103.4097
 20
-77.0322
 30
0.0
 10
101.29
 20
-75.4293
 30
0.0
  0
SPLINE
  5
A3
330
1F
100
AcDbEntity
  8
layer 1
 62
     7
100
AcDbSpline
210
0.0
220
0.0
230
1.0
 70
    11
 71
     3
 72
    16
 73
    12
 74
     0
 42
0.0000000001
 43
0.0000000001
 12
1.0
 22
0.0
 32
0.0
 13
1.0
 23
0.0
 33
0.0
 40
0.0
 40
0.0
 40
0.0
 40
0.0
 40
0.25
 40
0.25
 40
0.25
 40
0.25
 40
0.5
 40
0.5
 40
0.5
 40
0.5
 40
1.0
 40
1.0
 40
1.0
 40
1.0
 10
66.4889
 20
-74.0761
 30
0.0
 10
70.8112
 20
-71.3688
 30
0.0
 10
73.8837
 20
-68.3795
 30
0.0
 10
77.0591
 20
-63.7435
 30
0.0
 10
77.0591
 20
-63.7435
 30
0.0
 10
78.8558
 20
-67.9672
 30
0.0
 10
80.3945
 20
-72.6156
 30
0.0
 10
80.4705
 20
-77.2071
 30
0.0
 10
80.4705
 20
-77.2071
 30
0.0
 10
76.3553
 20
-77.8263
 30
0.0
 10
68.0505
 20
-75.1957
 30
0.0
 10
66.4889
 20
-74.0761
 30
0.0
  0
SPLINE
  5
A4
330
1F
100
AcDbEntity
  8
layer 1
 62
     7
100
AcDbSpline
210
0.0
220
0.0
230
1.0
 70
    11
 71
     3
 72
    16
 73
    12
 74
     0
 42
0.0000000001
 43
0.0000000001
 12
1.0
 22
0.0
 32
0.0
 13
1.0
 23
0.0
 33
0.0
 40
0.0
 40
0.0
 40
0.0
 40
0.0
 40
0.25
 40
0.25
 40
0.25
 40
0.25
 40
0.5
 40
0.5
 40
0.5
 40
0.5
 40
1.0
 40
1.0
 40
1.0
 40
1.0
 10
48.3148
 20
-76.6428
 30
0.0
 10
48.327
 20
-72.6569
 30
0.0
 10
49.3513
 20
-68.3303
 30
0.0
 10
51.3839
 20
-64.1339
 30
0.0
 10
51.3839
 20
-64.1339
 30
0.0
 10
53.1549
 20
-68.0502
 30
0.0
 10
57.8922
 20
-72.3625
 30
0.0
 10
60.5982
 20
-74.0373
 30
0.0
 10
60.5982
 20
-74.0373
 30
0.0
 10
58.2445
 20
-75.2199
 30
0.0
 10
53.8972
 20
-76.8898
 30
0.0
 10
48.3148
 20
-76.6428
 30
0.0
  0
SPLINE
  5
A5
330
1F
100
AcDbEntity
  8
layer 1
 62
     7
100
AcDbSpline
210
0.0
220
0.0
230
1.0
 70
    11
 71
     3
 72
    20
 73
    16
 74
     0
 42
0.0000000001
 43
0.0000000001
 12
1.0
 22
0.0
 32
0.0
 13
1.0
 23
0.0
 33
0.0
 40
0.0
 40
0.0
 40
0.0
 40
0.0
 40
0.2
 40
0.2
 40
0.2
 40
0.2
 40
0.4
 40
0.4
 40
0.4
 40
0.4
 40
0.6
 40
0.6
 40
0.6
 40
0.6
 40
1.0
 40
1.0
 40
1.0
 40
1.0
 10
52.9725
 20
-61.3907
 30
0.0
 10
55.4029
 20
-56.9362
 30
0.0
 10
60.7878
 20
-52.0016
 30
0.0
 10
64.254
 20
-50.3753
 30
0.0
 10
64.254
 20
-50.3753
 30
0.0
 10
68.9306
 20
-53.0937
 30
0.0
 10
72.54
 20
-57.0059
 30
0.0
 10
75.5238
 20
-61.1417
 30
0.0
 10
75.5238
 20
-61.1417
 30
0.0
 10
72.6393
 20
-65.1886
 30
0.0
 10
68.7437
 20
-69.4651
 30
0.0
 10
63.3112
 20
-72.4552
 30
0.0
 10
63.3112
 20
-72.4552
 30
0.0
 10
59.2844
 20
-69.1346
 30
0.0
 10
55.7449
 20
-65.8536
 30
0.0
 10
52.9725
 20
-61.3907
 30
0.0
  0
SPLINE
  5
A6
330
1F
100
AcDbEntity
  8
layer 1
 62
     7
100
AcDbSpline
210
0.0
220
0.0
230
1.0
 70
    11
 71
     3
 72
    20
 73
    16
 74
     0
 42
0.0000000001
 43
0.0000000001
 12
1.0
 22
0.0
 32
0.0
 13
1.0
 23
0.0
 33
0.0
 40
0.0
 40
0.0
 40
0.0
 40
0.0
 40
0.2
 40
0.2
 40
0.2
 40
0.2
 40
0.4
 40
0.4
 40
0.4
 40
0.4
 40
0.6
 40
0.6
 40
0.6
 40
0.6
 40
1.0
 40
1.0
 40
1.0
 40
1.0
 10
78.7625
 20
-61.146
 30
0.0
 10
80.1795
 20
-58.2659
 30
0.0
 10
81.5225
 20
-55.442
 30
0.0
 10
82.1197
 20
-52.7326
 30
0.0
 10
82.1197
 20
-52.7326
 30
0.0
 10
82.7167
 20
-55.4417
 30
0.0
 10
84.037
 20
-58.286
 30
0.0
 10
85.5227
 20
-61.1435
 30
0.0
 10
85.5227
 20
-61.1435
 30
0.0
 10
84.0803
 20
-63.8601
 30
0.0
 10
83.1368
 20
-65.7341
 30
0.0
 10
82.1197
 20
-68.9688
 30
0.0
 10
82.1197
 20
-68.9688
 30
0.0
 10
81.1026
 20
-65.7341
 30
0.0
 10
80.2507
 20
-63.8855
 30
0.0
 10
78.7625
 20
-61.146
 30
0.0
  0
SPLINE
  5
A7
330
1F
100
AcDbEntity
  8
layer 1
 62
     7
100
AcDbSpline
210
0.0
220
0.0
230
1.0
 70
    11
 71
     3
 72
    16
 73
    12
 74
     0
 42
0.0000000001
 43
0.0000000001
 12
1.0
 22
0.0
 32
0.0
 13
1.0
 23
0.0
 33
0.0
 40
0.0
 40
0.0
 40
0.0
 40
0.0
 40
0.25
 40
0.25
 40
0.25
 40
0.25
 40
0.5
 40
0.5
 40
0.5
 40
0.5
 40
1.0
 40
1.0
 40
1.0
 40
1.0
 10
66.9346
 20
-48.7853
 30
0.0
 10
71.4134
 20
-46.6055
 30
0.0
 10
75.5887
 20
-45.6887
 30
0.0
 10
80.2267
 20
-45.3684
 30
0.0
 10
80.2267
 20
-45.3684
 30
0.0
 10
80.0745
 20
-50.1271
 30
0.0
 10
78.7043
 20
-54.8193
 30
0.0
 10
77.0197
 20
-58.4162
 30
0.0
 10
77.0197
 20
-58.4162
 30
0.0
 10
73.4938
 20
-53.947
 30
0.0
 10
71.2712
 20
-51.7566
 30
0.0
 10
66.9346
 20
-48.7853
 30
0.0
  0
SPLINE
  5
A8
330
1F
100
AcDbEntity
  8
layer 1
 62
     7
100
AcDbSpline
210
0.0
220
0.0
230
1.0
 70
    11
 71
     3
 72
    16
 73
    12
 74
     0
 42
0.0000000001
 43
0.0000000001
 12
1.0
 22
0.0
 32
0.0
 13
1.0
 23
0.0
 33
0.0
 40
0.0
 40
0.0
 40
0.0
 40
0.0
 40
0.25
 40
0.25
 40
0.25
 40
0.25
 40
0.5
 40
0.5
 40
0.5
 40
0.5
 40
1.0
 40
1.0
 40
1.0
 40
1.0
 10
97.7503
 20
-82.886
 30
0.0
 10
93.428
 20
-85.5933
 30
0.0
 10
90.3555
 20
-88.5825
 30
0.0
 10
87.18
 20
-93.2185
 30
0.0
 10
87.18
 20
-93.2185
 30
0.0
 10
85.3834
 20
-88.9949
 30
0.0
 10
83.8447
 20
-84.3465
 30
0.0
 10
83.7687
 20
-79.755
 30
0.0
 10
83.7687
 20
-79.755
 30
0.0
 10
87.8839
 20
-79.1357
 30
0.0
 10
96.1886
 20
-81.7664
 30
0.0
 10
97.7503
 20
-82.886
 30
0.0
  0
SPLINE
  5
A9
330
1F
100
AcDbEntity
  8
layer 1
 62
     7
100
AcDbSpline
210
0.0
220
0.0
230
1.0
 70
    11
 71
     3
 72
    16
 73
    12
 74
     0
 42
0.0000000001
 43
0.0000000001
 12
1.0
 22
0.0
 32
0.0
 13
1.0
 23
0.0
 33
0.0
 40
0.0
 40
0.0
 40
0.0
 40
0.0
 40
0.25
 40
0.25
 40
0.25
 40
0.25
 40
0.5
 40
0.5
 40
0.5
 40
0.5
 40
1.0
 40
1.0
 40
1.0
 40
1.0
 10
115.9244
 20
-80.3193
 30
0.0
 10
115.9122
 20
-84.3052
 30
0.0
 10
114.8879
 20
-88.6318
 30
0.0
 10
112.8553
 20
-92.8282
 30
0.0
 10
112.8553
 20
-92.8282
 30
0.0
 10
111.0843
 20
-88.9119
 30
0.0
 10
106.347
 20
-84.5996
 30
0.0
 10
103.641
 20
-82.9248
 30
0.0
 10
103.641
 20
-82.9248
 30
0.0
 10
105.9947
 20
-81.7421
 30
0.0
 10
110.3419
 20
-80.0723
 30
0.0
 10
115.9244
 20
-80.3193
 30
0.0
  0
SPLINE
  5
AA
330
1F
100
AcDbEntity
  8
layer 1
 62
     7
100
AcDbSpline
210
0.0
220
0.0
230
1.0
 70
    11
 71
     3
 72
    20
 73
    16
 74
     0
 42
0.0000000001
 43
0.0000000001
 12
1.0
 22
0.0
 32
0.0
 13
1.0
 23
0.0
 33
0.0
 40
0.0
 40
0.0
 40
0.0
 40
0.0
 40
0.2
 40
0.2
 40
0.2
 40
0.2
 40
0.4
 40
0.4
 40
0.4
 40
0.4
 40
0.6
 40
0.6
 40
0.6
 40
0.6
 40
1.0
 40
1.0
 40
1.0
 40
1.0
 10
111.2667
 20
-95.5713
 30
0.0
 10
108.8363
 20
-100.0258
 30
0.0
 10
103.4514
 20
-104.9605
 30
0.0
 10
99.9851
 20
-106.5868
 30
0.0
 10
99.9851
 20
-106.5868
 30
0.0
 10
95.3086
 20
-103.8684
 30
0.0
 10
91.6992
 20
-99.9562
 30
0.0
 10
88.7154
 20
-95.8204
 30
0.0
 10
88.7154
 20
-95.8204
 30
0.0
 10
91.5998
 20
-91.7734
 30
0.0
 10
95.4955
 20
-87.497
 30
0.0
 10
100.928
 20
-84.5068
 30
0.0
 10
100.928
 20
-84.5068
 30
0.0
 10
104.9545
 20
-87.8275
 30
0.0
 10
108.4943
 20
-91.1084
 30
0.0
 10
111.2667
 20
-95.5713
 30
0.0
  0
SPLINE
  5
AB
330
1F
100
AcDbEntity
  8
layer 1
 62
     7
100
AcDbSpline
210
0.0
220
0.0
230
1.0
 70
    11
 71
     3
 72
    16
 73
    12
 74
     0
 42
0.0000000001
 43
0.0000000001
 12
1.0
 22
0.0
 32
0.0
 13
1.0
 23
0.0
 33
0.0
 40
0.0
 40
0.0
 40
0.0
 40
0.0
 40
0.25
 40
0.25
 40
0.25
 40
0.25
 40
0.5
 40
0.5
 40
0.5
 40
0.5
 40
1.0
 40
1.0
 40
1.0
 40
1.0
 10
97.3046
 20
-108.1768
 30
0.0
 10
92.8258
 20
-110.3565
 30
0.0
 10
88.6505
 20
-111.2733
 30
0.0
 10
84.0125
 20
-111.5936
 30
0.0
 10
84.0125
 20
-111.5936
 30
0.0
 10
84.1647
 20
-106.8349
 30
0.0
 10
85.5349
 20
-102.1427
 30
0.0
 10
87.2195
 20
-98.5458
 30
0.0
 10
87.2195
 20
-98.5458
 30
0.0
 10
90.7454
 20
-103.0151
 30
0.0
 10
92.968
 20
-105.2055
 30
0.0
 10
97.3046
 20
-108.1768
 30
0.0
  0
SPLINE
  5
AC
330
1F
100
AcDbEntity
  8
layer 1
 62
     7
100
AcDbSpline
210
0.0
220
0.0
230
1.0
 70
    11
 71
     3
 72
    16
 73
    12
 74
     0
 42
0.0000000001
 43
0.0000000001
 12
1.0
 22
0.0
 32
0.0
 13
1.0
 23
0.0
 33
0.0
 40
0.0
 40
0.0
 40
0.0
 40
0.0
 40
0.25
 40
0.25
 40
0.25
 40
0.25
 40
0.5
 40
0.5
 40
0.5
 40
0.5
 40
1.0
 40
1.0
 40
1.0
 40
1.0
 10
66.4889
 20
-82.886
 30
0.0
 10
70.8112
 20
-85.5933
 30
0.0
 10
73.8837
 20
-88.5825
 30
0.0
 10
77.0591
 20
-93.2185
 30
0.0
 10
77.0591
 20
-93.2185
 30
0.0
 10
78.8558
 20
-88.9949
 30
0.0
 10
80.3945
 20
-84.3465
 30
0.0
 10
80.4705
 20
-79.755
 30
0.0
 10
80.4705
 20
-79.755
 30
0.0
 10
76.3553
 20
-79.1357
 30
0.0
 10
68.0505
 20
-81.7664
 30
0.0
 10
66.4889
 20
-82.886
 30
0.0
  0
SPLINE
  5
AD
330
1F
100
AcDbEntity
  8
layer 1
 62
     7
100
AcDbSpline
210
0.0
220
0.0
230
1.0
 70
    11
 71
     3
 72
    16
 73
    12
 74
     0
 42
0.0000000001
 43
0.0000000001
 12
1.0
 22
0.0
 32
0.0
 13
1.0
 23
0.0
 33
0.0
 40
0.0
 40
0.0
 40
0.0
 40
0.0
 40
0.25
 40
0.25
 40
0.25
 40
0.25
 40
0.5
 40
0.5
 40
0.5
 40
0.5
 40
1.0
 40
1.0
 40
1.0
 40
1.0
 10
48.3148
 20
-80.3193
 30
0.0
 10
48.327
 20
-84.3052
 30
0.0
 10
49.3513
 20
-88.6318
 30
0.0
 10
51.3839
 20
-92.8282
 30
0.0
 10
51.3839
 20
-92.8282
 30
0.0
 10
53.1549
 20
-88.9119
 30
0.0
 10
57.8922
 20
-84.5996
 30
0.0
 10
60.5982
 20
-82.9248
 30
0.0
 10
60.5982
 20
-82.9248
 30
0.0
 10
58.2445
 20
-81.7421
 30
0.0
 10
53.8972
 20
-80.0723
 30
0.0
 10
48.3148
 20
-80.3193
 30
0.0
  0
SPLINE
  5
AE
330
1F
100
AcDbEntity
  8
layer 1
 62
     7
100
AcDbSpline
210
0.0
220
0.0
230
1.0
 70
    11
 71
     3
 72
    20
 73
    16
 74
     0
 42
0.0000000001
 43
0.0000000001
 12
1.0
 22
0.0
 32
0.0
 13
1.0
 23
0.0
 33
0.0
 40
0.0
 40
0.0
 40
0.0
 40
0.0
 40
0.2
 40
0.2
 40
0.2
 40
0.2
 40
0.4
 40
0.4
 40
0.4
 40
0.4
 40
0.6
 40
0.6
 40
0.6
 40
0.6
 40
1.0
 40
1.0
 40
1.0
 40
1.0
 10
52.9725
 20
-95.5713
 30
0.0
 10
55.4029
 20
-100.0258
 30
0.0
 10
60.7878
 20
-104.9605
 30
0.0
 10
64.254
 20
-106.5868
 30
0.0
 10
64.254
 20
-106.5868
 30
0.0
 10
68.9306
 20
-103.8684
 30
0.0
 10
72.54
 20
-99.9562
 30
0.0
 10
75.5238
 20
-95.8204
 30
0.0
 10
75.5238
 20
-95.8204
 30
0.0
 10
72.6393
 20
-91.7734
 30
0.0
 10
68.7437
 20
-87.497
 30
0.0
 10
63.3112
 20
-84.5068
 30
0.0
 10
63.3112
 20
-84.5068
 30
0.0
 10
59.2844
 20
-87.8275
 30
0.0
 10
55.7449
 20
-91.1084
 30
0.0
 10
52.9725
 20
-95.5713
 30
0.0
  0
SPLINE
  5
AF
330
1F
100
AcDbEntity
  8
layer 1
 62
     7
100
AcDbSpline
210
0.0
220
0.0
230
1.0
 70
    11
 71
     3
 72
    16
 73
    12
 74
     0
 42
0.0000000001
 43
0.0000000001
 12
1.0
 22
0.0
 32
0.0
 13
1.0
 23
0.0
 33
0.0
 40
0.0
 40
0.0
 40
0.0
 40
0.0
 40
0.25
 40
0.25
 40
0.25
 40
0.25
 40
0.5
 40
0.5
 40
0.5
 40
0.5
 40
1.0
 40
1.0
 40
1.0
 40
1.0
 10
66.9346
 20
-108.1768
 30
0.0
 10
71.4134
 20
-110.3565
 30
0.0
 10
75.5887
 20
-111.2733
 30
0.0
 10
80.2267
 20
-111.5936
 30
0.0
 10
80.2267
 20
-111.5936
 30
0.0
 10
80.0745
 20
-106.8349
 30
0.0
 10
78.7043
 20
-102.1427
 30
0.0
 10
77.0197
 20
-98.5458
 30
0.0
 10
77.0197
 20
-98.5458
 30
0.0
 10
73.4938
 20
-103.0151
 30
0.0
 10
71.2712
 20
-105.2055
 30
0.0
 10
66.9346
 20
-108.1768
 30
0.0
  0
SPLINE
  5
B0
330
1F
100
AcDbEntity
  8
layer 1
 62
     7
100
AcDbSpline
210
0.0
220
0.0
230
1.0
 70
    11
 71
     3
 72
    20
 73
    16
 74
     0
 42
0.0000000001
 43
0.0000000001
 12
1.0
 22
0.0
 32
0.0
 13
1.0
 23
0.0
 33
0.0
 40
0.0
 40
0.0
 40
0.0
 40
0.0
 40
0.2
 40
0.2
 40
0.2
 40
0.2
 40
0.4
 40
0.4
 40
0.4
 40
0.4
 40
0.6
 40
0.6
 40
0.6
 40
0.6
 40
1.0
 40
1.0
 40
1.0
 40
1.0
 10
62.9491
 20
-81.5328
 30
0.0
 10
60.8295
 20
-79.9298
 30
0.0
 10
58.1592
 20
-79.4621
 30
0.0
 10
54.9245
 20
-78.4811
 30
0.0
 10
54.9245
 20
-78.4811
 30
0.0
 10
58.1592
 20
-77.4999
 30
0.0
 10
60.8295
 20
-77.0324
 30
0.0
 10
62.9491
 20
-75.4295
 30
0.0
 10
62.9491
 20
-75.4295
 30
0.0
 10
65.6129
 20
-76.9757
 30
0.0
 10
67.9272
 20
-78.0699
 30
0.0
 10
71.1607
 20
-78.4811
 30
0.0
 10
71.1607
 20
-78.4811
 30
0.0
 10
67.9272
 20
-78.8924
 30
0.0
 10
65.6129
 20
-79.9868
 30
0.0
 10
62.9491
 20
-81.5328
 30
0.0
  0
SPLINE
  5
B1
330
1F
100
AcDbEntity
  8
layer 1
 62
     7
100
AcDbSpline
210
0.0
220
0.0
230
1.0
 70
    11
 71
     3
 72
    20
 73
    16
 74
     0
 42
0.0000000001
 43
0.0000000001
 12
1.0
 22
0.0
 32
0.0
 13
1.0
 23
0.0
 33
0.0
 40
0.0
 40
0.0
 40
0.0
 40
0.0
 40
0.2
 40
0.2
 40
0.2
 40
0.2
 40
0.4
 40
0.4
 40
0.4
 40
0.4
 40
0.6
 40
0.6
 40
0.6
 40
0.6
 40
1.0
 40
1.0
 40
1.0
 40
1.0
 10
78.7957
 20
-96.4065
 30
0.0
 10
80.2126
 20
-93.5263
 30
0.0
 10
81.5556
 20
-90.7024
 30
0.0
 10
82.1528
 20
-87.993
 30
0.0
 10
82.1528
 20
-87.993
 30
0.0
 10
82.7498
 20
-90.7022
 30
0.0
 10
84.0701
 20
-93.5465
 30
0.0
 10
85.5558
 20
-96.404
 30
0.0
 10
85.5558
 20
-96.404
 30
0.0
 10
84.1134
 20
-99.1206
 30
0.0
 10
83.1699
 20
-100.9946
 30
0.0
 10
82.1528
 20
-104.2292
 30
0.0
 10
82.1528
 20
-104.2292
 30
0.0
 10
81.1358
 20
-100.9946
 30
0.0
 10
80.2838
 20
-99.146
 30
0.0
 10
78.7957
 20
-96.4065
 30
0.0
  0
SPLINE
  5
B2
330
1F
100
AcDbEntity
  8
layer 1
 62
   250
370
    20
100
AcDbSpline
210
0.0
220
0.0
230
1.0
 70
    11
 71
     3
 72
    20
 73
    16
 74
     0
 42
0.0000000001
 43
0.0000000001
 12
1.0
 22
0.0
 32
0.0
 13
1.0
 23
0.0
 33
0.0
 40
0.0
 40
0.0
 40
0.0
 40
0.0
 40
0.2
 40
0.2
 40
0.2
 40
0.2
 40
0.4
 40
0.4
 40
0.4
 40
0.4
 40
0.6
 40
0.6
 40
0.6
 40
0.6
 40
1.0
 40
1.0
 40
1.0
 40
1.0
 10
159.7092
 20
-42.0518
 30
0.0
 10
179.8676
 20
-42.0518
 30
0.0
 10
196.2092
 20
-58.3933
 30
0.0
 10
196.2092
 20
-78.5518
 30
0.0
 10
196.2092
 20
-78.5518
 30
0.0
 10
196.2092
 20
-98.7102
 30
0.0
 10
179.8676
 20
-115.0518
 30
0.0
 10
159.7092
 20
-115.0518
 30
0.0
 10
159.7092
 20
-115.0518
 30
0.0
 10
139.5508
 20
-115.0518
 30
0.0
 10
123.2092
 20
-98.7102
 30
0.0
 10
123.2092
 20
-78.5518
 30
0.0
 10
123.2092
 20
-78.5518
 30
0.0
 10
123.2092
 20
-58.3933
 30
0.0
 10
139.5508
 20
-42.0518
 30
0.0
 10
159.7092
 20
-42.0518
 30
0.0
  0
SPLINE
  5
B3
330
1F
100
AcDbEntity
  8
layer 1
 62
     7
370
     9
100
AcDbSpline
210
0.0
220
0.0
230
1.0
 70
    11
 71
     3
 72
    36
 73
    32
 74
     0
 42
0.0000000001
 43
0.0000000001
 12
1.0
 22
0.0
 32
0.0
 13
1.0
 23
0.0
 33
0.0
 40
0.0
 40
0.0
 40
0.0
 40
0.0
 40
0.1111111111111111
 40
0.1111111111111111
 40
0.1111111111111111
 40
0.1111111111111111
 40
0.2222222222222222
 40
0.2222222222222222
 40
0.2222222222222222
 40
0.2222222222222222
 40
0.3333333333333333
 40
0.3333333333333333
 40
0.3333333333333333
 40
0.3333333333333333
 40
0.4444444444444444
 40
0.4444444444444444
 40
0.4444444444444444
 40
0.4444444444444444
 40
0.5555555555555556
 40
0.5555555555555556
 40
0.5555555555555556
 40
0.5555555555555556
 40
0.6666666666666666
 40
0.6666666666666666
 40
0.6666666666666666
 40
0.6666666666666666
 40
0.7777777777777778
 40
0.7777777777777778
 40
0.7777777777777778
 40
0.7777777777777778
 40
1.0
 40
1.0
 40
1.0
 40
1.0
 10
153.6113
 20
-49.4542
 30
0.0
 10
152.3333
 20
-49.6312
 30
0.0
 10
148.817
 20
-51.7103
 30
0.0
 10
151.7291
 20
-55.61
 30
0.0
 10
151.7291
 20
-55.61
 30
0.0
 10
152.5011
 20
-56.6437
 30
0.0
 10
154.8556
 20
-59.1662
 30
0.0
 10
156.5234
 20
-60.5934
 30
0.0
 10
156.5234
 20
-60.5934
 30
0.0
 10
157.7757
 20
-58.7402
 30
0.0
 10
158.3677
 20
-57.8078
 30
0.0
 10
159.7612
 20
-55.6478
 30
0.0
 10
159.7612
 20
-55.6478
 30
0.0
 10
161.1547
 20
-57.8078
 30
0.0
 10
161.7467
 20
-58.7401
 30
0.0
 10
162.999
 20
-60.5934
 30
0.0
 10
162.999
 20
-60.5934
 30
0.0
 10
164.6669
 20
-59.1662
 30
0.0
 10
167.0213
 20
-56.6437
 30
0.0
 10
167.7933
 20
-55.61
 30
0.0
 10
167.7933
 20
-55.61
 30
0.0
 10
170.7054
 20
-51.7103
 30
0.0
 10
167.189
 20
-49.6312
 30
0.0
 10
165.9111
 20
-49.4542
 30
0.0
 10
165.9111
 20
-49.4542
 30
0.0
 10
162.087
 20
-48.9247
 30
0.0
 10
160.4361
 20
-51.37
 30
0.0
 10
159.7612
 20
-53.114
 30
0.0
 10
159.7612
 20
-53.114
 30
0.0
 10
159.0863
 20
-51.37
 30
0.0
 10
157.4354
 20
-48.9248
 30
0.0
 10
153.6113
 20
-49.4542
 30
0.0
  0
SPLINE
  5
B4
330
1F
100
AcDbEntity
  8
layer 1
 62
     7
370
     9
100
AcDbSpline
210
0.0
220
0.0
230
1.0
 70
    11
 71
     3
 72
    28
 73
    24
 74
     0
 42
0.0000000001
 43
0.0000000001
 12
1.0
 22
0.0
 32
0.0
 13
1.0
 23
0.0
 33
0.0
 40
0.0
 40
0.0
 40
0.0
 40
0.0
 40
0.1428571428571428
 40
0.1428571428571428
 40
0.1428571428571428
 40
0.1428571428571428
 40
0.2857142857142857
 40
0.2857142857142857
 40
0.2857142857142857
 40
0.2857142857142857
 40
0.4285714285714285
 40
0.4285714285714285
 40
0.4285714285714285
 40
0.4285714285714285
 40
0.5714285714285714
 40
0.5714285714285714
 40
0.5714285714285714
 40
0.5714285714285714
 40
0.7142857142857143
 40
0.7142857142857143
 40
0.7142857142857143
 40
0.7142857142857143
 40
1.0
 40
1.0
 40
1.0
 40
1.0
 10
151.7958
 20
-45.2562
 30
0.0
 10
151.7958
 20
-45.2562
 30
0.0
 10
152.6368
 20
-47.7813
 30
0.0
 10
152.6368
 20
-47.7813
 30
0.0
 10
152.6368
 20
-47.7813
 30
0.0
 10
156.1246
 20
-46.6356
 30
0.0
 10
158.9389
 20
-48.1335
 30
0.0
 10
159.7991
 20
-49.8614
 30
0.0
 10
159.7991
 20
-49.8614
 30
0.0
 10
160.9821
 20
-48.0824
 30
0.0
 10
163.9962
 20
-46.8274
 30
0.0
 10
167.1125
 20
-47.7056
 30
0.0
 10
167.1125
 20
-47.7056
 30
0.0
 10
167.1125
 20
-47.7056
 30
0.0
 10
168.0291
 20
-45.3697
 30
0.0
 10
168.0291
 20
-45.3697
 30
0.0
 10
168.0291
 20
-45.3697
 30
0.0
 10
162.2191
 20
-44.0564
 30
0.0
 10
158.1703
 20
-44.0128
 30
0.0
 10
151.796
 20
-45.2562
 30
0.0
 10
151.796
 20
-45.2562
 30
0.0
 10
151.796
 20
-45.2562
 30
0.0
 10
151.7958
 20
-45.2562
 30
0.0
 10
151.7958
 20
-45.2562
 30
0.0
  0
SPLINE
  5
B5
330
1F
100
AcDbEntity
  8
layer 1
 62
     7
370
     9
100
AcDbSpline
210
0.0
220
0.0
230
1.0
 70
    11
 71
     3
 72
    28
 73
    24
 74
     0
 42
0.0000000001
 43
0.0000000001
 12
1.0
 22
0.0
 32
0.0
 13
1.0
 23
0.0
 33
0.0
 40
0.0
 40
0.0
 40
0.0
 40
0.0
 40
0.1428571428571428
 40
0.1428571428571428
 40
0.1428571428571428
 40
0.1428571428571428
 40
0.2857142857142857
 40
0.2857142857142857
 40
0.2857142857142857
 40
0.2857142857142857
 40
0.4285714285714285
 40
0.4285714285714285
 40
0.4285714285714285
 40
0.4285714285714285
 40
0.5714285714285714
 40
0.5714285714285714
 40
0.5714285714285714
 40
0.5714285714285714
 40
0.7142857142857143
 40
0.7142857142857143
 40
0.7142857142857143
 40
0.7142857142857143
 40
1.0
 40
1.0
 40
1.0
 40
1.0
 10
155.1329
 20
-66.1241
 30
0.0
 10
155.1329
 20
-66.1241
 30
0.0
 10
156.6746
 20
-63.3721
 30
0.0
 10
156.6746
 20
-63.3721
 30
0.0
 10
156.6746
 20
-63.3721
 30
0.0
 10
157.8968
 20
-64.3754
 30
0.0
 10
158.377
 20
-64.8316
 30
0.0
 10
159.7921
 20
-65.6846
 30
0.0
 10
159.7921
 20
-65.6846
 30
0.0
 10
161.2071
 20
-64.8316
 30
0.0
 10
161.6873
 20
-64.3754
 30
0.0
 10
162.9096
 20
-63.3721
 30
0.0
 10
162.9096
 20
-63.3721
 30
0.0
 10
162.9096
 20
-63.3721
 30
0.0
 10
164.4513
 20
-66.1241
 30
0.0
 10
164.4513
 20
-66.1241
 30
0.0
 10
164.4513
 20
-66.1241
 30
0.0
 10
162.363
 20
-66.6425
 30
0.0
 10
160.5577
 20
-67.8378
 30
0.0
 10
159.7921
 20
-69.4523
 30
0.0
 10
159.7921
 20
-69.4523
 30
0.0
 10
159.0265
 20
-67.8378
 30
0.0
 10
157.2212
 20
-66.6425
 30
0.0
 10
155.1329
 20
-66.1241
 30
0.0
  0
SPLINE
  5
B6
330
1F
100
AcDbEntity
  8
layer 1
 62
     7
370
     9
100
AcDbSpline
210
0.0
220
0.0
230
1.0
 70
    11
 71
     3
 72
    20
 73
    16
 74
     0
 42
0.0000000001
 43
0.0000000001
 12
1.0
 22
0.0
 32
0.0
 13
1.0
 23
0.0
 33
0.0
 40
0.0
 40
0.0
 40
0.0
 40
0.0
 40
0.2
 40
0.2
 40
0.2
 40
0.2
 40
0.4
 40
0.4
 40
0.4
 40
0.4
 40
0.6
 40
0.6
 40
0.6
 40
0.6
 40
1.0
 40
1.0
 40
1.0
 40
1.0
 10
157.9194
 20
-61.6614
 30
0.0
 10
158.7048
 20
-60.6537
 30
0.0
 10
159.0359
 20
-60.242
 30
0.0
 10
159.7361
 20
-59.104
 30
0.0
 10
159.7361
 20
-59.104
 30
0.0
 10
160.4364
 20
-60.2421
 30
0.0
 10
160.7675
 20
-60.6537
 30
0.0
 10
161.5528
 20
-61.6614
 30
0.0
 10
161.5528
 20
-61.6614
 30
0.0
 10
161.1217
 20
-62.4472
 30
0.0
 10
160.5659
 20
-62.8703
 30
0.0
 10
159.7361
 20
-63.3633
 30
0.0
 10
159.7361
 20
-63.3633
 30
0.0
 10
158.9063
 20
-62.8703
 30
0.0
 10
158.3506
 20
-62.4473
 30
0.0
 10
157.9194
 20
-61.6614
 30
0.0
  0
SPLINE
  5
B7
330
1F
100
AcDbEntity
  8
layer 1
 62
     7
370
     9
100
AcDbSpline
210
0.0
220
0.0
230
1.0
 70
    11
 71
     3
 72
    12
 73
     8
 74
     0
 42
0.0000000001
 43
0.0000000001
 12
1.0
 22
0.0
 32
0.0
 13
1.0
 23
0.0
 33
0.0
 40
0.0
 40
0.0
 40
0.0
 40
0.0
 40
0.3333333333333333
 40
0.3333333333333333
 40
0.3333333333333333
 40
0.3333333333333333
 40
1.0
 40
1.0
 40
1.0
 40
1.0
 10
164.2282
 20
-68.3032
 30
0.0
 10
166.2182
 20
-71.3818
 30
0.0
 10
163.8748
 20
-74.154
 30
0.0
 10
160.9925
 20
-74.9028
 30
0.0
 10
160.9925
 20
-74.9028
 30
0.0
 10
159.8277
 20
-72.1486
 30
0.0
 10
160.5841
 20
-68.5984
 30
0.0
 10
164.2282
 20
-68.3032
 30
0.0
  0
SPLINE
  5
B8
330
1F
100
AcDbEntity
  8
layer 1
 62
     7
370
     9
100
AcDbSpline
210
0.0
220
0.0
230
1.0
 70
    11
 71
     3
 72
    20
 73
    16
 74
     0
 42
0.0000000001
 43
0.0000000001
 12
1.0
 22
0.0
 32
0.0
 13
1.0
 23
0.0
 33
0.0
 40
0.0
 40
0.0
 40
0.0
 40
0.0
 40
0.2
 40
0.2
 40
0.2
 40
0.2
 40
0.4
 40
0.4
 40
0.4
 40
0.4
 40
0.6
 40
0.6
 40
0.6
 40
0.6
 40
1.0
 40
1.0
 40
1.0
 40
1.0
 10
151.6433
 20
-63.8695
 30
0.0
 10
151.7247
 20
-62.5946
 30
0.0
 10
151.7416
 20
-60.7188
 30
0.0
 10
151.6792
 20
-59.3839
 30
0.0
 10
151.6792
 20
-59.3839
 30
0.0
 10
152.6462
 20
-60.3675
 30
0.0
 10
153.7017
 20
-61.2602
 30
0.0
 10
155.0207
 20
-62.0043
 30
0.0
 10
155.0207
 20
-62.0043
 30
0.0
 10
154.7025
 20
-62.8317
 30
0.0
 10
154.4298
 20
-63.5182
 30
0.0
 10
153.9404
 20
-64.323
 30
0.0
 10
153.9404
 20
-64.323
 30
0.0
 10
152.9132
 20
-64.2926
 30
0.0
 10
152.4266
 20
-64.068
 30
0.0
 10
151.6433
 20
-63.8695
 30
0.0
  0
SPLINE
  5
B9
330
1F
100
AcDbEntity
  8
layer 1
 62
     7
370
     9
100
AcDbSpline
210
0.0
220
0.0
230
1.0
 70
    11
 71
     3
 72
    20
 73
    16
 74
     0
 42
0.0000000001
 43
0.0000000001
 12
1.0
 22
0.0
 32
0.0
 13
1.0
 23
0.0
 33
0.0
 40
0.0
 40
0.0
 40
0.0
 40
0.0
 40
0.2
 40
0.2
 40
0.2
 40
0.2
 40
0.4
 40
0.4
 40
0.4
 40
0.4
 40
0.6
 40
0.6
 40
0.6
 40
0.6
 40
1.0
 40
1.0
 40
1.0
 40
1.0
 10
168.2401
 20
-63.8374
 30
0.0
 10
168.1587
 20
-62.5625
 30
0.0
 10
168.1419
 20
-60.7188
 30
0.0
 10
168.2042
 20
-59.3839
 30
0.0
 10
168.2042
 20
-59.3839
 30
0.0
 10
167.2373
 20
-60.3675
 30
0.0
 10
165.8929
 20
-61.2602
 30
0.0
 10
164.5738
 20
-62.0043
 30
0.0
 10
164.5738
 20
-62.0043
 30
0.0
 10
164.892
 20
-62.8317
 30
0.0
 10
165.4216
 20
-63.2293
 30
0.0
 10
165.911
 20
-64.034
 30
0.0
 10
165.911
 20
-64.034
 30
0.0
 10
166.9382
 20
-64.0037
 30
0.0
 10
167.4569
 20
-64.0359
 30
0.0
 10
168.2401
 20
-63.8374
 30
0.0
  0
SPLINE
  5
BA
330
1F
100
AcDbEntity
  8
layer 1
 62
     7
370
     9
100
AcDbSpline
210
0.0
220
0.0
230
1.0
 70
    11
 71
     3
 72
    28
 73
    24
 74
     0
 42
0.0000000001
 43
0.0000000001
 12
1.0
 22
0.0
 32
0.0
 13
1.0
 23
0.0
 33
0.0
 40
0.0
 40
0.0
 40
0.0
 40
0.0
 40
0.1428571428571428
 40
0.1428571428571428
 40
0.1428571428571428
 40
0.1428571428571428
 40
0.2857142857142857
 40
0.2857142857142857
 40
0.2857142857142857
 40
0.2857142857142857
 40
0.4285714285714285
 40
0.4285714285714285
 40
0.4285714285714285
 40
0.4285714285714285
 40
0.5714285714285714
 40
0.5714285714285714
 40
0.5714285714285714
 40
0.5714285714285714
 40
0.7142857142857143
 40
0.7142857142857143
 40
0.7142857142857143
 40
0.7142857142857143
 40
1.0
 40
1.0
 40
1.0
 40
1.0
 10
143.7693
 20
-48.2981
 30
0.0
 10
143.7693
 20
-48.2981
 30
0.0
 10
144.6864
 20
-50.4646
 30
0.0
 10
144.6864
 20
-50.4646
 30
0.0
 10
144.6864
 20
-50.4646
 30
0.0
 10
145.6459
 20
-50.2937
 30
0.0
 10
147.5174
 20
-50.2712
 30
0.0
 10
148.7953
 20
-51.361
 30
0.0
 10
148.7953
 20
-51.361
 30
0.0
 10
149.0385
 20
-50.1872
 30
0.0
 10
150.0885
 20
-48.9904
 30
0.0
 10
150.9936
 20
-48.4285
 30
0.0
 10
150.9936
 20
-48.4285
 30
0.0
 10
150.9936
 20
-48.4285
 30
0.0
 10
149.9848
 20
-45.7429
 30
0.0
 10
149.9848
 20
-45.7429
 30
0.0
 10
149.9848
 20
-45.7429
 30
0.0
 10
148.0114
 20
-46.3897
 30
0.0
 10
146.2572
 20
-47.0387
 30
0.0
 10
143.7693
 20
-48.2982
 30
0.0
 10
143.7693
 20
-48.2982
 30
0.0
 10
143.7693
 20
-48.2982
 30
0.0
 10
143.7693
 20
-48.2981
 30
0.0
 10
143.7693
 20
-48.2981
 30
0.0
  0
SPLINE
  5
BB
330
1F
100
AcDbEntity
  8
layer 1
 62
     7
370
     9
100
AcDbSpline
210
0.0
220
0.0
230
1.0
 70
    11
 71
     3
 72
    28
 73
    24
 74
     0
 42
0.0000000001
 43
0.0000000001
 12
1.0
 22
0.0
 32
0.0
 13
1.0
 23
0.0
 33
0.0
 40
0.0
 40
0.0
 40
0.0
 40
0.0
 40
0.1428571428571428
 40
0.1428571428571428
 40
0.1428571428571428
 40
0.1428571428571428
 40
0.2857142857142857
 40
0.2857142857142857
 40
0.2857142857142857
 40
0.2857142857142857
 40
0.4285714285714285
 40
0.4285714285714285
 40
0.4285714285714285
 40
0.4285714285714285
 40
0.5714285714285714
 40
0.5714285714285714
 40
0.5714285714285714
 40
0.5714285714285714
 40
0.7142857142857143
 40
0.7142857142857143
 40
0.7142857142857143
 40
0.7142857142857143
 40
1.0
 40
1.0
 40
1.0
 40
1.0
 10
176.1354
 20
-48.4534
 30
0.0
 10
176.1354
 20
-48.4534
 30
0.0
 10
175.2183
 20
-50.6198
 30
0.0
 10
175.2183
 20
-50.6198
 30
0.0
 10
175.2183
 20
-50.6198
 30
0.0
 10
174.2588
 20
-50.449
 30
0.0
 10
172.3874
 20
-50.4265
 30
0.0
 10
171.1094
 20
-51.5162
 30
0.0
 10
171.1094
 20
-51.5162
 30
0.0
 10
170.8662
 20
-50.3424
 30
0.0
 10
169.8163
 20
-49.1457
 30
0.0
 10
168.9111
 20
-48.5838
 30
0.0
 10
168.9111
 20
-48.5838
 30
0.0
 10
168.9111
 20
-48.5838
 30
0.0
 10
169.9199
 20
-45.8982
 30
0.0
 10
169.9199
 20
-45.8982
 30
0.0
 10
169.9199
 20
-45.8982
 30
0.0
 10
171.8933
 20
-46.545
 30
0.0
 10
173.6475
 20
-47.194
 30
0.0
 10
176.1354
 20
-48.4535
 30
0.0
 10
176.1354
 20
-48.4535
 30
0.0
 10
176.1354
 20
-48.4535
 30
0.0
 10
176.1354
 20
-48.4534
 30
0.0
 10
176.1354
 20
-48.4534
 30
0.0
  0
SPLINE
  5
BC
330
1F
100
AcDbEntity
  8
layer 1
 62
     7
370
     9
100
AcDbSpline
210
0.0
220
0.0
230
1.0
 70
    11
 71
     3
 72
    40
 73
    36
 74
     0
 42
0.0000000001
 43
0.0000000001
 12
1.0
 22
0.0
 32
0.0
 13
1.0
 23
0.0
 33
0.0
 40
0.0
 40
0.0
 40
0.0
 40
0.0
 40
0.1
 40
0.1
 40
0.1
 40
0.1
 40
0.2
 40
0.2
 40
0.2
 40
0.2
 40
0.3
 40
0.3
 40
0.3
 40
0.3
 40
0.4
 40
0.4
 40
0.4
 40
0.4
 40
0.5
 40
0.5
 40
0.5
 40
0.5
 40
0.6
 40
0.6
 40
0.6
 40
0.6
 40
0.7
 40
0.7
 40
0.7
 40
0.7
 40
0.8
 40
0.8
 40
0.8
 40
0.8
 40
1.0
 40
1.0
 40
1.0
 40
1.0
 10
176.1498
 20
-53.7133
 30
0.0
 10
175.1211
 20
-52.9348
 30
0.0
 10
171.1645
 20
-51.9186
 30
0.0
 10
170.4662
 20
-56.7352
 30
0.0
 10
170.4662
 20
-56.7352
 30
0.0
 10
170.2811
 20
-58.012
 30
0.0
 10
170.1624
 20
-61.4606
 30
0.0
 10
170.3325
 20
-63.6491
 30
0.0
 10
170.3325
 20
-63.6491
 30
0.0
 10
172.5284
 20
-63.2242
 30
0.0
 10
173.6063
 20
-62.9835
 30
0.0
 10
176.119
 20
-62.4415
 30
0.0
 10
176.119
 20
-62.4415
 30
0.0
 10
175.577
 20
-64.9542
 30
0.0
 10
175.3363
 20
-66.0321
 30
0.0
 10
174.9114
 20
-68.228
 30
0.0
 10
174.9114
 20
-68.228
 30
0.0
 10
177.0999
 20
-68.3982
 30
0.0
 10
180.5485
 20
-68.2794
 30
0.0
 10
181.8253
 20
-68.0943
 30
0.0
 10
181.8253
 20
-68.0943
 30
0.0
 10
186.6421
 20
-67.396
 30
0.0
 10
185.6257
 20
-63.4394
 30
0.0
 10
184.8472
 20
-62.4107
 30
0.0
 10
184.8472
 20
-62.4107
 30
0.0
 10
182.5176
 20
-59.3322
 30
0.0
 10
179.6212
 20
-59.8938
 30
0.0
 10
177.9108
 20
-60.6499
 30
0.0
 10
177.9108
 20
-60.6499
 30
0.0
 10
178.6667
 20
-58.9395
 30
0.0
 10
179.2283
 20
-56.0431
 30
0.0
 10
176.15
 20
-53.7134
 30
0.0
 10
176.15
 20
-53.7134
 30
0.0
 10
176.15
 20
-53.7134
 30
0.0
 10
176.1498
 20
-53.7133
 30
0.0
 10
176.1498
 20
-53.7133
 30
0.0
  0
SPLINE
  5
BD
330
1F
100
AcDbEntity
  8
layer 1
 62
     7
370
     9
100
AcDbSpline
210
0.0
220
0.0
230
1.0
 70
    11
 71
     3
 72
    24
 73
    20
 74
     0
 42
0.0000000001
 43
0.0000000001
 12
1.0
 22
0.0
 32
0.0
 13
1.0
 23
0.0
 33
0.0
 40
0.0
 40
0.0
 40
0.0
 40
0.0
 40
0.1666666666666667
 40
0.1666666666666667
 40
0.1666666666666667
 40
0.1666666666666667
 40
0.3333333333333333
 40
0.3333333333333333
 40
0.3333333333333333
 40
0.3333333333333333
 40
0.5
 40
0.5
 40
0.5
 40
0.5
 40
0.6666666666666666
 40
0.6666666666666666
 40
0.6666666666666666
 40
0.6666666666666666
 40
1.0
 40
1.0
 40
1.0
 40
1.0
 10
177.8346
 20
-49.4612
 30
0.0
 10
177.8346
 20
-49.4612
 30
0.0
 10
176.6437
 20
-51.8413
 30
0.0
 10
176.6437
 20
-51.8413
 30
0.0
 10
176.6437
 20
-51.8413
 30
0.0
 10
179.9199
 20
-53.4973
 30
0.0
 10
180.851
 20
-56.5466
 30
0.0
 10
180.2373
 20
-58.3766
 30
0.0
 10
180.2373
 20
-58.3766
 30
0.0
 10
182.3317
 20
-57.9552
 30
0.0
 10
185.3504
 20
-59.199
 30
0.0
 10
186.933
 20
-62.0236
 30
0.0
 10
186.933
 20
-62.0236
 30
0.0
 10
186.933
 20
-62.0236
 30
0.0
 10
189.2329
 20
-61.02
 30
0.0
 10
189.2329
 20
-61.02
 30
0.0
 10
189.2329
 20
-61.02
 30
0.0
 10
186.0532
 20
-55.983
 30
0.0
 10
183.2213
 20
-53.0894
 30
0.0
 10
177.8346
 20
-49.4612
 30
0.0
  0
SPLINE
  5
BE
330
1F
100
AcDbEntity
  8
layer 1
 62
     7
370
     9
100
AcDbSpline
210
0.0
220
0.0
230
1.0
 70
    11
 71
     3
 72
    32
 73
    28
 74
     0
 42
0.0000000001
 43
0.0000000001
 12
1.0
 22
0.0
 32
0.0
 13
1.0
 23
0.0
 33
0.0
 40
0.0
 40
0.0
 40
0.0
 40
0.0
 40
0.125
 40
0.125
 40
0.125
 40
0.125
 40
0.25
 40
0.25
 40
0.25
 40
0.25
 40
0.375
 40
0.375
 40
0.375
 40
0.375
 40
0.5
 40
0.5
 40
0.5
 40
0.5
 40
0.625
 40
0.625
 40
0.625
 40
0.625
 40
0.75
 40
0.75
 40
0.75
 40
0.75
 40
1.0
 40
1.0
 40
1.0
 40
1.0
 10
165.4385
 20
-66.5767
 30
0.0
 10
165.4385
 20
-66.5767
 30
0.0
 10
168.4746
 20
-65.721
 30
0.0
 10
168.4746
 20
-65.721
 30
0.0
 10
168.4746
 20
-65.721
 30
0.0
 10
168.6294
 20
-67.2947
 30
0.0
 10
168.6464
 20
-67.9568
 30
0.0
 10
169.0437
 20
-69.5606
 30
0.0
 10
169.0437
 20
-69.5606
 30
0.0
 10
170.6474
 20
-69.958
 30
0.0
 10
171.3096
 20
-69.9749
 30
0.0
 10
172.8833
 20
-70.1298
 30
0.0
 10
172.8833
 20
-70.1298
 30
0.0
 10
172.8833
 20
-70.1298
 30
0.0
 10
172.0275
 20
-73.1659
 30
0.0
 10
172.0275
 20
-73.1659
 30
0.0
 10
172.0275
 20
-73.1659
 30
0.0
 10
170.1843
 20
-72.0558
 30
0.0
 10
168.0626
 20
-71.6245
 30
0.0
 10
166.3796
 20
-72.2247
 30
0.0
 10
166.3796
 20
-72.2247
 30
0.0
 10
166.9797
 20
-70.5418
 30
0.0
 10
166.5485
 20
-68.42
 30
0.0
 10
165.4384
 20
-66.5767
 30
0.0
 10
165.4384
 20
-66.5767
 30
0.0
 10
165.4384
 20
-66.5767
 30
0.0
 10
165.4385
 20
-66.5767
 30
0.0
 10
165.4385
 20
-66.5767
 30
0.0
  0
SPLINE
  5
BF
330
1F
100
AcDbEntity
  8
layer 1
 62
     7
370
     9
100
AcDbSpline
210
0.0
220
0.0
230
1.0
 70
    11
 71
     3
 72
    24
 73
    20
 74
     0
 42
0.0000000001
 43
0.0000000001
 12
1.0
 22
0.0
 32
0.0
 13
1.0
 23
0.0
 33
0.0
 40
0.0
 40
0.0
 40
0.0
 40
0.0
 40
0.1666666666666667
 40
0.1666666666666667
 40
0.1666666666666667
 40
0.1666666666666667
 40
0.3333333333333333
 40
0.3333333333333333
 40
0.3333333333333333
 40
0.3333333333333333
 40
0.5
 40
0.5
 40
0.5
 40
0.5
 40
0.6666666666666666
 40
0.6666666666666666
 40
0.6666666666666666
 40
0.6666666666666666
 40
1.0
 40
1.0
 40
1.0
 40
1.0
 10
170.5644
 20
-65.3914
 30
0.0
 10
171.8322
 20
-65.2342
 30
0.0
 10
172.3575
 20
-65.1772
 30
0.0
 10
173.6575
 20
-64.8676
 30
0.0
 10
173.6575
 20
-64.8676
 30
0.0
 10
173.3478
 20
-66.1676
 30
0.0
 10
173.2909
 20
-66.6928
 30
0.0
 10
173.1337
 20
-67.9607
 30
0.0
 10
173.1337
 20
-67.9607
 30
0.0
 10
172.2731
 20
-68.2115
 30
0.0
 10
171.581
 20
-68.1177
 30
0.0
 10
170.6457
 20
-67.8795
 30
0.0
 10
170.6457
 20
-67.8795
 30
0.0
 10
170.4075
 20
-66.9441
 30
0.0
 10
170.3137
 20
-66.252
 30
0.0
 10
170.5645
 20
-65.3915
 30
0.0
 10
170.5645
 20
-65.3915
 30
0.0
 10
170.5645
 20
-65.3915
 30
0.0
 10
170.5644
 20
-65.3914
 30
0.0
 10
170.5644
 20
-65.3914
 30
0.0
  0
SPLINE
  5
C0
330
1F
100
AcDbEntity
  8
layer 1
 62
     7
370
     9
100
AcDbSpline
210
0.0
220
0.0
230
1.0
 70
    11
 71
     3
 72
    24
 73
    20
 74
     0
 42
0.0000000001
 43
0.0000000001
 12
1.0
 22
0.0
 32
0.0
 13
1.0
 23
0.0
 33
0.0
 40
0.0
 40
0.0
 40
0.0
 40
0.0
 40
0.1666666666666667
 40
0.1666666666666667
 40
0.1666666666666667
 40
0.1666666666666667
 40
0.3333333333333333
 40
0.3333333333333333
 40
0.3333333333333333
 40
0.3333333333333333
 40
0.5
 40
0.5
 40
0.5
 40
0.5
 40
0.6666666666666666
 40
0.6666666666666666
 40
0.6666666666666666
 40
0.6666666666666666
 40
1.0
 40
1.0
 40
1.0
 40
1.0
 10
176.3008
 20
-74.2507
 30
0.0
 10
177.1448
 20
-73.2916
 30
0.0
 10
178.4592
 20
-71.9533
 30
0.0
 10
179.4472
 20
-71.0534
 30
0.0
 10
179.4472
 20
-71.0534
 30
0.0
 10
177.8432
 20
-70.8405
 30
0.0
 10
176.7867
 20
-70.7575
 30
0.0
 10
175.2315
 20
-70.5435
 30
0.0
 10
175.2315
 20
-70.5435
 30
0.0
 10
174.8714
 20
-71.3535
 30
0.0
 10
174.7605
 20
-71.8049
 30
0.0
 10
174.5376
 20
-72.72
 30
0.0
 10
174.5376
 20
-72.72
 30
0.0
 10
175.2854
 20
-73.4248
 30
0.0
 10
175.6067
 20
-73.837
 30
0.0
 10
176.3008
 20
-74.2506
 30
0.0
 10
176.3008
 20
-74.2506
 30
0.0
 10
176.3008
 20
-74.2506
 30
0.0
 10
176.3008
 20
-74.2507
 30
0.0
 10
176.3008
 20
-74.2507
 30
0.0
  0
SPLINE
  5
C1
330
1F
100
AcDbEntity
  8
layer 1
 62
     7
370
     9
100
AcDbSpline
210
0.0
220
0.0
230
1.0
 70
    11
 71
     3
 72
    28
 73
    24
 74
     0
 42
0.0000000001
 43
0.0000000001
 12
1.0
 22
0.0
 32
0.0
 13
1.0
 23
0.0
 33
0.0
 40
0.0
 40
0.0
 40
0.0
 40
0.0
 40
0.1428571428571428
 40
0.1428571428571428
 40
0.1428571428571428
 40
0.1428571428571428
 40
0.2857142857142857
 40
0.2857142857142857
 40
0.2857142857142857
 40
0.2857142857142857
 40
0.4285714285714285
 40
0.4285714285714285
 40
0.4285714285714285
 40
0.4285714285714285
 40
0.5714285714285714
 40
0.5714285714285714
 40
0.5714285714285714
 40
0.5714285714285714
 40
0.7142857142857143
 40
0.7142857142857143
 40
0.7142857142857143
 40
0.7142857142857143
 40
1.0
 40
1.0
 40
1.0
 40
1.0
 10
192.7846
 20
-68.9327
 30
0.0
 10
192.7846
 20
-68.9327
 30
0.0
 10
190.6043
 20
-69.8161
 30
0.0
 10
190.6043
 20
-69.8161
 30
0.0
 10
190.6043
 20
-69.8161
 30
0.0
 10
190.0466
 20
-69.0168
 30
0.0
 10
188.7392
 20
-67.6777
 30
0.0
 10
187.0649
 20
-67.5445
 30
0.0
 10
187.0649
 20
-67.5445
 30
0.0
 10
187.723
 20
-66.5425
 30
0.0
 10
187.8267
 20
-64.9539
 30
0.0
 10
187.5841
 20
-63.9164
 30
0.0
 10
187.5841
 20
-63.9164
 30
0.0
 10
187.5841
 20
-63.9164
 30
0.0
 10
190.1965
 20
-62.7307
 30
0.0
 10
190.1965
 20
-62.7307
 30
0.0
 10
190.1965
 20
-62.7307
 30
0.0
 10
191.1345
 20
-64.5834
 30
0.0
 10
191.9161
 20
-66.2828
 30
0.0
 10
192.7846
 20
-68.9326
 30
0.0
 10
192.7846
 20
-68.9326
 30
0.0
 10
192.7846
 20
-68.9326
 30
0.0
 10
192.7846
 20
-68.9327
 30
0.0
 10
192.7846
 20
-68.9327
 30
0.0
  0
SPLINE
  5
C2
330
1F
100
AcDbEntity
  8
layer 1
 62
     7
370
     9
100
AcDbSpline
210
0.0
220
0.0
230
1.0
 70
    11
 71
     3
 72
    12
 73
     8
 74
     0
 42
0.0000000001
 43
0.0000000001
 12
1.0
 22
0.0
 32
0.0
 13
1.0
 23
0.0
 33
0.0
 40
0.0
 40
0.0
 40
0.0
 40
0.0
 40
0.3333333333333333
 40
0.3333333333333333
 40
0.3333333333333333
 40
0.3333333333333333
 40
1.0
 40
1.0
 40
1.0
 40
1.0
 10
155.2112
 20
-68.3032
 30
0.0
 10
153.2212
 20
-71.3818
 30
0.0
 10
155.5645
 20
-74.154
 30
0.0
 10
158.4469
 20
-74.9028
 30
0.0
 10
158.4469
 20
-74.9028
 30
0.0
 10
159.6117
 20
-72.1486
 30
0.0
 10
158.8553
 20
-68.5984
 30
0.0
 10
155.2112
 20
-68.3032
 30
0.0
  0
SPLINE
  5
C3
330
1F
100
AcDbEntity
  8
layer 1
 62
     7
370
     9
100
AcDbSpline
210
0.0
220
0.0
230
1.0
 70
    11
 71
     3
 72
    12
 73
     8
 74
     0
 42
0.0000000001
 43
0.0000000001
 12
1.0
 22
0.0
 32
0.0
 13
1.0
 23
0.0
 33
0.0
 40
0.0
 40
0.0
 40
0.0
 40
0.0
 40
0.3333333333333333
 40
0.3333333333333333
 40
0.3333333333333333
 40
0.3333333333333333
 40
1.0
 40
1.0
 40
1.0
 40
1.0
 10
170.076
 20
-74.4655
 30
0.0
 10
169.3062
 20
-78.0495
 30
0.0
 10
165.689
 20
-78.3528
 30
0.0
 10
163.1213
 20
-76.8442
 30
0.0
 10
163.1213
 20
-76.8442
 30
0.0
 10
164.2452
 20
-74.073
 30
0.0
 10
167.2905
 20
-72.0975
 30
0.0
 10
170.076
 20
-74.4655
 30
0.0
  0
SPLINE
  5
C4
330
1F
100
AcDbEntity
  8
layer 1
 62
     7
370
     9
100
AcDbSpline
210
0.0
220
0.0
230
1.0
 70
    11
 71
     3
 72
    40
 73
    36
 74
     0
 42
0.0000000001
 43
0.0000000001
 12
1.0
 22
0.0
 32
0.0
 13
1.0
 23
0.0
 33
0.0
 40
0.0
 40
0.0
 40
0.0
 40
0.0
 40
0.1
 40
0.1
 40
0.1
 40
0.1
 40
0.2
 40
0.2
 40
0.2
 40
0.2
 40
0.3
 40
0.3
 40
0.3
 40
0.3
 40
0.4
 40
0.4
 40
0.4
 40
0.4
 40
0.5
 40
0.5
 40
0.5
 40
0.5
 40
0.6
 40
0.6
 40
0.6
 40
0.6
 40
0.7
 40
0.7
 40
0.7
 40
0.7
 40
0.8
 40
0.8
 40
0.8
 40
0.8
 40
1.0
 40
1.0
 40
1.0
 40
1.0
 10
143.4614
 20
-53.7133
 30
0.0
 10
144.4901
 20
-52.9348
 30
0.0
 10
148.4468
 20
-51.9186
 30
0.0
 10
149.1451
 20
-56.7352
 30
0.0
 10
149.1451
 20
-56.7352
 30
0.0
 10
149.3301
 20
-58.012
 30
0.0
 10
149.4489
 20
-61.4606
 30
0.0
 10
149.2788
 20
-63.6491
 30
0.0
 10
149.2788
 20
-63.6491
 30
0.0
 10
147.0828
 20
-63.2242
 30
0.0
 10
146.005
 20
-62.9835
 30
0.0
 10
143.4923
 20
-62.4415
 30
0.0
 10
143.4923
 20
-62.4415
 30
0.0
 10
144.0343
 20
-64.9542
 30
0.0
 10
144.2749
 20
-66.0321
 30
0.0
 10
144.6999
 20
-68.228
 30
0.0
 10
144.6999
 20
-68.228
 30
0.0
 10
142.5113
 20
-68.3982
 30
0.0
 10
139.0628
 20
-68.2794
 30
0.0
 10
137.786
 20
-68.0943
 30
0.0
 10
137.786
 20
-68.0943
 30
0.0
 10
132.9692
 20
-67.396
 30
0.0
 10
133.9855
 20
-63.4394
 30
0.0
 10
134.7641
 20
-62.4107
 30
0.0
 10
134.7641
 20
-62.4107
 30
0.0
 10
137.0937
 20
-59.3322
 30
0.0
 10
139.9901
 20
-59.8938
 30
0.0
 10
141.7005
 20
-60.6499
 30
0.0
 10
141.7005
 20
-60.6499
 30
0.0
 10
140.9446
 20
-58.9395
 30
0.0
 10
140.383
 20
-56.0431
 30
0.0
 10
143.4613
 20
-53.7134
 30
0.0
 10
143.4613
 20
-53.7134
 30
0.0
 10
143.4613
 20
-53.7134
 30
0.0
 10
143.4614
 20
-53.7133
 30
0.0
 10
143.4614
 20
-53.7133
 30
0.0
  0
SPLINE
  5
C5
330
1F
100
AcDbEntity
  8
layer 1
 62
     7
370
     9
100
AcDbSpline
210
0.0
220
0.0
230
1.0
 70
    11
 71
     3
 72
    24
 73
    20
 74
     0
 42
0.0000000001
 43
0.0000000001
 12
1.0
 22
0.0
 32
0.0
 13
1.0
 23
0.0
 33
0.0
 40
0.0
 40
0.0
 40
0.0
 40
0.0
 40
0.1666666666666667
 40
0.1666666666666667
 40
0.1666666666666667
 40
0.1666666666666667
 40
0.3333333333333333
 40
0.3333333333333333
 40
0.3333333333333333
 40
0.3333333333333333
 40
0.5
 40
0.5
 40
0.5
 40
0.5
 40
0.6666666666666666
 40
0.6666666666666666
 40
0.6666666666666666
 40
0.6666666666666666
 40
1.0
 40
1.0
 40
1.0
 40
1.0
 10
141.7766
 20
-49.4612
 30
0.0
 10
141.7766
 20
-49.4612
 30
0.0
 10
142.9675
 20
-51.8413
 30
0.0
 10
142.9675
 20
-51.8413
 30
0.0
 10
142.9675
 20
-51.8413
 30
0.0
 10
139.6912
 20
-53.4973
 30
0.0
 10
138.7602
 20
-56.5466
 30
0.0
 10
139.3739
 20
-58.3766
 30
0.0
 10
139.3739
 20
-58.3766
 30
0.0
 10
137.2794
 20
-57.9552
 30
0.0
 10
134.2607
 20
-59.199
 30
0.0
 10
132.6782
 20
-62.0236
 30
0.0
 10
132.6782
 20
-62.0236
 30
0.0
 10
132.6782
 20
-62.0236
 30
0.0
 10
130.3782
 20
-61.02
 30
0.0
 10
130.3782
 20
-61.02
 30
0.0
 10
130.3782
 20
-61.02
 30
0.0
 10
133.5579
 20
-55.983
 30
0.0
 10
136.3899
 20
-53.0893
 30
0.0
 10
141.7766
 20
-49.4612
 30
0.0
  0
SPLINE
  5
C6
330
1F
100
AcDbEntity
  8
layer 1
 62
     7
370
     9
100
AcDbSpline
210
0.0
220
0.0
230
1.0
 70
    11
 71
     3
 72
    32
 73
    28
 74
     0
 42
0.0000000001
 43
0.0000000001
 12
1.0
 22
0.0
 32
0.0
 13
1.0
 23
0.0
 33
0.0
 40
0.0
 40
0.0
 40
0.0
 40
0.0
 40
0.125
 40
0.125
 40
0.125
 40
0.125
 40
0.25
 40
0.25
 40
0.25
 40
0.25
 40
0.375
 40
0.375
 40
0.375
 40
0.375
 40
0.5
 40
0.5
 40
0.5
 40
0.5
 40
0.625
 40
0.625
 40
0.625
 40
0.625
 40
0.75
 40
0.75
 40
0.75
 40
0.75
 40
1.0
 40
1.0
 40
1.0
 40
1.0
 10
154.1728
 20
-66.5767
 30
0.0
 10
154.1728
 20
-66.5767
 30
0.0
 10
151.1367
 20
-65.721
 30
0.0
 10
151.1367
 20
-65.721
 30
0.0
 10
151.1367
 20
-65.721
 30
0.0
 10
150.9819
 20
-67.2947
 30
0.0
 10
150.9649
 20
-67.9568
 30
0.0
 10
150.5675
 20
-69.5606
 30
0.0
 10
150.5675
 20
-69.5606
 30
0.0
 10
148.9638
 20
-69.958
 30
0.0
 10
148.3017
 20
-69.9749
 30
0.0
 10
146.728
 20
-70.1298
 30
0.0
 10
146.728
 20
-70.1298
 30
0.0
 10
146.728
 20
-70.1298
 30
0.0
 10
147.5837
 20
-73.1659
 30
0.0
 10
147.5837
 20
-73.1659
 30
0.0
 10
147.5837
 20
-73.1659
 30
0.0
 10
149.427
 20
-72.0558
 30
0.0
 10
151.5487
 20
-71.6245
 30
0.0
 10
153.2317
 20
-72.2247
 30
0.0
 10
153.2317
 20
-72.2247
 30
0.0
 10
152.6315
 20
-70.5418
 30
0.0
 10
153.0628
 20
-68.42
 30
0.0
 10
154.1729
 20
-66.5767
 30
0.0
 10
154.1729
 20
-66.5767
 30
0.0
 10
154.1729
 20
-66.5767
 30
0.0
 10
154.1728
 20
-66.5767
 30
0.0
 10
154.1728
 20
-66.5767
 30
0.0
  0
SPLINE
  5
C7
330
1F
100
AcDbEntity
  8
layer 1
 62
     7
370
     9
100
AcDbSpline
210
0.0
220
0.0
230
1.0
 70
    11
 71
     3
 72
    24
 73
    20
 74
     0
 42
0.0000000001
 43
0.0000000001
 12
1.0
 22
0.0
 32
0.0
 13
1.0
 23
0.0
 33
0.0
 40
0.0
 40
0.0
 40
0.0
 40
0.0
 40
0.1666666666666667
 40
0.1666666666666667
 40
0.1666666666666667
 40
0.1666666666666667
 40
0.3333333333333333
 40
0.3333333333333333
 40
0.3333333333333333
 40
0.3333333333333333
 40
0.5
 40
0.5
 40
0.5
 40
0.5
 40
0.6666666666666666
 40
0.6666666666666666
 40
0.6666666666666666
 40
0.6666666666666666
 40
1.0
 40
1.0
 40
1.0
 40
1.0
 10
149.0467
 20
-65.3914
 30
0.0
 10
147.7789
 20
-65.2342
 30
0.0
 10
147.2537
 20
-65.1772
 30
0.0
 10
145.9537
 20
-64.8676
 30
0.0
 10
145.9537
 20
-64.8676
 30
0.0
 10
146.2633
 20
-66.1676
 30
0.0
 10
146.3202
 20
-66.6928
 30
0.0
 10
146.4775
 20
-67.9607
 30
0.0
 10
146.4775
 20
-67.9607
 30
0.0
 10
147.3381
 20
-68.2115
 30
0.0
 10
147.966
 20
-67.925
 30
0.0
 10
148.9655
 20
-67.8795
 30
0.0
 10
148.9655
 20
-67.8795
 30
0.0
 10
149.0431
 20
-66.8478
 30
0.0
 10
149.0406
 20
-66.2841
 30
0.0
 10
149.0466
 20
-65.3915
 30
0.0
 10
149.0466
 20
-65.3915
 30
0.0
 10
149.0466
 20
-65.3915
 30
0.0
 10
149.0467
 20
-65.3914
 30
0.0
 10
149.0467
 20
-65.3914
 30
0.0
  0
SPLINE
  5
C8
330
1F
100
AcDbEntity
  8
layer 1
 62
     7
370
     9
100
AcDbSpline
210
0.0
220
0.0
230
1.0
 70
    11
 71
     3
 72
    24
 73
    20
 74
     0
 42
0.0000000001
 43
0.0000000001
 12
1.0
 22
0.0
 32
0.0
 13
1.0
 23
0.0
 33
0.0
 40
0.0
 40
0.0
 40
0.0
 40
0.0
 40
0.1666666666666667
 40
0.1666666666666667
 40
0.1666666666666667
 40
0.1666666666666667
 40
0.3333333333333333
 40
0.3333333333333333
 40
0.3333333333333333
 40
0.3333333333333333
 40
0.5
 40
0.5
 40
0.5
 40
0.5
 40
0.6666666666666666
 40
0.6666666666666666
 40
0.6666666666666666
 40
0.6666666666666666
 40
1.0
 40
1.0
 40
1.0
 40
1.0
 10
143.3103
 20
-74.2507
 30
0.0
 10
142.4663
 20
-73.2916
 30
0.0
 10
141.1519
 20
-71.9533
 30
0.0
 10
140.164
 20
-71.0534
 30
0.0
 10
140.164
 20
-71.0534
 30
0.0
 10
141.5431
 20
-71.0652
 30
0.0
 10
142.9207
 20
-70.95
 30
0.0
 10
144.3797
 20
-70.5435
 30
0.0
 10
144.3797
 20
-70.5435
 30
0.0
 10
144.7397
 20
-71.3535
 30
0.0
 10
144.8507
 20
-71.8049
 30
0.0
 10
145.0736
 20
-72.72
 30
0.0
 10
145.0736
 20
-72.72
 30
0.0
 10
144.3257
 20
-73.4248
 30
0.0
 10
144.0045
 20
-73.837
 30
0.0
 10
143.3103
 20
-74.2506
 30
0.0
 10
143.3103
 20
-74.2506
 30
0.0
 10
143.3103
 20
-74.2506
 30
0.0
 10
143.3103
 20
-74.2507
 30
0.0
 10
143.3103
 20
-74.2507
 30
0.0
  0
SPLINE
  5
C9
330
1F
100
AcDbEntity
  8
layer 1
 62
     7
370
     9
100
AcDbSpline
210
0.0
220
0.0
230
1.0
 70
    11
 71
     3
 72
    28
 73
    24
 74
     0
 42
0.0000000001
 43
0.0000000001
 12
1.0
 22
0.0
 32
0.0
 13
1.0
 23
0.0
 33
0.0
 40
0.0
 40
0.0
 40
0.0
 40
0.0
 40
0.1428571428571428
 40
0.1428571428571428
 40
0.1428571428571428
 40
0.1428571428571428
 40
0.2857142857142857
 40
0.2857142857142857
 40
0.2857142857142857
 40
0.2857142857142857
 40
0.4285714285714285
 40
0.4285714285714285
 40
0.4285714285714285
 40
0.4285714285714285
 40
0.5714285714285714
 40
0.5714285714285714
 40
0.5714285714285714
 40
0.5714285714285714
 40
0.7142857142857143
 40
0.7142857142857143
 40
0.7142857142857143
 40
0.7142857142857143
 40
1.0
 40
1.0
 40
1.0
 40
1.0
 10
126.8267
 20
-68.9327
 30
0.0
 10
126.8267
 20
-68.9327
 30
0.0
 10
129.007
 20
-69.8161
 30
0.0
 10
129.007
 20
-69.8161
 30
0.0
 10
129.007
 20
-69.8161
 30
0.0
 10
129.5647
 20
-69.0168
 30
0.0
 10
130.8721
 20
-67.6777
 30
0.0
 10
132.5463
 20
-67.5445
 30
0.0
 10
132.5463
 20
-67.5445
 30
0.0
 10
131.8883
 20
-66.5425
 30
0.0
 10
131.7845
 20
-64.9539
 30
0.0
 10
132.0272
 20
-63.9164
 30
0.0
 10
132.0272
 20
-63.9164
 30
0.0
 10
132.0272
 20
-63.9164
 30
0.0
 10
129.4147
 20
-62.7307
 30
0.0
 10
129.4147
 20
-62.7307
 30
0.0
 10
129.4147
 20
-62.7307
 30
0.0
 10
128.4768
 20
-64.5834
 30
0.0
 10
127.6951
 20
-66.2828
 30
0.0
 10
126.8267
 20
-68.9326
 30
0.0
 10
126.8267
 20
-68.9326
 30
0.0
 10
126.8267
 20
-68.9326
 30
0.0
 10
126.8267
 20
-68.9327
 30
0.0
 10
126.8267
 20
-68.9327
 30
0.0
  0
SPLINE
  5
CA
330
1F
100
AcDbEntity
  8
layer 1
 62
     7
370
     9
100
AcDbSpline
210
0.0
220
0.0
230
1.0
 70
    11
 71
     3
 72
    12
 73
     8
 74
     0
 42
0.0000000001
 43
0.0000000001
 12
1.0
 22
0.0
 32
0.0
 13
1.0
 23
0.0
 33
0.0
 40
0.0
 40
0.0
 40
0.0
 40
0.0
 40
0.3333333333333333
 40
0.3333333333333333
 40
0.3333333333333333
 40
0.3333333333333333
 40
1.0
 40
1.0
 40
1.0
 40
1.0
 10
149.5353
 20
-74.4655
 30
0.0
 10
150.305
 20
-78.0495
 30
0.0
 10
153.9223
 20
-78.3528
 30
0.0
 10
156.4899
 20
-76.8442
 30
0.0
 10
156.4899
 20
-76.8442
 30
0.0
 10
155.3661
 20
-74.073
 30
0.0
 10
152.3208
 20
-72.0975
 30
0.0
 10
149.5353
 20
-74.4655
 30
0.0
  0
SPLINE
  5
CB
330
1F
100
AcDbEntity
  8
layer 1
 62
     7
370
     9
100
AcDbSpline
210
0.0
220
0.0
230
1.0
 70
    11
 71
     3
 72
    36
 73
    32
 74
     0
 42
0.0000000001
 43
0.0000000001
 12
1.0
 22
0.0
 32
0.0
 13
1.0
 23
0.0
 33
0.0
 40
0.0
 40
0.0
 40
0.0
 40
0.0
 40
0.1111111111111111
 40
0.1111111111111111
 40
0.1111111111111111
 40
0.1111111111111111
 40
0.2222222222222222
 40
0.2222222222222222
 40
0.2222222222222222
 40
0.2222222222222222
 40
0.3333333333333333
 40
0.3333333333333333
 40
0.3333333333333333
 40
0.3333333333333333
 40
0.4444444444444444
 40
0.4444444444444444
 40
0.4444444444444444
 40
0.4444444444444444
 40
0.5555555555555556
 40
0.5555555555555556
 40
0.5555555555555556
 40
0.5555555555555556
 40
0.6666666666666666
 40
0.6666666666666666
 40
0.6666666666666666
 40
0.6666666666666666
 40
0.7777777777777778
 40
0.7777777777777778
 40
0.7777777777777778
 40
0.7777777777777778
 40
1.0
 40
1.0
 40
1.0
 40
1.0
 10
153.6113
 20
-107.6492
 30
0.0
 10
152.3333
 20
-107.4722
 30
0.0
 10
148.817
 20
-105.3931
 30
0.0
 10
151.7291
 20
-101.4934
 30
0.0
 10
151.7291
 20
-101.4934
 30
0.0
 10
152.5011
 20
-100.4597
 30
0.0
 10
154.8556
 20
-97.9372
 30
0.0
 10
156.5234
 20
-96.51
 30
0.0
 10
156.5234
 20
-96.51
 30
0.0
 10
157.7757
 20
-98.3632
 30
0.0
 10
158.3677
 20
-99.2956
 30
0.0
 10
159.7612
 20
-101.4556
 30
0.0
 10
159.7612
 20
-101.4556
 30
0.0
 10
161.1547
 20
-99.2956
 30
0.0
 10
161.7467
 20
-98.3633
 30
0.0
 10
162.999
 20
-96.51
 30
0.0
 10
162.999
 20
-96.51
 30
0.0
 10
164.6669
 20
-97.9372
 30
0.0
 10
167.0213
 20
-100.4597
 30
0.0
 10
167.7933
 20
-101.4934
 30
0.0
 10
167.7933
 20
-101.4934
 30
0.0
 10
170.7054
 20
-105.3931
 30
0.0
 10
167.189
 20
-107.4722
 30
0.0
 10
165.9111
 20
-107.6492
 30
0.0
 10
165.9111
 20
-107.6492
 30
0.0
 10
162.087
 20
-108.1787
 30
0.0
 10
160.4361
 20
-105.7334
 30
0.0
 10
159.7612
 20
-103.9895
 30
0.0
 10
159.7612
 20
-103.9895
 30
0.0
 10
159.0863
 20
-105.7334
 30
0.0
 10
157.4354
 20
-108.1786
 30
0.0
 10
153.6113
 20
-107.6492
 30
0.0
  0
SPLINE
  5
CC
330
1F
100
AcDbEntity
  8
layer 1
 62
     7
370
     9
100
AcDbSpline
210
0.0
220
0.0
230
1.0
 70
    11
 71
     3
 72
    28
 73
    24
 74
     0
 42
0.0000000001
 43
0.0000000001
 12
1.0
 22
0.0
 32
0.0
 13
1.0
 23
0.0
 33
0.0
 40
0.0
 40
0.0
 40
0.0
 40
0.0
 40
0.1428571428571428
 40
0.1428571428571428
 40
0.1428571428571428
 40
0.1428571428571428
 40
0.2857142857142857
 40
0.2857142857142857
 40
0.2857142857142857
 40
0.2857142857142857
 40
0.4285714285714285
 40
0.4285714285714285
 40
0.4285714285714285
 40
0.4285714285714285
 40
0.5714285714285714
 40
0.5714285714285714
 40
0.5714285714285714
 40
0.5714285714285714
 40
0.7142857142857143
 40
0.7142857142857143
 40
0.7142857142857143
 40
0.7142857142857143
 40
1.0
 40
1.0
 40
1.0
 40
1.0
 10
151.7958
 20
-111.8473
 30
0.0
 10
151.7958
 20
-111.8473
 30
0.0
 10
152.6368
 20
-109.3223
 30
0.0
 10
152.6368
 20
-109.3223
 30
0.0
 10
152.6368
 20
-109.3223
 30
0.0
 10
156.1246
 20
-110.4679
 30
0.0
 10
158.9389
 20
-108.9701
 30
0.0
 10
159.7991
 20
-107.2421
 30
0.0
 10
159.7991
 20
-107.2421
 30
0.0
 10
160.9821
 20
-109.0211
 30
0.0
 10
163.9962
 20
-110.2762
 30
0.0
 10
167.1125
 20
-109.3979
 30
0.0
 10
167.1125
 20
-109.3979
 30
0.0
 10
167.1125
 20
-109.3979
 30
0.0
 10
168.0291
 20
-111.7339
 30
0.0
 10
168.0291
 20
-111.7339
 30
0.0
 10
168.0291
 20
-111.7339
 30
0.0
 10
162.2191
 20
-113.0471
 30
0.0
 10
158.1703
 20
-113.0908
 30
0.0
 10
151.796
 20
-111.8473
 30
0.0
 10
151.796
 20
-111.8473
 30
0.0
 10
151.796
 20
-111.8473
 30
0.0
 10
151.7958
 20
-111.8473
 30
0.0
 10
151.7958
 20
-111.8473
 30
0.0
  0
SPLINE
  5
CD
330
1F
100
AcDbEntity
  8
layer 1
 62
     7
370
     9
100
AcDbSpline
210
0.0
220
0.0
230
1.0
 70
    11
 71
     3
 72
    28
 73
    24
 74
     0
 42
0.0000000001
 43
0.0000000001
 12
1.0
 22
0.0
 32
0.0
 13
1.0
 23
0.0
 33
0.0
 40
0.0
 40
0.0
 40
0.0
 40
0.0
 40
0.1428571428571428
 40
0.1428571428571428
 40
0.1428571428571428
 40
0.1428571428571428
 40
0.2857142857142857
 40
0.2857142857142857
 40
0.2857142857142857
 40
0.2857142857142857
 40
0.4285714285714285
 40
0.4285714285714285
 40
0.4285714285714285
 40
0.4285714285714285
 40
0.5714285714285714
 40
0.5714285714285714
 40
0.5714285714285714
 40
0.5714285714285714
 40
0.7142857142857143
 40
0.7142857142857143
 40
0.7142857142857143
 40
0.7142857142857143
 40
1.0
 40
1.0
 40
1.0
 40
1.0
 10
155.1329
 20
-90.9793
 30
0.0
 10
155.1329
 20
-90.9793
 30
0.0
 10
156.6746
 20
-93.7313
 30
0.0
 10
156.6746
 20
-93.7313
 30
0.0
 10
156.6746
 20
-93.7313
 30
0.0
 10
157.8968
 20
-92.728
 30
0.0
 10
158.377
 20
-92.2718
 30
0.0
 10
159.7921
 20
-91.4188
 30
0.0
 10
159.7921
 20
-91.4188
 30
0.0
 10
161.2071
 20
-92.2718
 30
0.0
 10
161.6873
 20
-92.728
 30
0.0
 10
162.9096
 20
-93.7313
 30
0.0
 10
162.9096
 20
-93.7313
 30
0.0
 10
162.9096
 20
-93.7313
 30
0.0
 10
164.4513
 20
-90.9793
 30
0.0
 10
164.4513
 20
-90.9793
 30
0.0
 10
164.4513
 20
-90.9793
 30
0.0
 10
162.363
 20
-90.4609
 30
0.0
 10
160.5577
 20
-89.2656
 30
0.0
 10
159.7921
 20
-87.6512
 30
0.0
 10
159.7921
 20
-87.6512
 30
0.0
 10
159.0265
 20
-89.2656
 30
0.0
 10
157.2212
 20
-90.4609
 30
0.0
 10
155.1329
 20
-90.9793
 30
0.0
  0
SPLINE
  5
CE
330
1F
100
AcDbEntity
  8
layer 1
 62
     7
370
     9
100
AcDbSpline
210
0.0
220
0.0
230
1.0
 70
    11
 71
     3
 72
    20
 73
    16
 74
     0
 42
0.0000000001
 43
0.0000000001
 12
1.0
 22
0.0
 32
0.0
 13
1.0
 23
0.0
 33
0.0
 40
0.0
 40
0.0
 40
0.0
 40
0.0
 40
0.2
 40
0.2
 40
0.2
 40
0.2
 40
0.4
 40
0.4
 40
0.4
 40
0.4
 40
0.6
 40
0.6
 40
0.6
 40
0.6
 40
1.0
 40
1.0
 40
1.0
 40
1.0
 10
157.9194
 20
-95.4422
 30
0.0
 10
158.7048
 20
-96.4499
 30
0.0
 10
159.0359
 20
-96.8615
 30
0.0
 10
159.7361
 20
-97.9996
 30
0.0
 10
159.7361
 20
-97.9996
 30
0.0
 10
160.4364
 20
-96.8614
 30
0.0
 10
160.7675
 20
-96.4499
 30
0.0
 10
161.5528
 20
-95.4422
 30
0.0
 10
161.5528
 20
-95.4422
 30
0.0
 10
161.1217
 20
-94.6564
 30
0.0
 10
160.5659
 20
-94.2333
 30
0.0
 10
159.7361
 20
-93.7402
 30
0.0
 10
159.7361
 20
-93.7402
 30
0.0
 10
158.9063
 20
-94.2333
 30
0.0
 10
158.3506
 20
-94.6563
 30
0.0
 10
157.9194
 20
-95.4422
 30
0.0
  0
SPLINE
  5
CF
330
1F
100
AcDbEntity
  8
layer 1
 62
     7
370
     9
100
AcDbSpline
210
0.0
220
0.0
230
1.0
 70
    11
 71
     3
 72
    12
 73
     8
 74
     0
 42
0.0000000001
 43
0.0000000001
 12
1.0
 22
0.0
 32
0.0
 13
1.0
 23
0.0
 33
0.0
 40
0.0
 40
0.0
 40
0.0
 40
0.0
 40
0.3333333333333333
 40
0.3333333333333333
 40
0.3333333333333333
 40
0.3333333333333333
 40
1.0
 40
1.0
 40
1.0
 40
1.0
 10
164.2282
 20
-88.8003
 30
0.0
 10
166.2182
 20
-85.7217
 30
0.0
 10
163.8748
 20
-82.9495
 30
0.0
 10
160.9925
 20
-82.2006
 30
0.0
 10
160.9925
 20
-82.2006
 30
0.0
 10
159.8277
 20
-84.9548
 30
0.0
 10
160.5841
 20
-88.5051
 30
0.0
 10
164.2282
 20
-88.8003
 30
0.0
  0
SPLINE
  5
D0
330
1F
100
AcDbEntity
  8
layer 1
 62
     7
370
     9
100
AcDbSpline
210
0.0
220
0.0
230
1.0
 70
    11
 71
     3
 72
    20
 73
    16
 74
     0
 42
0.0000000001
 43
0.0000000001
 12
1.0
 22
0.0
 32
0.0
 13
1.0
 23
0.0
 33
0.0
 40
0.0
 40
0.0
 40
0.0
 40
0.0
 40
0.2
 40
0.2
 40
0.2
 40
0.2
 40
0.4
 40
0.4
 40
0.4
 40
0.4
 40
0.6
 40
0.6
 40
0.6
 40
0.6
 40
1.0
 40
1.0
 40
1.0
 40
1.0
 10
151.6433
 20
-93.2339
 30
0.0
 10
151.7247
 20
-94.5088
 30
0.0
 10
151.7416
 20
-96.3846
 30
0.0
 10
151.6792
 20
-97.7195
 30
0.0
 10
151.6792
 20
-97.7195
 30
0.0
 10
152.903
 20
-96.768
 30
0.0
 10
153.7017
 20
-96.0038
 30
0.0
 10
155.0207
 20
-95.0991
 30
0.0
 10
155.0207
 20
-95.0991
 30
0.0
 10
154.7025
 20
-94.2717
 30
0.0
 10
154.4618
 20
-93.8741
 30
0.0
 10
153.9725
 20
-93.0694
 30
0.0
 10
153.9725
 20
-93.0694
 30
0.0
 10
152.9453
 20
-93.0998
 30
0.0
 10
152.4266
 20
-93.0355
 30
0.0
 10
151.6433
 20
-93.2339
 30
0.0
  0
SPLINE
  5
D1
330
1F
100
AcDbEntity
  8
layer 1
 62
     7
370
     9
100
AcDbSpline
210
0.0
220
0.0
230
1.0
 70
    11
 71
     3
 72
    20
 73
    16
 74
     0
 42
0.0000000001
 43
0.0000000001
 12
1.0
 22
0.0
 32
0.0
 13
1.0
 23
0.0
 33
0.0
 40
0.0
 40
0.0
 40
0.0
 40
0.0
 40
0.2
 40
0.2
 40
0.2
 40
0.2
 40
0.4
 40
0.4
 40
0.4
 40
0.4
 40
0.6
 40
0.6
 40
0.6
 40
0.6
 40
1.0
 40
1.0
 40
1.0
 40
1.0
 10
168.2401
 20
-93.2339
 30
0.0
 10
168.1587
 20
-94.5088
 30
0.0
 10
168.1419
 20
-96.3846
 30
0.0
 10
168.2042
 20
-97.7195
 30
0.0
 10
168.2042
 20
-97.7195
 30
0.0
 10
167.0125
 20
-96.7359
 30
0.0
 10
166.2139
 20
-96.1322
 30
0.0
 10
164.8628
 20
-95.0991
 30
0.0
 10
164.8628
 20
-95.0991
 30
0.0
 10
165.1809
 20
-94.2717
 30
0.0
 10
165.4216
 20
-93.8741
 30
0.0
 10
165.911
 20
-93.0694
 30
0.0
 10
165.911
 20
-93.0694
 30
0.0
 10
166.9382
 20
-93.0998
 30
0.0
 10
167.4569
 20
-93.0355
 30
0.0
 10
168.2401
 20
-93.2339
 30
0.0
  0
SPLINE
  5
D2
330
1F
100
AcDbEntity
  8
layer 1
 62
     7
370
     9
100
AcDbSpline
210
0.0
220
0.0
230
1.0
 70
    11
 71
     3
 72
    28
 73
    24
 74
     0
 42
0.0000000001
 43
0.0000000001
 12
1.0
 22
0.0
 32
0.0
 13
1.0
 23
0.0
 33
0.0
 40
0.0
 40
0.0
 40
0.0
 40
0.0
 40
0.1428571428571428
 40
0.1428571428571428
 40
0.1428571428571428
 40
0.1428571428571428
 40
0.2857142857142857
 40
0.2857142857142857
 40
0.2857142857142857
 40
0.2857142857142857
 40
0.4285714285714285
 40
0.4285714285714285
 40
0.4285714285714285
 40
0.4285714285714285
 40
0.5714285714285714
 40
0.5714285714285714
 40
0.5714285714285714
 40
0.5714285714285714
 40
0.7142857142857143
 40
0.7142857142857143
 40
0.7142857142857143
 40
0.7142857142857143
 40
1.0
 40
1.0
 40
1.0
 40
1.0
 10
143.7693
 20
-108.8053
 30
0.0
 10
143.7693
 20
-108.8053
 30
0.0
 10
144.6864
 20
-106.6389
 30
0.0
 10
144.6864
 20
-106.6389
 30
0.0
 10
144.6864
 20
-106.6389
 30
0.0
 10
145.6459
 20
-106.8097
 30
0.0
 10
147.5174
 20
-106.8322
 30
0.0
 10
148.7953
 20
-105.7424
 30
0.0
 10
148.7953
 20
-105.7424
 30
0.0
 10
149.0385
 20
-106.9163
 30
0.0
 10
150.0885
 20
-108.113
 30
0.0
 10
150.9936
 20
-108.6749
 30
0.0
 10
150.9936
 20
-108.6749
 30
0.0
 10
150.9936
 20
-108.6749
 30
0.0
 10
149.9848
 20
-111.3605
 30
0.0
 10
149.9848
 20
-111.3605
 30
0.0
 10
149.9848
 20
-111.3605
 30
0.0
 10
148.0114
 20
-110.7137
 30
0.0
 10
146.2572
 20
-110.0647
 30
0.0
 10
143.7693
 20
-108.8052
 30
0.0
 10
143.7693
 20
-108.8052
 30
0.0
 10
143.7693
 20
-108.8052
 30
0.0
 10
143.7693
 20
-108.8053
 30
0.0
 10
143.7693
 20
-108.8053
 30
0.0
  0
SPLINE
  5
D3
330
1F
100
AcDbEntity
  8
layer 1
 62
     7
370
     9
100
AcDbSpline
210
0.0
220
0.0
230
1.0
 70
    11
 71
     3
 72
    28
 73
    24
 74
     0
 42
0.0000000001
 43
0.0000000001
 12
1.0
 22
0.0
 32
0.0
 13
1.0
 23
0.0
 33
0.0
 40
0.0
 40
0.0
 40
0.0
 40
0.0
 40
0.1428571428571428
 40
0.1428571428571428
 40
0.1428571428571428
 40
0.1428571428571428
 40
0.2857142857142857
 40
0.2857142857142857
 40
0.2857142857142857
 40
0.2857142857142857
 40
0.4285714285714285
 40
0.4285714285714285
 40
0.4285714285714285
 40
0.4285714285714285
 40
0.5714285714285714
 40
0.5714285714285714
 40
0.5714285714285714
 40
0.5714285714285714
 40
0.7142857142857143
 40
0.7142857142857143
 40
0.7142857142857143
 40
0.7142857142857143
 40
1.0
 40
1.0
 40
1.0
 40
1.0
 10
176.1354
 20
-108.6502
 30
0.0
 10
176.1354
 20
-108.6502
 30
0.0
 10
175.2183
 20
-106.4837
 30
0.0
 10
175.2183
 20
-106.4837
 30
0.0
 10
175.2183
 20
-106.4837
 30
0.0
 10
174.2588
 20
-106.6546
 30
0.0
 10
172.3874
 20
-106.6771
 30
0.0
 10
171.1094
 20
-105.5873
 30
0.0
 10
171.1094
 20
-105.5873
 30
0.0
 10
170.8662
 20
-106.7611
 30
0.0
 10
169.8163
 20
-107.9579
 30
0.0
 10
168.9111
 20
-108.5197
 30
0.0
 10
168.9111
 20
-108.5197
 30
0.0
 10
168.9111
 20
-108.5197
 30
0.0
 10
169.9199
 20
-111.2054
 30
0.0
 10
169.9199
 20
-111.2054
 30
0.0
 10
169.9199
 20
-111.2054
 30
0.0
 10
171.8933
 20
-110.5586
 30
0.0
 10
173.6475
 20
-109.9095
 30
0.0
 10
176.1354
 20
-108.6501
 30
0.0
 10
176.1354
 20
-108.6501
 30
0.0
 10
176.1354
 20
-108.6501
 30
0.0
 10
176.1354
 20
-108.6502
 30
0.0
 10
176.1354
 20
-108.6502
 30
0.0
  0
SPLINE
  5
D4
330
1F
100
AcDbEntity
  8
layer 1
 62
     7
370
     9
100
AcDbSpline
210
0.0
220
0.0
230
1.0
 70
    11
 71
     3
 72
    40
 73
    36
 74
     0
 42
0.0000000001
 43
0.0000000001
 12
1.0
 22
0.0
 32
0.0
 13
1.0
 23
0.0
 33
0.0
 40
0.0
 40
0.0
 40
0.0
 40
0.0
 40
0.1
 40
0.1
 40
0.1
 40
0.1
 40
0.2
 40
0.2
 40
0.2
 40
0.2
 40
0.3
 40
0.3
 40
0.3
 40
0.3
 40
0.4
 40
0.4
 40
0.4
 40
0.4
 40
0.5
 40
0.5
 40
0.5
 40
0.5
 40
0.6
 40
0.6
 40
0.6
 40
0.6
 40
0.7
 40
0.7
 40
0.7
 40
0.7
 40
0.8
 40
0.8
 40
0.8
 40
0.8
 40
1.0
 40
1.0
 40
1.0
 40
1.0
 10
176.1498
 20
-103.3901
 30
0.0
 10
175.1211
 20
-104.1686
 30
0.0
 10
171.1645
 20
-105.1849
 30
0.0
 10
170.4662
 20
-100.3682
 30
0.0
 10
170.4662
 20
-100.3682
 30
0.0
 10
170.2811
 20
-99.0914
 30
0.0
 10
170.1624
 20
-95.6428
 30
0.0
 10
170.3325
 20
-93.4543
 30
0.0
 10
170.3325
 20
-93.4543
 30
0.0
 10
172.5284
 20
-93.8792
 30
0.0
 10
173.6063
 20
-94.1199
 30
0.0
 10
176.119
 20
-94.6619
 30
0.0
 10
176.119
 20
-94.6619
 30
0.0
 10
175.577
 20
-92.1492
 30
0.0
 10
175.3363
 20
-91.0713
 30
0.0
 10
174.9114
 20
-88.8754
 30
0.0
 10
174.9114
 20
-88.8754
 30
0.0
 10
177.0999
 20
-88.7053
 30
0.0
 10
180.5485
 20
-88.824
 30
0.0
 10
181.8253
 20
-89.0091
 30
0.0
 10
181.8253
 20
-89.0091
 30
0.0
 10
186.6421
 20
-89.7074
 30
0.0
 10
185.6257
 20
-93.664
 30
0.0
 10
184.8472
 20
-94.6927
 30
0.0
 10
184.8472
 20
-94.6927
 30
0.0
 10
182.5176
 20
-97.7712
 30
0.0
 10
179.6212
 20
-97.2096
 30
0.0
 10
177.9108
 20
-96.4536
 30
0.0
 10
177.9108
 20
-96.4536
 30
0.0
 10
178.6667
 20
-98.1639
 30
0.0
 10
179.2283
 20
-101.0604
 30
0.0
 10
176.15
 20
-103.39
 30
0.0
 10
176.15
 20
-103.39
 30
0.0
 10
176.15
 20
-103.39
 30
0.0
 10
176.1498
 20
-103.3901
 30
0.0
 10
176.1498
 20
-103.3901
 30
0.0
  0
SPLINE
  5
D5
330
1F
100
AcDbEntity
  8
layer 1
 62
     7
370
     9
100
AcDbSpline
210
0.0
220
0.0
230
1.0
 70
    11
 71
     3
 72
    24
 73
    20
 74
     0
 42
0.0000000001
 43
0.0000000001
 12
1.0
 22
0.0
 32
0.0
 13
1.0
 23
0.0
 33
0.0
 40
0.0
 40
0.0
 40
0.0
 40
0.0
 40
0.1666666666666667
 40
0.1666666666666667
 40
0.1666666666666667
 40
0.1666666666666667
 40
0.3333333333333333
 40
0.3333333333333333
 40
0.3333333333333333
 40
0.3333333333333333
 40
0.5
 40
0.5
 40
0.5
 40
0.5
 40
0.6666666666666666
 40
0.6666666666666666
 40
0.6666666666666666
 40
0.6666666666666666
 40
1.0
 40
1.0
 40
1.0
 40
1.0
 10
177.8346
 20
-107.6423
 30
0.0
 10
177.8346
 20
-107.6423
 30
0.0
 10
176.6437
 20
-105.2621
 30
0.0
 10
176.6437
 20
-105.2621
 30
0.0
 10
176.6437
 20
-105.2621
 30
0.0
 10
179.9199
 20
-103.6061
 30
0.0
 10
180.851
 20
-100.5568
 30
0.0
 10
180.2373
 20
-98.7268
 30
0.0
 10
180.2373
 20
-98.7268
 30
0.0
 10
182.3317
 20
-99.1482
 30
0.0
 10
185.3504
 20
-97.9044
 30
0.0
 10
186.933
 20
-95.0798
 30
0.0
 10
186.933
 20
-95.0798
 30
0.0
 10
186.933
 20
-95.0798
 30
0.0
 10
189.2329
 20
-96.0835
 30
0.0
 10
189.2329
 20
-96.0835
 30
0.0
 10
189.2329
 20
-96.0835
 30
0.0
 10
186.0532
 20
-101.1204
 30
0.0
 10
183.2212
 20
-104.0142
 30
0.0
 10
177.8346
 20
-107.6423
 30
0.0
  0
SPLINE
  5
D6
330
1F
100
AcDbEntity
  8
layer 1
 62
     7
370
     9
100
AcDbSpline
210
0.0
220
0.0
230
1.0
 70
    11
 71
     3
 72
    32
 73
    28
 74
     0
 42
0.0000000001
 43
0.0000000001
 12
1.0
 22
0.0
 32
0.0
 13
1.0
 23
0.0
 33
0.0
 40
0.0
 40
0.0
 40
0.0
 40
0.0
 40
0.125
 40
0.125
 40
0.125
 40
0.125
 40
0.25
 40
0.25
 40
0.25
 40
0.25
 40
0.375
 40
0.375
 40
0.375
 40
0.375
 40
0.5
 40
0.5
 40
0.5
 40
0.5
 40
0.625
 40
0.625
 40
0.625
 40
0.625
 40
0.75
 40
0.75
 40
0.75
 40
0.75
 40
1.0
 40
1.0
 40
1.0
 40
1.0
 10
165.4385
 20
-90.5267
 30
0.0
 10
165.4385
 20
-90.5267
 30
0.0
 10
168.4746
 20
-91.3825
 30
0.0
 10
168.4746
 20
-91.3825
 30
0.0
 10
168.4746
 20
-91.3825
 30
0.0
 10
168.6294
 20
-89.8088
 30
0.0
 10
168.6464
 20
-89.1466
 30
0.0
 10
169.0437
 20
-87.5429
 30
0.0
 10
169.0437
 20
-87.5429
 30
0.0
 10
170.6474
 20
-87.1454
 30
0.0
 10
171.3096
 20
-87.1286
 30
0.0
 10
172.8833
 20
-86.9736
 30
0.0
 10
172.8833
 20
-86.9736
 30
0.0
 10
172.8833
 20
-86.9736
 30
0.0
 10
172.0275
 20
-83.9375
 30
0.0
 10
172.0275
 20
-83.9375
 30
0.0
 10
172.0275
 20
-83.9375
 30
0.0
 10
170.1843
 20
-85.0476
 30
0.0
 10
168.0626
 20
-85.4789
 30
0.0
 10
166.3796
 20
-84.8787
 30
0.0
 10
166.3796
 20
-84.8787
 30
0.0
 10
166.9797
 20
-86.5616
 30
0.0
 10
166.5485
 20
-88.6834
 30
0.0
 10
165.4384
 20
-90.5267
 30
0.0
 10
165.4384
 20
-90.5267
 30
0.0
 10
165.4384
 20
-90.5267
 30
0.0
 10
165.4385
 20
-90.5267
 30
0.0
 10
165.4385
 20
-90.5267
 30
0.0
  0
SPLINE
  5
D7
330
1F
100
AcDbEntity
  8
layer 1
 62
     7
370
     9
100
AcDbSpline
210
0.0
220
0.0
230
1.0
 70
    11
 71
     3
 72
    24
 73
    20
 74
     0
 42
0.0000000001
 43
0.0000000001
 12
1.0
 22
0.0
 32
0.0
 13
1.0
 23
0.0
 33
0.0
 40
0.0
 40
0.0
 40
0.0
 40
0.0
 40
0.1666666666666667
 40
0.1666666666666667
 40
0.1666666666666667
 40
0.1666666666666667
 40
0.3333333333333333
 40
0.3333333333333333
 40
0.3333333333333333
 40
0.3333333333333333
 40
0.5
 40
0.5
 40
0.5
 40
0.5
 40
0.6666666666666666
 40
0.6666666666666666
 40
0.6666666666666666
 40
0.6666666666666666
 40
1.0
 40
1.0
 40
1.0
 40
1.0
 10
170.5644
 20
-91.712
 30
0.0
 10
171.8322
 20
-91.8693
 30
0.0
 10
172.3575
 20
-91.9262
 30
0.0
 10
173.6575
 20
-92.2358
 30
0.0
 10
173.6575
 20
-92.2358
 30
0.0
 10
173.3478
 20
-90.9358
 30
0.0
 10
173.1947
 20
-90.2501
 30
0.0
 10
173.0374
 20
-88.9823
 30
0.0
 10
173.0374
 20
-88.9823
 30
0.0
 10
172.1447
 20
-88.9883
 30
0.0
 10
171.5811
 20
-88.9858
 30
0.0
 10
170.6457
 20
-89.224
 30
0.0
 10
170.6457
 20
-89.224
 30
0.0
 10
170.5038
 20
-90.352
 30
0.0
 10
170.4743
 20
-90.7874
 30
0.0
 10
170.5645
 20
-91.712
 30
0.0
 10
170.5645
 20
-91.712
 30
0.0
 10
170.5645
 20
-91.712
 30
0.0
 10
170.5644
 20
-91.712
 30
0.0
 10
170.5644
 20
-91.712
 30
0.0
  0
SPLINE
  5
D8
330
1F
100
AcDbEntity
  8
layer 1
 62
     7
370
     9
100
AcDbSpline
210
0.0
220
0.0
230
1.0
 70
    11
 71
     3
 72
    24
 73
    20
 74
     0
 42
0.0000000001
 43
0.0000000001
 12
1.0
 22
0.0
 32
0.0
 13
1.0
 23
0.0
 33
0.0
 40
0.0
 40
0.0
 40
0.0
 40
0.0
 40
0.1666666666666667
 40
0.1666666666666667
 40
0.1666666666666667
 40
0.1666666666666667
 40
0.3333333333333333
 40
0.3333333333333333
 40
0.3333333333333333
 40
0.3333333333333333
 40
0.5
 40
0.5
 40
0.5
 40
0.5
 40
0.6666666666666666
 40
0.6666666666666666
 40
0.6666666666666666
 40
0.6666666666666666
 40
1.0
 40
1.0
 40
1.0
 40
1.0
 10
176.3008
 20
-82.8527
 30
0.0
 10
177.1448
 20
-83.8118
 30
0.0
 10
178.4592
 20
-85.1501
 30
0.0
 10
179.4472
 20
-86.05
 30
0.0
 10
179.4472
 20
-86.05
 30
0.0
 10
177.9717
 20
-86.2951
 30
0.0
 10
176.8188
 20
-86.346
 30
0.0
 10
175.2315
 20
-86.5599
 30
0.0
 10
175.2315
 20
-86.5599
 30
0.0
 10
174.8714
 20
-85.75
 30
0.0
 10
174.7605
 20
-85.2986
 30
0.0
 10
174.5376
 20
-84.3835
 30
0.0
 10
174.5376
 20
-84.3835
 30
0.0
 10
175.2854
 20
-83.6786
 30
0.0
 10
175.6067
 20
-83.2665
 30
0.0
 10
176.3008
 20
-82.8528
 30
0.0
 10
176.3008
 20
-82.8528
 30
0.0
 10
176.3008
 20
-82.8528
 30
0.0
 10
176.3008
 20
-82.8527
 30
0.0
 10
176.3008
 20
-82.8527
 30
0.0
  0
SPLINE
  5
D9
330
1F
100
AcDbEntity
  8
layer 1
 62
     7
370
     9
100
AcDbSpline
210
0.0
220
0.0
230
1.0
 70
    11
 71
     3
 72
    28
 73
    24
 74
     0
 42
0.0000000001
 43
0.0000000001
 12
1.0
 22
0.0
 32
0.0
 13
1.0
 23
0.0
 33
0.0
 40
0.0
 40
0.0
 40
0.0
 40
0.0
 40
0.1428571428571428
 40
0.1428571428571428
 40
0.1428571428571428
 40
0.1428571428571428
 40
0.2857142857142857
 40
0.2857142857142857
 40
0.2857142857142857
 40
0.2857142857142857
 40
0.4285714285714285
 40
0.4285714285714285
 40
0.4285714285714285
 40
0.4285714285714285
 40
0.5714285714285714
 40
0.5714285714285714
 40
0.5714285714285714
 40
0.5714285714285714
 40
0.7142857142857143
 40
0.7142857142857143
 40
0.7142857142857143
 40
0.7142857142857143
 40
1.0
 40
1.0
 40
1.0
 40
1.0
 10
192.7846
 20
-88.1709
 30
0.0
 10
192.7846
 20
-88.1709
 30
0.0
 10
190.6043
 20
-87.2874
 30
0.0
 10
190.6043
 20
-87.2874
 30
0.0
 10
190.6043
 20
-87.2874
 30
0.0
 10
190.0466
 20
-88.0867
 30
0.0
 10
188.7392
 20
-89.4258
 30
0.0
 10
187.0649
 20
-89.5591
 30
0.0
 10
187.0649
 20
-89.5591
 30
0.0
 10
187.723
 20
-90.5611
 30
0.0
 10
187.8267
 20
-92.1497
 30
0.0
 10
187.5841
 20
-93.1872
 30
0.0
 10
187.5841
 20
-93.1872
 30
0.0
 10
187.5841
 20
-93.1872
 30
0.0
 10
190.1965
 20
-94.3729
 30
0.0
 10
190.1965
 20
-94.3729
 30
0.0
 10
190.1965
 20
-94.3729
 30
0.0
 10
191.1345
 20
-92.5201
 30
0.0
 10
191.9161
 20
-90.8207
 30
0.0
 10
192.7846
 20
-88.171
 30
0.0
 10
192.7846
 20
-88.171
 30
0.0
 10
192.7846
 20
-88.171
 30
0.0
 10
192.7846
 20
-88.1709
 30
0.0
 10
192.7846
 20
-88.1709
 30
0.0
  0
SPLINE
  5
DA
330
1F
100
AcDbEntity
  8
layer 1
 62
     7
370
     9
100
AcDbSpline
210
0.0
220
0.0
230
1.0
 70
    11
 71
     3
 72
    12
 73
     8
 74
     0
 42
0.0000000001
 43
0.0000000001
 12
1.0
 22
0.0
 32
0.0
 13
1.0
 23
0.0
 33
0.0
 40
0.0
 40
0.0
 40
0.0
 40
0.0
 40
0.3333333333333333
 40
0.3333333333333333
 40
0.3333333333333333
 40
0.3333333333333333
 40
1.0
 40
1.0
 40
1.0
 40
1.0
 10
155.2112
 20
-88.8003
 30
0.0
 10
153.2212
 20
-85.7217
 30
0.0
 10
155.5645
 20
-82.9495
 30
0.0
 10
158.4469
 20
-82.2006
 30
0.0
 10
158.4469
 20
-82.2006
 30
0.0
 10
159.6117
 20
-84.9548
 30
0.0
 10
158.8553
 20
-88.5051
 30
0.0
 10
155.2112
 20
-88.8003
 30
0.0
  0
SPLINE
  5
DB
330
1F
100
AcDbEntity
  8
layer 1
 62
     7
370
     9
100
AcDbSpline
210
0.0
220
0.0
230
1.0
 70
    11
 71
     3
 72
    12
 73
     8
 74
     0
 42
0.0000000001
 43
0.0000000001
 12
1.0
 22
0.0
 32
0.0
 13
1.0
 23
0.0
 33
0.0
 40
0.0
 40
0.0
 40
0.0
 40
0.0
 40
0.3333333333333333
 40
0.3333333333333333
 40
0.3333333333333333
 40
0.3333333333333333
 40
1.0
 40
1.0
 40
1.0
 40
1.0
 10
170.076
 20
-82.6379
 30
0.0
 10
169.3062
 20
-79.0539
 30
0.0
 10
165.689
 20
-78.7506
 30
0.0
 10
163.1213
 20
-80.2592
 30
0.0
 10
163.1213
 20
-80.2592
 30
0.0
 10
164.2452
 20
-83.0304
 30
0.0
 10
167.2905
 20
-85.0059
 30
0.0
 10
170.076
 20
-82.6379
 30
0.0
  0
SPLINE
  5
DC
330
1F
100
AcDbEntity
  8
layer 1
 62
     7
370
     9
100
AcDbSpline
210
0.0
220
0.0
230
1.0
 70
    11
 71
     3
 72
    40
 73
    36
 74
     0
 42
0.0000000001
 43
0.0000000001
 12
1.0
 22
0.0
 32
0.0
 13
1.0
 23
0.0
 33
0.0
 40
0.0
 40
0.0
 40
0.0
 40
0.0
 40
0.1
 40
0.1
 40
0.1
 40
0.1
 40
0.2
 40
0.2
 40
0.2
 40
0.2
 40
0.3
 40
0.3
 40
0.3
 40
0.3
 40
0.4
 40
0.4
 40
0.4
 40
0.4
 40
0.5
 40
0.5
 40
0.5
 40
0.5
 40
0.6
 40
0.6
 40
0.6
 40
0.6
 40
0.7
 40
0.7
 40
0.7
 40
0.7
 40
0.8
 40
0.8
 40
0.8
 40
0.8
 40
1.0
 40
1.0
 40
1.0
 40
1.0
 10
143.4614
 20
-103.3901
 30
0.0
 10
144.4901
 20
-104.1686
 30
0.0
 10
148.4468
 20
-105.1849
 30
0.0
 10
149.1451
 20
-100.3682
 30
0.0
 10
149.1451
 20
-100.3682
 30
0.0
 10
149.3301
 20
-99.0914
 30
0.0
 10
149.4489
 20
-95.6428
 30
0.0
 10
149.2788
 20
-93.4543
 30
0.0
 10
149.2788
 20
-93.4543
 30
0.0
 10
147.0828
 20
-93.8792
 30
0.0
 10
146.005
 20
-94.1199
 30
0.0
 10
143.4923
 20
-94.6619
 30
0.0
 10
143.4923
 20
-94.6619
 30
0.0
 10
144.0343
 20
-92.1492
 30
0.0
 10
144.2749
 20
-91.0713
 30
0.0
 10
144.6999
 20
-88.8754
 30
0.0
 10
144.6999
 20
-88.8754
 30
0.0
 10
142.5113
 20
-88.7053
 30
0.0
 10
139.0628
 20
-88.824
 30
0.0
 10
137.786
 20
-89.0091
 30
0.0
 10
137.786
 20
-89.0091
 30
0.0
 10
132.9692
 20
-89.7074
 30
0.0
 10
133.9855
 20
-93.664
 30
0.0
 10
134.7641
 20
-94.6927
 30
0.0
 10
134.7641
 20
-94.6927
 30
0.0
 10
137.0937
 20
-97.7712
 30
0.0
 10
139.9901
 20
-97.2096
 30
0.0
 10
141.7005
 20
-96.4536
 30
0.0
 10
141.7005
 20
-96.4536
 30
0.0
 10
140.9446
 20
-98.1639
 30
0.0
 10
140.383
 20
-101.0604
 30
0.0
 10
143.4613
 20
-103.39
 30
0.0
 10
143.4613
 20
-103.39
 30
0.0
 10
143.4613
 20
-103.39
 30
0.0
 10
143.4614
 20
-103.3901
 30
0.0
 10
143.4614
 20
-103.3901
 30
0.0
  0
SPLINE
  5
DD
330
1F
100
AcDbEntity
  8
layer 1
 62
     7
370
     9
100
AcDbSpline
210
0.0
220
0.0
230
1.0
 70
    11
 71
     3
 72
    24
 73
    20
 74
     0
 42
0.0000000001
 43
0.0000000001
 12
1.0
 22
0.0
 32
0.0
 13
1.0
 23
0.0
 33
0.0
 40
0.0
 40
0.0
 40
0.0
 40
0.0
 40
0.1666666666666667
 40
0.1666666666666667
 40
0.1666666666666667
 40
0.1666666666666667
 40
0.3333333333333333
 40
0.3333333333333333
 40
0.3333333333333333
 40
0.3333333333333333
 40
0.5
 40
0.5
 40
0.5
 40
0.5
 40
0.6666666666666666
 40
0.6666666666666666
 40
0.6666666666666666
 40
0.6666666666666666
 40
1.0
 40
1.0
 40
1.0
 40
1.0
 10
141.7766
 20
-107.6423
 30
0.0
 10
141.7766
 20
-107.6423
 30
0.0
 10
142.9675
 20
-105.2621
 30
0.0
 10
142.9675
 20
-105.2621
 30
0.0
 10
142.9675
 20
-105.2621
 30
0.0
 10
139.6912
 20
-103.6061
 30
0.0
 10
138.7602
 20
-100.5568
 30
0.0
 10
139.3739
 20
-98.7268
 30
0.0
 10
139.3739
 20
-98.7268
 30
0.0
 10
137.2794
 20
-99.1482
 30
0.0
 10
134.2607
 20
-97.9044
 30
0.0
 10
132.6782
 20
-95.0798
 30
0.0
 10
132.6782
 20
-95.0798
 30
0.0
 10
132.6782
 20
-95.0798
 30
0.0
 10
130.3782
 20
-96.0835
 30
0.0
 10
130.3782
 20
-96.0835
 30
0.0
 10
130.3782
 20
-96.0835
 30
0.0
 10
133.5579
 20
-101.1204
 30
0.0
 10
136.3899
 20
-104.0142
 30
0.0
 10
141.7766
 20
-107.6423
 30
0.0
  0
SPLINE
  5
DE
330
1F
100
AcDbEntity
  8
layer 1
 62
     7
370
     9
100
AcDbSpline
210
0.0
220
0.0
230
1.0
 70
    11
 71
     3
 72
    32
 73
    28
 74
     0
 42
0.0000000001
 43
0.0000000001
 12
1.0
 22
0.0
 32
0.0
 13
1.0
 23
0.0
 33
0.0
 40
0.0
 40
0.0
 40
0.0
 40
0.0
 40
0.125
 40
0.125
 40
0.125
 40
0.125
 40
0.25
 40
0.25
 40
0.25
 40
0.25
 40
0.375
 40
0.375
 40
0.375
 40
0.375
 40
0.5
 40
0.5
 40
0.5
 40
0.5
 40
0.625
 40
0.625
 40
0.625
 40
0.625
 40
0.75
 40
0.75
 40
0.75
 40
0.75
 40
1.0
 40
1.0
 40
1.0
 40
1.0
 10
154.1728
 20
-90.5267
 30
0.0
 10
154.1728
 20
-90.5267
 30
0.0
 10
151.1367
 20
-91.3825
 30
0.0
 10
151.1367
 20
-91.3825
 30
0.0
 10
151.1367
 20
-91.3825
 30
0.0
 10
150.9819
 20
-89.8088
 30
0.0
 10
150.9649
 20
-89.1466
 30
0.0
 10
150.5675
 20
-87.5429
 30
0.0
 10
150.5675
 20
-87.5429
 30
0.0
 10
148.9638
 20
-87.1454
 30
0.0
 10
148.3017
 20
-87.1286
 30
0.0
 10
146.728
 20
-86.9736
 30
0.0
 10
146.728
 20
-86.9736
 30
0.0
 10
146.728
 20
-86.9736
 30
0.0
 10
147.5837
 20
-83.9375
 30
0.0
 10
147.5837
 20
-83.9375
 30
0.0
 10
147.5837
 20
-83.9375
 30
0.0
 10
149.427
 20
-85.0476
 30
0.0
 10
151.5487
 20
-85.4789
 30
0.0
 10
153.2317
 20
-84.8787
 30
0.0
 10
153.2317
 20
-84.8787
 30
0.0
 10
152.6315
 20
-86.5616
 30
0.0
 10
153.0628
 20
-88.6834
 30
0.0
 10
154.1729
 20
-90.5267
 30
0.0
 10
154.1729
 20
-90.5267
 30
0.0
 10
154.1729
 20
-90.5267
 30
0.0
 10
154.1728
 20
-90.5267
 30
0.0
 10
154.1728
 20
-90.5267
 30
0.0
  0
SPLINE
  5
DF
330
1F
100
AcDbEntity
  8
layer 1
 62
     7
370
     9
100
AcDbSpline
210
0.0
220
0.0
230
1.0
 70
    11
 71
     3
 72
    24
 73
    20
 74
     0
 42
0.0000000001
 43
0.0000000001
 12
1.0
 22
0.0
 32
0.0
 13
1.0
 23
0.0
 33
0.0
 40
0.0
 40
0.0
 40
0.0
 40
0.0
 40
0.1666666666666667
 40
0.1666666666666667
 40
0.1666666666666667
 40
0.1666666666666667
 40
0.3333333333333333
 40
0.3333333333333333
 40
0.3333333333333333
 40
0.3333333333333333
 40
0.5
 40
0.5
 40
0.5
 40
0.5
 40
0.6666666666666666
 40
0.6666666666666666
 40
0.6666666666666666
 40
0.6666666666666666
 40
1.0
 40
1.0
 40
1.0
 40
1.0
 10
149.0467
 20
-91.712
 30
0.0
 10
147.7789
 20
-91.8693
 30
0.0
 10
147.2537
 20
-91.9262
 30
0.0
 10
145.9537
 20
-92.2358
 30
0.0
 10
145.9537
 20
-92.2358
 30
0.0
 10
146.2633
 20
-90.9358
 30
0.0
 10
146.3202
 20
-90.4107
 30
0.0
 10
146.4775
 20
-89.1428
 30
0.0
 10
146.4775
 20
-89.1428
 30
0.0
 10
147.3381
 20
-88.8919
 30
0.0
 10
148.0301
 20
-88.9858
 30
0.0
 10
148.9655
 20
-89.2239
 30
0.0
 10
148.9655
 20
-89.2239
 30
0.0
 10
149.2036
 20
-90.1594
 30
0.0
 10
149.2975
 20
-90.8514
 30
0.0
 10
149.0466
 20
-91.7119
 30
0.0
 10
149.0466
 20
-91.7119
 30
0.0
 10
149.0466
 20
-91.7119
 30
0.0
 10
149.0467
 20
-91.712
 30
0.0
 10
149.0467
 20
-91.712
 30
0.0
  0
SPLINE
  5
E0
330
1F
100
AcDbEntity
  8
layer 1
 62
     7
370
     9
100
AcDbSpline
210
0.0
220
0.0
230
1.0
 70
    11
 71
     3
 72
    24
 73
    20
 74
     0
 42
0.0000000001
 43
0.0000000001
 12
1.0
 22
0.0
 32
0.0
 13
1.0
 23
0.0
 33
0.0
 40
0.0
 40
0.0
 40
0.0
 40
0.0
 40
0.1666666666666667
 40
0.1666666666666667
 40
0.1666666666666667
 40
0.1666666666666667
 40
0.3333333333333333
 40
0.3333333333333333
 40
0.3333333333333333
 40
0.3333333333333333
 40
0.5
 40
0.5
 40
0.5
 40
0.5
 40
0.6666666666666666
 40
0.6666666666666666
 40
0.6666666666666666
 40
0.6666666666666666
 40
1.0
 40
1.0
 40
1.0
 40
1.0
 10
143.3103
 20
-82.8527
 30
0.0
 10
142.4663
 20
-83.8118
 30
0.0
 10
141.1519
 20
-85.1501
 30
0.0
 10
140.164
 20
-86.05
 30
0.0
 10
140.164
 20
-86.05
 30
0.0
 10
141.6394
 20
-86.1346
 30
0.0
 10
142.5998
 20
-86.2497
 30
0.0
 10
144.3797
 20
-86.5599
 30
0.0
 10
144.3797
 20
-86.5599
 30
0.0
 10
144.7397
 20
-85.75
 30
0.0
 10
144.8507
 20
-85.2986
 30
0.0
 10
145.0736
 20
-84.3835
 30
0.0
 10
145.0736
 20
-84.3835
 30
0.0
 10
144.3257
 20
-83.6786
 30
0.0
 10
144.0045
 20
-83.2665
 30
0.0
 10
143.3103
 20
-82.8528
 30
0.0
 10
143.3103
 20
-82.8528
 30
0.0
 10
143.3103
 20
-82.8528
 30
0.0
 10
143.3103
 20
-82.8527
 30
0.0
 10
143.3103
 20
-82.8527
 30
0.0
  0
SPLINE
  5
E1
330
1F
100
AcDbEntity
  8
layer 1
 62
     7
370
     9
100
AcDbSpline
210
0.0
220
0.0
230
1.0
 70
    11
 71
     3
 72
    28
 73
    24
 74
     0
 42
0.0000000001
 43
0.0000000001
 12
1.0
 22
0.0
 32
0.0
 13
1.0
 23
0.0
 33
0.0
 40
0.0
 40
0.0
 40
0.0
 40
0.0
 40
0.1428571428571428
 40
0.1428571428571428
 40
0.1428571428571428
 40
0.1428571428571428
 40
0.2857142857142857
 40
0.2857142857142857
 40
0.2857142857142857
 40
0.2857142857142857
 40
0.4285714285714285
 40
0.4285714285714285
 40
0.4285714285714285
 40
0.4285714285714285
 40
0.5714285714285714
 40
0.5714285714285714
 40
0.5714285714285714
 40
0.5714285714285714
 40
0.7142857142857143
 40
0.7142857142857143
 40
0.7142857142857143
 40
0.7142857142857143
 40
1.0
 40
1.0
 40
1.0
 40
1.0
 10
126.8267
 20
-88.1709
 30
0.0
 10
126.8267
 20
-88.1709
 30
0.0
 10
129.007
 20
-87.2874
 30
0.0
 10
129.007
 20
-87.2874
 30
0.0
 10
129.007
 20
-87.2874
 30
0.0
 10
129.5647
 20
-88.0867
 30
0.0
 10
130.8721
 20
-89.4258
 30
0.0
 10
132.5463
 20
-89.5591
 30
0.0
 10
132.5463
 20
-89.5591
 30
0.0
 10
131.8883
 20
-90.5611
 30
0.0
 10
131.7845
 20
-92.1497
 30
0.0
 10
132.0272
 20
-93.1872
 30
0.0
 10
132.0272
 20
-93.1872
 30
0.0
 10
132.0272
 20
-93.1872
 30
0.0
 10
129.4147
 20
-94.3729
 30
0.0
 10
129.4147
 20
-94.3729
 30
0.0
 10
129.4147
 20
-94.3729
 30
0.0
 10
128.4768
 20
-92.5201
 30
0.0
 10
127.6951
 20
-90.8207
 30
0.0
 10
126.8267
 20
-88.171
 30
0.0
 10
126.8267
 20
-88.171
 30
0.0
 10
126.8267
 20
-88.171
 30
0.0
 10
126.8267
 20
-88.1709
 30
0.0
 10
126.8267
 20
-88.1709
 30
0.0
  0
SPLINE
  5
E2
330
1F
100
AcDbEntity
  8
layer 1
 62
     7
370
     9
100
AcDbSpline
210
0.0
220
0.0
230
1.0
 70
    11
 71
     3
 72
    12
 73
     8
 74
     0
 42
0.0000000001
 43
0.0000000001
 12
1.0
 22
0.0
 32
0.0
 13
1.0
 23
0.0
 33
0.0
 40
0.0
 40
0.0
 40
0.0
 40
0.0
 40
0.3333333333333333
 40
0.3333333333333333
 40
0.3333333333333333
 40
0.3333333333333333
 40
1.0
 40
1.0
 40
1.0
 40
1.0
 10
149.5353
 20
-82.6379
 30
0.0
 10
150.305
 20
-79.0539
 30
0.0
 10
153.9223
 20
-78.7506
 30
0.0
 10
156.4899
 20
-80.2592
 30
0.0
 10
156.4899
 20
-80.2592
 30
0.0
 10
155.3661
 20
-83.0304
 30
0.0
 10
152.3208
 20
-85.0059
 30
0.0
 10
149.5353
 20
-82.6379
 30
0.0
  0
SPLINE
  5
E3
330
1F
100
AcDbEntity
  8
layer 1
 62
     7
370
     9
100
AcDbSpline
210
0.0
220
0.0
230
1.0
 70
    11
 71
     3
 72
    36
 73
    32
 74
     0
 42
0.0000000001
 43
0.0000000001
 12
1.0
 22
0.0
 32
0.0
 13
1.0
 23
0.0
 33
0.0
 40
0.0
 40
0.0
 40
0.0
 40
0.0
 40
0.1111111111111111
 40
0.1111111111111111
 40
0.1111111111111111
 40
0.1111111111111111
 40
0.2222222222222222
 40
0.2222222222222222
 40
0.2222222222222222
 40
0.2222222222222222
 40
0.3333333333333333
 40
0.3333333333333333
 40
0.3333333333333333
 40
0.3333333333333333
 40
0.4444444444444444
 40
0.4444444444444444
 40
0.4444444444444444
 40
0.4444444444444444
 40
0.5555555555555556
 40
0.5555555555555556
 40
0.5555555555555556
 40
0.5555555555555556
 40
0.6666666666666666
 40
0.6666666666666666
 40
0.6666666666666666
 40
0.6666666666666666
 40
0.7777777777777778
 40
0.7777777777777778
 40
0.7777777777777778
 40
0.7777777777777778
 40
1.0
 40
1.0
 40
1.0
 40
1.0
 10
188.7769
 20
-72.3647
 30
0.0
 10
188.6
 20
-71.0868
 30
0.0
 10
186.5209
 20
-67.5705
 30
0.0
 10
182.6211
 20
-70.4826
 30
0.0
 10
182.6211
 20
-70.4826
 30
0.0
 10
181.5875
 20
-71.2545
 30
0.0
 10
179.065
 20
-73.609
 30
0.0
 10
177.6378
 20
-75.2769
 30
0.0
 10
177.6378
 20
-75.2769
 30
0.0
 10
179.4909
 20
-76.5292
 30
0.0
 10
180.4234
 20
-77.1212
 30
0.0
 10
182.5834
 20
-78.5147
 30
0.0
 10
182.5834
 20
-78.5147
 30
0.0
 10
180.4234
 20
-79.9082
 30
0.0
 10
179.4911
 20
-80.5001
 30
0.0
 10
177.6378
 20
-81.7524
 30
0.0
 10
177.6378
 20
-81.7524
 30
0.0
 10
179.065
 20
-83.4203
 30
0.0
 10
181.5875
 20
-85.7748
 30
0.0
 10
182.6211
 20
-86.5467
 30
0.0
 10
182.6211
 20
-86.5467
 30
0.0
 10
186.5209
 20
-89.4589
 30
0.0
 10
188.6
 20
-85.9425
 30
0.0
 10
188.7769
 20
-84.6646
 30
0.0
 10
188.7769
 20
-84.6646
 30
0.0
 10
189.3065
 20
-80.8405
 30
0.0
 10
186.8612
 20
-79.1895
 30
0.0
 10
185.1172
 20
-78.5147
 30
0.0
 10
185.1172
 20
-78.5147
 30
0.0
 10
186.8612
 20
-77.8398
 30
0.0
 10
189.3064
 20
-76.1889
 30
0.0
 10
188.7769
 20
-72.3647
 30
0.0
  0
SPLINE
  5
E4
330
1F
100
AcDbEntity
  8
layer 1
 62
     7
370
     9
100
AcDbSpline
210
0.0
220
0.0
230
1.0
 70
    11
 71
     3
 72
    28
 73
    24
 74
     0
 42
0.0000000001
 43
0.0000000001
 12
1.0
 22
0.0
 32
0.0
 13
1.0
 23
0.0
 33
0.0
 40
0.0
 40
0.0
 40
0.0
 40
0.0
 40
0.1428571428571428
 40
0.1428571428571428
 40
0.1428571428571428
 40
0.1428571428571428
 40
0.2857142857142857
 40
0.2857142857142857
 40
0.2857142857142857
 40
0.2857142857142857
 40
0.4285714285714285
 40
0.4285714285714285
 40
0.4285714285714285
 40
0.4285714285714285
 40
0.5714285714285714
 40
0.5714285714285714
 40
0.5714285714285714
 40
0.5714285714285714
 40
0.7142857142857143
 40
0.7142857142857143
 40
0.7142857142857143
 40
0.7142857142857143
 40
1.0
 40
1.0
 40
1.0
 40
1.0
 10
192.975
 20
-70.5493
 30
0.0
 10
192.975
 20
-70.5493
 30
0.0
 10
190.4499
 20
-71.3903
 30
0.0
 10
190.4499
 20
-71.3903
 30
0.0
 10
190.4499
 20
-71.3903
 30
0.0
 10
191.5956
 20
-74.878
 30
0.0
 10
190.0977
 20
-77.6924
 30
0.0
 10
188.3698
 20
-78.5525
 30
0.0
 10
188.3698
 20
-78.5525
 30
0.0
 10
190.1487
 20
-79.7356
 30
0.0
 10
191.4038
 20
-82.7496
 30
0.0
 10
190.5255
 20
-85.866
 30
0.0
 10
190.5255
 20
-85.866
 30
0.0
 10
190.5255
 20
-85.866
 30
0.0
 10
192.8615
 20
-86.7826
 30
0.0
 10
192.8615
 20
-86.7826
 30
0.0
 10
192.8615
 20
-86.7826
 30
0.0
 10
194.1748
 20
-80.9725
 30
0.0
 10
194.2184
 20
-76.9238
 30
0.0
 10
192.975
 20
-70.5494
 30
0.0
 10
192.975
 20
-70.5494
 30
0.0
 10
192.975
 20
-70.5494
 30
0.0
 10
192.975
 20
-70.5493
 30
0.0
 10
192.975
 20
-70.5493
 30
0.0
  0
SPLINE
  5
E5
330
1F
100
AcDbEntity
  8
layer 1
 62
     7
370
     9
100
AcDbSpline
210
0.0
220
0.0
230
1.0
 70
    11
 71
     3
 72
    28
 73
    24
 74
     0
 42
0.0000000001
 43
0.0000000001
 12
1.0
 22
0.0
 32
0.0
 13
1.0
 23
0.0
 33
0.0
 40
0.0
 40
0.0
 40
0.0
 40
0.0
 40
0.1428571428571428
 40
0.1428571428571428
 40
0.1428571428571428
 40
0.1428571428571428
 40
0.2857142857142857
 40
0.2857142857142857
 40
0.2857142857142857
 40
0.2857142857142857
 40
0.4285714285714285
 40
0.4285714285714285
 40
0.4285714285714285
 40
0.4285714285714285
 40
0.5714285714285714
 40
0.5714285714285714
 40
0.5714285714285714
 40
0.5714285714285714
 40
0.7142857142857143
 40
0.7142857142857143
 40
0.7142857142857143
 40
0.7142857142857143
 40
1.0
 40
1.0
 40
1.0
 40
1.0
 10
172.1071
 20
-73.8865
 30
0.0
 10
172.1071
 20
-73.8865
 30
0.0
 10
174.8591
 20
-75.4282
 30
0.0
 10
174.8591
 20
-75.4282
 30
0.0
 10
174.8591
 20
-75.4282
 30
0.0
 10
173.8558
 20
-76.6504
 30
0.0
 10
173.3996
 20
-77.1306
 30
0.0
 10
172.5466
 20
-78.5457
 30
0.0
 10
172.5466
 20
-78.5457
 30
0.0
 10
173.3996
 20
-79.9607
 30
0.0
 10
173.8558
 20
-80.4409
 30
0.0
 10
174.8591
 20
-81.6632
 30
0.0
 10
174.8591
 20
-81.6632
 30
0.0
 10
174.8591
 20
-81.6632
 30
0.0
 10
172.1071
 20
-83.2049
 30
0.0
 10
172.1071
 20
-83.2049
 30
0.0
 10
172.1071
 20
-83.2049
 30
0.0
 10
171.5886
 20
-81.1166
 30
0.0
 10
170.3933
 20
-79.3113
 30
0.0
 10
168.7789
 20
-78.5457
 30
0.0
 10
168.7789
 20
-78.5457
 30
0.0
 10
170.3933
 20
-77.7801
 30
0.0
 10
171.5886
 20
-75.9748
 30
0.0
 10
172.1071
 20
-73.8865
 30
0.0
  0
SPLINE
  5
E6
330
1F
100
AcDbEntity
  8
layer 1
 62
     7
370
     9
100
AcDbSpline
210
0.0
220
0.0
230
1.0
 70
    11
 71
     3
 72
    20
 73
    16
 74
     0
 42
0.0000000001
 43
0.0000000001
 12
1.0
 22
0.0
 32
0.0
 13
1.0
 23
0.0
 33
0.0
 40
0.0
 40
0.0
 40
0.0
 40
0.0
 40
0.2
 40
0.2
 40
0.2
 40
0.2
 40
0.4
 40
0.4
 40
0.4
 40
0.4
 40
0.6
 40
0.6
 40
0.6
 40
0.6
 40
1.0
 40
1.0
 40
1.0
 40
1.0
 10
176.5698
 20
-76.6729
 30
0.0
 10
177.5775
 20
-77.4583
 30
0.0
 10
177.9892
 20
-77.7893
 30
0.0
 10
179.1272
 20
-78.4896
 30
0.0
 10
179.1272
 20
-78.4896
 30
0.0
 10
177.9891
 20
-79.1899
 30
0.0
 10
177.5775
 20
-79.521
 30
0.0
 10
176.5698
 20
-80.3063
 30
0.0
 10
176.5698
 20
-80.3063
 30
0.0
 10
175.784
 20
-79.8751
 30
0.0
 10
175.3609
 20
-79.3194
 30
0.0
 10
174.8679
 20
-78.4896
 30
0.0
 10
174.8679
 20
-78.4896
 30
0.0
 10
175.3609
 20
-77.6598
 30
0.0
 10
175.7839
 20
-77.1041
 30
0.0
 10
176.5698
 20
-76.6729
 30
0.0
  0
SPLINE
  5
E7
330
1F
100
AcDbEntity
  8
layer 1
 62
     7
370
     9
100
AcDbSpline
210
0.0
220
0.0
230
1.0
 70
    11
 71
     3
 72
    36
 73
    32
 74
     0
 42
0.0000000001
 43
0.0000000001
 12
1.0
 22
0.0
 32
0.0
 13
1.0
 23
0.0
 33
0.0
 40
0.0
 40
0.0
 40
0.0
 40
0.0
 40
0.1111111111111111
 40
0.1111111111111111
 40
0.1111111111111111
 40
0.1111111111111111
 40
0.2222222222222222
 40
0.2222222222222222
 40
0.2222222222222222
 40
0.2222222222222222
 40
0.3333333333333333
 40
0.3333333333333333
 40
0.3333333333333333
 40
0.3333333333333333
 40
0.4444444444444444
 40
0.4444444444444444
 40
0.4444444444444444
 40
0.4444444444444444
 40
0.5555555555555556
 40
0.5555555555555556
 40
0.5555555555555556
 40
0.5555555555555556
 40
0.6666666666666666
 40
0.6666666666666666
 40
0.6666666666666666
 40
0.6666666666666666
 40
0.7777777777777778
 40
0.7777777777777778
 40
0.7777777777777778
 40
0.7777777777777778
 40
1.0
 40
1.0
 40
1.0
 40
1.0
 10
130.6414
 20
-72.3647
 30
0.0
 10
130.8184
 20
-71.0868
 30
0.0
 10
132.8975
 20
-67.5705
 30
0.0
 10
136.7972
 20
-70.4826
 30
0.0
 10
136.7972
 20
-70.4826
 30
0.0
 10
137.8309
 20
-71.2545
 30
0.0
 10
140.3534
 20
-73.609
 30
0.0
 10
141.7806
 20
-75.2769
 30
0.0
 10
141.7806
 20
-75.2769
 30
0.0
 10
139.9274
 20
-76.5292
 30
0.0
 10
138.995
 20
-77.1212
 30
0.0
 10
136.835
 20
-78.5147
 30
0.0
 10
136.835
 20
-78.5147
 30
0.0
 10
138.995
 20
-79.9082
 30
0.0
 10
139.9273
 20
-80.5001
 30
0.0
 10
141.7806
 20
-81.7524
 30
0.0
 10
141.7806
 20
-81.7524
 30
0.0
 10
140.3534
 20
-83.4203
 30
0.0
 10
137.8309
 20
-85.7748
 30
0.0
 10
136.7972
 20
-86.5467
 30
0.0
 10
136.7972
 20
-86.5467
 30
0.0
 10
132.8975
 20
-89.4589
 30
0.0
 10
130.8184
 20
-85.9425
 30
0.0
 10
130.6414
 20
-84.6646
 30
0.0
 10
130.6414
 20
-84.6646
 30
0.0
 10
130.1119
 20
-80.8405
 30
0.0
 10
132.5572
 20
-79.1895
 30
0.0
 10
134.3012
 20
-78.5147
 30
0.0
 10
134.3012
 20
-78.5147
 30
0.0
 10
132.5572
 20
-77.8398
 30
0.0
 10
130.112
 20
-76.1889
 30
0.0
 10
130.6414
 20
-72.3647
 30
0.0
  0
SPLINE
  5
E8
330
1F
100
AcDbEntity
  8
layer 1
 62
     7
370
     9
100
AcDbSpline
210
0.0
220
0.0
230
1.0
 70
    11
 71
     3
 72
    28
 73
    24
 74
     0
 42
0.0000000001
 43
0.0000000001
 12
1.0
 22
0.0
 32
0.0
 13
1.0
 23
0.0
 33
0.0
 40
0.0
 40
0.0
 40
0.0
 40
0.0
 40
0.1428571428571428
 40
0.1428571428571428
 40
0.1428571428571428
 40
0.1428571428571428
 40
0.2857142857142857
 40
0.2857142857142857
 40
0.2857142857142857
 40
0.2857142857142857
 40
0.4285714285714285
 40
0.4285714285714285
 40
0.4285714285714285
 40
0.4285714285714285
 40
0.5714285714285714
 40
0.5714285714285714
 40
0.5714285714285714
 40
0.5714285714285714
 40
0.7142857142857143
 40
0.7142857142857143
 40
0.7142857142857143
 40
0.7142857142857143
 40
1.0
 40
1.0
 40
1.0
 40
1.0
 10
126.4434
 20
-70.5493
 30
0.0
 10
126.4434
 20
-70.5493
 30
0.0
 10
128.9684
 20
-71.3903
 30
0.0
 10
128.9684
 20
-71.3903
 30
0.0
 10
128.9684
 20
-71.3903
 30
0.0
 10
127.8228
 20
-74.878
 30
0.0
 10
129.3207
 20
-77.6924
 30
0.0
 10
131.0486
 20
-78.5525
 30
0.0
 10
131.0486
 20
-78.5525
 30
0.0
 10
129.2696
 20
-79.7356
 30
0.0
 10
128.0146
 20
-82.7496
 30
0.0
 10
128.8928
 20
-85.866
 30
0.0
 10
128.8928
 20
-85.866
 30
0.0
 10
128.8928
 20
-85.866
 30
0.0
 10
126.5569
 20
-86.7826
 30
0.0
 10
126.5569
 20
-86.7826
 30
0.0
 10
126.5569
 20
-86.7826
 30
0.0
 10
125.2436
 20
-80.9725
 30
0.0
 10
125.2
 20
-76.9238
 30
0.0
 10
126.4434
 20
-70.5494
 30
0.0
 10
126.4434
 20
-70.5494
 30
0.0
 10
126.4434
 20
-70.5494
 30
0.0
 10
126.4434
 20
-70.5493
 30
0.0
 10
126.4434
 20
-70.5493
 30
0.0
  0
SPLINE
  5
E9
330
1F
100
AcDbEntity
  8
layer 1
 62
     7
370
     9
100
AcDbSpline
210
0.0
220
0.0
230
1.0
 70
    11
 71
     3
 72
    28
 73
    24
 74
     0
 42
0.0000000001
 43
0.0000000001
 12
1.0
 22
0.0
 32
0.0
 13
1.0
 23
0.0
 33
0.0
 40
0.0
 40
0.0
 40
0.0
 40
0.0
 40
0.1428571428571428
 40
0.1428571428571428
 40
0.1428571428571428
 40
0.1428571428571428
 40
0.2857142857142857
 40
0.2857142857142857
 40
0.2857142857142857
 40
0.2857142857142857
 40
0.4285714285714285
 40
0.4285714285714285
 40
0.4285714285714285
 40
0.4285714285714285
 40
0.5714285714285714
 40
0.5714285714285714
 40
0.5714285714285714
 40
0.5714285714285714
 40
0.7142857142857143
 40
0.7142857142857143
 40
0.7142857142857143
 40
0.7142857142857143
 40
1.0
 40
1.0
 40
1.0
 40
1.0
 10
147.3113
 20
-73.8865
 30
0.0
 10
147.3113
 20
-73.8865
 30
0.0
 10
144.5593
 20
-75.4282
 30
0.0
 10
144.5593
 20
-75.4282
 30
0.0
 10
144.5593
 20
-75.4282
 30
0.0
 10
145.5626
 20
-76.6504
 30
0.0
 10
146.0188
 20
-77.1306
 30
0.0
 10
146.8718
 20
-78.5457
 30
0.0
 10
146.8718
 20
-78.5457
 30
0.0
 10
146.0188
 20
-79.9607
 30
0.0
 10
145.5626
 20
-80.4409
 30
0.0
 10
144.5593
 20
-81.6632
 30
0.0
 10
144.5593
 20
-81.6632
 30
0.0
 10
144.5593
 20
-81.6632
 30
0.0
 10
147.3113
 20
-83.2049
 30
0.0
 10
147.3113
 20
-83.2049
 30
0.0
 10
147.3113
 20
-83.2049
 30
0.0
 10
147.8297
 20
-81.1166
 30
0.0
 10
149.025
 20
-79.3113
 30
0.0
 10
150.6395
 20
-78.5457
 30
0.0
 10
150.6395
 20
-78.5457
 30
0.0
 10
149.025
 20
-77.7801
 30
0.0
 10
147.8297
 20
-75.9748
 30
0.0
 10
147.3113
 20
-73.8865
 30
0.0
  0
SPLINE
  5
EA
330
1F
100
AcDbEntity
  8
layer 1
 62
     7
370
     9
100
AcDbSpline
210
0.0
220
0.0
230
1.0
 70
    11
 71
     3
 72
    20
 73
    16
 74
     0
 42
0.0000000001
 43
0.0000000001
 12
1.0
 22
0.0
 32
0.0
 13
1.0
 23
0.0
 33
0.0
 40
0.0
 40
0.0
 40
0.0
 40
0.0
 40
0.2
 40
0.2
 40
0.2
 40
0.2
 40
0.4
 40
0.4
 40
0.4
 40
0.4
 40
0.6
 40
0.6
 40
0.6
 40
0.6
 40
1.0
 40
1.0
 40
1.0
 40
1.0
 10
142.8486
 20
-76.6729
 30
0.0
 10
141.8409
 20
-77.4583
 30
0.0
 10
141.4292
 20
-77.7893
 30
0.0
 10
140.2912
 20
-78.4896
 30
0.0
 10
140.2912
 20
-78.4896
 30
0.0
 10
141.4293
 20
-79.1899
 30
0.0
 10
141.8409
 20
-79.521
 30
0.0
 10
142.8486
 20
-80.3063
 30
0.0
 10
142.8486
 20
-80.3063
 30
0.0
 10
143.6344
 20
-79.8751
 30
0.0
 10
144.0575
 20
-79.3194
 30
0.0
 10
144.5505
 20
-78.4896
 30
0.0
 10
144.5505
 20
-78.4896
 30
0.0
 10
143.9612
 20
-77.6919
 30
0.0
 10
143.6024
 20
-77.2645
 30
0.0
 10
142.8486
 20
-76.6729
 30
0.0
  0
ENDSEC
  0
SECTION
  2
OBJECTS
  0
DICTIONARY
  5
C
330
0
100
AcDbDictionary
281
     1
  3
ACAD_GROUP
350
D
  3
ACAD_LAYOUT
350
1A
  3
ACAD_MATERIAL
350
3B
  3
ACAD_MLEADERSTYLE
350
10D
  3
ACAD_MLINESTYLE
350
17
  3
ACAD_PLOTSETTINGS
350
19
  3
ACAD_PLOTSTYLENAME
350
E
  3
ACAD_TABLESTYLE
350
10C
  3
ACAD_VISUALSTYLE
350
2A
  0
DICTIONARY
  5
D
102
{ACAD_REACTORS
330
C
102
}
330
C
100
AcDbDictionary
281
     1
  0
DICTIONARY
  5
1A
102
{ACAD_REACTORS
330
C
102
}
330
C
100
AcDbDictionary
281
     1
  3
Layout1
350
1E
  3
Layout2
350
26
  3
Model
350
22
  0
DICTIONARY
  5
3B
102
{ACAD_REACTORS
330
C
102
}
330
C
100
AcDbDictionary
281
     1
  3
ByBlock
350
3D
  3
ByLayer
350
3C
  3
Global
350
3E
  0
DICTIONARY
  5
10D
102
{ACAD_REACTORS
330
C
102
}
330
C
100
AcDbDictionary
281
     1
  0
DICTIONARY
  5
17
102
{ACAD_REACTORS
330
C
102
}
330
C
100
AcDbDictionary
281
     1
  3
Standard
350
18
  0
DICTIONARY
  5
19
102
{ACAD_REACTORS
330
C
102
}
330
C
100
AcDbDictionary
281
     1
  0
ACDBDICTIONARYWDFLT
  5
E
102
{ACAD_REACTORS
330
C
102
}
330
C
100
AcDbDictionary
281
     1
  3
Normal
350
F
100
AcDbDictionaryWithDefault
340
F
  0
DICTIONARY
  5
10C
102
{ACAD_REACTORS
330
C
102
}
330
C
100
AcDbDictionary
281
     1
  0
DICTIONARY
  5
2A
102
{ACAD_REACTORS
330
C
102
}
330
C
100
AcDbDictionary
281
     1
  3
2dWireframe
350
2F
  3
3D Hidden
350
31
  3
3dWireframe
350
30
  3
Basic
350
32
  3
Brighten
350
36
  3
ColorChange
350
3A
  3
Conceptual
350
34
  3
Dim
350
35
  3
Facepattern
350
39
  3
Flat
350
2B
  3
FlatWithEdges
350
2C
  3
Gouraud
350
2D
  3
GouraudWithEdges
350
2E
  3
Linepattern
350
38
  3
Realistic
350
33
  3
Thicken
350
37
  0
LAYOUT
  5
1E
102
{ACAD_REACTORS
330
1A
102
}
330
1A
100
AcDbPlotSettings
  1

  2
none_device
  4

  6

 40
0.0
 41
0.0
 42
0.0
 43
0.0
 44
0.0
 45
0.0
 46
0.0
 47
0.0
 48
0.0
 49
0.0
140
0.0
141
0.0
142
1.0
143
1.0
 70
   688
 72
     0
 73
     0
 74
     5
  7

 75
    16
 76
     0
 77
     2
 78
   300
147
1.0
148
0.0
149
0.0
100
AcDbLayout
  1
Layout1
 70
     1
 71
     1
 10
0.0
 20
0.0
 11
12.0
 21
9.0
 12
0.0
 22
0.0
 32
0.0
 14
1.000000000000000E+20
 24
1.000000000000000E+20
 34
1.000000000000000E+20
 15
-1.000000000000000E+20
 25
-1.000000000000000E+20
 35
-1.000000000000000E+20
146
0.0
 13
0.0
 23
0.0
 33
0.0
 16
1.0
 26
0.0
 36
0.0
 17
0.0
 27
1.0
 37
0.0
 76
     0
330
1B
  0
LAYOUT
  5
26
102
{ACAD_REACTORS
330
1A
102
}
330
1A
100
AcDbPlotSettings
  1

  2
none_device
  4

  6

 40
0.0
 41
0.0
 42
0.0
 43
0.0
 44
0.0
 45
0.0
 46
0.0
 47
0.0
 48
0.0
 49
0.0
140
0.0
141
0.0
142
1.0
143
1.0
 70
   688
 72
     0
 73
     0
 74
     5
  7

 75
    16
 76
     0
 77
     2
 78
   300
147
1.0
148
0.0
149
0.0
100
AcDbLayout
  1
Layout2
 70
     1
 71
     2
 10
0.0
 20
0.0
 11
0.0
 21
0.0
 12
0.0
 22
0.0
 32
0.0
 14
0.0
 24
0.0
 34
0.0
 15
0.0
 25
0.0
 35
0.0
146
0.0
 13
0.0
 23
0.0
 33
0.0
 16
1.0
 26
0.0
 36
0.0
 17
0.0
 27
1.0
 37
0.0
 76
     0
330
23
  0
LAYOUT
  5
22
102
{ACAD_REACTORS
330
1A
102
}
330
1A
100
AcDbPlotSettings
  1

  2
none_device
  4

  6

 40
0.0
 41
0.0
 42
0.0
 43
0.0
 44
0.0
 45
0.0
 46
0.0
 47
0.0
 48
0.0
 49
0.0
140
0.0
141
0.0
142
1.0
143
1.0
 70
  1712
 72
     0
 73
     0
 74
     0
  7

 75
     0
 76
     0
 77
     2
 78
   300
147
1.0
148
0.0
149
0.0
100
AcDbLayout
  1
Model
 70
     1
 71
     0
 10
0.0
 20
0.0
 11
12.0
 21
9.0
 12
0.0
 22
0.0
 32
0.0
 14
44.839
 24
-115.1518
 34
0.0
 15
196.3092
 25
131.8392
 35
0.0
146
0.0
 13
0.0
 23
0.0
 33
0.0
 16
1.0
 26
0.0
 36
0.0
 17
0.0
 27
1.0
 37
0.0
 76
     0
330
1F
331
29
  0
MATERIAL
  5
3D
102
{ACAD_REACTORS
330
3B
102
}
330
3B
100
AcDbMaterial
  1
ByBlock
 72
     1
 94
      127
  0
MATERIAL
  5
3C
102
{ACAD_REACTORS
330
3B
102
}
330
3B
100
AcDbMaterial
  1
ByLayer
 72
     1
 94
      127
  0
MATERIAL
  5
3E
102
{ACAD_REACTORS
330
3B
102
}
330
3B
100
AcDbMaterial
  1
Global
 72
     1
 94
      127
  0
MLINESTYLE
  5
18
102
{ACAD_REACTORS
330
17
102
}
330
17
100
AcDbMlineStyle
  2
Standard
 70
     0
  3

 62
   256
 51
90.0
 52
90.0
 71
     2
 49
0.5
 62
   256
  6
BYLAYER
 49
-0.5
 62
   256
  6
BYLAYER
  0
ACDBPLACEHOLDER
  5
F
102
{ACAD_REACTORS
330
E
102
}
330
E
  0
VISUALSTYLE
  5
2F
102
{ACAD_REACTORS
330
2A
102
}
102
{ACAD_XDICTIONARY
360
F4
102
}
330
2A
100
AcDbVisualStyle
  2
2dWireframe
 70
     4
 71
     0
 72
     2
 73
     0
 90
        0
 40
-0.6
 41
-30.0
 62
     5
 63
     7
421
 16777215
 74
     1
 91
        4
 64
     7
 65
   257
 75
     1
175
     1
 42
1.0
 92
        0
 66
   257
 43
1.0
 76
     1
 77
     6
 78
     2
 67
     7
 79
     5
170
     0
171
     0
290
     0
174
     0
 93
        1
 44
0.0
173
     0
291
     0
 45
0.0
  0
VISUALSTYLE
  5
31
102
{ACAD_REACTORS
330
2A
102
}
102
{ACAD_XDICTIONARY
360
F8
102
}
330
2A
100
AcDbVisualStyle
  2
3D Hidden
 70
     6
 71
     1
 72
     2
 73
     2
 90
        0
 40
-0.6
 41
-30.0
 62
     5
 63
     7
421
 16777215
 74
     2
 91
        2
 64
     7
 65
   257
 75
     2
175
     1
 42
40.0
 92
        0
 66
   257
 43
1.0
 76
     1
 77
     6
 78
     2
 67
     7
 79
     3
170
     0
171
     0
290
     0
174
     0
 93
        1
 44
0.0
173
     0
291
     0
 45
0.0
  0
VISUALSTYLE
  5
30
102
{ACAD_REACTORS
330
2A
102
}
102
{ACAD_XDICTIONARY
360
F6
102
}
330
2A
100
AcDbVisualStyle
  2
3dWireframe
 70
     5
 71
     0
 72
     2
 73
     0
 90
        0
 40
-0.6
 41
-30.0
 62
     5
 63
     7
421
 16777215
 74
     1
 91
        4
 64
     7
 65
   257
 75
     1
175
     1
 42
1.0
 92
        0
 66
   257
 43
1.0
 76
     1
 77
     6
 78
     2
 67
     7
 79
     5
170
     0
171
     0
290
     0
174
     0
 93
        1
 44
0.0
173
     0
291
     0
 45
0.0
  0
VISUALSTYLE
  5
32
102
{ACAD_REACTORS
330
2A
102
}
102
{ACAD_XDICTIONARY
360
FA
102
}
330
2A
100
AcDbVisualStyle
  2
Basic
 70
     7
 71
     1
 72
     0
 73
     1
 90
        0
 40
-0.6
 41
-30.0
 62
     5
 63
     7
421
 16777215
 74
     0
 91
        4
 64
     7
 65
   257
 75
     1
175
     1
 42
1.0
 92
        8
 66
     7
 43
1.0
 76
     1
 77
     6
 78
     2
 67
     7
 79
     5
170
     0
171
     0
290
     0
174
     0
 93
        1
 44
0.0
173
     0
291
     1
 45
0.0
  0
VISUALSTYLE
  5
36
102
{ACAD_REACTORS
330
2A
102
}
102
{ACAD_XDICTIONARY
360
102
102
}
330
2A
100
AcDbVisualStyle
  2
Brighten
 70
    12
 71
     2
 72
     2
 73
     0
 90
        0
 40
-0.6
 41
-30.0
 62
     5
 63
     7
421
 16777215
 74
     1
 91
        4
 64
     7
 65
   257
 75
     1
175
     1
 42
1.0
 92
        8
 66
     7
 43
1.0
 76
     1
 77
     6
 78
     2
 67
     7
 79
     5
170
     0
171
     0
290
     0
174
     0
 93
        1
 44
50.0
173
     0
291
     1
 45
0.0
  0
VISUALSTYLE
  5
3A
102
{ACAD_REACTORS
330
2A
102
}
102
{ACAD_XDICTIONARY
360
10A
102
}
330
2A
100
AcDbVisualStyle
  2
ColorChange
 70
    16
 71
     2
 72
     2
 73
     3
 90
        0
 40
-0.6
 41
-30.0
 62
     5
 63
     8
421
  8421504
 74
     1
 91
        4
 64
     7
 65
   257
 75
     1
175
     1
 42
1.0
 92
        8
 66
     8
424
  8421504
 43
1.0
 76
     1
 77
     6
 78
     2
 67
     7
 79
     5
170
     0
171
     0
290
     0
174
     0
 93
        1
 44
0.0
173
     0
291
     1
 45
0.0
  0
VISUALSTYLE
  5
34
102
{ACAD_REACTORS
330
2A
102
}
102
{ACAD_XDICTIONARY
360
FE
102
}
330
2A
100
AcDbVisualStyle
  2
Conceptual
 70
     9
 71
     3
 72
     2
 73
     0
 90
        0
 40
-0.6
 41
-30.0
 62
     5
 63
     7
421
 16777215
 74
     2
 91
        2
 64
     7
 65
   257
 75
     1
175
     1
 42
40.0
 92
        8
 66
     7
 43
1.0
 76
     1
 77
     6
 78
     2
 67
     7
 79
     3
170
     0
171
     0
290
     0
174
     0
 93
        1
 44
0.0
173
     0
291
     0
 45
0.0
  0
VISUALSTYLE
  5
35
102
{ACAD_REACTORS
330
2A
102
}
102
{ACAD_XDICTIONARY
360
100
102
}
330
2A
100
AcDbVisualStyle
  2
Dim
 70
    11
 71
     2
 72
     2
 73
     0
 90
        0
 40
-0.6
 41
-30.0
 62
     5
 63
     7
421
 16777215
 74
     1
 91
        4
 64
     7
 65
   257
 75
     1
175
     1
 42
1.0
 92
        8
 66
     7
 43
1.0
 76
     1
 77
     6
 78
     2
 67
     7
 79
     5
170
     0
171
     0
290
     0
174
     0
 93
        1
 44
-50.0
173
     0
291
     1
 45
0.0
  0
VISUALSTYLE
  5
39
102
{ACAD_REACTORS
330
2A
102
}
102
{ACAD_XDICTIONARY
360
108
102
}
330
2A
100
AcDbVisualStyle
  2
Facepattern
 70
    15
 71
     2
 72
     2
 73
     0
 90
        0
 40
-0.6
 41
-30.0
 62
     5
 63
     7
421
 16777215
 74
     1
 91
        4
 64
     7
 65
   257
 75
     1
175
     1
 42
1.0
 92
        8
 66
     7
 43
1.0
 76
     1
 77
     6
 78
     2
 67
     7
 79
     5
170
     0
171
     0
290
     0
174
     0
 93
        1
 44
0.0
173
     0
291
     1
 45
0.0
  0
VISUALSTYLE
  5
2B
102
{ACAD_REACTORS
330
2A
102
}
102
{ACAD_XDICTIONARY
360
EC
102
}
330
2A
100
AcDbVisualStyle
  2
Flat
 70
     0
 71
     2
 72
     1
 73
     1
 90
        2
 40
-0.6
 41
30.0
 62
     5
 63
     7
421
 16777215
 74
     0
 91
        4
 64
     7
 65
   257
 75
     1
175
     1
 42
1.0
 92
        8
 66
     7
 43
1.0
 76
     1
 77
     6
 78
     2
 67
     7
 79
     5
170
     0
171
     0
290
     0
174
     0
 93
       13
 44
0.0
173
     0
291
     1
 45
0.0
  0
VISUALSTYLE
  5
2C
102
{ACAD_REACTORS
330
2A
102
}
102
{ACAD_XDICTIONARY
360
EE
102
}
330
2A
100
AcDbVisualStyle
  2
FlatWithEdges
 70
     1
 71
     2
 72
     1
 73
     1
 90
        2
 40
-0.6
 41
30.0
 62
     5
 63
     7
421
 16777215
 74
     1
 91
        4
 64
     7
 65
   257
 75
     1
175
     1
 42
1.0
 92
        0
 66
   257
 43
1.0
 76
     1
 77
     6
 78
     2
 67
     7
 79
     5
170
     0
171
     0
290
     0
174
     0
 93
       13
 44
0.0
173
     0
291
     1
 45
0.0
  0
VISUALSTYLE
  5
2D
102
{ACAD_REACTORS
330
2A
102
}
102
{ACAD_XDICTIONARY
360
F0
102
}
330
2A
100
AcDbVisualStyle
  2
Gouraud
 70
     2
 71
     2
 72
     2
 73
     1
 90
        2
 40
-0.6
 41
30.0
 62
     5
 63
     7
421
 16777215
 74
     0
 91
        4
 64
     7
 65
   257
 75
     1
175
     1
 42
1.0
 92
        0
 66
     7
 43
1.0
 76
     1
 77
     6
 78
     2
 67
     7
 79
     5
170
     0
171
     0
290
     0
174
     0
 93
       13
 44
0.0
173
     0
291
     1
 45
0.0
  0
VISUALSTYLE
  5
2E
102
{ACAD_REACTORS
330
2A
102
}
102
{ACAD_XDICTIONARY
360
F2
102
}
330
2A
100
AcDbVisualStyle
  2
GouraudWithEdges
 70
     3
 71
     2
 72
     2
 73
     1
 90
        2
 40
-0.6
 41
30.0
 62
     5
 63
     7
421
 16777215
 74
     1
 91
        4
 64
     7
 65
   257
 75
     1
175
     1
 42
1.0
 92
        0
 66
   257
 43
1.0
 76
     1
 77
     6
 78
     2
 67
     7
 79
     5
170
     0
171
     0
290
     0
174
     0
 93
       13
 44
0.0
173
     0
291
     1
 45
0.0
  0
VISUALSTYLE
  5
38
102
{ACAD_REACTORS
330
2A
102
}
102
{ACAD_XDICTIONARY
360
106
102
}
330
2A
100
AcDbVisualStyle
  2
Linepattern
 70
    14
 71
     2
 72
     2
 73
     0
 90
        0
 40
-0.6
 41
-30.0
 62
     5
 63
     7
421
 16777215
 74
     1
 91
        4
 64
     7
 65
   257
 75
     7
175
     7
 42
1.0
 92
        8
 66
     7
 43
1.0
 76
     1
 77
     6
 78
     2
 67
     7
 79
     5
170
     0
171
     0
290
     0
174
     0
 93
        1
 44
0.0
173
     0
291
     1
 45
0.0
  0
VISUALSTYLE
  5
33
102
{ACAD_REACTORS
330
2A
102
}
102
{ACAD_XDICTIONARY
360
FC
102
}
330
2A
100
AcDbVisualStyle
  2
Realistic
 70
     8
 71
     2
 72
     2
 73
     0
 90
        0
 40
-0.6
 41
-30.0
 62
     5
 63
     7
421
 16777215
 74
     1
 91
        0
 64
     7
 65
   257
 75
     1
175
     1
 42
1.0
 92
        8
 66
     8
424
  7895160
 43
1.0
 76
     1
 77
     6
 78
     2
 67
     7
 79
     5
170
     0
171
     0
290
     0
174
     0
 93
       13
 44
0.0
173
     0
291
     0
 45
0.0
  0
VISUALSTYLE
  5
37
102
{ACAD_REACTORS
330
2A
102
}
102
{ACAD_XDICTIONARY
360
104
102
}
330
2A
100
AcDbVisualStyle
  2
Thicken
 70
    13
 71
     2
 72
     2
 73
     0
 90
        0
 40
-0.6
 41
-30.0
 62
     5
 63
     7
421
 16777215
 74
     1
 91
        4
 64
     7
 65
   257
 75
     1
175
     1
 42
1.0
 92
       12
 66
     7
 43
1.0
 76
     1
 77
     6
 78
     2
 67
     7
 79
     5
170
     0
171
     0
290
     0
174
     0
 93
        1
 44
0.0
173
     0
291
     1
 45
0.0
  0
DICTIONARY
  5
F4
330
2F
100
AcDbDictionary
280
     1
281
     1
  3
ACAD_XREC_ROUNDTRIP
360
F5
  0
DICTIONARY
  5
F8
330
31
100
AcDbDictionary
280
     1
281
     1
  3
ACAD_XREC_ROUNDTRIP
360
F9
  0
DICTIONARY
  5
F6
330
30
100
AcDbDictionary
280
     1
281
     1
  3
ACAD_XREC_ROUNDTRIP
360
F7
  0
DICTIONARY
  5
FA
330
32
100
AcDbDictionary
280
     1
281
     1
  3
ACAD_XREC_ROUNDTRIP
360
FB
  0
DICTIONARY
  5
102
330
36
100
AcDbDictionary
280
     1
281
     1
  3
ACAD_XREC_ROUNDTRIP
360
103
  0
DICTIONARY
  5
10A
330
3A
100
AcDbDictionary
280
     1
281
     1
  3
ACAD_XREC_ROUNDTRIP
360
10B
  0
DICTIONARY
  5
FE
330
34
100
AcDbDictionary
280
     1
281
     1
  3
ACAD_XREC_ROUNDTRIP
360
FF
  0
DICTIONARY
  5
100
330
35
100
AcDbDictionary
280
     1
281
     1
  3
ACAD_XREC_ROUNDTRIP
360
101
  0
DICTIONARY
  5
108
330
39
100
AcDbDictionary
280
     1
281
     1
  3
ACAD_XREC_ROUNDTRIP
360
109
  0
DICTIONARY
  5
EC
330
2B
100
AcDbDictionary
280
     1
281
     1
  3
ACAD_XREC_ROUNDTRIP
360
ED
  0
DICTIONARY
  5
EE
330
2C
100
AcDbDictionary
280
     1
281
     1
  3
ACAD_XREC_ROUNDTRIP
360
EF
  0
DICTIONARY
  5
F0
330
2D
100
AcDbDictionary
280
     1
281
     1
  3
ACAD_XREC_ROUNDTRIP
360
F1
  0
DICTIONARY
  5
F2
330
2E
100
AcDbDictionary
280
     1
281
     1
  3
ACAD_XREC_ROUNDTRIP
360
F3
  0
DICTIONARY
  5
106
330
38
100
AcDbDictionary
280
     1
281
     1
  3
ACAD_XREC_ROUNDTRIP
360
107
  0
DICTIONARY
  5
FC
330
33
100
AcDbDictionary
280
     1
281
     1
  3
ACAD_XREC_ROUNDTRIP
360
FD
  0
DICTIONARY
  5
104
330
37
100
AcDbDictionary
280
     1
281
     1
  3
ACAD_XREC_ROUNDTRIP
360
105
  0
XRECORD
  5
F5
102
{ACAD_REACTORS
330
F4
102
}
330
F4
100
AcDbXrecord
280
     1
102
RTVSPropertyOp0
 70
     1
102
RTVSPropertyOp1
 70
     1
102
RTVSPropertyOp2
 70
     1
102
RTVSPropertyOp3
 70
     1
102
RTVSPropertyOp4
 70
     1
102
RTVSPropertyOp5
 70
     1
102
RTVSPropertyOp6
 70
     1
102
RTVSPropertyOp7
 70
     1
102
RTVSPropertyOp8
 70
     1
102
RTVSPropertyOp9
 70
     1
102
RTVSPropertyOp10
 70
     1
102
RTVSPropertyOp11
 70
     1
102
RTVSPropertyOp12
 70
     1
102
RTVSPropertyOp13
 70
     1
102
RTVSPropertyOp14
 70
     1
102
RTVSPropertyOp15
 70
     1
102
RTVSPropertyOp16
 70
     1
102
RTVSPropertyOp17
 70
     1
102
RTVSPropertyOp18
 70
     1
102
RTVSPropertyOp19
 70
     1
102
RTVSPropertyOp20
 70
     1
102
RTVSPropertyOp21
 70
     1
102
RTVSPropertyOp22
 70
     1
102
RTVSPropertyOp23
 70
     1
102
RTVSPropertyOp24
 70
     1
102
RTVSPropertyOp25
 70
     1
102
RTVSPropertyOp26
 70
     1
102
RTVSPropertyOp27
 70
     1
102
RTVSPropertyOp28
 70
     1
102
RTVSPropertyOp29
 70
     1
102
RTVSPropertyOp30
 70
     1
102
RTVSPropertyOp31
 70
     1
102
RTVSPropertyOp32
 70
     1
  0
XRECORD
  5
F9
102
{ACAD_REACTORS
330
F8
102
}
330
F8
100
AcDbXrecord
280
     1
102
RTVSPropertyOp0
 70
     1
102
RTVSPropertyOp1
 70
     1
102
RTVSPropertyOp2
 70
     1
102
RTVSPropertyOp3
 70
     1
102
RTVSPropertyOp4
 70
     1
102
RTVSPropertyOp5
 70
     1
102
RTVSPropertyOp6
 70
     1
102
RTVSPropertyOp7
 70
     1
102
RTVSPropertyOp8
 70
     1
102
RTVSPropertyOp9
 70
     1
102
RTVSPropertyOp10
 70
     1
102
RTVSPropertyOp11
 70
     1
102
RTVSPropertyOp12
 70
     1
102
RTVSPropertyOp13
 70
     1
102
RTVSPropertyOp14
 70
     1
102
RTVSPropertyOp15
 70
     1
102
RTVSPropertyOp16
 70
     1
102
RTVSPropertyOp17
 70
     1
102
RTVSPropertyOp18
 70
     1
102
RTVSPropertyOp19
 70
     1
102
RTVSPropertyOp20
 70
     1
102
RTVSPropertyOp21
 70
     1
102
RTVSPropertyOp22
 70
     1
102
RTVSPropertyOp23
 70
     1
102
RTVSPropertyOp24
 70
     1
102
RTVSPropertyOp25
 70
     1
102
RTVSPropertyOp26
 70
     1
102
RTVSPropertyOp27
 70
     1
102
RTVSPropertyOp28
 70
     1
102
RTVSPropertyOp29
 70
     1
102
RTVSPropertyOp30
 70
     1
102
RTVSPropertyOp31
 70
     1
102
RTVSPropertyOp32
 70
     1
  0
XRECORD
  5
F7
102
{ACAD_REACTORS
330
F6
102
}
330
F6
100
AcDbXrecord
280
     1
102
RTVSPropertyOp0
 70
     1
102
RTVSPropertyOp1
 70
     1
102
RTVSPropertyOp2
 70
     1
102
RTVSPropertyOp3
 70
     1
102
RTVSPropertyOp4
 70
     1
102
RTVSPropertyOp5
 70
     1
102
RTVSPropertyOp6
 70
     1
102
RTVSPropertyOp7
 70
     1
102
RTVSPropertyOp8
 70
     1
102
RTVSPropertyOp9
 70
     1
102
RTVSPropertyOp10
 70
     1
102
RTVSPropertyOp11
 70
     1
102
RTVSPropertyOp12
 70
     1
102
RTVSPropertyOp13
 70
     1
102
RTVSPropertyOp14
 70
     1
102
RTVSPropertyOp15
 70
     1
102
RTVSPropertyOp16
 70
     1
102
RTVSPropertyOp17
 70
     1
102
RTVSPropertyOp18
 70
     1
102
RTVSPropertyOp19
 70
     1
102
RTVSPropertyOp20
 70
     1
102
RTVSPropertyOp21
 70
     1
102
RTVSPropertyOp22
 70
     1
102
RTVSPropertyOp23
 70
     1
102
RTVSPropertyOp24
 70
     1
102
RTVSPropertyOp25
 70
     1
102
RTVSPropertyOp26
 70
     1
102
RTVSPropertyOp27
 70
     1
102
RTVSPropertyOp28
 70
     1
102
RTVSPropertyOp29
 70
     1
102
RTVSPropertyOp30
 70
     1
102
RTVSPropertyOp31
 70
     1
102
RTVSPropertyOp32
 70
     1
  0
XRECORD
  5
FB
102
{ACAD_REACTORS
330
FA
102
}
330
FA
100
AcDbXrecord
280
     1
102
RTVSPropertyOp0
 70
     1
102
RTVSPropertyOp1
 70
     1
102
RTVSPropertyOp2
 70
     1
102
RTVSPropertyOp3
 70
     1
102
RTVSPropertyOp4
 70
     1
102
RTVSPropertyOp5
 70
     1
102
RTVSPropertyOp6
 70
     1
102
RTVSPropertyOp7
 70
     1
102
RTVSPropertyOp8
 70
     1
102
RTVSPropertyOp9
 70
     1
102
RTVSPropertyOp10
 70
     1
102
RTVSPropertyOp11
 70
     1
102
RTVSPropertyOp12
 70
     1
102
RTVSPropertyOp13
 70
     1
102
RTVSPropertyOp14
 70
     1
102
RTVSPropertyOp15
 70
     1
102
RTVSPropertyOp16
 70
     1
102
RTVSPropertyOp17
 70
     1
102
RTVSPropertyOp18
 70
     1
102
RTVSPropertyOp19
 70
     1
102
RTVSPropertyOp20
 70
     1
102
RTVSPropertyOp21
 70
     1
102
RTVSPropertyOp22
 70
     1
102
RTVSPropertyOp23
 70
     1
102
RTVSPropertyOp24
 70
     1
102
RTVSPropertyOp25
 70
     1
102
RTVSPropertyOp26
 70
     1
102
RTVSPropertyOp27
 70
     1
102
RTVSPropertyOp28
 70
     1
102
RTVSPropertyOp29
 70
     1
102
RTVSPropertyOp30
 70
     1
102
RTVSPropertyOp31
 70
     1
102
RTVSPropertyOp32
 70
     1
  0
XRECORD
  5
103
102
{ACAD_REACTORS
330
102
102
}
330
102
100
AcDbXrecord
280
     1
102
RTVSPropertyOp0
 70
     1
102
RTVSPropertyOp1
 70
     1
102
RTVSPropertyOp2
 70
     1
102
RTVSPropertyOp3
 70
     1
102
RTVSPropertyOp4
 70
     1
102
RTVSPropertyOp5
 70
     1
102
RTVSPropertyOp6
 70
     1
102
RTVSPropertyOp7
 70
     1
102
RTVSPropertyOp8
 70
     1
102
RTVSPropertyOp9
 70
     1
102
RTVSPropertyOp10
 70
     1
102
RTVSPropertyOp11
 70
     1
102
RTVSPropertyOp12
 70
     1
102
RTVSPropertyOp13
 70
     1
102
RTVSPropertyOp14
 70
     1
102
RTVSPropertyOp15
 70
     1
102
RTVSPropertyOp16
 70
     1
102
RTVSPropertyOp17
 70
     1
102
RTVSPropertyOp18
 70
     1
102
RTVSPropertyOp19
 70
     1
102
RTVSPropertyOp20
 70
     1
102
RTVSPropertyOp21
 70
     1
102
RTVSPropertyOp22
 70
     1
102
RTVSPropertyOp23
 70
     1
102
RTVSPropertyOp24
 70
     1
102
RTVSPropertyOp25
 70
     1
102
RTVSPropertyOp26
 70
     1
102
RTVSPropertyOp27
 70
     1
102
RTVSPropertyOp28
 70
     1
102
RTVSPropertyOp29
 70
     1
102
RTVSPropertyOp30
 70
     1
102
RTVSPropertyOp31
 70
     1
102
RTVSPropertyOp32
 70
     1
  0
XRECORD
  5
10B
102
{ACAD_REACTORS
330
10A
102
}
330
10A
100
AcDbXrecord
280
     1
102
RTVSPropertyOp0
 70
     1
102
RTVSPropertyOp1
 70
     1
102
RTVSPropertyOp2
 70
     1
102
RTVSPropertyOp3
 70
     1
102
RTVSPropertyOp4
 70
     1
102
RTVSPropertyOp5
 70
     1
102
RTVSPropertyOp6
 70
     1
102
RTVSPropertyOp7
 70
     1
102
RTVSPropertyOp8
 70
     1
102
RTVSPropertyOp9
 70
     1
102
RTVSPropertyOp10
 70
     1
102
RTVSPropertyOp11
 70
     1
102
RTVSPropertyOp12
 70
     1
102
RTVSPropertyOp13
 70
     1
102
RTVSPropertyOp14
 70
     1
102
RTVSPropertyOp15
 70
     1
102
RTVSPropertyOp16
 70
     1
102
RTVSPropertyOp17
 70
     1
102
RTVSPropertyOp18
 70
     1
102
RTVSPropertyOp19
 70
     1
102
RTVSPropertyOp20
 70
     1
102
RTVSPropertyOp21
 70
     1
102
RTVSPropertyOp22
 70
     1
102
RTVSPropertyOp23
 70
     1
102
RTVSPropertyOp24
 70
     1
102
RTVSPropertyOp25
 70
     1
102
RTVSPropertyOp26
 70
     1
102
RTVSPropertyOp27
 70
     1
102
RTVSPropertyOp28
 70
     1
102
RTVSPropertyOp29
 70
     1
102
RTVSPropertyOp30
 70
     1
102
RTVSPropertyOp31
 70
     1
102
RTVSPropertyOp32
 70
     1
  0
XRECORD
  5
FF
102
{ACAD_REACTORS
330
FE
102
}
330
FE
100
AcDbXrecord
280
     1
102
RTVSPropertyOp0
 70
     1
102
RTVSPropertyOp1
 70
     1
102
RTVSPropertyOp2
 70
     1
102
RTVSPropertyOp3
 70
     1
102
RTVSPropertyOp4
 70
     1
102
RTVSPropertyOp5
 70
     1
102
RTVSPropertyOp6
 70
     1
102
RTVSPropertyOp7
 70
     1
102
RTVSPropertyOp8
 70
     1
102
RTVSPropertyOp9
 70
     1
102
RTVSPropertyOp10
 70
     1
102
RTVSPropertyOp11
 70
     1
102
RTVSPropertyOp12
 70
     1
102
RTVSPropertyOp13
 70
     1
102
RTVSPropertyOp14
 70
     1
102
RTVSPropertyOp15
 70
     1
102
RTVSPropertyOp16
 70
     1
102
RTVSPropertyOp17
 70
     1
102
RTVSPropertyOp18
 70
     1
102
RTVSPropertyOp19
 70
     1
102
RTVSPropertyOp20
 70
     1
102
RTVSPropertyOp21
 70
     1
102
RTVSPropertyOp22
 70
     1
102
RTVSPropertyOp23
 70
     1
102
RTVSPropertyOp24
 70
     1
102
RTVSPropertyOp25
 70
     1
102
RTVSPropertyOp26
 70
     1
102
RTVSPropertyOp27
 70
     1
102
RTVSPropertyOp28
 70
     1
102
RTVSPropertyOp29
 70
     1
102
RTVSPropertyOp30
 70
     1
102
RTVSPropertyOp31
 70
     1
102
RTVSPropertyOp32
 70
     1
  0
XRECORD
  5
101
102
{ACAD_REACTORS
330
100
102
}
330
100
100
AcDbXrecord
280
     1
102
RTVSPropertyOp0
 70
     1
102
RTVSPropertyOp1
 70
     1
102
RTVSPropertyOp2
 70
     1
102
RTVSPropertyOp3
 70
     1
102
RTVSPropertyOp4
 70
     1
102
RTVSPropertyOp5
 70
     1
102
RTVSPropertyOp6
 70
     1
102
RTVSPropertyOp7
 70
     1
102
RTVSPropertyOp8
 70
     1
102
RTVSPropertyOp9
 70
     1
102
RTVSPropertyOp10
 70
     1
102
RTVSPropertyOp11
 70
     1
102
RTVSPropertyOp12
 70
     1
102
RTVSPropertyOp13
 70
     1
102
RTVSPropertyOp14
 70
     1
102
RTVSPropertyOp15
 70
     1
102
RTVSPropertyOp16
 70
     1
102
RTVSPropertyOp17
 70
     1
102
RTVSPropertyOp18
 70
     1
102
RTVSPropertyOp19
 70
     1
102
RTVSPropertyOp20
 70
     1
102
RTVSPropertyOp21
 70
     1
102
RTVSPropertyOp22
 70
     1
102
RTVSPropertyOp23
 70
     1
102
RTVSPropertyOp24
 70
     1
102
RTVSPropertyOp25
 70
     1
102
RTVSPropertyOp26
 70
     1
102
RTVSPropertyOp27
 70
     1
102
RTVSPropertyOp28
 70
     1
102
RTVSPropertyOp29
 70
     1
102
RTVSPropertyOp30
 70
     1
102
RTVSPropertyOp31
 70
     1
102
RTVSPropertyOp32
 70
     1
  0
XRECORD
  5
109
102
{ACAD_REACTORS
330
108
102
}
330
108
100
AcDbXrecord
280
     1
102
RTVSPropertyOp0
 70
     1
102
RTVSPropertyOp1
 70
     1
102
RTVSPropertyOp2
 70
     1
102
RTVSPropertyOp3
 70
     1
102
RTVSPropertyOp4
 70
     1
102
RTVSPropertyOp5
 70
     1
102
RTVSPropertyOp6
 70
     1
102
RTVSPropertyOp7
 70
     1
102
RTVSPropertyOp8
 70
     1
102
RTVSPropertyOp9
 70
     1
102
RTVSPropertyOp10
 70
     1
102
RTVSPropertyOp11
 70
     1
102
RTVSPropertyOp12
 70
     1
102
RTVSPropertyOp13
 70
     1
102
RTVSPropertyOp14
 70
     1
102
RTVSPropertyOp15
 70
     1
102
RTVSPropertyOp16
 70
     1
102
RTVSPropertyOp17
 70
     1
102
RTVSPropertyOp18
 70
     1
102
RTVSPropertyOp19
 70
     1
102
RTVSPropertyOp20
 70
     1
102
RTVSPropertyOp21
 70
     1
102
RTVSPropertyOp22
 70
     1
102
RTVSPropertyOp23
 70
     1
102
RTVSPropertyOp24
 70
     1
102
RTVSPropertyOp25
 70
     1
102
RTVSPropertyOp26
 70
     1
102
RTVSPropertyOp27
 70
     1
102
RTVSPropertyOp28
 70
     1
102
RTVSPropertyOp29
 70
     1
102
RTVSPropertyOp30
 70
     1
102
RTVSPropertyOp31
 70
     1
102
RTVSPropertyOp32
 70
     1
  0
XRECORD
  5
ED
102
{ACAD_REACTORS
330
EC
102
}
330
EC
100
AcDbXrecord
280
     1
102
RTVSPropertyOp0
 70
     1
102
RTVSPropertyOp1
 70
     1
102
RTVSPropertyOp2
 70
     1
102
RTVSPropertyOp3
 70
     1
102
RTVSPropertyOp4
 70
     1
102
RTVSPropertyOp5
 70
     1
102
RTVSPropertyOp6
 70
     1
102
RTVSPropertyOp7
 70
     1
102
RTVSPropertyOp8
 70
     1
102
RTVSPropertyOp9
 70
     1
102
RTVSPropertyOp10
 70
     1
102
RTVSPropertyOp11
 70
     1
102
RTVSPropertyOp12
 70
     1
102
RTVSPropertyOp13
 70
     1
102
RTVSPropertyOp14
 70
     1
102
RTVSPropertyOp15
 70
     1
102
RTVSPropertyOp16
 70
     1
102
RTVSPropertyOp17
 70
     1
102
RTVSPropertyOp18
 70
     1
102
RTVSPropertyOp19
 70
     1
102
RTVSPropertyOp20
 70
     1
102
RTVSPropertyOp21
 70
     1
102
RTVSPropertyOp22
 70
     1
102
RTVSPropertyOp23
 70
     1
102
RTVSPropertyOp24
 70
     1
102
RTVSPropertyOp25
 70
     1
102
RTVSPropertyOp26
 70
     1
102
RTVSPropertyOp27
 70
     1
102
RTVSPropertyOp28
 70
     1
102
RTVSPropertyOp29
 70
     1
102
RTVSPropertyOp30
 70
     1
102
RTVSPropertyOp31
 70
     1
102
RTVSPropertyOp32
 70
     1
  0
XRECORD
  5
EF
102
{ACAD_REACTORS
330
EE
102
}
330
EE
100
AcDbXrecord
280
     1
102
RTVSPropertyOp0
 70
     1
102
RTVSPropertyOp1
 70
     1
102
RTVSPropertyOp2
 70
     1
102
RTVSPropertyOp3
 70
     1
102
RTVSPropertyOp4
 70
     1
102
RTVSPropertyOp5
 70
     1
102
RTVSPropertyOp6
 70
     1
102
RTVSPropertyOp7
 70
     1
102
RTVSPropertyOp8
 70
     1
102
RTVSPropertyOp9
 70
     1
102
RTVSPropertyOp10
 70
     1
102
RTVSPropertyOp11
 70
     1
102
RTVSPropertyOp12
 70
     1
102
RTVSPropertyOp13
 70
     1
102
RTVSPropertyOp14
 70
     1
102
RTVSPropertyOp15
 70
     1
102
RTVSPropertyOp16
 70
     1
102
RTVSPropertyOp17
 70
     1
102
RTVSPropertyOp18
 70
     1
102
RTVSPropertyOp19
 70
     1
102
RTVSPropertyOp20
 70
     1
102
RTVSPropertyOp21
 70
     1
102
RTVSPropertyOp22
 70
     1
102
RTVSPropertyOp23
 70
     1
102
RTVSPropertyOp24
 70
     1
102
RTVSPropertyOp25
 70
     1
102
RTVSPropertyOp26
 70
     1
102
RTVSPropertyOp27
 70
     1
102
RTVSPropertyOp28
 70
     1
102
RTVSPropertyOp29
 70
     1
102
RTVSPropertyOp30
 70
     1
102
RTVSPropertyOp31
 70
     1
102
RTVSPropertyOp32
 70
     1
  0
XRECORD
  5
F1
102
{ACAD_REACTORS
330
F0
102
}
330
F0
100
AcDbXrecord
280
     1
102
RTVSPropertyOp0
 70
     1
102
RTVSPropertyOp1
 70
     1
102
RTVSPropertyOp2
 70
     1
102
RTVSPropertyOp3
 70
     1
102
RTVSPropertyOp4
 70
     1
102
RTVSPropertyOp5
 70
     1
102
RTVSPropertyOp6
 70
     1
102
RTVSPropertyOp7
 70
     1
102
RTVSPropertyOp8
 70
     1
102
RTVSPropertyOp9
 70
     1
102
RTVSPropertyOp10
 70
     1
102
RTVSPropertyOp11
 70
     1
102
RTVSPropertyOp12
 70
     1
102
RTVSPropertyOp13
 70
     1
102
RTVSPropertyOp14
 70
     1
102
RTVSPropertyOp15
 70
     1
102
RTVSPropertyOp16
 70
     1
102
RTVSPropertyOp17
 70
     1
102
RTVSPropertyOp18
 70
     1
102
RTVSPropertyOp19
 70
     1
102
RTVSPropertyOp20
 70
     1
102
RTVSPropertyOp21
 70
     1
102
RTVSPropertyOp22
 70
     1
102
RTVSPropertyOp23
 70
     1
102
RTVSPropertyOp24
 70
     1
102
RTVSPropertyOp25
 70
     1
102
RTVSPropertyOp26
 70
     1
102
RTVSPropertyOp27
 70
     1
102
RTVSPropertyOp28
 70
     1
102
RTVSPropertyOp29
 70
     1
102
RTVSPropertyOp30
 70
     1
102
RTVSPropertyOp31
 70
     1
102
RTVSPropertyOp32
 70
     1
  0
XRECORD
  5
F3
102
{ACAD_REACTORS
330
F2
102
}
330
F2
100
AcDbXrecord
280
     1
102
RTVSPropertyOp0
 70
     1
102
RTVSPropertyOp1
 70
     1
102
RTVSPropertyOp2
 70
     1
102
RTVSPropertyOp3
 70
     1
102
RTVSPropertyOp4
 70
     1
102
RTVSPropertyOp5
 70
     1
102
RTVSPropertyOp6
 70
     1
102
RTVSPropertyOp7
 70
     1
102
RTVSPropertyOp8
 70
     1
102
RTVSPropertyOp9
 70
     1
102
RTVSPropertyOp10
 70
     1
102
RTVSPropertyOp11
 70
     1
102
RTVSPropertyOp12
 70
     1
102
RTVSPropertyOp13
 70
     1
102
RTVSPropertyOp14
 70
     1
102
RTVSPropertyOp15
 70
     1
102
RTVSPropertyOp16
 70
     1
102
RTVSPropertyOp17
 70
     1
102
RTVSPropertyOp18
 70
     1
102
RTVSPropertyOp19
 70
     1
102
RTVSPropertyOp20
 70
     1
102
RTVSPropertyOp21
 70
     1
102
RTVSPropertyOp22
 70
     1
102
RTVSPropertyOp23
 70
     1
102
RTVSPropertyOp24
 70
     1
102
RTVSPropertyOp25
 70
     1
102
RTVSPropertyOp26
 70
     1
102
RTVSPropertyOp27
 70
     1
102
RTVSPropertyOp28
 70
     1
102
RTVSPropertyOp29
 70
     1
102
RTVSPropertyOp30
 70
     1
102
RTVSPropertyOp31
 70
     1
102
RTVSPropertyOp32
 70
     1
  0
XRECORD
  5
107
102
{ACAD_REACTORS
330
106
102
}
330
106
100
AcDbXrecord
280
     1
102
RTVSPropertyOp0
 70
     1
102
RTVSPropertyOp1
 70
     1
102
RTVSPropertyOp2
 70
     1
102
RTVSPropertyOp3
 70
     1
102
RTVSPropertyOp4
 70
     1
102
RTVSPropertyOp5
 70
     1
102
RTVSPropertyOp6
 70
     1
102
RTVSPropertyOp7
 70
     1
102
RTVSPropertyOp8
 70
     1
102
RTVSPropertyOp9
 70
     1
102
RTVSPropertyOp10
 70
     1
102
RTVSPropertyOp11
 70
     1
102
RTVSPropertyOp12
 70
     1
102
RTVSPropertyOp13
 70
     1
102
RTVSPropertyOp14
 70
     1
102
RTVSPropertyOp15
 70
     1
102
RTVSPropertyOp16
 70
     1
102
RTVSPropertyOp17
 70
     1
102
RTVSPropertyOp18
 70
     1
102
RTVSPropertyOp19
 70
     1
102
RTVSPropertyOp20
 70
     1
102
RTVSPropertyOp21
 70
     1
102
RTVSPropertyOp22
 70
     1
102
RTVSPropertyOp23
 70
     1
102
RTVSPropertyOp24
 70
     1
102
RTVSPropertyOp25
 70
     1
102
RTVSPropertyOp26
 70
     1
102
RTVSPropertyOp27
 70
     1
102
RTVSPropertyOp28
 70
     1
102
RTVSPropertyOp29
 70
     1
102
RTVSPropertyOp30
 70
     1
102
RTVSPropertyOp31
 70
     1
102
RTVSPropertyOp32
 70
     1
  0
XRECORD
  5
FD
102
{ACAD_REACTORS
330
FC
102
}
330
FC
100
AcDbXrecord
280
     1
102
RTVSPropertyOp0
 70
     1
102
RTVSPropertyOp1
 70
     1
102
RTVSPropertyOp2
 70
     1
102
RTVSPropertyOp3
 70
     1
102
RTVSPropertyOp4
 70
     1
102
RTVSPropertyOp5
 70
     1
102
RTVSPropertyOp6
 70
     1
102
RTVSPropertyOp7
 70
     1
102
RTVSPropertyOp8
 70
     1
102
RTVSPropertyOp9
 70
     1
102
RTVSPropertyOp10
 70
     1
102
RTVSPropertyOp11
 70
     1
102
RTVSPropertyOp12
 70
     1
102
RTVSPropertyOp13
 70
     1
102
RTVSPropertyOp14
 70
     1
102
RTVSPropertyOp15
 70
     1
102
RTVSPropertyOp16
 70
     1
102
RTVSPropertyOp17
 70
     1
102
RTVSPropertyOp18
 70
     1
102
RTVSPropertyOp19
 70
     1
102
RTVSPropertyOp20
 70
     1
102
RTVSPropertyOp21
 70
     1
102
RTVSPropertyOp22
 70
     1
102
RTVSPropertyOp23
 70
     1
102
RTVSPropertyOp24
 70
     1
102
RTVSPropertyOp25
 70
     1
102
RTVSPropertyOp26
 70
     1
102
RTVSPropertyOp27
 70
     1
102
RTVSPropertyOp28
 70
     1
102
RTVSPropertyOp29
 70
     1
102
RTVSPropertyOp30
 70
     1
102
RTVSPropertyOp31
 70
     1
102
RTVSPropertyOp32
 70
     1
  0
XRECORD
  5
105
102
{ACAD_REACTORS
330
104
102
}
330
104
100
AcDbXrecord
280
     1
102
RTVSPropertyOp0
 70
     1
102
RTVSPropertyOp1
 70
     1
102
RTVSPropertyOp2
 70
     1
102
RTVSPropertyOp3
 70
     1
102
RTVSPropertyOp4
 70
     1
102
RTVSPropertyOp5
 70
     1
102
RTVSPropertyOp6
 70
     1
102
RTVSPropertyOp7
 70
     1
102
RTVSPropertyOp8
 70
     1
102
RTVSPropertyOp9
 70
     1
102
RTVSPropertyOp10
 70
     1
102
RTVSPropertyOp11
 70
     1
102
RTVSPropertyOp12
 70
     1
102
RTVSPropertyOp13
 70
     1
102
RTVSPropertyOp14
 70
     1
102
RTVSPropertyOp15
 70
     1
102
RTVSPropertyOp16
 70
     1
102
RTVSPropertyOp17
 70
     1
102
RTVSPropertyOp18
 70
     1
102
RTVSPropertyOp19
 70
     1
102
RTVSPropertyOp20
 70
     1
102
RTVSPropertyOp21
 70
     1
102
RTVSPropertyOp22
 70
     1
102
RTVSPropertyOp23
 70
     1
102
RTVSPropertyOp24
 70
     1
102
RTVSPropertyOp25
 70
     1
102
RTVSPropertyOp26
 70
     1
102
RTVSPropertyOp27
 70
     1
102
RTVSPropertyOp28
 70
     1
102
RTVSPropertyOp29
 70
     1
102
RTVSPropertyOp30
 70
     1
102
RTVSPropertyOp31
 70
     1
102
RTVSPropertyOp32
 70
     1
  0
ENDSEC
  0
EOF
